  0
SECTION
  2
HEADER
  9
$ACADVER
  1
AC1009
  9
$DWGCODEPAGE
  3
iso8859-1
  9
$INSBASE
 10
0.0
 20
0.0
 30
0.0
  9
$EXTMIN
 10
1.0E20
 20
1.0E20
  9
$EXTMAX
 10
-1.0E20
 20
-1.0E20
  9
$LIMMIN
 10
0.0
 20
0.0
  9
$LIMMAX
 10
12.0
 20
9.0
  9
$ORTHOMODE
 70
     0
  9
$REGENMODE
 70
     1
  9
$FILLMODE
 70
     1
  9
$QTEXTMODE
 70
     0
  9
$MIRRTEXT
 70
     1
  9
$DRAGMODE
 70
     2
  9
$LTSCALE
 40
15.0
  9
$OSMODE
 70
     0
  9
$ATTMODE
 70
     1
  9
$TEXTSIZE
 40
0.2
  9
$TRACEWID
 40
0.05
  9
$TEXTSTYLE
  7
STANDARD
  9
$CLAYER
  8
0
  9
$CELTYPE
  6
DASHED
  9
$CECOLOR
 62
   256
  9
$DIMSCALE
 40
1.0
  9
$DIMASZ
 40
0.18
  9
$DIMEXO
 40
0.0625
  9
$DIMDLI
 40
0.38
  9
$DIMRND
 40
0.0
  9
$DIMDLE
 40
0.0
  9
$DIMEXE
 40
0.18
  9
$DIMTP
 40
0.0
  9
$DIMTM
 40
0.0
  9
$DIMTXT
 40
0.18
  9
$DIMCEN
 40
0.09
  9
$DIMTSZ
 40
0.0
  9
$DIMTOL
 70
     0
  9
$DIMLIM
 70
     0
  9
$DIMTIH
 70
     1
  9
$DIMTOH
 70
     1
  9
$DIMSE1
 70
     0
  9
$DIMSE2
 70
     0
  9
$DIMTAD
 70
     0
  9
$DIMZIN
 70
     0
  9
$DIMBLK
  1

  9
$DIMASO
 70
     1
  9
$DIMSHO
 70
     1
  9
$DIMPOST
  1

  9
$DIMAPOST
  1

  9
$DIMALT
 70
     0
  9
$DIMALTD
 70
     2
  9
$DIMALTF
 40
25.4
  9
$DIMLFAC
 40
1.0
  9
$DIMTOFL
 70
     0
  9
$DIMTVP
 40
0.0
  9
$DIMTIX
 70
     0
  9
$DIMSOXD
 70
     0
  9
$DIMSAH
 70
     0
  9
$DIMBLK1
  1

  9
$DIMBLK2
  1

  9
$DIMSTYLE
  2
STANDARD
  9
$DIMCLRD
 70
     0
  9
$DIMCLRE
 70
     0
  9
$DIMCLRT
 70
     0
  9
$DIMTFAC
 40
1.0
  9
$DIMGAP
 40
0.09
  9
$LUNITS
 70
     2
  9
$LUPREC
 70
     4
  9
$AXISMODE
 70
     0
  9
$AXISUNIT
 10
0.0
 20
0.0
  9
$SKETCHINC
 40
0.1
  9
$FILLETRAD
 40
0.0
  9
$AUNITS
 70
     0
  9
$AUPREC
 70
     0
  9
$MENU
  1
acad
  9
$ELEVATION
 40
0.0
  9
$PELEVATION
 40
0.0
  9
$THICKNESS
 40
0.0
  9
$LIMCHECK
 70
     0
  9
$BLIPMODE
 70
     1
  9
$CHAMFERA
 40
0.0
  9
$CHAMFERB
 40
0.0
  9
$SKPOLY
 70
     0
  9
$TDCREATE
 40
0.000000000
  9
$TDUPDATE
 40
0.000000000
  9
$TDINDWG
 40
0.0
  9
$TDUSRTIMER
 40
0.0
  9
$USRTIMER
 70
     1
  9
$ANGBASE
 50
0.0
  9
$ANGDIR
 70
     0
  9
$PDMODE
 70
     0
  9
$PDSIZE
 40
0.0
  9
$PLINEWID
 40
0.0
  9
$COORDS
 70
     1
  9
$SPLFRAME
 70
     0
  9
$SPLINETYPE
 70
     6
  9
$SPLINESEGS
 70
     8
  9
$ATTDIA
 70
     0
  9
$ATTREQ
 70
     1
  9
$HANDLING
 70
     1
  9
$HANDSEED
  5
   709
  9
$SURFTAB1
 70
     6
  9
$SURFTAB2
 70
     6
  9
$SURFTYPE
 70
     6
  9
$SURFU
 70
     6
  9
$SURFV
 70
     6
  9
$UCSNAME
  2

  9
$UCSORG
 10
0.0
 20
0.0
 30
0.0
  9
$UCSXDIR
 10
1.0
 20
0.0
 30
0.0
  9
$UCSYDIR
 10
0.0
 20
1.0
 30
0.0
  9
$PUCSNAME
  2

  9
$PUCSORG
 10
0.0
 20
0.0
 30
0.0
  9
$PUCSXDIR
 10
1.0
 20
0.0
 30
0.0
  9
$PUCSYDIR
 10
0.0
 20
1.0
 30
0.0
  9
$USERI1
 70
     0
  9
$USERI2
 70
     0
  9
$USERI3
 70
     0
  9
$USERI4
 70
     0
  9
$USERI5
 70
     0
  9
$USERR1
 40
0.0
  9
$USERR2
 40
0.0
  9
$USERR3
 40
0.0
  9
$USERR4
 40
0.0
  9
$USERR5
 40
0.0
  9
$WORLDVIEW
 70
     1
  9
$SHADEDGE
 70
     3
  9
$SHADEDIF
 70
    70
  9
$TILEMODE
 70
     1
  9
$MAXACTVP
 70
    16
  9
$PINSBASE
 10
0.0
 20
0.0
 30
0.0
  9
$PLIMCHECK
 70
     0
  9
$PEXTMIN
 10
1.0E20
 20
1.0E20
 30
1.0E20
  9
$PEXTMAX
 10
-1.0E20
 20
-1.0E20
 30
-1.0E20
  9
$PLIMMIN
 10
0.0
 20
0.0
  9
$PLIMMAX
 10
12.0
 20
9.0
  9
$UNITMODE
 70
     0
  9
$VISRETAIN
 70
     0
  0
ENDSEC
  0
SECTION
  2
TABLES
  0
TABLE
  2
VPORT
 70
     1
  0
VPORT
  2
*ACTIVE
 70
     0
 10
0.0
 20
0.0
 11
1.0
 21
1.0
 12
6.801242
 22
4.5
 13
0.0
 23
0.0
 14
1.0
 24
1.0
 15
0.0
 25
0.0
 16
0.0
 26
0.0
 36
1.0
 17
0.0
 27
0.0
 37
0.0
 40
9.0
 41
1.511387
 42
50.0
 43
0.0
 44
0.0
 50
0.0
 51
0.0
 71
     0
 72
   100
 73
     1
 74
     1
 75
     0
 76
     0
 77
     0
 78
     0
  0
ENDTAB
  0
TABLE
  2
LTYPE
 70
    41
  0
LTYPE
  2
BYBLOCK
 70
     0
  3

 72
    65
 73
     0
 40
0.0
  0
LTYPE
  2
BYLAYER
 70
     0
  3

 72
    65
 73
     0
 40
0.0
  0
LTYPE
  2
CONTINUOUS
 70
     0
  3
Solid line
 72
    65
 73
     0
 40
0.0
  0
LTYPE
  2
BORDER
 70
    64
  3
__ __ . __ __ . __ __ . __ __ . __ __ . __ __ .
 72
    65
 73
     6
 40
1.75
 49
0.5
 49
-0.25
 49
0.5
 49
-0.25
 49
0.0
 49
-0.25
  0
LTYPE
  2
BORDER2
 70
    64
  3
__.__.__.__.__.__.__.__.__.__.__.__.__.__.__.__
 72
    65
 73
     6
 40
0.875
 49
0.25
 49
-0.125
 49
0.25
 49
-0.125
 49
0.0
 49
-0.125
  0
LTYPE
  2
BORDERX2
 70
    64
  3
____  ____  .  ____  ____  .  ____  ____  .  __
 72
    65
 73
     6
 40
3.5
 49
1.0
 49
-0.5
 49
1.0
 49
-0.5
 49
0.0
 49
-0.5
  0
LTYPE
  2
CENTER
 70
    64
  3
____ _ ____ _ ____ _ ____ _ ____ _ ____ _ ____
 72
    65
 73
     4
 40
2.0
 49
1.25
 49
-0.25
 49
0.25
 49
-0.25
  0
LTYPE
  2
CENTER2
 70
    64
  3
___ _ ___ _ ___ _ ___ _ ___ _ ___ _ ___ _ ___ _
 72
    65
 73
     4
 40
1.125
 49
0.75
 49
-0.125
 49
0.125
 49
-0.125
  0
LTYPE
  2
CENTERX2
 70
    64
  3
________  __  ________  __  ________  __  _____
 72
    65
 73
     4
 40
4.0
 49
2.5
 49
-0.5
 49
0.5
 49
-0.5
  0
LTYPE
  2
DASHDOT
 70
    64
  3
__ . __ . __ . __ . __ . __ . __ . __ . __ . __
 72
    65
 73
     4
 40
1.0
 49
0.5
 49
-0.25
 49
0.0
 49
-0.25
  0
LTYPE
  2
DASHDOT2
 70
    64
  3
_._._._._._._._._._._._._._._._._._._._._._._._
 72
    65
 73
     4
 40
0.5
 49
0.25
 49
-0.125
 49
0.0
 49
-0.125
  0
LTYPE
  2
DASHDOTX2
 70
    64
  3
____  .  ____  .  ____  .  ____  .  ____  .  __
 72
    65
 73
     4
 40
2.0
 49
1.0
 49
-0.5
 49
0.0
 49
-0.5
  0
LTYPE
  2
DASHED
 70
    64
  3
__ __ __ __ __ __ __ __ __ __ __ __ __ __ __ __
 72
    65
 73
     2
 40
0.75
 49
0.5
 49
-0.25
  0
LTYPE
  2
DASHED2
 70
    64
  3
_ _ _ _ _ _ _ _ _ _ _ _ _ _ _ _ _ _ _ _ _ _ _ _
 72
    65
 73
     2
 40
0.375
 49
0.25
 49
-0.125
  0
LTYPE
  2
DASHEDX2
 70
    64
  3
____  ____  ____  ____  ____  ____  ____  ____
 72
    65
 73
     2
 40
1.5
 49
1.0
 49
-0.5
  0
LTYPE
  2
DIVIDE
 70
    64
  3
____ . . ____ . . ____ . . ____ . . ____ . . __
 72
    65
 73
     6
 40
1.25
 49
0.5
 49
-0.25
 49
0.0
 49
-0.25
 49
0.0
 49
-0.25
  0
LTYPE
  2
DIVIDE2
 70
    64
  3
__..__..__..__..__..__..__..__..__..__..__..__.
 72
    65
 73
     6
 40
0.625
 49
0.25
 49
-0.125
 49
0.0
 49
-0.125
 49
0.0
 49
-0.125
  0
LTYPE
  2
DIVIDEX2
 70
    64
  3
________  .  .  ________  .  .  ________  .  .
 72
    65
 73
     6
 40
2.5
 49
1.0
 49
-0.5
 49
0.0
 49
-0.5
 49
0.0
 49
-0.5
  0
LTYPE
  2
DOT
 70
    64
  3
. . . . . . . . . . . . . . . . . . . . . . . .
 72
    65
 73
     2
 40
0.25
 49
0.0
 49
-0.25
  0
LTYPE
  2
DOT2
 70
    64
  3
...............................................
 72
    65
 73
     2
 40
0.125
 49
0.0
 49
-0.125
  0
LTYPE
  2
DOTX2
 70
    64
  3
.  .  .  .  .  .  .  .  .  .  .  .  .  .  .  .
 72
    65
 73
     2
 40
0.5
 49
0.0
 49
-0.5
  0
LTYPE
  2
HIDDEN
 70
    64
  3
__ __ __ __ __ __ __ __ __ __ __ __ __ __ __ __
 72
    65
 73
     2
 40
0.375
 49
0.25
 49
-0.125
  0
LTYPE
  2
HIDDEN2
 70
    64
  3
_ _ _ _ _ _ _ _ _ _ _ _ _ _ _ _ _ _ _ _ _ _ _ _
 72
    65
 73
     2
 40
0.1875
 49
0.125
 49
-0.0625
  0
LTYPE
  2
HIDDENX2
 70
    64
  3
____ ____ ____ ____ ____ ____ ____ ____ ____ __
 72
    65
 73
     2
 40
0.75
 49
0.5
 49
-0.25
  0
LTYPE
  2
PHANTOM
 70
    64
  3
______  __  __  ______  __  __  ______  __  __
 72
    65
 73
     6
 40
2.5
 49
1.25
 49
-0.25
 49
0.25
 49
-0.25
 49
0.25
 49
-0.25
  0
LTYPE
  2
PHANTOM2
 70
    64
  3
___ _ _ ___ _ _ ___ _ _ ___ _ _ ___ _ _ ___ _ _
 72
    65
 73
     6
 40
1.25
 49
0.625
 49
-0.125
 49
0.125
 49
-0.125
 49
0.125
 49
-0.125
  0
LTYPE
  2
PHANTOMX2
 70
    64
  3
____________    ____    ____    ____________
 72
    65
 73
     6
 40
5.0
 49
2.5
 49
-0.5
 49
0.5
 49
-0.5
 49
0.5
 49
-0.5
  0
LTYPE
  2
ACAD_ISO02W100
 70
    64
  3
__ __ __ __ __ __ __ __ __ __ __ __ __ __ __ __
 72
    65
 73
     2
 40
15.0
 49
12.0
 49
-3.0
  0
LTYPE
  2
ACAD_ISO03W100
 70
    64
  3
__    __    __    __    __    __    __    __
 72
    65
 73
     2
 40
30.0
 49
12.0
 49
-18.0
  0
LTYPE
  2
ACAD_ISO04W100
 70
    64
  3
____ . ____ . ____ . ____ . ____ . ____ . ____
 72
    65
 73
     4
 40
30.5
 49
24.0
 49
-3.0
 49
0.5
 49
-3.0
  0
LTYPE
  2
ACAD_ISO05W100
 70
    64
  3
____ .. ____ .. ____ .. ____ .. ____ .. ____ ..
 72
    65
 73
     6
 40
34.0
 49
24.0
 49
-3.0
 49
0.5
 49
-3.0
 49
0.5
 49
-3.0
  0
LTYPE
  2
ACAD_ISO06W100
 70
    64
  3
____ ... ____ ... ____ ... ____ ... ____ ... __
 72
    65
 73
     8
 40
37.5
 49
24.0
 49
-3.0
 49
0.5
 49
-3.0
 49
0.5
 49
-3.0
 49
0.5
 49
-3.0
  0
LTYPE
  2
ACAD_ISO07W100
 70
    64
  3
. . . . . . . . . . . . . . . . . . . . . . . .
 72
    65
 73
     2
 40
3.5
 49
0.5
 49
-3.0
  0
LTYPE
  2
ACAD_ISO08W100
 70
    64
  3
____ __ ____ __ ____ __ ____ ____ __ __ ____ __
 72
    65
 73
     4
 40
36.0
 49
24.0
 49
-3.0
 49
6.0
 49
-3.0
  0
LTYPE
  2
ACAD_ISO09W100
 70
    64
  3
____ __ __ ____ __ __ ____ __ __ ____ __ __ ___
 72
    65
 73
     6
 40
45.0
 49
24.0
 49
-3.0
 49
6.0
 49
-3.0
 49
6.0
 49
-3.0
  0
LTYPE
  2
ACAD_ISO10W100
 70
    64
  3
__ . __ . __ . __ . __ . __ . __ . __ . __ . __
 72
    65
 73
     4
 40
18.5
 49
12.0
 49
-3.0
 49
0.5
 49
-3.0
  0
LTYPE
  2
ACAD_ISO11W100
 70
    64
  3
__ __ . __ __ . __ __ . __ __ . __ __ . __ __ .
 72
    65
 73
     6
 40
33.5
 49
12.0
 49
-3.0
 49
12.0
 49
-3.0
 49
0.5
 49
-3.0
  0
LTYPE
  2
ACAD_ISO12W100
 70
    64
  3
__ . . __ . . __ . . __ . . __ . . __ . . __ .
 72
    65
 73
     6
 40
22.0
 49
12.0
 49
-3.0
 49
0.5
 49
-3.0
 49
0.5
 49
-3.0
  0
LTYPE
  2
ACAD_ISO13W100
 70
    64
  3
__ __ . . __ __ . . __ __ . . __ __ . . __ __ .
 72
    65
 73
     8
 40
37.0
 49
12.0
 49
-3.0
 49
12.0
 49
-3.0
 49
0.5
 49
-3.0
 49
0.5
 49
-3.0
  0
LTYPE
  2
ACAD_ISO14W100
 70
    64
  3
__ . . . __ . . . __ . . . __ . . . __ . . . __
 72
    65
 73
     8
 40
25.5
 49
12.0
 49
-3.0
 49
0.5
 49
-3.0
 49
0.5
 49
-3.0
 49
0.5
 49
-3.0
  0
LTYPE
  2
ACAD_ISO15W100
 70
    64
  3
__ __ . . . __ __ . . . __ __ . . . __ __ . . .
 72
    65
 73
    10
 40
40.5
 49
12.0
 49
-3.0
 49
12.0
 49
-3.0
 49
0.5
 49
-3.0
 49
0.5
 49
-3.0
 49
0.5
 49
-3.0
  0
ENDTAB
  0
TABLE
  2
STYLE
 70
     4
  0
STYLE
  2
STANDARD
 70
    64
 40
0.0
 41
1.0
 50
0.0
 71
     0
 42
0.2
  3
txt
  4

  0
STYLE
  2
TOLERANCE
 70
    64
 40
0.0
 41
1.0
 50
0.0
 71
     0
 42
0.2
  3
../igesfont/iges1003.shx
  4

  0
STYLE
  2
ROMANS
 70
    64
 40
0.0
 41
1.0
 50
0.0
 71
     0
 42
0.2
  3
romans.shx
  4

  0
STYLE
  2
ROMANC
 70
    64
 40
0.0
 41
1.0
 50
0.0
 71
     0
 42
0.2
  3
romanc.shx
  4

  0
ENDTAB
  0
TABLE
  2
DIMSTYLE
 70
     2
  0
DIMSTYLE
  2
UNNAMED
 70
     0
  3

  4

  5

  6

  7

 40
1.0
 41
0.18
 42
0.0625
 43
0.38
 44
0.18
 45
0.0
 46
0.0
 47
0.0
 48
0.0
140
0.18
141
0.09
142
0.0
143
25.4
144
1.0
145
0.0
146
1.0
147
0.09
 71
     0
 72
     0
 73
     1
 74
     1
 75
     0
 76
     0
 77
     0
 78
     0
170
     0
171
     2
172
     0
173
     0
174
     0
175
     0
176
     0
177
     0
178
     0
  0
DIMSTYLE
  2
STANDARD
 70
     0
  3

  4

  5

  6

  7

 40
1.0
 41
0.18
 42
0.0625
 43
0.38
 44
0.18
 45
0.0
 46
0.0
 47
0.0
 48
0.0
140
0.18
141
0.09
142
0.0
143
25.4
144
1.0
145
0.0
146
1.0
147
0.09
 71
     0
 72
     0
 73
     1
 74
     1
 75
     0
 76
     0
 77
     0
 78
     0
170
     0
171
     2
172
     0
173
     0
174
     0
175
     0
176
     0
177
     0
178
     0
  0
ENDTAB
  0
TABLE
  2
LAYER
 70
     2
  0
LAYER
  2
0
 70
     0
 62
     7
  6
CONTINUOUS
  0
LAYER
  2
255
 70
     0
 62
     7
  6
CONTINUOUS
  0
ENDTAB
  0
ENDSEC
  0
SECTION
  2
BLOCKS
  0
BLOCK
  5
     B
  8
0
  6
CONTINUOUS
 62
     7
  2
*UDIM474
 70
    65
 10
0.0
 20
0.0
 30
0.0
  3
*UDIM474
  0
TEXT
  5
     C
  8
0
  6
CONTINUOUS
 62
     7
 10
-422.330451511828
 20
97.5802889918683
 30
0.0
 40
3.00000002980232
  1
5,5
 50
385.037758154948
 41
0.933333333333333
 72
     1
 11
-419.431761204777
 21
100.589872825343
 31
0.0
 73
     2
  0
TEXT
  5
     D
  8
0
  6
CONTINUOUS
 62
     7
 10
-424.822031516648
 20
96.4164465345981
 30
0.0
 40
3.00000002980232
  1
Ø
 50
385.037758154948
 41
0.933333333333334
 72
     1
 11
-424.460222667421
 21
98.2410271508946
 31
0.0
 73
     2
  0
TEXT
  5
     E
  8
0
  6
CONTINUOUS
 62
     7
 10
-414.765108595648
 20
101.114137892671
 30
0.0
 40
3.00000002980232
  1
 - M5
 50
385.037758154948
 41
0.933333333333333
 72
     1
 11
-409.329536830776
 21
105.308724943325
 31
0.0
 73
     2
  0
LINE
  5
     F
  8
0
  6
CONTINUOUS
 62
     7
 10
-402.201103332313
 20
105.879195647553
 30
0.0
 11
-433.686371556591
 21
91.1721054914773
 31
0.0
  0
LINE
  5
    10
  8
0
  6
CONTINUOUS
 62
     7
 10
-429.98425987984
 20
93.4763750384668
 30
0.0
 11
-432.44058156841
 21
91.7540267106711
 31
0.0
  0
LINE
  5
    11
  8
0
  6
CONTINUOUS
 62
     7
 10
-432.44058156841
 20
91.7540267106711
 30
0.0
 11
-429.543316435753
 21
92.532393430856
 31
0.0
  0
LINE
  5
    12
  8
0
  6
CONTINUOUS
 62
     7
 10
-436.14269324516
 20
89.4497571636816
 30
0.0
 11
-433.686371556591
 21
91.1721054914773
 31
0.0
  0
LINE
  5
    13
  8
0
  6
CONTINUOUS
 62
     7
 10
-433.686371556591
 20
91.1721054914773
 30
0.0
 11
-436.583636689247
 21
90.3937387712924
 31
0.0
  0
ENDBLK
  5
    14
  8
0
  6
CONTINUOUS
 62
     7
  0
BLOCK
  5
    15
  8
0
  6
CONTINUOUS
 62
     5
  2
*UDIM475
 70
    65
 10
0.0
 20
0.0
 30
0.0
  3
*UDIM475
  0
TEXT
  5
    16
  8
0
  6
CONTINUOUS
 62
     5
 10
-458.120136275628
 20
69.931816011936
 30
0.0
 40
3.00000002980232
  1
105,25
 50
449.999999896069
 41
0.933333333333333
 72
     1
 11
-459.620136275888
 21
78.0318160951138
 31
0.0
 73
     2
  0
LINE
  5
    17
  8
0
  6
CONTINUOUS
 62
     5
 10
-450.790144964936
 20
91.4630661010742
 30
0.0
 11
-459.120136260986
 21
91.4630661010742
 31
0.0
  0
LINE
  5
    18
  8
0
  6
CONTINUOUS
 62
     5
 10
-457.120136260986
 20
91.4630661010742
 30
0.0
 11
-457.120136260986
 21
65.1505661010742
 31
0.0
  0
LINE
  5
    19
  8
0
  6
CONTINUOUS
 62
     5
 10
-456.599191831035
 20
88.5086428238673
 30
0.0
 11
-457.120136260986
 21
91.4630661010742
 31
0.0
  0
LINE
  5
    1A
  8
0
  6
CONTINUOUS
 62
     5
 10
-457.120136260986
 20
91.4630661010742
 30
0.0
 11
-457.641080690938
 21
88.5086428238673
 31
0.0
  0
LINE
  5
    1B
  8
0
  6
CONTINUOUS
 62
     5
 10
-457.641080690938
 20
68.1049893782812
 30
0.0
 11
-457.120136260986
 21
65.1505661010742
 31
0.0
  0
LINE
  5
    1C
  8
0
  6
CONTINUOUS
 62
     5
 10
-457.120136260986
 20
65.1505661010742
 30
0.0
 11
-456.599191831035
 21
68.1049893782812
 31
0.0
  0
ENDBLK
  5
    1D
  8
0
  6
CONTINUOUS
 62
     5
  0
BLOCK
  5
    1E
  8
0
  6
CONTINUOUS
 62
     7
  2
*UDIM476
 70
    65
 10
0.0
 20
0.0
 30
0.0
  3
*UDIM476
  0
TEXT
  5
    1F
  8
0
  6
CONTINUOUS
 62
     7
 10
-420.377485302817
 20
73.3249549910946
 30
0.0
 40
3.00000002980232
  1
35
 50
359.999999896069
 41
0.933333333333333
 72
     1
 11
-417.877485275269
 21
74.8249550014734
 31
0.0
 73
     2
  0
LINE
  5
    20
  8
0
  6
CONTINUOUS
 62
     7
 10
-415.377485250433
 20
72.3249549865723
 30
0.0
 11
-441.8134765625
 21
72.3249549865723
 31
0.0
  0
LINE
  5
    21
  8
0
  6
CONTINUOUS
 62
     7
 10
-430.109053285293
 20
72.8458994165239
 30
0.0
 11
-433.0634765625
 21
72.3249549865723
 31
0.0
  0
LINE
  5
    22
  8
0
  6
CONTINUOUS
 62
     7
 10
-433.0634765625
 20
72.3249549865723
 30
0.0
 11
-430.109053285293
 21
71.8040105566206
 31
0.0
  0
LINE
  5
    23
  8
0
  6
CONTINUOUS
 62
     7
 10
-444.767899839707
 20
71.8040105566206
 30
0.0
 11
-441.8134765625
 21
72.3249549865723
 31
0.0
  0
LINE
  5
    24
  8
0
  6
CONTINUOUS
 62
     7
 10
-441.8134765625
 20
72.3249549865723
 30
0.0
 11
-444.767899839707
 21
72.8458994165239
 31
0.0
  0
ENDBLK
  5
    25
  8
0
  6
CONTINUOUS
 62
     7
  0
BLOCK
  5
    26
  8
0
  6
CONTINUOUS
 62
     7
  2
*UDIM477
 70
    65
 10
0.0
 20
0.0
 30
0.0
  3
*UDIM477
  0
TEXT
  5
    27
  8
0
  6
CONTINUOUS
 62
     7
 10
-465.813907630341
 20
60.5380646144747
 30
0.0
 40
3.00000002980232
  1
214
 50
449.999999896069
 41
0.933333333333333
 72
     1
 11
-467.313907638192
 21
64.4380646559292
 31
0.0
 73
     2
  0
LINE
  5
    28
  8
0
  6
CONTINUOUS
 62
     7
 10
-450.790144964936
 20
91.4630664149907
 30
0.0
 11
-466.813907623291
 21
91.4630714451138
 31
0.0
  0
LINE
  5
    29
  8
0
  6
CONTINUOUS
 62
     7
 10
-449.943430010647
 20
37.9630664149907
 30
0.0
 11
-466.813907623291
 21
37.9630717109115
 31
0.0
  0
LINE
  5
    2A
  8
0
  6
CONTINUOUS
 62
     7
 10
-464.813907623291
 20
91.4630708172808
 30
0.0
 11
-464.813907623291
 21
37.9630710830786
 31
0.0
  0
LINE
  5
    2B
  8
0
  6
CONTINUOUS
 62
     7
 10
-464.292963193339
 20
88.5086475400738
 30
0.0
 11
-464.813907623291
 21
91.4630708172808
 31
0.0
  0
LINE
  5
    2C
  8
0
  6
CONTINUOUS
 62
     7
 10
-464.813907623291
 20
91.4630708172808
 30
0.0
 11
-465.334852053243
 21
88.5086475400738
 31
0.0
  0
LINE
  5
    2D
  8
0
  6
CONTINUOUS
 62
     7
 10
-465.334852053243
 20
40.9174943602855
 30
0.0
 11
-464.813907623291
 21
37.9630710830786
 31
0.0
  0
LINE
  5
    2E
  8
0
  6
CONTINUOUS
 62
     7
 10
-464.813907623291
 20
37.9630710830786
 30
0.0
 11
-464.292963193339
 21
40.9174943602855
 31
0.0
  0
ENDBLK
  5
    2F
  8
0
  6
CONTINUOUS
 62
     7
  0
BLOCK
  5
    30
  8
0
  6
CONTINUOUS
 62
     7
  2
*HATCH112
 70
    65
 10
0.0
 20
0.0
 30
0.0
  3
*HATCH112
  0
LINE
  5
    31
  8
0
  6
CONTINUOUS
 62
     3
 10
204.218536376953
 20
77.9999618530274
 30
0.0
 11
202.237045288086
 21
76.0184707641602
 31
0.0
  0
LINE
  5
    32
  8
0
  6
CONTINUOUS
 62
     3
 10
206.237045288086
 20
77.8971557617188
 30
0.0
 11
202.237045288086
 21
73.8971557617188
 31
0.0
  0
LINE
  5
    33
  8
0
  6
CONTINUOUS
 62
     3
 10
206.237045288086
 20
75.7758331298828
 30
0.0
 11
202.237045288086
 21
71.7758331298828
 31
0.0
  0
LINE
  5
    34
  8
0
  6
CONTINUOUS
 62
     3
 10
206.237045288086
 20
73.6545104980469
 30
0.0
 11
202.237045288086
 21
69.6545104980469
 31
0.0
  0
LINE
  5
    35
  8
0
  6
CONTINUOUS
 62
     3
 10
206.237045288086
 20
71.5331878662109
 30
0.0
 11
202.237045288086
 21
67.5331878662109
 31
0.0
  0
LINE
  5
    36
  8
0
  6
CONTINUOUS
 62
     3
 10
206.237045288086
 20
69.4118728637695
 30
0.0
 11
202.819671630859
 21
65.994499206543
 31
0.0
  0
LINE
  5
    37
  8
0
  6
CONTINUOUS
 62
     3
 10
206.237045288086
 20
67.2905502319336
 30
0.0
 11
204.279418945313
 21
65.3329238891602
 31
0.0
  0
LINE
  5
    38
  8
0
  6
CONTINUOUS
 62
     3
 10
206.237045288086
 20
65.1692276000977
 30
0.0
 11
205.739166259766
 21
64.6713485717773
 31
0.0
  0
ENDBLK
  5
    39
  8
0
  6
CONTINUOUS
 62
     7
  0
BLOCK
  5
    3A
  8
0
  6
CONTINUOUS
 62
     7
  2
*HATCH113
 70
    65
 10
0.0
 20
0.0
 30
0.0
  3
*HATCH113
  0
LINE
  5
    3B
  8
0
  6
CONTINUOUS
 62
     3
 10
197.431854248047
 20
90.3051605224609
 30
0.0
 11
196.745819091797
 21
89.6191329956055
 31
0.0
  0
LINE
  5
    3C
  8
0
  6
CONTINUOUS
 62
     3
 10
198.492523193359
 20
89.2445068359375
 30
0.0
 11
196.745819091797
 21
87.4978103637695
 31
0.0
  0
LINE
  5
    3D
  8
0
  6
CONTINUOUS
 62
     3
 10
199.553192138672
 20
88.1838531494141
 30
0.0
 11
196.745819091797
 21
85.3764877319336
 31
0.0
  0
LINE
  5
    3E
  8
0
  6
CONTINUOUS
 62
     3
 10
199.737045288086
 20
86.2463912963867
 30
0.0
 11
196.745819091797
 21
83.2551727294922
 31
0.0
  0
LINE
  5
    3F
  8
0
  6
CONTINUOUS
 62
     3
 10
199.737045288086
 20
84.1250762939453
 30
0.0
 11
198.611923217773
 21
82.9999618530274
 31
0.0
  0
ENDBLK
  5
    40
  8
0
  6
CONTINUOUS
 62
     7
  0
BLOCK
  5
    41
  8
0
  6
CONTINUOUS
 62
     7
  2
*HATCH114
 70
    65
 10
0.0
 20
0.0
 30
0.0
  3
*HATCH114
  0
LINE
  5
    42
  8
0
  6
CONTINUOUS
 62
   210
 10
-10.7629547119141
 20
80.7665863037109
 30
0.0
 11
-7.99633836746216
 21
77.9999618530274
 31
0.0
  0
LINE
  5
    43
  8
0
  6
CONTINUOUS
 62
   210
 10
-8.75369358062744
 20
82.9999618530274
 30
0.0
 11
-4.76300573348999
 21
79.0092697143555
 31
0.0
  0
ENDBLK
  5
    44
  8
0
  6
CONTINUOUS
 62
     7
  0
BLOCK
  5
    45
  8
0
  6
CONTINUOUS
 62
     7
  2
*HATCH115
 70
    65
 10
0.0
 20
0.0
 30
0.0
  3
*HATCH115
  0
LINE
  5
    46
  8
0
  6
CONTINUOUS
 62
   210
 10
3.23699402809143
 20
81.6158676147461
 30
0.0
 11
6.8528938293457
 21
77.9999618530274
 31
0.0
  0
LINE
  5
    47
  8
0
  6
CONTINUOUS
 62
   210
 10
6.09554004669189
 20
82.9999618530274
 30
0.0
 11
11.095531463623
 21
77.9999618530274
 31
0.0
  0
LINE
  5
    48
  8
0
  6
CONTINUOUS
 62
   210
 10
10.3381776809692
 20
82.9999618530274
 30
0.0
 11
15.3381690979004
 21
77.9999618530274
 31
0.0
  0
LINE
  5
    49
  8
0
  6
CONTINUOUS
 62
   210
 10
14.5808153152466
 20
82.9999618530274
 30
0.0
 11
19.5808067321777
 21
77.9999618530274
 31
0.0
  0
LINE
  5
    4A
  8
0
  6
CONTINUOUS
 62
   210
 10
18.8234539031982
 20
82.9999618530274
 30
0.0
 11
19.7282676696777
 21
82.0951461791992
 31
0.0
  0
ENDBLK
  5
    4B
  8
0
  6
CONTINUOUS
 62
     7
  0
BLOCK
  5
    4C
  8
0
  6
CONTINUOUS
 62
     7
  2
*HATCH116
 70
    65
 10
0.0
 20
0.0
 30
0.0
  3
*HATCH116
  0
LINE
  5
    4D
  8
0
  6
CONTINUOUS
 62
     3
 10
17.0864696502686
 20
102.999938964844
 30
0.0
 11
15.2370948791504
 21
101.150566101074
 31
0.0
  0
LINE
  5
    4E
  8
0
  6
CONTINUOUS
 62
     3
 10
18.1471290588379
 20
102.999938964844
 30
0.0
 11
14.2369937896729
 21
99.0898056030274
 31
0.0
  0
LINE
  5
    4F
  8
0
  6
CONTINUOUS
 62
     3
 10
18.2369937896729
 20
100.968482971191
 30
0.0
 11
14.2369937896729
 21
96.9684829711914
 31
0.0
  0
LINE
  5
    50
  8
0
  6
CONTINUOUS
 62
     3
 10
18.2369937896729
 20
98.8471603393555
 30
0.0
 11
14.2369937896729
 21
94.8471603393555
 31
0.0
  0
LINE
  5
    51
  8
0
  6
CONTINUOUS
 62
     3
 10
18.2369937896729
 20
96.7258377075195
 30
0.0
 11
14.2369937896729
 21
92.7258377075195
 31
0.0
  0
LINE
  5
    52
  8
0
  6
CONTINUOUS
 62
     3
 10
18.2369937896729
 20
94.6045150756836
 30
0.0
 11
14.2369937896729
 21
90.6045150756836
 31
0.0
  0
LINE
  5
    53
  8
0
  6
CONTINUOUS
 62
     3
 10
18.2369937896729
 20
92.4831924438477
 30
0.0
 11
14.2369937896729
 21
88.4831924438477
 31
0.0
  0
LINE
  5
    54
  8
0
  6
CONTINUOUS
 62
     3
 10
18.2369937896729
 20
90.3618698120117
 30
0.0
 11
14.2369937896729
 21
86.3618698120117
 31
0.0
  0
LINE
  5
    55
  8
0
  6
CONTINUOUS
 62
     3
 10
18.2369937896729
 20
88.2405471801758
 30
0.0
 11
14.2369937896729
 21
84.2405471801758
 31
0.0
  0
LINE
  5
    56
  8
0
  6
CONTINUOUS
 62
     3
 10
18.2369937896729
 20
86.1192398071289
 30
0.0
 11
15.117714881897
 21
82.9999618530274
 31
0.0
  0
LINE
  5
    57
  8
0
  6
CONTINUOUS
 62
     3
 10
18.2369937896729
 20
83.997917175293
 30
0.0
 11
17.23903465271
 21
82.9999618530274
 31
0.0
  0
ENDBLK
  5
    58
  8
0
  6
CONTINUOUS
 62
     7
  0
BLOCK
  5
    59
  8
0
  6
CONTINUOUS
 62
     7
  2
*HATCH117
 70
    65
 10
0.0
 20
0.0
 30
0.0
  3
*HATCH117
  0
LINE
  5
    5A
  8
0
  6
CONTINUOUS
 62
     3
 10
12.2390375137329
 20
77.9999618530274
 30
0.0
 11
10.2369937896729
 21
75.997917175293
 31
0.0
  0
LINE
  5
    5B
  8
0
  6
CONTINUOUS
 62
     3
 10
14.2369937896729
 20
77.8766021728516
 30
0.0
 11
10.2369937896729
 21
73.8766021728516
 31
0.0
  0
LINE
  5
    5C
  8
0
  6
CONTINUOUS
 62
     3
 10
14.2369937896729
 20
75.7552795410156
 30
0.0
 11
10.2369937896729
 21
71.7552795410156
 31
0.0
  0
LINE
  5
    5D
  8
0
  6
CONTINUOUS
 62
     3
 10
14.2369937896729
 20
73.6339569091797
 30
0.0
 11
10.2369937896729
 21
69.6339569091797
 31
0.0
  0
LINE
  5
    5E
  8
0
  6
CONTINUOUS
 62
     3
 10
14.2369937896729
 20
71.5126342773438
 30
0.0
 11
10.2369937896729
 21
67.5126342773438
 31
0.0
  0
LINE
  5
    5F
  8
0
  6
CONTINUOUS
 62
     3
 10
14.2369937896729
 20
69.3913116455078
 30
0.0
 11
10.2369937896729
 21
65.3913116455078
 31
0.0
  0
LINE
  5
    60
  8
0
  6
CONTINUOUS
 62
     3
 10
14.2369937896729
 20
67.2699890136719
 30
0.0
 11
10.2369937896729
 21
63.2699890136719
 31
0.0
  0
LINE
  5
    61
  8
0
  6
CONTINUOUS
 62
     3
 10
14.2369937896729
 20
65.148681640625
 30
0.0
 11
10.8553380966187
 21
61.7670249938965
 31
0.0
  0
LINE
  5
    62
  8
0
  6
CONTINUOUS
 62
     3
 10
14.2369937896729
 20
63.0273590087891
 30
0.0
 11
13.7800302505493
 21
62.5703964233398
 31
0.0
  0
ENDBLK
  5
    63
  8
0
  6
CONTINUOUS
 62
     7
  0
BLOCK
  5
    64
  8
0
  6
CONTINUOUS
 62
     7
  2
*HATCH118
 70
    65
 10
0.0
 20
0.0
 30
0.0
  3
*HATCH118
  0
LINE
  5
    65
  8
0
  6
CONTINUOUS
 62
     3
 10
185.858123779297
 20
-4.00005149841309
 30
0.0
 11
184.480621337891
 21
-5.37755584716797
 31
0.0
  0
LINE
  5
    66
  8
0
  6
CONTINUOUS
 62
     3
 10
187.979446411133
 20
-4.00005149841309
 30
0.0
 11
185.979446411133
 21
-6.00005149841309
 31
0.0
  0
LINE
  5
    67
  8
0
  6
CONTINUOUS
 62
     3
 10
190.10075378418
 20
-4.00005149841309
 30
0.0
 11
188.10075378418
 21
-6.00005149841309
 31
0.0
  0
LINE
  5
    68
  8
0
  6
CONTINUOUS
 62
     3
 10
192.222061157227
 20
-4.00005149841309
 30
0.0
 11
190.222061157227
 21
-6.00005149841309
 31
0.0
  0
LINE
  5
    69
  8
0
  6
CONTINUOUS
 62
     3
 10
194.343368530273
 20
-4.00005149841309
 30
0.0
 11
192.343368530273
 21
-6.00005149841309
 31
0.0
  0
LINE
  5
    6A
  8
0
  6
CONTINUOUS
 62
     3
 10
196.46467590332
 20
-4.00005149841309
 30
0.0
 11
194.46467590332
 21
-6.00005149841309
 31
0.0
  0
LINE
  5
    6B
  8
0
  6
CONTINUOUS
 62
     3
 10
198.585983276367
 20
-4.00005149841309
 30
0.0
 11
196.585983276367
 21
-6.00005149841309
 31
0.0
  0
LINE
  5
    6C
  8
0
  6
CONTINUOUS
 62
     3
 10
200.707290649414
 20
-4.00005149841309
 30
0.0
 11
198.707290649414
 21
-6.00005149841309
 31
0.0
  0
LINE
  5
    6D
  8
0
  6
CONTINUOUS
 62
     3
 10
202.828598022461
 20
-4.00005149841309
 30
0.0
 11
200.828598022461
 21
-6.00005149841309
 31
0.0
  0
LINE
  5
    6E
  8
0
  6
CONTINUOUS
 62
     3
 10
204.949905395508
 20
-4.00005149841309
 30
0.0
 11
202.949905395508
 21
-6.00005149841309
 31
0.0
  0
LINE
  5
    6F
  8
0
  6
CONTINUOUS
 62
     3
 10
207.071212768555
 20
-4.00005149841309
 30
0.0
 11
205.071212768555
 21
-6.00005149841309
 31
0.0
  0
LINE
  5
    70
  8
0
  6
CONTINUOUS
 62
     3
 10
209.192520141602
 20
-4.00005149841309
 30
0.0
 11
207.192520141602
 21
-6.00005149841309
 31
0.0
  0
LINE
  5
    71
  8
0
  6
CONTINUOUS
 62
     3
 10
211.313827514648
 20
-4.00005149841309
 30
0.0
 11
209.313827514648
 21
-6.00005149841309
 31
0.0
  0
LINE
  5
    72
  8
0
  6
CONTINUOUS
 62
     3
 10
213.435134887695
 20
-4.00005149841309
 30
0.0
 11
211.435134887695
 21
-6.00005149841309
 31
0.0
  0
LINE
  5
    73
  8
0
  6
CONTINUOUS
 62
     3
 10
215.556442260742
 20
-4.00005149841309
 30
0.0
 11
213.556442260742
 21
-6.00005149841309
 31
0.0
  0
LINE
  5
    74
  8
0
  6
CONTINUOUS
 62
     3
 10
217.677749633789
 20
-4.00005149841309
 30
0.0
 11
215.677749633789
 21
-6.00005149841309
 31
0.0
  0
LINE
  5
    75
  8
0
  6
CONTINUOUS
 62
     3
 10
219.799057006836
 20
-4.00005149841309
 30
0.0
 11
217.799057006836
 21
-6.00005149841309
 31
0.0
  0
LINE
  5
    76
  8
0
  6
CONTINUOUS
 62
     3
 10
221.920364379883
 20
-4.00005149841309
 30
0.0
 11
219.920364379883
 21
-6.00005149841309
 31
0.0
  0
LINE
  5
    77
  8
0
  6
CONTINUOUS
 62
     3
 10
224.04167175293
 20
-4.00005149841309
 30
0.0
 11
222.04167175293
 21
-6.00005149841309
 31
0.0
  0
LINE
  5
    78
  8
0
  6
CONTINUOUS
 62
     3
 10
226.162979125977
 20
-4.00005149841309
 30
0.0
 11
224.162979125977
 21
-6.00005149841309
 31
0.0
  0
LINE
  5
    79
  8
0
  6
CONTINUOUS
 62
     3
 10
228.284286499023
 20
-4.00005149841309
 30
0.0
 11
226.284286499023
 21
-6.00005149841309
 31
0.0
  0
LINE
  5
    7A
  8
0
  6
CONTINUOUS
 62
     3
 10
230.40559387207
 20
-4.00005149841309
 30
0.0
 11
228.40559387207
 21
-6.00005149841309
 31
0.0
  0
LINE
  5
    7B
  8
0
  6
CONTINUOUS
 62
     3
 10
232.526901245117
 20
-4.00005149841309
 30
0.0
 11
230.526901245117
 21
-6.00005149841309
 31
0.0
  0
LINE
  5
    7C
  8
0
  6
CONTINUOUS
 62
     3
 10
234.648208618164
 20
-4.00005149841309
 30
0.0
 11
232.648208618164
 21
-6.00005149841309
 31
0.0
  0
LINE
  5
    7D
  8
0
  6
CONTINUOUS
 62
     3
 10
236.769515991211
 20
-4.00005149841309
 30
0.0
 11
234.769515991211
 21
-6.00005149841309
 31
0.0
  0
LINE
  5
    7E
  8
0
  6
CONTINUOUS
 62
     3
 10
238.890823364258
 20
-4.00005149841309
 30
0.0
 11
236.890823364258
 21
-6.00005149841309
 31
0.0
  0
LINE
  5
    7F
  8
0
  6
CONTINUOUS
 62
     3
 10
241.012130737305
 20
-4.00005149841309
 30
0.0
 11
239.012130737305
 21
-6.00005149841309
 31
0.0
  0
LINE
  5
    80
  8
0
  6
CONTINUOUS
 62
     3
 10
243.133438110352
 20
-4.00005149841309
 30
0.0
 11
241.133438110352
 21
-6.00005149841309
 31
0.0
  0
LINE
  5
    81
  8
0
  6
CONTINUOUS
 62
     3
 10
245.254745483398
 20
-4.00005149841309
 30
0.0
 11
243.254745483398
 21
-6.00005149841309
 31
0.0
  0
LINE
  5
    82
  8
0
  6
CONTINUOUS
 62
     3
 10
247.376052856445
 20
-4.00005149841309
 30
0.0
 11
245.376052856445
 21
-6.00005149841309
 31
0.0
  0
LINE
  5
    83
  8
0
  6
CONTINUOUS
 62
     3
 10
248.910140991211
 20
-4.58765363693237
 30
0.0
 11
247.497741699219
 21
-6.00005149841309
 31
0.0
  0
LINE
  5
    84
  8
0
  6
CONTINUOUS
 62
     3
 10
249.653274536133
 20
-5.96583604812622
 30
0.0
 11
249.619049072266
 21
-6.00005149841309
 31
0.0
  0
ENDBLK
  5
    85
  8
0
  6
CONTINUOUS
 62
     7
  0
BLOCK
  5
    86
  8
0
  6
CONTINUOUS
 62
     7
  2
*HATCH119
 70
    65
 10
0.0
 20
0.0
 30
0.0
  3
*HATCH119
  0
LINE
  5
    87
  8
0
  6
CONTINUOUS
 62
     3
 10
167.826889038086
 20
-4.00005149841309
 30
0.0
 11
165.980621337891
 21
-5.84633255004883
 31
0.0
  0
LINE
  5
    88
  8
0
  6
CONTINUOUS
 62
     3
 10
169.948211669922
 20
-4.00005149841309
 30
0.0
 11
167.948211669922
 21
-6.00005149841309
 31
0.0
  0
LINE
  5
    89
  8
0
  6
CONTINUOUS
 62
     3
 10
172.069519042969
 20
-4.00005149841309
 30
0.0
 11
170.069519042969
 21
-6.00005149841309
 31
0.0
  0
LINE
  5
    8A
  8
0
  6
CONTINUOUS
 62
     3
 10
174.190826416016
 20
-4.00005149841309
 30
0.0
 11
172.190826416016
 21
-6.00005149841309
 31
0.0
  0
LINE
  5
    8B
  8
0
  6
CONTINUOUS
 62
     3
 10
176.312133789062
 20
-4.00005149841309
 30
0.0
 11
174.312133789063
 21
-6.00005149841309
 31
0.0
  0
LINE
  5
    8C
  8
0
  6
CONTINUOUS
 62
     3
 10
177.480621337891
 20
-4.95293474197388
 30
0.0
 11
176.433502197266
 21
-6.00005149841309
 31
0.0
  0
ENDBLK
  5
    8D
  8
0
  6
CONTINUOUS
 62
     7
  0
BLOCK
  5
    8E
  8
0
  6
CONTINUOUS
 62
     7
  2
*HATCH120
 70
    65
 10
0.0
 20
0.0
 30
0.0
  3
*HATCH120
  0
LINE
  5
    8F
  8
0
  6
CONTINUOUS
 62
     3
 10
43.7296600341797
 20
-4.00005149841309
 30
0.0
 11
42.4806251525879
 21
-5.24908351898193
 31
0.0
  0
LINE
  5
    90
  8
0
  6
CONTINUOUS
 62
     3
 10
45.8509788513184
 20
-4.00005149841309
 30
0.0
 11
43.8509788513184
 21
-6.00005149841309
 31
0.0
  0
LINE
  5
    91
  8
0
  6
CONTINUOUS
 62
     3
 10
47.9723014831543
 20
-4.00005149841309
 30
0.0
 11
45.9723014831543
 21
-6.00005149841309
 31
0.0
  0
LINE
  5
    92
  8
0
  6
CONTINUOUS
 62
     3
 10
50.0936241149902
 20
-4.00005149841309
 30
0.0
 11
48.0936241149902
 21
-6.00005149841309
 31
0.0
  0
LINE
  5
    93
  8
0
  6
CONTINUOUS
 62
     3
 10
52.2149467468262
 20
-4.00005149841309
 30
0.0
 11
50.2149467468262
 21
-6.00005149841309
 31
0.0
  0
LINE
  5
    94
  8
0
  6
CONTINUOUS
 62
     3
 10
53.9806251525879
 20
-4.35568618774414
 30
0.0
 11
52.3362579345703
 21
-6.00005149841309
 31
0.0
  0
ENDBLK
  5
    95
  8
0
  6
CONTINUOUS
 62
     7
  0
BLOCK
  5
    96
  8
0
  6
CONTINUOUS
 62
     7
  2
*HATCH121
 70
    65
 10
0.0
 20
0.0
 30
0.0
  3
*HATCH121
  0
LINE
  5
    97
  8
0
  6
CONTINUOUS
 62
     3
 10
-24.1525974273682
 20
-4.00005149841309
 30
0.0
 11
-25.3908443450928
 21
-5.23830080032349
 31
0.0
  0
LINE
  5
    98
  8
0
  6
CONTINUOUS
 62
     3
 10
-22.0312747955322
 20
-4.00005149841309
 30
0.0
 11
-24.0312747955322
 21
-6.00005149841309
 31
0.0
  0
LINE
  5
    99
  8
0
  6
CONTINUOUS
 62
     3
 10
-19.9099559783936
 20
-4.00005149841309
 30
0.0
 11
-21.9099559783936
 21
-6.00005149841309
 31
0.0
  0
LINE
  5
    9A
  8
0
  6
CONTINUOUS
 62
     3
 10
-17.7886371612549
 20
-4.00005149841309
 30
0.0
 11
-19.7886371612549
 21
-6.00005149841309
 31
0.0
  0
LINE
  5
    9B
  8
0
  6
CONTINUOUS
 62
     3
 10
-15.6673173904419
 20
-4.00005149841309
 30
0.0
 11
-17.6673183441162
 21
-6.00005149841309
 31
0.0
  0
LINE
  5
    9C
  8
0
  6
CONTINUOUS
 62
     3
 10
-13.5459966659546
 20
-4.00005149841309
 30
0.0
 11
-15.5459985733032
 21
-6.00005149841309
 31
0.0
  0
LINE
  5
    9D
  8
0
  6
CONTINUOUS
 62
     3
 10
-11.4246759414673
 20
-4.00005149841309
 30
0.0
 11
-13.4246778488159
 21
-6.00005149841309
 31
0.0
  0
LINE
  5
    9E
  8
0
  6
CONTINUOUS
 62
     3
 10
-9.30335521697998
 20
-4.00005149841309
 30
0.0
 11
-11.3033571243286
 21
-6.00005149841309
 31
0.0
  0
LINE
  5
    9F
  8
0
  6
CONTINUOUS
 62
     3
 10
-7.18203449249268
 20
-4.00005149841309
 30
0.0
 11
-9.18203639984131
 21
-6.00005149841309
 31
0.0
  0
LINE
  5
    A0
  8
0
  6
CONTINUOUS
 62
     3
 10
-5.06071376800537
 20
-4.00005149841309
 30
0.0
 11
-7.060715675354
 21
-6.00005149841309
 31
0.0
  0
LINE
  5
    A1
  8
0
  6
CONTINUOUS
 62
     3
 10
-2.93939328193665
 20
-4.00005149841309
 30
0.0
 11
-4.9393949508667
 21
-6.00005149841309
 31
0.0
  0
LINE
  5
    A2
  8
0
  6
CONTINUOUS
 62
     3
 10
-0.818073034286499
 20
-4.00005149841309
 30
0.0
 11
-2.81807422637939
 21
-6.00005149841309
 31
0.0
  0
LINE
  5
    A3
  8
0
  6
CONTINUOUS
 62
     3
 10
1.30324721336365
 20
-4.00005149841309
 30
0.0
 11
-0.696753740310669
 21
-6.00005149841309
 31
0.0
  0
LINE
  5
    A4
  8
0
  6
CONTINUOUS
 62
     3
 10
3.42456746101379
 20
-4.00005149841309
 30
0.0
 11
1.42456674575806
 21
-6.00005149841309
 31
0.0
  0
LINE
  5
    A5
  8
0
  6
CONTINUOUS
 62
     3
 10
5.54588794708252
 20
-4.00005149841309
 30
0.0
 11
3.54588747024536
 21
-6.00005149841309
 31
0.0
  0
LINE
  5
    A6
  8
0
  6
CONTINUOUS
 62
     3
 10
7.66720867156982
 20
-4.00005149841309
 30
0.0
 11
5.66720819473267
 21
-6.00005149841309
 31
0.0
  0
LINE
  5
    A7
  8
0
  6
CONTINUOUS
 62
     3
 10
9.78852939605713
 20
-4.00005149841309
 30
0.0
 11
7.78852891921997
 21
-6.00005149841309
 31
0.0
  0
LINE
  5
    A8
  8
0
  6
CONTINUOUS
 62
     3
 10
11.9098501205444
 20
-4.00005149841309
 30
0.0
 11
9.90984916687012
 21
-6.00005149841309
 31
0.0
  0
LINE
  5
    A9
  8
0
  6
CONTINUOUS
 62
     3
 10
14.0311708450317
 20
-4.00005149841309
 30
0.0
 11
12.0311698913574
 21
-6.00005149841309
 31
0.0
  0
LINE
  5
    AA
  8
0
  6
CONTINUOUS
 62
     3
 10
16.1524906158447
 20
-4.00005149841309
 30
0.0
 11
14.1524906158447
 21
-6.00005149841309
 31
0.0
  0
LINE
  5
    AB
  8
0
  6
CONTINUOUS
 62
     3
 10
18.2738094329834
 20
-4.00005149841309
 30
0.0
 11
16.273811340332
 21
-6.00005149841309
 31
0.0
  0
LINE
  5
    AC
  8
0
  6
CONTINUOUS
 62
     3
 10
20.3951282501221
 20
-4.00005149841309
 30
0.0
 11
18.3951301574707
 21
-6.00005149841309
 31
0.0
  0
LINE
  5
    AD
  8
0
  6
CONTINUOUS
 62
     3
 10
22.5164470672607
 20
-4.00005149841309
 30
0.0
 11
20.5164489746094
 21
-6.00005149841309
 31
0.0
  0
LINE
  5
    AE
  8
0
  6
CONTINUOUS
 62
     3
 10
24.6377658843994
 20
-4.00005149841309
 30
0.0
 11
22.637767791748
 21
-6.00005149841309
 31
0.0
  0
LINE
  5
    AF
  8
0
  6
CONTINUOUS
 62
     3
 10
26.7590847015381
 20
-4.00005149841309
 30
0.0
 11
24.7590866088867
 21
-6.00005149841309
 31
0.0
  0
LINE
  5
    B0
  8
0
  6
CONTINUOUS
 62
     3
 10
28.8804035186768
 20
-4.00005149841309
 30
0.0
 11
26.8804054260254
 21
-6.00005149841309
 31
0.0
  0
LINE
  5
    B1
  8
0
  6
CONTINUOUS
 62
     3
 10
31.0017223358154
 20
-4.00005149841309
 30
0.0
 11
29.0017242431641
 21
-6.00005149841309
 31
0.0
  0
LINE
  5
    B2
  8
0
  6
CONTINUOUS
 62
     3
 10
33.1230430603027
 20
-4.00005149841309
 30
0.0
 11
31.1230430603027
 21
-6.00005149841309
 31
0.0
  0
LINE
  5
    B3
  8
0
  6
CONTINUOUS
 62
     3
 10
35.2443656921387
 20
-4.00005149841309
 30
0.0
 11
33.2443656921387
 21
-6.00005149841309
 31
0.0
  0
LINE
  5
    B4
  8
0
  6
CONTINUOUS
 62
     3
 10
35.4806251525879
 20
-5.88512229919434
 30
0.0
 11
35.3656959533691
 21
-6.00005149841309
 31
0.0
  0
ENDBLK
  5
    B5
  8
0
  6
CONTINUOUS
 62
     7
  0
BLOCK
  5
    B6
  8
0
  6
CONTINUOUS
 62
     2
  2
*HATCH122
 70
    65
 10
0.0
 20
0.0
 30
0.0
  3
*HATCH122
  0
LINE
  5
    B7
  8
0
  6
CONTINUOUS
 62
   210
 10
225.128433227539
 20
82.9999618530274
 30
0.0
 11
221.237091064453
 21
79.1086196899414
 31
0.0
  0
LINE
  5
    B8
  8
0
  6
CONTINUOUS
 62
   210
 10
227.237045288086
 20
80.8659286499024
 30
0.0
 11
225.371078491211
 21
78.9999618530273
 31
0.0
  0
ENDBLK
  5
    B9
  8
0
  6
CONTINUOUS
 62
     2
  0
BLOCK
  5
    BA
  8
0
  6
CONTINUOUS
 62
     2
  2
*HATCH123
 70
    65
 10
0.0
 20
0.0
 30
0.0
  3
*HATCH123
  0
LINE
  5
    BB
  8
0
  6
CONTINUOUS
 62
   210
 10
199.672592163086
 20
82.9999618530274
 30
0.0
 11
196.745819091797
 21
80.0731887817383
 31
0.0
  0
LINE
  5
    BC
  8
0
  6
CONTINUOUS
 62
   210
 10
203.915237426758
 20
82.9999618530274
 30
0.0
 11
198.915237426758
 21
77.9999618530274
 31
0.0
  0
LINE
  5
    BD
  8
0
  6
CONTINUOUS
 62
   210
 10
208.15788269043
 20
82.9999618530274
 30
0.0
 11
203.15788269043
 21
77.9999618530274
 31
0.0
  0
LINE
  5
    BE
  8
0
  6
CONTINUOUS
 62
   210
 10
212.400512695313
 20
82.9999618530274
 30
0.0
 11
208.400512695313
 21
78.9999618530273
 31
0.0
  0
LINE
  5
    BF
  8
0
  6
CONTINUOUS
 62
   210
 10
213.237091064453
 20
79.5939025878906
 30
0.0
 11
212.643157958984
 21
78.9999618530273
 31
0.0
  0
ENDBLK
  5
    C0
  8
0
  6
CONTINUOUS
 62
     2
  0
BLOCK
  5
    C1
  8
0
  6
CONTINUOUS
 62
     2
  2
*HATCH124
 70
    65
 10
0.0
 20
0.0
 30
0.0
  3
*HATCH124
  0
LINE
  5
    C2
  8
0
  6
CONTINUOUS
 62
   210
 10
207.237091064453
 20
74.8984298706055
 30
0.0
 11
210.135559082031
 21
71.9999618530273
 31
0.0
  0
LINE
  5
    C3
  8
0
  6
CONTINUOUS
 62
   210
 10
208.378204345703
 20
77.9999618530274
 30
0.0
 11
212.987091064453
 21
73.3910598754883
 31
0.0
  0
LINE
  5
    C4
  8
0
  6
CONTINUOUS
 62
   210
 10
212.620849609375
 20
77.9999618530274
 30
0.0
 11
212.987091064453
 21
77.6337051391602
 31
0.0
  0
ENDBLK
  5
    C5
  8
0
  6
CONTINUOUS
 62
     2
  0
BLOCK
  5
    C6
  8
0
  6
CONTINUOUS
 62
     7
  2
PROLUNGATI
 70
    64
 10
0.0
 20
0.0
 30
0.0
  3
PROLUNGATI
  0
LINE
  5
    C7
  8
0
  6
CONTINUOUS
 62
     3
 10
-0.999999995575894
 20
20.5000305395807
 30
0.0
 11
4.42410552636829E-9
 21
20.5000457983697
 31
0.0
  0
LINE
  5
    C8
  8
0
  6
CONTINUOUS
 62
     3
 10
1.10387083651631E-6
 20
20.500041095613
 30
0.0
 11
1.0000010696423
 21
19.5000411298415
 31
0.0
  0
LINE
  5
    C9
  8
0
  6
CONTINUOUS
 62
     3
 10
1.0
 20
18.0000457763672
 30
0.0
 11
1.0
 21
19.5000457763672
 31
0.0
  0
LINE
  5
    CA
  8
0
  6
CONTINUOUS
 62
     3
 10
-0.999999998894022
 20
18.000030523006
 30
0.0
 11
1.00000000110598
 21
18.0000457817951
 31
0.0
  0
LINE
  5
    CB
  8
0
  6
CONTINUOUS
 62
     3
 10
-1.00000000000001
 20
18.0
 30
0.0
 11
0.99999999999999
 21
18.0
 31
0.0
  0
LINE
  5
    CC
  8
0
  6
CONTINUOUS
 62
     3
 10
-0.5
 20
-8.5
 30
0.0
 11
-0.5
 21
8.5
 31
0.0
  0
LINE
  5
    CD
  8
0
  6
CONTINUOUS
 62
     3
 10
-4.25000286102296
 20
11.5
 30
0.0
 11
-1.00000000000001
 21
11.5
 31
0.0
  0
LINE
  5
    CE
  8
0
  6
CONTINUOUS
 62
     3
 10
-1.0
 20
11.5
 30
0.0
 11
-1.0
 21
18.0
 31
0.0
  0
LINE
  5
    CF
  8
0
  6
CONTINUOUS
 62
     3
 10
-16.5
 20
-10.0
 30
0.0
 11
-15.0
 21
-10.0
 31
0.0
  0
LINE
  5
    D0
  8
0
  6
CONTINUOUS
 62
     3
 10
-16.5
 20
-10.0000152587891
 30
0.0
 11
-15.0
 21
-10.0000152587891
 31
0.0
  0
LINE
  5
    D1
  8
0
  6
CONTINUOUS
 62
     3
 10
-16.5
 20
20.5000152587891
 30
0.0
 11
-1.00000000000001
 21
20.5000152587891
 31
0.0
  0
LINE
  5
    D2
  8
0
  6
CONTINUOUS
 62
     3
 10
-16.5
 20
-10.0
 30
0.0
 11
-16.5
 21
20.5000152587891
 31
0.0
  0
LINE
  5
    D3
  8
0
  6
CONTINUOUS
 62
     3
 10
-1.0
 20
18.0000152587891
 30
0.0
 11
-1.0
 21
20.5000152587891
 31
0.0
  0
LINE
  5
    D4
  8
0
  6
CONTINUOUS
 62
     3
 10
-2.00000000000001
 20
14.8000183105469
 30
0.0
 11
-1.00000000000001
 21
14.8000183105469
 31
0.0
  0
LINE
  5
    D5
  8
0
  6
CONTINUOUS
 62
     3
 10
-2.39999850008332
 20
15.2000076486687
 30
0.0
 11
-1.99999886783133
 21
14.8000137483419
 31
0.0
  0
LINE
  5
    D6
  8
0
  6
CONTINUOUS
 62
     3
 10
-14.9999995594845
 20
-10.0000004523688
 30
0.0
 11
-0.999999868097963
 21
18.0000157236966
 31
0.0
  0
LINE
  5
    D7
  8
0
  6
CONTINUOUS
 62
   210
 10
0.0
 20
-6.5
 30
0.0
 11
0.0
 21
6.5
 31
0.0
  0
LINE
  5
    D8
  8
0
  6
CONTINUOUS
 62
     3
 10
-14.2500057220459
 20
-8.5
 30
0.0
 11
-0.500000000000011
 21
-8.5
 31
0.0
  0
LINE
  5
    D9
  8
0
  6
CONTINUOUS
 62
     3
 10
-5.75000476837159
 20
8.5
 30
0.0
 11
-0.50000000000001
 21
8.5
 31
0.0
  0
LINE
  5
    DA
  8
0
  6
CONTINUOUS
 62
     3
 10
-16.5
 20
19.5000152587891
 30
0.0
 11
-1.00000000000001
 21
19.5000152587891
 31
0.0
  0
LINE
  5
    DB
  8
0
  6
CONTINUOUS
 62
     3
 10
-16.5
 20
-8.99998474121094
 30
0.0
 11
-14.5
 21
-8.99998474121094
 31
0.0
  0
LINE
  5
    DC
  8
0
  6
CONTINUOUS
 62
   210
 10
-0.500000000000011
 20
6.5
 30
0.0
 11
-1.05356783140903E-14
 21
6.5
 31
0.0
  0
LINE
  5
    DD
  8
0
  6
CONTINUOUS
 62
   210
 10
-0.500000000000011
 20
-6.5
 30
0.0
 11
-1.13316987335361E-14
 21
-6.5
 31
0.0
  0
POINT
  5
    DE
  8
0
  6
CONTINUOUS
 62
     7
 10
-1.0
 20
20.5000305395806
 30
0.0
  0
POINT
  5
    DF
  8
0
  6
CONTINUOUS
 62
     7
 10
-1.0
 20
20.5000305395806
 30
0.0
  0
POINT
  5
    E0
  8
0
  6
CONTINUOUS
 62
     7
 10
0.0
 20
0.0
 30
0.0
  0
ENDBLK
  5
    E1
  8
0
  6
CONTINUOUS
 62
     7
  0
BLOCK
  5
    E2
  8
0
  6
CONTINUOUS
 62
     7
  2
*UDIM478
 70
    65
 10
0.0
 20
0.0
 30
0.0
  3
*UDIM478
  0
TEXT
  5
    E3
  8
0
  6
CONTINUOUS
 62
     7
 10
-540.404577587358
 20
-73.3736490807529
 30
0.0
 40
3.00000002980232
  1
5
 50
359.999999948034
 41
0.933333333333334
 72
     1
 11
-539.304577575078
 21
-71.8736490668439
 31
0.0
 73
     2
  0
TEXT
  5
    E4
  8
0
  6
CONTINUOUS
 62
     7
 10
-551.55457770458
 20
-73.3736490769647
 30
0.0
 40
3.00000002980232
  1
min.
 50
359.999999948034
 41
0.933333333333333
 72
     1
 11
-546.254577650577
 21
-71.8736490668439
 31
0.0
 73
     2
  0
LINE
  5
    E5
  8
0
  6
CONTINUOUS
 62
     7
 10
-553.13798259293
 20
-62.0251399776167
 30
0.0
 11
-553.13798259293
 21
-76.373649081745
 31
0.0
  0
LINE
  5
    E6
  8
0
  6
CONTINUOUS
 62
     7
 10
-555.637981639256
 20
-62.5251655578613
 30
0.0
 11
-555.637981639256
 21
-76.373649081745
 31
0.0
  0
LINE
  5
    E7
  8
0
  6
CONTINUOUS
 62
     7
 10
-538.20457756415
 20
-74.3736490817451
 30
0.0
 11
-555.637981639256
 21
-74.3736490817451
 31
0.0
  0
LINE
  5
    E8
  8
0
  6
CONTINUOUS
 62
     7
 10
-550.183559315723
 20
-73.8527046517934
 30
0.0
 11
-553.13798259293
 21
-74.3736490817451
 31
0.0
  0
LINE
  5
    E9
  8
0
  6
CONTINUOUS
 62
     7
 10
-553.13798259293
 20
-74.3736490817451
 30
0.0
 11
-550.183559315723
 21
-74.8945935116967
 31
0.0
  0
ENDBLK
  5
    EA
  8
0
  6
CONTINUOUS
 62
     7
  0
BLOCK
  5
    EB
  8
0
  6
CONTINUOUS
 62
     7
  2
*UDIM479
 70
    65
 10
0.0
 20
0.0
 30
0.0
  3
*UDIM479
  0
TEXT
  5
    EC
  8
0
  6
CONTINUOUS
 62
     7
 10
-563.887981270067
 20
-73.3736490807529
 30
0.0
 40
3.00000002980232
  1
5
 50
359.999999948034
 41
0.933333333333334
 72
     1
 11
-562.787981257786
 21
-71.8736490668439
 31
0.0
 73
     2
  0
LINE
  5
    ED
  8
0
  6
CONTINUOUS
 62
     7
 10
-558.137981639256
 20
-62.5251655578613
 30
0.0
 11
-558.137981639256
 21
-76.373649081745
 31
0.0
  0
LINE
  5
    EE
  8
0
  6
CONTINUOUS
 62
     7
 10
-555.637981639256
 20
-74.3736490817451
 30
0.0
 11
-563.887981268714
 21
-74.3736490817451
 31
0.0
  0
LINE
  5
    EF
  8
0
  6
CONTINUOUS
 62
     7
 10
-561.092404916463
 20
-74.8945935116967
 30
0.0
 11
-558.137981639256
 21
-74.3736490817451
 31
0.0
  0
LINE
  5
    F0
  8
0
  6
CONTINUOUS
 62
     7
 10
-558.137981639256
 20
-74.3736490817451
 30
0.0
 11
-561.092404916463
 21
-73.8527046517934
 31
0.0
  0
ENDBLK
  5
    F1
  8
0
  6
CONTINUOUS
 62
     7
  0
BLOCK
  5
    F2
  8
0
  6
CONTINUOUS
 62
     7
  2
*UDIM480
 70
    65
 10
0.0
 20
0.0
 30
0.0
  3
*UDIM480
  0
TEXT
  5
    F3
  8
0
  6
CONTINUOUS
 62
     7
 10
-553.09921801404
 20
-84.8310150936068
 30
0.0
 40
3.00000002980232
  1
101,5
 50
359.999999948034
 41
0.933333333333333
 72
     1
 11
-546.399217946129
 21
-83.3310150847486
 31
0.0
 73
     2
  0
LINE
  5
    F4
  8
0
  6
CONTINUOUS
 62
     7
 10
-517.387977946995
 20
24.0998515319648
 30
0.0
 11
-517.388016775558
 21
-87.8310150996497
 31
0.0
  0
LINE
  5
    F5
  8
0
  6
CONTINUOUS
 62
     7
 10
-568.137970626085
 20
-76.1164914085937
 30
0.0
 11
-568.13797830357
 21
-87.8310150996494
 31
0.0
  0
LINE
  5
    F6
  8
0
  6
CONTINUOUS
 62
     7
 10
-517.388016081763
 20
-85.8310150996498
 30
0.0
 11
-568.137976992807
 21
-85.8310150996498
 31
0.0
  0
LINE
  5
    F7
  8
0
  6
CONTINUOUS
 62
     7
 10
-520.34243935897
 20
-86.3519595296015
 30
0.0
 11
-517.388016081763
 21
-85.8310150996498
 31
0.0
  0
LINE
  5
    F8
  8
0
  6
CONTINUOUS
 62
     7
 10
-517.388016081763
 20
-85.8310150996498
 30
0.0
 11
-520.34243935897
 21
-85.3100706696981
 31
0.0
  0
LINE
  5
    F9
  8
0
  6
CONTINUOUS
 62
     7
 10
-565.1835537156
 20
-85.3100706696981
 30
0.0
 11
-568.137976992807
 21
-85.8310150996498
 31
0.0
  0
LINE
  5
    FA
  8
0
  6
CONTINUOUS
 62
     7
 10
-568.137976992807
 20
-85.8310150996498
 30
0.0
 11
-565.1835537156
 21
-86.3519595296015
 31
0.0
  0
ENDBLK
  5
    FB
  8
0
  6
CONTINUOUS
 62
     7
  0
BLOCK
  5
    FC
  8
0
  6
CONTINUOUS
 62
     7
  2
*UDIM481
 70
    65
 10
0.0
 20
0.0
 30
0.0
  3
*UDIM481
  0
TEXT
  5
    FD
  8
0
  6
CONTINUOUS
 62
     7
 10
-549.237973846201
 20
-90.6655839044308
 30
0.0
 40
3.00000002980232
  1
103,5
 50
359.999999948034
 41
0.933333333333333
 72
     1
 11
-542.53797377829
 21
-89.1655838955727
 31
0.0
 73
     2
  0
LINE
  5
    FE
  8
0
  6
CONTINUOUS
 62
     7
 10
-516.387977986329
 20
-28.4001332092461
 30
0.0
 11
-516.388003193917
 21
-93.6655839104737
 31
0.0
  0
LINE
  5
    FF
  8
0
  6
CONTINUOUS
 62
     7
 10
-568.137970565443
 20
-76.1164914085937
 30
0.0
 11
-568.137981002588
 21
-93.6655839104735
 31
0.0
  0
LINE
  5
   100
  8
0
  6
CONTINUOUS
 62
     7
 10
-516.388002421454
 20
-91.6655839104739
 30
0.0
 11
-568.137979813108
 21
-91.6655839104739
 31
0.0
  0
LINE
  5
   101
  8
0
  6
CONTINUOUS
 62
     7
 10
-519.342425698661
 20
-92.1865283404255
 30
0.0
 11
-516.388002421454
 21
-91.6655839104739
 31
0.0
  0
LINE
  5
   102
  8
0
  6
CONTINUOUS
 62
     7
 10
-516.388002421454
 20
-91.6655839104739
 30
0.0
 11
-519.342425698661
 21
-91.1446394805222
 31
0.0
  0
LINE
  5
   103
  8
0
  6
CONTINUOUS
 62
     7
 10
-565.183556535901
 20
-91.1446394805222
 30
0.0
 11
-568.137979813108
 21
-91.6655839104739
 31
0.0
  0
LINE
  5
   104
  8
0
  6
CONTINUOUS
 62
     7
 10
-568.137979813108
 20
-91.6655839104739
 30
0.0
 11
-565.183556535901
 21
-92.1865283404255
 31
0.0
  0
ENDBLK
  5
   105
  8
0
  6
CONTINUOUS
 62
     7
  0
BLOCK
  5
   106
  8
0
  6
CONTINUOUS
 62
     7
  2
*UDIM482
 70
    65
 10
0.0
 20
0.0
 30
0.0
  3
*UDIM482
  0
TEXT
  5
   107
  8
0
  6
CONTINUOUS
 62
     7
 10
-575.387969907176
 20
-90.6655839094817
 30
0.0
 40
3.00000002980232
  1
3
 50
359.999999948034
 41
0.933333333333334
 72
     1
 11
-574.287969894895
 21
-89.1655838955727
 31
0.0
 73
     2
  0
TEXT
  5
   108
  8
0
  6
CONTINUOUS
 62
     7
 10
-578.137969940951
 20
-90.6655839094817
 30
0.0
 40
3.00000002980232
  1
_
 50
359.999999948034
 41
0.933333333333334
 72
     1
 11
-577.037969928671
 21
-89.1655838955727
 31
0.0
 73
     2
  0
LINE
  5
   109
  8
0
  6
CONTINUOUS
 62
     7
 10
-569.637970565443
 20
-76.1164914085937
 30
0.0
 11
-569.637981002588
 21
-93.6655839104735
 31
0.0
  0
LINE
  5
   10A
  8
0
  6
CONTINUOUS
 62
     7
 10
-568.137979813108
 20
-91.6655839104739
 30
0.0
 11
-578.137969939599
 21
-91.6655839104739
 31
0.0
  0
LINE
  5
   10B
  8
0
  6
CONTINUOUS
 62
     7
 10
-565.183556535901
 20
-91.1446394805222
 30
0.0
 11
-568.137979813108
 21
-91.6655839104739
 31
0.0
  0
LINE
  5
   10C
  8
0
  6
CONTINUOUS
 62
     7
 10
-568.137979813108
 20
-91.6655839104739
 30
0.0
 11
-565.183556535901
 21
-92.1865283404255
 31
0.0
  0
LINE
  5
   10D
  8
0
  6
CONTINUOUS
 62
     7
 10
-572.592403090315
 20
-92.1865283404255
 30
0.0
 11
-569.637979813108
 21
-91.6655839104739
 31
0.0
  0
LINE
  5
   10E
  8
0
  6
CONTINUOUS
 62
     7
 10
-569.637979813108
 20
-91.6655839104739
 30
0.0
 11
-572.592403090315
 21
-91.1446394805222
 31
0.0
  0
ENDBLK
  5
   10F
  8
0
  6
CONTINUOUS
 62
     7
  0
BLOCK
  5
   110
  8
0
  6
CONTINUOUS
 62
     7
  2
*UDIM483
 70
    65
 10
0.0
 20
0.0
 30
0.0
  3
*UDIM483
  0
TEXT
  5
   111
  8
0
  6
CONTINUOUS
 62
     7
 10
-510.637974846723
 20
-96.9008517508649
 30
0.0
 40
3.00000002980232
  1
2
 50
359.999999948034
 41
0.933333333333334
 72
     1
 11
-509.537974834442
 21
-95.4008517369559
 31
0.0
 73
     2
  0
LINE
  5
   112
  8
0
  6
CONTINUOUS
 62
     7
 10
-513.637974739075
 20
-69.6053320793685
 30
0.0
 11
-513.637974739075
 21
-99.900851751857
 31
0.0
  0
LINE
  5
   113
  8
0
  6
CONTINUOUS
 62
     7
 10
-514.637974739075
 20
-70.2191251828167
 30
0.0
 11
-514.637974739075
 21
-99.900851751857
 31
0.0
  0
LINE
  5
   114
  8
0
  6
CONTINUOUS
 62
     7
 10
-508.437974823515
 20
-97.900851751857
 30
0.0
 11
-514.637974739075
 21
-97.900851751857
 31
0.0
  0
LINE
  5
   115
  8
0
  6
CONTINUOUS
 62
     7
 10
-510.683551461868
 20
-97.3799073219054
 30
0.0
 11
-513.637974739075
 21
-97.900851751857
 31
0.0
  0
LINE
  5
   116
  8
0
  6
CONTINUOUS
 62
     7
 10
-513.637974739075
 20
-97.900851751857
 30
0.0
 11
-510.683551461868
 21
-98.4217961818087
 31
0.0
  0
LINE
  5
   117
  8
0
  6
CONTINUOUS
 62
     7
 10
-517.592398016282
 20
-98.4217961818087
 30
0.0
 11
-514.637974739075
 21
-97.900851751857
 31
0.0
  0
LINE
  5
   118
  8
0
  6
CONTINUOUS
 62
     7
 10
-514.637974739075
 20
-97.900851751857
 30
0.0
 11
-517.592398016282
 21
-97.3799073219054
 31
0.0
  0
ENDBLK
  5
   119
  8
0
  6
CONTINUOUS
 62
     7
  0
BLOCK
  5
   11A
  8
0
  6
CONTINUOUS
 62
     7
  2
*UDIM484
 70
    65
 10
0.0
 20
0.0
 30
0.0
  3
*UDIM484
  0
TEXT
  5
   11B
  8
0
  6
CONTINUOUS
 62
     7
 10
-545.562971924108
 20
-96.9008517483394
 30
0.0
 40
3.00000002980232
  1
107
 50
359.999999948034
 41
0.933333333333333
 72
     1
 11
-541.662971884012
 21
-95.4008517369559
 31
0.0
 73
     2
  0
LINE
  5
   11C
  8
0
  6
CONTINUOUS
 62
     7
 10
-568.137969970703
 20
-76.1164914085939
 30
0.0
 11
-568.137969970703
 21
-99.900851751857
 31
0.0
  0
LINE
  5
   11D
  8
0
  6
CONTINUOUS
 62
     7
 10
-514.637974739075
 20
-97.900851751857
 30
0.0
 11
-568.137969970703
 21
-97.900851751857
 31
0.0
  0
LINE
  5
   11E
  8
0
  6
CONTINUOUS
 62
     7
 10
-517.592398016282
 20
-98.4217961818087
 30
0.0
 11
-514.637974739075
 21
-97.900851751857
 31
0.0
  0
LINE
  5
   11F
  8
0
  6
CONTINUOUS
 62
     7
 10
-514.637974739075
 20
-97.900851751857
 30
0.0
 11
-517.592398016282
 21
-97.3799073219054
 31
0.0
  0
LINE
  5
   120
  8
0
  6
CONTINUOUS
 62
     7
 10
-565.183546693496
 20
-97.3799073219054
 30
0.0
 11
-568.137969970703
 21
-97.900851751857
 31
0.0
  0
LINE
  5
   121
  8
0
  6
CONTINUOUS
 62
     7
 10
-568.137969970703
 20
-97.900851751857
 30
0.0
 11
-565.183546693496
 21
-98.4217961818087
 31
0.0
  0
ENDBLK
  5
   122
  8
0
  6
CONTINUOUS
 62
     7
  0
BLOCK
  5
   123
  8
0
  6
CONTINUOUS
 62
     7
  2
*UDIM485
 70
    65
 10
0.0
 20
0.0
 30
0.0
  3
*UDIM485
  0
TEXT
  5
   124
  8
0
  6
CONTINUOUS
 62
     7
 10
-538.55195698434
 20
-103.141006163266
 30
0.0
 40
3.00000002980232
  1
135
 50
359.999999948034
 41
0.933333333333333
 72
     1
 11
-534.651956944245
 21
-101.641006151882
 31
0.0
 73
     2
  0
LINE
  5
   125
  8
0
  6
CONTINUOUS
 62
     7
 10
-500.615936740116
 20
-7.27513320924609
 30
0.0
 11
-500.615980738357
 21
-106.141006166783
 31
0.0
  0
LINE
  5
   126
  8
0
  6
CONTINUOUS
 62
     7
 10
-568.137970492288
 20
-76.1164914085938
 30
0.0
 11
-568.137986152621
 21
-106.141006166783
 31
0.0
  0
LINE
  5
   127
  8
0
  6
CONTINUOUS
 62
     7
 10
-500.615979848298
 20
-104.141006166784
 30
0.0
 11
-568.137985109451
 21
-104.141006166784
 31
0.0
  0
LINE
  5
   128
  8
0
  6
CONTINUOUS
 62
     7
 10
-503.570403125505
 20
-104.661950596735
 30
0.0
 11
-500.615979848298
 21
-104.141006166784
 31
0.0
  0
LINE
  5
   129
  8
0
  6
CONTINUOUS
 62
     7
 10
-500.615979848298
 20
-104.141006166784
 30
0.0
 11
-503.570403125505
 21
-103.620061736832
 31
0.0
  0
LINE
  5
   12A
  8
0
  6
CONTINUOUS
 62
     7
 10
-565.183561832244
 20
-103.620061736832
 30
0.0
 11
-568.137985109451
 21
-104.141006166784
 31
0.0
  0
LINE
  5
   12B
  8
0
  6
CONTINUOUS
 62
     7
 10
-568.137985109451
 20
-104.141006166784
 30
0.0
 11
-565.183561832244
 21
-104.661950596735
 31
0.0
  0
ENDBLK
  5
   12C
  8
0
  6
CONTINUOUS
 62
     7
  0
BLOCK
  5
   12D
  8
0
  6
CONTINUOUS
 62
     7
  2
*UDIM486
 70
    65
 10
0.0
 20
0.0
 30
0.0
  3
*UDIM486
  0
TEXT
  5
   12E
  8
0
  6
CONTINUOUS
 62
     7
 10
-589.561463034329
 20
-65.0501917365045
 30
0.0
 40
3.00000002980232
  1
15
 50
89.9999999480344
 41
0.933333333333333
 72
     1
 11
-591.061463046966
 21
-62.5501917103106
 31
0.0
 73
     2
  0
LINE
  5
   12F
  8
0
  6
CONTINUOUS
 62
     7
 10
-562.852653170218
 20
-56.525191138106
 30
0.0
 11
-590.561463032065
 21
-56.525191138106
 31
0.0
  0
LINE
  5
   130
  8
0
  6
CONTINUOUS
 62
     7
 10
-568.13797044754
 20
-49.025191138106
 30
0.0
 11
-590.561463032065
 21
-49.025191138106
 31
0.0
  0
LINE
  5
   131
  8
0
  6
CONTINUOUS
 62
     7
 10
-588.561463032065
 20
-65.0501917351459
 30
0.0
 11
-588.561463032065
 21
-49.025191138106
 31
0.0
  0
LINE
  5
   132
  8
0
  6
CONTINUOUS
 62
     7
 10
-588.040518602113
 20
-59.479614415313
 30
0.0
 11
-588.561463032065
 21
-56.525191138106
 31
0.0
  0
LINE
  5
   133
  8
0
  6
CONTINUOUS
 62
     7
 10
-588.561463032065
 20
-56.525191138106
 30
0.0
 11
-589.082407462016
 21
-59.479614415313
 31
0.0
  0
LINE
  5
   134
  8
0
  6
CONTINUOUS
 62
     7
 10
-589.082407462016
 20
-46.0707678608991
 30
0.0
 11
-588.561463032065
 21
-49.025191138106
 31
0.0
  0
LINE
  5
   135
  8
0
  6
CONTINUOUS
 62
     7
 10
-588.561463032065
 20
-49.025191138106
 30
0.0
 11
-588.040518602113
 21
-46.0707678608991
 31
0.0
  0
ENDBLK
  5
   136
  8
0
  6
CONTINUOUS
 62
     7
  0
BLOCK
  5
   137
  8
0
  6
CONTINUOUS
 62
     7
  2
*UDIM487
 70
    65
 10
0.0
 20
0.0
 30
0.0
  3
*UDIM487
  0
TEXT
  5
   138
  8
0
  6
CONTINUOUS
 62
     7
 10
-595.187177214044
 20
-6.20016941862065
 30
0.0
 40
3.00000002980232
  1
218
 50
89.9999999480344
 41
0.933333333333333
 72
     1
 11
-596.687177225413
 21
-2.30016937851906
 31
0.0
 73
     2
  0
LINE
  5
   139
  8
0
  6
CONTINUOUS
 62
     7
 10
-562.852653170218
 20
-56.525191138106
 30
0.0
 11
-596.187177210512
 21
-56.525191138106
 31
0.0
  0
LINE
  5
   13A
  8
0
  6
CONTINUOUS
 62
     7
 10
-562.852653170218
 20
52.4748600223834
 30
0.0
 11
-596.187177210512
 21
52.4748600223834
 31
0.0
  0
LINE
  5
   13B
  8
0
  6
CONTINUOUS
 62
     7
 10
-594.187177210512
 20
-56.525191138106
 30
0.0
 11
-594.187177210512
 21
52.4748600223834
 31
0.0
  0
LINE
  5
   13C
  8
0
  6
CONTINUOUS
 62
     7
 10
-594.708121640463
 20
-53.5707678608991
 30
0.0
 11
-594.187177210512
 21
-56.525191138106
 31
0.0
  0
LINE
  5
   13D
  8
0
  6
CONTINUOUS
 62
     7
 10
-594.187177210512
 20
-56.525191138106
 30
0.0
 11
-593.66623278056
 21
-53.5707678608991
 31
0.0
  0
LINE
  5
   13E
  8
0
  6
CONTINUOUS
 62
     7
 10
-593.66623278056
 20
49.5204367451764
 30
0.0
 11
-594.187177210512
 21
52.4748600223834
 31
0.0
  0
LINE
  5
   13F
  8
0
  6
CONTINUOUS
 62
     7
 10
-594.187177210512
 20
52.4748600223834
 30
0.0
 11
-594.708121640463
 21
49.5204367451764
 31
0.0
  0
ENDBLK
  5
   140
  8
0
  6
CONTINUOUS
 62
     7
  0
BLOCK
  5
   141
  8
0
  6
CONTINUOUS
 62
     7
  2
*HATCH125
 70
    65
 10
0.0
 20
0.0
 30
0.0
  3
*HATCH125
  0
LINE
  5
   142
  8
0
  6
CONTINUOUS
 62
   210
 10
207.237091064453
 20
77.0197525024414
 30
0.0
 11
211.256881713867
 21
72.9999618530274
 31
0.0
  0
LINE
  5
   143
  8
0
  6
CONTINUOUS
 62
   210
 10
210.499526977539
 20
77.9999618530274
 30
0.0
 11
212.987091064453
 21
75.5123825073242
 31
0.0
  0
ENDBLK
  5
   144
  8
0
  6
CONTINUOUS
 62
     7
  0
BLOCK
  5
   145
  8
0
  6
CONTINUOUS
 62
     7
  2
*HATCH126
 70
    65
 10
0.0
 20
0.0
 30
0.0
  3
*HATCH126
  0
LINE
  5
   146
  8
0
  6
CONTINUOUS
 62
   210
 10
221.487091064453
 20
75.4976654052734
 30
0.0
 11
223.984786987305
 21
72.9999618530274
 31
0.0
  0
LINE
  5
   147
  8
0
  6
CONTINUOUS
 62
   210
 10
223.227432250977
 20
77.9999694824219
 30
0.0
 11
228.227432250977
 21
72.9999618530274
 31
0.0
  0
LINE
  5
   148
  8
0
  6
CONTINUOUS
 62
   210
 10
227.470062255859
 20
77.9999694824219
 30
0.0
 11
232.470062255859
 21
72.9999618530274
 31
0.0
  0
LINE
  5
   149
  8
0
  6
CONTINUOUS
 62
   210
 10
229.591384887695
 20
77.9999694824219
 30
0.0
 11
234.591384887695
 21
72.9999618530274
 31
0.0
  0
LINE
  5
   14A
  8
0
  6
CONTINUOUS
 62
   210
 10
231.712707519531
 20
77.9999694824219
 30
0.0
 11
236.712707519531
 21
72.9999618530274
 31
0.0
  0
LINE
  5
   14B
  8
0
  6
CONTINUOUS
 62
   210
 10
233.834014892578
 20
77.9999771118164
 30
0.0
 11
238.834030151367
 21
72.9999618530274
 31
0.0
  0
LINE
  5
   14C
  8
0
  6
CONTINUOUS
 62
   210
 10
253.719955444336
 20
58.114013671875
 30
0.0
 11
258.834014892578
 21
52.9999618530274
 31
0.0
  0
LINE
  5
   14D
  8
0
  6
CONTINUOUS
 62
   210
 10
255.955322265625
 20
57.9999656677246
 30
0.0
 11
260.955322265625
 21
52.9999618530274
 31
0.0
  0
LINE
  5
   14E
  8
0
  6
CONTINUOUS
 62
   210
 10
258.076629638672
 20
57.9999656677246
 30
0.0
 11
263.076629638672
 21
52.9999618530274
 31
0.0
  0
LINE
  5
   14F
  8
0
  6
CONTINUOUS
 62
   210
 10
260.197967529297
 20
57.9999656677246
 30
0.0
 11
265.197967529297
 21
52.9999618530274
 31
0.0
  0
LINE
  5
   150
  8
0
  6
CONTINUOUS
 62
   210
 10
264.440582275391
 20
57.9999656677246
 30
0.0
 11
269.440582275391
 21
52.9999618530274
 31
0.0
  0
LINE
  5
   151
  8
0
  6
CONTINUOUS
 62
   210
 10
268.683227539063
 20
57.9999656677246
 30
0.0
 11
272.987091064453
 21
53.6960983276367
 31
0.0
  0
LINE
  5
   152
  8
0
  6
CONTINUOUS
 62
   210
 10
272.925842285156
 20
57.9999656677246
 30
0.0
 11
272.987091064453
 21
57.9387435913086
 31
0.0
  0
ENDBLK
  5
   153
  8
0
  6
CONTINUOUS
 62
     7
  0
BLOCK
  5
   154
  8
0
  6
CONTINUOUS
 62
     7
  2
*HATCH127
 70
    65
 10
0.0
 20
0.0
 30
0.0
  3
*HATCH127
  0
LINE
  5
   155
  8
0
  6
CONTINUOUS
 62
   210
 10
281.487091064453
 20
55.8027000427246
 30
0.0
 11
284.289825439453
 21
52.9999618530274
 31
0.0
  0
LINE
  5
   156
  8
0
  6
CONTINUOUS
 62
   210
 10
283.532470703125
 20
57.9999656677246
 30
0.0
 11
288.532470703125
 21
52.9999618530274
 31
0.0
  0
LINE
  5
   157
  8
0
  6
CONTINUOUS
 62
   210
 10
287.775085449219
 20
57.9999656677246
 30
0.0
 11
289.737091064453
 21
56.0379905700684
 31
0.0
  0
ENDBLK
  5
   158
  8
0
  6
CONTINUOUS
 62
     7
  0
BLOCK
  5
   159
  8
0
  6
CONTINUOUS
 62
     7
  2
*UDIM488
 70
    65
 10
0.0
 20
0.0
 30
0.0
  3
*UDIM488
  0
TEXT
  5
   15A
  8
0
  6
CONTINUOUS
 62
     7
 10
-559.387976308005
 20
97.1099407769372
 30
0.0
 40
3.00000002980232
  1
45
 50
359.999999948034
 41
0.933333333333333
 72
     1
 11
-556.887976281817
 21
98.6099407895835
 31
0.0
 73
     2
  0
LINE
  5
   15B
  8
0
  6
CONTINUOUS
 62
     7
 10
-545.63798259293
 20
85.5998600223834
 30
0.0
 11
-545.63798259293
 21
98.1099407746824
 31
0.0
  0
LINE
  5
   15C
  8
0
  6
CONTINUOUS
 62
     7
 10
-568.137969970703
 20
71.0309395935955
 30
0.0
 11
-568.137969970703
 21
98.1099407746824
 31
0.0
  0
LINE
  5
   15D
  8
0
  6
CONTINUOUS
 62
     7
 10
-545.63798259293
 20
96.1099407746824
 30
0.0
 11
-568.137969970703
 21
96.1099407746824
 31
0.0
  0
LINE
  5
   15E
  8
0
  6
CONTINUOUS
 62
     7
 10
-548.535760066141
 20
95.3334836182638
 30
0.0
 11
-545.63798259293
 21
96.1099407746824
 31
0.0
  0
LINE
  5
   15F
  8
0
  6
CONTINUOUS
 62
     7
 10
-545.63798259293
 20
96.1099407746824
 30
0.0
 11
-548.535760066141
 21
96.8863979311009
 31
0.0
  0
LINE
  5
   160
  8
0
  6
CONTINUOUS
 62
     7
 10
-565.240192497493
 20
96.8863979311009
 30
0.0
 11
-568.137969970703
 21
96.1099407746824
 31
0.0
  0
LINE
  5
   161
  8
0
  6
CONTINUOUS
 62
     7
 10
-568.137969970703
 20
96.1099407746824
 30
0.0
 11
-565.240192497493
 21
95.3334836182638
 31
0.0
  0
ENDBLK
  5
   162
  8
0
  6
CONTINUOUS
 62
     7
  0
BLOCK
  5
   163
  8
0
  6
CONTINUOUS
 62
     7
  2
*UDIM489
 70
    65
 10
0.0
 20
0.0
 30
0.0
  3
*UDIM489
  0
TEXT
  5
   164
  8
0
  6
CONTINUOUS
 62
     7
 10
-538.56066117119
 20
97.1099407756745
 30
0.0
 40
3.00000002980232
  1
5
 50
359.999999948034
 41
0.933333333333334
 72
     1
 11
-537.460661158909
 21
98.6099407895835
 31
0.0
 73
     2
  0
LINE
  5
   165
  8
0
  6
CONTINUOUS
 62
     7
 10
-543.137981639256
 20
85.5998600223834
 30
0.0
 11
-543.137981639256
 21
98.1099407746824
 31
0.0
  0
LINE
  5
   166
  8
0
  6
CONTINUOUS
 62
     7
 10
-536.360661147982
 20
96.1099407746824
 30
0.0
 11
-545.63798259293
 21
96.1099407746824
 31
0.0
  0
LINE
  5
   167
  8
0
  6
CONTINUOUS
 62
     7
 10
-540.240204166046
 20
96.8863979311009
 30
0.0
 11
-543.137981639256
 21
96.1099407746824
 31
0.0
  0
LINE
  5
   168
  8
0
  6
CONTINUOUS
 62
     7
 10
-543.137981639256
 20
96.1099407746824
 30
0.0
 11
-540.240204166046
 21
95.3334836182638
 31
0.0
  0
LINE
  5
   169
  8
0
  6
CONTINUOUS
 62
     7
 10
-548.535760066141
 20
95.3334836182638
 30
0.0
 11
-545.63798259293
 21
96.1099407746824
 31
0.0
  0
LINE
  5
   16A
  8
0
  6
CONTINUOUS
 62
     7
 10
-545.63798259293
 20
96.1099407746824
 30
0.0
 11
-548.535760066141
 21
96.8863979311009
 31
0.0
  0
ENDBLK
  5
   16B
  8
0
  6
CONTINUOUS
 62
     7
  0
BLOCK
  5
   16C
  8
0
  6
CONTINUOUS
 62
     7
  2
*UDIM490
 70
    65
 10
0.0
 20
0.0
 30
0.0
  3
*UDIM490
  0
TEXT
  5
   16D
  8
0
  6
CONTINUOUS
 62
     7
 10
-546.537981217416
 20
104.755001887009
 30
0.0
 40
3.00000002980232
  1
101
 50
359.999999948034
 41
0.933333333333333
 72
     1
 11
-542.63798117732
 21
106.255001898392
 31
0.0
 73
     2
  0
LINE
  5
   16E
  8
0
  6
CONTINUOUS
 62
     7
 10
-517.38798117732
 20
103.755001883491
 30
0.0
 11
-567.88798117732
 21
103.755001883491
 31
0.0
  0
LINE
  5
   16F
  8
0
  6
CONTINUOUS
 62
     7
 10
-520.285758650531
 20
102.978544727072
 30
0.0
 11
-517.38798117732
 21
103.755001883491
 31
0.0
  0
LINE
  5
   170
  8
0
  6
CONTINUOUS
 62
     7
 10
-517.38798117732
 20
103.755001883491
 30
0.0
 11
-520.285758650531
 21
104.531459039909
 31
0.0
  0
LINE
  5
   171
  8
0
  6
CONTINUOUS
 62
     7
 10
-564.990203704109
 20
104.531459039909
 30
0.0
 11
-567.88798117732
 21
103.755001883491
 31
0.0
  0
LINE
  5
   172
  8
0
  6
CONTINUOUS
 62
     7
 10
-567.88798117732
 20
103.755001883491
 30
0.0
 11
-564.990203704109
 21
102.978544727072
 31
0.0
  0
ENDBLK
  5
   173
  8
0
  6
CONTINUOUS
 62
     7
  0
BLOCK
  5
   174
  8
0
  6
CONTINUOUS
 62
     7
  2
*UDIM491
 70
    65
 10
0.0
 20
0.0
 30
0.0
  3
*UDIM491
  0
TEXT
  5
   175
  8
0
  6
CONTINUOUS
 62
     7
 10
-582.844245912909
 20
64.9748599961895
 30
0.0
 40
3.00000002980232
  1
60
 50
89.9999999480344
 41
0.933333333333333
 72
     1
 11
-584.344245925546
 21
67.4748600223834
 31
0.0
 73
     2
  0
LINE
  5
   176
  8
0
  6
CONTINUOUS
 62
     7
 10
-562.852653170218
 20
52.4748600223834
 30
0.0
 11
-583.844245910645
 21
52.4748600223834
 31
0.0
  0
LINE
  5
   177
  8
0
  6
CONTINUOUS
 62
     7
 10
-547.63798259293
 20
82.4748600223834
 30
0.0
 11
-583.844245910645
 21
82.4748600223834
 31
0.0
  0
LINE
  5
   178
  8
0
  6
CONTINUOUS
 62
     7
 10
-581.844245910645
 20
52.4748600223834
 30
0.0
 11
-581.844245910645
 21
82.4748600223834
 31
0.0
  0
LINE
  5
   179
  8
0
  6
CONTINUOUS
 62
     7
 10
-582.620703067063
 20
55.3726374955939
 30
0.0
 11
-581.844245910645
 21
52.4748600223834
 31
0.0
  0
LINE
  5
   17A
  8
0
  6
CONTINUOUS
 62
     7
 10
-581.844245910645
 20
52.4748600223834
 30
0.0
 11
-581.067788754226
 21
55.3726374955939
 31
0.0
  0
LINE
  5
   17B
  8
0
  6
CONTINUOUS
 62
     7
 10
-581.067788754226
 20
79.5770825491728
 30
0.0
 11
-581.844245910645
 21
82.4748600223834
 31
0.0
  0
LINE
  5
   17C
  8
0
  6
CONTINUOUS
 62
     7
 10
-581.844245910645
 20
82.4748600223834
 30
0.0
 11
-582.620703067063
 21
79.5770825491728
 31
0.0
  0
ENDBLK
  5
   17D
  8
0
  6
CONTINUOUS
 62
     7
  0
BLOCK
  5
   17E
  8
0
  6
CONTINUOUS
 62
     7
  2
*UDIM492
 70
    65
 10
0.0
 20
0.0
 30
0.0
  3
*UDIM492
  0
TEXT
  5
   17F
  8
0
  6
CONTINUOUS
 62
     7
 10
-582.844245915445
 20
92.5224342023828
 30
0.0
 40
3.00000002980232
  1
12,5
 50
89.9999999480344
 41
0.933333333333333
 72
     1
 11
-584.344245925546
 21
97.8224342563922
 31
0.0
 73
     2
  0
LINE
  5
   180
  8
0
  6
CONTINUOUS
 62
     7
 10
-546.63798259293
 20
88.7248523929889
 30
0.0
 11
-583.844245910645
 21
88.7248523929889
 31
0.0
  0
LINE
  5
   181
  8
0
  6
CONTINUOUS
 62
     7
 10
-581.844245910645
 20
82.4748600223834
 30
0.0
 11
-581.844245910645
 21
103.122434309043
 31
0.0
  0
LINE
  5
   182
  8
0
  6
CONTINUOUS
 62
     7
 10
-581.067788754226
 20
79.5770825491728
 30
0.0
 11
-581.844245910645
 21
82.4748600223834
 31
0.0
  0
LINE
  5
   183
  8
0
  6
CONTINUOUS
 62
     7
 10
-581.844245910645
 20
82.4748600223834
 30
0.0
 11
-582.620703067063
 21
79.5770825491728
 31
0.0
  0
LINE
  5
   184
  8
0
  6
CONTINUOUS
 62
     7
 10
-582.620703067063
 20
91.6226298661994
 30
0.0
 11
-581.844245910645
 21
88.7248523929889
 31
0.0
  0
LINE
  5
   185
  8
0
  6
CONTINUOUS
 62
     7
 10
-581.844245910645
 20
88.7248523929889
 30
0.0
 11
-581.067788754226
 21
91.6226298661994
 31
0.0
  0
ENDBLK
  5
   186
  8
0
  6
CONTINUOUS
 62
     7
  0
BLOCK
  5
   187
  8
0
  6
CONTINUOUS
 62
     5
  2
*UDIM493
 70
    65
 10
0.0
 20
0.0
 30
0.0
  3
*UDIM493
  0
TEXT
  5
   188
  8
0
  6
CONTINUOUS
 62
     5
 10
-582.844245917981
 20
17.2873572391095
 30
0.0
 40
3.00000002980232
  1
107,25
 50
89.9999999480344
 41
0.933333333333333
 72
     1
 11
-584.344245925546
 21
25.3873573209344
 31
0.0
 73
     2
  0
LINE
  5
   189
  8
0
  6
CONTINUOUS
 62
     5
 10
-577.01710714374
 20
-1.15014846803524
 30
0.0
 11
-583.844245910645
 21
-1.15014846803524
 31
0.0
  0
LINE
  5
   18A
  8
0
  6
CONTINUOUS
 62
     5
 10
-562.852653170218
 20
52.4748600223834
 30
0.0
 11
-583.844245910645
 21
52.4748600223834
 31
0.0
  0
LINE
  5
   18B
  8
0
  6
CONTINUOUS
 62
     5
 10
-581.844245910645
 20
-1.15014846803524
 30
0.0
 11
-581.844245910645
 21
52.4748600223834
 31
0.0
  0
LINE
  5
   18C
  8
0
  6
CONTINUOUS
 62
     5
 10
-582.365190340596
 20
1.80427480917172
 30
0.0
 11
-581.844245910645
 21
-1.15014846803524
 31
0.0
  0
LINE
  5
   18D
  8
0
  6
CONTINUOUS
 62
     5
 10
-581.844245910645
 20
-1.15014846803524
 30
0.0
 11
-581.323301480693
 21
1.80427480917172
 31
0.0
  0
LINE
  5
   18E
  8
0
  6
CONTINUOUS
 62
     5
 10
-581.323301480693
 20
49.5204367451764
 30
0.0
 11
-581.844245910645
 21
52.4748600223834
 31
0.0
  0
LINE
  5
   18F
  8
0
  6
CONTINUOUS
 62
     5
 10
-581.844245910645
 20
52.4748600223834
 30
0.0
 11
-582.365190340596
 21
49.5204367451764
 31
0.0
  0
ENDBLK
  5
   190
  8
0
  6
CONTINUOUS
 62
     5
  0
BLOCK
  5
   191
  8
0
  6
CONTINUOUS
 62
     7
  2
*UDIM494
 70
    65
 10
0.0
 20
0.0
 30
0.0
  3
*UDIM494
  0
TEXT
  5
   192
  8
0
  6
CONTINUOUS
 62
     7
 10
-582.992355347676
 20
-64.275139608433
 30
0.0
 40
3.00000002980232
  1
8
 50
89.9999999480344
 41
0.933333333333334
 72
     1
 11
-584.492355361581
 21
-63.1751395961469
 31
0.0
 73
     2
  0
TEXT
  5
   193
  8
0
  6
CONTINUOUS
 62
     7
 10
-582.992355347676
 20
-67.025139642209
 30
0.0
 40
3.00000002980232
  1
M
 50
89.9999999480344
 41
0.933333333333334
 72
     1
 11
-584.492355361581
 21
-65.9251396299229
 31
0.0
 73
     2
  0
LINE
  5
   194
  8
0
  6
CONTINUOUS
 62
     7
 10
-557.13798259293
 20
-58.5251399776167
 30
0.0
 11
-583.99235534668
 21
-58.5251399776167
 31
0.0
  0
LINE
  5
   195
  8
0
  6
CONTINUOUS
 62
     7
 10
-557.13798259293
 20
-54.5251399776167
 30
0.0
 11
-583.99235534668
 21
-54.5251399776167
 31
0.0
  0
LINE
  5
   196
  8
0
  6
CONTINUOUS
 62
     7
 10
-581.99235534668
 20
-67.0251396408504
 30
0.0
 11
-581.99235534668
 21
-54.5251399776167
 31
0.0
  0
LINE
  5
   197
  8
0
  6
CONTINUOUS
 62
     7
 10
-581.471410916728
 20
-61.4795632548236
 30
0.0
 11
-581.99235534668
 21
-58.5251399776167
 31
0.0
  0
LINE
  5
   198
  8
0
  6
CONTINUOUS
 62
     7
 10
-581.99235534668
 20
-58.5251399776167
 30
0.0
 11
-582.513299776631
 21
-61.4795632548236
 31
0.0
  0
LINE
  5
   199
  8
0
  6
CONTINUOUS
 62
     7
 10
-582.513299776631
 20
-51.5707167004097
 30
0.0
 11
-581.99235534668
 21
-54.5251399776167
 31
0.0
  0
LINE
  5
   19A
  8
0
  6
CONTINUOUS
 62
     7
 10
-581.99235534668
 20
-54.5251399776167
 30
0.0
 11
-581.471410916728
 21
-51.5707167004097
 31
0.0
  0
ENDBLK
  5
   19B
  8
0
  6
CONTINUOUS
 62
     7
  0
BLOCK
  5
   19C
  8
0
  6
CONTINUOUS
 62
     7
  2
*UDIM495
 70
    65
 10
0.0
 20
0.0
 30
0.0
  3
*UDIM495
  0
TEXT
  5
   19D
  8
0
  6
CONTINUOUS
 62
     7
 10
-581.976575989859
 20
-79.1694831825596
 30
0.0
 40
3.00000002980232
  1
20
 50
359.999999948034
 41
0.933333333333333
 72
     1
 11
-579.476575963671
 21
-77.6694831699133
 31
0.0
 73
     2
  0
LINE
  5
   19E
  8
0
  6
CONTINUOUS
 62
     7
 10
-558.137981639256
 20
-62.5251655578613
 30
0.0
 11
-558.137981639256
 21
-82.1694831848145
 31
0.0
  0
LINE
  5
   19F
  8
0
  6
CONTINUOUS
 62
     7
 10
-568.137969970703
 20
-76.1164914085939
 30
0.0
 11
-568.137969970703
 21
-82.1694831848145
 31
0.0
  0
LINE
  5
   1A0
  8
0
  6
CONTINUOUS
 62
     7
 10
-558.137981639256
 20
-80.1694831848144
 30
0.0
 11
-581.976575988506
 21
-80.1694831848144
 31
0.0
  0
LINE
  5
   1A1
  8
0
  6
CONTINUOUS
 62
     7
 10
-561.092404916463
 20
-80.6904276147661
 30
0.0
 11
-558.137981639256
 21
-80.1694831848144
 31
0.0
  0
LINE
  5
   1A2
  8
0
  6
CONTINUOUS
 62
     7
 10
-558.137981639256
 20
-80.1694831848144
 30
0.0
 11
-561.092404916463
 21
-79.6485387548628
 31
0.0
  0
LINE
  5
   1A3
  8
0
  6
CONTINUOUS
 62
     7
 10
-565.183546693496
 20
-79.6485387548628
 30
0.0
 11
-568.137969970703
 21
-80.1694831848144
 31
0.0
  0
LINE
  5
   1A4
  8
0
  6
CONTINUOUS
 62
     7
 10
-568.137969970703
 20
-80.1694831848144
 30
0.0
 11
-565.183546693496
 21
-80.6904276147661
 31
0.0
  0
ENDBLK
  5
   1A5
  8
0
  6
CONTINUOUS
 62
     7
  0
BLOCK
  5
   1A6
  8
0
  6
CONTINUOUS
 62
     7
  2
*UDIM496
 70
    65
 10
0.0
 20
0.0
 30
0.0
  3
*UDIM496
  0
TEXT
  5
   1A7
  8
0
  6
CONTINUOUS
 62
     7
 10
-509.062583925604
 20
-56.5596572819203
 30
0.0
 40
3.00000002980232
  1
11
 50
89.9999999480344
 41
0.933333333333333
 72
     1
 11
-510.562583938241
 21
-54.0596572557265
 31
0.0
 73
     2
  0
LINE
  5
   1A8
  8
0
  6
CONTINUOUS
 62
     7
 10
-546.78601115278
 20
-56.525191138106
 30
0.0
 11
-506.06258392334
 21
-56.525191138106
 31
0.0
  0
LINE
  5
   1A9
  8
0
  6
CONTINUOUS
 62
     7
 10
-546.436587140575
 20
-51.025191138106
 30
0.0
 11
-506.06258392334
 21
-51.025191138106
 31
0.0
  0
LINE
  5
   1AA
  8
0
  6
CONTINUOUS
 62
     7
 10
-508.06258392334
 20
-56.5596572805618
 30
0.0
 11
-508.06258392334
 21
-51.025191138106
 31
0.0
  0
LINE
  5
   1AB
  8
0
  6
CONTINUOUS
 62
     7
 10
-507.541639493388
 20
-59.479614415313
 30
0.0
 11
-508.06258392334
 21
-56.525191138106
 31
0.0
  0
LINE
  5
   1AC
  8
0
  6
CONTINUOUS
 62
     7
 10
-508.06258392334
 20
-56.525191138106
 30
0.0
 11
-508.583528353292
 21
-59.479614415313
 31
0.0
  0
LINE
  5
   1AD
  8
0
  6
CONTINUOUS
 62
     7
 10
-508.583528353292
 20
-48.070767860899
 30
0.0
 11
-508.06258392334
 21
-51.025191138106
 31
0.0
  0
LINE
  5
   1AE
  8
0
  6
CONTINUOUS
 62
     7
 10
-508.06258392334
 20
-51.025191138106
 30
0.0
 11
-507.541639493388
 21
-48.070767860899
 31
0.0
  0
ENDBLK
  5
   1AF
  8
0
  6
CONTINUOUS
 62
     7
  0
BLOCK
  5
   1B0
  8
0
  6
CONTINUOUS
 62
     7
  2
*UDIM497
 70
    65
 10
0.0
 20
0.0
 30
0.0
  3
*UDIM497
  0
TEXT
  5
   1B1
  8
0
  6
CONTINUOUS
 62
     7
 10
-487.441978456854
 20
47.291539737176
 30
0.0
 40
3.00000002980232
  1
11
 50
89.9999999480344
 41
0.933333333333333
 72
     1
 11
-488.941978469491
 21
49.7915397633699
 31
0.0
 73
     2
  0
LINE
  5
   1B2
  8
0
  6
CONTINUOUS
 62
     7
 10
-547.860846177571
 20
46.9748344421387
 30
0.0
 11
-484.44197845459
 21
46.9748344421387
 31
0.0
  0
LINE
  5
   1B3
  8
0
  6
CONTINUOUS
 62
     7
 10
-546.78601115278
 20
52.4748600223834
 30
0.0
 11
-484.44197845459
 21
52.4748600223834
 31
0.0
  0
LINE
  5
   1B4
  8
0
  6
CONTINUOUS
 62
     7
 10
-486.44197845459
 20
46.9748344421387
 30
0.0
 11
-486.44197845459
 21
52.4748600223834
 31
0.0
  0
LINE
  5
   1B5
  8
0
  6
CONTINUOUS
 62
     7
 10
-485.921034024638
 20
44.0204111649317
 30
0.0
 11
-486.44197845459
 21
46.9748344421387
 31
0.0
  0
LINE
  5
   1B6
  8
0
  6
CONTINUOUS
 62
     7
 10
-486.44197845459
 20
46.9748344421387
 30
0.0
 11
-486.962922884542
 21
44.0204111649317
 31
0.0
  0
LINE
  5
   1B7
  8
0
  6
CONTINUOUS
 62
     7
 10
-486.962922884542
 20
55.4292832995903
 30
0.0
 11
-486.44197845459
 21
52.4748600223834
 31
0.0
  0
LINE
  5
   1B8
  8
0
  6
CONTINUOUS
 62
     7
 10
-486.44197845459
 20
52.4748600223834
 30
0.0
 11
-485.921034024638
 21
55.4292832995903
 31
0.0
  0
ENDBLK
  5
   1B9
  8
0
  6
CONTINUOUS
 62
     7
  0
BLOCK
  5
   1BA
  8
0
  6
CONTINUOUS
 62
     7
  2
*UDIM498
 70
    65
 10
0.0
 20
0.0
 30
0.0
  3
*UDIM498
  0
TEXT
  5
   1BB
  8
0
  6
CONTINUOUS
 62
     7
 10
-483.448841098503
 20
-5.32514270264442
 30
0.0
 40
3.00000002980232
  1
105
 50
89.9999999480344
 41
0.933333333333333
 72
     1
 11
-484.948841109872
 21
-1.42514266254283
 31
0.0
 73
     2
  0
LINE
  5
   1BC
  8
0
  6
CONTINUOUS
 62
     7
 10
-513.637974739075
 20
-27.4001332092462
 30
0.0
 11
-480.448841094971
 21
-27.4001332092462
 31
0.0
  0
LINE
  5
   1BD
  8
0
  6
CONTINUOUS
 62
     7
 10
-513.637974739075
 20
25.0998515319648
 30
0.0
 11
-480.448841094971
 21
25.0998515319648
 31
0.0
  0
LINE
  5
   1BE
  8
0
  6
CONTINUOUS
 62
     7
 10
-482.448841094971
 20
-27.4001332092462
 30
0.0
 11
-482.448841094971
 21
25.0998515319648
 31
0.0
  0
LINE
  5
   1BF
  8
0
  6
CONTINUOUS
 62
     7
 10
-482.969785524922
 20
-24.4457099320392
 30
0.0
 11
-482.448841094971
 21
-27.4001332092462
 31
0.0
  0
LINE
  5
   1C0
  8
0
  6
CONTINUOUS
 62
     7
 10
-482.448841094971
 20
-27.4001332092462
 30
0.0
 11
-481.927896665019
 21
-24.4457099320392
 31
0.0
  0
LINE
  5
   1C1
  8
0
  6
CONTINUOUS
 62
     7
 10
-481.927896665019
 20
22.1454282547578
 30
0.0
 11
-482.448841094971
 21
25.0998515319648
 31
0.0
  0
LINE
  5
   1C2
  8
0
  6
CONTINUOUS
 62
     7
 10
-482.448841094971
 20
25.0998515319648
 30
0.0
 11
-482.969785524922
 21
22.1454282547578
 31
0.0
  0
ENDBLK
  5
   1C3
  8
0
  6
CONTINUOUS
 62
     7
  0
BLOCK
  5
   1C4
  8
0
  6
CONTINUOUS
 62
     0
  2
ON-OFF
 70
    64
 10
0.0
 20
0.0
 30
0.0
  3
ON-OFF
  0
LINE
  5
   1C5
  8
0
  6
CONTINUOUS
 62
     0
 10
5.09999999999999
 20
-29.65
 30
0.0
 11
5.54999999999999
 21
-29.65
 31
0.0
  0
LINE
  5
   1C6
  8
0
  6
CONTINUOUS
 62
     0
 10
3.79999999999999
 20
-37.35
 30
0.0
 11
4.59999999999999
 21
-37.35
 31
0.0
  0
LINE
  5
   1C7
  8
0
  6
CONTINUOUS
 62
     0
 10
-2.6
 20
-34.75
 30
0.0
 11
-2.6
 21
-34.25
 31
0.0
  0
LINE
  5
   1C8
  8
0
  6
CONTINUOUS
 62
     0
 10
2.6
 20
-34.75
 30
0.0
 11
2.6
 21
-34.25
 31
0.0
  0
ARC
  5
   1C9
  8
0
  6
CONTINUOUS
 62
     0
 10
-3.5527136788005E-15
 20
-34.25
 30
0.0
 40
2.6
 50
0.0
 51
180.0
  0
ARC
  5
   1CA
  8
0
  6
CONTINUOUS
 62
     0
 10
-3.5527136788005E-15
 20
-34.75
 30
0.0
 40
2.6
 50
180.0
 51
360.0
  0
ARC
  5
   1CB
  8
0
  6
CONTINUOUS
 62
     0
 10
-3.5527136788005E-15
 20
-34.25
 30
0.0
 40
1.8
 50
0.0
 51
180.0
  0
ARC
  5
   1CC
  8
0
  6
CONTINUOUS
 62
     0
 10
-3.5527136788005E-15
 20
-34.75
 30
0.0
 40
1.8
 50
180.0
 51
360.0
  0
LINE
  5
   1CD
  8
0
  6
CONTINUOUS
 62
     0
 10
-1.8
 20
-34.75
 30
0.0
 11
-1.8
 21
-34.25
 31
0.0
  0
LINE
  5
   1CE
  8
0
  6
CONTINUOUS
 62
     0
 10
1.8
 20
-34.75
 30
0.0
 11
1.8
 21
-34.25
 31
0.0
  0
LINE
  5
   1CF
  8
0
  6
CONTINUOUS
 62
     0
 10
2.84999999999999
 20
-32.85
 30
0.0
 11
2.84999999999999
 21
-32.05
 31
0.0
  0
LINE
  5
   1D0
  8
0
  6
CONTINUOUS
 62
     0
 10
2.84999999999999
 20
-32.85
 30
0.0
 11
3.79999999999999
 21
-32.85
 31
0.0
  0
LINE
  5
   1D1
  8
0
  6
CONTINUOUS
 62
     0
 10
5.54999999999999
 20
-32.85
 30
0.0
 11
5.54999999999999
 21
-32.05
 31
0.0
  0
LINE
  5
   1D2
  8
0
  6
CONTINUOUS
 62
     0
 10
2.84999999999999
 20
-32.05
 30
0.0
 11
3.79999999999999
 21
-32.05
 31
0.0
  0
LINE
  5
   1D3
  8
0
  6
CONTINUOUS
 62
     0
 10
3.79999999999999
 20
-37.35
 30
0.0
 11
3.79999999999999
 21
-32.85
 31
0.0
  0
LINE
  5
   1D4
  8
0
  6
CONTINUOUS
 62
     0
 10
4.59999999999999
 20
-37.35
 30
0.0
 11
4.59999999999999
 21
-32.85
 31
0.0
  0
LINE
  5
   1D5
  8
0
  6
CONTINUOUS
 62
     0
 10
4.59999999999999
 20
-32.85
 30
0.0
 11
5.54999999999999
 21
-32.85
 31
0.0
  0
LINE
  5
   1D6
  8
0
  6
CONTINUOUS
 62
     0
 10
4.59999999999999
 20
-32.05
 30
0.0
 11
5.54999999999999
 21
-32.05
 31
0.0
  0
LINE
  5
   1D7
  8
0
  6
CONTINUOUS
 62
     0
 10
3.79999999999999
 20
-32.05
 30
0.0
 11
3.79999999999999
 21
-30.95
 31
0.0
  0
LINE
  5
   1D8
  8
0
  6
CONTINUOUS
 62
     0
 10
4.59999999999999
 20
-32.05
 30
0.0
 11
4.59999999999999
 21
-30.95
 31
0.0
  0
ARC
  5
   1D9
  8
0
  6
CONTINUOUS
 62
     0
 10
5.09999999999999
 20
-30.95
 30
0.0
 40
1.3
 50
89.9999999999999
 51
180.0
  0
ARC
  5
   1DA
  8
0
  6
CONTINUOUS
 62
     0
 10
5.09999999999999
 20
-30.95
 30
0.0
 40
0.5
 50
89.9999999999999
 51
180.0
  0
LINE
  5
   1DB
  8
0
  6
CONTINUOUS
 62
     0
 10
5.54999999999999
 20
-30.45
 30
0.0
 11
5.54999999999999
 21
-29.65
 31
0.0
  0
LINE
  5
   1DC
  8
0
  6
CONTINUOUS
 62
     0
 10
5.09999999999999
 20
-30.45
 30
0.0
 11
5.54999999999999
 21
-30.45
 31
0.0
  0
LINE
  5
   1DD
  8
0
  6
CONTINUOUS
 62
     0
 10
8.29999999999998
 20
-29.65
 30
0.0
 11
8.74999999999999
 21
-29.65
 31
0.0
  0
LINE
  5
   1DE
  8
0
  6
CONTINUOUS
 62
     0
 10
6.99999999999999
 20
-37.35
 30
0.0
 11
7.79999999999999
 21
-37.35
 31
0.0
  0
LINE
  5
   1DF
  8
0
  6
CONTINUOUS
 62
     0
 10
6.04999999999999
 20
-32.85
 30
0.0
 11
6.04999999999999
 21
-32.05
 31
0.0
  0
LINE
  5
   1E0
  8
0
  6
CONTINUOUS
 62
     0
 10
6.04999999999999
 20
-32.85
 30
0.0
 11
6.99999999999999
 21
-32.85
 31
0.0
  0
LINE
  5
   1E1
  8
0
  6
CONTINUOUS
 62
     0
 10
8.74999999999999
 20
-32.85
 30
0.0
 11
8.74999999999999
 21
-32.05
 31
0.0
  0
LINE
  5
   1E2
  8
0
  6
CONTINUOUS
 62
     0
 10
6.04999999999999
 20
-32.05
 30
0.0
 11
6.99999999999999
 21
-32.05
 31
0.0
  0
LINE
  5
   1E3
  8
0
  6
CONTINUOUS
 62
     0
 10
6.99999999999999
 20
-37.35
 30
0.0
 11
6.99999999999999
 21
-32.85
 31
0.0
  0
LINE
  5
   1E4
  8
0
  6
CONTINUOUS
 62
     0
 10
7.79999999999999
 20
-37.35
 30
0.0
 11
7.79999999999999
 21
-32.85
 31
0.0
  0
LINE
  5
   1E5
  8
0
  6
CONTINUOUS
 62
     0
 10
7.79999999999999
 20
-32.85
 30
0.0
 11
8.74999999999999
 21
-32.85
 31
0.0
  0
LINE
  5
   1E6
  8
0
  6
CONTINUOUS
 62
     0
 10
7.79999999999999
 20
-32.05
 30
0.0
 11
8.74999999999999
 21
-32.05
 31
0.0
  0
LINE
  5
   1E7
  8
0
  6
CONTINUOUS
 62
     0
 10
6.99999999999999
 20
-32.05
 30
0.0
 11
6.99999999999999
 21
-30.95
 31
0.0
  0
LINE
  5
   1E8
  8
0
  6
CONTINUOUS
 62
     0
 10
7.79999999999999
 20
-32.05
 30
0.0
 11
7.79999999999999
 21
-30.95
 31
0.0
  0
ARC
  5
   1E9
  8
0
  6
CONTINUOUS
 62
     0
 10
8.29999999999998
 20
-30.95
 30
0.0
 40
1.3
 50
89.9999999999999
 51
180.0
  0
ARC
  5
   1EA
  8
0
  6
CONTINUOUS
 62
     0
 10
8.29999999999998
 20
-30.95
 30
0.0
 40
0.5
 50
89.9999999999999
 51
180.0
  0
LINE
  5
   1EB
  8
0
  6
CONTINUOUS
 62
     0
 10
8.74999999999999
 20
-30.45
 30
0.0
 11
8.74999999999999
 21
-29.65
 31
0.0
  0
LINE
  5
   1EC
  8
0
  6
CONTINUOUS
 62
     0
 10
8.29999999999998
 20
-30.45
 30
0.0
 11
8.74999999999999
 21
-30.45
 31
0.0
  0
LINE
  5
   1ED
  8
0
  6
CONTINUOUS
 62
     0
 10
3.4
 20
-2.85000000000002
 30
0.0
 11
4.19999999999999
 21
-2.85000000000002
 31
0.0
  0
ARC
  5
   1EE
  8
0
  6
CONTINUOUS
 62
     0
 10
-3.5527136788005E-15
 20
0.249999999999979
 30
0.0
 40
2.6
 50
0.0
 51
180.0
  0
ARC
  5
   1EF
  8
0
  6
CONTINUOUS
 62
     0
 10
-3.5527136788005E-15
 20
0.249999999999979
 30
0.0
 40
1.8
 50
0.0
 51
180.0
  0
ARC
  5
   1F0
  8
0
  6
CONTINUOUS
 62
     0
 10
-3.5527136788005E-15
 20
-0.250000000000018
 30
0.0
 40
2.6
 50
180.0
 51
360.0
  0
ARC
  5
   1F1
  8
0
  6
CONTINUOUS
 62
     0
 10
-3.5527136788005E-15
 20
-0.250000000000018
 30
0.0
 40
1.8
 50
180.0
 51
360.0
  0
LINE
  5
   1F2
  8
0
  6
CONTINUOUS
 62
     0
 10
1.8
 20
-0.250000000000018
 30
0.0
 11
1.8
 21
0.249999999999979
 31
0.0
  0
LINE
  5
   1F3
  8
0
  6
CONTINUOUS
 62
     0
 10
2.6
 20
-0.250000000000018
 30
0.0
 11
2.6
 21
0.249999999999979
 31
0.0
  0
LINE
  5
   1F4
  8
0
  6
CONTINUOUS
 62
     0
 10
-1.8
 20
-0.250000000000032
 30
0.0
 11
-1.8
 21
0.249999999999964
 31
0.0
  0
LINE
  5
   1F5
  8
0
  6
CONTINUOUS
 62
     0
 10
-2.6
 20
-0.250000000000018
 30
0.0
 11
-2.6
 21
0.249999999999979
 31
0.0
  0
LINE
  5
   1F6
  8
0
  6
CONTINUOUS
 62
     0
 10
3.4
 20
-2.85000000000002
 30
0.0
 11
3.4
 21
2.84999999999998
 31
0.0
  0
LINE
  5
   1F7
  8
0
  6
CONTINUOUS
 62
     0
 10
4.19999999999999
 20
-2.85000000000002
 30
0.0
 11
4.19999999999999
 21
0.649999999999981
 31
0.0
  0
LINE
  5
   1F8
  8
0
  6
CONTINUOUS
 62
     0
 10
6.99999999999999
 20
-2.85000000000002
 30
0.0
 11
6.99999999999999
 21
0.649999999999981
 31
0.0
  0
LINE
  5
   1F9
  8
0
  6
CONTINUOUS
 62
     0
 10
7.79999999999999
 20
-2.85000000000002
 30
0.0
 11
7.79999999999999
 21
0.84999999999998
 31
0.0
  0
LINE
  5
   1FA
  8
0
  6
CONTINUOUS
 62
     0
 10
3.4
 20
2.84999999999998
 30
0.0
 11
4.19999999999999
 21
2.84999999999998
 31
0.0
  0
ARC
  5
   1FB
  8
0
  6
CONTINUOUS
 62
     0
 10
5.59999999999999
 20
0.649999999999981
 30
0.0
 40
1.4
 50
0.0
 51
180.0
  0
LINE
  5
   1FC
  8
0
  6
CONTINUOUS
 62
     0
 10
4.19999999999999
 20
2.05
 30
0.0
 11
4.19999999999999
 21
2.84999999999998
 31
0.0
  0
ARC
  5
   1FD
  8
0
  6
CONTINUOUS
 62
     0
 10
5.79999999999999
 20
0.84999999999998
 30
0.0
 40
2.0
 50
0.0
 51
143.130102354155
  0
LINE
  5
   1FE
  8
0
  6
CONTINUOUS
 62
     0
 10
6.99999999999999
 20
-2.85000000000002
 30
0.0
 11
7.79999999999999
 21
-2.85000000000002
 31
0.0
  0
ENDBLK
  5
   1FF
  8
0
  6
CONTINUOUS
 62
     0
  0
BLOCK
  5
   200
  8
0
  6
CONTINUOUS
 62
     7
  2
COPRITERMINALI
 70
    64
 10
0.0
 20
0.0
 30
0.0
  3
COPRITERMINALI
  0
LINE
  5
   201
  8
0
  6
CONTINUOUS
 62
     3
 10
-26.9653228477592
 20
-26.4999963653409
 30
0.0
 11
51.499997307872
 21
-26.4999847412093
 31
0.0
  0
LINE
  5
   202
  8
0
  6
CONTINUOUS
 62
     3
 10
-11.8807223165952
 20
-3.2146989469386E-15
 30
0.0
 11
51.2499820490807
 21
-3.2146989469386E-15
 31
0.0
  0
LINE
  5
   203
  8
0
  6
CONTINUOUS
 62
     3
 10
52.5000359267571
 20
-25.4999999999854
 30
0.0
 11
52.5000359267571
 21
-1.24999999998545
 31
0.0
  0
LINE
  5
   204
  8
0
  6
CONTINUOUS
 62
     3
 10
51.2499875325437
 20
6.62021609443286E-6
 30
0.0
 11
52.1338681534683
 21
-0.366112771113006
 31
0.0
  0
LINE
  5
   205
  8
0
  6
CONTINUOUS
 62
     3
 10
52.1338651254927
 20
-0.366107818105295
 30
0.0
 11
52.4999845168218
 21
-1.24998843902992
 31
0.0
  0
LINE
  5
   206
  8
0
  6
CONTINUOUS
 62
     3
 10
50.1499835749595
 20
-25.4999847412109
 30
0.0
 11
50.1499835749595
 21
-0.310653686523438
 31
0.0
  0
LINE
  5
   207
  8
0
  6
CONTINUOUS
 62
     3
 10
46.5499851008385
 20
-25.5
 30
0.0
 11
46.5499851008385
 21
-0.310653686523438
 31
0.0
  0
LINE
  5
   208
  8
0
  6
CONTINUOUS
 62
     3
 10
42.9499866267174
 20
-25.5
 30
0.0
 11
42.9499866267174
 21
-0.310653686523438
 31
0.0
  0
LINE
  5
   209
  8
0
  6
CONTINUOUS
 62
     3
 10
39.3499881525963
 20
-25.5
 30
0.0
 11
39.3499881525963
 21
-0.310653686523438
 31
0.0
  0
LINE
  5
   20A
  8
0
  6
CONTINUOUS
 62
     3
 10
35.7499820490806
 20
-25.5
 30
0.0
 11
35.7499820490806
 21
-0.310653686523438
 31
0.0
  0
LINE
  5
   20B
  8
0
  6
CONTINUOUS
 62
     3
 10
32.1499835749596
 20
-25.5
 30
0.0
 11
32.1499835749596
 21
-0.310653686523438
 31
0.0
  0
LINE
  5
   20C
  8
0
  6
CONTINUOUS
 62
     3
 10
28.5499851008385
 20
-25.5
 30
0.0
 11
28.5499851008385
 21
-0.310653686523438
 31
0.0
  0
LINE
  5
   20D
  8
0
  6
CONTINUOUS
 62
     3
 10
24.9499866267174
 20
-25.5
 30
0.0
 11
24.9499866267174
 21
-0.310653686523438
 31
0.0
  0
LINE
  5
   20E
  8
0
  6
CONTINUOUS
 62
     3
 10
21.3499881525963
 20
-25.5
 30
0.0
 11
21.3499881525963
 21
-0.310653686523438
 31
0.0
  0
LINE
  5
   20F
  8
0
  6
CONTINUOUS
 62
     3
 10
17.7499820490806
 20
-25.5
 30
0.0
 11
17.7499820490806
 21
-0.310653686523438
 31
0.0
  0
LINE
  5
   210
  8
0
  6
CONTINUOUS
 62
     3
 10
14.1499835749596
 20
-25.5
 30
0.0
 11
14.1499835749596
 21
-0.310653686523438
 31
0.0
  0
LINE
  5
   211
  8
0
  6
CONTINUOUS
 62
     3
 10
10.5499851008385
 20
-25.5
 30
0.0
 11
10.5499851008385
 21
-0.310653686523438
 31
0.0
  0
LINE
  5
   212
  8
0
  6
CONTINUOUS
 62
     3
 10
6.94998662671736
 20
-25.5
 30
0.0
 11
6.94998662671736
 21
-0.310653686523438
 31
0.0
  0
LINE
  5
   213
  8
0
  6
CONTINUOUS
 62
     3
 10
3.349984337899
 20
-25.5
 30
0.0
 11
3.349984337899
 21
-0.310653686523438
 31
0.0
  0
LINE
  5
   214
  8
0
  6
CONTINUOUS
 62
     3
 10
-0.250014136222092
 20
-25.5
 30
0.0
 11
-0.250014136222092
 21
-0.310653686523438
 31
0.0
  0
LINE
  5
   215
  8
0
  6
CONTINUOUS
 62
     3
 10
-3.85001261034319
 20
-25.5
 30
0.0
 11
-3.85001261034319
 21
-0.310653686523438
 31
0.0
  0
LINE
  5
   216
  8
0
  6
CONTINUOUS
 62
     3
 10
-7.45001489916154
 20
-25.5
 30
0.0
 11
-7.45001489916154
 21
-0.310653686523438
 31
0.0
  0
LINE
  5
   217
  8
0
  6
CONTINUOUS
 62
     3
 10
-11.0500133732826
 20
-25.5
 30
0.0
 11
-11.0500133732826
 21
-0.310653686523438
 31
0.0
  0
LINE
  5
   218
  8
0
  6
CONTINUOUS
 62
     3
 10
-14.650015662101
 20
-25.5
 30
0.0
 11
-14.650015662101
 21
-9.57938879857687
 31
0.0
  0
LINE
  5
   219
  8
0
  6
CONTINUOUS
 62
     3
 10
-18.2500141362221
 20
-25.5
 30
0.0
 11
-18.2500141362221
 21
-13.5387104077297
 31
0.0
  0
LINE
  5
   21A
  8
0
  6
CONTINUOUS
 62
     3
 10
-21.8500145176918
 20
-25.5
 30
0.0
 11
-21.8500145176918
 21
-21.696898268415
 31
0.0
  0
LINE
  5
   21B
  8
0
  6
CONTINUOUS
 62
     3
 10
-25.4500148991615
 20
-25.5
 30
0.0
 11
-25.4500148991615
 21
-23.7334800633219
 31
0.0
  0
LINE
  5
   21C
  8
0
  6
CONTINUOUS
 62
     3
 10
51.4999973078697
 20
-26.4999847412109
 30
0.0
 11
51.4999973078697
 21
-25.4999847412109
 31
0.0
  0
LINE
  5
   21D
  8
0
  6
CONTINUOUS
 62
     3
 10
51.4999973323171
 20
-25.4999847240978
 30
0.0
 11
52.4999897029225
 21
-25.4999999828869
 31
0.0
  0
LINE
  5
   21E
  8
0
  6
CONTINUOUS
 62
     3
 10
-26.7252113460517
 20
-25.4999962297817
 30
0.0
 11
51.499997307872
 21
-25.4999847412093
 31
0.0
  0
POLYLINE
  5
   21F
  8
0
  6
CONTINUOUS
 62
     3
 66
     1
 10
0.0
 20
0.0
 30
0.0
  0
VERTEX
  5
   220
  8
0
  6
CONTINUOUS
 10
-11.8807223165952
 20
-7.17635511806862E-7
 30
0.0
 40
0.0
 41
0.0
  0
VERTEX
  5
   221
  8
0
  6
CONTINUOUS
 10
-12.0380882028879
 20
-0.124695022286736
 30
0.0
 40
0.0
 41
0.0
  0
VERTEX
  5
   222
  8
0
  6
CONTINUOUS
 10
-12.1870378355997
 20
-0.252159435912545
 30
0.0
 40
0.0
 41
0.0
  0
VERTEX
  5
   223
  8
0
  6
CONTINUOUS
 10
-12.3275980880227
 20
-0.382387323729221
 30
0.0
 40
0.0
 41
0.0
  0
VERTEX
  5
   224
  8
0
  6
CONTINUOUS
 10
-12.4598050795586
 20
-0.515369768168507
 30
0.0
 40
0.0
 41
0.0
  0
VERTEX
  5
   225
  8
0
  6
CONTINUOUS
 10
-12.5837055478119
 20
-0.651095230119601
 30
0.0
 40
0.0
 41
0.0
  0
VERTEX
  5
   226
  8
0
  6
CONTINUOUS
 10
-12.6425586822873
 20
-0.719982186495683
 30
0.0
 40
0.0
 41
0.0
  0
VERTEX
  5
   227
  8
0
  6
CONTINUOUS
 10
-12.6993582206831
 20
-0.789549210171149
 30
0.0
 40
0.0
 41
0.0
  0
VERTEX
  5
   228
  8
0
  6
CONTINUOUS
 10
-12.7541136025796
 20
-0.859793970595136
 30
0.0
 40
0.0
 41
0.0
  0
VERTEX
  5
   229
  8
0
  6
CONTINUOUS
 10
-12.8068351884624
 20
-0.93071390985324
 30
0.0
 40
0.0
 41
0.0
  0
VERTEX
  5
   22A
  8
0
  6
CONTINUOUS
 10
-12.8575343026004
 20
-1.00230623208134
 30
0.0
 40
0.0
 41
0.0
  0
VERTEX
  5
   22B
  8
0
  6
CONTINUOUS
 10
-12.9062232759231
 20
-1.0745678928794
 30
0.0
 40
0.0
 41
0.0
  0
VERTEX
  5
   22C
  8
0
  6
CONTINUOUS
 10
-12.9529154888994
 20
-1.14749558872529
 30
0.0
 40
0.0
 41
0.0
  0
VERTEX
  5
   22D
  8
0
  6
CONTINUOUS
 10
-12.9976254144146
 20
-1.22108574638858
 30
0.0
 40
0.0
 41
0.0
  0
VERTEX
  5
   22E
  8
0
  6
CONTINUOUS
 10
-13.0403686606493
 20
-1.29533451234439
 30
0.0
 40
0.0
 41
0.0
  0
VERTEX
  5
   22F
  8
0
  6
CONTINUOUS
 10
-13.0811620139563
 20
-1.37023774218716
 30
0.0
 40
0.0
 41
0.0
  0
VERTEX
  5
   230
  8
0
  6
CONTINUOUS
 10
-13.1200234817393
 20
-1.4457909900445
 30
0.0
 40
0.0
 41
0.0
  0
VERTEX
  5
   231
  8
0
  6
CONTINUOUS
 10
-13.1569723353304
 20
-1.52198949799095
 30
0.0
 40
0.0
 41
0.0
  0
VERTEX
  5
   232
  8
0
  6
CONTINUOUS
 10
-13.225215862176
 20
-1.67630163866714
 30
0.0
 40
0.0
 41
0.0
  0
VERTEX
  5
   233
  8
0
  6
CONTINUOUS
 10
-13.286073673082
 20
-1.83312945747635
 30
0.0
 40
0.0
 41
0.0
  0
VERTEX
  5
   234
  8
0
  6
CONTINUOUS
 10
-13.3397498136806
 20
-1.9924225773146
 30
0.0
 40
0.0
 41
0.0
  0
VERTEX
  5
   235
  8
0
  6
CONTINUOUS
 10
-13.3864726687407
 20
-2.15412461195529
 30
0.0
 40
0.0
 41
0.0
  0
VERTEX
  5
   236
  8
0
  6
CONTINUOUS
 10
-13.4264963342613
 20
-2.31817282729122
 30
0.0
 40
0.0
 41
0.0
  0
VERTEX
  5
   237
  8
0
  6
CONTINUOUS
 10
-13.460101989565
 20
-2.48449780257656
 30
0.0
 40
0.0
 41
0.0
  0
VERTEX
  5
   238
  8
0
  6
CONTINUOUS
 10
-13.4875992693913
 20
-2.65302309166887
 30
0.0
 40
0.0
 41
0.0
  0
VERTEX
  5
   239
  8
0
  6
CONTINUOUS
 10
-13.5093276359897
 20
-2.82366488427106
 30
0.0
 40
0.0
 41
0.0
  0
VERTEX
  5
   23A
  8
0
  6
CONTINUOUS
 10
-13.5256577512138
 20
-2.99633166717342
 30
0.0
 40
0.0
 41
0.0
  0
VERTEX
  5
   23B
  8
0
  6
CONTINUOUS
 10
-13.5392744625448
 20
-3.21887433710571
 30
0.0
 40
0.0
 41
0.0
  0
VERTEX
  5
   23C
  8
0
  6
CONTINUOUS
 10
-13.5457089984619
 20
-3.44431131298729
 30
0.0
 40
0.0
 41
0.0
  0
VERTEX
  5
   23D
  8
0
  6
CONTINUOUS
 10
-13.5459448045399
 20
-3.67239820678813
 30
0.0
 40
0.0
 41
0.0
  0
VERTEX
  5
   23E
  8
0
  6
CONTINUOUS
 10
-13.5410289084444
 20
-3.90287239850856
 30
0.0
 40
0.0
 41
0.0
  0
VERTEX
  5
   23F
  8
0
  6
CONTINUOUS
 10
-13.5320591677427
 20
-4.13545491753417
 30
0.0
 40
0.0
 41
0.0
  0
VERTEX
  5
   240
  8
0
  6
CONTINUOUS
 10
-13.5201715177152
 20
-4.36985232399089
 30
0.0
 40
0.0
 41
0.0
  0
VERTEX
  5
   241
  8
0
  6
CONTINUOUS
 10
-13.4923001062319
 20
-4.84285698153295
 30
0.0
 40
0.0
 41
0.0
  0
VERTEX
  5
   242
  8
0
  6
CONTINUOUS
 10
-13.4667791273031
 20
-5.31932095843851
 30
0.0
 40
0.0
 41
0.0
  0
VERTEX
  5
   243
  8
0
  6
CONTINUOUS
 10
-13.4577810265544
 20
-5.55801647470083
 30
0.0
 40
0.0
 41
0.0
  0
VERTEX
  5
   244
  8
0
  6
CONTINUOUS
 10
-13.4527661375365
 20
-5.79656774057655
 30
0.0
 40
0.0
 41
0.0
  0
VERTEX
  5
   245
  8
0
  6
CONTINUOUS
 10
-13.4527798782228
 20
-6.03463270931388
 30
0.0
 40
0.0
 41
0.0
  0
VERTEX
  5
   246
  8
0
  6
CONTINUOUS
 10
-13.4588037267864
 20
-6.27186991574137
 30
0.0
 40
0.0
 41
0.0
  0
VERTEX
  5
   247
  8
0
  6
CONTINUOUS
 10
-13.471742469411
 20
-6.50794035762288
 30
0.0
 40
0.0
 41
0.0
  0
VERTEX
  5
   248
  8
0
  6
CONTINUOUS
 10
-13.4810635629787
 20
-6.6254332401087
 30
0.0
 40
0.0
 41
0.0
  0
VERTEX
  5
   249
  8
0
  6
CONTINUOUS
 10
-13.4924114481018
 20
-6.74250937701265
 30
0.0
 40
0.0
 41
0.0
  0
VERTEX
  5
   24A
  8
0
  6
CONTINUOUS
 10
-13.5058719747218
 20
-6.85912792354668
 30
0.0
 40
0.0
 41
0.0
  0
VERTEX
  5
   24B
  8
0
  6
CONTINUOUS
 10
-13.5215238084959
 20
-6.97524854161025
 30
0.0
 40
0.0
 41
0.0
  0
VERTEX
  5
   24C
  8
0
  6
CONTINUOUS
 10
-13.53943803229
 20
-7.09083145858272
 30
0.0
 40
0.0
 41
0.0
  0
VERTEX
  5
   24D
  8
0
  6
CONTINUOUS
 10
-13.5596777476739
 20
-7.20583752611561
 30
0.0
 40
0.0
 41
0.0
  0
VERTEX
  5
   24E
  8
0
  6
CONTINUOUS
 10
-13.5822976764144
 20
-7.32022827892504
 30
0.0
 40
0.0
 41
0.0
  0
VERTEX
  5
   24F
  8
0
  6
CONTINUOUS
 10
-13.6073437619702
 20
-7.43396599358399
 30
0.0
 40
0.0
 41
0.0
  0
VERTEX
  5
   250
  8
0
  6
CONTINUOUS
 10
-13.6348527709855
 20
-7.54701374731472
 30
0.0
 40
0.0
 41
0.0
  0
VERTEX
  5
   251
  8
0
  6
CONTINUOUS
 10
-13.6648518947842
 20
-7.65933547678105
 30
0.0
 40
0.0
 41
0.0
  0
VERTEX
  5
   252
  8
0
  6
CONTINUOUS
 10
-13.7102052147405
 20
-7.81255594844713
 30
0.0
 40
0.0
 41
0.0
  0
VERTEX
  5
   253
  8
0
  6
CONTINUOUS
 10
-13.7603128733319
 20
-7.96424869821502
 30
0.0
 40
0.0
 41
0.0
  0
VERTEX
  5
   254
  8
0
  6
CONTINUOUS
 10
-13.8151539241413
 20
-8.11432972818013
 30
0.0
 40
0.0
 41
0.0
  0
VERTEX
  5
   255
  8
0
  6
CONTINUOUS
 10
-13.8746753653185
 20
-8.26272004112415
 30
0.0
 40
0.0
 41
0.0
  0
VERTEX
  5
   256
  8
0
  6
CONTINUOUS
 10
-13.9387946632176
 20
-8.4093463934055
 30
0.0
 40
0.0
 41
0.0
  0
VERTEX
  5
   257
  8
0
  6
CONTINUOUS
 10
-14.0074022760342
 20
-8.55414204784972
 30
0.0
 40
0.0
 41
0.0
  0
VERTEX
  5
   258
  8
0
  6
CONTINUOUS
 10
-14.0803641774427
 20
-8.69704752663992
 30
0.0
 40
0.0
 41
0.0
  0
VERTEX
  5
   259
  8
0
  6
CONTINUOUS
 10
-14.1575243802331
 20
-8.83801136420718
 30
0.0
 40
0.0
 41
0.0
  0
VERTEX
  5
   25A
  8
0
  6
CONTINUOUS
 10
-14.2387074599486
 20
-8.976990860121
 30
0.0
 40
0.0
 41
0.0
  0
VERTEX
  5
   25B
  8
0
  6
CONTINUOUS
 10
-14.3237210785229
 20
-9.11395283197969
 30
0.0
 40
0.0
 41
0.0
  0
VERTEX
  5
   25C
  8
0
  6
CONTINUOUS
 10
-14.4123585079169
 20
-9.24887436830084
 30
0.0
 40
0.0
 41
0.0
  0
VERTEX
  5
   25D
  8
0
  6
CONTINUOUS
 10
-14.5044011537565
 20
-9.38174358141167
 30
0.0
 40
0.0
 41
0.0
  0
VERTEX
  5
   25E
  8
0
  6
CONTINUOUS
 10
-14.5996210789693
 20
-9.51256036033953
 30
0.0
 40
0.0
 41
0.0
  0
VERTEX
  5
   25F
  8
0
  6
CONTINUOUS
 10
-14.6977835274221
 20
-9.64133712370228
 30
0.0
 40
0.0
 41
0.0
  0
VERTEX
  5
   260
  8
0
  6
CONTINUOUS
 10
-14.7986494475581
 20
-9.76809957259872
 30
0.0
 40
0.0
 41
0.0
  0
VERTEX
  5
   261
  8
0
  6
CONTINUOUS
 10
-14.9019780160339
 20
-9.89288744349901
 30
0.0
 40
0.0
 41
0.0
  0
VERTEX
  5
   262
  8
0
  6
CONTINUOUS
 10
-15.0075291613572
 20
-10.0157552611351
 30
0.0
 40
0.0
 41
0.0
  0
VERTEX
  5
   263
  8
0
  6
CONTINUOUS
 10
-15.1150660875233
 20
-10.1367730913912
 30
0.0
 40
0.0
 41
0.0
  0
VERTEX
  5
   264
  8
0
  6
CONTINUOUS
 10
-15.2243577976528
 20
-10.256027294194
 30
0.0
 40
0.0
 41
0.0
  0
VERTEX
  5
   265
  8
0
  6
CONTINUOUS
 10
-15.3351816176287
 20
-10.3736212764034
 30
0.0
 40
0.0
 41
0.0
  0
VERTEX
  5
   266
  8
0
  6
CONTINUOUS
 10
-15.4727327398165
 20
-10.5156039225108
 30
0.0
 40
0.0
 41
0.0
  0
VERTEX
  5
   267
  8
0
  6
CONTINUOUS
 10
-15.6119019776945
 20
-10.6555369357352
 30
0.0
 40
0.0
 41
0.0
  0
VERTEX
  5
   268
  8
0
  6
CONTINUOUS
 10
-15.8937631365907
 20
-10.930467143671
 30
0.0
 40
0.0
 41
0.0
  0
VERTEX
  5
   269
  8
0
  6
CONTINUOUS
 10
-16.46324532334
 20
-11.4705085657159
 30
0.0
 40
0.0
 41
0.0
  0
VERTEX
  5
   26A
  8
0
  6
CONTINUOUS
 10
-16.7464445499341
 20
-11.7418227858257
 30
0.0
 40
0.0
 41
0.0
  0
VERTEX
  5
   26B
  8
0
  6
CONTINUOUS
 10
-16.8867002763727
 20
-11.8791914496362
 30
0.0
 40
0.0
 41
0.0
  0
VERTEX
  5
   26C
  8
0
  6
CONTINUOUS
 10
-17.025675870363
 20
-12.0182117486832
 30
0.0
 40
0.0
 41
0.0
  0
VERTEX
  5
   26D
  8
0
  6
CONTINUOUS
 10
-17.1630649050046
 20
-12.1592459296682
 30
0.0
 40
0.0
 41
0.0
  0
VERTEX
  5
   26E
  8
0
  6
CONTINUOUS
 10
-17.2985413659313
 20
-12.302633192929
 30
0.0
 40
0.0
 41
0.0
  0
VERTEX
  5
   26F
  8
0
  6
CONTINUOUS
 10
-17.4317555090847
 20
-12.4486842890361
 30
0.0
 40
0.0
 41
0.0
  0
VERTEX
  5
   270
  8
0
  6
CONTINUOUS
 10
-17.562329718488
 20
-12.5976761153882
 30
0.0
 40
0.0
 41
0.0
  0
VERTEX
  5
   271
  8
0
  6
CONTINUOUS
 10
-17.6898543640196
 20
-12.7498463128088
 30
0.0
 40
0.0
 41
0.0
  0
VERTEX
  5
   272
  8
0
  6
CONTINUOUS
 10
-17.8138836591874
 20
-12.9053878621415
 30
0.0
 40
0.0
 41
0.0
  0
VERTEX
  5
   273
  8
0
  6
CONTINUOUS
 10
-17.933931518902
 20
-13.0644436808464
 30
0.0
 40
0.0
 41
0.0
  0
VERTEX
  5
   274
  8
0
  6
CONTINUOUS
 10
-18.0494674172511
 20
-13.2271012195961
 30
0.0
 40
0.0
 41
0.0
  0
VERTEX
  5
   275
  8
0
  6
CONTINUOUS
 10
-18.1251608148491
 20
-13.3397812332793
 30
0.0
 40
0.0
 41
0.0
  0
VERTEX
  5
   276
  8
0
  6
CONTINUOUS
 10
-18.1983064339121
 20
-13.4541318798404
 30
0.0
 40
0.0
 41
0.0
  0
VERTEX
  5
   277
  8
0
  6
CONTINUOUS
 10
-18.2687018186097
 20
-13.5701316400191
 30
0.0
 40
0.0
 41
0.0
  0
VERTEX
  5
   278
  8
0
  6
CONTINUOUS
 10
-18.3361404474715
 20
-13.6877470203599
 30
0.0
 40
0.0
 41
0.0
  0
VERTEX
  5
   279
  8
0
  6
CONTINUOUS
 10
-18.4004153371355
 20
-13.8069336510575
 30
0.0
 40
0.0
 41
0.0
  0
VERTEX
  5
   27A
  8
0
  6
CONTINUOUS
 10
-18.4613226460948
 20
-13.9276373838021
 30
0.0
 40
0.0
 41
0.0
  0
VERTEX
  5
   27B
  8
0
  6
CONTINUOUS
 10
-18.5186652784458
 20
-14.0497953896251
 30
0.0
 40
0.0
 41
0.0
  0
VERTEX
  5
   27C
  8
0
  6
CONTINUOUS
 10
-18.5722564876352
 20
-14.1733372567445
 30
0.0
 40
0.0
 41
0.0
  0
VERTEX
  5
   27D
  8
0
  6
CONTINUOUS
 10
-18.6219234802078
 20
-14.2981860884109
 30
0.0
 40
0.0
 41
0.0
  0
VERTEX
  5
   27E
  8
0
  6
CONTINUOUS
 10
-18.6675110195543
 20
-14.4242596007524
 30
0.0
 40
0.0
 41
0.0
  0
VERTEX
  5
   27F
  8
0
  6
CONTINUOUS
 10
-18.7088850296582
 20
-14.5514712206204
 30
0.0
 40
0.0
 41
0.0
  0
VERTEX
  5
   280
  8
0
  6
CONTINUOUS
 10
-18.7459361988438
 20
-14.6797311834354
 30
0.0
 40
0.0
 41
0.0
  0
VERTEX
  5
   281
  8
0
  6
CONTINUOUS
 10
-18.7785835835239
 20
-14.8089476310319
 30
0.0
 40
0.0
 41
0.0
  0
VERTEX
  5
   282
  8
0
  6
CONTINUOUS
 10
-18.8067782119466
 20
-14.9390277095047
 30
0.0
 40
0.0
 41
0.0
  0
VERTEX
  5
   283
  8
0
  6
CONTINUOUS
 10
-18.8305066879437
 20
-15.0698786670537
 30
0.0
 40
0.0
 41
0.0
  0
VERTEX
  5
   284
  8
0
  6
CONTINUOUS
 10
-18.8497947946776
 20
-15.2014089518301
 30
0.0
 40
0.0
 41
0.0
  0
VERTEX
  5
   285
  8
0
  6
CONTINUOUS
 10
-18.8647110983892
 20
-15.3335293097812
 30
0.0
 40
0.0
 41
0.0
  0
VERTEX
  5
   286
  8
0
  6
CONTINUOUS
 10
-18.8753705521454
 20
-15.4661538824968
 30
0.0
 40
0.0
 41
0.0
  0
VERTEX
  5
   287
  8
0
  6
CONTINUOUS
 10
-18.8819380995863
 20
-15.599201305054
 30
0.0
 40
0.0
 41
0.0
  0
VERTEX
  5
   288
  8
0
  6
CONTINUOUS
 10
-18.8846322786733
 20
-15.7325958038629
 30
0.0
 40
0.0
 41
0.0
  0
VERTEX
  5
   289
  8
0
  6
CONTINUOUS
 10
-18.8842190005345
 20
-15.8369168510388
 30
0.0
 40
0.0
 41
0.0
  0
VERTEX
  5
   28A
  8
0
  6
CONTINUOUS
 10
-18.8817683995859
 20
-15.9413773544323
 30
0.0
 40
0.0
 41
0.0
  0
VERTEX
  5
   28B
  8
0
  6
CONTINUOUS
 10
-18.8714788565952
 20
-16.1506101986441
 30
0.0
 40
0.0
 41
0.0
  0
VERTEX
  5
   28C
  8
0
  6
CONTINUOUS
 10
-18.85538066569
 20
-16.3601019191307
 30
0.0
 40
0.0
 41
0.0
  0
VERTEX
  5
   28D
  8
0
  6
CONTINUOUS
 10
-18.8353142465831
 20
-16.5696860109618
 30
0.0
 40
0.0
 41
0.0
  0
VERTEX
  5
   28E
  8
0
  6
CONTINUOUS
 10
-18.7913421550987
 20
-16.9885338250813
 30
0.0
 40
0.0
 41
0.0
  0
VERTEX
  5
   28F
  8
0
  6
CONTINUOUS
 10
-18.7716144415617
 20
-17.1975025606325
 30
0.0
 40
0.0
 41
0.0
  0
VERTEX
  5
   290
  8
0
  6
CONTINUOUS
 10
-18.7561366621251
 20
-17.4059533520397
 30
0.0
 40
0.0
 41
0.0
  0
VERTEX
  5
   291
  8
0
  6
CONTINUOUS
 10
-18.7468330897795
 20
-17.6136966914533
 30
0.0
 40
0.0
 41
0.0
  0
VERTEX
  5
   292
  8
0
  6
CONTINUOUS
 10
-18.7450479344463
 20
-17.7172345221966
 30
0.0
 40
0.0
 41
0.0
  0
VERTEX
  5
   293
  8
0
  6
CONTINUOUS
 10
-18.7454381351029
 20
-17.8205079574186
 30
0.0
 40
0.0
 41
0.0
  0
VERTEX
  5
   294
  8
0
  6
CONTINUOUS
 10
-18.7477872405867
 20
-17.9129842949241
 30
0.0
 40
0.0
 41
0.0
  0
VERTEX
  5
   295
  8
0
  6
CONTINUOUS
 10
-18.7521459809002
 20
-18.005191315638
 30
0.0
 40
0.0
 41
0.0
  0
VERTEX
  5
   296
  8
0
  6
CONTINUOUS
 10
-18.7586152097789
 20
-18.0970991504369
 30
0.0
 40
0.0
 41
0.0
  0
VERTEX
  5
   297
  8
0
  6
CONTINUOUS
 10
-18.7672833462021
 20
-18.1886760194679
 30
0.0
 40
0.0
 41
0.0
  0
VERTEX
  5
   298
  8
0
  6
CONTINUOUS
 10
-18.7782268121109
 20
-18.2798884032864
 30
0.0
 40
0.0
 41
0.0
  0
VERTEX
  5
   299
  8
0
  6
CONTINUOUS
 10
-18.7915104701262
 20
-18.3707012139947
 30
0.0
 40
0.0
 41
0.0
  0
VERTEX
  5
   29A
  8
0
  6
CONTINUOUS
 10
-18.8071880612666
 20
-18.4610779663801
 30
0.0
 40
0.0
 41
0.0
  0
VERTEX
  5
   29B
  8
0
  6
CONTINUOUS
 10
-18.8253026426664
 20
-18.5509809490533
 30
0.0
 40
0.0
 41
0.0
  0
VERTEX
  5
   29C
  8
0
  6
CONTINUOUS
 10
-18.8458870252939
 20
-18.6403713955868
 30
0.0
 40
0.0
 41
0.0
  0
VERTEX
  5
   29D
  8
0
  6
CONTINUOUS
 10
-18.8689642116689
 20
-18.7292096556529
 30
0.0
 40
0.0
 41
0.0
  0
VERTEX
  5
   29E
  8
0
  6
CONTINUOUS
 10
-18.8945478335812
 20
-18.8174553661621
 30
0.0
 40
0.0
 41
0.0
  0
VERTEX
  5
   29F
  8
0
  6
CONTINUOUS
 10
-18.9226425898082
 20
-18.9050676224014
 30
0.0
 40
0.0
 41
0.0
  0
VERTEX
  5
   2A0
  8
0
  6
CONTINUOUS
 10
-18.9532446838331
 20
-18.9920051491727
 30
0.0
 40
0.0
 41
0.0
  0
VERTEX
  5
   2A1
  8
0
  6
CONTINUOUS
 10
-18.9863422615628
 20
-19.0782264719308
 30
0.0
 40
0.0
 41
0.0
  0
VERTEX
  5
   2A2
  8
0
  6
CONTINUOUS
 10
-19.021915849046
 20
-19.1636900879219
 30
0.0
 40
0.0
 41
0.0
  0
VERTEX
  5
   2A3
  8
0
  6
CONTINUOUS
 10
-19.0599387901913
 20
-19.2483546373218
 30
0.0
 40
0.0
 41
0.0
  0
VERTEX
  5
   2A4
  8
0
  6
CONTINUOUS
 10
-19.1003776844846
 20
-19.3321790743743
 30
0.0
 40
0.0
 41
0.0
  0
VERTEX
  5
   2A5
  8
0
  6
CONTINUOUS
 10
-19.1431928247081
 20
-19.4151228385293
 30
0.0
 40
0.0
 41
0.0
  0
VERTEX
  5
   2A6
  8
0
  6
CONTINUOUS
 10
-19.1883386346573
 20
-19.497146025581
 30
0.0
 40
0.0
 41
0.0
  0
VERTEX
  5
   2A7
  8
0
  6
CONTINUOUS
 10
-19.2357641068597
 20
-19.5782095588067
 30
0.0
 40
0.0
 41
0.0
  0
VERTEX
  5
   2A8
  8
0
  6
CONTINUOUS
 10
-19.2854132402923
 20
-19.6582753601044
 30
0.0
 40
0.0
 41
0.0
  0
VERTEX
  5
   2A9
  8
0
  6
CONTINUOUS
 10
-19.3372254781001
 20
-19.7373065211315
 30
0.0
 40
0.0
 41
0.0
  0
VERTEX
  5
   2AA
  8
0
  6
CONTINUOUS
 10
-19.3911361453136
 20
-19.8152674744432
 30
0.0
 40
0.0
 41
0.0
  0
VERTEX
  5
   2AB
  8
0
  6
CONTINUOUS
 10
-19.447076886567
 20
-19.8921241646302
 30
0.0
 40
0.0
 41
0.0
  0
VERTEX
  5
   2AC
  8
0
  6
CONTINUOUS
 10
-19.5049761038166
 20
-19.9678442194575
 30
0.0
 40
0.0
 41
0.0
  0
VERTEX
  5
   2AD
  8
0
  6
CONTINUOUS
 10
-19.5647593940579
 20
-20.0423971210028
 30
0.0
 40
0.0
 41
0.0
  0
VERTEX
  5
   2AE
  8
0
  6
CONTINUOUS
 10
-19.6263499870445
 20
-20.115754376794
 30
0.0
 40
0.0
 41
0.0
  0
VERTEX
  5
   2AF
  8
0
  6
CONTINUOUS
 10
-19.6896691830055
 20
-20.1878896909484
 30
0.0
 40
0.0
 41
0.0
  0
VERTEX
  5
   2B0
  8
0
  6
CONTINUOUS
 10
-19.7546367903638
 20
-20.2587791353103
 30
0.0
 40
0.0
 41
0.0
  0
VERTEX
  5
   2B1
  8
0
  6
CONTINUOUS
 10
-19.821171563454
 20
-20.3284013205899
 30
0.0
 40
0.0
 41
0.0
  0
VERTEX
  5
   2B2
  8
0
  6
CONTINUOUS
 10
-19.9586149800348
 20
-20.4637720778989
 30
0.0
 40
0.0
 41
0.0
  0
VERTEX
  5
   2B3
  8
0
  6
CONTINUOUS
 10
-20.1013450189428
 20
-20.5938881291209
 30
0.0
 40
0.0
 41
0.0
  0
VERTEX
  5
   2B4
  8
0
  6
CONTINUOUS
 10
-20.2487184149115
 20
-20.7186872152003
 30
0.0
 40
0.0
 41
0.0
  0
VERTEX
  5
   2B5
  8
0
  6
CONTINUOUS
 10
-20.40011705819
 20
-20.8381641282051
 30
0.0
 40
0.0
 41
0.0
  0
VERTEX
  5
   2B6
  8
0
  6
CONTINUOUS
 10
-20.5549620015178
 20
-20.9523761877521
 30
0.0
 40
0.0
 41
0.0
  0
VERTEX
  5
   2B7
  8
0
  6
CONTINUOUS
 10
-20.68953110085
 20
-21.0458383770463
 30
0.0
 40
0.0
 41
0.0
  0
VERTEX
  5
   2B8
  8
0
  6
CONTINUOUS
 10
-20.8259375855763
 20
-21.135669762206
 30
0.0
 40
0.0
 41
0.0
  0
VERTEX
  5
   2B9
  8
0
  6
CONTINUOUS
 10
-20.9639230601744
 20
-21.2220249204068
 30
0.0
 40
0.0
 41
0.0
  0
VERTEX
  5
   2BA
  8
0
  6
CONTINUOUS
 10
-21.1032596572597
 20
-21.3050908905824
 30
0.0
 40
0.0
 41
0.0
  0
VERTEX
  5
   2BB
  8
0
  6
CONTINUOUS
 10
-21.2437474354693
 20
-21.3850838615248
 30
0.0
 40
0.0
 41
0.0
  0
VERTEX
  5
   2BC
  8
0
  6
CONTINUOUS
 10
-21.3852117773469
 20
-21.4622458599852
 30
0.0
 40
0.0
 41
0.0
  0
VERTEX
  5
   2BD
  8
0
  6
CONTINUOUS
 10
-21.527500787227
 20
-21.5368414387739
 30
0.0
 40
0.0
 41
0.0
  0
VERTEX
  5
   2BE
  8
0
  6
CONTINUOUS
 10
-21.6704826891197
 20
-21.6091543648612
 30
0.0
 40
0.0
 41
0.0
  0
VERTEX
  5
   2BF
  8
0
  6
CONTINUOUS
 10
-21.9580830506661
 20
-21.7481435262139
 30
0.0
 40
0.0
 41
0.0
  0
VERTEX
  5
   2C0
  8
0
  6
CONTINUOUS
 10
-22.2472621671836
 20
-21.8817419108181
 30
0.0
 40
0.0
 41
0.0
  0
VERTEX
  5
   2C1
  8
0
  6
CONTINUOUS
 10
-22.8280475152863
 20
-22.1432519610222
 30
0.0
 40
0.0
 41
0.0
  0
VERTEX
  5
   2C2
  8
0
  6
CONTINUOUS
 10
-23.1185961835407
 20
-22.2762741619568
 30
0.0
 40
0.0
 41
0.0
  0
VERTEX
  5
   2C3
  8
0
  6
CONTINUOUS
 10
-23.4084419447107
 20
-22.413914695241
 30
0.0
 40
0.0
 41
0.0
  0
VERTEX
  5
   2C4
  8
0
  6
CONTINUOUS
 10
-23.5729221847255
 20
-22.4951397272573
 30
0.0
 40
0.0
 41
0.0
  0
VERTEX
  5
   2C5
  8
0
  6
CONTINUOUS
 10
-23.7367350650165
 20
-22.5788045741134
 30
0.0
 40
0.0
 41
0.0
  0
VERTEX
  5
   2C6
  8
0
  6
CONTINUOUS
 10
-23.8996730794607
 20
-22.665168264236
 30
0.0
 40
0.0
 41
0.0
  0
VERTEX
  5
   2C7
  8
0
  6
CONTINUOUS
 10
-24.0615060419566
 20
-22.7544492820306
 30
0.0
 40
0.0
 41
0.0
  0
VERTEX
  5
   2C8
  8
0
  6
CONTINUOUS
 10
-24.2219834803203
 20
-22.8468281597424
 30
0.0
 40
0.0
 41
0.0
  0
VERTEX
  5
   2C9
  8
0
  6
CONTINUOUS
 10
-24.3808370301816
 20
-22.9424500693175
 30
0.0
 40
0.0
 41
0.0
  0
VERTEX
  5
   2CA
  8
0
  6
CONTINUOUS
 10
-24.5377828288802
 20
-23.0414274142638
 30
0.0
 40
0.0
 41
0.0
  0
VERTEX
  5
   2CB
  8
0
  6
CONTINUOUS
 10
-24.6925239093621
 20
-23.1438424215123
 30
0.0
 40
0.0
 41
0.0
  0
VERTEX
  5
   2CC
  8
0
  6
CONTINUOUS
 10
-24.8447525940758
 20
-23.249749733278
 30
0.0
 40
0.0
 41
0.0
  0
VERTEX
  5
   2CD
  8
0
  6
CONTINUOUS
 10
-24.9941528888687
 20
-23.3591789989207
 30
0.0
 40
0.0
 41
0.0
  0
VERTEX
  5
   2CE
  8
0
  6
CONTINUOUS
 10
-25.1404028768827
 20
-23.4721374668068
 30
0.0
 40
0.0
 41
0.0
  0
VERTEX
  5
   2CF
  8
0
  6
CONTINUOUS
 10
-25.2831771124515
 20
-23.5886125761695
 30
0.0
 40
0.0
 41
0.0
  0
VERTEX
  5
   2D0
  8
0
  6
CONTINUOUS
 10
-25.4221490149957
 20
-23.7085745489704
 30
0.0
 40
0.0
 41
0.0
  0
VERTEX
  5
   2D1
  8
0
  6
CONTINUOUS
 10
-25.5569932629201
 20
-23.8319789817604
 30
0.0
 40
0.0
 41
0.0
  0
VERTEX
  5
   2D2
  8
0
  6
CONTINUOUS
 10
-25.687388187509
 20
-23.958769437541
 30
0.0
 40
0.0
 41
0.0
  0
VERTEX
  5
   2D3
  8
0
  6
CONTINUOUS
 10
-25.8130181668233
 20
-24.0888800376248
 30
0.0
 40
0.0
 41
0.0
  0
VERTEX
  5
   2D4
  8
0
  6
CONTINUOUS
 10
-25.933576019596
 20
-24.222238053497
 30
0.0
 40
0.0
 41
0.0
  0
VERTEX
  5
   2D5
  8
0
  6
CONTINUOUS
 10
-26.0487653991288
 20
-24.3587664986766
 30
0.0
 40
0.0
 41
0.0
  0
VERTEX
  5
   2D6
  8
0
  6
CONTINUOUS
 10
-26.1583031871886
 20
-24.4983867205769
 30
0.0
 40
0.0
 41
0.0
  0
VERTEX
  5
   2D7
  8
0
  6
CONTINUOUS
 10
-26.2619218879033
 20
-24.641020992367
 30
0.0
 40
0.0
 41
0.0
  0
VERTEX
  5
   2D8
  8
0
  6
CONTINUOUS
 10
-26.3193202928071
 20
-24.7252670939351
 30
0.0
 40
0.0
 41
0.0
  0
VERTEX
  5
   2D9
  8
0
  6
CONTINUOUS
 10
-26.3745890952435
 20
-24.8104921971462
 30
0.0
 40
0.0
 41
0.0
  0
VERTEX
  5
   2DA
  8
0
  6
CONTINUOUS
 10
-26.4276846358967
 20
-24.8966832332298
 30
0.0
 40
0.0
 41
0.0
  0
VERTEX
  5
   2DB
  8
0
  6
CONTINUOUS
 10
-26.478565468312
 20
-24.9838277958021
 30
0.0
 40
0.0
 41
0.0
  0
VERTEX
  5
   2DC
  8
0
  6
CONTINUOUS
 10
-26.5271923013383
 20
-25.0719141236378
 30
0.0
 40
0.0
 41
0.0
  0
VERTEX
  5
   2DD
  8
0
  6
CONTINUOUS
 10
-26.5735279415717
 20
-25.1609310834414
 30
0.0
 40
0.0
 41
0.0
  0
VERTEX
  5
   2DE
  8
0
  6
CONTINUOUS
 10
-26.6175372357988
 20
-25.2508681526179
 30
0.0
 40
0.0
 41
0.0
  0
VERTEX
  5
   2DF
  8
0
  6
CONTINUOUS
 10
-26.6591870134399
 20
-25.3417154020446
 30
0.0
 40
0.0
 41
0.0
  0
VERTEX
  5
   2E0
  8
0
  6
CONTINUOUS
 10
-26.6984460289924
 20
-25.4334634788421
 30
0.0
 40
0.0
 41
0.0
  0
VERTEX
  5
   2E1
  8
0
  6
CONTINUOUS
 10
-26.7352849044739
 20
-25.5261035891458
 30
0.0
 40
0.0
 41
0.0
  0
VERTEX
  5
   2E2
  8
0
  6
CONTINUOUS
 10
-26.7696760718657
 20
-25.6196274808766
 30
0.0
 40
0.0
 41
0.0
  0
VERTEX
  5
   2E3
  8
0
  6
CONTINUOUS
 10
-26.8015937155559
 20
-25.7140274265128
 30
0.0
 40
0.0
 41
0.0
  0
VERTEX
  5
   2E4
  8
0
  6
CONTINUOUS
 10
-26.831013714783
 20
-25.8092962058608
 30
0.0
 40
0.0
 41
0.0
  0
VERTEX
  5
   2E5
  8
0
  6
CONTINUOUS
 10
-26.8579135860787
 20
-25.9054270888269
 30
0.0
 40
0.0
 41
0.0
  0
VERTEX
  5
   2E6
  8
0
  6
CONTINUOUS
 10
-26.8822724257115
 20
-26.002413818188
 30
0.0
 40
0.0
 41
0.0
  0
VERTEX
  5
   2E7
  8
0
  6
CONTINUOUS
 10
-26.90407085213
 20
-26.1002505923631
 30
0.0
 40
0.0
 41
0.0
  0
VERTEX
  5
   2E8
  8
0
  6
CONTINUOUS
 10
-26.9232909484063
 20
-26.1989320481847
 30
0.0
 40
0.0
 41
0.0
  0
VERTEX
  5
   2E9
  8
0
  6
CONTINUOUS
 10
-26.9399162046787
 20
-26.2984532436699
 30
0.0
 40
0.0
 41
0.0
  0
VERTEX
  5
   2EA
  8
0
  6
CONTINUOUS
 10
-26.9539314605958
 20
-26.3988096407913
 30
0.0
 40
0.0
 41
0.0
  0
VERTEX
  5
   2EB
  8
0
  6
CONTINUOUS
 10
-26.9653228477591
 20
-26.499997088249
 30
0.0
 40
0.0
 41
0.0
  0
SEQEND
  5
   2EC
  8
0
  6
CONTINUOUS
 62
     3
  0
ENDBLK
  5
   2ED
  8
0
  6
CONTINUOUS
 62
     7
  0
BLOCK
  5
   2EE
  8
0
  6
CONTINUOUS
 62
     7
  2
MOSTRINA
 70
    64
 10
0.0
 20
0.0
 30
0.0
  3
MOSTRINA
  0
LINE
  5
   2EF
  8
0
  6
CONTINUOUS
 62
     3
 10
173.338256835938
 20
30.7306251525879
 30
0.0
 11
173.338256835938
 21
189.230621337891
 31
0.0
  0
LINE
  5
   2F0
  8
0
  6
CONTINUOUS
 62
     3
 10
57.5882568359375
 20
29.4806251525879
 30
0.0
 11
172.088256835938
 21
29.4806251525879
 31
0.0
  0
LINE
  5
   2F1
  8
0
  6
CONTINUOUS
 62
     3
 10
56.3382568359375
 20
30.7306251525879
 30
0.0
 11
56.3382568359375
 21
189.230621337891
 31
0.0
  0
LINE
  5
   2F2
  8
0
  6
CONTINUOUS
 62
     3
 10
57.5882568359375
 20
190.480621337891
 30
0.0
 11
172.088256835938
 21
190.480621337891
 31
0.0
  0
LINE
  5
   2F3
  8
0
  6
CONTINUOUS
 62
     3
 10
167.838256835938
 20
56.9806251525879
 30
0.0
 11
167.838256835938
 21
162.980625152588
 31
0.0
  0
LINE
  5
   2F4
  8
0
  6
CONTINUOUS
 62
     3
 10
61.8382568359375
 20
56.9806251525879
 30
0.0
 11
167.838256835938
 21
56.9806251525879
 31
0.0
  0
LINE
  5
   2F5
  8
0
  6
CONTINUOUS
 62
     3
 10
61.8382568359375
 20
56.9806251525879
 30
0.0
 11
61.8382568359375
 21
162.980625152588
 31
0.0
  0
LINE
  5
   2F6
  8
0
  6
CONTINUOUS
 62
     3
 10
61.8382568359375
 20
162.980621337891
 30
0.0
 11
167.838256835938
 21
162.980621337891
 31
0.0
  0
LINE
  5
   2F7
  8
0
  6
CONTINUOUS
 62
     3
 10
168.838256835938
 20
48.4806251525879
 30
0.0
 11
168.838256835938
 21
49.4806251525879
 31
0.0
  0
LINE
  5
   2F8
  8
0
  6
CONTINUOUS
 62
     3
 10
61.8382568359375
 20
50.4806251525879
 30
0.0
 11
167.838256835938
 21
50.4806251525879
 31
0.0
  0
LINE
  5
   2F9
  8
0
  6
CONTINUOUS
 62
     3
 10
60.8382568359375
 20
48.4806251525879
 30
0.0
 11
60.8382568359375
 21
49.4806251525879
 31
0.0
  0
LINE
  5
   2FA
  8
0
  6
CONTINUOUS
 62
     3
 10
61.8382568359375
 20
49.4806251525879
 30
0.0
 11
167.838256835938
 21
49.4806251525879
 31
0.0
  0
LINE
  5
   2FB
  8
0
  6
CONTINUOUS
 62
     3
 10
60.8382568359375
 20
29.4806251525879
 30
0.0
 11
60.8382568359375
 21
48.4806251525879
 31
0.0
  0
LINE
  5
   2FC
  8
0
  6
CONTINUOUS
 62
     3
 10
60.8382568359375
 20
49.4806213378906
 30
0.0
 11
60.8382568359375
 21
190.480621337891
 31
0.0
  0
LINE
  5
   2FD
  8
0
  6
CONTINUOUS
 62
     3
 10
61.8382568359375
 20
29.4806251525879
 30
0.0
 11
61.8382568359375
 21
49.4806251525879
 31
0.0
  0
LINE
  5
   2FE
  8
0
  6
CONTINUOUS
 62
     3
 10
61.8382568359375
 20
162.980621337891
 30
0.0
 11
61.8382568359375
 21
169.480621337891
 31
0.0
  0
LINE
  5
   2FF
  8
0
  6
CONTINUOUS
 62
     3
 10
61.8382568359375
 20
50.4806251525879
 30
0.0
 11
61.8382568359375
 21
56.9806251525879
 31
0.0
  0
LINE
  5
   300
  8
0
  6
CONTINUOUS
 62
     3
 10
168.838256835938
 20
29.4806251525879
 30
0.0
 11
168.838256835938
 21
48.4806251525879
 31
0.0
  0
LINE
  5
   301
  8
0
  6
CONTINUOUS
 62
     3
 10
168.838256835938
 20
49.4806251525879
 30
0.0
 11
168.838256835938
 21
190.480621337891
 31
0.0
  0
LINE
  5
   302
  8
0
  6
CONTINUOUS
 62
     3
 10
167.838256835938
 20
50.4806251525879
 30
0.0
 11
167.838256835938
 21
56.9806251525879
 31
0.0
  0
LINE
  5
   303
  8
0
  6
CONTINUOUS
 62
     3
 10
167.838256835938
 20
162.980621337891
 30
0.0
 11
167.838256835938
 21
169.480621337891
 31
0.0
  0
LINE
  5
   304
  8
0
  6
CONTINUOUS
 62
     3
 10
167.838256835938
 20
29.4806251525879
 30
0.0
 11
167.838256835938
 21
49.4806251525879
 31
0.0
  0
LINE
  5
   305
  8
0
  6
CONTINUOUS
 62
     3
 10
60.8382568359375
 20
170.480621337891
 30
0.0
 11
168.838256835938
 21
170.480621337891
 31
0.0
  0
LINE
  5
   306
  8
0
  6
CONTINUOUS
 62
     3
 10
61.8382568359375
 20
169.480621337891
 30
0.0
 11
167.838256835938
 21
169.480621337891
 31
0.0
  0
ARC
  5
   307
  8
0
  6
CONTINUOUS
 62
     3
 10
57.5882568359375
 20
30.7306251525879
 30
0.0
 40
1.25
 50
180.0
 51
270.0
  0
ARC
  5
   308
  8
0
  6
CONTINUOUS
 62
     3
 10
172.088256835938
 20
30.7306251525879
 30
0.0
 40
1.25
 50
270.0
 51
360.0
  0
ARC
  5
   309
  8
0
  6
CONTINUOUS
 62
     3
 10
172.088256835938
 20
189.230621337891
 30
0.0
 40
1.25
 50
0.0
 51
90.0
  0
ARC
  5
   30A
  8
0
  6
CONTINUOUS
 62
     3
 10
57.5882568359375
 20
189.230621337891
 30
0.0
 40
1.25
 50
90.0
 51
180.0
  0
LINE
  5
   30B
  8
0
  6
DOT
 62
     3
 10
60.3382577409677
 20
179.7306252571
 30
0.0
 11
60.8382568359375
 21
179.7306252571
 31
0.0
  0
LINE
  5
   30C
  8
0
  6
DOT
 62
     3
 10
60.3382577409676
 20
181.2306252571
 30
0.0
 11
60.8382568359375
 21
181.2306252571
 31
0.0
  0
LINE
  5
   30D
  8
0
  6
CONTINUOUS
 62
     3
 10
168.338257745313
 20
179.730625257273
 30
0.0
 11
168.838256835938
 21
179.730625257273
 31
0.0
  0
LINE
  5
   30E
  8
0
  6
CONTINUOUS
 62
     3
 10
168.338257745314
 20
181.230625257273
 30
0.0
 11
168.838256835938
 21
181.230625257273
 31
0.0
  0
ARC
  5
   30F
  8
0
  6
DOT
 62
     3
 10
60.3382577401871
 20
180.480625257147
 30
0.0
 40
0.749999999345164
 50
90.0
 51
270.0
  0
ARC
  5
   310
  8
0
  6
CONTINUOUS
 62
     3
 10
61.338257740822
 20
180.480625256974
 30
0.0
 40
0.750000000009701
 50
270.0
 51
450.0
  0
LINE
  5
   311
  8
0
  6
CONTINUOUS
 62
     3
 10
60.8382568359375
 20
181.2306252571
 30
0.0
 11
61.3382577409688
 21
181.2306252571
 31
0.0
  0
LINE
  5
   312
  8
0
  6
CONTINUOUS
 62
     3
 10
60.8382568359375
 20
179.7306252571
 30
0.0
 11
61.3382577409689
 21
179.7306252571
 31
0.0
  0
ARC
  5
   313
  8
0
  6
CONTINUOUS
 62
     3
 10
168.338257745503
 20
180.480625256952
 30
0.0
 40
0.750000000048506
 50
90.0000000038822
 51
269.999999996024
  0
ARC
  5
   314
  8
0
  6
DOT
 62
     3
 10
169.338257745421
 20
180.480625256965
 30
0.0
 40
0.750000000029104
 50
270.000000002449
 51
449.999999997486
  0
LINE
  5
   315
  8
0
  6
DOT
 62
     3
 10
168.838256835938
 20
181.230625257273
 30
0.0
 11
169.338257745315
 21
181.230625257273
 31
0.0
  0
LINE
  5
   316
  8
0
  6
DOT
 62
     3
 10
168.838256835938
 20
179.730625257273
 30
0.0
 11
169.338257745315
 21
179.730625257273
 31
0.0
  0
POINT
  5
   317
  8
0
  6
CONTINUOUS
 62
     3
 10
114.838256835938
 20
109.980621337891
 30
0.0
  0
ENDBLK
  5
   318
  8
0
  6
CONTINUOUS
 62
     7
  0
BLOCK
  5
   319
  8
0
  6
CONTINUOUS
 62
     5
  2
*UDIM499
 70
    65
 10
0.0
 20
0.0
 30
0.0
  3
*UDIM499
  0
TEXT
  5
   31A
  8
0
  6
CONTINUOUS
 62
     5
 10
-700.12271130289
 20
21.7873343543484
 30
0.0
 40
3.00000002980232
  1
125,25
 50
89.9999999480344
 41
0.933333333333333
 72
     1
 11
-701.622711310455
 21
29.8873344361733
 31
0.0
 73
     2
  0
LINE
  5
   31B
  8
0
  6
CONTINUOUS
 62
     5
 10
-686.671541965102
 20
61.4748191833398
 30
0.0
 11
-701.122711295554
 21
61.4748191833398
 31
0.0
  0
LINE
  5
   31C
  8
0
  6
CONTINUOUS
 62
     5
 10
-699.122711295554
 20
-1.15015029907228
 30
0.0
 11
-699.122711295554
 21
61.4748191833398
 31
0.0
  0
LINE
  5
   31D
  8
0
  6
CONTINUOUS
 62
     5
 10
-699.643655725505
 20
1.80427297813468
 30
0.0
 11
-699.122711295554
 21
-1.15015029907228
 31
0.0
  0
LINE
  5
   31E
  8
0
  6
CONTINUOUS
 62
     5
 10
-699.122711295554
 20
-1.15015029907228
 30
0.0
 11
-698.601766865602
 21
1.80427297813468
 31
0.0
  0
LINE
  5
   31F
  8
0
  6
CONTINUOUS
 62
     5
 10
-698.601766865602
 20
58.5203959061328
 30
0.0
 11
-699.122711295554
 21
61.4748191833398
 31
0.0
  0
LINE
  5
   320
  8
0
  6
CONTINUOUS
 62
     5
 10
-699.122711295554
 20
61.4748191833398
 30
0.0
 11
-699.643655725505
 21
58.5203959061328
 31
0.0
  0
ENDBLK
  5
   321
  8
0
  6
CONTINUOUS
 62
     5
  0
BLOCK
  5
   322
  8
0
  6
CONTINUOUS
 62
     7
  2
*UDIM500
 70
    65
 10
0.0
 20
0.0
 30
0.0
  3
*UDIM500
  0
TEXT
  5
   323
  8
0
  6
CONTINUOUS
 62
     7
 10
-707.344182279806
 20
-6.20016560392805
 30
0.0
 40
3.00000002980232
  1
254
 50
89.9999999480344
 41
0.933333333333333
 72
     1
 11
-708.844182291175
 21
-2.30016556382646
 31
0.0
 73
     2
  0
LINE
  5
   324
  8
0
  6
CONTINUOUS
 62
     7
 10
-686.671527905586
 20
-65.5251502990718
 30
0.0
 11
-708.344182276274
 21
-65.5251502990718
 31
0.0
  0
LINE
  5
   325
  8
0
  6
CONTINUOUS
 62
     7
 10
-686.671541965102
 20
61.4748191833398
 30
0.0
 11
-708.344182276274
 21
61.4748191833398
 31
0.0
  0
LINE
  5
   326
  8
0
  6
CONTINUOUS
 62
     7
 10
-706.344182276274
 20
-65.5251502990718
 30
0.0
 11
-706.344182276274
 21
61.4748191833398
 31
0.0
  0
LINE
  5
   327
  8
0
  6
CONTINUOUS
 62
     7
 10
-706.865126706225
 20
-62.5707270218648
 30
0.0
 11
-706.344182276274
 21
-65.5251502990718
 31
0.0
  0
LINE
  5
   328
  8
0
  6
CONTINUOUS
 62
     7
 10
-706.344182276274
 20
-65.5251502990718
 30
0.0
 11
-705.823237846322
 21
-62.5707270218648
 31
0.0
  0
LINE
  5
   329
  8
0
  6
CONTINUOUS
 62
     7
 10
-705.823237846322
 20
58.5203959061328
 30
0.0
 11
-706.344182276274
 21
61.4748191833398
 31
0.0
  0
LINE
  5
   32A
  8
0
  6
CONTINUOUS
 62
     7
 10
-706.344182276274
 20
61.4748191833398
 30
0.0
 11
-706.865126706225
 21
58.5203959061328
 31
0.0
  0
ENDBLK
  5
   32B
  8
0
  6
CONTINUOUS
 62
     7
  0
BLOCK
  5
   32C
  8
0
  6
CONTINUOUS
 62
     7
  2
*UDIM501
 70
    65
 10
0.0
 20
0.0
 30
0.0
  3
*UDIM501
  0
TEXT
  5
   32D
  8
0
  6
CONTINUOUS
 62
     7
 10
-615.869560245232
 20
-5.32515034513435
 30
0.0
 40
3.00000002980232
  1
161
 50
89.9999999480344
 41
0.933333333333333
 72
     1
 11
-617.3695602566
 21
-1.42515030503276
 31
0.0
 73
     2
  0
LINE
  5
   32E
  8
0
  6
CONTINUOUS
 62
     7
 10
-631.546528044816
 20
-41.4001483917237
 30
0.0
 11
-612.869560241699
 21
-41.4001483917237
 31
0.0
  0
LINE
  5
   32F
  8
0
  6
CONTINUOUS
 62
     7
 10
-631.546528044816
 20
39.0998497009277
 30
0.0
 11
-612.869560241699
 21
39.0998497009277
 31
0.0
  0
LINE
  5
   330
  8
0
  6
CONTINUOUS
 62
     7
 10
-614.869560241699
 20
-41.4001483917237
 30
0.0
 11
-614.869560241699
 21
39.0998497009277
 31
0.0
  0
LINE
  5
   331
  8
0
  6
CONTINUOUS
 62
     7
 10
-615.390504671651
 20
-38.4457251145167
 30
0.0
 11
-614.869560241699
 21
-41.4001483917237
 31
0.0
  0
LINE
  5
   332
  8
0
  6
CONTINUOUS
 62
     7
 10
-614.869560241699
 20
-41.4001483917237
 30
0.0
 11
-614.348615811748
 21
-38.4457251145167
 31
0.0
  0
LINE
  5
   333
  8
0
  6
CONTINUOUS
 62
     7
 10
-614.348615811748
 20
36.1454264237207
 30
0.0
 11
-614.869560241699
 21
39.0998497009277
 31
0.0
  0
LINE
  5
   334
  8
0
  6
CONTINUOUS
 62
     7
 10
-614.869560241699
 20
39.0998497009277
 30
0.0
 11
-615.390504671651
 21
36.1454264237207
 31
0.0
  0
ENDBLK
  5
   335
  8
0
  6
CONTINUOUS
 62
     7
  0
BLOCK
  5
   336
  8
0
  6
CONTINUOUS
 62
     7
  2
*UDIM502
 70
    65
 10
0.0
 20
0.0
 30
0.0
  3
*UDIM502
  0
TEXT
  5
   337
  8
0
  6
CONTINUOUS
 62
     7
 10
-623.204900714302
 20
22.4123343543533
 30
0.0
 40
3.00000002980232
  1
127,75
 50
89.9999999480344
 41
0.933333333333333
 72
     1
 11
-624.704900721866
 21
30.5123344361782
 31
0.0
 73
     2
  0
LINE
  5
   338
  8
0
  6
CONTINUOUS
 62
     7
 10
-628.936447998826
 20
-1.15015029907228
 30
0.0
 11
-620.204900706965
 21
-1.15015029907228
 31
0.0
  0
LINE
  5
   339
  8
0
  6
CONTINUOUS
 62
     7
 10
-634.546589375785
 20
62.7248191833496
 30
0.0
 11
-620.204900706965
 21
62.7248191833496
 31
0.0
  0
LINE
  5
   33A
  8
0
  6
CONTINUOUS
 62
     7
 10
-622.204900706965
 20
-1.15015029907228
 30
0.0
 11
-622.204900706965
 21
62.7248191833496
 31
0.0
  0
LINE
  5
   33B
  8
0
  6
CONTINUOUS
 62
     7
 10
-622.725845136917
 20
1.80427297813468
 30
0.0
 11
-622.204900706965
 21
-1.15015029907228
 31
0.0
  0
LINE
  5
   33C
  8
0
  6
CONTINUOUS
 62
     7
 10
-622.204900706965
 20
-1.15015029907228
 30
0.0
 11
-621.683956277014
 21
1.80427297813468
 31
0.0
  0
LINE
  5
   33D
  8
0
  6
CONTINUOUS
 62
     7
 10
-621.683956277014
 20
59.7703959061426
 30
0.0
 11
-622.204900706965
 21
62.7248191833496
 31
0.0
  0
LINE
  5
   33E
  8
0
  6
CONTINUOUS
 62
     7
 10
-622.204900706965
 20
62.7248191833496
 30
0.0
 11
-622.725845136917
 21
59.7703959061426
 31
0.0
  0
ENDBLK
  5
   33F
  8
0
  6
CONTINUOUS
 62
     7
  0
BLOCK
  5
   340
  8
0
  6
CONTINUOUS
 62
     7
  2
*UDIM503
 70
    65
 10
0.0
 20
0.0
 30
0.0
  3
*UDIM503
  0
TEXT
  5
   341
  8
0
  6
CONTINUOUS
 62
     7
 10
-615.869560245232
 20
92.5748480464961
 30
0.0
 40
3.00000002980232
  1
155
 50
89.9999999480344
 41
0.933333333333333
 72
     1
 11
-617.3695602566
 21
96.4748480865977
 31
0.0
 73
     2
  0
LINE
  5
   342
  8
0
  6
CONTINUOUS
 62
     7
 10
-634.546589375785
 20
62.7248191833496
 30
0.0
 11
-612.869560241699
 21
62.7248191833496
 31
0.0
  0
LINE
  5
   343
  8
0
  6
CONTINUOUS
 62
     7
 10
-645.80077579806
 20
130.224876989846
 30
0.0
 11
-612.869560241699
 21
130.224876989846
 31
0.0
  0
LINE
  5
   344
  8
0
  6
CONTINUOUS
 62
     7
 10
-614.869560241699
 20
62.7248191833496
 30
0.0
 11
-614.869560241699
 21
130.224876989846
 31
0.0
  0
LINE
  5
   345
  8
0
  6
CONTINUOUS
 62
     7
 10
-615.390504671651
 20
65.6792424605566
 30
0.0
 11
-614.869560241699
 21
62.7248191833496
 31
0.0
  0
LINE
  5
   346
  8
0
  6
CONTINUOUS
 62
     7
 10
-614.869560241699
 20
62.7248191833496
 30
0.0
 11
-614.348615811748
 21
65.6792424605566
 31
0.0
  0
LINE
  5
   347
  8
0
  6
CONTINUOUS
 62
     7
 10
-614.348615811748
 20
127.270453712639
 30
0.0
 11
-614.869560241699
 21
130.224876989846
 31
0.0
  0
LINE
  5
   348
  8
0
  6
CONTINUOUS
 62
     7
 10
-614.869560241699
 20
130.224876989846
 30
0.0
 11
-615.390504671651
 21
127.270453712639
 31
0.0
  0
ENDBLK
  5
   349
  8
0
  6
CONTINUOUS
 62
     7
  0
BLOCK
  5
   34A
  8
0
  6
CONTINUOUS
 62
     7
  2
*UDIM504
 70
    65
 10
0.0
 20
0.0
 30
0.0
  3
*UDIM504
  0
TEXT
  5
   34B
  8
0
  6
CONTINUOUS
 62
     7
 10
-688.522932077549
 20
96.4110177266483
 30
0.0
 40
3.00000002980232
  1
30
 50
359.999999948034
 41
0.933333333333333
 72
     1
 11
-686.022932051361
 21
97.9110177392946
 31
0.0
 73
     2
  0
LINE
  5
   34C
  8
0
  6
CONTINUOUS
 62
     7
 10
-678.671539260686
 20
89.7248600223834
 30
0.0
 11
-678.671539260686
 21
97.4110177243934
 31
0.0
  0
LINE
  5
   34D
  8
0
  6
CONTINUOUS
 62
     7
 10
-693.671539260686
 20
89.7248447635943
 30
0.0
 11
-693.671539260686
 21
97.4110177243934
 31
0.0
  0
LINE
  5
   34E
  8
0
  6
CONTINUOUS
 62
     7
 10
-678.671539260686
 20
95.4110177243935
 30
0.0
 11
-693.671539260686
 21
95.4110177243935
 31
0.0
  0
LINE
  5
   34F
  8
0
  6
CONTINUOUS
 62
     7
 10
-681.569316733896
 20
94.6345605679749
 30
0.0
 11
-678.671539260686
 21
95.4110177243935
 31
0.0
  0
LINE
  5
   350
  8
0
  6
CONTINUOUS
 62
     7
 10
-678.671539260686
 20
95.4110177243935
 30
0.0
 11
-681.569316733896
 21
96.187474880812
 31
0.0
  0
LINE
  5
   351
  8
0
  6
CONTINUOUS
 62
     7
 10
-690.773761787475
 20
96.187474880812
 30
0.0
 11
-693.671539260686
 21
95.4110177243935
 31
0.0
  0
LINE
  5
   352
  8
0
  6
CONTINUOUS
 62
     7
 10
-693.671539260686
 20
95.4110177243935
 30
0.0
 11
-690.773761787475
 21
94.6345605679749
 31
0.0
  0
ENDBLK
  5
   353
  8
0
  6
CONTINUOUS
 62
     7
  0
BLOCK
  5
   354
  8
0
  6
CONTINUOUS
 62
     7
  2
*UDIM505
 70
    65
 10
0.0
 20
0.0
 30
0.0
  3
*UDIM505
  0
TEXT
  5
   355
  8
0
  6
CONTINUOUS
 62
     7
 10
-673.052218122463
 20
102.658806069058
 30
0.0
 40
3.00000002980232
  1
50
 50
359.999999948034
 41
0.933333333333333
 72
     1
 11
-670.552218096274
 21
104.158806081705
 31
0.0
 73
     2
  0
LINE
  5
   356
  8
0
  6
CONTINUOUS
 62
     7
 10
-661.171544865853
 20
86.099852224027
 30
0.0
 11
-661.171544865853
 21
103.658806066804
 31
0.0
  0
LINE
  5
   357
  8
0
  6
CONTINUOUS
 62
     7
 10
-686.17153926447
 20
86.0998523395649
 30
0.0
 11
-686.17153926447
 21
103.658806066804
 31
0.0
  0
LINE
  5
   358
  8
0
  6
CONTINUOUS
 62
     7
 10
-661.171544865853
 20
101.658806066804
 30
0.0
 11
-686.17153926447
 21
101.658806066804
 31
0.0
  0
LINE
  5
   359
  8
0
  6
CONTINUOUS
 62
     7
 10
-664.069322339064
 20
100.882348910385
 30
0.0
 11
-661.171544865853
 21
101.658806066804
 31
0.0
  0
LINE
  5
   35A
  8
0
  6
CONTINUOUS
 62
     7
 10
-661.171544865853
 20
101.658806066804
 30
0.0
 11
-664.069322339064
 21
102.435263223222
 31
0.0
  0
LINE
  5
   35B
  8
0
  6
CONTINUOUS
 62
     7
 10
-683.27376179126
 20
102.435263223222
 30
0.0
 11
-686.17153926447
 21
101.658806066804
 31
0.0
  0
LINE
  5
   35C
  8
0
  6
CONTINUOUS
 62
     7
 10
-686.17153926447
 20
101.658806066804
 30
0.0
 11
-683.27376179126
 21
100.882348910385
 31
0.0
  0
ENDBLK
  5
   35D
  8
0
  6
CONTINUOUS
 62
     7
  0
BLOCK
  5
   35E
  8
0
  6
CONTINUOUS
 62
     7
  2
*UDIM506
 70
    65
 10
0.0
 20
0.0
 30
0.0
  3
*UDIM506
  0
TEXT
  5
   35F
  8
0
  6
CONTINUOUS
 62
     7
 10
-654.281806369349
 20
102.658806069058
 30
0.0
 40
3.00000002980232
  1
50
 50
359.999999948034
 41
0.933333333333333
 72
     1
 11
-651.781806343161
 21
104.158806081705
 31
0.0
 73
     2
  0
LINE
  5
   360
  8
0
  6
CONTINUOUS
 62
     7
 10
-636.171537787358
 20
86.0998522231765
 30
0.0
 11
-636.171537787358
 21
103.658806066804
 31
0.0
  0
LINE
  5
   361
  8
0
  6
CONTINUOUS
 62
     7
 10
-636.171537787358
 20
101.658806066804
 30
0.0
 11
-661.171544865853
 21
101.658806066804
 31
0.0
  0
LINE
  5
   362
  8
0
  6
CONTINUOUS
 62
     7
 10
-639.069315260568
 20
100.882348910385
 30
0.0
 11
-636.171537787358
 21
101.658806066804
 31
0.0
  0
LINE
  5
   363
  8
0
  6
CONTINUOUS
 62
     7
 10
-636.171537787358
 20
101.658806066804
 30
0.0
 11
-639.069315260568
 21
102.435263223222
 31
0.0
  0
LINE
  5
   364
  8
0
  6
CONTINUOUS
 62
     7
 10
-658.273767392643
 20
102.435263223222
 30
0.0
 11
-661.171544865853
 21
101.658806066804
 31
0.0
  0
LINE
  5
   365
  8
0
  6
CONTINUOUS
 62
     7
 10
-661.171544865853
 20
101.658806066804
 30
0.0
 11
-658.273767392643
 21
100.882348910385
 31
0.0
  0
ENDBLK
  5
   366
  8
0
  6
CONTINUOUS
 62
     7
  0
BLOCK
  5
   367
  8
0
  6
CONTINUOUS
 62
     7
  2
*UDIM507
 70
    65
 10
0.0
 20
0.0
 30
0.0
  3
*UDIM507
  0
TEXT
  5
   368
  8
0
  6
CONTINUOUS
 62
     7
 10
-623.20490070923
 20
73.2248319472781
 30
0.0
 40
3.00000002980232
  1
52
 50
89.9999999480344
 41
0.933333333333333
 72
     1
 11
-624.704900721866
 21
75.724831973472
 31
0.0
 73
     2
  0
LINE
  5
   369
  8
0
  6
CONTINUOUS
 62
     7
 10
-634.546589375785
 20
62.7248191833496
 30
0.0
 11
-620.204900706965
 21
62.7248191833496
 31
0.0
  0
LINE
  5
   36A
  8
0
  6
CONTINUOUS
 62
     7
 10
-627.671537768901
 20
88.7248447635944
 30
0.0
 11
-620.204900706965
 21
88.7248447635944
 31
0.0
  0
LINE
  5
   36B
  8
0
  6
CONTINUOUS
 62
     7
 10
-622.204900706965
 20
62.7248191833496
 30
0.0
 11
-622.204900706965
 21
88.7248447635944
 31
0.0
  0
LINE
  5
   36C
  8
0
  6
CONTINUOUS
 62
     7
 10
-622.981357863384
 20
65.6225966565601
 30
0.0
 11
-622.204900706965
 21
62.7248191833496
 31
0.0
  0
LINE
  5
   36D
  8
0
  6
CONTINUOUS
 62
     7
 10
-622.204900706965
 20
62.7248191833496
 30
0.0
 11
-621.428443550547
 21
65.6225966565601
 31
0.0
  0
LINE
  5
   36E
  8
0
  6
CONTINUOUS
 62
     7
 10
-621.428443550547
 20
85.8270672903838
 30
0.0
 11
-622.204900706965
 21
88.7248447635944
 31
0.0
  0
LINE
  5
   36F
  8
0
  6
CONTINUOUS
 62
     7
 10
-622.204900706965
 20
88.7248447635944
 30
0.0
 11
-622.981357863384
 21
85.8270672903838
 31
0.0
  0
ENDBLK
  5
   370
  8
0
  6
CONTINUOUS
 62
     7
  0
BLOCK
  5
   371
  8
0
  6
CONTINUOUS
 62
     7
  2
*UDIM508
 70
    65
 10
0.0
 20
0.0
 30
0.0
  3
*UDIM508
  0
TEXT
  5
   372
  8
0
  6
CONTINUOUS
 62
     7
 10
-665.346531726755
 20
-89.2375501608473
 30
0.0
 40
3.00000002980232
  1
117
 50
359.999999948034
 41
0.933333333333333
 72
     1
 11
-661.446531686659
 21
-87.7375501494637
 31
0.0
 73
     2
  0
LINE
  5
   373
  8
0
  6
CONTINUOUS
 62
     7
 10
-631.921528044816
 20
-41.7751483917236
 30
0.0
 11
-631.921528044816
 21
-92.2375501643648
 31
0.0
  0
LINE
  5
   374
  8
0
  6
CONTINUOUS
 62
     7
 10
-690.421528044816
 20
-41.7751483917237
 30
0.0
 11
-690.421528044816
 21
-92.2375501643648
 31
0.0
  0
LINE
  5
   375
  8
0
  6
CONTINUOUS
 62
     7
 10
-631.921528044816
 20
-90.2375501643649
 30
0.0
 11
-690.421528044816
 21
-90.2375501643649
 31
0.0
  0
LINE
  5
   376
  8
0
  6
CONTINUOUS
 62
     7
 10
-634.875951322022
 20
-90.7584945943165
 30
0.0
 11
-631.921528044816
 21
-90.2375501643649
 31
0.0
  0
LINE
  5
   377
  8
0
  6
CONTINUOUS
 62
     7
 10
-631.921528044816
 20
-90.2375501643649
 30
0.0
 11
-634.875951322022
 21
-89.7166057344132
 31
0.0
  0
LINE
  5
   378
  8
0
  6
CONTINUOUS
 62
     7
 10
-687.467104767609
 20
-89.7166057344132
 30
0.0
 11
-690.421528044816
 21
-90.2375501643649
 31
0.0
  0
LINE
  5
   379
  8
0
  6
CONTINUOUS
 62
     7
 10
-690.421528044816
 20
-90.2375501643649
 30
0.0
 11
-687.467104767609
 21
-90.7584945943165
 31
0.0
  0
ENDBLK
  5
   37A
  8
0
  6
CONTINUOUS
 62
     7
  0
BLOCK
  5
   37B
  8
0
  6
CONTINUOUS
 62
     7
  2
*UDIM509
 70
    65
 10
0.0
 20
0.0
 30
0.0
  3
*UDIM509
  0
TEXT
  5
   37C
  8
0
  6
CONTINUOUS
 62
     7
 10
-665.071538564118
 20
109.501621873913
 30
0.0
 40
3.00000002980232
  1
130
 50
359.999999948034
 41
0.933333333333333
 72
     1
 11
-661.171538524022
 21
111.001621885297
 31
0.0
 73
     2
  0
LINE
  5
   37D
  8
0
  6
CONTINUOUS
 62
     7
 10
-628.671537787358
 20
89.7248447635943
 30
0.0
 11
-628.671537787358
 21
110.501621870396
 31
0.0
  0
LINE
  5
   37E
  8
0
  6
CONTINUOUS
 62
     7
 10
-693.671539260686
 20
89.7248447635943
 30
0.0
 11
-693.671539260686
 21
110.501621870396
 31
0.0
  0
LINE
  5
   37F
  8
0
  6
CONTINUOUS
 62
     7
 10
-628.671537787358
 20
108.501621870396
 30
0.0
 11
-693.671539260686
 21
108.501621870396
 31
0.0
  0
LINE
  5
   380
  8
0
  6
CONTINUOUS
 62
     7
 10
-631.569315260568
 20
107.725164713977
 30
0.0
 11
-628.671537787358
 21
108.501621870396
 31
0.0
  0
LINE
  5
   381
  8
0
  6
CONTINUOUS
 62
     7
 10
-628.671537787358
 20
108.501621870396
 30
0.0
 11
-631.569315260568
 21
109.278079026814
 31
0.0
  0
LINE
  5
   382
  8
0
  6
CONTINUOUS
 62
     7
 10
-690.773761787475
 20
109.278079026814
 30
0.0
 11
-693.671539260686
 21
108.501621870396
 31
0.0
  0
LINE
  5
   383
  8
0
  6
CONTINUOUS
 62
     7
 10
-693.671539260686
 20
108.501621870396
 30
0.0
 11
-690.773761787475
 21
107.725164713977
 31
0.0
  0
ENDBLK
  5
   384
  8
0
  6
CONTINUOUS
 62
     7
  0
BLOCK
  5
   385
  8
0
  6
CONTINUOUS
 62
     7
  2
*UDIM510
 70
    65
 10
0.0
 20
0.0
 30
0.0
  3
*UDIM510
  0
TEXT
  5
   386
  8
0
  6
CONTINUOUS
 62
     7
 10
-701.937217201405
 20
78.6219354222473
 30
0.0
 40
3.00000002980232
  1
8,5
 50
377.26568157718
 41
0.933333333333333
 72
     1
 11
-698.658160479022
 21
81.2118750660022
 31
0.0
 73
     2
  0
TEXT
  5
   387
  8
0
  6
CONTINUOUS
 62
     7
 10
-705.756972214931
 20
77.4347236150871
 30
0.0
 40
3.00000002980232
  1
Ø
 50
377.26568157718
 41
1.2
 72
     1
 11
-704.769768507383
 21
79.3123361760833
 31
0.0
 73
     2
  0
LINE
  5
   388
  8
0
  6
CONTINUOUS
 62
     7
 10
-705.460169264176
 20
76.4797848677696
 30
0.0
 11
-679.367600747192
 21
84.5895733891997
 31
0.0
  0
LINE
  5
   389
  8
0
  6
CONTINUOUS
 62
     7
 10
-690.737529263459
 20
80.242608218709
 30
0.0
 11
-688.200784049612
 21
81.8441461420883
 31
0.0
  0
LINE
  5
   38A
  8
0
  6
CONTINUOUS
 62
     7
 10
-688.200784049612
 20
81.8441461420883
 30
0.0
 11
-691.19843881115
 21
81.7255462659186
 31
0.0
  0
LINE
  5
   38B
  8
0
  6
CONTINUOUS
 62
     7
 10
-681.605549265481
 20
84.7070965672687
 30
0.0
 11
-684.142294479329
 21
83.1055586438894
 31
0.0
  0
LINE
  5
   38C
  8
0
  6
CONTINUOUS
 62
     7
 10
-684.142294479329
 20
83.1055586438894
 30
0.0
 11
-681.14463971779
 21
83.2241585200591
 31
0.0
  0
ENDBLK
  5
   38D
  8
0
  6
CONTINUOUS
 62
     7
  0
BLOCK
  5
   38E
  8
0
  6
CONTINUOUS
 62
     7
  2
*UDIM511
 70
    65
 10
0.0
 20
0.0
 30
0.0
  3
*UDIM511
  0
TEXT
  5
   38F
  8
0
  6
CONTINUOUS
 62
     7
 10
-665.3465469614
 20
-82.0291311234018
 30
0.0
 40
3.00000002980232
  1
105
 50
359.999999948034
 41
0.933333333333333
 72
     1
 11
-661.446546921304
 21
-80.5291311120182
 31
0.0
 73
     2
  0
LINE
  5
   390
  8
0
  6
CONTINUOUS
 62
     7
 10
-634.921558899271
 20
38.0998497009278
 30
0.0
 11
-634.921600378688
 21
-85.0291311269193
 31
0.0
  0
LINE
  5
   391
  8
0
  6
CONTINUOUS
 62
     7
 10
-687.421528355668
 20
38.0998497009278
 30
0.0
 11
-687.421566630661
 21
-85.0291311269193
 31
0.0
  0
LINE
  5
   392
  8
0
  6
CONTINUOUS
 62
     7
 10
-634.921599704932
 20
-83.0291311269194
 30
0.0
 11
-687.421566008956
 21
-83.0291311269194
 31
0.0
  0
LINE
  5
   393
  8
0
  6
CONTINUOUS
 62
     7
 10
-637.876022982139
 20
-83.5500755568711
 30
0.0
 11
-634.921599704932
 21
-83.0291311269194
 31
0.0
  0
LINE
  5
   394
  8
0
  6
CONTINUOUS
 62
     7
 10
-634.921599704932
 20
-83.0291311269194
 30
0.0
 11
-637.876022982139
 21
-82.5081866969677
 31
0.0
  0
LINE
  5
   395
  8
0
  6
CONTINUOUS
 62
     7
 10
-684.467142731749
 20
-82.5081866969677
 30
0.0
 11
-687.421566008956
 21
-83.0291311269194
 31
0.0
  0
LINE
  5
   396
  8
0
  6
CONTINUOUS
 62
     7
 10
-687.421566008956
 20
-83.0291311269194
 30
0.0
 11
-684.467142731749
 21
-83.5500755568711
 31
0.0
  0
ENDBLK
  5
   397
  8
0
  6
CONTINUOUS
 62
     7
  0
BLOCK
  5
   398
  8
0
  6
CONTINUOUS
 62
     7
  2
*UDIM512
 70
    65
 10
0.0
 20
0.0
 30
0.0
  3
*UDIM512
  0
TEXT
  5
   399
  8
0
  6
CONTINUOUS
 62
     7
 10
-655.196531703269
 20
-74.4452305047264
 30
0.0
 40
3.00000002980232
  1
35
 50
359.999999948034
 41
0.933333333333333
 72
     1
 11
-652.696531677081
 21
-72.9452304920801
 31
0.0
 73
     2
  0
LINE
  5
   39A
  8
0
  6
CONTINUOUS
 62
     7
 10
-643.671528084505
 20
-61.2751475066358
 30
0.0
 11
-643.671534943874
 21
-77.4452305069811
 31
0.0
  0
LINE
  5
   39B
  8
0
  6
CONTINUOUS
 62
     7
 10
-661.171530958989
 20
-72.9038061208258
 30
0.0
 11
-661.171535568122
 21
-77.4452305069803
 31
0.0
  0
LINE
  5
   39C
  8
0
  6
CONTINUOUS
 62
     7
 10
-643.671534095471
 20
-75.4452305069813
 30
0.0
 11
-661.171533538304
 21
-75.4452305069813
 31
0.0
  0
LINE
  5
   39D
  8
0
  6
CONTINUOUS
 62
     7
 10
-646.625957372678
 20
-75.966174936933
 30
0.0
 11
-643.671534095471
 21
-75.4452305069813
 31
0.0
  0
LINE
  5
   39E
  8
0
  6
CONTINUOUS
 62
     7
 10
-643.671534095471
 20
-75.4452305069813
 30
0.0
 11
-646.625957372678
 21
-74.9242860770296
 31
0.0
  0
LINE
  5
   39F
  8
0
  6
CONTINUOUS
 62
     7
 10
-658.217110261097
 20
-74.9242860770296
 30
0.0
 11
-661.171533538304
 21
-75.4452305069813
 31
0.0
  0
LINE
  5
   3A0
  8
0
  6
CONTINUOUS
 62
     7
 10
-661.171533538304
 20
-75.4452305069813
 30
0.0
 11
-658.217110261097
 21
-75.966174936933
 31
0.0
  0
ENDBLK
  5
   3A1
  8
0
  6
CONTINUOUS
 62
     7
  0
BLOCK
  5
   3A2
  8
0
  6
CONTINUOUS
 62
     7
  2
*UDIM513
 70
    65
 10
0.0
 20
0.0
 30
0.0
  3
*UDIM513
  0
TEXT
  5
   3A3
  8
0
  6
CONTINUOUS
 62
     7
 10
-672.696527876986
 20
-74.4452305047264
 30
0.0
 40
3.00000002980232
  1
35
 50
359.999999948034
 41
0.933333333333333
 72
     1
 11
-670.196527850798
 21
-72.9452304920801
 31
0.0
 73
     2
  0
LINE
  5
   3A4
  8
0
  6
CONTINUOUS
 62
     7
 10
-678.671528646487
 20
-61.275150273841
 30
0.0
 11
-678.671539463296
 21
-77.4452305069808
 31
0.0
  0
LINE
  5
   3A5
  8
0
  6
CONTINUOUS
 62
     7
 10
-661.171533538304
 20
-75.4452305069813
 30
0.0
 11
-678.671538125417
 21
-75.4452305069813
 31
0.0
  0
LINE
  5
   3A6
  8
0
  6
CONTINUOUS
 62
     7
 10
-664.125956815511
 20
-75.966174936933
 30
0.0
 11
-661.171533538304
 21
-75.4452305069813
 31
0.0
  0
LINE
  5
   3A7
  8
0
  6
CONTINUOUS
 62
     7
 10
-661.171533538304
 20
-75.4452305069813
 30
0.0
 11
-664.125956815511
 21
-74.9242860770296
 31
0.0
  0
LINE
  5
   3A8
  8
0
  6
CONTINUOUS
 62
     7
 10
-675.71711484821
 20
-74.9242860770296
 30
0.0
 11
-678.671538125417
 21
-75.4452305069813
 31
0.0
  0
LINE
  5
   3A9
  8
0
  6
CONTINUOUS
 62
     7
 10
-678.671538125417
 20
-75.4452305069813
 30
0.0
 11
-675.71711484821
 21
-75.966174936933
 31
0.0
  0
ENDBLK
  5
   3AA
  8
0
  6
CONTINUOUS
 62
     7
  0
BLOCK
  5
   3AB
  8
0
  6
CONTINUOUS
 62
     7
  2
*UDIM514
 70
    65
 10
0.0
 20
0.0
 30
0.0
  3
*UDIM514
  0
TEXT
  5
   3AC
  8
0
  6
CONTINUOUS
 62
     7
 10
-606.847488406853
 20
-6.20019231173029
 30
0.0
 40
3.00000002980232
  1
259
 50
89.9999999480344
 41
0.933333333333333
 72
     1
 11
-608.347488418222
 21
-2.3001922716287
 31
0.0
 73
     2
  0
LINE
  5
   3AD
  8
0
  6
CONTINUOUS
 62
     7
 10
-636.92152994408
 20
-66.7752063968951
 30
0.0
 11
-603.84748840332
 21
-66.7752063968951
 31
0.0
  0
LINE
  5
   3AE
  8
0
  6
CONTINUOUS
 62
     7
 10
-634.546589375785
 20
62.7248191833496
 30
0.0
 11
-603.84748840332
 21
62.7248191833496
 31
0.0
  0
LINE
  5
   3AF
  8
0
  6
CONTINUOUS
 62
     7
 10
-605.84748840332
 20
-66.7752063968951
 30
0.0
 11
-605.84748840332
 21
62.7248191833496
 31
0.0
  0
LINE
  5
   3B0
  8
0
  6
CONTINUOUS
 62
     7
 10
-606.368432833272
 20
-63.8207831196881
 30
0.0
 11
-605.84748840332
 21
-66.7752063968951
 31
0.0
  0
LINE
  5
   3B1
  8
0
  6
CONTINUOUS
 62
     7
 10
-605.84748840332
 20
-66.7752063968951
 30
0.0
 11
-605.326543973369
 21
-63.8207831196881
 31
0.0
  0
LINE
  5
   3B2
  8
0
  6
CONTINUOUS
 62
     7
 10
-605.326543973369
 20
59.7703959061426
 30
0.0
 11
-605.84748840332
 21
62.7248191833496
 31
0.0
  0
LINE
  5
   3B3
  8
0
  6
CONTINUOUS
 62
     7
 10
-605.84748840332
 20
62.7248191833496
 30
0.0
 11
-606.368432833272
 21
59.7703959061426
 31
0.0
  0
ENDBLK
  5
   3B4
  8
0
  6
CONTINUOUS
 62
     7
  0
BLOCK
  5
   3B5
  8
0
  6
CONTINUOUS
 62
     7
  2
*UDIM515
 70
    65
 10
0.0
 20
0.0
 30
0.0
  3
*UDIM515
  0
TEXT
  5
   3B6
  8
0
  6
CONTINUOUS
 62
     7
 10
-386.3958004142
 20
35.0111983983982
 30
0.0
 40
3.00000002980232
  1
7
 50
404.893139787217
 41
0.933333333333334
 72
     1
 11
-386.675213763737
 21
36.8502003692629
 31
0.0
 73
     2
  0
TEXT
  5
   3B7
  8
0
  6
CONTINUOUS
 62
     7
 10
-388.627337114474
 20
32.7879701109945
 30
0.0
 40
3.00000002980232
  1
Ø
 50
404.893139787217
 41
0.933333333333334
 72
     1
 11
-388.906750464012
 21
34.6269720818592
 31
0.0
 73
     2
  0
LINE
  5
   3B8
  8
0
  6
CONTINUOUS
 62
     7
 10
-371.923402622104
 20
48.0181295122943
 30
0.0
 11
-387.921550353801
 21
32.0795457646937
 31
0.0
  0
LINE
  5
   3B9
  8
0
  6
CONTINUOUS
 62
     7
 10
-370.198092920117
 20
50.4723720496628
 30
0.0
 11
-371.923402622104
 21
48.0181295122943
 31
0.0
  0
LINE
  5
   3BA
  8
0
  6
CONTINUOUS
 62
     7
 10
-371.923402622104
 20
48.0181295122943
 30
0.0
 11
-369.462741561907
 21
49.7342726143773
 31
0.0
  0
LINE
  5
   3BB
  8
0
  6
CONTINUOUS
 62
     7
 10
-374.888454931445
 20
44.3287601524856
 30
0.0
 11
-373.163145229458
 21
46.7830026898541
 31
0.0
  0
LINE
  5
   3BC
  8
0
  6
CONTINUOUS
 62
     7
 10
-373.163145229458
 20
46.7830026898541
 30
0.0
 11
-375.623806289656
 21
45.0668595877711
 31
0.0
  0
ENDBLK
  5
   3BD
  8
0
  6
CONTINUOUS
 62
     7
  0
BLOCK
  5
   3BE
  8
0
  6
CONTINUOUS
 62
     7
  2
*UDIM516
 70
    65
 10
0.0
 20
0.0
 30
0.0
  3
*UDIM516
  0
TEXT
  5
   3BF
  8
0
  6
CONTINUOUS
 62
     7
 10
-365.318273960651
 20
95.6867446967311
 30
0.0
 40
3.00000002980232
  1
80
 50
359.999999844103
 41
0.933333333333333
 72
     1
 11
-362.818273931742
 21
97.1867447048426
 31
0.0
 73
     2
  0
LINE
  5
   3C0
  8
0
  6
CONTINUOUS
 62
     7
 10
-372.543273925781
 20
85.5255661010742
 30
0.0
 11
-372.543273925781
 21
96.6867446899414
 31
0.0
  0
LINE
  5
   3C1
  8
0
  6
CONTINUOUS
 62
     7
 10
-352.543273925781
 20
85.5255661010742
 30
0.0
 11
-352.543273925781
 21
96.6867446899414
 31
0.0
  0
LINE
  5
   3C2
  8
0
  6
CONTINUOUS
 62
     7
 10
-372.543273925781
 20
94.6867446899414
 30
0.0
 11
-352.543273925781
 21
94.6867446899414
 31
0.0
  0
LINE
  5
   3C3
  8
0
  6
CONTINUOUS
 62
     7
 10
-369.588850648574
 20
95.2076891198931
 30
0.0
 11
-372.543273925781
 21
94.6867446899414
 31
0.0
  0
LINE
  5
   3C4
  8
0
  6
CONTINUOUS
 62
     7
 10
-372.543273925781
 20
94.6867446899414
 30
0.0
 11
-369.588850648574
 21
94.1658002599897
 31
0.0
  0
LINE
  5
   3C5
  8
0
  6
CONTINUOUS
 62
     7
 10
-355.497697202988
 20
94.1658002599897
 30
0.0
 11
-352.543273925781
 21
94.6867446899414
 31
0.0
  0
LINE
  5
   3C6
  8
0
  6
CONTINUOUS
 62
     7
 10
-352.543273925781
 20
94.6867446899414
 30
0.0
 11
-355.497697202988
 21
95.2076891198931
 31
0.0
  0
ENDBLK
  5
   3C7
  8
0
  6
CONTINUOUS
 62
     7
  0
BLOCK
  5
   3C8
  8
0
  6
CONTINUOUS
 62
     7
  2
*UDIM517
 70
    65
 10
0.0
 20
0.0
 30
0.0
  3
*UDIM517
  0
TEXT
  5
   3C9
  8
0
  6
CONTINUOUS
 62
     7
 10
-366.718273974559
 20
102.126403819186
 30
0.0
 40
3.00000002980232
  1
112
 50
359.999999844103
 41
0.933333333333333
 72
     1
 11
-362.818273931742
 21
103.626403823495
 31
0.0
 73
     2
  0
LINE
  5
   3CA
  8
0
  6
CONTINUOUS
 62
     7
 10
-376.543273925781
 20
80.1505661010742
 30
0.0
 11
-376.543273925781
 21
103.126403808594
 31
0.0
  0
LINE
  5
   3CB
  8
0
  6
CONTINUOUS
 62
     7
 10
-348.543273925781
 20
80.1505661010742
 30
0.0
 11
-348.543273925781
 21
103.126403808594
 31
0.0
  0
LINE
  5
   3CC
  8
0
  6
CONTINUOUS
 62
     7
 10
-376.543273925781
 20
101.126403808594
 30
0.0
 11
-348.543273925781
 21
101.126403808594
 31
0.0
  0
LINE
  5
   3CD
  8
0
  6
CONTINUOUS
 62
     7
 10
-373.588850648574
 20
101.647348238545
 30
0.0
 11
-376.543273925781
 21
101.126403808594
 31
0.0
  0
LINE
  5
   3CE
  8
0
  6
CONTINUOUS
 62
     7
 10
-376.543273925781
 20
101.126403808594
 30
0.0
 11
-373.588850648574
 21
100.605459378642
 31
0.0
  0
LINE
  5
   3CF
  8
0
  6
CONTINUOUS
 62
     7
 10
-351.497697202988
 20
100.605459378642
 30
0.0
 11
-348.543273925781
 21
101.126403808594
 31
0.0
  0
LINE
  5
   3D0
  8
0
  6
CONTINUOUS
 62
     7
 10
-348.543273925781
 20
101.126403808594
 30
0.0
 11
-351.497697202988
 21
101.647348238545
 31
0.0
  0
ENDBLK
  5
   3D1
  8
0
  6
CONTINUOUS
 62
     7
  0
BLOCK
  5
   3D2
  8
0
  6
CONTINUOUS
 62
     7
  2
*UDIM518
 70
    65
 10
0.0
 20
0.0
 30
0.0
  3
*UDIM518
  0
TEXT
  5
   3D3
  8
0
  6
CONTINUOUS
 62
     7
 10
-392.516431819059
 20
60.9755660522988
 30
0.0
 40
3.00000002980232
  1
112
 50
449.999999844103
 41
0.933333333333333
 72
     1
 11
-394.016431823373
 21
64.8755660951138
 31
0.0
 73
     2
  0
LINE
  5
   3D4
  8
0
  6
CONTINUOUS
 62
     7
 10
-377.543273925781
 20
79.1505661010742
 30
0.0
 11
-393.516431808472
 21
79.1505661010742
 31
0.0
  0
LINE
  5
   3D5
  8
0
  6
CONTINUOUS
 62
     7
 10
-377.543273925781
 20
51.1505661010742
 30
0.0
 11
-393.516431808472
 21
51.1505661010742
 31
0.0
  0
LINE
  5
   3D6
  8
0
  6
CONTINUOUS
 62
     7
 10
-391.516431808472
 20
79.1505661010742
 30
0.0
 11
-391.516431808472
 21
51.1505661010742
 31
0.0
  0
LINE
  5
   3D7
  8
0
  6
CONTINUOUS
 62
     7
 10
-390.99548737852
 20
76.1961428238673
 30
0.0
 11
-391.516431808472
 21
79.1505661010742
 31
0.0
  0
LINE
  5
   3D8
  8
0
  6
CONTINUOUS
 62
     7
 10
-391.516431808472
 20
79.1505661010742
 30
0.0
 11
-392.037376238423
 21
76.1961428238673
 31
0.0
  0
LINE
  5
   3D9
  8
0
  6
CONTINUOUS
 62
     7
 10
-392.037376238423
 20
54.1049893782812
 30
0.0
 11
-391.516431808472
 21
51.1505661010742
 31
0.0
  0
LINE
  5
   3DA
  8
0
  6
CONTINUOUS
 62
     7
 10
-391.516431808472
 20
51.1505661010742
 30
0.0
 11
-390.99548737852
 21
54.1049893782812
 31
0.0
  0
ENDBLK
  5
   3DB
  8
0
  6
CONTINUOUS
 62
     7
  0
BLOCK
  5
   3DC
  8
0
  6
CONTINUOUS
 62
     7
  2
*UDIM519
 70
    65
 10
0.0
 20
0.0
 30
0.0
  3
*UDIM519
  0
TEXT
  5
   3DD
  8
0
  6
CONTINUOUS
 62
     7
 10
-401.529888163663
 20
60.9755660522988
 30
0.0
 40
3.00000002980232
  1
142
 50
449.999999844103
 41
0.933333333333333
 72
     1
 11
-403.029888167977
 21
64.8755660951138
 31
0.0
 73
     2
  0
LINE
  5
   3DE
  8
0
  6
CONTINUOUS
 62
     7
 10
-375.168273925781
 20
82.9005661010742
 30
0.0
 11
-402.529888153076
 21
82.9005661010742
 31
0.0
  0
LINE
  5
   3DF
  8
0
  6
CONTINUOUS
 62
     7
 10
-375.168273925781
 20
47.4005661010742
 30
0.0
 11
-402.529888153076
 21
47.4005661010742
 31
0.0
  0
LINE
  5
   3E0
  8
0
  6
CONTINUOUS
 62
     7
 10
-400.529888153076
 20
82.9005661010742
 30
0.0
 11
-400.529888153076
 21
47.4005661010742
 31
0.0
  0
LINE
  5
   3E1
  8
0
  6
CONTINUOUS
 62
     7
 10
-400.008943723124
 20
79.9461428238673
 30
0.0
 11
-400.529888153076
 21
82.9005661010742
 31
0.0
  0
LINE
  5
   3E2
  8
0
  6
CONTINUOUS
 62
     7
 10
-400.529888153076
 20
82.9005661010742
 30
0.0
 11
-401.050832583028
 21
79.9461428238673
 31
0.0
  0
LINE
  5
   3E3
  8
0
  6
CONTINUOUS
 62
     7
 10
-401.050832583028
 20
50.3549893782812
 30
0.0
 11
-400.529888153076
 21
47.4005661010742
 31
0.0
  0
LINE
  5
   3E4
  8
0
  6
CONTINUOUS
 62
     7
 10
-400.529888153076
 20
47.4005661010742
 30
0.0
 11
-400.008943723124
 21
50.3549893782812
 31
0.0
  0
ENDBLK
  5
   3E5
  8
0
  6
CONTINUOUS
 62
     7
  0
ENDSEC
  0
SECTION
  2
ENTITIES
  0
LINE
  5
   3E6
  8
0
  6
DASHDOT
 62
     3
 10
-437.4384765625
 20
98.2777127107656
 30
0.0
 11
-437.4384765625
 21
30.9313078849606
 31
0.0
  0
LINE
  5
   3E7
  8
0
  6
DASHDOT
 62
     3
 10
-425.49593896878
 20
91.4630661010742
 30
0.0
 11
-449.790144964936
 21
91.4630661010742
 31
0.0
  0
LINE
  5
   3E8
  8
0
  6
DASHDOT
 62
     3
 10
-424.996594252148
 20
37.9630661010742
 30
0.0
 11
-448.943430010647
 21
37.9630661010742
 31
0.0
  0
LINE
  5
   3E9
  8
0
  6
CONTINUOUS
 62
     7
 10
-423.6884765625
 20
97.496117587255
 30
0.0
 11
-423.6884765625
 21
31.3655085932505
 31
0.0
  0
LINE
  5
   3EA
  8
0
  6
CONTINUOUS
 62
     7
 10
-451.1884765625
 20
97.7783559053516
 30
0.0
 11
-451.1884765625
 21
31.9299852294436
 31
0.0
  0
LINE
  5
   3EB
  8
0
  6
CONTINUOUS
 62
     7
 10
-422.673555787815
 20
32.9630661010742
 30
0.0
 11
-453.350689900923
 21
32.9630661010742
 31
0.0
  0
LINE
  5
   3EC
  8
0
  6
CONTINUOUS
 62
     7
 10
-421.826840833525
 20
96.4630661010742
 30
0.0
 11
-452.916477103852
 21
96.4630661010742
 31
0.0
  0
CIRCLE
  5
   3ED
  8
0
  6
CONTINUOUS
 62
     7
 10
-441.8134765625
 20
91.4630661010742
 30
0.0
 40
0.6875
  0
CIRCLE
  5
   3EE
  8
0
  6
CONTINUOUS
 62
     7
 10
-433.0634765625
 20
91.4630661010742
 30
0.0
 40
0.6875
  0
CIRCLE
  5
   3EF
  8
0
  6
CONTINUOUS
 62
     7
 10
-441.8134765625
 20
37.9630661010742
 30
0.0
 40
0.6875
  0
CIRCLE
  5
   3F0
  8
0
  6
CONTINUOUS
 62
     7
 10
-433.0634765625
 20
37.9630661010742
 30
0.0
 40
0.6875
  0
LINE
  5
   3F1
  8
0
  6
DASHDOT
 62
     3
 10
-441.8134765625
 20
98.2777127107656
 30
0.0
 11
-441.8134765625
 21
34.8615422522595
 31
0.0
  0
LINE
  5
   3F2
  8
0
  6
DASHDOT
 62
     3
 10
-433.0634765625
 20
98.2777127107656
 30
0.0
 11
-433.0634765625
 21
35.1340034439202
 31
0.0
  0
LINE
  5
   3F3
  8
0
  6
DASHDOT
 62
     3
 10
-416.774186173504
 20
65.1505661010742
 30
0.0
 11
-462.986035827764
 21
65.1505661010742
 31
0.0
  0
INSERT
  5
   3F4
  8
0
  6
CONTINUOUS
 62
     7
  2
*UDIM474
 10
0.0
 20
0.0
 30
0.0
  0
INSERT
  5
   3F5
  8
0
  6
CONTINUOUS
 62
     5
  2
*UDIM475
 10
0.0
 20
0.0
 30
0.0
  0
TEXT
  5
   3F6
  8
0
  6
CONTINUOUS
 62
     7
 10
-428.571617129178
 20
66.2030410488476
 30
0.0
 40
3.00000002980232
  1
=
 50
359.999999896069
 41
0.916666604744064
 72
     2
 11
-426.371617260309
 21
66.203041044868
 31
0.0
  0
TEXT
  5
   3F7
  8
0
  6
CONTINUOUS
 62
     7
 10
-445.468120577665
 20
66.2030410488476
 30
0.0
 40
3.00000002980232
  1
=
 50
359.999999896069
 41
0.916666604744064
 72
     2
 11
-443.268120708795
 21
66.203041044868
 31
0.0
  0
TEXT
  5
   3F8
  8
0
  6
CONTINUOUS
 62
     7
 10
-438.605632140969
 20
99.0529375918689
 30
0.0
 40
3.00000002980232
  1
Y
 50
359.999999896069
 41
0.916666604744064
 72
     2
 11
-436.4056322721
 21
99.0529375878893
 31
0.0
  0
INSERT
  5
   3F9
  8
0
  6
CONTINUOUS
 62
     7
  2
*UDIM476
 10
0.0
 20
0.0
 30
0.0
  0
INSERT
  5
   3FA
  8
0
  6
CONTINUOUS
 62
     7
  2
*UDIM477
 10
0.0
 20
0.0
 30
0.0
  0
TEXT
  5
   3FB
  8
0
  6
CONTINUOUS
 62
     7
 10
-475.408699038358
 20
63.2762293537488
 30
0.0
 40
3.00000002980232
  1
X
 50
359.999999896069
 41
0.916666604744064
 72
     2
 11
-473.208699169488
 21
63.2762293497692
 31
0.0
  0
TEXT
  5
   3FC
  8
0
  6
CONTINUOUS
 62
     7
 10
-438.435480120511
 20
25.3477439602246
 30
0.0
 40
3.00000002980232
  1
Y
 50
359.999999896069
 41
0.916666604744064
 72
     2
 11
-436.235480251641
 21
25.347743956245
 31
0.0
  0
LINE
  5
   3FD
  8
0
  6
CONTINUOUS
 62
     7
 10
-567.137985229492
 20
12.7248420715332
 30
0.0
 11
-567.137985229492
 21
12.9748268127441
 31
0.0
  0
LINE
  5
   3FE
  8
0
  6
CONTINUOUS
 62
     7
 10
-567.137985229492
 20
20.4748268127441
 30
0.0
 11
-567.137985229492
 21
30.4748115539551
 31
0.0
  0
LINE
  5
   3FF
  8
0
  6
CONTINUOUS
 62
     7
 10
-565.887969970703
 20
12.9748268127441
 30
0.0
 11
-565.887969970703
 21
20.4748268127441
 31
0.0
  0
LINE
  5
   400
  8
0
  6
CONTINUOUS
 62
     7
 10
-565.887969970703
 20
12.9748268127441
 30
0.0
 11
-567.137985229492
 21
12.9748268127441
 31
0.0
  0
LINE
  5
   401
  8
0
  6
CONTINUOUS
 62
     7
 10
-565.887969970703
 20
20.4748268127441
 30
0.0
 11
-567.137985229492
 21
20.4748268127441
 31
0.0
  0
LINE
  5
   402
  8
0
  6
CONTINUOUS
 62
     7
 10
-565.887969970703
 20
30.4748115539551
 30
0.0
 11
-565.887969970703
 21
37.9748115539551
 31
0.0
  0
LINE
  5
   403
  8
0
  6
CONTINUOUS
 62
     7
 10
-565.887969970703
 20
30.4748115539551
 30
0.0
 11
-567.137985229492
 21
30.4748115539551
 31
0.0
  0
LINE
  5
   404
  8
0
  6
CONTINUOUS
 62
     7
 10
-565.887969970703
 20
37.9748115539551
 30
0.0
 11
-567.137985229492
 21
37.9748115539551
 31
0.0
  0
LINE
  5
   405
  8
0
  6
CONTINUOUS
 62
     7
 10
-532.887992858887
 20
12.7248268127441
 30
0.0
 11
-532.887992858887
 21
40.2248115539551
 31
0.0
  0
LINE
  5
   406
  8
0
  6
CONTINUOUS
 62
     2
 10
-566.387981639256
 20
61.4748344421387
 30
0.0
 11
-567.137969970703
 21
61.4748344421387
 31
0.0
  0
LINE
  5
   407
  8
0
  6
CONTINUOUS
 62
     2
 10
-567.138015747302
 20
39.9748115539551
 30
0.0
 11
-567.138015747302
 21
50.2821235656738
 31
0.0
  0
LINE
  5
   408
  8
0
  6
CONTINUOUS
 62
     7
 10
-531.137985229492
 20
48.9748115539551
 30
0.0
 11
-532.887985229492
 21
48.9748115539551
 31
0.0
  0
LINE
  5
   409
  8
0
  6
CONTINUOUS
 62
     7
 10
-532.888038635609
 20
40.2248071943483
 30
0.0
 11
-532.888038635609
 21
48.9748071943483
 31
0.0
  0
LINE
  5
   40A
  8
0
  6
CONTINUOUS
 62
     7
 10
-565.137985229492
 20
41.2248115539551
 30
0.0
 11
-567.137985229492
 21
41.2248115539551
 31
0.0
  0
LINE
  5
   40B
  8
0
  6
CONTINUOUS
 62
     7
 10
-565.13798395811
 20
41.2248052057187
 30
0.0
 11
-565.137981403742
 21
42.2292234979236
 31
0.0
  0
LINE
  5
   40C
  8
0
  6
CONTINUOUS
 62
     7
 10
-532.887992858887
 20
7.97483444213867
 30
0.0
 11
-532.887992858887
 21
12.7248420715332
 31
0.0
  0
LINE
  5
   40D
  8
0
  6
CONTINUOUS
 62
     7
 10
-567.137980129831
 20
-22.5251528392368
 30
0.0
 11
-567.137964871043
 21
-22.3780352840682
 31
0.0
  0
LINE
  5
   40E
  8
0
  6
CONTINUOUS
 62
     7
 10
-567.137969970843
 20
-14.672272178703
 30
0.0
 11
-567.137969970843
 21
12.7248378066486
 31
0.0
  0
LINE
  5
   40F
  8
0
  6
CONTINUOUS
 62
     7
 10
-531.637985229492
 20
-15.7751579284668
 30
0.0
 11
-565.638002014161
 21
-15.7751579284668
 31
0.0
  0
LINE
  5
   410
  8
0
  6
CONTINUOUS
 62
     7
 10
-531.637985229492
 20
-21.2751579284668
 30
0.0
 11
-565.638002014161
 21
-21.2751579284668
 31
0.0
  0
LINE
  5
   411
  8
0
  6
CONTINUOUS
 62
     7
 10
-563.021955731368
 20
-15.7751528438554
 30
0.0
 11
-567.137968128372
 21
-14.672267130787
 31
0.0
  0
LINE
  5
   412
  8
0
  6
CONTINUOUS
 62
     7
 10
-567.137965821381
 20
-22.3780395585032
 30
0.0
 11
-563.021953329604
 21
-21.275157394107
 31
0.0
  0
LINE
  5
   413
  8
0
  6
CONTINUOUS
 62
     7
 10
-531.137992858887
 20
-14.2751579284668
 30
0.0
 11
-535.137992858887
 21
-14.2751579284668
 31
0.0
  0
LINE
  5
   414
  8
0
  6
CONTINUOUS
 62
     7
 10
-535.137992858887
 20
-14.2751579284668
 30
0.0
 11
-535.137992858887
 21
6.97483444213867
 31
0.0
  0
LINE
  5
   415
  8
0
  6
CONTINUOUS
 62
     7
 10
-566.637969970703
 20
-18.2751579284668
 30
0.0
 11
-566.637969970703
 21
-14.8062477111816
 31
0.0
  0
LINE
  5
   416
  8
0
  6
CONTINUOUS
 62
     7
 10
-566.637977013204
 20
-22.2440631750861
 30
0.0
 11
-566.637969383815
 21
-21.7751529560132
 31
0.0
  0
LINE
  5
   417
  8
0
  6
CONTINUOUS
 62
     2
 10
-567.137969970703
 20
-14.2751579284668
 30
0.0
 11
-568.137969970703
 21
-14.2751579284668
 31
0.0
  0
LINE
  5
   418
  8
0
  6
CONTINUOUS
 62
     2
 10
-567.137969970703
 20
-11.5251579284668
 30
0.0
 11
-568.137969970703
 21
-11.5251579284668
 31
0.0
  0
LINE
  5
   419
  8
0
  6
CONTINUOUS
 62
     7
 10
-531.138003663885
 20
-21.7751384153701
 30
0.0
 11
-531.637996018193
 21
-21.2751460610626
 31
0.0
  0
LINE
  5
   41A
  8
0
  6
CONTINUOUS
 62
     7
 10
-531.637991547755
 20
-15.7751572274885
 30
0.0
 11
-531.137991564869
 21
-15.2751572446028
 31
0.0
  0
LINE
  5
   41B
  8
0
  6
CONTINUOUS
 62
     7
 10
-532.887992858887
 20
6.97483444213867
 30
0.0
 11
-532.887992858887
 21
7.97483444213867
 31
0.0
  0
LINE
  5
   41C
  8
0
  6
CONTINUOUS
 62
     2
 10
-566.137969970703
 20
-31.5251426696771
 30
0.0
 11
-568.137969970703
 21
-31.5251426696771
 31
0.0
  0
LINE
  5
   41D
  8
0
  6
CONTINUOUS
 62
     7
 10
-567.137985229492
 20
-24.5251579284668
 30
0.0
 11
-567.137985229492
 21
-22.5251579284668
 31
0.0
  0
LINE
  5
   41E
  8
0
  6
CONTINUOUS
 62
     7
 10
-531.137992858887
 20
-29.0251426696777
 30
0.0
 11
-536.137985229492
 21
-29.0251426696777
 31
0.0
  0
LINE
  5
   41F
  8
0
  6
CONTINUOUS
 62
     7
 10
-536.137985229492
 20
-31.5251426696777
 30
0.0
 11
-536.137985229492
 21
-29.0251426696777
 31
0.0
  0
LINE
  5
   420
  8
0
  6
CONTINUOUS
 62
     7
 10
-567.137985229492
 20
-30.2751332092464
 30
0.0
 11
-567.137985229492
 21
-24.5251579284668
 31
0.0
  0
LINE
  5
   421
  8
0
  6
CONTINUOUS
 62
     2
 10
-567.137985229492
 20
39.9748115539551
 30
0.0
 11
-567.387969970703
 21
39.9748115539551
 31
0.0
  0
LINE
  5
   422
  8
0
  6
CONTINUOUS
 62
     7
 10
-567.137977600098
 20
4.7248420715332
 30
0.0
 11
-567.387969970703
 21
4.7248420715332
 31
0.0
  0
LINE
  5
   423
  8
0
  6
CONTINUOUS
 62
     7
 10
-567.137969970703
 20
-11.2751560211182
 30
0.0
 11
-567.387969970703
 21
-11.2751560211182
 31
0.0
  0
LINE
  5
   424
  8
0
  6
CONTINUOUS
 62
     7
 10
-566.637969970703
 20
-15.0251574516296
 30
0.0
 11
-567.387969970703
 21
-15.0251574516296
 31
0.0
  0
LINE
  5
   425
  8
0
  6
CONTINUOUS
 62
     7
 10
-567.137985229492
 20
-23.0251502990723
 30
0.0
 11
-567.387969970703
 21
-23.0251502990723
 31
0.0
  0
LINE
  5
   426
  8
0
  6
CONTINUOUS
 62
     2
 10
-567.387969970703
 20
-29.8251378942215
 30
0.0
 11
-567.387969970703
 21
-14.2751655578613
 31
0.0
  0
LINE
  5
   427
  8
0
  6
CONTINUOUS
 62
     2
 10
-567.387969970703
 20
-11.5251655578613
 30
0.0
 11
-567.387969970703
 21
39.9748039245605
 31
0.0
  0
LINE
  5
   428
  8
0
  6
CONTINUOUS
 62
     7
 10
-566.637969970703
 20
30.4748344421387
 30
0.0
 11
-566.637969970703
 21
37.9748115539551
 31
0.0
  0
LINE
  5
   429
  8
0
  6
CONTINUOUS
 62
     7
 10
-566.637969970703
 20
12.9748573303223
 30
0.0
 11
-566.637969970703
 21
20.4748497009277
 31
0.0
  0
LINE
  5
   42A
  8
0
  6
CONTINUOUS
 62
     7
 10
-566.637969970703
 20
-21.7751197814941
 30
0.0
 11
-566.637969970703
 21
-18.2751197814941
 31
0.0
  0
LINE
  5
   42B
  8
0
  6
CONTINUOUS
 62
     2
 10
-567.18797387522
 20
-30.0251339897054
 30
0.0
 11
-567.387970821156
 21
-29.8251370437685
 31
0.0
  0
LINE
  5
   42C
  8
0
  6
CONTINUOUS
 62
     2
 10
-567.137969970703
 20
47.9748115539551
 30
0.0
 11
-568.137969970703
 21
47.9748115539551
 31
0.0
  0
LINE
  5
   42D
  8
0
  6
CONTINUOUS
 62
     2
 10
-567.137969970703
 20
53.4748115539551
 30
0.0
 11
-568.137969970703
 21
53.4748115539551
 31
0.0
  0
LINE
  5
   42E
  8
0
  6
CONTINUOUS
 62
     2
 10
-567.137969970703
 20
52.1306343078613
 30
0.0
 11
-568.137969970703
 21
52.1306343078613
 31
0.0
  0
LINE
  5
   42F
  8
0
  6
CONTINUOUS
 62
     2
 10
-567.137969970703
 20
50.2821235656738
 30
0.0
 11
-568.137969970703
 21
50.2821235656738
 31
0.0
  0
LINE
  5
   430
  8
0
  6
CONTINUOUS
 62
     7
 10
-532.638000488282
 20
14.2248094653129
 30
0.0
 11
-532.638000488282
 21
41.4748323534965
 31
0.0
  0
LINE
  5
   431
  8
0
  6
CONTINUOUS
 62
     7
 10
-518.638023376471
 20
49.4748261006798
 30
0.0
 11
-518.638023376471
 21
61.4748261006798
 31
0.0
  0
LINE
  5
   432
  8
0
  6
CONTINUOUS
 62
     7
 10
-518.637985229492
 20
49.4748286437812
 30
0.0
 11
-518.887985229492
 21
49.4748286437812
 31
0.0
  0
LINE
  5
   433
  8
0
  6
CONTINUOUS
 62
     7
 10
-518.887985229492
 20
49.2248286437812
 30
0.0
 11
-518.887985229492
 21
49.4748286437812
 31
0.0
  0
LINE
  5
   434
  8
0
  6
CONTINUOUS
 62
     7
 10
-531.137985229492
 20
48.7248210143866
 30
0.0
 11
-531.137985229492
 21
49.2248286437812
 31
0.0
  0
LINE
  5
   435
  8
0
  6
CONTINUOUS
 62
     7
 10
-518.637981414801
 20
61.4748439025621
 30
0.0
 11
-531.137981414801
 21
61.4748439025621
 31
0.0
  0
LINE
  5
   436
  8
0
  6
CONTINUOUS
 62
     7
 10
-519.887985229492
 20
49.2248286437812
 30
0.0
 11
-520.037986755371
 21
49.2248286437812
 31
0.0
  0
LINE
  5
   437
  8
0
  6
CONTINUOUS
 62
     7
 10
-531.137985229492
 20
48.7248362731757
 30
0.0
 11
-532.637985229492
 21
48.7248362731757
 31
0.0
  0
LINE
  5
   438
  8
0
  6
CONTINUOUS
 62
     7
 10
-532.637985229492
 20
41.4748362731757
 30
0.0
 11
-532.637985229492
 21
48.7248362731757
 31
0.0
  0
LINE
  5
   439
  8
0
  6
CONTINUOUS
 62
     7
 10
-531.138008117676
 20
-28.5251560974298
 30
0.0
 11
-531.138008117676
 21
-24.8868504333673
 31
0.0
  0
LINE
  5
   43A
  8
0
  6
CONTINUOUS
 62
     7
 10
-532.637992858887
 20
8.22482864378117
 30
0.0
 11
-532.637992858887
 21
14.2248133849921
 31
0.0
  0
LINE
  5
   43B
  8
0
  6
CONTINUOUS
 62
     7
 10
-532.637992858887
 20
6.97481338499211
 30
0.0
 11
-533.137992858887
 21
6.97481338499211
 31
0.0
  0
LINE
  5
   43C
  8
0
  6
CONTINUOUS
 62
     7
 10
-520.038002392179
 20
-30.0251408386301
 30
0.0
 11
-531.138008495694
 21
-30.0251408386301
 31
0.0
  0
LINE
  5
   43D
  8
0
  6
CONTINUOUS
 62
     7
 10
-531.138008117676
 20
-30.0251560974298
 30
0.0
 11
-531.138008117676
 21
-28.5251560974298
 31
0.0
  0
LINE
  5
   43E
  8
0
  6
CONTINUOUS
 62
     7
 10
-531.138000488281
 20
-24.8868504333673
 30
0.0
 11
-531.138000488281
 21
-21.400151492288
 31
0.0
  0
LINE
  5
   43F
  8
0
  6
CONTINUOUS
 62
     7
 10
-519.888008117676
 20
-31.5251637268243
 30
0.0
 11
-519.888008117676
 21
-30.0251637268243
 31
0.0
  0
LINE
  5
   440
  8
0
  6
CONTINUOUS
 62
     7
 10
-519.888008117676
 20
-30.0251637268243
 30
0.0
 11
-520.038001984358
 21
-30.0251637268243
 31
0.0
  0
LINE
  5
   441
  8
0
  6
CONTINUOUS
 62
     7
 10
-533.137992858887
 20
6.97481338499211
 30
0.0
 11
-535.137992858887
 21
6.97481338499211
 31
0.0
  0
LINE
  5
   442
  8
0
  6
CONTINUOUS
 62
     7
 10
-532.637992858887
 20
6.97481338499211
 30
0.0
 11
-532.637992858887
 21
8.22482864378117
 31
0.0
  0
LINE
  5
   443
  8
0
  6
CONTINUOUS
 62
     7
 10
-520.038004093337
 20
-21.4001408386321
 30
0.0
 11
-531.138002567458
 21
-21.4001408386321
 31
0.0
  0
LINE
  5
   444
  8
0
  6
CONTINUOUS
 62
     7
 10
-520.038007770568
 20
-15.6501408386335
 30
0.0
 11
-531.138006244689
 21
-15.6501408386335
 31
0.0
  0
LINE
  5
   445
  8
0
  6
CONTINUOUS
 62
     7
 10
-530.48848776462
 20
-28.1501475391002
 30
0.0
 11
-530.388008654386
 21
-27.7751475442773
 31
0.0
  0
LINE
  5
   446
  8
0
  6
CONTINUOUS
 62
     7
 10
-530.763003446735
 20
-28.4246720718297
 30
0.0
 11
-530.488490220235
 21
-28.1501512091106
 31
0.0
  0
LINE
  5
   447
  8
0
  6
CONTINUOUS
 62
     7
 10
-531.138016760374
 20
-28.5251443795898
 30
0.0
 11
-530.763009146101
 21
-28.4246652617084
 31
0.0
  0
LINE
  5
   448
  8
0
  6
CONTINUOUS
 62
     7
 10
-530.763004968218
 20
-22.6256341351828
 30
0.0
 11
-531.138004965468
 21
-22.5251473886555
 31
0.0
  0
LINE
  5
   449
  8
0
  6
CONTINUOUS
 62
     7
 10
-530.488492377876
 20
-22.9001515638918
 30
0.0
 11
-530.763005608196
 21
-22.6256383335718
 31
0.0
  0
LINE
  5
   44A
  8
0
  6
CONTINUOUS
 62
     7
 10
-530.388013844308
 20
-23.2751508687257
 30
0.0
 11
-530.488500590835
 21
-22.9001508714753
 31
0.0
  0
LINE
  5
   44B
  8
0
  6
CONTINUOUS
 62
     7
 10
-530.388012356211
 20
-27.7751531291122
 30
0.0
 11
-530.388004726817
 21
-23.2751531291122
 31
0.0
  0
LINE
  5
   44C
  8
0
  6
CONTINUOUS
 62
     7
 10
-520.038002014161
 20
-30.0251637268243
 30
0.0
 11
-520.038002014161
 21
49.2248223873885
 31
0.0
  0
LINE
  5
   44D
  8
0
  6
CONTINUOUS
 62
     7
 10
-520.037979125977
 20
60.0748347472968
 30
0.0
 11
-530.84670797956
 21
60.0748347472968
 31
0.0
  0
LINE
  5
   44E
  8
0
  6
CONTINUOUS
 62
     7
 10
-520.038032531745
 20
49.2248251982981
 30
0.0
 11
-520.038032531745
 21
60.0748313018138
 31
0.0
  0
LINE
  5
   44F
  8
0
  6
CONTINUOUS
 62
     7
 10
-531.137985229492
 20
49.2248362731757
 30
0.0
 11
-531.137985229492
 21
59.4321455893824
 31
0.0
  0
LINE
  5
   450
  8
0
  6
CONTINUOUS
 62
     7
 10
-511.887977600098
 20
-27.4001332092462
 30
0.0
 11
-511.887977600098
 21
-18.1501502990723
 31
0.0
  0
LINE
  5
   451
  8
0
  6
CONTINUOUS
 62
     7
 10
-511.887977600098
 20
23.9748515319648
 30
0.0
 11
-511.887977600098
 21
24.0998515319648
 31
0.0
  0
LINE
  5
   452
  8
0
  6
CONTINUOUS
 62
     7
 10
-514.637974739075
 20
25.0998515319648
 30
0.0
 11
-516.387977600098
 21
25.0998515319648
 31
0.0
  0
LINE
  5
   453
  8
0
  6
CONTINUOUS
 62
     7
 10
-514.637974739075
 20
-27.4001332092462
 30
0.0
 11
-516.387977600098
 21
-27.4001332092462
 31
0.0
  0
LINE
  5
   454
  8
0
  6
CONTINUOUS
 62
     7
 10
-519.887977600098
 20
-35.5251332092462
 30
0.0
 11
-519.887977600098
 21
-30.0251637268243
 31
0.0
  0
LINE
  5
   455
  8
0
  6
CONTINUOUS
 62
     7
 10
-517.387977600098
 20
-35.5251332092462
 30
0.0
 11
-517.387977600098
 21
-27.4001332092462
 31
0.0
  0
LINE
  5
   456
  8
0
  6
CONTINUOUS
 62
     7
 10
-517.387977600098
 20
25.0998515319648
 30
0.0
 11
-517.387977600098
 21
49.2248515319648
 31
0.0
  0
LINE
  5
   457
  8
0
  6
CONTINUOUS
 62
     7
 10
-517.387977600098
 20
49.2248515319648
 30
0.0
 11
-519.887977600098
 21
49.2248515319648
 31
0.0
  0
LINE
  5
   458
  8
0
  6
CONTINUOUS
 62
     7
 10
-517.387977600098
 20
-35.5251332092462
 30
0.0
 11
-519.887977600098
 21
-35.5251332092462
 31
0.0
  0
LINE
  5
   459
  8
0
  6
CONTINUOUS
 62
     7
 10
-516.387977600098
 20
-27.4001332092462
 30
0.0
 11
-516.387977600098
 21
25.0998515319648
 31
0.0
  0
LINE
  5
   45A
  8
0
  6
CONTINUOUS
 62
     7
 10
-516.387977600098
 20
-27.4001332092462
 30
0.0
 11
-517.387977600098
 21
-27.4001332092462
 31
0.0
  0
LINE
  5
   45B
  8
0
  6
CONTINUOUS
 62
     7
 10
-516.387977600098
 20
25.0998515319648
 30
0.0
 11
-517.387977600098
 21
25.0998515319648
 31
0.0
  0
LINE
  5
   45C
  8
0
  6
CONTINUOUS
 62
     7
 10
-520.038013594276
 20
-15.3751714046157
 30
0.0
 11
-519.888012075352
 21
-15.3620488476283
 31
0.0
  0
LINE
  5
   45D
  8
0
  6
CONTINUOUS
 62
     7
 10
-519.887986289316
 20
-21.688284120171
 30
0.0
 11
-520.037987812434
 21
-21.6751539337647
 31
0.0
  0
LINE
  5
   45E
  8
0
  6
CONTINUOUS
 62
     7
 10
-531.138000488281
 20
-15.6501514922867
 30
0.0
 11
-531.138000488281
 21
-14.2751713562188
 31
0.0
  0
LINE
  5
   45F
  8
0
  6
CONTINUOUS
 62
   218
 10
-520.037979602814
 20
-64.1251335907161
 30
0.0
 11
-543.838218746949
 21
-64.1251335907161
 31
0.0
  0
LINE
  5
   460
  8
0
  6
CONTINUOUS
 62
     2
 10
-566.137969970703
 20
-30.2751332092464
 30
0.0
 11
-568.137969970703
 21
-30.2751332092464
 31
0.0
  0
LINE
  5
   461
  8
0
  6
CONTINUOUS
 62
     7
 10
-520.037971496582
 20
-30.2751332092464
 30
0.0
 11
-528.637977600098
 21
-30.2751332092464
 31
0.0
  0
LINE
  5
   462
  8
0
  6
CONTINUOUS
 62
   218
 10
-518.637969970703
 20
-65.5251332092464
 30
0.0
 11
-518.637969970703
 21
-53.5251408386409
 31
0.0
  0
LINE
  5
   463
  8
0
  6
CONTINUOUS
 62
     2
 10
-566.137969970703
 20
-31.5251332092464
 30
0.0
 11
-566.137969970703
 21
-30.2751332092464
 31
0.0
  0
LINE
  5
   464
  8
0
  6
CONTINUOUS
 62
   218
 10
-520.037975597951
 20
-51.5251408390887
 30
0.0
 11
-519.887977600488
 21
-51.5251390784869
 31
0.0
  0
LINE
  5
   465
  8
0
  6
CONTINUOUS
 62
   218
 10
-518.637969970703
 20
-53.5251408386409
 30
0.0
 11
-520.037971496582
 21
-53.5251408386409
 31
0.0
  0
LINE
  5
   466
  8
0
  6
CONTINUOUS
 62
   218
 10
-520.037971496582
 20
-64.1251316833675
 30
0.0
 11
-520.037971496582
 21
-51.5251332092464
 31
0.0
  0
LINE
  5
   467
  8
0
  6
CONTINUOUS
 62
   218
 10
-520.037971496582
 20
-51.5251332092464
 30
0.0
 11
-520.037971496582
 21
-30.2751332092464
 31
0.0
  0
LINE
  5
   468
  8
0
  6
CONTINUOUS
 62
     7
 10
-519.887977600098
 20
-36.0251332092464
 30
0.0
 11
-520.037971496582
 21
-36.0251332092464
 31
0.0
  0
LINE
  5
   469
  8
0
  6
CONTINUOUS
 62
   218
 10
-568.137969970745
 20
-48.5251408381462
 30
0.0
 11
-567.137970447605
 21
-48.5251332087516
 31
0.0
  0
LINE
  5
   46A
  8
0
  6
CONTINUOUS
 62
   218
 10
-567.13797044754
 20
-65.5251332092462
 30
0.0
 11
-567.13797044754
 21
-48.5251408386407
 31
0.0
  0
LINE
  5
   46B
  8
0
  6
CONTINUOUS
 62
   218
 10
-567.137969970703
 20
-53.9001408386409
 30
0.0
 11
-568.137969970703
 21
-53.9001408386409
 31
0.0
  0
LINE
  5
   46C
  8
0
  6
CONTINUOUS
 62
     7
 10
-531.137983321067
 20
-30.2751332065255
 30
0.0
 11
-531.137975691672
 21
-29.2751332065026
 31
0.0
  0
LINE
  5
   46D
  8
0
  6
CONTINUOUS
 62
     7
 10
-531.137969970703
 20
-29.2751332092464
 30
0.0
 11
-536.137969970703
 21
-29.2751332092464
 31
0.0
  0
LINE
  5
   46E
  8
0
  6
CONTINUOUS
 62
     7
 10
-528.637977600098
 20
-30.2751332092464
 30
0.0
 11
-531.137977600098
 21
-30.2751332092464
 31
0.0
  0
LINE
  5
   46F
  8
0
  6
CONTINUOUS
 62
   218
 10
-567.137969970703
 20
-58.2589364814937
 30
0.0
 11
-568.137969970703
 21
-58.2589364814937
 31
0.0
  0
LINE
  5
   470
  8
0
  6
CONTINUOUS
 62
   218
 10
-567.137969970703
 20
-57.0324421692073
 30
0.0
 11
-568.137969970703
 21
-57.0324421692073
 31
0.0
  0
LINE
  5
   471
  8
0
  6
CONTINUOUS
 62
   218
 10
-567.137969970703
 20
-53.9640293884456
 30
0.0
 11
-568.137969970703
 21
-53.9640293884456
 31
0.0
  0
LINE
  5
   472
  8
0
  6
CONTINUOUS
 62
     7
 10
-517.387977600098
 20
-35.7751332092462
 30
0.0
 11
-519.887977600098
 21
-35.7751332092462
 31
0.0
  0
LINE
  5
   473
  8
0
  6
CONTINUOUS
 62
     7
 10
-517.387977600098
 20
-53.2751332092462
 30
0.0
 11
-519.887977600098
 21
-53.2751332092462
 31
0.0
  0
LINE
  5
   474
  8
0
  6
CONTINUOUS
 62
     7
 10
-517.387977600098
 20
-53.2751332092462
 30
0.0
 11
-517.387977600098
 21
-35.7751332092462
 31
0.0
  0
LINE
  5
   475
  8
0
  6
CONTINUOUS
 62
     7
 10
-518.387977600098
 20
-53.2751332092462
 30
0.0
 11
-518.387977600098
 21
-35.7751332092462
 31
0.0
  0
LINE
  5
   476
  8
0
  6
CONTINUOUS
 62
     7
 10
-519.887977600098
 20
-53.2751332092462
 30
0.0
 11
-519.887977600098
 21
-35.7751332092462
 31
0.0
  0
ARC
  5
   477
  8
0
  6
CONTINUOUS
 62
     7
 10
-501.550451214841
 20
-12.1720739417776
 30
0.0
 40
0.499999897877905
 50
348.623573369035
 51
436.688788706936
  0
ARC
  5
   478
  8
0
  6
CONTINUOUS
 62
     7
 10
-502.14882341476
 20
-15.1459829257765
 30
0.0
 40
0.50000037262337
 50
260.593992196011
 51
348.623573369035
  0
LINE
  5
   479
  8
0
  6
DASHDOT
 62
     7
 10
-494.150158889067
 20
-15.2264045796749
 30
0.0
 11
-519.208502123521
 21
-10.1844844117766
 31
0.0
  0
LINE
  5
   47A
  8
0
  6
CONTINUOUS
 62
     7
 10
-501.435331242495
 20
-11.6855074720789
 30
0.0
 11
-511.887977600098
 21
-9.2124468841071
 31
0.0
  0
LINE
  5
   47B
  8
0
  6
CONTINUOUS
 62
     7
 10
-501.658646969879
 20
-15.24460997706
 30
0.0
 11
-501.060274934254
 21
-12.2707009600043
 31
0.0
  0
LINE
  5
   47C
  8
0
  6
CONTINUOUS
 62
     7
 10
-502.230538153353
 20
-15.6392606486479
 30
0.0
 11
-511.887977600098
 21
-14.0394415137466
 31
0.0
  0
LINE
  5
   47D
  8
0
  6
CONTINUOUS
 62
     7
 10
-565.638002014161
 20
-21.2751579284668
 30
0.0
 11
-565.638002014161
 21
-15.7751579284668
 31
0.0
  0
LINE
  5
   47E
  8
0
  6
CONTINUOUS
 62
     7
 10
-556.13798259293
 20
57.4748344421387
 30
0.0
 11
-558.137981639256
 21
57.4748344421387
 31
0.0
  0
LINE
  5
   47F
  8
0
  6
DASHDOT
 62
     7
 10
-547.78601115278
 20
52.4748600223834
 30
0.0
 11
-561.852653170218
 21
52.4748600223834
 31
0.0
  0
LINE
  5
   480
  8
0
  6
CONTINUOUS
 62
     7
 10
-556.13798259293
 20
54.4748600223833
 30
0.0
 11
-558.137981639256
 21
54.4748600223833
 31
0.0
  0
LINE
  5
   481
  8
0
  6
CONTINUOUS
 62
     7
 10
-556.13798259293
 20
50.4748600223833
 30
0.0
 11
-558.137981639256
 21
50.4748600223833
 31
0.0
  0
LINE
  5
   482
  8
0
  6
CONTINUOUS
 62
     7
 10
-551.011634765742
 20
42.2292234927537
 30
0.0
 11
-548.740206702033
 21
47.2410196075197
 31
0.0
  0
LINE
  5
   483
  8
0
  6
CONTINUOUS
 62
     7
 10
-555.63798259293
 20
42.2292234927538
 30
0.0
 11
-555.63798259293
 21
47.4748600223834
 31
0.0
  0
LINE
  5
   484
  8
0
  6
CONTINUOUS
 62
     7
 10
-558.137981639256
 20
42.2292234927538
 30
0.0
 11
-558.137981639256
 21
50.4748600223833
 31
0.0
  0
LINE
  5
   485
  8
0
  6
CONTINUOUS
 62
     2
 10
-567.138015747302
 20
52.1306343078613
 30
0.0
 11
-567.138015747302
 21
61.4748339035991
 31
0.0
  0
LINE
  5
   486
  8
0
  6
CONTINUOUS
 62
     7
 10
-548.860846177571
 20
46.9748344421387
 30
0.0
 11
-555.63798259293
 21
46.9748344421387
 31
0.0
  0
LINE
  5
   487
  8
0
  6
CONTINUOUS
 62
     7
 10
-549.767278926109
 20
44.9748344421387
 30
0.0
 11
-555.63798259293
 21
44.9748344421387
 31
0.0
  0
INSERT
  5
   488
  8
0
  6
CONTINUOUS
 62
     7
  2
*HATCH112
 10
-516.638000488281
 20
-56.1436882019043
 30
0.0
 41
0.5
 42
0.5
 50
89.9999999480344
 43
0.5
  0
LINE
  5
   489
  8
0
  6
CONTINUOUS
 62
     2
 10
-531.138000488281
 20
61.4748344421387
 30
0.0
 11
-552.512981639256
 21
61.4748344421387
 31
0.0
  0
LINE
  5
   48A
  8
0
  6
DASHDOT
 62
     7
 10
-568.137969970703
 20
-75.1164914085939
 30
0.0
 11
-568.137969970703
 21
70.0309395935955
 31
0.0
  0
LINE
  5
   48B
  8
0
  6
DASHDOT
 62
     7
 10
-569.637969970703
 20
-75.1164914085939
 30
0.0
 11
-569.637969970703
 21
70.0309395935955
 31
0.0
  0
LINE
  5
   48C
  8
0
  6
CONTINUOUS
 62
     7
 10
-566.573109345137
 20
70.0309395935955
 30
0.0
 11
-571.642005217164
 21
70.0309395935955
 31
0.0
  0
LINE
  5
   48D
  8
0
  6
CONTINUOUS
 62
     7
 10
-564.762789390841
 20
-75.1164914085939
 30
0.0
 11
-574.055765156225
 21
-75.1164914085939
 31
0.0
  0
ARC
  5
   48E
  8
0
  6
CONTINUOUS
 62
     7
 10
-538.637977600098
 20
-6.27513320924617
 30
0.0
 40
38.0220413050115
 50
333.082565820193
 51
379.93594827737
  0
LINE
  5
   48F
  8
0
  6
CONTINUOUS
 62
     7
 10
-500.615936295086
 20
-6.27513320924619
 30
0.0
 11
-500.615936295086
 21
15.3995063061861
 31
0.0
  0
LINE
  5
   490
  8
0
  6
CONTINUOUS
 62
     7
 10
-551.011634765742
 20
42.2292234927538
 30
0.0
 11
-569.342054851818
 21
42.2292234927538
 31
0.0
  0
LINE
  5
   491
  8
0
  6
CONTINUOUS
 62
     7
 10
-558.137981639256
 20
43.7248344421387
 30
0.0
 11
-560.637981639256
 21
43.7248344421387
 31
0.0
  0
LINE
  5
   492
  8
0
  6
CONTINUOUS
 62
     7
 10
-562.133592588641
 20
42.2292234927538
 30
0.0
 11
-560.637981639256
 21
43.7248344421386
 31
0.0
  0
INSERT
  5
   493
  8
0
  6
CONTINUOUS
 62
     7
  2
*HATCH113
 10
-516.638000488281
 20
-56.1436882019043
 30
0.0
 41
0.5
 42
0.5
 50
89.9999999480344
 43
0.5
  0
LINE
  5
   494
  8
0
  6
DASHDOT
 62
     7
 10
-547.78601115278
 20
-56.525191138106
 30
0.0
 11
-561.852653170218
 21
-56.525191138106
 31
0.0
  0
LINE
  5
   495
  8
0
  6
CONTINUOUS
 62
     7
 10
-555.637981639256
 20
-61.5251655578613
 30
0.0
 11
-558.137981639256
 21
-61.5251655578613
 31
0.0
  0
LINE
  5
   496
  8
0
  6
CONTINUOUS
 62
     7
 10
-558.137981639256
 20
-61.5251655578613
 30
0.0
 11
-558.137981639256
 21
-46.2795546084765
 31
0.0
  0
LINE
  5
   497
  8
0
  6
CONTINUOUS
 62
     7
 10
-555.63798259293
 20
-54.525191138106
 30
0.0
 11
-558.137981639256
 21
-54.525191138106
 31
0.0
  0
LINE
  5
   498
  8
0
  6
CONTINUOUS
 62
     7
 10
-555.63798259293
 20
-58.525191138106
 30
0.0
 11
-558.137981639256
 21
-58.525191138106
 31
0.0
  0
LINE
  5
   499
  8
0
  6
CONTINUOUS
 62
     7
 10
-555.63798259293
 20
-54.5251399776167
 30
0.0
 11
-555.63798259293
 21
-46.2795546084765
 31
0.0
  0
LINE
  5
   49A
  8
0
  6
CONTINUOUS
 62
     7
 10
-547.706354280825
 20
-46.2795546084765
 30
0.0
 11
-572.692254388027
 21
-46.2795546084765
 31
0.0
  0
LINE
  5
   49B
  8
0
  6
CONTINUOUS
 62
     7
 10
-543.026332743718
 20
-67.0808231580351
 30
0.0
 11
-548.944045927003
 21
-45.5372529417634
 31
0.0
  0
LINE
  5
   49C
  8
0
  6
CONTINUOUS
 62
   218
 10
-518.63797044754
 20
-65.5251332092462
 30
0.0
 11
-557.637981639256
 21
-65.5251332092462
 31
0.0
  0
INSERT
  5
   49D
  8
0
  6
CONTINUOUS
 62
     7
  2
*HATCH114
 10
-516.638000488281
 20
-56.1436882019043
 30
0.0
 41
0.5
 42
0.5
 50
89.9999999480344
 43
0.5
  0
INSERT
  5
   49E
  8
0
  6
CONTINUOUS
 62
     7
  2
*HATCH115
 10
-516.638000488281
 20
-56.1436882019043
 30
0.0
 41
0.5
 42
0.5
 50
89.9999999480344
 43
0.5
  0
LINE
  5
   49F
  8
0
  6
CONTINUOUS
 62
     7
 10
-558.137981639256
 20
-49.025191138106
 30
0.0
 11
-567.13797044754
 21
-49.025191138106
 31
0.0
  0
LINE
  5
   4A0
  8
0
  6
CONTINUOUS
 62
     7
 10
-558.137981639256
 20
-47.025191138106
 30
0.0
 11
-568.137969970703
 21
-47.025191138106
 31
0.0
  0
LINE
  5
   4A1
  8
0
  6
CONTINUOUS
 62
     7
 10
-547.436587140575
 20
-51.025191138106
 30
0.0
 11
-555.63798259293
 21
-51.025191138106
 31
0.0
  0
INSERT
  5
   4A2
  8
0
  6
CONTINUOUS
 62
     7
  2
*HATCH116
 10
-516.638000488281
 20
-56.1436882019043
 30
0.0
 41
0.5
 42
0.5
 50
89.9999999480344
 43
0.5
  0
LINE
  5
   4A3
  8
0
  6
CONTINUOUS
 62
     7
 10
-547.985958774327
 20
-49.025191138106
 30
0.0
 11
-555.63798259293
 21
-49.025191138106
 31
0.0
  0
INSERT
  5
   4A4
  8
0
  6
CONTINUOUS
 62
     7
  2
*HATCH117
 10
-516.638000488281
 20
-56.1436882019043
 30
0.0
 41
0.5
 42
0.5
 50
89.9999999480344
 43
0.5
  0
LINE
  5
   4A5
  8
0
  6
CONTINUOUS
 62
     7
 10
-536.137985229492
 20
-31.5251426696771
 30
0.0
 11
-566.137969970703
 21
-31.5251426696771
 31
0.0
  0
LINE
  5
   4A6
  8
0
  6
CONTINUOUS
 62
     7
 10
-511.887977600098
 20
5.59984970092773
 30
0.0
 11
-511.887977600098
 21
25.0998515319648
 31
0.0
  0
LINE
  5
   4A7
  8
0
  6
CONTINUOUS
 62
     7
 10
-511.887977600098
 20
-0.900150299072266
 30
0.0
 11
-511.887977600098
 21
5.09984970092773
 31
0.0
  0
LINE
  5
   4A8
  8
0
  6
CONTINUOUS
 62
     7
 10
-511.887977600098
 20
-11.1501350402843
 30
0.0
 11
-511.887977600098
 21
-1.40015029907227
 31
0.0
  0
LINE
  5
   4A9
  8
0
  6
CONTINUOUS
 62
     7
 10
-511.887977600098
 20
-17.6501502990723
 30
0.0
 11
-511.887977600098
 21
-11.6501350402842
 31
0.0
  0
LINE
  5
   4AA
  8
0
  6
CONTINUOUS
 62
     1
 10
-514.637974739075
 20
-28.6533756256104
 30
0.0
 11
-514.637974739075
 21
-27.6533756256104
 31
0.0
  0
LINE
  5
   4AB
  8
0
  6
CONTINUOUS
 62
     1
 10
-513.637974739075
 20
-28.6533756256104
 30
0.0
 11
-514.637974739075
 21
-28.6533756256104
 31
0.0
  0
LINE
  5
   4AC
  8
0
  6
CONTINUOUS
 62
     1
 10
-514.637974739075
 20
25.346622467041
 30
0.0
 11
-514.637974739075
 21
26.346622467041
 31
0.0
  0
LINE
  5
   4AD
  8
0
  6
CONTINUOUS
 62
     1
 10
-513.637974739075
 20
26.346622467041
 30
0.0
 11
-514.637974739075
 21
26.346622467041
 31
0.0
  0
LINE
  5
   4AE
  8
0
  6
CONTINUOUS
 62
     1
 10
-514.637974739075
 20
-27.6533756256104
 30
0.0
 11
-514.637974739075
 21
25.3466243743897
 31
0.0
  0
LINE
  5
   4AF
  8
0
  6
CONTINUOUS
 62
     1
 10
-516.887974739075
 20
33.1352958679199
 30
0.0
 11
-516.887974739075
 21
35.5579490661621
 31
0.0
  0
LINE
  5
   4B0
  8
0
  6
CONTINUOUS
 62
     1
 10
-513.637974739075
 20
-41.9033756256104
 30
0.0
 11
-513.637974739075
 21
39.5966243743896
 31
0.0
  0
LINE
  5
   4B1
  8
0
  6
CONTINUOUS
 62
     1
 10
-511.887974739075
 20
-41.9033756256104
 30
0.0
 11
-513.637974739075
 21
-41.9033756256104
 31
0.0
  0
LINE
  5
   4B2
  8
0
  6
CONTINUOUS
 62
     1
 10
-511.887974739075
 20
-41.903377532959
 30
0.0
 11
-511.887974739075
 21
39.596622467041
 31
0.0
  0
LINE
  5
   4B3
  8
0
  6
CONTINUOUS
 62
     1
 10
-511.887974739075
 20
39.596622467041
 30
0.0
 11
-512.387974739075
 21
39.596622467041
 31
0.0
  0
LINE
  5
   4B4
  8
0
  6
CONTINUOUS
 62
     1
 10
-512.887974739075
 20
39.596622467041
 30
0.0
 11
-513.637974739075
 21
39.596622467041
 31
0.0
  0
LINE
  5
   4B5
  8
0
  6
CONTINUOUS
 62
     1
 10
-513.637974739075
 20
32.846622467041
 30
0.0
 11
-516.387976337389
 21
32.846622467041
 31
0.0
  0
LINE
  5
   4B6
  8
0
  6
CONTINUOUS
 62
     1
 10
-513.637974739075
 20
35.846622467041
 30
0.0
 11
-516.387973100811
 21
35.846622467041
 31
0.0
  0
LINE
  5
   4B7
  8
0
  6
CONTINUOUS
 62
     1
 10
-516.387974745925
 20
32.846622467041
 30
0.0
 11
-516.387974745925
 21
32.9608039855957
 31
0.0
  0
LINE
  5
   4B8
  8
0
  6
CONTINUOUS
 62
     1
 10
-516.387974348063
 20
32.8466213185103
 30
0.0
 11
-516.887974364527
 21
33.1352947230085
 31
0.0
  0
LINE
  5
   4B9
  8
0
  6
CONTINUOUS
 62
     1
 10
-516.387974745925
 20
32.9608039855957
 30
0.0
 11
-516.387974745925
 21
33.285961151123
 31
0.0
  0
LINE
  5
   4BA
  8
0
  6
CONTINUOUS
 62
     1
 10
-516.387974745925
 20
33.285961151123
 30
0.0
 11
-516.387974745925
 21
33.7726020812988
 31
0.0
  0
LINE
  5
   4BB
  8
0
  6
CONTINUOUS
 62
     1
 10
-516.387974745925
 20
33.7726020812988
 30
0.0
 11
-516.387974745925
 21
34.346622467041
 31
0.0
  0
LINE
  5
   4BC
  8
0
  6
CONTINUOUS
 62
     1
 10
-516.387974745925
 20
34.346622467041
 30
0.0
 11
-516.387974745925
 21
34.9206504821777
 31
0.0
  0
LINE
  5
   4BD
  8
0
  6
CONTINUOUS
 62
     1
 10
-516.387974745925
 20
34.9206504821777
 30
0.0
 11
-516.387974745925
 21
35.407283782959
 31
0.0
  0
LINE
  5
   4BE
  8
0
  6
CONTINUOUS
 62
     1
 10
-516.387974745925
 20
35.407283782959
 30
0.0
 11
-516.387974745925
 21
35.7324409484863
 31
0.0
  0
LINE
  5
   4BF
  8
0
  6
CONTINUOUS
 62
     1
 10
-516.387974745925
 20
35.7324409484863
 30
0.0
 11
-516.387974745925
 21
35.846622467041
 31
0.0
  0
LINE
  5
   4C0
  8
0
  6
CONTINUOUS
 62
     1
 10
-516.887975173664
 20
35.5579478752931
 30
0.0
 11
-516.3879751572
 21
35.8466212797913
 31
0.0
  0
LINE
  5
   4C1
  8
0
  6
CONTINUOUS
 62
     1
 10
-513.637974739075
 20
-35.1533756256104
 30
0.0
 11
-516.387973743369
 21
-35.1533756256104
 31
0.0
  0
LINE
  5
   4C2
  8
0
  6
CONTINUOUS
 62
     1
 10
-513.637974739075
 20
-38.1533756256104
 30
0.0
 11
-516.387974729267
 21
-38.1533756256104
 31
0.0
  0
LINE
  5
   4C3
  8
0
  6
CONTINUOUS
 62
     1
 10
-516.387974729267
 20
-35.267557144165
 30
0.0
 11
-516.387974729267
 21
-35.1533756256104
 31
0.0
  0
LINE
  5
   4C4
  8
0
  6
CONTINUOUS
 62
     1
 10
-516.38797472928
 20
-35.592716217041
 30
0.0
 11
-516.38797472928
 21
-35.267557144165
 31
0.0
  0
LINE
  5
   4C5
  8
0
  6
CONTINUOUS
 62
     1
 10
-516.387974729265
 20
-36.0793495178223
 30
0.0
 11
-516.387974729265
 21
-35.592716217041
 31
0.0
  0
LINE
  5
   4C6
  8
0
  6
CONTINUOUS
 62
     1
 10
-516.3879747293
 20
-36.6533756256104
 30
0.0
 11
-516.3879747293
 21
-36.0793495178223
 31
0.0
  0
LINE
  5
   4C7
  8
0
  6
CONTINUOUS
 62
     1
 10
-516.387974729238
 20
-37.2273998260498
 30
0.0
 11
-516.387974729238
 21
-36.6533756256104
 31
0.0
  0
LINE
  5
   4C8
  8
0
  6
CONTINUOUS
 62
     1
 10
-516.387974729266
 20
-37.7140350341797
 30
0.0
 11
-516.387974729266
 21
-37.2273998260498
 31
0.0
  0
LINE
  5
   4C9
  8
0
  6
CONTINUOUS
 62
     1
 10
-516.387974729278
 20
-38.1533756256104
 30
0.0
 11
-516.387974729278
 21
-37.7140350341797
 31
0.0
  0
LINE
  5
   4CA
  8
0
  6
CONTINUOUS
 62
     1
 10
-516.387974729267
 20
-38.1533756256104
 30
0.0
 11
-516.387974729267
 21
-38.0391941070557
 31
0.0
  0
LINE
  5
   4CB
  8
0
  6
CONTINUOUS
 62
     1
 10
-512.387974739075
 20
39.596622467041
 30
0.0
 11
-512.887974739075
 21
39.596622467041
 31
0.0
  0
LINE
  5
   4CC
  8
0
  6
CONTINUOUS
 62
     7
 10
-516.887975000149
 20
-35.4420516339638
 30
0.0
 11
-516.387974983685
 21
-35.1533763417072
 31
0.0
  0
LINE
  5
   4CD
  8
0
  6
CONTINUOUS
 62
     7
 10
-516.387974522105
 20
-38.1533762393599
 30
0.0
 11
-516.887974538569
 21
-37.8647009471033
 31
0.0
  0
LINE
  5
   4CE
  8
0
  6
CONTINUOUS
 62
     7
 10
-514.637974739075
 20
-69.2191251828167
 30
0.0
 11
-514.637974739075
 21
-38.1533756256104
 31
0.0
  0
LINE
  5
   4CF
  8
0
  6
CONTINUOUS
 62
     7
 10
-513.637974739075
 20
-68.6053320793685
 30
0.0
 11
-513.637974739075
 21
-41.9033756256104
 31
0.0
  0
LINE
  5
   4D0
  8
0
  6
CONTINUOUS
 62
     7
 10
-513.637974739075
 20
36.096622467041
 30
0.0
 11
-513.637974739075
 21
68.6921738373864
 31
0.0
  0
LINE
  5
   4D1
  8
0
  6
CONTINUOUS
 62
     7
 10
-513.637974739075
 20
-29.1533756256104
 30
0.0
 11
-514.637974739075
 21
-29.1533756256104
 31
0.0
  0
LINE
  5
   4D2
  8
0
  6
CONTINUOUS
 62
     7
 10
-513.637974739075
 20
26.846622467041
 30
0.0
 11
-514.637974739075
 21
26.846622467041
 31
0.0
  0
LINE
  5
   4D3
  8
0
  6
CONTINUOUS
 62
     7
 10
-513.637974739075
 20
36.096622467041
 30
0.0
 11
-514.637974739075
 21
36.096622467041
 31
0.0
  0
LINE
  5
   4D4
  8
0
  6
CONTINUOUS
 62
     7
 10
-513.637974739075
 20
32.596622467041
 30
0.0
 11
-514.637974739075
 21
32.596622467041
 31
0.0
  0
LINE
  5
   4D5
  8
0
  6
CONTINUOUS
 62
     7
 10
-513.637974739075
 20
-34.9033756256104
 30
0.0
 11
-514.637974739075
 21
-34.9033756256104
 31
0.0
  0
LINE
  5
   4D6
  8
0
  6
CONTINUOUS
 62
     7
 10
-513.637974739075
 20
-38.4033756256104
 30
0.0
 11
-514.637974739075
 21
-38.4033756256104
 31
0.0
  0
LINE
  5
   4D7
  8
0
  6
CONTINUOUS
 62
     7
 10
-514.637974739075
 20
-35.1533756256104
 30
0.0
 11
-514.637974739075
 21
32.846622467041
 31
0.0
  0
LINE
  5
   4D8
  8
0
  6
CONTINUOUS
 62
     7
 10
-514.637974739075
 20
35.846622467041
 30
0.0
 11
-514.637974739075
 21
68.1529581511119
 31
0.0
  0
LINE
  5
   4D9
  8
0
  6
CONTINUOUS
 62
     7
 10
-515.834869502742
 20
67.5075737197228
 30
0.0
 11
-512.180717417372
 21
69.477949844187
 31
0.0
  0
LINE
  5
   4DA
  8
0
  6
CONTINUOUS
 62
     7
 10
-516.300594768524
 20
-70.2396298905478
 30
0.0
 11
-511.105966804028
 21
-67.0512030709603
 31
0.0
  0
INSERT
  5
   4DB
  8
0
  6
CONTINUOUS
 62
     7
  2
*HATCH118
 10
-516.638000488281
 20
-56.1436882019043
 30
0.0
 41
0.5
 42
0.5
 50
89.9999999480344
 43
0.5
  0
INSERT
  5
   4DC
  8
0
  6
CONTINUOUS
 62
     7
  2
*HATCH119
 10
-516.638000488281
 20
-56.1436882019043
 30
0.0
 41
0.5
 42
0.5
 50
89.9999999480344
 43
0.5
  0
INSERT
  5
   4DD
  8
0
  6
CONTINUOUS
 62
     7
  2
*HATCH120
 10
-516.638000488281
 20
-56.1436882019043
 30
0.0
 41
0.5
 42
0.5
 50
89.9999999480344
 43
0.5
  0
INSERT
  5
   4DE
  8
0
  6
CONTINUOUS
 62
     7
  2
*HATCH121
 10
-516.638000488281
 20
-56.1436882019043
 30
0.0
 41
0.5
 42
0.5
 50
89.9999999480344
 43
0.5
  0
LINE
  5
   4DF
  8
0
  6
CONTINUOUS
 62
     7
 10
-516.887974538569
 20
-37.8647009471033
 30
0.0
 11
-516.887975000149
 21
-35.4420516339638
 31
0.0
  0
LINE
  5
   4E0
  8
0
  6
DASHDOT
 62
     7
 10
-488.743954545911
 20
-1.15014846803524
 30
0.0
 11
-576.017107143739
 21
-1.15014846803524
 31
0.0
  0
LINE
  5
   4E1
  8
0
  6
CONTINUOUS
 62
     7
 10
-558.137981639256
 20
54.4748600223833
 30
0.0
 11
-558.137981639256
 21
57.4748344421387
 31
0.0
  0
LINE
  5
   4E2
  8
0
  6
CONTINUOUS
 62
     7
 10
-536.663203145249
 20
47.2410196075197
 30
0.0
 11
-548.740206702033
 21
47.2410196075197
 31
0.0
  0
LINE
  5
   4E3
  8
0
  6
CONTINUOUS
 62
     7
 10
-536.663203145249
 20
47.2410196075197
 30
0.0
 11
-529.204921207396
 21
63.6973578187818
 31
0.0
  0
LINE
  5
   4E4
  8
0
  6
CONTINUOUS
 62
     2
 10
-553.13798259293
 20
47.4748600223834
 30
0.0
 11
-556.13798259293
 21
47.4748600223834
 31
0.0
  0
LINE
  5
   4E5
  8
0
  6
CONTINUOUS
 62
     2
 10
-553.13798259293
 20
54.5998600223834
 30
0.0
 11
-556.13798259293
 21
54.5998600223834
 31
0.0
  0
LINE
  5
   4E6
  8
0
  6
CONTINUOUS
 62
     2
 10
-553.13798259293
 20
50.3498600223834
 30
0.0
 11
-556.13798259293
 21
50.3498600223834
 31
0.0
  0
LINE
  5
   4E7
  8
0
  6
CONTINUOUS
 62
     1
 10
-567.88798117732
 20
63.2248755305922
 30
0.0
 11
-567.88798117732
 21
64.2248755305922
 31
0.0
  0
LINE
  5
   4E8
  8
0
  6
CONTINUOUS
 62
     3
 10
-558.63798163753
 20
62.7248752921737
 30
0.0
 11
-558.137981637534
 21
62.7248829215682
 31
0.0
  0
LINE
  5
   4E9
  8
0
  6
CONTINUOUS
 62
     3
 10
-557.637981104435
 20
62.2248805873041
 30
0.0
 11
-558.137981087321
 21
62.7248805701898
 31
0.0
  0
LINE
  5
   4EA
  8
0
  6
CONTINUOUS
 62
     3
 10
-557.637981639256
 20
61.474882910567
 30
0.0
 11
-557.637981639256
 21
62.224882910567
 31
0.0
  0
LINE
  5
   4EB
  8
0
  6
CONTINUOUS
 62
     3
 10
-558.637981638522
 20
61.4748752838863
 30
0.0
 11
-557.637981638538
 21
61.4748829132809
 31
0.0
  0
LINE
  5
   4EC
  8
0
  6
CONTINUOUS
 62
     3
 10
-557.637981639256
 20
61.4748600223834
 30
0.0
 11
-558.637981639256
 21
61.4748600223834
 31
0.0
  0
LINE
  5
   4ED
  8
0
  6
CONTINUOUS
 62
     3
 10
-558.387981639256
 20
48.2248600223834
 30
0.0
 11
-558.387981639256
 21
56.7248600223834
 31
0.0
  0
LINE
  5
   4EE
  8
0
  6
CONTINUOUS
 62
     3
 10
-558.637981639256
 20
58.2248600223834
 30
0.0
 11
-560.262983069767
 21
58.2248600223834
 31
0.0
  0
LINE
  5
   4EF
  8
0
  6
CONTINUOUS
 62
     3
 10
-558.637981639256
 20
58.2248600223834
 30
0.0
 11
-558.637981639256
 21
61.4748600223834
 31
0.0
  0
LINE
  5
   4F0
  8
0
  6
CONTINUOUS
 62
     3
 10
-565.637981639256
 20
47.4748600223834
 30
0.0
 11
-566.387981639256
 21
47.4748600223834
 31
0.0
  0
LINE
  5
   4F1
  8
0
  6
CONTINUOUS
 62
     3
 10
-565.637981639256
 20
47.4748523929888
 30
0.0
 11
-566.387981639256
 21
47.4748523929888
 31
0.0
  0
LINE
  5
   4F2
  8
0
  6
CONTINUOUS
 62
     3
 10
-558.637981639256
 20
62.7248676517779
 30
0.0
 11
-566.387981639256
 21
62.7248676517779
 31
0.0
  0
LINE
  5
   4F3
  8
0
  6
CONTINUOUS
 62
     3
 10
-566.387981639256
 20
47.4748600223834
 30
0.0
 11
-566.387981639256
 21
62.7248676517779
 31
0.0
  0
LINE
  5
   4F4
  8
0
  6
CONTINUOUS
 62
     3
 10
-558.637981639256
 20
61.4748676517779
 30
0.0
 11
-558.637981639256
 21
62.7248676517779
 31
0.0
  0
LINE
  5
   4F5
  8
0
  6
CONTINUOUS
 62
     3
 10
-558.637981639256
 20
59.8748691776568
 30
0.0
 11
-559.137981639256
 21
59.8748691776568
 31
0.0
  0
LINE
  5
   4F6
  8
0
  6
CONTINUOUS
 62
     3
 10
-559.137981073172
 20
59.8748668965543
 30
0.0
 11
-559.337980889298
 21
60.0748638467177
 31
0.0
  0
LINE
  5
   4F7
  8
0
  6
CONTINUOUS
 62
     3
 10
-565.637981418998
 20
47.474859796199
 30
0.0
 11
-558.637981573305
 21
61.4748678842317
 31
0.0
  0
LINE
  5
   4F8
  8
0
  6
CONTINUOUS
 62
   210
 10
-558.137981639256
 20
49.2248600223834
 30
0.0
 11
-558.137981639256
 21
55.7248600223834
 31
0.0
  0
LINE
  5
   4F9
  8
0
  6
CONTINUOUS
 62
     3
 10
-558.387981639256
 20
48.2248600223834
 30
0.0
 11
-565.262984500279
 21
48.2248600223834
 31
0.0
  0
LINE
  5
   4FA
  8
0
  6
CONTINUOUS
 62
     3
 10
-558.387981639256
 20
56.7248600223834
 30
0.0
 11
-561.012984023442
 21
56.7248600223834
 31
0.0
  0
LINE
  5
   4FB
  8
0
  6
CONTINUOUS
 62
     3
 10
-558.637981639256
 20
62.2248676517779
 30
0.0
 11
-566.387981639256
 21
62.2248676517779
 31
0.0
  0
LINE
  5
   4FC
  8
0
  6
CONTINUOUS
 62
     3
 10
-565.387981639256
 20
47.9748676517779
 30
0.0
 11
-566.387981639256
 21
47.9748676517779
 31
0.0
  0
LINE
  5
   4FD
  8
0
  6
CONTINUOUS
 62
   210
 10
-558.137981639256
 20
55.7248600223834
 30
0.0
 11
-558.387981639256
 21
55.7248600223834
 31
0.0
  0
LINE
  5
   4FE
  8
0
  6
CONTINUOUS
 62
   210
 10
-558.137981639256
 20
49.2248600223834
 30
0.0
 11
-558.387981639256
 21
49.2248600223834
 31
0.0
  0
LINE
  5
   4FF
  8
0
  6
CONTINUOUS
 62
     2
 10
-518.013023376471
 20
62.7248344421387
 30
0.0
 11
-543.388023121338
 21
62.7248344421387
 31
0.0
  0
LINE
  5
   500
  8
0
  6
CONTINUOUS
 62
     2
 10
-517.388023376471
 20
49.7248515319648
 30
0.0
 11
-517.388023376471
 21
62.0998344421387
 31
0.0
  0
ARC
  5
   501
  8
0
  6
CONTINUOUS
 62
     2
 10
-518.013023376471
 20
62.0998344421387
 30
0.0
 40
0.625
 50
359.999999948034
 51
449.999999948034
  0
LINE
  5
   502
  8
0
  6
CONTINUOUS
 62
     2
 10
-517.387977600098
 20
49.7248515319648
 30
0.0
 11
-517.888023376471
 21
49.7248515319648
 31
0.0
  0
LINE
  5
   503
  8
0
  6
CONTINUOUS
 62
     2
 10
-517.888023376471
 20
49.2248515319648
 30
0.0
 11
-517.888023376471
 21
49.7248515319648
 31
0.0
  0
INSERT
  5
   504
  8
0
  6
CONTINUOUS
 62
     2
  2
*HATCH122
 10
-516.638000488281
 20
-56.1436882019043
 30
0.0
 41
0.5
 42
0.5
 50
89.9999999480344
 43
0.5
  0
INSERT
  5
   505
  8
0
  6
CONTINUOUS
 62
     2
  2
*HATCH123
 10
-516.638000488281
 20
-56.1436882019043
 30
0.0
 41
0.5
 42
0.5
 50
89.9999999480344
 43
0.5
  0
INSERT
  5
   506
  8
0
  6
CONTINUOUS
 62
     2
  2
*HATCH124
 10
-516.638000488281
 20
-56.1436882019043
 30
0.0
 41
0.5
 42
0.5
 50
89.9999999480344
 43
0.5
  0
LINE
  5
   507
  8
0
  6
CONTINUOUS
 62
     7
 10
-552.63798259293
 20
47.9748600223834
 30
0.0
 11
-552.63798259293
 21
56.9748600223834
 31
0.0
  0
LINE
  5
   508
  8
0
  6
CONTINUOUS
 62
     7
 10
-552.63798259293
 20
56.9748600223834
 30
0.0
 11
-553.13798259293
 21
56.9748600223834
 31
0.0
  0
LINE
  5
   509
  8
0
  6
CONTINUOUS
 62
     7
 10
-552.63798259293
 20
47.9748600223834
 30
0.0
 11
-553.13798259293
 21
47.9748600223834
 31
0.0
  0
INSERT
  5
   50A
  8
255
  6
CONTINUOUS
 62
     7
  2
PROLUNGATI
 10
-558.137981639256
 20
-56.525191138106
 30
0.0
 41
0.5
 42
-0.5
 50
1.03931142803049E-7
 43
0.5
  0
LINE
  5
   50B
  8
0
  6
CONTINUOUS
 62
     7
 10
-566.387981639256
 20
-65.5251332092462
 30
0.0
 11
-567.13797044754
 21
-65.5251332092462
 31
0.0
  0
LINE
  5
   50C
  8
0
  6
CONTINUOUS
 62
     7
 10
-552.63798259293
 20
-61.0251399776167
 30
0.0
 11
-552.63798259293
 21
-52.0251399776167
 31
0.0
  0
LINE
  5
   50D
  8
0
  6
CONTINUOUS
 62
     7
 10
-552.63798259293
 20
-61.0251399776167
 30
0.0
 11
-553.13798259293
 21
-61.0251399776167
 31
0.0
  0
LINE
  5
   50E
  8
0
  6
CONTINUOUS
 62
     7
 10
-552.63798259293
 20
-52.0251399776167
 30
0.0
 11
-553.13798259293
 21
-52.0251399776167
 31
0.0
  0
LINE
  5
   50F
  8
0
  6
CONTINUOUS
 62
     7
 10
-553.13798259293
 20
-58.5251399776167
 30
0.0
 11
-556.13798259293
 21
-58.5251399776167
 31
0.0
  0
LINE
  5
   510
  8
0
  6
CONTINUOUS
 62
     7
 10
-553.13798259293
 20
-58.1251399776166
 30
0.0
 11
-558.137981639256
 21
-58.1251399776166
 31
0.0
  0
LINE
  5
   511
  8
0
  6
CONTINUOUS
 62
     7
 10
-553.13798259293
 20
-54.9251399776167
 30
0.0
 11
-558.137981639256
 21
-54.9251399776167
 31
0.0
  0
LINE
  5
   512
  8
0
  6
CONTINUOUS
 62
     7
 10
-553.13798259293
 20
-54.5251399776167
 30
0.0
 11
-556.13798259293
 21
-54.5251399776167
 31
0.0
  0
LINE
  5
   513
  8
0
  6
CONTINUOUS
 62
     7
 10
-553.13798259293
 20
-61.0251399776167
 30
0.0
 11
-553.13798259293
 21
-52.0251399776167
 31
0.0
  0
LINE
  5
   514
  8
0
  6
CONTINUOUS
 62
     7
 10
-555.637981639256
 20
-61.5251655578613
 30
0.0
 11
-555.637981639256
 21
-58.5251399776167
 31
0.0
  0
LINE
  5
   515
  8
0
  6
CONTINUOUS
 62
     1
 10
-552.43798259293
 20
-60.1201399776167
 30
0.0
 11
-552.43798259293
 21
-52.9301399776167
 31
0.0
  0
ARC
  5
   516
  8
0
  6
CONTINUOUS
 62
     1
 10
-551.261150403374
 20
-59.2213899776166
 30
0.0
 40
1.37316781044413
 50
319.117607838934
 51
400.882392057134
  0
ARC
  5
   517
  8
0
  6
CONTINUOUS
 62
     1
 10
-551.261150403374
 20
-53.8288899776166
 30
0.0
 40
1.37316781044413
 50
319.117607838934
 51
400.882392057134
  0
LINE
  5
   518
  8
0
  6
CONTINUOUS
 62
     1
 10
-550.196384836199
 20
-58.3226399776166
 30
0.0
 11
-552.43798259293
 21
-58.3226399776166
 31
0.0
  0
ARC
  5
   519
  8
0
  6
CONTINUOUS
 62
     1
 10
-555.28048259293
 20
-56.5251399776167
 30
0.0
 40
5.3925
 50
340.528779313544
 51
379.471220582525
  0
LINE
  5
   51A
  8
0
  6
CONTINUOUS
 62
     1
 10
-550.196384836199
 20
-54.7276399776166
 30
0.0
 11
-552.43798259293
 21
-54.7276399776166
 31
0.0
  0
LINE
  5
   51B
  8
0
  6
CONTINUOUS
 62
     1
 10
-550.222960501122
 20
-60.1201399776166
 30
0.0
 11
-552.43798259293
 21
-60.1201399776166
 31
0.0
  0
LINE
  5
   51C
  8
0
  6
CONTINUOUS
 62
     1
 10
-550.222960501122
 20
-52.9301399776167
 30
0.0
 11
-552.43798259293
 21
-52.9301399776167
 31
0.0
  0
LINE
  5
   51D
  8
0
  6
CONTINUOUS
 62
     1
 10
-552.43798259293
 20
-59.5751399776166
 30
0.0
 11
-552.63798259293
 21
-59.5751399776166
 31
0.0
  0
LINE
  5
   51E
  8
0
  6
CONTINUOUS
 62
     1
 10
-552.43798259293
 20
-53.4751399776167
 30
0.0
 11
-552.63798259293
 21
-53.4751399776167
 31
0.0
  0
LINE
  5
   51F
  8
0
  6
CONTINUOUS
 62
     7
 10
-553.88798259293
 20
-54.9085337276167
 30
0.0
 11
-557.63798259293
 21
-54.9085337276167
 31
0.0
  0
LINE
  5
   520
  8
0
  6
CONTINUOUS
 62
     1
 10
-553.13798259293
 20
-54.5251399776167
 30
0.0
 11
-557.63798259293
 21
-54.5251399776167
 31
0.0
  0
LINE
  5
   521
  8
0
  6
CONTINUOUS
 62
     1
 10
-553.13798259293
 20
-58.5251399776167
 30
0.0
 11
-557.63798259293
 21
-58.5251399776167
 31
0.0
  0
LINE
  5
   522
  8
0
  6
CONTINUOUS
 62
     1
 10
-553.88798259293
 20
-58.5251399776167
 30
0.0
 11
-553.88798259293
 21
-54.5251399776167
 31
0.0
  0
LINE
  5
   523
  8
0
  6
CONTINUOUS
 62
     1
 10
-549.88798259293
 20
-59.2213899776167
 30
0.0
 11
-549.88798259293
 21
-53.8288899776167
 31
0.0
  0
LINE
  5
   524
  8
0
  6
DASHDOT
 62
     7
 10
-547.88798259293
 20
-56.5251399776167
 30
0.0
 11
-559.63798259293
 21
-56.5251399776167
 31
0.0
  0
LINE
  5
   525
  8
0
  6
CONTINUOUS
 62
     1
 10
-552.43798259293
 20
48.8798600223833
 30
0.0
 11
-552.43798259293
 21
56.0698600223833
 31
0.0
  0
ARC
  5
   526
  8
0
  6
CONTINUOUS
 62
     1
 10
-551.261150403374
 20
55.1711100223833
 30
0.0
 40
1.37316781044413
 50
319.117607838934
 51
400.882392057134
  0
ARC
  5
   527
  8
0
  6
CONTINUOUS
 62
     1
 10
-551.261150403374
 20
49.7786100223833
 30
0.0
 40
1.37316781044413
 50
319.117607838934
 51
400.882392057134
  0
LINE
  5
   528
  8
0
  6
CONTINUOUS
 62
     1
 10
-550.196384836199
 20
54.2723600223834
 30
0.0
 11
-552.43798259293
 21
54.2723600223834
 31
0.0
  0
ARC
  5
   529
  8
0
  6
CONTINUOUS
 62
     1
 10
-555.28048259293
 20
52.4748600223834
 30
0.0
 40
5.3925
 50
340.528779313544
 51
379.471220582525
  0
LINE
  5
   52A
  8
0
  6
CONTINUOUS
 62
     1
 10
-550.196384836199
 20
50.6773600223834
 30
0.0
 11
-552.43798259293
 21
50.6773600223834
 31
0.0
  0
LINE
  5
   52B
  8
0
  6
CONTINUOUS
 62
     1
 10
-550.222960501122
 20
56.0698600223834
 30
0.0
 11
-552.43798259293
 21
56.0698600223834
 31
0.0
  0
LINE
  5
   52C
  8
0
  6
CONTINUOUS
 62
     1
 10
-550.222960501122
 20
48.8798600223834
 30
0.0
 11
-552.43798259293
 21
48.8798600223834
 31
0.0
  0
LINE
  5
   52D
  8
0
  6
CONTINUOUS
 62
     1
 10
-552.43798259293
 20
55.5248600223834
 30
0.0
 11
-552.63798259293
 21
55.5248600223834
 31
0.0
  0
LINE
  5
   52E
  8
0
  6
CONTINUOUS
 62
     1
 10
-552.43798259293
 20
49.4248600223834
 30
0.0
 11
-552.63798259293
 21
49.4248600223834
 31
0.0
  0
LINE
  5
   52F
  8
0
  6
CONTINUOUS
 62
     7
 10
-554.38798259293
 20
54.0914662723834
 30
0.0
 11
-558.13798259293
 21
54.0914662723834
 31
0.0
  0
LINE
  5
   530
  8
0
  6
CONTINUOUS
 62
     7
 10
-554.38798259293
 20
50.8582537723834
 30
0.0
 11
-558.13798259293
 21
50.8582537723834
 31
0.0
  0
LINE
  5
   531
  8
0
  6
CONTINUOUS
 62
     1
 10
-553.13798259293
 20
50.4748600223834
 30
0.0
 11
-557.63798259293
 21
50.4748600223834
 31
0.0
  0
LINE
  5
   532
  8
0
  6
CONTINUOUS
 62
     1
 10
-553.13798259293
 20
54.4748600223834
 30
0.0
 11
-557.63798259293
 21
54.4748600223834
 31
0.0
  0
LINE
  5
   533
  8
0
  6
CONTINUOUS
 62
     1
 10
-554.38798259293
 20
50.4748600223833
 30
0.0
 11
-554.38798259293
 21
54.4748600223833
 31
0.0
  0
LINE
  5
   534
  8
0
  6
CONTINUOUS
 62
     1
 10
-549.88798259293
 20
49.7786100223833
 30
0.0
 11
-549.88798259293
 21
55.1711100223833
 31
0.0
  0
LINE
  5
   535
  8
0
  6
DASHDOT
 62
     7
 10
-547.88798259293
 20
52.4748600223834
 30
0.0
 11
-559.63798259293
 21
52.4748600223834
 31
0.0
  0
LINE
  5
   536
  8
0
  6
CONTINUOUS
 62
     7
 10
-555.63798259293
 20
57.4748600223834
 30
0.0
 11
-556.13798259293
 21
57.4748600223834
 31
0.0
  0
LINE
  5
   537
  8
0
  6
CONTINUOUS
 62
     7
 10
-556.13798259293
 20
54.4748600223834
 30
0.0
 11
-556.13798259293
 21
57.4748600223834
 31
0.0
  0
LINE
  5
   538
  8
0
  6
CONTINUOUS
 62
     7
 10
-556.13798259293
 20
47.4748600223834
 30
0.0
 11
-556.13798259293
 21
50.4748600223834
 31
0.0
  0
LINE
  5
   539
  8
0
  6
CONTINUOUS
 62
     2
 10
-555.63798259293
 20
47.4748600223834
 30
0.0
 11
-555.63798259293
 21
50.3498600223834
 31
0.0
  0
LINE
  5
   53A
  8
0
  6
DASHDOT
 62
     7
 10
-565.574823605504
 20
51.4748515319648
 30
0.0
 11
-576.950855163201
 21
51.4748515319648
 31
0.0
  0
LINE
  5
   53B
  8
0
  6
CONTINUOUS
 62
     7
 10
-569.637969970703
 20
53.4748515319648
 30
0.0
 11
-571.637969970703
 21
53.4748515319648
 31
0.0
  0
LINE
  5
   53C
  8
0
  6
CONTINUOUS
 62
     7
 10
-569.637969970703
 20
49.4748515319648
 30
0.0
 11
-571.637969970703
 21
49.4748515319648
 31
0.0
  0
LINE
  5
   53D
  8
0
  6
CONTINUOUS
 62
     7
 10
-571.637969970703
 20
49.4748515319648
 30
0.0
 11
-571.637969970703
 21
53.4748515319648
 31
0.0
  0
LINE
  5
   53E
  8
0
  6
CONTINUOUS
 62
     7
 10
-569.637969970703
 20
52.7248515319648
 30
0.0
 11
-573.637969970703
 21
52.7248515319648
 31
0.0
  0
LINE
  5
   53F
  8
0
  6
CONTINUOUS
 62
     7
 10
-569.637969970703
 20
50.2248515319648
 30
0.0
 11
-573.637969970703
 21
50.2248515319648
 31
0.0
  0
LINE
  5
   540
  8
0
  6
CONTINUOUS
 62
     7
 10
-573.637969970703
 20
50.2248515319648
 30
0.0
 11
-573.637969970703
 21
52.7248515319648
 31
0.0
  0
LINE
  5
   541
  8
0
  6
CONTINUOUS
 62
     7
 10
-569.637969970703
 20
-53.5251484680352
 30
0.0
 11
-571.637969970703
 21
-53.5251484680352
 31
0.0
  0
LINE
  5
   542
  8
0
  6
CONTINUOUS
 62
     7
 10
-569.637969970703
 20
-54.2751484680352
 30
0.0
 11
-573.637969970703
 21
-54.2751484680352
 31
0.0
  0
LINE
  5
   543
  8
0
  6
DASHDOT
 62
     7
 10
-565.574823605504
 20
-55.5251484680352
 30
0.0
 11
-576.950855163201
 21
-55.5251484680352
 31
0.0
  0
LINE
  5
   544
  8
0
  6
CONTINUOUS
 62
     7
 10
-569.637969970703
 20
-56.7751484680352
 30
0.0
 11
-573.637969970703
 21
-56.7751484680352
 31
0.0
  0
LINE
  5
   545
  8
0
  6
CONTINUOUS
 62
     7
 10
-569.637969970703
 20
-57.5251484680352
 30
0.0
 11
-571.637969970703
 21
-57.5251484680352
 31
0.0
  0
LINE
  5
   546
  8
0
  6
CONTINUOUS
 62
     7
 10
-571.637969970703
 20
-57.5251484680352
 30
0.0
 11
-571.637969970703
 21
-53.5251484680352
 31
0.0
  0
LINE
  5
   547
  8
0
  6
CONTINUOUS
 62
     7
 10
-573.637969970703
 20
-56.7751484680352
 30
0.0
 11
-573.637969970703
 21
-54.2751484680352
 31
0.0
  0
INSERT
  5
   548
  8
0
  6
CONTINUOUS
 62
     7
  2
*UDIM478
 10
0.0
 20
0.0
 30
0.0
  0
INSERT
  5
   549
  8
0
  6
CONTINUOUS
 62
     7
  2
*UDIM479
 10
0.0
 20
0.0
 30
0.0
  0
INSERT
  5
   54A
  8
0
  6
CONTINUOUS
 62
     7
  2
*UDIM480
 10
0.0
 20
0.0
 30
0.0
  0
POINT
  5
   54B
  8
0
  6
CONTINUOUS
 62
     7
 10
-555.638315783574
 20
-74.3753510602685
 30
0.0
  0
CIRCLE
  5
   54C
  8
0
  6
CONTINUOUS
 62
     7
 10
-555.638315783574
 20
-74.3753510602685
 30
0.0
 40
0.125
  0
CIRCLE
  5
   54D
  8
0
  6
CONTINUOUS
 62
     7
 10
-555.638315783574
 20
-74.3753510602685
 30
0.0
 40
0.175
  0
INSERT
  5
   54E
  8
0
  6
CONTINUOUS
 62
     7
  2
*UDIM481
 10
0.0
 20
0.0
 30
0.0
  0
INSERT
  5
   54F
  8
0
  6
CONTINUOUS
 62
     7
  2
*UDIM482
 10
0.0
 20
0.0
 30
0.0
  0
INSERT
  5
   550
  8
0
  6
CONTINUOUS
 62
     7
  2
*UDIM483
 10
0.0
 20
0.0
 30
0.0
  0
INSERT
  5
   551
  8
0
  6
CONTINUOUS
 62
     7
  2
*UDIM484
 10
0.0
 20
0.0
 30
0.0
  0
INSERT
  5
   552
  8
0
  6
CONTINUOUS
 62
     7
  2
*UDIM485
 10
0.0
 20
0.0
 30
0.0
  0
TEXT
  5
   553
  8
0
  6
CONTINUOUS
 62
     1
 10
-394.284851076023
 20
-139.790741129038
 30
0.0
 40
4.00000017881393
  1
605032/361
 50
359.999999948034
 41
0.937499973922969
 72
     2
 11
-357.534850476251
 21
-139.790741162184
 31
0.0
  0
TEXT
  5
   554
  8
0
  6
CONTINUOUS
 62
     1
 10
-496.576644898363
 20
-113.759197311121
 30
0.0
 40
2.00000008940697
  1
97-04-01 COLLEONI M.
 50
359.999999948034
 41
0.749999861419206
 72
     2
 11
-466.876649066218
 21
-113.759197337908
 31
0.0
  0
TEXT
  5
   555
  8
0
  6
CONTINUOUS
 62
     1
 10
-489.342240320941
 20
-128.750269891094
 30
0.0
 40
2.00000008940697
  1
M 4364 97-04-01
 50
359.999999948034
 41
0.749999861419206
 72
     2
 11
-467.142243438263
 21
-128.750269911117
 31
0.0
  0
TEXT
  5
   556
  8
0
  6
CONTINUOUS
 62
     1
 10
-405.583577463933
 20
-113.498886126855
 30
0.0
 40
2.00000008940697
  1
3POLE LOW VOLTAGE M.C.C.B SERIES ISOMAX
 50
359.999999948034
 41
0.749999861419206
 72
     1
 11
-376.483581542969
 21
-112.498886108398
 31
0.0
 73
     2
  0
TEXT
  5
   557
  8
0
  6
CONTINUOUS
 62
     1
 10
-410.083576833614
 20
-116.498886122797
 30
0.0
 40
2.00000008940697
  1
FIXED VERS. SPREADED EXTENDED FRONT TERMINALS
 50
359.999999948034
 41
0.749999861419206
 72
     1
 11
-376.483581542969
 21
-115.498886108398
 31
0.0
 73
     2
  0
TEXT
  5
   558
  8
0
  6
CONTINUOUS
 62
     1
 10
-401.381185831286
 20
-120.569152856576
 30
0.0
 40
2.00000008940697
  1
INTERR.AUTOMATICO SERIE ISOMAX
 50
359.999999948034
 41
0.749999861419206
 72
     1
 11
-379.031188964844
 21
-119.569152832031
 31
0.0
 73
     2
  0
TEXT
  5
   559
  8
0
  6
CONTINUOUS
 62
     1
 10
-415.631183835276
 20
-123.569152843724
 30
0.0
 40
2.00000008940697
  1
TRIPOL.ESECUZIONE FISSA TERMINALI ANT.PROL.DIVAR.
 50
359.999999948034
 41
0.749999861419206
 72
     1
 11
-379.031188964844
 21
-122.569152832031
 31
0.0
 73
     2
  0
LINE
  5
   55A
  8
0
  6
CONTINUOUS
 62
     1
 10
-517.38798117732
 20
63.2248755305922
 30
0.0
 11
-517.38798117732
 21
64.2248755305922
 31
0.0
  0
LINE
  5
   55B
  8
0
  6
CONTINUOUS
 62
     1
 10
-555.637981639256
 20
64.2248755305922
 30
0.0
 11
-567.88798117732
 21
64.2248755305922
 31
0.0
  0
LINE
  5
   55C
  8
0
  6
CONTINUOUS
 62
     1
 10
-567.88798117732
 20
63.2248755305922
 30
0.0
 11
-567.88798117732
 21
64.2248755305922
 31
0.0
  0
LINE
  5
   55D
  8
0
  6
CONTINUOUS
 62
     1
 10
-566.387981639256
 20
62.7248755305923
 30
0.0
 11
-567.387981162419
 21
62.7248755305923
 31
0.0
  0
LINE
  5
   55E
  8
0
  6
CONTINUOUS
 62
     1
 10
-555.637981639256
 20
62.7248755305923
 30
0.0
 11
-558.137976047723
 21
62.7248755305923
 31
0.0
  0
LINE
  5
   55F
  8
0
  6
CONTINUOUS
 62
     1
 10
-555.637981639256
 20
60.0748753160155
 30
0.0
 11
-557.762981639256
 21
60.0748753160155
 31
0.0
  0
LINE
  5
   560
  8
0
  6
CONTINUOUS
 62
     1
 10
-555.63798259293
 20
58.4748752921737
 30
0.0
 11
-558.262981639256
 21
58.4748752921737
 31
0.0
  0
LINE
  5
   561
  8
0
  6
CONTINUOUS
 62
     1
 10
-552.512981639256
 20
58.4748752921737
 30
0.0
 11
-552.512981639256
 21
62.7248752921737
 31
0.0
  0
LINE
  5
   562
  8
0
  6
CONTINUOUS
 62
     1
 10
-558.262981639256
 20
58.4748753666795
 30
0.0
 11
-558.262981639256
 21
61.4748753666795
 31
0.0
  0
LINE
  5
   563
  8
0
  6
CONTINUOUS
 62
     1
 10
-567.88798117732
 20
64.2248755305922
 30
0.0
 11
-567.88798117732
 21
130.22488461924
 31
0.0
  0
LINE
  5
   564
  8
0
  6
CONTINUOUS
 62
     1
 10
-517.38798117732
 20
64.2248755305922
 30
0.0
 11
-517.38798117732
 21
130.22488461924
 31
0.0
  0
LINE
  5
   565
  8
0
  6
CONTINUOUS
 62
     1
 10
-552.512982043795
 20
59.5748754942179
 30
0.0
 11
-553.012981865592
 21
60.0748753160155
 31
0.0
  0
LINE
  5
   566
  8
0
  6
CONTINUOUS
 62
     1
 10
-558.262981863667
 20
59.5748752845681
 30
0.0
 11
-557.762981880781
 21
60.0748752674538
 31
0.0
  0
LINE
  5
   567
  8
0
  6
CONTINUOUS
 62
     1
 10
-517.887981810548
 20
62.7248752909925
 30
0.0
 11
-517.387981827662
 21
63.2248752738782
 31
0.0
  0
LINE
  5
   568
  8
0
  6
CONTINUOUS
 62
     1
 10
-567.387981173041
 20
62.7248755006423
 30
0.0
 11
-567.887981155927
 21
63.224875483528
 31
0.0
  0
LINE
  5
   569
  8
0
  6
CONTINUOUS
 62
     1
 10
-552.512981639256
 20
58.4748752921737
 30
0.0
 11
-553.13798259293
 21
58.4748752921737
 31
0.0
  0
LINE
  5
   56A
  8
0
  6
CONTINUOUS
 62
     1
 10
-517.38798117732
 20
64.2248755305922
 30
0.0
 11
-553.137981639256
 21
64.2248755305922
 31
0.0
  0
LINE
  5
   56B
  8
0
  6
CONTINUOUS
 62
     1
 10
-517.887981570948
 20
62.7248755305923
 30
0.0
 11
-553.137981639256
 21
62.7248755305923
 31
0.0
  0
LINE
  5
   56C
  8
0
  6
CONTINUOUS
 62
     1
 10
-517.38798117732
 20
130.22488461924
 30
0.0
 11
-567.88798117732
 21
130.22488461924
 31
0.0
  0
LINE
  5
   56D
  8
0
  6
CONTINUOUS
 62
     1
 10
-553.012981865592
 20
60.0748753160155
 30
0.0
 11
-553.137981639256
 21
60.0748753160155
 31
0.0
  0
INSERT
  5
   56E
  8
0
  6
CONTINUOUS
 62
     7
  2
*UDIM486
 10
0.0
 20
0.0
 30
0.0
  0
INSERT
  5
   56F
  8
0
  6
CONTINUOUS
 62
     7
  2
*UDIM487
 10
0.0
 20
0.0
 30
0.0
  0
LINE
  5
   570
  8
0
  6
CONTINUOUS
 62
     7
 10
-570.629499088265
 20
116.828366312458
 30
0.0
 11
-514.480544114917
 21
118.938009129376
 31
0.0
  0
LINE
  5
   571
  8
0
  6
CONTINUOUS
 62
     7
 10
-553.617146716465
 20
66.554114172774
 30
0.0
 11
-546.215363726964
 21
70.0056217411334
 31
0.0
  0
LINE
  5
   572
  8
0
  6
CONTINUOUS
 62
     7
 10
-546.215363726964
 20
70.0056217411335
 30
0.0
 11
-545.794591174473
 21
70.3746326664265
 31
0.0
  0
LINE
  5
   573
  8
0
  6
CONTINUOUS
 62
     7
 10
-545.63798259293
 20
70.9119327762897
 30
0.0
 11
-545.63798259293
 21
74.1061619022662
 31
0.0
  0
LINE
  5
   574
  8
0
  6
CONTINUOUS
 62
     7
 10
-545.63798259293
 20
80.3498600223834
 30
0.0
 11
-545.63798259293
 21
84.5998600223834
 31
0.0
  0
LINE
  5
   575
  8
0
  6
CONTINUOUS
 62
     7
 10
-545.63798259293
 20
84.5998600223834
 30
0.0
 11
-545.63798259293
 21
88.7248523929889
 31
0.0
  0
LINE
  5
   576
  8
0
  6
CONTINUOUS
 62
     7
 10
-543.137981639256
 20
88.7248523929889
 30
0.0
 11
-545.63798259293
 21
88.7248523929889
 31
0.0
  0
LINE
  5
   577
  8
0
  6
CONTINUOUS
 62
     7
 10
-543.137981639256
 20
84.5998600223834
 30
0.0
 11
-543.137981639256
 21
88.7248523929889
 31
0.0
  0
LINE
  5
   578
  8
0
  6
CONTINUOUS
 62
     7
 10
-543.137981639256
 20
84.5998600223834
 30
0.0
 11
-545.63798259293
 21
84.5998600223834
 31
0.0
  0
LINE
  5
   579
  8
0
  6
CONTINUOUS
 62
     7
 10
-543.137981639256
 20
80.3498600223834
 30
0.0
 11
-545.63798259293
 21
80.3498600223834
 31
0.0
  0
LINE
  5
   57A
  8
0
  6
CONTINUOUS
 62
     7
 10
-543.137981639256
 20
74.1061619022662
 30
0.0
 11
-543.137981639256
 21
80.3498600223834
 31
0.0
  0
LINE
  5
   57B
  8
0
  6
CONTINUOUS
 62
     7
 10
-545.63798259293
 20
74.1061619022662
 30
0.0
 11
-545.63798259293
 21
80.3498600223834
 31
0.0
  0
LINE
  5
   57C
  8
0
  6
CONTINUOUS
 62
     7
 10
-543.137981639256
 20
80.3498600223834
 30
0.0
 11
-543.137981639256
 21
84.5998600223834
 31
0.0
  0
LINE
  5
   57D
  8
0
  6
CONTINUOUS
 62
     7
 10
-543.137981639256
 20
70.9119327762897
 30
0.0
 11
-543.137981639256
 21
74.1061619022662
 31
0.0
  0
LINE
  5
   57E
  8
0
  6
CONTINUOUS
 62
     7
 10
-545.794591174473
 20
70.3746326664265
 30
0.0
 11
-545.63798259293
 21
70.9119327762897
 31
0.0
  0
ARC
  5
   57F
  8
0
  6
CONTINUOUS
 62
     7
 10
-546.637997821346
 20
70.9119369996981
 30
0.0
 40
3.50001618209298
 50
295.000173873923
 51
359.999930808182
  0
LINE
  5
   580
  8
0
  6
CONTINUOUS
 62
     7
 10
-552.560609992371
 20
64.2883393456419
 30
0.0
 11
-545.158818469395
 21
67.7398517826374
 31
0.0
  0
LINE
  5
   581
  8
0
  6
CONTINUOUS
 62
     7
 10
-551.196090756354
 20
64.0191060518609
 30
0.0
 11
-553.13798259293
 21
64.0191060518609
 31
0.0
  0
LINE
  5
   582
  8
0
  6
CONTINUOUS
 62
     7
 10
-553.13798259293
 20
54.5998600223834
 30
0.0
 11
-553.13798259293
 21
63.3820458614181
 31
0.0
  0
ARC
  5
   583
  8
0
  6
CONTINUOUS
 62
     7
 10
-552.137998355357
 20
63.3820458614181
 30
0.0
 40
0.999984237584987
 50
115.000002273657
 51
179.999999948034
  0
ARC
  5
   584
  8
0
  6
CONTINUOUS
 62
     7
 10
-552.137959778909
 20
63.3820136576847
 30
0.0
 40
3.50003081044566
 50
115.000180579361
 51
179.999555486069
  0
LINE
  5
   585
  8
0
  6
CONTINUOUS
 62
     7
 10
-555.63798259293
 20
54.5998600223834
 30
0.0
 11
-555.63798259293
 21
63.3820408085162
 31
0.0
  0
LINE
  5
   586
  8
0
  6
CONTINUOUS
 62
     7
 10
-553.13798259293
 20
54.5998600223834
 30
0.0
 11
-555.63798259293
 21
54.5998600223834
 31
0.0
  0
LINE
  5
   587
  8
0
  6
CONTINUOUS
 62
     7
 10
-553.13798259293
 20
50.3498600223834
 30
0.0
 11
-555.63798259293
 21
50.3498600223834
 31
0.0
  0
LINE
  5
   588
  8
0
  6
CONTINUOUS
 62
     7
 10
-555.63798259293
 20
47.4748600223834
 30
0.0
 11
-555.63798259293
 21
50.3498600223834
 31
0.0
  0
LINE
  5
   589
  8
0
  6
CONTINUOUS
 62
     7
 10
-553.13798259293
 20
47.4748600223834
 30
0.0
 11
-555.63798259293
 21
47.4748600223834
 31
0.0
  0
LINE
  5
   58A
  8
0
  6
CONTINUOUS
 62
     7
 10
-553.13798259293
 20
47.4748600223834
 30
0.0
 11
-553.13798259293
 21
50.3498600223834
 31
0.0
  0
LINE
  5
   58B
  8
0
  6
CONTINUOUS
 62
     7
 10
-553.13798259293
 20
50.3498600223834
 30
0.0
 11
-553.13798259293
 21
54.5998600223834
 31
0.0
  0
LINE
  5
   58C
  8
0
  6
CONTINUOUS
 62
     7
 10
-555.63798259293
 20
57.4748600223834
 30
0.0
 11
-556.13798259293
 21
57.4748600223834
 31
0.0
  0
LINE
  5
   58D
  8
0
  6
CONTINUOUS
 62
     7
 10
-556.13798259293
 20
54.5998600223834
 30
0.0
 11
-556.13798259293
 21
57.4748600223834
 31
0.0
  0
LINE
  5
   58E
  8
0
  6
CONTINUOUS
 62
     7
 10
-555.63798259293
 20
49.4748600223834
 30
0.0
 11
-556.13798259293
 21
49.4748600223834
 31
0.0
  0
LINE
  5
   58F
  8
0
  6
DASHDOT
 62
     7
 10
-552.13798259293
 20
52.4748600223834
 30
0.0
 11
-556.63798259293
 21
52.4748600223834
 31
0.0
  0
LINE
  5
   590
  8
0
  6
DASHDOT
 62
     7
 10
-542.137981639256
 20
82.4748600223834
 30
0.0
 11
-546.63798259293
 21
82.4748600223834
 31
0.0
  0
INSERT
  5
   591
  8
0
  6
CONTINUOUS
 62
     7
  2
*HATCH125
 10
-516.638000488281
 20
-56.1436882019043
 30
0.0
 41
0.5
 42
0.5
 50
89.9999999480344
 43
0.5
  0
INSERT
  5
   592
  8
0
  6
CONTINUOUS
 62
     7
  2
*HATCH126
 10
-516.638000488281
 20
-56.1436882019043
 30
0.0
 41
0.5
 42
0.5
 50
89.9999999480344
 43
0.5
  0
INSERT
  5
   593
  8
0
  6
CONTINUOUS
 62
     7
  2
*HATCH127
 10
-516.638000488281
 20
-56.1436882019043
 30
0.0
 41
0.5
 42
0.5
 50
89.9999999480344
 43
0.5
  0
INSERT
  5
   594
  8
0
  6
CONTINUOUS
 62
     7
  2
*UDIM488
 10
0.0
 20
0.0
 30
0.0
  0
INSERT
  5
   595
  8
0
  6
CONTINUOUS
 62
     7
  2
*UDIM489
 10
0.0
 20
0.0
 30
0.0
  0
INSERT
  5
   596
  8
0
  6
CONTINUOUS
 62
     7
  2
*UDIM490
 10
0.0
 20
0.0
 30
0.0
  0
INSERT
  5
   597
  8
0
  6
CONTINUOUS
 62
     7
  2
*UDIM491
 10
0.0
 20
0.0
 30
0.0
  0
INSERT
  5
   598
  8
0
  6
CONTINUOUS
 62
     7
  2
*UDIM492
 10
0.0
 20
0.0
 30
0.0
  0
INSERT
  5
   599
  8
0
  6
CONTINUOUS
 62
     5
  2
*UDIM493
 10
0.0
 20
0.0
 30
0.0
  0
INSERT
  5
   59A
  8
0
  6
CONTINUOUS
 62
     7
  2
*UDIM494
 10
0.0
 20
0.0
 30
0.0
  0
INSERT
  5
   59B
  8
0
  6
CONTINUOUS
 62
     7
  2
*UDIM495
 10
0.0
 20
0.0
 30
0.0
  0
TEXT
  5
   59C
  8
0
  6
CONTINUOUS
 62
     5
 10
-477.441364300535
 20
-15.3586524187203
 30
0.0
 40
3.00000002980232
  1
=        =
 50
89.9999999480344
 41
0.916666604744064
 72
     2
 11
-477.441364276126
 21
11.5913460241084
 31
0.0
  0
INSERT
  5
   59D
  8
0
  6
CONTINUOUS
 62
     7
  2
*UDIM496
 10
0.0
 20
0.0
 30
0.0
  0
INSERT
  5
   59E
  8
0
  6
CONTINUOUS
 62
     7
  2
*UDIM497
 10
0.0
 20
0.0
 30
0.0
  0
TEXT
  5
   59F
  8
0
  6
CONTINUOUS
 62
     1
 10
-376.19915765063
 20
-130.809154429882
 30
0.0
 40
3.00000002980232
  1
S4
 50
359.999999948034
 41
0.916666604744064
 72
     2
 11
-371.249157940209
 21
-130.809154434347
 31
0.0
  0
INSERT
  5
   5A0
  8
0
  6
CONTINUOUS
 62
     7
  2
*UDIM498
 10
0.0
 20
0.0
 30
0.0
  0
TEXT
  5
   5A1
  8
0
  6
CONTINUOUS
 62
     7
 10
-473.236606509845
 20
-2.52115935613954
 30
0.0
 40
3.00000002980232
  1
X
 50
359.999999948034
 41
0.916666604744064
 72
     1
 11
-472.136606574057
 21
-1.02115934223052
 31
0.0
 73
     2
  0
LINE
  5
   5A2
  8
0
  6
CONTINUOUS
 62
     7
 10
-674.921528044815
 20
-27.4001502990723
 30
0.0
 11
-679.921528044816
 21
-27.4001502990723
 31
0.0
  0
LINE
  5
   5A3
  8
0
  6
CONTINUOUS
 62
     7
 10
-687.421528044815
 20
24.0998344421387
 30
0.0
 11
-687.421528044815
 21
25.0998344421387
 31
0.0
  0
LINE
  5
   5A4
  8
0
  6
CONTINUOUS
 62
     7
 10
-679.921528044816
 20
-27.4001502990723
 30
0.0
 11
-687.421528044815
 21
-27.4001502990723
 31
0.0
  0
LINE
  5
   5A5
  8
0
  6
CONTINUOUS
 62
     7
 10
-661.171543303605
 20
-27.4001502990723
 30
0.0
 11
-674.921528044815
 21
-27.4001502990723
 31
0.0
  0
LINE
  5
   5A6
  8
0
  6
CONTINUOUS
 62
    52
 10
-642.421558562394
 20
-27.4001502990723
 30
0.0
 11
-647.421558562394
 21
-27.4001502990723
 31
0.0
  0
LINE
  5
   5A7
  8
0
  6
CONTINUOUS
 62
    52
 10
-634.921558562394
 20
-27.4001502990723
 30
0.0
 11
-642.421558562394
 21
-27.4001502990723
 31
0.0
  0
LINE
  5
   5A8
  8
0
  6
CONTINUOUS
 62
    52
 10
-647.421558562394
 20
-27.4001502990723
 30
0.0
 11
-661.171543303605
 21
-27.4001502990723
 31
0.0
  0
LINE
  5
   5A9
  8
0
  6
CONTINUOUS
 62
     7
 10
-672.546536934116
 20
49.4748191833407
 30
0.0
 11
-686.171529304722
 21
49.4748191833407
 31
0.0
  0
LINE
  5
   5AA
  8
0
  6
CONTINUOUS
 62
     7
 10
-655.046552363511
 20
49.4748191833496
 30
0.0
 11
-667.296544734116
 21
49.4748191833496
 31
0.0
  0
LINE
  5
   5AB
  8
0
  6
CONTINUOUS
 62
     7
 10
-636.171558562394
 20
49.4748268127441
 30
0.0
 11
-649.796558562394
 21
49.4748268127441
 31
0.0
  0
LINE
  5
   5AC
  8
0
  6
CONTINUOUS
 62
     7
 10
-670.796528044815
 20
61.4748191833398
 30
0.0
 11
-685.671541965102
 21
61.4748191833398
 31
0.0
  0
LINE
  5
   5AD
  8
0
  6
CONTINUOUS
 62
     7
 10
-686.025086804779
 20
61.328358478313
 30
0.0
 11
-685.67154067118
 21
61.4748046951519
 31
0.0
  0
LINE
  5
   5AE
  8
0
  6
CONTINUOUS
 62
     7
 10
-686.17153375673
 20
60.9748057465278
 30
0.0
 11
-686.025079921359
 21
61.3283595024943
 31
0.0
  0
LINE
  5
   5AF
  8
0
  6
CONTINUOUS
 62
     7
 10
-686.171534213251
 20
49.2248105800201
 30
0.0
 11
-686.17154125827
 21
60.0748176574707
 31
0.0
  0
LINE
  5
   5B0
  8
0
  6
CONTINUOUS
 62
     7
 10
-636.171563269845
 20
49.2248211313456
 30
0.0
 11
-636.17157735988
 21
60.0748252868652
 31
0.0
  0
LINE
  5
   5B1
  8
0
  6
CONTINUOUS
 62
     7
 10
-634.921558562394
 20
49.2248268127441
 30
0.0
 11
-634.921558562394
 21
60.0748252868652
 31
0.0
  0
LINE
  5
   5B2
  8
0
  6
CONTINUOUS
 62
     7
 10
-687.42153567421
 20
49.2248115539551
 30
0.0
 11
-687.42153567421
 21
60.0748176574707
 31
0.0
  0
LINE
  5
   5B3
  8
0
  6
CONTINUOUS
 62
     7
 10
-686.17153567421
 20
60.0748176574707
 30
0.0
 11
-687.42153567421
 21
60.0748176574707
 31
0.0
  0
LINE
  5
   5B4
  8
0
  6
CONTINUOUS
 62
     7
 10
-687.421528044815
 20
39.0998497009277
 30
0.0
 11
-687.421528044815
 21
49.2248344421387
 31
0.0
  0
LINE
  5
   5B5
  8
0
  6
CONTINUOUS
 62
     7
 10
-661.171543303605
 20
49.2248344421387
 30
0.0
 11
-687.421528044815
 21
49.2248344421387
 31
0.0
  0
LINE
  5
   5B6
  8
0
  6
CONTINUOUS
 62
     7
 10
-634.921558562394
 20
39.0998497009277
 30
0.0
 11
-634.921558562394
 21
49.2248344421387
 31
0.0
  0
LINE
  5
   5B7
  8
0
  6
CONTINUOUS
 62
     7
 10
-634.921558562394
 20
49.2248344421387
 30
0.0
 11
-661.171543303605
 21
49.2248344421387
 31
0.0
  0
LINE
  5
   5B8
  8
0
  6
CONTINUOUS
 62
     3
 10
-687.421528044815
 20
-64.1251503229141
 30
0.0
 11
-687.421528044815
 21
-41.4001483917237
 31
0.0
  0
LINE
  5
   5B9
  8
0
  6
CONTINUOUS
 62
     3
 10
-686.171528044816
 20
-64.1251503229141
 30
0.0
 11
-687.421528044815
 21
-64.1251503229141
 31
0.0
  0
LINE
  5
   5BA
  8
0
  6
CONTINUOUS
 62
     3
 10
-686.171528044816
 20
-65.0251502990723
 30
0.0
 11
-686.171528044816
 21
-64.1251503229141
 31
0.0
  0
LINE
  5
   5BB
  8
0
  6
CONTINUOUS
 62
     3
 10
-670.796528044815
 20
-65.5251502990718
 30
0.0
 11
-685.671527905586
 21
-65.5251502990718
 31
0.0
  0
LINE
  5
   5BC
  8
0
  6
CONTINUOUS
 62
     3
 10
-653.296528044815
 20
-65.525150299072
 30
0.0
 11
-669.046528044816
 21
-65.525150299072
 31
0.0
  0
LINE
  5
   5BD
  8
0
  6
CONTINUOUS
 62
     3
 10
-636.671528044815
 20
-65.5251502990714
 30
0.0
 11
-651.546528044815
 21
-65.5251502990714
 31
0.0
  0
LINE
  5
   5BE
  8
0
  6
CONTINUOUS
 62
     3
 10
-636.171528044816
 20
-65.0251502990723
 30
0.0
 11
-636.171528044816
 21
-64.1251503229141
 31
0.0
  0
LINE
  5
   5BF
  8
0
  6
CONTINUOUS
 62
     3
 10
-634.921528044816
 20
-64.1251503229141
 30
0.0
 11
-636.171528044816
 21
-64.1251503229141
 31
0.0
  0
LINE
  5
   5C0
  8
0
  6
CONTINUOUS
 62
     7
 10
-686.171528044816
 20
-64.1251503229141
 30
0.0
 11
-686.171528044816
 21
-54.0251502990723
 31
0.0
  0
LINE
  5
   5C1
  8
0
  6
CONTINUOUS
 62
     7
 10
-655.046528044816
 20
-53.5251502990723
 30
0.0
 11
-667.296528044815
 21
-53.5251502990723
 31
0.0
  0
LINE
  5
   5C2
  8
0
  6
CONTINUOUS
 62
     7
 10
-655.046528044816
 20
-55.5251502990723
 30
0.0
 11
-655.046528044816
 21
-53.5251502990723
 31
0.0
  0
LINE
  5
   5C3
  8
0
  6
CONTINUOUS
 62
     7
 10
-649.796528044816
 20
-55.5251502990723
 30
0.0
 11
-649.796528044816
 21
-53.5251502990723
 31
0.0
  0
LINE
  5
   5C4
  8
0
  6
CONTINUOUS
 62
     7
 10
-638.171528044816
 20
-53.5251502990723
 30
0.0
 11
-649.796528044816
 21
-53.5251502990723
 31
0.0
  0
LINE
  5
   5C5
  8
0
  6
CONTINUOUS
 62
     7
 10
-636.171528044816
 20
-64.1251503229141
 30
0.0
 11
-636.171528044816
 21
-54.0251502990723
 31
0.0
  0
LINE
  5
   5C6
  8
0
  6
CONTINUOUS
 62
     7
 10
-668.671528044815
 20
-58.7751502990723
 30
0.0
 11
-668.671528044815
 21
-57.8334053915489
 31
0.0
  0
LINE
  5
   5C7
  8
0
  6
CONTINUOUS
 62
     7
 10
-671.171528044816
 20
-58.7751502990723
 30
0.0
 11
-671.171528044816
 21
-57.8334046621653
 31
0.0
  0
LINE
  5
   5C8
  8
0
  6
CONTINUOUS
 62
     7
 10
-668.671528044815
 20
-58.7751502990723
 30
0.0
 11
-671.171528044816
 21
-58.7751502990723
 31
0.0
  0
LINE
  5
   5C9
  8
0
  6
CONTINUOUS
 62
     7
 10
-653.671528044816
 20
-58.7751502990723
 30
0.0
 11
-653.671528044816
 21
-57.7863254547119
 31
0.0
  0
LINE
  5
   5CA
  8
0
  6
CONTINUOUS
 62
     7
 10
-641.921528044816
 20
-53.5251502990723
 30
0.0
 11
-641.921528044816
 21
-53.2751502990723
 31
0.0
  0
LINE
  5
   5CB
  8
0
  6
CONTINUOUS
 62
     7
 10
-635.796528044816
 20
-54.0251502990723
 30
0.0
 11
-635.796528044816
 21
-53.2751502990723
 31
0.0
  0
LINE
  5
   5CC
  8
0
  6
CONTINUOUS
 62
     7
 10
-686.546528044815
 20
-54.0251502990723
 30
0.0
 11
-686.546528044815
 21
-53.2751502990723
 31
0.0
  0
LINE
  5
   5CD
  8
0
  6
CONTINUOUS
 62
     7
 10
-638.171528044816
 20
-54.0251502990723
 30
0.0
 11
-638.171528044816
 21
-53.2751502990723
 31
0.0
  0
LINE
  5
   5CE
  8
0
  6
CONTINUOUS
 62
     3
 10
-668.671528044815
 20
-64.0251502990723
 30
0.0
 11
-668.671528044815
 21
-62.2751502990723
 31
0.0
  0
LINE
  5
   5CF
  8
0
  6
CONTINUOUS
 62
     3
 10
-671.171528044816
 20
-64.0251504182816
 30
0.0
 11
-671.171528044816
 21
-62.2751502990723
 31
0.0
  0
LINE
  5
   5D0
  8
0
  6
CONTINUOUS
 62
     3
 10
-669.046528044816
 20
-65.525150299072
 30
0.0
 11
-669.046528044816
 21
-64.025150299072
 31
0.0
  0
LINE
  5
   5D1
  8
0
  6
CONTINUOUS
 62
     3
 10
-668.671528044815
 20
-64.0251502990723
 30
0.0
 11
-669.046528044816
 21
-64.0251502990723
 31
0.0
  0
LINE
  5
   5D2
  8
0
  6
CONTINUOUS
 62
     3
 10
-670.796528044815
 20
-65.525150299072
 30
0.0
 11
-670.796528044815
 21
-64.025150299072
 31
0.0
  0
LINE
  5
   5D3
  8
0
  6
CONTINUOUS
 62
     3
 10
-670.796528044815
 20
-64.0251502990723
 30
0.0
 11
-671.171528044816
 21
-64.0251502990723
 31
0.0
  0
LINE
  5
   5D4
  8
0
  6
CONTINUOUS
 62
     3
 10
-651.171528044816
 20
-64.0251502990723
 30
0.0
 11
-651.171528044816
 21
-62.2751502990723
 31
0.0
  0
LINE
  5
   5D5
  8
0
  6
CONTINUOUS
 62
     3
 10
-653.671528044816
 20
-64.0251504182816
 30
0.0
 11
-653.671528044816
 21
-62.2751502990723
 31
0.0
  0
LINE
  5
   5D6
  8
0
  6
CONTINUOUS
 62
     3
 10
-651.546528044815
 20
-65.525150299072
 30
0.0
 11
-651.546528044815
 21
-64.025150299072
 31
0.0
  0
LINE
  5
   5D7
  8
0
  6
CONTINUOUS
 62
     3
 10
-651.171528044816
 20
-64.0251502990723
 30
0.0
 11
-651.546528044815
 21
-64.0251502990723
 31
0.0
  0
LINE
  5
   5D8
  8
0
  6
CONTINUOUS
 62
     3
 10
-653.296528044815
 20
-65.525150299072
 30
0.0
 11
-653.296528044815
 21
-64.025150299072
 31
0.0
  0
LINE
  5
   5D9
  8
0
  6
CONTINUOUS
 62
     3
 10
-653.296528044815
 20
-64.0251502990723
 30
0.0
 11
-653.671528044816
 21
-64.0251502990723
 31
0.0
  0
CIRCLE
  5
   5DA
  8
0
  6
CONTINUOUS
 62
     7
 10
-678.671527977547
 20
-56.5251523374205
 30
0.0
 40
2.74999793642075
  0
CIRCLE
  5
   5DB
  8
0
  6
CONTINUOUS
 62
     7
 10
-669.92152717574
 20
-55.5251476214477
 30
0.0
 40
1.37499758123315
  0
ARC
  5
   5DC
  8
0
  6
CONTINUOUS
 62
     7
 10
-669.921527371372
 20
-55.5251415373816
 30
0.0
 40
2.62499149271879
 50
298.436973936778
 51
418.997218532549
  0
CIRCLE
  5
   5DD
  8
0
  6
CONTINUOUS
 62
     7
 10
-661.171527818925
 20
-56.5251486254787
 30
0.0
 40
2.74999836975995
  0
ARC
  5
   5DE
  8
0
  6
CONTINUOUS
 62
     7
 10
-652.421526686917
 20
-55.5251426843761
 30
0.0
 40
2.6249925524032
 50
298.436944421718
 51
418.99722864746
  0
CIRCLE
  5
   5DF
  8
0
  6
CONTINUOUS
 62
     7
 10
-643.671527660304
 20
-56.5251488912943
 30
0.0
 40
2.74999861534155
  0
CIRCLE
  5
   5E0
  8
0
  6
CONTINUOUS
 62
     7
 10
-643.671528272596
 20
-63.5251490692059
 30
0.0
 40
0.699998731101407
  0
CIRCLE
  5
   5E1
  8
0
  6
CONTINUOUS
 62
     7
 10
-661.17152994408
 20
-63.525149728814
 30
0.0
 40
0.699999655882045
  0
CIRCLE
  5
   5E2
  8
0
  6
CONTINUOUS
 62
     7
 10
-678.671528671684
 20
-63.5251513116889
 30
0.0
 40
0.700001026691361
  0
ARC
  5
   5E3
  8
0
  6
CONTINUOUS
 62
     3
 10
-636.671524878703
 20
-65.0251542878113
 30
0.0
 40
0.499995810037669
 50
269.999758026082
 51
360.000419025074
  0
ARC
  5
   5E4
  8
0
  6
CONTINUOUS
 62
     3
 10
-685.671527905586
 20
-65.0251500933594
 30
0.0
 40
0.50000021494898
 50
180.000023420064
 51
269.999992853049
  0
LINE
  5
   5E5
  8
0
  6
DASHDOT
 62
     3
 10
-678.671527977547
 20
-60.2751502738412
 30
0.0
 11
-678.671527977547
 21
-52.7751544009997
 31
0.0
  0
LINE
  5
   5E6
  8
0
  6
DASHDOT
 62
     3
 10
-674.921530041127
 20
-56.5251523374205
 30
0.0
 11
-682.421525913968
 21
-56.5251523374205
 31
0.0
  0
LINE
  5
   5E7
  8
0
  6
DASHDOT
 62
     3
 10
-669.921527371372
 20
-67.1195193895054
 30
0.0
 11
-669.921527371372
 21
-44.4038388709651
 31
0.0
  0
LINE
  5
   5E8
  8
0
  6
DASHDOT
 62
     3
 10
-666.296535878653
 20
-55.5251415373816
 30
0.0
 11
-673.546518864091
 21
-55.5251415373816
 31
0.0
  0
LINE
  5
   5E9
  8
0
  6
DASHDOT
 62
     3
 10
-661.171527818925
 20
-60.2751469952386
 30
0.0
 11
-661.171527818925
 21
-24.7379623102893
 31
0.0
  0
LINE
  5
   5EA
  8
0
  6
DASHDOT
 62
     3
 10
-657.421529449165
 20
-56.5251486254787
 30
0.0
 11
-664.921526188685
 21
-56.5251486254787
 31
0.0
  0
LINE
  5
   5EB
  8
0
  6
DASHDOT
 62
     3
 10
-652.421526686917
 20
-65.7423378164643
 30
0.0
 11
-652.421526686917
 21
-45.4386432544853
 31
0.0
  0
LINE
  5
   5EC
  8
0
  6
DASHDOT
 62
     3
 10
-648.796534134513
 20
-55.5251426843762
 30
0.0
 11
-656.04651923932
 21
-55.5251426843762
 31
0.0
  0
LINE
  5
   5ED
  8
0
  6
DASHDOT
 62
     3
 10
-643.671527660304
 20
-60.2751475066359
 30
0.0
 11
-643.671527660304
 21
-52.7751502759528
 31
0.0
  0
LINE
  5
   5EE
  8
0
  6
DASHDOT
 62
     3
 10
-639.921529044962
 20
-56.5251488912943
 30
0.0
 11
-647.421526275645
 21
-56.5251488912943
 31
0.0
  0
LINE
  5
   5EF
  8
0
  6
DASHDOT
 62
     3
 10
-643.671528272596
 20
-65.2251478003073
 30
0.0
 11
-643.671528272596
 21
-61.8251503381045
 31
0.0
  0
LINE
  5
   5F0
  8
0
  6
DASHDOT
 62
     3
 10
-641.971529541495
 20
-63.5251490692059
 30
0.0
 11
-645.371527003697
 21
-63.5251490692059
 31
0.0
  0
LINE
  5
   5F1
  8
0
  6
DASHDOT
 62
     3
 10
-661.17152994408
 20
-71.9038061208263
 30
0.0
 11
-661.17152994408
 21
-61.825150072932
 31
0.0
  0
LINE
  5
   5F2
  8
0
  6
DASHDOT
 62
     3
 10
-659.471530288198
 20
-63.525149728814
 30
0.0
 11
-662.871529599962
 21
-63.525149728814
 31
0.0
  0
LINE
  5
   5F3
  8
0
  6
DASHDOT
 62
     3
 10
-678.671528671684
 20
-65.2251523383803
 30
0.0
 11
-678.671528671684
 21
-61.8251502849976
 31
0.0
  0
LINE
  5
   5F4
  8
0
  6
DASHDOT
 62
     3
 10
-676.971527644993
 20
-63.5251513116889
 30
0.0
 11
-680.371529698375
 21
-63.5251513116889
 31
0.0
  0
LINE
  5
   5F5
  8
0
  6
DASHDOT
 62
     3
 10
-667.046534132104
 20
-27.2751417646042
 30
0.0
 11
-672.796521496607
 21
-27.2751417646042
 31
0.0
  0
LINE
  5
   5F6
  8
0
  6
DASHDOT
 62
     3
 10
-649.546331045349
 20
-27.2753628876161
 30
0.0
 11
-655.296688622628
 21
-27.2753628876161
 31
0.0
  0
LINE
  5
   5F7
  8
0
  6
CONTINUOUS
 62
     3
 10
-686.171528044816
 20
-65.0251502990723
 30
0.0
 11
-686.171528044816
 21
-64.1251503229141
 31
0.0
  0
LINE
  5
   5F8
  8
0
  6
CONTINUOUS
 62
     3
 10
-636.171528044816
 20
-65.0251502990723
 30
0.0
 11
-636.171528044816
 21
-64.1251503229141
 31
0.0
  0
LINE
  5
   5F9
  8
0
  6
CONTINUOUS
 62
     3
 10
-634.921528044816
 20
-64.1251487731934
 30
0.0
 11
-634.921528044816
 21
-41.4001483917237
 31
0.0
  0
LINE
  5
   5FA
  8
0
  6
CONTINUOUS
 62
     7
 10
-684.171528044816
 20
-54.0251502990723
 30
0.0
 11
-686.546528044815
 21
-54.0251502990723
 31
0.0
  0
LINE
  5
   5FB
  8
0
  6
CONTINUOUS
 62
     7
 10
-672.546528044816
 20
-55.5251502990723
 30
0.0
 11
-672.546528044816
 21
-53.5251502990723
 31
0.0
  0
LINE
  5
   5FC
  8
0
  6
CONTINUOUS
 62
     7
 10
-667.296528044815
 20
-55.5251502990723
 30
0.0
 11
-667.296528044815
 21
-53.5251502990723
 31
0.0
  0
LINE
  5
   5FD
  8
0
  6
CONTINUOUS
 62
     7
 10
-651.171528044816
 20
-58.7751502990723
 30
0.0
 11
-651.171528044816
 21
-57.8334081142862
 31
0.0
  0
LINE
  5
   5FE
  8
0
  6
CONTINUOUS
 62
     7
 10
-651.171528044816
 20
-58.7751502990723
 30
0.0
 11
-653.671528044816
 21
-58.7751502990723
 31
0.0
  0
LINE
  5
   5FF
  8
0
  6
CONTINUOUS
 62
     7
 10
-680.421528044815
 20
-53.5251502990723
 30
0.0
 11
-680.421528044815
 21
-53.2751502990723
 31
0.0
  0
LINE
  5
   600
  8
0
  6
CONTINUOUS
 62
     7
 10
-684.171528044816
 20
-54.0251502990723
 30
0.0
 11
-684.171528044816
 21
-53.2751502990723
 31
0.0
  0
LINE
  5
   601
  8
0
  6
CONTINUOUS
 62
     3
 10
-651.171528044816
 20
-64.0251502990723
 30
0.0
 11
-651.171528044816
 21
-62.2751502990723
 31
0.0
  0
LINE
  5
   602
  8
0
  6
CONTINUOUS
 62
     3
 10
-651.546528044815
 20
-65.525150299072
 30
0.0
 11
-651.546528044815
 21
-64.025150299072
 31
0.0
  0
LINE
  5
   603
  8
0
  6
CONTINUOUS
 62
     3
 10
-651.171528044816
 20
-64.0251502990723
 30
0.0
 11
-651.546528044815
 21
-64.0251502990723
 31
0.0
  0
LINE
  5
   604
  8
0
  6
CONTINUOUS
 62
     3
 10
-653.296528044815
 20
-64.0251502990723
 30
0.0
 11
-653.671528044816
 21
-64.0251502990723
 31
0.0
  0
CIRCLE
  5
   605
  8
0
  6
CONTINUOUS
 62
     7
 10
-652.421526300317
 20
-55.5251487104892
 30
0.0
 40
1.37499852437043
  0
ARC
  5
   606
  8
0
  6
CONTINUOUS
 62
     3
 10
-685.671527905586
 20
-65.0251500933594
 30
0.0
 40
0.50000021494898
 50
180.000023420064
 51
269.999992853049
  0
LINE
  5
   607
  8
0
  6
DASHDOT
 62
     3
 10
-666.296535878653
 20
-55.5251415373816
 30
0.0
 11
-673.546518864091
 21
-55.5251415373816
 31
0.0
  0
LINE
  5
   608
  8
0
  6
DASHDOT
 62
     3
 10
-657.421529449165
 20
-56.5251486254787
 30
0.0
 11
-664.921526188685
 21
-56.5251486254787
 31
0.0
  0
LINE
  5
   609
  8
0
  6
DASHDOT
 62
     3
 10
-652.421526686917
 20
-65.7423378164643
 30
0.0
 11
-652.421526686917
 21
-44.6321774592742
 31
0.0
  0
LINE
  5
   60A
  8
0
  6
DASHDOT
 62
     3
 10
-648.796534134513
 20
-55.5251426843762
 30
0.0
 11
-656.04651923932
 21
-55.5251426843762
 31
0.0
  0
LINE
  5
   60B
  8
0
  6
CONTINUOUS
 62
     7
 10
-672.546528044816
 20
-53.5251502990723
 30
0.0
 11
-684.171528044816
 21
-53.5251502990723
 31
0.0
  0
LINE
  5
   60C
  8
0
  6
CONTINUOUS
 62
     7
 10
-635.796528044816
 20
-54.0251502990723
 30
0.0
 11
-638.171528044816
 21
-54.0251502990723
 31
0.0
  0
LINE
  5
   60D
  8
0
  6
CONTINUOUS
 62
     7
 10
-634.921558562394
 20
-53.2751502990723
 30
0.0
 11
-687.421528044815
 21
-53.2751502990723
 31
0.0
  0
ARC
  5
   60E
  8
0
  6
CONTINUOUS
 62
     7
 10
-669.921527371372
 20
-55.5251415373816
 30
0.0
 40
2.62499149271879
 50
121.002781363519
 51
241.56299252681
  0
ARC
  5
   60F
  8
0
  6
CONTINUOUS
 62
     7
 10
-652.421526686917
 20
-55.5251426843761
 30
0.0
 40
2.6249925524032
 50
121.002771248608
 51
241.562988062779
  0
CIRCLE
  5
   610
  8
0
  6
CONTINUOUS
 62
     7
 10
-678.671591124722
 20
52.4744705555122
 30
0.0
 40
2.75032955665546
  0
CIRCLE
  5
   611
  8
0
  6
CONTINUOUS
 62
     7
 10
-678.671539260686
 20
59.474818303191
 30
0.0
 40
0.699999862369895
  0
ARC
  5
   612
  8
0
  6
CONTINUOUS
 62
     7
 10
-669.921545160763
 20
51.4748365144354
 30
0.0
 40
2.62498079731739
 50
103.846340220761
 51
175.64338747478
  0
LINE
  5
   613
  8
0
  6
CONTINUOUS
 62
     7
 10
-674.92153567421
 20
-27.4001502990723
 30
0.0
 11
-679.921528044816
 21
-27.4001502990723
 31
0.0
  0
LINE
  5
   614
  8
0
  6
CONTINUOUS
 62
     7
 10
-642.421543303605
 20
-27.4001502990723
 30
0.0
 11
-647.421543303605
 21
-27.4001502990723
 31
0.0
  0
LINE
  5
   615
  8
0
  6
CONTINUOUS
 62
     7
 10
-634.921528044816
 20
-27.1501502990723
 30
0.0
 11
-634.921528044816
 21
-18.1501579284668
 31
0.0
  0
LINE
  5
   616
  8
0
  6
CONTINUOUS
 62
     7
 10
-687.421528044815
 20
-27.1501502990723
 30
0.0
 11
-687.421528044815
 21
-18.1501579284668
 31
0.0
  0
LINE
  5
   617
  8
0
  6
CONTINUOUS
 62
     7
 10
-635.171528044815
 20
25.0998497009277
 30
0.0
 11
-687.171528044802
 21
25.0998497009277
 31
0.0
  0
LINE
  5
   618
  8
0
  6
CONTINUOUS
 62
     7
 10
-679.921528044816
 20
-27.4001502990723
 30
0.0
 11
-687.171528044815
 21
-27.4001502990723
 31
0.0
  0
LINE
  5
   619
  8
0
  6
CONTINUOUS
 62
     7
 10
-647.421543303605
 20
-27.4001502990723
 30
0.0
 11
-674.92153567421
 21
-27.4001502990723
 31
0.0
  0
LINE
  5
   61A
  8
0
  6
CONTINUOUS
 62
     7
 10
-635.171528044815
 20
-27.4001502990723
 30
0.0
 11
-642.421543303605
 21
-27.4001502990723
 31
0.0
  0
LINE
  5
   61B
  8
0
  6
CONTINUOUS
 62
     7
 10
-655.796528044815
 20
-16.2751579284668
 30
0.0
 11
-655.796528044815
 21
3.72483444213867
 31
0.0
  0
LINE
  5
   61C
  8
0
  6
CONTINUOUS
 62
     7
 10
-666.546528044815
 20
-16.2751579284668
 30
0.0
 11
-666.546528044815
 21
3.72483444213867
 31
0.0
  0
LINE
  5
   61D
  8
0
  6
CONTINUOUS
 62
     7
 10
-634.921528044816
 20
19.0998344421387
 30
0.0
 11
-687.421528044815
 21
19.0998344421387
 31
0.0
  0
LINE
  5
   61E
  8
0
  6
CONTINUOUS
 62
     7
 10
-634.921528044816
 20
24.0998344421387
 30
0.0
 11
-687.421528044815
 21
24.0998344421387
 31
0.0
  0
LINE
  5
   61F
  8
0
  6
CONTINUOUS
 62
     7
 10
-655.796528044815
 20
3.59260177612304
 30
0.0
 11
-666.546528044815
 21
3.59260177612304
 31
0.0
  0
LINE
  5
   620
  8
0
  6
CONTINUOUS
 62
     7
 10
-655.796528044815
 20
3.72483444213866
 30
0.0
 11
-666.546528044815
 21
3.72483444213866
 31
0.0
  0
LINE
  5
   621
  8
0
  6
CONTINUOUS
 62
     7
 10
-655.796528044815
 20
-16.2751579284668
 30
0.0
 11
-666.546528044815
 21
-16.2751579284668
 31
0.0
  0
LINE
  5
   622
  8
0
  6
CONTINUOUS
 62
     7
 10
-655.796528044815
 20
-16.1429100036621
 30
0.0
 11
-666.546528044815
 21
-16.1429100036621
 31
0.0
  0
LINE
  5
   623
  8
0
  6
DASHDOT
 62
     7
 10
-661.171528044816
 20
-29.0267912387517
 30
0.0
 11
-661.171528044816
 21
14.2010518447727
 31
0.0
  0
LINE
  5
   624
  8
0
  6
CONTINUOUS
 62
     7
 10
-634.92153567421
 20
-17.6501579284668
 30
0.0
 11
-634.92153567421
 21
-11.6501619050861
 31
0.0
  0
LINE
  5
   625
  8
0
  6
CONTINUOUS
 62
     7
 10
-634.92153567421
 20
5.5998420715332
 30
0.0
 11
-634.92153567421
 21
24.8498497009277
 31
0.0
  0
LINE
  5
   626
  8
0
  6
CONTINUOUS
 62
     7
 10
-634.92153567421
 20
-11.150161905086
 30
0.0
 11
-634.92153567421
 21
-1.4001579284668
 31
0.0
  0
LINE
  5
   627
  8
0
  6
CONTINUOUS
 62
     7
 10
-634.92153567421
 20
-0.900157928466797
 30
0.0
 11
-634.92153567421
 21
5.0998420715332
 31
0.0
  0
LINE
  5
   628
  8
0
  6
CONTINUOUS
 62
     7
 10
-687.421528044818
 20
-17.6501579284668
 30
0.0
 11
-687.421528044818
 21
-11.6501579284657
 31
0.0
  0
LINE
  5
   629
  8
0
  6
CONTINUOUS
 62
     7
 10
-687.421528044827
 20
-11.1501579284657
 30
0.0
 11
-687.421528044827
 21
-1.4001579284668
 31
0.0
  0
LINE
  5
   62A
  8
0
  6
CONTINUOUS
 62
     7
 10
-687.421528044813
 20
-0.900157928466797
 30
0.0
 11
-687.421528044813
 21
5.0998420715332
 31
0.0
  0
LINE
  5
   62B
  8
0
  6
CONTINUOUS
 62
     7
 10
-687.421528044802
 20
5.5998420715332
 30
0.0
 11
-687.421528044802
 21
24.8498497009277
 31
0.0
  0
LINE
  5
   62C
  8
0
  6
CONTINUOUS
 62
     7
 10
-666.546532031677
 20
-11.6501579284678
 30
0.0
 11
-686.921528074618
 21
-11.6501579284678
 31
0.0
  0
LINE
  5
   62D
  8
0
  6
CONTINUOUS
 62
     7
 10
-634.92153567421
 20
-11.6501426696788
 30
0.0
 11
-635.42153567421
 21
-11.6501426696788
 31
0.0
  0
LINE
  5
   62E
  8
0
  6
CONTINUOUS
 62
     7
 10
-666.546541811222
 20
-11.1501579284679
 30
0.0
 11
-686.921528074618
 21
-11.1501579284679
 31
0.0
  0
LINE
  5
   62F
  8
0
  6
CONTINUOUS
 62
     7
 10
-634.92153567421
 20
-11.1501426696788
 30
0.0
 11
-635.42153567421
 21
-11.1501426696788
 31
0.0
  0
LINE
  5
   630
  8
0
  6
CONTINUOUS
 62
     7
 10
-686.921528074618
 20
-11.6501579284668
 30
0.0
 11
-686.921528074618
 21
-11.1501579284668
 31
0.0
  0
LINE
  5
   631
  8
0
  6
CONTINUOUS
 62
     7
 10
-635.42153567421
 20
-11.6501579284668
 30
0.0
 11
-635.42153567421
 21
-11.1501579284668
 31
0.0
  0
LINE
  5
   632
  8
0
  6
CONTINUOUS
 62
     7
 10
-634.921528044816
 20
-18.1501579284668
 30
0.0
 11
-635.42153567421
 21
-18.1501579284668
 31
0.0
  0
LINE
  5
   633
  8
0
  6
CONTINUOUS
 62
     7
 10
-634.92153567421
 20
-17.6501579284668
 30
0.0
 11
-635.42153567421
 21
-17.6501579284668
 31
0.0
  0
LINE
  5
   634
  8
0
  6
CONTINUOUS
 62
     7
 10
-686.921528074618
 20
-18.1501579284668
 30
0.0
 11
-686.921528074618
 21
-17.6501579284668
 31
0.0
  0
LINE
  5
   635
  8
0
  6
CONTINUOUS
 62
     7
 10
-635.42153567421
 20
-18.1501579284668
 30
0.0
 11
-635.42153567421
 21
-17.6501579284668
 31
0.0
  0
LINE
  5
   636
  8
0
  6
CONTINUOUS
 62
     7
 10
-634.92153567421
 20
5.0998420715332
 30
0.0
 11
-635.42153567421
 21
5.0998420715332
 31
0.0
  0
LINE
  5
   637
  8
0
  6
CONTINUOUS
 62
     7
 10
-634.92153567421
 20
5.5998420715332
 30
0.0
 11
-635.42153567421
 21
5.5998420715332
 31
0.0
  0
LINE
  5
   638
  8
0
  6
CONTINUOUS
 62
     7
 10
-686.921528074618
 20
5.0998420715332
 30
0.0
 11
-686.921528074618
 21
5.5998420715332
 31
0.0
  0
LINE
  5
   639
  8
0
  6
CONTINUOUS
 62
     7
 10
-635.42153567421
 20
5.0998420715332
 30
0.0
 11
-635.42153567421
 21
5.5998420715332
 31
0.0
  0
LINE
  5
   63A
  8
0
  6
CONTINUOUS
 62
     7
 10
-666.546532008524
 20
-1.4001579284668
 30
0.0
 11
-686.921528074618
 21
-1.4001579284668
 31
0.0
  0
LINE
  5
   63B
  8
0
  6
CONTINUOUS
 62
     7
 10
-634.92153567421
 20
-1.4001579284668
 30
0.0
 11
-635.42153567421
 21
-1.4001579284668
 31
0.0
  0
LINE
  5
   63C
  8
0
  6
CONTINUOUS
 62
     7
 10
-666.546528044815
 20
-0.900157928466804
 30
0.0
 11
-686.921528074618
 21
-0.900157928466804
 31
0.0
  0
LINE
  5
   63D
  8
0
  6
CONTINUOUS
 62
     7
 10
-634.92153567421
 20
-0.900157928466804
 30
0.0
 11
-635.42153567421
 21
-0.900157928466804
 31
0.0
  0
LINE
  5
   63E
  8
0
  6
CONTINUOUS
 62
     7
 10
-686.921528074618
 20
-1.4001579284668
 30
0.0
 11
-686.921528074618
 21
-0.900157928466797
 31
0.0
  0
LINE
  5
   63F
  8
0
  6
CONTINUOUS
 62
     7
 10
-635.42153567421
 20
-1.4001579284668
 30
0.0
 11
-635.42153567421
 21
-0.900157928466797
 31
0.0
  0
ARC
  5
   640
  8
0
  6
CONTINUOUS
 62
     7
 10
-687.171528044815
 20
-27.1501502990723
 30
0.0
 40
0.25
 50
179.999999948034
 51
269.999999948034
  0
ARC
  5
   641
  8
0
  6
CONTINUOUS
 62
     7
 10
-635.171528044815
 20
-27.1501502990723
 30
0.0
 40
0.25
 50
269.999999948034
 51
359.999999948034
  0
ARC
  5
   642
  8
0
  6
CONTINUOUS
 62
     7
 10
-635.171528044815
 20
24.8498497009277
 30
0.0
 40
0.25
 50
359.999999948034
 51
449.999999948034
  0
ARC
  5
   643
  8
0
  6
CONTINUOUS
 62
     7
 10
-687.171528044802
 20
24.8498497009277
 30
0.0
 40
0.25
 50
449.999999948034
 51
539.999999948034
  0
INSERT
  5
   644
  8
255
  6
CONTINUOUS
 62
     7
  2
ON-OFF
 10
-651.171532927628
 20
2.09984207153321
 30
0.0
 41
0.5
 42
0.5
 50
359.999999792137
 43
0.5
  0
LINE
  5
   645
  8
0
  6
CONTINUOUS
 62
     7
 10
-672.421528044816
 20
4.3498420715332
 30
0.0
 11
-673.171528044816
 21
4.3498420715332
 31
0.0
  0
LINE
  5
   646
  8
0
  6
CONTINUOUS
 62
     7
 10
-672.421528044816
 20
-0.150157928466804
 30
0.0
 11
-673.171528044816
 21
-0.150157928466804
 31
0.0
  0
CIRCLE
  5
   647
  8
0
  6
CONTINUOUS
 62
     7
 10
-672.796528044815
 20
-14.6501579284668
 30
0.0
 40
2.25
  0
CIRCLE
  5
   648
  8
0
  6
CONTINUOUS
 62
     7
 10
-672.796528044815
 20
-14.6501579284668
 30
0.0
 40
1.5
  0
LINE
  5
   649
  8
0
  6
CONTINUOUS
 62
     7
 10
-673.171528044816
 20
-0.150157928466797
 30
0.0
 11
-673.171528044816
 21
4.3498420715332
 31
0.0
  0
LINE
  5
   64A
  8
0
  6
CONTINUOUS
 62
     7
 10
-672.421528044816
 20
-0.150157928466797
 30
0.0
 11
-672.421528044816
 21
4.3498420715332
 31
0.0
  0
LINE
  5
   64B
  8
0
  6
CONTINUOUS
 62
     7
 10
-667.921528044815
 20
-17.6501579284668
 30
0.0
 11
-667.921528044815
 21
-11.650150783884
 31
0.0
  0
LINE
  5
   64C
  8
0
  6
CONTINUOUS
 62
     7
 10
-654.421528044816
 20
-17.6501579284668
 30
0.0
 11
-654.421528044816
 21
-11.6501547605072
 31
0.0
  0
LINE
  5
   64D
  8
0
  6
CONTINUOUS
 62
     7
 10
-654.421528044816
 20
-0.900157928466797
 30
0.0
 11
-654.421528044816
 21
5.0998420715332
 31
0.0
  0
LINE
  5
   64E
  8
0
  6
CONTINUOUS
 62
     7
 10
-667.921528044815
 20
-0.900157928466797
 30
0.0
 11
-667.921528044815
 21
5.0998420715332
 31
0.0
  0
LINE
  5
   64F
  8
0
  6
DASHDOT
 62
     7
 10
-661.171562490582
 20
44.7242978642501
 30
0.0
 11
-661.171562490582
 21
60.2248105836527
 31
0.0
  0
LINE
  5
   650
  8
0
  6
DASHDOT
 62
     7
 10
-669.921545160763
 20
43.849855717118
 30
0.0
 11
-669.921545160763
 21
59.0998173117528
 31
0.0
  0
LINE
  5
   651
  8
0
  6
DASHDOT
 62
     7
 10
-678.671591124722
 20
44.7241409988567
 30
0.0
 11
-678.671591124722
 21
60.2248001121676
 31
0.0
  0
LINE
  5
   652
  8
0
  6
DASHDOT
 62
     7
 10
-670.921261568066
 20
52.4744705555122
 30
0.0
 11
-686.421920681377
 21
52.4744705555122
 31
0.0
  0
LINE
  5
   653
  8
0
  6
DASHDOT
 62
     7
 10
-678.671539260686
 20
53.7748184408211
 30
0.0
 11
-678.671539260686
 21
65.1748181655609
 31
0.0
  0
LINE
  5
   654
  8
0
  6
DASHDOT
 62
     7
 10
-672.971539398316
 20
59.474818303191
 30
0.0
 11
-684.371539123056
 21
59.474818303191
 31
0.0
  0
LINE
  5
   655
  8
0
  6
CONTINUOUS
 62
     7
 10
-655.796528044815
 20
-11.6855147507464
 30
0.0
 11
-666.546528044815
 21
-11.6855147507464
 31
0.0
  0
LINE
  5
   656
  8
0
  6
CONTINUOUS
 62
     7
 10
-655.796528044815
 20
-15.6459909277944
 30
0.0
 11
-666.546528044815
 21
-15.6459909277944
 31
0.0
  0
LINE
  5
   657
  8
0
  6
CONTINUOUS
 62
     7
 10
-655.796528044815
 20
-11.6855151014735
 30
0.0
 11
-666.546528044815
 21
-11.6855151014735
 31
0.0
  0
LINE
  5
   658
  8
0
  6
CONTINUOUS
 62
     7
 10
-655.796528044815
 20
-9.21245451350165
 30
0.0
 11
-666.546528044815
 21
-9.21245451350165
 31
0.0
  0
LINE
  5
   659
  8
0
  6
CONTINUOUS
 62
     7
 10
-686.671556599612
 20
39.0998497009277
 30
0.0
 11
-686.67155862894
 21
46.7248344421386
 31
0.0
  0
LINE
  5
   65A
  8
0
  6
CONTINUOUS
 62
     3
 10
-668.671528044815
 20
-62.2751502990723
 30
0.0
 11
-671.171528044816
 21
-62.2751502990723
 31
0.0
  0
LINE
  5
   65B
  8
0
  6
CONTINUOUS
 62
     3
 10
-651.171528044816
 20
-62.2751502990723
 30
0.0
 11
-653.671528044816
 21
-62.2751502990723
 31
0.0
  0
LINE
  5
   65C
  8
0
  6
CONTINUOUS
 62
     7
 10
-686.921528074618
 20
5.5998420715332
 30
0.0
 11
-687.421528044802
 21
5.5998420715332
 31
0.0
  0
LINE
  5
   65D
  8
0
  6
CONTINUOUS
 62
     7
 10
-686.921528074618
 20
5.0998420715332
 30
0.0
 11
-687.421528044813
 21
5.0998420715332
 31
0.0
  0
LINE
  5
   65E
  8
0
  6
CONTINUOUS
 62
     7
 10
-686.921528074618
 20
-0.900157928466804
 30
0.0
 11
-687.421528044813
 21
-0.900157928466804
 31
0.0
  0
LINE
  5
   65F
  8
0
  6
CONTINUOUS
 62
     7
 10
-686.921528074618
 20
-1.4001579284668
 30
0.0
 11
-687.421528044827
 21
-1.4001579284668
 31
0.0
  0
LINE
  5
   660
  8
0
  6
CONTINUOUS
 62
     7
 10
-686.921528074618
 20
-11.1501579284679
 30
0.0
 11
-687.421528044827
 21
-11.1501579284679
 31
0.0
  0
LINE
  5
   661
  8
0
  6
CONTINUOUS
 62
     7
 10
-686.921528074618
 20
-11.6501579284678
 30
0.0
 11
-687.421528044818
 21
-11.6501579284678
 31
0.0
  0
LINE
  5
   662
  8
0
  6
CONTINUOUS
 62
     7
 10
-686.921528074618
 20
-17.6501579284668
 30
0.0
 11
-687.421528044818
 21
-17.6501579284668
 31
0.0
  0
LINE
  5
   663
  8
0
  6
CONTINUOUS
 62
     7
 10
-686.921528074618
 20
-18.1501579284668
 30
0.0
 11
-687.421528044815
 21
-18.1501579284668
 31
0.0
  0
LINE
  5
   664
  8
0
  6
CONTINUOUS
 62
     7
 10
-635.42153567421
 20
-17.6501579284668
 30
0.0
 11
-686.921528074618
 21
-17.6501579284668
 31
0.0
  0
LINE
  5
   665
  8
0
  6
CONTINUOUS
 62
     7
 10
-635.42153567421
 20
-18.1501579284668
 30
0.0
 11
-686.921528074618
 21
-18.1501579284668
 31
0.0
  0
LINE
  5
   666
  8
0
  6
CONTINUOUS
 62
     7
 10
-635.42153567421
 20
-11.1501426696788
 30
0.0
 11
-655.796529537195
 21
-11.1501426696788
 31
0.0
  0
LINE
  5
   667
  8
0
  6
CONTINUOUS
 62
     7
 10
-635.42153567421
 20
-11.6501426696788
 30
0.0
 11
-655.796529720389
 21
-11.6501426696788
 31
0.0
  0
LINE
  5
   668
  8
0
  6
CONTINUOUS
 62
     7
 10
-635.42153567421
 20
-0.900157928466804
 30
0.0
 11
-655.796528044815
 21
-0.900157928466804
 31
0.0
  0
LINE
  5
   669
  8
0
  6
CONTINUOUS
 62
     7
 10
-635.42153567421
 20
-1.4001579284668
 30
0.0
 11
-655.796528044815
 21
-1.4001579284668
 31
0.0
  0
LINE
  5
   66A
  8
0
  6
CONTINUOUS
 62
     7
 10
-635.42153567421
 20
5.5998420715332
 30
0.0
 11
-686.921528074618
 21
5.5998420715332
 31
0.0
  0
LINE
  5
   66B
  8
0
  6
CONTINUOUS
 62
     7
 10
-635.42153567421
 20
5.0998420715332
 30
0.0
 11
-686.921528074618
 21
5.0998420715332
 31
0.0
  0
LINE
  5
   66C
  8
0
  6
CONTINUOUS
 62
     7
 10
-686.17154125827
 20
60.0748176574707
 30
0.0
 11
-686.171541842645
 21
60.97481058002
 31
0.0
  0
LINE
  5
   66D
  8
0
  6
CONTINUOUS
 62
     7
 10
-668.671528044815
 20
58.2247886657715
 30
0.0
 11
-671.171528044816
 21
58.2247886657715
 31
0.0
  0
LINE
  5
   66E
  8
0
  6
CONTINUOUS
 62
     7
 10
-671.171528044816
 20
58.2247886657715
 30
0.0
 11
-671.171528044816
 21
59.9747887849808
 31
0.0
  0
LINE
  5
   66F
  8
0
  6
CONTINUOUS
 62
     7
 10
-670.796528044815
 20
59.9747886657715
 30
0.0
 11
-671.171528044816
 21
59.9747886657715
 31
0.0
  0
LINE
  5
   670
  8
0
  6
CONTINUOUS
 62
     7
 10
-670.796528044815
 20
59.9747886657712
 30
0.0
 11
-670.796528044815
 21
61.4747886657712
 31
0.0
  0
LINE
  5
   671
  8
0
  6
CONTINUOUS
 62
     7
 10
-669.046528044816
 20
59.9747886657712
 30
0.0
 11
-669.046528044816
 21
61.4747886657712
 31
0.0
  0
LINE
  5
   672
  8
0
  6
CONTINUOUS
 62
     7
 10
-668.671528044815
 20
59.9747886657715
 30
0.0
 11
-669.046528044816
 21
59.9747886657715
 31
0.0
  0
LINE
  5
   673
  8
0
  6
CONTINUOUS
 62
     7
 10
-668.671528044815
 20
58.2247886657715
 30
0.0
 11
-668.671528044815
 21
59.9747886657715
 31
0.0
  0
LINE
  5
   674
  8
0
  6
DASHDOT
 62
     7
 10
-629.936447998826
 20
-1.15015029907228
 30
0.0
 11
-704.745981541747
 21
-1.15015029907228
 31
0.0
  0
LINE
  5
   675
  8
0
  6
DASHDOT
 62
     7
 10
-711.42896334135
 20
-1.15015029907228
 30
0.0
 11
-717.568566010352
 21
-1.15015029907228
 31
0.0
  0
INSERT
  5
   676
  8
255
  6
CONTINUOUS
 62
     7
  2
COPRITERMINALI
 10
-661.171580400326
 20
62.7248191833496
 30
0.0
 41
0.5
 42
0.5
 50
3.50835464724173E-15
 43
0.5
  0
LINE
  5
   677
  8
0
  6
CONTINUOUS
 62
     7
 10
-667.903102456861
 20
61.4747886657712
 30
0.0
 11
-669.046528044816
 21
61.4747886657712
 31
0.0
  0
LINE
  5
   678
  8
0
  6
DASHDOT
 62
     2
 10
-661.171539260686
 20
64.5998523929888
 30
0.0
 11
-661.171539260686
 21
73.8498523929888
 31
0.0
  0
LINE
  5
   679
  8
0
  6
CONTINUOUS
 62
     1
 10
-667.171545160763
 20
61.4747886657712
 30
0.0
 11
-667.171545160763
 21
64.2247886657712
 31
0.0
  0
LINE
  5
   67A
  8
0
  6
CONTINUOUS
 62
     1
 10
-672.671545160763
 20
61.4747886657712
 30
0.0
 11
-672.671545160763
 21
64.2247886657712
 31
0.0
  0
LINE
  5
   67B
  8
0
  6
CONTINUOUS
 62
     1
 10
-670.671545160763
 20
60.0747884511945
 30
0.0
 11
-671.046545160763
 21
60.0747884511945
 31
0.0
  0
LINE
  5
   67C
  8
0
  6
CONTINUOUS
 62
     1
 10
-671.046545160763
 20
58.4747884273526
 30
0.0
 11
-671.046545160763
 21
60.0747884511945
 31
0.0
  0
LINE
  5
   67D
  8
0
  6
CONTINUOUS
 62
     1
 10
-668.796545160763
 20
58.4747884273526
 30
0.0
 11
-671.046545160763
 21
58.4747884273526
 31
0.0
  0
LINE
  5
   67E
  8
0
  6
CONTINUOUS
 62
     1
 10
-668.796545160763
 20
58.4747884273526
 30
0.0
 11
-668.796545160763
 21
60.0747884511945
 31
0.0
  0
LINE
  5
   67F
  8
0
  6
CONTINUOUS
 62
     1
 10
-668.796545160763
 20
60.0747884511945
 30
0.0
 11
-669.171545160763
 21
60.0747884511945
 31
0.0
  0
LINE
  5
   680
  8
0
  6
CONTINUOUS
 62
     1
 10
-669.171545160763
 20
60.0747883319852
 30
0.0
 11
-669.171545160763
 21
62.7247884273526
 31
0.0
  0
LINE
  5
   681
  8
0
  6
CONTINUOUS
 62
     1
 10
-670.671545160763
 20
60.0747884511945
 30
0.0
 11
-670.671545160763
 21
62.7247884273526
 31
0.0
  0
LINE
  5
   682
  8
0
  6
CONTINUOUS
 62
     1
 10
-670.671545160763
 20
59.5747884511945
 30
0.0
 11
-670.671545160763
 21
60.0747884511945
 31
0.0
  0
LINE
  5
   683
  8
0
  6
CONTINUOUS
 62
     1
 10
-669.171545160763
 20
59.5747884511945
 30
0.0
 11
-669.171545160763
 21
60.0747884511945
 31
0.0
  0
LINE
  5
   684
  8
0
  6
CONTINUOUS
 62
     1
 10
-670.671545160763
 20
59.5747884511945
 30
0.0
 11
-671.046545160763
 21
59.5747884511945
 31
0.0
  0
LINE
  5
   685
  8
0
  6
CONTINUOUS
 62
     1
 10
-668.796545160763
 20
59.5747884511945
 30
0.0
 11
-669.171545160763
 21
59.5747884511945
 31
0.0
  0
LINE
  5
   686
  8
0
  6
CONTINUOUS
 62
     1
 10
-667.171545160763
 20
61.4747886657712
 30
0.0
 11
-669.171545160763
 21
61.4747886657712
 31
0.0
  0
LINE
  5
   687
  8
0
  6
CONTINUOUS
 62
     1
 10
-670.671545160763
 20
61.4747886657712
 30
0.0
 11
-672.671545160763
 21
61.4747886657712
 31
0.0
  0
LINE
  5
   688
  8
0
  6
DASHDOT
 62
     7
 10
-661.171570685702
 20
92.0268539869526
 30
0.0
 11
-661.171574868463
 21
107.743138494724
 31
0.0
  0
LINE
  5
   689
  8
0
  6
CONTINUOUS
 62
     3
 10
-637.92152994408
 20
-66.7752063968951
 30
0.0
 11
-684.42152994408
 21
-66.7752063968951
 31
0.0
  0
LINE
  5
   68A
  8
0
  6
CONTINUOUS
 62
     7
 10
-684.42152994408
 20
-66.7752063968951
 30
0.0
 11
-684.42152994408
 21
-65.5251502990718
 31
0.0
  0
LINE
  5
   68B
  8
0
  6
CONTINUOUS
 62
     7
 10
-637.92152994408
 20
-66.7752063968951
 30
0.0
 11
-637.92152994408
 21
-65.5251502990714
 31
0.0
  0
LINE
  5
   68C
  8
0
  6
CONTINUOUS
 62
     7
 10
-651.171528044816
 20
-62.5251502990723
 30
0.0
 11
-653.671528044816
 21
-62.5251502990723
 31
0.0
  0
LINE
  5
   68D
  8
0
  6
CONTINUOUS
 62
     7
 10
-668.671528044815
 20
-62.5251502990723
 30
0.0
 11
-671.171528044816
 21
-62.5251502990723
 31
0.0
  0
INSERT
  5
   68E
  8
255
  6
CONTINUOUS
 62
     7
  2
MOSTRINA
 10
-718.590656462784
 20
-56.1404609680176
 30
0.0
 41
0.5
 42
0.5
 50
3.50835464724173E-15
 43
0.5
  0
LINE
  5
   68F
  8
0
  6
CONTINUOUS
 62
     7
 10
-683.671536399663
 20
68.7498550639079
 30
0.0
 11
-693.671539260686
 21
78.7248523929888
 31
0.0
  0
LINE
  5
   690
  8
0
  6
CONTINUOUS
 62
     7
 10
-693.671539260686
 20
78.7248523929888
 30
0.0
 11
-693.671539260686
 21
88.7248447635943
 31
0.0
  0
LINE
  5
   691
  8
0
  6
CONTINUOUS
 62
     7
 10
-678.671539260686
 20
78.7248523929888
 30
0.0
 11
-678.671539260686
 21
88.7248600223834
 31
0.0
  0
LINE
  5
   692
  8
0
  6
CONTINUOUS
 62
     7
 10
-673.671537353337
 20
68.7498426190816
 30
0.0
 11
-678.671539260686
 21
78.7249070931767
 31
0.0
  0
LINE
  5
   693
  8
0
  6
CONTINUOUS
 62
     7
 10
-673.671537353337
 20
68.7498539188678
 30
0.0
 11
-674.300992919743
 21
70.0056141117389
 31
0.0
  0
CIRCLE
  5
   694
  8
0
  6
CONTINUOUS
 62
     7
 10
-686.17153926447
 20
82.4748523929888
 30
0.0
 40
2.12499994657612
  0
LINE
  5
   695
  8
0
  6
CONTINUOUS
 62
     7
 10
-683.671536399663
 20
61.4748191833398
 30
0.0
 11
-683.671536399663
 21
68.7498550639079
 31
0.0
  0
LINE
  5
   696
  8
0
  6
CONTINUOUS
 62
     7
 10
-673.671537353337
 20
61.4748191833398
 30
0.0
 11
-673.671537353337
 21
68.7498426190816
 31
0.0
  0
LINE
  5
   697
  8
0
  6
CONTINUOUS
 62
     7
 10
-674.297077814898
 20
68.6821759428795
 30
0.0
 11
-682.878955181521
 21
68.6821759428795
 31
0.0
  0
LINE
  5
   698
  8
0
  6
CONTINUOUS
 62
     7
 10
-674.375570595691
 20
64.0190984224664
 30
0.0
 11
-682.826626660992
 21
64.0190984224664
 31
0.0
  0
LINE
  5
   699
  8
0
  6
CONTINUOUS
 62
     7
 10
-693.671539290687
 20
88.7248447635943
 30
0.0
 11
-678.67153929159
 21
88.7248600223834
 31
0.0
  0
LINE
  5
   69A
  8
0
  6
CONTINUOUS
 62
     7
 10
-648.671539260686
 20
62.7248191833496
 30
0.0
 11
-648.671539260686
 21
68.7498537639483
 31
0.0
  0
LINE
  5
   69B
  8
0
  6
CONTINUOUS
 62
     7
 10
-638.671539260686
 20
62.7248191833496
 30
0.0
 11
-638.671539260686
 21
68.7498552335927
 31
0.0
  0
LINE
  5
   69C
  8
0
  6
CONTINUOUS
 62
     7
 10
-639.375576615742
 20
64.0190984224664
 30
0.0
 11
-647.826632681044
 21
64.0190984224664
 31
0.0
  0
LINE
  5
   69D
  8
0
  6
CONTINUOUS
 62
     7
 10
-639.297083834949
 20
68.6821759428795
 30
0.0
 11
-647.878961201572
 21
68.6821759428795
 31
0.0
  0
LINE
  5
   69E
  8
0
  6
CONTINUOUS
 62
     7
 10
-648.671539260686
 20
68.7498537639484
 30
0.0
 11
-643.671537787358
 21
78.7248523929888
 31
0.0
  0
LINE
  5
   69F
  8
0
  6
CONTINUOUS
 62
     7
 10
-638.671539260686
 20
68.7498552335927
 30
0.0
 11
-628.671537787358
 21
78.7248523929889
 31
0.0
  0
LINE
  5
   6A0
  8
0
  6
CONTINUOUS
 62
     7
 10
-643.671537787358
 20
78.7248523929888
 30
0.0
 11
-643.671537787358
 21
88.7248600223834
 31
0.0
  0
LINE
  5
   6A1
  8
0
  6
CONTINUOUS
 62
     7
 10
-628.671537787358
 20
78.7248523929888
 30
0.0
 11
-628.671537787358
 21
88.7248447635943
 31
0.0
  0
LINE
  5
   6A2
  8
0
  6
CONTINUOUS
 62
     7
 10
-628.671537768901
 20
88.7248447635944
 30
0.0
 11
-643.671537769804
 21
88.7248600223834
 31
0.0
  0
CIRCLE
  5
   6A3
  8
0
  6
CONTINUOUS
 62
     7
 10
-636.171537787358
 20
82.4748523929888
 30
0.0
 40
2.1249998301877
  0
LINE
  5
   6A4
  8
0
  6
CONTINUOUS
 62
     7
 10
-653.671544865853
 20
88.724852224027
 30
0.0
 11
-668.671544865853
 21
88.724852224027
 31
0.0
  0
LINE
  5
   6A5
  8
0
  6
CONTINUOUS
 62
     7
 10
-666.171567079755
 20
62.7248191833496
 30
0.0
 11
-666.171567079755
 21
68.725029933664
 31
0.0
  0
LINE
  5
   6A6
  8
0
  6
CONTINUOUS
 62
     7
 10
-656.171567079755
 20
62.7248191833496
 30
0.0
 11
-656.171567079755
 21
68.724852224027
 31
0.0
  0
LINE
  5
   6A7
  8
0
  6
CONTINUOUS
 62
     7
 10
-666.171522651951
 20
68.7248522240271
 30
0.0
 11
-668.671544865853
 21
78.7248522240271
 31
0.0
  0
LINE
  5
   6A8
  8
0
  6
CONTINUOUS
 62
     7
 10
-656.171567079755
 20
68.7248522240269
 30
0.0
 11
-653.671544865853
 21
78.724852224027
 31
0.0
  0
LINE
  5
   6A9
  8
0
  6
CONTINUOUS
 62
     7
 10
-653.671544865853
 20
78.724852224027
 30
0.0
 11
-653.671544865853
 21
88.724852224027
 31
0.0
  0
LINE
  5
   6AA
  8
0
  6
CONTINUOUS
 62
     7
 10
-668.671544865853
 20
78.724852224027
 30
0.0
 11
-668.671544865853
 21
88.724852224027
 31
0.0
  0
CIRCLE
  5
   6AB
  8
0
  6
CONTINUOUS
 62
     7
 10
-661.171544865853
 20
82.474852224027
 30
0.0
 40
2.125
  0
LINE
  5
   6AC
  8
0
  6
CONTINUOUS
 62
     7
 10
-656.797111654019
 20
68.6821759428795
 30
0.0
 11
-665.378989020641
 21
68.6821759428795
 31
0.0
  0
LINE
  5
   6AD
  8
0
  6
CONTINUOUS
 62
     7
 10
-656.875604434811
 20
64.0190984224664
 30
0.0
 11
-665.326660500113
 21
64.0190984224664
 31
0.0
  0
TEXT
  5
   6AE
  8
0
  6
CONTINUOUS
 62
     7
 10
-664.710383899186
 20
90.6529307855964
 30
0.0
 40
3.00000002980232
  1
Y
 50
359.999999948034
 41
0.916666604744064
 72
     1
 11
-663.610383963398
 21
92.1529307995054
 31
0.0
 73
     2
  0
LINE
  5
   6AF
  8
0
  6
DASHDOT
 62
     7
 10
-686.17153926447
 20
79.8498524464127
 30
0.0
 11
-686.17153926447
 21
85.0998523395649
 31
0.0
  0
LINE
  5
   6B0
  8
0
  6
DASHDOT
 62
     7
 10
-683.546539317894
 20
82.4748523929888
 30
0.0
 11
-688.796539211046
 21
82.4748523929888
 31
0.0
  0
LINE
  5
   6B1
  8
0
  6
DASHDOT
 62
     7
 10
-661.171544865853
 20
79.849852224027
 30
0.0
 11
-661.171544865853
 21
85.099852224027
 31
0.0
  0
LINE
  5
   6B2
  8
0
  6
DASHDOT
 62
     7
 10
-658.546544865853
 20
82.474852224027
 30
0.0
 11
-663.796544865853
 21
82.474852224027
 31
0.0
  0
LINE
  5
   6B3
  8
0
  6
DASHDOT
 62
     7
 10
-636.171537787358
 20
79.8498525628011
 30
0.0
 11
-636.171537787358
 21
85.0998522231765
 31
0.0
  0
LINE
  5
   6B4
  8
0
  6
DASHDOT
 62
     7
 10
-633.54653795717
 20
82.4748523929888
 30
0.0
 11
-638.796537617545
 21
82.4748523929888
 31
0.0
  0
INSERT
  5
   6B5
  8
0
  6
CONTINUOUS
 62
     5
  2
*UDIM499
 10
0.0
 20
0.0
 30
0.0
  0
INSERT
  5
   6B6
  8
0
  6
CONTINUOUS
 62
     7
  2
*UDIM500
 10
0.0
 20
0.0
 30
0.0
  0
TEXT
  5
   6B7
  8
0
  6
CONTINUOUS
 62
     7
 10
-720.60875848071
 20
-2.97618485887972
 30
0.0
 40
3.00000002980232
  1
X
 50
359.999999948034
 41
0.916666604744064
 72
     1
 11
-719.508758544922
 21
-1.4761848449707
 31
0.0
 73
     2
  0
TEXT
  5
   6B8
  8
0
  6
CONTINUOUS
 62
     7
 10
-602.925416500729
 20
-2.30969621141879
 30
0.0
 40
3.00000002980232
  1
X
 50
359.999999948034
 41
0.916666604744064
 72
     1
 11
-601.825416564941
 21
-0.809696197509766
 31
0.0
 73
     2
  0
INSERT
  5
   6B9
  8
0
  6
CONTINUOUS
 62
     7
  2
*UDIM501
 10
0.0
 20
0.0
 30
0.0
  0
INSERT
  5
   6BA
  8
0
  6
CONTINUOUS
 62
     7
  2
*UDIM502
 10
0.0
 20
0.0
 30
0.0
  0
INSERT
  5
   6BB
  8
0
  6
CONTINUOUS
 62
     7
  2
*UDIM503
 10
0.0
 20
0.0
 30
0.0
  0
LINE
  5
   6BC
  8
0
  6
CONTINUOUS
 62
     1
 10
-646.800775798059
 20
130.224876989846
 30
0.0
 11
-647.978670205981
 21
130.224876989846
 31
0.0
  0
LINE
  5
   6BD
  8
0
  6
CONTINUOUS
 62
     1
 10
-649.671545160763
 20
62.7247886657712
 30
0.0
 11
-649.671545160763
 21
64.2247886657712
 31
0.0
  0
LINE
  5
   6BE
  8
0
  6
CONTINUOUS
 62
     1
 10
-653.171545160763
 20
64.2247886657712
 30
0.0
 11
-655.171545160763
 21
64.2247886657712
 31
0.0
  0
LINE
  5
   6BF
  8
0
  6
CONTINUOUS
 62
     1
 10
-649.671545160763
 20
64.2247886657712
 30
0.0
 11
-651.671545160763
 21
64.2247886657712
 31
0.0
  0
LINE
  5
   6C0
  8
0
  6
CONTINUOUS
 62
     1
 10
-655.171545160763
 20
62.7247886657712
 30
0.0
 11
-655.171545160763
 21
64.2247886657712
 31
0.0
  0
LINE
  5
   6C1
  8
0
  6
CONTINUOUS
 62
     1
 10
-649.671545160763
 20
62.7247886657712
 30
0.0
 11
-655.171545160763
 21
62.7247886657712
 31
0.0
  0
LINE
  5
   6C2
  8
0
  6
CONTINUOUS
 62
     1
 10
-649.671545160763
 20
63.2247886657712
 30
0.0
 11
-655.171545160763
 21
63.2247886657712
 31
0.0
  0
LINE
  5
   6C3
  8
0
  6
CONTINUOUS
 62
     1
 10
-651.671545160763
 20
64.2247886657712
 30
0.0
 11
-651.671545160763
 21
70.3163261950793
 31
0.0
  0
LINE
  5
   6C4
  8
0
  6
DASHDOT
 62
     7
 10
-652.421545160763
 20
61.1623976715555
 30
0.0
 11
-652.421545160763
 21
69.5836433575633
 31
0.0
  0
LINE
  5
   6C5
  8
0
  6
CONTINUOUS
 62
     1
 10
-651.671545160763
 20
70.3163261950793
 30
0.0
 11
-646.571966344723
 21
78.9856093895921
 31
0.0
  0
LINE
  5
   6C6
  8
0
  6
CONTINUOUS
 62
     1
 10
-653.171545160763
 20
70.7247886657712
 30
0.0
 11
-648.08664682892
 21
79.3691150394322
 31
0.0
  0
LINE
  5
   6C7
  8
0
  6
CONTINUOUS
 62
     1
 10
-653.171545160763
 20
64.2247886657712
 30
0.0
 11
-653.171545160763
 21
70.7247886657712
 31
0.0
  0
LINE
  5
   6C8
  8
0
  6
CONTINUOUS
 62
     1
 10
-648.08664682892
 20
79.3691150394333
 30
0.0
 11
-647.978670205981
 21
130.224876989846
 31
0.0
  0
LINE
  5
   6C9
  8
0
  6
CONTINUOUS
 62
     1
 10
-646.571966344723
 20
78.9856093895929
 30
0.0
 11
-646.800775798059
 21
130.224876989846
 31
0.0
  0
LINE
  5
   6CA
  8
0
  6
CONTINUOUS
 62
     1
 10
-672.671580613628
 20
62.7247825444991
 30
0.0
 11
-672.671581412053
 21
64.2247825444989
 31
0.0
  0
LINE
  5
   6CB
  8
0
  6
CONTINUOUS
 62
     1
 10
-667.171581412054
 20
64.2248026382089
 30
0.0
 11
-669.171581412054
 21
64.2248026382089
 31
0.0
  0
LINE
  5
   6CC
  8
0
  6
CONTINUOUS
 62
     1
 10
-670.671581412054
 20
64.2248026382089
 30
0.0
 11
-672.671581412053
 21
64.2248026382089
 31
0.0
  0
LINE
  5
   6CD
  8
0
  6
CONTINUOUS
 62
     1
 10
-667.171580613629
 20
62.7247854720595
 30
0.0
 11
-667.171581412054
 21
64.2247854720593
 31
0.0
  0
LINE
  5
   6CE
  8
0
  6
CONTINUOUS
 62
     1
 10
-667.171580613629
 20
62.7248026382091
 30
0.0
 11
-672.671580613628
 21
62.7248026382091
 31
0.0
  0
LINE
  5
   6CF
  8
0
  6
CONTINUOUS
 62
     1
 10
-667.171580879771
 20
63.224802638209
 30
0.0
 11
-672.67158087977
 21
63.224802638209
 31
0.0
  0
LINE
  5
   6D0
  8
0
  6
CONTINUOUS
 62
     1
 10
-670.671581412054
 20
64.2247836090663
 30
0.0
 11
-670.67158465448
 21
70.3163211383736
 31
0.0
  0
LINE
  5
   6D1
  8
0
  6
DASHDOT
 62
     7
 10
-669.921579781993
 20
61.1623930140639
 30
0.0
 11
-669.921584264485
 21
69.5836387000705
 31
0.0
  0
LINE
  5
   6D2
  8
0
  6
CONTINUOUS
 62
     1
 10
-670.67158465448
 20
70.3163211383736
 30
0.0
 11
-675.771168085037
 21
78.9856016184624
 31
0.0
  0
LINE
  5
   6D3
  8
0
  6
CONTINUOUS
 62
     1
 10
-669.171584871898
 20
70.724784407491
 30
0.0
 11
-674.256487804975
 21
79.3691080745422
 31
0.0
  0
LINE
  5
   6D4
  8
0
  6
CONTINUOUS
 62
     1
 10
-669.171581412054
 20
64.2247844074919
 30
0.0
 11
-669.171584871898
 21
70.724784407491
 31
0.0
  0
LINE
  5
   6D5
  8
0
  6
CONTINUOUS
 62
     1
 10
-674.256487804975
 20
79.3691080745434
 30
0.0
 11
-674.36449151252
 21
130.224876989846
 31
0.0
  0
LINE
  5
   6D6
  8
0
  6
CONTINUOUS
 62
     1
 10
-675.771168085037
 20
78.9856016184633
 30
0.0
 11
-675.542385871374
 21
130.224876989846
 31
0.0
  0
LINE
  5
   6D7
  8
0
  6
CONTINUOUS
 62
     1
 10
-674.364491512521
 20
130.224876989846
 30
0.0
 11
-675.542385871374
 21
130.224876989846
 31
0.0
  0
LINE
  5
   6D8
  8
0
  6
CONTINUOUS
 62
     7
 10
-679.504676684462
 20
122.024973260894
 30
0.0
 11
-670.876778497324
 21
123.53958861663
 31
0.0
  0
LINE
  5
   6D9
  8
0
  6
CONTINUOUS
 62
     7
 10
-651.835899739503
 20
121.132432069121
 30
0.0
 11
-643.667795499642
 21
122.647047424857
 31
0.0
  0
INSERT
  5
   6DA
  8
0
  6
CONTINUOUS
 62
     7
  2
*UDIM504
 10
0.0
 20
0.0
 30
0.0
  0
INSERT
  5
   6DB
  8
0
  6
CONTINUOUS
 62
     7
  2
*UDIM505
 10
0.0
 20
0.0
 30
0.0
  0
INSERT
  5
   6DC
  8
0
  6
CONTINUOUS
 62
     7
  2
*UDIM506
 10
0.0
 20
0.0
 30
0.0
  0
INSERT
  5
   6DD
  8
0
  6
CONTINUOUS
 62
     7
  2
*UDIM507
 10
0.0
 20
0.0
 30
0.0
  0
INSERT
  5
   6DE
  8
0
  6
CONTINUOUS
 62
     7
  2
*UDIM508
 10
0.0
 20
0.0
 30
0.0
  0
INSERT
  5
   6DF
  8
0
  6
CONTINUOUS
 62
     7
  2
*UDIM509
 10
0.0
 20
0.0
 30
0.0
  0
INSERT
  5
   6E0
  8
0
  6
CONTINUOUS
 62
     7
  2
*UDIM510
 10
0.0
 20
0.0
 30
0.0
  0
INSERT
  5
   6E1
  8
0
  6
CONTINUOUS
 62
     7
  2
*UDIM511
 10
0.0
 20
0.0
 30
0.0
  0
INSERT
  5
   6E2
  8
0
  6
CONTINUOUS
 62
     7
  2
*UDIM512
 10
0.0
 20
0.0
 30
0.0
  0
INSERT
  5
   6E3
  8
0
  6
CONTINUOUS
 62
     7
  2
*UDIM513
 10
0.0
 20
0.0
 30
0.0
  0
TEXT
  5
   6E4
  8
0
  6
CONTINUOUS
 62
     7
 10
-611.762405407712
 20
-14.8992789445992
 30
0.0
 40
3.00000002980232
  1
=        =
 50
89.9999999480344
 41
0.916666604744064
 72
     2
 11
-611.762405383303
 21
12.0507194982294
 31
0.0
  0
INSERT
  5
   6E5
  8
0
  6
CONTINUOUS
 62
     7
  2
*UDIM514
 10
0.0
 20
0.0
 30
0.0
  0
LINE
  5
   6E6
  8
0
  6
CONTINUOUS
 62
     7
 10
-376.543273925781
 20
51.1505661010742
 30
0.0
 11
-348.543273925781
 21
51.1505661010742
 31
0.0
  0
LINE
  5
   6E7
  8
0
  6
CONTINUOUS
 62
     7
 10
-376.543273925781
 20
79.1505661010742
 30
0.0
 11
-348.543273925781
 21
79.1505661010742
 31
0.0
  0
LINE
  5
   6E8
  8
0
  6
CONTINUOUS
 62
     7
 10
-376.543273925781
 20
79.1505661010742
 30
0.0
 11
-376.543273925781
 21
51.1505661010742
 31
0.0
  0
LINE
  5
   6E9
  8
0
  6
CONTINUOUS
 62
     7
 10
-348.543273925781
 20
79.1505661010742
 30
0.0
 11
-348.543273925781
 21
51.1505661010742
 31
0.0
  0
CIRCLE
  5
   6EA
  8
0
  6
CONTINUOUS
 62
     7
 10
-372.543273925781
 20
82.9005661010742
 30
0.0
 40
0.875
  0
CIRCLE
  5
   6EB
  8
0
  6
CONTINUOUS
 62
     7
 10
-352.543273925781
 20
82.9005661010742
 30
0.0
 40
0.875
  0
CIRCLE
  5
   6EC
  8
0
  6
CONTINUOUS
 62
     7
 10
-372.543273925781
 20
47.4005661010742
 30
0.0
 40
0.875
  0
CIRCLE
  5
   6ED
  8
0
  6
CONTINUOUS
 62
     7
 10
-352.543273925781
 20
47.4005661010742
 30
0.0
 40
0.875
  0
LINE
  5
   6EE
  8
0
  6
DASHDOT
 62
     7
 10
-372.543273925781
 20
84.5255661010742
 30
0.0
 11
-372.543273925781
 21
81.2755661010742
 31
0.0
  0
LINE
  5
   6EF
  8
0
  6
DASHDOT
 62
     7
 10
-374.168273925781
 20
82.9005661010742
 30
0.0
 11
-370.918273925781
 21
82.9005661010742
 31
0.0
  0
LINE
  5
   6F0
  8
0
  6
DASHDOT
 62
     7
 10
-352.543273925781
 20
84.5255661010742
 30
0.0
 11
-352.543273925781
 21
81.2755661010742
 31
0.0
  0
LINE
  5
   6F1
  8
0
  6
DASHDOT
 62
     7
 10
-354.168273925781
 20
82.9005661010742
 30
0.0
 11
-350.918273925781
 21
82.9005661010742
 31
0.0
  0
LINE
  5
   6F2
  8
0
  6
DASHDOT
 62
     7
 10
-352.543273925781
 20
49.0255661010742
 30
0.0
 11
-352.543273925781
 21
45.7755661010742
 31
0.0
  0
LINE
  5
   6F3
  8
0
  6
DASHDOT
 62
     7
 10
-354.168273925781
 20
47.4005661010742
 30
0.0
 11
-350.918273925781
 21
47.4005661010742
 31
0.0
  0
LINE
  5
   6F4
  8
0
  6
DASHDOT
 62
     7
 10
-372.543273925781
 20
49.0255661010742
 30
0.0
 11
-372.543273925781
 21
45.7755661010742
 31
0.0
  0
LINE
  5
   6F5
  8
0
  6
DASHDOT
 62
     7
 10
-374.168273925781
 20
47.4005661010742
 30
0.0
 11
-370.918273925781
 21
47.4005661010742
 31
0.0
  0
LINE
  5
   6F6
  8
0
  6
DASHDOT
 62
     7
 10
-362.543273925781
 20
92.5206783864113
 30
0.0
 11
-362.543273925781
 21
36.0273152562532
 31
0.0
  0
LINE
  5
   6F7
  8
0
  6
CONTINUOUS
 62
     7
 10
-379.363850469447
 20
85.5517517562803
 30
0.0
 11
-345.40929024614
 21
85.5517517562803
 31
0.0
  0
LINE
  5
   6F8
  8
0
  6
CONTINUOUS
 62
     7
 10
-379.363850469447
 20
43.9866866553349
 30
0.0
 11
-345.40929024614
 21
43.9866866553349
 31
0.0
  0
LINE
  5
   6F9
  8
0
  6
CONTINUOUS
 62
     7
 10
-345.40929024614
 20
85.5517517562803
 30
0.0
 11
-345.40929024614
 21
43.9866866553349
 31
0.0
  0
LINE
  5
   6FA
  8
0
  6
CONTINUOUS
 62
     7
 10
-379.363850469447
 20
85.5517517562803
 30
0.0
 11
-379.363850469447
 21
43.9866866553349
 31
0.0
  0
LINE
  5
   6FB
  8
0
  6
DASHDOT
 62
     7
 10
-385.793602687837
 20
65.1505661010742
 30
0.0
 11
-336.57726745234
 21
65.1505661010742
 31
0.0
  0
TEXT
  5
   6FC
  8
0
  6
CONTINUOUS
 62
     7
 10
-411.668070922397
 20
63.9189013983864
 30
0.0
 40
3.00000002980232
  1
X
 50
359.999999844103
 41
0.916666604744064
 72
     2
 11
-409.468071053528
 21
63.9189013924114
 31
0.0
  0
TEXT
  5
   6FD
  8
0
  6
CONTINUOUS
 62
     7
 10
-397.096192421056
 20
54.2229866826585
 30
0.0
 40
3.00000002980232
  1
=      =
 50
449.999999844103
 41
0.916666604744064
 72
     2
 11
-397.096192362827
 21
75.6729854423851
 31
0.0
  0
TEXT
  5
   6FE
  8
0
  6
CONTINUOUS
 62
     7
 10
-388.22580617346
 20
55.1130669761748
 30
0.0
 40
3.00000002980232
  1
=     =
 50
449.999999844103
 41
0.916666604744064
 72
     2
 11
-388.225806122697
 21
73.8130658943505
 31
0.0
  0
INSERT
  5
   6FF
  8
0
  6
CONTINUOUS
 62
     7
  2
*UDIM515
 10
0.0
 20
0.0
 30
0.0
  0
TEXT
  5
   700
  8
0
  6
CONTINUOUS
 62
     7
 10
-369.443815918866
 20
98.3749119673513
 30
0.0
 40
3.00000002980232
  1
=   =
 50
359.999999844103
 41
0.916666604744064
 72
     2
 11
-356.243816683792
 21
98.3749119315016
 31
0.0
  0
TEXT
  5
   701
  8
0
  6
CONTINUOUS
 62
     7
 10
-369.502358170453
 20
91.8181702528738
 30
0.0
 40
3.00000002980232
  1
=   =
 50
359.999999844103
 41
0.916666604744064
 72
     2
 11
-356.302358935379
 21
91.8181702170241
 31
0.0
  0
INSERT
  5
   702
  8
0
  6
CONTINUOUS
 62
     7
  2
*UDIM516
 10
0.0
 20
0.0
 30
0.0
  0
INSERT
  5
   703
  8
0
  6
CONTINUOUS
 62
     7
  2
*UDIM517
 10
0.0
 20
0.0
 30
0.0
  0
INSERT
  5
   704
  8
0
  6
CONTINUOUS
 62
     7
  2
*UDIM518
 10
0.0
 20
0.0
 30
0.0
  0
INSERT
  5
   705
  8
0
  6
CONTINUOUS
 62
     7
  2
*UDIM519
 10
0.0
 20
0.0
 30
0.0
  0
TEXT
  5
   706
  8
0
  6
CONTINUOUS
 62
     7
 10
-363.731553922199
 20
29.1754721903852
 30
0.0
 40
3.00000002980232
  1
Y
 50
359.999999844103
 41
0.916666604744064
 72
     2
 11
-361.531554053329
 21
29.1754721844102
 31
0.0
  0
TEXT
  5
   707
  8
0
  6
CONTINUOUS
 62
     7
 10
-362.794876466297
 20
107.914928367143
 30
0.0
 40
3.00000002980232
  1
Y
 50
359.999999844103
 41
0.916666604744064
 72
     2
 11
-360.594876597427
 21
107.914928361168
 31
0.0
  0
TEXT
  5
   708
  8
0
  6
CONTINUOUS
 62
     7
 10
-334.892074475788
 20
63.2035476470044
 30
0.0
 40
3.00000002980232
  1
X
 50
359.999999844103
 41
0.916666604744064
 72
     2
 11
-332.692074606918
 21
63.2035476410295
 31
0.0
  0
ENDSEC
  0
EOF
