  0
SECTION
  2
HEADER
  9
$ACADVER
  1
AC1009
  9
$DWGCODEPAGE
  3
iso8859-1
  9
$INSBASE
 10
0.0
 20
0.0
 30
0.0
  9
$EXTMIN
 10
1.0E20
 20
1.0E20
  9
$EXTMAX
 10
-1.0E20
 20
-1.0E20
  9
$LIMMIN
 10
0.0
 20
0.0
  9
$LIMMAX
 10
12.0
 20
9.0
  9
$ORTHOMODE
 70
     0
  9
$REGENMODE
 70
     1
  9
$FILLMODE
 70
     1
  9
$QTEXTMODE
 70
     0
  9
$MIRRTEXT
 70
     1
  9
$DRAGMODE
 70
     2
  9
$LTSCALE
 40
15.0
  9
$OSMODE
 70
     0
  9
$ATTMODE
 70
     1
  9
$TEXTSIZE
 40
0.2
  9
$TRACEWID
 40
0.05
  9
$TEXTSTYLE
  7
STANDARD
  9
$CLAYER
  8
0
  9
$CELTYPE
  6
DASHED
  9
$CECOLOR
 62
   256
  9
$DIMSCALE
 40
1.0
  9
$DIMASZ
 40
0.18
  9
$DIMEXO
 40
0.0625
  9
$DIMDLI
 40
0.38
  9
$DIMRND
 40
0.0
  9
$DIMDLE
 40
0.0
  9
$DIMEXE
 40
0.18
  9
$DIMTP
 40
0.0
  9
$DIMTM
 40
0.0
  9
$DIMTXT
 40
0.18
  9
$DIMCEN
 40
0.09
  9
$DIMTSZ
 40
0.0
  9
$DIMTOL
 70
     0
  9
$DIMLIM
 70
     0
  9
$DIMTIH
 70
     1
  9
$DIMTOH
 70
     1
  9
$DIMSE1
 70
     0
  9
$DIMSE2
 70
     0
  9
$DIMTAD
 70
     0
  9
$DIMZIN
 70
     0
  9
$DIMBLK
  1

  9
$DIMASO
 70
     1
  9
$DIMSHO
 70
     1
  9
$DIMPOST
  1

  9
$DIMAPOST
  1

  9
$DIMALT
 70
     0
  9
$DIMALTD
 70
     2
  9
$DIMALTF
 40
25.4
  9
$DIMLFAC
 40
1.0
  9
$DIMTOFL
 70
     0
  9
$DIMTVP
 40
0.0
  9
$DIMTIX
 70
     0
  9
$DIMSOXD
 70
     0
  9
$DIMSAH
 70
     0
  9
$DIMBLK1
  1

  9
$DIMBLK2
  1

  9
$DIMSTYLE
  2
STANDARD
  9
$DIMCLRD
 70
     0
  9
$DIMCLRE
 70
     0
  9
$DIMCLRT
 70
     0
  9
$DIMTFAC
 40
1.0
  9
$DIMGAP
 40
0.09
  9
$LUNITS
 70
     2
  9
$LUPREC
 70
     4
  9
$AXISMODE
 70
     0
  9
$AXISUNIT
 10
0.0
 20
0.0
  9
$SKETCHINC
 40
0.1
  9
$FILLETRAD
 40
0.0
  9
$AUNITS
 70
     0
  9
$AUPREC
 70
     0
  9
$MENU
  1
acad
  9
$ELEVATION
 40
0.0
  9
$PELEVATION
 40
0.0
  9
$THICKNESS
 40
0.0
  9
$LIMCHECK
 70
     0
  9
$BLIPMODE
 70
     1
  9
$CHAMFERA
 40
0.0
  9
$CHAMFERB
 40
0.0
  9
$SKPOLY
 70
     0
  9
$TDCREATE
 40
0.000000000
  9
$TDUPDATE
 40
0.000000000
  9
$TDINDWG
 40
0.0
  9
$TDUSRTIMER
 40
0.0
  9
$USRTIMER
 70
     1
  9
$ANGBASE
 50
0.0
  9
$ANGDIR
 70
     0
  9
$PDMODE
 70
     0
  9
$PDSIZE
 40
0.0
  9
$PLINEWID
 40
0.0
  9
$COORDS
 70
     1
  9
$SPLFRAME
 70
     0
  9
$SPLINETYPE
 70
     6
  9
$SPLINESEGS
 70
     8
  9
$ATTDIA
 70
     0
  9
$ATTREQ
 70
     1
  9
$HANDLING
 70
     1
  9
$HANDSEED
  5
   93F
  9
$SURFTAB1
 70
     6
  9
$SURFTAB2
 70
     6
  9
$SURFTYPE
 70
     6
  9
$SURFU
 70
     6
  9
$SURFV
 70
     6
  9
$UCSNAME
  2

  9
$UCSORG
 10
0.0
 20
0.0
 30
0.0
  9
$UCSXDIR
 10
1.0
 20
0.0
 30
0.0
  9
$UCSYDIR
 10
0.0
 20
1.0
 30
0.0
  9
$PUCSNAME
  2

  9
$PUCSORG
 10
0.0
 20
0.0
 30
0.0
  9
$PUCSXDIR
 10
1.0
 20
0.0
 30
0.0
  9
$PUCSYDIR
 10
0.0
 20
1.0
 30
0.0
  9
$USERI1
 70
     0
  9
$USERI2
 70
     0
  9
$USERI3
 70
     0
  9
$USERI4
 70
     0
  9
$USERI5
 70
     0
  9
$USERR1
 40
0.0
  9
$USERR2
 40
0.0
  9
$USERR3
 40
0.0
  9
$USERR4
 40
0.0
  9
$USERR5
 40
0.0
  9
$WORLDVIEW
 70
     1
  9
$SHADEDGE
 70
     3
  9
$SHADEDIF
 70
    70
  9
$TILEMODE
 70
     1
  9
$MAXACTVP
 70
    16
  9
$PINSBASE
 10
0.0
 20
0.0
 30
0.0
  9
$PLIMCHECK
 70
     0
  9
$PEXTMIN
 10
1.0E20
 20
1.0E20
 30
1.0E20
  9
$PEXTMAX
 10
-1.0E20
 20
-1.0E20
 30
-1.0E20
  9
$PLIMMIN
 10
0.0
 20
0.0
  9
$PLIMMAX
 10
12.0
 20
9.0
  9
$UNITMODE
 70
     0
  9
$VISRETAIN
 70
     0
  0
ENDSEC
  0
SECTION
  2
TABLES
  0
TABLE
  2
VPORT
 70
     1
  0
VPORT
  2
*ACTIVE
 70
     0
 10
0.0
 20
0.0
 11
1.0
 21
1.0
 12
6.801242
 22
4.5
 13
0.0
 23
0.0
 14
1.0
 24
1.0
 15
0.0
 25
0.0
 16
0.0
 26
0.0
 36
1.0
 17
0.0
 27
0.0
 37
0.0
 40
9.0
 41
1.511387
 42
50.0
 43
0.0
 44
0.0
 50
0.0
 51
0.0
 71
     0
 72
   100
 73
     1
 74
     1
 75
     0
 76
     0
 77
     0
 78
     0
  0
ENDTAB
  0
TABLE
  2
LTYPE
 70
    41
  0
LTYPE
  2
BYBLOCK
 70
     0
  3

 72
    65
 73
     0
 40
0.0
  0
LTYPE
  2
BYLAYER
 70
     0
  3

 72
    65
 73
     0
 40
0.0
  0
LTYPE
  2
CONTINUOUS
 70
     0
  3
Solid line
 72
    65
 73
     0
 40
0.0
  0
LTYPE
  2
BORDER
 70
    64
  3
__ __ . __ __ . __ __ . __ __ . __ __ . __ __ .
 72
    65
 73
     6
 40
1.75
 49
0.5
 49
-0.25
 49
0.5
 49
-0.25
 49
0.0
 49
-0.25
  0
LTYPE
  2
BORDER2
 70
    64
  3
__.__.__.__.__.__.__.__.__.__.__.__.__.__.__.__
 72
    65
 73
     6
 40
0.875
 49
0.25
 49
-0.125
 49
0.25
 49
-0.125
 49
0.0
 49
-0.125
  0
LTYPE
  2
BORDERX2
 70
    64
  3
____  ____  .  ____  ____  .  ____  ____  .  __
 72
    65
 73
     6
 40
3.5
 49
1.0
 49
-0.5
 49
1.0
 49
-0.5
 49
0.0
 49
-0.5
  0
LTYPE
  2
CENTER
 70
    64
  3
____ _ ____ _ ____ _ ____ _ ____ _ ____ _ ____
 72
    65
 73
     4
 40
2.0
 49
1.25
 49
-0.25
 49
0.25
 49
-0.25
  0
LTYPE
  2
CENTER2
 70
    64
  3
___ _ ___ _ ___ _ ___ _ ___ _ ___ _ ___ _ ___ _
 72
    65
 73
     4
 40
1.125
 49
0.75
 49
-0.125
 49
0.125
 49
-0.125
  0
LTYPE
  2
CENTERX2
 70
    64
  3
________  __  ________  __  ________  __  _____
 72
    65
 73
     4
 40
4.0
 49
2.5
 49
-0.5
 49
0.5
 49
-0.5
  0
LTYPE
  2
DASHDOT
 70
    64
  3
__ . __ . __ . __ . __ . __ . __ . __ . __ . __
 72
    65
 73
     4
 40
1.0
 49
0.5
 49
-0.25
 49
0.0
 49
-0.25
  0
LTYPE
  2
DASHDOT2
 70
    64
  3
_._._._._._._._._._._._._._._._._._._._._._._._
 72
    65
 73
     4
 40
0.5
 49
0.25
 49
-0.125
 49
0.0
 49
-0.125
  0
LTYPE
  2
DASHDOTX2
 70
    64
  3
____  .  ____  .  ____  .  ____  .  ____  .  __
 72
    65
 73
     4
 40
2.0
 49
1.0
 49
-0.5
 49
0.0
 49
-0.5
  0
LTYPE
  2
DASHED
 70
    64
  3
__ __ __ __ __ __ __ __ __ __ __ __ __ __ __ __
 72
    65
 73
     2
 40
0.75
 49
0.5
 49
-0.25
  0
LTYPE
  2
DASHED2
 70
    64
  3
_ _ _ _ _ _ _ _ _ _ _ _ _ _ _ _ _ _ _ _ _ _ _ _
 72
    65
 73
     2
 40
0.375
 49
0.25
 49
-0.125
  0
LTYPE
  2
DASHEDX2
 70
    64
  3
____  ____  ____  ____  ____  ____  ____  ____
 72
    65
 73
     2
 40
1.5
 49
1.0
 49
-0.5
  0
LTYPE
  2
DIVIDE
 70
    64
  3
____ . . ____ . . ____ . . ____ . . ____ . . __
 72
    65
 73
     6
 40
1.25
 49
0.5
 49
-0.25
 49
0.0
 49
-0.25
 49
0.0
 49
-0.25
  0
LTYPE
  2
DIVIDE2
 70
    64
  3
__..__..__..__..__..__..__..__..__..__..__..__.
 72
    65
 73
     6
 40
0.625
 49
0.25
 49
-0.125
 49
0.0
 49
-0.125
 49
0.0
 49
-0.125
  0
LTYPE
  2
DIVIDEX2
 70
    64
  3
________  .  .  ________  .  .  ________  .  .
 72
    65
 73
     6
 40
2.5
 49
1.0
 49
-0.5
 49
0.0
 49
-0.5
 49
0.0
 49
-0.5
  0
LTYPE
  2
DOT
 70
    64
  3
. . . . . . . . . . . . . . . . . . . . . . . .
 72
    65
 73
     2
 40
0.25
 49
0.0
 49
-0.25
  0
LTYPE
  2
DOT2
 70
    64
  3
...............................................
 72
    65
 73
     2
 40
0.125
 49
0.0
 49
-0.125
  0
LTYPE
  2
DOTX2
 70
    64
  3
.  .  .  .  .  .  .  .  .  .  .  .  .  .  .  .
 72
    65
 73
     2
 40
0.5
 49
0.0
 49
-0.5
  0
LTYPE
  2
HIDDEN
 70
    64
  3
__ __ __ __ __ __ __ __ __ __ __ __ __ __ __ __
 72
    65
 73
     2
 40
0.375
 49
0.25
 49
-0.125
  0
LTYPE
  2
HIDDEN2
 70
    64
  3
_ _ _ _ _ _ _ _ _ _ _ _ _ _ _ _ _ _ _ _ _ _ _ _
 72
    65
 73
     2
 40
0.1875
 49
0.125
 49
-0.0625
  0
LTYPE
  2
HIDDENX2
 70
    64
  3
____ ____ ____ ____ ____ ____ ____ ____ ____ __
 72
    65
 73
     2
 40
0.75
 49
0.5
 49
-0.25
  0
LTYPE
  2
PHANTOM
 70
    64
  3
______  __  __  ______  __  __  ______  __  __
 72
    65
 73
     6
 40
2.5
 49
1.25
 49
-0.25
 49
0.25
 49
-0.25
 49
0.25
 49
-0.25
  0
LTYPE
  2
PHANTOM2
 70
    64
  3
___ _ _ ___ _ _ ___ _ _ ___ _ _ ___ _ _ ___ _ _
 72
    65
 73
     6
 40
1.25
 49
0.625
 49
-0.125
 49
0.125
 49
-0.125
 49
0.125
 49
-0.125
  0
LTYPE
  2
PHANTOMX2
 70
    64
  3
____________    ____    ____    ____________
 72
    65
 73
     6
 40
5.0
 49
2.5
 49
-0.5
 49
0.5
 49
-0.5
 49
0.5
 49
-0.5
  0
LTYPE
  2
ACAD_ISO02W100
 70
    64
  3
__ __ __ __ __ __ __ __ __ __ __ __ __ __ __ __
 72
    65
 73
     2
 40
15.0
 49
12.0
 49
-3.0
  0
LTYPE
  2
ACAD_ISO03W100
 70
    64
  3
__    __    __    __    __    __    __    __
 72
    65
 73
     2
 40
30.0
 49
12.0
 49
-18.0
  0
LTYPE
  2
ACAD_ISO04W100
 70
    64
  3
____ . ____ . ____ . ____ . ____ . ____ . ____
 72
    65
 73
     4
 40
30.5
 49
24.0
 49
-3.0
 49
0.5
 49
-3.0
  0
LTYPE
  2
ACAD_ISO05W100
 70
    64
  3
____ .. ____ .. ____ .. ____ .. ____ .. ____ ..
 72
    65
 73
     6
 40
34.0
 49
24.0
 49
-3.0
 49
0.5
 49
-3.0
 49
0.5
 49
-3.0
  0
LTYPE
  2
ACAD_ISO06W100
 70
    64
  3
____ ... ____ ... ____ ... ____ ... ____ ... __
 72
    65
 73
     8
 40
37.5
 49
24.0
 49
-3.0
 49
0.5
 49
-3.0
 49
0.5
 49
-3.0
 49
0.5
 49
-3.0
  0
LTYPE
  2
ACAD_ISO07W100
 70
    64
  3
. . . . . . . . . . . . . . . . . . . . . . . .
 72
    65
 73
     2
 40
3.5
 49
0.5
 49
-3.0
  0
LTYPE
  2
ACAD_ISO08W100
 70
    64
  3
____ __ ____ __ ____ __ ____ ____ __ __ ____ __
 72
    65
 73
     4
 40
36.0
 49
24.0
 49
-3.0
 49
6.0
 49
-3.0
  0
LTYPE
  2
ACAD_ISO09W100
 70
    64
  3
____ __ __ ____ __ __ ____ __ __ ____ __ __ ___
 72
    65
 73
     6
 40
45.0
 49
24.0
 49
-3.0
 49
6.0
 49
-3.0
 49
6.0
 49
-3.0
  0
LTYPE
  2
ACAD_ISO10W100
 70
    64
  3
__ . __ . __ . __ . __ . __ . __ . __ . __ . __
 72
    65
 73
     4
 40
18.5
 49
12.0
 49
-3.0
 49
0.5
 49
-3.0
  0
LTYPE
  2
ACAD_ISO11W100
 70
    64
  3
__ __ . __ __ . __ __ . __ __ . __ __ . __ __ .
 72
    65
 73
     6
 40
33.5
 49
12.0
 49
-3.0
 49
12.0
 49
-3.0
 49
0.5
 49
-3.0
  0
LTYPE
  2
ACAD_ISO12W100
 70
    64
  3
__ . . __ . . __ . . __ . . __ . . __ . . __ .
 72
    65
 73
     6
 40
22.0
 49
12.0
 49
-3.0
 49
0.5
 49
-3.0
 49
0.5
 49
-3.0
  0
LTYPE
  2
ACAD_ISO13W100
 70
    64
  3
__ __ . . __ __ . . __ __ . . __ __ . . __ __ .
 72
    65
 73
     8
 40
37.0
 49
12.0
 49
-3.0
 49
12.0
 49
-3.0
 49
0.5
 49
-3.0
 49
0.5
 49
-3.0
  0
LTYPE
  2
ACAD_ISO14W100
 70
    64
  3
__ . . . __ . . . __ . . . __ . . . __ . . . __
 72
    65
 73
     8
 40
25.5
 49
12.0
 49
-3.0
 49
0.5
 49
-3.0
 49
0.5
 49
-3.0
 49
0.5
 49
-3.0
  0
LTYPE
  2
ACAD_ISO15W100
 70
    64
  3
__ __ . . . __ __ . . . __ __ . . . __ __ . . .
 72
    65
 73
    10
 40
40.5
 49
12.0
 49
-3.0
 49
12.0
 49
-3.0
 49
0.5
 49
-3.0
 49
0.5
 49
-3.0
 49
0.5
 49
-3.0
  0
ENDTAB
  0
TABLE
  2
STYLE
 70
     4
  0
STYLE
  2
STANDARD
 70
    64
 40
0.0
 41
1.0
 50
0.0
 71
     0
 42
0.2
  3
txt
  4

  0
STYLE
  2
TOLERANCE
 70
    64
 40
0.0
 41
1.0
 50
0.0
 71
     0
 42
0.2
  3
../igesfont/iges1003.shx
  4

  0
STYLE
  2
ROMANS
 70
    64
 40
0.0
 41
1.0
 50
0.0
 71
     0
 42
0.2
  3
romans.shx
  4

  0
STYLE
  2
ROMANC
 70
    64
 40
0.0
 41
1.0
 50
0.0
 71
     0
 42
0.2
  3
romanc.shx
  4

  0
ENDTAB
  0
TABLE
  2
DIMSTYLE
 70
     2
  0
DIMSTYLE
  2
UNNAMED
 70
     0
  3

  4

  5

  6

  7

 40
1.0
 41
0.18
 42
0.0625
 43
0.38
 44
0.18
 45
0.0
 46
0.0
 47
0.0
 48
0.0
140
0.18
141
0.09
142
0.0
143
25.4
144
1.0
145
0.0
146
1.0
147
0.09
 71
     0
 72
     0
 73
     1
 74
     1
 75
     0
 76
     0
 77
     0
 78
     0
170
     0
171
     2
172
     0
173
     0
174
     0
175
     0
176
     0
177
     0
178
     0
  0
DIMSTYLE
  2
STANDARD
 70
     0
  3

  4

  5

  6

  7

 40
1.0
 41
0.18
 42
0.0625
 43
0.38
 44
0.18
 45
0.0
 46
0.0
 47
0.0
 48
0.0
140
0.18
141
0.09
142
0.0
143
25.4
144
1.0
145
0.0
146
1.0
147
0.09
 71
     0
 72
     0
 73
     1
 74
     1
 75
     0
 76
     0
 77
     0
 78
     0
170
     0
171
     2
172
     0
173
     0
174
     0
175
     0
176
     0
177
     0
178
     0
  0
ENDTAB
  0
TABLE
  2
LAYER
 70
     1
  0
LAYER
  2
0
 70
     0
 62
     7
  6
CONTINUOUS
  0
ENDTAB
  0
ENDSEC
  0
SECTION
  2
BLOCKS
  0
BLOCK
  5
     B
  8
0
  6
CONTINUOUS
 62
     7
  2
*UDIM114
 70
    65
 10
0.0
 20
0.0
 30
0.0
  3
*UDIM114
  0
TEXT
  5
     C
  8
0
  6
CONTINUOUS
 62
     7
 10
-428.694953918452
 20
-3.79709134073331
 30
0.0
 40
3.00000002980232
  1
105
 50
90.0
 41
0.933333333333333
 72
     1
 11
-430.194953933358
 21
0.102908698007823
 31
0.0
 73
     2
  0
LINE
  5
     D
  8
0
  6
CONTINUOUS
 62
     7
 10
-497.290416204665
 20
-12.7470910576131
 30
0.0
 11
-425.694953918457
 21
-12.7470910576131
 31
0.0
  0
LINE
  5
     E
  8
0
  6
CONTINUOUS
 62
     7
 10
-497.290416204665
 20
13.5029089423869
 30
0.0
 11
-425.694953918457
 21
13.5029089423869
 31
0.0
  0
LINE
  5
     F
  8
0
  6
CONTINUOUS
 62
     7
 10
-427.694953918457
 20
-12.7470910576131
 30
0.0
 11
-427.694953918457
 21
13.5029089423869
 31
0.0
  0
LINE
  5
    10
  8
0
  6
CONTINUOUS
 62
     7
 10
-428.215898436457
 20
-9.79266779593152
 30
0.0
 11
-427.694953918457
 21
-12.7470910576131
 31
0.0
  0
LINE
  5
    11
  8
0
  6
CONTINUOUS
 62
     7
 10
-427.694953918457
 20
-12.7470910576131
 30
0.0
 11
-427.174009400457
 21
-9.79266779593152
 31
0.0
  0
LINE
  5
    12
  8
0
  6
CONTINUOUS
 62
     7
 10
-427.174009400457
 20
10.5484856807053
 30
0.0
 11
-427.694953918457
 21
13.5029089423869
 31
0.0
  0
LINE
  5
    13
  8
0
  6
CONTINUOUS
 62
     7
 10
-427.694953918457
 20
13.5029089423869
 30
0.0
 11
-428.215898436457
 21
10.5484856807053
 31
0.0
  0
ENDBLK
  5
    14
  8
0
  6
CONTINUOUS
 62
     7
  0
BLOCK
  5
    15
  8
0
  6
CONTINUOUS
 62
     7
  2
*UDIM115
 70
    65
 10
0.0
 20
0.0
 30
0.0
  3
*UDIM115
  0
TEXT
  5
    16
  8
0
  6
CONTINUOUS
 62
     7
 10
-405.542419433589
 20
-3.23460278697632
 30
0.0
 40
3.00000002980232
  1
170
 50
90.0
 41
0.933333333333333
 72
     1
 11
-407.042419448495
 21
0.665397251764812
 31
0.0
 73
     2
  0
LINE
  5
    17
  8
0
  6
CONTINUOUS
 62
     7
 10
-446.540379260252
 20
-20.3096034873328
 30
0.0
 11
-402.542419433594
 21
-20.3096034873328
 31
0.0
  0
LINE
  5
    18
  8
0
  6
CONTINUOUS
 62
     7
 10
-446.540383784016
 20
22.1903965126673
 30
0.0
 11
-402.542419433594
 21
22.1903965126673
 31
0.0
  0
LINE
  5
    19
  8
0
  6
CONTINUOUS
 62
     7
 10
-404.542419433594
 20
-20.3096034873328
 30
0.0
 11
-404.542419433594
 21
22.1903965126673
 31
0.0
  0
LINE
  5
    1A
  8
0
  6
CONTINUOUS
 62
     7
 10
-405.063363951594
 20
-17.3551802256512
 30
0.0
 11
-404.542419433594
 21
-20.3096034873328
 31
0.0
  0
LINE
  5
    1B
  8
0
  6
CONTINUOUS
 62
     7
 10
-404.542419433594
 20
-20.3096034873328
 30
0.0
 11
-404.021474915594
 21
-17.3551802256512
 31
0.0
  0
LINE
  5
    1C
  8
0
  6
CONTINUOUS
 62
     7
 10
-404.021474915594
 20
19.2359732509856
 30
0.0
 11
-404.542419433594
 21
22.1903965126673
 31
0.0
  0
LINE
  5
    1D
  8
0
  6
CONTINUOUS
 62
     7
 10
-404.542419433594
 20
22.1903965126673
 30
0.0
 11
-405.063363951594
 21
19.2359732509856
 31
0.0
  0
ENDBLK
  5
    1E
  8
0
  6
CONTINUOUS
 62
     7
  0
BLOCK
  5
    1F
  8
0
  6
CONTINUOUS
 62
     7
  2
*UDIM116
 70
    65
 10
0.0
 20
0.0
 30
0.0
  3
*UDIM116
  0
TEXT
  5
    20
  8
0
  6
CONTINUOUS
 62
     7
 10
-417.622001647943
 20
5.70915293909836
 30
0.0
 40
3.00000002980232
  1
87,2
 50
90.0
 41
0.933333333333333
 72
     1
 11
-419.12200166285
 21
11.0091529917472
 31
0.0
 73
     2
  0
LINE
  5
    21
  8
0
  6
CONTINUOUS
 62
     7
 10
-437.789945497377
 20
0.377907992632032
 30
0.0
 11
-414.622001647949
 21
0.377907992632032
 31
0.0
  0
LINE
  5
    22
  8
0
  6
CONTINUOUS
 62
     7
 10
-446.540383784016
 20
22.1903965126673
 30
0.0
 11
-414.622001647949
 21
22.1903965126673
 31
0.0
  0
LINE
  5
    23
  8
0
  6
CONTINUOUS
 62
     7
 10
-416.622001647949
 20
0.377907992632032
 30
0.0
 11
-416.622001647949
 21
22.1903965126673
 31
0.0
  0
LINE
  5
    24
  8
0
  6
CONTINUOUS
 62
     7
 10
-417.14294616595
 20
3.33233125431364
 30
0.0
 11
-416.622001647949
 21
0.377907992632032
 31
0.0
  0
LINE
  5
    25
  8
0
  6
CONTINUOUS
 62
     7
 10
-416.622001647949
 20
0.377907992632032
 30
0.0
 11
-416.101057129949
 21
3.33233125431364
 31
0.0
  0
LINE
  5
    26
  8
0
  6
CONTINUOUS
 62
     7
 10
-416.101057129949
 20
19.2359732509856
 30
0.0
 11
-416.622001647949
 21
22.1903965126673
 31
0.0
  0
LINE
  5
    27
  8
0
  6
CONTINUOUS
 62
     7
 10
-416.622001647949
 20
22.1903965126673
 30
0.0
 11
-417.14294616595
 21
19.2359732509856
 31
0.0
  0
ENDBLK
  5
    28
  8
0
  6
CONTINUOUS
 62
     7
  0
BLOCK
  5
    29
  8
0
  6
CONTINUOUS
 62
     7
  2
*UDIM117
 70
    65
 10
0.0
 20
0.0
 30
0.0
  3
*UDIM117
  0
TEXT
  5
    2A
  8
0
  6
CONTINUOUS
 62
     7
 10
-518.401424817554
 20
48.6909255981445
 30
0.0
 40
3.00000002980232
  1
35
 41
0.933333333333333
 72
     1
 11
-515.901424792719
 21
50.1909256130457
 31
0.0
 73
     2
  0
LINE
  5
    2B
  8
0
  6
CONTINUOUS
 62
     7
 10
-520.040395896101
 20
28.8903963479602
 30
0.0
 11
-520.040395896101
 21
49.6909255981445
 31
0.0
  0
LINE
  5
    2C
  8
0
  6
CONTINUOUS
 62
     7
 10
-511.290379299879
 20
28.8903846180332
 30
0.0
 11
-511.290379299879
 21
49.6909255981445
 31
0.0
  0
LINE
  5
    2D
  8
0
  6
CONTINUOUS
 62
     7
 10
-520.040395896101
 20
47.6909255981445
 30
0.0
 11
-511.290379299879
 21
47.6909255981445
 31
0.0
  0
LINE
  5
    2E
  8
0
  6
CONTINUOUS
 62
     7
 10
-522.994819157783
 20
47.1699810801442
 30
0.0
 11
-520.040395896101
 21
47.6909255981445
 31
0.0
  0
LINE
  5
    2F
  8
0
  6
CONTINUOUS
 62
     7
 10
-520.040395896101
 20
47.6909255981445
 30
0.0
 11
-522.994819157783
 21
48.2118701161449
 31
0.0
  0
LINE
  5
    30
  8
0
  6
CONTINUOUS
 62
     7
 10
-508.335956038198
 20
48.2118701161449
 30
0.0
 11
-511.290379299879
 21
47.6909255981445
 31
0.0
  0
LINE
  5
    31
  8
0
  6
CONTINUOUS
 62
     7
 10
-511.290379299879
 20
47.6909255981445
 30
0.0
 11
-508.335956038198
 21
47.1699810801442
 31
0.0
  0
ENDBLK
  5
    32
  8
0
  6
CONTINUOUS
 62
     7
  0
BLOCK
  5
    33
  8
0
  6
CONTINUOUS
 62
     7
  2
*UDIM118
 70
    65
 10
0.0
 20
0.0
 30
0.0
  3
*UDIM118
  0
TEXT
  5
    34
  8
0
  6
CONTINUOUS
 62
     7
 10
-509.548368867289
 20
48.6909255981445
 30
0.0
 40
3.00000002980232
  1
35
 41
0.933333333333333
 72
     1
 11
-507.048368842453
 21
50.1909256130457
 31
0.0
 73
     2
  0
LINE
  5
    35
  8
0
  6
CONTINUOUS
 62
     7
 10
-502.540379303635
 20
28.8903756460378
 30
0.0
 11
-502.540379303635
 21
49.6909255981445
 31
0.0
  0
LINE
  5
    36
  8
0
  6
CONTINUOUS
 62
     7
 10
-511.290379299879
 20
47.6909255981445
 30
0.0
 11
-502.540379303635
 21
47.6909255981445
 31
0.0
  0
LINE
  5
    37
  8
0
  6
CONTINUOUS
 62
     7
 10
-514.244802561561
 20
47.1699810801442
 30
0.0
 11
-511.290379299879
 21
47.6909255981445
 31
0.0
  0
LINE
  5
    38
  8
0
  6
CONTINUOUS
 62
     7
 10
-511.290379299879
 20
47.6909255981445
 30
0.0
 11
-514.244802561561
 21
48.2118701161449
 31
0.0
  0
LINE
  5
    39
  8
0
  6
CONTINUOUS
 62
     7
 10
-499.585956041954
 20
48.2118701161449
 30
0.0
 11
-502.540379303635
 21
47.6909255981445
 31
0.0
  0
LINE
  5
    3A
  8
0
  6
CONTINUOUS
 62
     7
 10
-502.540379303635
 20
47.6909255981445
 30
0.0
 11
-499.585956041954
 21
47.1699810801442
 31
0.0
  0
ENDBLK
  5
    3B
  8
0
  6
CONTINUOUS
 62
     7
  0
BLOCK
  5
    3C
  8
0
  6
CONTINUOUS
 62
     7
  2
*UDIM119
 70
    65
 10
0.0
 20
0.0
 30
0.0
  3
*UDIM119
  0
TEXT
  5
    3D
  8
0
  6
CONTINUOUS
 62
     7
 10
-501.075504702479
 20
48.6909255981445
 30
0.0
 40
3.00000002980232
  1
35
 41
0.933333333333333
 72
     1
 11
-498.575504677643
 21
50.1909256130457
 31
0.0
 73
     2
  0
LINE
  5
    3E
  8
0
  6
CONTINUOUS
 62
     7
 10
-493.790432648221
 20
28.8903927226276
 30
0.0
 11
-493.790432648221
 21
49.6909255981445
 31
0.0
  0
LINE
  5
    3F
  8
0
  6
CONTINUOUS
 62
     7
 10
-502.540379303635
 20
47.6909255981445
 30
0.0
 11
-493.790432648221
 21
47.6909255981445
 31
0.0
  0
LINE
  5
    40
  8
0
  6
CONTINUOUS
 62
     7
 10
-505.494802565317
 20
47.1699810801442
 30
0.0
 11
-502.540379303635
 21
47.6909255981445
 31
0.0
  0
LINE
  5
    41
  8
0
  6
CONTINUOUS
 62
     7
 10
-502.540379303635
 20
47.6909255981445
 30
0.0
 11
-505.494802565317
 21
48.2118701161449
 31
0.0
  0
LINE
  5
    42
  8
0
  6
CONTINUOUS
 62
     7
 10
-490.836009386539
 20
48.2118701161449
 30
0.0
 11
-493.790432648221
 21
47.6909255981445
 31
0.0
  0
LINE
  5
    43
  8
0
  6
CONTINUOUS
 62
     7
 10
-493.790432648221
 20
47.6909255981445
 30
0.0
 11
-490.836009386539
 21
47.1699810801442
 31
0.0
  0
ENDBLK
  5
    44
  8
0
  6
CONTINUOUS
 62
     7
  0
BLOCK
  5
    45
  8
0
  6
CONTINUOUS
 62
     7
  2
*UDIM120
 70
    65
 10
0.0
 20
0.0
 30
0.0
  3
*UDIM120
  0
TEXT
  5
    46
  8
0
  6
CONTINUOUS
 62
     7
 10
-488.315424385631
 20
48.6909255981445
 30
0.0
 40
3.00000002980232
  1
66
 41
0.933333333333333
 72
     1
 11
-485.815424360796
 21
50.1909256130457
 31
0.0
 73
     2
  0
LINE
  5
    47
  8
0
  6
CONTINUOUS
 62
     7
 10
-477.290413140823
 20
28.8903972247449
 30
0.0
 11
-477.290413140823
 21
49.6909255981445
 31
0.0
  0
LINE
  5
    48
  8
0
  6
CONTINUOUS
 62
     7
 10
-493.790432648221
 20
47.6909255981445
 30
0.0
 11
-477.290413140823
 21
47.6909255981445
 31
0.0
  0
LINE
  5
    49
  8
0
  6
CONTINUOUS
 62
     7
 10
-490.836009386539
 20
48.2118701161449
 30
0.0
 11
-493.790432648221
 21
47.6909255981445
 31
0.0
  0
LINE
  5
    4A
  8
0
  6
CONTINUOUS
 62
     7
 10
-493.790432648221
 20
47.6909255981445
 30
0.0
 11
-490.836009386539
 21
47.1699810801442
 31
0.0
  0
LINE
  5
    4B
  8
0
  6
CONTINUOUS
 62
     7
 10
-480.244836402504
 20
47.1699810801442
 30
0.0
 11
-477.290413140823
 21
47.6909255981445
 31
0.0
  0
LINE
  5
    4C
  8
0
  6
CONTINUOUS
 62
     7
 10
-477.290413140823
 20
47.6909255981445
 30
0.0
 11
-480.244836402504
 21
48.2118701161449
 31
0.0
  0
ENDBLK
  5
    4D
  8
0
  6
CONTINUOUS
 62
     7
  0
BLOCK
  5
    4E
  8
0
  6
CONTINUOUS
 62
     7
  2
*UDIM121
 70
    65
 10
0.0
 20
0.0
 30
0.0
  3
*UDIM121
  0
TEXT
  5
    4F
  8
0
  6
CONTINUOUS
 62
     7
 10
-466.912481256161
 20
48.6909255981445
 30
0.0
 40
3.00000002980232
  1
35
 41
0.933333333333333
 72
     1
 11
-464.412481231325
 21
50.1909256130457
 31
0.0
 73
     2
  0
LINE
  5
    50
  8
0
  6
CONTINUOUS
 62
     7
 10
-468.540383901296
 20
28.8904022527683
 30
0.0
 11
-468.540383901296
 21
49.6909255981445
 31
0.0
  0
LINE
  5
    51
  8
0
  6
CONTINUOUS
 62
     7
 10
-477.290413140823
 20
47.6909255981445
 30
0.0
 11
-461.91248120649
 21
47.6909255981445
 31
0.0
  0
LINE
  5
    52
  8
0
  6
CONTINUOUS
 62
     7
 10
-474.335989879141
 20
48.2118701161449
 30
0.0
 11
-477.290413140823
 21
47.6909255981445
 31
0.0
  0
LINE
  5
    53
  8
0
  6
CONTINUOUS
 62
     7
 10
-477.290413140823
 20
47.6909255981445
 30
0.0
 11
-474.335989879141
 21
47.1699810801442
 31
0.0
  0
LINE
  5
    54
  8
0
  6
CONTINUOUS
 62
     7
 10
-471.494807162978
 20
47.1699810801442
 30
0.0
 11
-468.540383901296
 21
47.6909255981445
 31
0.0
  0
LINE
  5
    55
  8
0
  6
CONTINUOUS
 62
     7
 10
-468.540383901296
 20
47.6909255981445
 30
0.0
 11
-471.494807162978
 21
48.2118701161449
 31
0.0
  0
ENDBLK
  5
    56
  8
0
  6
CONTINUOUS
 62
     7
  0
BLOCK
  5
    57
  8
0
  6
CONTINUOUS
 62
     7
  2
*UDIM122
 70
    65
 10
0.0
 20
0.0
 30
0.0
  3
*UDIM122
  0
TEXT
  5
    58
  8
0
  6
CONTINUOUS
 62
     7
 10
-477.065382198157
 20
48.6909255981445
 30
0.0
 40
3.00000002980232
  1
35
 41
0.933333333333333
 72
     1
 11
-474.565382173321
 21
50.1909256130457
 31
0.0
 73
     2
  0
LINE
  5
    59
  8
0
  6
CONTINUOUS
 62
     7
 10
-459.790379300938
 20
28.8903252888105
 30
0.0
 11
-459.790379300938
 21
49.6909255981445
 31
0.0
  0
LINE
  5
    5A
  8
0
  6
CONTINUOUS
 62
     7
 10
-477.065382198157
 20
47.6909255981445
 30
0.0
 11
-459.790379300938
 21
47.6909255981445
 31
0.0
  0
LINE
  5
    5B
  8
0
  6
CONTINUOUS
 62
     7
 10
-465.585960639614
 20
48.2118701161449
 30
0.0
 11
-468.540383901296
 21
47.6909255981445
 31
0.0
  0
LINE
  5
    5C
  8
0
  6
CONTINUOUS
 62
     7
 10
-468.540383901296
 20
47.6909255981445
 30
0.0
 11
-465.585960639614
 21
47.1699810801442
 31
0.0
  0
LINE
  5
    5D
  8
0
  6
CONTINUOUS
 62
     7
 10
-462.744802562619
 20
47.1699810801442
 30
0.0
 11
-459.790379300938
 21
47.6909255981445
 31
0.0
  0
LINE
  5
    5E
  8
0
  6
CONTINUOUS
 62
     7
 10
-459.790379300938
 20
47.6909255981445
 30
0.0
 11
-462.744802562619
 21
48.2118701161449
 31
0.0
  0
ENDBLK
  5
    5F
  8
0
  6
CONTINUOUS
 62
     7
  0
BLOCK
  5
    60
  8
0
  6
CONTINUOUS
 62
     7
  2
*UDIM123
 70
    65
 10
0.0
 20
0.0
 30
0.0
  3
*UDIM123
  0
TEXT
  5
    61
  8
0
  6
CONTINUOUS
 62
     7
 10
-458.439619447643
 20
48.6909255981445
 30
0.0
 40
3.00000002980232
  1
35
 41
0.933333333333333
 72
     1
 11
-455.939619422807
 21
50.1909256130457
 31
0.0
 73
     2
  0
LINE
  5
    62
  8
0
  6
CONTINUOUS
 62
     7
 10
-451.040422426146
 20
28.8903948602025
 30
0.0
 11
-451.040422426146
 21
49.6909255981445
 31
0.0
  0
LINE
  5
    63
  8
0
  6
CONTINUOUS
 62
     7
 10
-459.790379300938
 20
47.6909255981445
 30
0.0
 11
-451.040422426146
 21
47.6909255981445
 31
0.0
  0
LINE
  5
    64
  8
0
  6
CONTINUOUS
 62
     7
 10
-462.744802562619
 20
47.1699810801442
 30
0.0
 11
-459.790379300938
 21
47.6909255981445
 31
0.0
  0
LINE
  5
    65
  8
0
  6
CONTINUOUS
 62
     7
 10
-459.790379300938
 20
47.6909255981445
 30
0.0
 11
-462.744802562619
 21
48.2118701161449
 31
0.0
  0
LINE
  5
    66
  8
0
  6
CONTINUOUS
 62
     7
 10
-448.085999164465
 20
48.2118701161449
 30
0.0
 11
-451.040422426146
 21
47.6909255981445
 31
0.0
  0
LINE
  5
    67
  8
0
  6
CONTINUOUS
 62
     7
 10
-451.040422426146
 20
47.6909255981445
 30
0.0
 11
-448.085999164465
 21
47.1699810801442
 31
0.0
  0
ENDBLK
  5
    68
  8
0
  6
CONTINUOUS
 62
     7
  0
BLOCK
  5
    69
  8
0
  6
CONTINUOUS
 62
     7
  2
*UDIM124
 70
    65
 10
0.0
 20
0.0
 30
0.0
  3
*UDIM124
  0
TEXT
  5
    6A
  8
0
  6
CONTINUOUS
 62
     7
 10
-552.616121292109
 20
-3.23460087477972
 30
0.0
 40
3.00000002980232
  1
265
 50
90.0
 41
0.933333333333333
 72
     1
 11
-554.116121307015
 21
0.665399163961414
 31
0.0
 73
     2
  0
LINE
  5
    6B
  8
0
  6
CONTINUOUS
 62
     7
 10
-530.290405273438
 20
-32.1846008300781
 30
0.0
 11
-553.616121292114
 21
-32.1846008300781
 31
0.0
  0
LINE
  5
    6C
  8
0
  6
CONTINUOUS
 62
     7
 10
-530.290405273438
 20
34.0653991699219
 30
0.0
 11
-553.616121292114
 21
34.0653991699219
 31
0.0
  0
LINE
  5
    6D
  8
0
  6
CONTINUOUS
 62
     7
 10
-551.616121292114
 20
-32.1846008300781
 30
0.0
 11
-551.616121292114
 21
34.0653991699219
 31
0.0
  0
LINE
  5
    6E
  8
0
  6
CONTINUOUS
 62
     7
 10
-552.137065810115
 20
-29.2301775683965
 30
0.0
 11
-551.616121292114
 21
-32.1846008300781
 31
0.0
  0
LINE
  5
    6F
  8
0
  6
CONTINUOUS
 62
     7
 10
-551.616121292114
 20
-32.1846008300781
 30
0.0
 11
-551.095176774114
 21
-29.2301775683965
 31
0.0
  0
LINE
  5
    70
  8
0
  6
CONTINUOUS
 62
     7
 10
-551.095176774114
 20
31.1109759082403
 30
0.0
 11
-551.616121292114
 21
34.0653991699219
 31
0.0
  0
LINE
  5
    71
  8
0
  6
CONTINUOUS
 62
     7
 10
-551.616121292114
 20
34.0653991699219
 30
0.0
 11
-552.137065810115
 21
31.1109759082403
 31
0.0
  0
ENDBLK
  5
    72
  8
0
  6
CONTINUOUS
 62
     7
  0
BLOCK
  5
    73
  8
0
  6
CONTINUOUS
 62
     7
  2
*UDIM125
 70
    65
 10
0.0
 20
0.0
 30
0.0
  3
*UDIM125
  0
TEXT
  5
    74
  8
0
  6
CONTINUOUS
 62
     7
 10
-541.644849777213
 20
10.2466529127134
 30
0.0
 40
3.00000002980232
  1
134,5
 50
90.0
 41
0.933333333333333
 72
     1
 11
-543.144849792123
 21
16.94665297927
 31
0.0
 73
     2
  0
LINE
  5
    75
  8
0
  6
CONTINUOUS
 62
     7
 10
-531.494110874895
 20
0.377907992632032
 30
0.0
 11
-542.644849777222
 21
0.377907992632032
 31
0.0
  0
LINE
  5
    76
  8
0
  6
CONTINUOUS
 62
     7
 10
-530.290405273438
 20
34.0653991699219
 30
0.0
 11
-542.644849777222
 21
34.0653991699219
 31
0.0
  0
LINE
  5
    77
  8
0
  6
CONTINUOUS
 62
     7
 10
-540.644849777222
 20
0.377907992632032
 30
0.0
 11
-540.644849777222
 21
34.0653991699219
 31
0.0
  0
LINE
  5
    78
  8
0
  6
CONTINUOUS
 62
     7
 10
-541.165794295222
 20
3.33233125431364
 30
0.0
 11
-540.644849777222
 21
0.377907992632032
 31
0.0
  0
LINE
  5
    79
  8
0
  6
CONTINUOUS
 62
     7
 10
-540.644849777222
 20
0.377907992632032
 30
0.0
 11
-540.123905259221
 21
3.33233125431364
 31
0.0
  0
LINE
  5
    7A
  8
0
  6
CONTINUOUS
 62
     7
 10
-540.123905259221
 20
31.1109759082403
 30
0.0
 11
-540.644849777222
 21
34.0653991699219
 31
0.0
  0
LINE
  5
    7B
  8
0
  6
CONTINUOUS
 62
     7
 10
-540.644849777222
 20
34.0653991699219
 30
0.0
 11
-541.165794295222
 21
31.1109759082403
 31
0.0
  0
ENDBLK
  5
    7C
  8
0
  6
CONTINUOUS
 62
     7
  0
BLOCK
  5
    7D
  8
0
  6
CONTINUOUS
 62
     7
  2
*UDIM126
 70
    65
 10
0.0
 20
0.0
 30
0.0
  3
*UDIM126
  0
TEXT
  5
    7E
  8
0
  6
CONTINUOUS
 62
     7
 10
-489.715405318141
 20
63.5727462768555
 30
0.0
 40
3.00000002980232
  1
350
 41
0.933333333333333
 72
     1
 11
-485.815405279398
 21
65.0727462917566
 31
0.0
 73
     2
  0
LINE
  5
    7F
  8
0
  6
CONTINUOUS
 62
     7
 10
-529.290405273438
 20
35.0653991699219
 30
0.0
 11
-529.290405273438
 21
64.5727462768555
 31
0.0
  0
LINE
  5
    80
  8
0
  6
CONTINUOUS
 62
     7
 10
-441.790405273438
 20
35.0653991699219
 30
0.0
 11
-441.790405273438
 21
64.5727462768555
 31
0.0
  0
LINE
  5
    81
  8
0
  6
CONTINUOUS
 62
     7
 10
-529.290405273438
 20
62.5727462768555
 30
0.0
 11
-441.790405273438
 21
62.5727462768555
 31
0.0
  0
LINE
  5
    82
  8
0
  6
CONTINUOUS
 62
     7
 10
-526.335982011756
 20
63.0936907948558
 30
0.0
 11
-529.290405273438
 21
62.5727462768555
 31
0.0
  0
LINE
  5
    83
  8
0
  6
CONTINUOUS
 62
     7
 10
-529.290405273438
 20
62.5727462768555
 30
0.0
 11
-526.335982011756
 21
62.0518017588551
 31
0.0
  0
LINE
  5
    84
  8
0
  6
CONTINUOUS
 62
     7
 10
-444.744828535119
 20
62.0518017588551
 30
0.0
 11
-441.790405273438
 21
62.5727462768555
 31
0.0
  0
LINE
  5
    85
  8
0
  6
CONTINUOUS
 62
     7
 10
-441.790405273438
 20
62.5727462768555
 30
0.0
 11
-444.744828535119
 21
63.0936907948558
 31
0.0
  0
ENDBLK
  5
    86
  8
0
  6
CONTINUOUS
 62
     7
  0
BLOCK
  5
    87
  8
0
  6
CONTINUOUS
 62
     7
  2
*UDIM127
 70
    65
 10
0.0
 20
0.0
 30
0.0
  3
*UDIM127
  0
TEXT
  5
    88
  8
0
  6
CONTINUOUS
 62
     7
 10
-435.815443649292
 20
-68.9436035111027
 30
0.0
 40
3.00000002980232
  1
12
 50
359.999999896069
 41
0.933333333333333
 72
     1
 11
-433.315443621744
 21
-67.4436035007238
 31
0.0
 73
     2
  0
LINE
  5
    89
  8
0
  6
CONTINUOUS
 62
     7
 10
-438.790442678668
 20
-140.492020130157
 30
0.0
 11
-438.790442678668
 21
-67.943603515625
 31
0.0
  0
LINE
  5
    8A
  8
0
  6
CONTINUOUS
 62
     7
 10
-441.790420532227
 20
-86.4919661417264
 30
0.0
 11
-441.790420532227
 21
-67.943603515625
 31
0.0
  0
LINE
  5
    8B
  8
0
  6
CONTINUOUS
 62
     7
 10
-430.815443596908
 20
-69.943603515625
 30
0.0
 11
-441.790420532227
 21
-69.943603515625
 31
0.0
  0
LINE
  5
    8C
  8
0
  6
CONTINUOUS
 62
     7
 10
-435.836019416986
 20
-69.4226589976247
 30
0.0
 11
-438.790442678668
 21
-69.943603515625
 31
0.0
  0
LINE
  5
    8D
  8
0
  6
CONTINUOUS
 62
     7
 10
-438.790442678668
 20
-69.943603515625
 30
0.0
 11
-435.836019416986
 21
-70.4645480336253
 31
0.0
  0
LINE
  5
    8E
  8
0
  6
CONTINUOUS
 62
     7
 10
-444.744843793908
 20
-70.4645480336253
 30
0.0
 11
-441.790420532227
 21
-69.943603515625
 31
0.0
  0
LINE
  5
    8F
  8
0
  6
CONTINUOUS
 62
     7
 10
-441.790420532227
 20
-69.943603515625
 30
0.0
 11
-444.744843793908
 21
-69.4226589976247
 31
0.0
  0
ENDBLK
  5
    90
  8
0
  6
CONTINUOUS
 62
     7
  0
BLOCK
  5
    91
  8
0
  6
CONTINUOUS
 62
     7
  2
*UDIM128
 70
    65
 10
0.0
 20
0.0
 30
0.0
  3
*UDIM128
  0
TEXT
  5
    92
  8
0
  6
CONTINUOUS
 62
     7
 10
-544.378098733322
 20
-140.792004471749
 30
0.0
 40
3.00000002980232
  1
275
 50
449.999999896069
 41
0.933333333333333
 72
     1
 11
-545.878098741174
 21
-136.892004430294
 31
0.0
 73
     2
  0
LINE
  5
    93
  8
0
  6
CONTINUOUS
 62
     7
 10
-528.790389906782
 20
-102.242004394531
 30
0.0
 11
-545.378098726273
 21
-102.242004394531
 31
0.0
  0
LINE
  5
    94
  8
0
  6
CONTINUOUS
 62
     7
 10
-525.415431976318
 20
-170.992004394531
 30
0.0
 11
-545.378098726273
 21
-170.992004394531
 31
0.0
  0
LINE
  5
    95
  8
0
  6
CONTINUOUS
 62
     7
 10
-543.378098726273
 20
-102.242004394531
 30
0.0
 11
-543.378098726273
 21
-170.992004394531
 31
0.0
  0
LINE
  5
    96
  8
0
  6
CONTINUOUS
 62
     7
 10
-542.857154208272
 20
-105.196427656213
 30
0.0
 11
-543.378098726273
 21
-102.242004394531
 31
0.0
  0
LINE
  5
    97
  8
0
  6
CONTINUOUS
 62
     7
 10
-543.378098726273
 20
-102.242004394531
 30
0.0
 11
-543.899043244273
 21
-105.196427656213
 31
0.0
  0
LINE
  5
    98
  8
0
  6
CONTINUOUS
 62
     7
 10
-543.899043244273
 20
-168.03758113285
 30
0.0
 11
-543.378098726273
 21
-170.992004394531
 31
0.0
  0
LINE
  5
    99
  8
0
  6
CONTINUOUS
 62
     7
 10
-543.378098726273
 20
-170.992004394531
 30
0.0
 11
-542.857154208272
 21
-168.03758113285
 31
0.0
  0
ENDBLK
  5
    9A
  8
0
  6
CONTINUOUS
 62
     7
  0
BLOCK
  5
    9B
  8
0
  6
CONTINUOUS
 62
     7
  2
*UDIM129
 70
    65
 10
0.0
 20
0.0
 30
0.0
  3
*UDIM129
  0
TEXT
  5
    9C
  8
0
  6
CONTINUOUS
 62
     7
 10
-544.378098735853
 20
-191.942004068424
 30
0.0
 40
3.00000002980232
  1
27,5
 50
449.999999896069
 41
0.933333333333333
 72
     1
 11
-545.878098741174
 21
-186.642004013062
 31
0.0
 73
     2
  0
LINE
  5
    9D
  8
0
  6
CONTINUOUS
 62
     7
 10
-525.415431976318
 20
-177.867004394531
 30
0.0
 11
-545.378098726273
 21
-177.867004394531
 31
0.0
  0
LINE
  5
    9E
  8
0
  6
CONTINUOUS
 62
     7
 10
-543.378098726273
 20
-170.992004394531
 30
0.0
 11
-543.378098726273
 21
-191.942004065712
 31
0.0
  0
LINE
  5
    9F
  8
0
  6
CONTINUOUS
 62
     7
 10
-542.857154208272
 20
-173.946427656213
 30
0.0
 11
-543.378098726273
 21
-170.992004394531
 31
0.0
  0
LINE
  5
    A0
  8
0
  6
CONTINUOUS
 62
     7
 10
-543.378098726273
 20
-170.992004394531
 30
0.0
 11
-543.899043244273
 21
-173.946427656213
 31
0.0
  0
LINE
  5
    A1
  8
0
  6
CONTINUOUS
 62
     7
 10
-543.899043244273
 20
-174.91258113285
 30
0.0
 11
-543.378098726273
 21
-177.867004394531
 31
0.0
  0
LINE
  5
    A2
  8
0
  6
CONTINUOUS
 62
     7
 10
-543.378098726273
 20
-177.867004394531
 30
0.0
 11
-542.857154208272
 21
-174.91258113285
 31
0.0
  0
ENDBLK
  5
    A3
  8
0
  6
CONTINUOUS
 62
     7
  0
BLOCK
  5
    A4
  8
0
  6
CONTINUOUS
 62
     7
  2
*UDIM130
 70
    65
 10
0.0
 20
0.0
 30
0.0
  3
*UDIM130
  0
TEXT
  5
    A5
  8
0
  6
CONTINUOUS
 62
     7
 10
-427.549140934695
 20
-96.8920044280385
 30
0.0
 40
3.00000002980232
  1
65
 50
449.999999896069
 41
0.933333333333333
 72
     1
 11
-429.049140945077
 21
-94.3920044004917
 31
0.0
 73
     2
  0
LINE
  5
    A6
  8
0
  6
CONTINUOUS
 62
     7
 10
-435.534556393864
 20
-85.9920043945313
 30
0.0
 11
-424.549140930176
 21
-85.9920043945313
 31
0.0
  0
LINE
  5
    A7
  8
0
  6
CONTINUOUS
 62
     7
 10
-442.290402329651
 20
-102.242004394531
 30
0.0
 11
-424.549140930176
 21
-102.242004394531
 31
0.0
  0
LINE
  5
    A8
  8
0
  6
CONTINUOUS
 62
     7
 10
-426.549140930176
 20
-85.9920043945313
 30
0.0
 11
-426.549140930176
 21
-102.242004394531
 31
0.0
  0
LINE
  5
    A9
  8
0
  6
CONTINUOUS
 62
     7
 10
-426.028196412175
 20
-88.9464276562129
 30
0.0
 11
-426.549140930176
 21
-85.9920043945313
 31
0.0
  0
LINE
  5
    AA
  8
0
  6
CONTINUOUS
 62
     7
 10
-426.549140930176
 20
-85.9920043945313
 30
0.0
 11
-427.070085448176
 21
-88.9464276562129
 31
0.0
  0
LINE
  5
    AB
  8
0
  6
CONTINUOUS
 62
     7
 10
-427.070085448176
 20
-99.2875811328496
 30
0.0
 11
-426.549140930176
 21
-102.242004394531
 31
0.0
  0
LINE
  5
    AC
  8
0
  6
CONTINUOUS
 62
     7
 10
-426.549140930176
 20
-102.242004394531
 30
0.0
 11
-426.028196412175
 21
-99.2875811328496
 31
0.0
  0
ENDBLK
  5
    AD
  8
0
  6
CONTINUOUS
 62
     7
  0
BLOCK
  5
    AE
  8
0
  6
CONTINUOUS
 62
     7
  2
*UDIM131
 70
    65
 10
0.0
 20
0.0
 30
0.0
  3
*UDIM131
  0
TEXT
  5
    AF
  8
0
  6
CONTINUOUS
 62
     7
 10
-427.549140942287
 20
-122.154504477212
 30
0.0
 40
3.00000002980232
  1
103,5
 50
449.999999896069
 41
0.933333333333333
 72
     1
 11
-429.049140945077
 21
-115.454504407942
 31
0.0
 73
     2
  0
LINE
  5
    B0
  8
0
  6
CONTINUOUS
 62
     7
 10
-445.665435791016
 20
-128.117006972432
 30
0.0
 11
-424.549140930176
 21
-128.117006972432
 31
0.0
  0
LINE
  5
    B1
  8
0
  6
CONTINUOUS
 62
     7
 10
-426.549140930176
 20
-102.242004394531
 30
0.0
 11
-426.549140930176
 21
-128.117006972432
 31
0.0
  0
LINE
  5
    B2
  8
0
  6
CONTINUOUS
 62
     7
 10
-426.028196412175
 20
-105.196427656213
 30
0.0
 11
-426.549140930176
 21
-102.242004394531
 31
0.0
  0
LINE
  5
    B3
  8
0
  6
CONTINUOUS
 62
     7
 10
-426.549140930176
 20
-102.242004394531
 30
0.0
 11
-427.070085448176
 21
-105.196427656213
 31
0.0
  0
LINE
  5
    B4
  8
0
  6
CONTINUOUS
 62
     7
 10
-427.070085448176
 20
-125.162583710751
 30
0.0
 11
-426.549140930176
 21
-128.117006972432
 31
0.0
  0
LINE
  5
    B5
  8
0
  6
CONTINUOUS
 62
     7
 10
-426.549140930176
 20
-128.117006972432
 30
0.0
 11
-426.028196412175
 21
-125.162583710751
 31
0.0
  0
ENDBLK
  5
    B6
  8
0
  6
CONTINUOUS
 62
     7
  0
BLOCK
  5
    B7
  8
0
  6
CONTINUOUS
 62
     7
  2
*UDIM132
 70
    65
 10
0.0
 20
0.0
 30
0.0
  3
*UDIM132
  0
TEXT
  5
    B8
  8
0
  6
CONTINUOUS
 62
     7
 10
-229.222112220383
 20
35.3797397136046
 30
0.0
 40
3.00000002980232
  1
=
 50
449.999999844103
 41
0.933333333333334
 72
     1
 11
-230.722112232298
 21
36.4797397286041
 31
0.0
 73
     2
  0
LINE
  5
    B9
  8
0
  6
CONTINUOUS
 62
     7
 10
-239.347752639428
 20
29.3779054314239
 30
0.0
 11
-226.222112217397
 21
29.3779054314239
 31
0.0
  0
LINE
  5
    BA
  8
0
  6
CONTINUOUS
 62
     7
 10
-249.165769711019
 20
28.1904054314239
 30
0.0
 11
-226.222112217397
 21
28.1904054314239
 31
0.0
  0
LINE
  5
    BB
  8
0
  6
CONTINUOUS
 62
     7
 10
-228.222112217397
 20
37.5797397395316
 30
0.0
 11
-228.222112217397
 21
28.1904054314239
 31
0.0
  0
LINE
  5
    BC
  8
0
  6
CONTINUOUS
 62
     7
 10
-228.998569373815
 20
32.2756829046345
 30
0.0
 11
-228.222112217397
 21
29.3779054314239
 31
0.0
  0
LINE
  5
    BD
  8
0
  6
CONTINUOUS
 62
     7
 10
-228.222112217397
 20
29.3779054314239
 30
0.0
 11
-227.445655060978
 21
32.2756829046345
 31
0.0
  0
LINE
  5
    BE
  8
0
  6
CONTINUOUS
 62
     7
 10
-227.445655060978
 20
25.2926279582134
 30
0.0
 11
-228.222112217397
 21
28.1904054314239
 31
0.0
  0
LINE
  5
    BF
  8
0
  6
CONTINUOUS
 62
     7
 10
-228.222112217397
 20
28.1904054314239
 30
0.0
 11
-228.998569373815
 21
25.2926279582134
 31
0.0
  0
ENDBLK
  5
    C0
  8
0
  6
CONTINUOUS
 62
     7
  0
BLOCK
  5
    C1
  8
0
  6
CONTINUOUS
 62
     7
  2
*UDIM133
 70
    65
 10
0.0
 20
0.0
 30
0.0
  3
*UDIM133
  0
TEXT
  5
    C2
  8
0
  6
CONTINUOUS
 62
     7
 10
-229.222112224183
 20
16.3154054025167
 30
0.0
 40
3.00000002980232
  1
75
 50
449.999999844103
 41
0.933333333333333
 72
     1
 11
-230.722112232298
 21
18.8154054314239
 31
0.0
 73
     2
  0
LINE
  5
    C3
  8
0
  6
CONTINUOUS
 62
     7
 10
-249.165769711019
 20
9.44040543142394
 30
0.0
 11
-226.222112217397
 21
9.44040543142394
 31
0.0
  0
LINE
  5
    C4
  8
0
  6
CONTINUOUS
 62
     7
 10
-228.222112217397
 20
28.1904054314239
 30
0.0
 11
-228.222112217397
 21
9.44040543142394
 31
0.0
  0
LINE
  5
    C5
  8
0
  6
CONTINUOUS
 62
     7
 10
-227.445655060978
 20
25.2926279582134
 30
0.0
 11
-228.222112217397
 21
28.1904054314239
 31
0.0
  0
LINE
  5
    C6
  8
0
  6
CONTINUOUS
 62
     7
 10
-228.222112217397
 20
28.1904054314239
 30
0.0
 11
-228.998569373815
 21
25.2926279582134
 31
0.0
  0
LINE
  5
    C7
  8
0
  6
CONTINUOUS
 62
     7
 10
-228.998569373815
 20
12.3381829046345
 30
0.0
 11
-228.222112217397
 21
9.44040543142394
 31
0.0
  0
LINE
  5
    C8
  8
0
  6
CONTINUOUS
 62
     7
 10
-228.222112217397
 20
9.44040543142394
 30
0.0
 11
-227.445655060978
 21
12.3381829046345
 31
0.0
  0
ENDBLK
  5
    C9
  8
0
  6
CONTINUOUS
 62
     7
  0
BLOCK
  5
    CA
  8
0
  6
CONTINUOUS
 62
     7
  2
*UDIM134
 70
    65
 10
0.0
 20
0.0
 30
0.0
  3
*UDIM134
  0
TEXT
  5
    CB
  8
0
  6
CONTINUOUS
 62
     7
 10
-229.222112224183
 20
-1.55959384872649
 30
0.0
 40
3.00000002980232
  1
68
 50
449.999999844103
 41
0.933333333333333
 72
     1
 11
-230.722112232298
 21
0.94040618018072
 31
0.0
 73
     2
  0
LINE
  5
    CC
  8
0
  6
CONTINUOUS
 62
     7
 10
-249.165769711019
 20
-7.5595930710625
 30
0.0
 11
-226.222112217397
 21
-7.5595930710625
 31
0.0
  0
LINE
  5
    CD
  8
0
  6
CONTINUOUS
 62
     7
 10
-228.222112217397
 20
9.44040543142394
 30
0.0
 11
-228.222112217397
 21
-7.5595930710625
 31
0.0
  0
LINE
  5
    CE
  8
0
  6
CONTINUOUS
 62
     7
 10
-227.445655060978
 20
6.54262795821341
 30
0.0
 11
-228.222112217397
 21
9.44040543142394
 31
0.0
  0
LINE
  5
    CF
  8
0
  6
CONTINUOUS
 62
     7
 10
-228.222112217397
 20
9.44040543142394
 30
0.0
 11
-228.998569373815
 21
6.54262795821341
 31
0.0
  0
LINE
  5
    D0
  8
0
  6
CONTINUOUS
 62
     7
 10
-228.998569373815
 20
-4.66181559785197
 30
0.0
 11
-228.222112217397
 21
-7.5595930710625
 31
0.0
  0
LINE
  5
    D1
  8
0
  6
CONTINUOUS
 62
     7
 10
-228.222112217397
 20
-7.5595930710625
 30
0.0
 11
-227.445655060978
 21
-4.66181559785197
 31
0.0
  0
ENDBLK
  5
    D2
  8
0
  6
CONTINUOUS
 62
     7
  0
BLOCK
  5
    D3
  8
0
  6
CONTINUOUS
 62
     7
  2
*UDIM135
 70
    65
 10
0.0
 20
0.0
 30
0.0
  3
*UDIM135
  0
TEXT
  5
    D4
  8
0
  6
CONTINUOUS
 62
     7
 10
-229.222112224183
 20
-19.4345930999697
 30
0.0
 40
3.00000002980232
  1
75
 50
449.999999844103
 41
0.933333333333333
 72
     1
 11
-230.722112232298
 21
-16.9345930710625
 31
0.0
 73
     2
  0
LINE
  5
    D5
  8
0
  6
CONTINUOUS
 62
     7
 10
-249.165769711019
 20
-26.3095930710625
 30
0.0
 11
-226.222112217397
 21
-26.3095930710625
 31
0.0
  0
LINE
  5
    D6
  8
0
  6
CONTINUOUS
 62
     7
 10
-228.222112217397
 20
-7.5595930710625
 30
0.0
 11
-228.222112217397
 21
-26.3095930710625
 31
0.0
  0
LINE
  5
    D7
  8
0
  6
CONTINUOUS
 62
     7
 10
-227.445655060978
 20
-10.457370544273
 30
0.0
 11
-228.222112217397
 21
-7.5595930710625
 31
0.0
  0
LINE
  5
    D8
  8
0
  6
CONTINUOUS
 62
     7
 10
-228.222112217397
 20
-7.5595930710625
 30
0.0
 11
-228.998569373815
 21
-10.457370544273
 31
0.0
  0
LINE
  5
    D9
  8
0
  6
CONTINUOUS
 62
     7
 10
-228.998569373815
 20
-23.411815597852
 30
0.0
 11
-228.222112217397
 21
-26.3095930710625
 31
0.0
  0
LINE
  5
    DA
  8
0
  6
CONTINUOUS
 62
     7
 10
-228.222112217397
 20
-26.3095930710625
 30
0.0
 11
-227.445655060978
 21
-23.411815597852
 31
0.0
  0
ENDBLK
  5
    DB
  8
0
  6
CONTINUOUS
 62
     7
  0
BLOCK
  5
    DC
  8
0
  6
CONTINUOUS
 62
     7
  2
*UDIM136
 70
    65
 10
0.0
 20
0.0
 30
0.0
  3
*UDIM136
  0
TEXT
  5
    DD
  8
0
  6
CONTINUOUS
 62
     7
 10
-229.222112220383
 20
-36.0164465711694
 30
0.0
 40
3.00000002980232
  1
=
 50
449.999999844103
 41
0.933333333333334
 72
     1
 11
-230.722112232298
 21
-34.9164465561699
 31
0.0
 73
     2
  0
LINE
  5
    DE
  8
0
  6
CONTINUOUS
 62
     7
 10
-235.702840711072
 20
-27.4970930710625
 30
0.0
 11
-226.222112217397
 21
-27.4970930710625
 31
0.0
  0
LINE
  5
    DF
  8
0
  6
CONTINUOUS
 62
     7
 10
-228.222112217397
 20
-26.3095930710625
 30
0.0
 11
-228.222112217397
 21
-36.0164465670974
 31
0.0
  0
LINE
  5
    E0
  8
0
  6
CONTINUOUS
 62
     7
 10
-228.998569373815
 20
-23.411815597852
 30
0.0
 11
-228.222112217397
 21
-26.3095930710625
 31
0.0
  0
LINE
  5
    E1
  8
0
  6
CONTINUOUS
 62
     7
 10
-228.222112217397
 20
-26.3095930710625
 30
0.0
 11
-227.445655060978
 21
-23.411815597852
 31
0.0
  0
LINE
  5
    E2
  8
0
  6
CONTINUOUS
 62
     7
 10
-227.445655060978
 20
-30.394870544273
 30
0.0
 11
-228.222112217397
 21
-27.4970930710625
 31
0.0
  0
LINE
  5
    E3
  8
0
  6
CONTINUOUS
 62
     7
 10
-228.222112217397
 20
-27.4970930710625
 30
0.0
 11
-228.998569373815
 21
-30.394870544273
 31
0.0
  0
ENDBLK
  5
    E4
  8
0
  6
CONTINUOUS
 62
     7
  0
BLOCK
  5
    E5
  8
0
  6
CONTINUOUS
 62
     7
  2
*UDIM137
 70
    65
 10
0.0
 20
0.0
 30
0.0
  3
*UDIM137
  0
TEXT
  5
    E6
  8
0
  6
CONTINUOUS
 62
     7
 10
-312.440769753836
 20
64.6307718468594
 30
0.0
 40
3.00000002980232
  1
155
 50
359.999999844103
 41
0.933333333333333
 72
     1
 11
-308.540769711019
 21
66.1307718511686
 31
0.0
 73
     2
  0
LINE
  5
    E7
  8
0
  6
CONTINUOUS
 62
     7
 10
-327.915769711019
 20
25.4404054314239
 30
0.0
 11
-327.915769711019
 21
65.6307718362675
 31
0.0
  0
LINE
  5
    E8
  8
0
  6
CONTINUOUS
 62
     7
 10
-289.165769711019
 20
25.4404054314239
 30
0.0
 11
-289.165769711019
 21
65.6307718362675
 31
0.0
  0
LINE
  5
    E9
  8
0
  6
CONTINUOUS
 62
     7
 10
-327.915769711019
 20
63.6307718362675
 30
0.0
 11
-289.165769711019
 21
63.6307718362675
 31
0.0
  0
LINE
  5
    EA
  8
0
  6
CONTINUOUS
 62
     7
 10
-325.017992237808
 20
64.407228992686
 30
0.0
 11
-327.915769711019
 21
63.6307718362675
 31
0.0
  0
LINE
  5
    EB
  8
0
  6
CONTINUOUS
 62
     7
 10
-327.915769711019
 20
63.6307718362675
 30
0.0
 11
-325.017992237808
 21
62.8543146798489
 31
0.0
  0
LINE
  5
    EC
  8
0
  6
CONTINUOUS
 62
     7
 10
-292.063547184229
 20
62.8543146798489
 30
0.0
 11
-289.165769711019
 21
63.6307718362675
 31
0.0
  0
LINE
  5
    ED
  8
0
  6
CONTINUOUS
 62
     7
 10
-289.165769711019
 20
63.6307718362675
 30
0.0
 11
-292.063547184229
 21
64.407228992686
 31
0.0
  0
ENDBLK
  5
    EE
  8
0
  6
CONTINUOUS
 62
     7
  0
BLOCK
  5
    EF
  8
0
  6
CONTINUOUS
 62
     7
  2
*UDIM138
 70
    65
 10
0.0
 20
0.0
 30
0.0
  3
*UDIM138
  0
TEXT
  5
    F0
  8
0
  6
CONTINUOUS
 62
     7
 10
-289.665769739928
 20
64.6307718430572
 30
0.0
 40
3.00000002980232
  1
16
 50
359.999999844103
 41
0.933333333333333
 72
     1
 11
-287.165769711019
 21
66.1307718511686
 31
0.0
 73
     2
  0
LINE
  5
    F1
  8
0
  6
CONTINUOUS
 62
     7
 10
-285.165769711019
 20
25.4404054314239
 30
0.0
 11
-285.165769711019
 21
65.6307718362675
 31
0.0
  0
LINE
  5
    F2
  8
0
  6
CONTINUOUS
 62
     7
 10
-289.665769735854
 20
63.6307718362675
 30
0.0
 11
-284.665769686183
 21
63.6307718362675
 31
0.0
  0
LINE
  5
    F3
  8
0
  6
CONTINUOUS
 62
     7
 10
-292.063547184229
 20
62.8543146798489
 30
0.0
 11
-289.165769711019
 21
63.6307718362675
 31
0.0
  0
LINE
  5
    F4
  8
0
  6
CONTINUOUS
 62
     7
 10
-289.165769711019
 20
63.6307718362675
 30
0.0
 11
-292.063547184229
 21
64.407228992686
 31
0.0
  0
LINE
  5
    F5
  8
0
  6
CONTINUOUS
 62
     7
 10
-282.267992237808
 20
64.407228992686
 30
0.0
 11
-285.165769711019
 21
63.6307718362675
 31
0.0
  0
LINE
  5
    F6
  8
0
  6
CONTINUOUS
 62
     7
 10
-285.165769711019
 20
63.6307718362675
 30
0.0
 11
-282.267992237808
 21
62.8543146798489
 31
0.0
  0
ENDBLK
  5
    F7
  8
0
  6
CONTINUOUS
 62
     7
  0
BLOCK
  5
    F8
  8
0
  6
CONTINUOUS
 62
     7
  2
*UDIM139
 70
    65
 10
0.0
 20
0.0
 30
0.0
  3
*UDIM139
  0
TEXT
  5
    F9
  8
0
  6
CONTINUOUS
 62
     7
 10
-269.690769753836
 20
64.6307718468594
 30
0.0
 40
3.00000002980232
  1
155
 50
359.999999844103
 41
0.933333333333333
 72
     1
 11
-265.790769711019
 21
66.1307718511686
 31
0.0
 73
     2
  0
LINE
  5
    FA
  8
0
  6
CONTINUOUS
 62
     7
 10
-246.415769711019
 20
25.4404054314239
 30
0.0
 11
-246.415769711019
 21
65.6307718362675
 31
0.0
  0
LINE
  5
    FB
  8
0
  6
CONTINUOUS
 62
     7
 10
-285.165769711019
 20
63.6307718362675
 30
0.0
 11
-246.415769711019
 21
63.6307718362675
 31
0.0
  0
LINE
  5
    FC
  8
0
  6
CONTINUOUS
 62
     7
 10
-282.267992237808
 20
64.407228992686
 30
0.0
 11
-285.165769711019
 21
63.6307718362675
 31
0.0
  0
LINE
  5
    FD
  8
0
  6
CONTINUOUS
 62
     7
 10
-285.165769711019
 20
63.6307718362675
 30
0.0
 11
-282.267992237808
 21
62.8543146798489
 31
0.0
  0
LINE
  5
    FE
  8
0
  6
CONTINUOUS
 62
     7
 10
-249.313547184229
 20
62.8543146798489
 30
0.0
 11
-246.415769711019
 21
63.6307718362675
 31
0.0
  0
LINE
  5
    FF
  8
0
  6
CONTINUOUS
 62
     7
 10
-246.415769711019
 20
63.6307718362675
 30
0.0
 11
-249.313547184229
 21
64.407228992686
 31
0.0
  0
ENDBLK
  5
   100
  8
0
  6
CONTINUOUS
 62
     7
  0
BLOCK
  5
   101
  8
0
  6
CONTINUOUS
 62
     7
  2
*UDIM140
 70
    65
 10
0.0
 20
0.0
 30
0.0
  3
*UDIM140
  0
TEXT
  5
   102
  8
0
  6
CONTINUOUS
 62
     7
 10
-334.801508963045
 20
52.4206848316166
 30
0.0
 40
3.00000002980232
  1
=
 50
359.999999844103
 41
0.933333333333334
 72
     1
 11
-333.701508948043
 21
53.9206848435303
 31
0.0
 73
     2
  0
LINE
  5
   103
  8
0
  6
CONTINUOUS
 62
     7
 10
-327.915769711019
 20
25.4404054314239
 30
0.0
 11
-327.915769711019
 21
53.4206848286291
 31
0.0
  0
LINE
  5
   104
  8
0
  6
CONTINUOUS
 62
     7
 10
-327.665771248727
 20
43.0885078467933
 30
0.0
 11
-327.665771248727
 21
53.4206848286291
 31
0.0
  0
LINE
  5
   105
  8
0
  6
CONTINUOUS
 62
     7
 10
-334.801508958971
 20
51.4206848286291
 30
0.0
 11
-327.665771248727
 21
51.4206848286291
 31
0.0
  0
LINE
  5
   106
  8
0
  6
CONTINUOUS
 62
     7
 10
-330.813547184229
 20
50.6442276722106
 30
0.0
 11
-327.915769711019
 21
51.4206848286291
 31
0.0
  0
LINE
  5
   107
  8
0
  6
CONTINUOUS
 62
     7
 10
-327.915769711019
 20
51.4206848286291
 30
0.0
 11
-330.813547184229
 21
52.1971419850477
 31
0.0
  0
LINE
  5
   108
  8
0
  6
CONTINUOUS
 62
     7
 10
-324.767993775517
 20
52.1971419850477
 30
0.0
 11
-327.665771248727
 21
51.4206848286291
 31
0.0
  0
LINE
  5
   109
  8
0
  6
CONTINUOUS
 62
     7
 10
-327.665771248727
 20
51.4206848286291
 30
0.0
 11
-324.767993775517
 21
50.6442276722106
 31
0.0
  0
ENDBLK
  5
   10A
  8
0
  6
CONTINUOUS
 62
     7
  0
BLOCK
  5
   10B
  8
0
  6
CONTINUOUS
 62
     7
  2
*UDIM141
 70
    65
 10
0.0
 20
0.0
 30
0.0
  3
*UDIM141
  0
TEXT
  5
   10C
  8
0
  6
CONTINUOUS
 62
     7
 10
-291.065769753836
 20
52.4206848392211
 30
0.0
 40
3.00000002980232
  1
324
 50
359.999999844103
 41
0.933333333333333
 72
     1
 11
-287.165769711019
 21
53.9206848435303
 31
0.0
 73
     2
  0
LINE
  5
   10D
  8
0
  6
CONTINUOUS
 62
     7
 10
-246.66576817331
 20
43.0885078467933
 30
0.0
 11
-246.66576817331
 21
53.4206848286291
 31
0.0
  0
LINE
  5
   10E
  8
0
  6
CONTINUOUS
 62
     7
 10
-327.665771248727
 20
51.4206848286291
 30
0.0
 11
-246.66576817331
 21
51.4206848286291
 31
0.0
  0
LINE
  5
   10F
  8
0
  6
CONTINUOUS
 62
     7
 10
-324.767993775517
 20
52.1971419850477
 30
0.0
 11
-327.665771248727
 21
51.4206848286291
 31
0.0
  0
LINE
  5
   110
  8
0
  6
CONTINUOUS
 62
     7
 10
-327.665771248727
 20
51.4206848286291
 30
0.0
 11
-324.767993775517
 21
50.6442276722106
 31
0.0
  0
LINE
  5
   111
  8
0
  6
CONTINUOUS
 62
     7
 10
-249.563545646521
 20
50.6442276722106
 30
0.0
 11
-246.66576817331
 21
51.4206848286291
 31
0.0
  0
LINE
  5
   112
  8
0
  6
CONTINUOUS
 62
     7
 10
-246.66576817331
 20
51.4206848286291
 30
0.0
 11
-249.563545646521
 21
52.1971419850477
 31
0.0
  0
ENDBLK
  5
   113
  8
0
  6
CONTINUOUS
 62
     7
  0
BLOCK
  5
   114
  8
0
  6
CONTINUOUS
 62
     7
  2
*UDIM142
 70
    65
 10
0.0
 20
0.0
 30
0.0
  3
*UDIM142
  0
TEXT
  5
   115
  8
0
  6
CONTINUOUS
 62
     7
 10
-242.608787488965
 20
52.4206848316166
 30
0.0
 40
3.00000002980232
  1
=
 50
359.999999844103
 41
0.933333333333334
 72
     1
 11
-241.508787473964
 21
53.9206848435303
 31
0.0
 73
     2
  0
LINE
  5
   116
  8
0
  6
CONTINUOUS
 62
     7
 10
-246.415769711019
 20
25.4404054314239
 30
0.0
 11
-246.415769711019
 21
53.4206848286291
 31
0.0
  0
LINE
  5
   117
  8
0
  6
CONTINUOUS
 62
     7
 10
-246.66576817331
 20
51.4206848286291
 30
0.0
 11
-240.408787463036
 21
51.4206848286291
 31
0.0
  0
LINE
  5
   118
  8
0
  6
CONTINUOUS
 62
     7
 10
-249.563545646521
 20
50.6442276722106
 30
0.0
 11
-246.66576817331
 21
51.4206848286291
 31
0.0
  0
LINE
  5
   119
  8
0
  6
CONTINUOUS
 62
     7
 10
-246.66576817331
 20
51.4206848286291
 30
0.0
 11
-249.563545646521
 21
52.1971419850477
 31
0.0
  0
LINE
  5
   11A
  8
0
  6
CONTINUOUS
 62
     7
 10
-243.517992237808
 20
52.1971419850477
 30
0.0
 11
-246.415769711019
 21
51.4206848286291
 31
0.0
  0
LINE
  5
   11B
  8
0
  6
CONTINUOUS
 62
     7
 10
-246.415769711019
 20
51.4206848286291
 30
0.0
 11
-243.517992237808
 21
50.6442276722106
 31
0.0
  0
ENDBLK
  5
   11C
  8
0
  6
CONTINUOUS
 62
     7
  0
BLOCK
  5
   11D
  8
0
  6
CONTINUOUS
 62
     7
  2
*UDIM143
 70
    65
 10
0.0
 20
0.0
 30
0.0
  3
*UDIM143
  0
TEXT
  5
   11E
  8
0
  6
CONTINUOUS
 62
     7
 10
-309.302541741419
 20
16.3197630399323
 30
0.0
 40
3.00000002980232
  1
15
 50
359.999999844103
 41
0.933333333333333
 72
     1
 11
-306.802541712509
 21
17.8197630480437
 31
0.0
 73
     2
  0
TEXT
  5
   11F
  8
0
  6
CONTINUOUS
 62
     7
 10
-313.302541771221
 20
16.3197630372164
 30
0.0
 40
3.00000002980232
  1
R
 50
359.999999844103
 41
1.2
 72
     1
 11
-311.802541752246
 21
17.8197630480437
 31
0.0
 73
     2
  0
LINE
  5
   120
  8
0
  6
CONTINUOUS
 62
     7
 10
-290.764761031912
 20
27.5121576451303
 30
0.0
 11
-299.302541687674
 21
15.3197630331426
 31
0.0
  0
LINE
  5
   121
  8
0
  6
CONTINUOUS
 62
     7
 10
-299.302541687674
 20
15.3197630331426
 30
0.0
 11
-313.302541767147
 21
15.3197630331426
 31
0.0
  0
LINE
  5
   122
  8
0
  6
CONTINUOUS
 62
     7
 10
-291.790910500157
 20
24.6931121916441
 30
0.0
 11
-290.764761031912
 21
27.5121576451303
 31
0.0
  0
LINE
  5
   123
  8
0
  6
CONTINUOUS
 62
     7
 10
-290.764761031912
 20
27.5121576451303
 30
0.0
 11
-293.062955294331
 21
25.5838674355964
 31
0.0
  0
ENDBLK
  5
   124
  8
0
  6
CONTINUOUS
 62
     7
  0
BLOCK
  5
   125
  8
0
  6
CONTINUOUS
 62
     7
  2
*UDIM144
 70
    65
 10
0.0
 20
0.0
 30
0.0
  3
*UDIM144
  0
TEXT
  5
   126
  8
0
  6
CONTINUOUS
 62
     7
 10
-350.860788363525
 20
-6.03459327056144
 30
0.0
 40
3.00000002980232
  1
227,5
 50
449.999999844103
 41
0.933333333333333
 72
     1
 11
-352.360788360238
 21
0.665406800069025
 31
0.0
 73
     2
  0
LINE
  5
   127
  8
0
  6
CONTINUOUS
 62
     7
 10
-332.171265884807
 20
29.3779054314239
 30
0.0
 11
-351.860788345337
 21
29.3779054314239
 31
0.0
  0
LINE
  5
   128
  8
0
  6
CONTINUOUS
 62
     7
 10
-329.594936113772
 20
-27.4970930710625
 30
0.0
 11
-351.860788345337
 21
-27.4970930710625
 31
0.0
  0
LINE
  5
   129
  8
0
  6
CONTINUOUS
 62
     7
 10
-349.860788345337
 20
29.3779054314239
 30
0.0
 11
-349.860788345337
 21
-27.4970930710625
 31
0.0
  0
LINE
  5
   12A
  8
0
  6
CONTINUOUS
 62
     7
 10
-349.339843827337
 20
26.4234821697423
 30
0.0
 11
-349.860788345337
 21
29.3779054314239
 31
0.0
  0
LINE
  5
   12B
  8
0
  6
CONTINUOUS
 62
     7
 10
-349.860788345337
 20
29.3779054314239
 30
0.0
 11
-350.381732863337
 21
26.4234821697423
 31
0.0
  0
LINE
  5
   12C
  8
0
  6
CONTINUOUS
 62
     7
 10
-350.381732863337
 20
-24.5426698093809
 30
0.0
 11
-349.860788345337
 21
-27.4970930710625
 31
0.0
  0
LINE
  5
   12D
  8
0
  6
CONTINUOUS
 62
     7
 10
-349.860788345337
 20
-27.4970930710625
 30
0.0
 11
-349.339843827337
 21
-24.5426698093809
 31
0.0
  0
ENDBLK
  5
   12E
  8
0
  6
CONTINUOUS
 62
     7
  0
BLOCK
  5
   12F
  8
0
  6
CONTINUOUS
 62
     7
  2
*UDIM145
 70
    65
 10
0.0
 20
0.0
 30
0.0
  3
*UDIM145
  0
TEXT
  5
   130
  8
0
  6
CONTINUOUS
 62
     7
 10
-340.423086176969
 20
10.7029105667454
 30
0.0
 40
3.00000002980232
  1
116
 50
449.999999844103
 41
0.933333333333333
 72
     1
 11
-341.923086181283
 21
14.6029106095604
 31
0.0
 73
     2
  0
LINE
  5
   131
  8
0
  6
CONTINUOUS
 62
     7
 10
-332.171265884807
 20
29.3779054314239
 30
0.0
 11
-341.423086166382
 21
29.3779054314239
 31
0.0
  0
LINE
  5
   132
  8
0
  6
CONTINUOUS
 62
     7
 10
-339.423086166382
 20
29.3779054314239
 30
0.0
 11
-339.423086166382
 21
0.377908706665039
 31
0.0
  0
LINE
  5
   133
  8
0
  6
CONTINUOUS
 62
     7
 10
-338.902141648382
 20
26.4234821697423
 30
0.0
 11
-339.423086166382
 21
29.3779054314239
 31
0.0
  0
LINE
  5
   134
  8
0
  6
CONTINUOUS
 62
     7
 10
-339.423086166382
 20
29.3779054314239
 30
0.0
 11
-339.944030684382
 21
26.4234821697423
 31
0.0
  0
LINE
  5
   135
  8
0
  6
CONTINUOUS
 62
     7
 10
-339.944030684382
 20
3.33233196834665
 30
0.0
 11
-339.423086166382
 21
0.377908706665039
 31
0.0
  0
LINE
  5
   136
  8
0
  6
CONTINUOUS
 62
     7
 10
-339.423086166382
 20
0.377908706665039
 30
0.0
 11
-338.902141648382
 21
3.33233196834665
 31
0.0
  0
ENDBLK
  5
   137
  8
0
  6
CONTINUOUS
 62
     7
  0
BLOCK
  5
   138
  8
0
  6
CONTINUOUS
 62
     7
  2
*UDIM146
 70
    65
 10
0.0
 20
0.0
 30
0.0
  3
*UDIM146
  0
TEXT
  5
   139
  8
0
  6
CONTINUOUS
 62
     7
 10
-257.88017898408
 20
-47.7949447563939
 30
0.0
 40
3.00000002980232
  1
Ø7
 50
359.999999844103
 41
0.933333333333333
 72
     1
 11
-255.38017895517
 21
-46.2949447482824
 31
0.0
 73
     2
  0
LINE
  5
   13A
  8
0
  6
CONTINUOUS
 62
     7
 10
-247.665768173295
 20
-28.4970878882287
 30
0.0
 11
-247.665768173295
 21
-50.7949447631836
 31
0.0
  0
LINE
  5
   13B
  8
0
  6
CONTINUOUS
 62
     7
 10
-245.665768173325
 20
-28.4970878882287
 30
0.0
 11
-245.665768173325
 21
-50.7949447631836
 31
0.0
  0
LINE
  5
   13C
  8
0
  6
CONTINUOUS
 62
     7
 10
-257.880178980006
 20
-48.7949447631836
 30
0.0
 11
-245.665768173325
 21
-48.7949447631836
 31
0.0
  0
LINE
  5
   13D
  8
0
  6
CONTINUOUS
 62
     7
 10
-250.620191434977
 20
-49.3158892811839
 30
0.0
 11
-247.665768173295
 21
-48.7949447631836
 31
0.0
  0
LINE
  5
   13E
  8
0
  6
CONTINUOUS
 62
     7
 10
-247.665768173295
 20
-48.7949447631836
 30
0.0
 11
-250.620191434977
 21
-48.2740002451833
 31
0.0
  0
LINE
  5
   13F
  8
0
  6
CONTINUOUS
 62
     7
 10
-242.711344911644
 20
-48.2740002451833
 30
0.0
 11
-245.665768173325
 21
-48.7949447631836
 31
0.0
  0
LINE
  5
   140
  8
0
  6
CONTINUOUS
 62
     7
 10
-245.665768173325
 20
-48.7949447631836
 30
0.0
 11
-242.711344911644
 21
-49.3158892811839
 31
0.0
  0
ENDBLK
  5
   141
  8
0
  6
CONTINUOUS
 62
     7
  0
ENDSEC
  0
SECTION
  2
ENTITIES
  0
LINE
  5
   142
  8
0
  6
CONTINUOUS
 62
     7
 10
-529.290405273438
 20
-32.1846008300781
 30
0.0
 11
-441.790405273438
 21
-32.1846008300781
 31
0.0
  0
LINE
  5
   143
  8
0
  6
CONTINUOUS
 62
     7
 10
-529.290405273438
 20
34.0653991699219
 30
0.0
 11
-441.790405273438
 21
34.0653991699219
 31
0.0
  0
LINE
  5
   144
  8
0
  6
CONTINUOUS
 62
     7
 10
-441.790405273438
 20
-32.1846008300781
 30
0.0
 11
-441.790405273438
 21
34.0653991699219
 31
0.0
  0
LINE
  5
   145
  8
0
  6
CONTINUOUS
 62
     7
 10
-529.290405273438
 20
-32.1846008300781
 30
0.0
 11
-529.290405273438
 21
34.0653991699219
 31
0.0
  0
LINE
  5
   146
  8
0
  6
CONTINUOUS
 62
     7
 10
-482.040405273438
 20
-2.55960083007812
 30
0.0
 11
-482.040405273438
 21
4.44039916992188
 31
0.0
  0
LINE
  5
   147
  8
0
  6
CONTINUOUS
 62
     7
 10
-524.790405273438
 20
-2.55960083007812
 30
0.0
 11
-524.790405273438
 21
4.44039916992188
 31
0.0
  0
LINE
  5
   148
  8
0
  6
CONTINUOUS
 62
     7
 10
-484.415405273438
 20
-0.809600830078121
 30
0.0
 11
-484.415405273438
 21
5.94039916992188
 31
0.0
  0
LINE
  5
   149
  8
0
  6
CONTINUOUS
 62
     7
 10
-498.165420019362
 20
6.69039916992188
 30
0.0
 11
-496.165431463454
 21
6.69039916992188
 31
0.0
  0
LINE
  5
   14A
  8
0
  6
CONTINUOUS
 62
     7
 10
-471.615406036377
 20
-22.1846008300781
 30
0.0
 11
-471.615406036377
 21
-20.3096034873328
 31
0.0
  0
LINE
  5
   14B
  8
0
  6
CONTINUOUS
 62
     7
 10
-465.465404510498
 20
-22.1846008300781
 30
0.0
 11
-465.465404510498
 21
-20.3096034873328
 31
0.0
  0
LINE
  5
   14C
  8
0
  6
CONTINUOUS
 62
     7
 10
-480.365406036377
 20
-22.1846008300781
 30
0.0
 11
-480.365406036377
 21
-20.3096034873328
 31
0.0
  0
LINE
  5
   14D
  8
0
  6
CONTINUOUS
 62
     7
 10
-474.215404510498
 20
-22.1846008300781
 30
0.0
 11
-474.215404510498
 21
-20.3096034873328
 31
0.0
  0
LINE
  5
   14E
  8
0
  6
CONTINUOUS
 62
     7
 10
-454.115405082703
 20
-22.1846008300781
 30
0.0
 11
-454.115405082703
 21
-20.3096034873328
 31
0.0
  0
LINE
  5
   14F
  8
0
  6
CONTINUOUS
 62
     7
 10
-447.965405225754
 20
-22.1846008300781
 30
0.0
 11
-447.965405225754
 21
-20.3096034873328
 31
0.0
  0
LINE
  5
   150
  8
0
  6
CONTINUOUS
 62
     7
 10
-462.865406036377
 20
-22.1846008300781
 30
0.0
 11
-462.865406036377
 21
-20.3096034873328
 31
0.0
  0
LINE
  5
   151
  8
0
  6
CONTINUOUS
 62
     7
 10
-456.715405464172
 20
-22.1846008300781
 30
0.0
 11
-456.715405464172
 21
-20.3096034873328
 31
0.0
  0
LINE
  5
   152
  8
0
  6
CONTINUOUS
 62
     7
 10
-514.36540222168
 20
-22.1846008300781
 30
0.0
 11
-514.36540222168
 21
-20.3095929649609
 31
0.0
  0
LINE
  5
   153
  8
0
  6
CONTINUOUS
 62
     7
 10
-508.215404510498
 20
-22.1846008300781
 30
0.0
 11
-508.215404510498
 21
-20.3095929649609
 31
0.0
  0
LINE
  5
   154
  8
0
  6
CONTINUOUS
 62
     7
 10
-523.11540222168
 20
-22.1846008300781
 30
0.0
 11
-523.11540222168
 21
-20.3095929649609
 31
0.0
  0
LINE
  5
   155
  8
0
  6
CONTINUOUS
 62
     7
 10
-516.965408325195
 20
-22.1846008300781
 30
0.0
 11
-516.965408325195
 21
-20.3095929649609
 31
0.0
  0
LINE
  5
   156
  8
0
  6
CONTINUOUS
 62
     7
 10
-496.865406036377
 20
-22.1846008300781
 30
0.0
 11
-496.865406036377
 21
-17.1220986870077
 31
0.0
  0
LINE
  5
   157
  8
0
  6
CONTINUOUS
 62
     7
 10
-490.715404510498
 20
-22.1846008300781
 30
0.0
 11
-490.715404510498
 21
-17.1220986870077
 31
0.0
  0
LINE
  5
   158
  8
0
  6
CONTINUOUS
 62
     7
 10
-505.615406036377
 20
-22.1846008300781
 30
0.0
 11
-505.615406036377
 21
-20.3095929649609
 31
0.0
  0
LINE
  5
   159
  8
0
  6
CONTINUOUS
 62
     7
 10
-499.465404510498
 20
-22.1846008300781
 30
0.0
 11
-499.465404510498
 21
-20.3095929649609
 31
0.0
  0
LINE
  5
   15A
  8
0
  6
CONTINUOUS
 62
     7
 10
-471.615406036377
 20
22.1903965126673
 30
0.0
 11
-471.615406036377
 21
24.0653991699219
 31
0.0
  0
LINE
  5
   15B
  8
0
  6
CONTINUOUS
 62
     7
 10
-465.465404510498
 20
22.1903965126672
 30
0.0
 11
-465.465404510498
 21
24.0653991699219
 31
0.0
  0
LINE
  5
   15C
  8
0
  6
CONTINUOUS
 62
     7
 10
-480.365406036377
 20
22.1903965126673
 30
0.0
 11
-480.365406036377
 21
24.0653991699219
 31
0.0
  0
LINE
  5
   15D
  8
0
  6
CONTINUOUS
 62
     7
 10
-474.215404510498
 20
22.1903965126673
 30
0.0
 11
-474.215404510498
 21
24.0653991699219
 31
0.0
  0
LINE
  5
   15E
  8
0
  6
CONTINUOUS
 62
     7
 10
-454.115405082703
 20
22.1903965126672
 30
0.0
 11
-454.115405082703
 21
24.0653991699219
 31
0.0
  0
LINE
  5
   15F
  8
0
  6
CONTINUOUS
 62
     7
 10
-447.965405225754
 20
22.1903965126672
 30
0.0
 11
-447.965405225754
 21
24.0653991699219
 31
0.0
  0
LINE
  5
   160
  8
0
  6
CONTINUOUS
 62
     7
 10
-462.865406036377
 20
22.1903965126672
 30
0.0
 11
-462.865406036377
 21
24.1492155892677
 31
0.0
  0
LINE
  5
   161
  8
0
  6
CONTINUOUS
 62
     7
 10
-456.715405464172
 20
22.1903965126672
 30
0.0
 11
-456.715405464172
 21
24.1511061565454
 31
0.0
  0
LINE
  5
   162
  8
0
  6
CONTINUOUS
 62
     7
 10
-514.36540222168
 20
22.1904070350392
 30
0.0
 11
-514.36540222168
 21
24.0653991699219
 31
0.0
  0
LINE
  5
   163
  8
0
  6
CONTINUOUS
 62
     7
 10
-508.215404510498
 20
22.1904070350392
 30
0.0
 11
-508.215404510498
 21
24.0653991699219
 31
0.0
  0
LINE
  5
   164
  8
0
  6
CONTINUOUS
 62
     7
 10
-523.11540222168
 20
22.1904070350392
 30
0.0
 11
-523.11540222168
 21
24.0653991699219
 31
0.0
  0
LINE
  5
   165
  8
0
  6
CONTINUOUS
 62
     7
 10
-516.965408325195
 20
22.1904070350392
 30
0.0
 11
-516.965408325195
 21
24.0653991699219
 31
0.0
  0
LINE
  5
   166
  8
0
  6
CONTINUOUS
 62
     7
 10
-496.865406036377
 20
19.0654051276896
 30
0.0
 11
-496.865406036377
 21
24.0653991699219
 31
0.0
  0
LINE
  5
   167
  8
0
  6
CONTINUOUS
 62
     7
 10
-490.715404510498
 20
19.0654051276896
 30
0.0
 11
-490.715404510498
 21
24.0653991699219
 31
0.0
  0
LINE
  5
   168
  8
0
  6
CONTINUOUS
 62
     7
 10
-505.615406036377
 20
22.1904070350392
 30
0.0
 11
-505.615406036377
 21
24.0653991699219
 31
0.0
  0
LINE
  5
   169
  8
0
  6
CONTINUOUS
 62
     7
 10
-499.465404510498
 20
22.1904070350392
 30
0.0
 11
-499.465404510498
 21
24.0653991699219
 31
0.0
  0
LINE
  5
   16A
  8
0
  6
CONTINUOUS
 62
     7
 10
-498.165420019362
 20
0.315399169921879
 30
0.0
 11
-496.415404760573
 21
0.315399169921879
 31
0.0
  0
LINE
  5
   16B
  8
0
  6
CONTINUOUS
 62
     7
 10
-485.915405273438
 20
-0.809600830078121
 30
0.0
 11
-485.915405273438
 21
0.315399169921879
 31
0.0
  0
ARC
  5
   16C
  8
0
  6
CONTINUOUS
 62
     7
 10
-520.040395896101
 20
24.0653494341686
 30
0.0
 40
3.0750469137916
 50
9.13258091590628E-4
 51
179.999084696542
  0
ARC
  5
   16D
  8
0
  6
CONTINUOUS
 62
     7
 10
-511.290379299879
 20
24.0652312241032
 30
0.0
 40
3.07515339392999
 50
3.06978788888063E-3
 51
179.996882255849
  0
ARC
  5
   16E
  8
0
  6
CONTINUOUS
 62
     7
 10
-502.540379303635
 20
24.0651919667801
 30
0.0
 40
3.0751836792577
 50
3.80180038386332E-3
 51
179.996191243791
  0
ARC
  5
   16F
  8
0
  6
CONTINUOUS
 62
     7
 10
-493.790432648221
 20
24.0654593808453
 30
0.0
 40
3.07493334178224
 50
359.998819650713
 51
540.00117442281
  0
ARC
  5
   170
  8
0
  6
CONTINUOUS
 62
     7
 10
-524.040400290836
 20
4.44038939296129
 30
0.0
 40
0.750008756844295
 50
120.001017561207
 51
179.99904774348
  0
ARC
  5
   171
  8
0
  6
CONTINUOUS
 62
     7
 10
-524.040400772914
 20
-2.55960193838191
 30
0.0
 40
0.749999322562717
 50
179.99959255117
 51
239.998608834018
  0
ARC
  5
   172
  8
0
  6
CONTINUOUS
 62
     7
 10
-485.165412756962
 20
5.9403865578758
 30
0.0
 40
0.750014924560123
 50
1.26645959213893E-3
 51
89.9997525819115
  0
ARC
  5
   173
  8
0
  6
CONTINUOUS
 62
     7
 10
-485.165408203159
 20
-0.809600792181669
 30
0.0
 40
0.74999889732175
 50
179.999698469105
 51
360.000231139084
  0
ARC
  5
   174
  8
0
  6
CONTINUOUS
 62
     7
 10
-481.290394952787
 20
4.44039440027593
 30
0.0
 40
0.750011891557442
 50
119.998738277403
 51
179.99939924714
  0
ARC
  5
   175
  8
0
  6
CONTINUOUS
 62
     7
 10
-481.290411447656
 20
-2.55960585516193
 30
0.0
 40
0.749993004866579
 50
179.999330821036
 51
240.001883783716
  0
ARC
  5
   176
  8
0
  6
CONTINUOUS
 62
     7
 10
-520.040405300208
 20
-22.1846144310924
 30
0.0
 40
3.07498669512666
 50
179.999740962283
 51
360.000255082446
  0
ARC
  5
   177
  8
0
  6
CONTINUOUS
 62
     7
 10
-511.290399372381
 20
-22.1848496589671
 30
0.0
 40
3.07476867385881
 50
179.995358250987
 51
360.004644520997
  0
ARC
  5
   178
  8
0
  6
CONTINUOUS
 62
     7
 10
-493.790399372286
 20
-22.1847721356138
 30
0.0
 40
3.07486300428725
 50
179.996786755434
 51
360.003202052924
  0
ARC
  5
   179
  8
0
  6
CONTINUOUS
 62
     7
 10
-477.290395128427
 20
-22.1845724277468
 30
0.0
 40
3.07502961814129
 50
180.000509751938
 51
359.999482828742
  0
ARC
  5
   17A
  8
0
  6
CONTINUOUS
 62
     7
 10
-468.54040250024
 20
-22.1845963642216
 30
0.0
 40
3.07500512188037
 50
180.000064756992
 51
359.999929839381
  0
ARC
  5
   17B
  8
0
  6
CONTINUOUS
 62
     7
 10
-459.790403055493
 20
-22.1845966112056
 30
0.0
 40
3.07500477317128
 50
180.000061160981
 51
359.999916633566
  0
ARC
  5
   17C
  8
0
  6
CONTINUOUS
 62
     7
 10
-451.04040531633
 20
-22.184602995147
 30
0.0
 40
3.07499816446561
 50
179.999965248511
 51
360.000040486146
  0
ARC
  5
   17D
  8
0
  6
CONTINUOUS
 62
     7
 10
-477.290413140823
 20
24.0654217215881
 30
0.0
 40
3.0749755031568
 50
359.999522343939
 51
540.000473723626
  0
ARC
  5
   17E
  8
0
  6
CONTINUOUS
 62
     7
 10
-468.540383901296
 20
24.0653708836283
 30
0.0
 40
3.07503136914006
 50
4.70131526340874E-4
 51
179.999527007356
  0
ARC
  5
   17F
  8
0
  6
CONTINUOUS
 62
     7
 10
-459.790379300938
 20
24.0641213867641
 30
0.0
 40
3.07620390204642
 50
1.62034921782076
 51
178.41487729028
  0
ARC
  5
   180
  8
0
  6
CONTINUOUS
 62
     7
 10
-451.040422426146
 20
24.0654270418488
 30
0.0
 40
3.07496781835368
 50
359.999440474471
 51
540.000472577885
  0
ARC
  5
   181
  8
0
  6
CONTINUOUS
 62
     7
 10
-502.540405273438
 20
-22.1846175698864
 30
0.0
 40
3.07500076293945
 50
180.0
 51
360.0
  0
LINE
  5
   182
  8
0
  6
DASHDOT
 62
     7
 10
-515.665424983206
 20
17.0404265164679
 30
0.0
 11
-515.665424983206
 21
19.5903894687962
 31
0.0
  0
LINE
  5
   183
  8
0
  6
DASHDOT
 62
     7
 10
-516.94040645937
 20
18.315407992632
 30
0.0
 11
-514.390443507042
 21
18.315407992632
 31
0.0
  0
LINE
  5
   184
  8
0
  6
DASHDOT
 62
     7
 10
-515.665395178451
 20
-17.7096021308893
 30
0.0
 11
-515.665395178451
 21
-15.1595599673467
 31
0.0
  0
LINE
  5
   185
  8
0
  6
DASHDOT
 62
     7
 10
-516.940416260223
 20
-16.434581049118
 30
0.0
 11
-514.39037409668
 21
-16.434581049118
 31
0.0
  0
LINE
  5
   186
  8
0
  6
DASHDOT
 62
     7
 10
-530.494110874895
 20
0.377907992632032
 30
0.0
 11
-438.789945497377
 21
0.377907992632032
 31
0.0
  0
LINE
  5
   187
  8
0
  6
DASHDOT
 62
     7
 10
-485.540405273438
 20
-41.1019112877953
 30
0.0
 11
-485.540405273438
 21
35.6679994504181
 31
0.0
  0
LINE
  5
   188
  8
0
  6
DOT
 62
     7
 10
-447.040405273438
 20
24.8153991699219
 30
0.0
 11
-447.040405273438
 21
33.3153991699219
 31
0.0
  0
LINE
  5
   189
  8
0
  6
DOT
 62
     7
 10
-446.290405273438
 20
24.0653991699219
 30
0.0
 11
-441.790405273438
 21
24.0653991699219
 31
0.0
  0
ARC
  5
   18A
  8
0
  6
DOT
 62
     7
 10
-446.290405273438
 20
24.8153991699219
 30
0.0
 40
0.75
 50
180.0
 51
270.0
  0
ARC
  5
   18B
  8
0
  6
DOT
 62
     7
 10
-446.290405273438
 20
33.3153991699219
 30
0.0
 40
0.75
 50
90.0
 51
180.0
  0
CIRCLE
  5
   18C
  8
0
  6
DOT
 62
     7
 10
-445.040405273438
 20
29.3778991699219
 30
0.0
 40
0.5
  0
LINE
  5
   18D
  8
0
  6
DASHDOT
 62
     7
 10
-445.040405273438
 20
28.1278991699219
 30
0.0
 11
-445.040405273438
 21
30.6278991699219
 31
0.0
  0
LINE
  5
   18E
  8
0
  6
DASHDOT
 62
     7
 10
-446.290405273438
 20
29.3778991699219
 30
0.0
 11
-443.790405273438
 21
29.3778991699219
 31
0.0
  0
ARC
  5
   18F
  8
0
  6
DOT
 62
     7
 10
-524.790405273438
 20
33.3153991699219
 30
0.0
 40
0.75
 50
7.01670929853487E-15
 51
90.0
  0
LINE
  5
   190
  8
0
  6
DOT
 62
     7
 10
-524.040405273438
 20
24.8153991699219
 30
0.0
 11
-524.040405273438
 21
33.3153991699219
 31
0.0
  0
LINE
  5
   191
  8
0
  6
DASHDOT
 62
     7
 10
-527.290405273438
 20
29.3778991699219
 30
0.0
 11
-524.790405273438
 21
29.3778991699219
 31
0.0
  0
LINE
  5
   192
  8
0
  6
DASHDOT
 62
     7
 10
-526.040405273438
 20
28.1278991699219
 30
0.0
 11
-526.040405273438
 21
30.6278991699219
 31
0.0
  0
CIRCLE
  5
   193
  8
0
  6
DOT
 62
     7
 10
-526.040405273438
 20
29.3778991699219
 30
0.0
 40
0.5
  0
ARC
  5
   194
  8
0
  6
DOT
 62
     7
 10
-524.790405273438
 20
24.8153991699219
 30
0.0
 40
0.75
 50
270.0
 51
360.0
  0
LINE
  5
   195
  8
0
  6
DOT
 62
     7
 10
-529.290405273438
 20
24.0653991699219
 30
0.0
 11
-524.790405273438
 21
24.0653991699219
 31
0.0
  0
ARC
  5
   196
  8
0
  6
DOT
 62
     7
 10
-446.290405273438
 20
-31.4346008300781
 30
0.0
 40
0.75
 50
180.0
 51
270.0
  0
LINE
  5
   197
  8
0
  6
DOT
 62
     7
 10
-447.040405273438
 20
-31.4346008300781
 30
0.0
 11
-447.040405273438
 21
-22.9346008300781
 31
0.0
  0
LINE
  5
   198
  8
0
  6
DASHDOT
 62
     7
 10
-446.290405273438
 20
-27.4971008300781
 30
0.0
 11
-443.790405273438
 21
-27.4971008300781
 31
0.0
  0
LINE
  5
   199
  8
0
  6
DASHDOT
 62
     7
 10
-445.040405273438
 20
-28.7471008300781
 30
0.0
 11
-445.040405273438
 21
-26.2471008300781
 31
0.0
  0
CIRCLE
  5
   19A
  8
0
  6
DOT
 62
     7
 10
-445.040405273438
 20
-27.4971008300781
 30
0.0
 40
0.5
  0
ARC
  5
   19B
  8
0
  6
DOT
 62
     7
 10
-446.290405273438
 20
-22.9346008300781
 30
0.0
 40
0.75
 50
90.0
 51
180.0
  0
LINE
  5
   19C
  8
0
  6
DOT
 62
     7
 10
-446.290405273438
 20
-22.1846008300781
 30
0.0
 11
-441.790405273438
 21
-22.1846008300781
 31
0.0
  0
LINE
  5
   19D
  8
0
  6
DASHDOT
 62
     7
 10
-526.040405273438
 20
-28.7471008300781
 30
0.0
 11
-526.040405273438
 21
-26.2471008300781
 31
0.0
  0
LINE
  5
   19E
  8
0
  6
DASHDOT
 62
     7
 10
-527.290405273438
 20
-27.4971008300781
 30
0.0
 11
-524.790405273438
 21
-27.4971008300781
 31
0.0
  0
CIRCLE
  5
   19F
  8
0
  6
DOT
 62
     7
 10
-526.040405273438
 20
-27.4971008300781
 30
0.0
 40
0.5
  0
LINE
  5
   1A0
  8
0
  6
DOT
 62
     7
 10
-524.040405273438
 20
-31.4346008300781
 30
0.0
 11
-524.040405273438
 21
-22.9346008300781
 31
0.0
  0
ARC
  5
   1A1
  8
0
  6
DOT
 62
     7
 10
-524.790405273438
 20
-22.9346008300781
 30
0.0
 40
0.75
 50
1.40334185970697E-14
 51
90.0
  0
LINE
  5
   1A2
  8
0
  6
DOT
 62
     7
 10
-529.290405273438
 20
-22.1846008300781
 30
0.0
 11
-524.790405273438
 21
-22.1846008300781
 31
0.0
  0
ARC
  5
   1A3
  8
0
  6
DOT
 62
     7
 10
-524.790405273438
 20
-31.4346008300781
 30
0.0
 40
0.75
 50
270.0
 51
360.0
  0
LINE
  5
   1A4
  8
0
  6
DASHDOT
 62
     7
 10
-506.915390338434
 20
17.0403725095004
 30
0.0
 11
-506.915390338434
 21
19.590404843116
 31
0.0
  0
LINE
  5
   1A5
  8
0
  6
DASHDOT
 62
     7
 10
-508.190406505242
 20
18.3153886763082
 30
0.0
 11
-505.640374171626
 21
18.3153886763082
 31
0.0
  0
LINE
  5
   1A6
  8
0
  6
CONTINUOUS
 62
     7
 10
-498.165423539464
 20
-3.30959105761313
 30
0.0
 11
-495.290423539464
 21
-3.30959105761313
 31
0.0
  0
LINE
  5
   1A7
  8
0
  6
CONTINUOUS
 62
     7
 10
-498.165423539464
 20
-10.4345910576131
 30
0.0
 11
-495.290423539464
 21
-10.4345910576131
 31
0.0
  0
LINE
  5
   1A8
  8
0
  6
CONTINUOUS
 62
     7
 10
-495.290423539464
 20
-10.4345910576131
 30
0.0
 11
-495.290423539464
 21
-3.30959105761313
 31
0.0
  0
LINE
  5
   1A9
  8
0
  6
CONTINUOUS
 62
     7
 10
-498.16540857527
 20
-14.4346044090536
 30
0.0
 11
-497.165446722243
 21
-14.4346044090536
 31
0.0
  0
LINE
  5
   1AA
  8
0
  6
CONTINUOUS
 62
     7
 10
-494.227920019362
 20
10.9404089423869
 30
0.0
 11
-494.227920019362
 21
11.0654089423869
 31
0.0
  0
LINE
  5
   1AB
  8
0
  6
CONTINUOUS
 62
     7
 10
-497.165480956022
 20
-14.9346301012501
 30
0.0
 11
-497.165404662077
 21
-13.809596722264
 31
0.0
  0
LINE
  5
   1AC
  8
0
  6
CONTINUOUS
 62
     7
 10
-496.16540857527
 20
-14.9345977333333
 30
0.0
 11
-496.16540857527
 21
-13.809596779659
 31
0.0
  0
LINE
  5
   1AD
  8
0
  6
CONTINUOUS
 62
     7
 10
-497.165404760573
 20
-13.809596779659
 30
0.0
 11
-496.16540857527
 21
-13.809596779659
 31
0.0
  0
LINE
  5
   1AE
  8
0
  6
CONTINUOUS
 62
     7
 10
-495.415404760573
 20
-12.1845948723104
 30
0.0
 11
-494.790400945876
 21
-12.1845948723104
 31
0.0
  0
LINE
  5
   1AF
  8
0
  6
CONTINUOUS
 62
     7
 10
-495.415427637078
 20
-13.1845967720699
 30
0.0
 11
-495.415404748895
 21
-12.1845958183946
 31
0.0
  0
LINE
  5
   1B0
  8
0
  6
CONTINUOUS
 62
     7
 10
-495.415408574946
 20
-13.1845958247839
 30
0.0
 11
-495.415404760249
 21
-12.1845948711087
 31
0.0
  0
LINE
  5
   1B1
  8
0
  6
CONTINUOUS
 62
     7
 10
-497.165404760573
 20
-12.1845948723104
 30
0.0
 11
-495.415404760573
 21
-12.1845948723104
 31
0.0
  0
LINE
  5
   1B2
  8
0
  6
CONTINUOUS
 62
     7
 10
-497.165481052025
 20
-14.9346463703653
 30
0.0
 11
-495.415400943383
 21
-14.9346330189249
 31
0.0
  0
LINE
  5
   1B3
  8
0
  6
CONTINUOUS
 62
     7
 10
-497.165484868927
 20
-15.9346139457598
 30
0.0
 11
-495.670409643097
 21
-15.9346101310626
 31
0.0
  0
LINE
  5
   1B4
  8
0
  6
CONTINUOUS
 62
     7
 10
-497.165404760573
 20
-13.8096005943563
 30
0.0
 11
-497.165404760573
 21
-12.1845948723104
 31
0.0
  0
LINE
  5
   1B5
  8
0
  6
CONTINUOUS
 62
     7
 10
-498.165412389968
 20
19.0654089423869
 30
0.0
 11
-497.915404760573
 21
19.0654089423869
 31
0.0
  0
LINE
  5
   1B6
  8
0
  6
CONTINUOUS
 62
     7
 10
-498.165412389968
 20
18.0654089423869
 30
0.0
 11
-497.915404760573
 21
18.0654089423869
 31
0.0
  0
LINE
  5
   1B7
  8
0
  6
CONTINUOUS
 62
     7
 10
-498.165412389968
 20
-14.9346616295125
 30
0.0
 11
-497.915553533766
 21
-14.9346616295125
 31
0.0
  0
LINE
  5
   1B8
  8
0
  6
CONTINUOUS
 62
     7
 10
-498.165412389355
 20
-15.9346616294302
 30
0.0
 11
-497.915561162548
 21
-15.9346606757558
 31
0.0
  0
LINE
  5
   1B9
  8
0
  6
CONTINUOUS
 62
     7
 10
-498.165412389968
 20
-12.1845929649618
 30
0.0
 11
-497.165404760573
 21
-12.1845929649618
 31
0.0
  0
LINE
  5
   1BA
  8
0
  6
CONTINUOUS
 62
     7
 10
-498.165412389968
 20
-13.184596779659
 30
0.0
 11
-497.165404760573
 21
-13.184596779659
 31
0.0
  0
LINE
  5
   1BB
  8
0
  6
CONTINUOUS
 62
     7
 10
-490.790404760573
 20
11.0654089423869
 30
0.0
 11
-490.54040857527
 21
11.0654089423869
 31
0.0
  0
LINE
  5
   1BC
  8
0
  6
CONTINUOUS
 62
     7
 10
-490.790404760573
 20
19.0654051276896
 30
0.0
 11
-490.54040857527
 21
19.0654051276896
 31
0.0
  0
LINE
  5
   1BD
  8
0
  6
CONTINUOUS
 62
     7
 10
-491.540404760573
 20
19.0654051276896
 30
0.0
 11
-490.790404760573
 21
19.0654051276896
 31
0.0
  0
LINE
  5
   1BE
  8
0
  6
CONTINUOUS
 62
     7
 10
-491.540404760573
 20
11.0654089423869
 30
0.0
 11
-490.790404760573
 21
11.0654089423869
 31
0.0
  0
LINE
  5
   1BF
  8
0
  6
CONTINUOUS
 62
     7
 10
-496.165431463454
 20
5.06540131299234
 30
0.0
 11
-496.165431463454
 21
11.0654089423869
 31
0.0
  0
LINE
  5
   1C0
  8
0
  6
CONTINUOUS
 62
     7
 10
-495.732909643386
 20
-16.9345986870077
 30
0.0
 11
-495.670409643386
 21
-16.9345986870077
 31
0.0
  0
LINE
  5
   1C1
  8
0
  6
CONTINUOUS
 62
     7
 10
-495.670409643386
 20
-17.1220986870077
 30
0.0
 11
-490.540404760573
 21
-17.1220986870077
 31
0.0
  0
LINE
  5
   1C2
  8
0
  6
CONTINUOUS
 62
     7
 10
-490.540404760573
 20
-17.1220986870077
 30
0.0
 11
-490.540404760573
 21
-15.9346005943563
 31
0.0
  0
LINE
  5
   1C3
  8
0
  6
CONTINUOUS
 62
     7
 10
-495.670409643386
 20
-17.1220986870077
 30
0.0
 11
-495.670409643386
 21
-15.9346005943563
 31
0.0
  0
LINE
  5
   1C4
  8
0
  6
CONTINUOUS
 62
     7
 10
-497.915416204665
 20
-16.4970986870077
 30
0.0
 11
-495.732924902175
 21
-16.4970986870077
 31
0.0
  0
LINE
  5
   1C5
  8
0
  6
CONTINUOUS
 62
     7
 10
-497.915431463454
 20
-17.1220986870077
 30
0.0
 11
-495.670409643386
 21
-17.1220986870077
 31
0.0
  0
LINE
  5
   1C6
  8
0
  6
CONTINUOUS
 62
     7
 10
-497.915431452811
 20
-17.1220986800599
 30
0.0
 11
-497.915404749931
 21
-15.9347350559224
 31
0.0
  0
LINE
  5
   1C7
  8
0
  6
CONTINUOUS
 62
     7
 10
-497.915404760573
 20
12.4404089423869
 30
0.0
 11
-497.915404760573
 21
15.7529089423869
 31
0.0
  0
LINE
  5
   1C8
  8
0
  6
CONTINUOUS
 62
     7
 10
-496.165404760573
 20
13.9404089423869
 30
0.0
 11
-496.165404760573
 21
15.7529089423869
 31
0.0
  0
LINE
  5
   1C9
  8
0
  6
CONTINUOUS
 62
     7
 10
-496.165404760573
 20
13.9404089423869
 30
0.0
 11
-495.165404760573
 21
13.9404089423869
 31
0.0
  0
LINE
  5
   1CA
  8
0
  6
CONTINUOUS
 62
     7
 10
-495.165398817117
 20
13.9404146406175
 30
0.0
 11
-494.790398808879
 21
14.3154146488552
 31
0.0
  0
LINE
  5
   1CB
  8
0
  6
CONTINUOUS
 62
     7
 10
-494.977898719225
 20
14.1279072621634
 30
0.0
 11
-494.790387277349
 21
14.3154110698804
 31
0.0
  0
LINE
  5
   1CC
  8
0
  6
CONTINUOUS
 62
     7
 10
-494.790393316322
 20
15.7529089447076
 30
0.0
 11
-494.790389501625
 21
14.3154089393525
 31
0.0
  0
LINE
  5
   1CD
  8
0
  6
CONTINUOUS
 62
     7
 10
-494.790404760573
 20
14.3154089423869
 30
0.0
 11
-494.790404760573
 21
15.7529089423869
 31
0.0
  0
LINE
  5
   1CE
  8
0
  6
CONTINUOUS
 62
     7
 10
-496.915404760573
 20
11.0654089423869
 30
0.0
 11
-496.915404760573
 21
11.8154089423869
 31
0.0
  0
LINE
  5
   1CF
  8
0
  6
CONTINUOUS
 62
     7
 10
-496.915404760573
 20
11.0654089423869
 30
0.0
 11
-496.415404760573
 21
11.0654089423869
 31
0.0
  0
LINE
  5
   1D0
  8
0
  6
CONTINUOUS
 62
     7
 10
-496.915404760573
 20
11.8154089423869
 30
0.0
 11
-496.415404760573
 21
11.8154089423869
 31
0.0
  0
LINE
  5
   1D1
  8
0
  6
CONTINUOUS
 62
     7
 10
-496.915404760573
 20
12.0654051276896
 30
0.0
 11
-496.915404760573
 21
13.1904089423869
 31
0.0
  0
LINE
  5
   1D2
  8
0
  6
CONTINUOUS
 62
     7
 10
-496.415404760573
 20
11.0654089423869
 30
0.0
 11
-491.540404760573
 21
11.0654089423869
 31
0.0
  0
LINE
  5
   1D3
  8
0
  6
CONTINUOUS
 62
     7
 10
-497.915404760573
 20
19.0654051276896
 30
0.0
 11
-491.540404760573
 21
19.0654051276896
 31
0.0
  0
LINE
  5
   1D4
  8
0
  6
CONTINUOUS
 62
     7
 10
-497.915404760573
 20
15.7529089423869
 30
0.0
 11
-497.915404760573
 21
19.0654051276896
 31
0.0
  0
LINE
  5
   1D5
  8
0
  6
CONTINUOUS
 62
     7
 10
-497.915404760573
 20
15.7529089423869
 30
0.0
 11
-494.040404760573
 21
15.7529089423869
 31
0.0
  0
LINE
  5
   1D6
  8
0
  6
CONTINUOUS
 62
     7
 10
-494.040404760573
 20
13.1904089423869
 30
0.0
 11
-494.040404760573
 21
15.7529089423869
 31
0.0
  0
LINE
  5
   1D7
  8
0
  6
CONTINUOUS
 62
     7
 10
-496.915404760573
 20
13.1904089423869
 30
0.0
 11
-494.040404760573
 21
13.1904089423869
 31
0.0
  0
LINE
  5
   1D8
  8
0
  6
CONTINUOUS
 62
     7
 10
-496.915404760573
 20
11.8154089423869
 30
0.0
 11
-496.915404760573
 21
12.0654051276896
 31
0.0
  0
LINE
  5
   1D9
  8
0
  6
CONTINUOUS
 62
     7
 10
-497.915404760573
 20
12.4404089423869
 30
0.0
 11
-496.915404760573
 21
12.4404089423869
 31
0.0
  0
LINE
  5
   1DA
  8
0
  6
CONTINUOUS
 62
     7
 10
-494.790404760573
 20
-5.2471063164022
 30
0.0
 11
-494.790404760573
 21
3.56539749829507
 31
0.0
  0
LINE
  5
   1DB
  8
0
  6
CONTINUOUS
 62
     7
 10
-494.790387624925
 20
-12.1845948722986
 30
0.0
 11
-494.790387624925
 21
-7.87210631639041
 31
0.0
  0
LINE
  5
   1DC
  8
0
  6
CONTINUOUS
 62
     7
 10
-496.165404760489
 20
3.56539749832469
 30
0.0
 11
-494.790404760489
 21
3.56539940567338
 31
0.0
  0
LINE
  5
   1DD
  8
0
  6
CONTINUOUS
 62
     7
 10
-494.790404760491
 20
3.56539749832303
 30
0.0
 11
-490.540408575188
 21
3.56540322036876
 31
0.0
  0
LINE
  5
   1DE
  8
0
  6
CONTINUOUS
 62
     7
 10
-493.540404760573
 20
10.9404089423869
 30
0.0
 11
-493.540404760573
 21
11.0654089423869
 31
0.0
  0
LINE
  5
   1DF
  8
0
  6
CONTINUOUS
 62
     7
 10
-495.290357286347
 20
-5.2471063164022
 30
0.0
 11
-494.79040857527
 21
-5.2471063164022
 31
0.0
  0
LINE
  5
   1E0
  8
0
  6
CONTINUOUS
 62
     7
 10
-494.790404760573
 20
-5.2471063164022
 30
0.0
 11
-493.915404760573
 21
-5.2471063164022
 31
0.0
  0
LINE
  5
   1E1
  8
0
  6
CONTINUOUS
 62
     7
 10
-495.290357286347
 20
-7.8721063164022
 30
0.0
 11
-494.79040857527
 21
-7.8721063164022
 31
0.0
  0
LINE
  5
   1E2
  8
0
  6
CONTINUOUS
 62
     7
 10
-494.790404760573
 20
-7.8721063164022
 30
0.0
 11
-493.915404760573
 21
-7.8721063164022
 31
0.0
  0
LINE
  5
   1E3
  8
0
  6
CONTINUOUS
 62
     7
 10
-496.165403291423
 20
-11.4345948537799
 30
0.0
 11
-495.415403274948
 21
-12.1845958185597
 31
0.0
  0
LINE
  5
   1E4
  8
0
  6
CONTINUOUS
 62
     7
 10
-493.102904760573
 20
10.9404089423869
 30
0.0
 11
-493.102904760573
 21
11.0654089423869
 31
0.0
  0
LINE
  5
   1E5
  8
0
  6
CONTINUOUS
 62
     7
 10
-492.477904760573
 20
10.9404089423869
 30
0.0
 11
-492.477904760573
 21
11.0654089423869
 31
0.0
  0
LINE
  5
   1E6
  8
0
  6
CONTINUOUS
 62
     7
 10
-490.540403527963
 20
-15.9346025017044
 30
0.0
 11
-490.540403527963
 21
19.0654051276901
 31
0.0
  0
LINE
  5
   1E7
  8
0
  6
CONTINUOUS
 62
     7
 10
-490.29040857527
 20
-2.6846063164022
 30
0.0
 11
-490.29040857527
 21
2.3153936835978
 31
0.0
  0
LINE
  5
   1E8
  8
0
  6
CONTINUOUS
 62
     7
 10
-496.415404760573
 20
3.56539749829507
 30
0.0
 11
-496.165404760573
 21
3.56539749829507
 31
0.0
  0
LINE
  5
   1E9
  8
0
  6
CONTINUOUS
 62
     7
 10
-496.415405742029
 20
-11.1845949116151
 30
0.0
 11
-496.165405750586
 21
-11.4345949030579
 31
0.0
  0
LINE
  5
   1EA
  8
0
  6
CONTINUOUS
 62
     7
 10
-496.415404760573
 20
-11.1845948723104
 30
0.0
 11
-496.415404760573
 21
-10.5612294700912
 31
0.0
  0
LINE
  5
   1EB
  8
0
  6
CONTINUOUS
 62
     7
 10
-495.415408574847
 20
-13.184595825105
 30
0.0
 11
-495.415400945452
 21
-14.9346377905738
 31
0.0
  0
LINE
  5
   1EC
  8
0
  6
CONTINUOUS
 62
     7
 10
-495.415435278045
 20
-14.9345977251395
 30
0.0
 11
-495.415431463348
 21
-13.1845996417992
 31
0.0
  0
LINE
  5
   1ED
  8
0
  6
CONTINUOUS
 62
     7
 10
-497.91555351635
 20
-14.9346616269653
 30
0.0
 11
-497.165481037102
 21
-14.9346463681761
 31
0.0
  0
LINE
  5
   1EE
  8
0
  6
CONTINUOUS
 62
     7
 10
-497.915561161936
 20
-15.9346301537058
 30
0.0
 11
-497.915553532542
 21
-14.934661627693
 31
0.0
  0
LINE
  5
   1EF
  8
0
  6
CONTINUOUS
 62
     7
 10
-497.9155611435
 20
-15.9346301556182
 30
0.0
 11
-497.165484849554
 21
-15.9346139431542
 31
0.0
  0
LINE
  5
   1F0
  8
0
  6
CONTINUOUS
 62
     7
 10
-497.915430983332
 20
-15.9347349979
 30
0.0
 11
-497.16541953924
 21
-15.9346548892575
 31
0.0
  0
LINE
  5
   1F1
  8
0
  6
CONTINUOUS
 62
     7
 10
-497.915412320287
 20
-14.9346616193208
 30
0.0
 11
-497.165419949682
 21
-14.9346311017439
 31
0.0
  0
LINE
  5
   1F2
  8
0
  6
CONTINUOUS
 62
     7
 10
-498.165412389968
 20
12.0654051276896
 30
0.0
 11
-496.915404760573
 21
12.0654051276896
 31
0.0
  0
LINE
  5
   1F3
  8
0
  6
CONTINUOUS
 62
     7
 10
-498.165412389968
 20
16.0654051276896
 30
0.0
 11
-497.915404760573
 21
16.0654051276896
 31
0.0
  0
LINE
  5
   1F4
  8
0
  6
CONTINUOUS
 62
     7
 10
-496.415404760573
 20
11.0654089423869
 30
0.0
 11
-496.415404760573
 21
11.8154051276896
 31
0.0
  0
LINE
  5
   1F5
  8
0
  6
CONTINUOUS
 62
     7
 10
-496.434435474505
 20
11.9110792022318
 30
0.0
 11
-496.415403950263
 21
11.8154065928263
 31
0.0
  0
LINE
  5
   1F6
  8
0
  6
CONTINUOUS
 62
     7
 10
-496.488629644849
 20
11.9921799128085
 30
0.0
 11
-496.434438057766
 21
11.9110756358525
 31
0.0
  0
LINE
  5
   1F7
  8
0
  6
CONTINUOUS
 62
     7
 10
-496.569734671623
 20
12.0463721752049
 30
0.0
 11
-496.488630394667
 21
11.9921805881216
 31
0.0
  0
LINE
  5
   1F8
  8
0
  6
CONTINUOUS
 62
     7
 10
-496.665403097931
 20
12.0654058252345
 30
0.0
 11
-496.569730488525
 21
12.0463743009926
 31
0.0
  0
LINE
  5
   1F9
  8
0
  6
CONTINUOUS
 62
     7
 10
-496.915404760573
 20
12.0654051276896
 30
0.0
 11
-496.665404760573
 21
12.0654051276896
 31
0.0
  0
LINE
  5
   1FA
  8
0
  6
CONTINUOUS
 62
     7
 10
-494.790404760573
 20
10.9404089423869
 30
0.0
 11
-493.165404760573
 21
10.9404089423869
 31
0.0
  0
LINE
  5
   1FB
  8
0
  6
CONTINUOUS
 62
     7
 10
-494.790404760573
 20
3.56539749829507
 30
0.0
 11
-494.790404760573
 21
10.9404089423869
 31
0.0
  0
LINE
  5
   1FC
  8
0
  6
CONTINUOUS
 62
     7
 10
-492.415404760573
 20
10.9404089423869
 30
0.0
 11
-490.790404760573
 21
10.9404089423869
 31
0.0
  0
LINE
  5
   1FD
  8
0
  6
CONTINUOUS
 62
     7
 10
-490.790404760573
 20
3.56540322034097
 30
0.0
 11
-490.790404760573
 21
10.9404089423869
 31
0.0
  0
LINE
  5
   1FE
  8
0
  6
CONTINUOUS
 62
     7
 10
-493.16540476027
 20
3.56540512778928
 30
0.0
 11
-492.41540476027
 21
3.56540703513797
 31
0.0
  0
LINE
  5
   1FF
  8
0
  6
CONTINUOUS
 62
     7
 10
-493.165404760573
 20
10.9404089423869
 30
0.0
 11
-492.415404760573
 21
10.9404089423869
 31
0.0
  0
LINE
  5
   200
  8
0
  6
CONTINUOUS
 62
     7
 10
-496.415404760573
 20
5.06539749829507
 30
0.0
 11
-494.790404760573
 21
5.06539749829507
 31
0.0
  0
LINE
  5
   201
  8
0
  6
CONTINUOUS
 62
     7
 10
-496.415404760573
 20
3.5653994056437
 30
0.0
 11
-496.415404760573
 21
5.06539749829507
 31
0.0
  0
LINE
  5
   202
  8
0
  6
CONTINUOUS
 62
     7
 10
-498.165412389968
 20
13.8154089423869
 30
0.0
 11
-497.915404760573
 21
13.8154089423869
 31
0.0
  0
LINE
  5
   203
  8
0
  6
CONTINUOUS
 62
     7
 10
-498.165412389968
 20
12.8154089423869
 30
0.0
 11
-497.915404760573
 21
12.8154089423869
 31
0.0
  0
LINE
  5
   204
  8
0
  6
CONTINUOUS
 62
     7
 10
-490.155192815993
 20
2.3779051276896
 30
0.0
 11
-484.415405273438
 21
2.3779051276896
 31
0.0
  0
LINE
  5
   205
  8
0
  6
CONTINUOUS
 62
     7
 10
-489.702765905593
 20
0.502905127689601
 30
0.0
 11
-486.165412389968
 21
0.502905127689601
 31
0.0
  0
LINE
  5
   206
  8
0
  6
CONTINUOUS
 62
     7
 10
-486.121932470534
 20
0.502905127689601
 30
0.0
 11
-485.956794225905
 21
0.502905127689601
 31
0.0
  0
LINE
  5
   207
  8
0
  6
CONTINUOUS
 62
     7
 10
-485.956794225905
 20
0.502905127689601
 30
0.0
 11
-485.876033270095
 21
0.502905127689601
 31
0.0
  0
LINE
  5
   208
  8
0
  6
CONTINUOUS
 62
     7
 10
-486.165412389968
 20
0.502905127689601
 30
0.0
 11
-486.121943914626
 21
0.502905127689601
 31
0.0
  0
LINE
  5
   209
  8
0
  6
CONTINUOUS
 62
     7
 10
-490.29040857527
 20
1.1904051276896
 30
0.0
 11
-490.155189001296
 21
1.1904051276896
 31
0.0
  0
LINE
  5
   20A
  8
0
  6
CONTINUOUS
 62
     7
 10
-488.540404760573
 20
2.7529051276896
 30
0.0
 11
-486.790404760573
 21
2.7529051276896
 31
0.0
  0
LINE
  5
   20B
  8
0
  6
CONTINUOUS
 62
     7
 10
-496.91540857527
 20
-14.9345986870077
 30
0.0
 11
-496.91540857527
 21
-13.809596779659
 31
0.0
  0
LINE
  5
   20C
  8
0
  6
CONTINUOUS
 62
     7
 10
-495.732909643386
 20
-16.9345986870077
 30
0.0
 11
-495.732909643386
 21
-15.9345986870077
 31
0.0
  0
LINE
  5
   20D
  8
0
  6
CONTINUOUS
 62
     7
 10
-495.540404760573
 20
14.6904089423869
 30
0.0
 11
-495.540404760573
 21
15.7529089423869
 31
0.0
  0
LINE
  5
   20E
  8
0
  6
CONTINUOUS
 62
     7
 10
-495.540405569417
 20
14.6904082726637
 30
0.0
 11
-494.977905562329
 21
14.1279082655755
 31
0.0
  0
LINE
  5
   20F
  8
0
  6
CONTINUOUS
 62
     7
 10
-496.165404760573
 20
14.6904089423869
 30
0.0
 11
-495.540404760573
 21
14.6904089423869
 31
0.0
  0
LINE
  5
   210
  8
0
  6
CONTINUOUS
 62
     7
 10
-497.915404760573
 20
16.5029089423869
 30
0.0
 11
-493.290404760573
 21
16.5029089423869
 31
0.0
  0
LINE
  5
   211
  8
0
  6
CONTINUOUS
 62
     7
 10
-496.915404760573
 20
12.4404089423869
 30
0.0
 11
-493.290404760573
 21
12.4404089423869
 31
0.0
  0
LINE
  5
   212
  8
0
  6
CONTINUOUS
 62
     7
 10
-494.040401403148
 20
13.1904113888503
 30
0.0
 11
-493.290401386672
 21
12.4404113723748
 31
0.0
  0
LINE
  5
   213
  8
0
  6
CONTINUOUS
 62
     7
 10
-493.290404760573
 20
12.4404089423869
 30
0.0
 11
-493.290404760573
 21
16.5029089423869
 31
0.0
  0
LINE
  5
   214
  8
0
  6
CONTINUOUS
 62
     7
 10
-494.040398600723
 20
15.7529149031967
 30
0.0
 11
-493.290398584248
 21
16.5029149196722
 31
0.0
  0
LINE
  5
   215
  8
0
  6
CONTINUOUS
 62
     7
 10
-490.540404760573
 20
2.3153936835978
 30
0.0
 11
-490.29040857527
 21
2.3153936835978
 31
0.0
  0
LINE
  5
   216
  8
0
  6
CONTINUOUS
 62
     7
 10
-490.54040857527
 20
-2.6846063164022
 30
0.0
 11
-490.29040857527
 21
-2.6846063164022
 31
0.0
  0
LINE
  5
   217
  8
0
  6
CONTINUOUS
 62
     7
 10
-494.790397130594
 20
-14.9346072758677
 30
0.0
 11
-494.790393315896
 21
-15.6845805720752
 31
0.0
  0
LINE
  5
   218
  8
0
  6
CONTINUOUS
 62
     7
 10
-494.790408574304
 20
-13.1845977388519
 30
0.0
 11
-494.790397130212
 21
-14.9346072744056
 31
0.0
  0
LINE
  5
   219
  8
0
  6
CONTINUOUS
 62
     7
 10
-494.790408573955
 20
-13.1845977324305
 30
0.0
 11
-494.79040094456
 21
-12.1845948713994
 31
0.0
  0
LINE
  5
   21A
  8
0
  6
CONTINUOUS
 62
     7
 10
-497.915557346015
 20
-15.6846015476942
 30
0.0
 11
-497.165484866767
 21
-15.6845958256483
 31
0.0
  0
LINE
  5
   21B
  8
0
  6
CONTINUOUS
 62
     7
 10
-497.165484867448
 20
-15.6845958257462
 30
0.0
 11
-494.790393314713
 21
-15.6845805669574
 31
0.0
  0
LINE
  5
   21C
  8
0
  6
CONTINUOUS
 62
     7
 10
-495.415400366887
 20
-14.9346378249198
 30
0.0
 11
-494.790392741625
 21
-15.6845806053569
 31
0.0
  0
LINE
  5
   21D
  8
0
  6
CONTINUOUS
 62
     7
 10
-494.790404760573
 20
-8.4971063164022
 30
0.0
 11
-493.915404760573
 21
-8.4971063164022
 31
0.0
  0
LINE
  5
   21E
  8
0
  6
CONTINUOUS
 62
     7
 10
-494.790404760573
 20
-4.6221063164022
 30
0.0
 11
-493.915404760573
 21
-4.6221063164022
 31
0.0
  0
LINE
  5
   21F
  8
0
  6
CONTINUOUS
 62
     7
 10
-493.915404760573
 20
-8.4971063164022
 30
0.0
 11
-493.915404760573
 21
-7.8721063164022
 31
0.0
  0
LINE
  5
   220
  8
0
  6
CONTINUOUS
 62
     7
 10
-493.915404760573
 20
-5.2471063164022
 30
0.0
 11
-493.915404760573
 21
-4.6221063164022
 31
0.0
  0
LINE
  5
   221
  8
0
  6
CONTINUOUS
 62
     7
 10
-496.415404760573
 20
3.6903994056437
 30
0.0
 11
-494.790404760573
 21
3.6903994056437
 31
0.0
  0
LINE
  5
   222
  8
0
  6
CONTINUOUS
 62
     7
 10
-485.679950201247
 20
1.01219582288003
 30
0.0
 11
-485.679950201247
 21
2.3779051276896
 31
0.0
  0
LINE
  5
   223
  8
0
  6
CONTINUOUS
 62
     7
 10
-485.688507918535
 20
0.979809680966802
 30
0.0
 11
-485.67994773822
 21
1.01219836908134
 31
0.0
  0
LINE
  5
   224
  8
0
  6
CONTINUOUS
 62
     7
 10
-486.165414004061
 20
0.50290397076617
 30
0.0
 11
-485.688512011051
 21
0.979805963776698
 31
0.0
  0
LINE
  5
   225
  8
0
  6
CONTINUOUS
 62
     7
 10
-490.228427374099
 20
0.440405127689601
 30
0.0
 11
-490.228427374099
 21
0.502905127689601
 31
0.0
  0
LINE
  5
   226
  8
0
  6
CONTINUOUS
 62
     7
 10
-485.876033270095
 20
0.315399169921879
 30
0.0
 11
-485.876033270095
 21
0.502905127689601
 31
0.0
  0
LINE
  5
   227
  8
0
  6
CONTINUOUS
 62
     7
 10
-485.893443548415
 20
0.502905127689601
 30
0.0
 11
-485.893443548415
 21
0.774873969242336
 31
0.0
  0
LINE
  5
   228
  8
0
  6
CONTINUOUS
 62
     7
 10
-490.155192815993
 20
1.0029051276896
 30
0.0
 11
-485.679950201247
 21
1.0029051276896
 31
0.0
  0
LINE
  5
   229
  8
0
  6
CONTINUOUS
 62
     7
 10
-490.228427374099
 20
1.0029051276896
 30
0.0
 11
-490.155192815993
 21
1.0029051276896
 31
0.0
  0
LINE
  5
   22A
  8
0
  6
CONTINUOUS
 62
     7
 10
-489.628089280649
 20
1.00290514693945
 30
0.0
 11
-489.137416199332
 21
0.502905159432139
 31
0.0
  0
LINE
  5
   22B
  8
0
  6
CONTINUOUS
 62
     7
 10
-490.228427374099
 20
0.315399169921879
 30
0.0
 11
-490.228427374099
 21
1.0029051276896
 31
0.0
  0
LINE
  5
   22C
  8
0
  6
CONTINUOUS
 62
     7
 10
-490.228426838739
 20
1.00290526463527
 30
0.0
 11
-489.702765364554
 21
0.502905278776097
 31
0.0
  0
LINE
  5
   22D
  8
0
  6
CONTINUOUS
 62
     7
 10
-490.155192815993
 20
1.1904051276896
 30
0.0
 11
-490.155192815993
 21
2.3779051276896
 31
0.0
  0
LINE
  5
   22E
  8
0
  6
CONTINUOUS
 62
     7
 10
-488.665406328672
 20
2.62790393760724
 30
0.0
 11
-488.540406332951
 21
2.75290393332867
 31
0.0
  0
LINE
  5
   22F
  8
0
  6
CONTINUOUS
 62
     7
 10
-486.7904058752
 20
2.75290482899676
 30
0.0
 11
-486.665405879478
 21
2.62790483327531
 31
0.0
  0
LINE
  5
   230
  8
0
  6
CONTINUOUS
 62
     7
 10
-488.665404760573
 20
2.3779051276896
 30
0.0
 11
-488.665404760573
 21
2.6279051276896
 31
0.0
  0
LINE
  5
   231
  8
0
  6
CONTINUOUS
 62
     7
 10
-488.665404760573
 20
2.6279051276896
 30
0.0
 11
-488.589282476638
 21
2.6279051276896
 31
0.0
  0
LINE
  5
   232
  8
0
  6
CONTINUOUS
 62
     7
 10
-488.589282476638
 20
2.6279051276896
 30
0.0
 11
-488.372512304518
 21
2.6279051276896
 31
0.0
  0
LINE
  5
   233
  8
0
  6
CONTINUOUS
 62
     7
 10
-488.372512304518
 20
2.6279051276896
 30
0.0
 11
-488.048087560866
 21
2.6279051276896
 31
0.0
  0
LINE
  5
   234
  8
0
  6
CONTINUOUS
 62
     7
 10
-488.048087560866
 20
2.6279051276896
 30
0.0
 11
-487.665404760573
 21
2.6279051276896
 31
0.0
  0
LINE
  5
   235
  8
0
  6
CONTINUOUS
 62
     7
 10
-487.665404760573
 20
2.6279051276896
 30
0.0
 11
-487.28272196028
 21
2.6279051276896
 31
0.0
  0
LINE
  5
   236
  8
0
  6
CONTINUOUS
 62
     7
 10
-487.28272196028
 20
2.6279051276896
 30
0.0
 11
-486.958297216628
 21
2.6279051276896
 31
0.0
  0
LINE
  5
   237
  8
0
  6
CONTINUOUS
 62
     7
 10
-486.958297216628
 20
2.6279051276896
 30
0.0
 11
-486.741523229811
 21
2.6279051276896
 31
0.0
  0
LINE
  5
   238
  8
0
  6
CONTINUOUS
 62
     7
 10
-486.665404760573
 20
2.3779051276896
 30
0.0
 11
-486.665404760573
 21
2.6279051276896
 31
0.0
  0
LINE
  5
   239
  8
0
  6
CONTINUOUS
 62
     7
 10
-486.741523229811
 20
2.6279051276896
 30
0.0
 11
-486.665404760573
 21
2.6279051276896
 31
0.0
  0
LINE
  5
   23A
  8
0
  6
CONTINUOUS
 62
     7
 10
-488.415404760573
 20
1.0654051276896
 30
0.0
 11
-488.415404760573
 21
1.1279051276896
 31
0.0
  0
LINE
  5
   23B
  8
0
  6
CONTINUOUS
 62
     7
 10
-486.915404760573
 20
1.0654051276896
 30
0.0
 11
-486.915404760573
 21
1.1279051276896
 31
0.0
  0
CIRCLE
  5
   23C
  8
0
  6
CONTINUOUS
 62
     7
 10
-493.915333628118
 20
-6.55962871246002
 30
0.0
 40
1.31245477015101
  0
ARC
  5
   23D
  8
0
  6
CONTINUOUS
 62
     7
 10
-493.915405891142
 20
-6.55960057783633
 30
0.0
 40
1.93749829259581
 50
0.0
 51
90.0
  0
ARC
  5
   23E
  8
0
  6
CONTINUOUS
 62
     7
 10
-493.915405891142
 20
-6.55960057783633
 30
0.0
 40
1.93749829259581
 50
270.0
 51
360.0
  0
LINE
  5
   23F
  8
0
  6
DASHDOT
 62
     7
 10
-493.915333628118
 20
-8.62208348261103
 30
0.0
 11
-493.915333628118
 21
-4.497173942309
 31
0.0
  0
LINE
  5
   240
  8
0
  6
DASHDOT
 62
     7
 10
-495.977788398269
 20
-6.55962871246002
 30
0.0
 11
-491.852878857967
 21
-6.55962871246002
 31
0.0
  0
LINE
  5
   241
  8
0
  6
CONTINUOUS
 62
     7
 10
-496.415404760573
 20
-3.43623233108627
 30
0.0
 11
-496.415404760573
 21
3.56539749829507
 31
0.0
  0
LINE
  5
   242
  8
0
  6
CONTINUOUS
 62
     7
 10
-490.540403527963
 20
6.69039916992188
 30
0.0
 11
-485.165405273438
 21
6.69039916992188
 31
0.0
  0
LINE
  5
   243
  8
0
  6
CONTINUOUS
 62
     7
 10
-490.29040857527
 20
0.315399169921879
 30
0.0
 11
-485.876033270095
 21
0.315399169921879
 31
0.0
  0
LINE
  5
   244
  8
0
  6
CONTINUOUS
 62
     7
 10
-524.290416204665
 20
13.5029089423869
 30
0.0
 11
-498.290416204665
 21
13.5029089423869
 31
0.0
  0
LINE
  5
   245
  8
0
  6
CONTINUOUS
 62
     7
 10
-524.290416204665
 20
-12.7470910576131
 30
0.0
 11
-498.290416204665
 21
-12.7470910576131
 31
0.0
  0
ARC
  5
   246
  8
0
  6
CONTINUOUS
 62
     7
 10
-524.290416204665
 20
13.3779089423869
 30
0.0
 40
0.125
 50
90.0
 51
180.0
  0
ARC
  5
   247
  8
0
  6
CONTINUOUS
 62
     7
 10
-498.290416204665
 20
13.3779089423869
 30
0.0
 40
0.125
 50
0.0
 51
90.0
  0
ARC
  5
   248
  8
0
  6
CONTINUOUS
 62
     7
 10
-498.290416204665
 20
-12.6220910576131
 30
0.0
 40
0.125
 50
270.0
 51
360.0
  0
ARC
  5
   249
  8
0
  6
CONTINUOUS
 62
     7
 10
-524.290416204665
 20
-12.6220910576131
 30
0.0
 40
0.125
 50
180.0
 51
270.0
  0
LINE
  5
   24A
  8
0
  6
CONTINUOUS
 62
     7
 10
-524.227916204665
 20
13.3154089423869
 30
0.0
 11
-498.352916204665
 21
13.3154089423869
 31
0.0
  0
LINE
  5
   24B
  8
0
  6
CONTINUOUS
 62
     7
 10
-524.227916204665
 20
-12.5595910576131
 30
0.0
 11
-498.352916204665
 21
-12.5595910576131
 31
0.0
  0
LINE
  5
   24C
  8
0
  6
CONTINUOUS
 62
     7
 10
-524.227916204665
 20
-12.5595910576131
 30
0.0
 11
-524.227916204665
 21
13.3154089423869
 31
0.0
  0
LINE
  5
   24D
  8
0
  6
CONTINUOUS
 62
     7
 10
-498.352916204665
 20
-12.5595910576131
 30
0.0
 11
-498.352916204665
 21
13.3154089423869
 31
0.0
  0
LINE
  5
   24E
  8
0
  6
CONTINUOUS
 62
     7
 10
-524.227916204665
 20
10.5029089423869
 30
0.0
 11
-498.352916204665
 21
10.5029089423869
 31
0.0
  0
LINE
  5
   24F
  8
0
  6
CONTINUOUS
 62
     7
 10
-524.227916204665
 20
13.0029089423869
 30
0.0
 11
-498.352916204665
 21
13.0029089423869
 31
0.0
  0
LINE
  5
   250
  8
0
  6
CONTINUOUS
 62
     7
 10
-506.790416204665
 20
-12.5595910576131
 30
0.0
 11
-506.790416204665
 21
10.5029089423869
 31
0.0
  0
LINE
  5
   251
  8
0
  6
CONTINUOUS
 62
     7
 10
-499.290416204665
 20
-12.5595910576131
 30
0.0
 11
-499.290416204665
 21
10.5029089423869
 31
0.0
  0
LINE
  5
   252
  8
0
  6
CONTINUOUS
 62
     7
 10
-507.040416204665
 20
-12.5595910576131
 30
0.0
 11
-507.040416204665
 21
10.5029089423869
 31
0.0
  0
LINE
  5
   253
  8
0
  6
CONTINUOUS
 62
     7
 10
-499.040416204665
 20
-12.5595910576131
 30
0.0
 11
-499.040416204665
 21
10.5029089423869
 31
0.0
  0
CIRCLE
  5
   254
  8
0
  6
CONTINUOUS
 62
     7
 10
-503.040416204665
 20
5.87790894238687
 30
0.0
 40
2.6875
  0
CIRCLE
  5
   255
  8
0
  6
CONTINUOUS
 62
     7
 10
-503.040416204665
 20
-6.44709105761313
 30
0.0
 40
2.6875
  0
LINE
  5
   256
  8
0
  6
DASHDOT
 62
     7
 10
-503.040416204665
 20
2.44040894238687
 30
0.0
 11
-503.040416204665
 21
9.31540894238687
 31
0.0
  0
LINE
  5
   257
  8
0
  6
DASHDOT
 62
     7
 10
-506.477916204665
 20
5.87790894238687
 30
0.0
 11
-499.602916204665
 21
5.87790894238687
 31
0.0
  0
LINE
  5
   258
  8
0
  6
DASHDOT
 62
     7
 10
-503.040416204665
 20
-9.88459105761313
 30
0.0
 11
-503.040416204665
 21
-3.00959105761313
 31
0.0
  0
LINE
  5
   259
  8
0
  6
DASHDOT
 62
     7
 10
-506.477916204665
 20
-6.44709105761313
 30
0.0
 11
-499.602916204665
 21
-6.44709105761313
 31
0.0
  0
LINE
  5
   25A
  8
0
  6
DASHDOT
 62
     7
 10
-512.022178855978
 20
-10.2470910576131
 30
0.0
 11
-510.640313647203
 21
-10.2470910576131
 31
0.0
  0
LINE
  5
   25B
  8
0
  6
DASHDOT
 62
     7
 10
-511.290416204665
 20
-10.9534143060111
 30
0.0
 11
-511.290416204665
 21
-9.6361222378328
 31
0.0
  0
ARC
  5
   25C
  8
0
  6
CONTINUOUS
 62
     7
 10
-516.352916204665
 20
-5.37209105761313
 30
0.0
 40
1.3125
 50
0.0
 51
180.0
  0
ARC
  5
   25D
  8
0
  6
CONTINUOUS
 62
     7
 10
-516.352916204665
 20
-7.87209105761313
 30
0.0
 40
1.3125
 50
1.56165987539836
 51
360.0
  0
LINE
  5
   25E
  8
0
  6
CONTINUOUS
 62
     7
 10
-515.040416204665
 20
-7.87209105761313
 30
0.0
 11
-515.040416204665
 21
-5.37209105761313
 31
0.0
  0
LINE
  5
   25F
  8
0
  6
CONTINUOUS
 62
     7
 10
-517.665416204665
 20
-7.87209105761313
 30
0.0
 11
-517.665416204665
 21
-5.37209105761313
 31
0.0
  0
LINE
  5
   260
  8
0
  6
DASHDOT
 62
     7
 10
-516.352916204665
 20
-9.93459105761313
 30
0.0
 11
-516.352916204665
 21
-5.80959105761313
 31
0.0
  0
LINE
  5
   261
  8
0
  6
DASHDOT
 62
     7
 10
-518.415416204665
 20
-7.87209105761313
 30
0.0
 11
-514.290416204665
 21
-7.87209105761313
 31
0.0
  0
LINE
  5
   262
  8
0
  6
CONTINUOUS
 62
     7
 10
-517.64138671267
 20
-7.62209105761313
 30
0.0
 11
-515.064445696659
 21
-7.62209105761313
 31
0.0
  0
LINE
  5
   263
  8
0
  6
CONTINUOUS
 62
     7
 10
-517.64138671267
 20
-8.12209105761313
 30
0.0
 11
-515.064445696659
 21
-8.12209105761313
 31
0.0
  0
LINE
  5
   264
  8
0
  6
CONTINUOUS
 62
     7
 10
-501.227916204665
 20
2.56540894238687
 30
0.0
 11
-500.602916204665
 21
2.56540894238687
 31
0.0
  0
LINE
  5
   265
  8
0
  6
CONTINUOUS
 62
     7
 10
-501.227916204665
 20
-1.80959105761313
 30
0.0
 11
-500.602916204665
 21
-1.80959105761313
 31
0.0
  0
LINE
  5
   266
  8
0
  6
CONTINUOUS
 62
     7
 10
-501.227916204665
 20
-1.80959105761313
 30
0.0
 11
-501.227916204665
 21
2.56540894238687
 31
0.0
  0
LINE
  5
   267
  8
0
  6
CONTINUOUS
 62
     7
 10
-500.602916204665
 20
-1.80959105761313
 30
0.0
 11
-500.602916204665
 21
2.56540894238687
 31
0.0
  0
LINE
  5
   268
  8
0
  6
CONTINUOUS
 62
     1
 10
-519.352916204665
 20
8.37790894238687
 30
0.0
 11
-519.352916204665
 21
9.96791128321033
 31
0.0
  0
LINE
  5
   269
  8
0
  6
CONTINUOUS
 62
     1
 10
-519.352916204665
 20
8.37790894238687
 30
0.0
 11
-517.727916204665
 21
8.37790894238687
 31
0.0
  0
LINE
  5
   26A
  8
0
  6
CONTINUOUS
 62
     1
 10
-517.727916204665
 20
-1.34075925076979
 30
0.0
 11
-517.727916204665
 21
8.37790894238687
 31
0.0
  0
ARC
  5
   26B
  8
0
  6
CONTINUOUS
 62
     1
 10
-516.352916204665
 20
4.62790894238687
 30
0.0
 40
5.75
 50
146.0
 51
256.164776385962
  0
ARC
  5
   26C
  8
0
  6
CONTINUOUS
 62
     1
 10
-516.352916204665
 20
4.62790894238687
 30
0.0
 40
6.125
 50
119.327168765378
 51
257.027121849249
  0
LINE
  5
   26D
  8
0
  6
CONTINUOUS
 62
     1
 10
-521.430771336565
 20
8.0529654761452
 30
0.0
 11
-521.119882246856
 21
7.84326813734367
 31
0.0
  0
LINE
  5
   26E
  8
0
  6
CONTINUOUS
 62
     1
 10
-521.102916204665
 20
4.62790894238687
 30
0.0
 11
-519.227916204665
 21
6.50290894238687
 31
0.0
  0
LINE
  5
   26F
  8
0
  6
CONTINUOUS
 62
     1
 10
-521.102916204665
 20
4.62790894238687
 30
0.0
 11
-519.227916204665
 21
2.75290894238687
 31
0.0
  0
LINE
  5
   270
  8
0
  6
CONTINUOUS
 62
     1
 10
-519.227916204665
 20
2.75290894238687
 30
0.0
 11
-519.227916204665
 21
6.50290894238687
 31
0.0
  0
ARC
  5
   271
  8
0
  6
CONTINUOUS
 62
     1
 10
-516.352916204665
 20
4.62790894238687
 30
0.0
 40
5.625
 50
284.149004508935
 51
435.850995491065
  0
LINE
  5
   272
  8
0
  6
CONTINUOUS
 62
     1
 10
-514.977916204665
 20
-0.826447114930989
 30
0.0
 11
-514.977916204665
 21
10.0822649997047
 31
0.0
  0
LINE
  5
   273
  8
0
  6
CONTINUOUS
 62
     1
 10
-514.977916204665
 20
6.62790894238687
 30
0.0
 11
-511.095480993462
 21
6.62790894238687
 31
0.0
  0
LINE
  5
   274
  8
0
  6
CONTINUOUS
 62
     1
 10
-514.977916204665
 20
2.62790894238687
 30
0.0
 11
-511.095480993462
 21
2.62790894238687
 31
0.0
  0
LINE
  5
   275
  8
0
  6
CONTINUOUS
 62
     1
 10
-515.102916204665
 20
-0.85644379973321
 30
0.0
 11
-515.102916204665
 21
10.1122616845069
 31
0.0
  0
LINE
  5
   276
  8
0
  6
CONTINUOUS
 62
     1
 10
-517.352916204665
 20
-2.37209105761313
 30
0.0
 11
-517.352916204665
 21
9.95032615639781
 31
0.0
  0
ARC
  5
   277
  8
0
  6
CONTINUOUS
 62
     1
 10
-516.352916204665
 20
4.62790894238687
 30
0.0
 40
5.625
 50
77.1604115930958
 51
87.4526818174296
  0
LINE
  5
   278
  8
0
  6
CONTINUOUS
 62
     1
 10
-516.102916204665
 20
-0.991532755860391
 30
0.0
 11
-516.102916204665
 21
10.2473506406341
 31
0.0
  0
LINE
  5
   279
  8
0
  6
CONTINUOUS
 62
     1
 10
-516.602916204665
 20
-2.37209105761313
 30
0.0
 11
-516.602916204665
 21
10.2473506406341
 31
0.0
  0
ARC
  5
   27A
  8
0
  6
CONTINUOUS
 62
     1
 10
-516.352916204665
 20
4.62790894238687
 30
0.0
 40
5.625
 50
92.5473181825704
 51
116.387799961243
  0
ARC
  5
   27B
  8
0
  6
CONTINUOUS
 62
     1
 10
-516.352916204665
 20
4.62790894238687
 30
0.0
 40
5.625
 50
259.759651678814
 51
267.45268181743
  0
LINE
  5
   27C
  8
0
  6
CONTINUOUS
 62
     1
 10
-516.602916204665
 20
9.25290894238687
 30
0.0
 11
-516.102916204665
 21
9.25290894238687
 31
0.0
  0
LINE
  5
   27D
  8
0
  6
CONTINUOUS
 62
     1
 10
-516.602916204665
 20
2.9089423868669E-3
 30
0.0
 11
-516.102916204665
 21
2.9089423868669E-3
 31
0.0
  0
LINE
  5
   27E
  8
0
  6
CONTINUOUS
 62
     1
 10
-518.852916204665
 20
8.87790894238687
 30
0.0
 11
-518.852916204665
 21
9.66682003507346
 31
0.0
  0
LINE
  5
   27F
  8
0
  6
CONTINUOUS
 62
     1
 10
-518.602916204665
 20
8.62790894238687
 30
0.0
 11
-517.352916204665
 21
8.62790894238687
 31
0.0
  0
ARC
  5
   280
  8
0
  6
CONTINUOUS
 62
     1
 10
-518.602916204665
 20
8.87790894238687
 30
0.0
 40
0.25
 50
180.0
 51
270.0
  0
ARC
  5
   281
  8
0
  6
CONTINUOUS
 62
     1
 10
-517.102916204665
 20
9.95032615639781
 30
0.0
 40
0.25
 50
98.0209328752446
 51
180.0
  0
LINE
  5
   282
  8
0
  6
CONTINUOUS
 62
     1
 10
-517.352916204665
 20
-2.37209105761313
 30
0.0
 11
-516.602916204665
 21
-2.37209105761313
 31
0.0
  0
ARC
  5
   283
  8
0
  6
CONTINUOUS
 62
     1
 10
-516.352916204665
 20
4.62790894238687
 30
0.0
 40
5.625
 50
272.54731818257
 51
282.839588406904
  0
CIRCLE
  5
   284
  8
0
  6
CONTINUOUS
 62
     7
 10
-523.165416204665
 20
4.62790894238687
 30
0.0
 40
0.625
  0
CIRCLE
  5
   285
  8
0
  6
CONTINUOUS
 62
     7
 10
-523.165416204665
 20
4.62790894238687
 30
0.0
 40
0.375
  0
LINE
  5
   286
  8
0
  6
CONTINUOUS
 62
     7
 10
-516.602916204665
 20
-3.18459105761313
 30
0.0
 11
-516.602916204665
 21
-1.18459105761313
 31
0.0
  0
LINE
  5
   287
  8
0
  6
CONTINUOUS
 62
     7
 10
-516.102916204665
 20
-3.18459105761313
 30
0.0
 11
-516.102916204665
 21
-1.18459105761313
 31
0.0
  0
LINE
  5
   288
  8
0
  6
CONTINUOUS
 62
     7
 10
-516.602916204665
 20
-1.18459105761313
 30
0.0
 11
-516.102916204665
 21
-1.18459105761313
 31
0.0
  0
LINE
  5
   289
  8
0
  6
CONTINUOUS
 62
     7
 10
-516.602916204665
 20
-3.18459105761313
 30
0.0
 11
-516.102916204665
 21
-3.18459105761313
 31
0.0
  0
LINE
  5
   28A
  8
0
  6
CONTINUOUS
 62
     7
 10
-498.790423539464
 20
21.4904062720997
 30
0.0
 11
-498.165423539464
 21
21.4904062720997
 31
0.0
  0
LINE
  5
   28B
  8
0
  6
CONTINUOUS
 62
     7
 10
-498.790423539464
 20
21.4904062720997
 30
0.0
 11
-498.790423539464
 21
21.9404070350392
 31
0.0
  0
LINE
  5
   28C
  8
0
  6
CONTINUOUS
 62
     7
 10
-523.540423539464
 20
22.1904070350392
 30
0.0
 11
-516.102924983206
 21
22.1904070350392
 31
0.0
  0
LINE
  5
   28D
  8
0
  6
CONTINUOUS
 62
     7
 10
-515.227924983206
 20
22.1904070350392
 30
0.0
 11
-507.352907426124
 21
22.1904070350392
 31
0.0
  0
LINE
  5
   28E
  8
0
  6
CONTINUOUS
 62
     7
 10
-506.477907426124
 20
22.1904070350392
 30
0.0
 11
-499.040423539464
 21
22.1904070350392
 31
0.0
  0
LINE
  5
   28F
  8
0
  6
CONTINUOUS
 62
     7
 10
-523.790423539464
 20
21.4904062720997
 30
0.0
 11
-523.790423539464
 21
21.9404070350392
 31
0.0
  0
LINE
  5
   290
  8
0
  6
CONTINUOUS
 62
     7
 10
-524.415423539464
 20
21.4904062720997
 30
0.0
 11
-523.790423539464
 21
21.4904062720997
 31
0.0
  0
LINE
  5
   291
  8
0
  6
CONTINUOUS
 62
     7
 10
-524.415426350498
 20
-19.6095929768817
 30
0.0
 11
-524.415426350498
 21
21.4904062720998
 31
0.0
  0
LINE
  5
   292
  8
0
  6
CONTINUOUS
 62
     7
 10
-524.415423539464
 20
-19.6095929768817
 30
0.0
 11
-523.790423539464
 21
-19.6095929768817
 31
0.0
  0
LINE
  5
   293
  8
0
  6
CONTINUOUS
 62
     7
 10
-523.790423539464
 20
-20.0595929649608
 30
0.0
 11
-523.790423539464
 21
-19.6095929768817
 31
0.0
  0
LINE
  5
   294
  8
0
  6
CONTINUOUS
 62
     7
 10
-516.290424983206
 20
20.5654070350392
 30
0.0
 11
-515.040424983206
 21
20.5654070350392
 31
0.0
  0
LINE
  5
   295
  8
0
  6
CONTINUOUS
 62
     7
 10
-500.477927354118
 20
16.1904070350497
 30
0.0
 11
-500.477925446769
 21
17.190407035109
 31
0.0
  0
LINE
  5
   296
  8
0
  6
CONTINUOUS
 62
     7
 10
-522.102923539464
 20
16.1904070350392
 30
0.0
 11
-500.477927354161
 21
16.1904070350392
 31
0.0
  0
LINE
  5
   297
  8
0
  6
CONTINUOUS
 62
     7
 10
-522.102923539464
 20
16.1904070350392
 30
0.0
 11
-522.102923539464
 21
17.1904070350392
 31
0.0
  0
LINE
  5
   298
  8
0
  6
CONTINUOUS
 62
     7
 10
-499.540423539464
 20
18.1279070350392
 30
0.0
 11
-498.790423539464
 21
18.1279070350392
 31
0.0
  0
LINE
  5
   299
  8
0
  6
CONTINUOUS
 62
     7
 10
-498.790423539464
 20
18.1279070350392
 30
0.0
 11
-498.790423539464
 21
21.4904062720997
 31
0.0
  0
LINE
  5
   29A
  8
0
  6
CONTINUOUS
 62
     7
 10
-523.790423658673
 20
18.1279070350392
 30
0.0
 11
-523.040423420255
 21
18.1279070350392
 31
0.0
  0
LINE
  5
   29B
  8
0
  6
CONTINUOUS
 62
     7
 10
-523.790425021382
 20
18.1279070350392
 30
0.0
 11
-523.790425021382
 21
21.4904062720998
 31
0.0
  0
LINE
  5
   29C
  8
0
  6
CONTINUOUS
 62
     7
 10
-522.102923539464
 20
-15.3095929649608
 30
0.0
 11
-522.102923539464
 21
-14.3095929649608
 31
0.0
  0
LINE
  5
   29D
  8
0
  6
CONTINUOUS
 62
     7
 10
-522.102923539464
 20
-14.3095929649608
 30
0.0
 11
-500.477923539464
 21
-14.3095929649608
 31
0.0
  0
LINE
  5
   29E
  8
0
  6
CONTINUOUS
 62
     7
 10
-523.790423777882
 20
-16.2470929649608
 30
0.0
 11
-523.040423181836
 21
-16.2470929649608
 31
0.0
  0
LINE
  5
   29F
  8
0
  6
CONTINUOUS
 62
     7
 10
-523.79042348983
 20
-19.6095929768817
 30
0.0
 11
-523.79042348983
 21
-16.2470930245655
 31
0.0
  0
LINE
  5
   2A0
  8
0
  6
CONTINUOUS
 62
     7
 10
-505.977923539464
 20
16.3154070350392
 30
0.0
 11
-505.977923539464
 21
17.7324373695118
 31
0.0
  0
LINE
  5
   2A1
  8
0
  6
CONTINUOUS
 62
     7
 10
-523.399189491366
 20
18.0565445047179
 30
0.0
 11
-523.040423406548
 21
18.1279060451817
 31
0.0
  0
LINE
  5
   2A2
  8
0
  6
CONTINUOUS
 62
     7
 10
-523.703334743356
 20
17.8533250569396
 30
0.0
 11
-523.399187850363
 21
18.0565492456536
 31
0.0
  0
LINE
  5
   2A3
  8
0
  6
CONTINUOUS
 62
     7
 10
-523.906561452205
 20
17.5491687748703
 30
0.0
 11
-523.703336979397
 21
17.8533184004808
 31
0.0
  0
LINE
  5
   2A4
  8
0
  6
CONTINUOUS
 62
     7
 10
-523.977923473606
 20
17.1904076708423
 30
0.0
 11
-523.906560562821
 21
17.5491723104604
 31
0.0
  0
LINE
  5
   2A5
  8
0
  6
CONTINUOUS
 62
     7
 10
-523.977923594379
 20
17.1904076543839
 30
0.0
 11
-523.906560683594
 21
16.8316430147659
 31
0.0
  0
LINE
  5
   2A6
  8
0
  6
CONTINUOUS
 62
     7
 10
-523.90655988693
 20
16.8316395787528
 30
0.0
 11
-523.703335414121
 21
16.5274899531423
 31
0.0
  0
LINE
  5
   2A7
  8
0
  6
CONTINUOUS
 62
     7
 10
-523.703337324842
 20
16.5274963263921
 30
0.0
 11
-523.399190431848
 21
16.3242721376781
 31
0.0
  0
LINE
  5
   2A8
  8
0
  6
CONTINUOUS
 62
     7
 10
-523.399189091548
 20
16.3242673002176
 30
0.0
 11
-523.040423496208
 21
16.2529057601154
 31
0.0
  0
LINE
  5
   2A9
  8
0
  6
CONTINUOUS
 62
     7
 10
-498.165423539464
 20
-19.6095929768817
 30
0.0
 11
-498.165423539464
 21
21.4904062720997
 31
0.0
  0
CIRCLE
  5
   2AA
  8
0
  6
CONTINUOUS
 62
     7
 10
-520.040423692259
 20
19.0654047596471
 30
0.0
 40
1.37500034557561
  0
CIRCLE
  5
   2AB
  8
0
  6
CONTINUOUS
 62
     7
 10
-520.040424885854
 20
21.1904093642233
 30
0.0
 40
0.350001132261826
  0
CIRCLE
  5
   2AC
  8
0
  6
CONTINUOUS
 62
     7
 10
-515.665424983206
 20
18.315407992632
 30
0.0
 40
1.12499828446178
  0
CIRCLE
  5
   2AD
  8
0
  6
CONTINUOUS
 62
     7
 10
-511.290416204665
 20
19.0654042064189
 30
0.0
 40
1.37500778069648
  0
CIRCLE
  5
   2AE
  8
0
  6
CONTINUOUS
 62
     7
 10
-511.290423881691
 20
21.1904074789448
 30
0.0
 40
0.350000533144011
  0
ARC
  5
   2AF
  8
0
  6
CONTINUOUS
 62
     7
 10
-515.665419825511
 20
16.3154120897049
 30
0.0
 40
0.43749799431662
 50
343.397681320923
 51
556.602318679077
  0
ARC
  5
   2B0
  8
0
  6
CONTINUOUS
 62
     7
 10
-515.665426042112
 20
16.3154125747535
 30
0.0
 40
0.937505922424163
 50
180.000029643803
 51
187.66254857655
  0
ARC
  5
   2B1
  8
0
  6
CONTINUOUS
 62
     7
 10
-506.915424144297
 20
16.3154080003528
 30
0.0
 40
0.937501686694485
 50
180.000125761636
 51
187.662301319562
  0
ARC
  5
   2B2
  8
0
  6
CONTINUOUS
 62
     7
 10
-506.915423034026
 20
16.3154059425791
 30
0.0
 40
0.437499243526868
 50
343.398570158311
 51
556.601429841689
  0
CIRCLE
  5
   2B3
  8
0
  6
CONTINUOUS
 62
     7
 10
-506.915422699971
 20
18.3154087494495
 30
0.0
 40
1.12499993545791
  0
CIRCLE
  5
   2B4
  8
0
  6
CONTINUOUS
 62
     7
 10
-502.540421939183
 20
19.0654150887461
 30
0.0
 40
1.37499299977956
  0
CIRCLE
  5
   2B5
  8
0
  6
CONTINUOUS
 62
     7
 10
-502.540420569817
 20
21.1904098372572
 30
0.0
 40
0.349997690355193
  0
CIRCLE
  5
   2B6
  8
0
  6
CONTINUOUS
 62
     7
 10
-499.540427144963
 20
17.1904117009161
 30
0.0
 40
0.43750452606138
  0
ARC
  5
   2B7
  8
0
  6
CONTINUOUS
 62
     7
 10
-499.040422183553
 20
21.9404086663488
 30
0.0
 40
0.249998801197616
 50
359.999798812773
 51
450.000230940986
  0
CIRCLE
  5
   2B8
  8
0
  6
CONTINUOUS
 62
     7
 10
-523.040422036876
 20
17.1904086521021
 30
0.0
 40
0.43750145242139
  0
ARC
  5
   2B9
  8
0
  6
CONTINUOUS
 62
     7
 10
-523.040416516022
 20
17.1903853038323
 30
0.0
 40
0.937480002721381
 50
269.999551156832
 51
450.000409034301
  0
ARC
  5
   2BA
  8
0
  6
CONTINUOUS
 62
     7
 10
-523.54042290173
 20
21.9404073181217
 30
0.0
 40
0.250000997782364
 50
90.0000472705142
 51
180.000478836282
  0
CIRCLE
  5
   2BB
  8
0
  6
CONTINUOUS
 62
     7
 10
-523.04042349777
 20
-15.3095924620592
 30
0.0
 40
0.437499790794377
  0
CIRCLE
  5
   2BC
  8
0
  6
CONTINUOUS
 62
     7
 10
-520.040419521574
 20
-17.184592113119
 30
0.0
 40
1.37499922265712
  0
CIRCLE
  5
   2BD
  8
0
  6
CONTINUOUS
 62
     7
 10
-520.040420370013
 20
-19.3095928383839
 30
0.0
 40
0.350000050406668
  0
ARC
  5
   2BE
  8
0
  6
CONTINUOUS
 62
     7
 10
-523.540423479147
 20
-20.0595929390398
 30
0.0
 40
0.250000026530426
 50
180.000006076757
 51
269.999989535183
  0
LINE
  5
   2BF
  8
0
  6
DASHDOT
 62
     7
 10
-520.040424885854
 20
20.0904082319614
 30
0.0
 11
-520.040424885854
 21
22.2904104964851
 31
0.0
  0
LINE
  5
   2C0
  8
0
  6
DASHDOT
 62
     7
 10
-521.140426018115
 20
21.1904093642233
 30
0.0
 11
-518.940423753592
 21
21.1904093642233
 31
0.0
  0
LINE
  5
   2C1
  8
0
  6
DASHDOT
 62
     7
 10
-520.040423692259
 20
16.9404044140715
 30
0.0
 11
-520.040423692259
 21
21.1904051052227
 31
0.0
  0
LINE
  5
   2C2
  8
0
  6
DASHDOT
 62
     7
 10
-522.165424037834
 20
19.0654047596471
 30
0.0
 11
-517.915423346683
 21
19.0654047596471
 31
0.0
  0
LINE
  5
   2C3
  8
0
  6
DASHDOT
 62
     7
 10
-512.390424414835
 20
21.1904074789448
 30
0.0
 11
-510.190423348547
 21
21.1904074789448
 31
0.0
  0
LINE
  5
   2C4
  8
0
  6
DASHDOT
 62
     7
 10
-513.415423985361
 20
19.0654042064189
 30
0.0
 11
-509.165408423968
 21
19.0654042064189
 31
0.0
  0
LINE
  5
   2C5
  8
0
  6
DASHDOT
 62
     7
 10
-516.931860842287
 20
16.3154120897049
 30
0.0
 11
-514.437728971078
 21
16.3154120897049
 31
0.0
  0
LINE
  5
   2C6
  8
0
  6
DASHDOT
 62
     7
 10
-508.137163483773
 20
16.3154059425791
 30
0.0
 11
-505.727923790499
 21
16.3154059425791
 31
0.0
  0
LINE
  5
   2C7
  8
0
  6
DASHDOT
 62
     7
 10
-502.540420569817
 20
20.090412146902
 30
0.0
 11
-502.540420569817
 21
22.2904075276124
 31
0.0
  0
LINE
  5
   2C8
  8
0
  6
DASHDOT
 62
     7
 10
-503.640418260172
 20
21.1904098372572
 30
0.0
 11
-501.440422879461
 21
21.1904098372572
 31
0.0
  0
LINE
  5
   2C9
  8
0
  6
DASHDOT
 62
     7
 10
-502.540421939183
 20
16.9404220889666
 30
0.0
 11
-502.540421939183
 21
21.1904080885257
 31
0.0
  0
LINE
  5
   2CA
  8
0
  6
DASHDOT
 62
     7
 10
-504.665414938963
 20
19.0654150887461
 30
0.0
 11
-500.415428939403
 21
19.0654150887461
 31
0.0
  0
LINE
  5
   2CB
  8
0
  6
DASHDOT
 62
     7
 10
-523.040416516022
 20
15.502905301111
 30
0.0
 11
-523.040416516022
 21
18.8778653065537
 31
0.0
  0
LINE
  5
   2CC
  8
0
  6
DASHDOT
 62
     7
 10
-524.727896518744
 20
17.1903853038323
 30
0.0
 11
-521.352936513301
 21
17.1903853038323
 31
0.0
  0
LINE
  5
   2CD
  8
0
  6
DASHDOT
 62
     7
 10
-520.040419521574
 20
-19.3095913357761
 30
0.0
 11
-520.040419521574
 21
-15.0595928904619
 31
0.0
  0
LINE
  5
   2CE
  8
0
  6
DASHDOT
 62
     7
 10
-522.165418744231
 20
-17.184592113119
 30
0.0
 11
-517.915420298917
 21
-17.184592113119
 31
0.0
  0
LINE
  5
   2CF
  8
0
  6
DASHDOT
 62
     7
 10
-520.040420370013
 20
-20.4095928887905
 30
0.0
 11
-520.040420370013
 21
-18.2095927879772
 31
0.0
  0
LINE
  5
   2D0
  8
0
  6
DASHDOT
 62
     7
 10
-521.140420420419
 20
-19.3095928383839
 30
0.0
 11
-518.940420319606
 21
-19.3095928383839
 31
0.0
  0
LINE
  5
   2D1
  8
0
  6
DASHDOT
 62
     7
 10
-499.540427144963
 20
16.0029071748547
 30
0.0
 11
-499.540427144963
 21
18.3779162269775
 31
0.0
  0
LINE
  5
   2D2
  8
0
  6
DASHDOT
 62
     7
 10
-500.727931671025
 20
17.1904117009161
 30
0.0
 11
-498.352922618902
 21
17.1904117009161
 31
0.0
  0
CIRCLE
  5
   2D3
  8
0
  6
CONTINUOUS
 62
     7
 10
-499.540427144963
 20
17.1904117009161
 30
0.0
 40
0.937484119743857
  0
CIRCLE
  5
   2D4
  8
0
  6
CONTINUOUS
 62
     7
 10
-523.040423998116
 20
-15.3095936064971
 30
0.0
 40
0.937500335919419
  0
LINE
  5
   2D5
  8
0
  6
DASHDOT
 62
     7
 10
-523.040423998116
 20
-16.9970939424165
 30
0.0
 11
-523.040423998116
 21
-13.6220932705777
 31
0.0
  0
LINE
  5
   2D6
  8
0
  6
DASHDOT
 62
     7
 10
-524.727924334036
 20
-15.3095936064971
 30
0.0
 11
-521.352923662197
 21
-15.3095936064971
 31
0.0
  0
LINE
  5
   2D7
  8
0
  6
CONTINUOUS
 62
     7
 10
-507.852925830992
 20
16.3154080003528
 30
0.0
 11
-507.852925830992
 21
17.6935464382375
 31
0.0
  0
LINE
  5
   2D8
  8
0
  6
CONTINUOUS
 62
     7
 10
-514.727920119688
 20
16.3154125747535
 30
0.0
 11
-514.727920119688
 21
17.6935512800998
 31
0.0
  0
LINE
  5
   2D9
  8
0
  6
CONTINUOUS
 62
     7
 10
-516.602931964536
 20
16.3154125747535
 30
0.0
 11
-516.602931964536
 21
17.693554472903
 31
0.0
  0
ARC
  5
   2DA
  8
0
  6
CONTINUOUS
 62
     7
 10
-515.665426042112
 20
16.3154125747535
 30
0.0
 40
0.937505922424163
 50
352.33745142345
 51
359.999970356197
  0
ARC
  5
   2DB
  8
0
  6
CONTINUOUS
 62
     7
 10
-506.915424144297
 20
16.3154080003528
 30
0.0
 40
0.937501686694485
 50
352.337698680437
 51
360.0
  0
LINE
  5
   2DC
  8
0
  6
CONTINUOUS
 62
     7
 10
-524.165416204665
 20
-14.1220872429159
 30
0.0
 11
-498.415420019362
 21
-14.1220872429159
 31
0.0
  0
LINE
  5
   2DD
  8
0
  6
CONTINUOUS
 62
     7
 10
-524.415412771436
 20
16.1279070350392
 30
0.0
 11
-498.165416586134
 21
16.1279070350392
 31
0.0
  0
LINE
  5
   2DE
  8
0
  6
CONTINUOUS
 62
     7
 10
-524.415416204665
 20
-13.8720870044973
 30
0.0
 11
-524.165416204665
 21
-13.8720870044973
 31
0.0
  0
LINE
  5
   2DF
  8
0
  6
CONTINUOUS
 62
     7
 10
-524.165416204665
 20
-14.1220872429159
 30
0.0
 11
-524.165416204665
 21
-13.8720872429159
 31
0.0
  0
LINE
  5
   2E0
  8
0
  6
CONTINUOUS
 62
     7
 10
-498.415420019362
 20
-13.8720870044973
 30
0.0
 11
-498.165420019362
 21
-13.8720870044973
 31
0.0
  0
LINE
  5
   2E1
  8
0
  6
CONTINUOUS
 62
     7
 10
-498.415420019362
 20
-14.1220872429159
 30
0.0
 11
-498.415420019362
 21
-13.8720872429159
 31
0.0
  0
LINE
  5
   2E2
  8
0
  6
CONTINUOUS
 62
     7
 10
-511.102916204665
 20
-13.8720877407896
 30
0.0
 11
-498.415419956251
 21
-13.8720877407896
 31
0.0
  0
LINE
  5
   2E3
  8
0
  6
CONTINUOUS
 62
     7
 10
-524.165416226673
 20
-13.872087224576
 30
0.0
 11
-511.477916204665
 21
-13.872087224576
 31
0.0
  0
LINE
  5
   2E4
  8
0
  6
CONTINUOUS
 62
     7
 10
-524.040416204665
 20
13.5029089423869
 30
0.0
 11
-524.040416204665
 21
16.1279127570841
 31
0.0
  0
LINE
  5
   2E5
  8
0
  6
CONTINUOUS
 62
     7
 10
-498.540419780944
 20
13.5029089423869
 30
0.0
 11
-498.540419780944
 21
16.1279127570841
 31
0.0
  0
LINE
  5
   2E6
  8
0
  6
CONTINUOUS
 62
     7
 10
-511.102916204665
 20
-13.9345872429159
 30
0.0
 11
-511.102916204665
 21
-13.8720872429159
 31
0.0
  0
LINE
  5
   2E7
  8
0
  6
CONTINUOUS
 62
     7
 10
-511.477916204665
 20
-13.9345872429159
 30
0.0
 11
-511.477916204665
 21
-13.8720872429159
 31
0.0
  0
ARC
  5
   2E8
  8
0
  6
CONTINUOUS
 62
     7
 10
-511.290437630582
 20
-13.0595378081607
 30
0.0
 40
0.687449651850481
 50
152.967149341799
 51
387.032850658201
  0
ARC
  5
   2E9
  8
0
  6
CONTINUOUS
 62
     7
 10
-511.290425863901
 20
-13.9345944711495
 30
0.0
 40
0.18748584914764
 50
179.998288901736
 51
360.003191406695
  0
LINE
  5
   2EA
  8
0
  6
DASHDOT
 62
     7
 10
-512.200870810425
 20
-13.0595378081607
 30
0.0
 11
-510.286951336333
 21
-13.0595378081607
 31
0.0
  0
LINE
  5
   2EB
  8
0
  6
DASHDOT
 62
     7
 10
-511.635394602171
 20
-13.9345944711495
 30
0.0
 11
-510.904625348426
 21
-13.9345944711495
 31
0.0
  0
LINE
  5
   2EC
  8
0
  6
DASHDOT
 62
     7
 10
-511.290416204665
 20
-21.7848726123668
 30
0.0
 11
-511.290416204665
 21
23.0704401531872
 31
0.0
  0
LINE
  5
   2ED
  8
0
  6
CONTINUOUS
 62
     7
 10
-516.102924983206
 20
21.4404070350392
 30
0.0
 11
-516.102924983206
 21
22.1904070350392
 31
0.0
  0
LINE
  5
   2EE
  8
0
  6
CONTINUOUS
 62
     7
 10
-515.227924983206
 20
21.4404070350392
 30
0.0
 11
-515.227924983206
 21
22.1904070350392
 31
0.0
  0
LINE
  5
   2EF
  8
0
  6
CONTINUOUS
 62
     7
 10
-516.290424983206
 20
20.5654070350392
 30
0.0
 11
-516.290424983206
 21
21.4404070350392
 31
0.0
  0
LINE
  5
   2F0
  8
0
  6
CONTINUOUS
 62
     7
 10
-515.040424983206
 20
20.5654070350392
 30
0.0
 11
-515.040424983206
 21
21.4404070350392
 31
0.0
  0
LINE
  5
   2F1
  8
0
  6
CONTINUOUS
 62
     7
 10
-515.227924983206
 20
21.4404070350392
 30
0.0
 11
-515.040424983206
 21
21.4404070350392
 31
0.0
  0
LINE
  5
   2F2
  8
0
  6
CONTINUOUS
 62
     7
 10
-516.290424983206
 20
21.4404070350392
 30
0.0
 11
-516.102924983206
 21
21.4404070350392
 31
0.0
  0
LINE
  5
   2F3
  8
0
  6
CONTINUOUS
 62
     7
 10
-507.352907426124
 20
21.4404070350392
 30
0.0
 11
-507.352907426124
 21
22.1904070350392
 31
0.0
  0
LINE
  5
   2F4
  8
0
  6
CONTINUOUS
 62
     7
 10
-506.477907426124
 20
21.4404070350392
 30
0.0
 11
-506.477907426124
 21
22.1904070350392
 31
0.0
  0
LINE
  5
   2F5
  8
0
  6
CONTINUOUS
 62
     7
 10
-506.290407426124
 20
20.5654070350392
 30
0.0
 11
-506.290407426124
 21
21.4404070350392
 31
0.0
  0
LINE
  5
   2F6
  8
0
  6
CONTINUOUS
 62
     7
 10
-507.540407426124
 20
20.5654070350392
 30
0.0
 11
-506.290407426124
 21
20.5654070350392
 31
0.0
  0
LINE
  5
   2F7
  8
0
  6
CONTINUOUS
 62
     7
 10
-507.540407426124
 20
20.5654070350392
 30
0.0
 11
-507.540407426124
 21
21.4404070350392
 31
0.0
  0
LINE
  5
   2F8
  8
0
  6
CONTINUOUS
 62
     7
 10
-506.477907426124
 20
21.4404070350392
 30
0.0
 11
-506.290407426124
 21
21.4404070350392
 31
0.0
  0
LINE
  5
   2F9
  8
0
  6
CONTINUOUS
 62
     7
 10
-507.540407426124
 20
21.4404070350392
 30
0.0
 11
-507.352907426124
 21
21.4404070350392
 31
0.0
  0
LINE
  5
   2FA
  8
0
  6
CONTINUOUS
 62
     7
 10
-498.790408869866
 20
-19.6095929768817
 30
0.0
 11
-498.165408869866
 21
-19.6095929768817
 31
0.0
  0
LINE
  5
   2FB
  8
0
  6
CONTINUOUS
 62
     7
 10
-498.790408869866
 20
-20.0595929649608
 30
0.0
 11
-498.790408869866
 21
-19.6095929768817
 31
0.0
  0
ARC
  5
   2FC
  8
0
  6
CONTINUOUS
 62
     7
 10
-499.040408930183
 20
-20.0595929390398
 30
0.0
 40
0.250000026530426
 50
270.000010464817
 51
359.999993923243
  0
LINE
  5
   2FD
  8
0
  6
CONTINUOUS
 62
     7
 10
-498.790408919499
 20
-19.6095929768817
 30
0.0
 11
-498.790408919499
 21
-16.2470930245655
 31
0.0
  0
LINE
  5
   2FE
  8
0
  6
CONTINUOUS
 62
     7
 10
-499.540409227494
 20
-16.2470929649608
 30
0.0
 11
-498.790408631447
 21
-16.2470929649608
 31
0.0
  0
CIRCLE
  5
   2FF
  8
0
  6
CONTINUOUS
 62
     7
 10
-499.540408411214
 20
-15.3095936064971
 30
0.0
 40
0.937500335919419
  0
CIRCLE
  5
   300
  8
0
  6
CONTINUOUS
 62
     7
 10
-499.54040891156
 20
-15.3095924620592
 30
0.0
 40
0.437499790794377
  0
LINE
  5
   301
  8
0
  6
DASHDOT
 62
     7
 10
-501.227908747133
 20
-15.3095936064971
 30
0.0
 11
-497.852908075294
 21
-15.3095936064971
 31
0.0
  0
LINE
  5
   302
  8
0
  6
CONTINUOUS
 62
     7
 10
-500.477908869866
 20
-15.3095929649608
 30
0.0
 11
-500.477908869866
 21
-14.3095929649608
 31
0.0
  0
LINE
  5
   303
  8
0
  6
DASHDOT
 62
     7
 10
-499.540408411214
 20
-16.9970939424165
 30
0.0
 11
-499.540408411214
 21
-13.6220932705777
 31
0.0
  0
LINE
  5
   304
  8
0
  6
DASHDOT
 62
     7
 10
-504.665412110413
 20
-17.184592113119
 30
0.0
 11
-500.415413665099
 21
-17.184592113119
 31
0.0
  0
LINE
  5
   305
  8
0
  6
DASHDOT
 62
     7
 10
-502.540412887756
 20
-19.3095913357761
 30
0.0
 11
-502.540412887756
 21
-15.0595928904619
 31
0.0
  0
CIRCLE
  5
   306
  8
0
  6
CONTINUOUS
 62
     7
 10
-502.540412887756
 20
-17.184592113119
 30
0.0
 40
1.37499922265712
  0
CIRCLE
  5
   307
  8
0
  6
CONTINUOUS
 62
     7
 10
-502.540412039317
 20
-19.3095928383839
 30
0.0
 40
0.350000050406668
  0
LINE
  5
   308
  8
0
  6
DASHDOT
 62
     7
 10
-503.640412089724
 20
-19.3095928383839
 30
0.0
 11
-501.44041198891
 21
-19.3095928383839
 31
0.0
  0
LINE
  5
   309
  8
0
  6
DASHDOT
 62
     7
 10
-502.540412039317
 20
-20.4095928887905
 30
0.0
 11
-502.540412039317
 21
-18.2095927879772
 31
0.0
  0
LINE
  5
   30A
  8
0
  6
DASHDOT
 62
     7
 10
-513.415418744231
 20
-17.184592113119
 30
0.0
 11
-509.165420298917
 21
-17.184592113119
 31
0.0
  0
CIRCLE
  5
   30B
  8
0
  6
CONTINUOUS
 62
     7
 10
-511.290419521574
 20
-17.184592113119
 30
0.0
 40
1.37499922265712
  0
LINE
  5
   30C
  8
0
  6
DASHDOT
 62
     7
 10
-512.390420420419
 20
-19.3095928383839
 30
0.0
 11
-510.190420319606
 21
-19.3095928383839
 31
0.0
  0
CIRCLE
  5
   30D
  8
0
  6
CONTINUOUS
 62
     7
 10
-511.290420370013
 20
-19.3095928383839
 30
0.0
 40
0.350000050406668
  0
CIRCLE
  5
   30E
  8
0
  6
CONTINUOUS
 62
     7
 10
-515.665424983206
 20
-16.434592007368
 30
0.0
 40
1.12499828446178
  0
CIRCLE
  5
   30F
  8
0
  6
CONTINUOUS
 62
     7
 10
-506.915422699971
 20
-16.4345912505505
 30
0.0
 40
1.12499993545791
  0
LINE
  5
   310
  8
0
  6
DASHDOT
 62
     7
 10
-506.915422699971
 20
16.4404088139916
 30
0.0
 11
-506.915422699971
 21
20.1904086849075
 31
0.0
  0
LINE
  5
   311
  8
0
  6
DASHDOT
 62
     7
 10
-508.790422635429
 20
18.3154087494495
 30
0.0
 11
-505.040422764513
 21
18.3154087494495
 31
0.0
  0
LINE
  5
   312
  8
0
  6
DASHDOT
 62
     7
 10
-515.665424983206
 20
16.4404097081703
 30
0.0
 11
-515.665424983206
 21
20.1904062770938
 31
0.0
  0
LINE
  5
   313
  8
0
  6
DASHDOT
 62
     7
 10
-517.540423267668
 20
18.315407992632
 30
0.0
 11
-513.790426698744
 21
18.315407992632
 31
0.0
  0
LINE
  5
   314
  8
0
  6
DASHDOT
 62
     7
 10
-515.665424983206
 20
-18.3095902918298
 30
0.0
 11
-515.665424983206
 21
-14.5595937229062
 31
0.0
  0
LINE
  5
   315
  8
0
  6
DASHDOT
 62
     7
 10
-517.540423267668
 20
-16.434592007368
 30
0.0
 11
-513.790426698744
 21
-16.434592007368
 31
0.0
  0
LINE
  5
   316
  8
0
  6
DASHDOT
 62
     7
 10
-506.915422699971
 20
-18.3095911860084
 30
0.0
 11
-506.915422699971
 21
-14.5595913150925
 31
0.0
  0
LINE
  5
   317
  8
0
  6
DASHDOT
 62
     7
 10
-508.790422635429
 20
-16.4345912505505
 30
0.0
 11
-505.040422764513
 21
-16.4345912505505
 31
0.0
  0
LINE
  5
   318
  8
0
  6
CONTINUOUS
 62
     7
 10
-506.477907426124
 20
-20.3095929649609
 30
0.0
 11
-499.040423539464
 21
-20.3095929649609
 31
0.0
  0
LINE
  5
   319
  8
0
  6
CONTINUOUS
 62
     7
 10
-506.477907426124
 20
-20.3095929649609
 30
0.0
 11
-506.477907426124
 21
-19.5595929649609
 31
0.0
  0
LINE
  5
   31A
  8
0
  6
CONTINUOUS
 62
     7
 10
-506.477907426124
 20
-19.5595929649609
 30
0.0
 11
-506.290407426124
 21
-19.5595929649609
 31
0.0
  0
LINE
  5
   31B
  8
0
  6
CONTINUOUS
 62
     7
 10
-506.290407426124
 20
-19.5595929649609
 30
0.0
 11
-506.290407426124
 21
-18.6845929649609
 31
0.0
  0
LINE
  5
   31C
  8
0
  6
CONTINUOUS
 62
     7
 10
-507.540407426124
 20
-18.6845929649609
 30
0.0
 11
-506.290407426124
 21
-18.6845929649609
 31
0.0
  0
LINE
  5
   31D
  8
0
  6
CONTINUOUS
 62
     7
 10
-507.540407426124
 20
-19.5595929649609
 30
0.0
 11
-507.540407426124
 21
-18.6845929649609
 31
0.0
  0
LINE
  5
   31E
  8
0
  6
CONTINUOUS
 62
     7
 10
-507.540407426124
 20
-19.5595929649609
 30
0.0
 11
-507.352907426124
 21
-19.5595929649609
 31
0.0
  0
LINE
  5
   31F
  8
0
  6
CONTINUOUS
 62
     7
 10
-507.352907426124
 20
-20.3095929649609
 30
0.0
 11
-507.352907426124
 21
-19.5595929649609
 31
0.0
  0
LINE
  5
   320
  8
0
  6
CONTINUOUS
 62
     7
 10
-515.227924983206
 20
-20.3095929649609
 30
0.0
 11
-507.352907426124
 21
-20.3095929649609
 31
0.0
  0
LINE
  5
   321
  8
0
  6
CONTINUOUS
 62
     7
 10
-515.227924983206
 20
-20.3095929649609
 30
0.0
 11
-515.227924983206
 21
-19.5595929649609
 31
0.0
  0
LINE
  5
   322
  8
0
  6
CONTINUOUS
 62
     7
 10
-515.227924983206
 20
-19.5595929649609
 30
0.0
 11
-515.040424983206
 21
-19.5595929649609
 31
0.0
  0
LINE
  5
   323
  8
0
  6
CONTINUOUS
 62
     7
 10
-515.040424983206
 20
-19.5595929649609
 30
0.0
 11
-515.040424983206
 21
-18.6845929649609
 31
0.0
  0
LINE
  5
   324
  8
0
  6
CONTINUOUS
 62
     7
 10
-516.290424983206
 20
-18.6845929649609
 30
0.0
 11
-515.040424983206
 21
-18.6845929649609
 31
0.0
  0
LINE
  5
   325
  8
0
  6
CONTINUOUS
 62
     7
 10
-516.290424983206
 20
-19.5595929649609
 30
0.0
 11
-516.290424983206
 21
-18.6845929649609
 31
0.0
  0
LINE
  5
   326
  8
0
  6
CONTINUOUS
 62
     7
 10
-516.290424983206
 20
-19.5595929649609
 30
0.0
 11
-516.102924983206
 21
-19.5595929649609
 31
0.0
  0
LINE
  5
   327
  8
0
  6
CONTINUOUS
 62
     7
 10
-516.102924983206
 20
-20.3095929649609
 30
0.0
 11
-516.102924983206
 21
-19.5595929649609
 31
0.0
  0
LINE
  5
   328
  8
0
  6
CONTINUOUS
 62
     7
 10
-523.540423539464
 20
-20.3095929649609
 30
0.0
 11
-516.102924983206
 21
-20.3095929649609
 31
0.0
  0
LINE
  5
   329
  8
0
  6
DASHDOT
 62
     7
 10
-493.790432648221
 20
17.7629170122269
 30
0.0
 11
-493.790432648221
 21
27.8903927226276
 31
0.0
  0
LINE
  5
   32A
  8
0
  6
DASHDOT
 62
     7
 10
-497.615365990003
 20
24.0654593808453
 30
0.0
 11
-489.965499306438
 21
24.0654593808453
 31
0.0
  0
LINE
  5
   32B
  8
0
  6
DASHDOT
 62
     7
 10
-502.540379303635
 20
20.2400082875224
 30
0.0
 11
-502.540379303635
 21
27.8903756460378
 31
0.0
  0
LINE
  5
   32C
  8
0
  6
DASHDOT
 62
     7
 10
-506.365562982893
 20
24.0651919667801
 30
0.0
 11
-498.715195624377
 21
24.0651919667801
 31
0.0
  0
LINE
  5
   32D
  8
0
  6
DASHDOT
 62
     7
 10
-511.290379299879
 20
20.2400778301732
 30
0.0
 11
-511.290379299879
 21
27.8903846180332
 31
0.0
  0
LINE
  5
   32E
  8
0
  6
DASHDOT
 62
     7
 10
-515.115532693809
 20
24.0652312241032
 30
0.0
 11
-507.465225905949
 21
24.0652312241032
 31
0.0
  0
LINE
  5
   32F
  8
0
  6
DASHDOT
 62
     7
 10
-520.040395896101
 20
20.240302520377
 30
0.0
 11
-520.040395896101
 21
27.8903963479602
 31
0.0
  0
LINE
  5
   330
  8
0
  6
DASHDOT
 62
     7
 10
-523.865442809893
 20
24.0653494341686
 30
0.0
 11
-516.21534898231
 21
24.0653494341686
 31
0.0
  0
LINE
  5
   331
  8
0
  6
DASHDOT
 62
     7
 10
-520.040405300208
 20
-26.009601126219
 30
0.0
 11
-520.040405300208
 21
-18.3596277359657
 31
0.0
  0
LINE
  5
   332
  8
0
  6
DASHDOT
 62
     7
 10
-523.865391995335
 20
-22.1846144310924
 30
0.0
 11
-516.215418605082
 21
-22.1846144310924
 31
0.0
  0
LINE
  5
   333
  8
0
  6
DASHDOT
 62
     7
 10
-511.290399372381
 20
-26.0096183328259
 30
0.0
 11
-511.290399372381
 21
-18.3600809851083
 31
0.0
  0
LINE
  5
   334
  8
0
  6
DASHDOT
 62
     7
 10
-515.11516804624
 20
-22.1848496589671
 30
0.0
 11
-507.465630698522
 21
-22.1848496589671
 31
0.0
  0
LINE
  5
   335
  8
0
  6
DASHDOT
 62
     7
 10
-502.540405273438
 20
-26.0096183328259
 30
0.0
 11
-502.540405273438
 21
-18.359616806947
 31
0.0
  0
LINE
  5
   336
  8
0
  6
DASHDOT
 62
     7
 10
-506.365406036377
 20
-22.1846175698864
 30
0.0
 11
-498.715404510498
 21
-22.1846175698864
 31
0.0
  0
LINE
  5
   337
  8
0
  6
DASHDOT
 62
     7
 10
-493.790399372286
 20
-26.0096351399011
 30
0.0
 11
-493.790399372286
 21
-15.0350849795216
 31
0.0
  0
LINE
  5
   338
  8
0
  6
DASHDOT
 62
     7
 10
-497.615262376573
 20
-22.1847721356138
 30
0.0
 11
-489.965536367999
 21
-22.1847721356138
 31
0.0
  0
LINE
  5
   339
  8
0
  6
DASHDOT
 62
     7
 10
-455.415382944523
 20
17.0403760764331
 30
0.0
 11
-455.415382944523
 21
19.5904203777221
 31
0.0
  0
LINE
  5
   33A
  8
0
  6
DASHDOT
 62
     7
 10
-456.690405095167
 20
18.3153982270776
 30
0.0
 11
-454.140360793878
 21
18.3153982270776
 31
0.0
  0
LINE
  5
   33B
  8
0
  6
DASHDOT
 62
     7
 10
-451.040422426146
 20
20.2404592234951
 30
0.0
 11
-451.040422426146
 21
27.8903948602025
 31
0.0
  0
LINE
  5
   33C
  8
0
  6
DASHDOT
 62
     7
 10
-454.8653902445
 20
24.0654270418488
 30
0.0
 11
-447.215454607793
 21
24.0654270418488
 31
0.0
  0
LINE
  5
   33D
  8
0
  6
DASHDOT
 62
     7
 10
-459.790379300938
 20
20.2379174847177
 30
0.0
 11
-459.790379300938
 21
27.8903252888105
 31
0.0
  0
LINE
  5
   33E
  8
0
  6
DASHDOT
 62
     7
 10
-463.616583202984
 20
24.0641213867641
 30
0.0
 11
-455.964175398891
 21
24.0641213867641
 31
0.0
  0
LINE
  5
   33F
  8
0
  6
DASHDOT
 62
     7
 10
-468.540383901296
 20
20.2403395144882
 30
0.0
 11
-468.540383901296
 21
27.8904022527683
 31
0.0
  0
LINE
  5
   340
  8
0
  6
DASHDOT
 62
     7
 10
-472.365415270436
 20
24.0653708836283
 30
0.0
 11
-464.715352532156
 21
24.0653708836283
 31
0.0
  0
LINE
  5
   341
  8
0
  6
DASHDOT
 62
     7
 10
-477.290413140823
 20
20.2404462184313
 30
0.0
 11
-477.290413140823
 21
27.8903972247449
 31
0.0
  0
LINE
  5
   342
  8
0
  6
DASHDOT
 62
     7
 10
-481.11538864398
 20
24.0654217215881
 30
0.0
 11
-473.465437637666
 21
24.0654217215881
 31
0.0
  0
LINE
  5
   343
  8
0
  6
DASHDOT
 62
     7
 10
-451.04040531633
 20
-26.0096011596126
 30
0.0
 11
-451.04040531633
 21
-18.3596048306814
 31
0.0
  0
LINE
  5
   344
  8
0
  6
DASHDOT
 62
     7
 10
-454.865403480796
 20
-22.184602995147
 30
0.0
 11
-447.215407151865
 21
-22.184602995147
 31
0.0
  0
LINE
  5
   345
  8
0
  6
DASHDOT
 62
     7
 10
-459.790403055493
 20
-26.0096013843769
 30
0.0
 11
-459.790403055493
 21
-18.3595918380344
 31
0.0
  0
LINE
  5
   346
  8
0
  6
DASHDOT
 62
     7
 10
-463.615407828664
 20
-22.1845966112056
 30
0.0
 11
-455.965398282321
 21
-22.1845966112056
 31
0.0
  0
LINE
  5
   347
  8
0
  6
DASHDOT
 62
     7
 10
-468.54040250024
 20
-26.009601486102
 30
0.0
 11
-468.54040250024
 21
-18.3595912423413
 31
0.0
  0
LINE
  5
   348
  8
0
  6
DASHDOT
 62
     7
 10
-472.365407622121
 20
-22.1845963642216
 30
0.0
 11
-464.71539737836
 21
-22.1845963642216
 31
0.0
  0
LINE
  5
   349
  8
0
  6
DASHDOT
 62
     7
 10
-477.290395128427
 20
-26.0096020458881
 30
0.0
 11
-477.290395128427
 21
-18.3595428096055
 31
0.0
  0
LINE
  5
   34A
  8
0
  6
DASHDOT
 62
     7
 10
-481.115424746569
 20
-22.1845724277468
 30
0.0
 11
-473.465365510286
 21
-22.1845724277468
 31
0.0
  0
LINE
  5
   34B
  8
0
  6
CONTINUOUS
 62
     7
 10
-447.290383784016
 20
21.4903957497278
 30
0.0
 11
-446.665383784016
 21
21.4903957497278
 31
0.0
  0
LINE
  5
   34C
  8
0
  6
CONTINUOUS
 62
     7
 10
-447.290383784016
 20
21.4903957497278
 30
0.0
 11
-447.290383784016
 21
21.9403965126673
 31
0.0
  0
LINE
  5
   34D
  8
0
  6
CONTINUOUS
 62
     7
 10
-472.477885227758
 20
22.1903965126673
 30
0.0
 11
-464.602885227758
 21
22.1903965126673
 31
0.0
  0
LINE
  5
   34E
  8
0
  6
CONTINUOUS
 62
     7
 10
-463.727885227758
 20
22.1903965126673
 30
0.0
 11
-455.852867670676
 21
22.1903965126673
 31
0.0
  0
LINE
  5
   34F
  8
0
  6
CONTINUOUS
 62
     7
 10
-454.977867670676
 20
22.1903965126673
 30
0.0
 11
-447.540383784016
 21
22.1903965126673
 31
0.0
  0
LINE
  5
   350
  8
0
  6
CONTINUOUS
 62
     7
 10
-481.040383784016
 20
21.4903957497278
 30
0.0
 11
-481.040383784016
 21
21.9403965126673
 31
0.0
  0
LINE
  5
   351
  8
0
  6
CONTINUOUS
 62
     7
 10
-481.665383784016
 20
21.4903957497278
 30
0.0
 11
-481.040383784016
 21
21.4903957497278
 31
0.0
  0
LINE
  5
   352
  8
0
  6
CONTINUOUS
 62
     7
 10
-481.665386595051
 20
-19.6096034992536
 30
0.0
 11
-481.665386595051
 21
21.4903957497279
 31
0.0
  0
LINE
  5
   353
  8
0
  6
CONTINUOUS
 62
     7
 10
-481.665383784016
 20
-19.6096034992537
 30
0.0
 11
-481.040383784016
 21
-19.6096034992537
 31
0.0
  0
LINE
  5
   354
  8
0
  6
CONTINUOUS
 62
     7
 10
-481.040383784016
 20
-20.0596034873327
 30
0.0
 11
-481.040383784016
 21
-19.6096034992537
 31
0.0
  0
LINE
  5
   355
  8
0
  6
CONTINUOUS
 62
     7
 10
-464.790385227758
 20
20.5653965126673
 30
0.0
 11
-463.540385227758
 21
20.5653965126673
 31
0.0
  0
LINE
  5
   356
  8
0
  6
CONTINUOUS
 62
     7
 10
-448.97788759867
 20
16.1903965129294
 30
0.0
 11
-448.977885691321
 21
17.1903965129887
 31
0.0
  0
LINE
  5
   357
  8
0
  6
CONTINUOUS
 62
     7
 10
-479.352883784016
 20
16.1903965126673
 30
0.0
 11
-448.977887598713
 21
16.1903965126673
 31
0.0
  0
LINE
  5
   358
  8
0
  6
CONTINUOUS
 62
     7
 10
-479.352883784016
 20
16.1903965126673
 30
0.0
 11
-479.352883784016
 21
17.1903965126673
 31
0.0
  0
LINE
  5
   359
  8
0
  6
CONTINUOUS
 62
     7
 10
-448.040383784016
 20
18.1278965126673
 30
0.0
 11
-447.290383784016
 21
18.1278965126673
 31
0.0
  0
LINE
  5
   35A
  8
0
  6
CONTINUOUS
 62
     7
 10
-447.290383784016
 20
18.1278965126673
 30
0.0
 11
-447.290383784016
 21
21.4903957497278
 31
0.0
  0
LINE
  5
   35B
  8
0
  6
CONTINUOUS
 62
     7
 10
-481.040383903225
 20
18.1278965126673
 30
0.0
 11
-480.290383664807
 21
18.1278965126673
 31
0.0
  0
LINE
  5
   35C
  8
0
  6
CONTINUOUS
 62
     7
 10
-481.040385265934
 20
18.1278965126673
 30
0.0
 11
-481.040385265934
 21
21.4903957497279
 31
0.0
  0
LINE
  5
   35D
  8
0
  6
CONTINUOUS
 62
     7
 10
-479.352883784016
 20
-15.3096034873327
 30
0.0
 11
-479.352883784016
 21
-14.3096034873327
 31
0.0
  0
LINE
  5
   35E
  8
0
  6
CONTINUOUS
 62
     7
 10
-481.040384022435
 20
-16.2471034873327
 30
0.0
 11
-480.290383426388
 21
-16.2471034873327
 31
0.0
  0
LINE
  5
   35F
  8
0
  6
CONTINUOUS
 62
     7
 10
-481.040383734383
 20
-19.6096034992537
 30
0.0
 11
-481.040383734383
 21
-16.2471035469374
 31
0.0
  0
LINE
  5
   360
  8
0
  6
CONTINUOUS
 62
     7
 10
-454.477883784016
 20
16.3153965126673
 30
0.0
 11
-454.477883784016
 21
17.7324268471399
 31
0.0
  0
CIRCLE
  5
   361
  8
0
  6
CONTINUOUS
 62
     7
 10
-468.540383936811
 20
19.0653942372752
 30
0.0
 40
1.37500034557561
  0
CIRCLE
  5
   362
  8
0
  6
CONTINUOUS
 62
     7
 10
-468.540385130406
 20
21.1903988418513
 30
0.0
 40
0.350001132261826
  0
CIRCLE
  5
   363
  8
0
  6
CONTINUOUS
 62
     7
 10
-464.165385227758
 20
18.3153974702601
 30
0.0
 40
1.12499828446178
  0
CIRCLE
  5
   364
  8
0
  6
CONTINUOUS
 62
     7
 10
-459.790376449217
 20
19.065393684047
 30
0.0
 40
1.37500778069648
  0
CIRCLE
  5
   365
  8
0
  6
CONTINUOUS
 62
     7
 10
-459.790384126244
 20
21.1903969565729
 30
0.0
 40
0.350000533144011
  0
ARC
  5
   366
  8
0
  6
CONTINUOUS
 62
     7
 10
-464.165380070063
 20
16.3154015673329
 30
0.0
 40
0.43749799431662
 50
343.397681320923
 51
556.602318679077
  0
ARC
  5
   367
  8
0
  6
CONTINUOUS
 62
     7
 10
-464.165386286664
 20
16.3154020523816
 30
0.0
 40
0.937505922424163
 50
180.000029643803
 51
187.66254857655
  0
ARC
  5
   368
  8
0
  6
CONTINUOUS
 62
     7
 10
-455.41538438885
 20
16.3153974779809
 30
0.0
 40
0.937501686694485
 50
180.000125761636
 51
187.662301319563
  0
ARC
  5
   369
  8
0
  6
CONTINUOUS
 62
     7
 10
-455.415383278578
 20
16.3153954202072
 30
0.0
 40
0.437499243526868
 50
343.398570158311
 51
556.601429841689
  0
CIRCLE
  5
   36A
  8
0
  6
CONTINUOUS
 62
     7
 10
-455.415382944523
 20
18.3153982270776
 30
0.0
 40
1.12499993545791
  0
CIRCLE
  5
   36B
  8
0
  6
CONTINUOUS
 62
     7
 10
-451.040382183735
 20
19.0654045663742
 30
0.0
 40
1.37499299977956
  0
CIRCLE
  5
   36C
  8
0
  6
CONTINUOUS
 62
     7
 10
-451.040380814369
 20
21.1903993148853
 30
0.0
 40
0.349997690355193
  0
CIRCLE
  5
   36D
  8
0
  6
CONTINUOUS
 62
     7
 10
-448.040387389515
 20
17.1904011785442
 30
0.0
 40
0.43750452606138
  0
ARC
  5
   36E
  8
0
  6
CONTINUOUS
 62
     7
 10
-447.540382428105
 20
21.9403981439769
 30
0.0
 40
0.249998801197616
 50
359.999798812773
 51
450.000230940986
  0
CIRCLE
  5
   36F
  8
0
  6
CONTINUOUS
 62
     7
 10
-480.290382281428
 20
17.1903981297301
 30
0.0
 40
0.43750145242139
  0
ARC
  5
   370
  8
0
  6
CONTINUOUS
 62
     7
 10
-480.290376760574
 20
17.1903747814604
 30
0.0
 40
0.937480002721381
 50
269.999551156832
 51
450.000409034301
  0
ARC
  5
   371
  8
0
  6
CONTINUOUS
 62
     7
 10
-480.790383146282
 20
21.9403967957498
 30
0.0
 40
0.250000997782364
 50
90.0000472705142
 51
180.000478836281
  0
CIRCLE
  5
   372
  8
0
  6
CONTINUOUS
 62
     7
 10
-480.290383742322
 20
-15.3096029844311
 30
0.0
 40
0.437499790794377
  0
ARC
  5
   373
  8
0
  6
CONTINUOUS
 62
     7
 10
-480.790383723699
 20
-20.0596034614117
 30
0.0
 40
0.250000026530426
 50
180.000006076757
 51
269.999989535183
  0
LINE
  5
   374
  8
0
  6
DASHDOT
 62
     7
 10
-468.540385130406
 20
20.0903977095895
 30
0.0
 11
-468.540385130406
 21
22.2903999741132
 31
0.0
  0
LINE
  5
   375
  8
0
  6
DASHDOT
 62
     7
 10
-469.640386262668
 20
21.1903988418513
 30
0.0
 11
-467.440383998144
 21
21.1903988418513
 31
0.0
  0
LINE
  5
   376
  8
0
  6
DASHDOT
 62
     7
 10
-468.540383936811
 20
16.9403938916996
 30
0.0
 11
-468.540383936811
 21
21.1903945828508
 31
0.0
  0
LINE
  5
   377
  8
0
  6
DASHDOT
 62
     7
 10
-470.665384282387
 20
19.0653942372752
 30
0.0
 11
-466.415383591235
 21
19.0653942372752
 31
0.0
  0
LINE
  5
   378
  8
0
  6
DASHDOT
 62
     7
 10
-460.890384659387
 20
21.1903969565729
 30
0.0
 11
-458.6903835931
 21
21.1903969565729
 31
0.0
  0
LINE
  5
   379
  8
0
  6
DASHDOT
 62
     7
 10
-461.915384229914
 20
19.065393684047
 30
0.0
 11
-457.665368668521
 21
19.065393684047
 31
0.0
  0
LINE
  5
   37A
  8
0
  6
DASHDOT
 62
     7
 10
-464.165385227758
 20
16.4403991857983
 30
0.0
 11
-464.165385227758
 21
22.7813007303123
 31
0.0
  0
LINE
  5
   37B
  8
0
  6
DASHDOT
 62
     7
 10
-466.04038351222
 20
18.3153974702601
 30
0.0
 11
-462.290386943297
 21
18.3153974702601
 31
0.0
  0
LINE
  5
   37C
  8
0
  6
DASHDOT
 62
     7
 10
-465.431821086839
 20
16.3154015673329
 30
0.0
 11
-462.93768921563
 21
16.3154015673329
 31
0.0
  0
LINE
  5
   37D
  8
0
  6
DASHDOT
 62
     7
 10
-456.637123728325
 20
16.3153954202072
 30
0.0
 11
-454.227884035051
 21
16.3153954202072
 31
0.0
  0
LINE
  5
   37E
  8
0
  6
DASHDOT
 62
     7
 10
-451.040380814369
 20
20.0904016245301
 30
0.0
 11
-451.040380814369
 21
22.2903970052405
 31
0.0
  0
LINE
  5
   37F
  8
0
  6
DASHDOT
 62
     7
 10
-452.140378504724
 20
21.1903993148853
 30
0.0
 11
-449.940383124014
 21
21.1903993148853
 31
0.0
  0
LINE
  5
   380
  8
0
  6
DASHDOT
 62
     7
 10
-451.040382183735
 20
16.9404115665946
 30
0.0
 11
-451.040382183735
 21
21.1903975661537
 31
0.0
  0
LINE
  5
   381
  8
0
  6
DASHDOT
 62
     7
 10
-453.165375183515
 20
19.0654045663742
 30
0.0
 11
-448.915389183956
 21
19.0654045663742
 31
0.0
  0
LINE
  5
   382
  8
0
  6
DASHDOT
 62
     7
 10
-480.290376760574
 20
15.502894778739
 30
0.0
 11
-480.290376760574
 21
18.8778547841818
 31
0.0
  0
LINE
  5
   383
  8
0
  6
DASHDOT
 62
     7
 10
-481.977856763296
 20
17.1903747814604
 30
0.0
 11
-478.602896757853
 21
17.1903747814604
 31
0.0
  0
LINE
  5
   384
  8
0
  6
DASHDOT
 62
     7
 10
-448.040387389515
 20
16.0028966524828
 30
0.0
 11
-448.040387389515
 21
18.3779057046056
 31
0.0
  0
LINE
  5
   385
  8
0
  6
DASHDOT
 62
     7
 10
-449.227891915577
 20
17.1904011785442
 30
0.0
 11
-446.852882863454
 21
17.1904011785442
 31
0.0
  0
CIRCLE
  5
   386
  8
0
  6
CONTINUOUS
 62
     7
 10
-448.040387389515
 20
17.1904011785442
 30
0.0
 40
0.937484119743857
  0
CIRCLE
  5
   387
  8
0
  6
CONTINUOUS
 62
     7
 10
-480.290384242668
 20
-15.309604128869
 30
0.0
 40
0.937500335919419
  0
LINE
  5
   388
  8
0
  6
DASHDOT
 62
     7
 10
-480.290384242668
 20
-16.9971044647884
 30
0.0
 11
-480.290384242668
 21
-13.6221037929496
 31
0.0
  0
LINE
  5
   389
  8
0
  6
DASHDOT
 62
     7
 10
-481.977884578588
 20
-15.309604128869
 30
0.0
 11
-478.602883906749
 21
-15.309604128869
 31
0.0
  0
LINE
  5
   38A
  8
0
  6
CONTINUOUS
 62
     7
 10
-456.352886075544
 20
16.3153974779809
 30
0.0
 11
-456.352886075544
 21
17.6935359158656
 31
0.0
  0
LINE
  5
   38B
  8
0
  6
CONTINUOUS
 62
     7
 10
-463.22788036424
 20
16.3154020523816
 30
0.0
 11
-463.22788036424
 21
17.6935407577278
 31
0.0
  0
LINE
  5
   38C
  8
0
  6
CONTINUOUS
 62
     7
 10
-465.102892209088
 20
16.3154020523816
 30
0.0
 11
-465.102892209088
 21
17.6935439505311
 31
0.0
  0
ARC
  5
   38D
  8
0
  6
CONTINUOUS
 62
     7
 10
-464.165386286664
 20
16.3154020523816
 30
0.0
 40
0.937505922424163
 50
352.33745142345
 51
359.999970356197
  0
ARC
  5
   38E
  8
0
  6
CONTINUOUS
 62
     7
 10
-455.41538438885
 20
16.3153974779809
 30
0.0
 40
0.937501686694485
 50
352.337698680437
 51
360.0
  0
LINE
  5
   38F
  8
0
  6
CONTINUOUS
 62
     7
 10
-481.415376449217
 20
-14.1220977652878
 30
0.0
 11
-446.915380263914
 21
-14.1220977652878
 31
0.0
  0
LINE
  5
   390
  8
0
  6
CONTINUOUS
 62
     7
 10
-481.665386595051
 20
16.1278965126673
 30
0.0
 11
-446.665376830686
 21
16.1278965126673
 31
0.0
  0
LINE
  5
   391
  8
0
  6
CONTINUOUS
 62
     3
 10
-472.790376449217
 20
13.5028984200149
 30
0.0
 11
-446.790380263914
 21
13.5028984200149
 31
0.0
  0
LINE
  5
   392
  8
0
  6
CONTINUOUS
 62
     3
 10
-450.165380249013
 20
-12.7470977652877
 30
0.0
 11
-446.790380263914
 21
-12.7470977652877
 31
0.0
  0
LINE
  5
   393
  8
0
  6
CONTINUOUS
 62
     3
 10
-459.178056738097
 20
-12.7470977652879
 30
0.0
 11
-453.040380263914
 21
-12.7470977652879
 31
0.0
  0
LINE
  5
   394
  8
0
  6
CONTINUOUS
 62
     3
 10
-472.790376449217
 20
-12.7470977652946
 30
0.0
 11
-469.415376449217
 21
-12.7470977652946
 31
0.0
  0
LINE
  5
   395
  8
0
  6
CONTINUOUS
 62
     7
 10
-472.915376449217
 20
-13.8720975268692
 30
0.0
 11
-472.665376449217
 21
-13.8720975268692
 31
0.0
  0
LINE
  5
   396
  8
0
  6
CONTINUOUS
 62
     7
 10
-481.415376449217
 20
-14.1220977652878
 30
0.0
 11
-481.415376449217
 21
-13.8720977652878
 31
0.0
  0
LINE
  5
   397
  8
0
  6
CONTINUOUS
 62
     7
 10
-446.915380263915
 20
-13.8720975268692
 30
0.0
 11
-446.665380263915
 21
-13.8720975268692
 31
0.0
  0
LINE
  5
   398
  8
0
  6
CONTINUOUS
 62
     7
 10
-446.915380263914
 20
-14.1220977652878
 30
0.0
 11
-446.915380263914
 21
-13.8720977652878
 31
0.0
  0
LINE
  5
   399
  8
0
  6
CONTINUOUS
 62
     7
 10
-459.602876449217
 20
-13.8720982631615
 30
0.0
 11
-446.915380200804
 21
-13.8720982631615
 31
0.0
  0
LINE
  5
   39A
  8
0
  6
CONTINUOUS
 62
     7
 10
-481.665386595051
 20
-13.8720977469479
 30
0.0
 11
-459.977876449217
 21
-13.8720977469479
 31
0.0
  0
LINE
  5
   39B
  8
0
  6
CONTINUOUS
 62
     7
 10
-447.040380025496
 20
13.5028984200149
 30
0.0
 11
-447.040380025496
 21
16.1279022347122
 31
0.0
  0
LINE
  5
   39C
  8
0
  6
CONTINUOUS
 62
     3
 10
-469.415376449217
 20
-12.7470977652885
 30
0.0
 11
-466.540376449217
 21
-12.7470977652885
 31
0.0
  0
LINE
  5
   39D
  8
0
  6
CONTINUOUS
 62
     3
 10
-453.040380263914
 20
-12.7470977652877
 30
0.0
 11
-450.165380263914
 21
-12.7470977652877
 31
0.0
  0
LINE
  5
   39E
  8
0
  6
DASHDOT
 62
     7
 10
-459.790376449217
 20
-21.0378206621234
 30
0.0
 11
-459.790376449217
 21
22.8953309022769
 31
0.0
  0
ARC
  5
   39F
  8
0
  6
CONTINUOUS
 62
     3
 10
-472.790376449217
 20
-12.6220977652946
 30
0.0
 40
0.125
 50
180.0
 51
270.0
  0
ARC
  5
   3A0
  8
0
  6
CONTINUOUS
 62
     3
 10
-472.790376449217
 20
13.3778984200149
 30
0.0
 40
0.125
 50
89.9999999999999
 51
180.0
  0
ARC
  5
   3A1
  8
0
  6
CONTINUOUS
 62
     3
 10
-446.790380263914
 20
13.3778984200149
 30
0.0
 40
0.125
 50
360.0
 51
450.0
  0
ARC
  5
   3A2
  8
0
  6
CONTINUOUS
 62
     3
 10
-446.790380263914
 20
-12.6220977652877
 30
0.0
 40
0.125
 50
270.0
 51
360.0
  0
LINE
  5
   3A3
  8
0
  6
CONTINUOUS
 62
     7
 10
-459.602876449217
 20
-13.9345977652878
 30
0.0
 11
-459.602876449217
 21
-13.8720977652878
 31
0.0
  0
LINE
  5
   3A4
  8
0
  6
CONTINUOUS
 62
     7
 10
-459.977876449217
 20
-13.9345977652878
 30
0.0
 11
-459.977876449217
 21
-13.8720977652878
 31
0.0
  0
ARC
  5
   3A5
  8
0
  6
CONTINUOUS
 62
     7
 10
-459.790397875134
 20
-13.0595483305326
 30
0.0
 40
0.687449651850481
 50
152.967149341799
 51
387.032850658201
  0
ARC
  5
   3A6
  8
0
  6
CONTINUOUS
 62
     7
 10
-459.790386108453
 20
-13.9346049935214
 30
0.0
 40
0.18748584914764
 50
179.998288901736
 51
360.003191406695
  0
LINE
  5
   3A7
  8
0
  6
CONTINUOUS
 62
     3
 10
-466.540376449217
 20
-12.7470977652879
 30
0.0
 11
-460.402739012171
 21
-12.7470977652879
 31
0.0
  0
LINE
  5
   3A8
  8
0
  6
DASHDOT
 62
     7
 10
-460.700831054978
 20
-13.0595483305326
 30
0.0
 11
-458.786911580885
 21
-13.0595483305326
 31
0.0
  0
LINE
  5
   3A9
  8
0
  6
DASHDOT
 62
     7
 10
-460.135354846723
 20
-13.9346049935214
 30
0.0
 11
-459.404585592978
 21
-13.9346049935214
 31
0.0
  0
LINE
  5
   3AA
  8
0
  6
CONTINUOUS
 62
     7
 10
-469.165376449217
 20
-12.7471015799851
 30
0.0
 11
-466.665380263914
 21
-12.7471015799851
 31
0.0
  0
LINE
  5
   3AB
  8
0
  6
CONTINUOUS
 62
     7
 10
-452.915384078612
 20
-12.7471015799851
 30
0.0
 11
-450.415384078612
 21
-12.7471015799851
 31
0.0
  0
LINE
  5
   3AC
  8
0
  6
CONTINUOUS
 62
     7
 10
-446.665376449217
 20
-19.6096036780676
 30
0.0
 11
-446.665376449217
 21
-8.12210539468234
 31
0.0
  0
LINE
  5
   3AD
  8
0
  6
CONTINUOUS
 62
     7
 10
-472.915376449217
 20
-12.6221015799851
 30
0.0
 11
-472.915376449217
 21
-8.12210539468234
 31
0.0
  0
LINE
  5
   3AE
  8
0
  6
CONTINUOUS
 62
     7
 10
-472.79037644921
 20
13.5028984200149
 30
0.0
 11
-446.790376449217
 21
13.5028984200149
 31
0.0
  0
LINE
  5
   3AF
  8
0
  6
CONTINUOUS
 62
     7
 10
-472.790376449217
 20
-12.7471015799851
 30
0.0
 11
-469.165376449217
 21
-12.7471015799851
 31
0.0
  0
LINE
  5
   3B0
  8
0
  6
CONTINUOUS
 62
     7
 10
-466.665380263914
 20
-12.7471015799851
 30
0.0
 11
-452.915384078612
 21
-12.7471015799851
 31
0.0
  0
LINE
  5
   3B1
  8
0
  6
CONTINUOUS
 62
     7
 10
-450.415384078612
 20
-12.7471015799851
 30
0.0
 11
-446.790376449217
 21
-12.7471015799851
 31
0.0
  0
LINE
  5
   3B2
  8
0
  6
CONTINUOUS
 62
     7
 10
-457.102876449217
 20
-7.18460539468234
 30
0.0
 11
-457.102876449217
 21
2.8153907906204
 31
0.0
  0
LINE
  5
   3B3
  8
0
  6
CONTINUOUS
 62
     7
 10
-462.477876449217
 20
-7.18460539468234
 30
0.0
 11
-462.477876449217
 21
2.8153907906204
 31
0.0
  0
LINE
  5
   3B4
  8
0
  6
CONTINUOUS
 62
     7
 10
-472.915376449217
 20
10.5028907906204
 30
0.0
 11
-446.665376449217
 21
10.5028907906204
 31
0.0
  0
LINE
  5
   3B5
  8
0
  6
CONTINUOUS
 62
     7
 10
-472.915376449217
 20
13.0028907906204
 30
0.0
 11
-446.665376449217
 21
13.0028907906204
 31
0.0
  0
LINE
  5
   3B6
  8
0
  6
CONTINUOUS
 62
     7
 10
-462.477876449217
 20
2.74927445761259
 30
0.0
 11
-457.102876449217
 21
2.74927445761259
 31
0.0
  0
LINE
  5
   3B7
  8
0
  6
CONTINUOUS
 62
     7
 10
-462.477876449217
 20
2.8153907906204
 30
0.0
 11
-457.102876449217
 21
2.8153907906204
 31
0.0
  0
LINE
  5
   3B8
  8
0
  6
CONTINUOUS
 62
     7
 10
-462.477876449217
 20
-7.18460539468233
 30
0.0
 11
-457.102876449217
 21
-7.18460539468233
 31
0.0
  0
LINE
  5
   3B9
  8
0
  6
CONTINUOUS
 62
     7
 10
-462.477876449217
 20
-7.11848143227999
 30
0.0
 11
-457.102876449217
 21
-7.11848143227999
 31
0.0
  0
LINE
  5
   3BA
  8
0
  6
CONTINUOUS
 62
     7
 10
-446.665380263914
 20
-7.87210539468234
 30
0.0
 11
-446.665380263914
 21
-4.87210738299197
 31
0.0
  0
LINE
  5
   3BB
  8
0
  6
CONTINUOUS
 62
     7
 10
-446.665380263914
 20
3.75289460531766
 30
0.0
 11
-446.665380263914
 21
21.4903957497278
 31
0.0
  0
LINE
  5
   3BC
  8
0
  6
CONTINUOUS
 62
     7
 10
-446.665380263914
 20
-4.62210738299195
 30
0.0
 11
-446.665380263914
 21
0.25289460531766
 31
0.0
  0
LINE
  5
   3BD
  8
0
  6
CONTINUOUS
 62
     7
 10
-446.665380263914
 20
0.50289460531766
 30
0.0
 11
-446.665380263914
 21
3.50289460531766
 31
0.0
  0
LINE
  5
   3BE
  8
0
  6
CONTINUOUS
 62
     7
 10
-472.915376449218
 20
-7.87210539468234
 30
0.0
 11
-472.915376449218
 21
-4.87210539468179
 31
0.0
  0
LINE
  5
   3BF
  8
0
  6
CONTINUOUS
 62
     7
 10
-472.915376449223
 20
-4.62210539468178
 30
0.0
 11
-472.915376449223
 21
0.252894605317664
 31
0.0
  0
LINE
  5
   3C0
  8
0
  6
CONTINUOUS
 62
     7
 10
-472.915376449216
 20
0.502894605317664
 30
0.0
 11
-472.915376449216
 21
3.50289460531766
 31
0.0
  0
LINE
  5
   3C1
  8
0
  6
CONTINUOUS
 62
     7
 10
-472.91537644921
 20
3.75289460531766
 30
0.0
 11
-472.91537644921
 21
13.3778984200149
 31
0.0
  0
LINE
  5
   3C2
  8
0
  6
CONTINUOUS
 62
     7
 10
-472.665376464118
 20
-4.87210058582627
 30
0.0
 11
-462.477878442648
 21
-4.87210058582627
 31
0.0
  0
LINE
  5
   3C3
  8
0
  6
CONTINUOUS
 62
     7
 10
-446.915380263914
 20
-4.87210257413784
 30
0.0
 11
-446.665380263914
 21
-4.87210257413784
 31
0.0
  0
LINE
  5
   3C4
  8
0
  6
CONTINUOUS
 62
     7
 10
-472.665376464118
 20
-4.6221005858248
 30
0.0
 11
-462.47788333242
 21
-4.6221005858248
 31
0.0
  0
LINE
  5
   3C5
  8
0
  6
CONTINUOUS
 62
     7
 10
-446.915380263914
 20
-4.62210257413786
 30
0.0
 11
-446.665380263914
 21
-4.62210257413786
 31
0.0
  0
LINE
  5
   3C6
  8
0
  6
CONTINUOUS
 62
     7
 10
-472.665376464118
 20
-4.87210539468234
 30
0.0
 11
-472.665376464118
 21
-4.62210539468234
 31
0.0
  0
LINE
  5
   3C7
  8
0
  6
CONTINUOUS
 62
     7
 10
-446.915380263914
 20
-4.87210539468234
 30
0.0
 11
-446.915380263914
 21
-4.62210539468234
 31
0.0
  0
LINE
  5
   3C8
  8
0
  6
CONTINUOUS
 62
     7
 10
-446.915380263914
 20
-8.12210539468233
 30
0.0
 11
-446.665376449217
 21
-8.12210539468233
 31
0.0
  0
LINE
  5
   3C9
  8
0
  6
CONTINUOUS
 62
     7
 10
-446.915380263914
 20
-7.87210539468233
 30
0.0
 11
-446.665380263914
 21
-7.87210539468233
 31
0.0
  0
LINE
  5
   3CA
  8
0
  6
CONTINUOUS
 62
     7
 10
-472.665376464118
 20
-8.12210539468234
 30
0.0
 11
-472.665376464118
 21
-7.87210539468234
 31
0.0
  0
LINE
  5
   3CB
  8
0
  6
CONTINUOUS
 62
     7
 10
-446.915380263914
 20
-8.12210539468234
 30
0.0
 11
-446.915380263914
 21
-7.87210539468234
 31
0.0
  0
LINE
  5
   3CC
  8
0
  6
CONTINUOUS
 62
     7
 10
-446.915380263914
 20
3.50289460531766
 30
0.0
 11
-446.665380263914
 21
3.50289460531766
 31
0.0
  0
LINE
  5
   3CD
  8
0
  6
CONTINUOUS
 62
     7
 10
-446.915380263914
 20
3.75289460531766
 30
0.0
 11
-446.665380263914
 21
3.75289460531766
 31
0.0
  0
LINE
  5
   3CE
  8
0
  6
CONTINUOUS
 62
     7
 10
-472.665376464118
 20
3.50289460531766
 30
0.0
 11
-472.665376464118
 21
3.75289460531766
 31
0.0
  0
LINE
  5
   3CF
  8
0
  6
CONTINUOUS
 62
     7
 10
-446.915380263914
 20
3.50289460531766
 30
0.0
 11
-446.915380263914
 21
3.75289460531766
 31
0.0
  0
LINE
  5
   3D0
  8
0
  6
CONTINUOUS
 62
     7
 10
-472.665376464118
 20
0.252894605317667
 30
0.0
 11
-462.477878431072
 21
0.252894605317667
 31
0.0
  0
LINE
  5
   3D1
  8
0
  6
CONTINUOUS
 62
     7
 10
-446.915380263914
 20
0.252894605317667
 30
0.0
 11
-446.665380263914
 21
0.252894605317667
 31
0.0
  0
LINE
  5
   3D2
  8
0
  6
CONTINUOUS
 62
     7
 10
-472.665376464118
 20
0.502894605317667
 30
0.0
 11
-462.477876449217
 21
0.502894605317667
 31
0.0
  0
LINE
  5
   3D3
  8
0
  6
CONTINUOUS
 62
     7
 10
-446.915380263914
 20
0.502894605317667
 30
0.0
 11
-446.665380263914
 21
0.502894605317667
 31
0.0
  0
LINE
  5
   3D4
  8
0
  6
CONTINUOUS
 62
     7
 10
-472.665376464118
 20
0.252894605317664
 30
0.0
 11
-472.665376464118
 21
0.502894605317664
 31
0.0
  0
LINE
  5
   3D5
  8
0
  6
CONTINUOUS
 62
     7
 10
-446.915380263914
 20
0.25289460531766
 30
0.0
 11
-446.915380263914
 21
0.50289460531766
 31
0.0
  0
ARC
  5
   3D6
  8
0
  6
CONTINUOUS
 62
     7
 10
-472.790376449217
 20
-12.6221015799851
 30
0.0
 40
0.125
 50
180.0
 51
270.0
  0
ARC
  5
   3D7
  8
0
  6
CONTINUOUS
 62
     7
 10
-446.790376449217
 20
-12.6221015799851
 30
0.0
 40
0.125
 50
270.0
 51
360.0
  0
ARC
  5
   3D8
  8
0
  6
CONTINUOUS
 62
     7
 10
-446.790376449217
 20
13.3778984200149
 30
0.0
 40
0.125
 50
360.0
 51
450.0
  0
ARC
  5
   3D9
  8
0
  6
CONTINUOUS
 62
     7
 10
-472.79037644921
 20
13.3778984200149
 30
0.0
 40
0.125
 50
89.9999999999999
 51
180.0
  0
LINE
  5
   3DA
  8
0
  6
CONTINUOUS
 62
     7
 10
-463.165376449217
 20
-7.87210539468234
 30
0.0
 11
-463.165376449217
 21
-4.87210182239096
 31
0.0
  0
LINE
  5
   3DB
  8
0
  6
CONTINUOUS
 62
     7
 10
-456.415376449217
 20
-7.87210539468234
 30
0.0
 11
-456.415376449217
 21
-4.87210381070253
 31
0.0
  0
LINE
  5
   3DC
  8
0
  6
CONTINUOUS
 62
     7
 10
-456.415376449217
 20
0.50289460531766
 30
0.0
 11
-456.415376449217
 21
3.50289460531766
 31
0.0
  0
LINE
  5
   3DD
  8
0
  6
CONTINUOUS
 62
     7
 10
-463.165376449217
 20
0.502894605317664
 30
0.0
 11
-463.165376449217
 21
3.50289460531766
 31
0.0
  0
LINE
  5
   3DE
  8
0
  6
CONTINUOUS
 62
     7
 10
-464.602885227758
 20
21.4403965126673
 30
0.0
 11
-464.602885227758
 21
22.1903965126673
 31
0.0
  0
LINE
  5
   3DF
  8
0
  6
CONTINUOUS
 62
     7
 10
-463.727885227758
 20
21.4403965126673
 30
0.0
 11
-463.727885227758
 21
22.1903965126673
 31
0.0
  0
LINE
  5
   3E0
  8
0
  6
CONTINUOUS
 62
     7
 10
-464.790385227758
 20
20.5653965126673
 30
0.0
 11
-464.790385227758
 21
21.4403965126673
 31
0.0
  0
LINE
  5
   3E1
  8
0
  6
CONTINUOUS
 62
     7
 10
-463.540385227758
 20
20.5653965126673
 30
0.0
 11
-463.540385227758
 21
21.4403965126673
 31
0.0
  0
LINE
  5
   3E2
  8
0
  6
CONTINUOUS
 62
     7
 10
-463.727885227758
 20
21.4403965126673
 30
0.0
 11
-463.540385227758
 21
21.4403965126673
 31
0.0
  0
LINE
  5
   3E3
  8
0
  6
CONTINUOUS
 62
     7
 10
-464.790385227758
 20
21.4403965126673
 30
0.0
 11
-464.602885227758
 21
21.4403965126673
 31
0.0
  0
LINE
  5
   3E4
  8
0
  6
CONTINUOUS
 62
     7
 10
-455.852867670676
 20
21.4403965126673
 30
0.0
 11
-455.852867670676
 21
22.1903965126673
 31
0.0
  0
LINE
  5
   3E5
  8
0
  6
CONTINUOUS
 62
     7
 10
-454.977867670676
 20
21.4403965126673
 30
0.0
 11
-454.977867670676
 21
22.1903965126673
 31
0.0
  0
LINE
  5
   3E6
  8
0
  6
CONTINUOUS
 62
     7
 10
-454.790367670676
 20
20.5653965126673
 30
0.0
 11
-454.790367670676
 21
21.4403965126673
 31
0.0
  0
LINE
  5
   3E7
  8
0
  6
CONTINUOUS
 62
     7
 10
-456.040367670676
 20
20.5653965126673
 30
0.0
 11
-454.790367670676
 21
20.5653965126673
 31
0.0
  0
LINE
  5
   3E8
  8
0
  6
CONTINUOUS
 62
     7
 10
-456.040367670676
 20
20.5653965126673
 30
0.0
 11
-456.040367670676
 21
21.4403965126673
 31
0.0
  0
LINE
  5
   3E9
  8
0
  6
CONTINUOUS
 62
     7
 10
-454.977867670676
 20
21.4403965126673
 30
0.0
 11
-454.790367670676
 21
21.4403965126673
 31
0.0
  0
LINE
  5
   3EA
  8
0
  6
CONTINUOUS
 62
     7
 10
-456.040367670676
 20
21.4403965126673
 30
0.0
 11
-455.852867670676
 21
21.4403965126673
 31
0.0
  0
LINE
  5
   3EB
  8
0
  6
CONTINUOUS
 62
     7
 10
-472.91537644921
 20
3.75289460531766
 30
0.0
 11
-472.665376464118
 21
3.75289460531766
 31
0.0
  0
LINE
  5
   3EC
  8
0
  6
CONTINUOUS
 62
     7
 10
-472.915376449216
 20
3.50289460531766
 30
0.0
 11
-472.665376464118
 21
3.50289460531766
 31
0.0
  0
LINE
  5
   3ED
  8
0
  6
CONTINUOUS
 62
     7
 10
-472.915376449216
 20
0.502894605317667
 30
0.0
 11
-472.665376464118
 21
0.502894605317667
 31
0.0
  0
LINE
  5
   3EE
  8
0
  6
CONTINUOUS
 62
     7
 10
-472.915376449223
 20
0.252894605317667
 30
0.0
 11
-472.665376464118
 21
0.252894605317667
 31
0.0
  0
LINE
  5
   3EF
  8
0
  6
CONTINUOUS
 62
     7
 10
-472.915376449223
 20
-4.6221005858248
 30
0.0
 11
-472.665376464118
 21
-4.6221005858248
 31
0.0
  0
LINE
  5
   3F0
  8
0
  6
CONTINUOUS
 62
     7
 10
-472.915376449218
 20
-4.87210058582627
 30
0.0
 11
-472.665376464118
 21
-4.87210058582627
 31
0.0
  0
LINE
  5
   3F1
  8
0
  6
CONTINUOUS
 62
     7
 10
-472.915376449218
 20
-7.87210539468233
 30
0.0
 11
-472.665376464118
 21
-7.87210539468233
 31
0.0
  0
LINE
  5
   3F2
  8
0
  6
CONTINUOUS
 62
     7
 10
-472.915376449217
 20
-8.12210539468233
 30
0.0
 11
-472.665376464118
 21
-8.12210539468233
 31
0.0
  0
LINE
  5
   3F3
  8
0
  6
CONTINUOUS
 62
     7
 10
-472.665376464118
 20
3.75289460531766
 30
0.0
 11
-446.915380263914
 21
3.75289460531766
 31
0.0
  0
LINE
  5
   3F4
  8
0
  6
CONTINUOUS
 62
     7
 10
-472.665376464118
 20
3.50289460531766
 30
0.0
 11
-446.915380263914
 21
3.50289460531766
 31
0.0
  0
LINE
  5
   3F5
  8
0
  6
CONTINUOUS
 62
     7
 10
-457.102876449217
 20
0.502894605317667
 30
0.0
 11
-446.915380263914
 21
0.502894605317667
 31
0.0
  0
LINE
  5
   3F6
  8
0
  6
CONTINUOUS
 62
     7
 10
-457.102876449217
 20
0.252894605317667
 30
0.0
 11
-446.915380263914
 21
0.252894605317667
 31
0.0
  0
LINE
  5
   3F7
  8
0
  6
CONTINUOUS
 62
     7
 10
-457.102877195407
 20
-4.62210257413786
 30
0.0
 11
-446.915380263914
 21
-4.62210257413786
 31
0.0
  0
LINE
  5
   3F8
  8
0
  6
CONTINUOUS
 62
     7
 10
-457.102877287004
 20
-4.87210257413784
 30
0.0
 11
-446.915380263914
 21
-4.87210257413784
 31
0.0
  0
LINE
  5
   3F9
  8
0
  6
CONTINUOUS
 62
     7
 10
-472.665376464118
 20
-7.87210539468233
 30
0.0
 11
-446.915380263914
 21
-7.87210539468233
 31
0.0
  0
LINE
  5
   3FA
  8
0
  6
CONTINUOUS
 62
     7
 10
-472.665376464118
 20
-8.12210539468233
 30
0.0
 11
-446.915380263914
 21
-8.12210539468233
 31
0.0
  0
LINE
  5
   3FB
  8
0
  6
CONTINUOUS
 62
     7
 10
-462.477876449217
 20
-3.65327521732749
 30
0.0
 11
-457.102876449217
 21
-3.65327521732749
 31
0.0
  0
LINE
  5
   3FC
  8
0
  6
CONTINUOUS
 62
     7
 10
-462.477876449217
 20
-5.18239159373172
 30
0.0
 11
-457.102876449217
 21
-5.18239159373172
 31
0.0
  0
LINE
  5
   3FD
  8
0
  6
CONTINUOUS
 62
     7
 10
-462.477876449217
 20
-6.66934625028463
 30
0.0
 11
-457.102876449217
 21
-6.66934625028463
 31
0.0
  0
LINE
  5
   3FE
  8
0
  6
CONTINUOUS
 62
     7
 10
-462.477876449217
 20
-6.87003303221421
 30
0.0
 11
-457.102876449217
 21
-6.87003303221421
 31
0.0
  0
ARC
  5
   3FF
  8
0
  6
CONTINUOUS
 62
     7
 10
-480.290360342749
 20
17.1903822265123
 30
0.0
 40
0.937526387895239
 50
90.00142448128
 51
269.998569999042
  0
LINE
  5
   400
  8
0
  6
CONTINUOUS
 62
     7
 10
-480.790383784016
 20
22.1903965126673
 30
0.0
 11
-473.352885227758
 21
22.1903965126673
 31
0.0
  0
LINE
  5
   401
  8
0
  6
CONTINUOUS
 62
     7
 10
-473.540385227758
 20
20.5653965126673
 30
0.0
 11
-472.290385227759
 21
20.5653965126673
 31
0.0
  0
CIRCLE
  5
   402
  8
0
  6
CONTINUOUS
 62
     7
 10
-477.290383936811
 20
19.0653942372752
 30
0.0
 40
1.37500034557561
  0
CIRCLE
  5
   403
  8
0
  6
CONTINUOUS
 62
     7
 10
-477.290385130406
 20
21.1903988418513
 30
0.0
 40
0.350001132261826
  0
CIRCLE
  5
   404
  8
0
  6
CONTINUOUS
 62
     7
 10
-472.915385227758
 20
18.3153974702601
 30
0.0
 40
1.12499828446178
  0
ARC
  5
   405
  8
0
  6
CONTINUOUS
 62
     7
 10
-472.915380070063
 20
16.3154015673329
 30
0.0
 40
0.43749799431662
 50
343.397681320923
 51
556.602318679077
  0
LINE
  5
   406
  8
0
  6
CONTINUOUS
 62
     7
 10
-471.97788036424
 20
16.1903965126673
 30
0.0
 11
-471.97788036424
 21
17.6935407577278
 31
0.0
  0
LINE
  5
   407
  8
0
  6
CONTINUOUS
 62
     7
 10
-473.852892209089
 20
16.1903965126673
 30
0.0
 11
-473.852892209089
 21
17.6935439505311
 31
0.0
  0
LINE
  5
   408
  8
0
  6
CONTINUOUS
 62
     7
 10
-473.352885227758
 20
21.4403965126673
 30
0.0
 11
-473.352885227758
 21
22.1903965126673
 31
0.0
  0
LINE
  5
   409
  8
0
  6
CONTINUOUS
 62
     7
 10
-472.477885227758
 20
21.4403965126673
 30
0.0
 11
-472.477885227758
 21
22.1903965126673
 31
0.0
  0
LINE
  5
   40A
  8
0
  6
CONTINUOUS
 62
     7
 10
-473.540385227758
 20
20.5653965126673
 30
0.0
 11
-473.540385227758
 21
21.4403965126673
 31
0.0
  0
LINE
  5
   40B
  8
0
  6
CONTINUOUS
 62
     7
 10
-472.290385227759
 20
20.5653965126673
 30
0.0
 11
-472.290385227759
 21
21.4403965126673
 31
0.0
  0
LINE
  5
   40C
  8
0
  6
CONTINUOUS
 62
     7
 10
-472.477885227758
 20
21.4403965126673
 30
0.0
 11
-472.290385227759
 21
21.4403965126673
 31
0.0
  0
LINE
  5
   40D
  8
0
  6
CONTINUOUS
 62
     7
 10
-473.540385227758
 20
21.4403965126673
 30
0.0
 11
-473.352885227758
 21
21.4403965126673
 31
0.0
  0
LINE
  5
   40E
  8
0
  6
DASHDOT
 62
     7
 10
-474.181821086839
 20
16.3154015673329
 30
0.0
 11
-471.687689215631
 21
16.3154015673329
 31
0.0
  0
LINE
  5
   40F
  8
0
  6
CONTINUOUS
 62
     7
 10
-480.790383784016
 20
-20.3096034873328
 30
0.0
 11
-473.352885227758
 21
-20.3096034873328
 31
0.0
  0
LINE
  5
   410
  8
0
  6
CONTINUOUS
 62
     7
 10
-473.540385227758
 20
-18.6846034873327
 30
0.0
 11
-472.290376298354
 21
-18.6846034873327
 31
0.0
  0
CIRCLE
  5
   411
  8
0
  6
CONTINUOUS
 62
     7
 10
-477.290379766126
 20
-17.184602635491
 30
0.0
 40
1.37499922265712
  0
CIRCLE
  5
   412
  8
0
  6
CONTINUOUS
 62
     7
 10
-477.290380614565
 20
-19.3096033607558
 30
0.0
 40
0.350000050406668
  0
CIRCLE
  5
   413
  8
0
  6
CONTINUOUS
 62
     7
 10
-472.915380763056
 20
-16.4346029525689
 30
0.0
 40
1.12499949670426
  0
LINE
  5
   414
  8
0
  6
DASHDOT
 62
     7
 10
-477.290379766126
 20
-21.072619198016
 30
0.0
 11
-477.290379766126
 21
-15.0596034128338
 31
0.0
  0
LINE
  5
   415
  8
0
  6
CONTINUOUS
 62
     7
 10
-472.477885227758
 20
-20.3096034873327
 30
0.0
 11
-472.477885227758
 21
-19.5596034873327
 31
0.0
  0
LINE
  5
   416
  8
0
  6
CONTINUOUS
 62
     7
 10
-473.352885227758
 20
-20.3096034873327
 30
0.0
 11
-473.352885227758
 21
-19.5596034873327
 31
0.0
  0
LINE
  5
   417
  8
0
  6
CONTINUOUS
 62
     7
 10
-473.540385227758
 20
-19.5596034873327
 30
0.0
 11
-473.352885227758
 21
-19.5596034873327
 31
0.0
  0
LINE
  5
   418
  8
0
  6
CONTINUOUS
 62
     7
 10
-472.477885227758
 20
-19.5596034873327
 30
0.0
 11
-472.290376298354
 21
-19.5596034873327
 31
0.0
  0
LINE
  5
   419
  8
0
  6
CONTINUOUS
 62
     7
 10
-473.540385227758
 20
-19.5596034873327
 30
0.0
 11
-473.540385227758
 21
-18.6846034873327
 31
0.0
  0
LINE
  5
   41A
  8
0
  6
DASHDOT
 62
     7
 10
-477.290385130406
 20
18.3403977095895
 30
0.0
 11
-477.290385130406
 21
24.0403999741132
 31
0.0
  0
LINE
  5
   41B
  8
0
  6
DASHDOT
 62
     7
 10
-480.140386262668
 20
21.1903988418513
 30
0.0
 11
-474.440383998144
 21
21.1903988418513
 31
0.0
  0
LINE
  5
   41C
  8
0
  6
DASHDOT
 62
     7
 10
-477.290383936811
 20
15.1903938916996
 30
0.0
 11
-477.290383936811
 21
22.9403945828508
 31
0.0
  0
LINE
  5
   41D
  8
0
  6
DASHDOT
 62
     7
 10
-481.165384282387
 20
19.0653942372752
 30
0.0
 11
-473.415383591235
 21
19.0653942372752
 31
0.0
  0
LINE
  5
   41E
  8
0
  6
DASHDOT
 62
     7
 10
-472.915385227758
 20
14.6903991857983
 30
0.0
 11
-472.915385227758
 21
21.9403957547219
 31
0.0
  0
LINE
  5
   41F
  8
0
  6
DASHDOT
 62
     7
 10
-476.54038351222
 20
18.3153974702601
 30
0.0
 11
-469.290386943297
 21
18.3153974702601
 31
0.0
  0
LINE
  5
   420
  8
0
  6
DASHDOT
 62
     7
 10
-481.165378988783
 20
-17.1846026354909
 30
0.0
 11
-473.415380543469
 21
-17.1846026354909
 31
0.0
  0
LINE
  5
   421
  8
0
  6
DASHDOT
 62
     7
 10
-480.140380664972
 20
-19.3096033607558
 30
0.0
 11
-474.440380564158
 21
-19.3096033607558
 31
0.0
  0
LINE
  5
   422
  8
0
  6
CONTINUOUS
 62
     7
 10
-473.81537644921
 20
-13.8720977469479
 30
0.0
 11
-473.81537644921
 21
16.1278965126673
 31
0.0
  0
LINE
  5
   423
  8
0
  6
CONTINUOUS
 62
     7
 10
-474.71537644921
 20
-13.8720977469479
 30
0.0
 11
-474.71537644921
 21
16.1278965126673
 31
0.0
  0
LINE
  5
   424
  8
0
  6
CONTINUOUS
 62
     7
 10
-475.61537644921
 20
-13.8720977469479
 30
0.0
 11
-475.61537644921
 21
16.1278965126673
 31
0.0
  0
LINE
  5
   425
  8
0
  6
CONTINUOUS
 62
     7
 10
-476.51537644921
 20
-13.8720977469479
 30
0.0
 11
-476.51537644921
 21
16.1278965126673
 31
0.0
  0
LINE
  5
   426
  8
0
  6
CONTINUOUS
 62
     7
 10
-477.41537644921
 20
-13.8720977469479
 30
0.0
 11
-477.41537644921
 21
16.1278965126673
 31
0.0
  0
LINE
  5
   427
  8
0
  6
CONTINUOUS
 62
     7
 10
-478.31537644921
 20
-13.8720977469479
 30
0.0
 11
-478.31537644921
 21
16.1278965126673
 31
0.0
  0
LINE
  5
   428
  8
0
  6
CONTINUOUS
 62
     7
 10
-479.21537644921
 20
-13.8720977469479
 30
0.0
 11
-479.21537644921
 21
16.1278965126673
 31
0.0
  0
LINE
  5
   429
  8
0
  6
CONTINUOUS
 62
     7
 10
-480.11537644921
 20
-13.8720977469479
 30
0.0
 11
-480.11537644921
 21
16.1278965126673
 31
0.0
  0
LINE
  5
   42A
  8
0
  6
CONTINUOUS
 62
     7
 10
-481.01537644921
 20
-13.8720977469479
 30
0.0
 11
-481.01537644921
 21
16.1278965126673
 31
0.0
  0
LINE
  5
   42B
  8
0
  6
CONTINUOUS
 62
     7
 10
-481.665386595051
 20
13.5028984200149
 30
0.0
 11
-472.79037644921
 21
13.5028984200149
 31
0.0
  0
LINE
  5
   42C
  8
0
  6
CONTINUOUS
 62
     7
 10
-481.665386595051
 20
-12.7471015799851
 30
0.0
 11
-472.790376449217
 21
-12.7471015799851
 31
0.0
  0
LINE
  5
   42D
  8
0
  6
DASHDOT
 62
     7
 10
-455.415382944523
 20
16.4403982916197
 30
0.0
 11
-455.415382944523
 21
20.1903981625355
 31
0.0
  0
LINE
  5
   42E
  8
0
  6
DASHDOT
 62
     7
 10
-457.290382879981
 20
18.3153982270776
 30
0.0
 11
-453.540383009065
 21
18.3153982270776
 31
0.0
  0
LINE
  5
   42F
  8
0
  6
DASHDOT
 62
     7
 10
-472.915380763056
 20
-18.3096024492732
 30
0.0
 11
-472.915380763056
 21
-14.5596034558647
 31
0.0
  0
LINE
  5
   430
  8
0
  6
DASHDOT
 62
     7
 10
-474.790380259761
 20
-16.4346029525689
 30
0.0
 11
-471.040381266352
 21
-16.4346029525689
 31
0.0
  0
LINE
  5
   431
  8
0
  6
CONTINUOUS
 62
     7
 10
-472.290376298354
 20
-19.5596034873327
 30
0.0
 11
-472.290376298354
 21
-18.6846034873327
 31
0.0
  0
LINE
  5
   432
  8
0
  6
CONTINUOUS
 62
     7
 10
-448.977879260252
 20
-15.3096034873327
 30
0.0
 11
-448.977879260252
 21
-14.3096034873327
 31
0.0
  0
CIRCLE
  5
   433
  8
0
  6
CONTINUOUS
 62
     7
 10
-448.040378801599
 20
-15.309604128869
 30
0.0
 40
0.937500335919419
  0
CIRCLE
  5
   434
  8
0
  6
CONTINUOUS
 62
     7
 10
-448.040379301945
 20
-15.3096029844311
 30
0.0
 40
0.437499790794377
  0
LINE
  5
   435
  8
0
  6
DASHDOT
 62
     7
 10
-449.727879137519
 20
-15.309604128869
 30
0.0
 11
-446.35287846568
 21
-15.309604128869
 31
0.0
  0
LINE
  5
   436
  8
0
  6
DASHDOT
 62
     7
 10
-448.040378801599
 20
-16.9971044647884
 30
0.0
 11
-448.040378801599
 21
-13.6221037929496
 31
0.0
  0
LINE
  5
   437
  8
0
  6
CONTINUOUS
 62
     7
 10
-448.040379617879
 20
-16.2471034873327
 30
0.0
 11
-447.290379021833
 21
-16.2471034873327
 31
0.0
  0
LINE
  5
   438
  8
0
  6
CONTINUOUS
 62
     7
 10
-447.290379309885
 20
-19.6096034992537
 30
0.0
 11
-447.290379309885
 21
-16.2471035469374
 31
0.0
  0
LINE
  5
   439
  8
0
  6
CONTINUOUS
 62
     7
 10
-447.290379260251
 20
-19.6096034992537
 30
0.0
 11
-446.665379260252
 21
-19.6096034992537
 31
0.0
  0
LINE
  5
   43A
  8
0
  6
CONTINUOUS
 62
     7
 10
-447.290379260251
 20
-20.0596034873327
 30
0.0
 11
-447.290379260251
 21
-19.6096034992537
 31
0.0
  0
ARC
  5
   43B
  8
0
  6
CONTINUOUS
 62
     7
 10
-447.540379320569
 20
-20.0596034614117
 30
0.0
 40
0.250000026530426
 50
270.000010464817
 51
359.999993923243
  0
LINE
  5
   43C
  8
0
  6
CONTINUOUS
 62
     7
 10
-454.977877816509
 20
-20.3096034873328
 30
0.0
 11
-447.540379260252
 21
-20.3096034873328
 31
0.0
  0
LINE
  5
   43D
  8
0
  6
CONTINUOUS
 62
     7
 10
-454.977877816509
 20
-20.3096034873327
 30
0.0
 11
-454.977877816509
 21
-19.5596034873327
 31
0.0
  0
LINE
  5
   43E
  8
0
  6
CONTINUOUS
 62
     7
 10
-455.852877816509
 20
-20.3096034873327
 30
0.0
 11
-455.852877816509
 21
-19.5596034873327
 31
0.0
  0
LINE
  5
   43F
  8
0
  6
CONTINUOUS
 62
     7
 10
-456.040386745913
 20
-19.5596034873327
 30
0.0
 11
-455.852877816509
 21
-19.5596034873327
 31
0.0
  0
LINE
  5
   440
  8
0
  6
CONTINUOUS
 62
     7
 10
-454.977877816509
 20
-19.5596034873327
 30
0.0
 11
-454.790377816509
 21
-19.5596034873327
 31
0.0
  0
LINE
  5
   441
  8
0
  6
CONTINUOUS
 62
     7
 10
-454.790377816509
 20
-19.5596034873327
 30
0.0
 11
-454.790377816509
 21
-18.6846034873327
 31
0.0
  0
LINE
  5
   442
  8
0
  6
CONTINUOUS
 62
     7
 10
-456.040386745913
 20
-18.6846034873327
 30
0.0
 11
-454.790377816509
 21
-18.6846034873327
 31
0.0
  0
LINE
  5
   443
  8
0
  6
CONTINUOUS
 62
     7
 10
-456.040386745913
 20
-19.5596034873327
 30
0.0
 11
-456.040386745913
 21
-18.6846034873327
 31
0.0
  0
CIRCLE
  5
   444
  8
0
  6
CONTINUOUS
 62
     7
 10
-451.040383278142
 20
-17.184602635491
 30
0.0
 40
1.37499922265712
  0
LINE
  5
   445
  8
0
  6
DASHDOT
 62
     7
 10
-454.915382500799
 20
-17.184602635491
 30
0.0
 11
-447.165384055485
 21
-17.184602635491
 31
0.0
  0
LINE
  5
   446
  8
0
  6
DASHDOT
 62
     7
 10
-451.040383278142
 20
-21.1770148056938
 30
0.0
 11
-451.040383278142
 21
-15.0596034128338
 31
0.0
  0
LINE
  5
   447
  8
0
  6
DASHDOT
 62
     7
 10
-453.890382480109
 20
-19.3096033607558
 30
0.0
 11
-448.190382379296
 21
-19.3096033607558
 31
0.0
  0
CIRCLE
  5
   448
  8
0
  6
CONTINUOUS
 62
     7
 10
-451.040382429703
 20
-19.3096033607558
 30
0.0
 40
0.350000050406668
  0
LINE
  5
   449
  8
0
  6
DASHDOT
 62
     7
 10
-457.290381777916
 20
-16.4346029525689
 30
0.0
 11
-453.540382784507
 21
-16.4346029525689
 31
0.0
  0
LINE
  5
   44A
  8
0
  6
DASHDOT
 62
     7
 10
-455.415382281211
 20
-18.3096024492732
 30
0.0
 11
-455.415382281211
 21
-14.5596034558647
 31
0.0
  0
CIRCLE
  5
   44B
  8
0
  6
CONTINUOUS
 62
     7
 10
-455.415382281211
 20
-16.4346029525689
 30
0.0
 40
1.12499949670426
  0
LINE
  5
   44C
  8
0
  6
DASHDOT
 62
     7
 10
-464.165380763056
 20
-18.3096024492732
 30
0.0
 11
-464.165380763056
 21
-14.5596034558647
 31
0.0
  0
LINE
  5
   44D
  8
0
  6
DASHDOT
 62
     7
 10
-466.040380259761
 20
-16.4346029525689
 30
0.0
 11
-462.290381266352
 21
-16.4346029525689
 31
0.0
  0
CIRCLE
  5
   44E
  8
0
  6
CONTINUOUS
 62
     7
 10
-464.165380763056
 20
-16.4346029525689
 30
0.0
 40
1.12499949670426
  0
CIRCLE
  5
   44F
  8
0
  6
CONTINUOUS
 62
     7
 10
-468.540379766126
 20
-17.184602635491
 30
0.0
 40
1.37499922265712
  0
LINE
  5
   450
  8
0
  6
DASHDOT
 62
     7
 10
-472.415378988783
 20
-17.184602635491
 30
0.0
 11
-464.665380543469
 21
-17.184602635491
 31
0.0
  0
LINE
  5
   451
  8
0
  6
DASHDOT
 62
     7
 10
-468.540379766126
 20
-21.072619198016
 30
0.0
 11
-468.540379766126
 21
-15.0596034128338
 31
0.0
  0
CIRCLE
  5
   452
  8
0
  6
CONTINUOUS
 62
     7
 10
-468.540380614565
 20
-19.3096033607558
 30
0.0
 40
0.350000050406668
  0
LINE
  5
   453
  8
0
  6
DASHDOT
 62
     7
 10
-471.390380664972
 20
-19.3096033607558
 30
0.0
 11
-465.690380564158
 21
-19.3096033607558
 31
0.0
  0
CIRCLE
  5
   454
  8
0
  6
CONTINUOUS
 62
     7
 10
-459.790379766126
 20
-17.184602635491
 30
0.0
 40
1.37499922265712
  0
LINE
  5
   455
  8
0
  6
DASHDOT
 62
     7
 10
-463.665378988783
 20
-17.184602635491
 30
0.0
 11
-455.915380543469
 21
-17.184602635491
 31
0.0
  0
LINE
  5
   456
  8
0
  6
DASHDOT
 62
     7
 10
-462.640380664972
 20
-19.3096033607558
 30
0.0
 11
-456.940380564158
 21
-19.3096033607558
 31
0.0
  0
CIRCLE
  5
   457
  8
0
  6
CONTINUOUS
 62
     7
 10
-459.790380614565
 20
-19.3096033607558
 30
0.0
 40
0.350000050406668
  0
LINE
  5
   458
  8
0
  6
CONTINUOUS
 62
     7
 10
-472.477885227758
 20
-20.3096034873328
 30
0.0
 11
-464.602885227758
 21
-20.3096034873328
 31
0.0
  0
LINE
  5
   459
  8
0
  6
CONTINUOUS
 62
     7
 10
-463.727885227758
 20
-20.3096034873327
 30
0.0
 11
-463.727885227758
 21
-19.5596034873327
 31
0.0
  0
LINE
  5
   45A
  8
0
  6
CONTINUOUS
 62
     7
 10
-464.602885227758
 20
-20.3096034873327
 30
0.0
 11
-464.602885227758
 21
-19.5596034873327
 31
0.0
  0
LINE
  5
   45B
  8
0
  6
CONTINUOUS
 62
     7
 10
-464.790385227758
 20
-19.5596034873327
 30
0.0
 11
-464.602885227758
 21
-19.5596034873327
 31
0.0
  0
LINE
  5
   45C
  8
0
  6
CONTINUOUS
 62
     7
 10
-463.727885227758
 20
-19.5596034873327
 30
0.0
 11
-463.540376298354
 21
-19.5596034873327
 31
0.0
  0
LINE
  5
   45D
  8
0
  6
CONTINUOUS
 62
     7
 10
-463.540376298354
 20
-19.5596034873327
 30
0.0
 11
-463.540376298354
 21
-18.6846034873327
 31
0.0
  0
LINE
  5
   45E
  8
0
  6
CONTINUOUS
 62
     7
 10
-464.790385227758
 20
-19.5596034873327
 30
0.0
 11
-464.790385227758
 21
-18.6846034873327
 31
0.0
  0
LINE
  5
   45F
  8
0
  6
CONTINUOUS
 62
     7
 10
-464.790385227758
 20
-18.6846034873327
 30
0.0
 11
-463.540376298354
 21
-18.6846034873327
 31
0.0
  0
LINE
  5
   460
  8
0
  6
CONTINUOUS
 62
     7
 10
-463.727885227758
 20
-20.3096034873328
 30
0.0
 11
-455.852885227758
 21
-20.3096034873328
 31
0.0
  0
LINE
  5
   461
  8
0
  6
DASHDOT
 62
     7
 10
-391.456202812169
 20
0.377907992632029
 30
0.0
 11
-368.166066642595
 21
0.377907992632029
 31
0.0
  0
TEXT
  5
   462
  8
0
  6
CONTINUOUS
 62
     7
 10
-422.887443515552
 20
-5.21952024176528
 30
0.0
 40
3.00000002980232
  1
=  =
 50
90.0
 41
0.916666604744064
 72
     1
 11
-424.38744353046
 21
5.47945499420166E-3
 31
0.0
 73
     2
  0
INSERT
  5
   463
  8
0
  6
CONTINUOUS
 62
     7
  2
*UDIM114
 10
0.0
 20
0.0
 30
0.0
  0
INSERT
  5
   464
  8
0
  6
CONTINUOUS
 62
     7
  2
*UDIM115
 10
0.0
 20
0.0
 30
0.0
  0
INSERT
  5
   465
  8
0
  6
CONTINUOUS
 62
     7
  2
*UDIM116
 10
0.0
 20
0.0
 30
0.0
  0
TEXT
  5
   466
  8
0
  6
CONTINUOUS
 62
     7
 10
-491.505736977607
 20
58.0312042087317
 30
0.0
 40
3.00000002980232
  1
=  =
 41
0.916666604744064
 72
     1
 11
-486.280737280846
 21
59.5312042236328
 31
0.0
 73
     2
  0
TEXT
  5
   467
  8
0
  6
CONTINUOUS
 62
     7
 10
-491.397113472968
 20
43.475257858634
 30
0.0
 40
3.00000002980232
  1
=  =
 41
0.916666604744064
 72
     1
 11
-486.172113776207
 21
44.9752578735352
 31
0.0
 73
     2
  0
TEXT
  5
   468
  8
0
  6
CONTINUOUS
 62
     7
 10
-393.694030672312
 20
-1.50712968409061
 30
0.0
 40
3.00000002980232
  1
X
 41
0.916666604744064
 72
     1
 11
-392.594030737877
 21
-7.12966918945313E-3
 31
0.0
 73
     2
  0
TEXT
  5
   469
  8
0
  6
CONTINUOUS
 62
     7
 10
-563.419265657663
 20
-0.627082839608192
 30
0.0
 40
3.00000002980232
  1
X
 41
0.916666604744064
 72
     1
 11
-562.319265723229
 21
0.872917175292969
 31
0.0
 73
     2
  0
TEXT
  5
   46A
  8
0
  6
CONTINUOUS
 62
     7
 10
-487.109172731638
 20
-45.326873794198
 30
0.0
 40
3.00000002980232
  1
Y
 41
0.916666604744064
 72
     1
 11
-486.009172797203
 21
-43.8268737792969
 31
0.0
 73
     2
  0
TEXT
  5
   46B
  8
0
  6
CONTINUOUS
 62
     7
 10
-487.543678194285
 20
72.2069625705481
 30
0.0
 40
3.00000002980232
  1
Y
 41
0.916666604744064
 72
     1
 11
-486.44367825985
 21
73.7069625854492
 31
0.0
 73
     2
  0
INSERT
  5
   46C
  8
0
  6
CONTINUOUS
 62
     7
  2
*UDIM117
 10
0.0
 20
0.0
 30
0.0
  0
INSERT
  5
   46D
  8
0
  6
CONTINUOUS
 62
     7
  2
*UDIM118
 10
0.0
 20
0.0
 30
0.0
  0
INSERT
  5
   46E
  8
0
  6
CONTINUOUS
 62
     7
  2
*UDIM119
 10
0.0
 20
0.0
 30
0.0
  0
INSERT
  5
   46F
  8
0
  6
CONTINUOUS
 62
     7
  2
*UDIM120
 10
0.0
 20
0.0
 30
0.0
  0
INSERT
  5
   470
  8
0
  6
CONTINUOUS
 62
     7
  2
*UDIM121
 10
0.0
 20
0.0
 30
0.0
  0
INSERT
  5
   471
  8
0
  6
CONTINUOUS
 62
     7
  2
*UDIM122
 10
0.0
 20
0.0
 30
0.0
  0
INSERT
  5
   472
  8
0
  6
CONTINUOUS
 62
     7
  2
*UDIM123
 10
0.0
 20
0.0
 30
0.0
  0
INSERT
  5
   473
  8
0
  6
CONTINUOUS
 62
     7
  2
*UDIM124
 10
0.0
 20
0.0
 30
0.0
  0
INSERT
  5
   474
  8
0
  6
CONTINUOUS
 62
     7
  2
*UDIM125
 10
0.0
 20
0.0
 30
0.0
  0
INSERT
  5
   475
  8
0
  6
CONTINUOUS
 62
     7
  2
*UDIM126
 10
0.0
 20
0.0
 30
0.0
  0
LINE
  5
   476
  8
0
  6
CONTINUOUS
 62
     7
 10
-443.290402329651
 20
-102.242004394531
 30
0.0
 11
-527.790389906782
 21
-102.242004394531
 31
0.0
  0
LINE
  5
   477
  8
0
  6
CONTINUOUS
 62
     7
 10
-443.290420532227
 20
-85.9920043945313
 30
0.0
 11
-447.040422439575
 21
-85.9920043945313
 31
0.0
  0
LINE
  5
   478
  8
0
  6
CONTINUOUS
 62
     7
 10
-524.040422439575
 20
-85.9920043945313
 30
0.0
 11
-527.790424346924
 21
-85.9920043945313
 31
0.0
  0
LINE
  5
   479
  8
0
  6
CONTINUOUS
 62
     7
 10
-441.790420532227
 20
-87.4919661417264
 30
0.0
 11
-441.790420532227
 21
-100.742004394531
 31
0.0
  0
LINE
  5
   47A
  8
0
  6
CONTINUOUS
 62
     7
 10
-529.290424346924
 20
-87.4919984958674
 30
0.0
 11
-529.290424346924
 21
-100.742004394531
 31
0.0
  0
LINE
  5
   47B
  8
0
  6
CONTINUOUS
 62
     7
 10
-443.290420532227
 20
-86.7420043945313
 30
0.0
 11
-447.040422439575
 21
-86.7420043945313
 31
0.0
  0
LINE
  5
   47C
  8
0
  6
CONTINUOUS
 62
     7
 10
-442.540420532227
 20
-87.4920193696537
 30
0.0
 11
-442.540420532227
 21
-100.742004394531
 31
0.0
  0
LINE
  5
   47D
  8
0
  6
CONTINUOUS
 62
     7
 10
-443.290427335669
 20
-101.492004394531
 30
0.0
 11
-527.790433138547
 21
-101.492004394531
 31
0.0
  0
LINE
  5
   47E
  8
0
  6
CONTINUOUS
 62
     7
 10
-528.540424346924
 20
-87.49199271958
 30
0.0
 11
-528.540424346924
 21
-100.742004394531
 31
0.0
  0
LINE
  5
   47F
  8
0
  6
CONTINUOUS
 62
     7
 10
-524.040422439575
 20
-86.7420043945313
 30
0.0
 11
-527.790424346924
 21
-86.7420043945313
 31
0.0
  0
LINE
  5
   480
  8
0
  6
CONTINUOUS
 62
     7
 10
-490.095302581787
 20
-97.2420043945313
 30
0.0
 11
-513.652641296387
 21
-97.2420043945313
 31
0.0
  0
LINE
  5
   481
  8
0
  6
CONTINUOUS
 62
     7
 10
-517.415424346924
 20
-99.3680839538574
 30
0.0
 11
-517.415424346924
 21
-101.492004394531
 31
0.0
  0
LINE
  5
   482
  8
0
  6
CONTINUOUS
 62
     7
 10
-485.665424346924
 20
-99.2420043945313
 30
0.0
 11
-485.665424346924
 21
-101.492004394531
 31
0.0
  0
LINE
  5
   483
  8
0
  6
CONTINUOUS
 62
     7
 10
-485.665425921456
 20
-99.242006733256
 30
0.0
 11
-485.695699359812
 21
-99.0508522570605
 31
0.0
  0
LINE
  5
   484
  8
0
  6
CONTINUOUS
 62
   218
 10
-499.41544342041
 20
-102.617004394531
 30
0.0
 11
-505.66544342041
 21
-102.617004394531
 31
0.0
  0
LINE
  5
   485
  8
0
  6
CONTINUOUS
 62
   218
 10
-508.165435791016
 20
-102.617004394531
 30
0.0
 11
-514.415435791016
 21
-102.617004394531
 31
0.0
  0
LINE
  5
   486
  8
0
  6
CONTINUOUS
 62
   218
 10
-516.915431976318
 20
-102.617004394531
 30
0.0
 11
-523.165431976318
 21
-102.617004394531
 31
0.0
  0
LINE
  5
   487
  8
0
  6
CONTINUOUS
 62
   218
 10
-524.415425300598
 20
-103.742004394531
 30
0.0
 11
-524.415425300598
 21
-105.367004394531
 31
0.0
  0
LINE
  5
   488
  8
0
  6
CONTINUOUS
 62
   218
 10
-498.790424346924
 20
-114.617015838623
 30
0.0
 11
-500.54044342041
 21
-114.617015838623
 31
0.0
  0
LINE
  5
   489
  8
0
  6
CONTINUOUS
 62
   218
 10
-504.54044342041
 20
-114.617015838623
 30
0.0
 11
-506.290416717529
 21
-114.617015838623
 31
0.0
  0
LINE
  5
   48A
  8
0
  6
CONTINUOUS
 62
   218
 10
-506.477916717529
 20
-114.617015838623
 30
0.0
 11
-507.352916717529
 21
-114.617015838623
 31
0.0
  0
LINE
  5
   48B
  8
0
  6
CONTINUOUS
 62
   218
 10
-507.540416717529
 20
-114.617015838623
 30
0.0
 11
-509.290435791016
 21
-114.617015838623
 31
0.0
  0
LINE
  5
   48C
  8
0
  6
CONTINUOUS
 62
   218
 10
-513.290435791016
 20
-114.617015838623
 30
0.0
 11
-515.040431976318
 21
-114.617015838623
 31
0.0
  0
LINE
  5
   48D
  8
0
  6
CONTINUOUS
 62
   218
 10
-515.227931976318
 20
-114.617015838623
 30
0.0
 11
-516.102931976318
 21
-114.617015838623
 31
0.0
  0
LINE
  5
   48E
  8
0
  6
CONTINUOUS
 62
   218
 10
-516.290431976318
 20
-114.617015838623
 30
0.0
 11
-518.040431976318
 21
-114.617015838623
 31
0.0
  0
LINE
  5
   48F
  8
0
  6
CONTINUOUS
 62
   218
 10
-522.040431976318
 20
-114.617015838623
 30
0.0
 11
-523.790431976318
 21
-114.617015838623
 31
0.0
  0
LINE
  5
   490
  8
0
  6
CONTINUOUS
 62
   218
 10
-500.540424346924
 20
-113.992015838623
 30
0.0
 11
-504.540424346924
 21
-113.992015838623
 31
0.0
  0
LINE
  5
   491
  8
0
  6
CONTINUOUS
 62
   218
 10
-520.665512084961
 20
-112.617015838623
 30
0.0
 11
-520.665512084961
 21
-113.617015838623
 31
0.0
  0
LINE
  5
   492
  8
0
  6
CONTINUOUS
 62
   218
 10
-516.290431976318
 20
-105.367004394531
 30
0.0
 11
-523.790431976318
 21
-105.367004394531
 31
0.0
  0
LINE
  5
   493
  8
0
  6
CONTINUOUS
 62
   218
 10
-507.540416717529
 20
-105.367004394531
 30
0.0
 11
-515.040431976318
 21
-105.367004394531
 31
0.0
  0
LINE
  5
   494
  8
0
  6
CONTINUOUS
 62
   218
 10
-498.790424346924
 20
-105.367004394531
 30
0.0
 11
-506.290416717529
 21
-105.367004394531
 31
0.0
  0
LINE
  5
   495
  8
0
  6
CONTINUOUS
 62
   218
 10
-523.415431976318
 20
-103.742004394531
 30
0.0
 11
-524.415425300598
 21
-103.742004394531
 31
0.0
  0
LINE
  5
   496
  8
0
  6
CONTINUOUS
 62
   218
 10
-514.415435791016
 20
-103.742004394531
 30
0.0
 11
-516.915431976318
 21
-103.742004394531
 31
0.0
  0
LINE
  5
   497
  8
0
  6
CONTINUOUS
 62
   218
 10
-505.66544342041
 20
-103.742004394531
 30
0.0
 11
-508.165435791016
 21
-103.742004394531
 31
0.0
  0
LINE
  5
   498
  8
0
  6
CONTINUOUS
 62
   218
 10
-498.165424346924
 20
-103.742004394531
 30
0.0
 11
-499.165416717529
 21
-103.742004394531
 31
0.0
  0
LINE
  5
   499
  8
0
  6
CONTINUOUS
 62
   218
 10
-514.415420532227
 20
-102.742004394531
 30
0.0
 11
-516.915420532227
 21
-102.742004394531
 31
0.0
  0
LINE
  5
   49A
  8
0
  6
CONTINUOUS
 62
   218
 10
-505.665424346924
 20
-102.742065429688
 30
0.0
 11
-508.165424346924
 21
-102.742065429688
 31
0.0
  0
LINE
  5
   49B
  8
0
  6
CONTINUOUS
 62
   218
 10
-509.290435791016
 20
-113.367015838623
 30
0.0
 11
-513.290435791016
 21
-113.367015838623
 31
0.0
  0
LINE
  5
   49C
  8
0
  6
CONTINUOUS
 62
   218
 10
-518.040431976318
 20
-113.367015838623
 30
0.0
 11
-520.665512084961
 21
-113.367015838623
 31
0.0
  0
LINE
  5
   49D
  8
0
  6
CONTINUOUS
 62
   218
 10
-521.415431976318
 20
-114.453699111939
 30
0.0
 11
-521.415431976318
 21
-114.617015838623
 31
0.0
  0
LINE
  5
   49E
  8
0
  6
CONTINUOUS
 62
   218
 10
-508.727935791016
 20
-109.992015838623
 30
0.0
 11
-513.852935791016
 21
-109.992015838623
 31
0.0
  0
LINE
  5
   49F
  8
0
  6
CONTINUOUS
 62
   218
 10
-513.852935791016
 20
-109.992015838623
 30
0.0
 11
-513.852935791016
 21
-114.617015838623
 31
0.0
  0
LINE
  5
   4A0
  8
0
  6
CONTINUOUS
 62
   218
 10
-508.727935791016
 20
-109.992015838623
 30
0.0
 11
-508.727935791016
 21
-114.617015838623
 31
0.0
  0
LINE
  5
   4A1
  8
0
  6
CONTINUOUS
 62
   218
 10
-509.290435791016
 20
-112.617015838623
 30
0.0
 11
-509.290435791016
 21
-114.617015838623
 31
0.0
  0
LINE
  5
   4A2
  8
0
  6
CONTINUOUS
 62
   218
 10
-513.290435791016
 20
-112.617015838623
 30
0.0
 11
-513.290435791016
 21
-114.617015838623
 31
0.0
  0
LINE
  5
   4A3
  8
0
  6
CONTINUOUS
 62
   218
 10
-509.290435791016
 20
-112.617015838623
 30
0.0
 11
-513.290435791016
 21
-112.617015838623
 31
0.0
  0
LINE
  5
   4A4
  8
0
  6
CONTINUOUS
 62
   218
 10
-517.477935791016
 20
-109.992015838623
 30
0.0
 11
-522.602935791016
 21
-109.992015838623
 31
0.0
  0
LINE
  5
   4A5
  8
0
  6
CONTINUOUS
 62
   218
 10
-522.602935791016
 20
-109.992015838623
 30
0.0
 11
-522.602935791016
 21
-114.617015838623
 31
0.0
  0
LINE
  5
   4A6
  8
0
  6
CONTINUOUS
 62
   218
 10
-517.477935791016
 20
-109.992015838623
 30
0.0
 11
-517.477935791016
 21
-114.617015838623
 31
0.0
  0
LINE
  5
   4A7
  8
0
  6
CONTINUOUS
 62
   218
 10
-518.040431976318
 20
-112.617015838623
 30
0.0
 11
-518.040431976318
 21
-114.617015838623
 31
0.0
  0
LINE
  5
   4A8
  8
0
  6
CONTINUOUS
 62
   218
 10
-522.040431976318
 20
-112.617015838623
 30
0.0
 11
-522.040431976318
 21
-114.617015838623
 31
0.0
  0
LINE
  5
   4A9
  8
0
  6
CONTINUOUS
 62
   218
 10
-518.040431976318
 20
-112.617015838623
 30
0.0
 11
-522.040431976318
 21
-112.617015838623
 31
0.0
  0
LINE
  5
   4AA
  8
0
  6
CONTINUOUS
 62
   218
 10
-499.977935791016
 20
-109.992015838623
 30
0.0
 11
-505.102935791016
 21
-109.992015838623
 31
0.0
  0
LINE
  5
   4AB
  8
0
  6
CONTINUOUS
 62
   218
 10
-505.102935791016
 20
-109.992015838623
 30
0.0
 11
-505.102935791016
 21
-114.617015838623
 31
0.0
  0
LINE
  5
   4AC
  8
0
  6
CONTINUOUS
 62
   218
 10
-499.977935791016
 20
-109.992015838623
 30
0.0
 11
-499.977935791016
 21
-114.617015838623
 31
0.0
  0
LINE
  5
   4AD
  8
0
  6
CONTINUOUS
 62
   218
 10
-500.54044342041
 20
-112.617015838623
 30
0.0
 11
-500.54044342041
 21
-114.617015838623
 31
0.0
  0
LINE
  5
   4AE
  8
0
  6
CONTINUOUS
 62
   218
 10
-504.54044342041
 20
-112.617015838623
 30
0.0
 11
-504.54044342041
 21
-114.617015838623
 31
0.0
  0
LINE
  5
   4AF
  8
0
  6
CONTINUOUS
 62
   218
 10
-500.54044342041
 20
-112.617015838623
 30
0.0
 11
-504.54044342041
 21
-112.617015838623
 31
0.0
  0
LINE
  5
   4B0
  8
0
  6
CONTINUOUS
 62
   218
 10
-498.790431976318
 20
-105.367004394531
 30
0.0
 11
-498.790431976318
 21
-114.617015838623
 31
0.0
  0
LINE
  5
   4B1
  8
0
  6
CONTINUOUS
 62
   218
 10
-523.790431976318
 20
-105.367004394531
 30
0.0
 11
-523.790431976318
 21
-114.617015838623
 31
0.0
  0
LINE
  5
   4B2
  8
0
  6
CONTINUOUS
 62
   218
 10
-516.102931976318
 20
-105.367004394531
 30
0.0
 11
-516.102931976318
 21
-114.617015838623
 31
0.0
  0
LINE
  5
   4B3
  8
0
  6
CONTINUOUS
 62
   218
 10
-516.102931976318
 20
-114.617015838623
 30
0.0
 11
-516.290431976318
 21
-114.617015838623
 31
0.0
  0
LINE
  5
   4B4
  8
0
  6
CONTINUOUS
 62
   218
 10
-516.102931976318
 20
-105.367004394531
 30
0.0
 11
-516.290431976318
 21
-105.367004394531
 31
0.0
  0
LINE
  5
   4B5
  8
0
  6
CONTINUOUS
 62
   218
 10
-515.227931976318
 20
-105.367004394531
 30
0.0
 11
-515.227931976318
 21
-114.617015838623
 31
0.0
  0
LINE
  5
   4B6
  8
0
  6
CONTINUOUS
 62
   218
 10
-515.040431976318
 20
-114.617015838623
 30
0.0
 11
-515.227931976318
 21
-114.617015838623
 31
0.0
  0
LINE
  5
   4B7
  8
0
  6
CONTINUOUS
 62
   218
 10
-515.040431976318
 20
-105.367004394531
 30
0.0
 11
-515.227931976318
 21
-105.367004394531
 31
0.0
  0
LINE
  5
   4B8
  8
0
  6
CONTINUOUS
 62
   218
 10
-506.477916717529
 20
-105.367004394531
 30
0.0
 11
-506.477916717529
 21
-114.617015838623
 31
0.0
  0
LINE
  5
   4B9
  8
0
  6
CONTINUOUS
 62
   218
 10
-506.290416717529
 20
-114.617015838623
 30
0.0
 11
-506.477916717529
 21
-114.617015838623
 31
0.0
  0
LINE
  5
   4BA
  8
0
  6
CONTINUOUS
 62
   218
 10
-506.290416717529
 20
-105.367004394531
 30
0.0
 11
-506.477916717529
 21
-105.367004394531
 31
0.0
  0
LINE
  5
   4BB
  8
0
  6
CONTINUOUS
 62
   218
 10
-507.352916717529
 20
-105.367004394531
 30
0.0
 11
-507.352916717529
 21
-114.617015838623
 31
0.0
  0
LINE
  5
   4BC
  8
0
  6
CONTINUOUS
 62
   218
 10
-507.352916717529
 20
-114.617015838623
 30
0.0
 11
-507.540416717529
 21
-114.617015838623
 31
0.0
  0
LINE
  5
   4BD
  8
0
  6
CONTINUOUS
 62
   218
 10
-507.352916717529
 20
-105.367004394531
 30
0.0
 11
-507.540416717529
 21
-105.367004394531
 31
0.0
  0
LINE
  5
   4BE
  8
0
  6
CONTINUOUS
 62
   218
 10
-515.227931976318
 20
-105.367004394531
 30
0.0
 11
-516.102931976318
 21
-105.367004394531
 31
0.0
  0
LINE
  5
   4BF
  8
0
  6
CONTINUOUS
 62
   218
 10
-506.477916717529
 20
-105.367004394531
 30
0.0
 11
-507.352916717529
 21
-105.367004394531
 31
0.0
  0
LINE
  5
   4C0
  8
0
  6
CONTINUOUS
 62
   218
 10
-524.415425300598
 20
-105.367004394531
 30
0.0
 11
-524.415425300598
 21
-114.617015838623
 31
0.0
  0
LINE
  5
   4C1
  8
0
  6
CONTINUOUS
 62
   218
 10
-523.790431976318
 20
-114.617015838623
 30
0.0
 11
-524.415425300598
 21
-114.617015838623
 31
0.0
  0
LINE
  5
   4C2
  8
0
  6
CONTINUOUS
 62
   218
 10
-523.790431976318
 20
-105.367004394531
 30
0.0
 11
-524.415425300598
 21
-105.367004394531
 31
0.0
  0
LINE
  5
   4C3
  8
0
  6
CONTINUOUS
 62
   218
 10
-498.165424346924
 20
-105.367004394531
 30
0.0
 11
-498.165424346924
 21
-114.617015838623
 31
0.0
  0
LINE
  5
   4C4
  8
0
  6
CONTINUOUS
 62
   218
 10
-498.165424346924
 20
-114.617015838623
 30
0.0
 11
-498.790424346924
 21
-114.617015838623
 31
0.0
  0
LINE
  5
   4C5
  8
0
  6
CONTINUOUS
 62
   218
 10
-498.165424346924
 20
-105.367004394531
 30
0.0
 11
-498.790424346924
 21
-105.367004394531
 31
0.0
  0
LINE
  5
   4C6
  8
0
  6
CONTINUOUS
 62
   218
 10
-523.040431976318
 20
-109.992015838623
 30
0.0
 11
-523.040431976318
 21
-114.617015838623
 31
0.0
  0
LINE
  5
   4C7
  8
0
  6
CONTINUOUS
 62
   218
 10
-517.040431976318
 20
-109.992015838623
 30
0.0
 11
-517.040431976318
 21
-114.617015838623
 31
0.0
  0
LINE
  5
   4C8
  8
0
  6
CONTINUOUS
 62
   218
 10
-522.602935791016
 20
-109.992015838623
 30
0.0
 11
-523.040431976318
 21
-109.992015838623
 31
0.0
  0
LINE
  5
   4C9
  8
0
  6
CONTINUOUS
 62
   218
 10
-517.040431976318
 20
-109.992015838623
 30
0.0
 11
-517.477935791016
 21
-109.992015838623
 31
0.0
  0
LINE
  5
   4CA
  8
0
  6
CONTINUOUS
 62
   218
 10
-523.040431976318
 20
-106.117015838623
 30
0.0
 11
-523.040431976318
 21
-109.992015838623
 31
0.0
  0
LINE
  5
   4CB
  8
0
  6
CONTINUOUS
 62
   218
 10
-522.290431976318
 20
-106.117015838623
 30
0.0
 11
-522.290431976318
 21
-109.992015838623
 31
0.0
  0
LINE
  5
   4CC
  8
0
  6
CONTINUOUS
 62
   218
 10
-517.040431976318
 20
-108.367015838623
 30
0.0
 11
-517.040431976318
 21
-109.992015838623
 31
0.0
  0
LINE
  5
   4CD
  8
0
  6
CONTINUOUS
 62
   218
 10
-517.790431976318
 20
-108.367015838623
 30
0.0
 11
-517.790431976318
 21
-109.992015838623
 31
0.0
  0
LINE
  5
   4CE
  8
0
  6
CONTINUOUS
 62
   218
 10
-514.290424346889
 20
-109.99201583854
 30
0.0
 11
-514.290431976284
 21
-114.61701583854
 31
0.0
  0
LINE
  5
   4CF
  8
0
  6
CONTINUOUS
 62
   218
 10
-508.290431976318
 20
-109.992015838623
 30
0.0
 11
-508.290431976318
 21
-114.617015838623
 31
0.0
  0
LINE
  5
   4D0
  8
0
  6
CONTINUOUS
 62
   218
 10
-513.852935791016
 20
-109.992015838623
 30
0.0
 11
-514.290424346924
 21
-109.992015838623
 31
0.0
  0
LINE
  5
   4D1
  8
0
  6
CONTINUOUS
 62
   218
 10
-508.290431976318
 20
-109.992015838623
 30
0.0
 11
-508.727935791016
 21
-109.992015838623
 31
0.0
  0
LINE
  5
   4D2
  8
0
  6
CONTINUOUS
 62
   218
 10
-514.290416717246
 20
-108.367015837918
 30
0.0
 11
-514.290424346641
 21
-109.992015837918
 31
0.0
  0
LINE
  5
   4D3
  8
0
  6
CONTINUOUS
 62
   218
 10
-513.540422439557
 20
-108.367015838579
 30
0.0
 11
-513.540424346906
 21
-109.992015838579
 31
0.0
  0
LINE
  5
   4D4
  8
0
  6
CONTINUOUS
 62
   218
 10
-508.290431976318
 20
-108.367015838623
 30
0.0
 11
-508.290431976318
 21
-109.992015838623
 31
0.0
  0
LINE
  5
   4D5
  8
0
  6
CONTINUOUS
 62
   218
 10
-509.040431976318
 20
-108.367015838623
 30
0.0
 11
-509.040431976318
 21
-109.992015838623
 31
0.0
  0
LINE
  5
   4D6
  8
0
  6
CONTINUOUS
 62
   218
 10
-499.540416717529
 20
-109.992015838623
 30
0.0
 11
-499.540416717529
 21
-114.617015838623
 31
0.0
  0
LINE
  5
   4D7
  8
0
  6
CONTINUOUS
 62
   218
 10
-505.540416717529
 20
-109.992015838623
 30
0.0
 11
-505.540416717529
 21
-114.617015838623
 31
0.0
  0
LINE
  5
   4D8
  8
0
  6
CONTINUOUS
 62
   218
 10
-499.540416717529
 20
-109.992015838623
 30
0.0
 11
-499.977935791016
 21
-109.992015838623
 31
0.0
  0
LINE
  5
   4D9
  8
0
  6
CONTINUOUS
 62
   218
 10
-505.102935791016
 20
-109.992015838623
 30
0.0
 11
-505.540416717529
 21
-109.992015838623
 31
0.0
  0
LINE
  5
   4DA
  8
0
  6
CONTINUOUS
 62
   218
 10
-505.540416717529
 20
-108.367015838623
 30
0.0
 11
-505.540416717529
 21
-109.992015838623
 31
0.0
  0
LINE
  5
   4DB
  8
0
  6
CONTINUOUS
 62
   218
 10
-504.790416717529
 20
-108.367015838623
 30
0.0
 11
-504.790416717529
 21
-109.992015838623
 31
0.0
  0
LINE
  5
   4DC
  8
0
  6
CONTINUOUS
 62
   218
 10
-499.540416717529
 20
-106.117015838623
 30
0.0
 11
-499.540416717529
 21
-109.992015838623
 31
0.0
  0
LINE
  5
   4DD
  8
0
  6
CONTINUOUS
 62
   218
 10
-500.290416717529
 20
-106.117015838623
 30
0.0
 11
-500.290416717529
 21
-109.992015838623
 31
0.0
  0
LINE
  5
   4DE
  8
0
  6
CONTINUOUS
 62
   218
 10
-521.290431976318
 20
-109.992015838623
 30
0.0
 11
-521.290431976318
 21
-110.492015838623
 31
0.0
  0
LINE
  5
   4DF
  8
0
  6
CONTINUOUS
 62
   218
 10
-518.790431976318
 20
-109.992015838623
 30
0.0
 11
-518.790431976318
 21
-110.492015838623
 31
0.0
  0
LINE
  5
   4E0
  8
0
  6
CONTINUOUS
 62
   218
 10
-518.790431976318
 20
-110.492015838623
 30
0.0
 11
-521.290431976318
 21
-110.492015838623
 31
0.0
  0
LINE
  5
   4E1
  8
0
  6
CONTINUOUS
 62
   218
 10
-512.540431976318
 20
-109.992015838623
 30
0.0
 11
-512.540431976318
 21
-110.492015838623
 31
0.0
  0
LINE
  5
   4E2
  8
0
  6
CONTINUOUS
 62
   218
 10
-510.040431976318
 20
-109.992015838623
 30
0.0
 11
-510.040431976318
 21
-110.492015838623
 31
0.0
  0
LINE
  5
   4E3
  8
0
  6
CONTINUOUS
 62
   218
 10
-510.040431976318
 20
-110.492015838623
 30
0.0
 11
-512.540431976318
 21
-110.492015838623
 31
0.0
  0
LINE
  5
   4E4
  8
0
  6
CONTINUOUS
 62
   218
 10
-503.790431976318
 20
-109.992015838623
 30
0.0
 11
-503.790431976318
 21
-110.492015838623
 31
0.0
  0
LINE
  5
   4E5
  8
0
  6
CONTINUOUS
 62
   218
 10
-501.290431976318
 20
-109.992015838623
 30
0.0
 11
-501.290431976318
 21
-110.492015838623
 31
0.0
  0
LINE
  5
   4E6
  8
0
  6
CONTINUOUS
 62
   218
 10
-501.290431976318
 20
-110.492015838623
 30
0.0
 11
-503.790431976318
 21
-110.492015838623
 31
0.0
  0
LINE
  5
   4E7
  8
0
  6
CONTINUOUS
 62
    98
 10
-516.102924346923
 20
-118.367012023924
 30
0.0
 11
-516.10292816162
 21
-133.117012023924
 31
0.0
  0
LINE
  5
   4E8
  8
0
  6
CONTINUOUS
 62
    98
 10
-523.790424346924
 20
-115.117012023926
 30
0.0
 11
-523.790424346924
 21
-133.117012023926
 31
0.0
  0
LINE
  5
   4E9
  8
0
  6
CONTINUOUS
 62
    98
 10
-524.415424346924
 20
-115.117012023926
 30
0.0
 11
-524.415424346924
 21
-133.117012023926
 31
0.0
  0
LINE
  5
   4EA
  8
0
  6
CONTINUOUS
 62
    98
 10
-498.165428161617
 20
-115.117012023921
 30
0.0
 11
-498.165435791012
 21
-133.117012023921
 31
0.0
  0
LINE
  5
   4EB
  8
0
  6
CONTINUOUS
 62
    98
 10
-498.790435791016
 20
-115.117012023926
 30
0.0
 11
-498.790435791016
 21
-133.117012023926
 31
0.0
  0
LINE
  5
   4EC
  8
0
  6
CONTINUOUS
 62
    98
 10
-506.477928161617
 20
-118.36701202392
 30
0.0
 11
-506.477935791011
 21
-133.11701202392
 31
0.0
  0
LINE
  5
   4ED
  8
0
  6
CONTINUOUS
 62
    98
 10
-507.352928161617
 20
-118.36701202392
 30
0.0
 11
-507.352935791011
 21
-133.11701202392
 31
0.0
  0
LINE
  5
   4EE
  8
0
  6
CONTINUOUS
 62
    98
 10
-515.227926254272
 20
-118.367012023925
 30
0.0
 11
-515.227928161621
 21
-133.117012023925
 31
0.0
  0
LINE
  5
   4EF
  8
0
  6
CONTINUOUS
 62
    98
 10
-498.165435791016
 20
-133.117012023926
 30
0.0
 11
-524.415424346924
 21
-133.117012023926
 31
0.0
  0
LINE
  5
   4F0
  8
0
  6
CONTINUOUS
 62
    98
 10
-517.040428161621
 20
-115.117012023926
 30
0.0
 11
-524.415424346924
 21
-115.117012023926
 31
0.0
  0
LINE
  5
   4F1
  8
0
  6
CONTINUOUS
 62
    98
 10
-508.290428161621
 20
-115.117012023926
 30
0.0
 11
-514.290428161621
 21
-115.117012023926
 31
0.0
  0
LINE
  5
   4F2
  8
0
  6
CONTINUOUS
 62
    98
 10
-498.165428161621
 20
-115.117012023926
 30
0.0
 11
-505.540428161621
 21
-115.117012023926
 31
0.0
  0
LINE
  5
   4F3
  8
0
  6
CONTINUOUS
 62
    98
 10
-514.290424346924
 20
-115.117012023926
 30
0.0
 11
-517.040431976318
 21
-115.117012023926
 31
0.0
  0
LINE
  5
   4F4
  8
0
  6
CONTINUOUS
 62
    98
 10
-505.540424346924
 20
-115.117012023926
 30
0.0
 11
-508.290431976318
 21
-115.117012023926
 31
0.0
  0
LINE
  5
   4F5
  8
0
  6
CONTINUOUS
 62
    98
 10
-508.290431976318
 20
-129.617012023926
 30
0.0
 11
-514.290424346924
 21
-129.617012023926
 31
0.0
  0
LINE
  5
   4F6
  8
0
  6
CONTINUOUS
 62
    98
 10
-508.290431976318
 20
-115.117012023926
 30
0.0
 11
-508.290431976318
 21
-129.617012023926
 31
0.0
  0
LINE
  5
   4F7
  8
0
  6
CONTINUOUS
 62
    98
 10
-514.290424346924
 20
-115.117012023926
 30
0.0
 11
-514.290424346924
 21
-129.617011070251
 31
0.0
  0
LINE
  5
   4F8
  8
0
  6
CONTINUOUS
 62
    98
 10
-499.540431976318
 20
-129.617012023926
 30
0.0
 11
-505.540424346924
 21
-129.617012023926
 31
0.0
  0
LINE
  5
   4F9
  8
0
  6
CONTINUOUS
 62
    98
 10
-499.540431976318
 20
-115.117012023926
 30
0.0
 11
-499.540431976318
 21
-129.617012023926
 31
0.0
  0
LINE
  5
   4FA
  8
0
  6
CONTINUOUS
 62
    98
 10
-505.540424346924
 20
-115.117012023926
 30
0.0
 11
-505.540424346924
 21
-129.617011070251
 31
0.0
  0
LINE
  5
   4FB
  8
0
  6
CONTINUOUS
 62
    98
 10
-517.040431976318
 20
-129.617012023926
 30
0.0
 11
-523.040424346924
 21
-129.617012023926
 31
0.0
  0
LINE
  5
   4FC
  8
0
  6
CONTINUOUS
 62
    98
 10
-517.040431976318
 20
-115.117012023926
 30
0.0
 11
-517.040431976318
 21
-129.617012023926
 31
0.0
  0
LINE
  5
   4FD
  8
0
  6
CONTINUOUS
 62
    98
 10
-523.040424346924
 20
-115.117012023926
 30
0.0
 11
-523.040424346924
 21
-129.617011070251
 31
0.0
  0
LINE
  5
   4FE
  8
0
  6
CONTINUOUS
 62
    98
 10
-517.165428161621
 20
-120.992012023926
 30
0.0
 11
-522.915428161621
 21
-120.992012023926
 31
0.0
  0
LINE
  5
   4FF
  8
0
  6
CONTINUOUS
 62
    98
 10
-517.165426254271
 20
-120.992012023923
 30
0.0
 11
-517.16542816162
 21
-115.117012023923
 31
0.0
  0
LINE
  5
   500
  8
0
  6
CONTINUOUS
 62
    98
 10
-522.915428161621
 20
-115.117012023926
 30
0.0
 11
-522.915428161621
 21
-120.992012023926
 31
0.0
  0
LINE
  5
   501
  8
0
  6
CONTINUOUS
 62
    98
 10
-508.415428161621
 20
-120.992012023926
 30
0.0
 11
-514.165428161621
 21
-120.992012023926
 31
0.0
  0
LINE
  5
   502
  8
0
  6
CONTINUOUS
 62
    98
 10
-508.415428161621
 20
-115.117012023926
 30
0.0
 11
-508.415428161621
 21
-120.992012023926
 31
0.0
  0
LINE
  5
   503
  8
0
  6
CONTINUOUS
 62
    98
 10
-514.165428161621
 20
-115.117012023926
 30
0.0
 11
-514.165428161621
 21
-120.992012023926
 31
0.0
  0
LINE
  5
   504
  8
0
  6
CONTINUOUS
 62
    98
 10
-499.665428161621
 20
-120.992012023926
 30
0.0
 11
-505.415428161621
 21
-120.992012023926
 31
0.0
  0
LINE
  5
   505
  8
0
  6
CONTINUOUS
 62
    98
 10
-499.665428161621
 20
-115.117012023926
 30
0.0
 11
-499.665428161621
 21
-120.992012023926
 31
0.0
  0
LINE
  5
   506
  8
0
  6
CONTINUOUS
 62
    98
 10
-505.415428161621
 20
-115.117012023926
 30
0.0
 11
-505.415428161621
 21
-120.992012023926
 31
0.0
  0
LINE
  5
   507
  8
0
  6
CONTINUOUS
 62
    98
 10
-508.415428161621
 20
-119.617012023926
 30
0.0
 11
-514.165428161621
 21
-119.617012023926
 31
0.0
  0
LINE
  5
   508
  8
0
  6
CONTINUOUS
 62
    98
 10
-499.665431976318
 20
-119.617012023926
 30
0.0
 11
-505.415431976318
 21
-119.617012023926
 31
0.0
  0
LINE
  5
   509
  8
0
  6
CONTINUOUS
 62
    98
 10
-517.165428161621
 20
-119.617012023926
 30
0.0
 11
-522.915426254272
 21
-119.617012023926
 31
0.0
  0
LINE
  5
   50A
  8
0
  6
CONTINUOUS
 62
    98
 10
-499.540431976318
 20
-128.992008209229
 30
0.0
 11
-500.647319793701
 21
-128.992008209229
 31
0.0
  0
LINE
  5
   50B
  8
0
  6
CONTINUOUS
 62
    98
 10
-517.040431976318
 20
-129.117012023926
 30
0.0
 11
-517.290428161621
 21
-129.117012023926
 31
0.0
  0
LINE
  5
   50C
  8
0
  6
CONTINUOUS
 62
    98
 10
-514.040428161621
 20
-129.117012023926
 30
0.0
 11
-514.290424346924
 21
-129.117012023926
 31
0.0
  0
LINE
  5
   50D
  8
0
  6
CONTINUOUS
 62
    98
 10
-508.290431976318
 20
-129.117012023926
 30
0.0
 11
-508.540435791016
 21
-129.117012023926
 31
0.0
  0
LINE
  5
   50E
  8
0
  6
CONTINUOUS
 62
    98
 10
-505.290435791016
 20
-129.117012023926
 30
0.0
 11
-505.540424346924
 21
-129.117012023926
 31
0.0
  0
LINE
  5
   50F
  8
0
  6
CONTINUOUS
 62
    98
 10
-521.933540344238
 20
-128.992008209229
 30
0.0
 11
-523.040424346924
 21
-128.992008209229
 31
0.0
  0
LINE
  5
   510
  8
0
  6
CONTINUOUS
 62
    98
 10
-508.290431976318
 20
-120.992012023926
 30
0.0
 11
-508.415428161621
 21
-120.992012023926
 31
0.0
  0
LINE
  5
   511
  8
0
  6
CONTINUOUS
 62
    98
 10
-514.165428161621
 20
-120.992012023926
 30
0.0
 11
-514.290426254273
 21
-120.992012023926
 31
0.0
  0
LINE
  5
   512
  8
0
  6
CONTINUOUS
 62
    98
 10
-508.040428161621
 20
-114.617012023926
 30
0.0
 11
-508.040428161621
 21
-115.117012023926
 31
0.0
  0
LINE
  5
   513
  8
0
  6
CONTINUOUS
 62
    98
 10
-514.540428161621
 20
-114.617012023926
 30
0.0
 11
-514.540428161621
 21
-115.117012023926
 31
0.0
  0
LINE
  5
   514
  8
0
  6
CONTINUOUS
 62
    98
 10
-517.04043006897
 20
-120.992012023926
 30
0.0
 11
-517.165428161621
 21
-120.992012023926
 31
0.0
  0
LINE
  5
   515
  8
0
  6
CONTINUOUS
 62
    98
 10
-522.915428161621
 20
-120.992012023926
 30
0.0
 11
-523.040424346924
 21
-120.992012023926
 31
0.0
  0
LINE
  5
   516
  8
0
  6
CONTINUOUS
 62
    98
 10
-516.790428161621
 20
-114.617012023926
 30
0.0
 11
-516.790428161621
 21
-115.117012023926
 31
0.0
  0
LINE
  5
   517
  8
0
  6
CONTINUOUS
 62
    98
 10
-499.540431976318
 20
-120.992012023926
 30
0.0
 11
-499.665428161621
 21
-120.992012023926
 31
0.0
  0
LINE
  5
   518
  8
0
  6
CONTINUOUS
 62
    98
 10
-505.415428161621
 20
-120.992012023926
 30
0.0
 11
-505.540424346924
 21
-120.992012023926
 31
0.0
  0
LINE
  5
   519
  8
0
  6
CONTINUOUS
 62
    98
 10
-505.790428161621
 20
-114.617012023926
 30
0.0
 11
-505.790428161621
 21
-115.117012023926
 31
0.0
  0
LINE
  5
   51A
  8
0
  6
CONTINUOUS
 62
    98
 10
-515.040424346924
 20
-115.117012023926
 30
0.0
 11
-515.040424346924
 21
-118.367012023926
 31
0.0
  0
LINE
  5
   51B
  8
0
  6
CONTINUOUS
 62
    98
 10
-515.040424346924
 20
-118.367012023926
 30
0.0
 11
-515.227926254273
 21
-118.367012023926
 31
0.0
  0
LINE
  5
   51C
  8
0
  6
CONTINUOUS
 62
    98
 10
-516.290420532227
 20
-115.117012023926
 30
0.0
 11
-516.290420532227
 21
-118.367012023926
 31
0.0
  0
LINE
  5
   51D
  8
0
  6
CONTINUOUS
 62
    98
 10
-516.102924346924
 20
-118.367012023926
 30
0.0
 11
-516.290420532227
 21
-118.367012023926
 31
0.0
  0
LINE
  5
   51E
  8
0
  6
CONTINUOUS
 62
    98
 10
-507.540424346924
 20
-115.117012023926
 30
0.0
 11
-507.540424346924
 21
-118.367012023926
 31
0.0
  0
LINE
  5
   51F
  8
0
  6
CONTINUOUS
 62
    98
 10
-507.352928161621
 20
-118.367012023926
 30
0.0
 11
-507.540424346924
 21
-118.367012023926
 31
0.0
  0
LINE
  5
   520
  8
0
  6
CONTINUOUS
 62
    98
 10
-506.290424346924
 20
-115.117012023926
 30
0.0
 11
-506.290424346924
 21
-118.367012023926
 31
0.0
  0
LINE
  5
   521
  8
0
  6
CONTINUOUS
 62
    98
 10
-506.290424346924
 20
-118.367012023926
 30
0.0
 11
-506.477928161621
 21
-118.367012023926
 31
0.0
  0
LINE
  5
   522
  8
0
  6
CONTINUOUS
 62
     7
 10
-509.303298950195
 20
-133.117012023926
 30
0.0
 11
-509.303298950195
 21
-138.526533126831
 31
0.0
  0
LINE
  5
   523
  8
0
  6
CONTINUOUS
 62
     7
 10
-518.053295135498
 20
-133.117012023926
 30
0.0
 11
-518.053295135498
 21
-138.526533126831
 31
0.0
  0
LINE
  5
   524
  8
0
  6
CONTINUOUS
 62
     7
 10
-500.55330657959
 20
-133.117012023926
 30
0.0
 11
-500.55330657959
 21
-138.526533126831
 31
0.0
  0
LINE
  5
   525
  8
0
  6
CONTINUOUS
 62
     7
 10
-498.79044342041
 20
-139.367012143135
 30
0.0
 11
-523.790431976318
 21
-139.367012143135
 31
0.0
  0
LINE
  5
   526
  8
0
  6
CONTINUOUS
 62
     7
 10
-523.790431976318
 20
-133.117012023926
 30
0.0
 11
-523.790431976318
 21
-139.367012023926
 31
0.0
  0
LINE
  5
   527
  8
0
  6
CONTINUOUS
 62
     7
 10
-498.79044342041
 20
-133.117012023926
 30
0.0
 11
-498.79044342041
 21
-139.367012023926
 31
0.0
  0
LINE
  5
   528
  8
0
  6
CONTINUOUS
 62
     7
 10
-499.79044342041
 20
-138.617012143135
 30
0.0
 11
-501.040447235108
 21
-138.617012143135
 31
0.0
  0
LINE
  5
   529
  8
0
  6
CONTINUOUS
 62
     7
 10
-504.04044342041
 20
-138.617012143135
 30
0.0
 11
-505.29044342041
 21
-138.617012143135
 31
0.0
  0
LINE
  5
   52A
  8
0
  6
CONTINUOUS
 62
     7
 10
-499.790443414245
 20
-136.617012262051
 30
0.0
 11
-500.553306573425
 21
-136.617002725308
 31
0.0
  0
LINE
  5
   52B
  8
0
  6
CONTINUOUS
 62
     7
 10
-504.527572626107
 20
-136.617002963711
 30
0.0
 11
-505.251705163948
 21
-136.617012262035
 31
0.0
  0
LINE
  5
   52C
  8
0
  6
CONTINUOUS
 62
     7
 10
-499.79044342041
 20
-133.117012023926
 30
0.0
 11
-499.79044342041
 21
-138.617012023926
 31
0.0
  0
LINE
  5
   52D
  8
0
  6
CONTINUOUS
 62
     7
 10
-505.040439605692
 20
-136.617012262336
 30
0.0
 11
-505.040443420389
 21
-133.117012023917
 31
0.0
  0
LINE
  5
   52E
  8
0
  6
CONTINUOUS
 62
     7
 10
-505.179481506348
 20
-133.117012023926
 30
0.0
 11
-505.179481506348
 21
-136.61700797081
 31
0.0
  0
LINE
  5
   52F
  8
0
  6
CONTINUOUS
 62
     7
 10
-505.29044342041
 20
-133.117012023926
 30
0.0
 11
-505.29044342041
 21
-138.617012023926
 31
0.0
  0
LINE
  5
   530
  8
0
  6
CONTINUOUS
 62
     7
 10
-508.540439605713
 20
-138.617012143135
 30
0.0
 11
-509.790439605713
 21
-138.617012143135
 31
0.0
  0
LINE
  5
   531
  8
0
  6
CONTINUOUS
 62
     7
 10
-512.790435791016
 20
-138.617012143135
 30
0.0
 11
-514.040435791016
 21
-138.617012143135
 31
0.0
  0
LINE
  5
   532
  8
0
  6
CONTINUOUS
 62
     7
 10
-508.57917975847
 20
-136.617012262019
 30
0.0
 11
-509.30330085222
 21
-136.617002725276
 31
0.0
  0
LINE
  5
   533
  8
0
  6
CONTINUOUS
 62
     7
 10
-513.277563090744
 20
-136.617002963706
 30
0.0
 11
-513.996597285691
 21
-136.617012262031
 31
0.0
  0
LINE
  5
   534
  8
0
  6
CONTINUOUS
 62
     7
 10
-514.040435791016
 20
-133.117012023926
 30
0.0
 11
-514.040435791016
 21
-138.617012023926
 31
0.0
  0
LINE
  5
   535
  8
0
  6
CONTINUOUS
 62
     7
 10
-513.415431971202
 20
-133.117012021135
 30
0.0
 11
-513.415500635751
 21
-136.617012259554
 31
0.0
  0
LINE
  5
   536
  8
0
  6
CONTINUOUS
 62
     7
 10
-509.165439604231
 20
-133.117012023565
 30
0.0
 11
-509.165473936505
 21
-136.617012261984
 31
0.0
  0
LINE
  5
   537
  8
0
  6
CONTINUOUS
 62
     7
 10
-508.651405334473
 20
-133.117012023926
 30
0.0
 11
-508.651405334473
 21
-136.61700797081
 31
0.0
  0
LINE
  5
   538
  8
0
  6
CONTINUOUS
 62
     7
 10
-508.540439605713
 20
-133.117012023926
 30
0.0
 11
-508.540439605713
 21
-138.617012023926
 31
0.0
  0
LINE
  5
   539
  8
0
  6
CONTINUOUS
 62
     7
 10
-509.1654872884
 20
-133.117011546838
 30
0.0
 11
-509.165515898628
 21
-136.617012262094
 31
0.0
  0
LINE
  5
   53A
  8
0
  6
CONTINUOUS
 62
     7
 10
-517.290431976318
 20
-138.617012143135
 30
0.0
 11
-518.540435791016
 21
-138.617012143135
 31
0.0
  0
LINE
  5
   53B
  8
0
  6
CONTINUOUS
 62
     7
 10
-521.540431976318
 20
-138.617012143135
 30
0.0
 11
-522.790431976318
 21
-138.617012143135
 31
0.0
  0
LINE
  5
   53C
  8
0
  6
CONTINUOUS
 62
     7
 10
-517.329168315896
 20
-136.617012262019
 30
0.0
 11
-518.05329703904
 21
-136.617002725276
 31
0.0
  0
LINE
  5
   53D
  8
0
  6
CONTINUOUS
 62
     7
 10
-522.027559277706
 20
-136.617002725308
 30
0.0
 11
-522.790431973629
 21
-136.617012262051
 31
0.0
  0
LINE
  5
   53E
  8
0
  6
CONTINUOUS
 62
     7
 10
-522.790431976318
 20
-133.117012023926
 30
0.0
 11
-522.790431976318
 21
-138.617012023926
 31
0.0
  0
LINE
  5
   53F
  8
0
  6
CONTINUOUS
 62
     7
 10
-517.540431976305
 20
-133.117012023921
 30
0.0
 11
-517.540435791002
 21
-136.61701226234
 31
0.0
  0
LINE
  5
   540
  8
0
  6
CONTINUOUS
 62
     7
 10
-517.401393890381
 20
-133.117012023926
 30
0.0
 11
-517.401393890381
 21
-136.61700797081
 31
0.0
  0
LINE
  5
   541
  8
0
  6
CONTINUOUS
 62
     7
 10
-517.290431976318
 20
-133.117012023926
 30
0.0
 11
-517.290431976318
 21
-138.617012023926
 31
0.0
  0
LINE
  5
   542
  8
0
  6
CONTINUOUS
 62
     7
 10
-524.415432929904
 20
-133.117012023834
 30
0.0
 11
-524.415435790927
 21
-132.267012596039
 31
0.0
  0
LINE
  5
   543
  8
0
  6
CONTINUOUS
 62
     7
 10
-498.790435787388
 20
-138.667012095152
 30
0.0
 11
-498.790443416783
 21
-139.242012142836
 31
0.0
  0
LINE
  5
   544
  8
0
  6
CONTINUOUS
 62
     7
 10
-523.790428161532
 20
-139.242012143116
 30
0.0
 11
-523.790430068881
 21
-138.667012095433
 31
0.0
  0
LINE
  5
   545
  8
0
  6
CONTINUOUS
 62
     7
 10
-506.165435791016
 20
-138.617012143135
 30
0.0
 11
-507.665431976318
 21
-138.617012143135
 31
0.0
  0
LINE
  5
   546
  8
0
  6
CONTINUOUS
 62
     7
 10
-507.665431976318
 20
-133.117012023926
 30
0.0
 11
-507.665431976318
 21
-139.367012023926
 31
0.0
  0
LINE
  5
   547
  8
0
  6
CONTINUOUS
 62
     7
 10
-506.165435791016
 20
-133.117012023926
 30
0.0
 11
-506.165435791016
 21
-139.367012023926
 31
0.0
  0
LINE
  5
   548
  8
0
  6
CONTINUOUS
 62
     7
 10
-514.915435791016
 20
-138.617012143135
 30
0.0
 11
-516.415431976318
 21
-138.617012143135
 31
0.0
  0
LINE
  5
   549
  8
0
  6
CONTINUOUS
 62
     7
 10
-514.915435791016
 20
-133.117012023926
 30
0.0
 11
-514.915435791016
 21
-139.367012023926
 31
0.0
  0
LINE
  5
   54A
  8
0
  6
CONTINUOUS
 62
     7
 10
-516.415431976318
 20
-133.117012023926
 30
0.0
 11
-516.415431976318
 21
-139.367012023926
 31
0.0
  0
LINE
  5
   54B
  8
0
  6
CONTINUOUS
 62
     7
 10
-524.415437697883
 20
-133.117012023426
 30
0.0
 11
-524.415444373604
 21
-132.267012595631
 31
0.0
  0
LINE
  5
   54C
  8
0
  6
CONTINUOUS
 62
     7
 10
-498.60293507923
 20
-138.66701261299
 30
0.0
 11
-498.653247119654
 21
-139.242012172289
 31
0.0
  0
LINE
  5
   54D
  8
0
  6
CONTINUOUS
 62
     7
 10
-523.927621048256
 20
-139.242012220665
 30
0.0
 11
-523.977931184651
 21
-138.667012064274
 31
0.0
  0
LINE
  5
   54E
  8
0
  6
CONTINUOUS
 62
     7
 10
-498.165431976318
 20
-133.117012023926
 30
0.0
 11
-498.165431976318
 21
-138.667012214661
 31
0.0
  0
LINE
  5
   54F
  8
0
  6
CONTINUOUS
 62
     7
 10
-498.165431976318
 20
-138.667012095451
 30
0.0
 11
-498.790431976318
 21
-138.667012095451
 31
0.0
  0
LINE
  5
   550
  8
0
  6
CONTINUOUS
 62
     7
 10
-524.415431976318
 20
-133.117012023926
 30
0.0
 11
-524.415431976318
 21
-138.667012214661
 31
0.0
  0
LINE
  5
   551
  8
0
  6
CONTINUOUS
 62
     7
 10
-523.790431976318
 20
-138.667012095451
 30
0.0
 11
-524.415431976318
 21
-138.667012095451
 31
0.0
  0
LINE
  5
   552
  8
0
  6
CONTINUOUS
 62
   212
 10
-498.165435791016
 20
-138.867012023926
 30
0.0
 11
-498.165435791016
 21
-139.992012023926
 31
0.0
  0
LINE
  5
   553
  8
0
  6
CONTINUOUS
 62
   212
 10
-523.971370697022
 20
-138.742012023926
 30
0.0
 11
-524.165435791016
 21
-138.742012023926
 31
0.0
  0
LINE
  5
   554
  8
0
  6
CONTINUOUS
 62
   212
 10
-498.415435791016
 20
-138.742012023926
 30
0.0
 11
-498.602935791016
 21
-138.742012023926
 31
0.0
  0
LINE
  5
   555
  8
0
  6
CONTINUOUS
 62
   212
 10
-524.415435791016
 20
-138.867012053728
 30
0.0
 11
-524.415435791016
 21
-139.992012053728
 31
0.0
  0
LINE
  5
   556
  8
0
  6
CONTINUOUS
 62
   212
 10
-498.477935791016
 20
-139.992012023926
 30
0.0
 11
-524.102935791016
 21
-139.992012023926
 31
0.0
  0
LINE
  5
   557
  8
0
  6
CONTINUOUS
 62
   212
 10
-524.415435791016
 20
-139.992012053728
 30
0.0
 11
-524.415435791016
 21
-140.429512053728
 31
0.0
  0
LINE
  5
   558
  8
0
  6
CONTINUOUS
 62
   212
 10
-498.165435791016
 20
-139.992012053728
 30
0.0
 11
-498.165435791016
 21
-140.429512053728
 31
0.0
  0
LINE
  5
   559
  8
0
  6
CONTINUOUS
 62
   212
 10
-498.602933616449
 20
-138.74201178817
 30
0.0
 11
-498.64667675179
 21
-139.242011911853
 31
0.0
  0
LINE
  5
   55A
  8
0
  6
CONTINUOUS
 62
   212
 10
-523.934191511268
 20
-139.242012830525
 30
0.0
 11
-523.977932736965
 21
-138.74201223091
 31
0.0
  0
LINE
  5
   55B
  8
0
  6
CONTINUOUS
 62
   212
 10
-498.646678924561
 20
-139.242012262344
 30
0.0
 11
-498.79044342041
 21
-139.242012262344
 31
0.0
  0
LINE
  5
   55C
  8
0
  6
CONTINUOUS
 62
   212
 10
-523.790431976318
 20
-139.242012739182
 30
0.0
 11
-523.934190750122
 21
-139.242012739182
 31
0.0
  0
LINE
  5
   55D
  8
0
  6
CONTINUOUS
 62
   212
 10
-498.602935791016
 20
-138.742012858391
 30
0.0
 11
-498.609493255615
 21
-138.742012858391
 31
0.0
  0
LINE
  5
   55E
  8
0
  6
CONTINUOUS
 62
   212
 10
-498.183743791647
 20
-140.473706463139
 30
0.0
 11
-498.227937058448
 21
-140.492012294416
 31
0.0
  0
LINE
  5
   55F
  8
0
  6
CONTINUOUS
 62
   212
 10
-498.165435393148
 20
-140.429511931931
 30
0.0
 11
-498.18374212542
 21
-140.473706100983
 31
0.0
  0
LINE
  5
   560
  8
0
  6
CONTINUOUS
 62
   212
 10
-524.352934471432
 20
-140.492012311558
 30
0.0
 11
-524.397128693038
 21
-140.473706480275
 31
0.0
  0
LINE
  5
   561
  8
0
  6
CONTINUOUS
 62
   212
 10
-524.397130120886
 20
-140.473706187844
 30
0.0
 11
-524.415435899421
 21
-140.429512019636
 31
0.0
  0
LINE
  5
   562
  8
0
  6
CONTINUOUS
 62
   212
 10
-524.102935462043
 20
-139.992012082137
 30
0.0
 11
-524.32390656663
 21
-139.900482948533
 31
0.0
  0
LINE
  5
   563
  8
0
  6
CONTINUOUS
 62
   212
 10
-524.323906235635
 20
-139.900483055705
 30
0.0
 11
-524.415435128312
 21
-139.679512183198
 31
0.0
  0
LINE
  5
   564
  8
0
  6
CONTINUOUS
 62
   212
 10
-498.256965903272
 20
-139.900482945468
 30
0.0
 11
-498.477936053052
 21
-139.992012077646
 31
0.0
  0
LINE
  5
   565
  8
0
  6
CONTINUOUS
 62
   212
 10
-498.16543501303
 20
-139.679511764645
 30
0.0
 11
-498.256964860864
 21
-139.900482639177
 31
0.0
  0
LINE
  5
   566
  8
0
  6
CONTINUOUS
 62
   212
 10
-498.165435791016
 20
-138.867012023926
 30
0.0
 11
-498.415435791016
 21
-138.867012023926
 31
0.0
  0
LINE
  5
   567
  8
0
  6
CONTINUOUS
 62
   212
 10
-498.415435791016
 20
-138.742012023926
 30
0.0
 11
-498.415435791016
 21
-138.867012023926
 31
0.0
  0
LINE
  5
   568
  8
0
  6
CONTINUOUS
 62
   212
 10
-524.165435791016
 20
-138.867012023926
 30
0.0
 11
-524.415435791016
 21
-138.867012023926
 31
0.0
  0
LINE
  5
   569
  8
0
  6
CONTINUOUS
 62
   212
 10
-524.165435791016
 20
-138.742012023926
 30
0.0
 11
-524.165435791016
 21
-138.867012023926
 31
0.0
  0
LINE
  5
   56A
  8
0
  6
CONTINUOUS
 62
    98
 10
-501.915428161621
 20
-119.617012023926
 30
0.0
 11
-501.915428161621
 21
-119.729476928711
 31
0.0
  0
LINE
  5
   56B
  8
0
  6
CONTINUOUS
 62
    98
 10
-503.915428161621
 20
-119.617012023926
 30
0.0
 11
-503.915428161621
 21
-119.729476928711
 31
0.0
  0
LINE
  5
   56C
  8
0
  6
CONTINUOUS
 62
    98
 10
-510.290424346924
 20
-119.617012023926
 30
0.0
 11
-510.290424346924
 21
-119.729476928711
 31
0.0
  0
LINE
  5
   56D
  8
0
  6
CONTINUOUS
 62
    98
 10
-512.290424346924
 20
-119.617012023926
 30
0.0
 11
-512.290424346924
 21
-119.729476928711
 31
0.0
  0
LINE
  5
   56E
  8
0
  6
CONTINUOUS
 62
    98
 10
-518.665424346924
 20
-119.617012023926
 30
0.0
 11
-518.665424346924
 21
-119.729476928711
 31
0.0
  0
LINE
  5
   56F
  8
0
  6
CONTINUOUS
 62
    98
 10
-520.665424346924
 20
-119.617012023926
 30
0.0
 11
-520.665424346924
 21
-119.729476928711
 31
0.0
  0
LINE
  5
   570
  8
0
  6
CONTINUOUS
 62
   210
 10
-498.727931976318
 20
-114.992015838623
 30
0.0
 11
-498.727931976318
 21
-115.117012023926
 31
0.0
  0
LINE
  5
   571
  8
0
  6
CONTINUOUS
 62
   210
 10
-523.852931976318
 20
-114.992015838623
 30
0.0
 11
-523.852931976318
 21
-115.117012023926
 31
0.0
  0
LINE
  5
   572
  8
0
  6
CONTINUOUS
 62
   210
 10
-516.790428161621
 20
-114.992015838623
 30
0.0
 11
-523.852931976318
 21
-114.992015838623
 31
0.0
  0
LINE
  5
   573
  8
0
  6
CONTINUOUS
 62
   210
 10
-508.040428161621
 20
-114.992015838623
 30
0.0
 11
-514.540428161621
 21
-114.992015838623
 31
0.0
  0
LINE
  5
   574
  8
0
  6
CONTINUOUS
 62
   210
 10
-498.727931976318
 20
-114.992015838623
 30
0.0
 11
-505.790428161621
 21
-114.992015838623
 31
0.0
  0
LINE
  5
   575
  8
0
  6
CONTINUOUS
 62
   130
 10
-490.790424346924
 20
-103.242008209229
 30
0.0
 11
-498.165431976318
 21
-103.242008209229
 31
0.0
  0
LINE
  5
   576
  8
0
  6
CONTINUOUS
 62
   130
 10
-497.915424346924
 20
-114.117017745972
 30
0.0
 11
-498.165424346924
 21
-114.117017745972
 31
0.0
  0
LINE
  5
   577
  8
0
  6
CONTINUOUS
 62
   130
 10
-498.165431976318
 20
-103.242008209229
 30
0.0
 11
-498.165431976318
 21
-105.367004394531
 31
0.0
  0
LINE
  5
   578
  8
0
  6
CONTINUOUS
 62
   130
 10
-490.540428161621
 20
-146.992000579834
 30
0.0
 11
-490.790424346924
 21
-146.992000579834
 31
0.0
  0
LINE
  5
   579
  8
0
  6
CONTINUOUS
 62
   130
 10
-490.790424346924
 20
-146.992000579834
 30
0.0
 11
-491.540424346924
 21
-146.992000579834
 31
0.0
  0
LINE
  5
   57A
  8
0
  6
CONTINUOUS
 62
   130
 10
-497.915428159444
 20
-115.117015836088
 30
0.0
 11
-497.915435788838
 21
-115.867023465482
 31
0.0
  0
LINE
  5
   57B
  8
0
  6
CONTINUOUS
 62
   130
 10
-497.915424346924
 20
-114.117017745972
 30
0.0
 11
-497.915424346924
 21
-115.117015838623
 31
0.0
  0
LINE
  5
   57C
  8
0
  6
CONTINUOUS
 62
   130
 10
-497.915424346924
 20
-115.117015838623
 30
0.0
 11
-497.915424346924
 21
-145.992000579834
 31
0.0
  0
LINE
  5
   57D
  8
0
  6
CONTINUOUS
 62
   130
 10
-497.915424346924
 20
-145.992000579834
 30
0.0
 11
-497.915424346924
 21
-146.992000579834
 31
0.0
  0
LINE
  5
   57E
  8
0
  6
CONTINUOUS
 62
   130
 10
-491.540424346924
 20
-146.992000579834
 30
0.0
 11
-497.915424346924
 21
-146.992000579834
 31
0.0
  0
LINE
  5
   57F
  8
0
  6
CONTINUOUS
 62
   130
 10
-490.540424346924
 20
-103.242008209228
 30
0.0
 11
-490.540428161621
 21
-146.992000579834
 31
0.0
  0
LINE
  5
   580
  8
0
  6
CONTINUOUS
 62
   130
 10
-490.290428161621
 20
-141.492020130157
 30
0.0
 11
-490.290428161621
 21
-146.492020130157
 31
0.0
  0
LINE
  5
   581
  8
0
  6
CONTINUOUS
 62
   130
 10
-497.915565490498
 20
-143.491997003626
 30
0.0
 11
-497.915576934589
 21
-146.991997718882
 31
0.0
  0
LINE
  5
   582
  8
0
  6
CONTINUOUS
 62
   130
 10
-497.165504455289
 20
-146.991999626181
 30
0.0
 11
-497.915576934538
 21
-146.991997718832
 31
0.0
  0
LINE
  5
   583
  8
0
  6
CONTINUOUS
 62
   130
 10
-490.540424346924
 20
-103.242008209229
 30
0.0
 11
-490.790424346924
 21
-103.242008209229
 31
0.0
  0
LINE
  5
   584
  8
0
  6
CONTINUOUS
 62
    52
 10
-498.165437569967
 20
-140.492014640551
 30
0.0
 11
-498.219499460061
 21
-142.438191609198
 31
0.0
  0
LINE
  5
   585
  8
0
  6
CONTINUOUS
 62
    52
 10
-498.165435791016
 20
-140.492014601827
 30
0.0
 11
-524.415435791016
 21
-140.492014601827
 31
0.0
  0
LINE
  5
   586
  8
0
  6
CONTINUOUS
 62
   130
 10
-523.477934371511
 20
-142.742012648851
 30
0.0
 11
-523.47871447712
 21
-142.741689353256
 31
0.0
  0
LINE
  5
   587
  8
0
  6
CONTINUOUS
 62
    98
 10
-500.290428161621
 20
-120.367012023926
 30
0.0
 11
-505.415428161621
 21
-120.367012023926
 31
0.0
  0
LINE
  5
   588
  8
0
  6
CONTINUOUS
 62
    98
 10
-501.040428161621
 20
-120.367012023926
 30
0.0
 11
-501.040428161621
 21
-120.992012023926
 31
0.0
  0
LINE
  5
   589
  8
0
  6
CONTINUOUS
 62
    98
 10
-502.165435791016
 20
-120.367012023926
 30
0.0
 11
-502.165435791016
 21
-120.992012023926
 31
0.0
  0
LINE
  5
   58A
  8
0
  6
CONTINUOUS
 62
    98
 10
-503.665435791016
 20
-120.367012023926
 30
0.0
 11
-503.665435791016
 21
-120.992012023926
 31
0.0
  0
LINE
  5
   58B
  8
0
  6
CONTINUOUS
 62
    98
 10
-508.790428161621
 20
-120.367012023926
 30
0.0
 11
-513.790428161621
 21
-120.367012023926
 31
0.0
  0
LINE
  5
   58C
  8
0
  6
CONTINUOUS
 62
    98
 10
-513.790428161621
 20
-120.367012023926
 30
0.0
 11
-513.790428161621
 21
-120.992012023926
 31
0.0
  0
LINE
  5
   58D
  8
0
  6
CONTINUOUS
 62
    98
 10
-508.790428161621
 20
-120.367012023926
 30
0.0
 11
-508.790428161621
 21
-120.992012023926
 31
0.0
  0
LINE
  5
   58E
  8
0
  6
CONTINUOUS
 62
    98
 10
-510.540431976318
 20
-120.367012023926
 30
0.0
 11
-510.540431976318
 21
-120.992012023926
 31
0.0
  0
LINE
  5
   58F
  8
0
  6
CONTINUOUS
 62
    98
 10
-512.040431976318
 20
-120.367012023926
 30
0.0
 11
-512.040431976318
 21
-120.992012023926
 31
0.0
  0
LINE
  5
   590
  8
0
  6
CONTINUOUS
 62
    98
 10
-517.165426254273
 20
-120.367012023926
 30
0.0
 11
-522.29043006897
 21
-120.367012023926
 31
0.0
  0
LINE
  5
   591
  8
0
  6
CONTINUOUS
 62
    98
 10
-521.54043006897
 20
-120.367012023926
 30
0.0
 11
-521.54043006897
 21
-120.992012023926
 31
0.0
  0
LINE
  5
   592
  8
0
  6
CONTINUOUS
 62
    98
 10
-520.415424346924
 20
-120.367012023926
 30
0.0
 11
-520.415424346924
 21
-120.992012023926
 31
0.0
  0
LINE
  5
   593
  8
0
  6
CONTINUOUS
 62
    98
 10
-518.915424346924
 20
-120.367012023926
 30
0.0
 11
-518.915424346924
 21
-120.992012023926
 31
0.0
  0
LINE
  5
   594
  8
0
  6
CONTINUOUS
 62
    98
 10
-520.040424346924
 20
-114.617012023926
 30
0.0
 11
-520.040424346924
 21
-114.992015838623
 31
0.0
  0
LINE
  5
   595
  8
0
  6
CONTINUOUS
 62
    98
 10
-522.540435791016
 20
-114.617012023926
 30
0.0
 11
-522.540435791016
 21
-114.992015838623
 31
0.0
  0
LINE
  5
   596
  8
0
  6
CONTINUOUS
 62
    98
 10
-520.040424346924
 20
-114.617012023926
 30
0.0
 11
-522.040431976318
 21
-114.617012023926
 31
0.0
  0
LINE
  5
   597
  8
0
  6
CONTINUOUS
 62
    98
 10
-502.540435791016
 20
-114.617012023926
 30
0.0
 11
-502.540435791016
 21
-114.992015838623
 31
0.0
  0
LINE
  5
   598
  8
0
  6
CONTINUOUS
 62
    98
 10
-500.040424346924
 20
-114.617012023926
 30
0.0
 11
-500.040424346924
 21
-114.992015838623
 31
0.0
  0
LINE
  5
   599
  8
0
  6
CONTINUOUS
 62
    98
 10
-500.54044342041
 20
-114.617012023926
 30
0.0
 11
-502.540435791016
 21
-114.617012023926
 31
0.0
  0
LINE
  5
   59A
  8
0
  6
CONTINUOUS
 62
     3
 10
-523.515424728394
 20
-114.617015838623
 30
0.0
 11
-523.515424728394
 21
-114.992015838623
 31
0.0
  0
LINE
  5
   59B
  8
0
  6
CONTINUOUS
 62
     3
 10
-522.765424728394
 20
-114.617015838623
 30
0.0
 11
-522.765424728394
 21
-114.992015838623
 31
0.0
  0
LINE
  5
   59C
  8
0
  6
CONTINUOUS
 62
     3
 10
-521.265420913696
 20
-114.453699111939
 30
0.0
 11
-522.040431976318
 21
-114.453699111939
 31
0.0
  0
LINE
  5
   59D
  8
0
  6
CONTINUOUS
 62
     3
 10
-521.265419006299
 20
-113.617015838484
 30
0.0
 11
-521.265420913648
 21
-114.453699111799
 31
0.0
  0
LINE
  5
   59E
  8
0
  6
CONTINUOUS
 62
   130
 10
-513.431259569154
 20
-98.9908348551519
 30
0.0
 11
-513.775549343241
 21
-96.2710740142078
 31
0.0
  0
LINE
  5
   59F
  8
0
  6
CONTINUOUS
 62
   130
 10
-513.77554874357
 20
-96.2710716082137
 30
0.0
 11
-513.823381231798
 21
-95.8932105889176
 31
0.0
  0
LINE
  5
   5A0
  8
0
  6
CONTINUOUS
 62
   130
 10
-513.823380842357
 20
-95.8932085195903
 30
0.0
 11
-514.373153078776
 21
-91.5502100064029
 31
0.0
  0
LINE
  5
   5A1
  8
0
  6
CONTINUOUS
 62
   130
 10
-517.748757951376
 20
-90.3647559647517
 30
0.0
 11
-524.213589392601
 21
-96.6262228333606
 31
0.0
  0
LINE
  5
   5A2
  8
0
  6
CONTINUOUS
 62
   130
 10
-524.561768158957
 20
-98.6533211293377
 30
0.0
 11
-524.658133131652
 21
-97.892067768049
 31
0.0
  0
LINE
  5
   5A3
  8
0
  6
CONTINUOUS
 62
   130
 10
-523.373206049997
 20
-99.1898663647271
 30
0.0
 11
-524.133459015638
 21
-99.0859234961076
 31
0.0
  0
LINE
  5
   5A4
  8
0
  6
CONTINUOUS
 62
   130
 10
-520.595611834828
 20
-98.133787359375
 30
0.0
 11
-521.412044783283
 21
-98.2371389467163
 31
0.0
  0
LINE
  5
   5A5
  8
0
  6
CONTINUOUS
 62
   130
 10
-518.36343251306
 20
-97.8512271751802
 30
0.0
 11
-520.595617809874
 21
-98.1337932489043
 31
0.0
  0
LINE
  5
   5A6
  8
0
  6
CONTINUOUS
 62
   130
 10
-518.071519754664
 20
-97.8718165559117
 30
0.0
 11
-518.363429918563
 21
-97.8512248196079
 31
0.0
  0
LINE
  5
   5A7
  8
0
  6
CONTINUOUS
 62
   130
 10
-517.809708737289
 20
-98.0025502145487
 30
0.0
 11
-518.071519034592
 21
-97.8718167259715
 31
0.0
  0
LINE
  5
   5A8
  8
0
  6
CONTINUOUS
 62
   130
 10
-517.617858180337
 20
-98.2235185463938
 30
0.0
 11
-517.809706935298
 21
-98.0025445707195
 31
0.0
  0
LINE
  5
   5A9
  8
0
  6
CONTINUOUS
 62
   130
 10
-517.52517571776
 20
-98.5010986325586
 30
0.0
 11
-517.617859508624
 21
-98.2235259974649
 31
0.0
  0
LINE
  5
   5AA
  8
0
  6
CONTINUOUS
 62
   130
 10
-517.512791619716
 20
-98.5989308267073
 30
0.0
 11
-517.525176034509
 21
-98.5010991017015
 31
0.0
  0
LINE
  5
   5AB
  8
0
  6
CONTINUOUS
 62
   130
 10
-517.399589499959
 20
-99.4931753073993
 30
0.0
 11
-517.512790637695
 21
-98.5989263524367
 31
0.0
  0
LINE
  5
   5AC
  8
0
  6
CONTINUOUS
 62
   130
 10
-518.665895403556
 20
-92.9932277699714
 30
0.0
 11
-521.907312207742
 21
-96.132681787623
 31
0.0
  0
LINE
  5
   5AD
  8
0
  6
CONTINUOUS
 62
   130
 10
-519.623306816786
 20
-96.7507329757966
 30
0.0
 11
-521.496658915371
 21
-96.9878774582124
 31
0.0
  0
LINE
  5
   5AE
  8
0
  6
CONTINUOUS
 62
   130
 10
-515.651878410974
 20
-95.6247253901303
 30
0.0
 11
-515.676178032163
 21
-95.6277542597277
 31
0.0
  0
LINE
  5
   5AF
  8
0
  6
CONTINUOUS
 62
   130
 10
-515.188452085528
 20
-95.0629973503113
 30
0.0
 11
-515.300865488846
 21
-94.1749701649975
 31
0.0
  0
LINE
  5
   5B0
  8
0
  6
CONTINUOUS
 62
   130
 10
-520.595613126977
 20
-98.1337870273846
 30
0.0
 11
-520.674699433459
 21
-97.5090388094547
 31
0.0
  0
LINE
  5
   5B1
  8
0
  6
CONTINUOUS
 62
   130
 10
-516.488245446569
 20
-95.7793890064917
 30
0.0
 11
-520.326630163946
 21
-96.9686400044482
 31
0.0
  0
LINE
  5
   5B2
  8
0
  6
CONTINUOUS
 62
   130
 10
-489.628107951973
 20
-99.6265468979682
 30
0.0
 11
-490.155211363642
 21
-96.9362317090192
 31
0.0
  0
LINE
  5
   5B3
  8
0
  6
CONTINUOUS
 62
   130
 10
-490.155213837623
 20
-96.9362360479337
 30
0.0
 11
-490.228448393631
 21
-96.5624682003378
 31
0.0
  0
LINE
  5
   5B4
  8
0
  6
CONTINUOUS
 62
   130
 10
-490.228446829584
 20
-96.5624653438618
 30
0.0
 11
-491.070148317996
 21
-92.2664868148235
 31
0.0
  0
LINE
  5
   5B5
  8
0
  6
CONTINUOUS
 62
   130
 10
-480.133560713296
 20
-93.995956607979
 30
0.0
 11
-488.237488539761
 21
-90.0810701905781
 31
0.0
  0
LINE
  5
   5B6
  8
0
  6
CONTINUOUS
 62
   130
 10
-479.166492252268
 20
-95.8112141693521
 30
0.0
 11
-479.314029483608
 21
-95.0582043516349
 31
0.0
  0
LINE
  5
   5B7
  8
0
  6
CONTINUOUS
 62
   130
 10
-479.437313081096
 20
-96.3564209100115
 30
0.0
 11
-480.126480105532
 21
-96.6938232536442
 31
0.0
  0
LINE
  5
   5B8
  8
0
  6
CONTINUOUS
 62
   130
 10
-482.287598815391
 20
-96.4050679822662
 30
0.0
 11
-483.095193111598
 21
-96.5632978147108
 31
0.0
  0
LINE
  5
   5B9
  8
0
  6
CONTINUOUS
 62
   130
 10
-483.095187885449
 20
-96.5632953664481
 30
0.0
 11
-485.3032071883
 21
-96.9959087277633
 31
0.0
  0
LINE
  5
   5BA
  8
0
  6
CONTINUOUS
 62
   130
 10
-485.876050421861
 20
-97.97288905682
 30
0.0
 11
-485.895009466722
 21
-97.876113999355
 31
0.0
  0
LINE
  5
   5BB
  8
0
  6
CONTINUOUS
 62
   130
 10
-485.70273809229
 20
-98.8574575754777
 30
0.0
 11
-485.876051234464
 21
-97.972890300623
 31
0.0
  0
LINE
  5
   5BC
  8
0
  6
CONTINUOUS
 62
   130
 10
-482.478162142587
 20
-94.2515234977308
 30
0.0
 11
-486.541409947415
 21
-92.2886290706082
 31
0.0
  0
LINE
  5
   5BD
  8
0
  6
CONTINUOUS
 62
   130
 10
-482.599526404247
 20
-95.1924175980711
 30
0.0
 11
-484.452595675727
 21
-95.555485213487
 31
0.0
  0
LINE
  5
   5BE
  8
0
  6
CONTINUOUS
 62
   130
 10
-488.552698525727
 20
-95.7286693909975
 30
0.0
 11
-488.576727303636
 21
-95.7334225038476
 31
0.0
  0
LINE
  5
   5BF
  8
0
  6
CONTINUOUS
 62
   130
 10
-489.193092305
 20
-95.3456153141277
 30
0.0
 11
-489.365199999032
 21
-94.467201152643
 31
0.0
  0
LINE
  5
   5C0
  8
0
  6
CONTINUOUS
 62
   130
 10
-483.09519258601
 20
-96.5632982315414
 30
0.0
 11
-483.216271074199
 21
-95.94530963557
 31
0.0
  0
LINE
  5
   5C1
  8
0
  6
CONTINUOUS
 62
   130
 10
-483.716411654598
 20
-95.5415329053932
 30
0.0
 11
-487.734088998751
 21
-95.6176551928791
 31
0.0
  0
LINE
  5
   5C2
  8
0
  6
CONTINUOUS
 62
     3
 10
-523.415431976318
 20
-102.953693389893
 30
0.0
 11
-523.915473937988
 21
-102.953693389893
 31
0.0
  0
LINE
  5
   5C3
  8
0
  6
CONTINUOUS
 62
     3
 10
-522.165473937988
 20
-99.2036933898926
 30
0.0
 11
-524.415473937988
 21
-99.2036933898926
 31
0.0
  0
LINE
  5
   5C4
  8
0
  6
CONTINUOUS
 62
     3
 10
-522.165473937988
 20
-99.2036933898926
 30
0.0
 11
-522.165473937988
 21
-100.567004394531
 31
0.0
  0
LINE
  5
   5C5
  8
0
  6
CONTINUOUS
 62
     3
 10
-524.415473937988
 20
-99.2036933898926
 30
0.0
 11
-524.415473937988
 21
-101.492004394531
 31
0.0
  0
LINE
  5
   5C6
  8
0
  6
CONTINUOUS
 62
     3
 10
-524.415473937988
 20
-102.242004394531
 30
0.0
 11
-524.415473937988
 21
-102.453693389893
 31
0.0
  0
LINE
  5
   5C7
  8
0
  6
CONTINUOUS
 62
     3
 10
-523.727973937988
 20
-102.953693389893
 30
0.0
 11
-523.727973937988
 21
-103.742004394531
 31
0.0
  0
LINE
  5
   5C8
  8
0
  6
CONTINUOUS
 62
   210
 10
-520.478974946991
 20
-90.6641942493411
 30
0.0
 11
-520.485625871688
 21
-92.9141827903554
 31
0.0
  0
LINE
  5
   5C9
  8
0
  6
CONTINUOUS
 62
   210
 10
-520.471941305817
 20
-93.0022795857627
 30
0.0
 11
-520.485626532046
 21
-92.9141867836875
 31
0.0
  0
LINE
  5
   5CA
  8
0
  6
CONTINUOUS
 62
   210
 10
-476.11562131034
 20
-94.6703521642841
 30
0.0
 11
-479.458322267505
 21
-94.6604720983918
 31
0.0
  0
LINE
  5
   5CB
  8
0
  6
CONTINUOUS
 62
   210
 10
-490.607553624997
 20
-94.6275130700212
 30
0.0
 11
-513.992349106113
 21
-94.5583869398978
 31
0.0
  0
LINE
  5
   5CC
  8
0
  6
CONTINUOUS
 62
   210
 10
-474.479178710442
 20
-90.8001736968698
 30
0.0
 11
-474.485823912923
 21
-93.050162237884
 31
0.0
  0
LINE
  5
   5CD
  8
0
  6
CONTINUOUS
 62
   210
 10
-476.099361653724
 20
-89.1703787061157
 30
0.0
 11
-518.849179457209
 21
-89.0440054180843
 31
0.0
  0
LINE
  5
   5CE
  8
0
  6
CONTINUOUS
 62
   210
 10
-492.852253050632
 20
-90.1208631318742
 30
0.0
 11
-512.35216704113
 21
-90.0632192400963
 31
0.0
  0
LINE
  5
   5CF
  8
0
  6
CONTINUOUS
 62
   210
 10
-512.352164380573
 20
-90.0632210235808
 30
0.0
 11
-512.355860822339
 21
-91.3132133643934
 31
0.0
  0
LINE
  5
   5D0
  8
0
  6
CONTINUOUS
 62
   210
 10
-492.855949492129
 20
-91.3708554506309
 30
0.0
 11
-512.355863482627
 21
-91.3132115588531
 31
0.0
  0
LINE
  5
   5D1
  8
0
  6
CONTINUOUS
 62
   210
 10
-492.852250958904
 20
-90.1208649117523
 30
0.0
 11
-492.85594740067
 21
-91.3708572525649
 31
0.0
  0
LINE
  5
   5D2
  8
0
  6
CONTINUOUS
 62
   210
 10
-492.85890028601
 20
-92.3708487494643
 30
0.0
 11
-512.108814619242
 21
-92.313944909472
 31
0.0
  0
LINE
  5
   5D3
  8
0
  6
CONTINUOUS
 62
   210
 10
-512.108817348146
 20
-92.3139498921366
 30
0.0
 11
-512.11251188245
 21
-93.5639422329492
 31
0.0
  0
LINE
  5
   5D4
  8
0
  6
CONTINUOUS
 62
   210
 10
-492.862592857956
 20
-93.6208449299605
 30
0.0
 11
-512.112509098529
 21
-93.5639372746385
 31
0.0
  0
LINE
  5
   5D5
  8
0
  6
CONTINUOUS
 62
   210
 10
-492.858904218171
 20
-92.3708541647786
 30
0.0
 11
-492.862596845223
 21
-93.6208503202717
 31
0.0
  0
LINE
  5
   5D6
  8
0
  6
CONTINUOUS
 62
   210
 10
-481.852301497569
 20
-90.1533822974335
 30
0.0
 11
-481.855994124412
 21
-91.4033746382461
 31
0.0
  0
LINE
  5
   5D7
  8
0
  6
CONTINUOUS
 62
   210
 10
-481.852296343493
 20
-90.1533765018916
 30
0.0
 11
-485.352281114506
 21
-90.1430272278607
 31
0.0
  0
LINE
  5
   5D8
  8
0
  6
CONTINUOUS
 62
   210
 10
-485.352286074449
 20
-90.1430330268721
 30
0.0
 11
-485.355978701501
 21
-91.3930291823651
 31
0.0
  0
LINE
  5
   5D9
  8
0
  6
CONTINUOUS
 62
   210
 10
-481.855989344826
 20
-91.4033690554981
 30
0.0
 11
-485.355974115839
 21
-91.393023596863
 31
0.0
  0
LINE
  5
   5DA
  8
0
  6
CONTINUOUS
 62
   210
 10
-481.858949645604
 20
-92.403369207934
 30
0.0
 11
-481.861192687617
 21
-93.1613686226043
 31
0.0
  0
LINE
  5
   5DB
  8
0
  6
CONTINUOUS
 62
   210
 10
-481.858945778738
 20
-92.4033652760742
 30
0.0
 11
-483.439943280748
 21
-92.3986922719162
 31
0.0
  0
LINE
  5
   5DC
  8
0
  6
CONTINUOUS
 62
   210
 10
-477.487668057276
 20
-93.666295881372
 30
0.0
 11
-478.737660398088
 21
-93.662599439606
 31
0.0
  0
LINE
  5
   5DD
  8
0
  6
CONTINUOUS
 62
   210
 10
-477.487662783446
 20
-93.6662933725322
 30
0.0
 11
-477.489139071338
 21
-94.166289557842
 31
0.0
  0
LINE
  5
   5DE
  8
0
  6
CONTINUOUS
 62
   210
 10
-478.737657442725
 20
-93.6626004045627
 30
0.0
 11
-478.739137545274
 21
-94.162600404553
 31
0.0
  0
LINE
  5
   5DF
  8
0
  6
CONTINUOUS
 62
   210
 10
-477.477322598688
 20
-90.1663112743534
 30
0.0
 11
-478.7273149395
 21
-90.1626148325873
 31
0.0
  0
LINE
  5
   5E0
  8
0
  6
CONTINUOUS
 62
   210
 10
-477.475839547998
 20
-89.6663123398171
 30
0.0
 11
-477.477319650546
 21
-90.1663123398074
 31
0.0
  0
LINE
  5
   5E1
  8
0
  6
CONTINUOUS
 62
   210
 10
-478.725833416731
 20
-89.6626159423329
 30
0.0
 11
-478.727309704622
 21
-90.1626121276427
 31
0.0
  0
LINE
  5
   5E2
  8
0
  6
CONTINUOUS
 62
   210
 10
-488.475790752233
 20
-89.6337905588513
 30
0.0
 11
-488.476885570351
 21
-90.0039497067257
 31
0.0
  0
LINE
  5
   5E3
  8
0
  6
CONTINUOUS
 62
   210
 10
-489.725782418366
 20
-89.6300964546118
 30
0.0
 11
-489.726861977707
 21
-89.9944915901956
 31
0.0
  0
LINE
  5
   5E4
  8
0
  6
CONTINUOUS
 62
   210
 10
-515.72567118616
 20
-89.5532393063176
 30
0.0
 11
-515.726720227932
 21
-89.9078802736329
 31
0.0
  0
LINE
  5
   5E5
  8
0
  6
CONTINUOUS
 62
   210
 10
-516.975665544891
 20
-89.5495430883436
 30
0.0
 11
-516.976756548315
 21
-89.9184624650011
 31
0.0
  0
LINE
  5
   5E6
  8
0
  6
CONTINUOUS
 62
    98
 10
-502.165435791016
 20
-120.867012023926
 30
0.0
 11
-503.665435791016
 21
-120.867012023926
 31
0.0
  0
LINE
  5
   5E7
  8
0
  6
CONTINUOUS
 62
    98
 10
-510.540431976318
 20
-120.867012023926
 30
0.0
 11
-512.040431976318
 21
-120.867012023926
 31
0.0
  0
LINE
  5
   5E8
  8
0
  6
CONTINUOUS
 62
    98
 10
-518.915424346924
 20
-120.867012023926
 30
0.0
 11
-520.415424346924
 21
-120.867012023926
 31
0.0
  0
LINE
  5
   5E9
  8
0
  6
CONTINUOUS
 62
   218
 10
-498.16544342041
 20
-114.617012023926
 30
0.0
 11
-498.16544342041
 21
-115.117012023926
 31
0.0
  0
LINE
  5
   5EA
  8
0
  6
CONTINUOUS
 62
   218
 10
-524.41544342041
 20
-114.617012023926
 30
0.0
 11
-524.41544342041
 21
-115.117010116577
 31
0.0
  0
LINE
  5
   5EB
  8
0
  6
CONTINUOUS
 62
   218
 10
-518.040431976318
 20
-114.617012023926
 30
0.0
 11
-520.040424346924
 21
-114.617012023926
 31
0.0
  0
LINE
  5
   5EC
  8
0
  6
CONTINUOUS
 62
   218
 10
-509.290435791016
 20
-114.617012023926
 30
0.0
 11
-513.290435791016
 21
-114.617012023926
 31
0.0
  0
LINE
  5
   5ED
  8
0
  6
CONTINUOUS
 62
   218
 10
-502.540435791016
 20
-114.617012023926
 30
0.0
 11
-504.54044342041
 21
-114.617012023926
 31
0.0
  0
LINE
  5
   5EE
  8
0
  6
CONTINUOUS
 62
   218
 10
-523.971381073631
 20
-138.742011892872
 30
0.0
 11
-523.977942352703
 21
-138.66701184301
 31
0.0
  0
LINE
  5
   5EF
  8
0
  6
CONTINUOUS
 62
   218
 10
-523.79044342041
 20
-114.617012023926
 30
0.0
 11
-523.79044342041
 21
-114.992015838623
 31
0.0
  0
LINE
  5
   5F0
  8
0
  6
CONTINUOUS
 62
   218
 10
-498.79044342041
 20
-114.617012023926
 30
0.0
 11
-498.79044342041
 21
-114.992015838623
 31
0.0
  0
LINE
  5
   5F1
  8
0
  6
CONTINUOUS
 62
   218
 10
-503.337644477378
 20
-120.867011656711
 30
0.0
 11
-503.440641302729
 21
-120.842284788541
 31
0.0
  0
LINE
  5
   5F2
  8
0
  6
CONTINUOUS
 62
   218
 10
-503.440646223125
 20
-120.842285841284
 30
0.0
 11
-503.602946331079
 21
-120.829512327475
 31
0.0
  0
LINE
  5
   5F3
  8
0
  6
CONTINUOUS
 62
   218
 10
-503.602938011399
 20
-120.829509999634
 30
0.0
 11
-503.665430383175
 21
-120.834429051872
 31
0.0
  0
LINE
  5
   5F4
  8
0
  6
CONTINUOUS
 62
   218
 10
-518.915426404483
 20
-120.834433516319
 30
0.0
 11
-518.977945478551
 21
-120.82951255672
 31
0.0
  0
LINE
  5
   5F5
  8
0
  6
CONTINUOUS
 62
   218
 10
-518.977945193383
 20
-120.829512511828
 30
0.0
 11
-519.140245301337
 21
-120.842286025637
 31
0.0
  0
LINE
  5
   5F6
  8
0
  6
CONTINUOUS
 62
   218
 10
-519.14024246485
 20
-120.842284556876
 30
0.0
 11
-519.243235473988
 21
-120.867011423811
 31
0.0
  0
LINE
  5
   5F7
  8
0
  6
CONTINUOUS
 62
   212
 10
-524.41544342041
 20
-138.867012023926
 30
0.0
 11
-524.41544342041
 21
-139.429512023926
 31
0.0
  0
LINE
  5
   5F8
  8
0
  6
CONTINUOUS
 62
   212
 10
-524.16544342041
 20
-138.742012023926
 30
0.0
 11
-524.16544342041
 21
-138.867012023926
 31
0.0
  0
LINE
  5
   5F9
  8
0
  6
CONTINUOUS
 62
    98
 10
-524.41544342041
 20
-139.492012023926
 30
0.0
 11
-524.41544342041
 21
-139.679512023926
 31
0.0
  0
LINE
  5
   5FA
  8
0
  6
CONTINUOUS
 62
   218
 10
-505.66544342041
 20
-102.617004394531
 30
0.0
 11
-505.66544342041
 21
-105.367004394531
 31
0.0
  0
LINE
  5
   5FB
  8
0
  6
CONTINUOUS
 62
   218
 10
-499.41544342041
 20
-102.617004394531
 30
0.0
 11
-499.41544342041
 21
-105.367004394531
 31
0.0
  0
LINE
  5
   5FC
  8
0
  6
CONTINUOUS
 62
   218
 10
-514.415435791016
 20
-102.617004394531
 30
0.0
 11
-514.415435791016
 21
-105.367004394531
 31
0.0
  0
LINE
  5
   5FD
  8
0
  6
CONTINUOUS
 62
   218
 10
-508.165435791016
 20
-102.617004394531
 30
0.0
 11
-508.165435791016
 21
-105.367004394531
 31
0.0
  0
LINE
  5
   5FE
  8
0
  6
CONTINUOUS
 62
   218
 10
-523.165431976318
 20
-102.617004394531
 30
0.0
 11
-523.165431976318
 21
-105.367004394531
 31
0.0
  0
LINE
  5
   5FF
  8
0
  6
CONTINUOUS
 62
   218
 10
-516.915431976318
 20
-102.617004394531
 30
0.0
 11
-516.915431976318
 21
-105.367004394531
 31
0.0
  0
LINE
  5
   600
  8
0
  6
CONTINUOUS
 62
   218
 10
-520.665512084961
 20
-113.617015838623
 30
0.0
 11
-522.040431976318
 21
-113.617015838623
 31
0.0
  0
LINE
  5
   601
  8
0
  6
CONTINUOUS
 62
   218
 10
-523.415431976318
 20
-102.242004394531
 30
0.0
 11
-523.415431976318
 21
-105.367004394531
 31
0.0
  0
LINE
  5
   602
  8
0
  6
CONTINUOUS
 62
   218
 10
-519.665431976318
 20
-102.242004394531
 30
0.0
 11
-519.665431976318
 21
-102.617004394531
 31
0.0
  0
LINE
  5
   603
  8
0
  6
CONTINUOUS
 62
   218
 10
-499.165416717529
 20
-102.242004394531
 30
0.0
 11
-499.165416717529
 21
-105.367004394531
 31
0.0
  0
LINE
  5
   604
  8
0
  6
CONTINUOUS
 62
   218
 10
-502.915416717529
 20
-102.242004394531
 30
0.0
 11
-502.915416717529
 21
-102.617004394531
 31
0.0
  0
LINE
  5
   605
  8
0
  6
CONTINUOUS
 62
   218
 10
-499.040431976318
 20
-105.367004394531
 30
0.0
 11
-499.040431976318
 21
-114.617015838623
 31
0.0
  0
LINE
  5
   606
  8
0
  6
CONTINUOUS
 62
   218
 10
-523.540431976318
 20
-105.367004394531
 30
0.0
 11
-523.540431976318
 21
-114.617015838623
 31
0.0
  0
LINE
  5
   607
  8
0
  6
CONTINUOUS
 62
   218
 10
-518.040431976318
 20
-114.242015838623
 30
0.0
 11
-521.265420913696
 21
-114.242015838623
 31
0.0
  0
LINE
  5
   608
  8
0
  6
CONTINUOUS
 62
   218
 10
-509.290435791016
 20
-114.242015838623
 30
0.0
 11
-513.290435791016
 21
-114.242015838623
 31
0.0
  0
LINE
  5
   609
  8
0
  6
CONTINUOUS
 62
   218
 10
-500.54044342041
 20
-114.242015838623
 30
0.0
 11
-504.54044342041
 21
-114.242015838623
 31
0.0
  0
LINE
  5
   60A
  8
0
  6
CONTINUOUS
 62
   218
 10
-515.227931976318
 20
-106.742004394531
 30
0.0
 11
-516.102931976318
 21
-106.742004394531
 31
0.0
  0
LINE
  5
   60B
  8
0
  6
CONTINUOUS
 62
   218
 10
-515.227931976318
 20
-105.867004394531
 30
0.0
 11
-516.102931976318
 21
-105.867004394531
 31
0.0
  0
LINE
  5
   60C
  8
0
  6
CONTINUOUS
 62
   218
 10
-506.477916717529
 20
-105.867004394531
 30
0.0
 11
-507.352916717529
 21
-105.867004394531
 31
0.0
  0
LINE
  5
   60D
  8
0
  6
CONTINUOUS
 62
   218
 10
-506.477916717529
 20
-106.742004394531
 30
0.0
 11
-507.352916717529
 21
-106.742004394531
 31
0.0
  0
LINE
  5
   60E
  8
0
  6
CONTINUOUS
 62
   218
 10
-522.290431976318
 20
-106.117015838623
 30
0.0
 11
-523.040431976318
 21
-106.117015838623
 31
0.0
  0
LINE
  5
   60F
  8
0
  6
CONTINUOUS
 62
   218
 10
-517.040431976318
 20
-108.367015838623
 30
0.0
 11
-517.790431976318
 21
-108.367015838623
 31
0.0
  0
LINE
  5
   610
  8
0
  6
CONTINUOUS
 62
   218
 10
-513.540422439575
 20
-108.367015838623
 30
0.0
 11
-514.290416717529
 21
-108.367015838623
 31
0.0
  0
LINE
  5
   611
  8
0
  6
CONTINUOUS
 62
   218
 10
-508.290431976318
 20
-108.367015838623
 30
0.0
 11
-509.040431976318
 21
-108.367015838623
 31
0.0
  0
LINE
  5
   612
  8
0
  6
CONTINUOUS
 62
   218
 10
-504.790416717529
 20
-108.367015838623
 30
0.0
 11
-505.540416717529
 21
-108.367015838623
 31
0.0
  0
LINE
  5
   613
  8
0
  6
CONTINUOUS
 62
   218
 10
-499.540416717529
 20
-106.117015838623
 30
0.0
 11
-500.290416717529
 21
-106.117015838623
 31
0.0
  0
LINE
  5
   614
  8
0
  6
CONTINUOUS
 62
    98
 10
-508.540431976318
 20
-120.992012023926
 30
0.0
 11
-508.540431976318
 21
-129.117012023926
 31
0.0
  0
LINE
  5
   615
  8
0
  6
CONTINUOUS
 62
    98
 10
-514.040424346924
 20
-120.992012023926
 30
0.0
 11
-514.040424346924
 21
-129.117012023926
 31
0.0
  0
LINE
  5
   616
  8
0
  6
CONTINUOUS
 62
    98
 10
-499.790431976318
 20
-120.992012023926
 30
0.0
 11
-499.790431976318
 21
-128.992008209229
 31
0.0
  0
LINE
  5
   617
  8
0
  6
CONTINUOUS
 62
    98
 10
-505.290424346924
 20
-120.992012023926
 30
0.0
 11
-505.290424346924
 21
-129.117012023926
 31
0.0
  0
LINE
  5
   618
  8
0
  6
CONTINUOUS
 62
    98
 10
-517.290431976318
 20
-120.992012023926
 30
0.0
 11
-517.290431976318
 21
-129.117012023926
 31
0.0
  0
LINE
  5
   619
  8
0
  6
CONTINUOUS
 62
    98
 10
-522.790424346924
 20
-120.992012023926
 30
0.0
 11
-522.790424346924
 21
-128.992008209229
 31
0.0
  0
LINE
  5
   61A
  8
0
  6
CONTINUOUS
 62
    98
 10
-517.165428161621
 20
-118.367015838623
 30
0.0
 11
-522.915428161621
 21
-118.367015838623
 31
0.0
  0
LINE
  5
   61B
  8
0
  6
CONTINUOUS
 62
    98
 10
-517.165428161621
 20
-117.117012023926
 30
0.0
 11
-522.915428161621
 21
-117.117012023926
 31
0.0
  0
LINE
  5
   61C
  8
0
  6
CONTINUOUS
 62
    98
 10
-508.415428161621
 20
-118.367015838623
 30
0.0
 11
-514.165428161621
 21
-118.367015838623
 31
0.0
  0
LINE
  5
   61D
  8
0
  6
CONTINUOUS
 62
    98
 10
-508.415428161621
 20
-117.117012023926
 30
0.0
 11
-514.165428161621
 21
-117.117012023926
 31
0.0
  0
LINE
  5
   61E
  8
0
  6
CONTINUOUS
 62
    98
 10
-499.665428161621
 20
-118.367015838623
 30
0.0
 11
-505.415428161621
 21
-118.367015838623
 31
0.0
  0
LINE
  5
   61F
  8
0
  6
CONTINUOUS
 62
    98
 10
-499.665428161621
 20
-117.117012023926
 30
0.0
 11
-505.415428161621
 21
-117.117012023926
 31
0.0
  0
LINE
  5
   620
  8
0
  6
CONTINUOUS
 62
    98
 10
-500.647319793701
 20
-128.992008209229
 30
0.0
 11
-500.647319793701
 21
-129.617012023926
 31
0.0
  0
LINE
  5
   621
  8
0
  6
CONTINUOUS
 62
    98
 10
-517.290428161621
 20
-129.117012023926
 30
0.0
 11
-517.290428161621
 21
-129.617012023926
 31
0.0
  0
LINE
  5
   622
  8
0
  6
CONTINUOUS
 62
    98
 10
-514.040428161621
 20
-129.117012023926
 30
0.0
 11
-514.040428161621
 21
-129.617012023926
 31
0.0
  0
LINE
  5
   623
  8
0
  6
CONTINUOUS
 62
    98
 10
-508.540435791016
 20
-129.117012023926
 30
0.0
 11
-508.540435791016
 21
-129.617012023926
 31
0.0
  0
LINE
  5
   624
  8
0
  6
CONTINUOUS
 62
    98
 10
-505.290435791016
 20
-129.117012023926
 30
0.0
 11
-505.290435791016
 21
-129.617012023926
 31
0.0
  0
LINE
  5
   625
  8
0
  6
CONTINUOUS
 62
    98
 10
-521.933540344238
 20
-128.992008209229
 30
0.0
 11
-521.933540344238
 21
-129.617012023926
 31
0.0
  0
LINE
  5
   626
  8
0
  6
CONTINUOUS
 62
     7
 10
-509.790439605713
 20
-133.117012023926
 30
0.0
 11
-509.790439605713
 21
-138.617012023926
 31
0.0
  0
LINE
  5
   627
  8
0
  6
CONTINUOUS
 62
     7
 10
-513.277563095093
 20
-133.117012023926
 30
0.0
 11
-513.277563095093
 21
-138.526536464691
 31
0.0
  0
LINE
  5
   628
  8
0
  6
CONTINUOUS
 62
     7
 10
-512.790435791016
 20
-133.117012023926
 30
0.0
 11
-512.790435791016
 21
-138.617012023926
 31
0.0
  0
LINE
  5
   629
  8
0
  6
CONTINUOUS
 62
     7
 10
-518.540435791016
 20
-133.117012023926
 30
0.0
 11
-518.540435791016
 21
-138.617012023926
 31
0.0
  0
LINE
  5
   62A
  8
0
  6
CONTINUOUS
 62
     7
 10
-522.027559280396
 20
-133.117012023926
 30
0.0
 11
-522.027559280396
 21
-138.526536464691
 31
0.0
  0
LINE
  5
   62B
  8
0
  6
CONTINUOUS
 62
     7
 10
-521.540431976318
 20
-133.117012023926
 30
0.0
 11
-521.540431976318
 21
-138.617012023926
 31
0.0
  0
LINE
  5
   62C
  8
0
  6
CONTINUOUS
 62
     7
 10
-501.040447235108
 20
-133.117012023926
 30
0.0
 11
-501.040447235108
 21
-138.617012023926
 31
0.0
  0
LINE
  5
   62D
  8
0
  6
CONTINUOUS
 62
     7
 10
-504.527572631836
 20
-133.117012023926
 30
0.0
 11
-504.527572631836
 21
-138.526536464691
 31
0.0
  0
LINE
  5
   62E
  8
0
  6
CONTINUOUS
 62
     7
 10
-504.04044342041
 20
-133.117012023926
 30
0.0
 11
-504.04044342041
 21
-138.617012023926
 31
0.0
  0
LINE
  5
   62F
  8
0
  6
CONTINUOUS
 62
     7
 10
-523.540431976318
 20
-133.117012143135
 30
0.0
 11
-523.540431976318
 21
-139.367012143135
 31
0.0
  0
LINE
  5
   630
  8
0
  6
CONTINUOUS
 62
     7
 10
-499.040431976318
 20
-133.117012143135
 30
0.0
 11
-499.040431976318
 21
-139.367012143135
 31
0.0
  0
LINE
  5
   631
  8
0
  6
CONTINUOUS
 62
     7
 10
-500.555987970596
 20
-138.55002594312
 30
0.0
 11
-500.584487573406
 21
-138.617013456709
 31
0.0
  0
LINE
  5
   632
  8
0
  6
CONTINUOUS
 62
     7
 10
-504.496398149153
 20
-138.617011422847
 30
0.0
 11
-504.524897751964
 21
-138.550023909258
 31
0.0
  0
LINE
  5
   633
  8
0
  6
CONTINUOUS
 62
     7
 10
-504.524895741057
 20
-138.550024619008
 30
0.0
 11
-504.527573658541
 21
-138.52653657427
 31
0.0
  0
LINE
  5
   634
  8
0
  6
CONTINUOUS
 62
     7
 10
-500.553306889896
 20
-138.526532950971
 30
0.0
 11
-500.55598480734
 21
-138.550024691268
 31
0.0
  0
LINE
  5
   635
  8
0
  6
CONTINUOUS
 62
     7
 10
-505.269059857431
 20
-138.367011066644
 30
0.0
 11
-505.290441235589
 21
-138.449543115851
 31
0.0
  0
LINE
  5
   636
  8
0
  6
CONTINUOUS
 62
     7
 10
-505.251705045017
 20
-138.117012000532
 30
0.0
 11
-505.269061918468
 21
-138.367011762933
 31
0.0
  0
LINE
  5
   637
  8
0
  6
CONTINUOUS
 62
     7
 10
-505.251705169678
 20
-136.617012262344
 30
0.0
 11
-505.251705169678
 21
-138.117012023926
 31
0.0
  0
LINE
  5
   638
  8
0
  6
CONTINUOUS
 62
     7
 10
-509.305975726346
 20
-138.550024175142
 30
0.0
 11
-509.334473422599
 21
-138.617011690534
 31
0.0
  0
LINE
  5
   639
  8
0
  6
CONTINUOUS
 62
     7
 10
-513.246389198363
 20
-138.617012183544
 30
0.0
 11
-513.274884986668
 21
-138.550024668185
 31
0.0
  0
LINE
  5
   63A
  8
0
  6
CONTINUOUS
 62
     7
 10
-513.274885949587
 20
-138.550024647314
 30
0.0
 11
-513.277563867072
 21
-138.526536602576
 31
0.0
  0
LINE
  5
   63B
  8
0
  6
CONTINUOUS
 62
     7
 10
-509.303299192025
 20
-138.526532943363
 30
0.0
 11
-509.305977109469
 21
-138.55002468366
 31
0.0
  0
LINE
  5
   63C
  8
0
  6
CONTINUOUS
 62
     7
 10
-514.016238180477
 20
-138.367011411039
 30
0.0
 11
-514.040438618996
 21
-138.449552995794
 31
0.0
  0
LINE
  5
   63D
  8
0
  6
CONTINUOUS
 62
     7
 10
-513.996596920894
 20
-138.117011936319
 30
0.0
 11
-514.016238797012
 21
-138.367011701032
 31
0.0
  0
LINE
  5
   63E
  8
0
  6
CONTINUOUS
 62
     7
 10
-513.996597290039
 20
-136.617012262344
 30
0.0
 11
-513.996597290039
 21
-138.117012023926
 31
0.0
  0
LINE
  5
   63F
  8
0
  6
CONTINUOUS
 62
     7
 10
-513.915431976318
 20
-133.117012023926
 30
0.0
 11
-513.915431976318
 21
-136.61700463295
 31
0.0
  0
LINE
  5
   640
  8
0
  6
CONTINUOUS
 62
     7
 10
-508.579179763794
 20
-136.617012262344
 30
0.0
 11
-508.579179763794
 21
-138.117012023926
 31
0.0
  0
LINE
  5
   641
  8
0
  6
CONTINUOUS
 62
     7
 10
-508.561826247473
 20
-138.367011869279
 30
0.0
 11
-508.579181211934
 21
-138.117012106305
 31
0.0
  0
LINE
  5
   642
  8
0
  6
CONTINUOUS
 62
     7
 10
-508.540441496796
 20
-138.44954405425
 30
0.0
 11
-508.561822874954
 21
-138.367012005044
 31
0.0
  0
LINE
  5
   643
  8
0
  6
CONTINUOUS
 62
     7
 10
-518.055972231516
 20
-138.550024275054
 30
0.0
 11
-518.084469927769
 21
-138.617011790447
 31
0.0
  0
LINE
  5
   644
  8
0
  6
CONTINUOUS
 62
     7
 10
-521.996385447329
 20
-138.61701216366
 30
0.0
 11
-522.024881235634
 21
-138.5500246483
 31
0.0
  0
LINE
  5
   645
  8
0
  6
CONTINUOUS
 62
     7
 10
-522.024881880164
 20
-138.55002467562
 30
0.0
 11
-522.027559797648
 21
-138.526536630882
 31
0.0
  0
LINE
  5
   646
  8
0
  6
CONTINUOUS
 62
     7
 10
-518.053295308851
 20
-138.526532935755
 30
0.0
 11
-518.055973226295
 21
-138.550024676051
 31
0.0
  0
LINE
  5
   647
  8
0
  6
CONTINUOUS
 62
     7
 10
-517.329168319702
 20
-136.617012262344
 30
0.0
 11
-517.329168319702
 21
-138.117012023926
 31
0.0
  0
LINE
  5
   648
  8
0
  6
CONTINUOUS
 62
     7
 10
-517.31181439835
 20
-138.367011897128
 30
0.0
 11
-517.32916936281
 21
-138.117012134154
 31
0.0
  0
LINE
  5
   649
  8
0
  6
CONTINUOUS
 62
     7
 10
-517.29043059599
 20
-138.449543930159
 30
0.0
 11
-517.311811974148
 21
-138.367011880953
 31
0.0
  0
LINE
  5
   64A
  8
0
  6
CONTINUOUS
 62
   212
 10
-498.227935791016
 20
-140.429512053728
 30
0.0
 11
-524.352935791016
 21
-140.429512053728
 31
0.0
  0
LINE
  5
   64B
  8
0
  6
CONTINUOUS
 62
   212
 10
-498.227935791016
 20
-139.992012053728
 30
0.0
 11
-498.227935791016
 21
-140.429512053728
 31
0.0
  0
LINE
  5
   64C
  8
0
  6
CONTINUOUS
 62
   212
 10
-498.183743594031
 20
-140.473705863876
 30
0.0
 11
-498.22793686063
 21
-140.429511695765
 31
0.0
  0
LINE
  5
   64D
  8
0
  6
CONTINUOUS
 62
   212
 10
-524.352936192159
 20
-140.429512186016
 30
0.0
 11
-524.397130412377
 21
-140.47370635408
 31
0.0
  0
LINE
  5
   64E
  8
0
  6
CONTINUOUS
 62
   212
 10
-524.352935791016
 20
-139.992012053728
 30
0.0
 11
-524.352935791016
 21
-140.429512053728
 31
0.0
  0
LINE
  5
   64F
  8
0
  6
CONTINUOUS
 62
   212
 10
-524.352935791016
 20
-139.830400407314
 30
0.0
 11
-524.352935791016
 21
-139.992012053728
 31
0.0
  0
LINE
  5
   650
  8
0
  6
CONTINUOUS
 62
   212
 10
-498.227935791016
 20
-139.830400407314
 30
0.0
 11
-498.227935791016
 21
-139.992012053728
 31
0.0
  0
LINE
  5
   651
  8
0
  6
CONTINUOUS
 62
    98
 10
-501.915428161621
 20
-119.729476928711
 30
0.0
 11
-503.915428161621
 21
-119.729476928711
 31
0.0
  0
LINE
  5
   652
  8
0
  6
CONTINUOUS
 62
    98
 10
-510.290424346924
 20
-119.729476928711
 30
0.0
 11
-512.290424346924
 21
-119.729476928711
 31
0.0
  0
LINE
  5
   653
  8
0
  6
CONTINUOUS
 62
    98
 10
-518.665424346924
 20
-119.729476928711
 30
0.0
 11
-520.665424346924
 21
-119.729476928711
 31
0.0
  0
LINE
  5
   654
  8
0
  6
CONTINUOUS
 62
   130
 10
-490.290428161621
 20
-141.492020130157
 30
0.0
 11
-490.540428161621
 21
-141.492020130157
 31
0.0
  0
LINE
  5
   655
  8
0
  6
CONTINUOUS
 62
   130
 10
-490.290428161621
 20
-146.492020130157
 30
0.0
 11
-490.540424346924
 21
-146.492020130157
 31
0.0
  0
LINE
  5
   656
  8
0
  6
CONTINUOUS
 62
    98
 10
-500.290428161621
 20
-120.367012023926
 30
0.0
 11
-500.290428161621
 21
-120.992012023926
 31
0.0
  0
LINE
  5
   657
  8
0
  6
CONTINUOUS
 62
    98
 10
-522.29043006897
 20
-120.367012023926
 30
0.0
 11
-522.29043006897
 21
-120.992012023926
 31
0.0
  0
LINE
  5
   658
  8
0
  6
CONTINUOUS
 62
   218
 10
-524.372141838074
 20
-114.617012023926
 30
0.0
 11
-524.372141838074
 21
-115.117012023926
 31
0.0
  0
LINE
  5
   659
  8
0
  6
CONTINUOUS
 62
   218
 10
-498.208744049072
 20
-114.617012023926
 30
0.0
 11
-498.208744049072
 21
-115.117012023926
 31
0.0
  0
LINE
  5
   65A
  8
0
  6
CONTINUOUS
 62
   218
 10
-522.540435791016
 20
-114.867012023926
 30
0.0
 11
-522.765424728394
 21
-114.867012023926
 31
0.0
  0
LINE
  5
   65B
  8
0
  6
CONTINUOUS
 62
   218
 10
-516.790428161621
 20
-114.867012023926
 30
0.0
 11
-520.040424346924
 21
-114.867012023926
 31
0.0
  0
LINE
  5
   65C
  8
0
  6
CONTINUOUS
 62
   218
 10
-508.040428161621
 20
-114.867012023926
 30
0.0
 11
-514.540428161621
 21
-114.867012023926
 31
0.0
  0
LINE
  5
   65D
  8
0
  6
CONTINUOUS
 62
   218
 10
-502.540435791016
 20
-114.867012023926
 30
0.0
 11
-505.790428161621
 21
-114.867012023926
 31
0.0
  0
LINE
  5
   65E
  8
0
  6
CONTINUOUS
 62
   218
 10
-499.29044342041
 20
-114.867012023926
 30
0.0
 11
-500.040424346924
 21
-114.867012023926
 31
0.0
  0
LINE
  5
   65F
  8
0
  6
CONTINUOUS
 62
   218
 10
-499.29044342041
 20
-114.867012023926
 30
0.0
 11
-499.29044342041
 21
-114.992015838623
 31
0.0
  0
LINE
  5
   660
  8
0
  6
CONTINUOUS
 62
   218
 10
-499.290444684096
 20
-114.867013027311
 30
0.0
 11
-499.415448494107
 21
-114.992016837322
 31
0.0
  0
ARC
  5
   661
  8
0
  6
CONTINUOUS
 62
     7
 10
-527.790443036472
 20
-87.49199271958
 30
0.0
 40
0.74997844672133
 50
449.998391616375
 51
540.000495716078
  0
ARC
  5
   662
  8
0
  6
CONTINUOUS
 62
     7
 10
-527.7904247757
 20
-87.4919984958674
 30
0.0
 40
1.49999674465148
 50
449.999953693861
 51
540.000292440414
  0
ARC
  5
   663
  8
0
  6
CONTINUOUS
 62
     7
 10
-527.790433138547
 20
-100.742016411165
 30
0.0
 40
0.749987588377506
 50
539.9987973239
 51
630.000771986836
  0
ARC
  5
   664
  8
0
  6
CONTINUOUS
 62
     7
 10
-527.790389906782
 20
-100.741954328595
 30
0.0
 40
1.50005824844379
 50
180.001961017234
 51
269.998703110991
  0
CIRCLE
  5
   665
  8
0
  6
CONTINUOUS
 62
     3
 10
-516.357323039726
 20
-91.8013814392757
 30
0.0
 40
0.874999258767481
  0
CIRCLE
  5
   666
  8
0
  6
CONTINUOUS
 62
     3
 10
-516.357332623065
 20
-91.8014133120375
 30
0.0
 40
1.00002788830595
  0
ARC
  5
   667
  8
0
  6
CONTINUOUS
 62
     3
 10
-515.415424388494
 20
-99.2420184463188
 30
0.0
 40
1.00001032334436
 50
359.999999896069
 51
601.042243602251
  0
CIRCLE
  5
   668
  8
0
  6
CONTINUOUS
 62
     3
 10
-515.415426818873
 20
-99.2420021387085
 30
0.0
 40
0.874999618679451
  0
ARC
  5
   669
  8
0
  6
CONTINUOUS
 62
   130
 10
-516.357311208419
 20
-91.8013661122436
 30
0.0
 40
1.99998133313895
 50
367.214594200915
 51
494.084498798732
  0
ARC
  5
   66A
  8
0
  6
CONTINUOUS
 62
   130
 10
-523.170046175223
 20
-97.7036731760359
 30
0.0
 40
1.49995977206926
 50
494.084498798732
 51
547.214542522295
  0
ARC
  5
   66B
  8
0
  6
CONTINUOUS
 62
   130
 10
-524.065726705314
 20
-98.5905318732324
 30
0.0
 40
0.499999859204743
 50
187.214542522295
 51
262.214709313954
  0
ARC
  5
   66C
  8
0
  6
CONTINUOUS
 62
   130
 10
-521.559444958603
 20
-96.4918289366056
 30
0.0
 40
0.50000449702135
 50
494.084522944015
 51
637.21460225293
  0
ARC
  5
   66D
  8
0
  6
CONTINUOUS
 62
   130
 10
-523.170046175223
 20
-97.7036731760359
 30
0.0
 40
1.49995977206926
 50
262.214709313954
 51
325.404466911629
  0
ARC
  5
   66E
  8
0
  6
CONTINUOUS
 62
   130
 10
-521.317865677834
 20
-98.9811938017546
 30
0.0
 40
0.749988017577461
 50
457.214651808633
 51
505.404466911629
  0
ARC
  5
   66F
  8
0
  6
CONTINUOUS
 62
   130
 10
-518.31803417435
 20
-93.3523983680147
 30
0.0
 40
0.500011523276044
 50
398.345801256484
 51
494.084522944015
  0
ARC
  5
   670
  8
0
  6
CONTINUOUS
 62
   130
 10
-515.796909728741
 20
-94.2377798108067
 30
0.0
 40
0.500012611291939
 50
367.214573025562
 51
462.953352464443
  0
ARC
  5
   671
  8
0
  6
CONTINUOUS
 62
   130
 10
-515.684474741238
 20
-95.1257965593745
 30
0.0
 40
0.499981476063765
 50
273.739734740347
 51
367.214573025562
  0
ARC
  5
   672
  8
0
  6
CONTINUOUS
 62
   130
 10
-515.415424939638
 20
-99.2420029988712
 30
0.0
 40
3.62499660554001
 50
428.529127566939
 51
467.214607384601
  0
ARC
  5
   673
  8
0
  6
CONTINUOUS
 62
   130
 10
-514.271582494728
 20
-96.3338550799826
 30
0.0
 40
0.499990825321628
 50
359.999999896069
 51
428.529127566939
  0
ARC
  5
   674
  8
0
  6
CONTINUOUS
 62
   130
 10
-520.178662791514
 20
-97.4462391984926
 30
0.0
 40
0.499992925590479
 50
467.214607384601
 51
547.214645879535
  0
ARC
  5
   675
  8
0
  6
CONTINUOUS
 62
   130
 10
-516.357311208419
 20
-91.8013661122436
 30
0.0
 40
1.99998133313895
 50
218.345801256484
 51
282.953352464443
  0
ARC
  5
   676
  8
0
  6
CONTINUOUS
 62
   130
 10
-515.415405793642
 20
-99.2420152368305
 30
0.0
 40
1.99997969356721
 50
187.214154913409
 51
231.821311574558
  0
ARC
  5
   677
  8
0
  6
CONTINUOUS
 62
   210
 10
-518.853983658703
 20
-90.6690004406109
 30
0.0
 40
1.62499991711984
 50
449.830744749653
 51
539.830628583892
  0
ARC
  5
   678
  8
0
  6
CONTINUOUS
 62
   210
 10
-518.603976988666
 20
-90.669747107576
 30
0.0
 40
0.750009432441205
 50
373.264515565145
 51
614.164574478103
  0
ARC
  5
   679
  8
0
  6
CONTINUOUS
 62
   210
 10
-517.475643692377
 20
-89.54805906318
 30
0.0
 40
0.499980517238918
 50
359.830293352891
 51
449.832914357511
  0
ARC
  5
   67A
  8
0
  6
CONTINUOUS
 62
   210
 10
-515.225664701554
 20
-89.5547205301493
 30
0.0
 40
0.500008856953853
 50
449.831559717767
 51
539.830420481869
  0
ARC
  5
   67B
  8
0
  6
CONTINUOUS
 62
   210
 10
-514.104018458066
 20
-90.683010227346
 30
0.0
 40
0.749965841411467
 50
246.392479515036
 51
526.399835127586
  0
ARC
  5
   67C
  8
0
  6
CONTINUOUS
 62
   210
 10
-513.860647128276
 20
-92.9337524535321
 30
0.0
 40
0.749979525032394
 50
250.709847126843
 51
483.719341274987
  0
ARC
  5
   67D
  8
0
  6
CONTINUOUS
 62
     3
 10
-523.915472717383
 20
-102.453684132223
 30
0.0
 40
0.500006765798997
 50
180.001051724207
 51
270.00003293921
  0
CIRCLE
  5
   67E
  8
0
  6
CONTINUOUS
 62
     3
 10
-489.107465161276
 20
-91.8819440455629
 30
0.0
 40
0.875000707189533
  0
CIRCLE
  5
   67F
  8
0
  6
CONTINUOUS
 62
     3
 10
-489.107466118599
 20
-91.8819491162781
 30
0.0
 40
1.00000669272492
  0
CIRCLE
  5
   680
  8
0
  6
CONTINUOUS
 62
     3
 10
-487.665450214298
 20
-99.2419801848455
 30
0.0
 40
0.999965585253797
  0
CIRCLE
  5
   681
  8
0
  6
CONTINUOUS
 62
     3
 10
-487.665424425214
 20
-99.2419961026009
 30
0.0
 40
0.874992379244704
  0
ARC
  5
   682
  8
0
  6
CONTINUOUS
 62
   210
 10
-490.225793223745
 20
-89.6286306068458
 30
0.0
 40
0.500009104083681
 50
359.831114091345
 51
449.829273911357
  0
ARC
  5
   683
  8
0
  6
CONTINUOUS
 62
   210
 10
-487.975787527593
 20
-89.6352835358892
 30
0.0
 40
0.500010561312919
 50
449.83175568278
 51
539.829929224289
  0
ARC
  5
   684
  8
0
  6
CONTINUOUS
 62
   210
 10
-491.104101130388
 20
-90.7510237109197
 30
0.0
 40
0.749998616094608
 50
388.392652949098
 51
632.551433924785
  0
ARC
  5
   685
  8
0
  6
CONTINUOUS
 62
   210
 10
-491.110756658884
 20
-93.0010278407231
 30
0.0
 40
0.75000431085668
 50
447.113757946215
 51
655.057061942578
  0
ARC
  5
   686
  8
0
  6
CONTINUOUS
 62
   210
 10
-487.104135651303
 20
-90.7628679410976
 30
0.0
 40
0.750015014398216
 50
343.493525775312
 51
504.937486159056
  0
ARC
  5
   687
  8
0
  6
CONTINUOUS
 62
   130
 10
-489.107456211816
 20
-91.8819574853316
 30
0.0
 40
2.00001497061807
 50
424.215505967184
 51
551.085409944397
  0
ARC
  5
   688
  8
0
  6
CONTINUOUS
 62
   130
 10
-486.758913083161
 20
-92.7388230320282
 30
0.0
 40
0.499973943312839
 50
424.215504377631
 51
519.955511015312
  0
ARC
  5
   689
  8
0
  6
CONTINUOUS
 62
   130
 10
-488.874522319439
 20
-94.371075868783
 30
0.0
 40
0.500009773648317
 50
455.34621943143
 51
551.085533514585
  0
ARC
  5
   68A
  8
0
  6
CONTINUOUS
 62
   130
 10
-488.702430719445
 20
-95.2494876472476
 30
0.0
 40
0.499992892027375
 50
191.085533514585
 51
284.560117065949
  0
ARC
  5
   68B
  8
0
  6
CONTINUOUS
 62
   130
 10
-482.695643749925
 20
-94.7017457466387
 30
0.0
 40
0.499986414700355
 50
281.085406593022
 51
424.215504377631
  0
ARC
  5
   68C
  8
0
  6
CONTINUOUS
 62
   130
 10
-483.70693861637
 20
-96.0414470786503
 30
0.0
 40
0.499998730140057
 50
371.085174352611
 51
451.085443957225
  0
ARC
  5
   68D
  8
0
  6
CONTINUOUS
 62
   130
 10
-485.159015370951
 20
-97.7319053531554
 30
0.0
 40
0.749988842123222
 50
461.084706211378
 51
551.08651219423
  0
ARC
  5
   68E
  8
0
  6
CONTINUOUS
 62
   130
 10
-487.665434556013
 20
-99.2419682523395
 30
0.0
 40
3.62496445726494
 50
451.085443957225
 51
489.771053092141
  0
ARC
  5
   68F
  8
0
  6
CONTINUOUS
 62
   130
 10
-489.664547930727
 20
-96.8400914190504
 30
0.0
 40
0.499990935524383
 50
489.771053092141
 51
551.085327066115
  0
ARC
  5
   690
  8
0
  6
CONTINUOUS
 62
   130
 10
-489.107456211816
 20
-91.8819574853316
 30
0.0
 40
2.00001497061807
 50
275.34621943143
 51
339.955511015312
  0
ARC
  5
   691
  8
0
  6
CONTINUOUS
 62
   130
 10
-480.786053711815
 20
-95.3466173610508
 30
0.0
 40
1.50001075729317
 50
232.896017502072
 51
296.08544238313
  0
ARC
  5
   692
  8
0
  6
CONTINUOUS
 62
   130
 10
-479.657171243606
 20
-95.9073507623788
 30
0.0
 40
0.500005069150344
 50
296.085442383131
 51
371.085534352428
  0
ARC
  5
   693
  8
0
  6
CONTINUOUS
 62
   130
 10
-482.143394314777
 20
-97.141084087041
 30
0.0
 40
0.750010015738676
 50
412.896017502072
 51
461.085388341678
  0
ARC
  5
   694
  8
0
  6
CONTINUOUS
 62
   130
 10
-480.786053711815
 20
-95.3466173610508
 30
0.0
 40
1.50001075729317
 50
371.085534352429
 51
424.215505967184
  0
CIRCLE
  5
   695
  8
0
  6
CONTINUOUS
 62
   210
 10
-480.110801447909
 20
-93.0335465258981
 30
0.0
 40
0.750008235613026
  0
CIRCLE
  5
   696
  8
0
  6
CONTINUOUS
 62
   210
 10
-480.104179371618
 20
-90.7835318087733
 30
0.0
 40
0.750026471961671
  0
CIRCLE
  5
   697
  8
0
  6
CONTINUOUS
 62
   210
 10
-478.107485435637
 20
-91.9144616474599
 30
0.0
 40
0.750006506146418
  0
CIRCLE
  5
   698
  8
0
  6
CONTINUOUS
 62
   210
 10
-476.104161785927
 20
-90.7953895188399
 30
0.0
 40
0.750020957206949
  0
CIRCLE
  5
   699
  8
0
  6
CONTINUOUS
 62
   210
 10
-476.110823661749
 20
-93.0453553775712
 30
0.0
 40
0.749994604911988
  0
ARC
  5
   69A
  8
0
  6
CONTINUOUS
 62
   210
 10
-479.239131934006
 20
-94.1611248610717
 30
0.0
 40
0.499993891024102
 50
269.829672347796
 51
359.83052941642
  0
ARC
  5
   69B
  8
0
  6
CONTINUOUS
 62
   210
 10
-476.98913732777
 20
-94.1677547184965
 30
0.0
 40
0.500013707623478
 50
539.832128314341
 51
629.830271550093
  0
ARC
  5
   69C
  8
0
  6
CONTINUOUS
 62
   210
 10
-476.110823653464
 20
-93.045352039693
 30
0.0
 40
1.62500835292983
 50
269.830759588265
 51
359.830469079051
  0
ARC
  5
   69D
  8
0
  6
CONTINUOUS
 62
   210
 10
-476.10410269041
 20
-90.7952668708535
 30
0.0
 40
1.62488301304316
 50
359.826750386651
 51
449.832983653766
  0
ARC
  5
   69E
  8
0
  6
CONTINUOUS
 62
   210
 10
-476.97582373657
 20
-89.6678029526317
 30
0.0
 40
0.5000208203586
 50
449.833183986351
 51
539.829614247602
  0
ARC
  5
   69F
  8
0
  6
CONTINUOUS
 62
   210
 10
-479.225821497182
 20
-89.661133326615
 30
0.0
 40
0.499990184042016
 50
359.830078881781
 51
449.831686962925
  0
ARC
  5
   6A0
  8
0
  6
CONTINUOUS
 62
     7
 10
-443.290433360159
 20
-87.4920193696537
 30
0.0
 40
0.750018043134362
 50
360.001461287225
 51
449.999676573552
  0
ARC
  5
   6A1
  8
0
  6
CONTINUOUS
 62
     7
 10
-443.290363007045
 20
-87.4919661417264
 30
0.0
 40
1.49993106596207
 50
359.998389981926
 51
450.002124892639
  0
ARC
  5
   6A2
  8
0
  6
CONTINUOUS
 62
     7
 10
-443.290427335669
 20
-100.741994178832
 30
0.0
 40
0.750010602669982
 50
269.9997970189
 51
359.999582719345
  0
ARC
  5
   6A3
  8
0
  6
CONTINUOUS
 62
     7
 10
-443.290402329651
 20
-100.742017060738
 30
0.0
 40
1.49997631380245
 50
269.99938275385
 51
360.000326547955
  0
ARC
  5
   6A4
  8
0
  6
CONTINUOUS
 62
   130
 10
-487.66549208674
 20
-99.2420866967114
 30
0.0
 40
1.99989833159997
 50
191.083403401332
 51
371.087285115467
  0
LINE
  5
   6A5
  8
0
  6
DOT
 62
     3
 10
-522.765411376953
 20
-114.453699111939
 30
0.0
 11
-523.765424728394
 21
-114.453699111939
 31
0.0
  0
LINE
  5
   6A6
  8
0
  6
DOT
 62
     3
 10
-522.765399927677
 20
-112.589588147963
 30
0.0
 11
-522.765424723209
 21
-111.578699094618
 31
0.0
  0
LINE
  5
   6A7
  8
0
  6
DOT
 62
     3
 10
-522.765424728394
 20
-111.578699111938
 30
0.0
 11
-523.765424728394
 21
-111.578699111938
 31
0.0
  0
LINE
  5
   6A8
  8
0
  6
DOT
 62
     3
 10
-523.765424728394
 20
-111.578699111938
 30
0.0
 11
-523.765424728394
 21
-114.453699111939
 31
0.0
  0
LINE
  5
   6A9
  8
0
  6
DOT
 62
    10
 10
-523.515424728394
 20
-114.453699111939
 30
0.0
 11
-523.515424728394
 21
-114.617015838623
 31
0.0
  0
LINE
  5
   6AA
  8
0
  6
DOT
 62
     3
 10
-522.765424728394
 20
-114.453699111939
 30
0.0
 11
-522.765424728394
 21
-114.617015838623
 31
0.0
  0
LINE
  5
   6AB
  8
0
  6
DOT
 62
     3
 10
-522.765424728394
 20
-127.078699111938
 30
0.0
 11
-523.515424728394
 21
-127.078699111938
 31
0.0
  0
LINE
  5
   6AC
  8
0
  6
DOT
 62
     3
 10
-522.040431976318
 20
-114.453699111939
 30
0.0
 11
-522.765411376953
 21
-114.453699111939
 31
0.0
  0
LINE
  5
   6AD
  8
0
  6
DOT
 62
     3
 10
-521.265417098999
 20
-111.578699111938
 30
0.0
 11
-522.765411376953
 21
-111.578699111938
 31
0.0
  0
LINE
  5
   6AE
  8
0
  6
DOT
 62
     3
 10
-521.265417098983
 20
-111.578699111888
 30
0.0
 11
-521.265419803526
 21
-113.617015838623
 31
0.0
  0
LINE
  5
   6AF
  8
0
  6
DOT
 62
     3
 10
-522.665473937988
 20
-102.953693389893
 30
0.0
 11
-523.415431976318
 21
-102.953693389893
 31
0.0
  0
LINE
  5
   6B0
  8
0
  6
DOT
 62
     3
 10
-522.165473937988
 20
-101.492004394531
 30
0.0
 11
-522.165473937988
 21
-102.453693389893
 31
0.0
  0
LINE
  5
   6B1
  8
0
  6
DOT
 62
     3
 10
-523.727973937988
 20
-103.742004394531
 30
0.0
 11
-523.727973937988
 21
-111.578693389893
 31
0.0
  0
LINE
  5
   6B2
  8
0
  6
DOT
 62
     3
 10
-522.852973937988
 20
-102.953693389893
 30
0.0
 11
-522.852973937988
 21
-111.578695297241
 31
0.0
  0
LINE
  5
   6B3
  8
0
  6
DOT
 62
     3
 10
-521.26541900632
 20
-112.329639434792
 30
0.0
 11
-522.765398025485
 21
-112.329637527443
 31
0.0
  0
LINE
  5
   6B4
  8
0
  6
DOT
 62
     3
 10
-521.26541900632
 20
-112.589590072609
 30
0.0
 11
-522.765411376925
 21
-112.589588165261
 31
0.0
  0
LINE
  5
   6B5
  8
0
  6
CONTINUOUS
 62
     7
 10
-524.415473937988
 20
-101.492004394531
 30
0.0
 11
-525.040420532227
 21
-101.492004394531
 31
0.0
  0
LINE
  5
   6B6
  8
0
  6
DOT
 62
     3
 10
-522.765424728394
 20
-114.992015838623
 30
0.0
 11
-522.765424728394
 21
-127.078699111938
 31
0.0
  0
LINE
  5
   6B7
  8
0
  6
DOT
 62
     3
 10
-523.515424728394
 20
-114.992015838623
 30
0.0
 11
-523.515424728394
 21
-127.078699111938
 31
0.0
  0
ARC
  5
   6B8
  8
0
  6
DOT
 62
     3
 10
-522.665460370344
 20
-102.453708858819
 30
0.0
 40
0.499981452441948
 50
269.998789749069
 51
360.002390973343
  0
LINE
  5
   6B9
  8
0
  6
DASHDOT
 62
     7
 10
-518.603976988666
 20
-89.1697376751348
 30
0.0
 11
-518.603976988666
 21
-91.7482314513203
 31
0.0
  0
LINE
  5
   6BA
  8
0
  6
DASHDOT
 62
     7
 10
-517.404093461406
 20
-90.669747107576
 30
0.0
 11
-520.103986421108
 21
-90.669747107576
 31
0.0
  0
LINE
  5
   6BB
  8
0
  6
DASHDOT
 62
     3
 10
-516.357332623065
 20
-89.376991287645
 30
0.0
 11
-516.357332623065
 21
-94.435267618102
 31
0.0
  0
LINE
  5
   6BC
  8
0
  6
DASHDOT
 62
     3
 10
-514.107626411436
 20
-91.8014133120375
 30
0.0
 11
-518.107360511371
 21
-91.8014133120375
 31
0.0
  0
LINE
  5
   6BD
  8
0
  6
DASHDOT
 62
     7
 10
-513.860647128276
 20
-91.4337729284997
 30
0.0
 11
-513.860647128276
 21
-94.4337319785645
 31
0.0
  0
LINE
  5
   6BE
  8
0
  6
DASHDOT
 62
     7
 10
-512.360667603243
 20
-92.9337524535321
 30
0.0
 11
-514.778000382943
 21
-92.9337524535321
 31
0.0
  0
LINE
  5
   6BF
  8
0
  6
DASHDOT
 62
     7
 10
-514.104018458066
 20
-89.1830443859345
 30
0.0
 11
-514.104018458066
 21
-92.1829760687574
 31
0.0
  0
LINE
  5
   6C0
  8
0
  6
DASHDOT
 62
     3
 10
-512.604052616655
 20
-90.683010227346
 30
0.0
 11
-515.293246493274
 21
-90.683010227346
 31
0.0
  0
LINE
  5
   6C1
  8
0
  6
DASHDOT
 62
     3
 10
-515.415426818873
 20
-97.617002520029
 30
0.0
 11
-515.415426818873
 21
-101.681954847278
 31
0.0
  0
LINE
  5
   6C2
  8
0
  6
DASHDOT
 62
     3
 10
-513.021731383211
 20
-99.2420021387085
 30
0.0
 11
-517.935960414006
 21
-99.2420021387085
 31
0.0
  0
LINE
  5
   6C3
  8
0
  6
DASHDOT
 62
     7
 10
-491.110756658884
 20
-91.5010235298664
 30
0.0
 11
-491.110756658884
 21
-94.5010321515798
 31
0.0
  0
LINE
  5
   6C4
  8
0
  6
DASHDOT
 62
     7
 10
-490.289959440314
 20
-93.0010278407231
 30
0.0
 11
-492.610760969741
 21
-93.0010278407231
 31
0.0
  0
LINE
  5
   6C5
  8
0
  6
DASHDOT
 62
     7
 10
-491.104101130388
 20
-89.251025094825
 30
0.0
 11
-491.104101130388
 21
-92.2510223270143
 31
0.0
  0
LINE
  5
   6C6
  8
0
  6
DASHDOT
 62
     7
 10
-490.173613544433
 20
-90.7510237109197
 30
0.0
 11
-492.604099746483
 21
-90.7510237109197
 31
0.0
  0
LINE
  5
   6C7
  8
0
  6
DASHDOT
 62
     3
 10
-489.107466118599
 20
-89.31050791857
 30
0.0
 11
-489.107466118599
 21
-93.631955809003
 31
0.0
  0
LINE
  5
   6C8
  8
0
  6
DASHDOT
 62
     3
 10
-487.357459425874
 20
-91.8819491162781
 30
0.0
 11
-491.735972717695
 21
-91.8819491162781
 31
0.0
  0
LINE
  5
   6C9
  8
0
  6
DASHDOT
 62
     7
 10
-487.104135651303
 20
-89.2628529266994
 30
0.0
 11
-487.104135651303
 21
-91.5764827478766
 31
0.0
  0
LINE
  5
   6CA
  8
0
  6
DASHDOT
 62
     7
 10
-485.604120636905
 20
-90.7628679410976
 30
0.0
 11
-488.151411068401
 21
-90.7628679410976
 31
0.0
  0
LINE
  5
   6CB
  8
0
  6
DASHDOT
 62
     3
 10
-487.665424425214
 20
-97.6170037233562
 30
0.0
 11
-487.665424425214
 21
-102.003291131141
 31
0.0
  0
LINE
  5
   6CC
  8
0
  6
DASHDOT
 62
     3
 10
-485.115337213976
 20
-99.2419961026009
 30
0.0
 11
-490.38414421317
 21
-99.2419961026009
 31
0.0
  0
LINE
  5
   6CD
  8
0
  6
DASHDOT
 62
     7
 10
-480.110801447909
 20
-91.5335382902851
 30
0.0
 11
-480.110801447909
 21
-94.5335547615111
 31
0.0
  0
LINE
  5
   6CE
  8
0
  6
DASHDOT
 62
     7
 10
-478.610793212296
 20
-93.0335465258981
 30
0.0
 11
-481.610809683522
 21
-93.0335465258981
 31
0.0
  0
LINE
  5
   6CF
  8
0
  6
DASHDOT
 62
     7
 10
-480.104179371618
 20
-89.2835053368116
 30
0.0
 11
-480.104179371618
 21
-92.2835582807349
 31
0.0
  0
LINE
  5
   6D0
  8
0
  6
DASHDOT
 62
     7
 10
-478.604152899657
 20
-90.7835318087733
 30
0.0
 11
-481.60420584358
 21
-90.7835318087733
 31
0.0
  0
LINE
  5
   6D1
  8
0
  6
DASHDOT
 62
     7
 10
-478.107485435637
 20
-90.4144551413135
 30
0.0
 11
-478.107485435637
 21
-93.4144681536063
 31
0.0
  0
LINE
  5
   6D2
  8
0
  6
DASHDOT
 62
     7
 10
-476.607478929491
 20
-91.9144616474599
 30
0.0
 11
-479.607491941784
 21
-91.9144616474599
 31
0.0
  0
LINE
  5
   6D3
  8
0
  6
DASHDOT
 62
     7
 10
-476.104161785927
 20
-89.2953685616329
 30
0.0
 11
-476.104161785927
 21
-92.2954104760468
 31
0.0
  0
LINE
  5
   6D4
  8
0
  6
DASHDOT
 62
     7
 10
-474.60414082872
 20
-90.7953895188399
 30
0.0
 11
-477.604182743134
 21
-90.7953895188399
 31
0.0
  0
LINE
  5
   6D5
  8
0
  6
DASHDOT
 62
     7
 10
-476.110823661749
 20
-91.5453607726592
 30
0.0
 11
-476.110823661749
 21
-94.5453499824832
 31
0.0
  0
LINE
  5
   6D6
  8
0
  6
DASHDOT
 62
     7
 10
-474.610829056837
 20
-93.0453553775712
 30
0.0
 11
-477.610818266661
 21
-93.0453553775712
 31
0.0
  0
LINE
  5
   6D7
  8
0
  6
DOT
 62
     3
 10
-524.415473937988
 20
-101.492004394531
 30
0.0
 11
-524.415473937988
 21
-102.242004394531
 31
0.0
  0
LINE
  5
   6D8
  8
0
  6
DASHDOT
 62
     7
 10
-511.290431976318
 20
-100.528191729607
 30
0.0
 11
-511.290431976318
 21
-173.700996375317
 31
0.0
  0
LINE
  5
   6D9
  8
0
  6
CONTINUOUS
 62
    98
 10
-464.602931911667
 20
-105.992004394525
 30
0.0
 11
-464.602931911667
 21
-120.742004394525
 31
0.0
  0
LINE
  5
   6DA
  8
0
  6
CONTINUOUS
 62
    98
 10
-446.665438863971
 20
-102.742004394527
 30
0.0
 11
-446.665438863971
 21
-120.742004394527
 31
0.0
  0
LINE
  5
   6DB
  8
0
  6
CONTINUOUS
 62
    98
 10
-447.290435791016
 20
-102.742004394531
 30
0.0
 11
-447.290435791016
 21
-120.742004394531
 31
0.0
  0
LINE
  5
   6DC
  8
0
  6
CONTINUOUS
 62
    98
 10
-454.977939541063
 20
-105.992004394525
 30
0.0
 11
-454.977939541063
 21
-120.742004394525
 31
0.0
  0
LINE
  5
   6DD
  8
0
  6
CONTINUOUS
 62
    98
 10
-455.852939541063
 20
-105.992004394525
 30
0.0
 11
-455.852939541063
 21
-120.742004394525
 31
0.0
  0
LINE
  5
   6DE
  8
0
  6
CONTINUOUS
 62
    98
 10
-463.727928161621
 20
-105.992004394531
 30
0.0
 11
-463.727928161621
 21
-120.742004394531
 31
0.0
  0
LINE
  5
   6DF
  8
0
  6
CONTINUOUS
 62
    98
 10
-446.665435791016
 20
-120.742004394531
 30
0.0
 11
-472.915424346924
 21
-120.742004394531
 31
0.0
  0
LINE
  5
   6E0
  8
0
  6
CONTINUOUS
 62
    98
 10
-465.540428161621
 20
-102.742004394531
 30
0.0
 11
-472.915424346924
 21
-102.742004394531
 31
0.0
  0
LINE
  5
   6E1
  8
0
  6
CONTINUOUS
 62
    98
 10
-456.790428161621
 20
-102.742004394531
 30
0.0
 11
-462.790428161621
 21
-102.742004394531
 31
0.0
  0
LINE
  5
   6E2
  8
0
  6
CONTINUOUS
 62
    98
 10
-446.665428161621
 20
-102.742004394531
 30
0.0
 11
-454.040428161621
 21
-102.742004394531
 31
0.0
  0
LINE
  5
   6E3
  8
0
  6
CONTINUOUS
 62
    98
 10
-462.790420532227
 20
-102.742004394531
 30
0.0
 11
-465.540428161621
 21
-102.742004394531
 31
0.0
  0
LINE
  5
   6E4
  8
0
  6
CONTINUOUS
 62
    98
 10
-454.040420532227
 20
-102.742004394531
 30
0.0
 11
-456.790428161621
 21
-102.742004394531
 31
0.0
  0
LINE
  5
   6E5
  8
0
  6
CONTINUOUS
 62
    98
 10
-456.790428161621
 20
-117.242004394531
 30
0.0
 11
-462.790420532227
 21
-117.242004394531
 31
0.0
  0
LINE
  5
   6E6
  8
0
  6
CONTINUOUS
 62
    98
 10
-456.790428161621
 20
-102.742004394531
 30
0.0
 11
-456.790428161621
 21
-117.242004394531
 31
0.0
  0
LINE
  5
   6E7
  8
0
  6
CONTINUOUS
 62
    98
 10
-462.790420532227
 20
-102.742004394531
 30
0.0
 11
-462.790420532227
 21
-117.242003440857
 31
0.0
  0
LINE
  5
   6E8
  8
0
  6
CONTINUOUS
 62
    98
 10
-448.040428161621
 20
-117.242004394531
 30
0.0
 11
-454.040420532227
 21
-117.242004394531
 31
0.0
  0
LINE
  5
   6E9
  8
0
  6
CONTINUOUS
 62
    98
 10
-448.040428161621
 20
-102.742004394531
 30
0.0
 11
-448.040428161621
 21
-117.242004394531
 31
0.0
  0
LINE
  5
   6EA
  8
0
  6
CONTINUOUS
 62
    98
 10
-454.040420532227
 20
-102.742004394531
 30
0.0
 11
-454.040420532227
 21
-117.242003440857
 31
0.0
  0
LINE
  5
   6EB
  8
0
  6
CONTINUOUS
 62
    98
 10
-465.540428161621
 20
-117.242004394531
 30
0.0
 11
-471.540424346924
 21
-117.242004394531
 31
0.0
  0
LINE
  5
   6EC
  8
0
  6
CONTINUOUS
 62
    98
 10
-465.540428161621
 20
-102.742004394531
 30
0.0
 11
-465.540428161621
 21
-117.242004394531
 31
0.0
  0
LINE
  5
   6ED
  8
0
  6
CONTINUOUS
 62
    98
 10
-471.540424346924
 20
-102.742004394531
 30
0.0
 11
-471.540424346924
 21
-117.242003440857
 31
0.0
  0
LINE
  5
   6EE
  8
0
  6
CONTINUOUS
 62
    98
 10
-465.665428161621
 20
-108.617004394531
 30
0.0
 11
-471.415428161621
 21
-108.617004394531
 31
0.0
  0
LINE
  5
   6EF
  8
0
  6
CONTINUOUS
 62
    98
 10
-465.665428161621
 20
-102.742004394531
 30
0.0
 11
-465.665428161621
 21
-108.617004394531
 31
0.0
  0
LINE
  5
   6F0
  8
0
  6
CONTINUOUS
 62
    98
 10
-471.415428161621
 20
-102.742004394531
 30
0.0
 11
-471.415428161621
 21
-108.617004394531
 31
0.0
  0
LINE
  5
   6F1
  8
0
  6
CONTINUOUS
 62
    98
 10
-456.915428161621
 20
-108.617004394531
 30
0.0
 11
-462.665428161621
 21
-108.617004394531
 31
0.0
  0
LINE
  5
   6F2
  8
0
  6
CONTINUOUS
 62
    98
 10
-456.915428161621
 20
-102.742004394531
 30
0.0
 11
-456.915428161621
 21
-108.617004394531
 31
0.0
  0
LINE
  5
   6F3
  8
0
  6
CONTINUOUS
 62
    98
 10
-462.665428161621
 20
-102.742004394531
 30
0.0
 11
-462.665428161621
 21
-108.617004394531
 31
0.0
  0
LINE
  5
   6F4
  8
0
  6
CONTINUOUS
 62
    98
 10
-448.165428161621
 20
-108.617004394531
 30
0.0
 11
-453.915428161621
 21
-108.617004394531
 31
0.0
  0
LINE
  5
   6F5
  8
0
  6
CONTINUOUS
 62
    98
 10
-448.165428161621
 20
-102.742004394531
 30
0.0
 11
-448.165428161621
 21
-108.617004394531
 31
0.0
  0
LINE
  5
   6F6
  8
0
  6
CONTINUOUS
 62
    98
 10
-453.915428161621
 20
-102.742004394531
 30
0.0
 11
-453.915428161621
 21
-108.617004394531
 31
0.0
  0
LINE
  5
   6F7
  8
0
  6
CONTINUOUS
 62
    98
 10
-456.915428161621
 20
-107.242004394531
 30
0.0
 11
-462.665428161621
 21
-107.242004394531
 31
0.0
  0
LINE
  5
   6F8
  8
0
  6
CONTINUOUS
 62
    98
 10
-448.165428161621
 20
-107.242004394531
 30
0.0
 11
-453.915428161621
 21
-107.242004394531
 31
0.0
  0
LINE
  5
   6F9
  8
0
  6
CONTINUOUS
 62
    98
 10
-465.665428161621
 20
-107.242004394531
 30
0.0
 11
-471.415424346924
 21
-107.242004394531
 31
0.0
  0
LINE
  5
   6FA
  8
0
  6
CONTINUOUS
 62
    98
 10
-448.040428161621
 20
-116.617000579834
 30
0.0
 11
-449.147315979004
 21
-116.617000579834
 31
0.0
  0
LINE
  5
   6FB
  8
0
  6
CONTINUOUS
 62
    98
 10
-465.540428161621
 20
-116.742004394531
 30
0.0
 11
-465.790428161621
 21
-116.742004394531
 31
0.0
  0
LINE
  5
   6FC
  8
0
  6
CONTINUOUS
 62
    98
 10
-462.540428161621
 20
-116.742004394531
 30
0.0
 11
-462.790420532227
 21
-116.742004394531
 31
0.0
  0
LINE
  5
   6FD
  8
0
  6
CONTINUOUS
 62
    98
 10
-456.790428161621
 20
-116.742004394531
 30
0.0
 11
-457.040435791016
 21
-116.742004394531
 31
0.0
  0
LINE
  5
   6FE
  8
0
  6
CONTINUOUS
 62
    98
 10
-453.790435791016
 20
-116.742004394531
 30
0.0
 11
-454.040420532227
 21
-116.742004394531
 31
0.0
  0
LINE
  5
   6FF
  8
0
  6
CONTINUOUS
 62
    98
 10
-470.433540344238
 20
-116.617000579834
 30
0.0
 11
-471.540424346924
 21
-116.617000579834
 31
0.0
  0
LINE
  5
   700
  8
0
  6
CONTINUOUS
 62
    98
 10
-456.790428161621
 20
-108.617004394531
 30
0.0
 11
-456.915428161621
 21
-108.617004394531
 31
0.0
  0
LINE
  5
   701
  8
0
  6
CONTINUOUS
 62
    98
 10
-462.665428161621
 20
-108.617004394531
 30
0.0
 11
-462.790420532227
 21
-108.617004394531
 31
0.0
  0
LINE
  5
   702
  8
0
  6
CONTINUOUS
 62
    98
 10
-456.540428161621
 20
-102.242004394531
 30
0.0
 11
-456.540428161621
 21
-102.742004394531
 31
0.0
  0
LINE
  5
   703
  8
0
  6
CONTINUOUS
 62
    98
 10
-463.040428161621
 20
-102.242004394531
 30
0.0
 11
-463.040428161621
 21
-102.742004394531
 31
0.0
  0
LINE
  5
   704
  8
0
  6
CONTINUOUS
 62
    98
 10
-465.540428161621
 20
-108.617004394531
 30
0.0
 11
-465.665428161621
 21
-108.617004394531
 31
0.0
  0
LINE
  5
   705
  8
0
  6
CONTINUOUS
 62
    98
 10
-471.415428161621
 20
-108.617004394531
 30
0.0
 11
-471.540428161621
 21
-108.617004394531
 31
0.0
  0
LINE
  5
   706
  8
0
  6
CONTINUOUS
 62
    98
 10
-465.290428161621
 20
-102.242004394531
 30
0.0
 11
-465.290428161621
 21
-102.742004394531
 31
0.0
  0
LINE
  5
   707
  8
0
  6
CONTINUOUS
 62
    98
 10
-448.040428161621
 20
-108.617004394531
 30
0.0
 11
-448.165428161621
 21
-108.617004394531
 31
0.0
  0
LINE
  5
   708
  8
0
  6
CONTINUOUS
 62
    98
 10
-453.915428161621
 20
-108.617004394531
 30
0.0
 11
-454.040420532227
 21
-108.617004394531
 31
0.0
  0
LINE
  5
   709
  8
0
  6
CONTINUOUS
 62
    98
 10
-454.290428161621
 20
-102.242004394531
 30
0.0
 11
-454.290428161621
 21
-102.742004394531
 31
0.0
  0
LINE
  5
   70A
  8
0
  6
CONTINUOUS
 62
    98
 10
-463.540420532227
 20
-102.742004394531
 30
0.0
 11
-463.540420532227
 21
-105.992004394531
 31
0.0
  0
LINE
  5
   70B
  8
0
  6
CONTINUOUS
 62
    98
 10
-463.540420532227
 20
-105.992004394531
 30
0.0
 11
-463.727928161621
 21
-105.992004394531
 31
0.0
  0
LINE
  5
   70C
  8
0
  6
CONTINUOUS
 62
    98
 10
-464.790420532227
 20
-102.742004394531
 30
0.0
 11
-464.790420532227
 21
-105.992004394531
 31
0.0
  0
LINE
  5
   70D
  8
0
  6
CONTINUOUS
 62
    98
 10
-464.602920532227
 20
-105.992004394531
 30
0.0
 11
-464.790420532227
 21
-105.992004394531
 31
0.0
  0
LINE
  5
   70E
  8
0
  6
CONTINUOUS
 62
    98
 10
-456.040420532227
 20
-102.742004394531
 30
0.0
 11
-456.040420532227
 21
-105.992004394531
 31
0.0
  0
LINE
  5
   70F
  8
0
  6
CONTINUOUS
 62
    98
 10
-455.852928161621
 20
-105.992004394531
 30
0.0
 11
-456.040420532227
 21
-105.992004394531
 31
0.0
  0
LINE
  5
   710
  8
0
  6
CONTINUOUS
 62
    98
 10
-454.790420532227
 20
-102.742004394531
 30
0.0
 11
-454.790420532227
 21
-105.992004394531
 31
0.0
  0
LINE
  5
   711
  8
0
  6
CONTINUOUS
 62
    98
 10
-454.790420532227
 20
-105.992004394531
 30
0.0
 11
-454.977928161621
 21
-105.992004394531
 31
0.0
  0
LINE
  5
   712
  8
0
  6
CONTINUOUS
 62
     7
 10
-457.803298950195
 20
-120.742004394531
 30
0.0
 11
-457.803298950195
 21
-126.151525497437
 31
0.0
  0
LINE
  5
   713
  8
0
  6
CONTINUOUS
 62
     7
 10
-466.553298950195
 20
-120.742004394531
 30
0.0
 11
-466.553298950195
 21
-126.151525497437
 31
0.0
  0
LINE
  5
   714
  8
0
  6
CONTINUOUS
 62
     7
 10
-466.540428161621
 20
-120.742004394531
 30
0.0
 11
-466.553298950195
 21
-120.742004394531
 31
0.0
  0
LINE
  5
   715
  8
0
  6
CONTINUOUS
 62
     7
 10
-449.05330657959
 20
-120.742004394531
 30
0.0
 11
-449.05330657959
 21
-126.151525497437
 31
0.0
  0
LINE
  5
   716
  8
0
  6
CONTINUOUS
 62
     7
 10
-447.29044342041
 20
-126.992004513741
 30
0.0
 11
-472.290431976318
 21
-126.992004513741
 31
0.0
  0
LINE
  5
   717
  8
0
  6
CONTINUOUS
 62
     7
 10
-447.29044342041
 20
-120.742004394531
 30
0.0
 11
-447.29044342041
 21
-126.992004394531
 31
0.0
  0
LINE
  5
   718
  8
0
  6
CONTINUOUS
 62
     7
 10
-448.29044342041
 20
-126.242004513741
 30
0.0
 11
-449.54044342041
 21
-126.242004513741
 31
0.0
  0
LINE
  5
   719
  8
0
  6
CONTINUOUS
 62
     7
 10
-452.54044342041
 20
-126.242004513741
 30
0.0
 11
-453.79044342041
 21
-126.242004513741
 31
0.0
  0
LINE
  5
   71A
  8
0
  6
CONTINUOUS
 62
     7
 10
-448.290443407564
 20
-124.242004632657
 30
0.0
 11
-449.053306566744
 21
-124.241995095914
 31
0.0
  0
LINE
  5
   71B
  8
0
  6
CONTINUOUS
 62
     7
 10
-453.027572619058
 20
-124.241995334316
 30
0.0
 11
-453.751708971597
 21
-124.242004632641
 31
0.0
  0
LINE
  5
   71C
  8
0
  6
CONTINUOUS
 62
     7
 10
-448.29044342041
 20
-120.742004394531
 30
0.0
 11
-448.29044342041
 21
-126.242004394531
 31
0.0
  0
LINE
  5
   71D
  8
0
  6
CONTINUOUS
 62
     7
 10
-453.540435790831
 20
-124.242005092297
 30
0.0
 11
-453.540443420226
 21
-120.742004381698
 31
0.0
  0
LINE
  5
   71E
  8
0
  6
CONTINUOUS
 62
     7
 10
-453.679481506348
 20
-120.742004394531
 30
0.0
 11
-453.679481506348
 21
-124.242000341415
 31
0.0
  0
LINE
  5
   71F
  8
0
  6
CONTINUOUS
 62
     7
 10
-453.79044342041
 20
-120.742004394531
 30
0.0
 11
-453.79044342041
 21
-126.242004394531
 31
0.0
  0
LINE
  5
   720
  8
0
  6
CONTINUOUS
 62
     7
 10
-457.040435791016
 20
-126.242004513741
 30
0.0
 11
-458.290435791016
 21
-126.242004513741
 31
0.0
  0
LINE
  5
   721
  8
0
  6
CONTINUOUS
 62
     7
 10
-461.290435791016
 20
-126.242004513741
 30
0.0
 11
-462.540435791016
 21
-126.242004513741
 31
0.0
  0
LINE
  5
   722
  8
0
  6
CONTINUOUS
 62
     7
 10
-457.079177843706
 20
-124.242004632625
 30
0.0
 11
-457.803298937456
 21
-124.241995095882
 31
0.0
  0
LINE
  5
   723
  8
0
  6
CONTINUOUS
 62
     7
 10
-461.777564990944
 20
-124.241995334312
 30
0.0
 11
-462.496597278542
 21
-124.242004632636
 31
0.0
  0
LINE
  5
   724
  8
0
  6
CONTINUOUS
 62
     7
 10
-462.540435791016
 20
-120.742004394531
 30
0.0
 11
-462.540435791016
 21
-126.242004394531
 31
0.0
  0
LINE
  5
   725
  8
0
  6
CONTINUOUS
 62
     7
 10
-461.915428148278
 20
-120.742004393419
 30
0.0
 11
-461.915496812829
 21
-124.242005108365
 31
0.0
  0
LINE
  5
   726
  8
0
  6
CONTINUOUS
 62
     7
 10
-457.665435786645
 20
-120.742004396333
 30
0.0
 11
-457.665473933618
 21
-124.242004634938
 31
0.0
  0
LINE
  5
   727
  8
0
  6
CONTINUOUS
 62
     7
 10
-457.151405334473
 20
-120.742004394531
 30
0.0
 11
-457.151405334473
 21
-124.242000341415
 31
0.0
  0
LINE
  5
   728
  8
0
  6
CONTINUOUS
 62
     7
 10
-457.040435791016
 20
-120.742004394531
 30
0.0
 11
-457.040435791016
 21
-126.242004394531
 31
0.0
  0
LINE
  5
   729
  8
0
  6
CONTINUOUS
 62
     7
 10
-457.665489195204
 20
-120.742003925064
 30
0.0
 11
-457.665512083388
 21
-124.242004640009
 31
0.0
  0
LINE
  5
   72A
  8
0
  6
CONTINUOUS
 62
     7
 10
-465.790428161621
 20
-126.242004513741
 30
0.0
 11
-467.040435791016
 21
-126.242004513741
 31
0.0
  0
LINE
  5
   72B
  8
0
  6
CONTINUOUS
 62
     7
 10
-470.040431976318
 20
-126.242004513741
 30
0.0
 11
-471.290431976318
 21
-126.242004513741
 31
0.0
  0
LINE
  5
   72C
  8
0
  6
CONTINUOUS
 62
     7
 10
-465.829170215829
 20
-124.242004632624
 30
0.0
 11
-466.553298938974
 21
-124.241995095882
 31
0.0
  0
LINE
  5
   72D
  8
0
  6
CONTINUOUS
 62
     7
 10
-470.527561178374
 20
-124.241995095914
 30
0.0
 11
-471.290431966948
 21
-124.242004632657
 31
0.0
  0
LINE
  5
   72E
  8
0
  6
CONTINUOUS
 62
     7
 10
-471.290431976318
 20
-120.742004394531
 30
0.0
 11
-471.290431976318
 21
-126.242004394531
 31
0.0
  0
LINE
  5
   72F
  8
0
  6
CONTINUOUS
 62
     7
 10
-466.040428161466
 20
-120.742004401817
 30
0.0
 11
-466.040435790861
 21
-124.242004636511
 31
0.0
  0
LINE
  5
   730
  8
0
  6
CONTINUOUS
 62
     7
 10
-465.901390075684
 20
-120.742004394531
 30
0.0
 11
-465.901390075684
 21
-124.242000341415
 31
0.0
  0
LINE
  5
   731
  8
0
  6
CONTINUOUS
 62
     7
 10
-465.790428161621
 20
-120.742004394531
 30
0.0
 11
-465.790428161621
 21
-126.242004394531
 31
0.0
  0
LINE
  5
   732
  8
0
  6
CONTINUOUS
 62
     7
 10
-447.290435783625
 20
-126.292004466096
 30
0.0
 11
-447.290443413019
 21
-126.867004513649
 31
0.0
  0
LINE
  5
   733
  8
0
  6
CONTINUOUS
 62
     7
 10
-454.665435791016
 20
-126.242004513741
 30
0.0
 11
-456.165428161621
 21
-126.242004513741
 31
0.0
  0
LINE
  5
   734
  8
0
  6
CONTINUOUS
 62
     7
 10
-456.165428161621
 20
-120.742004394531
 30
0.0
 11
-456.165428161621
 21
-126.992004394531
 31
0.0
  0
LINE
  5
   735
  8
0
  6
CONTINUOUS
 62
     7
 10
-454.665435791016
 20
-120.742004394531
 30
0.0
 11
-454.665435791016
 21
-126.992004394531
 31
0.0
  0
LINE
  5
   736
  8
0
  6
CONTINUOUS
 62
     7
 10
-463.415435791016
 20
-126.242004513741
 30
0.0
 11
-464.915428161621
 21
-126.242004513741
 31
0.0
  0
LINE
  5
   737
  8
0
  6
CONTINUOUS
 62
     7
 10
-463.415435791016
 20
-120.742004394531
 30
0.0
 11
-463.415435791016
 21
-126.992004394531
 31
0.0
  0
LINE
  5
   738
  8
0
  6
CONTINUOUS
 62
     7
 10
-464.915428161621
 20
-120.742004394531
 30
0.0
 11
-464.915428161621
 21
-126.992004394531
 31
0.0
  0
LINE
  5
   739
  8
0
  6
CONTINUOUS
 62
     7
 10
-447.102926867732
 20
-126.292004303138
 30
0.0
 11
-447.153242723185
 21
-126.867004477874
 31
0.0
  0
LINE
  5
   73A
  8
0
  6
CONTINUOUS
 62
     7
 10
-446.665428161621
 20
-120.742004394531
 30
0.0
 11
-446.665428161621
 21
-126.292004585266
 31
0.0
  0
LINE
  5
   73B
  8
0
  6
CONTINUOUS
 62
     7
 10
-446.665428161621
 20
-126.292004466057
 30
0.0
 11
-447.290428161621
 21
-126.292004466057
 31
0.0
  0
LINE
  5
   73C
  8
0
  6
CONTINUOUS
 62
   212
 10
-446.665435791016
 20
-126.492004394531
 30
0.0
 11
-446.665435791016
 21
-127.617004394531
 31
0.0
  0
LINE
  5
   73D
  8
0
  6
CONTINUOUS
 62
   212
 10
-446.915435791016
 20
-126.367004394531
 30
0.0
 11
-447.102935791016
 21
-126.367004394531
 31
0.0
  0
LINE
  5
   73E
  8
0
  6
CONTINUOUS
 62
   212
 10
-446.977935791016
 20
-127.617004394531
 30
0.0
 11
-472.602935791016
 21
-127.617004394531
 31
0.0
  0
LINE
  5
   73F
  8
0
  6
CONTINUOUS
 62
   212
 10
-446.665435791016
 20
-127.617004424334
 30
0.0
 11
-446.665435791016
 21
-128.054504424334
 31
0.0
  0
LINE
  5
   740
  8
0
  6
CONTINUOUS
 62
   212
 10
-447.10293613598
 20
-126.36700455657
 30
0.0
 11
-447.146683083147
 21
-126.867004677526
 31
0.0
  0
LINE
  5
   741
  8
0
  6
CONTINUOUS
 62
   212
 10
-447.146682739258
 20
-126.86700463295
 30
0.0
 11
-447.29044342041
 21
-126.86700463295
 31
0.0
  0
LINE
  5
   742
  8
0
  6
CONTINUOUS
 62
   212
 10
-447.102935791016
 20
-126.367005228996
 30
0.0
 11
-447.109489440918
 21
-126.367005228996
 31
0.0
  0
LINE
  5
   743
  8
0
  6
CONTINUOUS
 62
   212
 10
-446.683740572229
 20
-128.098698947782
 30
0.0
 11
-446.727937653756
 21
-128.117004779008
 31
0.0
  0
LINE
  5
   744
  8
0
  6
CONTINUOUS
 62
   212
 10
-446.665435180014
 20
-128.054504236603
 30
0.0
 11
-446.68373809747
 21
-128.098696030059
 31
0.0
  0
LINE
  5
   745
  8
0
  6
CONTINUOUS
 62
   212
 10
-472.852937564017
 20
-128.117004083931
 30
0.0
 11
-472.897130830819
 21
-128.098698252653
 31
0.0
  0
LINE
  5
   746
  8
0
  6
CONTINUOUS
 62
   212
 10
-446.756966175175
 20
-127.525475367937
 30
0.0
 11
-446.977936324955
 21
-127.617004500115
 31
0.0
  0
LINE
  5
   747
  8
0
  6
CONTINUOUS
 62
   212
 10
-446.665434222029
 20
-127.304503891312
 30
0.0
 11
-446.756964069863
 21
-127.525474765844
 31
0.0
  0
LINE
  5
   748
  8
0
  6
CONTINUOUS
 62
   212
 10
-446.665435791016
 20
-126.492004394531
 30
0.0
 11
-446.915435791016
 21
-126.492004394531
 31
0.0
  0
LINE
  5
   749
  8
0
  6
CONTINUOUS
 62
   212
 10
-446.915435791016
 20
-126.367004394531
 30
0.0
 11
-446.915435791016
 21
-126.492004394531
 31
0.0
  0
LINE
  5
   74A
  8
0
  6
CONTINUOUS
 62
    98
 10
-450.415428161621
 20
-107.242004394531
 30
0.0
 11
-450.415428161621
 21
-107.354469299316
 31
0.0
  0
LINE
  5
   74B
  8
0
  6
CONTINUOUS
 62
    98
 10
-452.415428161621
 20
-107.242004394531
 30
0.0
 11
-452.415428161621
 21
-107.354469299316
 31
0.0
  0
LINE
  5
   74C
  8
0
  6
CONTINUOUS
 62
    98
 10
-458.790420532227
 20
-107.242004394531
 30
0.0
 11
-458.790420532227
 21
-107.354469299316
 31
0.0
  0
LINE
  5
   74D
  8
0
  6
CONTINUOUS
 62
    98
 10
-460.790420532227
 20
-107.242004394531
 30
0.0
 11
-460.790420532227
 21
-107.354469299316
 31
0.0
  0
LINE
  5
   74E
  8
0
  6
CONTINUOUS
 62
    98
 10
-467.165420532227
 20
-107.242004394531
 30
0.0
 11
-467.165420532227
 21
-107.354469299316
 31
0.0
  0
LINE
  5
   74F
  8
0
  6
CONTINUOUS
 62
    98
 10
-469.165424346924
 20
-107.242004394531
 30
0.0
 11
-469.165424346924
 21
-107.354469299316
 31
0.0
  0
LINE
  5
   750
  8
0
  6
CONTINUOUS
 62
   210
 10
-447.227935791016
 20
-102.617008209229
 30
0.0
 11
-447.227935791016
 21
-102.742004394531
 31
0.0
  0
LINE
  5
   751
  8
0
  6
CONTINUOUS
 62
    98
 10
-465.290428161621
 20
-102.617008209229
 30
0.0
 11
-471.790428161621
 21
-102.617008209229
 31
0.0
  0
LINE
  5
   752
  8
0
  6
CONTINUOUS
 62
    98
 10
-456.540428161621
 20
-102.617008209229
 30
0.0
 11
-463.040428161621
 21
-102.617008209229
 31
0.0
  0
LINE
  5
   753
  8
0
  6
CONTINUOUS
 62
    98
 10
-447.227935791016
 20
-102.617008209229
 30
0.0
 11
-454.290428161621
 21
-102.617008209229
 31
0.0
  0
LINE
  5
   754
  8
0
  6
CONTINUOUS
 62
    52
 10
-446.878148599
 20
-130.326576018959
 30
0.0
 11
-447.031278172669
 21
-130.366972234551
 31
0.0
  0
LINE
  5
   755
  8
0
  6
CONTINUOUS
 62
    52
 10
-446.87813882159
 20
-130.326574917618
 30
0.0
 11
-447.031108183195
 21
-130.366920111684
 31
0.0
  0
LINE
  5
   756
  8
0
  6
CONTINUOUS
 62
    52
 10
-446.878134701604
 20
-130.326574453676
 30
0.0
 11
-447.031096435633
 21
-130.366917498753
 31
0.0
  0
LINE
  5
   757
  8
0
  6
CONTINUOUS
 62
    52
 10
-446.764184043514
 20
-130.215740510547
 30
0.0
 11
-446.790856406381
 21
-130.241680690496
 31
0.0
  0
LINE
  5
   758
  8
0
  6
CONTINUOUS
 62
    52
 10
-446.790858056319
 20
-130.241682626527
 30
0.0
 11
-446.878138330753
 21
-130.326575375182
 31
0.0
  0
LINE
  5
   759
  8
0
  6
CONTINUOUS
 62
    52
 10
-446.719502853871
 20
-130.063185097178
 30
0.0
 11
-446.76418821976
 21
-130.215741273514
 31
0.0
  0
LINE
  5
   75A
  8
0
  6
CONTINUOUS
 62
    52
 10
-446.719502853871
 20
-130.063185097178
 30
0.0
 11
-446.76418821976
 21
-130.215741273514
 31
0.0
  0
LINE
  5
   75B
  8
0
  6
CONTINUOUS
 62
    52
 10
-446.719502853871
 20
-130.063185097178
 30
0.0
 11
-446.76418821976
 21
-130.215741273514
 31
0.0
  0
LINE
  5
   75C
  8
0
  6
CONTINUOUS
 62
    52
 10
-446.719502853871
 20
-130.063185097178
 30
0.0
 11
-446.76418821976
 21
-130.215741273514
 31
0.0
  0
LINE
  5
   75D
  8
0
  6
CONTINUOUS
 62
    52
 10
-446.719502853871
 20
-130.063185097178
 30
0.0
 11
-446.76418821976
 21
-130.215741273514
 31
0.0
  0
LINE
  5
   75E
  8
0
  6
CONTINUOUS
 62
    52
 10
-446.665439387997
 20
-128.117007061583
 30
0.0
 11
-446.719501278091
 21
-130.063184030231
 31
0.0
  0
LINE
  5
   75F
  8
0
  6
CONTINUOUS
 62
    52
 10
-446.665435791016
 20
-128.117006972432
 30
0.0
 11
-472.915435791016
 21
-128.117006972432
 31
0.0
  0
LINE
  5
   760
  8
0
  6
CONTINUOUS
 62
    52
 10
-447.031667708084
 20
-130.366992632537
 30
0.0
 11
-447.066312788246
 21
-130.367006937652
 31
0.0
  0
LINE
  5
   761
  8
0
  6
CONTINUOUS
 62
    52
 10
-447.059315116995
 20
-130.366980971929
 30
0.0
 11
-447.09117546834
 21
-130.367006959555
 31
0.0
  0
LINE
  5
   762
  8
0
  6
CONTINUOUS
 62
    52
 10
-447.031264040903
 20
-130.366970794461
 30
0.0
 11
-447.130385136195
 21
-130.367007034084
 31
0.0
  0
LINE
  5
   763
  8
0
  6
CONTINUOUS
 62
    52
 10
-447.031103590986
 20
-130.366919775878
 30
0.0
 11
-447.155249099002
 21
-130.367007037075
 31
0.0
  0
LINE
  5
   764
  8
0
  6
CONTINUOUS
 62
    52
 10
-447.030640740483
 20
-130.366681084444
 30
0.0
 11
-447.227936880807
 21
-130.367007002635
 31
0.0
  0
LINE
  5
   765
  8
0
  6
CONTINUOUS
 62
    52
 10
-447.031875607063
 20
-130.367006778763
 30
0.0
 11
-447.070030209114
 21
-130.367007017182
 31
0.0
  0
LINE
  5
   766
  8
0
  6
CONTINUOUS
 62
    52
 10
-447.068222045899
 20
-130.367007017136
 30
0.0
 11
-447.091171264649
 21
-130.367007017136
 31
0.0
  0
LINE
  5
   767
  8
0
  6
CONTINUOUS
 62
    52
 10
-447.091171264649
 20
-130.367007017136
 30
0.0
 11
-447.097579956055
 21
-130.367007017136
 31
0.0
  0
LINE
  5
   768
  8
0
  6
CONTINUOUS
 62
    52
 10
-447.093086242676
 20
-130.367007017136
 30
0.0
 11
-447.141036987305
 21
-130.367007017136
 31
0.0
  0
LINE
  5
   769
  8
0
  6
CONTINUOUS
 62
    52
 10
-447.132293701172
 20
-130.367007017136
 30
0.0
 11
-447.168586730957
 21
-130.367007017136
 31
0.0
  0
LINE
  5
   76A
  8
0
  6
CONTINUOUS
 62
    52
 10
-447.157165527344
 20
-130.367007017136
 30
0.0
 11
-447.227935791016
 21
-130.367007017136
 31
0.0
  0
LINE
  5
   76B
  8
0
  6
CONTINUOUS
 62
    52
 10
-447.030639634486
 20
-130.366681099135
 30
0.0
 11
-472.352935777064
 21
-130.367007017338
 31
0.0
  0
LINE
  5
   76C
  8
0
  6
CONTINUOUS
 62
    52
 10
-447.030639648438
 20
-130.366681098938
 30
0.0
 11
-472.550235748291
 21
-130.366681098938
 31
0.0
  0
LINE
  5
   76D
  8
0
  6
CONTINUOUS
 62
    52
 10
-472.514568503995
 20
-130.367006935647
 30
0.0
 11
-472.549213584156
 21
-130.366992630532
 31
0.0
  0
LINE
  5
   76E
  8
0
  6
CONTINUOUS
 62
    52
 10
-472.489702988098
 20
-130.36700696207
 30
0.0
 11
-472.521456527957
 21
-130.366980974445
 31
0.0
  0
LINE
  5
   76F
  8
0
  6
CONTINUOUS
 62
    52
 10
-472.45048819388
 20
-130.367007034464
 30
0.0
 11
-472.549609289172
 21
-130.366970794841
 31
0.0
  0
LINE
  5
   770
  8
0
  6
CONTINUOUS
 62
    52
 10
-472.425620017761
 20
-130.367007037981
 30
0.0
 11
-472.549761711081
 21
-130.366919776785
 31
0.0
  0
LINE
  5
   771
  8
0
  6
CONTINUOUS
 62
    52
 10
-472.352936560965
 20
-130.367007000976
 30
0.0
 11
-472.550236515981
 21
-130.366681082777
 31
0.0
  0
LINE
  5
   772
  8
0
  6
CONTINUOUS
 62
    52
 10
-447.141036987305
 20
-130.367007017136
 30
0.0
 11
-447.155250549316
 21
-130.367007017136
 31
0.0
  0
LINE
  5
   773
  8
0
  6
CONTINUOUS
 62
    52
 10
-447.14315032959
 20
-130.367007017136
 30
0.0
 11
-447.155250549316
 21
-130.367007017136
 31
0.0
  0
LINE
  5
   774
  8
0
  6
CONTINUOUS
 62
    52
 10
-447.168586730957
 20
-130.367007017136
 30
0.0
 11
-447.227935791016
 21
-130.367007017136
 31
0.0
  0
LINE
  5
   775
  8
0
  6
CONTINUOUS
 62
    52
 10
-447.170707702637
 20
-130.367007017136
 30
0.0
 11
-447.227935791016
 21
-130.367007017136
 31
0.0
  0
LINE
  5
   776
  8
0
  6
CONTINUOUS
 62
    52
 10
-472.510845184326
 20
-130.367007017136
 30
0.0
 11
-472.51456451416
 21
-130.367007017136
 31
0.0
  0
LINE
  5
   777
  8
0
  6
CONTINUOUS
 62
    52
 10
-472.514564511344
 20
-130.367007017193
 30
0.0
 11
-472.548995968863
 21
-130.367006778774
 31
0.0
  0
LINE
  5
   778
  8
0
  6
CONTINUOUS
 62
    52
 10
-472.483287811279
 20
-130.367007017136
 30
0.0
 11
-472.51265335083
 21
-130.367007017136
 31
0.0
  0
LINE
  5
   779
  8
0
  6
CONTINUOUS
 62
    52
 10
-472.439838409424
 20
-130.367007017136
 30
0.0
 11
-472.487785339356
 21
-130.367007017136
 31
0.0
  0
LINE
  5
   77A
  8
0
  6
CONTINUOUS
 62
    52
 10
-472.412284851074
 20
-130.367007017136
 30
0.0
 11
-472.425617218018
 21
-130.367007017136
 31
0.0
  0
LINE
  5
   77B
  8
0
  6
CONTINUOUS
 62
    52
 10
-472.425621032715
 20
-130.367007017136
 30
0.0
 11
-472.448574066162
 21
-130.367007017136
 31
0.0
  0
LINE
  5
   77C
  8
0
  6
CONTINUOUS
 62
    52
 10
-472.352935791016
 20
-130.367007017136
 30
0.0
 11
-472.423709869385
 21
-130.367007017136
 31
0.0
  0
LINE
  5
   77D
  8
0
  6
CONTINUOUS
 62
    52
 10
-472.489700317383
 20
-130.367006778717
 30
0.0
 11
-472.510848999023
 21
-130.367006778717
 31
0.0
  0
LINE
  5
   77E
  8
0
  6
CONTINUOUS
 62
    52
 10
-472.425621032715
 20
-130.367007017136
 30
0.0
 11
-472.481170654297
 21
-130.367007017136
 31
0.0
  0
LINE
  5
   77F
  8
0
  6
CONTINUOUS
 62
    52
 10
-472.352935791016
 20
-130.367007017136
 30
0.0
 11
-472.412284851074
 21
-130.367007017136
 31
0.0
  0
LINE
  5
   780
  8
0
  6
CONTINUOUS
 62
    52
 10
-472.352935791016
 20
-130.367007017136
 30
0.0
 11
-472.410163879395
 21
-130.367007017136
 31
0.0
  0
LINE
  5
   781
  8
0
  6
CONTINUOUS
 62
    52
 10
-447.227935791016
 20
-130.367007017136
 30
0.0
 11
-447.602935791016
 21
-130.367007017136
 31
0.0
  0
LINE
  5
   782
  8
0
  6
CONTINUOUS
 62
    52
 10
-471.977935791016
 20
-130.367007017136
 30
0.0
 11
-472.352935791016
 21
-130.367007017136
 31
0.0
  0
LINE
  5
   783
  8
0
  6
CONTINUOUS
 62
    52
 10
-459.290435791016
 20
-129.117007017136
 30
0.0
 11
-460.290435791016
 21
-129.117007017136
 31
0.0
  0
LINE
  5
   784
  8
0
  6
CONTINUOUS
 62
    52
 10
-447.227935791016
 20
-130.366681098938
 30
0.0
 11
-447.227935791016
 21
-130.367007017136
 31
0.0
  0
LINE
  5
   785
  8
0
  6
CONTINUOUS
 62
    52
 10
-472.352935791016
 20
-130.366681098938
 30
0.0
 11
-472.352935791016
 21
-130.367007017136
 31
0.0
  0
LINE
  5
   786
  8
0
  6
CONTINUOUS
 62
    52
 10
-460.290435791016
 20
-129.117007017136
 30
0.0
 11
-460.290435791016
 21
-129.742007136345
 31
0.0
  0
LINE
  5
   787
  8
0
  6
CONTINUOUS
 62
    52
 10
-459.290435791016
 20
-129.117007017136
 30
0.0
 11
-459.290435791016
 21
-129.742007136345
 31
0.0
  0
LINE
  5
   788
  8
0
  6
CONTINUOUS
 62
    52
 10
-458.915435791016
 20
-128.992007136345
 30
0.0
 11
-460.665435791016
 21
-128.992007136345
 31
0.0
  0
LINE
  5
   789
  8
0
  6
CONTINUOUS
 62
    52
 10
-458.915435791016
 20
-128.992007136345
 30
0.0
 11
-458.915435791016
 21
-129.742007136345
 31
0.0
  0
LINE
  5
   78A
  8
0
  6
CONTINUOUS
 62
    52
 10
-458.915435791016
 20
-129.742007136345
 30
0.0
 11
-460.665435791016
 21
-129.742007136345
 31
0.0
  0
LINE
  5
   78B
  8
0
  6
CONTINUOUS
 62
    52
 10
-460.665435791016
 20
-128.992007136345
 30
0.0
 11
-460.665435791016
 21
-129.742007136345
 31
0.0
  0
LINE
  5
   78C
  8
0
  6
CONTINUOUS
 62
   130
 10
-447.602935791016
 20
-130.36700463295
 30
0.0
 11
-471.977935791016
 21
-130.36700463295
 31
0.0
  0
LINE
  5
   78D
  8
0
  6
CONTINUOUS
 62
   130
 10
-471.977934272926
 20
-130.36700495822
 30
0.0
 11
-471.978712471155
 21
-130.366681901047
 31
0.0
  0
LINE
  5
   78E
  8
0
  6
CONTINUOUS
 62
   130
 10
-447.602163454487
 20
-130.366683073979
 30
0.0
 11
-447.602941652729
 21
-130.367005654307
 31
0.0
  0
LINE
  5
   78F
  8
0
  6
CONTINUOUS
 62
    98
 10
-448.790428161621
 20
-107.992004394531
 30
0.0
 11
-453.915428161621
 21
-107.992004394531
 31
0.0
  0
LINE
  5
   790
  8
0
  6
CONTINUOUS
 62
    98
 10
-449.540428161621
 20
-107.992004394531
 30
0.0
 11
-449.540428161621
 21
-108.617004394531
 31
0.0
  0
LINE
  5
   791
  8
0
  6
CONTINUOUS
 62
    98
 10
-450.665435791016
 20
-107.992004394531
 30
0.0
 11
-450.665435791016
 21
-108.617004394531
 31
0.0
  0
LINE
  5
   792
  8
0
  6
CONTINUOUS
 62
    98
 10
-452.165435791016
 20
-107.992004394531
 30
0.0
 11
-452.165435791016
 21
-108.617004394531
 31
0.0
  0
LINE
  5
   793
  8
0
  6
CONTINUOUS
 62
    98
 10
-457.290428161621
 20
-107.992004394531
 30
0.0
 11
-462.290428161621
 21
-107.992004394531
 31
0.0
  0
LINE
  5
   794
  8
0
  6
CONTINUOUS
 62
    98
 10
-462.290428161621
 20
-107.992004394531
 30
0.0
 11
-462.290428161621
 21
-108.617004394531
 31
0.0
  0
LINE
  5
   795
  8
0
  6
CONTINUOUS
 62
    98
 10
-457.290428161621
 20
-107.992004394531
 30
0.0
 11
-457.290428161621
 21
-108.617004394531
 31
0.0
  0
LINE
  5
   796
  8
0
  6
CONTINUOUS
 62
    98
 10
-459.040428161621
 20
-107.992004394531
 30
0.0
 11
-459.040428161621
 21
-108.617004394531
 31
0.0
  0
LINE
  5
   797
  8
0
  6
CONTINUOUS
 62
    98
 10
-460.540428161621
 20
-107.992004394531
 30
0.0
 11
-460.540428161621
 21
-108.617004394531
 31
0.0
  0
LINE
  5
   798
  8
0
  6
CONTINUOUS
 62
    98
 10
-465.665428161621
 20
-107.992004394531
 30
0.0
 11
-470.790428161621
 21
-107.992004394531
 31
0.0
  0
LINE
  5
   799
  8
0
  6
CONTINUOUS
 62
    98
 10
-470.040431976318
 20
-107.992004394531
 30
0.0
 11
-470.040431976318
 21
-108.617004394531
 31
0.0
  0
LINE
  5
   79A
  8
0
  6
CONTINUOUS
 62
    98
 10
-468.915424346924
 20
-107.992004394531
 30
0.0
 11
-468.915424346924
 21
-108.617004394531
 31
0.0
  0
LINE
  5
   79B
  8
0
  6
CONTINUOUS
 62
    98
 10
-467.415424346924
 20
-107.992004394531
 30
0.0
 11
-467.415424346924
 21
-108.617004394531
 31
0.0
  0
LINE
  5
   79C
  8
0
  6
CONTINUOUS
 62
    98
 10
-451.040435791016
 20
-102.242004394531
 30
0.0
 11
-451.040435791016
 21
-102.617008209229
 31
0.0
  0
LINE
  5
   79D
  8
0
  6
CONTINUOUS
 62
    98
 10
-448.540420532227
 20
-102.242004394531
 30
0.0
 11
-448.540420532227
 21
-102.617008209229
 31
0.0
  0
LINE
  5
   79E
  8
0
  6
CONTINUOUS
 62
     3
 10
-480.765419006348
 20
-102.242004394531
 30
0.0
 11
-480.765419006348
 21
-102.617008209229
 31
0.0
  0
LINE
  5
   79F
  8
0
  6
CONTINUOUS
 62
     3
 10
-480.015419006348
 20
-102.242004394531
 30
0.0
 11
-480.015419006348
 21
-102.617008209229
 31
0.0
  0
LINE
  5
   7A0
  8
0
  6
CONTINUOUS
 62
   132
 10
-457.165428161621
 20
-130.367007017136
 30
0.0
 11
-457.165428161621
 21
-135.558473348618
 31
0.0
  0
LINE
  5
   7A1
  8
0
  6
CONTINUOUS
 62
   132
 10
-462.415428161621
 20
-130.367007255554
 30
0.0
 11
-462.415428161621
 21
-135.558473587036
 31
0.0
  0
LINE
  5
   7A2
  8
0
  6
CONTINUOUS
 62
    98
 10
-450.665435791016
 20
-108.492004394531
 30
0.0
 11
-452.165435791016
 21
-108.492004394531
 31
0.0
  0
LINE
  5
   7A3
  8
0
  6
CONTINUOUS
 62
    98
 10
-459.040428161621
 20
-108.492004394531
 30
0.0
 11
-460.540428161621
 21
-108.492004394531
 31
0.0
  0
LINE
  5
   7A4
  8
0
  6
CONTINUOUS
 62
    98
 10
-467.415424346924
 20
-108.492004394531
 30
0.0
 11
-468.915424346924
 21
-108.492004394531
 31
0.0
  0
LINE
  5
   7A5
  8
0
  6
CONTINUOUS
 62
    98
 10
-457.040428161621
 20
-108.617004394531
 30
0.0
 11
-457.040428161621
 21
-116.742004394531
 31
0.0
  0
LINE
  5
   7A6
  8
0
  6
CONTINUOUS
 62
    98
 10
-462.540420532227
 20
-108.617004394531
 30
0.0
 11
-462.540420532227
 21
-116.742004394531
 31
0.0
  0
LINE
  5
   7A7
  8
0
  6
CONTINUOUS
 62
    98
 10
-448.290428161621
 20
-108.617004394531
 30
0.0
 11
-448.290428161621
 21
-116.617000579834
 31
0.0
  0
LINE
  5
   7A8
  8
0
  6
CONTINUOUS
 62
    98
 10
-453.790420532227
 20
-108.617004394531
 30
0.0
 11
-453.790420532227
 21
-116.742004394531
 31
0.0
  0
LINE
  5
   7A9
  8
0
  6
CONTINUOUS
 62
    98
 10
-465.790428161621
 20
-108.617004394531
 30
0.0
 11
-465.790428161621
 21
-116.742004394531
 31
0.0
  0
LINE
  5
   7AA
  8
0
  6
CONTINUOUS
 62
    98
 10
-471.290424346924
 20
-108.617004394531
 30
0.0
 11
-471.290424346924
 21
-116.617000579834
 31
0.0
  0
LINE
  5
   7AB
  8
0
  6
CONTINUOUS
 62
    98
 10
-465.665428161621
 20
-105.992008209229
 30
0.0
 11
-471.415428161621
 21
-105.992008209229
 31
0.0
  0
LINE
  5
   7AC
  8
0
  6
CONTINUOUS
 62
    98
 10
-465.665428161621
 20
-104.742004394531
 30
0.0
 11
-471.415428161621
 21
-104.742004394531
 31
0.0
  0
LINE
  5
   7AD
  8
0
  6
CONTINUOUS
 62
    98
 10
-456.915428161621
 20
-105.992008209229
 30
0.0
 11
-462.665428161621
 21
-105.992008209229
 31
0.0
  0
LINE
  5
   7AE
  8
0
  6
CONTINUOUS
 62
    98
 10
-456.915428161621
 20
-104.742004394531
 30
0.0
 11
-462.665428161621
 21
-104.742004394531
 31
0.0
  0
LINE
  5
   7AF
  8
0
  6
CONTINUOUS
 62
    98
 10
-448.165428161621
 20
-105.992008209229
 30
0.0
 11
-453.915428161621
 21
-105.992008209229
 31
0.0
  0
LINE
  5
   7B0
  8
0
  6
CONTINUOUS
 62
    98
 10
-448.165428161621
 20
-104.742004394531
 30
0.0
 11
-453.915428161621
 21
-104.742004394531
 31
0.0
  0
LINE
  5
   7B1
  8
0
  6
CONTINUOUS
 62
    98
 10
-449.147315979004
 20
-116.617000579834
 30
0.0
 11
-449.147315979004
 21
-117.242004394531
 31
0.0
  0
LINE
  5
   7B2
  8
0
  6
CONTINUOUS
 62
    98
 10
-465.790428161621
 20
-116.742004394531
 30
0.0
 11
-465.790428161621
 21
-117.242004394531
 31
0.0
  0
LINE
  5
   7B3
  8
0
  6
CONTINUOUS
 62
    98
 10
-462.540428161621
 20
-116.742004394531
 30
0.0
 11
-462.540428161621
 21
-117.242004394531
 31
0.0
  0
LINE
  5
   7B4
  8
0
  6
CONTINUOUS
 62
    98
 10
-457.040435791016
 20
-116.742004394531
 30
0.0
 11
-457.040435791016
 21
-117.242004394531
 31
0.0
  0
LINE
  5
   7B5
  8
0
  6
CONTINUOUS
 62
    98
 10
-453.790435791016
 20
-116.742004394531
 30
0.0
 11
-453.790435791016
 21
-117.242004394531
 31
0.0
  0
LINE
  5
   7B6
  8
0
  6
CONTINUOUS
 62
    98
 10
-470.433540344238
 20
-116.617000579834
 30
0.0
 11
-470.433540344238
 21
-117.242004394531
 31
0.0
  0
LINE
  5
   7B7
  8
0
  6
CONTINUOUS
 62
     7
 10
-458.290435791016
 20
-120.742004394531
 30
0.0
 11
-458.290435791016
 21
-126.242004394531
 31
0.0
  0
LINE
  5
   7B8
  8
0
  6
CONTINUOUS
 62
     7
 10
-461.777565002441
 20
-120.742004394531
 30
0.0
 11
-461.777565002441
 21
-126.151528835297
 31
0.0
  0
LINE
  5
   7B9
  8
0
  6
CONTINUOUS
 62
     7
 10
-461.290435791016
 20
-120.742004394531
 30
0.0
 11
-461.290435791016
 21
-126.242004394531
 31
0.0
  0
LINE
  5
   7BA
  8
0
  6
CONTINUOUS
 62
     7
 10
-467.040435791016
 20
-120.742004394531
 30
0.0
 11
-467.040435791016
 21
-126.242004394531
 31
0.0
  0
LINE
  5
   7BB
  8
0
  6
CONTINUOUS
 62
     7
 10
-470.527561187744
 20
-120.742004394531
 30
0.0
 11
-470.527561187744
 21
-126.151528835297
 31
0.0
  0
LINE
  5
   7BC
  8
0
  6
CONTINUOUS
 62
     7
 10
-470.040431976318
 20
-120.742004394531
 30
0.0
 11
-470.040431976318
 21
-126.242004394531
 31
0.0
  0
LINE
  5
   7BD
  8
0
  6
CONTINUOUS
 62
     7
 10
-449.54044342041
 20
-120.742004394531
 30
0.0
 11
-449.54044342041
 21
-126.242004394531
 31
0.0
  0
LINE
  5
   7BE
  8
0
  6
CONTINUOUS
 62
     7
 10
-453.027572631836
 20
-120.742004394531
 30
0.0
 11
-453.027572631836
 21
-126.151528835297
 31
0.0
  0
LINE
  5
   7BF
  8
0
  6
CONTINUOUS
 62
     7
 10
-452.54044342041
 20
-120.742004394531
 30
0.0
 11
-452.54044342041
 21
-126.242004394531
 31
0.0
  0
LINE
  5
   7C0
  8
0
  6
CONTINUOUS
 62
     7
 10
-447.540428161621
 20
-120.742004513741
 30
0.0
 11
-447.540428161621
 21
-126.992004513741
 31
0.0
  0
LINE
  5
   7C1
  8
0
  6
CONTINUOUS
 62
     7
 10
-449.05598389555
 20
-126.175016791266
 30
0.0
 11
-449.084479683855
 21
-126.242004306626
 31
0.0
  0
LINE
  5
   7C2
  8
0
  6
CONTINUOUS
 62
     7
 10
-452.996398360407
 20
-126.242004671186
 30
0.0
 11
-453.024894148712
 21
-126.175017155827
 31
0.0
  0
LINE
  5
   7C3
  8
0
  6
CONTINUOUS
 62
     7
 10
-453.024896985578
 20
-126.175016851319
 30
0.0
 11
-453.027574903062
 21
-126.15152880658
 31
0.0
  0
LINE
  5
   7C4
  8
0
  6
CONTINUOUS
 62
     7
 10
-449.053307224453
 20
-126.151525358748
 30
0.0
 11
-449.055985141897
 21
-126.175017099045
 31
0.0
  0
LINE
  5
   7C5
  8
0
  6
CONTINUOUS
 62
     7
 10
-453.769057495426
 20
-125.992003955612
 30
0.0
 11
-453.790442687094
 21
-126.074536005267
 31
0.0
  0
LINE
  5
   7C6
  8
0
  6
CONTINUOUS
 62
     7
 10
-453.751705405043
 20
-125.742003962352
 30
0.0
 11
-453.76905464775
 21
-125.992003727331
 31
0.0
  0
LINE
  5
   7C7
  8
0
  6
CONTINUOUS
 62
     7
 10
-453.751708984375
 20
-124.24200463295
 30
0.0
 11
-453.751708984375
 21
-125.742004394531
 31
0.0
  0
LINE
  5
   7C8
  8
0
  6
CONTINUOUS
 62
     7
 10
-457.805976329818
 20
-126.175016811151
 30
0.0
 11
-457.834472118123
 21
-126.242004326511
 31
0.0
  0
LINE
  5
   7C9
  8
0
  6
CONTINUOUS
 62
     7
 10
-461.746390794675
 20
-126.242004651301
 30
0.0
 11
-461.77488658298
 21
-126.175017135942
 31
0.0
  0
LINE
  5
   7CA
  8
0
  6
CONTINUOUS
 62
     7
 10
-461.774889101457
 20
-126.175016879625
 30
0.0
 11
-461.777567018941
 21
-126.151528834886
 31
0.0
  0
LINE
  5
   7CB
  8
0
  6
CONTINUOUS
 62
     7
 10
-457.803299526582
 20
-126.15152535114
 30
0.0
 11
-457.805977444026
 21
-126.175017091437
 31
0.0
  0
LINE
  5
   7CC
  8
0
  6
CONTINUOUS
 62
     7
 10
-462.516232774553
 20
-125.992003383552
 30
0.0
 11
-462.540433213072
 21
-126.074544968308
 31
0.0
  0
LINE
  5
   7CD
  8
0
  6
CONTINUOUS
 62
     7
 10
-462.496596006735
 20
-125.742004216422
 30
0.0
 11
-462.516234068565
 21
-125.992003982968
 31
0.0
  0
LINE
  5
   7CE
  8
0
  6
CONTINUOUS
 62
     7
 10
-462.496597290039
 20
-124.24200463295
 30
0.0
 11
-462.496597290039
 21
-125.742004394531
 31
0.0
  0
LINE
  5
   7CF
  8
0
  6
CONTINUOUS
 62
     7
 10
-462.415428161621
 20
-120.742004394531
 30
0.0
 11
-462.415428161621
 21
-124.241997003555
 31
0.0
  0
LINE
  5
   7D0
  8
0
  6
CONTINUOUS
 62
     7
 10
-457.079177856445
 20
-124.24200463295
 30
0.0
 11
-457.079177856445
 21
-125.742004394531
 31
0.0
  0
LINE
  5
   7D1
  8
0
  6
CONTINUOUS
 62
     7
 10
-457.061825198037
 20
-125.992004208134
 30
0.0
 11
-457.079174440744
 21
-125.742004443155
 31
0.0
  0
LINE
  5
   7D2
  8
0
  6
CONTINUOUS
 62
     7
 10
-457.040442729014
 20
-126.074536330727
 30
0.0
 11
-457.061827920682
 21
-125.992004281072
 31
0.0
  0
LINE
  5
   7D3
  8
0
  6
CONTINUOUS
 62
     7
 10
-466.55597639348
 20
-126.175016831036
 30
0.0
 11
-466.584472181785
 21
-126.242004346395
 31
0.0
  0
LINE
  5
   7D4
  8
0
  6
CONTINUOUS
 62
     7
 10
-470.49638889951
 20
-126.24200310798
 30
0.0
 11
-470.524888502321
 21
-126.175015594391
 31
0.0
  0
LINE
  5
   7D5
  8
0
  6
CONTINUOUS
 62
     7
 10
-470.524885032033
 20
-126.175016907931
 30
0.0
 11
-470.527562949518
 21
-126.151528863192
 31
0.0
  0
LINE
  5
   7D6
  8
0
  6
CONTINUOUS
 62
     7
 10
-466.553299458105
 20
-126.151525343532
 30
0.0
 11
-466.555977375549
 21
-126.175017083828
 31
0.0
  0
LINE
  5
   7D7
  8
0
  6
CONTINUOUS
 62
     7
 10
-465.829170227051
 20
-124.24200463295
 30
0.0
 11
-465.829170227051
 21
-125.742004394531
 31
0.0
  0
LINE
  5
   7D8
  8
0
  6
CONTINUOUS
 62
     7
 10
-465.811813122703
 20
-125.992004157988
 30
0.0
 11
-465.829169996155
 21
-125.742004395587
 31
0.0
  0
LINE
  5
   7D9
  8
0
  6
CONTINUOUS
 62
     7
 10
-465.790427552419
 20
-126.074536311951
 30
0.0
 11
-465.811812744087
 21
-125.992004262295
 31
0.0
  0
LINE
  5
   7DA
  8
0
  6
CONTINUOUS
 62
   212
 10
-446.727935791016
 20
-128.054504424334
 30
0.0
 11
-472.852935791016
 21
-128.054504424334
 31
0.0
  0
LINE
  5
   7DB
  8
0
  6
CONTINUOUS
 62
   212
 10
-446.727935791016
 20
-127.617004424334
 30
0.0
 11
-446.727935791016
 21
-128.054504424334
 31
0.0
  0
LINE
  5
   7DC
  8
0
  6
CONTINUOUS
 62
   212
 10
-446.683730120406
 20
-128.098701461664
 30
0.0
 11
-446.727927202633
 21
-128.054507292709
 31
0.0
  0
LINE
  5
   7DD
  8
0
  6
CONTINUOUS
 62
   212
 10
-446.727935791016
 20
-127.45539277792
 30
0.0
 11
-446.727935791016
 21
-127.617004424334
 31
0.0
  0
LINE
  5
   7DE
  8
0
  6
CONTINUOUS
 62
    98
 10
-450.415428161621
 20
-107.354469299316
 30
0.0
 11
-452.415428161621
 21
-107.354469299316
 31
0.0
  0
LINE
  5
   7DF
  8
0
  6
CONTINUOUS
 62
    98
 10
-458.790420532227
 20
-107.354469299316
 30
0.0
 11
-460.790420532227
 21
-107.354469299316
 31
0.0
  0
LINE
  5
   7E0
  8
0
  6
CONTINUOUS
 62
    98
 10
-467.165420532227
 20
-107.354469299316
 30
0.0
 11
-469.165424346924
 21
-107.354469299316
 31
0.0
  0
LINE
  5
   7E1
  8
0
  6
CONTINUOUS
 62
    52
 10
-446.790855407715
 20
-130.241681098938
 30
0.0
 11
-472.790019989014
 21
-130.241681098938
 31
0.0
  0
LINE
  5
   7E2
  8
0
  6
CONTINUOUS
 62
    52
 10
-446.790435791016
 20
-128.117007017136
 30
0.0
 11
-446.790435791016
 21
-130.241275072098
 31
0.0
  0
LINE
  5
   7E3
  8
0
  6
CONTINUOUS
 62
    98
 10
-448.790428161621
 20
-107.992004394531
 30
0.0
 11
-448.790428161621
 21
-108.617004394531
 31
0.0
  0
LINE
  5
   7E4
  8
0
  6
CONTINUOUS
 62
    98
 10
-470.790428161621
 20
-107.992004394531
 30
0.0
 11
-470.790428161621
 21
-108.617004394531
 31
0.0
  0
LINE
  5
   7E5
  8
0
  6
CONTINUOUS
 62
   132
 10
-457.415428161621
 20
-135.744701862335
 30
0.0
 11
-459.790428161621
 21
-135.744701862335
 31
0.0
  0
LINE
  5
   7E6
  8
0
  6
CONTINUOUS
 62
   132
 10
-457.245796379611
 20
-135.716002946154
 30
0.0
 11
-457.415428334577
 21
-135.744701867339
 31
0.0
  0
LINE
  5
   7E7
  8
0
  6
CONTINUOUS
 62
   132
 10
-457.238658090574
 20
-135.713422151098
 30
0.0
 11
-457.245799203695
 21
-135.716003270682
 31
0.0
  0
LINE
  5
   7E8
  8
0
  6
CONTINUOUS
 62
   132
 10
-457.168929093439
 20
-135.566625423716
 30
0.0
 11
-457.238654128258
 21
-135.71342165495
 31
0.0
  0
LINE
  5
   7E9
  8
0
  6
CONTINUOUS
 62
   132
 10
-457.165430813878
 20
-135.55847400025
 30
0.0
 11
-457.168932706089
 21
-135.566626008394
 31
0.0
  0
LINE
  5
   7EA
  8
0
  6
CONTINUOUS
 62
   132
 10
-462.165428326408
 20
-135.744701839172
 30
0.0
 11
-462.335060281373
 21
-135.716002917986
 31
0.0
  0
LINE
  5
   7EB
  8
0
  6
CONTINUOUS
 62
   132
 10
-459.790428161621
 20
-135.744701862335
 30
0.0
 11
-462.165428161621
 21
-135.744701862335
 31
0.0
  0
LINE
  5
   7EC
  8
0
  6
CONTINUOUS
 62
   132
 10
-462.342207900892
 20
-135.713422284504
 30
0.0
 11
-462.411932935711
 21
-135.56662605327
 31
0.0
  0
LINE
  5
   7ED
  8
0
  6
CONTINUOUS
 62
   132
 10
-462.335055460319
 20
-135.716004019315
 30
0.0
 11
-462.342204203127
 21
-135.71342289973
 31
0.0
  0
LINE
  5
   7EE
  8
0
  6
CONTINUOUS
 62
   132
 10
-462.411931452856
 20
-135.566626751549
 30
0.0
 11
-462.415425715473
 21
-135.558474743345
 31
0.0
  0
LINE
  5
   7EF
  8
0
  6
DOT
 62
     3
 10
-480.015419006348
 20
-112.346613883972
 30
0.0
 11
-480.765419006348
 21
-112.346613883972
 31
0.0
  0
LINE
  5
   7F0
  8
0
  6
DOT
 62
     3
 10
-480.015419006348
 20
-101.492004394531
 30
0.0
 11
-480.015419006348
 21
-102.242004394531
 31
0.0
  0
LINE
  5
   7F1
  8
0
  6
DOT
 62
     3
 10
-480.765419006348
 20
-101.492004394531
 30
0.0
 11
-480.765419006348
 21
-102.242004394531
 31
0.0
  0
LINE
  5
   7F2
  8
0
  6
DOT
 62
     3
 10
-480.015419006348
 20
-102.617008209229
 30
0.0
 11
-480.015419006348
 21
-112.346613883972
 31
0.0
  0
LINE
  5
   7F3
  8
0
  6
DOT
 62
     3
 10
-480.765419006348
 20
-102.617008209229
 30
0.0
 11
-480.765419006348
 21
-112.346613883972
 31
0.0
  0
LINE
  5
   7F4
  8
0
  6
DASHDOT
 62
     7
 10
-459.790437698364
 20
-99.6175142360901
 30
0.0
 11
-459.790437698364
 21
-137.2903381772
 31
0.0
  0
LINE
  5
   7F5
  8
0
  6
CONTINUOUS
 62
     3
 10
-480.015407562256
 20
-99.7216129302979
 30
0.0
 11
-481.015419006348
 21
-99.7216129302979
 31
0.0
  0
LINE
  5
   7F6
  8
0
  6
CONTINUOUS
 62
     3
 10
-480.01539610279
 20
-97.8575038711514
 30
0.0
 11
-480.015418990973
 21
-96.8466129107461
 31
0.0
  0
LINE
  5
   7F7
  8
0
  6
CONTINUOUS
 62
     3
 10
-481.015419006348
 20
-96.8466129302979
 30
0.0
 11
-481.015419006348
 21
-99.7216129302979
 31
0.0
  0
LINE
  5
   7F8
  8
0
  6
CONTINUOUS
 62
     3
 10
-480.765419006348
 20
-99.7216129302979
 30
0.0
 11
-480.765419006348
 21
-101.492004394531
 31
0.0
  0
LINE
  5
   7F9
  8
0
  6
CONTINUOUS
 62
     3
 10
-480.015419006348
 20
-99.7216129302979
 30
0.0
 11
-480.015419006348
 21
-101.492004394531
 31
0.0
  0
LINE
  5
   7FA
  8
0
  6
CONTINUOUS
 62
     3
 10
-478.515415191551
 20
-99.7216148376236
 30
0.0
 11
-480.015407562157
 21
-99.7216129302749
 31
0.0
  0
LINE
  5
   7FB
  8
0
  6
CONTINUOUS
 62
     3
 10
-478.515415191551
 20
-96.8466148376213
 30
0.0
 11
-481.015419006348
 21
-96.8466116586858
 31
0.0
  0
LINE
  5
   7FC
  8
0
  6
CONTINUOUS
 62
     3
 10
-478.51541519165
 20
-96.8466148376465
 30
0.0
 11
-478.51541519165
 21
-99.7216148376465
 31
0.0
  0
LINE
  5
   7FD
  8
0
  6
CONTINUOUS
 62
     3
 10
-478.51541519165
 20
-97.5975532531738
 30
0.0
 11
-480.015392303467
 21
-97.5975532531738
 31
0.0
  0
LINE
  5
   7FE
  8
0
  6
CONTINUOUS
 62
     3
 10
-478.515415191553
 20
-97.8575057983156
 30
0.0
 11
-480.015407562159
 21
-97.8575038909669
 31
0.0
  0
LINE
  5
   7FF
  8
0
  6
CONTINUOUS
 62
     3
 10
-480.765419006348
 20
-99.7216129302979
 30
0.0
 11
-480.765419006348
 21
-101.492004394531
 31
0.0
  0
LINE
  5
   800
  8
0
  6
CONTINUOUS
 62
     3
 10
-480.015419006348
 20
-99.7216129302979
 30
0.0
 11
-480.015419006348
 21
-101.492004394531
 31
0.0
  0
LINE
  5
   801
  8
0
  6
CONTINUOUS
 62
    98
 10
-473.352931911668
 20
-105.992004394525
 30
0.0
 11
-473.352931911668
 21
-120.742004394525
 31
0.0
  0
LINE
  5
   802
  8
0
  6
CONTINUOUS
 62
    98
 10
-481.040424346924
 20
-102.742004394531
 30
0.0
 11
-481.040424346924
 21
-120.742004394531
 31
0.0
  0
LINE
  5
   803
  8
0
  6
CONTINUOUS
 62
    98
 10
-481.665424346924
 20
-102.742004394531
 30
0.0
 11
-481.665424346924
 21
-120.742004394531
 31
0.0
  0
LINE
  5
   804
  8
0
  6
CONTINUOUS
 62
    98
 10
-472.477928161621
 20
-105.992004394531
 30
0.0
 11
-472.477928161621
 21
-120.742004394531
 31
0.0
  0
LINE
  5
   805
  8
0
  6
CONTINUOUS
 62
    98
 10
-455.415435791016
 20
-120.742004394531
 30
0.0
 11
-481.665424346924
 21
-120.742004394531
 31
0.0
  0
LINE
  5
   806
  8
0
  6
CONTINUOUS
 62
    98
 10
-474.290428161621
 20
-102.742004394531
 30
0.0
 11
-481.665424346924
 21
-102.742004394531
 31
0.0
  0
LINE
  5
   807
  8
0
  6
CONTINUOUS
 62
    98
 10
-471.540420532227
 20
-102.742004394531
 30
0.0
 11
-474.290428161621
 21
-102.742004394531
 31
0.0
  0
LINE
  5
   808
  8
0
  6
CONTINUOUS
 62
    98
 10
-474.290428161621
 20
-117.242004394531
 30
0.0
 11
-480.290424346924
 21
-117.242004394531
 31
0.0
  0
LINE
  5
   809
  8
0
  6
CONTINUOUS
 62
    98
 10
-474.290428161621
 20
-102.742004394531
 30
0.0
 11
-474.290428161621
 21
-117.242004394531
 31
0.0
  0
LINE
  5
   80A
  8
0
  6
CONTINUOUS
 62
    98
 10
-480.290424346924
 20
-102.742004394531
 30
0.0
 11
-480.290424346924
 21
-117.242003440857
 31
0.0
  0
LINE
  5
   80B
  8
0
  6
CONTINUOUS
 62
    98
 10
-474.415428161621
 20
-108.617004394531
 30
0.0
 11
-480.165428161621
 21
-108.617004394531
 31
0.0
  0
LINE
  5
   80C
  8
0
  6
CONTINUOUS
 62
    98
 10
-474.415428161621
 20
-102.742004394531
 30
0.0
 11
-474.415428161621
 21
-108.617004394531
 31
0.0
  0
LINE
  5
   80D
  8
0
  6
CONTINUOUS
 62
    98
 10
-480.165428161621
 20
-102.742004394531
 30
0.0
 11
-480.165428161621
 21
-108.617004394531
 31
0.0
  0
LINE
  5
   80E
  8
0
  6
CONTINUOUS
 62
    98
 10
-474.415428161621
 20
-107.242004394531
 30
0.0
 11
-480.165424346924
 21
-107.242004394531
 31
0.0
  0
LINE
  5
   80F
  8
0
  6
CONTINUOUS
 62
    98
 10
-474.290428161621
 20
-116.742004394531
 30
0.0
 11
-474.540428161621
 21
-116.742004394531
 31
0.0
  0
LINE
  5
   810
  8
0
  6
CONTINUOUS
 62
    98
 10
-479.183540344238
 20
-116.617000579834
 30
0.0
 11
-480.290424346924
 21
-116.617000579834
 31
0.0
  0
LINE
  5
   811
  8
0
  6
CONTINUOUS
 62
    98
 10
-474.290428161621
 20
-108.617004394531
 30
0.0
 11
-474.415428161621
 21
-108.617004394531
 31
0.0
  0
LINE
  5
   812
  8
0
  6
CONTINUOUS
 62
    98
 10
-480.165428161621
 20
-108.617004394531
 30
0.0
 11
-480.290428161621
 21
-108.617004394531
 31
0.0
  0
LINE
  5
   813
  8
0
  6
CONTINUOUS
 62
    98
 10
-474.040428161621
 20
-102.242004394531
 30
0.0
 11
-474.040428161621
 21
-102.742004394531
 31
0.0
  0
LINE
  5
   814
  8
0
  6
CONTINUOUS
 62
    98
 10
-472.290420532227
 20
-102.742004394531
 30
0.0
 11
-472.290420532227
 21
-105.992004394531
 31
0.0
  0
LINE
  5
   815
  8
0
  6
CONTINUOUS
 62
    98
 10
-472.290420532227
 20
-105.992004394531
 30
0.0
 11
-472.477928161621
 21
-105.992004394531
 31
0.0
  0
LINE
  5
   816
  8
0
  6
CONTINUOUS
 62
    98
 10
-473.540420532227
 20
-102.742004394531
 30
0.0
 11
-473.540420532227
 21
-105.992004394531
 31
0.0
  0
LINE
  5
   817
  8
0
  6
CONTINUOUS
 62
    98
 10
-473.352920532227
 20
-105.992004394531
 30
0.0
 11
-473.540420532227
 21
-105.992004394531
 31
0.0
  0
LINE
  5
   818
  8
0
  6
CONTINUOUS
 62
     7
 10
-475.303298950195
 20
-120.742004394531
 30
0.0
 11
-475.303298950195
 21
-126.151525497437
 31
0.0
  0
LINE
  5
   819
  8
0
  6
CONTINUOUS
 62
     7
 10
-475.290428161621
 20
-120.742004394531
 30
0.0
 11
-475.303298950195
 21
-120.742004394531
 31
0.0
  0
LINE
  5
   81A
  8
0
  6
CONTINUOUS
 62
     7
 10
-456.04044342041
 20
-126.992004513741
 30
0.0
 11
-481.040431976318
 21
-126.992004513741
 31
0.0
  0
LINE
  5
   81B
  8
0
  6
CONTINUOUS
 62
     7
 10
-481.040431976318
 20
-120.742004394531
 30
0.0
 11
-481.040431976318
 21
-126.992004394531
 31
0.0
  0
LINE
  5
   81C
  8
0
  6
CONTINUOUS
 62
     7
 10
-474.540428161621
 20
-126.242004513741
 30
0.0
 11
-475.790435791016
 21
-126.242004513741
 31
0.0
  0
LINE
  5
   81D
  8
0
  6
CONTINUOUS
 62
     7
 10
-478.790431976318
 20
-126.242004513741
 30
0.0
 11
-480.040431976318
 21
-126.242004513741
 31
0.0
  0
LINE
  5
   81E
  8
0
  6
CONTINUOUS
 62
     7
 10
-474.579170215829
 20
-124.242004632624
 30
0.0
 11
-475.303298938974
 21
-124.241995095882
 31
0.0
  0
LINE
  5
   81F
  8
0
  6
CONTINUOUS
 62
     7
 10
-479.277561178374
 20
-124.241995095914
 30
0.0
 11
-480.040431966948
 21
-124.242004632657
 31
0.0
  0
LINE
  5
   820
  8
0
  6
CONTINUOUS
 62
     7
 10
-480.040431976318
 20
-120.742004394531
 30
0.0
 11
-480.040431976318
 21
-126.242004394531
 31
0.0
  0
LINE
  5
   821
  8
0
  6
CONTINUOUS
 62
     7
 10
-474.790428161466
 20
-120.742004402523
 30
0.0
 11
-474.790435790861
 21
-124.242004637217
 31
0.0
  0
LINE
  5
   822
  8
0
  6
CONTINUOUS
 62
     7
 10
-474.651390075684
 20
-120.742004394531
 30
0.0
 11
-474.651390075684
 21
-124.242000341415
 31
0.0
  0
LINE
  5
   823
  8
0
  6
CONTINUOUS
 62
     7
 10
-474.540428161621
 20
-120.742004394531
 30
0.0
 11
-474.540428161621
 21
-126.242004394531
 31
0.0
  0
LINE
  5
   824
  8
0
  6
CONTINUOUS
 62
     7
 10
-481.665431975731
 20
-120.742004378481
 30
0.0
 11
-481.665435790428
 21
-119.892004949716
 31
0.0
  0
LINE
  5
   825
  8
0
  6
CONTINUOUS
 62
     7
 10
-472.165435791016
 20
-126.242004513741
 30
0.0
 11
-473.665428161621
 21
-126.242004513741
 31
0.0
  0
LINE
  5
   826
  8
0
  6
CONTINUOUS
 62
     7
 10
-472.165435791016
 20
-120.742004394531
 30
0.0
 11
-472.165435791016
 21
-126.992004394531
 31
0.0
  0
LINE
  5
   827
  8
0
  6
CONTINUOUS
 62
     7
 10
-473.665428161621
 20
-120.742004394531
 30
0.0
 11
-473.665428161621
 21
-126.992004394531
 31
0.0
  0
LINE
  5
   828
  8
0
  6
CONTINUOUS
 62
     7
 10
-481.665439605126
 20
-120.742004378498
 30
0.0
 11
-481.665443419823
 21
-119.892004949733
 31
0.0
  0
LINE
  5
   829
  8
0
  6
CONTINUOUS
 62
     7
 10
-481.177624397172
 20
-126.867003939913
 30
0.0
 11
-481.227936439387
 21
-126.292004261859
 31
0.0
  0
LINE
  5
   82A
  8
0
  6
CONTINUOUS
 62
     7
 10
-481.665431976318
 20
-120.742004394531
 30
0.0
 11
-481.665431976318
 21
-126.292004585266
 31
0.0
  0
LINE
  5
   82B
  8
0
  6
CONTINUOUS
 62
     7
 10
-481.040431976318
 20
-126.292004466057
 30
0.0
 11
-481.665431976318
 21
-126.292004466057
 31
0.0
  0
LINE
  5
   82C
  8
0
  6
CONTINUOUS
 62
   212
 10
-481.221370697022
 20
-126.367004394531
 30
0.0
 11
-481.415435791016
 21
-126.367004394531
 31
0.0
  0
LINE
  5
   82D
  8
0
  6
CONTINUOUS
 62
   212
 10
-481.665435791016
 20
-126.492004424334
 30
0.0
 11
-481.665435791016
 21
-127.617004424334
 31
0.0
  0
LINE
  5
   82E
  8
0
  6
CONTINUOUS
 62
   212
 10
-455.727935791016
 20
-127.617004394531
 30
0.0
 11
-481.352935791016
 21
-127.617004394531
 31
0.0
  0
LINE
  5
   82F
  8
0
  6
CONTINUOUS
 62
   212
 10
-481.665435791016
 20
-127.617004424334
 30
0.0
 11
-481.665435791016
 21
-128.054504424334
 31
0.0
  0
LINE
  5
   830
  8
0
  6
CONTINUOUS
 62
   212
 10
-481.184193828794
 20
-126.867005077779
 30
0.0
 11
-481.227933146709
 21
-126.3670044768
 31
0.0
  0
LINE
  5
   831
  8
0
  6
CONTINUOUS
 62
   212
 10
-481.040431976318
 20
-126.867005109787
 30
0.0
 11
-481.184192657471
 21
-126.867005109787
 31
0.0
  0
LINE
  5
   832
  8
0
  6
CONTINUOUS
 62
   212
 10
-481.602937564017
 20
-128.117004083931
 30
0.0
 11
-481.647130830819
 21
-128.098698252653
 31
0.0
  0
LINE
  5
   833
  8
0
  6
CONTINUOUS
 62
   212
 10
-481.647125033227
 20
-128.098698404618
 30
0.0
 11
-481.665431765467
 21
-128.054505672386
 31
0.0
  0
LINE
  5
   834
  8
0
  6
CONTINUOUS
 62
   212
 10
-481.352936163574
 20
-127.617004324856
 30
0.0
 11
-481.573906313354
 21
-127.525475192678
 31
0.0
  0
LINE
  5
   835
  8
0
  6
CONTINUOUS
 62
   212
 10
-481.573904867743
 20
-127.525475581363
 30
0.0
 11
-481.665434715577
 21
-127.304504706831
 31
0.0
  0
LINE
  5
   836
  8
0
  6
CONTINUOUS
 62
   212
 10
-481.415435791016
 20
-126.492004394531
 30
0.0
 11
-481.665435791016
 21
-126.492004394531
 31
0.0
  0
LINE
  5
   837
  8
0
  6
CONTINUOUS
 62
   212
 10
-481.415435791016
 20
-126.367004394531
 30
0.0
 11
-481.415435791016
 21
-126.492004394531
 31
0.0
  0
LINE
  5
   838
  8
0
  6
CONTINUOUS
 62
    98
 10
-475.915420532227
 20
-107.242004394531
 30
0.0
 11
-475.915420532227
 21
-107.354469299316
 31
0.0
  0
LINE
  5
   839
  8
0
  6
CONTINUOUS
 62
    98
 10
-477.915424346924
 20
-107.242004394531
 30
0.0
 11
-477.915424346924
 21
-107.354469299316
 31
0.0
  0
LINE
  5
   83A
  8
0
  6
CONTINUOUS
 62
   210
 10
-481.102931976318
 20
-102.617008209229
 30
0.0
 11
-481.102931976318
 21
-102.742004394531
 31
0.0
  0
LINE
  5
   83B
  8
0
  6
CONTINUOUS
 62
    98
 10
-474.040428161621
 20
-102.617008209229
 30
0.0
 11
-481.102931976318
 21
-102.617008209229
 31
0.0
  0
LINE
  5
   83C
  8
0
  6
CONTINUOUS
 62
    52
 10
-481.611376386904
 20
-130.063183778072
 30
0.0
 11
-481.665438276998
 21
-128.117006809425
 31
0.0
  0
LINE
  5
   83D
  8
0
  6
CONTINUOUS
 62
    52
 10
-481.611437417018
 20
-130.063185545483
 30
0.0
 11
-481.665499307112
 21
-128.117008576835
 31
0.0
  0
LINE
  5
   83E
  8
0
  6
CONTINUOUS
 62
    52
 10
-481.56669216273
 20
-130.215739073306
 30
0.0
 11
-481.61137752862
 21
-130.063182896969
 31
0.0
  0
LINE
  5
   83F
  8
0
  6
CONTINUOUS
 62
    52
 10
-481.566690204712
 20
-130.215739678648
 30
0.0
 11
-481.611451864135
 21
-130.06318564579
 31
0.0
  0
LINE
  5
   840
  8
0
  6
CONTINUOUS
 62
    52
 10
-481.566686102902
 20
-130.215740970752
 30
0.0
 11
-481.611432503772
 21
-130.063186457419
 31
0.0
  0
LINE
  5
   841
  8
0
  6
CONTINUOUS
 62
    52
 10
-481.570089393523
 20
-130.204146960296
 30
0.0
 11
-481.603818948268
 21
-130.089173414459
 31
0.0
  0
LINE
  5
   842
  8
0
  6
CONTINUOUS
 62
    52
 10
-481.566688428508
 20
-130.215740238214
 30
0.0
 11
-481.598487744417
 21
-130.107294116239
 31
0.0
  0
LINE
  5
   843
  8
0
  6
CONTINUOUS
 62
    52
 10
-481.452733195951
 20
-130.326574159477
 30
0.0
 11
-481.566689647977
 21
-130.215739803324
 31
0.0
  0
LINE
  5
   844
  8
0
  6
CONTINUOUS
 62
    52
 10
-481.29960847706
 20
-130.366971024941
 30
0.0
 11
-481.452730422851
 21
-130.326574811532
 31
0.0
  0
LINE
  5
   845
  8
0
  6
CONTINUOUS
 62
    52
 10
-481.299764929771
 20
-130.366919427676
 30
0.0
 11
-481.452734291376
 21
-130.32657423361
 31
0.0
  0
LINE
  5
   846
  8
0
  6
CONTINUOUS
 62
    52
 10
-481.299771015471
 20
-130.366918080007
 30
0.0
 11
-481.452728931057
 21
-130.326575034493
 31
0.0
  0
LINE
  5
   847
  8
0
  6
CONTINUOUS
 62
    52
 10
-455.415435791016
 20
-128.117006972432
 30
0.0
 11
-481.665435791016
 21
-128.117006972432
 31
0.0
  0
LINE
  5
   848
  8
0
  6
CONTINUOUS
 62
    52
 10
-455.780639634486
 20
-130.366681099135
 30
0.0
 11
-481.102935777064
 21
-130.367007017338
 31
0.0
  0
LINE
  5
   849
  8
0
  6
CONTINUOUS
 62
    52
 10
-455.780639648438
 20
-130.366681098938
 30
0.0
 11
-481.300235748291
 21
-130.366681098938
 31
0.0
  0
LINE
  5
   84A
  8
0
  6
CONTINUOUS
 62
    52
 10
-481.264568503995
 20
-130.367006935647
 30
0.0
 11
-481.299213584157
 21
-130.366992630532
 31
0.0
  0
LINE
  5
   84B
  8
0
  6
CONTINUOUS
 62
    52
 10
-481.239702988098
 20
-130.36700696207
 30
0.0
 11
-481.271456527957
 21
-130.366980974445
 31
0.0
  0
LINE
  5
   84C
  8
0
  6
CONTINUOUS
 62
    52
 10
-481.20048819388
 20
-130.367007034464
 30
0.0
 11
-481.299609289172
 21
-130.366970794841
 31
0.0
  0
LINE
  5
   84D
  8
0
  6
CONTINUOUS
 62
    52
 10
-481.175620017761
 20
-130.367007037981
 30
0.0
 11
-481.299761711081
 21
-130.366919776785
 31
0.0
  0
LINE
  5
   84E
  8
0
  6
CONTINUOUS
 62
    52
 10
-481.102936560965
 20
-130.367007000976
 30
0.0
 11
-481.300236515981
 21
-130.366681082777
 31
0.0
  0
LINE
  5
   84F
  8
0
  6
CONTINUOUS
 62
    52
 10
-481.260845184326
 20
-130.367007017136
 30
0.0
 11
-481.26456451416
 21
-130.367007017136
 31
0.0
  0
LINE
  5
   850
  8
0
  6
CONTINUOUS
 62
    52
 10
-481.264564511344
 20
-130.367007017193
 30
0.0
 11
-481.298995968864
 21
-130.367006778774
 31
0.0
  0
LINE
  5
   851
  8
0
  6
CONTINUOUS
 62
    52
 10
-481.233287811279
 20
-130.367007017136
 30
0.0
 11
-481.26265335083
 21
-130.367007017136
 31
0.0
  0
LINE
  5
   852
  8
0
  6
CONTINUOUS
 62
    52
 10
-481.189838409424
 20
-130.367007017136
 30
0.0
 11
-481.237785339356
 21
-130.367007017136
 31
0.0
  0
LINE
  5
   853
  8
0
  6
CONTINUOUS
 62
    52
 10
-481.162284851074
 20
-130.367007017136
 30
0.0
 11
-481.175617218018
 21
-130.367007017136
 31
0.0
  0
LINE
  5
   854
  8
0
  6
CONTINUOUS
 62
    52
 10
-481.175621032715
 20
-130.367007017136
 30
0.0
 11
-481.198574066162
 21
-130.367007017136
 31
0.0
  0
LINE
  5
   855
  8
0
  6
CONTINUOUS
 62
    52
 10
-481.102935791016
 20
-130.367007017136
 30
0.0
 11
-481.173709869385
 21
-130.367007017136
 31
0.0
  0
LINE
  5
   856
  8
0
  6
CONTINUOUS
 62
    52
 10
-481.239700317383
 20
-130.367006778717
 30
0.0
 11
-481.260848999024
 21
-130.367006778717
 31
0.0
  0
LINE
  5
   857
  8
0
  6
CONTINUOUS
 62
    52
 10
-481.175621032715
 20
-130.367007017136
 30
0.0
 11
-481.231170654297
 21
-130.367007017136
 31
0.0
  0
LINE
  5
   858
  8
0
  6
CONTINUOUS
 62
    52
 10
-481.102935791016
 20
-130.367007017136
 30
0.0
 11
-481.162284851074
 21
-130.367007017136
 31
0.0
  0
LINE
  5
   859
  8
0
  6
CONTINUOUS
 62
    52
 10
-481.102935791016
 20
-130.367007017136
 30
0.0
 11
-481.160163879395
 21
-130.367007017136
 31
0.0
  0
LINE
  5
   85A
  8
0
  6
CONTINUOUS
 62
    52
 10
-480.727935791016
 20
-130.367007017136
 30
0.0
 11
-481.102935791016
 21
-130.367007017136
 31
0.0
  0
LINE
  5
   85B
  8
0
  6
CONTINUOUS
 62
    52
 10
-481.102935791016
 20
-130.366681098938
 30
0.0
 11
-481.102935791016
 21
-130.367007017136
 31
0.0
  0
LINE
  5
   85C
  8
0
  6
CONTINUOUS
 62
   130
 10
-456.352935791016
 20
-130.36700463295
 30
0.0
 11
-480.727935791016
 21
-130.36700463295
 31
0.0
  0
LINE
  5
   85D
  8
0
  6
CONTINUOUS
 62
   130
 10
-480.727934272926
 20
-130.36700495822
 30
0.0
 11
-480.728712471155
 21
-130.366681901047
 31
0.0
  0
LINE
  5
   85E
  8
0
  6
CONTINUOUS
 62
    98
 10
-474.415428161621
 20
-107.992004394531
 30
0.0
 11
-479.540428161621
 21
-107.992004394531
 31
0.0
  0
LINE
  5
   85F
  8
0
  6
CONTINUOUS
 62
    98
 10
-478.790431976318
 20
-107.992004394531
 30
0.0
 11
-478.790431976318
 21
-108.617004394531
 31
0.0
  0
LINE
  5
   860
  8
0
  6
CONTINUOUS
 62
    98
 10
-477.665424346924
 20
-107.992004394531
 30
0.0
 11
-477.665424346924
 21
-108.617004394531
 31
0.0
  0
LINE
  5
   861
  8
0
  6
CONTINUOUS
 62
    98
 10
-476.165424346924
 20
-107.992004394531
 30
0.0
 11
-476.165424346924
 21
-108.617004394531
 31
0.0
  0
LINE
  5
   862
  8
0
  6
CONTINUOUS
 62
    98
 10
-477.290424346924
 20
-102.242004394531
 30
0.0
 11
-477.290424346924
 21
-102.617008209229
 31
0.0
  0
LINE
  5
   863
  8
0
  6
CONTINUOUS
 62
    98
 10
-479.790435791016
 20
-102.242004394531
 30
0.0
 11
-479.790435791016
 21
-102.617008209229
 31
0.0
  0
LINE
  5
   864
  8
0
  6
CONTINUOUS
 62
    98
 10
-476.165424346924
 20
-108.492004394531
 30
0.0
 11
-477.665424346924
 21
-108.492004394531
 31
0.0
  0
LINE
  5
   865
  8
0
  6
CONTINUOUS
 62
    98
 10
-474.540428161621
 20
-108.617004394531
 30
0.0
 11
-474.540428161621
 21
-116.742004394531
 31
0.0
  0
LINE
  5
   866
  8
0
  6
CONTINUOUS
 62
    98
 10
-480.040424346924
 20
-108.617004394531
 30
0.0
 11
-480.040424346924
 21
-116.617000579834
 31
0.0
  0
LINE
  5
   867
  8
0
  6
CONTINUOUS
 62
    98
 10
-474.415428161621
 20
-105.992008209229
 30
0.0
 11
-480.165428161621
 21
-105.992008209229
 31
0.0
  0
LINE
  5
   868
  8
0
  6
CONTINUOUS
 62
    98
 10
-474.415428161621
 20
-104.742004394531
 30
0.0
 11
-480.165428161621
 21
-104.742004394531
 31
0.0
  0
LINE
  5
   869
  8
0
  6
CONTINUOUS
 62
    98
 10
-474.540428161621
 20
-116.742004394531
 30
0.0
 11
-474.540428161621
 21
-117.242004394531
 31
0.0
  0
LINE
  5
   86A
  8
0
  6
CONTINUOUS
 62
    98
 10
-479.183540344238
 20
-116.617000579834
 30
0.0
 11
-479.183540344238
 21
-117.242004394531
 31
0.0
  0
LINE
  5
   86B
  8
0
  6
CONTINUOUS
 62
     7
 10
-475.790435791016
 20
-120.742004394531
 30
0.0
 11
-475.790435791016
 21
-126.242004394531
 31
0.0
  0
LINE
  5
   86C
  8
0
  6
CONTINUOUS
 62
     7
 10
-479.277561187744
 20
-120.742004394531
 30
0.0
 11
-479.277561187744
 21
-126.151528835297
 31
0.0
  0
LINE
  5
   86D
  8
0
  6
CONTINUOUS
 62
     7
 10
-478.790431976318
 20
-120.742004394531
 30
0.0
 11
-478.790431976318
 21
-126.242004394531
 31
0.0
  0
LINE
  5
   86E
  8
0
  6
CONTINUOUS
 62
     7
 10
-480.790431976318
 20
-120.742004513741
 30
0.0
 11
-480.790431976318
 21
-126.992004513741
 31
0.0
  0
LINE
  5
   86F
  8
0
  6
CONTINUOUS
 62
     7
 10
-475.30597639348
 20
-126.175016831036
 30
0.0
 11
-475.334472181785
 21
-126.242004346395
 31
0.0
  0
LINE
  5
   870
  8
0
  6
CONTINUOUS
 62
     7
 10
-479.24638889951
 20
-126.24200310798
 30
0.0
 11
-479.274888502321
 21
-126.175015594391
 31
0.0
  0
LINE
  5
   871
  8
0
  6
CONTINUOUS
 62
     7
 10
-479.274885032033
 20
-126.175016907931
 30
0.0
 11
-479.277562949518
 21
-126.151528863192
 31
0.0
  0
LINE
  5
   872
  8
0
  6
CONTINUOUS
 62
     7
 10
-475.303299458105
 20
-126.151525343532
 30
0.0
 11
-475.305977375549
 21
-126.175017083829
 31
0.0
  0
LINE
  5
   873
  8
0
  6
CONTINUOUS
 62
     7
 10
-474.579170227051
 20
-124.24200463295
 30
0.0
 11
-474.579170227051
 21
-125.742004394531
 31
0.0
  0
LINE
  5
   874
  8
0
  6
CONTINUOUS
 62
     7
 10
-474.561813122703
 20
-125.992004157989
 30
0.0
 11
-474.579169996155
 21
-125.742004395587
 31
0.0
  0
LINE
  5
   875
  8
0
  6
CONTINUOUS
 62
     7
 10
-474.540427552419
 20
-126.07453631195
 30
0.0
 11
-474.561812744087
 21
-125.992004262295
 31
0.0
  0
LINE
  5
   876
  8
0
  6
CONTINUOUS
 62
   212
 10
-455.477935791016
 20
-128.054504424334
 30
0.0
 11
-481.602935791016
 21
-128.054504424334
 31
0.0
  0
LINE
  5
   877
  8
0
  6
CONTINUOUS
 62
   212
 10
-481.602937285051
 20
-128.054504920927
 30
0.0
 11
-481.64713055165
 21
-128.098699089037
 31
0.0
  0
LINE
  5
   878
  8
0
  6
CONTINUOUS
 62
   212
 10
-481.602935791016
 20
-127.617004424334
 30
0.0
 11
-481.602935791016
 21
-128.054504424334
 31
0.0
  0
LINE
  5
   879
  8
0
  6
CONTINUOUS
 62
   212
 10
-481.602935791016
 20
-127.45539277792
 30
0.0
 11
-481.602935791016
 21
-127.617004424334
 31
0.0
  0
LINE
  5
   87A
  8
0
  6
CONTINUOUS
 62
    98
 10
-475.915420532227
 20
-107.354469299316
 30
0.0
 11
-477.915424346924
 21
-107.354469299316
 31
0.0
  0
LINE
  5
   87B
  8
0
  6
CONTINUOUS
 62
    52
 10
-455.540855407715
 20
-130.241681098938
 30
0.0
 11
-481.540019989014
 21
-130.241681098938
 31
0.0
  0
LINE
  5
   87C
  8
0
  6
CONTINUOUS
 62
    52
 10
-481.540435791016
 20
-128.117007017136
 30
0.0
 11
-481.540435791016
 21
-130.241275072098
 31
0.0
  0
LINE
  5
   87D
  8
0
  6
CONTINUOUS
 62
    98
 10
-479.540428161621
 20
-107.992004394531
 30
0.0
 11
-479.540428161621
 21
-108.617004394531
 31
0.0
  0
LINE
  5
   87E
  8
0
  6
CONTINUOUS
 62
    98
 10
-471.790428161621
 20
-102.242004394531
 30
0.0
 11
-471.790428161621
 21
-102.742004394531
 31
0.0
  0
LINE
  5
   87F
  8
0
  6
DASHDOT
 62
     7
 10
-501.040431976318
 20
-99.3455744571953
 30
0.0
 11
-501.040431976318
 21
-103.055353056093
 31
0.0
  0
LINE
  5
   880
  8
0
  6
DASHDOT
 62
     7
 10
-455.439118484225
 20
-99.2555312873191
 30
0.0
 11
-455.439118484225
 21
-103.649637977275
 31
0.0
  0
LINE
  5
   881
  8
0
  6
CONTINUOUS
 62
     7
 10
-454.939118484225
 20
-100.117004394531
 30
0.0
 11
-455.939118484225
 21
-100.117004394531
 31
0.0
  0
LINE
  5
   882
  8
0
  6
CONTINUOUS
 62
     7
 10
-456.064118484225
 20
-100.242004394531
 30
0.0
 11
-456.064118484225
 21
-101.492004394531
 31
0.0
  0
LINE
  5
   883
  8
0
  6
CONTINUOUS
 62
     7
 10
-454.814118484225
 20
-100.242004394531
 30
0.0
 11
-454.814118484225
 21
-101.492004394531
 31
0.0
  0
LINE
  5
   884
  8
0
  6
CONTINUOUS
 62
     7
 10
-454.814118484225
 20
-100.242004394531
 30
0.0
 11
-456.064118484225
 21
-100.242004394531
 31
0.0
  0
LINE
  5
   885
  8
0
  6
CONTINUOUS
 62
     7
 10
-455.939118484225
 20
-100.117004394531
 30
0.0
 11
-455.939118484225
 21
-101.492004394531
 31
0.0
  0
LINE
  5
   886
  8
0
  6
CONTINUOUS
 62
     7
 10
-454.939118484225
 20
-100.117004394531
 30
0.0
 11
-454.939118484225
 21
-101.492004394531
 31
0.0
  0
LINE
  5
   887
  8
0
  6
CONTINUOUS
 62
     7
 10
-455.939118484225
 20
-100.117004394531
 30
0.0
 11
-456.064118484225
 21
-100.242004394531
 31
0.0
  0
LINE
  5
   888
  8
0
  6
CONTINUOUS
 62
     7
 10
-454.814118484225
 20
-100.242004394531
 30
0.0
 11
-454.939118484225
 21
-100.117004394531
 31
0.0
  0
LINE
  5
   889
  8
0
  6
DASHDOT
 62
     7
 10
-472.939120279259
 20
-99.2555312873191
 30
0.0
 11
-472.939120279259
 21
-103.649637977275
 31
0.0
  0
LINE
  5
   88A
  8
0
  6
CONTINUOUS
 62
     7
 10
-472.439120279259
 20
-100.117004394531
 30
0.0
 11
-473.439120279259
 21
-100.117004394531
 31
0.0
  0
LINE
  5
   88B
  8
0
  6
CONTINUOUS
 62
     7
 10
-473.564120279259
 20
-100.242004394531
 30
0.0
 11
-473.564120279259
 21
-101.492004394531
 31
0.0
  0
LINE
  5
   88C
  8
0
  6
CONTINUOUS
 62
     7
 10
-472.314120279259
 20
-100.242004394531
 30
0.0
 11
-472.314120279259
 21
-101.492004394531
 31
0.0
  0
LINE
  5
   88D
  8
0
  6
CONTINUOUS
 62
     7
 10
-472.314120279259
 20
-100.242004394531
 30
0.0
 11
-473.564120279259
 21
-100.242004394531
 31
0.0
  0
LINE
  5
   88E
  8
0
  6
CONTINUOUS
 62
     7
 10
-473.439120279259
 20
-100.117004394531
 30
0.0
 11
-473.439120279259
 21
-101.492004394531
 31
0.0
  0
LINE
  5
   88F
  8
0
  6
CONTINUOUS
 62
     7
 10
-472.439120279259
 20
-100.117004394531
 30
0.0
 11
-472.439120279259
 21
-101.492004394531
 31
0.0
  0
LINE
  5
   890
  8
0
  6
CONTINUOUS
 62
     7
 10
-473.439120279259
 20
-100.117004394531
 30
0.0
 11
-473.564120279259
 21
-100.242004394531
 31
0.0
  0
LINE
  5
   891
  8
0
  6
CONTINUOUS
 62
     7
 10
-472.314120279259
 20
-100.242004394531
 30
0.0
 11
-472.439120279259
 21
-100.117004394531
 31
0.0
  0
LINE
  5
   892
  8
0
  6
CONTINUOUS
 62
     7
 10
-500.665431976318
 20
-100.117004394531
 30
0.0
 11
-501.415431976318
 21
-100.117004394531
 31
0.0
  0
LINE
  5
   893
  8
0
  6
CONTINUOUS
 62
     7
 10
-501.540431976318
 20
-100.242004394531
 30
0.0
 11
-501.540431976318
 21
-100.567004394531
 31
0.0
  0
LINE
  5
   894
  8
0
  6
CONTINUOUS
 62
     7
 10
-500.540431976318
 20
-100.242004394531
 30
0.0
 11
-500.540431976318
 21
-100.567004394531
 31
0.0
  0
LINE
  5
   895
  8
0
  6
CONTINUOUS
 62
     7
 10
-501.440431976318
 20
-100.142004394531
 30
0.0
 11
-501.440431976318
 21
-101.367004394531
 31
0.0
  0
LINE
  5
   896
  8
0
  6
CONTINUOUS
 62
     7
 10
-500.640431976318
 20
-100.142004394531
 30
0.0
 11
-500.640431976318
 21
-101.367004394531
 31
0.0
  0
LINE
  5
   897
  8
0
  6
CONTINUOUS
 62
     7
 10
-500.540431976318
 20
-100.242004394531
 30
0.0
 11
-501.540431976318
 21
-100.242004394531
 31
0.0
  0
LINE
  5
   898
  8
0
  6
CONTINUOUS
 62
     7
 10
-501.415431976318
 20
-100.117004394531
 30
0.0
 11
-501.540431976318
 21
-100.242004394531
 31
0.0
  0
LINE
  5
   899
  8
0
  6
CONTINUOUS
 62
     7
 10
-500.540431976318
 20
-100.242004394531
 30
0.0
 11
-500.665431976318
 21
-100.117004394531
 31
0.0
  0
LINE
  5
   89A
  8
0
  6
CONTINUOUS
 62
     7
 10
-502.002931976318
 20
-100.567004394531
 30
0.0
 11
-502.002931976318
 21
-101.492004394531
 31
0.0
  0
LINE
  5
   89B
  8
0
  6
CONTINUOUS
 62
     7
 10
-500.077931976318
 20
-100.567004394531
 30
0.0
 11
-500.077931976318
 21
-101.492004394531
 31
0.0
  0
LINE
  5
   89C
  8
0
  6
CONTINUOUS
 62
     7
 10
-500.077931976318
 20
-101.367004394531
 30
0.0
 11
-502.002931976318
 21
-101.367004394531
 31
0.0
  0
LINE
  5
   89D
  8
0
  6
CONTINUOUS
 62
     7
 10
-500.077931976318
 20
-100.567004394531
 30
0.0
 11
-502.002931976318
 21
-100.567004394531
 31
0.0
  0
LINE
  5
   89E
  8
0
  6
DASHDOT
 62
     3
 10
-521.540431976318
 20
-99.3455744571953
 30
0.0
 11
-521.540431976318
 21
-103.055353056093
 31
0.0
  0
LINE
  5
   89F
  8
0
  6
CONTINUOUS
 62
     3
 10
-521.165431976318
 20
-100.117004394531
 30
0.0
 11
-521.915431976318
 21
-100.117004394531
 31
0.0
  0
LINE
  5
   8A0
  8
0
  6
CONTINUOUS
 62
     7
 10
-522.040431976318
 20
-100.242004394531
 30
0.0
 11
-522.040431976318
 21
-100.567004394531
 31
0.0
  0
LINE
  5
   8A1
  8
0
  6
CONTINUOUS
 62
     7
 10
-521.040431976318
 20
-100.242004394531
 30
0.0
 11
-521.040431976318
 21
-100.567004394531
 31
0.0
  0
LINE
  5
   8A2
  8
0
  6
CONTINUOUS
 62
     3
 10
-521.940431976318
 20
-100.142004394531
 30
0.0
 11
-521.940431976318
 21
-101.367004394531
 31
0.0
  0
LINE
  5
   8A3
  8
0
  6
CONTINUOUS
 62
     3
 10
-521.140431976318
 20
-100.142004394531
 30
0.0
 11
-521.140431976318
 21
-101.367004394531
 31
0.0
  0
LINE
  5
   8A4
  8
0
  6
CONTINUOUS
 62
     7
 10
-521.040431976318
 20
-100.242004394531
 30
0.0
 11
-522.040431976318
 21
-100.242004394531
 31
0.0
  0
LINE
  5
   8A5
  8
0
  6
CONTINUOUS
 62
     3
 10
-521.915431976318
 20
-100.117004394531
 30
0.0
 11
-522.040431976318
 21
-100.242004394531
 31
0.0
  0
LINE
  5
   8A6
  8
0
  6
CONTINUOUS
 62
     3
 10
-521.040431976318
 20
-100.242004394531
 30
0.0
 11
-521.165431976318
 21
-100.117004394531
 31
0.0
  0
LINE
  5
   8A7
  8
0
  6
CONTINUOUS
 62
     7
 10
-522.502931976318
 20
-100.567004394531
 30
0.0
 11
-522.502931976318
 21
-101.492004394531
 31
0.0
  0
LINE
  5
   8A8
  8
0
  6
CONTINUOUS
 62
     7
 10
-520.577931976318
 20
-100.567004394531
 30
0.0
 11
-520.577931976318
 21
-101.492004394531
 31
0.0
  0
LINE
  5
   8A9
  8
0
  6
CONTINUOUS
 62
     7
 10
-520.577931976318
 20
-101.367004394531
 30
0.0
 11
-522.502931976318
 21
-101.367004394531
 31
0.0
  0
LINE
  5
   8AA
  8
0
  6
CONTINUOUS
 62
     7
 10
-520.577931976318
 20
-100.567004394531
 30
0.0
 11
-522.502931976318
 21
-100.567004394531
 31
0.0
  0
ARC
  5
   8AB
  8
0
  6
CONTINUOUS
 62
   130
 10
-515.415405793642
 20
-99.2420152368305
 30
0.0
 40
1.99997969356721
 50
290.144790875694
 51
367.214995526016
  0
ARC
  5
   8AC
  8
0
  6
CONTINUOUS
 62
   130
 10
-515.415405793642
 20
-99.2420152368305
 30
0.0
 40
1.99997969356721
 50
231.821311574558
 51
290.144790875694
  0
ARC
  5
   8AD
  8
0
  6
CONTINUOUS
 62
     3
 10
-515.415424388494
 20
-99.2420184463188
 30
0.0
 40
1.00001032334436
 50
281.833519380107
 51
359.999999896069
  0
ARC
  5
   8AE
  8
0
  6
CONTINUOUS
 62
     3
 10
-515.415424388494
 20
-99.2420184463188
 30
0.0
 40
1.00001032334436
 50
241.042243602251
 51
281.833519380107
  0
LINE
  5
   8AF
  8
0
  6
DOT
 62
    52
 10
-436.534556393864
 20
-85.2420043945313
 30
0.0
 11
-533.612263341979
 21
-85.2420043945313
 31
0.0
  0
LINE
  5
   8B0
  8
0
  6
DOT
 62
    52
 10
-436.534556393864
 20
-85.9920043945313
 30
0.0
 11
-533.612263341979
 21
-85.9920043945313
 31
0.0
  0
LINE
  5
   8B1
  8
0
  6
CONTINUOUS
 62
   130
 10
-524.415431976318
 20
-140.492014601827
 30
0.0
 11
-524.415431976318
 21
-170.679504394531
 31
0.0
  0
LINE
  5
   8B2
  8
0
  6
CONTINUOUS
 62
   130
 10
-498.165431976318
 20
-140.492014601827
 30
0.0
 11
-498.165431976318
 21
-170.679504394531
 31
0.0
  0
LINE
  5
   8B3
  8
0
  6
DASHDOT
 62
     7
 10
-485.540422439575
 20
-47.1440818021968
 30
0.0
 11
-485.540422439575
 21
-153.274166071267
 31
0.0
  0
LINE
  5
   8B4
  8
0
  6
DASHDOT
 62
     7
 10
-526.040422439575
 20
-82.403131757594
 30
0.0
 11
-526.040422439575
 21
-90.3471335467515
 31
0.0
  0
LINE
  5
   8B5
  8
0
  6
CONTINUOUS
 62
     7
 10
-447.040422439575
 20
-85.9920043945313
 30
0.0
 11
-447.040422439575
 21
-86.7420043945313
 31
0.0
  0
LINE
  5
   8B6
  8
0
  6
CONTINUOUS
 62
     7
 10
-524.040422439575
 20
-85.9920043945313
 30
0.0
 11
-524.040422439575
 21
-86.7420043945313
 31
0.0
  0
LINE
  5
   8B7
  8
0
  6
CONTINUOUS
 62
     7
 10
-533.612263341979
 20
-80.9752407259685
 30
0.0
 11
-533.612263341979
 21
-91.0728876576845
 31
0.0
  0
LINE
  5
   8B8
  8
0
  6
CONTINUOUS
 62
     7
 10
-436.534556393864
 20
-80.4423833680944
 30
0.0
 11
-436.534556393864
 21
-90.3268873566607
 31
0.0
  0
LINE
  5
   8B9
  8
0
  6
CONTINUOUS
 62
   130
 10
-498.165431976318
 20
-170.992004394531
 30
0.0
 11
-524.415431976318
 21
-170.992004394531
 31
0.0
  0
ARC
  5
   8BA
  8
0
  6
CONTINUOUS
 62
   130
 10
-524.102931976318
 20
-170.679504394531
 30
0.0
 40
0.3125
 50
179.999999896069
 51
269.999999896069
  0
ARC
  5
   8BB
  8
0
  6
CONTINUOUS
 62
   130
 10
-498.477931976318
 20
-170.679504394531
 30
0.0
 40
0.3125
 50
269.999999896069
 51
359.999999896069
  0
LINE
  5
   8BC
  8
0
  6
DOT
 62
     3
 10
-522.165473937988
 20
-100.567004394531
 30
0.0
 11
-522.165473937988
 21
-101.492004394531
 31
0.0
  0
LINE
  5
   8BD
  8
0
  6
DOT
 62
   130
 10
-439.040442101014
 20
-124.873063428558
 30
0.0
 11
-439.040442101014
 21
-146.992000579834
 31
0.0
  0
LINE
  5
   8BE
  8
0
  6
DOT
 62
   130
 10
-439.040442101014
 20
-146.992000579834
 30
0.0
 11
-446.415438863971
 21
-146.992000579834
 31
0.0
  0
LINE
  5
   8BF
  8
0
  6
DOT
 62
   130
 10
-446.415539134713
 20
-130.991665819604
 30
0.0
 11
-446.415591451636
 21
-146.991997725996
 31
0.0
  0
LINE
  5
   8C0
  8
0
  6
DOT
 62
   130
 10
-438.790442678668
 20
-141.492020130157
 30
0.0
 11
-439.040442678668
 21
-141.492020130157
 31
0.0
  0
LINE
  5
   8C1
  8
0
  6
DOT
 62
   130
 10
-438.790442678668
 20
-141.492020130157
 30
0.0
 11
-438.790442678668
 21
-146.492020130157
 31
0.0
  0
LINE
  5
   8C2
  8
0
  6
DOT
 62
   130
 10
-438.790442678668
 20
-146.492020130157
 30
0.0
 11
-439.040438863971
 21
-146.492020130157
 31
0.0
  0
LINE
  5
   8C3
  8
0
  6
CONTINUOUS
 62
     7
 10
-437.683686449234
 20
-123.747458119622
 30
0.0
 11
-448.357341501138
 21
-132.602643485098
 31
0.0
  0
LINE
  5
   8C4
  8
0
  6
CONTINUOUS
 62
     7
 10
-525.040422439575
 20
-89.3670043945312
 30
0.0
 11
-527.040422439575
 21
-89.3670043945312
 31
0.0
  0
LINE
  5
   8C5
  8
0
  6
CONTINUOUS
 62
     7
 10
-524.915422439575
 20
-87.2420043945313
 30
0.0
 11
-527.165422439575
 21
-87.2420043945313
 31
0.0
  0
LINE
  5
   8C6
  8
0
  6
CONTINUOUS
 62
     7
 10
-524.915422439575
 20
-87.2420043945313
 30
0.0
 11
-524.915422439575
 21
-89.2420043945313
 31
0.0
  0
LINE
  5
   8C7
  8
0
  6
CONTINUOUS
 62
     7
 10
-527.165422439575
 20
-87.2420043945313
 30
0.0
 11
-527.165422439575
 21
-89.2420043945313
 31
0.0
  0
ARC
  5
   8C8
  8
0
  6
CONTINUOUS
 62
     7
 10
-527.165422439575
 20
-86.9920043945313
 30
0.0
 40
0.25
 50
449.999999896069
 51
629.999999896069
  0
ARC
  5
   8C9
  8
0
  6
CONTINUOUS
 62
     7
 10
-524.915422439575
 20
-86.9920043945313
 30
0.0
 40
0.25
 50
269.999999896069
 51
449.999999896069
  0
LINE
  5
   8CA
  8
0
  6
CONTINUOUS
 62
     7
 10
-527.040422439575
 20
-89.3670043945313
 30
0.0
 11
-527.165422439575
 21
-89.2420043945313
 31
0.0
  0
LINE
  5
   8CB
  8
0
  6
CONTINUOUS
 62
     7
 10
-524.915422439575
 20
-89.2420043945313
 30
0.0
 11
-525.040422439575
 21
-89.3670043945312
 31
0.0
  0
LINE
  5
   8CC
  8
0
  6
CONTINUOUS
 62
     7
 10
-524.915422439575
 20
-89.2420043945313
 30
0.0
 11
-527.165422439575
 21
-89.2420043945313
 31
0.0
  0
LINE
  5
   8CD
  8
0
  6
DASHDOT
 62
     7
 10
-445.040422439575
 20
-82.403131757594
 30
0.0
 11
-445.040422439575
 21
-90.3471335467515
 31
0.0
  0
LINE
  5
   8CE
  8
0
  6
CONTINUOUS
 62
     7
 10
-444.040422439575
 20
-89.3670043945312
 30
0.0
 11
-446.040422439575
 21
-89.3670043945312
 31
0.0
  0
LINE
  5
   8CF
  8
0
  6
CONTINUOUS
 62
     7
 10
-443.915422439575
 20
-87.2420043945313
 30
0.0
 11
-446.165422439575
 21
-87.2420043945313
 31
0.0
  0
LINE
  5
   8D0
  8
0
  6
CONTINUOUS
 62
     7
 10
-443.915422439575
 20
-87.2420043945313
 30
0.0
 11
-443.915422439575
 21
-89.2420043945313
 31
0.0
  0
LINE
  5
   8D1
  8
0
  6
CONTINUOUS
 62
     7
 10
-446.165422439575
 20
-87.2420043945313
 30
0.0
 11
-446.165422439575
 21
-89.2420043945313
 31
0.0
  0
ARC
  5
   8D2
  8
0
  6
CONTINUOUS
 62
     7
 10
-446.165422439575
 20
-86.9920043945313
 30
0.0
 40
0.25
 50
449.999999896069
 51
629.999999896069
  0
ARC
  5
   8D3
  8
0
  6
CONTINUOUS
 62
     7
 10
-443.915422439575
 20
-86.9920043945313
 30
0.0
 40
0.25
 50
269.999999896069
 51
449.999999896069
  0
LINE
  5
   8D4
  8
0
  6
CONTINUOUS
 62
     7
 10
-446.040422439575
 20
-89.3670043945313
 30
0.0
 11
-446.165422439575
 21
-89.2420043945313
 31
0.0
  0
LINE
  5
   8D5
  8
0
  6
CONTINUOUS
 62
     7
 10
-443.915422439575
 20
-89.2420043945313
 30
0.0
 11
-444.040422439575
 21
-89.3670043945312
 31
0.0
  0
LINE
  5
   8D6
  8
0
  6
CONTINUOUS
 62
     7
 10
-443.915422439575
 20
-89.2420043945313
 30
0.0
 11
-446.165422439575
 21
-89.2420043945313
 31
0.0
  0
LINE
  5
   8D7
  8
0
  6
CONTINUOUS
 62
     7
 10
-524.665422439575
 20
-83.9920043945313
 30
0.0
 11
-527.415422439575
 21
-83.9920043945313
 31
0.0
  0
LINE
  5
   8D8
  8
0
  6
CONTINUOUS
 62
     7
 10
-527.415422439575
 20
-83.9920043945313
 30
0.0
 11
-527.415422439575
 21
-85.2420043945313
 31
0.0
  0
LINE
  5
   8D9
  8
0
  6
CONTINUOUS
 62
     7
 10
-524.665422439575
 20
-83.9920043945313
 30
0.0
 11
-524.665422439575
 21
-85.2420043945313
 31
0.0
  0
LINE
  5
   8DA
  8
0
  6
CONTINUOUS
 62
     7
 10
-526.665422439575
 20
-83.9920043945313
 30
0.0
 11
-526.665422439575
 21
-85.2420043945313
 31
0.0
  0
LINE
  5
   8DB
  8
0
  6
CONTINUOUS
 62
     7
 10
-525.415422439575
 20
-83.9920043945313
 30
0.0
 11
-525.415422439575
 21
-85.2420043945313
 31
0.0
  0
LINE
  5
   8DC
  8
0
  6
CONTINUOUS
 62
     7
 10
-446.415422439575
 20
-83.9920043945313
 30
0.0
 11
-446.415422439575
 21
-85.2420043945313
 31
0.0
  0
LINE
  5
   8DD
  8
0
  6
CONTINUOUS
 62
     7
 10
-445.665422439575
 20
-83.9920043945313
 30
0.0
 11
-445.665422439575
 21
-85.2420043945313
 31
0.0
  0
LINE
  5
   8DE
  8
0
  6
CONTINUOUS
 62
     7
 10
-444.415422439575
 20
-83.9920043945313
 30
0.0
 11
-444.415422439575
 21
-85.2420043945313
 31
0.0
  0
LINE
  5
   8DF
  8
0
  6
CONTINUOUS
 62
     7
 10
-443.665422439575
 20
-83.9920043945313
 30
0.0
 11
-443.665422439575
 21
-85.2420043945313
 31
0.0
  0
LINE
  5
   8E0
  8
0
  6
CONTINUOUS
 62
     7
 10
-443.665422439575
 20
-83.9920043945313
 30
0.0
 11
-446.415422439575
 21
-83.9920043945313
 31
0.0
  0
LINE
  5
   8E1
  8
0
  6
DOT
 62
     7
 10
-498.165431976318
 20
-177.867004394531
 30
0.0
 11
-524.415431976318
 21
-177.867004394531
 31
0.0
  0
LINE
  5
   8E2
  8
0
  6
DOT
 62
     7
 10
-524.415431976318
 20
-170.992004394531
 30
0.0
 11
-524.415431976318
 21
-177.867004394531
 31
0.0
  0
LINE
  5
   8E3
  8
0
  6
DOT
 62
     7
 10
-498.165431976318
 20
-170.992004394531
 30
0.0
 11
-498.165431976318
 21
-177.867004394531
 31
0.0
  0
LINE
  5
   8E4
  8
0
  6
CONTINUOUS
 62
   130
 10
-475.86062451631
 20
-192.002682294579
 30
0.0
 11
-543.564307925114
 21
-192.002682294579
 31
0.0
  0
TEXT
  5
   8E5
  8
0
  6
CONTINUOUS
 62
     7
 10
-537.203821481244
 20
-186.803214973442
 30
0.0
 40
3.00000002980232
  1
ISOLATING DISTANCE
 50
359.999999896069
 41
0.916666604744064
 72
     1
 11
-512.728822890912
 21
-185.303215002814
 31
0.0
 73
     2
  0
TEXT
  5
   8E6
  8
0
  6
CONTINUOUS
 62
     7
 10
-541.328821593261
 20
-190.80321496598
 30
0.0
 40
3.00000002980232
  1
CORSA DI SEZIONAMENTO
 50
359.999999896069
 41
0.916666604744064
 72
     1
 11
-512.728823240603
 21
-189.303215002814
 31
0.0
 73
     2
  0
INSERT
  5
   8E7
  8
0
  6
CONTINUOUS
 62
     7
  2
*UDIM127
 10
0.0
 20
0.0
 30
0.0
  0
INSERT
  5
   8E8
  8
0
  6
CONTINUOUS
 62
     7
  2
*UDIM128
 10
0.0
 20
0.0
 30
0.0
  0
INSERT
  5
   8E9
  8
0
  6
CONTINUOUS
 62
     7
  2
*UDIM129
 10
0.0
 20
0.0
 30
0.0
  0
TEXT
  5
   8EA
  8
0
  6
CONTINUOUS
 62
     7
 10
-487.116268205376
 20
-158.968204487161
 30
0.0
 40
3.00000002980232
  1
Y
 50
359.999999896069
 41
0.916666689183977
 72
     1
 11
-486.01626816392
 21
-157.46820447425
 31
0.0
 73
     2
  0
INSERT
  5
   8EB
  8
0
  6
CONTINUOUS
 62
     7
  2
*UDIM130
 10
0.0
 20
0.0
 30
0.0
  0
INSERT
  5
   8EC
  8
0
  6
CONTINUOUS
 62
     7
  2
*UDIM131
 10
0.0
 20
0.0
 30
0.0
  0
LINE
  5
   8ED
  8
0
  6
DASHDOT
 62
     7
 10
-287.165769711019
 20
43.3445325888877
 30
0.0
 11
-287.165769711019
 21
-53.0422043797073
 31
0.0
  0
LINE
  5
   8EE
  8
0
  6
DASHDOT
 62
     7
 10
-339.862474368816
 20
0.377908706665039
 30
0.0
 11
-234.709549516255
 21
0.377908706665039
 31
0.0
  0
LINE
  5
   8EF
  8
0
  6
DASHDOT
 62
     7
 10
-246.66576817331
 20
42.0885078467933
 30
0.0
 11
-246.66576817331
 21
-44.5152481860347
 31
0.0
  0
LINE
  5
   8F0
  8
0
  6
DASHDOT
 62
     7
 10
-331.171265884807
 20
29.3779054314239
 30
0.0
 11
-240.347752639428
 21
29.3779054314239
 31
0.0
  0
LINE
  5
   8F1
  8
0
  6
DASHDOT
 62
     7
 10
-328.594936113772
 20
-27.4970930710625
 30
0.0
 11
-236.702840711072
 21
-27.4970930710625
 31
0.0
  0
LINE
  5
   8F2
  8
0
  6
CONTINUOUS
 62
     7
 10
-241.665771484375
 20
37.9279106140137
 30
0.0
 11
-241.665771484375
 21
-35.1970932006836
 31
0.0
  0
LINE
  5
   8F3
  8
0
  6
CONTINUOUS
 62
     7
 10
-333.165767937663
 20
-35.1970932006836
 30
0.0
 11
-241.665771484375
 21
-35.1970932006836
 31
0.0
  0
LINE
  5
   8F4
  8
0
  6
CONTINUOUS
 62
     7
 10
-333.165767937663
 20
37.9279106140137
 30
0.0
 11
-333.165767937663
 21
-35.1970932006836
 31
0.0
  0
LINE
  5
   8F5
  8
0
  6
CONTINUOUS
 62
     7
 10
-333.165767937663
 20
37.9279106140137
 30
0.0
 11
-241.665771484375
 21
37.9279106140137
 31
0.0
  0
CIRCLE
  5
   8F6
  8
0
  6
CONTINUOUS
 62
     7
 10
-246.66576817331
 20
29.3779066483261
 30
0.0
 40
1.0
  0
CIRCLE
  5
   8F7
  8
0
  6
CONTINUOUS
 62
     7
 10
-327.66576817331
 20
29.3779066483261
 30
0.0
 40
1.0
  0
CIRCLE
  5
   8F8
  8
0
  6
CONTINUOUS
 62
     7
 10
-327.66576817331
 20
-27.4970933516739
 30
0.0
 40
1.0
  0
CIRCLE
  5
   8F9
  8
0
  6
CONTINUOUS
 62
     7
 10
-246.66576817331
 20
-27.4970933516739
 30
0.0
 40
1.0
  0
LINE
  5
   8FA
  8
0
  6
DASHDOT
 62
     7
 10
-327.665771248727
 20
42.0885078467933
 30
0.0
 11
-327.665771248727
 21
-44.5152481860347
 31
0.0
  0
LINE
  5
   8FB
  8
0
  6
CONTINUOUS
 62
     2
 10
-324.165769711019
 20
28.1904054314239
 30
0.0
 11
-292.915769711019
 21
28.1904054314239
 31
0.0
  0
LINE
  5
   8FC
  8
0
  6
CONTINUOUS
 62
     2
 10
-324.165769711019
 20
-26.3095930710625
 30
0.0
 11
-292.915769711019
 21
-26.3095930710625
 31
0.0
  0
LINE
  5
   8FD
  8
0
  6
CONTINUOUS
 62
     2
 10
-324.165769711019
 20
-7.5595930710625
 30
0.0
 11
-292.915769711019
 21
-7.5595930710625
 31
0.0
  0
LINE
  5
   8FE
  8
0
  6
CONTINUOUS
 62
     2
 10
-324.165769711019
 20
9.44040543142394
 30
0.0
 11
-292.915769711019
 21
9.44040543142394
 31
0.0
  0
LINE
  5
   8FF
  8
0
  6
CONTINUOUS
 62
     2
 10
-285.165769711019
 20
24.4404054314239
 30
0.0
 11
-285.165769711019
 21
13.1904054314239
 31
0.0
  0
LINE
  5
   900
  8
0
  6
CONTINUOUS
 62
     2
 10
-246.415769711019
 20
24.4404054314239
 30
0.0
 11
-246.415769711019
 21
13.1904054314239
 31
0.0
  0
LINE
  5
   901
  8
0
  6
CONTINUOUS
 62
     2
 10
-289.165769711019
 20
24.4404054314239
 30
0.0
 11
-289.165769711019
 21
13.1904054314239
 31
0.0
  0
LINE
  5
   902
  8
0
  6
CONTINUOUS
 62
     2
 10
-327.915769711019
 20
24.4404054314239
 30
0.0
 11
-327.915769711019
 21
13.1904054314239
 31
0.0
  0
LINE
  5
   903
  8
0
  6
CONTINUOUS
 62
     2
 10
-281.415769711019
 20
28.1904054314239
 30
0.0
 11
-250.165769711019
 21
28.1904054314239
 31
0.0
  0
LINE
  5
   904
  8
0
  6
CONTINUOUS
 62
     2
 10
-281.415769711019
 20
9.44040543142394
 30
0.0
 11
-250.165769711019
 21
9.44040543142394
 31
0.0
  0
LINE
  5
   905
  8
0
  6
CONTINUOUS
 62
     2
 10
-281.415769711019
 20
-7.5595930710625
 30
0.0
 11
-250.165769711019
 21
-7.5595930710625
 31
0.0
  0
LINE
  5
   906
  8
0
  6
CONTINUOUS
 62
     2
 10
-281.415769711019
 20
-26.3095930710625
 30
0.0
 11
-250.165769711019
 21
-26.3095930710625
 31
0.0
  0
LINE
  5
   907
  8
0
  6
CONTINUOUS
 62
     2
 10
-327.915769711019
 20
-11.3095930710625
 30
0.0
 11
-327.915769711019
 21
-22.5595930710625
 31
0.0
  0
LINE
  5
   908
  8
0
  6
CONTINUOUS
 62
     2
 10
-289.165769711019
 20
-11.3095930710625
 30
0.0
 11
-289.165769711019
 21
-22.5595930710625
 31
0.0
  0
LINE
  5
   909
  8
0
  6
CONTINUOUS
 62
     2
 10
-285.165769711019
 20
-11.3095930710625
 30
0.0
 11
-285.165769711019
 21
-22.5595930710625
 31
0.0
  0
LINE
  5
   90A
  8
0
  6
CONTINUOUS
 62
     2
 10
-246.415769711019
 20
-11.3095930710625
 30
0.0
 11
-246.415769711019
 21
-22.5595930710625
 31
0.0
  0
ARC
  5
   90B
  8
0
  6
CONTINUOUS
 62
     2
 10
-250.165769711019
 20
24.4404054314239
 30
0.0
 40
3.75
 50
359.999999844103
 51
449.999999844103
  0
ARC
  5
   90C
  8
0
  6
CONTINUOUS
 62
     2
 10
-250.165769711019
 20
13.1904054314239
 30
0.0
 40
3.75
 50
269.999999844103
 51
359.999999844103
  0
ARC
  5
   90D
  8
0
  6
CONTINUOUS
 62
     2
 10
-281.415769711019
 20
13.1904054314239
 30
0.0
 40
3.75
 50
539.999999844103
 51
629.999999844103
  0
ARC
  5
   90E
  8
0
  6
CONTINUOUS
 62
     2
 10
-281.415769711019
 20
24.4404054314239
 30
0.0
 40
3.75
 50
449.999999844103
 51
539.999999844103
  0
ARC
  5
   90F
  8
0
  6
CONTINUOUS
 62
     2
 10
-292.915769711019
 20
24.4404054314239
 30
0.0
 40
3.75
 50
359.999999844103
 51
449.999999844103
  0
ARC
  5
   910
  8
0
  6
CONTINUOUS
 62
     2
 10
-292.915769711019
 20
13.1904054314239
 30
0.0
 40
3.75
 50
269.999999844103
 51
359.999999844103
  0
ARC
  5
   911
  8
0
  6
CONTINUOUS
 62
     2
 10
-324.165769711019
 20
24.4404054314239
 30
0.0
 40
3.75
 50
449.999999844103
 51
539.999999844103
  0
ARC
  5
   912
  8
0
  6
CONTINUOUS
 62
     2
 10
-324.165769711019
 20
13.1904054314239
 30
0.0
 40
3.75
 50
539.999999844103
 51
629.999999844103
  0
ARC
  5
   913
  8
0
  6
CONTINUOUS
 62
     2
 10
-324.165769711019
 20
-11.3095930710625
 30
0.0
 40
3.75
 50
449.999999844103
 51
539.999999844103
  0
ARC
  5
   914
  8
0
  6
CONTINUOUS
 62
     2
 10
-324.165769711019
 20
-22.5595930710625
 30
0.0
 40
3.75
 50
539.999999844103
 51
629.999999844103
  0
ARC
  5
   915
  8
0
  6
CONTINUOUS
 62
     2
 10
-292.915769711019
 20
-22.5595930710625
 30
0.0
 40
3.75
 50
269.999999844103
 51
359.999999844103
  0
ARC
  5
   916
  8
0
  6
CONTINUOUS
 62
     2
 10
-292.915769711019
 20
-11.3095930710625
 30
0.0
 40
3.75
 50
359.999999844103
 51
449.999999844103
  0
ARC
  5
   917
  8
0
  6
CONTINUOUS
 62
     2
 10
-281.415769711019
 20
-11.3095930710625
 30
0.0
 40
3.75
 50
449.999999844103
 51
539.999999844103
  0
ARC
  5
   918
  8
0
  6
CONTINUOUS
 62
     2
 10
-281.415769711019
 20
-22.5595930710625
 30
0.0
 40
3.75
 50
539.999999844103
 51
629.999999844103
  0
ARC
  5
   919
  8
0
  6
CONTINUOUS
 62
     2
 10
-250.165769711019
 20
-11.3095930710625
 30
0.0
 40
3.75
 50
359.999999844103
 51
449.999999844103
  0
ARC
  5
   91A
  8
0
  6
CONTINUOUS
 62
     2
 10
-250.165769711019
 20
-22.5595930710625
 30
0.0
 40
3.75
 50
269.999999844103
 51
359.999999844103
  0
INSERT
  5
   91B
  8
0
  6
CONTINUOUS
 62
     7
  2
*UDIM132
 10
0.0
 20
0.0
 30
0.0
  0
INSERT
  5
   91C
  8
0
  6
CONTINUOUS
 62
     7
  2
*UDIM133
 10
0.0
 20
0.0
 30
0.0
  0
INSERT
  5
   91D
  8
0
  6
CONTINUOUS
 62
     7
  2
*UDIM134
 10
0.0
 20
0.0
 30
0.0
  0
INSERT
  5
   91E
  8
0
  6
CONTINUOUS
 62
     7
  2
*UDIM135
 10
0.0
 20
0.0
 30
0.0
  0
INSERT
  5
   91F
  8
0
  6
CONTINUOUS
 62
     7
  2
*UDIM136
 10
0.0
 20
0.0
 30
0.0
  0
INSERT
  5
   920
  8
0
  6
CONTINUOUS
 62
     7
  2
*UDIM137
 10
0.0
 20
0.0
 30
0.0
  0
INSERT
  5
   921
  8
0
  6
CONTINUOUS
 62
     7
  2
*UDIM138
 10
0.0
 20
0.0
 30
0.0
  0
INSERT
  5
   922
  8
0
  6
CONTINUOUS
 62
     7
  2
*UDIM139
 10
0.0
 20
0.0
 30
0.0
  0
INSERT
  5
   923
  8
0
  6
CONTINUOUS
 62
     7
  2
*UDIM140
 10
0.0
 20
0.0
 30
0.0
  0
INSERT
  5
   924
  8
0
  6
CONTINUOUS
 62
     7
  2
*UDIM141
 10
0.0
 20
0.0
 30
0.0
  0
INSERT
  5
   925
  8
0
  6
CONTINUOUS
 62
     7
  2
*UDIM142
 10
0.0
 20
0.0
 30
0.0
  0
TEXT
  5
   926
  8
0
  6
CONTINUOUS
 62
     7
 10
-294.98933789546
 20
46.2707878589103
 30
0.0
 40
3.00000002980232
  1
=    =
 50
359.999999844103
 41
0.916666689183977
 72
     1
 11
-287.014337615466
 21
47.7707878521523
 31
0.0
 73
     2
  0
TEXT
  5
   927
  8
0
  6
CONTINUOUS
 62
     2
 10
-286.606413320188
 20
-180.878051751757
 30
0.0
 40
2.00000008940697
  1
N0002 99-02-11
 50
359.999999844103
 41
0.749999861419206
 72
     1
 11
-276.25641477108
 21
-179.878051735163
 31
0.0
 73
     2
  0
INSERT
  5
   928
  8
0
  6
CONTINUOUS
 62
     7
  2
*UDIM143
 10
0.0
 20
0.0
 30
0.0
  0
TEXT
  5
   929
  8
0
  6
CONTINUOUS
 62
     2
 10
-348.520294192848
 20
-176.852963111417
 30
0.0
 40
2.50000005960464
  1
SCARPELLINI
 50
359.999999844103
 41
1.09799996061325
 11
-348.520294189453
 21
-175.602963081615
 31
0.0
 73
     2
  0
TEXT
  5
   92A
  8
0
  6
CONTINUOUS
 62
     2
 10
-312.196409553025
 20
-180.878055557861
 30
0.0
 40
2.00000008940697
  1
M 3193 95-10-26
 50
359.999999844103
 41
0.749999861419206
 72
     1
 11
-301.096411108971
 21
-179.878055543304
 31
0.0
 73
     2
  0
TEXT
  5
   92B
  8
0
  6
CONTINUOUS
 62
     2
 10
-336.871641486619
 20
-181.117755875244
 30
0.0
 40
2.00000008940697
  1
M 3076 95-01-16
 50
359.999999844103
 41
0.749999861419206
 72
     1
 11
-325.771643042564
 21
-180.117755860687
 31
0.0
 73
     2
  0
INSERT
  5
   92C
  8
0
  6
CONTINUOUS
 62
     7
  2
*UDIM144
 10
0.0
 20
0.0
 30
0.0
  0
INSERT
  5
   92D
  8
0
  6
CONTINUOUS
 62
     7
  2
*UDIM145
 10
0.0
 20
0.0
 30
0.0
  0
INSERT
  5
   92E
  8
0
  6
CONTINUOUS
 62
     7
  2
*UDIM146
 10
0.0
 20
0.0
 30
0.0
  0
TEXT
  5
   92F
  8
0
  6
CONTINUOUS
 62
     7
 10
-287.869678546092
 20
71.7942771672278
 30
0.0
 40
3.00000002980232
  1
Y
 50
359.999999844103
 41
0.916666689183977
 72
     1
 11
-286.769678503275
 21
73.2942771791415
 31
0.0
 73
     2
  0
TEXT
  5
   930
  8
0
  6
CONTINUOUS
 62
     7
 10
-288.226593066355
 20
-58.9988365412683
 30
0.0
 40
3.00000002980232
  1
Y
 50
359.999999844103
 41
0.916666689183977
 72
     1
 11
-287.126593023539
 21
-57.4988365293546
 31
0.0
 73
     2
  0
TEXT
  5
   931
  8
0
  6
CONTINUOUS
 62
     7
 10
-366.312469531199
 20
-1.15001490125365
 30
0.0
 40
3.00000002980232
  1
X
 50
359.999999844103
 41
0.916666689183977
 72
     1
 11
-365.212469488382
 21
0.349985110660032
 31
0.0
 73
     2
  0
TEXT
  5
   932
  8
0
  6
CONTINUOUS
 62
     7
 10
-212.614158679148
 20
-1.14752199659057
 30
0.0
 40
3.00000002980232
  1
X
 50
359.999999844103
 41
0.916666689183977
 72
     1
 11
-211.514158636332
 21
0.352478015323118
 31
0.0
 73
     2
  0
TEXT
  5
   933
  8
0
  6
CONTINUOUS
 62
     2
 10
-187.993896271206
 20
-170.026813546959
 30
0.0
 40
2.50000005960464
  1
ENG
 50
359.999999844103
 41
1.09999991695086
 72
     1
 11
-184.32722979784
 21
-168.776813527114
 31
0.0
 73
     2
  0
TEXT
  5
   934
  8
0
  6
CONTINUOUS
 62
     2
 10
-187.993896271206
 20
-193.960392038169
 30
0.0
 40
2.50000005960464
  1
1/1
 50
359.999999844103
 41
1.09999991695086
 72
     1
 11
-184.32722979784
 21
-192.710392018325
 31
0.0
 73
     2
  0
TEXT
  5
   935
  8
0
  6
CONTINUOUS
 62
     2
 10
-187.993896271206
 20
-185.493595163169
 30
0.0
 40
2.50000005960464
  1
1:1
 50
359.999999844103
 41
1.09999991695086
 72
     1
 11
-184.32722979784
 21
-184.243595143325
 31
0.0
 73
     2
  0
TEXT
  5
   936
  8
0
  6
CONTINUOUS
 62
     2
 10
-187.993896271206
 20
-176.026813546959
 30
0.0
 40
2.50000005960464
  1
ITA
 50
359.999999844103
 41
1.09999991695086
 72
     1
 11
-184.32722979784
 21
-174.776813527114
 31
0.0
 73
     2
  0
TEXT
  5
   937
  8
0
  6
CONTINUOUS
 62
     2
 10
-348.520294192848
 20
-168.38621856593
 30
0.0
 40
2.50000005960464
  1
BARCELLA
 50
359.999999844103
 41
1.09799996061325
 11
-348.520294189453
 21
-167.136218536127
 31
0.0
 73
     2
  0
TEXT
  5
   938
  8
0
  6
CONTINUOUS
 62
     2
 10
-348.520294192848
 20
-164.38621856504
 30
0.0
 40
2.50000005960464
  1
94-05-09
 50
359.999999844103
 41
1.09999991695086
 11
-348.520294189453
 21
-163.136218535237
 31
0.0
 73
     2
  0
TEXT
  5
   939
  8
0
  6
CONTINUOUS
 62
     2
 10
-247.873564084025
 20
-192.655048311643
 30
0.0
 40
4.49999994039536
  1
601812/611
 50
359.999999844103
 41
1.09999994414824
 72
     1
 11
-223.948565602303
 21
-190.405048406423
 31
0.0
 73
     2
  0
TEXT
  5
   93A
  8
0
  6
CONTINUOUS
 62
     2
 10
-229.873565531688
 20
-183.188297315341
 30
0.0
 40
2.50000005960464
  1
S3
 50
359.999999844103
 41
1.09999991695086
 72
     1
 11
-227.581898987293
 21
-181.938297291763
 31
0.0
 73
     2
  0
TEXT
  5
   93B
  8
0
  6
CONTINUOUS
 62
     1
 10
-240.264161093275
 20
-164.689899435099
 30
0.0
 40
2.00000008940697
  1
INTERLOCK APPLICATION BETWEEN TWO
 50
359.999999844103
 41
0.625
 72
     1
 11
-219.764160174137
 21
-163.689899446071
 31
0.0
 73
     2
  0
TEXT
  5
   93C
  8
0
  6
CONTINUOUS
 62
     1
 10
-245.264161281017
 20
-167.689899421519
 30
0.0
 40
2.00000008940697
  1
 MCCBS MOUNTED SIDE BY SIDE ISOMAX SERIES
 50
359.999999844103
 41
0.625
 72
     1
 11
-219.764160138363
 21
-166.689899446071
 31
0.0
 73
     2
  0
TEXT
  5
   93D
  8
0
  6
CONTINUOUS
 62
     1
 10
-237.686768375451
 20
-172.760166167218
 30
0.0
 40
2.00000008940697
  1
APPLICAZIONE INTERBLOCCO TRA
 50
359.999999844103
 41
0.625
 72
     1
 11
-220.311767596012
 21
-171.760166169704
 31
0.0
 73
     2
  0
TEXT
  5
   93E
  8
0
  6
CONTINUOUS
 62
     1
 10
-245.186768674953
 20
-175.760166146849
 30
0.0
 40
2.00000008940697
  1
DUE INTERRUTTORI AFFIANCATI SERIE ISOMAX
 50
359.999999844103
 41
0.625
 72
     1
 11
-220.311767560238
 21
-174.760166169704
 31
0.0
 73
     2
  0
ENDSEC
  0
EOF
