  0
SECTION
  2
HEADER
  9
$ACADVER
  1
AC1009
  9
$DWGCODEPAGE
  3
iso8859-1
  9
$INSBASE
 10
0.0
 20
0.0
 30
0.0
  9
$EXTMIN
 10
1.0E20
 20
1.0E20
  9
$EXTMAX
 10
-1.0E20
 20
-1.0E20
  9
$LIMMIN
 10
0.0
 20
0.0
  9
$LIMMAX
 10
12.0
 20
9.0
  9
$ORTHOMODE
 70
     0
  9
$REGENMODE
 70
     1
  9
$FILLMODE
 70
     1
  9
$QTEXTMODE
 70
     0
  9
$MIRRTEXT
 70
     1
  9
$DRAGMODE
 70
     2
  9
$LTSCALE
 40
15.0
  9
$OSMODE
 70
     0
  9
$ATTMODE
 70
     1
  9
$TEXTSIZE
 40
0.2
  9
$TRACEWID
 40
0.05
  9
$TEXTSTYLE
  7
STANDARD
  9
$CLAYER
  8
0
  9
$CELTYPE
  6
DASHED
  9
$CECOLOR
 62
   256
  9
$DIMSCALE
 40
1.0
  9
$DIMASZ
 40
0.18
  9
$DIMEXO
 40
0.0625
  9
$DIMDLI
 40
0.38
  9
$DIMRND
 40
0.0
  9
$DIMDLE
 40
0.0
  9
$DIMEXE
 40
0.18
  9
$DIMTP
 40
0.0
  9
$DIMTM
 40
0.0
  9
$DIMTXT
 40
0.18
  9
$DIMCEN
 40
0.09
  9
$DIMTSZ
 40
0.0
  9
$DIMTOL
 70
     0
  9
$DIMLIM
 70
     0
  9
$DIMTIH
 70
     1
  9
$DIMTOH
 70
     1
  9
$DIMSE1
 70
     0
  9
$DIMSE2
 70
     0
  9
$DIMTAD
 70
     0
  9
$DIMZIN
 70
     0
  9
$DIMBLK
  1

  9
$DIMASO
 70
     1
  9
$DIMSHO
 70
     1
  9
$DIMPOST
  1

  9
$DIMAPOST
  1

  9
$DIMALT
 70
     0
  9
$DIMALTD
 70
     2
  9
$DIMALTF
 40
25.4
  9
$DIMLFAC
 40
1.0
  9
$DIMTOFL
 70
     0
  9
$DIMTVP
 40
0.0
  9
$DIMTIX
 70
     0
  9
$DIMSOXD
 70
     0
  9
$DIMSAH
 70
     0
  9
$DIMBLK1
  1

  9
$DIMBLK2
  1

  9
$DIMSTYLE
  2
STANDARD
  9
$DIMCLRD
 70
     0
  9
$DIMCLRE
 70
     0
  9
$DIMCLRT
 70
     0
  9
$DIMTFAC
 40
1.0
  9
$DIMGAP
 40
0.09
  9
$LUNITS
 70
     2
  9
$LUPREC
 70
     4
  9
$AXISMODE
 70
     0
  9
$AXISUNIT
 10
0.0
 20
0.0
  9
$SKETCHINC
 40
0.1
  9
$FILLETRAD
 40
0.0
  9
$AUNITS
 70
     0
  9
$AUPREC
 70
     0
  9
$MENU
  1
acad
  9
$ELEVATION
 40
0.0
  9
$PELEVATION
 40
0.0
  9
$THICKNESS
 40
0.0
  9
$LIMCHECK
 70
     0
  9
$BLIPMODE
 70
     1
  9
$CHAMFERA
 40
0.0
  9
$CHAMFERB
 40
0.0
  9
$SKPOLY
 70
     0
  9
$TDCREATE
 40
0.000000000
  9
$TDUPDATE
 40
0.000000000
  9
$TDINDWG
 40
0.0
  9
$TDUSRTIMER
 40
0.0
  9
$USRTIMER
 70
     1
  9
$ANGBASE
 50
0.0
  9
$ANGDIR
 70
     0
  9
$PDMODE
 70
     0
  9
$PDSIZE
 40
0.0
  9
$PLINEWID
 40
0.0
  9
$COORDS
 70
     1
  9
$SPLFRAME
 70
     0
  9
$SPLINETYPE
 70
     6
  9
$SPLINESEGS
 70
     8
  9
$ATTDIA
 70
     0
  9
$ATTREQ
 70
     1
  9
$HANDLING
 70
     1
  9
$HANDSEED
  5
   2E3
  9
$SURFTAB1
 70
     6
  9
$SURFTAB2
 70
     6
  9
$SURFTYPE
 70
     6
  9
$SURFU
 70
     6
  9
$SURFV
 70
     6
  9
$UCSNAME
  2

  9
$UCSORG
 10
0.0
 20
0.0
 30
0.0
  9
$UCSXDIR
 10
1.0
 20
0.0
 30
0.0
  9
$UCSYDIR
 10
0.0
 20
1.0
 30
0.0
  9
$PUCSNAME
  2

  9
$PUCSORG
 10
0.0
 20
0.0
 30
0.0
  9
$PUCSXDIR
 10
1.0
 20
0.0
 30
0.0
  9
$PUCSYDIR
 10
0.0
 20
1.0
 30
0.0
  9
$USERI1
 70
     0
  9
$USERI2
 70
     0
  9
$USERI3
 70
     0
  9
$USERI4
 70
     0
  9
$USERI5
 70
     0
  9
$USERR1
 40
0.0
  9
$USERR2
 40
0.0
  9
$USERR3
 40
0.0
  9
$USERR4
 40
0.0
  9
$USERR5
 40
0.0
  9
$WORLDVIEW
 70
     1
  9
$SHADEDGE
 70
     3
  9
$SHADEDIF
 70
    70
  9
$TILEMODE
 70
     1
  9
$MAXACTVP
 70
    16
  9
$PINSBASE
 10
0.0
 20
0.0
 30
0.0
  9
$PLIMCHECK
 70
     0
  9
$PEXTMIN
 10
1.0E20
 20
1.0E20
 30
1.0E20
  9
$PEXTMAX
 10
-1.0E20
 20
-1.0E20
 30
-1.0E20
  9
$PLIMMIN
 10
0.0
 20
0.0
  9
$PLIMMAX
 10
12.0
 20
9.0
  9
$UNITMODE
 70
     0
  9
$VISRETAIN
 70
     0
  0
ENDSEC
  0
SECTION
  2
TABLES
  0
TABLE
  2
VPORT
 70
     1
  0
VPORT
  2
*ACTIVE
 70
     0
 10
0.0
 20
0.0
 11
1.0
 21
1.0
 12
6.801242
 22
4.5
 13
0.0
 23
0.0
 14
1.0
 24
1.0
 15
0.0
 25
0.0
 16
0.0
 26
0.0
 36
1.0
 17
0.0
 27
0.0
 37
0.0
 40
9.0
 41
1.511387
 42
50.0
 43
0.0
 44
0.0
 50
0.0
 51
0.0
 71
     0
 72
   100
 73
     1
 74
     1
 75
     0
 76
     0
 77
     0
 78
     0
  0
ENDTAB
  0
TABLE
  2
LTYPE
 70
    41
  0
LTYPE
  2
BYBLOCK
 70
     0
  3

 72
    65
 73
     0
 40
0.0
  0
LTYPE
  2
BYLAYER
 70
     0
  3

 72
    65
 73
     0
 40
0.0
  0
LTYPE
  2
CONTINUOUS
 70
     0
  3
Solid line
 72
    65
 73
     0
 40
0.0
  0
LTYPE
  2
BORDER
 70
    64
  3
__ __ . __ __ . __ __ . __ __ . __ __ . __ __ .
 72
    65
 73
     6
 40
1.75
 49
0.5
 49
-0.25
 49
0.5
 49
-0.25
 49
0.0
 49
-0.25
  0
LTYPE
  2
BORDER2
 70
    64
  3
__.__.__.__.__.__.__.__.__.__.__.__.__.__.__.__
 72
    65
 73
     6
 40
0.875
 49
0.25
 49
-0.125
 49
0.25
 49
-0.125
 49
0.0
 49
-0.125
  0
LTYPE
  2
BORDERX2
 70
    64
  3
____  ____  .  ____  ____  .  ____  ____  .  __
 72
    65
 73
     6
 40
3.5
 49
1.0
 49
-0.5
 49
1.0
 49
-0.5
 49
0.0
 49
-0.5
  0
LTYPE
  2
CENTER
 70
    64
  3
____ _ ____ _ ____ _ ____ _ ____ _ ____ _ ____
 72
    65
 73
     4
 40
2.0
 49
1.25
 49
-0.25
 49
0.25
 49
-0.25
  0
LTYPE
  2
CENTER2
 70
    64
  3
___ _ ___ _ ___ _ ___ _ ___ _ ___ _ ___ _ ___ _
 72
    65
 73
     4
 40
1.125
 49
0.75
 49
-0.125
 49
0.125
 49
-0.125
  0
LTYPE
  2
CENTERX2
 70
    64
  3
________  __  ________  __  ________  __  _____
 72
    65
 73
     4
 40
4.0
 49
2.5
 49
-0.5
 49
0.5
 49
-0.5
  0
LTYPE
  2
DASHDOT
 70
    64
  3
__ . __ . __ . __ . __ . __ . __ . __ . __ . __
 72
    65
 73
     4
 40
1.0
 49
0.5
 49
-0.25
 49
0.0
 49
-0.25
  0
LTYPE
  2
DASHDOT2
 70
    64
  3
_._._._._._._._._._._._._._._._._._._._._._._._
 72
    65
 73
     4
 40
0.5
 49
0.25
 49
-0.125
 49
0.0
 49
-0.125
  0
LTYPE
  2
DASHDOTX2
 70
    64
  3
____  .  ____  .  ____  .  ____  .  ____  .  __
 72
    65
 73
     4
 40
2.0
 49
1.0
 49
-0.5
 49
0.0
 49
-0.5
  0
LTYPE
  2
DASHED
 70
    64
  3
__ __ __ __ __ __ __ __ __ __ __ __ __ __ __ __
 72
    65
 73
     2
 40
0.75
 49
0.5
 49
-0.25
  0
LTYPE
  2
DASHED2
 70
    64
  3
_ _ _ _ _ _ _ _ _ _ _ _ _ _ _ _ _ _ _ _ _ _ _ _
 72
    65
 73
     2
 40
0.375
 49
0.25
 49
-0.125
  0
LTYPE
  2
DASHEDX2
 70
    64
  3
____  ____  ____  ____  ____  ____  ____  ____
 72
    65
 73
     2
 40
1.5
 49
1.0
 49
-0.5
  0
LTYPE
  2
DIVIDE
 70
    64
  3
____ . . ____ . . ____ . . ____ . . ____ . . __
 72
    65
 73
     6
 40
1.25
 49
0.5
 49
-0.25
 49
0.0
 49
-0.25
 49
0.0
 49
-0.25
  0
LTYPE
  2
DIVIDE2
 70
    64
  3
__..__..__..__..__..__..__..__..__..__..__..__.
 72
    65
 73
     6
 40
0.625
 49
0.25
 49
-0.125
 49
0.0
 49
-0.125
 49
0.0
 49
-0.125
  0
LTYPE
  2
DIVIDEX2
 70
    64
  3
________  .  .  ________  .  .  ________  .  .
 72
    65
 73
     6
 40
2.5
 49
1.0
 49
-0.5
 49
0.0
 49
-0.5
 49
0.0
 49
-0.5
  0
LTYPE
  2
DOT
 70
    64
  3
. . . . . . . . . . . . . . . . . . . . . . . .
 72
    65
 73
     2
 40
0.25
 49
0.0
 49
-0.25
  0
LTYPE
  2
DOT2
 70
    64
  3
...............................................
 72
    65
 73
     2
 40
0.125
 49
0.0
 49
-0.125
  0
LTYPE
  2
DOTX2
 70
    64
  3
.  .  .  .  .  .  .  .  .  .  .  .  .  .  .  .
 72
    65
 73
     2
 40
0.5
 49
0.0
 49
-0.5
  0
LTYPE
  2
HIDDEN
 70
    64
  3
__ __ __ __ __ __ __ __ __ __ __ __ __ __ __ __
 72
    65
 73
     2
 40
0.375
 49
0.25
 49
-0.125
  0
LTYPE
  2
HIDDEN2
 70
    64
  3
_ _ _ _ _ _ _ _ _ _ _ _ _ _ _ _ _ _ _ _ _ _ _ _
 72
    65
 73
     2
 40
0.1875
 49
0.125
 49
-0.0625
  0
LTYPE
  2
HIDDENX2
 70
    64
  3
____ ____ ____ ____ ____ ____ ____ ____ ____ __
 72
    65
 73
     2
 40
0.75
 49
0.5
 49
-0.25
  0
LTYPE
  2
PHANTOM
 70
    64
  3
______  __  __  ______  __  __  ______  __  __
 72
    65
 73
     6
 40
2.5
 49
1.25
 49
-0.25
 49
0.25
 49
-0.25
 49
0.25
 49
-0.25
  0
LTYPE
  2
PHANTOM2
 70
    64
  3
___ _ _ ___ _ _ ___ _ _ ___ _ _ ___ _ _ ___ _ _
 72
    65
 73
     6
 40
1.25
 49
0.625
 49
-0.125
 49
0.125
 49
-0.125
 49
0.125
 49
-0.125
  0
LTYPE
  2
PHANTOMX2
 70
    64
  3
____________    ____    ____    ____________
 72
    65
 73
     6
 40
5.0
 49
2.5
 49
-0.5
 49
0.5
 49
-0.5
 49
0.5
 49
-0.5
  0
LTYPE
  2
ACAD_ISO02W100
 70
    64
  3
__ __ __ __ __ __ __ __ __ __ __ __ __ __ __ __
 72
    65
 73
     2
 40
15.0
 49
12.0
 49
-3.0
  0
LTYPE
  2
ACAD_ISO03W100
 70
    64
  3
__    __    __    __    __    __    __    __
 72
    65
 73
     2
 40
30.0
 49
12.0
 49
-18.0
  0
LTYPE
  2
ACAD_ISO04W100
 70
    64
  3
____ . ____ . ____ . ____ . ____ . ____ . ____
 72
    65
 73
     4
 40
30.5
 49
24.0
 49
-3.0
 49
0.5
 49
-3.0
  0
LTYPE
  2
ACAD_ISO05W100
 70
    64
  3
____ .. ____ .. ____ .. ____ .. ____ .. ____ ..
 72
    65
 73
     6
 40
34.0
 49
24.0
 49
-3.0
 49
0.5
 49
-3.0
 49
0.5
 49
-3.0
  0
LTYPE
  2
ACAD_ISO06W100
 70
    64
  3
____ ... ____ ... ____ ... ____ ... ____ ... __
 72
    65
 73
     8
 40
37.5
 49
24.0
 49
-3.0
 49
0.5
 49
-3.0
 49
0.5
 49
-3.0
 49
0.5
 49
-3.0
  0
LTYPE
  2
ACAD_ISO07W100
 70
    64
  3
. . . . . . . . . . . . . . . . . . . . . . . .
 72
    65
 73
     2
 40
3.5
 49
0.5
 49
-3.0
  0
LTYPE
  2
ACAD_ISO08W100
 70
    64
  3
____ __ ____ __ ____ __ ____ ____ __ __ ____ __
 72
    65
 73
     4
 40
36.0
 49
24.0
 49
-3.0
 49
6.0
 49
-3.0
  0
LTYPE
  2
ACAD_ISO09W100
 70
    64
  3
____ __ __ ____ __ __ ____ __ __ ____ __ __ ___
 72
    65
 73
     6
 40
45.0
 49
24.0
 49
-3.0
 49
6.0
 49
-3.0
 49
6.0
 49
-3.0
  0
LTYPE
  2
ACAD_ISO10W100
 70
    64
  3
__ . __ . __ . __ . __ . __ . __ . __ . __ . __
 72
    65
 73
     4
 40
18.5
 49
12.0
 49
-3.0
 49
0.5
 49
-3.0
  0
LTYPE
  2
ACAD_ISO11W100
 70
    64
  3
__ __ . __ __ . __ __ . __ __ . __ __ . __ __ .
 72
    65
 73
     6
 40
33.5
 49
12.0
 49
-3.0
 49
12.0
 49
-3.0
 49
0.5
 49
-3.0
  0
LTYPE
  2
ACAD_ISO12W100
 70
    64
  3
__ . . __ . . __ . . __ . . __ . . __ . . __ .
 72
    65
 73
     6
 40
22.0
 49
12.0
 49
-3.0
 49
0.5
 49
-3.0
 49
0.5
 49
-3.0
  0
LTYPE
  2
ACAD_ISO13W100
 70
    64
  3
__ __ . . __ __ . . __ __ . . __ __ . . __ __ .
 72
    65
 73
     8
 40
37.0
 49
12.0
 49
-3.0
 49
12.0
 49
-3.0
 49
0.5
 49
-3.0
 49
0.5
 49
-3.0
  0
LTYPE
  2
ACAD_ISO14W100
 70
    64
  3
__ . . . __ . . . __ . . . __ . . . __ . . . __
 72
    65
 73
     8
 40
25.5
 49
12.0
 49
-3.0
 49
0.5
 49
-3.0
 49
0.5
 49
-3.0
 49
0.5
 49
-3.0
  0
LTYPE
  2
ACAD_ISO15W100
 70
    64
  3
__ __ . . . __ __ . . . __ __ . . . __ __ . . .
 72
    65
 73
    10
 40
40.5
 49
12.0
 49
-3.0
 49
12.0
 49
-3.0
 49
0.5
 49
-3.0
 49
0.5
 49
-3.0
 49
0.5
 49
-3.0
  0
ENDTAB
  0
TABLE
  2
STYLE
 70
     4
  0
STYLE
  2
STANDARD
 70
    64
 40
0.0
 41
1.0
 50
0.0
 71
     0
 42
0.2
  3
txt
  4

  0
STYLE
  2
TOLERANCE
 70
    64
 40
0.0
 41
1.0
 50
0.0
 71
     0
 42
0.2
  3
../igesfont/iges1003.shx
  4

  0
STYLE
  2
ROMANS
 70
    64
 40
0.0
 41
1.0
 50
0.0
 71
     0
 42
0.2
  3
romans.shx
  4

  0
STYLE
  2
ROMANC
 70
    64
 40
0.0
 41
1.0
 50
0.0
 71
     0
 42
0.2
  3
romanc.shx
  4

  0
ENDTAB
  0
TABLE
  2
DIMSTYLE
 70
     2
  0
DIMSTYLE
  2
UNNAMED
 70
     0
  3

  4

  5

  6

  7

 40
1.0
 41
0.18
 42
0.0625
 43
0.38
 44
0.18
 45
0.0
 46
0.0
 47
0.0
 48
0.0
140
0.18
141
0.09
142
0.0
143
25.4
144
1.0
145
0.0
146
1.0
147
0.09
 71
     0
 72
     0
 73
     1
 74
     1
 75
     0
 76
     0
 77
     0
 78
     0
170
     0
171
     2
172
     0
173
     0
174
     0
175
     0
176
     0
177
     0
178
     0
  0
DIMSTYLE
  2
STANDARD
 70
     0
  3

  4

  5

  6

  7

 40
1.0
 41
0.18
 42
0.0625
 43
0.38
 44
0.18
 45
0.0
 46
0.0
 47
0.0
 48
0.0
140
0.18
141
0.09
142
0.0
143
25.4
144
1.0
145
0.0
146
1.0
147
0.09
 71
     0
 72
     0
 73
     1
 74
     1
 75
     0
 76
     0
 77
     0
 78
     0
170
     0
171
     2
172
     0
173
     0
174
     0
175
     0
176
     0
177
     0
178
     0
  0
ENDTAB
  0
TABLE
  2
LAYER
 70
     1
  0
LAYER
  2
0
 70
     0
 62
     7
  6
CONTINUOUS
  0
ENDTAB
  0
ENDSEC
  0
SECTION
  2
BLOCKS
  0
BLOCK
  5
     B
  8
0
  6
CONTINUOUS
 62
     7
  2
*UDIM326
 70
    65
 10
0.0
 20
0.0
 30
0.0
  3
*UDIM326
  0
TEXT
  5
     C
  8
0
  6
CONTINUOUS
 62
     7
 10
-18.0250019381444
 20
66.8636322021484
 30
0.0
 40
3.00000002980232
  1
50
 41
0.933333333333333
 72
     1
 11
-15.5250019133091
 21
68.3636322170496
 31
0.0
 73
     2
  0
LINE
  5
     D
  8
0
  6
CONTINUOUS
 62
     7
 10
-40.2500038146973
 20
6.75
 30
0.0
 11
-40.2500038146973
 21
67.8636322021484
 31
0.0
  0
LINE
  5
     E
  8
0
  6
CONTINUOUS
 62
     7
 10
9.75
 20
6.75
 30
0.0
 11
9.75
 21
67.8636322021484
 31
0.0
  0
LINE
  5
     F
  8
0
  6
CONTINUOUS
 62
     7
 10
-40.2500038146973
 20
65.8636322021484
 30
0.0
 11
9.75
 21
65.8636322021484
 31
0.0
  0
LINE
  5
    10
  8
0
  6
CONTINUOUS
 62
     7
 10
-37.2955805530157
 20
66.3845767201488
 30
0.0
 11
-40.2500038146973
 21
65.8636322021484
 31
0.0
  0
LINE
  5
    11
  8
0
  6
CONTINUOUS
 62
     7
 10
-40.2500038146973
 20
65.8636322021484
 30
0.0
 11
-37.2955805530157
 21
65.3426876841481
 31
0.0
  0
LINE
  5
    12
  8
0
  6
CONTINUOUS
 62
     7
 10
6.79557673831839
 20
65.3426876841481
 30
0.0
 11
9.75
 21
65.8636322021484
 31
0.0
  0
LINE
  5
    13
  8
0
  6
CONTINUOUS
 62
     7
 10
9.75
 20
65.8636322021484
 30
0.0
 11
6.79557673831839
 21
66.3845767201488
 31
0.0
  0
ENDBLK
  5
    14
  8
0
  6
CONTINUOUS
 62
     7
  0
BLOCK
  5
    15
  8
0
  6
CONTINUOUS
 62
     7
  2
*UDIM327
 70
    65
 10
0.0
 20
0.0
 30
0.0
  3
*UDIM327
  0
TEXT
  5
    16
  8
0
  6
CONTINUOUS
 62
     7
 10
-18.0250019381444
 20
56.9939994812012
 30
0.0
 40
3.00000002980232
  1
25
 41
0.933333333333333
 72
     1
 11
-15.5250019133091
 21
58.4939994961023
 31
0.0
 73
     2
  0
LINE
  5
    17
  8
0
  6
CONTINUOUS
 62
     7
 10
-27.7500019073486
 20
48.75
 30
0.0
 11
-27.7500019073486
 21
57.9939994812012
 31
0.0
  0
LINE
  5
    18
  8
0
  6
CONTINUOUS
 62
     7
 10
-2.75000190734863
 20
48.75
 30
0.0
 11
-2.75000190734863
 21
57.9939994812012
 31
0.0
  0
LINE
  5
    19
  8
0
  6
CONTINUOUS
 62
     7
 10
-27.7500019073486
 20
55.9939994812012
 30
0.0
 11
-2.75000190734863
 21
55.9939994812012
 31
0.0
  0
LINE
  5
    1A
  8
0
  6
CONTINUOUS
 62
     7
 10
-24.795578645667
 20
56.5149439992015
 30
0.0
 11
-27.7500019073486
 21
55.9939994812012
 31
0.0
  0
LINE
  5
    1B
  8
0
  6
CONTINUOUS
 62
     7
 10
-27.7500019073486
 20
55.9939994812012
 30
0.0
 11
-24.795578645667
 21
55.4730549632008
 31
0.0
  0
LINE
  5
    1C
  8
0
  6
CONTINUOUS
 62
     7
 10
-5.70442516903024
 20
55.4730549632008
 30
0.0
 11
-2.75000190734863
 21
55.9939994812012
 31
0.0
  0
LINE
  5
    1D
  8
0
  6
CONTINUOUS
 62
     7
 10
-2.75000190734863
 20
55.9939994812012
 30
0.0
 11
-5.70442516903024
 21
56.5149439992015
 31
0.0
  0
ENDBLK
  5
    1E
  8
0
  6
CONTINUOUS
 62
     7
  0
BLOCK
  5
    1F
  8
0
  6
CONTINUOUS
 62
     7
  2
*UDIM328
 70
    65
 10
0.0
 20
0.0
 30
0.0
  3
*UDIM328
  0
TEXT
  5
    20
  8
0
  6
CONTINUOUS
 62
     7
 10
-17.2838901886423
 20
-85.2648773193359
 30
0.0
 40
3.00000002980232
  1
11
 41
0.933333333333333
 72
     1
 11
-14.783890163807
 21
-83.7648773044348
 31
0.0
 73
     2
  0
LINE
  5
    21
  8
0
  6
CONTINUOUS
 62
     7
 10
-20.7499801508399
 20
-60.7499739867589
 30
0.0
 11
-20.7499801508399
 21
-88.2648773193359
 31
0.0
  0
LINE
  5
    22
  8
0
  6
CONTINUOUS
 62
     7
 10
-9.75003202024564
 20
-60.7499739867589
 30
0.0
 11
-9.75003202024564
 21
-88.2648773193359
 31
0.0
  0
LINE
  5
    23
  8
0
  6
CONTINUOUS
 62
     7
 10
-20.7499801508399
 20
-86.2648773193359
 30
0.0
 11
-9.75003202024564
 21
-86.2648773193359
 31
0.0
  0
LINE
  5
    24
  8
0
  6
CONTINUOUS
 62
     7
 10
-23.7044034125215
 20
-86.7858218373363
 30
0.0
 11
-20.7499801508399
 21
-86.2648773193359
 31
0.0
  0
LINE
  5
    25
  8
0
  6
CONTINUOUS
 62
     7
 10
-20.7499801508399
 20
-86.2648773193359
 30
0.0
 11
-23.7044034125215
 21
-85.7439328013356
 31
0.0
  0
LINE
  5
    26
  8
0
  6
CONTINUOUS
 62
     7
 10
-6.79560875856403
 20
-85.7439328013356
 30
0.0
 11
-9.75003202024564
 21
-86.2648773193359
 31
0.0
  0
LINE
  5
    27
  8
0
  6
CONTINUOUS
 62
     7
 10
-9.75003202024564
 20
-86.2648773193359
 30
0.0
 11
-6.79560875856403
 21
-86.7858218373363
 31
0.0
  0
ENDBLK
  5
    28
  8
0
  6
CONTINUOUS
 62
     7
  0
BLOCK
  5
    29
  8
0
  6
CONTINUOUS
 62
     7
  2
*UDIM329
 70
    65
 10
0.0
 20
0.0
 30
0.0
  3
*UDIM329
  0
TEXT
  5
    2A
  8
0
  6
CONTINUOUS
 62
     7
 10
-74.7540435790967
 20
-16.4250000447016
 30
0.0
 40
3.00000002980232
  1
120
 50
90.0
 41
0.933333333333333
 72
     1
 11
-76.2540435940027
 21
-12.5250000059605
 31
0.0
 73
     2
  0
LINE
  5
    2B
  8
0
  6
CONTINUOUS
 62
     7
 10
-28.7500019073486
 20
-72.25
 30
0.0
 11
-75.7540435791016
 21
-72.25
 31
0.0
  0
LINE
  5
    2C
  8
0
  6
CONTINUOUS
 62
     7
 10
-28.7500019073486
 20
47.75
 30
0.0
 11
-75.7540435791016
 21
47.75
 31
0.0
  0
LINE
  5
    2D
  8
0
  6
CONTINUOUS
 62
     7
 10
-73.7540435791016
 20
-72.25
 30
0.0
 11
-73.7540435791016
 21
47.75
 31
0.0
  0
LINE
  5
    2E
  8
0
  6
CONTINUOUS
 62
     7
 10
-74.2749880971019
 20
-69.2955767383184
 30
0.0
 11
-73.7540435791016
 21
-72.25
 31
0.0
  0
LINE
  5
    2F
  8
0
  6
CONTINUOUS
 62
     7
 10
-73.7540435791016
 20
-72.25
 30
0.0
 11
-73.2330990611012
 21
-69.2955767383184
 31
0.0
  0
LINE
  5
    30
  8
0
  6
CONTINUOUS
 62
     7
 10
-73.2330990611012
 20
44.7955767383184
 30
0.0
 11
-73.7540435791016
 21
47.75
 31
0.0
  0
LINE
  5
    31
  8
0
  6
CONTINUOUS
 62
     7
 10
-73.7540435791016
 20
47.75
 30
0.0
 11
-74.2749880971019
 21
44.7955767383184
 31
0.0
  0
ENDBLK
  5
    32
  8
0
  6
CONTINUOUS
 62
     7
  0
BLOCK
  5
    33
  8
0
  6
CONTINUOUS
 62
     7
  2
*UDIM330
 70
    65
 10
0.0
 20
0.0
 30
0.0
  3
*UDIM330
  0
TEXT
  5
    34
  8
0
  6
CONTINUOUS
 62
     7
 10
-61.9915809631334
 20
-61.6165962090076
 30
0.0
 40
3.00000002980232
  1
=
 50
90.0
 41
0.933333333333334
 72
     1
 11
-63.4915809780359
 21
-60.516596198082
 31
0.0
 73
     2
  0
LINE
  5
    35
  8
0
  6
CONTINUOUS
 62
     7
 10
-28.7500019073486
 20
-72.25
 30
0.0
 11
-62.9915809631348
 21
-72.25
 31
0.0
  0
LINE
  5
    36
  8
0
  6
CONTINUOUS
 62
     7
 10
-28.7500019073486
 20
-45.25
 30
0.0
 11
-62.9915809631348
 21
-45.25
 31
0.0
  0
LINE
  5
    37
  8
0
  6
CONTINUOUS
 62
     7
 10
-60.9915809631348
 20
-72.25
 30
0.0
 11
-60.9915809631348
 21
-45.25
 31
0.0
  0
LINE
  5
    38
  8
0
  6
CONTINUOUS
 62
     7
 10
-61.5125254811351
 20
-69.2955767383184
 30
0.0
 11
-60.9915809631348
 21
-72.25
 31
0.0
  0
LINE
  5
    39
  8
0
  6
CONTINUOUS
 62
     7
 10
-60.9915809631348
 20
-72.25
 30
0.0
 11
-60.4706364451344
 21
-69.2955767383184
 31
0.0
  0
LINE
  5
    3A
  8
0
  6
CONTINUOUS
 62
     7
 10
-60.4706364451344
 20
-48.2044232616816
 30
0.0
 11
-60.9915809631348
 21
-45.25
 31
0.0
  0
LINE
  5
    3B
  8
0
  6
CONTINUOUS
 62
     7
 10
-60.9915809631348
 20
-45.25
 30
0.0
 11
-61.5125254811351
 21
-48.2044232616816
 31
0.0
  0
ENDBLK
  5
    3C
  8
0
  6
CONTINUOUS
 62
     7
  0
BLOCK
  5
    3D
  8
0
  6
CONTINUOUS
 62
     7
  2
*UDIM331
 70
    65
 10
0.0
 20
0.0
 30
0.0
  3
*UDIM331
  0
TEXT
  5
    3E
  8
0
  6
CONTINUOUS
 62
     7
 10
-61.9915809631316
 20
-15.0250000307939
 30
0.0
 40
3.00000002980232
  1
66
 50
90.0
 41
0.933333333333333
 72
     1
 11
-63.4915809780359
 21
-12.5250000059605
 31
0.0
 73
     2
  0
LINE
  5
    3F
  8
0
  6
CONTINUOUS
 62
     7
 10
-28.7500019073486
 20
20.75
 30
0.0
 11
-62.9915809631348
 21
20.75
 31
0.0
  0
LINE
  5
    40
  8
0
  6
CONTINUOUS
 62
     7
 10
-60.9915809631348
 20
-45.25
 30
0.0
 11
-60.9915809631348
 21
20.75
 31
0.0
  0
LINE
  5
    41
  8
0
  6
CONTINUOUS
 62
     7
 10
-61.5125254811351
 20
-42.2955767383184
 30
0.0
 11
-60.9915809631348
 21
-45.25
 31
0.0
  0
LINE
  5
    42
  8
0
  6
CONTINUOUS
 62
     7
 10
-60.9915809631348
 20
-45.25
 30
0.0
 11
-60.4706364451344
 21
-42.2955767383184
 31
0.0
  0
LINE
  5
    43
  8
0
  6
CONTINUOUS
 62
     7
 10
-60.4706364451344
 20
17.7955767383184
 30
0.0
 11
-60.9915809631348
 21
20.75
 31
0.0
  0
LINE
  5
    44
  8
0
  6
CONTINUOUS
 62
     7
 10
-60.9915809631348
 20
20.75
 30
0.0
 11
-61.5125254811351
 21
17.7955767383184
 31
0.0
  0
ENDBLK
  5
    45
  8
0
  6
CONTINUOUS
 62
     7
  0
BLOCK
  5
    46
  8
0
  6
CONTINUOUS
 62
     7
  2
*UDIM332
 70
    65
 10
0.0
 20
0.0
 30
0.0
  3
*UDIM332
  0
TEXT
  5
    47
  8
0
  6
CONTINUOUS
 62
     7
 10
-61.9915809631334
 20
31.3834037909924
 30
0.0
 40
3.00000002980232
  1
=
 50
90.0
 41
0.933333333333334
 72
     1
 11
-63.4915809780359
 21
32.483403801918
 31
0.0
 73
     2
  0
LINE
  5
    48
  8
0
  6
CONTINUOUS
 62
     7
 10
-28.7500019073486
 20
47.75
 30
0.0
 11
-62.9915809631348
 21
47.75
 31
0.0
  0
LINE
  5
    49
  8
0
  6
CONTINUOUS
 62
     7
 10
-60.9915809631348
 20
20.75
 30
0.0
 11
-60.9915809631348
 21
47.75
 31
0.0
  0
LINE
  5
    4A
  8
0
  6
CONTINUOUS
 62
     7
 10
-61.5125254811351
 20
23.7044232616816
 30
0.0
 11
-60.9915809631348
 21
20.75
 31
0.0
  0
LINE
  5
    4B
  8
0
  6
CONTINUOUS
 62
     7
 10
-60.9915809631348
 20
20.75
 30
0.0
 11
-60.4706364451344
 21
23.7044232616816
 31
0.0
  0
LINE
  5
    4C
  8
0
  6
CONTINUOUS
 62
     7
 10
-60.4706364451344
 20
44.7955767383184
 30
0.0
 11
-60.9915809631348
 21
47.75
 31
0.0
  0
LINE
  5
    4D
  8
0
  6
CONTINUOUS
 62
     7
 10
-60.9915809631348
 20
47.75
 30
0.0
 11
-61.5125254811351
 21
44.7955767383184
 31
0.0
  0
ENDBLK
  5
    4E
  8
0
  6
CONTINUOUS
 62
     7
  0
BLOCK
  5
    4F
  8
0
  6
CONTINUOUS
 62
     7
  2
*UDIM333
 70
    65
 10
0.0
 20
0.0
 30
0.0
  3
*UDIM333
  0
TEXT
  5
    50
  8
0
  6
CONTINUOUS
 62
     7
 10
-50.4202842712389
 20
-41.6165962090076
 30
0.0
 40
3.00000002980232
  1
=
 50
90.0
 41
0.933333333333334
 72
     1
 11
-51.9202842861414
 21
-40.516596198082
 31
0.0
 73
     2
  0
LINE
  5
    51
  8
0
  6
CONTINUOUS
 62
     7
 10
-31.5
 20
-45.25
 30
0.0
 11
-51.4202842712402
 21
-45.25
 31
0.0
  0
LINE
  5
    52
  8
0
  6
CONTINUOUS
 62
     7
 10
-39.2500038146973
 20
-32.25
 30
0.0
 11
-51.4202842712402
 21
-32.25
 31
0.0
  0
LINE
  5
    53
  8
0
  6
CONTINUOUS
 62
     7
 10
-49.4202842712402
 20
-45.25
 30
0.0
 11
-49.4202842712402
 21
-32.25
 31
0.0
  0
LINE
  5
    54
  8
0
  6
CONTINUOUS
 62
     7
 10
-49.9412287892406
 20
-42.2955767383184
 30
0.0
 11
-49.4202842712402
 21
-45.25
 31
0.0
  0
LINE
  5
    55
  8
0
  6
CONTINUOUS
 62
     7
 10
-49.4202842712402
 20
-45.25
 30
0.0
 11
-48.8993397532399
 21
-42.2955767383184
 31
0.0
  0
LINE
  5
    56
  8
0
  6
CONTINUOUS
 62
     7
 10
-48.8993397532399
 20
-35.2044232616816
 30
0.0
 11
-49.4202842712402
 21
-32.25
 31
0.0
  0
LINE
  5
    57
  8
0
  6
CONTINUOUS
 62
     7
 10
-49.4202842712402
 20
-32.25
 30
0.0
 11
-49.9412287892406
 21
-35.2044232616816
 31
0.0
  0
ENDBLK
  5
    58
  8
0
  6
CONTINUOUS
 62
     7
  0
BLOCK
  5
    59
  8
0
  6
CONTINUOUS
 62
     7
  2
*UDIM334
 70
    65
 10
0.0
 20
0.0
 30
0.0
  3
*UDIM334
  0
TEXT
  5
    5A
  8
0
  6
CONTINUOUS
 62
     7
 10
-50.4202842712371
 20
-15.0250000307939
 30
0.0
 40
3.00000002980232
  1
40
 50
90.0
 41
0.933333333333333
 72
     1
 11
-51.9202842861414
 21
-12.5250000059605
 31
0.0
 73
     2
  0
LINE
  5
    5B
  8
0
  6
CONTINUOUS
 62
     7
 10
-38.0864562988281
 20
7.75
 30
0.0
 11
-51.4202842712402
 21
7.75
 31
0.0
  0
LINE
  5
    5C
  8
0
  6
CONTINUOUS
 62
     7
 10
-49.4202842712402
 20
-32.25
 30
0.0
 11
-49.4202842712402
 21
7.75
 31
0.0
  0
LINE
  5
    5D
  8
0
  6
CONTINUOUS
 62
     7
 10
-49.9412287892406
 20
-29.2955767383184
 30
0.0
 11
-49.4202842712402
 21
-32.25
 31
0.0
  0
LINE
  5
    5E
  8
0
  6
CONTINUOUS
 62
     7
 10
-49.4202842712402
 20
-32.25
 30
0.0
 11
-48.8993397532399
 21
-29.2955767383184
 31
0.0
  0
LINE
  5
    5F
  8
0
  6
CONTINUOUS
 62
     7
 10
-48.8993397532399
 20
4.79557673831839
 30
0.0
 11
-49.4202842712402
 21
7.75
 31
0.0
  0
LINE
  5
    60
  8
0
  6
CONTINUOUS
 62
     7
 10
-49.4202842712402
 20
7.75
 30
0.0
 11
-49.9412287892406
 21
4.79557673831839
 31
0.0
  0
ENDBLK
  5
    61
  8
0
  6
CONTINUOUS
 62
     7
  0
BLOCK
  5
    62
  8
0
  6
CONTINUOUS
 62
     7
  2
*UDIM335
 70
    65
 10
0.0
 20
0.0
 30
0.0
  3
*UDIM335
  0
TEXT
  5
    63
  8
0
  6
CONTINUOUS
 62
     7
 10
-50.4202842712389
 20
11.3834037909924
 30
0.0
 40
3.00000002980232
  1
=
 50
90.0
 41
0.933333333333334
 72
     1
 11
-51.9202842861414
 21
12.483403801918
 31
0.0
 73
     2
  0
LINE
  5
    64
  8
0
  6
CONTINUOUS
 62
     7
 10
-31.5
 20
20.75
 30
0.0
 11
-51.4202842712402
 21
20.75
 31
0.0
  0
LINE
  5
    65
  8
0
  6
CONTINUOUS
 62
     7
 10
-49.4202842712402
 20
7.75
 30
0.0
 11
-49.4202842712402
 21
20.75
 31
0.0
  0
LINE
  5
    66
  8
0
  6
CONTINUOUS
 62
     7
 10
-49.9412287892406
 20
10.7044232616816
 30
0.0
 11
-49.4202842712402
 21
7.75
 31
0.0
  0
LINE
  5
    67
  8
0
  6
CONTINUOUS
 62
     7
 10
-49.4202842712402
 20
7.75
 30
0.0
 11
-48.8993397532399
 21
10.7044232616816
 31
0.0
  0
LINE
  5
    68
  8
0
  6
CONTINUOUS
 62
     7
 10
-48.8993397532399
 20
17.7955767383184
 30
0.0
 11
-49.4202842712402
 21
20.75
 31
0.0
  0
LINE
  5
    69
  8
0
  6
CONTINUOUS
 62
     7
 10
-49.4202842712402
 20
20.75
 30
0.0
 11
-49.9412287892406
 21
17.7955767383184
 31
0.0
  0
ENDBLK
  5
    6A
  8
0
  6
CONTINUOUS
 62
     7
  0
BLOCK
  5
    6B
  8
0
  6
CONTINUOUS
 62
     7
  2
*UDIM336
 70
    65
 10
0.0
 20
0.0
 30
0.0
  3
*UDIM336
  0
TEXT
  5
    6C
  8
0
  6
CONTINUOUS
 62
     7
 10
36.0241012573256
 20
-65.7913703661215
 30
0.0
 40
3.00000002980232
  1
=
 50
90.0
 41
0.933333333333334
 72
     1
 11
34.5241012424231
 21
-64.6913703551959
 31
0.0
 73
     2
  0
LINE
  5
    6D
  8
0
  6
CONTINUOUS
 62
     7
 10
-1.75000190734863
 20
-72.25
 30
0.0
 11
39.0241012573242
 21
-72.25
 31
0.0
  0
LINE
  5
    6E
  8
0
  6
CONTINUOUS
 62
     7
 10
-0.111630067220378
 20
-59.7499739867589
 30
0.0
 11
39.0241012573242
 21
-59.7499739867589
 31
0.0
  0
LINE
  5
    6F
  8
0
  6
CONTINUOUS
 62
     7
 10
37.0241012573242
 20
-72.25
 30
0.0
 11
37.0241012573242
 21
-59.7499739867589
 31
0.0
  0
LINE
  5
    70
  8
0
  6
CONTINUOUS
 62
     7
 10
36.5031567393239
 20
-69.2955767383184
 30
0.0
 11
37.0241012573242
 21
-72.25
 31
0.0
  0
LINE
  5
    71
  8
0
  6
CONTINUOUS
 62
     7
 10
37.0241012573242
 20
-72.25
 30
0.0
 11
37.5450457753246
 21
-69.2955767383184
 31
0.0
  0
LINE
  5
    72
  8
0
  6
CONTINUOUS
 62
     7
 10
37.5450457753246
 20
-62.7043972484405
 30
0.0
 11
37.0241012573242
 21
-59.7499739867589
 31
0.0
  0
LINE
  5
    73
  8
0
  6
CONTINUOUS
 62
     7
 10
37.0241012573242
 20
-59.7499739867589
 30
0.0
 11
36.5031567393239
 21
-62.7043972484405
 31
0.0
  0
ENDBLK
  5
    74
  8
0
  6
CONTINUOUS
 62
     7
  0
BLOCK
  5
    75
  8
0
  6
CONTINUOUS
 62
     7
  2
*UDIM337
 70
    65
 10
0.0
 20
0.0
 30
0.0
  3
*UDIM337
  0
TEXT
  5
    76
  8
0
  6
CONTINUOUS
 62
     7
 10
36.0241012573274
 20
-15.0249924020079
 30
0.0
 40
3.00000002980232
  1
95
 50
90.0
 41
0.933333333333333
 72
     1
 11
34.5241012424231
 21
-12.5249923771745
 31
0.0
 73
     2
  0
LINE
  5
    77
  8
0
  6
CONTINUOUS
 62
     7
 10
-0.523344906931629
 20
35.2499873369823
 30
0.0
 11
39.0241012573242
 21
35.2499873369823
 31
0.0
  0
LINE
  5
    78
  8
0
  6
CONTINUOUS
 62
     7
 10
37.0241012573242
 20
-59.7499739867589
 30
0.0
 11
37.0241012573242
 21
35.2499873369823
 31
0.0
  0
LINE
  5
    79
  8
0
  6
CONTINUOUS
 62
     7
 10
36.5031567393239
 20
-56.7955507250773
 30
0.0
 11
37.0241012573242
 21
-59.7499739867589
 31
0.0
  0
LINE
  5
    7A
  8
0
  6
CONTINUOUS
 62
     7
 10
37.0241012573242
 20
-59.7499739867589
 30
0.0
 11
37.5450457753246
 21
-56.7955507250773
 31
0.0
  0
LINE
  5
    7B
  8
0
  6
CONTINUOUS
 62
     7
 10
37.5450457753246
 20
32.2955640753007
 30
0.0
 11
37.0241012573242
 21
35.2499873369823
 31
0.0
  0
LINE
  5
    7C
  8
0
  6
CONTINUOUS
 62
     7
 10
37.0241012573242
 20
35.2499873369823
 30
0.0
 11
36.5031567393239
 21
32.2955640753007
 31
0.0
  0
ENDBLK
  5
    7D
  8
0
  6
CONTINUOUS
 62
     7
  0
BLOCK
  5
    7E
  8
0
  6
CONTINUOUS
 62
     7
  2
*UDIM338
 70
    65
 10
0.0
 20
0.0
 30
0.0
  3
*UDIM338
  0
TEXT
  5
    7F
  8
0
  6
CONTINUOUS
 62
     7
 10
36.0241012573256
 20
40.3922844547432
 30
0.0
 40
3.00000002980232
  1
=
 50
90.0
 41
0.933333333333334
 72
     1
 11
34.5241012424231
 21
41.4922844656688
 31
0.0
 73
     2
  0
LINE
  5
    80
  8
0
  6
CONTINUOUS
 62
     7
 10
-1.75000190734863
 20
47.75
 30
0.0
 11
39.0241012573242
 21
47.75
 31
0.0
  0
LINE
  5
    81
  8
0
  6
CONTINUOUS
 62
     7
 10
37.0241012573242
 20
35.2499873369823
 30
0.0
 11
37.0241012573242
 21
47.75
 31
0.0
  0
LINE
  5
    82
  8
0
  6
CONTINUOUS
 62
     7
 10
36.5031567393239
 20
38.2044105986639
 30
0.0
 11
37.0241012573242
 21
35.2499873369823
 31
0.0
  0
LINE
  5
    83
  8
0
  6
CONTINUOUS
 62
     7
 10
37.0241012573242
 20
35.2499873369823
 30
0.0
 11
37.5450457753246
 21
38.2044105986639
 31
0.0
  0
LINE
  5
    84
  8
0
  6
CONTINUOUS
 62
     7
 10
37.5450457753246
 20
44.7955767383184
 30
0.0
 11
37.0241012573242
 21
47.75
 31
0.0
  0
LINE
  5
    85
  8
0
  6
CONTINUOUS
 62
     7
 10
37.0241012573242
 20
47.75
 30
0.0
 11
36.5031567393239
 21
44.7955767383184
 31
0.0
  0
ENDBLK
  5
    86
  8
0
  6
CONTINUOUS
 62
     7
  0
BLOCK
  5
    87
  8
0
  6
CONTINUOUS
 62
     7
  2
*HATCH117
 70
    65
 10
0.0
 20
0.0
 30
0.0
  3
*HATCH117
  0
LINE
  5
    88
  8
0
  6
CONTINUOUS
 62
    52
 10
-5.86546087265015
 20
17.4690628051758
 30
0.0
 11
-7.71906185150146
 21
15.6154613494873
 31
0.0
  0
LINE
  5
    89
  8
0
  6
CONTINUOUS
 62
    52
 10
-3.91320371627808
 20
17.2999992370605
 30
0.0
 11
-7.75
 21
13.4632034301758
 31
0.0
  0
LINE
  5
    8A
  8
0
  6
CONTINUOUS
 62
    52
 10
-1.79188323020935
 20
17.2999992370605
 30
0.0
 11
-3.84188270568848
 21
15.25
 31
0.0
  0
LINE
  5
    8B
  8
0
  6
CONTINUOUS
 62
    52
 10
-5.5
 20
13.5918827056885
 30
0.0
 11
-7.75
 21
11.3418827056885
 31
0.0
  0
LINE
  5
    8C
  8
0
  6
CONTINUOUS
 62
    52
 10
0.329437255859375
 20
17.2999992370605
 30
0.0
 11
-1.72056221961975
 21
15.25
 31
0.0
  0
LINE
  5
    8D
  8
0
  6
CONTINUOUS
 62
    52
 10
-5.5
 20
11.4705619812012
 30
0.0
 11
-7.75
 21
9.22056198120117
 31
0.0
  0
LINE
  5
    8E
  8
0
  6
CONTINUOUS
 62
    52
 10
1.25
 20
16.0992412567139
 30
0.0
 11
0.400758177042007
 21
15.25
 31
0.0
  0
LINE
  5
    8F
  8
0
  6
CONTINUOUS
 62
    52
 10
-5.5
 20
9.34924221038818
 30
0.0
 11
-7.75
 21
7.09924268722534
 31
0.0
  0
LINE
  5
    90
  8
0
  6
CONTINUOUS
 62
    52
 10
-5.5
 20
7.22792196273804
 30
0.0
 11
-7.75
 21
4.9779224395752
 31
0.0
  0
LINE
  5
    91
  8
0
  6
CONTINUOUS
 62
    52
 10
-5.5
 20
5.10660171508789
 30
0.0
 11
-7.75
 21
2.85660219192505
 31
0.0
  0
LINE
  5
    92
  8
0
  6
CONTINUOUS
 62
    52
 10
-5.5
 20
2.98528146743774
 30
0.0
 11
-7.60823726654053
 21
0.877044260501862
 31
0.0
  0
ENDBLK
  5
    93
  8
0
  6
CONTINUOUS
 62
     7
  0
BLOCK
  5
    94
  8
0
  6
CONTINUOUS
 62
     7
  2
*HATCH118
 70
    65
 10
0.0
 20
0.0
 30
0.0
  3
*HATCH118
  0
LINE
  5
    95
  8
0
  6
CONTINUOUS
 62
    52
 10
12.25
 20
2.59923648834229
 30
0.0
 11
13.5992345809937
 21
1.25
 31
0.0
  0
LINE
  5
    96
  8
0
  6
CONTINUOUS
 62
    52
 10
13.4705562591553
 20
3.5
 30
0.0
 11
15.7205533981323
 21
1.25
 31
0.0
  0
LINE
  5
    97
  8
0
  6
CONTINUOUS
 62
    52
 10
15.5918750762939
 20
3.5
 30
0.0
 11
17.8418731689453
 21
1.25
 31
0.0
  0
LINE
  5
    98
  8
0
  6
CONTINUOUS
 62
    52
 10
17.7131938934326
 20
3.5
 30
0.0
 11
19.963191986084
 21
1.25
 31
0.0
  0
LINE
  5
    99
  8
0
  6
CONTINUOUS
 62
    52
 10
19.8345127105713
 20
3.5
 30
0.0
 11
22.0845108032227
 21
1.25
 31
0.0
  0
LINE
  5
    9A
  8
0
  6
CONTINUOUS
 62
    52
 10
21.95583152771
 20
3.5
 30
0.0
 11
24.2058296203613
 21
1.25
 31
0.0
  0
LINE
  5
    9B
  8
0
  6
CONTINUOUS
 62
    52
 10
24.0771503448486
 20
3.5
 30
0.0
 11
26.3271484375
 21
1.25
 31
0.0
  0
LINE
  5
    9C
  8
0
  6
CONTINUOUS
 62
    52
 10
26.1984691619873
 20
3.5
 30
0.0
 11
28.4484672546387
 21
1.25
 31
0.0
  0
LINE
  5
    9D
  8
0
  6
CONTINUOUS
 62
    52
 10
28.3197898864746
 20
3.5
 30
0.0
 11
30.942741394043
 21
0.877044260501862
 31
0.0
  0
LINE
  5
    9E
  8
0
  6
CONTINUOUS
 62
    52
 10
30.5110588073731
 20
3.43004989624023
 30
0.0
 11
32.1800537109375
 21
1.76105415821075
 31
0.0
  0
ENDBLK
  5
    9F
  8
0
  6
CONTINUOUS
 62
     7
  0
BLOCK
  5
    A0
  8
0
  6
CONTINUOUS
 62
     7
  2
*UDIM339
 70
    65
 10
0.0
 20
0.0
 30
0.0
  3
*UDIM339
  0
TEXT
  5
    A1
  8
0
  6
CONTINUOUS
 62
     7
 10
151.528225645323
 20
69.5862884665426
 30
0.0
 40
3.00000002980232
  1
76,5
 50
359.999999844103
 41
0.933333333333333
 72
     1
 11
156.828225702047
 21
71.0862884670496
 31
0.0
 73
     2
  0
LINE
  5
    A2
  8
0
  6
CONTINUOUS
 62
     7
 10
118.853225708008
 20
6.75
 30
0.0
 11
118.853225708008
 21
70.5862884521484
 31
0.0
  0
LINE
  5
    A3
  8
0
  6
CONTINUOUS
 62
     7
 10
195.353225708008
 20
6.75
 30
0.0
 11
195.353225708008
 21
70.5862884521484
 31
0.0
  0
LINE
  5
    A4
  8
0
  6
CONTINUOUS
 62
     7
 10
118.853225708008
 20
68.5862884521484
 30
0.0
 11
195.353225708008
 21
68.5862884521484
 31
0.0
  0
LINE
  5
    A5
  8
0
  6
CONTINUOUS
 62
     7
 10
121.807648969689
 20
69.1072329701488
 30
0.0
 11
118.853225708008
 21
68.5862884521484
 31
0.0
  0
LINE
  5
    A6
  8
0
  6
CONTINUOUS
 62
     7
 10
118.853225708008
 20
68.5862884521484
 30
0.0
 11
121.807648969689
 21
68.0653439341481
 31
0.0
  0
LINE
  5
    A7
  8
0
  6
CONTINUOUS
 62
     7
 10
192.398802446326
 20
68.0653439341481
 30
0.0
 11
195.353225708008
 21
68.5862884521484
 31
0.0
  0
LINE
  5
    A8
  8
0
  6
CONTINUOUS
 62
     7
 10
195.353225708008
 20
68.5862884521484
 30
0.0
 11
192.398802446326
 21
69.1072329701488
 31
0.0
  0
ENDBLK
  5
    A9
  8
0
  6
CONTINUOUS
 62
     7
  0
BLOCK
  5
    AA
  8
0
  6
CONTINUOUS
 62
     7
  2
*UDIM340
 70
    65
 10
0.0
 20
0.0
 30
0.0
  3
*UDIM340
  0
TEXT
  5
    AB
  8
0
  6
CONTINUOUS
 62
     7
 10
130.003225631415
 20
58.2702446165851
 30
0.0
 40
3.00000002980232
  1
36,25
 50
359.999999844103
 41
0.933333333333333
 72
     1
 11
136.703225702047
 21
59.7702446132898
 31
0.0
 73
     2
  0
LINE
  5
    AC
  8
0
  6
CONTINUOUS
 62
     7
 10
118.853225708008
 20
6.75
 30
0.0
 11
118.853225708008
 21
59.2702445983887
 31
0.0
  0
LINE
  5
    AD
  8
0
  6
CONTINUOUS
 62
     7
 10
155.103225708008
 20
48.7499985694885
 30
0.0
 11
155.103225708008
 21
59.2702445983887
 31
0.0
  0
LINE
  5
    AE
  8
0
  6
CONTINUOUS
 62
     7
 10
118.853225708008
 20
57.2702445983887
 30
0.0
 11
155.103225708008
 21
57.2702445983887
 31
0.0
  0
LINE
  5
    AF
  8
0
  6
CONTINUOUS
 62
     7
 10
121.807648969689
 20
57.791189116389
 30
0.0
 11
118.853225708008
 21
57.2702445983887
 31
0.0
  0
LINE
  5
    B0
  8
0
  6
CONTINUOUS
 62
     7
 10
118.853225708008
 20
57.2702445983887
 30
0.0
 11
121.807648969689
 21
56.7493000803883
 31
0.0
  0
LINE
  5
    B1
  8
0
  6
CONTINUOUS
 62
     7
 10
152.148802446326
 20
56.7493000803883
 30
0.0
 11
155.103225708008
 21
57.2702445983887
 31
0.0
  0
LINE
  5
    B2
  8
0
  6
CONTINUOUS
 62
     7
 10
155.103225708008
 20
57.2702445983887
 30
0.0
 11
152.148802446326
 21
57.791189116389
 31
0.0
  0
ENDBLK
  5
    B3
  8
0
  6
CONTINUOUS
 62
     7
  0
BLOCK
  5
    B4
  8
0
  6
CONTINUOUS
 62
     7
  2
*UDIM341
 70
    65
 10
0.0
 20
0.0
 30
0.0
  3
*UDIM341
  0
TEXT
  5
    B5
  8
0
  6
CONTINUOUS
 62
     7
 10
162.103225597639
 20
58.2702446013761
 30
0.0
 40
3.00000002980232
  1
4
 50
359.999999844103
 41
0.933333333333334
 72
     1
 11
163.20322561264
 21
59.7702446132898
 31
0.0
 73
     2
  0
LINE
  5
    B6
  8
0
  6
CONTINUOUS
 62
     7
 10
159.103225708008
 20
48.75
 30
0.0
 11
159.103225708008
 21
59.2702445983887
 31
0.0
  0
LINE
  5
    B7
  8
0
  6
CONTINUOUS
 62
     7
 10
155.103225708008
 20
57.2702445983887
 30
0.0
 11
164.303225623568
 21
57.2702445983887
 31
0.0
  0
LINE
  5
    B8
  8
0
  6
CONTINUOUS
 62
     7
 10
152.148802446326
 20
56.7493000803883
 30
0.0
 11
155.103225708008
 21
57.2702445983887
 31
0.0
  0
LINE
  5
    B9
  8
0
  6
CONTINUOUS
 62
     7
 10
155.103225708008
 20
57.2702445983887
 30
0.0
 11
152.148802446326
 21
57.791189116389
 31
0.0
  0
LINE
  5
    BA
  8
0
  6
CONTINUOUS
 62
     7
 10
162.057648969689
 20
57.791189116389
 30
0.0
 11
159.103225708008
 21
57.2702445983887
 31
0.0
  0
LINE
  5
    BB
  8
0
  6
CONTINUOUS
 62
     7
 10
159.103225708008
 20
57.2702445983887
 30
0.0
 11
162.057648969689
 21
56.7493000803883
 31
0.0
  0
ENDBLK
  5
    BC
  8
0
  6
CONTINUOUS
 62
     7
  0
ENDSEC
  0
SECTION
  2
ENTITIES
  0
LINE
  5
    BD
  8
0
  6
CONTINUOUS
 62
   130
 10
-38.2500038146973
 20
-32.25
 30
0.0
 11
-31.4999962061758
 21
-32.25
 31
0.0
  0
LINE
  5
    BE
  8
0
  6
CONTINUOUS
 62
   130
 10
-40.2500038146973
 20
-12.25
 30
0.0
 11
-38.0000038316901
 21
-12.25
 31
0.0
  0
LINE
  5
    BF
  8
0
  6
CONTINUOUS
 62
   130
 10
-7.75000238418579
 20
-12.25
 30
0.0
 11
-5.00000190734863
 21
-12.25
 31
0.0
  0
LINE
  5
    C0
  8
0
  6
CONTINUOUS
 62
   130
 10
-3.3664705370029E-6
 20
-12.25
 30
0.0
 11
9.75000044822673
 21
-12.25
 31
0.0
  0
LINE
  5
    C1
  8
0
  6
CONTINUOUS
 62
   130
 10
-40.2500038146973
 20
-30.25
 30
0.0
 11
-40.2500038146973
 21
-12.25
 31
0.0
  0
LINE
  5
    C2
  8
0
  6
CONTINUOUS
 62
   130
 10
9.75
 20
-30.25
 30
0.0
 11
9.75
 21
-29.5
 31
0.0
  0
LINE
  5
    C3
  8
0
  6
CONTINUOUS
 62
     7
 10
-5.00000190734863
 20
-24.25
 30
0.0
 11
-1.9073486328125E-6
 21
-24.25
 31
0.0
  0
LINE
  5
    C4
  8
0
  6
CONTINUOUS
 62
     7
 10
-5.00000190734863
 20
-28.25
 30
0.0
 11
-1.9073486328125E-6
 21
-28.25
 31
0.0
  0
LINE
  5
    C5
  8
0
  6
CONTINUOUS
 62
   130
 10
-5.00000190734863
 20
-32.25
 30
0.0
 11
-5.00000190734863
 21
-29.3092422657186
 31
0.0
  0
LINE
  5
    C6
  8
0
  6
CONTINUOUS
 62
   130
 10
-1.91584513231646E-6
 20
-32.25
 30
0.0
 11
-1.91584513231646E-6
 21
-29.3092422657186
 31
0.0
  0
LINE
  5
    C7
  8
0
  6
CONTINUOUS
 62
   130
 10
-23.2500019073486
 20
-30.25
 30
0.0
 11
-23.2500019073486
 21
-12.25
 31
0.0
  0
LINE
  5
    C8
  8
0
  6
CONTINUOUS
 62
   130
 10
-7.25000190734863
 20
-30.25
 30
0.0
 11
-7.25000190734863
 21
-29.4158783443745
 31
0.0
  0
LINE
  5
    C9
  8
0
  6
CONTINUOUS
 62
   130
 10
-38.2500038146973
 20
-30.25
 30
0.0
 11
-38.2500038146973
 21
-12.25
 31
0.0
  0
LINE
  5
    CA
  8
0
  6
CONTINUOUS
 62
   130
 10
-38.2500038146973
 20
-30.25
 30
0.0
 11
-23.2500019073486
 21
-30.25
 31
0.0
  0
LINE
  5
    CB
  8
0
  6
CONTINUOUS
 62
   130
 10
-30.5000019073486
 20
-45.25
 30
0.0
 11
-27.7500019073486
 21
-45.25
 31
0.0
  0
LINE
  5
    CC
  8
0
  6
CONTINUOUS
 62
   130
 10
-13.0000019073486
 20
-45.25
 30
0.0
 11
-2.75000190734863
 21
-45.25
 31
0.0
  0
LINE
  5
    CD
  8
0
  6
CONTINUOUS
 62
   130
 10
-4.57008504461952E-6
 20
-45.2500000000003
 30
0.0
 11
-4.57008504461952E-6
 21
-33.2500000000003
 31
0.0
  0
LINE
  5
    CE
  8
0
  6
CONTINUOUS
 62
   130
 10
-20.25
 20
-45.25
 30
0.0
 11
-17.5000019073486
 21
-45.25
 31
0.0
  0
LINE
  5
    CF
  8
0
  6
CONTINUOUS
 62
   130
 10
-13.0000019073486
 20
-45.25
 30
0.0
 11
-10.25
 21
-45.25
 31
0.0
  0
LINE
  5
    D0
  8
0
  6
CONTINUOUS
 62
   130
 10
-10.25
 20
-45.25
 30
0.0
 11
-10.25
 21
-32.25
 31
0.0
  0
LINE
  5
    D1
  8
0
  6
CONTINUOUS
 62
   130
 10
-20.25
 20
-45.25
 30
0.0
 11
-20.25
 21
-32.25
 31
0.0
  0
LINE
  5
    D2
  8
0
  6
CONTINUOUS
 62
   130
 10
-30.5
 20
-45.25
 30
0.0
 11
-28.2499980926514
 21
-45.25
 31
0.0
  0
LINE
  5
    D3
  8
0
  6
CONTINUOUS
 62
   130
 10
-28.2499980926514
 20
-45.25
 30
0.0
 11
-28.2499980926514
 21
-33.25
 31
0.0
  0
LINE
  5
    D4
  8
0
  6
CONTINUOUS
 62
   130
 10
-30.4999928077056
 20
-45.2500000000011
 30
0.0
 11
-30.4999928077056
 21
-33.2500000000011
 31
0.0
  0
LINE
  5
    D5
  8
0
  6
CONTINUOUS
 62
   130
 10
-2.25000190734863
 20
-45.25
 30
0.0
 11
0.0
 21
-45.25
 31
0.0
  0
LINE
  5
    D6
  8
0
  6
CONTINUOUS
 62
   130
 10
-2.25000190734863
 20
-45.25
 30
0.0
 11
-2.25000190734863
 21
-33.25
 31
0.0
  0
LINE
  5
    D7
  8
0
  6
CONTINUOUS
 62
   130
 10
-7.22433290073963E-6
 20
-45.2500000000011
 30
0.0
 11
-7.22433290073963E-6
 21
-33.2500000000012
 31
0.0
  0
LINE
  5
    D8
  8
0
  6
CONTINUOUS
 62
   130
 10
-17.5000019073486
 20
-45.25
 30
0.0
 11
-17.5000019073486
 21
-42.6252746582031
 31
0.0
  0
LINE
  5
    D9
  8
0
  6
CONTINUOUS
 62
   130
 10
-13.0000019073486
 20
-45.25
 30
0.0
 11
-13.0000019073486
 21
-42.6252746582031
 31
0.0
  0
LINE
  5
    DA
  8
0
  6
CONTINUOUS
 62
   210
 10
-38.2500038146973
 20
7.75
 30
0.0
 11
-37.0864562988281
 21
7.75
 31
0.0
  0
LINE
  5
    DB
  8
0
  6
CONTINUOUS
 62
   210
 10
-37.0864562988281
 20
7.75
 30
0.0
 11
-31.4999953345759
 21
7.75
 31
0.0
  0
LINE
  5
    DC
  8
0
  6
CONTINUOUS
 62
   210
 10
6.58645439147949
 20
7.75
 30
0.0
 11
7.75
 21
7.75
 31
0.0
  0
LINE
  5
    DD
  8
0
  6
CONTINUOUS
 62
   210
 10
-0.250001667738047
 20
-12.25
 30
0.0
 11
-1.87635430393129E-6
 21
-12.25
 31
0.0
  0
LINE
  5
    DE
  8
0
  6
CONTINUOUS
 62
   210
 10
-5.00000190734863
 20
-12.25
 30
0.0
 11
-4.75000190734863
 21
-12.25
 31
0.0
  0
LINE
  5
    DF
  8
0
  6
CONTINUOUS
 62
   210
 10
-40.2500038146973
 20
-12.25
 30
0.0
 11
-40.2500038146973
 21
5.75
 31
0.0
  0
LINE
  5
    E0
  8
0
  6
CONTINUOUS
 62
   210
 10
9.75
 20
-12.25
 30
0.0
 11
9.75
 21
5.75
 31
0.0
  0
LINE
  5
    E1
  8
0
  6
CONTINUOUS
 62
   210
 10
-23.2500019073486
 20
-12.25
 30
0.0
 11
-23.2500019073486
 21
-1.25
 31
0.0
  0
LINE
  5
    E2
  8
0
  6
CONTINUOUS
 62
   210
 10
-23.2500019073486
 20
-1.25
 30
0.0
 11
-7.25000190734863
 21
-1.25
 31
0.0
  0
LINE
  5
    E3
  8
0
  6
CONTINUOUS
 62
   210
 10
-7.25000190734863
 20
-12.25
 30
0.0
 11
-7.25000190734863
 21
-1.25
 31
0.0
  0
LINE
  5
    E4
  8
0
  6
CONTINUOUS
 62
   210
 10
-38.2500038146973
 20
-12.25
 30
0.0
 11
-38.2500038146973
 21
5.75
 31
0.0
  0
LINE
  5
    E5
  8
0
  6
CONTINUOUS
 62
   210
 10
-38.2500038146973
 20
5.75
 30
0.0
 11
7.75
 21
5.75
 31
0.0
  0
LINE
  5
    E6
  8
0
  6
CONTINUOUS
 62
   210
 10
7.75
 20
-12.25
 30
0.0
 11
7.75
 21
5.75
 31
0.0
  0
LINE
  5
    E7
  8
0
  6
CONTINUOUS
 62
   210
 10
-28.25
 20
20.75
 30
0.0
 11
-27.7500019073486
 21
20.75
 31
0.0
  0
LINE
  5
    E8
  8
0
  6
CONTINUOUS
 62
   210
 10
-13.0000019073486
 20
20.75
 30
0.0
 11
-2.75000190734863
 21
20.75
 31
0.0
  0
LINE
  5
    E9
  8
0
  6
CONTINUOUS
 62
   210
 10
-30.5
 20
20.75
 30
0.0
 11
-28.2499980926514
 21
20.75
 31
0.0
  0
LINE
  5
    EA
  8
0
  6
CONTINUOUS
 62
   210
 10
-28.2499980926514
 20
8.75
 30
0.0
 11
-28.2499980926514
 21
20.75
 31
0.0
  0
LINE
  5
    EB
  8
0
  6
CONTINUOUS
 62
   210
 10
-30.4999967018759
 20
8.75000000000022
 30
0.0
 11
-30.4999967018759
 21
20.7500000000002
 31
0.0
  0
LINE
  5
    EC
  8
0
  6
CONTINUOUS
 62
   210
 10
-2.25000190734863
 20
20.75
 30
0.0
 11
0.0
 21
20.75
 31
0.0
  0
LINE
  5
    ED
  8
0
  6
CONTINUOUS
 62
   210
 10
-2.25000190734863
 20
8.75
 30
0.0
 11
-2.25000190734863
 21
20.75
 31
0.0
  0
LINE
  5
    EE
  8
0
  6
CONTINUOUS
 62
   210
 10
-3.31281417587088E-6
 20
8.75000000000022
 30
0.0
 11
-3.31281417587088E-6
 21
20.7500000000002
 31
0.0
  0
LINE
  5
    EF
  8
0
  6
CONTINUOUS
 62
   210
 10
-0.250001907348633
 20
-20.25
 30
0.0
 11
-0.250001907348633
 21
-12.25
 31
0.0
  0
LINE
  5
    F0
  8
0
  6
CONTINUOUS
 62
   210
 10
-3.75000190734863
 20
-21.25
 30
0.0
 11
-1.25000190734863
 21
-21.25
 31
0.0
  0
LINE
  5
    F1
  8
0
  6
CONTINUOUS
 62
   210
 10
-4.75000190734863
 20
-20.25
 30
0.0
 11
-4.75000190734863
 21
-12.25
 31
0.0
  0
LINE
  5
    F2
  8
0
  6
CONTINUOUS
 62
   210
 10
-17.5000019073486
 20
14.25
 30
0.0
 11
-17.5000019073486
 21
20.75
 31
0.0
  0
LINE
  5
    F3
  8
0
  6
CONTINUOUS
 62
   210
 10
-13.0000019073486
 20
14.25
 30
0.0
 11
-13.0000019073486
 21
20.75
 31
0.0
  0
LINE
  5
    F4
  8
0
  6
CONTINUOUS
 62
     3
 10
-22.75
 20
-17.5
 30
0.0
 11
-18.1891162298397
 21
-17.5
 31
0.0
  0
LINE
  5
    F5
  8
0
  6
CONTINUOUS
 62
     3
 10
-7.75
 20
-17.5
 30
0.0
 11
-7.75
 21
-1.25
 31
0.0
  0
LINE
  5
    F6
  8
0
  6
CONTINUOUS
 62
     3
 10
-22.75
 20
-17.5
 30
0.0
 11
-22.75
 21
-1.25
 31
0.0
  0
LINE
  5
    F7
  8
0
  6
CONTINUOUS
 62
     3
 10
-21.75
 20
-2.0
 30
0.0
 11
-18.75
 21
-2.0
 31
0.0
  0
LINE
  5
    F8
  8
0
  6
CONTINUOUS
 62
     3
 10
-21.75
 20
-8.0
 30
0.0
 11
-21.75
 21
-2.0
 31
0.0
  0
LINE
  5
    F9
  8
0
  6
CONTINUOUS
 62
     3
 10
-21.75
 20
-8.0
 30
0.0
 11
-21.5500560917913
 21
-8.0
 31
0.0
  0
LINE
  5
    FA
  8
0
  6
CONTINUOUS
 62
     3
 10
-18.75
 20
-8.0
 30
0.0
 11
-18.75
 21
-2.0
 31
0.0
  0
LINE
  5
    FB
  8
0
  6
CONTINUOUS
 62
     3
 10
-16.75
 20
-2.0
 30
0.0
 11
-13.75
 21
-2.0
 31
0.0
  0
LINE
  5
    FC
  8
0
  6
CONTINUOUS
 62
     3
 10
-16.75
 20
-8.0
 30
0.0
 11
-16.75
 21
-2.0
 31
0.0
  0
LINE
  5
    FD
  8
0
  6
CONTINUOUS
 62
     3
 10
-16.75
 20
-8.0
 30
0.0
 11
-13.75
 21
-8.0
 31
0.0
  0
LINE
  5
    FE
  8
0
  6
CONTINUOUS
 62
     3
 10
-13.75
 20
-8.0
 30
0.0
 11
-13.75
 21
-2.0
 31
0.0
  0
LINE
  5
    FF
  8
0
  6
CONTINUOUS
 62
     3
 10
-11.75
 20
-2.0
 30
0.0
 11
-8.75
 21
-2.0
 31
0.0
  0
LINE
  5
   100
  8
0
  6
CONTINUOUS
 62
     3
 10
-11.75
 20
-8.0
 30
0.0
 11
-11.75
 21
-2.0
 31
0.0
  0
LINE
  5
   101
  8
0
  6
CONTINUOUS
 62
     3
 10
-11.75
 20
-8.0
 30
0.0
 11
-11.5499450832179
 21
-8.0
 31
0.0
  0
LINE
  5
   102
  8
0
  6
CONTINUOUS
 62
     3
 10
-8.75
 20
-8.0
 30
0.0
 11
-8.75
 21
-2.0
 31
0.0
  0
LINE
  5
   103
  8
0
  6
CONTINUOUS
 62
     7
 10
-15.9500017166138
 20
-38.0499992370605
 30
0.0
 11
-15.9500017166138
 21
-36.4500007629395
 31
0.0
  0
LINE
  5
   104
  8
0
  6
CONTINUOUS
 62
     7
 10
-17.5500011444092
 20
-38.0499992370605
 30
0.0
 11
-15.9500017166138
 21
-38.0499992370605
 31
0.0
  0
LINE
  5
   105
  8
0
  6
CONTINUOUS
 62
     7
 10
-17.5500011444092
 20
-39.4500007629395
 30
0.0
 11
-17.5500011444092
 21
-38.0499992370605
 31
0.0
  0
LINE
  5
   106
  8
0
  6
CONTINUOUS
 62
     7
 10
-17.5500011444092
 20
-39.4500007629395
 30
0.0
 11
-15.9500017166138
 21
-39.4500007629395
 31
0.0
  0
LINE
  5
   107
  8
0
  6
CONTINUOUS
 62
     7
 10
-15.9500017166138
 20
-41.0499992370606
 30
0.0
 11
-15.9500017166138
 21
-39.4500007629395
 31
0.0
  0
LINE
  5
   108
  8
0
  6
CONTINUOUS
 62
     7
 10
-15.9500017166138
 20
-41.0499992370606
 30
0.0
 11
-14.5500020980835
 21
-41.0499992370606
 31
0.0
  0
LINE
  5
   109
  8
0
  6
CONTINUOUS
 62
     7
 10
-14.5500020980835
 20
-41.0499992370606
 30
0.0
 11
-14.5500020980835
 21
-39.4500007629395
 31
0.0
  0
LINE
  5
   10A
  8
0
  6
CONTINUOUS
 62
     7
 10
-14.5500020980835
 20
-39.4500007629395
 30
0.0
 11
-12.9500017166138
 21
-39.4500007629395
 31
0.0
  0
LINE
  5
   10B
  8
0
  6
CONTINUOUS
 62
     7
 10
-12.9500017166138
 20
-39.4500007629395
 30
0.0
 11
-12.9500017166138
 21
-38.0499992370605
 31
0.0
  0
LINE
  5
   10C
  8
0
  6
CONTINUOUS
 62
     7
 10
-14.5500020980835
 20
-38.0499992370605
 30
0.0
 11
-12.9500017166138
 21
-38.0499992370605
 31
0.0
  0
LINE
  5
   10D
  8
0
  6
CONTINUOUS
 62
     7
 10
-14.5500020980835
 20
-38.0499992370605
 30
0.0
 11
-14.5500020980835
 21
-36.4500007629395
 31
0.0
  0
LINE
  5
   10E
  8
0
  6
CONTINUOUS
 62
     7
 10
-15.9500017166138
 20
-36.4500007629395
 30
0.0
 11
-14.5500020980835
 21
-36.4500007629395
 31
0.0
  0
LINE
  5
   10F
  8
0
  6
CONTINUOUS
 62
     1
 10
-27.7500019073486
 20
47.75
 30
0.0
 11
-2.75000190734863
 21
47.75
 31
0.0
  0
LINE
  5
   110
  8
0
  6
CONTINUOUS
 62
     1
 10
-27.7500019073486
 20
-72.25
 30
0.0
 11
-27.7500019073486
 21
-45.25
 31
0.0
  0
LINE
  5
   111
  8
0
  6
CONTINUOUS
 62
     1
 10
-27.7500019073486
 20
20.7500038146973
 30
0.0
 11
-27.7500019073486
 21
47.75
 31
0.0
  0
LINE
  5
   112
  8
0
  6
CONTINUOUS
 62
     1
 10
-27.7500019073486
 20
-72.25
 30
0.0
 11
-2.75000190734863
 21
-72.25
 31
0.0
  0
LINE
  5
   113
  8
0
  6
CONTINUOUS
 62
     1
 10
-2.75000190734863
 20
-72.25
 30
0.0
 11
-2.75000190734863
 21
-45.25
 31
0.0
  0
LINE
  5
   114
  8
0
  6
CONTINUOUS
 62
     1
 10
-2.75000190734863
 20
20.7500038146973
 30
0.0
 11
-2.75000190734863
 21
47.75
 31
0.0
  0
LINE
  5
   115
  8
0
  6
CONTINUOUS
 62
   210
 10
-33.814942129558
 20
7.69251225925903
 30
0.0
 11
-33.413548228103
 21
7.75000022377625
 31
0.0
  0
LINE
  5
   116
  8
0
  6
CONTINUOUS
 62
   210
 10
-34.5184101318179
 20
7.63533261734476
 30
0.0
 11
-33.814937995817
 21
7.69251206571085
 31
0.0
  0
LINE
  5
   117
  8
0
  6
CONTINUOUS
 62
   210
 10
-35.2500013400694
 20
7.61602558031531
 30
0.0
 11
-34.5184110835412
 21
7.63533271686586
 31
0.0
  0
LINE
  5
   118
  8
0
  6
CONTINUOUS
 62
   210
 10
-35.9815916477753
 20
7.63533275271946
 30
0.0
 11
-35.2500013912471
 21
7.61602561616892
 31
0.0
  0
LINE
  5
   119
  8
0
  6
CONTINUOUS
 62
   210
 10
-36.6850628448968
 20
7.69251209685451
 30
0.0
 11
-35.9815907088959
 21
7.63533264848842
 31
0.0
  0
LINE
  5
   11A
  8
0
  6
CONTINUOUS
 62
   210
 10
-37.0864614830316
 20
7.75000091213474
 30
0.0
 11
-36.6850675815766
 21
7.69251294761752
 31
0.0
  0
LINE
  5
   11B
  8
0
  6
CONTINUOUS
 62
   210
 10
2.91354564951593
 20
7.75000006565825
 30
0.0
 11
3.31493714786213
 21
7.69251210260898
 31
0.0
  0
LINE
  5
   11C
  8
0
  6
CONTINUOUS
 62
   210
 10
3.314937046156
 20
7.69251194976632
 30
0.0
 11
4.01841108323588
 21
7.63533249937588
 31
0.0
  0
LINE
  5
   11D
  8
0
  6
CONTINUOUS
 62
   210
 10
4.01841085739099
 20
7.63533229375098
 30
0.0
 11
4.7499996998682
 21
7.6160251565615
 31
0.0
  0
LINE
  5
   11E
  8
0
  6
CONTINUOUS
 62
   210
 10
4.74999962594269
 20
7.61602514904097
 30
0.0
 11
5.4815884684199
 21
7.63533228623045
 31
0.0
  0
LINE
  5
   11F
  8
0
  6
CONTINUOUS
 62
   210
 10
5.48158870829172
 20
7.63533249130263
 30
0.0
 11
6.1850627453716
 21
7.69251194169307
 31
0.0
  0
LINE
  5
   120
  8
0
  6
CONTINUOUS
 62
   210
 10
6.18506301686894
 20
7.69251211428575
 30
0.0
 11
6.58645451521514
 21
7.75000007733502
 31
0.0
  0
LINE
  5
   121
  8
0
  6
CONTINUOUS
 62
     3
 10
-22.75
 20
-11.5
 30
0.0
 11
-21.5500560917913
 21
-11.5
 31
0.0
  0
CIRCLE
  5
   122
  8
0
  6
CONTINUOUS
 62
     1
 10
-15.2500005875046
 20
35.2499873369823
 30
0.0
 40
5.5000111142894
  0
CIRCLE
  5
   123
  8
0
  6
CONTINUOUS
 62
     7
 10
-15.2500027305448
 20
14.2499987486821
 30
0.0
 40
2.0000018262072
  0
ARC
  5
   124
  8
0
  6
CONTINUOUS
 62
   210
 10
-15.2499999693862
 20
14.2499985276863
 30
0.0
 40
2.24999926814022
 50
180.000025163886
 51
359.999990826298
  0
ARC
  5
   125
  8
0
  6
CONTINUOUS
 62
   210
 10
-38.2500024530975
 20
5.74999746509455
 30
0.0
 40
2.00000259442768
 50
89.9999619280632
 51
179.999928285319
  0
ARC
  5
   126
  8
0
  6
CONTINUOUS
 62
   210
 10
-31.4999953345759
 20
8.74999892503806
 30
0.0
 40
0.999998856373764
 50
269.999939189396
 51
360.00005015685
  0
ARC
  5
   127
  8
0
  6
CONTINUOUS
 62
   210
 10
-27.2499974417724
 20
8.74999832894624
 30
0.0
 40
0.999998916325618
 50
179.999974864698
 51
270.000059387786
  0
ARC
  5
   128
  8
0
  6
CONTINUOUS
 62
   210
 10
-3.25000244180693
 20
8.75000097030767
 30
0.0
 40
1.00000052804455
 50
270.000074506547
 51
359.999930229609
  0
ARC
  5
   129
  8
0
  6
CONTINUOUS
 62
   210
 10
0.999998450326269
 20
8.75000028737674
 30
0.0
 40
1.00000038009438
 50
180.00001207425
 51
270.000036727753
  0
ARC
  5
   12A
  8
0
  6
CONTINUOUS
 62
   210
 10
7.75000036876496
 20
5.75000043266891
 30
0.0
 40
1.99999933543322
 50
359.999978500391
 51
450.000024249883
  0
ARC
  5
   12B
  8
0
  6
CONTINUOUS
 62
   210
 10
-3.75000291506936
 20
-20.2499998169789
 30
0.0
 40
0.999999067242859
 50
179.999944193899
 51
270.000060187085
  0
ARC
  5
   12C
  8
0
  6
CONTINUOUS
 62
   210
 10
-1.25000030956777
 20
-20.2500012534822
 30
0.0
 40
0.999998313324538
 50
269.999918290157
 51
360.00004683536
  0
ARC
  5
   12D
  8
0
  6
CONTINUOUS
 62
   130
 10
7.75000325932762
 20
-30.2500038771395
 30
0.0
 40
1.99999664879548
 50
269.999909469695
 51
360.000171400999
  0
ARC
  5
   12E
  8
0
  6
CONTINUOUS
 62
   130
 10
0.999998952325992
 20
-33.2499995729475
 30
0.0
 40
1.0000008659384
 50
89.9999721190341
 51
180.000023797597
  0
ARC
  5
   12F
  8
0
  6
CONTINUOUS
 62
   130
 10
-3.2500004346175
 20
-33.2499970837219
 30
0.0
 40
0.999998316222392
 50
359.999913076863
 51
450.000040341177
  0
ARC
  5
   130
  8
0
  6
CONTINUOUS
 62
   130
 10
-5.25001080738613
 20
-30.2500098537556
 30
0.0
 40
1.99998859930473
 50
179.999656724553
 51
270.000287632162
  0
ARC
  5
   131
  8
0
  6
CONTINUOUS
 62
   130
 10
-25.2499992942828
 20
-30.2500006823849
 30
0.0
 40
1.99999691028012
 50
269.999901773096
 51
359.999993041612
  0
ARC
  5
   132
  8
0
  6
CONTINUOUS
 62
   130
 10
-27.250000721941
 20
-33.2499983639285
 30
0.0
 40
0.999997850984379
 50
89.9998888211431
 51
180.000138385565
  0
ARC
  5
   133
  8
0
  6
CONTINUOUS
 62
   130
 10
-31.4999962061758
 20
-33.2499981420843
 30
0.0
 40
0.999997860992821
 50
359.999861851972
 51
450.000137376636
  0
ARC
  5
   134
  8
0
  6
CONTINUOUS
 62
   130
 10
-38.2500016394717
 20
-30.2500000091327
 30
0.0
 40
2.00000111886871
 50
179.99995647687
 51
269.999910524187
  0
CIRCLE
  5
   135
  8
0
  6
CONTINUOUS
 62
     5
 10
-15.2500062698761
 20
-38.7499766741346
 30
0.0
 40
4.49997745332531
  0
CIRCLE
  5
   136
  8
0
  6
CONTINUOUS
 62
     7
 10
-15.249997909613
 20
-38.7499725288779
 30
0.0
 40
3.99997308787114
  0
CIRCLE
  5
   137
  8
0
  6
CONTINUOUS
 62
     7
 10
-15.2500027198508
 20
-38.7500085031893
 30
0.0
 40
3.81342663224359
  0
CIRCLE
  5
   138
  8
0
  6
CONTINUOUS
 62
     1
 10
-15.2500060855428
 20
-59.7499739867589
 30
0.0
 40
5.49997406529713
  0
LINE
  5
   139
  8
0
  6
DASHDOT
 62
     7
 10
-15.2500005875046
 20
-74.6747790526282
 30
0.0
 11
-15.2500005875046
 21
49.9513029279676
 31
0.0
  0
LINE
  5
   13A
  8
0
  6
DASHDOT
 62
     7
 10
-29.5405397492823
 20
35.2499873369823
 30
0.0
 11
-1.52334490693163
 21
35.2499873369823
 31
0.0
  0
LINE
  5
   13B
  8
0
  6
DASHDOT
 62
     7
 10
-19.250004556752
 20
14.2499987486821
 30
0.0
 11
-11.2500009043376
 21
14.2499987486821
 31
0.0
  0
LINE
  5
   13C
  8
0
  6
DASHDOT
 62
     7
 10
-21.7499837232014
 20
-38.7499766741345
 30
0.0
 11
-8.75002881655076
 21
-38.7499766741345
 31
0.0
  0
LINE
  5
   13D
  8
0
  6
DASHDOT
 62
     7
 10
-29.27292510347
 20
-59.7499739867589
 30
0.0
 11
-1.11163006722038
 21
-59.7499739867589
 31
0.0
  0
LINE
  5
   13E
  8
0
  6
CONTINUOUS
 62
     2
 10
-7.75000095367432
 20
2.44929427751455E-16
 30
0.0
 11
6.5
 21
2.44929427751455E-16
 31
0.0
  0
LINE
  5
   13F
  8
0
  6
CONTINUOUS
 62
     7
 10
-38.0000038316901
 20
5.5
 30
0.0
 11
7.50000000000001
 21
5.5
 31
0.0
  0
LINE
  5
   140
  8
0
  6
CONTINUOUS
 62
     7
 10
-38.0000038316901
 20
-30.0
 30
0.0
 11
-38.0000038316901
 21
5.5
 31
0.0
  0
LINE
  5
   141
  8
0
  6
CONTINUOUS
 62
     7
 10
7.50000000000001
 20
-11.5
 30
0.0
 11
7.50000000000001
 21
5.5
 31
0.0
  0
LINE
  5
   142
  8
0
  6
CONTINUOUS
 62
     7
 10
-24.0000019158451
 20
-30.0
 30
0.0
 11
-24.0000019158451
 21
-0.5
 31
0.0
  0
LINE
  5
   143
  8
0
  6
CONTINUOUS
 62
     7
 10
-6.50000191584506
 20
-11.5
 30
0.0
 11
-6.50000191584506
 21
-0.5
 31
0.0
  0
LINE
  5
   144
  8
0
  6
CONTINUOUS
 62
     7
 10
-38.0000038316901
 20
-30.0
 30
0.0
 11
-24.0000019158451
 21
-30.0
 31
0.0
  0
LINE
  5
   145
  8
0
  6
CONTINUOUS
 62
     7
 10
-6.50000191584506
 20
-11.5
 30
0.0
 11
7.50000000000001
 21
-11.5
 31
0.0
  0
LINE
  5
   146
  8
0
  6
CONTINUOUS
 62
     7
 10
-24.0000019158451
 20
-0.5
 30
0.0
 11
-6.50000191584506
 21
-0.5
 31
0.0
  0
LINE
  5
   147
  8
0
  6
CONTINUOUS
 62
     7
 10
-22.7500019158451
 20
5.0
 30
0.0
 11
-7.75000191584506
 21
5.0
 31
0.0
  0
LINE
  5
   148
  8
0
  6
CONTINUOUS
 62
     7
 10
-22.7500019158451
 20
0.0
 30
0.0
 11
-7.75000191584506
 21
0.0
 31
0.0
  0
LINE
  5
   149
  8
0
  6
CONTINUOUS
 62
     7
 10
-7.75000191584506
 20
0.0
 30
0.0
 11
-7.75000191584506
 21
5.0
 31
0.0
  0
LINE
  5
   14A
  8
0
  6
CONTINUOUS
 62
     7
 10
-22.7500019158451
 20
0.0
 30
0.0
 11
-22.7500019158451
 21
5.0
 31
0.0
  0
LINE
  5
   14B
  8
0
  6
CONTINUOUS
 62
     7
 10
-17.7500019158451
 20
0.0
 30
0.0
 11
-17.7500019158451
 21
5.0
 31
0.0
  0
LINE
  5
   14C
  8
0
  6
CONTINUOUS
 62
     7
 10
-12.7500019158451
 20
0.0
 30
0.0
 11
-12.7500019158451
 21
5.0
 31
0.0
  0
LINE
  5
   14D
  8
0
  6
CONTINUOUS
 62
     7
 10
-6.00000191584506
 20
-11.0
 30
0.0
 11
-6.00000191584506
 21
-6.0
 31
0.0
  0
LINE
  5
   14E
  8
0
  6
CONTINUOUS
 62
     7
 10
7.00000000000001
 20
-11.0
 30
0.0
 11
7.00000000000001
 21
-6.0
 31
0.0
  0
LINE
  5
   14F
  8
0
  6
CONTINUOUS
 62
     7
 10
-6.00000191584506
 20
-11.0
 30
0.0
 11
7.00000000000001
 21
-11.0
 31
0.0
  0
LINE
  5
   150
  8
0
  6
CONTINUOUS
 62
     7
 10
-6.00000191584506
 20
5.0
 30
0.0
 11
7.00000000000001
 21
5.0
 31
0.0
  0
LINE
  5
   151
  8
0
  6
CONTINUOUS
 62
     7
 10
-37.5000038316901
 20
5.0
 30
0.0
 11
-24.5000019158451
 21
5.0
 31
0.0
  0
LINE
  5
   152
  8
0
  6
CONTINUOUS
 62
     7
 10
-24.5000019158451
 20
-29.5
 30
0.0
 11
-24.5000019158451
 21
5.0
 31
0.0
  0
LINE
  5
   153
  8
0
  6
CONTINUOUS
 62
     7
 10
-37.5000038316901
 20
-29.5
 30
0.0
 11
-37.5000038316901
 21
5.0
 31
0.0
  0
LINE
  5
   154
  8
0
  6
CONTINUOUS
 62
     7
 10
-37.5000038316901
 20
-29.5
 30
0.0
 11
-24.5000019158451
 21
-29.5
 31
0.0
  0
LINE
  5
   155
  8
0
  6
CONTINUOUS
 62
     7
 10
-29.5000019158451
 20
-29.5
 30
0.0
 11
-29.5000019158451
 21
0.0
 31
0.0
  0
LINE
  5
   156
  8
0
  6
CONTINUOUS
 62
     7
 10
-6.00000191584506
 20
0.0
 30
0.0
 11
7.00000000000001
 21
0.0
 31
0.0
  0
LINE
  5
   157
  8
0
  6
CONTINUOUS
 62
     7
 10
-6.00000191584506
 20
-6.0
 30
0.0
 11
7.00000000000001
 21
-6.0
 31
0.0
  0
LINE
  5
   158
  8
0
  6
CONTINUOUS
 62
     7
 10
7.00000000000001
 20
0.0
 30
0.0
 11
7.00000000000001
 21
5.0
 31
0.0
  0
LINE
  5
   159
  8
0
  6
CONTINUOUS
 62
     7
 10
-6.00000191584506
 20
0.0
 30
0.0
 11
-6.00000191584506
 21
5.0
 31
0.0
  0
LINE
  5
   15A
  8
0
  6
CONTINUOUS
 62
     7
 10
-37.5000038316901
 20
0.0
 30
0.0
 11
-24.5000019158451
 21
0.0
 31
0.0
  0
LINE
  5
   15B
  8
0
  6
CONTINUOUS
 62
     7
 10
-37.5000038316901
 20
-24.5833333333333
 30
0.0
 11
-24.5000019158451
 21
-24.5833333333333
 31
0.0
  0
LINE
  5
   15C
  8
0
  6
CONTINUOUS
 62
     7
 10
-37.5000038316901
 20
-19.6666666666667
 30
0.0
 11
-24.5000019158451
 21
-19.6666666666667
 31
0.0
  0
LINE
  5
   15D
  8
0
  6
CONTINUOUS
 62
     7
 10
-37.5000038316901
 20
-14.75
 30
0.0
 11
-24.5000019158451
 21
-14.75
 31
0.0
  0
LINE
  5
   15E
  8
0
  6
CONTINUOUS
 62
     7
 10
-37.5000038316901
 20
-9.83333333333333
 30
0.0
 11
-24.5000019158451
 21
-9.83333333333333
 31
0.0
  0
LINE
  5
   15F
  8
0
  6
CONTINUOUS
 62
     7
 10
-37.5000038316901
 20
-4.91666666666666
 30
0.0
 11
-24.5000019158451
 21
-4.91666666666666
 31
0.0
  0
LINE
  5
   160
  8
0
  6
CONTINUOUS
 62
   130
 10
-24.0000019158451
 20
-12.25
 30
0.0
 11
-22.7500019073486
 21
-12.25
 31
0.0
  0
ARC
  5
   161
  8
0
  6
CONTINUOUS
 62
     7
 10
-10.2499450832179
 20
-6.7
 30
0.0
 40
1.3
 50
0.0
 51
180.0
  0
ARC
  5
   162
  8
0
  6
CONTINUOUS
 62
     7
 10
-20.2500560917913
 20
-6.7
 30
0.0
 40
1.3
 50
0.0
 51
180.0
  0
LINE
  5
   163
  8
0
  6
CONTINUOUS
 62
     7
 10
-8.94994508321793
 20
-13.561219530036
 30
0.0
 11
-8.94994508321793
 21
-6.7
 31
0.0
  0
LINE
  5
   164
  8
0
  6
CONTINUOUS
 62
     7
 10
-11.5499450832179
 20
-13.561219530036
 30
0.0
 11
-11.5499450832179
 21
-6.7
 31
0.0
  0
LINE
  5
   165
  8
0
  6
CONTINUOUS
 62
     7
 10
-18.9500560917913
 20
-13.561219530036
 30
0.0
 11
-18.9500560917913
 21
-6.7
 31
0.0
  0
LINE
  5
   166
  8
0
  6
CONTINUOUS
 62
     7
 10
-21.5500560917913
 20
-13.561219530036
 30
0.0
 11
-21.5500560917913
 21
-6.7
 31
0.0
  0
LINE
  5
   167
  8
0
  6
CONTINUOUS
 62
     7
 10
82.1438267183458
 20
-91.6555879086064
 30
0.0
 11
82.1438267183458
 21
-85.7555879086064
 31
0.0
  0
LINE
  5
   168
  8
0
  6
DOT
 62
     7
 10
79.4600690039408
 20
-89.0601963300787
 30
0.0
 11
80.5734970093743
 21
-88.0646522451688
 31
0.0
  0
LINE
  5
   169
  8
0
  6
CONTINUOUS
 62
     7
 10
79.3454235176361
 20
-87.4188323953359
 30
0.0
 11
79.7069929222149
 21
-87.095544063934
 31
0.0
  0
LINE
  5
   16A
  8
0
  6
CONTINUOUS
 62
     7
 10
72.2912845003232
 20
-81.2512492514167
 30
0.0
 11
79.5083102335176
 21
-87.5612477008427
 31
0.0
  0
LINE
  5
   16B
  8
0
  6
CONTINUOUS
 62
     7
 10
71.4356048410504
 20
-82.2299281163702
 30
0.0
 11
78.6526305742448
 21
-88.5399265657963
 31
0.0
  0
ARC
  5
   16C
  8
0
  6
CONTINUOUS
 62
     7
 10
70.1191745960153
 20
-83.7355879086064
 30
0.0
 40
2.0
 50
48.8361104607293
 51
90.0
  0
ARC
  5
   16D
  8
0
  6
CONTINUOUS
 62
     7
 10
70.1191745960153
 20
-83.7355879086064
 30
0.0
 40
3.3
 50
48.8361104607293
 51
90.0
  0
ARC
  5
   16E
  8
0
  6
CONTINUOUS
 62
     7
 10
80.8247404785527
 20
-86.0555879086064
 30
0.0
 40
3.3
 50
228.836110460729
 51
270.0
  0
ARC
  5
   16F
  8
0
  6
CONTINUOUS
 62
     7
 10
80.8247404785527
 20
-86.0555879086064
 30
0.0
 40
2.0
 50
228.836110460729
 51
270.0
  0
ARC
  5
   170
  8
0
  6
CONTINUOUS
 62
     7
 10
69.347232990577
 20
-93.6755879086064
 30
0.0
 40
2.0
 50
270.0
 51
311.80070212131
  0
ARC
  5
   171
  8
0
  6
CONTINUOUS
 62
     7
 10
81.9065802203889
 20
-89.5555879086064
 30
0.0
 40
2.0
 50
90.0
 51
130.850093265688
  0
ARC
  5
   172
  8
0
  6
CONTINUOUS
 62
     7
 10
69.347232990577
 20
-93.6755879086064
 30
0.0
 40
3.3
 50
270.0
 51
311.80070212131
  0
ARC
  5
   173
  8
0
  6
CONTINUOUS
 62
     7
 10
81.9065802203889
 20
-89.5555879086064
 30
0.0
 40
3.3
 50
90.0
 51
131.80070212131
  0
LINE
  5
   174
  8
0
  6
DOT
 62
     7
 10
78.3689632229533
 20
-88.2919101927122
 30
0.0
 11
79.3454235176361
 21
-87.4188323953359
 31
0.0
  0
LINE
  5
   175
  8
0
  6
CONTINUOUS
 62
     7
 10
70.6803162015916
 20
-95.1665235720446
 30
0.0
 11
78.3689632229533
 21
-88.2919101927122
 31
0.0
  0
LINE
  5
   176
  8
0
  6
CONTINUOUS
 62
     7
 10
71.5468202887511
 20
-96.1356317532793
 30
0.0
 11
79.4600690039408
 21
-89.0601963300787
 31
0.0
  0
ARC
  5
   177
  8
0
  6
DOT
 62
     7
 10
81.9065802203889
 20
-89.5555879086064
 30
0.0
 40
2.0
 50
130.850093265688
 51
131.80070212131
  0
LINE
  5
   178
  8
0
  6
CONTINUOUS
 62
     7
 10
77.6976542821592
 20
-85.9781528543097
 30
0.0
 11
81.6989767148559
 21
-86.2481033589115
 31
0.0
  0
LINE
  5
   179
  8
0
  6
DOT
 62
     7
 10
79.37304140334
 20
-87.3941385465946
 30
0.0
 11
81.6988773684068
 21
-87.5510518178822
 31
0.0
  0
ARC
  5
   17A
  8
0
  6
CONTINUOUS
 62
     7
 10
81.9211073284641
 20
-82.9555879086064
 30
0.0
 40
3.3
 50
266.140370511094
 51
270.0
  0
ARC
  5
   17B
  8
0
  6
CONTINUOUS
 62
     7
 10
70.7301263968748
 20
-88.8155879086064
 30
0.0
 40
3.3
 50
86.1403705110936
 51
90.0
  0
ARC
  5
   17C
  8
0
  6
CONTINUOUS
 62
     7
 10
70.7301263968748
 20
-88.8155879086064
 30
0.0
 40
2.0
 50
86.1403705110935
 51
90.0
  0
ARC
  5
   17D
  8
0
  6
DOT
 62
     7
 10
81.8335019827148
 20
-85.5555879086064
 30
0.0
 40
2.0
 50
266.140370511094
 51
270.0
  0
LINE
  5
   17E
  8
0
  6
CONTINUOUS
 62
     7
 10
70.952257010483
 20
-85.5230724583013
 30
0.0
 11
75.5574731118645
 21
-85.8337648434512
 31
0.0
  0
LINE
  5
   17F
  8
0
  6
DOT
 62
     7
 10
75.5574731118645
 20
-85.8337648434512
 30
0.0
 11
77.6976542821592
 21
-85.9781528543097
 31
0.0
  0
LINE
  5
   180
  8
0
  6
DOT
 62
     7
 10
77.1723280442111
 20
-87.2456667121515
 30
0.0
 11
79.3125092145058
 21
-87.39005472301
 31
0.0
  0
LINE
  5
   181
  8
0
  6
CONTINUOUS
 62
     7
 10
70.7975151243742
 20
-86.8155879086064
 30
0.0
 11
77.1723280442111
 21
-87.2456667121515
 31
0.0
  0
LINE
  5
   182
  8
0
  6
CONTINUOUS
 62
     7
 10
79.3125092145058
 20
-87.39005472301
 30
0.0
 11
79.37304140334
 21
-87.3941385465946
 31
0.0
  0
LINE
  5
   183
  8
0
  6
CONTINUOUS
 62
     7
 10
76.7939313212931
 20
-91.4440573310255
 30
0.0
 11
80.7301732290964
 21
-91.1607482000817
 31
0.0
  0
LINE
  5
   184
  8
0
  6
CONTINUOUS
 62
     7
 10
78.3792402369902
 20
-90.0265926129878
 30
0.0
 11
80.6368477662996
 21
-89.8641023895407
 31
0.0
  0
ARC
  5
   185
  8
0
  6
CONTINUOUS
 62
     7
 10
80.8737508641686
 20
-93.1555879086064
 30
0.0
 40
2.0
 50
90.0
 51
94.1167374646507
  0
ARC
  5
   186
  8
0
  6
CONTINUOUS
 62
     7
 10
70.4018488275354
 20
-88.5955879086064
 30
0.0
 40
3.3
 50
270.0
 51
274.116737464651
  0
ARC
  5
   187
  8
0
  6
CONTINUOUS
 62
     7
 10
80.8737508641687
 20
-93.1555879086064
 30
0.0
 40
3.3
 50
90.0
 51
94.1167374646508
  0
LINE
  5
   188
  8
0
  6
CONTINUOUS
 62
     7
 10
70.4737303775091
 20
-90.5955879086065
 30
0.0
 11
76.2581311557179
 21
-90.1792584258437
 31
0.0
  0
LINE
  5
   189
  8
0
  6
DOT
 62
     7
 10
76.2581311557179
 20
-90.1792584258437
 30
0.0
 11
78.3792402369902
 21
-90.0265926129878
 31
0.0
  0
LINE
  5
   18A
  8
0
  6
DOT
 62
     7
 10
74.6728222400208
 20
-91.5967231438814
 30
0.0
 11
76.7939313212931
 21
-91.4440573310255
 31
0.0
  0
LINE
  5
   18B
  8
0
  6
CONTINUOUS
 62
     7
 10
70.6387519254045
 20
-91.8870734276723
 30
0.0
 11
74.6728222400208
 21
-91.5967231438814
 31
0.0
  0
LINE
  5
   18C
  8
0
  6
CONTINUOUS
 62
     7
 10
81.9211073284641
 20
-86.2555879086064
 30
0.0
 11
82.1438267183458
 21
-86.2555879086064
 31
0.0
  0
LINE
  5
   18D
  8
0
  6
CONTINUOUS
 62
     7
 10
81.8335019827148
 20
-87.5555879086065
 30
0.0
 11
82.1438267183458
 21
-87.5555879086065
 31
0.0
  0
LINE
  5
   18E
  8
0
  6
CONTINUOUS
 62
     7
 10
80.8247404785527
 20
-88.0555879086064
 30
0.0
 11
82.1438267183458
 21
-88.0555879086064
 31
0.0
  0
LINE
  5
   18F
  8
0
  6
CONTINUOUS
 62
     7
 10
80.8247404785527
 20
-89.3555879086064
 30
0.0
 11
82.1438267183458
 21
-89.3555879086064
 31
0.0
  0
LINE
  5
   190
  8
0
  6
CONTINUOUS
 62
     7
 10
80.8737508641687
 20
-89.8555879086064
 30
0.0
 11
82.1438267183458
 21
-89.8555879086064
 31
0.0
  0
LINE
  5
   191
  8
0
  6
CONTINUOUS
 62
     7
 10
80.8737508641686
 20
-91.1555879086064
 30
0.0
 11
82.1438267183458
 21
-91.1555879086064
 31
0.0
  0
LINE
  5
   192
  8
0
  6
CONTINUOUS
 62
     7
 10
95.116101176683
 20
-93.6384173946129
 30
0.0
 11
95.116101176683
 21
-83.3992007997183
 31
0.0
  0
LINE
  5
   193
  8
0
  6
CONTINUOUS
 62
     7
 10
82.1438267183458
 20
-85.7555879086065
 30
0.0
 11
95.116101176683
 21
-85.7555879086065
 31
0.0
  0
LINE
  5
   194
  8
0
  6
CONTINUOUS
 62
     7
 10
82.1438267183458
 20
-91.6555879086064
 30
0.0
 11
95.116101176683
 21
-91.6555879086064
 31
0.0
  0
LINE
  5
   195
  8
0
  6
CONTINUOUS
 62
     7
 10
61.2324873938608
 20
-80.4355879086064
 30
0.0
 11
70.1191745960153
 21
-80.4355879086064
 31
0.0
  0
LINE
  5
   196
  8
0
  6
CONTINUOUS
 62
     7
 10
61.2324873938608
 20
-81.7355879086064
 30
0.0
 11
70.1191745960153
 21
-81.7355879086064
 31
0.0
  0
LINE
  5
   197
  8
0
  6
CONTINUOUS
 62
     7
 10
61.2324873938608
 20
-85.5155879086064
 30
0.0
 11
70.7301263968748
 21
-85.5155879086064
 31
0.0
  0
LINE
  5
   198
  8
0
  6
CONTINUOUS
 62
     7
 10
61.2324873938608
 20
-86.8155879086064
 30
0.0
 11
70.7975151243743
 21
-86.8155879086064
 31
0.0
  0
LINE
  5
   199
  8
0
  6
CONTINUOUS
 62
     7
 10
61.2324873938608
 20
-90.5955879086064
 30
0.0
 11
70.4737303775092
 21
-90.5955879086064
 31
0.0
  0
LINE
  5
   19A
  8
0
  6
CONTINUOUS
 62
     7
 10
61.2324873938608
 20
-91.8955879086064
 30
0.0
 11
70.4018488275354
 21
-91.8955879086064
 31
0.0
  0
LINE
  5
   19B
  8
0
  6
CONTINUOUS
 62
     7
 10
61.2324873938608
 20
-95.6755879086064
 30
0.0
 11
69.347232990577
 21
-95.6755879086064
 31
0.0
  0
LINE
  5
   19C
  8
0
  6
CONTINUOUS
 62
     7
 10
61.2324873938608
 20
-96.9755879086064
 30
0.0
 11
69.347232990577
 21
-96.9755879086064
 31
0.0
  0
LINE
  5
   19D
  8
0
  6
CONTINUOUS
 62
     7
 10
38.2324873938608
 20
-78.8255879086065
 30
0.0
 11
63.2324873938608
 21
-78.8255879086065
 31
0.0
  0
LINE
  5
   19E
  8
0
  6
CONTINUOUS
 62
     7
 10
56.9324843421029
 20
-83.0255877178716
 30
0.0
 11
56.9324843421029
 21
-79.6255880993413
 31
0.0
  0
LINE
  5
   19F
  8
0
  6
CONTINUOUS
 62
     7
 10
52.9324843421029
 20
-83.0255877178716
 30
0.0
 11
52.9324843421029
 21
-79.6255880993413
 31
0.0
  0
LINE
  5
   1A0
  8
0
  6
CONTINUOUS
 62
     7
 10
48.5324904456186
 20
-83.0255877178716
 30
0.0
 11
48.5324904456186
 21
-79.6255880993413
 31
0.0
  0
LINE
  5
   1A1
  8
0
  6
CONTINUOUS
 62
     7
 10
44.5324904456186
 20
-83.0255877178716
 30
0.0
 11
44.5324904456186
 21
-79.6255880993413
 31
0.0
  0
LINE
  5
   1A2
  8
0
  6
CONTINUOUS
 62
     7
 10
61.2324950232553
 20
-83.0255877178716
 30
0.0
 11
63.2324873938608
 21
-83.0255877178716
 31
0.0
  0
LINE
  5
   1A3
  8
0
  6
CONTINUOUS
 62
     7
 10
61.2324950232553
 20
-79.6255880993413
 30
0.0
 11
63.2324873938608
 21
-79.6255880993413
 31
0.0
  0
LINE
  5
   1A4
  8
0
  6
CONTINUOUS
 62
     7
 10
39.972312998918
 20
-83.0255877178716
 30
0.0
 11
40.2324950232553
 21
-83.0255877178716
 31
0.0
  0
LINE
  5
   1A5
  8
0
  6
CONTINUOUS
 62
     7
 10
38.2324873938608
 20
-79.6255880993413
 30
0.0
 11
40.2324950232553
 21
-79.6255880993413
 31
0.0
  0
LINE
  5
   1A6
  8
0
  6
CONTINUOUS
 62
     7
 10
38.2324873938608
 20
-98.8255879086065
 30
0.0
 11
38.2324873938608
 21
-86.3902059025886
 31
0.0
  0
LINE
  5
   1A7
  8
0
  6
CONTINUOUS
 62
     7
 10
38.751638516401
 20
-83.8255879086065
 30
0.0
 11
63.2324873938608
 21
-83.8255879086065
 31
0.0
  0
LINE
  5
   1A8
  8
0
  6
CONTINUOUS
 62
     7
 10
56.9324843421029
 20
-88.0255881947087
 30
0.0
 11
56.9324843421029
 21
-84.6255880993413
 31
0.0
  0
LINE
  5
   1A9
  8
0
  6
CONTINUOUS
 62
     7
 10
52.9324843421029
 20
-88.0255881947087
 30
0.0
 11
52.9324843421029
 21
-84.6255880993413
 31
0.0
  0
LINE
  5
   1AA
  8
0
  6
CONTINUOUS
 62
     7
 10
48.5324904456186
 20
-88.0255881947087
 30
0.0
 11
48.5324904456186
 21
-84.6255880993413
 31
0.0
  0
LINE
  5
   1AB
  8
0
  6
CONTINUOUS
 62
     7
 10
44.5324904456186
 20
-88.0255881947087
 30
0.0
 11
44.5324904456186
 21
-84.6255880993413
 31
0.0
  0
LINE
  5
   1AC
  8
0
  6
CONTINUOUS
 62
     7
 10
61.2324950232553
 20
-88.0255881947087
 30
0.0
 11
63.2324873938607
 21
-88.0255881947087
 31
0.0
  0
LINE
  5
   1AD
  8
0
  6
CONTINUOUS
 62
     7
 10
61.2324950232553
 20
-84.6255880993413
 30
0.0
 11
63.2324873938608
 21
-84.6255880993413
 31
0.0
  0
LINE
  5
   1AE
  8
0
  6
CONTINUOUS
 62
     7
 10
38.2324873938607
 20
-88.0255881947087
 30
0.0
 11
40.2324950232553
 21
-88.0255881947087
 31
0.0
  0
LINE
  5
   1AF
  8
0
  6
CONTINUOUS
 62
     7
 10
63.2324873938608
 20
-98.8255879086065
 30
0.0
 11
63.2324873938608
 21
-96.9755879086064
 31
0.0
  0
LINE
  5
   1B0
  8
0
  6
CONTINUOUS
 62
     7
 10
38.2324873938607
 20
-98.8255879086065
 30
0.0
 11
63.2324873938607
 21
-98.8255879086065
 31
0.0
  0
LINE
  5
   1B1
  8
0
  6
CONTINUOUS
 62
     7
 10
56.9324843421029
 20
-98.0255881947087
 30
0.0
 11
56.9324843421029
 21
-94.6255878609227
 31
0.0
  0
LINE
  5
   1B2
  8
0
  6
CONTINUOUS
 62
     7
 10
52.9324843421029
 20
-98.0255881947087
 30
0.0
 11
52.9324843421029
 21
-94.6255878609227
 31
0.0
  0
LINE
  5
   1B3
  8
0
  6
CONTINUOUS
 62
     7
 10
48.5324904456186
 20
-98.0255881947087
 30
0.0
 11
48.5324904456186
 21
-94.6255878609227
 31
0.0
  0
LINE
  5
   1B4
  8
0
  6
CONTINUOUS
 62
     7
 10
44.5324904456186
 20
-98.0255881947087
 30
0.0
 11
44.5324904456186
 21
-94.6255878609227
 31
0.0
  0
LINE
  5
   1B5
  8
0
  6
CONTINUOUS
 62
     7
 10
61.2324950232553
 20
-98.0255881947087
 30
0.0
 11
63.2324873938607
 21
-98.0255881947087
 31
0.0
  0
LINE
  5
   1B6
  8
0
  6
CONTINUOUS
 62
     7
 10
61.2324950232553
 20
-94.6255878609227
 30
0.0
 11
63.2324873938607
 21
-94.6255878609227
 31
0.0
  0
LINE
  5
   1B7
  8
0
  6
CONTINUOUS
 62
     7
 10
38.2324873938607
 20
-98.0255881947087
 30
0.0
 11
40.2324950232553
 21
-98.0255881947087
 31
0.0
  0
LINE
  5
   1B8
  8
0
  6
CONTINUOUS
 62
     7
 10
38.2324873938607
 20
-94.6255878609227
 30
0.0
 11
40.2324950232553
 21
-94.6255878609227
 31
0.0
  0
LINE
  5
   1B9
  8
0
  6
CONTINUOUS
 62
     7
 10
38.2324873938607
 20
-93.8255880278157
 30
0.0
 11
63.2324873938607
 21
-93.8255880278157
 31
0.0
  0
LINE
  5
   1BA
  8
0
  6
CONTINUOUS
 62
     7
 10
38.2324873938607
 20
-88.8255879086065
 30
0.0
 11
63.2324873938607
 21
-88.8255879086065
 31
0.0
  0
LINE
  5
   1BB
  8
0
  6
CONTINUOUS
 62
     7
 10
56.9324843421029
 20
-93.0255879562902
 30
0.0
 11
56.9324843421029
 21
-89.6255878609227
 31
0.0
  0
LINE
  5
   1BC
  8
0
  6
CONTINUOUS
 62
     7
 10
52.9324843421029
 20
-93.0255879562902
 30
0.0
 11
52.9324843421029
 21
-89.6255878609227
 31
0.0
  0
LINE
  5
   1BD
  8
0
  6
CONTINUOUS
 62
     7
 10
48.5324904456186
 20
-93.0255879562902
 30
0.0
 11
48.5324904456186
 21
-89.6255878609227
 31
0.0
  0
LINE
  5
   1BE
  8
0
  6
CONTINUOUS
 62
     7
 10
44.5324904456186
 20
-93.0255879562902
 30
0.0
 11
44.5324904456186
 21
-89.6255878609227
 31
0.0
  0
LINE
  5
   1BF
  8
0
  6
CONTINUOUS
 62
     7
 10
61.2324950232553
 20
-93.0255879860925
 30
0.0
 11
63.2324873938607
 21
-93.0255879860925
 31
0.0
  0
LINE
  5
   1C0
  8
0
  6
CONTINUOUS
 62
     7
 10
61.2324950232553
 20
-89.6255878609227
 30
0.0
 11
63.2324873938607
 21
-89.6255878609227
 31
0.0
  0
LINE
  5
   1C1
  8
0
  6
CONTINUOUS
 62
     7
 10
38.2324873938607
 20
-93.0255879860925
 30
0.0
 11
40.2324950232553
 21
-93.0255879860925
 31
0.0
  0
LINE
  5
   1C2
  8
0
  6
CONTINUOUS
 62
     7
 10
38.2324873938607
 20
-89.6255878609227
 30
0.0
 11
40.2324950232553
 21
-89.6255878609227
 31
0.0
  0
LINE
  5
   1C3
  8
0
  6
CONTINUOUS
 62
     7
 10
53.7324873938608
 20
-101.625588099341
 30
0.0
 11
53.7324873938608
 21
-98.8255879086065
 31
0.0
  0
LINE
  5
   1C4
  8
0
  6
CONTINUOUS
 62
     7
 10
47.7324873938608
 20
-101.625588099341
 30
0.0
 11
47.7324873938608
 21
-98.8255879086065
 31
0.0
  0
LINE
  5
   1C5
  8
0
  6
CONTINUOUS
 62
     7
 10
53.3425871863412
 20
-102.825587908606
 30
0.0
 11
60.2324873938607
 21
-102.825587908606
 31
0.0
  0
LINE
  5
   1C6
  8
0
  6
CONTINUOUS
 62
     7
 10
41.2324873938607
 20
-102.825587908606
 30
0.0
 11
48.1223876013803
 21
-102.825587908606
 31
0.0
  0
LINE
  5
   1C7
  8
0
  6
CONTINUOUS
 62
     7
 10
53.7324873938608
 20
-78.8255879086065
 30
0.0
 11
53.7324873938608
 21
-76.0255877178716
 31
0.0
  0
LINE
  5
   1C8
  8
0
  6
CONTINUOUS
 62
     7
 10
47.7324873938608
 20
-78.8255879086065
 30
0.0
 11
47.7324873938608
 21
-76.0255877178716
 31
0.0
  0
LINE
  5
   1C9
  8
0
  6
CONTINUOUS
 62
     7
 10
53.3425871863412
 20
-74.8255888622808
 30
0.0
 11
60.2324873938608
 21
-74.8255888622808
 31
0.0
  0
LINE
  5
   1CA
  8
0
  6
CONTINUOUS
 62
     7
 10
41.2324873938608
 20
-74.8255888622808
 30
0.0
 11
48.1223876013803
 21
-74.8255888622808
 31
0.0
  0
LINE
  5
   1CB
  8
0
  6
CONTINUOUS
 62
     7
 10
43.7324873938608
 20
-98.8255879086065
 30
0.0
 11
43.7324873938608
 21
-78.8255879086065
 31
0.0
  0
LINE
  5
   1CC
  8
0
  6
CONTINUOUS
 62
     7
 10
52.9324843421029
 20
-79.6255880993413
 30
0.0
 11
56.9324843421029
 21
-79.6255880993413
 31
0.0
  0
LINE
  5
   1CD
  8
0
  6
CONTINUOUS
 62
     7
 10
52.9324843421029
 20
-80.5072228115606
 30
0.0
 11
56.9324843421029
 21
-80.5072228115606
 31
0.0
  0
LINE
  5
   1CE
  8
0
  6
CONTINUOUS
 62
     7
 10
52.9324843421029
 20
-82.1439530056523
 30
0.0
 11
56.9324843421029
 21
-82.1439530056523
 31
0.0
  0
LINE
  5
   1CF
  8
0
  6
CONTINUOUS
 62
     7
 10
52.9324843421029
 20
-83.0255877178716
 30
0.0
 11
56.9324843421029
 21
-83.0255877178716
 31
0.0
  0
LINE
  5
   1D0
  8
0
  6
CONTINUOUS
 62
     7
 10
44.5324904456186
 20
-79.6255880993413
 30
0.0
 11
48.5324904456186
 21
-79.6255880993413
 31
0.0
  0
LINE
  5
   1D1
  8
0
  6
CONTINUOUS
 62
     7
 10
44.5324904456186
 20
-80.5072228115606
 30
0.0
 11
48.5324904456186
 21
-80.5072228115606
 31
0.0
  0
LINE
  5
   1D2
  8
0
  6
CONTINUOUS
 62
     7
 10
44.5324904456186
 20
-82.1439530056523
 30
0.0
 11
48.5324904456186
 21
-82.1439530056523
 31
0.0
  0
LINE
  5
   1D3
  8
0
  6
CONTINUOUS
 62
     7
 10
44.5324904456186
 20
-83.0255877178716
 30
0.0
 11
48.5324904456186
 21
-83.0255877178716
 31
0.0
  0
LINE
  5
   1D4
  8
0
  6
CONTINUOUS
 62
     7
 10
52.9324843421029
 20
-84.6255880993413
 30
0.0
 11
56.9324843421029
 21
-84.6255880993413
 31
0.0
  0
LINE
  5
   1D5
  8
0
  6
CONTINUOUS
 62
     7
 10
52.9324843421029
 20
-85.5072228115606
 30
0.0
 11
56.9324843421029
 21
-85.5072228115606
 31
0.0
  0
LINE
  5
   1D6
  8
0
  6
CONTINUOUS
 62
     7
 10
52.9324843421029
 20
-87.1439530056523
 30
0.0
 11
56.9324843421029
 21
-87.1439530056523
 31
0.0
  0
LINE
  5
   1D7
  8
0
  6
CONTINUOUS
 62
     7
 10
52.9324843421029
 20
-88.0255881947087
 30
0.0
 11
56.9324843421029
 21
-88.0255881947087
 31
0.0
  0
LINE
  5
   1D8
  8
0
  6
CONTINUOUS
 62
     7
 10
44.5324904456186
 20
-84.6255880993413
 30
0.0
 11
48.5324904456186
 21
-84.6255880993413
 31
0.0
  0
LINE
  5
   1D9
  8
0
  6
CONTINUOUS
 62
     7
 10
44.5324904456186
 20
-85.5072228115606
 30
0.0
 11
48.5324904456186
 21
-85.5072228115606
 31
0.0
  0
LINE
  5
   1DA
  8
0
  6
CONTINUOUS
 62
     7
 10
44.5324904456186
 20
-87.1439530056523
 30
0.0
 11
48.5324904456186
 21
-87.1439530056523
 31
0.0
  0
LINE
  5
   1DB
  8
0
  6
CONTINUOUS
 62
     7
 10
44.5324904456186
 20
-88.0255881947087
 30
0.0
 11
48.5324904456186
 21
-88.0255881947087
 31
0.0
  0
LINE
  5
   1DC
  8
0
  6
CONTINUOUS
 62
     7
 10
61.2324873938608
 20
-98.8255879086065
 30
0.0
 11
61.2324873938608
 21
-78.8255879086065
 31
0.0
  0
LINE
  5
   1DD
  8
0
  6
CONTINUOUS
 62
     7
 10
57.7324873938608
 20
-98.8255879086065
 30
0.0
 11
57.7324873938608
 21
-78.8255879086065
 31
0.0
  0
LINE
  5
   1DE
  8
0
  6
CONTINUOUS
 62
     7
 10
52.9324843421029
 20
-94.6255878609227
 30
0.0
 11
56.9324843421029
 21
-94.6255878609227
 31
0.0
  0
LINE
  5
   1DF
  8
0
  6
CONTINUOUS
 62
     7
 10
52.9324843421029
 20
-95.5072228115606
 30
0.0
 11
56.9324843421029
 21
-95.5072228115606
 31
0.0
  0
LINE
  5
   1E0
  8
0
  6
CONTINUOUS
 62
     7
 10
52.9324843421029
 20
-97.1439530056524
 30
0.0
 11
56.9324843421029
 21
-97.1439530056524
 31
0.0
  0
LINE
  5
   1E1
  8
0
  6
CONTINUOUS
 62
     7
 10
52.9324843421029
 20
-98.0255881947087
 30
0.0
 11
56.9324843421029
 21
-98.0255881947087
 31
0.0
  0
LINE
  5
   1E2
  8
0
  6
CONTINUOUS
 62
     7
 10
44.5324904456186
 20
-94.6255878609227
 30
0.0
 11
48.5324904456186
 21
-94.6255878609227
 31
0.0
  0
LINE
  5
   1E3
  8
0
  6
CONTINUOUS
 62
     7
 10
44.5324904456186
 20
-95.5072228115606
 30
0.0
 11
48.5324904456186
 21
-95.5072228115606
 31
0.0
  0
LINE
  5
   1E4
  8
0
  6
CONTINUOUS
 62
     7
 10
44.5324904456186
 20
-97.1439530056524
 30
0.0
 11
48.5324904456186
 21
-97.1439530056524
 31
0.0
  0
LINE
  5
   1E5
  8
0
  6
CONTINUOUS
 62
     7
 10
44.5324904456186
 20
-98.0255881947087
 30
0.0
 11
48.5324904456186
 21
-98.0255881947087
 31
0.0
  0
LINE
  5
   1E6
  8
0
  6
CONTINUOUS
 62
     7
 10
52.9324843421029
 20
-89.6255878609227
 30
0.0
 11
56.9324843421029
 21
-89.6255878609227
 31
0.0
  0
LINE
  5
   1E7
  8
0
  6
CONTINUOUS
 62
     7
 10
52.9324843421029
 20
-90.5072228115606
 30
0.0
 11
56.9324843421029
 21
-90.5072228115606
 31
0.0
  0
LINE
  5
   1E8
  8
0
  6
CONTINUOUS
 62
     7
 10
52.9324843421029
 20
-92.143953065257
 30
0.0
 11
56.9324843421029
 21
-92.143953065257
 31
0.0
  0
LINE
  5
   1E9
  8
0
  6
CONTINUOUS
 62
     7
 10
52.9324843421029
 20
-93.0255879860925
 30
0.0
 11
56.9324843421029
 21
-93.0255879860925
 31
0.0
  0
LINE
  5
   1EA
  8
0
  6
CONTINUOUS
 62
     7
 10
44.5324904456186
 20
-89.6255878609227
 30
0.0
 11
48.5324904456186
 21
-89.6255878609227
 31
0.0
  0
LINE
  5
   1EB
  8
0
  6
CONTINUOUS
 62
     7
 10
44.5324904456186
 20
-90.5072228115606
 30
0.0
 11
48.5324904456186
 21
-90.5072228115606
 31
0.0
  0
LINE
  5
   1EC
  8
0
  6
CONTINUOUS
 62
     7
 10
44.5324904456186
 20
-92.143953065257
 30
0.0
 11
48.5324904456186
 21
-92.143953065257
 31
0.0
  0
LINE
  5
   1ED
  8
0
  6
CONTINUOUS
 62
     7
 10
44.5324904456186
 20
-93.0255879860925
 30
0.0
 11
48.5324904456186
 21
-93.0255879860925
 31
0.0
  0
LINE
  5
   1EE
  8
0
  6
CONTINUOUS
 62
     7
 10
60.2324873938608
 20
-102.825587908606
 30
0.0
 11
60.2324873938608
 21
-98.8255879086065
 31
0.0
  0
LINE
  5
   1EF
  8
0
  6
CONTINUOUS
 62
     7
 10
41.2324873938608
 20
-102.825587908606
 30
0.0
 11
41.2324873938608
 21
-98.8255879086065
 31
0.0
  0
LINE
  5
   1F0
  8
0
  6
CONTINUOUS
 62
     7
 10
60.2324873938608
 20
-78.8255879086065
 30
0.0
 11
60.2324873938608
 21
-74.8255888622808
 31
0.0
  0
LINE
  5
   1F1
  8
0
  6
CONTINUOUS
 62
     7
 10
41.2324873938608
 20
-78.8255879086065
 30
0.0
 11
41.2324873938608
 21
-74.8255888622808
 31
0.0
  0
CIRCLE
  5
   1F2
  8
0
  6
CONTINUOUS
 62
     7
 10
50.7324655774065
 20
-76.0255827739853
 30
0.0
 40
1.74997871524982
  0
ARC
  5
   1F3
  8
0
  6
CONTINUOUS
 62
     7
 10
50.7324942472952
 20
-76.0253371472566
 30
0.0
 40
2.99985445640764
 50
359.995250053543
 51
540.00478310189
  0
CIRCLE
  5
   1F4
  8
0
  6
CONTINUOUS
 62
     7
 10
50.7324983709327
 20
-101.625561286925
 30
0.0
 40
1.75002688339564
  0
ARC
  5
   1F5
  8
0
  6
CONTINUOUS
 62
     7
 10
50.7324843032467
 20
-101.625349343858
 30
0.0
 40
3.00013234829216
 50
180.004552853546
 51
359.995413958505
  0
LINE
  5
   1F6
  8
0
  6
CONTINUOUS
 62
     7
 10
42.2324873938607
 20
-78.8255879086065
 30
0.0
 11
42.2324873938607
 21
-74.8255888622808
 31
0.0
  0
LINE
  5
   1F7
  8
0
  6
CONTINUOUS
 62
     7
 10
59.2324873938608
 20
-78.8255879086065
 30
0.0
 11
59.2324873938608
 21
-74.8255888622808
 31
0.0
  0
LINE
  5
   1F8
  8
0
  6
CONTINUOUS
 62
     7
 10
42.2324873938607
 20
-102.825587908606
 30
0.0
 11
42.2324873938607
 21
-98.8255879086065
 31
0.0
  0
LINE
  5
   1F9
  8
0
  6
CONTINUOUS
 62
     7
 10
59.2324873938608
 20
-102.825587908606
 30
0.0
 11
59.2324873938608
 21
-98.8255879086065
 31
0.0
  0
LINE
  5
   1FA
  8
0
  6
DASHDOT
 62
     7
 10
50.7324655774065
 20
-80.2755614892351
 30
0.0
 11
50.7324655774065
 21
-71.7756040587355
 31
0.0
  0
LINE
  5
   1FB
  8
0
  6
DASHDOT
 62
     7
 10
46.4824868621567
 20
-76.0255827739853
 30
0.0
 11
54.9824442926563
 21
-76.0255827739853
 31
0.0
  0
LINE
  5
   1FC
  8
0
  6
DASHDOT
 62
     7
 10
50.7324983709327
 20
-105.875588170321
 30
0.0
 11
50.7324983709327
 21
-97.3755344035293
 31
0.0
  0
LINE
  5
   1FD
  8
0
  6
DASHDOT
 62
     7
 10
46.4824714875371
 20
-101.625561286925
 30
0.0
 11
54.9825252543284
 21
-101.625561286925
 31
0.0
  0
LINE
  5
   1FE
  8
0
  6
CONTINUOUS
 62
     7
 10
63.2324873938608
 20
-80.4355879086064
 30
0.0
 11
63.2324873938608
 21
-78.8255879086065
 31
0.0
  0
LINE
  5
   1FF
  8
0
  6
CONTINUOUS
 62
     7
 10
63.2324873938608
 20
-85.5155879086064
 30
0.0
 11
63.2324873938608
 21
-81.7355879086064
 31
0.0
  0
LINE
  5
   200
  8
0
  6
CONTINUOUS
 62
     7
 10
63.2324873938608
 20
-90.5955879086064
 30
0.0
 11
63.2324873938608
 21
-86.8155879086064
 31
0.0
  0
LINE
  5
   201
  8
0
  6
CONTINUOUS
 62
     7
 10
63.2324873938608
 20
-95.6755879086064
 30
0.0
 11
63.2324873938608
 21
-91.8955879086064
 31
0.0
  0
LINE
  5
   202
  8
0
  6
CONTINUOUS
 62
     7
 10
40.2324873938608
 20
-79.9630298931129
 30
0.0
 11
40.2324873938608
 21
-78.8255879086065
 31
0.0
  0
LINE
  5
   203
  8
0
  6
CONTINUOUS
 62
     7
 10
38.2324873938608
 20
-81.0278550995084
 30
0.0
 11
38.2324873938608
 21
-78.8255879086065
 31
0.0
  0
LINE
  5
   204
  8
0
  6
CONTINUOUS
 62
     7
 10
40.2324873938608
 20
-98.8255879086065
 30
0.0
 11
40.2324873938608
 21
-87.4481459241
 31
0.0
  0
LINE
  5
   205
  8
0
  6
CONTINUOUS
 62
     7
 10
40.2324873938608
 20
-84.5357998562977
 30
0.0
 11
40.2324873938608
 21
-82.8753759609152
 31
0.0
  0
LINE
  5
   206
  8
0
  6
CONTINUOUS
 62
     7
 10
29.1592349414701
 20
-89.6784253357036
 30
0.0
 11
29.1592349414701
 21
-77.5239326110744
 31
0.0
  0
LINE
  5
   207
  8
0
  6
CONTINUOUS
 62
     7
 10
32.1295744556351
 20
-89.541858001719
 30
0.0
 11
32.1295744556351
 21
-78.6847549499435
 31
0.0
  0
LINE
  5
   208
  8
0
  6
CONTINUOUS
 62
     7
 10
41.3487743778308
 20
-79.7855879086064
 30
0.0
 11
43.7324873938608
 21
-79.7855879086064
 31
0.0
  0
LINE
  5
   209
  8
0
  6
CONTINUOUS
 62
     7
 10
41.3487743778308
 20
-82.3855879086064
 30
0.0
 11
43.7324873938608
 21
-82.3855879086064
 31
0.0
  0
LINE
  5
   20A
  8
0
  6
CONTINUOUS
 62
     7
 10
41.3487743778308
 20
-85.0255879086065
 30
0.0
 11
43.7324873938608
 21
-85.0255879086065
 31
0.0
  0
LINE
  5
   20B
  8
0
  6
CONTINUOUS
 62
     7
 10
41.3487743778308
 20
-87.6255879086064
 30
0.0
 11
43.7324873938608
 21
-87.6255879086064
 31
0.0
  0
LINE
  5
   20C
  8
0
  6
CONTINUOUS
 62
     7
 10
4.31726664807756
 20
-23.0
 30
0.0
 11
9.75
 21
-23.0
 31
0.0
  0
LINE
  5
   20D
  8
0
  6
CONTINUOUS
 62
     7
 10
4.02494824683128
 20
-29.5
 30
0.0
 11
9.75
 21
-29.5
 31
0.0
  0
LINE
  5
   20E
  8
0
  6
CONTINUOUS
 62
     7
 10
-18.3949570206312
 20
-14.4567993218566
 30
0.0
 11
-17.248357243681
 21
-15.0264005013738
 31
0.0
  0
LINE
  5
   20F
  8
0
  6
CONTINUOUS
 62
     7
 10
-19.5516994356149
 20
-16.7853067805901
 30
0.0
 11
-18.4050996586647
 21
-17.3549079601073
 31
0.0
  0
LINE
  5
   210
  8
0
  6
CONTINUOUS
 62
     7
 10
-15.2500005875046
 20
-18.5
 30
0.0
 11
-15.2500005875046
 21
-18.2504877519279
 31
0.0
  0
LINE
  5
   211
  8
0
  6
CONTINUOUS
 62
     7
 10
-17.8500005875046
 20
-18.5
 30
0.0
 11
-17.8500005875046
 21
-18.2504877519279
 31
0.0
  0
ARC
  5
   212
  8
0
  6
CONTINUOUS
 62
     7
 10
-17.9500560917913
 20
-13.561219530036
 30
0.0
 40
1.0
 50
180.0
 51
243.582999603266
  0
ARC
  5
   213
  8
0
  6
CONTINUOUS
 62
     7
 10
-18.8500005875046
 20
-18.2504877519279
 30
0.0
 40
1.0
 50
0.0
 51
63.5829996032664
  0
ARC
  5
   214
  8
0
  6
CONTINUOUS
 62
     7
 10
-17.9500560917913
 20
-13.561219530036
 30
0.0
 40
3.6
 50
180.0
 51
243.582999603266
  0
ARC
  5
   215
  8
0
  6
CONTINUOUS
 62
     7
 10
-18.8500005875046
 20
-18.2504877519279
 30
0.0
 40
3.6
 50
0.0
 51
63.5829996032664
  0
ARC
  5
   216
  8
0
  6
CONTINUOUS
 62
     7
 10
-12.5499450832179
 20
-13.561219530036
 30
0.0
 40
1.0
 50
296.417000396734
 51
360.0
  0
LINE
  5
   217
  8
0
  6
CONTINUOUS
 62
     7
 10
-13.2516439313282
 20
-15.0264005013738
 30
0.0
 11
-12.105044154378
 21
-14.4567993218566
 31
0.0
  0
ARC
  5
   218
  8
0
  6
CONTINUOUS
 62
     7
 10
-11.6500005875046
 20
-18.2504877519279
 30
0.0
 40
3.6
 50
116.417000396734
 51
180.0
  0
LINE
  5
   219
  8
0
  6
CONTINUOUS
 62
     7
 10
-12.6500005875046
 20
-18.5
 30
0.0
 11
-12.6500005875046
 21
-18.2504877519279
 31
0.0
  0
ARC
  5
   21A
  8
0
  6
CONTINUOUS
 62
     7
 10
-11.6500005875046
 20
-18.2504877519279
 30
0.0
 40
1.0
 50
116.417000396734
 51
180.0
  0
ARC
  5
   21B
  8
0
  6
CONTINUOUS
 62
     7
 10
-12.5499450832179
 20
-13.561219530036
 30
0.0
 40
3.6
 50
296.417000396734
 51
360.0
  0
LINE
  5
   21C
  8
0
  6
CONTINUOUS
 62
     7
 10
-12.0949015163445
 20
-17.3549079601073
 30
0.0
 11
-10.9483017393943
 21
-16.7853067805901
 31
0.0
  0
LINE
  5
   21D
  8
0
  6
CONTINUOUS
 62
     7
 10
-18.5000005875046
 20
-18.5
 30
0.0
 11
-12.0000005875046
 21
-18.5
 31
0.0
  0
LINE
  5
   21E
  8
0
  6
CONTINUOUS
 62
     7
 10
-12.0000005875046
 20
-20.4892751041059
 30
0.0
 11
-12.0000005875046
 21
-18.5
 31
0.0
  0
LINE
  5
   21F
  8
0
  6
CONTINUOUS
 62
     7
 10
-18.5000005875046
 20
-20.5124122493841
 30
0.0
 11
-18.5000005875046
 21
-18.5
 31
0.0
  0
LINE
  5
   220
  8
0
  6
CONTINUOUS
 62
     7
 10
14.8652435877189
 20
-77.4555879086064
 30
0.0
 11
14.8652435877189
 21
-32.0
 31
0.0
  0
LINE
  5
   221
  8
0
  6
CONTINUOUS
 62
     7
 10
21.3652435877189
 20
-77.4555879086064
 30
0.0
 11
21.3652435877189
 21
-32.0
 31
0.0
  0
LINE
  5
   222
  8
0
  6
CONTINUOUS
 62
     7
 10
35.2634480171833
 20
-83.7055879086064
 30
0.0
 11
37.8299010266567
 21
-83.7055879086064
 31
0.0
  0
LINE
  5
   223
  8
0
  6
CONTINUOUS
 62
     7
 10
24.3652435877189
 20
-80.4555879086064
 30
0.0
 11
29.1592349414701
 21
-80.4555879086064
 31
0.0
  0
LINE
  5
   224
  8
0
  6
CONTINUOUS
 62
     7
 10
24.3652435877189
 20
-86.9555879086064
 30
0.0
 11
29.1592349414701
 21
-86.9555879086064
 31
0.0
  0
LINE
  5
   225
  8
0
  6
CONTINUOUS
 62
     7
 10
-3.75000191159689
 20
-22.25
 30
0.0
 11
-1.25000191159689
 21
-22.25
 31
0.0
  0
LINE
  5
   226
  8
0
  6
CONTINUOUS
 62
     7
 10
-3.75000191159689
 20
-30.25
 30
0.0
 11
-1.25000191159689
 21
-30.25
 31
0.0
  0
LINE
  5
   227
  8
0
  6
CONTINUOUS
 62
     7
 10
-3.75000191159689
 20
-30.25
 30
0.0
 11
-3.75000191159689
 21
-28.75
 31
0.0
  0
LINE
  5
   228
  8
0
  6
CONTINUOUS
 62
     7
 10
-1.25000191159689
 20
-30.25
 30
0.0
 11
-1.25000191159689
 21
-28.75
 31
0.0
  0
LINE
  5
   229
  8
0
  6
CONTINUOUS
 62
     7
 10
-9.61215088027096
 20
-22.9867582996115
 30
0.0
 11
-3.7500019115969
 21
-23.25
 31
0.0
  0
LINE
  5
   22A
  8
0
  6
CONTINUOUS
 62
     7
 10
-9.07393451363792
 20
-29.50232146476
 30
0.0
 11
-3.7500019115969
 21
-29.25
 31
0.0
  0
LINE
  5
   22B
  8
0
  6
CONTINUOUS
 62
     7
 10
-1.25000191159688
 20
-23.25
 30
0.0
 11
4.31726664807757
 21
-23.0
 31
0.0
  0
LINE
  5
   22C
  8
0
  6
CONTINUOUS
 62
     7
 10
-1.25000191159688
 20
-29.25
 30
0.0
 11
4.02494824683129
 21
-29.5
 31
0.0
  0
LINE
  5
   22D
  8
0
  6
CONTINUOUS
 62
     7
 10
-5.50000191159689
 20
-28.75
 30
0.0
 11
-5.50000191159689
 21
-23.75
 31
0.0
  0
LINE
  5
   22E
  8
0
  6
CONTINUOUS
 62
     7
 10
0.49999808840311
 20
-28.75
 30
0.0
 11
0.49999808840311
 21
-23.75
 31
0.0
  0
LINE
  5
   22F
  8
0
  6
CONTINUOUS
 62
     7
 10
-5.50000191159689
 20
-23.75
 30
0.0
 11
0.49999808840311
 21
-23.75
 31
0.0
  0
LINE
  5
   230
  8
0
  6
CONTINUOUS
 62
     7
 10
-5.50000191159689
 20
-28.75
 30
0.0
 11
0.49999808840311
 21
-28.75
 31
0.0
  0
LINE
  5
   231
  8
0
  6
CONTINUOUS
 62
     7
 10
-1.25000191159689
 20
-23.75
 30
0.0
 11
-1.25000191159689
 21
-22.25
 31
0.0
  0
LINE
  5
   232
  8
0
  6
CONTINUOUS
 62
     7
 10
-3.75000191159689
 20
-23.75
 30
0.0
 11
-3.75000191159689
 21
-22.25
 31
0.0
  0
LINE
  5
   233
  8
0
  6
CONTINUOUS
 62
     7
 10
-5.00000191159689
 20
-28.25
 30
0.0
 11
-5.00000191159689
 21
-24.25
 31
0.0
  0
LINE
  5
   234
  8
0
  6
CONTINUOUS
 62
     7
 10
-1.91159688966991E-6
 20
-28.25
 30
0.0
 11
-1.91159688966991E-6
 21
-24.25
 31
0.0
  0
LINE
  5
   235
  8
0
  6
CONTINUOUS
 62
     7
 10
-1.91159688078812E-6
 20
-24.25
 30
0.0
 11
0.499998088403116
 21
-23.75
 31
0.0
  0
LINE
  5
   236
  8
0
  6
CONTINUOUS
 62
     7
 10
-1.91159688078812E-6
 20
-28.25
 30
0.0
 11
0.499998088403119
 21
-28.75
 31
0.0
  0
LINE
  5
   237
  8
0
  6
CONTINUOUS
 62
     7
 10
-5.50000191159689
 20
-28.75
 30
0.0
 11
-5.00000191159689
 21
-28.25
 31
0.0
  0
LINE
  5
   238
  8
0
  6
CONTINUOUS
 62
     7
 10
-5.50000191159689
 20
-23.75
 30
0.0
 11
-5.00000191159688
 21
-24.25
 31
0.0
  0
LINE
  5
   239
  8
0
  6
CONTINUOUS
 62
     7
 10
-4.25000191159689
 20
-27.5
 30
0.0
 11
-4.25000191159689
 21
-25.0
 31
0.0
  0
LINE
  5
   23A
  8
0
  6
CONTINUOUS
 62
     7
 10
-0.75000191159689
 20
-27.5
 30
0.0
 11
-0.75000191159689
 21
-25.0
 31
0.0
  0
LINE
  5
   23B
  8
0
  6
CONTINUOUS
 62
     7
 10
-4.25000191159689
 20
-25.0
 30
0.0
 11
-0.75000191159689
 21
-25.0
 31
0.0
  0
LINE
  5
   23C
  8
0
  6
CONTINUOUS
 62
     7
 10
-4.25000191159689
 20
-27.5
 30
0.0
 11
-0.75000191159689
 21
-27.5
 31
0.0
  0
LINE
  5
   23D
  8
0
  6
CONTINUOUS
 62
     7
 10
-3.74537217609711
 20
-25.8333333333333
 30
0.0
 11
-1.25463164709667
 21
-25.8333333333333
 31
0.0
  0
LINE
  5
   23E
  8
0
  6
CONTINUOUS
 62
     7
 10
-3.74537217609711
 20
-26.6666666666667
 30
0.0
 11
-1.25463164709667
 21
-26.6666666666667
 31
0.0
  0
LINE
  5
   23F
  8
0
  6
CONTINUOUS
 62
     7
 10
-3.74537217609711
 20
-26.6666666666667
 30
0.0
 11
-3.74537217609711
 21
-25.0612975166781
 31
0.0
  0
LINE
  5
   240
  8
0
  6
CONTINUOUS
 62
     7
 10
-1.25463164709667
 20
-26.6666666666667
 30
0.0
 11
-1.25463164709667
 21
-25.0612975166781
 31
0.0
  0
LINE
  5
   241
  8
0
  6
CONTINUOUS
 62
     7
 10
-4.25000191159689
 20
-26.0416666666667
 30
0.0
 11
-3.74537217609711
 21
-26.0416666666667
 31
0.0
  0
LINE
  5
   242
  8
0
  6
CONTINUOUS
 62
     7
 10
-1.25463164709667
 20
-26.0416666666667
 30
0.0
 11
-0.75000191159689
 21
-26.0416666666667
 31
0.0
  0
LINE
  5
   243
  8
0
  6
CONTINUOUS
 62
     7
 10
35.2634480171833
 20
-86.9555879086064
 30
0.0
 11
35.2634480171833
 21
-80.4555879086064
 31
0.0
  0
LINE
  5
   244
  8
0
  6
CONTINUOUS
 62
     7
 10
32.1295744556351
 20
-80.4555879086064
 30
0.0
 11
35.2634480171833
 21
-80.4555879086064
 31
0.0
  0
LINE
  5
   245
  8
0
  6
CONTINUOUS
 62
     7
 10
32.1295744556351
 20
-86.9555879086064
 30
0.0
 11
35.2634480171833
 21
-86.9555879086064
 31
0.0
  0
LINE
  5
   246
  8
0
  6
CONTINUOUS
 62
     7
 10
35.2634480171833
 20
-81.1055879086064
 30
0.0
 11
37.8299010266567
 21
-81.1055879086064
 31
0.0
  0
LINE
  5
   247
  8
0
  6
CONTINUOUS
 62
     7
 10
38.3299010266567
 20
-80.971613312391
 30
0.0
 11
39.5487743778308
 21
-80.2678964549825
 31
0.0
  0
LINE
  5
   248
  8
0
  6
CONTINUOUS
 62
     7
 10
39.6299010266567
 20
-83.2232793622305
 30
0.0
 11
40.8487743778308
 21
-82.5195625048221
 31
0.0
  0
ARC
  5
   249
  8
0
  6
CONTINUOUS
 62
     7
 10
37.8299010266567
 20
-80.1055879086064
 30
0.0
 40
1.0
 50
270.0
 51
300.0
  0
ARC
  5
   24A
  8
0
  6
CONTINUOUS
 62
     7
 10
41.3487743778308
 20
-83.3855879086064
 30
0.0
 40
1.0
 50
90.0
 51
120.0
  0
ARC
  5
   24B
  8
0
  6
CONTINUOUS
 62
     7
 10
37.8299010266567
 20
-80.1055879086064
 30
0.0
 40
3.6
 50
270.0
 51
300.0
  0
ARC
  5
   24C
  8
0
  6
CONTINUOUS
 62
     7
 10
41.3487743778308
 20
-83.3855879086064
 30
0.0
 40
3.6
 50
90.0
 51
120.0
  0
ARC
  5
   24D
  8
0
  6
CONTINUOUS
 62
     7
 10
41.3487743778308
 20
-84.0255879086064
 30
0.0
 40
3.6
 50
240.0
 51
270.0
  0
ARC
  5
   24E
  8
0
  6
CONTINUOUS
 62
     7
 10
41.3487743778308
 20
-84.0255879086064
 30
0.0
 40
1.0
 50
240.0
 51
270.0
  0
ARC
  5
   24F
  8
0
  6
CONTINUOUS
 62
     7
 10
37.8299010266567
 20
-87.3055879086064
 30
0.0
 40
3.6
 50
60.0
 51
90.0
  0
LINE
  5
   250
  8
0
  6
CONTINUOUS
 62
     7
 10
38.3299010266567
 20
-86.4395625048221
 30
0.0
 11
39.5487743778308
 21
-87.1432793622305
 31
0.0
  0
ARC
  5
   251
  8
0
  6
CONTINUOUS
 62
     7
 10
37.8299010266567
 20
-87.3055879086064
 30
0.0
 40
1.0
 50
60.0000000000001
 51
90.0
  0
LINE
  5
   252
  8
0
  6
CONTINUOUS
 62
     7
 10
35.2634480171833
 20
-86.3055879086064
 30
0.0
 11
37.8299010266567
 21
-86.3055879086064
 31
0.0
  0
LINE
  5
   253
  8
0
  6
CONTINUOUS
 62
     7
 10
39.6299010266567
 20
-84.1878964549825
 30
0.0
 11
40.8487743778308
 21
-84.8916133123909
 31
0.0
  0
ARC
  5
   254
  8
0
  6
CONTINUOUS
 62
     7
 10
24.3652435877189
 20
-77.4555879086064
 30
0.0
 40
3.0
 50
180.0
 51
270.0
  0
ARC
  5
   255
  8
0
  6
CONTINUOUS
 62
     7
 10
24.3652435877189
 20
-77.4555879086064
 30
0.0
 40
9.5
 50
180.0
 51
270.0
  0
ARC
  5
   256
  8
0
  6
CONTINUOUS
 62
     7
 10
-9.50000058750461
 20
-20.4892751041059
 30
0.0
 40
2.5
 50
180.0
 51
267.428841749726
  0
ARC
  5
   257
  8
0
  6
CONTINUOUS
 62
     7
 10
12.3652435877189
 20
-32.0
 30
0.0
 40
2.5
 50
0.0
 51
90.0
  0
ARC
  5
   258
  8
0
  6
CONTINUOUS
 62
     7
 10
12.3652435877189
 20
-32.0
 30
0.0
 40
9.0
 50
0.0
 51
90.0
  0
ARC
  5
   259
  8
0
  6
CONTINUOUS
 62
     7
 10
-9.5000005875046
 20
-20.5124122493841
 30
0.0
 40
9.0
 50
180.0
 51
272.713435044985
  0
LINE
  5
   25A
  8
0
  6
CONTINUOUS
 62
     3
 10
-8.94994508321793
 20
-8.0
 30
0.0
 11
-8.75
 21
-8.0
 31
0.0
  0
LINE
  5
   25B
  8
0
  6
CONTINUOUS
 62
     3
 10
-18.9500560917913
 20
-8.0
 30
0.0
 11
-18.75
 21
-8.0
 31
0.0
  0
LINE
  5
   25C
  8
0
  6
CONTINUOUS
 62
     3
 10
-8.94994508321793
 20
-11.5
 30
0.0
 11
-7.75
 21
-11.5
 31
0.0
  0
LINE
  5
   25D
  8
0
  6
CONTINUOUS
 62
     3
 10
-18.9500560917913
 20
-11.5
 30
0.0
 11
-11.5499450832179
 21
-11.5
 31
0.0
  0
LINE
  5
   25E
  8
0
  6
CONTINUOUS
 62
     3
 10
-15.3290961391837
 20
-17.5
 30
0.0
 11
-15.1709050358255
 21
-17.5
 31
0.0
  0
LINE
  5
   25F
  8
0
  6
CONTINUOUS
 62
     3
 10
-12.3108849451695
 20
-17.5
 30
0.0
 11
-7.75
 21
-17.5
 31
0.0
  0
LINE
  5
   260
  8
0
  6
CONTINUOUS
 62
   130
 10
-7.25000190734863
 20
-23.0928313652271
 30
0.0
 11
-7.25000190734863
 21
-12.25
 31
0.0
  0
LINE
  5
   261
  8
0
  6
CONTINUOUS
 62
   130
 10
-5.00000190734863
 20
-23.1938683448466
 30
0.0
 11
-5.00000190734863
 21
-12.25
 31
0.0
  0
LINE
  5
   262
  8
0
  6
CONTINUOUS
 62
   130
 10
-1.91584513231646E-6
 20
-23.1938683448466
 30
0.0
 11
-1.91584513231646E-6
 21
-12.25
 31
0.0
  0
LINE
  5
   263
  8
0
  6
CONTINUOUS
 62
   130
 10
9.75
 20
-23.0
 30
0.0
 11
9.75
 21
-12.25
 31
0.0
  0
LINE
  5
   264
  8
0
  6
CONTINUOUS
 62
   210
 10
-2.75000190734863
 20
20.75
 30
0.0
 11
-2.25000095367432
 21
20.75
 31
0.0
  0
LINE
  5
   265
  8
0
  6
CONTINUOUS
 62
   210
 10
-27.7500019073486
 20
20.75
 30
0.0
 11
-17.5000019073486
 21
20.75
 31
0.0
  0
LINE
  5
   266
  8
0
  6
CONTINUOUS
 62
   210
 10
-31.4999953345759
 20
7.75
 30
0.0
 11
0.999998450326269
 21
7.75
 31
0.0
  0
LINE
  5
   267
  8
0
  6
CONTINUOUS
 62
   130
 10
-31.4999962061758
 20
-32.25
 30
0.0
 11
0.999998952325992
 21
-32.25
 31
0.0
  0
LINE
  5
   268
  8
0
  6
CONTINUOUS
 62
   130
 10
-27.7500019073486
 20
-45.25
 30
0.0
 11
-20.25
 21
-45.25
 31
0.0
  0
LINE
  5
   269
  8
0
  6
CONTINUOUS
 62
   130
 10
-2.75000190734863
 20
-45.25
 30
0.0
 11
-2.25000190734863
 21
-45.25
 31
0.0
  0
LINE
  5
   26A
  8
0
  6
CONTINUOUS
 62
   130
 10
0.999998952325992
 20
-32.25
 30
0.0
 11
7.75
 21
-32.25
 31
0.0
  0
LINE
  5
   26B
  8
0
  6
CONTINUOUS
 62
     7
 10
9.75
 20
-23.0
 30
0.0
 11
12.3652435877189
 21
-23.0
 31
0.0
  0
LINE
  5
   26C
  8
0
  6
CONTINUOUS
 62
     7
 10
9.75
 20
-29.5
 30
0.0
 11
12.3652435877189
 21
-29.5
 31
0.0
  0
LINE
  5
   26D
  8
0
  6
CONTINUOUS
 62
   210
 10
0.999998450326269
 20
7.75
 30
0.0
 11
6.58645248413086
 21
7.75
 31
0.0
  0
TEXT
  5
   26E
  8
0
  6
CONTINUOUS
 62
     7
 10
-21.274292320013
 20
1.13752934336662
 30
0.0
 40
2.50000005960464
  1
6
 41
0.899999932169916
 72
     1
 11
-20.3742923736572
 21
2.38752937316895
 31
0.0
 73
     2
  0
TEXT
  5
   26F
  8
0
  6
CONTINUOUS
 62
     7
 10
-11.1981080472469
 20
1.13752934336662
 30
0.0
 40
2.50000005960464
  1
5
 41
0.899999932169916
 72
     1
 11
-10.2981081008911
 21
2.38752937316895
 31
0.0
 73
     2
  0
INSERT
  5
   270
  8
0
  6
CONTINUOUS
 62
     7
  2
*UDIM326
 10
0.0
 20
0.0
 30
0.0
  0
INSERT
  5
   271
  8
0
  6
CONTINUOUS
 62
     7
  2
*UDIM327
 10
0.0
 20
0.0
 30
0.0
  0
INSERT
  5
   272
  8
0
  6
CONTINUOUS
 62
     7
  2
*UDIM328
 10
0.0
 20
0.0
 30
0.0
  0
INSERT
  5
   273
  8
0
  6
CONTINUOUS
 62
     7
  2
*UDIM329
 10
0.0
 20
0.0
 30
0.0
  0
INSERT
  5
   274
  8
0
  6
CONTINUOUS
 62
     7
  2
*UDIM330
 10
0.0
 20
0.0
 30
0.0
  0
INSERT
  5
   275
  8
0
  6
CONTINUOUS
 62
     7
  2
*UDIM331
 10
0.0
 20
0.0
 30
0.0
  0
INSERT
  5
   276
  8
0
  6
CONTINUOUS
 62
     7
  2
*UDIM332
 10
0.0
 20
0.0
 30
0.0
  0
INSERT
  5
   277
  8
0
  6
CONTINUOUS
 62
     7
  2
*UDIM333
 10
0.0
 20
0.0
 30
0.0
  0
INSERT
  5
   278
  8
0
  6
CONTINUOUS
 62
     7
  2
*UDIM334
 10
0.0
 20
0.0
 30
0.0
  0
INSERT
  5
   279
  8
0
  6
CONTINUOUS
 62
     7
  2
*UDIM335
 10
0.0
 20
0.0
 30
0.0
  0
INSERT
  5
   27A
  8
0
  6
CONTINUOUS
 62
     7
  2
*UDIM336
 10
0.0
 20
0.0
 30
0.0
  0
INSERT
  5
   27B
  8
0
  6
CONTINUOUS
 62
     7
  2
*UDIM337
 10
0.0
 20
0.0
 30
0.0
  0
INSERT
  5
   27C
  8
0
  6
CONTINUOUS
 62
     7
  2
*UDIM338
 10
0.0
 20
0.0
 30
0.0
  0
TEXT
  5
   27D
  8
0
  6
CONTINUOUS
 62
     7
 10
86.9505080716064
 20
-89.4622573927045
 30
0.0
 40
1.50000001490116
  1
X3
 41
0.916666689183977
 72
     1
 11
88.1880081146956
 21
-88.7122573852539
 31
0.0
 73
     2
  0
TEXT
  5
   27E
  8
0
  6
CONTINUOUS
 62
     7
 10
51.4824867383151
 20
-82.0130920633664
 30
0.0
 40
1.50000001490116
  1
6
 50
90.0
 41
0.916666689183977
 72
     1
 11
50.7324867308638
 21
-81.4630920439959
 31
0.0
 73
     2
  0
TEXT
  5
   27F
  8
0
  6
CONTINUOUS
 62
     7
 10
51.4824867383151
 20
-87.0130920633664
 30
0.0
 40
1.50000001490116
  1
5
 50
90.0
 41
0.916666689183977
 72
     1
 11
50.7324867308638
 21
-86.4630920439959
 31
0.0
 73
     2
  0
TEXT
  5
   280
  8
0
  6
CONTINUOUS
 62
     7
 10
51.4824867383151
 20
-92.0130920633664
 30
0.0
 40
1.50000001490116
  1
4
 50
90.0
 41
0.916666689183977
 72
     1
 11
50.7324867308638
 21
-91.4630920439959
 31
0.0
 73
     2
  0
TEXT
  5
   281
  8
0
  6
CONTINUOUS
 62
     7
 10
51.4824867383151
 20
-97.0130920633664
 30
0.0
 40
1.50000001490116
  1
1
 50
90.0
 41
0.916666689183977
 72
     1
 11
50.7324867308638
 21
-96.4630920439959
 31
0.0
 73
     2
  0
TEXT
  5
   282
  8
0
  6
CONTINUOUS
 62
     7
 10
-3.89667553201318
 20
-9.80134204030037
 30
0.0
 40
2.50000005960464
  1
LOAD
 41
0.899999932169916
 72
     1
 11
0.378324240446091
 21
-8.55134201049805
 31
0.0
 73
     2
  0
TEXT
  5
   283
  8
0
  6
CONTINUOUS
 62
     7
 10
-3.89667553201318
 20
1.19865891337395
 30
0.0
 40
2.50000005960464
  1
LINE
 41
0.899999932169916
 72
     1
 11
0.378324240446091
 21
2.44865894317627
 31
0.0
 73
     2
  0
TEXT
  5
   284
  8
0
  6
CONTINUOUS
 62
     7
 10
-36.5972748974959
 20
-27.9466304853559
 30
0.0
 40
1.50000001490116
  1
400 A
 41
0.916666689183977
 72
     1
 11
-33.2972747832537
 21
-27.1966304779053
 31
0.0
 73
     2
  0
TEXT
  5
   285
  8
0
  6
CONTINUOUS
 62
     7
 10
-36.5972748974959
 20
-23.0180587843061
 30
0.0
 40
1.50000001490116
  1
320 A
 41
0.916666689183977
 72
     1
 11
-33.2972747832537
 21
-22.2680587768555
 31
0.0
 73
     2
  0
TEXT
  5
   286
  8
0
  6
CONTINUOUS
 62
     7
 10
-36.5972748974959
 20
-18.0894870832562
 30
0.0
 40
1.50000001490116
  1
250 A
 41
0.916666689183977
 72
     1
 11
-33.2972747832537
 21
-17.3394870758057
 31
0.0
 73
     2
  0
TEXT
  5
   287
  8
0
  6
CONTINUOUS
 62
     7
 10
-36.5972748974959
 20
-13.1609163358808
 30
0.0
 40
1.50000001490116
  1
200 A
 41
0.916666689183977
 72
     1
 11
-33.2972747832537
 21
-12.4109163284302
 31
0.0
 73
     2
  0
TEXT
  5
   288
  8
0
  6
CONTINUOUS
 62
     7
 10
-36.5972748974959
 20
-8.23234511166811
 30
0.0
 40
1.50000001490116
  1
160 A
 41
0.916666689183977
 72
     1
 11
-33.2972747832537
 21
-7.48234510421753
 31
0.0
 73
     2
  0
TEXT
  5
   289
  8
0
  6
CONTINUOUS
 62
     7
 10
-36.5972748974959
 20
-3.30377388745546
 30
0.0
 40
1.50000001490116
  1
100 A
 41
0.916666689183977
 72
     1
 11
-33.2972747832537
 21
-2.55377388000488
 31
0.0
 73
     2
  0
TEXT
  5
   28A
  8
0
  6
CONTINUOUS
 62
     7
 10
-33.2098883406818
 20
1.1884705722332
 30
0.0
 40
2.50000005960464
  1
In
 41
0.899999932169916
 72
     1
 11
-31.1848884522915
 21
2.43847060203552
 31
0.0
 73
     2
  0
LINE
  5
   28B
  8
0
  6
CONTINUOUS
 62
   210
 10
118.853225708008
 20
5.75
 30
0.0
 11
118.853225708008
 21
-12.25
 31
0.0
  0
LINE
  5
   28C
  8
0
  6
CONTINUOUS
 62
   210
 10
120.853225708008
 20
7.75
 30
0.0
 11
128.586565900621
 21
7.75
 31
0.0
  0
LINE
  5
   28D
  8
0
  6
CONTINUOUS
 62
   210
 10
178.730269992816
 20
7.75
 30
0.0
 11
185.619885517026
 21
7.75
 31
0.0
  0
LINE
  5
   28E
  8
0
  6
CONTINUOUS
 62
   210
 10
185.103225708008
 20
3.5
 30
0.0
 11
185.103225708008
 21
3.20000004768372
 31
0.0
  0
LINE
  5
   28F
  8
0
  6
CONTINUOUS
 62
   210
 10
185.103225708008
 20
1.60000002384186
 30
0.0
 11
185.103225708008
 21
1.50000011920929
 31
0.0
  0
LINE
  5
   290
  8
0
  6
CONTINUOUS
 62
   210
 10
193.103225708008
 20
5.5
 30
0.0
 11
193.103225708008
 21
-12.25
 31
0.0
  0
LINE
  5
   291
  8
0
  6
CONTINUOUS
 62
   210
 10
178.730269992816
 20
5.5
 30
0.0
 11
193.103225708008
 21
5.5
 31
0.0
  0
LINE
  5
   292
  8
0
  6
CONTINUOUS
 62
   210
 10
193.103225708008
 20
-1.25
 30
0.0
 11
195.153224945068
 21
-1.25
 31
0.0
  0
LINE
  5
   293
  8
0
  6
CONTINUOUS
 62
   210
 10
195.153224945068
 20
5.5
 30
0.0
 11
195.153224945068
 21
-12.25
 31
0.0
  0
LINE
  5
   294
  8
0
  6
CONTINUOUS
 62
   210
 10
183.603231430054
 20
3.5
 30
0.0
 11
188.603231430054
 21
3.5
 31
0.0
  0
LINE
  5
   295
  8
0
  6
CONTINUOUS
 62
   210
 10
153.103225708008
 20
20.75
 30
0.0
 11
155.103225708008
 21
20.75
 31
0.0
  0
LINE
  5
   296
  8
0
  6
CONTINUOUS
 62
   210
 10
151.103225708008
 20
20.75
 30
0.0
 11
155.103225708008
 21
20.75
 31
0.0
  0
LINE
  5
   297
  8
0
  6
CONTINUOUS
 62
   210
 10
151.103224013457
 20
20.750000405744
 30
0.0
 11
128.586565571008
 21
7.74999980969766
 31
0.0
  0
LINE
  5
   298
  8
0
  6
CONTINUOUS
 62
   210
 10
163.103226176423
 20
20.7499995648751
 30
0.0
 11
185.619886270684
 21
7.74999956487514
 31
0.0
  0
LINE
  5
   299
  8
0
  6
CONTINUOUS
 62
   130
 10
195.353225708008
 20
-12.25
 30
0.0
 11
195.353225708008
 21
-30.25
 31
0.0
  0
LINE
  5
   29A
  8
0
  6
CONTINUOUS
 62
   130
 10
178.730269992816
 20
-32.25
 30
0.0
 11
185.619885541844
 21
-32.25
 31
0.0
  0
LINE
  5
   29B
  8
0
  6
CONTINUOUS
 62
   130
 10
120.853225708008
 20
-32.25
 30
0.0
 11
128.586566580073
 21
-32.25
 31
0.0
  0
LINE
  5
   29C
  8
0
  6
CONTINUOUS
 62
   130
 10
118.853225708008
 20
-12.25
 30
0.0
 11
182.853226751089
 21
-12.25
 31
0.0
  0
LINE
  5
   29D
  8
0
  6
CONTINUOUS
 62
   130
 10
191.040722846985
 20
-12.25
 30
0.0
 11
195.353225708008
 21
-12.25
 31
0.0
  0
LINE
  5
   29E
  8
0
  6
CONTINUOUS
 62
   130
 10
179.103225708008
 20
-12.25
 30
0.0
 11
179.103225708008
 21
-30.0
 31
0.0
  0
LINE
  5
   29F
  8
0
  6
CONTINUOUS
 62
   130
 10
178.730269992816
 20
-30.0
 30
0.0
 11
179.103225708008
 21
-30.0
 31
0.0
  0
LINE
  5
   2A0
  8
0
  6
CONTINUOUS
 62
   130
 10
181.353225708008
 20
-12.25
 30
0.0
 11
181.353225708008
 21
-30.25
 31
0.0
  0
LINE
  5
   2A1
  8
0
  6
CONTINUOUS
 62
   130
 10
152.603225708008
 20
-45.25
 30
0.0
 11
155.103225708008
 21
-45.25
 31
0.0
  0
LINE
  5
   2A2
  8
0
  6
CONTINUOUS
 62
   130
 10
185.619886403336
 20
-32.2499995026172
 30
0.0
 11
163.103226309075
 21
-45.2499995026172
 31
0.0
  0
LINE
  5
   2A3
  8
0
  6
CONTINUOUS
 62
   130
 10
151.103225708008
 20
-45.25
 30
0.0
 11
152.603225708008
 21
-45.25
 31
0.0
  0
LINE
  5
   2A4
  8
0
  6
CONTINUOUS
 62
   130
 10
128.586566820775
 20
-32.250000138969
 30
0.0
 11
151.103225263223
 21
-45.2500007350153
 31
0.0
  0
LINE
  5
   2A5
  8
0
  6
CONTINUOUS
 62
     1
 10
155.103225708008
 20
47.75
 30
0.0
 11
159.103225708008
 21
47.75
 31
0.0
  0
LINE
  5
   2A6
  8
0
  6
CONTINUOUS
 62
     1
 10
155.103225708008
 20
-72.25
 30
0.0
 11
159.103225708008
 21
-72.25
 31
0.0
  0
LINE
  5
   2A7
  8
0
  6
CONTINUOUS
 62
     1
 10
159.103225708008
 20
47.75
 30
0.0
 11
159.103225708008
 21
20.75
 31
0.0
  0
LINE
  5
   2A8
  8
0
  6
CONTINUOUS
 62
     1
 10
155.103225708008
 20
47.7499985694885
 30
0.0
 11
155.103225708008
 21
20.75
 31
0.0
  0
LINE
  5
   2A9
  8
0
  6
CONTINUOUS
 62
     3
 10
182.853225708008
 20
-9.5
 30
0.0
 11
182.853225708008
 21
-17.5
 31
0.0
  0
LINE
  5
   2AA
  8
0
  6
CONTINUOUS
 62
     3
 10
180.853225708008
 20
-9.5
 30
0.0
 11
182.853225708008
 21
-9.5
 31
0.0
  0
LINE
  5
   2AB
  8
0
  6
CONTINUOUS
 62
     3
 10
180.853225708008
 20
1.5
 30
0.0
 11
180.853225708008
 21
-9.5
 31
0.0
  0
LINE
  5
   2AC
  8
0
  6
CONTINUOUS
 62
     3
 10
180.853225708008
 20
1.5
 30
0.0
 11
191.353225708008
 21
1.5
 31
0.0
  0
LINE
  5
   2AD
  8
0
  6
CONTINUOUS
 62
     3
 10
191.353225708008
 20
1.5
 30
0.0
 11
191.353225708008
 21
-11.5
 31
0.0
  0
LINE
  5
   2AE
  8
0
  6
CONTINUOUS
 62
     3
 10
191.353225786509
 20
-11.5000001135188
 30
0.0
 11
188.853225741805
 21
-17.5000001433211
 31
0.0
  0
LINE
  5
   2AF
  8
0
  6
CONTINUOUS
 62
     3
 10
182.853225708008
 20
-17.5
 30
0.0
 11
188.853225708008
 21
-17.5
 31
0.0
  0
LINE
  5
   2B0
  8
0
  6
CONTINUOUS
 62
   210
 10
195.353225708008
 20
5.75
 30
0.0
 11
195.353225708008
 21
-12.25
 31
0.0
  0
LINE
  5
   2B1
  8
0
  6
CONTINUOUS
 62
   210
 10
183.603231430054
 20
4.5
 30
0.0
 11
183.603231430054
 21
3.5
 31
0.0
  0
LINE
  5
   2B2
  8
0
  6
CONTINUOUS
 62
   130
 10
118.853225708008
 20
-12.25
 30
0.0
 11
118.853225708008
 21
-30.25
 31
0.0
  0
LINE
  5
   2B3
  8
0
  6
CONTINUOUS
 62
     2
 10
185.70322561264
 20
1.60000002384186
 30
0.0
 11
185.70322561264
 21
1.5
 31
0.0
  0
LINE
  5
   2B4
  8
0
  6
DOT
 62
     1
 10
155.103225708008
 20
-65.25
 30
0.0
 11
159.103225708008
 21
-65.25
 31
0.0
  0
LINE
  5
   2B5
  8
0
  6
DOT
 62
     1
 10
155.103225708008
 20
-54.25
 30
0.0
 11
159.103225708008
 21
-54.25
 31
0.0
  0
LINE
  5
   2B6
  8
0
  6
DOT
 62
     1
 10
155.103225708008
 20
29.75
 30
0.0
 11
159.103225708008
 21
29.75
 31
0.0
  0
LINE
  5
   2B7
  8
0
  6
DOT
 62
     1
 10
155.103225708008
 20
40.75
 30
0.0
 11
159.103225708008
 21
40.75
 31
0.0
  0
ARC
  5
   2B8
  8
0
  6
CONTINUOUS
 62
   210
 10
120.853227581641
 20
5.74999759483807
 30
0.0
 40
2.00000263636545
 50
449.99993841242
 51
539.999929444104
  0
ARC
  5
   2B9
  8
0
  6
CONTINUOUS
 62
   130
 10
120.85322509624
 20
-30.2500025512903
 30
0.0
 40
1.9999977254957
 50
539.999889153448
 51
629.999975317237
  0
ARC
  5
   2BA
  8
0
  6
CONTINUOUS
 62
   130
 10
179.353225724319
 20
-30.2500016460251
 30
0.0
 40
2.00000012389469
 50
629.999997255351
 51
720.000107433739
  0
ARC
  5
   2BB
  8
0
  6
CONTINUOUS
 62
   130
 10
193.35322267934
 20
-30.2499964354646
 30
0.0
 40
2.00000318801928
 50
270.00009560712
 51
359.999875499006
  0
ARC
  5
   2BC
  8
0
  6
CONTINUOUS
 62
   210
 10
193.353229157618
 20
5.75000454487689
 30
0.0
 40
1.99999529419138
 50
359.999872504499
 51
450.000128072412
  0
ARC
  5
   2BD
  8
0
  6
CONTINUOUS
 62
   210
 10
182.603232469368
 20
4.50000078287746
 30
0.0
 40
0.999999244918608
 50
359.999975529853
 51
450.000057348148
  0
LINE
  5
   2BE
  8
0
  6
DASHDOT
 62
     7
 10
151.784560432367
 20
35.25
 30
0.0
 11
162.880700072723
 21
35.25
 31
0.0
  0
LINE
  5
   2BF
  8
0
  6
DASHDOT
 62
     7
 10
151.784560432367
 20
-59.75
 30
0.0
 11
162.880700072723
 21
-59.75
 31
0.0
  0
LINE
  5
   2C0
  8
0
  6
CONTINUOUS
 62
     1
 10
159.103225708008
 20
-45.25
 30
0.0
 11
159.103225708008
 21
-72.25
 31
0.0
  0
LINE
  5
   2C1
  8
0
  6
CONTINUOUS
 62
     1
 10
155.103225708008
 20
-45.25
 30
0.0
 11
155.103225708008
 21
-72.25
 31
0.0
  0
LINE
  5
   2C2
  8
0
  6
CONTINUOUS
 62
     7
 10
178.730269992816
 20
12.9637350564563
 30
0.0
 11
178.730269992816
 21
-40.734714253844
 31
0.0
  0
LINE
  5
   2C3
  8
0
  6
CONTINUOUS
 62
     7
 10
192.103225708008
 20
3.20000004768372
 30
0.0
 11
192.103225708008
 21
1.60000002384186
 31
0.0
  0
LINE
  5
   2C4
  8
0
  6
CONTINUOUS
 62
   210
 10
188.603231430054
 20
4.5
 30
0.0
 11
188.603231430054
 21
3.5
 31
0.0
  0
LINE
  5
   2C5
  8
0
  6
DASHDOT
 62
     7
 10
186.103231430054
 20
8.6158858765005
 30
0.0
 11
186.103231430054
 21
2.36354262705834
 31
0.0
  0
ARC
  5
   2C6
  8
0
  6
CONTINUOUS
 62
   210
 10
189.603231430054
 20
4.5
 30
0.0
 40
1.0
 50
449.999999844103
 51
539.999999844103
  0
LINE
  5
   2C7
  8
0
  6
CONTINUOUS
 62
     7
 10
195.153224945068
 20
5.5
 30
0.0
 11
195.353225708008
 21
5.5
 31
0.0
  0
LINE
  5
   2C8
  8
0
  6
CONTINUOUS
 62
     7
 10
178.730269992816
 20
3.20000004768372
 30
0.0
 11
192.103225708008
 21
3.20000004768372
 31
0.0
  0
LINE
  5
   2C9
  8
0
  6
CONTINUOUS
 62
     7
 10
178.730269992816
 20
1.60000002384186
 30
0.0
 11
192.103225708008
 21
1.60000002384186
 31
0.0
  0
INSERT
  5
   2CA
  8
0
  6
CONTINUOUS
 62
     7
  2
*HATCH117
 10
177.853225708008
 20
0.0
 30
0.0
 50
269.999999844103
  0
INSERT
  5
   2CB
  8
0
  6
CONTINUOUS
 62
     7
  2
*HATCH118
 10
177.853225708008
 20
0.0
 30
0.0
 50
269.999999844103
  0
LINE
  5
   2CC
  8
0
  6
CONTINUOUS
 62
   210
 10
185.619885517026
 20
7.75
 30
0.0
 11
193.353224754334
 21
7.75
 31
0.0
  0
LINE
  5
   2CD
  8
0
  6
CONTINUOUS
 62
   130
 10
185.619885541844
 20
-32.25
 30
0.0
 11
193.353225708008
 21
-32.25
 31
0.0
  0
LINE
  5
   2CE
  8
0
  6
CONTINUOUS
 62
   130
 10
128.586566580073
 20
-32.25
 30
0.0
 11
178.730269992816
 21
-32.25
 31
0.0
  0
LINE
  5
   2CF
  8
0
  6
CONTINUOUS
 62
   210
 10
128.586565900621
 20
7.75
 30
0.0
 11
178.730269992816
 21
7.75
 31
0.0
  0
LINE
  5
   2D0
  8
0
  6
CONTINUOUS
 62
   210
 10
159.103225708008
 20
20.75
 30
0.0
 11
163.103225422765
 21
20.75
 31
0.0
  0
LINE
  5
   2D1
  8
0
  6
CONTINUOUS
 62
   210
 10
155.103225708008
 20
20.75
 30
0.0
 11
159.103225708008
 21
20.75
 31
0.0
  0
LINE
  5
   2D2
  8
0
  6
CONTINUOUS
 62
   130
 10
155.103225708008
 20
-45.25
 30
0.0
 11
159.103225708008
 21
-45.25
 31
0.0
  0
LINE
  5
   2D3
  8
0
  6
CONTINUOUS
 62
   130
 10
159.103225708008
 20
-45.25
 30
0.0
 11
163.103225447583
 21
-45.25
 31
0.0
  0
TEXT
  5
   2D4
  8
0
  6
CONTINUOUS
 62
     2
 10
132.054145410176
 20
-167.610641502643
 30
0.0
 40
2.00000008940697
  1
M3142 95-06-12
 50
359.999999844103
 41
0.749999995529652
 72
     1
 11
142.404145807028
 21
-166.610641486049
 31
0.0
 73
     2
  0
INSERT
  5
   2D5
  8
0
  6
CONTINUOUS
 62
     7
  2
*UDIM339
 10
0.0
 20
0.0
 30
0.0
  0
INSERT
  5
   2D6
  8
0
  6
CONTINUOUS
 62
     7
  2
*UDIM340
 10
0.0
 20
0.0
 30
0.0
  0
INSERT
  5
   2D7
  8
0
  6
CONTINUOUS
 62
     7
  2
*UDIM341
 10
0.0
 20
0.0
 30
0.0
  0
TEXT
  5
   2D8
  8
0
  6
CONTINUOUS
 62
     2
 10
238.573837564471
 20
-170.086685216808
 30
0.0
 40
2.50000005960464
  1
S4-5
 50
359.999999844103
 41
1.09999991695086
 72
     1
 11
243.615503966808
 21
-168.836685200698
 31
0.0
 73
     2
  0
TEXT
  5
   2D9
  8
0
  6
CONTINUOUS
 62
     2
 10
281.079696868442
 20
-161.99818424398
 30
0.0
 40
2.50000005960464
  1
ITA
 50
359.999999844103
 41
1.09999991695086
 72
     1
 11
284.746363341808
 21
-160.748184224136
 31
0.0
 73
     2
  0
TEXT
  5
   2DA
  8
0
  6
CONTINUOUS
 62
     2
 10
121.447921749535
 20
-150.905837553077
 30
0.0
 40
2.50000005960464
  1
95-06-02
 50
359.999999844103
 41
1.09999991695086
 11
121.44792175293
 21
-149.655837523274
 31
0.0
 73
     2
  0
TEXT
  5
   2DB
  8
0
  6
CONTINUOUS
 62
     2
 10
121.573104855004
 20
-154.801467436779
 30
0.0
 40
2.50000005960464
  1
BARCELLA
 50
359.999999844103
 41
1.09799996061325
 11
121.573104858398
 21
-153.551467406977
 31
0.0
 73
     2
  0
TEXT
  5
   2DC
  8
0
  6
CONTINUOUS
 62
     2
 10
223.422898928671
 20
-179.566299379759
 30
0.0
 40
4.49999994039536
  1
601812/741
 50
359.999999844103
 41
1.09999994414824
 72
     1
 11
247.347897410393
 21
-177.316299474538
 31
0.0
 73
     2
  0
TEXT
  5
   2DD
  8
0
  6
CONTINUOUS
 62
     2
 10
281.267441009067
 20
-180.521926919761
 30
0.0
 40
2.50000005960464
  1
1/1
 50
359.999999844103
 41
1.09999991695086
 72
     1
 11
284.934107482433
 21
-179.271926899917
 31
0.0
 73
     2
  0
TEXT
  5
   2DE
  8
0
  6
CONTINUOUS
 62
     2
 10
281.111007903598
 20
-156.616287271324
 30
0.0
 40
2.50000005960464
  1
ENG
 50
359.999999844103
 41
1.09999991695086
 72
     1
 11
284.777674376965
 21
-155.36628725148
 31
0.0
 73
     2
  0
TEXT
  5
   2DF
  8
0
  6
CONTINUOUS
 62
     1
 10
219.984480590638
 20
-161.24754354472
 30
0.0
 40
2.00000008940697
  1
NEUTRO ESTERNO PER
 50
359.999999844103
 41
0.625
 72
     1
 11
231.10948109068
 21
-160.247543530231
 31
0.0
 73
     2
  0
TEXT
  5
   2E0
  8
0
  6
CONTINUOUS
 62
     1
 10
242.48448158529
 20
-161.247543203206
 30
0.0
 40
2.00000008940697
  1
 INTERRUTTORI SERIE ISOMAX
 50
359.999999844103
 41
0.625
 72
     1
 11
258.60948230885
 21
-160.247543202297
 31
0.0
 73
     2
  0
TEXT
  5
   2E1
  8
0
  6
CONTINUOUS
 62
     1
 10
222.328047596928
 20
-152.955673379419
 30
0.0
 40
2.00000008940697
  1
EXTERNAL NEUTRAL FOR
 50
359.999999844103
 41
0.625
 72
     1
 11
234.703048152849
 21
-151.955673368325
 31
0.0
 73
     2
  0
TEXT
  5
   2E2
  8
0
  6
CONTINUOUS
 62
     1
 10
247.328048703339
 20
-152.955673081297
 30
0.0
 40
2.00000008940697
  1
 MCCBS ISOMAX SERIES
 50
359.999999844103
 41
0.625
 72
     1
 11
259.70304925926
 21
-151.955673070203
 31
0.0
 73
     2
  0
ENDSEC
  0
EOF
