  0
SECTION
  2
HEADER
  9
$ACADVER
  1
AC1009
  9
$INSBASE
 10
0.0
 20
0.0
 30
0.0
  9
$EXTMIN
 10
107.321637
 20
167.903428
 30
0.0
  9
$EXTMAX
 10
2176.400811
 20
1510.80806
 30
0.0
  9
$LIMMIN
 10
0.0
 20
0.0
  9
$LIMMAX
 10
12.0
 20
9.0
  9
$ORTHOMODE
 70
     1
  9
$REGENMODE
 70
     1
  9
$FILLMODE
 70
     1
  9
$QTEXTMODE
 70
     0
  9
$MIRRTEXT
 70
     1
  9
$DRAGMODE
 70
     2
  9
$LTSCALE
 40
20.0
  9
$OSMODE
 70
  1023
  9
$ATTMODE
 70
     1
  9
$TEXTSIZE
 40
0.2
  9
$TRACEWID
 40
0.05
  9
$TEXTSTYLE
  7
STANDARD
  9
$CLAYER
  8
0
  9
$CELTYPE
  6
CONTINUOUS
  9
$CECOLOR
 62
   256
  9
$DIMSCALE
 40
1.0
  9
$DIMASZ
 40
0.18
  9
$DIMEXO
 40
0.0625
  9
$DIMDLI
 40
0.38
  9
$DIMRND
 40
0.0
  9
$DIMDLE
 40
0.0
  9
$DIMEXE
 40
0.18
  9
$DIMTP
 40
0.0
  9
$DIMTM
 40
0.0
  9
$DIMTXT
 40
0.18
  9
$DIMCEN
 40
0.09
  9
$DIMTSZ
 40
0.0
  9
$DIMTOL
 70
     0
  9
$DIMLIM
 70
     0
  9
$DIMTIH
 70
     1
  9
$DIMTOH
 70
     1
  9
$DIMSE1
 70
     0
  9
$DIMSE2
 70
     0
  9
$DIMTAD
 70
     0
  9
$DIMZIN
 70
     0
  9
$DIMBLK
  1

  9
$DIMASO
 70
     1
  9
$DIMSHO
 70
     1
  9
$DIMPOST
  1

  9
$DIMAPOST
  1

  9
$DIMALT
 70
     0
  9
$DIMALTD
 70
     2
  9
$DIMALTF
 40
25.4
  9
$DIMLFAC
 40
1.0
  9
$DIMTOFL
 70
     0
  9
$DIMTVP
 40
0.0
  9
$DIMTIX
 70
     0
  9
$DIMSOXD
 70
     0
  9
$DIMSAH
 70
     0
  9
$DIMBLK1
  1

  9
$DIMBLK2
  1

  9
$DIMSTYLE
  2
STANDARD
  9
$DIMCLRD
 70
     0
  9
$DIMCLRE
 70
     0
  9
$DIMCLRT
 70
     0
  9
$DIMTFAC
 40
1.0
  9
$DIMGAP
 40
0.09
  9
$LUNITS
 70
     2
  9
$LUPREC
 70
     4
  9
$SKETCHINC
 40
0.1
  9
$FILLETRAD
 40
0.0
  9
$AUNITS
 70
     0
  9
$AUPREC
 70
     0
  9
$MENU
  1
acad
  9
$ELEVATION
 40
0.0
  9
$PELEVATION
 40
0.0
  9
$THICKNESS
 40
0.0
  9
$LIMCHECK
 70
     0
  9
$BLIPMODE
 70
     0
  9
$CHAMFERA
 40
0.0
  9
$CHAMFERB
 40
0.0
  9
$SKPOLY
 70
     0
  9
$TDCREATE
 40
2451996.444722
  9
$TDUPDATE
 40
2452037.540103
  9
$TDINDWG
 40
0.0229
  9
$TDUSRTIMER
 40
0.0229
  9
$USRTIMER
 70
     1
  9
$ANGBASE
 50
0.0
  9
$ANGDIR
 70
     0
  9
$PDMODE
 70
     0
  9
$PDSIZE
 40
0.0
  9
$PLINEWID
 40
0.0
  9
$COORDS
 70
     1
  9
$SPLFRAME
 70
     0
  9
$SPLINETYPE
 70
     6
  9
$SPLINESEGS
 70
     8
  9
$ATTDIA
 70
     0
  9
$ATTREQ
 70
     1
  9
$HANDLING
 70
     1
  9
$HANDSEED
  5
60C
  9
$SURFTAB1
 70
     6
  9
$SURFTAB2
 70
     6
  9
$SURFTYPE
 70
     6
  9
$SURFU
 70
     6
  9
$SURFV
 70
     6
  9
$UCSNAME
  2

  9
$UCSORG
 10
0.0
 20
0.0
 30
0.0
  9
$UCSXDIR
 10
1.0
 20
0.0
 30
0.0
  9
$UCSYDIR
 10
0.0
 20
1.0
 30
0.0
  9
$PUCSNAME
  2

  9
$PUCSORG
 10
0.0
 20
0.0
 30
0.0
  9
$PUCSXDIR
 10
1.0
 20
0.0
 30
0.0
  9
$PUCSYDIR
 10
0.0
 20
1.0
 30
0.0
  9
$USERI1
 70
     0
  9
$USERI2
 70
     0
  9
$USERI3
 70
     0
  9
$USERI4
 70
     0
  9
$USERI5
 70
     0
  9
$USERR1
 40
0.0
  9
$USERR2
 40
0.0
  9
$USERR3
 40
0.0
  9
$USERR4
 40
0.0
  9
$USERR5
 40
0.0
  9
$WORLDVIEW
 70
     1
  9
$SHADEDGE
 70
     3
  9
$SHADEDIF
 70
    70
  9
$TILEMODE
 70
     1
  9
$MAXACTVP
 70
    48
  9
$PLIMCHECK
 70
     0
  9
$PEXTMIN
 10
1.000000E+020
 20
1.000000E+020
 30
1.000000E+020
  9
$PEXTMAX
 10
-1.000000E+020
 20
-1.000000E+020
 30
-1.000000E+020
  9
$PLIMMIN
 10
0.0
 20
0.0
  9
$PLIMMAX
 10
12.0
 20
9.0
  9
$UNITMODE
 70
     0
  9
$VISRETAIN
 70
     1
  9
$PLINEGEN
 70
     0
  9
$PSLTSCALE
 70
     1
  0
ENDSEC
  0
SECTION
  2
TABLES
  0
TABLE
  2
VPORT
 70
     4
  0
VPORT
  2
*ACTIVE
 70
     0
 10
0.0
 20
0.0
 11
1.0
 21
1.0
 12
1141.861224
 22
839.355744
 13
0.0
 23
0.0
 14
1.0
 24
1.0
 15
0.0
 25
0.0
 16
0.0
 26
0.0
 36
1.0
 17
0.0
 27
0.0
 37
0.0
 40
1351.467255
 41
1.679787
 42
50.0
 43
0.0
 44
0.0
 50
0.0
 51
0.0
 71
     0
 72
   100
 73
     1
 74
     1
 75
     0
 76
     0
 77
     0
 78
     0
  0
ENDTAB
  0
TABLE
  2
LTYPE
 70
     3
  0
LTYPE
  2
CONTINUOUS
 70
     0
  3
Solid line
 72
    65
 73
     0
 40
0.0
  0
LTYPE
  2
CENTER
 70
     0
  3
____ _ ____ _ ____ _ ____ _ ____ _ ____
 72
    65
 73
     4
 40
2.0
 49
1.25
 49
-0.25
 49
0.25
 49
-0.25
  0
LTYPE
  2
DASHED
 70
     0
  3
_ _ _ _ _ _ _ _ _ _ _ _ _ _ _ _ _ _ _ _ _
 72
    65
 73
     2
 40
0.75
 49
0.5
 49
-0.25
  0
ENDTAB
  0
TABLE
  2
LAYER
 70
     5
  0
LAYER
  2
0
 70
     0
 62
     7
  6
CONTINUOUS
  0
LAYER
  2
5
 70
     0
 62
     7
  6
CONTINUOUS
  0
LAYER
  2
6
 70
     0
 62
     5
  6
CENTER
  0
LAYER
  2
7
 70
     0
 62
     3
  6
DASHED
  0
LAYER
  2
BYLAYER
 70
     0
 62
     7
  6
CONTINUOUS
  0
ENDTAB
  0
TABLE
  2
STYLE
 70
     1
  0
STYLE
  2
STANDARD
 70
     0
 40
0.0
 41
1.0
 50
0.0
 71
     0
 42
0.2
  3
txt
  4

  0
ENDTAB
  0
TABLE
  2
VIEW
 70
     0
  0
ENDTAB
  0
TABLE
  2
UCS
 70
     0
  0
ENDTAB
  0
TABLE
  2
APPID
 70
     1
  0
APPID
  2
ACAD
 70
     0
  0
ENDTAB
  0
TABLE
  2
DIMSTYLE
 70
     1
  0
DIMSTYLE
  2
STANDARD
 70
     0
  3

  4

  5

  6

  7

 40
1.0
 41
0.18
 42
0.0625
 43
0.38
 44
0.18
 45
0.0
 46
0.0
 47
0.0
 48
0.0
140
0.18
141
0.09
142
0.0
143
25.4
144
1.0
145
0.0
146
1.0
147
0.09
 71
     0
 72
     0
 73
     1
 74
     1
 75
     0
 76
     0
 77
     0
 78
     0
170
     0
171
     2
172
     0
173
     0
174
     0
175
     0
176
     0
177
     0
178
     0
  0
ENDTAB
  0
ENDSEC
  0
SECTION
  2
BLOCKS
  0
BLOCK
  8
0
  2
$MODEL_SPACE
 70
     0
 10
0.0
 20
0.0
 30
0.0
  3
$MODEL_SPACE
  1

  0
ENDBLK
  5
1A
  8
0
  0
BLOCK
 67
     1
  8
0
  2
$PAPER_SPACE
 70
     0
 10
0.0
 20
0.0
 30
0.0
  3
$PAPER_SPACE
  1

  0
ENDBLK
  5
17
 67
     1
  8
0
  0
ENDSEC
  0
SECTION
  2
ENTITIES
  0
LINE
  5
25
  8
5
  6
CONTINUOUS
 10
1842.275
 20
937.7845
 30
0.0
 11
1842.275
 21
994.0394
 31
0.0
  0
LINE
  5
26
  8
5
  6
CONTINUOUS
 10
2058.275
 20
994.0394
 30
0.0
 11
2058.275
 21
937.7845
 31
0.0
  0
LINE
  5
27
  8
5
  6
CONTINUOUS
 10
2068.955
 20
1001.857
 30
0.0
 11
2097.286
 21
952.7845
 31
0.0
  0
LINE
  5
28
  8
5
  6
CONTINUOUS
 10
2165.775
 20
952.7845
 30
0.0
 11
2123.847
 21
1019.885
 31
0.0
  0
LINE
  5
29
  8
5
  6
CONTINUOUS
 10
333.6268
 20
1510.784
 30
0.0
 11
333.6268
 21
1510.784
 31
0.0
  0
LINE
  5
2A
  8
5
  6
CONTINUOUS
 10
1324.013
 20
960.7845
 30
0.0
 11
1324.015
 21
960.7844
 31
0.0
  0
LINE
  5
2B
  8
5
  6
CONTINUOUS
 10
2147.075
 20
1019.885
 30
0.0
 11
2088.845
 21
1019.885
 31
0.0
  0
LINE
  5
2C
  8
5
  6
CONTINUOUS
 10
1830.909
 20
1002.399
 30
0.0
 11
1802.264
 21
952.7845
 31
0.0
  0
LINE
  5
2D
  8
5
  6
CONTINUOUS
 10
1008.182
 20
1510.784
 30
0.0
 11
1008.183
 21
1510.784
 31
0.0
  0
LINE
  5
2E
  8
5
  6
CONTINUOUS
 10
1323.72
 20
590.7449
 30
0.0
 11
1323.72
 21
590.7449
 31
0.0
  0
LINE
  5
2F
  8
5
  6
CONTINUOUS
 10
1332.888
 20
585.9449
 30
0.0
 11
1324.335
 21
585.9449
 31
0.0
  0
LINE
  5
30
  8
5
  6
CONTINUOUS
 10
1775.704
 20
1019.885
 30
0.0
 11
1733.775
 21
952.7845
 31
0.0
  0
LINE
  5
31
  8
5
  6
CONTINUOUS
 10
2058.275
 20
937.7845
 30
0.0
 11
2040.275
 21
937.7845
 31
0.0
  0
LINE
  5
32
  8
5
  6
CONTINUOUS
 10
1875.275
 20
937.7845
 30
0.0
 11
1860.275
 21
937.7845
 31
0.0
  0
LINE
  5
33
  8
5
  6
CONTINUOUS
 10
1905.275
 20
937.7845
 30
0.0
 11
1890.275
 21
937.7845
 31
0.0
  0
LINE
  5
34
  8
5
  6
CONTINUOUS
 10
1935.275
 20
937.7845
 30
0.0
 11
1920.275
 21
937.7845
 31
0.0
  0
LINE
  5
35
  8
5
  6
CONTINUOUS
 10
1811.706
 20
1019.885
 30
0.0
 11
1754.275
 21
1019.885
 31
0.0
  0
LINE
  5
36
  8
5
  6
CONTINUOUS
 10
2025.275
 20
937.7845
 30
0.0
 11
2010.275
 21
937.7845
 31
0.0
  0
LINE
  5
37
  8
5
  6
CONTINUOUS
 10
1995.275
 20
937.7845
 30
0.0
 11
1980.275
 21
937.7845
 31
0.0
  0
LINE
  5
38
  8
5
  6
CONTINUOUS
 10
1965.275
 20
937.7845
 30
0.0
 11
1950.275
 21
937.7845
 31
0.0
  0
LINE
  5
39
  8
5
  6
CONTINUOUS
 10
2040.275
 20
937.7845
 30
0.0
 11
2025.275
 21
937.7845
 31
0.0
  0
LINE
  5
3A
  8
5
  6
CONTINUOUS
 10
1860.275
 20
937.7845
 30
0.0
 11
1842.275
 21
937.7845
 31
0.0
  0
LINE
  5
3B
  8
5
  6
CONTINUOUS
 10
2165.275
 20
1052.685
 30
0.0
 11
2165.275
 21
1038.885
 31
0.0
  0
LINE
  5
3C
  8
5
  6
CONTINUOUS
 10
1890.275
 20
937.7845
 30
0.0
 11
1875.275
 21
937.7845
 31
0.0
  0
LINE
  5
3D
  8
5
  6
CONTINUOUS
 10
1920.275
 20
937.7845
 30
0.0
 11
1905.275
 21
937.7845
 31
0.0
  0
LINE
  5
3E
  8
5
  6
CONTINUOUS
 10
1950.275
 20
937.7845
 30
0.0
 11
1935.275
 21
937.7845
 31
0.0
  0
LINE
  5
3F
  8
5
  6
CONTINUOUS
 10
2010.275
 20
937.7845
 30
0.0
 11
1995.275
 21
937.7845
 31
0.0
  0
LINE
  5
40
  8
5
  6
CONTINUOUS
 10
2083.175
 20
1318.096
 30
0.0
 11
2130.09
 21
1353.449
 31
0.0
  0
LINE
  5
41
  8
5
  6
CONTINUOUS
 10
2130.09
 20
1353.449
 30
0.0
 11
2142.962
 21
1363.149
 31
0.0
  0
LINE
  5
42
  8
5
  6
CONTINUOUS
 10
2160.64
 20
1345.471
 30
0.0
 11
2152.167
 21
1331.371
 31
0.0
  0
LINE
  5
43
  8
5
  6
CONTINUOUS
 10
2152.167
 20
1331.371
 30
0.0
 11
2124.716
 21
1285.685
 31
0.0
  0
LINE
  5
44
  8
5
  6
CONTINUOUS
 10
2083.175
 20
1367.785
 30
0.0
 11
2083.175
 21
1343.785
 31
0.0
  0
LINE
  5
45
  8
5
  6
CONTINUOUS
 10
2083.175
 20
1343.785
 30
0.0
 11
2083.175
 21
1291.354
 31
0.0
  0
LINE
  5
46
  8
5
  6
CONTINUOUS
 10
1980.275
 20
937.7845
 30
0.0
 11
1965.275
 21
937.7845
 31
0.0
  0
LINE
  5
47
  8
5
  6
CONTINUOUS
 10
2142.962
 20
1363.149
 30
0.0
 11
2160.64
 21
1345.471
 31
0.0
  0
LINE
  5
48
  8
5
  6
CONTINUOUS
 10
1754.275
 20
1285.685
 30
0.0
 11
1811.706
 21
1285.685
 31
0.0
  0
LINE
  5
49
  8
5
  6
CONTINUOUS
 10
1817.375
 20
1343.785
 30
0.0
 11
1817.375
 21
1318.096
 31
0.0
  0
LINE
  5
4A
  8
5
  6
CONTINUOUS
 10
1817.375
 20
1343.785
 30
0.0
 11
1817.375
 21
1367.785
 31
0.0
  0
LINE
  5
4B
  8
5
  6
CONTINUOUS
 10
1966.775
 20
1013.05
 30
0.0
 11
1966.775
 21
1006.713
 31
0.0
  0
LINE
  5
4C
  8
5
  6
CONTINUOUS
 10
2165.275
 20
1088.285
 30
0.0
 11
2165.275
 21
1073.285
 31
0.0
  0
LINE
  5
4D
  8
5
  6
CONTINUOUS
 10
1966.775
 20
1006.713
 30
0.0
 11
1966.775
 21
996.654
 31
0.0
  0
LINE
  5
4E
  8
5
  6
CONTINUOUS
 10
2165.275
 20
1249.285
 30
0.0
 11
2165.275
 21
1232.285
 31
0.0
  0
LINE
  5
4F
  8
5
  6
CONTINUOUS
 10
1966.775
 20
996.654
 30
0.0
 11
1966.775
 21
989.6323
 31
0.0
  0
LINE
  5
50
  8
5
  6
CONTINUOUS
 10
1966.775
 20
989.6323
 30
0.0
 11
1966.775
 21
985.8918
 31
0.0
  0
LINE
  5
51
  8
5
  6
CONTINUOUS
 10
1966.775
 20
1036.485
 30
0.0
 11
1966.775
 21
1013.05
 31
0.0
  0
LINE
  5
52
  8
5
  6
CONTINUOUS
 10
2165.275
 20
1073.285
 30
0.0
 11
2165.275
 21
1056.285
 31
0.0
  0
LINE
  5
53
  8
5
  6
CONTINUOUS
 10
1933.775
 20
1006.713
 30
0.0
 11
1933.775
 21
1013.05
 31
0.0
  0
LINE
  5
54
  8
5
  6
CONTINUOUS
 10
1933.775
 20
1013.05
 30
0.0
 11
1933.775
 21
1036.485
 31
0.0
  0
LINE
  5
55
  8
5
  6
CONTINUOUS
 10
2165.275
 20
1267.485
 30
0.0
 11
2165.275
 21
1249.285
 31
0.0
  0
LINE
  5
56
  8
5
  6
CONTINUOUS
 10
2165.275
 20
1232.285
 30
0.0
 11
2165.275
 21
1217.285
 31
0.0
  0
LINE
  5
57
  8
5
  6
CONTINUOUS
 10
1933.775
 20
985.8918
 30
0.0
 11
1933.775
 21
989.6323
 31
0.0
  0
LINE
  5
58
  8
5
  6
CONTINUOUS
 10
1933.775
 20
989.6323
 30
0.0
 11
1933.775
 21
996.654
 31
0.0
  0
LINE
  5
59
  8
5
  6
CONTINUOUS
 10
1933.775
 20
996.654
 30
0.0
 11
1933.775
 21
1006.713
 31
0.0
  0
LINE
  5
5A
  8
5
  6
CONTINUOUS
 10
1933.775
 20
1036.485
 30
0.0
 11
1966.775
 21
1036.485
 31
0.0
  0
LINE
  5
5B
  8
5
  6
CONTINUOUS
 10
1966.775
 20
1036.485
 30
0.0
 11
2029.472
 21
1036.485
 31
0.0
  0
LINE
  5
5C
  8
5
  6
CONTINUOUS
 10
1735.275
 20
1232.285
 30
0.0
 11
1735.275
 21
1249.285
 31
0.0
  0
LINE
  5
5D
  8
5
  6
CONTINUOUS
 10
1871.078
 20
1036.485
 30
0.0
 11
1933.775
 21
1036.485
 31
0.0
  0
LINE
  5
5E
  8
5
  6
CONTINUOUS
 10
1735.275
 20
1073.285
 30
0.0
 11
1735.275
 21
1088.285
 31
0.0
  0
LINE
  5
5F
  8
5
  6
CONTINUOUS
 10
1735.275
 20
1038.085
 30
0.0
 11
1735.275
 21
1056.285
 31
0.0
  0
ARC
  5
60
  8
5
  6
CONTINUOUS
 10
1950.275
 20
1152.785
 30
0.0
 40
157.0
 50
90.0
 51
263.9673
  0
ARC
  5
61
  8
5
  6
CONTINUOUS
 10
1950.275
 20
1152.785
 30
0.0
 40
157.0
 50
276.0327
 51
90.0
  0
LINE
  5
62
  8
5
  6
CONTINUOUS
 10
1976.275
 20
1056.785
 30
0.0
 11
1924.275
 21
1056.785
 31
0.0
  0
LINE
  5
63
  8
5
  6
CONTINUOUS
 10
1735.275
 20
1217.285
 30
0.0
 11
1735.275
 21
1232.285
 31
0.0
  0
LINE
  5
64
  8
5
  6
CONTINUOUS
 10
1735.275
 20
1249.285
 30
0.0
 11
1735.275
 21
1267.485
 31
0.0
  0
LINE
  5
65
  8
5
  6
CONTINUOUS
 10
1847.407
 20
1056.785
 30
0.0
 11
1924.275
 21
1056.785
 31
0.0
  0
LINE
  5
66
  8
5
  6
CONTINUOUS
 10
1735.275
 20
1056.285
 30
0.0
 11
1735.275
 21
1073.285
 31
0.0
  0
LINE
  5
67
  8
5
  6
CONTINUOUS
 10
2155.98
 20
1276.389
 30
0.0
 11
2146.275
 21
1285.685
 31
0.0
  0
LINE
  5
68
  8
5
  6
CONTINUOUS
 10
2165.275
 20
1267.485
 30
0.0
 11
2155.98
 21
1276.389
 31
0.0
  0
LINE
  5
69
  8
5
  6
CONTINUOUS
 10
2164.509
 20
1038.085
 30
0.0
 11
2165.275
 21
1038.885
 31
0.0
  0
LINE
  5
6A
  8
5
  6
CONTINUOUS
 10
2155.98
 20
1029.18
 30
0.0
 11
2164.509
 21
1038.085
 31
0.0
  0
LINE
  5
6B
  8
5
  6
CONTINUOUS
 10
2147.075
 20
1019.885
 30
0.0
 11
2155.98
 21
1029.18
 31
0.0
  0
LINE
  5
6C
  8
5
  6
CONTINUOUS
 10
1744.571
 20
1276.389
 30
0.0
 11
1735.275
 21
1267.485
 31
0.0
  0
LINE
  5
6D
  8
5
  6
CONTINUOUS
 10
1754.275
 20
1285.685
 30
0.0
 11
1744.571
 21
1276.389
 31
0.0
  0
LINE
  5
6E
  8
5
  6
CONTINUOUS
 10
1744.571
 20
1029.18
 30
0.0
 11
1754.275
 21
1019.885
 31
0.0
  0
LINE
  5
6F
  8
5
  6
CONTINUOUS
 10
1735.275
 20
1038.085
 30
0.0
 11
1744.571
 21
1029.18
 31
0.0
  0
LINE
  5
70
  8
5
  6
CONTINUOUS
 10
2078.275
 20
1367.785
 30
0.0
 11
2083.175
 21
1367.785
 31
0.0
  0
LINE
  5
71
  8
5
  6
CONTINUOUS
 10
1817.375
 20
1367.785
 30
0.0
 11
1822.275
 21
1367.785
 31
0.0
  0
LINE
  5
72
  8
5
  6
CONTINUOUS
 10
1976.275
 20
1056.785
 30
0.0
 11
2053.143
 21
1056.785
 31
0.0
  0
LINE
  5
73
  8
5
  6
CONTINUOUS
 10
1739.911
 20
1345.471
 30
0.0
 11
1757.589
 21
1363.149
 31
0.0
  0
LINE
  5
74
  8
5
  6
CONTINUOUS
 10
1748.383
 20
1331.371
 30
0.0
 11
1775.835
 21
1285.685
 31
0.0
  0
LINE
  5
75
  8
5
  6
CONTINUOUS
 10
1748.383
 20
1331.371
 30
0.0
 11
1739.911
 21
1345.471
 31
0.0
  0
LINE
  5
76
  8
5
  6
CONTINUOUS
 10
1757.589
 20
1363.149
 30
0.0
 11
1770.461
 21
1353.449
 31
0.0
  0
LINE
  5
77
  8
5
  6
CONTINUOUS
 10
1976.275
 20
1099.03
 30
0.0
 11
1976.275
 21
1056.785
 31
0.0
  0
LINE
  5
78
  8
5
  6
CONTINUOUS
 10
2144.059
 20
1285.685
 30
0.0
 11
2131.976
 21
1297.767
 31
0.0
  0
LINE
  5
79
  8
5
  6
CONTINUOUS
 10
2099.412
 20
1330.331
 30
0.0
 11
2083.175
 21
1346.568
 31
0.0
  0
LINE
  5
7A
  8
5
  6
CONTINUOUS
 10
1817.375
 20
1346.568
 30
0.0
 11
1801.139
 21
1330.331
 31
0.0
  0
LINE
  5
7B
  8
5
  6
CONTINUOUS
 10
1768.575
 20
1297.767
 30
0.0
 11
1756.492
 21
1285.685
 31
0.0
  0
LINE
  5
7C
  8
5
  6
CONTINUOUS
 10
1756.492
 20
1019.885
 30
0.0
 11
1768.316
 21
1008.061
 31
0.0
  0
LINE
  5
7D
  8
5
  6
CONTINUOUS
 10
1924.275
 20
1099.03
 30
0.0
 11
1924.275
 21
1056.785
 31
0.0
  0
LINE
  5
7E
  8
5
  6
CONTINUOUS
 10
1991.575
 20
1055.685
 30
0.0
 11
1991.575
 21
1052.685
 31
0.0
  0
LINE
  5
7F
  8
5
  6
CONTINUOUS
 10
2176.275
 20
1052.685
 30
0.0
 11
2176.275
 21
1055.685
 31
0.0
  0
LINE
  5
80
  8
5
  6
CONTINUOUS
 10
1958.275
 20
1184.285
 30
0.0
 11
1958.275
 21
1179.095
 31
0.0
  0
LINE
  5
81
  8
5
  6
CONTINUOUS
 10
2131.619
 20
1007.445
 30
0.0
 11
2144.059
 21
1019.885
 31
0.0
  0
LINE
  5
82
  8
5
  6
CONTINUOUS
 10
1942.275
 20
1184.285
 30
0.0
 11
1942.275
 21
1179.095
 31
0.0
  0
LINE
  5
83
  8
5
  6
CONTINUOUS
 10
2088.845
 20
1285.685
 30
0.0
 11
2146.275
 21
1285.685
 31
0.0
  0
CIRCLE
  5
84
  8
5
  6
CONTINUOUS
 10
1950.275
 20
1152.785
 30
0.0
 40
27.5
  0
LINE
  5
85
  8
5
  6
CONTINUOUS
 10
1942.275
 20
1184.285
 30
0.0
 11
1958.275
 21
1184.285
 31
0.0
  0
ARC
  5
86
  8
5
  6
CONTINUOUS
 10
1950.275
 20
1152.785
 30
0.0
 40
29.99998
 50
105.466
 51
0.0
  0
ARC
  5
87
  8
5
  6
CONTINUOUS
 10
1950.275
 20
1152.785
 30
0.0
 40
29.99999
 50
0.0
 51
74.534
  0
LINE
  5
88
  8
5
  6
CONTINUOUS
 10
2082.275
 20
952.7845
 30
0.0
 11
2082.275
 21
927.7845
 31
0.0
  0
LINE
  5
89
  8
5
  6
CONTINUOUS
 10
2166.275
 20
927.7845
 30
0.0
 11
2166.275
 21
952.7845
 31
0.0
  0
LINE
  5
8A
  8
5
  6
CONTINUOUS
 10
2166.275
 20
952.7845
 30
0.0
 11
2082.275
 21
952.7845
 31
0.0
  0
LINE
  5
8B
  8
5
  6
CONTINUOUS
 10
2070.415
 20
1363.785
 30
0.0
 11
2072.616
 21
1300.76
 31
0.0
  0
LINE
  5
8C
  8
5
  6
CONTINUOUS
 10
2166.275
 20
927.7845
 30
0.0
 11
2082.275
 21
927.7845
 31
0.0
  0
LINE
  5
8D
  8
5
  6
CONTINUOUS
 10
1817.275
 20
952.7845
 30
0.0
 11
1817.275
 21
927.7845
 31
0.0
  0
LINE
  5
8E
  8
5
  6
CONTINUOUS
 10
1733.275
 20
927.7845
 30
0.0
 11
1733.275
 21
952.7845
 31
0.0
  0
LINE
  5
8F
  8
5
  6
CONTINUOUS
 10
1733.275
 20
952.7845
 30
0.0
 11
1817.275
 21
952.7845
 31
0.0
  0
LINE
  5
90
  8
5
  6
CONTINUOUS
 10
1733.275
 20
927.7845
 30
0.0
 11
1817.275
 21
927.7845
 31
0.0
  0
LINE
  5
91
  8
5
  6
CONTINUOUS
 10
2058.275
 20
977.2845
 30
0.0
 11
2058.37
 21
977.19
 31
0.0
  0
LINE
  5
92
  8
5
  6
CONTINUOUS
 10
1842.275
 20
978.2845
 30
0.0
 11
1841.181
 21
977.19
 31
0.0
  0
LINE
  5
93
  8
5
  6
CONTINUOUS
 10
2058.275
 20
977.3537
 30
0.0
 11
2082.275
 21
935.7845
 31
0.0
  0
LINE
  5
94
  8
5
  6
CONTINUOUS
 10
1842.275
 20
979.0858
 30
0.0
 11
1817.275
 21
935.7845
 31
0.0
  0
ARC
  5
95
  8
5
  6
CONTINUOUS
 10
1950.275
 20
1152.785
 30
0.0
 40
192.0
 50
329.6202
 51
0.0
  0
ARC
  5
96
  8
5
  6
CONTINUOUS
 10
1950.275
 20
1152.785
 30
0.0
 40
192.0
 50
90.0
 51
328.5769
  0
ARC
  5
97
  8
5
  6
CONTINUOUS
 10
1950.275
 20
1152.785
 30
0.0
 40
192.0
 50
0.0
 51
90.0
  0
LINE
  5
98
  8
5
  6
CONTINUOUS
 10
2118.767
 20
1344.917
 30
0.0
 11
2118.767
 21
1344.917
 31
0.0
  0
LINE
  5
99
  8
5
  6
CONTINUOUS
 10
2165.275
 20
1118.285
 30
0.0
 11
2165.275
 21
1103.285
 31
0.0
  0
LINE
  5
9A
  8
5
  6
CONTINUOUS
 10
2165.275
 20
1217.285
 30
0.0
 11
2165.275
 21
1202.285
 31
0.0
  0
LINE
  5
9B
  8
5
  6
CONTINUOUS
 10
2165.275
 20
1187.285
 30
0.0
 11
2165.275
 21
1170.035
 31
0.0
  0
LINE
  5
9C
  8
5
  6
CONTINUOUS
 10
2165.275
 20
1152.785
 30
0.0
 11
2165.275
 21
1135.535
 31
0.0
  0
LINE
  5
9D
  8
5
  6
CONTINUOUS
 10
2165.275
 20
1103.285
 30
0.0
 11
2165.275
 21
1088.285
 31
0.0
  0
LINE
  5
9E
  8
5
  6
CONTINUOUS
 10
2165.275
 20
1135.535
 30
0.0
 11
2165.275
 21
1118.285
 31
0.0
  0
LINE
  5
9F
  8
5
  6
CONTINUOUS
 10
2165.275
 20
1202.285
 30
0.0
 11
2165.275
 21
1187.285
 31
0.0
  0
LINE
  5
A0
  8
5
  6
CONTINUOUS
 10
2165.275
 20
1056.285
 30
0.0
 11
2165.275
 21
1055.685
 31
0.0
  0
LINE
  5
A1
  8
5
  6
CONTINUOUS
 10
2165.275
 20
1170.035
 30
0.0
 11
2165.275
 21
1152.785
 31
0.0
  0
LINE
  5
A2
  8
5
  6
CONTINUOUS
 10
1735.275
 20
1135.535
 30
0.0
 11
1735.275
 21
1152.785
 31
0.0
  0
LINE
  5
A3
  8
5
  6
CONTINUOUS
 10
1735.275
 20
1170.035
 30
0.0
 11
1735.275
 21
1187.285
 31
0.0
  0
LINE
  5
A4
  8
5
  6
CONTINUOUS
 10
1735.275
 20
1202.285
 30
0.0
 11
1735.275
 21
1217.285
 31
0.0
  0
LINE
  5
A5
  8
5
  6
CONTINUOUS
 10
1735.275
 20
1103.285
 30
0.0
 11
1735.275
 21
1118.285
 31
0.0
  0
LINE
  5
A6
  8
5
  6
CONTINUOUS
 10
1735.275
 20
1118.285
 30
0.0
 11
1735.275
 21
1135.535
 31
0.0
  0
LINE
  5
A7
  8
5
  6
CONTINUOUS
 10
1735.275
 20
1152.785
 30
0.0
 11
1735.275
 21
1170.035
 31
0.0
  0
LINE
  5
A8
  8
5
  6
CONTINUOUS
 10
1735.275
 20
1187.285
 30
0.0
 11
1735.275
 21
1202.285
 31
0.0
  0
LINE
  5
A9
  8
5
  6
CONTINUOUS
 10
1735.275
 20
1088.285
 30
0.0
 11
1735.275
 21
1103.285
 31
0.0
  0
LINE
  5
AA
  8
5
  6
CONTINUOUS
 10
1825.81
 20
950.5667
 30
0.0
 11
1836.092
 21
940.2845
 31
0.0
  0
LINE
  5
AB
  8
5
  6
CONTINUOUS
 10
1827.935
 20
1300.76
 30
0.0
 11
1830.136
 21
1363.785
 31
0.0
  0
LINE
  5
AC
  8
5
  6
CONTINUOUS
 10
1836.092
 20
940.2845
 30
0.0
 11
1842.275
 21
940.2845
 31
0.0
  0
LINE
  5
AD
  8
5
  6
CONTINUOUS
 10
2058.275
 20
940.2845
 30
0.0
 11
2064.459
 21
940.2845
 31
0.0
  0
LINE
  5
AE
  8
5
  6
CONTINUOUS
 10
2064.459
 20
940.2845
 30
0.0
 11
2074.107
 21
949.9327
 31
0.0
  0
LINE
  5
AF
  8
5
  6
CONTINUOUS
 10
2112.775
 20
1432.585
 30
0.0
 11
1790.775
 21
1432.585
 31
0.0
  0
LINE
  5
B0
  8
5
  6
CONTINUOUS
 10
2112.775
 20
1455.585
 30
0.0
 11
2112.775
 21
1432.585
 31
0.0
  0
LINE
  5
B1
  8
5
  6
CONTINUOUS
 10
2141.775
 20
1487.085
 30
0.0
 11
2141.775
 21
1435.585
 31
0.0
  0
LINE
  5
B2
  8
5
  6
CONTINUOUS
 10
2152.167
 20
1331.371
 30
0.0
 11
2130.09
 21
1353.449
 31
0.0
  0
LINE
  5
B3
  8
5
  6
CONTINUOUS
 10
1795.275
 20
1410.585
 30
0.0
 11
1795.275
 21
1432.585
 31
0.0
  0
LINE
  5
B5
  8
5
  6
CONTINUOUS
 10
1753.475
 20
1038.085
 30
0.0
 11
1796.302
 21
1038.085
 31
0.0
  0
LINE
  5
B7
  8
5
  6
CONTINUOUS
 10
2107.775
 20
1410.585
 30
0.0
 11
2107.775
 21
1432.585
 31
0.0
  0
LINE
  5
B8
  8
5
  6
CONTINUOUS
 10
2112.775
 20
1435.585
 30
0.0
 11
2142.775
 21
1435.585
 31
0.0
  0
LINE
  5
B9
  8
5
  6
CONTINUOUS
 10
2078.706
 20
1487.085
 30
0.0
 11
2141.775
 21
1487.085
 31
0.0
  0
LINE
  5
BC
  8
5
  6
CONTINUOUS
 10
2063.283
 20
1506.584
 30
0.0
 11
2082.204
 21
1487.084
 31
0.0
  0
LINE
  5
BD
  8
5
  6
CONTINUOUS
 10
2112.775
 20
1455.585
 30
0.0
 11
2063.275
 21
1455.584
 31
0.0
  0
LINE
  5
BE
  8
5
  6
CONTINUOUS
 10
1790.775
 20
1455.585
 30
0.0
 11
1840.275
 21
1506.585
 31
0.0
  0
LINE
  5
C1
  8
5
  6
CONTINUOUS
 10
1753.475
 20
1267.484
 30
0.0
 11
1796.302
 21
1267.484
 31
0.0
  0
LINE
  5
C4
  8
5
  6
CONTINUOUS
 10
2083.175
 20
1343.785
 30
0.0
 11
2071.113
 21
1343.785
 31
0.0
  0
LINE
  5
C5
  8
5
  6
CONTINUOUS
 10
1829.437
 20
1343.785
 30
0.0
 11
1817.375
 21
1343.785
 31
0.0
  0
LINE
  5
C6
  8
5
  6
CONTINUOUS
 10
2147.075
 20
1038.085
 30
0.0
 11
2164.509
 21
1038.085
 31
0.0
  0
LINE
  5
C7
  8
5
  6
CONTINUOUS
 10
2147.075
 20
1267.484
 30
0.0
 11
2165.275
 21
1267.485
 31
0.0
  0
LINE
  5
C8
  8
5
  6
CONTINUOUS
 10
2128.875
 20
1249.284
 30
0.0
 11
2165.275
 21
1249.285
 31
0.0
  0
LINE
  5
C9
  8
5
  6
CONTINUOUS
 10
1840.275
 20
1455.585
 30
0.0
 11
1790.775
 21
1455.585
 31
0.0
  0
LINE
  5
CA
  8
5
  6
CONTINUOUS
 10
1790.775
 20
1455.585
 30
0.0
 11
1790.775
 21
1432.585
 31
0.0
  0
LINE
  5
CB
  8
5
  6
CONTINUOUS
 10
1925.215
 20
1510.785
 30
0.0
 11
1925.216
 21
1510.785
 31
0.0
  0
LINE
  5
CC
  8
5
  6
CONTINUOUS
 10
1952.215
 20
1510.785
 30
0.0
 11
1952.215
 21
1510.785
 31
0.0
  0
LINE
  5
CD
  8
5
  6
CONTINUOUS
 10
1735.275
 20
1038.085
 30
0.0
 11
1753.475
 21
1038.085
 31
0.0
  0
LINE
  5
CE
  8
5
  6
CONTINUOUS
 10
1771.675
 20
1056.284
 30
0.0
 11
1735.275
 21
1056.284
 31
0.0
  0
LINE
  5
CF
  8
5
  6
CONTINUOUS
 10
1735.275
 20
1267.484
 30
0.0
 11
1753.475
 21
1267.484
 31
0.0
  0
LINE
  5
D0
  8
5
  6
CONTINUOUS
 10
1735.275
 20
1249.284
 30
0.0
 11
1771.675
 21
1249.284
 31
0.0
  0
LINE
  5
D1
  8
5
  6
CONTINUOUS
 10
1925.216
 20
1510.785
 30
0.0
 11
1925.216
 21
1510.785
 31
0.0
  0
LINE
  5
D2
  8
5
  6
CONTINUOUS
 10
1952.215
 20
1510.785
 30
0.0
 11
1978.283
 21
1510.784
 31
0.0
  0
LINE
  5
D3
  8
5
  6
CONTINUOUS
 10
1735.275
 20
1232.284
 30
0.0
 11
1775.508
 21
1232.284
 31
0.0
  0
LINE
  5
D4
  8
5
  6
CONTINUOUS
 10
1735.275
 20
1073.284
 30
0.0
 11
1775.508
 21
1073.284
 31
0.0
  0
LINE
  5
D5
  8
5
  6
CONTINUOUS
 10
1770.461
 20
1353.449
 30
0.0
 11
1748.383
 21
1331.371
 31
0.0
  0
LINE
  5
D6
  8
5
  6
CONTINUOUS
 10
1925.216
 20
1510.785
 30
0.0
 11
1950.116
 21
1510.785
 31
0.0
  0
LINE
  5
D7
  8
5
  6
CONTINUOUS
 10
1952.215
 20
1510.785
 30
0.0
 11
1952.215
 21
1510.785
 31
0.0
  0
LINE
  5
D8
  8
5
  6
CONTINUOUS
 10
1978.283
 20
1506.585
 30
0.0
 11
1978.283
 21
1510.784
 31
0.0
  0
LINE
  5
D9
  8
5
  6
CONTINUOUS
 10
1952.216
 20
1506.584
 30
0.0
 11
1952.215
 21
1510.785
 31
0.0
  0
LINE
  5
DA
  8
5
  6
CONTINUOUS
 10
1925.216
 20
1510.785
 30
0.0
 11
1925.219
 21
1506.585
 31
0.0
  0
LINE
  5
DB
  8
5
  6
CONTINUOUS
 10
1844.144
 20
1363.785
 30
0.0
 11
1842.32
 21
1311.56
 31
0.0
  0
LINE
  5
DC
  8
5
  6
CONTINUOUS
 10
2058.23
 20
1311.56
 30
0.0
 11
2056.406
 21
1363.785
 31
0.0
  0
LINE
  5
DD
  8
5
  6
CONTINUOUS
 10
1950.116
 20
1506.584
 30
0.0
 11
1950.116
 21
1510.785
 31
0.0
  0
LINE
  5
DE
  8
5
  6
CONTINUOUS
 10
139.6801
 20
1019.884
 30
0.0
 11
136.6634
 21
1019.884
 31
0.0
  0
LINE
  5
DF
  8
5
  6
CONTINUOUS
 10
529.4634
 20
1019.884
 30
0.0
 11
527.2467
 21
1019.884
 31
0.0
  0
LINE
  5
E0
  8
5
  6
CONTINUOUS
 10
140.7768
 20
1363.149
 30
0.0
 11
153.6491
 21
1353.449
 31
0.0
  0
LINE
  5
E1
  8
5
  6
CONTINUOUS
 10
184.3269
 20
1330.331
 30
0.0
 11
153.6491
 21
1353.449
 31
0.0
  0
LINE
  5
E2
  8
5
  6
CONTINUOUS
 10
131.5713
 20
1331.371
 30
0.0
 11
151.7626
 21
1297.767
 31
0.0
  0
LINE
  5
E3
  8
5
  6
CONTINUOUS
 10
131.5713
 20
1331.371
 30
0.0
 11
123.0991
 21
1345.471
 31
0.0
  0
LINE
  5
E4
  8
5
  6
CONTINUOUS
 10
200.5634
 20
1346.568
 30
0.0
 11
200.5634
 21
1367.784
 31
0.0
  0
LINE
  5
E5
  8
5
  6
CONTINUOUS
 10
123.0991
 20
1345.471
 30
0.0
 11
140.7768
 21
1363.149
 31
0.0
  0
LINE
  5
E6
  8
5
  6
CONTINUOUS
 10
137.4634
 20
1285.684
 30
0.0
 11
139.68
 21
1285.684
 31
0.0
  0
LINE
  5
E7
  8
5
  6
CONTINUOUS
 10
527.2468
 20
1285.684
 30
0.0
 11
529.4634
 21
1285.684
 31
0.0
  0
LINE
  5
E8
  8
5
  6
CONTINUOUS
 10
466.3634
 20
1367.784
 30
0.0
 11
466.3634
 21
1346.568
 31
0.0
  0
LINE
  5
E9
  8
5
  6
CONTINUOUS
 10
118.4634
 20
1038.884
 30
0.0
 11
118.4634
 21
1056.284
 31
0.0
  0
LINE
  5
EA
  8
5
  6
CONTINUOUS
 10
118.4634
 20
1073.284
 30
0.0
 11
118.4634
 21
1088.284
 31
0.0
  0
LINE
  5
EB
  8
5
  6
CONTINUOUS
 10
118.4634
 20
1103.284
 30
0.0
 11
118.4634
 21
1118.284
 31
0.0
  0
LINE
  5
EC
  8
5
  6
CONTINUOUS
 10
118.4634
 20
1232.284
 30
0.0
 11
118.4634
 21
1249.284
 31
0.0
  0
LINE
  5
ED
  8
5
  6
CONTINUOUS
 10
118.4634
 20
1202.284
 30
0.0
 11
118.4634
 21
1217.284
 31
0.0
  0
LINE
  5
EE
  8
5
  6
CONTINUOUS
 10
118.4634
 20
1170.034
 30
0.0
 11
118.4634
 21
1187.284
 31
0.0
  0
LINE
  5
EF
  8
5
  6
CONTINUOUS
 10
118.4634
 20
1135.534
 30
0.0
 11
118.4634
 21
1152.784
 31
0.0
  0
LINE
  5
F0
  8
5
  6
CONTINUOUS
 10
118.4634
 20
1056.284
 30
0.0
 11
118.4634
 21
1073.284
 31
0.0
  0
LINE
  5
F1
  8
5
  6
CONTINUOUS
 10
118.4634
 20
1088.284
 30
0.0
 11
118.4634
 21
1103.284
 31
0.0
  0
LINE
  5
F2
  8
5
  6
CONTINUOUS
 10
118.4634
 20
1118.284
 30
0.0
 11
118.4634
 21
1135.534
 31
0.0
  0
LINE
  5
F3
  8
5
  6
CONTINUOUS
 10
118.4634
 20
1249.284
 30
0.0
 11
118.4634
 21
1267.484
 31
0.0
  0
LINE
  5
F4
  8
5
  6
CONTINUOUS
 10
118.4634
 20
1217.284
 30
0.0
 11
118.4634
 21
1232.284
 31
0.0
  0
LINE
  5
F5
  8
5
  6
CONTINUOUS
 10
118.4634
 20
1187.284
 30
0.0
 11
118.4634
 21
1202.284
 31
0.0
  0
LINE
  5
F6
  8
5
  6
CONTINUOUS
 10
118.4634
 20
1152.784
 30
0.0
 11
118.4634
 21
1170.034
 31
0.0
  0
LINE
  5
F7
  8
5
  6
CONTINUOUS
 10
548.4634
 20
1152.784
 30
0.0
 11
548.4634
 21
1135.534
 31
0.0
  0
LINE
  5
F8
  8
5
  6
CONTINUOUS
 10
548.4634
 20
1187.284
 30
0.0
 11
548.4634
 21
1170.034
 31
0.0
  0
LINE
  5
F9
  8
5
  6
CONTINUOUS
 10
548.4634
 20
1217.284
 30
0.0
 11
548.4634
 21
1202.284
 31
0.0
  0
LINE
  5
FA
  8
5
  6
CONTINUOUS
 10
548.4634
 20
1249.284
 30
0.0
 11
548.4634
 21
1232.284
 31
0.0
  0
LINE
  5
FB
  8
5
  6
CONTINUOUS
 10
548.4634
 20
1118.284
 30
0.0
 11
548.4634
 21
1103.284
 31
0.0
  0
LINE
  5
FC
  8
5
  6
CONTINUOUS
 10
548.4634
 20
1088.284
 30
0.0
 11
548.4634
 21
1073.284
 31
0.0
  0
LINE
  5
FD
  8
5
  6
CONTINUOUS
 10
548.4634
 20
1056.284
 30
0.0
 11
548.4634
 21
1038.084
 31
0.0
  0
LINE
  5
FE
  8
5
  6
CONTINUOUS
 10
548.4634
 20
1135.534
 30
0.0
 11
548.4634
 21
1118.284
 31
0.0
  0
LINE
  5
FF
  8
5
  6
CONTINUOUS
 10
548.4634
 20
1170.034
 30
0.0
 11
548.4634
 21
1152.784
 31
0.0
  0
LINE
  5
100
  8
5
  6
CONTINUOUS
 10
548.4634
 20
1202.284
 30
0.0
 11
548.4634
 21
1187.284
 31
0.0
  0
LINE
  5
101
  8
5
  6
CONTINUOUS
 10
548.4634
 20
1232.284
 30
0.0
 11
548.4634
 21
1217.284
 31
0.0
  0
LINE
  5
102
  8
5
  6
CONTINUOUS
 10
548.4634
 20
1267.484
 30
0.0
 11
548.4634
 21
1249.284
 31
0.0
  0
LINE
  5
103
  8
5
  6
CONTINUOUS
 10
548.4634
 20
1103.284
 30
0.0
 11
548.4634
 21
1088.284
 31
0.0
  0
LINE
  5
104
  8
5
  6
CONTINUOUS
 10
548.4634
 20
1073.284
 30
0.0
 11
548.4634
 21
1056.284
 31
0.0
  0
LINE
  5
105
  8
5
  6
CONTINUOUS
 10
127.7591
 20
1276.389
 30
0.0
 11
118.4634
 21
1267.484
 31
0.0
  0
LINE
  5
106
  8
5
  6
CONTINUOUS
 10
137.4634
 20
1285.684
 30
0.0
 11
127.7591
 21
1276.389
 31
0.0
  0
LINE
  5
107
  8
5
  6
CONTINUOUS
 10
127.7591
 20
1029.18
 30
0.0
 11
136.6634
 21
1019.884
 31
0.0
  0
LINE
  5
108
  8
5
  6
CONTINUOUS
 10
119.2297
 20
1038.084
 30
0.0
 11
127.7591
 21
1029.18
 31
0.0
  0
LINE
  5
109
  8
5
  6
CONTINUOUS
 10
118.4634
 20
1038.884
 30
0.0
 11
119.2297
 21
1038.084
 31
0.0
  0
LINE
  5
10A
  8
5
  6
CONTINUOUS
 10
539.1677
 20
1276.389
 30
0.0
 11
529.4634
 21
1285.684
 31
0.0
  0
LINE
  5
10B
  8
5
  6
CONTINUOUS
 10
548.4634
 20
1267.484
 30
0.0
 11
539.1677
 21
1276.389
 31
0.0
  0
LINE
  5
10C
  8
5
  6
CONTINUOUS
 10
539.1677
 20
1029.18
 30
0.0
 11
548.4634
 21
1038.084
 31
0.0
  0
LINE
  5
10D
  8
5
  6
CONTINUOUS
 10
529.4634
 20
1019.884
 30
0.0
 11
539.1677
 21
1029.18
 31
0.0
  0
LINE
  5
10E
  8
5
  6
CONTINUOUS
 10
200.5634
 20
1367.784
 30
0.0
 11
218.7634
 21
1367.784
 31
0.0
  0
LINE
  5
10F
  8
5
  6
CONTINUOUS
 10
429.9634
 20
1367.784
 30
0.0
 11
448.1634
 21
1367.784
 31
0.0
  0
LINE
  5
110
  8
5
  6
CONTINUOUS
 10
397.9634
 20
1367.784
 30
0.0
 11
412.9634
 21
1367.784
 31
0.0
  0
LINE
  5
111
  8
5
  6
CONTINUOUS
 10
367.9634
 20
1367.784
 30
0.0
 11
382.9634
 21
1367.784
 31
0.0
  0
LINE
  5
112
  8
5
  6
CONTINUOUS
 10
333.4634
 20
1367.784
 30
0.0
 11
350.7134
 21
1367.784
 31
0.0
  0
LINE
  5
113
  8
5
  6
CONTINUOUS
 10
298.9634
 20
1367.784
 30
0.0
 11
316.2134
 21
1367.784
 31
0.0
  0
LINE
  5
114
  8
5
  6
CONTINUOUS
 10
268.9634
 20
1367.784
 30
0.0
 11
283.9634
 21
1367.784
 31
0.0
  0
LINE
  5
115
  8
5
  6
CONTINUOUS
 10
236.9634
 20
1367.784
 30
0.0
 11
253.9634
 21
1367.784
 31
0.0
  0
LINE
  5
116
  8
5
  6
CONTINUOUS
 10
218.7634
 20
1367.784
 30
0.0
 11
236.9634
 21
1367.784
 31
0.0
  0
LINE
  5
117
  8
5
  6
CONTINUOUS
 10
448.1634
 20
1367.784
 30
0.0
 11
466.3634
 21
1367.784
 31
0.0
  0
LINE
  5
118
  8
5
  6
CONTINUOUS
 10
412.9634
 20
1367.784
 30
0.0
 11
429.9634
 21
1367.784
 31
0.0
  0
LINE
  5
119
  8
5
  6
CONTINUOUS
 10
382.9634
 20
1367.784
 30
0.0
 11
397.9634
 21
1367.784
 31
0.0
  0
LINE
  5
11A
  8
5
  6
CONTINUOUS
 10
350.7134
 20
1367.784
 30
0.0
 11
367.9634
 21
1367.784
 31
0.0
  0
LINE
  5
11B
  8
5
  6
CONTINUOUS
 10
316.2134
 20
1367.784
 30
0.0
 11
333.4634
 21
1367.784
 31
0.0
  0
LINE
  5
11C
  8
5
  6
CONTINUOUS
 10
283.9634
 20
1367.784
 30
0.0
 11
298.9634
 21
1367.784
 31
0.0
  0
LINE
  5
11D
  8
5
  6
CONTINUOUS
 10
253.9634
 20
1367.784
 30
0.0
 11
268.9634
 21
1367.784
 31
0.0
  0
LINE
  5
11E
  8
5
  6
CONTINUOUS
 10
526.15
 20
1363.149
 30
0.0
 11
543.8277
 21
1345.471
 31
0.0
  0
LINE
  5
11F
  8
5
  6
CONTINUOUS
 10
543.8277
 20
1345.471
 30
0.0
 11
535.3555
 21
1331.371
 31
0.0
  0
LINE
  5
120
  8
5
  6
CONTINUOUS
 10
535.3555
 20
1331.371
 30
0.0
 11
515.1642
 21
1297.767
 31
0.0
  0
LINE
  5
121
  8
5
  6
CONTINUOUS
 10
482.5999
 20
1330.331
 30
0.0
 11
513.2777
 21
1353.449
 31
0.0
  0
LINE
  5
122
  8
5
  6
CONTINUOUS
 10
513.2777
 20
1353.449
 30
0.0
 11
526.15
 21
1363.149
 31
0.0
  0
LINE
  5
123
  8
5
  6
CONTINUOUS
 10
123.9634
 20
1039.844
 30
0.0
 11
123.9634
 21
1265.725
 31
0.0
  0
LINE
  5
124
  8
5
  6
CONTINUOUS
 10
123.9634
 20
1039.844
 30
0.0
 11
220.5227
 21
943.2844
 31
0.0
  0
LINE
  5
125
  8
5
  6
CONTINUOUS
 10
220.5227
 20
943.2844
 30
0.0
 11
446.4041
 21
943.2844
 31
0.0
  0
LINE
  5
126
  8
5
  6
CONTINUOUS
 10
446.4041
 20
943.2844
 30
0.0
 11
542.9634
 21
1039.844
 31
0.0
  0
LINE
  5
127
  8
5
  6
CONTINUOUS
 10
542.9634
 20
1039.844
 30
0.0
 11
542.9634
 21
1265.725
 31
0.0
  0
LINE
  5
128
  8
5
  6
CONTINUOUS
 10
542.9634
 20
1265.725
 30
0.0
 11
446.4041
 21
1362.284
 31
0.0
  0
LINE
  5
129
  8
5
  6
CONTINUOUS
 10
446.4041
 20
1362.284
 30
0.0
 11
220.5227
 21
1362.284
 31
0.0
  0
LINE
  5
12A
  8
5
  6
CONTINUOUS
 10
220.5227
 20
1362.284
 30
0.0
 11
123.9634
 21
1265.725
 31
0.0
  0
LINE
  5
12B
  8
5
  6
CONTINUOUS
 10
120.9634
 20
1038.601
 30
0.0
 11
120.9634
 21
1266.968
 31
0.0
  0
LINE
  5
12C
  8
5
  6
CONTINUOUS
 10
219.2801
 20
1365.284
 30
0.0
 11
120.9634
 21
1266.968
 31
0.0
  0
LINE
  5
12D
  8
5
  6
CONTINUOUS
 10
447.6467
 20
1365.284
 30
0.0
 11
219.2801
 21
1365.284
 31
0.0
  0
LINE
  5
12E
  8
5
  6
CONTINUOUS
 10
545.9634
 20
1266.968
 30
0.0
 11
447.6467
 21
1365.284
 31
0.0
  0
LINE
  5
12F
  8
5
  6
CONTINUOUS
 10
545.9634
 20
1038.601
 30
0.0
 11
545.9634
 21
1266.968
 31
0.0
  0
LINE
  5
130
  8
5
  6
CONTINUOUS
 10
447.6467
 20
940.2844
 30
0.0
 11
545.9634
 21
1038.601
 31
0.0
  0
LINE
  5
131
  8
5
  6
CONTINUOUS
 10
219.2801
 20
940.2844
 30
0.0
 11
447.6467
 21
940.2844
 31
0.0
  0
LINE
  5
132
  8
5
  6
CONTINUOUS
 10
120.9634
 20
1038.601
 30
0.0
 11
219.2801
 21
940.2844
 31
0.0
  0
CIRCLE
  5
133
  8
5
  6
CONTINUOUS
 10
333.4634
 20
1152.784
 30
0.0
 40
140.0
  0
LINE
  5
134
  8
5
  6
CONTINUOUS
 10
1828.254
 20
1309.899
 30
0.0
 11
1770.461
 21
1353.449
 31
0.0
  0
LINE
  5
135
  8
5
  6
CONTINUOUS
 10
1840.275
 20
1506.584
 30
0.0
 11
2063.283
 21
1506.584
 31
0.0
  0
LINE
  5
136
  8
5
  6
CONTINUOUS
 10
1802.275
 20
1387.785
 30
0.0
 11
1802.275
 21
1410.585
 31
0.0
  0
LINE
  5
137
  8
5
  6
CONTINUOUS
 10
1826.275
 20
1363.785
 30
0.0
 11
1802.275
 21
1387.785
 31
0.0
  0
LINE
  5
138
  8
5
  6
CONTINUOUS
 10
2142.775
 20
1435.585
 30
0.0
 11
2142.775
 21
1387.585
 31
0.0
  0
LINE
  5
139
  8
5
  6
CONTINUOUS
 10
2107.775
 20
1410.585
 30
0.0
 11
1795.275
 21
1410.585
 31
0.0
  0
LINE
  5
13A
  8
5
  6
CONTINUOUS
 10
2098.275
 20
1387.785
 30
0.0
 11
2098.275
 21
1410.585
 31
0.0
  0
LINE
  5
13B
  8
5
  6
CONTINUOUS
 10
2098.275
 20
1387.785
 30
0.0
 11
2074.275
 21
1363.785
 31
0.0
  0
LINE
  5
13C
  8
5
  6
CONTINUOUS
 10
2098.075
 20
1387.585
 30
0.0
 11
2142.775
 21
1387.585
 31
0.0
  0
LINE
  5
13D
  8
5
  6
CONTINUOUS
 10
2074.275
 20
1363.785
 30
0.0
 11
1826.275
 21
1363.785
 31
0.0
  0
LINE
  5
13F
  8
5
  6
CONTINUOUS
 10
2025.275
 20
970.7844
 30
0.0
 11
2025.275
 21
976.039
 31
0.0
  0
LINE
  5
140
  8
5
  6
CONTINUOUS
 10
2040.275
 20
983.185
 30
0.0
 11
2040.275
 21
955.7845
 31
0.0
  0
LINE
  5
143
  8
5
  6
CONTINUOUS
 10
1860.275
 20
983.185
 30
0.0
 11
1860.275
 21
955.7845
 31
0.0
  0
LINE
  5
145
  8
5
  6
CONTINUOUS
 10
1875.275
 20
970.7844
 30
0.0
 11
1875.275
 21
976.039
 31
0.0
  0
ARC
  5
148
  8
5
  6
CONTINUOUS
 10
1950.275
 20
1152.785
 30
0.0
 40
191.6333
 50
329.5559
 51
90.0
  0
ARC
  5
149
  8
5
  6
CONTINUOUS
 10
1950.275
 20
1152.785
 30
0.0
 40
191.6333
 50
90.0
 51
328.5099
  0
LINE
  5
14A
  8
5
  6
CONTINUOUS
 10
1860.275
 20
955.7845
 30
0.0
 11
1860.275
 21
937.7845
 31
0.0
  0
LINE
  5
14B
  8
5
  6
CONTINUOUS
 10
1875.275
 20
937.7845
 30
0.0
 11
1875.275
 21
970.7844
 31
0.0
  0
LINE
  5
14C
  8
5
  6
CONTINUOUS
 10
2040.275
 20
955.7845
 30
0.0
 11
2040.275
 21
937.7845
 31
0.0
  0
LINE
  5
14D
  8
5
  6
CONTINUOUS
 10
2025.275
 20
970.7844
 30
0.0
 11
2025.275
 21
937.7845
 31
0.0
  0
LINE
  5
14E
  8
5
  6
CONTINUOUS
 10
1980.275
 20
963.1428
 30
0.0
 11
1980.275
 21
937.7845
 31
0.0
  0
LINE
  5
14F
  8
5
  6
CONTINUOUS
 10
1995.275
 20
937.7845
 30
0.0
 11
1995.275
 21
966.1324
 31
0.0
  0
LINE
  5
150
  8
5
  6
CONTINUOUS
 10
153.6491
 20
1353.449
 30
0.0
 11
131.5713
 21
1331.371
 31
0.0
  0
LINE
  5
151
  8
5
  6
CONTINUOUS
 10
127.7591
 20
1029.18
 30
0.0
 11
129.0717
 21
1030.493
 31
0.0
  0
LINE
  5
152
  8
5
  6
CONTINUOUS
 10
537.8551
 20
1030.493
 30
0.0
 11
539.1677
 21
1029.18
 31
0.0
  0
LINE
  5
153
  8
5
  6
CONTINUOUS
 10
127.7591
 20
1276.389
 30
0.0
 11
129.0717
 21
1275.076
 31
0.0
  0
LINE
  5
154
  8
5
  6
CONTINUOUS
 10
539.1677
 20
1276.389
 30
0.0
 11
537.8551
 21
1275.076
 31
0.0
  0
LINE
  5
155
  8
5
  6
CONTINUOUS
 10
211.1717
 20
1357.176
 30
0.0
 11
200.5633
 21
1367.784
 31
0.0
  0
LINE
  5
156
  8
5
  6
CONTINUOUS
 10
455.7551
 20
1357.176
 30
0.0
 11
466.3634
 21
1367.784
 31
0.0
  0
LINE
  5
157
  8
5
  6
CONTINUOUS
 10
119.2297
 20
1038.084
 30
0.0
 11
121.4801
 21
1038.084
 31
0.0
  0
LINE
  5
158
  8
5
  6
CONTINUOUS
 10
120.9634
 20
1056.284
 30
0.0
 11
118.4635
 21
1056.284
 31
0.0
  0
LINE
  5
159
  8
5
  6
CONTINUOUS
 10
118.4635
 20
1267.484
 30
0.0
 11
121.48
 21
1267.484
 31
0.0
  0
LINE
  5
15A
  8
5
  6
CONTINUOUS
 10
118.4635
 20
1249.284
 30
0.0
 11
120.9634
 21
1249.284
 31
0.0
  0
LINE
  5
15B
  8
5
  6
CONTINUOUS
 10
120.9634
 20
1152.784
 30
0.0
 11
118.4635
 21
1152.784
 31
0.0
  0
LINE
  5
15C
  8
5
  6
CONTINUOUS
 10
118.4635
 20
1135.534
 30
0.0
 11
120.9634
 21
1135.534
 31
0.0
  0
LINE
  5
15D
  8
5
  6
CONTINUOUS
 10
120.9634
 20
1187.284
 30
0.0
 11
118.4635
 21
1187.284
 31
0.0
  0
LINE
  5
15E
  8
5
  6
CONTINUOUS
 10
118.4635
 20
1170.034
 30
0.0
 11
120.9634
 21
1170.034
 31
0.0
  0
LINE
  5
15F
  8
5
  6
CONTINUOUS
 10
120.9634
 20
1217.284
 30
0.0
 11
118.4635
 21
1217.284
 31
0.0
  0
LINE
  5
160
  8
5
  6
CONTINUOUS
 10
118.4635
 20
1202.284
 30
0.0
 11
120.9634
 21
1202.284
 31
0.0
  0
LINE
  5
161
  8
5
  6
CONTINUOUS
 10
118.4635
 20
1232.284
 30
0.0
 11
120.9634
 21
1232.284
 31
0.0
  0
LINE
  5
162
  8
5
  6
CONTINUOUS
 10
120.9634
 20
1118.284
 30
0.0
 11
118.4635
 21
1118.284
 31
0.0
  0
LINE
  5
163
  8
5
  6
CONTINUOUS
 10
118.4635
 20
1103.284
 30
0.0
 11
120.9634
 21
1103.284
 31
0.0
  0
LINE
  5
164
  8
5
  6
CONTINUOUS
 10
120.9634
 20
1088.284
 30
0.0
 11
118.4635
 21
1088.284
 31
0.0
  0
LINE
  5
165
  8
5
  6
CONTINUOUS
 10
118.4635
 20
1073.284
 30
0.0
 11
120.9634
 21
1073.284
 31
0.0
  0
LINE
  5
166
  8
5
  6
CONTINUOUS
 10
545.4467
 20
1038.084
 30
0.0
 11
548.4635
 21
1038.084
 31
0.0
  0
LINE
  5
167
  8
5
  6
CONTINUOUS
 10
548.4635
 20
1056.284
 30
0.0
 11
545.9634
 21
1056.284
 31
0.0
  0
LINE
  5
168
  8
5
  6
CONTINUOUS
 10
545.4468
 20
1267.484
 30
0.0
 11
548.4634
 21
1267.484
 31
0.0
  0
LINE
  5
169
  8
5
  6
CONTINUOUS
 10
545.9634
 20
1249.284
 30
0.0
 11
548.4634
 21
1249.284
 31
0.0
  0
LINE
  5
16A
  8
5
  6
CONTINUOUS
 10
545.9634
 20
1135.534
 30
0.0
 11
548.4635
 21
1135.534
 31
0.0
  0
LINE
  5
16B
  8
5
  6
CONTINUOUS
 10
548.4634
 20
1152.784
 30
0.0
 11
545.9634
 21
1152.784
 31
0.0
  0
LINE
  5
16C
  8
5
  6
CONTINUOUS
 10
545.9634
 20
1170.034
 30
0.0
 11
548.4634
 21
1170.034
 31
0.0
  0
LINE
  5
16D
  8
5
  6
CONTINUOUS
 10
548.4634
 20
1187.284
 30
0.0
 11
545.9634
 21
1187.284
 31
0.0
  0
LINE
  5
16E
  8
5
  6
CONTINUOUS
 10
545.9634
 20
1202.284
 30
0.0
 11
548.4634
 21
1202.284
 31
0.0
  0
LINE
  5
16F
  8
5
  6
CONTINUOUS
 10
548.4634
 20
1217.284
 30
0.0
 11
545.9634
 21
1217.284
 31
0.0
  0
LINE
  5
170
  8
5
  6
CONTINUOUS
 10
545.9634
 20
1232.284
 30
0.0
 11
548.4634
 21
1232.284
 31
0.0
  0
LINE
  5
171
  8
5
  6
CONTINUOUS
 10
545.9634
 20
1103.284
 30
0.0
 11
548.4635
 21
1103.284
 31
0.0
  0
LINE
  5
172
  8
5
  6
CONTINUOUS
 10
548.4635
 20
1118.284
 30
0.0
 11
545.9634
 21
1118.284
 31
0.0
  0
LINE
  5
173
  8
5
  6
CONTINUOUS
 10
545.9634
 20
1073.284
 30
0.0
 11
548.4635
 21
1073.284
 31
0.0
  0
LINE
  5
174
  8
5
  6
CONTINUOUS
 10
548.4635
 20
1088.284
 30
0.0
 11
545.9634
 21
1088.284
 31
0.0
  0
LINE
  5
175
  8
5
  6
CONTINUOUS
 10
448.1634
 20
1364.768
 30
0.0
 11
448.1634
 21
1367.784
 31
0.0
  0
LINE
  5
176
  8
5
  6
CONTINUOUS
 10
429.9634
 20
1367.784
 30
0.0
 11
429.9634
 21
1365.284
 31
0.0
  0
LINE
  5
177
  8
5
  6
CONTINUOUS
 10
218.7634
 20
1364.768
 30
0.0
 11
218.7634
 21
1367.784
 31
0.0
  0
LINE
  5
178
  8
5
  6
CONTINUOUS
 10
236.9634
 20
1365.284
 30
0.0
 11
236.9634
 21
1367.784
 31
0.0
  0
LINE
  5
179
  8
5
  6
CONTINUOUS
 10
253.9634
 20
1365.284
 30
0.0
 11
253.9634
 21
1367.784
 31
0.0
  0
LINE
  5
17A
  8
5
  6
CONTINUOUS
 10
283.9634
 20
1365.284
 30
0.0
 11
283.9634
 21
1367.784
 31
0.0
  0
LINE
  5
17B
  8
5
  6
CONTINUOUS
 10
268.9634
 20
1367.784
 30
0.0
 11
268.9634
 21
1365.284
 31
0.0
  0
LINE
  5
17C
  8
5
  6
CONTINUOUS
 10
316.2134
 20
1365.284
 30
0.0
 11
316.2134
 21
1367.784
 31
0.0
  0
LINE
  5
17D
  8
5
  6
CONTINUOUS
 10
298.9634
 20
1367.784
 30
0.0
 11
298.9634
 21
1365.284
 31
0.0
  0
LINE
  5
17E
  8
5
  6
CONTINUOUS
 10
350.7134
 20
1365.284
 30
0.0
 11
350.7134
 21
1367.784
 31
0.0
  0
LINE
  5
17F
  8
5
  6
CONTINUOUS
 10
333.4634
 20
1367.784
 30
0.0
 11
333.4634
 21
1365.284
 31
0.0
  0
LINE
  5
180
  8
5
  6
CONTINUOUS
 10
382.9634
 20
1365.284
 30
0.0
 11
382.9634
 21
1367.784
 31
0.0
  0
LINE
  5
181
  8
5
  6
CONTINUOUS
 10
367.9634
 20
1367.784
 30
0.0
 11
367.9634
 21
1365.284
 31
0.0
  0
LINE
  5
182
  8
5
  6
CONTINUOUS
 10
412.9634
 20
1365.284
 30
0.0
 11
412.9634
 21
1367.784
 31
0.0
  0
LINE
  5
183
  8
5
  6
CONTINUOUS
 10
397.9634
 20
1367.784
 30
0.0
 11
397.9634
 21
1365.284
 31
0.0
  0
LINE
  5
184
  8
5
  6
CONTINUOUS
 10
535.3555
 20
1331.371
 30
0.0
 11
513.2777
 21
1353.449
 31
0.0
  0
CIRCLE
  5
185
  8
5
  6
CONTINUOUS
 10
333.4634
 20
1152.784
 30
0.0
 40
200.5
  0
LINE
  5
186
  8
5
  6
CONTINUOUS
 10
2010.275
 20
970.4002
 30
0.0
 11
2010.275
 21
937.7845
 31
0.0
  0
LINE
  5
187
  8
5
  6
CONTINUOUS
 10
1890.275
 20
970.4002
 30
0.0
 11
1890.275
 21
937.7845
 31
0.0
  0
LINE
  5
188
  8
5
  6
CONTINUOUS
 10
1905.275
 20
937.7845
 30
0.0
 11
1905.275
 21
966.1324
 31
0.0
  0
LINE
  5
189
  8
5
  6
CONTINUOUS
 10
1920.275
 20
937.7845
 30
0.0
 11
1920.275
 21
963.1428
 31
0.0
  0
LINE
  5
18A
  8
5
  6
CONTINUOUS
 10
1950.275
 20
960.7846
 30
0.0
 11
1950.275
 21
937.7845
 31
0.0
  0
LINE
  5
18B
  8
5
  6
CONTINUOUS
 10
1965.275
 20
937.7845
 30
0.0
 11
1965.275
 21
961.3714
 31
0.0
  0
LINE
  5
18C
  8
5
  6
CONTINUOUS
 10
1935.275
 20
937.7845
 30
0.0
 11
1935.275
 21
961.3714
 31
0.0
  0
LINE
  5
18D
  8
5
  6
CONTINUOUS
 10
1321.567
 20
1019.884
 30
0.0
 11
891.5669
 21
1019.884
 31
0.0
  0
LINE
  5
18E
  8
5
  6
CONTINUOUS
 10
889.2355
 20
1038.084
 30
0.0
 11
886.904
 21
1056.284
 31
0.0
  0
LINE
  5
18F
  8
5
  6
CONTINUOUS
 10
886.904
 20
1056.284
 30
0.0
 11
885.8612
 21
1064.425
 31
0.0
  0
LINE
  5
190
  8
5
  6
CONTINUOUS
 10
891.5669
 20
1019.884
 30
0.0
 11
890.3761
 21
1029.18
 31
0.0
  0
LINE
  5
191
  8
5
  6
CONTINUOUS
 10
890.3761
 20
1029.18
 30
0.0
 11
889.2355
 21
1038.084
 31
0.0
  0
LINE
  5
192
  8
5
  6
CONTINUOUS
 10
886.904
 20
1249.284
 30
0.0
 11
885.8612
 21
1241.144
 31
0.0
  0
LINE
  5
193
  8
5
  6
CONTINUOUS
 10
890.3761
 20
1276.389
 30
0.0
 11
889.2355
 21
1267.484
 31
0.0
  0
LINE
  5
194
  8
5
  6
CONTINUOUS
 10
890.3761
 20
1276.389
 30
0.0
 11
891.5669
 21
1285.684
 31
0.0
  0
LINE
  5
195
  8
5
  6
CONTINUOUS
 10
889.2355
 20
1267.484
 30
0.0
 11
886.904
 21
1249.284
 31
0.0
  0
LINE
  5
196
  8
5
  6
CONTINUOUS
 10
1323.898
 20
1038.084
 30
0.0
 11
1326.23
 21
1056.284
 31
0.0
  0
LINE
  5
197
  8
5
  6
CONTINUOUS
 10
1326.23
 20
1056.284
 30
0.0
 11
1327.273
 21
1064.425
 31
0.0
  0
LINE
  5
198
  8
5
  6
CONTINUOUS
 10
1322.758
 20
1029.18
 30
0.0
 11
1323.898
 21
1038.084
 31
0.0
  0
LINE
  5
199
  8
5
  6
CONTINUOUS
 10
1322.758
 20
1029.18
 30
0.0
 11
1321.567
 21
1019.884
 31
0.0
  0
LINE
  5
19A
  8
5
  6
CONTINUOUS
 10
891.5669
 20
1285.684
 30
0.0
 11
1321.567
 21
1285.684
 31
0.0
  0
LINE
  5
19B
  8
5
  6
CONTINUOUS
 10
1326.23
 20
1249.284
 30
0.0
 11
1327.273
 21
1241.144
 31
0.0
  0
LINE
  5
19C
  8
5
  6
CONTINUOUS
 10
1321.567
 20
1285.684
 30
0.0
 11
1322.758
 21
1276.389
 31
0.0
  0
LINE
  5
19D
  8
5
  6
CONTINUOUS
 10
1322.758
 20
1276.389
 30
0.0
 11
1323.898
 21
1267.485
 31
0.0
  0
LINE
  5
19E
  8
5
  6
CONTINUOUS
 10
1323.898
 20
1267.485
 30
0.0
 11
1326.23
 21
1249.284
 31
0.0
  0
LINE
  5
19F
  8
5
  6
CONTINUOUS
 10
1171.567
 20
1343.784
 30
0.0
 11
1171.567
 21
1291.354
 31
0.0
  0
LINE
  5
1A0
  8
5
  6
CONTINUOUS
 10
1333.067
 20
1152.784
 30
0.0
 11
1333.067
 21
1344.784
 31
0.0
  0
LINE
  5
1A1
  8
5
  6
CONTINUOUS
 10
1333.067
 20
960.7845
 30
0.0
 11
1333.067
 21
1152.784
 31
0.0
  0
LINE
  5
1A2
  8
5
  6
CONTINUOUS
 10
1321.567
 20
1367.784
 30
0.0
 11
1196.567
 21
1367.784
 31
0.0
  0
LINE
  5
1A3
  8
5
  6
CONTINUOUS
 10
1196.567
 20
1367.784
 30
0.0
 11
1171.567
 21
1343.784
 31
0.0
  0
LINE
  5
1A4
  8
5
  6
CONTINUOUS
 10
1323.898
 20
1349.584
 30
0.0
 11
1321.567
 21
1367.784
 31
0.0
  0
LINE
  5
1A5
  8
5
  6
CONTINUOUS
 10
1326.23
 20
1331.384
 30
0.0
 11
1323.898
 21
1349.584
 31
0.0
  0
LINE
  5
1A6
  8
5
  6
CONTINUOUS
 10
1327.273
 20
1323.244
 30
0.0
 11
1326.23
 21
1331.384
 31
0.0
  0
ARC
  5
1A7
  8
5
  6
CONTINUOUS
 10
1950.275
 20
1152.785
 30
0.0
 40
167.7064
 50
264.3538
 51
275.6462
  0
LINE
  5
1A8
  8
5
  6
CONTINUOUS
 10
1384.067
 20
1038.601
 30
0.0
 11
1384.067
 21
940.2845
 31
0.0
  0
LINE
  5
1A9
  8
5
  6
CONTINUOUS
 10
1384.067
 20
1365.284
 30
0.0
 11
1384.067
 21
1266.968
 31
0.0
  0
LINE
  5
1AA
  8
5
  6
CONTINUOUS
 10
1384.067
 20
1038.601
 30
0.0
 11
1384.067
 21
1266.968
 31
0.0
  0
LINE
  5
1AB
  8
5
  6
CONTINUOUS
 10
1384.067
 20
943.2844
 30
0.0
 11
1455.567
 21
943.2844
 31
0.0
  0
LINE
  5
1AC
  8
5
  6
CONTINUOUS
 10
1384.067
 20
1362.284
 30
0.0
 11
1455.567
 21
1362.284
 31
0.0
  0
LINE
  5
1AD
  8
5
  6
CONTINUOUS
 10
1334.567
 20
1266.968
 30
0.0
 11
1334.567
 21
1038.601
 31
0.0
  0
LINE
  5
1AE
  8
5
  6
CONTINUOUS
 10
1334.567
 20
1266.968
 30
0.0
 11
1334.567
 21
1365.284
 31
0.0
  0
LINE
  5
1AF
  8
5
  6
CONTINUOUS
 10
1334.567
 20
940.2845
 30
0.0
 11
1334.567
 21
1038.601
 31
0.0
  0
LINE
  5
1B0
  8
5
  6
CONTINUOUS
 10
1384.067
 20
1365.284
 30
0.0
 11
1334.567
 21
1365.284
 31
0.0
  0
LINE
  5
1B1
  8
5
  6
CONTINUOUS
 10
1384.067
 20
940.2845
 30
0.0
 11
1334.567
 21
940.2845
 31
0.0
  0
LINE
  5
1B2
  8
5
  6
CONTINUOUS
 10
1522.567
 20
1292.784
 30
0.0
 11
1522.567
 21
1012.784
 31
0.0
  0
LINE
  5
1B3
  8
5
  6
CONTINUOUS
 10
1455.567
 20
1039.844
 30
0.0
 11
1455.567
 21
1265.725
 31
0.0
  0
LINE
  5
1B4
  8
5
  6
CONTINUOUS
 10
1455.567
 20
1039.844
 30
0.0
 11
1455.567
 21
943.2844
 31
0.0
  0
LINE
  5
1B5
  8
5
  6
CONTINUOUS
 10
1455.567
 20
1362.284
 30
0.0
 11
1455.567
 21
1265.725
 31
0.0
  0
ARC
  5
1B6
  8
5
  6
CONTINUOUS
 10
1950.275
 20
1152.785
 30
0.0
 40
163.9844
 50
323.6917
 51
264.2252
  0
ARC
  5
1B7
  8
5
  6
CONTINUOUS
 10
1950.275
 20
1152.785
 30
0.0
 40
163.9844
 50
275.7748
 51
322.3798
  0
ARC
  5
1B8
  8
5
  6
CONTINUOUS
 10
1950.275
 20
1152.785
 30
0.0
 40
147.0
 50
276.4447
 51
263.5553
  0
LINE
  5
1B9
  8
5
  6
CONTINUOUS
 10
2165.275
 20
1056.284
 30
0.0
 11
2128.875
 21
1056.284
 31
0.0
  0
LINE
  5
1BA
  8
5
  6
CONTINUOUS
 10
2125.043
 20
1232.284
 30
0.0
 11
2165.275
 21
1232.285
 31
0.0
  0
LINE
  5
1BB
  8
5
  6
CONTINUOUS
 10
2125.043
 20
1073.284
 30
0.0
 11
2165.275
 21
1073.284
 31
0.0
  0
ARC
  5
1BC
  8
5
  6
CONTINUOUS
 10
1950.275
 20
1152.785
 30
0.0
 40
140.7048
 50
235.7463
 51
263.2656
  0
ARC
  5
1BD
  8
5
  6
CONTINUOUS
 10
1950.275
 20
1152.785
 30
0.0
 40
140.7048
 50
276.7344
 51
304.2537
  0
LINE
  5
1BE
  8
5
  6
CONTINUOUS
 10
2104.249
 20
1038.085
 30
0.0
 11
2147.075
 21
1038.085
 31
0.0
  0
LINE
  5
1BF
  8
5
  6
CONTINUOUS
 10
2104.249
 20
1267.484
 30
0.0
 11
2147.075
 21
1267.484
 31
0.0
  0
ARC
  5
1C0
  8
5
  6
CONTINUOUS
 10
1950.275
 20
1152.785
 30
0.0
 40
140.7048
 50
43.02201
 51
136.978
  0
ARC
  5
1C1
  8
5
  6
CONTINUOUS
 10
1950.275
 20
1152.785
 30
0.0
 40
140.7048
 50
25.01598
 51
43.02201
  0
ARC
  5
1C2
  8
5
  6
CONTINUOUS
 10
1950.275
 20
1152.785
 30
0.0
 40
140.7048
 50
17.58082
 51
25.01598
  0
ARC
  5
1C3
  8
5
  6
CONTINUOUS
 10
1950.275
 20
1152.785
 30
0.0
 40
140.7048
 50
10.44144
 51
17.58082
  0
ARC
  5
1C4
  8
5
  6
CONTINUOUS
 10
1950.275
 20
1152.785
 30
0.0
 40
140.7048
 50
3.463355
 51
10.44144
  0
ARC
  5
1C5
  8
5
  6
CONTINUOUS
 10
1950.275
 20
1152.785
 30
0.0
 40
140.7048
 50
356.5366
 51
3.4634
  0
ARC
  5
1C6
  8
5
  6
CONTINUOUS
 10
1950.275
 20
1152.785
 30
0.0
 40
140.7048
 50
349.5586
 51
356.5366
  0
ARC
  5
1C7
  8
5
  6
CONTINUOUS
 10
1950.275
 20
1152.785
 30
0.0
 40
140.7048
 50
342.4192
 51
349.5586
  0
ARC
  5
1C8
  8
5
  6
CONTINUOUS
 10
1950.275
 20
1152.785
 30
0.0
 40
140.7048
 50
334.984
 51
342.4192
  0
ARC
  5
1C9
  8
5
  6
CONTINUOUS
 10
1950.275
 20
1152.785
 30
0.0
 40
140.7048
 50
316.978
 51
334.984
  0
ARC
  5
1CA
  8
5
  6
CONTINUOUS
 10
1950.275
 20
1152.785
 30
0.0
 40
136.2749
 50
314.5588
 51
315.2142
  0
ARC
  5
1CB
  8
5
  6
CONTINUOUS
 10
1950.275
 20
1152.785
 30
0.0
 40
136.2749
 50
301.4142
 51
312.7313
  0
LINE
  5
1CC
  8
5
  6
CONTINUOUS
 10
890.1035
 20
1311.56
 30
0.0
 11
891.9273
 21
1363.784
 31
0.0
  0
LINE
  5
1CD
  8
5
  6
CONTINUOUS
 10
1132.207
 20
1363.784
 30
0.0
 11
1134.03
 21
1311.56
 31
0.0
  0
ARC
  5
1CE
  8
5
  6
CONTINUOUS
 10
1950.275
 20
1152.785
 30
0.0
 40
136.2749
 50
224.7858
 51
238.5858
  0
ARC
  5
1CF
  8
5
  6
CONTINUOUS
 10
1950.275
 20
1152.785
 30
0.0
 40
140.7048
 50
205.016
 51
223.022
  0
ARC
  5
1D0
  8
5
  6
CONTINUOUS
 10
1950.275
 20
1152.785
 30
0.0
 40
140.7048
 50
197.5808
 51
205.016
  0
ARC
  5
1D1
  8
5
  6
CONTINUOUS
 10
1950.275
 20
1152.785
 30
0.0
 40
140.7048
 50
190.4414
 51
197.5808
  0
LINE
  5
1D2
  8
5
  6
CONTINUOUS
 10
1602.567
 20
1345.471
 30
0.0
 11
1602.567
 21
1255.471
 31
0.0
  0
ARC
  5
1D3
  8
5
  6
CONTINUOUS
 10
1950.275
 20
1152.785
 30
0.0
 40
140.7048
 50
183.4634
 51
190.4414
  0
ARC
  5
1D4
  8
5
  6
CONTINUOUS
 10
1950.275
 20
1152.785
 30
0.0
 40
140.7048
 50
176.5366
 51
183.4634
  0
ARC
  5
1D5
  8
5
  6
CONTINUOUS
 10
1950.275
 20
1152.785
 30
0.0
 40
140.7048
 50
169.5586
 51
176.5366
  0
ARC
  5
1D6
  8
5
  6
CONTINUOUS
 10
1950.275
 20
1152.785
 30
0.0
 40
140.7048
 50
162.4192
 51
169.5586
  0
ARC
  5
1D7
  8
5
  6
CONTINUOUS
 10
1950.275
 20
1152.785
 30
0.0
 40
140.7048
 50
154.984
 51
162.4192
  0
ARC
  5
1D8
  8
5
  6
CONTINUOUS
 10
1950.275
 20
1152.785
 30
0.0
 40
140.7048
 50
136.978
 51
154.984
  0
ARC
  5
1D9
  8
5
  6
CONTINUOUS
 10
1950.275
 20
1152.785
 30
0.0
 40
59.71259
 50
244.188
 51
295.812
  0
LINE
  5
1DA
  8
5
  6
CONTINUOUS
 10
1602.567
 20
1330.471
 30
0.0
 11
1619.887
 21
1340.471
 31
0.0
  0
LINE
  5
1DB
  8
5
  6
CONTINUOUS
 10
1602.567
 20
1315.471
 30
0.0
 11
1619.887
 21
1325.471
 31
0.0
  0
LINE
  5
1DC
  8
5
  6
CONTINUOUS
 10
1602.567
 20
1300.471
 30
0.0
 11
1619.887
 21
1310.471
 31
0.0
  0
LINE
  5
1DD
  8
5
  6
CONTINUOUS
 10
1602.567
 20
1285.471
 30
0.0
 11
1619.887
 21
1295.471
 31
0.0
  0
LINE
  5
1DE
  8
5
  6
CONTINUOUS
 10
1602.567
 20
1270.471
 30
0.0
 11
1619.887
 21
1280.471
 31
0.0
  0
CIRCLE
  5
1DF
  8
5
  6
CONTINUOUS
 10
1950.275
 20
1152.785
 30
0.0
 40
54.0
  0
ARC
  5
1E0
  8
5
  6
CONTINUOUS
 10
1950.275
 20
1152.785
 30
0.0
 40
69.0
 50
292.1363
 51
247.8637
  0
ARC
  5
1E1
  8
5
  6
CONTINUOUS
 10
1950.275
 20
1152.785
 30
0.0
 40
69.38402
 50
59.04217
 51
120.9578
  0
LINE
  5
1E2
  8
5
  6
CONTINUOUS
 10
1204.883
 20
1318.096
 30
0.0
 11
1208.951
 21
1353.449
 31
0.0
  0
LINE
  5
1E3
  8
5
  6
CONTINUOUS
 10
1208.951
 20
1353.449
 30
0.0
 11
1226.067
 21
1363.149
 31
0.0
  0
LINE
  5
1E4
  8
5
  6
CONTINUOUS
 10
1226.067
 20
1363.149
 30
0.0
 11
1285.067
 21
1363.149
 31
0.0
  0
LINE
  5
1E5
  8
5
  6
CONTINUOUS
 10
1285.067
 20
1363.149
 30
0.0
 11
1302.183
 21
1353.449
 31
0.0
  0
LINE
  5
1E6
  8
5
  6
CONTINUOUS
 10
1306.251
 20
1318.096
 30
0.0
 11
1302.183
 21
1353.449
 31
0.0
  0
LINE
  5
1E7
  8
5
  6
CONTINUOUS
 10
1302.183
 20
1331.371
 30
0.0
 11
1305.799
 21
1285.684
 31
0.0
  0
LINE
  5
1E8
  8
5
  6
CONTINUOUS
 10
1302.183
 20
1331.371
 30
0.0
 11
1285.067
 21
1345.471
 31
0.0
  0
LINE
  5
1E9
  8
5
  6
CONTINUOUS
 10
1285.067
 20
1345.471
 30
0.0
 11
1226.067
 21
1345.471
 31
0.0
  0
LINE
  5
1EA
  8
5
  6
CONTINUOUS
 10
1226.067
 20
1345.471
 30
0.0
 11
1208.951
 21
1331.371
 31
0.0
  0
LINE
  5
1EB
  8
5
  6
CONTINUOUS
 10
1208.951
 20
1331.371
 30
0.0
 11
1205.335
 21
1285.684
 31
0.0
  0
LINE
  5
1EC
  8
5
  6
CONTINUOUS
 10
1237.567
 20
1285.684
 30
0.0
 11
1237.567
 21
1311.902
 31
0.0
  0
LINE
  5
1ED
  8
5
  6
CONTINUOUS
 10
1237.567
 20
1311.902
 30
0.0
 11
1245.567
 21
1318.969
 31
0.0
  0
LINE
  5
1EE
  8
5
  6
CONTINUOUS
 10
1245.567
 20
1318.969
 30
0.0
 11
1265.567
 21
1318.969
 31
0.0
  0
LINE
  5
1EF
  8
5
  6
CONTINUOUS
 10
1265.567
 20
1318.969
 30
0.0
 11
1273.567
 21
1311.902
 31
0.0
  0
LINE
  5
1F0
  8
5
  6
CONTINUOUS
 10
1273.567
 20
1311.902
 30
0.0
 11
1273.567
 21
1285.684
 31
0.0
  0
LINE
  5
1F1
  8
5
  6
CONTINUOUS
 10
1306.251
 20
1318.096
 30
0.0
 11
1307.573
 21
1291.354
 31
0.0
  0
LINE
  5
1F2
  8
5
  6
CONTINUOUS
 10
1302.183
 20
1353.449
 30
0.0
 11
1302.183
 21
1331.371
 31
0.0
  0
LINE
  5
1F3
  8
5
  6
CONTINUOUS
 10
1208.951
 20
1331.371
 30
0.0
 11
1208.951
 21
1353.449
 31
0.0
  0
LINE
  5
1F4
  8
5
  6
CONTINUOUS
 10
1203.561
 20
1291.354
 30
0.0
 11
1204.883
 21
1318.096
 31
0.0
  0
LINE
  5
1F5
  8
5
  6
CONTINUOUS
 10
1237.567
 20
1291.354
 30
0.0
 11
1273.567
 21
1291.354
 31
0.0
  0
LINE
  5
1F6
  8
5
  6
CONTINUOUS
 10
1307.573
 20
1291.354
 30
0.0
 11
1321.567
 21
1291.354
 31
0.0
  0
LINE
  5
1F7
  8
5
  6
CONTINUOUS
 10
1321.567
 20
1291.354
 30
0.0
 11
1321.567
 21
1367.784
 31
0.0
  0
LINE
  5
1F8
  8
5
  6
CONTINUOUS
 10
1171.567
 20
1291.354
 30
0.0
 11
1203.561
 21
1291.354
 31
0.0
  0
ARC
  5
1F9
  8
5
  6
CONTINUOUS
 10
1950.275
 20
1152.785
 30
0.0
 40
69.38402
 50
120.9578
 51
142.2271
  0
ARC
  5
1FA
  8
5
  6
CONTINUOUS
 10
1950.275
 20
1152.785
 30
0.0
 40
69.38402
 50
142.2271
 51
158.4373
  0
ARC
  5
1FB
  8
5
  6
CONTINUOUS
 10
1950.275
 20
1152.785
 30
0.0
 40
69.38402
 50
158.4373
 51
172.9632
  0
LINE
  5
1FC
  8
5
  6
CONTINUOUS
 10
1120.399
 20
1300.76
 30
0.0
 11
903.7348
 21
1300.76
 31
0.0
  0
ARC
  5
1FD
  8
5
  6
CONTINUOUS
 10
1950.275
 20
1152.785
 30
0.0
 40
69.38402
 50
172.9632
 51
187.0368
  0
ARC
  5
1FE
  8
5
  6
CONTINUOUS
 10
1950.275
 20
1152.785
 30
0.0
 40
69.38402
 50
187.0368
 51
201.5627
  0
LINE
  5
1FF
  8
5
  6
CONTINUOUS
 10
1226.067
 20
1363.149
 30
0.0
 11
1226.067
 21
1345.471
 31
0.0
  0
LINE
  5
200
  8
5
  6
CONTINUOUS
 10
1285.067
 20
1345.471
 30
0.0
 11
1285.067
 21
1363.149
 31
0.0
  0
LINE
  5
203
  8
5
  6
CONTINUOUS
 10
1321.567
 20
1056.284
 30
0.0
 11
891.5669
 21
1056.284
 31
0.0
  0
LINE
  5
204
  8
5
  6
CONTINUOUS
 10
891.5669
 20
1056.284
 30
0.0
 11
891.5669
 21
1038.884
 31
0.0
  0
LINE
  5
205
  8
5
  6
CONTINUOUS
 10
891.5669
 20
1038.884
 30
0.0
 11
1321.567
 21
1038.884
 31
0.0
  0
LINE
  5
206
  8
5
  6
CONTINUOUS
 10
1321.567
 20
1038.884
 30
0.0
 11
1321.567
 21
1056.284
 31
0.0
  0
LINE
  5
207
  8
5
  6
CONTINUOUS
 10
1321.567
 20
1088.284
 30
0.0
 11
891.5669
 21
1088.284
 31
0.0
  0
LINE
  5
208
  8
5
  6
CONTINUOUS
 10
891.5669
 20
1088.284
 30
0.0
 11
891.5669
 21
1073.284
 31
0.0
  0
LINE
  5
209
  8
5
  6
CONTINUOUS
 10
891.5669
 20
1073.284
 30
0.0
 11
1321.567
 21
1073.284
 31
0.0
  0
LINE
  5
20A
  8
5
  6
CONTINUOUS
 10
1321.567
 20
1073.284
 30
0.0
 11
1321.567
 21
1088.284
 31
0.0
  0
LINE
  5
20B
  8
5
  6
CONTINUOUS
 10
1321.567
 20
1118.284
 30
0.0
 11
891.5669
 21
1118.284
 31
0.0
  0
LINE
  5
20C
  8
5
  6
CONTINUOUS
 10
891.5669
 20
1118.284
 30
0.0
 11
891.5669
 21
1103.284
 31
0.0
  0
LINE
  5
20D
  8
5
  6
CONTINUOUS
 10
891.5669
 20
1103.284
 30
0.0
 11
1321.567
 21
1103.284
 31
0.0
  0
LINE
  5
20E
  8
5
  6
CONTINUOUS
 10
1321.567
 20
1103.284
 30
0.0
 11
1321.567
 21
1118.284
 31
0.0
  0
LINE
  5
20F
  8
5
  6
CONTINUOUS
 10
1321.567
 20
1249.284
 30
0.0
 11
891.5669
 21
1249.284
 31
0.0
  0
LINE
  5
210
  8
5
  6
CONTINUOUS
 10
891.5669
 20
1249.284
 30
0.0
 11
891.5669
 21
1232.285
 31
0.0
  0
LINE
  5
211
  8
5
  6
CONTINUOUS
 10
891.5669
 20
1232.285
 30
0.0
 11
1321.567
 21
1232.285
 31
0.0
  0
LINE
  5
212
  8
5
  6
CONTINUOUS
 10
1321.567
 20
1232.285
 30
0.0
 11
1321.567
 21
1249.284
 31
0.0
  0
LINE
  5
213
  8
5
  6
CONTINUOUS
 10
1321.567
 20
1217.284
 30
0.0
 11
891.5669
 21
1217.284
 31
0.0
  0
LINE
  5
214
  8
5
  6
CONTINUOUS
 10
891.5669
 20
1217.284
 30
0.0
 11
891.5669
 21
1202.284
 31
0.0
  0
LINE
  5
215
  8
5
  6
CONTINUOUS
 10
891.5669
 20
1202.284
 30
0.0
 11
1321.567
 21
1202.284
 31
0.0
  0
LINE
  5
216
  8
5
  6
CONTINUOUS
 10
1321.567
 20
1202.284
 30
0.0
 11
1321.567
 21
1217.284
 31
0.0
  0
LINE
  5
217
  8
5
  6
CONTINUOUS
 10
1321.567
 20
1187.284
 30
0.0
 11
891.5669
 21
1187.284
 31
0.0
  0
LINE
  5
218
  8
5
  6
CONTINUOUS
 10
891.5669
 20
1187.284
 30
0.0
 11
891.5669
 21
1170.034
 31
0.0
  0
LINE
  5
219
  8
5
  6
CONTINUOUS
 10
891.5669
 20
1170.034
 30
0.0
 11
1321.567
 21
1170.034
 31
0.0
  0
LINE
  5
21A
  8
5
  6
CONTINUOUS
 10
1321.567
 20
1170.034
 30
0.0
 11
1321.567
 21
1187.284
 31
0.0
  0
LINE
  5
21B
  8
5
  6
CONTINUOUS
 10
1321.567
 20
1152.785
 30
0.0
 11
891.5669
 21
1152.785
 31
0.0
  0
LINE
  5
21C
  8
5
  6
CONTINUOUS
 10
891.5669
 20
1152.785
 30
0.0
 11
891.5669
 21
1135.534
 31
0.0
  0
LINE
  5
21D
  8
5
  6
CONTINUOUS
 10
891.5669
 20
1135.534
 30
0.0
 11
1321.567
 21
1135.534
 31
0.0
  0
LINE
  5
21E
  8
5
  6
CONTINUOUS
 10
1321.567
 20
1135.534
 30
0.0
 11
1321.567
 21
1152.785
 31
0.0
  0
LINE
  5
21F
  8
5
  6
CONTINUOUS
 10
1321.567
 20
1056.284
 30
0.0
 11
1321.567
 21
1073.284
 31
0.0
  0
LINE
  5
220
  8
5
  6
CONTINUOUS
 10
891.5669
 20
1073.284
 30
0.0
 11
891.5669
 21
1056.284
 31
0.0
  0
LINE
  5
221
  8
5
  6
CONTINUOUS
 10
1321.567
 20
1088.284
 30
0.0
 11
1321.567
 21
1103.284
 31
0.0
  0
LINE
  5
222
  8
5
  6
CONTINUOUS
 10
891.5669
 20
1103.284
 30
0.0
 11
891.5669
 21
1088.284
 31
0.0
  0
LINE
  5
223
  8
5
  6
CONTINUOUS
 10
1321.567
 20
1118.284
 30
0.0
 11
1321.567
 21
1135.534
 31
0.0
  0
LINE
  5
224
  8
5
  6
CONTINUOUS
 10
891.5669
 20
1135.534
 30
0.0
 11
891.5669
 21
1118.284
 31
0.0
  0
LINE
  5
225
  8
5
  6
CONTINUOUS
 10
1321.567
 20
1249.284
 30
0.0
 11
1321.567
 21
1267.485
 31
0.0
  0
LINE
  5
226
  8
5
  6
CONTINUOUS
 10
1321.567
 20
1267.485
 30
0.0
 11
891.5669
 21
1267.485
 31
0.0
  0
LINE
  5
227
  8
5
  6
CONTINUOUS
 10
891.5669
 20
1267.485
 30
0.0
 11
891.5669
 21
1249.284
 31
0.0
  0
LINE
  5
228
  8
5
  6
CONTINUOUS
 10
891.5669
 20
1232.285
 30
0.0
 11
891.5669
 21
1217.284
 31
0.0
  0
LINE
  5
229
  8
5
  6
CONTINUOUS
 10
1321.567
 20
1217.284
 30
0.0
 11
1321.567
 21
1232.285
 31
0.0
  0
LINE
  5
22A
  8
5
  6
CONTINUOUS
 10
891.5669
 20
1202.284
 30
0.0
 11
891.5669
 21
1187.284
 31
0.0
  0
LINE
  5
22B
  8
5
  6
CONTINUOUS
 10
1321.567
 20
1187.284
 30
0.0
 11
1321.567
 21
1202.284
 31
0.0
  0
LINE
  5
22C
  8
5
  6
CONTINUOUS
 10
891.5669
 20
1170.034
 30
0.0
 11
891.5669
 21
1152.785
 31
0.0
  0
LINE
  5
22D
  8
5
  6
CONTINUOUS
 10
1321.567
 20
1152.785
 30
0.0
 11
1321.567
 21
1170.034
 31
0.0
  0
LINE
  5
22E
  8
5
  6
CONTINUOUS
 10
889.2354
 20
1038.084
 30
0.0
 11
891.4687
 21
1038.084
 31
0.0
  0
LINE
  5
22F
  8
5
  6
CONTINUOUS
 10
891.4687
 20
1038.084
 30
0.0
 11
891.5669
 21
1038.884
 31
0.0
  0
LINE
  5
230
  8
5
  6
CONTINUOUS
 10
891.5669
 20
1056.284
 30
0.0
 11
886.904
 21
1056.284
 31
0.0
  0
LINE
  5
231
  8
5
  6
CONTINUOUS
 10
889.2355
 20
1267.484
 30
0.0
 11
891.5669
 21
1267.485
 31
0.0
  0
LINE
  5
232
  8
5
  6
CONTINUOUS
 10
891.5669
 20
1267.485
 30
0.0
 11
890.3761
 21
1276.389
 31
0.0
  0
LINE
  5
233
  8
5
  6
CONTINUOUS
 10
886.904
 20
1249.284
 30
0.0
 11
891.5669
 21
1249.284
 31
0.0
  0
LINE
  5
235
  8
5
  6
CONTINUOUS
 10
888.5212
 20
1135.534
 30
0.0
 11
891.5669
 21
1135.534
 31
0.0
  0
LINE
  5
236
  8
5
  6
CONTINUOUS
 10
891.5669
 20
1152.785
 30
0.0
 11
888.6206
 21
1152.785
 31
0.0
  0
LINE
  5
237
  8
5
  6
CONTINUOUS
 10
888.5212
 20
1170.034
 30
0.0
 11
891.5669
 21
1170.034
 31
0.0
  0
LINE
  5
238
  8
5
  6
CONTINUOUS
 10
891.5669
 20
1187.284
 30
0.0
 11
888.2203
 21
1187.284
 31
0.0
  0
LINE
  5
239
  8
5
  6
CONTINUOUS
 10
887.7891
 20
1202.284
 30
0.0
 11
891.5669
 21
1202.284
 31
0.0
  0
LINE
  5
23A
  8
5
  6
CONTINUOUS
 10
891.5669
 20
1217.284
 30
0.0
 11
887.1912
 21
1217.284
 31
0.0
  0
LINE
  5
23B
  8
5
  6
CONTINUOUS
 10
886.413
 20
1232.285
 30
0.0
 11
891.5669
 21
1232.285
 31
0.0
  0
LINE
  5
23C
  8
5
  6
CONTINUOUS
 10
887.7891
 20
1103.284
 30
0.0
 11
891.5669
 21
1103.284
 31
0.0
  0
LINE
  5
23D
  8
5
  6
CONTINUOUS
 10
891.5669
 20
1118.284
 30
0.0
 11
888.2203
 21
1118.284
 31
0.0
  0
LINE
  5
23E
  8
5
  6
CONTINUOUS
 10
886.413
 20
1073.284
 30
0.0
 11
891.5669
 21
1073.284
 31
0.0
  0
LINE
  5
23F
  8
5
  6
CONTINUOUS
 10
891.5669
 20
1088.284
 30
0.0
 11
887.1912
 21
1088.284
 31
0.0
  0
LINE
  5
241
  8
5
  6
CONTINUOUS
 10
1326.23
 20
1056.284
 30
0.0
 11
1321.567
 21
1056.284
 31
0.0
  0
LINE
  5
243
  8
5
  6
CONTINUOUS
 10
1321.567
 20
1267.485
 30
0.0
 11
1323.898
 21
1267.485
 31
0.0
  0
LINE
  5
245
  8
5
  6
CONTINUOUS
 10
1321.567
 20
1249.284
 30
0.0
 11
1326.23
 21
1249.284
 31
0.0
  0
LINE
  5
247
  8
5
  6
CONTINUOUS
 10
1324.513
 20
1152.785
 30
0.0
 11
1321.567
 21
1152.785
 31
0.0
  0
LINE
  5
248
  8
5
  6
CONTINUOUS
 10
1321.567
 20
1135.534
 30
0.0
 11
1324.613
 21
1135.534
 31
0.0
  0
LINE
  5
249
  8
5
  6
CONTINUOUS
 10
1324.914
 20
1187.284
 30
0.0
 11
1321.567
 21
1187.284
 31
0.0
  0
LINE
  5
24A
  8
5
  6
CONTINUOUS
 10
1321.567
 20
1170.034
 30
0.0
 11
1324.613
 21
1170.034
 31
0.0
  0
LINE
  5
24B
  8
5
  6
CONTINUOUS
 10
1325.943
 20
1217.284
 30
0.0
 11
1321.567
 21
1217.284
 31
0.0
  0
LINE
  5
24C
  8
5
  6
CONTINUOUS
 10
1321.567
 20
1202.284
 30
0.0
 11
1325.345
 21
1202.284
 31
0.0
  0
LINE
  5
24D
  8
5
  6
CONTINUOUS
 10
1321.567
 20
1232.285
 30
0.0
 11
1326.721
 21
1232.285
 31
0.0
  0
LINE
  5
24E
  8
5
  6
CONTINUOUS
 10
1324.914
 20
1118.284
 30
0.0
 11
1321.567
 21
1118.284
 31
0.0
  0
LINE
  5
24F
  8
5
  6
CONTINUOUS
 10
1321.567
 20
1103.284
 30
0.0
 11
1325.345
 21
1103.284
 31
0.0
  0
LINE
  5
250
  8
5
  6
CONTINUOUS
 10
1325.943
 20
1088.284
 30
0.0
 11
1321.567
 21
1088.284
 31
0.0
  0
LINE
  5
251
  8
5
  6
CONTINUOUS
 10
1321.567
 20
1073.284
 30
0.0
 11
1326.721
 21
1073.284
 31
0.0
  0
LINE
  5
252
  8
5
  6
CONTINUOUS
 10
1455.567
 20
1265.725
 30
0.0
 11
1384.067
 21
1265.725
 31
0.0
  0
LINE
  5
253
  8
5
  6
CONTINUOUS
 10
1384.067
 20
1039.844
 30
0.0
 11
1455.567
 21
1039.844
 31
0.0
  0
LINE
  5
254
  8
5
  6
CONTINUOUS
 10
1334.567
 20
1038.601
 30
0.0
 11
1384.067
 21
1038.601
 31
0.0
  0
LINE
  5
255
  8
5
  6
CONTINUOUS
 10
1384.067
 20
1266.968
 30
0.0
 11
1334.567
 21
1266.968
 31
0.0
  0
LINE
  5
256
  8
5
  6
CONTINUOUS
 10
1522.567
 20
1012.785
 30
0.0
 11
1513.567
 21
1012.785
 31
0.0
  0
LINE
  5
257
  8
5
  6
CONTINUOUS
 10
1513.567
 20
1292.784
 30
0.0
 11
1513.567
 21
1012.785
 31
0.0
  0
LINE
  5
258
  8
5
  6
CONTINUOUS
 10
1522.567
 20
1292.784
 30
0.0
 11
1513.567
 21
1292.784
 31
0.0
  0
LINE
  5
259
  8
5
  6
CONTINUOUS
 10
1513.567
 20
1012.785
 30
0.0
 11
1455.567
 21
952.2844
 31
0.0
  0
LINE
  5
25A
  8
5
  6
CONTINUOUS
 10
1513.567
 20
1292.784
 30
0.0
 11
1455.567
 21
1353.284
 31
0.0
  0
ARC
  5
25B
  8
5
  6
CONTINUOUS
 10
1950.275
 20
1152.785
 30
0.0
 40
69.38402
 50
201.5627
 51
217.7729
  0
ARC
  5
25C
  8
5
  6
CONTINUOUS
 10
1950.275
 20
1152.785
 30
0.0
 40
69.38402
 50
217.7729
 51
239.0422
  0
ARC
  5
25D
  8
5
  6
CONTINUOUS
 10
1950.275
 20
1152.785
 30
0.0
 40
69.38402
 50
239.0422
 51
247.9926
  0
ARC
  5
25E
  8
5
  6
CONTINUOUS
 10
1950.275
 20
1152.785
 30
0.0
 40
69.38402
 50
292.0074
 51
300.9578
  0
ARC
  5
25F
  8
5
  6
CONTINUOUS
 10
1950.275
 20
1152.785
 30
0.0
 40
69.38402
 50
300.9578
 51
322.2271
  0
ARC
  5
260
  8
5
  6
CONTINUOUS
 10
1950.275
 20
1152.785
 30
0.0
 40
69.38402
 50
322.2271
 51
338.4373
  0
ARC
  5
261
  8
5
  6
CONTINUOUS
 10
1950.275
 20
1152.785
 30
0.0
 40
69.38402
 50
338.4373
 51
352.9632
  0
ARC
  5
262
  8
5
  6
CONTINUOUS
 10
1950.275
 20
1152.785
 30
0.0
 40
69.38402
 50
352.9632
 51
7.0368
  0
ARC
  5
263
  8
5
  6
CONTINUOUS
 10
1950.275
 20
1152.785
 30
0.0
 40
69.38402
 50
7.036787
 51
21.56274
  0
ARC
  5
264
  8
5
  6
CONTINUOUS
 10
1950.275
 20
1152.785
 30
0.0
 40
69.38402
 50
21.56274
 51
37.77288
  0
ARC
  5
265
  8
5
  6
CONTINUOUS
 10
1950.275
 20
1152.785
 30
0.0
 40
69.38402
 50
37.77288
 51
59.04217
  0
LINE
  5
266
  8
5
  6
CONTINUOUS
 10
905.9357
 20
1363.784
 30
0.0
 11
903.7348
 21
1300.76
 31
0.0
  0
LINE
  5
267
  8
5
  6
CONTINUOUS
 10
1120.399
 20
1300.76
 30
0.0
 11
1118.198
 21
1363.784
 31
0.0
  0
LINE
  5
268
  8
5
  6
CONTINUOUS
 10
1847.407
 20
1248.785
 30
0.0
 11
2053.144
 21
1248.785
 31
0.0
  0
LINE
  5
269
  8
5
  6
CONTINUOUS
 10
1914.584
 20
1212.285
 30
0.0
 11
1822.77
 21
1212.285
 31
0.0
  0
LINE
  5
26A
  8
5
  6
CONTINUOUS
 10
1816.143
 20
1195.285
 30
0.0
 11
1895.431
 21
1195.285
 31
0.0
  0
LINE
  5
26B
  8
5
  6
CONTINUOUS
 10
2005.12
 20
1195.285
 30
0.0
 11
2084.408
 21
1195.285
 31
0.0
  0
LINE
  5
26C
  8
5
  6
CONTINUOUS
 10
2077.781
 20
1212.285
 30
0.0
 11
1985.967
 21
1212.285
 31
0.0
  0
LINE
  5
26D
  8
5
  6
CONTINUOUS
 10
1885.747
 20
1178.285
 30
0.0
 11
1811.9
 21
1178.285
 31
0.0
  0
LINE
  5
26E
  8
5
  6
CONTINUOUS
 10
1809.827
 20
1161.285
 30
0.0
 11
1881.414
 21
1161.285
 31
0.0
  0
LINE
  5
26F
  8
5
  6
CONTINUOUS
 10
2019.137
 20
1161.285
 30
0.0
 11
2090.723
 21
1161.285
 31
0.0
  0
LINE
  5
270
  8
5
  6
CONTINUOUS
 10
2088.65
 20
1178.285
 30
0.0
 11
2014.804
 21
1178.285
 31
0.0
  0
LINE
  5
271
  8
5
  6
CONTINUOUS
 10
1881.414
 20
1144.285
 30
0.0
 11
1809.827
 21
1144.285
 31
0.0
  0
LINE
  5
272
  8
5
  6
CONTINUOUS
 10
1811.9
 20
1127.285
 30
0.0
 11
1885.747
 21
1127.285
 31
0.0
  0
LINE
  5
273
  8
5
  6
CONTINUOUS
 10
2014.804
 20
1127.285
 30
0.0
 11
2088.65
 21
1127.285
 31
0.0
  0
LINE
  5
274
  8
5
  6
CONTINUOUS
 10
2090.723
 20
1144.285
 30
0.0
 11
2019.137
 21
1144.285
 31
0.0
  0
LINE
  5
275
  8
5
  6
CONTINUOUS
 10
1895.431
 20
1110.285
 30
0.0
 11
1816.143
 21
1110.285
 31
0.0
  0
LINE
  5
276
  8
5
  6
CONTINUOUS
 10
1822.77
 20
1093.285
 30
0.0
 11
1914.584
 21
1093.285
 31
0.0
  0
LINE
  5
277
  8
5
  6
CONTINUOUS
 10
1985.967
 20
1093.285
 30
0.0
 11
2077.781
 21
1093.285
 31
0.0
  0
LINE
  5
278
  8
5
  6
CONTINUOUS
 10
2084.408
 20
1110.285
 30
0.0
 11
2005.12
 21
1110.285
 31
0.0
  0
LINE
  5
279
  8
5
  6
CONTINUOUS
 10
2071.226
 20
1052.685
 30
0.0
 11
2176.275
 21
1052.685
 31
0.0
  0
LINE
  5
27A
  8
5
  6
CONTINUOUS
 10
2073.647
 20
1055.684
 30
0.0
 11
2176.275
 21
1055.685
 31
0.0
  0
LINE
  5
27B
  8
5
  6
CONTINUOUS
 10
1991.575
 20
1052.685
 30
0.0
 11
2055.044
 21
1052.685
 31
0.0
  0
LINE
  5
27C
  8
5
  6
CONTINUOUS
 10
1991.575
 20
1055.685
 30
0.0
 11
2057.83
 21
1055.684
 31
0.0
  0
LINE
  5
27D
  8
5
  6
CONTINUOUS
 10
1784.288
 20
1056.284
 30
0.0
 11
1771.675
 21
1056.284
 31
0.0
  0
LINE
  5
27E
  8
5
  6
CONTINUOUS
 10
2129.475
 20
1055.685
 30
0.0
 11
2128.875
 21
1056.284
 31
0.0
  0
LINE
  5
27F
  8
5
  6
CONTINUOUS
 10
2128.875
 20
1056.284
 30
0.0
 11
2116.263
 21
1056.284
 31
0.0
  0
LINE
  5
281
  8
5
  6
CONTINUOUS
 10
1321.388
 20
261.0449
 30
0.0
 11
1196.388
 21
261.0449
 31
0.0
  0
LINE
  5
282
  8
5
  6
CONTINUOUS
 10
1196.388
 20
261.0449
 30
0.0
 11
1171.388
 21
261.0449
 31
0.0
  0
LINE
  5
283
  8
5
  6
CONTINUOUS
 10
1327.094
 20
305.5851
 30
0.0
 11
1326.051
 21
297.4449
 31
0.0
  0
LINE
  5
284
  8
5
  6
CONTINUOUS
 10
1323.72
 20
279.2449
 30
0.0
 11
1321.388
 21
261.0449
 31
0.0
  0
LINE
  5
285
  8
5
  6
CONTINUOUS
 10
1326.051
 20
297.4449
 30
0.0
 11
1323.72
 21
279.2449
 31
0.0
  0
LINE
  5
286
  8
5
  6
CONTINUOUS
 10
1326.051
 20
490.4449
 30
0.0
 11
1323.72
 21
508.6449
 31
0.0
  0
LINE
  5
287
  8
5
  6
CONTINUOUS
 10
1327.094
 20
482.3047
 30
0.0
 11
1326.051
 21
490.4449
 31
0.0
  0
LINE
  5
288
  8
5
  6
CONTINUOUS
 10
1323.72
 20
508.6449
 30
0.0
 11
1321.388
 21
526.8449
 31
0.0
  0
LINE
  5
289
  8
5
  6
CONTINUOUS
 10
1171.388
 20
526.8449
 30
0.0
 11
1196.388
 21
526.8449
 31
0.0
  0
LINE
  5
28A
  8
5
  6
CONTINUOUS
 10
1196.388
 20
526.8449
 30
0.0
 11
1321.388
 21
526.8449
 31
0.0
  0
LINE
  5
28B
  8
5
  6
CONTINUOUS
 10
1332.888
 20
201.9449
 30
0.0
 11
1332.888
 21
585.9449
 31
0.0
  0
LINE
  5
28C
  8
5
  6
CONTINUOUS
 10
1321.388
 20
178.9449
 30
0.0
 11
891.3883
 21
178.9449
 31
0.0
  0
LINE
  5
28D
  8
5
  6
CONTINUOUS
 10
891.3883
 20
608.9449
 30
0.0
 11
1321.388
 21
608.9449
 31
0.0
  0
LINE
  5
28F
  8
5
  6
CONTINUOUS
 10
891.3883
 20
178.9449
 30
0.0
 11
890.1975
 21
188.2406
 31
0.0
  0
LINE
  5
290
  8
5
  6
CONTINUOUS
 10
890.1975
 20
188.2406
 30
0.0
 11
889.0568
 21
197.1449
 31
0.0
  0
LINE
  5
292
  8
5
  6
CONTINUOUS
 10
2128.875
 20
1249.284
 30
0.0
 11
2116.263
 21
1249.284
 31
0.0
  0
LINE
  5
293
  8
5
  6
CONTINUOUS
 10
890.1975
 20
599.6492
 30
0.0
 11
889.0568
 21
590.7449
 31
0.0
  0
LINE
  5
294
  8
5
  6
CONTINUOUS
 10
890.1975
 20
599.6492
 30
0.0
 11
891.3883
 21
608.9449
 31
0.0
  0
LINE
  5
295
  8
5
  6
CONTINUOUS
 10
889.0568
 20
590.7449
 30
0.0
 11
886.7253
 21
572.5449
 31
0.0
  0
LINE
  5
296
  8
5
  6
CONTINUOUS
 10
886.7253
 20
572.5449
 30
0.0
 11
885.6825
 21
564.4047
 31
0.0
  0
LINE
  5
297
  8
5
  6
CONTINUOUS
 10
1322.579
 20
188.2406
 30
0.0
 11
1323.72
 21
197.1449
 31
0.0
  0
LINE
  5
298
  8
5
  6
CONTINUOUS
 10
1322.579
 20
188.2406
 30
0.0
 11
1321.388
 21
178.9449
 31
0.0
  0
LINE
  5
299
  8
5
  6
CONTINUOUS
 10
1323.72
 20
197.1449
 30
0.0
 11
1326.051
 21
215.3449
 31
0.0
  0
LINE
  5
29A
  8
5
  6
CONTINUOUS
 10
1326.051
 20
215.3449
 30
0.0
 11
1327.094
 21
223.4851
 31
0.0
  0
LINE
  5
29B
  8
5
  6
CONTINUOUS
 10
1784.288
 20
1249.284
 30
0.0
 11
1771.675
 21
1249.284
 31
0.0
  0
LINE
  5
29C
  8
5
  6
CONTINUOUS
 10
1321.388
 20
608.9449
 30
0.0
 11
1322.579
 21
599.6492
 31
0.0
  0
LINE
  5
29D
  8
5
  6
CONTINUOUS
 10
1322.579
 20
599.6492
 30
0.0
 11
1323.72
 21
590.7449
 31
0.0
  0
LINE
  5
29E
  8
5
  6
CONTINUOUS
 10
1323.72
 20
590.7449
 30
0.0
 11
1326.051
 21
572.5449
 31
0.0
  0
LINE
  5
29F
  8
5
  6
CONTINUOUS
 10
1326.051
 20
572.5449
 30
0.0
 11
1327.094
 21
564.4047
 31
0.0
  0
LINE
  5
2A0
  8
5
  6
CONTINUOUS
 10
1383.888
 20
606.4449
 30
0.0
 11
1383.888
 21
508.1282
 31
0.0
  0
LINE
  5
2A1
  8
5
  6
CONTINUOUS
 10
1383.888
 20
508.1282
 30
0.0
 11
1383.888
 21
279.7616
 31
0.0
  0
LINE
  5
2A2
  8
5
  6
CONTINUOUS
 10
1383.888
 20
279.7616
 30
0.0
 11
1383.888
 21
181.4449
 31
0.0
  0
LINE
  5
2A3
  8
5
  6
CONTINUOUS
 10
1455.388
 20
184.4449
 30
0.0
 11
1383.888
 21
184.4449
 31
0.0
  0
LINE
  5
2A4
  8
5
  6
CONTINUOUS
 10
1383.888
 20
603.4449
 30
0.0
 11
1455.388
 21
603.4449
 31
0.0
  0
LINE
  5
2A5
  8
5
  6
CONTINUOUS
 10
1334.388
 20
181.4449
 30
0.0
 11
1334.388
 21
279.7616
 31
0.0
  0
LINE
  5
2A6
  8
5
  6
CONTINUOUS
 10
1334.388
 20
279.7616
 30
0.0
 11
1334.388
 21
508.1282
 31
0.0
  0
LINE
  5
2A7
  8
5
  6
CONTINUOUS
 10
1334.388
 20
508.1282
 30
0.0
 11
1334.388
 21
606.4449
 31
0.0
  0
LINE
  5
2A8
  8
5
  6
CONTINUOUS
 10
1383.888
 20
181.4449
 30
0.0
 11
1334.388
 21
181.4449
 31
0.0
  0
LINE
  5
2A9
  8
5
  6
CONTINUOUS
 10
1383.888
 20
606.4449
 30
0.0
 11
1334.388
 21
606.4449
 31
0.0
  0
LINE
  5
2AA
  8
5
  6
CONTINUOUS
 10
1522.388
 20
533.9449
 30
0.0
 11
1522.388
 21
253.9449
 31
0.0
  0
LINE
  5
2AB
  8
5
  6
CONTINUOUS
 10
1455.388
 20
603.4449
 30
0.0
 11
1455.388
 21
506.8856
 31
0.0
  0
LINE
  5
2AC
  8
5
  6
CONTINUOUS
 10
1455.388
 20
506.8856
 30
0.0
 11
1455.388
 21
281.0042
 31
0.0
  0
LINE
  5
2AD
  8
5
  6
CONTINUOUS
 10
1455.388
 20
281.0042
 30
0.0
 11
1455.388
 21
184.4449
 31
0.0
  0
LINE
  5
2AF
  8
5
  6
CONTINUOUS
 10
2141.499
 20
1135.534
 30
0.0
 11
2165.275
 21
1135.535
 31
0.0
  0
LINE
  5
2B0
  8
5
  6
CONTINUOUS
 10
2165.275
 20
1152.785
 30
0.0
 11
2142.275
 21
1152.785
 31
0.0
  0
LINE
  5
2B1
  8
5
  6
CONTINUOUS
 10
2141.499
 20
1170.034
 30
0.0
 11
2165.275
 21
1170.035
 31
0.0
  0
LINE
  5
2B2
  8
5
  6
CONTINUOUS
 10
2165.275
 20
1187.285
 30
0.0
 11
2139.15
 21
1187.284
 31
0.0
  0
LINE
  5
2B3
  8
5
  6
CONTINUOUS
 10
2135.785
 20
1202.284
 30
0.0
 11
2165.275
 21
1202.285
 31
0.0
  0
LINE
  5
2B4
  8
5
  6
CONTINUOUS
 10
2165.275
 20
1217.285
 30
0.0
 11
2131.117
 21
1217.284
 31
0.0
  0
LINE
  5
2B5
  8
5
  6
CONTINUOUS
 10
2135.785
 20
1103.284
 30
0.0
 11
2165.275
 21
1103.285
 31
0.0
  0
LINE
  5
2B6
  8
5
  6
CONTINUOUS
 10
2165.275
 20
1118.285
 30
0.0
 11
2139.15
 21
1118.285
 31
0.0
  0
LINE
  5
2B7
  8
5
  6
CONTINUOUS
 10
2165.275
 20
1088.285
 30
0.0
 11
2131.117
 21
1088.284
 31
0.0
  0
LINE
  5
2B8
  8
5
  6
CONTINUOUS
 10
1758.275
 20
1152.784
 30
0.0
 11
1735.275
 21
1152.785
 31
0.0
  0
LINE
  5
2B9
  8
5
  6
CONTINUOUS
 10
1735.275
 20
1135.535
 30
0.0
 11
1759.052
 21
1135.534
 31
0.0
  0
LINE
  5
2BA
  8
5
  6
CONTINUOUS
 10
1761.4
 20
1187.284
 30
0.0
 11
1735.275
 21
1187.285
 31
0.0
  0
LINE
  5
2BB
  8
5
  6
CONTINUOUS
 10
1735.275
 20
1170.035
 30
0.0
 11
1759.052
 21
1170.034
 31
0.0
  0
LINE
  5
2BC
  8
5
  6
CONTINUOUS
 10
1769.434
 20
1217.284
 30
0.0
 11
1735.275
 21
1217.285
 31
0.0
  0
LINE
  5
2BD
  8
5
  6
CONTINUOUS
 10
1735.275
 20
1202.285
 30
0.0
 11
1764.766
 21
1202.284
 31
0.0
  0
LINE
  5
2BE
  8
5
  6
CONTINUOUS
 10
1761.4
 20
1118.285
 30
0.0
 11
1735.275
 21
1118.285
 31
0.0
  0
LINE
  5
2BF
  8
5
  6
CONTINUOUS
 10
1735.275
 20
1103.285
 30
0.0
 11
1764.766
 21
1103.284
 31
0.0
  0
LINE
  5
2C0
  8
5
  6
CONTINUOUS
 10
1769.434
 20
1088.284
 30
0.0
 11
1735.275
 21
1088.285
 31
0.0
  0
LINE
  5
2C1
  8
5
  6
CONTINUOUS
 10
2109.275
 20
1455.584
 30
0.0
 11
2078.706
 21
1487.085
 31
0.0
  0
LINE
  5
2C2
  8
5
  6
CONTINUOUS
 10
2063.275
 20
1455.584
 30
0.0
 11
2063.283
 21
1506.584
 31
0.0
  0
LINE
  5
2C3
  8
5
  6
CONTINUOUS
 10
1840.275
 20
1506.584
 30
0.0
 11
1840.275
 21
1455.584
 31
0.0
  0
LINE
  5
2C4
  8
5
  6
CONTINUOUS
 10
2063.275
 20
1455.584
 30
0.0
 11
1840.275
 21
1455.585
 31
0.0
  0
LINE
  5
2C5
  8
5
  6
CONTINUOUS
 10
1802.275
 20
1387.784
 30
0.0
 11
2098.275
 21
1387.785
 31
0.0
  0
LINE
  5
2C6
  8
5
  6
CONTINUOUS
 10
441.4634
 20
940.2844
 30
0.0
 11
441.4634
 21
937.7844
 31
0.0
  0
LINE
  5
2C7
  8
5
  6
CONTINUOUS
 10
225.4634
 20
937.7844
 30
0.0
 11
225.4634
 21
940.2844
 31
0.0
  0
LINE
  5
2C8
  8
5
  6
CONTINUOUS
 10
186.4523
 20
952.7844
 30
0.0
 11
193.8928
 21
965.6717
 31
0.0
  0
LINE
  5
2C9
  8
5
  6
CONTINUOUS
 10
152.1193
 20
1007.445
 30
0.0
 11
117.9634
 21
952.7844
 31
0.0
  0
LINE
  5
2CA
  8
5
  6
CONTINUOUS
 10
481.4745
 20
952.7844
 30
0.0
 11
473.668
 21
966.3057
 31
0.0
  0
LINE
  5
2CB
  8
5
  6
CONTINUOUS
 10
549.9634
 20
952.7844
 30
0.0
 11
515.423
 21
1008.061
 31
0.0
  0
LINE
  5
2CC
  8
5
  6
CONTINUOUS
 10
243.4634
 20
937.7844
 30
0.0
 11
225.4634
 21
937.7844
 31
0.0
  0
LINE
  5
2CD
  8
5
  6
CONTINUOUS
 10
423.4634
 20
937.7844
 30
0.0
 11
408.4634
 21
937.7844
 31
0.0
  0
LINE
  5
2CE
  8
5
  6
CONTINUOUS
 10
393.4634
 20
937.7844
 30
0.0
 11
378.4634
 21
937.7844
 31
0.0
  0
LINE
  5
2CF
  8
5
  6
CONTINUOUS
 10
363.4634
 20
937.7844
 30
0.0
 11
348.4634
 21
937.7844
 31
0.0
  0
LINE
  5
2D0
  8
5
  6
CONTINUOUS
 10
273.4634
 20
937.7844
 30
0.0
 11
258.4634
 21
937.7844
 31
0.0
  0
LINE
  5
2D1
  8
5
  6
CONTINUOUS
 10
303.4634
 20
937.7844
 30
0.0
 11
288.4634
 21
937.7844
 31
0.0
  0
LINE
  5
2D2
  8
5
  6
CONTINUOUS
 10
333.4634
 20
937.7844
 30
0.0
 11
318.4634
 21
937.7844
 31
0.0
  0
LINE
  5
2D3
  8
5
  6
CONTINUOUS
 10
258.4634
 20
937.7844
 30
0.0
 11
243.4634
 21
937.7844
 31
0.0
  0
LINE
  5
2D4
  8
5
  6
CONTINUOUS
 10
441.4634
 20
937.7844
 30
0.0
 11
423.4634
 21
937.7844
 31
0.0
  0
LINE
  5
2D5
  8
5
  6
CONTINUOUS
 10
408.4634
 20
937.7844
 30
0.0
 11
393.4634
 21
937.7844
 31
0.0
  0
LINE
  5
2D6
  8
5
  6
CONTINUOUS
 10
378.4634
 20
937.7844
 30
0.0
 11
363.4634
 21
937.7844
 31
0.0
  0
LINE
  5
2D7
  8
5
  6
CONTINUOUS
 10
348.4634
 20
937.7844
 30
0.0
 11
333.4634
 21
937.7844
 31
0.0
  0
LINE
  5
2D8
  8
5
  6
CONTINUOUS
 10
288.4634
 20
937.7844
 30
0.0
 11
273.4634
 21
937.7844
 31
0.0
  0
LINE
  5
2D9
  8
5
  6
CONTINUOUS
 10
318.4634
 20
937.7844
 30
0.0
 11
303.4634
 21
937.7844
 31
0.0
  0
LINE
  5
2DA
  8
5
  6
CONTINUOUS
 10
107.4634
 20
1055.684
 30
0.0
 11
107.4634
 21
1052.684
 31
0.0
  0
LINE
  5
2DB
  8
5
  6
CONTINUOUS
 10
201.4634
 20
927.7844
 30
0.0
 11
201.4634
 21
952.7844
 31
0.0
  0
LINE
  5
2DC
  8
5
  6
CONTINUOUS
 10
117.4634
 20
952.7844
 30
0.0
 11
117.4634
 21
927.7844
 31
0.0
  0
LINE
  5
2DD
  8
5
  6
CONTINUOUS
 10
201.4634
 20
952.7844
 30
0.0
 11
117.4634
 21
952.7844
 31
0.0
  0
LINE
  5
2DE
  8
5
  6
CONTINUOUS
 10
117.4634
 20
927.7844
 30
0.0
 11
201.4634
 21
927.7844
 31
0.0
  0
LINE
  5
2DF
  8
5
  6
CONTINUOUS
 10
466.4634
 20
927.7844
 30
0.0
 11
466.4634
 21
952.7844
 31
0.0
  0
LINE
  5
2E0
  8
5
  6
CONTINUOUS
 10
550.4634
 20
952.7844
 30
0.0
 11
550.4634
 21
927.7844
 31
0.0
  0
LINE
  5
2E1
  8
5
  6
CONTINUOUS
 10
466.4634
 20
952.7844
 30
0.0
 11
550.4634
 21
952.7844
 31
0.0
  0
LINE
  5
2E2
  8
5
  6
CONTINUOUS
 10
550.4634
 20
927.7844
 30
0.0
 11
466.4634
 21
927.7844
 31
0.0
  0
LINE
  5
2E3
  8
5
  6
CONTINUOUS
 10
201.4634
 20
935.7844
 30
0.0
 11
209.6319
 21
949.9326
 31
0.0
  0
LINE
  5
2E4
  8
5
  6
CONTINUOUS
 10
466.4634
 20
935.7844
 30
0.0
 11
457.9289
 21
950.5666
 31
0.0
  0
LINE
  5
2E5
  8
5
  6
CONTINUOUS
 10
164.9713
 20
1344.917
 30
0.0
 11
164.9713
 21
1344.917
 31
0.0
  0
LINE
  5
2E6
  8
5
  6
CONTINUOUS
 10
492.9634
 20
1432.584
 30
0.0
 11
170.9634
 21
1432.584
 31
0.0
  0
LINE
  5
2E7
  8
5
  6
CONTINUOUS
 10
170.9634
 20
1432.584
 30
0.0
 11
170.9634
 21
1455.584
 31
0.0
  0
LINE
  5
2E8
  8
5
  6
CONTINUOUS
 10
141.9634
 20
1435.584
 30
0.0
 11
141.9634
 21
1487.084
 31
0.0
  0
LINE
  5
2E9
  8
5
  6
CONTINUOUS
 10
488.4634
 20
1432.584
 30
0.0
 11
488.4634
 21
1410.584
 31
0.0
  0
LINE
  5
2EA
  8
5
  6
CONTINUOUS
 10
175.9634
 20
1410.584
 30
0.0
 11
175.9634
 21
1432.584
 31
0.0
  0
LINE
  5
2EB
  8
5
  6
CONTINUOUS
 10
140.9634
 20
1435.584
 30
0.0
 11
170.9634
 21
1435.584
 31
0.0
  0
LINE
  5
2EC
  8
5
  6
CONTINUOUS
 10
141.9634
 20
1487.084
 30
0.0
 11
205.0323
 21
1487.084
 31
0.0
  0
LINE
  5
2ED
  8
5
  6
CONTINUOUS
 10
201.5346
 20
1487.084
 30
0.0
 11
220.4634
 21
1506.584
 31
0.0
  0
LINE
  5
2EE
  8
5
  6
CONTINUOUS
 10
220.4634
 20
1455.584
 30
0.0
 11
170.9634
 21
1455.584
 31
0.0
  0
LINE
  5
2EF
  8
5
  6
CONTINUOUS
 10
443.4669
 20
1506.581
 30
0.0
 11
492.9634
 21
1455.584
 31
0.0
  0
LINE
  5
2F0
  8
5
  6
CONTINUOUS
 10
492.9634
 20
1455.584
 30
0.0
 11
443.4634
 21
1455.584
 31
0.0
  0
LINE
  5
2F1
  8
5
  6
CONTINUOUS
 10
492.9634
 20
1455.584
 30
0.0
 11
492.9634
 21
1432.584
 31
0.0
  0
LINE
  5
2F2
  8
5
  6
CONTINUOUS
 10
305.46
 20
1510.784
 30
0.0
 11
320.2892
 21
1510.784
 31
0.0
  0
LINE
  5
2F3
  8
5
  6
CONTINUOUS
 10
320.2892
 20
1510.784
 30
0.0
 11
331.5268
 21
1510.784
 31
0.0
  0
LINE
  5
2F4
  8
5
  6
CONTINUOUS
 10
333.6268
 20
1510.784
 30
0.0
 11
336.1815
 21
1510.784
 31
0.0
  0
LINE
  5
2F5
  8
5
  6
CONTINUOUS
 10
336.1815
 20
1510.784
 30
0.0
 11
348.0847
 21
1510.784
 31
0.0
  0
LINE
  5
2F6
  8
5
  6
CONTINUOUS
 10
348.0847
 20
1510.784
 30
0.0
 11
358.5238
 21
1510.784
 31
0.0
  0
LINE
  5
2F7
  8
5
  6
CONTINUOUS
 10
333.6268
 20
1510.784
 30
0.0
 11
333.6268
 21
1510.784
 31
0.0
  0
LINE
  5
2F8
  8
5
  6
CONTINUOUS
 10
305.46
 20
1510.784
 30
0.0
 11
305.46
 21
1510.784
 31
0.0
  0
LINE
  5
2F9
  8
5
  6
CONTINUOUS
 10
333.6268
 20
1510.784
 30
0.0
 11
333.6268
 21
1510.784
 31
0.0
  0
LINE
  5
2FA
  8
5
  6
CONTINUOUS
 10
1273.388
 20
261.0449
 30
0.0
 11
1273.388
 21
231.9047
 31
0.0
  0
LINE
  5
2FB
  8
5
  6
CONTINUOUS
 10
1273.388
 20
231.9047
 30
0.0
 11
1265.388
 21
225.4528
 31
0.0
  0
LINE
  5
2FC
  8
5
  6
CONTINUOUS
 10
1265.388
 20
225.4528
 30
0.0
 11
1245.388
 21
225.4528
 31
0.0
  0
LINE
  5
2FD
  8
5
  6
CONTINUOUS
 10
1245.388
 20
225.4528
 30
0.0
 11
1237.388
 21
231.9047
 31
0.0
  0
LINE
  5
2FE
  8
5
  6
CONTINUOUS
 10
1237.388
 20
231.9047
 30
0.0
 11
1237.388
 21
261.0449
 31
0.0
  0
LINE
  5
2FF
  8
5
  6
CONTINUOUS
 10
1204.704
 20
261.045
 30
0.0
 11
1208.772
 21
214.1305
 31
0.0
  0
LINE
  5
300
  8
5
  6
CONTINUOUS
 10
1208.772
 20
214.1305
 30
0.0
 11
1225.888
 21
201.2583
 31
0.0
  0
LINE
  5
301
  8
5
  6
CONTINUOUS
 10
1225.888
 20
201.2583
 30
0.0
 11
1284.888
 21
201.2583
 31
0.0
  0
LINE
  5
302
  8
5
  6
CONTINUOUS
 10
1284.888
 20
201.2583
 30
0.0
 11
1302.004
 21
214.1305
 31
0.0
  0
LINE
  5
303
  8
5
  6
CONTINUOUS
 10
1306.072
 20
261.045
 30
0.0
 11
1302.004
 21
214.1305
 31
0.0
  0
LINE
  5
304
  8
5
  6
CONTINUOUS
 10
1302.004
 20
192.0527
 30
0.0
 11
1305.621
 21
219.5039
 31
0.0
  0
LINE
  5
305
  8
5
  6
CONTINUOUS
 10
1302.004
 20
192.0527
 30
0.0
 11
1284.888
 21
183.5806
 31
0.0
  0
LINE
  5
306
  8
5
  6
CONTINUOUS
 10
1284.888
 20
183.5806
 30
0.0
 11
1225.888
 21
183.5806
 31
0.0
  0
LINE
  5
307
  8
5
  6
CONTINUOUS
 10
1225.888
 20
183.5806
 30
0.0
 11
1208.772
 21
192.0527
 31
0.0
  0
LINE
  5
308
  8
5
  6
CONTINUOUS
 10
1208.772
 20
192.0527
 30
0.0
 11
1205.156
 21
219.5039
 31
0.0
  0
LINE
  5
309
  8
5
  6
CONTINUOUS
 10
1302.004
 20
214.1305
 30
0.0
 11
1302.004
 21
192.0527
 31
0.0
  0
LINE
  5
30A
  8
5
  6
CONTINUOUS
 10
1307.394
 20
255.3751
 30
0.0
 11
1305.621
 21
219.5039
 31
0.0
  0
LINE
  5
30B
  8
5
  6
CONTINUOUS
 10
1205.156
 20
219.5039
 30
0.0
 11
1203.382
 21
255.3751
 31
0.0
  0
LINE
  5
30C
  8
5
  6
CONTINUOUS
 10
1208.772
 20
192.0527
 30
0.0
 11
1208.772
 21
214.1305
 31
0.0
  0
LINE
  5
30D
  8
5
  6
CONTINUOUS
 10
1273.388
 20
255.3751
 30
0.0
 11
1237.388
 21
255.3751
 31
0.0
  0
LINE
  5
30E
  8
5
  6
CONTINUOUS
 10
1203.382
 20
255.3751
 30
0.0
 11
1171.388
 21
255.3751
 31
0.0
  0
LINE
  5
30F
  8
5
  6
CONTINUOUS
 10
1321.388
 20
255.3751
 30
0.0
 11
1307.394
 21
255.3751
 31
0.0
  0
LINE
  5
310
  8
5
  6
CONTINUOUS
 10
1171.388
 20
532.5147
 30
0.0
 11
1321.388
 21
532.5147
 31
0.0
  0
LINE
  5
311
  8
5
  6
CONTINUOUS
 10
1225.888
 20
201.2583
 30
0.0
 11
1225.888
 21
183.5806
 31
0.0
  0
LINE
  5
312
  8
5
  6
CONTINUOUS
 10
1284.888
 20
183.5806
 30
0.0
 11
1284.888
 21
201.2583
 31
0.0
  0
LINE
  5
316
  8
5
  6
CONTINUOUS
 10
891.3883
 20
589.9448
 30
0.0
 11
891.3883
 21
553.4449
 31
0.0
  0
LINE
  5
319
  8
5
  6
CONTINUOUS
 10
1302.781
 20
197.9449
 30
0.0
 11
1321.388
 21
197.9449
 31
0.0
  0
LINE
  5
31A
  8
5
  6
CONTINUOUS
 10
1321.388
 20
197.9449
 30
0.0
 11
1321.388
 21
255.3751
 31
0.0
  0
LINE
  5
31B
  8
5
  6
CONTINUOUS
 10
1008.621
 20
568.3858
 30
0.0
 11
1009.359
 21
553.4449
 31
0.0
  0
LINE
  5
31C
  8
5
  6
CONTINUOUS
 10
1321.388
 20
532.5147
 30
0.0
 11
1321.388
 21
589.9448
 31
0.0
  0
LINE
  5
31D
  8
5
  6
CONTINUOUS
 10
1321.388
 20
589.9448
 30
0.0
 11
1005.781
 21
589.9449
 31
0.0
  0
LINE
  5
31E
  8
5
  6
CONTINUOUS
 10
910.996
 20
589.9449
 30
0.0
 11
891.3883
 21
589.9448
 31
0.0
  0
LINE
  5
31F
  8
5
  6
CONTINUOUS
 10
907.4171
 20
553.4449
 30
0.0
 11
908.1558
 21
568.3858
 31
0.0
  0
LINE
  5
326
  8
5
  6
CONTINUOUS
 10
1321.388
 20
279.245
 30
0.0
 11
1196.388
 21
279.245
 31
0.0
  0
LINE
  5
327
  8
5
  6
CONTINUOUS
 10
1196.388
 20
279.245
 30
0.0
 11
1196.388
 21
261.045
 31
0.0
  0
LINE
  5
328
  8
5
  6
CONTINUOUS
 10
1321.388
 20
261.045
 30
0.0
 11
1321.388
 21
279.245
 31
0.0
  0
LINE
  5
329
  8
5
  6
CONTINUOUS
 10
1321.388
 20
508.645
 30
0.0
 11
1196.388
 21
508.645
 31
0.0
  0
LINE
  5
32A
  8
5
  6
CONTINUOUS
 10
1196.388
 20
508.645
 30
0.0
 11
1196.388
 21
490.445
 31
0.0
  0
LINE
  5
32B
  8
5
  6
CONTINUOUS
 10
1196.388
 20
490.445
 30
0.0
 11
1321.388
 21
490.445
 31
0.0
  0
LINE
  5
32C
  8
5
  6
CONTINUOUS
 10
1321.388
 20
490.445
 30
0.0
 11
1321.388
 21
508.645
 31
0.0
  0
LINE
  5
32D
  8
5
  6
CONTINUOUS
 10
1196.388
 20
458.4449
 30
0.0
 11
1321.388
 21
458.4449
 31
0.0
  0
LINE
  5
32E
  8
5
  6
CONTINUOUS
 10
1321.388
 20
458.4449
 30
0.0
 11
1321.388
 21
473.445
 31
0.0
  0
LINE
  5
32F
  8
5
  6
CONTINUOUS
 10
1321.388
 20
473.445
 30
0.0
 11
1196.388
 21
473.445
 31
0.0
  0
LINE
  5
330
  8
5
  6
CONTINUOUS
 10
1196.388
 20
473.445
 30
0.0
 11
1196.388
 21
458.4449
 31
0.0
  0
LINE
  5
331
  8
5
  6
CONTINUOUS
 10
1196.388
 20
428.4448
 30
0.0
 11
1321.388
 21
428.4448
 31
0.0
  0
LINE
  5
332
  8
5
  6
CONTINUOUS
 10
1321.388
 20
428.4448
 30
0.0
 11
1321.388
 21
443.4449
 31
0.0
  0
LINE
  5
333
  8
5
  6
CONTINUOUS
 10
1321.388
 20
443.4449
 30
0.0
 11
1196.388
 21
443.4449
 31
0.0
  0
LINE
  5
334
  8
5
  6
CONTINUOUS
 10
1196.388
 20
443.4449
 30
0.0
 11
1196.388
 21
428.4448
 31
0.0
  0
LINE
  5
335
  8
5
  6
CONTINUOUS
 10
1196.388
 20
393.9449
 30
0.0
 11
1321.388
 21
393.9449
 31
0.0
  0
LINE
  5
336
  8
5
  6
CONTINUOUS
 10
1321.388
 20
393.9449
 30
0.0
 11
1321.388
 21
411.1949
 31
0.0
  0
LINE
  5
337
  8
5
  6
CONTINUOUS
 10
1321.388
 20
411.1949
 30
0.0
 11
1196.388
 21
411.1949
 31
0.0
  0
LINE
  5
338
  8
5
  6
CONTINUOUS
 10
1196.388
 20
411.1949
 30
0.0
 11
1196.388
 21
393.9449
 31
0.0
  0
LINE
  5
339
  8
5
  6
CONTINUOUS
 10
1321.388
 20
376.6949
 30
0.0
 11
1196.388
 21
376.6949
 31
0.0
  0
LINE
  5
33A
  8
5
  6
CONTINUOUS
 10
1196.388
 20
376.6949
 30
0.0
 11
1196.388
 21
359.445
 31
0.0
  0
LINE
  5
33B
  8
5
  6
CONTINUOUS
 10
1196.388
 20
359.445
 30
0.0
 11
1321.388
 21
359.445
 31
0.0
  0
LINE
  5
33C
  8
5
  6
CONTINUOUS
 10
1321.388
 20
359.445
 30
0.0
 11
1321.388
 21
376.6949
 31
0.0
  0
LINE
  5
33D
  8
5
  6
CONTINUOUS
 10
1321.388
 20
344.4448
 30
0.0
 11
1196.388
 21
344.4448
 31
0.0
  0
LINE
  5
33E
  8
5
  6
CONTINUOUS
 10
1196.388
 20
344.4448
 30
0.0
 11
1196.388
 21
329.4449
 31
0.0
  0
LINE
  5
33F
  8
5
  6
CONTINUOUS
 10
1196.388
 20
329.4449
 30
0.0
 11
1321.388
 21
329.4449
 31
0.0
  0
LINE
  5
340
  8
5
  6
CONTINUOUS
 10
1321.388
 20
329.4449
 30
0.0
 11
1321.388
 21
344.4448
 31
0.0
  0
LINE
  5
341
  8
5
  6
CONTINUOUS
 10
1321.388
 20
314.445
 30
0.0
 11
1196.388
 21
314.445
 31
0.0
  0
LINE
  5
342
  8
5
  6
CONTINUOUS
 10
1196.388
 20
314.445
 30
0.0
 11
1196.388
 21
297.4448
 31
0.0
  0
LINE
  5
343
  8
5
  6
CONTINUOUS
 10
1196.388
 20
297.4448
 30
0.0
 11
1321.388
 21
297.4448
 31
0.0
  0
LINE
  5
344
  8
5
  6
CONTINUOUS
 10
1321.388
 20
297.4448
 30
0.0
 11
1321.388
 21
314.445
 31
0.0
  0
LINE
  5
345
  8
5
  6
CONTINUOUS
 10
1321.388
 20
279.245
 30
0.0
 11
1321.388
 21
297.4448
 31
0.0
  0
LINE
  5
346
  8
5
  6
CONTINUOUS
 10
1196.388
 20
297.4448
 30
0.0
 11
1196.388
 21
279.245
 31
0.0
  0
LINE
  5
347
  8
5
  6
CONTINUOUS
 10
1321.388
 20
508.645
 30
0.0
 11
1321.388
 21
526.8449
 31
0.0
  0
LINE
  5
348
  8
5
  6
CONTINUOUS
 10
1196.388
 20
526.8449
 30
0.0
 11
1196.388
 21
508.645
 31
0.0
  0
LINE
  5
349
  8
5
  6
CONTINUOUS
 10
1196.388
 20
490.445
 30
0.0
 11
1196.388
 21
473.445
 31
0.0
  0
LINE
  5
34A
  8
5
  6
CONTINUOUS
 10
1321.388
 20
473.445
 30
0.0
 11
1321.388
 21
490.445
 31
0.0
  0
LINE
  5
34B
  8
5
  6
CONTINUOUS
 10
1196.388
 20
458.4449
 30
0.0
 11
1196.388
 21
443.4449
 31
0.0
  0
LINE
  5
34C
  8
5
  6
CONTINUOUS
 10
1321.388
 20
443.4449
 30
0.0
 11
1321.388
 21
458.4449
 31
0.0
  0
LINE
  5
34D
  8
5
  6
CONTINUOUS
 10
1196.388
 20
428.4448
 30
0.0
 11
1196.388
 21
411.1949
 31
0.0
  0
LINE
  5
34E
  8
5
  6
CONTINUOUS
 10
1321.388
 20
411.1949
 30
0.0
 11
1321.388
 21
428.4448
 31
0.0
  0
LINE
  5
34F
  8
5
  6
CONTINUOUS
 10
1196.388
 20
393.9449
 30
0.0
 11
1196.388
 21
376.6949
 31
0.0
  0
LINE
  5
350
  8
5
  6
CONTINUOUS
 10
1321.388
 20
376.6949
 30
0.0
 11
1321.388
 21
393.9449
 31
0.0
  0
LINE
  5
351
  8
5
  6
CONTINUOUS
 10
1196.388
 20
359.445
 30
0.0
 11
1196.388
 21
344.4448
 31
0.0
  0
LINE
  5
352
  8
5
  6
CONTINUOUS
 10
1321.388
 20
344.4448
 30
0.0
 11
1321.388
 21
359.445
 31
0.0
  0
LINE
  5
353
  8
5
  6
CONTINUOUS
 10
1196.388
 20
329.4449
 30
0.0
 11
1196.388
 21
314.445
 31
0.0
  0
LINE
  5
354
  8
5
  6
CONTINUOUS
 10
1321.388
 20
314.445
 30
0.0
 11
1321.388
 21
329.4449
 31
0.0
  0
LINE
  5
355
  8
5
  6
CONTINUOUS
 10
1171.388
 20
297.4448
 30
0.0
 11
1196.388
 21
297.4448
 31
0.0
  0
LINE
  5
356
  8
5
  6
CONTINUOUS
 10
1196.388
 20
314.445
 30
0.0
 11
1171.388
 21
314.445
 31
0.0
  0
LINE
  5
357
  8
5
  6
CONTINUOUS
 10
1171.388
 20
329.4449
 30
0.0
 11
1196.388
 21
329.4449
 31
0.0
  0
LINE
  5
358
  8
5
  6
CONTINUOUS
 10
1196.388
 20
344.4448
 30
0.0
 11
1171.388
 21
344.4448
 31
0.0
  0
LINE
  5
359
  8
5
  6
CONTINUOUS
 10
1196.388
 20
443.4449
 30
0.0
 11
1171.388
 21
443.4449
 31
0.0
  0
LINE
  5
35A
  8
5
  6
CONTINUOUS
 10
1171.388
 20
428.4448
 30
0.0
 11
1196.388
 21
428.4448
 31
0.0
  0
LINE
  5
35B
  8
5
  6
CONTINUOUS
 10
1196.388
 20
473.445
 30
0.0
 11
1171.388
 21
473.445
 31
0.0
  0
LINE
  5
35C
  8
5
  6
CONTINUOUS
 10
1171.388
 20
458.4449
 30
0.0
 11
1196.388
 21
458.4449
 31
0.0
  0
LINE
  5
35D
  8
5
  6
CONTINUOUS
 10
1196.388
 20
508.645
 30
0.0
 11
1171.388
 21
508.645
 31
0.0
  0
LINE
  5
35E
  8
5
  6
CONTINUOUS
 10
1171.388
 20
490.445
 30
0.0
 11
1196.388
 21
490.445
 31
0.0
  0
LINE
  5
35F
  8
5
  6
CONTINUOUS
 10
1196.388
 20
279.245
 30
0.0
 11
1171.388
 21
279.245
 31
0.0
  0
LINE
  5
360
  8
5
  6
CONTINUOUS
 10
1196.388
 20
359.445
 30
0.0
 11
1171.388
 21
359.445
 31
0.0
  0
LINE
  5
361
  8
5
  6
CONTINUOUS
 10
1196.388
 20
376.6949
 30
0.0
 11
1171.621
 21
376.6949
 31
0.0
  0
LINE
  5
362
  8
5
  6
CONTINUOUS
 10
1172.43
 20
393.9449
 30
0.0
 11
1196.388
 21
393.9449
 31
0.0
  0
LINE
  5
363
  8
5
  6
CONTINUOUS
 10
1196.388
 20
411.1949
 30
0.0
 11
1171.621
 21
411.1949
 31
0.0
  0
LINE
  5
364
  8
5
  6
CONTINUOUS
 10
1323.72
 20
508.6449
 30
0.0
 11
1321.388
 21
508.645
 31
0.0
  0
LINE
  5
365
  8
5
  6
CONTINUOUS
 10
1321.388
 20
490.445
 30
0.0
 11
1326.051
 21
490.4449
 31
0.0
  0
LINE
  5
366
  8
5
  6
CONTINUOUS
 10
1323.72
 20
279.245
 30
0.0
 11
1321.388
 21
279.245
 31
0.0
  0
LINE
  5
367
  8
5
  6
CONTINUOUS
 10
1326.051
 20
297.4448
 30
0.0
 11
1321.388
 21
297.4448
 31
0.0
  0
LINE
  5
368
  8
5
  6
CONTINUOUS
 10
1326.542
 20
314.445
 30
0.0
 11
1321.388
 21
314.445
 31
0.0
  0
LINE
  5
369
  8
5
  6
CONTINUOUS
 10
1325.166
 20
344.4448
 30
0.0
 11
1321.388
 21
344.4448
 31
0.0
  0
LINE
  5
36A
  8
5
  6
CONTINUOUS
 10
1321.388
 20
329.4449
 30
0.0
 11
1325.764
 21
329.4449
 31
0.0
  0
LINE
  5
36B
  8
5
  6
CONTINUOUS
 10
1324.434
 20
376.6949
 30
0.0
 11
1321.388
 21
376.6949
 31
0.0
  0
LINE
  5
36C
  8
5
  6
CONTINUOUS
 10
1321.388
 20
359.445
 30
0.0
 11
1324.735
 21
359.445
 31
0.0
  0
LINE
  5
36D
  8
5
  6
CONTINUOUS
 10
1324.434
 20
411.1949
 30
0.0
 11
1321.388
 21
411.1949
 31
0.0
  0
LINE
  5
36E
  8
5
  6
CONTINUOUS
 10
1321.388
 20
393.9449
 30
0.0
 11
1324.335
 21
393.9449
 31
0.0
  0
LINE
  5
36F
  8
5
  6
CONTINUOUS
 10
1325.166
 20
443.4449
 30
0.0
 11
1321.388
 21
443.4449
 31
0.0
  0
LINE
  5
370
  8
5
  6
CONTINUOUS
 10
1321.388
 20
428.4448
 30
0.0
 11
1324.735
 21
428.4448
 31
0.0
  0
LINE
  5
371
  8
5
  6
CONTINUOUS
 10
1326.542
 20
473.445
 30
0.0
 11
1321.388
 21
473.445
 31
0.0
  0
LINE
  5
372
  8
5
  6
CONTINUOUS
 10
1321.388
 20
458.4449
 30
0.0
 11
1325.764
 21
458.4449
 31
0.0
  0
LINE
  5
373
  8
5
  6
CONTINUOUS
 10
987.8882
 20
604.3091
 30
0.0
 11
1005.004
 21
595.837
 31
0.0
  0
LINE
  5
374
  8
5
  6
CONTINUOUS
 10
987.8882
 20
586.6315
 30
0.0
 11
987.8882
 21
604.3091
 31
0.0
  0
LINE
  5
375
  8
5
  6
CONTINUOUS
 10
1005.004
 20
573.7593
 30
0.0
 11
987.8882
 21
586.6315
 31
0.0
  0
LINE
  5
376
  8
5
  6
CONTINUOUS
 10
1005.004
 20
595.837
 30
0.0
 11
1005.004
 21
573.7593
 31
0.0
  0
LINE
  5
377
  8
5
  6
CONTINUOUS
 10
928.8882
 20
586.6315
 30
0.0
 11
911.7722
 21
573.7593
 31
0.0
  0
LINE
  5
378
  8
5
  6
CONTINUOUS
 10
928.8882
 20
604.3091
 30
0.0
 11
928.8882
 21
586.6315
 31
0.0
  0
LINE
  5
379
  8
5
  6
CONTINUOUS
 10
911.7722
 20
595.837
 30
0.0
 11
928.8882
 21
604.3091
 31
0.0
  0
LINE
  5
37A
  8
5
  6
CONTINUOUS
 10
911.7722
 20
573.7593
 30
0.0
 11
911.7722
 21
595.837
 31
0.0
  0
LINE
  5
37B
  8
5
  6
CONTINUOUS
 10
968.3884
 20
562.437
 30
0.0
 11
976.3882
 21
555.985
 31
0.0
  0
LINE
  5
37C
  8
5
  6
CONTINUOUS
 10
940.3882
 20
555.985
 30
0.0
 11
948.3882
 21
562.437
 31
0.0
  0
LINE
  5
37D
  8
5
  6
CONTINUOUS
 10
948.3882
 20
562.437
 30
0.0
 11
968.3884
 21
562.437
 31
0.0
  0
LINE
  5
37E
  8
5
  6
CONTINUOUS
 10
928.8882
 20
604.3091
 30
0.0
 11
987.8882
 21
604.3091
 31
0.0
  0
LINE
  5
37F
  8
5
  6
CONTINUOUS
 10
987.8882
 20
586.6315
 30
0.0
 11
928.8882
 21
586.6315
 31
0.0
  0
LINE
  5
380
  8
5
  6
CONTINUOUS
 10
1005.004
 20
595.837
 30
0.0
 11
1008.621
 21
568.3858
 31
0.0
  0
LINE
  5
381
  8
5
  6
CONTINUOUS
 10
1006.766
 20
553.4449
 30
0.0
 11
1005.004
 21
573.7593
 31
0.0
  0
LINE
  5
382
  8
5
  6
CONTINUOUS
 10
910.0108
 20
553.4449
 30
0.0
 11
911.7722
 21
573.7593
 31
0.0
  0
LINE
  5
383
  8
5
  6
CONTINUOUS
 10
911.7722
 20
595.837
 30
0.0
 11
908.1558
 21
568.3858
 31
0.0
  0
LINE
  5
384
  8
5
  6
CONTINUOUS
 10
940.3882
 20
553.4449
 30
0.0
 11
940.3882
 21
555.985
 31
0.0
  0
LINE
  5
385
  8
5
  6
CONTINUOUS
 10
976.3882
 20
555.985
 30
0.0
 11
976.3882
 21
553.4449
 31
0.0
  0
LINE
  5
386
  8
5
  6
CONTINUOUS
 10
1383.888
 20
506.8856
 30
0.0
 11
1455.388
 21
506.8856
 31
0.0
  0
LINE
  5
387
  8
5
  6
CONTINUOUS
 10
1383.888
 20
281.0042
 30
0.0
 11
1455.388
 21
281.0042
 31
0.0
  0
LINE
  5
388
  8
5
  6
CONTINUOUS
 10
1383.888
 20
279.7616
 30
0.0
 11
1334.388
 21
279.7616
 31
0.0
  0
LINE
  5
389
  8
5
  6
CONTINUOUS
 10
1383.888
 20
508.1282
 30
0.0
 11
1334.388
 21
508.1282
 31
0.0
  0
LINE
  5
38A
  8
5
  6
CONTINUOUS
 10
1513.388
 20
533.9449
 30
0.0
 11
1513.388
 21
253.9449
 31
0.0
  0
LINE
  5
38B
  8
5
  6
CONTINUOUS
 10
1522.388
 20
533.9449
 30
0.0
 11
1513.388
 21
533.9449
 31
0.0
  0
LINE
  5
38C
  8
5
  6
CONTINUOUS
 10
1513.388
 20
253.9449
 30
0.0
 11
1522.388
 21
253.9449
 31
0.0
  0
LINE
  5
38D
  8
5
  6
CONTINUOUS
 10
1513.388
 20
533.9449
 30
0.0
 11
1455.388
 21
594.4449
 31
0.0
  0
LINE
  5
38E
  8
5
  6
CONTINUOUS
 10
1455.388
 20
193.4448
 30
0.0
 11
1513.388
 21
253.9449
 31
0.0
  0
LINE
  5
38F
  8
5
  6
CONTINUOUS
 10
305.46
 20
1510.784
 30
0.0
 11
305.46
 21
1510.784
 31
0.0
  0
LINE
  5
390
  8
6
  6
CENTER
 10
336.4634
 20
1152.784
 30
0.0
 11
330.4634
 21
1152.784
 31
0.0
  0
LINE
  5
391
  8
6
  6
CENTER
 10
333.4634
 20
1155.784
 30
0.0
 11
333.4634
 21
1149.784
 31
0.0
  0
LINE
  5
392
  8
6
  6
CENTER
 10
336.4634
 20
1152.784
 30
0.0
 11
330.4634
 21
1152.784
 31
0.0
  0
LINE
  5
393
  8
6
  6
CENTER
 10
333.4634
 20
1155.784
 30
0.0
 11
333.4634
 21
1149.784
 31
0.0
  0
LINE
  5
394
  8
6
  6
CENTER
 10
337.9634
 20
1152.784
 30
0.0
 11
536.9634
 21
1152.784
 31
0.0
  0
LINE
  5
395
  8
6
  6
CENTER
 10
333.4634
 20
1157.284
 30
0.0
 11
333.4634
 21
1356.284
 31
0.0
  0
LINE
  5
396
  8
6
  6
CENTER
 10
328.9634
 20
1152.784
 30
0.0
 11
129.9634
 21
1152.784
 31
0.0
  0
LINE
  5
397
  8
6
  6
CENTER
 10
333.4634
 20
1148.284
 30
0.0
 11
333.4634
 21
949.2844
 31
0.0
  0
LINE
  5
398
  8
5
  6
CONTINUOUS
 10
331.5268
 20
1506.584
 30
0.0
 11
331.5268
 21
1510.784
 31
0.0
  0
LINE
  5
399
  8
5
  6
CONTINUOUS
 10
305.4602
 20
1506.584
 30
0.0
 11
305.46
 21
1510.784
 31
0.0
  0
LINE
  5
39A
  8
5
  6
CONTINUOUS
 10
358.5238
 20
1506.584
 30
0.0
 11
358.5238
 21
1510.784
 31
0.0
  0
LINE
  5
39B
  8
5
  6
CONTINUOUS
 10
1044.819345
 20
1422.39343
 30
0.0
 11
1044.818345
 21
1441.94343
 31
0.0
  0
LINE
  5
39C
  8
5
  6
CONTINUOUS
 10
1034.485345
 20
1422.39243
 30
0.0
 11
1044.819345
 21
1422.39343
 31
0.0
  0
LINE
  5
39D
  8
5
  6
CONTINUOUS
 10
1034.484345
 20
1441.94243
 30
0.0
 11
1034.485345
 21
1422.39243
 31
0.0
  0
LINE
  5
39E
  8
5
  6
CONTINUOUS
 10
1034.484345
 20
1441.94243
 30
0.0
 11
1044.818345
 21
1441.94343
 31
0.0
  0
LINE
  5
39F
  8
5
  6
CONTINUOUS
 10
1057.326345
 20
1441.94343
 30
0.0
 11
1046.393345
 21
1441.94343
 31
0.0
  0
ARC
  5
3A0
  8
5
  6
CONTINUOUS
 10
1048.506345
 20
1432.91043
 30
0.0
 40
12.62499
 50
2.745839
 51
45.68309
  0
ARC
  5
3A1
  8
5
  6
CONTINUOUS
 10
1049.995345
 20
1433.51443
 30
0.0
 40
11.12137
 50
270.0019
 51
0.0019
  0
LINE
  5
3A2
  8
5
  6
CONTINUOUS
 10
1046.394345
 20
1422.39343
 30
0.0
 11
1049.995345
 21
1422.39343
 31
0.0
  0
LINE
  5
3A3
  8
5
  6
CONTINUOUS
 10
1046.393345
 20
1441.94343
 30
0.0
 11
1046.394345
 21
1422.39343
 31
0.0
  0
LINE
  5
3A4
  8
5
  6
CONTINUOUS
 10
1046.392345
 20
1462.19043
 30
0.0
 11
1046.393345
 21
1443.51843
 31
0.0
  0
LINE
  5
3A5
  8
5
  6
CONTINUOUS
 10
1049.994345
 20
1462.19143
 30
0.0
 11
1046.392345
 21
1462.19043
 31
0.0
  0
ARC
  5
3A6
  8
5
  6
CONTINUOUS
 10
1049.994345
 20
1454.36143
 30
0.0
 40
7.829616
 50
0.001947
 51
90.00195
  0
ARC
  5
3A7
  8
5
  6
CONTINUOUS
 10
1047.721345
 20
1455.29743
 30
0.0
 40
10.14607
 50
283.5581
 51
354.7072
  0
ARC
  5
3A8
  8
5
  6
CONTINUOUS
 10
1048.506345
 20
1432.91043
 30
0.0
 40
12.62499
 50
57.16491
 51
82.74766
  0
LINE
  5
3A9
  8
5
  6
CONTINUOUS
 10
1046.393345
 20
1443.51843
 30
0.0
 11
1055.351345
 21
1443.51843
 31
0.0
  0
LINE
  5
3AA
  8
5
  6
CONTINUOUS
 10
1034.484345
 20
1462.19043
 30
0.0
 11
1034.484345
 21
1443.51743
 31
0.0
  0
LINE
  5
3AB
  8
5
  6
CONTINUOUS
 10
1044.817345
 20
1462.19043
 30
0.0
 11
1034.484345
 21
1462.19043
 31
0.0
  0
LINE
  5
3AC
  8
5
  6
CONTINUOUS
 10
1044.818345
 20
1443.51743
 30
0.0
 11
1044.817345
 21
1462.19043
 31
0.0
  0
LINE
  5
3AD
  8
5
  6
CONTINUOUS
 10
1034.484345
 20
1443.51743
 30
0.0
 11
1044.818345
 21
1443.51743
 31
0.0
  0
LINE
  5
3AE
  8
5
  6
CONTINUOUS
 10
1012.158345
 20
1462.18943
 30
0.0
 11
1012.159345
 21
1443.51643
 31
0.0
  0
LINE
  5
3AF
  8
5
  6
CONTINUOUS
 10
1015.760345
 20
1462.18943
 30
0.0
 11
1012.158345
 21
1462.18943
 31
0.0
  0
ARC
  5
3B0
  8
5
  6
CONTINUOUS
 10
1015.760345
 20
1454.36043
 30
0.0
 40
7.829616
 50
0.001947
 51
90.00195
  0
ARC
  5
3B1
  8
5
  6
CONTINUOUS
 10
1013.487345
 20
1455.29643
 30
0.0
 40
10.14607
 50
283.5581
 51
354.7072
  0
ARC
  5
3B2
  8
5
  6
CONTINUOUS
 10
1014.272345
 20
1432.90943
 30
0.0
 40
12.62499
 50
57.16493
 51
82.74766
  0
LINE
  5
3B3
  8
5
  6
CONTINUOUS
 10
1012.159345
 20
1443.51643
 30
0.0
 11
1021.117345
 21
1443.51743
 31
0.0
  0
ARC
  5
3B4
  8
5
  6
CONTINUOUS
 10
1014.272345
 20
1432.90943
 30
0.0
 40
12.62499
 50
2.745839
 51
45.68318
  0
ARC
  5
3B5
  8
5
  6
CONTINUOUS
 10
1015.761345
 20
1433.51343
 30
0.0
 40
11.12137
 50
270.0019
 51
0.0019
  0
LINE
  5
3B6
  8
5
  6
CONTINUOUS
 10
1012.160345
 20
1422.39243
 30
0.0
 11
1015.761345
 21
1422.39243
 31
0.0
  0
LINE
  5
3B7
  8
5
  6
CONTINUOUS
 10
1012.159345
 20
1441.94143
 30
0.0
 11
1012.160345
 21
1422.39243
 31
0.0
  0
LINE
  5
3B8
  8
5
  6
CONTINUOUS
 10
1023.092345
 20
1441.94243
 30
0.0
 11
1012.159345
 21
1441.94143
 31
0.0
  0
LINE
  5
3B9
  8
5
  6
CONTINUOUS
 10
1010.585345
 20
1422.39243
 30
0.0
 11
1010.584345
 21
1441.94143
 31
0.0
  0
LINE
  5
3BA
  8
5
  6
CONTINUOUS
 10
1000.251345
 20
1422.39143
 30
0.0
 11
1010.585345
 21
1422.39243
 31
0.0
  0
LINE
  5
3BB
  8
5
  6
CONTINUOUS
 10
1000.250345
 20
1441.94143
 30
0.0
 11
1000.251345
 21
1422.39143
 31
0.0
  0
LINE
  5
3BC
  8
5
  6
CONTINUOUS
 10
1010.584345
 20
1441.94143
 30
0.0
 11
1000.250345
 21
1441.94143
 31
0.0
  0
LINE
  5
3BD
  8
5
  6
CONTINUOUS
 10
1010.584345
 20
1443.51643
 30
0.0
 11
1010.583345
 21
1462.18943
 31
0.0
  0
LINE
  5
3BE
  8
5
  6
CONTINUOUS
 10
1000.250345
 20
1443.51643
 30
0.0
 11
1010.584345
 21
1443.51643
 31
0.0
  0
LINE
  5
3BF
  8
5
  6
CONTINUOUS
 10
1000.249345
 20
1462.18943
 30
0.0
 11
1000.250345
 21
1443.51643
 31
0.0
  0
LINE
  5
3C0
  8
5
  6
CONTINUOUS
 10
1010.583345
 20
1462.18943
 30
0.0
 11
1000.249345
 21
1462.18943
 31
0.0
  0
LINE
  5
3C1
  8
5
  6
CONTINUOUS
 10
992.535245
 20
1422.39143
 30
0.0
 11
985.556445
 21
1441.94043
 31
0.0
  0
LINE
  5
3C2
  8
5
  6
CONTINUOUS
 10
985.410045
 20
1422.39143
 30
0.0
 11
992.535245
 21
1422.39143
 31
0.0
  0
LINE
  5
3C3
  8
5
  6
CONTINUOUS
 10
982.529945
 20
1430.45943
 30
0.0
 11
985.410045
 21
1422.39143
 31
0.0
  0
LINE
  5
3C4
  8
5
  6
CONTINUOUS
 10
973.984845
 20
1430.45843
 30
0.0
 11
982.529945
 21
1430.45943
 31
0.0
  0
LINE
  5
3C5
  8
5
  6
CONTINUOUS
 10
973.984545
 20
1441.94043
 30
0.0
 11
973.984845
 21
1430.45843
 31
0.0
  0
LINE
  5
3C6
  8
5
  6
CONTINUOUS
 10
985.556445
 20
1441.94043
 30
0.0
 11
973.984545
 21
1441.94043
 31
0.0
  0
LINE
  5
3C7
  8
5
  6
CONTINUOUS
 10
973.983745
 20
1462.18843
 30
0.0
 11
973.984345
 21
1443.51543
 31
0.0
  0
LINE
  5
3C8
  8
5
  6
CONTINUOUS
 10
978.328445
 20
1462.18843
 30
0.0
 11
973.983745
 21
1462.18843
 31
0.0
  0
LINE
  5
3C9
  8
5
  6
CONTINUOUS
 10
984.994245
 20
1443.51543
 30
0.0
 11
978.328445
 21
1462.18843
 31
0.0
  0
LINE
  5
3CA
  8
5
  6
CONTINUOUS
 10
973.984345
 20
1443.51543
 30
0.0
 11
984.994245
 21
1443.51543
 31
0.0
  0
LINE
  5
3CB
  8
5
  6
CONTINUOUS
 10
963.826845
 20
1430.45843
 30
0.0
 11
972.409845
 21
1430.45843
 31
0.0
  0
LINE
  5
3CC
  8
5
  6
CONTINUOUS
 10
961.059145
 20
1422.39043
 30
0.0
 11
963.826845
 21
1430.45843
 31
0.0
  0
LINE
  5
3CD
  8
5
  6
CONTINUOUS
 10
954.412045
 20
1422.39043
 30
0.0
 11
961.059145
 21
1422.39043
 31
0.0
  0
LINE
  5
3CE
  8
5
  6
CONTINUOUS
 10
961.118445
 20
1441.94043
 30
0.0
 11
954.412045
 21
1422.39043
 31
0.0
  0
LINE
  5
3CF
  8
5
  6
CONTINUOUS
 10
972.409545
 20
1441.94043
 30
0.0
 11
961.118445
 21
1441.94043
 31
0.0
  0
LINE
  5
3D0
  8
5
  6
CONTINUOUS
 10
972.409845
 20
1430.45843
 30
0.0
 11
972.409545
 21
1441.94043
 31
0.0
  0
LINE
  5
3D1
  8
5
  6
CONTINUOUS
 10
972.408845
 20
1462.18843
 30
0.0
 11
968.064145
 21
1462.18843
 31
0.0
  0
LINE
  5
3D2
  8
5
  6
CONTINUOUS
 10
972.409545
 20
1443.51543
 30
0.0
 11
972.408845
 21
1462.18843
 31
0.0
  0
LINE
  5
3D3
  8
5
  6
CONTINUOUS
 10
961.658645
 20
1443.51543
 30
0.0
 11
972.409545
 21
1443.51543
 31
0.0
  0
LINE
  5
3D4
  8
5
  6
CONTINUOUS
 10
968.064145
 20
1462.18843
 30
0.0
 11
961.658645
 21
1443.51543
 31
0.0
  0
LINE
  5
3D5
  8
5
  6
CONTINUOUS
 10
333.6268
 20
1506.584
 30
0.0
 11
333.6268
 21
1510.784
 31
0.0
  0
LINE
  5
3D6
  8
5
  6
CONTINUOUS
 10
220.4634
 20
1506.584
 30
0.0
 11
443.4669
 21
1506.581
 31
0.0
  0
LINE
  5
3D7
  8
5
  6
CONTINUOUS
 10
438.8706
 20
1170.038
 30
0.0
 11
438.8698
 21
1189.587
 31
0.0
  0
LINE
  5
3D8
  8
5
  6
CONTINUOUS
 10
428.5366
 20
1170.037
 30
0.0
 11
438.8706
 21
1170.038
 31
0.0
  0
LINE
  5
3D9
  8
5
  6
CONTINUOUS
 10
428.536
 20
1189.587
 30
0.0
 11
428.5366
 21
1170.037
 31
0.0
  0
LINE
  5
3DA
  8
5
  6
CONTINUOUS
 10
428.536
 20
1189.587
 30
0.0
 11
438.8698
 21
1189.587
 31
0.0
  0
LINE
  5
3DB
  8
5
  6
CONTINUOUS
 10
451.3776
 20
1189.588
 30
0.0
 11
440.4448
 21
1189.587
 31
0.0
  0
ARC
  5
3DC
  8
5
  6
CONTINUOUS
 10
442.5575
 20
1180.555
 30
0.0
 40
12.62499
 50
2.745839
 51
45.68309
  0
ARC
  5
3DD
  8
5
  6
CONTINUOUS
 10
444.0466
 20
1181.159
 30
0.0
 40
11.12137
 50
270.0019
 51
0.0019
  0
LINE
  5
3DE
  8
5
  6
CONTINUOUS
 10
440.4456
 20
1170.038
 30
0.0
 11
444.047
 21
1170.038
 31
0.0
  0
LINE
  5
3DF
  8
5
  6
CONTINUOUS
 10
440.4448
 20
1189.587
 30
0.0
 11
440.4456
 21
1170.038
 31
0.0
  0
LINE
  5
3E0
  8
5
  6
CONTINUOUS
 10
440.4442
 20
1209.835
 30
0.0
 11
440.4448
 21
1191.162
 31
0.0
  0
LINE
  5
3E1
  8
5
  6
CONTINUOUS
 10
444.0457
 20
1209.835
 30
0.0
 11
440.4442
 21
1209.835
 31
0.0
  0
ARC
  5
3E2
  8
5
  6
CONTINUOUS
 10
444.0459
 20
1202.006
 30
0.0
 40
7.829616
 50
0.001947
 51
90.00195
  0
ARC
  5
3E3
  8
5
  6
CONTINUOUS
 10
441.7727
 20
1202.942
 30
0.0
 40
10.14607
 50
283.5581
 51
354.7072
  0
ARC
  5
3E4
  8
5
  6
CONTINUOUS
 10
442.5575
 20
1180.555
 30
0.0
 40
12.62499
 50
57.16491
 51
82.74766
  0
LINE
  5
3E5
  8
5
  6
CONTINUOUS
 10
440.4448
 20
1191.162
 30
0.0
 11
449.4031
 21
1191.163
 31
0.0
  0
LINE
  5
3E6
  8
5
  6
CONTINUOUS
 10
428.5353
 20
1209.835
 30
0.0
 11
428.536
 21
1191.162
 31
0.0
  0
LINE
  5
3E7
  8
5
  6
CONTINUOUS
 10
438.8692
 20
1209.835
 30
0.0
 11
428.5353
 21
1209.835
 31
0.0
  0
LINE
  5
3E8
  8
5
  6
CONTINUOUS
 10
438.8698
 20
1191.162
 30
0.0
 11
438.8692
 21
1209.835
 31
0.0
  0
LINE
  5
3E9
  8
5
  6
CONTINUOUS
 10
428.536
 20
1191.162
 30
0.0
 11
438.8698
 21
1191.162
 31
0.0
  0
LINE
  5
3EA
  8
5
  6
CONTINUOUS
 10
406.21
 20
1209.834
 30
0.0
 11
406.2106
 21
1191.161
 31
0.0
  0
LINE
  5
3EB
  8
5
  6
CONTINUOUS
 10
409.8115
 20
1209.834
 30
0.0
 11
406.21
 21
1209.834
 31
0.0
  0
ARC
  5
3EC
  8
5
  6
CONTINUOUS
 10
409.8117
 20
1202.005
 30
0.0
 40
7.829616
 50
0.001947
 51
90.00195
  0
ARC
  5
3ED
  8
5
  6
CONTINUOUS
 10
407.5385
 20
1202.941
 30
0.0
 40
10.14607
 50
283.5581
 51
354.7072
  0
ARC
  5
3EE
  8
5
  6
CONTINUOUS
 10
408.3233
 20
1180.553
 30
0.0
 40
12.62499
 50
57.16493
 51
82.74766
  0
LINE
  5
3EF
  8
5
  6
CONTINUOUS
 10
406.2106
 20
1191.161
 30
0.0
 11
415.1689
 21
1191.161
 31
0.0
  0
ARC
  5
3F0
  8
5
  6
CONTINUOUS
 10
408.3233
 20
1180.553
 30
0.0
 40
12.62499
 50
2.745839
 51
45.68318
  0
ARC
  5
3F1
  8
5
  6
CONTINUOUS
 10
409.8124
 20
1181.158
 30
0.0
 40
11.12137
 50
270.0019
 51
0.0019
  0
LINE
  5
3F2
  8
5
  6
CONTINUOUS
 10
406.2113
 20
1170.036
 30
0.0
 11
409.8128
 21
1170.036
 31
0.0
  0
LINE
  5
3F3
  8
5
  6
CONTINUOUS
 10
406.2106
 20
1189.586
 30
0.0
 11
406.2113
 21
1170.036
 31
0.0
  0
LINE
  5
3F4
  8
5
  6
CONTINUOUS
 10
417.1434
 20
1189.586
 30
0.0
 11
406.2106
 21
1189.586
 31
0.0
  0
LINE
  5
3F5
  8
5
  6
CONTINUOUS
 10
404.6364
 20
1170.036
 30
0.0
 11
404.6356
 21
1189.586
 31
0.0
  0
LINE
  5
3F6
  8
5
  6
CONTINUOUS
 10
394.3024
 20
1170.036
 30
0.0
 11
404.6364
 21
1170.036
 31
0.0
  0
LINE
  5
3F7
  8
5
  6
CONTINUOUS
 10
394.3018
 20
1189.586
 30
0.0
 11
394.3024
 21
1170.036
 31
0.0
  0
LINE
  5
3F8
  8
5
  6
CONTINUOUS
 10
404.6356
 20
1189.586
 30
0.0
 11
394.3018
 21
1189.586
 31
0.0
  0
LINE
  5
3F9
  8
5
  6
CONTINUOUS
 10
404.6356
 20
1191.161
 30
0.0
 11
404.635
 21
1209.834
 31
0.0
  0
LINE
  5
3FA
  8
5
  6
CONTINUOUS
 10
394.3017
 20
1191.161
 30
0.0
 11
404.6356
 21
1191.161
 31
0.0
  0
LINE
  5
3FB
  8
5
  6
CONTINUOUS
 10
394.3011
 20
1209.834
 30
0.0
 11
394.3017
 21
1191.161
 31
0.0
  0
LINE
  5
3FC
  8
5
  6
CONTINUOUS
 10
404.635
 20
1209.834
 30
0.0
 11
394.3011
 21
1209.834
 31
0.0
  0
LINE
  5
3FD
  8
5
  6
CONTINUOUS
 10
386.5866
 20
1170.036
 30
0.0
 11
379.6078
 21
1189.585
 31
0.0
  0
LINE
  5
3FE
  8
5
  6
CONTINUOUS
 10
379.4614
 20
1170.035
 30
0.0
 11
386.5866
 21
1170.036
 31
0.0
  0
LINE
  5
3FF
  8
5
  6
CONTINUOUS
 10
376.5813
 20
1178.103
 30
0.0
 11
379.4614
 21
1170.035
 31
0.0
  0
LINE
  5
400
  8
5
  6
CONTINUOUS
 10
368.0362
 20
1178.103
 30
0.0
 11
376.5813
 21
1178.103
 31
0.0
  0
LINE
  5
401
  8
5
  6
CONTINUOUS
 10
368.0359
 20
1189.585
 30
0.0
 11
368.0362
 21
1178.103
 31
0.0
  0
LINE
  5
402
  8
5
  6
CONTINUOUS
 10
379.6078
 20
1189.585
 30
0.0
 11
368.0359
 21
1189.585
 31
0.0
  0
LINE
  5
403
  8
5
  6
CONTINUOUS
 10
368.0351
 20
1209.833
 30
0.0
 11
368.0357
 21
1191.16
 31
0.0
  0
LINE
  5
404
  8
5
  6
CONTINUOUS
 10
372.3798
 20
1209.833
 30
0.0
 11
368.0351
 21
1209.833
 31
0.0
  0
LINE
  5
405
  8
5
  6
CONTINUOUS
 10
379.0456
 20
1191.16
 30
0.0
 11
372.3798
 21
1209.833
 31
0.0
  0
LINE
  5
406
  8
5
  6
CONTINUOUS
 10
368.0357
 20
1191.16
 30
0.0
 11
379.0456
 21
1191.16
 31
0.0
  0
LINE
  5
407
  8
5
  6
CONTINUOUS
 10
357.8782
 20
1178.103
 30
0.0
 11
366.4612
 21
1178.103
 31
0.0
  0
LINE
  5
408
  8
5
  6
CONTINUOUS
 10
355.1105
 20
1170.035
 30
0.0
 11
357.8782
 21
1178.103
 31
0.0
  0
LINE
  5
409
  8
5
  6
CONTINUOUS
 10
348.4634
 20
1170.034
 30
0.0
 11
355.1105
 21
1170.035
 31
0.0
  0
LINE
  5
40A
  8
5
  6
CONTINUOUS
 10
355.1697
 20
1189.584
 30
0.0
 11
348.4634
 21
1170.034
 31
0.0
  0
LINE
  5
40B
  8
5
  6
CONTINUOUS
 10
366.4609
 20
1189.585
 30
0.0
 11
355.1697
 21
1189.584
 31
0.0
  0
LINE
  5
40C
  8
5
  6
CONTINUOUS
 10
366.4612
 20
1178.103
 30
0.0
 11
366.4609
 21
1189.585
 31
0.0
  0
LINE
  5
40D
  8
5
  6
CONTINUOUS
 10
366.4602
 20
1209.833
 30
0.0
 11
362.1155
 21
1209.833
 31
0.0
  0
LINE
  5
40E
  8
5
  6
CONTINUOUS
 10
366.4609
 20
1191.16
 30
0.0
 11
366.4602
 21
1209.833
 31
0.0
  0
LINE
  5
40F
  8
5
  6
CONTINUOUS
 10
355.71
 20
1191.159
 30
0.0
 11
366.4609
 21
1191.16
 31
0.0
  0
LINE
  5
410
  8
5
  6
CONTINUOUS
 10
362.1155
 20
1209.833
 30
0.0
 11
355.71
 21
1191.159
 31
0.0
  0
LINE
  5
411
  8
5
  6
CONTINUOUS
 10
1975.792
 20
1468.123
 30
0.0
 11
1975.792
 21
1482.785
 31
0.0
  0
LINE
  5
412
  8
5
  6
CONTINUOUS
 10
1968.042
 20
1468.123
 30
0.0
 11
1975.792
 21
1468.123
 31
0.0
  0
LINE
  5
413
  8
5
  6
CONTINUOUS
 10
1968.041
 20
1482.785
 30
0.0
 11
1968.042
 21
1468.123
 31
0.0
  0
LINE
  5
414
  8
5
  6
CONTINUOUS
 10
1968.041
 20
1482.785
 30
0.0
 11
1975.792
 21
1482.785
 31
0.0
  0
LINE
  5
415
  8
5
  6
CONTINUOUS
 10
1985.173
 20
1482.786
 30
0.0
 11
1976.973
 21
1482.785
 31
0.0
  0
ARC
  5
416
  8
5
  6
CONTINUOUS
 10
1978.558
 20
1476.011
 30
0.0
 40
9.468742
 50
2.745839
 51
45.68309
  0
ARC
  5
417
  8
5
  6
CONTINUOUS
 10
1979.674
 20
1476.464
 30
0.0
 40
8.341025
 50
270.0019
 51
0.0019
  0
LINE
  5
418
  8
5
  6
CONTINUOUS
 10
1976.974
 20
1468.123
 30
0.0
 11
1979.675
 21
1468.123
 31
0.0
  0
LINE
  5
419
  8
5
  6
CONTINUOUS
 10
1976.973
 20
1482.785
 30
0.0
 11
1976.974
 21
1468.123
 31
0.0
  0
LINE
  5
41A
  8
5
  6
CONTINUOUS
 10
1976.973
 20
1497.971
 30
0.0
 11
1976.973
 21
1483.967
 31
0.0
  0
LINE
  5
41B
  8
5
  6
CONTINUOUS
 10
1979.674
 20
1497.972
 30
0.0
 11
1976.973
 21
1497.971
 31
0.0
  0
ARC
  5
41C
  8
5
  6
CONTINUOUS
 10
1979.674
 20
1492.099
 30
0.0
 40
5.872212
 50
0.001947
 51
90.00195
  0
ARC
  5
41D
  8
5
  6
CONTINUOUS
 10
1977.969
 20
1492.801
 30
0.0
 40
7.609554
 50
283.5581
 51
354.7072
  0
ARC
  5
41E
  8
5
  6
CONTINUOUS
 10
1978.558
 20
1476.011
 30
0.0
 40
9.468742
 50
57.16491
 51
82.74766
  0
LINE
  5
41F
  8
5
  6
CONTINUOUS
 10
1976.973
 20
1483.967
 30
0.0
 11
1983.692
 21
1483.967
 31
0.0
  0
LINE
  5
420
  8
5
  6
CONTINUOUS
 10
1968.041
 20
1497.971
 30
0.0
 11
1968.041
 21
1483.966
 31
0.0
  0
LINE
  5
421
  8
5
  6
CONTINUOUS
 10
1975.791
 20
1497.971
 30
0.0
 11
1968.041
 21
1497.971
 31
0.0
  0
LINE
  5
422
  8
5
  6
CONTINUOUS
 10
1975.792
 20
1483.967
 30
0.0
 11
1975.791
 21
1497.971
 31
0.0
  0
LINE
  5
423
  8
5
  6
CONTINUOUS
 10
1968.041
 20
1483.966
 30
0.0
 11
1975.792
 21
1483.967
 31
0.0
  0
LINE
  5
424
  8
5
  6
CONTINUOUS
 10
1951.297
 20
1497.971
 30
0.0
 11
1951.297
 21
1483.966
 31
0.0
  0
LINE
  5
425
  8
5
  6
CONTINUOUS
 10
1953.998
 20
1497.971
 30
0.0
 11
1951.297
 21
1497.971
 31
0.0
  0
ARC
  5
426
  8
5
  6
CONTINUOUS
 10
1953.998
 20
1492.098
 30
0.0
 40
5.872212
 50
0.001947
 51
90.00195
  0
ARC
  5
427
  8
5
  6
CONTINUOUS
 10
1952.293
 20
1492.801
 30
0.0
 40
7.609554
 50
283.5581
 51
354.7072
  0
ARC
  5
428
  8
5
  6
CONTINUOUS
 10
1952.882
 20
1476.01
 30
0.0
 40
9.468742
 50
57.16493
 51
82.74766
  0
LINE
  5
429
  8
5
  6
CONTINUOUS
 10
1951.297
 20
1483.966
 30
0.0
 11
1958.016
 21
1483.966
 31
0.0
  0
ARC
  5
42A
  8
5
  6
CONTINUOUS
 10
1952.882
 20
1476.01
 30
0.0
 40
9.468742
 50
2.745839
 51
45.68318
  0
ARC
  5
42B
  8
5
  6
CONTINUOUS
 10
1953.999
 20
1476.463
 30
0.0
 40
8.341025
 50
270.0019
 51
0.0019
  0
LINE
  5
42C
  8
5
  6
CONTINUOUS
 10
1951.298
 20
1468.122
 30
0.0
 11
1953.999
 21
1468.122
 31
0.0
  0
LINE
  5
42D
  8
5
  6
CONTINUOUS
 10
1951.297
 20
1482.785
 30
0.0
 11
1951.298
 21
1468.122
 31
0.0
  0
LINE
  5
42E
  8
5
  6
CONTINUOUS
 10
1959.497
 20
1482.785
 30
0.0
 11
1951.297
 21
1482.785
 31
0.0
  0
LINE
  5
42F
  8
5
  6
CONTINUOUS
 10
1950.117
 20
1468.122
 30
0.0
 11
1950.116
 21
1482.785
 31
0.0
  0
LINE
  5
430
  8
5
  6
CONTINUOUS
 10
1942.366
 20
1468.122
 30
0.0
 11
1950.117
 21
1468.122
 31
0.0
  0
LINE
  5
431
  8
5
  6
CONTINUOUS
 10
1942.366
 20
1482.784
 30
0.0
 11
1942.366
 21
1468.122
 31
0.0
  0
LINE
  5
432
  8
5
  6
CONTINUOUS
 10
1950.116
 20
1482.785
 30
0.0
 11
1942.366
 21
1482.784
 31
0.0
  0
LINE
  5
433
  8
5
  6
CONTINUOUS
 10
1950.116
 20
1483.966
 30
0.0
 11
1950.116
 21
1497.971
 31
0.0
  0
LINE
  5
434
  8
5
  6
CONTINUOUS
 10
1942.366
 20
1483.966
 30
0.0
 11
1950.116
 21
1483.966
 31
0.0
  0
LINE
  5
435
  8
5
  6
CONTINUOUS
 10
1942.365
 20
1497.97
 30
0.0
 11
1942.366
 21
1483.966
 31
0.0
  0
LINE
  5
436
  8
5
  6
CONTINUOUS
 10
1950.116
 20
1497.971
 30
0.0
 11
1942.365
 21
1497.97
 31
0.0
  0
LINE
  5
437
  8
5
  6
CONTINUOUS
 10
1936.579
 20
1468.122
 30
0.0
 11
1931.345
 21
1482.784
 31
0.0
  0
LINE
  5
438
  8
5
  6
CONTINUOUS
 10
1931.236
 20
1468.122
 30
0.0
 11
1936.579
 21
1468.122
 31
0.0
  0
LINE
  5
439
  8
5
  6
CONTINUOUS
 10
1929.075
 20
1474.173
 30
0.0
 11
1931.236
 21
1468.122
 31
0.0
  0
LINE
  5
43A
  8
5
  6
CONTINUOUS
 10
1922.667
 20
1474.172
 30
0.0
 11
1929.075
 21
1474.173
 31
0.0
  0
LINE
  5
43B
  8
5
  6
CONTINUOUS
 10
1922.666
 20
1482.784
 30
0.0
 11
1922.667
 21
1474.172
 31
0.0
  0
LINE
  5
43C
  8
5
  6
CONTINUOUS
 10
1931.345
 20
1482.784
 30
0.0
 11
1922.666
 21
1482.784
 31
0.0
  0
LINE
  5
43D
  8
5
  6
CONTINUOUS
 10
1922.666
 20
1497.97
 30
0.0
 11
1922.666
 21
1483.965
 31
0.0
  0
LINE
  5
43E
  8
5
  6
CONTINUOUS
 10
1925.924
 20
1497.97
 30
0.0
 11
1922.666
 21
1497.97
 31
0.0
  0
LINE
  5
43F
  8
5
  6
CONTINUOUS
 10
1930.924
 20
1483.965
 30
0.0
 11
1925.924
 21
1497.97
 31
0.0
  0
LINE
  5
440
  8
5
  6
CONTINUOUS
 10
1922.666
 20
1483.965
 30
0.0
 11
1930.924
 21
1483.965
 31
0.0
  0
LINE
  5
441
  8
5
  6
CONTINUOUS
 10
1915.048
 20
1474.172
 30
0.0
 11
1921.485
 21
1474.172
 31
0.0
  0
LINE
  5
442
  8
5
  6
CONTINUOUS
 10
1912.972
 20
1468.121
 30
0.0
 11
1915.048
 21
1474.172
 31
0.0
  0
LINE
  5
443
  8
5
  6
CONTINUOUS
 10
1907.987
 20
1468.121
 30
0.0
 11
1912.972
 21
1468.121
 31
0.0
  0
LINE
  5
444
  8
5
  6
CONTINUOUS
 10
1913.017
 20
1482.783
 30
0.0
 11
1907.987
 21
1468.121
 31
0.0
  0
LINE
  5
445
  8
5
  6
CONTINUOUS
 10
1921.485
 20
1482.784
 30
0.0
 11
1913.017
 21
1482.783
 31
0.0
  0
LINE
  5
446
  8
5
  6
CONTINUOUS
 10
1921.485
 20
1474.172
 30
0.0
 11
1921.485
 21
1482.784
 31
0.0
  0
LINE
  5
447
  8
5
  6
CONTINUOUS
 10
1921.485
 20
1497.97
 30
0.0
 11
1918.226
 21
1497.969
 31
0.0
  0
LINE
  5
448
  8
5
  6
CONTINUOUS
 10
1921.485
 20
1483.965
 30
0.0
 11
1921.485
 21
1497.97
 31
0.0
  0
LINE
  5
449
  8
5
  6
CONTINUOUS
 10
1913.422
 20
1483.965
 30
0.0
 11
1921.485
 21
1483.965
 31
0.0
  0
LINE
  5
44A
  8
5
  6
CONTINUOUS
 10
1918.226
 20
1497.969
 30
0.0
 11
1913.422
 21
1483.965
 31
0.0
  0
LINE
  5
44B
  8
6
  6
CENTER
 10
1772.275
 20
957.7845
 30
0.0
 11
1772.275
 21
922.7845
 31
0.0
  0
LINE
  5
44C
  8
7
  6
DASHED
 10
1781.525
 20
952.7845
 30
0.0
 11
1781.525
 21
927.7845
 31
0.0
  0
LINE
  5
44D
  8
7
  6
DASHED
 10
1763.025
 20
952.7845
 30
0.0
 11
1763.025
 21
927.7845
 31
0.0
  0
LINE
  5
44E
  8
6
  6
CENTER
 10
2128.275
 20
957.7845
 30
0.0
 11
2128.275
 21
922.7845
 31
0.0
  0
LINE
  5
44F
  8
7
  6
DASHED
 10
2119.025
 20
952.7845
 30
0.0
 11
2119.025
 21
927.7845
 31
0.0
  0
LINE
  5
450
  8
7
  6
DASHED
 10
2137.525
 20
952.7845
 30
0.0
 11
2137.525
 21
927.7845
 31
0.0
  0
LINE
  5
452
  8
7
  6
DASHED
 10
164.7134
 20
952.7844
 30
0.0
 11
164.7134
 21
927.7844
 31
0.0
  0
LINE
  5
453
  8
7
  6
DASHED
 10
146.2134
 20
952.7844
 30
0.0
 11
146.2134
 21
927.7844
 31
0.0
  0
LINE
  5
454
  8
6
  6
CENTER
 10
511.4634
 20
957.7844
 30
0.0
 11
511.4634
 21
922.7844
 31
0.0
  0
LINE
  5
455
  8
7
  6
DASHED
 10
502.2134
 20
952.7844
 30
0.0
 11
502.2134
 21
927.7844
 31
0.0
  0
LINE
  5
456
  8
7
  6
DASHED
 10
520.7134
 20
952.7844
 30
0.0
 11
520.7134
 21
927.7844
 31
0.0
  0
LINE
  5
457
  8
6
  6
CENTER
 10
940.567
 20
960.7844
 30
0.0
 11
940.567
 21
919.9975
 31
0.0
  0
LINE
  5
458
  8
7
  6
DASHED
 10
949.817
 20
952.7845
 30
0.0
 11
949.817
 21
927.7845
 31
0.0
  0
LINE
  5
459
  8
7
  6
DASHED
 10
931.317
 20
952.7845
 30
0.0
 11
931.317
 21
927.7845
 31
0.0
  0
LINE
  5
45A
  8
7
  6
DASHED
 10
1235.817
 20
952.7845
 30
0.0
 11
1235.817
 21
927.7845
 31
0.0
  0
LINE
  5
45B
  8
6
  6
CENTER
 10
1226.567
 20
960.7844
 30
0.0
 11
1226.567
 21
919.9975
 31
0.0
  0
LINE
  5
45C
  8
7
  6
DASHED
 10
1217.317
 20
952.7845
 30
0.0
 11
1217.317
 21
927.7845
 31
0.0
  0
LINE
  5
45D
  8
6
  6
CENTER
 10
1251.567
 20
960.7844
 30
0.0
 11
1251.567
 21
919.9975
 31
0.0
  0
LINE
  5
45E
  8
7
  6
DASHED
 10
1260.817
 20
952.7845
 30
0.0
 11
1260.817
 21
927.7845
 31
0.0
  0
LINE
  5
45F
  8
7
  6
DASHED
 10
1242.317
 20
952.7845
 30
0.0
 11
1242.317
 21
927.7845
 31
0.0
  0
LINE
  5
460
  8
6
  6
CENTER
 10
661.5669
 20
1152.784
 30
0.0
 11
1547.067
 21
1152.784
 31
0.0
  0
LINE
  5
461
  8
6
  6
CENTER
 10
661.3883
 20
393.9449
 30
0.0
 11
901.884449
 21
393.9449
 31
0.0
  0
LINE
  5
462
  8
5
  6
CENTER
 10
262.8746
 20
1135.534
 30
0.0
 11
262.8746
 21
1100.032
 31
0.0
  0
LINE
  5
463
  8
5
  6
CONTINUOUS
 10
262.8746
 20
1135.534
 30
0.0
 11
262.8746
 21
1100.032
 31
0.0
  0
LINE
  5
464
  8
5
  6
CENTER
 10
272.8746
 20
1135.534
 30
0.0
 11
272.8746
 21
1077.603
 31
0.0
  0
LINE
  5
465
  8
5
  6
CONTINUOUS
 10
272.8746
 20
1135.534
 30
0.0
 11
272.8746
 21
1077.971
 31
0.0
  0
LINE
  5
466
  8
5
  6
CENTER
 10
282.8746
 20
1135.534
 30
0.0
 11
282.8746
 21
1064.784
 31
0.0
  0
LINE
  5
467
  8
5
  6
CONTINUOUS
 10
282.8746
 20
1135.534
 30
0.0
 11
282.8746
 21
1064.784
 31
0.0
  0
LINE
  5
468
  8
5
  6
CENTER
 10
292.8746
 20
1135.534
 30
0.0
 11
292.8746
 21
1064.784
 31
0.0
  0
LINE
  5
469
  8
5
  6
CONTINUOUS
 10
292.8746
 20
1135.534
 30
0.0
 11
292.8746
 21
1064.784
 31
0.0
  0
LINE
  5
46A
  8
5
  6
CENTER
 10
302.8746
 20
1135.534
 30
0.0
 11
302.8746
 21
1064.784
 31
0.0
  0
LINE
  5
46B
  8
5
  6
CONTINUOUS
 10
302.8746
 20
1135.534
 30
0.0
 11
302.8746
 21
1064.784
 31
0.0
  0
LINE
  5
46C
  8
5
  6
CENTER
 10
312.8746
 20
1135.534
 30
0.0
 11
312.8746
 21
1064.784
 31
0.0
  0
LINE
  5
46D
  8
5
  6
CONTINUOUS
 10
312.8746
 20
1135.534
 30
0.0
 11
312.8746
 21
1064.784
 31
0.0
  0
LINE
  5
46E
  8
5
  6
CONTINUOUS
 10
275.378
 20
1075.56
 30
0.0
 11
323.0192
 21
1075.56
 31
0.0
  0
LINE
  5
46F
  8
5
  6
CONTINUOUS
 10
275.8693
 20
1075.56
 30
0.0
 11
323.0192
 21
1075.56
 31
0.0
  0
LINE
  5
470
  8
5
  6
CONTINUOUS
 10
262.8746
 20
1085.56
 30
0.0
 11
323.0192
 21
1085.56
 31
0.0
  0
LINE
  5
471
  8
5
  6
CONTINUOUS
 10
262.8746
 20
1085.56
 30
0.0
 11
323.0192
 21
1085.56
 31
0.0
  0
LINE
  5
472
  8
5
  6
CONTINUOUS
 10
259.2516
 20
1095.56
 30
0.0
 11
323.0192
 21
1095.56
 31
0.0
  0
LINE
  5
473
  8
5
  6
CONTINUOUS
 10
263.2417
 20
1095.56
 30
0.0
 11
323.0192
 21
1095.56
 31
0.0
  0
LINE
  5
474
  8
5
  6
CONTINUOUS
 10
252.3828
 20
1105.56
 30
0.0
 11
323.0192
 21
1105.56
 31
0.0
  0
LINE
  5
475
  8
5
  6
CONTINUOUS
 10
253.1365
 20
1105.56
 30
0.0
 11
323.0192
 21
1105.56
 31
0.0
  0
LINE
  5
476
  8
5
  6
CONTINUOUS
 10
252.634
 20
1115.56
 30
0.0
 11
323.0192
 21
1115.56
 31
0.0
  0
LINE
  5
477
  8
5
  6
CONTINUOUS
 10
252.634
 20
1115.56
 30
0.0
 11
323.0192
 21
1115.56
 31
0.0
  0
LINE
  5
478
  8
5
  6
CONTINUOUS
 10
253.6389
 20
1125.56
 30
0.0
 11
323.0192
 21
1125.56
 31
0.0
  0
LINE
  5
479
  8
5
  6
CONTINUOUS
 10
253.6389
 20
1125.56
 30
0.0
 11
323.0192
 21
1125.56
 31
0.0
  0
LINE
  5
47A
  8
5
  6
CONTINUOUS
 10
889.0569
 20
197.1449
 30
0.0
 11
886.7253
 21
215.3449
 31
0.0
  0
LINE
  5
47B
  8
5
  6
CONTINUOUS
 10
1321.567
 20
1038.885
 30
0.0
 11
1321.567
 21
1019.884
 31
0.0
  0
LINE
  5
47C
  8
5
  6
CONTINUOUS
 10
1321.567
 20
1267.484
 30
0.0
 11
1321.567
 21
1285.684
 31
0.0
  0
LINE
  5
47D
  8
5
  6
CONTINUOUS
 10
1321.567
 20
1038.885
 30
0.0
 11
1324.001
 21
1038.885
 31
0.0
  0
LINE
  5
47F
  8
5
  6
CONTINUOUS
 10
891.5669
 20
1038.885
 30
0.0
 11
891.5669
 21
1019.884
 31
0.0
  0
LINE
  5
480
  8
5
  6
CONTINUOUS
 10
891.567
 20
1267.484
 30
0.0
 11
891.5669
 21
1285.684
 31
0.0
  0
LINE
  5
481
  8
5
  6
CONTINUOUS
 10
1321.388
 20
589.9448
 30
0.0
 11
1321.388
 21
608.9449
 31
0.0
  0
LINE
  5
482
  8
5
  6
CONTINUOUS
 10
1321.388
 20
589.9448
 30
0.0
 11
1323.822
 21
589.9448
 31
0.0
  0
LINE
  5
483
  8
5
  6
CONTINUOUS
 10
1321.388
 20
197.9449
 30
0.0
 11
1321.388
 21
178.9449
 31
0.0
  0
LINE
  5
484
  8
5
  6
CONTINUOUS
 10
1321.388
 20
197.9449
 30
0.0
 11
1323.822
 21
197.9449
 31
0.0
  0
LINE
  5
485
  8
5
  6
CONTINUOUS
 10
891.3882
 20
589.9448
 30
0.0
 11
891.3883
 21
608.9449
 31
0.0
  0
LINE
  5
486
  8
5
  6
CONTINUOUS
 10
886.7253
 20
215.3449
 30
0.0
 11
885.6825
 21
223.4851
 31
0.0
  0
LINE
  5
487
  8
5
  6
CONTINUOUS
 10
891.3882
 20
589.9448
 30
0.0
 11
888.9543
 21
589.9448
 31
0.0
  0
LINE
  5
488
  8
5
  6
CONTINUOUS
 10
891.3882
 20
197.9449
 30
0.0
 11
891.3883
 21
178.9449
 31
0.0
  0
LINE
  5
489
  8
5
  6
CONTINUOUS
 10
891.3882
 20
197.9449
 30
0.0
 11
888.9543
 21
197.9449
 31
0.0
  0
LINE
  5
48A
  8
5
  6
CONTINUOUS
 10
481.4634
 20
1410.584
 30
0.0
 11
481.4634
 21
1387.784
 31
0.0
  0
LINE
  5
48B
  8
5
  6
CONTINUOUS
 10
481.4634
 20
1387.784
 30
0.0
 11
461.4634
 21
1367.784
 31
0.0
  0
LINE
  5
48C
  8
5
  6
CONTINUOUS
 10
140.9634
 20
1387.584
 30
0.0
 11
140.9634
 21
1435.584
 31
0.0
  0
LINE
  5
48D
  8
5
  6
CONTINUOUS
 10
488.4634
 20
1410.584
 30
0.0
 11
175.9634
 21
1410.584
 31
0.0
  0
LINE
  5
48E
  8
5
  6
CONTINUOUS
 10
185.4634
 20
1387.784
 30
0.0
 11
185.4634
 21
1410.584
 31
0.0
  0
LINE
  5
48F
  8
5
  6
CONTINUOUS
 10
185.4634
 20
1387.784
 30
0.0
 11
205.4634
 21
1367.784
 31
0.0
  0
LINE
  5
490
  8
5
  6
CONTINUOUS
 10
185.6634
 20
1387.584
 30
0.0
 11
140.9634
 21
1387.584
 31
0.0
  0
LINE
  5
491
  8
5
  6
CONTINUOUS
 10
441.4634
 20
937.7844
 30
0.0
 11
438.9634
 21
940.2844
 31
0.0
  0
LINE
  5
492
  8
5
  6
CONTINUOUS
 10
225.4634
 20
937.7844
 30
0.0
 11
227.9634
 21
940.2844
 31
0.0
  0
LINE
  5
493
  8
5
  6
CONTINUOUS
 10
423.4635
 20
937.7844
 30
0.0
 11
423.4634
 21
940.2844
 31
0.0
  0
LINE
  5
494
  8
5
  6
CONTINUOUS
 10
408.4634
 20
940.2844
 30
0.0
 11
408.4633
 21
937.7844
 31
0.0
  0
LINE
  5
495
  8
5
  6
CONTINUOUS
 10
243.4635
 20
937.7844
 30
0.0
 11
243.4634
 21
940.2844
 31
0.0
  0
LINE
  5
496
  8
5
  6
CONTINUOUS
 10
258.4635
 20
937.7844
 30
0.0
 11
258.4634
 21
940.2844
 31
0.0
  0
LINE
  5
497
  8
5
  6
CONTINUOUS
 10
318.4634
 20
940.2844
 30
0.0
 11
318.4634
 21
937.7844
 31
0.0
  0
LINE
  5
498
  8
5
  6
CONTINUOUS
 10
333.4634
 20
937.7844
 30
0.0
 11
333.4634
 21
940.2844
 31
0.0
  0
LINE
  5
499
  8
5
  6
CONTINUOUS
 10
288.4634
 20
940.2844
 30
0.0
 11
288.4634
 21
937.7844
 31
0.0
  0
LINE
  5
49A
  8
5
  6
CONTINUOUS
 10
303.4634
 20
937.7844
 30
0.0
 11
303.4634
 21
940.2844
 31
0.0
  0
LINE
  5
49B
  8
5
  6
CONTINUOUS
 10
273.4634
 20
937.7844
 30
0.0
 11
273.4634
 21
940.2844
 31
0.0
  0
LINE
  5
49C
  8
5
  6
CONTINUOUS
 10
348.4634
 20
940.2844
 30
0.0
 11
348.4634
 21
937.7844
 31
0.0
  0
LINE
  5
49D
  8
5
  6
CONTINUOUS
 10
363.4634
 20
937.7844
 30
0.0
 11
363.4634
 21
940.2844
 31
0.0
  0
LINE
  5
49E
  8
5
  6
CONTINUOUS
 10
378.4634
 20
940.2844
 30
0.0
 11
378.4634
 21
937.7844
 31
0.0
  0
LINE
  5
49F
  8
5
  6
CONTINUOUS
 10
393.4633
 20
937.7844
 30
0.0
 11
393.4634
 21
940.2844
 31
0.0
  0
LINE
  5
4A0
  8
5
  6
CONTINUOUS
 10
107.4633
 20
1052.684
 30
0.0
 11
118.4634
 21
1052.684
 31
0.0
  0
LINE
  5
4A1
  8
5
  6
CONTINUOUS
 10
118.4634
 20
1055.684
 30
0.0
 11
107.4633
 21
1055.684
 31
0.0
  0
LINE
  5
4A2
  8
5
  6
CONTINUOUS
 10
205.0323
 20
1487.084
 30
0.0
 11
174.4634
 21
1455.584
 31
0.0
  0
LINE
  5
4A3
  8
5
  6
CONTINUOUS
 10
220.4634
 20
1506.584
 30
0.0
 11
220.4634
 21
1455.584
 31
0.0
  0
LINE
  5
4A4
  8
5
  6
CONTINUOUS
 10
443.4634
 20
1455.584
 30
0.0
 11
220.4634
 21
1455.584
 31
0.0
  0
LINE
  5
4A6
  8
5
  6
CONTINUOUS
 10
891.3883
 20
231.4449
 30
0.0
 11
891.3883
 21
197.9449
 31
0.0
  0
LINE
  5
4A7
  8
5
  6
CONTINUOUS
 10
891.3883
 20
197.9449
 30
0.0
 11
1207.996
 21
197.9449
 31
0.0
  0
LINE
  5
4A8
  8
5
  6
CONTINUOUS
 10
443.4634
 20
1455.584
 30
0.0
 11
443.4669
 21
1506.581
 31
0.0
  0
LINE
  5
4A9
  8
5
  6
CONTINUOUS
 10
320.2893
 20
1506.584
 30
0.0
 11
320.2892
 21
1510.784
 31
0.0
  0
LINE
  5
4AA
  8
5
  6
CONTINUOUS
 10
348.0846
 20
1506.584
 30
0.0
 11
348.0847
 21
1510.784
 31
0.0
  0
LINE
  5
4AB
  8
5
  6
CONTINUOUS
 10
336.1815
 20
1506.584
 30
0.0
 11
336.1815
 21
1510.784
 31
0.0
  0
LINE
  5
4AC
  8
5
  6
CONTINUOUS
 10
185.4634
 20
1387.784
 30
0.0
 11
481.4634
 21
1387.784
 31
0.0
  0
LINE
  5
4AD
  8
5
  6
CONTINUOUS
 10
1286.067
 20
952.7845
 30
0.0
 11
1286.067
 21
1001.857
 31
0.0
  0
LINE
  5
4AE
  8
5
  6
CONTINUOUS
 10
927.0669
 20
1001.857
 30
0.0
 11
927.0669
 21
952.7845
 31
0.0
  0
LINE
  5
4AF
  8
5
  6
CONTINUOUS
 10
1321.067
 20
937.7845
 30
0.0
 11
1323.373
 21
955.7845
 31
0.0
  0
LINE
  5
4B0
  8
5
  6
CONTINUOUS
 10
1323.373
 20
955.7845
 30
0.0
 11
1325.294
 21
970.7845
 31
0.0
  0
LINE
  5
4B1
  8
5
  6
CONTINUOUS
 10
1325.294
 20
970.7845
 30
0.0
 11
1325.771
 21
974.5057
 31
0.0
  0
LINE
  5
4B2
  8
5
  6
CONTINUOUS
 10
891.0669
 20
937.7845
 30
0.0
 11
888.7611
 21
955.7845
 31
0.0
  0
LINE
  5
4B3
  8
5
  6
CONTINUOUS
 10
888.7611
 20
955.7845
 30
0.0
 11
886.8395
 21
970.7845
 31
0.0
  0
LINE
  5
4B4
  8
5
  6
CONTINUOUS
 10
886.8395
 20
970.7845
 30
0.0
 11
886.3628
 21
974.5057
 31
0.0
  0
LINE
  5
4B5
  8
5
  6
CONTINUOUS
 10
891.0669
 20
937.7845
 30
0.0
 11
902.067
 21
937.7844
 31
0.0
  0
LINE
  5
4B6
  8
5
  6
CONTINUOUS
 10
1311.067
 20
937.7844
 30
0.0
 11
1321.067
 21
937.7845
 31
0.0
  0
LINE
  5
4B8
  8
5
  6
CONTINUOUS
 10
818.5669
 20
1316.769
 30
0.0
 11
818.5669
 21
988.800078
 31
0.0
  0
LINE
  5
4B9
  8
5
  6
CONTINUOUS
 10
808.5669
 20
1309.784
 30
0.0
 11
808.5669
 21
996.6539
 31
0.0
  0
LINE
  5
4BA
  8
5
  6
CONTINUOUS
 10
808.5669
 20
1056.784
 30
0.0
 11
804.5669
 21
1056.784
 31
0.0
  0
LINE
  5
4BB
  8
5
  6
CONTINUOUS
 10
804.5669
 20
1099.03
 30
0.0
 11
804.5669
 21
1056.784
 31
0.0
  0
CIRCLE
  5
4BC
  8
5
  6
CONTINUOUS
 10
813.0669
 20
1054.184
 30
0.0
 40
1.5
  0
LINE
  5
4BD
  8
5
  6
CONTINUOUS
 10
686.5669
 20
1184.284
 30
0.0
 11
694.5669
 21
1184.284
 31
0.0
  0
LINE
  5
4BE
  8
5
  6
CONTINUOUS
 10
694.5669
 20
1184.284
 30
0.0
 11
776.5669
 21
1184.284
 31
0.0
  0
LINE
  5
4BF
  8
5
  6
CONTINUOUS
 10
784.5669
 20
1184.284
 30
0.0
 11
776.5669
 21
1184.284
 31
0.0
  0
LINE
  5
4C0
  8
5
  6
CONTINUOUS
 10
681.5669
 20
1180.284
 30
0.0
 11
681.5669
 21
1125.284
 31
0.0
  0
LINE
  5
4C1
  8
5
  6
CONTINUOUS
 10
791.5669
 20
1152.784
 30
0.0
 11
791.5669
 21
1122.784
 31
0.0
  0
LINE
  5
4C2
  8
5
  6
CONTINUOUS
 10
791.5669
 20
1182.784
 30
0.0
 11
791.5669
 21
1152.784
 31
0.0
  0
LINE
  5
4C3
  8
5
  6
CONTINUOUS
 10
800.5669
 20
1206.784
 30
0.0
 11
800.5669
 21
1098.784
 31
0.0
  0
LINE
  5
4C4
  8
5
  6
CONTINUOUS
 10
1182.067
 20
927.7845
 30
0.0
 11
1182.067
 21
935.7845
 31
0.0
  0
LINE
  5
4C5
  8
5
  6
CONTINUOUS
 10
1182.067
 20
935.7845
 30
0.0
 11
1031.067
 21
935.7845
 31
0.0
  0
LINE
  5
4C6
  8
5
  6
CONTINUOUS
 10
1031.067
 20
935.7845
 30
0.0
 11
1031.067
 21
927.7845
 31
0.0
  0
LINE
  5
4C7
  8
5
  6
CONTINUOUS
 10
1311.067
 20
952.7845
 30
0.0
 11
1311.067
 21
927.7845
 31
0.0
  0
LINE
  5
4C8
  8
5
  6
CONTINUOUS
 10
902.0669
 20
927.7845
 30
0.0
 11
902.0669
 21
952.7845
 31
0.0
  0
LINE
  5
4C9
  8
5
  6
CONTINUOUS
 10
1311.067
 20
952.7845
 30
0.0
 11
902.0669
 21
952.7845
 31
0.0
  0
LINE
  5
4CA
  8
5
  6
CONTINUOUS
 10
1311.067
 20
927.7845
 30
0.0
 11
1182.067
 21
927.7845
 31
0.0
  0
LINE
  5
4CB
  8
5
  6
CONTINUOUS
 10
1031.067
 20
927.7845
 30
0.0
 11
902.0669
 21
927.7845
 31
0.0
  0
LINE
  5
4CC
  8
5
  6
CONTINUOUS
 10
1189.067
 20
1019.884
 30
0.0
 11
1189.067
 21
952.7845
 31
0.0
  0
LINE
  5
4CD
  8
5
  6
CONTINUOUS
 10
1024.067
 20
952.7845
 30
0.0
 11
1024.067
 21
1019.884
 31
0.0
  0
LINE
  5
4CE
  8
5
  6
CONTINUOUS
 10
1324.513
 20
1344.784
 30
0.0
 11
1324.513
 21
1344.784
 31
0.0
  0
LINE
  5
4CF
  8
5
  6
CONTINUOUS
 10
852.5669
 20
1432.584
 30
0.0
 11
898.0669
 21
1432.584
 31
0.0
  0
LINE
  5
4D0
  8
5
  6
CONTINUOUS
 10
1126.067
 20
1432.584
 30
0.0
 11
1171.567
 21
1432.584
 31
0.0
  0
LINE
  5
4D1
  8
5
  6
CONTINUOUS
 10
1125.567
 20
1435.584
 30
0.0
 11
1125.567
 21
1487.084
 31
0.0
  0
LINE
  5
4D2
  8
5
  6
CONTINUOUS
 10
898.5669
 20
1487.084
 30
0.0
 11
898.5669
 21
1435.584
 31
0.0
  0
LINE
  5
4D3
  8
5
  6
CONTINUOUS
 10
857.0669
 20
1410.584
 30
0.0
 11
857.0669
 21
1432.584
 31
0.0
  0
LINE
  5
4D4
  8
5
  6
CONTINUOUS
 10
1167.067
 20
1410.584
 30
0.0
 11
1167.067
 21
1432.584
 31
0.0
  0
LINE
  5
4D5
  8
5
  6
CONTINUOUS
 10
1126.067
 20
1387.584
 30
0.0
 11
1126.067
 21
1435.584
 31
0.0
  0
LINE
  5
4D6
  8
5
  6
CONTINUOUS
 10
898.0669
 20
1435.584
 30
0.0
 11
898.0669
 21
1387.584
 31
0.0
  0
LINE
  5
4D8
  8
5
  6
CONTINUOUS
 10
898.5669
 20
1487.084
 30
0.0
 11
1125.567
 21
1487.084
 31
0.0
  0
LINE
  5
4D9
  8
5
  6
CONTINUOUS
 10
898.5669
 20
1455.584
 30
0.0
 11
852.5669
 21
1455.584
 31
0.0
  0
LINE
  5
4DA
  8
5
  6
CONTINUOUS
 10
1171.567
 20
1455.584
 30
0.0
 11
1125.567
 21
1455.584
 31
0.0
  0
LINE
  5
4DB
  8
5
  6
CONTINUOUS
 10
852.5669
 20
1455.584
 30
0.0
 11
902.0669
 21
1506.584
 31
0.0
  0
LINE
  5
4DC
  8
5
  6
CONTINUOUS
 10
1122.067
 20
1506.584
 30
0.0
 11
1171.567
 21
1455.584
 31
0.0
  0
LINE
  5
4DD
  8
5
  6
CONTINUOUS
 10
852.5669
 20
1455.584
 30
0.0
 11
852.5669
 21
1432.584
 31
0.0
  0
LINE
  5
4DE
  8
5
  6
CONTINUOUS
 10
1171.567
 20
1432.584
 30
0.0
 11
1171.567
 21
1455.584
 31
0.0
  0
LINE
  5
4DF
  8
5
  6
CONTINUOUS
 10
1053.828
 20
1510.784
 30
0.0
 11
1067.607
 21
1510.784
 31
0.0
  0
LINE
  5
4E0
  8
5
  6
CONTINUOUS
 10
1069.707
 20
1510.784
 30
0.0
 11
1074.509
 21
1510.784
 31
0.0
  0
LINE
  5
4E1
  8
5
  6
CONTINUOUS
 10
1074.509
 20
1510.784
 30
0.0
 11
1089.337
 21
1510.784
 31
0.0
  0
LINE
  5
4E2
  8
5
  6
CONTINUOUS
 10
1024.06
 20
1510.784
 30
0.0
 11
1028.863
 21
1510.784
 31
0.0
  0
LINE
  5
4E3
  8
5
  6
CONTINUOUS
 10
1028.863
 20
1510.784
 30
0.0
 11
1043.691
 21
1510.784
 31
0.0
  0
LINE
  5
4E4
  8
5
  6
CONTINUOUS
 10
1008.183
 20
1510.784
 30
0.0
 11
1021.961
 21
1510.784
 31
0.0
  0
LINE
  5
4E5
  8
5
  6
CONTINUOUS
 10
973.1607
 20
1510.784
 30
0.0
 11
973.1607
 21
1510.784
 31
0.0
  0
LINE
  5
4E6
  8
5
  6
CONTINUOUS
 10
973.1607
 20
1510.784
 30
0.0
 11
984.5547
 21
1510.784
 31
0.0
  0
LINE
  5
4E7
  8
5
  6
CONTINUOUS
 10
984.5547
 20
1510.784
 30
0.0
 11
988.3948
 21
1510.784
 31
0.0
  0
LINE
  5
4E8
  8
5
  6
CONTINUOUS
 10
988.3948
 20
1510.784
 30
0.0
 11
997.8952
 21
1510.784
 31
0.0
  0
LINE
  5
4E9
  8
5
  6
CONTINUOUS
 10
947.0641
 20
1510.784
 30
0.0
 11
955.927
 21
1510.784
 31
0.0
  0
LINE
  5
4EA
  8
5
  6
CONTINUOUS
 10
955.927
 20
1510.784
 30
0.0
 11
959.6172
 21
1510.784
 31
0.0
  0
LINE
  5
4EB
  8
5
  6
CONTINUOUS
 10
959.6172
 20
1510.784
 30
0.0
 11
971.0612
 21
1510.784
 31
0.0
  0
LINE
  5
4EC
  8
5
  6
CONTINUOUS
 10
1067.607
 20
1506.585
 30
0.0
 11
1067.607
 21
1510.784
 31
0.0
  0
LINE
  5
4ED
  8
5
  6
CONTINUOUS
 10
1053.828
 20
1506.584
 30
0.0
 11
1053.828
 21
1510.784
 31
0.0
  0
LINE
  5
4EE
  8
5
  6
CONTINUOUS
 10
1069.707
 20
1506.585
 30
0.0
 11
1069.707
 21
1510.784
 31
0.0
  0
LINE
  5
4EF
  8
5
  6
CONTINUOUS
 10
1024.061
 20
1506.585
 30
0.0
 11
1024.06
 21
1510.784
 31
0.0
  0
LINE
  5
4F0
  8
5
  6
CONTINUOUS
 10
1021.961
 20
1506.585
 30
0.0
 11
1021.961
 21
1510.784
 31
0.0
  0
LINE
  5
4F1
  8
5
  6
CONTINUOUS
 10
1008.183
 20
1506.584
 30
0.0
 11
1008.183
 21
1510.784
 31
0.0
  0
LINE
  5
4F2
  8
5
  6
CONTINUOUS
 10
973.1613
 20
1506.585
 30
0.0
 11
973.1607
 21
1510.784
 31
0.0
  0
LINE
  5
4F3
  8
5
  6
CONTINUOUS
 10
971.0612
 20
1510.784
 30
0.0
 11
971.0612
 21
1506.585
 31
0.0
  0
LINE
  5
4F4
  8
5
  6
CONTINUOUS
 10
902.0669
 20
1506.584
 30
0.0
 11
1122.067
 21
1506.584
 31
0.0
  0
LINE
  5
4F5
  8
5
  6
CONTINUOUS
 10
864.0669
 20
1387.784
 30
0.0
 11
864.0669
 21
1410.584
 31
0.0
  0
LINE
  5
4F6
  8
5
  6
CONTINUOUS
 10
1160.067
 20
1387.784
 30
0.0
 11
1160.067
 21
1410.584
 31
0.0
  0
LINE
  5
4F7
  8
5
  6
CONTINUOUS
 10
1160.067
 20
1387.784
 30
0.0
 11
1136.067
 21
1363.784
 31
0.0
  0
LINE
  5
4F8
  8
5
  6
CONTINUOUS
 10
864.0669
 20
1387.784
 30
0.0
 11
888.0669
 21
1363.784
 31
0.0
  0
LINE
  5
4F9
  8
5
  6
CONTINUOUS
 10
898.0669
 20
1410.584
 30
0.0
 11
857.0669
 21
1410.584
 31
0.0
  0
LINE
  5
4FA
  8
5
  6
CONTINUOUS
 10
1167.067
 20
1410.584
 30
0.0
 11
1126.067
 21
1410.584
 31
0.0
  0
LINE
  5
4FB
  8
5
  6
CONTINUOUS
 10
898.0669
 20
1387.584
 30
0.0
 11
1126.067
 21
1387.584
 31
0.0
  0
LINE
  5
4FC
  8
5
  6
CONTINUOUS
 10
1136.067
 20
1363.784
 30
0.0
 11
888.0669
 21
1363.784
 31
0.0
  0
LINE
  5
4FE
  8
5
  6
CONTINUOUS
 10
1321.067
 20
937.7844
 30
0.0
 11
1321.067
 21
994.0394
 31
0.0
  0
LINE
  5
502
  8
5
  6
CONTINUOUS
 10
891.0669
 20
994.0394
 30
0.0
 11
891.0669
 21
937.7844
 31
0.0
  0
LINE
  5
503
  8
5
  6
CONTINUOUS
 10
881.067
 20
1344.784
 30
0.0
 11
870.5669
 21
1344.418
 31
0.0
  0
LINE
  5
504
  8
5
  6
CONTINUOUS
 10
870.5669
 20
1344.418
 30
0.0
 11
870.5669
 21
961.1511
 31
0.0
  0
LINE
  5
505
  8
5
  6
CONTINUOUS
 10
870.5669
 20
961.1511
 30
0.0
 11
881.067
 21
960.7844
 31
0.0
  0
LINE
  5
506
  8
5
  6
CONTINUOUS
 10
881.067
 20
1152.785
 30
0.0
 11
881.067
 21
960.7844
 31
0.0
  0
LINE
  5
507
  8
5
  6
CONTINUOUS
 10
881.067
 20
1344.784
 30
0.0
 11
881.067
 21
1152.785
 31
0.0
  0
LINE
  5
508
  8
5
  6
CONTINUOUS
 10
891.0669
 20
994.0394
 30
0.0
 11
927.0669
 21
994.0394
 31
0.0
  0
LINE
  5
509
  8
5
  6
CONTINUOUS
 10
1286.067
 20
994.0394
 30
0.0
 11
1321.067
 21
994.0394
 31
0.0
  0
LINE
  5
50A
  8
5
  6
CONTINUOUS
 10
927.0669
 20
1001.857
 30
0.0
 11
1024.067
 21
1001.857
 31
0.0
  0
LINE
  5
50B
  8
5
  6
CONTINUOUS
 10
1189.067
 20
1001.857
 30
0.0
 11
1286.067
 21
1001.857
 31
0.0
  0
LINE
  5
50C
  8
5
  6
CONTINUOUS
 10
808.5669
 20
996.6539
 30
0.0
 11
818.567
 21
996.6539
 31
0.0
  0
LINE
  5
50D
  8
5
  6
CONTINUOUS
 10
870.5669
 20
1344.418
 30
0.0
 11
818.5669
 21
1316.769
 31
0.0
  0
LINE
  5
50E
  8
5
  6
CONTINUOUS
 10
818.5669
 20
988.800078
 30
0.0
 11
870.5669
 21
961.1511
 31
0.0
  0
LINE
  5
50F
  8
5
  6
CONTINUOUS
 10
818.567
 20
1309.785
 30
0.0
 11
808.5669
 21
1309.784
 31
0.0
  0
LINE
  5
510
  8
5
  6
CONTINUOUS
 10
800.567
 20
1098.785
 30
0.0
 11
804.5669
 21
1093.072
 31
0.0
  0
LINE
  5
511
  8
5
  6
CONTINUOUS
 10
808.5669
 20
1218.21
 30
0.0
 11
800.5669
 21
1206.784
 31
0.0
  0
LINE
  5
512
  8
5
  6
CONTINUOUS
 10
784.5669
 20
1180.285
 30
0.0
 11
784.5669
 21
1184.284
 31
0.0
  0
LINE
  5
513
  8
5
  6
CONTINUOUS
 10
776.567
 20
1184.284
 30
0.0
 11
776.567
 21
1179.095
 31
0.0
  0
LINE
  5
514
  8
5
  6
CONTINUOUS
 10
776.567
 20
1179.095
 30
0.0
 11
694.5669
 21
1179.095
 31
0.0
  0
LINE
  5
515
  8
5
  6
CONTINUOUS
 10
694.5669
 20
1184.284
 30
0.0
 11
694.5669
 21
1179.095
 31
0.0
  0
LINE
  5
516
  8
5
  6
CONTINUOUS
 10
686.5669
 20
1184.284
 30
0.0
 11
686.5669
 21
1180.285
 31
0.0
  0
LINE
  5
517
  8
5
  6
CONTINUOUS
 10
686.5673
 20
1180.284
 30
0.0
 11
681.567
 21
1180.284
 31
0.0
  0
LINE
  5
518
  8
5
  6
CONTINUOUS
 10
791.567
 20
1180.284
 30
0.0
 11
784.5669
 21
1180.284
 31
0.0
  0
LINE
  5
519
  8
5
  6
CONTINUOUS
 10
681.567
 20
1125.284
 30
0.0
 11
791.567
 21
1125.284
 31
0.0
  0
LINE
  5
51A
  8
5
  6
CONTINUOUS
 10
800.567
 20
1182.784
 30
0.0
 11
791.5669
 21
1182.784
 31
0.0
  0
LINE
  5
51B
  8
5
  6
CONTINUOUS
 10
791.567
 20
1122.785
 30
0.0
 11
800.567
 21
1122.785
 31
0.0
  0
LINE
  5
51C
  8
5
  6
CONTINUOUS
 10
881.067
 20
960.7844
 30
0.0
 11
888.1189
 21
960.7844
 31
0.0
  0
LINE
  5
51D
  8
5
  6
CONTINUOUS
 10
1324.015
 20
960.7844
 30
0.0
 11
1333.067
 21
960.7844
 31
0.0
  0
LINE
  5
51E
  8
5
  6
CONTINUOUS
 10
891.2638
 20
1344.784
 30
0.0
 11
881.067
 21
1344.784
 31
0.0
  0
LINE
  5
51F
  8
5
  6
CONTINUOUS
 10
1172.606
 20
1344.784
 30
0.0
 11
1132.872
 21
1344.784
 31
0.0
  0
LINE
  5
520
  8
5
  6
CONTINUOUS
 10
1333.067
 20
1344.784
 30
0.0
 11
1324.513
 21
1344.784
 31
0.0
  0
LINE
  5
521
  8
5
  6
CONTINUOUS
 10
1122.067
 20
1487.084
 30
0.0
 11
1122.067
 21
1506.584
 31
0.0
  0
LINE
  5
522
  8
5
  6
CONTINUOUS
 10
902.0669
 20
1506.584
 30
0.0
 11
902.067
 21
1487.084
 31
0.0
  0
LINE
  5
523
  8
5
  6
CONTINUOUS
 10
1089.337
 20
1506.585
 30
0.0
 11
1089.337
 21
1510.784
 31
0.0
  0
LINE
  5
524
  8
5
  6
CONTINUOUS
 10
1074.509
 20
1506.585
 30
0.0
 11
1074.509
 21
1510.784
 31
0.0
  0
LINE
  5
525
  8
5
  6
CONTINUOUS
 10
1043.691
 20
1506.585
 30
0.0
 11
1043.691
 21
1510.784
 31
0.0
  0
LINE
  5
526
  8
5
  6
CONTINUOUS
 10
1028.863
 20
1506.585
 30
0.0
 11
1028.863
 21
1510.784
 31
0.0
  0
LINE
  5
527
  8
5
  6
CONTINUOUS
 10
997.8951
 20
1506.585
 30
0.0
 11
997.8952
 21
1510.784
 31
0.0
  0
LINE
  5
528
  8
5
  6
CONTINUOUS
 10
988.3949
 20
1506.585
 30
0.0
 11
988.3948
 21
1510.784
 31
0.0
  0
LINE
  5
529
  8
5
  6
CONTINUOUS
 10
984.5547
 20
1506.585
 30
0.0
 11
984.5547
 21
1510.784
 31
0.0
  0
LINE
  5
52A
  8
5
  6
CONTINUOUS
 10
959.6172
 20
1506.585
 30
0.0
 11
959.6172
 21
1510.784
 31
0.0
  0
LINE
  5
52B
  8
5
  6
CONTINUOUS
 10
955.9271
 20
1506.585
 30
0.0
 11
955.927
 21
1510.784
 31
0.0
  0
LINE
  5
52C
  8
5
  6
CONTINUOUS
 10
947.0642
 20
1506.585
 30
0.0
 11
947.0641
 21
1510.784
 31
0.0
  0
LINE
  5
52D
  8
5
  6
CONTINUOUS
 10
1126.067
 20
1387.784
 30
0.0
 11
1160.067
 21
1387.784
 31
0.0
  0
LINE
  5
52E
  8
5
  6
CONTINUOUS
 10
864.0669
 20
1387.784
 30
0.0
 11
898.067
 21
1387.784
 31
0.0
  0
LINE
  5
52F
  8
5
  6
CONTINUOUS
 10
818.3883
 20
557.9293
 30
0.0
 11
818.3883
 21
393.9449
 31
0.0
  0
LINE
  5
530
  8
5
  6
CONTINUOUS
 10
818.3883
 20
393.9449
 30
0.0
 11
818.3883
 21
229.9605
 31
0.0
  0
LINE
  5
531
  8
5
  6
CONTINUOUS
 10
808.3883
 20
550.9449
 30
0.0
 11
808.3883
 21
393.9449
 31
0.0
  0
LINE
  5
532
  8
5
  6
CONTINUOUS
 10
808.3883
 20
393.9449
 30
0.0
 11
808.3882
 21
236.9449
 31
0.0
  0
LINE
  5
533
  8
5
  6
CONTINUOUS
 10
812.8883
 20
167.9449
 30
0.0
 11
814.3883
 21
167.9449
 31
0.0
  0
LINE
  5
534
  8
5
  6
CONTINUOUS
 10
811.3883
 20
167.9449
 30
0.0
 11
812.8883
 21
167.9449
 31
0.0
  0
ARC
  5
535
  8
5
  6
CONTINUOUS
 10
776.3883
 20
393.9449
 30
0.0
 40
8.0
 50
270.0
 51
90.0
  0
LINE
  5
536
  8
5
  6
CONTINUOUS
 10
694.3883
 20
385.9449
 30
0.0
 11
776.3883
 21
385.9449
 31
0.0
  0
ARC
  5
537
  8
5
  6
CONTINUOUS
 10
694.3883
 20
393.9449
 30
0.0
 40
8.0
 50
90.0
 51
270.0
  0
LINE
  5
538
  8
5
  6
CONTINUOUS
 10
776.3883
 20
401.9449
 30
0.0
 11
694.3883
 21
401.9449
 31
0.0
  0
LINE
  5
539
  8
5
  6
CONTINUOUS
 10
681.3883
 20
421.4449
 30
0.0
 11
681.3883
 21
366.4449
 31
0.0
  0
LINE
  5
53A
  8
5
  6
CONTINUOUS
 10
791.3883
 20
423.9449
 30
0.0
 11
791.3883
 21
363.9449
 31
0.0
  0
LINE
  5
53B
  8
5
  6
CONTINUOUS
 10
800.3883
 20
393.9449
 30
0.0
 11
800.3883
 21
339.9449
 31
0.0
  0
LINE
  5
53C
  8
5
  6
CONTINUOUS
 10
800.3883
 20
447.9449
 30
0.0
 11
800.3883
 21
393.9449
 31
0.0
  0
LINE
  5
53D
  8
5
  6
CONTINUOUS
 10
1310.888
 20
178.9449
 30
0.0
 11
1310.888
 21
177.9449
 31
0.0
  0
LINE
  5
53E
  8
5
  6
CONTINUOUS
 10
901.8883
 20
177.9449
 30
0.0
 11
901.8883
 21
178.9449
 31
0.0
  0
LINE
  5
53F
  8
5
  6
CONTINUOUS
 10
1310.888
 20
177.9449
 30
0.0
 11
901.8883
 21
177.9449
 31
0.0
  0
LINE
  5
540
  8
5
  6
CONTINUOUS
 10
1310.888
 20
608.9449
 30
0.0
 11
1310.888
 21
610.9449
 31
0.0
  0
LINE
  5
541
  8
5
  6
CONTINUOUS
 10
901.8883
 20
610.9449
 30
0.0
 11
901.8883
 21
608.9449
 31
0.0
  0
LINE
  5
542
  8
5
  6
CONTINUOUS
 10
1310.888
 20
610.9449
 30
0.0
 11
901.8883
 21
610.9449
 31
0.0
  0
LINE
  5
543
  8
5
  6
CONTINUOUS
 10
1188.888
 20
610.4449
 30
0.0
 11
1188.888
 21
608.9449
 31
0.0
  0
LINE
  5
544
  8
5
  6
CONTINUOUS
 10
1188.888
 20
178.9449
 30
0.0
 11
1188.888
 21
178.4449
 31
0.0
  0
LINE
  5
545
  8
5
  6
CONTINUOUS
 10
1023.888
 20
608.9449
 30
0.0
 11
1023.888
 21
610.4449
 31
0.0
  0
LINE
  5
546
  8
5
  6
CONTINUOUS
 10
1023.888
 20
178.4449
 30
0.0
 11
1023.888
 21
178.9449
 31
0.0
  0
LINE
  5
547
  8
5
  6
CONTINUOUS
 10
1125.388
 20
202.4449
 30
0.0
 11
1125.388
 21
265.5138
 31
0.0
  0
LINE
  5
548
  8
5
  6
CONTINUOUS
 10
898.3883
 20
265.5138
 30
0.0
 11
898.3883
 21
202.4449
 31
0.0
  0
LINE
  5
549
  8
5
  6
CONTINUOUS
 10
898.3883
 20
231.4449
 30
0.0
 11
852.3883
 21
231.4449
 31
0.0
  0
LINE
  5
54A
  8
5
  6
CONTINUOUS
 10
1171.388
 20
231.4449
 30
0.0
 11
1125.388
 21
231.4449
 31
0.0
  0
LINE
  5
54B
  8
5
  6
CONTINUOUS
 10
898.3883
 20
202.4449
 30
0.0
 11
1125.388
 21
202.4449
 31
0.0
  0
LINE
  5
54C
  8
5
  6
CONTINUOUS
 10
1125.888
 20
201.4449
 30
0.0
 11
1125.888
 21
231.4449
 31
0.0
  0
LINE
  5
54D
  8
5
  6
CONTINUOUS
 10
897.8883
 20
231.4449
 30
0.0
 11
897.8883
 21
201.4449
 31
0.0
  0
LINE
  5
54E
  8
5
  6
CONTINUOUS
 10
852.3883
 20
503.9449
 30
0.0
 11
852.3883
 21
553.4449
 31
0.0
  0
LINE
  5
54F
  8
5
  6
CONTINUOUS
 10
852.3883
 20
231.4449
 30
0.0
 11
852.3883
 21
280.9449
 31
0.0
  0
LINE
  5
550
  8
5
  6
CONTINUOUS
 10
852.3883
 20
280.9449
 30
0.0
 11
852.3883
 21
503.9449
 31
0.0
  0
LINE
  5
551
  8
5
  6
CONTINUOUS
 10
852.3883
 20
553.4449
 30
0.0
 11
901.8883
 21
553.4449
 31
0.0
  0
LINE
  5
552
  8
5
  6
CONTINUOUS
 10
901.8883
 20
553.4449
 30
0.0
 11
1121.888
 21
553.4449
 31
0.0
  0
LINE
  5
553
  8
5
  6
CONTINUOUS
 10
1121.888
 20
553.4449
 30
0.0
 11
1171.388
 21
553.4449
 31
0.0
  0
LINE
  5
554
  8
5
  6
CONTINUOUS
 10
1171.388
 20
280.9449
 30
0.0
 11
1171.388
 21
231.4449
 31
0.0
  0
LINE
  5
555
  8
5
  6
CONTINUOUS
 10
1171.388
 20
553.4449
 30
0.0
 11
1171.388
 21
503.9449
 31
0.0
  0
LINE
  5
556
  8
5
  6
CONTINUOUS
 10
1171.388
 20
503.9449
 30
0.0
 11
1171.388
 21
280.9449
 31
0.0
  0
LINE
  5
557
  8
5
  6
CONTINUOUS
 10
1066.960256
 20
367.014471
 30
0.0
 11
1066.959256
 21
393.080771
 31
0.0
  0
LINE
  5
558
  8
5
  6
CONTINUOUS
 10
1053.182256
 20
367.014071
 30
0.0
 11
1066.960256
 21
367.014471
 31
0.0
  0
LINE
  5
559
  8
5
  6
CONTINUOUS
 10
1053.181256
 20
393.080371
 30
0.0
 11
1053.182256
 21
367.014071
 31
0.0
  0
LINE
  5
55A
  8
5
  6
CONTINUOUS
 10
1053.181256
 20
393.080371
 30
0.0
 11
1066.959256
 21
393.080771
 31
0.0
  0
LINE
  5
55B
  8
5
  6
CONTINUOUS
 10
1083.636256
 20
393.081371
 30
0.0
 11
1069.059256
 21
393.080771
 31
0.0
  0
ARC
  5
55C
  8
5
  6
CONTINUOUS
 10
1071.876256
 20
381.037271
 30
0.0
 40
16.83332
 50
2.745839
 51
45.68337
  0
ARC
  5
55D
  8
5
  6
CONTINUOUS
 10
1073.862256
 20
381.843171
 30
0.0
 40
14.82849
 50
270.0019
 51
0.0019
  0
LINE
  5
55E
  8
5
  6
CONTINUOUS
 10
1069.060256
 20
367.014471
 30
0.0
 11
1073.862256
 21
367.014671
 31
0.0
  0
LINE
  5
55F
  8
5
  6
CONTINUOUS
 10
1069.059256
 20
393.080771
 30
0.0
 11
1069.060256
 21
367.014471
 31
0.0
  0
LINE
  5
560
  8
5
  6
CONTINUOUS
 10
1069.059256
 20
420.078071
 30
0.0
 11
1069.059256
 21
395.180771
 31
0.0
  0
LINE
  5
561
  8
5
  6
CONTINUOUS
 10
1073.860256
 20
420.078271
 30
0.0
 11
1069.059256
 21
420.078071
 31
0.0
  0
ARC
  5
562
  8
5
  6
CONTINUOUS
 10
1073.861256
 20
409.638771
 30
0.0
 40
10.43949
 50
0.001947
 51
90.00195
  0
ARC
  5
563
  8
5
  6
CONTINUOUS
 10
1070.830256
 20
410.887071
 30
0.0
 40
13.5281
 50
283.5581
 51
354.7072
  0
ARC
  5
564
  8
5
  6
CONTINUOUS
 10
1071.876256
 20
381.037271
 30
0.0
 40
16.83332
 50
57.16491
 51
82.74766
  0
LINE
  5
565
  8
5
  6
CONTINUOUS
 10
1069.059256
 20
395.180771
 30
0.0
 11
1081.004256
 21
395.181271
 31
0.0
  0
LINE
  5
566
  8
5
  6
CONTINUOUS
 10
1053.180256
 20
420.077671
 30
0.0
 11
1053.181256
 21
395.180371
 31
0.0
  0
LINE
  5
567
  8
5
  6
CONTINUOUS
 10
1066.958256
 20
420.078071
 30
0.0
 11
1053.180256
 21
420.077671
 31
0.0
  0
LINE
  5
568
  8
5
  6
CONTINUOUS
 10
1066.959256
 20
395.180771
 30
0.0
 11
1066.958256
 21
420.078071
 31
0.0
  0
LINE
  5
569
  8
5
  6
CONTINUOUS
 10
1053.181256
 20
395.180371
 30
0.0
 11
1066.959256
 21
395.180771
 31
0.0
  0
LINE
  5
56A
  8
5
  6
CONTINUOUS
 10
1023.413256
 20
420.076571
 30
0.0
 11
1023.414256
 21
395.179271
 31
0.0
  0
LINE
  5
56B
  8
5
  6
CONTINUOUS
 10
1028.215256
 20
420.076571
 30
0.0
 11
1023.413256
 21
420.076571
 31
0.0
  0
ARC
  5
56C
  8
5
  6
CONTINUOUS
 10
1028.215256
 20
409.637271
 30
0.0
 40
10.43949
 50
0.001947
 51
90.00217
  0
ARC
  5
56D
  8
5
  6
CONTINUOUS
 10
1025.184256
 20
410.885471
 30
0.0
 40
13.5281
 50
283.5581
 51
354.7072
  0
ARC
  5
56E
  8
5
  6
CONTINUOUS
 10
1026.231256
 20
381.035771
 30
0.0
 40
16.83332
 50
57.16493
 51
82.74766
  0
LINE
  5
56F
  8
5
  6
CONTINUOUS
 10
1023.414256
 20
395.179271
 30
0.0
 11
1035.358256
 21
395.179671
 31
0.0
  0
ARC
  5
570
  8
5
  6
CONTINUOUS
 10
1026.231256
 20
381.035771
 30
0.0
 40
16.83332
 50
2.745839
 51
45.68318
  0
ARC
  5
571
  8
5
  6
CONTINUOUS
 10
1028.216256
 20
381.841671
 30
0.0
 40
14.82849
 50
270.0019
 51
0.0019
  0
LINE
  5
572
  8
5
  6
CONTINUOUS
 10
1023.415256
 20
367.012971
 30
0.0
 11
1028.217256
 21
367.013171
 31
0.0
  0
LINE
  5
573
  8
5
  6
CONTINUOUS
 10
1023.414256
 20
393.079271
 30
0.0
 11
1023.415256
 21
367.012971
 31
0.0
  0
LINE
  5
574
  8
5
  6
CONTINUOUS
 10
1037.991256
 20
393.079771
 30
0.0
 11
1023.414256
 21
393.079271
 31
0.0
  0
LINE
  5
575
  8
5
  6
CONTINUOUS
 10
1021.315256
 20
367.012971
 30
0.0
 11
1021.314256
 21
393.079271
 31
0.0
  0
LINE
  5
576
  8
5
  6
CONTINUOUS
 10
1007.536256
 20
367.012371
 30
0.0
 11
1021.315256
 21
367.012971
 31
0.0
  0
LINE
  5
577
  8
5
  6
CONTINUOUS
 10
1007.535256
 20
393.078771
 30
0.0
 11
1007.536256
 21
367.012371
 31
0.0
  0
LINE
  5
578
  8
5
  6
CONTINUOUS
 10
1021.314256
 20
393.079271
 30
0.0
 11
1007.535256
 21
393.078771
 31
0.0
  0
LINE
  5
579
  8
5
  6
CONTINUOUS
 10
1021.314256
 20
395.179271
 30
0.0
 11
1021.313256
 21
420.076371
 31
0.0
  0
LINE
  5
57A
  8
5
  6
CONTINUOUS
 10
1007.535256
 20
395.178671
 30
0.0
 11
1021.314256
 21
395.179271
 31
0.0
  0
LINE
  5
57B
  8
5
  6
CONTINUOUS
 10
1007.534256
 20
420.075971
 30
0.0
 11
1007.535256
 21
395.178771
 31
0.0
  0
LINE
  5
57C
  8
5
  6
CONTINUOUS
 10
1021.313256
 20
420.076371
 30
0.0
 11
1007.534256
 21
420.075971
 31
0.0
  0
LINE
  5
57D
  8
5
  6
CONTINUOUS
 10
997.248756
 20
367.012171
 30
0.0
 11
987.943656
 21
393.078071
 31
0.0
  0
LINE
  5
57E
  8
5
  6
CONTINUOUS
 10
987.748356
 20
367.011771
 30
0.0
 11
997.248756
 21
367.012171
 31
0.0
  0
LINE
  5
57F
  8
5
  6
CONTINUOUS
 10
983.908256
 20
377.768971
 30
0.0
 11
987.748356
 21
367.011771
 31
0.0
  0
LINE
  5
580
  8
5
  6
CONTINUOUS
 10
972.514756
 20
377.768571
 30
0.0
 11
983.908256
 21
377.768971
 31
0.0
  0
LINE
  5
581
  8
5
  6
CONTINUOUS
 10
972.514356
 20
393.077571
 30
0.0
 11
972.514756
 21
377.768571
 31
0.0
  0
LINE
  5
582
  8
5
  6
CONTINUOUS
 10
987.943656
 20
393.078071
 30
0.0
 11
972.514356
 21
393.077571
 31
0.0
  0
LINE
  5
583
  8
5
  6
CONTINUOUS
 10
972.513456
 20
420.074971
 30
0.0
 11
972.514356
 21
395.177571
 31
0.0
  0
LINE
  5
584
  8
5
  6
CONTINUOUS
 10
978.306256
 20
420.075071
 30
0.0
 11
972.513456
 21
420.074971
 31
0.0
  0
LINE
  5
585
  8
5
  6
CONTINUOUS
 10
987.194056
 20
395.178071
 30
0.0
 11
978.306256
 21
420.075071
 31
0.0
  0
LINE
  5
586
  8
5
  6
CONTINUOUS
 10
972.514356
 20
395.177571
 30
0.0
 11
987.194056
 21
395.178071
 31
0.0
  0
LINE
  5
587
  8
5
  6
CONTINUOUS
 10
958.970756
 20
377.768071
 30
0.0
 11
970.414756
 21
377.768571
 31
0.0
  0
LINE
  5
588
  8
5
  6
CONTINUOUS
 10
955.280556
 20
367.010671
 30
0.0
 11
958.970756
 21
377.768071
 31
0.0
  0
LINE
  5
589
  8
5
  6
CONTINUOUS
 10
946.417656
 20
367.010371
 30
0.0
 11
955.280556
 21
367.010671
 31
0.0
  0
LINE
  5
58A
  8
5
  6
CONTINUOUS
 10
955.359456
 20
393.076971
 30
0.0
 11
946.417656
 21
367.010371
 31
0.0
  0
LINE
  5
58B
  8
5
  6
CONTINUOUS
 10
970.414356
 20
393.077371
 30
0.0
 11
955.359456
 21
393.076971
 31
0.0
  0
LINE
  5
58C
  8
5
  6
CONTINUOUS
 10
970.414756
 20
377.768571
 30
0.0
 11
970.414356
 21
393.077371
 31
0.0
  0
LINE
  5
58D
  8
5
  6
CONTINUOUS
 10
970.413356
 20
420.074771
 30
0.0
 11
964.620556
 21
420.074571
 31
0.0
  0
LINE
  5
58E
  8
5
  6
CONTINUOUS
 10
970.414356
 20
395.177371
 30
0.0
 11
970.413356
 21
420.074771
 31
0.0
  0
LINE
  5
58F
  8
5
  6
CONTINUOUS
 10
956.079856
 20
395.176971
 30
0.0
 11
970.414356
 21
395.177371
 31
0.0
  0
LINE
  5
590
  8
5
  6
CONTINUOUS
 10
964.620556
 20
420.074571
 30
0.0
 11
956.079856
 21
395.176971
 31
0.0
  0
LINE
  5
591
  8
5
  6
CONTINUOUS
 10
897.8883
 20
201.4449
 30
0.0
 11
1125.888
 21
201.4449
 31
0.0
  0
LINE
  5
592
  8
5
  6
CONTINUOUS
 10
870.3883
 20
231.4449
 30
0.0
 11
870.3882
 21
202.3115
 31
0.0
  0
LINE
  5
593
  8
5
  6
CONTINUOUS
 10
870.3882
 20
585.5783
 30
0.0
 11
870.3883
 21
553.4449
 31
0.0
  0
LINE
  5
594
  8
5
  6
CONTINUOUS
 10
870.3882
 20
202.3115
 30
0.0
 11
880.8882
 21
201.9448
 31
0.0
  0
LINE
  5
595
  8
5
  6
CONTINUOUS
 10
880.8882
 20
585.9449
 30
0.0
 11
880.8883
 21
553.4449
 31
0.0
  0
LINE
  5
596
  8
5
  6
CONTINUOUS
 10
880.8883
 20
231.4449
 30
0.0
 11
880.8882
 21
201.9448
 31
0.0
  0
LINE
  5
597
  8
5
  6
CONTINUOUS
 10
880.8882
 20
585.9449
 30
0.0
 11
870.3882
 21
585.5783
 31
0.0
  0
LINE
  5
598
  8
5
  6
CONTINUOUS
 10
1023.888
 20
178.4449
 30
0.0
 11
1188.888
 21
178.4449
 31
0.0
  0
LINE
  5
599
  8
5
  6
CONTINUOUS
 10
1023.888
 20
610.4449
 30
0.0
 11
1188.888
 21
610.4449
 31
0.0
  0
LINE
  5
59A
  8
5
  6
CONTINUOUS
 10
870.3882
 20
585.5783
 30
0.0
 11
818.3883
 21
557.9293
 31
0.0
  0
LINE
  5
59B
  8
5
  6
CONTINUOUS
 10
818.3883
 20
229.9605
 30
0.0
 11
870.3882
 21
202.3115
 31
0.0
  0
LINE
  5
59C
  8
5
  6
CONTINUOUS
 10
808.3882
 20
236.9449
 30
0.0
 11
818.3883
 21
236.9449
 31
0.0
  0
LINE
  5
59D
  8
5
  6
CONTINUOUS
 10
818.3883
 20
550.9448
 30
0.0
 11
808.3883
 21
550.9449
 31
0.0
  0
LINE
  5
59E
  8
5
  6
CONTINUOUS
 10
800.3883
 20
339.9449
 30
0.0
 11
808.3883
 21
328.5197
 31
0.0
  0
LINE
  5
59F
  8
5
  6
CONTINUOUS
 10
808.3883
 20
459.3701
 30
0.0
 11
800.3883
 21
447.9449
 31
0.0
  0
LINE
  5
5A0
  8
5
  6
CONTINUOUS
 10
811.3883
 20
236.9449
 30
0.0
 11
811.3882
 21
167.9449
 31
0.0
  0
LINE
  5
5A1
  8
5
  6
CONTINUOUS
 10
814.3882
 20
167.9449
 30
0.0
 11
814.3883
 21
236.9449
 31
0.0
  0
LINE
  5
5A2
  8
5
  6
CONTINUOUS
 10
681.3883
 20
366.4449
 30
0.0
 11
791.3882
 21
366.4449
 31
0.0
  0
LINE
  5
5A3
  8
5
  6
CONTINUOUS
 10
791.3882
 20
421.4449
 30
0.0
 11
681.3883
 21
421.4449
 31
0.0
  0
LINE
  5
5A4
  8
5
  6
CONTINUOUS
 10
800.3882
 20
423.9449
 30
0.0
 11
791.3883
 21
423.9449
 31
0.0
  0
LINE
  5
5A5
  8
5
  6
CONTINUOUS
 10
791.3882
 20
363.9448
 30
0.0
 11
800.3882
 21
363.9448
 31
0.0
  0
LINE
  5
5A6
  8
5
  6
CONTINUOUS
 10
880.8882
 20
201.9448
 30
0.0
 11
888.442
 21
201.9448
 31
0.0
  0
LINE
  5
5A7
  8
5
  6
CONTINUOUS
 10
888.4419
 20
585.9449
 30
0.0
 11
880.8882
 21
585.9449
 31
0.0
  0
LINE
  5
5A8
  8
5
  6
CONTINUOUS
 10
1324.335
 20
201.9448
 30
0.0
 11
1332.888
 21
201.9448
 31
0.0
  0
LINE
  5
5A9
  8
5
  6
CONTINUOUS
 10
1121.888
 20
262.0162
 30
0.0
 11
1125.388
 21
265.5138
 31
0.0
  0
LINE
  5
5AA
  8
5
  6
CONTINUOUS
 10
901.8883
 20
262.0162
 30
0.0
 11
1121.888
 21
262.0162
 31
0.0
  0
LINE
  5
5AB
  8
5
  6
CONTINUOUS
 10
898.3883
 20
265.5138
 30
0.0
 11
901.8883
 21
262.0162
 31
0.0
  0
LINE
  5
5AC
  8
5
  6
CONTINUOUS
 10
1121.888
 20
262.0162
 30
0.0
 11
1121.888
 21
280.9374
 31
0.0
  0
LINE
  5
5AD
  8
5
  6
CONTINUOUS
 10
901.8883
 20
280.9374
 30
0.0
 11
1121.888
 21
280.9374
 31
0.0
  0
LINE
  5
5AE
  8
5
  6
CONTINUOUS
 10
901.8883
 20
280.9374
 30
0.0
 11
901.8883
 21
262.0162
 31
0.0
  0
LINE
  5
5AF
  8
5
  6
CONTINUOUS
 10
852.3883
 20
280.9449
 30
0.0
 11
901.8883
 21
280.9374
 31
0.0
  0
LINE
  5
5B0
  8
5
  6
CONTINUOUS
 10
852.3883
 20
280.9449
 30
0.0
 11
898.3882
 21
234.9449
 31
0.0
  0
LINE
  5
5B1
  8
5
  6
CONTINUOUS
 10
1125.388
 20
234.9449
 30
0.0
 11
1171.388
 21
280.9449
 31
0.0
  0
LINE
  5
5B2
  8
5
  6
CONTINUOUS
 10
1121.888
 20
280.9374
 30
0.0
 11
1171.388
 21
280.9449
 31
0.0
  0
LINE
  5
5B3
  8
5
  6
CONTINUOUS
 10
901.8807
 20
503.9448
 30
0.0
 11
852.3883
 21
503.9449
 31
0.0
  0
LINE
  5
5B4
  8
5
  6
CONTINUOUS
 10
901.8807
 20
503.9448
 30
0.0
 11
901.8883
 21
280.9374
 31
0.0
  0
LINE
  5
5B5
  8
5
  6
CONTINUOUS
 10
1121.888
 20
503.9524
 30
0.0
 11
1121.888
 21
553.4449
 31
0.0
  0
LINE
  5
5B6
  8
5
  6
CONTINUOUS
 10
901.8883
 20
553.4449
 30
0.0
 11
901.8807
 21
503.9448
 31
0.0
  0
LINE
  5
5B7
  8
5
  6
CONTINUOUS
 10
1121.888
 20
503.9524
 30
0.0
 11
901.8807
 21
503.9448
 31
0.0
  0
LINE
  5
5B8
  8
5
  6
CONTINUOUS
 10
901.8883
 20
553.4449
 30
0.0
 11
852.3883
 21
503.9449
 31
0.0
  0
LINE
  5
5B9
  8
5
  6
CONTINUOUS
 10
1171.388
 20
503.9449
 30
0.0
 11
1121.888
 21
503.9524
 31
0.0
  0
LINE
  5
5BA
  8
5
  6
CONTINUOUS
 10
1121.888
 20
280.9374
 30
0.0
 11
1121.888
 21
503.9524
 31
0.0
  0
LINE
  5
5BB
  8
5
  6
CONTINUOUS
 10
1171.388
 20
503.9449
 30
0.0
 11
1121.888
 21
553.4449
 31
0.0
  0
LINE
  5
5BC
  8
6
  6
CENTER
 10
1950.275
 20
956.1512
 30
0.0
 11
1950.275
 21
1349.418
 31
0.0
  0
LINE
  5
5BD
  8
6
  6
CENTER
 10
1753.642
 20
1152.785
 30
0.0
 11
2146.909
 21
1152.785
 31
0.0
  0
LINE
  5
5D1
  8
6
  6
CENTER
 10
155.4634
 20
920.2844
 30
0.0
 11
155.4634
 21
960.2844
 31
0.0
  0
LINE
  5
5D8
  8
0
  6
CONTINUOUS
 10
686.5669
 20
1180.285
 30
0.0
 11
694.5669
 21
1179.095
 31
0.0
  0
LINE
  5
5D9
  8
0
  6
CONTINUOUS
 10
776.567
 20
1179.095
 30
0.0
 11
784.5669
 21
1180.285
 31
0.0
  0
LINE
  5
5E8
  8
6
  6
CENTER
 10
1121.888
 20
393.9449
 30
0.0
 11
1546.888
 21
393.9449
 31
0.0
  0
ENDSEC
  0
EOF
