  0
SECTION
  2
HEADER
  9
$ACADVER
  1
AC1009
  9
$DWGCODEPAGE
  3
iso8859-1
  9
$INSBASE
 10
0.0
 20
0.0
 30
0.0
  9
$EXTMIN
 10
1.0E20
 20
1.0E20
  9
$EXTMAX
 10
-1.0E20
 20
-1.0E20
  9
$LIMMIN
 10
0.0
 20
0.0
  9
$LIMMAX
 10
12.0
 20
9.0
  9
$ORTHOMODE
 70
     0
  9
$REGENMODE
 70
     1
  9
$FILLMODE
 70
     1
  9
$QTEXTMODE
 70
     0
  9
$MIRRTEXT
 70
     1
  9
$DRAGMODE
 70
     2
  9
$LTSCALE
 40
15.0
  9
$OSMODE
 70
     0
  9
$ATTMODE
 70
     1
  9
$TEXTSIZE
 40
0.2
  9
$TRACEWID
 40
0.05
  9
$TEXTSTYLE
  7
STANDARD
  9
$CLAYER
  8
0
  9
$CELTYPE
  6
DASHED
  9
$CECOLOR
 62
   256
  9
$DIMSCALE
 40
1.0
  9
$DIMASZ
 40
0.18
  9
$DIMEXO
 40
0.0625
  9
$DIMDLI
 40
0.38
  9
$DIMRND
 40
0.0
  9
$DIMDLE
 40
0.0
  9
$DIMEXE
 40
0.18
  9
$DIMTP
 40
0.0
  9
$DIMTM
 40
0.0
  9
$DIMTXT
 40
0.18
  9
$DIMCEN
 40
0.09
  9
$DIMTSZ
 40
0.0
  9
$DIMTOL
 70
     0
  9
$DIMLIM
 70
     0
  9
$DIMTIH
 70
     1
  9
$DIMTOH
 70
     1
  9
$DIMSE1
 70
     0
  9
$DIMSE2
 70
     0
  9
$DIMTAD
 70
     0
  9
$DIMZIN
 70
     0
  9
$DIMBLK
  1

  9
$DIMASO
 70
     1
  9
$DIMSHO
 70
     1
  9
$DIMPOST
  1

  9
$DIMAPOST
  1

  9
$DIMALT
 70
     0
  9
$DIMALTD
 70
     2
  9
$DIMALTF
 40
25.4
  9
$DIMLFAC
 40
1.0
  9
$DIMTOFL
 70
     0
  9
$DIMTVP
 40
0.0
  9
$DIMTIX
 70
     0
  9
$DIMSOXD
 70
     0
  9
$DIMSAH
 70
     0
  9
$DIMBLK1
  1

  9
$DIMBLK2
  1

  9
$DIMSTYLE
  2
STANDARD
  9
$DIMCLRD
 70
     0
  9
$DIMCLRE
 70
     0
  9
$DIMCLRT
 70
     0
  9
$DIMTFAC
 40
1.0
  9
$DIMGAP
 40
0.09
  9
$LUNITS
 70
     2
  9
$LUPREC
 70
     4
  9
$AXISMODE
 70
     0
  9
$AXISUNIT
 10
0.0
 20
0.0
  9
$SKETCHINC
 40
0.1
  9
$FILLETRAD
 40
0.0
  9
$AUNITS
 70
     0
  9
$AUPREC
 70
     0
  9
$MENU
  1
acad
  9
$ELEVATION
 40
0.0
  9
$PELEVATION
 40
0.0
  9
$THICKNESS
 40
0.0
  9
$LIMCHECK
 70
     0
  9
$BLIPMODE
 70
     1
  9
$CHAMFERA
 40
0.0
  9
$CHAMFERB
 40
0.0
  9
$SKPOLY
 70
     0
  9
$TDCREATE
 40
0.000000000
  9
$TDUPDATE
 40
0.000000000
  9
$TDINDWG
 40
0.0
  9
$TDUSRTIMER
 40
0.0
  9
$USRTIMER
 70
     1
  9
$ANGBASE
 50
0.0
  9
$ANGDIR
 70
     0
  9
$PDMODE
 70
     0
  9
$PDSIZE
 40
0.0
  9
$PLINEWID
 40
0.0
  9
$COORDS
 70
     1
  9
$SPLFRAME
 70
     0
  9
$SPLINETYPE
 70
     6
  9
$SPLINESEGS
 70
     8
  9
$ATTDIA
 70
     0
  9
$ATTREQ
 70
     1
  9
$HANDLING
 70
     1
  9
$HANDSEED
  5
   947
  9
$SURFTAB1
 70
     6
  9
$SURFTAB2
 70
     6
  9
$SURFTYPE
 70
     6
  9
$SURFU
 70
     6
  9
$SURFV
 70
     6
  9
$UCSNAME
  2

  9
$UCSORG
 10
0.0
 20
0.0
 30
0.0
  9
$UCSXDIR
 10
1.0
 20
0.0
 30
0.0
  9
$UCSYDIR
 10
0.0
 20
1.0
 30
0.0
  9
$PUCSNAME
  2

  9
$PUCSORG
 10
0.0
 20
0.0
 30
0.0
  9
$PUCSXDIR
 10
1.0
 20
0.0
 30
0.0
  9
$PUCSYDIR
 10
0.0
 20
1.0
 30
0.0
  9
$USERI1
 70
     0
  9
$USERI2
 70
     0
  9
$USERI3
 70
     0
  9
$USERI4
 70
     0
  9
$USERI5
 70
     0
  9
$USERR1
 40
0.0
  9
$USERR2
 40
0.0
  9
$USERR3
 40
0.0
  9
$USERR4
 40
0.0
  9
$USERR5
 40
0.0
  9
$WORLDVIEW
 70
     1
  9
$SHADEDGE
 70
     3
  9
$SHADEDIF
 70
    70
  9
$TILEMODE
 70
     1
  9
$MAXACTVP
 70
    16
  9
$PINSBASE
 10
0.0
 20
0.0
 30
0.0
  9
$PLIMCHECK
 70
     0
  9
$PEXTMIN
 10
1.0E20
 20
1.0E20
 30
1.0E20
  9
$PEXTMAX
 10
-1.0E20
 20
-1.0E20
 30
-1.0E20
  9
$PLIMMIN
 10
0.0
 20
0.0
  9
$PLIMMAX
 10
12.0
 20
9.0
  9
$UNITMODE
 70
     0
  9
$VISRETAIN
 70
     0
  0
ENDSEC
  0
SECTION
  2
TABLES
  0
TABLE
  2
VPORT
 70
     1
  0
VPORT
  2
*ACTIVE
 70
     0
 10
0.0
 20
0.0
 11
1.0
 21
1.0
 12
6.801242
 22
4.5
 13
0.0
 23
0.0
 14
1.0
 24
1.0
 15
0.0
 25
0.0
 16
0.0
 26
0.0
 36
1.0
 17
0.0
 27
0.0
 37
0.0
 40
9.0
 41
1.511387
 42
50.0
 43
0.0
 44
0.0
 50
0.0
 51
0.0
 71
     0
 72
   100
 73
     1
 74
     1
 75
     0
 76
     0
 77
     0
 78
     0
  0
ENDTAB
  0
TABLE
  2
LTYPE
 70
    41
  0
LTYPE
  2
BYBLOCK
 70
     0
  3

 72
    65
 73
     0
 40
0.0
  0
LTYPE
  2
BYLAYER
 70
     0
  3

 72
    65
 73
     0
 40
0.0
  0
LTYPE
  2
CONTINUOUS
 70
     0
  3
Solid line
 72
    65
 73
     0
 40
0.0
  0
LTYPE
  2
BORDER
 70
    64
  3
__ __ . __ __ . __ __ . __ __ . __ __ . __ __ .
 72
    65
 73
     6
 40
1.75
 49
0.5
 49
-0.25
 49
0.5
 49
-0.25
 49
0.0
 49
-0.25
  0
LTYPE
  2
BORDER2
 70
    64
  3
__.__.__.__.__.__.__.__.__.__.__.__.__.__.__.__
 72
    65
 73
     6
 40
0.875
 49
0.25
 49
-0.125
 49
0.25
 49
-0.125
 49
0.0
 49
-0.125
  0
LTYPE
  2
BORDERX2
 70
    64
  3
____  ____  .  ____  ____  .  ____  ____  .  __
 72
    65
 73
     6
 40
3.5
 49
1.0
 49
-0.5
 49
1.0
 49
-0.5
 49
0.0
 49
-0.5
  0
LTYPE
  2
CENTER
 70
    64
  3
____ _ ____ _ ____ _ ____ _ ____ _ ____ _ ____
 72
    65
 73
     4
 40
2.0
 49
1.25
 49
-0.25
 49
0.25
 49
-0.25
  0
LTYPE
  2
CENTER2
 70
    64
  3
___ _ ___ _ ___ _ ___ _ ___ _ ___ _ ___ _ ___ _
 72
    65
 73
     4
 40
1.125
 49
0.75
 49
-0.125
 49
0.125
 49
-0.125
  0
LTYPE
  2
CENTERX2
 70
    64
  3
________  __  ________  __  ________  __  _____
 72
    65
 73
     4
 40
4.0
 49
2.5
 49
-0.5
 49
0.5
 49
-0.5
  0
LTYPE
  2
DASHDOT
 70
    64
  3
__ . __ . __ . __ . __ . __ . __ . __ . __ . __
 72
    65
 73
     4
 40
1.0
 49
0.5
 49
-0.25
 49
0.0
 49
-0.25
  0
LTYPE
  2
DASHDOT2
 70
    64
  3
_._._._._._._._._._._._._._._._._._._._._._._._
 72
    65
 73
     4
 40
0.5
 49
0.25
 49
-0.125
 49
0.0
 49
-0.125
  0
LTYPE
  2
DASHDOTX2
 70
    64
  3
____  .  ____  .  ____  .  ____  .  ____  .  __
 72
    65
 73
     4
 40
2.0
 49
1.0
 49
-0.5
 49
0.0
 49
-0.5
  0
LTYPE
  2
DASHED
 70
    64
  3
__ __ __ __ __ __ __ __ __ __ __ __ __ __ __ __
 72
    65
 73
     2
 40
0.75
 49
0.5
 49
-0.25
  0
LTYPE
  2
DASHED2
 70
    64
  3
_ _ _ _ _ _ _ _ _ _ _ _ _ _ _ _ _ _ _ _ _ _ _ _
 72
    65
 73
     2
 40
0.375
 49
0.25
 49
-0.125
  0
LTYPE
  2
DASHEDX2
 70
    64
  3
____  ____  ____  ____  ____  ____  ____  ____
 72
    65
 73
     2
 40
1.5
 49
1.0
 49
-0.5
  0
LTYPE
  2
DIVIDE
 70
    64
  3
____ . . ____ . . ____ . . ____ . . ____ . . __
 72
    65
 73
     6
 40
1.25
 49
0.5
 49
-0.25
 49
0.0
 49
-0.25
 49
0.0
 49
-0.25
  0
LTYPE
  2
DIVIDE2
 70
    64
  3
__..__..__..__..__..__..__..__..__..__..__..__.
 72
    65
 73
     6
 40
0.625
 49
0.25
 49
-0.125
 49
0.0
 49
-0.125
 49
0.0
 49
-0.125
  0
LTYPE
  2
DIVIDEX2
 70
    64
  3
________  .  .  ________  .  .  ________  .  .
 72
    65
 73
     6
 40
2.5
 49
1.0
 49
-0.5
 49
0.0
 49
-0.5
 49
0.0
 49
-0.5
  0
LTYPE
  2
DOT
 70
    64
  3
. . . . . . . . . . . . . . . . . . . . . . . .
 72
    65
 73
     2
 40
0.25
 49
0.0
 49
-0.25
  0
LTYPE
  2
DOT2
 70
    64
  3
...............................................
 72
    65
 73
     2
 40
0.125
 49
0.0
 49
-0.125
  0
LTYPE
  2
DOTX2
 70
    64
  3
.  .  .  .  .  .  .  .  .  .  .  .  .  .  .  .
 72
    65
 73
     2
 40
0.5
 49
0.0
 49
-0.5
  0
LTYPE
  2
HIDDEN
 70
    64
  3
__ __ __ __ __ __ __ __ __ __ __ __ __ __ __ __
 72
    65
 73
     2
 40
0.375
 49
0.25
 49
-0.125
  0
LTYPE
  2
HIDDEN2
 70
    64
  3
_ _ _ _ _ _ _ _ _ _ _ _ _ _ _ _ _ _ _ _ _ _ _ _
 72
    65
 73
     2
 40
0.1875
 49
0.125
 49
-0.0625
  0
LTYPE
  2
HIDDENX2
 70
    64
  3
____ ____ ____ ____ ____ ____ ____ ____ ____ __
 72
    65
 73
     2
 40
0.75
 49
0.5
 49
-0.25
  0
LTYPE
  2
PHANTOM
 70
    64
  3
______  __  __  ______  __  __  ______  __  __
 72
    65
 73
     6
 40
2.5
 49
1.25
 49
-0.25
 49
0.25
 49
-0.25
 49
0.25
 49
-0.25
  0
LTYPE
  2
PHANTOM2
 70
    64
  3
___ _ _ ___ _ _ ___ _ _ ___ _ _ ___ _ _ ___ _ _
 72
    65
 73
     6
 40
1.25
 49
0.625
 49
-0.125
 49
0.125
 49
-0.125
 49
0.125
 49
-0.125
  0
LTYPE
  2
PHANTOMX2
 70
    64
  3
____________    ____    ____    ____________
 72
    65
 73
     6
 40
5.0
 49
2.5
 49
-0.5
 49
0.5
 49
-0.5
 49
0.5
 49
-0.5
  0
LTYPE
  2
ACAD_ISO02W100
 70
    64
  3
__ __ __ __ __ __ __ __ __ __ __ __ __ __ __ __
 72
    65
 73
     2
 40
15.0
 49
12.0
 49
-3.0
  0
LTYPE
  2
ACAD_ISO03W100
 70
    64
  3
__    __    __    __    __    __    __    __
 72
    65
 73
     2
 40
30.0
 49
12.0
 49
-18.0
  0
LTYPE
  2
ACAD_ISO04W100
 70
    64
  3
____ . ____ . ____ . ____ . ____ . ____ . ____
 72
    65
 73
     4
 40
30.5
 49
24.0
 49
-3.0
 49
0.5
 49
-3.0
  0
LTYPE
  2
ACAD_ISO05W100
 70
    64
  3
____ .. ____ .. ____ .. ____ .. ____ .. ____ ..
 72
    65
 73
     6
 40
34.0
 49
24.0
 49
-3.0
 49
0.5
 49
-3.0
 49
0.5
 49
-3.0
  0
LTYPE
  2
ACAD_ISO06W100
 70
    64
  3
____ ... ____ ... ____ ... ____ ... ____ ... __
 72
    65
 73
     8
 40
37.5
 49
24.0
 49
-3.0
 49
0.5
 49
-3.0
 49
0.5
 49
-3.0
 49
0.5
 49
-3.0
  0
LTYPE
  2
ACAD_ISO07W100
 70
    64
  3
. . . . . . . . . . . . . . . . . . . . . . . .
 72
    65
 73
     2
 40
3.5
 49
0.5
 49
-3.0
  0
LTYPE
  2
ACAD_ISO08W100
 70
    64
  3
____ __ ____ __ ____ __ ____ ____ __ __ ____ __
 72
    65
 73
     4
 40
36.0
 49
24.0
 49
-3.0
 49
6.0
 49
-3.0
  0
LTYPE
  2
ACAD_ISO09W100
 70
    64
  3
____ __ __ ____ __ __ ____ __ __ ____ __ __ ___
 72
    65
 73
     6
 40
45.0
 49
24.0
 49
-3.0
 49
6.0
 49
-3.0
 49
6.0
 49
-3.0
  0
LTYPE
  2
ACAD_ISO10W100
 70
    64
  3
__ . __ . __ . __ . __ . __ . __ . __ . __ . __
 72
    65
 73
     4
 40
18.5
 49
12.0
 49
-3.0
 49
0.5
 49
-3.0
  0
LTYPE
  2
ACAD_ISO11W100
 70
    64
  3
__ __ . __ __ . __ __ . __ __ . __ __ . __ __ .
 72
    65
 73
     6
 40
33.5
 49
12.0
 49
-3.0
 49
12.0
 49
-3.0
 49
0.5
 49
-3.0
  0
LTYPE
  2
ACAD_ISO12W100
 70
    64
  3
__ . . __ . . __ . . __ . . __ . . __ . . __ .
 72
    65
 73
     6
 40
22.0
 49
12.0
 49
-3.0
 49
0.5
 49
-3.0
 49
0.5
 49
-3.0
  0
LTYPE
  2
ACAD_ISO13W100
 70
    64
  3
__ __ . . __ __ . . __ __ . . __ __ . . __ __ .
 72
    65
 73
     8
 40
37.0
 49
12.0
 49
-3.0
 49
12.0
 49
-3.0
 49
0.5
 49
-3.0
 49
0.5
 49
-3.0
  0
LTYPE
  2
ACAD_ISO14W100
 70
    64
  3
__ . . . __ . . . __ . . . __ . . . __ . . . __
 72
    65
 73
     8
 40
25.5
 49
12.0
 49
-3.0
 49
0.5
 49
-3.0
 49
0.5
 49
-3.0
 49
0.5
 49
-3.0
  0
LTYPE
  2
ACAD_ISO15W100
 70
    64
  3
__ __ . . . __ __ . . . __ __ . . . __ __ . . .
 72
    65
 73
    10
 40
40.5
 49
12.0
 49
-3.0
 49
12.0
 49
-3.0
 49
0.5
 49
-3.0
 49
0.5
 49
-3.0
 49
0.5
 49
-3.0
  0
ENDTAB
  0
TABLE
  2
STYLE
 70
     4
  0
STYLE
  2
STANDARD
 70
    64
 40
0.0
 41
1.0
 50
0.0
 71
     0
 42
0.2
  3
txt
  4

  0
STYLE
  2
TOLERANCE
 70
    64
 40
0.0
 41
1.0
 50
0.0
 71
     0
 42
0.2
  3
../igesfont/iges1003.shx
  4

  0
STYLE
  2
ROMANS
 70
    64
 40
0.0
 41
1.0
 50
0.0
 71
     0
 42
0.2
  3
romans.shx
  4

  0
STYLE
  2
ROMANC
 70
    64
 40
0.0
 41
1.0
 50
0.0
 71
     0
 42
0.2
  3
romanc.shx
  4

  0
ENDTAB
  0
TABLE
  2
DIMSTYLE
 70
     2
  0
DIMSTYLE
  2
UNNAMED
 70
     0
  3

  4

  5

  6

  7

 40
1.0
 41
0.18
 42
0.0625
 43
0.38
 44
0.18
 45
0.0
 46
0.0
 47
0.0
 48
0.0
140
0.18
141
0.09
142
0.0
143
25.4
144
1.0
145
0.0
146
1.0
147
0.09
 71
     0
 72
     0
 73
     1
 74
     1
 75
     0
 76
     0
 77
     0
 78
     0
170
     0
171
     2
172
     0
173
     0
174
     0
175
     0
176
     0
177
     0
178
     0
  0
DIMSTYLE
  2
STANDARD
 70
     0
  3

  4

  5

  6

  7

 40
1.0
 41
0.18
 42
0.0625
 43
0.38
 44
0.18
 45
0.0
 46
0.0
 47
0.0
 48
0.0
140
0.18
141
0.09
142
0.0
143
25.4
144
1.0
145
0.0
146
1.0
147
0.09
 71
     0
 72
     0
 73
     1
 74
     1
 75
     0
 76
     0
 77
     0
 78
     0
170
     0
171
     2
172
     0
173
     0
174
     0
175
     0
176
     0
177
     0
178
     0
  0
ENDTAB
  0
TABLE
  2
LAYER
 70
     2
  0
LAYER
  2
0
 70
     0
 62
     7
  6
CONTINUOUS
  0
LAYER
  2
255
 70
     0
 62
     7
  6
CONTINUOUS
  0
ENDTAB
  0
ENDSEC
  0
SECTION
  2
BLOCKS
  0
BLOCK
  5
     B
  8
0
  6
CONTINUOUS
 62
     7
  2
*UDIM1502
 70
    65
 10
0.0
 20
0.0
 30
0.0
  3
*UDIM1502
  0
TEXT
  5
     C
  8
0
  6
CONTINUOUS
 62
     7
 10
-586.032294517149
 20
-155.865883656221
 30
0.0
 40
2.99999994933605
  1
5,5
 50
388.205945442441
 41
0.933333333333333
 72
     1
 11
-583.304365676408
 21
-152.700697461046
 31
0.0
 73
     2
  0
TEXT
  5
     D
  8
0
  6
CONTINUOUS
 62
     7
 10
-588.808245866252
 20
-157.354706613541
 30
0.0
 40
2.99999994933605
  1
Ø
 50
388.205945442441
 41
0.933333333333333
 72
     1
 11
-588.547829337116
 21
-155.51291859249
 31
0.0
 73
     2
  0
TEXT
  5
     E
  8
0
  6
CONTINUOUS
 62
     7
 10
-578.673820293023
 20
-151.919321216307
 30
0.0
 40
2.99999994933605
  1
 - M5
 50
388.205945442441
 41
0.933333333333333
 72
     1
 11
-573.478379140677
 21
-147.430736847009
 31
0.0
 73
     2
  0
LINE
  5
     F
  8
0
  6
CONTINUOUS
 62
     7
 10
-556.308217938017
 20
-141.058748268845
 30
0.0
 11
-588.335603648301
 21
-158.235961025042
 31
0.0
  0
LINE
  5
    10
  8
0
  6
CONTINUOUS
 62
     7
 10
-553.950839721996
 20
-139.203278531385
 30
0.0
 11
-556.308217938017
 21
-141.058748268845
 31
0.0
  0
LINE
  5
    11
  8
0
  6
CONTINUOUS
 62
     7
 10
-556.308217938017
 20
-141.058748268845
 30
0.0
 11
-553.458399063864
 21
-140.121447684978
 31
0.0
  0
LINE
  5
    12
  8
0
  6
CONTINUOUS
 62
     7
 10
-559.634976020616
 20
-143.434124450134
 30
0.0
 11
-557.277597804595
 21
-141.578654712674
 31
0.0
  0
LINE
  5
    13
  8
0
  6
CONTINUOUS
 62
     7
 10
-557.277597804595
 20
-141.578654712674
 30
0.0
 11
-560.127416678748
 21
-142.515955296542
 31
0.0
  0
ENDBLK
  5
    14
  8
0
  6
CONTINUOUS
 62
     7
  0
BLOCK
  5
    15
  8
0
  6
CONTINUOUS
 62
     7
  2
*UDIM1503
 70
    65
 10
0.0
 20
0.0
 30
0.0
  3
*UDIM1503
  0
TEXT
  5
    16
  8
0
  6
CONTINUOUS
 62
     7
 10
-566.911584779639
 20
-116.714988501344
 30
0.0
 40
2.99999994933605
  1
105,25
 50
449.999999896069
 41
0.933333333333333
 72
     1
 11
-568.411584739665
 21
-108.614988635425
 31
0.0
 73
     2
  0
LINE
  5
    17
  8
0
  6
CONTINUOUS
 62
     7
 10
-557.174242584036
 20
-98.5187008529902
 30
0.0
 11
-567.911584764997
 21
-98.5187008529902
 31
0.0
  0
LINE
  5
    18
  8
0
  6
CONTINUOUS
 62
     7
 10
-565.911584764997
 20
-98.5187008529902
 30
0.0
 11
-565.911584764997
 21
-119.56870116666
 31
0.0
  0
LINE
  5
    19
  8
0
  6
CONTINUOUS
 62
     7
 10
-565.390640335046
 20
-101.473124130197
 30
0.0
 11
-565.911584764997
 21
-98.5187008529902
 31
0.0
  0
LINE
  5
    1A
  8
0
  6
CONTINUOUS
 62
     7
 10
-565.911584764997
 20
-98.5187008529902
 30
0.0
 11
-566.432529194949
 21
-101.473124130197
 31
0.0
  0
LINE
  5
    1B
  8
0
  6
CONTINUOUS
 62
     7
 10
-566.432529194949
 20
-116.614277889453
 30
0.0
 11
-565.911584764997
 21
-119.56870116666
 31
0.0
  0
LINE
  5
    1C
  8
0
  6
CONTINUOUS
 62
     7
 10
-565.911584764997
 20
-119.56870116666
 30
0.0
 11
-565.390640335046
 21
-116.614277889453
 31
0.0
  0
ENDBLK
  5
    1D
  8
0
  6
CONTINUOUS
 62
     7
  0
BLOCK
  5
    1E
  8
0
  6
CONTINUOUS
 62
     7
  2
*UDIM1504
 70
    65
 10
0.0
 20
0.0
 30
0.0
  3
*UDIM1504
  0
TEXT
  5
    1F
  8
0
  6
CONTINUOUS
 62
     7
 10
-552.567906253394
 20
-132.945074667378
 30
0.0
 40
2.99999994933605
  1
70
 50
359.999999896069
 41
0.933333333333333
 72
     1
 11
-550.0679062929
 21
-131.445074697232
 31
0.0
 73
     2
  0
LINE
  5
    20
  8
0
  6
CONTINUOUS
 62
     7
 10
-542.79290766269
 20
-133.9450746719
 30
0.0
 11
-556.792907871306
 21
-133.9450746719
 31
0.0
  0
LINE
  5
    21
  8
0
  6
CONTINUOUS
 62
     7
 10
-545.747330939897
 20
-134.466019101852
 30
0.0
 11
-542.79290766269
 21
-133.9450746719
 31
0.0
  0
LINE
  5
    22
  8
0
  6
CONTINUOUS
 62
     7
 10
-542.79290766269
 20
-133.9450746719
 30
0.0
 11
-545.747330939897
 21
-133.424130241948
 31
0.0
  0
LINE
  5
    23
  8
0
  6
CONTINUOUS
 62
     7
 10
-553.838484594099
 20
-133.424130241948
 30
0.0
 11
-556.792907871306
 21
-133.9450746719
 31
0.0
  0
LINE
  5
    24
  8
0
  6
CONTINUOUS
 62
     7
 10
-556.792907871306
 20
-133.9450746719
 30
0.0
 11
-553.838484594099
 21
-134.466019101852
 31
0.0
  0
ENDBLK
  5
    25
  8
0
  6
CONTINUOUS
 62
     7
  0
BLOCK
  5
    26
  8
0
  6
CONTINUOUS
 62
     7
  2
*UDIM1505
 70
    65
 10
0.0
 20
0.0
 30
0.0
  3
*UDIM1505
  0
TEXT
  5
    27
  8
0
  6
CONTINUOUS
 62
     7
 10
-536.335784597968
 20
-112.437989700972
 30
0.0
 40
2.99999994933605
  1
17,5
 50
359.999999896069
 41
0.933333333333333
 72
     1
 11
-531.035784684761
 21
-110.937989735891
 31
0.0
 73
     2
  0
LINE
  5
    28
  8
0
  6
CONTINUOUS
 62
     7
 10
-525.735784774267
 20
-113.437989710559
 30
0.0
 11
-546.292907714844
 21
-113.437989710559
 31
0.0
  0
LINE
  5
    29
  8
0
  6
CONTINUOUS
 62
     7
 10
-539.838484385483
 20
-112.917045280607
 30
0.0
 11
-542.79290766269
 21
-113.437989710559
 31
0.0
  0
LINE
  5
    2A
  8
0
  6
CONTINUOUS
 62
     7
 10
-542.79290766269
 20
-113.437989710559
 30
0.0
 11
-539.838484385483
 21
-113.95893414051
 31
0.0
  0
LINE
  5
    2B
  8
0
  6
CONTINUOUS
 62
     7
 10
-549.247330992051
 20
-113.95893414051
 30
0.0
 11
-546.292907714844
 21
-113.437989710559
 31
0.0
  0
LINE
  5
    2C
  8
0
  6
CONTINUOUS
 62
     7
 10
-546.292907714844
 20
-113.437989710559
 30
0.0
 11
-549.247330992051
 21
-112.917045280607
 31
0.0
  0
ENDBLK
  5
    2D
  8
0
  6
CONTINUOUS
 62
     7
  0
BLOCK
  5
    2E
  8
0
  6
CONTINUOUS
 62
     7
  2
*UDIM1506
 70
    65
 10
0.0
 20
0.0
 30
0.0
  3
*UDIM1506
  0
TEXT
  5
    2F
  8
0
  6
CONTINUOUS
 62
     7
 10
-574.838141286647
 20
-124.093700778248
 30
0.0
 40
2.99999994933605
  1
214
 50
449.999999896069
 41
0.933333333333333
 72
     1
 11
-576.338141254265
 21
-120.193700841399
 31
0.0
 73
     2
  0
LINE
  5
    30
  8
0
  6
CONTINUOUS
 62
     7
 10
-557.174242584036
 20
-98.5187005390737
 30
0.0
 11
-575.838141279597
 21
-98.5186946801684
 31
0.0
  0
LINE
  5
    31
  8
0
  6
CONTINUOUS
 62
     7
 10
-556.496870610511
 20
-141.318701176843
 30
0.0
 11
-575.838141279597
 21
-141.3186951053
 31
0.0
  0
LINE
  5
    32
  8
0
  6
CONTINUOUS
 62
     7
 10
-573.838141279597
 20
-98.5186953080014
 30
0.0
 11
-573.838141279597
 21
-141.318695733133
 31
0.0
  0
LINE
  5
    33
  8
0
  6
CONTINUOUS
 62
     7
 10
-573.317196849645
 20
-101.473118585208
 30
0.0
 11
-573.838141279597
 21
-98.5186953080014
 31
0.0
  0
LINE
  5
    34
  8
0
  6
CONTINUOUS
 62
     7
 10
-573.838141279597
 20
-98.5186953080014
 30
0.0
 11
-574.359085709548
 21
-101.473118585208
 31
0.0
  0
LINE
  5
    35
  8
0
  6
CONTINUOUS
 62
     7
 10
-574.359085709548
 20
-138.364272455926
 30
0.0
 11
-573.838141279597
 21
-141.318695733133
 31
0.0
  0
LINE
  5
    36
  8
0
  6
CONTINUOUS
 62
     7
 10
-573.838141279597
 20
-141.318695733133
 30
0.0
 11
-573.317196849645
 21
-138.364272455926
 31
0.0
  0
ENDBLK
  5
    37
  8
0
  6
CONTINUOUS
 62
     7
  0
BLOCK
  5
    38
  8
0
  6
CONTINUOUS
 62
     0
  2
ON-OFF
 70
    64
 10
0.0
 20
0.0
 30
0.0
  3
ON-OFF
  0
LINE
  5
    39
  8
0
  6
CONTINUOUS
 62
     0
 10
5.09999999999999
 20
-29.65
 30
0.0
 11
5.54999999999999
 21
-29.65
 31
0.0
  0
LINE
  5
    3A
  8
0
  6
CONTINUOUS
 62
     0
 10
3.79999999999999
 20
-37.35
 30
0.0
 11
4.59999999999999
 21
-37.35
 31
0.0
  0
LINE
  5
    3B
  8
0
  6
CONTINUOUS
 62
     0
 10
-2.6
 20
-34.75
 30
0.0
 11
-2.6
 21
-34.25
 31
0.0
  0
LINE
  5
    3C
  8
0
  6
CONTINUOUS
 62
     0
 10
2.6
 20
-34.75
 30
0.0
 11
2.6
 21
-34.25
 31
0.0
  0
ARC
  5
    3D
  8
0
  6
CONTINUOUS
 62
     0
 10
-3.5527136788005E-15
 20
-34.25
 30
0.0
 40
2.6
 50
0.0
 51
180.0
  0
ARC
  5
    3E
  8
0
  6
CONTINUOUS
 62
     0
 10
-3.5527136788005E-15
 20
-34.75
 30
0.0
 40
2.6
 50
180.0
 51
360.0
  0
ARC
  5
    3F
  8
0
  6
CONTINUOUS
 62
     0
 10
-3.5527136788005E-15
 20
-34.25
 30
0.0
 40
1.8
 50
0.0
 51
180.0
  0
ARC
  5
    40
  8
0
  6
CONTINUOUS
 62
     0
 10
-3.5527136788005E-15
 20
-34.75
 30
0.0
 40
1.8
 50
180.0
 51
360.0
  0
LINE
  5
    41
  8
0
  6
CONTINUOUS
 62
     0
 10
-1.8
 20
-34.75
 30
0.0
 11
-1.8
 21
-34.25
 31
0.0
  0
LINE
  5
    42
  8
0
  6
CONTINUOUS
 62
     0
 10
1.8
 20
-34.75
 30
0.0
 11
1.8
 21
-34.25
 31
0.0
  0
LINE
  5
    43
  8
0
  6
CONTINUOUS
 62
     0
 10
2.84999999999999
 20
-32.85
 30
0.0
 11
2.84999999999999
 21
-32.05
 31
0.0
  0
LINE
  5
    44
  8
0
  6
CONTINUOUS
 62
     0
 10
2.84999999999999
 20
-32.85
 30
0.0
 11
3.79999999999999
 21
-32.85
 31
0.0
  0
LINE
  5
    45
  8
0
  6
CONTINUOUS
 62
     0
 10
5.54999999999999
 20
-32.85
 30
0.0
 11
5.54999999999999
 21
-32.05
 31
0.0
  0
LINE
  5
    46
  8
0
  6
CONTINUOUS
 62
     0
 10
2.84999999999999
 20
-32.05
 30
0.0
 11
3.79999999999999
 21
-32.05
 31
0.0
  0
LINE
  5
    47
  8
0
  6
CONTINUOUS
 62
     0
 10
3.79999999999999
 20
-37.35
 30
0.0
 11
3.79999999999999
 21
-32.85
 31
0.0
  0
LINE
  5
    48
  8
0
  6
CONTINUOUS
 62
     0
 10
4.59999999999999
 20
-37.35
 30
0.0
 11
4.59999999999999
 21
-32.85
 31
0.0
  0
LINE
  5
    49
  8
0
  6
CONTINUOUS
 62
     0
 10
4.59999999999999
 20
-32.85
 30
0.0
 11
5.54999999999999
 21
-32.85
 31
0.0
  0
LINE
  5
    4A
  8
0
  6
CONTINUOUS
 62
     0
 10
4.59999999999999
 20
-32.05
 30
0.0
 11
5.54999999999999
 21
-32.05
 31
0.0
  0
LINE
  5
    4B
  8
0
  6
CONTINUOUS
 62
     0
 10
3.79999999999999
 20
-32.05
 30
0.0
 11
3.79999999999999
 21
-30.95
 31
0.0
  0
LINE
  5
    4C
  8
0
  6
CONTINUOUS
 62
     0
 10
4.59999999999999
 20
-32.05
 30
0.0
 11
4.59999999999999
 21
-30.95
 31
0.0
  0
ARC
  5
    4D
  8
0
  6
CONTINUOUS
 62
     0
 10
5.09999999999999
 20
-30.95
 30
0.0
 40
1.3
 50
89.9999999999999
 51
180.0
  0
ARC
  5
    4E
  8
0
  6
CONTINUOUS
 62
     0
 10
5.09999999999999
 20
-30.95
 30
0.0
 40
0.5
 50
89.9999999999999
 51
180.0
  0
LINE
  5
    4F
  8
0
  6
CONTINUOUS
 62
     0
 10
5.54999999999999
 20
-30.45
 30
0.0
 11
5.54999999999999
 21
-29.65
 31
0.0
  0
LINE
  5
    50
  8
0
  6
CONTINUOUS
 62
     0
 10
5.09999999999999
 20
-30.45
 30
0.0
 11
5.54999999999999
 21
-30.45
 31
0.0
  0
LINE
  5
    51
  8
0
  6
CONTINUOUS
 62
     0
 10
8.29999999999998
 20
-29.65
 30
0.0
 11
8.74999999999999
 21
-29.65
 31
0.0
  0
LINE
  5
    52
  8
0
  6
CONTINUOUS
 62
     0
 10
6.99999999999999
 20
-37.35
 30
0.0
 11
7.79999999999999
 21
-37.35
 31
0.0
  0
LINE
  5
    53
  8
0
  6
CONTINUOUS
 62
     0
 10
6.04999999999999
 20
-32.85
 30
0.0
 11
6.04999999999999
 21
-32.05
 31
0.0
  0
LINE
  5
    54
  8
0
  6
CONTINUOUS
 62
     0
 10
6.04999999999999
 20
-32.85
 30
0.0
 11
6.99999999999999
 21
-32.85
 31
0.0
  0
LINE
  5
    55
  8
0
  6
CONTINUOUS
 62
     0
 10
8.74999999999999
 20
-32.85
 30
0.0
 11
8.74999999999999
 21
-32.05
 31
0.0
  0
LINE
  5
    56
  8
0
  6
CONTINUOUS
 62
     0
 10
6.04999999999999
 20
-32.05
 30
0.0
 11
6.99999999999999
 21
-32.05
 31
0.0
  0
LINE
  5
    57
  8
0
  6
CONTINUOUS
 62
     0
 10
6.99999999999999
 20
-37.35
 30
0.0
 11
6.99999999999999
 21
-32.85
 31
0.0
  0
LINE
  5
    58
  8
0
  6
CONTINUOUS
 62
     0
 10
7.79999999999999
 20
-37.35
 30
0.0
 11
7.79999999999999
 21
-32.85
 31
0.0
  0
LINE
  5
    59
  8
0
  6
CONTINUOUS
 62
     0
 10
7.79999999999999
 20
-32.85
 30
0.0
 11
8.74999999999999
 21
-32.85
 31
0.0
  0
LINE
  5
    5A
  8
0
  6
CONTINUOUS
 62
     0
 10
7.79999999999999
 20
-32.05
 30
0.0
 11
8.74999999999999
 21
-32.05
 31
0.0
  0
LINE
  5
    5B
  8
0
  6
CONTINUOUS
 62
     0
 10
6.99999999999999
 20
-32.05
 30
0.0
 11
6.99999999999999
 21
-30.95
 31
0.0
  0
LINE
  5
    5C
  8
0
  6
CONTINUOUS
 62
     0
 10
7.79999999999999
 20
-32.05
 30
0.0
 11
7.79999999999999
 21
-30.95
 31
0.0
  0
ARC
  5
    5D
  8
0
  6
CONTINUOUS
 62
     0
 10
8.29999999999998
 20
-30.95
 30
0.0
 40
1.3
 50
89.9999999999999
 51
180.0
  0
ARC
  5
    5E
  8
0
  6
CONTINUOUS
 62
     0
 10
8.29999999999998
 20
-30.95
 30
0.0
 40
0.5
 50
89.9999999999999
 51
180.0
  0
LINE
  5
    5F
  8
0
  6
CONTINUOUS
 62
     0
 10
8.74999999999999
 20
-30.45
 30
0.0
 11
8.74999999999999
 21
-29.65
 31
0.0
  0
LINE
  5
    60
  8
0
  6
CONTINUOUS
 62
     0
 10
8.29999999999998
 20
-30.45
 30
0.0
 11
8.74999999999999
 21
-30.45
 31
0.0
  0
LINE
  5
    61
  8
0
  6
CONTINUOUS
 62
     0
 10
3.4
 20
-2.85000000000002
 30
0.0
 11
4.19999999999999
 21
-2.85000000000002
 31
0.0
  0
ARC
  5
    62
  8
0
  6
CONTINUOUS
 62
     0
 10
-3.5527136788005E-15
 20
0.249999999999979
 30
0.0
 40
2.6
 50
0.0
 51
180.0
  0
ARC
  5
    63
  8
0
  6
CONTINUOUS
 62
     0
 10
-3.5527136788005E-15
 20
0.249999999999979
 30
0.0
 40
1.8
 50
0.0
 51
180.0
  0
ARC
  5
    64
  8
0
  6
CONTINUOUS
 62
     0
 10
-3.5527136788005E-15
 20
-0.250000000000018
 30
0.0
 40
2.6
 50
180.0
 51
360.0
  0
ARC
  5
    65
  8
0
  6
CONTINUOUS
 62
     0
 10
-3.5527136788005E-15
 20
-0.250000000000018
 30
0.0
 40
1.8
 50
180.0
 51
360.0
  0
LINE
  5
    66
  8
0
  6
CONTINUOUS
 62
     0
 10
1.8
 20
-0.250000000000018
 30
0.0
 11
1.8
 21
0.249999999999979
 31
0.0
  0
LINE
  5
    67
  8
0
  6
CONTINUOUS
 62
     0
 10
2.6
 20
-0.250000000000018
 30
0.0
 11
2.6
 21
0.249999999999979
 31
0.0
  0
LINE
  5
    68
  8
0
  6
CONTINUOUS
 62
     0
 10
-1.8
 20
-0.250000000000032
 30
0.0
 11
-1.8
 21
0.249999999999964
 31
0.0
  0
LINE
  5
    69
  8
0
  6
CONTINUOUS
 62
     0
 10
-2.6
 20
-0.250000000000018
 30
0.0
 11
-2.6
 21
0.249999999999979
 31
0.0
  0
LINE
  5
    6A
  8
0
  6
CONTINUOUS
 62
     0
 10
3.4
 20
-2.85000000000002
 30
0.0
 11
3.4
 21
2.84999999999998
 31
0.0
  0
LINE
  5
    6B
  8
0
  6
CONTINUOUS
 62
     0
 10
4.19999999999999
 20
-2.85000000000002
 30
0.0
 11
4.19999999999999
 21
0.649999999999981
 31
0.0
  0
LINE
  5
    6C
  8
0
  6
CONTINUOUS
 62
     0
 10
6.99999999999999
 20
-2.85000000000002
 30
0.0
 11
6.99999999999999
 21
0.649999999999981
 31
0.0
  0
LINE
  5
    6D
  8
0
  6
CONTINUOUS
 62
     0
 10
7.79999999999999
 20
-2.85000000000002
 30
0.0
 11
7.79999999999999
 21
0.84999999999998
 31
0.0
  0
LINE
  5
    6E
  8
0
  6
CONTINUOUS
 62
     0
 10
3.4
 20
2.84999999999998
 30
0.0
 11
4.19999999999999
 21
2.84999999999998
 31
0.0
  0
ARC
  5
    6F
  8
0
  6
CONTINUOUS
 62
     0
 10
5.59999999999999
 20
0.649999999999981
 30
0.0
 40
1.4
 50
0.0
 51
180.0
  0
LINE
  5
    70
  8
0
  6
CONTINUOUS
 62
     0
 10
4.19999999999999
 20
2.05
 30
0.0
 11
4.19999999999999
 21
2.84999999999998
 31
0.0
  0
ARC
  5
    71
  8
0
  6
CONTINUOUS
 62
     0
 10
5.79999999999999
 20
0.84999999999998
 30
0.0
 40
2.0
 50
0.0
 51
143.130102354155
  0
LINE
  5
    72
  8
0
  6
CONTINUOUS
 62
     0
 10
6.99999999999999
 20
-2.85000000000002
 30
0.0
 11
7.79999999999999
 21
-2.85000000000002
 31
0.0
  0
ENDBLK
  5
    73
  8
0
  6
CONTINUOUS
 62
     0
  0
BLOCK
  5
    74
  8
0
  6
CONTINUOUS
 62
     7
  2
COPRITERM_PIANTA
 70
    64
 10
0.0
 20
0.0
 30
0.0
  3
COPRITERM_PIANTA
  0
LINE
  5
    75
  8
0
  6
CONTINUOUS
 62
     1
 10
-56.226997723693
 20
0.0
 30
0.0
 11
51.5
 21
0.0
 31
0.0
  0
LINE
  5
    76
  8
0
  6
CONTINUOUS
 62
     1
 10
-56.0916125897304
 20
01.0
 30
0.0
 11
51.5
 21
01.0
 31
0.0
  0
LINE
  5
    77
  8
0
  6
CONTINUOUS
 62
     1
 10
52.5
 20
01.0
 30
0.0
 11
52.5
 21
68.75
 31
0.0
  0
LINE
  5
    78
  8
0
  6
CONTINUOUS
 62
     1
 10
51.5
 20
0.0
 30
0.0
 11
51.5
 21
01.0
 31
0.0
  0
LINE
  5
    79
  8
0
  6
CONTINUOUS
 62
     1
 10
-36.6009643810488
 20
70.0
 30
0.0
 11
51.25
 21
70.0
 31
0.0
  0
ARC
  5
    7A
  8
0
  6
CONTINUOUS
 62
     1
 10
51.25
 20
68.75
 30
0.0
 40
1.25
 50
0.0
 51
90.0
  0
LINE
  5
    7B
  8
0
  6
CONTINUOUS
 62
     1
 10
48.9
 20
01.0
 30
0.0
 11
48.9
 21
70.0
 31
0.0
  0
LINE
  5
    7C
  8
0
  6
CONTINUOUS
 62
     1
 10
45.3
 20
01.0
 30
0.0
 11
45.3
 21
70.0
 31
0.0
  0
LINE
  5
    7D
  8
0
  6
CONTINUOUS
 62
     1
 10
41.7
 20
01.0
 30
0.0
 11
41.7
 21
70.0
 31
0.0
  0
LINE
  5
    7E
  8
0
  6
CONTINUOUS
 62
     1
 10
38.1
 20
01.0
 30
0.0
 11
38.1
 21
70.0
 31
0.0
  0
LINE
  5
    7F
  8
0
  6
CONTINUOUS
 62
     1
 10
34.5
 20
01.0
 30
0.0
 11
34.5
 21
70.0
 31
0.0
  0
LINE
  5
    80
  8
0
  6
CONTINUOUS
 62
     1
 10
30.9
 20
01.0
 30
0.0
 11
30.9
 21
70.0
 31
0.0
  0
LINE
  5
    81
  8
0
  6
CONTINUOUS
 62
     1
 10
27.3
 20
01.0
 30
0.0
 11
27.3
 21
70.0
 31
0.0
  0
LINE
  5
    82
  8
0
  6
CONTINUOUS
 62
     1
 10
23.7
 20
01.0
 30
0.0
 11
23.7
 21
70.0
 31
0.0
  0
LINE
  5
    83
  8
0
  6
CONTINUOUS
 62
     1
 10
20.1
 20
01.0
 30
0.0
 11
20.1
 21
70.0
 31
0.0
  0
LINE
  5
    84
  8
0
  6
CONTINUOUS
 62
     1
 10
16.5
 20
01.0
 30
0.0
 11
16.5
 21
70.0
 31
0.0
  0
LINE
  5
    85
  8
0
  6
CONTINUOUS
 62
     1
 10
12.9
 20
01.0
 30
0.0
 11
12.9
 21
70.0
 31
0.0
  0
LINE
  5
    86
  8
0
  6
CONTINUOUS
 62
     1
 10
9.29999999999999
 20
01.0
 30
0.0
 11
9.29999999999999
 21
70.0
 31
0.0
  0
LINE
  5
    87
  8
0
  6
CONTINUOUS
 62
     1
 10
5.69999999999999
 20
01.0
 30
0.0
 11
5.69999999999999
 21
70.0
 31
0.0
  0
LINE
  5
    88
  8
0
  6
CONTINUOUS
 62
     1
 10
2.09999999999999
 20
01.0
 30
0.0
 11
2.09999999999999
 21
70.0
 31
0.0
  0
LINE
  5
    89
  8
0
  6
CONTINUOUS
 62
     1
 10
-1.50000000000001
 20
01.0
 30
0.0
 11
-1.50000000000001
 21
70.0
 31
0.0
  0
LINE
  5
    8A
  8
0
  6
CONTINUOUS
 62
     1
 10
-5.10000000000001
 20
01.0
 30
0.0
 11
-5.10000000000001
 21
70.0
 31
0.0
  0
LINE
  5
    8B
  8
0
  6
CONTINUOUS
 62
     1
 10
-8.70000000000001
 20
01.0
 30
0.0
 11
-8.70000000000001
 21
70.0
 31
0.0
  0
LINE
  5
    8C
  8
0
  6
CONTINUOUS
 62
     1
 10
-12.3
 20
01.0
 30
0.0
 11
-12.3
 21
70.0
 31
0.0
  0
LINE
  5
    8D
  8
0
  6
CONTINUOUS
 62
     1
 10
-15.9
 20
01.0
 30
0.0
 11
-15.9
 21
70.0
 31
0.0
  0
LINE
  5
    8E
  8
0
  6
CONTINUOUS
 62
     1
 10
-19.5
 20
01.0
 30
0.0
 11
-19.5
 21
70.0
 31
0.0
  0
LINE
  5
    8F
  8
0
  6
CONTINUOUS
 62
     1
 10
-23.1
 20
01.0
 30
0.0
 11
-23.1
 21
70.0
 31
0.0
  0
LINE
  5
    90
  8
0
  6
CONTINUOUS
 62
     1
 10
-26.7
 20
01.0
 30
0.0
 11
-26.7
 21
70.0
 31
0.0
  0
LINE
  5
    91
  8
0
  6
CONTINUOUS
 62
     1
 10
-30.3
 20
01.0
 30
0.0
 11
-30.3
 21
70.0
 31
0.0
  0
LINE
  5
    92
  8
0
  6
CONTINUOUS
 62
     1
 10
-33.9
 20
01.0
 30
0.0
 11
-33.9
 21
70.0
 31
0.0
  0
LINE
  5
    93
  8
0
  6
CONTINUOUS
 62
     1
 10
51.5
 20
01.0
 30
0.0
 11
52.5
 21
01.0
 31
0.0
  0
POLYLINE
  5
    94
  8
0
  6
CONTINUOUS
 62
     1
 66
     1
 10
0.0
 20
0.0
 30
0.0
  0
VERTEX
  5
    95
  8
0
  6
CONTINUOUS
 10
-36.6009643810488
 20
69.9998044772326
 30
0.0
 40
0.0
 41
0.0
  0
VERTEX
  5
    96
  8
0
  6
CONTINUOUS
 10
-36.8285696984956
 20
69.6845005010683
 30
0.0
 40
0.0
 41
0.0
  0
VERTEX
  5
    97
  8
0
  6
CONTINUOUS
 10
-37.0542505368215
 20
69.3671808596701
 30
0.0
 40
0.0
 41
0.0
  0
VERTEX
  5
    98
  8
0
  6
CONTINUOUS
 10
-37.277960000942
 20
69.0478385555066
 30
0.0
 40
0.0
 41
0.0
  0
VERTEX
  5
    99
  8
0
  6
CONTINUOUS
 10
-37.4996268405661
 20
68.7264629568419
 30
0.0
 40
0.0
 41
0.0
  0
VERTEX
  5
    9A
  8
0
  6
CONTINUOUS
 10
-37.7191503179955
 20
68.4030390319254
 30
0.0
 40
0.0
 41
0.0
  0
VERTEX
  5
    9B
  8
0
  6
CONTINUOUS
 10
-37.9363950759235
 20
68.0775465831816
 30
0.0
 40
0.0
 41
0.0
  0
VERTEX
  5
    9C
  8
0
  6
CONTINUOUS
 10
-38.1511860052343
 20
67.7499594813996
 30
0.0
 40
0.0
 41
0.0
  0
VERTEX
  5
    9D
  8
0
  6
CONTINUOUS
 10
-38.3633031128013
 20
67.4202448999232
 30
0.0
 40
0.0
 41
0.0
  0
VERTEX
  5
    9E
  8
0
  6
CONTINUOUS
 10
-38.5724763892868
 20
67.0883625488401
 30
0.0
 40
0.0
 41
0.0
  0
VERTEX
  5
    9F
  8
0
  6
CONTINUOUS
 10
-38.7783806769405
 20
66.754263909172
 30
0.0
 40
0.0
 41
0.0
  0
VERTEX
  5
    A0
  8
0
  6
CONTINUOUS
 10
-39.0403176454829
 20
66.3168841247867
 30
0.0
 40
0.0
 41
0.0
  0
VERTEX
  5
    A1
  8
0
  6
CONTINUOUS
 10
-39.1686674672656
 20
66.0967100028514
 30
0.0
 40
0.0
 41
0.0
  0
VERTEX
  5
    A2
  8
0
  6
CONTINUOUS
 10
-39.2950916940275
 20
65.8755199585444
 30
0.0
 40
0.0
 41
0.0
  0
VERTEX
  5
    A3
  8
0
  6
CONTINUOUS
 10
-39.4194479425524
 20
65.6532934213859
 30
0.0
 40
0.0
 41
0.0
  0
VERTEX
  5
    A4
  8
0
  6
CONTINUOUS
 10
-39.541590225405
 20
65.4300097153931
 30
0.0
 40
0.0
 41
0.0
  0
VERTEX
  5
    A5
  8
0
  6
CONTINUOUS
 10
-39.6613709595447
 20
65.2056484668756
 30
0.0
 40
0.0
 41
0.0
  0
VERTEX
  5
    A6
  8
0
  6
CONTINUOUS
 10
-39.7786429749397
 20
64.9801900122305
 30
0.0
 40
0.0
 41
0.0
  0
VERTEX
  5
    A7
  8
0
  6
CONTINUOUS
 10
-39.8932615231805
 20
64.7536158057385
 30
0.0
 40
0.0
 41
0.0
  0
VERTEX
  5
    A8
  8
0
  6
CONTINUOUS
 10
-40.0050862860942
 20
64.5259088273587
 30
0.0
 40
0.0
 41
0.0
  0
VERTEX
  5
    A9
  8
0
  6
CONTINUOUS
 10
-40.1139833843579
 20
64.2970539905247
 30
0.0
 40
0.0
 41
0.0
  0
VERTEX
  5
    AA
  8
0
  6
CONTINUOUS
 10
-40.2198273861132
 20
64.0670385499397
 30
0.0
 40
0.0
 41
0.0
  0
VERTEX
  5
    AB
  8
0
  6
CONTINUOUS
 10
-40.3225033155795
 20
63.8358525093719
 30
0.0
 40
0.0
 41
0.0
  0
VERTEX
  5
    AC
  8
0
  6
CONTINUOUS
 10
-40.4219086616682
 20
63.6034890294504
 30
0.0
 40
0.0
 41
0.0
  0
VERTEX
  5
    AD
  8
0
  6
CONTINUOUS
 10
-40.5179553865965
 20
63.3699448354601
 30
0.0
 40
0.0
 41
0.0
  0
VERTEX
  5
    AE
  8
0
  6
CONTINUOUS
 10
-40.6105719345015
 20
63.1352206251377
 30
0.0
 40
0.0
 41
0.0
  0
VERTEX
  5
    AF
  8
0
  6
CONTINUOUS
 10
-40.6997052400536
 20
62.899321476467
 30
0.0
 40
0.0
 41
0.0
  0
VERTEX
  5
    B0
  8
0
  6
CONTINUOUS
 10
-40.7853227370709
 20
62.662257255474
 30
0.0
 40
0.0
 41
0.0
  0
VERTEX
  5
    B1
  8
0
  6
CONTINUOUS
 10
-40.8674143671326
 20
62.4240430240232
 30
0.0
 40
0.0
 41
0.0
  0
VERTEX
  5
    B2
  8
0
  6
CONTINUOUS
 10
-40.9459945881933
 20
62.184699447612
 30
0.0
 40
0.0
 41
0.0
  0
VERTEX
  5
    B3
  8
0
  6
CONTINUOUS
 10
-41.0454038485206
 20
61.8637878857457
 30
0.0
 40
0.0
 41
0.0
  0
VERTEX
  5
    B4
  8
0
  6
CONTINUOUS
 10
-41.1388165353278
 20
61.5409960857738
 30
0.0
 40
0.0
 41
0.0
  0
VERTEX
  5
    B5
  8
0
  6
CONTINUOUS
 10
-41.2264865899689
 20
61.216422427373
 30
0.0
 40
0.0
 41
0.0
  0
VERTEX
  5
    B6
  8
0
  6
CONTINUOUS
 10
-41.3087401021974
 20
60.8901812254568
 30
0.0
 40
0.0
 41
0.0
  0
VERTEX
  5
    B7
  8
0
  6
CONTINUOUS
 10
-41.3859662510396
 20
60.5624005441187
 30
0.0
 40
0.0
 41
0.0
  0
VERTEX
  5
    B8
  8
0
  6
CONTINUOUS
 10
-41.4586082456676
 20
60.2332200105748
 30
0.0
 40
0.0
 41
0.0
  0
VERTEX
  5
    B9
  8
0
  6
CONTINUOUS
 10
-41.5271542662725
 20
59.9027886291069
 30
0.0
 40
0.0
 41
0.0
  0
VERTEX
  5
    BA
  8
0
  6
CONTINUOUS
 10
-41.5921284049379
 20
59.5712625950049
 30
0.0
 40
0.0
 41
0.0
  0
VERTEX
  5
    BB
  8
0
  6
CONTINUOUS
 10
-41.6540816065122
 20
59.2388031085097
 30
0.0
 40
0.0
 41
0.0
  0
VERTEX
  5
    BC
  8
0
  6
CONTINUOUS
 10
-41.7135826094829
 20
58.9055741887562
 30
0.0
 40
0.0
 41
0.0
  0
VERTEX
  5
    BD
  8
0
  6
CONTINUOUS
 10
-41.8275375869936
 20
58.2374651041406
 30
0.0
 40
0.0
 41
0.0
  0
VERTEX
  5
    BE
  8
0
  6
CONTINUOUS
 10
-42.0509009103998
 20
56.8990319375851
 30
0.0
 40
0.0
 41
0.0
  0
VERTEX
  5
    BF
  8
0
  6
CONTINUOUS
 10
-42.1682571742248
 20
56.2309244073073
 30
0.0
 40
0.0
 41
0.0
  0
VERTEX
  5
    C0
  8
0
  6
CONTINUOUS
 10
-42.2297333042505
 20
55.897534468481
 30
0.0
 40
0.0
 41
0.0
  0
VERTEX
  5
    C1
  8
0
  6
CONTINUOUS
 10
-42.2934302627559
 20
55.5646893943264
 30
0.0
 40
0.0
 41
0.0
  0
VERTEX
  5
    C2
  8
0
  6
CONTINUOUS
 10
-42.3557354853142
 20
55.2510972010935
 30
0.0
 40
0.0
 41
0.0
  0
VERTEX
  5
    C3
  8
0
  6
CONTINUOUS
 10
-42.4202371340446
 20
54.938060109809
 30
0.0
 40
0.0
 41
0.0
  0
VERTEX
  5
    C4
  8
0
  6
CONTINUOUS
 10
-42.4869380387558
 20
54.6255854264623
 30
0.0
 40
0.0
 41
0.0
  0
VERTEX
  5
    C5
  8
0
  6
CONTINUOUS
 10
-42.5557805984482
 20
54.3136649067298
 30
0.0
 40
0.0
 41
0.0
  0
VERTEX
  5
    C6
  8
0
  6
CONTINUOUS
 10
-42.6993932407777
 20
53.6913847105151
 30
0.0
 40
0.0
 41
0.0
  0
VERTEX
  5
    C7
  8
0
  6
CONTINUOUS
 10
-42.8496280384706
 20
53.0709000750149
 30
0.0
 40
0.0
 41
0.0
  0
VERTEX
  5
    C8
  8
0
  6
CONTINUOUS
 10
-43.0044456471546
 20
52.4517396159364
 30
0.0
 40
0.0
 41
0.0
  0
VERTEX
  5
    C9
  8
0
  6
CONTINUOUS
 10
-43.3178340243459
 20
51.2150365997683
 30
0.0
 40
0.0
 41
0.0
  0
VERTEX
  5
    CA
  8
0
  6
CONTINUOUS
 10
-43.4710500651394
 20
50.5962274842903
 30
0.0
 40
0.0
 41
0.0
  0
VERTEX
  5
    CB
  8
0
  6
CONTINUOUS
 10
-43.6185140326249
 20
49.9763062953261
 30
0.0
 40
0.0
 41
0.0
  0
VERTEX
  5
    CC
  8
0
  6
CONTINUOUS
 10
-43.689385529285
 20
49.6657661451479
 30
0.0
 40
0.0
 41
0.0
  0
VERTEX
  5
    CD
  8
0
  6
CONTINUOUS
 10
-43.7580342568457
 20
49.3547684593858
 30
0.0
 40
0.0
 41
0.0
  0
VERTEX
  5
    CE
  8
0
  6
CONTINUOUS
 10
-43.8261661638194
 20
49.0341723826386
 30
0.0
 40
0.0
 41
0.0
  0
VERTEX
  5
    CF
  8
0
  6
CONTINUOUS
 10
-43.8915839021856
 20
48.7130158242232
 30
0.0
 40
0.0
 41
0.0
  0
VERTEX
  5
    D0
  8
0
  6
CONTINUOUS
 10
-43.9541752217177
 20
48.3912784672208
 30
0.0
 40
0.0
 41
0.0
  0
VERTEX
  5
    D1
  8
0
  6
CONTINUOUS
 10
-44.0138715689811
 20
48.0689511431117
 30
0.0
 40
0.0
 41
0.0
  0
VERTEX
  5
    D2
  8
0
  6
CONTINUOUS
 10
-44.0706447379133
 20
47.7460348461338
 30
0.0
 40
0.0
 41
0.0
  0
VERTEX
  5
    D3
  8
0
  6
CONTINUOUS
 10
-44.1245035204037
 20
47.4225397476409
 30
0.0
 40
0.0
 41
0.0
  0
VERTEX
  5
    D4
  8
0
  6
CONTINUOUS
 10
-44.1754903568744
 20
47.098484210461
 30
0.0
 40
0.0
 41
0.0
  0
VERTEX
  5
    D5
  8
0
  6
CONTINUOUS
 10
-44.2236779868593
 20
46.7738938032545
 30
0.0
 40
0.0
 41
0.0
  0
VERTEX
  5
    D6
  8
0
  6
CONTINUOUS
 10
-44.269166099585
 20
46.4488003148727
 30
0.0
 40
0.0
 41
0.0
  0
VERTEX
  5
    D7
  8
0
  6
CONTINUOUS
 10
-44.3120779845506
 20
46.1232407687163
 30
0.0
 40
0.0
 41
0.0
  0
VERTEX
  5
    D8
  8
0
  6
CONTINUOUS
 10
-44.3525571821075
 20
45.797256437093
 30
0.0
 40
0.0
 41
0.0
  0
VERTEX
  5
    D9
  8
0
  6
CONTINUOUS
 10
-44.3907641340399
 20
45.4708918555766
 30
0.0
 40
0.0
 41
0.0
  0
VERTEX
  5
    DA
  8
0
  6
CONTINUOUS
 10
-44.4610674788113
 20
44.8172104876379
 30
0.0
 40
0.0
 41
0.0
  0
VERTEX
  5
    DB
  8
0
  6
CONTINUOUS
 10
-44.5244823038332
 20
44.1625807604213
 30
0.0
 40
0.0
 41
0.0
  0
VERTEX
  5
    DC
  8
0
  6
CONTINUOUS
 10
-44.582558954121
 20
43.5073759006325
 30
0.0
 40
0.0
 41
0.0
  0
VERTEX
  5
    DD
  8
0
  6
CONTINUOUS
 10
-44.6367966532995
 20
42.8519267256274
 30
0.0
 40
0.0
 41
0.0
  0
VERTEX
  5
    DE
  8
0
  6
CONTINUOUS
 10
-44.7274896614957
 20
41.6905603860576
 30
0.0
 40
0.0
 41
0.0
  0
VERTEX
  5
    DF
  8
0
  6
CONTINUOUS
 10
-44.906311852802
 20
39.370106060696
 30
0.0
 40
0.0
 41
0.0
  0
VERTEX
  5
    E0
  8
0
  6
CONTINUOUS
 10
-45.0017191981834
 20
38.2108794345047
 30
0.0
 40
0.0
 41
0.0
  0
VERTEX
  5
    E1
  8
0
  6
CONTINUOUS
 10
-45.0523207286696
 20
37.6314286125344
 30
0.0
 40
0.0
 41
0.0
  0
VERTEX
  5
    E2
  8
0
  6
CONTINUOUS
 10
-45.1054699314082
 20
37.0520949090321
 30
0.0
 40
0.0
 41
0.0
  0
VERTEX
  5
    E3
  8
0
  6
CONTINUOUS
 10
-45.1639784051286
 20
36.4505189577033
 30
0.0
 40
0.0
 41
0.0
  0
VERTEX
  5
    E4
  8
0
  6
CONTINUOUS
 10
-45.2265906233469
 20
35.84923743966
 30
0.0
 40
0.0
 41
0.0
  0
VERTEX
  5
    E5
  8
0
  6
CONTINUOUS
 10
-45.2941554040321
 20
35.2484129993449
 30
0.0
 40
0.0
 41
0.0
  0
VERTEX
  5
    E6
  8
0
  6
CONTINUOUS
 10
-45.3675928425452
 20
34.648252356466
 30
0.0
 40
0.0
 41
0.0
  0
VERTEX
  5
    E7
  8
0
  6
CONTINUOUS
 10
-45.4478632907993
 20
34.0489989749679
 30
0.0
 40
0.0
 41
0.0
  0
VERTEX
  5
    E8
  8
0
  6
CONTINUOUS
 10
-45.490864377168
 20
33.749796832851
 30
0.0
 40
0.0
 41
0.0
  0
VERTEX
  5
    E9
  8
0
  6
CONTINUOUS
 10
-45.5359363364188
 20
33.4509257320024
 30
0.0
 40
0.0
 41
0.0
  0
VERTEX
  5
    EA
  8
0
  6
CONTINUOUS
 10
-45.5831967207281
 20
33.1524231751328
 30
0.0
 40
0.0
 41
0.0
  0
VERTEX
  5
    EB
  8
0
  6
CONTINUOUS
 10
-45.6327597818989
 20
32.8543275868999
 30
0.0
 40
0.0
 41
0.0
  0
VERTEX
  5
    EC
  8
0
  6
CONTINUOUS
 10
-45.68473550196
 20
32.5566780848133
 30
0.0
 40
0.0
 41
0.0
  0
VERTEX
  5
    ED
  8
0
  6
CONTINUOUS
 10
-45.7392286237647
 20
32.2595142501405
 30
0.0
 40
0.0
 41
0.0
  0
VERTEX
  5
    EE
  8
0
  6
CONTINUOUS
 10
-45.796337681589
 20
31.9628758988115
 30
0.0
 40
0.0
 41
0.0
  0
VERTEX
  5
    EF
  8
0
  6
CONTINUOUS
 10
-45.8561540317311
 20
31.6668028523249
 30
0.0
 40
0.0
 41
0.0
  0
VERTEX
  5
    F0
  8
0
  6
CONTINUOUS
 10
-45.9187608831095
 20
31.3713347086526
 30
0.0
 40
0.0
 41
0.0
  0
VERTEX
  5
    F1
  8
0
  6
CONTINUOUS
 10
-45.984232327862
 20
31.0765106131457
 30
0.0
 40
0.0
 41
0.0
  0
VERTEX
  5
    F2
  8
0
  6
CONTINUOUS
 10
-46.0529018109111
 20
30.7812364336979
 30
0.0
 40
0.0
 41
0.0
  0
VERTEX
  5
    F3
  8
0
  6
CONTINUOUS
 10
-46.1245762501935
 20
30.4866879750927
 30
0.0
 40
0.0
 41
0.0
  0
VERTEX
  5
    F4
  8
0
  6
CONTINUOUS
 10
-46.1992979641781
 20
30.1929018179772
 30
0.0
 40
0.0
 41
0.0
  0
VERTEX
  5
    F5
  8
0
  6
CONTINUOUS
 10
-46.2770976551343
 20
29.899912755027
 30
0.0
 40
0.0
 41
0.0
  0
VERTEX
  5
    F6
  8
0
  6
CONTINUOUS
 10
-46.35799421456
 20
29.6077533594287
 30
0.0
 40
0.0
 41
0.0
  0
VERTEX
  5
    F7
  8
0
  6
CONTINUOUS
 10
-46.4419945286102
 20
29.3164535533629
 30
0.0
 40
0.0
 41
0.0
  0
VERTEX
  5
    F8
  8
0
  6
CONTINUOUS
 10
-46.529093283525
 20
29.0260401764869
 30
0.0
 40
0.0
 41
0.0
  0
VERTEX
  5
    F9
  8
0
  6
CONTINUOUS
 10
-46.6192727710578
 20
28.7365365544173
 30
0.0
 40
0.0
 41
0.0
  0
VERTEX
  5
    FA
  8
0
  6
CONTINUOUS
 10
-46.7125026939036
 20
28.4479620672132
 30
0.0
 40
0.0
 41
0.0
  0
VERTEX
  5
    FB
  8
0
  6
CONTINUOUS
 10
-46.8087399711271
 20
28.1603317178585
 30
0.0
 40
0.0
 41
0.0
  0
VERTEX
  5
    FC
  8
0
  6
CONTINUOUS
 10
-46.9079285435912
 20
27.8736557007447
 30
0.0
 40
0.0
 41
0.0
  0
VERTEX
  5
    FD
  8
0
  6
CONTINUOUS
 10
-47.0099991793847
 20
27.5879389701541
 30
0.0
 40
0.0
 41
0.0
  0
VERTEX
  5
    FE
  8
0
  6
CONTINUOUS
 10
-47.114869279251
 20
27.3031808087418
 30
0.0
 40
0.0
 41
0.0
  0
VERTEX
  5
    FF
  8
0
  6
CONTINUOUS
 10
-47.2224426820161
 20
27.0193743960194
 30
0.0
 40
0.0
 41
0.0
  0
VERTEX
  5
   100
  8
0
  6
CONTINUOUS
 10
-47.3326094700169
 20
26.7365063768367
 30
0.0
 40
0.0
 41
0.0
  0
VERTEX
  5
   101
  8
0
  6
CONTINUOUS
 10
-47.4452457745293
 20
26.4545564298655
 30
0.0
 40
0.0
 41
0.0
  0
VERTEX
  5
   102
  8
0
  6
CONTINUOUS
 10
-47.5602135811965
 20
26.1734968360816
 30
0.0
 40
0.0
 41
0.0
  0
VERTEX
  5
   103
  8
0
  6
CONTINUOUS
 10
-47.6773605354571
 20
25.8932920472479
 30
0.0
 40
0.0
 41
0.0
  0
VERTEX
  5
   104
  8
0
  6
CONTINUOUS
 10
-47.9175096000604
 20
25.3352629563141
 30
0.0
 40
0.0
 41
0.0
  0
VERTEX
  5
   105
  8
0
  6
CONTINUOUS
 10
-48.1497780277908
 20
24.8120339635616
 30
0.0
 40
0.0
 41
0.0
  0
VERTEX
  5
   106
  8
0
  6
CONTINUOUS
 10
-48.386396223811
 20
24.2907775570958
 30
0.0
 40
0.0
 41
0.0
  0
VERTEX
  5
   107
  8
0
  6
CONTINUOUS
 10
-49.3451647941356
 20
22.2133916732258
 30
0.0
 40
0.0
 41
0.0
  0
VERTEX
  5
   108
  8
0
  6
CONTINUOUS
 10
-49.5806133139397
 20
21.6928930194302
 30
0.0
 40
0.0
 41
0.0
  0
VERTEX
  5
   109
  8
0
  6
CONTINUOUS
 10
-49.8120607252461
 20
21.1708951523152
 30
0.0
 40
0.0
 41
0.0
  0
VERTEX
  5
   10A
  8
0
  6
CONTINUOUS
 10
-50.0388819857441
 20
20.647073526551
 30
0.0
 40
0.0
 41
0.0
  0
VERTEX
  5
   10B
  8
0
  6
CONTINUOUS
 10
-50.2608759906041
 20
20.1212727373545
 30
0.0
 40
0.0
 41
0.0
  0
VERTEX
  5
   10C
  8
0
  6
CONTINUOUS
 10
-50.4559927856409
 20
19.6483190173353
 30
0.0
 40
0.0
 41
0.0
  0
VERTEX
  5
   10D
  8
0
  6
CONTINUOUS
 10
-50.648038024134
 20
19.173997628536
 30
0.0
 40
0.0
 41
0.0
  0
VERTEX
  5
   10E
  8
0
  6
CONTINUOUS
 10
-51.4049689829094
 20
17.2702273783825
 30
0.0
 40
0.0
 41
0.0
  0
VERTEX
  5
   10F
  8
0
  6
CONTINUOUS
 10
-51.5969878707269
 20
16.7948375446268
 30
0.0
 40
0.0
 41
0.0
  0
VERTEX
  5
   110
  8
0
  6
CONTINUOUS
 10
-51.792147524921
 20
16.3204910247596
 30
0.0
 40
0.0
 41
0.0
  0
VERTEX
  5
   111
  8
0
  6
CONTINUOUS
 10
-51.9911014965409
 20
15.8474764104734
 30
0.0
 40
0.0
 41
0.0
  0
VERTEX
  5
   112
  8
0
  6
CONTINUOUS
 10
-52.1941532628025
 20
15.3759557965037
 30
0.0
 40
0.0
 41
0.0
  0
VERTEX
  5
   113
  8
0
  6
CONTINUOUS
 10
-52.4234882558403
 20
14.8558158422524
 30
0.0
 40
0.0
 41
0.0
  0
VERTEX
  5
   114
  8
0
  6
CONTINUOUS
 10
-52.6567884662308
 20
14.3372469017987
 30
0.0
 40
0.0
 41
0.0
  0
VERTEX
  5
   115
  8
0
  6
CONTINUOUS
 10
-53.128729392251
 20
13.3026635879264
 30
0.0
 40
0.0
 41
0.0
  0
VERTEX
  5
   116
  8
0
  6
CONTINUOUS
 10
-53.3630271168508
 20
12.7851708066478
 30
0.0
 40
0.0
 41
0.0
  0
VERTEX
  5
   117
  8
0
  6
CONTINUOUS
 10
-53.5929127193324
 20
12.2664056481404
 30
0.0
 40
0.0
 41
0.0
  0
VERTEX
  5
   118
  8
0
  6
CONTINUOUS
 10
-53.7054032079153
 20
12.0062688635637
 30
0.0
 40
0.0
 41
0.0
  0
VERTEX
  5
   119
  8
0
  6
CONTINUOUS
 10
-53.8158437323855
 20
11.745484943354
 30
0.0
 40
0.0
 41
0.0
  0
VERTEX
  5
   11A
  8
0
  6
CONTINUOUS
 10
-53.9239379070912
 20
11.4839508869728
 30
0.0
 40
0.0
 41
0.0
  0
VERTEX
  5
   11B
  8
0
  6
CONTINUOUS
 10
-54.0294070783121
 20
11.2215700194145
 30
0.0
 40
0.0
 41
0.0
  0
VERTEX
  5
   11C
  8
0
  6
CONTINUOUS
 10
-54.1319951468002
 20
10.9582537634666
 30
0.0
 40
0.0
 41
0.0
  0
VERTEX
  5
   11D
  8
0
  6
CONTINUOUS
 10
-54.2314733903202
 20
10.6939234119714
 30
0.0
 40
0.0
 41
0.0
  0
VERTEX
  5
   11E
  8
0
  6
CONTINUOUS
 10
-54.3276452861895
 20
10.4285119000861
 30
0.0
 40
0.0
 41
0.0
  0
VERTEX
  5
   11F
  8
0
  6
CONTINUOUS
 10
-54.4203513338191
 20
10.1619655775442
 30
0.0
 40
0.0
 41
0.0
  0
VERTEX
  5
   120
  8
0
  6
CONTINUOUS
 10
-54.5008128417502
 20
9.92080351175237
 30
0.0
 40
0.0
 41
0.0
  0
VERTEX
  5
   121
  8
0
  6
CONTINUOUS
 10
-54.5783096594581
 20
9.67867191107669
 30
0.0
 40
0.0
 41
0.0
  0
VERTEX
  5
   122
  8
0
  6
CONTINUOUS
 10
-54.6528154741339
 20
9.4355643414133
 30
0.0
 40
0.0
 41
0.0
  0
VERTEX
  5
   123
  8
0
  6
CONTINUOUS
 10
-54.7243306115091
 20
9.19148403551221
 30
0.0
 40
0.0
 41
0.0
  0
VERTEX
  5
   124
  8
0
  6
CONTINUOUS
 10
-54.7928799778634
 20
8.9464431382259
 30
0.0
 40
0.0
 41
0.0
  0
VERTEX
  5
   125
  8
0
  6
CONTINUOUS
 10
-54.858511002033
 20
8.70046195175806
 30
0.0
 40
0.0
 41
0.0
  0
VERTEX
  5
   126
  8
0
  6
CONTINUOUS
 10
-54.9212915774189
 20
8.45356818091224
 30
0.0
 40
0.0
 41
0.0
  0
VERTEX
  5
   127
  8
0
  6
CONTINUOUS
 10
-54.9813080039945
 20
8.20579617834051
 30
0.0
 40
0.0
 41
0.0
  0
VERTEX
  5
   128
  8
0
  6
CONTINUOUS
 10
-55.0386629303144
 20
7.95718618979214
 30
0.0
 40
0.0
 41
0.0
  0
VERTEX
  5
   129
  8
0
  6
CONTINUOUS
 10
-55.0934732955217
 20
7.70778359936226
 30
0.0
 40
0.0
 41
0.0
  0
VERTEX
  5
   12A
  8
0
  6
CONTINUOUS
 10
-55.1458682713571
 20
7.45763817474054
 30
0.0
 40
0.0
 41
0.0
  0
VERTEX
  5
   12B
  8
0
  6
CONTINUOUS
 10
-55.1959872041661
 20
7.20680331245986
 30
0.0
 40
0.0
 41
0.0
  0
VERTEX
  5
   12C
  8
0
  6
CONTINUOUS
 10
-55.2439775569078
 20
6.95533528314495
 30
0.0
 40
0.0
 41
0.0
  0
VERTEX
  5
   12D
  8
0
  6
CONTINUOUS
 10
-55.2899928511627
 20
6.70329247676111
 30
0.0
 40
0.0
 41
0.0
  0
VERTEX
  5
   12E
  8
0
  6
CONTINUOUS
 10
-55.3767302956898
 20
6.19772216084247
 30
0.0
 40
0.0
 41
0.0
  0
VERTEX
  5
   12F
  8
0
  6
CONTINUOUS
 10
-55.4574706791295
 20
5.69057319068647
 30
0.0
 40
0.0
 41
0.0
  0
VERTEX
  5
   130
  8
0
  6
CONTINUOUS
 10
-55.5334503693272
 20
5.18231199763911
 30
0.0
 40
0.0
 41
0.0
  0
VERTEX
  5
   131
  8
0
  6
CONTINUOUS
 10
-55.6073044360307
 20
4.662597761161
 30
0.0
 40
0.0
 41
0.0
  0
VERTEX
  5
   132
  8
0
  6
CONTINUOUS
 10
-55.6784292883979
 20
4.14256562891271
 30
0.0
 40
0.0
 41
0.0
  0
VERTEX
  5
   133
  8
0
  6
CONTINUOUS
 10
-56.0875573342311
 20
1.03064530514073
 30
0.0
 40
0.0
 41
0.0
  0
VERTEX
  5
   134
  8
0
  6
CONTINUOUS
 10
-56.2269977236929
 20
1.72054122987471E-4
 30
0.0
 40
0.0
 41
0.0
  0
SEQEND
  5
   135
  8
0
  6
CONTINUOUS
 62
     1
  0
LINE
  5
   136
  8
0
  6
CONTINUOUS
 62
     1
 10
-37.5
 20
01.0
 30
0.0
 11
-37.5
 21
68.7259176301667
 31
0.0
  0
LINE
  5
   137
  8
0
  6
CONTINUOUS
 62
     1
 10
-41.1
 20
01.0
 30
0.0
 11
-41.1
 21
61.6778308000988
 31
0.0
  0
LINE
  5
   138
  8
0
  6
CONTINUOUS
 62
     1
 10
-44.7
 20
01.0
 30
0.0
 11
-44.7
 21
42.0484377567858
 31
0.0
  0
LINE
  5
   139
  8
0
  6
CONTINUOUS
 62
     1
 10
-48.3
 20
01.0
 30
0.0
 11
-48.3
 21
24.4800148273759
 31
0.0
  0
LINE
  5
   13A
  8
0
  6
CONTINUOUS
 62
     1
 10
-51.9
 20
01.0
 30
0.0
 11
-51.9
 21
16.0627054645726
 31
0.0
  0
LINE
  5
   13B
  8
0
  6
CONTINUOUS
 62
     1
 10
-55.5
 20
01.0
 30
0.0
 11
-55.5
 21
5.4096141640416
 31
0.0
  0
ENDBLK
  5
   13C
  8
0
  6
CONTINUOUS
 62
     7
  0
BLOCK
  5
   13D
  8
0
  6
CONTINUOUS
 62
     7
  2
*UDIM1507
 70
    65
 10
0.0
 20
0.0
 30
0.0
  3
*UDIM1507
  0
TEXT
  5
   13E
  8
0
  6
CONTINUOUS
 62
     7
 10
-456.185447696403
 20
13.2321349637016
 30
0.0
 40
3.00000002980232
  1
161
 50
89.9999999480344
 41
0.933333333333333
 72
     1
 11
-457.685447707772
 21
17.1321350038032
 31
0.0
 73
     2
  0
LINE
  5
   13F
  8
0
  6
CONTINUOUS
 62
     7
 10
-463.636050534086
 20
-22.8428668975849
 30
0.0
 11
-453.185447692871
 21
-22.8428668975849
 31
0.0
  0
LINE
  5
   140
  8
0
  6
CONTINUOUS
 62
     7
 10
-463.636050534086
 20
57.6571311950664
 30
0.0
 11
-453.185447692871
 21
57.6571311950664
 31
0.0
  0
LINE
  5
   141
  8
0
  6
CONTINUOUS
 62
     7
 10
-455.185447692871
 20
-22.8428668975849
 30
0.0
 11
-455.185447692871
 21
57.6571311950664
 31
0.0
  0
LINE
  5
   142
  8
0
  6
CONTINUOUS
 62
     7
 10
-455.706392122823
 20
-19.888443620378
 30
0.0
 11
-455.185447692871
 21
-22.8428668975849
 31
0.0
  0
LINE
  5
   143
  8
0
  6
CONTINUOUS
 62
     7
 10
-455.185447692871
 20
-22.8428668975849
 30
0.0
 11
-454.66450326292
 21
-19.888443620378
 31
0.0
  0
LINE
  5
   144
  8
0
  6
CONTINUOUS
 62
     7
 10
-454.66450326292
 20
54.7027079178595
 30
0.0
 11
-455.185447692871
 21
57.6571311950664
 31
0.0
  0
LINE
  5
   145
  8
0
  6
CONTINUOUS
 62
     7
 10
-455.185447692871
 20
57.6571311950664
 30
0.0
 11
-455.706392122823
 21
54.7027079178595
 31
0.0
  0
ENDBLK
  5
   146
  8
0
  6
CONTINUOUS
 62
     7
  0
BLOCK
  5
   147
  8
0
  6
CONTINUOUS
 62
     7
  2
*UDIM1508
 70
    65
 10
0.0
 20
0.0
 30
0.0
  3
*UDIM1508
  0
TEXT
  5
   148
  8
0
  6
CONTINUOUS
 62
     7
 10
-497.436047391294
 20
105.044448856057
 30
0.0
 40
3.00000002980232
  1
117
 50
359.999999948034
 41
0.933333333333333
 72
     1
 11
-493.536047351198
 21
106.54444886744
 31
0.0
 73
     2
  0
LINE
  5
   149
  8
0
  6
CONTINUOUS
 62
     7
 10
-464.011050534086
 20
58.0321311950664
 30
0.0
 11
-464.011050534086
 21
106.044448852539
 31
0.0
  0
LINE
  5
   14A
  8
0
  6
CONTINUOUS
 62
     7
 10
-522.511050534086
 20
58.0321311950664
 30
0.0
 11
-522.511050534086
 21
106.044448852539
 31
0.0
  0
LINE
  5
   14B
  8
0
  6
CONTINUOUS
 62
     7
 10
-464.011050534086
 20
104.044448852539
 30
0.0
 11
-522.511050534086
 21
104.044448852539
 31
0.0
  0
LINE
  5
   14C
  8
0
  6
CONTINUOUS
 62
     7
 10
-466.965473811292
 20
103.523504422587
 30
0.0
 11
-464.011050534086
 21
104.044448852539
 31
0.0
  0
LINE
  5
   14D
  8
0
  6
CONTINUOUS
 62
     7
 10
-464.011050534086
 20
104.044448852539
 30
0.0
 11
-466.965473811292
 21
104.565393282491
 31
0.0
  0
LINE
  5
   14E
  8
0
  6
CONTINUOUS
 62
     7
 10
-519.556627256879
 20
104.565393282491
 30
0.0
 11
-522.511050534086
 21
104.044448852539
 31
0.0
  0
LINE
  5
   14F
  8
0
  6
CONTINUOUS
 62
     7
 10
-522.511050534086
 20
104.044448852539
 30
0.0
 11
-519.556627256879
 21
103.523504422587
 31
0.0
  0
ENDBLK
  5
   150
  8
0
  6
CONTINUOUS
 62
     7
  0
BLOCK
  5
   151
  8
0
  6
CONTINUOUS
 62
     7
  2
*UDIM1509
 70
    65
 10
0.0
 20
0.0
 30
0.0
  3
*UDIM1509
  0
TEXT
  5
   152
  8
0
  6
CONTINUOUS
 62
     7
 10
-561.408233644843
 20
-61.2428554699474
 30
0.0
 40
3.00000002980232
  1
46
 50
89.9999999480344
 41
0.933333333333333
 72
     1
 11
-562.908233657479
 21
-58.7428554437536
 31
0.0
 73
     2
  0
LINE
  5
   153
  8
0
  6
CONTINUOUS
 62
     7
 10
-512.561487548512
 20
-69.9678479004085
 30
0.0
 11
-562.408233642578
 21
-69.9678479004085
 31
0.0
  0
LINE
  5
   154
  8
0
  6
CONTINUOUS
 62
     7
 10
-536.261005583876
 20
-46.9678591008758
 30
0.0
 11
-562.408233642578
 21
-46.9678591008758
 31
0.0
  0
LINE
  5
   155
  8
0
  6
CONTINUOUS
 62
     7
 10
-560.408233642578
 20
-69.9678479004085
 30
0.0
 11
-560.408233642578
 21
-46.9678591008758
 31
0.0
  0
LINE
  5
   156
  8
0
  6
CONTINUOUS
 62
     7
 10
-560.92917807253
 20
-67.0134246232016
 30
0.0
 11
-560.408233642578
 21
-69.9678479004085
 31
0.0
  0
LINE
  5
   157
  8
0
  6
CONTINUOUS
 62
     7
 10
-560.408233642578
 20
-69.9678479004085
 30
0.0
 11
-559.887289212627
 21
-67.0134246232016
 31
0.0
  0
LINE
  5
   158
  8
0
  6
CONTINUOUS
 62
     7
 10
-559.887289212627
 20
-49.9222823780827
 30
0.0
 11
-560.408233642578
 21
-46.9678591008758
 31
0.0
  0
LINE
  5
   159
  8
0
  6
CONTINUOUS
 62
     7
 10
-560.408233642578
 20
-46.9678591008758
 30
0.0
 11
-560.92917807253
 21
-49.9222823780827
 31
0.0
  0
ENDBLK
  5
   15A
  8
0
  6
CONTINUOUS
 62
     7
  0
BLOCK
  5
   15B
  8
0
  6
CONTINUOUS
 62
     5
  2
*UDIM1510
 70
    65
 10
0.0
 20
0.0
 30
0.0
  3
*UDIM1510
  0
TEXT
  5
   15C
  8
0
  6
CONTINUOUS
 62
     5
 10
-552.347069807236
 20
40.3446349162245
 30
0.0
 40
3.00000002980232
  1
125,25
 50
89.9999999480344
 41
0.933333333333333
 72
     1
 11
-553.847069814801
 21
48.4446349980494
 31
0.0
 73
     2
  0
LINE
  5
   15D
  8
0
  6
CONTINUOUS
 62
     5
 10
-536.261019504162
 20
80.0321103815358
 30
0.0
 11
-553.3470697999
 21
80.0321103815358
 31
0.0
  0
LINE
  5
   15E
  8
0
  6
CONTINUOUS
 62
     5
 10
-551.3470697999
 20
17.4071502685547
 30
0.0
 11
-551.3470697999
 21
80.0321103815358
 31
0.0
  0
LINE
  5
   15F
  8
0
  6
CONTINUOUS
 62
     5
 10
-551.868014229852
 20
20.3615735457616
 30
0.0
 11
-551.3470697999
 21
17.4071502685547
 31
0.0
  0
LINE
  5
   160
  8
0
  6
CONTINUOUS
 62
     5
 10
-551.3470697999
 20
17.4071502685547
 30
0.0
 11
-550.826125369948
 21
20.3615735457616
 31
0.0
  0
LINE
  5
   161
  8
0
  6
CONTINUOUS
 62
     5
 10
-550.826125369948
 20
77.0776871043288
 30
0.0
 11
-551.3470697999
 21
80.0321103815358
 31
0.0
  0
LINE
  5
   162
  8
0
  6
CONTINUOUS
 62
     5
 10
-551.3470697999
 20
80.0321103815358
 30
0.0
 11
-551.868014229852
 21
77.0776871043288
 31
0.0
  0
ENDBLK
  5
   163
  8
0
  6
CONTINUOUS
 62
     5
  0
BLOCK
  5
   164
  8
0
  6
CONTINUOUS
 62
     7
  2
*UDIM1511
 70
    65
 10
0.0
 20
0.0
 30
0.0
  3
*UDIM1511
  0
TEXT
  5
   165
  8
0
  6
CONTINUOUS
 62
     7
 10
-497.4360245246
 20
98.802597049416
 30
0.0
 40
3.00000002980232
  1
105
 50
359.999999948034
 41
0.933333333333333
 72
     1
 11
-493.536024484504
 21
100.3025970608
 31
0.0
 73
     2
  0
LINE
  5
   166
  8
0
  6
CONTINUOUS
 62
     7
 10
-467.011036101456
 20
79.6321258544922
 30
0.0
 11
-467.011036101456
 21
99.8025970458984
 31
0.0
  0
LINE
  5
   167
  8
0
  6
CONTINUOUS
 62
     7
 10
-519.511005583864
 20
44.4071502685547
 30
0.0
 11
-519.511005583864
 21
99.8025970458984
 31
0.0
  0
LINE
  5
   168
  8
0
  6
CONTINUOUS
 62
     7
 10
-467.011036101456
 20
97.8025970458985
 30
0.0
 11
-519.511005583864
 21
97.8025970458985
 31
0.0
  0
LINE
  5
   169
  8
0
  6
CONTINUOUS
 62
     7
 10
-469.965459378663
 20
97.2816526159468
 30
0.0
 11
-467.011036101456
 21
97.8025970458985
 31
0.0
  0
LINE
  5
   16A
  8
0
  6
CONTINUOUS
 62
     7
 10
-467.011036101456
 20
97.8025970458985
 30
0.0
 11
-469.965459378663
 21
98.3235414758501
 31
0.0
  0
LINE
  5
   16B
  8
0
  6
CONTINUOUS
 62
     7
 10
-516.556582306657
 20
98.3235414758501
 30
0.0
 11
-519.511005583864
 21
97.8025970458985
 31
0.0
  0
LINE
  5
   16C
  8
0
  6
CONTINUOUS
 62
     7
 10
-519.511005583864
 20
97.8025970458985
 30
0.0
 11
-516.556582306657
 21
97.2816526159468
 31
0.0
  0
ENDBLK
  5
   16D
  8
0
  6
CONTINUOUS
 62
     7
  0
BLOCK
  5
   16E
  8
0
  6
CONTINUOUS
 62
     7
  2
*UDIM1512
 70
    65
 10
0.0
 20
0.0
 30
0.0
  3
*UDIM1512
  0
TEXT
  5
   16F
  8
0
  6
CONTINUOUS
 62
     7
 10
-487.286001626782
 20
84.9813690208096
 30
0.0
 40
3.00000002980232
  1
35
 50
359.999999948034
 41
0.933333333333333
 72
     1
 11
-484.786001600594
 21
86.4813690334559
 31
0.0
 73
     2
  0
LINE
  5
   170
  8
0
  6
CONTINUOUS
 62
     7
 10
-475.760993130655
 20
81.7118355722115
 30
0.0
 11
-475.760941602889
 21
85.981369018409
 31
0.0
  0
LINE
  5
   171
  8
0
  6
CONTINUOUS
 62
     7
 10
-493.260992979411
 20
82.0090661995246
 30
0.0
 11
-493.260935366197
 21
85.9813690183443
 31
0.0
  0
LINE
  5
   172
  8
0
  6
CONTINUOUS
 62
     7
 10
-475.760965740311
 20
83.9813690185547
 30
0.0
 11
-493.26096437366
 21
83.9813690185547
 31
0.0
  0
LINE
  5
   173
  8
0
  6
CONTINUOUS
 62
     7
 10
-478.715389017518
 20
83.460424588603
 30
0.0
 11
-475.760965740311
 21
83.9813690185547
 31
0.0
  0
LINE
  5
   174
  8
0
  6
CONTINUOUS
 62
     7
 10
-475.760965740311
 20
83.9813690185547
 30
0.0
 11
-478.715389017518
 21
84.5023134485064
 31
0.0
  0
LINE
  5
   175
  8
0
  6
CONTINUOUS
 62
     7
 10
-490.306541096453
 20
84.5023134485064
 30
0.0
 11
-493.26096437366
 21
83.9813690185547
 31
0.0
  0
LINE
  5
   176
  8
0
  6
CONTINUOUS
 62
     7
 10
-493.26096437366
 20
83.9813690185547
 30
0.0
 11
-490.306541096453
 21
83.460424588603
 31
0.0
  0
ENDBLK
  5
   177
  8
0
  6
CONTINUOUS
 62
     7
  0
BLOCK
  5
   178
  8
0
  6
CONTINUOUS
 62
     7
  2
*UDIM1513
 70
    65
 10
0.0
 20
0.0
 30
0.0
  3
*UDIM1513
  0
TEXT
  5
   179
  8
0
  6
CONTINUOUS
 62
     7
 10
-504.786001621912
 20
84.9813690208096
 30
0.0
 40
3.00000002980232
  1
35
 50
359.999999948034
 41
0.933333333333333
 72
     1
 11
-502.286001595724
 21
86.4813690334559
 31
0.0
 73
     2
  0
LINE
  5
   17A
  8
0
  6
CONTINUOUS
 62
     7
 10
-510.760993447899
 20
-40.7178497062871
 30
0.0
 11
-510.759464351633
 21
85.981369018409
 31
0.0
  0
LINE
  5
   17B
  8
0
  6
CONTINUOUS
 62
     7
 10
-493.26096437366
 20
83.9813690185547
 30
0.0
 11
-510.759488489055
 21
83.9813690185547
 31
0.0
  0
LINE
  5
   17C
  8
0
  6
CONTINUOUS
 62
     7
 10
-496.215387650867
 20
83.460424588603
 30
0.0
 11
-493.26096437366
 21
83.9813690185547
 31
0.0
  0
LINE
  5
   17D
  8
0
  6
CONTINUOUS
 62
     7
 10
-493.26096437366
 20
83.9813690185547
 30
0.0
 11
-496.215387650867
 21
84.5023134485064
 31
0.0
  0
LINE
  5
   17E
  8
0
  6
CONTINUOUS
 62
     7
 10
-507.805065211848
 20
84.5023134485064
 30
0.0
 11
-510.759488489055
 21
83.9813690185547
 31
0.0
  0
LINE
  5
   17F
  8
0
  6
CONTINUOUS
 62
     7
 10
-510.759488489055
 20
83.9813690185547
 30
0.0
 11
-507.805065211848
 21
83.460424588603
 31
0.0
  0
ENDBLK
  5
   180
  8
0
  6
CONTINUOUS
 62
     7
  0
BLOCK
  5
   181
  8
0
  6
CONTINUOUS
 62
     7
  2
*UDIM1514
 70
    65
 10
0.0
 20
0.0
 30
0.0
  3
*UDIM1514
  0
TEXT
  5
   182
  8
0
  6
CONTINUOUS
 62
     7
 10
-522.286001606573
 20
84.9813690208096
 30
0.0
 40
3.00000002980232
  1
35
 50
359.999999948034
 41
0.933333333333333
 72
     1
 11
-519.786001580385
 21
86.4813690334559
 31
0.0
 73
     2
  0
LINE
  5
   183
  8
0
  6
CONTINUOUS
 62
     7
 10
-528.260994142035
 20
-38.2678497174434
 30
0.0
 11
-528.259494614111
 21
85.981369018409
 31
0.0
  0
LINE
  5
   184
  8
0
  6
CONTINUOUS
 62
     7
 10
-510.759488489055
 20
83.9813690185547
 30
0.0
 11
-528.259518751534
 21
83.9813690185547
 31
0.0
  0
LINE
  5
   185
  8
0
  6
CONTINUOUS
 62
     7
 10
-513.713911766262
 20
83.460424588603
 30
0.0
 11
-510.759488489055
 21
83.9813690185547
 31
0.0
  0
LINE
  5
   186
  8
0
  6
CONTINUOUS
 62
     7
 10
-510.759488489055
 20
83.9813690185547
 30
0.0
 11
-513.713911766262
 21
84.5023134485064
 31
0.0
  0
LINE
  5
   187
  8
0
  6
CONTINUOUS
 62
     7
 10
-525.305095474327
 20
84.5023134485064
 30
0.0
 11
-528.259518751534
 21
83.9813690185547
 31
0.0
  0
LINE
  5
   188
  8
0
  6
CONTINUOUS
 62
     7
 10
-528.259518751534
 20
83.9813690185547
 30
0.0
 11
-525.305095474327
 21
83.460424588603
 31
0.0
  0
ENDBLK
  5
   189
  8
0
  6
CONTINUOUS
 62
     7
  0
BLOCK
  5
   18A
  8
0
  6
CONTINUOUS
 62
     7
  2
*UDIM1515
 70
    65
 10
0.0
 20
0.0
 30
0.0
  3
*UDIM1515
  0
TEXT
  5
   18B
  8
0
  6
CONTINUOUS
 62
     7
 10
-485.711047431096
 20
91.2232132005811
 30
0.0
 40
3.00000002980232
  1
52,5
 50
359.999999948034
 41
0.933333333333333
 72
     1
 11
-480.411047377092
 21
92.7232132107019
 31
0.0
 73
     2
  0
LINE
  5
   18C
  8
0
  6
CONTINUOUS
 62
     7
 10
-467.01103578754
 20
79.6321258544921
 30
0.0
 11
-467.01103183499
 21
92.2232131958007
 31
0.0
  0
LINE
  5
   18D
  8
0
  6
CONTINUOUS
 62
     7
 10
-493.261057625472
 20
84.7321719929921
 30
0.0
 11
-493.26105527391
 21
92.2232131958007
 31
0.0
  0
LINE
  5
   18E
  8
0
  6
CONTINUOUS
 62
     7
 10
-467.011032462823
 20
90.2232131958008
 30
0.0
 11
-493.261055901743
 21
90.2232131958008
 31
0.0
  0
LINE
  5
   18F
  8
0
  6
CONTINUOUS
 62
     7
 10
-469.96545574003
 20
89.7022687658491
 30
0.0
 11
-467.011032462823
 21
90.2232131958008
 31
0.0
  0
LINE
  5
   190
  8
0
  6
CONTINUOUS
 62
     7
 10
-467.011032462823
 20
90.2232131958008
 30
0.0
 11
-469.96545574003
 21
90.7441576257525
 31
0.0
  0
LINE
  5
   191
  8
0
  6
CONTINUOUS
 62
     7
 10
-490.306632624536
 20
90.7441576257525
 30
0.0
 11
-493.261055901743
 21
90.2232131958008
 31
0.0
  0
LINE
  5
   192
  8
0
  6
CONTINUOUS
 62
     7
 10
-493.261055901743
 20
90.2232131958008
 30
0.0
 11
-490.306632624536
 21
89.7022687658491
 31
0.0
  0
ENDBLK
  5
   193
  8
0
  6
CONTINUOUS
 62
     7
  0
BLOCK
  5
   194
  8
0
  6
CONTINUOUS
 62
     7
  2
*UDIM1516
 70
    65
 10
0.0
 20
0.0
 30
0.0
  3
*UDIM1516
  0
TEXT
  5
   195
  8
0
  6
CONTINUOUS
 62
     7
 10
-506.186028332617
 20
110.87414551133
 30
0.0
 40
3.00000002980232
  1
140
 50
359.999999948034
 41
0.933333333333333
 72
     1
 11
-502.286028292521
 21
112.374145522714
 31
0.0
 73
     2
  0
LINE
  5
   196
  8
0
  6
CONTINUOUS
 62
     7
 10
-467.01103578754
 20
79.6321258544921
 30
0.0
 11
-467.011025666238
 21
111.874145507812
 31
0.0
  0
LINE
  5
   197
  8
0
  6
CONTINUOUS
 62
     7
 10
-537.011012790336
 20
79.6321182250976
 30
0.0
 11
-537.010999154017
 21
111.874145507812
 31
0.0
  0
LINE
  5
   198
  8
0
  6
CONTINUOUS
 62
     7
 10
-467.011026294071
 20
109.874145507813
 30
0.0
 11
-537.01099999989
 21
109.874145507813
 31
0.0
  0
LINE
  5
   199
  8
0
  6
CONTINUOUS
 62
     7
 10
-469.965449571278
 20
109.353201077861
 30
0.0
 11
-467.011026294071
 21
109.874145507813
 31
0.0
  0
LINE
  5
   19A
  8
0
  6
CONTINUOUS
 62
     7
 10
-467.011026294071
 20
109.874145507813
 30
0.0
 11
-469.965449571278
 21
110.395089937764
 31
0.0
  0
LINE
  5
   19B
  8
0
  6
CONTINUOUS
 62
     7
 10
-534.056576722683
 20
110.395089937764
 30
0.0
 11
-537.01099999989
 21
109.874145507813
 31
0.0
  0
LINE
  5
   19C
  8
0
  6
CONTINUOUS
 62
     7
 10
-537.01099999989
 20
109.874145507813
 30
0.0
 11
-534.056576722683
 21
109.353201077861
 31
0.0
  0
ENDBLK
  5
   19D
  8
0
  6
CONTINUOUS
 62
     7
  0
BLOCK
  5
   19E
  8
0
  6
CONTINUOUS
 62
     7
  2
*UDIM1517
 70
    65
 10
0.0
 20
0.0
 30
0.0
  3
*UDIM1517
  0
TEXT
  5
   19F
  8
0
  6
CONTINUOUS
 62
     7
 10
-561.296104434685
 20
12.3571235379077
 30
0.0
 40
3.00000002980232
  1
254
 50
89.9999999480344
 41
0.933333333333333
 72
     1
 11
-562.796104446054
 21
16.2571235780093
 31
0.0
 73
     2
  0
LINE
  5
   1A0
  8
0
  6
CONTINUOUS
 62
     7
 10
-536.261005583876
 20
-46.9678591008758
 30
0.0
 11
-562.296104431152
 21
-46.9678591008758
 31
0.0
  0
LINE
  5
   1A1
  8
0
  6
CONTINUOUS
 62
     7
 10
-536.261019504162
 20
80.0321103815358
 30
0.0
 11
-562.296104431152
 21
80.0321103815358
 31
0.0
  0
LINE
  5
   1A2
  8
0
  6
CONTINUOUS
 62
     7
 10
-560.296104431152
 20
-46.9678591008758
 30
0.0
 11
-560.296104431152
 21
80.0321103815358
 31
0.0
  0
LINE
  5
   1A3
  8
0
  6
CONTINUOUS
 62
     7
 10
-560.817048861104
 20
-44.0134358236688
 30
0.0
 11
-560.296104431152
 21
-46.9678591008758
 31
0.0
  0
LINE
  5
   1A4
  8
0
  6
CONTINUOUS
 62
     7
 10
-560.296104431152
 20
-46.9678591008758
 30
0.0
 11
-559.775160001201
 21
-44.0134358236688
 31
0.0
  0
LINE
  5
   1A5
  8
0
  6
CONTINUOUS
 62
     7
 10
-559.775160001201
 20
77.0776871043288
 30
0.0
 11
-560.296104431152
 21
80.0321103815358
 31
0.0
  0
LINE
  5
   1A6
  8
0
  6
CONTINUOUS
 62
     7
 10
-560.296104431152
 20
80.0321103815358
 30
0.0
 11
-560.817048861104
 21
77.0776871043288
 31
0.0
  0
ENDBLK
  5
   1A7
  8
0
  6
CONTINUOUS
 62
     7
  0
BLOCK
  5
   1A8
  8
0
  6
CONTINUOUS
 62
     7
  2
MOSTRINA
 70
    64
 10
0.0
 20
0.0
 30
0.0
  3
MOSTRINA
  0
LINE
  5
   1A9
  8
0
  6
CONTINUOUS
 62
     3
 10
173.338256835938
 20
30.7306251525879
 30
0.0
 11
173.338256835938
 21
189.230621337891
 31
0.0
  0
LINE
  5
   1AA
  8
0
  6
CONTINUOUS
 62
     3
 10
57.5882568359375
 20
29.4806251525879
 30
0.0
 11
172.088256835938
 21
29.4806251525879
 31
0.0
  0
LINE
  5
   1AB
  8
0
  6
CONTINUOUS
 62
     3
 10
56.3382568359375
 20
30.7306251525879
 30
0.0
 11
56.3382568359375
 21
189.230621337891
 31
0.0
  0
LINE
  5
   1AC
  8
0
  6
CONTINUOUS
 62
     3
 10
57.5882568359375
 20
190.480621337891
 30
0.0
 11
172.088256835938
 21
190.480621337891
 31
0.0
  0
LINE
  5
   1AD
  8
0
  6
CONTINUOUS
 62
     3
 10
167.838256835938
 20
56.9806251525879
 30
0.0
 11
167.838256835938
 21
162.980625152588
 31
0.0
  0
LINE
  5
   1AE
  8
0
  6
CONTINUOUS
 62
     3
 10
61.8382568359375
 20
56.9806251525879
 30
0.0
 11
167.838256835938
 21
56.9806251525879
 31
0.0
  0
LINE
  5
   1AF
  8
0
  6
CONTINUOUS
 62
     3
 10
61.8382568359375
 20
56.9806251525879
 30
0.0
 11
61.8382568359375
 21
162.980625152588
 31
0.0
  0
LINE
  5
   1B0
  8
0
  6
CONTINUOUS
 62
     3
 10
61.8382568359375
 20
162.980621337891
 30
0.0
 11
167.838256835938
 21
162.980621337891
 31
0.0
  0
LINE
  5
   1B1
  8
0
  6
CONTINUOUS
 62
     3
 10
168.838256835938
 20
48.4806251525879
 30
0.0
 11
168.838256835938
 21
49.4806251525879
 31
0.0
  0
LINE
  5
   1B2
  8
0
  6
CONTINUOUS
 62
     3
 10
61.8382568359375
 20
50.4806251525879
 30
0.0
 11
167.838256835938
 21
50.4806251525879
 31
0.0
  0
LINE
  5
   1B3
  8
0
  6
CONTINUOUS
 62
     3
 10
60.8382568359375
 20
48.4806251525879
 30
0.0
 11
60.8382568359375
 21
49.4806251525879
 31
0.0
  0
LINE
  5
   1B4
  8
0
  6
CONTINUOUS
 62
     3
 10
61.8382568359375
 20
49.4806251525879
 30
0.0
 11
167.838256835938
 21
49.4806251525879
 31
0.0
  0
LINE
  5
   1B5
  8
0
  6
CONTINUOUS
 62
     3
 10
60.8382568359375
 20
29.4806251525879
 30
0.0
 11
60.8382568359375
 21
48.4806251525879
 31
0.0
  0
LINE
  5
   1B6
  8
0
  6
CONTINUOUS
 62
     3
 10
60.8382568359375
 20
49.4806213378906
 30
0.0
 11
60.8382568359375
 21
190.480621337891
 31
0.0
  0
LINE
  5
   1B7
  8
0
  6
CONTINUOUS
 62
     3
 10
61.8382568359375
 20
29.4806251525879
 30
0.0
 11
61.8382568359375
 21
49.4806251525879
 31
0.0
  0
LINE
  5
   1B8
  8
0
  6
CONTINUOUS
 62
     3
 10
61.8382568359375
 20
162.980621337891
 30
0.0
 11
61.8382568359375
 21
169.480621337891
 31
0.0
  0
LINE
  5
   1B9
  8
0
  6
CONTINUOUS
 62
     3
 10
61.8382568359375
 20
50.4806251525879
 30
0.0
 11
61.8382568359375
 21
56.9806251525879
 31
0.0
  0
LINE
  5
   1BA
  8
0
  6
CONTINUOUS
 62
     3
 10
168.838256835938
 20
29.4806251525879
 30
0.0
 11
168.838256835938
 21
48.4806251525879
 31
0.0
  0
LINE
  5
   1BB
  8
0
  6
CONTINUOUS
 62
     3
 10
168.838256835938
 20
49.4806251525879
 30
0.0
 11
168.838256835938
 21
190.480621337891
 31
0.0
  0
LINE
  5
   1BC
  8
0
  6
CONTINUOUS
 62
     3
 10
167.838256835938
 20
50.4806251525879
 30
0.0
 11
167.838256835938
 21
56.9806251525879
 31
0.0
  0
LINE
  5
   1BD
  8
0
  6
CONTINUOUS
 62
     3
 10
167.838256835938
 20
162.980621337891
 30
0.0
 11
167.838256835938
 21
169.480621337891
 31
0.0
  0
LINE
  5
   1BE
  8
0
  6
CONTINUOUS
 62
     3
 10
167.838256835938
 20
29.4806251525879
 30
0.0
 11
167.838256835938
 21
49.4806251525879
 31
0.0
  0
LINE
  5
   1BF
  8
0
  6
CONTINUOUS
 62
     3
 10
60.8382568359375
 20
170.480621337891
 30
0.0
 11
168.838256835938
 21
170.480621337891
 31
0.0
  0
LINE
  5
   1C0
  8
0
  6
CONTINUOUS
 62
     3
 10
61.8382568359375
 20
169.480621337891
 30
0.0
 11
167.838256835938
 21
169.480621337891
 31
0.0
  0
ARC
  5
   1C1
  8
0
  6
CONTINUOUS
 62
     3
 10
57.5882568359375
 20
30.7306251525879
 30
0.0
 40
1.25
 50
180.0
 51
270.0
  0
ARC
  5
   1C2
  8
0
  6
CONTINUOUS
 62
     3
 10
172.088256835938
 20
30.7306251525879
 30
0.0
 40
1.25
 50
270.0
 51
360.0
  0
ARC
  5
   1C3
  8
0
  6
CONTINUOUS
 62
     3
 10
172.088256835938
 20
189.230621337891
 30
0.0
 40
1.25
 50
0.0
 51
90.0
  0
ARC
  5
   1C4
  8
0
  6
CONTINUOUS
 62
     3
 10
57.5882568359375
 20
189.230621337891
 30
0.0
 40
1.25
 50
90.0
 51
180.0
  0
LINE
  5
   1C5
  8
0
  6
DOT
 62
     3
 10
60.3382577409677
 20
179.7306252571
 30
0.0
 11
60.8382568359375
 21
179.7306252571
 31
0.0
  0
LINE
  5
   1C6
  8
0
  6
DOT
 62
     3
 10
60.3382577409676
 20
181.2306252571
 30
0.0
 11
60.8382568359375
 21
181.2306252571
 31
0.0
  0
LINE
  5
   1C7
  8
0
  6
CONTINUOUS
 62
     3
 10
168.338257745313
 20
179.730625257273
 30
0.0
 11
168.838256835938
 21
179.730625257273
 31
0.0
  0
LINE
  5
   1C8
  8
0
  6
CONTINUOUS
 62
     3
 10
168.338257745314
 20
181.230625257273
 30
0.0
 11
168.838256835938
 21
181.230625257273
 31
0.0
  0
ARC
  5
   1C9
  8
0
  6
DOT
 62
     3
 10
60.3382577401871
 20
180.480625257147
 30
0.0
 40
0.749999999345164
 50
90.0
 51
270.0
  0
ARC
  5
   1CA
  8
0
  6
CONTINUOUS
 62
     3
 10
61.338257740822
 20
180.480625256974
 30
0.0
 40
0.750000000009701
 50
270.0
 51
450.0
  0
LINE
  5
   1CB
  8
0
  6
CONTINUOUS
 62
     3
 10
60.8382568359375
 20
181.2306252571
 30
0.0
 11
61.3382577409688
 21
181.2306252571
 31
0.0
  0
LINE
  5
   1CC
  8
0
  6
CONTINUOUS
 62
     3
 10
60.8382568359375
 20
179.7306252571
 30
0.0
 11
61.3382577409689
 21
179.7306252571
 31
0.0
  0
ARC
  5
   1CD
  8
0
  6
CONTINUOUS
 62
     3
 10
168.338257745503
 20
180.480625256952
 30
0.0
 40
0.750000000048506
 50
90.0000000038822
 51
269.999999996024
  0
ARC
  5
   1CE
  8
0
  6
DOT
 62
     3
 10
169.338257745421
 20
180.480625256965
 30
0.0
 40
0.750000000029104
 50
270.000000002449
 51
449.999999997486
  0
LINE
  5
   1CF
  8
0
  6
DOT
 62
     3
 10
168.838256835938
 20
181.230625257273
 30
0.0
 11
169.338257745315
 21
181.230625257273
 31
0.0
  0
LINE
  5
   1D0
  8
0
  6
DOT
 62
     3
 10
168.838256835938
 20
179.730625257273
 30
0.0
 11
169.338257745315
 21
179.730625257273
 31
0.0
  0
POINT
  5
   1D1
  8
0
  6
CONTINUOUS
 62
     3
 10
114.838256835938
 20
109.980621337891
 30
0.0
  0
ENDBLK
  5
   1D2
  8
0
  6
CONTINUOUS
 62
     7
  0
BLOCK
  5
   1D3
  8
0
  6
CONTINUOUS
 62
     7
  2
*UDIM1518
 70
    65
 10
0.0
 20
0.0
 30
0.0
  3
*UDIM1518
  0
TEXT
  5
   1D4
  8
0
  6
CONTINUOUS
 62
     7
 10
-281.369590115407
 20
6.44311955427571
 30
0.0
 40
3.00000002980232
  1
7
 50
407.076230773331
 41
0.933333333333334
 72
     1
 11
-281.71885359826
 21
8.27014311413732
 31
0.0
 73
     2
  0
TEXT
  5
   1D5
  8
0
  6
CONTINUOUS
 62
     7
 10
-283.514817942073
 20
4.13649916195174
 30
0.0
 40
3.00000002980232
  1
Ø
 50
407.076230773331
 41
0.933333333333334
 72
     1
 11
-283.864081424926
 21
5.96352272181335
 31
0.0
 73
     2
  0
LINE
  5
   1D6
  8
0
  6
CONTINUOUS
 62
     7
 10
-263.097615346252
 20
24.6213797402048
 30
0.0
 11
-282.782557497414
 21
3.45547445816987
 31
0.0
  0
LINE
  5
   1D7
  8
0
  6
CONTINUOUS
 62
     7
 10
-261.467047103579
 20
27.1395630548159
 30
0.0
 11
-263.097615346252
 21
24.6213797402048
 31
0.0
  0
LINE
  5
   1D8
  8
0
  6
CONTINUOUS
 62
     7
 10
-263.097615346252
 20
24.6213797402048
 30
0.0
 11
-260.704113108909
 21
26.4300110016386
 31
0.0
  0
LINE
  5
   1D9
  8
0
  6
CONTINUOUS
 62
     7
 10
-265.919976822203
 20
20.8217406561216
 30
0.0
 11
-264.28940857953
 21
23.3399239707327
 31
0.0
  0
LINE
  5
   1DA
  8
0
  6
CONTINUOUS
 62
     7
 10
-264.28940857953
 20
23.3399239707327
 30
0.0
 11
-266.682910816872
 21
21.5312927092989
 31
0.0
  0
ENDBLK
  5
   1DB
  8
0
  6
CONTINUOUS
 62
     7
  0
BLOCK
  5
   1DC
  8
0
  6
CONTINUOUS
 62
     7
  2
*UDIM1519
 70
    65
 10
0.0
 20
0.0
 30
0.0
  3
*UDIM1519
  0
TEXT
  5
   1DD
  8
0
  6
CONTINUOUS
 62
     7
 10
-256.46851199776
 20
72.2668304511257
 30
0.0
 40
3.00000002980232
  1
80
 50
359.999999844103
 41
0.933333333333333
 72
     1
 11
-253.968511968851
 21
73.7668304592371
 31
0.0
 73
     2
  0
LINE
  5
   1DE
  8
0
  6
CONTINUOUS
 62
     7
 10
-263.693511962891
 20
62.1056518554688
 30
0.0
 11
-263.693511962891
 21
73.2668304443359
 31
0.0
  0
LINE
  5
   1DF
  8
0
  6
CONTINUOUS
 62
     7
 10
-243.693511962891
 20
62.1056518554688
 30
0.0
 11
-243.693511962891
 21
73.2668304443359
 31
0.0
  0
LINE
  5
   1E0
  8
0
  6
CONTINUOUS
 62
     7
 10
-263.693511962891
 20
71.2668304443359
 30
0.0
 11
-243.693511962891
 21
71.2668304443359
 31
0.0
  0
LINE
  5
   1E1
  8
0
  6
CONTINUOUS
 62
     7
 10
-260.739088685684
 20
71.7877748742876
 30
0.0
 11
-263.693511962891
 21
71.2668304443359
 31
0.0
  0
LINE
  5
   1E2
  8
0
  6
CONTINUOUS
 62
     7
 10
-263.693511962891
 20
71.2668304443359
 30
0.0
 11
-260.739088685684
 21
70.7458860143843
 31
0.0
  0
LINE
  5
   1E3
  8
0
  6
CONTINUOUS
 62
     7
 10
-246.647935240098
 20
70.7458860143843
 30
0.0
 11
-243.693511962891
 21
71.2668304443359
 31
0.0
  0
LINE
  5
   1E4
  8
0
  6
CONTINUOUS
 62
     7
 10
-243.693511962891
 20
71.2668304443359
 30
0.0
 11
-246.647935240098
 21
71.7877748742876
 31
0.0
  0
ENDBLK
  5
   1E5
  8
0
  6
CONTINUOUS
 62
     7
  0
BLOCK
  5
   1E6
  8
0
  6
CONTINUOUS
 62
     7
  2
*UDIM1520
 70
    65
 10
0.0
 20
0.0
 30
0.0
  3
*UDIM1520
  0
TEXT
  5
   1E7
  8
0
  6
CONTINUOUS
 62
     7
 10
-257.868512011668
 20
78.7064895735802
 30
0.0
 40
3.00000002980232
  1
112
 50
359.999999844103
 41
0.933333333333333
 72
     1
 11
-253.968511968851
 21
80.2064895778894
 31
0.0
 73
     2
  0
LINE
  5
   1E8
  8
0
  6
CONTINUOUS
 62
     7
 10
-267.693511962891
 20
56.7306518554688
 30
0.0
 11
-267.693511962891
 21
79.7064895629883
 31
0.0
  0
LINE
  5
   1E9
  8
0
  6
CONTINUOUS
 62
     7
 10
-239.693511962891
 20
56.7306518554688
 30
0.0
 11
-239.693511962891
 21
79.7064895629883
 31
0.0
  0
LINE
  5
   1EA
  8
0
  6
CONTINUOUS
 62
     7
 10
-267.693511962891
 20
77.7064895629883
 30
0.0
 11
-239.693511962891
 21
77.7064895629883
 31
0.0
  0
LINE
  5
   1EB
  8
0
  6
CONTINUOUS
 62
     7
 10
-264.739088685684
 20
78.22743399294
 30
0.0
 11
-267.693511962891
 21
77.7064895629883
 31
0.0
  0
LINE
  5
   1EC
  8
0
  6
CONTINUOUS
 62
     7
 10
-267.693511962891
 20
77.7064895629883
 30
0.0
 11
-264.739088685684
 21
77.1855451330366
 31
0.0
  0
LINE
  5
   1ED
  8
0
  6
CONTINUOUS
 62
     7
 10
-242.647935240098
 20
77.1855451330366
 30
0.0
 11
-239.693511962891
 21
77.7064895629883
 31
0.0
  0
LINE
  5
   1EE
  8
0
  6
CONTINUOUS
 62
     7
 10
-239.693511962891
 20
77.7064895629883
 30
0.0
 11
-242.647935240098
 21
78.22743399294
 31
0.0
  0
ENDBLK
  5
   1EF
  8
0
  6
CONTINUOUS
 62
     7
  0
BLOCK
  5
   1F0
  8
0
  6
CONTINUOUS
 62
     7
  2
*UDIM1521
 70
    65
 10
0.0
 20
0.0
 30
0.0
  3
*UDIM1521
  0
TEXT
  5
   1F1
  8
0
  6
CONTINUOUS
 62
     7
 10
-283.847349177457
 20
37.5556518066933
 30
0.0
 40
3.00000002980232
  1
112
 50
449.999999844103
 41
0.933333333333333
 72
     1
 11
-285.347349181771
 21
41.4556518495083
 31
0.0
 73
     2
  0
LINE
  5
   1F2
  8
0
  6
CONTINUOUS
 62
     7
 10
-268.693511962891
 20
55.7306518554688
 30
0.0
 11
-284.84734916687
 21
55.7306518554688
 31
0.0
  0
LINE
  5
   1F3
  8
0
  6
CONTINUOUS
 62
     7
 10
-268.693511962891
 20
27.7306518554688
 30
0.0
 11
-284.84734916687
 21
27.7306518554688
 31
0.0
  0
LINE
  5
   1F4
  8
0
  6
CONTINUOUS
 62
     7
 10
-282.84734916687
 20
55.7306518554688
 30
0.0
 11
-282.84734916687
 21
27.7306518554688
 31
0.0
  0
LINE
  5
   1F5
  8
0
  6
CONTINUOUS
 62
     7
 10
-282.326404736918
 20
52.7762285782618
 30
0.0
 11
-282.84734916687
 21
55.7306518554688
 31
0.0
  0
LINE
  5
   1F6
  8
0
  6
CONTINUOUS
 62
     7
 10
-282.84734916687
 20
55.7306518554688
 30
0.0
 11
-283.368293596822
 21
52.7762285782618
 31
0.0
  0
LINE
  5
   1F7
  8
0
  6
CONTINUOUS
 62
     7
 10
-283.368293596822
 20
30.6850751326757
 30
0.0
 11
-282.84734916687
 21
27.7306518554688
 31
0.0
  0
LINE
  5
   1F8
  8
0
  6
CONTINUOUS
 62
     7
 10
-282.84734916687
 20
27.7306518554688
 30
0.0
 11
-282.326404736918
 21
30.6850751326757
 31
0.0
  0
ENDBLK
  5
   1F9
  8
0
  6
CONTINUOUS
 62
     7
  0
BLOCK
  5
   1FA
  8
0
  6
CONTINUOUS
 62
     7
  2
*UDIM1522
 70
    65
 10
0.0
 20
0.0
 30
0.0
  3
*UDIM1522
  0
TEXT
  5
   1FB
  8
0
  6
CONTINUOUS
 62
     7
 10
-294.101612101652
 20
37.5556518066933
 30
0.0
 40
3.00000002980232
  1
142
 50
449.999999844103
 41
0.933333333333333
 72
     1
 11
-295.601612105966
 21
41.4556518495083
 31
0.0
 73
     2
  0
LINE
  5
   1FC
  8
0
  6
CONTINUOUS
 62
     7
 10
-266.318511962891
 20
59.4806518554688
 30
0.0
 11
-295.101612091064
 21
59.4806518554688
 31
0.0
  0
LINE
  5
   1FD
  8
0
  6
CONTINUOUS
 62
     7
 10
-266.318511962891
 20
23.9806518554688
 30
0.0
 11
-295.101612091064
 21
23.9806518554688
 31
0.0
  0
LINE
  5
   1FE
  8
0
  6
CONTINUOUS
 62
     7
 10
-293.101612091064
 20
59.4806518554688
 30
0.0
 11
-293.101612091064
 21
23.9806518554688
 31
0.0
  0
LINE
  5
   1FF
  8
0
  6
CONTINUOUS
 62
     7
 10
-292.580667661113
 20
56.5262285782618
 30
0.0
 11
-293.101612091064
 21
59.4806518554688
 31
0.0
  0
LINE
  5
   200
  8
0
  6
CONTINUOUS
 62
     7
 10
-293.101612091064
 20
59.4806518554688
 30
0.0
 11
-293.622556521016
 21
56.5262285782618
 31
0.0
  0
LINE
  5
   201
  8
0
  6
CONTINUOUS
 62
     7
 10
-293.622556521016
 20
26.9350751326757
 30
0.0
 11
-293.101612091064
 21
23.9806518554688
 31
0.0
  0
LINE
  5
   202
  8
0
  6
CONTINUOUS
 62
     7
 10
-293.101612091064
 20
23.9806518554688
 30
0.0
 11
-292.580667661113
 21
26.9350751326757
 31
0.0
  0
ENDBLK
  5
   203
  8
0
  6
CONTINUOUS
 62
     7
  0
BLOCK
  5
   204
  8
0
  6
CONTINUOUS
 62
     7
  2
*HATCH1057
 70
    65
 10
0.0
 20
0.0
 30
0.0
  3
*HATCH1057
  0
LINE
  5
   205
  8
0
  6
CONTINUOUS
 62
   210
 10
221.237091064453
 20
82.1116256713867
 30
0.0
 11
225.348754882813
 21
77.9999618530274
 31
0.0
  0
LINE
  5
   206
  8
0
  6
CONTINUOUS
 62
   210
 10
224.591400146484
 20
82.9999618530274
 30
0.0
 11
227.237045288086
 21
80.3543167114258
 31
0.0
  0
ENDBLK
  5
   207
  8
0
  6
CONTINUOUS
 62
     7
  0
BLOCK
  5
   208
  8
0
  6
CONTINUOUS
 62
     7
  2
*HATCH1058
 70
    65
 10
0.0
 20
0.0
 30
0.0
  3
*HATCH1058
  0
LINE
  5
   209
  8
0
  6
CONTINUOUS
 62
     3
 10
204.218536376953
 20
77.9999618530274
 30
0.0
 11
202.237045288086
 21
76.0184707641602
 31
0.0
  0
LINE
  5
   20A
  8
0
  6
CONTINUOUS
 62
     3
 10
206.237045288086
 20
77.8971557617188
 30
0.0
 11
202.237045288086
 21
73.8971557617188
 31
0.0
  0
LINE
  5
   20B
  8
0
  6
CONTINUOUS
 62
     3
 10
206.237045288086
 20
75.7758331298828
 30
0.0
 11
202.237045288086
 21
71.7758331298828
 31
0.0
  0
LINE
  5
   20C
  8
0
  6
CONTINUOUS
 62
     3
 10
206.237045288086
 20
73.6545104980469
 30
0.0
 11
202.237045288086
 21
69.6545104980469
 31
0.0
  0
LINE
  5
   20D
  8
0
  6
CONTINUOUS
 62
     3
 10
206.237045288086
 20
71.5331878662109
 30
0.0
 11
202.237045288086
 21
67.5331878662109
 31
0.0
  0
LINE
  5
   20E
  8
0
  6
CONTINUOUS
 62
     3
 10
206.237045288086
 20
69.4118728637695
 30
0.0
 11
202.819671630859
 21
65.994499206543
 31
0.0
  0
LINE
  5
   20F
  8
0
  6
CONTINUOUS
 62
     3
 10
206.237045288086
 20
67.2905502319336
 30
0.0
 11
204.279418945313
 21
65.3329238891602
 31
0.0
  0
LINE
  5
   210
  8
0
  6
CONTINUOUS
 62
     3
 10
206.237045288086
 20
65.1692276000977
 30
0.0
 11
205.739166259766
 21
64.6713485717773
 31
0.0
  0
ENDBLK
  5
   211
  8
0
  6
CONTINUOUS
 62
     7
  0
BLOCK
  5
   212
  8
0
  6
CONTINUOUS
 62
     7
  2
*HATCH1059
 70
    65
 10
0.0
 20
0.0
 30
0.0
  3
*HATCH1059
  0
LINE
  5
   213
  8
0
  6
CONTINUOUS
 62
   210
 10
196.745819091797
 20
81.1470718383789
 30
0.0
 11
199.892929077148
 21
77.9999618530274
 31
0.0
  0
LINE
  5
   214
  8
0
  6
CONTINUOUS
 62
   210
 10
199.13557434082
 20
82.9999618530274
 30
0.0
 11
204.135559082031
 21
77.9999618530274
 31
0.0
  0
LINE
  5
   215
  8
0
  6
CONTINUOUS
 62
   210
 10
203.378219604492
 20
82.9999618530274
 30
0.0
 11
208.378204345703
 21
77.9999618530274
 31
0.0
  0
LINE
  5
   216
  8
0
  6
CONTINUOUS
 62
   210
 10
207.620864868164
 20
82.9999618530274
 30
0.0
 11
212.620849609375
 21
77.9999618530274
 31
0.0
  0
LINE
  5
   217
  8
0
  6
CONTINUOUS
 62
   210
 10
211.863494873047
 20
82.9999618530274
 30
0.0
 11
213.237091064453
 21
81.626350402832
 31
0.0
  0
ENDBLK
  5
   218
  8
0
  6
CONTINUOUS
 62
     7
  0
BLOCK
  5
   219
  8
0
  6
CONTINUOUS
 62
     7
  2
*HATCH1060
 70
    65
 10
0.0
 20
0.0
 30
0.0
  3
*HATCH1060
  0
LINE
  5
   21A
  8
0
  6
CONTINUOUS
 62
     3
 10
197.431854248047
 20
90.3051605224609
 30
0.0
 11
196.745819091797
 21
89.6191329956055
 31
0.0
  0
LINE
  5
   21B
  8
0
  6
CONTINUOUS
 62
     3
 10
198.492523193359
 20
89.2445068359375
 30
0.0
 11
196.745819091797
 21
87.4978103637695
 31
0.0
  0
LINE
  5
   21C
  8
0
  6
CONTINUOUS
 62
     3
 10
199.553192138672
 20
88.1838531494141
 30
0.0
 11
196.745819091797
 21
85.3764877319336
 31
0.0
  0
LINE
  5
   21D
  8
0
  6
CONTINUOUS
 62
     3
 10
199.737045288086
 20
86.2463912963867
 30
0.0
 11
196.745819091797
 21
83.2551727294922
 31
0.0
  0
LINE
  5
   21E
  8
0
  6
CONTINUOUS
 62
     3
 10
199.737045288086
 20
84.1250762939453
 30
0.0
 11
198.611923217773
 21
82.9999618530274
 31
0.0
  0
ENDBLK
  5
   21F
  8
0
  6
CONTINUOUS
 62
     7
  0
BLOCK
  5
   220
  8
0
  6
CONTINUOUS
 62
     7
  2
*HATCH1061
 70
    65
 10
0.0
 20
0.0
 30
0.0
  3
*HATCH1061
  0
LINE
  5
   221
  8
0
  6
CONTINUOUS
 62
   210
 10
-10.7629547119141
 20
80.7665863037109
 30
0.0
 11
-7.99633836746216
 21
77.9999618530274
 31
0.0
  0
LINE
  5
   222
  8
0
  6
CONTINUOUS
 62
   210
 10
-8.75369358062744
 20
82.9999618530274
 30
0.0
 11
-4.76300573348999
 21
79.0092697143555
 31
0.0
  0
ENDBLK
  5
   223
  8
0
  6
CONTINUOUS
 62
     7
  0
BLOCK
  5
   224
  8
0
  6
CONTINUOUS
 62
     7
  2
*HATCH1062
 70
    65
 10
0.0
 20
0.0
 30
0.0
  3
*HATCH1062
  0
LINE
  5
   225
  8
0
  6
CONTINUOUS
 62
   210
 10
3.23699402809143
 20
81.6158676147461
 30
0.0
 11
6.8528938293457
 21
77.9999618530274
 31
0.0
  0
LINE
  5
   226
  8
0
  6
CONTINUOUS
 62
   210
 10
6.09554004669189
 20
82.9999618530274
 30
0.0
 11
11.095531463623
 21
77.9999618530274
 31
0.0
  0
LINE
  5
   227
  8
0
  6
CONTINUOUS
 62
   210
 10
10.3381776809692
 20
82.9999618530274
 30
0.0
 11
15.3381690979004
 21
77.9999618530274
 31
0.0
  0
LINE
  5
   228
  8
0
  6
CONTINUOUS
 62
   210
 10
14.5808153152466
 20
82.9999618530274
 30
0.0
 11
19.5808067321777
 21
77.9999618530274
 31
0.0
  0
LINE
  5
   229
  8
0
  6
CONTINUOUS
 62
   210
 10
18.8234539031982
 20
82.9999618530274
 30
0.0
 11
19.7282676696777
 21
82.0951461791992
 31
0.0
  0
ENDBLK
  5
   22A
  8
0
  6
CONTINUOUS
 62
     7
  0
BLOCK
  5
   22B
  8
0
  6
CONTINUOUS
 62
     7
  2
*HATCH1063
 70
    65
 10
0.0
 20
0.0
 30
0.0
  3
*HATCH1063
  0
LINE
  5
   22C
  8
0
  6
CONTINUOUS
 62
     3
 10
17.0864696502686
 20
102.999938964844
 30
0.0
 11
15.2370948791504
 21
101.150566101074
 31
0.0
  0
LINE
  5
   22D
  8
0
  6
CONTINUOUS
 62
     3
 10
18.1471290588379
 20
102.999938964844
 30
0.0
 11
14.2369937896729
 21
99.0898056030274
 31
0.0
  0
LINE
  5
   22E
  8
0
  6
CONTINUOUS
 62
     3
 10
18.2369937896729
 20
100.968482971191
 30
0.0
 11
14.2369937896729
 21
96.9684829711914
 31
0.0
  0
LINE
  5
   22F
  8
0
  6
CONTINUOUS
 62
     3
 10
18.2369937896729
 20
98.8471603393555
 30
0.0
 11
14.2369937896729
 21
94.8471603393555
 31
0.0
  0
LINE
  5
   230
  8
0
  6
CONTINUOUS
 62
     3
 10
18.2369937896729
 20
96.7258377075195
 30
0.0
 11
14.2369937896729
 21
92.7258377075195
 31
0.0
  0
LINE
  5
   231
  8
0
  6
CONTINUOUS
 62
     3
 10
18.2369937896729
 20
94.6045150756836
 30
0.0
 11
14.2369937896729
 21
90.6045150756836
 31
0.0
  0
LINE
  5
   232
  8
0
  6
CONTINUOUS
 62
     3
 10
18.2369937896729
 20
92.4831924438477
 30
0.0
 11
14.2369937896729
 21
88.4831924438477
 31
0.0
  0
LINE
  5
   233
  8
0
  6
CONTINUOUS
 62
     3
 10
18.2369937896729
 20
90.3618698120117
 30
0.0
 11
14.2369937896729
 21
86.3618698120117
 31
0.0
  0
LINE
  5
   234
  8
0
  6
CONTINUOUS
 62
     3
 10
18.2369937896729
 20
88.2405471801758
 30
0.0
 11
14.2369937896729
 21
84.2405471801758
 31
0.0
  0
LINE
  5
   235
  8
0
  6
CONTINUOUS
 62
     3
 10
18.2369937896729
 20
86.1192398071289
 30
0.0
 11
15.117714881897
 21
82.9999618530274
 31
0.0
  0
LINE
  5
   236
  8
0
  6
CONTINUOUS
 62
     3
 10
18.2369937896729
 20
83.997917175293
 30
0.0
 11
17.23903465271
 21
82.9999618530274
 31
0.0
  0
ENDBLK
  5
   237
  8
0
  6
CONTINUOUS
 62
     7
  0
BLOCK
  5
   238
  8
0
  6
CONTINUOUS
 62
     7
  2
*HATCH1064
 70
    65
 10
0.0
 20
0.0
 30
0.0
  3
*HATCH1064
  0
LINE
  5
   239
  8
0
  6
CONTINUOUS
 62
     3
 10
12.2390375137329
 20
77.9999618530274
 30
0.0
 11
10.2369937896729
 21
75.997917175293
 31
0.0
  0
LINE
  5
   23A
  8
0
  6
CONTINUOUS
 62
     3
 10
14.2369937896729
 20
77.8766021728516
 30
0.0
 11
10.2369937896729
 21
73.8766021728516
 31
0.0
  0
LINE
  5
   23B
  8
0
  6
CONTINUOUS
 62
     3
 10
14.2369937896729
 20
75.7552795410156
 30
0.0
 11
10.2369937896729
 21
71.7552795410156
 31
0.0
  0
LINE
  5
   23C
  8
0
  6
CONTINUOUS
 62
     3
 10
14.2369937896729
 20
73.6339569091797
 30
0.0
 11
10.2369937896729
 21
69.6339569091797
 31
0.0
  0
LINE
  5
   23D
  8
0
  6
CONTINUOUS
 62
     3
 10
14.2369937896729
 20
71.5126342773438
 30
0.0
 11
10.2369937896729
 21
67.5126342773438
 31
0.0
  0
LINE
  5
   23E
  8
0
  6
CONTINUOUS
 62
     3
 10
14.2369937896729
 20
69.3913116455078
 30
0.0
 11
10.2369937896729
 21
65.3913116455078
 31
0.0
  0
LINE
  5
   23F
  8
0
  6
CONTINUOUS
 62
     3
 10
14.2369937896729
 20
67.2699890136719
 30
0.0
 11
10.2369937896729
 21
63.2699890136719
 31
0.0
  0
LINE
  5
   240
  8
0
  6
CONTINUOUS
 62
     3
 10
14.2369937896729
 20
65.148681640625
 30
0.0
 11
10.8553380966187
 21
61.7670249938965
 31
0.0
  0
LINE
  5
   241
  8
0
  6
CONTINUOUS
 62
     3
 10
14.2369937896729
 20
63.0273590087891
 30
0.0
 11
13.7800302505493
 21
62.5703964233398
 31
0.0
  0
ENDBLK
  5
   242
  8
0
  6
CONTINUOUS
 62
     7
  0
BLOCK
  5
   243
  8
0
  6
CONTINUOUS
 62
     7
  2
*HATCH1065
 70
    65
 10
0.0
 20
0.0
 30
0.0
  3
*HATCH1065
  0
LINE
  5
   244
  8
0
  6
CONTINUOUS
 62
     3
 10
185.858123779297
 20
-4.00005149841309
 30
0.0
 11
184.480621337891
 21
-5.37755584716797
 31
0.0
  0
LINE
  5
   245
  8
0
  6
CONTINUOUS
 62
     3
 10
187.979446411133
 20
-4.00005149841309
 30
0.0
 11
185.979446411133
 21
-6.00005149841309
 31
0.0
  0
LINE
  5
   246
  8
0
  6
CONTINUOUS
 62
     3
 10
190.10075378418
 20
-4.00005149841309
 30
0.0
 11
188.10075378418
 21
-6.00005149841309
 31
0.0
  0
LINE
  5
   247
  8
0
  6
CONTINUOUS
 62
     3
 10
192.222061157227
 20
-4.00005149841309
 30
0.0
 11
190.222061157227
 21
-6.00005149841309
 31
0.0
  0
LINE
  5
   248
  8
0
  6
CONTINUOUS
 62
     3
 10
194.343368530273
 20
-4.00005149841309
 30
0.0
 11
192.343368530273
 21
-6.00005149841309
 31
0.0
  0
LINE
  5
   249
  8
0
  6
CONTINUOUS
 62
     3
 10
196.46467590332
 20
-4.00005149841309
 30
0.0
 11
194.46467590332
 21
-6.00005149841309
 31
0.0
  0
LINE
  5
   24A
  8
0
  6
CONTINUOUS
 62
     3
 10
198.585983276367
 20
-4.00005149841309
 30
0.0
 11
196.585983276367
 21
-6.00005149841309
 31
0.0
  0
LINE
  5
   24B
  8
0
  6
CONTINUOUS
 62
     3
 10
200.707290649414
 20
-4.00005149841309
 30
0.0
 11
198.707290649414
 21
-6.00005149841309
 31
0.0
  0
LINE
  5
   24C
  8
0
  6
CONTINUOUS
 62
     3
 10
202.828598022461
 20
-4.00005149841309
 30
0.0
 11
200.828598022461
 21
-6.00005149841309
 31
0.0
  0
LINE
  5
   24D
  8
0
  6
CONTINUOUS
 62
     3
 10
204.949905395508
 20
-4.00005149841309
 30
0.0
 11
202.949905395508
 21
-6.00005149841309
 31
0.0
  0
LINE
  5
   24E
  8
0
  6
CONTINUOUS
 62
     3
 10
207.071212768555
 20
-4.00005149841309
 30
0.0
 11
205.071212768555
 21
-6.00005149841309
 31
0.0
  0
LINE
  5
   24F
  8
0
  6
CONTINUOUS
 62
     3
 10
209.192520141602
 20
-4.00005149841309
 30
0.0
 11
207.192520141602
 21
-6.00005149841309
 31
0.0
  0
LINE
  5
   250
  8
0
  6
CONTINUOUS
 62
     3
 10
211.313827514648
 20
-4.00005149841309
 30
0.0
 11
209.313827514648
 21
-6.00005149841309
 31
0.0
  0
LINE
  5
   251
  8
0
  6
CONTINUOUS
 62
     3
 10
213.435134887695
 20
-4.00005149841309
 30
0.0
 11
211.435134887695
 21
-6.00005149841309
 31
0.0
  0
LINE
  5
   252
  8
0
  6
CONTINUOUS
 62
     3
 10
215.556442260742
 20
-4.00005149841309
 30
0.0
 11
213.556442260742
 21
-6.00005149841309
 31
0.0
  0
LINE
  5
   253
  8
0
  6
CONTINUOUS
 62
     3
 10
217.677749633789
 20
-4.00005149841309
 30
0.0
 11
215.677749633789
 21
-6.00005149841309
 31
0.0
  0
LINE
  5
   254
  8
0
  6
CONTINUOUS
 62
     3
 10
219.799057006836
 20
-4.00005149841309
 30
0.0
 11
217.799057006836
 21
-6.00005149841309
 31
0.0
  0
LINE
  5
   255
  8
0
  6
CONTINUOUS
 62
     3
 10
221.920364379883
 20
-4.00005149841309
 30
0.0
 11
219.920364379883
 21
-6.00005149841309
 31
0.0
  0
LINE
  5
   256
  8
0
  6
CONTINUOUS
 62
     3
 10
224.04167175293
 20
-4.00005149841309
 30
0.0
 11
222.04167175293
 21
-6.00005149841309
 31
0.0
  0
LINE
  5
   257
  8
0
  6
CONTINUOUS
 62
     3
 10
226.162979125977
 20
-4.00005149841309
 30
0.0
 11
224.162979125977
 21
-6.00005149841309
 31
0.0
  0
LINE
  5
   258
  8
0
  6
CONTINUOUS
 62
     3
 10
228.284286499023
 20
-4.00005149841309
 30
0.0
 11
226.284286499023
 21
-6.00005149841309
 31
0.0
  0
LINE
  5
   259
  8
0
  6
CONTINUOUS
 62
     3
 10
230.40559387207
 20
-4.00005149841309
 30
0.0
 11
228.40559387207
 21
-6.00005149841309
 31
0.0
  0
LINE
  5
   25A
  8
0
  6
CONTINUOUS
 62
     3
 10
232.526901245117
 20
-4.00005149841309
 30
0.0
 11
230.526901245117
 21
-6.00005149841309
 31
0.0
  0
LINE
  5
   25B
  8
0
  6
CONTINUOUS
 62
     3
 10
234.648208618164
 20
-4.00005149841309
 30
0.0
 11
232.648208618164
 21
-6.00005149841309
 31
0.0
  0
LINE
  5
   25C
  8
0
  6
CONTINUOUS
 62
     3
 10
236.769515991211
 20
-4.00005149841309
 30
0.0
 11
234.769515991211
 21
-6.00005149841309
 31
0.0
  0
LINE
  5
   25D
  8
0
  6
CONTINUOUS
 62
     3
 10
238.890823364258
 20
-4.00005149841309
 30
0.0
 11
236.890823364258
 21
-6.00005149841309
 31
0.0
  0
LINE
  5
   25E
  8
0
  6
CONTINUOUS
 62
     3
 10
241.012130737305
 20
-4.00005149841309
 30
0.0
 11
239.012130737305
 21
-6.00005149841309
 31
0.0
  0
LINE
  5
   25F
  8
0
  6
CONTINUOUS
 62
     3
 10
243.133438110352
 20
-4.00005149841309
 30
0.0
 11
241.133438110352
 21
-6.00005149841309
 31
0.0
  0
LINE
  5
   260
  8
0
  6
CONTINUOUS
 62
     3
 10
245.254745483398
 20
-4.00005149841309
 30
0.0
 11
243.254745483398
 21
-6.00005149841309
 31
0.0
  0
LINE
  5
   261
  8
0
  6
CONTINUOUS
 62
     3
 10
247.376052856445
 20
-4.00005149841309
 30
0.0
 11
245.376052856445
 21
-6.00005149841309
 31
0.0
  0
LINE
  5
   262
  8
0
  6
CONTINUOUS
 62
     3
 10
248.910140991211
 20
-4.58765363693237
 30
0.0
 11
247.497741699219
 21
-6.00005149841309
 31
0.0
  0
LINE
  5
   263
  8
0
  6
CONTINUOUS
 62
     3
 10
249.653274536133
 20
-5.96583604812622
 30
0.0
 11
249.619049072266
 21
-6.00005149841309
 31
0.0
  0
ENDBLK
  5
   264
  8
0
  6
CONTINUOUS
 62
     7
  0
BLOCK
  5
   265
  8
0
  6
CONTINUOUS
 62
     7
  2
*HATCH1066
 70
    65
 10
0.0
 20
0.0
 30
0.0
  3
*HATCH1066
  0
LINE
  5
   266
  8
0
  6
CONTINUOUS
 62
     3
 10
167.826889038086
 20
-4.00005149841309
 30
0.0
 11
165.980621337891
 21
-5.84633255004883
 31
0.0
  0
LINE
  5
   267
  8
0
  6
CONTINUOUS
 62
     3
 10
169.948211669922
 20
-4.00005149841309
 30
0.0
 11
167.948211669922
 21
-6.00005149841309
 31
0.0
  0
LINE
  5
   268
  8
0
  6
CONTINUOUS
 62
     3
 10
172.069519042969
 20
-4.00005149841309
 30
0.0
 11
170.069519042969
 21
-6.00005149841309
 31
0.0
  0
LINE
  5
   269
  8
0
  6
CONTINUOUS
 62
     3
 10
174.190826416016
 20
-4.00005149841309
 30
0.0
 11
172.190826416016
 21
-6.00005149841309
 31
0.0
  0
LINE
  5
   26A
  8
0
  6
CONTINUOUS
 62
     3
 10
176.312133789062
 20
-4.00005149841309
 30
0.0
 11
174.312133789063
 21
-6.00005149841309
 31
0.0
  0
LINE
  5
   26B
  8
0
  6
CONTINUOUS
 62
     3
 10
177.480621337891
 20
-4.95293474197388
 30
0.0
 11
176.433502197266
 21
-6.00005149841309
 31
0.0
  0
ENDBLK
  5
   26C
  8
0
  6
CONTINUOUS
 62
     7
  0
BLOCK
  5
   26D
  8
0
  6
CONTINUOUS
 62
     7
  2
*HATCH1067
 70
    65
 10
0.0
 20
0.0
 30
0.0
  3
*HATCH1067
  0
LINE
  5
   26E
  8
0
  6
CONTINUOUS
 62
     3
 10
43.7296600341797
 20
-4.00005149841309
 30
0.0
 11
42.4806251525879
 21
-5.24908351898193
 31
0.0
  0
LINE
  5
   26F
  8
0
  6
CONTINUOUS
 62
     3
 10
45.8509788513184
 20
-4.00005149841309
 30
0.0
 11
43.8509788513184
 21
-6.00005149841309
 31
0.0
  0
LINE
  5
   270
  8
0
  6
CONTINUOUS
 62
     3
 10
47.9723014831543
 20
-4.00005149841309
 30
0.0
 11
45.9723014831543
 21
-6.00005149841309
 31
0.0
  0
LINE
  5
   271
  8
0
  6
CONTINUOUS
 62
     3
 10
50.0936241149902
 20
-4.00005149841309
 30
0.0
 11
48.0936241149902
 21
-6.00005149841309
 31
0.0
  0
LINE
  5
   272
  8
0
  6
CONTINUOUS
 62
     3
 10
52.2149467468262
 20
-4.00005149841309
 30
0.0
 11
50.2149467468262
 21
-6.00005149841309
 31
0.0
  0
LINE
  5
   273
  8
0
  6
CONTINUOUS
 62
     3
 10
53.9806251525879
 20
-4.35568618774414
 30
0.0
 11
52.3362579345703
 21
-6.00005149841309
 31
0.0
  0
ENDBLK
  5
   274
  8
0
  6
CONTINUOUS
 62
     7
  0
BLOCK
  5
   275
  8
0
  6
CONTINUOUS
 62
     7
  2
*HATCH1068
 70
    65
 10
0.0
 20
0.0
 30
0.0
  3
*HATCH1068
  0
LINE
  5
   276
  8
0
  6
CONTINUOUS
 62
     3
 10
-24.1525974273682
 20
-4.00005149841309
 30
0.0
 11
-25.3908443450928
 21
-5.23830080032349
 31
0.0
  0
LINE
  5
   277
  8
0
  6
CONTINUOUS
 62
     3
 10
-22.0312747955322
 20
-4.00005149841309
 30
0.0
 11
-24.0312747955322
 21
-6.00005149841309
 31
0.0
  0
LINE
  5
   278
  8
0
  6
CONTINUOUS
 62
     3
 10
-19.9099559783936
 20
-4.00005149841309
 30
0.0
 11
-21.9099559783936
 21
-6.00005149841309
 31
0.0
  0
LINE
  5
   279
  8
0
  6
CONTINUOUS
 62
     3
 10
-17.7886371612549
 20
-4.00005149841309
 30
0.0
 11
-19.7886371612549
 21
-6.00005149841309
 31
0.0
  0
LINE
  5
   27A
  8
0
  6
CONTINUOUS
 62
     3
 10
-15.6673173904419
 20
-4.00005149841309
 30
0.0
 11
-17.6673183441162
 21
-6.00005149841309
 31
0.0
  0
LINE
  5
   27B
  8
0
  6
CONTINUOUS
 62
     3
 10
-13.5459966659546
 20
-4.00005149841309
 30
0.0
 11
-15.5459985733032
 21
-6.00005149841309
 31
0.0
  0
LINE
  5
   27C
  8
0
  6
CONTINUOUS
 62
     3
 10
-11.4246759414673
 20
-4.00005149841309
 30
0.0
 11
-13.4246778488159
 21
-6.00005149841309
 31
0.0
  0
LINE
  5
   27D
  8
0
  6
CONTINUOUS
 62
     3
 10
-9.30335521697998
 20
-4.00005149841309
 30
0.0
 11
-11.3033571243286
 21
-6.00005149841309
 31
0.0
  0
LINE
  5
   27E
  8
0
  6
CONTINUOUS
 62
     3
 10
-7.18203449249268
 20
-4.00005149841309
 30
0.0
 11
-9.18203639984131
 21
-6.00005149841309
 31
0.0
  0
LINE
  5
   27F
  8
0
  6
CONTINUOUS
 62
     3
 10
-5.06071376800537
 20
-4.00005149841309
 30
0.0
 11
-7.060715675354
 21
-6.00005149841309
 31
0.0
  0
LINE
  5
   280
  8
0
  6
CONTINUOUS
 62
     3
 10
-2.93939328193665
 20
-4.00005149841309
 30
0.0
 11
-4.9393949508667
 21
-6.00005149841309
 31
0.0
  0
LINE
  5
   281
  8
0
  6
CONTINUOUS
 62
     3
 10
-0.818073034286499
 20
-4.00005149841309
 30
0.0
 11
-2.81807422637939
 21
-6.00005149841309
 31
0.0
  0
LINE
  5
   282
  8
0
  6
CONTINUOUS
 62
     3
 10
1.30324721336365
 20
-4.00005149841309
 30
0.0
 11
-0.696753740310669
 21
-6.00005149841309
 31
0.0
  0
LINE
  5
   283
  8
0
  6
CONTINUOUS
 62
     3
 10
3.42456746101379
 20
-4.00005149841309
 30
0.0
 11
1.42456674575806
 21
-6.00005149841309
 31
0.0
  0
LINE
  5
   284
  8
0
  6
CONTINUOUS
 62
     3
 10
5.54588794708252
 20
-4.00005149841309
 30
0.0
 11
3.54588747024536
 21
-6.00005149841309
 31
0.0
  0
LINE
  5
   285
  8
0
  6
CONTINUOUS
 62
     3
 10
7.66720867156982
 20
-4.00005149841309
 30
0.0
 11
5.66720819473267
 21
-6.00005149841309
 31
0.0
  0
LINE
  5
   286
  8
0
  6
CONTINUOUS
 62
     3
 10
9.78852939605713
 20
-4.00005149841309
 30
0.0
 11
7.78852891921997
 21
-6.00005149841309
 31
0.0
  0
LINE
  5
   287
  8
0
  6
CONTINUOUS
 62
     3
 10
11.9098501205444
 20
-4.00005149841309
 30
0.0
 11
9.90984916687012
 21
-6.00005149841309
 31
0.0
  0
LINE
  5
   288
  8
0
  6
CONTINUOUS
 62
     3
 10
14.0311708450317
 20
-4.00005149841309
 30
0.0
 11
12.0311698913574
 21
-6.00005149841309
 31
0.0
  0
LINE
  5
   289
  8
0
  6
CONTINUOUS
 62
     3
 10
16.1524906158447
 20
-4.00005149841309
 30
0.0
 11
14.1524906158447
 21
-6.00005149841309
 31
0.0
  0
LINE
  5
   28A
  8
0
  6
CONTINUOUS
 62
     3
 10
18.2738094329834
 20
-4.00005149841309
 30
0.0
 11
16.273811340332
 21
-6.00005149841309
 31
0.0
  0
LINE
  5
   28B
  8
0
  6
CONTINUOUS
 62
     3
 10
20.3951282501221
 20
-4.00005149841309
 30
0.0
 11
18.3951301574707
 21
-6.00005149841309
 31
0.0
  0
LINE
  5
   28C
  8
0
  6
CONTINUOUS
 62
     3
 10
22.5164470672607
 20
-4.00005149841309
 30
0.0
 11
20.5164489746094
 21
-6.00005149841309
 31
0.0
  0
LINE
  5
   28D
  8
0
  6
CONTINUOUS
 62
     3
 10
24.6377658843994
 20
-4.00005149841309
 30
0.0
 11
22.637767791748
 21
-6.00005149841309
 31
0.0
  0
LINE
  5
   28E
  8
0
  6
CONTINUOUS
 62
     3
 10
26.7590847015381
 20
-4.00005149841309
 30
0.0
 11
24.7590866088867
 21
-6.00005149841309
 31
0.0
  0
LINE
  5
   28F
  8
0
  6
CONTINUOUS
 62
     3
 10
28.8804035186768
 20
-4.00005149841309
 30
0.0
 11
26.8804054260254
 21
-6.00005149841309
 31
0.0
  0
LINE
  5
   290
  8
0
  6
CONTINUOUS
 62
     3
 10
31.0017223358154
 20
-4.00005149841309
 30
0.0
 11
29.0017242431641
 21
-6.00005149841309
 31
0.0
  0
LINE
  5
   291
  8
0
  6
CONTINUOUS
 62
     3
 10
33.1230430603027
 20
-4.00005149841309
 30
0.0
 11
31.1230430603027
 21
-6.00005149841309
 31
0.0
  0
LINE
  5
   292
  8
0
  6
CONTINUOUS
 62
     3
 10
35.2443656921387
 20
-4.00005149841309
 30
0.0
 11
33.2443656921387
 21
-6.00005149841309
 31
0.0
  0
LINE
  5
   293
  8
0
  6
CONTINUOUS
 62
     3
 10
35.4806251525879
 20
-5.88512229919434
 30
0.0
 11
35.3656959533691
 21
-6.00005149841309
 31
0.0
  0
ENDBLK
  5
   294
  8
0
  6
CONTINUOUS
 62
     7
  0
BLOCK
  5
   295
  8
0
  6
CONTINUOUS
 62
     7
  2
$1146558
 70
    64
 10
0.0
 20
0.0
 30
0.0
  3
$1146558
  0
LINE
  5
   296
  8
0
  6
CONTINUOUS
 62
     2
 10
-52.099964209298
 20
223.237096448575
 30
0.0
 11
-35.099964209298
 21
223.237096448575
 31
0.0
  0
LINE
  5
   297
  8
0
  6
CONTINUOUS
 62
     2
 10
-52.099964209298
 20
211.237096448575
 30
0.0
 11
-35.099964209298
 21
211.237096448575
 31
0.0
  0
LINE
  5
   298
  8
0
  6
CONTINUOUS
 62
     2
 10
-53.099964209298
 20
212.237096448575
 30
0.0
 11
-53.099964209298
 21
222.237096448575
 31
0.0
  0
LINE
  5
   299
  8
0
  6
DOT
 62
     2
 10
-57.099964209298
 20
214.237096448575
 30
0.0
 11
-57.099964209298
 21
220.237096448575
 31
0.0
  0
LINE
  5
   29A
  8
0
  6
CONTINUOUS
 62
     2
 10
-34.099964209298
 20
212.237096448575
 30
0.0
 11
-34.099964209298
 21
222.237096448575
 31
0.0
  0
LINE
  5
   29B
  8
0
  6
DOT
 62
     2
 10
-57.099964209298
 20
220.237096448575
 30
0.0
 11
-53.099964209298
 21
220.237096448575
 31
0.0
  0
LINE
  5
   29C
  8
0
  6
DOT
 62
     2
 10
-57.099964209298
 20
214.237096448575
 30
0.0
 11
-53.099964209298
 21
214.237096448575
 31
0.0
  0
LINE
  5
   29D
  8
0
  6
CONTINUOUS
 62
     2
 10
-53.099964209298
 20
222.237096448575
 30
0.0
 11
-52.099964209298
 21
223.237096448575
 31
0.0
  0
LINE
  5
   29E
  8
0
  6
CONTINUOUS
 62
     2
 10
-53.099964209298
 20
212.237096448575
 30
0.0
 11
-52.099964209298
 21
211.237096448575
 31
0.0
  0
LINE
  5
   29F
  8
0
  6
CONTINUOUS
 62
     2
 10
-35.099964209298
 20
223.237096448575
 30
0.0
 11
-34.099964209298
 21
222.237096448575
 31
0.0
  0
LINE
  5
   2A0
  8
0
  6
CONTINUOUS
 62
     2
 10
-35.099964209298
 20
211.237096448575
 30
0.0
 11
-34.099964209298
 21
212.237096448575
 31
0.0
  0
LINE
  5
   2A1
  8
0
  6
CONTINUOUS
 62
     2
 10
-53.099964209298
 20
222.237096448575
 30
0.0
 11
-34.099964209298
 21
222.237096448575
 31
0.0
  0
LINE
  5
   2A2
  8
0
  6
CONTINUOUS
 62
     2
 10
-53.099964209298
 20
212.237096448575
 30
0.0
 11
-34.099964209298
 21
212.237096448575
 31
0.0
  0
LINE
  5
   2A3
  8
0
  6
CONTINUOUS
 62
     2
 10
-52.099964209298
 20
211.237096448575
 30
0.0
 11
-52.099964209298
 21
223.237096448575
 31
0.0
  0
LINE
  5
   2A4
  8
0
  6
CONTINUOUS
 62
     2
 10
-35.099964209298
 20
211.237096448575
 30
0.0
 11
-35.099964209298
 21
223.237096448575
 31
0.0
  0
LINE
  5
   2A5
  8
0
  6
CONTINUOUS
 62
    98
 10
-53.099964209298
 20
212.737096448575
 30
0.0
 11
-53.099964209298
 21
221.737096448575
 31
0.0
  0
LINE
  5
   2A6
  8
0
  6
CONTINUOUS
 62
    98
 10
-58.099964209298
 20
208.737096448575
 30
0.0
 11
-58.099964209298
 21
225.737096448575
 31
0.0
  0
LINE
  5
   2A7
  8
0
  6
CONTINUOUS
 62
    98
 10
-58.099964209298
 20
225.737096448575
 30
0.0
 11
-55.1884296840102
 21
225.737096448575
 31
0.0
  0
LINE
  5
   2A8
  8
0
  6
CONTINUOUS
 62
    98
 10
-58.099964209298
 20
208.737096448575
 30
0.0
 11
-55.1884296840102
 21
208.737096448575
 31
0.0
  0
LINE
  5
   2A9
  8
0
  6
CONTINUOUS
 62
    98
 10
-55.599964209298
 20
208.737096448575
 30
0.0
 11
-55.599964209298
 21
225.737096448575
 31
0.0
  0
LINE
  5
   2AA
  8
0
  6
CONTINUOUS
 62
    98
 10
-55.1884296840102
 20
208.737096448575
 30
0.0
 11
-55.1884296840102
 21
210.237096448577
 31
0.0
  0
LINE
  5
   2AB
  8
0
  6
CONTINUOUS
 62
    98
 10
-55.1884296840102
 20
221.737096448575
 30
0.0
 11
-53.099964209298
 21
221.737096448575
 31
0.0
  0
LINE
  5
   2AC
  8
0
  6
CONTINUOUS
 62
    98
 10
-55.1884296840102
 20
212.737096448575
 30
0.0
 11
-53.099964209298
 21
212.737096448575
 31
0.0
  0
ARC
  5
   2AD
  8
0
  6
CONTINUOUS
 62
    98
 10
-30.7911578871332
 20
217.237096448575
 30
0.0
 40
24.8088063221649
 50
169.549429087188
 51
190.450570912812
  0
LINE
  5
   2AE
  8
0
  6
CONTINUOUS
 62
    98
 10
-55.1884296840102
 20
221.737096448576
 30
0.0
 11
-55.1884296840102
 21
222.237096448581
 31
0.0
  0
ARC
  5
   2AF
  8
0
  6
CONTINUOUS
 62
    98
 10
-54.4384296840195
 20
211.237096448576
 30
0.0
 40
1.24999999999367
 50
126.869897645536
 51
158.314733460268
  0
ARC
  5
   2B0
  8
0
  6
CONTINUOUS
 62
    98
 10
-54.4384296840122
 20
223.237096448576
 30
0.0
 40
1.24999999999803
 50
126.869897645902
 51
158.314733460726
  0
ARC
  5
   2B1
  8
0
  6
CONTINUOUS
 62
    98
 10
-54.4384296840122
 20
223.237096448576
 30
0.0
 40
1.24999999999803
 50
201.685266539274
 51
233.130102354098
  0
ARC
  5
   2B2
  8
0
  6
CONTINUOUS
 62
    98
 10
-54.4384296840195
 20
211.237096448576
 30
0.0
 40
1.24999999999367
 50
201.685266539732
 51
233.130102354464
  0
LINE
  5
   2B3
  8
0
  6
CONTINUOUS
 62
    98
 10
-55.1884296840102
 20
224.237096448572
 30
0.0
 11
-55.1884296840102
 21
225.737096448575
 31
0.0
  0
LINE
  5
   2B4
  8
0
  6
CONTINUOUS
 62
    98
 10
-55.1884296840102
 20
212.237096448575
 30
0.0
 11
-55.1884296840102
 21
212.737096448575
 31
0.0
  0
ENDBLK
  5
   2B5
  8
0
  6
CONTINUOUS
 62
     7
  0
BLOCK
  5
   2B6
  8
0
  6
CONTINUOUS
 62
    98
  2
*HATCH1069
 70
    65
 10
0.0
 20
0.0
 30
0.0
  3
*HATCH1069
  0
LINE
  5
   2B7
  8
0
  6
CONTINUOUS
 62
     3
 10
-46.4132194519043
 20
227.237091064453
 30
0.0
 11
-46.4999656677246
 21
227.150360107422
 31
0.0
  0
LINE
  5
   2B8
  8
0
  6
CONTINUOUS
 62
     3
 10
-45.3525581359863
 20
227.237091064453
 30
0.0
 11
-46.4999656677246
 21
226.089706420898
 31
0.0
  0
LINE
  5
   2B9
  8
0
  6
CONTINUOUS
 62
     3
 10
-44.2918968200684
 20
227.237091064453
 30
0.0
 11
-46.4999656677246
 21
225.029052734375
 31
0.0
  0
LINE
  5
   2BA
  8
0
  6
CONTINUOUS
 62
     3
 10
-43.2312355041504
 20
227.237091064453
 30
0.0
 11
-46.4999656677246
 21
223.968399047852
 31
0.0
  0
LINE
  5
   2BB
  8
0
  6
CONTINUOUS
 62
     3
 10
-42.4999656677246
 20
226.90771484375
 30
0.0
 11
-46.170581817627
 21
223.237091064453
 31
0.0
  0
LINE
  5
   2BC
  8
0
  6
CONTINUOUS
 62
     3
 10
-42.4999656677246
 20
225.847061157227
 30
0.0
 11
-45.109920501709
 21
223.237091064453
 31
0.0
  0
LINE
  5
   2BD
  8
0
  6
CONTINUOUS
 62
     3
 10
-42.4999656677246
 20
224.786407470703
 30
0.0
 11
-44.049259185791
 21
223.237091064453
 31
0.0
  0
LINE
  5
   2BE
  8
0
  6
CONTINUOUS
 62
     3
 10
-42.4999656677246
 20
223.72575378418
 30
0.0
 11
-42.988597869873
 21
223.237091064453
 31
0.0
  0
ENDBLK
  5
   2BF
  8
0
  6
CONTINUOUS
 62
    98
  0
BLOCK
  5
   2C0
  8
0
  6
CONTINUOUS
 62
    98
  2
*HATCH1070
 70
    65
 10
0.0
 20
0.0
 30
0.0
  3
*HATCH1070
  0
LINE
  5
   2C1
  8
0
  6
CONTINUOUS
 62
     3
 10
-45.4426574707031
 20
211.237091064453
 30
0.0
 11
-46.4999656677246
 21
210.179794311523
 31
0.0
  0
LINE
  5
   2C2
  8
0
  6
CONTINUOUS
 62
     3
 10
-44.3819961547852
 20
211.237091064453
 30
0.0
 11
-46.4999656677246
 21
209.119140625
 31
0.0
  0
LINE
  5
   2C3
  8
0
  6
CONTINUOUS
 62
     3
 10
-43.3213348388672
 20
211.237091064453
 30
0.0
 11
-46.4999656677246
 21
208.058486938477
 31
0.0
  0
LINE
  5
   2C4
  8
0
  6
CONTINUOUS
 62
     3
 10
-42.4999656677246
 20
210.997817993164
 30
0.0
 11
-46.2606773376465
 21
207.237091064453
 31
0.0
  0
LINE
  5
   2C5
  8
0
  6
CONTINUOUS
 62
     3
 10
-42.4999656677246
 20
209.937164306641
 30
0.0
 11
-45.2000160217285
 21
207.237091064453
 31
0.0
  0
LINE
  5
   2C6
  8
0
  6
CONTINUOUS
 62
     3
 10
-42.4999656677246
 20
208.876510620117
 30
0.0
 11
-44.1393547058105
 21
207.237091064453
 31
0.0
  0
LINE
  5
   2C7
  8
0
  6
CONTINUOUS
 62
     3
 10
-42.4999656677246
 20
207.815856933594
 30
0.0
 11
-43.0786933898926
 21
207.237091064453
 31
0.0
  0
ENDBLK
  5
   2C8
  8
0
  6
CONTINUOUS
 62
    98
  0
BLOCK
  5
   2C9
  8
0
  6
CONTINUOUS
 62
    98
  2
*HATCH1071
 70
    65
 10
0.0
 20
0.0
 30
0.0
  3
*HATCH1071
  0
LINE
  5
   2CA
  8
0
  6
CONTINUOUS
 62
     3
 10
-77.1723709106445
 20
227.237091064453
 30
0.0
 11
-77.9999618530274
 21
226.40950012207
 31
0.0
  0
LINE
  5
   2CB
  8
0
  6
CONTINUOUS
 62
     3
 10
-76.1117095947266
 20
227.237091064453
 30
0.0
 11
-77.9999618530274
 21
225.348846435547
 31
0.0
  0
LINE
  5
   2CC
  8
0
  6
CONTINUOUS
 62
     3
 10
-75.4999618530274
 20
226.788177490234
 30
0.0
 11
-77.9999618530274
 21
224.288177490234
 31
0.0
  0
LINE
  5
   2CD
  8
0
  6
CONTINUOUS
 62
     3
 10
-75.4999618530274
 20
225.727523803711
 30
0.0
 11
-77.9999618530274
 21
223.227523803711
 31
0.0
  0
LINE
  5
   2CE
  8
0
  6
CONTINUOUS
 62
     3
 10
-75.4999618530274
 20
224.666870117188
 30
0.0
 11
-77.9999618530274
 21
222.166870117187
 31
0.0
  0
LINE
  5
   2CF
  8
0
  6
CONTINUOUS
 62
     3
 10
-75.4999618530274
 20
223.606201171875
 30
0.0
 11
-77.9775619506836
 21
221.128601074219
 31
0.0
  0
LINE
  5
   2D0
  8
0
  6
CONTINUOUS
 62
     3
 10
-75.4999618530274
 20
222.545547485352
 30
0.0
 11
-77.7388229370117
 21
220.306686401367
 31
0.0
  0
LINE
  5
   2D1
  8
0
  6
CONTINUOUS
 62
     3
 10
-75.4999618530274
 20
221.484878540039
 30
0.0
 11
-77.2433700561523
 21
219.741470336914
 31
0.0
  0
LINE
  5
   2D2
  8
0
  6
CONTINUOUS
 62
     3
 10
-74.7982330322266
 20
221.125946044922
 30
0.0
 11
-76.5722961425781
 21
219.35188293457
 31
0.0
  0
LINE
  5
   2D3
  8
0
  6
CONTINUOUS
 62
     3
 10
-73.9712905883789
 20
220.892227172852
 30
0.0
 11
-75.6322555541992
 21
219.231262207031
 31
0.0
  0
LINE
  5
   2D4
  8
0
  6
CONTINUOUS
 62
     3
 10
-73.2686462402344
 20
220.534210205078
 30
0.0
 11
-74.7601089477539
 21
219.042755126953
 31
0.0
  0
LINE
  5
   2D5
  8
0
  6
CONTINUOUS
 62
     3
 10
-72.7089309692383
 20
220.033264160156
 30
0.0
 11
-74.1236267089844
 21
218.618576049805
 31
0.0
  0
LINE
  5
   2D6
  8
0
  6
CONTINUOUS
 62
     3
 10
-72.2063140869141
 20
219.475219726562
 30
0.0
 11
-73.6947784423828
 21
217.986770629883
 31
0.0
  0
LINE
  5
   2D7
  8
0
  6
CONTINUOUS
 62
     3
 10
-76.5567779541016
 20
215.124771118164
 30
0.0
 11
-77.8308486938477
 21
213.850692749023
 31
0.0
  0
LINE
  5
   2D8
  8
0
  6
CONTINUOUS
 62
     3
 10
-71.8482971191406
 20
218.772583007813
 30
0.0
 11
-73.5564498901367
 21
217.064437866211
 31
0.0
  0
LINE
  5
   2D9
  8
0
  6
CONTINUOUS
 62
     3
 10
-75.3259506225586
 20
215.294921875
 30
0.0
 11
-77.9999618530274
 21
212.620910644531
 31
0.0
  0
LINE
  5
   2DA
  8
0
  6
CONTINUOUS
 62
     3
 10
-71.6125106811523
 20
217.947708129883
 30
0.0
 11
-77.9999618530274
 21
211.560256958008
 31
0.0
  0
LINE
  5
   2DB
  8
0
  6
CONTINUOUS
 62
     3
 10
-71.5446624755859
 20
216.954895019531
 30
0.0
 11
-75.2177734375
 21
213.281784057617
 31
0.0
  0
LINE
  5
   2DC
  8
0
  6
CONTINUOUS
 62
     3
 10
-75.4999618530274
 20
212.999603271484
 30
0.0
 11
-77.9999618530274
 21
210.499603271484
 31
0.0
  0
LINE
  5
   2DD
  8
0
  6
CONTINUOUS
 62
     3
 10
-71.963623046875
 20
215.475280761719
 30
0.0
 11
-73.738151550293
 21
213.700744628906
 31
0.0
  0
LINE
  5
   2DE
  8
0
  6
CONTINUOUS
 62
     3
 10
-75.4999618530274
 20
211.938934326172
 30
0.0
 11
-77.9999618530274
 21
209.438934326172
 31
0.0
  0
LINE
  5
   2DF
  8
0
  6
CONTINUOUS
 62
     3
 10
-75.4999618530274
 20
210.878280639648
 30
0.0
 11
-77.9999618530274
 21
208.378280639648
 31
0.0
  0
LINE
  5
   2E0
  8
0
  6
CONTINUOUS
 62
     3
 10
-75.4999618530274
 20
209.817626953125
 30
0.0
 11
-77.9999618530274
 21
207.317626953125
 31
0.0
  0
LINE
  5
   2E1
  8
0
  6
CONTINUOUS
 62
     3
 10
-75.4999618530274
 20
208.756958007813
 30
0.0
 11
-77.0198211669922
 21
207.237091064453
 31
0.0
  0
LINE
  5
   2E2
  8
0
  6
CONTINUOUS
 62
     3
 10
-75.4999618530274
 20
207.696304321289
 30
0.0
 11
-75.9591598510742
 21
207.237091064453
 31
0.0
  0
ENDBLK
  5
   2E3
  8
0
  6
CONTINUOUS
 62
    98
  0
BLOCK
  5
   2E4
  8
0
  6
CONTINUOUS
 62
   218
  2
*HATCH1072
 70
    65
 10
0.0
 20
0.0
 30
0.0
  3
*HATCH1072
  0
LINE
  5
   2E5
  8
0
  6
CONTINUOUS
 62
     3
 10
-70.4023208618164
 20
252.038360595703
 30
0.0
 11
-72.2455978393555
 21
250.195083618164
 31
0.0
  0
LINE
  5
   2E6
  8
0
  6
CONTINUOUS
 62
     3
 10
-69.0759735107422
 20
252.304061889648
 30
0.0
 11
-71.8744277954102
 21
249.505599975586
 31
0.0
  0
LINE
  5
   2E7
  8
0
  6
CONTINUOUS
 62
     3
 10
-68.0004959106445
 20
252.318878173828
 30
0.0
 11
-71.2877426147461
 21
249.031631469727
 31
0.0
  0
LINE
  5
   2E8
  8
0
  6
CONTINUOUS
 62
     3
 10
-67.0423049926758
 20
252.216400146484
 30
0.0
 11
-70.5405578613281
 21
248.718139648438
 31
0.0
  0
LINE
  5
   2E9
  8
0
  6
CONTINUOUS
 62
     3
 10
-66.1708908081055
 20
252.027160644531
 30
0.0
 11
-69.6915588378906
 21
248.506484985352
 31
0.0
  0
LINE
  5
   2EA
  8
0
  6
CONTINUOUS
 62
     3
 10
-65.423713684082
 20
251.713668823242
 30
0.0
 11
-68.7577438354492
 21
248.379638671875
 31
0.0
  0
LINE
  5
   2EB
  8
0
  6
CONTINUOUS
 62
     3
 10
-64.8103408813477
 20
251.266387939453
 30
0.0
 11
-67.6970825195313
 21
248.379638671875
 31
0.0
  0
LINE
  5
   2EC
  8
0
  6
CONTINUOUS
 62
     3
 10
-64.3956069946289
 20
250.620452880859
 30
0.0
 11
-66.4208602905273
 21
248.595199584961
 31
0.0
  0
ENDBLK
  5
   2ED
  8
0
  6
CONTINUOUS
 62
   218
  0
BLOCK
  5
   2EE
  8
0
  6
CONTINUOUS
 62
     7
  2
$1CAVO
 70
    64
 10
0.0
 20
0.0
 30
0.0
  3
$1CAVO
  0
LINE
  5
   2EF
  8
0
  6
CONTINUOUS
 62
   218
 10
-58.099964209298
 20
208.737096448575
 30
0.0
 11
-58.099964209298
 21
231.737096448575
 31
0.0
  0
LINE
  5
   2F0
  8
0
  6
CONTINUOUS
 62
   218
 10
-70.499964209298
 20
208.737096448575
 30
0.0
 11
-70.499964209298
 21
231.737096448575
 31
0.0
  0
LINE
  5
   2F1
  8
0
  6
CONTINUOUS
 62
   218
 10
-70.499964209298
 20
208.737096448575
 30
0.0
 11
-58.099964209298
 21
208.737096448575
 31
0.0
  0
LINE
  5
   2F2
  8
0
  6
CONTINUOUS
 62
   218
 10
-72.299964209298
 20
231.737096448575
 30
0.0
 11
-56.299964209298
 21
231.737096448575
 31
0.0
  0
LINE
  5
   2F3
  8
0
  6
DASHDOT
 62
   218
 10
-64.299964209298
 20
203.675830579354
 30
0.0
 11
-64.299964209298
 21
252.349255591
 31
0.0
  0
LINE
  5
   2F4
  8
0
  6
CONTINUOUS
 62
   218
 10
-72.299964209298
 20
231.737096448575
 30
0.0
 11
-72.299964209298
 21
250.349255591
 31
0.0
  0
LINE
  5
   2F5
  8
0
  6
CONTINUOUS
 62
   218
 10
-56.299964209298
 20
231.737096448575
 30
0.0
 11
-56.299964209298
 21
250.349255591
 31
0.0
  0
LINE
  5
   2F6
  8
0
  6
CONTINUOUS
 62
   218
 10
-64.299964209298
 20
208.737096448575
 30
0.0
 11
-60.2444436530033
 21
231.737096448575
 31
0.0
  0
POLYLINE
  5
   2F7
  8
0
  6
CONTINUOUS
 62
   218
 66
     1
 10
0.0
 20
0.0
 30
0.0
 70
     1
  0
VERTEX
  5
   2F8
  8
0
  6
CONTINUOUS
 10
-72.299964209298
 20
250.34925559099
 30
0.0
 40
0.0
 41
0.0
  0
VERTEX
  5
   2F9
  8
0
  6
CONTINUOUS
 10
-72.2987594840827
 20
250.300173133944
 30
0.0
 40
0.0
 41
0.0
  0
VERTEX
  5
   2FA
  8
0
  6
CONTINUOUS
 10
-72.2951460341185
 20
250.251120242335
 30
0.0
 40
0.0
 41
0.0
  0
VERTEX
  5
   2FB
  8
0
  6
CONTINUOUS
 10
-72.2891260360124
 20
250.20212646379
 30
0.0
 40
0.0
 41
0.0
  0
VERTEX
  5
   2FC
  8
0
  6
CONTINUOUS
 10
-72.2807031159863
 20
250.153221310331
 30
0.0
 40
0.0
 41
0.0
  0
VERTEX
  5
   2FD
  8
0
  6
CONTINUOUS
 10
-72.2698823476922
 20
250.104434240591
 30
0.0
 40
0.0
 41
0.0
  0
VERTEX
  5
   2FE
  8
0
  6
CONTINUOUS
 10
-72.2566702491564
 20
250.055794642079
 30
0.0
 40
0.0
 41
0.0
  0
VERTEX
  5
   2FF
  8
0
  6
CONTINUOUS
 10
-72.2410747788529
 20
250.007331813469
 30
0.0
 40
0.0
 41
0.0
  0
VERTEX
  5
   300
  8
0
  6
CONTINUOUS
 10
-72.22310533091
 20
249.959074946958
 30
0.0
 40
0.0
 41
0.0
  0
VERTEX
  5
   301
  8
0
  6
CONTINUOUS
 10
-72.202772729451
 20
249.911053110676
 30
0.0
 40
0.0
 41
0.0
  0
VERTEX
  5
   302
  8
0
  6
CONTINUOUS
 10
-72.180089222075
 20
249.863295231183
 30
0.0
 40
0.0
 41
0.0
  0
VERTEX
  5
   303
  8
0
  6
CONTINUOUS
 10
-72.1550684724784
 20
249.81583007604
 30
0.0
 40
0.0
 41
0.0
  0
VERTEX
  5
   304
  8
0
  6
CONTINUOUS
 10
-72.1277255522254
 20
249.768686236481
 30
0.0
 40
0.0
 41
0.0
  0
VERTEX
  5
   305
  8
0
  6
CONTINUOUS
 10
-72.0980769316686
 20
249.721892110192
 30
0.0
 40
0.0
 41
0.0
  0
VERTEX
  5
   306
  8
0
  6
CONTINUOUS
 10
-72.0661404700284
 20
249.675475884206
 30
0.0
 40
0.0
 41
0.0
  0
VERTEX
  5
   307
  8
0
  6
CONTINUOUS
 10
-72.0319354046352
 20
249.62946551792
 30
0.0
 40
0.0
 41
0.0
  0
VERTEX
  5
   308
  8
0
  6
CONTINUOUS
 10
-71.9954823393412
 20
249.58388872626
 30
0.0
 40
0.0
 41
0.0
  0
VERTEX
  5
   309
  8
0
  6
CONTINUOUS
 10
-71.9159213817896
 20
249.49414540413
 30
0.0
 40
0.0
 41
0.0
  0
VERTEX
  5
   30A
  8
0
  6
CONTINUOUS
 10
-71.8276492666891
 20
249.406462117339
 30
0.0
 40
0.0
 41
0.0
  0
VERTEX
  5
   30B
  8
0
  6
CONTINUOUS
 10
-71.7308786492965
 20
249.321050102605
 30
0.0
 40
0.0
 41
0.0
  0
VERTEX
  5
   30C
  8
0
  6
CONTINUOUS
 10
-71.6258426585054
 20
249.238115124952
 30
0.0
 40
0.0
 41
0.0
  0
VERTEX
  5
   30D
  8
0
  6
CONTINUOUS
 10
-71.5127943352176
 20
249.157856982007
 30
0.0
 40
0.0
 41
0.0
  0
VERTEX
  5
   30E
  8
0
  6
CONTINUOUS
 10
-71.3920060227458
 20
249.080469022665
 30
0.0
 40
0.0
 41
0.0
  0
VERTEX
  5
   30F
  8
0
  6
CONTINUOUS
 10
-71.2637687107145
 20
249.006137681298
 30
0.0
 40
0.0
 41
0.0
  0
VERTEX
  5
   310
  8
0
  6
CONTINUOUS
 10
-71.1283913340406
 20
248.93504202862
 30
0.0
 40
0.0
 41
0.0
  0
VERTEX
  5
   311
  8
0
  6
CONTINUOUS
 10
-70.9862000286824
 20
248.867353340283
 30
0.0
 40
0.0
 41
0.0
  0
VERTEX
  5
   312
  8
0
  6
CONTINUOUS
 10
-70.8375373459487
 20
248.803234684268
 30
0.0
 40
0.0
 41
0.0
  0
VERTEX
  5
   313
  8
0
  6
CONTINUOUS
 10
-70.6827614272637
 20
248.742840528032
 30
0.0
 40
0.0
 41
0.0
  0
VERTEX
  5
   314
  8
0
  6
CONTINUOUS
 10
-70.5222451413722
 20
248.686316366389
 30
0.0
 40
0.0
 41
0.0
  0
VERTEX
  5
   315
  8
0
  6
CONTINUOUS
 10
-70.3563751860666
 20
248.633798370994
 30
0.0
 40
0.0
 41
0.0
  0
VERTEX
  5
   316
  8
0
  6
CONTINUOUS
 10
-70.1855511565976
 20
248.585413062298
 30
0.0
 40
0.0
 41
0.0
  0
VERTEX
  5
   317
  8
0
  6
CONTINUOUS
 10
-70.0101845830146
 20
248.541277004749
 30
0.0
 40
0.0
 41
0.0
  0
VERTEX
  5
   318
  8
0
  6
CONTINUOUS
 10
-69.8306979387537
 20
248.501496525973
 30
0.0
 40
0.0
 41
0.0
  0
VERTEX
  5
   319
  8
0
  6
CONTINUOUS
 10
-69.6475236228622
 20
248.46616746063
 30
0.0
 40
0.0
 41
0.0
  0
VERTEX
  5
   31A
  8
0
  6
CONTINUOUS
 10
-69.4611029183111
 20
248.435374919532
 30
0.0
 40
0.0
 41
0.0
  0
VERTEX
  5
   31B
  8
0
  6
CONTINUOUS
 10
-69.2718849289062
 20
248.409193084608
 30
0.0
 40
0.0
 41
0.0
  0
VERTEX
  5
   31C
  8
0
  6
CONTINUOUS
 10
-69.0803254973576
 20
248.387685030191
 30
0.0
 40
0.0
 41
0.0
  0
VERTEX
  5
   31D
  8
0
  6
CONTINUOUS
 10
-68.8868861071145
 20
248.370902571069
 30
0.0
 40
0.0
 41
0.0
  0
VERTEX
  5
   31E
  8
0
  6
CONTINUOUS
 10
-68.6920327706112
 20
248.358886137654
 30
0.0
 40
0.0
 41
0.0
  0
VERTEX
  5
   31F
  8
0
  6
CONTINUOUS
 10
-68.4962349066027
 20
248.351664678589
 30
0.0
 40
0.0
 41
0.0
  0
VERTEX
  5
   320
  8
0
  6
CONTINUOUS
 10
-68.299964209293
 20
248.349255591
 30
0.0
 40
0.0
 41
0.0
  0
VERTEX
  5
   321
  8
0
  6
CONTINUOUS
 10
-68.1036935119833
 20
248.35166467859
 30
0.0
 40
0.0
 41
0.0
  0
VERTEX
  5
   322
  8
0
  6
CONTINUOUS
 10
-67.9078956479748
 20
248.358886137656
 30
0.0
 40
0.0
 41
0.0
  0
VERTEX
  5
   323
  8
0
  6
CONTINUOUS
 10
-67.7130423114716
 20
248.370902571072
 30
0.0
 40
0.0
 41
0.0
  0
VERTEX
  5
   324
  8
0
  6
CONTINUOUS
 10
-67.5196029212286
 20
248.387685030195
 30
0.0
 40
0.0
 41
0.0
  0
VERTEX
  5
   325
  8
0
  6
CONTINUOUS
 10
-67.3280434896801
 20
248.409193084613
 30
0.0
 40
0.0
 41
0.0
  0
VERTEX
  5
   326
  8
0
  6
CONTINUOUS
 10
-67.1388255002754
 20
248.435374919538
 30
0.0
 40
0.0
 41
0.0
  0
VERTEX
  5
   327
  8
0
  6
CONTINUOUS
 10
-66.9524047957244
 20
248.466167460637
 30
0.0
 40
0.0
 41
0.0
  0
VERTEX
  5
   328
  8
0
  6
CONTINUOUS
 10
-66.769230479833
 20
248.501496525981
 30
0.0
 40
0.0
 41
0.0
  0
VERTEX
  5
   329
  8
0
  6
CONTINUOUS
 10
-66.5897438355723
 20
248.541277004757
 30
0.0
 40
0.0
 41
0.0
  0
VERTEX
  5
   32A
  8
0
  6
CONTINUOUS
 10
-66.4143772619896
 20
248.585413062308
 30
0.0
 40
0.0
 41
0.0
  0
VERTEX
  5
   32B
  8
0
  6
CONTINUOUS
 10
-66.2435532325208
 20
248.633798371004
 30
0.0
 40
0.0
 41
0.0
  0
VERTEX
  5
   32C
  8
0
  6
CONTINUOUS
 10
-66.0776832772154
 20
248.6863163664
 30
0.0
 40
0.0
 41
0.0
  0
VERTEX
  5
   32D
  8
0
  6
CONTINUOUS
 10
-65.9171669913242
 20
248.742840528044
 30
0.0
 40
0.0
 41
0.0
  0
VERTEX
  5
   32E
  8
0
  6
CONTINUOUS
 10
-65.7623910726396
 20
248.803234684281
 30
0.0
 40
0.0
 41
0.0
  0
VERTEX
  5
   32F
  8
0
  6
CONTINUOUS
 10
-65.6137283899062
 20
248.867353340297
 30
0.0
 40
0.0
 41
0.0
  0
VERTEX
  5
   330
  8
0
  6
CONTINUOUS
 10
-65.4715370845483
 20
248.935042028634
 30
0.0
 40
0.0
 41
0.0
  0
VERTEX
  5
   331
  8
0
  6
CONTINUOUS
 10
-65.3361597078748
 20
249.006137681313
 30
0.0
 40
0.0
 41
0.0
  0
VERTEX
  5
   332
  8
0
  6
CONTINUOUS
 10
-65.2079223958439
 20
249.08046902268
 30
0.0
 40
0.0
 41
0.0
  0
VERTEX
  5
   333
  8
0
  6
CONTINUOUS
 10
-65.0871340833724
 20
249.157856982023
 30
0.0
 40
0.0
 41
0.0
  0
VERTEX
  5
   334
  8
0
  6
CONTINUOUS
 10
-64.974085760085
 20
249.238115124969
 30
0.0
 40
0.0
 41
0.0
  0
VERTEX
  5
   335
  8
0
  6
CONTINUOUS
 10
-64.8690497692943
 20
249.321050102622
 30
0.0
 40
0.0
 41
0.0
  0
VERTEX
  5
   336
  8
0
  6
CONTINUOUS
 10
-64.7722791519022
 20
249.406462117357
 30
0.0
 40
0.0
 41
0.0
  0
VERTEX
  5
   337
  8
0
  6
CONTINUOUS
 10
-64.6840070368021
 20
249.494145404148
 30
0.0
 40
0.0
 41
0.0
  0
VERTEX
  5
   338
  8
0
  6
CONTINUOUS
 10
-64.604446079251
 20
249.583888726279
 30
0.0
 40
0.0
 41
0.0
  0
VERTEX
  5
   339
  8
0
  6
CONTINUOUS
 10
-64.5679930139573
 20
249.629465517939
 30
0.0
 40
0.0
 41
0.0
  0
VERTEX
  5
   33A
  8
0
  6
CONTINUOUS
 10
-64.5337879485642
 20
249.675475884225
 30
0.0
 40
0.0
 41
0.0
  0
VERTEX
  5
   33B
  8
0
  6
CONTINUOUS
 10
-64.5018514869243
 20
249.721892110211
 30
0.0
 40
0.0
 41
0.0
  0
VERTEX
  5
   33C
  8
0
  6
CONTINUOUS
 10
-64.4722028663677
 20
249.7686862365
 30
0.0
 40
0.0
 41
0.0
  0
VERTEX
  5
   33D
  8
0
  6
CONTINUOUS
 10
-64.4448599461149
 20
249.81583007606
 30
0.0
 40
0.0
 41
0.0
  0
VERTEX
  5
   33E
  8
0
  6
CONTINUOUS
 10
-64.4198391965186
 20
249.863295231203
 30
0.0
 40
0.0
 41
0.0
  0
VERTEX
  5
   33F
  8
0
  6
CONTINUOUS
 10
-64.3971556891428
 20
249.911053110696
 30
0.0
 40
0.0
 41
0.0
  0
VERTEX
  5
   340
  8
0
  6
CONTINUOUS
 10
-64.3768230876841
 20
249.959074946977
 30
0.0
 40
0.0
 41
0.0
  0
VERTEX
  5
   341
  8
0
  6
CONTINUOUS
 10
-64.3588536397414
 20
250.007331813489
 30
0.0
 40
0.0
 41
0.0
  0
VERTEX
  5
   342
  8
0
  6
CONTINUOUS
 10
-64.3432581694382
 20
250.055794642099
 30
0.0
 40
0.0
 41
0.0
  0
VERTEX
  5
   343
  8
0
  6
CONTINUOUS
 10
-64.3300460709026
 20
250.104434240611
 30
0.0
 40
0.0
 41
0.0
  0
VERTEX
  5
   344
  8
0
  6
CONTINUOUS
 10
-64.3192253026087
 20
250.153221310351
 30
0.0
 40
0.0
 41
0.0
  0
VERTEX
  5
   345
  8
0
  6
CONTINUOUS
 10
-64.3108023825829
 20
250.20212646381
 30
0.0
 40
0.0
 41
0.0
  0
VERTEX
  5
   346
  8
0
  6
CONTINUOUS
 10
-64.3047823844771
 20
250.251120242355
 30
0.0
 40
0.0
 41
0.0
  0
VERTEX
  5
   347
  8
0
  6
CONTINUOUS
 10
-64.3011689345131
 20
250.300173133964
 30
0.0
 40
0.0
 41
0.0
  0
VERTEX
  5
   348
  8
0
  6
CONTINUOUS
 10
-64.299964209298
 20
250.34925559101
 30
0.0
 40
0.0
 41
0.0
  0
VERTEX
  5
   349
  8
0
  6
CONTINUOUS
 10
-64.3011689345133
 20
250.398338048056
 30
0.0
 40
0.0
 41
0.0
  0
VERTEX
  5
   34A
  8
0
  6
CONTINUOUS
 10
-64.3047823844776
 20
250.447390939665
 30
0.0
 40
0.0
 41
0.0
  0
VERTEX
  5
   34B
  8
0
  6
CONTINUOUS
 10
-64.3108023825836
 20
250.496384718209
 30
0.0
 40
0.0
 41
0.0
  0
VERTEX
  5
   34C
  8
0
  6
CONTINUOUS
 10
-64.3192253026097
 20
250.545289871669
 30
0.0
 40
0.0
 41
0.0
  0
VERTEX
  5
   34D
  8
0
  6
CONTINUOUS
 10
-64.3300460709038
 20
250.594076941408
 30
0.0
 40
0.0
 41
0.0
  0
VERTEX
  5
   34E
  8
0
  6
CONTINUOUS
 10
-64.3432581694396
 20
250.64271653992
 30
0.0
 40
0.0
 41
0.0
  0
VERTEX
  5
   34F
  8
0
  6
CONTINUOUS
 10
-64.3588536397431
 20
250.69117936853
 30
0.0
 40
0.0
 41
0.0
  0
VERTEX
  5
   350
  8
0
  6
CONTINUOUS
 10
-64.3768230876861
 20
250.739436235042
 30
0.0
 40
0.0
 41
0.0
  0
VERTEX
  5
   351
  8
0
  6
CONTINUOUS
 10
-64.397155689145
 20
250.787458071323
 30
0.0
 40
0.0
 41
0.0
  0
VERTEX
  5
   352
  8
0
  6
CONTINUOUS
 10
-64.4198391965211
 20
250.835215950816
 30
0.0
 40
0.0
 41
0.0
  0
VERTEX
  5
   353
  8
0
  6
CONTINUOUS
 10
-64.4448599461176
 20
250.882681105959
 30
0.0
 40
0.0
 41
0.0
  0
VERTEX
  5
   354
  8
0
  6
CONTINUOUS
 10
-64.4722028663706
 20
250.929824945518
 30
0.0
 40
0.0
 41
0.0
  0
VERTEX
  5
   355
  8
0
  6
CONTINUOUS
 10
-64.5018514869274
 20
250.976619071807
 30
0.0
 40
0.0
 41
0.0
  0
VERTEX
  5
   356
  8
0
  6
CONTINUOUS
 10
-64.5337879485676
 20
251.023035297794
 30
0.0
 40
0.0
 41
0.0
  0
VERTEX
  5
   357
  8
0
  6
CONTINUOUS
 10
-64.5679930139609
 20
251.069045664079
 30
0.0
 40
0.0
 41
0.0
  0
VERTEX
  5
   358
  8
0
  6
CONTINUOUS
 10
-64.6044460792548
 20
251.114622455739
 30
0.0
 40
0.0
 41
0.0
  0
VERTEX
  5
   359
  8
0
  6
CONTINUOUS
 10
-64.6840070368064
 20
251.204365777869
 30
0.0
 40
0.0
 41
0.0
  0
VERTEX
  5
   35A
  8
0
  6
CONTINUOUS
 10
-64.772279151907
 20
251.292049064661
 30
0.0
 40
0.0
 41
0.0
  0
VERTEX
  5
   35B
  8
0
  6
CONTINUOUS
 10
-64.8690497692995
 20
251.377461079395
 30
0.0
 40
0.0
 41
0.0
  0
VERTEX
  5
   35C
  8
0
  6
CONTINUOUS
 10
-64.9740857600906
 20
251.460396057047
 30
0.0
 40
0.0
 41
0.0
  0
VERTEX
  5
   35D
  8
0
  6
CONTINUOUS
 10
-65.0871340833784
 20
251.540654199993
 30
0.0
 40
0.0
 41
0.0
  0
VERTEX
  5
   35E
  8
0
  6
CONTINUOUS
 10
-65.2079223958502
 20
251.618042159335
 30
0.0
 40
0.0
 41
0.0
  0
VERTEX
  5
   35F
  8
0
  6
CONTINUOUS
 10
-65.3361597078815
 20
251.692373500701
 30
0.0
 40
0.0
 41
0.0
  0
VERTEX
  5
   360
  8
0
  6
CONTINUOUS
 10
-65.4715370845554
 20
251.76346915338
 30
0.0
 40
0.0
 41
0.0
  0
VERTEX
  5
   361
  8
0
  6
CONTINUOUS
 10
-65.6137283899137
 20
251.831157841716
 30
0.0
 40
0.0
 41
0.0
  0
VERTEX
  5
   362
  8
0
  6
CONTINUOUS
 10
-65.7623910726473
 20
251.895276497732
 30
0.0
 40
0.0
 41
0.0
  0
VERTEX
  5
   363
  8
0
  6
CONTINUOUS
 10
-65.9171669913323
 20
251.955670653967
 30
0.0
 40
0.0
 41
0.0
  0
VERTEX
  5
   364
  8
0
  6
CONTINUOUS
 10
-66.0776832772238
 20
252.01219481561
 30
0.0
 40
0.0
 41
0.0
  0
VERTEX
  5
   365
  8
0
  6
CONTINUOUS
 10
-66.2435532325294
 20
252.064712811005
 30
0.0
 40
0.0
 41
0.0
  0
VERTEX
  5
   366
  8
0
  6
CONTINUOUS
 10
-66.4143772619985
 20
252.113098119701
 30
0.0
 40
0.0
 41
0.0
  0
VERTEX
  5
   367
  8
0
  6
CONTINUOUS
 10
-66.5897438355814
 20
252.157234177251
 30
0.0
 40
0.0
 41
0.0
  0
VERTEX
  5
   368
  8
0
  6
CONTINUOUS
 10
-66.7692304798423
 20
252.197014656026
 30
0.0
 40
0.0
 41
0.0
  0
VERTEX
  5
   369
  8
0
  6
CONTINUOUS
 10
-66.9524047957339
 20
252.232343721369
 30
0.0
 40
0.0
 41
0.0
  0
VERTEX
  5
   36A
  8
0
  6
CONTINUOUS
 10
-67.138825500285
 20
252.263136262467
 30
0.0
 40
0.0
 41
0.0
  0
VERTEX
  5
   36B
  8
0
  6
CONTINUOUS
 10
-67.3280434896898
 20
252.289318097391
 30
0.0
 40
0.0
 41
0.0
  0
VERTEX
  5
   36C
  8
0
  6
CONTINUOUS
 10
-67.5196029212384
 20
252.310826151808
 30
0.0
 40
0.0
 41
0.0
  0
VERTEX
  5
   36D
  8
0
  6
CONTINUOUS
 10
-67.7130423114815
 20
252.327608610931
 30
0.0
 40
0.0
 41
0.0
  0
VERTEX
  5
   36E
  8
0
  6
CONTINUOUS
 10
-67.9078956479848
 20
252.339625044345
 30
0.0
 40
0.0
 41
0.0
  0
VERTEX
  5
   36F
  8
0
  6
CONTINUOUS
 10
-68.1036935119934
 20
252.346846503411
 30
0.0
 40
0.0
 41
0.0
  0
VERTEX
  5
   370
  8
0
  6
CONTINUOUS
 10
-68.299964209303
 20
252.349255591
 30
0.0
 40
0.0
 41
0.0
  0
VERTEX
  5
   371
  8
0
  6
CONTINUOUS
 10
-68.4962349066127
 20
252.34684650341
 30
0.0
 40
0.0
 41
0.0
  0
VERTEX
  5
   372
  8
0
  6
CONTINUOUS
 10
-68.6920327706213
 20
252.339625044343
 30
0.0
 40
0.0
 41
0.0
  0
VERTEX
  5
   373
  8
0
  6
CONTINUOUS
 10
-68.8868861071244
 20
252.327608610928
 30
0.0
 40
0.0
 41
0.0
  0
VERTEX
  5
   374
  8
0
  6
CONTINUOUS
 10
-69.0803254973675
 20
252.310826151804
 30
0.0
 40
0.0
 41
0.0
  0
VERTEX
  5
   375
  8
0
  6
CONTINUOUS
 10
-69.2718849289159
 20
252.289318097386
 30
0.0
 40
0.0
 41
0.0
  0
VERTEX
  5
   376
  8
0
  6
CONTINUOUS
 10
-69.4611029183207
 20
252.263136262461
 30
0.0
 40
0.0
 41
0.0
  0
VERTEX
  5
   377
  8
0
  6
CONTINUOUS
 10
-69.6475236228716
 20
252.232343721362
 30
0.0
 40
0.0
 41
0.0
  0
VERTEX
  5
   378
  8
0
  6
CONTINUOUS
 10
-69.830697938763
 20
252.197014656018
 30
0.0
 40
0.0
 41
0.0
  0
VERTEX
  5
   379
  8
0
  6
CONTINUOUS
 10
-70.0101845830237
 20
252.157234177242
 30
0.0
 40
0.0
 41
0.0
  0
VERTEX
  5
   37A
  8
0
  6
CONTINUOUS
 10
-70.1855511566064
 20
252.113098119692
 30
0.0
 40
0.0
 41
0.0
  0
VERTEX
  5
   37B
  8
0
  6
CONTINUOUS
 10
-70.3563751860752
 20
252.064712810995
 30
0.0
 40
0.0
 41
0.0
  0
VERTEX
  5
   37C
  8
0
  6
CONTINUOUS
 10
-70.5222451413806
 20
252.012194815599
 30
0.0
 40
0.0
 41
0.0
  0
VERTEX
  5
   37D
  8
0
  6
CONTINUOUS
 10
-70.6827614272718
 20
251.955670653955
 30
0.0
 40
0.0
 41
0.0
  0
VERTEX
  5
   37E
  8
0
  6
CONTINUOUS
 10
-70.8375373459565
 20
251.895276497719
 30
0.0
 40
0.0
 41
0.0
  0
VERTEX
  5
   37F
  8
0
  6
CONTINUOUS
 10
-70.9862000286898
 20
251.831157841703
 30
0.0
 40
0.0
 41
0.0
  0
VERTEX
  5
   380
  8
0
  6
CONTINUOUS
 10
-71.1283913340478
 20
251.763469153366
 30
0.0
 40
0.0
 41
0.0
  0
VERTEX
  5
   381
  8
0
  6
CONTINUOUS
 10
-71.2637687107212
 20
251.692373500686
 30
0.0
 40
0.0
 41
0.0
  0
VERTEX
  5
   382
  8
0
  6
CONTINUOUS
 10
-71.3920060227521
 20
251.618042159319
 30
0.0
 40
0.0
 41
0.0
  0
VERTEX
  5
   383
  8
0
  6
CONTINUOUS
 10
-71.5127943352236
 20
251.540654199976
 30
0.0
 40
0.0
 41
0.0
  0
VERTEX
  5
   384
  8
0
  6
CONTINUOUS
 10
-71.625842658511
 20
251.460396057031
 30
0.0
 40
0.0
 41
0.0
  0
VERTEX
  5
   385
  8
0
  6
CONTINUOUS
 10
-71.7308786493017
 20
251.377461079378
 30
0.0
 40
0.0
 41
0.0
  0
VERTEX
  5
   386
  8
0
  6
CONTINUOUS
 10
-71.8276492666938
 20
251.292049064643
 30
0.0
 40
0.0
 41
0.0
  0
VERTEX
  5
   387
  8
0
  6
CONTINUOUS
 10
-71.9159213817939
 20
251.204365777851
 30
0.0
 40
0.0
 41
0.0
  0
VERTEX
  5
   388
  8
0
  6
CONTINUOUS
 10
-71.9954823393451
 20
251.114622455721
 30
0.0
 40
0.0
 41
0.0
  0
VERTEX
  5
   389
  8
0
  6
CONTINUOUS
 10
-72.0319354046388
 20
251.06904566406
 30
0.0
 40
0.0
 41
0.0
  0
VERTEX
  5
   38A
  8
0
  6
CONTINUOUS
 10
-72.0661404700318
 20
251.023035297775
 30
0.0
 40
0.0
 41
0.0
  0
VERTEX
  5
   38B
  8
0
  6
CONTINUOUS
 10
-72.0980769316717
 20
250.976619071788
 30
0.0
 40
0.0
 41
0.0
  0
VERTEX
  5
   38C
  8
0
  6
CONTINUOUS
 10
-72.1277255522283
 20
250.929824945499
 30
0.0
 40
0.0
 41
0.0
  0
VERTEX
  5
   38D
  8
0
  6
CONTINUOUS
 10
-72.1550684724811
 20
250.88268110594
 30
0.0
 40
0.0
 41
0.0
  0
VERTEX
  5
   38E
  8
0
  6
CONTINUOUS
 10
-72.1800892220774
 20
250.835215950796
 30
0.0
 40
0.0
 41
0.0
  0
VERTEX
  5
   38F
  8
0
  6
CONTINUOUS
 10
-72.2027727294532
 20
250.787458071304
 30
0.0
 40
0.0
 41
0.0
  0
VERTEX
  5
   390
  8
0
  6
CONTINUOUS
 10
-72.2231053309119
 20
250.739436235022
 30
0.0
 40
0.0
 41
0.0
  0
VERTEX
  5
   391
  8
0
  6
CONTINUOUS
 10
-72.2410747788546
 20
250.69117936851
 30
0.0
 40
0.0
 41
0.0
  0
VERTEX
  5
   392
  8
0
  6
CONTINUOUS
 10
-72.2566702491579
 20
250.642716539901
 30
0.0
 40
0.0
 41
0.0
  0
VERTEX
  5
   393
  8
0
  6
CONTINUOUS
 10
-72.2698823476935
 20
250.594076941388
 30
0.0
 40
0.0
 41
0.0
  0
VERTEX
  5
   394
  8
0
  6
CONTINUOUS
 10
-72.2807031159873
 20
250.545289871649
 30
0.0
 40
0.0
 41
0.0
  0
VERTEX
  5
   395
  8
0
  6
CONTINUOUS
 10
-72.2891260360131
 20
250.496384718189
 30
0.0
 40
0.0
 41
0.0
  0
VERTEX
  5
   396
  8
0
  6
CONTINUOUS
 10
-72.2951460341189
 20
250.447390939645
 30
0.0
 40
0.0
 41
0.0
  0
VERTEX
  5
   397
  8
0
  6
CONTINUOUS
 10
-72.298759484083
 20
250.398338048035
 30
0.0
 40
0.0
 41
0.0
  0
VERTEX
  5
   398
  8
0
  6
CONTINUOUS
 10
-72.299964209298
 20
250.34925559099
 30
0.0
 40
0.0
 41
0.0
  0
SEQEND
  5
   399
  8
0
  6
CONTINUOUS
 62
   218
  0
POLYLINE
  5
   39A
  8
0
  6
CONTINUOUS
 62
   218
 66
     1
 10
0.0
 20
0.0
 30
0.0
  0
VERTEX
  5
   39B
  8
0
  6
CONTINUOUS
 10
-56.299964209298
 20
250.349255591015
 30
0.0
 40
0.0
 41
0.0
  0
VERTEX
  5
   39C
  8
0
  6
CONTINUOUS
 10
-56.3011689345136
 20
250.398338048061
 30
0.0
 40
0.0
 41
0.0
  0
VERTEX
  5
   39D
  8
0
  6
CONTINUOUS
 10
-56.3047823844781
 20
250.44739093967
 30
0.0
 40
0.0
 41
0.0
  0
VERTEX
  5
   39E
  8
0
  6
CONTINUOUS
 10
-56.3108023825844
 20
250.496384718214
 30
0.0
 40
0.0
 41
0.0
  0
VERTEX
  5
   39F
  8
0
  6
CONTINUOUS
 10
-56.3192253026107
 20
250.545289871674
 30
0.0
 40
0.0
 41
0.0
  0
VERTEX
  5
   3A0
  8
0
  6
CONTINUOUS
 10
-56.3300460709051
 20
250.594076941413
 30
0.0
 40
0.0
 41
0.0
  0
VERTEX
  5
   3A1
  8
0
  6
CONTINUOUS
 10
-56.3432581694412
 20
250.642716539926
 30
0.0
 40
0.0
 41
0.0
  0
VERTEX
  5
   3A2
  8
0
  6
CONTINUOUS
 10
-56.3588536397449
 20
250.691179368535
 30
0.0
 40
0.0
 41
0.0
  0
VERTEX
  5
   3A3
  8
0
  6
CONTINUOUS
 10
-56.3768230876882
 20
250.739436235047
 30
0.0
 40
0.0
 41
0.0
  0
VERTEX
  5
   3A4
  8
0
  6
CONTINUOUS
 10
-56.3971556891474
 20
250.787458071328
 30
0.0
 40
0.0
 41
0.0
  0
VERTEX
  5
   3A5
  8
0
  6
CONTINUOUS
 10
-56.4198391965237
 20
250.835215950821
 30
0.0
 40
0.0
 41
0.0
  0
VERTEX
  5
   3A6
  8
0
  6
CONTINUOUS
 10
-56.4448599461205
 20
250.882681105964
 30
0.0
 40
0.0
 41
0.0
  0
VERTEX
  5
   3A7
  8
0
  6
CONTINUOUS
 10
-56.4722028663738
 20
250.929824945523
 30
0.0
 40
0.0
 41
0.0
  0
VERTEX
  5
   3A8
  8
0
  6
CONTINUOUS
 10
-56.5018514869309
 20
250.976619071812
 30
0.0
 40
0.0
 41
0.0
  0
VERTEX
  5
   3A9
  8
0
  6
CONTINUOUS
 10
-56.5337879485714
 20
251.023035297799
 30
0.0
 40
0.0
 41
0.0
  0
VERTEX
  5
   3AA
  8
0
  6
CONTINUOUS
 10
-56.5679930139649
 20
251.069045664084
 30
0.0
 40
0.0
 41
0.0
  0
VERTEX
  5
   3AB
  8
0
  6
CONTINUOUS
 10
-56.6044460792591
 20
251.114622455744
 30
0.0
 40
0.0
 41
0.0
  0
VERTEX
  5
   3AC
  8
0
  6
CONTINUOUS
 10
-56.6840070368113
 20
251.204365777875
 30
0.0
 40
0.0
 41
0.0
  0
VERTEX
  5
   3AD
  8
0
  6
CONTINUOUS
 10
-56.7722791519124
 20
251.292049064666
 30
0.0
 40
0.0
 41
0.0
  0
VERTEX
  5
   3AE
  8
0
  6
CONTINUOUS
 10
-56.8690497693056
 20
251.3774610794
 30
0.0
 40
0.0
 41
0.0
  0
VERTEX
  5
   3AF
  8
0
  6
CONTINUOUS
 10
-56.9740857600973
 20
251.460396057052
 30
0.0
 40
0.0
 41
0.0
  0
VERTEX
  5
   3B0
  8
0
  6
CONTINUOUS
 10
-57.0871340833856
 20
251.540654199997
 30
0.0
 40
0.0
 41
0.0
  0
VERTEX
  5
   3B1
  8
0
  6
CONTINUOUS
 10
-57.207922395858
 20
251.61804215934
 30
0.0
 40
0.0
 41
0.0
  0
VERTEX
  5
   3B2
  8
0
  6
CONTINUOUS
 10
-57.3361597078899
 20
251.692373500706
 30
0.0
 40
0.0
 41
0.0
  0
VERTEX
  5
   3B3
  8
0
  6
CONTINUOUS
 10
-57.4715370845643
 20
251.763469153384
 30
0.0
 40
0.0
 41
0.0
  0
VERTEX
  5
   3B4
  8
0
  6
CONTINUOUS
 10
-57.6137283899231
 20
251.831157841721
 30
0.0
 40
0.0
 41
0.0
  0
VERTEX
  5
   3B5
  8
0
  6
CONTINUOUS
 10
-57.7623910726573
 20
251.895276497736
 30
0.0
 40
0.0
 41
0.0
  0
VERTEX
  5
   3B6
  8
0
  6
CONTINUOUS
 10
-57.9171669913428
 20
251.955670653971
 30
0.0
 40
0.0
 41
0.0
  0
VERTEX
  5
   3B7
  8
0
  6
CONTINUOUS
 10
-58.0776832772348
 20
252.012194815614
 30
0.0
 40
0.0
 41
0.0
  0
VERTEX
  5
   3B8
  8
0
  6
CONTINUOUS
 10
-58.2435532325409
 20
252.064712811009
 30
0.0
 40
0.0
 41
0.0
  0
VERTEX
  5
   3B9
  8
0
  6
CONTINUOUS
 10
-58.4143772620104
 20
252.113098119704
 30
0.0
 40
0.0
 41
0.0
  0
VERTEX
  5
   3BA
  8
0
  6
CONTINUOUS
 10
-58.5897438355938
 20
252.157234177254
 30
0.0
 40
0.0
 41
0.0
  0
VERTEX
  5
   3BB
  8
0
  6
CONTINUOUS
 10
-58.7692304798551
 20
252.197014656029
 30
0.0
 40
0.0
 41
0.0
  0
VERTEX
  5
   3BC
  8
0
  6
CONTINUOUS
 10
-58.952404795747
 20
252.232343721371
 30
0.0
 40
0.0
 41
0.0
  0
VERTEX
  5
   3BD
  8
0
  6
CONTINUOUS
 10
-59.1388255002985
 20
252.263136262469
 30
0.0
 40
0.0
 41
0.0
  0
VERTEX
  5
   3BE
  8
0
  6
CONTINUOUS
 10
-59.3280434897037
 20
252.289318097393
 30
0.0
 40
0.0
 41
0.0
  0
VERTEX
  5
   3BF
  8
0
  6
CONTINUOUS
 10
-59.5196029212526
 20
252.31082615181
 30
0.0
 40
0.0
 41
0.0
  0
VERTEX
  5
   3C0
  8
0
  6
CONTINUOUS
 10
-59.713042311496
 20
252.327608610932
 30
0.0
 40
0.0
 41
0.0
  0
VERTEX
  5
   3C1
  8
0
  6
CONTINUOUS
 10
-59.9078956479995
 20
252.339625044346
 30
0.0
 40
0.0
 41
0.0
  0
VERTEX
  5
   3C2
  8
0
  6
CONTINUOUS
 10
-60.1036935120083
 20
252.346846503411
 30
0.0
 40
0.0
 41
0.0
  0
VERTEX
  5
   3C3
  8
0
  6
CONTINUOUS
 10
-60.2999642093181
 20
252.349255591
 30
0.0
 40
0.0
 41
0.0
  0
VERTEX
  5
   3C4
  8
0
  6
CONTINUOUS
 10
-60.4962349066279
 20
252.346846503409
 30
0.0
 40
0.0
 41
0.0
  0
VERTEX
  5
   3C5
  8
0
  6
CONTINUOUS
 10
-60.6920327706366
 20
252.339625044342
 30
0.0
 40
0.0
 41
0.0
  0
VERTEX
  5
   3C6
  8
0
  6
CONTINUOUS
 10
-60.8868861071398
 20
252.327608610927
 30
0.0
 40
0.0
 41
0.0
  0
VERTEX
  5
   3C7
  8
0
  6
CONTINUOUS
 10
-61.0803254973829
 20
252.310826151803
 30
0.0
 40
0.0
 41
0.0
  0
VERTEX
  5
   3C8
  8
0
  6
CONTINUOUS
 10
-61.2718849289313
 20
252.289318097384
 30
0.0
 40
0.0
 41
0.0
  0
VERTEX
  5
   3C9
  8
0
  6
CONTINUOUS
 10
-61.461102918336
 20
252.263136262459
 30
0.0
 40
0.0
 41
0.0
  0
VERTEX
  5
   3CA
  8
0
  6
CONTINUOUS
 10
-61.6475236228869
 20
252.23234372136
 30
0.0
 40
0.0
 41
0.0
  0
VERTEX
  5
   3CB
  8
0
  6
CONTINUOUS
 10
-61.8306979387781
 20
252.197014656015
 30
0.0
 40
0.0
 41
0.0
  0
VERTEX
  5
   3CC
  8
0
  6
CONTINUOUS
 10
-62.0101845830386
 20
252.157234177239
 30
0.0
 40
0.0
 41
0.0
  0
VERTEX
  5
   3CD
  8
0
  6
CONTINUOUS
 10
-62.1855511566211
 20
252.113098119688
 30
0.0
 40
0.0
 41
0.0
  0
VERTEX
  5
   3CE
  8
0
  6
CONTINUOUS
 10
-62.3563751860896
 20
252.064712810991
 30
0.0
 40
0.0
 41
0.0
  0
VERTEX
  5
   3CF
  8
0
  6
CONTINUOUS
 10
-62.5222451413947
 20
252.012194815594
 30
0.0
 40
0.0
 41
0.0
  0
VERTEX
  5
   3D0
  8
0
  6
CONTINUOUS
 10
-62.6827614272855
 20
251.95567065395
 30
0.0
 40
0.0
 41
0.0
  0
VERTEX
  5
   3D1
  8
0
  6
CONTINUOUS
 10
-62.8375373459698
 20
251.895276497713
 30
0.0
 40
0.0
 41
0.0
  0
VERTEX
  5
   3D2
  8
0
  6
CONTINUOUS
 10
-62.9862000287027
 20
251.831157841697
 30
0.0
 40
0.0
 41
0.0
  0
VERTEX
  5
   3D3
  8
0
  6
CONTINUOUS
 10
-63.1283913340602
 20
251.763469153359
 30
0.0
 40
0.0
 41
0.0
  0
VERTEX
  5
   3D4
  8
0
  6
CONTINUOUS
 10
-63.2637687107331
 20
251.69237350068
 30
0.0
 40
0.0
 41
0.0
  0
VERTEX
  5
   3D5
  8
0
  6
CONTINUOUS
 10
-63.3920060227635
 20
251.618042159312
 30
0.0
 40
0.0
 41
0.0
  0
VERTEX
  5
   3D6
  8
0
  6
CONTINUOUS
 10
-63.5127943352343
 20
251.540654199969
 30
0.0
 40
0.0
 41
0.0
  0
VERTEX
  5
   3D7
  8
0
  6
CONTINUOUS
 10
-63.6258426585211
 20
251.460396057023
 30
0.0
 40
0.0
 41
0.0
  0
VERTEX
  5
   3D8
  8
0
  6
CONTINUOUS
 10
-63.7308786493111
 20
251.37746107937
 30
0.0
 40
0.0
 41
0.0
  0
VERTEX
  5
   3D9
  8
0
  6
CONTINUOUS
 10
-63.8276492667025
 20
251.292049064635
 30
0.0
 40
0.0
 41
0.0
  0
VERTEX
  5
   3DA
  8
0
  6
CONTINUOUS
 10
-63.9159213818019
 20
251.204365777843
 30
0.0
 40
0.0
 41
0.0
  0
VERTEX
  5
   3DB
  8
0
  6
CONTINUOUS
 10
-63.9954823393523
 20
251.114622455712
 30
0.0
 40
0.0
 41
0.0
  0
VERTEX
  5
   3DC
  8
0
  6
CONTINUOUS
 10
-64.0319354046456
 20
251.069045664051
 30
0.0
 40
0.0
 41
0.0
  0
VERTEX
  5
   3DD
  8
0
  6
CONTINUOUS
 10
-64.0661404700382
 20
251.023035297766
 30
0.0
 40
0.0
 41
0.0
  0
VERTEX
  5
   3DE
  8
0
  6
CONTINUOUS
 10
-64.0980769316777
 20
250.976619071779
 30
0.0
 40
0.0
 41
0.0
  0
VERTEX
  5
   3DF
  8
0
  6
CONTINUOUS
 10
-64.1277255522339
 20
250.92982494549
 30
0.0
 40
0.0
 41
0.0
  0
VERTEX
  5
   3E0
  8
0
  6
CONTINUOUS
 10
-64.1550684724862
 20
250.882681105931
 30
0.0
 40
0.0
 41
0.0
  0
VERTEX
  5
   3E1
  8
0
  6
CONTINUOUS
 10
-64.1800892220821
 20
250.835215950787
 30
0.0
 40
0.0
 41
0.0
  0
VERTEX
  5
   3E2
  8
0
  6
CONTINUOUS
 10
-64.2027727294575
 20
250.787458071294
 30
0.0
 40
0.0
 41
0.0
  0
VERTEX
  5
   3E3
  8
0
  6
CONTINUOUS
 10
-64.2231053309157
 20
250.739436235013
 30
0.0
 40
0.0
 41
0.0
  0
VERTEX
  5
   3E4
  8
0
  6
CONTINUOUS
 10
-64.241074778858
 20
250.691179368501
 30
0.0
 40
0.0
 41
0.0
  0
VERTEX
  5
   3E5
  8
0
  6
CONTINUOUS
 10
-64.2566702491608
 20
250.642716539891
 30
0.0
 40
0.0
 41
0.0
  0
VERTEX
  5
   3E6
  8
0
  6
CONTINUOUS
 10
-64.2698823476959
 20
250.594076941378
 30
0.0
 40
0.0
 41
0.0
  0
VERTEX
  5
   3E7
  8
0
  6
CONTINUOUS
 10
-64.2807031159892
 20
250.545289871639
 30
0.0
 40
0.0
 41
0.0
  0
VERTEX
  5
   3E8
  8
0
  6
CONTINUOUS
 10
-64.2891260360146
 20
250.496384718179
 30
0.0
 40
0.0
 41
0.0
  0
VERTEX
  5
   3E9
  8
0
  6
CONTINUOUS
 10
-64.2951460341199
 20
250.447390939635
 30
0.0
 40
0.0
 41
0.0
  0
VERTEX
  5
   3EA
  8
0
  6
CONTINUOUS
 10
-64.2987594840834
 20
250.398338048025
 30
0.0
 40
0.0
 41
0.0
  0
VERTEX
  5
   3EB
  8
0
  6
CONTINUOUS
 10
-64.299964209298
 20
250.34925559098
 30
0.0
 40
0.0
 41
0.0
  0
SEQEND
  5
   3EC
  8
0
  6
CONTINUOUS
 62
   218
  0
INSERT
  5
   3ED
  8
0
  6
CONTINUOUS
 62
   218
  2
*HATCH1072
 10
0.0
 20
0.0
 30
0.0
  0
LINE
  5
   3EE
  8
0
  6
CONTINUOUS
 62
   218
 10
-62.878366952658
 20
208.737096448576
 30
0.0
 11
-58.8228463963633
 21
231.737096448576
 31
0.0
  0
LINE
  5
   3EF
  8
0
  6
CONTINUOUS
 62
   218
 10
-61.456769696018
 20
208.737096448575
 30
0.0
 11
-58.099964209298
 21
227.774486377403
 31
0.0
  0
LINE
  5
   3F0
  8
0
  6
CONTINUOUS
 62
   218
 10
-60.035172439378
 20
208.737096448575
 30
0.0
 11
-58.099964209298
 21
219.712207701002
 31
0.0
  0
LINE
  5
   3F1
  8
0
  6
CONTINUOUS
 62
   218
 10
-58.613575182738
 20
208.737096448575
 30
0.0
 11
-58.0999642092981
 21
211.649929024601
 31
0.0
  0
LINE
  5
   3F2
  8
0
  6
CONTINUOUS
 62
   218
 10
-65.7215614659381
 20
208.737096448575
 30
0.0
 11
-61.6660409096434
 21
231.737096448576
 31
0.0
  0
LINE
  5
   3F3
  8
0
  6
CONTINUOUS
 62
   218
 10
-67.1431587225781
 20
208.737096448575
 30
0.0
 11
-63.0876381662835
 21
231.737096448575
 31
0.0
  0
LINE
  5
   3F4
  8
0
  6
CONTINUOUS
 62
   218
 10
-68.5647559792182
 20
208.737096448576
 30
0.0
 11
-64.5092354229235
 21
231.737096448576
 31
0.0
  0
LINE
  5
   3F5
  8
0
  6
CONTINUOUS
 62
   218
 10
-69.9863532358582
 20
208.737096448575
 30
0.0
 11
-65.9308326795636
 21
231.737096448575
 31
0.0
  0
LINE
  5
   3F6
  8
0
  6
CONTINUOUS
 62
   218
 10
-70.499964209298
 20
213.886542548952
 30
0.0
 11
-67.3524299362037
 21
231.737096448576
 31
0.0
  0
LINE
  5
   3F7
  8
0
  6
CONTINUOUS
 62
   218
 10
-70.4999642092981
 20
221.948821225353
 30
0.0
 11
-68.7740271928438
 21
231.737096448575
 31
0.0
  0
LINE
  5
   3F8
  8
0
  6
CONTINUOUS
 62
   218
 10
-70.499964209298
 20
230.011099901754
 30
0.0
 11
-70.1956244494838
 21
231.737096448575
 31
0.0
  0
ENDBLK
  5
   3F9
  8
0
  6
CONTINUOUS
 62
     7
  0
BLOCK
  5
   3FA
  8
0
  6
CONTINUOUS
 62
     7
  2
$1159488
 70
    64
 10
0.0
 20
0.0
 30
0.0
  3
$1159488
  0
LINE
  5
   3FB
  8
0
  6
CONTINUOUS
 62
     3
 10
-77.999964209298
 20
207.237096448575
 30
0.0
 11
-77.999964209298
 21
227.237096448575
 31
0.0
  0
LINE
  5
   3FC
  8
0
  6
DASHDOT
 62
     3
 10
-82.6696138350863
 20
217.237096448575
 30
0.0
 11
-29.4109503494068
 21
217.237096448575
 31
0.0
  0
LINE
  5
   3FD
  8
0
  6
CONTINUOUS
 62
     3
 10
-75.499964209298
 20
207.237096448575
 30
0.0
 11
-75.499964209298
 21
213.237096448575
 31
0.0
  0
LINE
  5
   3FE
  8
0
  6
CONTINUOUS
 62
     3
 10
-77.999964209298
 20
227.237096448575
 30
0.0
 11
-70.499964209298
 21
227.237096448575
 31
0.0
  0
LINE
  5
   3FF
  8
0
  6
CONTINUOUS
 62
     3
 10
-77.999964209298
 20
207.237096448575
 30
0.0
 11
-75.499964209298
 21
207.237096448575
 31
0.0
  0
LINE
  5
   400
  8
0
  6
CONTINUOUS
 62
     3
 10
-38.999964209298
 20
209.237096448575
 30
0.0
 11
-38.999964209298
 21
211.237096448575
 31
0.0
  0
ARC
  5
   401
  8
0
  6
CONTINUOUS
 62
     3
 10
-75.499964209298
 20
217.237096448575
 30
0.0
 40
4.0
 50
0.0
 51
90.0
  0
ARC
  5
   402
  8
0
  6
CONTINUOUS
 62
     3
 10
-40.999964209298
 20
225.237096448575
 30
0.0
 40
2.0
 50
0.0
 51
90.0
  0
ARC
  5
   403
  8
0
  6
CONTINUOUS
 62
     3
 10
-40.999964209298
 20
209.237096448575
 30
0.0
 40
2.0
 50
270.0
 51
360.0
  0
ARC
  5
   404
  8
0
  6
CONTINUOUS
 62
     3
 10
-75.499964209298
 20
217.237096448575
 30
0.0
 40
4.0
 50
270.0
 51
360.0
  0
ARC
  5
   405
  8
0
  6
CONTINUOUS
 62
     3
 10
-75.499964209298
 20
217.237096448575
 30
0.0
 40
2.0
 50
262.819244218542
 51
457.180755781458
  0
ARC
  5
   406
  8
0
  6
CONTINUOUS
 62
     3
 10
-75.999964209298
 20
221.205723415172
 30
0.0
 40
2.0
 50
180.0
 51
277.180755781458
  0
ARC
  5
   407
  8
0
  6
CONTINUOUS
 62
     3
 10
-75.999964209298
 20
213.268469481978
 30
0.0
 40
2.0
 50
82.8192442185417
 51
180.0
  0
LINE
  5
   408
  8
0
  6
CONTINUOUS
 62
     3
 10
-75.499964209298
 20
221.237096448575
 30
0.0
 11
-75.499964209298
 21
227.237096448575
 31
0.0
  0
LINE
  5
   409
  8
0
  6
CONTINUOUS
 62
     3
 10
-46.499964209298
 20
207.237096448575
 30
0.0
 11
-46.499964209298
 21
211.237096448575
 31
0.0
  0
LINE
  5
   40A
  8
0
  6
CONTINUOUS
 62
     3
 10
-42.499964209298
 20
207.237096448575
 30
0.0
 11
-42.499964209298
 21
211.237096448575
 31
0.0
  0
LINE
  5
   40B
  8
0
  6
CONTINUOUS
 62
     3
 10
-46.499964209298
 20
222.237096448575
 30
0.0
 11
-42.499964209298
 21
222.237096448575
 31
0.0
  0
LINE
  5
   40C
  8
0
  6
CONTINUOUS
 62
     3
 10
-46.499964209298
 20
212.237096448575
 30
0.0
 11
-42.499964209298
 21
212.237096448575
 31
0.0
  0
LINE
  5
   40D
  8
0
  6
CONTINUOUS
 62
     3
 10
-46.499964209298
 20
223.237096448575
 30
0.0
 11
-42.499964209298
 21
223.237096448575
 31
0.0
  0
LINE
  5
   40E
  8
0
  6
CONTINUOUS
 62
     3
 10
-46.499964209298
 20
211.237096448575
 30
0.0
 11
-42.499964209298
 21
211.237096448575
 31
0.0
  0
INSERT
  5
   40F
  8
255
  6
CONTINUOUS
 62
     7
  2
$1146558
 10
0.0
 20
0.0
 30
0.0
  0
LINE
  5
   410
  8
0
  6
CONTINUOUS
 62
     3
 10
-70.499964209298
 20
207.237096448575
 30
0.0
 11
-40.999964209298
 21
207.237096448575
 31
0.0
  0
LINE
  5
   411
  8
0
  6
DOT
 62
     3
 10
-75.499964209298
 20
207.237096448575
 30
0.0
 11
-70.499964209298
 21
207.237096448575
 31
0.0
  0
INSERT
  5
   412
  8
0
  6
CONTINUOUS
 62
    98
  2
*HATCH1069
 10
0.0
 20
0.0
 30
0.0
  0
INSERT
  5
   413
  8
0
  6
CONTINUOUS
 62
    98
  2
*HATCH1070
 10
0.0
 20
0.0
 30
0.0
  0
INSERT
  5
   414
  8
0
  6
CONTINUOUS
 62
    98
  2
*HATCH1071
 10
0.0
 20
0.0
 30
0.0
  0
LINE
  5
   415
  8
0
  6
DOT
 62
     3
 10
-70.499964209298
 20
227.237096448575
 30
0.0
 11
-58.099964209298
 21
227.237096448575
 31
0.0
  0
LINE
  5
   416
  8
0
  6
CONTINUOUS
 62
     3
 10
-58.099964209298
 20
227.237096448575
 30
0.0
 11
-40.999964209298
 21
227.237096448575
 31
0.0
  0
INSERT
  5
   417
  8
255
  6
CONTINUOUS
 62
     7
  2
$1CAVO
 10
0.0
 20
0.0
 30
0.0
  0
LINE
  5
   418
  8
0
  6
CONTINUOUS
 62
     3
 10
-46.499964209298
 20
223.237096448575
 30
0.0
 11
-46.499964209298
 21
227.237096448575
 31
0.0
  0
LINE
  5
   419
  8
0
  6
CONTINUOUS
 62
     3
 10
-42.499964209298
 20
223.237096448575
 30
0.0
 11
-42.499964209298
 21
227.237096448575
 31
0.0
  0
LINE
  5
   41A
  8
0
  6
DOT
 62
     3
 10
-46.499964209298
 20
211.237096448575
 30
0.0
 11
-46.499964209298
 21
223.237096448575
 31
0.0
  0
LINE
  5
   41B
  8
0
  6
DOT
 62
     3
 10
-42.499964209298
 20
211.237096448575
 30
0.0
 11
-42.499964209298
 21
223.237096448575
 31
0.0
  0
LINE
  5
   41C
  8
0
  6
CONTINUOUS
 62
     3
 10
-38.999964209298
 20
223.237096448575
 30
0.0
 11
-38.999964209298
 21
225.237096448575
 31
0.0
  0
LINE
  5
   41D
  8
0
  6
DOT
 62
     3
 10
-38.999964209298
 20
211.237096448575
 30
0.0
 11
-38.999964209298
 21
223.237096448575
 31
0.0
  0
ENDBLK
  5
   41E
  8
0
  6
CONTINUOUS
 62
     7
  0
BLOCK
  5
   41F
  8
0
  6
CONTINUOUS
 62
     0
  2
*HATCH1073
 70
    65
 10
0.0
 20
0.0
 30
0.0
  3
*HATCH1073
  0
LINE
  5
   420
  8
0
  6
CONTINUOUS
 62
   210
 10
0.514719009399414
 20
9.0
 30
0.0
 11
0.0
 21
8.48528099060059
 31
0.0
  0
LINE
  5
   421
  8
0
  6
CONTINUOUS
 62
   210
 10
2.63603949546814
 20
9.0
 30
0.0
 11
0.0
 21
6.36396074295044
 31
0.0
  0
LINE
  5
   422
  8
0
  6
CONTINUOUS
 62
   210
 10
4.75735998153687
 20
9.0
 30
0.0
 11
0.0
 21
4.24264049530029
 31
0.0
  0
LINE
  5
   423
  8
0
  6
CONTINUOUS
 62
   210
 10
6.87868022918701
 20
9.0
 30
0.0
 11
1.87867987155914
 21
4.0
 31
0.0
  0
LINE
  5
   424
  8
0
  6
CONTINUOUS
 62
   210
 10
9.00000095367432
 20
9.0
 30
0.0
 11
4.00000047683716
 21
4.0
 31
0.0
  0
LINE
  5
   425
  8
0
  6
CONTINUOUS
 62
   210
 10
11.1213216781616
 20
9.0
 30
0.0
 11
6.1213207244873
 21
4.0
 31
0.0
  0
LINE
  5
   426
  8
0
  6
CONTINUOUS
 62
   210
 10
13.2426424026489
 20
9.0
 30
0.0
 11
8.24264144897461
 21
4.0
 31
0.0
  0
LINE
  5
   427
  8
0
  6
CONTINUOUS
 62
   210
 10
15.0
 20
8.63603782653809
 30
0.0
 11
10.3639612197876
 21
4.0
 31
0.0
  0
LINE
  5
   428
  8
0
  6
CONTINUOUS
 62
   210
 10
15.0
 20
6.51471757888794
 30
0.0
 11
12.4852819442749
 21
4.0
 31
0.0
  0
LINE
  5
   429
  8
0
  6
CONTINUOUS
 62
   210
 10
15.0
 20
4.39339733123779
 30
0.0
 11
14.6066026687622
 21
4.0
 31
0.0
  0
ENDBLK
  5
   42A
  8
0
  6
CONTINUOUS
 62
     0
  0
BLOCK
  5
   42B
  8
0
  6
CONTINUOUS
 62
     0
  2
*HATCH1074
 70
    65
 10
0.0
 20
0.0
 30
0.0
  3
*HATCH1074
  0
LINE
  5
   42C
  8
0
  6
CONTINUOUS
 62
   210
 10
0.242640540003777
 20
-4.0
 30
0.0
 11
0.0
 21
-4.24264049530029
 31
0.0
  0
LINE
  5
   42D
  8
0
  6
CONTINUOUS
 62
   210
 10
2.36396098136902
 20
-4.0
 30
0.0
 11
0.0
 21
-6.36396074295044
 31
0.0
  0
LINE
  5
   42E
  8
0
  6
CONTINUOUS
 62
   210
 10
-4.13603973388672
 20
-10.5
 30
0.0
 11
-5.0
 21
-11.3639602661133
 31
0.0
  0
LINE
  5
   42F
  8
0
  6
CONTINUOUS
 62
   210
 10
4.48528146743774
 20
-4.0
 30
0.0
 11
0.0
 21
-8.48528099060059
 31
0.0
  0
LINE
  5
   430
  8
0
  6
CONTINUOUS
 62
   210
 10
-2.01471948623657
 20
-10.5
 30
0.0
 11
-5.0
 21
-13.4852809906006
 31
0.0
  0
LINE
  5
   431
  8
0
  6
CONTINUOUS
 62
   210
 10
6.60660171508789
 20
-4.0
 30
0.0
 11
-2.89339900016785
 21
-13.5
 31
0.0
  0
LINE
  5
   432
  8
0
  6
CONTINUOUS
 62
   210
 10
8.7279224395752
 20
-4.0
 30
0.0
 11
-0.7720787525177
 21
-13.5
 31
0.0
  0
LINE
  5
   433
  8
0
  6
CONTINUOUS
 62
   210
 10
10.8492431640625
 20
-4.0
 30
0.0
 11
1.34924149513245
 21
-13.5
 31
0.0
  0
LINE
  5
   434
  8
0
  6
CONTINUOUS
 62
   210
 10
12.9705638885498
 20
-4.0
 30
0.0
 11
3.47056174278259
 21
-13.5
 31
0.0
  0
LINE
  5
   435
  8
0
  6
CONTINUOUS
 62
   210
 10
15.0
 20
-4.09188365936279
 30
0.0
 11
5.59188270568848
 21
-13.5
 31
0.0
  0
LINE
  5
   436
  8
0
  6
CONTINUOUS
 62
   210
 10
15.0
 20
-6.21320390701294
 30
0.0
 11
7.71320295333862
 21
-13.5
 31
0.0
  0
LINE
  5
   437
  8
0
  6
CONTINUOUS
 62
   210
 10
15.0
 20
-8.33452415466309
 30
0.0
 11
9.83452320098877
 21
-13.5
 31
0.0
  0
LINE
  5
   438
  8
0
  6
CONTINUOUS
 62
   210
 10
15.0
 20
-10.4558448791504
 30
0.0
 11
11.9558429718018
 21
-13.5
 31
0.0
  0
LINE
  5
   439
  8
0
  6
CONTINUOUS
 62
   210
 10
15.0
 20
-12.5771656036377
 30
0.0
 11
14.0771636962891
 21
-13.5
 31
0.0
  0
ENDBLK
  5
   43A
  8
0
  6
CONTINUOUS
 62
     0
  0
BLOCK
  5
   43B
  8
0
  6
CONTINUOUS
 62
     0
  2
*HATCH1075
 70
    65
 10
0.0
 20
0.0
 30
0.0
  3
*HATCH1075
  0
LINE
  5
   43C
  8
0
  6
CONTINUOUS
 62
   210
 10
15.0
 20
-29.5477275848389
 30
0.0
 11
13.0
 21
-31.5477256774902
 31
0.0
  0
LINE
  5
   43D
  8
0
  6
CONTINUOUS
 62
   210
 10
15.0
 20
-31.6690483093262
 30
0.0
 11
13.0
 21
-33.6690444946289
 31
0.0
  0
LINE
  5
   43E
  8
0
  6
CONTINUOUS
 62
   210
 10
15.0
 20
-33.7903671264648
 30
0.0
 11
13.0
 21
-35.7903633117676
 31
0.0
  0
LINE
  5
   43F
  8
0
  6
CONTINUOUS
 62
   210
 10
15.0
 20
-35.9116859436035
 30
0.0
 11
13.0
 21
-37.9116821289063
 31
0.0
  0
LINE
  5
   440
  8
0
  6
CONTINUOUS
 62
   210
 10
15.0
 20
-38.0330047607422
 30
0.0
 11
13.0
 21
-40.0330009460449
 31
0.0
  0
LINE
  5
   441
  8
0
  6
CONTINUOUS
 62
   210
 10
15.0
 20
-40.1543273925781
 30
0.0
 11
14.1543283462524
 21
-41.0
 31
0.0
  0
ENDBLK
  5
   442
  8
0
  6
CONTINUOUS
 62
     0
  0
BLOCK
  5
   443
  8
0
  6
CONTINUOUS
 62
     0
  2
*HATCH1076
 70
    65
 10
0.0
 20
0.0
 30
0.0
  3
*HATCH1076
  0
LINE
  5
   444
  8
0
  6
CONTINUOUS
 62
   210
 10
-4.04415702819824
 20
-29.5
 30
0.0
 11
-5.0
 21
-30.4558429718018
 31
0.0
  0
LINE
  5
   445
  8
0
  6
CONTINUOUS
 62
   210
 10
-3.0
 20
-30.5771636962891
 30
0.0
 11
-5.0
 21
-32.5771636962891
 31
0.0
  0
LINE
  5
   446
  8
0
  6
CONTINUOUS
 62
   210
 10
-3.0
 20
-32.6984825134277
 30
0.0
 11
-5.0
 21
-34.6984825134277
 31
0.0
  0
LINE
  5
   447
  8
0
  6
CONTINUOUS
 62
   210
 10
-3.0
 20
-34.8198013305664
 30
0.0
 11
-5.0
 21
-36.8198013305664
 31
0.0
  0
LINE
  5
   448
  8
0
  6
CONTINUOUS
 62
   210
 10
-3.0
 20
-36.9411201477051
 30
0.0
 11
-5.0
 21
-38.9411201477051
 31
0.0
  0
LINE
  5
   449
  8
0
  6
CONTINUOUS
 62
   210
 10
-3.0
 20
-39.062442779541
 30
0.0
 11
-4.93755578994751
 21
-41.0
 31
0.0
  0
ENDBLK
  5
   44A
  8
0
  6
CONTINUOUS
 62
     0
  0
BLOCK
  5
   44B
  8
0
  6
CONTINUOUS
 62
     0
  2
MORSETTO
 70
    64
 10
0.0
 20
0.0
 30
0.0
  3
MORSETTO
  0
LINE
  5
   44C
  8
0
  6
CONTINUOUS
 62
     0
 10
0.0
 20
9.0
 30
0.0
 11
15.0
 21
9.0
 31
0.0
  0
LINE
  5
   44D
  8
0
  6
CONTINUOUS
 62
     0
 10
15.0
 20
-41.0
 30
0.0
 11
15.0
 21
-4.0
 31
0.0
  0
LINE
  5
   44E
  8
0
  6
CONTINUOUS
 62
     0
 10
-5.0
 20
-41.0
 30
0.0
 11
15.0
 21
-41.0
 31
0.0
  0
LINE
  5
   44F
  8
0
  6
CONTINUOUS
 62
     0
 10
-5.0
 20
-41.0
 30
0.0
 11
-5.0
 21
-25.891847175276
 31
0.0
  0
LINE
  5
   450
  8
0
  6
CONTINUOUS
 62
     0
 10
-5.0
 20
-10.5
 30
0.0
 11
0.0
 21
-10.5
 31
0.0
  0
LINE
  5
   451
  8
0
  6
CONTINUOUS
 62
     0
 10
0.0
 20
-10.5
 30
0.0
 11
0.0
 21
-4.0
 31
0.0
  0
LINE
  5
   452
  8
0
  6
CONTINUOUS
 62
     0
 10
-5.0
 20
4.0
 30
0.0
 11
15.5
 21
4.0
 31
0.0
  0
LINE
  5
   453
  8
0
  6
CONTINUOUS
 62
     0
 10
-5.0
 20
-4.0
 30
0.0
 11
15.5
 21
-4.0
 31
0.0
  0
LINE
  5
   454
  8
0
  6
CONTINUOUS
 62
     0
 10
-5.0
 20
-13.5
 30
0.0
 11
15.0
 21
-13.5
 31
0.0
  0
LINE
  5
   455
  8
0
  6
CONTINUOUS
 62
     0
 10
-5.0
 20
-29.5
 30
0.0
 11
-3.0
 21
-29.5
 31
0.0
  0
INSERT
  5
   456
  8
0
  6
CONTINUOUS
 62
     0
  2
*HATCH1073
 10
0.0
 20
0.0
 30
0.0
  0
INSERT
  5
   457
  8
0
  6
CONTINUOUS
 62
     0
  2
*HATCH1074
 10
0.0
 20
0.0
 30
0.0
  0
LINE
  5
   458
  8
0
  6
CONTINUOUS
 62
     0
 10
-3.0
 20
-41.0
 30
0.0
 11
-3.0
 21
-26.891847175276
 31
0.0
  0
LINE
  5
   459
  8
0
  6
CONTINUOUS
 62
     0
 10
13.0
 20
-41.0
 30
0.0
 11
13.0
 21
-26.891847175276
 31
0.0
  0
LINE
  5
   45A
  8
0
  6
CONTINUOUS
 62
     0
 10
-1.5
 20
-38.6
 30
0.0
 11
-1.5
 21
-26.891847175276
 31
0.0
  0
LINE
  5
   45B
  8
0
  6
CONTINUOUS
 62
     0
 10
11.5
 20
-38.6
 30
0.0
 11
11.5
 21
-26.891847175276
 31
0.0
  0
LINE
  5
   45C
  8
0
  6
DASHDOT
 62
     0
 10
5.0
 20
-47.3956063362547
 30
0.0
 11
5.0
 21
-25.1245433649944
 31
0.0
  0
LINE
  5
   45D
  8
0
  6
CONTINUOUS
 62
     0
 10
-1.5
 20
-38.6
 30
0.0
 11
11.5
 21
-38.6
 31
0.0
  0
LINE
  5
   45E
  8
0
  6
CONTINUOUS
 62
     0
 10
-8.7
 20
-6.5
 30
0.0
 11
-8.7
 21
6.5
 31
0.0
  0
LINE
  5
   45F
  8
0
  6
CONTINUOUS
 62
     0
 10
-9.0
 20
-6.20000000000001
 30
0.0
 11
-9.0
 21
6.2
 31
0.0
  0
LINE
  5
   460
  8
0
  6
CONTINUOUS
 62
     0
 10
-6.0
 20
-8.0
 30
0.0
 11
-6.0
 21
8.0
 31
0.0
  0
LINE
  5
   461
  8
0
  6
CONTINUOUS
 62
     0
 10
-3.0
 20
-3.99999999999998
 30
0.0
 11
-3.0
 21
4.00000000000002
 31
0.0
  0
LINE
  5
   462
  8
0
  6
CONTINUOUS
 62
     0
 10
-8.69999999999999
 20
6.5
 30
0.0
 11
-6.0
 21
6.5
 31
0.0
  0
LINE
  5
   463
  8
0
  6
CONTINUOUS
 62
     0
 10
-6.0
 20
8.0
 30
0.0
 11
-5.0
 21
8.0
 31
0.0
  0
LINE
  5
   464
  8
0
  6
CONTINUOUS
 62
     0
 10
-9.0
 20
6.19999999999999
 30
0.0
 11
-8.7
 21
6.49999999999999
 31
0.0
  0
LINE
  5
   465
  8
0
  6
CONTINUOUS
 62
     0
 10
-8.7
 20
-6.5
 30
0.0
 11
-6.0
 21
-6.5
 31
0.0
  0
LINE
  5
   466
  8
0
  6
CONTINUOUS
 62
     0
 10
-9.0
 20
-6.2
 30
0.0
 11
-8.7
 21
-6.49999999999999
 31
0.0
  0
LINE
  5
   467
  8
0
  6
CONTINUOUS
 62
     0
 10
-6.0
 20
-8.0
 30
0.0
 11
-5.0
 21
-8.0
 31
0.0
  0
LINE
  5
   468
  8
0
  6
CONTINUOUS
 62
     0
 10
-3.0
 20
3.5
 30
0.0
 11
16.0
 21
3.5
 31
0.0
  0
LINE
  5
   469
  8
0
  6
CONTINUOUS
 62
     0
 10
-3.0
 20
-3.5
 30
0.0
 11
16.0
 21
-3.5
 31
0.0
  0
LINE
  5
   46A
  8
0
  6
CONTINUOUS
 62
     0
 10
16.0
 20
-3.5
 30
0.0
 11
16.0
 21
3.5
 31
0.0
  0
LINE
  5
   46B
  8
0
  6
CONTINUOUS
 62
     0
 10
15.5
 20
-4.0
 30
0.0
 11
15.5
 21
4.0
 31
0.0
  0
LINE
  5
   46C
  8
0
  6
CONTINUOUS
 62
     0
 10
15.5
 20
4.0
 30
0.0
 11
16.0
 21
3.49999999999999
 31
0.0
  0
LINE
  5
   46D
  8
0
  6
CONTINUOUS
 62
     0
 10
15.5
 20
-4.00000000000001
 30
0.0
 11
16.0
 21
-3.5
 31
0.0
  0
LINE
  5
   46E
  8
0
  6
CONTINUOUS
 62
     0
 10
8.99999809265137
 20
-4.0
 30
0.0
 11
9.49999999999999
 21
-4.0
 31
0.0
  0
LINE
  5
   46F
  8
0
  6
CONTINUOUS
 62
     0
 10
8.99999809265137
 20
4.0
 30
0.0
 11
9.49999999999999
 21
4.0
 31
0.0
  0
LINE
  5
   470
  8
0
  6
CONTINUOUS
 62
     0
 10
-5.0
 20
-8.0
 30
0.0
 11
-5.0
 21
8.0
 31
0.0
  0
LINE
  5
   471
  8
0
  6
CONTINUOUS
 62
     0
 10
0.0
 20
4.0
 30
0.0
 11
0.0
 21
9.0
 31
0.0
  0
LINE
  5
   472
  8
0
  6
CONTINUOUS
 62
     0
 10
15.0
 20
4.0
 30
0.0
 11
15.0
 21
9.0
 31
0.0
  0
LINE
  5
   473
  8
0
  6
CONTINUOUS
 62
     0
 10
-3.0
 20
-37.1
 30
0.0
 11
13.0
 21
-37.1
 31
0.0
  0
LINE
  5
   474
  8
0
  6
CONTINUOUS
 62
     0
 10
11.5
 20
-38.6
 30
0.0
 11
13.0
 21
-37.1
 31
0.0
  0
LINE
  5
   475
  8
0
  6
CONTINUOUS
 62
     0
 10
-3.0
 20
-37.1
 30
0.0
 11
-1.5
 21
-38.6
 31
0.0
  0
ARC
  5
   476
  8
0
  6
CONTINUOUS
 62
     0
 10
5.0
 20
-58.391847175276
 30
0.0
 40
32.5
 50
75.7499673021964
 51
104.250032697804
  0
LINE
  5
   477
  8
0
  6
CONTINUOUS
 62
     0
 10
-3.0
 20
-26.891847175276
 30
0.0
 11
13.0
 21
-26.891847175276
 31
0.0
  0
INSERT
  5
   478
  8
0
  6
CONTINUOUS
 62
     0
  2
*HATCH1075
 10
0.0
 20
0.0
 30
0.0
  0
INSERT
  5
   479
  8
0
  6
CONTINUOUS
 62
     0
  2
*HATCH1076
 10
0.0
 20
0.0
 30
0.0
  0
LINE
  5
   47A
  8
0
  6
CONTINUOUS
 62
     0
 10
13.0
 20
-29.5
 30
0.0
 11
15.0
 21
-29.5
 31
0.0
  0
LINE
  5
   47B
  8
0
  6
CONTINUOUS
 62
     0
 10
-5.0
 20
-13.5
 30
0.0
 11
-5.0
 21
-10.5
 31
0.0
  0
ENDBLK
  5
   47C
  8
0
  6
CONTINUOUS
 62
     0
  0
BLOCK
  5
   47D
  8
0
  6
CONTINUOUS
 62
    98
  2
*HATCH1077
 70
    65
 10
0.0
 20
0.0
 30
0.0
  3
*HATCH1077
  0
LINE
  5
   47E
  8
0
  6
CONTINUOUS
 62
   210
 10
-62.5955009460449
 20
26.4999542236328
 30
0.0
 11
-64.7629089355469
 21
24.3325500488281
 31
0.0
  0
LINE
  5
   47F
  8
0
  6
CONTINUOUS
 62
   210
 10
-58.3528633117676
 20
26.4999542236328
 30
0.0
 11
-60.8528633117676
 21
23.9999542236328
 31
0.0
  0
LINE
  5
   480
  8
0
  6
CONTINUOUS
 62
   210
 10
-54.1102256774902
 20
26.4999542236328
 30
0.0
 11
-56.6102256774902
 21
23.9999542236328
 31
0.0
  0
LINE
  5
   481
  8
0
  6
CONTINUOUS
 62
   210
 10
-49.8675880432129
 20
26.4999542236328
 30
0.0
 11
-52.3675880432129
 21
23.9999542236328
 31
0.0
  0
LINE
  5
   482
  8
0
  6
CONTINUOUS
 62
   210
 10
-45.6249504089355
 20
26.4999542236328
 30
0.0
 11
-48.1249504089356
 21
23.9999542236328
 31
0.0
  0
LINE
  5
   483
  8
0
  6
CONTINUOUS
 62
   210
 10
-42.4629058837891
 20
25.4193458557129
 30
0.0
 11
-44.4629058837891
 21
23.4193458557129
 31
0.0
  0
LINE
  5
   484
  8
0
  6
CONTINUOUS
 62
   210
 10
-42.4629058837891
 20
23.2980270385742
 30
0.0
 11
-44.4629058837891
 21
21.2980270385742
 31
0.0
  0
LINE
  5
   485
  8
0
  6
CONTINUOUS
 62
   210
 10
-42.4629058837891
 20
21.1767063140869
 30
0.0
 11
-44.4629058837891
 21
19.1767063140869
 31
0.0
  0
LINE
  5
   486
  8
0
  6
CONTINUOUS
 62
   210
 10
-42.4629058837891
 20
19.0553855895996
 30
0.0
 11
-44.4629058837891
 21
17.0553855895996
 31
0.0
  0
LINE
  5
   487
  8
0
  6
CONTINUOUS
 62
   210
 10
-20.8970146179199
 20
38.4999542236328
 30
0.0
 11
-21.4629058837891
 21
37.9340629577637
 31
0.0
  0
LINE
  5
   488
  8
0
  6
CONTINUOUS
 62
   210
 10
-55.3970336914063
 20
3.99993896484375
 30
0.0
 11
-57.8970184326172
 21
1.49995422363281
 31
0.0
  0
LINE
  5
   489
  8
0
  6
CONTINUOUS
 62
   210
 10
-42.4629058837891
 20
14.8127450942993
 30
0.0
 11
-44.4629058837891
 21
12.8127450942993
 31
0.0
  0
LINE
  5
   48A
  8
0
  6
CONTINUOUS
 62
   210
 10
-19.4629058837891
 20
35.6914253234863
 30
0.0
 11
-21.4629058837891
 21
33.6914253234863
 31
0.0
  0
LINE
  5
   48B
  8
0
  6
CONTINUOUS
 62
   210
 10
-51.1543922424316
 20
3.99993896484375
 30
0.0
 11
-53.6543769836426
 21
1.49995422363281
 31
0.0
  0
LINE
  5
   48C
  8
0
  6
CONTINUOUS
 62
   210
 10
-42.4629058837891
 20
10.570104598999
 30
0.0
 11
-44.4629058837891
 21
8.57010459899902
 31
0.0
  0
LINE
  5
   48D
  8
0
  6
CONTINUOUS
 62
   210
 10
-19.4629058837891
 20
31.4487857818604
 30
0.0
 11
-21.4629058837891
 21
29.4487838745117
 31
0.0
  0
LINE
  5
   48E
  8
0
  6
CONTINUOUS
 62
   210
 10
-46.9117546081543
 20
3.99993896484375
 30
0.0
 11
-49.4117393493652
 21
1.49995422363281
 31
0.0
  0
LINE
  5
   48F
  8
0
  6
CONTINUOUS
 62
   210
 10
-22.290412902832
 20
26.4999542236328
 30
0.0
 11
-23.4629058837891
 21
25.3274631500244
 31
0.0
  0
LINE
  5
   490
  8
0
  6
CONTINUOUS
 62
   210
 10
-44.7904319763184
 20
3.99993896484375
 30
0.0
 11
-47.2904167175293
 21
1.49995422363281
 31
0.0
  0
LINE
  5
   491
  8
0
  6
CONTINUOUS
 62
   210
 10
-42.4629058837891
 20
4.20614385604858
 30
0.0
 11
-45.1690940856934
 21
1.49995422363281
 31
0.0
  0
LINE
  5
   492
  8
0
  6
CONTINUOUS
 62
   210
 10
-21.4629058837891
 20
23.0848217010498
 30
0.0
 11
-23.4629058837891
 21
21.0848217010498
 31
0.0
  0
LINE
  5
   493
  8
0
  6
CONTINUOUS
 62
   210
 10
-21.4629058837891
 20
20.9635009765625
 30
0.0
 11
-23.4629058837891
 21
18.9635009765625
 31
0.0
  0
LINE
  5
   494
  8
0
  6
CONTINUOUS
 62
   210
 10
-21.4629058837891
 20
18.8421802520752
 30
0.0
 11
-23.4629058837891
 21
16.8421802520752
 31
0.0
  0
LINE
  5
   495
  8
0
  6
CONTINUOUS
 62
   210
 10
-21.4629058837891
 20
16.7208595275879
 30
0.0
 11
-23.4629058837891
 21
14.7208595275879
 31
0.0
  0
LINE
  5
   496
  8
0
  6
CONTINUOUS
 62
   210
 10
-21.4629058837891
 20
14.5995388031006
 30
0.0
 11
-23.4629058837891
 21
12.5995388031006
 31
0.0
  0
LINE
  5
   497
  8
0
  6
CONTINUOUS
 62
   210
 10
-21.4629058837891
 20
12.4782180786133
 30
0.0
 11
-23.4629058837891
 21
10.4782180786133
 31
0.0
  0
LINE
  5
   498
  8
0
  6
CONTINUOUS
 62
   210
 10
-21.4629058837891
 20
10.356897354126
 30
0.0
 11
-23.4629058837891
 21
8.35689735412598
 31
0.0
  0
LINE
  5
   499
  8
0
  6
CONTINUOUS
 62
   210
 10
-21.4629058837891
 20
8.23557662963867
 30
0.0
 11
-23.4629058837891
 21
6.23557710647583
 31
0.0
  0
LINE
  5
   49A
  8
0
  6
CONTINUOUS
 62
   210
 10
-21.4629058837891
 20
6.11425638198853
 30
0.0
 11
-23.4629058837891
 21
4.11425685882568
 31
0.0
  0
LINE
  5
   49B
  8
0
  6
CONTINUOUS
 62
   210
 10
-21.4559059143066
 20
3.99993896484375
 30
0.0
 11
-23.9558906555176
 21
1.49995422363281
 31
0.0
  0
LINE
  5
   49C
  8
0
  6
CONTINUOUS
 62
   210
 10
-17.213264465332
 20
3.99993896484375
 30
0.0
 11
-19.713249206543
 21
1.49995422363281
 31
0.0
  0
LINE
  5
   49D
  8
0
  6
CONTINUOUS
 62
   210
 10
-12.9706230163574
 20
3.99993896484375
 30
0.0
 11
-15.4706077575684
 21
1.49995422363281
 31
0.0
  0
LINE
  5
   49E
  8
0
  6
CONTINUOUS
 62
   210
 10
-8.72798156738281
 20
3.99993896484375
 30
0.0
 11
-11.2279663085938
 21
1.49995422363281
 31
0.0
  0
LINE
  5
   49F
  8
0
  6
CONTINUOUS
 62
   210
 10
-4.48534107208252
 20
3.99993896484375
 30
0.0
 11
-6.9853253364563
 21
1.49995422363281
 31
0.0
  0
LINE
  5
   4A0
  8
0
  6
CONTINUOUS
 62
   210
 10
-0.242700576782227
 20
3.99993896484375
 30
0.0
 11
-2.74268484115601
 21
1.49995422363281
 31
0.0
  0
LINE
  5
   4A1
  8
0
  6
CONTINUOUS
 62
   210
 10
3.99993991851807
 20
3.99993896484375
 30
0.0
 11
1.49995565414429
 21
1.49995422363281
 31
0.0
  0
LINE
  5
   4A2
  8
0
  6
CONTINUOUS
 62
   210
 10
4.23709487915039
 20
2.11577415466309
 30
0.0
 11
3.62127470970154
 21
1.49995422363281
 31
0.0
  0
ENDBLK
  5
   4A3
  8
0
  6
CONTINUOUS
 62
    98
  0
BLOCK
  5
   4A4
  8
0
  6
CONTINUOUS
 62
   218
  2
*HATCH1078
 70
    65
 10
0.0
 20
0.0
 30
0.0
  3
*HATCH1078
  0
LINE
  5
   4A5
  8
0
  6
CONTINUOUS
 62
     3
 10
-17.0614395141602
 20
116.581741333008
 30
0.0
 11
-19.9502468109131
 21
113.692932128906
 31
0.0
  0
LINE
  5
   4A6
  8
0
  6
CONTINUOUS
 62
     3
 10
-15.06764793396
 20
116.454208374023
 30
0.0
 11
-18.5889472961426
 21
112.932914733887
 31
0.0
  0
LINE
  5
   4A7
  8
0
  6
CONTINUOUS
 62
     3
 10
-13.4720983505249
 20
115.928436279297
 30
0.0
 11
-16.7580299377441
 21
112.642509460449
 31
0.0
  0
LINE
  5
   4A8
  8
0
  6
CONTINUOUS
 62
     3
 10
-12.5162143707275
 20
114.763000488281
 30
0.0
 11
-14.3529853820801
 21
112.926231384277
 31
0.0
  0
ENDBLK
  5
   4A9
  8
0
  6
CONTINUOUS
 62
   218
  0
BLOCK
  5
   4AA
  8
0
  6
CONTINUOUS
 62
     7
  2
*UDIM1523
 70
    65
 10
0.0
 20
0.0
 30
0.0
  3
*UDIM1523
  0
TEXT
  5
   4AB
  8
0
  6
CONTINUOUS
 62
     7
 10
-389.038621336531
 20
98.1158142150274
 30
0.0
 40
3.00000002980232
  1
18x18
 50
359.999999948034
 41
0.933333333333333
 72
     1
 11
-382.33862126862
 21
99.6158142238856
 31
0.0
 73
     2
  0
LINE
  5
   4AC
  8
0
  6
CONTINUOUS
 62
     7
 10
-389.188622508397
 20
76.2821529606158
 30
0.0
 11
-389.188622508397
 21
99.1158142089844
 31
0.0
  0
LINE
  5
   4AD
  8
0
  6
CONTINUOUS
 62
     7
 10
-395.388623462071
 20
77.0321273803711
 30
0.0
 11
-395.388623462071
 21
99.1158142089844
 31
0.0
  0
LINE
  5
   4AE
  8
0
  6
CONTINUOUS
 62
     7
 10
-375.638621202061
 20
97.1158142089844
 30
0.0
 11
-395.388623462071
 21
97.1158142089844
 31
0.0
  0
LINE
  5
   4AF
  8
0
  6
CONTINUOUS
 62
     7
 10
-386.23419923119
 20
97.636758638936
 30
0.0
 11
-389.188622508397
 21
97.1158142089844
 31
0.0
  0
LINE
  5
   4B0
  8
0
  6
CONTINUOUS
 62
     7
 10
-389.188622508397
 20
97.1158142089844
 30
0.0
 11
-386.23419923119
 21
96.5948697790327
 31
0.0
  0
LINE
  5
   4B1
  8
0
  6
CONTINUOUS
 62
     7
 10
-398.343046739278
 20
96.5948697790327
 30
0.0
 11
-395.388623462071
 21
97.1158142089844
 31
0.0
  0
LINE
  5
   4B2
  8
0
  6
CONTINUOUS
 62
     7
 10
-395.388623462071
 20
97.1158142089844
 30
0.0
 11
-398.343046739278
 21
97.636758638936
 31
0.0
  0
ENDBLK
  5
   4B3
  8
0
  6
CONTINUOUS
 62
     7
  0
BLOCK
  5
   4B4
  8
0
  6
CONTINUOUS
 62
     1
  2
*UDIM1524
 70
    65
 10
0.0
 20
0.0
 30
0.0
  3
*UDIM1524
  0
TEXT
  5
   4B5
  8
0
  6
CONTINUOUS
 62
     1
 10
-423.989210355509
 20
-61.2428995562444
 30
0.0
 40
3.00000002980232
  1
16
 50
89.9999999480344
 41
0.933333333333333
 72
     1
 11
-425.489210368146
 21
-58.7428995300506
 31
0.0
 73
     2
  0
TEXT
  5
   4B6
  8
0
  6
CONTINUOUS
 62
     1
 10
-423.989210354241
 20
-64.3928995661785
 30
0.0
 40
3.00000002980232
  1
Ø
 50
89.9999999480344
 41
0.933333333333334
 72
     1
 11
-425.489210368146
 21
-63.2928995538924
 31
0.0
 73
     2
  0
LINE
  5
   4B7
  8
0
  6
CONTINUOUS
 62
     1
 10
-398.888623462071
 20
-52.7178981998736
 30
0.0
 11
-424.989210353244
 21
-52.7178981998736
 31
0.0
  0
LINE
  5
   4B8
  8
0
  6
CONTINUOUS
 62
     1
 10
-400.388623462071
 20
-44.7178981998736
 30
0.0
 11
-424.989210353244
 21
-44.7178981998736
 31
0.0
  0
LINE
  5
   4B9
  8
0
  6
CONTINUOUS
 62
     1
 10
-422.989210353244
 20
-64.39289956482
 30
0.0
 11
-422.989210353244
 21
-44.7178981998736
 31
0.0
  0
LINE
  5
   4BA
  8
0
  6
CONTINUOUS
 62
     1
 10
-423.510154783196
 20
-49.7634749226666
 30
0.0
 11
-422.989210353244
 21
-52.7178981998736
 31
0.0
  0
LINE
  5
   4BB
  8
0
  6
CONTINUOUS
 62
     1
 10
-422.989210353244
 20
-52.7178981998736
 30
0.0
 11
-422.468265923293
 21
-49.7634749226666
 31
0.0
  0
LINE
  5
   4BC
  8
0
  6
CONTINUOUS
 62
     1
 10
-422.468265923293
 20
-47.6723214770806
 30
0.0
 11
-422.989210353244
 21
-44.7178981998736
 31
0.0
  0
LINE
  5
   4BD
  8
0
  6
CONTINUOUS
 62
     1
 10
-422.989210353244
 20
-44.7178981998736
 30
0.0
 11
-423.510154783196
 21
-47.6723214770806
 31
0.0
  0
ENDBLK
  5
   4BE
  8
0
  6
CONTINUOUS
 62
     1
  0
BLOCK
  5
   4BF
  8
0
  6
CONTINUOUS
 62
     7
  2
*UDIM1525
 70
    65
 10
0.0
 20
0.0
 30
0.0
  3
*UDIM1525
  0
TEXT
  5
   4C0
  8
0
  6
CONTINUOUS
 62
     7
 10
-433.163864140543
 20
-57.0281826777111
 30
0.0
 40
3.00000002980232
  1
13,5
 50
89.9999999480344
 41
0.933333333333333
 72
     1
 11
-434.663864150643
 21
-51.7281826237017
 31
0.0
 73
     2
  0
LINE
  5
   4C1
  8
0
  6
CONTINUOUS
 62
     1
 10
-398.888623462071
 20
-44.7178981998736
 30
0.0
 11
-434.163864135742
 21
-44.7178981998736
 31
0.0
  0
LINE
  5
   4C2
  8
0
  6
CONTINUOUS
 62
     1
 10
-402.603294039359
 20
-37.9678981998736
 30
0.0
 11
-434.163864135742
 21
-37.9678981998736
 31
0.0
  0
LINE
  5
   4C3
  8
0
  6
CONTINUOUS
 62
     1
 10
-432.163864135742
 20
-57.0281826763525
 30
0.0
 11
-432.163864135742
 21
-37.9678981998736
 31
0.0
  0
LINE
  5
   4C4
  8
0
  6
CONTINUOUS
 62
     1
 10
-432.684808565694
 20
-41.7634749226666
 30
0.0
 11
-432.163864135742
 21
-44.7178981998736
 31
0.0
  0
LINE
  5
   4C5
  8
0
  6
CONTINUOUS
 62
     1
 10
-432.163864135742
 20
-44.7178981998736
 30
0.0
 11
-431.642919705791
 21
-41.7634749226666
 31
0.0
  0
LINE
  5
   4C6
  8
0
  6
CONTINUOUS
 62
     1
 10
-431.642919705791
 20
-40.9223214770806
 30
0.0
 11
-432.163864135742
 21
-37.9678981998736
 31
0.0
  0
LINE
  5
   4C7
  8
0
  6
CONTINUOUS
 62
     1
 10
-432.163864135742
 20
-37.9678981998736
 30
0.0
 11
-432.684808565694
 21
-40.9223214770806
 31
0.0
  0
ENDBLK
  5
   4C8
  8
0
  6
CONTINUOUS
 62
     7
  0
BLOCK
  5
   4C9
  8
0
  6
CONTINUOUS
 62
     7
  2
*UDIM1526
 70
    65
 10
0.0
 20
0.0
 30
0.0
  3
*UDIM1526
  0
TEXT
  5
   4CA
  8
0
  6
CONTINUOUS
 62
     7
 10
-433.163864138007
 20
-36.7734345707148
 30
0.0
 40
3.00000002980232
  1
15
 50
89.9999999480344
 41
0.933333333333333
 72
     1
 11
-434.663864150643
 21
-34.273434544521
 31
0.0
 73
     2
  0
LINE
  5
   4CB
  8
0
  6
CONTINUOUS
 62
     1
 10
-407.888611316681
 20
-30.4678981998736
 30
0.0
 11
-434.163864135742
 21
-30.4678981998736
 31
0.0
  0
LINE
  5
   4CC
  8
0
  6
CONTINUOUS
 62
     1
 10
-432.163864135742
 20
-37.9678981998736
 30
0.0
 11
-432.163864135742
 21
-30.4678981998736
 31
0.0
  0
LINE
  5
   4CD
  8
0
  6
CONTINUOUS
 62
     1
 10
-431.642919705791
 20
-40.9223214770806
 30
0.0
 11
-432.163864135742
 21
-37.9678981998736
 31
0.0
  0
LINE
  5
   4CE
  8
0
  6
CONTINUOUS
 62
     1
 10
-432.163864135742
 20
-37.9678981998736
 30
0.0
 11
-432.684808565694
 21
-40.9223214770806
 31
0.0
  0
LINE
  5
   4CF
  8
0
  6
CONTINUOUS
 62
     1
 10
-432.684808565694
 20
-27.5134749226666
 30
0.0
 11
-432.163864135742
 21
-30.4678981998736
 31
0.0
  0
LINE
  5
   4D0
  8
0
  6
CONTINUOUS
 62
     1
 10
-432.163864135742
 20
-30.4678981998736
 30
0.0
 11
-431.642919705791
 21
-27.5134749226666
 31
0.0
  0
ENDBLK
  5
   4D1
  8
0
  6
CONTINUOUS
 62
     7
  0
BLOCK
  5
   4D2
  8
0
  6
CONTINUOUS
 62
     7
  2
*UDIM1527
 70
    65
 10
0.0
 20
0.0
 30
0.0
  3
*UDIM1527
  0
TEXT
  5
   4D3
  8
0
  6
CONTINUOUS
 62
     7
 10
-404.413618494408
 20
98.161407472958
 30
0.0
 40
3.00000002980232
  1
25
 50
359.999999948034
 41
0.933333333333333
 72
     1
 11
-401.91361846822
 21
99.6614074856043
 31
0.0
 73
     2
  0
LINE
  5
   4D4
  8
0
  6
CONTINUOUS
 62
     7
 10
-395.388623462071
 20
77.0321273803711
 30
0.0
 11
-395.388623462071
 21
99.1614074707031
 31
0.0
  0
LINE
  5
   4D5
  8
0
  6
CONTINUOUS
 62
     7
 10
-407.888610839844
 20
89.588232531828
 30
0.0
 11
-407.888610839844
 21
99.1614074707031
 31
0.0
  0
LINE
  5
   4D6
  8
0
  6
CONTINUOUS
 62
     7
 10
-395.388623462071
 20
97.1614074707031
 30
0.0
 11
-407.888610839844
 21
97.1614074707031
 31
0.0
  0
LINE
  5
   4D7
  8
0
  6
CONTINUOUS
 62
     7
 10
-398.343046739278
 20
96.6404630407515
 30
0.0
 11
-395.388623462071
 21
97.1614074707031
 31
0.0
  0
LINE
  5
   4D8
  8
0
  6
CONTINUOUS
 62
     7
 10
-395.388623462071
 20
97.1614074707031
 30
0.0
 11
-398.343046739278
 21
97.6823519006548
 31
0.0
  0
LINE
  5
   4D9
  8
0
  6
CONTINUOUS
 62
     7
 10
-404.934187562637
 20
97.6823519006548
 30
0.0
 11
-407.888610839844
 21
97.1614074707031
 31
0.0
  0
LINE
  5
   4DA
  8
0
  6
CONTINUOUS
 62
     7
 10
-407.888610839844
 20
97.1614074707031
 30
0.0
 11
-404.934187562637
 21
96.6404630407515
 31
0.0
  0
ENDBLK
  5
   4DB
  8
0
  6
CONTINUOUS
 62
     7
  0
BLOCK
  5
   4DC
  8
0
  6
CONTINUOUS
 62
     5
  2
*UDIM1528
 70
    65
 10
0.0
 20
0.0
 30
0.0
  3
*UDIM1528
  0
TEXT
  5
   4DD
  8
0
  6
CONTINUOUS
 62
     5
 10
-429.930259711926
 20
35.8446501773419
 30
0.0
 40
3.00000002980232
  1
107,25
 50
89.9999999480344
 41
0.933333333333333
 72
     1
 11
-431.430259719491
 21
43.9446502591668
 31
0.0
 73
     2
  0
LINE
  5
   4DE
  8
0
  6
CONTINUOUS
 62
     5
 10
-416.76774801288
 20
17.4071444701972
 30
0.0
 11
-430.93025970459
 21
17.4071444701972
 31
0.0
  0
LINE
  5
   4DF
  8
0
  6
CONTINUOUS
 62
     5
 10
-402.603294039359
 20
71.0321529606158
 30
0.0
 11
-430.93025970459
 21
71.0321529606158
 31
0.0
  0
LINE
  5
   4E0
  8
0
  6
CONTINUOUS
 62
     5
 10
-428.93025970459
 20
17.4071444701972
 30
0.0
 11
-428.93025970459
 21
71.0321529606158
 31
0.0
  0
LINE
  5
   4E1
  8
0
  6
CONTINUOUS
 62
     5
 10
-429.451204134542
 20
20.3615677474041
 30
0.0
 11
-428.93025970459
 21
17.4071444701972
 31
0.0
  0
LINE
  5
   4E2
  8
0
  6
CONTINUOUS
 62
     5
 10
-428.93025970459
 20
17.4071444701972
 30
0.0
 11
-428.409315274638
 21
20.3615677474041
 31
0.0
  0
LINE
  5
   4E3
  8
0
  6
CONTINUOUS
 62
     5
 10
-428.409315274638
 20
68.0777296834088
 30
0.0
 11
-428.93025970459
 21
71.0321529606158
 31
0.0
  0
LINE
  5
   4E4
  8
0
  6
CONTINUOUS
 62
     5
 10
-428.93025970459
 20
71.0321529606158
 30
0.0
 11
-429.451204134542
 21
68.0777296834088
 31
0.0
  0
ENDBLK
  5
   4E5
  8
0
  6
CONTINUOUS
 62
     5
  0
BLOCK
  5
   4E6
  8
0
  6
CONTINUOUS
 62
     7
  2
*UDIM1529
 70
    65
 10
0.0
 20
0.0
 30
0.0
  3
*UDIM1529
  0
TEXT
  5
   4E7
  8
0
  6
CONTINUOUS
 62
     7
 10
-350.388615715863
 20
-93.9174728383633
 30
0.0
 40
3.00000002980232
  1
2
 50
359.999999948034
 41
0.933333333333334
 72
     1
 11
-349.288615703583
 21
-92.4174728244543
 31
0.0
 73
     2
  0
LINE
  5
   4E8
  8
0
  6
CONTINUOUS
 62
     7
 10
-353.388615608215
 20
-51.048039141136
 30
0.0
 11
-353.388615608215
 21
-96.9174728393555
 31
0.0
  0
LINE
  5
   4E9
  8
0
  6
CONTINUOUS
 62
     7
 10
-354.388615608215
 20
-51.6618322445843
 30
0.0
 11
-354.388615608215
 21
-96.9174728393555
 31
0.0
  0
LINE
  5
   4EA
  8
0
  6
CONTINUOUS
 62
     7
 10
-348.188615692655
 20
-94.9174728393555
 30
0.0
 11
-354.388615608215
 21
-94.9174728393555
 31
0.0
  0
LINE
  5
   4EB
  8
0
  6
CONTINUOUS
 62
     7
 10
-350.434192331008
 20
-94.3965284094038
 30
0.0
 11
-353.388615608215
 21
-94.9174728393555
 31
0.0
  0
LINE
  5
   4EC
  8
0
  6
CONTINUOUS
 62
     7
 10
-353.388615608215
 20
-94.9174728393555
 30
0.0
 11
-350.434192331008
 21
-95.4384172693071
 31
0.0
  0
LINE
  5
   4ED
  8
0
  6
CONTINUOUS
 62
     7
 10
-357.343038885422
 20
-95.4384172693071
 30
0.0
 11
-354.388615608215
 21
-94.9174728393555
 31
0.0
  0
LINE
  5
   4EE
  8
0
  6
CONTINUOUS
 62
     7
 10
-354.388615608215
 20
-94.9174728393555
 30
0.0
 11
-357.343038885422
 21
-94.3965284094038
 31
0.0
  0
ENDBLK
  5
   4EF
  8
0
  6
CONTINUOUS
 62
     7
  0
BLOCK
  5
   4F0
  8
0
  6
CONTINUOUS
 62
     7
  2
*UDIM1530
 70
    65
 10
0.0
 20
0.0
 30
0.0
  3
*UDIM1530
  0
TEXT
  5
   4F1
  8
0
  6
CONTINUOUS
 62
     7
 10
-385.313614700598
 20
-93.9174728358379
 30
0.0
 40
3.00000002980232
  1
107
 50
359.999999948034
 41
0.933333333333333
 72
     1
 11
-381.413614660502
 21
-92.4174728244543
 31
0.0
 73
     2
  0
LINE
  5
   4F2
  8
0
  6
CONTINUOUS
 62
     7
 10
-407.888610839844
 20
-44.8178981998736
 30
0.0
 11
-407.888610839844
 21
-96.9174728393555
 31
0.0
  0
LINE
  5
   4F3
  8
0
  6
CONTINUOUS
 62
     7
 10
-354.388615608215
 20
-94.9174728393555
 30
0.0
 11
-407.888610839844
 21
-94.9174728393555
 31
0.0
  0
LINE
  5
   4F4
  8
0
  6
CONTINUOUS
 62
     7
 10
-357.343038885422
 20
-95.4384172693071
 30
0.0
 11
-354.388615608215
 21
-94.9174728393555
 31
0.0
  0
LINE
  5
   4F5
  8
0
  6
CONTINUOUS
 62
     7
 10
-354.388615608215
 20
-94.9174728393555
 30
0.0
 11
-357.343038885422
 21
-94.3965284094038
 31
0.0
  0
LINE
  5
   4F6
  8
0
  6
CONTINUOUS
 62
     7
 10
-404.934187562637
 20
-94.3965284094038
 30
0.0
 11
-407.888610839844
 21
-94.9174728393555
 31
0.0
  0
LINE
  5
   4F7
  8
0
  6
CONTINUOUS
 62
     7
 10
-407.888610839844
 20
-94.9174728393555
 30
0.0
 11
-404.934187562637
 21
-95.4384172693071
 31
0.0
  0
ENDBLK
  5
   4F8
  8
0
  6
CONTINUOUS
 62
     7
  0
BLOCK
  5
   4F9
  8
0
  6
CONTINUOUS
 62
     7
  2
*UDIM1531
 70
    65
 10
0.0
 20
0.0
 30
0.0
  3
*UDIM1531
  0
TEXT
  5
   4FA
  8
0
  6
CONTINUOUS
 62
     7
 10
-388.988614724033
 20
-87.7850341736445
 30
0.0
 40
3.00000002980232
  1
103,5
 50
359.999999948034
 41
0.933333333333333
 72
     1
 11
-382.288614656122
 21
-86.2850341647863
 31
0.0
 73
     2
  0
LINE
  5
   4FB
  8
0
  6
CONTINUOUS
 62
     7
 10
-356.138618783155
 20
-9.8428402710137
 30
0.0
 11
-356.138644192243
 21
-90.7850341796874
 31
0.0
  0
LINE
  5
   4FC
  8
0
  6
CONTINUOUS
 62
     7
 10
-407.88861115376
 20
-44.8178981998735
 30
0.0
 11
-407.888625583601
 21
-90.7850341796874
 31
0.0
  0
LINE
  5
   4FD
  8
0
  6
CONTINUOUS
 62
     7
 10
-356.13864356441
 20
-88.7850341796875
 30
0.0
 11
-407.888624955769
 21
-88.7850341796875
 31
0.0
  0
LINE
  5
   4FE
  8
0
  6
CONTINUOUS
 62
     7
 10
-359.093066841617
 20
-89.3059786096392
 30
0.0
 11
-356.13864356441
 21
-88.7850341796875
 31
0.0
  0
LINE
  5
   4FF
  8
0
  6
CONTINUOUS
 62
     7
 10
-356.13864356441
 20
-88.7850341796875
 30
0.0
 11
-359.093066841617
 21
-88.2640897497358
 31
0.0
  0
LINE
  5
   500
  8
0
  6
CONTINUOUS
 62
     7
 10
-404.934201678562
 20
-88.2640897497358
 30
0.0
 11
-407.888624955769
 21
-88.7850341796875
 31
0.0
  0
LINE
  5
   501
  8
0
  6
CONTINUOUS
 62
     7
 10
-407.888624955769
 20
-88.7850341796875
 30
0.0
 11
-404.934201678562
 21
-89.3059786096392
 31
0.0
  0
ENDBLK
  5
   502
  8
0
  6
CONTINUOUS
 62
     7
  0
BLOCK
  5
   503
  8
0
  6
CONTINUOUS
 62
     7
  2
*UDIM1532
 70
    65
 10
0.0
 20
0.0
 30
0.0
  3
*UDIM1532
  0
TEXT
  5
   504
  8
0
  6
CONTINUOUS
 62
     7
 10
-415.138610758302
 20
-87.7850341786954
 30
0.0
 40
3.00000002980232
  1
3
 50
359.999999948034
 41
0.933333333333334
 72
     1
 11
-414.038610746021
 21
-86.2850341647863
 31
0.0
 73
     2
  0
TEXT
  5
   505
  8
0
  6
CONTINUOUS
 62
     7
 10
-417.888610792078
 20
-87.7850341786954
 30
0.0
 40
3.00000002980232
  1
_
 50
359.999999948034
 41
0.933333333333334
 72
     1
 11
-416.788610779797
 21
-86.2850341647863
 31
0.0
 73
     2
  0
LINE
  5
   506
  8
0
  6
CONTINUOUS
 62
     7
 10
-409.38861115376
 20
-44.8178981998735
 30
0.0
 11
-409.388625583601
 21
-90.7850341796874
 31
0.0
  0
LINE
  5
   507
  8
0
  6
CONTINUOUS
 62
     7
 10
-407.888624955769
 20
-88.7850341796875
 30
0.0
 11
-417.888610790725
 21
-88.7850341796875
 31
0.0
  0
LINE
  5
   508
  8
0
  6
CONTINUOUS
 62
     7
 10
-404.934201678562
 20
-88.2640897497358
 30
0.0
 11
-407.888624955769
 21
-88.7850341796875
 31
0.0
  0
LINE
  5
   509
  8
0
  6
CONTINUOUS
 62
     7
 10
-407.888624955769
 20
-88.7850341796875
 30
0.0
 11
-404.934201678562
 21
-89.3059786096392
 31
0.0
  0
LINE
  5
   50A
  8
0
  6
CONTINUOUS
 62
     7
 10
-412.343048232975
 20
-89.3059786096392
 30
0.0
 11
-409.388624955769
 21
-88.7850341796875
 31
0.0
  0
LINE
  5
   50B
  8
0
  6
CONTINUOUS
 62
     7
 10
-409.388624955769
 20
-88.7850341796875
 30
0.0
 11
-412.343048232975
 21
-88.2640897497358
 31
0.0
  0
ENDBLK
  5
   50C
  8
0
  6
CONTINUOUS
 62
     7
  0
BLOCK
  5
   50D
  8
0
  6
CONTINUOUS
 62
     7
  2
*UDIM1533
 70
    65
 10
0.0
 20
0.0
 30
0.0
  3
*UDIM1533
  0
TEXT
  5
   50E
  8
0
  6
CONTINUOUS
 62
     7
 10
-348.813224794745
 20
-38.0023643436879
 30
0.0
 40
3.00000002980232
  1
11
 50
89.9999999480344
 41
0.933333333333333
 72
     1
 11
-350.313224807382
 21
-35.5023643174941
 31
0.0
 73
     2
  0
LINE
  5
   50F
  8
0
  6
CONTINUOUS
 62
     7
 10
-386.536652021921
 20
-37.9678981998736
 30
0.0
 11
-345.813224792481
 21
-37.9678981998736
 31
0.0
  0
LINE
  5
   510
  8
0
  6
CONTINUOUS
 62
     7
 10
-386.187228009715
 20
-32.4678981998736
 30
0.0
 11
-345.813224792481
 21
-32.4678981998736
 31
0.0
  0
LINE
  5
   511
  8
0
  6
CONTINUOUS
 62
     7
 10
-347.81322479248
 20
-38.0023643423293
 30
0.0
 11
-347.81322479248
 21
-32.4678981998736
 31
0.0
  0
LINE
  5
   512
  8
0
  6
CONTINUOUS
 62
     7
 10
-347.292280362529
 20
-40.9223214770806
 30
0.0
 11
-347.81322479248
 21
-37.9678981998736
 31
0.0
  0
LINE
  5
   513
  8
0
  6
CONTINUOUS
 62
     7
 10
-347.81322479248
 20
-37.9678981998736
 30
0.0
 11
-348.334169222432
 21
-40.9223214770806
 31
0.0
  0
LINE
  5
   514
  8
0
  6
CONTINUOUS
 62
     7
 10
-348.334169222432
 20
-29.5134749226666
 30
0.0
 11
-347.81322479248
 21
-32.4678981998736
 31
0.0
  0
LINE
  5
   515
  8
0
  6
CONTINUOUS
 62
     7
 10
-347.81322479248
 20
-32.4678981998736
 30
0.0
 11
-347.292280362529
 21
-29.5134749226666
 31
0.0
  0
ENDBLK
  5
   516
  8
0
  6
CONTINUOUS
 62
     7
  0
BLOCK
  5
   517
  8
0
  6
CONTINUOUS
 62
     7
  2
*UDIM1534
 70
    65
 10
0.0
 20
0.0
 30
0.0
  3
*UDIM1534
  0
TEXT
  5
   518
  8
0
  6
CONTINUOUS
 62
     7
 10
-389.488614735507
 20
105.137969976746
 30
0.0
 40
3.00000002980232
  1
101,5
 50
359.999999948034
 41
0.933333333333333
 72
     1
 11
-382.788614667595
 21
106.637969985604
 31
0.0
 73
     2
  0
LINE
  5
   519
  8
0
  6
CONTINUOUS
 62
     7
 10
-357.138617947013
 20
68.782144470197
 30
0.0
 11
-357.13859843886
 21
106.137969970703
 31
0.0
  0
LINE
  5
   51A
  8
0
  6
CONTINUOUS
 62
     7
 10
-407.888607852926
 20
89.5882325318235
 30
0.0
 11
-407.888558420224
 21
106.137969970694
 31
0.0
  0
LINE
  5
   51B
  8
0
  6
CONTINUOUS
 62
     7
 10
-357.138599483311
 20
104.137969970703
 30
0.0
 11
-407.888564394059
 21
104.137969970703
 31
0.0
  0
LINE
  5
   51C
  8
0
  6
CONTINUOUS
 62
     7
 10
-360.093022760518
 20
103.617025540751
 30
0.0
 11
-357.138599483311
 21
104.137969970703
 31
0.0
  0
LINE
  5
   51D
  8
0
  6
CONTINUOUS
 62
     7
 10
-357.138599483311
 20
104.137969970703
 30
0.0
 11
-360.093022760518
 21
104.658914400655
 31
0.0
  0
LINE
  5
   51E
  8
0
  6
CONTINUOUS
 62
     7
 10
-404.934141116853
 20
104.658914400655
 30
0.0
 11
-407.888564394059
 21
104.137969970703
 31
0.0
  0
LINE
  5
   51F
  8
0
  6
CONTINUOUS
 62
     7
 10
-407.888564394059
 20
104.137969970703
 30
0.0
 11
-404.934141116853
 21
103.617025540751
 31
0.0
  0
ENDBLK
  5
   520
  8
0
  6
CONTINUOUS
 62
     7
  0
BLOCK
  5
   521
  8
0
  6
CONTINUOUS
 62
     7
  2
*UDIM1535
 70
    65
 10
0.0
 20
0.0
 30
0.0
  3
*UDIM1535
  0
TEXT
  5
   522
  8
0
  6
CONTINUOUS
 62
     7
 10
-327.192619325995
 20
66.6850753511897
 30
0.0
 40
3.00000002980232
  1
11
 50
89.9999999480344
 41
0.933333333333333
 72
     1
 11
-328.692619338632
 21
69.1850753773835
 31
0.0
 73
     2
  0
LINE
  5
   523
  8
0
  6
CONTINUOUS
 62
     7
 10
-387.611487046711
 20
65.5321273803711
 30
0.0
 11
-324.19261932373
 21
65.5321273803711
 31
0.0
  0
LINE
  5
   524
  8
0
  6
CONTINUOUS
 62
     7
 10
-386.536652021921
 20
71.0321529606158
 30
0.0
 11
-324.19261932373
 21
71.0321529606158
 31
0.0
  0
LINE
  5
   525
  8
0
  6
CONTINUOUS
 62
     7
 10
-326.192619323731
 20
65.5321273803711
 30
0.0
 11
-326.192619323731
 21
71.6850754022188
 31
0.0
  0
LINE
  5
   526
  8
0
  6
CONTINUOUS
 62
     7
 10
-325.671674893779
 20
62.5777041031641
 30
0.0
 11
-326.192619323731
 21
65.5321273803711
 31
0.0
  0
LINE
  5
   527
  8
0
  6
CONTINUOUS
 62
     7
 10
-326.192619323731
 20
65.5321273803711
 30
0.0
 11
-326.713563753682
 21
62.5777041031641
 31
0.0
  0
LINE
  5
   528
  8
0
  6
CONTINUOUS
 62
     7
 10
-326.713563753682
 20
73.9865762378227
 30
0.0
 11
-326.192619323731
 21
71.0321529606158
 31
0.0
  0
LINE
  5
   529
  8
0
  6
CONTINUOUS
 62
     7
 10
-326.192619323731
 20
71.0321529606158
 30
0.0
 11
-325.671674893779
 21
73.9865762378227
 31
0.0
  0
ENDBLK
  5
   52A
  8
0
  6
CONTINUOUS
 62
     7
  0
BLOCK
  5
   52B
  8
0
  6
CONTINUOUS
 62
     7
  2
*UDIM1536
 70
    65
 10
0.0
 20
0.0
 30
0.0
  3
*UDIM1536
  0
TEXT
  5
   52C
  8
0
  6
CONTINUOUS
 62
     7
 10
-420.630657200845
 20
48.3630490825485
 30
0.0
 40
3.00000002980232
  1
17,5
 50
89.9999999480344
 41
0.933333333333333
 72
     1
 11
-422.130657210946
 21
53.6630491365579
 31
0.0
 73
     2
  0
LINE
  5
   52D
  8
0
  6
CONTINUOUS
 62
     7
 10
-401.388622508397
 20
62.2821273803711
 30
0.0
 11
-421.630657196045
 21
62.2821273803711
 31
0.0
  0
LINE
  5
   52E
  8
0
  6
CONTINUOUS
 62
     7
 10
-402.603294039359
 20
71.0321529606158
 30
0.0
 11
-421.630657196045
 21
71.0321529606158
 31
0.0
  0
LINE
  5
   52F
  8
0
  6
CONTINUOUS
 62
     7
 10
-419.630657196045
 20
48.3630490839071
 30
0.0
 11
-419.630657196045
 21
71.0321529606158
 31
0.0
  0
LINE
  5
   530
  8
0
  6
CONTINUOUS
 62
     7
 10
-419.109712766093
 20
59.3277041031641
 30
0.0
 11
-419.630657196045
 21
62.2821273803711
 31
0.0
  0
LINE
  5
   531
  8
0
  6
CONTINUOUS
 62
     7
 10
-419.630657196045
 20
62.2821273803711
 30
0.0
 11
-420.151601625997
 21
59.3277041031641
 31
0.0
  0
LINE
  5
   532
  8
0
  6
CONTINUOUS
 62
     7
 10
-420.151601625997
 20
73.9865762378227
 30
0.0
 11
-419.630657196045
 21
71.0321529606158
 31
0.0
  0
LINE
  5
   533
  8
0
  6
CONTINUOUS
 62
     7
 10
-419.630657196045
 20
71.0321529606158
 30
0.0
 11
-419.109712766093
 21
73.9865762378227
 31
0.0
  0
ENDBLK
  5
   534
  8
0
  6
CONTINUOUS
 62
     7
  0
BLOCK
  5
   535
  8
0
  6
CONTINUOUS
 62
     7
  2
*UDIM1537
 70
    65
 10
0.0
 20
0.0
 30
0.0
  3
*UDIM1537
  0
TEXT
  5
   536
  8
0
  6
CONTINUOUS
 62
     7
 10
-439.515998843864
 20
12.3571235196118
 30
0.0
 40
3.00000002980232
  1
218
 50
89.9999999480344
 41
0.933333333333333
 72
     1
 11
-441.015998855233
 21
16.2571235597134
 31
0.0
 73
     2
  0
LINE
  5
   537
  8
0
  6
CONTINUOUS
 62
     7
 10
-402.603294039359
 20
-37.9678981998736
 30
0.0
 11
-440.515998840332
 21
-37.9678981998736
 31
0.0
  0
LINE
  5
   538
  8
0
  6
CONTINUOUS
 62
     7
 10
-402.603294039359
 20
71.0321529606158
 30
0.0
 11
-440.515998840332
 21
71.0321529606158
 31
0.0
  0
LINE
  5
   539
  8
0
  6
CONTINUOUS
 62
     7
 10
-438.515998840332
 20
-37.9678981998736
 30
0.0
 11
-438.515998840332
 21
71.0321529606158
 31
0.0
  0
LINE
  5
   53A
  8
0
  6
CONTINUOUS
 62
     7
 10
-439.036943270284
 20
-35.0134749226666
 30
0.0
 11
-438.515998840332
 21
-37.9678981998736
 31
0.0
  0
LINE
  5
   53B
  8
0
  6
CONTINUOUS
 62
     7
 10
-438.515998840332
 20
-37.9678981998736
 30
0.0
 11
-437.99505441038
 21
-35.0134749226666
 31
0.0
  0
LINE
  5
   53C
  8
0
  6
CONTINUOUS
 62
     7
 10
-437.99505441038
 20
68.0777296834088
 30
0.0
 11
-438.515998840332
 21
71.0321529606158
 31
0.0
  0
LINE
  5
   53D
  8
0
  6
CONTINUOUS
 62
     7
 10
-438.515998840332
 20
71.0321529606158
 30
0.0
 11
-439.036943270284
 21
68.0777296834088
 31
0.0
  0
ENDBLK
  5
   53E
  8
0
  6
CONTINUOUS
 62
     7
  0
BLOCK
  5
   53F
  8
0
  6
CONTINUOUS
 62
     7
  2
*UDIM1538
 70
    65
 10
0.0
 20
0.0
 30
0.0
  3
*UDIM1538
  0
TEXT
  5
   540
  8
0
  6
CONTINUOUS
 62
     7
 10
-378.302594033513
 20
-101.47945403701
 30
0.0
 40
3.00000002980232
  1
135
 50
359.999999948034
 41
0.933333333333333
 72
     1
 11
-374.402593993417
 21
-99.9794540256262
 31
0.0
 73
     2
  0
LINE
  5
   541
  8
0
  6
CONTINUOUS
 62
     7
 10
-340.366577537432
 20
11.2821597289863
 30
0.0
 11
-340.366620740225
 21
-104.479454040527
 31
0.0
  0
LINE
  5
   542
  8
0
  6
CONTINUOUS
 62
     7
 10
-407.88861115376
 20
-44.8178981998735
 30
0.0
 11
-407.888629882505
 21
-104.479454040527
 31
0.0
  0
LINE
  5
   543
  8
0
  6
CONTINUOUS
 62
     7
 10
-340.366619993815
 20
-102.479454040527
 30
0.0
 11
-407.888629254673
 21
-102.479454040527
 31
0.0
  0
LINE
  5
   544
  8
0
  6
CONTINUOUS
 62
     7
 10
-343.321043271022
 20
-103.000398470479
 30
0.0
 11
-340.366619993815
 21
-102.479454040527
 31
0.0
  0
LINE
  5
   545
  8
0
  6
CONTINUOUS
 62
     7
 10
-340.366619993815
 20
-102.479454040527
 30
0.0
 11
-343.321043271022
 21
-101.958509610576
 31
0.0
  0
LINE
  5
   546
  8
0
  6
CONTINUOUS
 62
     7
 10
-404.934205977466
 20
-101.958509610576
 30
0.0
 11
-407.888629254673
 21
-102.479454040527
 31
0.0
  0
LINE
  5
   547
  8
0
  6
CONTINUOUS
 62
     7
 10
-407.888629254673
 20
-102.479454040527
 30
0.0
 11
-404.934205977466
 21
-103.000398470479
 31
0.0
  0
ENDBLK
  5
   548
  8
0
  6
CONTINUOUS
 62
     7
  0
BLOCK
  5
   549
  8
0
  6
CONTINUOUS
 62
     7
  2
*UDIM1539
 70
    65
 10
0.0
 20
0.0
 30
0.0
  3
*UDIM1539
  0
TEXT
  5
   54A
  8
0
  6
CONTINUOUS
 62
     7
 10
-323.199481967644
 20
13.232150235588
 30
0.0
 40
3.00000002980232
  1
105
 50
89.9999999480344
 41
0.933333333333333
 72
     1
 11
-324.699481979013
 21
17.1321502756896
 31
0.0
 73
     2
  0
LINE
  5
   54B
  8
0
  6
CONTINUOUS
 62
     7
 10
-353.388615608215
 20
-8.84284027101375
 30
0.0
 11
-320.199481964111
 21
-8.84284027101375
 31
0.0
  0
LINE
  5
   54C
  8
0
  6
CONTINUOUS
 62
     7
 10
-353.388615608215
 20
43.6571444701972
 30
0.0
 11
-320.199481964111
 21
43.6571444701972
 31
0.0
  0
LINE
  5
   54D
  8
0
  6
CONTINUOUS
 62
     7
 10
-322.199481964111
 20
-8.84284027101375
 30
0.0
 11
-322.199481964111
 21
43.6571444701972
 31
0.0
  0
LINE
  5
   54E
  8
0
  6
CONTINUOUS
 62
     7
 10
-322.720426394063
 20
-5.88841699380678
 30
0.0
 11
-322.199481964111
 21
-8.84284027101375
 31
0.0
  0
LINE
  5
   54F
  8
0
  6
CONTINUOUS
 62
     7
 10
-322.199481964111
 20
-8.84284027101375
 30
0.0
 11
-321.67853753416
 21
-5.88841699380678
 31
0.0
  0
LINE
  5
   550
  8
0
  6
CONTINUOUS
 62
     7
 10
-321.67853753416
 20
40.7027211929902
 30
0.0
 11
-322.199481964111
 21
43.6571444701972
 31
0.0
  0
LINE
  5
   551
  8
0
  6
CONTINUOUS
 62
     7
 10
-322.199481964111
 20
43.6571444701972
 30
0.0
 11
-322.720426394063
 21
40.7027211929902
 31
0.0
  0
ENDBLK
  5
   552
  8
0
  6
CONTINUOUS
 62
     7
  0
BLOCK
  5
   553
  8
0
  6
CONTINUOUS
 62
     7
  2
*UDIM1540
 70
    65
 10
0.0
 20
0.0
 30
0.0
  3
*UDIM1540
  0
TEXT
  5
   554
  8
0
  6
CONTINUOUS
 62
     7
 10
-463.878292676363
 20
-101.401032618036
 30
0.0
 40
2.99999994933605
  1
15
 50
326.32068219578
 41
0.933333333333333
 72
     1
 11
-460.966090728675
 21
-101.539161285555
 31
0.0
 73
     2
  0
TEXT
  5
   555
  8
0
  6
CONTINUOUS
 62
     7
 10
-466.166717126039
 20
-99.8760364215351
 30
0.0
 40
2.99999994933605
  1
R
 50
326.32068219578
 41
0.933333333333333
 72
     1
 11
-464.419531250719
 21
-99.2378033918233
 31
0.0
 73
     2
  0
LINE
  5
   556
  8
0
  6
CONTINUOUS
 62
     7
 10
-460.272065061882
 20
-105.00590731549
 30
0.0
 11
-486.895489539202
 21
-87.264171881518
 31
0.0
  0
LINE
  5
   557
  8
0
  6
CONTINUOUS
 62
     7
 10
-477.160597089658
 20
-94.3774812856978
 30
0.0
 11
-474.413174252279
 21
-95.5823330411641
 31
0.0
  0
LINE
  5
   558
  8
0
  6
CONTINUOUS
 62
     7
 10
-474.413174252279
 20
-95.5823330411641
 30
0.0
 11
-476.582823793183
 21
-93.5104689361481
 31
0.0
  0
ENDBLK
  5
   559
  8
0
  6
CONTINUOUS
 62
     7
  0
BLOCK
  5
   55A
  8
0
  6
CONTINUOUS
 62
     7
  2
*UDIM1541
 70
    65
 10
0.0
 20
0.0
 30
0.0
  3
*UDIM1541
  0
TEXT
  5
   55B
  8
0
  6
CONTINUOUS
 62
     7
 10
-491.584637491958
 20
-80.6932519868182
 30
0.0
 40
2.99999994933605
  1
105
 50
359.999999896069
 41
0.933333333333333
 72
     1
 11
-487.684637555108
 21
-79.193252019205
 31
0.0
 73
     2
  0
LINE
  5
   55C
  8
0
  6
CONTINUOUS
 62
     7
 10
-476.909637346864
 20
-89.3187007308006
 30
0.0
 11
-476.909637346864
 21
-79.693251993873
 31
0.0
  0
LINE
  5
   55D
  8
0
  6
CONTINUOUS
 62
     7
 10
-497.909637659788
 20
-89.3187007308006
 30
0.0
 11
-497.909637659788
 21
-79.693251993873
 31
0.0
  0
LINE
  5
   55E
  8
0
  6
CONTINUOUS
 62
     7
 10
-476.909637346864
 20
-81.693251993873
 30
0.0
 11
-497.909637659788
 21
-81.693251993873
 31
0.0
  0
LINE
  5
   55F
  8
0
  6
CONTINUOUS
 62
     7
 10
-479.864060624071
 20
-82.2141964238247
 30
0.0
 11
-476.909637346864
 21
-81.693251993873
 31
0.0
  0
LINE
  5
   560
  8
0
  6
CONTINUOUS
 62
     7
 10
-476.909637346864
 20
-81.693251993873
 30
0.0
 11
-479.864060624071
 21
-81.1723075639213
 31
0.0
  0
LINE
  5
   561
  8
0
  6
CONTINUOUS
 62
     7
 10
-494.955214382581
 20
-81.1723075639213
 30
0.0
 11
-497.909637659788
 21
-81.693251993873
 31
0.0
  0
LINE
  5
   562
  8
0
  6
CONTINUOUS
 62
     7
 10
-497.909637659788
 20
-81.693251993873
 30
0.0
 11
-494.955214382581
 21
-82.2141964238247
 31
0.0
  0
ENDBLK
  5
   563
  8
0
  6
CONTINUOUS
 62
     7
  0
BLOCK
  5
   564
  8
0
  6
CONTINUOUS
 62
     7
  2
*UDIM1542
 70
    65
 10
0.0
 20
0.0
 30
0.0
  3
*UDIM1542
  0
TEXT
  5
   565
  8
0
  6
CONTINUOUS
 62
     7
 10
-473.934637225773
 20
-84.0874842176631
 30
0.0
 40
2.99999994933605
  1
35
 50
359.999999896069
 41
0.933333333333333
 72
     1
 11
-471.43463726528
 21
-82.5874842475173
 31
0.0
 73
     2
  0
LINE
  5
   566
  8
0
  6
CONTINUOUS
 62
     7
 10
-476.909637346864
 20
-89.3187007308006
 30
0.0
 11
-476.909637346864
 21
-83.0874842221854
 31
0.0
  0
LINE
  5
   567
  8
0
  6
CONTINUOUS
 62
     7
 10
-468.9346373075
 20
-85.0874842221854
 30
0.0
 11
-483.909637451172
 21
-85.0874842221854
 31
0.0
  0
LINE
  5
   568
  8
0
  6
CONTINUOUS
 62
     7
 10
-473.955214069657
 20
-84.5665397922337
 30
0.0
 11
-476.909637346864
 21
-85.0874842221854
 31
0.0
  0
LINE
  5
   569
  8
0
  6
CONTINUOUS
 62
     7
 10
-476.909637346864
 20
-85.0874842221854
 30
0.0
 11
-473.955214069657
 21
-85.608428652137
 31
0.0
  0
LINE
  5
   56A
  8
0
  6
CONTINUOUS
 62
     7
 10
-486.864060728379
 20
-85.608428652137
 30
0.0
 11
-483.909637451172
 21
-85.0874842221854
 31
0.0
  0
LINE
  5
   56B
  8
0
  6
CONTINUOUS
 62
     7
 10
-483.909637451172
 20
-85.0874842221854
 30
0.0
 11
-486.864060728379
 21
-84.5665397922337
 31
0.0
  0
ENDBLK
  5
   56C
  8
0
  6
CONTINUOUS
 62
     7
  0
BLOCK
  5
   56D
  8
0
  6
CONTINUOUS
 62
     7
  2
*UDIM1543
 70
    65
 10
0.0
 20
0.0
 30
0.0
  3
*UDIM1543
  0
TEXT
  5
   56E
  8
0
  6
CONTINUOUS
 62
     7
 10
-514.300989214547
 20
-124.093701160505
 30
0.0
 40
2.99999994933605
  1
260
 50
449.999999896069
 41
0.933333333333333
 72
     1
 11
-515.800989182165
 21
-120.193701223657
 31
0.0
 73
     2
  0
LINE
  5
   56F
  8
0
  6
CONTINUOUS
 62
     7
 10
-502.509637713432
 20
-93.9187007844448
 30
0.0
 11
-515.300989207497
 21
-93.9187007844448
 31
0.0
  0
LINE
  5
   570
  8
0
  6
CONTINUOUS
 62
     7
 10
-502.509637713432
 20
-145.918701559305
 30
0.0
 11
-515.300989207497
 21
-145.918701559305
 31
0.0
  0
LINE
  5
   571
  8
0
  6
CONTINUOUS
 62
     7
 10
-513.300989207497
 20
-93.9187007844448
 30
0.0
 11
-513.300989207497
 21
-145.918701559305
 31
0.0
  0
LINE
  5
   572
  8
0
  6
CONTINUOUS
 62
     7
 10
-512.780044777545
 20
-96.8731240616518
 30
0.0
 11
-513.300989207497
 21
-93.9187007844448
 31
0.0
  0
LINE
  5
   573
  8
0
  6
CONTINUOUS
 62
     7
 10
-513.300989207497
 20
-93.9187007844448
 30
0.0
 11
-513.821933637448
 21
-96.8731240616518
 31
0.0
  0
LINE
  5
   574
  8
0
  6
CONTINUOUS
 62
     7
 10
-513.821933637448
 20
-142.964278282098
 30
0.0
 11
-513.300989207497
 21
-145.918701559305
 31
0.0
  0
LINE
  5
   575
  8
0
  6
CONTINUOUS
 62
     7
 10
-513.300989207497
 20
-145.918701559305
 30
0.0
 11
-512.780044777545
 21
-142.964278282098
 31
0.0
  0
ENDBLK
  5
   576
  8
0
  6
CONTINUOUS
 62
     7
  0
BLOCK
  5
   577
  8
0
  6
CONTINUOUS
 62
     7
  2
*UDIM1544
 70
    65
 10
0.0
 20
0.0
 30
0.0
  3
*UDIM1544
  0
TEXT
  5
   578
  8
0
  6
CONTINUOUS
 62
     7
 10
-508.666565310054
 20
-115.118700964778
 30
0.0
 40
2.99999994933605
  1
128,25
 50
449.999999896069
 41
0.933333333333333
 72
     1
 11
-510.16656527008
 21
-107.018701098859
 31
0.0
 73
     2
  0
LINE
  5
   579
  8
0
  6
CONTINUOUS
 62
     7
 10
-502.509637713432
 20
-93.9187007844448
 30
0.0
 11
-509.666565295412
 21
-93.9187007844448
 31
0.0
  0
LINE
  5
   57A
  8
0
  6
CONTINUOUS
 62
     7
 10
-507.666565295412
 20
-93.9187007844448
 30
0.0
 11
-507.666565295412
 21
-119.56870116666
 31
0.0
  0
LINE
  5
   57B
  8
0
  6
CONTINUOUS
 62
     7
 10
-507.14562086546
 20
-96.8731240616518
 30
0.0
 11
-507.666565295412
 21
-93.9187007844448
 31
0.0
  0
LINE
  5
   57C
  8
0
  6
CONTINUOUS
 62
     7
 10
-507.666565295412
 20
-93.9187007844448
 30
0.0
 11
-508.187509725364
 21
-96.8731240616518
 31
0.0
  0
LINE
  5
   57D
  8
0
  6
CONTINUOUS
 62
     7
 10
-508.187509725364
 20
-116.614277889453
 30
0.0
 11
-507.666565295412
 21
-119.56870116666
 31
0.0
  0
LINE
  5
   57E
  8
0
  6
CONTINUOUS
 62
     7
 10
-507.666565295412
 20
-119.56870116666
 30
0.0
 11
-507.14562086546
 21
-116.614277889453
 31
0.0
  0
ENDBLK
  5
   57F
  8
0
  6
CONTINUOUS
 62
     7
  0
ENDSEC
  0
SECTION
  2
ENTITIES
  0
LINE
  5
   580
  8
0
  6
DASHDOT
 62
     3
 10
-546.292907714844
 20
-93.0669834840002
 30
0.0
 11
-546.292907714844
 21
-146.944108147476
 31
0.0
  0
LINE
  5
   581
  8
0
  6
DASHDOT
 62
     3
 10
-536.738877497502
 20
-98.5187008529902
 30
0.0
 11
-556.174242584036
 21
-98.5187008529902
 31
0.0
  0
LINE
  5
   582
  8
0
  6
DASHDOT
 62
     3
 10
-536.339401718243
 20
-141.31870149076
 30
0.0
 11
-555.496870610511
 21
-141.31870149076
 31
0.0
  0
LINE
  5
   583
  8
0
  6
CONTINUOUS
 62
     7
 10
-535.292907550931
 20
-93.6922595921259
 30
0.0
 11
-535.292907550931
 21
-146.596747575668
 31
0.0
  0
LINE
  5
   584
  8
0
  6
CONTINUOUS
 62
     7
 10
-534.480970919084
 20
-145.318701550365
 30
0.0
 11
-563.697079001098
 21
-145.318701550365
 31
0.0
  0
LINE
  5
   585
  8
0
  6
CONTINUOUS
 62
     7
 10
-533.803598945559
 20
-94.5187007933855
 30
0.0
 11
-563.829162490531
 21
-94.5187007933855
 31
0.0
  0
CIRCLE
  5
   586
  8
0
  6
CONTINUOUS
 62
     7
 10
-542.79290766269
 20
-98.5187008529902
 30
0.0
 40
0.550000008195639
  0
CIRCLE
  5
   587
  8
0
  6
CONTINUOUS
 62
     7
 10
-542.79290766269
 20
-141.31870149076
 30
0.0
 40
0.550000008195639
  0
LINE
  5
   588
  8
0
  6
DASHDOT
 62
     3
 10
-542.79290766269
 20
-93.0669834840002
 30
0.0
 11
-542.79290766269
 21
-143.581951650208
 31
0.0
  0
LINE
  5
   589
  8
0
  6
DASHDOT
 62
     3
 10
-556.792907871306
 20
-93.0669834840002
 30
0.0
 11
-556.792907871306
 21
-143.799920606785
 31
0.0
  0
CIRCLE
  5
   58A
  8
0
  6
CONTINUOUS
 62
     7
 10
-556.792907871306
 20
-98.5187008529902
 30
0.0
 40
0.550000008195639
  0
CIRCLE
  5
   58B
  8
0
  6
CONTINUOUS
 62
     7
 10
-556.792907871306
 20
-141.31870149076
 30
0.0
 40
0.550000008195639
  0
LINE
  5
   58C
  8
0
  6
CONTINUOUS
 62
     7
 10
-562.24416061733
 20
-93.0982568176099
 30
0.0
 11
-562.24416061733
 21
-145.733527356833
 31
0.0
  0
LINE
  5
   58D
  8
0
  6
DASHDOT
 62
     2
 10
-533.747839255819
 20
-119.56870116666
 30
0.0
 11
-569.167682212127
 21
-119.56870116666
 31
0.0
  0
CIRCLE
  5
   58E
  8
0
  6
CONTINUOUS
 62
     7
 10
-560.07350543185
 20
-96.0847947206597
 30
0.0
 40
6.00000008940697E-2
  0
INSERT
  5
   58F
  8
0
  6
CONTINUOUS
 62
     7
  2
*UDIM1502
 10
0.0
 20
0.0
 30
0.0
  0
INSERT
  5
   590
  8
0
  6
CONTINUOUS
 62
     7
  2
*UDIM1503
 10
0.0
 20
0.0
 30
0.0
  0
TEXT
  5
   591
  8
0
  6
CONTINUOUS
 62
     7
 10
-546.945671666188
 20
-90.7580500052246
 30
0.0
 40
2.99999994933605
  1
Y
 50
359.999999896069
 41
0.916666607525612
 72
     2
 11
-544.745671847982
 21
-90.7580500092042
 31
0.0
  0
INSERT
  5
   592
  8
0
  6
CONTINUOUS
 62
     7
  2
*UDIM1504
 10
0.0
 20
0.0
 30
0.0
  0
INSERT
  5
   593
  8
0
  6
CONTINUOUS
 62
     7
  2
*UDIM1505
 10
0.0
 20
0.0
 30
0.0
  0
INSERT
  5
   594
  8
0
  6
CONTINUOUS
 62
     7
  2
*UDIM1506
 10
0.0
 20
0.0
 30
0.0
  0
TEXT
  5
   595
  8
0
  6
CONTINUOUS
 62
     7
 10
-582.092917406292
 20
-121.501581881186
 30
0.0
 40
2.99999994933605
  1
X
 50
359.999999896069
 41
0.916666607525612
 72
     2
 11
-579.892917588086
 21
-121.501581885165
 31
0.0
  0
TEXT
  5
   596
  8
0
  6
CONTINUOUS
 62
     7
 10
-532.335838112608
 20
-121.012812533387
 30
0.0
 40
2.99999994933605
  1
X
 50
359.999999896069
 41
0.916666607525612
 72
     2
 11
-530.135838294402
 21
-121.012812537367
 31
0.0
  0
TEXT
  5
   597
  8
0
  6
CONTINUOUS
 62
     7
 10
-547.090510573681
 20
-152.010959243159
 30
0.0
 40
2.99999994933605
  1
Y
 50
359.999999896069
 41
0.916666607525612
 72
     2
 11
-544.890510755475
 21
-152.010959247139
 31
0.0
  0
LINE
  5
   598
  8
0
  6
CONTINUOUS
 62
     7
 10
-507.011005583878
 20
-8.84284973144532
 30
0.0
 11
-512.011005583878
 21
-8.84284973144532
 31
0.0
  0
LINE
  5
   599
  8
0
  6
CONTINUOUS
 62
     7
 10
-519.511005583878
 20
42.6571350097656
 30
0.0
 11
-519.511005583878
 21
43.6571350097656
 31
0.0
  0
LINE
  5
   59A
  8
0
  6
CONTINUOUS
 62
     7
 10
-512.011005583878
 20
-8.84284973144532
 30
0.0
 11
-519.511005583878
 21
-8.84284973144532
 31
0.0
  0
LINE
  5
   59B
  8
0
  6
CONTINUOUS
 62
     7
 10
-493.261020842667
 20
-8.84284973144532
 30
0.0
 11
-507.011005583878
 21
-8.84284973144532
 31
0.0
  0
LINE
  5
   59C
  8
0
  6
CONTINUOUS
 62
    52
 10
-474.511036101456
 20
-8.84284973144532
 30
0.0
 11
-479.511036101456
 21
-8.84284973144532
 31
0.0
  0
LINE
  5
   59D
  8
0
  6
CONTINUOUS
 62
    52
 10
-467.011036101456
 20
-8.84284973144532
 30
0.0
 11
-474.511036101456
 21
-8.84284973144532
 31
0.0
  0
LINE
  5
   59E
  8
0
  6
CONTINUOUS
 62
    52
 10
-479.511036101456
 20
-8.84284973144532
 30
0.0
 11
-493.261020842667
 21
-8.84284973144532
 31
0.0
  0
LINE
  5
   59F
  8
0
  6
CONTINUOUS
 62
     7
 10
-504.636014473179
 20
68.0321197509677
 30
0.0
 11
-537.011013213273
 21
68.0321197509677
 31
0.0
  0
LINE
  5
   5A0
  8
0
  6
CONTINUOUS
 62
     7
 10
-487.136029902573
 20
68.0321197509766
 30
0.0
 11
-499.386022273179
 21
68.0321197509766
 31
0.0
  0
LINE
  5
   5A1
  8
0
  6
CONTINUOUS
 62
     7
 10
-468.261036101456
 20
68.0321273803711
 30
0.0
 11
-481.886036101456
 21
68.0321273803711
 31
0.0
  0
LINE
  5
   5A2
  8
0
  6
CONTINUOUS
 62
     7
 10
-502.886005583878
 20
80.0321197509667
 30
0.0
 11
-518.636005583878
 21
80.0321197509667
 31
0.0
  0
LINE
  5
   5A3
  8
0
  6
CONTINUOUS
 62
     7
 10
-485.386005583878
 20
80.0321197509765
 30
0.0
 11
-501.136005583878
 21
80.0321197509765
 31
0.0
  0
LINE
  5
   5A4
  8
0
  6
CONTINUOUS
 62
     7
 10
-468.761036101456
 20
80.0321273803711
 30
0.0
 11
-483.636005583878
 21
80.0321273803711
 31
0.0
  0
LINE
  5
   5A5
  8
0
  6
CONTINUOUS
 62
     7
 10
-535.614564343842
 20
79.88565904594
 30
0.0
 11
-535.261018210242
 21
80.0321052627788
 31
0.0
  0
LINE
  5
   5A6
  8
0
  6
CONTINUOUS
 62
     7
 10
-535.761011295792
 20
79.5321063141547
 30
0.0
 11
-535.614557460422
 21
79.8856600701213
 31
0.0
  0
LINE
  5
   5A7
  8
0
  6
CONTINUOUS
 62
     7
 10
-535.761011752313
 20
67.782111147647
 30
0.0
 11
-535.761018797333
 21
78.6321182250976
 31
0.0
  0
LINE
  5
   5A8
  8
0
  6
CONTINUOUS
 62
     7
 10
-468.261040808908
 20
67.7821216989726
 30
0.0
 11
-468.261054898942
 21
78.6321258544922
 31
0.0
  0
LINE
  5
   5A9
  8
0
  6
CONTINUOUS
 62
     7
 10
-468.261056466448
 20
79.5321285209218
 30
0.0
 11
-468.407495064933
 21
79.8856822861735
 31
0.0
  0
LINE
  5
   5AA
  8
0
  6
CONTINUOUS
 62
     7
 10
-468.40749688929
 20
79.885675401066
 30
0.0
 11
-468.761043022889
 21
80.0321216179048
 31
0.0
  0
LINE
  5
   5AB
  8
0
  6
CONTINUOUS
 62
     7
 10
-481.886036101456
 20
68.0321273803711
 30
0.0
 11
-481.886036101456
 21
70.0321273803711
 31
0.0
  0
LINE
  5
   5AC
  8
0
  6
CONTINUOUS
 62
     7
 10
-487.136030319783
 20
68.0321194232204
 30
0.0
 11
-487.136032703969
 21
70.0321194232204
 31
0.0
  0
LINE
  5
   5AD
  8
0
  6
CONTINUOUS
 62
     7
 10
-499.386029366146
 20
68.0321165025585
 30
0.0
 11
-499.386027935635
 21
70.0321165025585
 31
0.0
  0
LINE
  5
   5AE
  8
0
  6
CONTINUOUS
 62
     7
 10
-504.636017981794
 20
68.0321173676057
 30
0.0
 11
-504.6360103524
 21
70.0321173676057
 31
0.0
  0
LINE
  5
   5AF
  8
0
  6
CONTINUOUS
 62
     7
 10
-467.011036101456
 20
67.7821273803711
 30
0.0
 11
-467.011036101456
 21
78.6321258544922
 31
0.0
  0
LINE
  5
   5B0
  8
0
  6
CONTINUOUS
 62
     7
 10
-467.011036101456
 20
78.6321258544922
 30
0.0
 11
-468.261036101456
 21
78.6321258544922
 31
0.0
  0
LINE
  5
   5B1
  8
0
  6
CONTINUOUS
 62
     7
 10
-537.011013213273
 20
67.782112121582
 30
0.0
 11
-537.011013213273
 21
78.6321182250976
 31
0.0
  0
LINE
  5
   5B2
  8
0
  6
CONTINUOUS
 62
     7
 10
-535.761013213273
 20
78.6321182250976
 30
0.0
 11
-537.011013213273
 21
78.6321182250976
 31
0.0
  0
LINE
  5
   5B3
  8
0
  6
CONTINUOUS
 62
     7
 10
-537.011005583878
 20
43.6571197509766
 30
0.0
 11
-537.011005583878
 21
67.7821350097656
 31
0.0
  0
LINE
  5
   5B4
  8
0
  6
CONTINUOUS
 62
     7
 10
-493.261020842667
 20
67.7821350097656
 30
0.0
 11
-537.011013213273
 21
67.7821350097656
 31
0.0
  0
LINE
  5
   5B5
  8
0
  6
CONTINUOUS
 62
     7
 10
-467.011036101456
 20
57.6571311950664
 30
0.0
 11
-467.011036101456
 21
67.7821350097656
 31
0.0
  0
LINE
  5
   5B6
  8
0
  6
CONTINUOUS
 62
     7
 10
-467.011036101456
 20
67.7821350097656
 30
0.0
 11
-493.261020842667
 21
67.7821350097656
 31
0.0
  0
LINE
  5
   5B7
  8
0
  6
CONTINUOUS
 62
     3
 10
-537.011005583878
 20
-45.5678497552872
 30
0.0
 11
-537.011005583878
 21
-8.84284973144392
 31
0.0
  0
LINE
  5
   5B8
  8
0
  6
CONTINUOUS
 62
     3
 10
-535.761005583878
 20
-45.5678497552872
 30
0.0
 11
-537.011005583878
 21
-45.5678497552872
 31
0.0
  0
LINE
  5
   5B9
  8
0
  6
CONTINUOUS
 62
     7
 10
-535.761005583878
 20
-45.5678497552872
 30
0.0
 11
-535.761005583878
 21
-35.4678497314453
 31
0.0
  0
LINE
  5
   5BA
  8
0
  6
CONTINUOUS
 62
     7
 10
-470.261005583878
 20
-34.9678497314453
 30
0.0
 11
-481.886005583878
 21
-34.9678497314453
 31
0.0
  0
LINE
  5
   5BB
  8
0
  6
CONTINUOUS
 62
     7
 10
-474.011005583878
 20
-34.9678497314453
 30
0.0
 11
-474.011005583878
 21
-34.7178497314453
 31
0.0
  0
LINE
  5
   5BC
  8
0
  6
CONTINUOUS
 62
     7
 10
-467.886005583878
 20
-35.4678497314453
 30
0.0
 11
-467.886005583878
 21
-34.7178497314453
 31
0.0
  0
LINE
  5
   5BD
  8
0
  6
CONTINUOUS
 62
     7
 10
-536.136005583878
 20
-35.4678497314453
 30
0.0
 11
-536.136005583878
 21
-34.7178497314453
 31
0.0
  0
LINE
  5
   5BE
  8
0
  6
CONTINUOUS
 62
     7
 10
-470.261005583878
 20
-35.4678497314453
 30
0.0
 11
-470.261005583878
 21
-34.7178497314453
 31
0.0
  0
ARC
  5
   5BF
  8
0
  6
CONTINUOUS
 62
     3
 10
-535.261005444648
 20
-46.4678495257324
 30
0.0
 40
0.50000021494898
 50
180.000023420064
 51
269.999992853049
  0
LINE
  5
   5C0
  8
0
  6
DASHDOT
 62
     3
 10
-510.76100551661
 20
-41.7178497062143
 30
0.0
 11
-510.76100551661
 21
82.1979887090112
 31
0.0
  0
LINE
  5
   5C1
  8
0
  6
DASHDOT
 62
     3
 10
-493.261005357988
 20
-41.7178464276117
 30
0.0
 11
-493.261005357988
 21
-6.18066174266237
 31
0.0
  0
LINE
  5
   5C2
  8
0
  6
DASHDOT
 62
     3
 10
-475.761005199366
 20
-41.7178469390089
 30
0.0
 11
-475.761005199366
 21
80.7118355722844
 31
0.0
  0
LINE
  5
   5C3
  8
0
  6
DASHDOT
 62
     3
 10
-493.261007483142
 20
-53.3465055531993
 30
0.0
 11
-493.261007483142
 21
81.0090661996297
 31
0.0
  0
LINE
  5
   5C4
  8
0
  6
CONTINUOUS
 62
     3
 10
-535.761005583878
 20
-46.4678497314453
 30
0.0
 11
-535.761005583878
 21
-45.5678497552872
 31
0.0
  0
LINE
  5
   5C5
  8
0
  6
CONTINUOUS
 62
     3
 10
-467.011005583878
 20
-45.5678482055664
 30
0.0
 11
-467.011005583878
 21
-22.8428668975849
 31
0.0
  0
LINE
  5
   5C6
  8
0
  6
CONTINUOUS
 62
     7
 10
-533.761005583878
 20
-35.4678497314453
 30
0.0
 11
-536.136005583878
 21
-35.4678497314453
 31
0.0
  0
LINE
  5
   5C7
  8
0
  6
CONTINUOUS
 62
     7
 10
-483.261005583878
 20
-40.2178497314453
 30
0.0
 11
-483.261005583878
 21
-39.2761075466592
 31
0.0
  0
LINE
  5
   5C8
  8
0
  6
CONTINUOUS
 62
     7
 10
-512.511005583878
 20
-34.9678497314453
 30
0.0
 11
-512.511005583878
 21
-34.7178497314453
 31
0.0
  0
LINE
  5
   5C9
  8
0
  6
CONTINUOUS
 62
     7
 10
-533.761005583878
 20
-35.4678497314453
 30
0.0
 11
-533.761005583878
 21
-34.7178497314453
 31
0.0
  0
ARC
  5
   5CA
  8
0
  6
CONTINUOUS
 62
     3
 10
-535.261005444648
 20
-46.4678495257324
 30
0.0
 40
0.50000021494898
 50
180.000023420064
 51
269.999992853049
  0
LINE
  5
   5CB
  8
0
  6
CONTINUOUS
 62
     7
 10
-504.636005583878
 20
-34.9678497314453
 30
0.0
 11
-516.886005583878
 21
-34.9678497314453
 31
0.0
  0
LINE
  5
   5CC
  8
0
  6
CONTINUOUS
 62
     7
 10
-467.886005583878
 20
-35.4678497314453
 30
0.0
 11
-470.261005583878
 21
-35.4678497314453
 31
0.0
  0
LINE
  5
   5CD
  8
0
  6
CONTINUOUS
 62
     7
 10
-467.011036101456
 20
-34.7178497314453
 30
0.0
 11
-537.011005583878
 21
-34.7178497314453
 31
0.0
  0
CIRCLE
  5
   5CE
  8
0
  6
CONTINUOUS
 62
     7
 10
-510.761068663784
 20
71.0317711231391
 30
0.0
 40
2.75032955665546
  0
CIRCLE
  5
   5CF
  8
0
  6
CONTINUOUS
 62
     7
 10
-493.261040029645
 20
71.0318547915784
 30
0.0
 40
2.75025635970134
  0
CIRCLE
  5
   5D0
  8
0
  6
CONTINUOUS
 62
     7
 10
-475.761065588429
 20
71.0323499784396
 30
0.0
 40
2.74979727805939
  0
CIRCLE
  5
   5D1
  8
0
  6
CONTINUOUS
 62
     7
 10
-475.761065362109
 20
78.0321201402288
 30
0.0
 40
0.699995978588607
  0
CIRCLE
  5
   5D2
  8
0
  6
CONTINUOUS
 62
     7
 10
-493.261057939388
 20
78.0321536030938
 30
0.0
 40
0.700018389898363
  0
CIRCLE
  5
   5D3
  8
0
  6
CONTINUOUS
 62
     7
 10
-510.761016799748
 20
78.0321188708179
 30
0.0
 40
0.699999862369895
  0
ARC
  5
   5D4
  8
0
  6
CONTINUOUS
 62
     7
 10
-502.011022699826
 20
70.0321370820624
 30
0.0
 40
2.62498079731739
 50
359.999999948034
 51
539.999781381981
  0
ARC
  5
   5D5
  8
0
  6
CONTINUOUS
 62
     7
 10
-484.511013452049
 20
70.0321183096474
 30
0.0
 40
2.62499746304208
 50
359.999999948034
 51
540.000068249926
  0
LINE
  5
   5D6
  8
0
  6
CONTINUOUS
 62
     7
 10
-507.011013213273
 20
-8.84284973144532
 30
0.0
 11
-512.011005583878
 21
-8.84284973144532
 31
0.0
  0
LINE
  5
   5D7
  8
0
  6
CONTINUOUS
 62
     7
 10
-474.511020842667
 20
-8.84284973144532
 30
0.0
 11
-479.511020842667
 21
-8.84284973144532
 31
0.0
  0
LINE
  5
   5D8
  8
0
  6
CONTINUOUS
 62
     7
 10
-467.011005583878
 20
-8.59284973144531
 30
0.0
 11
-467.011005583878
 21
0.407142639160156
 31
0.0
  0
LINE
  5
   5D9
  8
0
  6
CONTINUOUS
 62
     7
 10
-519.511005583878
 20
-9.09286689758494
 30
0.0
 11
-519.511005583878
 21
0.407142639160156
 31
0.0
  0
LINE
  5
   5DA
  8
0
  6
CONTINUOUS
 62
     7
 10
-467.261005583878
 20
43.6571502685547
 30
0.0
 11
-519.261005583864
 21
43.6571502685547
 31
0.0
  0
LINE
  5
   5DB
  8
0
  6
CONTINUOUS
 62
     7
 10
-512.011005583878
 20
-8.84284973144532
 30
0.0
 11
-519.261005583878
 21
-8.84284973144532
 31
0.0
  0
LINE
  5
   5DC
  8
0
  6
CONTINUOUS
 62
     7
 10
-479.511020842667
 20
-8.84284973144532
 30
0.0
 11
-507.011013213273
 21
-8.84284973144532
 31
0.0
  0
LINE
  5
   5DD
  8
0
  6
CONTINUOUS
 62
     7
 10
-467.261005583878
 20
-8.84284973144532
 30
0.0
 11
-474.511020842667
 21
-8.84284973144532
 31
0.0
  0
LINE
  5
   5DE
  8
0
  6
CONTINUOUS
 62
     7
 10
-487.886005583878
 20
2.28214263916016
 30
0.0
 11
-487.886005583878
 21
22.2821350097656
 31
0.0
  0
LINE
  5
   5DF
  8
0
  6
CONTINUOUS
 62
     7
 10
-498.636005583878
 20
2.28214263916016
 30
0.0
 11
-498.636005583878
 21
22.2821350097656
 31
0.0
  0
LINE
  5
   5E0
  8
0
  6
CONTINUOUS
 62
     7
 10
-467.011005583878
 20
37.6571350097656
 30
0.0
 11
-519.511005583878
 21
37.6571350097656
 31
0.0
  0
LINE
  5
   5E1
  8
0
  6
CONTINUOUS
 62
     7
 10
-467.011005583878
 20
42.6571350097656
 30
0.0
 11
-519.511005583878
 21
42.6571350097656
 31
0.0
  0
LINE
  5
   5E2
  8
0
  6
CONTINUOUS
 62
     7
 10
-487.886005583878
 20
22.14990234375
 30
0.0
 11
-498.636005583878
 21
22.14990234375
 31
0.0
  0
LINE
  5
   5E3
  8
0
  6
CONTINUOUS
 62
     7
 10
-487.886005583878
 20
22.2821350097656
 30
0.0
 11
-498.636005583878
 21
22.2821350097656
 31
0.0
  0
LINE
  5
   5E4
  8
0
  6
CONTINUOUS
 62
     7
 10
-487.886005583878
 20
2.28214263916015
 30
0.0
 11
-498.636005583878
 21
2.28214263916015
 31
0.0
  0
LINE
  5
   5E5
  8
0
  6
CONTINUOUS
 62
     7
 10
-487.886005583878
 20
2.41439056396484
 30
0.0
 11
-498.636005583878
 21
2.41439056396484
 31
0.0
  0
LINE
  5
   5E6
  8
0
  6
CONTINUOUS
 62
     7
 10
-467.011013213273
 20
0.907142639160156
 30
0.0
 11
-467.011013213273
 21
6.9071386625409
 31
0.0
  0
LINE
  5
   5E7
  8
0
  6
CONTINUOUS
 62
     7
 10
-467.011013213273
 20
24.1571426391602
 30
0.0
 11
-467.011013213273
 21
43.4071502685547
 31
0.0
  0
LINE
  5
   5E8
  8
0
  6
CONTINUOUS
 62
     7
 10
-467.011013213273
 20
7.40713866254093
 30
0.0
 11
-467.011013213273
 21
17.1571426391602
 31
0.0
  0
LINE
  5
   5E9
  8
0
  6
CONTINUOUS
 62
     7
 10
-467.011013213273
 20
17.6571426391602
 30
0.0
 11
-467.011013213273
 21
23.6571426391602
 31
0.0
  0
LINE
  5
   5EA
  8
0
  6
CONTINUOUS
 62
     7
 10
-519.511005583881
 20
0.907142639160156
 30
0.0
 11
-519.511005583881
 21
6.90714263916124
 31
0.0
  0
LINE
  5
   5EB
  8
0
  6
CONTINUOUS
 62
     7
 10
-519.511005583889
 20
7.40714263916127
 30
0.0
 11
-519.511005583889
 21
17.1571426391602
 31
0.0
  0
LINE
  5
   5EC
  8
0
  6
CONTINUOUS
 62
     7
 10
-519.511005583875
 20
17.6571426391602
 30
0.0
 11
-519.511005583875
 21
23.6571426391602
 31
0.0
  0
LINE
  5
   5ED
  8
0
  6
CONTINUOUS
 62
     7
 10
-519.511005583864
 20
24.1571426391602
 30
0.0
 11
-519.511005583864
 21
43.4071502685547
 31
0.0
  0
LINE
  5
   5EE
  8
0
  6
CONTINUOUS
 62
     7
 10
-498.63600957074
 20
6.90714263915913
 30
0.0
 11
-519.01100561368
 21
6.90714263915913
 31
0.0
  0
LINE
  5
   5EF
  8
0
  6
CONTINUOUS
 62
     7
 10
-467.011013213273
 20
6.90715789794819
 30
0.0
 11
-467.511013213273
 21
6.90715789794819
 31
0.0
  0
LINE
  5
   5F0
  8
0
  6
CONTINUOUS
 62
     7
 10
-498.636019350284
 20
7.40714263915909
 30
0.0
 11
-519.01100561368
 21
7.40714263915909
 31
0.0
  0
LINE
  5
   5F1
  8
0
  6
CONTINUOUS
 62
     7
 10
-467.011013213273
 20
7.40715789794815
 30
0.0
 11
-467.511013213273
 21
7.40715789794815
 31
0.0
  0
LINE
  5
   5F2
  8
0
  6
CONTINUOUS
 62
     7
 10
-519.01100561368
 20
6.90714263916016
 30
0.0
 11
-519.01100561368
 21
7.40714263916016
 31
0.0
  0
LINE
  5
   5F3
  8
0
  6
CONTINUOUS
 62
     7
 10
-467.511013213273
 20
6.90714263916016
 30
0.0
 11
-467.511013213273
 21
7.40714263916016
 31
0.0
  0
LINE
  5
   5F4
  8
0
  6
CONTINUOUS
 62
     7
 10
-467.011005583878
 20
0.407142639160149
 30
0.0
 11
-467.511013213273
 21
0.407142639160149
 31
0.0
  0
LINE
  5
   5F5
  8
0
  6
CONTINUOUS
 62
     7
 10
-467.011013213273
 20
0.907142639160149
 30
0.0
 11
-467.511013213273
 21
0.907142639160149
 31
0.0
  0
LINE
  5
   5F6
  8
0
  6
CONTINUOUS
 62
     7
 10
-519.01100561368
 20
0.407142639160156
 30
0.0
 11
-519.01100561368
 21
0.907142639160156
 31
0.0
  0
LINE
  5
   5F7
  8
0
  6
CONTINUOUS
 62
     7
 10
-467.511013213273
 20
0.407142639160156
 30
0.0
 11
-467.511013213273
 21
0.907142639160156
 31
0.0
  0
LINE
  5
   5F8
  8
0
  6
CONTINUOUS
 62
     7
 10
-467.011013213273
 20
23.6571426391601
 30
0.0
 11
-467.511013213273
 21
23.6571426391601
 31
0.0
  0
LINE
  5
   5F9
  8
0
  6
CONTINUOUS
 62
     7
 10
-467.011013213273
 20
24.1571426391602
 30
0.0
 11
-467.511013213273
 21
24.1571426391602
 31
0.0
  0
LINE
  5
   5FA
  8
0
  6
CONTINUOUS
 62
     7
 10
-519.01100561368
 20
23.6571426391602
 30
0.0
 11
-519.01100561368
 21
24.1571426391602
 31
0.0
  0
LINE
  5
   5FB
  8
0
  6
CONTINUOUS
 62
     7
 10
-467.511013213273
 20
23.6571426391602
 30
0.0
 11
-467.511013213273
 21
24.1571426391602
 31
0.0
  0
LINE
  5
   5FC
  8
0
  6
CONTINUOUS
 62
     7
 10
-498.636009547587
 20
17.1571426391602
 30
0.0
 11
-519.01100561368
 21
17.1571426391602
 31
0.0
  0
LINE
  5
   5FD
  8
0
  6
CONTINUOUS
 62
     7
 10
-467.011013213273
 20
17.1571426391602
 30
0.0
 11
-467.511013213273
 21
17.1571426391602
 31
0.0
  0
LINE
  5
   5FE
  8
0
  6
CONTINUOUS
 62
     7
 10
-498.636005583878
 20
17.6571426391602
 30
0.0
 11
-519.01100561368
 21
17.6571426391602
 31
0.0
  0
LINE
  5
   5FF
  8
0
  6
CONTINUOUS
 62
     7
 10
-467.011013213273
 20
17.6571426391602
 30
0.0
 11
-467.511013213273
 21
17.6571426391602
 31
0.0
  0
LINE
  5
   600
  8
0
  6
CONTINUOUS
 62
     7
 10
-519.01100561368
 20
17.1571426391602
 30
0.0
 11
-519.01100561368
 21
17.6571426391602
 31
0.0
  0
LINE
  5
   601
  8
0
  6
CONTINUOUS
 62
     7
 10
-467.511013213273
 20
17.1571426391602
 30
0.0
 11
-467.511013213273
 21
17.6571426391602
 31
0.0
  0
ARC
  5
   602
  8
0
  6
CONTINUOUS
 62
     7
 10
-519.261005583878
 20
-8.59284973144532
 30
0.0
 40
0.25
 50
179.999999948034
 51
269.999999948034
  0
ARC
  5
   603
  8
0
  6
CONTINUOUS
 62
     7
 10
-467.261005583878
 20
-8.59284973144531
 30
0.0
 40
0.25
 50
269.999999948034
 51
359.999999948034
  0
ARC
  5
   604
  8
0
  6
CONTINUOUS
 62
     7
 10
-467.261005583878
 20
43.4071502685547
 30
0.0
 40
0.25
 50
359.999999948034
 51
449.999999948034
  0
ARC
  5
   605
  8
0
  6
CONTINUOUS
 62
     7
 10
-519.261005583864
 20
43.4071502685547
 30
0.0
 40
0.25
 50
449.999999948034
 51
539.999999948034
  0
INSERT
  5
   606
  8
255
  6
CONTINUOUS
 62
     7
  2
ON-OFF
 10
-483.261010466691
 20
20.6571426391602
 30
0.0
 41
0.5
 42
0.5
 50
359.999999792137
 43
0.5
  0
LINE
  5
   607
  8
0
  6
CONTINUOUS
 62
     7
 10
-504.511005583878
 20
22.9071426391602
 30
0.0
 11
-505.261005583878
 21
22.9071426391602
 31
0.0
  0
LINE
  5
   608
  8
0
  6
CONTINUOUS
 62
     7
 10
-504.511005583878
 20
18.4071426391602
 30
0.0
 11
-505.261005583878
 21
18.4071426391602
 31
0.0
  0
CIRCLE
  5
   609
  8
0
  6
CONTINUOUS
 62
     7
 10
-504.886005583878
 20
3.90714263916017
 30
0.0
 40
2.25
  0
CIRCLE
  5
   60A
  8
0
  6
CONTINUOUS
 62
     7
 10
-504.886005583878
 20
3.90714263916017
 30
0.0
 40
1.5
  0
LINE
  5
   60B
  8
0
  6
CONTINUOUS
 62
     7
 10
-505.261005583878
 20
18.4071426391602
 30
0.0
 11
-505.261005583878
 21
22.9071426391602
 31
0.0
  0
LINE
  5
   60C
  8
0
  6
CONTINUOUS
 62
     7
 10
-504.511005583878
 20
18.4071426391602
 30
0.0
 11
-504.511005583878
 21
22.9071426391602
 31
0.0
  0
LINE
  5
   60D
  8
0
  6
CONTINUOUS
 62
     7
 10
-500.011005583878
 20
0.907142639160156
 30
0.0
 11
-500.011005583878
 21
6.90714978374292
 31
0.0
  0
LINE
  5
   60E
  8
0
  6
CONTINUOUS
 62
     7
 10
-486.511005583878
 20
0.907142639160156
 30
0.0
 11
-486.511005583878
 21
6.90714580711978
 31
0.0
  0
LINE
  5
   60F
  8
0
  6
CONTINUOUS
 62
     7
 10
-486.511005583878
 20
17.6571426391602
 30
0.0
 11
-486.511005583878
 21
23.6571426391602
 31
0.0
  0
LINE
  5
   610
  8
0
  6
CONTINUOUS
 62
     7
 10
-500.011005583878
 20
17.6571426391602
 30
0.0
 11
-500.011005583878
 21
23.6571426391602
 31
0.0
  0
LINE
  5
   611
  8
0
  6
DASHDOT
 62
     7
 10
-475.761065588429
 20
63.2825527003802
 30
0.0
 11
-475.761065588429
 21
78.782147256499
 31
0.0
  0
LINE
  5
   612
  8
0
  6
DASHDOT
 62
     7
 10
-468.011268310369
 20
71.0323499784396
 30
0.0
 11
-483.510862866488
 21
71.0323499784396
 31
0.0
  0
LINE
  5
   613
  8
0
  6
DASHDOT
 62
     7
 10
-484.511013452049
 20
62.4071208466053
 30
0.0
 11
-484.511013452049
 21
77.6571157726895
 31
0.0
  0
LINE
  5
   614
  8
0
  6
DASHDOT
 62
     7
 10
-476.886015989006
 20
70.0321183096474
 30
0.0
 11
-492.136010915091
 21
70.0321183096474
 31
0.0
  0
LINE
  5
   615
  8
0
  6
DASHDOT
 62
     7
 10
-493.261040029645
 20
63.281598431877
 30
0.0
 11
-493.261040029645
 21
78.7821111512797
 31
0.0
  0
LINE
  5
   616
  8
0
  6
DASHDOT
 62
     7
 10
-485.510783669943
 20
71.0318547915784
 30
0.0
 11
-501.011296389346
 21
71.0318547915784
 31
0.0
  0
LINE
  5
   617
  8
0
  6
DASHDOT
 62
     7
 10
-502.011022699826
 20
62.407156284745
 30
0.0
 11
-502.011022699826
 21
77.6571178793798
 31
0.0
  0
LINE
  5
   618
  8
0
  6
DASHDOT
 62
     7
 10
-494.386041902508
 20
70.0321370820624
 30
0.0
 11
-509.636003497143
 21
70.0321370820624
 31
0.0
  0
LINE
  5
   619
  8
0
  6
DASHDOT
 62
     7
 10
-510.761068663784
 20
63.2814415664837
 30
0.0
 11
-510.761068663784
 21
78.7821006797946
 31
0.0
  0
LINE
  5
   61A
  8
0
  6
DASHDOT
 62
     7
 10
-503.010739107129
 20
71.0317711231391
 30
0.0
 11
-518.51139822044
 21
71.0317711231391
 31
0.0
  0
LINE
  5
   61B
  8
0
  6
DASHDOT
 62
     7
 10
-510.761016799748
 20
72.332119008448
 30
0.0
 11
-510.761016799748
 21
83.7321187331879
 31
0.0
  0
LINE
  5
   61C
  8
0
  6
DASHDOT
 62
     7
 10
-505.061016937379
 20
78.0321188708179
 30
0.0
 11
-516.461016662118
 21
78.0321188708179
 31
0.0
  0
LINE
  5
   61D
  8
0
  6
DASHDOT
 62
     7
 10
-493.261057939388
 20
72.3321352131954
 30
0.0
 11
-493.261057939388
 21
83.7321719929922
 31
0.0
  0
LINE
  5
   61E
  8
0
  6
DASHDOT
 62
     7
 10
-487.56103954949
 20
78.0321536030938
 30
0.0
 11
-498.961076329286
 21
78.0321536030938
 31
0.0
  0
LINE
  5
   61F
  8
0
  6
DASHDOT
 62
     7
 10
-475.761065362109
 20
72.3321241616402
 30
0.0
 11
-475.761065362109
 21
83.7321161188174
 31
0.0
  0
LINE
  5
   620
  8
0
  6
DASHDOT
 62
     7
 10
-470.06106938352
 20
78.0321201402288
 30
0.0
 11
-481.461061340698
 21
78.0321201402288
 31
0.0
  0
LINE
  5
   621
  8
0
  6
CONTINUOUS
 62
     7
 10
-487.886005583878
 20
6.87178581688054
 30
0.0
 11
-498.636005583878
 21
6.87178581688054
 31
0.0
  0
LINE
  5
   622
  8
0
  6
CONTINUOUS
 62
     7
 10
-487.886005583878
 20
2.91130963983256
 30
0.0
 11
-498.636005583878
 21
2.91130963983256
 31
0.0
  0
LINE
  5
   623
  8
0
  6
CONTINUOUS
 62
     7
 10
-487.886005583878
 20
6.87178546615346
 30
0.0
 11
-498.636005583878
 21
6.87178546615346
 31
0.0
  0
LINE
  5
   624
  8
0
  6
CONTINUOUS
 62
     7
 10
-487.886005583878
 20
9.34484605412531
 30
0.0
 11
-498.636005583878
 21
9.34484605412531
 31
0.0
  0
LINE
  5
   625
  8
0
  6
CONTINUOUS
 62
     7
 10
-467.761036168001
 20
65.2821350097656
 30
0.0
 11
-518.761036168002
 21
65.2821350097656
 31
0.0
  0
LINE
  5
   626
  8
0
  6
CONTINUOUS
 62
     7
 10
-518.76103413867
 20
57.6571311950664
 30
0.0
 11
-518.761036168002
 21
65.2821350097656
 31
0.0
  0
LINE
  5
   627
  8
0
  6
CONTINUOUS
 62
     7
 10
-467.761034138668
 20
57.6571311950664
 30
0.0
 11
-467.761036168001
 21
65.2821350097656
 31
0.0
  0
LINE
  5
   628
  8
0
  6
CONTINUOUS
 62
     7
 10
-519.01100561368
 20
24.1571426391602
 30
0.0
 11
-519.511005583864
 21
24.1571426391602
 31
0.0
  0
LINE
  5
   629
  8
0
  6
CONTINUOUS
 62
     7
 10
-519.01100561368
 20
23.6571426391601
 30
0.0
 11
-519.511005583875
 21
23.6571426391601
 31
0.0
  0
LINE
  5
   62A
  8
0
  6
CONTINUOUS
 62
     7
 10
-519.01100561368
 20
17.6571426391602
 30
0.0
 11
-519.511005583875
 21
17.6571426391602
 31
0.0
  0
LINE
  5
   62B
  8
0
  6
CONTINUOUS
 62
     7
 10
-519.01100561368
 20
17.1571426391602
 30
0.0
 11
-519.511005583889
 21
17.1571426391602
 31
0.0
  0
LINE
  5
   62C
  8
0
  6
CONTINUOUS
 62
     7
 10
-519.01100561368
 20
7.40714263915909
 30
0.0
 11
-519.511005583889
 21
7.40714263915909
 31
0.0
  0
LINE
  5
   62D
  8
0
  6
CONTINUOUS
 62
     7
 10
-519.01100561368
 20
6.90714263915913
 30
0.0
 11
-519.511005583881
 21
6.90714263915913
 31
0.0
  0
LINE
  5
   62E
  8
0
  6
CONTINUOUS
 62
     7
 10
-519.01100561368
 20
0.907142639160149
 30
0.0
 11
-519.511005583881
 21
0.907142639160149
 31
0.0
  0
LINE
  5
   62F
  8
0
  6
CONTINUOUS
 62
     7
 10
-519.01100561368
 20
0.407142639160149
 30
0.0
 11
-519.511005583878
 21
0.407142639160149
 31
0.0
  0
LINE
  5
   630
  8
0
  6
CONTINUOUS
 62
     7
 10
-467.511013213273
 20
0.907142639160149
 30
0.0
 11
-519.01100561368
 21
0.907142639160149
 31
0.0
  0
LINE
  5
   631
  8
0
  6
CONTINUOUS
 62
     7
 10
-467.511013213273
 20
0.407142639160149
 30
0.0
 11
-519.01100561368
 21
0.407142639160149
 31
0.0
  0
LINE
  5
   632
  8
0
  6
CONTINUOUS
 62
     7
 10
-467.511013213273
 20
7.40715789794815
 30
0.0
 11
-487.886007076257
 21
7.40715789794815
 31
0.0
  0
LINE
  5
   633
  8
0
  6
CONTINUOUS
 62
     7
 10
-467.511013213273
 20
6.90715789794819
 30
0.0
 11
-487.886007259452
 21
6.90715789794819
 31
0.0
  0
LINE
  5
   634
  8
0
  6
CONTINUOUS
 62
     7
 10
-467.511013213273
 20
17.6571426391602
 30
0.0
 11
-487.886005583878
 21
17.6571426391602
 31
0.0
  0
LINE
  5
   635
  8
0
  6
CONTINUOUS
 62
     7
 10
-467.511013213273
 20
17.1571426391602
 30
0.0
 11
-487.886005583878
 21
17.1571426391602
 31
0.0
  0
LINE
  5
   636
  8
0
  6
CONTINUOUS
 62
     7
 10
-467.511013213273
 20
24.1571426391602
 30
0.0
 11
-519.01100561368
 21
24.1571426391602
 31
0.0
  0
LINE
  5
   637
  8
0
  6
CONTINUOUS
 62
     7
 10
-467.511013213273
 20
23.6571426391601
 30
0.0
 11
-519.01100561368
 21
23.6571426391601
 31
0.0
  0
LINE
  5
   638
  8
0
  6
CONTINUOUS
 62
     7
 10
-535.761018797333
 20
78.6321182250976
 30
0.0
 11
-535.761019381708
 21
79.532111147647
 31
0.0
  0
LINE
  5
   639
  8
0
  6
CONTINUOUS
 62
     7
 10
-468.261054898942
 20
78.6321258544922
 30
0.0
 11
-468.261056067695
 21
79.5321216989726
 31
0.0
  0
LINE
  5
   63A
  8
0
  6
CONTINUOUS
 62
     7
 10
-500.761005583878
 20
76.7820892333984
 30
0.0
 11
-503.261005583878
 21
76.7820892333984
 31
0.0
  0
LINE
  5
   63B
  8
0
  6
CONTINUOUS
 62
     7
 10
-503.261005583878
 20
76.7820892333984
 30
0.0
 11
-503.261005583878
 21
78.5320893526077
 31
0.0
  0
LINE
  5
   63C
  8
0
  6
CONTINUOUS
 62
     7
 10
-502.886005583878
 20
78.5320892333984
 30
0.0
 11
-503.261005583878
 21
78.5320892333984
 31
0.0
  0
LINE
  5
   63D
  8
0
  6
CONTINUOUS
 62
     7
 10
-502.886005583878
 20
78.5320892333982
 30
0.0
 11
-502.886005583878
 21
80.0320892333982
 31
0.0
  0
LINE
  5
   63E
  8
0
  6
CONTINUOUS
 62
     7
 10
-501.136005583878
 20
78.5320892333982
 30
0.0
 11
-501.136005583878
 21
80.0320892333982
 31
0.0
  0
LINE
  5
   63F
  8
0
  6
CONTINUOUS
 62
     7
 10
-500.761005583878
 20
78.5320892333984
 30
0.0
 11
-501.136005583878
 21
78.5320892333984
 31
0.0
  0
LINE
  5
   640
  8
0
  6
CONTINUOUS
 62
     7
 10
-500.761005583878
 20
76.7820892333984
 30
0.0
 11
-500.761005583878
 21
78.5320892333984
 31
0.0
  0
LINE
  5
   641
  8
0
  6
CONTINUOUS
 62
     7
 10
-485.386005583878
 20
78.5320892333982
 30
0.0
 11
-485.386005583878
 21
80.0320892333982
 31
0.0
  0
LINE
  5
   642
  8
0
  6
CONTINUOUS
 62
     7
 10
-485.386005583878
 20
78.5320892333984
 30
0.0
 11
-485.761005583878
 21
78.5320892333984
 31
0.0
  0
LINE
  5
   643
  8
0
  6
CONTINUOUS
 62
     7
 10
-485.761005583878
 20
76.7820892333984
 30
0.0
 11
-485.761005583878
 21
78.5320893526077
 31
0.0
  0
LINE
  5
   644
  8
0
  6
CONTINUOUS
 62
     7
 10
-483.261005583878
 20
76.7820892333984
 30
0.0
 11
-485.761005583878
 21
76.7820892333984
 31
0.0
  0
LINE
  5
   645
  8
0
  6
CONTINUOUS
 62
     7
 10
-483.261005583878
 20
76.7820892333984
 30
0.0
 11
-483.261005583878
 21
78.5320892333984
 31
0.0
  0
LINE
  5
   646
  8
0
  6
CONTINUOUS
 62
     7
 10
-483.261005583878
 20
78.5320892333984
 30
0.0
 11
-483.636005583878
 21
78.5320892333984
 31
0.0
  0
LINE
  5
   647
  8
0
  6
CONTINUOUS
 62
     7
 10
-483.636005583878
 20
78.5320892333982
 30
0.0
 11
-483.636005583878
 21
80.0320892333982
 31
0.0
  0
LINE
  5
   648
  8
0
  6
CONTINUOUS
 62
     7
 10
-520.386005583878
 20
78.5320892333982
 30
0.0
 11
-520.386005583878
 21
80.0320892333982
 31
0.0
  0
LINE
  5
   649
  8
0
  6
CONTINUOUS
 62
     7
 10
-518.636005583878
 20
78.5320892333982
 30
0.0
 11
-518.636005583878
 21
80.0320892333982
 31
0.0
  0
LINE
  5
   64A
  8
0
  6
CONTINUOUS
 62
     7
 10
-520.386005583878
 20
78.5320892333984
 30
0.0
 11
-520.761005583878
 21
78.5320892333984
 31
0.0
  0
LINE
  5
   64B
  8
0
  6
CONTINUOUS
 62
     7
 10
-520.761005583878
 20
76.7820892333984
 30
0.0
 11
-520.761005583878
 21
78.5320893526077
 31
0.0
  0
LINE
  5
   64C
  8
0
  6
CONTINUOUS
 62
     7
 10
-518.261005583878
 20
76.7820892333984
 30
0.0
 11
-520.761005583878
 21
76.7820892333984
 31
0.0
  0
LINE
  5
   64D
  8
0
  6
CONTINUOUS
 62
     7
 10
-518.261005583878
 20
76.7820892333984
 30
0.0
 11
-518.261005583878
 21
78.5320892333984
 31
0.0
  0
LINE
  5
   64E
  8
0
  6
CONTINUOUS
 62
     7
 10
-518.261005583878
 20
78.5320892333984
 30
0.0
 11
-518.636005583878
 21
78.5320892333984
 31
0.0
  0
CIRCLE
  5
   64F
  8
0
  6
CONTINUOUS
 62
     7
 10
-528.261068663784
 20
71.0317711231391
 30
0.0
 40
2.75032955665546
  0
CIRCLE
  5
   650
  8
0
  6
CONTINUOUS
 62
     7
 10
-528.261016799748
 20
78.0321188708179
 30
0.0
 40
0.699999862369895
  0
LINE
  5
   651
  8
0
  6
CONTINUOUS
 62
     7
 10
-522.136017981794
 20
68.0321173676057
 30
0.0
 11
-522.1360103524
 21
70.0321173676057
 31
0.0
  0
LINE
  5
   652
  8
0
  6
CONTINUOUS
 62
     7
 10
-516.886029366146
 20
68.0321165025585
 30
0.0
 11
-516.886027935635
 21
70.0321165025585
 31
0.0
  0
ARC
  5
   653
  8
0
  6
CONTINUOUS
 62
     7
 10
-519.511022699826
 20
70.0321370820624
 30
0.0
 40
2.62498079731739
 50
359.999999948034
 51
539.999781381981
  0
CIRCLE
  5
   654
  8
0
  6
CONTINUOUS
 62
     7
 10
-528.261006210746
 20
-44.967850744062
 30
0.0
 40
0.700001026691361
  0
CIRCLE
  5
   655
  8
0
  6
CONTINUOUS
 62
     7
 10
-528.26100551661
 20
-37.9678517697935
 30
0.0
 40
2.74999793642075
  0
LINE
  5
   656
  8
0
  6
CONTINUOUS
 62
     7
 10
-522.136005583878
 20
-36.9678497314453
 30
0.0
 11
-522.136005583878
 21
-34.9678497314453
 31
0.0
  0
ARC
  5
   657
  8
0
  6
CONTINUOUS
 62
     7
 10
-519.511004910434
 20
-36.9678409697547
 30
0.0
 40
2.62499149271879
 50
121.002781363519
 51
241.56299252681
  0
LINE
  5
   658
  8
0
  6
CONTINUOUS
 62
     7
 10
-520.761005583878
 20
-40.2178497314453
 30
0.0
 11
-520.761005583878
 21
-39.2761040945383
 31
0.0
  0
LINE
  5
   659
  8
0
  6
CONTINUOUS
 62
     7
 10
-520.386005583875
 20
80.0321103815358
 30
0.0
 11
-535.261019504162
 21
80.0321103815358
 31
0.0
  0
LINE
  5
   65A
  8
0
  6
CONTINUOUS
 62
     7
 10
-520.386005583875
 20
-46.9678591008758
 30
0.0
 11
-535.261005583876
 21
-46.9678591008758
 31
0.0
  0
LINE
  5
   65B
  8
0
  6
CONTINUOUS
 62
     3
 10
-518.261005583875
 20
-45.4678591008763
 30
0.0
 11
-518.261005583875
 21
-43.7178591008763
 31
0.0
  0
LINE
  5
   65C
  8
0
  6
CONTINUOUS
 62
     3
 10
-520.761005583875
 20
-45.4678592200856
 30
0.0
 11
-520.761005583875
 21
-43.7178591008763
 31
0.0
  0
LINE
  5
   65D
  8
0
  6
CONTINUOUS
 62
     3
 10
-518.261005583875
 20
-43.7178591008763
 30
0.0
 11
-520.761005583875
 21
-43.7178591008763
 31
0.0
  0
LINE
  5
   65E
  8
0
  6
CONTINUOUS
 62
     3
 10
-518.636005583875
 20
-46.967859100876
 30
0.0
 11
-518.636005583875
 21
-45.467859100876
 31
0.0
  0
LINE
  5
   65F
  8
0
  6
CONTINUOUS
 62
     3
 10
-520.386005583875
 20
-46.967859100876
 30
0.0
 11
-520.386005583875
 21
-45.467859100876
 31
0.0
  0
LINE
  5
   660
  8
0
  6
CONTINUOUS
 62
     3
 10
-520.386005583875
 20
-45.4678591008763
 30
0.0
 11
-520.761005583875
 21
-45.4678591008763
 31
0.0
  0
LINE
  5
   661
  8
0
  6
CONTINUOUS
 62
     3
 10
-518.261005583875
 20
-45.4678591008763
 30
0.0
 11
-518.636005583875
 21
-45.4678591008763
 31
0.0
  0
LINE
  5
   662
  8
0
  6
CONTINUOUS
 62
     7
 10
-522.136005583878
 20
-34.9678497314453
 30
0.0
 11
-533.761005583878
 21
-34.9678497314453
 31
0.0
  0
LINE
  5
   663
  8
0
  6
CONTINUOUS
 62
     7
 10
-530.011005583878
 20
-34.9678497314453
 30
0.0
 11
-530.011005583878
 21
-34.7178497314453
 31
0.0
  0
LINE
  5
   664
  8
0
  6
DASHDOT
 62
     7
 10
-528.261016799748
 20
72.3321190084481
 30
0.0
 11
-528.261016799748
 21
83.7321187331879
 31
0.0
  0
LINE
  5
   665
  8
0
  6
DASHDOT
 62
     7
 10
-522.561016937378
 20
78.0321188708179
 30
0.0
 11
-533.961016662118
 21
78.0321188708179
 31
0.0
  0
LINE
  5
   666
  8
0
  6
DASHDOT
 62
     7
 10
-528.261068663784
 20
63.2814415664837
 30
0.0
 11
-528.261068663784
 21
78.7821006797946
 31
0.0
  0
LINE
  5
   667
  8
0
  6
DASHDOT
 62
     7
 10
-520.510739107129
 20
71.0317711231391
 30
0.0
 11
-536.01139822044
 21
71.0317711231391
 31
0.0
  0
LINE
  5
   668
  8
0
  6
DASHDOT
 62
     7
 10
-519.511022699826
 20
62.407156284745
 30
0.0
 11
-519.511022699826
 21
77.6571178793798
 31
0.0
  0
LINE
  5
   669
  8
0
  6
DASHDOT
 62
     7
 10
-511.886041902508
 20
70.0321370820624
 30
0.0
 11
-527.136003497143
 21
70.0321370820624
 31
0.0
  0
LINE
  5
   66A
  8
0
  6
DASHDOT
 62
     7
 10
-528.26100551661
 20
-45.7178497062143
 30
0.0
 11
-528.26100551661
 21
-30.2178538333728
 31
0.0
  0
LINE
  5
   66B
  8
0
  6
DASHDOT
 62
     7
 10
-520.511007580189
 20
-37.9678517697935
 30
0.0
 11
-536.011003453031
 21
-37.9678517697935
 31
0.0
  0
LINE
  5
   66C
  8
0
  6
DASHDOT
 62
     7
 10
-528.261006210746
 20
-50.6678517707533
 30
0.0
 11
-528.261006210746
 21
-39.2678497173706
 31
0.0
  0
LINE
  5
   66D
  8
0
  6
DASHDOT
 62
     7
 10
-522.561005184055
 20
-44.967850744062
 30
0.0
 11
-533.961007237438
 21
-44.967850744062
 31
0.0
  0
LINE
  5
   66E
  8
0
  6
CONTINUOUS
 62
     7
 10
-527.511028616231
 20
36.907148782591
 30
0.0
 11
-527.511029281586
 21
39.4071487825909
 31
0.0
  0
LINE
  5
   66F
  8
0
  6
CONTINUOUS
 62
     7
 10
-526.261028616231
 20
36.9071578979494
 30
0.0
 11
-527.511028616231
 21
36.9071578979494
 31
0.0
  0
LINE
  5
   670
  8
0
  6
CONTINUOUS
 62
     7
 10
-526.261028616231
 20
36.9071491152683
 30
0.0
 11
-526.261029281586
 21
39.4071491152682
 31
0.0
  0
LINE
  5
   671
  8
0
  6
CONTINUOUS
 62
     7
 10
-526.261029281586
 20
39.4071578979493
 30
0.0
 11
-527.511029281586
 21
39.4071578979493
 31
0.0
  0
LINE
  5
   672
  8
0
  6
CONTINUOUS
 62
     7
 10
-527.5110161741
 20
-9.84285121740738
 30
0.0
 11
-527.511017371738
 21
-5.34285121740754
 31
0.0
  0
LINE
  5
   673
  8
0
  6
CONTINUOUS
 62
     7
 10
-526.2610161741
 20
-9.84284210204889
 30
0.0
 11
-527.5110161741
 21
-9.84284210204889
 31
0.0
  0
LINE
  5
   674
  8
0
  6
CONTINUOUS
 62
     7
 10
-526.261020624563
 20
-9.84285125314594
 30
0.0
 11
-526.261029451595
 21
-5.34285125314813
 31
0.0
  0
LINE
  5
   675
  8
0
  6
CONTINUOUS
 62
     7
 10
-526.261025001132
 20
-5.34284210204905
 30
0.0
 11
-527.511017371738
 21
-5.34284210204905
 31
0.0
  0
LINE
  5
   676
  8
0
  6
CONTINUOUS
 62
     7
 10
-527.511016440239
 20
-8.84284973144346
 30
0.0
 11
-536.761016440239
 21
-8.84284973144346
 31
0.0
  0
LINE
  5
   677
  8
0
  6
CONTINUOUS
 62
     2
 10
-537.011016440239
 20
-8.84286137514955
 30
0.0
 11
-537.011030412686
 21
43.6571386248486
 31
0.0
  0
LINE
  5
   678
  8
0
  6
CONTINUOUS
 62
     2
 10
-537.011030412686
 20
43.6571386248486
 30
0.0
 11
-537.011036833361
 21
67.7821462542422
 31
0.0
  0
LINE
  5
   679
  8
0
  6
CONTINUOUS
 62
     7
 10
-526.7610161741
 20
-9.84285101780099
 30
0.0
 11
-526.761017371738
 21
-5.34285101780115
 31
0.0
  0
LINE
  5
   67A
  8
0
  6
CONTINUOUS
 62
     7
 10
-526.761028616231
 20
36.9071489821973
 30
0.0
 11
-526.761029281586
 21
39.4071489821973
 31
0.0
  0
LINE
  5
   67B
  8
0
  6
CONTINUOUS
 62
     7
 10
-527.78601796612
 20
-8.84285129059683
 30
0.0
 11
-527.786031938566
 21
43.6571410800068
 31
0.0
  0
LINE
  5
   67C
  8
0
  6
CONTINUOUS
 62
     7
 10
-529.586016726344
 20
-8.84285176965183
 30
0.0
 11
-529.586030698789
 21
43.6571406009518
 31
0.0
  0
LINE
  5
   67D
  8
0
  6
CONTINUOUS
 62
     7
 10
-531.386016917078
 20
-8.84285224870722
 30
0.0
 11
-531.386030889524
 21
43.6571401218964
 31
0.0
  0
LINE
  5
   67E
  8
0
  6
CONTINUOUS
 62
     7
 10
-533.186009744556
 20
-34.7178497314453
 30
0.0
 11
-533.186030603421
 21
43.6571396428411
 31
0.0
  0
LINE
  5
   67F
  8
0
  6
CONTINUOUS
 62
     7
 10
-524.186019491999
 20
-8.84285033248656
 30
0.0
 11
-524.186033464445
 21
43.657142038117
 31
0.0
  0
LINE
  5
   680
  8
0
  6
CONTINUOUS
 62
     7
 10
-525.986022543757
 20
-8.84285081154271
 30
0.0
 11
-525.986036516202
 21
43.6571415590609
 31
0.0
  0
LINE
  5
   681
  8
0
  6
CONTINUOUS
 62
     7
 10
-534.736016821711
 20
-8.8428531402824
 30
0.0
 11
-534.736030794156
 21
43.6571392303212
 31
0.0
  0
LINE
  5
   682
  8
0
  6
CONTINUOUS
 62
     7
 10
-535.886016917078
 20
-8.84285344634556
 30
0.0
 11
-535.886030889524
 21
43.657138924258
 31
0.0
  0
LINE
  5
   683
  8
0
  6
CONTINUOUS
 62
     7
 10
-520.586014131458
 20
-34.7178497314453
 30
0.0
 11
-520.586017291888
 21
-22.8428668975849
 31
0.0
  0
LINE
  5
   684
  8
0
  6
CONTINUOUS
 62
     7
 10
-522.386017183216
 20
-34.7178497314453
 30
0.0
 11
-522.386020343646
 21
-22.8428668975849
 31
0.0
  0
LINE
  5
   685
  8
0
  6
CONTINUOUS
 62
     7
 10
-531.386009964123
 20
-34.9678497314453
 30
0.0
 11
-531.386016917079
 21
-8.84285180167239
 31
0.0
  0
LINE
  5
   686
  8
0
  6
CONTINUOUS
 62
     7
 10
-527.7860110797
 20
-34.7178497314453
 30
0.0
 11
-527.78601796612
 21
-8.84285084356199
 31
0.0
  0
LINE
  5
   687
  8
0
  6
CONTINUOUS
 62
     7
 10
-529.586009839924
 20
-34.7178497314453
 30
0.0
 11
-529.586016726344
 21
-8.842851322617
 31
0.0
  0
LINE
  5
   688
  8
0
  6
CONTINUOUS
 62
     7
 10
-524.186012605579
 20
-34.7178497314453
 30
0.0
 11
-524.186019491999
 21
-8.84284988545172
 31
0.0
  0
LINE
  5
   689
  8
0
  6
CONTINUOUS
 62
     7
 10
-525.986015657337
 20
-34.7178497314453
 30
0.0
 11
-525.986022543757
 21
-8.84285036450787
 31
0.0
  0
LINE
  5
   68A
  8
0
  6
CONTINUOUS
 62
     7
 10
-534.736009935291
 20
-34.7178497314453
 30
0.0
 11
-534.736016821711
 21
-8.84285269324757
 31
0.0
  0
LINE
  5
   68B
  8
0
  6
CONTINUOUS
 62
     7
 10
-535.886010507496
 20
-34.7178497314453
 30
0.0
 11
-535.886017393916
 21
-8.84285303986147
 31
0.0
  0
LINE
  5
   68C
  8
0
  6
CONTINUOUS
 62
     7
 10
-534.736030794156
 20
43.6571392303212
 30
0.0
 11
-534.736037214828
 21
67.7821392303203
 31
0.0
  0
LINE
  5
   68D
  8
0
  6
CONTINUOUS
 62
     7
 10
-535.886030889524
 20
43.657138924258
 30
0.0
 11
-535.886037310196
 21
67.7821389242572
 31
0.0
  0
LINE
  5
   68E
  8
0
  6
CONTINUOUS
 62
     7
 10
-520.586038716307
 20
57.6571311950664
 30
0.0
 11
-520.586041410996
 21
67.7821429962264
 31
0.0
  0
LINE
  5
   68F
  8
0
  6
CONTINUOUS
 62
     7
 10
-522.386041768064
 20
57.6571311950665
 30
0.0
 11
-522.386044462754
 21
67.7821425171703
 31
0.0
  0
LINE
  5
   690
  8
0
  6
CONTINUOUS
 62
     7
 10
-524.186033464445
 20
43.657142038117
 30
0.0
 11
-524.186039885117
 21
67.7821420381162
 31
0.0
  0
LINE
  5
   691
  8
0
  6
CONTINUOUS
 62
     7
 10
-525.986036516202
 20
43.6571415590609
 30
0.0
 11
-525.986042936875
 21
67.78214155906
 31
0.0
  0
LINE
  5
   692
  8
0
  6
CONTINUOUS
 62
     7
 10
-527.786031938566
 20
43.6571410800068
 30
0.0
 11
-527.786038359238
 21
67.7821410800059
 31
0.0
  0
LINE
  5
   693
  8
0
  6
CONTINUOUS
 62
     7
 10
-529.586030698789
 20
43.6571406009518
 30
0.0
 11
-529.586037119461
 21
67.7821406009509
 31
0.0
  0
LINE
  5
   694
  8
0
  6
CONTINUOUS
 62
     7
 10
-531.386030889524
 20
43.6571401218964
 30
0.0
 11
-531.386037310196
 21
67.7821401218955
 31
0.0
  0
LINE
  5
   695
  8
0
  6
CONTINUOUS
 62
     7
 10
-533.186030603421
 20
43.6571396428411
 30
0.0
 11
-533.186037024094
 21
67.7821396428403
 31
0.0
  0
ARC
  5
   696
  8
0
  6
CONTINUOUS
 62
     7
 10
-536.761030346151
 20
43.407138691384
 30
0.0
 40
0.25
 50
90.0000151968393
 51
180.000015196839
  0
ARC
  5
   697
  8
0
  6
CONTINUOUS
 62
     2
 10
-467.261037975548
 20
43.4071571882409
 30
0.0
 40
0.25
 50
360.000015196839
 51
450.000015196839
  0
ARC
  5
   698
  8
0
  6
CONTINUOUS
 62
     7
 10
-536.761016506775
 20
-8.5928613086141
 30
0.0
 40
0.25
 50
180.000015196839
 51
270.000015196839
  0
LINE
  5
   699
  8
0
  6
CONTINUOUS
 62
     7
 10
-522.511050534086
 20
43.6571386913841
 30
0.0
 11
-536.761030346151
 21
43.6571386913841
 31
0.0
  0
LINE
  5
   69A
  8
0
  6
CONTINUOUS
 62
     7
 10
-522.511050534086
 20
-8.84284973144532
 30
0.0
 11
-526.261022586129
 21
-8.84284973144532
 31
0.0
  0
LINE
  5
   69B
  8
0
  6
CONTINUOUS
 62
     7
 10
-522.511050534086
 20
-16.9678497314453
 30
0.0
 11
-537.011005583878
 21
-16.9678497314453
 31
0.0
  0
LINE
  5
   69C
  8
0
  6
DASHDOT
 62
     2
 10
-449.479085525777
 20
17.4071502685547
 30
0.0
 11
-555.124955285795
 21
17.4071502685547
 31
0.0
  0
INSERT
  5
   69D
  8
255
  6
CONTINUOUS
 62
     7
  2
COPRITERM_PIANTA
 10
-493.261005357988
 20
-34.9678479004085
 30
0.0
 41
0.5
 42
-0.5
 50
1.03931199646468E-7
 43
0.5
  0
LINE
  5
   69E
  8
0
  6
CONTINUOUS
 62
     7
 10
-520.386005583875
 20
-46.967859100876
 30
0.0
 11
-521.374504219834
 21
-46.967859100876
 31
0.0
  0
LINE
  5
   69F
  8
0
  6
CONTINUOUS
 62
     7
 10
-517.472595399276
 20
-46.967859100876
 30
0.0
 11
-518.636005583875
 21
-46.967859100876
 31
0.0
  0
LINE
  5
   6A0
  8
0
  6
CONTINUOUS
 62
     1
 10
-520.367840020151
 20
-40.2178497314453
 30
0.0
 11
-520.761005583878
 21
-40.2178497314453
 31
0.0
  0
LINE
  5
   6A1
  8
0
  6
CONTINUOUS
 62
     7
 10
-533.761006210746
 20
-58.4678981998736
 30
0.0
 11
-533.761006210746
 21
-46.9678591008758
 31
0.0
  0
LINE
  5
   6A2
  8
0
  6
CONTINUOUS
 62
     7
 10
-522.761006210746
 20
-58.4678981998736
 30
0.0
 11
-522.761006210746
 21
-46.9678591008758
 31
0.0
  0
LINE
  5
   6A3
  8
0
  6
CONTINUOUS
 62
     7
 10
-522.761006210746
 20
-58.4678981998736
 30
0.0
 11
-533.761006210746
 21
-58.4678981998736
 31
0.0
  0
ARC
  5
   6A4
  8
0
  6
CONTINUOUS
 62
     7
 10
-528.261006210746
 20
-48.9678981998736
 30
0.0
 40
4.0
 50
149.999353253709
 51
390.00064664236
  0
LINE
  5
   6A5
  8
0
  6
DASHDOT
 62
     7
 10
-528.261006210746
 20
-53.4678981998736
 30
0.0
 11
-528.261006210746
 21
-44.4678981998736
 31
0.0
  0
LINE
  5
   6A6
  8
0
  6
DASHDOT
 62
     7
 10
-523.761006210746
 20
-48.9678981998736
 30
0.0
 11
-532.761006210746
 21
-48.9678981998736
 31
0.0
  0
LINE
  5
   6A7
  8
0
  6
DOT
 62
     7
 10
-532.261006210746
 20
-58.4678981998736
 30
0.0
 11
-532.261006210746
 21
-48.9678981998736
 31
0.0
  0
LINE
  5
   6A8
  8
0
  6
DOT
 62
     7
 10
-524.261006210746
 20
-58.4678981998736
 30
0.0
 11
-524.261006210746
 21
-48.9678981998736
 31
0.0
  0
LINE
  5
   6A9
  8
0
  6
DOT
 62
     7
 10
-531.636006210746
 20
-58.4678981998736
 30
0.0
 11
-531.636006210746
 21
-51.1148437045383
 31
0.0
  0
LINE
  5
   6AA
  8
0
  6
DOT
 62
     7
 10
-524.886006210746
 20
-58.4678981998736
 30
0.0
 11
-524.886006210746
 21
-51.1148437045383
 31
0.0
  0
CIRCLE
  5
   6AB
  8
0
  6
CONTINUOUS
 62
     7
 10
-465.545657935973
 20
54.1796786042993
 30
0.0
 40
0.1
  0
TEXT
  5
   6AC
  8
0
  6
CONTINUOUS
 62
     7
 10
-508.322202762326
 20
95.2761389922133
 30
0.0
 40
3.00000002980232
  1
=         =
 50
359.999999948034
 41
0.916666604744064
 72
     2
 11
-478.622204477946
 21
95.2761389654255
 31
0.0
  0
TEXT
  5
   6AD
  8
0
  6
CONTINUOUS
 62
     7
 10
-452.36175537209
 20
-6.15443021194893
 30
0.0
 40
3.00000002980232
  1
=
 50
89.9999999480344
 41
0.916666604744064
 72
     2
 11
-452.361755370098
 21
-3.95443034307915
 31
0.0
  0
TEXT
  5
   6AE
  8
0
  6
CONTINUOUS
 62
     7
 10
-451.915908814473
 20
35.7550889836077
 30
0.0
 40
3.00000002980232
  1
=
 50
89.9999999480344
 41
0.916666604744064
 72
     2
 11
-451.91590881248
 21
37.9550888524775
 31
0.0
  0
INSERT
  5
   6AF
  8
0
  6
CONTINUOUS
 62
     7
  2
*UDIM1507
 10
0.0
 20
0.0
 30
0.0
  0
INSERT
  5
   6B0
  8
0
  6
CONTINUOUS
 62
     7
  2
*UDIM1508
 10
0.0
 20
0.0
 30
0.0
  0
TEXT
  5
   6B1
  8
0
  6
CONTINUOUS
 62
     7
 10
-494.056365723769
 20
-75.7194022401165
 30
0.0
 40
3.00000002980232
  1
Y
 50
359.999999948034
 41
0.916666604744064
 72
     2
 11
-491.856365854899
 21
-75.7194022421008
 31
0.0
  0
INSERT
  5
   6B2
  8
0
  6
CONTINUOUS
 62
     7
  2
*UDIM1509
 10
0.0
 20
0.0
 30
0.0
  0
INSERT
  5
   6B3
  8
0
  6
CONTINUOUS
 62
     5
  2
*UDIM1510
 10
0.0
 20
0.0
 30
0.0
  0
INSERT
  5
   6B4
  8
0
  6
CONTINUOUS
 62
     7
  2
*UDIM1511
 10
0.0
 20
0.0
 30
0.0
  0
TEXT
  5
   6B5
  8
0
  6
CONTINUOUS
 62
     7
 10
-573.121420223879
 20
16.3834015182568
 30
0.0
 40
3.00000002980232
  1
X
 50
359.999999948034
 41
0.916666604744064
 72
     2
 11
-570.921420355009
 21
16.3834015162726
 31
0.0
  0
INSERT
  5
   6B6
  8
0
  6
CONTINUOUS
 62
     7
  2
*UDIM1512
 10
0.0
 20
0.0
 30
0.0
  0
INSERT
  5
   6B7
  8
0
  6
CONTINUOUS
 62
     7
  2
*UDIM1513
 10
0.0
 20
0.0
 30
0.0
  0
INSERT
  5
   6B8
  8
0
  6
CONTINUOUS
 62
     7
  2
*UDIM1514
 10
0.0
 20
0.0
 30
0.0
  0
INSERT
  5
   6B9
  8
0
  6
CONTINUOUS
 62
     7
  2
*UDIM1515
 10
0.0
 20
0.0
 30
0.0
  0
INSERT
  5
   6BA
  8
0
  6
CONTINUOUS
 62
     7
  2
*UDIM1516
 10
0.0
 20
0.0
 30
0.0
  0
INSERT
  5
   6BB
  8
0
  6
CONTINUOUS
 62
     7
  2
*UDIM1517
 10
0.0
 20
0.0
 30
0.0
  0
TEXT
  5
   6BC
  8
0
  6
CONTINUOUS
 62
     7
 10
-446.389625461262
 20
14.87657952974
 30
0.0
 40
3.00000002980232
  1
X
 50
359.999999948034
 41
0.916666604744064
 72
     1
 11
-445.289625525475
 21
16.376579543649
 31
0.0
 73
     2
  0
TEXT
  5
   6BD
  8
0
  6
CONTINUOUS
 62
     7
 10
-494.982734592122
 20
111.358352906205
 30
0.0
 40
3.00000002980232
  1
Y
 50
359.999999948034
 41
0.916666604744064
 72
     1
 11
-493.882734656334
 21
112.858352920114
 31
0.0
 73
     2
  0
INSERT
  5
   6BE
  8
255
  6
CONTINUOUS
 62
     7
  2
MOSTRINA
 10
-550.680178952054
 20
-37.5831794738789
 30
0.0
 41
0.5
 42
0.5
 50
3.50835464724173E-15
 43
0.5
  0
LINE
  5
   6BF
  8
0
  6
CONTINUOUS
 62
     7
 10
-267.693511962891
 20
27.7306518554688
 30
0.0
 11
-239.693511962891
 21
27.7306518554688
 31
0.0
  0
LINE
  5
   6C0
  8
0
  6
CONTINUOUS
 62
     7
 10
-267.693511962891
 20
55.7306518554688
 30
0.0
 11
-239.693511962891
 21
55.7306518554688
 31
0.0
  0
LINE
  5
   6C1
  8
0
  6
CONTINUOUS
 62
     7
 10
-267.693511962891
 20
55.7306518554688
 30
0.0
 11
-267.693511962891
 21
27.7306518554688
 31
0.0
  0
LINE
  5
   6C2
  8
0
  6
CONTINUOUS
 62
     7
 10
-239.693511962891
 20
55.7306518554688
 30
0.0
 11
-239.693511962891
 21
27.7306518554688
 31
0.0
  0
CIRCLE
  5
   6C3
  8
0
  6
CONTINUOUS
 62
     7
 10
-263.693511962891
 20
59.4806518554688
 30
0.0
 40
0.875
  0
CIRCLE
  5
   6C4
  8
0
  6
CONTINUOUS
 62
     7
 10
-243.693511962891
 20
59.4806518554688
 30
0.0
 40
0.875
  0
CIRCLE
  5
   6C5
  8
0
  6
CONTINUOUS
 62
     7
 10
-263.693511962891
 20
23.9806518554688
 30
0.0
 40
0.875
  0
CIRCLE
  5
   6C6
  8
0
  6
CONTINUOUS
 62
     7
 10
-243.693511962891
 20
23.9806518554688
 30
0.0
 40
0.875
  0
LINE
  5
   6C7
  8
0
  6
DASHDOT
 62
     7
 10
-263.693511962891
 20
61.1056518554688
 30
0.0
 11
-263.693511962891
 21
57.8556518554688
 31
0.0
  0
LINE
  5
   6C8
  8
0
  6
DASHDOT
 62
     7
 10
-265.318511962891
 20
59.4806518554688
 30
0.0
 11
-262.068511962891
 21
59.4806518554688
 31
0.0
  0
LINE
  5
   6C9
  8
0
  6
DASHDOT
 62
     7
 10
-243.693511962891
 20
61.1056518554688
 30
0.0
 11
-243.693511962891
 21
57.8556518554688
 31
0.0
  0
LINE
  5
   6CA
  8
0
  6
DASHDOT
 62
     7
 10
-245.318511962891
 20
59.4806518554688
 30
0.0
 11
-242.068511962891
 21
59.4806518554688
 31
0.0
  0
LINE
  5
   6CB
  8
0
  6
DASHDOT
 62
     7
 10
-243.693511962891
 20
25.6056518554688
 30
0.0
 11
-243.693511962891
 21
22.3556518554688
 31
0.0
  0
LINE
  5
   6CC
  8
0
  6
DASHDOT
 62
     7
 10
-245.318511962891
 20
23.9806518554688
 30
0.0
 11
-242.068511962891
 21
23.9806518554688
 31
0.0
  0
LINE
  5
   6CD
  8
0
  6
DASHDOT
 62
     7
 10
-263.693511962891
 20
25.6056518554688
 30
0.0
 11
-263.693511962891
 21
22.3556518554688
 31
0.0
  0
LINE
  5
   6CE
  8
0
  6
DASHDOT
 62
     7
 10
-265.318511962891
 20
23.9806518554688
 30
0.0
 11
-262.068511962891
 21
23.9806518554688
 31
0.0
  0
LINE
  5
   6CF
  8
0
  6
DASHDOT
 62
     7
 10
-253.693511962891
 20
69.1007641408058
 30
0.0
 11
-253.693511962891
 21
12.6074010106477
 31
0.0
  0
LINE
  5
   6D0
  8
0
  6
CONTINUOUS
 62
     7
 10
-270.514088506556
 20
62.1318375106748
 30
0.0
 11
-236.559528283249
 21
62.1318375106748
 31
0.0
  0
LINE
  5
   6D1
  8
0
  6
CONTINUOUS
 62
     7
 10
-270.514088506556
 20
20.5667724097295
 30
0.0
 11
-236.559528283249
 21
20.5667724097295
 31
0.0
  0
LINE
  5
   6D2
  8
0
  6
CONTINUOUS
 62
     7
 10
-236.559528283249
 20
62.1318375106748
 30
0.0
 11
-236.559528283249
 21
20.5667724097295
 31
0.0
  0
LINE
  5
   6D3
  8
0
  6
CONTINUOUS
 62
     7
 10
-270.514088506556
 20
62.1318375106748
 30
0.0
 11
-270.514088506556
 21
20.5667724097295
 31
0.0
  0
CIRCLE
  5
   6D4
  8
0
  6
CONTINUOUS
 62
     7
 10
-268.640733459753
 20
60.3170248090842
 30
0.0
 40
0.0625
  0
LINE
  5
   6D5
  8
0
  6
DASHDOT
 62
     7
 10
-277.855143846668
 20
41.7306518554688
 30
0.0
 11
-229.552179128805
 21
41.7306518554688
 31
0.0
  0
TEXT
  5
   6D6
  8
0
  6
CONTINUOUS
 62
     5
 10
-290.133271154539
 20
31.8089936424345
 30
0.0
 40
3.00000002980232
  1
=     =
 50
449.999999844103
 41
0.916666604744064
 72
     2
 11
-290.133271103776
 21
50.5089925606102
 31
0.0
  0
TEXT
  5
   6D7
  8
0
  6
CONTINUOUS
 62
     5
 10
-279.069464620726
 20
31.134371106729
 30
0.0
 40
3.00000002980232
  1
=     =
 50
449.999999844103
 41
0.916666604744064
 72
     2
 11
-279.069464569962
 21
49.8343700249047
 31
0.0
  0
INSERT
  5
   6D8
  8
0
  6
CONTINUOUS
 62
     7
  2
*UDIM1518
 10
0.0
 20
0.0
 30
0.0
  0
TEXT
  5
   6D9
  8
0
  6
CONTINUOUS
 62
     7
 10
-260.594053955975
 20
74.9549977217458
 30
0.0
 40
3.00000002980232
  1
=   =
 50
359.999999844103
 41
0.916666604744064
 72
     2
 11
-247.394054720901
 21
74.9549976858961
 31
0.0
  0
TEXT
  5
   6DA
  8
0
  6
CONTINUOUS
 62
     7
 10
-260.652596207562
 20
68.3982560072683
 30
0.0
 40
3.00000002980232
  1
=   =
 50
359.999999844103
 41
0.916666604744064
 72
     2
 11
-247.452596972488
 21
68.3982559714186
 31
0.0
  0
INSERT
  5
   6DB
  8
0
  6
CONTINUOUS
 62
     7
  2
*UDIM1519
 10
0.0
 20
0.0
 30
0.0
  0
INSERT
  5
   6DC
  8
0
  6
CONTINUOUS
 62
     7
  2
*UDIM1520
 10
0.0
 20
0.0
 30
0.0
  0
INSERT
  5
   6DD
  8
0
  6
CONTINUOUS
 62
     7
  2
*UDIM1521
 10
0.0
 20
0.0
 30
0.0
  0
INSERT
  5
   6DE
  8
0
  6
CONTINUOUS
 62
     7
  2
*UDIM1522
 10
0.0
 20
0.0
 30
0.0
  0
TEXT
  5
   6DF
  8
0
  6
CONTINUOUS
 62
     7
 10
-254.881791959308
 20
5.7555579447797
 30
0.0
 40
3.00000002980232
  1
Y
 50
359.999999844103
 41
0.916666604744064
 72
     2
 11
-252.681792090439
 21
5.75555793880475
 31
0.0
  0
TEXT
  5
   6E0
  8
0
  6
CONTINUOUS
 62
     7
 10
-253.945114503406
 20
84.4950141215375
 30
0.0
 40
3.00000002980232
  1
Y
 50
359.999999844103
 41
0.916666604744064
 72
     2
 11
-251.745114634537
 21
84.4950141155626
 31
0.0
  0
TEXT
  5
   6E1
  8
0
  6
CONTINUOUS
 62
     7
 10
-227.714746366047
 20
39.86025982142
 30
0.0
 40
3.00000002980232
  1
X
 50
359.999999844103
 41
0.916666604744064
 72
     2
 11
-225.514746497177
 21
39.8602598154451
 31
0.0
  0
TEXT
  5
   6E2
  8
0
  6
CONTINUOUS
 62
     7
 10
-302.058135877155
 20
40.2650332951596
 30
0.0
 40
3.00000002980232
  1
X
 50
359.999999844103
 41
0.916666604744064
 72
     2
 11
-299.858136008285
 21
40.2650332891847
 31
0.0
  0
LINE
  5
   6E3
  8
0
  6
CONTINUOUS
 62
     7
 10
-406.888626098633
 20
31.2821350097656
 30
0.0
 11
-406.888626098633
 21
31.5321197509766
 31
0.0
  0
LINE
  5
   6E4
  8
0
  6
CONTINUOUS
 62
     7
 10
-406.888626098633
 20
39.0321197509766
 30
0.0
 11
-406.888626098633
 21
49.0321044921875
 31
0.0
  0
LINE
  5
   6E5
  8
0
  6
CONTINUOUS
 62
     7
 10
-405.638610839844
 20
31.5321197509766
 30
0.0
 11
-405.638610839844
 21
39.0321197509766
 31
0.0
  0
LINE
  5
   6E6
  8
0
  6
CONTINUOUS
 62
     7
 10
-405.638610839844
 20
31.5321197509766
 30
0.0
 11
-406.888626098633
 21
31.5321197509766
 31
0.0
  0
LINE
  5
   6E7
  8
0
  6
CONTINUOUS
 62
     7
 10
-405.638610839844
 20
39.0321197509766
 30
0.0
 11
-406.888626098633
 21
39.0321197509766
 31
0.0
  0
LINE
  5
   6E8
  8
0
  6
CONTINUOUS
 62
     7
 10
-405.638610839844
 20
49.0321044921875
 30
0.0
 11
-405.638610839844
 21
56.5321044921875
 31
0.0
  0
LINE
  5
   6E9
  8
0
  6
CONTINUOUS
 62
     7
 10
-405.638610839844
 20
49.0321044921875
 30
0.0
 11
-406.888626098633
 21
49.0321044921875
 31
0.0
  0
LINE
  5
   6EA
  8
0
  6
CONTINUOUS
 62
     7
 10
-405.638610839844
 20
56.5321044921875
 30
0.0
 11
-406.888626098633
 21
56.5321044921875
 31
0.0
  0
LINE
  5
   6EB
  8
0
  6
CONTINUOUS
 62
     7
 10
-372.638633728027
 20
31.2821197509766
 30
0.0
 11
-372.638633728027
 21
58.7821044921875
 31
0.0
  0
LINE
  5
   6EC
  8
0
  6
CONTINUOUS
 62
     2
 10
-396.288623462071
 20
80.0321273803711
 30
0.0
 11
-406.888610839844
 21
80.0321273803711
 31
0.0
  0
LINE
  5
   6ED
  8
0
  6
CONTINUOUS
 62
     2
 10
-406.888656616443
 20
58.5321044921875
 30
0.0
 11
-406.888656616443
 21
68.8394165039062
 31
0.0
  0
LINE
  5
   6EE
  8
0
  6
CONTINUOUS
 62
     7
 10
-370.888626098633
 20
67.5321044921875
 30
0.0
 11
-372.638626098633
 21
67.5321044921875
 31
0.0
  0
LINE
  5
   6EF
  8
0
  6
CONTINUOUS
 62
     7
 10
-372.63867950475
 20
58.7821001325808
 30
0.0
 11
-372.63867950475
 21
67.5321001325808
 31
0.0
  0
LINE
  5
   6F0
  8
0
  6
CONTINUOUS
 62
     7
 10
-404.888626098633
 20
59.7821044921875
 30
0.0
 11
-406.888626098633
 21
59.7821044921875
 31
0.0
  0
LINE
  5
   6F1
  8
0
  6
CONTINUOUS
 62
     7
 10
-404.88862482725
 20
59.7820981439511
 30
0.0
 11
-404.888622272883
 21
60.7865164361561
 31
0.0
  0
LINE
  5
   6F2
  8
0
  6
CONTINUOUS
 62
     7
 10
-372.638633728027
 20
26.5321273803711
 30
0.0
 11
-372.638633728027
 21
31.2821350097656
 31
0.0
  0
LINE
  5
   6F3
  8
0
  6
CONTINUOUS
 62
     7
 10
-406.888620998972
 20
-3.96785990100434
 30
0.0
 11
-406.888605740183
 21
-3.82074234583573
 31
0.0
  0
LINE
  5
   6F4
  8
0
  6
CONTINUOUS
 62
     7
 10
-406.888610839983
 20
3.88502075952943
 30
0.0
 11
-406.888610839983
 21
31.282130744881
 31
0.0
  0
LINE
  5
   6F5
  8
0
  6
CONTINUOUS
 62
     7
 10
-371.388626098633
 20
2.78213500976563
 30
0.0
 11
-405.388642883302
 21
2.78213500976563
 31
0.0
  0
LINE
  5
   6F6
  8
0
  6
CONTINUOUS
 62
     7
 10
-371.388626098633
 20
-2.71786499023438
 30
0.0
 11
-405.388642883302
 21
-2.71786499023438
 31
0.0
  0
LINE
  5
   6F7
  8
0
  6
CONTINUOUS
 62
     7
 10
-402.772596600508
 20
2.782140094377
 30
0.0
 11
-406.888608997513
 21
3.88502580744542
 31
0.0
  0
LINE
  5
   6F8
  8
0
  6
CONTINUOUS
 62
     7
 10
-406.888606690522
 20
-3.82074662027074
 30
0.0
 11
-402.772594198744
 21
-2.71786445587457
 31
0.0
  0
LINE
  5
   6F9
  8
0
  6
CONTINUOUS
 62
     7
 10
-370.888633728027
 20
4.28213500976563
 30
0.0
 11
-374.888633728027
 21
4.28213500976563
 31
0.0
  0
LINE
  5
   6FA
  8
0
  6
CONTINUOUS
 62
     7
 10
-374.888633728027
 20
4.28213500976563
 30
0.0
 11
-374.888633728027
 21
25.5321273803711
 31
0.0
  0
LINE
  5
   6FB
  8
0
  6
CONTINUOUS
 62
     7
 10
-406.388610839844
 20
0.282135009765625
 30
0.0
 11
-406.388610839844
 21
3.75104522705078
 31
0.0
  0
LINE
  5
   6FC
  8
0
  6
CONTINUOUS
 62
     7
 10
-406.388617882344
 20
-3.68677023685369
 30
0.0
 11
-406.388610252956
 21
-3.21786001778077
 31
0.0
  0
LINE
  5
   6FD
  8
0
  6
CONTINUOUS
 62
     2
 10
-406.888610839844
 20
4.28213500976563
 30
0.0
 11
-407.888610839844
 21
4.28213500976563
 31
0.0
  0
LINE
  5
   6FE
  8
0
  6
CONTINUOUS
 62
     2
 10
-406.888610839844
 20
7.03213500976563
 30
0.0
 11
-407.888610839844
 21
7.03213500976563
 31
0.0
  0
LINE
  5
   6FF
  8
0
  6
CONTINUOUS
 62
     7
 10
-370.888644533026
 20
-3.21784547713771
 30
0.0
 11
-371.388636887334
 21
-2.71785312283016
 31
0.0
  0
LINE
  5
   700
  8
0
  6
CONTINUOUS
 62
     7
 10
-371.388632416895
 20
2.78213571074394
 30
0.0
 11
-370.88863243401
 21
3.28213569362964
 31
0.0
  0
LINE
  5
   701
  8
0
  6
CONTINUOUS
 62
     7
 10
-372.638633728027
 20
25.5321273803711
 30
0.0
 11
-372.638633728027
 21
26.5321273803711
 31
0.0
  0
LINE
  5
   702
  8
0
  6
CONTINUOUS
 62
     2
 10
-405.888610839844
 20
-12.9678497314447
 30
0.0
 11
-407.888610839844
 21
-12.9678497314447
 31
0.0
  0
LINE
  5
   703
  8
0
  6
CONTINUOUS
 62
     7
 10
-406.888626098633
 20
-5.96786499023438
 30
0.0
 11
-406.888626098633
 21
-3.96786499023438
 31
0.0
  0
LINE
  5
   704
  8
0
  6
CONTINUOUS
 62
     7
 10
-370.888633728027
 20
-10.4678497314453
 30
0.0
 11
-375.888626098633
 21
-10.4678497314453
 31
0.0
  0
LINE
  5
   705
  8
0
  6
CONTINUOUS
 62
     7
 10
-375.888626098633
 20
-12.9678497314453
 30
0.0
 11
-375.888626098633
 21
-10.4678497314453
 31
0.0
  0
LINE
  5
   706
  8
0
  6
CONTINUOUS
 62
     7
 10
-406.888626098633
 20
-11.717840271014
 30
0.0
 11
-406.888626098633
 21
-5.96786499023438
 31
0.0
  0
LINE
  5
   707
  8
0
  6
CONTINUOUS
 62
     2
 10
-406.888626098633
 20
58.5321044921875
 30
0.0
 11
-407.138610839844
 21
58.5321044921875
 31
0.0
  0
LINE
  5
   708
  8
0
  6
CONTINUOUS
 62
     7
 10
-406.888618469238
 20
23.2821350097656
 30
0.0
 11
-407.138610839844
 21
23.2821350097656
 31
0.0
  0
LINE
  5
   709
  8
0
  6
CONTINUOUS
 62
     7
 10
-406.888610839844
 20
7.28213691711426
 30
0.0
 11
-407.138610839844
 21
7.28213691711426
 31
0.0
  0
LINE
  5
   70A
  8
0
  6
CONTINUOUS
 62
     7
 10
-406.388610839844
 20
3.53213548660278
 30
0.0
 11
-407.138610839844
 21
3.53213548660278
 31
0.0
  0
LINE
  5
   70B
  8
0
  6
CONTINUOUS
 62
     7
 10
-406.888626098633
 20
-4.46785736083984
 30
0.0
 11
-407.138610839844
 21
-4.46785736083984
 31
0.0
  0
LINE
  5
   70C
  8
0
  6
CONTINUOUS
 62
     2
 10
-407.138610839844
 20
-11.2678449559891
 30
0.0
 11
-407.138610839844
 21
4.28212738037109
 31
0.0
  0
LINE
  5
   70D
  8
0
  6
CONTINUOUS
 62
     2
 10
-407.138610839844
 20
7.03212738037109
 30
0.0
 11
-407.138610839844
 21
58.532096862793
 31
0.0
  0
LINE
  5
   70E
  8
0
  6
CONTINUOUS
 62
     7
 10
-406.388610839844
 20
49.0321273803711
 30
0.0
 11
-406.388610839844
 21
56.5321044921875
 31
0.0
  0
LINE
  5
   70F
  8
0
  6
CONTINUOUS
 62
     7
 10
-406.388610839844
 20
31.5321502685547
 30
0.0
 11
-406.388610839844
 21
39.0321426391602
 31
0.0
  0
LINE
  5
   710
  8
0
  6
CONTINUOUS
 62
     7
 10
-406.388610839844
 20
-3.21782684326172
 30
0.0
 11
-406.388610839844
 21
0.282173156738281
 31
0.0
  0
LINE
  5
   711
  8
0
  6
CONTINUOUS
 62
     2
 10
-406.93861474436
 20
-11.467841051473
 30
0.0
 11
-407.138611690297
 21
-11.2678441055361
 31
0.0
  0
LINE
  5
   712
  8
0
  6
CONTINUOUS
 62
     2
 10
-406.888610839844
 20
66.5321044921875
 30
0.0
 11
-407.888610839844
 21
66.5321044921875
 31
0.0
  0
LINE
  5
   713
  8
0
  6
CONTINUOUS
 62
     2
 10
-406.888610839844
 20
72.0321044921875
 30
0.0
 11
-407.888610839844
 21
72.0321044921875
 31
0.0
  0
LINE
  5
   714
  8
0
  6
CONTINUOUS
 62
     2
 10
-406.888610839844
 20
70.6879272460938
 30
0.0
 11
-407.888610839844
 21
70.6879272460938
 31
0.0
  0
LINE
  5
   715
  8
0
  6
CONTINUOUS
 62
     2
 10
-406.888610839844
 20
68.8394165039063
 30
0.0
 11
-407.888610839844
 21
68.8394165039063
 31
0.0
  0
LINE
  5
   716
  8
0
  6
CONTINUOUS
 62
     7
 10
-372.388641357422
 20
32.7821024035454
 30
0.0
 11
-372.388641357422
 21
60.032125291729
 31
0.0
  0
LINE
  5
   717
  8
0
  6
CONTINUOUS
 62
     7
 10
-358.388664245611
 20
68.0321190389122
 30
0.0
 11
-358.388664245611
 21
80.0321190389123
 31
0.0
  0
LINE
  5
   718
  8
0
  6
CONTINUOUS
 62
     7
 10
-358.388626098633
 20
68.0321215820136
 30
0.0
 11
-358.638626098633
 21
68.0321215820136
 31
0.0
  0
LINE
  5
   719
  8
0
  6
CONTINUOUS
 62
     7
 10
-358.638626098633
 20
67.7821215820136
 30
0.0
 11
-358.638626098633
 21
68.0321215820136
 31
0.0
  0
LINE
  5
   71A
  8
0
  6
CONTINUOUS
 62
     7
 10
-370.888626098633
 20
67.2821139526191
 30
0.0
 11
-370.888626098633
 21
67.7821215820136
 31
0.0
  0
LINE
  5
   71B
  8
0
  6
CONTINUOUS
 62
     7
 10
-358.388622283941
 20
80.0321368407945
 30
0.0
 11
-370.888622283941
 21
80.0321368407945
 31
0.0
  0
LINE
  5
   71C
  8
0
  6
CONTINUOUS
 62
     7
 10
-359.638626098633
 20
67.7821215820136
 30
0.0
 11
-359.788627624512
 21
67.7821215820136
 31
0.0
  0
LINE
  5
   71D
  8
0
  6
CONTINUOUS
 62
     7
 10
-370.888626098633
 20
67.2821292114081
 30
0.0
 11
-372.388626098633
 21
67.2821292114081
 31
0.0
  0
LINE
  5
   71E
  8
0
  6
CONTINUOUS
 62
     7
 10
-372.388626098633
 20
60.0321292114081
 30
0.0
 11
-372.388626098633
 21
67.2821292114081
 31
0.0
  0
LINE
  5
   71F
  8
0
  6
CONTINUOUS
 62
     7
 10
-370.888648986816
 20
-9.96786315919734
 30
0.0
 11
-370.888648986816
 21
-6.32955749513484
 31
0.0
  0
LINE
  5
   720
  8
0
  6
CONTINUOUS
 62
     7
 10
-372.388633728027
 20
26.7821215820136
 30
0.0
 11
-372.388633728027
 21
32.7821063232245
 31
0.0
  0
LINE
  5
   721
  8
0
  6
CONTINUOUS
 62
     7
 10
-372.388633728027
 20
25.5321063232245
 30
0.0
 11
-372.888633728027
 21
25.5321063232245
 31
0.0
  0
LINE
  5
   722
  8
0
  6
CONTINUOUS
 62
     7
 10
-359.788643261319
 20
-11.4678479003976
 30
0.0
 11
-370.888649364835
 21
-11.4678479003976
 31
0.0
  0
LINE
  5
   723
  8
0
  6
CONTINUOUS
 62
     7
 10
-370.888648986816
 20
-11.4678631591973
 30
0.0
 11
-370.888648986816
 21
-9.96786315919734
 31
0.0
  0
LINE
  5
   724
  8
0
  6
CONTINUOUS
 62
     7
 10
-370.888641357422
 20
-6.32955749513484
 30
0.0
 11
-370.888641357422
 21
-2.8428585540556
 31
0.0
  0
LINE
  5
   725
  8
0
  6
CONTINUOUS
 62
     7
 10
-359.638648986816
 20
-12.9678707885919
 30
0.0
 11
-359.638648986816
 21
-11.4678707885919
 31
0.0
  0
LINE
  5
   726
  8
0
  6
CONTINUOUS
 62
     7
 10
-359.638648986816
 20
-11.4678707885919
 30
0.0
 11
-359.788642853499
 21
-11.4678707885919
 31
0.0
  0
LINE
  5
   727
  8
0
  6
CONTINUOUS
 62
     7
 10
-372.888633728027
 20
25.5321063232245
 30
0.0
 11
-374.888633728027
 21
25.5321063232245
 31
0.0
  0
LINE
  5
   728
  8
0
  6
CONTINUOUS
 62
     7
 10
-372.388633728027
 20
25.5321063232245
 30
0.0
 11
-372.388633728027
 21
26.7821215820136
 31
0.0
  0
LINE
  5
   729
  8
0
  6
CONTINUOUS
 62
     7
 10
-359.788644962478
 20
-2.84284790039968
 30
0.0
 11
-370.888643436599
 21
-2.84284790039968
 31
0.0
  0
LINE
  5
   72A
  8
0
  6
CONTINUOUS
 62
     7
 10
-359.788648639709
 20
2.90715209959895
 30
0.0
 11
-370.88864711383
 21
2.90715209959895
 31
0.0
  0
LINE
  5
   72B
  8
0
  6
CONTINUOUS
 62
     7
 10
-370.239128633761
 20
-9.59285460086782
 30
0.0
 11
-370.138649523526
 21
-9.21785460604487
 31
0.0
  0
LINE
  5
   72C
  8
0
  6
CONTINUOUS
 62
     7
 10
-370.513644315876
 20
-9.86737913359727
 30
0.0
 11
-370.239131089376
 21
-9.5928582708782
 31
0.0
  0
LINE
  5
   72D
  8
0
  6
CONTINUOUS
 62
     7
 10
-370.888657629515
 20
-9.96785144135737
 30
0.0
 11
-370.513650015242
 21
-9.86737232347597
 31
0.0
  0
LINE
  5
   72E
  8
0
  6
CONTINUOUS
 62
     7
 10
-370.513645837358
 20
-4.06834119695034
 30
0.0
 11
-370.888645834608
 21
-3.96785445042308
 31
0.0
  0
LINE
  5
   72F
  8
0
  6
CONTINUOUS
 62
     7
 10
-370.239133247017
 20
-4.3428586256594
 30
0.0
 11
-370.513646477337
 21
-4.06834539533936
 31
0.0
  0
LINE
  5
   730
  8
0
  6
CONTINUOUS
 62
     7
 10
-370.138654713448
 20
-4.71785793049325
 30
0.0
 11
-370.239141459975
 21
-4.34285793324285
 31
0.0
  0
LINE
  5
   731
  8
0
  6
CONTINUOUS
 62
     7
 10
-370.138653225352
 20
-9.21786019087982
 30
0.0
 11
-370.138645595958
 21
-4.71786019087982
 31
0.0
  0
LINE
  5
   732
  8
0
  6
CONTINUOUS
 62
     7
 10
-359.788642883302
 20
-11.4678707885919
 30
0.0
 11
-359.788642883302
 21
67.782115325621
 31
0.0
  0
LINE
  5
   733
  8
0
  6
CONTINUOUS
 62
     7
 10
-359.788619995117
 20
78.6321276855292
 30
0.0
 11
-370.597348848701
 21
78.6321276855292
 31
0.0
  0
LINE
  5
   734
  8
0
  6
CONTINUOUS
 62
     7
 10
-359.788673400885
 20
67.7821181365306
 30
0.0
 11
-359.788673400885
 21
78.6321242400462
 31
0.0
  0
LINE
  5
   735
  8
0
  6
CONTINUOUS
 62
     7
 10
-370.888626098633
 20
67.7821292114081
 30
0.0
 11
-370.888626098633
 21
77.9894385276148
 31
0.0
  0
LINE
  5
   736
  8
0
  6
CONTINUOUS
 62
     7
 10
-351.638618469238
 20
-8.84284027101375
 30
0.0
 11
-351.638618469238
 21
0.407142639160156
 31
0.0
  0
LINE
  5
   737
  8
0
  6
CONTINUOUS
 62
     7
 10
-351.638618469238
 20
42.5321444701972
 30
0.0
 11
-351.638618469238
 21
42.6571444701972
 31
0.0
  0
LINE
  5
   738
  8
0
  6
CONTINUOUS
 62
     7
 10
-354.388615608215
 20
43.6571444701972
 30
0.0
 11
-356.138618469238
 21
43.6571444701972
 31
0.0
  0
LINE
  5
   739
  8
0
  6
CONTINUOUS
 62
     7
 10
-354.388615608215
 20
-8.84284027101375
 30
0.0
 11
-356.138618469238
 21
-8.84284027101375
 31
0.0
  0
LINE
  5
   73A
  8
0
  6
CONTINUOUS
 62
     7
 10
-359.638618469238
 20
-16.9678402710137
 30
0.0
 11
-359.638618469238
 21
-11.4678707885919
 31
0.0
  0
LINE
  5
   73B
  8
0
  6
CONTINUOUS
 62
     7
 10
-357.138618469238
 20
-16.9678402710137
 30
0.0
 11
-357.138618469238
 21
-8.84284027101375
 31
0.0
  0
LINE
  5
   73C
  8
0
  6
CONTINUOUS
 62
     7
 10
-357.138618469238
 20
43.6571444701972
 30
0.0
 11
-357.138618469238
 21
67.7821444701972
 31
0.0
  0
LINE
  5
   73D
  8
0
  6
CONTINUOUS
 62
     7
 10
-357.138618469238
 20
67.7821444701972
 30
0.0
 11
-359.638618469238
 21
67.7821444701972
 31
0.0
  0
LINE
  5
   73E
  8
0
  6
CONTINUOUS
 62
     7
 10
-357.138618469238
 20
-16.9678402710137
 30
0.0
 11
-359.638618469238
 21
-16.9678402710137
 31
0.0
  0
LINE
  5
   73F
  8
0
  6
CONTINUOUS
 62
     7
 10
-356.138618469238
 20
-8.84284027101375
 30
0.0
 11
-356.138618469238
 21
43.6571444701972
 31
0.0
  0
LINE
  5
   740
  8
0
  6
CONTINUOUS
 62
     7
 10
-356.138618469238
 20
-8.84284027101375
 30
0.0
 11
-357.138618469238
 21
-8.84284027101375
 31
0.0
  0
LINE
  5
   741
  8
0
  6
CONTINUOUS
 62
     7
 10
-356.138618469238
 20
43.6571444701972
 30
0.0
 11
-357.138618469238
 21
43.6571444701972
 31
0.0
  0
LINE
  5
   742
  8
0
  6
CONTINUOUS
 62
     7
 10
-359.788654463416
 20
3.18212153361677
 30
0.0
 11
-359.638652944493
 21
3.19524409060416
 31
0.0
  0
LINE
  5
   743
  8
0
  6
CONTINUOUS
 62
     7
 10
-359.638627158457
 20
-3.13099118193862
 30
0.0
 11
-359.788628681575
 21
-3.11786099553225
 31
0.0
  0
LINE
  5
   744
  8
0
  6
CONTINUOUS
 62
     7
 10
-370.888641357422
 20
2.90714144594576
 30
0.0
 11
-370.888641357422
 21
4.28212158201359
 31
0.0
  0
LINE
  5
   745
  8
0
  6
CONTINUOUS
 62
     7
 10
-359.788620471954
 20
-45.5678406524837
 30
0.0
 11
-383.58885961609
 21
-45.5678406524837
 31
0.0
  0
LINE
  5
   746
  8
0
  6
CONTINUOUS
 62
     2
 10
-405.888610839844
 20
-11.717840271014
 30
0.0
 11
-407.888610839844
 21
-11.717840271014
 31
0.0
  0
LINE
  5
   747
  8
0
  6
CONTINUOUS
 62
     7
 10
-359.788612365723
 20
-11.717840271014
 30
0.0
 11
-368.388618469238
 21
-11.717840271014
 31
0.0
  0
LINE
  5
   748
  8
0
  6
CONTINUOUS
 62
   218
 10
-358.388610839844
 20
-46.967840271014
 30
0.0
 11
-358.388610839844
 21
-34.9678479004085
 31
0.0
  0
LINE
  5
   749
  8
0
  6
CONTINUOUS
 62
     2
 10
-405.888610839844
 20
-12.967840271014
 30
0.0
 11
-405.888610839844
 21
-11.717840271014
 31
0.0
  0
LINE
  5
   74A
  8
0
  6
CONTINUOUS
 62
   218
 10
-359.788616467092
 20
-32.9678479008563
 30
0.0
 11
-359.638618469628
 21
-32.9678461402545
 31
0.0
  0
LINE
  5
   74B
  8
0
  6
CONTINUOUS
 62
   218
 10
-358.388610839844
 20
-34.9678479004085
 30
0.0
 11
-359.788612365723
 21
-34.9678479004085
 31
0.0
  0
LINE
  5
   74C
  8
0
  6
CONTINUOUS
 62
     7
 10
-359.788612365723
 20
-45.5678387451351
 30
0.0
 11
-359.788612365723
 21
-32.967840271014
 31
0.0
  0
LINE
  5
   74D
  8
0
  6
CONTINUOUS
 62
   218
 10
-359.788612365723
 20
-32.967840271014
 30
0.0
 11
-359.788612365723
 21
-11.717840271014
 31
0.0
  0
LINE
  5
   74E
  8
0
  6
CONTINUOUS
 62
     7
 10
-359.638618469238
 20
-17.467840271014
 30
0.0
 11
-359.788612365723
 21
-17.467840271014
 31
0.0
  0
LINE
  5
   74F
  8
0
  6
CONTINUOUS
 62
   218
 10
-407.888610839886
 20
-29.9678478999138
 30
0.0
 11
-406.888611316745
 21
-29.9678402705192
 31
0.0
  0
LINE
  5
   750
  8
0
  6
CONTINUOUS
 62
   218
 10
-406.888611316681
 20
-43.8178981998736
 30
0.0
 11
-406.888611316681
 21
-29.9678479004083
 31
0.0
  0
LINE
  5
   751
  8
0
  6
CONTINUOUS
 62
   218
 10
-406.888610839844
 20
-35.3428479004085
 30
0.0
 11
-407.888610839844
 21
-35.3428479004085
 31
0.0
  0
LINE
  5
   752
  8
0
  6
CONTINUOUS
 62
     7
 10
-370.888624190207
 20
-11.717840268293
 30
0.0
 11
-370.888616560813
 21
-10.7178402682702
 31
0.0
  0
LINE
  5
   753
  8
0
  6
CONTINUOUS
 62
     7
 10
-370.888610839844
 20
-10.717840271014
 30
0.0
 11
-375.888610839844
 21
-10.717840271014
 31
0.0
  0
LINE
  5
   754
  8
0
  6
CONTINUOUS
 62
     7
 10
-368.388618469238
 20
-11.717840271014
 30
0.0
 11
-370.888618469238
 21
-11.717840271014
 31
0.0
  0
LINE
  5
   755
  8
0
  6
CONTINUOUS
 62
   218
 10
-406.888610839844
 20
-39.7016435432613
 30
0.0
 11
-407.888610839844
 21
-39.7016435432613
 31
0.0
  0
LINE
  5
   756
  8
0
  6
CONTINUOUS
 62
   218
 10
-406.888610839844
 20
-38.4751492309749
 30
0.0
 11
-407.888610839844
 21
-38.4751492309749
 31
0.0
  0
LINE
  5
   757
  8
0
  6
CONTINUOUS
 62
   218
 10
-406.888610839844
 20
-35.4067364502132
 30
0.0
 11
-407.888610839844
 21
-35.4067364502132
 31
0.0
  0
LINE
  5
   758
  8
0
  6
CONTINUOUS
 62
     7
 10
-357.138618469238
 20
-17.2178402710137
 30
0.0
 11
-359.638618469238
 21
-17.2178402710137
 31
0.0
  0
LINE
  5
   759
  8
0
  6
CONTINUOUS
 62
     7
 10
-357.138618469238
 20
-34.7178402710137
 30
0.0
 11
-359.638618469238
 21
-34.7178402710137
 31
0.0
  0
LINE
  5
   75A
  8
0
  6
CONTINUOUS
 62
     7
 10
-357.138618469238
 20
-34.7178402710137
 30
0.0
 11
-357.138618469238
 21
-17.2178402710137
 31
0.0
  0
LINE
  5
   75B
  8
0
  6
CONTINUOUS
 62
     7
 10
-358.138618469238
 20
-34.7178402710137
 30
0.0
 11
-358.138618469238
 21
-17.2178402710137
 31
0.0
  0
LINE
  5
   75C
  8
0
  6
CONTINUOUS
 62
     7
 10
-359.638618469238
 20
-34.7178402710137
 30
0.0
 11
-359.638618469238
 21
-17.2178402710137
 31
0.0
  0
ARC
  5
   75D
  8
0
  6
CONTINUOUS
 62
     7
 10
-341.301092083982
 20
6.38521899645478
 30
0.0
 40
0.499999897877905
 50
348.623573369035
 51
436.688788706936
  0
ARC
  5
   75E
  8
0
  6
CONTINUOUS
 62
     7
 10
-341.8994642839
 20
3.41131001245593
 30
0.0
 40
0.50000037262337
 50
260.593992196011
 51
348.623573369035
  0
LINE
  5
   75F
  8
0
  6
DASHDOT
 62
     7
 10
-333.900799758208
 20
3.33088835855754
 30
0.0
 11
-358.959142992662
 21
8.37280852645578
 31
0.0
  0
LINE
  5
   760
  8
0
  6
CONTINUOUS
 62
     7
 10
-341.185972111635
 20
6.87178546615348
 30
0.0
 11
-351.638618469239
 21
9.34484605412533
 31
0.0
  0
LINE
  5
   761
  8
0
  6
CONTINUOUS
 62
     7
 10
-341.40928783902
 20
3.31268296117243
 30
0.0
 11
-340.810915803395
 21
6.28659197822812
 31
0.0
  0
LINE
  5
   762
  8
0
  6
CONTINUOUS
 62
     7
 10
-341.981179022494
 20
2.91803228958454
 30
0.0
 11
-351.638618469239
 21
4.51785142448584
 31
0.0
  0
LINE
  5
   763
  8
0
  6
CONTINUOUS
 62
     7
 10
-405.388642883302
 20
-2.71786499023438
 30
0.0
 11
-405.388642883302
 21
2.78213500976563
 31
0.0
  0
LINE
  5
   764
  8
0
  6
CONTINUOUS
 62
     7
 10
-395.388622508397
 20
76.0321273803711
 30
0.0
 11
-397.888622508397
 21
76.0321273803711
 31
0.0
  0
LINE
  5
   765
  8
0
  6
DASHDOT
 62
     7
 10
-387.536652021921
 20
71.0321529606158
 30
0.0
 11
-401.603294039359
 21
71.0321529606158
 31
0.0
  0
LINE
  5
   766
  8
0
  6
CONTINUOUS
 62
     7
 10
-395.388623462071
 20
73.0321529606158
 30
0.0
 11
-397.888622508397
 21
73.0321529606158
 31
0.0
  0
LINE
  5
   767
  8
0
  6
CONTINUOUS
 62
     7
 10
-395.388623462071
 20
69.0321529606158
 30
0.0
 11
-397.888622508397
 21
69.0321529606158
 31
0.0
  0
LINE
  5
   768
  8
0
  6
CONTINUOUS
 62
     7
 10
-390.762275634883
 20
60.7865164309861
 30
0.0
 11
-388.490847571173
 21
65.7983125457521
 31
0.0
  0
LINE
  5
   769
  8
0
  6
CONTINUOUS
 62
     7
 10
-395.388623462071
 20
60.7865164309862
 30
0.0
 11
-395.388623462071
 21
76.0321273803711
 31
0.0
  0
LINE
  5
   76A
  8
0
  6
CONTINUOUS
 62
     7
 10
-397.888622508397
 20
60.7865164309862
 30
0.0
 11
-397.888622508397
 21
69.0321529606158
 31
0.0
  0
LINE
  5
   76B
  8
0
  6
CONTINUOUS
 62
     2
 10
-406.888656616443
 20
70.6879272460937
 30
0.0
 11
-406.888656616443
 21
80.0321268418315
 31
0.0
  0
LINE
  5
   76C
  8
0
  6
CONTINUOUS
 62
     7
 10
-388.611487046711
 20
65.5321273803711
 30
0.0
 11
-395.388623462071
 21
65.5321273803711
 31
0.0
  0
INSERT
  5
   76D
  8
0
  6
CONTINUOUS
 62
     7
  2
*HATCH1057
 10
-356.388641357422
 20
-37.5863952636719
 30
0.0
 41
0.5
 42
0.5
 50
89.9999999480344
 43
0.5
  0
LINE
  5
   76E
  8
0
  6
CONTINUOUS
 62
     7
 10
-389.517919795249
 20
63.5321273803711
 30
0.0
 11
-395.388623462071
 21
63.5321273803711
 31
0.0
  0
INSERT
  5
   76F
  8
0
  6
CONTINUOUS
 62
     7
  2
*HATCH1058
 10
-356.388641357422
 20
-37.5863952636719
 30
0.0
 41
0.5
 42
0.5
 50
89.9999999480344
 43
0.5
  0
LINE
  5
   770
  8
0
  6
CONTINUOUS
 62
     2
 10
-370.888641357422
 20
80.0321273803711
 30
0.0
 11
-388.288623462071
 21
80.0321273803711
 31
0.0
  0
LINE
  5
   771
  8
0
  6
DASHDOT
 62
     7
 10
-407.888610839844
 20
-43.8178981998736
 30
0.0
 11
-407.888610839844
 21
88.588232531828
 31
0.0
  0
LINE
  5
   772
  8
0
  6
DASHDOT
 62
     7
 10
-409.388610839844
 20
-43.8178981998736
 30
0.0
 11
-409.388610839844
 21
88.588232531828
 31
0.0
  0
LINE
  5
   773
  8
0
  6
CONTINUOUS
 62
     7
 10
-406.323750214277
 20
88.588232531828
 30
0.0
 11
-411.392646086305
 21
88.588232531828
 31
0.0
  0
ARC
  5
   774
  8
0
  6
CONTINUOUS
 62
     7
 10
-378.388618469238
 20
12.2821597289863
 30
0.0
 40
38.0220413050115
 50
333.082565820193
 51
379.93594827737
  0
LINE
  5
   775
  8
0
  6
CONTINUOUS
 62
     7
 10
-340.366577164227
 20
12.2821597289862
 30
0.0
 11
-340.366577164227
 21
33.9567992444185
 31
0.0
  0
LINE
  5
   776
  8
0
  6
CONTINUOUS
 62
     7
 10
-390.762275634883
 20
60.7865164309862
 30
0.0
 11
-409.092695720958
 21
60.7865164309862
 31
0.0
  0
INSERT
  5
   777
  8
0
  6
CONTINUOUS
 62
     7
  2
*HATCH1059
 10
-356.388641357422
 20
-37.5863952636719
 30
0.0
 41
0.5
 42
0.5
 50
89.9999999480344
 43
0.5
  0
LINE
  5
   778
  8
0
  6
CONTINUOUS
 62
     7
 10
-397.888622508397
 20
62.2821273803711
 30
0.0
 11
-400.388622508397
 21
62.2821273803711
 31
0.0
  0
LINE
  5
   779
  8
0
  6
CONTINUOUS
 62
     7
 10
-401.884233457782
 20
60.7865164309862
 30
0.0
 11
-400.388622508397
 21
62.282127380371
 31
0.0
  0
INSERT
  5
   77A
  8
0
  6
CONTINUOUS
 62
     7
  2
*HATCH1060
 10
-356.388641357422
 20
-37.5863952636719
 30
0.0
 41
0.5
 42
0.5
 50
89.9999999480344
 43
0.5
  0
LINE
  5
   77B
  8
0
  6
DASHDOT
 62
     7
 10
-387.536652021921
 20
-37.9678981998736
 30
0.0
 11
-401.603294039359
 21
-37.9678981998736
 31
0.0
  0
LINE
  5
   77C
  8
0
  6
CONTINUOUS
 62
     7
 10
-395.388622508397
 20
-42.9678726196289
 30
0.0
 11
-397.888622508397
 21
-42.9678726196289
 31
0.0
  0
LINE
  5
   77D
  8
0
  6
CONTINUOUS
 62
     7
 10
-397.888622508397
 20
-42.9678726196289
 30
0.0
 11
-397.888622508397
 21
-27.722261670244
 31
0.0
  0
LINE
  5
   77E
  8
0
  6
CONTINUOUS
 62
     7
 10
-395.388623462071
 20
-35.9678981998736
 30
0.0
 11
-397.888622508397
 21
-35.9678981998736
 31
0.0
  0
LINE
  5
   77F
  8
0
  6
CONTINUOUS
 62
     7
 10
-395.388623462071
 20
-39.9678981998736
 30
0.0
 11
-397.888622508397
 21
-39.9678981998736
 31
0.0
  0
LINE
  5
   780
  8
0
  6
CONTINUOUS
 62
     7
 10
-395.388623462071
 20
-42.9678726196289
 30
0.0
 11
-395.388623462071
 21
-39.9678981998736
 31
0.0
  0
LINE
  5
   781
  8
0
  6
CONTINUOUS
 62
     7
 10
-387.456995149966
 20
-27.722261670244
 30
0.0
 11
-412.442895257168
 21
-27.722261670244
 31
0.0
  0
LINE
  5
   782
  8
0
  6
CONTINUOUS
 62
     7
 10
-382.776973612858
 20
-48.5235302198026
 30
0.0
 11
-388.694686796143
 21
-26.979960003531
 31
0.0
  0
INSERT
  5
   783
  8
0
  6
CONTINUOUS
 62
     7
  2
*HATCH1061
 10
-356.388641357422
 20
-37.5863952636719
 30
0.0
 41
0.5
 42
0.5
 50
89.9999999480344
 43
0.5
  0
INSERT
  5
   784
  8
0
  6
CONTINUOUS
 62
     7
  2
*HATCH1062
 10
-356.388641357422
 20
-37.5863952636719
 30
0.0
 41
0.5
 42
0.5
 50
89.9999999480344
 43
0.5
  0
LINE
  5
   785
  8
0
  6
CONTINUOUS
 62
     7
 10
-397.888622508397
 20
-30.4678981998736
 30
0.0
 11
-406.888611316681
 21
-30.4678981998736
 31
0.0
  0
LINE
  5
   786
  8
0
  6
CONTINUOUS
 62
     7
 10
-397.888622508397
 20
-28.4678981998736
 30
0.0
 11
-407.888610839844
 21
-28.4678981998736
 31
0.0
  0
LINE
  5
   787
  8
0
  6
CONTINUOUS
 62
     7
 10
-387.187228009715
 20
-32.4678981998736
 30
0.0
 11
-395.388623462071
 21
-32.4678981998736
 31
0.0
  0
INSERT
  5
   788
  8
0
  6
CONTINUOUS
 62
     7
  2
*HATCH1063
 10
-356.388641357422
 20
-37.5863952636719
 30
0.0
 41
0.5
 42
0.5
 50
89.9999999480344
 43
0.5
  0
LINE
  5
   789
  8
0
  6
CONTINUOUS
 62
     7
 10
-387.736599643467
 20
-30.4678981998736
 30
0.0
 11
-395.388623462071
 21
-30.4678981998736
 31
0.0
  0
INSERT
  5
   78A
  8
0
  6
CONTINUOUS
 62
     7
  2
*HATCH1064
 10
-356.388641357422
 20
-37.5863952636719
 30
0.0
 41
0.5
 42
0.5
 50
89.9999999480344
 43
0.5
  0
LINE
  5
   78B
  8
0
  6
CONTINUOUS
 62
     7
 10
-375.888626098633
 20
-12.9678497314447
 30
0.0
 11
-405.888610839844
 21
-12.9678497314447
 31
0.0
  0
LINE
  5
   78C
  8
0
  6
CONTINUOUS
 62
     7
 10
-351.638618469238
 20
24.1571426391602
 30
0.0
 11
-351.638618469238
 21
43.6571444701972
 31
0.0
  0
LINE
  5
   78D
  8
0
  6
CONTINUOUS
 62
     7
 10
-351.638618469238
 20
17.6571426391602
 30
0.0
 11
-351.638618469238
 21
23.6571426391602
 31
0.0
  0
LINE
  5
   78E
  8
0
  6
CONTINUOUS
 62
     7
 10
-351.638618469238
 20
7.40715789794815
 30
0.0
 11
-351.638618469238
 21
17.1571426391602
 31
0.0
  0
LINE
  5
   78F
  8
0
  6
CONTINUOUS
 62
     7
 10
-351.638618469238
 20
0.907142639160156
 30
0.0
 11
-351.638618469238
 21
6.9071578979482
 31
0.0
  0
LINE
  5
   790
  8
0
  6
CONTINUOUS
 62
     1
 10
-354.388615608215
 20
-10.0960826873779
 30
0.0
 11
-354.388615608215
 21
-9.09608268737793
 31
0.0
  0
LINE
  5
   791
  8
0
  6
CONTINUOUS
 62
     1
 10
-353.388615608215
 20
-10.0960826873779
 30
0.0
 11
-354.388615608215
 21
-10.0960826873779
 31
0.0
  0
LINE
  5
   792
  8
0
  6
CONTINUOUS
 62
     1
 10
-354.388615608215
 20
43.9039154052734
 30
0.0
 11
-354.388615608215
 21
44.9039154052734
 31
0.0
  0
LINE
  5
   793
  8
0
  6
CONTINUOUS
 62
     1
 10
-353.388615608215
 20
44.9039154052734
 30
0.0
 11
-354.388615608215
 21
44.9039154052734
 31
0.0
  0
LINE
  5
   794
  8
0
  6
CONTINUOUS
 62
     1
 10
-354.388615608215
 20
-9.09608268737793
 30
0.0
 11
-354.388615608215
 21
43.9039173126221
 31
0.0
  0
LINE
  5
   795
  8
0
  6
CONTINUOUS
 62
     1
 10
-356.638615608215
 20
51.6925888061524
 30
0.0
 11
-356.638615608215
 21
54.1152420043945
 31
0.0
  0
LINE
  5
   796
  8
0
  6
CONTINUOUS
 62
     1
 10
-353.388615608215
 20
-23.3460826873779
 30
0.0
 11
-353.388615608215
 21
58.1539173126221
 31
0.0
  0
LINE
  5
   797
  8
0
  6
CONTINUOUS
 62
     1
 10
-351.638615608215
 20
-23.3460826873779
 30
0.0
 11
-353.388615608215
 21
-23.3460826873779
 31
0.0
  0
LINE
  5
   798
  8
0
  6
CONTINUOUS
 62
     1
 10
-351.638615608215
 20
-23.3460845947266
 30
0.0
 11
-351.638615608215
 21
58.1539154052734
 31
0.0
  0
LINE
  5
   799
  8
0
  6
CONTINUOUS
 62
     1
 10
-351.638615608215
 20
58.1539154052734
 30
0.0
 11
-352.138615608215
 21
58.1539154052734
 31
0.0
  0
LINE
  5
   79A
  8
0
  6
CONTINUOUS
 62
     1
 10
-352.638615608215
 20
58.1539154052734
 30
0.0
 11
-353.388615608215
 21
58.1539154052734
 31
0.0
  0
LINE
  5
   79B
  8
0
  6
CONTINUOUS
 62
     1
 10
-353.388615608215
 20
51.4039154052734
 30
0.0
 11
-356.138617206529
 21
51.4039154052734
 31
0.0
  0
LINE
  5
   79C
  8
0
  6
CONTINUOUS
 62
     1
 10
-353.388615608215
 20
54.4039154052734
 30
0.0
 11
-356.138613969952
 21
54.4039154052734
 31
0.0
  0
LINE
  5
   79D
  8
0
  6
CONTINUOUS
 62
     1
 10
-356.138615615066
 20
51.4039154052734
 30
0.0
 11
-356.138615615066
 21
51.5180969238281
 31
0.0
  0
LINE
  5
   79E
  8
0
  6
CONTINUOUS
 62
     1
 10
-356.138615217204
 20
51.4039142567427
 30
0.0
 11
-356.638615233667
 21
51.6925876612409
 31
0.0
  0
LINE
  5
   79F
  8
0
  6
CONTINUOUS
 62
     1
 10
-356.138615615066
 20
51.5180969238281
 30
0.0
 11
-356.138615615066
 21
51.8432540893555
 31
0.0
  0
LINE
  5
   7A0
  8
0
  6
CONTINUOUS
 62
     1
 10
-356.138615615066
 20
51.8432540893555
 30
0.0
 11
-356.138615615066
 21
52.3298950195313
 31
0.0
  0
LINE
  5
   7A1
  8
0
  6
CONTINUOUS
 62
     1
 10
-356.138615615066
 20
52.3298950195313
 30
0.0
 11
-356.138615615066
 21
52.9039154052734
 31
0.0
  0
LINE
  5
   7A2
  8
0
  6
CONTINUOUS
 62
     1
 10
-356.138615615066
 20
52.9039154052734
 30
0.0
 11
-356.138615615066
 21
53.4779434204102
 31
0.0
  0
LINE
  5
   7A3
  8
0
  6
CONTINUOUS
 62
     1
 10
-356.138615615066
 20
53.4779434204102
 30
0.0
 11
-356.138615615066
 21
53.9645767211914
 31
0.0
  0
LINE
  5
   7A4
  8
0
  6
CONTINUOUS
 62
     1
 10
-356.138615615066
 20
53.9645767211914
 30
0.0
 11
-356.138615615066
 21
54.2897338867188
 31
0.0
  0
LINE
  5
   7A5
  8
0
  6
CONTINUOUS
 62
     1
 10
-356.138615615066
 20
54.2897338867188
 30
0.0
 11
-356.138615615066
 21
54.4039154052734
 31
0.0
  0
LINE
  5
   7A6
  8
0
  6
CONTINUOUS
 62
     1
 10
-356.638616042804
 20
54.1152408135255
 30
0.0
 11
-356.138616026341
 21
54.4039142180237
 31
0.0
  0
LINE
  5
   7A7
  8
0
  6
CONTINUOUS
 62
     1
 10
-353.388615608215
 20
-16.5960826873779
 30
0.0
 11
-356.13861461251
 21
-16.5960826873779
 31
0.0
  0
LINE
  5
   7A8
  8
0
  6
CONTINUOUS
 62
     1
 10
-353.388615608215
 20
-19.5960826873779
 30
0.0
 11
-356.138615598408
 21
-19.5960826873779
 31
0.0
  0
LINE
  5
   7A9
  8
0
  6
CONTINUOUS
 62
     1
 10
-356.138615598408
 20
-16.7102642059326
 30
0.0
 11
-356.138615598408
 21
-16.5960826873779
 31
0.0
  0
LINE
  5
   7AA
  8
0
  6
CONTINUOUS
 62
     1
 10
-356.13861559842
 20
-17.0354232788086
 30
0.0
 11
-356.13861559842
 21
-16.7102642059326
 31
0.0
  0
LINE
  5
   7AB
  8
0
  6
CONTINUOUS
 62
     1
 10
-356.138615598406
 20
-17.5220565795899
 30
0.0
 11
-356.138615598406
 21
-17.0354232788086
 31
0.0
  0
LINE
  5
   7AC
  8
0
  6
CONTINUOUS
 62
     1
 10
-356.138615598441
 20
-18.0960826873779
 30
0.0
 11
-356.138615598441
 21
-17.5220565795899
 31
0.0
  0
LINE
  5
   7AD
  8
0
  6
CONTINUOUS
 62
     1
 10
-356.138615598379
 20
-18.6701068878174
 30
0.0
 11
-356.138615598379
 21
-18.0960826873779
 31
0.0
  0
LINE
  5
   7AE
  8
0
  6
CONTINUOUS
 62
     1
 10
-356.138615598406
 20
-19.1567420959473
 30
0.0
 11
-356.138615598406
 21
-18.6701068878174
 31
0.0
  0
LINE
  5
   7AF
  8
0
  6
CONTINUOUS
 62
     1
 10
-356.138615598419
 20
-19.5960826873779
 30
0.0
 11
-356.138615598419
 21
-19.1567420959473
 31
0.0
  0
LINE
  5
   7B0
  8
0
  6
CONTINUOUS
 62
     1
 10
-356.138615598408
 20
-19.5960826873779
 30
0.0
 11
-356.138615598408
 21
-19.4819011688233
 31
0.0
  0
LINE
  5
   7B1
  8
0
  6
CONTINUOUS
 62
     1
 10
-352.138615608215
 20
58.1539154052734
 30
0.0
 11
-352.638615608215
 21
58.1539154052734
 31
0.0
  0
LINE
  5
   7B2
  8
0
  6
CONTINUOUS
 62
     7
 10
-356.63861586929
 20
-16.8847586957313
 30
0.0
 11
-356.138615852826
 21
-16.5960834034748
 31
0.0
  0
LINE
  5
   7B3
  8
0
  6
CONTINUOUS
 62
     7
 10
-356.138615391245
 20
-19.5960833011275
 30
0.0
 11
-356.63861540771
 21
-19.3074080088709
 31
0.0
  0
LINE
  5
   7B4
  8
0
  6
CONTINUOUS
 62
     7
 10
-354.388615608215
 20
-50.6618322445843
 30
0.0
 11
-354.388615608215
 21
-19.5960826873779
 31
0.0
  0
LINE
  5
   7B5
  8
0
  6
CONTINUOUS
 62
     7
 10
-353.388615608215
 20
-50.048039141136
 30
0.0
 11
-353.388615608215
 21
-23.3460826873779
 31
0.0
  0
LINE
  5
   7B6
  8
0
  6
CONTINUOUS
 62
     7
 10
-353.388615608215
 20
54.6539154052734
 30
0.0
 11
-353.388615608215
 21
87.2494667756188
 31
0.0
  0
LINE
  5
   7B7
  8
0
  6
CONTINUOUS
 62
     7
 10
-353.388615608215
 20
-10.5960826873779
 30
0.0
 11
-354.388615608215
 21
-10.5960826873779
 31
0.0
  0
LINE
  5
   7B8
  8
0
  6
CONTINUOUS
 62
     7
 10
-353.388615608215
 20
45.4039154052734
 30
0.0
 11
-354.388615608215
 21
45.4039154052734
 31
0.0
  0
LINE
  5
   7B9
  8
0
  6
CONTINUOUS
 62
     7
 10
-353.388615608215
 20
54.6539154052734
 30
0.0
 11
-354.388615608215
 21
54.6539154052734
 31
0.0
  0
LINE
  5
   7BA
  8
0
  6
CONTINUOUS
 62
     7
 10
-353.388615608215
 20
51.1539154052734
 30
0.0
 11
-354.388615608215
 21
51.1539154052734
 31
0.0
  0
LINE
  5
   7BB
  8
0
  6
CONTINUOUS
 62
     7
 10
-353.388615608215
 20
-16.3460826873779
 30
0.0
 11
-354.388615608215
 21
-16.3460826873779
 31
0.0
  0
LINE
  5
   7BC
  8
0
  6
CONTINUOUS
 62
     7
 10
-353.388615608215
 20
-19.8460826873779
 30
0.0
 11
-354.388615608215
 21
-19.8460826873779
 31
0.0
  0
LINE
  5
   7BD
  8
0
  6
CONTINUOUS
 62
     7
 10
-354.388615608215
 20
-16.5960826873779
 30
0.0
 11
-354.388615608215
 21
51.4039154052734
 31
0.0
  0
LINE
  5
   7BE
  8
0
  6
CONTINUOUS
 62
     7
 10
-354.388615608215
 20
54.4039154052734
 30
0.0
 11
-354.388615608215
 21
86.7102510893443
 31
0.0
  0
LINE
  5
   7BF
  8
0
  6
CONTINUOUS
 62
     7
 10
-355.585510371882
 20
86.0648666579552
 30
0.0
 11
-351.931358286513
 21
88.0352427824194
 31
0.0
  0
LINE
  5
   7C0
  8
0
  6
CONTINUOUS
 62
     7
 10
-356.051235637665
 20
-51.6823369523154
 30
0.0
 11
-350.856607673168
 21
-48.4939101327279
 31
0.0
  0
INSERT
  5
   7C1
  8
0
  6
CONTINUOUS
 62
     7
  2
*HATCH1065
 10
-356.388641357422
 20
-37.5863952636719
 30
0.0
 41
0.5
 42
0.5
 50
89.9999999480344
 43
0.5
  0
INSERT
  5
   7C2
  8
0
  6
CONTINUOUS
 62
     7
  2
*HATCH1066
 10
-356.388641357422
 20
-37.5863952636719
 30
0.0
 41
0.5
 42
0.5
 50
89.9999999480344
 43
0.5
  0
INSERT
  5
   7C3
  8
0
  6
CONTINUOUS
 62
     7
  2
*HATCH1067
 10
-356.388641357422
 20
-37.5863952636719
 30
0.0
 41
0.5
 42
0.5
 50
89.9999999480344
 43
0.5
  0
INSERT
  5
   7C4
  8
0
  6
CONTINUOUS
 62
     7
  2
*HATCH1068
 10
-356.388641357422
 20
-37.5863952636719
 30
0.0
 41
0.5
 42
0.5
 50
89.9999999480344
 43
0.5
  0
LINE
  5
   7C5
  8
0
  6
CONTINUOUS
 62
     7
 10
-356.63861540771
 20
-19.3074080088709
 30
0.0
 11
-356.63861586929
 21
-16.8847586957313
 31
0.0
  0
LINE
  5
   7C6
  8
0
  6
DASHDOT
 62
     7
 10
-328.494595415051
 20
17.4071444701972
 30
0.0
 11
-415.76774801288
 21
17.4071444701972
 31
0.0
  0
INSERT
  5
   7C7
  8
255
  6
CONTINUOUS
 62
     7
  2
$1159488
 10
-360.138640403748
 20
-37.5863952636719
 30
0.0
 41
0.5
 42
0.5
 50
359.999999792138
 43
0.5
  0
LINE
  5
   7C8
  8
0
  6
CONTINUOUS
 62
     7
 10
-397.888622508397
 20
73.0321529606158
 30
0.0
 11
-397.888622508397
 21
76.0321273803711
 31
0.0
  0
LINE
  5
   7C9
  8
0
  6
CONTINUOUS
 62
     7
 10
-376.413844014389
 20
65.7983125457521
 30
0.0
 11
-388.490847571173
 21
65.7983125457521
 31
0.0
  0
LINE
  5
   7CA
  8
0
  6
CONTINUOUS
 62
     7
 10
-376.413844014389
 20
65.7983125457522
 30
0.0
 11
-368.955562076537
 21
82.2546507570142
 31
0.0
  0
INSERT
  5
   7CB
  8
255
  6
CONTINUOUS
 62
     1
  2
MORSETTO
 10
-395.388623462071
 20
-37.9678981998736
 30
0.0
 41
0.5
 42
0.5
 50
3.50835464724173E-15
 43
0.5
  0
LINE
  5
   7CC
  8
0
  6
CONTINUOUS
 62
    98
 10
-357.763618469238
 20
-69.9678479004085
 30
0.0
 11
-406.888610839844
 21
-69.9678479004085
 31
0.0
  0
LINE
  5
   7CD
  8
0
  6
CONTINUOUS
 62
    98
 10
-406.888610839844
 20
-69.9678479004085
 30
0.0
 11
-406.888610839844
 21
-51.8178981998736
 31
0.0
  0
ARC
  5
   7CE
  8
0
  6
CONTINUOUS
 62
    98
 10
-357.763618469238
 20
-69.3428479004085
 30
0.0
 40
0.625
 50
269.999999948034
 51
359.999999948034
  0
LINE
  5
   7CF
  8
0
  6
CONTINUOUS
 62
    98
 10
-357.138618469238
 20
-69.3428479004085
 30
0.0
 11
-357.138618469238
 21
-49.4678479004085
 31
0.0
  0
LINE
  5
   7D0
  8
0
  6
CONTINUOUS
 62
    98
 10
-357.138618469238
 20
-49.4678479004085
 30
0.0
 11
-357.138618469238
 21
-35.4678479004085
 31
0.0
  0
LINE
  5
   7D1
  8
0
  6
CONTINUOUS
 62
    98
 10
-357.138618469238
 20
-35.4678479004085
 30
0.0
 11
-357.638618469238
 21
-35.4678479004085
 31
0.0
  0
LINE
  5
   7D2
  8
0
  6
CONTINUOUS
 62
    98
 10
-357.638618469238
 20
-34.9678479004085
 30
0.0
 11
-358.638614654541
 21
-34.9678479004085
 31
0.0
  0
LINE
  5
   7D3
  8
0
  6
CONTINUOUS
 62
    98
 10
-357.638618469238
 20
-35.4678479004085
 30
0.0
 11
-357.638618469238
 21
-34.9678479004085
 31
0.0
  0
LINE
  5
   7D4
  8
0
  6
CONTINUOUS
 62
    98
 10
-358.388610839844
 20
-48.3178479004085
 30
0.0
 11
-358.388610839844
 21
-34.9678479004085
 31
0.0
  0
LINE
  5
   7D5
  8
0
  6
CONTINUOUS
 62
    98
 10
-358.388610839844
 20
-46.752488038197
 30
0.0
 11
-358.388610839844
 21
-43.9678479004085
 31
0.0
  0
LINE
  5
   7D6
  8
0
  6
CONTINUOUS
 62
    98
 10
-358.388610839844
 20
-58.8178479004085
 30
0.0
 11
-369.638618469238
 21
-58.8178479004085
 31
0.0
  0
LINE
  5
   7D7
  8
0
  6
CONTINUOUS
 62
    98
 10
-358.388610839844
 20
-49.3178479004085
 30
0.0
 11
-369.638618469238
 21
-49.3178479004085
 31
0.0
  0
LINE
  5
   7D8
  8
0
  6
CONTINUOUS
 62
    98
 10
-358.388610839844
 20
-59.8178479004085
 30
0.0
 11
-368.388618469238
 21
-59.8178479004085
 31
0.0
  0
LINE
  5
   7D9
  8
0
  6
CONTINUOUS
 62
    98
 10
-358.388610839844
 20
-48.3178479004085
 30
0.0
 11
-368.388618469238
 21
-48.3178479004085
 31
0.0
  0
LINE
  5
   7DA
  8
0
  6
CONTINUOUS
 62
     1
 10
-368.388618469238
 20
-48.3178479004085
 30
0.0
 11
-368.388618469238
 21
-47.3178479004085
 31
0.0
  0
LINE
  5
   7DB
  8
0
  6
CONTINUOUS
 62
    98
 10
-368.388618469238
 20
-69.9678479004085
 30
0.0
 11
-368.388618469238
 21
-59.8178479004085
 31
0.0
  0
LINE
  5
   7DC
  8
0
  6
CONTINUOUS
 62
    98
 10
-358.388610839844
 20
-69.9678479004085
 30
0.0
 11
-358.388610839844
 21
-59.8178479004085
 31
0.0
  0
LINE
  5
   7DD
  8
0
  6
CONTINUOUS
 62
    98
 10
-358.388610839844
 20
-58.8178479004085
 30
0.0
 11
-358.388610839844
 21
-49.3178479004085
 31
0.0
  0
LINE
  5
   7DE
  8
0
  6
CONTINUOUS
 62
    98
 10
-369.638618469238
 20
-68.9678479004085
 30
0.0
 11
-406.888610839844
 21
-68.9678479004085
 31
0.0
  0
LINE
  5
   7DF
  8
0
  6
CONTINUOUS
 62
    98
 10
-369.638618469238
 20
-67.9678479004085
 30
0.0
 11
-406.888610839844
 21
-67.9678479004085
 31
0.0
  0
LINE
  5
   7E0
  8
0
  6
CONTINUOUS
 62
    98
 10
-369.638618469238
 20
-66.9678479004085
 30
0.0
 11
-406.888610839844
 21
-66.9678479004085
 31
0.0
  0
LINE
  5
   7E1
  8
0
  6
CONTINUOUS
 62
    98
 10
-368.388618469238
 20
-47.3178479004085
 30
0.0
 11
-387.888623462071
 21
-47.3178479004085
 31
0.0
  0
LINE
  5
   7E2
  8
0
  6
CONTINUOUS
 62
    98
 10
-369.638618469238
 20
-48.3178479004085
 30
0.0
 11
-387.888623462071
 21
-48.3178479004085
 31
0.0
  0
LINE
  5
   7E3
  8
0
  6
CONTINUOUS
 62
    98
 10
-369.638618469238
 20
-69.9678479004085
 30
0.0
 11
-369.638618469238
 21
-48.3178479004085
 31
0.0
  0
LINE
  5
   7E4
  8
0
  6
CONTINUOUS
 62
     1
 10
-375.638618469238
 20
-48.3178479004085
 30
0.0
 11
-375.638618469238
 21
-47.3178479004085
 31
0.0
  0
INSERT
  5
   7E5
  8
0
  6
CONTINUOUS
 62
    98
  2
*HATCH1077
 10
-356.388641357422
 20
-37.5863952636719
 30
0.0
 41
0.5
 42
0.5
 50
89.9999999480344
 43
0.5
  0
LINE
  5
   7E6
  8
0
  6
CONTINUOUS
 62
     7
 10
-395.388623462071
 20
-35.9678981998736
 30
0.0
 11
-395.388623462071
 21
-27.722261670244
 31
0.0
  0
LINE
  5
   7E7
  8
0
  6
CONTINUOUS
 62
     7
 10
-412.824889200178
 20
-77.9446991209215
 30
0.0
 11
-404.513500295759
 21
-75.2128681065206
 31
0.0
  0
LINE
  5
   7E8
  8
0
  6
DASHDOT
 62
     7
 10
-407.888610839844
 20
-76.3222171897359
 30
0.0
 11
-407.888610839844
 21
-51.8178981998736
 31
0.0
  0
LINE
  5
   7E9
  8
0
  6
DASHDOT
 62
     7
 10
-409.388610839844
 20
-76.8152450781821
 30
0.0
 11
-409.388610839844
 21
-51.8178981998736
 31
0.0
  0
LINE
  5
   7EA
  8
0
  6
CONTINUOUS
 62
   218
 10
-387.888623462071
 20
-50.9178981998736
 30
0.0
 11
-399.388623462071
 21
-50.9178981998736
 31
0.0
  0
LINE
  5
   7EB
  8
0
  6
CONTINUOUS
 62
   218
 10
-387.888623462071
 20
-44.7178981998736
 30
0.0
 11
-399.388623462071
 21
-44.7178981998736
 31
0.0
  0
LINE
  5
   7EC
  8
0
  6
CONTINUOUS
 62
   218
 10
-387.888623462071
 20
-50.9178981998736
 30
0.0
 11
-387.888623462071
 21
-44.7178981998736
 31
0.0
  0
LINE
  5
   7ED
  8
0
  6
CONTINUOUS
 62
   218
 10
-399.388623462071
 20
-51.8178981998736
 30
0.0
 11
-399.388623462071
 21
-43.8178981998736
 31
0.0
  0
LINE
  5
   7EE
  8
0
  6
DASHDOT
 62
   218
 10
-385.35799052746
 20
-47.8178981998736
 30
0.0
 11
-409.694703033283
 21
-47.8178981998736
 31
0.0
  0
LINE
  5
   7EF
  8
0
  6
CONTINUOUS
 62
   218
 10
-399.388623462071
 20
-43.8178981998736
 30
0.0
 11
-413.694703033283
 21
-43.8178981998736
 31
0.0
  0
LINE
  5
   7F0
  8
0
  6
CONTINUOUS
 62
   218
 10
-399.388623462071
 20
-51.8178981998736
 30
0.0
 11
-413.694703033283
 21
-51.8178981998736
 31
0.0
  0
LINE
  5
   7F1
  8
0
  6
CONTINUOUS
 62
   218
 10
-399.388623462071
 20
-49.845658478021
 30
0.0
 11
-387.888623462071
 21
-47.8178981998736
 31
0.0
  0
POLYLINE
  5
   7F2
  8
0
  6
CONTINUOUS
 62
   218
 66
     1
 10
0.0
 20
0.0
 30
0.0
 70
     1
  0
VERTEX
  5
   7F3
  8
0
  6
CONTINUOUS
 10
-413.694703033283
 20
-43.8178981998736
 30
0.0
 40
0.0
 41
0.0
  0
VERTEX
  5
   7F4
  8
0
  6
CONTINUOUS
 10
-413.719244261806
 20
-43.8185005624812
 30
0.0
 40
0.0
 41
0.0
  0
VERTEX
  5
   7F5
  8
0
  6
CONTINUOUS
 10
-413.743770707611
 20
-43.8203072874632
 30
0.0
 40
0.0
 41
0.0
  0
VERTEX
  5
   7F6
  8
0
  6
CONTINUOUS
 10
-413.768267596883
 20
-43.8233172865162
 30
0.0
 40
0.0
 41
0.0
  0
VERTEX
  5
   7F7
  8
0
  6
CONTINUOUS
 10
-413.792720173613
 20
-43.8275287465292
 30
0.0
 40
0.0
 41
0.0
  0
VERTEX
  5
   7F8
  8
0
  6
CONTINUOUS
 10
-413.817113708482
 20
-43.8329391306762
 30
0.0
 40
0.0
 41
0.0
  0
VERTEX
  5
   7F9
  8
0
  6
CONTINUOUS
 10
-413.841433507738
 20
-43.839545179944
 30
0.0
 40
0.0
 41
0.0
  0
VERTEX
  5
   7FA
  8
0
  6
CONTINUOUS
 10
-413.865664922043
 20
-43.8473429150957
 30
0.0
 40
0.0
 41
0.0
  0
VERTEX
  5
   7FB
  8
0
  6
CONTINUOUS
 10
-413.889793355299
 20
-43.8563276390671
 30
0.0
 40
0.0
 41
0.0
  0
VERTEX
  5
   7FC
  8
0
  6
CONTINUOUS
 10
-413.91380427344
 20
-43.8664939397965
 30
0.0
 40
0.0
 41
0.0
  0
VERTEX
  5
   7FD
  8
0
  6
CONTINUOUS
 10
-413.937683213186
 20
-43.8778356934845
 30
0.0
 40
0.0
 41
0.0
  0
VERTEX
  5
   7FE
  8
0
  6
CONTINUOUS
 10
-413.961415790758
 20
-43.8903460682827
 30
0.0
 40
0.0
 41
0.0
  0
VERTEX
  5
   7FF
  8
0
  6
CONTINUOUS
 10
-413.984987710538
 20
-43.9040175284092
 30
0.0
 40
0.0
 41
0.0
  0
VERTEX
  5
   800
  8
0
  6
CONTINUOUS
 10
-414.008384773682
 20
-43.9188418386875
 30
0.0
 40
0.0
 41
0.0
  0
VERTEX
  5
   801
  8
0
  6
CONTINUOUS
 10
-414.031592886675
 20
-43.9348100695076
 30
0.0
 40
0.0
 41
0.0
  0
VERTEX
  5
   802
  8
0
  6
CONTINUOUS
 10
-414.054598069818
 20
-43.9519126022041
 30
0.0
 40
0.0
 41
0.0
  0
VERTEX
  5
   803
  8
0
  6
CONTINUOUS
 10
-414.077386465648
 20
-43.970139134851
 30
0.0
 40
0.0
 41
0.0
  0
VERTEX
  5
   804
  8
0
  6
CONTINUOUS
 10
-414.122258126713
 20
-44.0099196136267
 30
0.0
 40
0.0
 41
0.0
  0
VERTEX
  5
   805
  8
0
  6
CONTINUOUS
 10
-414.166099770109
 20
-44.0540556711769
 30
0.0
 40
0.0
 41
0.0
  0
VERTEX
  5
   806
  8
0
  6
CONTINUOUS
 10
-414.208805777476
 20
-44.102440979873
 30
0.0
 40
0.0
 41
0.0
  0
VERTEX
  5
   807
  8
0
  6
CONTINUOUS
 10
-414.250273266303
 20
-44.1549589752685
 30
0.0
 40
0.0
 41
0.0
  0
VERTEX
  5
   808
  8
0
  6
CONTINUOUS
 10
-414.290402337776
 20
-44.2114831369123
 30
0.0
 40
0.0
 41
0.0
  0
VERTEX
  5
   809
  8
0
  6
CONTINUOUS
 10
-414.329096317447
 20
-44.2718772931481
 30
0.0
 40
0.0
 41
0.0
  0
VERTEX
  5
   80A
  8
0
  6
CONTINUOUS
 10
-414.36626198813
 20
-44.3359959491637
 30
0.0
 40
0.0
 41
0.0
  0
VERTEX
  5
   80B
  8
0
  6
CONTINUOUS
 10
-414.40180981447
 20
-44.4036846375005
 30
0.0
 40
0.0
 41
0.0
  0
VERTEX
  5
   80C
  8
0
  6
CONTINUOUS
 10
-414.435654158638
 20
-44.4747802901796
 30
0.0
 40
0.0
 41
0.0
  0
VERTEX
  5
   80D
  8
0
  6
CONTINUOUS
 10
-414.467713486646
 20
-44.5491116315463
 30
0.0
 40
0.0
 41
0.0
  0
VERTEX
  5
   80E
  8
0
  6
CONTINUOUS
 10
-414.497910564764
 20
-44.6264995908887
 30
0.0
 40
0.0
 41
0.0
  0
VERTEX
  5
   80F
  8
0
  6
CONTINUOUS
 10
-414.526172645586
 20
-44.7067577338344
 30
0.0
 40
0.0
 41
0.0
  0
VERTEX
  5
   810
  8
0
  6
CONTINUOUS
 10
-414.552431643283
 20
-44.7896927114872
 30
0.0
 40
0.0
 41
0.0
  0
VERTEX
  5
   811
  8
0
  6
CONTINUOUS
 10
-414.576624297631
 20
-44.8751047262216
 30
0.0
 40
0.0
 41
0.0
  0
VERTEX
  5
   812
  8
0
  6
CONTINUOUS
 10
-414.598692326407
 20
-44.962788013013
 30
0.0
 40
0.0
 41
0.0
  0
VERTEX
  5
   813
  8
0
  6
CONTINUOUS
 10
-414.618582565794
 20
-45.0525313351434
 30
0.0
 40
0.0
 41
0.0
  0
VERTEX
  5
   814
  8
0
  6
CONTINUOUS
 10
-414.636247098466
 20
-45.1441184930892
 30
0.0
 40
0.0
 41
0.0
  0
VERTEX
  5
   815
  8
0
  6
CONTINUOUS
 10
-414.651643369015
 20
-45.2373288453647
 30
0.0
 40
0.0
 41
0.0
  0
VERTEX
  5
   816
  8
0
  6
CONTINUOUS
 10
-414.664734286478
 20
-45.3319378400671
 30
0.0
 40
0.0
 41
0.0
  0
VERTEX
  5
   817
  8
0
  6
CONTINUOUS
 10
-414.675488313686
 20
-45.4277175558413
 30
0.0
 40
0.0
 41
0.0
  0
VERTEX
  5
   818
  8
0
  6
CONTINUOUS
 10
-414.683879543248
 20
-45.5244372509629
 30
0.0
 40
0.0
 41
0.0
  0
VERTEX
  5
   819
  8
0
  6
CONTINUOUS
 10
-414.689887759955
 20
-45.6218639192145
 30
0.0
 40
0.0
 41
0.0
  0
VERTEX
  5
   81A
  8
0
  6
CONTINUOUS
 10
-414.693498489488
 20
-45.7197628512188
 30
0.0
 40
0.0
 41
0.0
  0
VERTEX
  5
   81B
  8
0
  6
CONTINUOUS
 10
-414.694703033283
 20
-45.8178981998736
 30
0.0
 40
0.0
 41
0.0
  0
VERTEX
  5
   81C
  8
0
  6
CONTINUOUS
 10
-414.693498489488
 20
-45.9160335485284
 30
0.0
 40
0.0
 41
0.0
  0
VERTEX
  5
   81D
  8
0
  6
CONTINUOUS
 10
-414.689887759955
 20
-46.0139324805327
 30
0.0
 40
0.0
 41
0.0
  0
VERTEX
  5
   81E
  8
0
  6
CONTINUOUS
 10
-414.683879543248
 20
-46.1113591487843
 30
0.0
 40
0.0
 41
0.0
  0
VERTEX
  5
   81F
  8
0
  6
CONTINUOUS
 10
-414.675488313686
 20
-46.2080788439059
 30
0.0
 40
0.0
 41
0.0
  0
VERTEX
  5
   820
  8
0
  6
CONTINUOUS
 10
-414.664734286478
 20
-46.3038585596801
 30
0.0
 40
0.0
 41
0.0
  0
VERTEX
  5
   821
  8
0
  6
CONTINUOUS
 10
-414.651643369015
 20
-46.3984675543825
 30
0.0
 40
0.0
 41
0.0
  0
VERTEX
  5
   822
  8
0
  6
CONTINUOUS
 10
-414.636247098466
 20
-46.491677906658
 30
0.0
 40
0.0
 41
0.0
  0
VERTEX
  5
   823
  8
0
  6
CONTINUOUS
 10
-414.618582565794
 20
-46.5832650646038
 30
0.0
 40
0.0
 41
0.0
  0
VERTEX
  5
   824
  8
0
  6
CONTINUOUS
 10
-414.598692326407
 20
-46.6730083867342
 30
0.0
 40
0.0
 41
0.0
  0
VERTEX
  5
   825
  8
0
  6
CONTINUOUS
 10
-414.576624297631
 20
-46.7606916735256
 30
0.0
 40
0.0
 41
0.0
  0
VERTEX
  5
   826
  8
0
  6
CONTINUOUS
 10
-414.552431643283
 20
-46.84610368826
 30
0.0
 40
0.0
 41
0.0
  0
VERTEX
  5
   827
  8
0
  6
CONTINUOUS
 10
-414.526172645586
 20
-46.9290386659128
 30
0.0
 40
0.0
 41
0.0
  0
VERTEX
  5
   828
  8
0
  6
CONTINUOUS
 10
-414.497910564764
 20
-47.0092968088585
 30
0.0
 40
0.0
 41
0.0
  0
VERTEX
  5
   829
  8
0
  6
CONTINUOUS
 10
-414.467713486646
 20
-47.0866847682009
 30
0.0
 40
0.0
 41
0.0
  0
VERTEX
  5
   82A
  8
0
  6
CONTINUOUS
 10
-414.435654158638
 20
-47.1610161095676
 30
0.0
 40
0.0
 41
0.0
  0
VERTEX
  5
   82B
  8
0
  6
CONTINUOUS
 10
-414.40180981447
 20
-47.2321117622467
 30
0.0
 40
0.0
 41
0.0
  0
VERTEX
  5
   82C
  8
0
  6
CONTINUOUS
 10
-414.36626198813
 20
-47.2998004505835
 30
0.0
 40
0.0
 41
0.0
  0
VERTEX
  5
   82D
  8
0
  6
CONTINUOUS
 10
-414.329096317447
 20
-47.3639191065991
 30
0.0
 40
0.0
 41
0.0
  0
VERTEX
  5
   82E
  8
0
  6
CONTINUOUS
 10
-414.290402337776
 20
-47.4243132628349
 30
0.0
 40
0.0
 41
0.0
  0
VERTEX
  5
   82F
  8
0
  6
CONTINUOUS
 10
-414.250273266303
 20
-47.4808374244787
 30
0.0
 40
0.0
 41
0.0
  0
VERTEX
  5
   830
  8
0
  6
CONTINUOUS
 10
-414.208805777476
 20
-47.5333554198741
 30
0.0
 40
0.0
 41
0.0
  0
VERTEX
  5
   831
  8
0
  6
CONTINUOUS
 10
-414.166099770109
 20
-47.5817407285703
 30
0.0
 40
0.0
 41
0.0
  0
VERTEX
  5
   832
  8
0
  6
CONTINUOUS
 10
-414.122258126713
 20
-47.6258767861205
 30
0.0
 40
0.0
 41
0.0
  0
VERTEX
  5
   833
  8
0
  6
CONTINUOUS
 10
-414.077386465648
 20
-47.6656572648962
 30
0.0
 40
0.0
 41
0.0
  0
VERTEX
  5
   834
  8
0
  6
CONTINUOUS
 10
-414.054598069818
 20
-47.6838837975431
 30
0.0
 40
0.0
 41
0.0
  0
VERTEX
  5
   835
  8
0
  6
CONTINUOUS
 10
-414.031592886675
 20
-47.7009863302396
 30
0.0
 40
0.0
 41
0.0
  0
VERTEX
  5
   836
  8
0
  6
CONTINUOUS
 10
-414.008384773682
 20
-47.7169545610597
 30
0.0
 40
0.0
 41
0.0
  0
VERTEX
  5
   837
  8
0
  6
CONTINUOUS
 10
-413.984987710538
 20
-47.731778871338
 30
0.0
 40
0.0
 41
0.0
  0
VERTEX
  5
   838
  8
0
  6
CONTINUOUS
 10
-413.961415790758
 20
-47.7454503314645
 30
0.0
 40
0.0
 41
0.0
  0
VERTEX
  5
   839
  8
0
  6
CONTINUOUS
 10
-413.937683213186
 20
-47.7579607062627
 30
0.0
 40
0.0
 41
0.0
  0
VERTEX
  5
   83A
  8
0
  6
CONTINUOUS
 10
-413.91380427344
 20
-47.7693024599507
 30
0.0
 40
0.0
 41
0.0
  0
VERTEX
  5
   83B
  8
0
  6
CONTINUOUS
 10
-413.889793355299
 20
-47.7794687606801
 30
0.0
 40
0.0
 41
0.0
  0
VERTEX
  5
   83C
  8
0
  6
CONTINUOUS
 10
-413.865664922043
 20
-47.7884534846515
 30
0.0
 40
0.0
 41
0.0
  0
VERTEX
  5
   83D
  8
0
  6
CONTINUOUS
 10
-413.841433507738
 20
-47.7962512198032
 30
0.0
 40
0.0
 41
0.0
  0
VERTEX
  5
   83E
  8
0
  6
CONTINUOUS
 10
-413.817113708482
 20
-47.802857269071
 30
0.0
 40
0.0
 41
0.0
  0
VERTEX
  5
   83F
  8
0
  6
CONTINUOUS
 10
-413.792720173613
 20
-47.808267653218
 30
0.0
 40
0.0
 41
0.0
  0
VERTEX
  5
   840
  8
0
  6
CONTINUOUS
 10
-413.768267596883
 20
-47.812479113231
 30
0.0
 40
0.0
 41
0.0
  0
VERTEX
  5
   841
  8
0
  6
CONTINUOUS
 10
-413.743770707611
 20
-47.8154891122839
 30
0.0
 40
0.0
 41
0.0
  0
VERTEX
  5
   842
  8
0
  6
CONTINUOUS
 10
-413.719244261806
 20
-47.817295837266
 30
0.0
 40
0.0
 41
0.0
  0
VERTEX
  5
   843
  8
0
  6
CONTINUOUS
 10
-413.694703033283
 20
-47.8178981998736
 30
0.0
 40
0.0
 41
0.0
  0
VERTEX
  5
   844
  8
0
  6
CONTINUOUS
 10
-413.67016180476
 20
-47.817295837266
 30
0.0
 40
0.0
 41
0.0
  0
VERTEX
  5
   845
  8
0
  6
CONTINUOUS
 10
-413.645635358956
 20
-47.8154891122839
 30
0.0
 40
0.0
 41
0.0
  0
VERTEX
  5
   846
  8
0
  6
CONTINUOUS
 10
-413.621138469683
 20
-47.812479113231
 30
0.0
 40
0.0
 41
0.0
  0
VERTEX
  5
   847
  8
0
  6
CONTINUOUS
 10
-413.596685892954
 20
-47.808267653218
 30
0.0
 40
0.0
 41
0.0
  0
VERTEX
  5
   848
  8
0
  6
CONTINUOUS
 10
-413.572292358084
 20
-47.802857269071
 30
0.0
 40
0.0
 41
0.0
  0
VERTEX
  5
   849
  8
0
  6
CONTINUOUS
 10
-413.547972558828
 20
-47.7962512198032
 30
0.0
 40
0.0
 41
0.0
  0
VERTEX
  5
   84A
  8
0
  6
CONTINUOUS
 10
-413.523741144523
 20
-47.7884534846515
 30
0.0
 40
0.0
 41
0.0
  0
VERTEX
  5
   84B
  8
0
  6
CONTINUOUS
 10
-413.499612711267
 20
-47.7794687606801
 30
0.0
 40
0.0
 41
0.0
  0
VERTEX
  5
   84C
  8
0
  6
CONTINUOUS
 10
-413.475601793126
 20
-47.7693024599507
 30
0.0
 40
0.0
 41
0.0
  0
VERTEX
  5
   84D
  8
0
  6
CONTINUOUS
 10
-413.45172285338
 20
-47.7579607062627
 30
0.0
 40
0.0
 41
0.0
  0
VERTEX
  5
   84E
  8
0
  6
CONTINUOUS
 10
-413.427990275808
 20
-47.7454503314645
 30
0.0
 40
0.0
 41
0.0
  0
VERTEX
  5
   84F
  8
0
  6
CONTINUOUS
 10
-413.404418356029
 20
-47.731778871338
 30
0.0
 40
0.0
 41
0.0
  0
VERTEX
  5
   850
  8
0
  6
CONTINUOUS
 10
-413.381021292884
 20
-47.7169545610597
 30
0.0
 40
0.0
 41
0.0
  0
VERTEX
  5
   851
  8
0
  6
CONTINUOUS
 10
-413.357813179891
 20
-47.7009863302396
 30
0.0
 40
0.0
 41
0.0
  0
VERTEX
  5
   852
  8
0
  6
CONTINUOUS
 10
-413.334807996748
 20
-47.6838837975431
 30
0.0
 40
0.0
 41
0.0
  0
VERTEX
  5
   853
  8
0
  6
CONTINUOUS
 10
-413.312019600918
 20
-47.6656572648962
 30
0.0
 40
0.0
 41
0.0
  0
VERTEX
  5
   854
  8
0
  6
CONTINUOUS
 10
-413.267147939853
 20
-47.6258767861205
 30
0.0
 40
0.0
 41
0.0
  0
VERTEX
  5
   855
  8
0
  6
CONTINUOUS
 10
-413.223306296457
 20
-47.5817407285703
 30
0.0
 40
0.0
 41
0.0
  0
VERTEX
  5
   856
  8
0
  6
CONTINUOUS
 10
-413.18060028909
 20
-47.5333554198741
 30
0.0
 40
0.0
 41
0.0
  0
VERTEX
  5
   857
  8
0
  6
CONTINUOUS
 10
-413.139132800263
 20
-47.4808374244787
 30
0.0
 40
0.0
 41
0.0
  0
VERTEX
  5
   858
  8
0
  6
CONTINUOUS
 10
-413.099003728791
 20
-47.4243132628349
 30
0.0
 40
0.0
 41
0.0
  0
VERTEX
  5
   859
  8
0
  6
CONTINUOUS
 10
-413.06030974912
 20
-47.3639191065991
 30
0.0
 40
0.0
 41
0.0
  0
VERTEX
  5
   85A
  8
0
  6
CONTINUOUS
 10
-413.023144078436
 20
-47.2998004505835
 30
0.0
 40
0.0
 41
0.0
  0
VERTEX
  5
   85B
  8
0
  6
CONTINUOUS
 10
-412.987596252097
 20
-47.2321117622467
 30
0.0
 40
0.0
 41
0.0
  0
VERTEX
  5
   85C
  8
0
  6
CONTINUOUS
 10
-412.953751907928
 20
-47.1610161095676
 30
0.0
 40
0.0
 41
0.0
  0
VERTEX
  5
   85D
  8
0
  6
CONTINUOUS
 10
-412.92169257992
 20
-47.0866847682009
 30
0.0
 40
0.0
 41
0.0
  0
VERTEX
  5
   85E
  8
0
  6
CONTINUOUS
 10
-412.891495501802
 20
-47.0092968088585
 30
0.0
 40
0.0
 41
0.0
  0
VERTEX
  5
   85F
  8
0
  6
CONTINUOUS
 10
-412.863233420981
 20
-46.9290386659128
 30
0.0
 40
0.0
 41
0.0
  0
VERTEX
  5
   860
  8
0
  6
CONTINUOUS
 10
-412.836974423283
 20
-46.84610368826
 30
0.0
 40
0.0
 41
0.0
  0
VERTEX
  5
   861
  8
0
  6
CONTINUOUS
 10
-412.812781768935
 20
-46.7606916735256
 30
0.0
 40
0.0
 41
0.0
  0
VERTEX
  5
   862
  8
0
  6
CONTINUOUS
 10
-412.79071374016
 20
-46.6730083867342
 30
0.0
 40
0.0
 41
0.0
  0
VERTEX
  5
   863
  8
0
  6
CONTINUOUS
 10
-412.770823500772
 20
-46.5832650646038
 30
0.0
 40
0.0
 41
0.0
  0
VERTEX
  5
   864
  8
0
  6
CONTINUOUS
 10
-412.7531589681
 20
-46.491677906658
 30
0.0
 40
0.0
 41
0.0
  0
VERTEX
  5
   865
  8
0
  6
CONTINUOUS
 10
-412.737762697551
 20
-46.3984675543825
 30
0.0
 40
0.0
 41
0.0
  0
VERTEX
  5
   866
  8
0
  6
CONTINUOUS
 10
-412.724671780089
 20
-46.3038585596801
 30
0.0
 40
0.0
 41
0.0
  0
VERTEX
  5
   867
  8
0
  6
CONTINUOUS
 10
-412.71391775288
 20
-46.2080788439059
 30
0.0
 40
0.0
 41
0.0
  0
VERTEX
  5
   868
  8
0
  6
CONTINUOUS
 10
-412.705526523318
 20
-46.1113591487843
 30
0.0
 40
0.0
 41
0.0
  0
VERTEX
  5
   869
  8
0
  6
CONTINUOUS
 10
-412.699518306611
 20
-46.0139324805327
 30
0.0
 40
0.0
 41
0.0
  0
VERTEX
  5
   86A
  8
0
  6
CONTINUOUS
 10
-412.695907577078
 20
-45.9160335485284
 30
0.0
 40
0.0
 41
0.0
  0
VERTEX
  5
   86B
  8
0
  6
CONTINUOUS
 10
-412.694703033283
 20
-45.8178981998736
 30
0.0
 40
0.0
 41
0.0
  0
VERTEX
  5
   86C
  8
0
  6
CONTINUOUS
 10
-412.695907577078
 20
-45.7197628512188
 30
0.0
 40
0.0
 41
0.0
  0
VERTEX
  5
   86D
  8
0
  6
CONTINUOUS
 10
-412.699518306611
 20
-45.6218639192145
 30
0.0
 40
0.0
 41
0.0
  0
VERTEX
  5
   86E
  8
0
  6
CONTINUOUS
 10
-412.705526523318
 20
-45.5244372509629
 30
0.0
 40
0.0
 41
0.0
  0
VERTEX
  5
   86F
  8
0
  6
CONTINUOUS
 10
-412.71391775288
 20
-45.4277175558413
 30
0.0
 40
0.0
 41
0.0
  0
VERTEX
  5
   870
  8
0
  6
CONTINUOUS
 10
-412.724671780089
 20
-45.3319378400671
 30
0.0
 40
0.0
 41
0.0
  0
VERTEX
  5
   871
  8
0
  6
CONTINUOUS
 10
-412.737762697551
 20
-45.2373288453647
 30
0.0
 40
0.0
 41
0.0
  0
VERTEX
  5
   872
  8
0
  6
CONTINUOUS
 10
-412.7531589681
 20
-45.1441184930892
 30
0.0
 40
0.0
 41
0.0
  0
VERTEX
  5
   873
  8
0
  6
CONTINUOUS
 10
-412.770823500772
 20
-45.0525313351434
 30
0.0
 40
0.0
 41
0.0
  0
VERTEX
  5
   874
  8
0
  6
CONTINUOUS
 10
-412.79071374016
 20
-44.962788013013
 30
0.0
 40
0.0
 41
0.0
  0
VERTEX
  5
   875
  8
0
  6
CONTINUOUS
 10
-412.812781768935
 20
-44.8751047262216
 30
0.0
 40
0.0
 41
0.0
  0
VERTEX
  5
   876
  8
0
  6
CONTINUOUS
 10
-412.836974423283
 20
-44.7896927114872
 30
0.0
 40
0.0
 41
0.0
  0
VERTEX
  5
   877
  8
0
  6
CONTINUOUS
 10
-412.863233420981
 20
-44.7067577338344
 30
0.0
 40
0.0
 41
0.0
  0
VERTEX
  5
   878
  8
0
  6
CONTINUOUS
 10
-412.891495501802
 20
-44.6264995908887
 30
0.0
 40
0.0
 41
0.0
  0
VERTEX
  5
   879
  8
0
  6
CONTINUOUS
 10
-412.92169257992
 20
-44.5491116315463
 30
0.0
 40
0.0
 41
0.0
  0
VERTEX
  5
   87A
  8
0
  6
CONTINUOUS
 10
-412.953751907928
 20
-44.4747802901796
 30
0.0
 40
0.0
 41
0.0
  0
VERTEX
  5
   87B
  8
0
  6
CONTINUOUS
 10
-412.987596252097
 20
-44.4036846375005
 30
0.0
 40
0.0
 41
0.0
  0
VERTEX
  5
   87C
  8
0
  6
CONTINUOUS
 10
-413.023144078436
 20
-44.3359959491637
 30
0.0
 40
0.0
 41
0.0
  0
VERTEX
  5
   87D
  8
0
  6
CONTINUOUS
 10
-413.06030974912
 20
-44.2718772931481
 30
0.0
 40
0.0
 41
0.0
  0
VERTEX
  5
   87E
  8
0
  6
CONTINUOUS
 10
-413.099003728791
 20
-44.2114831369123
 30
0.0
 40
0.0
 41
0.0
  0
VERTEX
  5
   87F
  8
0
  6
CONTINUOUS
 10
-413.139132800263
 20
-44.1549589752685
 30
0.0
 40
0.0
 41
0.0
  0
VERTEX
  5
   880
  8
0
  6
CONTINUOUS
 10
-413.18060028909
 20
-44.102440979873
 30
0.0
 40
0.0
 41
0.0
  0
VERTEX
  5
   881
  8
0
  6
CONTINUOUS
 10
-413.223306296457
 20
-44.0540556711769
 30
0.0
 40
0.0
 41
0.0
  0
VERTEX
  5
   882
  8
0
  6
CONTINUOUS
 10
-413.267147939853
 20
-44.0099196136267
 30
0.0
 40
0.0
 41
0.0
  0
VERTEX
  5
   883
  8
0
  6
CONTINUOUS
 10
-413.312019600918
 20
-43.970139134851
 30
0.0
 40
0.0
 41
0.0
  0
VERTEX
  5
   884
  8
0
  6
CONTINUOUS
 10
-413.334807996748
 20
-43.9519126022041
 30
0.0
 40
0.0
 41
0.0
  0
VERTEX
  5
   885
  8
0
  6
CONTINUOUS
 10
-413.357813179891
 20
-43.9348100695076
 30
0.0
 40
0.0
 41
0.0
  0
VERTEX
  5
   886
  8
0
  6
CONTINUOUS
 10
-413.381021292884
 20
-43.9188418386875
 30
0.0
 40
0.0
 41
0.0
  0
VERTEX
  5
   887
  8
0
  6
CONTINUOUS
 10
-413.404418356029
 20
-43.9040175284092
 30
0.0
 40
0.0
 41
0.0
  0
VERTEX
  5
   888
  8
0
  6
CONTINUOUS
 10
-413.427990275808
 20
-43.8903460682827
 30
0.0
 40
0.0
 41
0.0
  0
VERTEX
  5
   889
  8
0
  6
CONTINUOUS
 10
-413.45172285338
 20
-43.8778356934845
 30
0.0
 40
0.0
 41
0.0
  0
VERTEX
  5
   88A
  8
0
  6
CONTINUOUS
 10
-413.475601793126
 20
-43.8664939397965
 30
0.0
 40
0.0
 41
0.0
  0
VERTEX
  5
   88B
  8
0
  6
CONTINUOUS
 10
-413.499612711267
 20
-43.8563276390671
 30
0.0
 40
0.0
 41
0.0
  0
VERTEX
  5
   88C
  8
0
  6
CONTINUOUS
 10
-413.523741144523
 20
-43.8473429150957
 30
0.0
 40
0.0
 41
0.0
  0
VERTEX
  5
   88D
  8
0
  6
CONTINUOUS
 10
-413.547972558828
 20
-43.839545179944
 30
0.0
 40
0.0
 41
0.0
  0
VERTEX
  5
   88E
  8
0
  6
CONTINUOUS
 10
-413.572292358084
 20
-43.8329391306762
 30
0.0
 40
0.0
 41
0.0
  0
VERTEX
  5
   88F
  8
0
  6
CONTINUOUS
 10
-413.596685892954
 20
-43.8275287465292
 30
0.0
 40
0.0
 41
0.0
  0
VERTEX
  5
   890
  8
0
  6
CONTINUOUS
 10
-413.621138469683
 20
-43.8233172865162
 30
0.0
 40
0.0
 41
0.0
  0
VERTEX
  5
   891
  8
0
  6
CONTINUOUS
 10
-413.645635358956
 20
-43.8203072874632
 30
0.0
 40
0.0
 41
0.0
  0
VERTEX
  5
   892
  8
0
  6
CONTINUOUS
 10
-413.67016180476
 20
-43.8185005624812
 30
0.0
 40
0.0
 41
0.0
  0
VERTEX
  5
   893
  8
0
  6
CONTINUOUS
 10
-413.694703033283
 20
-43.8178981998736
 30
0.0
 40
0.0
 41
0.0
  0
SEQEND
  5
   894
  8
0
  6
CONTINUOUS
 62
   218
  0
POLYLINE
  5
   895
  8
0
  6
CONTINUOUS
 62
   218
 66
     1
 10
0.0
 20
0.0
 30
0.0
  0
VERTEX
  5
   896
  8
0
  6
CONTINUOUS
 10
-413.694703033283
 20
-47.8178981998736
 30
0.0
 40
0.0
 41
0.0
  0
VERTEX
  5
   897
  8
0
  6
CONTINUOUS
 10
-413.719244261806
 20
-47.8185005624812
 30
0.0
 40
0.0
 41
0.0
  0
VERTEX
  5
   898
  8
0
  6
CONTINUOUS
 10
-413.743770707611
 20
-47.8203072874633
 30
0.0
 40
0.0
 41
0.0
  0
VERTEX
  5
   899
  8
0
  6
CONTINUOUS
 10
-413.768267596883
 20
-47.8233172865162
 30
0.0
 40
0.0
 41
0.0
  0
VERTEX
  5
   89A
  8
0
  6
CONTINUOUS
 10
-413.792720173613
 20
-47.8275287465292
 30
0.0
 40
0.0
 41
0.0
  0
VERTEX
  5
   89B
  8
0
  6
CONTINUOUS
 10
-413.817113708482
 20
-47.8329391306762
 30
0.0
 40
0.0
 41
0.0
  0
VERTEX
  5
   89C
  8
0
  6
CONTINUOUS
 10
-413.841433507739
 20
-47.8395451799441
 30
0.0
 40
0.0
 41
0.0
  0
VERTEX
  5
   89D
  8
0
  6
CONTINUOUS
 10
-413.865664922044
 20
-47.8473429150958
 30
0.0
 40
0.0
 41
0.0
  0
VERTEX
  5
   89E
  8
0
  6
CONTINUOUS
 10
-413.889793355299
 20
-47.8563276390672
 30
0.0
 40
0.0
 41
0.0
  0
VERTEX
  5
   89F
  8
0
  6
CONTINUOUS
 10
-413.91380427344
 20
-47.8664939397966
 30
0.0
 40
0.0
 41
0.0
  0
VERTEX
  5
   8A0
  8
0
  6
CONTINUOUS
 10
-413.937683213187
 20
-47.8778356934846
 30
0.0
 40
0.0
 41
0.0
  0
VERTEX
  5
   8A1
  8
0
  6
CONTINUOUS
 10
-413.961415790758
 20
-47.8903460682828
 30
0.0
 40
0.0
 41
0.0
  0
VERTEX
  5
   8A2
  8
0
  6
CONTINUOUS
 10
-413.984987710538
 20
-47.9040175284093
 30
0.0
 40
0.0
 41
0.0
  0
VERTEX
  5
   8A3
  8
0
  6
CONTINUOUS
 10
-414.008384773682
 20
-47.9188418386877
 30
0.0
 40
0.0
 41
0.0
  0
VERTEX
  5
   8A4
  8
0
  6
CONTINUOUS
 10
-414.031592886676
 20
-47.9348100695077
 30
0.0
 40
0.0
 41
0.0
  0
VERTEX
  5
   8A5
  8
0
  6
CONTINUOUS
 10
-414.054598069818
 20
-47.9519126022043
 30
0.0
 40
0.0
 41
0.0
  0
VERTEX
  5
   8A6
  8
0
  6
CONTINUOUS
 10
-414.077386465648
 20
-47.9701391348513
 30
0.0
 40
0.0
 41
0.0
  0
VERTEX
  5
   8A7
  8
0
  6
CONTINUOUS
 10
-414.122258126714
 20
-48.009919613627
 30
0.0
 40
0.0
 41
0.0
  0
VERTEX
  5
   8A8
  8
0
  6
CONTINUOUS
 10
-414.166099770109
 20
-48.0540556711773
 30
0.0
 40
0.0
 41
0.0
  0
VERTEX
  5
   8A9
  8
0
  6
CONTINUOUS
 10
-414.208805777477
 20
-48.1024409798735
 30
0.0
 40
0.0
 41
0.0
  0
VERTEX
  5
   8AA
  8
0
  6
CONTINUOUS
 10
-414.250273266303
 20
-48.154958975269
 30
0.0
 40
0.0
 41
0.0
  0
VERTEX
  5
   8AB
  8
0
  6
CONTINUOUS
 10
-414.290402337776
 20
-48.2114831369129
 30
0.0
 40
0.0
 41
0.0
  0
VERTEX
  5
   8AC
  8
0
  6
CONTINUOUS
 10
-414.329096317447
 20
-48.2718772931488
 30
0.0
 40
0.0
 41
0.0
  0
VERTEX
  5
   8AD
  8
0
  6
CONTINUOUS
 10
-414.366261988131
 20
-48.3359959491645
 30
0.0
 40
0.0
 41
0.0
  0
VERTEX
  5
   8AE
  8
0
  6
CONTINUOUS
 10
-414.40180981447
 20
-48.4036846375014
 30
0.0
 40
0.0
 41
0.0
  0
VERTEX
  5
   8AF
  8
0
  6
CONTINUOUS
 10
-414.435654158639
 20
-48.4747802901806
 30
0.0
 40
0.0
 41
0.0
  0
VERTEX
  5
   8B0
  8
0
  6
CONTINUOUS
 10
-414.467713486646
 20
-48.5491116315474
 30
0.0
 40
0.0
 41
0.0
  0
VERTEX
  5
   8B1
  8
0
  6
CONTINUOUS
 10
-414.497910564764
 20
-48.6264995908899
 30
0.0
 40
0.0
 41
0.0
  0
VERTEX
  5
   8B2
  8
0
  6
CONTINUOUS
 10
-414.526172645586
 20
-48.7067577338357
 30
0.0
 40
0.0
 41
0.0
  0
VERTEX
  5
   8B3
  8
0
  6
CONTINUOUS
 10
-414.552431643284
 20
-48.7896927114886
 30
0.0
 40
0.0
 41
0.0
  0
VERTEX
  5
   8B4
  8
0
  6
CONTINUOUS
 10
-414.576624297632
 20
-48.8751047262231
 30
0.0
 40
0.0
 41
0.0
  0
VERTEX
  5
   8B5
  8
0
  6
CONTINUOUS
 10
-414.598692326407
 20
-48.9627880130147
 30
0.0
 40
0.0
 41
0.0
  0
VERTEX
  5
   8B6
  8
0
  6
CONTINUOUS
 10
-414.618582565795
 20
-49.0525313351452
 30
0.0
 40
0.0
 41
0.0
  0
VERTEX
  5
   8B7
  8
0
  6
CONTINUOUS
 10
-414.636247098466
 20
-49.144118493091
 30
0.0
 40
0.0
 41
0.0
  0
VERTEX
  5
   8B8
  8
0
  6
CONTINUOUS
 10
-414.651643369016
 20
-49.2373288453666
 30
0.0
 40
0.0
 41
0.0
  0
VERTEX
  5
   8B9
  8
0
  6
CONTINUOUS
 10
-414.664734286478
 20
-49.3319378400691
 30
0.0
 40
0.0
 41
0.0
  0
VERTEX
  5
   8BA
  8
0
  6
CONTINUOUS
 10
-414.675488313687
 20
-49.4277175558435
 30
0.0
 40
0.0
 41
0.0
  0
VERTEX
  5
   8BB
  8
0
  6
CONTINUOUS
 10
-414.683879543248
 20
-49.5244372509651
 30
0.0
 40
0.0
 41
0.0
  0
VERTEX
  5
   8BC
  8
0
  6
CONTINUOUS
 10
-414.689887759955
 20
-49.6218639192168
 30
0.0
 40
0.0
 41
0.0
  0
VERTEX
  5
   8BD
  8
0
  6
CONTINUOUS
 10
-414.693498489488
 20
-49.7197628512212
 30
0.0
 40
0.0
 41
0.0
  0
VERTEX
  5
   8BE
  8
0
  6
CONTINUOUS
 10
-414.694703033283
 20
-49.8178981998761
 30
0.0
 40
0.0
 41
0.0
  0
VERTEX
  5
   8BF
  8
0
  6
CONTINUOUS
 10
-414.693498489488
 20
-49.916033548531
 30
0.0
 40
0.0
 41
0.0
  0
VERTEX
  5
   8C0
  8
0
  6
CONTINUOUS
 10
-414.689887759955
 20
-50.0139324805354
 30
0.0
 40
0.0
 41
0.0
  0
VERTEX
  5
   8C1
  8
0
  6
CONTINUOUS
 10
-414.683879543248
 20
-50.111359148787
 30
0.0
 40
0.0
 41
0.0
  0
VERTEX
  5
   8C2
  8
0
  6
CONTINUOUS
 10
-414.675488313686
 20
-50.2080788439086
 30
0.0
 40
0.0
 41
0.0
  0
VERTEX
  5
   8C3
  8
0
  6
CONTINUOUS
 10
-414.664734286477
 20
-50.3038585596829
 30
0.0
 40
0.0
 41
0.0
  0
VERTEX
  5
   8C4
  8
0
  6
CONTINUOUS
 10
-414.651643369015
 20
-50.3984675543854
 30
0.0
 40
0.0
 41
0.0
  0
VERTEX
  5
   8C5
  8
0
  6
CONTINUOUS
 10
-414.636247098466
 20
-50.4916779066609
 30
0.0
 40
0.0
 41
0.0
  0
VERTEX
  5
   8C6
  8
0
  6
CONTINUOUS
 10
-414.618582565794
 20
-50.5832650646067
 30
0.0
 40
0.0
 41
0.0
  0
VERTEX
  5
   8C7
  8
0
  6
CONTINUOUS
 10
-414.598692326406
 20
-50.6730083867371
 30
0.0
 40
0.0
 41
0.0
  0
VERTEX
  5
   8C8
  8
0
  6
CONTINUOUS
 10
-414.576624297631
 20
-50.7606916735285
 30
0.0
 40
0.0
 41
0.0
  0
VERTEX
  5
   8C9
  8
0
  6
CONTINUOUS
 10
-414.552431643283
 20
-50.8461036882629
 30
0.0
 40
0.0
 41
0.0
  0
VERTEX
  5
   8CA
  8
0
  6
CONTINUOUS
 10
-414.526172645585
 20
-50.9290386659157
 30
0.0
 40
0.0
 41
0.0
  0
VERTEX
  5
   8CB
  8
0
  6
CONTINUOUS
 10
-414.497910564763
 20
-51.0092968088613
 30
0.0
 40
0.0
 41
0.0
  0
VERTEX
  5
   8CC
  8
0
  6
CONTINUOUS
 10
-414.467713486645
 20
-51.0866847682037
 30
0.0
 40
0.0
 41
0.0
  0
VERTEX
  5
   8CD
  8
0
  6
CONTINUOUS
 10
-414.435654158637
 20
-51.1610161095704
 30
0.0
 40
0.0
 41
0.0
  0
VERTEX
  5
   8CE
  8
0
  6
CONTINUOUS
 10
-414.401809814468
 20
-51.2321117622494
 30
0.0
 40
0.0
 41
0.0
  0
VERTEX
  5
   8CF
  8
0
  6
CONTINUOUS
 10
-414.366261988129
 20
-51.2998004505861
 30
0.0
 40
0.0
 41
0.0
  0
VERTEX
  5
   8D0
  8
0
  6
CONTINUOUS
 10
-414.329096317445
 20
-51.3639191066016
 30
0.0
 40
0.0
 41
0.0
  0
VERTEX
  5
   8D1
  8
0
  6
CONTINUOUS
 10
-414.290402337774
 20
-51.4243132628373
 30
0.0
 40
0.0
 41
0.0
  0
VERTEX
  5
   8D2
  8
0
  6
CONTINUOUS
 10
-414.250273266301
 20
-51.480837424481
 30
0.0
 40
0.0
 41
0.0
  0
VERTEX
  5
   8D3
  8
0
  6
CONTINUOUS
 10
-414.208805777475
 20
-51.5333554198763
 30
0.0
 40
0.0
 41
0.0
  0
VERTEX
  5
   8D4
  8
0
  6
CONTINUOUS
 10
-414.166099770107
 20
-51.5817407285723
 30
0.0
 40
0.0
 41
0.0
  0
VERTEX
  5
   8D5
  8
0
  6
CONTINUOUS
 10
-414.122258126711
 20
-51.6258767861223
 30
0.0
 40
0.0
 41
0.0
  0
VERTEX
  5
   8D6
  8
0
  6
CONTINUOUS
 10
-414.077386465646
 20
-51.6656572648979
 30
0.0
 40
0.0
 41
0.0
  0
VERTEX
  5
   8D7
  8
0
  6
CONTINUOUS
 10
-414.054598069816
 20
-51.6838837975447
 30
0.0
 40
0.0
 41
0.0
  0
VERTEX
  5
   8D8
  8
0
  6
CONTINUOUS
 10
-414.031592886673
 20
-51.7009863302412
 30
0.0
 40
0.0
 41
0.0
  0
VERTEX
  5
   8D9
  8
0
  6
CONTINUOUS
 10
-414.00838477368
 20
-51.7169545610611
 30
0.0
 40
0.0
 41
0.0
  0
VERTEX
  5
   8DA
  8
0
  6
CONTINUOUS
 10
-413.984987710535
 20
-51.7317788713393
 30
0.0
 40
0.0
 41
0.0
  0
VERTEX
  5
   8DB
  8
0
  6
CONTINUOUS
 10
-413.961415790756
 20
-51.7454503314657
 30
0.0
 40
0.0
 41
0.0
  0
VERTEX
  5
   8DC
  8
0
  6
CONTINUOUS
 10
-413.937683213184
 20
-51.7579607062638
 30
0.0
 40
0.0
 41
0.0
  0
VERTEX
  5
   8DD
  8
0
  6
CONTINUOUS
 10
-413.913804273438
 20
-51.7693024599517
 30
0.0
 40
0.0
 41
0.0
  0
VERTEX
  5
   8DE
  8
0
  6
CONTINUOUS
 10
-413.889793355297
 20
-51.779468760681
 30
0.0
 40
0.0
 41
0.0
  0
VERTEX
  5
   8DF
  8
0
  6
CONTINUOUS
 10
-413.865664922041
 20
-51.7884534846523
 30
0.0
 40
0.0
 41
0.0
  0
VERTEX
  5
   8E0
  8
0
  6
CONTINUOUS
 10
-413.841433507736
 20
-51.7962512198039
 30
0.0
 40
0.0
 41
0.0
  0
VERTEX
  5
   8E1
  8
0
  6
CONTINUOUS
 10
-413.81711370848
 20
-51.8028572690716
 30
0.0
 40
0.0
 41
0.0
  0
VERTEX
  5
   8E2
  8
0
  6
CONTINUOUS
 10
-413.79272017361
 20
-51.8082676532185
 30
0.0
 40
0.0
 41
0.0
  0
VERTEX
  5
   8E3
  8
0
  6
CONTINUOUS
 10
-413.76826759688
 20
-51.8124791132313
 30
0.0
 40
0.0
 41
0.0
  0
VERTEX
  5
   8E4
  8
0
  6
CONTINUOUS
 10
-413.743770707608
 20
-51.8154891122842
 30
0.0
 40
0.0
 41
0.0
  0
VERTEX
  5
   8E5
  8
0
  6
CONTINUOUS
 10
-413.719244261804
 20
-51.8172958372661
 30
0.0
 40
0.0
 41
0.0
  0
VERTEX
  5
   8E6
  8
0
  6
CONTINUOUS
 10
-413.694703033281
 20
-51.8178981998736
 30
0.0
 40
0.0
 41
0.0
  0
SEQEND
  5
   8E7
  8
0
  6
CONTINUOUS
 62
   218
  0
INSERT
  5
   8E8
  8
0
  6
CONTINUOUS
 62
   218
  2
*HATCH1078
 10
-356.388641357422
 20
-37.5863952636719
 30
0.0
 41
0.5
 42
0.5
 50
89.9999999480344
 43
0.5
  0
LINE
  5
   8E9
  8
0
  6
CONTINUOUS
 62
   218
 10
-399.388623462071
 20
-50.556457106341
 30
0.0
 11
-387.888623462071
 21
-48.5286968281936
 31
0.0
  0
LINE
  5
   8EA
  8
0
  6
CONTINUOUS
 62
   218
 10
-397.407318426485
 20
-50.9178981998736
 30
0.0
 11
-387.888623462071
 21
-49.2394954565136
 31
0.0
  0
LINE
  5
   8EB
  8
0
  6
CONTINUOUS
 62
   218
 10
-393.376179088284
 20
-50.9178981998736
 30
0.0
 11
-387.888623462071
 21
-49.9502940848336
 31
0.0
  0
LINE
  5
   8EC
  8
0
  6
CONTINUOUS
 62
   218
 10
-389.345039750084
 20
-50.9178981998736
 30
0.0
 11
-387.888623462071
 21
-50.6610927131536
 31
0.0
  0
LINE
  5
   8ED
  8
0
  6
CONTINUOUS
 62
   218
 10
-399.388623462071
 20
-49.1348598497009
 30
0.0
 11
-387.888623462071
 21
-47.1070995715536
 31
0.0
  0
LINE
  5
   8EE
  8
0
  6
CONTINUOUS
 62
   218
 10
-399.388623462071
 20
-48.4240612213809
 30
0.0
 11
-387.888623462071
 21
-46.3963009432335
 31
0.0
  0
LINE
  5
   8EF
  8
0
  6
CONTINUOUS
 62
   218
 10
-399.388623462071
 20
-47.7132625930609
 30
0.0
 11
-387.888623462071
 21
-45.6855023149135
 31
0.0
  0
LINE
  5
   8F0
  8
0
  6
CONTINUOUS
 62
   218
 10
-399.388623462071
 20
-47.0024639647408
 30
0.0
 11
-387.888623462071
 21
-44.9747036865935
 31
0.0
  0
LINE
  5
   8F1
  8
0
  6
CONTINUOUS
 62
   218
 10
-399.388623462071
 20
-46.2916653364208
 30
0.0
 11
-390.463346512259
 21
-44.7178981998736
 31
0.0
  0
LINE
  5
   8F2
  8
0
  6
CONTINUOUS
 62
   218
 10
-399.388623462071
 20
-45.5808667081007
 30
0.0
 11
-394.49448585046
 21
-44.7178981998736
 31
0.0
  0
LINE
  5
   8F3
  8
0
  6
CONTINUOUS
 62
   218
 10
-399.388623462071
 20
-44.8700680797807
 30
0.0
 11
-398.52562518866
 21
-44.7178981998736
 31
0.0
  0
CIRCLE
  5
   8F4
  8
0
  6
CONTINUOUS
 62
     1
 10
-382.621612113791
 20
75.0892591676903
 30
0.0
 40
0.125
  0
CIRCLE
  5
   8F5
  8
0
  6
CONTINUOUS
 62
     1
 10
-395.449469356748
 20
-55.6169222334083
 30
0.0
 40
0.125
  0
LINE
  5
   8F6
  8
0
  6
DASHDOT
 62
     7
 10
-404.216506756456
 20
70.0321444701972
 30
0.0
 11
-416.784950101319
 21
70.0321444701972
 31
0.0
  0
LINE
  5
   8F7
  8
0
  6
CONTINUOUS
 62
     7
 10
-411.388610839844
 20
68.0321444701972
 30
0.0
 11
-411.388610839844
 21
72.0321444701972
 31
0.0
  0
LINE
  5
   8F8
  8
0
  6
CONTINUOUS
 62
     7
 10
-413.388610839844
 20
68.7821444701972
 30
0.0
 11
-413.388610839844
 21
71.2821444701972
 31
0.0
  0
LINE
  5
   8F9
  8
0
  6
CONTINUOUS
 62
     7
 10
-409.388610839844
 20
72.0321444701972
 30
0.0
 11
-411.388610839844
 21
72.0321444701972
 31
0.0
  0
LINE
  5
   8FA
  8
0
  6
CONTINUOUS
 62
     7
 10
-409.388610839844
 20
68.0321444701972
 30
0.0
 11
-411.388610839844
 21
68.0321444701972
 31
0.0
  0
LINE
  5
   8FB
  8
0
  6
CONTINUOUS
 62
     7
 10
-409.388610839844
 20
68.7821444701972
 30
0.0
 11
-413.388610839844
 21
68.7821444701972
 31
0.0
  0
LINE
  5
   8FC
  8
0
  6
CONTINUOUS
 62
     7
 10
-409.388610839844
 20
71.2821444701972
 30
0.0
 11
-413.388610839844
 21
71.2821444701972
 31
0.0
  0
LINE
  5
   8FD
  8
0
  6
CONTINUOUS
 62
     7
 10
-409.388610839844
 20
-34.9678555298028
 30
0.0
 11
-411.388610839844
 21
-34.9678555298028
 31
0.0
  0
LINE
  5
   8FE
  8
0
  6
CONTINUOUS
 62
     7
 10
-409.388610839844
 20
-35.7178555298028
 30
0.0
 11
-413.388610839844
 21
-35.7178555298028
 31
0.0
  0
LINE
  5
   8FF
  8
0
  6
DASHDOT
 62
     7
 10
-404.216506756456
 20
-36.9678555298028
 30
0.0
 11
-416.784950101319
 21
-36.9678555298028
 31
0.0
  0
LINE
  5
   900
  8
0
  6
CONTINUOUS
 62
     7
 10
-409.388610839844
 20
-38.2178555298028
 30
0.0
 11
-413.388610839844
 21
-38.2178555298028
 31
0.0
  0
LINE
  5
   901
  8
0
  6
CONTINUOUS
 62
     7
 10
-409.388610839844
 20
-38.9678555298028
 30
0.0
 11
-411.388610839844
 21
-38.9678555298028
 31
0.0
  0
LINE
  5
   902
  8
0
  6
CONTINUOUS
 62
     7
 10
-411.388610839844
 20
-38.9678555298028
 30
0.0
 11
-411.388610839844
 21
-34.9678555298028
 31
0.0
  0
LINE
  5
   903
  8
0
  6
CONTINUOUS
 62
     7
 10
-413.388610839844
 20
-38.2178555298028
 30
0.0
 11
-413.388610839844
 21
-35.7178555298028
 31
0.0
  0
CIRCLE
  5
   904
  8
0
  6
CONTINUOUS
 62
     7
 10
-410.459655084623
 20
70.2069239965766
 30
0.0
 40
0.1
  0
TEXT
  5
   905
  8
0
  6
CONTINUOUS
 62
     1
 10
-360.379711813641
 20
-146.208839542436
 30
0.0
 40
2.00000008940697
  1
M 3076 95-01-16
 50
359.999999948034
 41
0.749999861419206
 72
     2
 11
-338.179714930963
 21
-146.208839562459
 31
0.0
  0
INSERT
  5
   906
  8
0
  6
CONTINUOUS
 62
     7
  2
*UDIM1523
 10
0.0
 20
0.0
 30
0.0
  0
INSERT
  5
   907
  8
0
  6
CONTINUOUS
 62
     1
  2
*UDIM1524
 10
0.0
 20
0.0
 30
0.0
  0
INSERT
  5
   908
  8
0
  6
CONTINUOUS
 62
     7
  2
*UDIM1525
 10
0.0
 20
0.0
 30
0.0
  0
INSERT
  5
   909
  8
0
  6
CONTINUOUS
 62
     7
  2
*UDIM1526
 10
0.0
 20
0.0
 30
0.0
  0
INSERT
  5
   90A
  8
0
  6
CONTINUOUS
 62
     7
  2
*UDIM1527
 10
0.0
 20
0.0
 30
0.0
  0
INSERT
  5
   90B
  8
0
  6
CONTINUOUS
 62
     5
  2
*UDIM1528
 10
0.0
 20
0.0
 30
0.0
  0
TEXT
  5
   90C
  8
0
  6
CONTINUOUS
 62
     5
 10
-317.192005169675
 20
3.19864051951212
 30
0.0
 40
3.00000002980232
  1
=        =
 50
89.9999999480344
 41
0.916666604744064
 72
     2
 11
-317.192005145266
 21
30.1486389623408
 31
0.0
  0
INSERT
  5
   90D
  8
0
  6
CONTINUOUS
 62
     7
  2
*UDIM1529
 10
0.0
 20
0.0
 30
0.0
  0
INSERT
  5
   90E
  8
0
  6
CONTINUOUS
 62
     7
  2
*UDIM1530
 10
0.0
 20
0.0
 30
0.0
  0
INSERT
  5
   90F
  8
0
  6
CONTINUOUS
 62
     7
  2
*UDIM1531
 10
0.0
 20
0.0
 30
0.0
  0
INSERT
  5
   910
  8
0
  6
CONTINUOUS
 62
     7
  2
*UDIM1532
 10
0.0
 20
0.0
 30
0.0
  0
INSERT
  5
   911
  8
0
  6
CONTINUOUS
 62
     7
  2
*UDIM1533
 10
0.0
 20
0.0
 30
0.0
  0
INSERT
  5
   912
  8
0
  6
CONTINUOUS
 62
     7
  2
*UDIM1534
 10
0.0
 20
0.0
 30
0.0
  0
INSERT
  5
   913
  8
0
  6
CONTINUOUS
 62
     7
  2
*UDIM1535
 10
0.0
 20
0.0
 30
0.0
  0
INSERT
  5
   914
  8
0
  6
CONTINUOUS
 62
     7
  2
*UDIM1536
 10
0.0
 20
0.0
 30
0.0
  0
INSERT
  5
   915
  8
0
  6
CONTINUOUS
 62
     7
  2
*UDIM1537
 10
0.0
 20
0.0
 30
0.0
  0
INSERT
  5
   916
  8
0
  6
CONTINUOUS
 62
     7
  2
*UDIM1538
 10
0.0
 20
0.0
 30
0.0
  0
INSERT
  5
   917
  8
0
  6
CONTINUOUS
 62
     7
  2
*UDIM1539
 10
0.0
 20
0.0
 30
0.0
  0
TEXT
  5
   918
  8
0
  6
CONTINUOUS
 62
     7
 10
-312.987247378986
 20
16.0361335820929
 30
0.0
 40
3.00000002980232
  1
X
 50
359.999999948034
 41
0.916666604744064
 72
     1
 11
-311.887247443198
 21
17.5361335960019
 31
0.0
 73
     2
  0
TEXT
  5
   919
  8
0
  6
CONTINUOUS
 62
     1
 10
-367.16374202262
 20
-130.991820849802
 30
0.0
 40
2.00000008940697
  1
93-04-05 ROTA S.
 50
359.999999948034
 41
0.749999861419206
 72
     2
 11
-343.46374535005
 21
-130.991820871178
 31
0.0
  0
TEXT
  5
   91A
  8
0
  6
CONTINUOUS
 62
     1
 10
-265.271728430006
 20
-157.171065643224
 30
0.0
 40
4.00000017881393
  1
601812/031
 50
359.999999948034
 41
0.937499973922969
 72
     2
 11
-228.521727830234
 21
-157.17106567637
 31
0.0
  0
TEXT
  5
   91B
  8
0
  6
CONTINUOUS
 62
     1
 10
-247.186035092036
 20
-148.189483561962
 30
0.0
 40
3.00000002980232
  1
S4
 50
359.999999948034
 41
0.916666604744064
 72
     2
 11
-242.236035381615
 21
-148.189483566427
 31
0.0
  0
TEXT
  5
   91C
  8
0
  6
CONTINUOUS
 62
     1
 10
-275.720454947064
 20
-129.879211450795
 30
0.0
 40
2.00000008940697
  1
4POLE LOW VOLTAGE M.C.C.B SERIES ISOMAX
 50
359.999999948034
 41
0.749999861419206
 72
     1
 11
-246.6204590261
 21
-128.879211432338
 31
0.0
 73
     2
  0
TEXT
  5
   91D
  8
0
  6
CONTINUOUS
 62
     1
 10
-268.220455866462
 20
-132.879211457559
 30
0.0
 40
2.00000008940697
  1
FIXED VERSION TERMINALS CABLE
 50
359.999999948034
 41
0.749999861419206
 72
     1
 11
-246.620458894966
 21
-131.879211432338
 31
0.0
 73
     2
  0
TEXT
  5
   91E
  8
0
  6
CONTINUOUS
 62
     1
 10
-272.518063314418
 20
-137.949478180516
 30
0.0
 40
2.00000008940697
  1
INTERR.AUTOMATICO SERIE ISOMAX
 50
359.999999948034
 41
0.749999861419206
 72
     1
 11
-250.168066447975
 21
-136.949478155971
 31
0.0
 73
     2
  0
TEXT
  5
   91F
  8
0
  6
CONTINUOUS
 62
     1
 10
-280.018062132752
 20
-140.949478173751
 30
0.0
 40
2.00000008940697
  1
TETRAP.ESECUZIONE FISSA TERMINALI X CAVI
 50
359.999999948034
 41
0.749999861419206
 72
     1
 11
-250.168066316841
 21
-139.949478155971
 31
0.0
 73
     2
  0
LINE
  5
   920
  8
0
  6
DASHDOT
 62
     3
 10
-483.909637451172
 20
-85.2911372181673
 30
0.0
 11
-483.909637451172
 21
-146.944108147476
 31
0.0
  0
LINE
  5
   921
  8
0
  6
DASHDOT
 62
     3
 10
-474.35560723383
 20
-98.5187008529902
 30
0.0
 11
-493.790972320364
 21
-98.5187008529902
 31
0.0
  0
LINE
  5
   922
  8
0
  6
DASHDOT
 62
     3
 10
-473.956131454571
 20
-141.31870149076
 30
0.0
 11
-493.113600346839
 21
-141.31870149076
 31
0.0
  0
CIRCLE
  5
   923
  8
0
  6
CONTINUOUS
 62
     7
 10
-480.409637399018
 20
-98.5187008529902
 30
0.0
 40
0.550000008195639
  0
CIRCLE
  5
   924
  8
0
  6
CONTINUOUS
 62
     7
 10
-480.409637399018
 20
-141.31870149076
 30
0.0
 40
0.550000008195639
  0
LINE
  5
   925
  8
0
  6
DASHDOT
 62
     3
 10
-480.409637399018
 20
-93.0669834840002
 30
0.0
 11
-480.409637399018
 21
-143.581951650208
 31
0.0
  0
LINE
  5
   926
  8
0
  6
DASHDOT
 62
     3
 10
-494.409637607634
 20
-93.0669834840002
 30
0.0
 11
-494.409637607634
 21
-143.799920606785
 31
0.0
  0
CIRCLE
  5
   927
  8
0
  6
CONTINUOUS
 62
     7
 10
-494.409637607634
 20
-98.5187008529902
 30
0.0
 40
0.550000008195639
  0
CIRCLE
  5
   928
  8
0
  6
CONTINUOUS
 62
     7
 10
-494.409637607634
 20
-141.31870149076
 30
0.0
 40
0.550000008195639
  0
LINE
  5
   929
  8
0
  6
DASHDOT
 62
     2
 10
-471.364568992147
 20
-119.56870116666
 30
0.0
 11
-506.784411948456
 21
-119.56870116666
 31
0.0
  0
ARC
  5
   92A
  8
0
  6
CONTINUOUS
 62
     7
 10
-497.909637659788
 20
-93.9187007844448
 30
0.0
 40
3.00000004470348
 50
449.999999896069
 51
629.999999896069
  0
ARC
  5
   92B
  8
0
  6
CONTINUOUS
 62
     7
 10
-476.909637346864
 20
-93.9187007844448
 30
0.0
 40
3.00000004470348
 50
269.999999896069
 51
449.999999896069
  0
ARC
  5
   92C
  8
0
  6
CONTINUOUS
 62
     7
 10
-476.909637346864
 20
-145.918701559305
 30
0.0
 40
3.00000004470348
 50
269.999999896069
 51
449.999999896069
  0
ARC
  5
   92D
  8
0
  6
CONTINUOUS
 62
     7
 10
-497.909637659788
 20
-145.918701559305
 30
0.0
 40
3.00000004470348
 50
449.999999896069
 51
629.999999896069
  0
LINE
  5
   92E
  8
0
  6
CONTINUOUS
 62
     7
 10
-476.909637346864
 20
-90.9187007397413
 30
0.0
 11
-497.909637659788
 21
-90.9187007397413
 31
0.0
  0
LINE
  5
   92F
  8
0
  6
CONTINUOUS
 62
     7
 10
-476.909637346864
 20
-96.9187008291483
 30
0.0
 11
-497.909637659788
 21
-96.9187008291483
 31
0.0
  0
LINE
  5
   930
  8
0
  6
CONTINUOUS
 62
     7
 10
-476.909637346864
 20
-142.918701514602
 30
0.0
 11
-497.909637659788
 21
-142.918701514602
 31
0.0
  0
LINE
  5
   931
  8
0
  6
CONTINUOUS
 62
     7
 10
-476.909637346864
 20
-148.918701604009
 30
0.0
 11
-497.909637659788
 21
-148.918701604009
 31
0.0
  0
LINE
  5
   932
  8
0
  6
CONTINUOUS
 62
     7
 10
-504.860890428164
 20
-88.2101766685269
 30
0.0
 11
-504.860890428164
 21
-151.750198192633
 31
0.0
  0
LINE
  5
   933
  8
0
  6
CONTINUOUS
 62
     7
 10
-471.891360175639
 20
-151.750198192633
 30
0.0
 11
-504.860890428164
 21
-151.750198192633
 31
0.0
  0
LINE
  5
   934
  8
0
  6
CONTINUOUS
 62
     7
 10
-471.891360175639
 20
-88.2101766685269
 30
0.0
 11
-504.860890428164
 21
-88.2101766685269
 31
0.0
  0
LINE
  5
   935
  8
0
  6
CONTINUOUS
 62
     7
 10
-471.891360175639
 20
-88.2101766685269
 30
0.0
 11
-471.891360175639
 21
-151.750198192633
 31
0.0
  0
LINE
  5
   936
  8
0
  6
DASHDOT
 62
     7
 10
-476.909637346864
 20
-90.3187007308006
 30
0.0
 11
-476.909637346864
 21
-97.518700838089
 31
0.0
  0
LINE
  5
   937
  8
0
  6
DASHDOT
 62
     7
 10
-473.30963729322
 20
-93.9187007844448
 30
0.0
 11
-480.509637400508
 21
-93.9187007844448
 31
0.0
  0
LINE
  5
   938
  8
0
  6
DASHDOT
 62
     7
 10
-497.909637659788
 20
-90.3187007308006
 30
0.0
 11
-497.909637659788
 21
-97.518700838089
 31
0.0
  0
LINE
  5
   939
  8
0
  6
DASHDOT
 62
     7
 10
-494.309637606144
 20
-93.9187007844448
 30
0.0
 11
-501.509637713432
 21
-93.9187007844448
 31
0.0
  0
LINE
  5
   93A
  8
0
  6
DASHDOT
 62
     7
 10
-497.909637659788
 20
-142.318701505661
 30
0.0
 11
-497.909637659788
 21
-149.518701612949
 31
0.0
  0
LINE
  5
   93B
  8
0
  6
DASHDOT
 62
     7
 10
-494.309637606144
 20
-145.918701559305
 30
0.0
 11
-501.509637713432
 21
-145.918701559305
 31
0.0
  0
LINE
  5
   93C
  8
0
  6
DASHDOT
 62
     7
 10
-476.909637346864
 20
-142.318701505661
 30
0.0
 11
-476.909637346864
 21
-149.518701612949
 31
0.0
  0
LINE
  5
   93D
  8
0
  6
DASHDOT
 62
     7
 10
-473.30963729322
 20
-145.918701559305
 30
0.0
 11
-480.509637400508
 21
-145.918701559305
 31
0.0
  0
INSERT
  5
   93E
  8
0
  6
CONTINUOUS
 62
     7
  2
*UDIM1540
 10
0.0
 20
0.0
 30
0.0
  0
INSERT
  5
   93F
  8
0
  6
CONTINUOUS
 62
     7
  2
*UDIM1541
 10
0.0
 20
0.0
 30
0.0
  0
INSERT
  5
   940
  8
0
  6
CONTINUOUS
 62
     7
  2
*UDIM1542
 10
0.0
 20
0.0
 30
0.0
  0
INSERT
  5
   941
  8
0
  6
CONTINUOUS
 62
     7
  2
*UDIM1543
 10
0.0
 20
0.0
 30
0.0
  0
INSERT
  5
   942
  8
0
  6
CONTINUOUS
 62
     7
  2
*UDIM1544
 10
0.0
 20
0.0
 30
0.0
  0
TEXT
  5
   943
  8
0
  6
CONTINUOUS
 62
     7
 10
-485.400403238429
 20
-76.547093982918
 30
0.0
 40
2.99999994933605
  1
Y
 50
359.999999896069
 41
0.916666607525612
 72
     2
 11
-483.200403420223
 21
-76.5470939868976
 31
0.0
  0
TEXT
  5
   944
  8
0
  6
CONTINUOUS
 62
     7
 10
-522.193875695263
 20
-119.993263339118
 30
0.0
 40
2.99999994933605
  1
X
 50
359.999999896069
 41
0.916666607525612
 72
     2
 11
-519.993875877057
 21
-119.993263343097
 31
0.0
  0
TEXT
  5
   945
  8
0
  6
CONTINUOUS
 62
     7
 10
-469.952567848936
 20
-121.012812533387
 30
0.0
 40
2.99999994933605
  1
X
 50
359.999999896069
 41
0.916666607525612
 72
     2
 11
-467.75256803073
 21
-121.012812537367
 31
0.0
  0
TEXT
  5
   946
  8
0
  6
CONTINUOUS
 62
     7
 10
-485.128864690681
 20
-158.755392937409
 30
0.0
 40
2.99999994933605
  1
Y
 50
359.999999896069
 41
0.916666607525612
 72
     2
 11
-482.928864872475
 21
-158.755392941389
 31
0.0
  0
ENDSEC
  0
EOF
