  0
SECTION
  2
HEADER
  9
$ACADVER
  1
AC1009
999
I-DEAS Drafting Master Series 7m3 Not Encoded
  9
$EXTMIN
 10
0.0
 20
0.0
  9
$EXTMAX
 10
2.3145254E+002
 20
3.5509582E+002
  9
$TEXTSIZE
 40
1.25E-001
  9
$LTSCALE
 40
1.0
  9
$CLAYER
  8
AUTOCAD0
  9
$CECOLOR
 62
2
  9
$DIMASZ
 40
1.25E-001
  9
$DIMEXO
 40
6.25E-002
  9
$DIMDLI
 40
2.5E-001
  9
$DIMEXE
 40
1.25E-001
  9
$DIMTP
 40
5.0E-003
  9
$DIMTM
 40
-5.0E-003
  9
$DIMTXT
 40
3.0
  9
$DIMLIM
 70
0
  9
$DIMTIH
 70
1
  9
$DIMTOH
 70
1
  9
$DIMSE1
 70
0
  9
$DIMSE2
 70
0
  9
$DIMTAD
 70
0
  9
$DIMASO
 70
1
  9
$DIMALT
 70
0
  9
$DIMALTD
 70
0
  9
$DIMTOFL
 70
1
  9
$DIMTIX
 70
0
  9
$DIMSAH
 70
0
  9
$DIMTFAC
 40
1.0
  9
$DIMGAP
 40
6.25E-002
  9
$LUNITS
 70
2
  9
$LUPREC
 70
3
  9
$FILLETRAD
 40
1.0E+001
  9
$AUNITS
 70
0
  9
$AUPREC
 70
1
  9
$CHAMFERA
 40
6.0
  9
$CHAMFERB
 40
6.0
  9
$ANGBASE
 50
0.0
  9
$ANGDIR
 70
0
  9
$PDMODE
 70
2
  9
$PDSIZE
 40
-1.0E-002
  9
$SPLINETYPE
 70
6
  0
ENDSEC
  0
SECTION
  2
TABLES
  0
TABLE
  2
LTYPE
 70
8
  0
LTYPE
  2
HIDDENNEW00
  3
_ 
 70
64
 72
65
 73
2
 40
4.5
 49
3.0
 49
-1.5
  0
LTYPE
  2
HIDDENNEW01
  3
_ 
 70
64
 72
65
 73
2
 40
4.5
 49
3.0
 49
-1.5
  0
LTYPE
  2
HIDDEN
  3
_ 
 70
64
 72
65
 73
2
 40
4.5
 49
3.0
 49
-1.5
  0
LTYPE
  2
CENTERLINE
  3
_ 
 70
64
 72
65
 73
4
 40
3.0E+001
 49
2.4E+001
 49
-1.5
 49
3.0
 49
-1.5
  0
LTYPE
  2
PHANTOM
  3
_ 
 70
64
 72
65
 73
6
 40
2.95E+001
 49
1.9E+001
 49
-1.5
 49
3.0
 49
-1.5
 49
3.0
 49
-1.5
  0
LTYPE
  2
SHORT_DASH
  3
_ 
 70
64
 72
65
 73
2
 40
3.0
 49
1.5
 49
-1.5
  0
LTYPE
  2
LONG_DASH
  3
_ 
 70
64
 72
65
 73
2
 40
9.0
 49
4.5
 49
-4.5
  0
LTYPE
  2
PKV1
  3
_ 
 70
64
 72
65
 73
4
 40
8.06
 49
6.0
 49
-1.0
 49
6.0E-002
 49
-1.0
  0
ENDTAB
  0
TABLE
  2
LAYER
 70
258
  0
LAYER
  2
AUTOCAD0
 70
0
 62
7
  6
HIDDENNEW00
  0
LAYER
  2
Drafting_Hidden_Entities
 70
1
 62
7
  6
CONTINUOUS
  0
ENDTAB
  0
TABLE
  2
STYLE
 70
1
  0
STYLE
  2
STANDARD
 70
64
 40
0.0
 41
1.0
 50
0.0
 71
0
 42
1.0
  3
monotxt.shx
  4

  0
ENDTAB
  0
TABLE
  2
VIEW
 70
0
  0
ENDTAB
  0
TABLE
  2
DIMSTYLE
 70
0
  0
ENDTAB
  0
ENDSEC
  0
SECTION
  2
BLOCKS
  0
ENDSEC
  0
SECTION
  2
ENTITIES
  0
LINE
  8
AUTOCAD0
  6
CONTINUOUS
 62
40
 10
2.0145254E+002
 20
1.275E+002
 11
2.3145254E+002
 21
1.275E+002
  0
LINE
  8
AUTOCAD0
  6
CONTINUOUS
 62
40
 10
2.0395254E+002
 20
1.62E+002
 11
2.2895254E+002
 21
1.62E+002
  0
LINE
  8
AUTOCAD0
  6
CONTINUOUS
 62
40
 10
2.2895254E+002
 20
1.62E+002
 11
2.2895254E+002
 21
1.275E+002
  0
LINE
  8
AUTOCAD0
  6
CONTINUOUS
 62
40
 10
2.0395254E+002
 20
1.62E+002
 11
2.0395254E+002
 21
1.275E+002
  0
CIRCLE
  8
AUTOCAD0
  6
CONTINUOUS
 62
40
 10
2.1645254E+002
 20
1.045E+002
 40
6.5
  0
LINE
  8
AUTOCAD0
  6
CONTINUOUS
 62
40
 10
2.1319851E+002
 20
9.8873166E+001
 11
2.2126326E+002
 21
1.0887115E+002
  0
LINE
  8
AUTOCAD0
  6
CONTINUOUS
 62
40
 10
2.1164182E+002
 20
1.0012885E+002
 11
2.1970657E+002
 21
1.1012683E+002
  0
CIRCLE
  8
AUTOCAD0
  6
CONTINUOUS
 62
40
 10
2.1645254E+002
 20
1.5E+002
 40
5.0
  0
CIRCLE
  8
AUTOCAD0
  6
CONTINUOUS
 62
40
 10
2.1645254E+002
 20
1.5E+002
 40
8.5
  0
LINE
  8
AUTOCAD0
  6
CONTINUOUS
 62
40
 10
2.2625388E+002
 20
1.5E+002
 11
2.2135321E+002
 21
1.5848821E+002
  0
LINE
  8
AUTOCAD0
  6
CONTINUOUS
 62
40
 10
2.2135321E+002
 20
1.5848821E+002
 11
2.1155187E+002
 21
1.5848821E+002
  0
LINE
  8
AUTOCAD0
  6
CONTINUOUS
 62
40
 10
2.1155187E+002
 20
1.5848821E+002
 11
2.066512E+002
 21
1.5E+002
  0
LINE
  8
AUTOCAD0
  6
CONTINUOUS
 62
40
 10
2.066512E+002
 20
1.5E+002
 11
2.1155187E+002
 21
1.4151179E+002
  0
LINE
  8
AUTOCAD0
  6
CONTINUOUS
 62
40
 10
2.1155187E+002
 20
1.4151179E+002
 11
2.2135321E+002
 21
1.4151179E+002
  0
LINE
  8
AUTOCAD0
  6
CONTINUOUS
 62
40
 10
2.2135321E+002
 20
1.4151179E+002
 11
2.2625388E+002
 21
1.5E+002
  0
CIRCLE
  8
AUTOCAD0
  6
CONTINUOUS
 62
40
 10
2.1645254E+002
 20
1.5E+002
 40
1.225E+001
  0
LINE
  8
AUTOCAD0
  6
CONTINUOUS
 62
40
 10
2.3145254E+002
 20
1.275E+002
 11
2.3145254E+002
 21
8.25E+001
  0
LINE
  8
AUTOCAD0
  6
CONTINUOUS
 62
40
 10
2.0395254E+002
 20
1.115E+002
 11
2.2895254E+002
 21
1.115E+002
  0
LINE
  8
AUTOCAD0
  6
CONTINUOUS
 62
40
 10
2.3145254E+002
 20
3.75E+001
 11
2.3145254E+002
 21
8.25E+001
  0
CIRCLE
  8
AUTOCAD0
  6
CONTINUOUS
 62
40
 10
2.1645254E+002
 20
1.5E+001
 40
1.225E+001
  0
LINE
  8
AUTOCAD0
  6
CONTINUOUS
 62
40
 10
2.2625388E+002
 20
1.5E+001
 11
2.2135321E+002
 21
6.511787
  0
LINE
  8
AUTOCAD0
  6
CONTINUOUS
 62
40
 10
2.2135321E+002
 20
6.511787
 11
2.1155187E+002
 21
6.511787
  0
LINE
  8
AUTOCAD0
  6
CONTINUOUS
 62
40
 10
2.1155187E+002
 20
6.511787
 11
2.066512E+002
 21
1.5E+001
  0
LINE
  8
AUTOCAD0
  6
CONTINUOUS
 62
40
 10
2.066512E+002
 20
1.5E+001
 11
2.1155187E+002
 21
2.3488213E+001
  0
LINE
  8
AUTOCAD0
  6
CONTINUOUS
 62
40
 10
2.1155187E+002
 20
2.3488213E+001
 11
2.2135321E+002
 21
2.3488213E+001
  0
LINE
  8
AUTOCAD0
  6
CONTINUOUS
 62
40
 10
2.2135321E+002
 20
2.3488213E+001
 11
2.2625388E+002
 21
1.5E+001
  0
CIRCLE
  8
AUTOCAD0
  6
CONTINUOUS
 62
40
 10
2.1645254E+002
 20
1.5E+001
 40
8.5
  0
CIRCLE
  8
AUTOCAD0
  6
CONTINUOUS
 62
40
 10
2.1645254E+002
 20
1.5E+001
 40
5.0
  0
LINE
  8
AUTOCAD0
  6
CONTINUOUS
 62
40
 10
2.1164182E+002
 20
6.4871154E+001
 11
2.1970657E+002
 21
5.4873166E+001
  0
LINE
  8
AUTOCAD0
  6
CONTINUOUS
 62
40
 10
2.1319851E+002
 20
6.6126834E+001
 11
2.2126326E+002
 21
5.6128846E+001
  0
CIRCLE
  8
AUTOCAD0
  6
CONTINUOUS
 62
40
 10
2.1645254E+002
 20
6.05E+001
 40
6.5
  0
LINE
  8
AUTOCAD0
  6
CONTINUOUS
 62
40
 10
2.0395254E+002
 20
3.0
 11
2.0395254E+002
 21
3.75E+001
  0
LINE
  8
AUTOCAD0
  6
CONTINUOUS
 62
40
 10
2.2895254E+002
 20
3.0
 11
2.2895254E+002
 21
3.75E+001
  0
LINE
  8
AUTOCAD0
  6
CONTINUOUS
 62
40
 10
2.0395254E+002
 20
3.0
 11
2.2895254E+002
 21
3.0
  0
LINE
  8
AUTOCAD0
  6
CONTINUOUS
 62
40
 10
2.0145254E+002
 20
3.75E+001
 11
2.3145254E+002
 21
3.75E+001
  0
LINE
  8
AUTOCAD0
  6
CONTINUOUS
 62
40
 10
2.0145254E+002
 20
3.75E+001
 11
2.0145254E+002
 21
1.275E+002
  0
LINE
  8
AUTOCAD0
  6
CONTINUOUS
 62
40
 10
2.0395254E+002
 20
4.95E+001
 11
2.2895254E+002
 21
4.95E+001
  0
LINE
  8
AUTOCAD0
  6
CONTINUOUS
 62
40
 10
2.2895254E+002
 20
1.115E+002
 11
2.2895254E+002
 21
4.95E+001
  0
LINE
  8
AUTOCAD0
  6
CONTINUOUS
 62
40
 10
2.0395254E+002
 20
1.115E+002
 11
2.0395254E+002
 21
4.95E+001
  0
LINE
  8
AUTOCAD0
  6
CONTINUOUS
 62
40
 10
2.3145254E+002
 20
2.8635301E+002
 11
2.3145254E+002
 21
3.1335301E+002
  0
LINE
  8
AUTOCAD0
  6
CONTINUOUS
 62
40
 10
2.0145254E+002
 20
2.8635301E+002
 11
2.0145254E+002
 21
3.1335301E+002
  0
LINE
  8
AUTOCAD0
  6
CONTINUOUS
 62
40
 10
1.9695254E+002
 20
2.8635301E+002
 11
2.3145254E+002
 21
2.8635301E+002
  0
LINE
  8
AUTOCAD0
  6
CONTINUOUS
 62
40
 10
2.0145254E+002
 20
3.1335301E+002
 11
2.0395254E+002
 21
3.1335301E+002
  0
LINE
  8
AUTOCAD0
  6
CONTINUOUS
 62
40
 10
2.2895254E+002
 20
3.1135301E+002
 11
2.2895254E+002
 21
3.1535301E+002
  0
LINE
  8
AUTOCAD0
  6
CONTINUOUS
 62
40
 10
2.0395254E+002
 20
3.1135301E+002
 11
2.0395254E+002
 21
3.1535301E+002
  0
LINE
  8
AUTOCAD0
  6
CONTINUOUS
 62
40
 10
2.0395254E+002
 20
3.1535301E+002
 11
2.2895254E+002
 21
3.1535301E+002
  0
LINE
  8
AUTOCAD0
  6
CONTINUOUS
 62
40
 10
2.0395254E+002
 20
3.1135301E+002
 11
2.2895254E+002
 21
3.1135301E+002
  0
LINE
  8
AUTOCAD0
  6
CONTINUOUS
 62
40
 10
2.2895254E+002
 20
3.1335301E+002
 11
2.3145254E+002
 21
3.1335301E+002
  0
LINE
  8
AUTOCAD0
  6
CONTINUOUS
 62
40
 10
2.066512E+002
 20
3.0485301E+002
 11
2.2625388E+002
 21
3.0485301E+002
  0
LINE
  8
AUTOCAD0
  6
CONTINUOUS
 62
40
 10
2.066512E+002
 20
3.0485301E+002
 11
2.066512E+002
 21
3.1135301E+002
  0
LINE
  8
AUTOCAD0
  6
CONTINUOUS
 62
40
 10
2.1155187E+002
 20
3.0485301E+002
 11
2.1155187E+002
 21
3.1135301E+002
  0
LINE
  8
AUTOCAD0
  6
CONTINUOUS
 62
40
 10
2.2135321E+002
 20
3.0485301E+002
 11
2.2135321E+002
 21
3.1135301E+002
  0
LINE
  8
AUTOCAD0
  6
CONTINUOUS
 62
40
 10
2.2625388E+002
 20
3.0485301E+002
 11
2.2625388E+002
 21
3.1135301E+002
  0
LINE
  8
AUTOCAD0
  6
CONTINUOUS
 62
40
 10
2.0420254E+002
 20
3.1535301E+002
 11
2.0420254E+002
 21
3.2135301E+002
  0
LINE
  8
AUTOCAD0
  6
CONTINUOUS
 62
40
 10
2.0420254E+002
 20
3.1835301E+002
 11
2.2870254E+002
 21
3.1835301E+002
  0
LINE
  8
AUTOCAD0
  6
CONTINUOUS
 62
40
 10
2.0420254E+002
 20
3.2135301E+002
 11
2.2870254E+002
 21
3.2135301E+002
  0
LINE
  8
AUTOCAD0
  6
CONTINUOUS
 62
40
 10
2.2870254E+002
 20
3.1535301E+002
 11
2.2870254E+002
 21
3.2135301E+002
  0
LINE
  8
AUTOCAD0
  6
CONTINUOUS
 62
40
 10
2.1145254E+002
 20
3.4135301E+002
 11
2.2145254E+002
 21
3.4135301E+002
  0
LINE
  8
AUTOCAD0
  6
CONTINUOUS
 62
40
 10
2.066512E+002
 20
3.2885301E+002
 11
2.2625388E+002
 21
3.2885301E+002
  0
LINE
  8
AUTOCAD0
  6
CONTINUOUS
 62
40
 10
2.2145254E+002
 20
3.2885301E+002
 11
2.2145254E+002
 21
3.4135301E+002
  0
LINE
  8
AUTOCAD0
  6
CONTINUOUS
 62
40
 10
2.1145254E+002
 20
3.2885301E+002
 11
2.1145254E+002
 21
3.4135301E+002
  0
LINE
  8
AUTOCAD0
  6
CONTINUOUS
 62
40
 10
2.2625388E+002
 20
3.2135301E+002
 11
2.2625388E+002
 21
3.2885301E+002
  0
LINE
  8
AUTOCAD0
  6
CONTINUOUS
 62
40
 10
2.2135321E+002
 20
3.2135301E+002
 11
2.2135321E+002
 21
3.2885301E+002
  0
LINE
  8
AUTOCAD0
  6
CONTINUOUS
 62
40
 10
2.1155187E+002
 20
3.2135301E+002
 11
2.1155187E+002
 21
3.2885301E+002
  0
LINE
  8
AUTOCAD0
  6
CONTINUOUS
 62
40
 10
2.066512E+002
 20
3.2135301E+002
 11
2.066512E+002
 21
3.2885301E+002
  0
LINE
  8
AUTOCAD0
  6
CONTINUOUS
 62
40
 10
2.1195254E+002
 20
3.2885301E+002
 11
2.1195254E+002
 21
3.4135301E+002
  0
LINE
  8
AUTOCAD0
  6
CONTINUOUS
 62
40
 10
2.2095254E+002
 20
3.2885301E+002
 11
2.2095254E+002
 21
3.4135301E+002
  0
LINE
  8
AUTOCAD0
  6
PKV1
 62
40
 10
2.1645254E+002
 20
3.4857673E+002
 11
2.1645254E+002
 21
2.5961561E+002
  0
LINE
  8
AUTOCAD0
  6
CONTINUOUS
 62
40
 10
1.9695254E+002
 20
2.8435301E+002
 11
2.2295254E+002
 21
2.8435301E+002
  0
LINE
  8
AUTOCAD0
  6
CONTINUOUS
 62
40
 10
2.2295254E+002
 20
2.8435301E+002
 11
2.2295254E+002
 21
2.8635301E+002
  0
LINE
  8
AUTOCAD0
  6
CONTINUOUS
 62
40
 10
2.1145254E+002
 20
2.7785301E+002
 11
2.1145254E+002
 21
2.8435301E+002
  0
LINE
  8
AUTOCAD0
  6
CONTINUOUS
 62
40
 10
2.2145254E+002
 20
2.7785301E+002
 11
2.2145254E+002
 21
2.8435301E+002
  0
LINE
  8
AUTOCAD0
  6
CONTINUOUS
 62
40
 10
2.2145254E+002
 20
2.7785301E+002
 11
2.1145254E+002
 21
2.7785301E+002
  0
LINE
  8
AUTOCAD0
  6
CONTINUOUS
 62
40
 10
2.2145254E+002
 20
2.8285301E+002
 11
2.1145254E+002
 21
2.8285301E+002
  0
LINE
  8
AUTOCAD0
  6
CONTINUOUS
 62
40
 10
3.0E+001
 20
1.62E+002
 11
2.6E+001
 21
1.62E+002
  0
LINE
  8
AUTOCAD0
  6
CONTINUOUS
 62
40
 10
3.9E+001
 20
1.275E+002
 11
2.8E+001
 21
1.275E+002
  0
LINE
  8
AUTOCAD0
  6
CONTINUOUS
 62
40
 10
2.6E+001
 20
1.6225E+002
 11
2.6E+001
 21
2.75
  0
LINE
  8
AUTOCAD0
  6
CONTINUOUS
 62
40
 10
3.0E+001
 20
1.62E+002
 11
3.0E+001
 21
1.275E+002
  0
LINE
  8
AUTOCAD0
  6
CONTINUOUS
 62
40
 10
3.45E+001
 20
1.115E+002
 11
2.8E+001
 21
1.115E+002
  0
LINE
  8
AUTOCAD0
  6
CONTINUOUS
 62
40
 10
2.8E+001
 20
1.275E+002
 11
2.8E+001
 21
1.115E+002
  0
LINE
  8
AUTOCAD0
  6
CONTINUOUS
 62
40
 10
3.45E+001
 20
8.25E+001
 11
3.45E+001
 21
1.115E+002
  0
LINE
  8
AUTOCAD0
  6
CONTINUOUS
 62
40
 10
3.0E+001
 20
9.7E+001
 11
2.6E+001
 21
9.7E+001
  0
LINE
  8
AUTOCAD0
  6
CONTINUOUS
 62
40
 10
3.0E+001
 20
1.115E+002
 11
3.0E+001
 21
9.7E+001
  0
LINE
  8
AUTOCAD0
  6
CONTINUOUS
 62
40
 10
3.65E+001
 20
1.5848821E+002
 11
3.65E+001
 21
1.4151179E+002
  0
LINE
  8
AUTOCAD0
  6
CONTINUOUS
 62
40
 10
2.6E+001
 20
1.6225E+002
 11
2.0E+001
 21
1.6225E+002
  0
LINE
  8
AUTOCAD0
  6
CONTINUOUS
 62
40
 10
2.3E+001
 20
1.6225E+002
 11
2.3E+001
 21
1.3775E+002
  0
LINE
  8
AUTOCAD0
  6
CONTINUOUS
 62
40
 10
2.0E+001
 20
1.6225E+002
 11
2.0E+001
 21
1.3775E+002
  0
LINE
  8
AUTOCAD0
  6
CONTINUOUS
 62
40
 10
2.6E+001
 20
1.3775E+002
 11
2.0E+001
 21
1.3775E+002
  0
LINE
  8
AUTOCAD0
  6
CONTINUOUS
 62
40
 10
0.0
 20
1.55E+002
 11
0.0
 21
1.45E+002
  0
LINE
  8
AUTOCAD0
  6
CONTINUOUS
 62
40
 10
1.25E+001
 20
1.5848821E+002
 11
1.25E+001
 21
1.4151179E+002
  0
LINE
  8
AUTOCAD0
  6
CONTINUOUS
 62
40
 10
1.25E+001
 20
1.45E+002
 11
0.0
 21
1.45E+002
  0
LINE
  8
AUTOCAD0
  6
CONTINUOUS
 62
40
 10
1.25E+001
 20
1.55E+002
 11
0.0
 21
1.55E+002
  0
LINE
  8
AUTOCAD0
  6
CONTINUOUS
 62
40
 10
1.25E+001
 20
1.545E+002
 11
0.0
 21
1.545E+002
  0
LINE
  8
AUTOCAD0
  6
CONTINUOUS
 62
40
 10
1.25E+001
 20
1.455E+002
 11
0.0
 21
1.455E+002
  0
LINE
  8
AUTOCAD0
  6
CONTINUOUS
 62
40
 10
5.5E+001
 20
1.1325E+002
 11
5.5E+001
 21
5.175E+001
  0
LINE
  8
AUTOCAD0
  6
CONTINUOUS
 62
40
 10
2.6E+001
 20
1.115E+002
 11
2.2E+001
 21
1.115E+002
  0
LINE
  8
AUTOCAD0
  6
CONTINUOUS
 62
40
 10
2.6E+001
 20
4.95E+001
 11
2.2E+001
 21
4.95E+001
  0
LINE
  8
AUTOCAD0
  6
CONTINUOUS
 62
40
 10
2.2E+001
 20
1.115E+002
 11
2.2E+001
 21
4.95E+001
  0
LINE
  8
AUTOCAD0
  6
CONTINUOUS
 62
40
 10
1.65E+001
 20
1.11E+002
 11
1.65E+001
 21
9.8E+001
  0
LINE
  8
AUTOCAD0
  6
CONTINUOUS
 62
40
 10
1.65E+001
 20
1.11E+002
 11
2.2E+001
 21
1.11E+002
  0
LINE
  8
AUTOCAD0
  6
CONTINUOUS
 62
40
 10
1.65E+001
 20
9.8E+001
 11
2.2E+001
 21
9.8E+001
  0
LINE
  8
AUTOCAD0
  6
CONTINUOUS
 62
40
 10
5.7E+001
 20
1.1325E+002
 11
5.7E+001
 21
5.175E+001
  0
LINE
  8
AUTOCAD0
  6
CONTINUOUS
 62
40
 10
6.35E+001
 20
9.0E+001
 11
5.7E+001
 21
9.0E+001
  0
LINE
  8
AUTOCAD0
  6
CONTINUOUS
 62
40
 10
6.35E+001
 20
1.0E+002
 11
5.7E+001
 21
1.0E+002
  0
LINE
  8
AUTOCAD0
  6
CONTINUOUS
 62
40
 10
6.35E+001
 20
1.0E+002
 11
6.35E+001
 21
9.0E+001
  0
LINE
  8
AUTOCAD0
  6
CONTINUOUS
 62
40
 10
5.85E+001
 20
1.0E+002
 11
5.85E+001
 21
9.0E+001
  0
LINE
  8
AUTOCAD0
  6
CONTINUOUS
 62
40
 10
1.25E+001
 20
1.5848821E+002
 11
2.0E+001
 21
1.5848821E+002
  0
LINE
  8
AUTOCAD0
  6
CONTINUOUS
 62
40
 10
1.25E+001
 20
1.5E+002
 11
2.0E+001
 21
1.5E+002
  0
LINE
  8
AUTOCAD0
  6
CONTINUOUS
 62
40
 10
1.25E+001
 20
1.4151179E+002
 11
2.0E+001
 21
1.4151179E+002
  0
LINE
  8
AUTOCAD0
  6
CONTINUOUS
 62
40
 10
3.0E+001
 20
1.4151179E+002
 11
3.65E+001
 21
1.4151179E+002
  0
LINE
  8
AUTOCAD0
  6
CONTINUOUS
 62
40
 10
3.0E+001
 20
1.5E+002
 11
3.65E+001
 21
1.5E+002
  0
LINE
  8
AUTOCAD0
  6
CONTINUOUS
 62
40
 10
3.0E+001
 20
1.5848821E+002
 11
3.65E+001
 21
1.5848821E+002
  0
LINE
  8
AUTOCAD0
  6
CONTINUOUS
 62
40
 10
3.0E+001
 20
6.511787
 11
3.65E+001
 21
6.511787
  0
LINE
  8
AUTOCAD0
  6
CONTINUOUS
 62
40
 10
3.0E+001
 20
1.5E+001
 11
3.65E+001
 21
1.5E+001
  0
LINE
  8
AUTOCAD0
  6
CONTINUOUS
 62
40
 10
3.0E+001
 20
2.3488213E+001
 11
3.65E+001
 21
2.3488213E+001
  0
LINE
  8
AUTOCAD0
  6
CONTINUOUS
 62
40
 10
1.25E+001
 20
2.3488213E+001
 11
2.0E+001
 21
2.3488213E+001
  0
LINE
  8
AUTOCAD0
  6
CONTINUOUS
 62
40
 10
1.25E+001
 20
1.5E+001
 11
2.0E+001
 21
1.5E+001
  0
LINE
  8
AUTOCAD0
  6
CONTINUOUS
 62
40
 10
1.25E+001
 20
6.511787
 11
2.0E+001
 21
6.511787
  0
LINE
  8
AUTOCAD0
  6
CONTINUOUS
 62
40
 10
1.25E+001
 20
1.95E+001
 11
0.0
 21
1.95E+001
  0
LINE
  8
AUTOCAD0
  6
CONTINUOUS
 62
40
 10
1.25E+001
 20
1.05E+001
 11
0.0
 21
1.05E+001
  0
LINE
  8
AUTOCAD0
  6
CONTINUOUS
 62
40
 10
1.25E+001
 20
1.0E+001
 11
0.0
 21
1.0E+001
  0
LINE
  8
AUTOCAD0
  6
CONTINUOUS
 62
40
 10
1.25E+001
 20
2.0E+001
 11
0.0
 21
2.0E+001
  0
LINE
  8
AUTOCAD0
  6
CONTINUOUS
 62
40
 10
1.25E+001
 20
6.511787
 11
1.25E+001
 21
2.3488213E+001
  0
LINE
  8
AUTOCAD0
  6
CONTINUOUS
 62
40
 10
0.0
 20
1.0E+001
 11
0.0
 21
2.0E+001
  0
LINE
  8
AUTOCAD0
  6
CONTINUOUS
 62
40
 10
2.6E+001
 20
2.725E+001
 11
2.0E+001
 21
2.725E+001
  0
LINE
  8
AUTOCAD0
  6
CONTINUOUS
 62
40
 10
2.0E+001
 20
2.75
 11
2.0E+001
 21
2.725E+001
  0
LINE
  8
AUTOCAD0
  6
CONTINUOUS
 62
40
 10
2.3E+001
 20
2.75
 11
2.3E+001
 21
2.725E+001
  0
LINE
  8
AUTOCAD0
  6
CONTINUOUS
 62
40
 10
2.6E+001
 20
2.75
 11
2.0E+001
 21
2.75
  0
LINE
  8
AUTOCAD0
  6
CONTINUOUS
 62
40
 10
3.65E+001
 20
6.511787
 11
3.65E+001
 21
2.3488213E+001
  0
LINE
  8
AUTOCAD0
  6
CONTINUOUS
 62
40
 10
3.0E+001
 20
3.0
 11
3.0E+001
 21
3.75E+001
  0
LINE
  8
AUTOCAD0
  6
CONTINUOUS
 62
40
 10
3.0E+001
 20
3.0
 11
2.6E+001
 21
3.0
  0
LINE
  8
AUTOCAD0
  6
CONTINUOUS
 62
40
 10
5.85E+001
 20
6.5E+001
 11
5.85E+001
 21
7.5E+001
  0
LINE
  8
AUTOCAD0
  6
CONTINUOUS
 62
40
 10
6.35E+001
 20
6.5E+001
 11
6.35E+001
 21
7.5E+001
  0
LINE
  8
AUTOCAD0
  6
CONTINUOUS
 62
40
 10
6.35E+001
 20
6.5E+001
 11
5.7E+001
 21
6.5E+001
  0
LINE
  8
AUTOCAD0
  6
CONTINUOUS
 62
40
 10
6.35E+001
 20
7.5E+001
 11
5.7E+001
 21
7.5E+001
  0
LINE
  8
AUTOCAD0
  6
CONTINUOUS
 62
40
 10
1.65E+001
 20
6.7E+001
 11
2.2E+001
 21
6.7E+001
  0
LINE
  8
AUTOCAD0
  6
CONTINUOUS
 62
40
 10
1.65E+001
 20
5.4E+001
 11
2.2E+001
 21
5.4E+001
  0
LINE
  8
AUTOCAD0
  6
CONTINUOUS
 62
40
 10
1.65E+001
 20
5.4E+001
 11
1.65E+001
 21
6.7E+001
  0
LINE
  8
AUTOCAD0
  6
CONTINUOUS
 62
40
 10
3.0E+001
 20
5.35E+001
 11
3.0E+001
 21
6.8E+001
  0
LINE
  8
AUTOCAD0
  6
CONTINUOUS
 62
40
 10
3.0E+001
 20
6.8E+001
 11
2.6E+001
 21
6.8E+001
  0
LINE
  8
AUTOCAD0
  6
CONTINUOUS
 62
40
 10
3.45E+001
 20
8.25E+001
 11
3.45E+001
 21
5.35E+001
  0
LINE
  8
AUTOCAD0
  6
CONTINUOUS
 62
40
 10
2.8E+001
 20
3.75E+001
 11
2.8E+001
 21
5.35E+001
  0
LINE
  8
AUTOCAD0
  6
CONTINUOUS
 62
40
 10
3.45E+001
 20
5.35E+001
 11
2.8E+001
 21
5.35E+001
  0
LINE
  8
AUTOCAD0
  6
CONTINUOUS
 62
40
 10
2.2745254E+002
 20
3.0235301E+002
 11
2.3145254E+002
 21
3.0235301E+002
  0
LINE
  8
AUTOCAD0
  6
CONTINUOUS
 62
40
 10
2.2745254E+002
 20
3.0735301E+002
 11
2.2625388E+002
 21
3.0735301E+002
  0
LINE
  8
AUTOCAD0
  6
CONTINUOUS
 62
40
 10
2.2745254E+002
 20
3.0235301E+002
 11
2.2745254E+002
 21
3.0735301E+002
  0
LINE
  8
AUTOCAD0
  6
CONTINUOUS
 62
40
 10
2.0545254E+002
 20
3.0235301E+002
 11
2.0545254E+002
 21
3.0735301E+002
  0
LINE
  8
AUTOCAD0
  6
CONTINUOUS
 62
40
 10
2.0545254E+002
 20
3.0735301E+002
 11
2.066512E+002
 21
3.0735301E+002
  0
LINE
  8
AUTOCAD0
  6
CONTINUOUS
 62
40
 10
2.0545254E+002
 20
3.0235301E+002
 11
2.0145254E+002
 21
3.0235301E+002
  0
LINE
  8
AUTOCAD0
  6
CONTINUOUS
 62
40
 10
5.5E+001
 20
1.115E+002
 11
3.9E+001
 21
1.275E+002
  0
LINE
  8
AUTOCAD0
  6
CONTINUOUS
 62
40
 10
5.5E+001
 20
5.35E+001
 11
3.9E+001
 21
3.75E+001
  0
LINE
  8
AUTOCAD0
  6
CONTINUOUS
 62
40
 10
3.9E+001
 20
3.75E+001
 11
2.8E+001
 21
3.75E+001
  0
TEXT
  8
AUTOCAD0
  6
CONTINUOUS
 62
40
 10
2.0799016E+002
 20
1.2235676E+002
 40
2.0
  1
OESAZX88
  0
LINE
  8
AUTOCAD0
  6
CONTINUOUS
 62
40
 10
8.45E+001
 20
1.1325E+002
 11
8.45E+001
 21
1.65E+002
  0
LINE
  8
AUTOCAD0
  6
CONTINUOUS
 62
40
 10
5.5E+001
 20
1.1325E+002
 11
8.45E+001
 21
1.1325E+002
  0
LINE
  8
AUTOCAD0
  6
CONTINUOUS
 62
40
 10
1.45E+002
 20
0.0
 11
1.45E+002
 21
1.65E+002
  0
LINE
  8
AUTOCAD0
  6
CONTINUOUS
 62
40
 10
8.45E+001
 20
1.65E+002
 11
1.45E+002
 21
1.65E+002
  0
LINE
  8
AUTOCAD0
  6
CONTINUOUS
 62
40
 10
8.45E+001
 20
0.0
 11
1.45E+002
 21
0.0
  0
LINE
  8
AUTOCAD0
  6
CONTINUOUS
 62
40
 10
8.45E+001
 20
5.175E+001
 11
8.45E+001
 21
0.0
  0
LINE
  8
AUTOCAD0
  6
CONTINUOUS
 62
40
 10
5.5E+001
 20
5.175E+001
 11
8.45E+001
 21
5.175E+001
  0
CIRCLE
  8
AUTOCAD0
  6
CONTINUOUS
 62
40
 10
1.295E+002
 20
1.055E+002
 40
1.15E+001
  0
CIRCLE
  8
AUTOCAD0
  6
CONTINUOUS
 62
40
 10
1.235E+002
 20
1.545E+002
 40
4.5
  0
CIRCLE
  8
AUTOCAD0
  6
CONTINUOUS
 62
40
 10
1.235E+002
 20
1.05E+001
 40
4.5
  0
CIRCLE
  8
AUTOCAD0
  6
CONTINUOUS
 62
40
 10
1.295E+002
 20
5.95E+001
 40
1.15E+001
  0
LINE
  8
AUTOCAD0
  6
CONTINUOUS
 62
40
 10
1.9295254E+002
 20
0.0
 11
1.9295254E+002
 21
1.65E+002
  0
LINE
  8
AUTOCAD0
  6
CONTINUOUS
 62
40
 10
1.9295254E+002
 20
1.1325E+002
 11
2.0145254E+002
 21
1.1325E+002
  0
LINE
  8
AUTOCAD0
  6
CONTINUOUS
 62
40
 10
1.9295254E+002
 20
1.65E+002
 11
1.9495254E+002
 21
1.65E+002
  0
LINE
  8
AUTOCAD0
  6
CONTINUOUS
 62
40
 10
1.9495254E+002
 20
1.1325E+002
 11
1.9495254E+002
 21
1.65E+002
  0
LINE
  8
AUTOCAD0
  6
CONTINUOUS
 62
40
 10
1.9495254E+002
 20
5.175E+001
 11
1.9495254E+002
 21
0.0
  0
LINE
  8
AUTOCAD0
  6
CONTINUOUS
 62
40
 10
1.9295254E+002
 20
0.0
 11
1.9495254E+002
 21
0.0
  0
LINE
  8
AUTOCAD0
  6
CONTINUOUS
 62
40
 10
1.9295254E+002
 20
5.175E+001
 11
2.0145254E+002
 21
5.175E+001
  0
LINE
  8
AUTOCAD0
  6
CONTINUOUS
 62
40
 10
1.9495254E+002
 20
1.9635301E+002
 11
1.9495254E+002
 21
2.8235301E+002
  0
LINE
  8
AUTOCAD0
  6
CONTINUOUS
 62
40
 10
1.9295254E+002
 20
1.9635301E+002
 11
1.9295254E+002
 21
2.8235301E+002
  0
LINE
  8
AUTOCAD0
  6
CONTINUOUS
 62
40
 10
1.9295254E+002
 20
1.9635301E+002
 11
1.9495254E+002
 21
1.9635301E+002
  0
LINE
  8
AUTOCAD0
  6
CONTINUOUS
 62
40
 10
1.9295254E+002
 20
2.5685301E+002
 11
1.9495254E+002
 21
2.5685301E+002
  0
ARC
  8
AUTOCAD0
  6
CONTINUOUS
 62
40
 10
1.9695254E+002
 20
2.8235301E+002
 40
2.0
 50
9.0E+001
 51
1.8E+002
  0
ARC
  8
AUTOCAD0
  6
CONTINUOUS
 62
40
 10
1.9695254E+002
 20
2.8235301E+002
 40
4.0
 50
9.0E+001
 51
1.8E+002
  0
LINE
  8
AUTOCAD0
  6
PKV1
 62
40
 10
1.8607092E+002
 20
1.545E+002
 11
2.0056609E+002
 21
1.545E+002
  0
LINE
  8
AUTOCAD0
  6
PKV1
 62
40
 10
1.8607092E+002
 20
1.055E+002
 11
1.9798917E+002
 21
1.055E+002
  0
LINE
  8
AUTOCAD0
  6
PKV1
 62
40
 10
1.8607092E+002
 20
5.95E+001
 11
1.9798917E+002
 21
5.95E+001
  0
LINE
  8
AUTOCAD0
  6
PKV1
 62
40
 10
1.8607092E+002
 20
1.05E+001
 11
2.0056609E+002
 21
1.05E+001
  0
LINE
  8
AUTOCAD0
  6
PKV1
 62
40
 10
1.8690023E+002
 20
2.1785301E+002
 11
2.013954E+002
 21
2.1785301E+002
  0
LINE
  8
AUTOCAD0
  6
PKV1
 62
40
 10
1.8690023E+002
 20
2.1185301E+002
 11
2.013954E+002
 21
2.1185301E+002
  0
ENDSEC
  0
EOF
