  0
SECTION
  2
HEADER
  9
$ACADVER
  1
AC1009
  9
$DWGCODEPAGE
  3
iso8859-1
  9
$INSBASE
 10
0.0
 20
0.0
 30
0.0
  9
$EXTMIN
 10
1.0E20
 20
1.0E20
  9
$EXTMAX
 10
-1.0E20
 20
-1.0E20
  9
$LIMMIN
 10
0.0
 20
0.0
  9
$LIMMAX
 10
12.0
 20
9.0
  9
$ORTHOMODE
 70
     0
  9
$REGENMODE
 70
     1
  9
$FILLMODE
 70
     1
  9
$QTEXTMODE
 70
     0
  9
$MIRRTEXT
 70
     1
  9
$DRAGMODE
 70
     2
  9
$LTSCALE
 40
15.0
  9
$OSMODE
 70
     0
  9
$ATTMODE
 70
     1
  9
$TEXTSIZE
 40
0.2
  9
$TRACEWID
 40
0.05
  9
$TEXTSTYLE
  7
STANDARD
  9
$CLAYER
  8
0
  9
$CELTYPE
  6
DASHED
  9
$CECOLOR
 62
   256
  9
$DIMSCALE
 40
1.0
  9
$DIMASZ
 40
0.18
  9
$DIMEXO
 40
0.0625
  9
$DIMDLI
 40
0.38
  9
$DIMRND
 40
0.0
  9
$DIMDLE
 40
0.0
  9
$DIMEXE
 40
0.18
  9
$DIMTP
 40
0.0
  9
$DIMTM
 40
0.0
  9
$DIMTXT
 40
0.18
  9
$DIMCEN
 40
0.09
  9
$DIMTSZ
 40
0.0
  9
$DIMTOL
 70
     0
  9
$DIMLIM
 70
     0
  9
$DIMTIH
 70
     1
  9
$DIMTOH
 70
     1
  9
$DIMSE1
 70
     0
  9
$DIMSE2
 70
     0
  9
$DIMTAD
 70
     0
  9
$DIMZIN
 70
     0
  9
$DIMBLK
  1

  9
$DIMASO
 70
     1
  9
$DIMSHO
 70
     1
  9
$DIMPOST
  1

  9
$DIMAPOST
  1

  9
$DIMALT
 70
     0
  9
$DIMALTD
 70
     2
  9
$DIMALTF
 40
25.4
  9
$DIMLFAC
 40
1.0
  9
$DIMTOFL
 70
     0
  9
$DIMTVP
 40
0.0
  9
$DIMTIX
 70
     0
  9
$DIMSOXD
 70
     0
  9
$DIMSAH
 70
     0
  9
$DIMBLK1
  1

  9
$DIMBLK2
  1

  9
$DIMSTYLE
  2
STANDARD
  9
$DIMCLRD
 70
     0
  9
$DIMCLRE
 70
     0
  9
$DIMCLRT
 70
     0
  9
$DIMTFAC
 40
1.0
  9
$DIMGAP
 40
0.09
  9
$LUNITS
 70
     2
  9
$LUPREC
 70
     4
  9
$AXISMODE
 70
     0
  9
$AXISUNIT
 10
0.0
 20
0.0
  9
$SKETCHINC
 40
0.1
  9
$FILLETRAD
 40
0.0
  9
$AUNITS
 70
     0
  9
$AUPREC
 70
     0
  9
$MENU
  1
acad
  9
$ELEVATION
 40
0.0
  9
$PELEVATION
 40
0.0
  9
$THICKNESS
 40
0.0
  9
$LIMCHECK
 70
     0
  9
$BLIPMODE
 70
     1
  9
$CHAMFERA
 40
0.0
  9
$CHAMFERB
 40
0.0
  9
$SKPOLY
 70
     0
  9
$TDCREATE
 40
0.000000000
  9
$TDUPDATE
 40
0.000000000
  9
$TDINDWG
 40
0.0
  9
$TDUSRTIMER
 40
0.0
  9
$USRTIMER
 70
     1
  9
$ANGBASE
 50
0.0
  9
$ANGDIR
 70
     0
  9
$PDMODE
 70
     0
  9
$PDSIZE
 40
0.0
  9
$PLINEWID
 40
0.0
  9
$COORDS
 70
     1
  9
$SPLFRAME
 70
     0
  9
$SPLINETYPE
 70
     6
  9
$SPLINESEGS
 70
     8
  9
$ATTDIA
 70
     0
  9
$ATTREQ
 70
     1
  9
$HANDLING
 70
     1
  9
$HANDSEED
  5
   8D5
  9
$SURFTAB1
 70
     6
  9
$SURFTAB2
 70
     6
  9
$SURFTYPE
 70
     6
  9
$SURFU
 70
     6
  9
$SURFV
 70
     6
  9
$UCSNAME
  2

  9
$UCSORG
 10
0.0
 20
0.0
 30
0.0
  9
$UCSXDIR
 10
1.0
 20
0.0
 30
0.0
  9
$UCSYDIR
 10
0.0
 20
1.0
 30
0.0
  9
$PUCSNAME
  2

  9
$PUCSORG
 10
0.0
 20
0.0
 30
0.0
  9
$PUCSXDIR
 10
1.0
 20
0.0
 30
0.0
  9
$PUCSYDIR
 10
0.0
 20
1.0
 30
0.0
  9
$USERI1
 70
     0
  9
$USERI2
 70
     0
  9
$USERI3
 70
     0
  9
$USERI4
 70
     0
  9
$USERI5
 70
     0
  9
$USERR1
 40
0.0
  9
$USERR2
 40
0.0
  9
$USERR3
 40
0.0
  9
$USERR4
 40
0.0
  9
$USERR5
 40
0.0
  9
$WORLDVIEW
 70
     1
  9
$SHADEDGE
 70
     3
  9
$SHADEDIF
 70
    70
  9
$TILEMODE
 70
     1
  9
$MAXACTVP
 70
    16
  9
$PINSBASE
 10
0.0
 20
0.0
 30
0.0
  9
$PLIMCHECK
 70
     0
  9
$PEXTMIN
 10
1.0E20
 20
1.0E20
 30
1.0E20
  9
$PEXTMAX
 10
-1.0E20
 20
-1.0E20
 30
-1.0E20
  9
$PLIMMIN
 10
0.0
 20
0.0
  9
$PLIMMAX
 10
12.0
 20
9.0
  9
$UNITMODE
 70
     0
  9
$VISRETAIN
 70
     0
  0
ENDSEC
  0
SECTION
  2
TABLES
  0
TABLE
  2
VPORT
 70
     1
  0
VPORT
  2
*ACTIVE
 70
     0
 10
0.0
 20
0.0
 11
1.0
 21
1.0
 12
6.801242
 22
4.5
 13
0.0
 23
0.0
 14
1.0
 24
1.0
 15
0.0
 25
0.0
 16
0.0
 26
0.0
 36
1.0
 17
0.0
 27
0.0
 37
0.0
 40
9.0
 41
1.511387
 42
50.0
 43
0.0
 44
0.0
 50
0.0
 51
0.0
 71
     0
 72
   100
 73
     1
 74
     1
 75
     0
 76
     0
 77
     0
 78
     0
  0
ENDTAB
  0
TABLE
  2
LTYPE
 70
    41
  0
LTYPE
  2
BYBLOCK
 70
     0
  3

 72
    65
 73
     0
 40
0.0
  0
LTYPE
  2
BYLAYER
 70
     0
  3

 72
    65
 73
     0
 40
0.0
  0
LTYPE
  2
CONTINUOUS
 70
     0
  3
Solid line
 72
    65
 73
     0
 40
0.0
  0
LTYPE
  2
BORDER
 70
    64
  3
__ __ . __ __ . __ __ . __ __ . __ __ . __ __ .
 72
    65
 73
     6
 40
1.75
 49
0.5
 49
-0.25
 49
0.5
 49
-0.25
 49
0.0
 49
-0.25
  0
LTYPE
  2
BORDER2
 70
    64
  3
__.__.__.__.__.__.__.__.__.__.__.__.__.__.__.__
 72
    65
 73
     6
 40
0.875
 49
0.25
 49
-0.125
 49
0.25
 49
-0.125
 49
0.0
 49
-0.125
  0
LTYPE
  2
BORDERX2
 70
    64
  3
____  ____  .  ____  ____  .  ____  ____  .  __
 72
    65
 73
     6
 40
3.5
 49
1.0
 49
-0.5
 49
1.0
 49
-0.5
 49
0.0
 49
-0.5
  0
LTYPE
  2
CENTER
 70
    64
  3
____ _ ____ _ ____ _ ____ _ ____ _ ____ _ ____
 72
    65
 73
     4
 40
2.0
 49
1.25
 49
-0.25
 49
0.25
 49
-0.25
  0
LTYPE
  2
CENTER2
 70
    64
  3
___ _ ___ _ ___ _ ___ _ ___ _ ___ _ ___ _ ___ _
 72
    65
 73
     4
 40
1.125
 49
0.75
 49
-0.125
 49
0.125
 49
-0.125
  0
LTYPE
  2
CENTERX2
 70
    64
  3
________  __  ________  __  ________  __  _____
 72
    65
 73
     4
 40
4.0
 49
2.5
 49
-0.5
 49
0.5
 49
-0.5
  0
LTYPE
  2
DASHDOT
 70
    64
  3
__ . __ . __ . __ . __ . __ . __ . __ . __ . __
 72
    65
 73
     4
 40
1.0
 49
0.5
 49
-0.25
 49
0.0
 49
-0.25
  0
LTYPE
  2
DASHDOT2
 70
    64
  3
_._._._._._._._._._._._._._._._._._._._._._._._
 72
    65
 73
     4
 40
0.5
 49
0.25
 49
-0.125
 49
0.0
 49
-0.125
  0
LTYPE
  2
DASHDOTX2
 70
    64
  3
____  .  ____  .  ____  .  ____  .  ____  .  __
 72
    65
 73
     4
 40
2.0
 49
1.0
 49
-0.5
 49
0.0
 49
-0.5
  0
LTYPE
  2
DASHED
 70
    64
  3
__ __ __ __ __ __ __ __ __ __ __ __ __ __ __ __
 72
    65
 73
     2
 40
0.75
 49
0.5
 49
-0.25
  0
LTYPE
  2
DASHED2
 70
    64
  3
_ _ _ _ _ _ _ _ _ _ _ _ _ _ _ _ _ _ _ _ _ _ _ _
 72
    65
 73
     2
 40
0.375
 49
0.25
 49
-0.125
  0
LTYPE
  2
DASHEDX2
 70
    64
  3
____  ____  ____  ____  ____  ____  ____  ____
 72
    65
 73
     2
 40
1.5
 49
1.0
 49
-0.5
  0
LTYPE
  2
DIVIDE
 70
    64
  3
____ . . ____ . . ____ . . ____ . . ____ . . __
 72
    65
 73
     6
 40
1.25
 49
0.5
 49
-0.25
 49
0.0
 49
-0.25
 49
0.0
 49
-0.25
  0
LTYPE
  2
DIVIDE2
 70
    64
  3
__..__..__..__..__..__..__..__..__..__..__..__.
 72
    65
 73
     6
 40
0.625
 49
0.25
 49
-0.125
 49
0.0
 49
-0.125
 49
0.0
 49
-0.125
  0
LTYPE
  2
DIVIDEX2
 70
    64
  3
________  .  .  ________  .  .  ________  .  .
 72
    65
 73
     6
 40
2.5
 49
1.0
 49
-0.5
 49
0.0
 49
-0.5
 49
0.0
 49
-0.5
  0
LTYPE
  2
DOT
 70
    64
  3
. . . . . . . . . . . . . . . . . . . . . . . .
 72
    65
 73
     2
 40
0.25
 49
0.0
 49
-0.25
  0
LTYPE
  2
DOT2
 70
    64
  3
...............................................
 72
    65
 73
     2
 40
0.125
 49
0.0
 49
-0.125
  0
LTYPE
  2
DOTX2
 70
    64
  3
.  .  .  .  .  .  .  .  .  .  .  .  .  .  .  .
 72
    65
 73
     2
 40
0.5
 49
0.0
 49
-0.5
  0
LTYPE
  2
HIDDEN
 70
    64
  3
__ __ __ __ __ __ __ __ __ __ __ __ __ __ __ __
 72
    65
 73
     2
 40
0.375
 49
0.25
 49
-0.125
  0
LTYPE
  2
HIDDEN2
 70
    64
  3
_ _ _ _ _ _ _ _ _ _ _ _ _ _ _ _ _ _ _ _ _ _ _ _
 72
    65
 73
     2
 40
0.1875
 49
0.125
 49
-0.0625
  0
LTYPE
  2
HIDDENX2
 70
    64
  3
____ ____ ____ ____ ____ ____ ____ ____ ____ __
 72
    65
 73
     2
 40
0.75
 49
0.5
 49
-0.25
  0
LTYPE
  2
PHANTOM
 70
    64
  3
______  __  __  ______  __  __  ______  __  __
 72
    65
 73
     6
 40
2.5
 49
1.25
 49
-0.25
 49
0.25
 49
-0.25
 49
0.25
 49
-0.25
  0
LTYPE
  2
PHANTOM2
 70
    64
  3
___ _ _ ___ _ _ ___ _ _ ___ _ _ ___ _ _ ___ _ _
 72
    65
 73
     6
 40
1.25
 49
0.625
 49
-0.125
 49
0.125
 49
-0.125
 49
0.125
 49
-0.125
  0
LTYPE
  2
PHANTOMX2
 70
    64
  3
____________    ____    ____    ____________
 72
    65
 73
     6
 40
5.0
 49
2.5
 49
-0.5
 49
0.5
 49
-0.5
 49
0.5
 49
-0.5
  0
LTYPE
  2
ACAD_ISO02W100
 70
    64
  3
__ __ __ __ __ __ __ __ __ __ __ __ __ __ __ __
 72
    65
 73
     2
 40
15.0
 49
12.0
 49
-3.0
  0
LTYPE
  2
ACAD_ISO03W100
 70
    64
  3
__    __    __    __    __    __    __    __
 72
    65
 73
     2
 40
30.0
 49
12.0
 49
-18.0
  0
LTYPE
  2
ACAD_ISO04W100
 70
    64
  3
____ . ____ . ____ . ____ . ____ . ____ . ____
 72
    65
 73
     4
 40
30.5
 49
24.0
 49
-3.0
 49
0.5
 49
-3.0
  0
LTYPE
  2
ACAD_ISO05W100
 70
    64
  3
____ .. ____ .. ____ .. ____ .. ____ .. ____ ..
 72
    65
 73
     6
 40
34.0
 49
24.0
 49
-3.0
 49
0.5
 49
-3.0
 49
0.5
 49
-3.0
  0
LTYPE
  2
ACAD_ISO06W100
 70
    64
  3
____ ... ____ ... ____ ... ____ ... ____ ... __
 72
    65
 73
     8
 40
37.5
 49
24.0
 49
-3.0
 49
0.5
 49
-3.0
 49
0.5
 49
-3.0
 49
0.5
 49
-3.0
  0
LTYPE
  2
ACAD_ISO07W100
 70
    64
  3
. . . . . . . . . . . . . . . . . . . . . . . .
 72
    65
 73
     2
 40
3.5
 49
0.5
 49
-3.0
  0
LTYPE
  2
ACAD_ISO08W100
 70
    64
  3
____ __ ____ __ ____ __ ____ ____ __ __ ____ __
 72
    65
 73
     4
 40
36.0
 49
24.0
 49
-3.0
 49
6.0
 49
-3.0
  0
LTYPE
  2
ACAD_ISO09W100
 70
    64
  3
____ __ __ ____ __ __ ____ __ __ ____ __ __ ___
 72
    65
 73
     6
 40
45.0
 49
24.0
 49
-3.0
 49
6.0
 49
-3.0
 49
6.0
 49
-3.0
  0
LTYPE
  2
ACAD_ISO10W100
 70
    64
  3
__ . __ . __ . __ . __ . __ . __ . __ . __ . __
 72
    65
 73
     4
 40
18.5
 49
12.0
 49
-3.0
 49
0.5
 49
-3.0
  0
LTYPE
  2
ACAD_ISO11W100
 70
    64
  3
__ __ . __ __ . __ __ . __ __ . __ __ . __ __ .
 72
    65
 73
     6
 40
33.5
 49
12.0
 49
-3.0
 49
12.0
 49
-3.0
 49
0.5
 49
-3.0
  0
LTYPE
  2
ACAD_ISO12W100
 70
    64
  3
__ . . __ . . __ . . __ . . __ . . __ . . __ .
 72
    65
 73
     6
 40
22.0
 49
12.0
 49
-3.0
 49
0.5
 49
-3.0
 49
0.5
 49
-3.0
  0
LTYPE
  2
ACAD_ISO13W100
 70
    64
  3
__ __ . . __ __ . . __ __ . . __ __ . . __ __ .
 72
    65
 73
     8
 40
37.0
 49
12.0
 49
-3.0
 49
12.0
 49
-3.0
 49
0.5
 49
-3.0
 49
0.5
 49
-3.0
  0
LTYPE
  2
ACAD_ISO14W100
 70
    64
  3
__ . . . __ . . . __ . . . __ . . . __ . . . __
 72
    65
 73
     8
 40
25.5
 49
12.0
 49
-3.0
 49
0.5
 49
-3.0
 49
0.5
 49
-3.0
 49
0.5
 49
-3.0
  0
LTYPE
  2
ACAD_ISO15W100
 70
    64
  3
__ __ . . . __ __ . . . __ __ . . . __ __ . . .
 72
    65
 73
    10
 40
40.5
 49
12.0
 49
-3.0
 49
12.0
 49
-3.0
 49
0.5
 49
-3.0
 49
0.5
 49
-3.0
 49
0.5
 49
-3.0
  0
ENDTAB
  0
TABLE
  2
STYLE
 70
     4
  0
STYLE
  2
STANDARD
 70
    64
 40
0.0
 41
1.0
 50
0.0
 71
     0
 42
0.2
  3
txt
  4

  0
STYLE
  2
TOLERANCE
 70
    64
 40
0.0
 41
1.0
 50
0.0
 71
     0
 42
0.2
  3
../igesfont/iges1003.shx
  4

  0
STYLE
  2
ROMANS
 70
    64
 40
0.0
 41
1.0
 50
0.0
 71
     0
 42
0.2
  3
romans.shx
  4

  0
STYLE
  2
ROMANC
 70
    64
 40
0.0
 41
1.0
 50
0.0
 71
     0
 42
0.2
  3
romanc.shx
  4

  0
ENDTAB
  0
TABLE
  2
DIMSTYLE
 70
     2
  0
DIMSTYLE
  2
UNNAMED
 70
     0
  3

  4

  5

  6

  7

 40
1.0
 41
0.18
 42
0.0625
 43
0.38
 44
0.18
 45
0.0
 46
0.0
 47
0.0
 48
0.0
140
0.18
141
0.09
142
0.0
143
25.4
144
1.0
145
0.0
146
1.0
147
0.09
 71
     0
 72
     0
 73
     1
 74
     1
 75
     0
 76
     0
 77
     0
 78
     0
170
     0
171
     2
172
     0
173
     0
174
     0
175
     0
176
     0
177
     0
178
     0
  0
DIMSTYLE
  2
STANDARD
 70
     0
  3

  4

  5

  6

  7

 40
1.0
 41
0.18
 42
0.0625
 43
0.38
 44
0.18
 45
0.0
 46
0.0
 47
0.0
 48
0.0
140
0.18
141
0.09
142
0.0
143
25.4
144
1.0
145
0.0
146
1.0
147
0.09
 71
     0
 72
     0
 73
     1
 74
     1
 75
     0
 76
     0
 77
     0
 78
     0
170
     0
171
     2
172
     0
173
     0
174
     0
175
     0
176
     0
177
     0
178
     0
  0
ENDTAB
  0
TABLE
  2
LAYER
 70
     2
  0
LAYER
  2
0
 70
     0
 62
     7
  6
CONTINUOUS
  0
LAYER
  2
255
 70
     0
 62
     7
  6
CONTINUOUS
  0
ENDTAB
  0
ENDSEC
  0
SECTION
  2
BLOCKS
  0
BLOCK
  5
     B
  8
0
  6
CONTINUOUS
 62
     3
  2
*HATCH72
 70
    65
 10
0.0
 20
0.0
 30
0.0
  3
*HATCH72
  0
LINE
  5
     C
  8
0
  6
CONTINUOUS
 62
     7
 10
-43.1970138549805
 20
-67.1116638183594
 30
0.0
 11
-42.8145256042481
 21
-67.4941482543945
 31
0.0
  0
ENDBLK
  5
     D
  8
0
  6
CONTINUOUS
 62
     3
  0
BLOCK
  5
     E
  8
0
  6
CONTINUOUS
 62
     7
  2
*HATCH73
 70
    65
 10
0.0
 20
0.0
 30
0.0
  3
*HATCH73
  0
LINE
  5
     F
  8
0
  6
CONTINUOUS
 62
     7
 10
-71.9999923706055
 20
-67.7573394775391
 30
0.0
 11
-73.0507202148438
 21
-68.8080673217774
 31
0.0
  0
ENDBLK
  5
    10
  8
0
  6
CONTINUOUS
 62
     7
  0
BLOCK
  5
    11
  8
0
  6
CONTINUOUS
 62
     7
  2
*HATCH74
 70
    65
 10
0.0
 20
0.0
 30
0.0
  3
*HATCH74
  0
LINE
  5
    12
  8
0
  6
CONTINUOUS
 62
     7
 10
-50.6375579833984
 20
-67.6081161499024
 30
0.0
 11
-51.8375129699707
 21
-68.8080673217774
 31
0.0
  0
LINE
  5
    13
  8
0
  6
CONTINUOUS
 62
     7
 10
-46.3949165344238
 20
-67.6081161499024
 30
0.0
 11
-47.5948715209961
 21
-68.8080673217774
 31
0.0
  0
LINE
  5
    14
  8
0
  6
CONTINUOUS
 62
     7
 10
-42.1522750854492
 20
-67.6081161499024
 30
0.0
 11
-43.3522300720215
 21
-68.8080673217774
 31
0.0
  0
LINE
  5
    15
  8
0
  6
CONTINUOUS
 62
     7
 10
-38.4999885559082
 20
-68.1984710693359
 30
0.0
 11
-39.1095886230469
 21
-68.8080673217774
 31
0.0
  0
ENDBLK
  5
    16
  8
0
  6
CONTINUOUS
 62
     7
  0
BLOCK
  5
    17
  8
0
  6
CONTINUOUS
 62
     7
  2
*HATCH75
 70
    65
 10
0.0
 20
0.0
 30
0.0
  3
*HATCH75
  0
LINE
  5
    18
  8
0
  6
CONTINUOUS
 62
     7
 10
-29.4243545532227
 20
-67.6081161499024
 30
0.0
 11
-30.6243076324463
 21
-68.8080673217774
 31
0.0
  0
LINE
  5
    19
  8
0
  6
CONTINUOUS
 62
     7
 10
-25.648323059082
 20
-68.0747299194336
 30
0.0
 11
-26.7089710235596
 21
-69.1353759765625
 31
0.0
  0
ENDBLK
  5
    1A
  8
0
  6
CONTINUOUS
 62
     7
  0
BLOCK
  5
    1B
  8
0
  6
CONTINUOUS
 62
     7
  2
*HATCH76
 70
    65
 10
0.0
 20
0.0
 30
0.0
  3
*HATCH76
  0
LINE
  5
    1C
  8
0
  6
CONTINUOUS
 62
     7
 10
-20.939037322998
 20
-67.6080856323242
 30
0.0
 11
-22.1390266418457
 21
-68.8080673217774
 31
0.0
  0
LINE
  5
    1D
  8
0
  6
CONTINUOUS
 62
     7
 10
-17.4218807220459
 20
-68.3335647583008
 30
0.0
 11
-18.3003311157227
 21
-69.2120132446289
 31
0.0
  0
LINE
  5
    1E
  8
0
  6
CONTINUOUS
 62
     7
 10
-15.3748569488525
 20
-70.529182434082
 30
0.0
 11
-15.6106023788452
 21
-70.7649307250977
 31
0.0
  0
ENDBLK
  5
    1F
  8
0
  6
CONTINUOUS
 62
     7
  0
BLOCK
  5
    20
  8
0
  6
CONTINUOUS
 62
     3
  2
*HATCH77
 70
    65
 10
0.0
 20
0.0
 30
0.0
  3
*HATCH77
  0
LINE
  5
    21
  8
0
  6
CONTINUOUS
 62
     7
 10
-43.1970138549805
 20
-67.1116638183594
 30
0.0
 11
-42.8145256042481
 21
-67.4941482543945
 31
0.0
  0
ENDBLK
  5
    22
  8
0
  6
CONTINUOUS
 62
     3
  0
BLOCK
  5
    23
  8
0
  6
CONTINUOUS
 62
     3
  2
*HATCH78
 70
    65
 10
0.0
 20
0.0
 30
0.0
  3
*HATCH78
  0
LINE
  5
    24
  8
0
  6
CONTINUOUS
 62
     7
 10
-30.4802761077881
 20
-67.1004791259766
 30
0.0
 11
-30.0238418579102
 21
-67.5569152832031
 31
0.0
  0
ENDBLK
  5
    25
  8
0
  6
CONTINUOUS
 62
     3
  0
BLOCK
  5
    26
  8
0
  6
CONTINUOUS
 62
     3
  2
*HATCH79
 70
    65
 10
0.0
 20
0.0
 30
0.0
  3
*HATCH79
  0
LINE
  5
    27
  8
0
  6
CONTINUOUS
 62
   210
 10
-31.9690952301025
 20
-65.6116638183594
 30
0.0
 11
-31.6043071746826
 21
-65.976448059082
 31
0.0
  0
ENDBLK
  5
    28
  8
0
  6
CONTINUOUS
 62
     3
  0
BLOCK
  5
    29
  8
0
  6
CONTINUOUS
 62
     3
  2
*HATCH80
 70
    65
 10
0.0
 20
0.0
 30
0.0
  3
*HATCH80
  0
LINE
  5
    2A
  8
0
  6
CONTINUOUS
 62
   210
 10
-33.9023094177246
 20
-65.7997665405273
 30
0.0
 11
-33.3975486755371
 21
-66.3045272827148
 31
0.0
  0
ENDBLK
  5
    2B
  8
0
  6
CONTINUOUS
 62
     3
  0
BLOCK
  5
    2C
  8
0
  6
CONTINUOUS
 62
     3
  2
*HATCH81
 70
    65
 10
0.0
 20
0.0
 30
0.0
  3
*HATCH81
  0
LINE
  5
    2D
  8
0
  6
CONTINUOUS
 62
   210
 10
-38.3330535888672
 20
-65.6116638183594
 30
0.0
 11
-38.0033683776855
 21
-65.9413452148438
 31
0.0
  0
ENDBLK
  5
    2E
  8
0
  6
CONTINUOUS
 62
     3
  0
BLOCK
  5
    2F
  8
0
  6
CONTINUOUS
 62
     3
  2
*HATCH82
 70
    65
 10
0.0
 20
0.0
 30
0.0
  3
*HATCH82
  0
LINE
  5
    30
  8
0
  6
CONTINUOUS
 62
   210
 10
-40.2891235351562
 20
-65.7769088745117
 30
0.0
 11
-39.7819290161133
 21
-66.2841033935547
 31
0.0
  0
ENDBLK
  5
    31
  8
0
  6
CONTINUOUS
 62
     3
  0
BLOCK
  5
    32
  8
0
  6
CONTINUOUS
 62
     3
  2
*HATCH83
 70
    65
 10
0.0
 20
0.0
 30
0.0
  3
*HATCH83
  0
LINE
  5
    33
  8
0
  6
CONTINUOUS
 62
   210
 10
-44.6970100402832
 20
-65.6116638183594
 30
0.0
 11
-44.4526252746582
 21
-65.8560485839844
 31
0.0
  0
ENDBLK
  5
    34
  8
0
  6
CONTINUOUS
 62
     3
  0
BLOCK
  5
    35
  8
0
  6
CONTINUOUS
 62
     3
  2
*HATCH84
 70
    65
 10
0.0
 20
0.0
 30
0.0
  3
*HATCH84
  0
LINE
  5
    36
  8
0
  6
CONTINUOUS
 62
   210
 10
-44.2837333679199
 20
-70.267578125
 30
0.0
 11
-43.7765426635742
 21
-70.774772644043
 31
0.0
  0
ENDBLK
  5
    37
  8
0
  6
CONTINUOUS
 62
     3
  0
BLOCK
  5
    38
  8
0
  6
CONTINUOUS
 62
     3
  2
*HATCH85
 70
    65
 10
0.0
 20
0.0
 30
0.0
  3
*HATCH85
  0
LINE
  5
    39
  8
0
  6
CONTINUOUS
 62
   210
 10
-42.3183364868164
 20
-70.1116638183594
 30
0.0
 11
-42.0234756469727
 21
-70.4065170288086
 31
0.0
  0
ENDBLK
  5
    3A
  8
0
  6
CONTINUOUS
 62
     3
  0
BLOCK
  5
    3B
  8
0
  6
CONTINUOUS
 62
     3
  2
*HATCH86
 70
    65
 10
0.0
 20
0.0
 30
0.0
  3
*HATCH86
  0
LINE
  5
    3C
  8
0
  6
CONTINUOUS
 62
   210
 10
-37.8969230651856
 20
-70.2904357910156
 30
0.0
 11
-37.3897323608398
 21
-70.7976226806641
 31
0.0
  0
ENDBLK
  5
    3D
  8
0
  6
CONTINUOUS
 62
     3
  0
BLOCK
  5
    3E
  8
0
  6
CONTINUOUS
 62
     3
  2
*HATCH87
 70
    65
 10
0.0
 20
0.0
 30
0.0
  3
*HATCH87
  0
LINE
  5
    3F
  8
0
  6
CONTINUOUS
 62
   210
 10
-35.9543762207031
 20
-70.1116638183594
 30
0.0
 11
-35.5989189147949
 21
-70.4671173095703
 31
0.0
  0
ENDBLK
  5
    40
  8
0
  6
CONTINUOUS
 62
     3
  0
BLOCK
  5
    41
  8
0
  6
CONTINUOUS
 62
     3
  2
*HATCH88
 70
    65
 10
0.0
 20
0.0
 30
0.0
  3
*HATCH88
  0
LINE
  5
    42
  8
0
  6
CONTINUOUS
 62
   210
 10
-31.5101127624512
 20
-70.3132858276367
 30
0.0
 11
-31.0188751220703
 21
-70.8045272827149
 31
0.0
  0
ENDBLK
  5
    43
  8
0
  6
CONTINUOUS
 62
     3
  0
BLOCK
  5
    44
  8
0
  6
CONTINUOUS
 62
     7
  2
*HATCH89
 70
    65
 10
0.0
 20
0.0
 30
0.0
  3
*HATCH89
  0
LINE
  5
    45
  8
0
  6
CONTINUOUS
 62
     7
 10
-57.828498840332
 20
-65.2080841064453
 30
0.0
 11
-56.6284866333008
 21
-66.4081039428711
 31
0.0
  0
LINE
  5
    46
  8
0
  6
CONTINUOUS
 62
     7
 10
-53.5858612060547
 20
-65.2080841064453
 30
0.0
 11
-52.3858489990234
 21
-66.4081039428711
 31
0.0
  0
LINE
  5
    47
  8
0
  6
CONTINUOUS
 62
     7
 10
-49.3432235717773
 20
-65.2080841064453
 30
0.0
 11
-48.1432113647461
 21
-66.4081039428711
 31
0.0
  0
ENDBLK
  5
    48
  8
0
  6
CONTINUOUS
 62
     7
  0
BLOCK
  5
    49
  8
0
  6
CONTINUOUS
 62
     7
  2
*HATCH90
 70
    65
 10
0.0
 20
0.0
 30
0.0
  3
*HATCH90
  0
LINE
  5
    4A
  8
0
  6
CONTINUOUS
 62
     7
 10
-46.6999702453613
 20
-72.0939865112305
 30
0.0
 11
-45.5858573913574
 21
-73.2080993652344
 31
0.0
  0
LINE
  5
    4B
  8
0
  6
CONTINUOUS
 62
     7
 10
-45.6432113647461
 20
-68.9081039428711
 30
0.0
 11
-45.4999885559082
 21
-69.0513229370117
 31
0.0
  0
ENDBLK
  5
    4C
  8
0
  6
CONTINUOUS
 62
     7
  0
BLOCK
  5
    4D
  8
0
  6
CONTINUOUS
 62
     7
  2
*HATCH91
 70
    65
 10
0.0
 20
0.0
 30
0.0
  3
*HATCH91
  0
LINE
  5
    4E
  8
0
  6
CONTINUOUS
 62
     7
 10
-25.4999885559082
 20
-72.0807723999024
 30
0.0
 11
-24.3726654052734
 21
-73.2080993652344
 31
0.0
  0
LINE
  5
    4F
  8
0
  6
CONTINUOUS
 62
     7
 10
-24.4300212860107
 20
-68.9081039428711
 30
0.0
 11
-24.299991607666
 21
-69.0381317138672
 31
0.0
  0
ENDBLK
  5
    50
  8
0
  6
CONTINUOUS
 62
     7
  0
BLOCK
  5
    51
  8
0
  6
CONTINUOUS
 62
     7
  2
*HATCH92
 70
    65
 10
0.0
 20
0.0
 30
0.0
  3
*HATCH92
  0
LINE
  5
    52
  8
0
  6
CONTINUOUS
 62
     7
 10
-23.7632617950439
 20
-65.3322219848633
 30
0.0
 11
-22.6873798370361
 21
-66.4081039428711
 31
0.0
  0
LINE
  5
    53
  8
0
  6
CONTINUOUS
 62
     7
 10
-19.6447525024414
 20
-65.2080917358398
 30
0.0
 11
-18.4447422027588
 21
-66.4081039428711
 31
0.0
  0
LINE
  5
    54
  8
0
  6
CONTINUOUS
 62
     7
 10
-15.4021110534668
 20
-65.2080917358398
 30
0.0
 11
-14.2021045684814
 21
-66.4081039428711
 31
0.0
  0
LINE
  5
    55
  8
0
  6
CONTINUOUS
 62
     7
 10
-11.1594696044922
 20
-65.2080917358398
 30
0.0
 11
-9.9594669342041
 21
-66.4081039428711
 31
0.0
  0
LINE
  5
    56
  8
0
  6
CONTINUOUS
 62
     7
 10
-6.91682863235474
 20
-65.2080917358398
 30
0.0
 11
-5.7168288230896
 21
-66.4081039428711
 31
0.0
  0
LINE
  5
    57
  8
0
  6
CONTINUOUS
 62
     7
 10
-2.67418885231018
 20
-65.2080993652344
 30
0.0
 11
-2.43915152549744
 21
-65.4431381225586
 31
0.0
  0
ENDBLK
  5
    58
  8
0
  6
CONTINUOUS
 62
     7
  0
BLOCK
  5
    59
  8
0
  6
CONTINUOUS
 62
     3
  2
*HATCH93
 70
    65
 10
0.0
 20
0.0
 30
0.0
  3
*HATCH93
  0
LINE
  5
    5A
  8
0
  6
CONTINUOUS
 62
     7
 10
-43.1970138549805
 20
-67.1116638183594
 30
0.0
 11
-42.8145256042481
 21
-67.4941482543945
 31
0.0
  0
ENDBLK
  5
    5B
  8
0
  6
CONTINUOUS
 62
     3
  0
BLOCK
  5
    5C
  8
0
  6
CONTINUOUS
 62
     3
  2
*HATCH94
 70
    65
 10
0.0
 20
0.0
 30
0.0
  3
*HATCH94
  0
LINE
  5
    5D
  8
0
  6
CONTINUOUS
 62
     7
 10
-30.4802761077881
 20
-67.1004791259766
 30
0.0
 11
-30.0238418579102
 21
-67.5569152832031
 31
0.0
  0
ENDBLK
  5
    5E
  8
0
  6
CONTINUOUS
 62
     3
  0
BLOCK
  5
    5F
  8
0
  6
CONTINUOUS
 62
     3
  2
*HATCH95
 70
    65
 10
0.0
 20
0.0
 30
0.0
  3
*HATCH95
  0
LINE
  5
    60
  8
0
  6
CONTINUOUS
 62
   210
 10
-31.9690952301025
 20
-65.6116638183594
 30
0.0
 11
-31.6043071746826
 21
-65.976448059082
 31
0.0
  0
ENDBLK
  5
    61
  8
0
  6
CONTINUOUS
 62
     3
  0
BLOCK
  5
    62
  8
0
  6
CONTINUOUS
 62
     3
  2
*HATCH96
 70
    65
 10
0.0
 20
0.0
 30
0.0
  3
*HATCH96
  0
LINE
  5
    63
  8
0
  6
CONTINUOUS
 62
   210
 10
-33.9023094177246
 20
-65.7997665405273
 30
0.0
 11
-33.3975486755371
 21
-66.3045272827148
 31
0.0
  0
ENDBLK
  5
    64
  8
0
  6
CONTINUOUS
 62
     3
  0
BLOCK
  5
    65
  8
0
  6
CONTINUOUS
 62
     3
  2
*HATCH97
 70
    65
 10
0.0
 20
0.0
 30
0.0
  3
*HATCH97
  0
LINE
  5
    66
  8
0
  6
CONTINUOUS
 62
   210
 10
-38.3330535888672
 20
-65.6116638183594
 30
0.0
 11
-38.0033683776855
 21
-65.9413452148438
 31
0.0
  0
ENDBLK
  5
    67
  8
0
  6
CONTINUOUS
 62
     3
  0
BLOCK
  5
    68
  8
0
  6
CONTINUOUS
 62
     3
  2
*HATCH98
 70
    65
 10
0.0
 20
0.0
 30
0.0
  3
*HATCH98
  0
LINE
  5
    69
  8
0
  6
CONTINUOUS
 62
   210
 10
-40.2891235351562
 20
-65.7769088745117
 30
0.0
 11
-39.7819290161133
 21
-66.2841033935547
 31
0.0
  0
ENDBLK
  5
    6A
  8
0
  6
CONTINUOUS
 62
     3
  0
BLOCK
  5
    6B
  8
0
  6
CONTINUOUS
 62
     3
  2
*HATCH99
 70
    65
 10
0.0
 20
0.0
 30
0.0
  3
*HATCH99
  0
LINE
  5
    6C
  8
0
  6
CONTINUOUS
 62
   210
 10
-44.6970100402832
 20
-65.6116638183594
 30
0.0
 11
-44.4526252746582
 21
-65.8560485839844
 31
0.0
  0
ENDBLK
  5
    6D
  8
0
  6
CONTINUOUS
 62
     3
  0
BLOCK
  5
    6E
  8
0
  6
CONTINUOUS
 62
     3
  2
*HATCH100
 70
    65
 10
0.0
 20
0.0
 30
0.0
  3
*HATCH100
  0
LINE
  5
    6F
  8
0
  6
CONTINUOUS
 62
   210
 10
-44.2837333679199
 20
-70.267578125
 30
0.0
 11
-43.7765426635742
 21
-70.774772644043
 31
0.0
  0
ENDBLK
  5
    70
  8
0
  6
CONTINUOUS
 62
     3
  0
BLOCK
  5
    71
  8
0
  6
CONTINUOUS
 62
     3
  2
*HATCH101
 70
    65
 10
0.0
 20
0.0
 30
0.0
  3
*HATCH101
  0
LINE
  5
    72
  8
0
  6
CONTINUOUS
 62
   210
 10
-42.3183364868164
 20
-70.1116638183594
 30
0.0
 11
-42.0234756469727
 21
-70.4065170288086
 31
0.0
  0
ENDBLK
  5
    73
  8
0
  6
CONTINUOUS
 62
     3
  0
BLOCK
  5
    74
  8
0
  6
CONTINUOUS
 62
     3
  2
*HATCH102
 70
    65
 10
0.0
 20
0.0
 30
0.0
  3
*HATCH102
  0
LINE
  5
    75
  8
0
  6
CONTINUOUS
 62
   210
 10
-37.8969230651856
 20
-70.2904357910156
 30
0.0
 11
-37.3897323608398
 21
-70.7976226806641
 31
0.0
  0
ENDBLK
  5
    76
  8
0
  6
CONTINUOUS
 62
     3
  0
BLOCK
  5
    77
  8
0
  6
CONTINUOUS
 62
     3
  2
*HATCH103
 70
    65
 10
0.0
 20
0.0
 30
0.0
  3
*HATCH103
  0
LINE
  5
    78
  8
0
  6
CONTINUOUS
 62
   210
 10
-35.9543762207031
 20
-70.1116638183594
 30
0.0
 11
-35.5989189147949
 21
-70.4671173095703
 31
0.0
  0
ENDBLK
  5
    79
  8
0
  6
CONTINUOUS
 62
     3
  0
BLOCK
  5
    7A
  8
0
  6
CONTINUOUS
 62
     3
  2
*HATCH104
 70
    65
 10
0.0
 20
0.0
 30
0.0
  3
*HATCH104
  0
LINE
  5
    7B
  8
0
  6
CONTINUOUS
 62
   210
 10
-31.5101127624512
 20
-70.3132858276367
 30
0.0
 11
-31.0188751220703
 21
-70.8045272827149
 31
0.0
  0
ENDBLK
  5
    7C
  8
0
  6
CONTINUOUS
 62
     3
  0
BLOCK
  5
    7D
  8
0
  6
CONTINUOUS
 62
     7
  2
*HATCH105
 70
    65
 10
0.0
 20
0.0
 30
0.0
  3
*HATCH105
  0
LINE
  5
    7E
  8
0
  6
CONTINUOUS
 62
    52
 10
30.5
 20
-43.2279663085937
 30
0.0
 11
30.9648933410645
 21
-43.6928634643555
 31
0.0
  0
LINE
  5
    7F
  8
0
  6
CONTINUOUS
 62
    52
 10
31.0862140655518
 20
-41.6928634643555
 30
0.0
 11
33.0862121582031
 21
-43.6928634643555
 31
0.0
  0
LINE
  5
    80
  8
0
  6
CONTINUOUS
 62
    52
 10
33.2075347900391
 20
-41.6928634643555
 30
0.0
 11
35.2075309753418
 21
-43.6928634643555
 31
0.0
  0
LINE
  5
    81
  8
0
  6
CONTINUOUS
 62
    52
 10
35.3288536071777
 20
-41.6928634643555
 30
0.0
 11
37.3288497924805
 21
-43.6928634643555
 31
0.0
  0
LINE
  5
    82
  8
0
  6
CONTINUOUS
 62
    52
 10
37.4501724243164
 20
-41.6928634643555
 30
0.0
 11
39.4501686096191
 21
-43.6928634643555
 31
0.0
  0
LINE
  5
    83
  8
0
  6
CONTINUOUS
 62
    52
 10
39.5714912414551
 20
-41.6928634643555
 30
0.0
 11
41.5714874267578
 21
-43.6928634643555
 31
0.0
  0
LINE
  5
    84
  8
0
  6
CONTINUOUS
 62
    52
 10
41.6928100585938
 20
-41.6928634643555
 30
0.0
 11
42.5
 21
-42.5000534057617
 31
0.0
  0
ENDBLK
  5
    85
  8
0
  6
CONTINUOUS
 62
     7
  0
BLOCK
  5
    86
  8
0
  6
CONTINUOUS
 62
     7
  2
*HATCH106
 70
    65
 10
0.0
 20
0.0
 30
0.0
  3
*HATCH106
  0
LINE
  5
    87
  8
0
  6
CONTINUOUS
 62
    52
 10
30.5
 20
-26.2573947906494
 30
0.0
 11
30.9354667663574
 21
-26.6928615570068
 31
0.0
  0
LINE
  5
    88
  8
0
  6
CONTINUOUS
 62
    52
 10
30.5
 20
-24.1360740661621
 30
0.0
 11
33.0567855834961
 21
-26.6928615570068
 31
0.0
  0
LINE
  5
    89
  8
0
  6
CONTINUOUS
 62
    52
 10
31.678108215332
 20
-23.1928615570068
 30
0.0
 11
33.4999885559082
 21
-25.0147438049316
 31
0.0
  0
ENDBLK
  5
    8A
  8
0
  6
CONTINUOUS
 62
     7
  0
BLOCK
  5
    8B
  8
0
  6
CONTINUOUS
 62
     7
  2
*HATCH107
 70
    65
 10
0.0
 20
0.0
 30
0.0
  3
*HATCH107
  0
LINE
  5
    8C
  8
0
  6
CONTINUOUS
 62
    52
 10
39.4999885559082
 20
-24.650785446167
 30
0.0
 11
41.5420608520508
 21
-26.6928615570068
 31
0.0
  0
LINE
  5
    8D
  8
0
  6
CONTINUOUS
 62
    52
 10
40.1633834838867
 20
-23.1928615570068
 30
0.0
 11
42.5
 21
-25.5294799804688
 31
0.0
  0
LINE
  5
    8E
  8
0
  6
CONTINUOUS
 62
    52
 10
42.2847023010254
 20
-23.1928615570068
 30
0.0
 11
42.5
 21
-23.4081573486328
 31
0.0
  0
ENDBLK
  5
    8F
  8
0
  6
CONTINUOUS
 62
     7
  0
BLOCK
  5
    90
  8
0
  6
CONTINUOUS
 62
     7
  2
*UDIM171
 70
    65
 10
0.0
 20
0.0
 30
0.0
  3
*UDIM171
  0
TEXT
  5
    91
  8
0
  6
CONTINUOUS
 62
     7
 10
2091.67986108839
 20
-1400.93422656361
 30
0.0
 40
3.00000002980232
  1
=
 50
449.999999844103
 41
0.933333333333334
 72
     1
 11
2090.17986107647
 21
-1399.83422654861
 31
0.0
 73
     2
  0
LINE
  5
    92
  8
0
  6
CONTINUOUS
 62
     3
 10
2098.51187038422
 20
-1391.33423984039
 30
0.0
 11
2090.67986109138
 21
-1391.33423984039
 31
0.0
  0
LINE
  5
    93
  8
0
  6
CONTINUOUS
 62
     3
 10
2093.84107859677
 20
-1408.33421325684
 30
0.0
 11
2090.67986109138
 21
-1408.33421325684
 31
0.0
  0
LINE
  5
    94
  8
0
  6
CONTINUOUS
 62
     3
 10
2092.67986109138
 20
-1391.33423984039
 30
0.0
 11
2092.67986109138
 21
-1408.33421325684
 31
0.0
  0
LINE
  5
    95
  8
0
  6
CONTINUOUS
 62
     3
 10
2093.20080552133
 20
-1394.2886631176
 30
0.0
 11
2092.67986109138
 21
-1391.33423984039
 31
0.0
  0
LINE
  5
    96
  8
0
  6
CONTINUOUS
 62
     3
 10
2092.67986109138
 20
-1391.33423984039
 30
0.0
 11
2092.15891666142
 21
-1394.2886631176
 31
0.0
  0
LINE
  5
    97
  8
0
  6
CONTINUOUS
 62
     3
 10
2092.15891666142
 20
-1405.37978997963
 30
0.0
 11
2092.67986109138
 21
-1408.33421325684
 31
0.0
  0
LINE
  5
    98
  8
0
  6
CONTINUOUS
 62
     3
 10
2092.67986109138
 20
-1408.33421325684
 30
0.0
 11
2093.20080552133
 21
-1405.37978997963
 31
0.0
  0
ENDBLK
  5
    99
  8
0
  6
CONTINUOUS
 62
     7
  0
BLOCK
  5
    9A
  8
0
  6
CONTINUOUS
 62
     7
  2
*UDIM172
 70
    65
 10
0.0
 20
0.0
 30
0.0
  3
*UDIM172
  0
TEXT
  5
    9B
  8
0
  6
CONTINUOUS
 62
     7
 10
2091.67986108839
 20
-1418.68422656361
 30
0.0
 40
3.00000002980232
  1
=
 50
449.999999844103
 41
0.933333333333334
 72
     1
 11
2090.17986107647
 21
-1417.58422654861
 31
0.0
 73
     2
  0
LINE
  5
    9C
  8
0
  6
CONTINUOUS
 62
     3
 10
2098.51187038422
 20
-1426.83423984039
 30
0.0
 11
2090.67986109138
 21
-1426.83423984039
 31
0.0
  0
LINE
  5
    9D
  8
0
  6
CONTINUOUS
 62
     3
 10
2092.67986109138
 20
-1408.33421325684
 30
0.0
 11
2092.67986109138
 21
-1426.83423984039
 31
0.0
  0
LINE
  5
    9E
  8
0
  6
CONTINUOUS
 62
     3
 10
2093.20080552133
 20
-1411.28863653404
 30
0.0
 11
2092.67986109138
 21
-1408.33421325684
 31
0.0
  0
LINE
  5
    9F
  8
0
  6
CONTINUOUS
 62
     3
 10
2092.67986109138
 20
-1408.33421325684
 30
0.0
 11
2092.15891666142
 21
-1411.28863653404
 31
0.0
  0
LINE
  5
    A0
  8
0
  6
CONTINUOUS
 62
     3
 10
2092.15891666142
 20
-1423.87981656318
 30
0.0
 11
2092.67986109138
 21
-1426.83423984039
 31
0.0
  0
LINE
  5
    A1
  8
0
  6
CONTINUOUS
 62
     3
 10
2092.67986109138
 20
-1426.83423984039
 30
0.0
 11
2093.20080552133
 21
-1423.87981656318
 31
0.0
  0
ENDBLK
  5
    A2
  8
0
  6
CONTINUOUS
 62
     7
  0
BLOCK
  5
    A3
  8
0
  6
CONTINUOUS
 62
     3
  2
*UDIM173
 70
    65
 10
0.0
 20
0.0
 30
0.0
  3
*UDIM173
  0
TEXT
  5
    A4
  8
0
  6
CONTINUOUS
 62
     3
 10
2135.73687894632
 20
-1303.68610442259
 30
0.0
 40
3.00000002980232
  1
70
 50
359.999999844103
 41
0.933333333333333
 72
     1
 11
2138.23687897523
 21
-1302.18610441448
 31
0.0
 73
     2
  0
LINE
  5
    A5
  8
0
  6
CONTINUOUS
 62
     3
 10
2103.51188513438
 20
-1336.33424377441
 30
0.0
 11
2103.51188513438
 21
-1302.68610442938
 31
0.0
  0
LINE
  5
    A6
  8
0
  6
CONTINUOUS
 62
     3
 10
2173.51187157631
 20
-1353.33422851563
 30
0.0
 11
2173.51187157631
 21
-1302.68610442938
 31
0.0
  0
LINE
  5
    A7
  8
0
  6
CONTINUOUS
 62
     3
 10
2103.51188513438
 20
-1304.68610442938
 30
0.0
 11
2173.51187157631
 21
-1304.68610442938
 31
0.0
  0
LINE
  5
    A8
  8
0
  6
CONTINUOUS
 62
     3
 10
2106.46630841159
 20
-1304.16515999943
 30
0.0
 11
2103.51188513438
 21
-1304.68610442938
 31
0.0
  0
LINE
  5
    A9
  8
0
  6
CONTINUOUS
 62
     3
 10
2103.51188513438
 20
-1304.68610442938
 30
0.0
 11
2106.46630841159
 21
-1305.20704885933
 31
0.0
  0
LINE
  5
    AA
  8
0
  6
CONTINUOUS
 62
     3
 10
2170.5574482991
 20
-1305.20704885933
 30
0.0
 11
2173.51187157631
 21
-1304.68610442938
 31
0.0
  0
LINE
  5
    AB
  8
0
  6
CONTINUOUS
 62
     3
 10
2173.51187157631
 20
-1304.68610442938
 30
0.0
 11
2170.5574482991
 21
-1304.16515999943
 31
0.0
  0
ENDBLK
  5
    AC
  8
0
  6
CONTINUOUS
 62
     3
  0
BLOCK
  5
    AD
  8
0
  6
CONTINUOUS
 62
     3
  2
*UDIM174
 70
    65
 10
0.0
 20
0.0
 30
0.0
  3
*UDIM174
  0
TEXT
  5
    AE
  8
0
  6
CONTINUOUS
 62
     3
 10
2199.13101767815
 20
-1411.1092132917
 30
0.0
 40
3.00000002980232
  1
45
 50
449.999999844103
 41
0.933333333333333
 72
     1
 11
2197.63101767004
 21
-1408.6092132628
 31
0.0
 73
     2
  0
LINE
  5
    AF
  8
0
  6
CONTINUOUS
 62
     3
 10
2178.51187157631
 20
-1385.83421325684
 30
0.0
 11
2202.13101768494
 21
-1385.83421325684
 31
0.0
  0
LINE
  5
    B0
  8
0
  6
CONTINUOUS
 62
     3
 10
2178.51187157631
 20
-1430.83421325684
 30
0.0
 11
2202.13101768494
 21
-1430.83421325684
 31
0.0
  0
LINE
  5
    B1
  8
0
  6
CONTINUOUS
 62
     3
 10
2200.13101768494
 20
-1385.83421325684
 30
0.0
 11
2200.13101768494
 21
-1430.83421325684
 31
0.0
  0
LINE
  5
    B2
  8
0
  6
CONTINUOUS
 62
     3
 10
2200.65196211489
 20
-1388.78863653404
 30
0.0
 11
2200.13101768494
 21
-1385.83421325684
 31
0.0
  0
LINE
  5
    B3
  8
0
  6
CONTINUOUS
 62
     3
 10
2200.13101768494
 20
-1385.83421325684
 30
0.0
 11
2199.61007325499
 21
-1388.78863653404
 31
0.0
  0
LINE
  5
    B4
  8
0
  6
CONTINUOUS
 62
     3
 10
2199.61007325499
 20
-1427.87978997963
 30
0.0
 11
2200.13101768494
 21
-1430.83421325684
 31
0.0
  0
LINE
  5
    B5
  8
0
  6
CONTINUOUS
 62
     3
 10
2200.13101768494
 20
-1430.83421325684
 30
0.0
 11
2200.65196211489
 21
-1427.87978997963
 31
0.0
  0
ENDBLK
  5
    B6
  8
0
  6
CONTINUOUS
 62
     3
  0
BLOCK
  5
    B7
  8
0
  6
CONTINUOUS
 62
     3
  2
*UDIM175
 70
    65
 10
0.0
 20
0.0
 30
0.0
  3
*UDIM175
  0
TEXT
  5
    B8
  8
0
  6
CONTINUOUS
 62
     3
 10
2138.23687893242
 20
-1534.72669982231
 30
0.0
 40
3.00000002980232
  1
75
 50
359.999999844103
 41
0.933333333333333
 72
     1
 11
2140.73687896133
 21
-1533.2266998142
 31
0.0
 73
     2
  0
LINE
  5
    B9
  8
0
  6
CONTINUOUS
 62
     3
 10
2103.51188468933
 20
-1453.3342283963
 30
0.0
 11
2103.51188468933
 21
-1537.7266998291
 31
0.0
  0
LINE
  5
    BA
  8
0
  6
CONTINUOUS
 62
     3
 10
2178.51187157631
 20
-1430.83421325684
 30
0.0
 11
2178.51187157631
 21
-1537.7266998291
 31
0.0
  0
LINE
  5
    BB
  8
0
  6
CONTINUOUS
 62
     3
 10
2103.51188468933
 20
-1535.7266998291
 30
0.0
 11
2178.51187157631
 21
-1535.7266998291
 31
0.0
  0
LINE
  5
    BC
  8
0
  6
CONTINUOUS
 62
     3
 10
2106.46630796654
 20
-1535.20575539915
 30
0.0
 11
2103.51188468933
 21
-1535.7266998291
 31
0.0
  0
LINE
  5
    BD
  8
0
  6
CONTINUOUS
 62
     3
 10
2103.51188468933
 20
-1535.7266998291
 30
0.0
 11
2106.46630796654
 21
-1536.24764425905
 31
0.0
  0
LINE
  5
    BE
  8
0
  6
CONTINUOUS
 62
     3
 10
2175.5574482991
 20
-1536.24764425905
 30
0.0
 11
2178.51187157631
 21
-1535.7266998291
 31
0.0
  0
LINE
  5
    BF
  8
0
  6
CONTINUOUS
 62
     3
 10
2178.51187157631
 20
-1535.7266998291
 30
0.0
 11
2175.5574482991
 21
-1535.20575539915
 31
0.0
  0
ENDBLK
  5
    C0
  8
0
  6
CONTINUOUS
 62
     3
  0
BLOCK
  5
    C1
  8
0
  6
CONTINUOUS
 62
     3
  2
*UDIM176
 70
    65
 10
0.0
 20
0.0
 30
0.0
  3
*UDIM176
  0
TEXT
  5
    C2
  8
0
  6
CONTINUOUS
 62
     3
 10
2094.76187885692
 20
-1534.72669982611
 30
0.0
 40
3.00000002980232
  1
3
 50
359.999999844103
 41
0.933333333333334
 72
     1
 11
2095.86187887192
 21
-1533.2266998142
 31
0.0
 73
     2
  0
LINE
  5
    C3
  8
0
  6
CONTINUOUS
 62
     3
 10
2100.51187038422
 20
-1426.83423984039
 30
0.0
 11
2100.51187038422
 21
-1537.7266998291
 31
0.0
  0
LINE
  5
    C4
  8
0
  6
CONTINUOUS
 62
     3
 10
2103.51188468933
 20
-1453.3342283963
 30
0.0
 11
2103.51188468933
 21
-1537.7266998291
 31
0.0
  0
LINE
  5
    C5
  8
0
  6
CONTINUOUS
 62
     3
 10
2094.76187886099
 20
-1535.7266998291
 30
0.0
 11
2103.51188468933
 21
-1535.7266998291
 31
0.0
  0
LINE
  5
    C6
  8
0
  6
CONTINUOUS
 62
     3
 10
2097.55744710701
 20
-1536.24764425905
 30
0.0
 11
2100.51187038422
 21
-1535.7266998291
 31
0.0
  0
LINE
  5
    C7
  8
0
  6
CONTINUOUS
 62
     3
 10
2100.51187038422
 20
-1535.7266998291
 30
0.0
 11
2097.55744710701
 21
-1535.20575539915
 31
0.0
  0
LINE
  5
    C8
  8
0
  6
CONTINUOUS
 62
     3
 10
2106.46630796654
 20
-1535.20575539915
 30
0.0
 11
2103.51188468933
 21
-1535.7266998291
 31
0.0
  0
LINE
  5
    C9
  8
0
  6
CONTINUOUS
 62
     3
 10
2103.51188468933
 20
-1535.7266998291
 30
0.0
 11
2106.46630796654
 21
-1536.24764425905
 31
0.0
  0
ENDBLK
  5
    CA
  8
0
  6
CONTINUOUS
 62
     3
  0
BLOCK
  5
    CB
  8
0
  6
CONTINUOUS
 62
     7
  2
*UDIM177
 70
    65
 10
0.0
 20
0.0
 30
0.0
  3
*UDIM177
  0
TEXT
  5
    CC
  8
0
  6
CONTINUOUS
 62
     7
 10
2086.40100860665
 20
-1488.83423617393
 30
0.0
 40
3.00000002980232
  1
70
 50
449.999999844103
 41
0.933333333333333
 72
     1
 11
2084.90100859853
 21
-1486.33423614502
 31
0.0
 73
     2
  0
LINE
  5
    CD
  8
0
  6
CONTINUOUS
 62
     7
 10
2102.51188513438
 20
-1456.33422851563
 30
0.0
 11
2085.40100861344
 21
-1456.33422851563
 31
0.0
  0
LINE
  5
    CE
  8
0
  6
CONTINUOUS
 62
     7
 10
2128.02710914612
 20
-1516.33424377441
 30
0.0
 11
2085.40100861344
 21
-1516.33424377441
 31
0.0
  0
LINE
  5
    CF
  8
0
  6
CONTINUOUS
 62
     7
 10
2087.40100861344
 20
-1456.33422851563
 30
0.0
 11
2087.40100861344
 21
-1516.33424377441
 31
0.0
  0
LINE
  5
    D0
  8
0
  6
CONTINUOUS
 62
     3
 10
2088.17746576985
 20
-1459.23200598884
 30
0.0
 11
2087.40100861344
 21
-1456.33422851563
 31
0.0
  0
LINE
  5
    D1
  8
0
  6
CONTINUOUS
 62
     3
 10
2087.40100861344
 20
-1456.33422851563
 30
0.0
 11
2086.62455145702
 21
-1459.23200598884
 31
0.0
  0
LINE
  5
    D2
  8
0
  6
CONTINUOUS
 62
     3
 10
2086.62455145702
 20
-1513.4364663012
 30
0.0
 11
2087.40100861344
 21
-1516.33424377441
 31
0.0
  0
LINE
  5
    D3
  8
0
  6
CONTINUOUS
 62
     3
 10
2087.40100861344
 20
-1516.33424377441
 30
0.0
 11
2088.17746576985
 21
-1513.4364663012
 31
0.0
  0
ENDBLK
  5
    D4
  8
0
  6
CONTINUOUS
 62
     7
  0
BLOCK
  5
    D5
  8
0
  6
CONTINUOUS
 62
     7
  2
DIA_LATO
 70
    64
 10
0.0
 20
0.0
 30
0.0
  3
DIA_LATO
  0
LINE
  5
    D6
  8
0
  6
CONTINUOUS
 62
   210
 10
0.0
 20
0.0
 30
0.0
 11
0.0
 21
23.1999950408936
 31
0.0
  0
ARC
  5
    D7
  8
0
  6
CONTINUOUS
 62
   210
 10
1.5
 20
23.1999950408936
 30
0.0
 40
1.5
 50
90.0
 51
180.0
  0
LINE
  5
    D8
  8
0
  6
CONTINUOUS
 62
   210
 10
0.0
 20
0.199995040893569
 30
0.0
 11
50.0
 21
0.199995040893569
 31
0.0
  0
LINE
  5
    D9
  8
0
  6
CONTINUOUS
 62
   210
 10
1.5
 20
24.6999950408936
 30
0.0
 11
48.5
 21
24.6999950408936
 31
0.0
  0
ARC
  5
    DA
  8
0
  6
CONTINUOUS
 62
   210
 10
48.5
 20
23.1999950408936
 30
0.0
 40
1.5
 50
1.27222187258541E-14
 51
90.0
  0
LINE
  5
    DB
  8
0
  6
CONTINUOUS
 62
   210
 10
50.0
 20
1.52587890767109E-5
 30
0.0
 11
50.0
 21
23.1999950408936
 31
0.0
  0
ENDBLK
  5
    DC
  8
0
  6
CONTINUOUS
 62
     7
  0
BLOCK
  5
    DD
  8
0
  6
CONTINUOUS
 62
     7
  2
$2SSS
 70
    64
 10
0.0
 20
0.0
 30
0.0
  3
$2SSS
  0
ARC
  5
    DE
  8
0
  6
CONTINUOUS
 62
     3
 10
2.55000000000001
 20
2.55
 30
0.0
 40
2.0
 50
178.557523870135
 51
271.442476129865
  0
CIRCLE
  5
    DF
  8
0
  6
CONTINUOUS
 62
     3
 10
0.0
 20
0.0
 30
0.0
 40
3.750066744417
  0
ARC
  5
    E0
  8
0
  6
CONTINUOUS
 62
     3
 10
-2.54999999999998
 20
2.55
 30
0.0
 40
2.0
 50
268.557523870135
 51
361.442476129865
  0
ARC
  5
    E1
  8
0
  6
CONTINUOUS
 62
     3
 10
1.4210854715202E-14
 20
0.0
 30
0.0
 40
2.6580067720004
 50
78.0440027883074
 51
101.955997211693
  0
ARC
  5
    E2
  8
0
  6
CONTINUOUS
 62
     3
 10
1.4210854715202E-14
 20
7.105427357601E-15
 30
0.0
 40
2.6580067720004
 50
168.044002788308
 51
191.955997211693
  0
ARC
  5
    E3
  8
0
  6
CONTINUOUS
 62
     3
 10
1.4210854715202E-14
 20
7.105427357601E-15
 30
0.0
 40
2.6580067720004
 50
348.044002788307
 51
371.955997211692
  0
ARC
  5
    E4
  8
0
  6
CONTINUOUS
 62
     3
 10
2.55000000000001
 20
-2.55
 30
0.0
 40
2.0
 50
88.5575238701351
 51
181.442476129865
  0
ARC
  5
    E5
  8
0
  6
CONTINUOUS
 62
     3
 10
-2.54999999999998
 20
-2.55
 30
0.0
 40
2.0
 50
358.557523870135
 51
451.442476129865
  0
ARC
  5
    E6
  8
0
  6
CONTINUOUS
 62
     3
 10
1.4210854715202E-14
 20
7.105427357601E-15
 30
0.0
 40
2.6580067720004
 50
258.044002788307
 51
281.955997211693
  0
LINE
  5
    E7
  8
0
  6
DASHDOT
 62
     3
 10
0.0
 20
-13.750066744417
 30
0.0
 11
0.0
 21
13.750066744417
 31
0.0
  0
LINE
  5
    E8
  8
0
  6
DASHDOT
 62
     3
 10
-13.750066744417
 20
0.0
 30
0.0
 11
13.750066744417
 21
0.0
 31
0.0
  0
POINT
  5
    E9
  8
0
  6
CONTINUOUS
 62
     3
 10
0.0
 20
0.0
 30
0.0
  0
ENDBLK
  5
    EA
  8
0
  6
CONTINUOUS
 62
     7
  0
BLOCK
  5
    EB
  8
0
  6
CONTINUOUS
 62
     7
  2
$1SSS
 70
    64
 10
0.0
 20
0.0
 30
0.0
  3
$1SSS
  0
ARC
  5
    EC
  8
0
  6
CONTINUOUS
 62
     7
 10
2.55000000000001
 20
2.55
 30
0.0
 40
2.0
 50
178.557523870135
 51
271.442476129865
  0
CIRCLE
  5
    ED
  8
0
  6
CONTINUOUS
 62
     7
 10
0.0
 20
0.0
 30
0.0
 40
3.750066744417
  0
ARC
  5
    EE
  8
0
  6
CONTINUOUS
 62
     7
 10
-2.54999999999998
 20
2.55
 30
0.0
 40
2.0
 50
268.557523870135
 51
361.442476129865
  0
ARC
  5
    EF
  8
0
  6
CONTINUOUS
 62
     7
 10
1.4210854715202E-14
 20
0.0
 30
0.0
 40
2.6580067720004
 50
78.0440027883074
 51
101.955997211693
  0
ARC
  5
    F0
  8
0
  6
CONTINUOUS
 62
     7
 10
1.4210854715202E-14
 20
7.105427357601E-15
 30
0.0
 40
2.6580067720004
 50
168.044002788308
 51
191.955997211693
  0
ARC
  5
    F1
  8
0
  6
CONTINUOUS
 62
     7
 10
1.4210854715202E-14
 20
7.105427357601E-15
 30
0.0
 40
2.6580067720004
 50
348.044002788307
 51
371.955997211692
  0
ARC
  5
    F2
  8
0
  6
CONTINUOUS
 62
     7
 10
2.55000000000001
 20
-2.55
 30
0.0
 40
2.0
 50
88.5575238701351
 51
181.442476129865
  0
ARC
  5
    F3
  8
0
  6
CONTINUOUS
 62
     7
 10
-2.54999999999998
 20
-2.55
 30
0.0
 40
2.0
 50
358.557523870135
 51
451.442476129865
  0
ARC
  5
    F4
  8
0
  6
CONTINUOUS
 62
     7
 10
1.4210854715202E-14
 20
7.105427357601E-15
 30
0.0
 40
2.6580067720004
 50
258.044002788307
 51
281.955997211693
  0
LINE
  5
    F5
  8
0
  6
DASHDOT
 62
     7
 10
0.0
 20
-13.750066744417
 30
0.0
 11
0.0
 21
13.750066744417
 31
0.0
  0
LINE
  5
    F6
  8
0
  6
DASHDOT
 62
     7
 10
-13.750066744417
 20
0.0
 30
0.0
 11
13.750066744417
 21
0.0
 31
0.0
  0
POINT
  5
    F7
  8
0
  6
CONTINUOUS
 62
     7
 10
0.0
 20
0.0
 30
0.0
  0
ENDBLK
  5
    F8
  8
0
  6
CONTINUOUS
 62
     7
  0
BLOCK
  5
    F9
  8
0
  6
CONTINUOUS
 62
     7
  2
*HATCH108
 70
    65
 10
0.0
 20
0.0
 30
0.0
  3
*HATCH108
  0
LINE
  5
    FA
  8
0
  6
CONTINUOUS
 62
     7
 10
-6.72705316543579
 20
2.18249082565308
 30
0.0
 11
-7.30467510223389
 21
1.60486936569214
 31
0.0
  0
LINE
  5
    FB
  8
0
  6
CONTINUOUS
 62
     7
 10
-6.27154493331909
 20
2.21373534202576
 30
0.0
 11
-7.22455787658691
 21
1.26072216033936
 31
0.0
  0
LINE
  5
    FC
  8
0
  6
CONTINUOUS
 62
     7
 10
-5.84726810455322
 20
2.21374821662903
 30
0.0
 11
-6.39466667175293
 21
1.66634941101074
 31
0.0
  0
LINE
  5
    FD
  8
0
  6
CONTINUOUS
 62
     7
 10
-6.66426229476929
 20
1.39675414562225
 30
0.0
 11
-7.0505313873291
 21
1.01048505306244
 31
0.0
  0
LINE
  5
    FE
  8
0
  6
CONTINUOUS
 62
     7
 10
-5.806396484375
 20
1.83035564422607
 30
0.0
 11
-5.97040271759033
 21
1.66634941101074
 31
0.0
  0
LINE
  5
    FF
  8
0
  6
CONTINUOUS
 62
     7
 10
-6.29627180099487
 20
1.34048020839691
 30
0.0
 11
-6.75053644180298
 21
0.886215686798096
 31
0.0
  0
LINE
  5
   100
  8
0
  6
CONTINUOUS
 62
     7
 10
-7.08935260772705
 20
0.547399520874023
 30
0.0
 11
-7.25539398193359
 21
0.381358295679092
 31
0.0
  0
LINE
  5
   101
  8
0
  6
CONTINUOUS
 62
     7
 10
-5.99627304077148
 20
1.2162150144577
 30
0.0
 11
-6.38071584701538
 21
0.83177250623703
 31
0.0
  0
LINE
  5
   102
  8
0
  6
CONTINUOUS
 62
     7
 10
-6.66508865356445
 20
0.547399520874023
 30
0.0
 11
-7.21248769760132
 21
5.17343551109661E-7
 31
0.0
  0
LINE
  5
   103
  8
0
  6
CONTINUOUS
 62
     7
 10
-5.83309316635132
 20
0.955130934715271
 30
0.0
 11
-6.78821849822998
 21
5.63298863198725E-6
 31
0.0
  0
LINE
  5
   104
  8
0
  6
CONTINUOUS
 62
     7
 10
-5.76708984375
 20
0.596870422363281
 30
0.0
 11
-6.32275247573853
 21
4.12076637148857E-2
 31
0.0
  0
ENDBLK
  5
   105
  8
0
  6
CONTINUOUS
 62
     7
  0
BLOCK
  5
   106
  8
0
  6
CONTINUOUS
 62
     7
  2
*HATCH109
 70
    65
 10
0.0
 20
0.0
 30
0.0
  3
*HATCH109
  0
LINE
  5
   107
  8
0
  6
CONTINUOUS
 62
     7
 10
-4.99874639511108
 20
2.21374201774597
 30
0.0
 11
-5.11600208282471
 21
2.09648633003235
 31
0.0
  0
LINE
  5
   108
  8
0
  6
CONTINUOUS
 62
     7
 10
-4.5744776725769
 20
2.21374702453613
 30
0.0
 11
-5.29006290435791
 21
1.49816131591797
 31
0.0
  0
LINE
  5
   109
  8
0
  6
CONTINUOUS
 62
     7
 10
-4.31070804595947
 20
2.05325198173523
 30
0.0
 11
-5.46412372589111
 21
0.899836301803589
 31
0.0
  0
LINE
  5
   10A
  8
0
  6
CONTINUOUS
 62
     7
 10
-4.21509790420532
 20
1.72459805011749
 30
0.0
 11
-4.65671157836914
 21
1.28298437595367
 31
0.0
  0
LINE
  5
   10B
  8
0
  6
CONTINUOUS
 62
     7
 10
-4.8342022895813
 20
1.10549378395081
 30
0.0
 11
-5.63818502426147
 21
0.301511287689209
 31
0.0
  0
LINE
  5
   10C
  8
0
  6
CONTINUOUS
 62
     7
 10
-4.11948823928833
 20
1.39594399929047
 30
0.0
 11
-5.51543140411377
 21
5.84804922709736E-7
 31
0.0
  0
LINE
  5
   10D
  8
0
  6
CONTINUOUS
 62
     7
 10
-4.02387809753418
 20
1.06729006767273
 30
0.0
 11
-4.64841794967651
 21
0.442750215530396
 31
0.0
  0
LINE
  5
   10E
  8
0
  6
CONTINUOUS
 62
     7
 10
-3.92826819419861
 20
0.738636076450348
 30
0.0
 11
-4.36988687515259
 21
0.297017365694046
 31
0.0
  0
LINE
  5
   10F
  8
0
  6
CONTINUOUS
 62
     7
 10
-3.83265805244446
 20
0.409982055425644
 30
0.0
 11
-4.24264001846313
 21
-1.59405963984227E-8
 31
0.0
  0
LINE
  5
   110
  8
0
  6
CONTINUOUS
 62
     7
 10
-3.73704814910889
 20
8.13280642032623E-2
 30
0.0
 11
-3.81837606430054
 21
-1.81517350483773E-7
 31
0.0
  0
ENDBLK
  5
   111
  8
0
  6
CONTINUOUS
 62
     7
  0
BLOCK
  5
   112
  8
0
  6
CONTINUOUS
 62
     7
  2
*HATCH110
 70
    65
 10
0.0
 20
0.0
 30
0.0
  3
*HATCH110
  0
LINE
  5
   113
  8
0
  6
CONTINUOUS
 62
     7
 10
-2.9884078502655
 20
2.10276007652283
 30
0.0
 11
-3.5777416229248
 21
1.51342642307281
 31
0.0
  0
LINE
  5
   114
  8
0
  6
CONTINUOUS
 62
     7
 10
-2.51154756546021
 20
2.15535640716553
 30
0.0
 11
-3.66166138648987
 21
1.00524282455444
 31
0.0
  0
LINE
  5
   115
  8
0
  6
CONTINUOUS
 62
     7
 10
-2.14052557945251
 20
2.10211443901062
 30
0.0
 11
-2.58813261985779
 21
1.65450739860535
 31
0.0
  0
LINE
  5
   116
  8
0
  6
CONTINUOUS
 62
     7
 10
-3.09122323989868
 20
1.15141689777374
 30
0.0
 11
-3.58603048324585
 21
0.65660959482193
 31
0.0
  0
LINE
  5
   117
  8
0
  6
CONTINUOUS
 62
     7
 10
-1.91638314723969
 20
1.90199279785156
 30
0.0
 11
-2.31821155548096
 21
1.50016450881958
 31
0.0
  0
LINE
  5
   118
  8
0
  6
CONTINUOUS
 62
     7
 10
-3.04562044143677
 20
0.772755563259125
 30
0.0
 11
-3.43465447425842
 21
0.383721768856049
 31
0.0
  0
LINE
  5
   119
  8
0
  6
CONTINUOUS
 62
     7
 10
-1.69224071502686
 20
1.70187127590179
 30
0.0
 11
-1.84102010726929
 21
1.55309188365936
 31
0.0
  0
LINE
  5
   11A
  8
0
  6
CONTINUOUS
 62
     7
 10
-2.80736231803894
 20
0.586749851703644
 30
0.0
 11
-3.20844173431396
 21
0.185670480132103
 31
0.0
  0
LINE
  5
   11B
  8
0
  6
CONTINUOUS
 62
     7
 10
-2.35260963439941
 20
0.617238461971283
 30
0.0
 11
-2.92059206962585
 21
4.92561422288418E-2
 31
0.0
  0
LINE
  5
   11C
  8
0
  6
CONTINUOUS
 62
     7
 10
-1.86875593662262
 20
0.676828145980835
 30
0.0
 11
-2.53638815879822
 21
9.19588841497898E-3
 31
0.0
  0
ENDBLK
  5
   11D
  8
0
  6
CONTINUOUS
 62
     7
  0
BLOCK
  5
   11E
  8
0
  6
CONTINUOUS
 62
     7
  2
*HATCH111
 70
    65
 10
0.0
 20
0.0
 30
0.0
  3
*HATCH111
  0
LINE
  5
   11F
  8
0
  6
CONTINUOUS
 62
     7
 10
-1.18036293983459
 20
2.21374893188477
 30
0.0
 11
-1.44899749755859
 21
1.94511449337006
 31
0.0
  0
LINE
  5
   120
  8
0
  6
CONTINUOUS
 62
     7
 10
-0.756098747253418
 20
2.21374917030334
 30
0.0
 11
-1.44899749755859
 21
1.52085041999817
 31
0.0
  0
LINE
  5
   121
  8
0
  6
CONTINUOUS
 62
     7
 10
-0.331834644079208
 20
2.21374940872192
 30
0.0
 11
-0.879234552383423
 21
1.66634941101074
 31
0.0
  0
LINE
  5
   122
  8
0
  6
CONTINUOUS
 62
     7
 10
-0.901596069335938
 20
1.64398789405823
 30
0.0
 11
-1.44899749755859
 21
1.09658646583557
 31
0.0
  0
LINE
  5
   123
  8
0
  6
CONTINUOUS
 62
     7
 10
1.8455197529913E-16
 20
2.12132000923157
 30
0.0
 11
-0.45497053861618
 21
1.66634941101074
 31
0.0
  0
LINE
  5
   124
  8
0
  6
CONTINUOUS
 62
     7
 10
-0.740745306015015
 20
1.38057470321655
 30
0.0
 11
-1.44899749755859
 21
0.672322511672974
 31
0.0
  0
LINE
  5
   125
  8
0
  6
CONTINUOUS
 62
     7
 10
1.24556434776123E-17
 20
1.69705593585968
 30
0.0
 11
-3.07065322995186E-2
 21
1.66634941101074
 31
0.0
  0
LINE
  5
   126
  8
0
  6
CONTINUOUS
 62
     7
 10
-0.31648126244545
 20
1.38057470321655
 30
0.0
 11
-0.863881289958954
 21
0.833174705505371
 31
0.0
  0
LINE
  5
   127
  8
0
  6
CONTINUOUS
 62
     7
 10
-0.901596069335938
 20
0.795459926128387
 30
0.0
 11
-1.44899749755859
 21
0.248058557510376
 31
0.0
  0
LINE
  5
   128
  8
0
  6
CONTINUOUS
 62
     7
 10
-0.120750427246094
 20
1.15204155445099
 30
0.0
 11
-0.439617276191711
 21
0.833174705505371
 31
0.0
  0
LINE
  5
   129
  8
0
  6
CONTINUOUS
 62
     7
 10
-0.725392460823059
 20
0.547399520874023
 30
0.0
 11
-1.27279210090637
 21
1.13804191595359E-15
 31
0.0
  0
LINE
  5
   12A
  8
0
  6
CONTINUOUS
 62
     7
 10
-0.301128476858139
 20
0.547399520874023
 30
0.0
 11
-0.848528027534485
 21
7.58694610635728E-16
 31
0.0
  0
LINE
  5
   12B
  8
0
  6
CONTINUOUS
 62
     7
 10
0.0
 20
0.42426398396492
 30
0.0
 11
-0.424264013767242
 21
3.79347305317864E-16
 31
0.0
  0
LINE
  5
   12C
  8
0
  6
CONTINUOUS
 62
     7
 10
0.0
 20
0.0
 30
0.0
 11
0.0
 21
2.64697796016969E-23
 31
0.0
  0
ENDBLK
  5
   12D
  8
0
  6
CONTINUOUS
 62
     7
  0
BLOCK
  5
   12E
  8
0
  6
CONTINUOUS
 62
     7
  2
$1SACE
 70
    64
 10
0.0
 20
0.0
 30
0.0
  3
$1SACE
  0
LINE
  5
   12F
  8
0
  6
CONTINUOUS
 62
     7
 10
-6.65164184570313
 20
0.84524965286255
 30
0.0
 11
-6.42221832275391
 21
0.84524965286255
 31
0.0
  0
LINE
  5
   130
  8
0
  6
CONTINUOUS
 62
     7
 10
-6.42220611590814
 20
0.845254519188986
 30
0.0
 11
-6.33467408742227
 21
0.816812141576352
 31
0.0
  0
LINE
  5
   131
  8
0
  6
CONTINUOUS
 62
     7
 10
-6.33467505266625
 20
0.816811912229198
 30
0.0
 11
-6.28057502527593
 21
0.742349507885551
 31
0.0
  0
LINE
  5
   132
  8
0
  6
CONTINUOUS
 62
     7
 10
-6.28058624267578
 20
0.650304317474365
 30
0.0
 11
-6.28058624267578
 21
0.742344856262207
 31
0.0
  0
LINE
  5
   133
  8
0
  6
CONTINUOUS
 62
     7
 10
-6.33467905122843
 20
0.575845194549701
 30
0.0
 11
-6.28057902383813
 21
0.650307598893328
 31
0.0
  0
LINE
  5
   134
  8
0
  6
CONTINUOUS
 62
     7
 10
-6.42220857841173
 20
0.547402819040099
 30
0.0
 11
-6.33467654992582
 21
0.575845196652746
 31
0.0
  0
LINE
  5
   135
  8
0
  6
CONTINUOUS
 62
     7
 10
-7.25539398193359
 20
0.547399520874025
 30
0.0
 11
-6.42221832275391
 21
0.547399520874025
 31
0.0
  0
LINE
  5
   136
  8
0
  6
CONTINUOUS
 62
     7
 10
-7.25539398193359
 20
0.0
 30
0.0
 11
-7.25539398193359
 21
0.547399520874023
 31
0.0
  0
LINE
  5
   137
  8
0
  6
CONTINUOUS
 62
     7
 10
-7.25539398193359
 20
1.29559252739714E-15
 30
0.0
 11
-6.42221832275391
 21
1.29559252739714E-15
 31
0.0
  0
LINE
  5
   138
  8
0
  6
CONTINUOUS
 62
     7
 10
-6.65164184570313
 20
1.39264965057373
 30
0.0
 11
-6.42221832275391
 21
1.39264965057373
 31
0.0
  0
LINE
  5
   139
  8
0
  6
CONTINUOUS
 62
     7
 10
-6.73207774966845
 20
1.41878793231365
 30
0.0
 11
-6.65163341489544
 21
1.39265201188207
 31
0.0
  0
LINE
  5
   13A
  8
0
  6
CONTINUOUS
 62
     7
 10
-6.78179637679859
 20
1.4872093666543
 30
0.0
 11
-6.73208324200653
 21
1.41878418569267
 31
0.0
  0
LINE
  5
   13B
  8
0
  6
CONTINUOUS
 62
     7
 10
-6.78179931640625
 20
1.48721075057983
 30
0.0
 11
-6.78179931640625
 21
1.57178831100464
 31
0.0
  0
LINE
  5
   13C
  8
0
  6
CONTINUOUS
 62
     7
 10
-6.78178899286177
 20
1.57178600254942
 30
0.0
 11
-6.73207585806973
 21
1.64021118351102
 31
0.0
  0
LINE
  5
   13D
  8
0
  6
CONTINUOUS
 62
     7
 10
-6.73207464437523
 20
1.64021722966892
 30
0.0
 11
-6.65163030960224
 21
1.66635315010049
 31
0.0
  0
LINE
  5
   13E
  8
0
  6
CONTINUOUS
 62
     7
 10
-6.65164184570313
 20
1.66634941101074
 30
0.0
 11
-5.806396484375
 21
1.66634941101074
 31
0.0
  0
LINE
  5
   13F
  8
0
  6
CONTINUOUS
 62
     7
 10
-5.806396484375
 20
1.66634941101074
 30
0.0
 11
-5.806396484375
 21
2.21374940872192
 31
0.0
  0
LINE
  5
   140
  8
0
  6
CONTINUOUS
 62
     7
 10
-6.65164184570313
 20
2.21374940872193
 30
0.0
 11
-5.806396484375
 21
2.21374940872193
 31
0.0
  0
LINE
  5
   141
  8
0
  6
CONTINUOUS
 62
     7
 10
-5.72589874267578
 20
1.29559252739714E-15
 30
0.0
 11
-5.15579986572266
 21
1.29559252739714E-15
 31
0.0
  0
LINE
  5
   142
  8
0
  6
CONTINUOUS
 62
     7
 10
-5.1557939203843
 20
1.58409603323584E-6
 30
0.0
 11
-5.02699448583549
 21
0.442751079827253
 31
0.0
  0
LINE
  5
   143
  8
0
  6
CONTINUOUS
 62
     7
 10
-5.02700042724609
 20
0.442749500274659
 30
0.0
 11
-4.41228485107422
 21
0.442749500274659
 31
0.0
  0
LINE
  5
   144
  8
0
  6
CONTINUOUS
 62
     7
 10
-4.41228013668901
 20
0.442750680659383
 30
0.0
 11
-4.2834807021402
 21
1.18492813960813E-6
 31
0.0
  0
LINE
  5
   145
  8
0
  6
CONTINUOUS
 62
     7
 10
-4.28348541259766
 20
1.29559252739714E-15
 30
0.0
 11
-3.71339416503906
 21
1.29559252739714E-15
 31
0.0
  0
LINE
  5
   146
  8
0
  6
CONTINUOUS
 62
     7
 10
-4.35739354898064
 20
2.21374974704771
 30
0.0
 11
-3.71338855826095
 21
-2.22490751156101E-7
 31
0.0
  0
LINE
  5
   147
  8
0
  6
CONTINUOUS
 62
     7
 10
-5.08189392089844
 20
2.21374940872193
 30
0.0
 11
-4.35739898681641
 21
2.21374940872193
 31
0.0
  0
LINE
  5
   148
  8
0
  6
CONTINUOUS
 62
     7
 10
-5.72589584497131
 20
-8.99382360142198E-6
 30
0.0
 11
-5.08189085425162
 21
2.21374097571486
 31
0.0
  0
LINE
  5
   149
  8
0
  6
CONTINUOUS
 62
     7
 10
-4.71963825721332
 20
1.49929173564375
 30
0.0
 11
-4.57152874572855
 21
0.990149564360237
 31
0.0
  0
LINE
  5
   14A
  8
0
  6
CONTINUOUS
 62
     7
 10
-4.86775970458984
 20
0.990149497985841
 30
0.0
 11
-4.571533203125
 21
0.990149497985841
 31
0.0
  0
LINE
  5
   14B
  8
0
  6
CONTINUOUS
 62
     7
 10
-4.86775077081381
 20
0.990150342992026
 30
0.0
 11
-4.71963371649822
 21
1.4992922341155
 31
0.0
  0
LINE
  5
   14C
  8
0
  6
CONTINUOUS
 62
     7
 10
-3.56278593292238
 20
0.549459587100848
 30
0.0
 11
-3.38675290737703
 21
0.321762682109787
 31
0.0
  0
LINE
  5
   14D
  8
0
  6
CONTINUOUS
 62
     7
 10
-3.38674988776631
 20
0.321757463405608
 30
0.0
 11
-3.15795960623514
 21
0.14714302843915
 31
0.0
  0
LINE
  5
   14E
  8
0
  6
CONTINUOUS
 62
     7
 10
-3.15796427280975
 20
0.147145556821385
 30
0.0
 11
-2.89188914343168
 21
3.74196068128748E-2
 31
0.0
  0
LINE
  5
   14F
  8
0
  6
CONTINUOUS
 62
     7
 10
-2.8918863014344
 20
3.74182762057862E-2
 30
0.0
 11
-2.60651643426088
 21
-8.77137409371898E-8
 31
0.0
  0
LINE
  5
   150
  8
0
  6
CONTINUOUS
 62
     7
 10
-2.6065123212118
 20
9.81649358411385E-7
 30
0.0
 11
-2.32114245403815
 21
3.74193455689014E-2
 31
0.0
  0
LINE
  5
   151
  8
0
  6
CONTINUOUS
 62
     7
 10
-2.32115153010861
 20
3.74184405847322E-2
 30
0.0
 11
-2.05507640073053
 21
0.147144390593243
 31
0.0
  0
LINE
  5
   152
  8
0
  6
CONTINUOUS
 62
     7
 10
-2.05506873210346
 20
0.147150154788858
 30
0.0
 11
-1.82627845057229
 21
0.321764589755316
 31
0.0
  0
LINE
  5
   153
  8
0
  6
CONTINUOUS
 62
     7
 10
-1.82628033847405
 20
0.321759408316239
 30
0.0
 11
-1.65023969094006
 21
0.549456298035748
 31
0.0
  0
LINE
  5
   154
  8
0
  6
CONTINUOUS
 62
     7
 10
-2.12316137878389
 20
0.825127035253691
 30
0.0
 11
-1.65023815182741
 21
0.549457975118036
 31
0.0
  0
LINE
  5
   155
  8
0
  6
CONTINUOUS
 62
     7
 10
-2.24808598157176
 20
0.677293469343914
 30
0.0
 11
-2.12316989668348
 21
0.825121583594019
 31
0.0
  0
LINE
  5
   156
  8
0
  6
CONTINUOUS
 62
     7
 10
-2.41589982592873
 20
0.580876247378224
 30
0.0
 11
-2.24808363129394
 21
0.677297507055141
 31
0.0
  0
LINE
  5
   157
  8
0
  6
CONTINUOUS
 62
     7
 10
-2.60651568365088
 20
0.547399641475173
 30
0.0
 11
-2.41589523762909
 21
0.580875516622462
 31
0.0
  0
LINE
  5
   158
  8
0
  6
CONTINUOUS
 62
     7
 10
-2.79714562109014
 20
0.580875730809506
 30
0.0
 11
-2.60652517506844
 21
0.547399855662232
 31
0.0
  0
LINE
  5
   159
  8
0
  6
CONTINUOUS
 62
     7
 10
-2.96495823289931
 20
0.677298823896134
 30
0.0
 11
-2.7971420382645
 21
0.580877564219204
 31
0.0
  0
LINE
  5
   15A
  8
0
  6
CONTINUOUS
 62
     7
 10
-3.08987367938059
 20
0.825127877682344
 30
0.0
 11
-2.96495759449232
 21
0.677299763432247
 31
0.0
  0
LINE
  5
   15B
  8
0
  6
CONTINUOUS
 62
     7
 10
-2.12315784078463
 20
1.38863138085445
 30
0.0
 11
-1.65023461382815
 21
1.6643004409901
 31
0.0
  0
LINE
  5
   15C
  8
0
  6
CONTINUOUS
 62
     7
 10
-1.44899749755859
 20
0.0
 30
0.0
 11
-1.44899749755859
 21
2.21374893188477
 31
0.0
  0
LINE
  5
   15D
  8
0
  6
CONTINUOUS
 62
     7
 10
-1.44899749755859
 20
1.29559252739714E-15
 30
0.0
 11
7.93321620838069E-32
 21
1.29559252739714E-15
 31
0.0
  0
LINE
  5
   15E
  8
0
  6
CONTINUOUS
 62
     7
 10
0.0
 20
0.0
 30
0.0
 11
0.0
 21
0.547399520874023
 31
0.0
  0
LINE
  5
   15F
  8
0
  6
CONTINUOUS
 62
     7
 10
-0.901596069335938
 20
0.547399520874025
 30
0.0
 11
3.35185535546584E-17
 21
0.547399520874025
 31
0.0
  0
LINE
  5
   160
  8
0
  6
CONTINUOUS
 62
     7
 10
-0.901596069335938
 20
0.547399520874023
 30
0.0
 11
-0.901596069335938
 21
0.833174705505371
 31
0.0
  0
LINE
  5
   161
  8
0
  6
CONTINUOUS
 62
     7
 10
-0.901596069335938
 20
0.833174705505373
 30
0.0
 11
-0.120750427246094
 21
0.833174705505373
 31
0.0
  0
LINE
  5
   162
  8
0
  6
CONTINUOUS
 62
     7
 10
-0.120750427246094
 20
0.833174705505371
 30
0.0
 11
-0.120750427246094
 21
1.38057470321655
 31
0.0
  0
LINE
  5
   163
  8
0
  6
CONTINUOUS
 62
     7
 10
-0.901596069335937
 20
1.38057470321655
 30
0.0
 11
-0.120750427246094
 21
1.38057470321655
 31
0.0
  0
LINE
  5
   164
  8
0
  6
CONTINUOUS
 62
     7
 10
-0.901596069335938
 20
1.38057470321655
 30
0.0
 11
-0.901596069335938
 21
1.66634938120842
 31
0.0
  0
LINE
  5
   165
  8
0
  6
CONTINUOUS
 62
     7
 10
-0.901596069335937
 20
1.66634941101074
 30
0.0
 11
1.02034473622769E-16
 21
1.66634941101074
 31
0.0
  0
LINE
  5
   166
  8
0
  6
CONTINUOUS
 62
     7
 10
0.0
 20
1.66634941101074
 30
0.0
 11
0.0
 21
2.21374940872192
 31
0.0
  0
LINE
  5
   167
  8
0
  6
CONTINUOUS
 62
     7
 10
-1.44899749755859
 20
2.21374940872193
 30
0.0
 11
1.35553056375283E-16
 21
2.21374940872193
 31
0.0
  0
ARC
  5
   168
  8
0
  6
CONTINUOUS
 62
     7
 10
-6.65167272329478
 20
1.52950251971625
 30
0.0
 40
0.684221325991138
 50
89.9975452090749
 51
270.002590974911
  0
ARC
  5
   169
  8
0
  6
CONTINUOUS
 62
     7
 10
-6.4222121249208
 20
0.696328140844565
 30
0.0
 40
0.696318094728419
 50
269.999920898491
 51
449.999499220325
  0
ARC
  5
   16A
  8
0
  6
CONTINUOUS
 62
     7
 10
-2.60648164577671
 20
1.10683590907698
 30
0.0
 40
1.10692783346537
 50
30.24104526357
 51
210.235617348036
  0
ARC
  5
   16B
  8
0
  6
CONTINUOUS
 62
     7
 10
-2.60650097665835
 20
1.10686381958204
 30
0.0
 40
0.5594873152035
 50
30.2406197505008
 51
210.236398393491
  0
INSERT
  5
   16C
  8
0
  6
CONTINUOUS
 62
     7
  2
*HATCH108
 10
0.0
 20
0.0
 30
0.0
  0
INSERT
  5
   16D
  8
0
  6
CONTINUOUS
 62
     7
  2
*HATCH109
 10
0.0
 20
0.0
 30
0.0
  0
INSERT
  5
   16E
  8
0
  6
CONTINUOUS
 62
     7
  2
*HATCH110
 10
0.0
 20
0.0
 30
0.0
  0
INSERT
  5
   16F
  8
0
  6
CONTINUOUS
 62
     7
  2
*HATCH111
 10
0.0
 20
0.0
 30
0.0
  0
ENDBLK
  5
   170
  8
0
  6
CONTINUOUS
 62
     7
  0
BLOCK
  5
   171
  8
0
  6
CONTINUOUS
 62
     7
  2
*HATCH112
 70
    65
 10
0.0
 20
0.0
 30
0.0
  3
*HATCH112
  0
LINE
  5
   172
  8
0
  6
CONTINUOUS
 62
     7
 10
-3.7039635181427
 20
2.659996509552
 30
0.0
 11
-4.09285688400269
 21
2.27110314369202
 31
0.0
  0
LINE
  5
   173
  8
0
  6
CONTINUOUS
 62
     7
 10
-3.6409957408905
 20
2.2987003326416
 30
0.0
 11
-4.3212947845459
 21
1.61840128898621
 31
0.0
  0
LINE
  5
   174
  8
0
  6
CONTINUOUS
 62
     7
 10
-3.6409957408905
 20
1.87443625926971
 30
0.0
 11
-4.10218858718872
 21
1.41324353218079
 31
0.0
  0
LINE
  5
   175
  8
0
  6
CONTINUOUS
 62
     7
 10
-3.6409957408905
 20
1.45017230510712
 30
0.0
 11
-3.67792463302612
 21
1.41324353218079
 31
0.0
  0
ENDBLK
  5
   176
  8
0
  6
CONTINUOUS
 62
     7
  0
BLOCK
  5
   177
  8
0
  6
CONTINUOUS
 62
     7
  2
*HATCH113
 70
    65
 10
0.0
 20
0.0
 30
0.0
  3
*HATCH113
  0
LINE
  5
   178
  8
0
  6
CONTINUOUS
 62
     7
 10
-4.26868629455566
 20
1.24674582481384
 30
0.0
 11
-4.54975318908691
 21
0.965678870677948
 31
0.0
  0
LINE
  5
   179
  8
0
  6
CONTINUOUS
 62
     7
 10
-3.84442234039307
 20
1.24674582481384
 30
0.0
 11
-4.77821111679077
 21
0.312956929206848
 31
0.0
  0
LINE
  5
   17A
  8
0
  6
CONTINUOUS
 62
     7
 10
-3.6409957408905
 20
1.02590835094452
 30
0.0
 11
-4.66690492630005
 21
-4.98909855650709E-7
 31
0.0
  0
LINE
  5
   17B
  8
0
  6
CONTINUOUS
 62
     7
 10
-3.6409957408905
 20
0.601644337177277
 30
0.0
 11
-3.71064043045044
 21
0.531999588012695
 31
0.0
  0
LINE
  5
   17C
  8
0
  6
CONTINUOUS
 62
     7
 10
-4.21202754974365
 20
3.06128244847059E-2
 30
0.0
 11
-4.24264144897461
 21
-1.45736464673973E-6
 31
0.0
  0
ENDBLK
  5
   17D
  8
0
  6
CONTINUOUS
 62
     7
  0
BLOCK
  5
   17E
  8
0
  6
CONTINUOUS
 62
     7
  2
*HATCH114
 70
    65
 10
0.0
 20
0.0
 30
0.0
  3
*HATCH114
  0
LINE
  5
   17F
  8
0
  6
CONTINUOUS
 62
     7
 10
-3.42015838623047
 20
1.24674582481384
 30
0.0
 11
-3.47449803352356
 21
1.19240605831146
 31
0.0
  0
LINE
  5
   180
  8
0
  6
CONTINUOUS
 62
     7
 10
-2.99589443206787
 20
1.24674582481384
 30
0.0
 11
-3.47449803352356
 21
0.768142104148865
 31
0.0
  0
LINE
  5
   181
  8
0
  6
CONTINUOUS
 62
     7
 10
-2.64012384414673
 20
1.17825222015381
 30
0.0
 11
-3.28637623786926
 21
0.532000005245209
 31
0.0
  0
LINE
  5
   182
  8
0
  6
CONTINUOUS
 62
     7
 10
-2.53012871742249
 20
0.863983333110809
 30
0.0
 11
-3.02272534370422
 21
0.371386826038361
 31
0.0
  0
LINE
  5
   183
  8
0
  6
CONTINUOUS
 62
     7
 10
-2.42013359069824
 20
0.54971444606781
 30
0.0
 11
-2.91273474693298
 21
0.057113379240036
 31
0.0
  0
LINE
  5
   184
  8
0
  6
CONTINUOUS
 62
     7
 10
-2.310138463974
 20
0.235445529222488
 30
0.0
 11
-2.54558539390564
 21
-1.36076994294854E-6
 31
0.0
  0
ENDBLK
  5
   185
  8
0
  6
CONTINUOUS
 62
     7
  0
BLOCK
  5
   186
  8
0
  6
CONTINUOUS
 62
     7
  2
*HATCH115
 70
    65
 10
0.0
 20
0.0
 30
0.0
  3
*HATCH115
  0
LINE
  5
   187
  8
0
  6
CONTINUOUS
 62
     7
 10
-3.27970123291016
 20
2.65999484062195
 30
0.0
 11
-3.47449803352356
 21
2.46519804000854
 31
0.0
  0
LINE
  5
   188
  8
0
  6
CONTINUOUS
 62
     7
 10
-3.08010387420654
 20
2.43532824516296
 30
0.0
 11
-3.47449803352356
 21
2.04093408584595
 31
0.0
  0
LINE
  5
   189
  8
0
  6
CONTINUOUS
 62
     7
 10
-2.97010922431946
 20
2.12105894088745
 30
0.0
 11
-3.47449803352356
 21
1.61667013168335
 31
0.0
  0
LINE
  5
   18A
  8
0
  6
CONTINUOUS
 62
     7
 10
-2.86011457443237
 20
1.80678939819336
 30
0.0
 11
-3.25366044044495
 21
1.41324353218079
 31
0.0
  0
LINE
  5
   18B
  8
0
  6
CONTINUOUS
 62
     7
 10
-2.75011992454529
 20
1.49252009391785
 30
0.0
 11
-2.82939648628235
 21
1.41324353218079
 31
0.0
  0
ENDBLK
  5
   18C
  8
0
  6
CONTINUOUS
 62
     7
  0
BLOCK
  5
   18D
  8
0
  6
CONTINUOUS
 62
     7
  2
*HATCH116
 70
    65
 10
0.0
 20
0.0
 30
0.0
  3
*HATCH116
  0
LINE
  5
   18E
  8
0
  6
CONTINUOUS
 62
     7
 10
-2.00690746307373
 20
2.659996509552
 30
0.0
 11
-2.06149291992188
 21
2.60541105270386
 31
0.0
  0
LINE
  5
   18F
  8
0
  6
CONTINUOUS
 62
     7
 10
-1.58264350891113
 20
2.659996509552
 30
0.0
 11
-2.06149291992188
 21
2.18114709854126
 31
0.0
  0
LINE
  5
   190
  8
0
  6
CONTINUOUS
 62
     7
 10
-1.34674525260925
 20
2.47163057327271
 30
0.0
 11
-2.06149291992188
 21
1.75688314437866
 31
0.0
  0
LINE
  5
   191
  8
0
  6
CONTINUOUS
 62
     7
 10
-1.34674525260925
 20
2.04736661911011
 30
0.0
 11
-1.98086845874786
 21
1.41324353218079
 31
0.0
  0
LINE
  5
   192
  8
0
  6
CONTINUOUS
 62
     7
 10
-1.34674525260925
 20
1.62310266494751
 30
0.0
 11
-1.55660438537598
 21
1.41324353218079
 31
0.0
  0
ENDBLK
  5
   193
  8
0
  6
CONTINUOUS
 62
     7
  0
BLOCK
  5
   194
  8
0
  6
CONTINUOUS
 62
     7
  2
*HATCH117
 70
    65
 10
0.0
 20
0.0
 30
0.0
  3
*HATCH117
  0
LINE
  5
   195
  8
0
  6
CONTINUOUS
 62
     7
 10
-1.72310221195221
 20
1.24674582481384
 30
0.0
 11
-2.06149291992188
 21
0.908355116844177
 31
0.0
  0
LINE
  5
   196
  8
0
  6
CONTINUOUS
 62
     7
 10
-1.34674525260925
 20
1.19883871078491
 30
0.0
 11
-2.06149291992188
 21
0.484091132879257
 31
0.0
  0
LINE
  5
   197
  8
0
  6
CONTINUOUS
 62
     7
 10
-1.34674525260925
 20
0.774574756622314
 30
0.0
 11
-2.06149291992188
 21
5.98271489143372E-2
 31
0.0
  0
LINE
  5
   198
  8
0
  6
CONTINUOUS
 62
     7
 10
-1.34674525260925
 20
0.350310742855072
 30
0.0
 11
-1.69705605506897
 21
6.53578086579266E-16
 31
0.0
  0
ENDBLK
  5
   199
  8
0
  6
CONTINUOUS
 62
     7
  0
BLOCK
  5
   19A
  8
0
  6
CONTINUOUS
 62
     7
  2
*HATCH118
 70
    65
 10
0.0
 20
0.0
 30
0.0
  3
*HATCH118
  0
LINE
  5
   19B
  8
0
  6
CONTINUOUS
 62
     7
 10
-1.15837943553925
 20
2.659996509552
 30
0.0
 11
-1.18024754524231
 21
2.63812851905823
 31
0.0
  0
LINE
  5
   19C
  8
0
  6
CONTINUOUS
 62
     7
 10
-0.823453903198242
 20
2.57065796852112
 30
0.0
 11
-1.18024754524231
 21
2.21386456489563
 31
0.0
  0
LINE
  5
   19D
  8
0
  6
CONTINUOUS
 62
     7
 10
-0.5418501496315
 20
2.42799782752991
 30
0.0
 11
-1.18024754524231
 21
1.78960049152374
 31
0.0
  0
LINE
  5
   19E
  8
0
  6
CONTINUOUS
 62
     7
 10
-0.449764907360077
 20
2.09581899642944
 30
0.0
 11
-1.13234043121338
 21
1.41324353218079
 31
0.0
  0
LINE
  5
   19F
  8
0
  6
CONTINUOUS
 62
     7
 10
-0.638074100017548
 20
1.48324584960938
 30
0.0
 11
-0.708076417446136
 21
1.41324353218079
 31
0.0
  0
ENDBLK
  5
   1A0
  8
0
  6
CONTINUOUS
 62
     7
  0
BLOCK
  5
   1A1
  8
0
  6
CONTINUOUS
 62
     7
  2
*HATCH119
 70
    65
 10
0.0
 20
0.0
 30
0.0
  3
*HATCH119
  0
LINE
  5
   1A2
  8
0
  6
CONTINUOUS
 62
     7
 10
-0.874574244022369
 20
1.24674582481384
 30
0.0
 11
-1.18024754524231
 21
0.941072523593903
 31
0.0
  0
LINE
  5
   1A3
  8
0
  6
CONTINUOUS
 62
     7
 10
-0.450310230255127
 20
1.24674582481384
 30
0.0
 11
-1.18024754524231
 21
0.51680850982666
 31
0.0
  0
LINE
  5
   1A4
  8
0
  6
CONTINUOUS
 62
     7
 10
-0.281659334897995
 20
0.991132616996765
 30
0.0
 11
-1.18024754524231
 21
9.25445482134819E-2
 31
0.0
  0
LINE
  5
   1A5
  8
0
  6
CONTINUOUS
 62
     7
 10
-0.263972669839859
 20
0.584555327892303
 30
0.0
 11
-0.764747977256775
 21
8.37800353765488E-2
 31
0.0
  0
ENDBLK
  5
   1A6
  8
0
  6
CONTINUOUS
 62
     7
  0
BLOCK
  5
   1A7
  8
0
  6
CONTINUOUS
 62
     7
  2
*HATCH120
 70
    65
 10
0.0
 20
0.0
 30
0.0
  3
*HATCH120
  0
LINE
  5
   1A8
  8
0
  6
CONTINUOUS
 62
     7
 10
0.114412605762482
 20
2.659996509552
 30
0.0
 11
0.0
 21
2.54558396339417
 31
0.0
  0
LINE
  5
   1A9
  8
0
  6
CONTINUOUS
 62
     7
 10
0.538676619529724
 20
2.659996509552
 30
0.0
 11
0.0
 21
2.12132000923157
 31
0.0
  0
LINE
  5
   1AA
  8
0
  6
CONTINUOUS
 62
     7
 10
0.714747607707977
 20
2.41180348396301
 30
0.0
 11
0.0
 21
1.69705593585968
 31
0.0
  0
LINE
  5
   1AB
  8
0
  6
CONTINUOUS
 62
     7
 10
0.714747607707977
 20
1.98753952980042
 30
0.0
 11
0.140451639890671
 21
1.41324353218079
 31
0.0
  0
LINE
  5
   1AC
  8
0
  6
CONTINUOUS
 62
     7
 10
0.714747607707977
 20
1.56327557563782
 30
0.0
 11
0.564715623855591
 21
1.41324353218079
 31
0.0
  0
ENDBLK
  5
   1AD
  8
0
  6
CONTINUOUS
 62
     7
  0
BLOCK
  5
   1AE
  8
0
  6
CONTINUOUS
 62
     7
  2
*HATCH121
 70
    65
 10
0.0
 20
0.0
 30
0.0
  3
*HATCH121
  0
LINE
  5
   1AF
  8
0
  6
CONTINUOUS
 62
     7
 10
0.962940633296967
 20
2.659996509552
 30
0.0
 11
0.88124543428421
 21
2.57830119132996
 31
0.0
  0
LINE
  5
   1B0
  8
0
  6
CONTINUOUS
 62
     7
 10
1.2789386510849
 20
2.55173063278198
 30
0.0
 11
0.88124543428421
 21
2.15403723716736
 31
0.0
  0
LINE
  5
   1B1
  8
0
  6
CONTINUOUS
 62
     7
 10
1.53262805938721
 20
2.3811559677124
 30
0.0
 11
0.88124543428421
 21
1.72977328300476
 31
0.0
  0
LINE
  5
   1B2
  8
0
  6
CONTINUOUS
 62
     7
 10
1.62471330165863
 20
2.04897713661194
 30
0.0
 11
0.988979697227478
 21
1.41324353218079
 31
0.0
  0
LINE
  5
   1B3
  8
0
  6
CONTINUOUS
 62
     7
 10
1.46331548690796
 20
1.46331536769867
 30
0.0
 11
1.41324365139008
 21
1.41324353218079
 31
0.0
  0
ENDBLK
  5
   1B4
  8
0
  6
CONTINUOUS
 62
     7
  0
BLOCK
  5
   1B5
  8
0
  6
CONTINUOUS
 62
     7
  2
*HATCH122
 70
    65
 10
0.0
 20
0.0
 30
0.0
  3
*HATCH122
  0
LINE
  5
   1B6
  8
0
  6
CONTINUOUS
 62
     7
 10
0.39821782708168
 20
1.24674582481384
 30
0.0
 11
0.0
 21
0.84852796792984
 31
0.0
  0
LINE
  5
   1B7
  8
0
  6
CONTINUOUS
 62
     7
 10
0.714747607707977
 20
1.13901150226593
 30
0.0
 11
0.0
 21
0.42426398396492
 31
0.0
  0
LINE
  5
   1B8
  8
0
  6
CONTINUOUS
 62
     7
 10
0.714747607707977
 20
0.714747548103333
 30
0.0
 11
0.0
 21
0.0
 31
0.0
  0
LINE
  5
   1B9
  8
0
  6
CONTINUOUS
 62
     7
 10
0.714747607707977
 20
0.290483593940735
 30
0.0
 11
0.424264013767242
 21
7.91553348000328E-16
 31
0.0
  0
ENDBLK
  5
   1BA
  8
0
  6
CONTINUOUS
 62
     7
  0
BLOCK
  5
   1BB
  8
0
  6
CONTINUOUS
 62
     7
  2
*HATCH123
 70
    65
 10
0.0
 20
0.0
 30
0.0
  3
*HATCH123
  0
LINE
  5
   1BC
  8
0
  6
CONTINUOUS
 62
     7
 10
1.24674582481384
 20
1.24674582481384
 30
0.0
 11
0.88124543428421
 21
0.881245374679565
 31
0.0
  0
LINE
  5
   1BD
  8
0
  6
CONTINUOUS
 62
     7
 10
1.67100977897644
 20
1.24674582481384
 30
0.0
 11
0.88124543428421
 21
0.456981390714645
 31
0.0
  0
LINE
  5
   1BE
  8
0
  6
CONTINUOUS
 62
     7
 10
1.79262113571167
 20
0.944092988967896
 30
0.0
 11
0.88124543428421
 21
3.27173843979836E-2
 31
0.0
  0
LINE
  5
   1BF
  8
0
  6
CONTINUOUS
 62
     7
 10
1.73607635498047
 20
0.463284254074097
 30
0.0
 11
1.39401113986969
 21
0.121219135820866
 31
0.0
  0
ENDBLK
  5
   1C0
  8
0
  6
CONTINUOUS
 62
     7
  0
BLOCK
  5
   1C1
  8
0
  6
CONTINUOUS
 62
     7
  2
$1ABB
 70
    64
 10
0.0
 20
0.0
 30
0.0
  3
$1ABB
  0
LINE
  5
   1C2
  8
0
  6
CONTINUOUS
 62
     7
 10
-4.39309755866065
 20
1.4132435798645
 30
0.0
 11
-3.95674135031761
 21
2.6599923848804
 31
0.0
  0
LINE
  5
   1C3
  8
0
  6
CONTINUOUS
 62
     7
 10
-4.88774871826172
 20
1.33351129624183E-15
 30
0.0
 11
-4.22274780273438
 21
1.33351129624183E-15
 31
0.0
  0
LINE
  5
   1C4
  8
0
  6
CONTINUOUS
 62
     7
 10
-4.22274218828809
 20
-1.50231959450409E-6
 30
0.0
 11
-4.0365391926282
 21
0.531998110619612
 31
0.0
  0
LINE
  5
   1C5
  8
0
  6
CONTINUOUS
 62
     7
 10
-4.03654479980469
 20
0.531999588012697
 30
0.0
 11
-3.64099578857422
 21
0.531999588012697
 31
0.0
  0
LINE
  5
   1C6
  8
0
  6
CONTINUOUS
 62
     7
 10
-4.88774327593104
 20
-2.42794669391699E-6
 30
0.0
 11
-4.45137756989492
 21
1.24674577713013
 31
0.0
  0
LINE
  5
   1C7
  8
0
  6
CONTINUOUS
 62
     7
 10
-2.66409674425225
 20
1.24674577713013
 30
0.0
 11
-2.22773097566292
 21
-2.60666856455316E-6
 31
0.0
  0
LINE
  5
   1C8
  8
0
  6
CONTINUOUS
 62
     7
 10
-3.47449798583984
 20
0.531999588012697
 30
0.0
 11
-3.07894897460938
 21
0.531999588012697
 31
0.0
  0
LINE
  5
   1C9
  8
0
  6
CONTINUOUS
 62
     7
 10
-3.07893739163377
 20
0.53200042788059
 30
0.0
 11
-2.89273439597387
 21
8.14941384263967E-7
 31
0.0
  0
LINE
  5
   1CA
  8
0
  6
CONTINUOUS
 62
     7
 10
-2.89274597167969
 20
1.33351129624183E-15
 30
0.0
 11
-2.22774505615234
 21
1.33351129624183E-15
 31
0.0
  0
LINE
  5
   1CB
  8
0
  6
CONTINUOUS
 62
     7
 10
-3.15873717506253
 20
2.65999387867798
 30
0.0
 11
-2.72237316510625
 21
1.4132435798645
 31
0.0
  0
LINE
  5
   1CC
  8
0
  6
CONTINUOUS
 62
     7
 10
-2.06149291992188
 20
1.33351129624183E-15
 30
0.0
 11
-1.34674530029297
 21
1.33351129624183E-15
 31
0.0
  0
LINE
  5
   1CD
  8
0
  6
CONTINUOUS
 62
     7
 10
-0.698249011125256
 20
1.51330638523267
 30
0.0
 11
-0.497944258065633
 21
1.4132435798645
 31
0.0
  0
LINE
  5
   1CE
  8
0
  6
CONTINUOUS
 62
     7
 10
-1.18024749755859
 20
1.33351129624183E-15
 30
0.0
 11
-0.982933044433594
 21
1.33351129624183E-15
 31
0.0
  0
LINE
  5
   1CF
  8
0
  6
CONTINUOUS
 62
     7
 10
-2.06149291992188
 20
0.0
 30
0.0
 11
-2.06149291992188
 21
1.24674577713013
 31
0.0
  0
LINE
  5
   1D0
  8
0
  6
CONTINUOUS
 62
     7
 10
-3.95674896240234
 20
2.659996509552
 30
0.0
 11
-3.64099578857422
 21
2.659996509552
 31
0.0
  0
LINE
  5
   1D1
  8
0
  6
CONTINUOUS
 62
     7
 10
-3.47449798583984
 20
2.659996509552
 30
0.0
 11
-3.15874481201172
 21
2.659996509552
 31
0.0
  0
LINE
  5
   1D2
  8
0
  6
CONTINUOUS
 62
     7
 10
-2.06149291992188
 20
2.659996509552
 30
0.0
 11
-1.34674530029297
 21
2.659996509552
 31
0.0
  0
LINE
  5
   1D3
  8
0
  6
CONTINUOUS
 62
     7
 10
-1.18024749755859
 20
2.659996509552
 30
0.0
 11
-1.01650238037109
 21
2.659996509552
 31
0.0
  0
LINE
  5
   1D4
  8
0
  6
CONTINUOUS
 62
     7
 10
-3.47449798583984
 20
1.4132435798645
 30
0.0
 11
-3.47449798583984
 21
2.659996509552
 31
0.0
  0
LINE
  5
   1D5
  8
0
  6
CONTINUOUS
 62
     7
 10
-3.47449798583984
 20
0.531999588012695
 30
0.0
 11
-3.47449798583984
 21
1.24674577713013
 31
0.0
  0
LINE
  5
   1D6
  8
0
  6
CONTINUOUS
 62
     7
 10
-3.64099578857422
 20
1.4132435798645
 30
0.0
 11
-3.64099578857422
 21
2.659996509552
 31
0.0
  0
LINE
  5
   1D7
  8
0
  6
CONTINUOUS
 62
     7
 10
-3.64099578857422
 20
0.531999588012695
 30
0.0
 11
-3.64099578857422
 21
1.24674577713013
 31
0.0
  0
LINE
  5
   1D8
  8
0
  6
CONTINUOUS
 62
     7
 10
-4.39309755866065
 20
1.4132435798645
 30
0.0
 11
-3.64099578857422
 21
1.4132435798645
 31
0.0
  0
LINE
  5
   1D9
  8
0
  6
CONTINUOUS
 62
     7
 10
-4.45137756989492
 20
1.24674577713013
 30
0.0
 11
-3.64099578857422
 21
1.24674577713013
 31
0.0
  0
LINE
  5
   1DA
  8
0
  6
CONTINUOUS
 62
     7
 10
-3.47449798583984
 20
1.24674577713013
 30
0.0
 11
-2.66409674425225
 21
1.24674577713013
 31
0.0
  0
LINE
  5
   1DB
  8
0
  6
CONTINUOUS
 62
     7
 10
-1.34674530029297
 20
1.4132435798645
 30
0.0
 11
-1.34674530029297
 21
2.659996509552
 31
0.0
  0
LINE
  5
   1DC
  8
0
  6
CONTINUOUS
 62
     7
 10
-2.06149291992188
 20
1.4132435798645
 30
0.0
 11
-1.34674530029297
 21
1.4132435798645
 31
0.0
  0
LINE
  5
   1DD
  8
0
  6
CONTINUOUS
 62
     7
 10
-1.18024749755859
 20
1.4132435798645
 30
0.0
 11
-1.18024749755859
 21
2.659996509552
 31
0.0
  0
LINE
  5
   1DE
  8
0
  6
CONTINUOUS
 62
     7
 10
-1.18024749755859
 20
1.4132435798645
 30
0.0
 11
-0.497944258065633
 21
1.4132435798645
 31
0.0
  0
LINE
  5
   1DF
  8
0
  6
CONTINUOUS
 62
     7
 10
-2.06149291992188
 20
1.24674577713013
 30
0.0
 11
-1.34674530029297
 21
1.24674577713013
 31
0.0
  0
LINE
  5
   1E0
  8
0
  6
CONTINUOUS
 62
     7
 10
-1.18024749755859
 20
1.24674577713013
 30
0.0
 11
-0.351146494976341
 21
1.24674577713013
 31
0.0
  0
LINE
  5
   1E1
  8
0
  6
CONTINUOUS
 62
     7
 10
-1.18024749755859
 20
0.0
 30
0.0
 11
-1.18024749755859
 21
1.24674577713013
 31
0.0
  0
LINE
  5
   1E2
  8
0
  6
CONTINUOUS
 62
     7
 10
-1.34674530029297
 20
0.0
 30
0.0
 11
-1.34674530029297
 21
1.24674577713013
 31
0.0
  0
ARC
  5
   1E3
  8
0
  6
CONTINUOUS
 62
     7
 10
-1.01636629288394
 20
2.0426469527994
 30
0.0
 40
0.617302755021266
 50
300.988438672012
 51
450.0
  0
ARC
  5
   1E4
  8
0
  6
CONTINUOUS
 62
     7
 10
-0.983116632612569
 20
0.783417365308862
 30
0.0
 40
0.783619468916367
 50
270.01347311298
 51
396.246977192996
  0
LINE
  5
   1E5
  8
0
  6
CONTINUOUS
 62
     7
 10
-2.06149291992188
 20
1.4132435798645
 30
0.0
 11
-2.06149291992188
 21
2.659996509552
 31
0.0
  0
LINE
  5
   1E6
  8
0
  6
CONTINUOUS
 62
     7
 10
-3.47449798583984
 20
1.4132435798645
 30
0.0
 11
-2.72237316510625
 21
1.4132435798645
 31
0.0
  0
LINE
  5
   1E7
  8
0
  6
CONTINUOUS
 62
     7
 10
0.0
 20
1.33351129624183E-15
 30
0.0
 11
0.714747619628906
 21
1.33351129624183E-15
 31
0.0
  0
LINE
  5
   1E8
  8
0
  6
CONTINUOUS
 62
     7
 10
1.36324390879662
 20
1.51330638523267
 30
0.0
 11
1.56354866185624
 21
1.4132435798645
 31
0.0
  0
LINE
  5
   1E9
  8
0
  6
CONTINUOUS
 62
     7
 10
0.881245422363281
 20
1.33351129624183E-15
 30
0.0
 11
1.07855987548828
 21
1.33351129624183E-15
 31
0.0
  0
LINE
  5
   1EA
  8
0
  6
CONTINUOUS
 62
     7
 10
0.0
 20
0.0
 30
0.0
 11
0.0
 21
1.24674577713013
 31
0.0
  0
LINE
  5
   1EB
  8
0
  6
CONTINUOUS
 62
     7
 10
0.0
 20
2.659996509552
 30
0.0
 11
0.714747619628906
 21
2.659996509552
 31
0.0
  0
LINE
  5
   1EC
  8
0
  6
CONTINUOUS
 62
     7
 10
0.881245422363281
 20
2.659996509552
 30
0.0
 11
1.04499053955078
 21
2.659996509552
 31
0.0
  0
LINE
  5
   1ED
  8
0
  6
CONTINUOUS
 62
     7
 10
0.714747619628906
 20
1.4132435798645
 30
0.0
 11
0.714747619628906
 21
2.659996509552
 31
0.0
  0
LINE
  5
   1EE
  8
0
  6
CONTINUOUS
 62
     7
 10
0.0
 20
1.4132435798645
 30
0.0
 11
0.714747619628906
 21
1.4132435798645
 31
0.0
  0
LINE
  5
   1EF
  8
0
  6
CONTINUOUS
 62
     7
 10
0.881245422363281
 20
1.4132435798645
 30
0.0
 11
0.881245422363281
 21
2.659996509552
 31
0.0
  0
LINE
  5
   1F0
  8
0
  6
CONTINUOUS
 62
     7
 10
0.881245422363281
 20
1.4132435798645
 30
0.0
 11
1.56354866185624
 21
1.4132435798645
 31
0.0
  0
LINE
  5
   1F1
  8
0
  6
CONTINUOUS
 62
     7
 10
0.0
 20
1.24674577713013
 30
0.0
 11
0.714747619628906
 21
1.24674577713013
 31
0.0
  0
LINE
  5
   1F2
  8
0
  6
CONTINUOUS
 62
     7
 10
0.881245422363281
 20
1.24674577713013
 30
0.0
 11
1.71034642494553
 21
1.24674577713013
 31
0.0
  0
LINE
  5
   1F3
  8
0
  6
CONTINUOUS
 62
     7
 10
0.881245422363281
 20
0.0
 30
0.0
 11
0.881245422363281
 21
1.24674577713013
 31
0.0
  0
LINE
  5
   1F4
  8
0
  6
CONTINUOUS
 62
     7
 10
0.714747619628906
 20
0.0
 30
0.0
 11
0.714747619628906
 21
1.24674577713013
 31
0.0
  0
ARC
  5
   1F5
  8
0
  6
CONTINUOUS
 62
     7
 10
1.04512662703793
 20
2.0426469527994
 30
0.0
 40
0.617302755021266
 50
300.988438672012
 51
450.0
  0
ARC
  5
   1F6
  8
0
  6
CONTINUOUS
 62
     7
 10
1.07837628730931
 20
0.783417365308862
 30
0.0
 40
0.783619468916367
 50
270.01347311298
 51
396.246977192996
  0
LINE
  5
   1F7
  8
0
  6
CONTINUOUS
 62
     7
 10
0.0
 20
1.4132435798645
 30
0.0
 11
0.0
 21
2.659996509552
 31
0.0
  0
INSERT
  5
   1F8
  8
0
  6
CONTINUOUS
 62
     7
  2
*HATCH112
 10
0.0
 20
0.0
 30
0.0
  0
INSERT
  5
   1F9
  8
0
  6
CONTINUOUS
 62
     7
  2
*HATCH113
 10
0.0
 20
0.0
 30
0.0
  0
INSERT
  5
   1FA
  8
0
  6
CONTINUOUS
 62
     7
  2
*HATCH114
 10
0.0
 20
0.0
 30
0.0
  0
INSERT
  5
   1FB
  8
0
  6
CONTINUOUS
 62
     7
  2
*HATCH115
 10
0.0
 20
0.0
 30
0.0
  0
INSERT
  5
   1FC
  8
0
  6
CONTINUOUS
 62
     7
  2
*HATCH116
 10
0.0
 20
0.0
 30
0.0
  0
INSERT
  5
   1FD
  8
0
  6
CONTINUOUS
 62
     7
  2
*HATCH117
 10
0.0
 20
0.0
 30
0.0
  0
INSERT
  5
   1FE
  8
0
  6
CONTINUOUS
 62
     7
  2
*HATCH118
 10
0.0
 20
0.0
 30
0.0
  0
INSERT
  5
   1FF
  8
0
  6
CONTINUOUS
 62
     7
  2
*HATCH119
 10
0.0
 20
0.0
 30
0.0
  0
INSERT
  5
   200
  8
0
  6
CONTINUOUS
 62
     7
  2
*HATCH120
 10
0.0
 20
0.0
 30
0.0
  0
INSERT
  5
   201
  8
0
  6
CONTINUOUS
 62
     7
  2
*HATCH121
 10
0.0
 20
0.0
 30
0.0
  0
INSERT
  5
   202
  8
0
  6
CONTINUOUS
 62
     7
  2
*HATCH122
 10
0.0
 20
0.0
 30
0.0
  0
INSERT
  5
   203
  8
0
  6
CONTINUOUS
 62
     7
  2
*HATCH123
 10
0.0
 20
0.0
 30
0.0
  0
ENDBLK
  5
   204
  8
0
  6
CONTINUOUS
 62
     7
  0
BLOCK
  5
   205
  8
0
  6
CONTINUOUS
 62
     7
  2
$1SETTORE
 70
    64
 10
0.0
 20
0.0
 30
0.0
  3
$1SETTORE
  0
LINE
  5
   206
  8
0
  6
CONTINUOUS
 62
     7
 10
0.0
 20
0.0
 30
0.0
 11
0.0
 21
6.24258713789282
 31
0.0
  0
LINE
  5
   207
  8
0
  6
CONTINUOUS
 62
     7
 10
0.0
 20
6.24258713789282
 30
0.0
 11
10.246732288018
 21
6.24258713789282
 31
0.0
  0
LINE
  5
   208
  8
0
  6
CONTINUOUS
 62
     7
 10
0.0
 20
0.0
 30
0.0
 11
10.246732288018
 21
0.0
 31
0.0
  0
ARC
  5
   209
  8
0
  6
CONTINUOUS
 62
     7
 10
3.00394911306302
 20
1.0864500117421
 30
0.0
 40
1.56546573367076
 50
6.88816001651171
 51
173.111839983488
  0
ARC
  5
   20A
  8
0
  6
CONTINUOUS
 62
     7
 10
7.01184733918905
 20
1.08645001174209
 30
0.0
 40
1.56546573367076
 50
6.88816001651175
 51
173.111839983488
  0
LINE
  5
   20B
  8
0
  6
CONTINUOUS
 62
     7
 10
4.55811554458609
 20
1.27419895694331
 30
0.0
 11
5.45768090766596
 21
1.27419895694331
 31
0.0
  0
LINE
  5
   20C
  8
0
  6
CONTINUOUS
 62
     7
 10
8.56601377071214
 20
1.27419895694331
 30
0.0
 11
9.32812373766353
 21
1.27419895694331
 31
0.0
  0
LINE
  5
   20D
  8
0
  6
CONTINUOUS
 62
     7
 10
10.246732288018
 20
0.0
 30
0.0
 11
10.246732288018
 21
6.24258713789282
 31
0.0
  0
POLYLINE
  5
   20E
  8
0
  6
CONTINUOUS
 62
     7
 66
     1
 10
0.0
 20
0.0
 30
0.0
  0
VERTEX
  5
   20F
  8
0
  6
CONTINUOUS
 10
1.47743232669794
 20
4.62974475182398
 30
0.0
 40
0.0
 41
0.0
  0
VERTEX
  5
   210
  8
0
  6
CONTINUOUS
 10
1.50907090971912
 20
4.68541072145247
 30
0.0
 40
0.0
 41
0.0
  0
VERTEX
  5
   211
  8
0
  6
CONTINUOUS
 10
1.54295933904664
 20
4.7397363550725
 30
0.0
 40
0.0
 41
0.0
  0
VERTEX
  5
   212
  8
0
  6
CONTINUOUS
 10
1.57904092337672
 20
4.79263077238764
 30
0.0
 40
0.0
 41
0.0
  0
VERTEX
  5
   213
  8
0
  6
CONTINUOUS
 10
1.61725530251987
 20
4.84400548735488
 30
0.0
 40
0.0
 41
0.0
  0
VERTEX
  5
   214
  8
0
  6
CONTINUOUS
 10
1.65753854837676
 20
4.89377455621077
 30
0.0
 40
0.0
 41
0.0
  0
VERTEX
  5
   215
  8
0
  6
CONTINUOUS
 10
1.69982327188269
 20
4.94185472124475
 30
0.0
 40
0.0
 41
0.0
  0
VERTEX
  5
   216
  8
0
  6
CONTINUOUS
 10
1.74403873574163
 20
4.98816555007912
 30
0.0
 40
0.0
 41
0.0
  0
VERTEX
  5
   217
  8
0
  6
CONTINUOUS
 10
1.79011097276124
 20
5.0326295702228
 30
0.0
 40
0.0
 41
0.0
  0
VERTEX
  5
   218
  8
0
  6
CONTINUOUS
 10
1.83796290959098
 20
5.07517239867363
 30
0.0
 40
0.0
 41
0.0
  0
VERTEX
  5
   219
  8
0
  6
CONTINUOUS
 10
1.88751449565626
 20
5.11572286635262
 30
0.0
 40
0.0
 41
0.0
  0
VERTEX
  5
   21A
  8
0
  6
CONTINUOUS
 10
1.93868283707304
 20
5.15421313716167
 30
0.0
 40
0.0
 41
0.0
  0
VERTEX
  5
   21B
  8
0
  6
CONTINUOUS
 10
1.99138233531874
 20
5.19057882146581
 30
0.0
 40
0.0
 41
0.0
  0
VERTEX
  5
   21C
  8
0
  6
CONTINUOUS
 10
2.04552483042776
 20
5.22475908380999
 30
0.0
 40
0.0
 41
0.0
  0
VERTEX
  5
   21D
  8
0
  6
CONTINUOUS
 10
2.10101974847194
 20
5.25669674469012
 30
0.0
 40
0.0
 41
0.0
  0
VERTEX
  5
   21E
  8
0
  6
CONTINUOUS
 10
2.15777425307935
 20
5.28633837620813
 30
0.0
 40
0.0
 41
0.0
  0
VERTEX
  5
   21F
  8
0
  6
CONTINUOUS
 10
2.21569340073804
 20
5.31363439145094
 30
0.0
 40
0.0
 41
0.0
  0
VERTEX
  5
   220
  8
0
  6
CONTINUOUS
 10
2.2746802996249
 20
5.33853912744377
 30
0.0
 40
0.0
 41
0.0
  0
VERTEX
  5
   221
  8
0
  6
CONTINUOUS
 10
2.3346362716941
 20
5.36101092153898
 30
0.0
 40
0.0
 41
0.0
  0
VERTEX
  5
   222
  8
0
  6
CONTINUOUS
 10
2.39546101775383
 20
5.38101218111262
 30
0.0
 40
0.0
 41
0.0
  0
VERTEX
  5
   223
  8
0
  6
CONTINUOUS
 10
2.45705278525531
 20
5.39850944645206
 30
0.0
 40
0.0
 41
0.0
  0
VERTEX
  5
   224
  8
0
  6
CONTINUOUS
 10
2.51930853851338
 20
5.4134734467295
 30
0.0
 40
0.0
 41
0.0
  0
VERTEX
  5
   225
  8
0
  6
CONTINUOUS
 10
2.58212413107371
 20
5.42587914896778
 30
0.0
 40
0.0
 41
0.0
  0
VERTEX
  5
   226
  8
0
  6
CONTINUOUS
 10
2.64539447993848
 20
5.43570579991652
 30
0.0
 40
0.0
 41
0.0
  0
VERTEX
  5
   227
  8
0
  6
CONTINUOUS
 10
2.70901374135873
 20
5.44293696076883
 30
0.0
 40
0.0
 41
0.0
  0
VERTEX
  5
   228
  8
0
  6
CONTINUOUS
 10
2.77287548789944
 20
5.44756053466028
 30
0.0
 40
0.0
 41
0.0
  0
VERTEX
  5
   229
  8
0
  6
CONTINUOUS
 10
2.83687288648079
 20
5.44956878690456
 30
0.0
 40
0.0
 41
0.0
  0
VERTEX
  5
   22A
  8
0
  6
CONTINUOUS
 10
2.90089887709781
 20
5.44895835793193
 30
0.0
 40
0.0
 41
0.0
  0
VERTEX
  5
   22B
  8
0
  6
CONTINUOUS
 10
2.96484635191918
 20
5.44573026890904
 30
0.0
 40
0.0
 41
0.0
  0
VERTEX
  5
   22C
  8
0
  6
CONTINUOUS
 10
3.02860833446559
 20
5.43988992003082
 30
0.0
 40
0.0
 41
0.0
  0
VERTEX
  5
   22D
  8
0
  6
CONTINUOUS
 10
3.09207815856758
 20
5.43144708148745
 30
0.0
 40
0.0
 41
0.0
  0
VERTEX
  5
   22E
  8
0
  6
CONTINUOUS
 10
3.15514964680372
 20
5.42041587712159
 30
0.0
 40
0.0
 41
0.0
  0
VERTEX
  5
   22F
  8
0
  6
CONTINUOUS
 10
3.2177172881204
 20
5.40681476080326
 30
0.0
 40
0.0
 41
0.0
  0
VERTEX
  5
   230
  8
0
  6
CONTINUOUS
 10
3.27967641433626
 20
5.39066648556181
 30
0.0
 40
0.0
 41
0.0
  0
VERTEX
  5
   231
  8
0
  6
CONTINUOUS
 10
3.34092337523629
 20
5.37199806552637
 30
0.0
 40
0.0
 41
0.0
  0
VERTEX
  5
   232
  8
0
  6
CONTINUOUS
 10
3.40135571196283
 20
5.35084073073817
 30
0.0
 40
0.0
 41
0.0
  0
VERTEX
  5
   233
  8
0
  6
CONTINUOUS
 10
3.46087232841431
 20
5.32722987490957
 30
0.0
 40
0.0
 41
0.0
  0
VERTEX
  5
   234
  8
0
  6
CONTINUOUS
 10
3.51937366036546
 20
5.30120499621645
 30
0.0
 40
0.0
 41
0.0
  0
VERTEX
  5
   235
  8
0
  6
CONTINUOUS
 10
3.57676184202738
 20
5.27280963122154
 30
0.0
 40
0.0
 41
0.0
  0
VERTEX
  5
   236
  8
0
  6
CONTINUOUS
 10
3.63294086977031
 20
5.24209128203773
 30
0.0
 40
0.0
 41
0.0
  0
VERTEX
  5
   237
  8
0
  6
CONTINUOUS
 10
3.6878167627369
 20
5.20910133685067
 30
0.0
 40
0.0
 41
0.0
  0
VERTEX
  5
   238
  8
0
  6
CONTINUOUS
 10
3.74129772007988
 20
5.17389498393089
 30
0.0
 40
0.0
 41
0.0
  0
VERTEX
  5
   239
  8
0
  6
CONTINUOUS
 10
3.79329427456388
 20
5.13653111927552
 30
0.0
 40
0.0
 41
0.0
  0
VERTEX
  5
   23A
  8
0
  6
CONTINUOUS
 10
3.84371944227804
 20
5.09707224802936
 30
0.0
 40
0.0
 41
0.0
  0
VERTEX
  5
   23B
  8
0
  6
CONTINUOUS
 10
3.89248886821343
 20
5.05558437984477
 30
0.0
 40
0.0
 41
0.0
  0
VERTEX
  5
   23C
  8
0
  6
CONTINUOUS
 10
6.0912629150773
 20
3.70503503045824
 30
0.0
 40
0.0
 41
0.0
  0
VERTEX
  5
   23D
  8
0
  6
CONTINUOUS
 10
6.14003234101554
 20
3.6635471622731
 30
0.0
 40
0.0
 41
0.0
  0
VERTEX
  5
   23E
  8
0
  6
CONTINUOUS
 10
6.19045750872971
 20
3.62408829102695
 30
0.0
 40
0.0
 41
0.0
  0
VERTEX
  5
   23F
  8
0
  6
CONTINUOUS
 10
6.2424540632137
 20
3.58672442637157
 30
0.0
 40
0.0
 41
0.0
  0
VERTEX
  5
   240
  8
0
  6
CONTINUOUS
 10
6.29593502055669
 20
3.55151807345179
 30
0.0
 40
0.0
 41
0.0
  0
VERTEX
  5
   241
  8
0
  6
CONTINUOUS
 10
6.35081091352328
 20
3.51852812826473
 30
0.0
 40
0.0
 41
0.0
  0
VERTEX
  5
   242
  8
0
  6
CONTINUOUS
 10
6.4069899412662
 20
3.48780977908092
 30
0.0
 40
0.0
 41
0.0
  0
VERTEX
  5
   243
  8
0
  6
CONTINUOUS
 10
6.46437812292813
 20
3.45941441408601
 30
0.0
 40
0.0
 41
0.0
  0
VERTEX
  5
   244
  8
0
  6
CONTINUOUS
 10
6.52287945487927
 20
3.43338953539289
 30
0.0
 40
0.0
 41
0.0
  0
VERTEX
  5
   245
  8
0
  6
CONTINUOUS
 10
6.58239607133076
 20
3.40977867956429
 30
0.0
 40
0.0
 41
0.0
  0
VERTEX
  5
   246
  8
0
  6
CONTINUOUS
 10
6.6428284080573
 20
3.38862134477609
 30
0.0
 40
0.0
 41
0.0
  0
VERTEX
  5
   247
  8
0
  6
CONTINUOUS
 10
6.70407536895733
 20
3.36995292474065
 30
0.0
 40
0.0
 41
0.0
  0
VERTEX
  5
   248
  8
0
  6
CONTINUOUS
 10
6.7660344951732
 20
3.3538046494992
 30
0.0
 40
0.0
 41
0.0
  0
VERTEX
  5
   249
  8
0
  6
CONTINUOUS
 10
6.82860213648987
 20
3.34020353318088
 30
0.0
 40
0.0
 41
0.0
  0
VERTEX
  5
   24A
  8
0
  6
CONTINUOUS
 10
6.89167362472602
 20
3.32917232881501
 30
0.0
 40
0.0
 41
0.0
  0
VERTEX
  5
   24B
  8
0
  6
CONTINUOUS
 10
6.95514344882801
 20
3.32072949027164
 30
0.0
 40
0.0
 41
0.0
  0
VERTEX
  5
   24C
  8
0
  6
CONTINUOUS
 10
7.01890543137442
 20
3.31488914139342
 30
0.0
 40
0.0
 41
0.0
  0
VERTEX
  5
   24D
  8
0
  6
CONTINUOUS
 10
7.08285290619579
 20
3.31166105237053
 30
0.0
 40
0.0
 41
0.0
  0
VERTEX
  5
   24E
  8
0
  6
CONTINUOUS
 10
7.14687889681281
 20
3.3110506233979
 30
0.0
 40
0.0
 41
0.0
  0
VERTEX
  5
   24F
  8
0
  6
CONTINUOUS
 10
7.21087629539416
 20
3.31305887564218
 30
0.0
 40
0.0
 41
0.0
  0
VERTEX
  5
   250
  8
0
  6
CONTINUOUS
 10
7.27473804193487
 20
3.31768244953363
 30
0.0
 40
0.0
 41
0.0
  0
VERTEX
  5
   251
  8
0
  6
CONTINUOUS
 10
7.33835730335512
 20
3.32491361038594
 30
0.0
 40
0.0
 41
0.0
  0
VERTEX
  5
   252
  8
0
  6
CONTINUOUS
 10
7.40162765221989
 20
3.33474026133469
 30
0.0
 40
0.0
 41
0.0
  0
VERTEX
  5
   253
  8
0
  6
CONTINUOUS
 10
7.46444324478022
 20
3.34714596357296
 30
0.0
 40
0.0
 41
0.0
  0
VERTEX
  5
   254
  8
0
  6
CONTINUOUS
 10
7.52669899803829
 20
3.36210996385041
 30
0.0
 40
0.0
 41
0.0
  0
VERTEX
  5
   255
  8
0
  6
CONTINUOUS
 10
7.58829076553978
 20
3.37960722918985
 30
0.0
 40
0.0
 41
0.0
  0
VERTEX
  5
   256
  8
0
  6
CONTINUOUS
 10
7.6491155115995
 20
3.39960848876349
 30
0.0
 40
0.0
 41
0.0
  0
VERTEX
  5
   257
  8
0
  6
CONTINUOUS
 10
7.70907148366871
 20
3.4220802828587
 30
0.0
 40
0.0
 41
0.0
  0
VERTEX
  5
   258
  8
0
  6
CONTINUOUS
 10
7.76805838255557
 20
3.44698501885154
 30
0.0
 40
0.0
 41
0.0
  0
VERTEX
  5
   259
  8
0
  6
CONTINUOUS
 10
7.82597753021426
 20
3.47428103409435
 30
0.0
 40
0.0
 41
0.0
  0
VERTEX
  5
   25A
  8
0
  6
CONTINUOUS
 10
7.88273203482167
 20
3.50392266561236
 30
0.0
 40
0.0
 41
0.0
  0
VERTEX
  5
   25B
  8
0
  6
CONTINUOUS
 10
7.93822695286585
 20
3.53586032649249
 30
0.0
 40
0.0
 41
0.0
  0
VERTEX
  5
   25C
  8
0
  6
CONTINUOUS
 10
7.99236944797487
 20
3.57004058883668
 30
0.0
 40
0.0
 41
0.0
  0
VERTEX
  5
   25D
  8
0
  6
CONTINUOUS
 10
8.04506894622057
 20
3.60640627314082
 30
0.0
 40
0.0
 41
0.0
  0
VERTEX
  5
   25E
  8
0
  6
CONTINUOUS
 10
8.09623728763735
 20
3.64489654394987
 30
0.0
 40
0.0
 41
0.0
  0
VERTEX
  5
   25F
  8
0
  6
CONTINUOUS
 10
8.14578887370264
 20
3.68544701162886
 30
0.0
 40
0.0
 41
0.0
  0
VERTEX
  5
   260
  8
0
  6
CONTINUOUS
 10
8.19364081053237
 20
3.7279898400797
 30
0.0
 40
0.0
 41
0.0
  0
VERTEX
  5
   261
  8
0
  6
CONTINUOUS
 10
8.23971304755198
 20
3.77245386022337
 30
0.0
 40
0.0
 41
0.0
  0
VERTEX
  5
   262
  8
0
  6
CONTINUOUS
 10
8.28392851141091
 20
3.81876468905774
 30
0.0
 40
0.0
 41
0.0
  0
VERTEX
  5
   263
  8
0
  6
CONTINUOUS
 10
8.32621323491685
 20
3.86684485409172
 30
0.0
 40
0.0
 41
0.0
  0
VERTEX
  5
   264
  8
0
  6
CONTINUOUS
 10
8.36649648077374
 20
3.91661392294762
 30
0.0
 40
0.0
 41
0.0
  0
VERTEX
  5
   265
  8
0
  6
CONTINUOUS
 10
8.40471085991688
 20
3.96798863791486
 30
0.0
 40
0.0
 41
0.0
  0
VERTEX
  5
   266
  8
0
  6
CONTINUOUS
 10
8.44079244424696
 20
4.02088305523
 30
0.0
 40
0.0
 41
0.0
  0
VERTEX
  5
   267
  8
0
  6
CONTINUOUS
 10
8.47468087357449
 20
4.07520868885003
 30
0.0
 40
0.0
 41
0.0
  0
VERTEX
  5
   268
  8
0
  6
CONTINUOUS
 10
8.50631945659566
 20
4.13087465847852
 30
0.0
 40
0.0
 41
0.0
  0
SEQEND
  5
   269
  8
0
  6
CONTINUOUS
 62
     7
  0
ENDBLK
  5
   26A
  8
0
  6
CONTINUOUS
 62
     7
  0
BLOCK
  5
   26B
  8
0
  6
CONTINUOUS
 62
     7
  2
*HATCH124
 70
    65
 10
0.0
 20
0.0
 30
0.0
  3
*HATCH124
  0
LINE
  5
   26C
  8
0
  6
CONTINUOUS
 62
     7
 10
125.717704772949
 20
-58.4128723144531
 30
0.0
 11
125.372840881348
 21
-58.7577362060547
 31
0.0
  0
LINE
  5
   26D
  8
0
  6
CONTINUOUS
 62
     7
 10
126.141967773438
 20
-58.4128723144531
 30
0.0
 11
125.44652557373
 21
-59.1083183288574
 31
0.0
  0
LINE
  5
   26E
  8
0
  6
CONTINUOUS
 62
     7
 10
126.566230773926
 20
-58.4128723144531
 30
0.0
 11
125.540786743164
 21
-59.4383201599121
 31
0.0
  0
LINE
  5
   26F
  8
0
  6
CONTINUOUS
 62
     7
 10
126.990493774414
 20
-58.4128723144531
 30
0.0
 11
125.653129577637
 21
-59.7502403259277
 31
0.0
  0
LINE
  5
   270
  8
0
  6
CONTINUOUS
 62
     7
 10
127.29997253418
 20
-58.5276641845703
 30
0.0
 11
125.781692504883
 21
-60.0459442138672
 31
0.0
  0
LINE
  5
   271
  8
0
  6
CONTINUOUS
 62
     7
 10
127.29997253418
 20
-58.9519309997559
 30
0.0
 11
125.925071716309
 21
-60.326831817627
 31
0.0
  0
LINE
  5
   272
  8
0
  6
CONTINUOUS
 62
     7
 10
127.29997253418
 20
-59.3761940002441
 30
0.0
 11
126.082221984863
 21
-60.5939445495606
 31
0.0
  0
LINE
  5
   273
  8
0
  6
CONTINUOUS
 62
     7
 10
127.29997253418
 20
-59.8004570007324
 30
0.0
 11
126.252372741699
 21
-60.8480567932129
 31
0.0
  0
LINE
  5
   274
  8
0
  6
CONTINUOUS
 62
     7
 10
127.29997253418
 20
-60.2247200012207
 30
0.0
 11
126.438652038574
 21
-61.0860443115234
 31
0.0
  0
LINE
  5
   275
  8
0
  6
CONTINUOUS
 62
     7
 10
127.29997253418
 20
-60.6489868164063
 30
0.0
 11
126.637321472168
 21
-61.3116340637207
 31
0.0
  0
LINE
  5
   276
  8
0
  6
CONTINUOUS
 62
     7
 10
127.29997253418
 20
-61.0732498168945
 30
0.0
 11
126.847961425781
 21
-61.525260925293
 31
0.0
  0
LINE
  5
   277
  8
0
  6
CONTINUOUS
 62
     7
 10
127.29997253418
 20
-61.4975128173828
 30
0.0
 11
127.07054901123
 21
-61.7269325256348
 31
0.0
  0
ENDBLK
  5
   278
  8
0
  6
CONTINUOUS
 62
     7
  0
BLOCK
  5
   279
  8
0
  6
CONTINUOUS
 62
     7
  2
*HATCH125
 70
    65
 10
0.0
 20
0.0
 30
0.0
  3
*HATCH125
  0
LINE
  5
   27A
  8
0
  6
CONTINUOUS
 62
     7
 10
127.025001525879
 20
-54.1357269287109
 30
0.0
 11
126.541152954102
 21
-54.6195793151855
 31
0.0
  0
LINE
  5
   27B
  8
0
  6
CONTINUOUS
 62
     7
 10
127.29997253418
 20
-54.285026550293
 30
0.0
 11
125.760932922363
 21
-55.8240623474121
 31
0.0
  0
LINE
  5
   27C
  8
0
  6
CONTINUOUS
 62
     7
 10
127.29997253418
 20
-54.7092895507813
 30
0.0
 11
125.506645202637
 21
-56.502613067627
 31
0.0
  0
LINE
  5
   27D
  8
0
  6
CONTINUOUS
 62
     7
 10
127.29997253418
 20
-55.1335525512695
 30
0.0
 11
125.3740234375
 21
-57.059497833252
 31
0.0
  0
LINE
  5
   27E
  8
0
  6
CONTINUOUS
 62
     7
 10
127.29997253418
 20
-55.5578193664551
 30
0.0
 11
125.444915771484
 21
-57.4128723144531
 31
0.0
  0
LINE
  5
   27F
  8
0
  6
CONTINUOUS
 62
     7
 10
127.29997253418
 20
-55.9820823669434
 30
0.0
 11
125.869178771973
 21
-57.4128723144531
 31
0.0
  0
LINE
  5
   280
  8
0
  6
CONTINUOUS
 62
     7
 10
127.29997253418
 20
-56.4063453674316
 30
0.0
 11
126.293441772461
 21
-57.4128723144531
 31
0.0
  0
LINE
  5
   281
  8
0
  6
CONTINUOUS
 62
     7
 10
127.29997253418
 20
-56.8306083679199
 30
0.0
 11
126.717704772949
 21
-57.4128723144531
 31
0.0
  0
LINE
  5
   282
  8
0
  6
CONTINUOUS
 62
     7
 10
127.29997253418
 20
-57.2548713684082
 30
0.0
 11
127.141967773438
 21
-57.4128723144531
 31
0.0
  0
ENDBLK
  5
   283
  8
0
  6
CONTINUOUS
 62
     7
  0
BLOCK
  5
   284
  8
0
  6
CONTINUOUS
 62
     7
  2
*HATCH126
 70
    65
 10
0.0
 20
0.0
 30
0.0
  3
*HATCH126
  0
LINE
  5
   285
  8
0
  6
CONTINUOUS
 62
     7
 10
127.397621154785
 20
-83.885856628418
 30
0.0
 11
126.139556884766
 21
-85.143913269043
 31
0.0
  0
LINE
  5
   286
  8
0
  6
CONTINUOUS
 62
     7
 10
127.552909851074
 20
-84.1548309326172
 30
0.0
 11
125.667831420898
 21
-86.039909362793
 31
0.0
  0
LINE
  5
   287
  8
0
  6
CONTINUOUS
 62
     7
 10
127.708198547363
 20
-84.4237976074219
 30
0.0
 11
125.458930969238
 21
-86.6730728149414
 31
0.0
  0
LINE
  5
   288
  8
0
  6
CONTINUOUS
 62
     7
 10
127.863494873047
 20
-84.6927719116211
 30
0.0
 11
125.353691101074
 21
-87.2025756835938
 31
0.0
  0
LINE
  5
   289
  8
0
  6
CONTINUOUS
 62
     7
 10
128.018783569336
 20
-84.9617462158203
 30
0.0
 11
126.116333007813
 21
-86.8641967773438
 31
0.0
  0
LINE
  5
   28A
  8
0
  6
CONTINUOUS
 62
     7
 10
128.174072265625
 20
-85.2307205200195
 30
0.0
 11
127.120155334473
 21
-86.2846374511719
 31
0.0
  0
LINE
  5
   28B
  8
0
  6
CONTINUOUS
 62
     7
 10
128.329360961914
 20
-85.4996948242188
 30
0.0
 11
128.123977661133
 21
-85.705078125
 31
0.0
  0
ENDBLK
  5
   28C
  8
0
  6
CONTINUOUS
 62
     7
  0
BLOCK
  5
   28D
  8
0
  6
CONTINUOUS
 62
     7
  2
*HATCH127
 70
    65
 10
0.0
 20
0.0
 30
0.0
  3
*HATCH127
  0
LINE
  5
   28E
  8
0
  6
CONTINUOUS
 62
     7
 10
128.427001953125
 20
-83.2807312011719
 30
0.0
 11
128.284957885742
 21
-83.4227752685547
 31
0.0
  0
LINE
  5
   28F
  8
0
  6
CONTINUOUS
 62
     7
 10
129.059860229492
 20
-83.0721435546875
 30
0.0
 11
128.440246582031
 21
-83.6917495727539
 31
0.0
  0
LINE
  5
   290
  8
0
  6
CONTINUOUS
 62
     7
 10
129.589935302734
 20
-82.9663238525391
 30
0.0
 11
128.595550537109
 21
-83.9607238769531
 31
0.0
  0
LINE
  5
   291
  8
0
  6
CONTINUOUS
 62
     7
 10
130.061965942383
 20
-82.918571472168
 30
0.0
 11
128.750839233398
 21
-84.2296981811523
 31
0.0
  0
LINE
  5
   292
  8
0
  6
CONTINUOUS
 62
     7
 10
130.486846923828
 20
-82.9179534912109
 30
0.0
 11
128.906127929688
 21
-84.498664855957
 31
0.0
  0
LINE
  5
   293
  8
0
  6
CONTINUOUS
 62
     7
 10
130.880294799805
 20
-82.9487609863281
 30
0.0
 11
129.061416625977
 21
-84.7676391601563
 31
0.0
  0
LINE
  5
   294
  8
0
  6
CONTINUOUS
 62
     7
 10
131.247772216797
 20
-83.0055465698242
 30
0.0
 11
129.216705322266
 21
-85.0366134643555
 31
0.0
  0
LINE
  5
   295
  8
0
  6
CONTINUOUS
 62
     7
 10
131.593139648438
 20
-83.0844421386719
 30
0.0
 11
130.131607055664
 21
-84.5459747314453
 31
0.0
  0
LINE
  5
   296
  8
0
  6
CONTINUOUS
 62
     7
 10
131.919250488281
 20
-83.1826019287109
 30
0.0
 11
131.135437011719
 21
-83.9664154052734
 31
0.0
  0
LINE
  5
   297
  8
0
  6
CONTINUOUS
 62
     7
 10
132.225936889648
 20
-83.300178527832
 30
0.0
 11
132.139251708984
 21
-83.3868637084961
 31
0.0
  0
ENDBLK
  5
   298
  8
0
  6
CONTINUOUS
 62
     7
  0
BLOCK
  5
   299
  8
0
  6
CONTINUOUS
 62
     3
  2
*UDIM178
 70
    65
 10
0.0
 20
0.0
 30
0.0
  3
*UDIM178
  0
TEXT
  5
   29A
  8
0
  6
CONTINUOUS
 62
     3
 10
2013.51735675344
 20
-1312.68274079152
 30
0.0
 40
3.00000002980232
  1
120
 50
359.999999844103
 41
0.933333333333333
 72
     1
 11
2017.41735679626
 21
-1311.18274078721
 31
0.0
 73
     2
  0
LINE
  5
   29B
  8
0
  6
CONTINUOUS
 62
     3
 10
1957.41737828357
 20
-1340.33422517493
 30
0.0
 11
1957.41737749304
 21
-1311.68274080211
 31
0.0
  0
LINE
  5
   29C
  8
0
  6
CONTINUOUS
 62
     3
 10
2077.41733839742
 20
-1340.33422517493
 30
0.0
 11
2077.41733586771
 21
-1311.68274080211
 31
0.0
  0
LINE
  5
   29D
  8
0
  6
CONTINUOUS
 62
     3
 10
1957.41737754822
 20
-1313.68274080211
 30
0.0
 11
2077.4173360443
 21
-1313.68274080211
 31
0.0
  0
LINE
  5
   29E
  8
0
  6
CONTINUOUS
 62
     3
 10
1960.31515502143
 20
-1312.90628364569
 30
0.0
 11
1957.41737754822
 21
-1313.68274080211
 31
0.0
  0
LINE
  5
   29F
  8
0
  6
CONTINUOUS
 62
     3
 10
1957.41737754822
 20
-1313.68274080211
 30
0.0
 11
1960.31515502143
 21
-1314.45919795853
 31
0.0
  0
LINE
  5
   2A0
  8
0
  6
CONTINUOUS
 62
     3
 10
2074.51955857109
 20
-1314.45919795853
 30
0.0
 11
2077.4173360443
 21
-1313.68274080211
 31
0.0
  0
LINE
  5
   2A1
  8
0
  6
CONTINUOUS
 62
     3
 10
2077.4173360443
 20
-1313.68274080211
 30
0.0
 11
2074.51955857109
 21
-1312.90628364569
 31
0.0
  0
ENDBLK
  5
   2A2
  8
0
  6
CONTINUOUS
 62
     3
  0
BLOCK
  5
   2A3
  8
0
  6
CONTINUOUS
 62
     3
  2
*UDIM179
 70
    65
 10
0.0
 20
0.0
 30
0.0
  3
*UDIM179
  0
TEXT
  5
   2A4
  8
0
  6
CONTINUOUS
 62
     3
 10
1953.24228207003
 20
-1303.42149746665
 30
0.0
 40
3.00000002980232
  1
240
 50
359.999999844103
 41
0.933333333333333
 72
     1
 11
1957.14228211284
 21
-1301.92149746234
 31
0.0
 73
     2
  0
LINE
  5
   2A5
  8
0
  6
CONTINUOUS
 62
     3
 10
1837.41737998963
 20
-1352.33424028114
 30
0.0
 11
1837.41737998963
 21
-1302.42149747724
 31
0.0
  0
LINE
  5
   2A6
  8
0
  6
CONTINUOUS
 62
     3
 10
2077.41721214295
 20
-1352.3342590332
 30
0.0
 11
2077.41721214295
 21
-1302.42149747724
 31
0.0
  0
LINE
  5
   2A7
  8
0
  6
CONTINUOUS
 62
     3
 10
1837.41737998963
 20
-1304.42149747724
 30
0.0
 11
2077.41721214295
 21
-1304.42149747724
 31
0.0
  0
LINE
  5
   2A8
  8
0
  6
CONTINUOUS
 62
     3
 10
1840.37180326684
 20
-1303.90055304729
 30
0.0
 11
1837.41737998963
 21
-1304.42149747724
 31
0.0
  0
LINE
  5
   2A9
  8
0
  6
CONTINUOUS
 62
     3
 10
1837.41737998963
 20
-1304.42149747724
 30
0.0
 11
1840.37180326684
 21
-1304.94244190719
 31
0.0
  0
LINE
  5
   2AA
  8
0
  6
CONTINUOUS
 62
     3
 10
2074.46278886574
 20
-1304.94244190719
 30
0.0
 11
2077.41721214295
 21
-1304.42149747724
 31
0.0
  0
LINE
  5
   2AB
  8
0
  6
CONTINUOUS
 62
     3
 10
2077.41721214295
 20
-1304.42149747724
 30
0.0
 11
2074.46278886574
 21
-1303.90055304729
 31
0.0
  0
ENDBLK
  5
   2AC
  8
0
  6
CONTINUOUS
 62
     3
  0
BLOCK
  5
   2AD
  8
0
  6
CONTINUOUS
 62
     7
  2
*UDIM180
 70
    65
 10
0.0
 20
0.0
 30
0.0
  3
*UDIM180
  0
TEXT
  5
   2AE
  8
0
  6
CONTINUOUS
 62
     7
 10
1823.20666502848
 20
-1400.509220935
 30
0.0
 40
3.00000002980232
  1
120
 50
449.999999844103
 41
0.933333333333333
 72
     1
 11
1821.70666502416
 21
-1396.60922089219
 31
0.0
 73
     2
  0
LINE
  5
   2AF
  8
0
  6
CONTINUOUS
 62
     3
 10
1840.91734687806
 20
-1336.33422851562
 30
0.0
 11
1822.20666503906
 21
-1336.33422851562
 31
0.0
  0
LINE
  5
   2B0
  8
0
  6
CONTINUOUS
 62
     3
 10
1840.91734718323
 20
-1456.33421325683
 30
0.0
 11
1822.20666503906
 21
-1456.33421325683
 31
0.0
  0
LINE
  5
   2B1
  8
0
  6
CONTINUOUS
 62
     3
 10
1824.20666503906
 20
-1336.33422851562
 30
0.0
 11
1824.20666503906
 21
-1456.33421325683
 31
0.0
  0
LINE
  5
   2B2
  8
0
  6
CONTINUOUS
 62
     3
 10
1824.72760946901
 20
-1339.28865179283
 30
0.0
 11
1824.20666503906
 21
-1336.33422851562
 31
0.0
  0
LINE
  5
   2B3
  8
0
  6
CONTINUOUS
 62
     3
 10
1824.20666503906
 20
-1336.33422851562
 30
0.0
 11
1823.68572060911
 21
-1339.28865179283
 31
0.0
  0
LINE
  5
   2B4
  8
0
  6
CONTINUOUS
 62
     3
 10
1823.68572060911
 20
-1453.37978997963
 30
0.0
 11
1824.20666503906
 21
-1456.33421325683
 31
0.0
  0
LINE
  5
   2B5
  8
0
  6
CONTINUOUS
 62
     3
 10
1824.20666503906
 20
-1456.33421325683
 30
0.0
 11
1824.72760946901
 21
-1453.37978997963
 31
0.0
  0
ENDBLK
  5
   2B6
  8
0
  6
CONTINUOUS
 62
     7
  0
BLOCK
  5
   2B7
  8
0
  6
CONTINUOUS
 62
     7
  2
*UDIM181
 70
    65
 10
0.0
 20
0.0
 30
0.0
  3
*UDIM181
  0
TEXT
  5
   2B8
  8
0
  6
CONTINUOUS
 62
     7
 10
1823.20666502468
 20
-1329.28422857235
 30
0.0
 40
3.00000002980232
  1
24.5
 50
449.999999844103
 41
0.933333333333333
 72
     1
 11
1821.70666502416
 21
-1323.98422851562
 31
0.0
 73
     2
  0
LINE
  5
   2B9
  8
0
  6
CONTINUOUS
 62
     3
 10
1868.16739453914
 20
-1311.63422851562
 30
0.0
 11
1822.20666503906
 21
-1311.63422851562
 31
0.0
  0
LINE
  5
   2BA
  8
0
  6
CONTINUOUS
 62
     3
 10
1824.20666503906
 20
-1311.63422851562
 30
0.0
 11
1824.20666503906
 21
-1336.33422851562
 31
0.0
  0
LINE
  5
   2BB
  8
0
  6
CONTINUOUS
 62
     3
 10
1824.72760946901
 20
-1314.58865179283
 30
0.0
 11
1824.20666503906
 21
-1311.63422851562
 31
0.0
  0
LINE
  5
   2BC
  8
0
  6
CONTINUOUS
 62
     3
 10
1824.20666503906
 20
-1311.63422851562
 30
0.0
 11
1823.68572060911
 21
-1314.58865179283
 31
0.0
  0
LINE
  5
   2BD
  8
0
  6
CONTINUOUS
 62
     2
 10
1823.43020788264
 20
-1333.43645104241
 30
0.0
 11
1824.20666503906
 21
-1336.33422851562
 31
0.0
  0
LINE
  5
   2BE
  8
0
  6
CONTINUOUS
 62
     2
 10
1824.20666503906
 20
-1336.33422851562
 30
0.0
 11
1824.98312219548
 21
-1333.43645104241
 31
0.0
  0
ENDBLK
  5
   2BF
  8
0
  6
CONTINUOUS
 62
     7
  0
BLOCK
  5
   2C0
  8
0
  6
CONTINUOUS
 62
     3
  2
*UDIM182
 70
    65
 10
0.0
 20
0.0
 30
0.0
  3
*UDIM182
  0
TEXT
  5
   2C1
  8
0
  6
CONTINUOUS
 62
     3
 10
1830.26538085259
 20
-1435.10919803292
 30
0.0
 40
3.00000002980232
  1
48
 50
449.999999844103
 41
0.933333333333333
 72
     1
 11
1828.76538084447
 21
-1432.60919800401
 31
0.0
 73
     2
  0
LINE
  5
   2C2
  8
0
  6
CONTINUOUS
 62
     3
 10
1833.50950882121
 20
-1408.33419799805
 30
0.0
 11
1829.26538085938
 21
-1408.33419799805
 31
0.0
  0
LINE
  5
   2C3
  8
0
  6
CONTINUOUS
 62
     3
 10
1840.91734718323
 20
-1456.33421325683
 30
0.0
 11
1829.26538085938
 21
-1456.33421325683
 31
0.0
  0
LINE
  5
   2C4
  8
0
  6
CONTINUOUS
 62
     3
 10
1831.26538085938
 20
-1408.33419799805
 30
0.0
 11
1831.26538085938
 21
-1456.33421325683
 31
0.0
  0
LINE
  5
   2C5
  8
0
  6
CONTINUOUS
 62
     3
 10
1831.78632528933
 20
-1411.28862127526
 30
0.0
 11
1831.26538085938
 21
-1408.33419799805
 31
0.0
  0
LINE
  5
   2C6
  8
0
  6
CONTINUOUS
 62
     3
 10
1831.26538085938
 20
-1408.33419799805
 30
0.0
 11
1830.74443642942
 21
-1411.28862127526
 31
0.0
  0
LINE
  5
   2C7
  8
0
  6
CONTINUOUS
 62
     3
 10
1830.74443642942
 20
-1453.37978997963
 30
0.0
 11
1831.26538085938
 21
-1456.33421325683
 31
0.0
  0
LINE
  5
   2C8
  8
0
  6
CONTINUOUS
 62
     3
 10
1831.26538085938
 20
-1456.33421325683
 30
0.0
 11
1831.78632528933
 21
-1453.37978997963
 31
0.0
  0
ENDBLK
  5
   2C9
  8
0
  6
CONTINUOUS
 62
     3
  0
BLOCK
  5
   2CA
  8
0
  6
CONTINUOUS
 62
     7
  2
*HATCH128
 70
    65
 10
0.0
 20
0.0
 30
0.0
  3
*HATCH128
  0
LINE
  5
   2CB
  8
0
  6
CONTINUOUS
 62
   210
 10
30.5654830932617
 20
-230.356918334961
 30
0.0
 11
28.2672901153564
 21
-232.65510559082
 31
0.0
  0
LINE
  5
   2CC
  8
0
  6
CONTINUOUS
 62
   210
 10
31.4844760894775
 20
-231.559234619141
 30
0.0
 11
28.1991748809814
 21
-234.844543457031
 31
0.0
  0
LINE
  5
   2CD
  8
0
  6
CONTINUOUS
 62
   210
 10
32.0083236694336
 20
-233.156707763672
 30
0.0
 11
28.7570037841797
 21
-236.40803527832
 31
0.0
  0
LINE
  5
   2CE
  8
0
  6
CONTINUOUS
 62
   210
 10
31.8451709747314
 20
-235.441177368164
 30
0.0
 11
29.7156543731689
 21
-237.570693969727
 31
0.0
  0
ENDBLK
  5
   2CF
  8
0
  6
CONTINUOUS
 62
     7
  0
BLOCK
  5
   2D0
  8
0
  6
CONTINUOUS
 62
     7
  2
*HATCH129
 70
    65
 10
0.0
 20
0.0
 30
0.0
  3
*HATCH129
  0
LINE
  5
   2D1
  8
0
  6
CONTINUOUS
 62
   210
 10
30.7221031188965
 20
-200.501815795898
 30
0.0
 11
28.1876068115234
 21
-203.03630065918
 31
0.0
  0
LINE
  5
   2D2
  8
0
  6
CONTINUOUS
 62
   210
 10
31.576192855835
 20
-201.76904296875
 30
0.0
 11
28.2513046264648
 21
-205.093933105469
 31
0.0
  0
LINE
  5
   2D3
  8
0
  6
CONTINUOUS
 62
   210
 10
32.0588645935059
 20
-203.407684326172
 30
0.0
 11
28.8823165893555
 21
-206.584228515625
 31
0.0
  0
LINE
  5
   2D4
  8
0
  6
CONTINUOUS
 62
   210
 10
31.6109752655029
 20
-205.976898193359
 30
0.0
 11
29.8722743988037
 21
-207.715591430664
 31
0.0
  0
ENDBLK
  5
   2D5
  8
0
  6
CONTINUOUS
 62
     7
  0
BLOCK
  5
   2D6
  8
0
  6
CONTINUOUS
 62
     7
  2
*HATCH130
 70
    65
 10
0.0
 20
0.0
 30
0.0
  3
*HATCH130
  0
LINE
  5
   2D7
  8
0
  6
CONTINUOUS
 62
   210
 10
30.8710536956787
 20
-170.654373168945
 30
0.0
 11
28.1118965148926
 21
-173.413528442383
 31
0.0
  0
LINE
  5
   2D8
  8
0
  6
CONTINUOUS
 62
   210
 10
31.6679096221924
 20
-171.97883605957
 30
0.0
 11
28.3034343719482
 21
-175.343307495117
 31
0.0
  0
LINE
  5
   2D9
  8
0
  6
CONTINUOUS
 62
   210
 10
32.0588645935059
 20
-173.709197998047
 30
0.0
 11
29.0076313018799
 21
-176.760437011719
 31
0.0
  0
LINE
  5
   2DA
  8
0
  6
CONTINUOUS
 62
   210
 10
31.2472953796387
 20
-176.64208984375
 30
0.0
 11
30.0288963317871
 21
-177.860488891602
 31
0.0
  0
ENDBLK
  5
   2DB
  8
0
  6
CONTINUOUS
 62
     7
  0
BLOCK
  5
   2DC
  8
0
  6
CONTINUOUS
 62
     7
  2
*HATCH131
 70
    65
 10
0.0
 20
0.0
 30
0.0
  3
*HATCH131
  0
LINE
  5
   2DD
  8
0
  6
CONTINUOUS
 62
   210
 10
30.9963665008545
 20
-140.830581665039
 30
0.0
 11
28.1118965148926
 21
-143.715042114258
 31
0.0
  0
LINE
  5
   2DE
  8
0
  6
CONTINUOUS
 62
   210
 10
31.7596263885498
 20
-142.188629150391
 30
0.0
 11
28.3807964324951
 21
-145.567474365234
 31
0.0
  0
LINE
  5
   2DF
  8
0
  6
CONTINUOUS
 62
   210
 10
32.0588645935059
 20
-144.010726928711
 30
0.0
 11
29.1329441070557
 21
-146.936645507813
 31
0.0
  0
ENDBLK
  5
   2E0
  8
0
  6
CONTINUOUS
 62
     7
  0
BLOCK
  5
   2E1
  8
0
  6
CONTINUOUS
 62
     7
  2
*HATCH132
 70
    65
 10
0.0
 20
0.0
 30
0.0
  3
*HATCH132
  0
LINE
  5
   2E2
  8
0
  6
CONTINUOUS
 62
   210
 10
236.099395751953
 20
-118.161109924316
 30
0.0
 11
234.222808837891
 21
-120.037696838379
 31
0.0
  0
LINE
  5
   2E3
  8
0
  6
CONTINUOUS
 62
   210
 10
237.078308105469
 20
-119.303520202637
 30
0.0
 11
233.87434387207
 21
-122.507476806641
 31
0.0
  0
LINE
  5
   2E4
  8
0
  6
CONTINUOUS
 62
   210
 10
237.683486938477
 20
-120.819648742676
 30
0.0
 11
234.372573852539
 21
-124.130569458008
 31
0.0
  0
LINE
  5
   2E5
  8
0
  6
CONTINUOUS
 62
   210
 10
237.70068359375
 20
-122.923774719238
 30
0.0
 11
235.249557495117
 21
-125.374900817871
 31
0.0
  0
ENDBLK
  5
   2E6
  8
0
  6
CONTINUOUS
 62
     7
  0
BLOCK
  5
   2E7
  8
0
  6
CONTINUOUS
 62
     7
  2
*HATCH133
 70
    65
 10
0.0
 20
0.0
 30
0.0
  3
*HATCH133
  0
LINE
  5
   2E8
  8
0
  6
CONTINUOUS
 62
   210
 10
236.256011962891
 20
-88.3060073852539
 30
0.0
 11
234.040985107422
 21
-90.5210342407227
 31
0.0
  0
LINE
  5
   2E9
  8
0
  6
CONTINUOUS
 62
   210
 10
237.197845458984
 20
-89.4854965209961
 30
0.0
 11
233.926483154297
 21
-92.7568588256836
 31
0.0
  0
LINE
  5
   2EA
  8
0
  6
CONTINUOUS
 62
   210
 10
237.735626220703
 20
-91.0690307617188
 30
0.0
 11
234.464294433594
 21
-94.3403701782227
 31
0.0
  0
LINE
  5
   2EB
  8
0
  6
CONTINUOUS
 62
   210
 10
237.621002197266
 20
-93.3049697875977
 30
0.0
 11
235.406188964844
 21
-95.5197982788086
 31
0.0
  0
ENDBLK
  5
   2EC
  8
0
  6
CONTINUOUS
 62
     7
  0
BLOCK
  5
   2ED
  8
0
  6
CONTINUOUS
 62
     7
  2
*HATCH134
 70
    65
 10
0.0
 20
0.0
 30
0.0
  3
*HATCH134
  0
LINE
  5
   2EE
  8
0
  6
CONTINUOUS
 62
   210
 10
236.412628173828
 20
-58.4509048461914
 30
0.0
 11
233.961303710938
 21
-60.9022369384766
 31
0.0
  0
LINE
  5
   2EF
  8
0
  6
CONTINUOUS
 62
   210
 10
237.289566040039
 20
-59.6952934265137
 30
0.0
 11
233.978607177734
 21
-63.0062484741211
 31
0.0
  0
LINE
  5
   2F0
  8
0
  6
CONTINUOUS
 62
   210
 10
237.787750244141
 20
-61.3184204101563
 30
0.0
 11
234.583862304688
 21
-64.5223159790039
 31
0.0
  0
LINE
  5
   2F1
  8
0
  6
CONTINUOUS
 62
   210
 10
237.439041137695
 20
-63.7884521484375
 30
0.0
 11
235.562805175781
 21
-65.6646957397461
 31
0.0
  0
ENDBLK
  5
   2F2
  8
0
  6
CONTINUOUS
 62
     7
  0
BLOCK
  5
   2F3
  8
0
  6
CONTINUOUS
 62
     7
  2
*HATCH135
 70
    65
 10
0.0
 20
0.0
 30
0.0
  3
*HATCH135
  0
LINE
  5
   2F4
  8
0
  6
CONTINUOUS
 62
   210
 10
236.569244384766
 20
-28.5958023071289
 30
0.0
 11
233.881607055664
 21
-31.2834358215332
 31
0.0
  0
LINE
  5
   2F5
  8
0
  6
CONTINUOUS
 62
   210
 10
237.381271362305
 20
-29.9050922393799
 30
0.0
 11
234.030731201172
 21
-33.2556343078613
 31
0.0
  0
LINE
  5
   2F6
  8
0
  6
CONTINUOUS
 62
   210
 10
237.804504394531
 20
-31.6031799316406
 30
0.0
 11
234.709182739258
 21
-34.6985168457031
 31
0.0
  0
LINE
  5
   2F7
  8
0
  6
CONTINUOUS
 62
   210
 10
237.204849243164
 20
-34.324161529541
 30
0.0
 11
235.719421386719
 21
-35.8095893859863
 31
0.0
  0
ENDBLK
  5
   2F8
  8
0
  6
CONTINUOUS
 62
     7
  0
BLOCK
  5
   2F9
  8
0
  6
CONTINUOUS
 62
     7
  2
DIAFRAMMA
 70
    64
 10
0.0
 20
0.0
 30
0.0
  3
DIAFRAMMA
  0
LINE
  5
   2FA
  8
0
  6
CONTINUOUS
 62
   210
 10
-0.75
 20
26.7
 30
0.0
 11
0.75
 21
26.7
 31
0.0
  0
LINE
  5
   2FB
  8
0
  6
CONTINUOUS
 62
   210
 10
0.75
 20
2.2
 30
0.0
 11
0.75
 21
26.7
 31
0.0
  0
LINE
  5
   2FC
  8
0
  6
CONTINUOUS
 62
   210
 10
-0.75
 20
2.2
 30
0.0
 11
-0.75
 21
26.7
 31
0.0
  0
LINE
  5
   2FD
  8
0
  6
CONTINUOUS
 62
   210
 10
-1.4
 20
2.2
 30
0.0
 11
-0.75
 21
2.2
 31
0.0
  0
LINE
  5
   2FE
  8
0
  6
CONTINUOUS
 62
   210
 10
0.75
 20
2.2
 30
0.0
 11
1.4
 21
2.2
 31
0.0
  0
LINE
  5
   2FF
  8
0
  6
CONTINUOUS
 62
   210
 10
-1.4
 20
-2.1
 30
0.0
 11
-1.4
 21
2.2
 31
0.0
  0
LINE
  5
   300
  8
0
  6
CONTINUOUS
 62
   210
 10
-2.25
 20
0.0
 30
0.0
 11
-1.4
 21
0.0
 31
0.0
  0
LINE
  5
   301
  8
0
  6
CONTINUOUS
 62
   210
 10
-2.25
 20
-1.3
 30
0.0
 11
-2.25
 21
2.22044604925031E-16
 31
0.0
  0
LINE
  5
   302
  8
0
  6
CONTINUOUS
 62
   210
 10
-2.25
 20
-1.3
 30
0.0
 11
2.25
 21
-1.3
 31
0.0
  0
LINE
  5
   303
  8
0
  6
CONTINUOUS
 62
   210
 10
-1.4
 20
-2.1
 30
0.0
 11
1.4
 21
-2.1
 31
0.0
  0
LINE
  5
   304
  8
0
  6
CONTINUOUS
 62
   210
 10
1.4
 20
0.0
 30
0.0
 11
2.25
 21
0.0
 31
0.0
  0
LINE
  5
   305
  8
0
  6
CONTINUOUS
 62
   210
 10
1.4
 20
-2.1
 30
0.0
 11
1.4
 21
2.2
 31
0.0
  0
LINE
  5
   306
  8
0
  6
CONTINUOUS
 62
   210
 10
2.25
 20
-1.3
 30
0.0
 11
2.25
 21
4.44089209850063E-16
 31
0.0
  0
ENDBLK
  5
   307
  8
0
  6
CONTINUOUS
 62
     7
  0
ENDSEC
  0
SECTION
  2
ENTITIES
  0
TEXT
  5
   308
  8
0
  6
CONTINUOUS
 62
     2
 10
2194.75388483489
 20
-1572.49363146059
 30
0.0
 40
2.50000005960464
  1
1/1
 50
359.999999844103
 41
0.954999929332734
 72
     1
 11
2198.09638467205
 21
-1571.24363143986
 31
0.0
 73
     2
  0
TEXT
  5
   309
  8
0
  6
CONTINUOUS
 62
     2
 10
2044.88236645141
 20
-1559.61194279326
 30
0.0
 40
2.50000005960464
  1
M3727 95-01-18
 50
359.999999844103
 41
0.64999958527089
 11
2044.88236645481
 21
-1558.36194276345
 31
0.0
 73
     2
  0
LINE
  5
   30A
  8
0
  6
CONTINUOUS
 62
     7
 10
2133.51198534977
 20
-1444.3342418444
 30
0.0
 11
2133.01198537544
 21
-1444.83424181873
 31
0.0
  0
LINE
  5
   30B
  8
0
  6
CONTINUOUS
 62
     7
 10
2131.02710914612
 20
-1441.72062669607
 30
0.0
 11
2131.02710914612
 21
-1453.33421325684
 31
0.0
  0
LINE
  5
   30C
  8
0
  6
DASHDOT
 62
     7
 10
2129.36711120445
 20
-1447.33421325682
 30
0.0
 11
2172.85543482778
 21
-1447.33421325682
 31
0.0
  0
LINE
  5
   30D
  8
0
  6
DOT
 62
     7
 10
2153.01192825717
 20
-1442.33423412307
 30
0.0
 11
2153.01192825717
 21
-1452.33422683608
 31
0.0
  0
LINE
  5
   30E
  8
0
  6
DASHDOT
 62
     7
 10
2141.57393462393
 20
-1447.33421325682
 30
0.0
 11
2172.8554350662
 21
-1447.33421325682
 31
0.0
  0
ARC
  5
   30F
  8
0
  6
DOT
 62
     7
 10
2152.01194591522
 20
-1451.33421657107
 30
0.0
 40
1.0
 50
359.999999844103
 51
449.999999844103
  0
ARC
  5
   310
  8
0
  6
DOT
 62
     7
 10
2152.01194591522
 20
-1443.33421657107
 30
0.0
 40
1.0
 50
269.999999844103
 51
359.999999844103
  0
LINE
  5
   311
  8
0
  6
DOT
 62
     7
 10
2155.01194591522
 20
-1442.33423412307
 30
0.0
 11
2155.01194591522
 21
-1452.33423412307
 31
0.0
  0
ARC
  5
   312
  8
0
  6
DOT
 62
     7
 10
2155.01194591522
 20
-1450.33423412307
 30
0.0
 40
2.0
 50
269.999999844103
 51
359.999999844103
  0
LINE
  5
   313
  8
0
  6
DOT
 62
     7
 10
2157.01194591522
 20
-1448.08423412307
 30
0.0
 11
2157.01194591522
 21
-1450.33423412307
 31
0.0
  0
LINE
  5
   314
  8
0
  6
DOT
 62
     7
 10
2157.01194591522
 20
-1444.33423412307
 30
0.0
 11
2157.01194591522
 21
-1446.58423412307
 31
0.0
  0
ARC
  5
   315
  8
0
  6
DOT
 62
     7
 10
2155.01194591522
 20
-1444.33423412307
 30
0.0
 40
2.0
 50
359.999999844103
 51
449.999999844103
  0
ARC
  5
   316
  8
0
  6
DOT
 62
     7
 10
2156.76194591522
 20
-1448.08423412307
 30
0.0
 40
0.25
 50
359.999999844103
 51
449.999999844103
  0
LINE
  5
   317
  8
0
  6
DOT
 62
     7
 10
2155.51194591522
 20
-1447.83423412307
 30
0.0
 11
2156.76194591522
 21
-1447.83423412307
 31
0.0
  0
LINE
  5
   318
  8
0
  6
DOT
 62
     7
 10
2155.51194591522
 20
-1446.83423412307
 30
0.0
 11
2155.51194591522
 21
-1447.83423412307
 31
0.0
  0
LINE
  5
   319
  8
0
  6
DOT
 62
     7
 10
2155.51194591522
 20
-1446.83423412307
 30
0.0
 11
2156.76194591522
 21
-1446.83423412307
 31
0.0
  0
ARC
  5
   31A
  8
0
  6
DOT
 62
     7
 10
2156.76194591522
 20
-1446.58423412307
 30
0.0
 40
0.25
 50
269.999999844103
 51
359.999999844103
  0
LINE
  5
   31B
  8
0
  6
DOT
 62
     7
 10
2153.01194591522
 20
-1442.33423412307
 30
0.0
 11
2155.01194591522
 21
-1442.33423412307
 31
0.0
  0
LINE
  5
   31C
  8
0
  6
CONTINUOUS
 62
     7
 10
2153.01194591522
 20
-1452.33423412307
 30
0.0
 11
2155.01194591522
 21
-1452.33423412307
 31
0.0
  0
LINE
  5
   31D
  8
0
  6
CONTINUOUS
 62
     7
 10
2131.02710914612
 20
-1441.79568967847
 30
0.0
 11
2131.02710914612
 21
-1455.58580428929
 31
0.0
  0
LINE
  5
   31E
  8
0
  6
CONTINUOUS
 62
     7
 10
2127.02710914612
 20
-1441.79568967847
 30
0.0
 11
2127.02710914612
 21
-1455.58580428929
 31
0.0
  0
LINE
  5
   31F
  8
0
  6
CONTINUOUS
 62
     7
 10
2127.02710914612
 20
-1441.79568967847
 30
0.0
 11
2131.02710914612
 21
-1441.79568967847
 31
0.0
  0
LINE
  5
   320
  8
0
  6
CONTINUOUS
 62
     7
 10
2124.52710914612
 20
-1455.58580428929
 30
0.0
 11
2133.52710914612
 21
-1455.58580428929
 31
0.0
  0
LINE
  5
   321
  8
0
  6
CONTINUOUS
 62
     7
 10
2133.52710914612
 20
-1455.58580428929
 30
0.0
 11
2133.52710914612
 21
-1511.83424377441
 31
0.0
  0
LINE
  5
   322
  8
0
  6
CONTINUOUS
 62
     7
 10
2124.52710914612
 20
-1455.58580428929
 30
0.0
 11
2124.52710914612
 21
-1511.83424377441
 31
0.0
  0
ARC
  5
   323
  8
0
  6
CONTINUOUS
 62
     7
 10
2129.02710914612
 20
-1511.83424377441
 30
0.0
 40
4.5
 50
539.999999844103
 51
719.999999844103
  0
ARC
  5
   324
  8
0
  6
CONTINUOUS
 62
     7
 10
2150.3623310642
 20
-1462.58423092492
 30
0.0
 40
0.75
 50
539.999999844103
 51
719.999999844103
  0
ARC
  5
   325
  8
0
  6
CONTINUOUS
 62
     7
 10
2151.8623310642
 20
-1462.58423092492
 30
0.0
 40
0.75
 50
539.999999844103
 51
719.999999844103
  0
ARC
  5
   326
  8
0
  6
CONTINUOUS
 62
     7
 10
2150.93425833448
 20
-1461.47371839278
 30
0.0
 40
2.63862010941507
 50
269.999999844103
 51
410.508330589021
  0
ARC
  5
   327
  8
0
  6
CONTINUOUS
 62
     7
 10
2150.93425833448
 20
-1461.47371839278
 30
0.0
 40
2.13862010941507
 50
269.999999844103
 51
398.311487943858
  0
ARC
  5
   328
  8
0
  6
CONTINUOUS
 62
     7
 10
2150.93425833448
 20
-1461.47371839278
 30
0.0
 40
2.63862010941507
 50
480.065644350272
 51
629.999999844103
  0
ARC
  5
   329
  8
0
  6
CONTINUOUS
 62
     7
 10
2150.93425833448
 20
-1461.47371839278
 30
0.0
 40
2.13862010941507
 50
488.179092516155
 51
629.999999844103
  0
LINE
  5
   32A
  8
0
  6
CONTINUOUS
 62
     7
 10
2103.51194807688
 20
-1456.33423092492
 30
0.0
 11
2103.51194807688
 21
-1471.54965378301
 31
0.0
  0
LINE
  5
   32B
  8
0
  6
CONTINUOUS
 62
     7
 10
2112.51194807688
 20
-1456.33423092492
 30
0.0
 11
2112.51194807688
 21
-1471.54965378301
 31
0.0
  0
LINE
  5
   32C
  8
0
  6
CONTINUOUS
 62
     7
 10
2106.05746540498
 20
-1481.04965378301
 30
0.0
 11
2125.12999482909
 21
-1514.08424377441
 31
0.0
  0
LINE
  5
   32D
  8
0
  6
CONTINUOUS
 62
     7
 10
2113.85169403904
 20
-1476.54965378301
 30
0.0
 11
2124.52710914612
 21
-1495.04001514035
 31
0.0
  0
ARC
  5
   32E
  8
0
  6
CONTINUOUS
 62
     7
 10
2122.51194807688
 20
-1471.54965378301
 30
0.0
 40
10.0
 50
539.999999844103
 51
569.999999844103
  0
ARC
  5
   32F
  8
0
  6
CONTINUOUS
 62
     7
 10
2122.51194807688
 20
-1471.54965378301
 30
0.0
 40
19.0
 50
539.999999844103
 51
569.999999844103
  0
LINE
  5
   330
  8
0
  6
CONTINUOUS
 62
     7
 10
2101.11199378967
 20
-1448.85221230972
 30
0.0
 11
2101.31200885773
 21
-1448.85221230972
 31
0.0
  0
LINE
  5
   331
  8
0
  6
CONTINUOUS
 62
     7
 10
2152.6123310642
 20
-1456.35716554542
 30
0.0
 11
2152.6123310642
 21
-1462.58423092492
 31
0.0
  0
LINE
  5
   332
  8
0
  6
CONTINUOUS
 62
     7
 10
2151.1123310642
 20
-1456.46362159719
 30
0.0
 11
2151.1123310642
 21
-1462.58423092492
 31
0.0
  0
LINE
  5
   333
  8
0
  6
CONTINUOUS
 62
     7
 10
2149.6123310642
 20
-1456.33423092492
 30
0.0
 11
2149.6123310642
 21
-1462.58423092492
 31
0.0
  0
LINE
  5
   334
  8
0
  6
CONTINUOUS
 62
     7
 10
2103.51188513438
 20
-1456.33422851563
 30
0.0
 11
2124.52710914612
 21
-1456.33422851563
 31
0.0
  0
LINE
  5
   335
  8
0
  6
CONTINUOUS
 62
     7
 10
2103.51188513438
 20
-1336.33424377441
 30
0.0
 11
2149.01187133789
 21
-1336.33424377441
 31
0.0
  0
LINE
  5
   336
  8
0
  6
DOT
 62
     7
 10
2117.01187076569
 20
-1351.33424377442
 30
0.0
 11
2130.51187136173
 21
-1351.33424377442
 31
0.0
  0
LINE
  5
   337
  8
0
  6
CONTINUOUS
 62
     7
 10
2103.51188513438
 20
-1357.83422851563
 30
0.0
 11
2106.01188513438
 21
-1360.33422851563
 31
0.0
  0
LINE
  5
   338
  8
0
  6
CONTINUOUS
 62
     7
 10
2103.51188513438
 20
-1336.33424377441
 30
0.0
 11
2103.51188513438
 21
-1357.83422851563
 31
0.0
  0
LINE
  5
   339
  8
0
  6
CONTINUOUS
 62
     7
 10
2131.02704620361
 20
-1440.83421325684
 30
0.0
 11
2131.02704620361
 21
-1452.30834730825
 31
0.0
  0
LINE
  5
   33A
  8
0
  6
CONTINUOUS
 62
     7
 10
2133.02704620361
 20
-1440.83421325684
 30
0.0
 11
2133.02704620361
 21
-1452.30834730825
 31
0.0
  0
LINE
  5
   33B
  8
0
  6
CONTINUOUS
 62
     7
 10
2131.02704620361
 20
-1452.30834730825
 30
0.0
 11
2133.02704620361
 21
-1452.30834730825
 31
0.0
  0
LINE
  5
   33C
  8
0
  6
DASHDOT
 62
     7
 10
2126.98162422265
 20
-1345.33424046019
 30
0.0
 11
2152.01263569979
 21
-1345.33424046019
 31
0.0
  0
LINE
  5
   33D
  8
0
  6
DASHDOT
 62
     7
 10
2129.36704826194
 20
-1447.33421325682
 30
0.0
 11
2146.00085481408
 21
-1447.33421325682
 31
0.0
  0
LINE
  5
   33E
  8
0
  6
CONTINUOUS
 62
     7
 10
2178.51187157631
 20
-1414.05386900127
 30
0.0
 11
2195.70750597202
 21
-1419.25009693917
 31
0.0
  0
LINE
  5
   33F
  8
0
  6
CONTINUOUS
 62
     7
 10
2195.70756010247
 20
-1419.25011317923
 30
0.0
 11
2195.92173328649
 21
-1419.3805170284
 31
0.0
  0
LINE
  5
   340
  8
0
  6
CONTINUOUS
 62
     7
 10
2195.92169517217
 20
-1419.38050298618
 30
0.0
 11
2196.0456332938
 21
-1419.59848874517
 31
0.0
  0
LINE
  5
   341
  8
0
  6
CONTINUOUS
 62
     7
 10
2196.04565392401
 20
-1419.59850137007
 30
0.0
 11
2196.04817952044
 21
-1419.84924175035
 31
0.0
  0
LINE
  5
   342
  8
0
  6
CONTINUOUS
 62
     7
 10
2196.04817025941
 20
-1419.8492333769
 30
0.0
 11
2195.31924711715
 21
-1422.78450029103
 31
0.0
  0
LINE
  5
   343
  8
0
  6
CONTINUOUS
 62
     7
 10
2195.31925328033
 20
-1422.78449545422
 30
0.0
 11
2195.19398982567
 21
-1423.01098212752
 31
0.0
  0
LINE
  5
   344
  8
0
  6
CONTINUOUS
 62
     7
 10
2195.19399623591
 20
-1423.01099001366
 30
0.0
 11
2194.97226950367
 21
-1423.14450033739
 31
0.0
  0
LINE
  5
   345
  8
0
  6
CONTINUOUS
 62
     7
 10
2194.97229266976
 20
-1423.14450035267
 30
0.0
 11
2194.71351737109
 21
-1423.1492611564
 31
0.0
  0
LINE
  5
   346
  8
0
  6
CONTINUOUS
 62
     7
 10
2178.51187157631
 20
-1419.12595264442
 30
0.0
 11
2194.71349174804
 21
-1423.1492600659
 31
0.0
  0
LINE
  5
   347
  8
0
  6
DOT
 62
     7
 10
2137.51187076569
 20
-1339.33424046019
 30
0.0
 11
2137.51187076569
 21
-1342.33424046019
 31
0.0
  0
LINE
  5
   348
  8
0
  6
DOT
 62
     7
 10
2119.01187076569
 20
-1339.33424046019
 30
0.0
 11
2119.01187076569
 21
-1351.33424046019
 31
0.0
  0
LINE
  5
   349
  8
0
  6
DOT
 62
     7
 10
2117.01187076569
 20
-1339.33424046019
 30
0.0
 11
2117.01187076569
 21
-1351.33424046019
 31
0.0
  0
LINE
  5
   34A
  8
0
  6
DOT
 62
     7
 10
2117.01187076569
 20
-1339.33424046019
 30
0.0
 11
2137.51187076569
 21
-1339.33424046019
 31
0.0
  0
LINE
  5
   34B
  8
0
  6
DOT
 62
     7
 10
2133.51187076569
 20
-1351.33424046019
 30
0.0
 11
2137.51187076569
 21
-1351.33424046019
 31
0.0
  0
LINE
  5
   34C
  8
0
  6
DOT
 62
     7
 10
2134.01187076569
 20
-1342.33424046019
 30
0.0
 11
2148.01187076569
 21
-1342.33424046019
 31
0.0
  0
LINE
  5
   34D
  8
0
  6
DOT
 62
     7
 10
2134.01187076569
 20
-1348.33424046019
 30
0.0
 11
2148.01187076569
 21
-1348.33424046019
 31
0.0
  0
LINE
  5
   34E
  8
0
  6
CONTINUOUS
 62
     7
 10
2134.01187076569
 20
-1342.33424046019
 30
0.0
 11
2133.51187076569
 21
-1342.83424046018
 31
0.0
  0
LINE
  5
   34F
  8
0
  6
CONTINUOUS
 62
     7
 10
2133.51187076569
 20
-1347.83424046019
 30
0.0
 11
2134.01187076569
 21
-1348.33424046019
 31
0.0
  0
LINE
  5
   350
  8
0
  6
DOT
 62
     7
 10
2134.01187076569
 20
-1342.33424046019
 30
0.0
 11
2134.01187076569
 21
-1348.33424046019
 31
0.0
  0
LINE
  5
   351
  8
0
  6
DOT
 62
     7
 10
2137.51187076569
 20
-1348.33424046019
 30
0.0
 11
2137.51187076569
 21
-1351.33424046019
 31
0.0
  0
LINE
  5
   352
  8
0
  6
CONTINUOUS
 62
     7
 10
2145.52710914612
 20
-1441.33422851563
 30
0.0
 11
2145.52710914612
 21
-1444.33421657107
 31
0.0
  0
LINE
  5
   353
  8
0
  6
CONTINUOUS
 62
     7
 10
2127.02710914612
 20
-1441.33422851563
 30
0.0
 11
2127.02710914612
 21
-1453.33422851563
 31
0.0
  0
LINE
  5
   354
  8
0
  6
CONTINUOUS
 62
     7
 10
2125.02710914612
 20
-1441.33422851563
 30
0.0
 11
2125.02710914612
 21
-1453.33422851563
 31
0.0
  0
LINE
  5
   355
  8
0
  6
CONTINUOUS
 62
     7
 10
2125.02710914612
 20
-1441.33422851563
 30
0.0
 11
2131.02704620361
 21
-1441.33422851563
 31
0.0
  0
LINE
  5
   356
  8
0
  6
CONTINUOUS
 62
     7
 10
2125.02710914612
 20
-1453.33422851563
 30
0.0
 11
2127.02710914612
 21
-1453.33422851563
 31
0.0
  0
LINE
  5
   357
  8
0
  6
CONTINUOUS
 62
     7
 10
2149.01186531467
 20
-1336.33422851563
 30
0.0
 11
2149.01186531467
 21
-1456.33421325685
 31
0.0
  0
LINE
  5
   358
  8
0
  6
CONTINUOUS
 62
     7
 10
2133.02704620361
 20
-1441.33422851563
 30
0.0
 11
2145.52710914612
 21
-1441.33422851563
 31
0.0
  0
LINE
  5
   359
  8
0
  6
DOT
 62
     7
 10
2133.51187076569
 20
-1342.83424046018
 30
0.0
 11
2148.51187076569
 21
-1342.83424046018
 31
0.0
  0
LINE
  5
   35A
  8
0
  6
DOT
 62
     7
 10
2133.51187076569
 20
-1347.83424046019
 30
0.0
 11
2148.51187076569
 21
-1347.83424046019
 31
0.0
  0
LINE
  5
   35B
  8
0
  6
CONTINUOUS
 62
     7
 10
2106.01188513438
 20
-1360.33422851563
 30
0.0
 11
2106.01188513438
 21
-1413.03422851563
 31
0.0
  0
LINE
  5
   35C
  8
0
  6
CONTINUOUS
 62
     7
 10
2106.01188513438
 20
-1413.03422851563
 30
0.0
 11
2103.51188513438
 21
-1415.53422851563
 31
0.0
  0
LINE
  5
   35D
  8
0
  6
CONTINUOUS
 62
     7
 10
2103.51188513438
 20
-1415.53422851563
 30
0.0
 11
2103.51188513438
 21
-1456.33422851563
 31
0.0
  0
INSERT
  5
   35E
  8
0
  6
CONTINUOUS
 62
     3
  2
*HATCH72
 10
2168.71997070313
 20
-1410.83422851563
 30
0.0
 50
269.999999844103
  0
LINE
  5
   35F
  8
0
  6
DOT
 62
     7
 10
2130.51188356877
 20
-1340.08424515988
 30
0.0
 11
2130.51188356877
 21
-1351.78423614502
 31
0.0
  0
LINE
  5
   360
  8
0
  6
DOT
 62
     7
 10
2133.51188297272
 20
-1340.08425140381
 30
0.0
 11
2133.51188297272
 21
-1352.28423614502
 31
0.0
  0
LINE
  5
   361
  8
0
  6
DOT
 62
     7
 10
2130.51188356903
 20
-1340.08423822406
 30
0.0
 11
2133.5118829728
 21
-1340.08425903151
 31
0.0
  0
LINE
  5
   362
  8
0
  6
CONTINUOUS
 62
     7
 10
2102.31186962128
 20
-1352.83423984039
 30
0.0
 11
2103.51188468933
 21
-1352.83423984039
 31
0.0
  0
LINE
  5
   363
  8
0
  6
CONTINUOUS
 62
     7
 10
2102.31186962128
 20
-1341.33423984039
 30
0.0
 11
2103.51188468933
 21
-1341.33423984039
 31
0.0
  0
LINE
  5
   364
  8
0
  6
CONTINUOUS
 62
     7
 10
2102.31186962128
 20
-1453.3342283963
 30
0.0
 11
2103.51188468933
 21
-1453.3342283963
 31
0.0
  0
LINE
  5
   365
  8
0
  6
DOT
 62
     7
 10
2103.24393546581
 20
-1384.83423984039
 30
0.0
 11
2103.51188468933
 21
-1384.83423984039
 31
0.0
  0
LINE
  5
   366
  8
0
  6
CONTINUOUS
 62
     7
 10
2102.31186962128
 20
-1341.33423984039
 30
0.0
 11
2102.31186962128
 21
-1363.13431771549
 31
0.0
  0
LINE
  5
   367
  8
0
  6
CONTINUOUS
 62
     7
 10
2102.31186962128
 20
-1432.83420932281
 30
0.0
 11
2102.31186962128
 21
-1453.3342245816
 31
0.0
  0
LINE
  5
   368
  8
0
  6
CONTINUOUS
 62
     7
 10
2103.51188468933
 20
-1341.33424365509
 30
0.0
 11
2103.51188468933
 21
-1453.3342283963
 31
0.0
  0
LINE
  5
   369
  8
0
  6
CONTINUOUS
 62
     7
 10
2101.11185398102
 20
-1364.13425815094
 30
0.0
 11
2101.31186962128
 21
-1364.13425815094
 31
0.0
  0
LINE
  5
   36A
  8
0
  6
CONTINUOUS
 62
     7
 10
2101.11185398102
 20
-1365.33423984039
 30
0.0
 11
2101.31186943054
 21
-1365.33423984039
 31
0.0
  0
LINE
  5
   36B
  8
0
  6
CONTINUOUS
 62
     7
 10
2095.51187038422
 20
-1364.13425815094
 30
0.0
 11
2095.51187038422
 21
-1365.33423984039
 31
0.0
  0
LINE
  5
   36C
  8
0
  6
CONTINUOUS
 62
     7
 10
2095.51187038422
 20
-1385.33423984039
 30
0.0
 11
2095.51187038422
 21
-1386.53423678863
 31
0.0
  0
LINE
  5
   36D
  8
0
  6
CONTINUOUS
 62
     7
 10
2095.51187038422
 20
-1424.33423984039
 30
0.0
 11
2095.51187038422
 21
-1429.33423984039
 31
0.0
  0
LINE
  5
   36E
  8
0
  6
CONTINUOUS
 62
     7
 10
2095.51187038422
 20
-1424.33423984039
 30
0.0
 11
2098.8420124054
 21
-1424.33423984039
 31
0.0
  0
LINE
  5
   36F
  8
0
  6
CONTINUOUS
 62
     7
 10
2098.84198296329
 20
-1424.33424212276
 30
0.0
 11
2099.51185550103
 21
-1426.83423960433
 31
0.0
  0
LINE
  5
   370
  8
0
  6
CONTINUOUS
 62
     7
 10
2099.51187038422
 20
-1426.83423984039
 30
0.0
 11
2100.51187038422
 21
-1426.83423984039
 31
0.0
  0
LINE
  5
   371
  8
0
  6
CONTINUOUS
 62
     7
 10
2100.51187038422
 20
-1391.33423984039
 30
0.0
 11
2100.51187038422
 21
-1426.83423984039
 31
0.0
  0
LINE
  5
   372
  8
0
  6
CONTINUOUS
 62
     7
 10
2099.51187038422
 20
-1391.33423984039
 30
0.0
 11
2100.51187038422
 21
-1391.33423984039
 31
0.0
  0
LINE
  5
   373
  8
0
  6
CONTINUOUS
 62
     7
 10
2095.51185478782
 20
-1390.26242341016
 30
0.0
 11
2098.50248622462
 21
-1391.0637688284
 31
0.0
  0
LINE
  5
   374
  8
0
  6
CONTINUOUS
 62
     7
 10
2095.51187038422
 20
-1388.33423984039
 30
0.0
 11
2095.51187038422
 21
-1390.26243197906
 31
0.0
  0
LINE
  5
   375
  8
0
  6
DOT
 62
     7
 10
2102.31186962128
 20
-1384.83423984039
 30
0.0
 11
2103.24393552542
 21
-1384.83423984039
 31
0.0
  0
LINE
  5
   376
  8
0
  6
CONTINUOUS
 62
     7
 10
2099.01188468933
 20
-1432.83422934997
 30
0.0
 11
2103.51188468933
 21
-1432.83422934997
 31
0.0
  0
LINE
  5
   377
  8
0
  6
CONTINUOUS
 62
     7
 10
2099.91189994812
 20
-1336.83423984039
 30
0.0
 11
2101.11185398102
 21
-1336.83423984039
 31
0.0
  0
LINE
  5
   378
  8
0
  6
CONTINUOUS
 62
     7
 10
2101.11185398102
 20
-1391.33425509918
 30
0.0
 11
2101.11185398102
 21
-1392.15577304352
 31
0.0
  0
LINE
  5
   379
  8
0
  6
CONTINUOUS
 62
     7
 10
2101.11185398102
 20
-1365.33427035797
 30
0.0
 11
2101.11185398102
 21
-1391.33423984039
 31
0.0
  0
LINE
  5
   37A
  8
0
  6
CONTINUOUS
 62
     7
 10
2101.11185398102
 20
-1336.83423984039
 30
0.0
 11
2101.11185398102
 21
-1365.33423984039
 31
0.0
  0
LINE
  5
   37B
  8
0
  6
CONTINUOUS
 62
     7
 10
2101.11192344316
 20
-1392.15577267378
 30
0.0
 11
2098.9511533397
 21
-1395.89834286947
 31
0.0
  0
LINE
  5
   37C
  8
0
  6
CONTINUOUS
 62
     7
 10
2097.9118827843
 20
-1395.29836176813
 30
0.0
 11
2098.95107369369
 21
-1395.89834505468
 31
0.0
  0
LINE
  5
   37D
  8
0
  6
CONTINUOUS
 62
     7
 10
2099.91187002068
 20
-1391.83425466801
 30
0.0
 11
2097.91187007098
 21
-1395.2983505738
 31
0.0
  0
LINE
  5
   37E
  8
0
  6
CONTINUOUS
 62
     7
 10
2099.91189994812
 20
-1336.83423984039
 30
0.0
 11
2099.91189994812
 21
-1365.33423984039
 31
0.0
  0
LINE
  5
   37F
  8
0
  6
CONTINUOUS
 62
     7
 10
2099.91189994812
 20
-1365.33423984039
 30
0.0
 11
2099.91189994812
 21
-1381.76317202853
 31
0.0
  0
LINE
  5
   380
  8
0
  6
CONTINUOUS
 62
     7
 10
2099.91189994812
 20
-1391.03945529449
 30
0.0
 11
2099.91189994812
 21
-1391.83423984039
 31
0.0
  0
LINE
  5
   381
  8
0
  6
CONTINUOUS
 62
     7
 10
2101.11185455322
 20
-1449.8342283963
 30
0.0
 11
2101.31186962128
 21
-1449.8342283963
 31
0.0
  0
LINE
  5
   382
  8
0
  6
CONTINUOUS
 62
     7
 10
2101.11185455322
 20
-1444.83422934997
 30
0.0
 11
2101.31186962128
 21
-1444.83422934997
 31
0.0
  0
ARC
  5
   383
  8
0
  6
CONTINUOUS
 62
     7
 10
2099.01182147205
 20
-1388.33423215664
 30
0.0
 40
3.49996037873244
 50
509.049876306511
 51
539.99994520259
  0
LINE
  5
   384
  8
0
  6
CONTINUOUS
 62
     7
 10
2099.81186943054
 20
-1364.13425815094
 30
0.0
 11
2099.81186943054
 21
-1365.33423984039
 31
0.0
  0
LINE
  5
   385
  8
0
  6
CONTINUOUS
 62
     7
 10
2099.81186943054
 20
-1385.33423984039
 30
0.0
 11
2099.81186943054
 21
-1386.53423678863
 31
0.0
  0
LINE
  5
   386
  8
0
  6
CONTINUOUS
 62
     7
 10
2101.2118844986
 20
-1364.13425815094
 30
0.0
 11
2101.2118844986
 21
-1365.33423984039
 31
0.0
  0
LINE
  5
   387
  8
0
  6
CONTINUOUS
 62
     7
 10
2101.2118844986
 20
-1385.33423984039
 30
0.0
 11
2101.2118844986
 21
-1386.53423678863
 31
0.0
  0
LINE
  5
   388
  8
0
  6
CONTINUOUS
 62
     7
 10
2095.51187133789
 20
-1364.13425815094
 30
0.0
 11
2099.81186943054
 21
-1364.13425815094
 31
0.0
  0
LINE
  5
   389
  8
0
  6
CONTINUOUS
 62
     7
 10
2095.51187133789
 20
-1365.33423984039
 30
0.0
 11
2099.81186943054
 21
-1365.33423984039
 31
0.0
  0
LINE
  5
   38A
  8
0
  6
CONTINUOUS
 62
     7
 10
2095.51187038422
 20
-1385.33423984039
 30
0.0
 11
2099.81186943054
 21
-1385.33423984039
 31
0.0
  0
LINE
  5
   38B
  8
0
  6
CONTINUOUS
 62
     7
 10
2095.51187038422
 20
-1386.53423678863
 30
0.0
 11
2099.81186943054
 21
-1386.53423678863
 31
0.0
  0
LINE
  5
   38C
  8
0
  6
CONTINUOUS
 62
     7
 10
2099.90184898171
 20
-1381.90459985852
 30
0.0
 11
2099.43614314911
 21
-1385.16454068666
 31
0.0
  0
LINE
  5
   38D
  8
0
  6
CONTINUOUS
 62
     7
 10
2101.10184879097
 20
-1381.9898825679
 30
0.0
 11
2100.62408254151
 21
-1385.33424631415
 31
0.0
  0
LINE
  5
   38E
  8
0
  6
CONTINUOUS
 62
     7
 10
2099.43614314911
 20
-1385.16454068666
 30
0.0
 11
2100.62408254151
 21
-1385.33424631415
 31
0.0
  0
ARC
  5
   38F
  8
0
  6
CONTINUOUS
 62
     7
 10
2098.91189994812
 20
-1381.76317202853
 30
0.0
 40
1.0
 50
351.869897489947
 51
359.999999844103
  0
ARC
  5
   390
  8
0
  6
CONTINUOUS
 62
     7
 10
2100.11185398102
 20
-1381.84845473791
 30
0.0
 40
1.0
 50
351.869897489947
 51
359.999999844103
  0
LINE
  5
   391
  8
0
  6
CONTINUOUS
 62
     7
 10
2101.11185398102
 20
-1385.33423984039
 30
0.0
 11
2101.31186943054
 21
-1385.33423984039
 31
0.0
  0
LINE
  5
   392
  8
0
  6
CONTINUOUS
 62
     7
 10
2101.11185398102
 20
-1386.53423678863
 30
0.0
 11
2101.31186962128
 21
-1386.53423678863
 31
0.0
  0
LINE
  5
   393
  8
0
  6
DOT
 62
     7
 10
2099.91189994812
 20
-1381.76317202853
 30
0.0
 11
2099.91189994812
 21
-1385.23249940418
 31
0.0
  0
LINE
  5
   394
  8
0
  6
CONTINUOUS
 62
     7
 10
2099.91189994812
 20
-1385.23249940418
 30
0.0
 11
2099.91189994812
 21
-1391.03948401138
 31
0.0
  0
LINE
  5
   395
  8
0
  6
CONTINUOUS
 62
     7
 10
2099.91189994812
 20
-1338.83423984039
 30
0.0
 11
2101.11185398102
 21
-1338.83423984039
 31
0.0
  0
LINE
  5
   396
  8
0
  6
CONTINUOUS
 62
     7
 10
2099.91189994812
 20
-1356.83423984039
 30
0.0
 11
2101.11185398102
 21
-1356.83423984039
 31
0.0
  0
LINE
  5
   397
  8
0
  6
CONTINUOUS
 62
     7
 10
2099.91189994812
 20
-1372.33423984039
 30
0.0
 11
2101.11185398102
 21
-1372.33423984039
 31
0.0
  0
LINE
  5
   398
  8
0
  6
CONTINUOUS
 62
     7
 10
2099.91189994812
 20
-1379.33423984039
 30
0.0
 11
2101.11185398102
 21
-1379.33423984039
 31
0.0
  0
LINE
  5
   399
  8
0
  6
CONTINUOUS
 62
     7
 10
2099.91189994812
 20
-1386.83423678863
 30
0.0
 11
2101.11185398102
 21
-1386.83423678863
 31
0.0
  0
INSERT
  5
   39A
  8
0
  6
CONTINUOUS
 62
     7
  2
*HATCH73
 10
2168.71997070313
 20
-1410.83422851563
 30
0.0
 50
269.999999844103
  0
INSERT
  5
   39B
  8
0
  6
CONTINUOUS
 62
     7
  2
*HATCH74
 10
2168.71997070313
 20
-1410.83422851563
 30
0.0
 50
269.999999844103
  0
INSERT
  5
   39C
  8
0
  6
CONTINUOUS
 62
     7
  2
*HATCH75
 10
2168.71997070313
 20
-1410.83422851563
 30
0.0
 50
269.999999844103
  0
INSERT
  5
   39D
  8
0
  6
CONTINUOUS
 62
     7
  2
*HATCH76
 10
2168.71997070313
 20
-1410.83422851563
 30
0.0
 50
269.999999844103
  0
ARC
  5
   39E
  8
0
  6
CONTINUOUS
 62
     7
 10
2101.31186962128
 20
-1387.53423678863
 30
0.0
 40
1.0
 50
359.999999844103
 51
449.999999844103
  0
ARC
  5
   39F
  8
0
  6
CONTINUOUS
 62
     7
 10
2101.31186943054
 20
-1387.53423984039
 30
0.0
 40
2.19999904632568
 50
359.999999844103
 51
449.999999844103
  0
LINE
  5
   3A0
  8
0
  6
CONTINUOUS
 62
     7
 10
2101.11185398102
 20
-1384.83423984039
 30
0.0
 11
2102.31186962128
 21
-1384.83423984039
 31
0.0
  0
ARC
  5
   3A1
  8
0
  6
CONTINUOUS
 62
     7
 10
2099.01182147205
 20
-1388.33423215664
 30
0.0
 40
3.49996037873244
 50
467.486019062348
 51
481.001855151888
  0
ARC
  5
   3A2
  8
0
  6
DOT
 62
     7
 10
2099.01182147205
 20
-1388.33423215664
 30
0.0
 40
3.49996037873244
 50
481.001855151888
 51
509.049876306511
  0
ARC
  5
   3A3
  8
0
  6
CONTINUOUS
 62
     7
 10
2099.01182147205
 20
-1388.33423215664
 30
0.0
 40
3.49996037873244
 50
449.999999844103
 51
467.486019062348
  0
LINE
  5
   3A4
  8
0
  6
CONTINUOUS
 62
     7
 10
2099.01187223196
 20
-1384.83423984039
 30
0.0
 11
2099.48331326076
 21
-1384.83423984039
 31
0.0
  0
LINE
  5
   3A5
  8
0
  6
CONTINUOUS
 62
     7
 10
2098.50248622462
 20
-1391.0637688284
 30
0.0
 11
2099.51185632115
 21
-1391.33423147793
 31
0.0
  0
ARC
  5
   3A6
  8
0
  6
CONTINUOUS
 62
     7
 10
2099.01181588901
 20
-1429.33425796291
 30
0.0
 40
3.49994520846391
 50
540.000159625357
 51
630.000829476908
  0
ARC
  5
   3A7
  8
0
  6
CONTINUOUS
 62
     7
 10
2101.31186943054
 20
-1363.13425509918
 30
0.0
 40
2.19999904632568
 50
269.999999844103
 51
359.999999844103
  0
LINE
  5
   3A8
  8
0
  6
DOT
 62
     7
 10
2102.31186962128
 20
-1385.5746481435
 30
0.0
 11
2102.31186962128
 21
-1387.53423678863
 31
0.0
  0
LINE
  5
   3A9
  8
0
  6
CONTINUOUS
 62
     7
 10
2102.31186962128
 20
-1387.53423678863
 30
0.0
 11
2102.31186962128
 21
-1408.73312182794
 31
0.0
  0
LINE
  5
   3AA
  8
0
  6
CONTINUOUS
 62
     7
 10
2102.31186962128
 20
-1365.09383153728
 30
0.0
 11
2102.31186962128
 21
-1385.5746481435
 31
0.0
  0
LINE
  5
   3AB
  8
0
  6
DOT
 62
     7
 10
2102.31186962128
 20
-1363.13431771549
 30
0.0
 11
2102.31186962128
 21
-1365.09383153728
 31
0.0
  0
LINE
  5
   3AC
  8
0
  6
CONTINUOUS
 62
     7
 10
2102.31186962128
 20
-1441.8342283963
 30
0.0
 11
2103.51188468933
 21
-1441.8342283963
 31
0.0
  0
ARC
  5
   3AD
  8
0
  6
CONTINUOUS
 62
     7
 10
2101.31186917211
 20
-1363.13423031735
 30
0.0
 40
1.00003107655773
 50
270.00070276675
 51
359.997118270512
  0
ARC
  5
   3AE
  8
0
  6
CONTINUOUS
 62
     7
 10
2101.31186957367
 20
-1443.83423049369
 30
0.0
 40
0.999999854264095
 50
270.000056701202
 51
359.999980612941
  0
ARC
  5
   3AF
  8
0
  6
CONTINUOUS
 62
     7
 10
2101.31187073119
 20
-1450.83422684252
 30
0.0
 40
0.999999781581745
 50
359.999963768781
 51
449.999994616734
  0
LINE
  5
   3B0
  8
0
  6
DASHDOT
 62
     7
 10
2099.80039569403
 20
-1447.3342283963
 30
0.0
 11
2104.76401185817
 21
-1447.3342283963
 31
0.0
  0
LINE
  5
   3B1
  8
0
  6
DOT
 62
     7
 10
2101.11185455322
 20
-1445.8342283963
 30
0.0
 11
2103.51188468933
 21
-1445.8342283963
 31
0.0
  0
LINE
  5
   3B2
  8
0
  6
DOT
 62
     7
 10
2101.11185455322
 20
-1448.8342283963
 30
0.0
 11
2103.51188468933
 21
-1448.8342283963
 31
0.0
  0
LINE
  5
   3B3
  8
0
  6
DOT
 62
     7
 10
2101.11185455322
 20
-1445.3342283963
 30
0.0
 11
2103.51188468933
 21
-1445.3342283963
 31
0.0
  0
LINE
  5
   3B4
  8
0
  6
DOT
 62
     7
 10
2101.11185455322
 20
-1449.3342283963
 30
0.0
 11
2103.51188468933
 21
-1449.3342283963
 31
0.0
  0
LINE
  5
   3B5
  8
0
  6
CONTINUOUS
 62
     7
 10
2101.11185455322
 20
-1444.83422934997
 30
0.0
 11
2101.11185455322
 21
-1449.8342283963
 31
0.0
  0
ARC
  5
   3B6
  8
0
  6
CONTINUOUS
 62
     7
 10
2101.31187073119
 20
-1343.83424520886
 30
0.0
 40
0.999999781581745
 50
270.000005071472
 51
360.000035919426
  0
LINE
  5
   3B7
  8
0
  6
CONTINUOUS
 62
     7
 10
2101.11185455322
 20
-1344.83424365509
 30
0.0
 11
2101.31186962128
 21
-1344.83424365509
 31
0.0
  0
LINE
  5
   3B8
  8
0
  6
CONTINUOUS
 62
     7
 10
2101.11185455322
 20
-1344.83424365509
 30
0.0
 11
2101.11185455322
 21
-1349.83424270141
 31
0.0
  0
LINE
  5
   3B9
  8
0
  6
CONTINUOUS
 62
     7
 10
2101.11185455322
 20
-1349.83424270141
 30
0.0
 11
2101.31186962128
 21
-1349.83424270141
 31
0.0
  0
ARC
  5
   3BA
  8
0
  6
CONTINUOUS
 62
     7
 10
2101.31186957367
 20
-1350.8342415577
 30
0.0
 40
0.999999854264095
 50
360.000019075265
 51
449.999888345491
  0
LINE
  5
   3BB
  8
0
  6
DOT
 62
     7
 10
2101.11185455322
 20
-1349.33424365509
 30
0.0
 11
2103.51188468933
 21
-1349.33424365509
 31
0.0
  0
LINE
  5
   3BC
  8
0
  6
DOT
 62
     7
 10
2101.11185455322
 20
-1348.83424365509
 30
0.0
 11
2103.51188468933
 21
-1348.83424365509
 31
0.0
  0
LINE
  5
   3BD
  8
0
  6
DASHDOT
 62
     7
 10
2099.80039569403
 20
-1347.33424365509
 30
0.0
 11
2104.76401185817
 21
-1347.33424365509
 31
0.0
  0
LINE
  5
   3BE
  8
0
  6
DOT
 62
     7
 10
2101.11185455322
 20
-1345.83424365509
 30
0.0
 11
2103.51188468933
 21
-1345.83424365509
 31
0.0
  0
LINE
  5
   3BF
  8
0
  6
DOT
 62
     7
 10
2101.11185455322
 20
-1345.33424365509
 30
0.0
 11
2103.51188468933
 21
-1345.33424365509
 31
0.0
  0
LINE
  5
   3C0
  8
0
  6
CONTINUOUS
 62
     7
 10
2101.11185398102
 20
-1380.83423984039
 30
0.0
 11
2102.83243023238
 21
-1380.83423984039
 31
0.0
  0
LINE
  5
   3C1
  8
0
  6
DASHDOT
 62
     7
 10
2098.26188459396
 20
-1362.73432758772
 30
0.0
 11
2098.26188459396
 21
-1382.89986133134
 31
0.0
  0
LINE
  5
   3C2
  8
0
  6
DASHDOT
 62
     7
 10
2102.76188459396
 20
-1362.60783016034
 30
0.0
 11
2102.76188459396
 21
-1382.41440567512
 31
0.0
  0
CIRCLE
  5
   3C3
  8
0
  6
CONTINUOUS
 62
     7
 10
2098.26188459396
 20
-1379.64050984039
 30
0.0
 40
0.39999988079071
  0
CIRCLE
  5
   3C4
  8
0
  6
CONTINUOUS
 62
     7
 10
2098.26188459396
 20
-1378.04050984039
 30
0.0
 40
0.39999988079071
  0
CIRCLE
  5
   3C5
  8
0
  6
CONTINUOUS
 62
     7
 10
2098.26188459396
 20
-1376.44050984039
 30
0.0
 40
0.39999988079071
  0
CIRCLE
  5
   3C6
  8
0
  6
CONTINUOUS
 62
     7
 10
2098.26188459396
 20
-1374.84052509918
 30
0.0
 40
0.39999988079071
  0
CIRCLE
  5
   3C7
  8
0
  6
CONTINUOUS
 62
     7
 10
2098.26188459396
 20
-1373.24052509918
 30
0.0
 40
0.39999988079071
  0
CIRCLE
  5
   3C8
  8
0
  6
CONTINUOUS
 62
     7
 10
2098.26188459396
 20
-1371.64050984039
 30
0.0
 40
0.39999988079071
  0
CIRCLE
  5
   3C9
  8
0
  6
CONTINUOUS
 62
     7
 10
2098.26188459396
 20
-1370.04050984039
 30
0.0
 40
0.39999988079071
  0
CIRCLE
  5
   3CA
  8
0
  6
CONTINUOUS
 62
     7
 10
2098.26188459396
 20
-1368.44050984039
 30
0.0
 40
0.39999988079071
  0
CIRCLE
  5
   3CB
  8
0
  6
CONTINUOUS
 62
     7
 10
2098.26188459396
 20
-1366.84052509918
 30
0.0
 40
0.39999988079071
  0
ARC
  5
   3CC
  8
0
  6
CONTINUOUS
 62
     7
 10
2098.26188459396
 20
-1365.24052509918
 30
0.0
 40
0.39999988079071
 50
553.551673104685
 51
629.99994520259
  0
CIRCLE
  5
   3CD
  8
0
  6
CONTINUOUS
 62
     7
 10
2102.76188459396
 20
-1378.84052509918
 30
0.0
 40
0.39999988079071
  0
ARC
  5
   3CE
  8
0
  6
CONTINUOUS
 62
     7
 10
2102.76188459396
 20
-1380.44050984039
 30
0.0
 40
0.39999988079071
 50
280.158049687986
 51
619.841895358707
  0
CIRCLE
  5
   3CF
  8
0
  6
CONTINUOUS
 62
     7
 10
2102.76188459396
 20
-1377.24052509918
 30
0.0
 40
0.39999988079071
  0
CIRCLE
  5
   3D0
  8
0
  6
CONTINUOUS
 62
     7
 10
2102.76188459396
 20
-1375.64050984039
 30
0.0
 40
0.39999988079071
  0
CIRCLE
  5
   3D1
  8
0
  6
CONTINUOUS
 62
     7
 10
2102.76188459396
 20
-1374.04050984039
 30
0.0
 40
0.39999988079071
  0
CIRCLE
  5
   3D2
  8
0
  6
CONTINUOUS
 62
     7
 10
2102.76188459396
 20
-1372.44050984039
 30
0.0
 40
0.39999988079071
  0
CIRCLE
  5
   3D3
  8
0
  6
CONTINUOUS
 62
     7
 10
2102.76188459396
 20
-1370.84052509918
 30
0.0
 40
0.39999988079071
  0
CIRCLE
  5
   3D4
  8
0
  6
CONTINUOUS
 62
     7
 10
2102.76188459396
 20
-1369.24052509918
 30
0.0
 40
0.39999988079071
  0
LINE
  5
   3D5
  8
0
  6
CONTINUOUS
 62
     7
 10
2102.69188848299
 20
-1380.04669184812
 30
0.0
 11
2101.11187167505
 21
-1380.32758372509
 31
0.0
  0
LINE
  5
   3D6
  8
0
  6
CONTINUOUS
 62
     7
 10
2102.83190012753
 20
-1379.23434452514
 30
0.0
 11
2101.11185665182
 21
-1379.54013003194
 31
0.0
  0
LINE
  5
   3D7
  8
0
  6
CONTINUOUS
 62
     7
 10
2102.69187078896
 20
-1378.44667949568
 30
0.0
 11
2101.11189905071
 21
-1378.72756336026
 31
0.0
  0
LINE
  5
   3D8
  8
0
  6
CONTINUOUS
 62
     7
 10
2102.83186741027
 20
-1377.63433484351
 30
0.0
 11
2101.11188402748
 21
-1377.94010966711
 31
0.0
  0
LINE
  5
   3D9
  8
0
  6
CONTINUOUS
 62
     7
 10
2102.6918434133
 20
-1376.84669986051
 30
0.0
 11
2101.11188669828
 21
-1377.12758105429
 31
0.0
  0
LINE
  5
   3DA
  8
0
  6
CONTINUOUS
 62
     7
 10
2102.83190012753
 20
-1376.03434452514
 30
0.0
 11
2101.11187167505
 21
-1376.34012736114
 31
0.0
  0
LINE
  5
   3DB
  8
0
  6
CONTINUOUS
 62
     7
 10
2102.69187345976
 20
-1375.24669451892
 30
0.0
 11
2101.11185665182
 21
-1375.52758639588
 31
0.0
  0
LINE
  5
   3DC
  8
0
  6
CONTINUOUS
 62
     7
 10
2102.8318824335
 20
-1374.43433217271
 30
0.0
 11
2101.11189905071
 21
-1374.74010699632
 31
0.0
  0
LINE
  5
   3DD
  8
0
  6
CONTINUOUS
 62
     7
 10
2102.69185576573
 20
-1373.64668216648
 30
0.0
 11
2101.11188402748
 21
-1373.92756603106
 31
0.0
  0
LINE
  5
   3DE
  8
0
  6
CONTINUOUS
 62
     7
 10
2102.83191247997
 20
-1372.83432683112
 30
0.0
 11
2101.11188402748
 21
-1373.14010966711
 31
0.0
  0
LINE
  5
   3DF
  8
0
  6
CONTINUOUS
 62
     7
 10
2102.69188848299
 20
-1372.04669184812
 30
0.0
 11
2101.11187167505
 21
-1372.32758372509
 31
0.0
  0
LINE
  5
   3E0
  8
0
  6
CONTINUOUS
 62
     7
 10
2102.83190012753
 20
-1371.23434452514
 30
0.0
 11
2101.11185665182
 21
-1371.54013003194
 31
0.0
  0
LINE
  5
   3E1
  8
0
  6
CONTINUOUS
 62
     7
 10
2102.69187078896
 20
-1370.44667949568
 30
0.0
 11
2101.11189905071
 21
-1370.72756336026
 31
0.0
  0
LINE
  5
   3E2
  8
0
  6
CONTINUOUS
 62
     7
 10
2102.83186741027
 20
-1369.63433484351
 30
0.0
 11
2101.11188402748
 21
-1369.94010966711
 31
0.0
  0
LINE
  5
   3E3
  8
0
  6
CONTINUOUS
 62
     7
 10
2102.6918434133
 20
-1368.84669986051
 30
0.0
 11
2101.11188669828
 21
-1369.12758105429
 31
0.0
  0
LINE
  5
   3E4
  8
0
  6
CONTINUOUS
 62
     7
 10
2102.83191515076
 20
-1368.03434185435
 30
0.0
 11
2101.11187167505
 21
-1368.34012736114
 31
0.0
  0
LINE
  5
   3E5
  8
0
  6
CONTINUOUS
 62
     7
 10
2102.69188581219
 20
-1367.24667682489
 30
0.0
 11
2101.11185398102
 21
-1367.52757137265
 31
0.0
  0
LINE
  5
   3E6
  8
0
  6
CONTINUOUS
 62
     7
 10
2102.8318824335
 20
-1366.43433217271
 30
0.0
 11
2101.11189905071
 21
-1366.74010699632
 31
0.0
  0
LINE
  5
   3E7
  8
0
  6
CONTINUOUS
 62
     7
 10
2102.69185843653
 20
-1365.64669718971
 30
0.0
 11
2101.11190172151
 21
-1365.92757838349
 31
0.0
  0
LINE
  5
   3E8
  8
0
  6
CONTINUOUS
 62
     7
 10
2099.91188688901
 20
-1365.35345798977
 30
0.0
 11
2098.33191515076
 21
-1365.63434185435
 31
0.0
  0
CIRCLE
  5
   3E9
  8
0
  6
CONTINUOUS
 62
     7
 10
2102.76188459396
 20
-1367.64050984039
 30
0.0
 40
0.39999988079071
  0
CIRCLE
  5
   3EA
  8
0
  6
CONTINUOUS
 62
     7
 10
2102.76188459396
 20
-1366.04050984039
 30
0.0
 40
0.39999988079071
  0
ARC
  5
   3EB
  8
0
  6
CONTINUOUS
 62
     7
 10
2098.26188459396
 20
-1365.24052509918
 30
0.0
 40
0.39999988079071
 50
269.999999844103
 51
346.448162658981
  0
LINE
  5
   3EC
  8
0
  6
CONTINUOUS
 62
     7
 10
2099.91190191224
 20
-1366.14091168292
 30
0.0
 11
2098.19185843653
 21
-1366.44669718971
 31
0.0
  0
LINE
  5
   3ED
  8
0
  6
CONTINUOUS
 62
     7
 10
2099.91189924145
 20
-1366.95344029574
 30
0.0
 11
2098.3318824335
 21
-1367.23433217271
 31
0.0
  0
LINE
  5
   3EE
  8
0
  6
CONTINUOUS
 62
     7
 10
2099.91185417175
 20
-1367.74090467208
 30
0.0
 11
2098.19188581219
 21
-1368.04667682489
 31
0.0
  0
LINE
  5
   3EF
  8
0
  6
CONTINUOUS
 62
     7
 10
2099.91187186578
 20
-1368.55346066057
 30
0.0
 11
2098.33191515076
 21
-1368.83434185435
 31
0.0
  0
LINE
  5
   3F0
  8
0
  6
CONTINUOUS
 62
     7
 10
2099.91188688901
 20
-1369.34091435371
 30
0.0
 11
2098.1918434133
 21
-1369.64669986051
 31
0.0
  0
LINE
  5
   3F1
  8
0
  6
CONTINUOUS
 62
     7
 10
2099.91189924145
 20
-1370.15344029574
 30
0.0
 11
2098.33186741027
 21
-1370.43433484351
 31
0.0
  0
LINE
  5
   3F2
  8
0
  6
CONTINUOUS
 62
     7
 10
2099.91185417175
 20
-1370.94090467208
 30
0.0
 11
2098.19187078896
 21
-1371.24667949568
 31
0.0
  0
LINE
  5
   3F3
  8
0
  6
CONTINUOUS
 62
     7
 10
2099.91185684255
 20
-1371.75346333136
 30
0.0
 11
2098.33190012753
 21
-1372.03434452514
 31
0.0
  0
LINE
  5
   3F4
  8
0
  6
CONTINUOUS
 62
     7
 10
2099.91187186578
 20
-1372.54091702451
 30
0.0
 11
2098.19188848299
 21
-1372.84669184812
 31
0.0
  0
LINE
  5
   3F5
  8
0
  6
CONTINUOUS
 62
     7
 10
2099.91188421822
 20
-1373.35344296654
 30
0.0
 11
2098.33191247997
 21
-1373.63432683112
 31
0.0
  0
LINE
  5
   3F6
  8
0
  6
CONTINUOUS
 62
     7
 10
2099.91189924145
 20
-1374.14089665969
 30
0.0
 11
2098.19185576573
 21
-1374.44668216648
 31
0.0
  0
LINE
  5
   3F7
  8
0
  6
CONTINUOUS
 62
     7
 10
2099.91189924145
 20
-1374.95344029574
 30
0.0
 11
2098.3318824335
 21
-1375.23433217271
 31
0.0
  0
LINE
  5
   3F8
  8
0
  6
CONTINUOUS
 62
     7
 10
2099.91185684255
 20
-1375.74091969531
 30
0.0
 11
2098.19188848299
 21
-1376.04669184812
 31
0.0
  0
LINE
  5
   3F9
  8
0
  6
CONTINUOUS
 62
     7
 10
2099.91187186578
 20
-1376.55346066057
 30
0.0
 11
2098.33191515076
 21
-1376.83434185435
 31
0.0
  0
LINE
  5
   3FA
  8
0
  6
CONTINUOUS
 62
     7
 10
2099.91188688901
 20
-1377.34091435371
 30
0.0
 11
2098.1918434133
 21
-1377.64669986051
 31
0.0
  0
LINE
  5
   3FB
  8
0
  6
CONTINUOUS
 62
     7
 10
2099.91189924145
 20
-1378.15344029574
 30
0.0
 11
2098.33186741027
 21
-1378.43433484351
 31
0.0
  0
LINE
  5
   3FC
  8
0
  6
CONTINUOUS
 62
     7
 10
2099.91189924145
 20
-1378.94089665969
 30
0.0
 11
2098.19187078896
 21
-1379.24667949568
 31
0.0
  0
LINE
  5
   3FD
  8
0
  6
CONTINUOUS
 62
     7
 10
2099.91185684255
 20
-1379.75346333136
 30
0.0
 11
2098.33190012753
 21
-1380.03434452514
 31
0.0
  0
LINE
  5
   3FE
  8
0
  6
CONTINUOUS
 62
     7
 10
2099.91187186578
 20
-1380.54091702451
 30
0.0
 11
2098.26184652078
 21
-1380.83425486362
 31
0.0
  0
LINE
  5
   3FF
  8
0
  6
CONTINUOUS
 62
     7
 10
2098.26187436756
 20
-1380.83423984039
 30
0.0
 11
2099.91189994812
 21
-1380.83423984039
 31
0.0
  0
INSERT
  5
   400
  8
0
  6
CONTINUOUS
 62
     3
  2
*HATCH77
 10
2168.71997070313
 20
-1410.83422851563
 30
0.0
 50
269.999999844103
  0
INSERT
  5
   401
  8
0
  6
CONTINUOUS
 62
     3
  2
*HATCH78
 10
2168.71997070313
 20
-1410.83422851563
 30
0.0
 50
269.999999844103
  0
INSERT
  5
   402
  8
0
  6
CONTINUOUS
 62
     3
  2
*HATCH79
 10
2168.71997070313
 20
-1410.83422851563
 30
0.0
 50
269.999999844103
  0
INSERT
  5
   403
  8
0
  6
CONTINUOUS
 62
     3
  2
*HATCH80
 10
2168.71997070313
 20
-1410.83422851563
 30
0.0
 50
269.999999844103
  0
INSERT
  5
   404
  8
0
  6
CONTINUOUS
 62
     3
  2
*HATCH81
 10
2168.71997070313
 20
-1410.83422851563
 30
0.0
 50
269.999999844103
  0
INSERT
  5
   405
  8
0
  6
CONTINUOUS
 62
     3
  2
*HATCH82
 10
2168.71997070313
 20
-1410.83422851563
 30
0.0
 50
269.999999844103
  0
INSERT
  5
   406
  8
0
  6
CONTINUOUS
 62
     3
  2
*HATCH83
 10
2168.71997070313
 20
-1410.83422851563
 30
0.0
 50
269.999999844103
  0
INSERT
  5
   407
  8
0
  6
CONTINUOUS
 62
     3
  2
*HATCH84
 10
2168.71997070313
 20
-1410.83422851563
 30
0.0
 50
269.999999844103
  0
INSERT
  5
   408
  8
0
  6
CONTINUOUS
 62
     3
  2
*HATCH85
 10
2168.71997070313
 20
-1410.83422851563
 30
0.0
 50
269.999999844103
  0
INSERT
  5
   409
  8
0
  6
CONTINUOUS
 62
     3
  2
*HATCH86
 10
2168.71997070313
 20
-1410.83422851563
 30
0.0
 50
269.999999844103
  0
INSERT
  5
   40A
  8
0
  6
CONTINUOUS
 62
     3
  2
*HATCH87
 10
2168.71997070313
 20
-1410.83422851563
 30
0.0
 50
269.999999844103
  0
INSERT
  5
   40B
  8
0
  6
CONTINUOUS
 62
     3
  2
*HATCH88
 10
2168.71997070313
 20
-1410.83422851563
 30
0.0
 50
269.999999844103
  0
POLYLINE
  5
   40C
  8
0
  6
CONTINUOUS
 62
     7
 66
     1
 10
0.0
 20
0.0
 30
0.0
  0
VERTEX
  5
   40D
  8
0
  6
CONTINUOUS
 10
2103.51195865141
 20
-1408.42685339743
 30
0.0
 40
0.0
 41
0.0
  0
VERTEX
  5
   40E
  8
0
  6
CONTINUOUS
 10
2103.41085869951
 20
-1408.41084354883
 30
0.0
 40
0.0
 41
0.0
  0
VERTEX
  5
   40F
  8
0
  6
CONTINUOUS
 10
2103.3108805054
 20
-1408.39818802314
 30
0.0
 40
0.0
 41
0.0
  0
VERTEX
  5
   410
  8
0
  6
CONTINUOUS
 10
2103.26134505428
 20
-1408.39348988833
 30
0.0
 40
0.0
 41
0.0
  0
VERTEX
  5
   411
  8
0
  6
CONTINUOUS
 10
2103.16270249686
 20
-1408.3881005118
 30
0.0
 40
0.0
 41
0.0
  0
VERTEX
  5
   412
  8
0
  6
CONTINUOUS
 10
2103.06530774674
 20
-1408.38916032596
 30
0.0
 40
0.0
 41
0.0
  0
VERTEX
  5
   413
  8
0
  6
CONTINUOUS
 10
2103.01705759264
 20
-1408.39248513894
 30
0.0
 40
0.0
 41
0.0
  0
VERTEX
  5
   414
  8
0
  6
CONTINUOUS
 10
2102.96908834266
 20
-1408.39786159255
 30
0.0
 40
0.0
 41
0.0
  0
VERTEX
  5
   415
  8
0
  6
CONTINUOUS
 10
2102.92138415464
 20
-1408.40541910556
 30
0.0
 40
0.0
 41
0.0
  0
VERTEX
  5
   416
  8
0
  6
CONTINUOUS
 10
2102.87392752028
 20
-1408.4152747959
 30
0.0
 40
0.0
 41
0.0
  0
VERTEX
  5
   417
  8
0
  6
CONTINUOUS
 10
2102.82669981658
 20
-1408.42753113575
 30
0.0
 40
0.0
 41
0.0
  0
VERTEX
  5
   418
  8
0
  6
CONTINUOUS
 10
2102.77968185719
 20
-1408.44227360669
 30
0.0
 40
0.0
 41
0.0
  0
VERTEX
  5
   419
  8
0
  6
CONTINUOUS
 10
2102.73285444385
 20
-1408.4595683548
 30
0.0
 40
0.0
 41
0.0
  0
VERTEX
  5
   41A
  8
0
  6
CONTINUOUS
 10
2102.6861989178
 20
-1408.47945984576
 30
0.0
 40
0.0
 41
0.0
  0
VERTEX
  5
   41B
  8
0
  6
CONTINUOUS
 10
2102.63969771117
 20
-1408.50196852003
 30
0.0
 40
0.0
 41
0.0
  0
VERTEX
  5
   41C
  8
0
  6
CONTINUOUS
 10
2102.59333489838
 20
-1408.52708844787
 30
0.0
 40
0.0
 41
0.0
  0
VERTEX
  5
   41D
  8
0
  6
CONTINUOUS
 10
2102.54709674758
 20
-1408.55478498457
 30
0.0
 40
0.0
 41
0.0
  0
VERTEX
  5
   41E
  8
0
  6
CONTINUOUS
 10
2102.500972272
 20
-1408.58499242548
 30
0.0
 40
0.0
 41
0.0
  0
VERTEX
  5
   41F
  8
0
  6
CONTINUOUS
 10
2102.40903743349
 20
-1408.65250783252
 30
0.0
 40
0.0
 41
0.0
  0
VERTEX
  5
   420
  8
0
  6
CONTINUOUS
 10
2102.31751834442
 20
-1408.72839872821
 30
0.0
 40
0.0
 41
0.0
  0
VERTEX
  5
   421
  8
0
  6
CONTINUOUS
 10
2102.21223401183
 20
-1408.82415158816
 30
0.0
 40
0.0
 41
0.0
  0
VERTEX
  5
   422
  8
0
  6
CONTINUOUS
 10
2102.00466821171
 20
-1409.02478160435
 30
0.0
 40
0.0
 41
0.0
  0
VERTEX
  5
   423
  8
0
  6
CONTINUOUS
 10
2101.90315207507
 20
-1409.1193909686
 30
0.0
 40
0.0
 41
0.0
  0
VERTEX
  5
   424
  8
0
  6
CONTINUOUS
 10
2101.85313966462
 20
-1409.16287878837
 30
0.0
 40
0.0
 41
0.0
  0
VERTEX
  5
   425
  8
0
  6
CONTINUOUS
 10
2101.8036864932
 20
-1409.20292920596
 30
0.0
 40
0.0
 41
0.0
  0
VERTEX
  5
   426
  8
0
  6
CONTINUOUS
 10
2101.75483212797
 20
-1409.23890909719
 30
0.0
 40
0.0
 41
0.0
  0
VERTEX
  5
   427
  8
0
  6
CONTINUOUS
 10
2101.70660826954
 20
-1409.27022954435
 30
0.0
 40
0.0
 41
0.0
  0
VERTEX
  5
   428
  8
0
  6
CONTINUOUS
 10
2101.65903688533
 20
-1409.2963583441
 30
0.0
 40
0.0
 41
0.0
  0
VERTEX
  5
   429
  8
0
  6
CONTINUOUS
 10
2101.61212834289
 20
-1409.31683251535
 30
0.0
 40
0.0
 41
0.0
  0
VERTEX
  5
   42A
  8
0
  6
CONTINUOUS
 10
2101.56587954323
 20
-1409.33127080713
 30
0.0
 40
0.0
 41
0.0
  0
VERTEX
  5
   42B
  8
0
  6
CONTINUOUS
 10
2101.52027205418
 20
-1409.33938620647
 30
0.0
 40
0.0
 41
0.0
  0
VERTEX
  5
   42C
  8
0
  6
CONTINUOUS
 10
2101.4752702437
 20
-1409.34099844633
 30
0.0
 40
0.0
 41
0.0
  0
VERTEX
  5
   42D
  8
0
  6
CONTINUOUS
 10
2101.43081941324
 20
-1409.33604651341
 30
0.0
 40
0.0
 41
0.0
  0
VERTEX
  5
   42E
  8
0
  6
CONTINUOUS
 10
2101.38684393105
 20
-1409.32460115611
 30
0.0
 40
0.0
 41
0.0
  0
VERTEX
  5
   42F
  8
0
  6
CONTINUOUS
 10
2101.34324536555
 20
-1409.30687739233
 30
0.0
 40
0.0
 41
0.0
  0
VERTEX
  5
   430
  8
0
  6
CONTINUOUS
 10
2101.31487561442
 20
-1409.29206046009
 30
0.0
 40
0.0
 41
0.0
  0
VERTEX
  5
   431
  8
0
  6
CONTINUOUS
 10
2101.25830132172
 20
-1409.2554303076
 30
0.0
 40
0.0
 41
0.0
  0
VERTEX
  5
   432
  8
0
  6
CONTINUOUS
 10
2101.23000464752
 20
-1409.23398033361
 30
0.0
 40
0.0
 41
0.0
  0
VERTEX
  5
   433
  8
0
  6
CONTINUOUS
 10
2101.17314165026
 20
-1409.1858842805
 30
0.0
 40
0.0
 41
0.0
  0
VERTEX
  5
   434
  8
0
  6
CONTINUOUS
 10
2101.11556774552
 20
-1409.1324899038
 30
0.0
 40
0.0
 41
0.0
  0
VERTEX
  5
   435
  8
0
  6
CONTINUOUS
 10
2100.99661520608
 20
-1409.01834918893
 30
0.0
 40
0.0
 41
0.0
  0
VERTEX
  5
   436
  8
0
  6
CONTINUOUS
 10
2100.93447593297
 20
-1408.96199458924
 30
0.0
 40
0.0
 41
0.0
  0
VERTEX
  5
   437
  8
0
  6
CONTINUOUS
 10
2100.87015338943
 20
-1408.90892172115
 30
0.0
 40
0.0
 41
0.0
  0
VERTEX
  5
   438
  8
0
  6
CONTINUOUS
 10
2100.80345267781
 20
-1408.86098898877
 30
0.0
 40
0.0
 41
0.0
  0
VERTEX
  5
   439
  8
0
  6
CONTINUOUS
 10
2100.73429709161
 20
-1408.81973673057
 30
0.0
 40
0.0
 41
0.0
  0
VERTEX
  5
   43A
  8
0
  6
CONTINUOUS
 10
2100.69130716546
 20
-1408.79852462847
 30
0.0
 40
0.0
 41
0.0
  0
VERTEX
  5
   43B
  8
0
  6
CONTINUOUS
 10
2100.6474839287
 20
-1408.78033791775
 30
0.0
 40
0.0
 41
0.0
  0
VERTEX
  5
   43C
  8
0
  6
CONTINUOUS
 10
2100.60288937067
 20
-1408.76527590359
 30
0.0
 40
0.0
 41
0.0
  0
VERTEX
  5
   43D
  8
0
  6
CONTINUOUS
 10
2100.55760270415
 20
-1408.75338118777
 30
0.0
 40
0.0
 41
0.0
  0
VERTEX
  5
   43E
  8
0
  6
CONTINUOUS
 10
2100.51171778519
 20
-1408.74464618637
 30
0.0
 40
0.0
 41
0.0
  0
SEQEND
  5
   43F
  8
0
  6
CONTINUOUS
 62
     7
  0
LINE
  5
   440
  8
0
  6
DOT
 62
     7
 10
2102.31186962128
 20
-1408.73312182794
 30
0.0
 11
2102.31186962128
 21
-1432.83422934997
 31
0.0
  0
LINE
  5
   441
  8
0
  6
CONTINUOUS
 62
     7
 10
2099.61185455322
 20
-1364.13425815094
 30
0.0
 11
2099.91189994812
 21
-1364.13425815094
 31
0.0
  0
LINE
  5
   442
  8
0
  6
CONTINUOUS
 62
     7
 10
2099.61185455322
 20
-1365.33423984039
 30
0.0
 11
2099.91189994812
 21
-1365.33423984039
 31
0.0
  0
LINE
  5
   443
  8
0
  6
CONTINUOUS
 62
     7
 10
2099.81186943054
 20
-1385.33423984039
 30
0.0
 11
2099.91189994812
 21
-1385.33423984039
 31
0.0
  0
LINE
  5
   444
  8
0
  6
CONTINUOUS
 62
     7
 10
2099.81186943054
 20
-1386.53423678863
 30
0.0
 11
2099.91189994812
 21
-1386.53423678863
 31
0.0
  0
LINE
  5
   445
  8
0
  6
CONTINUOUS
 62
     7
 10
2099.48331326076
 20
-1384.83423984039
 30
0.0
 11
2099.91189994812
 21
-1384.83423984039
 31
0.0
  0
LINE
  5
   446
  8
0
  6
DOT
 62
     7
 10
2099.91189994812
 20
-1384.83423984039
 30
0.0
 11
2101.11185398102
 21
-1384.83423984039
 31
0.0
  0
INSERT
  5
   447
  8
0
  6
CONTINUOUS
 62
     7
  2
*HATCH89
 10
2168.71997070313
 20
-1410.83422851563
 30
0.0
 50
269.999999844103
  0
INSERT
  5
   448
  8
0
  6
CONTINUOUS
 62
     7
  2
*HATCH90
 10
2168.71997070313
 20
-1410.83422851563
 30
0.0
 50
269.999999844103
  0
INSERT
  5
   449
  8
0
  6
CONTINUOUS
 62
     7
  2
*HATCH91
 10
2168.71997070313
 20
-1410.83422851563
 30
0.0
 50
269.999999844103
  0
INSERT
  5
   44A
  8
0
  6
CONTINUOUS
 62
     7
  2
*HATCH92
 10
2168.71997070313
 20
-1410.83422851563
 30
0.0
 50
269.999999844103
  0
INSERT
  5
   44B
  8
0
  6
CONTINUOUS
 62
     3
  2
*HATCH93
 10
2168.71997070313
 20
-1410.83422851563
 30
0.0
 50
269.999999844103
  0
INSERT
  5
   44C
  8
0
  6
CONTINUOUS
 62
     3
  2
*HATCH94
 10
2168.71997070313
 20
-1410.83422851563
 30
0.0
 50
269.999999844103
  0
INSERT
  5
   44D
  8
0
  6
CONTINUOUS
 62
     3
  2
*HATCH95
 10
2168.71997070313
 20
-1410.83422851563
 30
0.0
 50
269.999999844103
  0
INSERT
  5
   44E
  8
0
  6
CONTINUOUS
 62
     3
  2
*HATCH96
 10
2168.71997070313
 20
-1410.83422851563
 30
0.0
 50
269.999999844103
  0
INSERT
  5
   44F
  8
0
  6
CONTINUOUS
 62
     3
  2
*HATCH97
 10
2168.71997070313
 20
-1410.83422851563
 30
0.0
 50
269.999999844103
  0
INSERT
  5
   450
  8
0
  6
CONTINUOUS
 62
     3
  2
*HATCH98
 10
2168.71997070313
 20
-1410.83422851563
 30
0.0
 50
269.999999844103
  0
INSERT
  5
   451
  8
0
  6
CONTINUOUS
 62
     3
  2
*HATCH99
 10
2168.71997070313
 20
-1410.83422851563
 30
0.0
 50
269.999999844103
  0
INSERT
  5
   452
  8
0
  6
CONTINUOUS
 62
     3
  2
*HATCH100
 10
2168.71997070313
 20
-1410.83422851563
 30
0.0
 50
269.999999844103
  0
INSERT
  5
   453
  8
0
  6
CONTINUOUS
 62
     3
  2
*HATCH101
 10
2168.71997070313
 20
-1410.83422851563
 30
0.0
 50
269.999999844103
  0
INSERT
  5
   454
  8
0
  6
CONTINUOUS
 62
     3
  2
*HATCH102
 10
2168.71997070313
 20
-1410.83422851563
 30
0.0
 50
269.999999844103
  0
INSERT
  5
   455
  8
0
  6
CONTINUOUS
 62
     3
  2
*HATCH103
 10
2168.71997070313
 20
-1410.83422851563
 30
0.0
 50
269.999999844103
  0
INSERT
  5
   456
  8
0
  6
CONTINUOUS
 62
     3
  2
*HATCH104
 10
2168.71997070313
 20
-1410.83422851563
 30
0.0
 50
269.999999844103
  0
LINE
  5
   457
  8
0
  6
CONTINUOUS
 62
     7
 10
2173.51185631752
 20
-1430.83421325684
 30
0.0
 11
2173.51185631752
 21
-1439.33422851563
 31
0.0
  0
LINE
  5
   458
  8
0
  6
CONTINUOUS
 62
     7
 10
2173.51185599287
 20
-1430.83421325684
 30
0.0
 11
2178.51187157631
 21
-1430.83421325684
 31
0.0
  0
LINE
  5
   459
  8
0
  6
CONTINUOUS
 62
     7
 10
2149.01187157631
 20
-1336.33422851563
 30
0.0
 11
2170.01185631752
 21
-1336.33422851563
 31
0.0
  0
LINE
  5
   45A
  8
0
  6
CONTINUOUS
 62
     7
 10
2149.01186555309
 20
-1456.33421325682
 30
0.0
 11
2170.01185631752
 21
-1456.33421325682
 31
0.0
  0
LINE
  5
   45B
  8
0
  6
DASHDOT
 62
     7
 10
2146.81170393548
 20
-1345.33422290818
 30
0.0
 11
2173.67984553445
 21
-1345.33422290818
 31
0.0
  0
LINE
  5
   45C
  8
0
  6
CONTINUOUS
 62
     7
 10
2173.51187125165
 20
-1385.83421325684
 30
0.0
 11
2178.51187157631
 21
-1385.83421325684
 31
0.0
  0
LINE
  5
   45D
  8
0
  6
CONTINUOUS
 62
     7
 10
2173.51187157631
 20
-1353.33422851563
 30
0.0
 11
2173.51187157631
 21
-1385.83421325684
 31
0.0
  0
LINE
  5
   45E
  8
0
  6
CONTINUOUS
 62
     7
 10
2178.51187157631
 20
-1385.83421325684
 30
0.0
 11
2178.51187157631
 21
-1430.83421325684
 31
0.0
  0
LINE
  5
   45F
  8
0
  6
CONTINUOUS
 62
     7
 10
2172.51185631752
 20
-1440.33422851563
 30
0.0
 11
2172.51185631752
 21
-1441.83422851563
 31
0.0
  0
LINE
  5
   460
  8
0
  6
CONTINUOUS
 62
     7
 10
2171.01185631752
 20
-1441.83422851563
 30
0.0
 11
2171.01185631752
 21
-1455.33421325682
 31
0.0
  0
LINE
  5
   461
  8
0
  6
CONTINUOUS
 62
     7
 10
2167.01185631752
 20
-1441.83422851563
 30
0.0
 11
2171.01185631752
 21
-1441.83422851563
 31
0.0
  0
LINE
  5
   462
  8
0
  6
CONTINUOUS
 62
     7
 10
2167.01185631752
 20
-1440.33422851563
 30
0.0
 11
2172.51185631752
 21
-1440.33422851563
 31
0.0
  0
LINE
  5
   463
  8
0
  6
CONTINUOUS
 62
     7
 10
2167.01185631752
 20
-1352.33422851563
 30
0.0
 11
2172.51187157631
 21
-1352.33422851563
 31
0.0
  0
LINE
  5
   464
  8
0
  6
CONTINUOUS
 62
     7
 10
2172.51185631752
 20
-1350.83422851563
 30
0.0
 11
2172.51185631752
 21
-1352.33422851563
 31
0.0
  0
LINE
  5
   465
  8
0
  6
CONTINUOUS
 62
     7
 10
2167.01185631752
 20
-1350.83422851563
 30
0.0
 11
2171.01185631752
 21
-1350.83422851563
 31
0.0
  0
LINE
  5
   466
  8
0
  6
CONTINUOUS
 62
     7
 10
2171.01185631752
 20
-1337.33422851563
 30
0.0
 11
2171.01185631752
 21
-1350.83422851563
 31
0.0
  0
LINE
  5
   467
  8
0
  6
CONTINUOUS
 62
     7
 10
2133.02704620361
 20
-1450.33421657107
 30
0.0
 11
2146.00085481408
 21
-1450.33421657107
 31
0.0
  0
LINE
  5
   468
  8
0
  6
CONTINUOUS
 62
     7
 10
2133.02704620361
 20
-1449.83421657107
 30
0.0
 11
2146.00085481408
 21
-1449.83421657107
 31
0.0
  0
LINE
  5
   469
  8
0
  6
CONTINUOUS
 62
     7
 10
2133.02704620361
 20
-1444.83421657107
 30
0.0
 11
2146.00085481408
 21
-1444.83421657107
 31
0.0
  0
LINE
  5
   46A
  8
0
  6
CONTINUOUS
 62
     7
 10
2133.02704620361
 20
-1444.33421657107
 30
0.0
 11
2146.00085481408
 21
-1444.33421657107
 31
0.0
  0
LINE
  5
   46B
  8
0
  6
CONTINUOUS
 62
     7
 10
2133.52704620361
 20
-1444.33421657107
 30
0.0
 11
2133.52704620361
 21
-1450.33421657107
 31
0.0
  0
LINE
  5
   46C
  8
0
  6
CONTINUOUS
 62
     7
 10
2133.02704620361
 20
-1449.83421657107
 30
0.0
 11
2133.52704620361
 21
-1450.33421657107
 31
0.0
  0
LINE
  5
   46D
  8
0
  6
CONTINUOUS
 62
     7
 10
2133.52704620361
 20
-1444.33421657107
 30
0.0
 11
2133.02704620361
 21
-1444.83421657107
 31
0.0
  0
LINE
  5
   46E
  8
0
  6
DOT
 62
     7
 10
2133.02704620361
 20
-1444.83421657107
 30
0.0
 11
2133.02704620361
 21
-1449.83421657107
 31
0.0
  0
LINE
  5
   46F
  8
0
  6
CONTINUOUS
 62
     7
 10
2145.52710914612
 20
-1450.33421657107
 30
0.0
 11
2145.52710914612
 21
-1453.33422851563
 31
0.0
  0
LINE
  5
   470
  8
0
  6
CONTINUOUS
 62
     7
 10
2105.01187996156
 20
-1414.03423368844
 30
0.0
 11
2149.01186531467
 21
-1414.03423368844
 31
0.0
  0
LINE
  5
   471
  8
0
  6
CONTINUOUS
 62
     7
 10
2167.01185631752
 20
-1341.33423019517
 30
0.0
 11
2167.01185631752
 21
-1352.33422851563
 31
0.0
  0
LINE
  5
   472
  8
0
  6
CONTINUOUS
 62
     7
 10
2103.51188513438
 20
-1340.33423019517
 30
0.0
 11
2166.01185631752
 21
-1340.33423019517
 31
0.0
  0
ARC
  5
   473
  8
0
  6
CONTINUOUS
 62
     7
 10
2166.01185631752
 20
-1341.33423019517
 30
0.0
 40
1.0
 50
359.999999844103
 51
449.999999844103
  0
ARC
  5
   474
  8
0
  6
CONTINUOUS
 62
     7
 10
2170.01185631752
 20
-1337.33422851563
 30
0.0
 40
1.0
 50
359.999999844103
 51
449.999999844103
  0
ARC
  5
   475
  8
0
  6
CONTINUOUS
 62
     7
 10
2172.51187157631
 20
-1353.33422851563
 30
0.0
 40
1.0
 50
359.999999844103
 51
449.999999844103
  0
ARC
  5
   476
  8
0
  6
CONTINUOUS
 62
     7
 10
2166.01185631752
 20
-1451.33422683608
 30
0.0
 40
1.0
 50
269.999999844103
 51
359.999999844103
  0
LINE
  5
   477
  8
0
  6
CONTINUOUS
 62
     7
 10
2167.01185631752
 20
-1440.33422851563
 30
0.0
 11
2167.01185631752
 21
-1451.33422683608
 31
0.0
  0
ARC
  5
   478
  8
0
  6
CONTINUOUS
 62
     7
 10
2172.51185631752
 20
-1439.33422851563
 30
0.0
 40
1.0
 50
269.999999844103
 51
359.999999844103
  0
ARC
  5
   479
  8
0
  6
CONTINUOUS
 62
     7
 10
2170.01185631752
 20
-1455.33421325682
 30
0.0
 40
1.0
 50
269.999999844103
 51
359.999999844103
  0
LINE
  5
   47A
  8
0
  6
DASHDOT
 62
     7
 10
2094.84107859677
 20
-1408.33421325684
 30
0.0
 11
2184.06937517584
 21
-1408.33421325684
 31
0.0
  0
LINE
  5
   47B
  8
0
  6
CONTINUOUS
 62
     7
 10
2131.02704620361
 20
-1441.33422851563
 30
0.0
 11
2131.02704620361
 21
-1452.33422683608
 31
0.0
  0
LINE
  5
   47C
  8
0
  6
CONTINUOUS
 62
     7
 10
2131.02704620361
 20
-1441.33422851563
 30
0.0
 11
2131.02704620361
 21
-1453.83508926254
 31
0.0
  0
LINE
  5
   47D
  8
0
  6
CONTINUOUS
 62
     7
 10
2133.52710914612
 20
-1456.33422851563
 30
0.0
 11
2149.01187133789
 21
-1456.33422851563
 31
0.0
  0
LINE
  5
   47E
  8
0
  6
CONTINUOUS
 62
     7
 10
2123.76931190874
 20
-1440.35861115482
 30
0.0
 11
2146.00085481408
 21
-1440.35861115482
 31
0.0
  0
LINE
  5
   47F
  8
0
  6
CONTINUOUS
 62
     7
 10
2123.76931190874
 20
-1440.35861115482
 30
0.0
 11
2123.76931190874
 21
-1456.33422851563
 31
0.0
  0
LINE
  5
   480
  8
0
  6
CONTINUOUS
 62
     7
 10
2146.00085481408
 20
-1452.33422683608
 30
0.0
 11
2166.01185631752
 21
-1452.33422683608
 31
0.0
  0
LINE
  5
   481
  8
0
  6
CONTINUOUS
 62
     7
 10
2103.51188468933
 20
-1452.33422683608
 30
0.0
 11
2123.76931190874
 21
-1452.33422683608
 31
0.0
  0
LINE
  5
   482
  8
0
  6
CONTINUOUS
 62
     7
 10
2119.01187076569
 20
-1346.57731911453
 30
0.0
 11
2121.07618993975
 21
-1351.33422851563
 31
0.0
  0
LINE
  5
   483
  8
0
  6
CONTINUOUS
 62
     7
 10
2119.01187076569
 20
-1341.5533689143
 30
0.0
 11
2123.25639474362
 21
-1351.33422851563
 31
0.0
  0
LINE
  5
   484
  8
0
  6
CONTINUOUS
 62
     7
 10
2120.01169771392
 20
-1338.83336776871
 30
0.0
 11
2125.43659954749
 21
-1351.33422851563
 31
0.0
  0
LINE
  5
   485
  8
0
  6
CONTINUOUS
 62
     7
 10
2122.19190251779
 20
-1338.83336776871
 30
0.0
 11
2127.61680435136
 21
-1351.33422851563
 31
0.0
  0
LINE
  5
   486
  8
0
  6
CONTINUOUS
 62
     7
 10
2124.37210732167
 20
-1338.83336776871
 30
0.0
 11
2129.79700915524
 21
-1351.33422851563
 31
0.0
  0
LINE
  5
   487
  8
0
  6
CONTINUOUS
 62
     7
 10
2126.55231212554
 20
-1338.83336776871
 30
0.0
 11
2130.51188356877
 21
-1347.95759761614
 31
0.0
  0
LINE
  5
   488
  8
0
  6
CONTINUOUS
 62
     7
 10
2128.73251692941
 20
-1338.83336776871
 30
0.0
 11
2130.51188356877
 21
-1342.93364741591
 31
0.0
  0
LINE
  5
   489
  8
0
  6
CONTINUOUS
 62
     7
 10
2116.52704620361
 20
-1338.83336776871
 30
0.0
 11
2133.02704620361
 21
-1338.83336776871
 31
0.0
  0
LINE
  5
   48A
  8
0
  6
CONTINUOUS
 62
     7
 10
2116.52704620361
 20
-1320.91960914528
 30
0.0
 11
2116.52704620361
 21
-1338.83336776871
 31
0.0
  0
LINE
  5
   48B
  8
0
  6
CONTINUOUS
 62
     7
 10
2133.02704620361
 20
-1320.91960914528
 30
0.0
 11
2133.02704620361
 21
-1338.83336776871
 31
0.0
  0
LINE
  5
   48C
  8
0
  6
CONTINUOUS
 62
     7
 10
2115.64134044717
 20
-1320.91960914528
 30
0.0
 11
2133.94498657992
 21
-1320.91960914528
 31
0.0
  0
LINE
  5
   48D
  8
0
  6
CONTINUOUS
 62
     7
 10
2106.01188513438
 20
-1404.03423368844
 30
0.0
 11
2149.01186531467
 21
-1404.03423368844
 31
0.0
  0
LINE
  5
   48E
  8
0
  6
CONTINUOUS
 62
     7
 10
2171.01185631752
 20
-1350.83422851563
 30
0.0
 11
2172.51185631752
 21
-1350.83422851563
 31
0.0
  0
LINE
  5
   48F
  8
0
  6
CONTINUOUS
 62
     7
 10
2171.01185631752
 20
-1441.83422851563
 30
0.0
 11
2172.51185631752
 21
-1441.83422851563
 31
0.0
  0
LINE
  5
   490
  8
0
  6
CONTINUOUS
 62
     7
 10
2173.51187896729
 20
-1374.08421325684
 30
0.0
 11
2173.51187896729
 21
-1378.58421325684
 31
0.0
  0
LINE
  5
   491
  8
0
  6
CONTINUOUS
 62
     7
 10
2146.00085481408
 20
-1440.35861115482
 30
0.0
 11
2146.00085481408
 21
-1456.33422851563
 31
0.0
  0
LINE
  5
   492
  8
0
  6
DOT
 62
     7
 10
2146.00085481408
 20
-1444.33421657107
 30
0.0
 11
2152.01194591522
 21
-1444.33421657107
 31
0.0
  0
LINE
  5
   493
  8
0
  6
DOT
 62
     7
 10
2146.00085481408
 20
-1444.83421657107
 30
0.0
 11
2153.01192825717
 21
-1444.83421657107
 31
0.0
  0
LINE
  5
   494
  8
0
  6
DASHDOT
 62
     7
 10
2146.00085481408
 20
-1447.33421325682
 30
0.0
 11
2152.60380121837
 21
-1447.33421325682
 31
0.0
  0
LINE
  5
   495
  8
0
  6
DOT
 62
     7
 10
2146.00085481408
 20
-1449.83421657107
 30
0.0
 11
2153.01192825717
 21
-1449.83421657107
 31
0.0
  0
LINE
  5
   496
  8
0
  6
DOT
 62
     7
 10
2146.00085481408
 20
-1450.33421657107
 30
0.0
 11
2152.01194591522
 21
-1450.33421657107
 31
0.0
  0
LINE
  5
   497
  8
0
  6
DASHDOT
 62
     7
 10
2129.36711120445
 20
-1345.33422290818
 30
0.0
 11
2172.85543482778
 21
-1345.33422290818
 31
0.0
  0
LINE
  5
   498
  8
0
  6
DOT
 62
     7
 10
2153.01192825717
 20
-1340.33424377443
 30
0.0
 11
2153.01192825717
 21
-1350.33423648744
 31
0.0
  0
LINE
  5
   499
  8
0
  6
DASHDOT
 62
     7
 10
2141.57393462393
 20
-1345.33422290818
 30
0.0
 11
2172.8554350662
 21
-1345.33422290818
 31
0.0
  0
ARC
  5
   49A
  8
0
  6
DOT
 62
     7
 10
2152.01194591522
 20
-1349.33422622242
 30
0.0
 40
1.0
 50
359.999999844103
 51
449.999999844103
  0
ARC
  5
   49B
  8
0
  6
DOT
 62
     7
 10
2152.01194591522
 20
-1341.33422622242
 30
0.0
 40
1.0
 50
269.999999844103
 51
359.999999844103
  0
LINE
  5
   49C
  8
0
  6
DOT
 62
     7
 10
2155.01194591522
 20
-1340.33424377443
 30
0.0
 11
2155.01194591522
 21
-1350.33424377443
 31
0.0
  0
ARC
  5
   49D
  8
0
  6
DOT
 62
     7
 10
2155.01194591522
 20
-1348.33424377443
 30
0.0
 40
2.0
 50
269.999999844103
 51
359.999999844103
  0
LINE
  5
   49E
  8
0
  6
DOT
 62
     7
 10
2157.01194591522
 20
-1346.08424377443
 30
0.0
 11
2157.01194591522
 21
-1348.33424377443
 31
0.0
  0
LINE
  5
   49F
  8
0
  6
DOT
 62
     7
 10
2157.01194591522
 20
-1342.33424377443
 30
0.0
 11
2157.01194591522
 21
-1344.58424377443
 31
0.0
  0
ARC
  5
   4A0
  8
0
  6
DOT
 62
     7
 10
2155.01194591522
 20
-1342.33424377443
 30
0.0
 40
2.0
 50
359.999999844103
 51
449.999999844103
  0
ARC
  5
   4A1
  8
0
  6
DOT
 62
     7
 10
2156.76194591522
 20
-1346.08424377443
 30
0.0
 40
0.25
 50
359.999999844103
 51
449.999999844103
  0
LINE
  5
   4A2
  8
0
  6
DOT
 62
     7
 10
2155.51194591522
 20
-1345.83424377443
 30
0.0
 11
2156.76194591522
 21
-1345.83424377443
 31
0.0
  0
LINE
  5
   4A3
  8
0
  6
DOT
 62
     7
 10
2155.51194591522
 20
-1344.83424377443
 30
0.0
 11
2155.51194591522
 21
-1345.83424377443
 31
0.0
  0
LINE
  5
   4A4
  8
0
  6
DOT
 62
     7
 10
2155.51194591522
 20
-1344.83424377443
 30
0.0
 11
2156.76194591522
 21
-1344.83424377443
 31
0.0
  0
ARC
  5
   4A5
  8
0
  6
DOT
 62
     7
 10
2156.76194591522
 20
-1344.58424377443
 30
0.0
 40
0.25
 50
269.999999844103
 51
359.999999844103
  0
LINE
  5
   4A6
  8
0
  6
DOT
 62
     7
 10
2153.01194591522
 20
-1340.33424377443
 30
0.0
 11
2155.01194591522
 21
-1340.33424377443
 31
0.0
  0
LINE
  5
   4A7
  8
0
  6
DOT
 62
     7
 10
2146.00085481408
 20
-1342.33422622242
 30
0.0
 11
2152.01194591522
 21
-1342.33422622242
 31
0.0
  0
LINE
  5
   4A8
  8
0
  6
DOT
 62
     7
 10
2146.00085481408
 20
-1342.83422622242
 30
0.0
 11
2153.01192825717
 21
-1342.83422622242
 31
0.0
  0
LINE
  5
   4A9
  8
0
  6
DASHDOT
 62
     7
 10
2146.00085481408
 20
-1345.33422290818
 30
0.0
 11
2152.60380121837
 21
-1345.33422290818
 31
0.0
  0
LINE
  5
   4AA
  8
0
  6
DOT
 62
     7
 10
2146.00085481408
 20
-1347.83422622242
 30
0.0
 11
2153.01192825717
 21
-1347.83422622242
 31
0.0
  0
LINE
  5
   4AB
  8
0
  6
DOT
 62
     7
 10
2146.00085481408
 20
-1348.33422622242
 30
0.0
 11
2152.01194591522
 21
-1348.33422622242
 31
0.0
  0
LINE
  5
   4AC
  8
0
  6
DASHDOT
 62
     7
 10
2196.51188468933
 20
-1415.79391944178
 30
0.0
 11
2196.51188468933
 21
-1424.4424960962
 31
0.0
  0
LINE
  5
   4AD
  8
0
  6
CONTINUOUS
 62
     7
 10
2142.02710914612
 20
-1441.33422851563
 30
0.0
 11
2142.02710914612
 21
-1444.33421657107
 31
0.0
  0
LINE
  5
   4AE
  8
0
  6
CONTINUOUS
 62
     7
 10
2142.02710914612
 20
-1450.33421657107
 30
0.0
 11
2142.02710914612
 21
-1453.33422851563
 31
0.0
  0
LINE
  5
   4AF
  8
0
  6
CONTINUOUS
 62
     7
 10
2131.02704620361
 20
-1453.33422851563
 30
0.0
 11
2145.52710914612
 21
-1453.33422851563
 31
0.0
  0
INSERT
  5
   4B0
  8
0
  6
CONTINUOUS
 62
     7
  2
*HATCH105
 10
2168.71997070313
 20
-1410.83422851563
 30
0.0
 50
269.999999844103
  0
INSERT
  5
   4B1
  8
0
  6
CONTINUOUS
 62
     7
  2
*HATCH106
 10
2168.71997070313
 20
-1410.83422851563
 30
0.0
 50
269.999999844103
  0
INSERT
  5
   4B2
  8
0
  6
CONTINUOUS
 62
     7
  2
*HATCH107
 10
2168.71997070313
 20
-1410.83422851563
 30
0.0
 50
269.999999844103
  0
INSERT
  5
   4B3
  8
0
  6
CONTINUOUS
 62
     7
  2
*UDIM171
 10
0.0
 20
0.0
 30
0.0
  0
INSERT
  5
   4B4
  8
0
  6
CONTINUOUS
 62
     7
  2
*UDIM172
 10
0.0
 20
0.0
 30
0.0
  0
TEXT
  5
   4B5
  8
0
  6
CONTINUOUS
 62
     2
 10
2087.81155454034
 20
-1409.80154914172
 30
0.0
 40
3.00000002980232
  1
X
 50
359.999999844103
 41
0.916666674282816
 72
     2
 11
2090.0115546219
 21
-1408.3015491328
 31
0.0
 73
     2
  0
TEXT
  5
   4B6
  8
0
  6
CONTINUOUS
 62
     2
 10
2148.62937105015
 20
-1561.79337880079
 30
0.0
 40
3.00000002980232
  1
RC 211-212/2
 50
359.999999844103
 41
0.916666604744064
 72
     1
 11
2164.85437011719
 21
-1560.29337882996
 31
0.0
 73
     2
  0
TEXT
  5
   4B7
  8
0
  6
CONTINUOUS
 62
     2
 10
2029.94811992448
 20
-1545.68844607808
 30
0.0
 40
2.00000008940697
  1
MOSTOSI
 50
359.999999844103
 41
0.625
 72
     1
 11
2034.19812011719
 21
-1544.68844604492
 31
0.0
 73
     2
  0
TEXT
  5
   4B8
  8
0
  6
CONTINUOUS
 62
     2
 10
2136.63762658603
 20
-1571.58636474369
 30
0.0
 40
5.00000011920929
  1
601855/311
 50
359.999999844103
 41
0.933334026137971
 72
     1
 11
2159.4709777832
 21
-1569.08636474609
 31
0.0
 73
     2
  0
TEXT
  5
   4B9
  8
0
  6
CONTINUOUS
 62
     2
 10
2184.89986262808
 20
-1409.95807648896
 30
0.0
 40
3.00000002980232
  1
X
 50
359.999999844103
 41
0.916666674282816
 72
     1
 11
2185.9998626709
 21
-1408.45807647705
 31
0.0
 73
     2
  0
INSERT
  5
   4BA
  8
0
  6
CONTINUOUS
 62
     3
  2
*UDIM173
 10
0.0
 20
0.0
 30
0.0
  0
INSERT
  5
   4BB
  8
0
  6
CONTINUOUS
 62
     3
  2
*UDIM174
 10
0.0
 20
0.0
 30
0.0
  0
INSERT
  5
   4BC
  8
0
  6
CONTINUOUS
 62
     3
  2
*UDIM175
 10
0.0
 20
0.0
 30
0.0
  0
INSERT
  5
   4BD
  8
0
  6
CONTINUOUS
 62
     3
  2
*UDIM176
 10
0.0
 20
0.0
 30
0.0
  0
INSERT
  5
   4BE
  8
0
  6
CONTINUOUS
 62
     7
  2
*UDIM177
 10
0.0
 20
0.0
 30
0.0
  0
TEXT
  5
   4BF
  8
0
  6
CONTINUOUS
 62
     7
 10
2091.7941679547
 20
-1495.54209799351
 30
0.0
 40
8.00000035762787
  1
_
 50
449.999999844103
 41
0.933333333333333
 72
     2
 11
2083.794167613
 21
-1489.67543104287
 31
0.0
 73
     3
  0
INSERT
  5
   4C0
  8
255
  6
CONTINUOUS
 62
     7
  2
DIA_LATO
 10
2103.51188513438
 20
-1336.33424377441
 30
0.0
 50
359.999999792138
  0
TEXT
  5
   4C1
  8
0
  6
CONTINUOUS
 62
     2
 10
2029.43528728288
 20
-1542.19787600029
 30
0.0
 40
2.00000008940697
  1
12/4/94
 50
359.999999844103
 41
0.625
 72
     1
 11
2033.68528747559
 21
-1541.19787596713
 31
0.0
 73
     2
  0
TEXT
  5
   4C2
  8
0
  6
CONTINUOUS
 62
     2
 10
2128.92388630916
 20
-1545.78494191101
 30
0.0
 40
2.00000008940697
  1
INTERR.AUTOMATICO SERIE ISOMAX DIFFERENZIALE
 50
359.999999844103
 41
0.625
 72
     1
 11
2156.29888753563
 21
-1544.78494194066
 31
0.0
 73
     2
  0
TEXT
  5
   4C3
  8
0
  6
CONTINUOUS
 62
     2
 10
2121.42388610502
 20
-1548.78494189064
 30
0.0
 40
2.00000008940697
  1
RC 211-212/2 AFFIANCATO ESECUZ.FISSA TERMINALI ANTERIORI
 50
359.999999844103
 41
0.625
 72
     1
 11
2156.29888766677
 21
-1547.78494194066
 31
0.0
 73
     2
  0
TEXT
  5
   4C4
  8
0
  6
CONTINUOUS
 62
     2
 10
2121.42388623615
 20
-1551.78494189064
 30
0.0
 40
2.00000008940697
  1
4POLE LOW VOLTAGE M.C.C.B.SERIES ISOMAX SELECTED CURRENT
 50
359.999999844103
 41
0.625
 72
     1
 11
2156.2988877979
 21
-1550.78494194066
 31
0.0
 73
     2
  0
TEXT
  5
   4C5
  8
0
  6
CONTINUOUS
 62
     2
 10
2122.04888639523
 20
-1554.78494189234
 30
0.0
 40
2.00000008940697
  1
RC 211-212/2 SIDE BY SIDE FIXED VERSION FRONT TERMINALS
 50
359.999999844103
 41
0.625
 72
     1
 11
2156.29888792904
 21
-1553.78494194066
 31
0.0
 73
     2
  0
LINE
  5
   4C6
  8
0
  6
DOT
 62
     7
 10
1996.41736083675
 20
-1456.33422851563
 30
0.0
 11
1996.41736083675
 21
-1458.33410644531
 31
0.0
  0
LINE
  5
   4C7
  8
0
  6
CONTINUOUS
 62
     7
 10
1991.41736083675
 20
-1458.33410644531
 30
0.0
 11
1994.41723735505
 21
-1458.33410644531
 31
0.0
  0
LINE
  5
   4C8
  8
0
  6
CONTINUOUS
 62
     7
 10
1991.41736083675
 20
-1456.33422851563
 30
0.0
 11
1991.41736083675
 21
-1458.33410644531
 31
0.0
  0
LINE
  5
   4C9
  8
0
  6
DOT
 62
     7
 10
1995.41736083675
 20
-1458.33410644531
 30
0.0
 11
1995.41736083675
 21
-1461.33410644531
 31
0.0
  0
LINE
  5
   4CA
  8
0
  6
CONTINUOUS
 62
     7
 10
1993.41736083675
 20
-1458.33410644531
 30
0.0
 11
1993.41736083675
 21
-1461.33410644531
 31
0.0
  0
LINE
  5
   4CB
  8
0
  6
CONTINUOUS
 62
     7
 10
1989.13730096518
 20
-1466.33410644531
 30
0.0
 11
1990.41736083675
 21
-1466.33410644531
 31
0.0
  0
LINE
  5
   4CC
  8
0
  6
CONTINUOUS
 62
     7
 10
1989.13730096518
 20
-1464.33410644531
 30
0.0
 11
1990.41736083675
 21
-1464.33410644531
 31
0.0
  0
ARC
  5
   4CD
  8
0
  6
CONTINUOUS
 62
     7
 10
1990.41736083675
 20
-1461.33410644531
 30
0.0
 40
3.0
 50
629.999999844103
 51
719.999999844103
  0
ARC
  5
   4CE
  8
0
  6
CONTINUOUS
 62
     7
 10
1990.41736083675
 20
-1461.33410644531
 30
0.0
 40
5.0
 50
629.999999844103
 51
683.127743936293
  0
ARC
  5
   4CF
  8
0
  6
CONTINUOUS
 62
     7
 10
1988.41736083675
 20
-1461.33410644531
 30
0.0
 40
7.0
 50
275.90322855621
 51
328.995318519738
  0
LINE
  5
   4D0
  8
0
  6
CONTINUOUS
 62
     7
 10
1989.13730096518
 20
-1463.83410644531
 30
0.0
 11
1989.13730096518
 21
-1468.83410644531
 31
0.0
  0
LINE
  5
   4D1
  8
0
  6
CONTINUOUS
 62
     7
 10
1893.38628157932
 20
-1463.83410644531
 30
0.0
 11
1893.38628157932
 21
-1468.83410644531
 31
0.0
  0
LINE
  5
   4D2
  8
0
  6
CONTINUOUS
 62
     7
 10
1893.38628157932
 20
-1463.83410644531
 30
0.0
 11
1964.41723735505
 21
-1463.83410644531
 31
0.0
  0
LINE
  5
   4D3
  8
0
  6
CONTINUOUS
 62
     7
 10
1893.38628157932
 20
-1468.83410644531
 30
0.0
 11
1964.41723735505
 21
-1468.83410644531
 31
0.0
  0
LINE
  5
   4D4
  8
0
  6
CONTINUOUS
 62
     7
 10
1891.59692821119
 20
-1468.08410644531
 30
0.0
 11
1893.38628157932
 21
-1468.08410644531
 31
0.0
  0
ARC
  5
   4D5
  8
0
  6
CONTINUOUS
 62
     7
 10
1891.59692821119
 20
-1454.33410644531
 30
0.0
 40
13.75
 50
548.364051497681
 51
629.999999844103
  0
ARC
  5
   4D6
  8
0
  6
CONTINUOUS
 62
     7
 10
1891.51152481816
 20
-1454.33410644531
 30
0.0
 40
12.25
 50
549.396983595279
 51
629.999999844103
  0
LINE
  5
   4D7
  8
0
  6
CONTINUOUS
 62
     7
 10
1891.51152481816
 20
-1466.58410644531
 30
0.0
 11
1893.38628157932
 21
-1466.58410644531
 31
0.0
  0
ARC
  5
   4D8
  8
0
  6
CONTINUOUS
 62
     7
 10
1891.4260577827
 20
-1454.33410644531
 30
0.0
 40
10.5
 50
550.981168984911
 51
629.999999844103
  0
LINE
  5
   4D9
  8
0
  6
CONTINUOUS
 62
     7
 10
1891.4260577827
 20
-1464.83410644531
 30
0.0
 11
1893.38628157932
 21
-1464.83410644531
 31
0.0
  0
LINE
  5
   4DA
  8
0
  6
DOT
 62
     7
 10
1953.91735839844
 20
-1396.63422851563
 30
0.0
 11
1953.91735839844
 21
-1414.03422851563
 31
0.0
  0
LINE
  5
   4DB
  8
0
  6
DOT
 62
     7
 10
1955.49412420482
 20
-1396.13422851563
 30
0.0
 11
1956.86786291455
 21
-1396.63422851563
 31
0.0
  0
LINE
  5
   4DC
  8
0
  6
DOT
 62
     7
 10
1956.86786291455
 20
-1414.03422851563
 30
0.0
 11
1955.49412420482
 21
-1414.53422851563
 31
0.0
  0
LINE
  5
   4DD
  8
0
  6
DOT
 62
     7
 10
1956.86786291455
 20
-1396.63422851563
 30
0.0
 11
1957.41735839844
 21
-1396.63422851563
 31
0.0
  0
LINE
  5
   4DE
  8
0
  6
DOT
 62
     7
 10
1956.86786291455
 20
-1414.03422851563
 30
0.0
 11
1957.41735839844
 21
-1414.03422851563
 31
0.0
  0
LINE
  5
   4DF
  8
0
  6
DOT
 62
     7
 10
1954.41735839844
 20
-1396.13422851563
 30
0.0
 11
1955.49412420482
 21
-1396.13422851563
 31
0.0
  0
LINE
  5
   4E0
  8
0
  6
DOT
 62
     7
 10
1954.41735839844
 20
-1414.53422851563
 30
0.0
 11
1955.49412420482
 21
-1414.53422851563
 31
0.0
  0
LINE
  5
   4E1
  8
0
  6
CONTINUOUS
 62
     7
 10
2090.330078125
 20
-1290.83422851563
 30
0.0
 11
2090.330078125
 21
-1290.83422851563
 31
0.0
  0
LINE
  5
   4E2
  8
0
  6
CONTINUOUS
 62
     7
 10
2090.330078125
 20
-1290.83422851563
 30
0.0
 11
2090.330078125
 21
-1290.83422851563
 31
0.0
  0
LINE
  5
   4E3
  8
0
  6
CONTINUOUS
 62
     7
 10
2090.330078125
 20
-1290.83422851563
 30
0.0
 11
2090.330078125
 21
-1290.83422851563
 31
0.0
  0
LINE
  5
   4E4
  8
0
  6
CONTINUOUS
 62
     7
 10
2090.330078125
 20
-1290.83422851563
 30
0.0
 11
2090.330078125
 21
-1290.83422851563
 31
0.0
  0
LINE
  5
   4E5
  8
0
  6
CONTINUOUS
 62
     7
 10
2090.330078125
 20
-1290.83422851563
 30
0.0
 11
2090.330078125
 21
-1290.83422851563
 31
0.0
  0
LINE
  5
   4E6
  8
0
  6
CONTINUOUS
 62
     7
 10
2090.330078125
 20
-1290.83422851563
 30
0.0
 11
2090.330078125
 21
-1290.83422851563
 31
0.0
  0
LINE
  5
   4E7
  8
0
  6
CONTINUOUS
 62
     7
 10
2090.330078125
 20
-1290.83422851563
 30
0.0
 11
2090.330078125
 21
-1290.83422851563
 31
0.0
  0
LINE
  5
   4E8
  8
0
  6
CONTINUOUS
 62
     7
 10
2090.330078125
 20
-1290.83422851563
 30
0.0
 11
2090.330078125
 21
-1290.83422851563
 31
0.0
  0
LINE
  5
   4E9
  8
0
  6
CONTINUOUS
 62
     7
 10
1898.91734409332
 20
-1456.33421325683
 30
0.0
 11
1912.41734416658
 21
-1456.33421325683
 31
0.0
  0
LINE
  5
   4EA
  8
0
  6
CONTINUOUS
 62
     7
 10
1868.91731501926
 20
-1456.33421325683
 30
0.0
 11
1895.91734409332
 21
-1456.33421325683
 31
0.0
  0
LINE
  5
   4EB
  8
0
  6
CONTINUOUS
 62
     7
 10
1868.91731501926
 20
-1336.33422851562
 30
0.0
 11
1895.91735187532
 21
-1336.33422851562
 31
0.0
  0
LINE
  5
   4EC
  8
0
  6
CONTINUOUS
 62
     7
 10
1898.91734313965
 20
-1336.33422851562
 30
0.0
 11
1912.41732860262
 21
-1336.33422851562
 31
0.0
  0
LINE
  5
   4ED
  8
0
  6
CONTINUOUS
 62
     7
 10
1837.41737831116
 20
-1341.33422517493
 30
0.0
 11
1837.41737998963
 21
-1352.33424028114
 31
0.0
  0
LINE
  5
   4EE
  8
0
  6
CONTINUOUS
 62
     7
 10
1837.41739196777
 20
-1430.83419799804
 30
0.0
 11
1912.41736145019
 21
-1430.83419799804
 31
0.0
  0
LINE
  5
   4EF
  8
0
  6
CONTINUOUS
 62
     7
 10
1899.91734409332
 20
-1452.83421325683
 30
0.0
 11
1899.91734409332
 21
-1456.33421325683
 31
0.0
  0
LINE
  5
   4F0
  8
0
  6
CONTINUOUS
 62
     7
 10
1898.91734409332
 20
-1455.08421325683
 30
0.0
 11
1898.91734409332
 21
-1456.33421325683
 31
0.0
  0
LINE
  5
   4F1
  8
0
  6
CONTINUOUS
 62
     7
 10
1895.91734409332
 20
-1455.08419799805
 30
0.0
 11
1895.91734409332
 21
-1456.33421325683
 31
0.0
  0
LINE
  5
   4F2
  8
0
  6
CONTINUOUS
 62
     7
 10
1894.91734409332
 20
-1452.83421325683
 30
0.0
 11
1894.91734409332
 21
-1456.33421325683
 31
0.0
  0
LINE
  5
   4F3
  8
0
  6
CONTINUOUS
 62
     7
 10
1894.91734409332
 20
-1452.83421325683
 30
0.0
 11
1899.91734409332
 21
-1452.83421325683
 31
0.0
  0
LINE
  5
   4F4
  8
0
  6
CONTINUOUS
 62
     7
 10
1894.91734313965
 20
-1339.83422851562
 30
0.0
 11
1899.91734313965
 21
-1339.83422851562
 31
0.0
  0
LINE
  5
   4F5
  8
0
  6
CONTINUOUS
 62
     7
 10
1894.91734313965
 20
-1338.58422851562
 30
0.0
 11
1894.91734313965
 21
-1339.83422851562
 31
0.0
  0
LINE
  5
   4F6
  8
0
  6
CONTINUOUS
 62
     7
 10
1895.91734313965
 20
-1336.33422851562
 30
0.0
 11
1895.91734313965
 21
-1337.58422851562
 31
0.0
  0
LINE
  5
   4F7
  8
0
  6
CONTINUOUS
 62
     7
 10
1898.91734313965
 20
-1336.33422851562
 30
0.0
 11
1898.91734313965
 21
-1337.58422851562
 31
0.0
  0
LINE
  5
   4F8
  8
0
  6
CONTINUOUS
 62
     7
 10
1899.91734485624
 20
-1338.58423614496
 30
0.0
 11
1899.91734390256
 21
-1339.83423614496
 31
0.0
  0
LINE
  5
   4F9
  8
0
  6
CONTINUOUS
 62
     7
 10
1911.16734313965
 20
-1336.33421325683
 30
0.0
 11
1913.66734218597
 21
-1336.33421325683
 31
0.0
  0
CIRCLE
  5
   4FA
  8
0
  6
CONTINUOUS
 62
     7
 10
1897.41732225773
 20
-1346.33416262194
 30
0.0
 40
4.4999575073053
  0
LINE
  5
   4FB
  8
0
  6
CONTINUOUS
 62
     7
 10
1837.41738510132
 20
-1385.83419799805
 30
0.0
 11
1912.41735458374
 21
-1385.83419799805
 31
0.0
  0
CIRCLE
  5
   4FC
  8
0
  6
CONTINUOUS
 62
     7
 10
1882.41734416658
 20
-1453.33421325683
 30
0.0
 40
1.25
  0
ARC
  5
   4FD
  8
0
  6
CONTINUOUS
 62
     7
 10
1912.41734416658
 20
-1453.33421325683
 30
0.0
 40
1.25
 50
449.999999844103
 51
629.999999844103
  0
ARC
  5
   4FE
  8
0
  6
CONTINUOUS
 62
     7
 10
1912.41732860262
 20
-1339.33422851562
 30
0.0
 40
1.25
 50
449.999999844103
 51
629.999999844103
  0
CIRCLE
  5
   4FF
  8
0
  6
CONTINUOUS
 62
     7
 10
1882.4173663742
 20
-1339.33423767089
 30
0.0
 40
1.25
  0
LINE
  5
   500
  8
0
  6
CONTINUOUS
 62
     7
 10
1904.91734345871
 20
-1394.19819455684
 30
0.0
 11
1919.0617890041
 21
-1394.19819455684
 31
0.0
  0
LINE
  5
   501
  8
0
  6
CONTINUOUS
 62
     7
 10
1898.91731501926
 20
-1336.33422851562
 30
0.0
 11
1898.91731501926
 21
-1338.33422851562
 31
0.0
  0
LINE
  5
   502
  8
0
  6
CONTINUOUS
 62
     7
 10
1895.91731501926
 20
-1336.33422851562
 30
0.0
 11
1895.91731501926
 21
-1338.33422851562
 31
0.0
  0
LINE
  5
   503
  8
0
  6
CONTINUOUS
 62
     7
 10
1894.91731253972
 20
-1336.33422851562
 30
0.0
 11
1894.91731521001
 21
-1339.83423995965
 31
0.0
  0
LINE
  5
   504
  8
0
  6
CONTINUOUS
 62
     7
 10
1899.91731501926
 20
-1336.33422851562
 30
0.0
 11
1899.91731501926
 21
-1339.83422851562
 31
0.0
  0
LINE
  5
   505
  8
0
  6
CONTINUOUS
 62
     7
 10
1894.91731501926
 20
-1339.83422851562
 30
0.0
 11
1899.91731501926
 21
-1339.83422851562
 31
0.0
  0
LINE
  5
   506
  8
0
  6
CONTINUOUS
 62
     7
 10
1898.91731501926
 20
-1338.33422851562
 30
0.0
 11
1899.91731501926
 21
-1338.33422851562
 31
0.0
  0
LINE
  5
   507
  8
0
  6
CONTINUOUS
 62
     7
 10
1894.91731406559
 20
-1338.33422851562
 30
0.0
 11
1895.91731501926
 21
-1338.33422851562
 31
0.0
  0
LINE
  5
   508
  8
0
  6
CONTINUOUS
 62
     7
 10
1895.91731501926
 20
-1454.33422851562
 30
0.0
 11
1895.91731501926
 21
-1456.33422851562
 31
0.0
  0
LINE
  5
   509
  8
0
  6
CONTINUOUS
 62
     7
 10
1898.91731501926
 20
-1454.33422851562
 30
0.0
 11
1898.91731501926
 21
-1456.33422851562
 31
0.0
  0
LINE
  5
   50A
  8
0
  6
CONTINUOUS
 62
     7
 10
1894.91731406559
 20
-1454.33422851562
 30
0.0
 11
1895.91731501926
 21
-1454.33422851562
 31
0.0
  0
LINE
  5
   50B
  8
0
  6
CONTINUOUS
 62
     7
 10
1898.91731501926
 20
-1454.33422851562
 30
0.0
 11
1899.91731501926
 21
-1454.33422851562
 31
0.0
  0
LINE
  5
   50C
  8
0
  6
CONTINUOUS
 62
     7
 10
1904.9173433876
 20
-1392.33419799805
 30
0.0
 11
1904.91734441421
 21
-1419.24604879268
 31
0.0
  0
LINE
  5
   50D
  8
0
  6
DASHDOT
 62
     7
 10
1891.81736068726
 20
-1420.58421325683
 30
0.0
 11
1891.81736068726
 21
-1431.08421325683
 31
0.0
  0
LINE
  5
   50E
  8
0
  6
CONTINUOUS
 62
     7
 10
1904.91734441421
 20
-1419.24604879268
 30
0.0
 11
1905.91734441421
 21
-1419.24604879268
 31
0.0
  0
LINE
  5
   50F
  8
0
  6
CONTINUOUS
 62
     7
 10
1904.91734439986
 20
-1418.86984530749
 30
0.0
 11
1905.91734439986
 21
-1418.86984530749
 31
0.0
  0
LINE
  5
   510
  8
0
  6
CONTINUOUS
 62
     7
 10
1867.41738819426
 20
-1392.33419799805
 30
0.0
 11
1922.60878211563
 21
-1392.33419799805
 31
0.0
  0
LINE
  5
   511
  8
0
  6
CONTINUOUS
 62
     7
 10
1867.41738819426
 20
-1393.83419799805
 30
0.0
 11
1904.91734344482
 21
-1393.83419799805
 31
0.0
  0
LINE
  5
   512
  8
0
  6
CONTINUOUS
 62
     7
 10
1867.41738819426
 20
-1424.33419799804
 30
0.0
 11
1886.81736068726
 21
-1424.33419799804
 31
0.0
  0
LINE
  5
   513
  8
0
  6
CONTINUOUS
 62
     7
 10
1867.41738819426
 20
-1422.83419799804
 30
0.0
 11
1905.91734455109
 21
-1422.83419799804
 31
0.0
  0
LINE
  5
   514
  8
0
  6
CONTINUOUS
 62
     7
 10
1896.81736068726
 20
-1424.33419799804
 30
0.0
 11
1945.59675966227
 21
-1424.33419799804
 31
0.0
  0
ARC
  5
   515
  8
0
  6
DOT
 62
     7
 10
1954.41735839844
 20
-1396.63422851563
 30
0.0
 40
0.5
 50
449.999999844103
 51
539.999999844103
  0
ARC
  5
   516
  8
0
  6
DOT
 62
     7
 10
1954.41735839844
 20
-1414.03422851563
 30
0.0
 40
0.5
 50
539.999999844103
 51
629.999999844103
  0
LINE
  5
   517
  8
0
  6
CONTINUOUS
 62
     7
 10
1905.91734421614
 20
-1414.05385374248
 30
0.0
 11
1905.91734453707
 21
-1422.46686493875
 31
0.0
  0
LINE
  5
   518
  8
0
  6
CONTINUOUS
 62
     7
 10
2090.330078125
 20
-1290.83422851563
 30
0.0
 11
2090.330078125
 21
-1290.83422851563
 31
0.0
  0
LINE
  5
   519
  8
0
  6
CONTINUOUS
 62
     7
 10
2090.330078125
 20
-1290.83422851563
 30
0.0
 11
2090.330078125
 21
-1290.83422851563
 31
0.0
  0
LINE
  5
   51A
  8
0
  6
CONTINUOUS
 62
     7
 10
2090.330078125
 20
-1290.83422851563
 30
0.0
 11
2090.330078125
 21
-1290.83422851563
 31
0.0
  0
LINE
  5
   51B
  8
0
  6
CONTINUOUS
 62
     7
 10
2090.330078125
 20
-1290.83422851563
 30
0.0
 11
2090.330078125
 21
-1290.83422851563
 31
0.0
  0
CIRCLE
  5
   51C
  8
0
  6
CONTINUOUS
 62
     7
 10
1912.41732860262
 20
-1345.13422014239
 30
0.0
 40
3.0
  0
CIRCLE
  5
   51D
  8
0
  6
CONTINUOUS
 62
     7
 10
1912.41732860262
 20
-1447.53423688886
 30
0.0
 40
3.0
  0
LINE
  5
   51E
  8
0
  6
CONTINUOUS
 62
     7
 10
2090.330078125
 20
-1290.83422851563
 30
0.0
 11
2090.330078125
 21
-1290.83422851563
 31
0.0
  0
LINE
  5
   51F
  8
0
  6
CONTINUOUS
 62
     7
 10
2090.330078125
 20
-1290.83422851563
 30
0.0
 11
2090.330078125
 21
-1290.83422851563
 31
0.0
  0
LINE
  5
   520
  8
0
  6
CONTINUOUS
 62
     7
 10
2090.330078125
 20
-1290.83422851563
 30
0.0
 11
2090.330078125
 21
-1290.83422851563
 31
0.0
  0
LINE
  5
   521
  8
0
  6
CONTINUOUS
 62
     7
 10
1838.41734924317
 20
-1441.83420976356
 30
0.0
 11
1912.41736507416
 21
-1441.83420976356
 31
0.0
  0
ARC
  5
   522
  8
0
  6
CONTINUOUS
 62
     7
 10
1840.91734718323
 20
-1337.33422502235
 30
0.0
 40
1.0
 50
449.999999844103
 51
540.000008586744
  0
ARC
  5
   523
  8
0
  6
CONTINUOUS
 62
     7
 10
1840.91734718323
 20
-1455.33422502235
 30
0.0
 40
1.0
 50
539.999991101463
 51
629.999999844103
  0
LINE
  5
   524
  8
0
  6
CONTINUOUS
 62
     7
 10
1839.91734924317
 20
-1441.83420976356
 30
0.0
 11
1839.917347641
 21
-1452.33420976356
 31
0.0
  0
LINE
  5
   525
  8
0
  6
CONTINUOUS
 62
     7
 10
1837.41739341736
 20
-1440.33420976356
 30
0.0
 11
1912.41734416658
 21
-1440.33420976356
 31
0.0
  0
LINE
  5
   526
  8
0
  6
CONTINUOUS
 62
     7
 10
1838.41734947205
 20
-1440.33420976356
 30
0.0
 11
1838.41734924317
 21
-1441.83420976356
 31
0.0
  0
LINE
  5
   527
  8
0
  6
CONTINUOUS
 62
     7
 10
1838.41734924317
 20
-1350.83424028114
 30
0.0
 11
1838.41734947205
 21
-1352.33424028114
 31
0.0
  0
LINE
  5
   528
  8
0
  6
CONTINUOUS
 62
     7
 10
1838.41734924317
 20
-1350.83424028114
 30
0.0
 11
1912.41732860262
 21
-1350.83424028114
 31
0.0
  0
LINE
  5
   529
  8
0
  6
CONTINUOUS
 62
     7
 10
1837.41737998963
 20
-1352.33424028114
 30
0.0
 11
1912.41735839844
 21
-1352.33424028114
 31
0.0
  0
LINE
  5
   52A
  8
0
  6
CONTINUOUS
 62
     7
 10
1839.91734718323
 20
-1337.33422517494
 30
0.0
 11
1839.917347641
 21
-1340.33422502235
 31
0.0
  0
LINE
  5
   52B
  8
0
  6
CONTINUOUS
 62
     7
 10
1838.41734779358
 20
-1340.33422502235
 30
0.0
 11
1839.917347641
 21
-1340.33422502235
 31
0.0
  0
LINE
  5
   52C
  8
0
  6
CONTINUOUS
 62
     7
 10
1838.41736457825
 20
-1452.33420976356
 30
0.0
 11
1839.917347641
 21
-1452.33420976356
 31
0.0
  0
ARC
  5
   52D
  8
0
  6
CONTINUOUS
 62
     7
 10
1838.41734779358
 20
-1341.33422502235
 30
0.0
 40
1.0
 50
449.999999844103
 51
540.000008586744
  0
ARC
  5
   52E
  8
0
  6
CONTINUOUS
 62
     7
 10
1838.41736457825
 20
-1451.33420976356
 30
0.0
 40
1.0
 50
540.000008586743
 51
629.999999844103
  0
CIRCLE
  5
   52F
  8
0
  6
CONTINUOUS
 62
     7
 10
1882.41732860262
 20
-1345.13422014239
 30
0.0
 40
3.0
  0
CIRCLE
  5
   530
  8
0
  6
CONTINUOUS
 62
     7
 10
1882.41732860262
 20
-1447.53423688886
 30
0.0
 40
3.0
  0
LINE
  5
   531
  8
0
  6
DOT
 62
     7
 10
1840.91735839844
 20
-1404.03422851563
 30
0.0
 11
1840.91735839844
 21
-1414.03422851563
 31
0.0
  0
LINE
  5
   532
  8
0
  6
DOT
 62
     7
 10
1839.3405937212
 20
-1403.53422851563
 30
0.0
 11
1837.96685501148
 21
-1404.03422851563
 31
0.0
  0
LINE
  5
   533
  8
0
  6
DOT
 62
     7
 10
1837.96685388233
 20
-1414.03422851563
 30
0.0
 11
1839.34059259205
 21
-1414.53422851563
 31
0.0
  0
LINE
  5
   534
  8
0
  6
DOT
 62
     7
 10
1837.41735952759
 20
-1404.03422851563
 30
0.0
 11
1837.96685501148
 21
-1404.03422851563
 31
0.0
  0
LINE
  5
   535
  8
0
  6
DOT
 62
     7
 10
1837.41735839844
 20
-1414.03422851563
 30
0.0
 11
1837.96685388233
 21
-1414.03422851563
 31
0.0
  0
LINE
  5
   536
  8
0
  6
DOT
 62
     7
 10
1839.3405937212
 20
-1403.53422851563
 30
0.0
 11
1840.41735952759
 21
-1403.53422851563
 31
0.0
  0
LINE
  5
   537
  8
0
  6
DOT
 62
     7
 10
1839.34059259205
 20
-1414.53422851563
 30
0.0
 11
1840.41735839844
 21
-1414.53422851563
 31
0.0
  0
LINE
  5
   538
  8
0
  6
CONTINUOUS
 62
     7
 10
2090.330078125
 20
-1290.83422851563
 30
0.0
 11
2090.330078125
 21
-1290.83422851563
 31
0.0
  0
LINE
  5
   539
  8
0
  6
CONTINUOUS
 62
     7
 10
2090.330078125
 20
-1290.83422851563
 30
0.0
 11
2090.330078125
 21
-1290.83422851563
 31
0.0
  0
LINE
  5
   53A
  8
0
  6
CONTINUOUS
 62
     7
 10
2090.330078125
 20
-1290.83422851563
 30
0.0
 11
2090.330078125
 21
-1290.83422851563
 31
0.0
  0
LINE
  5
   53B
  8
0
  6
CONTINUOUS
 62
     7
 10
2090.330078125
 20
-1290.83422851563
 30
0.0
 11
2090.330078125
 21
-1290.83422851563
 31
0.0
  0
LINE
  5
   53C
  8
0
  6
CONTINUOUS
 62
     7
 10
2090.330078125
 20
-1290.83422851563
 30
0.0
 11
2090.330078125
 21
-1290.83422851563
 31
0.0
  0
LINE
  5
   53D
  8
0
  6
CONTINUOUS
 62
     7
 10
2090.330078125
 20
-1290.83422851563
 30
0.0
 11
2090.330078125
 21
-1290.83422851563
 31
0.0
  0
LINE
  5
   53E
  8
0
  6
CONTINUOUS
 62
     7
 10
2090.330078125
 20
-1290.83422851563
 30
0.0
 11
2090.330078125
 21
-1290.83422851563
 31
0.0
  0
LINE
  5
   53F
  8
0
  6
CONTINUOUS
 62
     7
 10
2090.330078125
 20
-1290.83422851563
 30
0.0
 11
2090.330078125
 21
-1290.83422851563
 31
0.0
  0
LINE
  5
   540
  8
0
  6
CONTINUOUS
 62
     7
 10
1912.4173726303
 20
-1456.33421325683
 30
0.0
 11
1925.91737270355
 21
-1456.33421325683
 31
0.0
  0
LINE
  5
   541
  8
0
  6
CONTINUOUS
 62
     7
 10
1928.91737270355
 20
-1456.33421325683
 30
0.0
 11
1953.91736961364
 21
-1456.33421325683
 31
0.0
  0
LINE
  5
   542
  8
0
  6
CONTINUOUS
 62
     7
 10
1928.91736492156
 20
-1336.33422851562
 30
0.0
 11
1953.91736991882
 21
-1336.33422851562
 31
0.0
  0
LINE
  5
   543
  8
0
  6
CONTINUOUS
 62
     7
 10
1912.41738819426
 20
-1336.33422851562
 30
0.0
 11
1925.91737365723
 21
-1336.33422851562
 31
0.0
  0
LINE
  5
   544
  8
0
  6
CONTINUOUS
 62
     7
 10
1957.41733848571
 20
-1341.33422517493
 30
0.0
 11
1957.41733680724
 21
-1352.33424028114
 31
0.0
  0
LINE
  5
   545
  8
0
  6
CONTINUOUS
 62
     7
 10
1912.41735534668
 20
-1430.83419799804
 30
0.0
 11
1957.41735534668
 21
-1430.83419799804
 31
0.0
  0
LINE
  5
   546
  8
0
  6
CONTINUOUS
 62
     7
 10
1924.91737270355
 20
-1452.83421325683
 30
0.0
 11
1924.91737270355
 21
-1456.33421325683
 31
0.0
  0
LINE
  5
   547
  8
0
  6
CONTINUOUS
 62
     7
 10
1925.91737270355
 20
-1455.08421325683
 30
0.0
 11
1925.91737270355
 21
-1456.33421325683
 31
0.0
  0
LINE
  5
   548
  8
0
  6
CONTINUOUS
 62
     7
 10
1928.91737270355
 20
-1455.08419799805
 30
0.0
 11
1928.91737270355
 21
-1456.33421325683
 31
0.0
  0
LINE
  5
   549
  8
0
  6
CONTINUOUS
 62
     7
 10
1929.91737270355
 20
-1452.83421325683
 30
0.0
 11
1929.91737270355
 21
-1456.33421325683
 31
0.0
  0
LINE
  5
   54A
  8
0
  6
CONTINUOUS
 62
     7
 10
1924.91737270355
 20
-1452.83421325683
 30
0.0
 11
1929.91737270355
 21
-1452.83421325683
 31
0.0
  0
LINE
  5
   54B
  8
0
  6
CONTINUOUS
 62
     7
 10
1924.91737365722
 20
-1339.83422851562
 30
0.0
 11
1929.91737365723
 21
-1339.83422851562
 31
0.0
  0
LINE
  5
   54C
  8
0
  6
CONTINUOUS
 62
     7
 10
1929.91737365723
 20
-1338.58422851562
 30
0.0
 11
1929.91737365723
 21
-1339.83422851562
 31
0.0
  0
LINE
  5
   54D
  8
0
  6
CONTINUOUS
 62
     7
 10
1928.91737365723
 20
-1336.33422851562
 30
0.0
 11
1928.91737365723
 21
-1337.58422851562
 31
0.0
  0
LINE
  5
   54E
  8
0
  6
CONTINUOUS
 62
     7
 10
1925.91737365723
 20
-1336.33422851562
 30
0.0
 11
1925.91737365723
 21
-1337.58422851562
 31
0.0
  0
LINE
  5
   54F
  8
0
  6
CONTINUOUS
 62
     7
 10
1924.91737194064
 20
-1338.58423614496
 30
0.0
 11
1924.91737289431
 21
-1339.83423614496
 31
0.0
  0
LINE
  5
   550
  8
0
  6
CONTINUOUS
 62
     7
 10
1911.1673746109
 20
-1336.33421325683
 30
0.0
 11
1913.66737365722
 21
-1336.33421325683
 31
0.0
  0
CIRCLE
  5
   551
  8
0
  6
CONTINUOUS
 62
     7
 10
1927.41727644404
 20
-1446.33418065132
 30
0.0
 40
4.250066744417
  0
CIRCLE
  5
   552
  8
0
  6
CONTINUOUS
 62
     7
 10
1927.41739453914
 20
-1346.33416262194
 30
0.0
 40
4.4999575073053
  0
LINE
  5
   553
  8
0
  6
CONTINUOUS
 62
     7
 10
1912.41736221313
 20
-1385.83419799805
 30
0.0
 11
1957.41736221314
 21
-1385.83419799805
 31
0.0
  0
CIRCLE
  5
   554
  8
0
  6
CONTINUOUS
 62
     7
 10
1942.4173726303
 20
-1453.33421325683
 30
0.0
 40
1.25
  0
ARC
  5
   555
  8
0
  6
CONTINUOUS
 62
     7
 10
1912.4173726303
 20
-1453.33421325683
 30
0.0
 40
1.25
 50
269.999999844103
 51
449.999999844104
  0
ARC
  5
   556
  8
0
  6
CONTINUOUS
 62
     7
 10
1912.41738819426
 20
-1339.33422851562
 30
0.0
 40
1.25
 50
269.999999844103
 51
449.999999844103
  0
CIRCLE
  5
   557
  8
0
  6
CONTINUOUS
 62
     7
 10
1942.41735042267
 20
-1339.33423767089
 30
0.0
 40
1.25
  0
LINE
  5
   558
  8
0
  6
CONTINUOUS
 62
     7
 10
1918.91737333816
 20
-1394.19819455684
 30
0.0
 11
1919.91737333816
 21
-1394.19819455684
 31
0.0
  0
LINE
  5
   559
  8
0
  6
CONTINUOUS
 62
     7
 10
1925.91740177762
 20
-1336.33422851562
 30
0.0
 11
1925.91740177762
 21
-1338.33422851562
 31
0.0
  0
LINE
  5
   55A
  8
0
  6
CONTINUOUS
 62
     7
 10
1928.91740177762
 20
-1336.33422851562
 30
0.0
 11
1928.91740177762
 21
-1338.33422851562
 31
0.0
  0
LINE
  5
   55B
  8
0
  6
CONTINUOUS
 62
     7
 10
1929.91740425716
 20
-1336.33422851562
 30
0.0
 11
1929.91740158686
 21
-1339.83423995965
 31
0.0
  0
LINE
  5
   55C
  8
0
  6
CONTINUOUS
 62
     7
 10
1924.91740177762
 20
-1336.33422851562
 30
0.0
 11
1924.91740177762
 21
-1339.83422851562
 31
0.0
  0
LINE
  5
   55D
  8
0
  6
CONTINUOUS
 62
     7
 10
1924.91740177762
 20
-1339.83422851562
 30
0.0
 11
1929.91740177762
 21
-1339.83422851562
 31
0.0
  0
LINE
  5
   55E
  8
0
  6
CONTINUOUS
 62
     7
 10
1924.91740177762
 20
-1338.33422851562
 30
0.0
 11
1925.91740177762
 21
-1338.33422851562
 31
0.0
  0
LINE
  5
   55F
  8
0
  6
CONTINUOUS
 62
     7
 10
1928.91740177762
 20
-1338.33422851562
 30
0.0
 11
1929.91740273128
 21
-1338.33422851562
 31
0.0
  0
LINE
  5
   560
  8
0
  6
CONTINUOUS
 62
     7
 10
1928.91740177762
 20
-1454.33422851562
 30
0.0
 11
1928.91740177762
 21
-1456.33422851562
 31
0.0
  0
LINE
  5
   561
  8
0
  6
CONTINUOUS
 62
     7
 10
1925.91740177762
 20
-1454.33422851562
 30
0.0
 11
1925.91740177762
 21
-1456.33422851562
 31
0.0
  0
LINE
  5
   562
  8
0
  6
CONTINUOUS
 62
     7
 10
1928.91740177762
 20
-1454.33422851562
 30
0.0
 11
1929.91740273128
 21
-1454.33422851562
 31
0.0
  0
LINE
  5
   563
  8
0
  6
CONTINUOUS
 62
     7
 10
1924.91740177762
 20
-1454.33422851562
 30
0.0
 11
1925.91740177762
 21
-1454.33422851562
 31
0.0
  0
LINE
  5
   564
  8
0
  6
CONTINUOUS
 62
     7
 10
1919.91737340927
 20
-1392.33419799805
 30
0.0
 11
1919.91737238266
 21
-1419.24604879268
 31
0.0
  0
LINE
  5
   565
  8
0
  6
CONTINUOUS
 62
     7
 10
1918.91737238266
 20
-1419.24604879268
 30
0.0
 11
1919.91737238266
 21
-1419.24604879268
 31
0.0
  0
LINE
  5
   566
  8
0
  6
CONTINUOUS
 62
     7
 10
1918.91737239702
 20
-1418.86984530749
 30
0.0
 11
1919.91737239702
 21
-1418.86984530749
 31
0.0
  0
LINE
  5
   567
  8
0
  6
CONTINUOUS
 62
     7
 10
1918.91737340927
 20
-1392.33419799805
 30
0.0
 11
1957.41736122131
 21
-1392.33419799805
 31
0.0
  0
LINE
  5
   568
  8
0
  6
CONTINUOUS
 62
     7
 10
1919.91737335205
 20
-1393.83419799805
 30
0.0
 11
1957.41736099243
 21
-1393.83419799805
 31
0.0
  0
ARC
  5
   569
  8
0
  6
DOT
 62
     7
 10
1840.41735952759
 20
-1404.03422851563
 30
0.0
 40
0.5
 50
359.999999844103
 51
449.999999844103
  0
ARC
  5
   56A
  8
0
  6
DOT
 62
     7
 10
1840.41735839844
 20
-1414.03422851563
 30
0.0
 40
0.5
 50
269.999999844103
 51
359.999999844103
  0
LINE
  5
   56B
  8
0
  6
CONTINUOUS
 62
     7
 10
1918.91737258073
 20
-1414.05385374248
 30
0.0
 11
1918.9173722598
 21
-1422.46686493875
 31
0.0
  0
LINE
  5
   56C
  8
0
  6
CONTINUOUS
 62
     7
 10
2090.330078125
 20
-1290.83422851563
 30
0.0
 11
2090.330078125
 21
-1290.83422851563
 31
0.0
  0
LINE
  5
   56D
  8
0
  6
CONTINUOUS
 62
     7
 10
2090.330078125
 20
-1290.83422851563
 30
0.0
 11
2090.330078125
 21
-1290.83422851563
 31
0.0
  0
LINE
  5
   56E
  8
0
  6
CONTINUOUS
 62
     7
 10
2090.330078125
 20
-1290.83422851563
 30
0.0
 11
2090.330078125
 21
-1290.83422851563
 31
0.0
  0
LINE
  5
   56F
  8
0
  6
CONTINUOUS
 62
     7
 10
2090.330078125
 20
-1290.83422851563
 30
0.0
 11
2090.330078125
 21
-1290.83422851563
 31
0.0
  0
CIRCLE
  5
   570
  8
0
  6
CONTINUOUS
 62
     7
 10
1912.41738819426
 20
-1345.13422014239
 30
0.0
 40
3.0
  0
LINE
  5
   571
  8
0
  6
CONTINUOUS
 62
     7
 10
2090.330078125
 20
-1290.83422851563
 30
0.0
 11
2090.330078125
 21
-1290.83422851563
 31
0.0
  0
LINE
  5
   572
  8
0
  6
CONTINUOUS
 62
     7
 10
2090.330078125
 20
-1290.83422851563
 30
0.0
 11
2090.330078125
 21
-1290.83422851563
 31
0.0
  0
LINE
  5
   573
  8
0
  6
CONTINUOUS
 62
     7
 10
2090.330078125
 20
-1290.83422851563
 30
0.0
 11
2090.330078125
 21
-1290.83422851563
 31
0.0
  0
LINE
  5
   574
  8
0
  6
CONTINUOUS
 62
     7
 10
1912.41735172272
 20
-1441.83420976356
 30
0.0
 11
1956.4173675537
 21
-1441.83420976356
 31
0.0
  0
ARC
  5
   575
  8
0
  6
CONTINUOUS
 62
     7
 10
1953.91736961364
 20
-1337.33422502235
 30
0.0
 40
1.0
 50
359.999991101463
 51
449.999999844103
  0
ARC
  5
   576
  8
0
  6
CONTINUOUS
 62
     7
 10
1953.91736961364
 20
-1455.33422502235
 30
0.0
 40
1.0
 50
269.999999844103
 51
360.000008586744
  0
LINE
  5
   577
  8
0
  6
CONTINUOUS
 62
     7
 10
1954.9173675537
 20
-1441.83420976356
 30
0.0
 11
1954.91736915588
 21
-1452.33420976356
 31
0.0
  0
LINE
  5
   578
  8
0
  6
CONTINUOUS
 62
     7
 10
1912.4173726303
 20
-1440.33420976356
 30
0.0
 11
1957.41735389709
 21
-1440.33420976356
 31
0.0
  0
LINE
  5
   579
  8
0
  6
CONTINUOUS
 62
     7
 10
1956.41736732482
 20
-1440.33420976356
 30
0.0
 11
1956.4173675537
 21
-1441.83420976356
 31
0.0
  0
LINE
  5
   57A
  8
0
  6
CONTINUOUS
 62
     7
 10
1956.4173675537
 20
-1350.83424028114
 30
0.0
 11
1956.41736732482
 21
-1352.33424028114
 31
0.0
  0
LINE
  5
   57B
  8
0
  6
CONTINUOUS
 62
     7
 10
1912.41738819426
 20
-1350.83424028114
 30
0.0
 11
1956.4173675537
 21
-1350.83424028114
 31
0.0
  0
LINE
  5
   57C
  8
0
  6
CONTINUOUS
 62
     7
 10
1912.41735839844
 20
-1352.33424028114
 30
0.0
 11
1957.41735389709
 21
-1352.33424028114
 31
0.0
  0
LINE
  5
   57D
  8
0
  6
CONTINUOUS
 62
     7
 10
1954.91736961364
 20
-1337.33422517494
 30
0.0
 11
1954.91736915588
 21
-1340.33422502235
 31
0.0
  0
LINE
  5
   57E
  8
0
  6
CONTINUOUS
 62
     7
 10
1954.91736915588
 20
-1340.33422502235
 30
0.0
 11
1956.41736900329
 21
-1340.33422502235
 31
0.0
  0
LINE
  5
   57F
  8
0
  6
CONTINUOUS
 62
     7
 10
1954.91736915588
 20
-1452.33420976356
 30
0.0
 11
1956.41735221863
 21
-1452.33420976356
 31
0.0
  0
ARC
  5
   580
  8
0
  6
CONTINUOUS
 62
     7
 10
1956.41736900329
 20
-1341.33422502235
 30
0.0
 40
1.0
 50
359.999991101463
 51
449.999999844103
  0
ARC
  5
   581
  8
0
  6
CONTINUOUS
 62
     7
 10
1956.41735221863
 20
-1451.33420976356
 30
0.0
 40
1.0
 50
269.999999844103
 51
359.999991101463
  0
CIRCLE
  5
   582
  8
0
  6
CONTINUOUS
 62
     7
 10
1942.41738819426
 20
-1345.13422014239
 30
0.0
 40
3.0
  0
CIRCLE
  5
   583
  8
0
  6
CONTINUOUS
 62
     7
 10
1942.41738819426
 20
-1447.53423688886
 30
0.0
 40
3.0
  0
LINE
  5
   584
  8
0
  6
DASHDOT
 62
     7
 10
1897.41737540965
 20
-1334.934235552
 30
0.0
 11
1897.41737540965
 21
-1357.734235552
 31
0.0
  0
LINE
  5
   585
  8
0
  6
DASHDOT
 62
     7
 10
1886.01737540965
 20
-1346.334235552
 30
0.0
 11
1908.81737540965
 21
-1346.334235552
 31
0.0
  0
LINE
  5
   586
  8
0
  6
DASHDOT
 62
     7
 10
1916.01734138722
 20
-1346.334235552
 30
0.0
 11
1938.81734138722
 21
-1346.334235552
 31
0.0
  0
LINE
  5
   587
  8
0
  6
DASHDOT
 62
     7
 10
1912.41738819426
 20
-1331.56195443107
 30
0.0
 11
1912.41738819426
 21
-1436.19687001111
 31
0.0
  0
LINE
  5
   588
  8
0
  6
DASHDOT
 62
     7
 10
1899.41738819426
 20
-1345.13422014239
 30
0.0
 11
1925.41738819426
 21
-1345.13422014239
 31
0.0
  0
LINE
  5
   589
  8
0
  6
DASHDOT
 62
     7
 10
1882.41732860262
 20
-1332.13422014239
 30
0.0
 11
1882.41732860262
 21
-1358.13422014239
 31
0.0
  0
LINE
  5
   58A
  8
0
  6
DASHDOT
 62
     7
 10
1869.41732860262
 20
-1345.13422014239
 30
0.0
 11
1895.41732860262
 21
-1345.13422014239
 31
0.0
  0
LINE
  5
   58B
  8
0
  6
DASHDOT
 62
     7
 10
1942.41738819426
 20
-1332.13422014239
 30
0.0
 11
1942.41738819426
 21
-1358.13422014239
 31
0.0
  0
LINE
  5
   58C
  8
0
  6
DASHDOT
 62
     7
 10
1929.41738819426
 20
-1345.13422014239
 30
0.0
 11
1955.41738819426
 21
-1345.13422014239
 31
0.0
  0
LINE
  5
   58D
  8
0
  6
DASHDOT
 62
     7
 10
1891.81736068726
 20
-1413.03421325683
 30
0.0
 11
1891.81736068726
 21
-1438.63421325683
 31
0.0
  0
LINE
  5
   58E
  8
0
  6
DASHDOT
 62
     7
 10
1879.01736068726
 20
-1425.83421325683
 30
0.0
 11
1904.61736068726
 21
-1425.83421325683
 31
0.0
  0
LINE
  5
   58F
  8
0
  6
DASHDOT
 62
     7
 10
1882.41732860262
 20
-1434.53423688886
 30
0.0
 11
1882.41732860262
 21
-1460.53423688886
 31
0.0
  0
LINE
  5
   590
  8
0
  6
DASHDOT
 62
     7
 10
1869.41732860262
 20
-1447.53423688886
 30
0.0
 11
1895.41732860262
 21
-1447.53423688886
 31
0.0
  0
LINE
  5
   591
  8
0
  6
DASHDOT
 62
     7
 10
1897.41744035283
 20
-1432.0841139069
 30
0.0
 11
1897.41744035283
 21
-1460.58424739574
 31
0.0
  0
LINE
  5
   592
  8
0
  6
DASHDOT
 62
     7
 10
1883.16737360841
 20
-1446.33418065132
 30
0.0
 11
1911.66750709725
 21
-1446.33418065132
 31
0.0
  0
LINE
  5
   593
  8
0
  6
DASHDOT
 62
     7
 10
1912.41732860262
 20
-1434.53423688886
 30
0.0
 11
1912.41732860262
 21
-1486.82449363625
 31
0.0
  0
LINE
  5
   594
  8
0
  6
DASHDOT
 62
     7
 10
1899.41732860262
 20
-1447.53423688886
 30
0.0
 11
1925.41732860262
 21
-1447.53423688886
 31
0.0
  0
LINE
  5
   595
  8
0
  6
DASHDOT
 62
     7
 10
1927.41727644404
 20
-1432.0841139069
 30
0.0
 11
1927.41727644404
 21
-1460.58424739574
 31
0.0
  0
LINE
  5
   596
  8
0
  6
DASHDOT
 62
     7
 10
1913.16720969963
 20
-1446.33418065132
 30
0.0
 11
1941.66734318846
 21
-1446.33418065132
 31
0.0
  0
LINE
  5
   597
  8
0
  6
DASHDOT
 62
     7
 10
1942.41738819426
 20
-1434.53423688886
 30
0.0
 11
1942.41738819426
 21
-1460.53423688886
 31
0.0
  0
LINE
  5
   598
  8
0
  6
DASHDOT
 62
     7
 10
1929.41738819426
 20
-1447.53423688886
 30
0.0
 11
1955.41738819426
 21
-1447.53423688886
 31
0.0
  0
LINE
  5
   599
  8
0
  6
DASHDOT
 62
     7
 10
1927.41739453914
 20
-1331.83420511464
 30
0.0
 11
1927.41739453914
 21
-1360.83412012925
 31
0.0
  0
LINE
  5
   59A
  8
0
  6
DASHDOT
 62
     7
 10
1912.91743703184
 20
-1346.33416262194
 30
0.0
 11
1941.91735204645
 21
-1346.33416262194
 31
0.0
  0
INSERT
  5
   59B
  8
255
  6
CONTINUOUS
 62
     7
  2
$2SSS
 10
1927.41739453914
 20
-1346.33416262194
 30
0.0
 50
359.999999792138
  0
INSERT
  5
   59C
  8
0
  6
CONTINUOUS
 62
     7
  2
$2SSS
 10
1897.41744035283
 20
-1446.33418065132
 30
0.0
 50
359.999999792138
  0
LINE
  5
   59D
  8
0
  6
DASHDOT
 62
     7
 10
1950.2173614502
 20
-1422.25769945258
 30
0.0
 11
1950.2173614502
 21
-1428.87748515992
 31
0.0
  0
LINE
  5
   59E
  8
0
  6
DASHDOT
 62
     7
 10
1947.43470349128
 20
-1425.63421304312
 30
0.0
 11
1952.90586401142
 21
-1425.63421304312
 31
0.0
  0
LINE
  5
   59F
  8
0
  6
CONTINUOUS
 62
     7
 10
1950.2173614502
 20
-1420.83421304313
 30
0.0
 11
1949.62602117496
 21
-1421.42555331836
 31
0.0
  0
LINE
  5
   5A0
  8
0
  6
CONTINUOUS
 62
     7
 10
1950.2173614502
 20
-1420.83421304313
 30
0.0
 11
1950.80870172543
 21
-1421.42555331836
 31
0.0
  0
ARC
  5
   5A1
  8
0
  6
CONTINUOUS
 62
     7
 10
1950.2173614502
 20
-1425.63421304312
 30
0.0
 40
4.25
 50
457.998020342877
 51
802.00197934533
  0
LINE
  5
   5A2
  8
0
  6
CONTINUOUS
 62
     7
 10
1947.7173614502
 20
-1426.13421304312
 30
0.0
 11
1952.7173614502
 21
-1426.13421304312
 31
0.0
  0
ARC
  5
   5A3
  8
0
  6
CONTINUOUS
 62
     7
 10
1950.2173614502
 20
-1425.63421304312
 30
0.0
 40
4.8
 50
359.999999844103
 51
539.999999844103
  0
LINE
  5
   5A4
  8
0
  6
CONTINUOUS
 62
     7
 10
1945.4173614502
 20
-1425.63421304312
 30
0.0
 11
1945.9673614502
 21
-1425.63421304312
 31
0.0
  0
LINE
  5
   5A5
  8
0
  6
CONTINUOUS
 62
     7
 10
1954.4673614502
 20
-1425.63421304312
 30
0.0
 11
1955.0173614502
 21
-1425.63421304312
 31
0.0
  0
LINE
  5
   5A6
  8
0
  6
CONTINUOUS
 62
     7
 10
1954.11606838292
 20
-1422.83419799804
 30
0.0
 11
1957.41732604981
 21
-1422.83419799804
 31
0.0
  0
LINE
  5
   5A7
  8
0
  6
CONTINUOUS
 62
     7
 10
1954.83796323812
 20
-1424.33419799804
 30
0.0
 11
1957.41732582092
 21
-1424.33419799804
 31
0.0
  0
LINE
  5
   5A8
  8
0
  6
CONTINUOUS
 62
     7
 10
1950.2173614502
 20
-1419.08397780638
 30
0.0
 11
1950.2173614502
 21
-1420.83421304313
 31
0.0
  0
LINE
  5
   5A9
  8
0
  6
CONTINUOUS
 62
     7
 10
1943.54069202897
 20
-1425.63421304312
 30
0.0
 11
1945.4173614502
 21
-1425.63421304312
 31
0.0
  0
LINE
  5
   5AA
  8
0
  6
CONTINUOUS
 62
     7
 10
1955.0173614502
 20
-1425.63421304312
 30
0.0
 11
1956.74494134713
 21
-1425.63421304312
 31
0.0
  0
LINE
  5
   5AB
  8
0
  6
DASHDOT
 62
     7
 10
1833.50950882121
 20
-1408.33419799805
 30
0.0
 11
2081.70365129484
 21
-1408.33419799805
 31
0.0
  0
LINE
  5
   5AC
  8
0
  6
CONTINUOUS
 62
     7
 10
1905.91734421614
 20
-1414.05385374248
 30
0.0
 11
1918.91737258073
 21
-1414.05385374248
 31
0.0
  0
LINE
  5
   5AD
  8
0
  6
CONTINUOUS
 62
     7
 10
1906.41734444486
 20
-1419.54964989925
 30
0.0
 11
1918.41737235201
 21
-1419.54964989925
 31
0.0
  0
LINE
  5
   5AE
  8
0
  6
CONTINUOUS
 62
     7
 10
1906.41734453707
 20
-1422.96686491968
 30
0.0
 11
1918.4173722598
 21
-1422.96686491968
 31
0.0
  0
LINE
  5
   5AF
  8
0
  6
CONTINUOUS
 62
     7
 10
1918.91737224579
 20
-1422.83419799804
 30
0.0
 11
1946.31865451747
 21
-1422.83419799804
 31
0.0
  0
ARC
  5
   5B0
  8
0
  6
CONTINUOUS
 62
     7
 10
1906.41734453707
 20
-1422.46686491968
 30
0.0
 40
0.5
 50
540.000002029765
 51
629.999999844103
  0
ARC
  5
   5B1
  8
0
  6
CONTINUOUS
 62
     7
 10
1918.4173722598
 20
-1422.46686491968
 30
0.0
 40
0.5
 50
269.999999844103
 51
359.999997658442
  0
ARC
  5
   5B2
  8
0
  6
CONTINUOUS
 62
     7
 10
1918.41737235201
 20
-1420.04964989925
 30
0.0
 40
0.5
 50
359.999997658442
 51
449.999999844103
  0
ARC
  5
   5B3
  8
0
  6
CONTINUOUS
 62
     7
 10
1906.41734444486
 20
-1420.04964989925
 30
0.0
 40
0.5
 50
449.999999844103
 51
540.000002029765
  0
CIRCLE
  5
   5B4
  8
0
  6
CONTINUOUS
 62
     7
 10
1897.41744035283
 20
-1446.33418065132
 30
0.0
 40
4.4999575073053
  0
CIRCLE
  5
   5B5
  8
0
  6
CONTINUOUS
 62
     7
 10
1852.41732860262
 20
-1447.53423688886
 30
0.0
 40
3.0
  0
CIRCLE
  5
   5B6
  8
0
  6
CONTINUOUS
 62
     7
 10
1852.41734416658
 20
-1453.33421325683
 30
0.0
 40
1.25
  0
CIRCLE
  5
   5B7
  8
0
  6
CONTINUOUS
 62
     7
 10
1867.41744035283
 20
-1446.33418065132
 30
0.0
 40
4.4999575073053
  0
INSERT
  5
   5B8
  8
0
  6
CONTINUOUS
 62
     7
  2
$2SSS
 10
1927.41744035283
 20
-1446.33418065132
 30
0.0
 50
359.999999792138
  0
LINE
  5
   5B9
  8
0
  6
CONTINUOUS
 62
     7
 10
1864.91734409332
 20
-1452.83421325683
 30
0.0
 11
1864.91734409332
 21
-1456.33421325683
 31
0.0
  0
LINE
  5
   5BA
  8
0
  6
CONTINUOUS
 62
     7
 10
1869.91734409332
 20
-1452.83421325683
 30
0.0
 11
1869.91734409332
 21
-1456.33421325683
 31
0.0
  0
LINE
  5
   5BB
  8
0
  6
CONTINUOUS
 62
     7
 10
1864.91734409332
 20
-1452.83421325683
 30
0.0
 11
1869.91734409332
 21
-1452.83421325683
 31
0.0
  0
LINE
  5
   5BC
  8
0
  6
CONTINUOUS
 62
     7
 10
1865.91731501926
 20
-1454.33422851562
 30
0.0
 11
1865.91731501926
 21
-1456.33422851562
 31
0.0
  0
LINE
  5
   5BD
  8
0
  6
CONTINUOUS
 62
     7
 10
1868.91731501926
 20
-1454.33422851562
 30
0.0
 11
1868.91731501926
 21
-1456.33422851562
 31
0.0
  0
LINE
  5
   5BE
  8
0
  6
CONTINUOUS
 62
     7
 10
1840.91734718323
 20
-1456.33421325683
 30
0.0
 11
1865.91734409332
 21
-1456.33421325683
 31
0.0
  0
LINE
  5
   5BF
  8
0
  6
CONTINUOUS
 62
     7
 10
1864.91731406559
 20
-1454.33422851562
 30
0.0
 11
1865.91731501926
 21
-1454.33422851562
 31
0.0
  0
LINE
  5
   5C0
  8
0
  6
CONTINUOUS
 62
     7
 10
1868.91731501926
 20
-1454.33422851562
 30
0.0
 11
1869.91731501926
 21
-1454.33422851562
 31
0.0
  0
CIRCLE
  5
   5C1
  8
0
  6
CONTINUOUS
 62
     7
 10
1852.4173663742
 20
-1339.33423767089
 30
0.0
 40
1.25
  0
CIRCLE
  5
   5C2
  8
0
  6
CONTINUOUS
 62
     7
 10
1852.41732860262
 20
-1345.13422014239
 30
0.0
 40
3.0
  0
LINE
  5
   5C3
  8
0
  6
DASHDOT
 62
     7
 10
1839.41732860262
 20
-1345.13422014239
 30
0.0
 11
1865.41732860262
 21
-1345.13422014239
 31
0.0
  0
LINE
  5
   5C4
  8
0
  6
DASHDOT
 62
     7
 10
1852.41732860262
 20
-1332.13422014239
 30
0.0
 11
1852.41732860262
 21
-1358.13422014239
 31
0.0
  0
LINE
  5
   5C5
  8
0
  6
CONTINUOUS
 62
     7
 10
1865.91731501926
 20
-1336.33422851562
 30
0.0
 11
1865.91731501926
 21
-1338.33422851562
 31
0.0
  0
LINE
  5
   5C6
  8
0
  6
CONTINUOUS
 62
     7
 10
1868.91731501926
 20
-1336.33422851562
 30
0.0
 11
1868.91731501926
 21
-1338.33422851562
 31
0.0
  0
LINE
  5
   5C7
  8
0
  6
CONTINUOUS
 62
     7
 10
1864.91731406559
 20
-1338.33422851562
 30
0.0
 11
1865.91731501926
 21
-1338.33422851562
 31
0.0
  0
LINE
  5
   5C8
  8
0
  6
CONTINUOUS
 62
     7
 10
1868.91731501926
 20
-1338.33422851562
 30
0.0
 11
1869.91731501926
 21
-1338.33422851562
 31
0.0
  0
LINE
  5
   5C9
  8
0
  6
CONTINUOUS
 62
     7
 10
1869.91731501926
 20
-1336.33422851562
 30
0.0
 11
1869.91731501926
 21
-1339.83422851562
 31
0.0
  0
LINE
  5
   5CA
  8
0
  6
CONTINUOUS
 62
     7
 10
1864.91731253972
 20
-1336.33422851562
 30
0.0
 11
1864.91731521001
 21
-1339.83423995965
 31
0.0
  0
LINE
  5
   5CB
  8
0
  6
CONTINUOUS
 62
     7
 10
1864.91731501926
 20
-1339.83422851562
 30
0.0
 11
1869.91731501926
 21
-1339.83422851562
 31
0.0
  0
CIRCLE
  5
   5CC
  8
0
  6
CONTINUOUS
 62
     7
 10
1867.41732225773
 20
-1346.33416262194
 30
0.0
 40
4.4999575073053
  0
LINE
  5
   5CD
  8
0
  6
DASHDOT
 62
     7
 10
1856.01737540965
 20
-1346.334235552
 30
0.0
 11
1878.81737540965
 21
-1346.334235552
 31
0.0
  0
LINE
  5
   5CE
  8
0
  6
DASHDOT
 62
     7
 10
1867.41737540965
 20
-1334.934235552
 30
0.0
 11
1867.41737540965
 21
-1357.734235552
 31
0.0
  0
LINE
  5
   5CF
  8
0
  6
CONTINUOUS
 62
     7
 10
1840.91734687806
 20
-1336.33422851562
 30
0.0
 11
1865.91735187532
 21
-1336.33422851562
 31
0.0
  0
LINE
  5
   5D0
  8
0
  6
DASHDOT
 62
     7
 10
1852.41735839844
 20
-1435.03423688886
 30
0.0
 11
1852.41735839844
 21
-1460.03423688886
 31
0.0
  0
LINE
  5
   5D1
  8
0
  6
DASHDOT
 62
     7
 10
1839.91735839844
 20
-1447.53423688886
 30
0.0
 11
1864.91735839844
 21
-1447.53423688886
 31
0.0
  0
INSERT
  5
   5D2
  8
0
  6
CONTINUOUS
 62
     7
  2
$2SSS
 10
1897.41739453914
 20
-1346.33416262194
 30
0.0
 50
359.999999792138
  0
LINE
  5
   5D3
  8
0
  6
DASHDOT
 62
     7
 10
1867.41744035283
 20
-1431.83422314402
 30
0.0
 11
1867.41744035283
 21
-1460.83413815863
 31
0.0
  0
LINE
  5
   5D4
  8
0
  6
DASHDOT
 62
     7
 10
1852.91748284553
 20
-1446.33418065132
 30
0.0
 11
1881.91739786014
 21
-1446.33418065132
 31
0.0
  0
LINE
  5
   5D5
  8
0
  6
CONTINUOUS
 62
     7
 10
1898.64865112305
 20
-1395.97805115687
 30
0.0
 11
1899.39865112305
 21
-1395.97805115687
 31
0.0
  0
LINE
  5
   5D6
  8
0
  6
CONTINUOUS
 62
     7
 10
1898.64865112305
 20
-1400.47805115687
 30
0.0
 11
1899.39865112305
 21
-1400.47805115687
 31
0.0
  0
CIRCLE
  5
   5D7
  8
0
  6
CONTINUOUS
 62
     7
 10
1899.02365112305
 20
-1414.97805115687
 30
0.0
 40
2.25
  0
CIRCLE
  5
   5D8
  8
0
  6
CONTINUOUS
 62
     7
 10
1899.02365112305
 20
-1414.97805115687
 30
0.0
 40
1.5
  0
LINE
  5
   5D9
  8
0
  6
CONTINUOUS
 62
     7
 10
1898.64865112305
 20
-1395.97805115687
 30
0.0
 11
1898.64865112305
 21
-1400.47805115687
 31
0.0
  0
LINE
  5
   5DA
  8
0
  6
CONTINUOUS
 62
     7
 10
1899.39865112305
 20
-1395.97805115687
 30
0.0
 11
1899.39865112305
 21
-1400.47805115687
 31
0.0
  0
LINE
  5
   5DB
  8
0
  6
CONTINUOUS
 62
     7
 10
1927.19864624023
 20
-1413.05305115687
 30
0.0
 11
1927.42364624023
 21
-1413.05305115687
 31
0.0
  0
LINE
  5
   5DC
  8
0
  6
CONTINUOUS
 62
     7
 10
1926.54864624023
 20
-1416.90305115687
 30
0.0
 11
1926.94864624023
 21
-1416.90305115687
 31
0.0
  0
LINE
  5
   5DD
  8
0
  6
CONTINUOUS
 62
     7
 10
1925.94864624023
 20
-1415.35305115687
 30
0.0
 11
1925.94864624023
 21
-1415.60305115687
 31
0.0
  0
ARC
  5
   5DE
  8
0
  6
CONTINUOUS
 62
     7
 10
1924.64864624023
 20
-1415.35305115687
 30
0.0
 40
1.3
 50
359.999999844103
 51
539.999999844103
  0
ARC
  5
   5DF
  8
0
  6
CONTINUOUS
 62
     7
 10
1924.64864624023
 20
-1415.60305115687
 30
0.0
 40
1.3
 50
539.999999844103
 51
719.999999844103
  0
ARC
  5
   5E0
  8
0
  6
CONTINUOUS
 62
     7
 10
1924.64864624023
 20
-1415.35305115687
 30
0.0
 40
0.900000000000001
 50
359.999999844103
 51
539.999999844103
  0
ARC
  5
   5E1
  8
0
  6
CONTINUOUS
 62
     7
 10
1924.64864624023
 20
-1415.60305115687
 30
0.0
 40
0.899999999999999
 50
539.999999844103
 51
719.999999844103
  0
LINE
  5
   5E2
  8
0
  6
CONTINUOUS
 62
     7
 10
1925.54864624023
 20
-1415.35305115687
 30
0.0
 11
1925.54864624023
 21
-1415.60305115687
 31
0.0
  0
LINE
  5
   5E3
  8
0
  6
CONTINUOUS
 62
     7
 10
1926.07364624024
 20
-1414.25305115687
 30
0.0
 11
1926.07364624024
 21
-1414.65305115687
 31
0.0
  0
LINE
  5
   5E4
  8
0
  6
CONTINUOUS
 62
     7
 10
1926.07364624023
 20
-1414.65305115687
 30
0.0
 11
1926.54864624023
 21
-1414.65305115687
 31
0.0
  0
LINE
  5
   5E5
  8
0
  6
CONTINUOUS
 62
     7
 10
1927.42364624023
 20
-1414.25305115687
 30
0.0
 11
1927.42364624023
 21
-1414.65305115687
 31
0.0
  0
LINE
  5
   5E6
  8
0
  6
CONTINUOUS
 62
     7
 10
1926.07364624023
 20
-1414.25305115687
 30
0.0
 11
1926.54864624023
 21
-1414.25305115687
 31
0.0
  0
LINE
  5
   5E7
  8
0
  6
CONTINUOUS
 62
     7
 10
1926.54864624023
 20
-1414.65305115687
 30
0.0
 11
1926.54864624023
 21
-1416.90305115687
 31
0.0
  0
LINE
  5
   5E8
  8
0
  6
CONTINUOUS
 62
     7
 10
1926.94864624023
 20
-1414.65305115687
 30
0.0
 11
1926.94864624023
 21
-1416.90305115687
 31
0.0
  0
LINE
  5
   5E9
  8
0
  6
CONTINUOUS
 62
     7
 10
1926.94864624023
 20
-1414.65305115687
 30
0.0
 11
1927.42364624023
 21
-1414.65305115687
 31
0.0
  0
LINE
  5
   5EA
  8
0
  6
CONTINUOUS
 62
     7
 10
1926.94864624023
 20
-1414.25305115687
 30
0.0
 11
1927.42364624023
 21
-1414.25305115687
 31
0.0
  0
LINE
  5
   5EB
  8
0
  6
CONTINUOUS
 62
     7
 10
1926.54864624023
 20
-1413.70305115687
 30
0.0
 11
1926.54864624023
 21
-1414.25305115687
 31
0.0
  0
LINE
  5
   5EC
  8
0
  6
CONTINUOUS
 62
     7
 10
1926.94864624023
 20
-1413.70305115687
 30
0.0
 11
1926.94864624023
 21
-1414.25305115687
 31
0.0
  0
ARC
  5
   5ED
  8
0
  6
CONTINUOUS
 62
     7
 10
1927.19864624023
 20
-1413.70305115687
 30
0.0
 40
0.65
 50
449.999999844103
 51
539.999999844103
  0
ARC
  5
   5EE
  8
0
  6
CONTINUOUS
 62
     7
 10
1927.19864624023
 20
-1413.70305115687
 30
0.0
 40
0.25
 50
449.999999844103
 51
539.999999844103
  0
LINE
  5
   5EF
  8
0
  6
CONTINUOUS
 62
     7
 10
1927.42364624023
 20
-1413.05305115687
 30
0.0
 11
1927.42364624023
 21
-1413.45305115687
 31
0.0
  0
LINE
  5
   5F0
  8
0
  6
CONTINUOUS
 62
     7
 10
1927.19864624023
 20
-1413.45305115687
 30
0.0
 11
1927.42364624023
 21
-1413.45305115687
 31
0.0
  0
LINE
  5
   5F1
  8
0
  6
CONTINUOUS
 62
     7
 10
1928.79864624023
 20
-1413.05305115687
 30
0.0
 11
1929.02364624023
 21
-1413.05305115687
 31
0.0
  0
LINE
  5
   5F2
  8
0
  6
CONTINUOUS
 62
     7
 10
1928.14864624023
 20
-1416.90305115687
 30
0.0
 11
1928.54864624023
 21
-1416.90305115687
 31
0.0
  0
LINE
  5
   5F3
  8
0
  6
CONTINUOUS
 62
     7
 10
1927.67364624023
 20
-1414.25305115687
 30
0.0
 11
1927.67364624023
 21
-1414.65305115687
 31
0.0
  0
LINE
  5
   5F4
  8
0
  6
CONTINUOUS
 62
     7
 10
1927.67364624023
 20
-1414.65305115687
 30
0.0
 11
1928.14864624023
 21
-1414.65305115687
 31
0.0
  0
LINE
  5
   5F5
  8
0
  6
CONTINUOUS
 62
     7
 10
1929.02364624023
 20
-1414.25305115687
 30
0.0
 11
1929.02364624023
 21
-1414.65305115687
 31
0.0
  0
LINE
  5
   5F6
  8
0
  6
CONTINUOUS
 62
     7
 10
1927.67364624023
 20
-1414.25305115687
 30
0.0
 11
1928.14864624023
 21
-1414.25305115687
 31
0.0
  0
LINE
  5
   5F7
  8
0
  6
CONTINUOUS
 62
     7
 10
1928.14864624023
 20
-1414.65305115687
 30
0.0
 11
1928.14864624023
 21
-1416.90305115687
 31
0.0
  0
LINE
  5
   5F8
  8
0
  6
CONTINUOUS
 62
     7
 10
1928.54864624023
 20
-1414.65305115687
 30
0.0
 11
1928.54864624023
 21
-1416.90305115687
 31
0.0
  0
LINE
  5
   5F9
  8
0
  6
CONTINUOUS
 62
     7
 10
1928.54864624023
 20
-1414.65305115687
 30
0.0
 11
1929.02364624023
 21
-1414.65305115687
 31
0.0
  0
LINE
  5
   5FA
  8
0
  6
CONTINUOUS
 62
     7
 10
1928.54864624023
 20
-1414.25305115687
 30
0.0
 11
1929.02364624023
 21
-1414.25305115687
 31
0.0
  0
LINE
  5
   5FB
  8
0
  6
CONTINUOUS
 62
     7
 10
1928.14864624023
 20
-1413.70305115687
 30
0.0
 11
1928.14864624023
 21
-1414.25305115687
 31
0.0
  0
LINE
  5
   5FC
  8
0
  6
CONTINUOUS
 62
     7
 10
1928.54864624023
 20
-1413.70305115687
 30
0.0
 11
1928.54864624023
 21
-1414.25305115687
 31
0.0
  0
ARC
  5
   5FD
  8
0
  6
CONTINUOUS
 62
     7
 10
1928.79864624023
 20
-1413.70305115687
 30
0.0
 40
0.65
 50
449.999999844103
 51
539.999999844103
  0
ARC
  5
   5FE
  8
0
  6
CONTINUOUS
 62
     7
 10
1928.79864624023
 20
-1413.70305115687
 30
0.0
 40
0.25
 50
449.999999844103
 51
539.999999844103
  0
LINE
  5
   5FF
  8
0
  6
CONTINUOUS
 62
     7
 10
1929.02364624023
 20
-1413.05305115687
 30
0.0
 11
1929.02364624023
 21
-1413.45305115687
 31
0.0
  0
LINE
  5
   600
  8
0
  6
CONTINUOUS
 62
     7
 10
1928.79864624023
 20
-1413.45305115687
 30
0.0
 11
1929.02364624023
 21
-1413.45305115687
 31
0.0
  0
LINE
  5
   601
  8
0
  6
CONTINUOUS
 62
     7
 10
1926.34864624023
 20
-1399.65305115687
 30
0.0
 11
1926.74864624023
 21
-1399.65305115687
 31
0.0
  0
ARC
  5
   602
  8
0
  6
CONTINUOUS
 62
     7
 10
1924.64864624023
 20
-1398.10305115687
 30
0.0
 40
1.3
 50
359.999999844103
 51
539.999999844103
  0
ARC
  5
   603
  8
0
  6
CONTINUOUS
 62
     7
 10
1924.64864624023
 20
-1398.10305115687
 30
0.0
 40
0.900000000000001
 50
359.999999844103
 51
539.999999844103
  0
ARC
  5
   604
  8
0
  6
CONTINUOUS
 62
     7
 10
1924.64864624023
 20
-1398.35305115687
 30
0.0
 40
1.3
 50
539.999999844103
 51
719.999999844103
  0
ARC
  5
   605
  8
0
  6
CONTINUOUS
 62
     7
 10
1924.64864624023
 20
-1398.35305115687
 30
0.0
 40
0.899999999999999
 50
539.999999844103
 51
719.999999844103
  0
LINE
  5
   606
  8
0
  6
CONTINUOUS
 62
     7
 10
1926.34864624023
 20
-1396.80305115687
 30
0.0
 11
1926.34864624023
 21
-1399.65305115687
 31
0.0
  0
LINE
  5
   607
  8
0
  6
CONTINUOUS
 62
     7
 10
1926.74864624023
 20
-1397.90305115687
 30
0.0
 11
1926.74864624023
 21
-1399.65305115687
 31
0.0
  0
LINE
  5
   608
  8
0
  6
CONTINUOUS
 62
     7
 10
1928.14864624023
 20
-1397.90305115687
 30
0.0
 11
1928.14864624023
 21
-1399.65305115687
 31
0.0
  0
LINE
  5
   609
  8
0
  6
CONTINUOUS
 62
     7
 10
1928.54864624023
 20
-1397.80305115687
 30
0.0
 11
1928.54864624023
 21
-1399.65305115687
 31
0.0
  0
LINE
  5
   60A
  8
0
  6
CONTINUOUS
 62
     7
 10
1926.34864624023
 20
-1396.80305115687
 30
0.0
 11
1926.74864624023
 21
-1396.80305115687
 31
0.0
  0
ARC
  5
   60B
  8
0
  6
CONTINUOUS
 62
     7
 10
1927.44864624023
 20
-1397.90305115687
 30
0.0
 40
0.699999999999999
 50
359.999999844103
 51
539.999999844103
  0
LINE
  5
   60C
  8
0
  6
CONTINUOUS
 62
     7
 10
1926.74864624023
 20
-1396.80305115687
 30
0.0
 11
1926.74864624023
 21
-1397.20305115687
 31
0.0
  0
ARC
  5
   60D
  8
0
  6
CONTINUOUS
 62
     7
 10
1927.54864624023
 20
-1397.80305115687
 30
0.0
 40
1.0
 50
359.999999844103
 51
503.130102198259
  0
LINE
  5
   60E
  8
0
  6
CONTINUOUS
 62
     7
 10
1928.14864624023
 20
-1399.65305115687
 30
0.0
 11
1928.54864624023
 21
-1399.65305115687
 31
0.0
  0
LINE
  5
   60F
  8
0
  6
CONTINUOUS
 62
     7
 10
1926.81697103433
 20
-1387.17508872516
 30
0.0
 11
1926.58293934029
 21
-1387.21635420847
 31
0.0
  0
LINE
  5
   610
  8
0
  6
CONTINUOUS
 62
     7
 10
1926.58295379518
 20
-1387.21634635287
 30
0.0
 11
1926.37715089486
 21
-1387.33516509604
 31
0.0
  0
LINE
  5
   611
  8
0
  6
CONTINUOUS
 62
     7
 10
1926.37714242916
 20
-1387.33517377198
 30
0.0
 11
1926.22439430416
 21
-1387.51721448318
 31
0.0
  0
LINE
  5
   612
  8
0
  6
CONTINUOUS
 62
     7
 10
1926.22439715494
 20
-1387.51721336872
 30
0.0
 11
1926.14312121945
 21
-1387.74051954296
 31
0.0
  0
LINE
  5
   613
  8
0
  6
CONTINUOUS
 62
     7
 10
1926.14311395338
 20
-1387.7405191367
 30
0.0
 11
1926.14311395338
 21
-1387.97815665654
 31
0.0
  0
LINE
  5
   614
  8
0
  6
CONTINUOUS
 62
     7
 10
1926.14312055717
 20
-1387.97815423522
 30
0.0
 11
1926.22439649266
 21
-1388.20146040946
 31
0.0
  0
LINE
  5
   615
  8
0
  6
CONTINUOUS
 62
     7
 10
1926.22439293274
 20
-1388.20146136261
 30
0.0
 11
1926.37714105774
 21
-1388.38350207381
 31
0.0
  0
LINE
  5
   616
  8
0
  6
CONTINUOUS
 62
     7
 10
1926.37715423033
 20
-1388.3835066742
 30
0.0
 11
1926.58295713065
 21
-1388.50232541737
 31
0.0
  0
LINE
  5
   617
  8
0
  6
CONTINUOUS
 62
     7
 10
1926.58294096695
 20
-1388.50232248976
 30
0.0
 11
1926.816972661
 21
-1388.54358797307
 31
0.0
  0
LINE
  5
   618
  8
0
  6
CONTINUOUS
 62
     7
 10
1926.81697259595
 20
-1388.54358777455
 30
0.0
 11
1927.0463961189
 21
-1388.54358777455
 31
0.0
  0
LINE
  5
   619
  8
0
  6
CONTINUOUS
 62
     7
 10
1927.04640832575
 20
-1388.54358290822
 30
0.0
 11
1927.13394035424
 21
-1388.57202528583
 31
0.0
  0
LINE
  5
   61A
  8
0
  6
CONTINUOUS
 62
     7
 10
1927.13393938899
 20
-1388.57202551518
 30
0.0
 11
1927.18803941638
 21
-1388.64648791952
 31
0.0
  0
LINE
  5
   61B
  8
0
  6
CONTINUOUS
 62
     7
 10
1927.18802819898
 20
-1388.64649257115
 30
0.0
 11
1927.18802819898
 21
-1388.73853310994
 31
0.0
  0
LINE
  5
   61C
  8
0
  6
CONTINUOUS
 62
     7
 10
1927.18803541782
 20
-1388.73852982852
 30
0.0
 11
1927.13393539043
 21
-1388.81299223286
 31
0.0
  0
LINE
  5
   61D
  8
0
  6
CONTINUOUS
 62
     7
 10
1927.13393789173
 20
-1388.81299223076
 30
0.0
 11
1927.04640586325
 21
-1388.84143460837
 31
0.0
  0
LINE
  5
   61E
  8
0
  6
CONTINUOUS
 62
     7
 10
1926.21322045972
 20
-1388.84143790654
 30
0.0
 11
1927.0463961189
 21
-1388.84143790654
 31
0.0
  0
LINE
  5
   61F
  8
0
  6
CONTINUOUS
 62
     7
 10
1926.21322045972
 20
-1388.84143790654
 30
0.0
 11
1926.21322045972
 21
-1389.38883742741
 31
0.0
  0
LINE
  5
   620
  8
0
  6
CONTINUOUS
 62
     7
 10
1926.21322045972
 20
-1389.38883742741
 30
0.0
 11
1927.0463961189
 21
-1389.38883742741
 31
0.0
  0
LINE
  5
   621
  8
0
  6
CONTINUOUS
 62
     7
 10
1927.28455289214
 20
-1389.34684306594
 30
0.0
 11
1927.0464013554
 21
-1389.38883620293
 31
0.0
  0
LINE
  5
   622
  8
0
  6
CONTINUOUS
 62
     7
 10
1927.49398534998
 20
-1389.22592612504
 30
0.0
 11
1927.28455081107
 21
-1389.34684203352
 31
0.0
  0
LINE
  5
   623
  8
0
  6
CONTINUOUS
 62
     7
 10
1927.64944283665
 20
-1389.04067163938
 30
0.0
 11
1927.49399392386
 21
-1389.2259247702
 31
0.0
  0
LINE
  5
   624
  8
0
  6
CONTINUOUS
 62
     7
 10
1927.73214553061
 20
-1388.81343095776
 30
0.0
 11
1927.64943526124
 21
-1389.04067775069
 31
0.0
  0
LINE
  5
   625
  8
0
  6
CONTINUOUS
 62
     7
 10
1927.73214135816
 20
-1388.57159718922
 30
0.0
 11
1927.73214135816
 21
-1388.81342849186
 31
0.0
  0
LINE
  5
   626
  8
0
  6
CONTINUOUS
 62
     7
 10
1927.64943507145
 20
-1388.34434898465
 30
0.0
 11
1927.73214534082
 21
-1388.57159577758
 31
0.0
  0
LINE
  5
   627
  8
0
  6
CONTINUOUS
 62
     7
 10
1927.49398879238
 20
-1388.15909092163
 30
0.0
 11
1927.64943771559
 21
-1388.34434455594
 31
0.0
  0
LINE
  5
   628
  8
0
  6
CONTINUOUS
 62
     7
 10
1927.28454646903
 20
-1388.03818043058
 30
0.0
 11
1927.49398099858
 21
-1388.15909585679
 31
0.0
  0
LINE
  5
   629
  8
0
  6
CONTINUOUS
 62
     7
 10
1927.04640840275
 20
-1387.99618918133
 30
0.0
 11
1927.28455993606
 21
-1388.03818279421
 31
0.0
  0
LINE
  5
   62A
  8
0
  6
CONTINUOUS
 62
     7
 10
1926.81697259595
 20
-1387.99618777684
 30
0.0
 11
1927.0463961189
 21
-1387.99618777684
 31
0.0
  0
LINE
  5
   62B
  8
0
  6
CONTINUOUS
 62
     7
 10
1926.73653669199
 20
-1387.9700494951
 30
0.0
 11
1926.81698102676
 21
-1387.99618541553
 31
0.0
  0
LINE
  5
   62C
  8
0
  6
CONTINUOUS
 62
     7
 10
1926.68681806486
 20
-1387.90162806076
 30
0.0
 11
1926.73653119965
 21
-1387.97005324172
 31
0.0
  0
LINE
  5
   62D
  8
0
  6
CONTINUOUS
 62
     7
 10
1926.68681512525
 20
-1387.81704911641
 30
0.0
 11
1926.68681512525
 21
-1387.90162667683
 31
0.0
  0
LINE
  5
   62E
  8
0
  6
CONTINUOUS
 62
     7
 10
1926.73653858359
 20
-1387.7486262439
 30
0.0
 11
1926.6868254488
 21
-1387.81705142486
 31
0.0
  0
LINE
  5
   62F
  8
0
  6
CONTINUOUS
 62
     7
 10
1926.81698413206
 20
-1387.72248427731
 30
0.0
 11
1926.73653979728
 21
-1387.74862019774
 31
0.0
  0
LINE
  5
   630
  8
0
  6
CONTINUOUS
 62
     7
 10
1926.81697259595
 20
-1387.7224880164
 30
0.0
 11
1927.66221795728
 21
-1387.7224880164
 31
0.0
  0
LINE
  5
   631
  8
0
  6
CONTINUOUS
 62
     7
 10
1926.81697259595
 20
-1387.17508801869
 30
0.0
 11
1927.66221795728
 21
-1387.17508801869
 31
0.0
  0
LINE
  5
   632
  8
0
  6
CONTINUOUS
 62
     7
 10
1928.44161995582
 20
-1388.94608634758
 30
0.0
 11
1928.31282052127
 21
-1389.38883584331
 31
0.0
  0
LINE
  5
   633
  8
0
  6
CONTINUOUS
 62
     7
 10
1928.44161401441
 20
-1388.94608792714
 30
0.0
 11
1929.05632959058
 21
-1388.94608792714
 31
0.0
  0
LINE
  5
   634
  8
0
  6
CONTINUOUS
 62
     7
 10
1929.05633430497
 20
-1388.94608674675
 30
0.0
 11
1929.18513373952
 21
-1389.38883624248
 31
0.0
  0
LINE
  5
   635
  8
0
  6
CONTINUOUS
 62
     7
 10
1929.18512902906
 20
-1389.38883742741
 30
0.0
 11
1929.75522027662
 21
-1389.38883742741
 31
0.0
  0
LINE
  5
   636
  8
0
  6
CONTINUOUS
 62
     7
 10
1929.11122089268
 20
-1387.17508768036
 30
0.0
 11
1929.7552258834
 21
-1389.3888376499
 31
0.0
  0
LINE
  5
   637
  8
0
  6
CONTINUOUS
 62
     7
 10
1928.38672052076
 20
-1387.17508801869
 30
0.0
 11
1929.11121545484
 21
-1387.17508801869
 31
0.0
  0
LINE
  5
   638
  8
0
  6
CONTINUOUS
 62
     7
 10
1928.38672358741
 20
-1387.1750964517
 30
0.0
 11
1927.74271859669
 21
-1389.38884642123
 31
0.0
  0
LINE
  5
   639
  8
0
  6
CONTINUOUS
 62
     7
 10
1928.74897618444
 20
-1387.88954569177
 30
0.0
 11
1928.89708569593
 21
-1388.39868786305
 31
0.0
  0
LINE
  5
   63A
  8
0
  6
CONTINUOUS
 62
     7
 10
1928.60085473707
 20
-1388.39868792942
 30
0.0
 11
1928.89708123853
 21
-1388.39868792942
 31
0.0
  0
LINE
  5
   63B
  8
0
  6
CONTINUOUS
 62
     7
 10
1928.74898072516
 20
-1387.88954519329
 30
0.0
 11
1928.60086367084
 21
-1388.39868708442
 31
0.0
  0
LINE
  5
   63C
  8
0
  6
CONTINUOUS
 62
     7
 10
1931.62259066286
 20
-1387.47770378826
 30
0.0
 11
1931.81837617842
 21
-1387.72453712128
 31
0.0
  0
LINE
  5
   63D
  8
0
  6
CONTINUOUS
 62
     7
 10
1931.36520850659
 20
-1387.29603029956
 30
0.0
 11
1931.62259374462
 21
-1387.47770810395
 31
0.0
  0
LINE
  5
   63E
  8
0
  6
CONTINUOUS
 62
     7
 10
1931.06705571913
 20
-1387.19423100345
 30
0.0
 11
1931.36520482547
 21
-1387.29603429586
 31
0.0
  0
LINE
  5
   63F
  8
0
  6
CONTINUOUS
 62
     7
 10
1930.75230569318
 20
-1387.1805477275
 30
0.0
 11
1931.06705637296
 21
-1387.19422961647
 31
0.0
  0
LINE
  5
   640
  8
0
  6
CONTINUOUS
 62
     7
 10
1930.75230010269
 20
-1387.18054715295
 30
0.0
 11
1930.44643767617
 21
-1387.2560953209
 31
0.0
  0
LINE
  5
   641
  8
0
  6
CONTINUOUS
 62
     7
 10
1930.44644247369
 20
-1387.25609178325
 30
0.0
 11
1930.17426383981
 21
-1387.41474980875
 31
0.0
  0
LINE
  5
   642
  8
0
  6
CONTINUOUS
 62
     7
 10
1930.17425959406
 20
-1387.41475462258
 30
0.0
 11
1929.95779841471
 21
-1387.64366888128
 31
0.0
  0
LINE
  5
   643
  8
0
  6
CONTINUOUS
 62
     7
 10
1929.95780367402
 20
-1387.6436643858
 30
0.0
 11
1929.81460758443
 21
-1387.92428924782
 31
0.0
  0
LINE
  5
   644
  8
0
  6
CONTINUOUS
 62
     7
 10
1929.81460509109
 20
-1387.92429388745
 30
0.0
 11
1929.75627074053
 21
-1388.23389520237
 31
0.0
  0
LINE
  5
   645
  8
0
  6
CONTINUOUS
 62
     7
 10
1929.75627136237
 20
-1388.23389331441
 30
0.0
 11
1929.78752134742
 21
-1388.54738894601
 31
0.0
  0
LINE
  5
   646
  8
0
  6
CONTINUOUS
 62
     7
 10
1929.78751891926
 20
-1388.54738821019
 30
0.0
 11
1929.90582792572
 21
-1388.83938038258
 31
0.0
  0
LINE
  5
   647
  8
0
  6
CONTINUOUS
 62
     7
 10
1929.90582850874
 20
-1388.83937784031
 30
0.0
 11
1930.08186153428
 21
-1389.0670747453
 31
0.0
  0
LINE
  5
   648
  8
0
  6
CONTINUOUS
 62
     7
 10
1930.08186455389
 20
-1389.067079964
 30
0.0
 11
1930.31065483542
 21
-1389.24169439897
 31
0.0
  0
LINE
  5
   649
  8
0
  6
CONTINUOUS
 62
     7
 10
1930.31065016885
 20
-1389.24169187059
 30
0.0
 11
1930.57672529823
 21
-1389.3514178206
 31
0.0
  0
LINE
  5
   64A
  8
0
  6
CONTINUOUS
 62
     7
 10
1930.57672814022
 20
-1389.3514191512
 30
0.0
 11
1930.8620980074
 21
-1389.38883751512
 31
0.0
  0
LINE
  5
   64B
  8
0
  6
CONTINUOUS
 62
     7
 10
1931.14747198762
 20
-1389.35141808184
 30
0.0
 11
1930.86210212045
 21
-1389.38883644576
 31
0.0
  0
LINE
  5
   64C
  8
0
  6
CONTINUOUS
 62
     7
 10
1931.41353804093
 20
-1389.24169303682
 30
0.0
 11
1931.14746291155
 21
-1389.35141898683
 31
0.0
  0
LINE
  5
   64D
  8
0
  6
CONTINUOUS
 62
     7
 10
1931.64233599109
 20
-1389.06707283765
 30
0.0
 11
1931.41354570955
 21
-1389.24168727262
 31
0.0
  0
LINE
  5
   64E
  8
0
  6
CONTINUOUS
 62
     7
 10
1931.81837475072
 20
-1388.83938112937
 30
0.0
 11
1931.64233410318
 21
-1389.06707801909
 31
0.0
  0
LINE
  5
   64F
  8
0
  6
CONTINUOUS
 62
     7
 10
1931.34545306287
 20
-1388.56371039216
 30
0.0
 11
1931.81837628983
 21
-1388.83937945229
 31
0.0
  0
LINE
  5
   650
  8
0
  6
CONTINUOUS
 62
     7
 10
1931.34544454497
 20
-1388.56371584382
 30
0.0
 11
1931.22052846009
 21
-1388.71154395807
 31
0.0
  0
LINE
  5
   651
  8
0
  6
CONTINUOUS
 62
     7
 10
1931.22053081036
 20
-1388.71153992035
 30
0.0
 11
1931.05271461573
 21
-1388.80796118003
 31
0.0
  0
LINE
  5
   652
  8
0
  6
CONTINUOUS
 62
     7
 10
1931.05271920403
 20
-1388.80796191079
 30
0.0
 11
1930.86209875801
 21
-1388.84143778593
 31
0.0
  0
LINE
  5
   653
  8
0
  6
CONTINUOUS
 62
     7
 10
1930.67146882057
 20
-1388.8079616966
 30
0.0
 11
1930.86208926659
 21
-1388.84143757175
 31
0.0
  0
LINE
  5
   654
  8
0
  6
CONTINUOUS
 62
     7
 10
1930.50365620876
 20
-1388.71153860351
 30
0.0
 11
1930.67147240339
 21
-1388.80795986319
 31
0.0
  0
LINE
  5
   655
  8
0
  6
CONTINUOUS
 62
     7
 10
1930.37874076228
 20
-1388.56370954973
 30
0.0
 11
1930.50365684717
 21
-1388.71153766398
 31
0.0
  0
LINE
  5
   656
  8
0
  6
CONTINUOUS
 62
     7
 10
1930.30771745349
 20
-1388.35729321132
 30
0.0
 11
1930.37874711647
 21
-1388.56371077834
 31
0.0
  0
LINE
  5
   657
  8
0
  6
CONTINUOUS
 62
     7
 10
1930.3210940969
 20
-1388.13941099277
 30
0.0
 11
1930.30771976672
 21
-1388.35729746316
 31
0.0
  0
LINE
  5
   658
  8
0
  6
CONTINUOUS
 62
     7
 10
1930.41682743046
 20
-1387.9432228643
 30
0.0
 11
1930.32109378318
 21
-1388.13940655543
 31
0.0
  0
LINE
  5
   659
  8
0
  6
CONTINUOUS
 62
     7
 10
1930.58034849915
 20
-1387.79860850207
 30
0.0
 11
1930.41682004392
 21
-1387.94322274348
 31
0.0
  0
LINE
  5
   65A
  8
0
  6
CONTINUOUS
 62
     7
 10
1930.78676332515
 20
-1387.72758192967
 30
0.0
 11
1930.58035005612
 21
-1387.79860967857
 31
0.0
  0
LINE
  5
   65B
  8
0
  6
CONTINUOUS
 62
     7
 10
1930.78675971449
 20
-1387.72758397214
 30
0.0
 11
1931.00464765965
 21
-1387.7409549662
 31
0.0
  0
LINE
  5
   65C
  8
0
  6
CONTINUOUS
 62
     7
 10
1931.00465365404
 20
-1387.74095681385
 30
0.0
 11
1931.20083592943
 21
-1387.8366919008
 31
0.0
  0
LINE
  5
   65D
  8
0
  6
CONTINUOUS
 62
     7
 10
1931.20083855518
 20
-1387.836680245
 30
0.0
 11
1931.34545373955
 21
-1388.00020392389
 31
0.0
  0
LINE
  5
   65E
  8
0
  6
CONTINUOUS
 62
     7
 10
1931.81837982783
 20
-1387.72453698642
 30
0.0
 11
1931.34545660087
 21
-1388.00020604656
 31
0.0
  0
LINE
  5
   65F
  8
0
  6
CONTINUOUS
 62
     7
 10
1932.0196169441
 20
-1387.17508849553
 30
0.0
 11
1932.0196169441
 21
-1389.38883742741
 31
0.0
  0
LINE
  5
   660
  8
0
  6
CONTINUOUS
 62
     7
 10
1932.0196169441
 20
-1389.38883742741
 30
0.0
 11
1933.46861444166
 21
-1389.38883742741
 31
0.0
  0
LINE
  5
   661
  8
0
  6
CONTINUOUS
 62
     7
 10
1933.46861444166
 20
-1388.84143790654
 30
0.0
 11
1933.46861444166
 21
-1389.38883742741
 31
0.0
  0
LINE
  5
   662
  8
0
  6
CONTINUOUS
 62
     7
 10
1932.56701837232
 20
-1388.84143790654
 30
0.0
 11
1933.46861444166
 21
-1388.84143790654
 31
0.0
  0
LINE
  5
   663
  8
0
  6
CONTINUOUS
 62
     7
 10
1932.56701837232
 20
-1388.5556627219
 30
0.0
 11
1932.56701837232
 21
-1388.84143790654
 31
0.0
  0
LINE
  5
   664
  8
0
  6
CONTINUOUS
 62
     7
 10
1932.56701837232
 20
-1388.5556627219
 30
0.0
 11
1933.34786401441
 21
-1388.5556627219
 31
0.0
  0
LINE
  5
   665
  8
0
  6
CONTINUOUS
 62
     7
 10
1933.34786401441
 20
-1388.00826272419
 30
0.0
 11
1933.34786401441
 21
-1388.5556627219
 31
0.0
  0
LINE
  5
   666
  8
0
  6
CONTINUOUS
 62
     7
 10
1932.56701837232
 20
-1388.00826272419
 30
0.0
 11
1933.34786401441
 21
-1388.00826272419
 31
0.0
  0
LINE
  5
   667
  8
0
  6
CONTINUOUS
 62
     7
 10
1932.56701837232
 20
-1387.7224880462
 30
0.0
 11
1932.56701837232
 21
-1388.00826272419
 31
0.0
  0
LINE
  5
   668
  8
0
  6
CONTINUOUS
 62
     7
 10
1932.56701837232
 20
-1387.7224880164
 30
0.0
 11
1933.46861444166
 21
-1387.7224880164
 31
0.0
  0
LINE
  5
   669
  8
0
  6
CONTINUOUS
 62
     7
 10
1933.46861444166
 20
-1387.17508801869
 30
0.0
 11
1933.46861444166
 21
-1387.7224880164
 31
0.0
  0
LINE
  5
   66A
  8
0
  6
CONTINUOUS
 62
     7
 10
1932.0196169441
 20
-1387.17508801869
 30
0.0
 11
1933.46861444166
 21
-1387.17508801869
 31
0.0
  0
LINE
  5
   66B
  8
0
  6
CONTINUOUS
 62
     7
 10
1873.73817837429
 20
-1387.32475482861
 30
0.0
 11
1873.28432106157
 21
-1388.62150746203
 31
0.0
  0
LINE
  5
   66C
  8
0
  6
CONTINUOUS
 62
     7
 10
1873.28431334033
 20
-1388.62150363363
 30
0.0
 11
1874.10392393604
 21
-1388.62150363363
 31
0.0
  0
LINE
  5
   66D
  8
0
  6
CONTINUOUS
 62
     7
 10
1874.10392393604
 20
-1387.32475070394
 30
0.0
 11
1874.10392393604
 21
-1388.62150363363
 31
0.0
  0
LINE
  5
   66E
  8
0
  6
CONTINUOUS
 62
     7
 10
1873.73817076221
 20
-1387.32475070394
 30
0.0
 11
1874.10392393604
 21
-1387.32475070394
 31
0.0
  0
LINE
  5
   66F
  8
0
  6
CONTINUOUS
 62
     7
 10
1872.80717100635
 20
-1389.98474721349
 30
0.0
 11
1873.47217192188
 21
-1389.98474721349
 31
0.0
  0
LINE
  5
   670
  8
0
  6
CONTINUOUS
 62
     7
 10
1873.65838053198
 20
-1389.45274910287
 30
0.0
 11
1873.47217753632
 21
-1389.98474871581
 31
0.0
  0
LINE
  5
   671
  8
0
  6
CONTINUOUS
 62
     7
 10
1873.65837492481
 20
-1389.45274762548
 30
0.0
 11
1874.10392393604
 21
-1389.45274762548
 31
0.0
  0
LINE
  5
   672
  8
0
  6
CONTINUOUS
 62
     7
 10
1874.10392393604
 20
-1388.68800143636
 30
0.0
 11
1874.10392393604
 21
-1389.45274762548
 31
0.0
  0
LINE
  5
   673
  8
0
  6
CONTINUOUS
 62
     7
 10
1873.26103605762
 20
-1388.68800143636
 30
0.0
 11
1874.10392393604
 21
-1388.68800143636
 31
0.0
  0
LINE
  5
   674
  8
0
  6
CONTINUOUS
 62
     7
 10
1873.26104136432
 20
-1388.68800413395
 30
0.0
 11
1872.80717644868
 21
-1389.98474964144
 31
0.0
  0
LINE
  5
   675
  8
0
  6
CONTINUOUS
 62
     7
 10
1875.01332383331
 20
-1388.68800431267
 30
0.0
 11
1875.46718874895
 21
-1389.98474982016
 31
0.0
  0
LINE
  5
   676
  8
0
  6
CONTINUOUS
 62
     7
 10
1874.17042173877
 20
-1388.68800143636
 30
0.0
 11
1875.01330961719
 21
-1388.68800143636
 31
0.0
  0
LINE
  5
   677
  8
0
  6
CONTINUOUS
 62
     7
 10
1874.17042173877
 20
-1388.68800143636
 30
0.0
 11
1874.17042173877
 21
-1389.45274762548
 31
0.0
  0
LINE
  5
   678
  8
0
  6
CONTINUOUS
 62
     7
 10
1874.17042173877
 20
-1389.45274762548
 30
0.0
 11
1874.61597075
 21
-1389.45274762548
 31
0.0
  0
LINE
  5
   679
  8
0
  6
CONTINUOUS
 62
     7
 10
1874.61598233298
 20
-1389.45274678561
 30
0.0
 11
1874.80218532864
 21
-1389.98474639855
 31
0.0
  0
LINE
  5
   67A
  8
0
  6
CONTINUOUS
 62
     7
 10
1874.80217375293
 20
-1389.98474721349
 30
0.0
 11
1875.46717466846
 21
-1389.98474721349
 31
0.0
  0
LINE
  5
   67B
  8
0
  6
CONTINUOUS
 62
     7
 10
1874.17042173877
 20
-1387.32475070394
 30
0.0
 11
1874.5361749126
 21
-1387.32475070394
 31
0.0
  0
LINE
  5
   67C
  8
0
  6
CONTINUOUS
 62
     7
 10
1874.17042173877
 20
-1387.32475070394
 30
0.0
 11
1874.17042173877
 21
-1388.62150363363
 31
0.0
  0
LINE
  5
   67D
  8
0
  6
CONTINUOUS
 62
     7
 10
1874.17042173877
 20
-1388.62150363363
 30
0.0
 11
1874.99003996387
 21
-1388.62150363363
 31
0.0
  0
LINE
  5
   67E
  8
0
  6
CONTINUOUS
 62
     7
 10
1874.53618254955
 20
-1387.32475333481
 30
0.0
 11
1874.99004749908
 21
-1388.62150615708
 31
0.0
  0
LINE
  5
   67F
  8
0
  6
CONTINUOUS
 62
     7
 10
1875.63342680469
 20
-1388.62150363363
 30
0.0
 11
1876.39817442432
 21
-1388.62150363363
 31
0.0
  0
LINE
  5
   680
  8
0
  6
CONTINUOUS
 62
     7
 10
1876.39817442432
 20
-1387.32475070394
 30
0.0
 11
1876.39817442432
 21
-1388.62150363363
 31
0.0
  0
LINE
  5
   681
  8
0
  6
CONTINUOUS
 62
     7
 10
1875.63342680469
 20
-1387.32475070394
 30
0.0
 11
1876.39817442432
 21
-1387.32475070394
 31
0.0
  0
LINE
  5
   682
  8
0
  6
CONTINUOUS
 62
     7
 10
1875.63342680469
 20
-1389.98474721349
 30
0.0
 11
1876.39817442432
 21
-1389.98474721349
 31
0.0
  0
LINE
  5
   683
  8
0
  6
CONTINUOUS
 62
     7
 10
1876.39817442432
 20
-1388.68800143636
 30
0.0
 11
1876.39817442432
 21
-1389.98474721349
 31
0.0
  0
LINE
  5
   684
  8
0
  6
CONTINUOUS
 62
     7
 10
1875.63342680469
 20
-1388.68800143636
 30
0.0
 11
1876.39817442432
 21
-1388.68800143636
 31
0.0
  0
LINE
  5
   685
  8
0
  6
CONTINUOUS
 62
     7
 10
1877.69491972461
 20
-1387.32475070394
 30
0.0
 11
1877.69491972461
 21
-1388.62150363363
 31
0.0
  0
LINE
  5
   686
  8
0
  6
CONTINUOUS
 62
     7
 10
1877.69491972461
 20
-1388.62150363363
 30
0.0
 11
1878.45967497363
 21
-1388.62150363363
 31
0.0
  0
LINE
  5
   687
  8
0
  6
CONTINUOUS
 62
     7
 10
1878.45967497363
 20
-1387.32475070394
 30
0.0
 11
1878.45967497363
 21
-1388.62150363363
 31
0.0
  0
LINE
  5
   688
  8
0
  6
CONTINUOUS
 62
     7
 10
1877.69491972461
 20
-1387.32475070394
 30
0.0
 11
1878.45967497363
 21
-1387.32475070394
 31
0.0
  0
LINE
  5
   689
  8
0
  6
CONTINUOUS
 62
     7
 10
1877.69491972461
 20
-1389.98474721349
 30
0.0
 11
1878.45967497363
 21
-1389.98474721349
 31
0.0
  0
LINE
  5
   68A
  8
0
  6
CONTINUOUS
 62
     7
 10
1878.45967497363
 20
-1388.68800143636
 30
0.0
 11
1878.45967497363
 21
-1389.98474721349
 31
0.0
  0
LINE
  5
   68B
  8
0
  6
CONTINUOUS
 62
     7
 10
1877.69491972461
 20
-1388.68800143636
 30
0.0
 11
1878.45967497363
 21
-1388.68800143636
 31
0.0
  0
LINE
  5
   68C
  8
0
  6
CONTINUOUS
 62
     7
 10
1877.69491972461
 20
-1388.68800143636
 30
0.0
 11
1877.69491972461
 21
-1389.98474721349
 31
0.0
  0
LINE
  5
   68D
  8
0
  6
CONTINUOUS
 62
     7
 10
1878.52617277637
 20
-1387.32475070394
 30
0.0
 11
1878.73991026416
 21
-1387.32475070394
 31
0.0
  0
LINE
  5
   68E
  8
0
  6
CONTINUOUS
 62
     7
 10
1878.52617277637
 20
-1387.32475070394
 30
0.0
 11
1878.52617277637
 21
-1388.62150363363
 31
0.0
  0
LINE
  5
   68F
  8
0
  6
CONTINUOUS
 62
     7
 10
1878.52617277637
 20
-1388.62150363363
 30
0.0
 11
1879.30035032764
 21
-1388.62150363363
 31
0.0
  0
LINE
  5
   690
  8
0
  6
CONTINUOUS
 62
     7
 10
1879.18613522502
 20
-1388.53536541171
 30
0.0
 11
1879.30034727678
 21
-1388.62150128891
 31
0.0
  0
LINE
  5
   691
  8
0
  6
CONTINUOUS
 62
     7
 10
1879.05817274116
 20
-1388.47144097703
 30
0.0
 11
1879.18614059435
 21
-1388.53536767968
 31
0.0
  0
LINE
  5
   692
  8
0
  6
CONTINUOUS
 62
     7
 10
1879.21049514879
 20
-1388.34211133874
 30
0.0
 11
1879.05817430122
 21
-1388.4714448163
 31
0.0
  0
LINE
  5
   693
  8
0
  6
CONTINUOUS
 62
     7
 10
1879.31354228592
 20
-1388.17090918341
 30
0.0
 11
1879.21049969481
 21
-1388.34211279098
 31
0.0
  0
LINE
  5
   694
  8
0
  6
CONTINUOUS
 62
     7
 10
1879.35651630454
 20
-1387.9757715693
 30
0.0
 11
1879.31353993028
 21
-1388.17090856992
 31
0.0
  0
LINE
  5
   695
  8
0
  6
CONTINUOUS
 62
     7
 10
1879.33493117748
 20
-1387.77711484028
 30
0.0
 11
1879.35651472821
 21
-1387.97576905701
 31
0.0
  0
LINE
  5
   696
  8
0
  6
CONTINUOUS
 62
     7
 10
1879.25104052543
 20
-1387.59575972394
 30
0.0
 11
1879.33492573141
 21
-1387.77711045395
 31
0.0
  0
LINE
  5
   697
  8
0
  6
CONTINUOUS
 62
     7
 10
1879.11363216777
 20
-1387.45067752617
 30
0.0
 11
1879.25103757632
 21
-1387.59575810168
 31
0.0
  0
LINE
  5
   698
  8
0
  6
CONTINUOUS
 62
     7
 10
1878.93710306389
 20
-1387.35709300388
 30
0.0
 11
1879.11363963145
 21
-1387.45069042366
 31
0.0
  0
LINE
  5
   699
  8
0
  6
CONTINUOUS
 62
     7
 10
1878.73991049856
 20
-1387.32475181593
 30
0.0
 11
1878.93709986471
 21
-1387.35708519278
 31
0.0
  0
LINE
  5
   69A
  8
0
  6
CONTINUOUS
 62
     7
 10
1878.52617277637
 20
-1388.68800143636
 30
0.0
 11
1879.36532988086
 21
-1388.68800143636
 31
0.0
  0
LINE
  5
   69B
  8
0
  6
CONTINUOUS
 62
     7
 10
1878.52617277637
 20
-1388.68800143636
 30
0.0
 11
1878.52617277637
 21
-1389.98474721349
 31
0.0
  0
LINE
  5
   69C
  8
0
  6
CONTINUOUS
 62
     7
 10
1878.52617277637
 20
-1389.98474721349
 30
0.0
 11
1878.77348722949
 21
-1389.98474721349
 31
0.0
  0
LINE
  5
   69D
  8
0
  6
CONTINUOUS
 62
     7
 10
1878.99425463273
 20
-1389.95300133411
 30
0.0
 11
1878.77349044875
 21
-1389.98474867255
 31
0.0
  0
LINE
  5
   69E
  8
0
  6
CONTINUOUS
 62
     7
 10
1879.19712665984
 20
-1389.86033182639
 30
0.0
 11
1878.99425341724
 21
-1389.95300083806
 31
0.0
  0
LINE
  5
   69F
  8
0
  6
CONTINUOUS
 62
     7
 10
1879.3656581101
 20
-1389.71425195297
 30
0.0
 11
1879.19712476931
 21
-1389.86033245164
 31
0.0
  0
LINE
  5
   6A0
  8
0
  6
CONTINUOUS
 62
     7
 10
1879.48620386477
 20
-1389.52659876297
 30
0.0
 11
1879.36565943175
 21
-1389.71425134862
 31
0.0
  0
LINE
  5
   6A1
  8
0
  6
CONTINUOUS
 62
     7
 10
1879.54898696599
 20
-1389.31258584158
 30
0.0
 11
1879.48621230951
 21
-1389.52660131483
 31
0.0
  0
LINE
  5
   6A2
  8
0
  6
CONTINUOUS
 62
     7
 10
1879.54891171497
 20
-1389.08954803177
 30
0.0
 11
1879.54898037951
 21
-1389.31258147054
 31
0.0
  0
LINE
  5
   6A3
  8
0
  6
CONTINUOUS
 62
     7
 10
1879.48600118882
 20
-1388.87557059823
 30
0.0
 11
1879.54891317143
 21
-1389.08954651546
 31
0.0
  0
LINE
  5
   6A4
  8
0
  6
CONTINUOUS
 62
     7
 10
1879.36533171648
 20
-1388.68800423578
 30
0.0
 11
1879.4859982191
 21
-1388.87557575839
 31
0.0
  0
LINE
  5
   6A5
  8
0
  6
CONTINUOUS
 62
     7
 10
1876.46467222705
 20
-1387.32475070394
 30
0.0
 11
1876.67841734424
 21
-1387.32475070394
 31
0.0
  0
LINE
  5
   6A6
  8
0
  6
CONTINUOUS
 62
     7
 10
1876.46467222705
 20
-1387.32475070394
 30
0.0
 11
1876.46467222705
 21
-1388.62150363363
 31
0.0
  0
LINE
  5
   6A7
  8
0
  6
CONTINUOUS
 62
     7
 10
1876.46467222705
 20
-1388.62150363363
 30
0.0
 11
1877.23884977832
 21
-1388.62150363363
 31
0.0
  0
LINE
  5
   6A8
  8
0
  6
CONTINUOUS
 62
     7
 10
1877.12463963573
 20
-1388.53536929347
 30
0.0
 11
1877.23885168749
 21
-1388.62150517066
 31
0.0
  0
LINE
  5
   6A9
  8
0
  6
CONTINUOUS
 62
     7
 10
1876.99667071348
 20
-1388.47144082826
 30
0.0
 11
1877.12463856668
 21
-1388.5353675309
 31
0.0
  0
LINE
  5
   6AA
  8
0
  6
CONTINUOUS
 62
     7
 10
1877.1489934696
 20
-1388.34210735015
 30
0.0
 11
1876.99667262203
 21
-1388.47144082771
 31
0.0
  0
LINE
  5
   6AB
  8
0
  6
CONTINUOUS
 62
     7
 10
1877.25203864378
 20
-1388.1709069056
 30
0.0
 11
1877.14899605268
 21
-1388.34211051317
 31
0.0
  0
LINE
  5
   6AC
  8
0
  6
CONTINUOUS
 62
     7
 10
1877.29502213108
 20
-1387.97577073049
 30
0.0
 11
1877.25203812587
 21
-1388.1709077425
 31
0.0
  0
LINE
  5
   6AD
  8
0
  6
CONTINUOUS
 62
     7
 10
1877.27343913462
 20
-1387.77711154031
 30
0.0
 11
1877.29502268536
 21
-1387.97576575704
 31
0.0
  0
LINE
  5
   6AE
  8
0
  6
CONTINUOUS
 62
     7
 10
1877.18954300985
 20
-1387.59576578931
 30
0.0
 11
1877.27343583807
 21
-1387.77711651069
 31
0.0
  0
LINE
  5
   6AF
  8
0
  6
CONTINUOUS
 62
     7
 10
1877.0521347074
 20
-1387.45067404871
 30
0.0
 11
1877.18954011595
 21
-1387.59575462422
 31
0.0
  0
LINE
  5
   6B0
  8
0
  6
CONTINUOUS
 62
     7
 10
1876.87559753132
 20
-1387.35709059054
 30
0.0
 11
1877.05213409888
 21
-1387.45068801032
 31
0.0
  0
LINE
  5
   6B1
  8
0
  6
CONTINUOUS
 62
     7
 10
1876.67841671903
 20
-1387.32475020327
 30
0.0
 11
1876.87559846241
 21
-1387.35708357627
 31
0.0
  0
LINE
  5
   6B2
  8
0
  6
CONTINUOUS
 62
     7
 10
1876.46467222705
 20
-1388.68800143636
 30
0.0
 11
1877.30382933154
 21
-1388.68800143636
 31
0.0
  0
LINE
  5
   6B3
  8
0
  6
CONTINUOUS
 62
     7
 10
1876.46467222705
 20
-1388.68800143636
 30
0.0
 11
1876.46467222705
 21
-1389.98474721349
 31
0.0
  0
LINE
  5
   6B4
  8
0
  6
CONTINUOUS
 62
     7
 10
1876.46467222705
 20
-1389.98474721349
 30
0.0
 11
1876.71198668018
 21
-1389.98474721349
 31
0.0
  0
LINE
  5
   6B5
  8
0
  6
CONTINUOUS
 62
     7
 10
1876.93275149821
 20
-1389.9530062402
 30
0.0
 11
1876.71198731423
 21
-1389.98475357864
 31
0.0
  0
LINE
  5
   6B6
  8
0
  6
CONTINUOUS
 62
     7
 10
1877.13562632498
 20
-1389.86033313374
 30
0.0
 11
1876.93275308238
 21
-1389.95300214541
 31
0.0
  0
LINE
  5
   6B7
  8
0
  6
CONTINUOUS
 62
     7
 10
1877.30415813652
 20
-1389.71425292734
 30
0.0
 11
1877.13562479573
 21
-1389.86033342601
 31
0.0
  0
LINE
  5
   6B8
  8
0
  6
CONTINUOUS
 62
     7
 10
1877.42470228184
 20
-1389.52659850659
 30
0.0
 11
1877.30415784882
 21
-1389.71425109224
 31
0.0
  0
LINE
  5
   6B9
  8
0
  6
CONTINUOUS
 62
     7
 10
1877.48748980364
 20
-1389.31258301207
 30
0.0
 11
1877.42470751133
 21
-1389.5265985084
 31
0.0
  0
LINE
  5
   6BA
  8
0
  6
CONTINUOUS
 62
     7
 10
1877.48740882031
 20
-1389.08954780003
 30
0.0
 11
1877.48748511421
 21
-1389.31258124127
 31
0.0
  0
LINE
  5
   6BB
  8
0
  6
CONTINUOUS
 62
     7
 10
1877.42450250243
 20
-1388.87557070029
 30
0.0
 11
1877.48741448503
 21
-1389.08954661752
 31
0.0
  0
LINE
  5
   6BC
  8
0
  6
CONTINUOUS
 62
     7
 10
1877.30383316448
 20
-1388.68800372575
 30
0.0
 11
1877.42449966709
 21
-1388.87557524836
 31
0.0
  0
LINE
  5
   6BD
  8
0
  6
CONTINUOUS
 62
     7
 10
1875.63342680469
 20
-1387.32475070394
 30
0.0
 11
1875.63342680469
 21
-1389.98474721349
 31
0.0
  0
LINE
  5
   6BE
  8
0
  6
CONTINUOUS
 62
     7
 10
1867.41738819426
 20
-1391.33419799805
 30
0.0
 11
1901.41734334946
 21
-1391.33419799805
 31
0.0
  0
LINE
  5
   6BF
  8
0
  6
CONTINUOUS
 62
     7
 10
1901.91734327316
 20
-1389.33419799805
 30
0.0
 11
1901.9173433876
 21
-1392.33419799805
 31
0.0
  0
LINE
  5
   6C0
  8
0
  6
CONTINUOUS
 62
     7
 10
1922.91737352371
 20
-1389.33419799805
 30
0.0
 11
1922.91737340927
 21
-1392.33419799805
 31
0.0
  0
LINE
  5
   6C1
  8
0
  6
CONTINUOUS
 62
     7
 10
1901.91734327316
 20
-1389.33419799805
 30
0.0
 11
1922.91737352371
 21
-1389.33419799805
 31
0.0
  0
LINE
  5
   6C2
  8
0
  6
CONTINUOUS
 62
     7
 10
1923.41737344742
 20
-1391.33419799805
 30
0.0
 11
1957.41733085632
 21
-1391.33419799805
 31
0.0
  0
LINE
  5
   6C3
  8
0
  6
CONTINUOUS
 62
     7
 10
1901.41734325409
 20
-1388.83419799805
 30
0.0
 11
1923.41737354279
 21
-1388.83419799805
 31
0.0
  0
LINE
  5
   6C4
  8
0
  6
CONTINUOUS
 62
     7
 10
1923.41737354279
 20
-1388.83419799805
 30
0.0
 11
1923.41737340927
 21
-1392.33419799805
 31
0.0
  0
LINE
  5
   6C5
  8
0
  6
CONTINUOUS
 62
     7
 10
1901.41734325409
 20
-1388.83419799805
 30
0.0
 11
1901.4173433876
 21
-1392.33419799805
 31
0.0
  0
LINE
  5
   6C6
  8
0
  6
CONTINUOUS
 62
     7
 10
1839.917347641
 20
-1340.33422502235
 30
0.0
 11
1839.91734924317
 21
-1350.83424028114
 31
0.0
  0
LINE
  5
   6C7
  8
0
  6
CONTINUOUS
 62
     7
 10
1954.91736915588
 20
-1340.33422502235
 30
0.0
 11
1954.9173675537
 21
-1350.83424028114
 31
0.0
  0
LINE
  5
   6C8
  8
0
  6
CONTINUOUS
 62
     7
 10
1954.91736915588
 20
-1452.33420976356
 30
0.0
 11
1954.91736961364
 21
-1455.33422486976
 31
0.0
  0
LINE
  5
   6C9
  8
0
  6
CONTINUOUS
 62
     7
 10
1839.917347641
 20
-1452.33420976356
 30
0.0
 11
1839.91734718323
 21
-1455.33422486976
 31
0.0
  0
CIRCLE
  5
   6CA
  8
0
  6
CONTINUOUS
 62
     7
 10
1867.41744035283
 20
-1446.33418065132
 30
0.0
 40
2.25
  0
LINE
  5
   6CB
  8
0
  6
CONTINUOUS
 62
     7
 10
1922.91737242081
 20
-1418.24604879268
 30
0.0
 11
1922.91737230637
 21
-1421.24604879268
 31
0.0
  0
LINE
  5
   6CC
  8
0
  6
CONTINUOUS
 62
     7
 10
1901.91734437606
 20
-1418.24604879268
 30
0.0
 11
1901.9173444905
 21
-1421.24604879268
 31
0.0
  0
LINE
  5
   6CD
  8
0
  6
CONTINUOUS
 62
     7
 10
1901.91734437606
 20
-1418.24604879268
 30
0.0
 11
1904.91734437606
 21
-1418.24604879268
 31
0.0
  0
LINE
  5
   6CE
  8
0
  6
CONTINUOUS
 62
     7
 10
1919.91737242081
 20
-1418.24604879268
 30
0.0
 11
1922.91737242081
 21
-1418.24604879268
 31
0.0
  0
LINE
  5
   6CF
  8
0
  6
CONTINUOUS
 62
     7
 10
1901.9173444905
 20
-1421.24604879268
 30
0.0
 11
1905.9173444905
 21
-1421.24604879268
 31
0.0
  0
LINE
  5
   6D0
  8
0
  6
CONTINUOUS
 62
     7
 10
1918.91737230637
 20
-1421.24604879268
 30
0.0
 11
1922.91737230637
 21
-1421.24604879268
 31
0.0
  0
LINE
  5
   6D1
  8
0
  6
CONTINUOUS
 62
     7
 10
1867.41738819426
 20
-1392.33419799805
 30
0.0
 11
1867.41738819426
 21
-1393.83419799805
 31
0.0
  0
LINE
  5
   6D2
  8
0
  6
CONTINUOUS
 62
     7
 10
1867.41738819426
 20
-1422.83419799804
 30
0.0
 11
1867.41738819426
 21
-1424.33419799804
 31
0.0
  0
LINE
  5
   6D3
  8
0
  6
CONTINUOUS
 62
     7
 10
1886.81736068726
 20
-1423.58421325683
 30
0.0
 11
1896.81736068726
 21
-1423.58421325683
 31
0.0
  0
LINE
  5
   6D4
  8
0
  6
CONTINUOUS
 62
     7
 10
1886.81736068726
 20
-1428.08421325683
 30
0.0
 11
1896.81736068726
 21
-1428.08421325683
 31
0.0
  0
LINE
  5
   6D5
  8
0
  6
CONTINUOUS
 62
     7
 10
1896.81736068726
 20
-1423.58421325683
 30
0.0
 11
1896.81736068726
 21
-1428.08421325683
 31
0.0
  0
LINE
  5
   6D6
  8
0
  6
CONTINUOUS
 62
     7
 10
1886.81736068726
 20
-1423.58421325683
 30
0.0
 11
1886.81736068726
 21
-1428.08421325683
 31
0.0
  0
LINE
  5
   6D7
  8
0
  6
CONTINUOUS
 62
     7
 10
1867.41738819426
 20
-1352.33424028114
 30
0.0
 11
1867.41738819426
 21
-1440.33420976356
 31
0.0
  0
LINE
  5
   6D8
  8
0
  6
CONTINUOUS
 62
     7
 10
1866.11738819426
 20
-1352.33424028114
 30
0.0
 11
1866.11738819426
 21
-1440.33420976356
 31
0.0
  0
LINE
  5
   6D9
  8
0
  6
CONTINUOUS
 62
     7
 10
1865.61738819426
 20
-1352.33424028114
 30
0.0
 11
1865.61738819426
 21
-1440.33420976356
 31
0.0
  0
LINE
  5
   6DA
  8
0
  6
CONTINUOUS
 62
     7
 10
1864.31738819426
 20
-1352.33424028114
 30
0.0
 11
1864.31738819426
 21
-1440.33420976356
 31
0.0
  0
LINE
  5
   6DB
  8
0
  6
CONTINUOUS
 62
     7
 10
1862.51738819426
 20
-1352.33424028114
 30
0.0
 11
1862.51738819426
 21
-1440.33420976356
 31
0.0
  0
LINE
  5
   6DC
  8
0
  6
CONTINUOUS
 62
     7
 10
1864.31738819426
 20
-1352.33424028114
 30
0.0
 11
1864.31738819426
 21
-1440.33420976356
 31
0.0
  0
LINE
  5
   6DD
  8
0
  6
CONTINUOUS
 62
     7
 10
1863.81738819426
 20
-1352.33424028114
 30
0.0
 11
1863.81738819426
 21
-1440.33420976356
 31
0.0
  0
LINE
  5
   6DE
  8
0
  6
CONTINUOUS
 62
     7
 10
1862.51738819426
 20
-1352.33424028114
 30
0.0
 11
1862.51738819426
 21
-1440.33420976356
 31
0.0
  0
LINE
  5
   6DF
  8
0
  6
CONTINUOUS
 62
     7
 10
1862.01738819426
 20
-1352.33424028114
 30
0.0
 11
1862.01738819426
 21
-1440.33420976356
 31
0.0
  0
LINE
  5
   6E0
  8
0
  6
CONTINUOUS
 62
     7
 10
1860.71738819426
 20
-1352.33424028114
 30
0.0
 11
1860.71738819426
 21
-1440.33420976356
 31
0.0
  0
LINE
  5
   6E1
  8
0
  6
CONTINUOUS
 62
     7
 10
1860.21738819426
 20
-1352.33424028114
 30
0.0
 11
1860.21738819426
 21
-1440.33420976356
 31
0.0
  0
LINE
  5
   6E2
  8
0
  6
CONTINUOUS
 62
     7
 10
1858.91738819426
 20
-1352.33424028114
 30
0.0
 11
1858.91738819426
 21
-1440.33420976356
 31
0.0
  0
LINE
  5
   6E3
  8
0
  6
CONTINUOUS
 62
     7
 10
1858.41738819426
 20
-1352.33424028114
 30
0.0
 11
1858.41738819426
 21
-1440.33420976356
 31
0.0
  0
LINE
  5
   6E4
  8
0
  6
CONTINUOUS
 62
     7
 10
1857.11738819426
 20
-1352.33424028114
 30
0.0
 11
1857.11738819426
 21
-1440.33420976356
 31
0.0
  0
LINE
  5
   6E5
  8
0
  6
CONTINUOUS
 62
     7
 10
1856.61738819426
 20
-1352.33424028114
 30
0.0
 11
1856.61738819426
 21
-1440.33420976356
 31
0.0
  0
LINE
  5
   6E6
  8
0
  6
CONTINUOUS
 62
     7
 10
1855.31738819426
 20
-1352.33424028114
 30
0.0
 11
1855.31738819426
 21
-1440.33420976356
 31
0.0
  0
LINE
  5
   6E7
  8
0
  6
CONTINUOUS
 62
     7
 10
1854.81738819426
 20
-1352.33424028114
 30
0.0
 11
1854.81738819426
 21
-1440.33420976356
 31
0.0
  0
LINE
  5
   6E8
  8
0
  6
CONTINUOUS
 62
     7
 10
1853.51738819426
 20
-1352.33424028114
 30
0.0
 11
1853.51738819426
 21
-1440.33420976356
 31
0.0
  0
LINE
  5
   6E9
  8
0
  6
CONTINUOUS
 62
     7
 10
1853.01738819426
 20
-1352.33424028114
 30
0.0
 11
1853.01738819426
 21
-1440.33420976356
 31
0.0
  0
LINE
  5
   6EA
  8
0
  6
CONTINUOUS
 62
     7
 10
1851.71738819426
 20
-1352.33424028114
 30
0.0
 11
1851.71738819426
 21
-1440.33420976356
 31
0.0
  0
LINE
  5
   6EB
  8
0
  6
CONTINUOUS
 62
     7
 10
1851.71738819426
 20
-1352.33424028114
 30
0.0
 11
1851.71738819426
 21
-1440.33420976356
 31
0.0
  0
LINE
  5
   6EC
  8
0
  6
CONTINUOUS
 62
     7
 10
1851.21738819426
 20
-1352.33424028114
 30
0.0
 11
1851.21738819426
 21
-1440.33420976356
 31
0.0
  0
LINE
  5
   6ED
  8
0
  6
CONTINUOUS
 62
     7
 10
1849.91738819426
 20
-1352.33424028114
 30
0.0
 11
1849.91738819426
 21
-1440.33420976356
 31
0.0
  0
LINE
  5
   6EE
  8
0
  6
CONTINUOUS
 62
     7
 10
1849.41738819426
 20
-1352.33424028114
 30
0.0
 11
1849.41738819426
 21
-1440.33420976356
 31
0.0
  0
LINE
  5
   6EF
  8
0
  6
CONTINUOUS
 62
     7
 10
1848.11738819426
 20
-1352.33424028114
 30
0.0
 11
1848.11738819426
 21
-1440.33420976356
 31
0.0
  0
LINE
  5
   6F0
  8
0
  6
CONTINUOUS
 62
     7
 10
1847.61738819426
 20
-1352.33424028114
 30
0.0
 11
1847.61738819426
 21
-1440.33420976356
 31
0.0
  0
LINE
  5
   6F1
  8
0
  6
CONTINUOUS
 62
     7
 10
1846.31738819426
 20
-1352.33424028114
 30
0.0
 11
1846.31738819426
 21
-1440.33420976356
 31
0.0
  0
LINE
  5
   6F2
  8
0
  6
CONTINUOUS
 62
     7
 10
1845.81738819426
 20
-1352.33424028114
 30
0.0
 11
1845.81738819426
 21
-1440.33420976356
 31
0.0
  0
LINE
  5
   6F3
  8
0
  6
CONTINUOUS
 62
     7
 10
1844.51738819426
 20
-1352.33424028114
 30
0.0
 11
1844.51738819426
 21
-1440.33420976356
 31
0.0
  0
LINE
  5
   6F4
  8
0
  6
CONTINUOUS
 62
     7
 10
1844.01738819426
 20
-1352.33424028114
 30
0.0
 11
1844.01738819426
 21
-1440.33420976356
 31
0.0
  0
LINE
  5
   6F5
  8
0
  6
CONTINUOUS
 62
     7
 10
1842.71738819426
 20
-1352.33424028114
 30
0.0
 11
1842.71738819426
 21
-1440.33420976356
 31
0.0
  0
LINE
  5
   6F6
  8
0
  6
CONTINUOUS
 62
     7
 10
1842.21738819426
 20
-1352.33424028114
 30
0.0
 11
1842.21738819426
 21
-1440.33420976356
 31
0.0
  0
LINE
  5
   6F7
  8
0
  6
CONTINUOUS
 62
     7
 10
1840.91738819426
 20
-1352.33424028114
 30
0.0
 11
1840.91738819426
 21
-1440.33420976356
 31
0.0
  0
LINE
  5
   6F8
  8
0
  6
CONTINUOUS
 62
     7
 10
1840.41738819426
 20
-1352.33424028114
 30
0.0
 11
1840.41738819426
 21
-1440.33420976356
 31
0.0
  0
LINE
  5
   6F9
  8
0
  6
CONTINUOUS
 62
     7
 10
1839.11738819426
 20
-1352.33424028114
 30
0.0
 11
1839.11738819426
 21
-1440.33420976356
 31
0.0
  0
LINE
  5
   6FA
  8
0
  6
CONTINUOUS
 62
     7
 10
1838.61738819426
 20
-1352.33424028114
 30
0.0
 11
1838.61738819426
 21
-1440.33420976356
 31
0.0
  0
ARC
  5
   6FB
  8
0
  6
CONTINUOUS
 62
     7
 10
1869.96739453914
 20
-1343.78416262194
 30
0.0
 40
2.0
 50
538.557523714239
 51
631.442475973968
  0
CIRCLE
  5
   6FC
  8
0
  6
CONTINUOUS
 62
     7
 10
1867.41739453914
 20
-1346.33416262194
 30
0.0
 40
3.750066744417
  0
ARC
  5
   6FD
  8
0
  6
CONTINUOUS
 62
     7
 10
1864.86739453914
 20
-1343.78416262194
 30
0.0
 40
2.0
 50
628.557523714238
 51
721.442475973968
  0
ARC
  5
   6FE
  8
0
  6
CONTINUOUS
 62
     7
 10
1867.41739453914
 20
-1346.33416262194
 30
0.0
 40
2.6580067720004
 50
438.044002632411
 51
461.955997055796
  0
ARC
  5
   6FF
  8
0
  6
CONTINUOUS
 62
     7
 10
1867.41739453914
 20
-1346.33416262194
 30
0.0
 40
2.6580067720004
 50
528.044002632411
 51
551.955997055796
  0
ARC
  5
   700
  8
0
  6
CONTINUOUS
 62
     7
 10
1867.41739453914
 20
-1346.33416262194
 30
0.0
 40
2.6580067720004
 50
348.044002632411
 51
371.955997055795
  0
ARC
  5
   701
  8
0
  6
CONTINUOUS
 62
     7
 10
1869.96739453914
 20
-1348.88416262194
 30
0.0
 40
2.0
 50
448.557523714238
 51
541.442475973968
  0
ARC
  5
   702
  8
0
  6
CONTINUOUS
 62
     7
 10
1864.86739453914
 20
-1348.88416262194
 30
0.0
 40
2.0
 50
358.557523714239
 51
451.442475973968
  0
ARC
  5
   703
  8
0
  6
CONTINUOUS
 62
     7
 10
1867.41739453914
 20
-1346.33416262194
 30
0.0
 40
2.6580067720004
 50
618.044002632411
 51
641.955997055796
  0
LINE
  5
   704
  8
0
  6
DASHDOT
 62
     7
 10
1867.41739453914
 20
-1332.58409587753
 30
0.0
 11
1867.41739453914
 21
-1360.08422936636
 31
0.0
  0
LINE
  5
   705
  8
0
  6
DASHDOT
 62
     7
 10
1853.66732779472
 20
-1346.33416262194
 30
0.0
 11
1881.16746128356
 21
-1346.33416262194
 31
0.0
  0
LINE
  5
   706
  8
0
  6
CONTINUOUS
 62
     7
 10
2018.91740177762
 20
-1456.33422851563
 30
0.0
 11
2045.91740177761
 21
-1456.33422851563
 31
0.0
  0
LINE
  5
   707
  8
0
  6
CONTINUOUS
 62
     7
 10
1988.91740177762
 20
-1456.33422851563
 30
0.0
 11
2015.91740177762
 21
-1456.33422851563
 31
0.0
  0
LINE
  5
   708
  8
0
  6
CONTINUOUS
 62
     7
 10
1958.41724243165
 20
-1441.83422851563
 30
0.0
 11
2076.41724243165
 21
-1441.83422851563
 31
0.0
  0
LINE
  5
   709
  8
0
  6
CONTINUOUS
 62
     7
 10
1989.41724273682
 20
-1350.83424377441
 30
0.0
 11
2075.41721221924
 21
-1350.83424377441
 31
0.0
  0
LINE
  5
   70A
  8
0
  6
CONTINUOUS
 62
     7
 10
2077.41721214295
 20
-1352.3342590332
 30
0.0
 11
2077.41722724914
 21
-1451.33422836304
 31
0.0
  0
LINE
  5
   70B
  8
0
  6
CONTINUOUS
 62
     7
 10
1957.71725459289
 20
-1430.83421325683
 30
0.0
 11
2077.11722407532
 21
-1430.83421325683
 31
0.0
  0
LINE
  5
   70C
  8
0
  6
CONTINUOUS
 62
     7
 10
2049.91723632813
 20
-1452.53422851563
 30
0.0
 11
2049.91723632813
 21
-1456.33422851563
 31
0.0
  0
LINE
  5
   70D
  8
0
  6
CONTINUOUS
 62
     7
 10
2044.91723632813
 20
-1452.53422851563
 30
0.0
 11
2044.91723632813
 21
-1456.33422851563
 31
0.0
  0
LINE
  5
   70E
  8
0
  6
CONTINUOUS
 62
     7
 10
2019.9172372818
 20
-1452.53422851563
 30
0.0
 11
2019.9172372818
 21
-1456.33422851563
 31
0.0
  0
LINE
  5
   70F
  8
0
  6
CONTINUOUS
 62
     7
 10
2014.9172372818
 20
-1452.53422851563
 30
0.0
 11
2014.9172372818
 21
-1456.33422851563
 31
0.0
  0
LINE
  5
   710
  8
0
  6
DASHDOT
 62
     7
 10
2062.41723735505
 20
-1433.33423945605
 30
0.0
 11
2062.41723735505
 21
-1461.33420764054
 31
0.0
  0
LINE
  5
   711
  8
0
  6
DASHDOT
 62
     7
 10
2057.33620146199
 20
-1447.3342235483
 30
0.0
 11
2066.81585504983
 21
-1447.3342235483
 31
0.0
  0
LINE
  5
   712
  8
0
  6
DASHDOT
 62
     7
 10
2032.41723735505
 20
-1433.33423945605
 30
0.0
 11
2032.41723735505
 21
-1461.33420764054
 31
0.0
  0
LINE
  5
   713
  8
0
  6
DASHDOT
 62
     7
 10
2002.41723735505
 20
-1436.5740673145
 30
0.0
 11
2002.41723735505
 21
-1461.33420764054
 31
0.0
  0
LINE
  5
   714
  8
0
  6
DASHDOT
 62
     7
 10
1997.7830402721
 20
-1447.3342235483
 30
0.0
 11
2007.32085124392
 21
-1447.3342235483
 31
0.0
  0
LINE
  5
   715
  8
0
  6
CONTINUOUS
 62
     7
 10
1957.71724781799
 20
-1385.83421325684
 30
0.0
 11
2077.11721730041
 21
-1385.83421325684
 31
0.0
  0
CIRCLE
  5
   716
  8
0
  6
CONTINUOUS
 62
     7
 10
2002.41723735505
 20
-1453.33422851563
 30
0.0
 40
1.25
  0
CIRCLE
  5
   717
  8
0
  6
CONTINUOUS
 62
     7
 10
2032.41723735505
 20
-1453.33422851563
 30
0.0
 40
1.25
  0
CIRCLE
  5
   718
  8
0
  6
CONTINUOUS
 62
     7
 10
2062.41723735505
 20
-1453.33422851563
 30
0.0
 40
1.25
  0
LINE
  5
   719
  8
0
  6
DASHDOT
 62
     7
 10
2002.41723735505
 20
-1442.08422851563
 30
0.0
 11
2002.41723735505
 21
-1464.58422851563
 31
0.0
  0
LINE
  5
   71A
  8
0
  6
DASHDOT
 62
     7
 10
1999.12066010351
 20
-1453.33422851563
 30
0.0
 11
2005.69244449263
 21
-1453.33422851563
 31
0.0
  0
LINE
  5
   71B
  8
0
  6
DASHDOT
 62
     7
 10
2032.41723735505
 20
-1442.08422851563
 30
0.0
 11
2032.41723735505
 21
-1464.58422851563
 31
0.0
  0
LINE
  5
   71C
  8
0
  6
DASHDOT
 62
     7
 10
2029.42065715423
 20
-1453.33422851563
 30
0.0
 11
2035.00376601578
 21
-1453.33422851563
 31
0.0
  0
LINE
  5
   71D
  8
0
  6
DASHDOT
 62
     7
 10
2062.41723735505
 20
-1442.08422851563
 30
0.0
 11
2062.41723735505
 21
-1464.58422851563
 31
0.0
  0
LINE
  5
   71E
  8
0
  6
DASHDOT
 62
     7
 10
2059.19723774917
 20
-1453.33422851563
 30
0.0
 11
2065.01297614662
 21
-1453.33422851563
 31
0.0
  0
LINE
  5
   71F
  8
0
  6
DASHDOT
 62
     7
 10
2017.41721544621
 20
-1339.58422037343
 30
0.0
 11
2017.41721544621
 21
-1353.08413538804
 31
0.0
  0
LINE
  5
   720
  8
0
  6
DASHDOT
 62
     7
 10
2017.41733354131
 20
-1439.83412916569
 30
0.0
 11
2017.41733354131
 21
-1452.83426265453
 31
0.0
  0
LINE
  5
   721
  8
0
  6
DASHDOT
 62
     7
 10
2011.85712719393
 20
-1446.33419591011
 30
0.0
 11
2022.67440061318
 21
-1446.33419591011
 31
0.0
  0
LINE
  5
   722
  8
0
  6
DASHDOT
 62
     7
 10
2047.41748613064
 20
-1451.4417253889
 30
0.0
 11
2047.41748613064
 21
-1452.83452887087
 31
0.0
  0
LINE
  5
   723
  8
0
  6
DASHDOT
 62
     7
 10
2040.91724050733
 20
-1446.33428324756
 30
0.0
 11
2053.91773175395
 21
-1446.33428324756
 31
0.0
  0
ARC
  5
   724
  8
0
  6
CONTINUOUS
 62
     7
 10
1960.91724037171
 20
-1455.33424377441
 30
0.0
 40
1.0
 50
539.999991101463
 51
629.999999844103
  0
LINE
  5
   725
  8
0
  6
CONTINUOUS
 62
     7
 10
1959.91724243165
 20
-1441.83422851563
 30
0.0
 11
1959.91724037171
 21
-1455.33424362183
 31
0.0
  0
ARC
  5
   726
  8
0
  6
CONTINUOUS
 62
     7
 10
2073.91724037171
 20
-1455.33424377441
 30
0.0
 40
1.0
 50
269.999999844103
 51
359.999991101463
  0
LINE
  5
   727
  8
0
  6
CONTINUOUS
 62
     7
 10
2074.91724243165
 20
-1441.83422851563
 30
0.0
 11
2074.91724037171
 21
-1455.334243927
 31
0.0
  0
LINE
  5
   728
  8
0
  6
CONTINUOUS
 62
     7
 10
1957.41725608826
 20
-1440.33422851563
 30
0.0
 11
2077.41722557068
 21
-1440.33422851563
 31
0.0
  0
LINE
  5
   729
  8
0
  6
CONTINUOUS
 62
     7
 10
1958.41724266053
 20
-1440.33422851563
 30
0.0
 11
1958.41724243165
 21
-1441.83422851563
 31
0.0
  0
LINE
  5
   72A
  8
0
  6
CONTINUOUS
 62
     7
 10
2076.41724266053
 20
-1440.33422851563
 30
0.0
 11
2076.41724243165
 21
-1441.83422851563
 31
0.0
  0
LINE
  5
   72B
  8
0
  6
CONTINUOUS
 62
     7
 10
1958.41724243165
 20
-1350.8342590332
 30
0.0
 11
1958.41724266053
 21
-1352.3342590332
 31
0.0
  0
LINE
  5
   72C
  8
0
  6
CONTINUOUS
 62
     7
 10
1957.41724243165
 20
-1350.8342590332
 30
0.0
 11
2077.41721046448
 21
-1350.8342590332
 31
0.0
  0
LINE
  5
   72D
  8
0
  6
CONTINUOUS
 62
     7
 10
2076.41724243165
 20
-1350.8342590332
 30
0.0
 11
2076.41724266053
 21
-1352.3342590332
 31
0.0
  0
LINE
  5
   72E
  8
0
  6
CONTINUOUS
 62
     7
 10
1957.41724266053
 20
-1352.3342590332
 30
0.0
 11
2077.41722557068
 21
-1352.3342590332
 31
0.0
  0
LINE
  5
   72F
  8
0
  6
CONTINUOUS
 62
     7
 10
1958.41725776672
 20
-1452.33422851563
 30
0.0
 11
1959.91724082947
 21
-1452.33422851563
 31
0.0
  0
LINE
  5
   730
  8
0
  6
CONTINUOUS
 62
     7
 10
2074.91724082948
 20
-1452.33422851563
 30
0.0
 11
2076.41722724915
 21
-1452.33422851563
 31
0.0
  0
ARC
  5
   731
  8
0
  6
CONTINUOUS
 62
     7
 10
2076.41722724915
 20
-1451.33422851563
 30
0.0
 40
1.0
 50
269.999999844103
 51
360.000008586744
  0
ARC
  5
   732
  8
0
  6
CONTINUOUS
 62
     7
 10
1958.41725776672
 20
-1451.33422851563
 30
0.0
 40
1.0
 50
540.000008586743
 51
629.999999844103
  0
CIRCLE
  5
   733
  8
0
  6
CONTINUOUS
 62
     7
 10
1972.41723735505
 20
-1453.33422851563
 30
0.0
 40
1.25
  0
LINE
  5
   734
  8
0
  6
CONTINUOUS
 62
     7
 10
1960.91724037171
 20
-1456.33422851563
 30
0.0
 11
1985.91740177762
 21
-1456.33422851563
 31
0.0
  0
LINE
  5
   735
  8
0
  6
DASHDOT
 62
     7
 10
1972.41723735505
 20
-1441.13124358768
 30
0.0
 11
1972.41723735505
 21
-1460.3342235483
 31
0.0
  0
LINE
  5
   736
  8
0
  6
DASHDOT
 62
     7
 10
1967.25041368548
 20
-1447.3342235483
 30
0.0
 11
1977.48611326499
 21
-1447.3342235483
 31
0.0
  0
LINE
  5
   737
  8
0
  6
DASHDOT
 62
     7
 10
1969.75118119639
 20
-1453.33422851563
 30
0.0
 11
1975.79954912973
 21
-1453.33422851563
 31
0.0
  0
LINE
  5
   738
  8
0
  6
DASHDOT
 62
     7
 10
1987.41733354131
 20
-1440.99402849656
 30
0.0
 11
1987.41733354131
 21
-1453.61418081903
 31
0.0
  0
LINE
  5
   739
  8
0
  6
DASHDOT
 62
     7
 10
1982.13870398295
 20
-1446.33419591011
 30
0.0
 11
1992.54887571439
 21
-1446.33419591011
 31
0.0
  0
LINE
  5
   73A
  8
0
  6
DASHDOT
 62
     7
 10
2047.41748613064
 20
-1440.81955634464
 30
0.0
 11
2047.41748613064
 21
-1453.14892174723
 31
0.0
  0
LINE
  5
   73B
  8
0
  6
CONTINUOUS
 62
     7
 10
2041.51739302092
 20
-1446.33428324756
 30
0.0
 11
2052.741768128
 21
-1446.33428324756
 31
0.0
  0
CIRCLE
  5
   73C
  8
0
  6
CONTINUOUS
 62
     7
 10
1972.41723735505
 20
-1447.3342235483
 30
0.0
 40
3.75
  0
CIRCLE
  5
   73D
  8
0
  6
CONTINUOUS
 62
     7
 10
2002.41723735505
 20
-1447.3342235483
 30
0.0
 40
3.75
  0
CIRCLE
  5
   73E
  8
0
  6
CONTINUOUS
 62
     7
 10
2032.41723735505
 20
-1447.3342235483
 30
0.0
 40
3.75
  0
CIRCLE
  5
   73F
  8
0
  6
CONTINUOUS
 62
     7
 10
2062.41723735505
 20
-1447.3342235483
 30
0.0
 40
3.75
  0
LINE
  5
   740
  8
0
  6
CONTINUOUS
 62
     7
 10
1959.56720581055
 20
-1352.3342590332
 30
0.0
 11
1959.56720581055
 21
-1440.33422851563
 31
0.0
  0
LINE
  5
   741
  8
0
  6
CONTINUOUS
 62
     7
 10
1960.06720581055
 20
-1352.3342590332
 30
0.0
 11
1960.06720581055
 21
-1440.33422851563
 31
0.0
  0
LINE
  5
   742
  8
0
  6
CONTINUOUS
 62
     7
 10
1961.36720581055
 20
-1352.3342590332
 30
0.0
 11
1961.36720581055
 21
-1440.33422851563
 31
0.0
  0
LINE
  5
   743
  8
0
  6
CONTINUOUS
 62
     7
 10
1961.86720581055
 20
-1352.3342590332
 30
0.0
 11
1961.86720581055
 21
-1440.33422851563
 31
0.0
  0
LINE
  5
   744
  8
0
  6
CONTINUOUS
 62
     7
 10
1963.66720581055
 20
-1352.3342590332
 30
0.0
 11
1963.66720581055
 21
-1440.33422851563
 31
0.0
  0
LINE
  5
   745
  8
0
  6
CONTINUOUS
 62
     7
 10
1963.16720581055
 20
-1352.3342590332
 30
0.0
 11
1963.16720581055
 21
-1440.33422851563
 31
0.0
  0
LINE
  5
   746
  8
0
  6
CONTINUOUS
 62
     7
 10
1964.96720581055
 20
-1352.3342590332
 30
0.0
 11
1964.96720581055
 21
-1440.33422851563
 31
0.0
  0
LINE
  5
   747
  8
0
  6
CONTINUOUS
 62
     7
 10
1964.96720581055
 20
-1352.3342590332
 30
0.0
 11
1964.96720581055
 21
-1440.33422851563
 31
0.0
  0
LINE
  5
   748
  8
0
  6
CONTINUOUS
 62
     7
 10
1965.46720581055
 20
-1352.3342590332
 30
0.0
 11
1965.46720581055
 21
-1440.33422851563
 31
0.0
  0
LINE
  5
   749
  8
0
  6
CONTINUOUS
 62
     7
 10
1966.76720581055
 20
-1352.3342590332
 30
0.0
 11
1966.76720581055
 21
-1440.33422851563
 31
0.0
  0
LINE
  5
   74A
  8
0
  6
CONTINUOUS
 62
     7
 10
1967.26720581055
 20
-1352.3342590332
 30
0.0
 11
1967.26720581055
 21
-1440.33422851563
 31
0.0
  0
LINE
  5
   74B
  8
0
  6
CONTINUOUS
 62
     7
 10
1968.56720581055
 20
-1352.3342590332
 30
0.0
 11
1968.56720581055
 21
-1435.83422851563
 31
0.0
  0
LINE
  5
   74C
  8
0
  6
CONTINUOUS
 62
     7
 10
1969.06720581055
 20
-1352.3342590332
 30
0.0
 11
1969.06720581055
 21
-1435.83422851563
 31
0.0
  0
LINE
  5
   74D
  8
0
  6
CONTINUOUS
 62
     7
 10
1970.36720581055
 20
-1352.3342590332
 30
0.0
 11
1970.36720581055
 21
-1435.83422851563
 31
0.0
  0
LINE
  5
   74E
  8
0
  6
CONTINUOUS
 62
     7
 10
1970.86720581055
 20
-1352.3342590332
 30
0.0
 11
1970.86720581055
 21
-1435.83422851563
 31
0.0
  0
LINE
  5
   74F
  8
0
  6
CONTINUOUS
 62
     7
 10
1972.16720581055
 20
-1352.3342590332
 30
0.0
 11
1972.16720581055
 21
-1435.83422851563
 31
0.0
  0
LINE
  5
   750
  8
0
  6
CONTINUOUS
 62
     7
 10
1972.66720581055
 20
-1352.3342590332
 30
0.0
 11
1972.66720581055
 21
-1435.83422851563
 31
0.0
  0
LINE
  5
   751
  8
0
  6
CONTINUOUS
 62
     7
 10
1973.96720581055
 20
-1352.3342590332
 30
0.0
 11
1973.96720581055
 21
-1435.83422851563
 31
0.0
  0
LINE
  5
   752
  8
0
  6
CONTINUOUS
 62
     7
 10
1974.46720581055
 20
-1352.3342590332
 30
0.0
 11
1974.46720581055
 21
-1435.83422851563
 31
0.0
  0
LINE
  5
   753
  8
0
  6
CONTINUOUS
 62
     7
 10
2048.91740177762
 20
-1456.33422851563
 30
0.0
 11
2073.91724037171
 21
-1456.33422851563
 31
0.0
  0
LINE
  5
   754
  8
0
  6
CONTINUOUS
 62
     7
 10
1957.41724266053
 20
-1352.3342590332
 30
0.0
 11
2077.41722557068
 21
-1352.3342590332
 31
0.0
  0
LINE
  5
   755
  8
0
  6
CONTINUOUS
 62
     7
 10
2014.9172372818
 20
-1452.53422851563
 30
0.0
 11
2019.9172372818
 21
-1452.53422851563
 31
0.0
  0
LINE
  5
   756
  8
0
  6
CONTINUOUS
 62
     7
 10
2044.91723632813
 20
-1452.53422851563
 30
0.0
 11
2049.91723632813
 21
-1452.53422851563
 31
0.0
  0
LINE
  5
   757
  8
0
  6
CONTINUOUS
 62
     7
 10
1984.9172372818
 20
-1452.53422851563
 30
0.0
 11
1984.9172372818
 21
-1456.33422851563
 31
0.0
  0
LINE
  5
   758
  8
0
  6
CONTINUOUS
 62
     7
 10
1989.9172372818
 20
-1452.53422851563
 30
0.0
 11
1989.9172372818
 21
-1456.33422851563
 31
0.0
  0
LINE
  5
   759
  8
0
  6
CONTINUOUS
 62
     7
 10
1984.9172372818
 20
-1452.53422851563
 30
0.0
 11
1989.9172372818
 21
-1452.53422851563
 31
0.0
  0
LINE
  5
   75A
  8
0
  6
DASHDOT
 62
     7
 10
2062.41723735505
 20
-1442.08422851563
 30
0.0
 11
2062.41723735505
 21
-1464.58422851563
 31
0.0
  0
LINE
  5
   75B
  8
0
  6
CONTINUOUS
 62
     7
 10
1987.41725608826
 20
-1440.33422851563
 30
0.0
 11
2077.41722557068
 21
-1440.33422851563
 31
0.0
  0
LINE
  5
   75C
  8
0
  6
CONTINUOUS
 62
     7
 10
2057.41723735506
 20
-1435.83422851563
 30
0.0
 11
2067.41723735506
 21
-1435.83422851563
 31
0.0
  0
LINE
  5
   75D
  8
0
  6
CONTINUOUS
 62
     7
 10
1967.26720581055
 20
-1435.83422851563
 30
0.0
 11
1977.56722106934
 21
-1435.83422851563
 31
0.0
  0
LINE
  5
   75E
  8
0
  6
CONTINUOUS
 62
     7
 10
2067.41723735506
 20
-1435.83422851563
 30
0.0
 11
2067.41723735506
 21
-1440.33422851563
 31
0.0
  0
LINE
  5
   75F
  8
0
  6
CONTINUOUS
 62
     7
 10
2057.41723735506
 20
-1435.83422851563
 30
0.0
 11
2057.41723735506
 21
-1440.33422851563
 31
0.0
  0
ARC
  5
   760
  8
0
  6
CONTINUOUS
 62
     7
 10
2077.11721730041
 20
-1386.13421325684
 30
0.0
 40
0.3
 50
360.000008586743
 51
449.999999844103
  0
ARC
  5
   761
  8
0
  6
CONTINUOUS
 62
     7
 10
2077.11722407532
 20
-1430.53421325683
 30
0.0
 40
0.3
 50
269.999999844103
 51
360.000008586743
  0
ARC
  5
   762
  8
0
  6
CONTINUOUS
 62
     7
 10
1957.71724781799
 20
-1386.13421325684
 30
0.0
 40
0.3
 50
449.999999844103
 51
540.000008586744
  0
ARC
  5
   763
  8
0
  6
CONTINUOUS
 62
     7
 10
1957.71725459289
 20
-1430.53421325683
 30
0.0
 40
0.3
 50
540.000008586744
 51
629.999999844103
  0
LINE
  5
   764
  8
0
  6
CONTINUOUS
 62
     7
 10
1987.06722106934
 20
-1352.3342590332
 30
0.0
 11
1987.06722106934
 21
-1440.33422851563
 31
0.0
  0
LINE
  5
   765
  8
0
  6
CONTINUOUS
 62
     7
 10
1986.56722106934
 20
-1352.3342590332
 30
0.0
 11
1986.56722106934
 21
-1440.33422851563
 31
0.0
  0
LINE
  5
   766
  8
0
  6
CONTINUOUS
 62
     7
 10
1984.76722106934
 20
-1352.3342590332
 30
0.0
 11
1984.76722106934
 21
-1440.33422851563
 31
0.0
  0
LINE
  5
   767
  8
0
  6
CONTINUOUS
 62
     7
 10
1985.26722106934
 20
-1352.3342590332
 30
0.0
 11
1985.26722106934
 21
-1440.33422851563
 31
0.0
  0
LINE
  5
   768
  8
0
  6
CONTINUOUS
 62
     7
 10
1982.96722106934
 20
-1352.3342590332
 30
0.0
 11
1982.96722106934
 21
-1440.33422851563
 31
0.0
  0
LINE
  5
   769
  8
0
  6
CONTINUOUS
 62
     7
 10
1983.46722106934
 20
-1352.3342590332
 30
0.0
 11
1983.46722106934
 21
-1440.33422851563
 31
0.0
  0
LINE
  5
   76A
  8
0
  6
CONTINUOUS
 62
     7
 10
1981.16722106934
 20
-1352.3342590332
 30
0.0
 11
1981.16722106934
 21
-1440.33422851563
 31
0.0
  0
LINE
  5
   76B
  8
0
  6
CONTINUOUS
 62
     7
 10
1981.66722106934
 20
-1352.3342590332
 30
0.0
 11
1981.66722106934
 21
-1440.33422851563
 31
0.0
  0
LINE
  5
   76C
  8
0
  6
CONTINUOUS
 62
     7
 10
1979.36722106934
 20
-1352.3342590332
 30
0.0
 11
1979.36722106934
 21
-1440.33422851563
 31
0.0
  0
LINE
  5
   76D
  8
0
  6
CONTINUOUS
 62
     7
 10
1979.86722106934
 20
-1352.3342590332
 30
0.0
 11
1979.86722106934
 21
-1440.33422851563
 31
0.0
  0
LINE
  5
   76E
  8
0
  6
CONTINUOUS
 62
     7
 10
1977.56722106934
 20
-1352.3342590332
 30
0.0
 11
1977.56722106934
 21
-1440.33422851563
 31
0.0
  0
LINE
  5
   76F
  8
0
  6
CONTINUOUS
 62
     7
 10
1978.06722106934
 20
-1352.3342590332
 30
0.0
 11
1978.06722106934
 21
-1440.33422851563
 31
0.0
  0
LINE
  5
   770
  8
0
  6
CONTINUOUS
 62
     7
 10
1975.76722106934
 20
-1352.3342590332
 30
0.0
 11
1975.76722106934
 21
-1435.83422851563
 31
0.0
  0
LINE
  5
   771
  8
0
  6
CONTINUOUS
 62
     7
 10
1976.26722106934
 20
-1352.3342590332
 30
0.0
 11
1976.26722106934
 21
-1435.83422851563
 31
0.0
  0
CIRCLE
  5
   772
  8
0
  6
CONTINUOUS
 62
     7
 10
2017.41733354131
 20
-1446.33419591011
 30
0.0
 40
3.25
  0
LINE
  5
   773
  8
0
  6
CONTINUOUS
 62
     7
 10
1986.41750717163
 20
-1392.33419799805
 30
0.0
 11
2050.91651543525
 21
-1392.33419799805
 31
0.0
  0
LINE
  5
   774
  8
0
  6
CONTINUOUS
 62
     7
 10
2041.91749547958
 20
-1392.33419799805
 30
0.0
 11
2076.41745376587
 21
-1392.33419799805
 31
0.0
  0
INSERT
  5
   775
  8
0
  6
CONTINUOUS
 62
     7
  2
$1SSS
 10
2017.41733354131
 20
-1446.33419591011
 30
0.0
 41
0.7
 42
0.7
 50
359.999999792138
 43
0.7
  0
CIRCLE
  5
   776
  8
0
  6
CONTINUOUS
 62
     7
 10
2047.4172345757
 20
-1346.33416101341
 30
0.0
 40
2.25
  0
LINE
  5
   777
  8
0
  6
DASHDOT
 62
     7
 10
2017.41721544621
 20
-1332.08423394347
 30
0.0
 11
2017.41721544621
 21
-1360.58423394347
 31
0.0
  0
LINE
  5
   778
  8
0
  6
DASHDOT
 62
     7
 10
2003.16721544621
 20
-1346.33423394347
 30
0.0
 11
2031.66721544621
 21
-1346.33423394347
 31
0.0
  0
CIRCLE
  5
   779
  8
0
  6
CONTINUOUS
 62
     7
 10
1987.41733354131
 20
-1446.33419591011
 30
0.0
 40
1.75
  0
LINE
  5
   77A
  8
0
  6
CONTINUOUS
 62
     7
 10
1957.41724266053
 20
-1352.3342590332
 30
0.0
 11
1957.41725776672
 21
-1451.33422866821
 31
0.0
  0
LINE
  5
   77B
  8
0
  6
CONTINUOUS
 62
     7
 10
1987.417263031
 20
-1385.83419799805
 30
0.0
 11
1987.41726989746
 21
-1430.83419799804
 31
0.0
  0
LINE
  5
   77C
  8
0
  6
CONTINUOUS
 62
     7
 10
1987.41723937988
 20
-1430.83419799804
 30
0.0
 11
2077.41720275879
 21
-1430.83419799804
 31
0.0
  0
LINE
  5
   77D
  8
0
  6
CONTINUOUS
 62
     7
 10
1987.41723251343
 20
-1385.83419799805
 30
0.0
 11
2077.41720962525
 21
-1385.83419799805
 31
0.0
  0
LINE
  5
   77E
  8
0
  6
CONTINUOUS
 62
     7
 10
1987.41723350525
 20
-1392.33419799805
 30
0.0
 11
2021.91722131729
 21
-1392.33419799805
 31
0.0
  0
LINE
  5
   77F
  8
0
  6
CONTINUOUS
 62
     7
 10
2077.41720962525
 20
-1385.83419799805
 30
0.0
 11
2077.41720275879
 21
-1430.83419799804
 31
0.0
  0
LINE
  5
   780
  8
0
  6
DASHDOT
 62
     7
 10
1987.41726387024
 20
-1391.33419799805
 30
0.0
 11
2077.41720878601
 21
-1391.33419799805
 31
0.0
  0
LINE
  5
   781
  8
0
  6
CONTINUOUS
 62
     7
 10
1987.417263031
 20
-1392.33419799805
 30
0.0
 11
2051.91627129463
 21
-1392.33419799805
 31
0.0
  0
LINE
  5
   782
  8
0
  6
CONTINUOUS
 62
     7
 10
2042.91725133896
 20
-1392.33419799805
 30
0.0
 11
2077.41720962525
 21
-1392.33419799805
 31
0.0
  0
INSERT
  5
   783
  8
255
  6
CONTINUOUS
 62
     7
  2
$1SACE
 10
2048.66852536895
 20
-1390.08443672274
 30
0.0
 41
1.2
 42
1.2
 50
359.999999792138
 43
1.2
  0
INSERT
  5
   784
  8
255
  6
CONTINUOUS
 62
     7
  2
$1ABB
 10
1997.32966416524
 20
-1390.15184827162
 30
0.0
 41
1.2
 42
1.2
 50
359.999999792138
 43
1.2
  0
CIRCLE
  5
   785
  8
0
  6
CONTINUOUS
 62
     7
 10
2002.41720423889
 20
-1421.13419799804
 30
0.0
 40
5.0
  0
CIRCLE
  5
   786
  8
0
  6
CONTINUOUS
 62
     7
 10
2032.41720423889
 20
-1421.13419799804
 30
0.0
 40
5.0
  0
CIRCLE
  5
   787
  8
0
  6
CONTINUOUS
 62
     7
 10
2048.41720672608
 20
-1404.83419799804
 30
0.0
 40
2.0
  0
CIRCLE
  5
   788
  8
0
  6
CONTINUOUS
 62
     7
 10
2062.41720672607
 20
-1404.83419799804
 30
0.0
 40
4.0
  0
LINE
  5
   789
  8
0
  6
CONTINUOUS
 62
     7
 10
2057.51720450592
 20
-1419.38419792175
 30
0.0
 11
2057.51720397186
 21
-1422.88419792175
 31
0.0
  0
LINE
  5
   78A
  8
0
  6
CONTINUOUS
 62
     7
 10
2067.31720450592
 20
-1419.38419807433
 30
0.0
 11
2067.31720397186
 21
-1422.88419807433
 31
0.0
  0
LINE
  5
   78B
  8
0
  6
CONTINUOUS
 62
     7
 10
1996.06690706017
 20
-1417.46785221247
 30
0.0
 11
1998.08707721997
 21
-1418.63419799804
 31
0.0
  0
LINE
  5
   78C
  8
0
  6
CONTINUOUS
 62
     7
 10
1998.37575235456
 20
-1414.13419799804
 30
0.0
 11
1999.91720423889
 21
-1416.80407097912
 31
0.0
  0
LINE
  5
   78D
  8
0
  6
CONTINUOUS
 62
     7
 10
1996.58041406151
 20
-1414.13419799804
 30
0.0
 11
1998.37575235456
 21
-1414.13419799804
 31
0.0
  0
LINE
  5
   78E
  8
0
  6
CONTINUOUS
 62
     7
 10
2002.41720423889
 20
-1413.91084023334
 30
0.0
 11
2002.41720423889
 21
-1416.13419799804
 31
0.0
  0
LINE
  5
   78F
  8
0
  6
CONTINUOUS
 62
     7
 10
2006.45865612322
 20
-1414.13419799804
 30
0.0
 11
2008.20011848635
 21
-1414.13419799804
 31
0.0
  0
LINE
  5
   790
  8
0
  6
CONTINUOUS
 62
     7
 10
2006.45865612322
 20
-1414.13419799804
 30
0.0
 11
2004.91720423889
 21
-1416.80407097912
 31
0.0
  0
LINE
  5
   791
  8
0
  6
CONTINUOUS
 62
     7
 10
2008.44051962529
 20
-1417.65663523829
 30
0.0
 11
2006.74733125781
 21
-1418.63419799804
 31
0.0
  0
LINE
  5
   792
  8
0
  6
CONTINUOUS
 62
     7
 10
2032.41720423889
 20
-1413.91084023334
 30
0.0
 11
2032.41720423889
 21
-1416.13419799804
 31
0.0
  0
LINE
  5
   793
  8
0
  6
CONTINUOUS
 62
     7
 10
2028.37575235457
 20
-1414.13419799804
 30
0.0
 11
2029.91720423889
 21
-1416.80407097912
 31
0.0
  0
LINE
  5
   794
  8
0
  6
CONTINUOUS
 62
     7
 10
2026.58041406151
 20
-1414.13419799804
 30
0.0
 11
2028.37575235457
 21
-1414.13419799804
 31
0.0
  0
LINE
  5
   795
  8
0
  6
CONTINUOUS
 62
     7
 10
2036.45865612322
 20
-1414.13419799804
 30
0.0
 11
2038.20011848636
 21
-1414.13419799804
 31
0.0
  0
LINE
  5
   796
  8
0
  6
CONTINUOUS
 62
     7
 10
2036.45865612322
 20
-1414.13419799804
 30
0.0
 11
2034.91720423889
 21
-1416.80407097912
 31
0.0
  0
LINE
  5
   797
  8
0
  6
CONTINUOUS
 62
     7
 10
2038.44051962529
 20
-1417.65663523829
 30
0.0
 11
2036.74733125782
 21
-1418.63419799804
 31
0.0
  0
LINE
  5
   798
  8
0
  6
CONTINUOUS
 62
     7
 10
2026.06690706017
 20
-1417.46785221247
 30
0.0
 11
2028.08707721997
 21
-1418.63419799804
 31
0.0
  0
LINE
  5
   799
  8
0
  6
CONTINUOUS
 62
     7
 10
2010.79784801976
 20
-1421.1152945728
 30
0.0
 11
2009.90005269802
 21
-1422.67032168485
 31
0.0
  0
LINE
  5
   79A
  8
0
  6
CONTINUOUS
 62
     7
 10
2010.79784801976
 20
-1421.1152945728
 30
0.0
 11
2011.6956433415
 21
-1422.67032168485
 31
0.0
  0
LINE
  5
   79B
  8
0
  6
CONTINUOUS
 62
     7
 10
2009.90005269802
 20
-1422.67032168485
 30
0.0
 11
2011.6956433415
 21
-1422.67032168485
 31
0.0
  0
LINE
  5
   79C
  8
0
  6
CONTINUOUS
 62
     7
 10
2038.94322074471
 20
-1421.13419799804
 30
0.0
 11
2043.37041241147
 21
-1421.13419799804
 31
0.0
  0
LINE
  5
   79D
  8
0
  6
CONTINUOUS
 62
     7
 10
2038.94322074471
 20
-1420.63419799804
 30
0.0
 11
2038.94322074471
 21
-1421.63419799804
 31
0.0
  0
LINE
  5
   79E
  8
0
  6
CONTINUOUS
 62
     7
 10
2043.37041241147
 20
-1420.63419799804
 30
0.0
 11
2043.37041241147
 21
-1421.63419799804
 31
0.0
  0
LINE
  5
   79F
  8
0
  6
CONTINUOUS
 62
     7
 10
2042.91525321756
 20
-1419.87682118654
 30
0.0
 11
2039.96454335251
 21
-1422.68241417299
 31
0.0
  0
LINE
  5
   7A0
  8
0
  6
CONTINUOUS
 62
     7
 10
2042.51142917505
 20
-1419.45210969355
 30
0.0
 11
2043.33319413417
 21
-1420.31637973676
 31
0.0
  0
INSERT
  5
   7A1
  8
255
  6
CONTINUOUS
 62
     7
  2
$1SETTORE
 10
1992.00431367608
 20
-1400.75149541112
 30
0.0
 41
0.9
 42
0.9
 50
359.999999792138
 43
0.9
  0
LINE
  5
   7A2
  8
0
  6
CONTINUOUS
 62
     7
 10
2006.4756262238
 20
-1418.21371670338
 30
0.0
 11
1997.85878225399
 21
-1423.18865388891
 31
0.0
  0
LINE
  5
   7A3
  8
0
  6
CONTINUOUS
 62
     7
 10
2006.9756262238
 20
-1419.07974210717
 30
0.0
 11
1998.35878225399
 21
-1424.0546792927
 31
0.0
  0
LINE
  5
   7A4
  8
0
  6
CONTINUOUS
 62
     7
 10
2032.91720423889
 20
-1416.15926081251
 30
0.0
 11
2032.91720423889
 21
-1426.10913518357
 31
0.0
  0
LINE
  5
   7A5
  8
0
  6
CONTINUOUS
 62
     7
 10
2031.91720423889
 20
-1416.15926081251
 30
0.0
 11
2031.91720423889
 21
-1426.10913518357
 31
0.0
  0
LINE
  5
   7A6
  8
0
  6
CONTINUOUS
 62
     7
 10
2003.01528045025
 20
-1416.1700963829
 30
0.0
 11
2004.76528045025
 21
-1419.20118529615
 31
0.0
  0
LINE
  5
   7A7
  8
0
  6
CONTINUOUS
 62
     7
 10
2005.26528045025
 20
-1420.06721069993
 30
0.0
 11
2007.01528045025
 21
-1423.09829961318
 31
0.0
  0
LINE
  5
   7A8
  8
0
  6
CONTINUOUS
 62
     7
 10
2028.41720423889
 20
-1418.13419799804
 30
0.0
 11
2031.91720423889
 21
-1418.13419799804
 31
0.0
  0
LINE
  5
   7A9
  8
0
  6
CONTINUOUS
 62
     7
 10
2032.91720423889
 20
-1418.13419799804
 30
0.0
 11
2036.41720423889
 21
-1418.13419799804
 31
0.0
  0
INSERT
  5
   7AA
  8
0
  6
CONTINUOUS
 62
     7
  2
*HATCH124
 10
2090.330078125
 20
-1290.83422851563
 30
0.0
 50
269.999999844103
  0
INSERT
  5
   7AB
  8
0
  6
CONTINUOUS
 62
     7
  2
*HATCH125
 10
2090.330078125
 20
-1290.83422851563
 30
0.0
 50
269.999999844103
  0
INSERT
  5
   7AC
  8
0
  6
CONTINUOUS
 62
     7
  2
*HATCH126
 10
2090.330078125
 20
-1290.83422851563
 30
0.0
 50
269.999999844103
  0
INSERT
  5
   7AD
  8
0
  6
CONTINUOUS
 62
     7
  2
*HATCH127
 10
2090.330078125
 20
-1290.83422851563
 30
0.0
 50
269.999999844103
  0
LINE
  5
   7AE
  8
0
  6
CONTINUOUS
 62
     7
 10
2058.01720450592
 20
-1418.88419799804
 30
0.0
 11
2066.81720450592
 21
-1418.88419799804
 31
0.0
  0
LINE
  5
   7AF
  8
0
  6
CONTINUOUS
 62
     7
 10
2058.01720397186
 20
-1423.38419799804
 30
0.0
 11
2066.81720397186
 21
-1423.38419799804
 31
0.0
  0
ARC
  5
   7B0
  8
0
  6
CONTINUOUS
 62
     7
 10
2058.01720450592
 20
-1419.38419799804
 30
0.0
 40
0.5
 50
449.999999844103
 51
539.999991101463
  0
ARC
  5
   7B1
  8
0
  6
CONTINUOUS
 62
     7
 10
2066.81720450592
 20
-1419.38419799804
 30
0.0
 40
0.5
 50
359.999991101463
 51
449.999999844103
  0
ARC
  5
   7B2
  8
0
  6
CONTINUOUS
 62
     7
 10
2066.81720397186
 20
-1422.88419799804
 30
0.0
 40
0.5
 50
269.999999844103
 51
359.999991101463
  0
ARC
  5
   7B3
  8
0
  6
CONTINUOUS
 62
     7
 10
2058.01720397186
 20
-1422.88419799804
 30
0.0
 40
0.5
 50
539.999991101463
 51
629.999999844103
  0
LINE
  5
   7B4
  8
0
  6
CONTINUOUS
 62
     7
 10
2058.01720450592
 20
-1418.63419799804
 30
0.0
 11
2066.81720450592
 21
-1418.63419799804
 31
0.0
  0
LINE
  5
   7B5
  8
0
  6
CONTINUOUS
 62
     7
 10
2057.26720450592
 20
-1419.3841978836
 30
0.0
 11
2057.26720397186
 21
-1422.8841978836
 31
0.0
  0
ARC
  5
   7B6
  8
0
  6
CONTINUOUS
 62
     7
 10
2058.01720450592
 20
-1419.38419799804
 30
0.0
 40
0.75
 50
449.999999844103
 51
539.999991101463
  0
ARC
  5
   7B7
  8
0
  6
CONTINUOUS
 62
     7
 10
2058.01720397186
 20
-1422.88419799804
 30
0.0
 40
0.75
 50
539.999991101463
 51
629.999999844103
  0
ARC
  5
   7B8
  8
0
  6
CONTINUOUS
 62
     7
 10
2066.81720397186
 20
-1422.88419799804
 30
0.0
 40
0.75
 50
269.999999844103
 51
359.999991101463
  0
LINE
  5
   7B9
  8
0
  6
CONTINUOUS
 62
     7
 10
2067.56720450592
 20
-1419.38419811248
 30
0.0
 11
2067.56720397186
 21
-1422.88419811248
 31
0.0
  0
ARC
  5
   7BA
  8
0
  6
CONTINUOUS
 62
     7
 10
2066.81720450592
 20
-1419.38419799804
 30
0.0
 40
0.75
 50
359.999991101463
 51
449.999999844103
  0
LINE
  5
   7BB
  8
0
  6
CONTINUOUS
 62
     7
 10
2058.01720397186
 20
-1423.63419799804
 30
0.0
 11
2066.81720397186
 21
-1423.63419799804
 31
0.0
  0
LINE
  5
   7BC
  8
0
  6
CONTINUOUS
 62
     7
 10
1837.41737998963
 20
-1352.33424028114
 30
0.0
 11
1837.41739509582
 21
-1451.33420991614
 31
0.0
  0
LINE
  5
   7BD
  8
0
  6
CONTINUOUS
 62
     7
 10
1957.41733680724
 20
-1352.33424028114
 30
0.0
 11
1957.41732170105
 21
-1451.33420991614
 31
0.0
  0
LINE
  5
   7BE
  8
0
  6
CONTINUOUS
 62
     7
 10
1988.91731501926
 20
-1336.33422851562
 30
0.0
 11
2015.91735187532
 21
-1336.33422851562
 31
0.0
  0
LINE
  5
   7BF
  8
0
  6
CONTINUOUS
 62
     7
 10
2018.91734313965
 20
-1336.33422851562
 30
0.0
 11
2032.41732860262
 21
-1336.33422851562
 31
0.0
  0
LINE
  5
   7C0
  8
0
  6
CONTINUOUS
 62
     7
 10
1957.41737831116
 20
-1341.33422517493
 30
0.0
 11
1957.41737998963
 21
-1352.33424028114
 31
0.0
  0
LINE
  5
   7C1
  8
0
  6
CONTINUOUS
 62
     7
 10
2014.91734313965
 20
-1339.83422851562
 30
0.0
 11
2019.91734313965
 21
-1339.83422851562
 31
0.0
  0
LINE
  5
   7C2
  8
0
  6
CONTINUOUS
 62
     7
 10
2014.91734313965
 20
-1338.58422851562
 30
0.0
 11
2014.91734313965
 21
-1339.83422851562
 31
0.0
  0
LINE
  5
   7C3
  8
0
  6
CONTINUOUS
 62
     7
 10
2015.91734313965
 20
-1336.33422851562
 30
0.0
 11
2015.91734313965
 21
-1337.58422851562
 31
0.0
  0
LINE
  5
   7C4
  8
0
  6
CONTINUOUS
 62
     7
 10
2018.91734313965
 20
-1336.33422851562
 30
0.0
 11
2018.91734313965
 21
-1337.58422851562
 31
0.0
  0
LINE
  5
   7C5
  8
0
  6
CONTINUOUS
 62
     7
 10
2019.91734485624
 20
-1338.58423614496
 30
0.0
 11
2019.91734390256
 21
-1339.83423614496
 31
0.0
  0
LINE
  5
   7C6
  8
0
  6
CONTINUOUS
 62
     7
 10
2031.16734313965
 20
-1336.33421325683
 30
0.0
 11
2033.66734218597
 21
-1336.33421325683
 31
0.0
  0
ARC
  5
   7C7
  8
0
  6
CONTINUOUS
 62
     7
 10
2032.41732860262
 20
-1339.33422851562
 30
0.0
 40
1.25
 50
449.999999844103
 51
629.999999844103
  0
CIRCLE
  5
   7C8
  8
0
  6
CONTINUOUS
 62
     7
 10
2002.4173663742
 20
-1339.33423767089
 30
0.0
 40
1.25
  0
LINE
  5
   7C9
  8
0
  6
CONTINUOUS
 62
     7
 10
2018.91731501926
 20
-1336.33422851562
 30
0.0
 11
2018.91731501926
 21
-1338.33422851562
 31
0.0
  0
LINE
  5
   7CA
  8
0
  6
CONTINUOUS
 62
     7
 10
2015.91731501926
 20
-1336.33422851562
 30
0.0
 11
2015.91731501926
 21
-1338.33422851562
 31
0.0
  0
LINE
  5
   7CB
  8
0
  6
CONTINUOUS
 62
     7
 10
2014.91731253972
 20
-1336.33422851562
 30
0.0
 11
2014.91731521001
 21
-1339.83423995965
 31
0.0
  0
LINE
  5
   7CC
  8
0
  6
CONTINUOUS
 62
     7
 10
2019.91731501926
 20
-1336.33422851562
 30
0.0
 11
2019.91731501926
 21
-1339.83422851562
 31
0.0
  0
LINE
  5
   7CD
  8
0
  6
CONTINUOUS
 62
     7
 10
2014.91731501926
 20
-1339.83422851562
 30
0.0
 11
2019.91731501926
 21
-1339.83422851562
 31
0.0
  0
LINE
  5
   7CE
  8
0
  6
CONTINUOUS
 62
     7
 10
2018.91731501926
 20
-1338.33422851562
 30
0.0
 11
2019.91731501926
 21
-1338.33422851562
 31
0.0
  0
LINE
  5
   7CF
  8
0
  6
CONTINUOUS
 62
     7
 10
2014.91731406559
 20
-1338.33422851562
 30
0.0
 11
2015.91731501926
 21
-1338.33422851562
 31
0.0
  0
ARC
  5
   7D0
  8
0
  6
CONTINUOUS
 62
     7
 10
1960.91734718323
 20
-1337.33422502235
 30
0.0
 40
1.0
 50
449.999999844103
 51
540.000008586744
  0
LINE
  5
   7D1
  8
0
  6
CONTINUOUS
 62
     7
 10
1958.41734924317
 20
-1350.83424028114
 30
0.0
 11
1958.41734947205
 21
-1352.33424028114
 31
0.0
  0
LINE
  5
   7D2
  8
0
  6
CONTINUOUS
 62
     7
 10
1958.41734924317
 20
-1350.83424028114
 30
0.0
 11
2032.41732860262
 21
-1350.83424028114
 31
0.0
  0
LINE
  5
   7D3
  8
0
  6
CONTINUOUS
 62
     7
 10
1959.91734718323
 20
-1337.33422517494
 30
0.0
 11
1959.917347641
 21
-1340.33422502235
 31
0.0
  0
LINE
  5
   7D4
  8
0
  6
CONTINUOUS
 62
     7
 10
1958.41734779358
 20
-1340.33422502235
 30
0.0
 11
1959.917347641
 21
-1340.33422502235
 31
0.0
  0
ARC
  5
   7D5
  8
0
  6
CONTINUOUS
 62
     7
 10
1958.41734779358
 20
-1341.33422502235
 30
0.0
 40
1.0
 50
449.999999844103
 51
540.000008586744
  0
LINE
  5
   7D6
  8
0
  6
CONTINUOUS
 62
     7
 10
2048.91736492156
 20
-1336.33422851562
 30
0.0
 11
2073.91736991882
 21
-1336.33422851562
 31
0.0
  0
LINE
  5
   7D7
  8
0
  6
CONTINUOUS
 62
     7
 10
2032.41738819426
 20
-1336.33422851562
 30
0.0
 11
2045.91737365722
 21
-1336.33422851562
 31
0.0
  0
LINE
  5
   7D8
  8
0
  6
CONTINUOUS
 62
     7
 10
2077.41733848571
 20
-1341.33422517493
 30
0.0
 11
2077.41733680724
 21
-1352.33424028114
 31
0.0
  0
LINE
  5
   7D9
  8
0
  6
CONTINUOUS
 62
     7
 10
2044.91737365723
 20
-1339.83422851562
 30
0.0
 11
2049.91737365722
 21
-1339.83422851562
 31
0.0
  0
LINE
  5
   7DA
  8
0
  6
CONTINUOUS
 62
     7
 10
2049.91737365722
 20
-1338.58422851562
 30
0.0
 11
2049.91737365722
 21
-1339.83422851562
 31
0.0
  0
LINE
  5
   7DB
  8
0
  6
CONTINUOUS
 62
     7
 10
2048.91737365723
 20
-1336.33422851562
 30
0.0
 11
2048.91737365723
 21
-1337.58422851562
 31
0.0
  0
LINE
  5
   7DC
  8
0
  6
CONTINUOUS
 62
     7
 10
2045.91737365722
 20
-1336.33422851562
 30
0.0
 11
2045.91737365722
 21
-1337.58422851562
 31
0.0
  0
LINE
  5
   7DD
  8
0
  6
CONTINUOUS
 62
     7
 10
2044.91737194064
 20
-1338.58423614496
 30
0.0
 11
2044.91737289431
 21
-1339.83423614496
 31
0.0
  0
LINE
  5
   7DE
  8
0
  6
CONTINUOUS
 62
     7
 10
2031.1673746109
 20
-1336.33421325683
 30
0.0
 11
2033.66737365723
 21
-1336.33421325683
 31
0.0
  0
ARC
  5
   7DF
  8
0
  6
CONTINUOUS
 62
     7
 10
2032.41738819426
 20
-1339.33422851562
 30
0.0
 40
1.25
 50
269.999999844103
 51
449.999999844103
  0
CIRCLE
  5
   7E0
  8
0
  6
CONTINUOUS
 62
     7
 10
2062.41735042267
 20
-1339.33423767089
 30
0.0
 40
1.25
  0
LINE
  5
   7E1
  8
0
  6
CONTINUOUS
 62
     7
 10
2045.91740177761
 20
-1336.33422851562
 30
0.0
 11
2045.91740177761
 21
-1338.33422851562
 31
0.0
  0
LINE
  5
   7E2
  8
0
  6
CONTINUOUS
 62
     7
 10
2048.91740177762
 20
-1336.33422851562
 30
0.0
 11
2048.91740177762
 21
-1338.33422851562
 31
0.0
  0
LINE
  5
   7E3
  8
0
  6
CONTINUOUS
 62
     7
 10
2049.91740425716
 20
-1336.33422851562
 30
0.0
 11
2049.91740158686
 21
-1339.83423995965
 31
0.0
  0
LINE
  5
   7E4
  8
0
  6
CONTINUOUS
 62
     7
 10
2044.91740177762
 20
-1336.33422851562
 30
0.0
 11
2044.91740177762
 21
-1339.83422851562
 31
0.0
  0
LINE
  5
   7E5
  8
0
  6
CONTINUOUS
 62
     7
 10
2044.91740177762
 20
-1339.83422851562
 30
0.0
 11
2049.91740177762
 21
-1339.83422851562
 31
0.0
  0
LINE
  5
   7E6
  8
0
  6
CONTINUOUS
 62
     7
 10
2044.91740177762
 20
-1338.33422851562
 30
0.0
 11
2045.91740177761
 21
-1338.33422851562
 31
0.0
  0
LINE
  5
   7E7
  8
0
  6
CONTINUOUS
 62
     7
 10
2048.91740177762
 20
-1338.33422851562
 30
0.0
 11
2049.91740273128
 21
-1338.33422851562
 31
0.0
  0
ARC
  5
   7E8
  8
0
  6
CONTINUOUS
 62
     7
 10
2073.91736961364
 20
-1337.33422502235
 30
0.0
 40
1.0
 50
359.999991101463
 51
449.999999844103
  0
LINE
  5
   7E9
  8
0
  6
CONTINUOUS
 62
     7
 10
2076.4173675537
 20
-1350.83424028114
 30
0.0
 11
2076.41736732482
 21
-1352.33424028114
 31
0.0
  0
LINE
  5
   7EA
  8
0
  6
CONTINUOUS
 62
     7
 10
2032.41738819426
 20
-1350.83424028114
 30
0.0
 11
2076.4173675537
 21
-1350.83424028114
 31
0.0
  0
LINE
  5
   7EB
  8
0
  6
CONTINUOUS
 62
     7
 10
2074.91736961364
 20
-1337.33422517494
 30
0.0
 11
2074.91736915588
 21
-1340.33422502235
 31
0.0
  0
LINE
  5
   7EC
  8
0
  6
CONTINUOUS
 62
     7
 10
2074.91736915588
 20
-1340.33422502235
 30
0.0
 11
2076.41736900329
 21
-1340.33422502235
 31
0.0
  0
ARC
  5
   7ED
  8
0
  6
CONTINUOUS
 62
     7
 10
2076.41736900329
 20
-1341.33422502235
 30
0.0
 40
1.0
 50
359.999991101463
 51
449.999999844103
  0
LINE
  5
   7EE
  8
0
  6
DASHDOT
 62
     7
 10
2017.41737540965
 20
-1334.934235552
 30
0.0
 11
2017.41737540965
 21
-1357.734235552
 31
0.0
  0
LINE
  5
   7EF
  8
0
  6
DASHDOT
 62
     7
 10
2006.01737540965
 20
-1346.334235552
 30
0.0
 11
2028.81737540965
 21
-1346.334235552
 31
0.0
  0
LINE
  5
   7F0
  8
0
  6
DASHDOT
 62
     7
 10
2036.01734138722
 20
-1346.334235552
 30
0.0
 11
2058.81734138722
 21
-1346.334235552
 31
0.0
  0
LINE
  5
   7F1
  8
0
  6
DASHDOT
 62
     7
 10
2032.91743703184
 20
-1346.33416262194
 30
0.0
 11
2061.91735204645
 21
-1346.33416262194
 31
0.0
  0
CIRCLE
  5
   7F2
  8
0
  6
CONTINUOUS
 62
     7
 10
1972.4173663742
 20
-1339.33423767089
 30
0.0
 40
1.25
  0
LINE
  5
   7F3
  8
0
  6
CONTINUOUS
 62
     7
 10
1985.91731501926
 20
-1336.33422851562
 30
0.0
 11
1985.91731501926
 21
-1338.33422851562
 31
0.0
  0
LINE
  5
   7F4
  8
0
  6
CONTINUOUS
 62
     7
 10
1988.91731501926
 20
-1336.33422851562
 30
0.0
 11
1988.91731501926
 21
-1338.33422851562
 31
0.0
  0
LINE
  5
   7F5
  8
0
  6
CONTINUOUS
 62
     7
 10
1984.91731406559
 20
-1338.33422851562
 30
0.0
 11
1985.91731501926
 21
-1338.33422851562
 31
0.0
  0
LINE
  5
   7F6
  8
0
  6
CONTINUOUS
 62
     7
 10
1988.91731501926
 20
-1338.33422851562
 30
0.0
 11
1989.91731501926
 21
-1338.33422851562
 31
0.0
  0
LINE
  5
   7F7
  8
0
  6
CONTINUOUS
 62
     7
 10
1989.91731501926
 20
-1336.33422851562
 30
0.0
 11
1989.91731501926
 21
-1339.83422851562
 31
0.0
  0
LINE
  5
   7F8
  8
0
  6
CONTINUOUS
 62
     7
 10
1984.91731253972
 20
-1336.33422851562
 30
0.0
 11
1984.91731521001
 21
-1339.83423995965
 31
0.0
  0
LINE
  5
   7F9
  8
0
  6
CONTINUOUS
 62
     7
 10
1984.91731501926
 20
-1339.83422851562
 30
0.0
 11
1989.91731501926
 21
-1339.83422851562
 31
0.0
  0
CIRCLE
  5
   7FA
  8
0
  6
CONTINUOUS
 62
     7
 10
2017.41730312824
 20
-1346.334235552
 30
0.0
 40
4.4999575073053
  0
LINE
  5
   7FB
  8
0
  6
DASHDOT
 62
     7
 10
1976.01737540965
 20
-1346.334235552
 30
0.0
 11
1998.81737540965
 21
-1346.334235552
 31
0.0
  0
LINE
  5
   7FC
  8
0
  6
DASHDOT
 62
     7
 10
2017.41735628016
 20
-1334.93430848205
 30
0.0
 11
2017.41735628016
 21
-1357.73430848205
 31
0.0
  0
LINE
  5
   7FD
  8
0
  6
CONTINUOUS
 62
     7
 10
1960.91734687806
 20
-1336.33422851562
 30
0.0
 11
1985.91735187532
 21
-1336.33422851562
 31
0.0
  0
LINE
  5
   7FE
  8
0
  6
CONTINUOUS
 62
     7
 10
1959.917347641
 20
-1340.33422502235
 30
0.0
 11
1959.91734924317
 21
-1350.83424028114
 31
0.0
  0
LINE
  5
   7FF
  8
0
  6
CONTINUOUS
 62
     7
 10
2074.91736915588
 20
-1340.33422502235
 30
0.0
 11
2074.9173675537
 21
-1350.83424028114
 31
0.0
  0
ARC
  5
   800
  8
0
  6
CONTINUOUS
 62
     7
 10
2019.96737540965
 20
-1343.784235552
 30
0.0
 40
2.0
 50
538.557523714239
 51
631.442475973968
  0
CIRCLE
  5
   801
  8
0
  6
CONTINUOUS
 62
     7
 10
2017.41737540965
 20
-1346.334235552
 30
0.0
 40
3.750066744417
  0
ARC
  5
   802
  8
0
  6
CONTINUOUS
 62
     7
 10
2014.86737540965
 20
-1343.784235552
 30
0.0
 40
2.0
 50
628.557523714238
 51
721.442475973968
  0
ARC
  5
   803
  8
0
  6
CONTINUOUS
 62
     7
 10
2017.41737540965
 20
-1346.334235552
 30
0.0
 40
2.6580067720004
 50
438.044002632411
 51
461.955997055796
  0
ARC
  5
   804
  8
0
  6
CONTINUOUS
 62
     7
 10
2017.41737540965
 20
-1346.334235552
 30
0.0
 40
2.6580067720004
 50
528.044002632411
 51
551.955997055796
  0
ARC
  5
   805
  8
0
  6
CONTINUOUS
 62
     7
 10
2017.41737540965
 20
-1346.334235552
 30
0.0
 40
2.6580067720004
 50
348.044002632411
 51
371.955997055795
  0
ARC
  5
   806
  8
0
  6
CONTINUOUS
 62
     7
 10
2019.96737540965
 20
-1348.884235552
 30
0.0
 40
2.0
 50
448.557523714238
 51
541.442475973968
  0
ARC
  5
   807
  8
0
  6
CONTINUOUS
 62
     7
 10
2014.86737540965
 20
-1348.884235552
 30
0.0
 40
2.0
 50
358.557523714239
 51
451.442475973968
  0
ARC
  5
   808
  8
0
  6
CONTINUOUS
 62
     7
 10
2017.41737540965
 20
-1346.334235552
 30
0.0
 40
2.6580067720004
 50
618.044002632411
 51
641.955997055796
  0
LINE
  5
   809
  8
0
  6
DASHDOT
 62
     7
 10
2017.41737540965
 20
-1332.58416880758
 30
0.0
 11
2017.41737540965
 21
-1360.08430229641
 31
0.0
  0
INSERT
  5
   80A
  8
0
  6
CONTINUOUS
 62
     7
  2
$1SSS
 10
2047.41739453914
 20
-1346.33416262194
 30
0.0
 41
0.7
 42
0.7
 50
359.999999792138
 43
0.7
  0
CIRCLE
  5
   80B
  8
0
  6
CONTINUOUS
 62
     7
 10
1987.4172345757
 20
-1346.33416101341
 30
0.0
 40
2.25
  0
CIRCLE
  5
   80C
  8
0
  6
CONTINUOUS
 62
     7
 10
1987.4172345757
 20
-1346.33416101341
 30
0.0
 40
2.25
  0
INSERT
  5
   80D
  8
0
  6
CONTINUOUS
 62
     7
  2
$1SSS
 10
1987.41739453914
 20
-1346.33416262194
 30
0.0
 41
0.7
 42
0.7
 50
359.999999792138
 43
0.7
  0
CIRCLE
  5
   80E
  8
0
  6
CONTINUOUS
 62
     7
 10
2047.41741384924
 20
-1446.33428324756
 30
0.0
 40
4.4999575073053
  0
ARC
  5
   80F
  8
0
  6
CONTINUOUS
 62
     7
 10
2049.96748613064
 20
-1443.78428324756
 30
0.0
 40
2.0
 50
538.557523714239
 51
631.442475973968
  0
CIRCLE
  5
   810
  8
0
  6
CONTINUOUS
 62
     7
 10
2047.41748613064
 20
-1446.33428324756
 30
0.0
 40
3.750066744417
  0
ARC
  5
   811
  8
0
  6
CONTINUOUS
 62
     7
 10
2044.86748613064
 20
-1443.78428324756
 30
0.0
 40
2.0
 50
628.557523714238
 51
721.442475973968
  0
ARC
  5
   812
  8
0
  6
CONTINUOUS
 62
     7
 10
2047.41748613064
 20
-1446.33428324756
 30
0.0
 40
2.6580067720004
 50
438.044002632411
 51
461.955997055796
  0
ARC
  5
   813
  8
0
  6
CONTINUOUS
 62
     7
 10
2047.41748613064
 20
-1446.33428324756
 30
0.0
 40
2.6580067720004
 50
528.044002632411
 51
551.955997055796
  0
ARC
  5
   814
  8
0
  6
CONTINUOUS
 62
     7
 10
2047.41748613064
 20
-1446.33428324756
 30
0.0
 40
2.6580067720004
 50
348.044002632411
 51
371.955997055795
  0
ARC
  5
   815
  8
0
  6
CONTINUOUS
 62
     7
 10
2049.96748613064
 20
-1448.88428324756
 30
0.0
 40
2.0
 50
448.557523714238
 51
541.442475973968
  0
ARC
  5
   816
  8
0
  6
CONTINUOUS
 62
     7
 10
2044.86748613064
 20
-1448.88428324756
 30
0.0
 40
2.0
 50
358.557523714239
 51
451.442475973968
  0
ARC
  5
   817
  8
0
  6
CONTINUOUS
 62
     7
 10
2047.41748613064
 20
-1446.33428324756
 30
0.0
 40
2.6580067720004
 50
618.044002632411
 51
641.955997055796
  0
LINE
  5
   818
  8
0
  6
CONTINUOUS
 62
     7
 10
1947.7173614502
 20
-1425.23421304313
 30
0.0
 11
1952.7173614502
 21
-1425.23421304313
 31
0.0
  0
LINE
  5
   819
  8
0
  6
CONTINUOUS
 62
     7
 10
1952.7173614502
 20
-1425.23421304313
 30
0.0
 11
1952.7173614502
 21
-1426.13421304312
 31
0.0
  0
LINE
  5
   81A
  8
0
  6
CONTINUOUS
 62
     7
 10
1947.7173614502
 20
-1425.23421304313
 30
0.0
 11
1947.7173614502
 21
-1426.13421304312
 31
0.0
  0
LINE
  5
   81B
  8
0
  6
CONTINUOUS
 62
     7
 10
1950.2173614502
 20
-1420.83421304313
 30
0.0
 11
1947.7173614502
 21
-1425.23421304313
 31
0.0
  0
LINE
  5
   81C
  8
0
  6
CONTINUOUS
 62
     7
 10
1950.2173614502
 20
-1420.83421304313
 30
0.0
 11
1952.7173614502
 21
-1425.23421304313
 31
0.0
  0
LINE
  5
   81D
  8
0
  6
CONTINUOUS
 62
     7
 10
1985.91740177762
 20
-1454.33422851562
 30
0.0
 11
1985.91740177762
 21
-1456.33422851562
 31
0.0
  0
LINE
  5
   81E
  8
0
  6
CONTINUOUS
 62
     7
 10
1984.91740177761
 20
-1454.33422851562
 30
0.0
 11
1985.91740177762
 21
-1454.33422851562
 31
0.0
  0
LINE
  5
   81F
  8
0
  6
CONTINUOUS
 62
     7
 10
1988.91740177762
 20
-1454.33422851562
 30
0.0
 11
1989.91740273128
 21
-1454.33422851562
 31
0.0
  0
LINE
  5
   820
  8
0
  6
CONTINUOUS
 62
     7
 10
1988.91740177762
 20
-1454.33422851562
 30
0.0
 11
1988.91740177762
 21
-1456.33422851562
 31
0.0
  0
LINE
  5
   821
  8
0
  6
CONTINUOUS
 62
     7
 10
2044.91740177762
 20
-1454.33422851562
 30
0.0
 11
2045.91740177761
 21
-1454.33422851562
 31
0.0
  0
LINE
  5
   822
  8
0
  6
CONTINUOUS
 62
     7
 10
2045.91740177761
 20
-1454.33422851562
 30
0.0
 11
2045.91740177761
 21
-1456.33422851562
 31
0.0
  0
LINE
  5
   823
  8
0
  6
CONTINUOUS
 62
     7
 10
2048.91740177762
 20
-1454.33422851562
 30
0.0
 11
2048.91740177762
 21
-1456.33422851562
 31
0.0
  0
LINE
  5
   824
  8
0
  6
CONTINUOUS
 62
     7
 10
2048.91740177762
 20
-1454.33422851562
 30
0.0
 11
2048.91740177762
 21
-1456.33422851562
 31
0.0
  0
LINE
  5
   825
  8
0
  6
CONTINUOUS
 62
     7
 10
2048.91740177762
 20
-1454.33422851562
 30
0.0
 11
2049.91740273128
 21
-1454.33422851562
 31
0.0
  0
LINE
  5
   826
  8
0
  6
CONTINUOUS
 62
     7
 10
2015.91740177762
 20
-1454.33422851562
 30
0.0
 11
2015.91740177762
 21
-1456.33422851562
 31
0.0
  0
LINE
  5
   827
  8
0
  6
CONTINUOUS
 62
     7
 10
2014.91740177762
 20
-1454.33422851562
 30
0.0
 11
2015.91740177762
 21
-1454.33422851562
 31
0.0
  0
LINE
  5
   828
  8
0
  6
CONTINUOUS
 62
     7
 10
2018.91740177762
 20
-1454.33422851562
 30
0.0
 11
2019.91740273128
 21
-1454.33422851562
 31
0.0
  0
LINE
  5
   829
  8
0
  6
CONTINUOUS
 62
     7
 10
2018.91740177762
 20
-1454.33422851562
 30
0.0
 11
2018.91740177762
 21
-1456.33422851562
 31
0.0
  0
ARC
  5
   82A
  8
0
  6
CONTINUOUS
 62
     7
 10
2002.41737591279
 20
-1449.3341041898
 30
0.0
 40
55.0000175143047
 50
560.765584356613
 51
586.297703185132
  0
ARC
  5
   82B
  8
0
  6
CONTINUOUS
 62
     7
 10
2002.41737591279
 20
-1449.3341041898
 30
0.0
 40
65.0000175143047
 50
557.457600196851
 51
594.224037083738
  0
ARC
  5
   82C
  8
0
  6
DOT
 62
     7
 10
1972.41737591279
 20
-1449.3341041898
 30
0.0
 40
65.0000175143047
 50
302.578966478705
 51
305.775661523901
  0
ARC
  5
   82D
  8
0
  6
CONTINUOUS
 62
     7
 10
1972.41737591279
 20
-1449.3341041898
 30
0.0
 40
55.0000175143047
 50
286.765867002909
 51
293.57801287022
  0
ARC
  5
   82E
  8
0
  6
CONTINUOUS
 62
     7
 10
1942.41737591279
 20
-1449.3341041898
 30
0.0
 40
65.0000175143047
 50
307.979863500265
 51
323.129878056085
  0
ARC
  5
   82F
  8
0
  6
DOT
 62
     7
 10
1942.41737591279
 20
-1449.3341041898
 30
0.0
 40
55.0000175143047
 50
303.055719121028
 51
313.701897186627
  0
ARC
  5
   830
  8
0
  6
CONTINUOUS
 62
     7
 10
1912.41737591279
 20
-1449.3341041898
 30
0.0
 40
65.0000175143047
 50
307.979863500265
 51
313.813046492865
  0
ARC
  5
   831
  8
0
  6
CONTINUOUS
 62
     7
 10
1912.41737591279
 20
-1449.3341041898
 30
0.0
 40
55.0000175143047
 50
285.826614803899
 51
291.323675720967
  0
ARC
  5
   832
  8
0
  6
DOT
 62
     7
 10
1912.41737591279
 20
-1449.3341041898
 30
0.0
 40
55.0000175143047
 50
344.714061353318
 51
352.687849681783
  0
ARC
  5
   833
  8
0
  6
DOT
 62
     7
 10
1912.41737591279
 20
-1449.3341041898
 30
0.0
 40
65.0000175143047
 50
347.11018128966
 51
353.81758704905
  0
ARC
  5
   834
  8
0
  6
CONTINUOUS
 62
     7
 10
2002.41737591279
 20
-1449.3341041898
 30
0.0
 40
65.0000175143047
 50
546.182399110257
 51
552.889818398547
  0
ARC
  5
   835
  8
0
  6
CONTINUOUS
 62
     7
 10
2002.41737591279
 20
-1449.3341041898
 30
0.0
 40
55.0000175143047
 50
547.312133980382
 51
555.285938334888
  0
ARC
  5
   836
  8
0
  6
CONTINUOUS
 62
     7
 10
1972.41737591279
 20
-1449.3341041898
 30
0.0
 40
55.0000175143047
 50
560.765584356613
 51
621.636254844582
  0
ARC
  5
   837
  8
0
  6
CONTINUOUS
 62
     7
 10
1972.41737591279
 20
-1449.3341041898
 30
0.0
 40
65.0000175143047
 50
557.457600196851
 51
622.93016464582
  0
ARC
  5
   838
  8
0
  6
CONTINUOUS
 62
     7
 10
1972.41737591279
 20
-1449.3341041898
 30
0.0
 40
65.0000175143047
 50
546.182399110257
 51
552.889818398547
  0
ARC
  5
   839
  8
0
  6
CONTINUOUS
 62
     7
 10
1972.41737591279
 20
-1449.3341041898
 30
0.0
 40
55.0000175143047
 50
547.312133980382
 51
555.285938334888
  0
ARC
  5
   83A
  8
0
  6
CONTINUOUS
 62
     7
 10
1942.41737591279
 20
-1449.3341041898
 30
0.0
 40
55.0000175143047
 50
559.89992586909
 51
624.784086832137
  0
ARC
  5
   83B
  8
0
  6
CONTINUOUS
 62
     7
 10
1942.41737591279
 20
-1449.3341041898
 30
0.0
 40
65.0000175143047
 50
546.182399110257
 51
642.743581728807
  0
ARC
  5
   83C
  8
0
  6
CONTINUOUS
 62
     7
 10
1912.41737591279
 20
-1449.3341041898
 30
0.0
 40
55.0000175143047
 50
547.312133980382
 51
624.784086832137
  0
ARC
  5
   83D
  8
0
  6
CONTINUOUS
 62
     7
 10
1912.41737591279
 20
-1449.3341041898
 30
0.0
 40
65.0000175143047
 50
546.182399110257
 51
642.743581728807
  0
ARC
  5
   83E
  8
0
  6
CONTINUOUS
 62
     7
 10
1942.41737591279
 20
-1449.3341041898
 30
0.0
 40
55.0000175143047
 50
547.312133980382
 51
556.195077678856
  0
ARC
  5
   83F
  8
0
  6
CONTINUOUS
 62
     7
 10
1912.41737591279
 20
-1449.3341041898
 30
0.0
 40
55.0000175143047
 50
324.903172652908
 51
339.234415331593
  0
ARC
  5
   840
  8
0
  6
CONTINUOUS
 62
     7
 10
1912.41737591279
 20
-1449.3341041898
 30
0.0
 40
65.0000175143047
 50
322.643130474107
 51
323.129878056085
  0
ARC
  5
   841
  8
0
  6
CONTINUOUS
 62
     7
 10
1912.41737591279
 20
-1449.3341041898
 30
0.0
 40
55.0000175143047
 50
303.055719121028
 51
314.184364437207
  0
LINE
  5
   842
  8
0
  6
DASHDOT
 62
     7
 10
2062.41720672607
 20
-1395.83419799804
 30
0.0
 11
2062.41720672607
 21
-1413.83419799804
 31
0.0
  0
LINE
  5
   843
  8
0
  6
DASHDOT
 62
     7
 10
2053.41720672608
 20
-1404.83419799804
 30
0.0
 11
2071.41720672607
 21
-1404.83419799804
 31
0.0
  0
LINE
  5
   844
  8
0
  6
DASHDOT
 62
     7
 10
2048.41720672608
 20
-1397.83419799804
 30
0.0
 11
2048.41720672608
 21
-1411.83419799804
 31
0.0
  0
LINE
  5
   845
  8
0
  6
DASHDOT
 62
     7
 10
2041.41720672607
 20
-1404.83419799804
 30
0.0
 11
2055.41720672608
 21
-1404.83419799804
 31
0.0
  0
LINE
  5
   846
  8
0
  6
DASHDOT
 62
     7
 10
2002.41720423889
 20
-1411.13419799804
 30
0.0
 11
2002.41720423889
 21
-1431.13419799804
 31
0.0
  0
LINE
  5
   847
  8
0
  6
DASHDOT
 62
     7
 10
1950.2173614502
 20
-1416.38421304313
 30
0.0
 11
1950.2173614502
 21
-1434.88421304312
 31
0.0
  0
LINE
  5
   848
  8
0
  6
DASHDOT
 62
     7
 10
1940.9673614502
 20
-1425.63421304312
 30
0.0
 11
1959.4673614502
 21
-1425.63421304312
 31
0.0
  0
LINE
  5
   849
  8
0
  6
DASHDOT
 62
     7
 10
2032.41720423889
 20
-1411.13419799804
 30
0.0
 11
2032.41720423889
 21
-1431.13419799804
 31
0.0
  0
LINE
  5
   84A
  8
0
  6
DASHDOT
 62
     7
 10
2022.41720423889
 20
-1421.13419799804
 30
0.0
 11
2042.41720423889
 21
-1421.13419799804
 31
0.0
  0
LINE
  5
   84B
  8
0
  6
DASHDOT
 62
     7
 10
2002.41720423889
 20
-1411.13419799804
 30
0.0
 11
2002.41720423889
 21
-1431.13419799804
 31
0.0
  0
LINE
  5
   84C
  8
0
  6
DASHDOT
 62
     7
 10
1992.41720423889
 20
-1421.13419799804
 30
0.0
 11
2012.41720423889
 21
-1421.13419799804
 31
0.0
  0
LINE
  5
   84D
  8
0
  6
CONTINUOUS
 62
     7
 10
1990.41720423889
 20
-1408.33419799805
 30
0.0
 11
1990.41720423889
 21
-1430.83419799804
 31
0.0
  0
LINE
  5
   84E
  8
0
  6
CONTINUOUS
 62
     7
 10
2044.41720423889
 20
-1408.33419799805
 30
0.0
 11
2044.41720423889
 21
-1430.83419799804
 31
0.0
  0
LINE
  5
   84F
  8
0
  6
CONTINUOUS
 62
     7
 10
1990.41720423889
 20
-1408.33419799805
 30
0.0
 11
2044.41720423889
 21
-1408.33419799805
 31
0.0
  0
INSERT
  5
   850
  8
0
  6
CONTINUOUS
 62
     3
  2
*UDIM178
 10
0.0
 20
0.0
 30
0.0
  0
TEXT
  5
   851
  8
0
  6
CONTINUOUS
 62
     2
 10
2081.98354468832
 20
-1409.72641755342
 30
0.0
 40
3.00000002980232
  1
X
 50
359.999999844103
 41
0.916666674282816
 72
     1
 11
2083.08354473114
 21
-1408.2264175415
 31
0.0
 73
     2
  0
TEXT
  5
   852
  8
0
  6
CONTINUOUS
 62
     2
 10
1827.29535518179
 20
-1409.82894898652
 30
0.0
 40
3.00000002980232
  1
X
 50
359.999999844103
 41
0.916666674282816
 72
     1
 11
1828.39535522461
 21
-1408.32894897461
 31
0.0
 73
     2
  0
INSERT
  5
   853
  8
0
  6
CONTINUOUS
 62
     3
  2
*UDIM179
 10
0.0
 20
0.0
 30
0.0
  0
INSERT
  5
   854
  8
0
  6
CONTINUOUS
 62
     7
  2
*UDIM180
 10
0.0
 20
0.0
 30
0.0
  0
INSERT
  5
   855
  8
0
  6
CONTINUOUS
 62
     7
  2
*UDIM181
 10
0.0
 20
0.0
 30
0.0
  0
INSERT
  5
   856
  8
0
  6
CONTINUOUS
 62
     3
  2
*UDIM182
 10
0.0
 20
0.0
 30
0.0
  0
LINE
  5
   857
  8
0
  6
DASHDOT
 62
     7
 10
2062.41735042267
 20
-1337.08423767089
 30
0.0
 11
2062.41735042267
 21
-1341.58423767089
 31
0.0
  0
LINE
  5
   858
  8
0
  6
DASHDOT
 62
     7
 10
2060.16735042267
 20
-1339.33423767089
 30
0.0
 11
2064.66735042267
 21
-1339.33423767089
 31
0.0
  0
LINE
  5
   859
  8
0
  6
DASHDOT
 62
     7
 10
2032.41732860262
 20
-1337.08422851562
 30
0.0
 11
2032.41732860262
 21
-1341.58422851562
 31
0.0
  0
LINE
  5
   85A
  8
0
  6
DASHDOT
 62
     7
 10
2030.16732860262
 20
-1339.33422851562
 30
0.0
 11
2034.66732860262
 21
-1339.33422851562
 31
0.0
  0
LINE
  5
   85B
  8
0
  6
DASHDOT
 62
     7
 10
2002.4173663742
 20
-1337.08423767089
 30
0.0
 11
2002.4173663742
 21
-1341.58423767089
 31
0.0
  0
LINE
  5
   85C
  8
0
  6
DASHDOT
 62
     7
 10
2000.1673663742
 20
-1339.33423767089
 30
0.0
 11
2004.6673663742
 21
-1339.33423767089
 31
0.0
  0
LINE
  5
   85D
  8
0
  6
DASHDOT
 62
     7
 10
1972.4173663742
 20
-1337.08423767089
 30
0.0
 11
1972.4173663742
 21
-1341.58423767089
 31
0.0
  0
LINE
  5
   85E
  8
0
  6
DASHDOT
 62
     7
 10
1970.1673663742
 20
-1339.33423767089
 30
0.0
 11
1974.6673663742
 21
-1339.33423767089
 31
0.0
  0
LINE
  5
   85F
  8
0
  6
DASHDOT
 62
     7
 10
1942.41735042267
 20
-1337.08423767089
 30
0.0
 11
1942.41735042267
 21
-1341.58423767089
 31
0.0
  0
LINE
  5
   860
  8
0
  6
DASHDOT
 62
     7
 10
1940.16735042267
 20
-1339.33423767089
 30
0.0
 11
1944.66735042267
 21
-1339.33423767089
 31
0.0
  0
LINE
  5
   861
  8
0
  6
DASHDOT
 62
     7
 10
1912.41738819426
 20
-1337.08422851562
 30
0.0
 11
1912.41738819426
 21
-1341.58422851562
 31
0.0
  0
LINE
  5
   862
  8
0
  6
DASHDOT
 62
     7
 10
1910.16738819426
 20
-1339.33422851562
 30
0.0
 11
1914.66738819426
 21
-1339.33422851562
 31
0.0
  0
LINE
  5
   863
  8
0
  6
DASHDOT
 62
     7
 10
1882.4173663742
 20
-1337.08423767089
 30
0.0
 11
1882.4173663742
 21
-1341.58423767089
 31
0.0
  0
LINE
  5
   864
  8
0
  6
DASHDOT
 62
     7
 10
1880.1673663742
 20
-1339.33423767089
 30
0.0
 11
1884.6673663742
 21
-1339.33423767089
 31
0.0
  0
LINE
  5
   865
  8
0
  6
DASHDOT
 62
     7
 10
1852.4173663742
 20
-1337.08423767089
 30
0.0
 11
1852.4173663742
 21
-1341.58423767089
 31
0.0
  0
LINE
  5
   866
  8
0
  6
DASHDOT
 62
     7
 10
1850.1673663742
 20
-1339.33423767089
 30
0.0
 11
1854.6673663742
 21
-1339.33423767089
 31
0.0
  0
LINE
  5
   867
  8
0
  6
DASHDOT
 62
     7
 10
1852.41734416658
 20
-1451.08421325683
 30
0.0
 11
1852.41734416658
 21
-1455.58421325683
 31
0.0
  0
LINE
  5
   868
  8
0
  6
DASHDOT
 62
     7
 10
1850.16734416658
 20
-1453.33421325683
 30
0.0
 11
1854.66734416658
 21
-1453.33421325683
 31
0.0
  0
LINE
  5
   869
  8
0
  6
DASHDOT
 62
     7
 10
1882.41734416658
 20
-1451.08421325683
 30
0.0
 11
1882.41734416658
 21
-1455.58421325683
 31
0.0
  0
LINE
  5
   86A
  8
0
  6
DASHDOT
 62
     7
 10
1880.16734416658
 20
-1453.33421325683
 30
0.0
 11
1884.66734416658
 21
-1453.33421325683
 31
0.0
  0
LINE
  5
   86B
  8
0
  6
DASHDOT
 62
     7
 10
1912.41734416658
 20
-1451.08421325683
 30
0.0
 11
1912.41734416658
 21
-1455.58421325683
 31
0.0
  0
LINE
  5
   86C
  8
0
  6
DASHDOT
 62
     7
 10
1910.16734416658
 20
-1453.33421325683
 30
0.0
 11
1914.66734416658
 21
-1453.33421325683
 31
0.0
  0
LINE
  5
   86D
  8
0
  6
DASHDOT
 62
     7
 10
1942.4173726303
 20
-1451.08421325683
 30
0.0
 11
1942.4173726303
 21
-1455.58421325683
 31
0.0
  0
LINE
  5
   86E
  8
0
  6
DASHDOT
 62
     7
 10
1940.1673726303
 20
-1453.33421325683
 30
0.0
 11
1944.6673726303
 21
-1453.33421325683
 31
0.0
  0
LINE
  5
   86F
  8
0
  6
CONTINUOUS
 62
     7
 10
1844.41732860262
 20
-1320.91960914528
 30
0.0
 11
1844.41732860262
 21
-1336.33422851562
 31
0.0
  0
LINE
  5
   870
  8
0
  6
CONTINUOUS
 62
     7
 10
1860.41732860262
 20
-1320.91960914528
 30
0.0
 11
1860.41732860262
 21
-1336.33422851562
 31
0.0
  0
ARC
  5
   871
  8
0
  6
CONTINUOUS
 62
     7
 10
1848.41732860262
 20
-1323.91960914528
 30
0.0
 40
4.99999999999909
 50
396.869897489939
 51
503.130102198273
  0
ARC
  5
   872
  8
0
  6
CONTINUOUS
 62
     7
 10
1856.41732860262
 20
-1317.91960914528
 30
0.0
 40
4.99999999999982
 50
576.869897489952
 51
683.130102198255
  0
ARC
  5
   873
  8
0
  6
CONTINUOUS
 62
     7
 10
1856.41732860262
 20
-1323.91960914528
 30
0.0
 40
4.99999999999848
 50
396.869897489931
 51
503.130102198275
  0
INSERT
  5
   874
  8
0
  6
CONTINUOUS
 62
     7
  2
*HATCH128
 10
2090.330078125
 20
-1290.83422851563
 30
0.0
 50
269.999999844103
  0
ARC
  5
   875
  8
0
  6
CONTINUOUS
 62
     7
 10
1886.41732860262
 20
-1323.91960914528
 30
0.0
 40
4.99999999999848
 50
396.869897489931
 51
503.130102198275
  0
ARC
  5
   876
  8
0
  6
CONTINUOUS
 62
     7
 10
1886.41732860262
 20
-1317.91960914528
 30
0.0
 40
4.99999999999982
 50
576.869897489952
 51
683.130102198255
  0
ARC
  5
   877
  8
0
  6
CONTINUOUS
 62
     7
 10
1878.41732860262
 20
-1323.91960914528
 30
0.0
 40
4.99999999999909
 50
396.869897489939
 51
503.130102198273
  0
LINE
  5
   878
  8
0
  6
CONTINUOUS
 62
     7
 10
1890.41732860262
 20
-1320.91960914528
 30
0.0
 11
1890.41732860262
 21
-1336.33422851562
 31
0.0
  0
LINE
  5
   879
  8
0
  6
CONTINUOUS
 62
     7
 10
1874.41732860262
 20
-1320.91960914528
 30
0.0
 11
1874.41732860262
 21
-1336.33422851562
 31
0.0
  0
INSERT
  5
   87A
  8
0
  6
CONTINUOUS
 62
     7
  2
*HATCH129
 10
2090.330078125
 20
-1290.83422851563
 30
0.0
 50
269.999999844103
  0
LINE
  5
   87B
  8
0
  6
CONTINUOUS
 62
     7
 10
1904.41732860262
 20
-1320.91960914528
 30
0.0
 11
1904.41732860262
 21
-1336.33422851562
 31
0.0
  0
LINE
  5
   87C
  8
0
  6
CONTINUOUS
 62
     7
 10
1920.41732860262
 20
-1320.91960914528
 30
0.0
 11
1920.41732860262
 21
-1336.33422851562
 31
0.0
  0
ARC
  5
   87D
  8
0
  6
CONTINUOUS
 62
     7
 10
1908.41732860262
 20
-1323.91960914528
 30
0.0
 40
4.99999999999909
 50
396.869897489939
 51
503.130102198273
  0
ARC
  5
   87E
  8
0
  6
CONTINUOUS
 62
     7
 10
1916.41732860262
 20
-1317.91960914528
 30
0.0
 40
4.99999999999982
 50
576.869897489952
 51
683.130102198255
  0
ARC
  5
   87F
  8
0
  6
CONTINUOUS
 62
     7
 10
1916.41732860262
 20
-1323.91960914528
 30
0.0
 40
4.99999999999848
 50
396.869897489931
 51
503.130102198275
  0
INSERT
  5
   880
  8
0
  6
CONTINUOUS
 62
     7
  2
*HATCH130
 10
2090.330078125
 20
-1290.83422851563
 30
0.0
 50
269.999999844103
  0
ARC
  5
   881
  8
0
  6
CONTINUOUS
 62
     7
 10
1946.41732860262
 20
-1323.91960914528
 30
0.0
 40
4.99999999999848
 50
396.869897489931
 51
503.130102198275
  0
ARC
  5
   882
  8
0
  6
CONTINUOUS
 62
     7
 10
1946.41732860262
 20
-1317.91960914528
 30
0.0
 40
4.99999999999982
 50
576.869897489952
 51
683.130102198255
  0
ARC
  5
   883
  8
0
  6
CONTINUOUS
 62
     7
 10
1938.41732860262
 20
-1323.91960914528
 30
0.0
 40
4.99999999999909
 50
396.869897489939
 51
503.130102198273
  0
LINE
  5
   884
  8
0
  6
CONTINUOUS
 62
     7
 10
1950.41732860262
 20
-1320.91960914528
 30
0.0
 11
1950.41732860262
 21
-1336.33422851562
 31
0.0
  0
LINE
  5
   885
  8
0
  6
CONTINUOUS
 62
     7
 10
1934.41732860262
 20
-1320.91960914528
 30
0.0
 11
1934.41732860262
 21
-1336.33422851562
 31
0.0
  0
INSERT
  5
   886
  8
0
  6
CONTINUOUS
 62
     7
  2
*HATCH131
 10
2090.330078125
 20
-1290.83422851563
 30
0.0
 50
269.999999844103
  0
LINE
  5
   887
  8
0
  6
CONTINUOUS
 62
     7
 10
1964.41723735505
 20
-1456.33422851563
 30
0.0
 11
1964.41723735505
 21
-1526.66525617224
 31
0.0
  0
LINE
  5
   888
  8
0
  6
CONTINUOUS
 62
     7
 10
1980.41723735505
 20
-1456.33422851563
 30
0.0
 11
1980.41723735505
 21
-1526.66525617224
 31
0.0
  0
ARC
  5
   889
  8
0
  6
CONTINUOUS
 62
     7
 10
1968.41723735506
 20
-1529.66525617224
 30
0.0
 40
5.00000000000018
 50
396.86989748995
 51
503.130102198256
  0
ARC
  5
   88A
  8
0
  6
CONTINUOUS
 62
     7
 10
1976.41723735506
 20
-1523.66525617224
 30
0.0
 40
5.00000000000018
 50
576.869897489947
 51
683.130102198258
  0
ARC
  5
   88B
  8
0
  6
CONTINUOUS
 62
     7
 10
1968.41723735506
 20
-1523.66525617224
 30
0.0
 40
4.99999999999982
 50
576.869897489944
 51
683.130102198262
  0
INSERT
  5
   88C
  8
0
  6
CONTINUOUS
 62
     7
  2
*HATCH132
 10
2090.330078125
 20
-1290.83422851563
 30
0.0
 50
269.999999844103
  0
ARC
  5
   88D
  8
0
  6
CONTINUOUS
 62
     7
 10
1998.41723735506
 20
-1523.66525617224
 30
0.0
 40
4.99999999999982
 50
576.869897489944
 51
683.130102198262
  0
ARC
  5
   88E
  8
0
  6
CONTINUOUS
 62
     7
 10
2006.41723735506
 20
-1523.66525617224
 30
0.0
 40
5.00000000000018
 50
576.869897489947
 51
683.130102198258
  0
ARC
  5
   88F
  8
0
  6
CONTINUOUS
 62
     7
 10
1998.41723735506
 20
-1529.66525617224
 30
0.0
 40
5.00000000000018
 50
396.86989748995
 51
503.130102198256
  0
LINE
  5
   890
  8
0
  6
CONTINUOUS
 62
     7
 10
2010.41723735505
 20
-1456.33422851563
 30
0.0
 11
2010.41723735505
 21
-1526.66525617224
 31
0.0
  0
LINE
  5
   891
  8
0
  6
CONTINUOUS
 62
     7
 10
1994.41723735505
 20
-1456.33422851563
 30
0.0
 11
1994.41723735505
 21
-1526.66525617224
 31
0.0
  0
INSERT
  5
   892
  8
0
  6
CONTINUOUS
 62
     7
  2
*HATCH133
 10
2090.330078125
 20
-1290.83422851563
 30
0.0
 50
269.999999844103
  0
LINE
  5
   893
  8
0
  6
CONTINUOUS
 62
     7
 10
2024.41723735505
 20
-1456.33422851563
 30
0.0
 11
2024.41723735505
 21
-1526.66525617224
 31
0.0
  0
LINE
  5
   894
  8
0
  6
CONTINUOUS
 62
     7
 10
2040.41723735505
 20
-1456.33422851563
 30
0.0
 11
2040.41723735505
 21
-1526.66525617224
 31
0.0
  0
ARC
  5
   895
  8
0
  6
CONTINUOUS
 62
     7
 10
2028.41723735505
 20
-1529.66525617224
 30
0.0
 40
5.00000000000018
 50
396.86989748995
 51
503.130102198256
  0
ARC
  5
   896
  8
0
  6
CONTINUOUS
 62
     7
 10
2036.41723735505
 20
-1523.66525617224
 30
0.0
 40
5.00000000000018
 50
576.869897489947
 51
683.130102198258
  0
ARC
  5
   897
  8
0
  6
CONTINUOUS
 62
     7
 10
2028.41723735505
 20
-1523.66525617224
 30
0.0
 40
4.99999999999982
 50
576.869897489944
 51
683.130102198262
  0
INSERT
  5
   898
  8
0
  6
CONTINUOUS
 62
     7
  2
*HATCH134
 10
2090.330078125
 20
-1290.83422851563
 30
0.0
 50
269.999999844103
  0
ARC
  5
   899
  8
0
  6
CONTINUOUS
 62
     7
 10
2058.41723735505
 20
-1523.66525617224
 30
0.0
 40
4.99999999999982
 50
576.869897489944
 51
683.130102198262
  0
ARC
  5
   89A
  8
0
  6
CONTINUOUS
 62
     7
 10
2066.41723735506
 20
-1523.66525617224
 30
0.0
 40
5.00000000000018
 50
576.869897489947
 51
683.130102198258
  0
ARC
  5
   89B
  8
0
  6
CONTINUOUS
 62
     7
 10
2058.41723735505
 20
-1529.66525617224
 30
0.0
 40
5.00000000000018
 50
396.86989748995
 51
503.130102198256
  0
LINE
  5
   89C
  8
0
  6
CONTINUOUS
 62
     7
 10
2070.41723735506
 20
-1456.33422851563
 30
0.0
 11
2070.41723735506
 21
-1526.66525617224
 31
0.0
  0
LINE
  5
   89D
  8
0
  6
CONTINUOUS
 62
     7
 10
2054.41723735506
 20
-1456.33422851563
 30
0.0
 11
2054.41723735506
 21
-1526.66525617224
 31
0.0
  0
INSERT
  5
   89E
  8
0
  6
CONTINUOUS
 62
     7
  2
*HATCH135
 10
2090.330078125
 20
-1290.83422851563
 30
0.0
 50
269.999999844103
  0
ARC
  5
   89F
  8
0
  6
DOT
 62
     7
 10
2002.41737591279
 20
-1449.3341041898
 30
0.0
 40
55.0000175143047
 50
340.98823853664
 51
352.687849681783
  0
ARC
  5
   8A0
  8
0
  6
DOT
 62
     7
 10
2002.41737591279
 20
-1449.3341041898
 30
0.0
 40
65.0000175143047
 50
323.129878056085
 51
353.81758704905
  0
ARC
  5
   8A1
  8
0
  6
CONTINUOUS
 62
     7
 10
2002.41737591279
 20
-1449.3341041898
 30
0.0
 40
55.0000175143047
 50
313.701897186627
 51
340.98823853664
  0
ARC
  5
   8A2
  8
0
  6
CONTINUOUS
 62
     7
 10
2002.41737591279
 20
-1449.3341041898
 30
0.0
 40
65.0000175143047
 50
305.775661523901
 51
323.129878056085
  0
ARC
  5
   8A3
  8
0
  6
DOT
 62
     7
 10
2002.41737591279
 20
-1449.3341041898
 30
0.0
 40
65.0000175143047
 50
289.783034868342
 51
305.775661523901
  0
ARC
  5
   8A4
  8
0
  6
DOT
 62
     7
 10
2002.41737591279
 20
-1449.3341041898
 30
0.0
 40
55.0000175143047
 50
293.57801287022
 51
313.701897186627
  0
ARC
  5
   8A5
  8
0
  6
DOT
 62
     7
 10
1972.41737591279
 20
-1449.3341041898
 30
0.0
 40
65.0000175143047
 50
323.129878056085
 51
353.81758704905
  0
ARC
  5
   8A6
  8
0
  6
DOT
 62
     7
 10
1972.41737591279
 20
-1449.3341041898
 30
0.0
 40
55.0000175143047
 50
340.98823853664
 51
352.687849681783
  0
ARC
  5
   8A7
  8
0
  6
CONTINUOUS
 62
     7
 10
1972.41737591279
 20
-1449.3341041898
 30
0.0
 40
55.0000175143047
 50
313.701897186627
 51
340.98823853664
  0
ARC
  5
   8A8
  8
0
  6
CONTINUOUS
 62
     7
 10
1972.41737591279
 20
-1449.3341041898
 30
0.0
 40
65.0000175143047
 50
305.775661523901
 51
323.129878056085
  0
ARC
  5
   8A9
  8
0
  6
CONTINUOUS
 62
     7
 10
2002.41737591279
 20
-1449.3341041898
 30
0.0
 40
55.0000175143047
 50
278.363453057891
 51
293.57801287022
  0
ARC
  5
   8AA
  8
0
  6
CONTINUOUS
 62
     7
 10
2002.41737591279
 20
-1449.3341041898
 30
0.0
 40
65.0000175143047
 50
277.069588901126
 51
289.783034868342
  0
ARC
  5
   8AB
  8
0
  6
DOT
 62
     7
 10
2002.41737591279
 20
-1449.3341041898
 30
0.0
 40
65.0000175143047
 50
622.93016464582
 51
637.069588901126
  0
ARC
  5
   8AC
  8
0
  6
DOT
 62
     7
 10
2002.41737591279
 20
-1449.3341041898
 30
0.0
 40
55.0000175143047
 50
621.636254844582
 51
638.363453057891
  0
ARC
  5
   8AD
  8
0
  6
DOT
 62
     7
 10
1972.41737591279
 20
-1449.3341041898
 30
0.0
 40
55.0000175143047
 50
293.57801287022
 51
313.701897186627
  0
ARC
  5
   8AE
  8
0
  6
DOT
 62
     7
 10
1942.41737591279
 20
-1449.3341041898
 30
0.0
 40
65.0000175143047
 50
323.129878056085
 51
353.81758704905
  0
ARC
  5
   8AF
  8
0
  6
DOT
 62
     7
 10
1942.41737591279
 20
-1449.3341041898
 30
0.0
 40
55.0000175143047
 50
340.98823853664
 51
352.687849681783
  0
ARC
  5
   8B0
  8
0
  6
DOT
 62
     7
 10
1988.41736083675
 20
-1461.33410644531
 30
0.0
 40
7.0
 50
328.995318519738
 51
359.999999844103
  0
ARC
  5
   8B1
  8
0
  6
DOT
 62
     7
 10
1990.41736083675
 20
-1461.33410644531
 30
0.0
 40
5.0
 50
323.127743936294
 51
359.999999844103
  0
LINE
  5
   8B2
  8
0
  6
DOT
 62
     7
 10
1994.41723735505
 20
-1458.33410644531
 30
0.0
 11
1996.41736083675
 21
-1458.33410644531
 31
0.0
  0
LINE
  5
   8B3
  8
0
  6
CONTINUOUS
 62
     7
 10
1980.41723735505
 20
-1463.83410644531
 30
0.0
 11
1989.13730096518
 21
-1463.83410644531
 31
0.0
  0
LINE
  5
   8B4
  8
0
  6
CONTINUOUS
 62
     7
 10
1980.41723735505
 20
-1468.83410644531
 30
0.0
 11
1989.13730096518
 21
-1468.83410644531
 31
0.0
  0
ARC
  5
   8B5
  8
0
  6
CONTINUOUS
 62
     7
 10
1942.41737591279
 20
-1449.3341041898
 30
0.0
 40
55.0000175143047
 50
313.701897186627
 51
340.98823853664
  0
ARC
  5
   8B6
  8
0
  6
CONTINUOUS
 62
     7
 10
2002.41737591279
 20
-1449.3341041898
 30
0.0
 40
55.0000175143047
 50
606.421671839493
 51
621.636254844582
  0
ARC
  5
   8B7
  8
0
  6
CONTINUOUS
 62
     7
 10
2002.41737591279
 20
-1449.3341041898
 30
0.0
 40
65.0000175143047
 50
610.216705228995
 51
622.93016464582
  0
ARC
  5
   8B8
  8
0
  6
CONTINUOUS
 62
     7
 10
1972.41737591279
 20
-1449.3341041898
 30
0.0
 40
65.0000175143047
 50
277.069588901126
 51
282.743581728807
  0
ARC
  5
   8B9
  8
0
  6
DOT
 62
     7
 10
1972.41737591279
 20
-1449.3341041898
 30
0.0
 40
65.0000175143047
 50
622.93016464582
 51
637.069588901126
  0
ARC
  5
   8BA
  8
0
  6
DOT
 62
     7
 10
1972.41737591279
 20
-1449.3341041898
 30
0.0
 40
55.0000175143047
 50
621.636254844582
 51
624.784086832137
  0
ARC
  5
   8BB
  8
0
  6
DOT
 62
     7
 10
2002.41737591279
 20
-1449.3341041898
 30
0.0
 40
65.0000175143047
 50
594.224037083738
 51
610.216705228995
  0
ARC
  5
   8BC
  8
0
  6
DOT
 62
     7
 10
2002.41737591279
 20
-1449.3341041898
 30
0.0
 40
55.0000175143047
 50
586.297703185132
 51
606.421671839493
  0
ARC
  5
   8BD
  8
0
  6
DOT
 62
     7
 10
1912.41737591279
 20
-1449.3341041898
 30
0.0
 40
65.0000175143047
 50
323.129878056085
 51
342.542399491355
  0
LINE
  5
   8BE
  8
0
  6
DOT
 62
     7
 10
1964.41723735505
 20
-1468.83410644531
 30
0.0
 11
1980.41723735505
 21
-1468.83410644531
 31
0.0
  0
LINE
  5
   8BF
  8
0
  6
DOT
 62
     7
 10
1964.41723735505
 20
-1463.83410644531
 30
0.0
 11
1980.41723735505
 21
-1463.83410644531
 31
0.0
  0
INSERT
  5
   8C0
  8
255
  6
CONTINUOUS
 62
     7
  2
DIAFRAMMA
 10
1927.41739453914
 20
-1338.33422851562
 30
0.0
 50
359.999999792138
  0
INSERT
  5
   8C1
  8
255
  6
CONTINUOUS
 62
     7
  2
DIAFRAMMA
 10
1897.41739453914
 20
-1338.33422851562
 30
0.0
 50
359.999999792138
  0
INSERT
  5
   8C2
  8
255
  6
CONTINUOUS
 62
     7
  2
DIAFRAMMA
 10
1867.41739453914
 20
-1338.33422851562
 30
0.0
 50
359.999999792138
  0
TEXT
  5
   8C3
  8
0
  6
CONTINUOUS
 62
     2
 10
2057.97008155945
 20
-1422.28558352412
 30
0.0
 40
2.50000005960464
  1
TEST
 50
359.999999844103
 41
0.899999932169916
 72
     1
 11
2062.24508133531
 21
-1421.03558350593
 31
0.0
 73
     2
  0
TEXT
  5
   8C4
  8
0
  6
CONTINUOUS
 62
     2
 10
2039.57455055684
 20
-1418.06550598968
 30
0.0
 40
1.50000001490116
  1
1.5
 50
359.999999844103
 41
0.916666689183977
 72
     1
 11
2041.49955062568
 21
-1417.31550598746
 31
0.0
 73
     2
  0
TEXT
  5
   8C5
  8
0
  6
CONTINUOUS
 62
     2
 10
2039.59211728518
 20
-1414.39245606665
 30
0.0
 40
1.50000001490116
  1
1
 50
359.999999844103
 41
0.916666689183977
 72
     1
 11
2040.14211730659
 21
-1413.6424560607
 31
0.0
 73
     2
  0
TEXT
  5
   8C6
  8
0
  6
CONTINUOUS
 62
     2
 10
2020.96974937886
 20
-1417.70619202483
 30
0.0
 40
1.50000001490116
  1
0.1
 50
359.999999844103
 41
0.916666689183977
 72
     1
 11
2022.8947494477
 21
-1416.95619202261
 31
0.0
 73
     2
  0
TEXT
  5
   8C7
  8
0
  6
CONTINUOUS
 62
     2
 10
2020.04270162565
 20
-1414.15290833156
 30
0.0
 40
1.50000001490116
  1
0.25
 50
359.999999844103
 41
0.916666689183977
 72
     1
 11
2022.65520171821
 21
-1413.40290833121
 31
0.0
 73
     2
  0
TEXT
  5
   8C8
  8
0
  6
CONTINUOUS
 62
     2
 10
2030.55162041157
 20
-1412.15668488372
 30
0.0
 40
1.50000001490116
  1
0.5
 50
359.999999844103
 41
0.916666689183977
 72
     1
 11
2032.47662048042
 21
-1411.4066848815
 31
0.0
 73
     2
  0
TEXT
  5
   8C9
  8
0
  6
CONTINUOUS
 62
     2
 10
2010.24763486331
 20
-1417.94573975806
 30
0.0
 40
1.50000001490116
  1
3
 50
359.999999844103
 41
0.916666689183977
 72
     1
 11
2010.79763488472
 21
-1417.1957397521
 31
0.0
 73
     2
  0
TEXT
  5
   8CA
  8
0
  6
CONTINUOUS
 62
     2
 10
2010.00808713382
 20
-1414.5122299314
 30
0.0
 40
1.50000001490116
  1
1
 50
359.999999844103
 41
0.916666689183977
 72
     1
 11
2010.55808715522
 21
-1413.76222992544
 31
0.0
 73
     2
  0
TEXT
  5
   8CB
  8
0
  6
CONTINUOUS
 62
     2
 10
1991.26593773335
 20
-1417.58641816009
 30
0.0
 40
1.50000001490116
  1
0.1
 50
359.999999844103
 41
0.916666689183977
 72
     1
 11
1993.1909378022
 21
-1416.83641815787
 31
0.0
 73
     2
  0
TEXT
  5
   8CC
  8
0
  6
CONTINUOUS
 62
     2
 10
1991.78495781392
 20
-1414.15290833343
 30
0.0
 40
1.50000001490116
  1
0.3
 50
359.999999844103
 41
0.916666689183977
 72
     1
 11
1993.70995788276
 21
-1413.40290833121
 31
0.0
 73
     2
  0
TEXT
  5
   8CD
  8
0
  6
CONTINUOUS
 62
     2
 10
2000.88774101704
 20
-1412.27645874847
 30
0.0
 40
1.50000001490116
  1
0.5
 50
359.999999844103
 41
0.916666689183977
 72
     1
 11
2002.81274108589
 21
-1411.52645874624
 31
0.0
 73
     2
  0
TEXT
  5
   8CE
  8
0
  6
CONTINUOUS
 62
     2
 10
2054.76587910491
 20
-1429.02495726457
 30
0.0
 40
1.70000000298023
  1
IEC 947-2
 50
359.999999844103
 41
0.95588229462556
 72
     1
 11
2061.91587868333
 21
-1428.17495728249
 31
0.0
 73
     2
  0
TEXT
  5
   8CF
  8
0
  6
CONTINUOUS
 62
     2
 10
2038.92007841627
 20
-1425.31199035886
 30
0.0
 40
1.70000000298023
  1
t=s
 50
359.999999844103
 41
0.95588229462556
 72
     1
 11
2041.19507828355
 21
-1424.46199036355
 31
0.0
 73
     2
  0
TEXT
  5
   8D0
  8
0
  6
CONTINUOUS
 62
     2
 10
2011.16275028654
 20
-1425.53812561718
 30
0.0
 40
1.70000000298023
  1
A
 50
359.999999844103
 41
0.95588229462556
 72
     1
 11
2011.8127502501
 21
-1424.68812561745
 31
0.0
 73
     2
  0
TEXT
  5
   8D1
  8
0
  6
CONTINUOUS
 62
     2
 10
2008.91793820803
 20
-1425.49737550025
 30
0.0
 40
1.50000001490116
  1
=
 50
359.999999844103
 41
0.916666689183977
 72
     1
 11
2009.46793822944
 21
-1424.74737549429
 31
0.0
 73
     2
  0
TEXT
  5
   8D2
  8
0
  6
CONTINUOUS
 62
     2
 10
2012.53189847415
 20
-1422.7128448606
 30
0.0
 40
1.50000001490116
  1
n
 50
359.999999844103
 41
0.916666689183977
 72
     1
 11
2013.08189849556
 21
-1421.96284485464
 31
0.0
 73
     2
  0
TEXT
  5
   8D3
  8
0
  6
CONTINUOUS
 62
     2
 10
2008.02275089689
 20
-1422.69436035839
 30
0.0
 40
1.70000000298023
  1
I
 50
359.999999844103
 41
0.95588229462556
 72
     1
 11
2008.67275086045
 21
-1421.84436035867
 31
0.0
 73
     2
  0
TEXT
  5
   8D4
  8
0
  6
CONTINUOUS
 62
     2
 10
1970.76287087391
 20
-1439.5424652339
 30
0.0
 40
3.00000002980232
  1
N
 50
359.999999844103
 41
0.916666604744064
 72
     1
 11
1971.86287081242
 21
-1438.04246522198
 31
0.0
 73
     2
  0
ENDSEC
  0
EOF
