  0
SECTION
  2
HEADER
  9
$ACADVER
  1
AC1009
  9
$DWGCODEPAGE
  3
iso8859-1
  9
$INSBASE
 10
0.0
 20
0.0
 30
0.0
  9
$EXTMIN
 10
1.0E20
 20
1.0E20
  9
$EXTMAX
 10
-1.0E20
 20
-1.0E20
  9
$LIMMIN
 10
0.0
 20
0.0
  9
$LIMMAX
 10
12.0
 20
9.0
  9
$ORTHOMODE
 70
     0
  9
$REGENMODE
 70
     1
  9
$FILLMODE
 70
     1
  9
$QTEXTMODE
 70
     0
  9
$MIRRTEXT
 70
     1
  9
$DRAGMODE
 70
     2
  9
$LTSCALE
 40
15.0
  9
$OSMODE
 70
     0
  9
$ATTMODE
 70
     1
  9
$TEXTSIZE
 40
0.2
  9
$TRACEWID
 40
0.05
  9
$TEXTSTYLE
  7
STANDARD
  9
$CLAYER
  8
0
  9
$CELTYPE
  6
DASHED
  9
$CECOLOR
 62
   256
  9
$DIMSCALE
 40
1.0
  9
$DIMASZ
 40
0.18
  9
$DIMEXO
 40
0.0625
  9
$DIMDLI
 40
0.38
  9
$DIMRND
 40
0.0
  9
$DIMDLE
 40
0.0
  9
$DIMEXE
 40
0.18
  9
$DIMTP
 40
0.0
  9
$DIMTM
 40
0.0
  9
$DIMTXT
 40
0.18
  9
$DIMCEN
 40
0.09
  9
$DIMTSZ
 40
0.0
  9
$DIMTOL
 70
     0
  9
$DIMLIM
 70
     0
  9
$DIMTIH
 70
     1
  9
$DIMTOH
 70
     1
  9
$DIMSE1
 70
     0
  9
$DIMSE2
 70
     0
  9
$DIMTAD
 70
     0
  9
$DIMZIN
 70
     0
  9
$DIMBLK
  1

  9
$DIMASO
 70
     1
  9
$DIMSHO
 70
     1
  9
$DIMPOST
  1

  9
$DIMAPOST
  1

  9
$DIMALT
 70
     0
  9
$DIMALTD
 70
     2
  9
$DIMALTF
 40
25.4
  9
$DIMLFAC
 40
1.0
  9
$DIMTOFL
 70
     0
  9
$DIMTVP
 40
0.0
  9
$DIMTIX
 70
     0
  9
$DIMSOXD
 70
     0
  9
$DIMSAH
 70
     0
  9
$DIMBLK1
  1

  9
$DIMBLK2
  1

  9
$DIMSTYLE
  2
STANDARD
  9
$DIMCLRD
 70
     0
  9
$DIMCLRE
 70
     0
  9
$DIMCLRT
 70
     0
  9
$DIMTFAC
 40
1.0
  9
$DIMGAP
 40
0.09
  9
$LUNITS
 70
     2
  9
$LUPREC
 70
     4
  9
$AXISMODE
 70
     0
  9
$AXISUNIT
 10
0.0
 20
0.0
  9
$SKETCHINC
 40
0.1
  9
$FILLETRAD
 40
0.0
  9
$AUNITS
 70
     0
  9
$AUPREC
 70
     0
  9
$MENU
  1
acad
  9
$ELEVATION
 40
0.0
  9
$PELEVATION
 40
0.0
  9
$THICKNESS
 40
0.0
  9
$LIMCHECK
 70
     0
  9
$BLIPMODE
 70
     1
  9
$CHAMFERA
 40
0.0
  9
$CHAMFERB
 40
0.0
  9
$SKPOLY
 70
     0
  9
$TDCREATE
 40
0.000000000
  9
$TDUPDATE
 40
0.000000000
  9
$TDINDWG
 40
0.0
  9
$TDUSRTIMER
 40
0.0
  9
$USRTIMER
 70
     1
  9
$ANGBASE
 50
0.0
  9
$ANGDIR
 70
     0
  9
$PDMODE
 70
     0
  9
$PDSIZE
 40
0.0
  9
$PLINEWID
 40
0.0
  9
$COORDS
 70
     1
  9
$SPLFRAME
 70
     0
  9
$SPLINETYPE
 70
     6
  9
$SPLINESEGS
 70
     8
  9
$ATTDIA
 70
     0
  9
$ATTREQ
 70
     1
  9
$HANDLING
 70
     1
  9
$HANDSEED
  5
   8F2
  9
$SURFTAB1
 70
     6
  9
$SURFTAB2
 70
     6
  9
$SURFTYPE
 70
     6
  9
$SURFU
 70
     6
  9
$SURFV
 70
     6
  9
$UCSNAME
  2

  9
$UCSORG
 10
0.0
 20
0.0
 30
0.0
  9
$UCSXDIR
 10
1.0
 20
0.0
 30
0.0
  9
$UCSYDIR
 10
0.0
 20
1.0
 30
0.0
  9
$PUCSNAME
  2

  9
$PUCSORG
 10
0.0
 20
0.0
 30
0.0
  9
$PUCSXDIR
 10
1.0
 20
0.0
 30
0.0
  9
$PUCSYDIR
 10
0.0
 20
1.0
 30
0.0
  9
$USERI1
 70
     0
  9
$USERI2
 70
     0
  9
$USERI3
 70
     0
  9
$USERI4
 70
     0
  9
$USERI5
 70
     0
  9
$USERR1
 40
0.0
  9
$USERR2
 40
0.0
  9
$USERR3
 40
0.0
  9
$USERR4
 40
0.0
  9
$USERR5
 40
0.0
  9
$WORLDVIEW
 70
     1
  9
$SHADEDGE
 70
     3
  9
$SHADEDIF
 70
    70
  9
$TILEMODE
 70
     1
  9
$MAXACTVP
 70
    16
  9
$PINSBASE
 10
0.0
 20
0.0
 30
0.0
  9
$PLIMCHECK
 70
     0
  9
$PEXTMIN
 10
1.0E20
 20
1.0E20
 30
1.0E20
  9
$PEXTMAX
 10
-1.0E20
 20
-1.0E20
 30
-1.0E20
  9
$PLIMMIN
 10
0.0
 20
0.0
  9
$PLIMMAX
 10
12.0
 20
9.0
  9
$UNITMODE
 70
     0
  9
$VISRETAIN
 70
     0
  0
ENDSEC
  0
SECTION
  2
TABLES
  0
TABLE
  2
VPORT
 70
     1
  0
VPORT
  2
*ACTIVE
 70
     0
 10
0.0
 20
0.0
 11
1.0
 21
1.0
 12
6.801242
 22
4.5
 13
0.0
 23
0.0
 14
1.0
 24
1.0
 15
0.0
 25
0.0
 16
0.0
 26
0.0
 36
1.0
 17
0.0
 27
0.0
 37
0.0
 40
9.0
 41
1.511387
 42
50.0
 43
0.0
 44
0.0
 50
0.0
 51
0.0
 71
     0
 72
   100
 73
     1
 74
     1
 75
     0
 76
     0
 77
     0
 78
     0
  0
ENDTAB
  0
TABLE
  2
LTYPE
 70
    41
  0
LTYPE
  2
BYBLOCK
 70
     0
  3

 72
    65
 73
     0
 40
0.0
  0
LTYPE
  2
BYLAYER
 70
     0
  3

 72
    65
 73
     0
 40
0.0
  0
LTYPE
  2
CONTINUOUS
 70
     0
  3
Solid line
 72
    65
 73
     0
 40
0.0
  0
LTYPE
  2
BORDER
 70
    64
  3
__ __ . __ __ . __ __ . __ __ . __ __ . __ __ .
 72
    65
 73
     6
 40
1.75
 49
0.5
 49
-0.25
 49
0.5
 49
-0.25
 49
0.0
 49
-0.25
  0
LTYPE
  2
BORDER2
 70
    64
  3
__.__.__.__.__.__.__.__.__.__.__.__.__.__.__.__
 72
    65
 73
     6
 40
0.875
 49
0.25
 49
-0.125
 49
0.25
 49
-0.125
 49
0.0
 49
-0.125
  0
LTYPE
  2
BORDERX2
 70
    64
  3
____  ____  .  ____  ____  .  ____  ____  .  __
 72
    65
 73
     6
 40
3.5
 49
1.0
 49
-0.5
 49
1.0
 49
-0.5
 49
0.0
 49
-0.5
  0
LTYPE
  2
CENTER
 70
    64
  3
____ _ ____ _ ____ _ ____ _ ____ _ ____ _ ____
 72
    65
 73
     4
 40
2.0
 49
1.25
 49
-0.25
 49
0.25
 49
-0.25
  0
LTYPE
  2
CENTER2
 70
    64
  3
___ _ ___ _ ___ _ ___ _ ___ _ ___ _ ___ _ ___ _
 72
    65
 73
     4
 40
1.125
 49
0.75
 49
-0.125
 49
0.125
 49
-0.125
  0
LTYPE
  2
CENTERX2
 70
    64
  3
________  __  ________  __  ________  __  _____
 72
    65
 73
     4
 40
4.0
 49
2.5
 49
-0.5
 49
0.5
 49
-0.5
  0
LTYPE
  2
DASHDOT
 70
    64
  3
__ . __ . __ . __ . __ . __ . __ . __ . __ . __
 72
    65
 73
     4
 40
1.0
 49
0.5
 49
-0.25
 49
0.0
 49
-0.25
  0
LTYPE
  2
DASHDOT2
 70
    64
  3
_._._._._._._._._._._._._._._._._._._._._._._._
 72
    65
 73
     4
 40
0.5
 49
0.25
 49
-0.125
 49
0.0
 49
-0.125
  0
LTYPE
  2
DASHDOTX2
 70
    64
  3
____  .  ____  .  ____  .  ____  .  ____  .  __
 72
    65
 73
     4
 40
2.0
 49
1.0
 49
-0.5
 49
0.0
 49
-0.5
  0
LTYPE
  2
DASHED
 70
    64
  3
__ __ __ __ __ __ __ __ __ __ __ __ __ __ __ __
 72
    65
 73
     2
 40
0.75
 49
0.5
 49
-0.25
  0
LTYPE
  2
DASHED2
 70
    64
  3
_ _ _ _ _ _ _ _ _ _ _ _ _ _ _ _ _ _ _ _ _ _ _ _
 72
    65
 73
     2
 40
0.375
 49
0.25
 49
-0.125
  0
LTYPE
  2
DASHEDX2
 70
    64
  3
____  ____  ____  ____  ____  ____  ____  ____
 72
    65
 73
     2
 40
1.5
 49
1.0
 49
-0.5
  0
LTYPE
  2
DIVIDE
 70
    64
  3
____ . . ____ . . ____ . . ____ . . ____ . . __
 72
    65
 73
     6
 40
1.25
 49
0.5
 49
-0.25
 49
0.0
 49
-0.25
 49
0.0
 49
-0.25
  0
LTYPE
  2
DIVIDE2
 70
    64
  3
__..__..__..__..__..__..__..__..__..__..__..__.
 72
    65
 73
     6
 40
0.625
 49
0.25
 49
-0.125
 49
0.0
 49
-0.125
 49
0.0
 49
-0.125
  0
LTYPE
  2
DIVIDEX2
 70
    64
  3
________  .  .  ________  .  .  ________  .  .
 72
    65
 73
     6
 40
2.5
 49
1.0
 49
-0.5
 49
0.0
 49
-0.5
 49
0.0
 49
-0.5
  0
LTYPE
  2
DOT
 70
    64
  3
. . . . . . . . . . . . . . . . . . . . . . . .
 72
    65
 73
     2
 40
0.25
 49
0.0
 49
-0.25
  0
LTYPE
  2
DOT2
 70
    64
  3
...............................................
 72
    65
 73
     2
 40
0.125
 49
0.0
 49
-0.125
  0
LTYPE
  2
DOTX2
 70
    64
  3
.  .  .  .  .  .  .  .  .  .  .  .  .  .  .  .
 72
    65
 73
     2
 40
0.5
 49
0.0
 49
-0.5
  0
LTYPE
  2
HIDDEN
 70
    64
  3
__ __ __ __ __ __ __ __ __ __ __ __ __ __ __ __
 72
    65
 73
     2
 40
0.375
 49
0.25
 49
-0.125
  0
LTYPE
  2
HIDDEN2
 70
    64
  3
_ _ _ _ _ _ _ _ _ _ _ _ _ _ _ _ _ _ _ _ _ _ _ _
 72
    65
 73
     2
 40
0.1875
 49
0.125
 49
-0.0625
  0
LTYPE
  2
HIDDENX2
 70
    64
  3
____ ____ ____ ____ ____ ____ ____ ____ ____ __
 72
    65
 73
     2
 40
0.75
 49
0.5
 49
-0.25
  0
LTYPE
  2
PHANTOM
 70
    64
  3
______  __  __  ______  __  __  ______  __  __
 72
    65
 73
     6
 40
2.5
 49
1.25
 49
-0.25
 49
0.25
 49
-0.25
 49
0.25
 49
-0.25
  0
LTYPE
  2
PHANTOM2
 70
    64
  3
___ _ _ ___ _ _ ___ _ _ ___ _ _ ___ _ _ ___ _ _
 72
    65
 73
     6
 40
1.25
 49
0.625
 49
-0.125
 49
0.125
 49
-0.125
 49
0.125
 49
-0.125
  0
LTYPE
  2
PHANTOMX2
 70
    64
  3
____________    ____    ____    ____________
 72
    65
 73
     6
 40
5.0
 49
2.5
 49
-0.5
 49
0.5
 49
-0.5
 49
0.5
 49
-0.5
  0
LTYPE
  2
ACAD_ISO02W100
 70
    64
  3
__ __ __ __ __ __ __ __ __ __ __ __ __ __ __ __
 72
    65
 73
     2
 40
15.0
 49
12.0
 49
-3.0
  0
LTYPE
  2
ACAD_ISO03W100
 70
    64
  3
__    __    __    __    __    __    __    __
 72
    65
 73
     2
 40
30.0
 49
12.0
 49
-18.0
  0
LTYPE
  2
ACAD_ISO04W100
 70
    64
  3
____ . ____ . ____ . ____ . ____ . ____ . ____
 72
    65
 73
     4
 40
30.5
 49
24.0
 49
-3.0
 49
0.5
 49
-3.0
  0
LTYPE
  2
ACAD_ISO05W100
 70
    64
  3
____ .. ____ .. ____ .. ____ .. ____ .. ____ ..
 72
    65
 73
     6
 40
34.0
 49
24.0
 49
-3.0
 49
0.5
 49
-3.0
 49
0.5
 49
-3.0
  0
LTYPE
  2
ACAD_ISO06W100
 70
    64
  3
____ ... ____ ... ____ ... ____ ... ____ ... __
 72
    65
 73
     8
 40
37.5
 49
24.0
 49
-3.0
 49
0.5
 49
-3.0
 49
0.5
 49
-3.0
 49
0.5
 49
-3.0
  0
LTYPE
  2
ACAD_ISO07W100
 70
    64
  3
. . . . . . . . . . . . . . . . . . . . . . . .
 72
    65
 73
     2
 40
3.5
 49
0.5
 49
-3.0
  0
LTYPE
  2
ACAD_ISO08W100
 70
    64
  3
____ __ ____ __ ____ __ ____ ____ __ __ ____ __
 72
    65
 73
     4
 40
36.0
 49
24.0
 49
-3.0
 49
6.0
 49
-3.0
  0
LTYPE
  2
ACAD_ISO09W100
 70
    64
  3
____ __ __ ____ __ __ ____ __ __ ____ __ __ ___
 72
    65
 73
     6
 40
45.0
 49
24.0
 49
-3.0
 49
6.0
 49
-3.0
 49
6.0
 49
-3.0
  0
LTYPE
  2
ACAD_ISO10W100
 70
    64
  3
__ . __ . __ . __ . __ . __ . __ . __ . __ . __
 72
    65
 73
     4
 40
18.5
 49
12.0
 49
-3.0
 49
0.5
 49
-3.0
  0
LTYPE
  2
ACAD_ISO11W100
 70
    64
  3
__ __ . __ __ . __ __ . __ __ . __ __ . __ __ .
 72
    65
 73
     6
 40
33.5
 49
12.0
 49
-3.0
 49
12.0
 49
-3.0
 49
0.5
 49
-3.0
  0
LTYPE
  2
ACAD_ISO12W100
 70
    64
  3
__ . . __ . . __ . . __ . . __ . . __ . . __ .
 72
    65
 73
     6
 40
22.0
 49
12.0
 49
-3.0
 49
0.5
 49
-3.0
 49
0.5
 49
-3.0
  0
LTYPE
  2
ACAD_ISO13W100
 70
    64
  3
__ __ . . __ __ . . __ __ . . __ __ . . __ __ .
 72
    65
 73
     8
 40
37.0
 49
12.0
 49
-3.0
 49
12.0
 49
-3.0
 49
0.5
 49
-3.0
 49
0.5
 49
-3.0
  0
LTYPE
  2
ACAD_ISO14W100
 70
    64
  3
__ . . . __ . . . __ . . . __ . . . __ . . . __
 72
    65
 73
     8
 40
25.5
 49
12.0
 49
-3.0
 49
0.5
 49
-3.0
 49
0.5
 49
-3.0
 49
0.5
 49
-3.0
  0
LTYPE
  2
ACAD_ISO15W100
 70
    64
  3
__ __ . . . __ __ . . . __ __ . . . __ __ . . .
 72
    65
 73
    10
 40
40.5
 49
12.0
 49
-3.0
 49
12.0
 49
-3.0
 49
0.5
 49
-3.0
 49
0.5
 49
-3.0
 49
0.5
 49
-3.0
  0
ENDTAB
  0
TABLE
  2
STYLE
 70
     4
  0
STYLE
  2
STANDARD
 70
    64
 40
0.0
 41
1.0
 50
0.0
 71
     0
 42
0.2
  3
txt
  4

  0
STYLE
  2
TOLERANCE
 70
    64
 40
0.0
 41
1.0
 50
0.0
 71
     0
 42
0.2
  3
../igesfont/iges1003.shx
  4

  0
STYLE
  2
ROMANS
 70
    64
 40
0.0
 41
1.0
 50
0.0
 71
     0
 42
0.2
  3
romans.shx
  4

  0
STYLE
  2
ROMANC
 70
    64
 40
0.0
 41
1.0
 50
0.0
 71
     0
 42
0.2
  3
romanc.shx
  4

  0
ENDTAB
  0
TABLE
  2
DIMSTYLE
 70
     2
  0
DIMSTYLE
  2
UNNAMED
 70
     0
  3

  4

  5

  6

  7

 40
1.0
 41
0.18
 42
0.0625
 43
0.38
 44
0.18
 45
0.0
 46
0.0
 47
0.0
 48
0.0
140
0.18
141
0.09
142
0.0
143
25.4
144
1.0
145
0.0
146
1.0
147
0.09
 71
     0
 72
     0
 73
     1
 74
     1
 75
     0
 76
     0
 77
     0
 78
     0
170
     0
171
     2
172
     0
173
     0
174
     0
175
     0
176
     0
177
     0
178
     0
  0
DIMSTYLE
  2
STANDARD
 70
     0
  3

  4

  5

  6

  7

 40
1.0
 41
0.18
 42
0.0625
 43
0.38
 44
0.18
 45
0.0
 46
0.0
 47
0.0
 48
0.0
140
0.18
141
0.09
142
0.0
143
25.4
144
1.0
145
0.0
146
1.0
147
0.09
 71
     0
 72
     0
 73
     1
 74
     1
 75
     0
 76
     0
 77
     0
 78
     0
170
     0
171
     2
172
     0
173
     0
174
     0
175
     0
176
     0
177
     0
178
     0
  0
ENDTAB
  0
TABLE
  2
LAYER
 70
     2
  0
LAYER
  2
0
 70
     0
 62
     7
  6
CONTINUOUS
  0
LAYER
  2
255
 70
     0
 62
     7
  6
CONTINUOUS
  0
ENDTAB
  0
ENDSEC
  0
SECTION
  2
BLOCKS
  0
BLOCK
  5
     B
  8
0
  6
CONTINUOUS
 62
     7
  2
MOSTRINA
 70
    64
 10
0.0
 20
0.0
 30
0.0
  3
MOSTRINA
  0
LINE
  5
     C
  8
0
  6
CONTINUOUS
 62
     3
 10
208.338256835938
 20
30.7306251525879
 30
0.0
 11
208.338256835938
 21
189.230621337891
 31
0.0
  0
LINE
  5
     D
  8
0
  6
CONTINUOUS
 62
     3
 10
57.5882568359375
 20
29.4806251525879
 30
0.0
 11
207.088256835938
 21
29.4806251525879
 31
0.0
  0
LINE
  5
     E
  8
0
  6
CONTINUOUS
 62
     3
 10
56.3382568359375
 20
30.7306251525879
 30
0.0
 11
56.3382568359375
 21
189.230621337891
 31
0.0
  0
LINE
  5
     F
  8
0
  6
CONTINUOUS
 62
     3
 10
57.5882568359375
 20
190.480621337891
 30
0.0
 11
207.088256835938
 21
190.480621337891
 31
0.0
  0
LINE
  5
    10
  8
0
  6
CONTINUOUS
 62
     3
 10
202.838256835938
 20
56.9806251525879
 30
0.0
 11
202.838256835938
 21
162.980625152588
 31
0.0
  0
LINE
  5
    11
  8
0
  6
CONTINUOUS
 62
     3
 10
61.8382568359375
 20
56.9806251525879
 30
0.0
 11
202.838256835938
 21
56.9806251525879
 31
0.0
  0
LINE
  5
    12
  8
0
  6
CONTINUOUS
 62
     3
 10
61.8382568359375
 20
56.9806251525879
 30
0.0
 11
61.8382568359375
 21
162.980625152588
 31
0.0
  0
LINE
  5
    13
  8
0
  6
CONTINUOUS
 62
     3
 10
61.8382568359375
 20
162.980621337891
 30
0.0
 11
202.838256835938
 21
162.980621337891
 31
0.0
  0
LINE
  5
    14
  8
0
  6
CONTINUOUS
 62
     3
 10
203.838256835938
 20
48.4806251525879
 30
0.0
 11
203.838256835938
 21
49.4806251525879
 31
0.0
  0
LINE
  5
    15
  8
0
  6
CONTINUOUS
 62
     3
 10
61.8382568359375
 20
50.4806251525879
 30
0.0
 11
202.838256835938
 21
50.4806251525879
 31
0.0
  0
LINE
  5
    16
  8
0
  6
CONTINUOUS
 62
     3
 10
60.8382568359375
 20
48.4806251525879
 30
0.0
 11
60.8382568359375
 21
49.4806251525879
 31
0.0
  0
LINE
  5
    17
  8
0
  6
CONTINUOUS
 62
     3
 10
61.8382568359375
 20
49.4806251525879
 30
0.0
 11
202.838256835938
 21
49.4806251525879
 31
0.0
  0
LINE
  5
    18
  8
0
  6
CONTINUOUS
 62
     3
 10
60.8382568359375
 20
29.4806251525879
 30
0.0
 11
60.8382568359375
 21
48.4806251525879
 31
0.0
  0
LINE
  5
    19
  8
0
  6
CONTINUOUS
 62
     3
 10
60.8382568359375
 20
49.4806213378906
 30
0.0
 11
60.8382568359375
 21
190.480621337891
 31
0.0
  0
LINE
  5
    1A
  8
0
  6
CONTINUOUS
 62
     3
 10
61.8382568359375
 20
29.4806251525879
 30
0.0
 11
61.8382568359375
 21
49.4806251525879
 31
0.0
  0
LINE
  5
    1B
  8
0
  6
CONTINUOUS
 62
     3
 10
61.8382568359375
 20
162.980621337891
 30
0.0
 11
61.8382568359375
 21
169.480621337891
 31
0.0
  0
LINE
  5
    1C
  8
0
  6
CONTINUOUS
 62
     3
 10
61.8382568359375
 20
50.4806251525879
 30
0.0
 11
61.8382568359375
 21
56.9806251525879
 31
0.0
  0
LINE
  5
    1D
  8
0
  6
CONTINUOUS
 62
     3
 10
203.838256835938
 20
29.4806251525879
 30
0.0
 11
203.838256835938
 21
48.4806251525879
 31
0.0
  0
LINE
  5
    1E
  8
0
  6
CONTINUOUS
 62
     3
 10
203.838256835938
 20
49.4806251525879
 30
0.0
 11
203.838256835938
 21
190.480621337891
 31
0.0
  0
LINE
  5
    1F
  8
0
  6
CONTINUOUS
 62
     3
 10
202.838256835938
 20
50.4806251525879
 30
0.0
 11
202.838256835938
 21
56.9806251525879
 31
0.0
  0
LINE
  5
    20
  8
0
  6
CONTINUOUS
 62
     3
 10
202.838256835938
 20
162.980621337891
 30
0.0
 11
202.838256835938
 21
169.480621337891
 31
0.0
  0
LINE
  5
    21
  8
0
  6
CONTINUOUS
 62
     3
 10
202.838256835938
 20
29.4806251525879
 30
0.0
 11
202.838256835938
 21
49.4806251525879
 31
0.0
  0
LINE
  5
    22
  8
0
  6
CONTINUOUS
 62
     3
 10
60.8382568359375
 20
170.480621337891
 30
0.0
 11
203.838256835938
 21
170.480621337891
 31
0.0
  0
LINE
  5
    23
  8
0
  6
CONTINUOUS
 62
     3
 10
61.8382568359375
 20
169.480621337891
 30
0.0
 11
202.838256835938
 21
169.480621337891
 31
0.0
  0
ARC
  5
    24
  8
0
  6
CONTINUOUS
 62
     3
 10
57.5882568359375
 20
30.7306251525879
 30
0.0
 40
1.25
 50
180.0
 51
270.0
  0
ARC
  5
    25
  8
0
  6
CONTINUOUS
 62
     3
 10
207.088256835938
 20
30.7306251525879
 30
0.0
 40
1.25
 50
270.0
 51
360.0
  0
ARC
  5
    26
  8
0
  6
CONTINUOUS
 62
     3
 10
207.088256835938
 20
189.230621337891
 30
0.0
 40
1.25
 50
0.0
 51
90.0
  0
ARC
  5
    27
  8
0
  6
CONTINUOUS
 62
     3
 10
57.5882568359375
 20
189.230621337891
 30
0.0
 40
1.25
 50
90.0
 51
180.0
  0
LINE
  5
    28
  8
0
  6
DOT
 62
     3
 10
60.3382577409677
 20
179.7306252571
 30
0.0
 11
60.8382568359375
 21
179.7306252571
 31
0.0
  0
LINE
  5
    29
  8
0
  6
DOT
 62
     3
 10
60.3382577409676
 20
181.2306252571
 30
0.0
 11
60.8382568359375
 21
181.2306252571
 31
0.0
  0
LINE
  5
    2A
  8
0
  6
CONTINUOUS
 62
     3
 10
203.338257745313
 20
179.730625257273
 30
0.0
 11
203.838256835938
 21
179.730625257273
 31
0.0
  0
LINE
  5
    2B
  8
0
  6
CONTINUOUS
 62
     3
 10
203.338257745314
 20
181.230625257273
 30
0.0
 11
203.838256835938
 21
181.230625257273
 31
0.0
  0
ARC
  5
    2C
  8
0
  6
DOT
 62
     3
 10
60.3382577401871
 20
180.480625257147
 30
0.0
 40
0.749999999345164
 50
90.0
 51
270.0
  0
ARC
  5
    2D
  8
0
  6
CONTINUOUS
 62
     3
 10
61.338257740822
 20
180.480625256974
 30
0.0
 40
0.750000000009701
 50
270.0
 51
450.0
  0
LINE
  5
    2E
  8
0
  6
CONTINUOUS
 62
     3
 10
60.8382568359375
 20
181.2306252571
 30
0.0
 11
61.3382577409688
 21
181.2306252571
 31
0.0
  0
LINE
  5
    2F
  8
0
  6
CONTINUOUS
 62
     3
 10
60.8382568359375
 20
179.7306252571
 30
0.0
 11
61.3382577409689
 21
179.7306252571
 31
0.0
  0
ARC
  5
    30
  8
0
  6
CONTINUOUS
 62
     3
 10
203.338257745503
 20
180.480625256952
 30
0.0
 40
0.750000000048506
 50
90.0000000038822
 51
269.999999996024
  0
ARC
  5
    31
  8
0
  6
DOT
 62
     3
 10
204.338257745421
 20
180.480625256965
 30
0.0
 40
0.750000000029104
 50
270.000000002449
 51
449.999999997486
  0
LINE
  5
    32
  8
0
  6
DOT
 62
     3
 10
203.838256835938
 20
181.230625257273
 30
0.0
 11
204.338257745315
 21
181.230625257273
 31
0.0
  0
LINE
  5
    33
  8
0
  6
DOT
 62
     3
 10
203.838256835938
 20
179.730625257273
 30
0.0
 11
204.338257745315
 21
179.730625257273
 31
0.0
  0
POINT
  5
    34
  8
0
  6
CONTINUOUS
 62
     7
 10
132.338256835938
 20
109.980623245239
 30
0.0
  0
ENDBLK
  5
    35
  8
0
  6
CONTINUOUS
 62
     7
  0
BLOCK
  5
    36
  8
0
  6
CONTINUOUS
 62
     7
  2
*UDIM378
 70
    65
 10
0.0
 20
0.0
 30
0.0
  3
*UDIM378
  0
TEXT
  5
    37
  8
0
  6
CONTINUOUS
 62
     7
 10
48.7900714838945
 20
-26.001591541815
 30
0.0
 40
3.00000002980232
  1
161
 50
89.9999999480344
 41
0.933333333333333
 72
     1
 11
47.2900714725256
 21
-22.1015915017134
 31
0.0
 73
     2
  0
LINE
  5
    38
  8
0
  6
CONTINUOUS
 62
     7
 10
18.8485813140869
 20
-62.0765907804972
 30
0.0
 11
51.7900714874268
 21
-62.0765907804972
 31
0.0
  0
LINE
  5
    39
  8
0
  6
CONTINUOUS
 62
     7
 10
18.8485813140869
 20
18.4234073121542
 30
0.0
 11
51.7900714874268
 21
18.4234073121542
 31
0.0
  0
LINE
  5
    3A
  8
0
  6
CONTINUOUS
 62
     7
 10
49.7900714874268
 20
-62.0765907804972
 30
0.0
 11
49.7900714874268
 21
18.4234073121542
 31
0.0
  0
LINE
  5
    3B
  8
0
  6
CONTINUOUS
 62
     7
 10
49.2691270574751
 20
-59.1221675032902
 30
0.0
 11
49.7900714874268
 21
-62.0765907804972
 31
0.0
  0
LINE
  5
    3C
  8
0
  6
CONTINUOUS
 62
     7
 10
49.7900714874268
 20
-62.0765907804972
 30
0.0
 11
50.3110159173784
 21
-59.1221675032902
 31
0.0
  0
LINE
  5
    3D
  8
0
  6
CONTINUOUS
 62
     7
 10
50.3110159173784
 20
15.4689840349472
 30
0.0
 11
49.7900714874268
 21
18.4234073121542
 31
0.0
  0
LINE
  5
    3E
  8
0
  6
CONTINUOUS
 62
     7
 10
49.7900714874268
 20
18.4234073121542
 30
0.0
 11
49.2691270574751
 21
15.4689840349472
 31
0.0
  0
ENDBLK
  5
    3F
  8
0
  6
CONTINUOUS
 62
     7
  0
BLOCK
  5
    40
  8
0
  6
CONTINUOUS
 62
     7
  2
*UDIM379
 70
    65
 10
0.0
 20
0.0
 30
0.0
  3
*UDIM379
  0
TEXT
  5
    41
  8
0
  6
CONTINUOUS
 62
     7
 10
-23.7014187319695
 20
-102.306877132713
 30
0.0
 40
3.00000002980232
  1
152
 50
359.999999948034
 41
0.933333333333333
 72
     1
 11
-19.8014186918735
 21
-100.806877121329
 31
0.0
 73
     2
  0
LINE
  5
    42
  8
0
  6
CONTINUOUS
 62
     7
 10
18.4735813140869
 20
-62.4515907804972
 30
0.0
 11
18.4735813140869
 21
-105.30687713623
 31
0.0
  0
LINE
  5
    43
  8
0
  6
CONTINUOUS
 62
     7
 10
-57.5264186859131
 20
-62.4515907804972
 30
0.0
 11
-57.5264186859131
 21
-105.30687713623
 31
0.0
  0
LINE
  5
    44
  8
0
  6
CONTINUOUS
 62
     7
 10
18.4735813140869
 20
-103.30687713623
 30
0.0
 11
-57.5264186859131
 21
-103.30687713623
 31
0.0
  0
LINE
  5
    45
  8
0
  6
CONTINUOUS
 62
     7
 10
15.51915803688
 20
-103.827821566182
 30
0.0
 11
18.4735813140869
 21
-103.30687713623
 31
0.0
  0
LINE
  5
    46
  8
0
  6
CONTINUOUS
 62
     7
 10
18.4735813140869
 20
-103.30687713623
 30
0.0
 11
15.51915803688
 21
-102.785932706279
 31
0.0
  0
LINE
  5
    47
  8
0
  6
CONTINUOUS
 62
     7
 10
-54.5719954087061
 20
-102.785932706279
 30
0.0
 11
-57.5264186859131
 21
-103.30687713623
 31
0.0
  0
LINE
  5
    48
  8
0
  6
CONTINUOUS
 62
     7
 10
-57.5264186859131
 20
-103.30687713623
 30
0.0
 11
-54.5719954087061
 21
-103.827821566182
 31
0.0
  0
ENDBLK
  5
    49
  8
0
  6
CONTINUOUS
 62
     7
  0
BLOCK
  5
    4A
  8
0
  6
CONTINUOUS
 62
     7
  2
*UDIM380
 70
    65
 10
0.0
 20
0.0
 30
0.0
  3
*UDIM380
  0
TEXT
  5
    4B
  8
0
  6
CONTINUOUS
 62
     7
 10
40.5886020587038
 20
1.73591223318441
 30
0.0
 40
3.00000002980232
  1
127,75
 50
89.9999999480344
 41
0.933333333333333
 72
     1
 11
39.0886020511389
 21
9.83591231500925
 31
0.0
 73
     2
  0
LINE
  5
    4C
  8
0
  6
CONTINUOUS
 62
     7
 10
35.4951765532217
 20
-21.8265917341715
 30
0.0
 11
43.58860206604
 21
-21.8265917341715
 31
0.0
  0
LINE
  5
    4D
  8
0
  6
CONTINUOUS
 62
     7
 10
33.223592443189
 20
42.0484161376924
 30
0.0
 11
43.58860206604
 21
42.0484161376924
 31
0.0
  0
LINE
  5
    4E
  8
0
  6
CONTINUOUS
 62
     7
 10
41.58860206604
 20
-21.8265917341715
 30
0.0
 11
41.58860206604
 21
42.0484161376924
 31
0.0
  0
LINE
  5
    4F
  8
0
  6
CONTINUOUS
 62
     7
 10
41.0676576360884
 20
-18.8721684569646
 30
0.0
 11
41.58860206604
 21
-21.8265917341715
 31
0.0
  0
LINE
  5
    50
  8
0
  6
CONTINUOUS
 62
     7
 10
41.58860206604
 20
-21.8265917341715
 30
0.0
 11
42.1095464959917
 21
-18.8721684569646
 31
0.0
  0
LINE
  5
    51
  8
0
  6
CONTINUOUS
 62
     7
 10
42.1095464959917
 20
39.0939928604854
 30
0.0
 11
41.58860206604
 21
42.0484161376924
 31
0.0
  0
LINE
  5
    52
  8
0
  6
CONTINUOUS
 62
     7
 10
41.58860206604
 20
42.0484161376924
 30
0.0
 11
41.0676576360884
 21
39.0939928604854
 31
0.0
  0
ENDBLK
  5
    53
  8
0
  6
CONTINUOUS
 62
     7
  0
BLOCK
  5
    54
  8
0
  6
CONTINUOUS
 62
     7
  2
*UDIM381
 70
    65
 10
0.0
 20
0.0
 30
0.0
  3
*UDIM381
  0
TEXT
  5
    55
  8
0
  6
CONTINUOUS
 62
     7
 10
56.6554202998124
 20
-30.3765762789752
 30
0.0
 40
3.00000002980232
  1
273
 50
89.9999999480344
 41
0.933333333333333
 72
     1
 11
55.1554202884436
 21
-26.4765762388736
 31
0.0
 73
     2
  0
LINE
  5
    56
  8
0
  6
CONTINUOUS
 62
     7
 10
33.223592443189
 20
-94.4515686035186
 30
0.0
 11
59.6554203033447
 21
-94.4515686035186
 31
0.0
  0
LINE
  5
    57
  8
0
  6
CONTINUOUS
 62
     7
 10
33.223592443189
 20
42.0484161376924
 30
0.0
 11
59.6554203033447
 21
42.0484161376924
 31
0.0
  0
LINE
  5
    58
  8
0
  6
CONTINUOUS
 62
     7
 10
57.6554203033447
 20
-94.4515686035186
 30
0.0
 11
57.6554203033447
 21
42.0484161376924
 31
0.0
  0
LINE
  5
    59
  8
0
  6
CONTINUOUS
 62
     7
 10
57.1344758733931
 20
-91.4971453263116
 30
0.0
 11
57.6554203033447
 21
-94.4515686035186
 31
0.0
  0
LINE
  5
    5A
  8
0
  6
CONTINUOUS
 62
     7
 10
57.6554203033447
 20
-94.4515686035186
 30
0.0
 11
58.1763647332964
 21
-91.4971453263116
 31
0.0
  0
LINE
  5
    5B
  8
0
  6
CONTINUOUS
 62
     7
 10
58.1763647332964
 20
39.0939928604854
 30
0.0
 11
57.6554203033447
 21
42.0484161376924
 31
0.0
  0
LINE
  5
    5C
  8
0
  6
CONTINUOUS
 62
     7
 10
57.6554203033447
 20
42.0484161376924
 30
0.0
 11
57.1344758733931
 21
39.0939928604854
 31
0.0
  0
ENDBLK
  5
    5D
  8
0
  6
CONTINUOUS
 62
     7
  0
BLOCK
  5
    5E
  8
0
  6
CONTINUOUS
 62
     7
  2
*UDIM382
 70
    65
 10
0.0
 20
0.0
 30
0.0
  3
*UDIM382
  0
TEXT
  5
    5F
  8
0
  6
CONTINUOUS
 62
     7
 10
-76.3546733929564
 20
1.11091604788168
 30
0.0
 40
3.00000002980232
  1
125,25
 50
89.9999999480344
 41
0.933333333333333
 72
     1
 11
-77.8546734005213
 21
9.21091612970652
 31
0.0
 73
     2
  0
LINE
  5
    60
  8
0
  6
CONTINUOUS
 62
     7
 10
-71.2764124491687
 20
40.7984237670869
 30
0.0
 11
-77.3546733856201
 21
40.7984237670869
 31
0.0
  0
LINE
  5
    61
  8
0
  6
CONTINUOUS
 62
     7
 10
-75.3546733856201
 20
-21.8265917341715
 30
0.0
 11
-75.3546733856201
 21
40.7984237670869
 31
0.0
  0
LINE
  5
    62
  8
0
  6
CONTINUOUS
 62
     7
 10
-75.8756178155718
 20
-18.8721684569646
 30
0.0
 11
-75.3546733856201
 21
-21.8265917341715
 31
0.0
  0
LINE
  5
    63
  8
0
  6
CONTINUOUS
 62
     7
 10
-75.3546733856201
 20
-21.8265917341715
 30
0.0
 11
-74.8337289556684
 21
-18.8721684569646
 31
0.0
  0
LINE
  5
    64
  8
0
  6
CONTINUOUS
 62
     7
 10
-74.8337289556684
 20
37.8440004898799
 30
0.0
 11
-75.3546733856201
 21
40.7984237670869
 31
0.0
  0
LINE
  5
    65
  8
0
  6
CONTINUOUS
 62
     7
 10
-75.3546733856201
 20
40.7984237670869
 30
0.0
 11
-75.8756178155718
 21
37.8440004898799
 31
0.0
  0
ENDBLK
  5
    66
  8
0
  6
CONTINUOUS
 62
     7
  0
BLOCK
  5
    67
  8
0
  6
CONTINUOUS
 62
     7
  2
*UDIM383
 70
    65
 10
0.0
 20
0.0
 30
0.0
  3
*UDIM383
  0
TEXT
  5
    68
  8
0
  6
CONTINUOUS
 62
     7
 10
-23.7014068080394
 20
51.0375976597676
 30
0.0
 40
3.00000002980232
  1
140
 50
359.999999948034
 41
0.933333333333333
 72
     1
 11
-19.8014067679434
 21
52.5375976711512
 31
0.0
 73
     2
  0
LINE
  5
    69
  8
0
  6
CONTINUOUS
 62
     7
 10
15.4735968867891
 20
5.17341221873764
 30
0.0
 11
15.4736115982289
 21
52.0375976562499
 31
0.0
  0
LINE
  5
    6A
  8
0
  6
CONTINUOUS
 62
     7
 10
-54.5264107426021
 20
5.1734044234902
 30
0.0
 11
-54.5263960311598
 21
52.0375976562499
 31
0.0
  0
LINE
  5
    6B
  8
0
  6
CONTINUOUS
 62
     7
 10
15.4736109703959
 20
50.03759765625
 30
0.0
 11
-54.5263966589927
 21
50.03759765625
 31
0.0
  0
LINE
  5
    6C
  8
0
  6
CONTINUOUS
 62
     7
 10
12.519187693189
 20
49.5166532262983
 30
0.0
 11
15.4736109703959
 21
50.03759765625
 31
0.0
  0
LINE
  5
    6D
  8
0
  6
CONTINUOUS
 62
     7
 10
15.4736109703959
 20
50.03759765625
 30
0.0
 11
12.519187693189
 21
50.5585420862017
 31
0.0
  0
LINE
  5
    6E
  8
0
  6
CONTINUOUS
 62
     7
 10
-51.5719733817858
 20
50.5585420862017
 30
0.0
 11
-54.5263966589927
 21
50.03759765625
 31
0.0
  0
LINE
  5
    6F
  8
0
  6
CONTINUOUS
 62
     7
 10
-54.5263966589927
 20
50.03759765625
 30
0.0
 11
-51.5719733817858
 21
49.5166532262983
 31
0.0
  0
ENDBLK
  5
    70
  8
0
  6
CONTINUOUS
 62
     7
  0
BLOCK
  5
    71
  8
0
  6
CONTINUOUS
 62
     7
  2
*UDIM384
 70
    65
 10
0.0
 20
0.0
 30
0.0
  3
*UDIM384
  0
TEXT
  5
    72
  8
0
  6
CONTINUOUS
 62
     7
 10
-85.0820446049727
 20
-30.3765839103926
 30
0.0
 40
3.00000002980232
  1
268
 50
89.9999999480344
 41
0.933333333333333
 72
     1
 11
-86.5820446163416
 21
-26.476583870291
 31
0.0
 73
     2
  0
LINE
  5
    73
  8
0
  6
CONTINUOUS
 62
     7
 10
-71.0264338419864
 20
-93.2015841047721
 30
0.0
 11
-86.0820446014404
 21
-93.2015841047721
 31
0.0
  0
LINE
  5
    74
  8
0
  6
CONTINUOUS
 62
     7
 10
-71.2764124491687
 20
40.7984237670869
 30
0.0
 11
-86.0820446014404
 21
40.7984237670869
 31
0.0
  0
LINE
  5
    75
  8
0
  6
CONTINUOUS
 62
     7
 10
-84.0820446014404
 20
-93.2015841047721
 30
0.0
 11
-84.0820446014404
 21
40.7984237670869
 31
0.0
  0
LINE
  5
    76
  8
0
  6
CONTINUOUS
 62
     7
 10
-84.6029890313921
 20
-90.2471608275651
 30
0.0
 11
-84.0820446014404
 21
-93.2015841047721
 31
0.0
  0
LINE
  5
    77
  8
0
  6
CONTINUOUS
 62
     7
 10
-84.0820446014404
 20
-93.2015841047721
 30
0.0
 11
-83.5611001714888
 21
-90.2471608275651
 31
0.0
  0
LINE
  5
    78
  8
0
  6
CONTINUOUS
 62
     7
 10
-83.5611001714888
 20
37.8440004898799
 30
0.0
 11
-84.0820446014404
 21
40.7984237670869
 31
0.0
  0
LINE
  5
    79
  8
0
  6
CONTINUOUS
 62
     7
 10
-84.0820446014404
 20
40.7984237670869
 30
0.0
 11
-84.6029890313921
 21
37.8440004898799
 31
0.0
  0
ENDBLK
  5
    7A
  8
0
  6
CONTINUOUS
 62
     7
  0
BLOCK
  5
    7B
  8
0
  6
CONTINUOUS
 62
     7
  2
*UDIM385
 70
    65
 10
0.0
 20
0.0
 30
0.0
  3
*UDIM385
  0
TEXT
  5
    7C
  8
0
  6
CONTINUOUS
 62
     7
 10
-23.7014258644499
 20
59.6346054112324
 30
0.0
 40
3.00000002980232
  1
209
 50
359.999999948034
 41
0.933333333333333
 72
     1
 11
-19.8014258243539
 21
61.134605422616
 31
0.0
 73
     2
  0
LINE
  5
    7D
  8
0
  6
CONTINUOUS
 62
     7
 10
32.7235816280028
 20
40.2984160475091
 30
0.0
 11
32.7235880118677
 21
60.6346054077147
 31
0.0
  0
LINE
  5
    7E
  8
0
  6
CONTINUOUS
 62
     7
 10
-71.7764183719962
 20
40.2984153665494
 30
0.0
 11
-71.7764119881311
 21
60.6346054077147
 31
0.0
  0
LINE
  5
    7F
  8
0
  6
CONTINUOUS
 62
     7
 10
32.7235873840347
 20
58.6346054077148
 30
0.0
 11
-71.7764126159641
 21
58.6346054077148
 31
0.0
  0
LINE
  5
    80
  8
0
  6
CONTINUOUS
 62
     7
 10
29.7691641068278
 20
58.1136609777632
 30
0.0
 11
32.7235873840347
 21
58.6346054077148
 31
0.0
  0
LINE
  5
    81
  8
0
  6
CONTINUOUS
 62
     7
 10
32.7235873840347
 20
58.6346054077148
 30
0.0
 11
29.7691641068278
 21
59.1555498376665
 31
0.0
  0
LINE
  5
    82
  8
0
  6
CONTINUOUS
 62
     7
 10
-68.8219893387571
 20
59.1555498376665
 30
0.0
 11
-71.7764126159641
 21
58.6346054077148
 31
0.0
  0
LINE
  5
    83
  8
0
  6
CONTINUOUS
 62
     7
 10
-71.7764126159641
 20
58.6346054077148
 30
0.0
 11
-68.8219893387571
 21
58.1136609777632
 31
0.0
  0
ENDBLK
  5
    84
  8
0
  6
CONTINUOUS
 62
     7
  0
BLOCK
  5
    85
  8
0
  6
CONTINUOUS
 62
     7
  2
*HATCH287
 70
    65
 10
0.0
 20
0.0
 30
0.0
  3
*HATCH287
  0
LINE
  5
    86
  8
0
  6
CONTINUOUS
 62
   210
 10
-3.69108244776726E-2
 20
165.5
 30
0.0
 11
2.9523138999939
 21
162.510772705078
 31
0.0
  0
LINE
  5
    87
  8
0
  6
CONTINUOUS
 62
   210
 10
4.20579242706299
 20
165.499938964844
 30
0.0
 11
7.1949520111084
 21
162.510772705078
 31
0.0
  0
LINE
  5
    88
  8
0
  6
CONTINUOUS
 62
   210
 10
7.26335382461548
 20
166.685012817383
 30
0.0
 11
11.1375408172607
 21
162.810821533203
 31
0.0
  0
LINE
  5
    89
  8
0
  6
CONTINUOUS
 62
   210
 10
8.19100952148438
 20
170.0
 30
0.0
 11
10.5168390274048
 21
167.674163818359
 31
0.0
  0
ENDBLK
  5
    8A
  8
0
  6
CONTINUOUS
 62
     7
  0
BLOCK
  5
    8B
  8
0
  6
CONTINUOUS
 62
     7
  2
*HATCH288
 70
    65
 10
0.0
 20
0.0
 30
0.0
  3
*HATCH288
  0
LINE
  5
    8C
  8
0
  6
CONTINUOUS
 62
   210
 10
22.282886505127
 20
175.0
 30
0.0
 11
24.739839553833
 21
172.543045043945
 31
0.0
  0
LINE
  5
    8D
  8
0
  6
CONTINUOUS
 62
   210
 10
24.4042053222656
 20
175.0
 30
0.0
 11
29.4041996002197
 21
170.0
 31
0.0
  0
LINE
  5
    8E
  8
0
  6
CONTINUOUS
 62
   210
 10
28.646842956543
 20
175.0
 30
0.0
 11
33.6468391418457
 21
170.0
 31
0.0
  0
LINE
  5
    8F
  8
0
  6
CONTINUOUS
 62
   210
 10
32.8894805908203
 20
175.0
 30
0.0
 11
37.889476776123
 21
170.0
 31
0.0
  0
LINE
  5
    90
  8
0
  6
CONTINUOUS
 62
   210
 10
37.1321182250977
 20
175.0
 30
0.0
 11
42.1321144104004
 21
170.0
 31
0.0
  0
LINE
  5
    91
  8
0
  6
CONTINUOUS
 62
   210
 10
41.374755859375
 20
175.0
 30
0.0
 11
46.3747520446777
 21
170.0
 31
0.0
  0
LINE
  5
    92
  8
0
  6
CONTINUOUS
 62
   210
 10
45.6173934936523
 20
175.0
 30
0.0
 11
50.6173896789551
 21
170.0
 31
0.0
  0
LINE
  5
    93
  8
0
  6
CONTINUOUS
 62
   210
 10
49.8600311279297
 20
175.0
 30
0.0
 11
54.8600273132324
 21
170.0
 31
0.0
  0
LINE
  5
    94
  8
0
  6
CONTINUOUS
 62
   210
 10
54.1026725769043
 20
175.0
 30
0.0
 11
55.6382675170898
 21
173.464401245117
 31
0.0
  0
ENDBLK
  5
    95
  8
0
  6
CONTINUOUS
 62
     7
  0
BLOCK
  5
    96
  8
0
  6
CONTINUOUS
 62
     7
  2
*HATCH289
 70
    65
 10
0.0
 20
0.0
 30
0.0
  3
*HATCH289
  0
LINE
  5
    97
  8
0
  6
CONTINUOUS
 62
     3
 10
2.19918513298035
 20
-56.9999961853027
 30
0.0
 11
3.69918298721313
 21
-58.4999961853027
 31
0.0
  0
LINE
  5
    98
  8
0
  6
CONTINUOUS
 62
     3
 10
4.32050514221191
 20
-56.9999961853027
 30
0.0
 11
5.82050275802612
 21
-58.4999961853027
 31
0.0
  0
LINE
  5
    99
  8
0
  6
CONTINUOUS
 62
     3
 10
6.4418249130249
 20
-56.9999961853027
 30
0.0
 11
7.94182252883911
 21
-58.4999961853027
 31
0.0
  0
LINE
  5
    9A
  8
0
  6
CONTINUOUS
 62
     3
 10
8.56314468383789
 20
-56.9999961853027
 30
0.0
 11
10.0631427764893
 21
-58.4999961853027
 31
0.0
  0
LINE
  5
    9B
  8
0
  6
CONTINUOUS
 62
     3
 10
10.6844635009766
 20
-57.0
 30
0.0
 11
11.8672294616699
 21
-58.1827659606934
 31
0.0
  0
ENDBLK
  5
    9C
  8
0
  6
CONTINUOUS
 62
     7
  0
BLOCK
  5
    9D
  8
0
  6
CONTINUOUS
 62
     7
  2
*HATCH290
 70
    65
 10
0.0
 20
0.0
 30
0.0
  3
*HATCH290
  0
LINE
  5
    9E
  8
0
  6
CONTINUOUS
 62
     3
 10
2.33690619468689
 20
-49.7130928039551
 30
0.0
 11
3.62381052970886
 21
-51.0
 31
0.0
  0
LINE
  5
    9F
  8
0
  6
CONTINUOUS
 62
     3
 10
4.24513149261475
 20
-49.5
 30
0.0
 11
5.74513006210327
 21
-51.0
 31
0.0
  0
LINE
  5
    A0
  8
0
  6
CONTINUOUS
 62
     3
 10
6.36645030975342
 20
-49.5
 30
0.0
 11
7.86644983291626
 21
-51.0
 31
0.0
  0
LINE
  5
    A1
  8
0
  6
CONTINUOUS
 62
     3
 10
8.48776912689209
 20
-49.5
 30
0.0
 11
9.98777008056641
 21
-51.0
 31
0.0
  0
LINE
  5
    A2
  8
0
  6
CONTINUOUS
 62
     3
 10
10.6090898513794
 20
-49.5
 30
0.0
 11
12.0500011444092
 21
-50.9409141540527
 31
0.0
  0
ENDBLK
  5
    A3
  8
0
  6
CONTINUOUS
 62
     7
  0
BLOCK
  5
    A4
  8
0
  6
CONTINUOUS
 62
     7
  2
*HATCH291
 70
    65
 10
0.0
 20
0.0
 30
0.0
  3
*HATCH291
  0
LINE
  5
    A5
  8
0
  6
CONTINUOUS
 62
     3
 10
2.33690619468689
 20
-49.7130928039551
 30
0.0
 11
3.62381052970886
 21
-51.0
 31
0.0
  0
LINE
  5
    A6
  8
0
  6
CONTINUOUS
 62
     3
 10
4.24513149261475
 20
-49.5
 30
0.0
 11
5.74513006210327
 21
-51.0
 31
0.0
  0
LINE
  5
    A7
  8
0
  6
CONTINUOUS
 62
     3
 10
6.36645030975342
 20
-49.5
 30
0.0
 11
7.86644983291626
 21
-51.0
 31
0.0
  0
LINE
  5
    A8
  8
0
  6
CONTINUOUS
 62
     3
 10
8.48776912689209
 20
-49.5
 30
0.0
 11
9.98777008056641
 21
-51.0
 31
0.0
  0
LINE
  5
    A9
  8
0
  6
CONTINUOUS
 62
     3
 10
10.6090898513794
 20
-49.5
 30
0.0
 11
12.0500011444092
 21
-50.9409141540527
 31
0.0
  0
ENDBLK
  5
    AA
  8
0
  6
CONTINUOUS
 62
     7
  0
BLOCK
  5
    AB
  8
0
  6
CONTINUOUS
 62
     7
  2
*HATCH292
 70
    65
 10
0.0
 20
0.0
 30
0.0
  3
*HATCH292
  0
LINE
  5
    AC
  8
0
  6
CONTINUOUS
 62
     3
 10
2.16904735565186
 20
-44.5
 30
0.0
 11
0.050000611692667
 21
-46.6190452575684
 31
0.0
  0
LINE
  5
    AD
  8
0
  6
CONTINUOUS
 62
     3
 10
4.290367603302
 20
-44.5
 30
0.0
 11
2.29036784172058
 21
-46.5
 31
0.0
  0
LINE
  5
    AE
  8
0
  6
CONTINUOUS
 62
     3
 10
5.3510274887085
 20
-44.5
 30
0.0
 11
3.35102772712708
 21
-46.5
 31
0.0
  0
LINE
  5
    AF
  8
0
  6
CONTINUOUS
 62
     3
 10
6.41168737411499
 20
-44.5
 30
0.0
 11
4.41168785095215
 21
-46.5
 31
0.0
  0
LINE
  5
    B0
  8
0
  6
CONTINUOUS
 62
     3
 10
7.47234725952148
 20
-44.5
 30
0.0
 11
5.47234773635864
 21
-46.5
 31
0.0
  0
LINE
  5
    B1
  8
0
  6
CONTINUOUS
 62
     3
 10
1.05000174045563
 20
-50.9223442077637
 30
0.0
 11
4.99997660517693E-2
 21
-51.9223480224609
 31
0.0
  0
LINE
  5
    B2
  8
0
  6
CONTINUOUS
 62
     3
 10
5.21915149688721
 20
-47.8138542175293
 30
0.0
 11
3.53300762176514
 21
-49.5
 31
0.0
  0
LINE
  5
    B3
  8
0
  6
CONTINUOUS
 62
     3
 10
9.59366607666016
 20
-44.5
 30
0.0
 11
7.59366750717163
 21
-46.5
 31
0.0
  0
LINE
  5
    B4
  8
0
  6
CONTINUOUS
 62
     3
 10
1.05000150203705
 20
-53.0436668395996
 30
0.0
 11
4.99994233250618E-2
 21
-54.0436668395996
 31
0.0
  0
LINE
  5
    B5
  8
0
  6
CONTINUOUS
 62
     3
 10
7.34787559509277
 20
-47.806453704834
 30
0.0
 11
5.65432643890381
 21
-49.5
 31
0.0
  0
LINE
  5
    B6
  8
0
  6
CONTINUOUS
 62
     3
 10
11.5500001907349
 20
-44.6649894714356
 30
0.0
 11
9.71498680114746
 21
-46.5
 31
0.0
  0
LINE
  5
    B7
  8
0
  6
CONTINUOUS
 62
     3
 10
1.05000126361847
 20
-55.1649856567383
 30
0.0
 11
4.99990843236446E-2
 21
-56.1649894714355
 31
0.0
  0
LINE
  5
    B8
  8
0
  6
CONTINUOUS
 62
     3
 10
9.47660064697266
 20
-47.7990493774414
 30
0.0
 11
7.77564525604248
 21
-49.5
 31
0.0
  0
LINE
  5
    B9
  8
0
  6
CONTINUOUS
 62
     3
 10
10.5409622192383
 20
-47.7953453063965
 30
0.0
 11
8.83630466461182
 21
-49.5000038146973
 31
0.0
  0
LINE
  5
    BA
  8
0
  6
CONTINUOUS
 62
     3
 10
11.5500011444092
 20
-47.8469657897949
 30
0.0
 11
9.89696407318115
 21
-49.5000038146973
 31
0.0
  0
LINE
  5
    BB
  8
0
  6
CONTINUOUS
 62
     3
 10
11.5500001907349
 20
-48.9076271057129
 30
0.0
 11
10.9576234817505
 21
-49.5000038146973
 31
0.0
  0
LINE
  5
    BC
  8
0
  6
CONTINUOUS
 62
     3
 10
3.01829099655151
 20
-58.4999961853027
 30
0.0
 11
4.99982349574566E-2
 21
-61.4682884216309
 31
0.0
  0
LINE
  5
    BD
  8
0
  6
CONTINUOUS
 62
     3
 10
2.05000019073486
 20
-60.5289459228516
 30
0.0
 11
4.99980673193932E-2
 21
-62.5289497375488
 31
0.0
  0
LINE
  5
    BE
  8
0
  6
CONTINUOUS
 62
     3
 10
2.05000042915344
 20
-61.5896072387695
 30
0.0
 11
4.99978959560394E-2
 21
-63.5896110534668
 31
0.0
  0
LINE
  5
    BF
  8
0
  6
CONTINUOUS
 62
     3
 10
2.05000066757202
 20
-62.6502685546875
 30
0.0
 11
4.99977245926857E-2
 21
-64.6502685546875
 31
0.0
  0
LINE
  5
    C0
  8
0
  6
CONTINUOUS
 62
     3
 10
2.0500009059906
 20
-63.7109298706055
 30
0.0
 11
0.049997553229332
 21
-65.7109298706055
 31
0.0
  0
LINE
  5
    C1
  8
0
  6
CONTINUOUS
 62
     3
 10
2.05000114440918
 20
-64.7715911865234
 30
0.0
 11
4.99973818659782E-2
 21
-66.7715911865234
 31
0.0
  0
LINE
  5
    C2
  8
0
  6
CONTINUOUS
 62
     3
 10
2.38226532936096
 20
-65.4999847412109
 30
0.0
 11
0.382251262664795
 21
-67.5
 31
0.0
  0
LINE
  5
    C3
  8
0
  6
CONTINUOUS
 62
     3
 10
3.44292521476746
 20
-65.4999847412109
 30
0.0
 11
1.44291341304779
 21
-67.5
 31
0.0
  0
LINE
  5
    C4
  8
0
  6
CONTINUOUS
 62
     3
 10
4.50358486175537
 20
-65.4999847412109
 30
0.0
 11
2.50357556343079
 21
-67.5
 31
0.0
  0
LINE
  5
    C5
  8
0
  6
CONTINUOUS
 62
     3
 10
5.56424522399902
 20
-65.4999847412109
 30
0.0
 11
3.56423783302307
 21
-67.4999923706055
 31
0.0
  0
LINE
  5
    C6
  8
0
  6
CONTINUOUS
 62
     3
 10
7.68556499481201
 20
-65.4999847412109
 30
0.0
 11
5.68556213378906
 21
-67.4999923706055
 31
0.0
  0
LINE
  5
    C7
  8
0
  6
CONTINUOUS
 62
     3
 10
9.806884765625
 20
-65.4999847412109
 30
0.0
 11
7.80688667297363
 21
-67.4999923706055
 31
0.0
  0
LINE
  5
    C8
  8
0
  6
CONTINUOUS
 62
     3
 10
11.5499963760376
 20
-65.8781967163086
 30
0.0
 11
9.9282112121582
 21
-67.4999771118164
 31
0.0
  0
LINE
  5
    C9
  8
0
  6
CONTINUOUS
 62
     3
 10
13.0495147705078
 20
-66.4999923706055
 30
0.0
 11
12.0495357513428
 21
-67.4999771118164
 31
0.0
  0
ENDBLK
  5
    CA
  8
0
  6
CONTINUOUS
 62
     7
  0
BLOCK
  5
    CB
  8
0
  6
CONTINUOUS
 62
     7
  2
*HATCH293
 70
    65
 10
0.0
 20
0.0
 30
0.0
  3
*HATCH293
  0
LINE
  5
    CC
  8
0
  6
CONTINUOUS
 62
   210
 10
15.2756481170654
 20
-42.0
 30
0.0
 11
11.4999847412109
 21
-45.7756614685059
 31
0.0
  0
LINE
  5
    CD
  8
0
  6
CONTINUOUS
 62
   210
 10
17.4999847412109
 20
-44.0183029174805
 30
0.0
 11
11.7841444015503
 21
-49.7341461181641
 31
0.0
  0
LINE
  5
    CE
  8
0
  6
CONTINUOUS
 62
   210
 10
17.4999847412109
 20
-48.2609443664551
 30
0.0
 11
15.0109281539917
 21
-50.75
 31
0.0
  0
ENDBLK
  5
    CF
  8
0
  6
CONTINUOUS
 62
     7
  0
BLOCK
  5
    D0
  8
0
  6
CONTINUOUS
 62
     7
  2
*HATCH294
 70
    65
 10
0.0
 20
0.0
 30
0.0
  3
*HATCH294
  0
LINE
  5
    D1
  8
0
  6
CONTINUOUS
 62
   210
 10
14.8748893737793
 20
-57.25
 30
0.0
 11
11.5360698699951
 21
-60.5888214111328
 31
0.0
  0
LINE
  5
    D2
  8
0
  6
CONTINUOUS
 62
   210
 10
17.4999847412109
 20
-58.867546081543
 30
0.0
 11
11.5075874328613
 21
-64.8599395751953
 31
0.0
  0
LINE
  5
    D3
  8
0
  6
CONTINUOUS
 62
   210
 10
17.4999847412109
 20
-63.1101837158203
 30
0.0
 11
14.6101713180542
 21
-66.0
 31
0.0
  0
ENDBLK
  5
    D4
  8
0
  6
CONTINUOUS
 62
     7
  0
BLOCK
  5
    D5
  8
0
  6
CONTINUOUS
 62
     7
  2
*HATCH295
 70
    65
 10
0.0
 20
0.0
 30
0.0
  3
*HATCH295
  0
LINE
  5
    D6
  8
0
  6
CONTINUOUS
 62
   210
 10
17.4999847412109
 20
-47.1985092163086
 30
0.0
 11
20.4999847412109
 21
-50.1985130310059
 31
0.0
  0
LINE
  5
    D7
  8
0
  6
CONTINUOUS
 62
   210
 10
17.4999847412109
 20
-42.9558639526367
 30
0.0
 11
20.4999847412109
 21
-45.955867767334
 31
0.0
  0
ENDBLK
  5
    D8
  8
0
  6
CONTINUOUS
 62
     7
  0
BLOCK
  5
    D9
  8
0
  6
CONTINUOUS
 62
     7
  2
*HATCH296
 70
    65
 10
0.0
 20
0.0
 30
0.0
  3
*HATCH296
  0
LINE
  5
    DA
  8
0
  6
CONTINUOUS
 62
   210
 10
17.4999847412109
 20
-62.0477600097656
 30
0.0
 11
20.4999847412109
 21
-65.0477676391602
 31
0.0
  0
LINE
  5
    DB
  8
0
  6
CONTINUOUS
 62
   210
 10
17.4999847412109
 20
-57.8051147460938
 30
0.0
 11
20.4999847412109
 21
-60.8051223754883
 31
0.0
  0
ENDBLK
  5
    DC
  8
0
  6
CONTINUOUS
 62
     7
  0
BLOCK
  5
    DD
  8
0
  6
CONTINUOUS
 62
     7
  2
*HATCH297
 70
    65
 10
0.0
 20
0.0
 30
0.0
  3
*HATCH297
  0
LINE
  5
    DE
  8
0
  6
CONTINUOUS
 62
    52
 10
105.836601257324
 20
228.873168945313
 30
0.0
 11
104.499938964844
 21
227.536499023438
 31
0.0
  0
LINE
  5
    DF
  8
0
  6
CONTINUOUS
 62
    52
 10
106.499938964844
 20
225.293869018555
 30
0.0
 11
104.499938964844
 21
223.293869018555
 31
0.0
  0
LINE
  5
    E0
  8
0
  6
CONTINUOUS
 62
    52
 10
106.499938964844
 20
221.051223754883
 30
0.0
 11
104.499938964844
 21
219.051223754883
 31
0.0
  0
LINE
  5
    E1
  8
0
  6
CONTINUOUS
 62
    52
 10
106.499938964844
 20
216.808578491211
 30
0.0
 11
104.499938964844
 21
214.808578491211
 31
0.0
  0
LINE
  5
    E2
  8
0
  6
CONTINUOUS
 62
    52
 10
106.499938964844
 20
212.565933227539
 30
0.0
 11
104.499938964844
 21
210.565933227539
 31
0.0
  0
LINE
  5
    E3
  8
0
  6
CONTINUOUS
 62
    52
 10
106.499938964844
 20
208.323287963867
 30
0.0
 11
104.499938964844
 21
206.323287963867
 31
0.0
  0
LINE
  5
    E4
  8
0
  6
CONTINUOUS
 62
    52
 10
106.499938964844
 20
204.080642700195
 30
0.0
 11
104.499938964844
 21
202.080642700195
 31
0.0
  0
LINE
  5
    E5
  8
0
  6
CONTINUOUS
 62
    52
 10
106.499938964844
 20
199.837997436523
 30
0.0
 11
104.499938964844
 21
197.837997436523
 31
0.0
  0
LINE
  5
    E6
  8
0
  6
CONTINUOUS
 62
    52
 10
106.499938964844
 20
195.595352172852
 30
0.0
 11
104.499938964844
 21
193.595352172852
 31
0.0
  0
LINE
  5
    E7
  8
0
  6
CONTINUOUS
 62
    52
 10
106.499938964844
 20
191.35270690918
 30
0.0
 11
104.499938964844
 21
189.35270690918
 31
0.0
  0
LINE
  5
    E8
  8
0
  6
CONTINUOUS
 62
    52
 10
106.499938964844
 20
187.110061645508
 30
0.0
 11
104.499938964844
 21
185.110061645508
 31
0.0
  0
LINE
  5
    E9
  8
0
  6
CONTINUOUS
 62
    52
 10
106.499938964844
 20
182.867416381836
 30
0.0
 11
104.499938964844
 21
180.867416381836
 31
0.0
  0
LINE
  5
    EA
  8
0
  6
CONTINUOUS
 62
    52
 10
106.499938964844
 20
178.624771118164
 30
0.0
 11
104.499938964844
 21
176.624771118164
 31
0.0
  0
LINE
  5
    EB
  8
0
  6
CONTINUOUS
 62
    52
 10
106.499938964844
 20
174.382125854492
 30
0.0
 11
104.499938964844
 21
172.382125854492
 31
0.0
  0
LINE
  5
    EC
  8
0
  6
CONTINUOUS
 62
    52
 10
106.499938964844
 20
170.13948059082
 30
0.0
 11
104.499938964844
 21
168.13948059082
 31
0.0
  0
LINE
  5
    ED
  8
0
  6
CONTINUOUS
 62
    52
 10
106.499938964844
 20
165.896835327148
 30
0.0
 11
104.499938964844
 21
163.896835327148
 31
0.0
  0
LINE
  5
    EE
  8
0
  6
CONTINUOUS
 62
    52
 10
106.499938964844
 20
161.654190063477
 30
0.0
 11
104.499938964844
 21
159.654190063477
 31
0.0
  0
LINE
  5
    EF
  8
0
  6
CONTINUOUS
 62
    52
 10
106.499938964844
 20
157.411544799805
 30
0.0
 11
104.499938964844
 21
155.411544799805
 31
0.0
  0
LINE
  5
    F0
  8
0
  6
CONTINUOUS
 62
    52
 10
106.499938964844
 20
153.168899536133
 30
0.0
 11
104.499938964844
 21
151.168899536133
 31
0.0
  0
ENDBLK
  5
    F1
  8
0
  6
CONTINUOUS
 62
     7
  0
BLOCK
  5
    F2
  8
0
  6
CONTINUOUS
 62
     7
  2
*HATCH298
 70
    65
 10
0.0
 20
0.0
 30
0.0
  3
*HATCH298
  0
LINE
  5
    F3
  8
0
  6
CONTINUOUS
 62
    52
 10
106.499938964844
 20
142.562377929688
 30
0.0
 11
104.499938964844
 21
140.562377929688
 31
0.0
  0
LINE
  5
    F4
  8
0
  6
CONTINUOUS
 62
    52
 10
106.499938964844
 20
138.319732666016
 30
0.0
 11
104.499938964844
 21
136.319732666016
 31
0.0
  0
LINE
  5
    F5
  8
0
  6
CONTINUOUS
 62
    52
 10
106.499938964844
 20
134.077087402344
 30
0.0
 11
104.499938964844
 21
132.077087402344
 31
0.0
  0
ENDBLK
  5
    F6
  8
0
  6
CONTINUOUS
 62
     7
  0
BLOCK
  5
    F7
  8
0
  6
CONTINUOUS
 62
     7
  2
*HATCH299
 70
    65
 10
0.0
 20
0.0
 30
0.0
  3
*HATCH299
  0
LINE
  5
    F8
  8
0
  6
CONTINUOUS
 62
    52
 10
106.499938964844
 20
17.4044799804688
 30
0.0
 11
104.499938964844
 21
15.4044799804688
 31
0.0
  0
LINE
  5
    F9
  8
0
  6
CONTINUOUS
 62
    52
 10
106.499938964844
 20
13.1618385314941
 30
0.0
 11
104.499938964844
 21
11.1618385314941
 31
0.0
  0
LINE
  5
    FA
  8
0
  6
CONTINUOUS
 62
    52
 10
106.499938964844
 20
8.91919898986816
 30
0.0
 11
105.330741882324
 21
7.75
 31
0.0
  0
ENDBLK
  5
    FB
  8
0
  6
CONTINUOUS
 62
     7
  0
BLOCK
  5
    FC
  8
0
  6
CONTINUOUS
 62
     7
  2
*HATCH300
 70
    65
 10
0.0
 20
0.0
 30
0.0
  3
*HATCH300
  0
LINE
  5
    FD
  8
0
  6
CONTINUOUS
 62
    52
 10
106.499938964844
 20
0.433917760848999
 30
0.0
 11
104.499938964844
 21
-1.56608211994171
 31
0.0
  0
LINE
  5
    FE
  8
0
  6
CONTINUOUS
 62
    52
 10
106.499938964844
 20
-3.80872273445129
 30
0.0
 11
104.499938964844
 21
-5.80872249603271
 31
0.0
  0
LINE
  5
    FF
  8
0
  6
CONTINUOUS
 62
    52
 10
106.499938964844
 20
-8.05136299133301
 30
0.0
 11
104.499938964844
 21
-10.051362991333
 31
0.0
  0
LINE
  5
   100
  8
0
  6
CONTINUOUS
 62
    52
 10
106.499938964844
 20
-12.2940044403076
 30
0.0
 11
104.499938964844
 21
-14.2940044403076
 31
0.0
  0
LINE
  5
   101
  8
0
  6
CONTINUOUS
 62
    52
 10
106.499938964844
 20
-16.5366458892822
 30
0.0
 11
104.499938964844
 21
-18.5366458892822
 31
0.0
  0
LINE
  5
   102
  8
0
  6
CONTINUOUS
 62
    52
 10
106.499938964844
 20
-20.7792873382568
 30
0.0
 11
104.499938964844
 21
-22.7792873382568
 31
0.0
  0
LINE
  5
   103
  8
0
  6
CONTINUOUS
 62
    52
 10
106.499938964844
 20
-25.0219287872314
 30
0.0
 11
104.499938964844
 21
-27.0219287872314
 31
0.0
  0
LINE
  5
   104
  8
0
  6
CONTINUOUS
 62
    52
 10
106.499938964844
 20
-29.2645702362061
 30
0.0
 11
104.499938964844
 21
-31.2645702362061
 31
0.0
  0
LINE
  5
   105
  8
0
  6
CONTINUOUS
 62
    52
 10
106.499938964844
 20
-33.507209777832
 30
0.0
 11
104.499938964844
 21
-35.507209777832
 31
0.0
  0
LINE
  5
   106
  8
0
  6
CONTINUOUS
 62
    52
 10
106.499938964844
 20
-37.7498474121094
 30
0.0
 11
104.499938964844
 21
-39.7498474121094
 31
0.0
  0
LINE
  5
   107
  8
0
  6
CONTINUOUS
 62
    52
 10
106.499938964844
 20
-41.9924850463867
 30
0.0
 11
104.499938964844
 21
-43.9924850463867
 31
0.0
  0
LINE
  5
   108
  8
0
  6
CONTINUOUS
 62
    52
 10
106.499938964844
 20
-46.2351226806641
 30
0.0
 11
104.499938964844
 21
-48.2351226806641
 31
0.0
  0
LINE
  5
   109
  8
0
  6
CONTINUOUS
 62
    52
 10
106.499938964844
 20
-50.4777603149414
 30
0.0
 11
104.499938964844
 21
-52.4777603149414
 31
0.0
  0
LINE
  5
   10A
  8
0
  6
CONTINUOUS
 62
    52
 10
106.499938964844
 20
-54.7203979492188
 30
0.0
 11
104.499938964844
 21
-56.7203979492188
 31
0.0
  0
LINE
  5
   10B
  8
0
  6
CONTINUOUS
 62
    52
 10
106.499938964844
 20
-58.9630355834961
 30
0.0
 11
104.499938964844
 21
-60.9630355834961
 31
0.0
  0
LINE
  5
   10C
  8
0
  6
CONTINUOUS
 62
    52
 10
106.499938964844
 20
-63.2056732177734
 30
0.0
 11
104.499938964844
 21
-65.2056732177734
 31
0.0
  0
LINE
  5
   10D
  8
0
  6
CONTINUOUS
 62
    52
 10
106.499938964844
 20
-67.4483184814453
 30
0.0
 11
104.499938964844
 21
-69.4483184814453
 31
0.0
  0
LINE
  5
   10E
  8
0
  6
CONTINUOUS
 62
    52
 10
106.499938964844
 20
-71.6909637451172
 30
0.0
 11
104.499938964844
 21
-73.6909637451172
 31
0.0
  0
LINE
  5
   10F
  8
0
  6
CONTINUOUS
 62
    52
 10
106.499938964844
 20
-75.9336090087891
 30
0.0
 11
104.499938964844
 21
-77.9336090087891
 31
0.0
  0
LINE
  5
   110
  8
0
  6
CONTINUOUS
 62
    52
 10
106.499938964844
 20
-80.1762542724609
 30
0.0
 11
104.499938964844
 21
-82.1762542724609
 31
0.0
  0
LINE
  5
   111
  8
0
  6
CONTINUOUS
 62
    52
 10
106.499938964844
 20
-84.4188995361328
 30
0.0
 11
104.499938964844
 21
-86.4188995361328
 31
0.0
  0
LINE
  5
   112
  8
0
  6
CONTINUOUS
 62
    52
 10
106.499938964844
 20
-88.6615447998047
 30
0.0
 11
104.499938964844
 21
-90.6615447998047
 31
0.0
  0
LINE
  5
   113
  8
0
  6
CONTINUOUS
 62
    52
 10
106.499938964844
 20
-92.9041900634766
 30
0.0
 11
104.499938964844
 21
-94.9041900634766
 31
0.0
  0
LINE
  5
   114
  8
0
  6
CONTINUOUS
 62
    52
 10
106.499938964844
 20
-97.1468353271484
 30
0.0
 11
104.499938964844
 21
-99.1468353271484
 31
0.0
  0
LINE
  5
   115
  8
0
  6
CONTINUOUS
 62
    52
 10
106.499938964844
 20
-101.389457702637
 30
0.0
 11
106.065864562988
 21
-101.823524475098
 31
0.0
  0
ENDBLK
  5
   116
  8
0
  6
CONTINUOUS
 62
     7
  0
BLOCK
  5
   117
  8
0
  6
CONTINUOUS
 62
     7
  2
*HATCH301
 70
    65
 10
0.0
 20
0.0
 30
0.0
  3
*HATCH301
  0
LINE
  5
   118
  8
0
  6
CONTINUOUS
 62
     3
 10
-0.830074667930603
 20
-35.831859588623
 30
0.0
 11
-2.49821591377258
 21
-37.5
 31
0.0
  0
LINE
  5
   119
  8
0
  6
CONTINUOUS
 62
     3
 10
1.29124581813812
 20
-35.831859588623
 30
0.0
 11
-0.376895427703857
 21
-37.5
 31
0.0
  0
LINE
  5
   11A
  8
0
  6
CONTINUOUS
 62
     3
 10
3.41256618499756
 20
-35.831859588623
 30
0.0
 11
1.74442505836487
 21
-37.5
 31
0.0
  0
LINE
  5
   11B
  8
0
  6
CONTINUOUS
 62
     3
 10
5.53388690948486
 20
-35.831859588623
 30
0.0
 11
3.86574554443359
 21
-37.5
 31
0.0
  0
LINE
  5
   11C
  8
0
  6
CONTINUOUS
 62
     3
 10
7.65520763397217
 20
-35.831859588623
 30
0.0
 11
5.9870662689209
 21
-37.5
 31
0.0
  0
LINE
  5
   11D
  8
0
  6
CONTINUOUS
 62
     3
 10
9.77652835845947
 20
-35.831859588623
 30
0.0
 11
8.1083869934082
 21
-37.5
 31
0.0
  0
LINE
  5
   11E
  8
0
  6
CONTINUOUS
 62
     3
 10
11.8978490829468
 20
-35.831859588623
 30
0.0
 11
10.2297077178955
 21
-37.5
 31
0.0
  0
LINE
  5
   11F
  8
0
  6
CONTINUOUS
 62
     3
 10
14.0191679000854
 20
-35.831859588623
 30
0.0
 11
11.4999847412109
 21
-38.3510437011719
 31
0.0
  0
LINE
  5
   120
  8
0
  6
CONTINUOUS
 62
     3
 10
16.1404876708984
 20
-35.831859588623
 30
0.0
 11
11.4999847412109
 21
-40.4723663330078
 31
0.0
  0
LINE
  5
   121
  8
0
  6
CONTINUOUS
 62
     3
 10
18.2618083953857
 20
-35.831859588623
 30
0.0
 11
12.0936679840088
 21
-42.0
 31
0.0
  0
LINE
  5
   122
  8
0
  6
CONTINUOUS
 62
     3
 10
20.3831272125244
 20
-35.831859588623
 30
0.0
 11
14.2149887084961
 21
-42.0
 31
0.0
  0
LINE
  5
   123
  8
0
  6
CONTINUOUS
 62
     3
 10
22.5044460296631
 20
-35.831859588623
 30
0.0
 11
16.3363094329834
 21
-42.0
 31
0.0
  0
LINE
  5
   124
  8
0
  6
CONTINUOUS
 62
     3
 10
24.6257648468018
 20
-35.831859588623
 30
0.0
 11
18.4576282501221
 21
-42.0
 31
0.0
  0
LINE
  5
   125
  8
0
  6
CONTINUOUS
 62
     3
 10
26.7470836639404
 20
-35.831859588623
 30
0.0
 11
20.5789470672607
 21
-42.0
 31
0.0
  0
LINE
  5
   126
  8
0
  6
CONTINUOUS
 62
     3
 10
28.8684024810791
 20
-35.831859588623
 30
0.0
 11
22.7002658843994
 21
-42.0
 31
0.0
  0
LINE
  5
   127
  8
0
  6
CONTINUOUS
 62
     3
 10
30.9897212982178
 20
-35.831859588623
 30
0.0
 11
24.8215847015381
 21
-42.0
 31
0.0
  0
LINE
  5
   128
  8
0
  6
CONTINUOUS
 62
     3
 10
33.1110420227051
 20
-35.831859588623
 30
0.0
 11
26.9429035186768
 21
-42.0
 31
0.0
  0
LINE
  5
   129
  8
0
  6
CONTINUOUS
 62
     3
 10
35.232364654541
 20
-35.831859588623
 30
0.0
 11
29.0642223358154
 21
-42.0
 31
0.0
  0
LINE
  5
   12A
  8
0
  6
CONTINUOUS
 62
     3
 10
36.1029396057129
 20
-37.0826148986816
 30
0.0
 11
31.1855506896973
 21
-42.0
 31
0.0
  0
LINE
  5
   12B
  8
0
  6
CONTINUOUS
 62
     3
 10
36.5830268859863
 20
-38.7238502502441
 30
0.0
 11
33.3068733215332
 21
-42.0
 31
0.0
  0
LINE
  5
   12C
  8
0
  6
CONTINUOUS
 62
     3
 10
37.0631141662598
 20
-40.3650856018066
 30
0.0
 11
35.4281959533691
 21
-42.0
 31
0.0
  0
ENDBLK
  5
   12D
  8
0
  6
CONTINUOUS
 62
     7
  0
BLOCK
  5
   12E
  8
0
  6
CONTINUOUS
 62
     2
  2
*HATCH302
 70
    65
 10
0.0
 20
0.0
 30
0.0
  3
*HATCH302
  0
LINE
  5
   12F
  8
0
  6
CONTINUOUS
 62
   210
 10
14.4451389312744
 20
199.0
 30
0.0
 11
11.5500001907349
 21
196.104858398438
 31
0.0
  0
LINE
  5
   130
  8
0
  6
CONTINUOUS
 62
   210
 10
18.687780380249
 20
199.0
 30
0.0
 11
11.6877784729004
 21
192.0
 31
0.0
  0
LINE
  5
   131
  8
0
  6
CONTINUOUS
 62
   210
 10
20.5499858856201
 20
196.619567871094
 30
0.0
 11
15.930419921875
 21
192.0
 31
0.0
  0
LINE
  5
   132
  8
0
  6
CONTINUOUS
 62
   210
 10
20.5499858856201
 20
192.376922607422
 30
0.0
 11
20.1730613708496
 21
192.0
 31
0.0
  0
ENDBLK
  5
   133
  8
0
  6
CONTINUOUS
 62
     2
  0
BLOCK
  5
   134
  8
0
  6
CONTINUOUS
 62
     2
  2
*HATCH303
 70
    65
 10
0.0
 20
0.0
 30
0.0
  3
*HATCH303
  0
LINE
  5
   135
  8
0
  6
CONTINUOUS
 62
   210
 10
14.4157009124756
 20
182.0
 30
0.0
 11
11.5500001907349
 21
179.134292602539
 31
0.0
  0
LINE
  5
   136
  8
0
  6
CONTINUOUS
 62
   210
 10
18.6583423614502
 20
182.0
 30
0.0
 11
11.5500001907349
 21
174.891647338867
 31
0.0
  0
LINE
  5
   137
  8
0
  6
CONTINUOUS
 62
   210
 10
20.5499877929687
 20
179.649002075195
 30
0.0
 11
11.5500001907349
 21
170.649017333984
 31
0.0
  0
LINE
  5
   138
  8
0
  6
CONTINUOUS
 62
   210
 10
20.549991607666
 20
175.406356811523
 30
0.0
 11
11.5500001907349
 21
166.406372070313
 31
0.0
  0
LINE
  5
   139
  8
0
  6
CONTINUOUS
 62
   210
 10
20.5499954223633
 20
171.163726806641
 30
0.0
 11
11.8970346450806
 21
162.510772705078
 31
0.0
  0
LINE
  5
   13A
  8
0
  6
CONTINUOUS
 62
   210
 10
20.5499992370605
 20
166.921081542969
 30
0.0
 11
16.1396751403809
 21
162.510772705078
 31
0.0
  0
ENDBLK
  5
   13B
  8
0
  6
CONTINUOUS
 62
     2
  0
BLOCK
  5
   13C
  8
0
  6
CONTINUOUS
 62
     7
  2
*HATCH304
 70
    65
 10
0.0
 20
0.0
 30
0.0
  3
*HATCH304
  0
LINE
  5
   13D
  8
0
  6
CONTINUOUS
 62
     3
 10
-0.646745324134827
 20
203.0
 30
0.0
 11
-1.64674544334412
 21
202.0
 31
0.0
  0
LINE
  5
   13E
  8
0
  6
CONTINUOUS
 62
     3
 10
1.4745751619339
 20
203.0
 30
0.0
 11
0.47457480430603
 21
202.0
 31
0.0
  0
LINE
  5
   13F
  8
0
  6
CONTINUOUS
 62
     3
 10
3.59589576721191
 20
203.0
 30
0.0
 11
2.59589505195618
 21
202.0
 31
0.0
  0
LINE
  5
   140
  8
0
  6
CONTINUOUS
 62
     3
 10
5.71721649169922
 20
203.0
 30
0.0
 11
4.7172155380249
 21
202.0
 31
0.0
  0
LINE
  5
   141
  8
0
  6
CONTINUOUS
 62
     3
 10
7.83853721618652
 20
203.0
 30
0.0
 11
6.83853626251221
 21
202.0
 31
0.0
  0
LINE
  5
   142
  8
0
  6
CONTINUOUS
 62
     3
 10
9.95985794067383
 20
203.0
 30
0.0
 11
8.95985698699951
 21
202.0
 31
0.0
  0
LINE
  5
   143
  8
0
  6
CONTINUOUS
 62
     3
 10
12.0811786651611
 20
203.0
 30
0.0
 11
11.0811777114868
 21
202.0
 31
0.0
  0
LINE
  5
   144
  8
0
  6
CONTINUOUS
 62
     3
 10
14.2024993896484
 20
203.0
 30
0.0
 11
13.2024984359741
 21
202.0
 31
0.0
  0
LINE
  5
   145
  8
0
  6
CONTINUOUS
 62
     3
 10
16.3238201141357
 20
203.0
 30
0.0
 11
15.3238191604614
 21
202.0
 31
0.0
  0
LINE
  5
   146
  8
0
  6
CONTINUOUS
 62
     3
 10
18.4451389312744
 20
203.0
 30
0.0
 11
17.4451389312744
 21
202.0
 31
0.0
  0
LINE
  5
   147
  8
0
  6
CONTINUOUS
 62
     3
 10
20.5664596557617
 20
203.0
 30
0.0
 11
18.0664596557617
 21
200.5
 31
0.0
  0
LINE
  5
   148
  8
0
  6
CONTINUOUS
 62
     3
 10
22.6877784729004
 20
203.0
 30
0.0
 11
20.1877784729004
 21
200.5
 31
0.0
  0
LINE
  5
   149
  8
0
  6
CONTINUOUS
 62
     3
 10
24.8090972900391
 20
203.0
 30
0.0
 11
22.3090972900391
 21
200.5
 31
0.0
  0
LINE
  5
   14A
  8
0
  6
CONTINUOUS
 62
     3
 10
26.0024681091309
 20
202.072052001953
 30
0.0
 11
24.430419921875
 21
200.5
 31
0.0
  0
LINE
  5
   14B
  8
0
  6
CONTINUOUS
 62
     3
 10
26.872127532959
 20
200.820404052734
 30
0.0
 11
26.5517387390137
 21
200.5
 31
0.0
  0
ENDBLK
  5
   14C
  8
0
  6
CONTINUOUS
 62
     7
  0
BLOCK
  5
   14D
  8
0
  6
CONTINUOUS
 62
     7
  2
*UDIM386
 70
    65
 10
0.0
 20
0.0
 30
0.0
  3
*UDIM386
  0
TEXT
  5
   14E
  8
0
  6
CONTINUOUS
 62
     7
 10
145.951309813062
 20
-107.420291900635
 30
0.0
 40
3.00000002980232
  1
5
 41
0.933333333333334
 72
     1
 11
147.05130982399
 21
-105.920291885734
 31
0.0
 73
     2
  0
TEXT
  5
   14F
  8
0
  6
CONTINUOUS
 62
     7
 10
134.80130969584
 20
-107.420291900635
 30
0.0
 40
3.00000002980232
  1
min.
 41
0.933333333333333
 72
     1
 11
140.101309748491
 21
-105.920291885734
 31
0.0
 73
     2
  0
LINE
  5
   150
  8
0
  6
CONTINUOUS
 62
     7
 10
128.518455505371
 20
-93.4515686035156
 30
0.0
 11
128.518455505371
 21
-110.420291900635
 31
0.0
  0
LINE
  5
   151
  8
0
  6
CONTINUOUS
 62
     7
 10
131.018455982208
 20
-90.9640712973648
 30
0.0
 11
131.018455982208
 21
-110.420291900635
 31
0.0
  0
LINE
  5
   152
  8
0
  6
CONTINUOUS
 62
     7
 10
128.518455505371
 20
-108.420291900635
 30
0.0
 11
148.151309834917
 21
-108.420291900635
 31
0.0
  0
LINE
  5
   153
  8
0
  6
CONTINUOUS
 62
     7
 10
125.564032228164
 20
-108.941236330586
 30
0.0
 11
128.518455505371
 21
-108.420291900635
 31
0.0
  0
LINE
  5
   154
  8
0
  6
CONTINUOUS
 62
     7
 10
128.518455505371
 20
-108.420291900635
 30
0.0
 11
125.564032228164
 21
-107.899347470683
 31
0.0
  0
LINE
  5
   155
  8
0
  6
CONTINUOUS
 62
     7
 10
133.972879259415
 20
-107.899347470683
 30
0.0
 11
131.018455982208
 21
-108.420291900635
 31
0.0
  0
LINE
  5
   156
  8
0
  6
CONTINUOUS
 62
     7
 10
131.018455982208
 20
-108.420291900635
 30
0.0
 11
133.972879259415
 21
-108.941236330586
 31
0.0
  0
ENDBLK
  5
   157
  8
0
  6
CONTINUOUS
 62
     7
  0
BLOCK
  5
   158
  8
0
  6
CONTINUOUS
 62
     7
  2
*UDIM387
 70
    65
 10
0.0
 20
0.0
 30
0.0
  3
*UDIM387
  0
TEXT
  5
   159
  8
0
  6
CONTINUOUS
 62
     7
 10
108.493455862006
 20
-102.221221923828
 30
0.0
 40
3.00000002980232
  1
14
 41
0.933333333333333
 72
     1
 11
110.993455886841
 21
-100.721221908927
 31
0.0
 73
     2
  0
LINE
  5
   15A
  8
0
  6
CONTINUOUS
 62
     7
 10
117.018455505371
 20
-99.5865750657061
 30
0.0
 11
117.018455505371
 21
-105.221221923828
 31
0.0
  0
LINE
  5
   15B
  8
0
  6
CONTINUOUS
 62
     7
 10
124.018455505371
 20
-93.7015586472286
 30
0.0
 11
124.018455505371
 21
-105.221221923828
 31
0.0
  0
LINE
  5
   15C
  8
0
  6
CONTINUOUS
 62
     7
 10
108.493455862006
 20
-103.221221923828
 30
0.0
 11
124.018455505371
 21
-103.221221923828
 31
0.0
  0
LINE
  5
   15D
  8
0
  6
CONTINUOUS
 62
     7
 10
119.972878782578
 20
-102.700277493876
 30
0.0
 11
117.018455505371
 21
-103.221221923828
 31
0.0
  0
LINE
  5
   15E
  8
0
  6
CONTINUOUS
 62
     7
 10
117.018455505371
 20
-103.221221923828
 30
0.0
 11
119.972878782578
 21
-103.74216635378
 31
0.0
  0
LINE
  5
   15F
  8
0
  6
CONTINUOUS
 62
     7
 10
121.064032228164
 20
-103.74216635378
 30
0.0
 11
124.018455505371
 21
-103.221221923828
 31
0.0
  0
LINE
  5
   160
  8
0
  6
CONTINUOUS
 62
     7
 10
124.018455505371
 20
-103.221221923828
 30
0.0
 11
121.064032228164
 21
-102.700277493876
 31
0.0
  0
ENDBLK
  5
   161
  8
0
  6
CONTINUOUS
 62
     7
  0
BLOCK
  5
   162
  8
0
  6
CONTINUOUS
 62
     7
  2
*UDIM388
 70
    65
 10
0.0
 20
0.0
 30
0.0
  3
*UDIM388
  0
TEXT
  5
   163
  8
0
  6
CONTINUOUS
 62
     7
 10
124.982908708851
 20
-102.221221923828
 30
0.0
 40
3.00000002980232
  1
9
 41
0.933333333333334
 72
     1
 11
126.082908719778
 21
-100.721221908927
 31
0.0
 73
     2
  0
LINE
  5
   164
  8
0
  6
CONTINUOUS
 62
     7
 10
128.518455505371
 20
-93.4515686035156
 30
0.0
 11
128.518455505371
 21
-105.221221923828
 31
0.0
  0
LINE
  5
   165
  8
0
  6
CONTINUOUS
 62
     7
 10
124.018455505371
 20
-103.221221923828
 30
0.0
 11
128.518455505371
 21
-103.221221923828
 31
0.0
  0
LINE
  5
   166
  8
0
  6
CONTINUOUS
 62
     7
 10
121.064032228164
 20
-103.74216635378
 30
0.0
 11
124.018455505371
 21
-103.221221923828
 31
0.0
  0
LINE
  5
   167
  8
0
  6
CONTINUOUS
 62
     7
 10
124.018455505371
 20
-103.221221923828
 30
0.0
 11
121.064032228164
 21
-102.700277493876
 31
0.0
  0
LINE
  5
   168
  8
0
  6
CONTINUOUS
 62
     7
 10
131.472878782578
 20
-102.700277493876
 30
0.0
 11
128.518455505371
 21
-103.221221923828
 31
0.0
  0
LINE
  5
   169
  8
0
  6
CONTINUOUS
 62
     7
 10
128.518455505371
 20
-103.221221923828
 30
0.0
 11
131.472878782578
 21
-103.74216635378
 31
0.0
  0
ENDBLK
  5
   16A
  8
0
  6
CONTINUOUS
 62
     7
  0
BLOCK
  5
   16B
  8
0
  6
CONTINUOUS
 62
     7
  2
*UDIM389
 70
    65
 10
0.0
 20
0.0
 30
0.0
  3
*UDIM389
  0
TEXT
  5
   16C
  8
0
  6
CONTINUOUS
 62
     7
 10
120.005959587296
 20
54.7309341430664
 30
0.0
 40
3.00000002980232
  1
23
 41
0.933333333333333
 72
     1
 11
122.505959612131
 21
56.2309341579676
 31
0.0
 73
     2
  0
LINE
  5
   16D
  8
0
  6
CONTINUOUS
 62
     7
 10
117.018463134766
 20
27.7984294800984
 30
0.0
 11
117.018463134766
 21
55.7309341430664
 31
0.0
  0
LINE
  5
   16E
  8
0
  6
CONTINUOUS
 62
     7
 10
128.543455982208
 20
41.0484326240602
 30
0.0
 11
128.543455982208
 21
55.7309341430664
 31
0.0
  0
LINE
  5
   16F
  8
0
  6
CONTINUOUS
 62
     7
 10
117.018463134766
 20
53.7309341430664
 30
0.0
 11
128.543455982208
 21
53.7309341430664
 31
0.0
  0
LINE
  5
   170
  8
0
  6
CONTINUOUS
 62
     7
 10
119.972886411973
 20
54.2518785730181
 30
0.0
 11
117.018463134766
 21
53.7309341430664
 31
0.0
  0
LINE
  5
   171
  8
0
  6
CONTINUOUS
 62
     7
 10
117.018463134766
 20
53.7309341430664
 30
0.0
 11
119.972886411973
 21
53.2099897131147
 31
0.0
  0
LINE
  5
   172
  8
0
  6
CONTINUOUS
 62
     7
 10
125.589032705001
 20
53.2099897131147
 30
0.0
 11
128.543455982208
 21
53.7309341430664
 31
0.0
  0
LINE
  5
   173
  8
0
  6
CONTINUOUS
 62
     7
 10
128.543455982208
 20
53.7309341430664
 30
0.0
 11
125.589032705001
 21
54.2518785730181
 31
0.0
  0
ENDBLK
  5
   174
  8
0
  6
CONTINUOUS
 62
     7
  0
BLOCK
  5
   175
  8
0
  6
CONTINUOUS
 62
     7
  2
*UDIM390
 70
    65
 10
0.0
 20
0.0
 30
0.0
  3
*UDIM390
  0
TEXT
  5
   176
  8
0
  6
CONTINUOUS
 62
     7
 10
78.5035896301371
 20
-2.26407631045189
 30
0.0
 40
3.00000002980232
  1
111,75
 50
90.0
 41
0.933333333333333
 72
     1
 11
77.0035896152258
 21
5.8359237700125
 31
0.0
 73
     2
  0
LINE
  5
   177
  8
0
  6
CONTINUOUS
 62
     7
 10
100.534234560011
 20
-21.8265911777828
 30
0.0
 11
77.5035896301271
 21
-21.8265839480839
 31
0.0
  0
LINE
  5
   178
  8
0
  6
CONTINUOUS
 62
     7
 10
117.526542648422
 20
34.0484302054118
 30
0.0
 11
77.5035896301271
 21
34.0484427692761
 31
0.0
  0
LINE
  5
   179
  8
0
  6
CONTINUOUS
 62
     7
 10
79.503589630127
 20
-21.8265845759169
 30
0.0
 11
79.503589630127
 21
34.0484421414431
 31
0.0
  0
LINE
  5
   17A
  8
0
  6
CONTINUOUS
 62
     7
 10
78.9826452001753
 20
-18.8721612987099
 30
0.0
 11
79.503589630127
 21
-21.8265845759169
 31
0.0
  0
LINE
  5
   17B
  8
0
  6
CONTINUOUS
 62
     7
 10
79.503589630127
 20
-21.8265845759169
 30
0.0
 11
80.0245340600786
 21
-18.8721612987099
 31
0.0
  0
LINE
  5
   17C
  8
0
  6
CONTINUOUS
 62
     7
 10
80.0245340600786
 20
31.0940188642362
 30
0.0
 11
79.503589630127
 21
34.0484421414431
 31
0.0
  0
LINE
  5
   17D
  8
0
  6
CONTINUOUS
 62
     7
 10
79.503589630127
 20
34.0484421414431
 30
0.0
 11
78.9826452001753
 21
31.0940188642362
 31
0.0
  0
ENDBLK
  5
   17E
  8
0
  6
CONTINUOUS
 62
     7
  0
BLOCK
  5
   17F
  8
0
  6
CONTINUOUS
 62
     7
  2
*UDIM391
 70
    65
 10
0.0
 20
0.0
 30
0.0
  3
*UDIM391
  0
TEXT
  5
   180
  8
0
  6
CONTINUOUS
 62
     7
 10
139.593444016575
 20
-123.625190734863
 30
0.0
 40
3.00000002980232
  1
107
 41
0.933333333333333
 72
     1
 11
143.493444055318
 21
-122.125190719962
 31
0.0
 73
     2
  0
LINE
  5
   181
  8
0
  6
CONTINUOUS
 62
     7
 10
117.018455505371
 20
-99.5865750657061
 30
0.0
 11
117.018455505371
 21
-126.625190734863
 31
0.0
  0
LINE
  5
   182
  8
0
  6
CONTINUOUS
 62
     7
 10
170.518432617186
 20
-111.590937584099
 30
0.0
 11
170.518432617186
 21
-126.625190734863
 31
0.0
  0
LINE
  5
   183
  8
0
  6
CONTINUOUS
 62
     7
 10
117.018455505371
 20
-124.625190734863
 30
0.0
 11
170.518432617186
 21
-124.625190734863
 31
0.0
  0
LINE
  5
   184
  8
0
  6
CONTINUOUS
 62
     7
 10
119.972878782578
 20
-124.104246304912
 30
0.0
 11
117.018455505371
 21
-124.625190734863
 31
0.0
  0
LINE
  5
   185
  8
0
  6
CONTINUOUS
 62
     7
 10
117.018455505371
 20
-124.625190734863
 30
0.0
 11
119.972878782578
 21
-125.146135164815
 31
0.0
  0
LINE
  5
   186
  8
0
  6
CONTINUOUS
 62
     7
 10
167.564009339979
 20
-125.146135164815
 30
0.0
 11
170.518432617186
 21
-124.625190734863
 31
0.0
  0
LINE
  5
   187
  8
0
  6
CONTINUOUS
 62
     7
 10
170.518432617186
 20
-124.625190734863
 30
0.0
 11
167.564009339979
 21
-124.104246304912
 31
0.0
  0
ENDBLK
  5
   188
  8
0
  6
CONTINUOUS
 62
     7
  0
BLOCK
  5
   189
  8
0
  6
CONTINUOUS
 62
     7
  2
*UDIM392
 70
    65
 10
0.0
 20
0.0
 30
0.0
  3
*UDIM392
  0
TEXT
  5
   18A
  8
0
  6
CONTINUOUS
 62
     7
 10
174.518432510891
 20
-123.625190734863
 30
0.0
 40
3.00000002980232
  1
2
 41
0.933333333333334
 72
     1
 11
175.618432521818
 21
-122.125190719962
 31
0.0
 73
     2
  0
LINE
  5
   18B
  8
0
  6
CONTINUOUS
 62
     7
 10
171.518432617186
 20
-111.300239909681
 30
0.0
 11
171.518432617186
 21
-126.625190734863
 31
0.0
  0
LINE
  5
   18C
  8
0
  6
CONTINUOUS
 62
     7
 10
170.518432617186
 20
-124.625190734863
 30
0.0
 11
176.718432532746
 21
-124.625190734863
 31
0.0
  0
LINE
  5
   18D
  8
0
  6
CONTINUOUS
 62
     7
 10
167.564009339979
 20
-125.146135164815
 30
0.0
 11
170.518432617186
 21
-124.625190734863
 31
0.0
  0
LINE
  5
   18E
  8
0
  6
CONTINUOUS
 62
     7
 10
170.518432617186
 20
-124.625190734863
 30
0.0
 11
167.564009339979
 21
-124.104246304912
 31
0.0
  0
LINE
  5
   18F
  8
0
  6
CONTINUOUS
 62
     7
 10
174.472855894393
 20
-124.104246304912
 30
0.0
 11
171.518432617186
 21
-124.625190734863
 31
0.0
  0
LINE
  5
   190
  8
0
  6
CONTINUOUS
 62
     7
 10
171.518432617186
 20
-124.625190734863
 30
0.0
 11
174.472855894393
 21
-125.146135164815
 31
0.0
  0
ENDBLK
  5
   191
  8
0
  6
CONTINUOUS
 62
     7
  0
BLOCK
  5
   192
  8
0
  6
CONTINUOUS
 62
     7
  2
*UDIM393
 70
    65
 10
0.0
 20
0.0
 30
0.0
  3
*UDIM393
  0
TEXT
  5
   193
  8
0
  6
CONTINUOUS
 62
     7
 10
87.2128620147772
 20
-71.7942014463409
 30
0.0
 40
3.00000002980232
  1
16,5
 50
90.0
 41
0.933333333333333
 72
     1
 11
85.7128619998693
 21
-66.494201393692
 31
0.0
 73
     2
  0
LINE
  5
   194
  8
0
  6
CONTINUOUS
 62
     7
 10
106.410951788035
 20
-86.4515637523317
 30
0.0
 11
86.2128620147706
 21
-86.4515574118184
 31
0.0
  0
LINE
  5
   195
  8
0
  6
CONTINUOUS
 62
     7
 10
116.018455505371
 20
-78.2015682895992
 30
0.0
 11
86.2128620147706
 21
-78.2015589331321
 31
0.0
  0
LINE
  5
   196
  8
0
  6
CONTINUOUS
 62
     7
 10
88.2128620147705
 20
-86.4515580396514
 30
0.0
 11
88.2128620147705
 21
-61.1942013410412
 31
0.0
  0
LINE
  5
   197
  8
0
  6
CONTINUOUS
 62
     7
 10
88.7338064447222
 20
-89.4059813168583
 30
0.0
 11
88.2128620147705
 21
-86.4515580396514
 31
0.0
  0
LINE
  5
   198
  8
0
  6
CONTINUOUS
 62
     7
 10
88.2128620147705
 20
-86.4515580396514
 30
0.0
 11
87.6919175848188
 21
-89.4059813168583
 31
0.0
  0
LINE
  5
   199
  8
0
  6
CONTINUOUS
 62
     7
 10
87.6919175848188
 20
-75.2471362837581
 30
0.0
 11
88.2128620147705
 21
-78.2015595609651
 31
0.0
  0
LINE
  5
   19A
  8
0
  6
CONTINUOUS
 62
     7
 10
88.2128620147705
 20
-78.2015595609651
 30
0.0
 11
88.7338064447222
 21
-75.2471362837581
 31
0.0
  0
ENDBLK
  5
   19B
  8
0
  6
CONTINUOUS
 62
     7
  0
BLOCK
  5
   19C
  8
0
  6
CONTINUOUS
 62
     7
  2
*UDIM394
 70
    65
 10
0.0
 20
0.0
 30
0.0
  3
*UDIM394
  0
TEXT
  5
   19D
  8
0
  6
CONTINUOUS
 62
     7
 10
135.418447803457
 20
61.6292724609375
 30
0.0
 40
3.00000002980232
  1
101,5
 41
0.933333333333333
 72
     1
 11
142.118447870015
 21
63.1292724758387
 31
0.0
 73
     2
  0
LINE
  5
   19E
  8
0
  6
CONTINUOUS
 62
     7
 10
117.018463134766
 20
27.7984294800984
 30
0.0
 11
117.018463134766
 21
62.6292724609375
 31
0.0
  0
LINE
  5
   19F
  8
0
  6
CONTINUOUS
 62
     7
 10
167.768432617186
 20
29.5484085083008
 30
0.0
 11
167.768432617186
 21
62.6292724609375
 31
0.0
  0
LINE
  5
   1A0
  8
0
  6
CONTINUOUS
 62
     7
 10
117.018463134766
 20
60.6292724609375
 30
0.0
 11
167.768432617186
 21
60.6292724609375
 31
0.0
  0
LINE
  5
   1A1
  8
0
  6
CONTINUOUS
 62
     7
 10
119.972886411973
 20
61.1502168908892
 30
0.0
 11
117.018463134766
 21
60.6292724609375
 31
0.0
  0
LINE
  5
   1A2
  8
0
  6
CONTINUOUS
 62
     7
 10
117.018463134766
 20
60.6292724609375
 30
0.0
 11
119.972886411973
 21
60.1083280309858
 31
0.0
  0
LINE
  5
   1A3
  8
0
  6
CONTINUOUS
 62
     7
 10
164.814009339979
 20
60.1083280309858
 30
0.0
 11
167.768432617186
 21
60.6292724609375
 31
0.0
  0
LINE
  5
   1A4
  8
0
  6
CONTINUOUS
 62
     7
 10
167.768432617186
 20
60.6292724609375
 30
0.0
 11
164.814009339979
 21
61.1502168908892
 31
0.0
  0
ENDBLK
  5
   1A5
  8
0
  6
CONTINUOUS
 62
     7
  0
BLOCK
  5
   1A6
  8
0
  6
CONTINUOUS
 62
     7
  2
*UDIM395
 70
    65
 10
0.0
 20
0.0
 30
0.0
  3
*UDIM395
  0
TEXT
  5
   1A7
  8
0
  6
CONTINUOUS
 62
     7
 10
70.1676445007373
 20
-30.3765591062203
 30
0.0
 40
3.00000002980232
  1
241
 50
90.0
 41
0.933333333333333
 72
     1
 11
68.6676444858313
 21
-26.4765590674791
 31
0.0
 73
     2
  0
LINE
  5
   1A8
  8
0
  6
CONTINUOUS
 62
     7
 10
106.410951788035
 20
-86.4515637523317
 30
0.0
 11
69.1676445007325
 21
-86.4515520610437
 31
0.0
  0
LINE
  5
   1A9
  8
0
  6
CONTINUOUS
 62
     7
 10
117.526542648422
 20
34.0484302054118
 30
0.0
 11
69.1676445007325
 21
34.0484453860666
 31
0.0
  0
LINE
  5
   1AA
  8
0
  6
CONTINUOUS
 62
     7
 10
71.1676445007324
 20
-86.4515526888767
 30
0.0
 11
71.1676445007324
 21
34.0484447582336
 31
0.0
  0
LINE
  5
   1AB
  8
0
  6
CONTINUOUS
 62
     7
 10
70.6467000707808
 20
-83.4971294116697
 30
0.0
 11
71.1676445007324
 21
-86.4515526888767
 31
0.0
  0
LINE
  5
   1AC
  8
0
  6
CONTINUOUS
 62
     7
 10
71.1676445007324
 20
-86.4515526888767
 30
0.0
 11
71.6885889306841
 21
-83.4971294116697
 31
0.0
  0
LINE
  5
   1AD
  8
0
  6
CONTINUOUS
 62
     7
 10
71.6885889306841
 20
31.0940214810266
 30
0.0
 11
71.1676445007324
 21
34.0484447582336
 31
0.0
  0
LINE
  5
   1AE
  8
0
  6
CONTINUOUS
 62
     7
 10
71.1676445007324
 20
34.0484447582336
 30
0.0
 11
70.6467000707808
 21
31.0940214810266
 31
0.0
  0
ENDBLK
  5
   1AF
  8
0
  6
CONTINUOUS
 62
     7
  0
BLOCK
  5
   1B0
  8
0
  6
CONTINUOUS
 62
     7
  2
*UDIM396
 70
    65
 10
0.0
 20
0.0
 30
0.0
  3
*UDIM396
  0
TEXT
  5
   1B1
  8
0
  6
CONTINUOUS
 62
     7
 10
109.768455399076
 20
-115.050102233887
 30
0.0
 40
3.00000002980232
  1
3
 41
0.933333333333334
 72
     1
 11
110.868455410004
 21
-113.550102218986
 31
0.0
 73
     2
  0
TEXT
  5
   1B2
  8
0
  6
CONTINUOUS
 62
     7
 10
107.0184553653
 20
-115.050102233887
 30
0.0
 40
3.00000002980232
  1
_
 41
0.933333333333334
 72
     1
 11
108.118455376228
 21
-113.550102218986
 31
0.0
 73
     2
  0
LINE
  5
   1B3
  8
0
  6
CONTINUOUS
 62
     7
 10
115.518455505371
 20
-100.171575703781
 30
0.0
 11
115.518455505371
 21
-118.050102233887
 31
0.0
  0
LINE
  5
   1B4
  8
0
  6
CONTINUOUS
 62
     7
 10
117.018455505371
 20
-99.5865750657061
 30
0.0
 11
117.018455505371
 21
-118.050102233887
 31
0.0
  0
LINE
  5
   1B5
  8
0
  6
CONTINUOUS
 62
     7
 10
107.0184553653
 20
-116.050102233887
 30
0.0
 11
117.018455505371
 21
-116.050102233887
 31
0.0
  0
LINE
  5
   1B6
  8
0
  6
CONTINUOUS
 62
     7
 10
112.564032228164
 20
-116.571046663838
 30
0.0
 11
115.518455505371
 21
-116.050102233887
 31
0.0
  0
LINE
  5
   1B7
  8
0
  6
CONTINUOUS
 62
     7
 10
115.518455505371
 20
-116.050102233887
 30
0.0
 11
112.564032228164
 21
-115.529157803935
 31
0.0
  0
LINE
  5
   1B8
  8
0
  6
CONTINUOUS
 62
     7
 10
119.972878782578
 20
-115.529157803935
 30
0.0
 11
117.018455505371
 21
-116.050102233887
 31
0.0
  0
LINE
  5
   1B9
  8
0
  6
CONTINUOUS
 62
     7
 10
117.018455505371
 20
-116.050102233887
 30
0.0
 11
119.972878782578
 21
-116.571046663838
 31
0.0
  0
ENDBLK
  5
   1BA
  8
0
  6
CONTINUOUS
 62
     7
  0
BLOCK
  5
   1BB
  8
0
  6
CONTINUOUS
 62
     7
  2
*UDIM397
 70
    65
 10
0.0
 20
0.0
 30
0.0
  3
*UDIM397
  0
TEXT
  5
   1BC
  8
0
  6
CONTINUOUS
 62
     7
 10
135.918443988759
 20
-115.050102233887
 30
0.0
 40
3.00000002980232
  1
103,5
 41
0.933333333333333
 72
     1
 11
142.618444055318
 21
-113.550102218986
 31
0.0
 73
     2
  0
LINE
  5
   1BD
  8
0
  6
CONTINUOUS
 62
     7
 10
168.768432617186
 20
-49.0765838623047
 30
0.0
 11
168.768432617186
 21
-118.050102233887
 31
0.0
  0
LINE
  5
   1BE
  8
0
  6
CONTINUOUS
 62
     7
 10
117.018455505371
 20
-116.050102233887
 30
0.0
 11
168.768432617186
 21
-116.050102233887
 31
0.0
  0
LINE
  5
   1BF
  8
0
  6
CONTINUOUS
 62
     7
 10
119.972878782578
 20
-115.529157803935
 30
0.0
 11
117.018455505371
 21
-116.050102233887
 31
0.0
  0
LINE
  5
   1C0
  8
0
  6
CONTINUOUS
 62
     7
 10
117.018455505371
 20
-116.050102233887
 30
0.0
 11
119.972878782578
 21
-116.571046663838
 31
0.0
  0
LINE
  5
   1C1
  8
0
  6
CONTINUOUS
 62
     7
 10
165.814009339979
 20
-116.571046663838
 30
0.0
 11
168.768432617186
 21
-116.050102233887
 31
0.0
  0
LINE
  5
   1C2
  8
0
  6
CONTINUOUS
 62
     7
 10
168.768432617186
 20
-116.050102233887
 30
0.0
 11
165.814009339979
 21
-115.529157803935
 31
0.0
  0
ENDBLK
  5
   1C3
  8
0
  6
CONTINUOUS
 62
     7
  0
BLOCK
  5
   1C4
  8
0
  6
CONTINUOUS
 62
     7
  2
*UDIM398
 70
    65
 10
0.0
 20
0.0
 30
0.0
  3
*UDIM398
  0
TEXT
  5
   1C5
  8
0
  6
CONTINUOUS
 62
     7
 10
152.592845120394
 20
-132.470367431641
 30
0.0
 40
3.00000002980232
  1
159
 41
0.933333333333333
 72
     1
 11
156.492845159137
 21
-130.970367416739
 31
0.0
 73
     2
  0
LINE
  5
   1C6
  8
0
  6
CONTINUOUS
 62
     7
 10
117.018455505371
 20
-99.5865750657061
 30
0.0
 11
117.018455505371
 21
-135.470367431641
 31
0.0
  0
LINE
  5
   1C7
  8
0
  6
CONTINUOUS
 62
     7
 10
196.517233573126
 20
-37.2330305812866
 30
0.0
 11
196.517233573126
 21
-135.470367431641
 31
0.0
  0
LINE
  5
   1C8
  8
0
  6
CONTINUOUS
 62
     7
 10
117.018455505371
 20
-133.470367431641
 30
0.0
 11
196.517233573126
 21
-133.470367431641
 31
0.0
  0
LINE
  5
   1C9
  8
0
  6
CONTINUOUS
 62
     7
 10
119.972878782578
 20
-132.949423001689
 30
0.0
 11
117.018455505371
 21
-133.470367431641
 31
0.0
  0
LINE
  5
   1CA
  8
0
  6
CONTINUOUS
 62
     7
 10
117.018455505371
 20
-133.470367431641
 30
0.0
 11
119.972878782578
 21
-133.991311861592
 31
0.0
  0
LINE
  5
   1CB
  8
0
  6
CONTINUOUS
 62
     7
 10
193.562810295919
 20
-133.991311861592
 30
0.0
 11
196.517233573126
 21
-133.470367431641
 31
0.0
  0
LINE
  5
   1CC
  8
0
  6
CONTINUOUS
 62
     7
 10
196.517233573126
 20
-133.470367431641
 30
0.0
 11
193.562810295919
 21
-132.949423001689
 31
0.0
  0
ENDBLK
  5
   1CD
  8
0
  6
CONTINUOUS
 62
     7
  0
BLOCK
  5
   1CE
  8
0
  6
CONTINUOUS
 62
     7
  2
*UDIM399
 70
    65
 10
0.0
 20
0.0
 30
0.0
  3
*UDIM399
  0
TEXT
  5
   1CF
  8
0
  6
CONTINUOUS
 62
     7
 10
205.515975952153
 20
-26.0015877034991
 30
0.0
 40
3.00000002980232
  1
105
 50
90.0
 41
0.933333333333333
 72
     1
 11
204.015975937247
 21
-22.1015876647579
 31
0.0
 73
     2
  0
LINE
  5
   1D0
  8
0
  6
CONTINUOUS
 62
     7
 10
171.518432617186
 20
-48.076584191482
 30
0.0
 11
208.515975952148
 21
-48.0765963702353
 31
0.0
  0
LINE
  5
   1D1
  8
0
  6
CONTINUOUS
 62
     7
 10
171.518432617186
 20
4.4234081943843
 30
0.0
 11
208.515975952148
 21
4.42339658024598
 31
0.0
  0
LINE
  5
   1D2
  8
0
  6
CONTINUOUS
 62
     7
 10
206.515975952148
 20
-48.0765957118806
 30
0.0
 11
206.515975952148
 21
4.42339720807892
 31
0.0
  0
LINE
  5
   1D3
  8
0
  6
CONTINUOUS
 62
     7
 10
205.995031522197
 20
-45.1221724346737
 30
0.0
 11
206.515975952148
 21
-48.0765957118806
 31
0.0
  0
LINE
  5
   1D4
  8
0
  6
CONTINUOUS
 62
     7
 10
206.515975952148
 20
-48.0765957118806
 30
0.0
 11
207.0369203821
 21
-45.1221724346737
 31
0.0
  0
LINE
  5
   1D5
  8
0
  6
CONTINUOUS
 62
     7
 10
207.0369203821
 20
1.46897393087196
 30
0.0
 11
206.515975952148
 21
4.42339720807892
 31
0.0
  0
LINE
  5
   1D6
  8
0
  6
CONTINUOUS
 62
     7
 10
206.515975952148
 20
4.42339720807892
 30
0.0
 11
205.995031522197
 21
1.46897393087196
 31
0.0
  0
ENDBLK
  5
   1D7
  8
0
  6
CONTINUOUS
 62
     7
  0
BLOCK
  5
   1D8
  8
0
  6
CONTINUOUS
 62
     7
  2
*UDIM400
 70
    65
 10
0.0
 20
0.0
 30
0.0
  3
*UDIM400
  0
TEXT
  5
   1D9
  8
0
  6
CONTINUOUS
 62
     7
 10
54.3769176458142
 20
-162.866113511254
 30
0.0
 40
2.99999994933605
  1
8
 50
449.999999896069
 41
0.933333333333333
 72
     1
 11
52.8769176731346
 21
-161.766113527119
 31
0.0
 73
     2
  0
LINE
  5
   1DA
  8
0
  6
CONTINUOUS
 62
     7
 10
66.0113294422626
 20
-165.866113588214
 30
0.0
 11
53.3769176478027
 21
-165.866113588214
 31
0.0
  0
LINE
  5
   1DB
  8
0
  6
CONTINUOUS
 62
     7
 10
69.5113294944167
 20
-167.466113612056
 30
0.0
 11
53.3769176478027
 21
-167.466113612056
 31
0.0
  0
LINE
  5
   1DC
  8
0
  6
CONTINUOUS
 62
     7
 10
55.3769176478027
 20
-160.666113545696
 30
0.0
 11
55.3769176478027
 21
-167.466113612056
 31
0.0
  0
LINE
  5
   1DD
  8
0
  6
CONTINUOUS
 62
     7
 10
54.855973217851
 20
-162.911690311007
 30
0.0
 11
55.3769176478027
 21
-165.866113588214
 31
0.0
  0
LINE
  5
   1DE
  8
0
  6
CONTINUOUS
 62
     7
 10
55.3769176478027
 20
-165.866113588214
 30
0.0
 11
55.8978620777543
 21
-162.911690311007
 31
0.0
  0
LINE
  5
   1DF
  8
0
  6
CONTINUOUS
 62
     7
 10
55.8978620777543
 20
-170.420536889263
 30
0.0
 11
55.3769176478027
 21
-167.466113612056
 31
0.0
  0
LINE
  5
   1E0
  8
0
  6
CONTINUOUS
 62
     7
 10
55.3769176478027
 20
-167.466113612056
 30
0.0
 11
54.855973217851
 21
-170.420536889263
 31
0.0
  0
ENDBLK
  5
   1E1
  8
0
  6
CONTINUOUS
 62
     7
  0
BLOCK
  5
   1E2
  8
0
  6
CONTINUOUS
 62
     7
  2
*UDIM401
 70
    65
 10
0.0
 20
0.0
 30
0.0
  3
*UDIM401
  0
TEXT
  5
   1E3
  8
0
  6
CONTINUOUS
 62
     7
 10
105.289509375928
 20
-175.289674741833
 30
0.0
 40
2.99999994933605
  1
35
 50
325.208574318619
 41
0.933333333333333
 72
     1
 11
108.198481859353
 21
-175.48429951822
 31
0.0
 73
     2
  0
TEXT
  5
   1E4
  8
0
  6
CONTINUOUS
 62
     7
 10
102.702620398605
 20
-173.49231414645
 30
0.0
 40
2.99999994933605
  1
Ø
 50
325.208574318619
 41
0.933333333333333
 72
     1
 11
104.461864451257
 21
-172.888111989596
 31
0.0
 73
     2
  0
ARC
  5
   1E5
  8
0
  6
CONTINUOUS
 62
     7
 10
95.0113298594952
 20
-169.366113640368
 30
0.0
 40
3.5000000521542
 50
472.468129201574
 51
523.62977722357
  0
LINE
  5
   1E6
  8
0
  6
CONTINUOUS
 62
     7
 10
108.825091673035
 20
-178.96386268098
 30
0.0
 11
92.1370086875763
 21
-167.369046248982
 31
0.0
  0
LINE
  5
   1E7
  8
0
  6
CONTINUOUS
 62
     7
 10
95.1621303547787
 20
-170.105232255397
 30
0.0
 11
97.885651031414
 21
-171.363181031754
 31
0.0
  0
LINE
  5
   1E8
  8
0
  6
CONTINUOUS
 62
     7
 10
97.885651031414
 20
-171.363181031754
 30
0.0
 11
95.7566224223662
 21
-169.24959706563
 31
0.0
  0
LINE
  5
   1E9
  8
0
  6
CONTINUOUS
 62
     7
 10
94.8605293642116
 20
-168.626995025339
 30
0.0
 11
92.1370086875763
 21
-167.369046248982
 31
0.0
  0
LINE
  5
   1EA
  8
0
  6
CONTINUOUS
 62
     7
 10
92.1370086875763
 20
-167.369046248982
 30
0.0
 11
94.2660372966241
 21
-169.482630215106
 31
0.0
  0
ENDBLK
  5
   1EB
  8
0
  6
CONTINUOUS
 62
     7
  0
BLOCK
  5
   1EC
  8
0
  6
CONTINUOUS
 62
     7
  2
*UDIM402
 70
    65
 10
0.0
 20
0.0
 30
0.0
  3
*UDIM402
  0
TEXT
  5
   1ED
  8
0
  6
CONTINUOUS
 62
     7
 10
38.1411313923524
 20
-178.487650640793
 30
0.0
 40
2.99999994933605
  1
5,5
 50
376.410037752177
 41
0.933333333333333
 72
     1
 11
41.4584985956264
 21
-175.946966825574
 31
0.0
 73
     2
  0
TEXT
  5
   1EE
  8
0
  6
CONTINUOUS
 62
     7
 10
35.1194482803768
 20
-179.377555614164
 30
0.0
 40
2.99999994933605
  1
Ø
 50
376.410037752177
 41
0.933333333333333
 72
     1
 11
35.7508749404852
 21
-177.627898431731
 31
0.0
 73
     2
  0
TEXT
  5
   1EF
  8
0
  6
CONTINUOUS
 62
     7
 10
46.1509898139426
 20
-176.128696197542
 30
0.0
 40
2.99999994933605
  1
-M5
 50
376.410037752177
 41
0.933333333333333
 72
     1
 11
49.4683570172166
 21
-173.588012382323
 31
0.0
 73
     2
  0
LINE
  5
   1F0
  8
0
  6
CONTINUOUS
 62
     7
 10
74.5389250268977
 20
-168.810733397074
 30
0.0
 11
35.4019578017565
 21
-180.336820110697
 31
0.0
  0
LINE
  5
   1F1
  8
0
  6
CONTINUOUS
 62
     7
 10
77.2258266211566
 20
-167.476357204702
 30
0.0
 11
74.5389250268977
 21
-168.810733397074
 31
0.0
  0
LINE
  5
   1F2
  8
0
  6
CONTINUOUS
 62
     7
 10
74.5389250268977
 20
-168.810733397074
 30
0.0
 11
77.5201701410017
 21
-168.475804196151
 31
0.0
  0
LINE
  5
   1F3
  8
0
  6
CONTINUOUS
 62
     7
 10
70.7968324719849
 20
-170.455870064113
 30
0.0
 11
73.4837340662439
 21
-169.121493871741
 31
0.0
  0
LINE
  5
   1F4
  8
0
  6
CONTINUOUS
 62
     7
 10
73.4837340662439
 20
-169.121493871741
 30
0.0
 11
70.5024889521399
 21
-169.456423072664
 31
0.0
  0
ENDBLK
  5
   1F5
  8
0
  6
CONTINUOUS
 62
     7
  0
BLOCK
  5
   1F6
  8
0
  6
CONTINUOUS
 62
     7
  2
*UDIM403
 70
    65
 10
0.0
 20
0.0
 30
0.0
  3
*UDIM403
  0
TEXT
  5
   1F7
  8
0
  6
CONTINUOUS
 62
     7
 10
85.2363297429121
 20
-157.139326664354
 30
0.0
 40
2.99999994933605
  1
70
 50
359.999999896069
 41
0.933333333333333
 72
     1
 11
87.7363297034055
 21
-155.639326694209
 31
0.0
 73
     2
  0
LINE
  5
   1F8
  8
0
  6
CONTINUOUS
 62
     7
 10
95.0113298594952
 20
-163.166113562882
 30
0.0
 11
95.0113298594952
 21
-156.139326668877
 31
0.0
  0
LINE
  5
   1F9
  8
0
  6
CONTINUOUS
 62
     7
 10
81.0113296508789
 20
-163.166113562882
 30
0.0
 11
81.0113296508789
 21
-156.139326668877
 31
0.0
  0
LINE
  5
   1FA
  8
0
  6
CONTINUOUS
 62
     7
 10
95.0113298594952
 20
-158.139326668877
 30
0.0
 11
81.0113296508789
 21
-158.139326668877
 31
0.0
  0
LINE
  5
   1FB
  8
0
  6
CONTINUOUS
 62
     7
 10
92.0569065822882
 20
-158.660271098828
 30
0.0
 11
95.0113298594952
 21
-158.139326668877
 31
0.0
  0
LINE
  5
   1FC
  8
0
  6
CONTINUOUS
 62
     7
 10
95.0113298594952
 20
-158.139326668877
 30
0.0
 11
92.0569065822882
 21
-157.618382238925
 31
0.0
  0
LINE
  5
   1FD
  8
0
  6
CONTINUOUS
 62
     7
 10
83.9657529280859
 20
-157.618382238925
 30
0.0
 11
81.0113296508789
 21
-158.139326668877
 31
0.0
  0
LINE
  5
   1FE
  8
0
  6
CONTINUOUS
 62
     7
 10
81.0113296508789
 20
-158.139326668877
 30
0.0
 11
83.9657529280859
 21
-158.660271098828
 31
0.0
  0
ENDBLK
  5
   1FF
  8
0
  6
CONTINUOUS
 62
     7
  0
BLOCK
  5
   200
  8
0
  6
CONTINUOUS
 62
     7
  2
*UDIM404
 70
    65
 10
0.0
 20
0.0
 30
0.0
  3
*UDIM404
  0
TEXT
  5
   201
  8
0
  6
CONTINUOUS
 62
     7
 10
71.2363295342958
 20
-157.139326664354
 30
0.0
 40
2.99999994933605
  1
70
 50
359.999999896069
 41
0.933333333333333
 72
     1
 11
73.7363294947892
 21
-155.639326694209
 31
0.0
 73
     2
  0
LINE
  5
   202
  8
0
  6
CONTINUOUS
 62
     7
 10
67.0113294422627
 20
-163.166113562882
 30
0.0
 11
67.0113294422627
 21
-156.139326668877
 31
0.0
  0
LINE
  5
   203
  8
0
  6
CONTINUOUS
 62
     7
 10
81.0113296508789
 20
-158.139326668877
 30
0.0
 11
67.0113294422627
 21
-158.139326668877
 31
0.0
  0
LINE
  5
   204
  8
0
  6
CONTINUOUS
 62
     7
 10
78.056906373672
 20
-158.660271098828
 30
0.0
 11
81.0113296508789
 21
-158.139326668877
 31
0.0
  0
LINE
  5
   205
  8
0
  6
CONTINUOUS
 62
     7
 10
81.0113296508789
 20
-158.139326668877
 30
0.0
 11
78.056906373672
 21
-157.618382238925
 31
0.0
  0
LINE
  5
   206
  8
0
  6
CONTINUOUS
 62
     7
 10
69.9657527194696
 20
-157.618382238925
 30
0.0
 11
67.0113294422627
 21
-158.139326668877
 31
0.0
  0
LINE
  5
   207
  8
0
  6
CONTINUOUS
 62
     7
 10
67.0113294422627
 20
-158.139326668877
 30
0.0
 11
69.9657527194696
 21
-158.660271098828
 31
0.0
  0
ENDBLK
  5
   208
  8
0
  6
CONTINUOUS
 62
     7
  0
BLOCK
  5
   209
  8
0
  6
CONTINUOUS
 62
     7
  2
*UDIM405
 70
    65
 10
0.0
 20
0.0
 30
0.0
  3
*UDIM405
  0
TEXT
  5
   20A
  8
0
  6
CONTINUOUS
 62
     7
 10
109.531236699921
 20
-149.44111326988
 30
0.0
 40
2.99999994933605
  1
241
 50
449.999999896069
 41
0.933333333333333
 72
     1
 11
108.031236732303
 21
-145.541113333032
 31
0.0
 73
     2
  0
LINE
  5
   20B
  8
0
  6
CONTINUOUS
 62
     7
 10
101.211329936981
 20
-121.166112922132
 30
0.0
 11
112.531236706971
 21
-121.166112922132
 31
0.0
  0
LINE
  5
   20C
  8
0
  6
CONTINUOUS
 62
     7
 10
101.211329936981
 20
-169.366113640368
 30
0.0
 11
112.531236706971
 21
-169.366113640368
 31
0.0
  0
LINE
  5
   20D
  8
0
  6
CONTINUOUS
 62
     7
 10
110.531236706971
 20
-121.166112922132
 30
0.0
 11
110.531236706971
 21
-169.366113640368
 31
0.0
  0
LINE
  5
   20E
  8
0
  6
CONTINUOUS
 62
     7
 10
111.052181136922
 20
-124.120536199339
 30
0.0
 11
110.531236706971
 21
-121.166112922132
 31
0.0
  0
LINE
  5
   20F
  8
0
  6
CONTINUOUS
 62
     7
 10
110.531236706971
 20
-121.166112922132
 30
0.0
 11
110.010292277019
 21
-124.120536199339
 31
0.0
  0
LINE
  5
   210
  8
0
  6
CONTINUOUS
 62
     7
 10
110.010292277019
 20
-166.411690363161
 30
0.0
 11
110.531236706971
 21
-169.366113640368
 31
0.0
  0
LINE
  5
   211
  8
0
  6
CONTINUOUS
 62
     7
 10
110.531236706971
 20
-169.366113640368
 30
0.0
 11
111.052181136922
 21
-166.411690363161
 31
0.0
  0
ENDBLK
  5
   212
  8
0
  6
CONTINUOUS
 62
     7
  0
BLOCK
  5
   213
  8
0
  6
CONTINUOUS
 62
     7
  2
*UDIM406
 70
    65
 10
0.0
 20
0.0
 30
0.0
  3
*UDIM406
  0
TEXT
  5
   214
  8
0
  6
CONTINUOUS
 62
     7
 10
104.385715070244
 20
-141.638224579008
 30
0.0
 40
2.99999994933605
  1
111,75
 50
449.999999896069
 41
0.933333333333333
 72
     1
 11
102.885715110218
 21
-133.538224713089
 31
0.0
 73
     2
  0
LINE
  5
   215
  8
0
  6
CONTINUOUS
 62
     7
 10
101.211329936981
 20
-121.166112922132
 30
0.0
 11
107.385715084886
 21
-121.166112922132
 31
0.0
  0
LINE
  5
   216
  8
0
  6
CONTINUOUS
 62
     7
 10
100.224944935257
 20
-143.516113255173
 30
0.0
 11
107.385715084886
 21
-143.516113255173
 31
0.0
  0
LINE
  5
   217
  8
0
  6
CONTINUOUS
 62
     7
 10
105.385715084886
 20
-121.166112922132
 30
0.0
 11
105.385715084886
 21
-143.516113255173
 31
0.0
  0
LINE
  5
   218
  8
0
  6
CONTINUOUS
 62
     7
 10
105.906659514838
 20
-124.120536199339
 30
0.0
 11
105.385715084886
 21
-121.166112922132
 31
0.0
  0
LINE
  5
   219
  8
0
  6
CONTINUOUS
 62
     7
 10
105.385715084886
 20
-121.166112922132
 30
0.0
 11
104.864770654935
 21
-124.120536199339
 31
0.0
  0
LINE
  5
   21A
  8
0
  6
CONTINUOUS
 62
     7
 10
104.864770654935
 20
-140.561689977966
 30
0.0
 11
105.385715084886
 21
-143.516113255173
 31
0.0
  0
LINE
  5
   21B
  8
0
  6
CONTINUOUS
 62
     7
 10
105.385715084886
 20
-143.516113255173
 30
0.0
 11
105.906659514838
 21
-140.561689977966
 31
0.0
  0
ENDBLK
  5
   21C
  8
0
  6
CONTINUOUS
 62
     7
  0
BLOCK
  5
   21D
  8
0
  6
CONTINUOUS
 62
     7
  2
*UDIM407
 70
    65
 10
0.0
 20
0.0
 30
0.0
  3
*UDIM407
  0
TEXT
  5
   21E
  8
0
  6
CONTINUOUS
 62
     7
 10
54.3769328919499
 20
-140.456769737007
 30
0.0
 40
2.99999994933605
  1
109,75
 50
449.999999896069
 41
0.933333333333333
 72
     1
 11
52.8769329319239
 21
-132.356769871088
 31
0.0
 73
     2
  0
LINE
  5
   21F
  8
0
  6
CONTINUOUS
 62
     7
 10
70.446818794329
 20
-121.566112614176
 30
0.0
 11
53.376932906592
 21
-121.566107255658
 31
0.0
  0
LINE
  5
   220
  8
0
  6
CONTINUOUS
 62
     7
 10
55.376932906592
 20
-121.566107883491
 30
0.0
 11
55.376932906592
 21
-143.516099490559
 31
0.0
  0
LINE
  5
   221
  8
0
  6
CONTINUOUS
 62
     7
 10
55.8978773365436
 20
-124.520531160698
 30
0.0
 11
55.376932906592
 21
-121.566107883491
 31
0.0
  0
LINE
  5
   222
  8
0
  6
CONTINUOUS
 62
     7
 10
55.376932906592
 20
-121.566107883491
 30
0.0
 11
54.8559884766403
 21
-124.520531160698
 31
0.0
  0
LINE
  5
   223
  8
0
  6
CONTINUOUS
 62
     7
 10
54.8559884766403
 20
-140.561676213352
 30
0.0
 11
55.376932906592
 21
-143.516099490559
 31
0.0
  0
LINE
  5
   224
  8
0
  6
CONTINUOUS
 62
     7
 10
55.376932906592
 20
-143.516099490559
 30
0.0
 11
55.8978773365436
 21
-140.561676213352
 31
0.0
  0
ENDBLK
  5
   225
  8
0
  6
CONTINUOUS
 62
     7
  0
BLOCK
  5
   226
  8
0
  6
CONTINUOUS
 62
     7
  2
*UDIM408
 70
    65
 10
0.0
 20
0.0
 30
0.0
  3
*UDIM408
  0
TEXT
  5
   227
  8
0
  6
CONTINUOUS
 62
     7
 10
78.2363311644829
 20
-137.185711559893
 30
0.0
 40
2.99999994933605
  1
70
 50
359.999999896069
 41
0.933333333333333
 72
     1
 11
80.7363311249763
 21
-135.685711589748
 31
0.0
 73
     2
  0
LINE
  5
   228
  8
0
  6
CONTINUOUS
 62
     7
 10
88.011329755187
 20
-138.185711564416
 30
0.0
 11
74.0113295465708
 21
-138.185711564416
 31
0.0
  0
LINE
  5
   229
  8
0
  6
CONTINUOUS
 62
     7
 10
85.0569064779801
 20
-138.706655994367
 30
0.0
 11
88.011329755187
 21
-138.185711564416
 31
0.0
  0
LINE
  5
   22A
  8
0
  6
CONTINUOUS
 62
     7
 10
88.011329755187
 20
-138.185711564416
 30
0.0
 11
85.0569064779801
 21
-137.664767134464
 31
0.0
  0
LINE
  5
   22B
  8
0
  6
CONTINUOUS
 62
     7
 10
76.9657528237778
 20
-137.664767134464
 30
0.0
 11
74.0113295465708
 21
-138.185711564416
 31
0.0
  0
LINE
  5
   22C
  8
0
  6
CONTINUOUS
 62
     7
 10
74.0113295465708
 20
-138.185711564416
 30
0.0
 11
76.9657528237778
 21
-138.706655994367
 31
0.0
  0
ENDBLK
  5
   22D
  8
0
  6
CONTINUOUS
 62
     7
  0
BLOCK
  5
   22E
  8
0
  6
CONTINUOUS
 62
     7
  2
*UDIM409
 70
    65
 10
0.0
 20
0.0
 30
0.0
  3
*UDIM409
  0
TEXT
  5
   22F
  8
0
  6
CONTINUOUS
 62
     7
 10
46.3301310218229
 20
-154.28631753741
 30
0.0
 40
2.99999994933605
  1
237
 50
449.999999896069
 41
0.933333333333333
 72
     1
 11
44.8301310542047
 21
-150.386317600562
 31
0.0
 73
     2
  0
LINE
  5
   230
  8
0
  6
CONTINUOUS
 62
     7
 10
70.446818794329
 20
-121.566112614176
 30
0.0
 11
45.3301310288729
 21
-121.566104729634
 31
0.0
  0
LINE
  5
   231
  8
0
  6
CONTINUOUS
 62
     7
 10
70.3088968995109
 20
-168.966113320491
 30
0.0
 11
45.3301310288729
 21
-168.966105479245
 31
0.0
  0
LINE
  5
   232
  8
0
  6
CONTINUOUS
 62
     7
 10
47.3301310288728
 20
-121.566105357467
 30
0.0
 11
47.3301310288728
 21
-168.966106107078
 31
0.0
  0
LINE
  5
   233
  8
0
  6
CONTINUOUS
 62
     7
 10
47.8510754588244
 20
-124.520528634674
 30
0.0
 11
47.3301310288728
 21
-121.566105357467
 31
0.0
  0
LINE
  5
   234
  8
0
  6
CONTINUOUS
 62
     7
 10
47.3301310288728
 20
-121.566105357467
 30
0.0
 11
46.8091865989211
 21
-124.520528634674
 31
0.0
  0
LINE
  5
   235
  8
0
  6
CONTINUOUS
 62
     7
 10
46.8091865989211
 20
-166.011682829871
 30
0.0
 11
47.3301310288728
 21
-168.966106107078
 31
0.0
  0
LINE
  5
   236
  8
0
  6
CONTINUOUS
 62
     7
 10
47.3301310288728
 20
-168.966106107078
 30
0.0
 11
47.8510754588244
 21
-166.011682829871
 31
0.0
  0
ENDBLK
  5
   237
  8
0
  6
CONTINUOUS
 62
     7
  0
BLOCK
  5
   238
  8
0
  6
CONTINUOUS
 62
     7
  2
*UDIM410
 70
    65
 10
0.0
 20
0.0
 30
0.0
  3
*UDIM410
  0
TEXT
  5
   239
  8
0
  6
CONTINUOUS
 62
     7
 10
256.332538275012
 20
-2.33824156655648
 30
0.0
 40
3.00000002980232
  1
147
 50
359.999999844103
 41
0.933333333333333
 72
     1
 11
260.232538317829
 21
-0.838241562247276
 31
0.0
 73
     2
  0
LINE
  5
   23A
  8
0
  6
CONTINUOUS
 62
     7
 10
242.13253694885
 20
10.8417205810551
 30
0.0
 11
242.132522501002
 21
-5.33824157714764
 31
0.0
  0
LINE
  5
   23B
  8
0
  6
CONTINUOUS
 62
     7
 10
278.88253694885
 20
10.8417205810551
 30
0.0
 11
278.882522501002
 21
-5.33824157714764
 31
0.0
  0
LINE
  5
   23C
  8
0
  6
CONTINUOUS
 62
     7
 10
242.132524286895
 20
-3.33824157714844
 30
0.0
 11
278.882524286895
 21
-3.33824157714844
 31
0.0
  0
LINE
  5
   23D
  8
0
  6
CONTINUOUS
 62
     7
 10
245.086947564102
 20
-2.81729714719678
 30
0.0
 11
242.132524286895
 21
-3.33824157714844
 31
0.0
  0
LINE
  5
   23E
  8
0
  6
CONTINUOUS
 62
     7
 10
242.132524286895
 20
-3.33824157714844
 30
0.0
 11
245.086947564102
 21
-3.8591860071001
 31
0.0
  0
LINE
  5
   23F
  8
0
  6
CONTINUOUS
 62
     7
 10
275.928101009688
 20
-3.8591860071001
 30
0.0
 11
278.882524286895
 21
-3.33824157714844
 31
0.0
  0
LINE
  5
   240
  8
0
  6
CONTINUOUS
 62
     7
 10
278.882524286895
 20
-3.33824157714844
 30
0.0
 11
275.928101009688
 21
-2.81729714719677
 31
0.0
  0
ENDBLK
  5
   241
  8
0
  6
CONTINUOUS
 62
     7
  0
BLOCK
  5
   242
  8
0
  6
CONTINUOUS
 62
     7
  2
*UDIM411
 70
    65
 10
0.0
 20
0.0
 30
0.0
  3
*UDIM411
  0
TEXT
  5
   243
  8
0
  6
CONTINUOUS
 62
     7
 10
256.332538273659
 20
52.8997459517541
 30
0.0
 40
3.00000002980232
  1
115
 50
359.999999844103
 41
0.933333333333333
 72
     1
 11
260.232538316476
 21
54.3997459560633
 31
0.0
 73
     2
  0
LINE
  5
   244
  8
0
  6
CONTINUOUS
 62
     7
 10
246.132538155713
 20
46.7167205810546
 30
0.0
 11
246.132540410583
 21
53.899745941162
 31
0.0
  0
LINE
  5
   245
  8
0
  6
CONTINUOUS
 62
     7
 10
274.882538155713
 20
46.7167205810546
 30
0.0
 11
274.882540410583
 21
53.899745941162
 31
0.0
  0
LINE
  5
   246
  8
0
  6
CONTINUOUS
 62
     7
 10
246.13253978275
 20
51.8997459411621
 30
0.0
 11
274.88253978275
 21
51.8997459411621
 31
0.0
  0
LINE
  5
   247
  8
0
  6
CONTINUOUS
 62
     7
 10
249.086963059957
 20
52.4206903711138
 30
0.0
 11
246.13253978275
 21
51.8997459411621
 31
0.0
  0
LINE
  5
   248
  8
0
  6
CONTINUOUS
 62
     7
 10
246.13253978275
 20
51.8997459411621
 30
0.0
 11
249.086963059957
 21
51.3788015112105
 31
0.0
  0
LINE
  5
   249
  8
0
  6
CONTINUOUS
 62
     7
 10
271.928116505543
 20
51.3788015112105
 30
0.0
 11
274.88253978275
 21
51.8997459411621
 31
0.0
  0
LINE
  5
   24A
  8
0
  6
CONTINUOUS
 62
     7
 10
274.88253978275
 20
51.8997459411621
 30
0.0
 11
271.928116505543
 21
52.4206903711138
 31
0.0
  0
ENDBLK
  5
   24B
  8
0
  6
CONTINUOUS
 62
     7
  0
BLOCK
  5
   24C
  8
0
  6
CONTINUOUS
 62
     7
  2
*UDIM412
 70
    65
 10
0.0
 20
0.0
 30
0.0
  3
*UDIM412
  0
TEXT
  5
   24D
  8
0
  6
CONTINUOUS
 62
     7
 10
221.018714894198
 20
21.6667205322793
 30
0.0
 40
3.00000002980232
  1
142
 50
449.999999844103
 41
0.933333333333333
 72
     1
 11
219.518714889884
 21
25.5667205750942
 31
0.0
 73
     2
  0
LINE
  5
   24E
  8
0
  6
CONTINUOUS
 62
     7
 10
243.007537841797
 20
43.5917205810547
 30
0.0
 11
220.018714904785
 21
43.5917205810547
 31
0.0
  0
LINE
  5
   24F
  8
0
  6
CONTINUOUS
 62
     7
 10
243.007537841797
 20
8.09172058105469
 30
0.0
 11
220.018714904785
 21
8.09172058105469
 31
0.0
  0
LINE
  5
   250
  8
0
  6
CONTINUOUS
 62
     7
 10
222.018714904785
 20
43.5917205810547
 30
0.0
 11
222.018714904785
 21
8.09172058105469
 31
0.0
  0
LINE
  5
   251
  8
0
  6
CONTINUOUS
 62
     7
 10
222.539659334737
 20
40.6372973038477
 30
0.0
 11
222.018714904785
 21
43.5917205810547
 31
0.0
  0
LINE
  5
   252
  8
0
  6
CONTINUOUS
 62
     7
 10
222.018714904785
 20
43.5917205810547
 30
0.0
 11
221.497770474833
 21
40.6372973038477
 31
0.0
  0
LINE
  5
   253
  8
0
  6
CONTINUOUS
 62
     7
 10
221.497770474833
 20
11.0461438582617
 30
0.0
 11
222.018714904785
 21
8.09172058105469
 31
0.0
  0
LINE
  5
   254
  8
0
  6
CONTINUOUS
 62
     7
 10
222.018714904785
 20
8.09172058105469
 30
0.0
 11
222.539659334737
 21
11.0461438582617
 31
0.0
  0
ENDBLK
  5
   255
  8
0
  6
CONTINUOUS
 62
     7
  0
BLOCK
  5
   256
  8
0
  6
CONTINUOUS
 62
     7
  2
*UDIM413
 70
    65
 10
0.0
 20
0.0
 30
0.0
  3
*UDIM413
  0
TEXT
  5
   257
  8
0
  6
CONTINUOUS
 62
     7
 10
229.144241322421
 20
21.6667205322793
 30
0.0
 40
3.00000002980232
  1
112
 50
449.999999844103
 41
0.933333333333333
 72
     1
 11
227.644241318107
 21
25.5667205750942
 31
0.0
 73
     2
  0
LINE
  5
   258
  8
0
  6
CONTINUOUS
 62
     7
 10
241.132537841797
 20
39.8417205810547
 30
0.0
 11
228.144241333008
 21
39.8417205810547
 31
0.0
  0
LINE
  5
   259
  8
0
  6
CONTINUOUS
 62
     7
 10
241.132537841797
 20
11.8417205810547
 30
0.0
 11
228.144241333008
 21
11.8417205810547
 31
0.0
  0
LINE
  5
   25A
  8
0
  6
CONTINUOUS
 62
     7
 10
230.144241333008
 20
39.8417205810547
 30
0.0
 11
230.144241333008
 21
11.8417205810547
 31
0.0
  0
LINE
  5
   25B
  8
0
  6
CONTINUOUS
 62
     7
 10
230.665185762959
 20
36.8872973038477
 30
0.0
 11
230.144241333008
 21
39.8417205810547
 31
0.0
  0
LINE
  5
   25C
  8
0
  6
CONTINUOUS
 62
     7
 10
230.144241333008
 20
39.8417205810547
 30
0.0
 11
229.623296903056
 21
36.8872973038477
 31
0.0
  0
LINE
  5
   25D
  8
0
  6
CONTINUOUS
 62
     7
 10
229.623296903056
 20
14.7961438582617
 30
0.0
 11
230.144241333008
 21
11.8417205810547
 31
0.0
  0
LINE
  5
   25E
  8
0
  6
CONTINUOUS
 62
     7
 10
230.144241333008
 20
11.8417205810547
 30
0.0
 11
230.665185762959
 21
14.7961438582617
 31
0.0
  0
ENDBLK
  5
   25F
  8
0
  6
CONTINUOUS
 62
     7
  0
BLOCK
  5
   260
  8
0
  6
CONTINUOUS
 62
     7
  2
*UDIM414
 70
    65
 10
0.0
 20
0.0
 30
0.0
  3
*UDIM414
  0
TEXT
  5
   261
  8
0
  6
CONTINUOUS
 62
     7
 10
286.797291301764
 20
56.8628482693115
 30
0.0
 40
3.00000002980232
  1
7
 50
404.868411918951
 41
0.933333333333334
 72
     1
 11
286.518671659694
 21
58.7019706588758
 31
0.0
 73
     2
  0
TEXT
  5
   262
  8
0
  6
CONTINUOUS
 62
     7
 10
284.564795302439
 20
54.6405832816061
 30
0.0
 40
3.00000002980232
  1
Ø
 50
404.868411918951
 41
0.933333333333334
 72
     1
 11
284.286175660368
 21
56.4797056711704
 31
0.0
 73
     2
  0
LINE
  5
   263
  8
0
  6
CONTINUOUS
 62
     7
 10
289.061975818667
 20
57.7061774808034
 30
0.0
 11
274.262400066162
 21
42.9744247530833
 31
0.0
  0
LINE
  5
   264
  8
0
  6
CONTINUOUS
 62
     7
 10
277.22904436737
 20
46.6625141039986
 30
0.0
 11
275.502675617432
 21
44.2090164090261
 31
0.0
  0
LINE
  5
   265
  8
0
  6
CONTINUOUS
 62
     7
 10
275.502675617432
 20
44.2090164090261
 30
0.0
 11
277.964077106145
 21
45.9240973725255
 31
0.0
  0
LINE
  5
   266
  8
0
  6
CONTINUOUS
 62
     7
 10
272.536031316224
 20
40.5209270581108
 30
0.0
 11
274.262400066162
 21
42.9744247530833
 31
0.0
  0
LINE
  5
   267
  8
0
  6
CONTINUOUS
 62
     7
 10
274.262400066162
 20
42.9744247530833
 30
0.0
 11
271.800998577449
 21
41.2593437895839
 31
0.0
  0
ENDBLK
  5
   268
  8
0
  6
CONTINUOUS
 62
     7
  0
BLOCK
  5
   269
  8
0
  6
CONTINUOUS
 62
     7
  2
COPRITERMINALI
 70
    64
 10
0.0
 20
0.0
 30
0.0
  3
COPRITERMINALI
  0
LINE
  5
   26A
  8
0
  6
DASHDOT
 62
     7
 10
70.4999465942383
 20
-51.9542140876432
 30
0.0
 11
70.4999465942383
 21
11.7102469884159
 31
0.0
  0
LINE
  5
   26B
  8
0
  6
DASHDOT
 62
     7
 10
0.499977111816406
 20
-47.6391956369615
 30
0.0
 11
0.499977111816406
 21
3.76774260776965
 31
0.0
  0
LINE
  5
   26C
  8
0
  6
DASHDOT
 62
     7
 10
-69.5000076293945
 20
-48.1263751394578
 30
0.0
 11
-69.5000076293945
 21
14.6686335159143
 31
0.0
  0
LINE
  5
   26D
  8
0
  6
CONTINUOUS
 62
     7
 10
-103.999954223633
 20
-37.1996348691833
 30
0.0
 11
-103.999954223633
 21
1.27363211051443E-14
 31
0.0
  0
LINE
  5
   26E
  8
0
  6
CONTINUOUS
 62
     7
 10
104.999969482419
 20
-37.1996348691833
 30
0.0
 11
104.999969482419
 21
-5.33801896830383E-12
 31
0.0
  0
LINE
  5
   26F
  8
0
  6
CONTINUOUS
 62
     7
 10
-103.999954223633
 20
1.65094833309436E-12
 30
0.0
 11
104.999969482422
 21
1.65094833309436E-12
 31
0.0
  0
LINE
  5
   270
  8
0
  6
CONTINUOUS
 62
     7
 10
47.9999771118164
 20
-33.9999923706055
 30
0.0
 11
47.9999771118164
 21
-5.87830183291322E-15
 31
0.0
  0
LINE
  5
   271
  8
0
  6
CONTINUOUS
 62
     7
 10
47.9999771118164
 20
-33.9999923706055
 30
0.0
 11
49.1546745300293
 21
-33.9999923706055
 31
0.0
  0
LINE
  5
   272
  8
0
  6
CONTINUOUS
 62
     7
 10
92.9999465942383
 20
-33.9999923706055
 30
0.0
 11
92.9999465942383
 21
-1.13892086917509E-14
 31
0.0
  0
LINE
  5
   273
  8
0
  6
CONTINUOUS
 62
     7
 10
91.8452529907227
 20
-33.9999923706055
 30
0.0
 11
92.9999465942383
 21
-33.9999923706055
 31
0.0
  0
LINE
  5
   274
  8
0
  6
CONTINUOUS
 62
     7
 10
49.1546745300293
 20
-33.9999923706055
 30
0.0
 11
91.8452453613281
 21
-33.9999923706055
 31
0.0
  0
LINE
  5
   275
  8
0
  6
CONTINUOUS
 62
     7
 10
-21.9999923706055
 20
-33.9999923706055
 30
0.0
 11
-21.9999923706055
 21
2.69422202379282E-15
 31
0.0
  0
LINE
  5
   276
  8
0
  6
CONTINUOUS
 62
     7
 10
-21.9999923706055
 20
-33.9999923706055
 30
0.0
 11
-20.8452930450439
 21
-33.9999923706055
 31
0.0
  0
LINE
  5
   277
  8
0
  6
CONTINUOUS
 62
     7
 10
22.9999771118164
 20
-33.9999923706055
 30
0.0
 11
22.9999771118164
 21
-2.81668483504484E-15
 31
0.0
  0
LINE
  5
   278
  8
0
  6
CONTINUOUS
 62
     7
 10
21.8452796936035
 20
-33.9999923706055
 30
0.0
 11
22.9999771118164
 21
-33.9999923706055
 31
0.0
  0
LINE
  5
   279
  8
0
  6
CONTINUOUS
 62
     7
 10
-20.845287322998
 20
-33.9999923706055
 30
0.0
 11
21.8452796936035
 21
-33.9999923706055
 31
0.0
  0
LINE
  5
   27A
  8
0
  6
CONTINUOUS
 62
     7
 10
-91.9999618530274
 20
-33.9999923706055
 30
0.0
 11
-91.9999618530274
 21
1.12667458804989E-14
 31
0.0
  0
LINE
  5
   27B
  8
0
  6
CONTINUOUS
 62
     7
 10
-91.9999618530274
 20
-33.9999923706055
 30
0.0
 11
-90.8452606201172
 21
-33.9999923706055
 31
0.0
  0
LINE
  5
   27C
  8
0
  6
CONTINUOUS
 62
     7
 10
-46.9999923706055
 20
-33.9999923706055
 30
0.0
 11
-46.9999923706055
 21
5.7558390216612E-15
 31
0.0
  0
LINE
  5
   27D
  8
0
  6
CONTINUOUS
 62
     7
 10
-48.1546897888184
 20
-33.9999923706055
 30
0.0
 11
-46.9999923706055
 21
-33.9999923706055
 31
0.0
  0
LINE
  5
   27E
  8
0
  6
CONTINUOUS
 62
     7
 10
-90.8452606201172
 20
-33.9999923706055
 30
0.0
 11
-48.1546897888184
 21
-33.9999923706055
 31
0.0
  0
LINE
  5
   27F
  8
0
  6
CONTINUOUS
 62
     7
 10
49.1546745300293
 20
-32.8452835083006
 30
0.0
 11
49.1546745300293
 21
1.39278165437552E-13
 31
0.0
  0
LINE
  5
   280
  8
0
  6
CONTINUOUS
 62
     7
 10
91.8452529907227
 20
-32.845283508301
 30
0.0
 11
91.8452529907227
 21
-2.01937792601979E-13
 31
0.0
  0
LINE
  5
   281
  8
0
  6
CONTINUOUS
 62
     7
 10
47.9999784892702
 20
-33.9999930468176
 30
0.0
 11
49.1546759333368
 21
-32.8452842146502
 31
0.0
  0
LINE
  5
   282
  8
0
  6
CONTINUOUS
 62
     7
 10
49.1546745300293
 20
-32.8452835083008
 30
0.0
 11
91.8452529907227
 21
-32.8452835083008
 31
0.0
  0
LINE
  5
   283
  8
0
  6
CONTINUOUS
 62
     7
 10
91.8452502763159
 20
-32.8452818770249
 30
0.0
 11
92.9999439192495
 21
-33.9999907040683
 31
0.0
  0
LINE
  5
   284
  8
0
  6
CONTINUOUS
 62
     7
 10
-20.8452949523925
 20
-32.8452835082998
 30
0.0
 11
-20.8452949523925
 21
9.99538728269957E-13
 31
0.0
  0
LINE
  5
   285
  8
0
  6
CONTINUOUS
 62
     7
 10
21.8452816009521
 20
-32.8452835083002
 30
0.0
 11
21.8452816009521
 21
5.54281117334211E-13
 31
0.0
  0
LINE
  5
   286
  8
0
  6
CONTINUOUS
 62
     7
 10
-21.9999915153203
 20
-33.9999913100474
 30
0.0
 11
-20.8452921837257
 21
-32.8452824396935
 31
0.0
  0
LINE
  5
   287
  8
0
  6
CONTINUOUS
 62
     7
 10
-20.8452930450439
 20
-32.8452835083008
 30
0.0
 11
21.8452816009522
 21
-32.8452835083008
 31
0.0
  0
LINE
  5
   288
  8
0
  6
CONTINUOUS
 62
     7
 10
21.8452809575499
 20
-32.8452851037378
 30
0.0
 11
22.9999784016165
 21
-33.9999939359051
 31
0.0
  0
LINE
  5
   289
  8
0
  6
CONTINUOUS
 62
     7
 10
-90.8452606201172
 20
-32.8452835082986
 30
0.0
 11
-90.8452606201172
 21
2.18662448291093E-12
 31
0.0
  0
LINE
  5
   28A
  8
0
  6
CONTINUOUS
 62
     7
 10
-48.1546859741208
 20
-32.8452835082992
 30
0.0
 11
-48.1546859741208
 21
1.58579466542151E-12
 31
0.0
  0
LINE
  5
   28B
  8
0
  6
CONTINUOUS
 62
     7
 10
-91.9999592011592
 20
-33.999990711044
 30
0.0
 11
-90.8452579689942
 21
-32.8452818867992
 31
0.0
  0
LINE
  5
   28C
  8
0
  6
CONTINUOUS
 62
     7
 10
-90.8452606201172
 20
-32.8452835083008
 30
0.0
 11
-48.1546897888184
 21
-32.8452835083008
 31
0.0
  0
LINE
  5
   28D
  8
0
  6
CONTINUOUS
 62
     7
 10
-48.1546911545594
 20
-32.8452842271724
 30
0.0
 11
-46.9999937104928
 21
-33.9999930593397
 31
0.0
  0
LINE
  5
   28E
  8
0
  6
DASHED
 62
     7
 10
102.999969482419
 20
-37.1996348691833
 30
0.0
 11
102.999969482419
 21
1.63833447190606E-12
 31
0.0
  0
LINE
  5
   28F
  8
0
  6
DASHED
 62
     7
 10
-101.999954223633
 20
-37.1996348691833
 30
0.0
 11
-101.999954223633
 21
1.66343972483967E-12
 31
0.0
  0
LINE
  5
   290
  8
0
  6
DASHED
 62
     7
 10
77.0383072234475
 20
-13.9999999999984
 30
0.0
 11
77.0383072234475
 21
1.64151386145906E-12
 31
0.0
  0
LINE
  5
   291
  8
0
  6
DASHED
 62
     7
 10
63.9616473446395
 20
-13.9999999999984
 30
0.0
 11
63.9616473446395
 21
1.64311529042548E-12
 31
0.0
  0
LINE
  5
   292
  8
0
  6
DASHED
 62
     7
 10
-6.03837304265302
 20
-13.9999999999983
 30
0.0
 11
-6.03837304265302
 21
1.65168782051623E-12
 31
0.0
  0
LINE
  5
   293
  8
0
  6
DASHED
 62
     7
 10
7.03832728059653
 20
-13.9999999999983
 30
0.0
 11
7.03832728059653
 21
1.6500863865968E-12
 31
0.0
  0
LINE
  5
   294
  8
0
  6
DASHED
 62
     7
 10
-62.961682752345
 20
-13.9999999999983
 30
0.0
 11
-62.961682752345
 21
1.65865891541951E-12
 31
0.0
  0
LINE
  5
   295
  8
0
  6
DASHED
 62
     7
 10
-76.0383267373426
 20
-13.9999999999983
 30
0.0
 11
-76.0383267373426
 21
1.6602603424395E-12
 31
0.0
  0
LINE
  5
   296
  8
0
  6
DASHED
 62
     7
 10
63.9616473446395
 20
-13.9999999999983
 30
0.0
 11
77.0383072234475
 21
-13.9999999999983
 31
0.0
  0
LINE
  5
   297
  8
0
  6
DASHED
 62
     7
 10
-76.0383267373426
 20
-13.9999999999983
 30
0.0
 11
-62.961682752345
 21
-13.9999999999983
 31
0.0
  0
LINE
  5
   298
  8
0
  6
DASHED
 62
     7
 10
-6.03837304265302
 20
-13.9999999999983
 30
0.0
 11
7.03832728059653
 21
-13.9999999999983
 31
0.0
  0
LINE
  5
   299
  8
0
  6
DASHED
 62
     7
 10
-36.2499771118164
 20
-37.1996348691833
 30
0.0
 11
-36.2499771118164
 21
1.65538767493827E-12
 31
0.0
  0
LINE
  5
   29A
  8
0
  6
DASHED
 62
     7
 10
-37.4999771118164
 20
-37.1996348691833
 30
0.0
 11
-37.4999771118164
 21
1.65554075578816E-12
 31
0.0
  0
LINE
  5
   29B
  8
0
  6
DASHED
 62
     7
 10
-31.4999771118164
 20
-37.1996348691833
 30
0.0
 11
-31.4999771118164
 21
1.65480596770868E-12
 31
0.0
  0
LINE
  5
   29C
  8
0
  6
DASHED
 62
     7
 10
-32.7499771118164
 20
-37.1996348691833
 30
0.0
 11
-32.7499771118164
 21
1.65495904855857E-12
 31
0.0
  0
LINE
  5
   29D
  8
0
  6
DASHED
 62
     7
 10
32.4999771118164
 20
-37.1996348691833
 30
0.0
 11
32.4999771118164
 21
1.64696823380012E-12
 31
0.0
  0
LINE
  5
   29E
  8
0
  6
DASHED
 62
     7
 10
33.7499771118164
 20
-37.1996348691833
 30
0.0
 11
33.7499771118164
 21
1.64681515295023E-12
 31
0.0
  0
LINE
  5
   29F
  8
0
  6
DASHED
 62
     7
 10
37.2499771118164
 20
-37.1996348691833
 30
0.0
 11
37.2499771118164
 21
1.64638652657053E-12
 31
0.0
  0
LINE
  5
   2A0
  8
0
  6
DASHED
 62
     7
 10
38.4999771118164
 20
-37.1996348691833
 30
0.0
 11
38.4999771118164
 21
1.64623344572063E-12
 31
0.0
  0
LINE
  5
   2A1
  8
0
  6
DASHDOT
 62
     7
 10
0.499977111816406
 20
8.87779895024141
 30
0.0
 11
0.499977111816406
 21
17.9268570567018
 31
0.0
  0
LINE
  5
   2A2
  8
0
  6
CONTINUOUS
 62
     7
 10
-109.128208559176
 20
-37.1996348691833
 30
0.0
 11
112.190479717724
 21
-37.1996348691833
 31
0.0
  0
ENDBLK
  5
   2A3
  8
0
  6
CONTINUOUS
 62
     7
  0
BLOCK
  5
   2A4
  8
0
  6
CONTINUOUS
 62
     7
  2
*UDIM415
 70
    65
 10
0.0
 20
0.0
 30
0.0
  3
*UDIM415
  0
TEXT
  5
   2A5
  8
0
  6
CONTINUOUS
 62
     7
 10
-2.46162226570782
 20
-113.917823786982
 30
0.0
 40
3.00000002980232
  1
24
 50
359.999999896069
 41
0.933333333333333
 72
     1
 11
3.83777618408203E-2
 21
-112.417823776603
 31
0.0
 73
     2
  0
TEXT
  5
   2A6
  8
0
  6
CONTINUOUS
 62
     7
 10
-5.21162229948379
 20
-113.917823789514
 30
0.0
 40
3.00000002980232
  1
M
 50
359.999999896069
 41
0.933333333333334
 72
     1
 11
-4.1116222858429
 21
-112.417823776603
 31
0.0
 73
     2
  0
TEXT
  5
   2A7
  8
0
  6
CONTINUOUS
 62
     7
 10
3.08837779588365
 20
-113.917823786982
 30
0.0
 40
3.00000002980232
  1
x2
 50
359.999999896069
 41
0.933333333333333
 72
     1
 11
5.58837782343229
 21
-112.417823776603
 31
0.0
 73
     2
  0
LINE
  5
   2A8
  8
0
  6
CONTINUOUS
 62
     7
 10
21.3485431671143
 20
-121.49917602539
 30
0.0
 11
21.3485431671143
 21
-112.917823791504
 31
0.0
  0
LINE
  5
   2A9
  8
0
  6
CONTINUOUS
 62
     7
 10
9.34854316711426
 20
-121.49917602539
 30
0.0
 11
9.34854316711426
 21
-112.917823791504
 31
0.0
  0
LINE
  5
   2AA
  8
0
  6
CONTINUOUS
 62
     7
 10
21.3485431671143
 20
-114.917823791504
 30
0.0
 11
-5.21162229677041
 21
-114.917823791504
 31
0.0
  0
LINE
  5
   2AB
  8
0
  6
CONTINUOUS
 62
     7
 10
24.3029664443212
 20
-114.396879361552
 30
0.0
 11
21.3485431671143
 21
-114.917823791504
 31
0.0
  0
LINE
  5
   2AC
  8
0
  6
CONTINUOUS
 62
     7
 10
21.3485431671143
 20
-114.917823791504
 30
0.0
 11
24.3029664443212
 21
-115.438768221456
 31
0.0
  0
LINE
  5
   2AD
  8
0
  6
CONTINUOUS
 62
     7
 10
6.39411988990729
 20
-115.438768221456
 30
0.0
 11
9.34854316711426
 21
-114.917823791504
 31
0.0
  0
LINE
  5
   2AE
  8
0
  6
CONTINUOUS
 62
     7
 10
9.34854316711426
 20
-114.917823791504
 30
0.0
 11
6.39411988990729
 21
-114.396879361552
 31
0.0
  0
ENDBLK
  5
   2AF
  8
0
  6
CONTINUOUS
 62
     7
  0
BLOCK
  5
   2B0
  8
0
  6
CONTINUOUS
 62
     7
  2
*UDIM416
 70
    65
 10
0.0
 20
0.0
 30
0.0
  3
*UDIM416
  0
TEXT
  5
   2B1
  8
0
  6
CONTINUOUS
 62
     7
 10
-80.0843257949244
 20
-150.024176058897
 30
0.0
 40
3.00000002980232
  1
44
 50
449.999999896069
 41
0.933333333333333
 72
     1
 11
-81.5843258053064
 21
-147.52417603135
 31
0.0
 73
     2
  0
LINE
  5
   2B2
  8
0
  6
CONTINUOUS
 62
     7
 10
-66.6514568328857
 20
-136.24917602539
 30
0.0
 11
-81.0843257904053
 21
-136.24917602539
 31
0.0
  0
LINE
  5
   2B3
  8
0
  6
CONTINUOUS
 62
     7
 10
-79.0843257904053
 20
-136.24917602539
 30
0.0
 11
-79.0843257904053
 21
-158.24917602539
 31
0.0
  0
LINE
  5
   2B4
  8
0
  6
CONTINUOUS
 62
     7
 10
-78.5633813604536
 20
-139.203599302597
 30
0.0
 11
-79.0843257904053
 21
-136.24917602539
 31
0.0
  0
LINE
  5
   2B5
  8
0
  6
CONTINUOUS
 62
     7
 10
-79.0843257904053
 20
-136.24917602539
 30
0.0
 11
-79.6052702203569
 21
-139.203599302597
 31
0.0
  0
LINE
  5
   2B6
  8
0
  6
CONTINUOUS
 62
     7
 10
-79.6052702203569
 20
-155.294752748183
 30
0.0
 11
-79.0843257904053
 21
-158.24917602539
 31
0.0
  0
LINE
  5
   2B7
  8
0
  6
CONTINUOUS
 62
     7
 10
-79.0843257904053
 20
-158.24917602539
 30
0.0
 11
-78.5633813604536
 21
-155.294752748183
 31
0.0
  0
ENDBLK
  5
   2B8
  8
0
  6
CONTINUOUS
 62
     7
  0
BLOCK
  5
   2B9
  8
0
  6
CONTINUOUS
 62
     7
  2
*UDIM417
 70
    65
 10
0.0
 20
0.0
 30
0.0
  3
*UDIM417
  0
TEXT
  5
   2BA
  8
0
  6
CONTINUOUS
 62
     7
 10
-86.2328586623561
 20
-142.774176058897
 30
0.0
 40
3.00000002980232
  1
73
 50
449.999999896069
 41
0.933333333333333
 72
     1
 11
-87.7328586727381
 21
-140.27417603135
 31
0.0
 73
     2
  0
LINE
  5
   2BB
  8
0
  6
CONTINUOUS
 62
     7
 10
-60.9014568328857
 20
-121.74917602539
 30
0.0
 11
-87.2328586578369
 21
-121.74917602539
 31
0.0
  0
LINE
  5
   2BC
  8
0
  6
CONTINUOUS
 62
     7
 10
-79.2860964758372
 20
-158.24917602539
 30
0.0
 11
-87.2328586578369
 21
-158.24917602539
 31
0.0
  0
LINE
  5
   2BD
  8
0
  6
CONTINUOUS
 62
     7
 10
-85.2328586578369
 20
-121.74917602539
 30
0.0
 11
-85.2328586578369
 21
-158.24917602539
 31
0.0
  0
LINE
  5
   2BE
  8
0
  6
CONTINUOUS
 62
     7
 10
-84.7119142278853
 20
-124.703599302597
 30
0.0
 11
-85.2328586578369
 21
-121.74917602539
 31
0.0
  0
LINE
  5
   2BF
  8
0
  6
CONTINUOUS
 62
     7
 10
-85.2328586578369
 20
-121.74917602539
 30
0.0
 11
-85.7538030877886
 21
-124.703599302597
 31
0.0
  0
LINE
  5
   2C0
  8
0
  6
CONTINUOUS
 62
     7
 10
-85.7538030877886
 20
-155.294752748183
 30
0.0
 11
-85.2328586578369
 21
-158.24917602539
 31
0.0
  0
LINE
  5
   2C1
  8
0
  6
CONTINUOUS
 62
     7
 10
-85.2328586578369
 20
-158.24917602539
 30
0.0
 11
-84.7119142278853
 21
-155.294752748183
 31
0.0
  0
ENDBLK
  5
   2C2
  8
0
  6
CONTINUOUS
 62
     7
  0
BLOCK
  5
   2C3
  8
0
  6
CONTINUOUS
 62
     7
  2
*UDIM418
 70
    65
 10
0.0
 20
0.0
 30
0.0
  3
*UDIM418
  0
TEXT
  5
   2C4
  8
0
  6
CONTINUOUS
 62
     7
 10
-4.92645686639485
 20
-192.607967372187
 30
0.0
 40
3.00000002980232
  1
70
 50
359.999999896069
 41
0.933333333333333
 72
     1
 11
-2.42645683884621
 21
-191.107967361808
 31
0.0
 73
     2
  0
LINE
  5
   2C5
  8
0
  6
CONTINUOUS
 62
     7
 10
15.3485431671143
 20
-183.823626985113
 30
0.0
 11
15.3485431671143
 21
-195.607967376709
 31
0.0
  0
LINE
  5
   2C6
  8
0
  6
CONTINUOUS
 62
     7
 10
-19.6514568328857
 20
-183.823626985113
 30
0.0
 11
-19.6514568328857
 21
-195.607967376709
 31
0.0
  0
LINE
  5
   2C7
  8
0
  6
CONTINUOUS
 62
     7
 10
15.3485431671143
 20
-193.607967376709
 30
0.0
 11
-19.6514568328857
 21
-193.607967376709
 31
0.0
  0
LINE
  5
   2C8
  8
0
  6
CONTINUOUS
 62
     7
 10
12.3941198899073
 20
-194.128911806661
 30
0.0
 11
15.3485431671143
 21
-193.607967376709
 31
0.0
  0
LINE
  5
   2C9
  8
0
  6
CONTINUOUS
 62
     7
 10
15.3485431671143
 20
-193.607967376709
 30
0.0
 11
12.3941198899073
 21
-193.087022946757
 31
0.0
  0
LINE
  5
   2CA
  8
0
  6
CONTINUOUS
 62
     7
 10
-16.6970335556788
 20
-193.087022946757
 30
0.0
 11
-19.6514568328857
 21
-193.607967376709
 31
0.0
  0
LINE
  5
   2CB
  8
0
  6
CONTINUOUS
 62
     7
 10
-19.6514568328857
 20
-193.607967376709
 30
0.0
 11
-16.6970335556788
 21
-194.128911806661
 31
0.0
  0
ENDBLK
  5
   2CC
  8
0
  6
CONTINUOUS
 62
     7
  0
BLOCK
  5
   2CD
  8
0
  6
CONTINUOUS
 62
     7
  2
*UDIM419
 70
    65
 10
0.0
 20
0.0
 30
0.0
  3
*UDIM419
  0
TEXT
  5
   2CE
  8
0
  6
CONTINUOUS
 62
     7
 10
-39.9264568663949
 20
-192.607967372187
 30
0.0
 40
3.00000002980232
  1
70
 50
359.999999896069
 41
0.933333333333333
 72
     1
 11
-37.4264568388462
 21
-191.107967361808
 31
0.0
 73
     2
  0
LINE
  5
   2CF
  8
0
  6
CONTINUOUS
 62
     7
 10
-54.6514568328857
 20
-183.823626985113
 30
0.0
 11
-54.6514568328857
 21
-195.607967376709
 31
0.0
  0
LINE
  5
   2D0
  8
0
  6
CONTINUOUS
 62
     7
 10
-19.6514568328857
 20
-193.607967376709
 30
0.0
 11
-54.6514568328857
 21
-193.607967376709
 31
0.0
  0
LINE
  5
   2D1
  8
0
  6
CONTINUOUS
 62
     7
 10
-22.6058801100927
 20
-194.128911806661
 30
0.0
 11
-19.6514568328857
 21
-193.607967376709
 31
0.0
  0
LINE
  5
   2D2
  8
0
  6
CONTINUOUS
 62
     7
 10
-19.6514568328857
 20
-193.607967376709
 30
0.0
 11
-22.6058801100927
 21
-193.087022946757
 31
0.0
  0
LINE
  5
   2D3
  8
0
  6
CONTINUOUS
 62
     7
 10
-51.6970335556788
 20
-193.087022946757
 30
0.0
 11
-54.6514568328857
 21
-193.607967376709
 31
0.0
  0
LINE
  5
   2D4
  8
0
  6
CONTINUOUS
 62
     7
 10
-54.6514568328857
 20
-193.607967376709
 30
0.0
 11
-51.6970335556788
 21
-194.128911806661
 31
0.0
  0
ENDBLK
  5
   2D5
  8
0
  6
CONTINUOUS
 62
     7
  0
BLOCK
  5
   2D6
  8
0
  6
CONTINUOUS
 62
     2
  2
*HATCH305
 70
    65
 10
0.0
 20
0.0
 30
0.0
  3
*HATCH305
  0
LINE
  5
   2D7
  8
0
  6
CONTINUOUS
 62
   210
 10
-17.0
 20
-50.8822708129883
 30
0.0
 11
-14.4015083312988
 21
-53.4807662963867
 31
0.0
  0
LINE
  5
   2D8
  8
0
  6
CONTINUOUS
 62
   210
 10
-17.0
 20
-46.6396293640137
 30
0.0
 11
-12.0
 21
-51.6396331787109
 31
0.0
  0
LINE
  5
   2D9
  8
0
  6
CONTINUOUS
 62
   210
 10
-17.0
 20
-42.3969841003418
 30
0.0
 11
-12.0
 21
-47.3969879150391
 31
0.0
  0
LINE
  5
   2DA
  8
0
  6
CONTINUOUS
 62
   210
 10
-17.0
 20
-38.1543426513672
 30
0.0
 11
-9.64865303039551
 21
-45.5056953430176
 31
0.0
  0
LINE
  5
   2DB
  8
0
  6
CONTINUOUS
 62
   210
 10
-17.0
 20
-33.9116973876953
 30
0.0
 11
-6.41171216964722
 21
-44.5
 31
0.0
  0
LINE
  5
   2DC
  8
0
  6
CONTINUOUS
 62
   210
 10
-17.0
 20
-29.6690521240234
 30
0.0
 11
-2.16907382011414
 21
-44.5
 31
0.0
  0
LINE
  5
   2DD
  8
0
  6
CONTINUOUS
 62
   210
 10
-17.0
 20
-25.4264068603516
 30
0.0
 11
2.07356429100037
 21
-44.5
 31
0.0
  0
LINE
  5
   2DE
  8
0
  6
CONTINUOUS
 62
   210
 10
-17.0
 20
-21.1837615966797
 30
0.0
 11
6.31620216369629
 21
-44.5
 31
0.0
  0
LINE
  5
   2DF
  8
0
  6
CONTINUOUS
 62
   210
 10
-17.0
 20
-16.941125869751
 30
0.0
 11
-12.0
 21
-21.9411315917969
 31
0.0
  0
LINE
  5
   2E0
  8
0
  6
CONTINUOUS
 62
   210
 10
-17.0
 20
-14.8198041915894
 30
0.0
 11
-12.0
 21
-19.8198108673096
 31
0.0
  0
LINE
  5
   2E1
  8
0
  6
CONTINUOUS
 62
   210
 10
6.68016672134399
 20
-38.5
 30
0.0
 11
12.6801595687866
 21
-44.5
 31
0.0
  0
LINE
  5
   2E2
  8
0
  6
CONTINUOUS
 62
   210
 10
-4.19849824905396
 20
-25.5
 30
0.0
 11
6.5
 21
-36.1985130310059
 31
0.0
  0
LINE
  5
   2E3
  8
0
  6
CONTINUOUS
 62
   210
 10
-17.0
 20
-10.5771608352661
 30
0.0
 11
-12.0
 21
-15.577166557312
 31
0.0
  0
LINE
  5
   2E4
  8
0
  6
CONTINUOUS
 62
   210
 10
10.9228048324585
 20
-38.5
 30
0.0
 11
13.5
 21
-41.0771980285645
 31
0.0
  0
LINE
  5
   2E5
  8
0
  6
CONTINUOUS
 62
   210
 10
4.41399924457073E-2
 20
-25.5
 30
0.0
 11
6.5
 21
-31.955867767334
 31
0.0
  0
LINE
  5
   2E6
  8
0
  6
CONTINUOUS
 62
   210
 10
-17.0
 20
-6.33451700210571
 30
0.0
 11
-12.0
 21
-11.3345232009888
 31
0.0
  0
LINE
  5
   2E7
  8
0
  6
CONTINUOUS
 62
   210
 10
-17.0
 20
-4.21319532394409
 30
0.0
 11
-12.0
 21
-9.21320152282715
 31
0.0
  0
LINE
  5
   2E8
  8
0
  6
CONTINUOUS
 62
   210
 10
11.0
 20
-32.2132301330566
 30
0.0
 11
11.536768913269
 21
-32.75
 31
0.0
  0
LINE
  5
   2E9
  8
0
  6
CONTINUOUS
 62
   210
 10
6.40809726715088
 20
-25.5
 30
0.0
 11
13.5
 21
-32.591911315918
 31
0.0
  0
LINE
  5
   2EA
  8
0
  6
CONTINUOUS
 62
   210
 10
8.52941608428955
 20
-25.5
 30
0.0
 11
13.5
 21
-30.470588684082
 31
0.0
  0
LINE
  5
   2EB
  8
0
  6
CONTINUOUS
 62
   210
 10
10.6507349014282
 20
-25.5
 30
0.0
 11
13.5
 21
-28.3492660522461
 31
0.0
  0
LINE
  5
   2EC
  8
0
  6
CONTINUOUS
 62
   210
 10
12.7720537185669
 20
-25.5
 30
0.0
 11
13.5
 21
-26.2279434204102
 31
0.0
  0
LINE
  5
   2ED
  8
0
  6
CONTINUOUS
 62
   210
 10
-17.0
 20
8.51473426818848
 30
0.0
 11
-12.0
 21
3.514728307724
 31
0.0
  0
LINE
  5
   2EE
  8
0
  6
CONTINUOUS
 62
   210
 10
-17.0
 20
12.7573776245117
 30
0.0
 11
-12.0
 21
7.75737190246582
 31
0.0
  0
LINE
  5
   2EF
  8
0
  6
CONTINUOUS
 62
   210
 10
-17.0
 20
17.000020980835
 30
0.0
 11
-12.0
 21
12.0000152587891
 31
0.0
  0
LINE
  5
   2F0
  8
0
  6
CONTINUOUS
 62
   210
 10
-17.0
 20
21.2426643371582
 30
0.0
 11
-12.0
 21
16.2426586151123
 31
0.0
  0
LINE
  5
   2F1
  8
0
  6
CONTINUOUS
 62
   210
 10
-17.0
 20
25.4853096008301
 30
0.0
 11
-12.0
 21
20.4853019714355
 31
0.0
  0
LINE
  5
   2F2
  8
0
  6
CONTINUOUS
 62
   210
 10
-17.0
 20
29.7279510498047
 30
0.0
 11
-10.9912242889404
 21
23.7191677093506
 31
0.0
  0
LINE
  5
   2F3
  8
0
  6
CONTINUOUS
 62
   210
 10
-17.0
 20
33.9705963134766
 30
0.0
 11
-8.30149841308594
 21
25.2720813751221
 31
0.0
  0
LINE
  5
   2F4
  8
0
  6
CONTINUOUS
 62
   210
 10
-17.0
 20
38.2132377624512
 30
0.0
 11
-4.28677845001221
 21
25.5
 31
0.0
  0
LINE
  5
   2F5
  8
0
  6
CONTINUOUS
 62
   210
 10
-17.0
 20
42.455883026123
 30
0.0
 11
-4.41403388977051E-2
 21
25.5
 31
0.0
  0
LINE
  5
   2F6
  8
0
  6
CONTINUOUS
 62
   210
 10
-17.0
 20
46.6985282897949
 30
0.0
 11
4.1984977722168
 21
25.5
 31
0.0
  0
LINE
  5
   2F7
  8
0
  6
CONTINUOUS
 62
   210
 10
-17.0
 20
50.9411735534668
 30
0.0
 11
8.44113540649414
 21
25.5
 31
0.0
  0
LINE
  5
   2F8
  8
0
  6
CONTINUOUS
 62
   210
 10
-9.16258907318115
 20
45.2250671386719
 30
0.0
 11
10.5624551773071
 21
25.5
 31
0.0
  0
LINE
  5
   2F9
  8
0
  6
CONTINUOUS
 62
   210
 10
-6.31620216369629
 20
44.5
 30
0.0
 11
6.5
 21
31.6837825775147
 31
0.0
  0
LINE
  5
   2FA
  8
0
  6
CONTINUOUS
 62
   210
 10
-17.0
 20
57.3051338195801
 30
0.0
 11
-12.0
 21
52.3051261901855
 31
0.0
  0
LINE
  5
   2FB
  8
0
  6
CONTINUOUS
 62
   210
 10
8.805100440979
 20
31.5
 30
0.0
 11
13.5
 21
26.8050956726074
 31
0.0
  0
LINE
  5
   2FC
  8
0
  6
CONTINUOUS
 62
   210
 10
-2.07356405258179
 20
44.5
 30
0.0
 11
6.5
 21
35.9264259338379
 31
0.0
  0
LINE
  5
   2FD
  8
0
  6
CONTINUOUS
 62
   210
 10
-12.8229446411133
 20
57.3707160949707
 30
0.0
 11
-12.0
 21
56.5477714538574
 31
0.0
  0
LINE
  5
   2FE
  8
0
  6
CONTINUOUS
 62
   210
 10
11.797739982605
 20
32.75
 30
0.0
 11
13.5
 21
31.0477390289307
 31
0.0
  0
LINE
  5
   2FF
  8
0
  6
CONTINUOUS
 62
   210
 10
4.29039287567139
 20
44.5
 30
0.0
 11
10.2903852462769
 21
38.5
 31
0.0
  0
LINE
  5
   300
  8
0
  6
CONTINUOUS
 62
   210
 10
6.41171216964722
 20
44.5
 30
0.0
 11
13.5
 21
37.4117050170898
 31
0.0
  0
LINE
  5
   301
  8
0
  6
CONTINUOUS
 62
   210
 10
10.6543502807617
 20
44.5
 30
0.0
 11
13.5
 21
41.6543502807617
 31
0.0
  0
ENDBLK
  5
   302
  8
0
  6
CONTINUOUS
 62
     2
  0
BLOCK
  5
   303
  8
0
  6
CONTINUOUS
 62
     7
  2
*UDIM420
 70
    65
 10
0.0
 20
0.0
 30
0.0
  3
*UDIM420
  0
TEXT
  5
   304
  8
0
  6
CONTINUOUS
 62
     7
 10
157.301706015137
 20
-143.50052142288
 30
0.0
 40
3.00000001532688
  1
40
 50
359.999999948034
 41
0.933333333333333
 72
     1
 11
159.801706029262
 21
-142.000521417472
 31
0.0
 73
     2
  0
LINE
  5
   305
  8
0
  6
CONTINUOUS
 62
     7
 10
167.076705217361
 20
-159.928424447775
 30
0.0
 11
167.076705217361
 21
-142.500521425135
 31
0.0
  0
LINE
  5
   306
  8
0
  6
CONTINUOUS
 62
     7
 10
153.076706647873
 20
-159.928424447775
 30
0.0
 11
153.076706647873
 21
-142.500521425135
 31
0.0
  0
LINE
  5
   307
  8
0
  6
CONTINUOUS
 62
     7
 10
167.076705217361
 20
-144.500521425135
 30
0.0
 11
153.076706647873
 21
-144.500521425135
 31
0.0
  0
LINE
  5
   308
  8
0
  6
CONTINUOUS
 62
     7
 10
170.031128494568
 20
-143.979576995184
 30
0.0
 11
167.076705217361
 21
-144.500521425135
 31
0.0
  0
LINE
  5
   309
  8
0
  6
CONTINUOUS
 62
     7
 10
167.076705217361
 20
-144.500521425135
 30
0.0
 11
170.031128494568
 21
-145.021465855087
 31
0.0
  0
LINE
  5
   30A
  8
0
  6
CONTINUOUS
 62
     7
 10
150.122283370666
 20
-145.021465855087
 30
0.0
 11
153.076706647873
 21
-144.500521425135
 31
0.0
  0
LINE
  5
   30B
  8
0
  6
CONTINUOUS
 62
     7
 10
153.076706647873
 20
-144.500521425135
 30
0.0
 11
150.122283370666
 21
-143.979576995184
 31
0.0
  0
ENDBLK
  5
   30C
  8
0
  6
CONTINUOUS
 62
     7
  0
BLOCK
  5
   30D
  8
0
  6
CONTINUOUS
 62
     1
  2
*UDIM421
 70
    65
 10
0.0
 20
0.0
 30
0.0
  3
*UDIM421
  0
TEXT
  5
   30E
  8
0
  6
CONTINUOUS
 62
     1
 10
125.249837710688
 20
-169.301706713945
 30
0.0
 40
2.00000015624928
  1
SEZ.A-A
 50
359.999999948034
 41
0.749999837428356
 72
     2
 11
135.449836279239
 21
-169.301706723145
 31
0.0
  0
LINE
  5
   30F
  8
0
  6
CONTINUOUS
 62
     1
 10
125.249838339423
 20
-170.301708319519
 30
0.0
 11
135.449836907974
 21
-170.301705117571
 31
0.0
  0
ENDBLK
  5
   310
  8
0
  6
CONTINUOUS
 62
     1
  0
BLOCK
  5
   311
  8
0
  6
CONTINUOUS
 62
     7
  2
*UDIM422
 70
    65
 10
0.0
 20
0.0
 30
0.0
  3
*UDIM422
  0
TEXT
  5
   312
  8
0
  6
CONTINUOUS
 62
     7
 10
189.245473447092
 20
-164.017819066446
 30
0.0
 40
3.00000001532688
  1
12
 50
89.9999999480344
 41
0.933333333333333
 72
     1
 11
187.745473441692
 21
-161.517819052315
 31
0.0
 73
     2
  0
LINE
  5
   313
  8
0
  6
CONTINUOUS
 62
     7
 10
169.174568076264
 20
-168.803423643112
 30
0.0
 11
192.245473449356
 21
-168.803423643112
 31
0.0
  0
LINE
  5
   314
  8
0
  6
CONTINUOUS
 62
     7
 10
168.993372039262
 20
-164.603424072266
 30
0.0
 11
192.245473449356
 21
-164.603424072266
 31
0.0
  0
LINE
  5
   315
  8
0
  6
CONTINUOUS
 62
     7
 10
190.245473449356
 20
-168.803423643112
 30
0.0
 11
190.245473449356
 21
-159.017819039543
 31
0.0
  0
LINE
  5
   316
  8
0
  6
CONTINUOUS
 62
     7
 10
190.766417879308
 20
-171.757846920319
 30
0.0
 11
190.245473449356
 21
-168.803423643112
 31
0.0
  0
LINE
  5
   317
  8
0
  6
CONTINUOUS
 62
     7
 10
190.245473449356
 20
-168.803423643112
 30
0.0
 11
189.724529019404
 21
-171.757846920319
 31
0.0
  0
LINE
  5
   318
  8
0
  6
CONTINUOUS
 62
     7
 10
189.724529019404
 20
-161.649000795059
 30
0.0
 11
190.245473449356
 21
-164.603424072266
 31
0.0
  0
LINE
  5
   319
  8
0
  6
CONTINUOUS
 62
     7
 10
190.245473449356
 20
-164.603424072266
 30
0.0
 11
190.766417879308
 21
-161.649000795059
 31
0.0
  0
ENDBLK
  5
   31A
  8
0
  6
CONTINUOUS
 62
     7
  0
BLOCK
  5
   31B
  8
0
  6
CONTINUOUS
 62
     7
  2
*UDIM423
 70
    65
 10
0.0
 20
0.0
 30
0.0
  3
*UDIM423
  0
TEXT
  5
   31C
  8
0
  6
CONTINUOUS
 62
     7
 10
142.429642504674
 20
-154.764023559098
 30
0.0
 40
3.00000001532688
  1
6,5
 50
359.999999948034
 41
0.933333333333334
 72
     1
 11
146.329642525952
 21
-153.264023554952
 31
0.0
 73
     2
  0
TEXT
  5
   31D
  8
0
  6
CONTINUOUS
 62
     7
 10
139.279642505355
 20
-154.764023561623
 30
0.0
 40
3.00000001532688
  1
Ø
 50
359.999999948034
 41
0.933333333333333
 72
     1
 11
140.379642512328
 21
-153.264023554952
 31
0.0
 73
     2
  0
LINE
  5
   31E
  8
0
  6
CONTINUOUS
 62
     7
 10
157.276706218719
 20
-163.02300993352
 30
0.0
 11
157.276706218719
 21
-153.764023562615
 31
0.0
  0
LINE
  5
   31F
  8
0
  6
CONTINUOUS
 62
     7
 10
155.001706451178
 20
-163.111166551731
 30
0.0
 11
155.001706451178
 21
-153.764023562615
 31
0.0
  0
LINE
  5
   320
  8
0
  6
CONTINUOUS
 62
     7
 10
157.276706218719
 20
-155.764023562615
 30
0.0
 11
139.279642506708
 21
-155.764023562615
 31
0.0
  0
LINE
  5
   321
  8
0
  6
CONTINUOUS
 62
     7
 10
160.231129495926
 20
-155.243079132664
 30
0.0
 11
157.276706218719
 21
-155.764023562615
 31
0.0
  0
LINE
  5
   322
  8
0
  6
CONTINUOUS
 62
     7
 10
157.276706218719
 20
-155.764023562615
 30
0.0
 11
160.231129495926
 21
-156.284967992567
 31
0.0
  0
LINE
  5
   323
  8
0
  6
CONTINUOUS
 62
     7
 10
152.047283173971
 20
-156.284967992567
 30
0.0
 11
155.001706451178
 21
-155.764023562615
 31
0.0
  0
LINE
  5
   324
  8
0
  6
CONTINUOUS
 62
     7
 10
155.001706451178
 20
-155.764023562615
 30
0.0
 11
152.047283173971
 21
-155.243079132664
 31
0.0
  0
ENDBLK
  5
   325
  8
0
  6
CONTINUOUS
 62
     7
  0
BLOCK
  5
   326
  8
0
  6
CONTINUOUS
 62
     7
  2
*UDIM424
 70
    65
 10
0.0
 20
0.0
 30
0.0
  3
*UDIM424
  0
TEXT
  5
   327
  8
0
  6
CONTINUOUS
 62
     7
 10
168.17854967234
 20
-150.11874565103
 30
0.0
 40
3.00000001532688
  1
22,5
 50
359.999999948034
 41
0.933333333333333
 72
     1
 11
173.47854970077
 21
-148.618745648147
 31
0.0
 73
     2
  0
TEXT
  5
   328
  8
0
  6
CONTINUOUS
 62
     7
 10
180.578549744782
 20
-149.668745693975
 30
0.0
 40
2.10000009834763
  1
±0,1
 50
359.999999948034
 41
0.933333333333333
 72
     1
 11
184.288549919477
 21
-148.618745648147
 31
0.0
 73
     2
  0
LINE
  5
   329
  8
0
  6
CONTINUOUS
 62
     7
 10
164.014206025948
 20
-160.13227047166
 30
0.0
 11
164.01421148493
 21
-149.118745655811
 31
0.0
  0
LINE
  5
   32A
  8
0
  6
CONTINUOUS
 62
     7
 10
156.139206832138
 20
-160.13227047166
 30
0.0
 11
156.139212307941
 21
-149.118745655811
 31
0.0
  0
LINE
  5
   32B
  8
0
  6
CONTINUOUS
 62
     7
 10
187.998550093224
 20
-151.11874565581
 30
0.0
 11
156.139211313563
 21
-151.11874565581
 31
0.0
  0
LINE
  5
   32C
  8
0
  6
CONTINUOUS
 62
     7
 10
166.968633770814
 20
-150.597801225859
 30
0.0
 11
164.014210493607
 21
-151.11874565581
 31
0.0
  0
LINE
  5
   32D
  8
0
  6
CONTINUOUS
 62
     7
 10
164.014210493607
 20
-151.11874565581
 30
0.0
 11
166.968633770814
 21
-151.639690085762
 31
0.0
  0
LINE
  5
   32E
  8
0
  6
CONTINUOUS
 62
     7
 10
153.184788036356
 20
-151.639690085762
 30
0.0
 11
156.139211313563
 21
-151.11874565581
 31
0.0
  0
LINE
  5
   32F
  8
0
  6
CONTINUOUS
 62
     7
 10
156.139211313563
 20
-151.11874565581
 30
0.0
 11
153.184788036356
 21
-150.597801225859
 31
0.0
  0
ENDBLK
  5
   330
  8
0
  6
CONTINUOUS
 62
     7
  0
ENDSEC
  0
SECTION
  2
ENTITIES
  0
LINE
  5
   331
  8
0
  6
CONTINUOUS
 62
     7
 10
-70.776388168335
 20
39.2984161376953
 30
0.0
 11
-71.776388168335
 21
39.2984161376953
 31
0.0
  0
LINE
  5
   332
  8
0
  6
CONTINUOUS
 62
     7
 10
-71.7764186859126
 20
28.5484412341077
 30
0.0
 11
-71.7764186859126
 21
39.2984153665495
 31
0.0
  0
LINE
  5
   333
  8
0
  6
CONTINUOUS
 62
     7
 10
-70.776388168335
 20
39.2984161376953
 30
0.0
 11
-70.776388168335
 21
40.2984161376953
 31
0.0
  0
LINE
  5
   334
  8
0
  6
CONTINUOUS
 62
     7
 10
-38.1514414713809
 20
40.7984237670869
 30
0.0
 11
-70.2764124491687
 21
40.7984237670869
 31
0.0
  0
LINE
  5
   335
  8
0
  6
CONTINUOUS
 62
     1
 10
-48.7760996348136
 20
37.0484161376953
 30
0.0
 11
-51.5160193443298
 21
37.0484161376953
 31
0.0
  0
LINE
  5
   336
  8
0
  6
CONTINUOUS
 62
     1
 10
-48.7760996348136
 20
31.0484161376953
 30
0.0
 11
-51.5160193443298
 21
31.0484161376953
 31
0.0
  0
LINE
  5
   337
  8
0
  6
CONTINUOUS
 62
     1
 10
-57.5367915444711
 20
31.0484159237054
 30
0.0
 11
-60.2761716136692
 21
31.0484252556095
 31
0.0
  0
LINE
  5
   338
  8
0
  6
CONTINUOUS
 62
     1
 10
-60.276171611058
 20
37.0484070204214
 30
0.0
 11
-57.5367877038742
 21
37.0484163523685
 31
0.0
  0
LINE
  5
   339
  8
0
  6
CONTINUOUS
 62
     7
 10
-70.776388168335
 20
28.5484409916229
 30
0.0
 11
-70.776388168335
 21
39.2984161376953
 31
0.0
  0
LINE
  5
   33A
  8
0
  6
CONTINUOUS
 62
     7
 10
-33.327614606539
 20
40.7984161376924
 30
0.0
 11
-35.9014414713809
 21
40.7984161376924
 31
0.0
  0
LINE
  5
   33B
  8
0
  6
CONTINUOUS
 62
     7
 10
32.7235813140864
 20
28.5484158952225
 30
0.0
 11
32.7235813140864
 21
39.2984160475092
 31
0.0
  0
CIRCLE
  5
   33C
  8
0
  6
CONTINUOUS
 62
     1
 10
-68.7764545348723
 20
38.798420679321
 30
0.0
 40
0.69997229631058
  0
LINE
  5
   33D
  8
0
  6
DASHDOT
 62
     7
 10
-67.6364724273864
 20
38.798520132936
 30
0.0
 11
-69.9163120114627
 21
38.798520132936
 31
0.0
  0
LINE
  5
   33E
  8
0
  6
DASHDOT
 62
     7
 10
-68.7763922194246
 20
37.6586079702924
 30
0.0
 11
-68.7763922194246
 21
39.9384322955797
 31
0.0
  0
CIRCLE
  5
   33F
  8
0
  6
CONTINUOUS
 62
     1
 10
-68.7763922194246
 20
38.798520132936
 30
0.0
 40
0.949926802203016
  0
ARC
  5
   340
  8
0
  6
CONTINUOUS
 62
     7
 10
-70.2763897798121
 20
40.2984136136126
 30
0.0
 40
0.499994297126469
 50
90.0005173512766
 51
180.001122723422
  0
LINE
  5
   341
  8
0
  6
DASHDOT
 62
     7
 10
-56.6759567774946
 20
34.0484386000175
 30
0.0
 11
-63.8763354907613
 21
34.0484386000175
 31
0.0
  0
LINE
  5
   342
  8
0
  6
DASHDOT
 62
     7
 10
-60.276146134128
 20
30.4482416139897
 30
0.0
 11
-60.276146134128
 21
37.6486355860454
 31
0.0
  0
ARC
  5
   343
  8
0
  6
CONTINUOUS
 62
     1
 10
-60.276146134128
 20
34.0484386000176
 30
0.0
 40
3.0001641550232
 50
90.0052836333811
 51
269.995265213079
  0
LINE
  5
   344
  8
0
  6
DASHDOT
 62
     7
 10
-49.4263084862265
 20
34.0485029427737
 30
0.0
 11
-59.6265210957863
 21
34.0485029427737
 31
0.0
  0
ARC
  5
   345
  8
0
  6
CONTINUOUS
 62
     1
 10
-54.5263957175201
 20
34.0485029427737
 30
0.0
 40
4.25008540840222
 50
224.901380849089
 51
315.098568474349
  0
LINE
  5
   346
  8
0
  6
DASHDOT
 62
     7
 10
-45.1763540697725
 20
34.0484388593296
 30
0.0
 11
-52.3758451998547
 21
34.0484388593296
 31
0.0
  0
LINE
  5
   347
  8
0
  6
DASHDOT
 62
     7
 10
-48.7760996348136
 20
30.4486856648939
 30
0.0
 11
-48.7760996348136
 21
37.6481920537652
 31
0.0
  0
ARC
  5
   348
  8
0
  6
CONTINUOUS
 62
     1
 10
-48.7760996348136
 20
34.0484388593296
 30
0.0
 40
2.99979432869636
 50
269.999999948034
 51
449.999945306521
  0
ARC
  5
   349
  8
0
  6
CONTINUOUS
 62
     1
 10
-54.5263957175201
 20
34.0485029427737
 30
0.0
 40
4.25008540840222
 50
404.897963373026
 51
495.101923170488
  0
LINE
  5
   34A
  8
0
  6
CONTINUOUS
 62
     7
 10
-40.2409472122198
 20
28.7984285646599
 30
0.0
 11
-70.776388168335
 21
28.7984285646599
 31
0.0
  0
LINE
  5
   34B
  8
0
  6
CONTINUOUS
 62
     7
 10
-70.6692295074463
 20
28.5484409656393
 30
0.0
 11
-70.6692295074463
 21
28.7984237670898
 31
0.0
  0
LINE
  5
   34C
  8
0
  6
CONTINUOUS
 62
     1
 10
32.848592443189
 20
4.4234158952225
 30
0.0
 11
32.848592443189
 21
41.4234161376924
 31
0.0
  0
LINE
  5
   34D
  8
0
  6
CONTINUOUS
 62
     1
 10
32.848592443189
 20
-93.8265686035186
 30
0.0
 11
32.848592443189
 21
-48.0765688459884
 31
0.0
  0
LINE
  5
   34E
  8
0
  6
CONTINUOUS
 62
     1
 10
-71.901407556811
 20
-91.8015844862439
 30
0.0
 11
-71.901407556811
 21
-48.0765993635666
 31
0.0
  0
LINE
  5
   34F
  8
0
  6
CONTINUOUS
 62
     1
 10
-71.901407556811
 20
4.42338537764438
 30
0.0
 11
-71.901407556811
 21
28.5484158952225
 31
0.0
  0
LINE
  5
   350
  8
0
  6
CONTINUOUS
 62
     1
 10
32.8485924431889
 20
28.5484158952225
 30
0.0
 11
-71.9014075568111
 21
28.5484158952225
 31
0.0
  0
LINE
  5
   351
  8
0
  6
CONTINUOUS
 62
     1
 10
32.348592443189
 20
-59.4515841047775
 30
0.0
 11
18.4735813140869
 21
-59.4515841047775
 31
0.0
  0
LINE
  5
   352
  8
0
  6
CONTINUOUS
 62
     1
 10
-71.901407556811
 20
-48.076591734172
 30
0.0
 11
-71.901407556811
 21
4.42340826582797
 31
0.0
  0
LINE
  5
   353
  8
0
  6
CONTINUOUS
 62
     1
 10
32.848592443189
 20
-48.076591734172
 30
0.0
 11
32.848592443189
 21
4.42340826582797
 31
0.0
  0
LINE
  5
   354
  8
0
  6
CONTINUOUS
 62
     1
 10
32.848592443189
 20
-48.076591734172
 30
0.0
 11
18.4735813140869
 21
-48.076591734172
 31
0.0
  0
LINE
  5
   355
  8
0
  6
CONTINUOUS
 62
     1
 10
32.5985924431889
 20
4.42340826582797
 30
0.0
 11
18.4735813140869
 21
4.42340826582797
 31
0.0
  0
LINE
  5
   356
  8
0
  6
CONTINUOUS
 62
     1
 10
32.848592443189
 20
-58.9515841345798
 30
0.0
 11
18.4735813140869
 21
-58.9515841345798
 31
0.0
  0
LINE
  5
   357
  8
0
  6
CONTINUOUS
 62
     1
 10
-71.4014075866134
 20
-59.4515841047775
 30
0.0
 11
-71.4014075866134
 21
-58.9515841345798
 31
0.0
  0
LINE
  5
   358
  8
0
  6
CONTINUOUS
 62
     1
 10
32.348592443189
 20
-59.4515841047775
 30
0.0
 11
32.348592443189
 21
-58.9515841345798
 31
0.0
  0
LINE
  5
   359
  8
0
  6
CONTINUOUS
 62
     1
 10
30.7485863396733
 20
4.42340826582797
 30
0.0
 11
30.7485863396733
 21
28.5484158952225
 31
0.0
  0
LINE
  5
   35A
  8
0
  6
CONTINUOUS
 62
     1
 10
31.8985878655522
 20
4.42340826582797
 30
0.0
 11
31.8985878655522
 21
28.5484158952225
 31
0.0
  0
LINE
  5
   35B
  8
0
  6
CONTINUOUS
 62
     1
 10
23.5485893914311
 20
4.42340826582797
 30
0.0
 11
23.5485893914311
 21
28.5484158952225
 31
0.0
  0
LINE
  5
   35C
  8
0
  6
CONTINUOUS
 62
     1
 10
25.3485848137944
 20
4.42340826582797
 30
0.0
 11
25.3485848137944
 21
28.5484158952225
 31
0.0
  0
LINE
  5
   35D
  8
0
  6
CONTINUOUS
 62
     1
 10
27.1485878655522
 20
4.42340826582797
 30
0.0
 11
27.1485878655522
 21
28.5484158952225
 31
0.0
  0
LINE
  5
   35E
  8
0
  6
CONTINUOUS
 62
     1
 10
28.9485909173101
 20
4.42340826582797
 30
0.0
 11
28.9485909173101
 21
28.5484158952225
 31
0.0
  0
LINE
  5
   35F
  8
0
  6
CONTINUOUS
 62
     1
 10
15.44859091731
 20
18.4234073121542
 30
0.0
 11
15.44859091731
 21
28.5484158952225
 31
0.0
  0
LINE
  5
   360
  8
0
  6
CONTINUOUS
 62
     1
 10
16.5985848137944
 20
18.4234073121542
 30
0.0
 11
16.5985848137944
 21
28.5484158952225
 31
0.0
  0
LINE
  5
   361
  8
0
  6
CONTINUOUS
 62
     1
 10
18.1485878655522
 20
18.3466965324368
 30
0.0
 11
18.1485878655522
 21
28.5484158952225
 31
0.0
  0
LINE
  5
   362
  8
0
  6
CONTINUOUS
 62
     1
 10
19.94859091731
 20
4.42340826582797
 30
0.0
 11
19.94859091731
 21
28.5484158952225
 31
0.0
  0
LINE
  5
   363
  8
0
  6
CONTINUOUS
 62
     1
 10
21.7485863396733
 20
4.42340826582797
 30
0.0
 11
21.7485863396733
 21
28.5484158952225
 31
0.0
  0
LINE
  5
   364
  8
0
  6
CONTINUOUS
 62
     1
 10
25.3485848137944
 20
-48.076591734172
 30
0.0
 11
25.3485848137944
 21
4.42340826582797
 31
0.0
  0
LINE
  5
   365
  8
0
  6
CONTINUOUS
 62
     1
 10
28.9485909173101
 20
-48.076591734172
 30
0.0
 11
28.9485909173101
 21
4.42340826582797
 31
0.0
  0
LINE
  5
   366
  8
0
  6
CONTINUOUS
 62
     1
 10
27.1485878655522
 20
-48.076591734172
 30
0.0
 11
27.1485878655522
 21
4.42340826582797
 31
0.0
  0
LINE
  5
   367
  8
0
  6
CONTINUOUS
 62
     1
 10
21.7485863396733
 20
-48.076591734172
 30
0.0
 11
21.7485863396733
 21
4.42340826582797
 31
0.0
  0
LINE
  5
   368
  8
0
  6
CONTINUOUS
 62
     1
 10
19.94859091731
 20
-48.076591734172
 30
0.0
 11
19.94859091731
 21
4.42340826582797
 31
0.0
  0
LINE
  5
   369
  8
0
  6
CONTINUOUS
 62
     1
 10
30.7485863396733
 20
-48.076591734172
 30
0.0
 11
30.7485863396733
 21
4.42340826582797
 31
0.0
  0
LINE
  5
   36A
  8
0
  6
CONTINUOUS
 62
     1
 10
31.8985878655522
 20
-48.076591734172
 30
0.0
 11
31.8985878655522
 21
4.42340826582797
 31
0.0
  0
LINE
  5
   36B
  8
0
  6
CONTINUOUS
 62
     1
 10
30.7485863396733
 20
-58.9515841345798
 30
0.0
 11
30.7485863396733
 21
-48.0765917639744
 31
0.0
  0
LINE
  5
   36C
  8
0
  6
CONTINUOUS
 62
     1
 10
31.8985878655522
 20
-58.9515841345798
 30
0.0
 11
31.8985878655522
 21
-48.0765917639744
 31
0.0
  0
LINE
  5
   36D
  8
0
  6
CONTINUOUS
 62
     1
 10
23.5485893914311
 20
-58.9515841345798
 30
0.0
 11
23.5485893914311
 21
4.42340826582797
 31
0.0
  0
LINE
  5
   36E
  8
0
  6
CONTINUOUS
 62
     1
 10
25.3485848137944
 20
-58.9515841345798
 30
0.0
 11
25.3485848137944
 21
-48.0765917639744
 31
0.0
  0
LINE
  5
   36F
  8
0
  6
CONTINUOUS
 62
     1
 10
27.1485878655522
 20
-58.9515841345798
 30
0.0
 11
27.1485878655522
 21
-48.0765917639744
 31
0.0
  0
LINE
  5
   370
  8
0
  6
CONTINUOUS
 62
     1
 10
28.9485909173101
 20
-58.9515841345798
 30
0.0
 11
28.9485909173101
 21
-48.0765917639744
 31
0.0
  0
LINE
  5
   371
  8
0
  6
CONTINUOUS
 62
     1
 10
15.44859091731
 20
-58.9515841345798
 30
0.0
 11
15.44859091731
 21
-48.0765917639744
 31
0.0
  0
LINE
  5
   372
  8
0
  6
CONTINUOUS
 62
     1
 10
19.94859091731
 20
-58.9515841345798
 30
0.0
 11
19.94859091731
 21
-48.0765917639744
 31
0.0
  0
LINE
  5
   373
  8
0
  6
CONTINUOUS
 62
     1
 10
21.7485863396733
 20
-58.9515841345798
 30
0.0
 11
21.7485863396733
 21
-48.0765917639744
 31
0.0
  0
LINE
  5
   374
  8
0
  6
CONTINUOUS
 62
     1
 10
-69.8014076521785
 20
4.42340826582797
 30
0.0
 11
-69.8014076521785
 21
28.5484158952225
 31
0.0
  0
LINE
  5
   375
  8
0
  6
CONTINUOUS
 62
     1
 10
-70.9514077475459
 20
4.42340826582797
 30
0.0
 11
-70.9514077475459
 21
28.5484158952225
 31
0.0
  0
LINE
  5
   376
  8
0
  6
CONTINUOUS
 62
     1
 10
-62.6014121344478
 20
4.42340826582797
 30
0.0
 11
-62.6014121344478
 21
28.5484158952225
 31
0.0
  0
LINE
  5
   377
  8
0
  6
CONTINUOUS
 62
     1
 10
-64.401407556811
 20
4.42340826582797
 30
0.0
 11
-64.401407556811
 21
28.5484158952225
 31
0.0
  0
LINE
  5
   378
  8
0
  6
CONTINUOUS
 62
     1
 10
-66.2014077475459
 20
4.42340826582797
 30
0.0
 11
-66.2014077475459
 21
28.5484158952225
 31
0.0
  0
LINE
  5
   379
  8
0
  6
CONTINUOUS
 62
     1
 10
-68.0014079382808
 20
4.42340826582797
 30
0.0
 11
-68.0014079382808
 21
28.5484158952225
 31
0.0
  0
LINE
  5
   37A
  8
0
  6
CONTINUOUS
 62
     1
 10
-54.5014136603267
 20
18.4234073121542
 30
0.0
 11
-54.5014136603267
 21
28.5484158952225
 31
0.0
  0
LINE
  5
   37B
  8
0
  6
CONTINUOUS
 62
     1
 10
-55.401407556811
 20
18.4234073121542
 30
0.0
 11
-55.401407556811
 21
28.5484158952225
 31
0.0
  0
LINE
  5
   37C
  8
0
  6
CONTINUOUS
 62
     1
 10
-57.2014106085689
 20
18.4234073121542
 30
0.0
 11
-57.2014106085689
 21
28.5484158952225
 31
0.0
  0
LINE
  5
   37D
  8
0
  6
CONTINUOUS
 62
     1
 10
-59.0014136603267
 20
4.42340826582797
 30
0.0
 11
-59.0014136603267
 21
28.5484158952225
 31
0.0
  0
LINE
  5
   37E
  8
0
  6
CONTINUOUS
 62
     1
 10
-60.8014090826899
 20
4.42340826582797
 30
0.0
 11
-60.8014090826899
 21
28.5484158952225
 31
0.0
  0
LINE
  5
   37F
  8
0
  6
CONTINUOUS
 62
     1
 10
-64.4014080336482
 20
-48.076591734172
 30
0.0
 11
-64.4014080336482
 21
4.42340826582797
 31
0.0
  0
LINE
  5
   380
  8
0
  6
CONTINUOUS
 62
     1
 10
-62.6014121344478
 20
-48.076591734172
 30
0.0
 11
-62.6014121344478
 21
4.42340826582797
 31
0.0
  0
LINE
  5
   381
  8
0
  6
CONTINUOUS
 62
     1
 10
-68.0014079382808
 20
-48.076591734172
 30
0.0
 11
-68.0014079382808
 21
4.42340826582797
 31
0.0
  0
LINE
  5
   382
  8
0
  6
CONTINUOUS
 62
     1
 10
-66.2014077475459
 20
-48.076591734172
 30
0.0
 11
-66.2014077475459
 21
4.42340826582797
 31
0.0
  0
LINE
  5
   383
  8
0
  6
CONTINUOUS
 62
     1
 10
-60.8014090826899
 20
-48.076591734172
 30
0.0
 11
-60.8014090826899
 21
4.42340826582797
 31
0.0
  0
LINE
  5
   384
  8
0
  6
CONTINUOUS
 62
     1
 10
-59.0014136603267
 20
-48.076591734172
 30
0.0
 11
-59.0014136603267
 21
4.42340826582797
 31
0.0
  0
LINE
  5
   385
  8
0
  6
CONTINUOUS
 62
     1
 10
-69.8014076521785
 20
-48.076591734172
 30
0.0
 11
-69.8014076521785
 21
4.42340826582797
 31
0.0
  0
LINE
  5
   386
  8
0
  6
CONTINUOUS
 62
     1
 10
-70.9514077475459
 20
-48.076591734172
 30
0.0
 11
-70.9514077475459
 21
4.42340826582797
 31
0.0
  0
LINE
  5
   387
  8
0
  6
CONTINUOUS
 62
     1
 10
-69.8014076521785
 20
-58.9515841345798
 30
0.0
 11
-69.8014076521785
 21
-48.0765917639744
 31
0.0
  0
LINE
  5
   388
  8
0
  6
CONTINUOUS
 62
     1
 10
-70.9514077475459
 20
-58.9515841345798
 30
0.0
 11
-70.9514077475459
 21
-48.0765917639744
 31
0.0
  0
LINE
  5
   389
  8
0
  6
CONTINUOUS
 62
     1
 10
-62.6014121344478
 20
-58.9515841345798
 30
0.0
 11
-62.6014121344478
 21
-48.0765917639744
 31
0.0
  0
LINE
  5
   38A
  8
0
  6
CONTINUOUS
 62
     1
 10
-64.401407556811
 20
-58.9515841345798
 30
0.0
 11
-64.401407556811
 21
-48.0765917639744
 31
0.0
  0
LINE
  5
   38B
  8
0
  6
CONTINUOUS
 62
     1
 10
-66.2014077475459
 20
-58.9515841345798
 30
0.0
 11
-66.2014077475459
 21
-48.0765917639744
 31
0.0
  0
LINE
  5
   38C
  8
0
  6
CONTINUOUS
 62
     1
 10
-68.0014079382808
 20
-58.9515841345798
 30
0.0
 11
-68.0014079382808
 21
-48.0765917639744
 31
0.0
  0
LINE
  5
   38D
  8
0
  6
CONTINUOUS
 62
     1
 10
-54.5014136603267
 20
-58.9515841345798
 30
0.0
 11
-54.5014136603267
 21
-48.0765917639744
 31
0.0
  0
LINE
  5
   38E
  8
0
  6
CONTINUOUS
 62
     1
 10
-59.0014136603267
 20
-58.9515841345798
 30
0.0
 11
-59.0014136603267
 21
-48.0765917639744
 31
0.0
  0
LINE
  5
   38F
  8
0
  6
CONTINUOUS
 62
     1
 10
-60.8014090826899
 20
-58.9515841345798
 30
0.0
 11
-60.8014090826899
 21
-48.0765917639744
 31
0.0
  0
LINE
  5
   390
  8
0
  6
CONTINUOUS
 62
     1
 10
14.7235813140869
 20
26.0484158952225
 30
0.0
 11
-53.7764186859131
 21
26.0484158952225
 31
0.0
  0
LINE
  5
   391
  8
0
  6
CONTINUOUS
 62
     1
 10
14.7235813140869
 20
18.4234073121542
 30
0.0
 11
14.7235813140869
 21
26.0484158952225
 31
0.0
  0
LINE
  5
   392
  8
0
  6
CONTINUOUS
 62
     1
 10
-53.7764186859131
 20
18.4234073121542
 30
0.0
 11
-53.7764186859131
 21
26.0484158952225
 31
0.0
  0
ARC
  5
   393
  8
0
  6
CONTINUOUS
 62
     1
 10
-71.6514075568111
 20
4.17340826582797
 30
0.0
 40
0.25
 50
89.9999999480344
 51
179.999999948034
  0
ARC
  5
   394
  8
0
  6
CONTINUOUS
 62
     1
 10
32.5985924431889
 20
4.17340826582799
 30
0.0
 40
0.25
 50
359.999999948034
 51
449.999999948034
  0
ARC
  5
   395
  8
0
  6
CONTINUOUS
 62
     1
 10
32.598592443189
 20
-47.826591734172
 30
0.0
 40
0.25
 50
269.999999948034
 51
359.999999948034
  0
ARC
  5
   396
  8
0
  6
CONTINUOUS
 62
     1
 10
-71.651407556811
 20
-47.826591734172
 30
0.0
 40
0.25
 50
179.999999948034
 51
269.999999948034
  0
LINE
  5
   397
  8
0
  6
CONTINUOUS
 62
     3
 10
15.4735813140866
 20
-47.8265764383464
 30
0.0
 11
15.4735813140866
 21
-43.5765767176846
 31
0.0
  0
LINE
  5
   398
  8
0
  6
CONTINUOUS
 62
     3
 10
15.2235812770514
 20
-48.0765764753823
 30
0.0
 11
-54.2764034641603
 21
-48.0765764753823
 31
0.0
  0
LINE
  5
   399
  8
0
  6
CONTINUOUS
 62
     3
 10
-54.5264034271236
 20
-47.8265765124182
 30
0.0
 11
-54.5264034271236
 21
-43.5765767176847
 31
0.0
  0
LINE
  5
   39A
  8
0
  6
CONTINUOUS
 62
     3
 10
15.2235734359069
 20
4.42340826582848
 30
0.0
 11
-54.2764110841613
 21
4.42340826582848
 31
0.0
  0
LINE
  5
   39B
  8
0
  6
CONTINUOUS
 62
     1
 10
15.4735507965088
 20
-1.57659173417183
 30
0.0
 11
-54.526403427124
 21
-1.57659173417183
 31
0.0
  0
LINE
  5
   39C
  8
0
  6
CONTINUOUS
 62
     1
 10
15.4735660552979
 20
3.42340826582817
 30
0.0
 11
-54.526403427124
 21
3.42340826582817
 31
0.0
  0
LINE
  5
   39D
  8
0
  6
CONTINUOUS
 62
     1
 10
-9.02641868591308
 20
-15.2015764753828
 30
0.0
 11
-30.0264186859131
 21
-15.2015764753828
 31
0.0
  0
LINE
  5
   39E
  8
0
  6
CONTINUOUS
 62
     7
 10
-9.02641868591306
 20
-46.041127809735
 30
0.0
 11
-9.02641868591306
 21
-32.8301013813522
 31
0.0
  0
LINE
  5
   39F
  8
0
  6
CONTINUOUS
 62
     7
 10
-30.0264186859131
 20
-46.041127809735
 30
0.0
 11
-30.0264186859131
 21
-32.8301013813522
 31
0.0
  0
LINE
  5
   3A0
  8
0
  6
CONTINUOUS
 62
     7
 10
-9.02641868591308
 20
-14.9649889509687
 30
0.0
 11
-30.0264186859131
 21
-14.9649889509687
 31
0.0
  0
LINE
  5
   3A1
  8
0
  6
CONTINUOUS
 62
     1
 10
-19.5264186859131
 20
-59.2463618338749
 30
0.0
 11
-19.5264186859131
 21
43.2201825719918
 31
0.0
  0
LINE
  5
   3A2
  8
0
  6
CONTINUOUS
 62
   218
 10
15.4735965728726
 20
-13.0765762542279
 30
0.0
 11
15.4735965728726
 21
4.17341221873769
 31
0.0
  0
LINE
  5
   3A3
  8
0
  6
CONTINUOUS
 62
   218
 10
15.4735813140869
 20
-33.5765764753828
 30
0.0
 11
15.4735813140869
 21
-23.0765764753828
 31
0.0
  0
LINE
  5
   3A4
  8
0
  6
CONTINUOUS
 62
   218
 10
15.4735813140869
 20
-22.5765764753828
 30
0.0
 11
15.4735813140869
 21
-13.5765764753828
 31
0.0
  0
LINE
  5
   3A5
  8
0
  6
CONTINUOUS
 62
   218
 10
15.4735813140869
 20
-43.0765688459882
 30
0.0
 11
15.4735813140869
 21
-34.0765764753828
 31
0.0
  0
LINE
  5
   3A6
  8
0
  6
CONTINUOUS
 62
   218
 10
-54.5264110565185
 20
-43.0765764753828
 30
0.0
 11
-54.5264110565185
 21
-34.0765841047773
 31
0.0
  0
LINE
  5
   3A7
  8
0
  6
CONTINUOUS
 62
   218
 10
-54.5264110565185
 20
-13.0765841047773
 30
0.0
 11
-54.5264110565185
 21
4.17340442349024
 31
0.0
  0
LINE
  5
   3A8
  8
0
  6
CONTINUOUS
 62
   218
 10
-54.5264110565185
 20
-33.5765841047773
 30
0.0
 11
-54.5264110565185
 21
-23.0765841047773
 31
0.0
  0
LINE
  5
   3A9
  8
0
  6
CONTINUOUS
 62
   218
 10
-54.5264110565185
 20
-22.5765841047773
 30
0.0
 11
-54.5264110565185
 21
-13.5765841047773
 31
0.0
  0
LINE
  5
   3AA
  8
0
  6
CONTINUOUS
 62
   218
 10
15.4735813140869
 20
-34.0765764753828
 30
0.0
 11
14.9735889434815
 21
-34.0765764753828
 31
0.0
  0
LINE
  5
   3AB
  8
0
  6
CONTINUOUS
 62
     1
 10
-30.0264186859131
 20
-34.0765764753828
 30
0.0
 11
-54.0264110565185
 21
-34.0765764753828
 31
0.0
  0
LINE
  5
   3AC
  8
0
  6
CONTINUOUS
 62
   218
 10
15.4735813140869
 20
-33.5765764753828
 30
0.0
 11
14.9735889434815
 21
-33.5765764753828
 31
0.0
  0
LINE
  5
   3AD
  8
0
  6
CONTINUOUS
 62
     1
 10
-30.0264186859131
 20
-33.5765764753828
 30
0.0
 11
-54.4746379852295
 21
-33.5765764753828
 31
0.0
  0
LINE
  5
   3AE
  8
0
  6
CONTINUOUS
 62
   218
 10
14.9735889434815
 20
-34.0765764753828
 30
0.0
 11
14.9735889434815
 21
-33.5765764753828
 31
0.0
  0
LINE
  5
   3AF
  8
0
  6
CONTINUOUS
 62
   218
 10
-54.0264110565185
 20
-34.0765764753828
 30
0.0
 11
-54.0264110565185
 21
-33.5765764753828
 31
0.0
  0
LINE
  5
   3B0
  8
0
  6
CONTINUOUS
 62
   218
 10
-54.5264110643295
 20
-33.5765917323675
 30
0.0
 11
-54.0264110643409
 21
-33.5765841029729
 31
0.0
  0
LINE
  5
   3B1
  8
0
  6
CONTINUOUS
 62
   218
 10
15.4735813140869
 20
-43.0765740911967
 30
0.0
 11
14.9735889434815
 21
-43.0765740911967
 31
0.0
  0
LINE
  5
   3B2
  8
0
  6
CONTINUOUS
 62
   218
 10
14.9735889434815
 20
-43.576571230174
 30
0.0
 11
14.9735889434815
 21
-43.076571230174
 31
0.0
  0
LINE
  5
   3B3
  8
0
  6
CONTINUOUS
 62
   218
 10
15.4735813140869
 20
-13.5765764753828
 30
0.0
 11
14.9735813140869
 21
-13.5765764753828
 31
0.0
  0
LINE
  5
   3B4
  8
0
  6
CONTINUOUS
 62
   218
 10
15.4735810929422
 20
-13.0765764753828
 30
0.0
 11
14.9735813140869
 21
-13.0765764753828
 31
0.0
  0
LINE
  5
   3B5
  8
0
  6
CONTINUOUS
 62
   218
 10
14.9735813140869
 20
-13.5765764753828
 30
0.0
 11
14.9735813140869
 21
-13.0765764753828
 31
0.0
  0
LINE
  5
   3B6
  8
0
  6
CONTINUOUS
 62
   218
 10
-54.5264110643295
 20
-13.0765917299809
 30
0.0
 11
-54.0264110643409
 21
-13.0765841005864
 31
0.0
  0
LINE
  5
   3B7
  8
0
  6
CONTINUOUS
 62
   218
 10
15.4735813140869
 20
-23.0765764753828
 30
0.0
 11
14.9735813140869
 21
-23.0765764753828
 31
0.0
  0
LINE
  5
   3B8
  8
0
  6
CONTINUOUS
 62
     1
 10
-30.0264186859131
 20
-23.0765764753828
 30
0.0
 11
-54.0264110565185
 21
-23.0765764753828
 31
0.0
  0
LINE
  5
   3B9
  8
0
  6
CONTINUOUS
 62
   218
 10
15.4735813140869
 20
-22.5765764753828
 30
0.0
 11
14.9735813140869
 21
-22.5765764753828
 31
0.0
  0
LINE
  5
   3BA
  8
0
  6
CONTINUOUS
 62
     1
 10
-30.0264186859131
 20
-22.5765764753828
 30
0.0
 11
-54.0264110565185
 21
-22.5765764753828
 31
0.0
  0
LINE
  5
   3BB
  8
0
  6
CONTINUOUS
 62
   218
 10
14.9735813140869
 20
-23.0765764753828
 30
0.0
 11
14.9735813140869
 21
-22.5765764753828
 31
0.0
  0
LINE
  5
   3BC
  8
0
  6
CONTINUOUS
 62
     7
 10
-54.0264034271237
 20
-43.5765766436129
 30
0.0
 11
-54.0264034271237
 21
-43.0765766801629
 31
0.0
  0
LINE
  5
   3BD
  8
0
  6
CONTINUOUS
 62
     7
 10
-54.0264110565185
 20
-23.0765841047773
 30
0.0
 11
-54.0264110565185
 21
-22.5765764753828
 31
0.0
  0
LINE
  5
   3BE
  8
0
  6
CONTINUOUS
 62
     7
 10
-54.0264110565185
 20
-13.5765841047773
 30
0.0
 11
-54.0264110565185
 21
-13.0765764753828
 31
0.0
  0
ARC
  5
   3BF
  8
0
  6
CONTINUOUS
 62
     7
 10
-54.2764110565185
 20
4.17340442349023
 30
0.0
 40
0.25
 50
90.0000062832808
 51
179.999999948034
  0
ARC
  5
   3C0
  8
0
  6
CONTINUOUS
 62
     7
 10
15.2235734635496
 20
4.17341210816671
 30
0.0
 40
0.25
 50
360.000025289036
 51
450.000006283281
  0
ARC
  5
   3C1
  8
0
  6
CONTINUOUS
 62
     7
 10
15.2235812770514
 20
-47.8265764753823
 30
0.0
 40
0.25
 50
269.999999948034
 51
360.000008436035
  0
ARC
  5
   3C2
  8
0
  6
CONTINUOUS
 62
     7
 10
-54.2764034641603
 20
-47.8265764753823
 30
0.0
 40
0.25
 50
180.000008436035
 51
269.999999948034
  0
LINE
  5
   3C3
  8
0
  6
CONTINUOUS
 62
     1
 10
-31.4014186859131
 20
-43.0765749823269
 30
0.0
 11
-31.4014186859131
 21
-34.0765764753828
 31
0.0
  0
LINE
  5
   3C4
  8
0
  6
CONTINUOUS
 62
     1
 10
-7.65141868591306
 20
-43.076573200067
 30
0.0
 11
-7.65141868591306
 21
-34.0765764753828
 31
0.0
  0
LINE
  5
   3C5
  8
0
  6
CONTINUOUS
 62
     1
 10
-31.4014186859131
 20
-22.5765764753828
 30
0.0
 11
-31.4014186859131
 21
-13.5765764753828
 31
0.0
  0
LINE
  5
   3C6
  8
0
  6
CONTINUOUS
 62
     1
 10
-7.65141868591306
 20
-22.5765764753828
 30
0.0
 11
-7.65141868591306
 21
-13.5765764753828
 31
0.0
  0
LINE
  5
   3C7
  8
0
  6
CONTINUOUS
 62
     1
 10
-35.9014186859131
 20
-15.8265764753828
 30
0.0
 11
-36.6514186859131
 21
-15.8265764753828
 31
0.0
  0
LINE
  5
   3C8
  8
0
  6
CONTINUOUS
 62
     1
 10
-35.9014186859131
 20
-20.3265764753828
 30
0.0
 11
-36.6514186859131
 21
-20.3265764753828
 31
0.0
  0
LINE
  5
   3C9
  8
0
  6
CONTINUOUS
 62
     1
 10
-36.6514186859131
 20
-20.3265764753828
 30
0.0
 11
-36.6514186859131
 21
-15.8265764753828
 31
0.0
  0
LINE
  5
   3CA
  8
0
  6
CONTINUOUS
 62
     1
 10
-35.9014186859131
 20
-20.3265764753828
 30
0.0
 11
-35.9014186859131
 21
-15.8265764753828
 31
0.0
  0
CIRCLE
  5
   3CB
  8
0
  6
CONTINUOUS
 62
     1
 10
-36.2764186859131
 20
-38.5765764753828
 30
0.0
 40
2.25
  0
CIRCLE
  5
   3CC
  8
0
  6
CONTINUOUS
 62
     1
 10
-36.2764186859131
 20
-38.5765764753828
 30
0.0
 40
1.5
  0
LINE
  5
   3CD
  8
0
  6
CONTINUOUS
 62
     2
 10
-70.7764338419864
 20
-91.8015844862439
 30
0.0
 11
-71.901407556811
 21
-91.8015844862439
 31
0.0
  0
LINE
  5
   3CE
  8
0
  6
CONTINUOUS
 62
     2
 10
-70.7764338419864
 20
-92.4515845816113
 30
0.0
 11
-70.7764338419864
 21
-91.8015844862439
 31
0.0
  0
LINE
  5
   3CF
  8
0
  6
CONTINUOUS
 62
     2
 10
-38.1514414713809
 20
-93.2015841047721
 30
0.0
 11
-70.0264338419864
 21
-93.2015841047721
 31
0.0
  0
LINE
  5
   3D0
  8
0
  6
CONTINUOUS
 62
     1
 10
-67.2764343188236
 20
-81.2015917341687
 30
0.0
 11
-70.7764338419864
 21
-81.2015917341687
 31
0.0
  0
LINE
  5
   3D1
  8
0
  6
CONTINUOUS
 62
     1
 10
-47.0264338419864
 20
-81.2015917341687
 30
0.0
 11
-63.7764414713809
 21
-81.2015917341687
 31
0.0
  0
LINE
  5
   3D2
  8
0
  6
CONTINUOUS
 62
     1
 10
-69.5264343188236
 20
-79.2015841047742
 30
0.0
 11
-71.1514343188236
 21
-79.2015841047742
 31
0.0
  0
LINE
  5
   3D3
  8
0
  6
CONTINUOUS
 62
     1
 10
-70.7764338419864
 20
-91.8015844862439
 30
0.0
 11
-70.7764338419864
 21
-81.2015936415174
 31
0.0
  0
LINE
  5
   3D4
  8
0
  6
CONTINUOUS
 62
     1
 10
32.848592443189
 20
-81.2015841047742
 30
0.0
 11
-47.0264338419864
 21
-81.2015841047742
 31
0.0
  0
LINE
  5
   3D5
  8
0
  6
CONTINUOUS
 62
     1
 10
-48.7764372054433
 20
-83.4515954466653
 30
0.0
 11
-51.5160459695656
 21
-83.4515878172732
 31
0.0
  0
LINE
  5
   3D6
  8
0
  6
CONTINUOUS
 62
     1
 10
-57.5368360703333
 20
-83.4515939384756
 30
0.0
 11
-60.2764448350935
 21
-83.4515863090836
 31
0.0
  0
LINE
  5
   3D7
  8
0
  6
CONTINUOUS
 62
     1
 10
-57.5368327067325
 20
-89.4515841047742
 30
0.0
 11
-60.2764414713809
 21
-89.4515841047742
 31
0.0
  0
LINE
  5
   3D8
  8
0
  6
CONTINUOUS
 62
     1
 10
-48.7764414713809
 20
-89.4515841047742
 30
0.0
 11
-51.5160426066348
 21
-89.4515841047742
 31
0.0
  0
LINE
  5
   3D9
  8
0
  6
CONTINUOUS
 62
     1
 10
-63.7764419482181
 20
-81.2015841047742
 30
0.0
 11
-67.2764343188236
 21
-81.2015841047742
 31
0.0
  0
LINE
  5
   3DA
  8
0
  6
CONTINUOUS
 62
     2
 10
-38.7764414713809
 20
-91.9515841047742
 30
0.0
 11
-38.7764414713809
 21
-89.7015841047742
 31
0.0
  0
LINE
  5
   3DB
  8
0
  6
CONTINUOUS
 62
     2
 10
-38.1514414713809
 20
-91.9515841047742
 30
0.0
 11
-38.7764414713809
 21
-91.9515841047742
 31
0.0
  0
LINE
  5
   3DC
  8
0
  6
CONTINUOUS
 62
     2
 10
-38.1514414713809
 20
-93.2015841047826
 30
0.0
 11
-38.1514414713809
 21
-91.9515841047826
 31
0.0
  0
LINE
  5
   3DD
  8
0
  6
CONTINUOUS
 62
     2
 10
-35.9014414713809
 20
-93.2015841047732
 30
0.0
 11
-35.9014414713809
 21
-91.9515841047732
 31
0.0
  0
LINE
  5
   3DE
  8
0
  6
CONTINUOUS
 62
     2
 10
-35.2764414713809
 20
-91.9515841047742
 30
0.0
 11
-35.9014414713809
 21
-91.9515841047742
 31
0.0
  0
LINE
  5
   3DF
  8
0
  6
CONTINUOUS
 62
     2
 10
-35.2764414713809
 20
-91.9515841047742
 30
0.0
 11
-35.2764414713809
 21
-89.7015841047742
 31
0.0
  0
LINE
  5
   3E0
  8
0
  6
CONTINUOUS
 62
     2
 10
-35.2764414713809
 20
-89.7015841047742
 30
0.0
 11
-38.7764414713809
 21
-89.7015841047742
 31
0.0
  0
ARC
  5
   3E1
  8
0
  6
CONTINUOUS
 62
     2
 10
-70.0264362927662
 20
-92.4515854755688
 30
0.0
 40
0.749997974207768
 50
179.999941123702
 51
270.000103159103
  0
CIRCLE
  5
   3E2
  8
0
  6
CONTINUOUS
 62
     1
 10
-68.7764349493205
 20
-91.2015848175447
 30
0.0
 40
0.700000571742353
  0
ARC
  5
   3E3
  8
0
  6
CONTINUOUS
 62
     1
 10
-60.2764503064985
 20
-86.4515907517998
 30
0.0
 40
2.99999717282428
 50
90.0001399327154
 51
270.000100332566
  0
ARC
  5
   3E4
  8
0
  6
CONTINUOUS
 62
     1
 10
-54.5264464915185
 20
-86.4515382325926
 30
0.0
 40
4.25004659666948
 50
404.899302393594
 51
495.100813987516
  0
ARC
  5
   3E5
  8
0
  6
CONTINUOUS
 62
     1
 10
-48.7764393892087
 20
-86.4515877048054
 30
0.0
 40
2.99999304693031
 50
269.999747131106
 51
450.000048027357
  0
ARC
  5
   3E6
  8
0
  6
CONTINUOUS
 62
     1
 10
-37.02643494306
 20
-85.4515661788036
 30
0.0
 40
2.62498613468348
 50
122.548943193313
 51
328.295157255619
  0
ARC
  5
   3E7
  8
0
  6
CONTINUOUS
 62
     1
 10
-37.0264487366399
 20
-85.4515995637393
 30
0.0
 40
1.37501058116071
 50
103.092052087451
 51
341.242197405874
  0
ARC
  5
   3E8
  8
0
  6
CONTINUOUS
 62
     1
 10
-54.5264464915185
 20
-86.4515382325926
 30
0.0
 40
4.25004659666948
 50
224.901119153159
 51
315.09888074291
  0
LINE
  5
   3E9
  8
0
  6
DASHDOT
 62
     2
 10
-54.5264464915185
 20
-95.0217067696283
 30
0.0
 11
-54.5264464915185
 21
-57.1727551089401
 31
0.0
  0
LINE
  5
   3EA
  8
0
  6
DASHDOT
 62
     2
 10
-48.776399894849
 20
-86.4515382325926
 30
0.0
 11
-60.2764930881879
 21
-86.4515382325926
 31
0.0
  0
LINE
  5
   3EB
  8
0
  6
DASHDOT
 62
     2
 10
-48.7764393892087
 20
-90.9515807517358
 30
0.0
 11
-48.7764393892087
 21
-81.9515946578751
 31
0.0
  0
LINE
  5
   3EC
  8
0
  6
DASHDOT
 62
     2
 10
-44.2764463422784
 20
-86.4515877048054
 30
0.0
 11
-53.276432436139
 21
-86.4515877048054
 31
0.0
  0
LINE
  5
   3ED
  8
0
  6
DASHDOT
 62
     2
 10
-60.2764503064985
 20
-90.951587924624
 30
0.0
 11
-60.2764503064985
 21
-81.9515935789755
 31
0.0
  0
LINE
  5
   3EE
  8
0
  6
DASHDOT
 62
     2
 10
-55.7764531336742
 20
-86.4515907517998
 30
0.0
 11
-64.7764474793228
 21
-86.4515907517998
 31
0.0
  0
LINE
  5
   3EF
  8
0
  6
DASHDOT
 62
     2
 10
-32.4146190217149
 20
-85.4515661788036
 30
0.0
 11
-41.1514210777435
 21
-85.4515661788036
 31
0.0
  0
LINE
  5
   3F0
  8
0
  6
DASHDOT
 62
     2
 10
-19.5264186859131
 20
-95.5576941025139
 30
0.0
 11
-19.5264186859131
 21
-57.049065724428
 31
0.0
  0
LINE
  5
   3F1
  8
0
  6
DASHDOT
 62
     2
 10
15.473519996538
 20
-95.4340047180018
 30
0.0
 11
15.473519996538
 21
-57.873661621175
 31
0.0
  0
LINE
  5
   3F2
  8
0
  6
DASHDOT
 62
     2
 10
-68.7764349493205
 20
-93.4015853892871
 30
0.0
 11
-68.7764349493205
 21
-89.0015842458024
 31
0.0
  0
LINE
  5
   3F3
  8
0
  6
DASHDOT
 62
     2
 10
-66.5764343775781
 20
-91.2015848175447
 30
0.0
 11
-70.9764355210628
 21
-91.2015848175447
 31
0.0
  0
LINE
  5
   3F4
  8
0
  6
CONTINUOUS
 62
     1
 10
31.9735585286191
 20
-79.2015917341687
 30
0.0
 11
31.9735585286191
 21
-59.4515917341687
 31
0.0
  0
LINE
  5
   3F5
  8
0
  6
CONTINUOUS
 62
     1
 10
-54.5264186859131
 20
-79.2015841047775
 30
0.0
 11
-54.5264186859131
 21
-62.0765907804972
 31
0.0
  0
LINE
  5
   3F6
  8
0
  6
CONTINUOUS
 62
     1
 10
15.4735813140869
 20
-79.2015841047775
 30
0.0
 11
15.4735813140869
 21
-62.0765907804972
 31
0.0
  0
LINE
  5
   3F7
  8
0
  6
CONTINUOUS
 62
     1
 10
-71.026407556811
 20
-79.2015841047742
 30
0.0
 11
-71.026407556811
 21
-59.4515841047775
 31
0.0
  0
LINE
  5
   3F8
  8
0
  6
CONTINUOUS
 62
     1
 10
-1.62641868591308
 20
-36.6515764753828
 30
0.0
 11
-1.85141868591308
 21
-36.6515764753828
 31
0.0
  0
LINE
  5
   3F9
  8
0
  6
CONTINUOUS
 62
     1
 10
-2.10141868591308
 20
-40.5015764753828
 30
0.0
 11
-2.50141868591308
 21
-40.5015764753828
 31
0.0
  0
LINE
  5
   3FA
  8
0
  6
CONTINUOUS
 62
     1
 10
-5.70141868591307
 20
-39.2015764753828
 30
0.0
 11
-5.70141868591307
 21
-38.9515764753828
 31
0.0
  0
LINE
  5
   3FB
  8
0
  6
CONTINUOUS
 62
     1
 10
-3.10141868591307
 20
-39.2015764753828
 30
0.0
 11
-3.10141868591307
 21
-38.9515764753828
 31
0.0
  0
ARC
  5
   3FC
  8
0
  6
CONTINUOUS
 62
     1
 10
-4.40141868591308
 20
-38.9515764753828
 30
0.0
 40
1.3
 50
359.999999948034
 51
539.999999948034
  0
ARC
  5
   3FD
  8
0
  6
CONTINUOUS
 62
     1
 10
-4.40141868591308
 20
-39.2015764753828
 30
0.0
 40
1.3
 50
179.999999948034
 51
359.999999948034
  0
ARC
  5
   3FE
  8
0
  6
CONTINUOUS
 62
     1
 10
-4.40141868591308
 20
-38.9515764753828
 30
0.0
 40
0.900000000000001
 50
359.999999948034
 51
539.999999948034
  0
ARC
  5
   3FF
  8
0
  6
CONTINUOUS
 62
     1
 10
-4.40141868591308
 20
-39.2015764753828
 30
0.0
 40
0.899999999999999
 50
179.999999948034
 51
359.999999948034
  0
LINE
  5
   400
  8
0
  6
CONTINUOUS
 62
     1
 10
-5.30141868591308
 20
-39.2015764753828
 30
0.0
 11
-5.30141868591308
 21
-38.9515764753828
 31
0.0
  0
LINE
  5
   401
  8
0
  6
CONTINUOUS
 62
     1
 10
-3.50141868591308
 20
-39.2015764753828
 30
0.0
 11
-3.50141868591308
 21
-38.9515764753828
 31
0.0
  0
LINE
  5
   402
  8
0
  6
CONTINUOUS
 62
     1
 10
-2.97641868591308
 20
-38.2515764753828
 30
0.0
 11
-2.97641868591308
 21
-37.8515764753828
 31
0.0
  0
LINE
  5
   403
  8
0
  6
CONTINUOUS
 62
     1
 10
-2.50141868591308
 20
-38.2515764753828
 30
0.0
 11
-2.97641868591308
 21
-38.2515764753828
 31
0.0
  0
LINE
  5
   404
  8
0
  6
CONTINUOUS
 62
     1
 10
-1.62641868591308
 20
-38.2515764753828
 30
0.0
 11
-1.62641868591308
 21
-37.8515764753828
 31
0.0
  0
LINE
  5
   405
  8
0
  6
CONTINUOUS
 62
     1
 10
-2.50141868591308
 20
-37.8515764753828
 30
0.0
 11
-2.97641868591308
 21
-37.8515764753828
 31
0.0
  0
LINE
  5
   406
  8
0
  6
CONTINUOUS
 62
     1
 10
-2.50141868591308
 20
-40.5015764753828
 30
0.0
 11
-2.50141868591308
 21
-38.2515764753828
 31
0.0
  0
LINE
  5
   407
  8
0
  6
CONTINUOUS
 62
     1
 10
-2.10141868591308
 20
-40.5015764753828
 30
0.0
 11
-2.10141868591308
 21
-38.2515764753828
 31
0.0
  0
LINE
  5
   408
  8
0
  6
CONTINUOUS
 62
     1
 10
-1.62641868591308
 20
-38.2515764753828
 30
0.0
 11
-2.10141868591308
 21
-38.2515764753828
 31
0.0
  0
LINE
  5
   409
  8
0
  6
CONTINUOUS
 62
     1
 10
-1.62641868591308
 20
-37.8515764753828
 30
0.0
 11
-2.10141868591308
 21
-37.8515764753828
 31
0.0
  0
LINE
  5
   40A
  8
0
  6
CONTINUOUS
 62
     1
 10
-2.50141868591308
 20
-37.8515764753828
 30
0.0
 11
-2.50141868591308
 21
-37.3015764753828
 31
0.0
  0
LINE
  5
   40B
  8
0
  6
CONTINUOUS
 62
     1
 10
-2.10141868591308
 20
-37.8515764753828
 30
0.0
 11
-2.10141868591308
 21
-37.3015764753828
 31
0.0
  0
ARC
  5
   40C
  8
0
  6
CONTINUOUS
 62
     1
 10
-1.85141868591308
 20
-37.3015764753828
 30
0.0
 40
0.65
 50
449.999999948034
 51
539.999999948034
  0
ARC
  5
   40D
  8
0
  6
CONTINUOUS
 62
     1
 10
-1.85141868591308
 20
-37.3015764753828
 30
0.0
 40
0.25
 50
449.999999948034
 51
539.999999948034
  0
LINE
  5
   40E
  8
0
  6
CONTINUOUS
 62
     1
 10
-1.62641868591308
 20
-37.0515764753828
 30
0.0
 11
-1.62641868591308
 21
-36.6515764753828
 31
0.0
  0
LINE
  5
   40F
  8
0
  6
CONTINUOUS
 62
     1
 10
-1.62641868591308
 20
-37.0515764753828
 30
0.0
 11
-1.85141868591308
 21
-37.0515764753828
 31
0.0
  0
LINE
  5
   410
  8
0
  6
CONTINUOUS
 62
     1
 10
-2.64186859130824E-2
 20
-36.6515764753828
 30
0.0
 11
-0.251418685913084
 21
-36.6515764753828
 31
0.0
  0
LINE
  5
   411
  8
0
  6
CONTINUOUS
 62
     1
 10
-0.50141868591308
 20
-40.5015764753828
 30
0.0
 11
-0.901418685913082
 21
-40.5015764753828
 31
0.0
  0
LINE
  5
   412
  8
0
  6
CONTINUOUS
 62
     1
 10
-1.37641868591308
 20
-38.2515764753828
 30
0.0
 11
-1.37641868591308
 21
-37.8515764753828
 31
0.0
  0
LINE
  5
   413
  8
0
  6
CONTINUOUS
 62
     1
 10
-0.901418685913082
 20
-38.2515764753828
 30
0.0
 11
-1.37641868591308
 21
-38.2515764753828
 31
0.0
  0
LINE
  5
   414
  8
0
  6
CONTINUOUS
 62
     1
 10
-2.64186859130824E-2
 20
-38.2515764753828
 30
0.0
 11
-2.64186859130824E-2
 21
-37.8515764753828
 31
0.0
  0
LINE
  5
   415
  8
0
  6
CONTINUOUS
 62
     1
 10
-0.901418685913082
 20
-37.8515764753828
 30
0.0
 11
-1.37641868591308
 21
-37.8515764753828
 31
0.0
  0
LINE
  5
   416
  8
0
  6
CONTINUOUS
 62
     1
 10
-0.901418685913082
 20
-40.5015764753828
 30
0.0
 11
-0.901418685913082
 21
-38.2515764753828
 31
0.0
  0
LINE
  5
   417
  8
0
  6
CONTINUOUS
 62
     1
 10
-0.50141868591308
 20
-40.5015764753828
 30
0.0
 11
-0.50141868591308
 21
-38.2515764753828
 31
0.0
  0
LINE
  5
   418
  8
0
  6
CONTINUOUS
 62
     1
 10
-2.64186859130824E-2
 20
-38.2515764753828
 30
0.0
 11
-0.50141868591308
 21
-38.2515764753828
 31
0.0
  0
LINE
  5
   419
  8
0
  6
CONTINUOUS
 62
     1
 10
-2.64186859130824E-2
 20
-37.8515764753828
 30
0.0
 11
-0.50141868591308
 21
-37.8515764753828
 31
0.0
  0
LINE
  5
   41A
  8
0
  6
CONTINUOUS
 62
     1
 10
-0.901418685913082
 20
-37.8515764753828
 30
0.0
 11
-0.901418685913082
 21
-37.3015764753828
 31
0.0
  0
LINE
  5
   41B
  8
0
  6
CONTINUOUS
 62
     1
 10
-0.50141868591308
 20
-37.8515764753828
 30
0.0
 11
-0.50141868591308
 21
-37.3015764753828
 31
0.0
  0
ARC
  5
   41C
  8
0
  6
CONTINUOUS
 62
     1
 10
-0.251418685913084
 20
-37.3015764753828
 30
0.0
 40
0.65
 50
449.999999948034
 51
539.999999948034
  0
ARC
  5
   41D
  8
0
  6
CONTINUOUS
 62
     1
 10
-0.251418685913084
 20
-37.3015764753828
 30
0.0
 40
0.25
 50
449.999999948034
 51
539.999999948034
  0
LINE
  5
   41E
  8
0
  6
CONTINUOUS
 62
     1
 10
-2.64186859130824E-2
 20
-37.0515764753828
 30
0.0
 11
-2.64186859130824E-2
 21
-36.6515764753828
 31
0.0
  0
LINE
  5
   41F
  8
0
  6
CONTINUOUS
 62
     1
 10
-2.64186859130824E-2
 20
-37.0515764753828
 30
0.0
 11
-0.251418685913084
 21
-37.0515764753828
 31
0.0
  0
LINE
  5
   420
  8
0
  6
CONTINUOUS
 62
     1
 10
-2.30141868591308
 20
-19.5015764753828
 30
0.0
 11
-2.70141868591308
 21
-19.5015764753828
 31
0.0
  0
ARC
  5
   421
  8
0
  6
CONTINUOUS
 62
     1
 10
-4.40141868591308
 20
-17.9515764753828
 30
0.0
 40
1.3
 50
359.999999948034
 51
539.999999948034
  0
ARC
  5
   422
  8
0
  6
CONTINUOUS
 62
     1
 10
-4.40141868591308
 20
-17.9515764753828
 30
0.0
 40
0.900000000000001
 50
359.999999948034
 51
539.999999948034
  0
ARC
  5
   423
  8
0
  6
CONTINUOUS
 62
     1
 10
-4.40141868591308
 20
-18.2015764753828
 30
0.0
 40
1.3
 50
179.999999948034
 51
359.999999948034
  0
ARC
  5
   424
  8
0
  6
CONTINUOUS
 62
     1
 10
-4.40141868591308
 20
-18.2015764753828
 30
0.0
 40
0.899999999999999
 50
179.999999948034
 51
359.999999948034
  0
LINE
  5
   425
  8
0
  6
CONTINUOUS
 62
     1
 10
-3.50141868591308
 20
-18.2015764753828
 30
0.0
 11
-3.50141868591308
 21
-17.9515764753828
 31
0.0
  0
LINE
  5
   426
  8
0
  6
CONTINUOUS
 62
     1
 10
-3.10141868591307
 20
-18.2015764753828
 30
0.0
 11
-3.10141868591307
 21
-17.9515764753828
 31
0.0
  0
LINE
  5
   427
  8
0
  6
CONTINUOUS
 62
     1
 10
-5.30141868591308
 20
-18.2015764753828
 30
0.0
 11
-5.30141868591308
 21
-17.9515764753828
 31
0.0
  0
LINE
  5
   428
  8
0
  6
CONTINUOUS
 62
     1
 10
-5.70141868591307
 20
-18.2015764753828
 30
0.0
 11
-5.70141868591307
 21
-17.9515764753828
 31
0.0
  0
LINE
  5
   429
  8
0
  6
CONTINUOUS
 62
     1
 10
-2.70141868591308
 20
-19.5015764753828
 30
0.0
 11
-2.70141868591308
 21
-16.6515764753828
 31
0.0
  0
LINE
  5
   42A
  8
0
  6
CONTINUOUS
 62
     1
 10
-2.30141868591308
 20
-19.5015764753828
 30
0.0
 11
-2.30141868591308
 21
-17.7515764753828
 31
0.0
  0
LINE
  5
   42B
  8
0
  6
CONTINUOUS
 62
     1
 10
-0.901418685913079
 20
-19.5015764753828
 30
0.0
 11
-0.901418685913079
 21
-17.7515764753828
 31
0.0
  0
LINE
  5
   42C
  8
0
  6
CONTINUOUS
 62
     1
 10
-0.50141868591308
 20
-19.5015764753828
 30
0.0
 11
-0.50141868591308
 21
-17.6515764753828
 31
0.0
  0
LINE
  5
   42D
  8
0
  6
CONTINUOUS
 62
     1
 10
-2.30141868591308
 20
-16.6515764753828
 30
0.0
 11
-2.70141868591308
 21
-16.6515764753828
 31
0.0
  0
ARC
  5
   42E
  8
0
  6
CONTINUOUS
 62
     1
 10
-1.60141868591308
 20
-17.7515764753828
 30
0.0
 40
0.699999999999999
 50
359.999999948034
 51
539.999999948034
  0
LINE
  5
   42F
  8
0
  6
CONTINUOUS
 62
     1
 10
-2.30141868591308
 20
-17.0515764753828
 30
0.0
 11
-2.30141868591308
 21
-16.6515764753828
 31
0.0
  0
ARC
  5
   430
  8
0
  6
CONTINUOUS
 62
     1
 10
-1.50141868591308
 20
-17.6515764753828
 30
0.0
 40
1.0
 50
359.999999948034
 51
503.13010230219
  0
LINE
  5
   431
  8
0
  6
CONTINUOUS
 62
     1
 10
-0.50141868591308
 20
-19.5015764753828
 30
0.0
 11
-0.901418685913079
 21
-19.5015764753828
 31
0.0
  0
LINE
  5
   432
  8
0
  6
CONTINUOUS
 62
     7
 10
-9.02641868591306
 20
-36.9403553058234
 30
0.0
 11
-30.0264186859131
 21
-36.9403553058234
 31
0.0
  0
LINE
  5
   433
  8
0
  6
CONTINUOUS
 62
     7
 10
-9.02641868591306
 20
-32.8301013813522
 30
0.0
 11
-30.0264186859131
 21
-32.8301013813522
 31
0.0
  0
LINE
  5
   434
  8
0
  6
CONTINUOUS
 62
     7
 10
-9.02641868591306
 20
-41.2595808498759
 30
0.0
 11
-30.0264186859131
 21
-41.2595808498759
 31
0.0
  0
LINE
  5
   435
  8
0
  6
CONTINUOUS
 62
     7
 10
-9.02641868591306
 20
-46.041127809735
 30
0.0
 11
-30.0264186859131
 21
-46.041127809735
 31
0.0
  0
LINE
  5
   436
  8
0
  6
CONTINUOUS
 62
     7
 10
-9.02641868591306
 20
-32.8301013813522
 30
0.0
 11
-9.02641868591306
 21
-14.9649889509687
 31
0.0
  0
LINE
  5
   437
  8
0
  6
CONTINUOUS
 62
     7
 10
-30.0264186859131
 20
-32.8301013813522
 30
0.0
 11
-30.0264186859131
 21
-14.9649889509687
 31
0.0
  0
LINE
  5
   438
  8
0
  6
CONTINUOUS
 62
     1
 10
-30.0264186859131
 20
-43.0765740911967
 30
0.0
 11
-54.0264034271237
 21
-43.0765740911967
 31
0.0
  0
LINE
  5
   439
  8
0
  6
DASHDOT
 62
     7
 10
15.4735813140869
 20
25.9242013633309
 30
0.0
 11
15.4735813140869
 21
42.47482849487
 31
0.0
  0
LINE
  5
   43A
  8
0
  6
DASHDOT
 62
     7
 10
-54.5264186859131
 20
26.9586155590521
 30
0.0
 11
-54.5264186859131
 21
44.3712545203589
 31
0.0
  0
LINE
  5
   43B
  8
0
  6
CONTINUOUS
 62
     1
 10
-57.5264186859131
 20
4.42340826582797
 30
0.0
 11
-71.6514075568111
 21
4.42340826582797
 31
0.0
  0
LINE
  5
   43C
  8
0
  6
CONTINUOUS
 62
   218
 10
-54.0264110565185
 20
-13.5765764753828
 30
0.0
 11
-54.5264110565185
 21
-13.5765764753828
 31
0.0
  0
LINE
  5
   43D
  8
0
  6
CONTINUOUS
 62
     1
 10
14.9735813140869
 20
-13.0765764753828
 30
0.0
 11
-54.0264110565185
 21
-13.0765764753828
 31
0.0
  0
LINE
  5
   43E
  8
0
  6
CONTINUOUS
 62
     1
 10
14.9735813140869
 20
-13.5765764753828
 30
0.0
 11
-54.0264110565185
 21
-13.5765764753828
 31
0.0
  0
LINE
  5
   43F
  8
0
  6
CONTINUOUS
 62
     1
 10
14.9735813140869
 20
-22.5765764753828
 30
0.0
 11
-9.02642631530761
 21
-22.5765764753828
 31
0.0
  0
LINE
  5
   440
  8
0
  6
CONTINUOUS
 62
     1
 10
14.9735813140869
 20
-23.0765764753828
 30
0.0
 11
-9.02642631530761
 21
-23.0765764753828
 31
0.0
  0
LINE
  5
   441
  8
0
  6
CONTINUOUS
 62
     1
 10
14.9735889434815
 20
-33.5765764753828
 30
0.0
 11
-9.02642631530761
 21
-33.5765764753828
 31
0.0
  0
LINE
  5
   442
  8
0
  6
CONTINUOUS
 62
     1
 10
14.9735889434815
 20
-34.0765764753828
 30
0.0
 11
-9.02642631530761
 21
-34.0765764753828
 31
0.0
  0
LINE
  5
   443
  8
0
  6
CONTINUOUS
 62
     1
 10
14.9735889434815
 20
-43.0765740911967
 30
0.0
 11
-9.02641868591306
 21
-43.0765740911967
 31
0.0
  0
LINE
  5
   444
  8
0
  6
CONTINUOUS
 62
   218
 10
-54.0264034271237
 20
-43.0765740911967
 30
0.0
 11
-54.5264110565185
 21
-43.0765740911967
 31
0.0
  0
LINE
  5
   445
  8
0
  6
CONTINUOUS
 62
   218
 10
-54.0264110565185
 20
-34.0765764753828
 30
0.0
 11
-54.5264110565185
 21
-34.0765764753828
 31
0.0
  0
LINE
  5
   446
  8
0
  6
CONTINUOUS
 62
   218
 10
-54.0264110565185
 20
-22.5765764753828
 30
0.0
 11
-54.5264110565185
 21
-22.5765764753828
 31
0.0
  0
LINE
  5
   447
  8
0
  6
CONTINUOUS
 62
   218
 10
-54.0264110565185
 20
-23.0765764753828
 30
0.0
 11
-54.5264110565185
 21
-23.0765764753828
 31
0.0
  0
LINE
  5
   448
  8
0
  6
CONTINUOUS
 62
     1
 10
-54.0264110565185
 20
-13.0765764753828
 30
0.0
 11
-54.4746379852295
 21
-13.0765764753828
 31
0.0
  0
LINE
  5
   449
  8
0
  6
CONTINUOUS
 62
     7
 10
-54.0264034271237
 20
-43.5765766436129
 30
0.0
 11
-54.5264034271236
 21
-43.5765766436129
 31
0.0
  0
LINE
  5
   44A
  8
0
  6
CONTINUOUS
 62
     7
 10
15.4735813140866
 20
-43.5765767176846
 30
0.0
 11
14.9735889434815
 21
-43.576571230174
 31
0.0
  0
LINE
  5
   44B
  8
0
  6
CONTINUOUS
 62
     1
 10
31.9735585283178
 20
-79.2015917363494
 30
0.0
 11
-71.026407556811
 21
-79.2015917363494
 31
0.0
  0
LINE
  5
   44C
  8
0
  6
CONTINUOUS
 62
     7
 10
-35.2764414713809
 20
37.298431638948
 30
0.0
 11
-38.7764414713809
 21
37.298431638948
 31
0.0
  0
LINE
  5
   44D
  8
0
  6
CONTINUOUS
 62
     7
 10
-38.7764414713809
 20
37.298431638948
 30
0.0
 11
-38.7764414713809
 21
39.548431638948
 31
0.0
  0
LINE
  5
   44E
  8
0
  6
CONTINUOUS
 62
     7
 10
-38.1514414713809
 20
39.548431638948
 30
0.0
 11
-38.7764414713809
 21
39.548431638948
 31
0.0
  0
LINE
  5
   44F
  8
0
  6
CONTINUOUS
 62
     7
 10
-38.1514414713809
 20
39.5484316389563
 30
0.0
 11
-38.1514414713809
 21
40.7984316389563
 31
0.0
  0
LINE
  5
   450
  8
0
  6
CONTINUOUS
 62
     7
 10
-35.9014414713809
 20
39.5484316389471
 30
0.0
 11
-35.9014414713809
 21
40.7984316389471
 31
0.0
  0
LINE
  5
   451
  8
0
  6
CONTINUOUS
 62
     7
 10
-35.2764414713809
 20
39.548431638948
 30
0.0
 11
-35.9014414713809
 21
39.548431638948
 31
0.0
  0
LINE
  5
   452
  8
0
  6
CONTINUOUS
 62
     7
 10
-35.2764414713809
 20
37.298431638948
 30
0.0
 11
-35.2764414713809
 21
39.548431638948
 31
0.0
  0
LINE
  5
   453
  8
0
  6
CONTINUOUS
 62
     1
 10
14.9735889434815
 20
-43.576571230174
 30
0.0
 11
-9.02641868591306
 21
-43.576571230174
 31
0.0
  0
LINE
  5
   454
  8
0
  6
CONTINUOUS
 62
     1
 10
-30.0264186859131
 20
-43.5765766436129
 30
0.0
 11
-54.0264034271237
 21
-43.5765766436129
 31
0.0
  0
ARC
  5
   455
  8
0
  6
CONTINUOUS
 62
     1
 10
-37.0263002586449
 20
33.0484655714145
 30
0.0
 40
2.625
 50
391.705904261043
 51
597.449951668636
  0
LINE
  5
   456
  8
0
  6
DASHDOT
 62
     7
 10
-37.0263002586449
 20
27.9234655714145
 30
0.0
 11
-37.0263002586449
 21
38.1734655714145
 31
0.0
  0
LINE
  5
   457
  8
0
  6
DASHDOT
 62
     7
 10
-31.9013002586449
 20
33.0484655714145
 30
0.0
 11
-42.1513002586449
 21
33.0484655714145
 31
0.0
  0
LINE
  5
   458
  8
0
  6
DASHDOT
 62
     7
 10
34.4951765532217
 20
-21.8265917341715
 30
0.0
 11
-76.7145436238767
 21
-21.8265917341715
 31
0.0
  0
POLYLINE
  5
   459
  8
0
  6
CONTINUOUS
 62
     1
 66
     1
 10
0.0
 20
0.0
 30
0.0
  0
VERTEX
  5
   45A
  8
0
  6
CONTINUOUS
 10
-32.072694789252
 20
44.144415890348
 30
0.0
 40
0.0
 41
0.0
  0
VERTEX
  5
   45B
  8
0
  6
CONTINUOUS
 10
-32.0782613503561
 20
44.0240603148122
 30
0.0
 40
0.0
 41
0.0
  0
VERTEX
  5
   45C
  8
0
  6
CONTINUOUS
 10
-32.0876738533197
 20
43.9037512427831
 30
0.0
 40
0.0
 41
0.0
  0
VERTEX
  5
   45D
  8
0
  6
CONTINUOUS
 10
-32.1009291732004
 20
43.7834887321549
 30
0.0
 40
0.0
 41
0.0
  0
VERTEX
  5
   45E
  8
0
  6
CONTINUOUS
 10
-32.1180191851483
 20
43.6632729334526
 30
0.0
 40
0.0
 41
0.0
  0
VERTEX
  5
   45F
  8
0
  6
CONTINUOUS
 10
-32.1389282644517
 20
43.5431041361476
 30
0.0
 40
0.0
 41
0.0
  0
VERTEX
  5
   460
  8
0
  6
CONTINUOUS
 10
-32.1636307865835
 20
43.4229828149727
 30
0.0
 40
0.0
 41
0.0
  0
VERTEX
  5
   461
  8
0
  6
CONTINUOUS
 10
-32.1920886272474
 20
43.3029096762377
 30
0.0
 40
0.0
 41
0.0
  0
VERTEX
  5
   462
  8
0
  6
CONTINUOUS
 10
-32.2242486624238
 20
43.1828857041451
 30
0.0
 40
0.0
 41
0.0
  0
VERTEX
  5
   463
  8
0
  6
CONTINUOUS
 10
-32.2600402684163
 20
43.062912207105
 30
0.0
 40
0.0
 41
0.0
  0
VERTEX
  5
   464
  8
0
  6
CONTINUOUS
 10
-32.2993728218974
 20
42.9429908640507
 30
0.0
 40
0.0
 41
0.0
  0
VERTEX
  5
   465
  8
0
  6
CONTINUOUS
 10
-32.3421331999548
 20
42.8231237707543
 30
0.0
 40
0.0
 41
0.0
  0
VERTEX
  5
   466
  8
0
  6
CONTINUOUS
 10
-32.388183280138
 20
42.7033134861417
 30
0.0
 40
0.0
 41
0.0
  0
VERTEX
  5
   467
  8
0
  6
CONTINUOUS
 10
-32.4373574405036
 20
42.5835630786085
 30
0.0
 40
0.0
 41
0.0
  0
VERTEX
  5
   468
  8
0
  6
CONTINUOUS
 10
-32.4894600596622
 20
42.463876172335
 30
0.0
 40
0.0
 41
0.0
  0
VERTEX
  5
   469
  8
0
  6
CONTINUOUS
 10
-32.5442630168239
 20
42.3442569936016
 30
0.0
 40
0.0
 41
0.0
  0
VERTEX
  5
   46A
  8
0
  6
CONTINUOUS
 10
-32.6015031918451
 20
42.2247104171047
 30
0.0
 40
0.0
 41
0.0
  0
VERTEX
  5
   46B
  8
0
  6
CONTINUOUS
 10
-32.6608799652741
 20
42.1052420122714
 30
0.0
 40
0.0
 41
0.0
  0
VERTEX
  5
   46C
  8
0
  6
CONTINUOUS
 10
-32.7220527183976
 20
41.9858580895755
 30
0.0
 40
0.0
 41
0.0
  0
VERTEX
  5
   46D
  8
0
  6
CONTINUOUS
 10
-32.8482086928421
 20
41.7473729156152
 30
0.0
 40
0.0
 41
0.0
  0
VERTEX
  5
   46E
  8
0
  6
CONTINUOUS
 10
-33.0538784119869
 20
41.3639795028644
 30
0.0
 40
0.0
 41
0.0
  0
VERTEX
  5
   46F
  8
0
  6
CONTINUOUS
 10
-33.1528706227766
 20
41.1728033834519
 30
0.0
 40
0.0
 41
0.0
  0
VERTEX
  5
   470
  8
0
  6
CONTINUOUS
 10
-33.2003020034392
 20
41.0773597843999
 30
0.0
 40
0.0
 41
0.0
  0
VERTEX
  5
   471
  8
0
  6
CONTINUOUS
 10
-33.245928965968
 20
40.9820156821292
 30
0.0
 40
0.0
 41
0.0
  0
VERTEX
  5
   472
  8
0
  6
CONTINUOUS
 10
-33.289435365736
 20
40.886771850346
 30
0.0
 40
0.0
 41
0.0
  0
VERTEX
  5
   473
  8
0
  6
CONTINUOUS
 10
-33.3305133018571
 20
40.7916274704968
 30
0.0
 40
0.0
 41
0.0
  0
VERTEX
  5
   474
  8
0
  6
CONTINUOUS
 10
-33.3688667825663
 20
40.6965798839196
 30
0.0
 40
0.0
 41
0.0
  0
VERTEX
  5
   475
  8
0
  6
CONTINUOUS
 10
-33.4042153905988
 20
40.6016243439964
 30
0.0
 40
0.0
 41
0.0
  0
VERTEX
  5
   476
  8
0
  6
CONTINUOUS
 10
-33.4362979485696
 20
40.5067537683046
 30
0.0
 40
0.0
 41
0.0
  0
VERTEX
  5
   477
  8
0
  6
CONTINUOUS
 10
-33.4648761843535
 20
40.4119584907688
 30
0.0
 40
0.0
 41
0.0
  0
VERTEX
  5
   478
  8
0
  6
CONTINUOUS
 10
-33.4897383964642
 20
40.3172260138126
 30
0.0
 40
0.0
 41
0.0
  0
VERTEX
  5
   479
  8
0
  6
CONTINUOUS
 10
-33.5107031194343
 20
40.2225407605108
 30
0.0
 40
0.0
 41
0.0
  0
VERTEX
  5
   47A
  8
0
  6
CONTINUOUS
 10
-33.5196763842213
 20
40.1752100719377
 30
0.0
 40
0.0
 41
0.0
  0
VERTEX
  5
   47B
  8
0
  6
CONTINUOUS
 10
-33.5276227891944
 20
40.1278838267406
 30
0.0
 40
0.0
 41
0.0
  0
VERTEX
  5
   47C
  8
0
  6
CONTINUOUS
 10
-33.5345297872898
 20
40.0805591013672
 30
0.0
 40
0.0
 41
0.0
  0
VERTEX
  5
   47D
  8
0
  6
CONTINUOUS
 10
-33.5403874084534
 20
40.0332327333339
 30
0.0
 40
0.0
 41
0.0
  0
VERTEX
  5
   47E
  8
0
  6
CONTINUOUS
 10
-33.5451883741842
 20
39.9859013134814
 30
0.0
 40
0.0
 41
0.0
  0
VERTEX
  5
   47F
  8
0
  6
CONTINUOUS
 10
-33.5489282120773
 20
39.9385611782288
 30
0.0
 40
0.0
 41
0.0
  0
VERTEX
  5
   480
  8
0
  6
CONTINUOUS
 10
-33.5516053703669
 20
39.8912084018286
 30
0.0
 40
0.0
 41
0.0
  0
VERTEX
  5
   481
  8
0
  6
CONTINUOUS
 10
-33.5532213324693
 20
39.8438387886215
 30
0.0
 40
0.0
 41
0.0
  0
VERTEX
  5
   482
  8
0
  6
CONTINUOUS
 10
-33.5537709286066
 20
39.7882786183136
 30
0.0
 40
0.0
 41
0.0
  0
VERTEX
  5
   483
  8
0
  6
CONTINUOUS
 10
-33.5528816432532
 20
39.7326814607118
 30
0.0
 40
0.0
 41
0.0
  0
VERTEX
  5
   484
  8
0
  6
CONTINUOUS
 10
-33.5505724542302
 20
39.6770391542367
 30
0.0
 40
0.0
 41
0.0
  0
VERTEX
  5
   485
  8
0
  6
CONTINUOUS
 10
-33.5468679944542
 20
39.6213431281501
 30
0.0
 40
0.0
 41
0.0
  0
VERTEX
  5
   486
  8
0
  6
CONTINUOUS
 10
-33.5417982966419
 20
39.5655844675159
 30
0.0
 40
0.0
 41
0.0
  0
VERTEX
  5
   487
  8
0
  6
CONTINUOUS
 10
-33.5353985380149
 20
39.5097539781603
 30
0.0
 40
0.0
 41
0.0
  0
VERTEX
  5
   488
  8
0
  6
CONTINUOUS
 10
-33.5277087850038
 20
39.453842251633
 30
0.0
 40
0.0
 41
0.0
  0
VERTEX
  5
   489
  8
0
  6
CONTINUOUS
 10
-33.518773737953
 20
39.3978397301672
 30
0.0
 40
0.0
 41
0.0
  0
VERTEX
  5
   48A
  8
0
  6
CONTINUOUS
 10
-33.5086424758252
 20
39.3417367716406
 30
0.0
 40
0.0
 41
0.0
  0
VERTEX
  5
   48B
  8
0
  6
CONTINUOUS
 10
-33.497368200906
 20
39.2855237145359
 30
0.0
 40
0.0
 41
0.0
  0
VERTEX
  5
   48C
  8
0
  6
CONTINUOUS
 10
-33.4716225066774
 20
39.1727289513125
 30
0.0
 40
0.0
 41
0.0
  0
VERTEX
  5
   48D
  8
0
  6
CONTINUOUS
 10
-33.4420350387814
 20
39.0593802289633
 30
0.0
 40
0.0
 41
0.0
  0
VERTEX
  5
   48E
  8
0
  6
CONTINUOUS
 10
-33.4091538149892
 20
38.9454061831149
 30
0.0
 40
0.0
 41
0.0
  0
VERTEX
  5
   48F
  8
0
  6
CONTINUOUS
 10
-33.3735683178734
 20
38.8307413752943
 30
0.0
 40
0.0
 41
0.0
  0
VERTEX
  5
   490
  8
0
  6
CONTINUOUS
 10
-33.3359013253544
 20
38.7153283716684
 30
0.0
 40
0.0
 41
0.0
  0
VERTEX
  5
   491
  8
0
  6
CONTINUOUS
 10
-33.2169670262449
 20
38.3641895707699
 30
0.0
 40
0.0
 41
0.0
  0
VERTEX
  5
   492
  8
0
  6
CONTINUOUS
 10
-33.1775818073529
 20
38.2454422942929
 30
0.0
 40
0.0
 41
0.0
  0
VERTEX
  5
   493
  8
0
  6
CONTINUOUS
 10
-33.1394424819596
 20
38.1258524783444
 30
0.0
 40
0.0
 41
0.0
  0
VERTEX
  5
   494
  8
0
  6
CONTINUOUS
 10
-33.1032000415236
 20
38.0054543704703
 30
0.0
 40
0.0
 41
0.0
  0
VERTEX
  5
   495
  8
0
  6
CONTINUOUS
 10
-33.0694815866689
 20
37.8843047740358
 30
0.0
 40
0.0
 41
0.0
  0
VERTEX
  5
   496
  8
0
  6
CONTINUOUS
 10
-33.0388821577303
 20
37.7624851269655
 30
0.0
 40
0.0
 41
0.0
  0
VERTEX
  5
   497
  8
0
  6
CONTINUOUS
 10
-33.0119565652989
 20
37.640103580483
 30
0.0
 40
0.0
 41
0.0
  0
VERTEX
  5
   498
  8
0
  6
CONTINUOUS
 10
-33.0000318253108
 20
37.5787437082023
 30
0.0
 40
0.0
 41
0.0
  0
VERTEX
  5
   499
  8
0
  6
CONTINUOUS
 10
-32.9892112207675
 20
37.5172970778514
 30
0.0
 40
0.0
 41
0.0
  0
VERTEX
  5
   49A
  8
0
  6
CONTINUOUS
 10
-32.9803329013242
 20
37.4610751381982
 30
0.0
 40
0.0
 41
0.0
  0
VERTEX
  5
   49B
  8
0
  6
CONTINUOUS
 10
-32.972461191996
 20
37.4048172695114
 30
0.0
 40
0.0
 41
0.0
  0
VERTEX
  5
   49C
  8
0
  6
CONTINUOUS
 10
-32.9656319580678
 20
37.3485430327311
 30
0.0
 40
0.0
 41
0.0
  0
VERTEX
  5
   49D
  8
0
  6
CONTINUOUS
 10
-32.9598783303761
 20
37.2922732067664
 30
0.0
 40
0.0
 41
0.0
  0
VERTEX
  5
   49E
  8
0
  6
CONTINUOUS
 10
-32.9552307502004
 20
37.2360296787598
 30
0.0
 40
0.0
 41
0.0
  0
VERTEX
  5
   49F
  8
0
  6
CONTINUOUS
 10
-32.9517170141553
 20
37.1798353343523
 30
0.0
 40
0.0
 41
0.0
  0
VERTEX
  5
   4A0
  8
0
  6
CONTINUOUS
 10
-32.9493623190827
 20
37.1237139479478
 30
0.0
 40
0.0
 41
0.0
  0
VERTEX
  5
   4A1
  8
0
  6
CONTINUOUS
 10
-32.9481893069432
 20
37.0676900729781
 30
0.0
 40
0.0
 41
0.0
  0
VERTEX
  5
   4A2
  8
0
  6
CONTINUOUS
 10
-32.9482181097088
 20
37.0117889321673
 30
0.0
 40
0.0
 41
0.0
  0
VERTEX
  5
   4A3
  8
0
  6
CONTINUOUS
 10
-32.9494663942539
 20
36.9560363077971
 30
0.0
 40
0.0
 41
0.0
  0
VERTEX
  5
   4A4
  8
0
  6
CONTINUOUS
 10
-32.9519494072481
 20
36.9004584319707
 30
0.0
 40
0.0
 41
0.0
  0
VERTEX
  5
   4A5
  8
0
  6
CONTINUOUS
 10
-32.9556800200475
 20
36.8450818768784
 30
0.0
 40
0.0
 41
0.0
  0
VERTEX
  5
   4A6
  8
0
  6
CONTINUOUS
 10
-32.9606687735871
 20
36.7899334450617
 30
0.0
 40
0.0
 41
0.0
  0
VERTEX
  5
   4A7
  8
0
  6
CONTINUOUS
 10
-32.9669239232723
 20
36.7350400596783
 30
0.0
 40
0.0
 41
0.0
  0
VERTEX
  5
   4A8
  8
0
  6
CONTINUOUS
 10
-32.9744514838711
 20
36.680428654767
 30
0.0
 40
0.0
 41
0.0
  0
VERTEX
  5
   4A9
  8
0
  6
CONTINUOUS
 10
-32.9832552744063
 20
36.6261260655119
 30
0.0
 40
0.0
 41
0.0
  0
VERTEX
  5
   4AA
  8
0
  6
CONTINUOUS
 10
-32.9933369630467
 20
36.5721589185077
 30
0.0
 40
0.0
 41
0.0
  0
VERTEX
  5
   4AB
  8
0
  6
CONTINUOUS
 10
-33.0046961119997
 20
36.518553522024
 30
0.0
 40
0.0
 41
0.0
  0
VERTEX
  5
   4AC
  8
0
  6
CONTINUOUS
 10
-33.017330222403
 20
36.4653357562705
 30
0.0
 40
0.0
 41
0.0
  0
VERTEX
  5
   4AD
  8
0
  6
CONTINUOUS
 10
-33.0312347792164
 20
36.4125309636612
 30
0.0
 40
0.0
 41
0.0
  0
VERTEX
  5
   4AE
  8
0
  6
CONTINUOUS
 10
-33.046403296114
 20
36.3601638390795
 30
0.0
 40
0.0
 41
0.0
  0
VERTEX
  5
   4AF
  8
0
  6
CONTINUOUS
 10
-33.0628273603759
 20
36.3082583201427
 30
0.0
 40
0.0
 41
0.0
  0
VERTEX
  5
   4B0
  8
0
  6
CONTINUOUS
 10
-33.0804966777803
 20
36.2568374774671
 30
0.0
 40
0.0
 41
0.0
  0
VERTEX
  5
   4B1
  8
0
  6
CONTINUOUS
 10
-33.0993991174953
 20
36.2059234049321
 30
0.0
 40
0.0
 41
0.0
  0
VERTEX
  5
   4B2
  8
0
  6
CONTINUOUS
 10
-33.1195207569711
 20
36.1555371099457
 30
0.0
 40
0.0
 41
0.0
  0
VERTEX
  5
   4B3
  8
0
  6
CONTINUOUS
 10
-33.1408459268314
 20
36.1056984037087
 30
0.0
 40
0.0
 41
0.0
  0
VERTEX
  5
   4B4
  8
0
  6
CONTINUOUS
 10
-33.1633572557661
 20
36.0564257914795
 30
0.0
 40
0.0
 41
0.0
  0
VERTEX
  5
   4B5
  8
0
  6
CONTINUOUS
 10
-33.1870357154223
 20
36.0077363628388
 30
0.0
 40
0.0
 41
0.0
  0
VERTEX
  5
   4B6
  8
0
  6
CONTINUOUS
 10
-33.2118606652972
 20
35.9596456819549
 30
0.0
 40
0.0
 41
0.0
  0
VERTEX
  5
   4B7
  8
0
  6
CONTINUOUS
 10
-33.2378098976293
 20
35.9121676778474
 30
0.0
 40
0.0
 41
0.0
  0
VERTEX
  5
   4B8
  8
0
  6
CONTINUOUS
 10
-33.2648596822908
 20
35.865314534653
 30
0.0
 40
0.0
 41
0.0
  0
VERTEX
  5
   4B9
  8
0
  6
CONTINUOUS
 10
-33.2929848116792
 20
35.8190965818892
 30
0.0
 40
0.0
 41
0.0
  0
VERTEX
  5
   4BA
  8
0
  6
CONTINUOUS
 10
-33.3221586456093
 20
35.7735221847202
 30
0.0
 40
0.0
 41
0.0
  0
VERTEX
  5
   4BB
  8
0
  6
CONTINUOUS
 10
-33.3523531562056
 20
35.7285976342205
 30
0.0
 40
0.0
 41
0.0
  0
VERTEX
  5
   4BC
  8
0
  6
CONTINUOUS
 10
-33.3835389727934
 20
35.6843270376403
 30
0.0
 40
0.0
 41
0.0
  0
VERTEX
  5
   4BD
  8
0
  6
CONTINUOUS
 10
-33.4156854267914
 20
35.6407122086701
 30
0.0
 40
0.0
 41
0.0
  0
VERTEX
  5
   4BE
  8
0
  6
CONTINUOUS
 10
-33.4487605966035
 20
35.5977525577053
 30
0.0
 40
0.0
 41
0.0
  0
VERTEX
  5
   4BF
  8
0
  6
CONTINUOUS
 10
-33.4827313525105
 20
35.5554449821111
 30
0.0
 40
0.0
 41
0.0
  0
VERTEX
  5
   4C0
  8
0
  6
CONTINUOUS
 10
-33.5175634015622
 20
35.5137837564871
 30
0.0
 40
0.0
 41
0.0
  0
VERTEX
  5
   4C1
  8
0
  6
CONTINUOUS
 10
-33.5532213324693
 20
35.4727604229322
 30
0.0
 40
0.0
 41
0.0
  0
VERTEX
  5
   4C2
  8
0
  6
CONTINUOUS
 10
-33.6117805248593
 20
35.4085483926554
 30
0.0
 40
0.0
 41
0.0
  0
VERTEX
  5
   4C3
  8
0
  6
CONTINUOUS
 10
-33.6721983828556
 20
35.3458719872802
 30
0.0
 40
0.0
 41
0.0
  0
VERTEX
  5
   4C4
  8
0
  6
CONTINUOUS
 10
-33.7343156412997
 20
35.28465283672
 30
0.0
 40
0.0
 41
0.0
  0
VERTEX
  5
   4C5
  8
0
  6
CONTINUOUS
 10
-33.7979686626175
 20
35.2247970930239
 30
0.0
 40
0.0
 41
0.0
  0
VERTEX
  5
   4C6
  8
0
  6
CONTINUOUS
 10
-33.862990593962
 20
35.1661972869167
 30
0.0
 40
0.0
 41
0.0
  0
VERTEX
  5
   4C7
  8
0
  6
CONTINUOUS
 10
-33.9292125243559
 20
35.1087341843395
 30
0.0
 40
0.0
 41
0.0
  0
VERTEX
  5
   4C8
  8
0
  6
CONTINUOUS
 10
-33.9964646418334
 20
35.0522786429904
 30
0.0
 40
0.0
 41
0.0
  0
VERTEX
  5
   4C9
  8
0
  6
CONTINUOUS
 10
-34.0645773905831
 20
34.9966934688648
 30
0.0
 40
0.0
 41
0.0
  0
VERTEX
  5
   4CA
  8
0
  6
CONTINUOUS
 10
-34.2027147822782
 20
34.8875563269937
 30
0.0
 40
0.0
 41
0.0
  0
VERTEX
  5
   4CB
  8
0
  6
CONTINUOUS
 10
-34.4821558896585
 20
34.6732306051872
 30
0.0
 40
0.0
 41
0.0
  0
VERTEX
  5
   4CC
  8
0
  6
CONTINUOUS
 10
-34.621116396639
 20
34.5656953334714
 30
0.0
 40
0.0
 41
0.0
  0
VERTEX
  5
   4CD
  8
0
  6
CONTINUOUS
 10
-34.7582370687896
 20
34.4564890703877
 30
0.0
 40
0.0
 41
0.0
  0
VERTEX
  5
   4CE
  8
0
  6
CONTINUOUS
 10
-34.8258576375839
 20
34.400978741419
 30
0.0
 40
0.0
 41
0.0
  0
VERTEX
  5
   4CF
  8
0
  6
CONTINUOUS
 10
-34.8927453477612
 20
34.3447401995285
 30
0.0
 40
0.0
 41
0.0
  0
VERTEX
  5
   4D0
  8
0
  6
CONTINUOUS
 10
-34.9680696806233
 20
34.2796095309967
 30
0.0
 40
0.0
 41
0.0
  0
VERTEX
  5
   4D1
  8
0
  6
CONTINUOUS
 10
-35.0422965576032
 20
34.2133561569608
 30
0.0
 40
0.0
 41
0.0
  0
VERTEX
  5
   4D2
  8
0
  6
CONTINUOUS
 10
-35.1153867127143
 20
34.145927464206
 30
0.0
 40
0.0
 41
0.0
  0
VERTEX
  5
   4D3
  8
0
  6
CONTINUOUS
 10
-35.187324875777
 20
34.0772971004589
 30
0.0
 40
0.0
 41
0.0
  0
VERTEX
  5
   4D4
  8
0
  6
CONTINUOUS
 10
-35.2581178411438
 20
34.0074629198007
 30
0.0
 40
0.0
 41
0.0
  0
VERTEX
  5
   4D5
  8
0
  6
CONTINUOUS
 10
-35.3277925364247
 20
33.9364449280792
 30
0.0
 40
0.0
 41
0.0
  0
VERTEX
  5
   4D6
  8
0
  6
CONTINUOUS
 10
-35.3963940912122
 20
33.8642832283217
 30
0.0
 40
0.0
 41
0.0
  0
VERTEX
  5
   4D7
  8
0
  6
CONTINUOUS
 10
-35.4639839058069
 20
33.791035966147
 30
0.0
 40
0.0
 41
0.0
  0
VERTEX
  5
   4D8
  8
0
  6
CONTINUOUS
 10
-35.530637719942
 20
33.7167772751785
 30
0.0
 40
0.0
 41
0.0
  0
VERTEX
  5
   4D9
  8
0
  6
CONTINUOUS
 10
-35.5964436815092
 20
33.641595222456
 30
0.0
 40
0.0
 41
0.0
  0
VERTEX
  5
   4DA
  8
0
  6
CONTINUOUS
 10
-35.7259150916481
 20
33.4888706394673
 30
0.0
 40
0.0
 41
0.0
  0
VERTEX
  5
   4DB
  8
0
  6
CONTINUOUS
 10
-35.8532780940779
 20
33.3337673475097
 30
0.0
 40
0.0
 41
0.0
  0
VERTEX
  5
   4DC
  8
0
  6
CONTINUOUS
 10
-36.2322693630531
 20
32.8642136563112
 30
0.0
 40
0.0
 41
0.0
  0
VERTEX
  5
   4DD
  8
0
  6
CONTINUOUS
 10
-36.3604403391419
 20
32.7096447751847
 30
0.0
 40
0.0
 41
0.0
  0
VERTEX
  5
   4DE
  8
0
  6
CONTINUOUS
 10
-36.4908036232559
 20
32.5572926971213
 30
0.0
 40
0.0
 41
0.0
  0
VERTEX
  5
   4DF
  8
0
  6
CONTINUOUS
 10
-36.5569668998372
 20
32.4821283556084
 30
0.0
 40
0.0
 41
0.0
  0
VERTEX
  5
   4E0
  8
0
  6
CONTINUOUS
 10
-36.6238503648737
 20
32.4077148804706
 30
0.0
 40
0.0
 41
0.0
  0
VERTEX
  5
   4E1
  8
0
  6
CONTINUOUS
 10
-36.6914918226345
 20
32.3340975895921
 30
0.0
 40
0.0
 41
0.0
  0
VERTEX
  5
   4E2
  8
0
  6
CONTINUOUS
 10
-36.7599202385425
 20
32.2613124873524
 30
0.0
 40
0.0
 41
0.0
  0
VERTEX
  5
   4E3
  8
0
  6
CONTINUOUS
 10
-36.829156053343
 20
32.1893864921321
 30
0.0
 40
0.0
 41
0.0
  0
VERTEX
  5
   4E4
  8
0
  6
CONTINUOUS
 10
-36.8992114972724
 20
32.1183376638171
 30
0.0
 40
0.0
 41
0.0
  0
VERTEX
  5
   4E5
  8
0
  6
CONTINUOUS
 10
-36.970090904227
 20
32.0481754313045
 30
0.0
 40
0.0
 41
0.0
  0
VERTEX
  5
   4E6
  8
0
  6
CONTINUOUS
 10
-37.0417910259312
 20
31.9789008200067
 30
0.0
 40
0.0
 41
0.0
  0
VERTEX
  5
   4E7
  8
0
  6
CONTINUOUS
 10
-37.1143013461061
 20
31.9105066793573
 30
0.0
 40
0.0
 41
0.0
  0
VERTEX
  5
   4E8
  8
0
  6
CONTINUOUS
 10
-37.1876043946384
 20
31.8429779103153
 30
0.0
 40
0.0
 41
0.0
  0
VERTEX
  5
   4E9
  8
0
  6
CONTINUOUS
 10
-37.2616760617486
 20
31.776291692871
 30
0.0
 40
0.0
 41
0.0
  0
VERTEX
  5
   4EA
  8
0
  6
CONTINUOUS
 10
-37.3364859121599
 20
31.7104177135502
 30
0.0
 40
0.0
 41
0.0
  0
VERTEX
  5
   4EB
  8
0
  6
CONTINUOUS
 10
-37.4881686793024
 20
31.5809491130922
 30
0.0
 40
0.0
 41
0.0
  0
VERTEX
  5
   4EC
  8
0
  6
CONTINUOUS
 10
-37.6422946423077
 20
31.4541883770566
 30
0.0
 40
0.0
 41
0.0
  0
VERTEX
  5
   4ED
  8
0
  6
CONTINUOUS
 10
-37.8382611539297
 20
31.2983610832009
 30
0.0
 40
0.0
 41
0.0
  0
VERTEX
  5
   4EE
  8
0
  6
CONTINUOUS
 10
-38.0363525845926
 20
31.1448449519823
 30
0.0
 40
0.0
 41
0.0
  0
VERTEX
  5
   4EF
  8
0
  6
CONTINUOUS
 10
-38.4341736744415
 20
30.8392644189658
 30
0.0
 40
0.0
 41
0.0
  0
VERTEX
  5
   4F0
  8
0
  6
CONTINUOUS
 10
-38.6313114256286
 20
30.6842536330309
 30
0.0
 40
0.0
 41
0.0
  0
VERTEX
  5
   4F1
  8
0
  6
CONTINUOUS
 10
-38.7288454809929
 20
30.6055441955452
 30
0.0
 40
0.0
 41
0.0
  0
VERTEX
  5
   4F2
  8
0
  6
CONTINUOUS
 10
-38.8254619005062
 20
30.5257944709663
 30
0.0
 40
0.0
 41
0.0
  0
VERTEX
  5
   4F3
  8
0
  6
CONTINUOUS
 10
-38.9209912715739
 20
30.4448354570386
 30
0.0
 40
0.0
 41
0.0
  0
VERTEX
  5
   4F4
  8
0
  6
CONTINUOUS
 10
-39.0152666478319
 20
30.3625080022036
 30
0.0
 40
0.0
 41
0.0
  0
VERTEX
  5
   4F5
  8
0
  6
CONTINUOUS
 10
-39.1081246682189
 20
30.2786648873112
 30
0.0
 40
0.0
 41
0.0
  0
VERTEX
  5
   4F6
  8
0
  6
CONTINUOUS
 10
-39.1994066760493
 20
30.1931729073307
 30
0.0
 40
0.0
 41
0.0
  0
VERTEX
  5
   4F7
  8
0
  6
CONTINUOUS
 10
-39.2889598380854
 20
30.1059149530621
 30
0.0
 40
0.0
 41
0.0
  0
VERTEX
  5
   4F8
  8
0
  6
CONTINUOUS
 10
-39.3766382636106
 20
30.0167920928465
 30
0.0
 40
0.0
 41
0.0
  0
VERTEX
  5
   4F9
  8
0
  6
CONTINUOUS
 10
-39.4623041235017
 20
29.9257256542779
 30
0.0
 40
0.0
 41
0.0
  0
VERTEX
  5
   4FA
  8
0
  6
CONTINUOUS
 10
-39.5458287693014
 20
29.8326593059138
 30
0.0
 40
0.0
 41
0.0
  0
VERTEX
  5
   4FB
  8
0
  6
CONTINUOUS
 10
-39.6048486118287
 20
29.7640690724042
 30
0.0
 40
0.0
 41
0.0
  0
VERTEX
  5
   4FC
  8
0
  6
CONTINUOUS
 10
-39.6626445473686
 20
29.6944112346975
 30
0.0
 40
0.0
 41
0.0
  0
VERTEX
  5
   4FD
  8
0
  6
CONTINUOUS
 10
-39.7191783735123
 20
29.6236886842443
 30
0.0
 40
0.0
 41
0.0
  0
VERTEX
  5
   4FE
  8
0
  6
CONTINUOUS
 10
-39.7744147817127
 20
29.5519103926992
 30
0.0
 40
0.0
 41
0.0
  0
VERTEX
  5
   4FF
  8
0
  6
CONTINUOUS
 10
-39.8283212406627
 20
29.4790908228357
 30
0.0
 40
0.0
 41
0.0
  0
VERTEX
  5
   500
  8
0
  6
CONTINUOUS
 10
-39.8808678796734
 20
29.40524933946
 30
0.0
 40
0.0
 41
0.0
  0
VERTEX
  5
   501
  8
0
  6
CONTINUOUS
 10
-39.932027372052
 20
29.330409620326
 30
0.0
 40
0.0
 41
0.0
  0
VERTEX
  5
   502
  8
0
  6
CONTINUOUS
 10
-39.9817748184799
 20
29.2545990670496
 30
0.0
 40
0.0
 41
0.0
  0
VERTEX
  5
   503
  8
0
  6
CONTINUOUS
 10
-40.0300876303909
 20
29.1778482160231
 30
0.0
 40
0.0
 41
0.0
  0
VERTEX
  5
   504
  8
0
  6
CONTINUOUS
 10
-40.0769454133492
 20
29.1001901493295
 30
0.0
 40
0.0
 41
0.0
  0
VERTEX
  5
   505
  8
0
  6
CONTINUOUS
 10
-40.1223298504273
 20
29.0216599056574
 30
0.0
 40
0.0
 41
0.0
  0
VERTEX
  5
   506
  8
0
  6
CONTINUOUS
 10
-40.1662245855847
 20
28.9422938912151
 30
0.0
 40
0.0
 41
0.0
  0
VERTEX
  5
   507
  8
0
  6
CONTINUOUS
 10
-40.2086151070451
 20
28.8621292906451
 30
0.0
 40
0.0
 41
0.0
  0
VERTEX
  5
   508
  8
0
  6
CONTINUOUS
 10
-40.2494886306752
 20
28.7812034779388
 30
0.0
 40
0.0
 41
0.0
  0
VERTEX
  5
   509
  8
0
  6
CONTINUOUS
 10
-40.2888339833626
 20
28.6995534273507
 30
0.0
 40
0.0
 41
0.0
  0
VERTEX
  5
   50A
  8
0
  6
CONTINUOUS
 10
-40.3266414863936
 20
28.6172151243128
 30
0.0
 40
0.0
 41
0.0
  0
VERTEX
  5
   50B
  8
0
  6
CONTINUOUS
 10
-40.3629028388316
 20
28.5342229763494
 30
0.0
 40
0.0
 41
0.0
  0
VERTEX
  5
   50C
  8
0
  6
CONTINUOUS
 10
-40.3976110008952
 20
28.4506092239913
 30
0.0
 40
0.0
 41
0.0
  0
VERTEX
  5
   50D
  8
0
  6
CONTINUOUS
 10
-40.430760077336
 20
28.3664033516903
 30
0.0
 40
0.0
 41
0.0
  0
VERTEX
  5
   50E
  8
0
  6
CONTINUOUS
 10
-40.4623452008169
 20
28.2816314987337
 30
0.0
 40
0.0
 41
0.0
  0
VERTEX
  5
   50F
  8
0
  6
CONTINUOUS
 10
-40.4890877035493
 20
28.2058710848104
 30
0.0
 40
0.0
 41
0.0
  0
VERTEX
  5
   510
  8
0
  6
CONTINUOUS
 10
-40.5145907251778
 20
28.1296943872732
 30
0.0
 40
0.0
 41
0.0
  0
VERTEX
  5
   511
  8
0
  6
CONTINUOUS
 10
-40.5388524719878
 20
28.0531116161452
 30
0.0
 40
0.0
 41
0.0
  0
VERTEX
  5
   512
  8
0
  6
CONTINUOUS
 10
-40.5618715461192
 20
27.9761307282028
 30
0.0
 40
0.0
 41
0.0
  0
VERTEX
  5
   513
  8
0
  6
CONTINUOUS
 10
-40.5836468960841
 20
27.8987577086319
 30
0.0
 40
0.0
 41
0.0
  0
VERTEX
  5
   514
  8
0
  6
CONTINUOUS
 10
-40.6041777672853
 20
27.8209968526837
 30
0.0
 40
0.0
 41
0.0
  0
VERTEX
  5
   515
  8
0
  6
CONTINUOUS
 10
-40.6234636525346
 20
27.7428510473301
 30
0.0
 40
0.0
 41
0.0
  0
VERTEX
  5
   516
  8
0
  6
CONTINUOUS
 10
-40.641504242571
 20
27.6643220529199
 30
0.0
 40
0.0
 41
0.0
  0
VERTEX
  5
   517
  8
0
  6
CONTINUOUS
 10
-40.6582993765786
 20
27.5854107848345
 30
0.0
 40
0.0
 41
0.0
  0
VERTEX
  5
   518
  8
0
  6
CONTINUOUS
 10
-40.6738489927051
 20
27.5061175951437
 30
0.0
 40
0.0
 41
0.0
  0
SEQEND
  5
   519
  8
0
  6
CONTINUOUS
 62
     1
  0
LINE
  5
   51A
  8
0
  6
CONTINUOUS
 62
     7
 10
32.223592443189
 20
42.0484161376924
 30
0.0
 11
-32.6897906436987
 21
42.0484161376924
 31
0.0
  0
ARC
  5
   51B
  8
0
  6
CONTINUOUS
 62
     7
 10
32.223592443189
 20
41.4234161376924
 30
0.0
 40
0.625
 50
359.999999948034
 51
449.999999948034
  0
LINE
  5
   51C
  8
0
  6
CONTINUOUS
 62
     7
 10
32.848592443189
 20
29.5484158952225
 30
0.0
 11
-39.777050115031
 21
29.5484158952225
 31
0.0
  0
LINE
  5
   51D
  8
0
  6
CONTINUOUS
 62
     7
 10
31.8985878655522
 20
28.5484158952225
 30
0.0
 11
31.8985878655522
 21
29.5484158952225
 31
0.0
  0
LINE
  5
   51E
  8
0
  6
CONTINUOUS
 62
     1
 10
30.7485863396733
 20
29.5484158952225
 30
0.0
 11
30.7485863396733
 21
42.0484161376924
 31
0.0
  0
LINE
  5
   51F
  8
0
  6
CONTINUOUS
 62
     1
 10
28.9485863396733
 20
29.5484158952225
 30
0.0
 11
28.9485863396733
 21
42.0484161376924
 31
0.0
  0
LINE
  5
   520
  8
0
  6
CONTINUOUS
 62
     1
 10
27.1485863396733
 20
29.5484158952225
 30
0.0
 11
27.1485863396733
 21
42.0484161376924
 31
0.0
  0
LINE
  5
   521
  8
0
  6
CONTINUOUS
 62
     1
 10
25.3485863396733
 20
29.5484158952225
 30
0.0
 11
25.3485863396733
 21
42.0484161376924
 31
0.0
  0
LINE
  5
   522
  8
0
  6
CONTINUOUS
 62
     1
 10
23.5485863396733
 20
29.5484158952225
 30
0.0
 11
23.5485863396733
 21
42.0484161376924
 31
0.0
  0
LINE
  5
   523
  8
0
  6
CONTINUOUS
 62
     1
 10
21.7485863396733
 20
29.5484158952225
 30
0.0
 11
21.7485863396733
 21
42.0484161376924
 31
0.0
  0
LINE
  5
   524
  8
0
  6
CONTINUOUS
 62
     1
 10
19.9485863396733
 20
29.5484158952225
 30
0.0
 11
19.9485863396733
 21
42.0484161376924
 31
0.0
  0
LINE
  5
   525
  8
0
  6
CONTINUOUS
 62
     1
 10
18.1485863396734
 20
29.5484158952225
 30
0.0
 11
18.1485863396734
 21
42.0484161376924
 31
0.0
  0
LINE
  5
   526
  8
0
  6
CONTINUOUS
 62
     1
 10
16.3485863396734
 20
29.5484158952225
 30
0.0
 11
16.3485863396734
 21
42.0484161376924
 31
0.0
  0
LINE
  5
   527
  8
0
  6
CONTINUOUS
 62
     1
 10
14.5485863396734
 20
29.5484158952225
 30
0.0
 11
14.5485863396734
 21
42.0484161376924
 31
0.0
  0
LINE
  5
   528
  8
0
  6
CONTINUOUS
 62
     1
 10
12.7485863396734
 20
29.5484158952225
 30
0.0
 11
12.7485863396734
 21
42.0484161376924
 31
0.0
  0
LINE
  5
   529
  8
0
  6
CONTINUOUS
 62
     1
 10
10.9485863396734
 20
29.5484158952225
 30
0.0
 11
10.9485863396734
 21
42.0484161376924
 31
0.0
  0
LINE
  5
   52A
  8
0
  6
CONTINUOUS
 62
     1
 10
9.14858633967336
 20
29.5484158952225
 30
0.0
 11
9.14858633967336
 21
42.0484161376924
 31
0.0
  0
LINE
  5
   52B
  8
0
  6
CONTINUOUS
 62
     1
 10
7.34858633967336
 20
29.5484158952225
 30
0.0
 11
7.34858633967336
 21
42.0484161376924
 31
0.0
  0
LINE
  5
   52C
  8
0
  6
CONTINUOUS
 62
     1
 10
5.54858633967336
 20
29.5484158952225
 30
0.0
 11
5.54858633967336
 21
42.0484161376924
 31
0.0
  0
LINE
  5
   52D
  8
0
  6
CONTINUOUS
 62
     1
 10
3.74858633967336
 20
29.5484158952225
 30
0.0
 11
3.74858633967336
 21
42.0484161376924
 31
0.0
  0
LINE
  5
   52E
  8
0
  6
CONTINUOUS
 62
     1
 10
1.94858633967335
 20
29.5484158952225
 30
0.0
 11
1.94858633967335
 21
42.0484161376924
 31
0.0
  0
LINE
  5
   52F
  8
0
  6
CONTINUOUS
 62
     1
 10
0.148586339673354
 20
29.5484158952225
 30
0.0
 11
0.148586339673354
 21
42.0484161376924
 31
0.0
  0
LINE
  5
   530
  8
0
  6
CONTINUOUS
 62
     1
 10
-1.65141366032665
 20
29.5484158952225
 30
0.0
 11
-1.65141366032665
 21
42.0484161376924
 31
0.0
  0
LINE
  5
   531
  8
0
  6
CONTINUOUS
 62
     1
 10
-3.45141366032665
 20
29.5484158952225
 30
0.0
 11
-3.45141366032665
 21
42.0484161376924
 31
0.0
  0
LINE
  5
   532
  8
0
  6
CONTINUOUS
 62
     1
 10
-5.25141366032665
 20
29.5484158952225
 30
0.0
 11
-5.25141366032665
 21
42.0484161376924
 31
0.0
  0
LINE
  5
   533
  8
0
  6
CONTINUOUS
 62
     1
 10
-7.05141366032665
 20
29.5484158952225
 30
0.0
 11
-7.05141366032665
 21
42.0484161376924
 31
0.0
  0
LINE
  5
   534
  8
0
  6
CONTINUOUS
 62
     1
 10
-8.85141366032665
 20
29.5484158952225
 30
0.0
 11
-8.85141366032665
 21
42.0484161376924
 31
0.0
  0
LINE
  5
   535
  8
0
  6
CONTINUOUS
 62
     1
 10
-10.6514136603266
 20
29.5484158952225
 30
0.0
 11
-10.6514136603266
 21
42.0484161376924
 31
0.0
  0
LINE
  5
   536
  8
0
  6
CONTINUOUS
 62
     1
 10
-12.4514136603267
 20
29.5484158952225
 30
0.0
 11
-12.4514136603267
 21
42.0484161376924
 31
0.0
  0
LINE
  5
   537
  8
0
  6
CONTINUOUS
 62
     1
 10
-14.2514136603267
 20
29.5484158952225
 30
0.0
 11
-14.2514136603267
 21
42.0484161376924
 31
0.0
  0
LINE
  5
   538
  8
0
  6
CONTINUOUS
 62
     1
 10
-16.0514136603266
 20
29.5484158952225
 30
0.0
 11
-16.0514136603266
 21
42.0484161376924
 31
0.0
  0
LINE
  5
   539
  8
0
  6
CONTINUOUS
 62
     1
 10
-17.8514136603266
 20
29.5484158952225
 30
0.0
 11
-17.8514136603266
 21
42.0484161376924
 31
0.0
  0
LINE
  5
   53A
  8
0
  6
CONTINUOUS
 62
     1
 10
-19.6514136603267
 20
29.5484158952225
 30
0.0
 11
-19.6514136603267
 21
42.0484161376924
 31
0.0
  0
LINE
  5
   53B
  8
0
  6
CONTINUOUS
 62
     1
 10
-21.4514136603267
 20
29.5484158952225
 30
0.0
 11
-21.4514136603267
 21
42.0484161376924
 31
0.0
  0
LINE
  5
   53C
  8
0
  6
CONTINUOUS
 62
     1
 10
-23.2514136603266
 20
29.5484158952225
 30
0.0
 11
-23.2514136603266
 21
42.0484161376924
 31
0.0
  0
LINE
  5
   53D
  8
0
  6
CONTINUOUS
 62
     1
 10
-25.0514136603267
 20
29.5484158952225
 30
0.0
 11
-25.0514136603267
 21
42.0484161376924
 31
0.0
  0
LINE
  5
   53E
  8
0
  6
CONTINUOUS
 62
     1
 10
-26.8514136603267
 20
29.5484158952225
 30
0.0
 11
-26.8514136603267
 21
42.0484161376924
 31
0.0
  0
LINE
  5
   53F
  8
0
  6
CONTINUOUS
 62
     1
 10
-28.6514136603267
 20
29.5484158952225
 30
0.0
 11
-28.6514136603267
 21
42.0484161376924
 31
0.0
  0
LINE
  5
   540
  8
0
  6
CONTINUOUS
 62
     1
 10
-30.4514136603267
 20
29.5484158952225
 30
0.0
 11
-30.4514136603267
 21
42.0484161376924
 31
0.0
  0
LINE
  5
   541
  8
0
  6
CONTINUOUS
 62
     1
 10
-32.2514136603266
 20
29.5484158952225
 30
0.0
 11
-32.2514136603266
 21
42.0484161376924
 31
0.0
  0
LINE
  5
   542
  8
0
  6
CONTINUOUS
 62
     1
 10
-34.0514136603267
 20
29.5484158952225
 30
0.0
 11
-34.0514136603267
 21
35.0072528547007
 31
0.0
  0
LINE
  5
   543
  8
0
  6
CONTINUOUS
 62
     1
 10
-35.8514136603267
 20
29.5484158952225
 30
0.0
 11
-35.8514136603267
 21
33.3361999621955
 31
0.0
  0
LINE
  5
   544
  8
0
  6
CONTINUOUS
 62
     1
 10
-37.6514136603267
 20
29.5484158952225
 30
0.0
 11
-37.6514136603267
 21
31.4468177668416
 31
0.0
  0
LINE
  5
   545
  8
0
  6
CONTINUOUS
 62
     1
 10
0.148586339673354
 20
-94.4515686035186
 30
0.0
 11
0.148586339673354
 21
-81.9515683610487
 31
0.0
  0
LINE
  5
   546
  8
0
  6
CONTINUOUS
 62
     1
 10
-5.25141366032665
 20
-94.4515686035186
 30
0.0
 11
-5.25141366032665
 21
-81.9515683610487
 31
0.0
  0
LINE
  5
   547
  8
0
  6
CONTINUOUS
 62
     7
 10
32.223592443189
 20
-94.4515686035186
 30
0.0
 11
-32.6897906436987
 21
-94.4515686035186
 31
0.0
  0
LINE
  5
   548
  8
0
  6
CONTINUOUS
 62
     7
 10
32.848592443189
 20
-81.9515683610487
 30
0.0
 11
-39.777050115031
 21
-81.9515683610487
 31
0.0
  0
ARC
  5
   549
  8
0
  6
CONTINUOUS
 62
     7
 10
32.223592443189
 20
-93.8265686035186
 30
0.0
 40
0.625
 50
269.999999948034
 51
359.999999948034
  0
LINE
  5
   54A
  8
0
  6
CONTINUOUS
 62
     1
 10
30.7485863396733
 20
-94.4515686035186
 30
0.0
 11
30.7485863396733
 21
-81.9515683610487
 31
0.0
  0
LINE
  5
   54B
  8
0
  6
CONTINUOUS
 62
     1
 10
28.9485863396733
 20
-94.4515686035186
 30
0.0
 11
28.9485863396733
 21
-81.9515683610487
 31
0.0
  0
LINE
  5
   54C
  8
0
  6
CONTINUOUS
 62
     1
 10
27.1485863396733
 20
-94.4515686035186
 30
0.0
 11
27.1485863396733
 21
-81.9515683610487
 31
0.0
  0
LINE
  5
   54D
  8
0
  6
CONTINUOUS
 62
     7
 10
31.8985878655522
 20
-81.9515683610487
 30
0.0
 11
31.8985878655522
 21
-80.9515683610487
 31
0.0
  0
LINE
  5
   54E
  8
0
  6
CONTINUOUS
 62
     1
 10
23.5485863396733
 20
-94.4515686035186
 30
0.0
 11
23.5485863396733
 21
-81.9515683610487
 31
0.0
  0
LINE
  5
   54F
  8
0
  6
CONTINUOUS
 62
     1
 10
21.7485863396733
 20
-94.4515686035186
 30
0.0
 11
21.7485863396733
 21
-81.9515683610487
 31
0.0
  0
LINE
  5
   550
  8
0
  6
CONTINUOUS
 62
     1
 10
19.9485863396733
 20
-94.4515686035186
 30
0.0
 11
19.9485863396733
 21
-81.9515683610487
 31
0.0
  0
LINE
  5
   551
  8
0
  6
CONTINUOUS
 62
     1
 10
16.3485863396734
 20
-94.4515686035186
 30
0.0
 11
16.3485863396734
 21
-81.9515683610487
 31
0.0
  0
LINE
  5
   552
  8
0
  6
CONTINUOUS
 62
     1
 10
14.5485863396734
 20
-94.4515686035186
 30
0.0
 11
14.5485863396734
 21
-81.9515683610487
 31
0.0
  0
LINE
  5
   553
  8
0
  6
CONTINUOUS
 62
     1
 10
12.7485863396734
 20
-94.4515686035186
 30
0.0
 11
12.7485863396734
 21
-81.9515683610487
 31
0.0
  0
LINE
  5
   554
  8
0
  6
CONTINUOUS
 62
     1
 10
10.9485863396734
 20
-94.4515686035186
 30
0.0
 11
10.9485863396734
 21
-81.9515683610487
 31
0.0
  0
LINE
  5
   555
  8
0
  6
CONTINUOUS
 62
     1
 10
10.9485863396734
 20
-94.4515686035186
 30
0.0
 11
10.9485863396734
 21
-81.9515683610487
 31
0.0
  0
LINE
  5
   556
  8
0
  6
CONTINUOUS
 62
     1
 10
9.14858633967336
 20
-94.4515686035186
 30
0.0
 11
9.14858633967336
 21
-81.9515683610487
 31
0.0
  0
LINE
  5
   557
  8
0
  6
CONTINUOUS
 62
     1
 10
7.34858633967336
 20
-94.4515686035186
 30
0.0
 11
7.34858633967336
 21
-81.9515683610487
 31
0.0
  0
LINE
  5
   558
  8
0
  6
CONTINUOUS
 62
     1
 10
5.54858633967336
 20
-94.4515686035186
 30
0.0
 11
5.54858633967336
 21
-81.9515683610487
 31
0.0
  0
LINE
  5
   559
  8
0
  6
CONTINUOUS
 62
     1
 10
3.74858633967336
 20
-94.4515686035186
 30
0.0
 11
3.74858633967336
 21
-81.9515683610487
 31
0.0
  0
LINE
  5
   55A
  8
0
  6
CONTINUOUS
 62
     1
 10
-10.6514136603266
 20
-94.4515686035186
 30
0.0
 11
-10.6514136603266
 21
-81.9515683610487
 31
0.0
  0
LINE
  5
   55B
  8
0
  6
CONTINUOUS
 62
     1
 10
-8.85141366032665
 20
-94.4515686035186
 30
0.0
 11
-8.85141366032665
 21
-81.9515683610487
 31
0.0
  0
LINE
  5
   55C
  8
0
  6
CONTINUOUS
 62
     1
 10
-7.05141366032665
 20
-94.4515686035186
 30
0.0
 11
-7.05141366032665
 21
-81.9515683610487
 31
0.0
  0
LINE
  5
   55D
  8
0
  6
CONTINUOUS
 62
     1
 10
-5.25141366032665
 20
-94.4515686035186
 30
0.0
 11
-5.25141366032665
 21
-81.9515683610487
 31
0.0
  0
LINE
  5
   55E
  8
0
  6
CONTINUOUS
 62
     1
 10
-3.45141366032665
 20
-94.4515686035186
 30
0.0
 11
-3.45141366032665
 21
-81.9515683610487
 31
0.0
  0
LINE
  5
   55F
  8
0
  6
CONTINUOUS
 62
     1
 10
-1.65141366032665
 20
-94.4515686035186
 30
0.0
 11
-1.65141366032665
 21
-81.9515683610487
 31
0.0
  0
LINE
  5
   560
  8
0
  6
CONTINUOUS
 62
     1
 10
0.148586339673354
 20
-94.4515686035186
 30
0.0
 11
0.148586339673354
 21
-81.9515683610487
 31
0.0
  0
LINE
  5
   561
  8
0
  6
CONTINUOUS
 62
     1
 10
1.94858633967335
 20
-94.4515686035186
 30
0.0
 11
1.94858633967335
 21
-81.9515683610487
 31
0.0
  0
LINE
  5
   562
  8
0
  6
CONTINUOUS
 62
     1
 10
3.74858633967336
 20
-94.4515686035186
 30
0.0
 11
3.74858633967336
 21
-81.9515683610487
 31
0.0
  0
LINE
  5
   563
  8
0
  6
CONTINUOUS
 62
     1
 10
5.54858633967336
 20
-94.4515686035186
 30
0.0
 11
5.54858633967336
 21
-81.9515683610487
 31
0.0
  0
LINE
  5
   564
  8
0
  6
CONTINUOUS
 62
     1
 10
-17.8514136603266
 20
-94.4515686035186
 30
0.0
 11
-17.8514136603266
 21
-81.9515683610487
 31
0.0
  0
LINE
  5
   565
  8
0
  6
CONTINUOUS
 62
     1
 10
-16.0514136603266
 20
-94.4515686035186
 30
0.0
 11
-16.0514136603266
 21
-81.9515683610487
 31
0.0
  0
LINE
  5
   566
  8
0
  6
CONTINUOUS
 62
     1
 10
-21.4514136603267
 20
-94.4515686035186
 30
0.0
 11
-21.4514136603267
 21
-81.9515683610487
 31
0.0
  0
LINE
  5
   567
  8
0
  6
CONTINUOUS
 62
     1
 10
-23.2514136603266
 20
-94.4515686035186
 30
0.0
 11
-23.2514136603266
 21
-81.9515683610487
 31
0.0
  0
LINE
  5
   568
  8
0
  6
CONTINUOUS
 62
     1
 10
-26.8514136603267
 20
-94.4515686035186
 30
0.0
 11
-26.8514136603267
 21
-81.9515683610487
 31
0.0
  0
LINE
  5
   569
  8
0
  6
CONTINUOUS
 62
     1
 10
-28.6514136603267
 20
-94.4515686035186
 30
0.0
 11
-28.6514136603267
 21
-81.9515683610487
 31
0.0
  0
LINE
  5
   56A
  8
0
  6
CONTINUOUS
 62
     1
 10
-30.4514136603267
 20
-94.4515686035186
 30
0.0
 11
-30.4514136603267
 21
-81.9515683610487
 31
0.0
  0
LINE
  5
   56B
  8
0
  6
CONTINUOUS
 62
     1
 10
-30.4514136603267
 20
-94.4515686035186
 30
0.0
 11
-30.4514136603267
 21
-81.9515683610487
 31
0.0
  0
LINE
  5
   56C
  8
0
  6
CONTINUOUS
 62
     1
 10
-32.2514136603266
 20
-94.4515686035186
 30
0.0
 11
-32.2514136603266
 21
-81.9515683610487
 31
0.0
  0
LINE
  5
   56D
  8
0
  6
CONTINUOUS
 62
     1
 10
-34.0514136603267
 20
-87.4104053205269
 30
0.0
 11
-34.0514136603267
 21
-81.9515683610487
 31
0.0
  0
LINE
  5
   56E
  8
0
  6
CONTINUOUS
 62
     1
 10
-35.8514136603267
 20
-85.7393524280217
 30
0.0
 11
-35.8514136603267
 21
-81.9515683610487
 31
0.0
  0
LINE
  5
   56F
  8
0
  6
CONTINUOUS
 62
     1
 10
-37.6514136603267
 20
-83.8499702326678
 30
0.0
 11
-37.6514136603267
 21
-81.9515683610487
 31
0.0
  0
POLYLINE
  5
   570
  8
0
  6
CONTINUOUS
 62
     1
 66
     1
 10
0.0
 20
0.0
 30
0.0
  0
VERTEX
  5
   571
  8
0
  6
CONTINUOUS
 10
-32.072694789252
 20
-96.5475683561742
 30
0.0
 40
0.0
 41
0.0
  0
VERTEX
  5
   572
  8
0
  6
CONTINUOUS
 10
-32.0782613503561
 20
-96.4272127806385
 30
0.0
 40
0.0
 41
0.0
  0
VERTEX
  5
   573
  8
0
  6
CONTINUOUS
 10
-32.0876738533197
 20
-96.3069037086093
 30
0.0
 40
0.0
 41
0.0
  0
VERTEX
  5
   574
  8
0
  6
CONTINUOUS
 10
-32.1009291732004
 20
-96.1866411979811
 30
0.0
 40
0.0
 41
0.0
  0
VERTEX
  5
   575
  8
0
  6
CONTINUOUS
 10
-32.1180191851483
 20
-96.0664253992788
 30
0.0
 40
0.0
 41
0.0
  0
VERTEX
  5
   576
  8
0
  6
CONTINUOUS
 10
-32.1389282644517
 20
-95.9462566019738
 30
0.0
 40
0.0
 41
0.0
  0
VERTEX
  5
   577
  8
0
  6
CONTINUOUS
 10
-32.1636307865835
 20
-95.8261352807988
 30
0.0
 40
0.0
 41
0.0
  0
VERTEX
  5
   578
  8
0
  6
CONTINUOUS
 10
-32.1920886272474
 20
-95.7060621420639
 30
0.0
 40
0.0
 41
0.0
  0
VERTEX
  5
   579
  8
0
  6
CONTINUOUS
 10
-32.2242486624238
 20
-95.5860381699713
 30
0.0
 40
0.0
 41
0.0
  0
VERTEX
  5
   57A
  8
0
  6
CONTINUOUS
 10
-32.2600402684163
 20
-95.4660646729312
 30
0.0
 40
0.0
 41
0.0
  0
VERTEX
  5
   57B
  8
0
  6
CONTINUOUS
 10
-32.2993728218974
 20
-95.3461433298769
 30
0.0
 40
0.0
 41
0.0
  0
VERTEX
  5
   57C
  8
0
  6
CONTINUOUS
 10
-32.3421331999548
 20
-95.2262762365805
 30
0.0
 40
0.0
 41
0.0
  0
VERTEX
  5
   57D
  8
0
  6
CONTINUOUS
 10
-32.388183280138
 20
-95.1064659519679
 30
0.0
 40
0.0
 41
0.0
  0
VERTEX
  5
   57E
  8
0
  6
CONTINUOUS
 10
-32.4373574405036
 20
-94.9867155444347
 30
0.0
 40
0.0
 41
0.0
  0
VERTEX
  5
   57F
  8
0
  6
CONTINUOUS
 10
-32.4894600596622
 20
-94.8670286381612
 30
0.0
 40
0.0
 41
0.0
  0
VERTEX
  5
   580
  8
0
  6
CONTINUOUS
 10
-32.5442630168239
 20
-94.7474094594278
 30
0.0
 40
0.0
 41
0.0
  0
VERTEX
  5
   581
  8
0
  6
CONTINUOUS
 10
-32.6015031918451
 20
-94.6278628829309
 30
0.0
 40
0.0
 41
0.0
  0
VERTEX
  5
   582
  8
0
  6
CONTINUOUS
 10
-32.6608799652741
 20
-94.5083944780976
 30
0.0
 40
0.0
 41
0.0
  0
VERTEX
  5
   583
  8
0
  6
CONTINUOUS
 10
-32.7220527183976
 20
-94.3890105554017
 30
0.0
 40
0.0
 41
0.0
  0
VERTEX
  5
   584
  8
0
  6
CONTINUOUS
 10
-32.8482086928421
 20
-94.1505253814414
 30
0.0
 40
0.0
 41
0.0
  0
VERTEX
  5
   585
  8
0
  6
CONTINUOUS
 10
-33.0538784119869
 20
-93.7671319686907
 30
0.0
 40
0.0
 41
0.0
  0
VERTEX
  5
   586
  8
0
  6
CONTINUOUS
 10
-33.1528706227766
 20
-93.5759558492781
 30
0.0
 40
0.0
 41
0.0
  0
VERTEX
  5
   587
  8
0
  6
CONTINUOUS
 10
-33.2003020034392
 20
-93.4805122502261
 30
0.0
 40
0.0
 41
0.0
  0
VERTEX
  5
   588
  8
0
  6
CONTINUOUS
 10
-33.245928965968
 20
-93.3851681479554
 30
0.0
 40
0.0
 41
0.0
  0
VERTEX
  5
   589
  8
0
  6
CONTINUOUS
 10
-33.289435365736
 20
-93.2899243161722
 30
0.0
 40
0.0
 41
0.0
  0
VERTEX
  5
   58A
  8
0
  6
CONTINUOUS
 10
-33.3305133018571
 20
-93.194779936323
 30
0.0
 40
0.0
 41
0.0
  0
VERTEX
  5
   58B
  8
0
  6
CONTINUOUS
 10
-33.3688667825663
 20
-93.0997323497458
 30
0.0
 40
0.0
 41
0.0
  0
VERTEX
  5
   58C
  8
0
  6
CONTINUOUS
 10
-33.4042153905988
 20
-93.0047768098226
 30
0.0
 40
0.0
 41
0.0
  0
VERTEX
  5
   58D
  8
0
  6
CONTINUOUS
 10
-33.4362979485696
 20
-92.9099062341308
 30
0.0
 40
0.0
 41
0.0
  0
VERTEX
  5
   58E
  8
0
  6
CONTINUOUS
 10
-33.4648761843535
 20
-92.8151109565949
 30
0.0
 40
0.0
 41
0.0
  0
VERTEX
  5
   58F
  8
0
  6
CONTINUOUS
 10
-33.4897383964642
 20
-92.7203784796388
 30
0.0
 40
0.0
 41
0.0
  0
VERTEX
  5
   590
  8
0
  6
CONTINUOUS
 10
-33.5107031194343
 20
-92.625693226337
 30
0.0
 40
0.0
 41
0.0
  0
VERTEX
  5
   591
  8
0
  6
CONTINUOUS
 10
-33.5196763842213
 20
-92.5783625377639
 30
0.0
 40
0.0
 41
0.0
  0
VERTEX
  5
   592
  8
0
  6
CONTINUOUS
 10
-33.5276227891944
 20
-92.5310362925668
 30
0.0
 40
0.0
 41
0.0
  0
VERTEX
  5
   593
  8
0
  6
CONTINUOUS
 10
-33.5345297872898
 20
-92.4837115671933
 30
0.0
 40
0.0
 41
0.0
  0
VERTEX
  5
   594
  8
0
  6
CONTINUOUS
 10
-33.5403874084534
 20
-92.4363851991601
 30
0.0
 40
0.0
 41
0.0
  0
VERTEX
  5
   595
  8
0
  6
CONTINUOUS
 10
-33.5451883741842
 20
-92.3890537793076
 30
0.0
 40
0.0
 41
0.0
  0
VERTEX
  5
   596
  8
0
  6
CONTINUOUS
 10
-33.5489282120773
 20
-92.341713644055
 30
0.0
 40
0.0
 41
0.0
  0
VERTEX
  5
   597
  8
0
  6
CONTINUOUS
 10
-33.5516053703669
 20
-92.2943608676548
 30
0.0
 40
0.0
 41
0.0
  0
VERTEX
  5
   598
  8
0
  6
CONTINUOUS
 10
-33.5532213324693
 20
-92.2469912544477
 30
0.0
 40
0.0
 41
0.0
  0
VERTEX
  5
   599
  8
0
  6
CONTINUOUS
 10
-33.5537709286066
 20
-92.1914310841398
 30
0.0
 40
0.0
 41
0.0
  0
VERTEX
  5
   59A
  8
0
  6
CONTINUOUS
 10
-33.5528816432532
 20
-92.135833926538
 30
0.0
 40
0.0
 41
0.0
  0
VERTEX
  5
   59B
  8
0
  6
CONTINUOUS
 10
-33.5505724542302
 20
-92.0801916200629
 30
0.0
 40
0.0
 41
0.0
  0
VERTEX
  5
   59C
  8
0
  6
CONTINUOUS
 10
-33.5468679944542
 20
-92.0244955939763
 30
0.0
 40
0.0
 41
0.0
  0
VERTEX
  5
   59D
  8
0
  6
CONTINUOUS
 10
-33.5417982966419
 20
-91.9687369333421
 30
0.0
 40
0.0
 41
0.0
  0
VERTEX
  5
   59E
  8
0
  6
CONTINUOUS
 10
-33.5353985380149
 20
-91.9129064439865
 30
0.0
 40
0.0
 41
0.0
  0
VERTEX
  5
   59F
  8
0
  6
CONTINUOUS
 10
-33.5277087850038
 20
-91.8569947174592
 30
0.0
 40
0.0
 41
0.0
  0
VERTEX
  5
   5A0
  8
0
  6
CONTINUOUS
 10
-33.518773737953
 20
-91.8009921959933
 30
0.0
 40
0.0
 41
0.0
  0
VERTEX
  5
   5A1
  8
0
  6
CONTINUOUS
 10
-33.5086424758252
 20
-91.7448892374667
 30
0.0
 40
0.0
 41
0.0
  0
VERTEX
  5
   5A2
  8
0
  6
CONTINUOUS
 10
-33.497368200906
 20
-91.6886761803621
 30
0.0
 40
0.0
 41
0.0
  0
VERTEX
  5
   5A3
  8
0
  6
CONTINUOUS
 10
-33.4716225066774
 20
-91.5758814171387
 30
0.0
 40
0.0
 41
0.0
  0
VERTEX
  5
   5A4
  8
0
  6
CONTINUOUS
 10
-33.4420350387814
 20
-91.4625326947895
 30
0.0
 40
0.0
 41
0.0
  0
VERTEX
  5
   5A5
  8
0
  6
CONTINUOUS
 10
-33.4091538149892
 20
-91.3485586489411
 30
0.0
 40
0.0
 41
0.0
  0
VERTEX
  5
   5A6
  8
0
  6
CONTINUOUS
 10
-33.3735683178734
 20
-91.2338938411205
 30
0.0
 40
0.0
 41
0.0
  0
VERTEX
  5
   5A7
  8
0
  6
CONTINUOUS
 10
-33.3359013253544
 20
-91.1184808374946
 30
0.0
 40
0.0
 41
0.0
  0
VERTEX
  5
   5A8
  8
0
  6
CONTINUOUS
 10
-33.2169670262449
 20
-90.7673420365961
 30
0.0
 40
0.0
 41
0.0
  0
VERTEX
  5
   5A9
  8
0
  6
CONTINUOUS
 10
-33.1775818073529
 20
-90.648594760119
 30
0.0
 40
0.0
 41
0.0
  0
VERTEX
  5
   5AA
  8
0
  6
CONTINUOUS
 10
-33.1394424819596
 20
-90.5290049441706
 30
0.0
 40
0.0
 41
0.0
  0
VERTEX
  5
   5AB
  8
0
  6
CONTINUOUS
 10
-33.1032000415236
 20
-90.4086068362965
 30
0.0
 40
0.0
 41
0.0
  0
VERTEX
  5
   5AC
  8
0
  6
CONTINUOUS
 10
-33.0694815866689
 20
-90.287457239862
 30
0.0
 40
0.0
 41
0.0
  0
VERTEX
  5
   5AD
  8
0
  6
CONTINUOUS
 10
-33.0388821577303
 20
-90.1656375927916
 30
0.0
 40
0.0
 41
0.0
  0
VERTEX
  5
   5AE
  8
0
  6
CONTINUOUS
 10
-33.0119565652989
 20
-90.0432560463092
 30
0.0
 40
0.0
 41
0.0
  0
VERTEX
  5
   5AF
  8
0
  6
CONTINUOUS
 10
-33.0000318253108
 20
-89.9818961740285
 30
0.0
 40
0.0
 41
0.0
  0
VERTEX
  5
   5B0
  8
0
  6
CONTINUOUS
 10
-32.9892112207675
 20
-89.9204495436776
 30
0.0
 40
0.0
 41
0.0
  0
VERTEX
  5
   5B1
  8
0
  6
CONTINUOUS
 10
-32.9803329013242
 20
-89.8642276040244
 30
0.0
 40
0.0
 41
0.0
  0
VERTEX
  5
   5B2
  8
0
  6
CONTINUOUS
 10
-32.972461191996
 20
-89.8079697353376
 30
0.0
 40
0.0
 41
0.0
  0
VERTEX
  5
   5B3
  8
0
  6
CONTINUOUS
 10
-32.9656319580678
 20
-89.7516954985573
 30
0.0
 40
0.0
 41
0.0
  0
VERTEX
  5
   5B4
  8
0
  6
CONTINUOUS
 10
-32.9598783303761
 20
-89.6954256725926
 30
0.0
 40
0.0
 41
0.0
  0
VERTEX
  5
   5B5
  8
0
  6
CONTINUOUS
 10
-32.9552307502004
 20
-89.639182144586
 30
0.0
 40
0.0
 41
0.0
  0
VERTEX
  5
   5B6
  8
0
  6
CONTINUOUS
 10
-32.9517170141553
 20
-89.5829878001785
 30
0.0
 40
0.0
 41
0.0
  0
VERTEX
  5
   5B7
  8
0
  6
CONTINUOUS
 10
-32.9493623190827
 20
-89.526866413774
 30
0.0
 40
0.0
 41
0.0
  0
VERTEX
  5
   5B8
  8
0
  6
CONTINUOUS
 10
-32.9481893069432
 20
-89.4708425388043
 30
0.0
 40
0.0
 41
0.0
  0
VERTEX
  5
   5B9
  8
0
  6
CONTINUOUS
 10
-32.9482181097088
 20
-89.4149413979935
 30
0.0
 40
0.0
 41
0.0
  0
VERTEX
  5
   5BA
  8
0
  6
CONTINUOUS
 10
-32.9494663942539
 20
-89.3591887736233
 30
0.0
 40
0.0
 41
0.0
  0
VERTEX
  5
   5BB
  8
0
  6
CONTINUOUS
 10
-32.9519494072481
 20
-89.3036108977969
 30
0.0
 40
0.0
 41
0.0
  0
VERTEX
  5
   5BC
  8
0
  6
CONTINUOUS
 10
-32.9556800200475
 20
-89.2482343427046
 30
0.0
 40
0.0
 41
0.0
  0
VERTEX
  5
   5BD
  8
0
  6
CONTINUOUS
 10
-32.9606687735871
 20
-89.1930859108879
 30
0.0
 40
0.0
 41
0.0
  0
VERTEX
  5
   5BE
  8
0
  6
CONTINUOUS
 10
-32.9669239232723
 20
-89.1381925255045
 30
0.0
 40
0.0
 41
0.0
  0
VERTEX
  5
   5BF
  8
0
  6
CONTINUOUS
 10
-32.9744514838711
 20
-89.0835811205932
 30
0.0
 40
0.0
 41
0.0
  0
VERTEX
  5
   5C0
  8
0
  6
CONTINUOUS
 10
-32.9832552744063
 20
-89.0292785313381
 30
0.0
 40
0.0
 41
0.0
  0
VERTEX
  5
   5C1
  8
0
  6
CONTINUOUS
 10
-32.9933369630467
 20
-88.9753113843339
 30
0.0
 40
0.0
 41
0.0
  0
VERTEX
  5
   5C2
  8
0
  6
CONTINUOUS
 10
-33.0046961119997
 20
-88.9217059878502
 30
0.0
 40
0.0
 41
0.0
  0
VERTEX
  5
   5C3
  8
0
  6
CONTINUOUS
 10
-33.017330222403
 20
-88.8684882220967
 30
0.0
 40
0.0
 41
0.0
  0
VERTEX
  5
   5C4
  8
0
  6
CONTINUOUS
 10
-33.0312347792164
 20
-88.8156834294874
 30
0.0
 40
0.0
 41
0.0
  0
VERTEX
  5
   5C5
  8
0
  6
CONTINUOUS
 10
-33.046403296114
 20
-88.7633163049057
 30
0.0
 40
0.0
 41
0.0
  0
VERTEX
  5
   5C6
  8
0
  6
CONTINUOUS
 10
-33.0628273603759
 20
-88.7114107859689
 30
0.0
 40
0.0
 41
0.0
  0
VERTEX
  5
   5C7
  8
0
  6
CONTINUOUS
 10
-33.0804966777803
 20
-88.6599899432933
 30
0.0
 40
0.0
 41
0.0
  0
VERTEX
  5
   5C8
  8
0
  6
CONTINUOUS
 10
-33.0993991174953
 20
-88.6090758707583
 30
0.0
 40
0.0
 41
0.0
  0
VERTEX
  5
   5C9
  8
0
  6
CONTINUOUS
 10
-33.1195207569711
 20
-88.558689575772
 30
0.0
 40
0.0
 41
0.0
  0
VERTEX
  5
   5CA
  8
0
  6
CONTINUOUS
 10
-33.1408459268314
 20
-88.5088508695349
 30
0.0
 40
0.0
 41
0.0
  0
VERTEX
  5
   5CB
  8
0
  6
CONTINUOUS
 10
-33.1633572557661
 20
-88.4595782573057
 30
0.0
 40
0.0
 41
0.0
  0
VERTEX
  5
   5CC
  8
0
  6
CONTINUOUS
 10
-33.1870357154223
 20
-88.410888828665
 30
0.0
 40
0.0
 41
0.0
  0
VERTEX
  5
   5CD
  8
0
  6
CONTINUOUS
 10
-33.2118606652972
 20
-88.3627981477811
 30
0.0
 40
0.0
 41
0.0
  0
VERTEX
  5
   5CE
  8
0
  6
CONTINUOUS
 10
-33.2378098976293
 20
-88.3153201436736
 30
0.0
 40
0.0
 41
0.0
  0
VERTEX
  5
   5CF
  8
0
  6
CONTINUOUS
 10
-33.2648596822908
 20
-88.2684670004791
 30
0.0
 40
0.0
 41
0.0
  0
VERTEX
  5
   5D0
  8
0
  6
CONTINUOUS
 10
-33.2929848116792
 20
-88.2222490477155
 30
0.0
 40
0.0
 41
0.0
  0
VERTEX
  5
   5D1
  8
0
  6
CONTINUOUS
 10
-33.3221586456093
 20
-88.1766746505464
 30
0.0
 40
0.0
 41
0.0
  0
VERTEX
  5
   5D2
  8
0
  6
CONTINUOUS
 10
-33.3523531562056
 20
-88.1317501000467
 30
0.0
 40
0.0
 41
0.0
  0
VERTEX
  5
   5D3
  8
0
  6
CONTINUOUS
 10
-33.3835389727934
 20
-88.0874795034665
 30
0.0
 40
0.0
 41
0.0
  0
VERTEX
  5
   5D4
  8
0
  6
CONTINUOUS
 10
-33.4156854267914
 20
-88.0438646744963
 30
0.0
 40
0.0
 41
0.0
  0
VERTEX
  5
   5D5
  8
0
  6
CONTINUOUS
 10
-33.4487605966035
 20
-88.0009050235315
 30
0.0
 40
0.0
 41
0.0
  0
VERTEX
  5
   5D6
  8
0
  6
CONTINUOUS
 10
-33.4827313525105
 20
-87.9585974479373
 30
0.0
 40
0.0
 41
0.0
  0
VERTEX
  5
   5D7
  8
0
  6
CONTINUOUS
 10
-33.5175634015622
 20
-87.9169362223133
 30
0.0
 40
0.0
 41
0.0
  0
VERTEX
  5
   5D8
  8
0
  6
CONTINUOUS
 10
-33.5532213324693
 20
-87.8759128887584
 30
0.0
 40
0.0
 41
0.0
  0
VERTEX
  5
   5D9
  8
0
  6
CONTINUOUS
 10
-33.6117805248593
 20
-87.8117008584816
 30
0.0
 40
0.0
 41
0.0
  0
VERTEX
  5
   5DA
  8
0
  6
CONTINUOUS
 10
-33.6721983828556
 20
-87.7490244531064
 30
0.0
 40
0.0
 41
0.0
  0
VERTEX
  5
   5DB
  8
0
  6
CONTINUOUS
 10
-33.7343156412997
 20
-87.6878053025462
 30
0.0
 40
0.0
 41
0.0
  0
VERTEX
  5
   5DC
  8
0
  6
CONTINUOUS
 10
-33.7979686626175
 20
-87.6279495588501
 30
0.0
 40
0.0
 41
0.0
  0
VERTEX
  5
   5DD
  8
0
  6
CONTINUOUS
 10
-33.862990593962
 20
-87.5693497527429
 30
0.0
 40
0.0
 41
0.0
  0
VERTEX
  5
   5DE
  8
0
  6
CONTINUOUS
 10
-33.9292125243559
 20
-87.5118866501657
 30
0.0
 40
0.0
 41
0.0
  0
VERTEX
  5
   5DF
  8
0
  6
CONTINUOUS
 10
-33.9964646418334
 20
-87.4554311088166
 30
0.0
 40
0.0
 41
0.0
  0
VERTEX
  5
   5E0
  8
0
  6
CONTINUOUS
 10
-34.0645773905831
 20
-87.3998459346909
 30
0.0
 40
0.0
 41
0.0
  0
VERTEX
  5
   5E1
  8
0
  6
CONTINUOUS
 10
-34.2027147822782
 20
-87.2907087928199
 30
0.0
 40
0.0
 41
0.0
  0
VERTEX
  5
   5E2
  8
0
  6
CONTINUOUS
 10
-34.4821558896585
 20
-87.0763830710134
 30
0.0
 40
0.0
 41
0.0
  0
VERTEX
  5
   5E3
  8
0
  6
CONTINUOUS
 10
-34.621116396639
 20
-86.9688477992977
 30
0.0
 40
0.0
 41
0.0
  0
VERTEX
  5
   5E4
  8
0
  6
CONTINUOUS
 10
-34.7582370687896
 20
-86.8596415362139
 30
0.0
 40
0.0
 41
0.0
  0
VERTEX
  5
   5E5
  8
0
  6
CONTINUOUS
 10
-34.8258576375839
 20
-86.8041312072452
 30
0.0
 40
0.0
 41
0.0
  0
VERTEX
  5
   5E6
  8
0
  6
CONTINUOUS
 10
-34.8927453477612
 20
-86.7478926653547
 30
0.0
 40
0.0
 41
0.0
  0
VERTEX
  5
   5E7
  8
0
  6
CONTINUOUS
 10
-34.9680696806233
 20
-86.6827619968229
 30
0.0
 40
0.0
 41
0.0
  0
VERTEX
  5
   5E8
  8
0
  6
CONTINUOUS
 10
-35.0422965576032
 20
-86.616508622787
 30
0.0
 40
0.0
 41
0.0
  0
VERTEX
  5
   5E9
  8
0
  6
CONTINUOUS
 10
-35.1153867127143
 20
-86.5490799300322
 30
0.0
 40
0.0
 41
0.0
  0
VERTEX
  5
   5EA
  8
0
  6
CONTINUOUS
 10
-35.187324875777
 20
-86.4804495662851
 30
0.0
 40
0.0
 41
0.0
  0
VERTEX
  5
   5EB
  8
0
  6
CONTINUOUS
 10
-35.2581178411438
 20
-86.4106153856268
 30
0.0
 40
0.0
 41
0.0
  0
VERTEX
  5
   5EC
  8
0
  6
CONTINUOUS
 10
-35.3277925364247
 20
-86.3395973939054
 30
0.0
 40
0.0
 41
0.0
  0
VERTEX
  5
   5ED
  8
0
  6
CONTINUOUS
 10
-35.3963940912122
 20
-86.2674356941479
 30
0.0
 40
0.0
 41
0.0
  0
VERTEX
  5
   5EE
  8
0
  6
CONTINUOUS
 10
-35.4639839058069
 20
-86.1941884319732
 30
0.0
 40
0.0
 41
0.0
  0
VERTEX
  5
   5EF
  8
0
  6
CONTINUOUS
 10
-35.530637719942
 20
-86.1199297410047
 30
0.0
 40
0.0
 41
0.0
  0
VERTEX
  5
   5F0
  8
0
  6
CONTINUOUS
 10
-35.5964436815092
 20
-86.0447476882822
 30
0.0
 40
0.0
 41
0.0
  0
VERTEX
  5
   5F1
  8
0
  6
CONTINUOUS
 10
-35.7259150916481
 20
-85.8920231052935
 30
0.0
 40
0.0
 41
0.0
  0
VERTEX
  5
   5F2
  8
0
  6
CONTINUOUS
 10
-35.8532780940779
 20
-85.7369198133359
 30
0.0
 40
0.0
 41
0.0
  0
VERTEX
  5
   5F3
  8
0
  6
CONTINUOUS
 10
-36.2322693630531
 20
-85.2673661221374
 30
0.0
 40
0.0
 41
0.0
  0
VERTEX
  5
   5F4
  8
0
  6
CONTINUOUS
 10
-36.3604403391419
 20
-85.1127972410109
 30
0.0
 40
0.0
 41
0.0
  0
VERTEX
  5
   5F5
  8
0
  6
CONTINUOUS
 10
-36.4908036232559
 20
-84.9604451629475
 30
0.0
 40
0.0
 41
0.0
  0
VERTEX
  5
   5F6
  8
0
  6
CONTINUOUS
 10
-36.5569668998372
 20
-84.8852808214346
 30
0.0
 40
0.0
 41
0.0
  0
VERTEX
  5
   5F7
  8
0
  6
CONTINUOUS
 10
-36.6238503648737
 20
-84.8108673462968
 30
0.0
 40
0.0
 41
0.0
  0
VERTEX
  5
   5F8
  8
0
  6
CONTINUOUS
 10
-36.6914918226345
 20
-84.7372500554183
 30
0.0
 40
0.0
 41
0.0
  0
VERTEX
  5
   5F9
  8
0
  6
CONTINUOUS
 10
-36.7599202385425
 20
-84.6644649531786
 30
0.0
 40
0.0
 41
0.0
  0
VERTEX
  5
   5FA
  8
0
  6
CONTINUOUS
 10
-36.829156053343
 20
-84.5925389579583
 30
0.0
 40
0.0
 41
0.0
  0
VERTEX
  5
   5FB
  8
0
  6
CONTINUOUS
 10
-36.8992114972724
 20
-84.5214901296434
 30
0.0
 40
0.0
 41
0.0
  0
VERTEX
  5
   5FC
  8
0
  6
CONTINUOUS
 10
-36.970090904227
 20
-84.4513278971307
 30
0.0
 40
0.0
 41
0.0
  0
VERTEX
  5
   5FD
  8
0
  6
CONTINUOUS
 10
-37.0417910259312
 20
-84.3820532858329
 30
0.0
 40
0.0
 41
0.0
  0
VERTEX
  5
   5FE
  8
0
  6
CONTINUOUS
 10
-37.1143013461061
 20
-84.3136591451835
 30
0.0
 40
0.0
 41
0.0
  0
VERTEX
  5
   5FF
  8
0
  6
CONTINUOUS
 10
-37.1876043946384
 20
-84.2461303761415
 30
0.0
 40
0.0
 41
0.0
  0
VERTEX
  5
   600
  8
0
  6
CONTINUOUS
 10
-37.2616760617486
 20
-84.1794441586972
 30
0.0
 40
0.0
 41
0.0
  0
VERTEX
  5
   601
  8
0
  6
CONTINUOUS
 10
-37.3364859121599
 20
-84.1135701793764
 30
0.0
 40
0.0
 41
0.0
  0
VERTEX
  5
   602
  8
0
  6
CONTINUOUS
 10
-37.4881686793024
 20
-83.9841015789184
 30
0.0
 40
0.0
 41
0.0
  0
VERTEX
  5
   603
  8
0
  6
CONTINUOUS
 10
-37.6422946423077
 20
-83.8573408428828
 30
0.0
 40
0.0
 41
0.0
  0
VERTEX
  5
   604
  8
0
  6
CONTINUOUS
 10
-37.8382611539297
 20
-83.7015135490271
 30
0.0
 40
0.0
 41
0.0
  0
VERTEX
  5
   605
  8
0
  6
CONTINUOUS
 10
-38.0363525845926
 20
-83.5479974178084
 30
0.0
 40
0.0
 41
0.0
  0
VERTEX
  5
   606
  8
0
  6
CONTINUOUS
 10
-38.4341736744415
 20
-83.242416884792
 30
0.0
 40
0.0
 41
0.0
  0
VERTEX
  5
   607
  8
0
  6
CONTINUOUS
 10
-38.6313114256286
 20
-83.0874060988571
 30
0.0
 40
0.0
 41
0.0
  0
VERTEX
  5
   608
  8
0
  6
CONTINUOUS
 10
-38.7288454809929
 20
-83.0086966613714
 30
0.0
 40
0.0
 41
0.0
  0
VERTEX
  5
   609
  8
0
  6
CONTINUOUS
 10
-38.8254619005062
 20
-82.9289469367925
 30
0.0
 40
0.0
 41
0.0
  0
VERTEX
  5
   60A
  8
0
  6
CONTINUOUS
 10
-38.9209912715739
 20
-82.8479879228648
 30
0.0
 40
0.0
 41
0.0
  0
VERTEX
  5
   60B
  8
0
  6
CONTINUOUS
 10
-39.0152666478319
 20
-82.7656604680298
 30
0.0
 40
0.0
 41
0.0
  0
VERTEX
  5
   60C
  8
0
  6
CONTINUOUS
 10
-39.1081246682189
 20
-82.6818173531374
 30
0.0
 40
0.0
 41
0.0
  0
VERTEX
  5
   60D
  8
0
  6
CONTINUOUS
 10
-39.1994066760493
 20
-82.5963253731569
 30
0.0
 40
0.0
 41
0.0
  0
VERTEX
  5
   60E
  8
0
  6
CONTINUOUS
 10
-39.2889598380854
 20
-82.5090674188883
 30
0.0
 40
0.0
 41
0.0
  0
VERTEX
  5
   60F
  8
0
  6
CONTINUOUS
 10
-39.3766382636106
 20
-82.4199445586727
 30
0.0
 40
0.0
 41
0.0
  0
VERTEX
  5
   610
  8
0
  6
CONTINUOUS
 10
-39.4623041235017
 20
-82.3288781201041
 30
0.0
 40
0.0
 41
0.0
  0
VERTEX
  5
   611
  8
0
  6
CONTINUOUS
 10
-39.5458287693014
 20
-82.23581177174
 30
0.0
 40
0.0
 41
0.0
  0
VERTEX
  5
   612
  8
0
  6
CONTINUOUS
 10
-39.6048486118287
 20
-82.1672215382304
 30
0.0
 40
0.0
 41
0.0
  0
VERTEX
  5
   613
  8
0
  6
CONTINUOUS
 10
-39.6626445473686
 20
-82.0975637005237
 30
0.0
 40
0.0
 41
0.0
  0
VERTEX
  5
   614
  8
0
  6
CONTINUOUS
 10
-39.7191783735123
 20
-82.0268411500705
 30
0.0
 40
0.0
 41
0.0
  0
VERTEX
  5
   615
  8
0
  6
CONTINUOUS
 10
-39.7744147817127
 20
-81.9550628585254
 30
0.0
 40
0.0
 41
0.0
  0
VERTEX
  5
   616
  8
0
  6
CONTINUOUS
 10
-39.8283212406627
 20
-81.8822432886619
 30
0.0
 40
0.0
 41
0.0
  0
VERTEX
  5
   617
  8
0
  6
CONTINUOUS
 10
-39.8808678796734
 20
-81.8084018052862
 30
0.0
 40
0.0
 41
0.0
  0
VERTEX
  5
   618
  8
0
  6
CONTINUOUS
 10
-39.932027372052
 20
-81.7335620861522
 30
0.0
 40
0.0
 41
0.0
  0
VERTEX
  5
   619
  8
0
  6
CONTINUOUS
 10
-39.9817748184799
 20
-81.6577515328758
 30
0.0
 40
0.0
 41
0.0
  0
VERTEX
  5
   61A
  8
0
  6
CONTINUOUS
 10
-40.0300876303909
 20
-81.5810006818493
 30
0.0
 40
0.0
 41
0.0
  0
VERTEX
  5
   61B
  8
0
  6
CONTINUOUS
 10
-40.0769454133492
 20
-81.5033426151557
 30
0.0
 40
0.0
 41
0.0
  0
VERTEX
  5
   61C
  8
0
  6
CONTINUOUS
 10
-40.1223298504273
 20
-81.4248123714836
 30
0.0
 40
0.0
 41
0.0
  0
VERTEX
  5
   61D
  8
0
  6
CONTINUOUS
 10
-40.1662245855847
 20
-81.3454463570413
 30
0.0
 40
0.0
 41
0.0
  0
VERTEX
  5
   61E
  8
0
  6
CONTINUOUS
 10
-40.2086151070451
 20
-81.2652817564713
 30
0.0
 40
0.0
 41
0.0
  0
VERTEX
  5
   61F
  8
0
  6
CONTINUOUS
 10
-40.2494886306752
 20
-81.184355943765
 30
0.0
 40
0.0
 41
0.0
  0
VERTEX
  5
   620
  8
0
  6
CONTINUOUS
 10
-40.2888339833626
 20
-81.1027058931769
 30
0.0
 40
0.0
 41
0.0
  0
VERTEX
  5
   621
  8
0
  6
CONTINUOUS
 10
-40.3266414863936
 20
-81.020367590139
 30
0.0
 40
0.0
 41
0.0
  0
VERTEX
  5
   622
  8
0
  6
CONTINUOUS
 10
-40.3629028388316
 20
-80.9373754421756
 30
0.0
 40
0.0
 41
0.0
  0
VERTEX
  5
   623
  8
0
  6
CONTINUOUS
 10
-40.3976110008952
 20
-80.8537616898175
 30
0.0
 40
0.0
 41
0.0
  0
VERTEX
  5
   624
  8
0
  6
CONTINUOUS
 10
-40.430760077336
 20
-80.7695558175165
 30
0.0
 40
0.0
 41
0.0
  0
VERTEX
  5
   625
  8
0
  6
CONTINUOUS
 10
-40.4623452008169
 20
-80.6847839645599
 30
0.0
 40
0.0
 41
0.0
  0
VERTEX
  5
   626
  8
0
  6
CONTINUOUS
 10
-40.4890877035493
 20
-80.6090235506366
 30
0.0
 40
0.0
 41
0.0
  0
VERTEX
  5
   627
  8
0
  6
CONTINUOUS
 10
-40.5145907251778
 20
-80.5328468530994
 30
0.0
 40
0.0
 41
0.0
  0
VERTEX
  5
   628
  8
0
  6
CONTINUOUS
 10
-40.5388524719878
 20
-80.4562640819714
 30
0.0
 40
0.0
 41
0.0
  0
VERTEX
  5
   629
  8
0
  6
CONTINUOUS
 10
-40.5618715461192
 20
-80.379283194029
 30
0.0
 40
0.0
 41
0.0
  0
VERTEX
  5
   62A
  8
0
  6
CONTINUOUS
 10
-40.5836468960841
 20
-80.3019101744581
 30
0.0
 40
0.0
 41
0.0
  0
VERTEX
  5
   62B
  8
0
  6
CONTINUOUS
 10
-40.6041777672853
 20
-80.2241493185099
 30
0.0
 40
0.0
 41
0.0
  0
VERTEX
  5
   62C
  8
0
  6
CONTINUOUS
 10
-40.6234636525346
 20
-80.1460035131563
 30
0.0
 40
0.0
 41
0.0
  0
VERTEX
  5
   62D
  8
0
  6
CONTINUOUS
 10
-40.641504242571
 20
-80.0674745187461
 30
0.0
 40
0.0
 41
0.0
  0
VERTEX
  5
   62E
  8
0
  6
CONTINUOUS
 10
-40.6582993765786
 20
-79.9885632506607
 30
0.0
 40
0.0
 41
0.0
  0
VERTEX
  5
   62F
  8
0
  6
CONTINUOUS
 10
-40.6738489927051
 20
-79.9092700609699
 30
0.0
 40
0.0
 41
0.0
  0
SEQEND
  5
   630
  8
0
  6
CONTINUOUS
 62
     1
  0
LINE
  5
   631
  8
0
  6
CONTINUOUS
 62
     1
 10
25.3485863396733
 20
-94.4515686035186
 30
0.0
 11
25.3485863396733
 21
-81.9515683610487
 31
0.0
  0
LINE
  5
   632
  8
0
  6
CONTINUOUS
 62
     1
 10
18.1485863396734
 20
-94.4515686035186
 30
0.0
 11
18.1485863396734
 21
-81.9515683610487
 31
0.0
  0
LINE
  5
   633
  8
0
  6
CONTINUOUS
 62
     1
 10
-12.4514136603267
 20
-94.4515686035186
 30
0.0
 11
-12.4514136603267
 21
-81.9515683610487
 31
0.0
  0
LINE
  5
   634
  8
0
  6
CONTINUOUS
 62
     1
 10
-14.2514136603267
 20
-94.4515686035186
 30
0.0
 11
-14.2514136603267
 21
-81.9515683610487
 31
0.0
  0
LINE
  5
   635
  8
0
  6
CONTINUOUS
 62
     1
 10
-19.6514136603267
 20
-94.4515686035186
 30
0.0
 11
-19.6514136603267
 21
-81.9515683610487
 31
0.0
  0
LINE
  5
   636
  8
0
  6
CONTINUOUS
 62
     1
 10
-25.0514136603267
 20
-94.4515686035186
 30
0.0
 11
-25.0514136603267
 21
-81.9515683610487
 31
0.0
  0
LINE
  5
   637
  8
0
  6
CONTINUOUS
 62
     7
 10
-33.3276081038044
 20
-93.2015841047732
 30
0.0
 11
-35.9014414713809
 21
-93.2015841047732
 31
0.0
  0
INSERT
  5
   638
  8
255
  6
CONTINUOUS
 62
     7
  2
MOSTRINA
 10
-85.6955471038818
 20
-76.8169033567911
 30
0.0
 41
0.5
 42
0.5
 50
359.999999792138
 43
0.5
  0
LINE
  5
   639
  8
0
  6
CONTINUOUS
 62
     1
 10
-57.5264186859131
 20
-58.9515841345798
 30
0.0
 11
-71.901407556811
 21
-58.9515841345798
 31
0.0
  0
LINE
  5
   63A
  8
0
  6
CONTINUOUS
 62
     1
 10
-57.5264186859131
 20
-59.4515841047775
 30
0.0
 11
-71.4014075866134
 21
-59.4515841047775
 31
0.0
  0
LINE
  5
   63B
  8
0
  6
CONTINUOUS
 62
     1
 10
-57.5264186859131
 20
-48.076591734172
 30
0.0
 11
-71.651407556811
 21
-48.076591734172
 31
0.0
  0
TEXT
  5
   63C
  8
0
  6
CONTINUOUS
 62
     7
 10
-32.0957606815913
 20
-106.521121970727
 30
0.0
 40
3.00000002980232
  1
=       =
 50
359.999999948034
 41
0.916666689183977
 72
     1
 11
-19.9957602620125
 21
-105.021121966739
 31
0.0
 73
     2
  0
TEXT
  5
   63D
  8
0
  6
CONTINUOUS
 62
     7
 10
52.2984485665641
 20
-34.2385792219317
 30
0.0
 40
3.00000002980232
  1
=       =
 50
89.9999999480344
 41
0.916666689183977
 72
     1
 11
50.7984485626221
 21
-22.1385788023472
 31
0.0
 73
     2
  0
INSERT
  5
   63E
  8
0
  6
CONTINUOUS
 62
     7
  2
*UDIM378
 10
0.0
 20
0.0
 30
0.0
  0
INSERT
  5
   63F
  8
0
  6
CONTINUOUS
 62
     7
  2
*UDIM379
 10
0.0
 20
0.0
 30
0.0
  0
INSERT
  5
   640
  8
0
  6
CONTINUOUS
 62
     7
  2
*UDIM380
 10
0.0
 20
0.0
 30
0.0
  0
INSERT
  5
   641
  8
0
  6
CONTINUOUS
 62
     7
  2
*UDIM381
 10
0.0
 20
0.0
 30
0.0
  0
INSERT
  5
   642
  8
0
  6
CONTINUOUS
 62
     7
  2
*UDIM382
 10
0.0
 20
0.0
 30
0.0
  0
INSERT
  5
   643
  8
0
  6
CONTINUOUS
 62
     7
  2
*UDIM383
 10
0.0
 20
0.0
 30
0.0
  0
TEXT
  5
   644
  8
0
  6
CONTINUOUS
 62
     7
 10
1.71979302628853
 20
47.2538141802955
 30
0.0
 40
3.00000002980232
  1
=
 50
359.999999948034
 41
0.916666604744064
 72
     2
 11
3.91979289515831
 21
47.2538141783113
 31
0.0
  0
TEXT
  5
   645
  8
0
  6
CONTINUOUS
 62
     7
 10
-40.6921389652886
 20
47.2538141802955
 30
0.0
 40
3.00000002980232
  1
=
 50
359.999999948034
 41
0.916666604744064
 72
     2
 11
-38.4921390964188
 21
47.2538141783113
 31
0.0
  0
TEXT
  5
   646
  8
0
  6
CONTINUOUS
 62
     7
 10
-93.4614928318658
 20
-24.0310788555931
 30
0.0
 40
3.00000002980232
  1
X
 50
359.999999948034
 41
0.916666604744064
 72
     2
 11
-91.261492962996
 21
-24.0310788575774
 31
0.0
  0
TEXT
  5
   647
  8
0
  6
CONTINUOUS
 62
     7
 10
60.0015046046577
 20
-22.4087796612572
 30
0.0
 40
3.00000002980232
  1
X
 50
359.999999948034
 41
0.916666604744064
 72
     2
 11
62.2015044735275
 21
-22.4087796632415
 31
0.0
  0
TEXT
  5
   648
  8
0
  6
CONTINUOUS
 62
     7
 10
-20.7194188191094
 20
65.2084726885963
 30
0.0
 40
3.00000002980232
  1
Y
 50
359.999999948034
 41
0.916666604744064
 72
     2
 11
-18.5194189502396
 21
65.208472686612
 31
0.0
  0
INSERT
  5
   649
  8
0
  6
CONTINUOUS
 62
     7
  2
*UDIM384
 10
0.0
 20
0.0
 30
0.0
  0
INSERT
  5
   64A
  8
0
  6
CONTINUOUS
 62
     7
  2
*UDIM385
 10
0.0
 20
0.0
 30
0.0
  0
LINE
  5
   64B
  8
0
  6
CONTINUOUS
 62
   130
 10
117.51846319437
 20
-18.2015609741211
 30
0.0
 11
117.51846319437
 21
-11.7015609741211
 31
0.0
  0
LINE
  5
   64C
  8
0
  6
CONTINUOUS
 62
     3
 10
117.768463134766
 20
-58.4515614509583
 30
0.0
 11
118.268463104963
 21
-58.4515614509583
 31
0.0
  0
LINE
  5
   64D
  8
0
  6
CONTINUOUS
 62
   130
 10
117.768463134766
 20
-50.9515686035156
 30
0.0
 11
117.768463134766
 21
-46.7015609741211
 31
0.0
  0
LINE
  5
   64E
  8
0
  6
CONTINUOUS
 62
     3
 10
117.768463134766
 20
-17.8484268188477
 30
0.0
 11
117.768463134766
 21
-11.7015609741211
 31
0.0
  0
LINE
  5
   64F
  8
0
  6
CONTINUOUS
 62
   130
 10
117.768463134765
 20
23.2984390355123
 30
0.0
 11
121.768463134766
 21
23.298378000356
 31
0.0
  0
LINE
  5
   650
  8
0
  6
CONTINUOUS
 62
   130
 10
118.268462228155
 20
23.5995118269229
 30
0.0
 11
118.268463211631
 21
23.2984177717547
 31
0.0
  0
LINE
  5
   651
  8
0
  6
CONTINUOUS
 62
   130
 10
118.268463134766
 20
23.2984313964844
 30
0.0
 11
118.268463134766
 21
26.7984298210922
 31
0.0
  0
LINE
  5
   652
  8
0
  6
CONTINUOUS
 62
     3
 10
118.268463104963
 20
-58.4515614509583
 30
0.0
 11
140.500503510237
 21
-58.4515614509583
 31
0.0
  0
LINE
  5
   653
  8
0
  6
CONTINUOUS
 62
     3
 10
154.793455982208
 20
39.2984390258789
 30
0.0
 11
156.76844021678
 21
39.2984390258789
 31
0.0
  0
LINE
  5
   654
  8
0
  6
CONTINUOUS
 62
   130
 10
117.768461246809
 20
-25.5541728096566
 30
0.0
 11
118.268463134766
 21
-25.4202023566448
 31
0.0
  0
LINE
  5
   655
  8
0
  6
CONTINUOUS
 62
     3
 10
117.768466817045
 20
-17.8484339121812
 30
0.0
 11
121.885329067498
 21
-18.951583073414
 31
0.0
  0
LINE
  5
   656
  8
0
  6
CONTINUOUS
 62
     3
 10
119.518431091307
 20
-18.9515830313069
 30
0.0
 11
165.118431091307
 21
-18.9515613776014
 31
0.0
  0
LINE
  5
   657
  8
0
  6
CONTINUOUS
 62
     3
 10
119.518431091307
 20
-24.4515982901434
 30
0.0
 11
165.118431091307
 21
-24.4515766376561
 31
0.0
  0
LINE
  5
   658
  8
0
  6
CONTINUOUS
 62
   130
 10
118.268463134766
 20
-25.4202270507813
 30
0.0
 11
118.268463134766
 21
-18.2015609741211
 31
0.0
  0
LINE
  5
   659
  8
0
  6
DASHDOT
 62
   130
 10
117.018463134766
 20
-58.4515609741211
 30
0.0
 11
117.018463134766
 21
26.7984294800984
 31
0.0
  0
LINE
  5
   65A
  8
0
  6
CONTINUOUS
 62
   130
 10
117.018463134766
 20
-50.9515609741211
 30
0.0
 11
117.768462657928
 21
-50.9515609741211
 31
0.0
  0
LINE
  5
   65B
  8
0
  6
CONTINUOUS
 62
     3
 10
117.018463293711
 20
-58.451560974121
 30
0.0
 11
117.768463293711
 21
-58.4515614509582
 31
0.0
  0
LINE
  5
   65C
  8
0
  6
CONTINUOUS
 62
     3
 10
140.500491479908
 20
-58.4515637267274
 30
0.0
 11
140.768435794436
 21
-59.4515632056824
 31
0.0
  0
LINE
  5
   65D
  8
0
  6
CONTINUOUS
 62
     3
 10
140.518455505371
 20
-59.4515609741211
 30
0.0
 11
156.768432617187
 21
-59.4515609741211
 31
0.0
  0
LINE
  5
   65E
  8
0
  6
CONTINUOUS
 62
     3
 10
154.018432617188
 20
-24.5765914916992
 30
0.0
 11
154.018432617188
 21
-24.4515762329102
 31
0.0
  0
LINE
  5
   65F
  8
0
  6
CONTINUOUS
 62
     3
 10
154.018432617188
 20
-18.9515609741211
 30
0.0
 11
154.018432617188
 21
-18.8265914916992
 31
0.0
  0
LINE
  5
   660
  8
0
  6
CONTINUOUS
 62
     3
 10
154.018432617187
 20
-18.8265914916992
 30
0.0
 11
165.118431091307
 21
-18.8265914916992
 31
0.0
  0
LINE
  5
   661
  8
0
  6
CONTINUOUS
 62
     3
 10
154.018427761945
 20
-24.5765942641435
 30
0.0
 11
165.118431091307
 21
-24.5766558538317
 31
0.0
  0
LINE
  5
   662
  8
0
  6
CONTINUOUS
 62
     1
 10
117.018465518951
 20
-45.2640610727771
 30
0.0
 11
117.018465518951
 21
-41.6390763315662
 31
0.0
  0
LINE
  5
   663
  8
0
  6
CONTINUOUS
 62
   130
 10
117.51846313381
 20
-40.2015609741211
 30
0.0
 11
117.76846313381
 21
-40.2015609741211
 31
0.0
  0
LINE
  5
   664
  8
0
  6
CONTINUOUS
 62
   130
 10
117.51846313381
 20
-46.7015609741211
 30
0.0
 11
117.76846313381
 21
-46.7015609741211
 31
0.0
  0
LINE
  5
   665
  8
0
  6
CONTINUOUS
 62
   130
 10
117.518463611603
 20
-11.7015609741211
 30
0.0
 11
117.76846408844
 21
-11.7015609741211
 31
0.0
  0
LINE
  5
   666
  8
0
  6
CONTINUOUS
 62
   130
 10
117.5184635818
 20
-18.2015609741211
 30
0.0
 11
118.268463104963
 21
-18.2015609741211
 31
0.0
  0
LINE
  5
   667
  8
0
  6
CONTINUOUS
 62
     1
 10
117.018463134766
 20
-41.6390762329102
 30
0.0
 11
117.518465995789
 21
-41.6390762329102
 31
0.0
  0
LINE
  5
   668
  8
0
  6
CONTINUOUS
 62
     1
 10
117.018463611603
 20
-45.2640609741211
 30
0.0
 11
117.518465995789
 21
-45.2640609741211
 31
0.0
  0
LINE
  5
   669
  8
0
  6
CONTINUOUS
 62
     3
 10
167.768432617186
 20
-59.4515838623047
 30
0.0
 11
167.768432617186
 21
-48.0765838623047
 31
0.0
  0
LINE
  5
   66A
  8
0
  6
CONTINUOUS
 62
     3
 10
167.768432617186
 20
4.42340850830077
 30
0.0
 11
167.768432617186
 21
28.5484085083008
 31
0.0
  0
LINE
  5
   66B
  8
0
  6
CONTINUOUS
 62
     3
 10
165.268432617186
 20
28.5484085083008
 30
0.0
 11
167.768432617186
 21
28.5484085083008
 31
0.0
  0
LINE
  5
   66C
  8
0
  6
CONTINUOUS
 62
     3
 10
165.268432617186
 20
-59.4515838623047
 30
0.0
 11
167.768432617186
 21
-59.4515838623047
 31
0.0
  0
LINE
  5
   66D
  8
0
  6
CONTINUOUS
 62
     3
 10
168.768432617186
 20
-48.0765838623047
 30
0.0
 11
168.768432617186
 21
4.42340850830077
 31
0.0
  0
LINE
  5
   66E
  8
0
  6
CONTINUOUS
 62
     3
 10
167.768432617186
 20
-48.0765838623047
 30
0.0
 11
168.768432617186
 21
-48.0765838623047
 31
0.0
  0
LINE
  5
   66F
  8
0
  6
CONTINUOUS
 62
     3
 10
167.768432617186
 20
4.42340850830077
 30
0.0
 11
168.768432617186
 21
4.42340850830077
 31
0.0
  0
LINE
  5
   670
  8
0
  6
CONTINUOUS
 62
     3
 10
155.268432617186
 20
-9.70157140022706
 30
0.0
 11
155.268432617186
 21
27.3965067863464
 31
0.0
  0
LINE
  5
   671
  8
0
  6
CONTINUOUS
 62
     3
 10
155.268431414155
 20
-9.70157119971589
 30
0.0
 11
156.76843184489
 21
-9.95157879465222
 31
0.0
  0
LINE
  5
   672
  8
0
  6
CONTINUOUS
 62
     3
 10
155.268432141339
 20
-9.70157488171153
 30
0.0
 11
155.268432618176
 21
-9.45158251087324
 31
0.0
  0
LINE
  5
   673
  8
0
  6
CONTINUOUS
 62
     3
 10
155.268431663571
 20
25.2984224141264
 30
0.0
 11
155.268432140408
 21
25.0484224141264
 31
0.0
  0
LINE
  5
   674
  8
0
  6
CONTINUOUS
 62
     3
 10
156.768427335286
 20
39.2984163960694
 30
0.0
 11
165.868425809407
 21
39.298408766675
 31
0.0
  0
LINE
  5
   675
  8
0
  6
CONTINUOUS
 62
     3
 10
156.768432617186
 20
40.7984313964844
 30
0.0
 11
166.268432617186
 21
40.7984313964844
 31
0.0
  0
LINE
  5
   676
  8
0
  6
CONTINUOUS
 62
     3
 10
156.768432617186
 20
-59.4515609741211
 30
0.0
 11
165.268424987791
 21
-59.4515609741211
 31
0.0
  0
LINE
  5
   677
  8
0
  6
CONTINUOUS
 62
     3
 10
156.768432617186
 20
-58.4515686035156
 30
0.0
 11
165.118431091307
 21
-58.4515686035156
 31
0.0
  0
LINE
  5
   678
  8
0
  6
CONTINUOUS
 62
     3
 10
166.268432617186
 20
28.5484085083008
 30
0.0
 11
166.268432617186
 21
28.7984161376953
 31
0.0
  0
LINE
  5
   679
  8
0
  6
CONTINUOUS
 62
     3
 10
156.768432617186
 20
-59.4515609741211
 30
0.0
 11
156.768432617186
 21
-24.5766095228724
 31
0.0
  0
LINE
  5
   67A
  8
0
  6
CONTINUOUS
 62
     3
 10
156.768432617186
 20
27.7984175553929
 30
0.0
 11
156.768432617186
 21
40.7984313964844
 31
0.0
  0
LINE
  5
   67B
  8
0
  6
CONTINUOUS
 62
     3
 10
166.268432617186
 20
40.7984313964844
 30
0.0
 11
166.518432617186
 21
40.7984313964844
 31
0.0
  0
LINE
  5
   67C
  8
0
  6
CONTINUOUS
 62
     3
 10
166.268432617186
 20
28.7984161376953
 30
0.0
 11
166.518432617186
 21
28.7984161376953
 31
0.0
  0
LINE
  5
   67D
  8
0
  6
CONTINUOUS
 62
     3
 10
166.518432617186
 20
28.7984161376953
 30
0.0
 11
166.518432617186
 21
40.7984313964844
 31
0.0
  0
LINE
  5
   67E
  8
0
  6
CONTINUOUS
 62
     3
 10
165.118431091307
 20
-18.8265914916992
 30
0.0
 11
165.118431091307
 21
28.7984008789062
 31
0.0
  0
LINE
  5
   67F
  8
0
  6
CONTINUOUS
 62
     3
 10
165.118431091307
 20
-58.4515686035156
 30
0.0
 11
165.118431091307
 21
-24.5766558538317
 31
0.0
  0
LINE
  5
   680
  8
0
  6
CONTINUOUS
 62
     3
 10
165.11842578541
 20
28.7984077918734
 30
0.0
 11
166.268427311289
 21
28.7984154212679
 31
0.0
  0
LINE
  5
   681
  8
0
  6
CONTINUOUS
 62
     3
 10
165.868431091307
 20
28.7984008789062
 30
0.0
 11
165.868431091307
 21
39.2984161376953
 31
0.0
  0
LINE
  5
   682
  8
0
  6
CONTINUOUS
 62
     3
 10
168.768432617186
 20
-48.0765838623047
 30
0.0
 11
170.518432617186
 21
-48.0765838623047
 31
0.0
  0
LINE
  5
   683
  8
0
  6
CONTINUOUS
 62
     3
 10
168.768432617186
 20
4.42340850830077
 30
0.0
 11
170.518432617186
 21
4.42340850830077
 31
0.0
  0
LINE
  5
   684
  8
0
  6
CONTINUOUS
 62
     3
 10
174.518432617186
 20
-48.0765838623047
 30
0.0
 11
174.518432617186
 21
-43.5765636007795
 31
0.0
  0
LINE
  5
   685
  8
0
  6
CONTINUOUS
 62
     3
 10
174.518432617186
 20
3.29840087890624
 30
0.0
 11
174.518432617186
 21
4.42340850830077
 31
0.0
  0
LINE
  5
   686
  8
0
  6
CONTINUOUS
 62
     3
 10
166.268424987791
 20
28.5484237670898
 30
0.0
 11
167.768432617186
 21
28.5484237670898
 31
0.0
  0
LINE
  5
   687
  8
0
  6
CONTINUOUS
 62
     3
 10
167.768432617186
 20
4.42342376708984
 30
0.0
 11
168.768432617186
 21
4.42342376708984
 31
0.0
  0
LINE
  5
   688
  8
0
  6
CONTINUOUS
 62
     3
 10
174.518432617186
 20
-1.45158386230469
 30
0.0
 11
174.518432617186
 21
3.29841613769531
 31
0.0
  0
LINE
  5
   689
  8
0
  6
CONTINUOUS
 62
     3
 10
165.268432617186
 20
-59.4515838623047
 30
0.0
 11
165.268432617186
 21
28.5484085083008
 31
0.0
  0
LINE
  5
   68A
  8
0
  6
CONTINUOUS
 62
     3
 10
155.268431572025
 20
27.3965006685425
 30
0.0
 11
156.76843106814
 21
27.7984171403348
 31
0.0
  0
LINE
  5
   68B
  8
0
  6
CONTINUOUS
 62
     3
 10
165.118433427698
 20
-30.2265904301605
 30
0.0
 11
165.268434948684
 21
-30.2530386728303
 31
0.0
  0
LINE
  5
   68C
  8
0
  6
CONTINUOUS
 62
     3
 10
165.118433822548
 20
-58.4515609554205
 30
0.0
 11
165.268427711226
 21
-58.5502700558401
 31
0.0
  0
LINE
  5
   68D
  8
0
  6
CONTINUOUS
 62
     3
 10
165.118428627727
 20
-13.1765854309958
 30
0.0
 11
165.268430148326
 21
-13.1501343222609
 31
0.0
  0
LINE
  5
   68E
  8
0
  6
CONTINUOUS
 62
     3
 10
165.118429012258
 20
24.4593158081527
 30
0.0
 11
165.268422900331
 21
24.3954577846327
 31
0.0
  0
LINE
  5
   68F
  8
0
  6
CONTINUOUS
 62
     3
 10
165.118437167362
 20
26.6375466015897
 30
0.0
 11
165.268431063178
 21
26.7013969961283
 31
0.0
  0
LINE
  5
   690
  8
0
  6
CONTINUOUS
 62
     2
 10
117.018463134766
 20
-87.9515686035159
 30
0.0
 11
118.018455505371
 21
-87.9515686035159
 31
0.0
  0
LINE
  5
   691
  8
0
  6
CONTINUOUS
 62
     2
 10
117.018463134766
 20
-87.9515686035159
 30
0.0
 11
117.018463134766
 21
-82.9515762329105
 31
0.0
  0
LINE
  5
   692
  8
0
  6
CONTINUOUS
 62
     3
 10
145.075747492976
 20
-91.8015689849857
 30
0.0
 11
165.118453979492
 21
-91.8015689849857
 31
0.0
  0
LINE
  5
   693
  8
0
  6
CONTINUOUS
 62
     2
 10
140.762161254883
 20
-93.2015686035145
 30
0.0
 11
166.518455505371
 21
-93.2015686035145
 31
0.0
  0
LINE
  5
   694
  8
0
  6
CONTINUOUS
 62
     3
 10
117.018455505371
 20
-58.701568603516
 30
0.0
 11
140.518455505371
 21
-58.701568603516
 31
0.0
  0
LINE
  5
   695
  8
0
  6
CONTINUOUS
 62
     2
 10
166.518455505371
 20
-93.2015686035159
 30
0.0
 11
166.518455505371
 21
-81.2015762329105
 31
0.0
  0
LINE
  5
   696
  8
0
  6
CONTINUOUS
 62
     2
 10
117.018455505371
 20
-98.5865750657061
 30
0.0
 11
117.018455505371
 21
-58.701568603516
 31
0.0
  0
LINE
  5
   697
  8
0
  6
CONTINUOUS
 62
     2
 10
165.118455886841
 20
-81.2015762329105
 30
0.0
 11
167.768455886841
 21
-81.2015762329105
 31
0.0
  0
LINE
  5
   698
  8
0
  6
CONTINUOUS
 62
     3
 10
165.118455886841
 20
-91.801567077637
 30
0.0
 11
165.118455886841
 21
-81.2015762329105
 31
0.0
  0
LINE
  5
   699
  8
0
  6
CONTINUOUS
 62
     3
 10
140.518455505371
 20
-59.4515762329105
 30
0.0
 11
140.518455505371
 21
-58.701568603516
 31
0.0
  0
LINE
  5
   69A
  8
0
  6
CONTINUOUS
 62
     2
 10
165.118455886841
 20
-79.2015762329105
 30
0.0
 11
165.118455886841
 21
-59.4515762329105
 31
0.0
  0
LINE
  5
   69B
  8
0
  6
CONTINUOUS
 62
     3
 10
145.893455505371
 20
-93.2015686035148
 30
0.0
 11
145.893455505371
 21
-91.8015689849846
 31
0.0
  0
LINE
  5
   69C
  8
0
  6
CONTINUOUS
 62
     2
 10
118.018455505371
 20
-93.2015686035145
 30
0.0
 11
118.018455505371
 21
-87.9515686035159
 31
0.0
  0
LINE
  5
   69D
  8
0
  6
CONTINUOUS
 62
     3
 10
145.774772644043
 20
-93.2015686035151
 30
0.0
 11
145.774772644043
 21
-91.8015704154963
 31
0.0
  0
LINE
  5
   69E
  8
0
  6
CONTINUOUS
 62
     7
 10
167.768455886841
 20
-79.201576475383
 30
0.0
 11
167.768455886841
 21
-59.701576475383
 31
0.0
  0
LINE
  5
   69F
  8
0
  6
CONTINUOUS
 62
     7
 10
165.118455886841
 20
-59.701576475383
 30
0.0
 11
167.768455886841
 21
-59.701576475383
 31
0.0
  0
LINE
  5
   6A0
  8
0
  6
CONTINUOUS
 62
     7
 10
165.118455886841
 20
-79.201576475383
 30
0.0
 11
167.768455886841
 21
-79.201576475383
 31
0.0
  0
LINE
  5
   6A1
  8
0
  6
CONTINUOUS
 62
     7
 10
166.518455886841
 20
-79.201576475383
 30
0.0
 11
166.518455886841
 21
-59.701576475383
 31
0.0
  0
LINE
  5
   6A2
  8
0
  6
CONTINUOUS
 62
   130
 10
193.20053263946
 20
-42.8219352369275
 30
0.0
 11
194.471856014094
 21
-38.9888186766618
 31
0.0
  0
LINE
  5
   6A3
  8
0
  6
CONTINUOUS
 62
   130
 10
180.790016732702
 20
-39.7390747290348
 30
0.0
 11
192.587264297629
 21
-43.1449132748304
 31
0.0
  0
LINE
  5
   6A4
  8
0
  6
CONTINUOUS
 62
   130
 10
182.678853350213
 20
-34.0441396802447
 30
0.0
 11
194.173142968463
 21
-38.3633663149713
 31
0.0
  0
LINE
  5
   6A5
  8
0
  6
CONTINUOUS
 62
   130
 10
174.518432617186
 20
-31.3375862594502
 30
0.0
 11
182.678857514716
 21
-34.0441407709187
 31
0.0
  0
LINE
  5
   6A6
  8
0
  6
CONTINUOUS
 62
   130
 10
174.518432617186
 20
-37.6589885609458
 30
0.0
 11
180.79002767698
 21
-39.7390780313272
 31
0.0
  0
ARC
  5
   6A7
  8
0
  6
CONTINUOUS
 62
   130
 10
192.725956999484
 20
-42.6645376761508
 30
0.0
 40
0.499987101173646
 50
253.896746069851
 51
341.65100647314
  0
ARC
  5
   6A8
  8
0
  6
CONTINUOUS
 62
   130
 10
193.997284932695
 20
-38.8314145605462
 30
0.0
 40
0.499987202459568
 50
341.650951831627
 51
429.405209888843
  0
ARC
  5
   6A9
  8
0
  6
CONTINUOUS
 62
     7
 10
143.786194326777
 20
-24.3053769567946
 30
0.0
 40
52.731039246349
 50
327.264349717579
 51
356.916833212326
  0
LINE
  5
   6AA
  8
0
  6
CONTINUOUS
 62
     3
 10
156.768432617186
 20
-18.8265914916992
 30
0.0
 11
156.768432617186
 21
-9.95159912109376
 31
0.0
  0
LINE
  5
   6AB
  8
0
  6
CONTINUOUS
 62
     3
 10
165.118431091307
 20
-24.4515766376561
 30
0.0
 11
165.118431091307
 21
-18.9515613776014
 31
0.0
  0
LINE
  5
   6AC
  8
0
  6
CONTINUOUS
 62
     3
 10
119.518431091307
 20
-24.4515766376561
 30
0.0
 11
119.518431091307
 21
-18.9515830313069
 31
0.0
  0
LINE
  5
   6AD
  8
0
  6
CONTINUOUS
 62
     3
 10
128.366974650418
 20
21.8038174670095
 30
0.0
 11
128.543463373858
 21
22.8047350702651
 31
0.0
  0
LINE
  5
   6AE
  8
0
  6
CONTINUOUS
 62
     3
 10
128.543455982208
 20
22.804723292119
 30
0.0
 11
128.543455982208
 21
36.5484326240601
 31
0.0
  0
LINE
  5
   6AF
  8
0
  6
CONTINUOUS
 62
     3
 10
124.04346320618
 20
40.0484313964843
 30
0.0
 11
128.543462864595
 21
40.0484326240621
 31
0.0
  0
LINE
  5
   6B0
  8
0
  6
CONTINUOUS
 62
     3
 10
123.810779943835
 20
21.8038174670095
 30
0.0
 11
124.043463707656
 21
23.1234330813183
 31
0.0
  0
LINE
  5
   6B1
  8
0
  6
DASHDOT
 62
     7
 10
118.526542648422
 20
34.0484298914953
 30
0.0
 11
136.05921629418
 21
34.0484346743224
 31
0.0
  0
LINE
  5
   6B2
  8
0
  6
CONTINUOUS
 62
     7
 10
115.835694327847
 20
21.8038174670096
 30
0.0
 11
144.905550501384
 21
21.8038174670096
 31
0.0
  0
LINE
  5
   6B3
  8
0
  6
CONTINUOUS
 62
     7
 10
144.905550501384
 20
21.8038174670095
 30
0.0
 11
146.118417082042
 21
27.42343262406
 31
0.0
  0
LINE
  5
   6B4
  8
0
  6
CONTINUOUS
 62
     7
 10
118.268463134766
 20
25.5484313964844
 30
0.0
 11
124.043463134766
 21
25.5484313964844
 31
0.0
  0
LINE
  5
   6B5
  8
0
  6
CONTINUOUS
 62
     7
 10
128.543455982208
 20
25.5484313964844
 30
0.0
 11
145.713740558105
 21
25.5484313964844
 31
0.0
  0
LINE
  5
   6B6
  8
0
  6
CONTINUOUS
 62
     7
 10
129.043455982208
 20
28.0484313964844
 30
0.0
 11
146.253308903429
 21
28.0484313964844
 31
0.0
  0
LINE
  5
   6B7
  8
0
  6
CONTINUOUS
 62
     7
 10
129.043455982208
 20
27.2984313964843
 30
0.0
 11
129.043455982208
 21
28.0484313964844
 31
0.0
  0
LINE
  5
   6B8
  8
0
  6
CONTINUOUS
 62
     7
 10
131.543455982208
 20
25.5484313964844
 30
0.0
 11
131.543455982208
 21
26.5484313964843
 31
0.0
  0
LINE
  5
   6B9
  8
0
  6
CONTINUOUS
 62
     7
 10
129.043455982208
 20
27.2984313964843
 30
0.0
 11
131.543455982208
 21
26.5484313964843
 31
0.0
  0
LINE
  5
   6BA
  8
0
  6
CONTINUOUS
 62
     7
 10
121.768463134766
 20
23.298378000356
 30
0.0
 11
122.268463134766
 21
25.5484313964844
 31
0.0
  0
LINE
  5
   6BB
  8
0
  6
CONTINUOUS
 62
     7
 10
123.268463134766
 20
25.5484313964844
 30
0.0
 11
123.938995489874
 21
22.5309641908342
 31
0.0
  0
INSERT
  5
   6BC
  8
0
  6
CONTINUOUS
 62
     7
  2
*HATCH287
 10
118.268463134766
 20
-59.4515686035156
 30
0.0
 41
0.5
 42
0.5
 43
0.5
  0
INSERT
  5
   6BD
  8
0
  6
CONTINUOUS
 62
     7
  2
*HATCH288
 10
118.268463134766
 20
-59.4515686035156
 30
0.0
 41
0.5
 42
0.5
 43
0.5
  0
LINE
  5
   6BE
  8
0
  6
CONTINUOUS
 62
     3
 10
124.043463134766
 20
23.1234298322925
 30
0.0
 11
124.043463134766
 21
40.0484313964843
 31
0.0
  0
LINE
  5
   6BF
  8
0
  6
CONTINUOUS
 62
   130
 10
124.043463134766
 20
40.7984313964844
 30
0.0
 11
156.768463134766
 21
40.7984313964844
 31
0.0
  0
LINE
  5
   6C0
  8
0
  6
CONTINUOUS
 62
     7
 10
196.517233573126
 20
-36.2330305812866
 30
0.0
 11
196.517233573126
 21
-24.3053769567946
 31
0.0
  0
LINE
  5
   6C1
  8
0
  6
DASHDOT
 62
     7
 10
115.518455505371
 20
-99.1715757037812
 30
0.0
 11
115.518455505371
 21
26.7984290709037
 31
0.0
  0
LINE
  5
   6C2
  8
0
  6
CONTINUOUS
 62
     3
 10
118.268463134766
 20
-25.4202023566448
 30
0.0
 11
121.883506271165
 21
-24.4515880807678
 31
0.0
  0
LINE
  5
   6C3
  8
0
  6
CONTINUOUS
 62
     3
 10
118.268463134766
 20
-18.2015609741211
 30
0.0
 11
118.268463134766
 21
-17.9824066162109
 31
0.0
  0
LINE
  5
   6C4
  8
0
  6
CONTINUOUS
 62
   130
 10
117.768463134766
 20
-11.7015609741211
 30
0.0
 11
117.768463134766
 21
23.2984390258789
 31
0.0
  0
LINE
  5
   6C5
  8
0
  6
CONTINUOUS
 62
   130
 10
117.768463134766
 20
-40.2015609741211
 30
0.0
 11
117.768463134766
 21
-25.5541763305664
 31
0.0
  0
LINE
  5
   6C6
  8
0
  6
CONTINUOUS
 62
     3
 10
117.768463134766
 20
-46.7015609741211
 30
0.0
 11
117.768463134766
 21
-40.2015609741211
 31
0.0
  0
LINE
  5
   6C7
  8
0
  6
CONTINUOUS
 62
   130
 10
117.518463134766
 20
-46.7015609741211
 30
0.0
 11
117.518463134766
 21
-45.2640609741211
 31
0.0
  0
LINE
  5
   6C8
  8
0
  6
CONTINUOUS
 62
   130
 10
117.518463134766
 20
-41.6390762329102
 30
0.0
 11
117.518463134766
 21
-40.2015609741211
 31
0.0
  0
LINE
  5
   6C9
  8
0
  6
CONTINUOUS
 62
     3
 10
117.518463134766
 20
-45.2640609741211
 30
0.0
 11
117.518463134766
 21
-41.6390762329102
 31
0.0
  0
LINE
  5
   6CA
  8
0
  6
CONTINUOUS
 62
     2
 10
165.118455886841
 20
-81.2015762329105
 30
0.0
 11
165.118455886841
 21
-79.2015762329105
 31
0.0
  0
LINE
  5
   6CB
  8
0
  6
DASHDOT
 62
     2
 10
107.410951788035
 20
-86.4515640662481
 30
0.0
 11
136.05921629418
 21
-86.4515718813537
 31
0.0
  0
LINE
  5
   6CC
  8
0
  6
CONTINUOUS
 62
     2
 10
118.018455505371
 20
-93.2015686035156
 30
0.0
 11
140.762145996094
 21
-93.2015686035156
 31
0.0
  0
LINE
  5
   6CD
  8
0
  6
CONTINUOUS
 62
     7
 10
124.018455505371
 20
-80.4515686035156
 30
0.0
 11
137.039142787686
 21
-80.4515686035156
 31
0.0
  0
LINE
  5
   6CE
  8
0
  6
CONTINUOUS
 62
     7
 10
117.018455505371
 20
-78.2015686035156
 30
0.0
 11
124.018455505371
 21
-78.2015686035156
 31
0.0
  0
LINE
  5
   6CF
  8
0
  6
CONTINUOUS
 62
     7
 10
124.018455505371
 20
-80.4515686035156
 30
0.0
 11
124.018455505371
 21
-78.2015686035156
 31
0.0
  0
LINE
  5
   6D0
  8
0
  6
CONTINUOUS
 62
     7
 10
124.018455505371
 20
-92.4515686035156
 30
0.0
 11
127.018455505371
 21
-92.4515686035156
 31
0.0
  0
LINE
  5
   6D1
  8
0
  6
CONTINUOUS
 62
     7
 10
127.018455505371
 20
-92.4515686035156
 30
0.0
 11
127.018455505371
 21
-87.9515707176752
 31
0.0
  0
LINE
  5
   6D2
  8
0
  6
CONTINUOUS
 62
     7
 10
128.518455505371
 20
-92.4515686035156
 30
0.0
 11
128.518455505371
 21
-87.9515707176752
 31
0.0
  0
LINE
  5
   6D3
  8
0
  6
CONTINUOUS
 62
     7
 10
124.018455505371
 20
-92.7015586472286
 30
0.0
 11
124.018455505371
 21
-88.7265755509031
 31
0.0
  0
LINE
  5
   6D4
  8
0
  6
CONTINUOUS
 62
     7
 10
127.018455505371
 20
-92.4515686035156
 30
0.0
 11
128.518455505371
 21
-92.4515686035156
 31
0.0
  0
LINE
  5
   6D5
  8
0
  6
CONTINUOUS
 62
     7
 10
116.282077847483
 20
-77.3674980861503
 30
0.0
 11
136.136999711178
 21
-77.3674980861503
 31
0.0
  0
LINE
  5
   6D6
  8
0
  6
CONTINUOUS
 62
     7
 10
136.136999711178
 20
-77.3674980861503
 30
0.0
 11
141.685554875135
 21
-96.3358145768866
 31
0.0
  0
LINE
  5
   6D7
  8
0
  6
CONTINUOUS
 62
     7
 10
119.293462043033
 20
-92.2015601551812
 30
0.0
 11
124.018455505371
 21
-92.2015614441362
 31
0.0
  0
LINE
  5
   6D8
  8
0
  6
CONTINUOUS
 62
     7
 10
124.04346158938
 20
-92.7015589084253
 30
0.0
 11
124.793461112541
 21
-92.7015667424155
 31
0.0
  0
LINE
  5
   6D9
  8
0
  6
CONTINUOUS
 62
     7
 10
124.793452644345
 20
-93.201555456584
 30
0.0
 11
124.793452644345
 21
-92.7015630859785
 31
0.0
  0
LINE
  5
   6DA
  8
0
  6
CONTINUOUS
 62
     7
 10
119.293463611603
 20
-92.2015601551813
 30
0.0
 11
119.293463611603
 21
-89.5344134724421
 31
0.0
  0
LINE
  5
   6DB
  8
0
  6
CONTINUOUS
 62
     7
 10
119.293463247455
 20
-89.5344129956051
 30
0.0
 11
124.018455505371
 21
-89.5344142845597
 31
0.0
  0
LINE
  5
   6DC
  8
0
  6
CONTINUOUS
 62
     7
 10
119.543462520977
 20
-88.7015673759374
 30
0.0
 11
124.043462520977
 21
-88.7015686035152
 31
0.0
  0
LINE
  5
   6DD
  8
0
  6
CONTINUOUS
 62
     7
 10
124.293463134766
 20
-88.451568671714
 30
0.0
 11
124.293463134766
 21
-87.9515686717141
 31
0.0
  0
LINE
  5
   6DE
  8
0
  6
CONTINUOUS
 62
     1
 10
119.293462725573
 20
-87.9515673077386
 30
0.0
 11
124.293462725573
 21
-87.951568671714
 31
0.0
  0
LINE
  5
   6DF
  8
0
  6
CONTINUOUS
 62
     7
 10
119.543462520977
 20
-88.7015673759374
 30
0.0
 11
124.043462520977
 21
-88.7015686035152
 31
0.0
  0
LINE
  5
   6E0
  8
0
  6
CONTINUOUS
 62
     7
 10
119.29346205535
 20
-88.4515669073135
 30
0.0
 11
119.543461978594
 21
-88.7015669669552
 31
0.0
  0
LINE
  5
   6E1
  8
0
  6
CONTINUOUS
 62
     7
 10
119.293463134766
 20
-88.4515679867297
 30
0.0
 11
119.293463134766
 21
-87.9515673077388
 31
0.0
  0
LINE
  5
   6E2
  8
0
  6
CONTINUOUS
 62
     7
 10
118.793463104409
 20
-88.2015671713412
 30
0.0
 11
119.293462657374
 21
-88.2015673077386
 31
0.0
  0
LINE
  5
   6E3
  8
0
  6
CONTINUOUS
 62
     7
 10
118.793463581801
 20
-88.2015671713412
 30
0.0
 11
118.793463581801
 21
-84.7015676481785
 31
0.0
  0
INSERT
  5
   6E4
  8
0
  6
CONTINUOUS
 62
     7
  2
*HATCH289
 10
118.268463134766
 20
-59.4515686035156
 30
0.0
 41
0.5
 42
0.5
 43
0.5
  0
INSERT
  5
   6E5
  8
0
  6
CONTINUOUS
 62
     7
  2
*HATCH290
 10
118.268463134766
 20
-59.4515686035156
 30
0.0
 41
0.5
 42
0.5
 43
0.5
  0
LINE
  5
   6E6
  8
0
  6
CONTINUOUS
 62
     1
 10
119.293463543958
 20
-84.9515677845759
 30
0.0
 11
124.293463543958
 21
-84.9515691485513
 31
0.0
  0
LINE
  5
   6E7
  8
0
  6
CONTINUOUS
 62
     7
 10
124.293463134766
 20
-84.9515691485513
 30
0.0
 11
124.293463134766
 21
-84.4515691485513
 31
0.0
  0
LINE
  5
   6E8
  8
0
  6
CONTINUOUS
 62
     7
 10
124.043463213451
 20
-84.2015686087222
 30
0.0
 11
124.293463136695
 21
-84.4515686683638
 31
0.0
  0
LINE
  5
   6E9
  8
0
  6
CONTINUOUS
 62
     7
 10
119.543463748555
 20
-84.2015678527747
 30
0.0
 11
124.043463748554
 21
-84.2015690803526
 31
0.0
  0
LINE
  5
   6EA
  8
0
  6
CONTINUOUS
 62
     7
 10
119.293463227823
 20
-84.4515673642884
 30
0.0
 11
119.543463287465
 21
-84.2015674410443
 31
0.0
  0
INSERT
  5
   6EB
  8
0
  6
CONTINUOUS
 62
     7
  2
*HATCH291
 10
118.268463134766
 20
-59.4515686035156
 30
0.0
 41
0.5
 42
0.5
 43
0.5
  0
LINE
  5
   6EC
  8
0
  6
CONTINUOUS
 62
     7
 10
119.293464453875
 20
-83.364005223541
 30
0.0
 11
124.0434635002
 21
-83.3640065193173
 31
0.0
  0
LINE
  5
   6ED
  8
0
  6
CONTINUOUS
 62
     7
 10
119.293464458381
 20
-83.3474856770322
 30
0.0
 11
124.018455505371
 21
-83.3474869659865
 31
0.0
  0
LINE
  5
   6EE
  8
0
  6
CONTINUOUS
 62
     7
 10
119.29346408844
 20
-83.3640073738725
 30
0.0
 11
119.29346408844
 21
-82.7015675507219
 31
0.0
  0
LINE
  5
   6EF
  8
0
  6
CONTINUOUS
 62
     7
 10
119.293464634584
 20
-82.7015677845761
 30
0.0
 11
124.018455505371
 21
-82.7015690735304
 31
0.0
  0
LINE
  5
   6F0
  8
0
  6
CONTINUOUS
 62
     7
 10
118.268463134766
 20
-81.7015675049607
 30
0.0
 11
124.018455505371
 21
-81.7015690735304
 31
0.0
  0
INSERT
  5
   6F1
  8
0
  6
CONTINUOUS
 62
     7
  2
*HATCH292
 10
118.268463134766
 20
-59.4515686035156
 30
0.0
 41
0.5
 42
0.5
 43
0.5
  0
LINE
  5
   6F2
  8
0
  6
CONTINUOUS
 62
     7
 10
118.268463134766
 20
-93.2015686035156
 30
0.0
 11
118.268463134766
 21
-81.7015675049607
 31
0.0
  0
LINE
  5
   6F3
  8
0
  6
CONTINUOUS
 62
     7
 10
118.793463581801
 20
-84.7015676481785
 30
0.0
 11
119.293463134766
 21
-84.7015676481785
 31
0.0
  0
LINE
  5
   6F4
  8
0
  6
CONTINUOUS
 62
     7
 10
124.043462520977
 20
-88.7015686035152
 30
0.0
 11
124.293463134766
 21
-88.451568671714
 31
0.0
  0
LINE
  5
   6F5
  8
0
  6
CONTINUOUS
 62
     7
 10
124.018455505371
 20
-84.176560886998
 30
0.0
 11
124.018455505371
 21
-80.4515686035156
 31
0.0
  0
LINE
  5
   6F6
  8
0
  6
CONTINUOUS
 62
     7
 10
119.293463134766
 20
-88.0765673077388
 30
0.0
 11
124.293463134766
 21
-88.0765686717142
 31
0.0
  0
INSERT
  5
   6F7
  8
0
  6
CONTINUOUS
 62
     7
  2
*HATCH293
 10
118.268463134766
 20
-59.4515686035156
 30
0.0
 41
0.5
 42
0.5
 43
0.5
  0
INSERT
  5
   6F8
  8
0
  6
CONTINUOUS
 62
     7
  2
*HATCH294
 10
118.268463134766
 20
-59.4515686035156
 30
0.0
 41
0.5
 42
0.5
 43
0.5
  0
INSERT
  5
   6F9
  8
0
  6
CONTINUOUS
 62
     7
  2
*HATCH295
 10
118.268463134766
 20
-59.4515686035156
 30
0.0
 41
0.5
 42
0.5
 43
0.5
  0
INSERT
  5
   6FA
  8
0
  6
CONTINUOUS
 62
     7
  2
*HATCH296
 10
118.268463134766
 20
-59.4515686035156
 30
0.0
 41
0.5
 42
0.5
 43
0.5
  0
LINE
  5
   6FB
  8
0
  6
CONTINUOUS
 62
     7
 10
124.293463134766
 20
-84.8265686717141
 30
0.0
 11
128.518455505371
 21
-84.8265698242712
 31
0.0
  0
LINE
  5
   6FC
  8
0
  6
CONTINUOUS
 62
     7
 10
124.293463134766
 20
-88.0765686717142
 30
0.0
 11
128.518455505371
 21
-88.0765698242713
 31
0.0
  0
LINE
  5
   6FD
  8
0
  6
CONTINUOUS
 62
     3
 10
174.518432617186
 20
-43.0765664618022
 30
0.0
 11
174.518432617186
 21
-34.0765688459882
 31
0.0
  0
LINE
  5
   6FE
  8
0
  6
CONTINUOUS
 62
     3
 10
174.518432617186
 20
-33.5765688459882
 30
0.0
 11
174.518432617186
 21
-23.0765688459882
 31
0.0
  0
LINE
  5
   6FF
  8
0
  6
CONTINUOUS
 62
     3
 10
174.518432617186
 20
-22.5765688459882
 30
0.0
 11
174.518432617186
 21
-13.5765688459882
 31
0.0
  0
LINE
  5
   700
  8
0
  6
CONTINUOUS
 62
     3
 10
174.518432617186
 20
-13.0765688459882
 30
0.0
 11
174.518432617186
 21
-1.45158386230469
 31
0.0
  0
LINE
  5
   701
  8
0
  6
CONTINUOUS
 62
     1
 10
170.518432617186
 20
-49.3265686035156
 30
0.0
 11
170.518432617186
 21
-48.3265686035156
 31
0.0
  0
LINE
  5
   702
  8
0
  6
CONTINUOUS
 62
     1
 10
170.518432617186
 20
-49.3265686035156
 30
0.0
 11
171.518432617186
 21
-49.3265686035156
 31
0.0
  0
LINE
  5
   703
  8
0
  6
CONTINUOUS
 62
     1
 10
170.518432617186
 20
4.67342948913574
 30
0.0
 11
170.518432617186
 21
5.67342948913574
 31
0.0
  0
LINE
  5
   704
  8
0
  6
CONTINUOUS
 62
     1
 10
170.518432617186
 20
5.67342948913574
 30
0.0
 11
171.518432617186
 21
5.67342948913574
 31
0.0
  0
LINE
  5
   705
  8
0
  6
CONTINUOUS
 62
     1
 10
170.518432617186
 20
-48.3265686035156
 30
0.0
 11
170.518432617186
 21
4.67343139648438
 31
0.0
  0
LINE
  5
   706
  8
0
  6
CONTINUOUS
 62
     1
 10
168.268432617186
 20
12.4621028900147
 30
0.0
 11
168.268432617186
 21
14.8847560882568
 31
0.0
  0
LINE
  5
   707
  8
0
  6
CONTINUOUS
 62
     1
 10
168.268432617186
 20
-58.5378932952881
 30
0.0
 11
168.268432617186
 21
-56.1152439117432
 31
0.0
  0
LINE
  5
   708
  8
0
  6
CONTINUOUS
 62
     1
 10
171.518432617186
 20
-62.0765705108643
 30
0.0
 11
171.518432617186
 21
18.4234294891357
 31
0.0
  0
LINE
  5
   709
  8
0
  6
CONTINUOUS
 62
     1
 10
171.518432617186
 20
-62.0765686035156
 30
0.0
 11
173.268432617186
 21
-62.0765686035156
 31
0.0
  0
LINE
  5
   70A
  8
0
  6
CONTINUOUS
 62
     1
 10
173.268432617186
 20
-62.0765686035156
 30
0.0
 11
173.268432617186
 21
18.4234313964844
 31
0.0
  0
LINE
  5
   70B
  8
0
  6
CONTINUOUS
 62
     1
 10
171.518432617186
 20
18.4234294891357
 30
0.0
 11
172.268432617186
 21
18.4234294891357
 31
0.0
  0
LINE
  5
   70C
  8
0
  6
CONTINUOUS
 62
     1
 10
172.768432617186
 20
18.4234294891357
 30
0.0
 11
173.268432617186
 21
18.4234294891357
 31
0.0
  0
LINE
  5
   70D
  8
0
  6
CONTINUOUS
 62
     1
 10
168.268432718203
 20
12.4621018115273
 30
0.0
 11
168.768432734666
 21
12.173428407029
 31
0.0
  0
LINE
  5
   70E
  8
0
  6
CONTINUOUS
 62
     1
 10
168.268431909066
 20
14.8847548309638
 30
0.0
 11
168.768431925529
 21
15.173428235462
 31
0.0
  0
LINE
  5
   70F
  8
0
  6
CONTINUOUS
 62
     1
 10
168.768432617186
 20
12.1734294891357
 30
0.0
 11
168.768432617186
 21
12.2110424041748
 31
0.0
  0
LINE
  5
   710
  8
0
  6
CONTINUOUS
 62
     1
 10
168.768432617186
 20
12.1734294891357
 30
0.0
 11
171.518432617186
 21
12.1734294891357
 31
0.0
  0
LINE
  5
   711
  8
0
  6
CONTINUOUS
 62
     1
 10
168.768432617186
 20
12.2110424041748
 30
0.0
 11
168.768432617186
 21
12.3219814300537
 31
0.0
  0
LINE
  5
   712
  8
0
  6
CONTINUOUS
 62
     1
 10
168.768432617186
 20
12.3219814300537
 30
0.0
 11
168.768432617186
 21
12.5006847381592
 31
0.0
  0
LINE
  5
   713
  8
0
  6
CONTINUOUS
 62
     1
 10
168.768432617186
 20
12.5006847381592
 30
0.0
 11
168.768432617186
 21
12.7381954193115
 31
0.0
  0
LINE
  5
   714
  8
0
  6
CONTINUOUS
 62
     1
 10
168.768432617186
 20
12.7381954193115
 30
0.0
 11
168.768432617186
 21
13.0226039886475
 31
0.0
  0
LINE
  5
   715
  8
0
  6
CONTINUOUS
 62
     1
 10
168.768432617186
 20
13.0226039886475
 30
0.0
 11
168.768432617186
 21
13.3396511077881
 31
0.0
  0
LINE
  5
   716
  8
0
  6
CONTINUOUS
 62
     1
 10
168.768432617186
 20
13.3396511077881
 30
0.0
 11
168.768432617186
 21
13.6734294891357
 31
0.0
  0
LINE
  5
   717
  8
0
  6
CONTINUOUS
 62
     1
 10
168.768432617186
 20
13.6734294891357
 30
0.0
 11
168.768432617186
 21
14.0072154998779
 31
0.0
  0
LINE
  5
   718
  8
0
  6
CONTINUOUS
 62
     1
 10
168.768432617186
 20
14.0072154998779
 30
0.0
 11
168.768432617186
 21
14.324254989624
 31
0.0
  0
LINE
  5
   719
  8
0
  6
CONTINUOUS
 62
     1
 10
168.768432617186
 20
14.324254989624
 30
0.0
 11
168.768432617186
 21
14.60866355896
 31
0.0
  0
LINE
  5
   71A
  8
0
  6
CONTINUOUS
 62
     1
 10
168.768432617186
 20
14.60866355896
 30
0.0
 11
168.768432617186
 21
14.8461818695068
 31
0.0
  0
LINE
  5
   71B
  8
0
  6
CONTINUOUS
 62
     1
 10
168.768432617186
 20
14.8461818695068
 30
0.0
 11
168.768432617186
 21
15.0248851776123
 31
0.0
  0
LINE
  5
   71C
  8
0
  6
CONTINUOUS
 62
     1
 10
168.768432617186
 20
15.0248851776123
 30
0.0
 11
168.768432617186
 21
15.1358242034912
 31
0.0
  0
LINE
  5
   71D
  8
0
  6
CONTINUOUS
 62
     1
 10
168.768432617186
 20
15.1734294891357
 30
0.0
 11
171.518432617186
 21
15.1734294891357
 31
0.0
  0
LINE
  5
   71E
  8
0
  6
CONTINUOUS
 62
     1
 10
168.768432617186
 20
15.1358242034912
 30
0.0
 11
168.768432617186
 21
15.1734294891357
 31
0.0
  0
LINE
  5
   71F
  8
0
  6
CONTINUOUS
 62
     1
 10
168.268432045136
 20
-58.5378937238892
 30
0.0
 11
168.7684320616
 21
-58.8265690161457
 31
0.0
  0
LINE
  5
   720
  8
0
  6
CONTINUOUS
 62
     1
 10
168.268431584463
 20
-56.1152448129885
 30
0.0
 11
168.768431600928
 21
-55.8265695207319
 31
0.0
  0
LINE
  5
   721
  8
0
  6
CONTINUOUS
 62
     1
 10
170.018432617186
 20
-58.8265686035156
 30
0.0
 11
170.018432617186
 21
-58.7889595031738
 31
0.0
  0
LINE
  5
   722
  8
0
  6
CONTINUOUS
 62
     1
 10
168.768432617186
 20
-58.8265686035156
 30
0.0
 11
171.518432617186
 21
-58.8265686035156
 31
0.0
  0
LINE
  5
   723
  8
0
  6
CONTINUOUS
 62
     1
 10
168.768432617186
 20
-58.7889595031738
 30
0.0
 11
168.768432617186
 21
-58.6780223846436
 31
0.0
  0
LINE
  5
   724
  8
0
  6
CONTINUOUS
 62
     1
 10
168.768432617186
 20
-58.6780223846436
 30
0.0
 11
168.768432617186
 21
-58.4993152618408
 31
0.0
  0
LINE
  5
   725
  8
0
  6
CONTINUOUS
 62
     1
 10
168.768432617186
 20
-58.4993152618408
 30
0.0
 11
168.768432617186
 21
-58.2618026733399
 31
0.0
  0
LINE
  5
   726
  8
0
  6
CONTINUOUS
 62
     1
 10
168.768432617186
 20
-58.2618026733399
 30
0.0
 11
168.768432617186
 21
-57.9773941040039
 31
0.0
  0
LINE
  5
   727
  8
0
  6
CONTINUOUS
 62
     1
 10
168.768432617186
 20
-57.9773941040039
 30
0.0
 11
168.768432617186
 21
-57.6603507995606
 31
0.0
  0
LINE
  5
   728
  8
0
  6
CONTINUOUS
 62
     1
 10
168.768432617186
 20
-57.6603507995606
 30
0.0
 11
168.768432617186
 21
-57.3265686035156
 31
0.0
  0
LINE
  5
   729
  8
0
  6
CONTINUOUS
 62
     1
 10
168.768432617186
 20
-57.3265686035156
 30
0.0
 11
168.768432617186
 21
-56.9927864074707
 31
0.0
  0
LINE
  5
   72A
  8
0
  6
CONTINUOUS
 62
     1
 10
168.768432617186
 20
-56.9927864074707
 30
0.0
 11
168.768432617186
 21
-56.6757431030274
 31
0.0
  0
LINE
  5
   72B
  8
0
  6
CONTINUOUS
 62
     1
 10
168.768432617186
 20
-56.6757431030274
 30
0.0
 11
168.768432617186
 21
-56.3913345336914
 31
0.0
  0
LINE
  5
   72C
  8
0
  6
CONTINUOUS
 62
     1
 10
168.768432617186
 20
-56.3913345336914
 30
0.0
 11
168.768432617186
 21
-56.1538219451904
 31
0.0
  0
LINE
  5
   72D
  8
0
  6
CONTINUOUS
 62
     1
 10
168.768432617186
 20
-56.1538219451904
 30
0.0
 11
168.768432617186
 21
-55.9751148223877
 31
0.0
  0
LINE
  5
   72E
  8
0
  6
CONTINUOUS
 62
     1
 10
168.768432617186
 20
-55.9751148223877
 30
0.0
 11
168.768432617186
 21
-55.8641757965088
 31
0.0
  0
LINE
  5
   72F
  8
0
  6
CONTINUOUS
 62
     1
 10
168.768432617186
 20
-55.8265686035156
 30
0.0
 11
171.518432617186
 21
-55.8265686035156
 31
0.0
  0
LINE
  5
   730
  8
0
  6
CONTINUOUS
 62
     1
 10
168.768432617186
 20
-55.8641757965088
 30
0.0
 11
168.768432617186
 21
-55.8265686035156
 31
0.0
  0
LINE
  5
   731
  8
0
  6
CONTINUOUS
 62
     1
 10
172.268432617186
 20
18.4234294891357
 30
0.0
 11
172.768432617186
 21
18.4234294891357
 31
0.0
  0
LINE
  5
   732
  8
0
  6
CONTINUOUS
 62
     7
 10
171.518432617186
 20
18.4234294891357
 30
0.0
 11
171.518432617186
 21
54.773574580958
 31
0.0
  0
LINE
  5
   733
  8
0
  6
CONTINUOUS
 62
     7
 10
170.518432617186
 20
5.67342948913574
 30
0.0
 11
170.518432617186
 21
12.1734294891357
 31
0.0
  0
LINE
  5
   734
  8
0
  6
CONTINUOUS
 62
     7
 10
171.518432617186
 20
-110.300239909681
 30
0.0
 11
171.518432617186
 21
-62.0765686035156
 31
0.0
  0
LINE
  5
   735
  8
0
  6
CONTINUOUS
 62
     7
 10
170.518432617186
 20
-110.590937584099
 30
0.0
 11
170.518432617186
 21
-58.8265686035156
 31
0.0
  0
LINE
  5
   736
  8
0
  6
CONTINUOUS
 62
     7
 10
167.026808281623
 20
-111.605944658391
 30
0.0
 11
175.010786427018
 21
-109.285020778916
 31
0.0
  0
LINE
  5
   737
  8
0
  6
CONTINUOUS
 62
     7
 10
168.048014788592
 20
56.9859659466865
 30
0.0
 11
175.474971202913
 21
52.2512812325572
 31
0.0
  0
LINE
  5
   738
  8
0
  6
CONTINUOUS
 62
     7
 10
170.518432617186
 20
15.4234294891357
 30
0.0
 11
171.518432617186
 21
15.4234294891357
 31
0.0
  0
LINE
  5
   739
  8
0
  6
CONTINUOUS
 62
     7
 10
170.518432617186
 20
11.9234294891357
 30
0.0
 11
171.518432617186
 21
11.9234294891357
 31
0.0
  0
LINE
  5
   73A
  8
0
  6
CONTINUOUS
 62
     7
 10
170.518432617186
 20
-55.5765686035156
 30
0.0
 11
171.518432617186
 21
-55.5765686035156
 31
0.0
  0
LINE
  5
   73B
  8
0
  6
CONTINUOUS
 62
     7
 10
170.518432617186
 20
-59.0765686035156
 30
0.0
 11
171.518432617186
 21
-59.0765686035156
 31
0.0
  0
LINE
  5
   73C
  8
0
  6
CONTINUOUS
 62
     7
 10
170.518432617186
 20
-49.8265686035156
 30
0.0
 11
171.518432617186
 21
-49.8265686035156
 31
0.0
  0
LINE
  5
   73D
  8
0
  6
CONTINUOUS
 62
     7
 10
170.518432617186
 20
6.17342948913574
 30
0.0
 11
171.518432617186
 21
6.17342948913574
 31
0.0
  0
LINE
  5
   73E
  8
0
  6
CONTINUOUS
 62
     7
 10
170.518432617186
 20
15.1734294891357
 30
0.0
 11
170.518432617186
 21
55.411074580958
 31
0.0
  0
LINE
  5
   73F
  8
0
  6
CONTINUOUS
 62
     7
 10
170.518432617186
 20
-55.8265686035156
 30
0.0
 11
170.518432617186
 21
-49.3265686035156
 31
0.0
  0
INSERT
  5
   740
  8
0
  6
CONTINUOUS
 62
     7
  2
*HATCH297
 10
118.268463134766
 20
-59.4515686035156
 30
0.0
 41
0.5
 42
0.5
 43
0.5
  0
INSERT
  5
   741
  8
0
  6
CONTINUOUS
 62
     7
  2
*HATCH298
 10
118.268463134766
 20
-59.4515686035156
 30
0.0
 41
0.5
 42
0.5
 43
0.5
  0
INSERT
  5
   742
  8
0
  6
CONTINUOUS
 62
     7
  2
*HATCH299
 10
118.268463134766
 20
-59.4515686035156
 30
0.0
 41
0.5
 42
0.5
 43
0.5
  0
INSERT
  5
   743
  8
0
  6
CONTINUOUS
 62
     7
  2
*HATCH300
 10
118.268463134766
 20
-59.4515686035156
 30
0.0
 41
0.5
 42
0.5
 43
0.5
  0
LINE
  5
   744
  8
0
  6
DASHDOT
 62
     7
 10
101.53423456001
 20
-21.8265914916992
 30
0.0
 11
199.690550359492
 21
-21.8265914916992
 31
0.0
  0
LINE
  5
   745
  8
0
  6
DASHDOT
 62
     2
 10
208.791135930304
 20
-21.8265914916992
 30
0.0
 11
216.754148304766
 21
-21.8265914916992
 31
0.0
  0
LINE
  5
   746
  8
0
  6
CONTINUOUS
 62
     3
 10
128.543455982208
 20
36.5484326240601
 30
0.0
 11
128.543455982208
 21
40.0484326240602
 31
0.0
  0
LINE
  5
   747
  8
0
  6
CONTINUOUS
 62
     7
 10
146.118417082042
 20
27.42343262406
 30
0.0
 11
157.34867338325
 21
27.42343262406
 31
0.0
  0
LINE
  5
   748
  8
0
  6
CONTINUOUS
 62
     7
 10
157.34867338325
 20
27.42343262406
 30
0.0
 11
160.691423541727
 21
42.9115083583338
 31
0.0
  0
INSERT
  5
   749
  8
0
  6
CONTINUOUS
 62
     7
  2
*HATCH301
 10
118.268463134766
 20
-59.4515686035156
 30
0.0
 41
0.5
 42
0.5
 43
0.5
  0
INSERT
  5
   74A
  8
0
  6
CONTINUOUS
 62
     2
  2
*HATCH302
 10
118.268463134766
 20
-59.4515686035156
 30
0.0
 41
0.5
 42
0.5
 43
0.5
  0
INSERT
  5
   74B
  8
0
  6
CONTINUOUS
 62
     2
  2
*HATCH303
 10
118.268463134766
 20
-59.4515686035156
 30
0.0
 41
0.5
 42
0.5
 43
0.5
  0
LINE
  5
   74C
  8
0
  6
CONTINUOUS
 62
     7
 10
117.768463134766
 20
42.0484313964844
 30
0.0
 11
167.768432617186
 21
42.0484313964844
 31
0.0
  0
LINE
  5
   74D
  8
0
  6
DASHDOT
 62
   130
 10
117.018463134766
 20
41.2984294800989
 30
0.0
 11
117.018463134766
 21
50.5397101639818
 31
0.0
  0
LINE
  5
   74E
  8
0
  6
DASHDOT
 62
     7
 10
115.518455505371
 20
41.2984290709042
 30
0.0
 11
115.518455505371
 21
51.3998598231666
 31
0.0
  0
LINE
  5
   74F
  8
0
  6
CONTINUOUS
 62
     7
 10
117.768463134766
 20
41.5484313964844
 30
0.0
 11
127.018463134766
 21
41.5484313964844
 31
0.0
  0
LINE
  5
   750
  8
0
  6
CONTINUOUS
 62
     7
 10
127.018463134766
 20
40.7984313964844
 30
0.0
 11
127.018463134766
 21
41.5484313964844
 31
0.0
  0
LINE
  5
   751
  8
0
  6
CONTINUOUS
 62
     7
 10
130.003549433153
 20
43.4067617707415
 30
0.0
 11
132.248330251026
 21
40.1759557338032
 31
0.0
  0
LINE
  5
   752
  8
0
  6
CONTINUOUS
 62
     7
 10
167.768432617186
 20
28.5484085083008
 30
0.0
 11
167.768432617186
 21
42.0484313964844
 31
0.0
  0
INSERT
  5
   753
  8
0
  6
CONTINUOUS
 62
     7
  2
*HATCH304
 10
118.268463134766
 20
-59.4515686035156
 30
0.0
 41
0.5
 42
0.5
 43
0.5
  0
LINE
  5
   754
  8
0
  6
CONTINUOUS
 62
     7
 10
167.768455886841
 20
-94.4515686035144
 30
0.0
 11
167.768455886841
 21
-81.2015762329105
 31
0.0
  0
LINE
  5
   755
  8
0
  6
CONTINUOUS
 62
     7
 10
141.134380882924
 20
-94.4515686035144
 30
0.0
 11
167.768455886841
 21
-94.4515686035144
 31
0.0
  0
LINE
  5
   756
  8
0
  6
CONTINUOUS
 62
     7
 10
117.768463134766
 20
41.5484313964844
 30
0.0
 11
117.768463134766
 21
42.0484313964844
 31
0.0
  0
LINE
  5
   757
  8
0
  6
CONTINUOUS
 62
     1
 10
131.568455982208
 20
-89.2140712973648
 30
0.0
 11
131.568455982208
 21
-83.6890712973648
 31
0.0
  0
ARC
  5
   758
  8
0
  6
CONTINUOUS
 62
     1
 10
132.36327487613
 20
-88.5234462973648
 30
0.0
 40
1.05518110607842
 50
319.1176078909
 51
400.8823921091
  0
ARC
  5
   759
  8
0
  6
CONTINUOUS
 62
     1
 10
132.36327487613
 20
-84.3796962973648
 30
0.0
 40
1.05518110607842
 50
319.1176078909
 51
400.8823921091
  0
LINE
  5
   75A
  8
0
  6
CONTINUOUS
 62
     1
 10
131.568455982208
 20
-87.8328212973648
 30
0.0
 11
133.181470948264
 21
-87.8328212973648
 31
0.0
  0
ARC
  5
   75B
  8
0
  6
CONTINUOUS
 62
     1
 10
129.274705982208
 20
-86.4515712973648
 30
0.0
 40
4.14375
 50
340.528779365509
 51
379.471220634491
  0
LINE
  5
   75C
  8
0
  6
CONTINUOUS
 62
     1
 10
131.568455982208
 20
-85.0703212973648
 30
0.0
 11
133.181470948264
 21
-85.0703212973648
 31
0.0
  0
LINE
  5
   75D
  8
0
  6
CONTINUOUS
 62
     1
 10
131.568455982208
 20
-89.2140712973648
 30
0.0
 11
133.161049453313
 21
-89.2140712973648
 31
0.0
  0
LINE
  5
   75E
  8
0
  6
CONTINUOUS
 62
     1
 10
131.568455982208
 20
-83.6890712973648
 30
0.0
 11
133.161049453313
 21
-83.6890712973648
 31
0.0
  0
LINE
  5
   75F
  8
0
  6
CONTINUOUS
 62
     1
 10
131.418455982208
 20
-88.7765712973648
 30
0.0
 11
131.568455982208
 21
-88.7765712973648
 31
0.0
  0
LINE
  5
   760
  8
0
  6
CONTINUOUS
 62
     1
 10
131.418455982208
 20
-84.1265712973648
 30
0.0
 11
131.568455982208
 21
-84.1265712973648
 31
0.0
  0
LINE
  5
   761
  8
0
  6
CONTINUOUS
 62
     7
 10
118.918455982208
 20
-87.644856399663
 30
0.0
 11
130.793455982208
 21
-87.644856399663
 31
0.0
  0
LINE
  5
   762
  8
0
  6
CONTINUOUS
 62
     7
 10
118.918455982208
 20
-85.258286399663
 30
0.0
 11
130.793455982208
 21
-85.258286399663
 31
0.0
  0
LINE
  5
   763
  8
0
  6
CONTINUOUS
 62
     1
 10
124.293463134766
 20
-84.951571399663
 30
0.0
 11
131.018455982208
 21
-84.951571399663
 31
0.0
  0
LINE
  5
   764
  8
0
  6
CONTINUOUS
 62
     1
 10
124.293463134766
 20
-87.951571399663
 30
0.0
 11
131.018455982208
 21
-87.951571399663
 31
0.0
  0
LINE
  5
   765
  8
0
  6
CONTINUOUS
 62
     1
 10
130.793455982208
 20
-87.951571399663
 30
0.0
 11
130.793455982208
 21
-84.951571399663
 31
0.0
  0
LINE
  5
   766
  8
0
  6
CONTINUOUS
 62
     1
 10
131.418455982208
 20
-88.7765712973648
 30
0.0
 11
131.418455982208
 21
-84.1265712973648
 31
0.0
  0
LINE
  5
   767
  8
0
  6
CONTINUOUS
 62
     1
 10
133.418455982208
 20
-88.5234462973648
 30
0.0
 11
133.418455982208
 21
-84.3796962973648
 31
0.0
  0
LINE
  5
   768
  8
0
  6
DASHDOT
 62
     7
 10
128.293455982208
 20
-86.451571399663
 30
0.0
 11
138.293455982208
 21
-86.451571399663
 31
0.0
  0
LINE
  5
   769
  8
0
  6
CONTINUOUS
 62
     7
 10
127.018455505371
 20
-84.8265694150786
 30
0.0
 11
127.018455505371
 21
-80.4515686035156
 31
0.0
  0
LINE
  5
   76A
  8
0
  6
CONTINUOUS
 62
     7
 10
128.518455505371
 20
-84.9515707176753
 30
0.0
 11
128.518455505371
 21
-80.4515686035156
 31
0.0
  0
LINE
  5
   76B
  8
0
  6
CONTINUOUS
 62
     7
 10
131.418455982208
 20
-89.9640712973648
 30
0.0
 11
131.418455982208
 21
-82.9390712973648
 31
0.0
  0
LINE
  5
   76C
  8
0
  6
CONTINUOUS
 62
     7
 10
131.018455982208
 20
-82.9390712973648
 30
0.0
 11
131.418455982208
 21
-82.9390712973648
 31
0.0
  0
LINE
  5
   76D
  8
0
  6
CONTINUOUS
 62
     7
 10
131.018455982208
 20
-89.9640712973648
 30
0.0
 11
131.418455982208
 21
-89.9640712973648
 31
0.0
  0
LINE
  5
   76E
  8
0
  6
CONTINUOUS
 62
     7
 10
131.018455982208
 20
-89.9640712973648
 30
0.0
 11
131.018455982208
 21
-82.9390712973648
 31
0.0
  0
LINE
  5
   76F
  8
0
  6
CONTINUOUS
 62
     7
 10
130.136421109935
 20
-101.524037371425
 30
0.0
 11
130.136421109935
 21
-98.073256491115
 31
0.0
  0
LINE
  5
   770
  8
0
  6
CONTINUOUS
 62
     7
 10
130.136421109935
 20
-74.4704041846066
 30
0.0
 11
130.136421109935
 21
-70.621456279646
 31
0.0
  0
LINE
  5
   771
  8
0
  6
DASHDOT
 62
     2
 10
130.136421109935
 20
-97.8195866783106
 30
0.0
 11
130.136421109935
 21
-74.6600819463671
 31
0.0
  0
LINE
  5
   772
  8
0
  6
CONTINUOUS
 62
     3
 10
124.046935491399
 20
40.0484414490536
 30
0.0
 11
128.546935491399
 21
40.0484338196596
 31
0.0
  0
LINE
  5
   773
  8
0
  6
CONTINUOUS
 62
     3
 10
128.546915054321
 20
22.8047485343525
 30
0.0
 11
128.546915054321
 21
40.0484390250752
 31
0.0
  0
LINE
  5
   774
  8
0
  6
CONTINUOUS
 62
     3
 10
124.046916961395
 20
40.0484542842504
 30
0.0
 11
128.546915054046
 21
40.0484390254616
 31
0.0
  0
LINE
  5
   775
  8
0
  6
CONTINUOUS
 62
     3
 10
124.04691696167
 20
23.1277223759506
 30
0.0
 11
124.04691696167
 21
40.0484542842504
 31
0.0
  0
LINE
  5
   776
  8
0
  6
CONTINUOUS
 62
     3
 10
124.046895979177
 20
31.5483741783527
 30
0.0
 11
128.546915054321
 21
31.5483341237852
 31
0.0
  0
LINE
  5
   777
  8
0
  6
CONTINUOUS
 62
     3
 10
124.046939848195
 20
36.5483741785514
 30
0.0
 11
128.546915054321
 21
36.5483341243989
 31
0.0
  0
LINE
  5
   778
  8
0
  6
CONTINUOUS
 62
     7
 10
129.146915054321
 20
38.0484313964844
 30
0.0
 11
133.646915054321
 21
38.0484313964844
 31
0.0
  0
LINE
  5
   779
  8
0
  6
CONTINUOUS
 62
     5
 10
129.146915054321
 20
28.5484313964844
 30
0.0
 11
129.146915054321
 21
39.5484313964844
 31
0.0
  0
LINE
  5
   77A
  8
0
  6
CONTINUOUS
 62
     5
 10
128.546915054321
 20
36.6734313964844
 30
0.0
 11
129.146915054321
 21
36.6734313964844
 31
0.0
  0
LINE
  5
   77B
  8
0
  6
CONTINUOUS
 62
     5
 10
128.546915054321
 20
31.4234313964844
 30
0.0
 11
129.146915054321
 21
31.4234313964844
 31
0.0
  0
LINE
  5
   77C
  8
0
  6
CONTINUOUS
 62
     5
 10
128.546915054321
 20
39.5484313964844
 30
0.0
 11
129.146915054321
 21
39.5484313964844
 31
0.0
  0
LINE
  5
   77D
  8
0
  6
CONTINUOUS
 62
     7
 10
129.146915054321
 20
30.0484313964844
 30
0.0
 11
133.646915054321
 21
30.0484313964844
 31
0.0
  0
LINE
  5
   77E
  8
0
  6
CONTINUOUS
 62
     7
 10
134.146915054321
 20
30.5484313964844
 30
0.0
 11
134.146915054321
 21
37.5484313964844
 31
0.0
  0
ARC
  5
   77F
  8
0
  6
CONTINUOUS
 62
     7
 10
133.646915054321
 20
30.5484313964844
 30
0.0
 40
0.5
 50
270.0
 51
360.0
  0
ARC
  5
   780
  8
0
  6
CONTINUOUS
 62
     7
 10
133.646915054321
 20
37.5484313964844
 30
0.0
 40
0.5
 50
0.0
 51
90.0
  0
LINE
  5
   781
  8
0
  6
CONTINUOUS
 62
     7
 10
173.268432617186
 20
-48.0765838623047
 30
0.0
 11
174.518432617186
 21
-48.0765838623047
 31
0.0
  0
LINE
  5
   782
  8
0
  6
CONTINUOUS
 62
     7
 10
173.268432617186
 20
-43.5765636007795
 30
0.0
 11
174.518432617186
 21
-43.5765636007795
 31
0.0
  0
LINE
  5
   783
  8
0
  6
CONTINUOUS
 62
     7
 10
173.268432617186
 20
-43.0765664618022
 30
0.0
 11
174.518432617186
 21
-43.0765664618022
 31
0.0
  0
LINE
  5
   784
  8
0
  6
CONTINUOUS
 62
     7
 10
173.268432617186
 20
-34.0765688459882
 30
0.0
 11
174.518432617186
 21
-34.0765688459882
 31
0.0
  0
LINE
  5
   785
  8
0
  6
CONTINUOUS
 62
     7
 10
173.268432617186
 20
-33.5765688459882
 30
0.0
 11
174.518432617186
 21
-33.5765688459882
 31
0.0
  0
LINE
  5
   786
  8
0
  6
CONTINUOUS
 62
     7
 10
173.268432617186
 20
-23.0765688459882
 30
0.0
 11
174.518432617186
 21
-23.0765688459882
 31
0.0
  0
LINE
  5
   787
  8
0
  6
CONTINUOUS
 62
     7
 10
173.268432617186
 20
-22.5765688459882
 30
0.0
 11
174.518432617186
 21
-22.5765688459882
 31
0.0
  0
LINE
  5
   788
  8
0
  6
CONTINUOUS
 62
     7
 10
173.268432617186
 20
-13.5765688459882
 30
0.0
 11
174.518432617186
 21
-13.5765688459882
 31
0.0
  0
LINE
  5
   789
  8
0
  6
CONTINUOUS
 62
     7
 10
173.268432617186
 20
-13.0765688459882
 30
0.0
 11
174.518432617186
 21
-13.0765688459882
 31
0.0
  0
LINE
  5
   78A
  8
0
  6
CONTINUOUS
 62
     7
 10
173.268432617186
 20
4.42340850830077
 30
0.0
 11
174.518432617186
 21
4.42340850830077
 31
0.0
  0
LINE
  5
   78B
  8
0
  6
CONTINUOUS
 62
     1
 10
118.918455982208
 20
-87.9515703084826
 30
0.0
 11
118.918455982208
 21
-84.9515703084827
 31
0.0
  0
LINE
  5
   78C
  8
0
  6
CONTINUOUS
 62
     1
 10
118.918455982208
 20
-84.951571399663
 30
0.0
 11
119.293463134766
 21
-84.951571399663
 31
0.0
  0
LINE
  5
   78D
  8
0
  6
CONTINUOUS
 62
     1
 10
118.918455982208
 20
-87.951571399663
 30
0.0
 11
119.293463134766
 21
-87.951571399663
 31
0.0
  0
LINE
  5
   78E
  8
0
  6
CONTINUOUS
 62
     7
 10
119.293463134766
 20
-84.9515677845758
 30
0.0
 11
119.293463134766
 21
-84.4515674573457
 31
0.0
  0
LINE
  5
   78F
  8
0
  6
DASHDOT
 62
     2
 10
79.3621430486763
 20
34.0484192076399
 30
0.0
 11
137.092914094488
 21
34.0484349563101
 31
0.0
  0
LINE
  5
   790
  8
0
  6
CONTINUOUS
 62
     2
 10
80.5434631347671
 20
28.7984195298984
 30
0.0
 11
80.5434631347671
 21
39.298419529898
 31
0.0
  0
LINE
  5
   791
  8
0
  6
CONTINUOUS
 62
     3
 10
124.043463134766
 20
26.7984313964844
 30
0.0
 11
124.043463134766
 21
41.2984313964838
 31
0.0
  0
LINE
  5
   792
  8
0
  6
CONTINUOUS
 62
     2
 10
81.2934614979967
 20
40.0484197344943
 30
0.0
 11
82.0434631347667
 21
40.0484199390911
 31
0.0
  0
LINE
  5
   793
  8
0
  6
CONTINUOUS
 62
     2
 10
81.2934647715376
 20
28.0484197344948
 30
0.0
 11
82.0434631347667
 21
28.0484199390906
 31
0.0
  0
LINE
  5
   794
  8
0
  6
CONTINUOUS
 62
     2
 10
81.2934631347671
 20
28.0484197344947
 30
0.0
 11
81.2934631347671
 21
40.0484197344943
 31
0.0
  0
LINE
  5
   795
  8
0
  6
CONTINUOUS
 62
     2
 10
80.543461702593
 20
39.298419529898
 30
0.0
 11
81.2934614979967
 21
40.0484197344943
 31
0.0
  0
LINE
  5
   796
  8
0
  6
CONTINUOUS
 62
     2
 10
80.5434645669413
 20
28.7984195298984
 30
0.0
 11
81.2934647715376
 21
28.0484197344948
 31
0.0
  0
LINE
  5
   797
  8
0
  6
CONTINUOUS
 62
     2
 10
80.543461702593
 20
39.2984195298981
 30
0.0
 11
82.0434631347667
 21
39.2984199390911
 31
0.0
  0
LINE
  5
   798
  8
0
  6
CONTINUOUS
 62
     2
 10
80.5434645669413
 20
28.7984195298984
 30
0.0
 11
82.0434631347667
 21
28.7984199390907
 31
0.0
  0
LINE
  5
   799
  8
0
  6
CONTINUOUS
 62
     7
 10
103.043463134766
 20
25.6659215758613
 30
0.0
 11
103.043463134766
 21
42.4309215758613
 31
0.0
  0
LINE
  5
   79A
  8
0
  6
CONTINUOUS
 62
     3
 10
103.043461157002
 20
41.2984256677872
 30
0.0
 11
124.043461157001
 21
41.2984313964838
 31
0.0
  0
LINE
  5
   79B
  8
0
  6
CONTINUOUS
 62
     3
 10
103.043465112531
 20
26.7984256677877
 30
0.0
 11
124.04346511253
 21
26.7984313964844
 31
0.0
  0
LINE
  5
   79C
  8
0
  6
CONTINUOUS
 62
     3
 10
128.543463134765
 20
28.5484326240621
 30
0.0
 11
128.543463134765
 21
39.5484326240617
 31
0.0
  0
LINE
  5
   79D
  8
0
  6
CONTINUOUS
 62
     3
 10
129.143463134765
 20
28.5484327877392
 30
0.0
 11
129.143463134765
 21
39.5484327877388
 31
0.0
  0
LINE
  5
   79E
  8
0
  6
CONTINUOUS
 62
     3
 10
128.543461634393
 20
39.5484326240617
 30
0.0
 11
129.143461634393
 21
39.5484327877388
 31
0.0
  0
LINE
  5
   79F
  8
0
  6
CONTINUOUS
 62
     3
 10
128.543464635138
 20
28.5484326240621
 30
0.0
 11
129.143464635138
 21
28.5484327877392
 31
0.0
  0
LINE
  5
   7A0
  8
0
  6
CONTINUOUS
 62
     3
 10
129.143462043585
 20
38.0484327877388
 30
0.0
 11
134.143462043585
 21
38.0484341517142
 31
0.0
  0
LINE
  5
   7A1
  8
0
  6
CONTINUOUS
 62
     3
 10
129.143464225946
 20
30.0484327877391
 30
0.0
 11
134.143464225946
 21
30.0484341517145
 31
0.0
  0
LINE
  5
   7A2
  8
0
  6
CONTINUOUS
 62
     3
 10
134.143463134765
 20
30.0484341517145
 30
0.0
 11
134.143463134765
 21
38.0484341517142
 31
0.0
  0
LINE
  5
   7A3
  8
0
  6
CONTINUOUS
 62
     1
 10
97.0434631347666
 20
23.0484240310174
 30
0.0
 11
97.0434631347666
 21
45.0484240310166
 31
0.0
  0
LINE
  5
   7A4
  8
0
  6
CONTINUOUS
 62
     1
 10
95.0434631347667
 20
23.0484234854273
 30
0.0
 11
95.0434631347667
 21
45.0484234854264
 31
0.0
  0
LINE
  5
   7A5
  8
0
  6
CONTINUOUS
 62
     1
 10
95.0434601340208
 20
45.0484234854265
 30
0.0
 11
97.0434601340207
 21
45.0484240310166
 31
0.0
  0
LINE
  5
   7A6
  8
0
  6
CONTINUOUS
 62
     1
 10
95.0434661355125
 20
23.0484234854273
 30
0.0
 11
97.0434661355124
 21
23.0484240310174
 31
0.0
  0
LINE
  5
   7A7
  8
0
  6
CONTINUOUS
 62
     1
 10
88.0434631347667
 20
45.0484215758617
 30
0.0
 11
90.0434601340208
 21
45.0484221214511
 31
0.0
  0
LINE
  5
   7A8
  8
0
  6
CONTINUOUS
 62
     1
 10
88.0434631347667
 20
23.0484215758617
 30
0.0
 11
88.0434631347667
 21
45.0484215758609
 31
0.0
  0
LINE
  5
   7A9
  8
0
  6
CONTINUOUS
 62
     1
 10
90.0434631347667
 20
23.0484221214519
 30
0.0
 11
90.0434631347667
 21
45.048422121451
 31
0.0
  0
LINE
  5
   7AA
  8
0
  6
CONTINUOUS
 62
     1
 10
88.0434661355126
 20
23.0484215758617
 30
0.0
 11
90.0434661355125
 21
23.0484221214519
 31
0.0
  0
LINE
  5
   7AB
  8
0
  6
CONTINUOUS
 62
     2
 10
90.0434631347667
 20
40.0484221214517
 30
0.0
 11
95.0434631347667
 21
40.0484234854271
 31
0.0
  0
LINE
  5
   7AC
  8
0
  6
CONTINUOUS
 62
     2
 10
90.0434631347667
 20
39.2984221214517
 30
0.0
 11
95.0434631347667
 21
39.2984234854271
 31
0.0
  0
LINE
  5
   7AD
  8
0
  6
CONTINUOUS
 62
     2
 10
90.0434631347667
 20
28.7984221214513
 30
0.0
 11
95.0434631347667
 21
28.7984234854267
 31
0.0
  0
LINE
  5
   7AE
  8
0
  6
CONTINUOUS
 62
     2
 10
90.0434631347667
 20
28.0484221214512
 30
0.0
 11
95.0434631347667
 21
28.0484234854266
 31
0.0
  0
LINE
  5
   7AF
  8
0
  6
CONTINUOUS
 62
     7
 10
82.0434631347667
 20
25.6659215758613
 30
0.0
 11
82.0434631347667
 21
42.4309215758613
 31
0.0
  0
LINE
  5
   7B0
  8
0
  6
CONTINUOUS
 62
     7
 10
82.0434631347667
 20
42.4309215758613
 30
0.0
 11
88.0434631347667
 21
42.4309215758613
 31
0.0
  0
LINE
  5
   7B1
  8
0
  6
CONTINUOUS
 62
     7
 10
82.0434631347667
 20
38.2396715758613
 30
0.0
 11
88.0434631347667
 21
38.2396715758613
 31
0.0
  0
LINE
  5
   7B2
  8
0
  6
CONTINUOUS
 62
     7
 10
82.0434631347667
 20
29.8571715758613
 30
0.0
 11
88.0434631347667
 21
29.8571715758613
 31
0.0
  0
LINE
  5
   7B3
  8
0
  6
CONTINUOUS
 62
     7
 10
82.0434631347667
 20
25.6659215758613
 30
0.0
 11
88.0434631347667
 21
25.6659215758613
 31
0.0
  0
LINE
  5
   7B4
  8
0
  6
CONTINUOUS
 62
     7
 10
97.0434631347666
 20
38.2396715758613
 30
0.0
 11
103.043463134766
 21
38.2396715758613
 31
0.0
  0
LINE
  5
   7B5
  8
0
  6
CONTINUOUS
 62
     7
 10
97.0434631347666
 20
42.4309215758613
 30
0.0
 11
103.043463134766
 21
42.4309215758613
 31
0.0
  0
LINE
  5
   7B6
  8
0
  6
CONTINUOUS
 62
     7
 10
97.0434631347666
 20
29.8571715758613
 30
0.0
 11
103.043463134766
 21
29.8571715758613
 31
0.0
  0
LINE
  5
   7B7
  8
0
  6
CONTINUOUS
 62
     7
 10
97.0434631347666
 20
25.6659215758613
 30
0.0
 11
103.043463134766
 21
25.6659215758613
 31
0.0
  0
TEXT
  5
   7B8
  8
0
  6
CONTINUOUS
 62
     7
 10
210.70751233461
 20
-29.9766224712134
 30
0.0
 40
3.00000002980232
  1
=     =
 50
90.0
 41
0.916666604744064
 72
     2
 11
210.707512334586
 21
-11.2766235530377
 31
0.0
  0
TEXT
  5
   7B9
  8
0
  6
CONTINUOUS
 62
     7
 10
134.758205860853
 20
-99.1350327381716
 30
0.0
 40
2.50000005960464
  1
A
 41
0.964999949407579
 72
     2
 11
136.688205808401
 21
-99.1350327381716
 31
0.0
  0
TEXT
  5
   7BA
  8
0
  6
CONTINUOUS
 62
     7
 10
134.492760151625
 20
-72.4795685658083
 30
0.0
 40
2.50000005960464
  1
A
 41
0.964999949407579
 72
     2
 11
136.422760099173
 21
-72.4795685658083
 31
0.0
  0
INSERT
  5
   7BB
  8
0
  6
CONTINUOUS
 62
     7
  2
*UDIM386
 10
0.0
 20
0.0
 30
0.0
  0
INSERT
  5
   7BC
  8
0
  6
CONTINUOUS
 62
     7
  2
*UDIM387
 10
0.0
 20
0.0
 30
0.0
  0
INSERT
  5
   7BD
  8
0
  6
CONTINUOUS
 62
     7
  2
*UDIM388
 10
0.0
 20
0.0
 30
0.0
  0
INSERT
  5
   7BE
  8
0
  6
CONTINUOUS
 62
     7
  2
*UDIM389
 10
0.0
 20
0.0
 30
0.0
  0
INSERT
  5
   7BF
  8
0
  6
CONTINUOUS
 62
     7
  2
*UDIM390
 10
0.0
 20
0.0
 30
0.0
  0
INSERT
  5
   7C0
  8
0
  6
CONTINUOUS
 62
     7
  2
*UDIM391
 10
0.0
 20
0.0
 30
0.0
  0
INSERT
  5
   7C1
  8
0
  6
CONTINUOUS
 62
     7
  2
*UDIM392
 10
0.0
 20
0.0
 30
0.0
  0
INSERT
  5
   7C2
  8
0
  6
CONTINUOUS
 62
     7
  2
*UDIM393
 10
0.0
 20
0.0
 30
0.0
  0
INSERT
  5
   7C3
  8
0
  6
CONTINUOUS
 62
     7
  2
*UDIM394
 10
0.0
 20
0.0
 30
0.0
  0
INSERT
  5
   7C4
  8
0
  6
CONTINUOUS
 62
     7
  2
*UDIM395
 10
0.0
 20
0.0
 30
0.0
  0
TEXT
  5
   7C5
  8
0
  6
CONTINUOUS
 62
     7
 10
217.805755794048
 20
-22.7612764177712
 30
0.0
 40
3.00000002980232
  1
X
 41
0.916666604744064
 72
     2
 11
220.005755662918
 21
-22.7612764177712
 31
0.0
  0
INSERT
  5
   7C6
  8
0
  6
CONTINUOUS
 62
     7
  2
*UDIM396
 10
0.0
 20
0.0
 30
0.0
  0
INSERT
  5
   7C7
  8
0
  6
CONTINUOUS
 62
     7
  2
*UDIM397
 10
0.0
 20
0.0
 30
0.0
  0
INSERT
  5
   7C8
  8
0
  6
CONTINUOUS
 62
     7
  2
*UDIM398
 10
0.0
 20
0.0
 30
0.0
  0
INSERT
  5
   7C9
  8
0
  6
CONTINUOUS
 62
     7
  2
*UDIM399
 10
0.0
 20
0.0
 30
0.0
  0
LINE
  5
   7CA
  8
0
  6
DASHDOT
 62
     2
 10
89.928352699944
 20
-121.566112928092
 30
0.0
 11
71.4468187943289
 21
-121.566112928092
 31
0.0
  0
LINE
  5
   7CB
  8
0
  6
DASHDOT
 62
     2
 10
90.6869231214431
 20
-168.966113634408
 30
0.0
 11
71.3088968995109
 21
-168.966113634408
 31
0.0
  0
LINE
  5
   7CC
  8
0
  6
DASHDOT
 62
     2
 10
74.0113295465708
 20
-117.012661736428
 30
0.0
 11
74.0113295465708
 21
-171.078044505093
 31
0.0
  0
LINE
  5
   7CD
  8
0
  6
DASHDOT
 62
     2
 10
88.011329755187
 20
-116.529935104565
 30
0.0
 11
88.011329755187
 21
-170.940122610275
 31
0.0
  0
LINE
  5
   7CE
  8
0
  6
DASHDOT
 62
     2
 10
81.0113296508789
 20
-117.288505526064
 30
0.0
 11
81.0113296508789
 21
-177.146607877086
 31
0.0
  0
CIRCLE
  5
   7CF
  8
0
  6
CONTINUOUS
 62
     7
 10
88.011329755187
 20
-121.566112928092
 30
0.0
 40
0.550000008195639
  0
CIRCLE
  5
   7D0
  8
0
  6
CONTINUOUS
 62
     7
 10
74.0113295465708
 20
-121.566112928092
 30
0.0
 40
0.550000008195639
  0
CIRCLE
  5
   7D1
  8
0
  6
CONTINUOUS
 62
     7
 10
74.0113295465708
 20
-168.966113634408
 30
0.0
 40
0.550000008195639
  0
CIRCLE
  5
   7D2
  8
0
  6
CONTINUOUS
 62
     7
 10
88.011329755187
 20
-168.966113634408
 30
0.0
 40
0.550000008195639
  0
LINE
  5
   7D3
  8
0
  6
DASHDOT
 62
     2
 10
99.224944935257
 20
-143.516113255173
 30
0.0
 11
55.2821168099617
 21
-143.516113255173
 31
0.0
  0
LINE
  5
   7D4
  8
0
  6
DASHDOT
 62
     7
 10
67.0113294422627
 20
-115.966112844646
 30
0.0
 11
67.0113294422627
 21
-126.366112999618
 31
0.0
  0
LINE
  5
   7D5
  8
0
  6
DASHDOT
 62
     7
 10
72.2113295197487
 20
-121.166112922132
 30
0.0
 11
61.8113293647766
 21
-121.166112922132
 31
0.0
  0
LINE
  5
   7D6
  8
0
  6
DASHDOT
 62
     7
 10
81.0113296508789
 20
-115.966112844646
 30
0.0
 11
81.0113296508789
 21
-126.366112999618
 31
0.0
  0
LINE
  5
   7D7
  8
0
  6
DASHDOT
 62
     7
 10
86.211329728365
 20
-121.166112922132
 30
0.0
 11
75.8113295733929
 21
-121.166112922132
 31
0.0
  0
LINE
  5
   7D8
  8
0
  6
DASHDOT
 62
     7
 10
95.0113298594952
 20
-115.966112844646
 30
0.0
 11
95.0113298594952
 21
-126.366112999618
 31
0.0
  0
LINE
  5
   7D9
  8
0
  6
DASHDOT
 62
     7
 10
100.211329936981
 20
-121.166112922132
 30
0.0
 11
89.8113297820091
 21
-121.166112922132
 31
0.0
  0
LINE
  5
   7DA
  8
0
  6
DASHDOT
 62
     7
 10
95.0113298594952
 20
-164.166113562882
 30
0.0
 11
95.0113298594952
 21
-174.566113717854
 31
0.0
  0
LINE
  5
   7DB
  8
0
  6
DASHDOT
 62
     7
 10
100.211329936981
 20
-169.366113640368
 30
0.0
 11
89.8113297820091
 21
-169.366113640368
 31
0.0
  0
LINE
  5
   7DC
  8
0
  6
DASHDOT
 62
     7
 10
81.0113296508789
 20
-164.166113562882
 30
0.0
 11
81.0113296508789
 21
-174.566113717854
 31
0.0
  0
LINE
  5
   7DD
  8
0
  6
DASHDOT
 62
     7
 10
86.211329728365
 20
-169.366113640368
 30
0.0
 11
75.8113295733929
 21
-169.366113640368
 31
0.0
  0
LINE
  5
   7DE
  8
0
  6
DASHDOT
 62
     7
 10
67.0113294422627
 20
-164.166113562882
 30
0.0
 11
67.0113294422627
 21
-174.566113717854
 31
0.0
  0
LINE
  5
   7DF
  8
0
  6
DASHDOT
 62
     7
 10
72.2113295197487
 20
-169.366113640368
 30
0.0
 11
61.8113293647766
 21
-169.366113640368
 31
0.0
  0
LINE
  5
   7E0
  8
0
  6
CONTINUOUS
 62
     7
 10
61.1907822792496
 20
-114.076373025303
 30
0.0
 11
61.1907822792496
 21
-176.136529746155
 31
0.0
  0
LINE
  5
   7E1
  8
0
  6
CONTINUOUS
 62
     7
 10
100.602174856118
 20
-114.076373025303
 30
0.0
 11
61.1907822792496
 21
-114.076373025303
 31
0.0
  0
LINE
  5
   7E2
  8
0
  6
CONTINUOUS
 62
     7
 10
100.602174856118
 20
-176.136529746155
 30
0.0
 11
61.1907822792496
 21
-176.136529746155
 31
0.0
  0
LINE
  5
   7E3
  8
0
  6
CONTINUOUS
 62
     7
 10
100.602174856118
 20
-114.076373025303
 30
0.0
 11
100.602174856118
 21
-176.136529746155
 31
0.0
  0
ARC
  5
   7E4
  8
0
  6
CONTINUOUS
 62
     7
 10
67.0113294422627
 20
-121.166112922132
 30
0.0
 40
3.50000005215406
 50
359.999999896069
 51
629.999999896069
  0
ARC
  5
   7E5
  8
0
  6
CONTINUOUS
 62
     7
 10
81.0113296508789
 20
-121.166112922132
 30
0.0
 40
3.50000005215406
 50
359.999999896069
 51
539.999999896069
  0
ARC
  5
   7E6
  8
0
  6
CONTINUOUS
 62
     7
 10
95.0113298594952
 20
-121.166112922132
 30
0.0
 40
3.50000005215406
 50
269.999999896069
 51
539.999999896069
  0
ARC
  5
   7E7
  8
0
  6
CONTINUOUS
 62
     7
 10
67.0113294422627
 20
-169.366113640368
 30
0.0
 40
3.50000005215406
 50
449.999999896069
 51
719.999999896069
  0
ARC
  5
   7E8
  8
0
  6
CONTINUOUS
 62
     7
 10
81.0113296508789
 20
-169.366113640368
 30
0.0
 40
3.50000005215406
 50
179.999999896069
 51
359.999999896069
  0
ARC
  5
   7E9
  8
0
  6
CONTINUOUS
 62
     7
 10
95.0113298594952
 20
-169.366113640368
 30
0.0
 40
3.50000005215406
 50
179.999999896069
 51
449.999999896069
  0
LINE
  5
   7EA
  8
0
  6
CONTINUOUS
 62
     7
 10
95.0113298594952
 20
-124.666112974286
 30
0.0
 11
67.0113294422627
 21
-124.666112974286
 31
0.0
  0
LINE
  5
   7EB
  8
0
  6
CONTINUOUS
 62
     7
 10
95.0113298594952
 20
-165.866113588214
 30
0.0
 11
67.0113294422627
 21
-165.866113588214
 31
0.0
  0
LINE
  5
   7EC
  8
0
  6
CONTINUOUS
 62
     7
 10
91.5113298073411
 20
-167.466113612056
 30
0.0
 11
84.511329703033
 21
-167.466113612056
 31
0.0
  0
LINE
  5
   7ED
  8
0
  6
CONTINUOUS
 62
     7
 10
91.5113298073411
 20
-123.066112950444
 30
0.0
 11
84.511329703033
 21
-123.066112950444
 31
0.0
  0
LINE
  5
   7EE
  8
0
  6
CONTINUOUS
 62
     7
 10
70.5113294944167
 20
-121.166112922132
 30
0.0
 11
70.5113294944167
 21
-123.066112950444
 31
0.0
  0
LINE
  5
   7EF
  8
0
  6
CONTINUOUS
 62
     7
 10
77.5113295987248
 20
-121.166112922132
 30
0.0
 11
77.5113295987248
 21
-123.066112950444
 31
0.0
  0
LINE
  5
   7F0
  8
0
  6
CONTINUOUS
 62
     7
 10
84.511329703033
 20
-121.166112922132
 30
0.0
 11
84.511329703033
 21
-123.066112950444
 31
0.0
  0
LINE
  5
   7F1
  8
0
  6
CONTINUOUS
 62
     7
 10
91.5113298073411
 20
-121.166112922132
 30
0.0
 11
91.5113298073411
 21
-123.066112950444
 31
0.0
  0
LINE
  5
   7F2
  8
0
  6
CONTINUOUS
 62
     7
 10
77.5113295987248
 20
-123.066112950444
 30
0.0
 11
70.5113294944167
 21
-123.066112950444
 31
0.0
  0
LINE
  5
   7F3
  8
0
  6
CONTINUOUS
 62
     7
 10
70.5113294944167
 20
-167.466113612056
 30
0.0
 11
70.5113294944167
 21
-169.366113640368
 31
0.0
  0
LINE
  5
   7F4
  8
0
  6
CONTINUOUS
 62
     7
 10
77.5113295987248
 20
-167.466113612056
 30
0.0
 11
77.5113295987248
 21
-169.366113640368
 31
0.0
  0
LINE
  5
   7F5
  8
0
  6
CONTINUOUS
 62
     7
 10
84.511329703033
 20
-167.466113612056
 30
0.0
 11
84.511329703033
 21
-169.366113640368
 31
0.0
  0
LINE
  5
   7F6
  8
0
  6
CONTINUOUS
 62
     7
 10
91.5113298073411
 20
-167.466113612056
 30
0.0
 11
91.5113298073411
 21
-169.366113640368
 31
0.0
  0
LINE
  5
   7F7
  8
0
  6
CONTINUOUS
 62
     7
 10
77.5113295987248
 20
-167.466113612056
 30
0.0
 11
70.5113294944167
 21
-167.466113612056
 31
0.0
  0
POINT
  5
   7F8
  8
0
  6
CONTINUOUS
 62
     7
 10
95.0113298594952
 20
-169.366113640368
 30
0.0
  0
ARC
  5
   7F9
  8
0
  6
CONTINUOUS
 62
     7
 10
95.0113298594952
 20
-169.366113640368
 30
0.0
 40
3.50000005215406
 50
483.928032185622
 51
547.491880120627
  0
INSERT
  5
   7FA
  8
0
  6
CONTINUOUS
 62
     7
  2
*UDIM400
 10
0.0
 20
0.0
 30
0.0
  0
INSERT
  5
   7FB
  8
0
  6
CONTINUOUS
 62
     7
  2
*UDIM401
 10
0.0
 20
0.0
 30
0.0
  0
INSERT
  5
   7FC
  8
0
  6
CONTINUOUS
 62
     7
  2
*UDIM402
 10
0.0
 20
0.0
 30
0.0
  0
INSERT
  5
   7FD
  8
0
  6
CONTINUOUS
 62
     7
  2
*UDIM403
 10
0.0
 20
0.0
 30
0.0
  0
INSERT
  5
   7FE
  8
0
  6
CONTINUOUS
 62
     7
  2
*UDIM404
 10
0.0
 20
0.0
 30
0.0
  0
INSERT
  5
   7FF
  8
0
  6
CONTINUOUS
 62
     7
  2
*UDIM405
 10
0.0
 20
0.0
 30
0.0
  0
INSERT
  5
   800
  8
0
  6
CONTINUOUS
 62
     7
  2
*UDIM406
 10
0.0
 20
0.0
 30
0.0
  0
INSERT
  5
   801
  8
0
  6
CONTINUOUS
 62
     7
  2
*UDIM407
 10
0.0
 20
0.0
 30
0.0
  0
TEXT
  5
   802
  8
0
  6
CONTINUOUS
 62
     7
 10
41.3151223916069
 20
-144.401927837763
 30
0.0
 40
2.99999994933605
  1
X
 50
359.999999896069
 41
0.916666607525612
 72
     2
 11
43.5151222098127
 21
-144.401927841743
 31
0.0
  0
TEXT
  5
   803
  8
0
  6
CONTINUOUS
 62
     7
 10
112.27471817555
 20
-145.012145132013
 30
0.0
 40
2.99999994933605
  1
X
 50
359.999999896069
 41
0.916666607525612
 72
     2
 11
114.474717993756
 21
-145.012145135992
 31
0.0
  0
TEXT
  5
   804
  8
0
  6
CONTINUOUS
 62
     7
 10
84.6069031270367
 20
-141.98954758331
 30
0.0
 40
2.99999994933605
  1
=
 50
359.999999896069
 41
0.916666607525612
 72
     2
 11
86.8069029452426
 21
-141.98954758729
 31
0.0
  0
TEXT
  5
   805
  8
0
  6
CONTINUOUS
 62
     7
 10
76.3582457775597
 20
-141.98954758331
 30
0.0
 40
2.99999994933605
  1
=
 50
359.999999896069
 41
0.916666607525612
 72
     2
 11
78.5582455957655
 21
-141.98954758729
 31
0.0
  0
INSERT
  5
   806
  8
0
  6
CONTINUOUS
 62
     7
  2
*UDIM408
 10
0.0
 20
0.0
 30
0.0
  0
INSERT
  5
   807
  8
0
  6
CONTINUOUS
 62
     7
  2
*UDIM409
 10
0.0
 20
0.0
 30
0.0
  0
TEXT
  5
   808
  8
0
  6
CONTINUOUS
 62
     7
 10
80.3210568976012
 20
-110.767480490329
 30
0.0
 40
2.99999994933605
  1
Y
 50
359.999999896069
 41
0.916666607525612
 72
     2
 11
82.521056715807
 21
-110.767480494308
 31
0.0
  0
TEXT
  5
   809
  8
0
  6
CONTINUOUS
 62
     7
 10
80.4029330813774
 20
-181.262989353294
 30
0.0
 40
2.99999994933605
  1
Y
 50
359.999999896069
 41
0.916666607525612
 72
     2
 11
82.6029328995832
 21
-181.262989357273
 31
0.0
  0
LINE
  5
   80A
  8
0
  6
CONTINUOUS
 62
     7
 10
242.132537841797
 20
11.8417205810547
 30
0.0
 11
278.882537841797
 21
11.8417205810547
 31
0.0
  0
LINE
  5
   80B
  8
0
  6
CONTINUOUS
 62
     7
 10
242.132537841797
 20
39.8417205810547
 30
0.0
 11
278.882537841797
 21
39.8417205810547
 31
0.0
  0
LINE
  5
   80C
  8
0
  6
CONTINUOUS
 62
     7
 10
242.132537841797
 20
39.8417205810547
 30
0.0
 11
242.132537841797
 21
11.8417205810547
 31
0.0
  0
LINE
  5
   80D
  8
0
  6
CONTINUOUS
 62
     7
 10
278.882537841797
 20
39.8417205810547
 30
0.0
 11
278.882537841797
 21
11.8417205810547
 31
0.0
  0
LINE
  5
   80E
  8
0
  6
DASHDOT
 62
     2
 10
260.507537841797
 20
49.9501698086436
 30
0.0
 11
260.507537841797
 21
3.88792233758295E-3
 31
0.0
  0
CIRCLE
  5
   80F
  8
0
  6
CONTINUOUS
 62
     7
 10
246.132537841797
 20
43.5917205810547
 30
0.0
 40
0.875
  0
CIRCLE
  5
   810
  8
0
  6
CONTINUOUS
 62
     7
 10
274.882537841797
 20
43.5917205810547
 30
0.0
 40
0.875
  0
CIRCLE
  5
   811
  8
0
  6
CONTINUOUS
 62
     7
 10
274.882537841797
 20
8.09172058105469
 30
0.0
 40
0.875
  0
CIRCLE
  5
   812
  8
0
  6
CONTINUOUS
 62
     7
 10
246.132537841797
 20
8.09172058105469
 30
0.0
 40
0.875
  0
LINE
  5
   813
  8
0
  6
DASHDOT
 62
     7
 10
274.882537841797
 20
45.7167205810547
 30
0.0
 11
274.882537841797
 21
41.4667205810547
 31
0.0
  0
LINE
  5
   814
  8
0
  6
DASHDOT
 62
     7
 10
272.757537841797
 20
43.5917205810547
 30
0.0
 11
277.007537841797
 21
43.5917205810547
 31
0.0
  0
LINE
  5
   815
  8
0
  6
DASHDOT
 62
     7
 10
246.132537841797
 20
45.7167205810547
 30
0.0
 11
246.132537841797
 21
41.4667205810547
 31
0.0
  0
LINE
  5
   816
  8
0
  6
DASHDOT
 62
     7
 10
244.007537841797
 20
43.5917205810547
 30
0.0
 11
248.257537841797
 21
43.5917205810547
 31
0.0
  0
LINE
  5
   817
  8
0
  6
DASHDOT
 62
     7
 10
246.132537841797
 20
10.2167205810547
 30
0.0
 11
246.132537841797
 21
5.96672058105469
 31
0.0
  0
LINE
  5
   818
  8
0
  6
DASHDOT
 62
     7
 10
244.007537841797
 20
8.09172058105469
 30
0.0
 11
248.257537841797
 21
8.09172058105469
 31
0.0
  0
LINE
  5
   819
  8
0
  6
DASHDOT
 62
     7
 10
274.882537841797
 20
10.2167205810547
 30
0.0
 11
274.882537841797
 21
5.96672058105469
 31
0.0
  0
LINE
  5
   81A
  8
0
  6
DASHDOT
 62
     7
 10
272.757537841797
 20
8.09172058105469
 30
0.0
 11
277.007537841797
 21
8.09172058105469
 31
0.0
  0
LINE
  5
   81B
  8
0
  6
CONTINUOUS
 62
     7
 10
239.407638850412
 20
46.7008763773783
 30
0.0
 11
281.369942591324
 21
46.7008763773783
 31
0.0
  0
LINE
  5
   81C
  8
0
  6
CONTINUOUS
 62
     7
 10
239.407638850412
 20
4.36722481575093
 30
0.0
 11
281.369942591324
 21
4.36722481575093
 31
0.0
  0
LINE
  5
   81D
  8
0
  6
CONTINUOUS
 62
     7
 10
281.369942591324
 20
46.7008763773783
 30
0.0
 11
281.369942591324
 21
4.36722481575093
 31
0.0
  0
LINE
  5
   81E
  8
0
  6
CONTINUOUS
 62
     7
 10
239.407638850412
 20
46.7008763773783
 30
0.0
 11
239.407638850412
 21
4.36722481575093
 31
0.0
  0
LINE
  5
   81F
  8
0
  6
DASHDOT
 62
     2
 10
231.606832806713
 20
25.8417205810547
 30
0.0
 11
290.273107647131
 21
25.8417205810547
 31
0.0
  0
TEXT
  5
   820
  8
0
  6
CONTINUOUS
 62
     1
 10
187.248527451869
 20
-193.531568543816
 30
0.0
 40
2.00000008940697
  1
M4371 97-07-07
 50
359.999999844103
 41
0.749999861419206
 72
     1
 11
197.598526000977
 21
-192.531568527222
 31
0.0
 73
     2
  0
TEXT
  5
   821
  8
0
  6
CONTINUOUS
 62
     1
 10
137.92494957101
 20
-197.647224442864
 30
0.0
 40
2.00000008940697
  1
M4380 97-11-03
 50
359.999999844103
 41
0.749999861419206
 72
     1
 11
148.274948120117
 21
-196.64722442627
 31
0.0
 73
     2
  0
TEXT
  5
   822
  8
0
  6
CONTINUOUS
 62
     1
 10
130.357192990448
 20
-187.156173755131
 30
0.0
 40
2.00000008940697
  1
97-11-03 SCARPELLINI
 50
359.999999844103
 41
0.749999861419206
 72
     2
 11
160.057188822593
 21
-187.156173835793
 31
0.0
  0
TEXT
  5
   823
  8
0
  6
CONTINUOUS
 62
     1
 10
161.508531242873
 20
-193.531570450916
 30
0.0
 40
2.00000008940697
  1
M 3167 95-08-25
 50
359.999999844103
 41
0.749999861419206
 72
     1
 11
172.608529686928
 21
-192.531570436359
 31
0.0
 73
     2
  0
TEXT
  5
   824
  8
0
  6
CONTINUOUS
 62
     1
 10
137.024949699905
 20
-193.413848893299
 30
0.0
 40
2.00000008940697
  1
M 3076 95-01-16
 50
359.999999844103
 41
0.749999861419206
 72
     1
 11
148.124948143959
 21
-192.413848878742
 31
0.0
 73
     2
  0
TEXT
  5
   825
  8
0
  6
CONTINUOUS
 62
     1
 10
130.357193002373
 20
-178.689422523336
 30
0.0
 40
2.00000008940697
  1
93-04-05 ROTA S.
 50
359.999999844103
 41
0.749999861419206
 72
     2
 11
154.057189674944
 21
-178.689422587702
 31
0.0
  0
TEXT
  5
   826
  8
0
  6
CONTINUOUS
 62
     7
 10
234.857051269673
 20
13.7822955691886
 30
0.0
 40
3.00000002980232
  1
=      =
 50
449.999999844103
 41
0.916666604744064
 72
     2
 11
234.857051327902
 21
35.2322943289153
 31
0.0
  0
TEXT
  5
   827
  8
0
  6
CONTINUOUS
 62
     7
 10
225.918975250386
 20
13.7822955691886
 30
0.0
 40
3.00000002980232
  1
=      =
 50
449.999999844103
 41
0.916666604744064
 72
     2
 11
225.918975308615
 21
35.2322943289153
 31
0.0
  0
TEXT
  5
   828
  8
0
  6
CONTINUOUS
 62
     7
 10
259.866878201462
 20
-9.37264581083756
 30
0.0
 40
3.00000002980232
  1
Y
 50
359.999999844103
 41
0.916666604744064
 72
     2
 11
262.066878070332
 21
-9.3726458168125
 31
0.0
  0
TEXT
  5
   829
  8
0
  6
CONTINUOUS
 62
     7
 10
259.12418263147
 20
58.9553533041527
 30
0.0
 40
3.00000002980232
  1
Y
 50
359.999999844103
 41
0.916666604744064
 72
     2
 11
261.32418250034
 21
58.9553532981777
 31
0.0
  0
TEXT
  5
   82A
  8
0
  6
CONTINUOUS
 62
     7
 10
214.191097905136
 20
23.6773120009949
 30
0.0
 40
3.00000002980232
  1
X
 50
359.999999844103
 41
0.916666604744064
 72
     2
 11
216.391097774006
 21
23.6773119950199
 31
0.0
  0
TEXT
  5
   82B
  8
0
  6
CONTINUOUS
 62
     7
 10
291.91088931749
 20
24.4065666639854
 30
0.0
 40
3.00000002980232
  1
X
 50
359.999999844103
 41
0.916666604744064
 72
     2
 11
294.11088918636
 21
24.4065666580105
 31
0.0
  0
TEXT
  5
   82C
  8
0
  6
CONTINUOUS
 62
     7
 10
250.643270339964
 20
-6.77320504962818
 30
0.0
 40
3.00000002980232
  1
=      =
 50
359.999999844103
 41
0.916666604744064
 72
     2
 11
272.09326909969
 21
-6.77320510788392
 31
0.0
  0
TEXT
  5
   82D
  8
0
  6
CONTINUOUS
 62
     7
 10
249.90057167053
 20
48.8361279887019
 30
0.0
 40
3.00000002980232
  1
=      =
 50
359.999999844103
 41
0.916666604744064
 72
     2
 11
271.350570430257
 21
48.8361279304462
 31
0.0
  0
INSERT
  5
   82E
  8
0
  6
CONTINUOUS
 62
     7
  2
*UDIM410
 10
0.0
 20
0.0
 30
0.0
  0
INSERT
  5
   82F
  8
0
  6
CONTINUOUS
 62
     7
  2
*UDIM411
 10
0.0
 20
0.0
 30
0.0
  0
INSERT
  5
   830
  8
0
  6
CONTINUOUS
 62
     7
  2
*UDIM412
 10
0.0
 20
0.0
 30
0.0
  0
INSERT
  5
   831
  8
0
  6
CONTINUOUS
 62
     7
  2
*UDIM413
 10
0.0
 20
0.0
 30
0.0
  0
INSERT
  5
   832
  8
0
  6
CONTINUOUS
 62
     7
  2
*UDIM414
 10
0.0
 20
0.0
 30
0.0
  0
TEXT
  5
   833
  8
0
  6
CONTINUOUS
 62
     1
 10
231.973709124863
 20
-204.689865022095
 30
0.0
 40
4.00000017881393
  1
601840/101
 50
359.999999844103
 41
0.937499973922969
 72
     2
 11
268.723709724635
 21
-204.689865121903
 31
0.0
  0
TEXT
  5
   834
  8
0
  6
CONTINUOUS
 62
     1
 10
233.059402479634
 20
-195.708282202566
 30
0.0
 40
3.00000002980232
  1
     S6 630 800
 50
359.999999844103
 41
0.916666604744064
 72
     2
 11
273.759400130217
 21
-195.708282313102
 31
0.0
  0
TEXT
  5
   835
  8
0
  6
CONTINUOUS
 62
     1
 10
221.524982720872
 20
-177.398010221366
 30
0.0
 40
2.00000008940697
  1
3POLE LOW VOLTAGE M.C.C.B SERIES ISOMAX
 50
359.999999844103
 41
0.749999861419206
 72
     1
 11
250.62497864365
 21
-176.398010255695
 31
0.0
 73
     2
  0
TEXT
  5
   836
  8
0
  6
CONTINUOUS
 62
     1
 10
225.274982231381
 20
-180.398010231551
 30
0.0
 40
2.00000008940697
  1
FIXED VERSION REAR+FRONT TERMINALS
 50
359.999999844103
 41
0.749999861419206
 72
     1
 11
250.624978679425
 21
-179.398010255695
 31
0.0
 73
     2
  0
TEXT
  5
   837
  8
0
  6
CONTINUOUS
 62
     1
 10
224.727374353518
 20
-185.468276963331
 30
0.0
 40
2.00000008940697
  1
INTERR.AUTOMATICO SERIE ISOMAX
 50
359.999999844103
 41
0.749999861419206
 72
     1
 11
247.077371221775
 21
-184.468276979328
 31
0.0
 73
     2
  0
TEXT
  5
   838
  8
0
  6
CONTINUOUS
 62
     1
 10
214.227375860038
 20
-188.468276934814
 30
0.0
 40
2.00000008940697
  1
TRIPOL.ESECUZIONE FISSA TERMINALI POST.+ANT.
 50
359.999999844103
 41
0.749999861419206
 72
     1
 11
247.077371257549
 21
-187.468276979328
 31
0.0
 73
     2
  0
INSERT
  5
   839
  8
255
  6
CONTINUOUS
 62
     7
  2
COPRITERMINALI
 10
-19.9014301300049
 20
-158.999176025391
 30
0.0
 41
0.5
 42
0.5
 50
359.999999792138
 43
0.5
  0
LINE
  5
   83A
  8
0
  6
CONTINUOUS
 62
     7
 10
39.9088263104917
 20
-156.74917602539
 30
0.0
 11
22.5985431671143
 21
-156.74917602539
 31
0.0
  0
LINE
  5
   83B
  8
0
  6
CONTINUOUS
 62
     7
 10
40.5703650574301
 20
-158.24917602539
 30
0.0
 11
22.5985431671143
 21
-158.24917602539
 31
0.0
  0
LINE
  5
   83C
  8
0
  6
CONTINUOUS
 62
     7
 10
-61.9014568328857
 20
-158.24917602539
 30
0.0
 11
-78.2860964758372
 21
-158.24917602539
 31
0.0
  0
LINE
  5
   83D
  8
0
  6
CONTINUOUS
 62
     7
 10
40.349852141784
 20
-163.10046311975
 30
0.0
 11
38.696005274438
 21
-152.074817337444
 31
0.0
  0
LINE
  5
   83E
  8
0
  6
CONTINUOUS
 62
     7
 10
-76.9630189819603
 20
-153.838920662613
 30
0.0
 11
-77.7348141867218
 21
-161.115846878935
 31
0.0
  0
LINE
  5
   83F
  8
0
  6
DASHDOT
 62
     2
 10
15.3485431671143
 20
-116.807944158798
 30
0.0
 11
15.3485431671143
 21
-182.823626985113
 31
0.0
  0
LINE
  5
   840
  8
0
  6
CONTINUOUS
 62
     3
 10
22.8485431671143
 20
-144.24917602539
 30
0.0
 11
7.84854316711426
 21
-144.24917602539
 31
0.0
  0
LINE
  5
   841
  8
0
  6
CONTINUOUS
 62
     3
 10
22.5985431671143
 20
-144.24917602539
 30
0.0
 11
22.5985431671143
 21
-158.99917602539
 31
0.0
  0
LINE
  5
   842
  8
0
  6
CONTINUOUS
 62
     3
 10
8.09854316711426
 20
-144.24917602539
 30
0.0
 11
8.09854316711426
 21
-158.99917602539
 31
0.0
  0
LINE
  5
   843
  8
0
  6
DASHDOT
 62
     2
 10
-19.6514568328857
 20
-118.888070174988
 30
0.0
 11
-19.6514568328857
 21
-182.823626985113
 31
0.0
  0
LINE
  5
   844
  8
0
  6
CONTINUOUS
 62
     3
 10
-12.1514568328857
 20
-144.24917602539
 30
0.0
 11
-27.1514568328857
 21
-144.24917602539
 31
0.0
  0
LINE
  5
   845
  8
0
  6
CONTINUOUS
 62
     3
 10
-12.4014568328857
 20
-144.24917602539
 30
0.0
 11
-12.4014568328857
 21
-158.99917602539
 31
0.0
  0
LINE
  5
   846
  8
0
  6
CONTINUOUS
 62
     3
 10
-26.9014568328857
 20
-144.24917602539
 30
0.0
 11
-26.9014568328857
 21
-158.99917602539
 31
0.0
  0
LINE
  5
   847
  8
0
  6
DASHDOT
 62
     2
 10
-54.6514568328857
 20
-119.73636685147
 30
0.0
 11
-54.6514568328857
 21
-182.823626985113
 31
0.0
  0
LINE
  5
   848
  8
0
  6
CONTINUOUS
 62
     2
 10
-49.4014568328858
 20
-121.74917602539
 30
0.0
 11
-59.9014568328857
 21
-121.74917602539
 31
0.0
  0
LINE
  5
   849
  8
0
  6
CONTINUOUS
 62
     2
 10
-48.6514568328857
 20
-122.49917602539
 30
0.0
 11
-48.6514568328857
 21
-123.24917602539
 31
0.0
  0
LINE
  5
   84A
  8
0
  6
CONTINUOUS
 62
     2
 10
-60.6514568328857
 20
-122.49917602539
 30
0.0
 11
-60.6514568328857
 21
-123.24917602539
 31
0.0
  0
LINE
  5
   84B
  8
0
  6
CONTINUOUS
 62
     2
 10
-48.6514568328857
 20
-122.49917602539
 30
0.0
 11
-60.6514568328857
 21
-122.49917602539
 31
0.0
  0
LINE
  5
   84C
  8
0
  6
CONTINUOUS
 62
     2
 10
-48.6514568328858
 20
-122.49917602539
 30
0.0
 11
-49.4014568328857
 21
-121.74917602539
 31
0.0
  0
LINE
  5
   84D
  8
0
  6
CONTINUOUS
 62
     2
 10
-59.9014568328858
 20
-121.74917602539
 30
0.0
 11
-60.6514568328858
 21
-122.49917602539
 31
0.0
  0
LINE
  5
   84E
  8
0
  6
CONTINUOUS
 62
     2
 10
-49.4014568328858
 20
-121.74917602539
 30
0.0
 11
-49.4014568328858
 21
-123.24917602539
 31
0.0
  0
LINE
  5
   84F
  8
0
  6
CONTINUOUS
 62
     2
 10
-59.9014568328857
 20
-121.74917602539
 30
0.0
 11
-59.9014568328857
 21
-123.24917602539
 31
0.0
  0
LINE
  5
   850
  8
0
  6
CONTINUOUS
 62
     3
 10
-47.1514568328857
 20
-144.24917602539
 30
0.0
 11
-62.1514568328857
 21
-144.24917602539
 31
0.0
  0
LINE
  5
   851
  8
0
  6
CONTINUOUS
 62
     3
 10
-47.4014568328857
 20
-144.24917602539
 30
0.0
 11
-47.4014568328857
 21
-158.99917602539
 31
0.0
  0
LINE
  5
   852
  8
0
  6
CONTINUOUS
 62
     3
 10
-61.9014568328857
 20
-144.24917602539
 30
0.0
 11
-61.9014568328857
 21
-158.99917602539
 31
0.0
  0
LINE
  5
   853
  8
0
  6
CONTINUOUS
 62
     1
 10
-43.6514568328857
 20
-138.24917602539
 30
0.0
 11
-65.6514568328857
 21
-138.24917602539
 31
0.0
  0
LINE
  5
   854
  8
0
  6
CONTINUOUS
 62
     1
 10
-43.6514568328857
 20
-136.24917602539
 30
0.0
 11
-65.6514568328857
 21
-136.24917602539
 31
0.0
  0
LINE
  5
   855
  8
0
  6
CONTINUOUS
 62
     1
 10
-43.6514568328857
 20
-136.24917602539
 30
0.0
 11
-43.6514568328857
 21
-138.24917602539
 31
0.0
  0
LINE
  5
   856
  8
0
  6
CONTINUOUS
 62
     1
 10
-65.6514568328857
 20
-136.24917602539
 30
0.0
 11
-65.6514568328857
 21
-138.24917602539
 31
0.0
  0
LINE
  5
   857
  8
0
  6
CONTINUOUS
 62
     1
 10
-43.6514568328857
 20
-129.24917602539
 30
0.0
 11
-43.6514568328857
 21
-131.24917602539
 31
0.0
  0
LINE
  5
   858
  8
0
  6
CONTINUOUS
 62
     1
 10
-43.6514568328857
 20
-131.24917602539
 30
0.0
 11
-65.6514568328857
 21
-131.24917602539
 31
0.0
  0
LINE
  5
   859
  8
0
  6
CONTINUOUS
 62
     1
 10
-43.6514568328857
 20
-129.24917602539
 30
0.0
 11
-65.6514568328857
 21
-129.24917602539
 31
0.0
  0
LINE
  5
   85A
  8
0
  6
CONTINUOUS
 62
     1
 10
-65.6514568328857
 20
-129.24917602539
 30
0.0
 11
-65.6514568328857
 21
-131.24917602539
 31
0.0
  0
LINE
  5
   85B
  8
0
  6
CONTINUOUS
 62
     2
 10
-48.6514568328857
 20
-131.24917602539
 30
0.0
 11
-48.6514568328857
 21
-136.24917602539
 31
0.0
  0
LINE
  5
   85C
  8
0
  6
CONTINUOUS
 62
     2
 10
-49.4014568328858
 20
-131.24917602539
 30
0.0
 11
-49.4014568328858
 21
-136.24917602539
 31
0.0
  0
LINE
  5
   85D
  8
0
  6
CONTINUOUS
 62
     2
 10
-59.9014568328857
 20
-131.24917602539
 30
0.0
 11
-59.9014568328857
 21
-136.24917602539
 31
0.0
  0
LINE
  5
   85E
  8
0
  6
CONTINUOUS
 62
     2
 10
-60.6514568328857
 20
-131.24917602539
 30
0.0
 11
-60.6514568328857
 21
-136.24917602539
 31
0.0
  0
LINE
  5
   85F
  8
0
  6
CONTINUOUS
 62
     7
 10
-62.1514568328857
 20
-156.74917602539
 30
0.0
 11
-62.1514568328857
 21
-158.24917602539
 31
0.0
  0
LINE
  5
   860
  8
0
  6
CONTINUOUS
 62
     7
 10
-47.1514568328857
 20
-156.74917602539
 30
0.0
 11
-47.1514568328857
 21
-158.24917602539
 31
0.0
  0
LINE
  5
   861
  8
0
  6
CONTINUOUS
 62
     7
 10
-27.1514568328857
 20
-156.74917602539
 30
0.0
 11
-27.1514568328857
 21
-158.24917602539
 31
0.0
  0
LINE
  5
   862
  8
0
  6
CONTINUOUS
 62
     7
 10
-12.1514568328857
 20
-156.74917602539
 30
0.0
 11
-12.1514568328857
 21
-158.24917602539
 31
0.0
  0
LINE
  5
   863
  8
0
  6
CONTINUOUS
 62
     7
 10
7.84854316711426
 20
-156.74917602539
 30
0.0
 11
7.84854316711426
 21
-158.24917602539
 31
0.0
  0
LINE
  5
   864
  8
0
  6
CONTINUOUS
 62
     7
 10
22.8485431671143
 20
-156.74917602539
 30
0.0
 11
22.8485431671143
 21
-158.24917602539
 31
0.0
  0
LINE
  5
   865
  8
0
  6
CONTINUOUS
 62
     7
 10
-61.9014568328857
 20
-156.74917602539
 30
0.0
 11
-77.8450706445449
 21
-156.74917602539
 31
0.0
  0
LINE
  5
   866
  8
0
  6
CONTINUOUS
 62
     7
 10
-26.9014568328857
 20
-156.74917602539
 30
0.0
 11
-47.4014568328857
 21
-156.74917602539
 31
0.0
  0
LINE
  5
   867
  8
0
  6
CONTINUOUS
 62
     7
 10
8.09854316711426
 20
-156.74917602539
 30
0.0
 11
-12.4014568328857
 21
-156.74917602539
 31
0.0
  0
LINE
  5
   868
  8
0
  6
CONTINUOUS
 62
     7
 10
8.09854316711426
 20
-158.24917602539
 30
0.0
 11
-12.4014568328857
 21
-158.24917602539
 31
0.0
  0
LINE
  5
   869
  8
0
  6
CONTINUOUS
 62
     7
 10
-26.9014568328857
 20
-158.24917602539
 30
0.0
 11
-47.4014568328857
 21
-158.24917602539
 31
0.0
  0
LINE
  5
   86A
  8
0
  6
CONTINUOUS
 62
     7
 10
-7.15144157409668
 20
-158.24917602539
 30
0.0
 11
-7.15144157409668
 21
-158.99917602539
 31
0.0
  0
LINE
  5
   86B
  8
0
  6
CONTINUOUS
 62
     7
 10
2.84855842590332
 20
-158.24917602539
 30
0.0
 11
2.84855842590332
 21
-158.99917602539
 31
0.0
  0
LINE
  5
   86C
  8
0
  6
CONTINUOUS
 62
     7
 10
-42.1514415740967
 20
-158.24917602539
 30
0.0
 11
-42.1514415740967
 21
-158.99917602539
 31
0.0
  0
LINE
  5
   86D
  8
0
  6
CONTINUOUS
 62
     7
 10
-32.1514415740967
 20
-158.24917602539
 30
0.0
 11
-32.1514415740967
 21
-158.99917602539
 31
0.0
  0
LINE
  5
   86E
  8
0
  6
DASHDOT
 62
     2
 10
-37.1514568328857
 20
-149.423349227952
 30
0.0
 11
-37.1514568328857
 21
-161.053304670322
 31
0.0
  0
LINE
  5
   86F
  8
0
  6
CONTINUOUS
 62
     7
 10
-35.1514568328857
 20
-154.74917602539
 30
0.0
 11
-39.1514568328857
 21
-154.74917602539
 31
0.0
  0
LINE
  5
   870
  8
0
  6
CONTINUOUS
 62
     7
 10
-35.9014568328857
 20
-152.74917602539
 30
0.0
 11
-38.4014568328857
 21
-152.74917602539
 31
0.0
  0
LINE
  5
   871
  8
0
  6
CONTINUOUS
 62
     7
 10
-39.1514568328857
 20
-154.74917602539
 30
0.0
 11
-39.1514568328857
 21
-156.74917602539
 31
0.0
  0
LINE
  5
   872
  8
0
  6
CONTINUOUS
 62
     7
 10
-35.1514568328857
 20
-154.74917602539
 30
0.0
 11
-35.1514568328857
 21
-156.74917602539
 31
0.0
  0
LINE
  5
   873
  8
0
  6
CONTINUOUS
 62
     7
 10
-38.4014568328857
 20
-152.74917602539
 30
0.0
 11
-38.4014568328857
 21
-156.74917602539
 31
0.0
  0
LINE
  5
   874
  8
0
  6
CONTINUOUS
 62
     7
 10
-35.9014568328857
 20
-152.74917602539
 30
0.0
 11
-35.9014568328857
 21
-156.74917602539
 31
0.0
  0
LINE
  5
   875
  8
0
  6
CONTINUOUS
 62
     7
 10
-4.15145683288574
 20
-154.74917602539
 30
0.0
 11
-4.15145683288574
 21
-156.74917602539
 31
0.0
  0
LINE
  5
   876
  8
0
  6
CONTINUOUS
 62
     7
 10
-3.40145683288574
 20
-152.74917602539
 30
0.0
 11
-3.40145683288574
 21
-156.74917602539
 31
0.0
  0
LINE
  5
   877
  8
0
  6
CONTINUOUS
 62
     7
 10
-0.901456832885742
 20
-152.74917602539
 30
0.0
 11
-0.901456832885742
 21
-156.74917602539
 31
0.0
  0
LINE
  5
   878
  8
0
  6
CONTINUOUS
 62
     7
 10
-0.151456832885742
 20
-154.74917602539
 30
0.0
 11
-0.151456832885742
 21
-156.74917602539
 31
0.0
  0
LINE
  5
   879
  8
0
  6
DASHDOT
 62
     2
 10
-2.15145683288574
 20
-149.423349227952
 30
0.0
 11
-2.15145683288574
 21
-161.053304670322
 31
0.0
  0
LINE
  5
   87A
  8
0
  6
CONTINUOUS
 62
     7
 10
-0.151456832885742
 20
-154.74917602539
 30
0.0
 11
-4.15145683288574
 21
-154.74917602539
 31
0.0
  0
LINE
  5
   87B
  8
0
  6
CONTINUOUS
 62
     7
 10
-0.901456832885742
 20
-152.74917602539
 30
0.0
 11
-3.40145683288574
 21
-152.74917602539
 31
0.0
  0
LINE
  5
   87C
  8
0
  6
CONTINUOUS
 62
     7
 10
-47.1514568328857
 20
-123.24917602539
 30
0.0
 11
-62.1514568328857
 21
-123.24917602539
 31
0.0
  0
LINE
  5
   87D
  8
0
  6
CONTINUOUS
 62
     7
 10
-62.1514568328857
 20
-123.24917602539
 30
0.0
 11
-62.1514568328857
 21
-129.24917602539
 31
0.0
  0
LINE
  5
   87E
  8
0
  6
CONTINUOUS
 62
     7
 10
-47.1514568328857
 20
-123.24917602539
 30
0.0
 11
-47.1514568328857
 21
-129.24917602539
 31
0.0
  0
LINE
  5
   87F
  8
0
  6
CONTINUOUS
 62
     7
 10
-62.1514568328857
 20
-138.24917602539
 30
0.0
 11
-62.1514568328857
 21
-144.24917602539
 31
0.0
  0
LINE
  5
   880
  8
0
  6
CONTINUOUS
 62
     7
 10
-47.1514568328857
 20
-138.24917602539
 30
0.0
 11
-47.1514568328857
 21
-144.24917602539
 31
0.0
  0
LINE
  5
   881
  8
0
  6
CONTINUOUS
 62
     7
 10
-54.6514568328857
 20
-123.24917602539
 30
0.0
 11
-54.6514568328857
 21
-129.24917602539
 31
0.0
  0
LINE
  5
   882
  8
0
  6
CONTINUOUS
 62
     7
 10
-54.6514568328857
 20
-138.24917602539
 30
0.0
 11
-54.6514568328857
 21
-144.24917602539
 31
0.0
  0
LINE
  5
   883
  8
0
  6
CONTINUOUS
 62
     2
 10
-14.4014568328858
 20
-121.74917602539
 30
0.0
 11
-24.9014568328857
 21
-121.74917602539
 31
0.0
  0
LINE
  5
   884
  8
0
  6
CONTINUOUS
 62
     2
 10
-13.6514568328857
 20
-122.49917602539
 30
0.0
 11
-13.6514568328857
 21
-123.24917602539
 31
0.0
  0
LINE
  5
   885
  8
0
  6
CONTINUOUS
 62
     2
 10
-25.6514568328857
 20
-122.49917602539
 30
0.0
 11
-25.6514568328857
 21
-123.24917602539
 31
0.0
  0
LINE
  5
   886
  8
0
  6
CONTINUOUS
 62
     2
 10
-13.6514568328857
 20
-122.49917602539
 30
0.0
 11
-25.6514568328857
 21
-122.49917602539
 31
0.0
  0
LINE
  5
   887
  8
0
  6
CONTINUOUS
 62
     2
 10
-13.6514568328857
 20
-122.49917602539
 30
0.0
 11
-14.4014568328857
 21
-121.74917602539
 31
0.0
  0
LINE
  5
   888
  8
0
  6
CONTINUOUS
 62
     2
 10
-24.9014568328858
 20
-121.74917602539
 30
0.0
 11
-25.6514568328858
 21
-122.49917602539
 31
0.0
  0
LINE
  5
   889
  8
0
  6
CONTINUOUS
 62
     2
 10
-14.4014568328858
 20
-121.74917602539
 30
0.0
 11
-14.4014568328858
 21
-123.24917602539
 31
0.0
  0
LINE
  5
   88A
  8
0
  6
CONTINUOUS
 62
     2
 10
-24.9014568328857
 20
-121.74917602539
 30
0.0
 11
-24.9014568328857
 21
-123.24917602539
 31
0.0
  0
LINE
  5
   88B
  8
0
  6
CONTINUOUS
 62
     1
 10
-8.65145683288574
 20
-138.24917602539
 30
0.0
 11
-30.6514568328857
 21
-138.24917602539
 31
0.0
  0
LINE
  5
   88C
  8
0
  6
CONTINUOUS
 62
     1
 10
-8.65145683288575
 20
-136.24917602539
 30
0.0
 11
-30.6514568328858
 21
-136.24917602539
 31
0.0
  0
LINE
  5
   88D
  8
0
  6
CONTINUOUS
 62
     1
 10
-8.65145683288574
 20
-136.24917602539
 30
0.0
 11
-8.65145683288574
 21
-138.24917602539
 31
0.0
  0
LINE
  5
   88E
  8
0
  6
CONTINUOUS
 62
     1
 10
-30.6514568328857
 20
-136.24917602539
 30
0.0
 11
-30.6514568328857
 21
-138.24917602539
 31
0.0
  0
LINE
  5
   88F
  8
0
  6
CONTINUOUS
 62
     1
 10
-8.65145683288574
 20
-129.24917602539
 30
0.0
 11
-8.65145683288574
 21
-131.24917602539
 31
0.0
  0
LINE
  5
   890
  8
0
  6
CONTINUOUS
 62
     1
 10
-8.65145683288575
 20
-131.24917602539
 30
0.0
 11
-30.6514568328858
 21
-131.24917602539
 31
0.0
  0
LINE
  5
   891
  8
0
  6
CONTINUOUS
 62
     1
 10
-8.65145683288575
 20
-129.24917602539
 30
0.0
 11
-30.6514568328858
 21
-129.24917602539
 31
0.0
  0
LINE
  5
   892
  8
0
  6
CONTINUOUS
 62
     1
 10
-30.6514568328857
 20
-129.24917602539
 30
0.0
 11
-30.6514568328857
 21
-131.24917602539
 31
0.0
  0
LINE
  5
   893
  8
0
  6
CONTINUOUS
 62
     2
 10
-13.6514568328857
 20
-131.24917602539
 30
0.0
 11
-13.6514568328857
 21
-136.24917602539
 31
0.0
  0
LINE
  5
   894
  8
0
  6
CONTINUOUS
 62
     2
 10
-14.4014568328858
 20
-131.24917602539
 30
0.0
 11
-14.4014568328858
 21
-136.24917602539
 31
0.0
  0
LINE
  5
   895
  8
0
  6
CONTINUOUS
 62
     2
 10
-24.9014568328857
 20
-131.24917602539
 30
0.0
 11
-24.9014568328857
 21
-136.24917602539
 31
0.0
  0
LINE
  5
   896
  8
0
  6
CONTINUOUS
 62
     2
 10
-25.6514568328857
 20
-131.24917602539
 30
0.0
 11
-25.6514568328857
 21
-136.24917602539
 31
0.0
  0
LINE
  5
   897
  8
0
  6
CONTINUOUS
 62
     7
 10
-12.1514568328857
 20
-123.24917602539
 30
0.0
 11
-27.1514568328857
 21
-123.24917602539
 31
0.0
  0
LINE
  5
   898
  8
0
  6
CONTINUOUS
 62
     7
 10
-27.1514568328857
 20
-123.24917602539
 30
0.0
 11
-27.1514568328857
 21
-129.24917602539
 31
0.0
  0
LINE
  5
   899
  8
0
  6
CONTINUOUS
 62
     7
 10
-12.1514568328857
 20
-123.24917602539
 30
0.0
 11
-12.1514568328857
 21
-129.24917602539
 31
0.0
  0
LINE
  5
   89A
  8
0
  6
CONTINUOUS
 62
     7
 10
-27.1514568328857
 20
-138.24917602539
 30
0.0
 11
-27.1514568328857
 21
-144.24917602539
 31
0.0
  0
LINE
  5
   89B
  8
0
  6
CONTINUOUS
 62
     7
 10
-12.1514568328857
 20
-138.24917602539
 30
0.0
 11
-12.1514568328857
 21
-144.24917602539
 31
0.0
  0
LINE
  5
   89C
  8
0
  6
CONTINUOUS
 62
     7
 10
-19.6514568328857
 20
-123.24917602539
 30
0.0
 11
-19.6514568328857
 21
-129.24917602539
 31
0.0
  0
LINE
  5
   89D
  8
0
  6
CONTINUOUS
 62
     7
 10
-19.6514568328857
 20
-138.24917602539
 30
0.0
 11
-19.6514568328857
 21
-144.24917602539
 31
0.0
  0
LINE
  5
   89E
  8
0
  6
CONTINUOUS
 62
     2
 10
20.5985431671142
 20
-121.74917602539
 30
0.0
 11
10.0985431671143
 21
-121.74917602539
 31
0.0
  0
LINE
  5
   89F
  8
0
  6
CONTINUOUS
 62
     2
 10
21.3485431671143
 20
-122.49917602539
 30
0.0
 11
21.3485431671143
 21
-123.24917602539
 31
0.0
  0
LINE
  5
   8A0
  8
0
  6
CONTINUOUS
 62
     2
 10
9.34854316711426
 20
-122.49917602539
 30
0.0
 11
9.34854316711426
 21
-123.24917602539
 31
0.0
  0
LINE
  5
   8A1
  8
0
  6
CONTINUOUS
 62
     2
 10
21.3485431671143
 20
-122.49917602539
 30
0.0
 11
9.34854316711426
 21
-122.49917602539
 31
0.0
  0
LINE
  5
   8A2
  8
0
  6
CONTINUOUS
 62
     2
 10
21.3485431671143
 20
-122.49917602539
 30
0.0
 11
20.5985431671143
 21
-121.74917602539
 31
0.0
  0
LINE
  5
   8A3
  8
0
  6
CONTINUOUS
 62
     2
 10
10.0985431671143
 20
-121.74917602539
 30
0.0
 11
9.34854316711425
 21
-122.49917602539
 31
0.0
  0
LINE
  5
   8A4
  8
0
  6
CONTINUOUS
 62
     2
 10
20.5985431671143
 20
-121.74917602539
 30
0.0
 11
20.5985431671143
 21
-123.24917602539
 31
0.0
  0
LINE
  5
   8A5
  8
0
  6
CONTINUOUS
 62
     2
 10
10.0985431671143
 20
-121.74917602539
 30
0.0
 11
10.0985431671143
 21
-123.24917602539
 31
0.0
  0
LINE
  5
   8A6
  8
0
  6
CONTINUOUS
 62
     1
 10
26.3485431671143
 20
-138.24917602539
 30
0.0
 11
4.34854316711426
 21
-138.24917602539
 31
0.0
  0
LINE
  5
   8A7
  8
0
  6
CONTINUOUS
 62
     1
 10
26.3485431671143
 20
-136.24917602539
 30
0.0
 11
4.34854316711425
 21
-136.24917602539
 31
0.0
  0
LINE
  5
   8A8
  8
0
  6
CONTINUOUS
 62
     1
 10
26.3485431671143
 20
-136.24917602539
 30
0.0
 11
26.3485431671143
 21
-138.24917602539
 31
0.0
  0
LINE
  5
   8A9
  8
0
  6
CONTINUOUS
 62
     1
 10
4.34854316711426
 20
-136.24917602539
 30
0.0
 11
4.34854316711426
 21
-138.24917602539
 31
0.0
  0
LINE
  5
   8AA
  8
0
  6
CONTINUOUS
 62
     1
 10
26.3485431671143
 20
-129.24917602539
 30
0.0
 11
26.3485431671143
 21
-131.24917602539
 31
0.0
  0
LINE
  5
   8AB
  8
0
  6
CONTINUOUS
 62
     1
 10
26.3485431671143
 20
-131.24917602539
 30
0.0
 11
4.34854316711425
 21
-131.24917602539
 31
0.0
  0
LINE
  5
   8AC
  8
0
  6
CONTINUOUS
 62
     1
 10
26.3485431671143
 20
-129.24917602539
 30
0.0
 11
4.34854316711425
 21
-129.24917602539
 31
0.0
  0
LINE
  5
   8AD
  8
0
  6
CONTINUOUS
 62
     1
 10
4.34854316711426
 20
-129.24917602539
 30
0.0
 11
4.34854316711426
 21
-131.24917602539
 31
0.0
  0
LINE
  5
   8AE
  8
0
  6
CONTINUOUS
 62
     2
 10
21.3485431671143
 20
-131.24917602539
 30
0.0
 11
21.3485431671143
 21
-136.24917602539
 31
0.0
  0
LINE
  5
   8AF
  8
0
  6
CONTINUOUS
 62
     2
 10
20.5985431671143
 20
-131.24917602539
 30
0.0
 11
20.5985431671143
 21
-136.24917602539
 31
0.0
  0
LINE
  5
   8B0
  8
0
  6
CONTINUOUS
 62
     2
 10
10.0985431671143
 20
-131.24917602539
 30
0.0
 11
10.0985431671143
 21
-136.24917602539
 31
0.0
  0
LINE
  5
   8B1
  8
0
  6
CONTINUOUS
 62
     2
 10
9.34854316711426
 20
-131.24917602539
 30
0.0
 11
9.34854316711426
 21
-136.24917602539
 31
0.0
  0
LINE
  5
   8B2
  8
0
  6
CONTINUOUS
 62
     7
 10
22.8485431671143
 20
-123.24917602539
 30
0.0
 11
7.84854316711426
 21
-123.24917602539
 31
0.0
  0
LINE
  5
   8B3
  8
0
  6
CONTINUOUS
 62
     7
 10
7.84854316711426
 20
-123.24917602539
 30
0.0
 11
7.84854316711426
 21
-129.24917602539
 31
0.0
  0
LINE
  5
   8B4
  8
0
  6
CONTINUOUS
 62
     7
 10
22.8485431671143
 20
-123.24917602539
 30
0.0
 11
22.8485431671143
 21
-129.24917602539
 31
0.0
  0
LINE
  5
   8B5
  8
0
  6
CONTINUOUS
 62
     7
 10
7.84854316711426
 20
-138.24917602539
 30
0.0
 11
7.84854316711426
 21
-144.24917602539
 31
0.0
  0
LINE
  5
   8B6
  8
0
  6
CONTINUOUS
 62
     7
 10
22.8485431671143
 20
-138.24917602539
 30
0.0
 11
22.8485431671143
 21
-144.24917602539
 31
0.0
  0
LINE
  5
   8B7
  8
0
  6
CONTINUOUS
 62
     7
 10
15.3485431671143
 20
-123.24917602539
 30
0.0
 11
15.3485431671143
 21
-129.24917602539
 31
0.0
  0
LINE
  5
   8B8
  8
0
  6
CONTINUOUS
 62
     7
 10
15.3485431671143
 20
-138.24917602539
 30
0.0
 11
15.3485431671143
 21
-144.24917602539
 31
0.0
  0
INSERT
  5
   8B9
  8
0
  6
CONTINUOUS
 62
     7
  2
*UDIM415
 10
0.0
 20
0.0
 30
0.0
  0
INSERT
  5
   8BA
  8
0
  6
CONTINUOUS
 62
     7
  2
*UDIM416
 10
0.0
 20
0.0
 30
0.0
  0
INSERT
  5
   8BB
  8
0
  6
CONTINUOUS
 62
     7
  2
*UDIM417
 10
0.0
 20
0.0
 30
0.0
  0
TEXT
  5
   8BC
  8
0
  6
CONTINUOUS
 62
     7
 10
-21.4976089504633
 20
-115.656650396976
 30
0.0
 40
3.00000002980232
  1
Y
 50
359.999999896069
 41
0.916666604744064
 72
     2
 11
-19.2976090815935
 21
-115.656650400955
 31
0.0
  0
INSERT
  5
   8BD
  8
0
  6
CONTINUOUS
 62
     7
  2
*UDIM418
 10
0.0
 20
0.0
 30
0.0
  0
INSERT
  5
   8BE
  8
0
  6
CONTINUOUS
 62
     7
  2
*UDIM419
 10
0.0
 20
0.0
 30
0.0
  0
LINE
  5
   8BF
  8
0
  6
CONTINUOUS
 62
     7
 10
166.551705271006
 20
-160.403424501419
 30
0.0
 11
160.076705932617
 21
-160.403424501419
 31
0.0
  0
LINE
  5
   8C0
  8
0
  6
DASHDOT
 62
     7
 10
160.076705932617
 20
-171.728423568246
 30
0.0
 11
160.076705932617
 21
-159.573296222967
 31
0.0
  0
LINE
  5
   8C1
  8
0
  6
DASHDOT
 62
     7
 10
167.993372039262
 20
-164.603424072266
 30
0.0
 11
152.427988524966
 21
-164.603424072266
 31
0.0
  0
LINE
  5
   8C2
  8
0
  6
CONTINUOUS
 62
     7
 10
167.076705217361
 20
-168.803423643112
 30
0.0
 11
167.076705217361
 21
-160.928424447775
 31
0.0
  0
ARC
  5
   8C3
  8
0
  6
CONTINUOUS
 62
     7
 10
166.551705271006
 20
-160.928424447775
 30
0.0
 40
0.52499994635582
 50
359.999999948034
 51
449.999999948034
  0
LINE
  5
   8C4
  8
0
  6
DASHDOT
 62
     7
 10
164.014205530286
 20
-166.929705958987
 30
0.0
 11
164.014205530286
 21
-161.13227047166
 31
0.0
  0
CIRCLE
  5
   8C5
  8
0
  6
CONTINUOUS
 62
     7
 10
164.014205530286
 20
-164.603424072266
 30
0.0
 40
1.13749988377094
  0
CIRCLE
  5
   8C6
  8
0
  6
CONTINUOUS
 62
     7
 10
160.076705932617
 20
-164.603424072266
 30
0.0
 40
1.92499980330467
  0
CIRCLE
  5
   8C7
  8
0
  6
CONTINUOUS
 62
     7
 10
160.076705932617
 20
-164.603424072266
 30
0.0
 40
1.74999982118607
  0
LINE
  5
   8C8
  8
0
  6
CONTINUOUS
 62
     7
 10
160.076705932617
 20
-160.403424501419
 30
0.0
 11
153.601706594229
 21
-160.403424501419
 31
0.0
  0
ARC
  5
   8C9
  8
0
  6
CONTINUOUS
 62
     7
 10
153.601706594229
 20
-160.928424447775
 30
0.0
 40
0.52499994635582
 50
449.999999948034
 51
539.999999948034
  0
LINE
  5
   8CA
  8
0
  6
CONTINUOUS
 62
     7
 10
153.076706647873
 20
-168.803423643112
 30
0.0
 11
153.076706647873
 21
-160.928424447775
 31
0.0
  0
CIRCLE
  5
   8CB
  8
0
  6
CONTINUOUS
 62
     7
 10
156.139206334949
 20
-164.603424072266
 30
0.0
 40
1.13749988377094
  0
LINE
  5
   8CC
  8
0
  6
DASHDOT
 62
     7
 10
156.139206334949
 20
-166.978423904259
 30
0.0
 11
156.139206334949
 21
-161.13227047166
 31
0.0
  0
LINE
  5
   8CD
  8
0
  6
CONTINUOUS
 62
     7
 10
168.174568076264
 20
-168.803423643112
 30
0.0
 11
151.97884378897
 21
-168.803423643112
 31
0.0
  0
LINE
  5
   8CE
  8
0
  6
CONTINUOUS
 62
     2
 10
178.794972812145
 20
-159.878424555063
 30
0.0
 11
173.114204600453
 21
-159.878424555063
 31
0.0
  0
LINE
  5
   8CF
  8
0
  6
CONTINUOUS
 62
     2
 10
169.001705020666
 20
-167.370780430591
 30
0.0
 11
169.001705020666
 21
-159.878424555063
 31
0.0
  0
LINE
  5
   8D0
  8
0
  6
CONTINUOUS
 62
     7
 10
179.182112503164
 20
-170.553423464298
 30
0.0
 11
139.996957405272
 21
-170.553423464298
 31
0.0
  0
LINE
  5
   8D1
  8
0
  6
CONTINUOUS
 62
     2
 10
149.051707059145
 20
-162.328424304724
 30
0.0
 11
146.601707309484
 21
-162.328424304724
 31
0.0
  0
LINE
  5
   8D2
  8
0
  6
CONTINUOUS
 62
     2
 10
147.039207264781
 20
-160.753424465656
 30
0.0
 11
146.601707309484
 21
-160.753424465656
 31
0.0
  0
LINE
  5
   8D3
  8
0
  6
CONTINUOUS
 62
     2
 10
146.601707309484
 20
-162.328424304724
 30
0.0
 11
146.601707309484
 21
-160.753424465656
 31
0.0
  0
LINE
  5
   8D4
  8
0
  6
CONTINUOUS
 62
     2
 10
149.051707059145
 20
-162.328424304724
 30
0.0
 11
149.051707059145
 21
-160.753424465656
 31
0.0
  0
LINE
  5
   8D5
  8
0
  6
CONTINUOUS
 62
     2
 10
147.039207264781
 20
-160.753424465656
 30
0.0
 11
147.039207264781
 21
-159.878424555063
 31
0.0
  0
LINE
  5
   8D6
  8
0
  6
CONTINUOUS
 62
     2
 10
148.614207103848
 20
-160.753424465656
 30
0.0
 11
148.614207103848
 21
-159.878424555063
 31
0.0
  0
LINE
  5
   8D7
  8
0
  6
CONTINUOUS
 62
     2
 10
149.051707059145
 20
-160.753424465656
 30
0.0
 11
148.614207103848
 21
-160.753424465656
 31
0.0
  0
LINE
  5
   8D8
  8
0
  6
CONTINUOUS
 62
     2
 10
147.039207264781
 20
-159.878424555063
 30
0.0
 11
139.996957405272
 21
-159.878424555063
 31
0.0
  0
LINE
  5
   8D9
  8
0
  6
CONTINUOUS
 62
     2
 10
173.114204600453
 20
-160.753424465656
 30
0.0
 11
173.114204600453
 21
-159.878424555063
 31
0.0
  0
LINE
  5
   8DA
  8
0
  6
CONTINUOUS
 62
     2
 10
171.539204761386
 20
-160.753424465656
 30
0.0
 11
171.539204761386
 21
-159.878424555063
 31
0.0
  0
LINE
  5
   8DB
  8
0
  6
CONTINUOUS
 62
     2
 10
171.101704806089
 20
-162.328424304724
 30
0.0
 11
171.101704806089
 21
-160.753424465656
 31
0.0
  0
LINE
  5
   8DC
  8
0
  6
CONTINUOUS
 62
     2
 10
173.55170455575
 20
-162.328424304724
 30
0.0
 11
171.101704806089
 21
-162.328424304724
 31
0.0
  0
LINE
  5
   8DD
  8
0
  6
CONTINUOUS
 62
     2
 10
173.55170455575
 20
-162.328424304724
 30
0.0
 11
173.55170455575
 21
-160.753424465656
 31
0.0
  0
LINE
  5
   8DE
  8
0
  6
CONTINUOUS
 62
     2
 10
173.55170455575
 20
-160.753424465656
 30
0.0
 11
173.114204600453
 21
-160.753424465656
 31
0.0
  0
LINE
  5
   8DF
  8
0
  6
CONTINUOUS
 62
     2
 10
171.539204761386
 20
-160.753424465656
 30
0.0
 11
171.101704806089
 21
-160.753424465656
 31
0.0
  0
LINE
  5
   8E0
  8
0
  6
CONTINUOUS
 62
     2
 10
171.539204761386
 20
-159.878424555063
 30
0.0
 11
148.614207103848
 21
-159.878424555063
 31
0.0
  0
LINE
  5
   8E1
  8
0
  6
CONTINUOUS
 62
     7
 10
178.794972812145
 20
-171.292017943078
 30
0.0
 11
178.794972812145
 21
-155.492826102134
 31
0.0
  0
LINE
  5
   8E2
  8
0
  6
CONTINUOUS
 62
     7
 10
139.996957405272
 20
-171.592002598285
 30
0.0
 11
139.996957405272
 21
-155.692815872273
 31
0.0
  0
LINE
  5
   8E3
  8
0
  6
CONTINUOUS
 62
     2
 10
168.174568076264
 20
-168.803423643112
 30
0.0
 11
169.001705020666
 21
-167.370780430591
 31
0.0
  0
LINE
  5
   8E4
  8
0
  6
CONTINUOUS
 62
     2
 10
151.151706844568
 20
-167.370780430591
 30
0.0
 11
151.151706844568
 21
-159.878424555063
 31
0.0
  0
LINE
  5
   8E5
  8
0
  6
CONTINUOUS
 62
     2
 10
151.97884378897
 20
-168.803423643112
 30
0.0
 11
151.151706844568
 21
-167.370780430591
 31
0.0
  0
LINE
  5
   8E6
  8
0
  6
CONTINUOUS
 62
     2
 10
175.651704341173
 20
-167.370780430591
 30
0.0
 11
175.651704341173
 21
-159.878424555063
 31
0.0
  0
LINE
  5
   8E7
  8
0
  6
CONTINUOUS
 62
     2
 10
176.478841285575
 20
-168.803423643112
 30
0.0
 11
175.651704341173
 21
-167.370780430591
 31
0.0
  0
LINE
  5
   8E8
  8
0
  6
CONTINUOUS
 62
     2
 10
144.501707524061
 20
-167.370780430591
 30
0.0
 11
144.501707524061
 21
-159.878424555063
 31
0.0
  0
LINE
  5
   8E9
  8
0
  6
CONTINUOUS
 62
     2
 10
143.674570579659
 20
-168.803423643112
 30
0.0
 11
144.501707524061
 21
-167.370780430591
 31
0.0
  0
LINE
  5
   8EA
  8
0
  6
CONTINUOUS
 62
     2
 10
178.794972812145
 20
-168.803423643112
 30
0.0
 11
176.478841285575
 21
-168.803423643112
 31
0.0
  0
LINE
  5
   8EB
  8
0
  6
CONTINUOUS
 62
     2
 10
143.674570579659
 20
-168.803423643112
 30
0.0
 11
139.996957405272
 21
-168.803423643112
 31
0.0
  0
INSERT
  5
   8EC
  8
0
  6
CONTINUOUS
 62
     2
  2
*HATCH305
 10
160.076705932617
 20
-164.603424072266
 30
0.0
 41
0.349999964237213
 42
0.349999964237213
 50
89.9999999480344
 43
0.349999964237213
  0
INSERT
  5
   8ED
  8
0
  6
CONTINUOUS
 62
     7
  2
*UDIM420
 10
0.0
 20
0.0
 30
0.0
  0
INSERT
  5
   8EE
  8
0
  6
CONTINUOUS
 62
     1
  2
*UDIM421
 10
0.0
 20
0.0
 30
0.0
  0
INSERT
  5
   8EF
  8
0
  6
CONTINUOUS
 62
     7
  2
*UDIM422
 10
0.0
 20
0.0
 30
0.0
  0
INSERT
  5
   8F0
  8
0
  6
CONTINUOUS
 62
     7
  2
*UDIM423
 10
0.0
 20
0.0
 30
0.0
  0
INSERT
  5
   8F1
  8
0
  6
CONTINUOUS
 62
     7
  2
*UDIM424
 10
0.0
 20
0.0
 30
0.0
  0
ENDSEC
  0
EOF
