  0
SECTION
  2
HEADER
  9
$ACADVER
  1
AC1009
  9
$DWGCODEPAGE
  3
iso8859-1
  9
$INSBASE
 10
0.0
 20
0.0
 30
0.0
  9
$EXTMIN
 10
1.0E20
 20
1.0E20
  9
$EXTMAX
 10
-1.0E20
 20
-1.0E20
  9
$LIMMIN
 10
0.0
 20
0.0
  9
$LIMMAX
 10
12.0
 20
9.0
  9
$ORTHOMODE
 70
     0
  9
$REGENMODE
 70
     1
  9
$FILLMODE
 70
     1
  9
$QTEXTMODE
 70
     0
  9
$MIRRTEXT
 70
     1
  9
$DRAGMODE
 70
     2
  9
$LTSCALE
 40
15.0
  9
$OSMODE
 70
     0
  9
$ATTMODE
 70
     1
  9
$TEXTSIZE
 40
0.2
  9
$TRACEWID
 40
0.05
  9
$TEXTSTYLE
  7
STANDARD
  9
$CLAYER
  8
0
  9
$CELTYPE
  6
DASHED
  9
$CECOLOR
 62
   256
  9
$DIMSCALE
 40
1.0
  9
$DIMASZ
 40
0.18
  9
$DIMEXO
 40
0.0625
  9
$DIMDLI
 40
0.38
  9
$DIMRND
 40
0.0
  9
$DIMDLE
 40
0.0
  9
$DIMEXE
 40
0.18
  9
$DIMTP
 40
0.0
  9
$DIMTM
 40
0.0
  9
$DIMTXT
 40
0.18
  9
$DIMCEN
 40
0.09
  9
$DIMTSZ
 40
0.0
  9
$DIMTOL
 70
     0
  9
$DIMLIM
 70
     0
  9
$DIMTIH
 70
     1
  9
$DIMTOH
 70
     1
  9
$DIMSE1
 70
     0
  9
$DIMSE2
 70
     0
  9
$DIMTAD
 70
     0
  9
$DIMZIN
 70
     0
  9
$DIMBLK
  1

  9
$DIMASO
 70
     1
  9
$DIMSHO
 70
     1
  9
$DIMPOST
  1

  9
$DIMAPOST
  1

  9
$DIMALT
 70
     0
  9
$DIMALTD
 70
     2
  9
$DIMALTF
 40
25.4
  9
$DIMLFAC
 40
1.0
  9
$DIMTOFL
 70
     0
  9
$DIMTVP
 40
0.0
  9
$DIMTIX
 70
     0
  9
$DIMSOXD
 70
     0
  9
$DIMSAH
 70
     0
  9
$DIMBLK1
  1

  9
$DIMBLK2
  1

  9
$DIMSTYLE
  2
STANDARD
  9
$DIMCLRD
 70
     0
  9
$DIMCLRE
 70
     0
  9
$DIMCLRT
 70
     0
  9
$DIMTFAC
 40
1.0
  9
$DIMGAP
 40
0.09
  9
$LUNITS
 70
     2
  9
$LUPREC
 70
     4
  9
$AXISMODE
 70
     0
  9
$AXISUNIT
 10
0.0
 20
0.0
  9
$SKETCHINC
 40
0.1
  9
$FILLETRAD
 40
0.0
  9
$AUNITS
 70
     0
  9
$AUPREC
 70
     0
  9
$MENU
  1
acad
  9
$ELEVATION
 40
0.0
  9
$PELEVATION
 40
0.0
  9
$THICKNESS
 40
0.0
  9
$LIMCHECK
 70
     0
  9
$BLIPMODE
 70
     1
  9
$CHAMFERA
 40
0.0
  9
$CHAMFERB
 40
0.0
  9
$SKPOLY
 70
     0
  9
$TDCREATE
 40
0.000000000
  9
$TDUPDATE
 40
0.000000000
  9
$TDINDWG
 40
0.0
  9
$TDUSRTIMER
 40
0.0
  9
$USRTIMER
 70
     1
  9
$ANGBASE
 50
0.0
  9
$ANGDIR
 70
     0
  9
$PDMODE
 70
     0
  9
$PDSIZE
 40
0.0
  9
$PLINEWID
 40
0.0
  9
$COORDS
 70
     1
  9
$SPLFRAME
 70
     0
  9
$SPLINETYPE
 70
     6
  9
$SPLINESEGS
 70
     8
  9
$ATTDIA
 70
     0
  9
$ATTREQ
 70
     1
  9
$HANDLING
 70
     1
  9
$HANDSEED
  5
   731
  9
$SURFTAB1
 70
     6
  9
$SURFTAB2
 70
     6
  9
$SURFTYPE
 70
     6
  9
$SURFU
 70
     6
  9
$SURFV
 70
     6
  9
$UCSNAME
  2

  9
$UCSORG
 10
0.0
 20
0.0
 30
0.0
  9
$UCSXDIR
 10
1.0
 20
0.0
 30
0.0
  9
$UCSYDIR
 10
0.0
 20
1.0
 30
0.0
  9
$PUCSNAME
  2

  9
$PUCSORG
 10
0.0
 20
0.0
 30
0.0
  9
$PUCSXDIR
 10
1.0
 20
0.0
 30
0.0
  9
$PUCSYDIR
 10
0.0
 20
1.0
 30
0.0
  9
$USERI1
 70
     0
  9
$USERI2
 70
     0
  9
$USERI3
 70
     0
  9
$USERI4
 70
     0
  9
$USERI5
 70
     0
  9
$USERR1
 40
0.0
  9
$USERR2
 40
0.0
  9
$USERR3
 40
0.0
  9
$USERR4
 40
0.0
  9
$USERR5
 40
0.0
  9
$WORLDVIEW
 70
     1
  9
$SHADEDGE
 70
     3
  9
$SHADEDIF
 70
    70
  9
$TILEMODE
 70
     1
  9
$MAXACTVP
 70
    16
  9
$PINSBASE
 10
0.0
 20
0.0
 30
0.0
  9
$PLIMCHECK
 70
     0
  9
$PEXTMIN
 10
1.0E20
 20
1.0E20
 30
1.0E20
  9
$PEXTMAX
 10
-1.0E20
 20
-1.0E20
 30
-1.0E20
  9
$PLIMMIN
 10
0.0
 20
0.0
  9
$PLIMMAX
 10
12.0
 20
9.0
  9
$UNITMODE
 70
     0
  9
$VISRETAIN
 70
     0
  0
ENDSEC
  0
SECTION
  2
TABLES
  0
TABLE
  2
VPORT
 70
     1
  0
VPORT
  2
*ACTIVE
 70
     0
 10
0.0
 20
0.0
 11
1.0
 21
1.0
 12
6.801242
 22
4.5
 13
0.0
 23
0.0
 14
1.0
 24
1.0
 15
0.0
 25
0.0
 16
0.0
 26
0.0
 36
1.0
 17
0.0
 27
0.0
 37
0.0
 40
9.0
 41
1.511387
 42
50.0
 43
0.0
 44
0.0
 50
0.0
 51
0.0
 71
     0
 72
   100
 73
     1
 74
     1
 75
     0
 76
     0
 77
     0
 78
     0
  0
ENDTAB
  0
TABLE
  2
LTYPE
 70
    41
  0
LTYPE
  2
BYBLOCK
 70
     0
  3

 72
    65
 73
     0
 40
0.0
  0
LTYPE
  2
BYLAYER
 70
     0
  3

 72
    65
 73
     0
 40
0.0
  0
LTYPE
  2
CONTINUOUS
 70
     0
  3
Solid line
 72
    65
 73
     0
 40
0.0
  0
LTYPE
  2
BORDER
 70
    64
  3
__ __ . __ __ . __ __ . __ __ . __ __ . __ __ .
 72
    65
 73
     6
 40
1.75
 49
0.5
 49
-0.25
 49
0.5
 49
-0.25
 49
0.0
 49
-0.25
  0
LTYPE
  2
BORDER2
 70
    64
  3
__.__.__.__.__.__.__.__.__.__.__.__.__.__.__.__
 72
    65
 73
     6
 40
0.875
 49
0.25
 49
-0.125
 49
0.25
 49
-0.125
 49
0.0
 49
-0.125
  0
LTYPE
  2
BORDERX2
 70
    64
  3
____  ____  .  ____  ____  .  ____  ____  .  __
 72
    65
 73
     6
 40
3.5
 49
1.0
 49
-0.5
 49
1.0
 49
-0.5
 49
0.0
 49
-0.5
  0
LTYPE
  2
CENTER
 70
    64
  3
____ _ ____ _ ____ _ ____ _ ____ _ ____ _ ____
 72
    65
 73
     4
 40
2.0
 49
1.25
 49
-0.25
 49
0.25
 49
-0.25
  0
LTYPE
  2
CENTER2
 70
    64
  3
___ _ ___ _ ___ _ ___ _ ___ _ ___ _ ___ _ ___ _
 72
    65
 73
     4
 40
1.125
 49
0.75
 49
-0.125
 49
0.125
 49
-0.125
  0
LTYPE
  2
CENTERX2
 70
    64
  3
________  __  ________  __  ________  __  _____
 72
    65
 73
     4
 40
4.0
 49
2.5
 49
-0.5
 49
0.5
 49
-0.5
  0
LTYPE
  2
DASHDOT
 70
    64
  3
__ . __ . __ . __ . __ . __ . __ . __ . __ . __
 72
    65
 73
     4
 40
1.0
 49
0.5
 49
-0.25
 49
0.0
 49
-0.25
  0
LTYPE
  2
DASHDOT2
 70
    64
  3
_._._._._._._._._._._._._._._._._._._._._._._._
 72
    65
 73
     4
 40
0.5
 49
0.25
 49
-0.125
 49
0.0
 49
-0.125
  0
LTYPE
  2
DASHDOTX2
 70
    64
  3
____  .  ____  .  ____  .  ____  .  ____  .  __
 72
    65
 73
     4
 40
2.0
 49
1.0
 49
-0.5
 49
0.0
 49
-0.5
  0
LTYPE
  2
DASHED
 70
    64
  3
__ __ __ __ __ __ __ __ __ __ __ __ __ __ __ __
 72
    65
 73
     2
 40
0.75
 49
0.5
 49
-0.25
  0
LTYPE
  2
DASHED2
 70
    64
  3
_ _ _ _ _ _ _ _ _ _ _ _ _ _ _ _ _ _ _ _ _ _ _ _
 72
    65
 73
     2
 40
0.375
 49
0.25
 49
-0.125
  0
LTYPE
  2
DASHEDX2
 70
    64
  3
____  ____  ____  ____  ____  ____  ____  ____
 72
    65
 73
     2
 40
1.5
 49
1.0
 49
-0.5
  0
LTYPE
  2
DIVIDE
 70
    64
  3
____ . . ____ . . ____ . . ____ . . ____ . . __
 72
    65
 73
     6
 40
1.25
 49
0.5
 49
-0.25
 49
0.0
 49
-0.25
 49
0.0
 49
-0.25
  0
LTYPE
  2
DIVIDE2
 70
    64
  3
__..__..__..__..__..__..__..__..__..__..__..__.
 72
    65
 73
     6
 40
0.625
 49
0.25
 49
-0.125
 49
0.0
 49
-0.125
 49
0.0
 49
-0.125
  0
LTYPE
  2
DIVIDEX2
 70
    64
  3
________  .  .  ________  .  .  ________  .  .
 72
    65
 73
     6
 40
2.5
 49
1.0
 49
-0.5
 49
0.0
 49
-0.5
 49
0.0
 49
-0.5
  0
LTYPE
  2
DOT
 70
    64
  3
. . . . . . . . . . . . . . . . . . . . . . . .
 72
    65
 73
     2
 40
0.25
 49
0.0
 49
-0.25
  0
LTYPE
  2
DOT2
 70
    64
  3
...............................................
 72
    65
 73
     2
 40
0.125
 49
0.0
 49
-0.125
  0
LTYPE
  2
DOTX2
 70
    64
  3
.  .  .  .  .  .  .  .  .  .  .  .  .  .  .  .
 72
    65
 73
     2
 40
0.5
 49
0.0
 49
-0.5
  0
LTYPE
  2
HIDDEN
 70
    64
  3
__ __ __ __ __ __ __ __ __ __ __ __ __ __ __ __
 72
    65
 73
     2
 40
0.375
 49
0.25
 49
-0.125
  0
LTYPE
  2
HIDDEN2
 70
    64
  3
_ _ _ _ _ _ _ _ _ _ _ _ _ _ _ _ _ _ _ _ _ _ _ _
 72
    65
 73
     2
 40
0.1875
 49
0.125
 49
-0.0625
  0
LTYPE
  2
HIDDENX2
 70
    64
  3
____ ____ ____ ____ ____ ____ ____ ____ ____ __
 72
    65
 73
     2
 40
0.75
 49
0.5
 49
-0.25
  0
LTYPE
  2
PHANTOM
 70
    64
  3
______  __  __  ______  __  __  ______  __  __
 72
    65
 73
     6
 40
2.5
 49
1.25
 49
-0.25
 49
0.25
 49
-0.25
 49
0.25
 49
-0.25
  0
LTYPE
  2
PHANTOM2
 70
    64
  3
___ _ _ ___ _ _ ___ _ _ ___ _ _ ___ _ _ ___ _ _
 72
    65
 73
     6
 40
1.25
 49
0.625
 49
-0.125
 49
0.125
 49
-0.125
 49
0.125
 49
-0.125
  0
LTYPE
  2
PHANTOMX2
 70
    64
  3
____________    ____    ____    ____________
 72
    65
 73
     6
 40
5.0
 49
2.5
 49
-0.5
 49
0.5
 49
-0.5
 49
0.5
 49
-0.5
  0
LTYPE
  2
ACAD_ISO02W100
 70
    64
  3
__ __ __ __ __ __ __ __ __ __ __ __ __ __ __ __
 72
    65
 73
     2
 40
15.0
 49
12.0
 49
-3.0
  0
LTYPE
  2
ACAD_ISO03W100
 70
    64
  3
__    __    __    __    __    __    __    __
 72
    65
 73
     2
 40
30.0
 49
12.0
 49
-18.0
  0
LTYPE
  2
ACAD_ISO04W100
 70
    64
  3
____ . ____ . ____ . ____ . ____ . ____ . ____
 72
    65
 73
     4
 40
30.5
 49
24.0
 49
-3.0
 49
0.5
 49
-3.0
  0
LTYPE
  2
ACAD_ISO05W100
 70
    64
  3
____ .. ____ .. ____ .. ____ .. ____ .. ____ ..
 72
    65
 73
     6
 40
34.0
 49
24.0
 49
-3.0
 49
0.5
 49
-3.0
 49
0.5
 49
-3.0
  0
LTYPE
  2
ACAD_ISO06W100
 70
    64
  3
____ ... ____ ... ____ ... ____ ... ____ ... __
 72
    65
 73
     8
 40
37.5
 49
24.0
 49
-3.0
 49
0.5
 49
-3.0
 49
0.5
 49
-3.0
 49
0.5
 49
-3.0
  0
LTYPE
  2
ACAD_ISO07W100
 70
    64
  3
. . . . . . . . . . . . . . . . . . . . . . . .
 72
    65
 73
     2
 40
3.5
 49
0.5
 49
-3.0
  0
LTYPE
  2
ACAD_ISO08W100
 70
    64
  3
____ __ ____ __ ____ __ ____ ____ __ __ ____ __
 72
    65
 73
     4
 40
36.0
 49
24.0
 49
-3.0
 49
6.0
 49
-3.0
  0
LTYPE
  2
ACAD_ISO09W100
 70
    64
  3
____ __ __ ____ __ __ ____ __ __ ____ __ __ ___
 72
    65
 73
     6
 40
45.0
 49
24.0
 49
-3.0
 49
6.0
 49
-3.0
 49
6.0
 49
-3.0
  0
LTYPE
  2
ACAD_ISO10W100
 70
    64
  3
__ . __ . __ . __ . __ . __ . __ . __ . __ . __
 72
    65
 73
     4
 40
18.5
 49
12.0
 49
-3.0
 49
0.5
 49
-3.0
  0
LTYPE
  2
ACAD_ISO11W100
 70
    64
  3
__ __ . __ __ . __ __ . __ __ . __ __ . __ __ .
 72
    65
 73
     6
 40
33.5
 49
12.0
 49
-3.0
 49
12.0
 49
-3.0
 49
0.5
 49
-3.0
  0
LTYPE
  2
ACAD_ISO12W100
 70
    64
  3
__ . . __ . . __ . . __ . . __ . . __ . . __ .
 72
    65
 73
     6
 40
22.0
 49
12.0
 49
-3.0
 49
0.5
 49
-3.0
 49
0.5
 49
-3.0
  0
LTYPE
  2
ACAD_ISO13W100
 70
    64
  3
__ __ . . __ __ . . __ __ . . __ __ . . __ __ .
 72
    65
 73
     8
 40
37.0
 49
12.0
 49
-3.0
 49
12.0
 49
-3.0
 49
0.5
 49
-3.0
 49
0.5
 49
-3.0
  0
LTYPE
  2
ACAD_ISO14W100
 70
    64
  3
__ . . . __ . . . __ . . . __ . . . __ . . . __
 72
    65
 73
     8
 40
25.5
 49
12.0
 49
-3.0
 49
0.5
 49
-3.0
 49
0.5
 49
-3.0
 49
0.5
 49
-3.0
  0
LTYPE
  2
ACAD_ISO15W100
 70
    64
  3
__ __ . . . __ __ . . . __ __ . . . __ __ . . .
 72
    65
 73
    10
 40
40.5
 49
12.0
 49
-3.0
 49
12.0
 49
-3.0
 49
0.5
 49
-3.0
 49
0.5
 49
-3.0
 49
0.5
 49
-3.0
  0
ENDTAB
  0
TABLE
  2
STYLE
 70
     4
  0
STYLE
  2
STANDARD
 70
    64
 40
0.0
 41
1.0
 50
0.0
 71
     0
 42
0.2
  3
txt
  4

  0
STYLE
  2
TOLERANCE
 70
    64
 40
0.0
 41
1.0
 50
0.0
 71
     0
 42
0.2
  3
../igesfont/iges1003.shx
  4

  0
STYLE
  2
ROMANS
 70
    64
 40
0.0
 41
1.0
 50
0.0
 71
     0
 42
0.2
  3
romans.shx
  4

  0
STYLE
  2
ROMANC
 70
    64
 40
0.0
 41
1.0
 50
0.0
 71
     0
 42
0.2
  3
romanc.shx
  4

  0
ENDTAB
  0
TABLE
  2
DIMSTYLE
 70
     2
  0
DIMSTYLE
  2
UNNAMED
 70
     0
  3

  4

  5

  6

  7

 40
1.0
 41
0.18
 42
0.0625
 43
0.38
 44
0.18
 45
0.0
 46
0.0
 47
0.0
 48
0.0
140
0.18
141
0.09
142
0.0
143
25.4
144
1.0
145
0.0
146
1.0
147
0.09
 71
     0
 72
     0
 73
     1
 74
     1
 75
     0
 76
     0
 77
     0
 78
     0
170
     0
171
     2
172
     0
173
     0
174
     0
175
     0
176
     0
177
     0
178
     0
  0
DIMSTYLE
  2
STANDARD
 70
     0
  3

  4

  5

  6

  7

 40
1.0
 41
0.18
 42
0.0625
 43
0.38
 44
0.18
 45
0.0
 46
0.0
 47
0.0
 48
0.0
140
0.18
141
0.09
142
0.0
143
25.4
144
1.0
145
0.0
146
1.0
147
0.09
 71
     0
 72
     0
 73
     1
 74
     1
 75
     0
 76
     0
 77
     0
 78
     0
170
     0
171
     2
172
     0
173
     0
174
     0
175
     0
176
     0
177
     0
178
     0
  0
ENDTAB
  0
TABLE
  2
LAYER
 70
     2
  0
LAYER
  2
0
 70
     0
 62
     7
  6
CONTINUOUS
  0
LAYER
  2
255
 70
     0
 62
     7
  6
CONTINUOUS
  0
ENDTAB
  0
ENDSEC
  0
SECTION
  2
BLOCKS
  0
BLOCK
  5
     B
  8
0
  6
CONTINUOUS
 62
     7
  2
*UDIM370
 70
    65
 10
0.0
 20
0.0
 30
0.0
  3
*UDIM370
  0
TEXT
  5
     C
  8
0
  6
CONTINUOUS
 62
     7
 10
-669.480699551296
 20
-122.494887991974
 30
0.0
 40
3.00000002980232
  1
65,75
 50
449.999999896069
 41
0.933333333333333
 72
     1
 11
-670.980699554086
 21
-115.794887922704
 31
0.0
 73
     2
  0
LINE
  5
     D
  8
0
  6
CONTINUOUS
 62
     7
 10
-662.782318376244
 20
-107.53133392334
 30
0.0
 11
-670.480699539185
 21
-107.53133392334
 31
0.0
  0
LINE
  5
     E
  8
0
  6
CONTINUOUS
 62
     7
 10
-668.480699539185
 20
-107.53133392334
 30
0.0
 11
-668.480699539185
 21
-123.96883392334
 31
0.0
  0
LINE
  5
     F
  8
0
  6
CONTINUOUS
 62
     7
 10
-667.959755109233
 20
-110.485757200547
 30
0.0
 11
-668.480699539185
 21
-107.53133392334
 31
0.0
  0
LINE
  5
    10
  8
0
  6
CONTINUOUS
 62
     7
 10
-668.480699539185
 20
-107.53133392334
 30
0.0
 11
-669.001643969136
 21
-110.485757200547
 31
0.0
  0
LINE
  5
    11
  8
0
  6
CONTINUOUS
 62
     7
 10
-669.001643969136
 20
-121.014410646133
 30
0.0
 11
-668.480699539185
 21
-123.96883392334
 31
0.0
  0
LINE
  5
    12
  8
0
  6
CONTINUOUS
 62
     7
 10
-668.480699539185
 20
-123.96883392334
 30
0.0
 11
-667.959755109233
 21
-121.014410646133
 31
0.0
  0
ENDBLK
  5
    13
  8
0
  6
CONTINUOUS
 62
     7
  0
BLOCK
  5
    14
  8
0
  6
CONTINUOUS
 62
     7
  2
*UDIM371
 70
    65
 10
0.0
 20
0.0
 30
0.0
  3
*UDIM371
  0
TEXT
  5
    15
  8
0
  6
CONTINUOUS
 62
     7
 10
-680.015237491144
 20
-155.158304525849
 30
0.0
 40
3.00000002980232
  1
5
 50
395.275203288638
 41
0.933333333333334
 72
     1
 11
-679.98346766755
 21
-153.298468310734
 31
0.0
 73
     2
  0
TEXT
  5
    16
  8
0
  6
CONTINUOUS
 62
     7
 10
-682.586858440121
 20
-156.977443266399
 30
0.0
 40
3.00000002980232
  1
Ø
 50
395.275203288638
 41
0.933333333333334
 72
     1
 11
-682.555088616527
 21
-155.117607051284
 31
0.0
 73
     2
  0
TEXT
  5
    17
  8
0
  6
CONTINUOUS
 62
     7
 10
-677.770171568662
 20
-153.570167507366
 30
0.0
 40
3.00000002980232
  1
 (M4)
 50
395.275203288638
 41
0.933333333333333
 72
     1
 11
-673.166631132261
 21
-148.476306850948
 31
0.0
 73
     2
  0
LINE
  5
    18
  8
0
  6
CONTINUOUS
 62
     7
 10
-658.156261656078
 20
-140.920393698179
 30
0.0
 11
-682.0093540765
 21
-157.793830866731
 31
0.0
  0
LINE
  5
    19
  8
0
  6
CONTINUOUS
 62
     7
 10
-656.045154806351
 20
-138.788908800499
 30
0.0
 11
-658.156261656078
 21
-140.920393698179
 31
0.0
  0
LINE
  5
    1A
  8
0
  6
CONTINUOUS
 62
     7
 10
-658.156261656078
 20
-140.920393698179
 30
0.0
 11
-655.443459446853
 21
-139.639493946589
 31
0.0
  0
LINE
  5
    1B
  8
0
  6
CONTINUOUS
 62
     7
 10
-661.287853006149
 20
-143.773759046181
 30
0.0
 11
-659.176746156422
 21
-141.642274148501
 31
0.0
  0
LINE
  5
    1C
  8
0
  6
CONTINUOUS
 62
     7
 10
-659.176746156422
 20
-141.642274148501
 30
0.0
 11
-661.889548365647
 21
-142.923173900091
 31
0.0
  0
ENDBLK
  5
    1D
  8
0
  6
CONTINUOUS
 62
     7
  0
BLOCK
  5
    1E
  8
0
  6
CONTINUOUS
 62
     7
  2
*UDIM372
 70
    65
 10
0.0
 20
0.0
 30
0.0
  3
*UDIM372
  0
TEXT
  5
    1F
  8
0
  6
CONTINUOUS
 62
     7
 10
-651.191505847108
 20
-114.330659861811
 30
0.0
 40
3.00000002980232
  1
82
 50
359.999999896069
 41
0.933333333333333
 72
     1
 11
-648.691505819559
 21
-112.830659851432
 31
0.0
 73
     2
  0
LINE
  5
    20
  8
0
  6
CONTINUOUS
 62
     7
 10
-638.16650390625
 20
-115.330659866333
 30
0.0
 11
-658.66650390625
 21
-115.330659866333
 31
0.0
  0
LINE
  5
    21
  8
0
  6
CONTINUOUS
 62
     7
 10
-641.120927183457
 20
-115.851604296285
 30
0.0
 11
-638.16650390625
 21
-115.330659866333
 31
0.0
  0
LINE
  5
    22
  8
0
  6
CONTINUOUS
 62
     7
 10
-638.16650390625
 20
-115.330659866333
 30
0.0
 11
-641.120927183457
 21
-114.809715436381
 31
0.0
  0
LINE
  5
    23
  8
0
  6
CONTINUOUS
 62
     7
 10
-655.712080629043
 20
-114.809715436381
 30
0.0
 11
-658.66650390625
 21
-115.330659866333
 31
0.0
  0
LINE
  5
    24
  8
0
  6
CONTINUOUS
 62
     7
 10
-658.66650390625
 20
-115.330659866333
 30
0.0
 11
-655.712080629043
 21
-115.851604296285
 31
0.0
  0
ENDBLK
  5
    25
  8
0
  6
CONTINUOUS
 62
     7
  0
BLOCK
  5
    26
  8
0
  6
CONTINUOUS
 62
     7
  2
*UDIM373
 70
    65
 10
0.0
 20
0.0
 30
0.0
  3
*UDIM373
  0
TEXT
  5
    27
  8
0
  6
CONTINUOUS
 62
     7
 10
-678.530723578827
 20
-128.581335396275
 30
0.0
 40
3.00000002980232
  1
135
 50
449.999999896069
 41
0.933333333333333
 72
     1
 11
-680.030723586679
 21
-124.68133535482
 31
0.0
 73
     2
  0
LINE
  5
    28
  8
0
  6
CONTINUOUS
 62
     7
 10
-662.782318376244
 20
-107.531333609423
 30
0.0
 11
-679.530723571777
 21
-107.531328351823
 31
0.0
  0
LINE
  5
    29
  8
0
  6
CONTINUOUS
 62
     7
 10
-662.918080517778
 20
-141.281333609423
 30
0.0
 11
-679.530723571777
 21
-141.281328394441
 31
0.0
  0
LINE
  5
    2A
  8
0
  6
CONTINUOUS
 62
     7
 10
-677.530723571777
 20
-107.531328979656
 30
0.0
 11
-677.530723571777
 21
-141.281329022274
 31
0.0
  0
LINE
  5
    2B
  8
0
  6
CONTINUOUS
 62
     7
 10
-677.009779141826
 20
-110.485752256863
 30
0.0
 11
-677.530723571777
 21
-107.531328979656
 31
0.0
  0
LINE
  5
    2C
  8
0
  6
CONTINUOUS
 62
     7
 10
-677.530723571777
 20
-107.531328979656
 30
0.0
 11
-678.051668001729
 21
-110.485752256863
 31
0.0
  0
LINE
  5
    2D
  8
0
  6
CONTINUOUS
 62
     7
 10
-678.051668001729
 20
-138.326905745067
 30
0.0
 11
-677.530723571777
 21
-141.281329022274
 31
0.0
  0
LINE
  5
    2E
  8
0
  6
CONTINUOUS
 62
     7
 10
-677.530723571777
 20
-141.281329022274
 30
0.0
 11
-677.009779141826
 21
-138.326905745067
 31
0.0
  0
ENDBLK
  5
    2F
  8
0
  6
CONTINUOUS
 62
     7
  0
BLOCK
  5
    30
  8
0
  6
CONTINUOUS
 62
     7
  2
CS3
 70
    64
 10
0.0
 20
0.0
 30
0.0
  3
CS3
  0
LINE
  5
    31
  8
0
  6
CONTINUOUS
 62
     3
 10
167.338136930918
 20
198.986790288842
 30
0.0
 11
167.338136930918
 21
236.486800032957
 31
0.0
  0
LINE
  5
    32
  8
0
  6
CONTINUOUS
 62
     3
 10
62.3381464817059
 20
198.986821563097
 30
0.0
 11
62.3381464817059
 21
236.486800032957
 31
0.0
  0
LINE
  5
    33
  8
0
  6
CONTINUOUS
 62
     7
 10
63.5881464817059
 20
237.736800032957
 30
0.0
 11
166.088136930918
 21
237.736800032957
 31
0.0
  0
LINE
  5
    34
  8
0
  6
CONTINUOUS
 62
     7
 10
62.3381464817059
 20
200.736800032957
 30
0.0
 11
167.338136930918
 21
200.736800032957
 31
0.0
  0
ARC
  5
    35
  8
0
  6
CONTINUOUS
 62
     7
 10
63.5881464817059
 20
236.486800032957
 30
0.0
 40
1.25
 50
90.0
 51
180.0
  0
ARC
  5
    36
  8
0
  6
CONTINUOUS
 62
     7
 10
166.088136930918
 20
236.486800032957
 30
0.0
 40
1.25
 50
360.0
 51
450.0
  0
LINE
  5
    37
  8
0
  6
CONTINUOUS
 62
     3
 10
65.9881479935403
 20
200.736800032957
 30
0.0
 11
65.9881479935403
 21
237.736800032957
 31
0.0
  0
LINE
  5
    38
  8
0
  6
CONTINUOUS
 62
     3
 10
69.5881483750101
 20
200.736800032957
 30
0.0
 11
69.5881483750101
 21
237.736800032957
 31
0.0
  0
LINE
  5
    39
  8
0
  6
CONTINUOUS
 62
     3
 10
73.1881478028055
 20
200.736800032957
 30
0.0
 11
73.1881478028055
 21
237.736800032957
 31
0.0
  0
LINE
  5
    3A
  8
0
  6
CONTINUOUS
 62
     3
 10
76.7881481842752
 20
200.736800032957
 30
0.0
 11
76.7881481842752
 21
237.736800032957
 31
0.0
  0
LINE
  5
    3B
  8
0
  6
CONTINUOUS
 62
     3
 10
80.3881399826761
 20
200.736800032957
 30
0.0
 11
80.3881399826761
 21
237.736800032957
 31
0.0
  0
LINE
  5
    3C
  8
0
  6
CONTINUOUS
 62
     3
 10
83.9881460861917
 20
200.736800032957
 30
0.0
 11
83.9881460861917
 21
237.736800032957
 31
0.0
  0
LINE
  5
    3D
  8
0
  6
CONTINUOUS
 62
     3
 10
87.5881369309183
 20
200.736800032957
 30
0.0
 11
87.5881369309183
 21
237.736800032957
 31
0.0
  0
LINE
  5
    3E
  8
0
  6
CONTINUOUS
 62
     3
 10
91.1881430344339
 20
200.736800032957
 30
0.0
 11
91.1881430344339
 21
237.736800032957
 31
0.0
  0
LINE
  5
    3F
  8
0
  6
CONTINUOUS
 62
     3
 10
94.7881338791605
 20
200.736800032957
 30
0.0
 11
94.7881338791605
 21
237.736800032957
 31
0.0
  0
LINE
  5
    40
  8
0
  6
CONTINUOUS
 62
     3
 10
98.3881399826761
 20
200.736800032957
 30
0.0
 11
98.3881399826761
 21
237.736800032957
 31
0.0
  0
LINE
  5
    41
  8
0
  6
CONTINUOUS
 62
     3
 10
101.988146086192
 20
200.736800032957
 30
0.0
 11
101.988146086192
 21
237.736800032957
 31
0.0
  0
LINE
  5
    42
  8
0
  6
CONTINUOUS
 62
     3
 10
105.588136930918
 20
200.736800032957
 30
0.0
 11
105.588136930918
 21
237.736800032957
 31
0.0
  0
LINE
  5
    43
  8
0
  6
CONTINUOUS
 62
     3
 10
109.188143034434
 20
200.736800032957
 30
0.0
 11
109.188143034434
 21
237.736800032957
 31
0.0
  0
LINE
  5
    44
  8
0
  6
CONTINUOUS
 62
     3
 10
112.78813387916
 20
200.736800032957
 30
0.0
 11
112.78813387916
 21
237.736800032957
 31
0.0
  0
LINE
  5
    45
  8
0
  6
CONTINUOUS
 62
     3
 10
116.388139982676
 20
200.736800032957
 30
0.0
 11
116.388139982676
 21
237.736800032957
 31
0.0
  0
LINE
  5
    46
  8
0
  6
CONTINUOUS
 62
     3
 10
119.988146086192
 20
200.736800032957
 30
0.0
 11
119.988146086192
 21
237.736800032957
 31
0.0
  0
LINE
  5
    47
  8
0
  6
CONTINUOUS
 62
     3
 10
123.588136930918
 20
200.736800032957
 30
0.0
 11
123.588136930918
 21
237.736800032957
 31
0.0
  0
LINE
  5
    48
  8
0
  6
CONTINUOUS
 62
     3
 10
127.188143034434
 20
200.736800032957
 30
0.0
 11
127.188143034434
 21
237.736800032957
 31
0.0
  0
LINE
  5
    49
  8
0
  6
CONTINUOUS
 62
     3
 10
130.78813387916
 20
200.736800032957
 30
0.0
 11
130.78813387916
 21
237.736800032957
 31
0.0
  0
LINE
  5
    4A
  8
0
  6
CONTINUOUS
 62
     3
 10
134.388139982676
 20
200.736800032957
 30
0.0
 11
134.388139982676
 21
237.736800032957
 31
0.0
  0
LINE
  5
    4B
  8
0
  6
CONTINUOUS
 62
     3
 10
137.988146086192
 20
200.736800032957
 30
0.0
 11
137.988146086192
 21
237.736800032957
 31
0.0
  0
LINE
  5
    4C
  8
0
  6
CONTINUOUS
 62
     3
 10
141.588136930918
 20
200.736800032957
 30
0.0
 11
141.588136930918
 21
237.736800032957
 31
0.0
  0
LINE
  5
    4D
  8
0
  6
CONTINUOUS
 62
     3
 10
145.188143034434
 20
200.736800032957
 30
0.0
 11
145.188143034434
 21
237.736800032957
 31
0.0
  0
LINE
  5
    4E
  8
0
  6
CONTINUOUS
 62
     3
 10
148.78813387916
 20
200.736800032957
 30
0.0
 11
148.78813387916
 21
237.736800032957
 31
0.0
  0
LINE
  5
    4F
  8
0
  6
CONTINUOUS
 62
     3
 10
152.388139982676
 20
200.736800032957
 30
0.0
 11
152.388139982676
 21
237.736800032957
 31
0.0
  0
LINE
  5
    50
  8
0
  6
CONTINUOUS
 62
     3
 10
155.988146086192
 20
200.736800032957
 30
0.0
 11
155.988146086192
 21
237.736800032957
 31
0.0
  0
LINE
  5
    51
  8
0
  6
CONTINUOUS
 62
     3
 10
159.588136930918
 20
200.736800032957
 30
0.0
 11
159.588136930918
 21
237.736800032957
 31
0.0
  0
LINE
  5
    52
  8
0
  6
CONTINUOUS
 62
     3
 10
163.188143034434
 20
200.736800032957
 30
0.0
 11
163.188143034434
 21
237.736800032957
 31
0.0
  0
POINT
  5
    53
  8
0
  6
CONTINUOUS
 62
     7
 10
114.838135984871
 20
200.236800032957
 30
0.0
  0
ENDBLK
  5
    54
  8
0
  6
CONTINUOUS
 62
     7
  0
BLOCK
  5
    55
  8
0
  6
CONTINUOUS
 62
     7
  2
MOSTRA
 70
    64
 10
0.0
 20
0.0
 30
0.0
  3
MOSTRA
  0
LINE
  5
    56
  8
0
  6
CONTINUOUS
 62
     2
 10
175.338317871094
 20
34.312744140625
 30
0.0
 11
210.838317871094
 21
34.312744140625
 31
0.0
  0
LINE
  5
    57
  8
0
  6
CONTINUOUS
 62
     2
 10
175.338317871094
 20
49.312744140625
 30
0.0
 11
210.838317871094
 21
49.312744140625
 31
0.0
  0
LINE
  5
    58
  8
0
  6
CONTINUOUS
 62
     2
 10
210.838317871094
 20
33.312744140625
 30
0.0
 11
210.838317871094
 21
50.312744140625
 31
0.0
  0
LINE
  5
    59
  8
0
  6
CONTINUOUS
 62
     2
 10
175.338317871094
 20
34.312744140625
 30
0.0
 11
175.338317871094
 21
49.312744140625
 31
0.0
  0
LINE
  5
    5A
  8
0
  6
CONTINUOUS
 62
     2
 10
210.838317871094
 20
50.312744140625
 30
0.0
 11
210.838317871094
 21
148.306442260742
 31
0.0
  0
LINE
  5
    5B
  8
0
  6
CONTINUOUS
 62
     2
 10
210.838317871094
 20
-10.187255859375
 30
0.0
 11
210.838317871094
 21
33.3127403259278
 31
0.0
  0
LINE
  5
    5C
  8
0
  6
CONTINUOUS
 62
     2
 10
37.5883140563965
 20
-11.437255859375
 30
0.0
 11
209.588317871094
 21
-11.437255859375
 31
0.0
  0
LINE
  5
    5D
  8
0
  6
CONTINUOUS
 62
     2
 10
36.3383140563965
 20
-10.187255859375
 30
0.0
 11
36.3383140563965
 21
148.306442260742
 31
0.0
  0
LINE
  5
    5E
  8
0
  6
CONTINUOUS
 62
     2
 10
175.338317871094
 20
128.562744140625
 30
0.0
 11
175.338317871094
 21
129.562744140625
 31
0.0
  0
LINE
  5
    5F
  8
0
  6
CONTINUOUS
 62
     2
 10
45.3383140563965
 20
128.562744140625
 30
0.0
 11
45.3383140563965
 21
129.562744140625
 31
0.0
  0
LINE
  5
    60
  8
0
  6
CONTINUOUS
 62
     2
 10
175.338317871094
 20
8.56274414062501
 30
0.0
 11
175.338317871094
 21
9.56274414062501
 31
0.0
  0
LINE
  5
    61
  8
0
  6
CONTINUOUS
 62
     2
 10
46.3383140563965
 20
8.562744140625
 30
0.0
 11
174.338314056396
 21
8.56274414062501
 31
0.0
  0
LINE
  5
    62
  8
0
  6
CONTINUOUS
 62
     2
 10
45.3383140563965
 20
8.562744140625
 30
0.0
 11
45.3383140563965
 21
9.562744140625
 31
0.0
  0
LINE
  5
    63
  8
0
  6
CONTINUOUS
 62
     2
 10
174.338317871094
 20
-11.437255859375
 30
0.0
 11
174.338317871094
 21
8.56274414062501
 31
0.0
  0
LINE
  5
    64
  8
0
  6
CONTINUOUS
 62
     2
 10
175.338317871094
 20
129.562744140625
 30
0.0
 11
175.338317871094
 21
149.562744140625
 31
0.0
  0
LINE
  5
    65
  8
0
  6
CONTINUOUS
 62
     2
 10
175.338317871094
 20
9.56274414062501
 30
0.0
 11
175.338317871094
 21
33.312744140625
 31
0.0
  0
LINE
  5
    66
  8
0
  6
CONTINUOUS
 62
     2
 10
175.338317871094
 20
50.312744140625
 30
0.0
 11
175.338317871094
 21
128.562744140625
 31
0.0
  0
LINE
  5
    67
  8
0
  6
CONTINUOUS
 62
     2
 10
175.338317871094
 20
-11.437255859375
 30
0.0
 11
175.338317871094
 21
8.56274414062501
 31
0.0
  0
LINE
  5
    68
  8
0
  6
CONTINUOUS
 62
     2
 10
45.3383140563965
 20
129.562744140625
 30
0.0
 11
45.3383140563965
 21
149.562744140625
 31
0.0
  0
LINE
  5
    69
  8
0
  6
CONTINUOUS
 62
     2
 10
45.3383140563965
 20
9.562744140625
 30
0.0
 11
45.3383140563965
 21
128.562744140625
 31
0.0
  0
LINE
  5
    6A
  8
0
  6
CONTINUOUS
 62
     2
 10
45.3383140563965
 20
-11.437255859375
 30
0.0
 11
45.3383140563965
 21
8.562744140625
 31
0.0
  0
LINE
  5
    6B
  8
0
  6
CONTINUOUS
 62
     2
 10
46.3383140563965
 20
-11.437255859375
 30
0.0
 11
46.3383140563965
 21
8.562744140625
 31
0.0
  0
LINE
  5
    6C
  8
0
  6
CONTINUOUS
 62
     2
 10
175.338317871094
 20
33.312744140625
 30
0.0
 11
210.838317871094
 21
33.312744140625
 31
0.0
  0
LINE
  5
    6D
  8
0
  6
CONTINUOUS
 62
     2
 10
175.338317871094
 20
50.312744140625
 30
0.0
 11
210.838317871094
 21
50.312744140625
 31
0.0
  0
LINE
  5
    6E
  8
0
  6
CONTINUOUS
 62
     2
 10
175.388320922852
 20
49.312744140625
 30
0.0
 11
175.388320922852
 21
50.312744140625
 31
0.0
  0
LINE
  5
    6F
  8
0
  6
CONTINUOUS
 62
     2
 10
175.388320922852
 20
33.312744140625
 30
0.0
 11
175.388320922852
 21
34.312744140625
 31
0.0
  0
LINE
  5
    70
  8
0
  6
CONTINUOUS
 62
     2
 10
46.3383140563965
 20
128.562744140625
 30
0.0
 11
174.338314056396
 21
128.562744140625
 31
0.0
  0
LINE
  5
    71
  8
0
  6
CONTINUOUS
 62
     2
 10
46.3383140563965
 20
9.562744140625
 30
0.0
 11
174.338314056396
 21
9.56274414062501
 31
0.0
  0
LINE
  5
    72
  8
0
  6
CONTINUOUS
 62
     2
 10
174.338317871094
 20
9.56274414062501
 30
0.0
 11
174.338317871094
 21
128.562744140625
 31
0.0
  0
LINE
  5
    73
  8
0
  6
CONTINUOUS
 62
     2
 10
46.3383140563965
 20
9.562744140625
 30
0.0
 11
46.3383140563965
 21
128.562744140625
 31
0.0
  0
LINE
  5
    74
  8
0
  6
CONTINUOUS
 62
     2
 10
167.338315963745
 20
121.562743016692
 30
0.0
 11
174.338312295455
 21
128.562739348402
 31
0.0
  0
LINE
  5
    75
  8
0
  6
CONTINUOUS
 62
     2
 10
46.3383156391412
 20
128.562746004959
 30
0.0
 11
62.3383159637451
 21
121.033336629486
 31
0.0
  0
LINE
  5
    76
  8
0
  6
CONTINUOUS
 62
     2
 10
167.338315963745
 20
16.5627619426901
 30
0.0
 11
174.338335117812
 21
9.56273924827786
 31
0.0
  0
LINE
  5
    77
  8
0
  6
CONTINUOUS
 62
     2
 10
46.3383186567184
 20
9.56274576222224
 30
0.0
 11
62.3383159637451
 21
17.092157375641
 31
0.0
  0
LINE
  5
    78
  8
0
  6
CONTINUOUS
 62
     2
 10
174.338256835938
 20
129.556442260742
 30
0.0
 11
174.338256835938
 21
149.556442260742
 31
0.0
  0
LINE
  5
    79
  8
0
  6
CONTINUOUS
 62
     2
 10
45.3383140563965
 20
129.556442260742
 30
0.0
 11
175.338317871094
 21
129.556442260742
 31
0.0
  0
LINE
  5
    7A
  8
0
  6
CONTINUOUS
 62
     2
 10
37.5883140563965
 20
149.556442260742
 30
0.0
 11
45.3383140563965
 21
149.556442260742
 31
0.0
  0
LINE
  5
    7B
  8
0
  6
CONTINUOUS
 62
     2
 10
115.343585020102
 20
149.556442260742
 30
0.0
 11
175.338317871094
 21
149.556442260742
 31
0.0
  0
ARC
  5
    7C
  8
0
  6
CONTINUOUS
 62
     2
 10
110.338285446167
 20
153.703627621259
 30
0.0
 40
6.50016693934245
 50
219.643748317915
 51
320.356251682085
  0
LINE
  5
    7D
  8
0
  6
CONTINUOUS
 62
     2
 10
105.332985872232
 20
149.556442260742
 30
0.0
 11
115.343585020102
 21
149.556442260742
 31
0.0
  0
LINE
  5
    7E
  8
0
  6
CONTINUOUS
 62
     2
 10
46.3383140563965
 20
129.562744140625
 30
0.0
 11
46.3383140563965
 21
149.562744140625
 31
0.0
  0
LINE
  5
    7F
  8
0
  6
CONTINUOUS
 62
     2
 10
45.3383140563965
 20
149.556442260742
 30
0.0
 11
105.332985872232
 21
149.556442260742
 31
0.0
  0
LINE
  5
    80
  8
0
  6
CONTINUOUS
 62
     2
 10
175.338317871094
 20
149.556442260742
 30
0.0
 11
209.588317871094
 21
149.556442260742
 31
0.0
  0
POINT
  5
    81
  8
0
  6
CONTINUOUS
 62
     2
 10
114.838315963745
 20
69.062744140625
 30
0.0
  0
ARC
  5
    82
  8
0
  6
CONTINUOUS
 62
     2
 10
37.5883140563965
 20
148.306442260742
 30
0.0
 40
1.25
 50
90.0
 51
180.0
  0
ARC
  5
    83
  8
0
  6
CONTINUOUS
 62
     2
 10
209.588317871094
 20
148.306442260742
 30
0.0
 40
1.25
 50
0.0
 51
90.0
  0
ARC
  5
    84
  8
0
  6
CONTINUOUS
 62
     2
 10
209.588317871094
 20
-10.187255859375
 30
0.0
 40
1.25
 50
270.0
 51
360.0
  0
ARC
  5
    85
  8
0
  6
CONTINUOUS
 62
     2
 10
37.5883140563965
 20
-10.187255859375
 30
0.0
 40
1.25
 50
180.0
 51
270.0
  0
ENDBLK
  5
    86
  8
0
  6
CONTINUOUS
 62
     7
  0
BLOCK
  5
    87
  8
0
  6
CONTINUOUS
 62
     7
  2
*UDIM374
 70
    65
 10
0.0
 20
0.0
 30
0.0
  3
*UDIM374
  0
TEXT
  5
    88
  8
0
  6
CONTINUOUS
 62
     7
 10
-484.775394262766
 20
-89.5959568182493
 30
0.0
 40
2.99999994291904
  1
96
 50
359.999999948034
 41
0.933333333333333
 72
     1
 11
-482.275394308981
 21
-88.0959568490447
 31
0.0
 73
     2
  0
LINE
  5
    89
  8
0
  6
CONTINUOUS
 62
     7
 10
-459.440392522731
 20
-24.139901922624
 30
0.0
 11
-459.440392522731
 21
-92.5959568205042
 31
0.0
  0
LINE
  5
    8A
  8
0
  6
CONTINUOUS
 62
     7
 10
-504.560393304744
 20
-50.5405581216866
 30
0.0
 11
-504.560393304744
 21
-92.5959568205042
 31
0.0
  0
LINE
  5
    8B
  8
0
  6
CONTINUOUS
 62
     7
 10
-459.440392522731
 20
-90.5959568205042
 30
0.0
 11
-504.560393304744
 21
-90.5959568205042
 31
0.0
  0
LINE
  5
    8C
  8
0
  6
CONTINUOUS
 62
     7
 10
-462.394815799938
 20
-91.1169012504558
 30
0.0
 11
-459.440392522731
 21
-90.5959568205042
 31
0.0
  0
LINE
  5
    8D
  8
0
  6
CONTINUOUS
 62
     7
 10
-459.440392522731
 20
-90.5959568205042
 30
0.0
 11
-462.394815799938
 21
-90.0750123905525
 31
0.0
  0
LINE
  5
    8E
  8
0
  6
CONTINUOUS
 62
     7
 10
-501.605970027537
 20
-90.0750123905525
 30
0.0
 11
-504.560393304744
 21
-90.5959568205042
 31
0.0
  0
LINE
  5
    8F
  8
0
  6
CONTINUOUS
 62
     7
 10
-504.560393304744
 20
-90.5959568205042
 30
0.0
 11
-501.605970027537
 21
-91.1169012504558
 31
0.0
  0
ENDBLK
  5
    90
  8
0
  6
CONTINUOUS
 62
     7
  0
BLOCK
  5
    91
  8
0
  6
CONTINUOUS
 62
     7
  2
*UDIM375
 70
    65
 10
0.0
 20
0.0
 30
0.0
  3
*UDIM375
  0
TEXT
  5
    92
  8
0
  6
CONTINUOUS
 62
     7
 10
-528.582891836332
 20
-89.5959568157239
 30
0.0
 40
2.99999994291904
  1
78,5
 50
359.999999948034
 41
0.933333333333333
 72
     1
 11
-523.282891935822
 21
-88.0959568490447
 31
0.0
 73
     2
  0
LINE
  5
    93
  8
0
  6
CONTINUOUS
 62
     7
 10
-541.455394107619
 20
-24.139901922624
 30
0.0
 11
-541.455394107619
 21
-92.5959568205042
 31
0.0
  0
LINE
  5
    94
  8
0
  6
CONTINUOUS
 62
     7
 10
-504.560393304744
 20
-90.5959568205042
 30
0.0
 11
-541.455394107619
 21
-90.5959568205042
 31
0.0
  0
LINE
  5
    95
  8
0
  6
CONTINUOUS
 62
     7
 10
-507.514816581951
 20
-91.1169012504558
 30
0.0
 11
-504.560393304744
 21
-90.5959568205042
 31
0.0
  0
LINE
  5
    96
  8
0
  6
CONTINUOUS
 62
     7
 10
-504.560393304744
 20
-90.5959568205042
 30
0.0
 11
-507.514816581951
 21
-90.0750123905525
 31
0.0
  0
LINE
  5
    97
  8
0
  6
CONTINUOUS
 62
     7
 10
-538.500970830412
 20
-90.0750123905525
 30
0.0
 11
-541.455394107619
 21
-90.5959568205042
 31
0.0
  0
LINE
  5
    98
  8
0
  6
CONTINUOUS
 62
     7
 10
-541.455394107619
 20
-90.5959568205042
 30
0.0
 11
-538.500970830412
 21
-91.1169012504558
 31
0.0
  0
ENDBLK
  5
    99
  8
0
  6
CONTINUOUS
 62
     7
  0
BLOCK
  5
    9A
  8
0
  6
CONTINUOUS
 62
     7
  2
*UDIM376
 70
    65
 10
0.0
 20
0.0
 30
0.0
  3
*UDIM376
  0
TEXT
  5
    9B
  8
0
  6
CONTINUOUS
 62
     7
 10
-547.315582004738
 20
9.93111697937557
 30
0.0
 40
2.99999994291904
  1
161
 50
89.9999999480344
 41
0.933333333333333
 72
     1
 11
-548.815581972666
 21
13.8311169065289
 31
0.0
 73
     2
  0
LINE
  5
    9C
  8
0
  6
CONTINUOUS
 62
     7
 10
-541.867894109109
 20
-23.7274019211339
 30
0.0
 11
-548.315582001206
 21
-23.7274019211339
 31
0.0
  0
LINE
  5
    9D
  8
0
  6
CONTINUOUS
 62
     7
 10
-538.225394118348
 20
51.9396360034018
 30
0.0
 11
-548.315582001206
 21
51.9396360034018
 31
0.0
  0
LINE
  5
    9E
  8
0
  6
CONTINUOUS
 62
     7
 10
-546.315582001206
 20
-23.7274019211339
 30
0.0
 11
-546.315582001206
 21
51.9396360034018
 31
0.0
  0
LINE
  5
    9F
  8
0
  6
CONTINUOUS
 62
     7
 10
-546.836526431158
 20
-20.7729786439269
 30
0.0
 11
-546.315582001206
 21
-23.7274019211339
 31
0.0
  0
LINE
  5
    A0
  8
0
  6
CONTINUOUS
 62
     7
 10
-546.315582001206
 20
-23.7274019211339
 30
0.0
 11
-545.794637571255
 21
-20.7729786439269
 31
0.0
  0
LINE
  5
    A1
  8
0
  6
CONTINUOUS
 62
     7
 10
-545.794637571255
 20
48.9852127261948
 30
0.0
 11
-546.315582001206
 21
51.9396360034018
 31
0.0
  0
LINE
  5
    A2
  8
0
  6
CONTINUOUS
 62
     7
 10
-546.315582001206
 20
51.9396360034018
 30
0.0
 11
-546.836526431158
 21
48.9852127261948
 31
0.0
  0
ENDBLK
  5
    A3
  8
0
  6
CONTINUOUS
 62
     7
  0
BLOCK
  5
    A4
  8
0
  6
CONTINUOUS
 62
     7
  2
*UDIM377
 70
    65
 10
0.0
 20
0.0
 30
0.0
  3
*UDIM377
  0
TEXT
  5
    A5
  8
0
  6
CONTINUOUS
 62
     7
 10
-575.498043709991
 20
9.11006206507242
 30
0.0
 40
2.99999994291904
  1
334
 50
89.9999999480344
 41
0.933333333333333
 72
     1
 11
-576.998043677918
 21
13.0100619922258
 31
0.0
 73
     2
  0
LINE
  5
    A6
  8
0
  6
CONTINUOUS
 62
     7
 10
-529.647888310137
 20
-65.2049089875661
 30
0.0
 11
-576.498043706459
 21
-65.2049089875661
 31
0.0
  0
LINE
  5
    A7
  8
0
  6
CONTINUOUS
 62
     7
 10
-529.647888310137
 20
91.7750332412277
 30
0.0
 11
-576.498043706459
 21
91.7750332412277
 31
0.0
  0
LINE
  5
    A8
  8
0
  6
CONTINUOUS
 62
     7
 10
-574.498043706459
 20
-65.2049089875661
 30
0.0
 11
-574.498043706459
 21
91.7750332412277
 31
0.0
  0
LINE
  5
    A9
  8
0
  6
CONTINUOUS
 62
     7
 10
-575.01898813641
 20
-62.2504857103591
 30
0.0
 11
-574.498043706459
 21
-65.2049089875661
 31
0.0
  0
LINE
  5
    AA
  8
0
  6
CONTINUOUS
 62
     7
 10
-574.498043706459
 20
-65.2049089875661
 30
0.0
 11
-573.977099276507
 21
-62.2504857103591
 31
0.0
  0
LINE
  5
    AB
  8
0
  6
CONTINUOUS
 62
     7
 10
-573.977099276507
 20
88.8206099640207
 30
0.0
 11
-574.498043706459
 21
91.7750332412277
 31
0.0
  0
LINE
  5
    AC
  8
0
  6
CONTINUOUS
 62
     7
 10
-574.498043706459
 20
91.7750332412277
 30
0.0
 11
-575.01898813641
 21
88.8206099640207
 31
0.0
  0
ENDBLK
  5
    AD
  8
0
  6
CONTINUOUS
 62
     7
  0
BLOCK
  5
    AE
  8
0
  6
CONTINUOUS
 62
     7
  2
*UDIM378
 70
    65
 10
0.0
 20
0.0
 30
0.0
  3
*UDIM378
  0
TEXT
  5
    AF
  8
0
  6
CONTINUOUS
 62
     7
 10
-568.355024093851
 20
44.5663119043338
 30
0.0
 40
2.99999994291904
  1
165,25
 50
89.9999999480344
 41
0.933333333333333
 72
     1
 11
-569.855024057974
 21
52.6663117515738
 31
0.0
 73
     2
  0
LINE
  5
    B0
  8
0
  6
CONTINUOUS
 62
     7
 10
-536.990940096737
 20
14.1075979829026
 30
0.0
 11
-569.355024086514
 21
14.1075979829026
 31
0.0
  0
LINE
  5
    B1
  8
0
  6
CONTINUOUS
 62
     7
 10
-529.647888310137
 20
91.7750332412277
 30
0.0
 11
-569.355024086514
 21
91.7750332412277
 31
0.0
  0
LINE
  5
    B2
  8
0
  6
CONTINUOUS
 62
     7
 10
-567.355024086514
 20
14.1075979829026
 30
0.0
 11
-567.355024086514
 21
91.7750332412277
 31
0.0
  0
LINE
  5
    B3
  8
0
  6
CONTINUOUS
 62
     7
 10
-567.875968516466
 20
17.0620212601096
 30
0.0
 11
-567.355024086514
 21
14.1075979829026
 31
0.0
  0
LINE
  5
    B4
  8
0
  6
CONTINUOUS
 62
     7
 10
-567.355024086514
 20
14.1075979829026
 30
0.0
 11
-566.834079656563
 21
17.0620212601096
 31
0.0
  0
LINE
  5
    B5
  8
0
  6
CONTINUOUS
 62
     7
 10
-566.834079656563
 20
88.8206099640207
 30
0.0
 11
-567.355024086514
 21
91.7750332412277
 31
0.0
  0
LINE
  5
    B6
  8
0
  6
CONTINUOUS
 62
     7
 10
-567.355024086514
 20
91.7750332412277
 30
0.0
 11
-567.875968516466
 21
88.8206099640207
 31
0.0
  0
ENDBLK
  5
    B7
  8
0
  6
CONTINUOUS
 62
     7
  0
BLOCK
  5
    B8
  8
0
  6
CONTINUOUS
 62
     7
  2
*UDIM379
 70
    65
 10
0.0
 20
0.0
 30
0.0
  3
*UDIM379
  0
TEXT
  5
    B9
  8
0
  6
CONTINUOUS
 62
     7
 10
-554.198856365092
 20
35.7538119266855
 30
0.0
 40
2.99999994291904
  1
127,75
 50
89.9999999480344
 41
0.933333333333333
 72
     1
 11
-555.698856329215
 21
43.8538117739255
 31
0.0
 73
     2
  0
LINE
  5
    BA
  8
0
  6
CONTINUOUS
 62
     7
 10
-536.990940096737
 20
14.1075979829026
 30
0.0
 11
-555.198856357756
 21
14.1075979829026
 31
0.0
  0
LINE
  5
    BB
  8
0
  6
CONTINUOUS
 62
     7
 10
-529.647885627376
 20
74.1500332859312
 30
0.0
 11
-555.198856357756
 21
74.1500332859312
 31
0.0
  0
LINE
  5
    BC
  8
0
  6
CONTINUOUS
 62
     7
 10
-553.198856357756
 20
14.1075979829026
 30
0.0
 11
-553.198856357756
 21
74.1500332859312
 31
0.0
  0
LINE
  5
    BD
  8
0
  6
CONTINUOUS
 62
     7
 10
-553.719800787708
 20
17.0620212601096
 30
0.0
 11
-553.198856357756
 21
14.1075979829026
 31
0.0
  0
LINE
  5
    BE
  8
0
  6
CONTINUOUS
 62
     7
 10
-553.198856357756
 20
14.1075979829026
 30
0.0
 11
-552.677911927804
 21
17.0620212601096
 31
0.0
  0
LINE
  5
    BF
  8
0
  6
CONTINUOUS
 62
     7
 10
-552.677911927804
 20
71.1956100087242
 30
0.0
 11
-553.198856357756
 21
74.1500332859312
 31
0.0
  0
LINE
  5
    C0
  8
0
  6
CONTINUOUS
 62
     7
 10
-553.198856357756
 20
74.1500332859312
 30
0.0
 11
-553.719800787708
 21
71.1956100087242
 31
0.0
  0
ENDBLK
  5
    C1
  8
0
  6
CONTINUOUS
 62
     7
  0
BLOCK
  5
    C2
  8
0
  6
CONTINUOUS
 62
     7
  2
*UDIM380
 70
    65
 10
0.0
 20
0.0
 30
0.0
  3
*UDIM380
  0
TEXT
  5
    C3
  8
0
  6
CONTINUOUS
 62
     7
 10
-487.595379915276
 20
-80.7295871355375
 30
0.0
 40
2.99999994291904
  1
84
 50
359.999999948034
 41
0.933333333333333
 72
     1
 11
-485.095379961491
 21
-79.2295871663328
 31
0.0
 73
     2
  0
LINE
  5
    C4
  8
0
  6
CONTINUOUS
 62
     7
 10
-465.08036797385
 20
7.58504779549003
 30
0.0
 11
-465.08036797385
 21
-83.7295871377924
 31
0.0
  0
LINE
  5
    C5
  8
0
  6
CONTINUOUS
 62
     7
 10
-504.560393304744
 20
-50.5405581216866
 30
0.0
 11
-504.560393304744
 21
-83.7295871377924
 31
0.0
  0
LINE
  5
    C6
  8
0
  6
CONTINUOUS
 62
     7
 10
-465.08036797385
 20
-81.7295871377924
 30
0.0
 11
-504.560393304744
 21
-81.7295871377924
 31
0.0
  0
LINE
  5
    C7
  8
0
  6
CONTINUOUS
 62
     7
 10
-468.034791251057
 20
-82.250531567744
 30
0.0
 11
-465.08036797385
 21
-81.7295871377924
 31
0.0
  0
LINE
  5
    C8
  8
0
  6
CONTINUOUS
 62
     7
 10
-465.08036797385
 20
-81.7295871377924
 30
0.0
 11
-468.034791251057
 21
-81.2086427078407
 31
0.0
  0
LINE
  5
    C9
  8
0
  6
CONTINUOUS
 62
     7
 10
-501.605970027537
 20
-81.2086427078407
 30
0.0
 11
-504.560393304744
 21
-81.7295871377924
 31
0.0
  0
LINE
  5
    CA
  8
0
  6
CONTINUOUS
 62
     7
 10
-504.560393304744
 20
-81.7295871377924
 30
0.0
 11
-501.605970027537
 21
-82.250531567744
 31
0.0
  0
ENDBLK
  5
    CB
  8
0
  6
CONTINUOUS
 62
     7
  0
BLOCK
  5
    CC
  8
0
  6
CONTINUOUS
 62
     7
  2
*UDIM381
 70
    65
 10
0.0
 20
0.0
 30
0.0
  3
*UDIM381
  0
TEXT
  5
    CD
  8
0
  6
CONTINUOUS
 62
     7
 10
-499.110401423207
 20
-72.8379102146357
 30
0.0
 40
2.99999994291904
  1
35
 50
359.999999948034
 41
0.933333333333333
 72
     1
 11
-496.610401469422
 21
-71.3379102454311
 31
0.0
 73
     2
  0
LINE
  5
    CE
  8
0
  6
CONTINUOUS
 62
     7
 10
-488.110392756091
 20
-57.556960508353
 30
0.0
 11
-488.110400398956
 21
-75.8379102168904
 31
0.0
  0
LINE
  5
    CF
  8
0
  6
CONTINUOUS
 62
     7
 10
-504.560393722822
 20
-57.5569474466435
 30
0.0
 11
-504.560401365684
 21
-75.8379102168904
 31
0.0
  0
LINE
  5
    D0
  8
0
  6
CONTINUOUS
 62
     7
 10
-488.1103995628
 20
-73.8379102168906
 30
0.0
 11
-504.560400529529
 21
-73.8379102168906
 31
0.0
  0
LINE
  5
    D1
  8
0
  6
CONTINUOUS
 62
     7
 10
-491.064822840007
 20
-74.3588546468423
 30
0.0
 11
-488.1103995628
 21
-73.8379102168906
 31
0.0
  0
LINE
  5
    D2
  8
0
  6
CONTINUOUS
 62
     7
 10
-488.1103995628
 20
-73.8379102168906
 30
0.0
 11
-491.064822840007
 21
-73.3169657869389
 31
0.0
  0
LINE
  5
    D3
  8
0
  6
CONTINUOUS
 62
     7
 10
-501.605977252322
 20
-73.3169657869389
 30
0.0
 11
-504.560400529529
 21
-73.8379102168906
 31
0.0
  0
LINE
  5
    D4
  8
0
  6
CONTINUOUS
 62
     7
 10
-504.560400529529
 20
-73.8379102168906
 30
0.0
 11
-501.605977252322
 21
-74.3588546468423
 31
0.0
  0
ENDBLK
  5
    D5
  8
0
  6
CONTINUOUS
 62
     7
  0
BLOCK
  5
    D6
  8
0
  6
CONTINUOUS
 62
     7
  2
*UDIM382
 70
    65
 10
0.0
 20
0.0
 30
0.0
  3
*UDIM382
  0
TEXT
  5
    D7
  8
0
  6
CONTINUOUS
 62
     7
 10
-515.56040137293
 20
-72.8379102146357
 30
0.0
 40
2.99999994291904
  1
35
 50
359.999999948034
 41
0.933333333333333
 72
     1
 11
-513.060401419144
 21
-71.3379102454311
 31
0.0
 73
     2
  0
LINE
  5
    D8
  8
0
  6
CONTINUOUS
 62
     7
 10
-521.010387483511
 20
-57.5569126117637
 30
0.0
 11
-521.010397662369
 21
-75.8379102168903
 31
0.0
  0
LINE
  5
    D9
  8
0
  6
CONTINUOUS
 62
     7
 10
-504.560400529529
 20
-73.8379102168906
 30
0.0
 11
-521.010396548769
 21
-73.8379102168906
 31
0.0
  0
LINE
  5
    DA
  8
0
  6
CONTINUOUS
 62
     7
 10
-507.514823806736
 20
-74.3588546468423
 30
0.0
 11
-504.560400529529
 21
-73.8379102168906
 31
0.0
  0
LINE
  5
    DB
  8
0
  6
CONTINUOUS
 62
     7
 10
-504.560400529529
 20
-73.8379102168906
 30
0.0
 11
-507.514823806736
 21
-73.3169657869389
 31
0.0
  0
LINE
  5
    DC
  8
0
  6
CONTINUOUS
 62
     7
 10
-518.055973271562
 20
-73.3169657869389
 30
0.0
 11
-521.010396548769
 21
-73.8379102168906
 31
0.0
  0
LINE
  5
    DD
  8
0
  6
CONTINUOUS
 62
     7
 10
-521.010396548769
 20
-73.8379102168906
 30
0.0
 11
-518.055973271562
 21
-74.3588546468423
 31
0.0
  0
ENDBLK
  5
    DE
  8
0
  6
CONTINUOUS
 62
     7
  0
BLOCK
  5
    DF
  8
0
  6
CONTINUOUS
 62
     7
  2
*UDIM383
 70
    65
 10
0.0
 20
0.0
 30
0.0
  3
*UDIM383
  0
TEXT
  5
    E0
  8
0
  6
CONTINUOUS
 62
     7
 10
-560.952257525857
 20
3.42746609395377
 30
0.0
 40
2.99999994291904
  1
259
 50
89.9999999480344
 41
0.933333333333333
 72
     1
 11
-562.452257493784
 21
7.3274660211071
 31
0.0
 73
     2
  0
LINE
  5
    E1
  8
0
  6
CONTINUOUS
 62
     7
 10
-529.647901457113
 20
-47.5799090322696
 30
0.0
 11
-561.952257522325
 21
-47.5799090322696
 31
0.0
  0
LINE
  5
    E2
  8
0
  6
CONTINUOUS
 62
     7
 10
-529.647885627376
 20
74.1500332859312
 30
0.0
 11
-561.952257522325
 21
74.1500332859312
 31
0.0
  0
LINE
  5
    E3
  8
0
  6
CONTINUOUS
 62
     7
 10
-559.952257522325
 20
-47.5799090322696
 30
0.0
 11
-559.952257522325
 21
74.1500332859312
 31
0.0
  0
LINE
  5
    E4
  8
0
  6
CONTINUOUS
 62
     7
 10
-560.473201952276
 20
-44.6254857550626
 30
0.0
 11
-559.952257522325
 21
-47.5799090322696
 31
0.0
  0
LINE
  5
    E5
  8
0
  6
CONTINUOUS
 62
     7
 10
-559.952257522325
 20
-47.5799090322696
 30
0.0
 11
-559.431313092373
 21
-44.6254857550626
 31
0.0
  0
LINE
  5
    E6
  8
0
  6
CONTINUOUS
 62
     7
 10
-559.431313092373
 20
71.1956100087242
 30
0.0
 11
-559.952257522325
 21
74.1500332859312
 31
0.0
  0
LINE
  5
    E7
  8
0
  6
CONTINUOUS
 62
     7
 10
-559.952257522325
 20
74.1500332859312
 30
0.0
 11
-560.473201952276
 21
71.1956100087242
 31
0.0
  0
ENDBLK
  5
    E8
  8
0
  6
CONTINUOUS
 62
     7
  0
BLOCK
  5
    E9
  8
0
  6
CONTINUOUS
 62
     7
  2
*UDIM384
 70
    65
 10
0.0
 20
0.0
 30
0.0
  3
*UDIM384
  0
TEXT
  5
    EA
  8
0
  6
CONTINUOUS
 62
     7
 10
-508.735360765147
 20
98.935306361445
 30
0.0
 40
2.99999994291904
  1
105
 50
359.999999948034
 41
0.933333333333333
 72
     1
 11
-504.835360837999
 21
100.435306329387
 31
0.0
 73
     2
  0
LINE
  5
    EB
  8
0
  6
CONTINUOUS
 62
     7
 10
-479.885371379529
 20
62.4600763479029
 30
0.0
 11
-479.885359615437
 21
99.9353063579273
 31
0.0
  0
LINE
  5
    EC
  8
0
  6
CONTINUOUS
 62
     7
 10
-529.2353424859
 20
62.4600763479029
 30
0.0
 11
-529.235327651249
 21
99.9353063579273
 31
0.0
  0
LINE
  5
    ED
  8
0
  6
CONTINUOUS
 62
     7
 10
-479.88536024327
 20
97.9353063579274
 30
0.0
 11
-529.235328442953
 21
97.9353063579274
 31
0.0
  0
LINE
  5
    EE
  8
0
  6
CONTINUOUS
 62
     7
 10
-482.839783520477
 20
97.4143619279757
 30
0.0
 11
-479.88536024327
 21
97.9353063579274
 31
0.0
  0
LINE
  5
    EF
  8
0
  6
CONTINUOUS
 62
     7
 10
-479.88536024327
 20
97.9353063579274
 30
0.0
 11
-482.839783520477
 21
98.4562507878791
 31
0.0
  0
LINE
  5
    F0
  8
0
  6
CONTINUOUS
 62
     7
 10
-526.280905165746
 20
98.4562507878791
 30
0.0
 11
-529.235328442953
 21
97.9353063579274
 31
0.0
  0
LINE
  5
    F1
  8
0
  6
CONTINUOUS
 62
     7
 10
-529.235328442953
 20
97.9353063579274
 30
0.0
 11
-526.280905165746
 21
97.4143619279757
 31
0.0
  0
ENDBLK
  5
    F2
  8
0
  6
CONTINUOUS
 62
     7
  0
BLOCK
  5
    F3
  8
0
  6
CONTINUOUS
 62
     7
  2
*HATCH89
 70
    65
 10
0.0
 20
0.0
 30
0.0
  3
*HATCH89
  0
LINE
  5
    F4
  8
0
  6
CONTINUOUS
 62
    52
 10
187.992431640625
 20
39.5
 30
0.0
 11
185.992431640625
 21
37.5
 31
0.0
  0
LINE
  5
    F5
  8
0
  6
CONTINUOUS
 62
    52
 10
192.235076904297
 20
39.5
 30
0.0
 11
190.235076904297
 21
37.5
 31
0.0
  0
LINE
  5
    F6
  8
0
  6
CONTINUOUS
 62
    52
 10
196.477722167969
 20
39.5
 30
0.0
 11
194.477722167969
 21
37.5
 31
0.0
  0
LINE
  5
    F7
  8
0
  6
CONTINUOUS
 62
    52
 10
200.720367431641
 20
39.5
 30
0.0
 11
198.720367431641
 21
37.5
 31
0.0
  0
LINE
  5
    F8
  8
0
  6
CONTINUOUS
 62
    52
 10
204.963012695313
 20
39.5
 30
0.0
 11
202.963012695313
 21
37.5
 31
0.0
  0
LINE
  5
    F9
  8
0
  6
CONTINUOUS
 62
    52
 10
209.205657958984
 20
39.5
 30
0.0
 11
207.205657958984
 21
37.5
 31
0.0
  0
LINE
  5
    FA
  8
0
  6
CONTINUOUS
 62
    52
 10
213.448303222656
 20
39.5
 30
0.0
 11
211.448303222656
 21
37.5
 31
0.0
  0
LINE
  5
    FB
  8
0
  6
CONTINUOUS
 62
    52
 10
217.690948486328
 20
39.5
 30
0.0
 11
215.690948486328
 21
37.5
 31
0.0
  0
LINE
  5
    FC
  8
0
  6
CONTINUOUS
 62
    52
 10
221.93359375
 20
39.5
 30
0.0
 11
219.93359375
 21
37.5
 31
0.0
  0
LINE
  5
    FD
  8
0
  6
CONTINUOUS
 62
    52
 10
226.176239013672
 20
39.5
 30
0.0
 11
224.176239013672
 21
37.5
 31
0.0
  0
LINE
  5
    FE
  8
0
  6
CONTINUOUS
 62
    52
 10
229.369522094727
 20
38.4506874084473
 30
0.0
 11
228.418838500977
 21
37.5
 31
0.0
  0
ENDBLK
  5
    FF
  8
0
  6
CONTINUOUS
 62
     7
  0
BLOCK
  5
   100
  8
0
  6
CONTINUOUS
 62
     7
  2
*HATCH90
 70
    65
 10
0.0
 20
0.0
 30
0.0
  3
*HATCH90
  0
LINE
  5
   101
  8
0
  6
CONTINUOUS
 62
    52
 10
115.867530822754
 20
39.4999961853027
 30
0.0
 11
113.867530822754
 21
37.4999961853027
 31
0.0
  0
LINE
  5
   102
  8
0
  6
CONTINUOUS
 62
    52
 10
120.110176086426
 20
39.4999961853027
 30
0.0
 11
118.110176086426
 21
37.4999961853027
 31
0.0
  0
LINE
  5
   103
  8
0
  6
CONTINUOUS
 62
    52
 10
124.352821350098
 20
39.4999961853027
 30
0.0
 11
122.352821350098
 21
37.4999961853027
 31
0.0
  0
LINE
  5
   104
  8
0
  6
CONTINUOUS
 62
    52
 10
128.595458984375
 20
39.4999961853027
 30
0.0
 11
126.59546661377
 21
37.4999961853027
 31
0.0
  0
LINE
  5
   105
  8
0
  6
CONTINUOUS
 62
    52
 10
132.838104248047
 20
39.4999961853027
 30
0.0
 11
130.838104248047
 21
37.4999961853027
 31
0.0
  0
LINE
  5
   106
  8
0
  6
CONTINUOUS
 62
    52
 10
137.080749511719
 20
39.4999961853027
 30
0.0
 11
135.080749511719
 21
37.4999961853027
 31
0.0
  0
LINE
  5
   107
  8
0
  6
CONTINUOUS
 62
    52
 10
141.323394775391
 20
39.4999961853027
 30
0.0
 11
139.323394775391
 21
37.4999961853027
 31
0.0
  0
LINE
  5
   108
  8
0
  6
CONTINUOUS
 62
    52
 10
145.566040039063
 20
39.4999961853027
 30
0.0
 11
143.566040039063
 21
37.4999961853027
 31
0.0
  0
LINE
  5
   109
  8
0
  6
CONTINUOUS
 62
    52
 10
149.808685302734
 20
39.4999961853027
 30
0.0
 11
147.808685302734
 21
37.4999961853027
 31
0.0
  0
LINE
  5
   10A
  8
0
  6
CONTINUOUS
 62
    52
 10
154.051330566406
 20
39.4999961853027
 30
0.0
 11
152.051330566406
 21
37.4999961853027
 31
0.0
  0
LINE
  5
   10B
  8
0
  6
CONTINUOUS
 62
    52
 10
158.293975830078
 20
39.4999961853027
 30
0.0
 11
156.293975830078
 21
37.4999961853027
 31
0.0
  0
LINE
  5
   10C
  8
0
  6
CONTINUOUS
 62
    52
 10
162.53662109375
 20
39.4999961853027
 30
0.0
 11
160.53662109375
 21
37.4999961853027
 31
0.0
  0
LINE
  5
   10D
  8
0
  6
CONTINUOUS
 62
    52
 10
166.779266357422
 20
39.4999961853027
 30
0.0
 11
164.779266357422
 21
37.4999961853027
 31
0.0
  0
LINE
  5
   10E
  8
0
  6
CONTINUOUS
 62
    52
 10
171.021911621094
 20
39.4999961853027
 30
0.0
 11
169.021911621094
 21
37.4999961853027
 31
0.0
  0
LINE
  5
   10F
  8
0
  6
CONTINUOUS
 62
    52
 10
175.264556884766
 20
39.4999961853027
 30
0.0
 11
173.264556884766
 21
37.4999961853027
 31
0.0
  0
ENDBLK
  5
   110
  8
0
  6
CONTINUOUS
 62
     7
  0
BLOCK
  5
   111
  8
0
  6
CONTINUOUS
 62
     7
  2
*HATCH91
 70
    65
 10
0.0
 20
0.0
 30
0.0
  3
*HATCH91
  0
LINE
  5
   112
  8
0
  6
CONTINUOUS
 62
    52
 10
92.5330123901367
 20
39.4999961853027
 30
0.0
 11
90.5330123901367
 21
37.4999961853027
 31
0.0
  0
LINE
  5
   113
  8
0
  6
CONTINUOUS
 62
    52
 10
96.7756576538086
 20
39.4999961853027
 30
0.0
 11
94.7756576538086
 21
37.4999961853027
 31
0.0
  0
LINE
  5
   114
  8
0
  6
CONTINUOUS
 62
    52
 10
101.01830291748
 20
39.4999961853027
 30
0.0
 11
99.0183029174805
 21
37.4999961853027
 31
0.0
  0
LINE
  5
   115
  8
0
  6
CONTINUOUS
 62
    52
 10
105.260948181152
 20
39.4999961853027
 30
0.0
 11
103.260948181152
 21
37.4999961853027
 31
0.0
  0
ENDBLK
  5
   116
  8
0
  6
CONTINUOUS
 62
     7
  0
BLOCK
  5
   117
  8
0
  6
CONTINUOUS
 62
     7
  2
*HATCH92
 70
    65
 10
0.0
 20
0.0
 30
0.0
  3
*HATCH92
  0
LINE
  5
   118
  8
0
  6
CONTINUOUS
 62
    52
 10
45.8639602661133
 20
39.4999961853027
 30
0.0
 11
43.8639640808105
 21
37.5
 31
0.0
  0
LINE
  5
   119
  8
0
  6
CONTINUOUS
 62
    52
 10
50.1065979003906
 20
39.4999961853027
 30
0.0
 11
48.1066017150879
 21
37.5
 31
0.0
  0
LINE
  5
   11A
  8
0
  6
CONTINUOUS
 62
    52
 10
54.349235534668
 20
39.4999961853027
 30
0.0
 11
52.3492393493652
 21
37.5
 31
0.0
  0
LINE
  5
   11B
  8
0
  6
CONTINUOUS
 62
    52
 10
58.5918731689453
 20
39.4999961853027
 30
0.0
 11
56.5918769836426
 21
37.5
 31
0.0
  0
LINE
  5
   11C
  8
0
  6
CONTINUOUS
 62
    52
 10
62.8345108032227
 20
39.4999961853027
 30
0.0
 11
60.8345146179199
 21
37.5
 31
0.0
  0
LINE
  5
   11D
  8
0
  6
CONTINUOUS
 62
    52
 10
67.0771560668945
 20
39.4999961853027
 30
0.0
 11
65.0771560668945
 21
37.5
 31
0.0
  0
LINE
  5
   11E
  8
0
  6
CONTINUOUS
 62
    52
 10
71.3198013305664
 20
39.4999961853027
 30
0.0
 11
69.3198013305664
 21
37.5
 31
0.0
  0
LINE
  5
   11F
  8
0
  6
CONTINUOUS
 62
    52
 10
75.2370758056641
 20
39.1746253967285
 30
0.0
 11
73.5624465942383
 21
37.4999961853027
 31
0.0
  0
ENDBLK
  5
   120
  8
0
  6
CONTINUOUS
 62
     7
  0
BLOCK
  5
   121
  8
0
  6
CONTINUOUS
 62
     7
  2
*HATCH93
 70
    65
 10
0.0
 20
0.0
 30
0.0
  3
*HATCH93
  0
LINE
  5
   122
  8
0
  6
CONTINUOUS
 62
    52
 10
-34.7462120056152
 20
39.5
 30
0.0
 11
-36.7462120056152
 21
37.5
 31
0.0
  0
LINE
  5
   123
  8
0
  6
CONTINUOUS
 62
    52
 10
-30.5035724639893
 20
39.5
 30
0.0
 11
-32.5035743713379
 21
37.5
 31
0.0
  0
LINE
  5
   124
  8
0
  6
CONTINUOUS
 62
    52
 10
-26.2609310150147
 20
39.5
 30
0.0
 11
-28.2609329223633
 21
37.5
 31
0.0
  0
LINE
  5
   125
  8
0
  6
CONTINUOUS
 62
    52
 10
-22.01828956604
 20
39.5
 30
0.0
 11
-24.0182914733887
 21
37.5
 31
0.0
  0
LINE
  5
   126
  8
0
  6
CONTINUOUS
 62
    52
 10
-17.7756481170654
 20
39.5
 30
0.0
 11
-19.7756500244141
 21
37.5
 31
0.0
  0
LINE
  5
   127
  8
0
  6
CONTINUOUS
 62
    52
 10
-13.5330066680908
 20
39.5
 30
0.0
 11
-15.5330085754395
 21
37.5
 31
0.0
  0
LINE
  5
   128
  8
0
  6
CONTINUOUS
 62
    52
 10
-9.29036521911621
 20
39.5
 30
0.0
 11
-11.2903671264648
 21
37.5
 31
0.0
  0
LINE
  5
   129
  8
0
  6
CONTINUOUS
 62
    52
 10
-5.0477237701416
 20
39.5
 30
0.0
 11
-7.04772567749023
 21
37.5
 31
0.0
  0
LINE
  5
   12A
  8
0
  6
CONTINUOUS
 62
    52
 10
-0.80508279800415
 20
39.5
 30
0.0
 11
-2.8050844669342
 21
37.5
 31
0.0
  0
LINE
  5
   12B
  8
0
  6
CONTINUOUS
 62
    52
 10
3.4375581741333
 20
39.5
 30
0.0
 11
1.43755650520325
 21
37.5
 31
0.0
  0
LINE
  5
   12C
  8
0
  6
CONTINUOUS
 62
    52
 10
7.68019962310791
 20
39.5
 30
0.0
 11
5.68019771575928
 21
37.5
 31
0.0
  0
LINE
  5
   12D
  8
0
  6
CONTINUOUS
 62
    52
 10
11.9228410720825
 20
39.5
 30
0.0
 11
9.92283916473389
 21
37.5
 31
0.0
  0
LINE
  5
   12E
  8
0
  6
CONTINUOUS
 62
    52
 10
16.1654815673828
 20
39.5
 30
0.0
 11
14.1654806137085
 21
37.5
 31
0.0
  0
LINE
  5
   12F
  8
0
  6
CONTINUOUS
 62
    52
 10
20.4081230163574
 20
39.5
 30
0.0
 11
18.4081211090088
 21
37.5
 31
0.0
  0
LINE
  5
   130
  8
0
  6
CONTINUOUS
 62
    52
 10
24.650764465332
 20
39.5
 30
0.0
 11
22.6507625579834
 21
37.5
 31
0.0
  0
LINE
  5
   131
  8
0
  6
CONTINUOUS
 62
    52
 10
28.8934059143066
 20
39.5
 30
0.0
 11
26.893404006958
 21
37.5
 31
0.0
  0
LINE
  5
   132
  8
0
  6
CONTINUOUS
 62
    52
 10
33.1360473632813
 20
39.5
 30
0.0
 11
31.1360454559326
 21
37.5
 31
0.0
  0
LINE
  5
   133
  8
0
  6
CONTINUOUS
 62
    52
 10
35.486873626709
 20
37.6081924438477
 30
0.0
 11
35.3786811828613
 21
37.5
 31
0.0
  0
ENDBLK
  5
   134
  8
0
  6
CONTINUOUS
 62
     7
  0
BLOCK
  5
   135
  8
0
  6
CONTINUOUS
 62
     7
  2
*HATCH94
 70
    65
 10
0.0
 20
0.0
 30
0.0
  3
*HATCH94
  0
LINE
  5
   136
  8
0
  6
CONTINUOUS
 62
    52
 10
166.264526367187
 20
30.5000076293945
 30
0.0
 11
163.987060546875
 21
28.2225513458252
 31
0.0
  0
LINE
  5
   137
  8
0
  6
CONTINUOUS
 62
    52
 10
170.50715637207
 20
30.5000076293945
 30
0.0
 11
168.00715637207
 21
28.0000019073486
 31
0.0
  0
LINE
  5
   138
  8
0
  6
CONTINUOUS
 62
    52
 10
172.987060546875
 20
28.7372703552246
 30
0.0
 11
172.249786376953
 21
28.0000019073486
 31
0.0
  0
ENDBLK
  5
   139
  8
0
  6
CONTINUOUS
 62
     7
  0
BLOCK
  5
   13A
  8
0
  6
CONTINUOUS
 62
     7
  2
*HATCH95
 70
    65
 10
0.0
 20
0.0
 30
0.0
  3
*HATCH95
  0
LINE
  5
   13B
  8
0
  6
CONTINUOUS
 62
     3
 10
-121.412033081055
 20
246.63703918457
 30
0.0
 11
-121.499938964844
 21
246.549133300781
 31
0.0
  0
LINE
  5
   13C
  8
0
  6
CONTINUOUS
 62
     3
 10
-120.351371765137
 20
246.63703918457
 30
0.0
 11
-121.499938964844
 21
245.488479614258
 31
0.0
  0
LINE
  5
   13D
  8
0
  6
CONTINUOUS
 62
     3
 10
-119.290710449219
 20
246.63703918457
 30
0.0
 11
-121.499938964844
 21
244.427825927734
 31
0.0
  0
LINE
  5
   13E
  8
0
  6
CONTINUOUS
 62
     3
 10
-118.230049133301
 20
246.63703918457
 30
0.0
 11
-121.499938964844
 21
243.367172241211
 31
0.0
  0
LINE
  5
   13F
  8
0
  6
CONTINUOUS
 62
     3
 10
-117.169387817383
 20
246.63703918457
 30
0.0
 11
-120.502685546875
 21
243.303741455078
 31
0.0
  0
LINE
  5
   140
  8
0
  6
CONTINUOUS
 62
     3
 10
-116.499938964844
 20
246.245834350586
 30
0.0
 11
-119.442024230957
 21
243.303741455078
 31
0.0
  0
LINE
  5
   141
  8
0
  6
CONTINUOUS
 62
     3
 10
-116.499938964844
 20
245.185180664063
 30
0.0
 11
-118.381362915039
 21
243.303741455078
 31
0.0
  0
LINE
  5
   142
  8
0
  6
CONTINUOUS
 62
     3
 10
-116.499938964844
 20
244.124526977539
 30
0.0
 11
-117.320701599121
 21
243.303741455078
 31
0.0
  0
ENDBLK
  5
   143
  8
0
  6
CONTINUOUS
 62
     7
  0
BLOCK
  5
   144
  8
0
  6
CONTINUOUS
 62
     7
  2
*HATCH96
 70
    65
 10
0.0
 20
0.0
 30
0.0
  3
*HATCH96
  0
LINE
  5
   145
  8
0
  6
CONTINUOUS
 62
     3
 10
-121.100608825684
 20
260.737060546875
 30
0.0
 11
-121.499938964844
 21
260.337707519531
 31
0.0
  0
LINE
  5
   146
  8
0
  6
CONTINUOUS
 62
     3
 10
-120.039947509766
 20
260.737060546875
 30
0.0
 11
-121.499938964844
 21
259.277038574219
 31
0.0
  0
LINE
  5
   147
  8
0
  6
CONTINUOUS
 62
     3
 10
-118.979286193848
 20
260.737060546875
 30
0.0
 11
-121.499938964844
 21
258.216369628906
 31
0.0
  0
LINE
  5
   148
  8
0
  6
CONTINUOUS
 62
     3
 10
-117.91862487793
 20
260.737060546875
 30
0.0
 11
-121.499938964844
 21
257.155700683594
 31
0.0
  0
LINE
  5
   149
  8
0
  6
CONTINUOUS
 62
     3
 10
-116.857963562012
 20
260.737060546875
 30
0.0
 11
-121.499938964844
 21
256.095031738281
 31
0.0
  0
LINE
  5
   14A
  8
0
  6
CONTINUOUS
 62
     3
 10
-116.499938964844
 20
260.034423828125
 30
0.0
 11
-121.499938964844
 21
255.034423828125
 31
0.0
  0
LINE
  5
   14B
  8
0
  6
CONTINUOUS
 62
     3
 10
-116.499938964844
 20
258.973754882813
 30
0.0
 11
-120.636650085449
 21
254.837051391602
 31
0.0
  0
LINE
  5
   14C
  8
0
  6
CONTINUOUS
 62
     3
 10
-116.499938964844
 20
257.9130859375
 30
0.0
 11
-119.575988769531
 21
254.837051391602
 31
0.0
  0
LINE
  5
   14D
  8
0
  6
CONTINUOUS
 62
     3
 10
-116.499938964844
 20
256.852416992188
 30
0.0
 11
-118.515327453613
 21
254.837051391602
 31
0.0
  0
LINE
  5
   14E
  8
0
  6
CONTINUOUS
 62
     3
 10
-116.499938964844
 20
255.791763305664
 30
0.0
 11
-117.454666137695
 21
254.837051391602
 31
0.0
  0
ENDBLK
  5
   14F
  8
0
  6
CONTINUOUS
 62
     7
  0
BLOCK
  5
   150
  8
0
  6
CONTINUOUS
 62
     7
  2
*HATCH97
 70
    65
 10
0.0
 20
0.0
 30
0.0
  3
*HATCH97
  0
LINE
  5
   151
  8
0
  6
CONTINUOUS
 62
    92
 10
-123.999938964844
 20
242.79411315918
 30
0.0
 11
-121.942878723145
 21
240.737045288086
 31
0.0
  0
LINE
  5
   152
  8
0
  6
CONTINUOUS
 62
    92
 10
-123.950218200684
 20
246.987030029297
 30
0.0
 11
-121.499938964844
 21
244.536743164063
 31
0.0
  0
LINE
  5
   153
  8
0
  6
CONTINUOUS
 62
    92
 10
-121.881660461426
 20
249.161117553711
 30
0.0
 11
-119.857330322266
 21
247.136779785156
 31
0.0
  0
LINE
  5
   154
  8
0
  6
CONTINUOUS
 62
    92
 10
-123.999931335449
 20
255.522033691406
 30
0.0
 11
-117.816787719727
 21
249.338882446289
 31
0.0
  0
LINE
  5
   155
  8
0
  6
CONTINUOUS
 62
    92
 10
-123.999938964844
 20
259.764678955078
 30
0.0
 11
-121.499938964844
 21
257.264678955078
 31
0.0
  0
ENDBLK
  5
   156
  8
0
  6
CONTINUOUS
 62
     7
  0
BLOCK
  5
   157
  8
0
  6
CONTINUOUS
 62
     7
  2
*HATCH98
 70
    65
 10
0.0
 20
0.0
 30
0.0
  3
*HATCH98
  0
LINE
  5
   158
  8
0
  6
CONTINUOUS
 62
    92
 10
-103.34171295166
 20
256.076995849609
 30
0.0
 11
-101.001762390137
 21
253.737045288086
 31
0.0
  0
LINE
  5
   159
  8
0
  6
CONTINUOUS
 62
    92
 10
-102.259117126465
 20
259.237030029297
 30
0.0
 11
-100.666091918945
 21
257.644012451172
 31
0.0
  0
ENDBLK
  5
   15A
  8
0
  6
CONTINUOUS
 62
     7
  0
BLOCK
  5
   15B
  8
0
  6
CONTINUOUS
 62
     7
  2
*HATCH99
 70
    65
 10
0.0
 20
0.0
 30
0.0
  3
*HATCH99
  0
LINE
  5
   15C
  8
0
  6
CONTINUOUS
 62
    92
 10
-103.099937438965
 20
243.107299804688
 30
0.0
 11
-102.229690551758
 21
242.237045288086
 31
0.0
  0
LINE
  5
   15D
  8
0
  6
CONTINUOUS
 62
    92
 10
-102.970420837402
 20
247.220413208008
 30
0.0
 11
-100.968627929688
 21
245.218627929688
 31
0.0
  0
LINE
  5
   15E
  8
0
  6
CONTINUOUS
 62
    92
 10
-99.2444076538086
 20
247.737045288086
 30
0.0
 11
-99.0999374389649
 21
247.592575073242
 31
0.0
  0
ENDBLK
  5
   15F
  8
0
  6
CONTINUOUS
 62
     7
  0
BLOCK
  5
   160
  8
0
  6
CONTINUOUS
 62
     7
  2
*HATCH100
 70
    65
 10
0.0
 20
0.0
 30
0.0
  3
*HATCH100
  0
LINE
  5
   161
  8
0
  6
CONTINUOUS
 62
    92
 10
-95.9999389648438
 20
257.220489501953
 30
0.0
 11
-95.2582092285156
 21
256.478759765625
 31
0.0
  0
LINE
  5
   162
  8
0
  6
CONTINUOUS
 62
    92
 10
-95.2738342285156
 20
260.737060546875
 30
0.0
 11
-91.9999389648438
 21
257.463134765625
 31
0.0
  0
ENDBLK
  5
   163
  8
0
  6
CONTINUOUS
 62
     7
  0
BLOCK
  5
   164
  8
0
  6
CONTINUOUS
 62
     7
  2
*HATCH101
 70
    65
 10
0.0
 20
0.0
 30
0.0
  3
*HATCH101
  0
LINE
  5
   165
  8
0
  6
CONTINUOUS
 62
    92
 10
-95.9999389648438
 20
244.492568969727
 30
0.0
 11
-92.2444152832031
 21
240.737045288086
 31
0.0
  0
LINE
  5
   166
  8
0
  6
CONTINUOUS
 62
    92
 10
-92.0017700195313
 20
244.737045288086
 30
0.0
 11
-91.9999389648438
 21
244.735214233399
 31
0.0
  0
ENDBLK
  5
   167
  8
0
  6
CONTINUOUS
 62
     7
  0
BLOCK
  5
   168
  8
0
  6
CONTINUOUS
 62
     7
  2
*HATCH102
 70
    65
 10
0.0
 20
0.0
 30
0.0
  3
*HATCH102
  0
LINE
  5
   169
  8
0
  6
CONTINUOUS
 62
    92
 10
-102.529632568359
 20
253.852188110352
 30
0.0
 11
-103.099937438965
 21
253.281875610352
 31
0.0
  0
LINE
  5
   16A
  8
0
  6
CONTINUOUS
 62
    92
 10
-96.7399215698242
 20
255.39924621582
 30
0.0
 11
-99.4021224975586
 21
252.737045288086
 31
0.0
  0
LINE
  5
   16B
  8
0
  6
CONTINUOUS
 62
    92
 10
-96.7399215698242
 20
251.156600952148
 30
0.0
 11
-99.0186004638672
 21
248.8779296875
 31
0.0
  0
LINE
  5
   16C
  8
0
  6
CONTINUOUS
 62
    92
 10
-99.1594848632813
 20
248.737045288086
 30
0.0
 11
-100.159484863281
 21
247.737045288086
 31
0.0
  0
LINE
  5
   16D
  8
0
  6
CONTINUOUS
 62
    92
 10
-96.7399215698242
 20
246.913970947266
 30
0.0
 11
-98.5083923339844
 21
245.145492553711
 31
0.0
  0
ENDBLK
  5
   16E
  8
0
  6
CONTINUOUS
 62
     7
  0
BLOCK
  5
   16F
  8
0
  6
CONTINUOUS
 62
     7
  2
*HATCH103
 70
    65
 10
0.0
 20
0.0
 30
0.0
  3
*HATCH103
  0
LINE
  5
   170
  8
0
  6
CONTINUOUS
 62
    92
 10
-76.9021911621094
 20
275.236968994141
 30
0.0
 11
-78.4999771118164
 21
273.639190673828
 31
0.0
  0
LINE
  5
   171
  8
0
  6
CONTINUOUS
 62
    92
 10
-73.2260131835938
 20
274.670501708984
 30
0.0
 11
-75.5000152587891
 21
272.396514892578
 31
0.0
  0
LINE
  5
   172
  8
0
  6
CONTINUOUS
 62
    92
 10
-110.659606933594
 20
237.236923217773
 30
0.0
 11
-112.659606933594
 21
235.236923217773
 31
0.0
  0
LINE
  5
   173
  8
0
  6
CONTINUOUS
 62
    92
 10
-73.0000152587891
 20
270.653869628906
 30
0.0
 11
-75.5000152587891
 21
268.153869628906
 31
0.0
  0
LINE
  5
   174
  8
0
  6
CONTINUOUS
 62
    92
 10
-103.916931152344
 20
239.736953735352
 30
0.0
 11
-105.000015258789
 21
238.653869628906
 31
0.0
  0
LINE
  5
   175
  8
0
  6
CONTINUOUS
 62
    92
 10
-106.416969299316
 20
237.236923217773
 30
0.0
 11
-108.416969299316
 21
235.236923217773
 31
0.0
  0
LINE
  5
   176
  8
0
  6
CONTINUOUS
 62
    92
 10
-73.0000152587891
 20
266.411224365234
 30
0.0
 11
-75.5000152587891
 21
263.911224365234
 31
0.0
  0
LINE
  5
   177
  8
0
  6
CONTINUOUS
 62
    92
 10
-99.6742858886719
 20
239.736968994141
 30
0.0
 11
-101.174285888672
 21
238.236968994141
 31
0.0
  0
LINE
  5
   178
  8
0
  6
CONTINUOUS
 62
    92
 10
-103.000015258789
 20
236.411239624023
 30
0.0
 11
-104.174331665039
 21
235.236907958984
 31
0.0
  0
LINE
  5
   179
  8
0
  6
CONTINUOUS
 62
    92
 10
-73.0000152587891
 20
262.168579101563
 30
0.0
 11
-75.5000152587891
 21
259.668579101563
 31
0.0
  0
LINE
  5
   17A
  8
0
  6
CONTINUOUS
 62
    92
 10
-95.431640625
 20
239.736968994141
 30
0.0
 11
-96.931640625
 21
238.236968994141
 31
0.0
  0
LINE
  5
   17B
  8
0
  6
CONTINUOUS
 62
    92
 10
-73.0000152587891
 20
257.925933837891
 30
0.0
 11
-75.5000152587891
 21
255.425933837891
 31
0.0
  0
LINE
  5
   17C
  8
0
  6
CONTINUOUS
 62
    92
 10
-91.1889953613281
 20
239.736968994141
 30
0.0
 11
-92.6889953613281
 21
238.236968994141
 31
0.0
  0
LINE
  5
   17D
  8
0
  6
CONTINUOUS
 62
    92
 10
-73.0000152587891
 20
253.683288574219
 30
0.0
 11
-75.5000152587891
 21
251.183288574219
 31
0.0
  0
LINE
  5
   17E
  8
0
  6
CONTINUOUS
 62
    92
 10
-86.9463500976562
 20
239.736968994141
 30
0.0
 11
-88.4463500976563
 21
238.236968994141
 31
0.0
  0
LINE
  5
   17F
  8
0
  6
CONTINUOUS
 62
    92
 10
-73.0000152587891
 20
249.440673828125
 30
0.0
 11
-75.5000152587891
 21
246.940673828125
 31
0.0
  0
LINE
  5
   180
  8
0
  6
CONTINUOUS
 62
    92
 10
-82.2037124633789
 20
240.23698425293
 30
0.0
 11
-84.2037124633789
 21
238.236968994141
 31
0.0
  0
LINE
  5
   181
  8
0
  6
CONTINUOUS
 62
    92
 10
-73.0000152587891
 20
245.198028564453
 30
0.0
 11
-75.5000152587891
 21
242.698028564453
 31
0.0
  0
LINE
  5
   182
  8
0
  6
CONTINUOUS
 62
    92
 10
-77.961067199707
 20
240.23698425293
 30
0.0
 11
-79.961067199707
 21
238.236968994141
 31
0.0
  0
LINE
  5
   183
  8
0
  6
CONTINUOUS
 62
    92
 10
-73.0000152587891
 20
240.955383300781
 30
0.0
 11
-75.7184219360352
 21
238.23698425293
 31
0.0
  0
ENDBLK
  5
   184
  8
0
  6
CONTINUOUS
 62
     7
  0
BLOCK
  5
   185
  8
0
  6
CONTINUOUS
 62
   218
  2
*HATCH104
 70
    65
 10
0.0
 20
0.0
 30
0.0
  3
*HATCH104
  0
LINE
  5
   186
  8
0
  6
CONTINUOUS
 62
     3
 10
-70.4023208618164
 20
252.038360595703
 30
0.0
 11
-72.2455978393555
 21
250.195083618164
 31
0.0
  0
LINE
  5
   187
  8
0
  6
CONTINUOUS
 62
     3
 10
-69.0759735107422
 20
252.304061889648
 30
0.0
 11
-71.8744277954102
 21
249.505599975586
 31
0.0
  0
LINE
  5
   188
  8
0
  6
CONTINUOUS
 62
     3
 10
-68.0004959106445
 20
252.318878173828
 30
0.0
 11
-71.2877426147461
 21
249.031631469727
 31
0.0
  0
LINE
  5
   189
  8
0
  6
CONTINUOUS
 62
     3
 10
-67.0423049926758
 20
252.216400146484
 30
0.0
 11
-70.5405578613281
 21
248.718139648438
 31
0.0
  0
LINE
  5
   18A
  8
0
  6
CONTINUOUS
 62
     3
 10
-66.1708908081055
 20
252.027160644531
 30
0.0
 11
-69.6915588378906
 21
248.506484985352
 31
0.0
  0
LINE
  5
   18B
  8
0
  6
CONTINUOUS
 62
     3
 10
-65.423713684082
 20
251.713668823242
 30
0.0
 11
-68.7577438354492
 21
248.379638671875
 31
0.0
  0
LINE
  5
   18C
  8
0
  6
CONTINUOUS
 62
     3
 10
-64.8103408813477
 20
251.266387939453
 30
0.0
 11
-67.6970825195313
 21
248.379638671875
 31
0.0
  0
LINE
  5
   18D
  8
0
  6
CONTINUOUS
 62
     3
 10
-64.3956069946289
 20
250.620452880859
 30
0.0
 11
-66.4208602905273
 21
248.595199584961
 31
0.0
  0
ENDBLK
  5
   18E
  8
0
  6
CONTINUOUS
 62
   218
  0
BLOCK
  5
   18F
  8
0
  6
CONTINUOUS
 62
     7
  2
CAVO
 70
    64
 10
0.0
 20
0.0
 30
0.0
  3
CAVO
  0
LINE
  5
   190
  8
0
  6
CONTINUOUS
 62
   218
 10
-58.099964209298
 20
208.737096448575
 30
0.0
 11
-58.099964209298
 21
231.737096448575
 31
0.0
  0
LINE
  5
   191
  8
0
  6
CONTINUOUS
 62
   218
 10
-70.499964209298
 20
208.737096448575
 30
0.0
 11
-70.499964209298
 21
231.737096448575
 31
0.0
  0
LINE
  5
   192
  8
0
  6
CONTINUOUS
 62
   218
 10
-70.499964209298
 20
208.737096448575
 30
0.0
 11
-58.099964209298
 21
208.737096448575
 31
0.0
  0
LINE
  5
   193
  8
0
  6
CONTINUOUS
 62
   218
 10
-72.299964209298
 20
231.737096448575
 30
0.0
 11
-56.299964209298
 21
231.737096448575
 31
0.0
  0
LINE
  5
   194
  8
0
  6
DASHDOT
 62
   218
 10
-64.299964209298
 20
203.675830579354
 30
0.0
 11
-64.299964209298
 21
252.349255591
 31
0.0
  0
LINE
  5
   195
  8
0
  6
CONTINUOUS
 62
   218
 10
-72.299964209298
 20
231.737096448575
 30
0.0
 11
-72.299964209298
 21
250.349255591
 31
0.0
  0
LINE
  5
   196
  8
0
  6
CONTINUOUS
 62
   218
 10
-56.299964209298
 20
231.737096448575
 30
0.0
 11
-56.299964209298
 21
250.349255591
 31
0.0
  0
LINE
  5
   197
  8
0
  6
CONTINUOUS
 62
   218
 10
-64.299964209298
 20
208.737096448575
 30
0.0
 11
-60.2444436530033
 21
231.737096448575
 31
0.0
  0
POLYLINE
  5
   198
  8
0
  6
CONTINUOUS
 62
   218
 66
     1
 10
0.0
 20
0.0
 30
0.0
 70
     1
  0
VERTEX
  5
   199
  8
0
  6
CONTINUOUS
 10
-72.299964209298
 20
250.34925559099
 30
0.0
 40
0.0
 41
0.0
  0
VERTEX
  5
   19A
  8
0
  6
CONTINUOUS
 10
-72.2987594840827
 20
250.300173133944
 30
0.0
 40
0.0
 41
0.0
  0
VERTEX
  5
   19B
  8
0
  6
CONTINUOUS
 10
-72.2951460341185
 20
250.251120242335
 30
0.0
 40
0.0
 41
0.0
  0
VERTEX
  5
   19C
  8
0
  6
CONTINUOUS
 10
-72.2891260360124
 20
250.20212646379
 30
0.0
 40
0.0
 41
0.0
  0
VERTEX
  5
   19D
  8
0
  6
CONTINUOUS
 10
-72.2807031159863
 20
250.153221310331
 30
0.0
 40
0.0
 41
0.0
  0
VERTEX
  5
   19E
  8
0
  6
CONTINUOUS
 10
-72.2698823476922
 20
250.104434240591
 30
0.0
 40
0.0
 41
0.0
  0
VERTEX
  5
   19F
  8
0
  6
CONTINUOUS
 10
-72.2566702491564
 20
250.055794642079
 30
0.0
 40
0.0
 41
0.0
  0
VERTEX
  5
   1A0
  8
0
  6
CONTINUOUS
 10
-72.2410747788529
 20
250.007331813469
 30
0.0
 40
0.0
 41
0.0
  0
VERTEX
  5
   1A1
  8
0
  6
CONTINUOUS
 10
-72.22310533091
 20
249.959074946958
 30
0.0
 40
0.0
 41
0.0
  0
VERTEX
  5
   1A2
  8
0
  6
CONTINUOUS
 10
-72.202772729451
 20
249.911053110676
 30
0.0
 40
0.0
 41
0.0
  0
VERTEX
  5
   1A3
  8
0
  6
CONTINUOUS
 10
-72.180089222075
 20
249.863295231183
 30
0.0
 40
0.0
 41
0.0
  0
VERTEX
  5
   1A4
  8
0
  6
CONTINUOUS
 10
-72.1550684724784
 20
249.81583007604
 30
0.0
 40
0.0
 41
0.0
  0
VERTEX
  5
   1A5
  8
0
  6
CONTINUOUS
 10
-72.1277255522254
 20
249.768686236481
 30
0.0
 40
0.0
 41
0.0
  0
VERTEX
  5
   1A6
  8
0
  6
CONTINUOUS
 10
-72.0980769316686
 20
249.721892110192
 30
0.0
 40
0.0
 41
0.0
  0
VERTEX
  5
   1A7
  8
0
  6
CONTINUOUS
 10
-72.0661404700284
 20
249.675475884206
 30
0.0
 40
0.0
 41
0.0
  0
VERTEX
  5
   1A8
  8
0
  6
CONTINUOUS
 10
-72.0319354046352
 20
249.62946551792
 30
0.0
 40
0.0
 41
0.0
  0
VERTEX
  5
   1A9
  8
0
  6
CONTINUOUS
 10
-71.9954823393412
 20
249.58388872626
 30
0.0
 40
0.0
 41
0.0
  0
VERTEX
  5
   1AA
  8
0
  6
CONTINUOUS
 10
-71.9159213817896
 20
249.49414540413
 30
0.0
 40
0.0
 41
0.0
  0
VERTEX
  5
   1AB
  8
0
  6
CONTINUOUS
 10
-71.8276492666891
 20
249.406462117339
 30
0.0
 40
0.0
 41
0.0
  0
VERTEX
  5
   1AC
  8
0
  6
CONTINUOUS
 10
-71.7308786492965
 20
249.321050102605
 30
0.0
 40
0.0
 41
0.0
  0
VERTEX
  5
   1AD
  8
0
  6
CONTINUOUS
 10
-71.6258426585054
 20
249.238115124952
 30
0.0
 40
0.0
 41
0.0
  0
VERTEX
  5
   1AE
  8
0
  6
CONTINUOUS
 10
-71.5127943352176
 20
249.157856982007
 30
0.0
 40
0.0
 41
0.0
  0
VERTEX
  5
   1AF
  8
0
  6
CONTINUOUS
 10
-71.3920060227458
 20
249.080469022665
 30
0.0
 40
0.0
 41
0.0
  0
VERTEX
  5
   1B0
  8
0
  6
CONTINUOUS
 10
-71.2637687107145
 20
249.006137681298
 30
0.0
 40
0.0
 41
0.0
  0
VERTEX
  5
   1B1
  8
0
  6
CONTINUOUS
 10
-71.1283913340406
 20
248.93504202862
 30
0.0
 40
0.0
 41
0.0
  0
VERTEX
  5
   1B2
  8
0
  6
CONTINUOUS
 10
-70.9862000286824
 20
248.867353340283
 30
0.0
 40
0.0
 41
0.0
  0
VERTEX
  5
   1B3
  8
0
  6
CONTINUOUS
 10
-70.8375373459487
 20
248.803234684268
 30
0.0
 40
0.0
 41
0.0
  0
VERTEX
  5
   1B4
  8
0
  6
CONTINUOUS
 10
-70.6827614272637
 20
248.742840528032
 30
0.0
 40
0.0
 41
0.0
  0
VERTEX
  5
   1B5
  8
0
  6
CONTINUOUS
 10
-70.5222451413722
 20
248.686316366389
 30
0.0
 40
0.0
 41
0.0
  0
VERTEX
  5
   1B6
  8
0
  6
CONTINUOUS
 10
-70.3563751860666
 20
248.633798370994
 30
0.0
 40
0.0
 41
0.0
  0
VERTEX
  5
   1B7
  8
0
  6
CONTINUOUS
 10
-70.1855511565976
 20
248.585413062298
 30
0.0
 40
0.0
 41
0.0
  0
VERTEX
  5
   1B8
  8
0
  6
CONTINUOUS
 10
-70.0101845830146
 20
248.541277004749
 30
0.0
 40
0.0
 41
0.0
  0
VERTEX
  5
   1B9
  8
0
  6
CONTINUOUS
 10
-69.8306979387537
 20
248.501496525973
 30
0.0
 40
0.0
 41
0.0
  0
VERTEX
  5
   1BA
  8
0
  6
CONTINUOUS
 10
-69.6475236228622
 20
248.46616746063
 30
0.0
 40
0.0
 41
0.0
  0
VERTEX
  5
   1BB
  8
0
  6
CONTINUOUS
 10
-69.4611029183111
 20
248.435374919532
 30
0.0
 40
0.0
 41
0.0
  0
VERTEX
  5
   1BC
  8
0
  6
CONTINUOUS
 10
-69.2718849289062
 20
248.409193084608
 30
0.0
 40
0.0
 41
0.0
  0
VERTEX
  5
   1BD
  8
0
  6
CONTINUOUS
 10
-69.0803254973576
 20
248.387685030191
 30
0.0
 40
0.0
 41
0.0
  0
VERTEX
  5
   1BE
  8
0
  6
CONTINUOUS
 10
-68.8868861071145
 20
248.370902571069
 30
0.0
 40
0.0
 41
0.0
  0
VERTEX
  5
   1BF
  8
0
  6
CONTINUOUS
 10
-68.6920327706112
 20
248.358886137654
 30
0.0
 40
0.0
 41
0.0
  0
VERTEX
  5
   1C0
  8
0
  6
CONTINUOUS
 10
-68.4962349066027
 20
248.351664678589
 30
0.0
 40
0.0
 41
0.0
  0
VERTEX
  5
   1C1
  8
0
  6
CONTINUOUS
 10
-68.299964209293
 20
248.349255591
 30
0.0
 40
0.0
 41
0.0
  0
VERTEX
  5
   1C2
  8
0
  6
CONTINUOUS
 10
-68.1036935119833
 20
248.35166467859
 30
0.0
 40
0.0
 41
0.0
  0
VERTEX
  5
   1C3
  8
0
  6
CONTINUOUS
 10
-67.9078956479748
 20
248.358886137656
 30
0.0
 40
0.0
 41
0.0
  0
VERTEX
  5
   1C4
  8
0
  6
CONTINUOUS
 10
-67.7130423114716
 20
248.370902571072
 30
0.0
 40
0.0
 41
0.0
  0
VERTEX
  5
   1C5
  8
0
  6
CONTINUOUS
 10
-67.5196029212286
 20
248.387685030195
 30
0.0
 40
0.0
 41
0.0
  0
VERTEX
  5
   1C6
  8
0
  6
CONTINUOUS
 10
-67.3280434896801
 20
248.409193084613
 30
0.0
 40
0.0
 41
0.0
  0
VERTEX
  5
   1C7
  8
0
  6
CONTINUOUS
 10
-67.1388255002754
 20
248.435374919538
 30
0.0
 40
0.0
 41
0.0
  0
VERTEX
  5
   1C8
  8
0
  6
CONTINUOUS
 10
-66.9524047957244
 20
248.466167460637
 30
0.0
 40
0.0
 41
0.0
  0
VERTEX
  5
   1C9
  8
0
  6
CONTINUOUS
 10
-66.769230479833
 20
248.501496525981
 30
0.0
 40
0.0
 41
0.0
  0
VERTEX
  5
   1CA
  8
0
  6
CONTINUOUS
 10
-66.5897438355723
 20
248.541277004757
 30
0.0
 40
0.0
 41
0.0
  0
VERTEX
  5
   1CB
  8
0
  6
CONTINUOUS
 10
-66.4143772619896
 20
248.585413062308
 30
0.0
 40
0.0
 41
0.0
  0
VERTEX
  5
   1CC
  8
0
  6
CONTINUOUS
 10
-66.2435532325208
 20
248.633798371004
 30
0.0
 40
0.0
 41
0.0
  0
VERTEX
  5
   1CD
  8
0
  6
CONTINUOUS
 10
-66.0776832772154
 20
248.6863163664
 30
0.0
 40
0.0
 41
0.0
  0
VERTEX
  5
   1CE
  8
0
  6
CONTINUOUS
 10
-65.9171669913242
 20
248.742840528044
 30
0.0
 40
0.0
 41
0.0
  0
VERTEX
  5
   1CF
  8
0
  6
CONTINUOUS
 10
-65.7623910726396
 20
248.803234684281
 30
0.0
 40
0.0
 41
0.0
  0
VERTEX
  5
   1D0
  8
0
  6
CONTINUOUS
 10
-65.6137283899062
 20
248.867353340297
 30
0.0
 40
0.0
 41
0.0
  0
VERTEX
  5
   1D1
  8
0
  6
CONTINUOUS
 10
-65.4715370845483
 20
248.935042028634
 30
0.0
 40
0.0
 41
0.0
  0
VERTEX
  5
   1D2
  8
0
  6
CONTINUOUS
 10
-65.3361597078748
 20
249.006137681313
 30
0.0
 40
0.0
 41
0.0
  0
VERTEX
  5
   1D3
  8
0
  6
CONTINUOUS
 10
-65.2079223958439
 20
249.08046902268
 30
0.0
 40
0.0
 41
0.0
  0
VERTEX
  5
   1D4
  8
0
  6
CONTINUOUS
 10
-65.0871340833724
 20
249.157856982023
 30
0.0
 40
0.0
 41
0.0
  0
VERTEX
  5
   1D5
  8
0
  6
CONTINUOUS
 10
-64.974085760085
 20
249.238115124969
 30
0.0
 40
0.0
 41
0.0
  0
VERTEX
  5
   1D6
  8
0
  6
CONTINUOUS
 10
-64.8690497692943
 20
249.321050102622
 30
0.0
 40
0.0
 41
0.0
  0
VERTEX
  5
   1D7
  8
0
  6
CONTINUOUS
 10
-64.7722791519022
 20
249.406462117357
 30
0.0
 40
0.0
 41
0.0
  0
VERTEX
  5
   1D8
  8
0
  6
CONTINUOUS
 10
-64.6840070368021
 20
249.494145404148
 30
0.0
 40
0.0
 41
0.0
  0
VERTEX
  5
   1D9
  8
0
  6
CONTINUOUS
 10
-64.604446079251
 20
249.583888726279
 30
0.0
 40
0.0
 41
0.0
  0
VERTEX
  5
   1DA
  8
0
  6
CONTINUOUS
 10
-64.5679930139573
 20
249.629465517939
 30
0.0
 40
0.0
 41
0.0
  0
VERTEX
  5
   1DB
  8
0
  6
CONTINUOUS
 10
-64.5337879485642
 20
249.675475884225
 30
0.0
 40
0.0
 41
0.0
  0
VERTEX
  5
   1DC
  8
0
  6
CONTINUOUS
 10
-64.5018514869243
 20
249.721892110211
 30
0.0
 40
0.0
 41
0.0
  0
VERTEX
  5
   1DD
  8
0
  6
CONTINUOUS
 10
-64.4722028663677
 20
249.7686862365
 30
0.0
 40
0.0
 41
0.0
  0
VERTEX
  5
   1DE
  8
0
  6
CONTINUOUS
 10
-64.4448599461149
 20
249.81583007606
 30
0.0
 40
0.0
 41
0.0
  0
VERTEX
  5
   1DF
  8
0
  6
CONTINUOUS
 10
-64.4198391965186
 20
249.863295231203
 30
0.0
 40
0.0
 41
0.0
  0
VERTEX
  5
   1E0
  8
0
  6
CONTINUOUS
 10
-64.3971556891428
 20
249.911053110696
 30
0.0
 40
0.0
 41
0.0
  0
VERTEX
  5
   1E1
  8
0
  6
CONTINUOUS
 10
-64.3768230876841
 20
249.959074946977
 30
0.0
 40
0.0
 41
0.0
  0
VERTEX
  5
   1E2
  8
0
  6
CONTINUOUS
 10
-64.3588536397414
 20
250.007331813489
 30
0.0
 40
0.0
 41
0.0
  0
VERTEX
  5
   1E3
  8
0
  6
CONTINUOUS
 10
-64.3432581694382
 20
250.055794642099
 30
0.0
 40
0.0
 41
0.0
  0
VERTEX
  5
   1E4
  8
0
  6
CONTINUOUS
 10
-64.3300460709026
 20
250.104434240611
 30
0.0
 40
0.0
 41
0.0
  0
VERTEX
  5
   1E5
  8
0
  6
CONTINUOUS
 10
-64.3192253026087
 20
250.153221310351
 30
0.0
 40
0.0
 41
0.0
  0
VERTEX
  5
   1E6
  8
0
  6
CONTINUOUS
 10
-64.3108023825829
 20
250.20212646381
 30
0.0
 40
0.0
 41
0.0
  0
VERTEX
  5
   1E7
  8
0
  6
CONTINUOUS
 10
-64.3047823844771
 20
250.251120242355
 30
0.0
 40
0.0
 41
0.0
  0
VERTEX
  5
   1E8
  8
0
  6
CONTINUOUS
 10
-64.3011689345131
 20
250.300173133964
 30
0.0
 40
0.0
 41
0.0
  0
VERTEX
  5
   1E9
  8
0
  6
CONTINUOUS
 10
-64.299964209298
 20
250.34925559101
 30
0.0
 40
0.0
 41
0.0
  0
VERTEX
  5
   1EA
  8
0
  6
CONTINUOUS
 10
-64.3011689345133
 20
250.398338048056
 30
0.0
 40
0.0
 41
0.0
  0
VERTEX
  5
   1EB
  8
0
  6
CONTINUOUS
 10
-64.3047823844776
 20
250.447390939665
 30
0.0
 40
0.0
 41
0.0
  0
VERTEX
  5
   1EC
  8
0
  6
CONTINUOUS
 10
-64.3108023825836
 20
250.496384718209
 30
0.0
 40
0.0
 41
0.0
  0
VERTEX
  5
   1ED
  8
0
  6
CONTINUOUS
 10
-64.3192253026097
 20
250.545289871669
 30
0.0
 40
0.0
 41
0.0
  0
VERTEX
  5
   1EE
  8
0
  6
CONTINUOUS
 10
-64.3300460709038
 20
250.594076941408
 30
0.0
 40
0.0
 41
0.0
  0
VERTEX
  5
   1EF
  8
0
  6
CONTINUOUS
 10
-64.3432581694396
 20
250.64271653992
 30
0.0
 40
0.0
 41
0.0
  0
VERTEX
  5
   1F0
  8
0
  6
CONTINUOUS
 10
-64.3588536397431
 20
250.69117936853
 30
0.0
 40
0.0
 41
0.0
  0
VERTEX
  5
   1F1
  8
0
  6
CONTINUOUS
 10
-64.3768230876861
 20
250.739436235042
 30
0.0
 40
0.0
 41
0.0
  0
VERTEX
  5
   1F2
  8
0
  6
CONTINUOUS
 10
-64.397155689145
 20
250.787458071323
 30
0.0
 40
0.0
 41
0.0
  0
VERTEX
  5
   1F3
  8
0
  6
CONTINUOUS
 10
-64.4198391965211
 20
250.835215950816
 30
0.0
 40
0.0
 41
0.0
  0
VERTEX
  5
   1F4
  8
0
  6
CONTINUOUS
 10
-64.4448599461176
 20
250.882681105959
 30
0.0
 40
0.0
 41
0.0
  0
VERTEX
  5
   1F5
  8
0
  6
CONTINUOUS
 10
-64.4722028663706
 20
250.929824945518
 30
0.0
 40
0.0
 41
0.0
  0
VERTEX
  5
   1F6
  8
0
  6
CONTINUOUS
 10
-64.5018514869274
 20
250.976619071807
 30
0.0
 40
0.0
 41
0.0
  0
VERTEX
  5
   1F7
  8
0
  6
CONTINUOUS
 10
-64.5337879485676
 20
251.023035297794
 30
0.0
 40
0.0
 41
0.0
  0
VERTEX
  5
   1F8
  8
0
  6
CONTINUOUS
 10
-64.5679930139609
 20
251.069045664079
 30
0.0
 40
0.0
 41
0.0
  0
VERTEX
  5
   1F9
  8
0
  6
CONTINUOUS
 10
-64.6044460792548
 20
251.114622455739
 30
0.0
 40
0.0
 41
0.0
  0
VERTEX
  5
   1FA
  8
0
  6
CONTINUOUS
 10
-64.6840070368064
 20
251.204365777869
 30
0.0
 40
0.0
 41
0.0
  0
VERTEX
  5
   1FB
  8
0
  6
CONTINUOUS
 10
-64.772279151907
 20
251.292049064661
 30
0.0
 40
0.0
 41
0.0
  0
VERTEX
  5
   1FC
  8
0
  6
CONTINUOUS
 10
-64.8690497692995
 20
251.377461079395
 30
0.0
 40
0.0
 41
0.0
  0
VERTEX
  5
   1FD
  8
0
  6
CONTINUOUS
 10
-64.9740857600906
 20
251.460396057047
 30
0.0
 40
0.0
 41
0.0
  0
VERTEX
  5
   1FE
  8
0
  6
CONTINUOUS
 10
-65.0871340833784
 20
251.540654199993
 30
0.0
 40
0.0
 41
0.0
  0
VERTEX
  5
   1FF
  8
0
  6
CONTINUOUS
 10
-65.2079223958502
 20
251.618042159335
 30
0.0
 40
0.0
 41
0.0
  0
VERTEX
  5
   200
  8
0
  6
CONTINUOUS
 10
-65.3361597078815
 20
251.692373500701
 30
0.0
 40
0.0
 41
0.0
  0
VERTEX
  5
   201
  8
0
  6
CONTINUOUS
 10
-65.4715370845554
 20
251.76346915338
 30
0.0
 40
0.0
 41
0.0
  0
VERTEX
  5
   202
  8
0
  6
CONTINUOUS
 10
-65.6137283899137
 20
251.831157841716
 30
0.0
 40
0.0
 41
0.0
  0
VERTEX
  5
   203
  8
0
  6
CONTINUOUS
 10
-65.7623910726473
 20
251.895276497732
 30
0.0
 40
0.0
 41
0.0
  0
VERTEX
  5
   204
  8
0
  6
CONTINUOUS
 10
-65.9171669913323
 20
251.955670653967
 30
0.0
 40
0.0
 41
0.0
  0
VERTEX
  5
   205
  8
0
  6
CONTINUOUS
 10
-66.0776832772238
 20
252.01219481561
 30
0.0
 40
0.0
 41
0.0
  0
VERTEX
  5
   206
  8
0
  6
CONTINUOUS
 10
-66.2435532325294
 20
252.064712811005
 30
0.0
 40
0.0
 41
0.0
  0
VERTEX
  5
   207
  8
0
  6
CONTINUOUS
 10
-66.4143772619985
 20
252.113098119701
 30
0.0
 40
0.0
 41
0.0
  0
VERTEX
  5
   208
  8
0
  6
CONTINUOUS
 10
-66.5897438355814
 20
252.157234177251
 30
0.0
 40
0.0
 41
0.0
  0
VERTEX
  5
   209
  8
0
  6
CONTINUOUS
 10
-66.7692304798423
 20
252.197014656026
 30
0.0
 40
0.0
 41
0.0
  0
VERTEX
  5
   20A
  8
0
  6
CONTINUOUS
 10
-66.9524047957339
 20
252.232343721369
 30
0.0
 40
0.0
 41
0.0
  0
VERTEX
  5
   20B
  8
0
  6
CONTINUOUS
 10
-67.138825500285
 20
252.263136262467
 30
0.0
 40
0.0
 41
0.0
  0
VERTEX
  5
   20C
  8
0
  6
CONTINUOUS
 10
-67.3280434896898
 20
252.289318097391
 30
0.0
 40
0.0
 41
0.0
  0
VERTEX
  5
   20D
  8
0
  6
CONTINUOUS
 10
-67.5196029212384
 20
252.310826151808
 30
0.0
 40
0.0
 41
0.0
  0
VERTEX
  5
   20E
  8
0
  6
CONTINUOUS
 10
-67.7130423114815
 20
252.327608610931
 30
0.0
 40
0.0
 41
0.0
  0
VERTEX
  5
   20F
  8
0
  6
CONTINUOUS
 10
-67.9078956479848
 20
252.339625044345
 30
0.0
 40
0.0
 41
0.0
  0
VERTEX
  5
   210
  8
0
  6
CONTINUOUS
 10
-68.1036935119934
 20
252.346846503411
 30
0.0
 40
0.0
 41
0.0
  0
VERTEX
  5
   211
  8
0
  6
CONTINUOUS
 10
-68.299964209303
 20
252.349255591
 30
0.0
 40
0.0
 41
0.0
  0
VERTEX
  5
   212
  8
0
  6
CONTINUOUS
 10
-68.4962349066127
 20
252.34684650341
 30
0.0
 40
0.0
 41
0.0
  0
VERTEX
  5
   213
  8
0
  6
CONTINUOUS
 10
-68.6920327706213
 20
252.339625044343
 30
0.0
 40
0.0
 41
0.0
  0
VERTEX
  5
   214
  8
0
  6
CONTINUOUS
 10
-68.8868861071244
 20
252.327608610928
 30
0.0
 40
0.0
 41
0.0
  0
VERTEX
  5
   215
  8
0
  6
CONTINUOUS
 10
-69.0803254973675
 20
252.310826151804
 30
0.0
 40
0.0
 41
0.0
  0
VERTEX
  5
   216
  8
0
  6
CONTINUOUS
 10
-69.2718849289159
 20
252.289318097386
 30
0.0
 40
0.0
 41
0.0
  0
VERTEX
  5
   217
  8
0
  6
CONTINUOUS
 10
-69.4611029183207
 20
252.263136262461
 30
0.0
 40
0.0
 41
0.0
  0
VERTEX
  5
   218
  8
0
  6
CONTINUOUS
 10
-69.6475236228716
 20
252.232343721362
 30
0.0
 40
0.0
 41
0.0
  0
VERTEX
  5
   219
  8
0
  6
CONTINUOUS
 10
-69.830697938763
 20
252.197014656018
 30
0.0
 40
0.0
 41
0.0
  0
VERTEX
  5
   21A
  8
0
  6
CONTINUOUS
 10
-70.0101845830237
 20
252.157234177242
 30
0.0
 40
0.0
 41
0.0
  0
VERTEX
  5
   21B
  8
0
  6
CONTINUOUS
 10
-70.1855511566064
 20
252.113098119692
 30
0.0
 40
0.0
 41
0.0
  0
VERTEX
  5
   21C
  8
0
  6
CONTINUOUS
 10
-70.3563751860752
 20
252.064712810995
 30
0.0
 40
0.0
 41
0.0
  0
VERTEX
  5
   21D
  8
0
  6
CONTINUOUS
 10
-70.5222451413806
 20
252.012194815599
 30
0.0
 40
0.0
 41
0.0
  0
VERTEX
  5
   21E
  8
0
  6
CONTINUOUS
 10
-70.6827614272718
 20
251.955670653955
 30
0.0
 40
0.0
 41
0.0
  0
VERTEX
  5
   21F
  8
0
  6
CONTINUOUS
 10
-70.8375373459565
 20
251.895276497719
 30
0.0
 40
0.0
 41
0.0
  0
VERTEX
  5
   220
  8
0
  6
CONTINUOUS
 10
-70.9862000286898
 20
251.831157841703
 30
0.0
 40
0.0
 41
0.0
  0
VERTEX
  5
   221
  8
0
  6
CONTINUOUS
 10
-71.1283913340478
 20
251.763469153366
 30
0.0
 40
0.0
 41
0.0
  0
VERTEX
  5
   222
  8
0
  6
CONTINUOUS
 10
-71.2637687107212
 20
251.692373500686
 30
0.0
 40
0.0
 41
0.0
  0
VERTEX
  5
   223
  8
0
  6
CONTINUOUS
 10
-71.3920060227521
 20
251.618042159319
 30
0.0
 40
0.0
 41
0.0
  0
VERTEX
  5
   224
  8
0
  6
CONTINUOUS
 10
-71.5127943352236
 20
251.540654199976
 30
0.0
 40
0.0
 41
0.0
  0
VERTEX
  5
   225
  8
0
  6
CONTINUOUS
 10
-71.625842658511
 20
251.460396057031
 30
0.0
 40
0.0
 41
0.0
  0
VERTEX
  5
   226
  8
0
  6
CONTINUOUS
 10
-71.7308786493017
 20
251.377461079378
 30
0.0
 40
0.0
 41
0.0
  0
VERTEX
  5
   227
  8
0
  6
CONTINUOUS
 10
-71.8276492666938
 20
251.292049064643
 30
0.0
 40
0.0
 41
0.0
  0
VERTEX
  5
   228
  8
0
  6
CONTINUOUS
 10
-71.9159213817939
 20
251.204365777851
 30
0.0
 40
0.0
 41
0.0
  0
VERTEX
  5
   229
  8
0
  6
CONTINUOUS
 10
-71.9954823393451
 20
251.114622455721
 30
0.0
 40
0.0
 41
0.0
  0
VERTEX
  5
   22A
  8
0
  6
CONTINUOUS
 10
-72.0319354046388
 20
251.06904566406
 30
0.0
 40
0.0
 41
0.0
  0
VERTEX
  5
   22B
  8
0
  6
CONTINUOUS
 10
-72.0661404700318
 20
251.023035297775
 30
0.0
 40
0.0
 41
0.0
  0
VERTEX
  5
   22C
  8
0
  6
CONTINUOUS
 10
-72.0980769316717
 20
250.976619071788
 30
0.0
 40
0.0
 41
0.0
  0
VERTEX
  5
   22D
  8
0
  6
CONTINUOUS
 10
-72.1277255522283
 20
250.929824945499
 30
0.0
 40
0.0
 41
0.0
  0
VERTEX
  5
   22E
  8
0
  6
CONTINUOUS
 10
-72.1550684724811
 20
250.88268110594
 30
0.0
 40
0.0
 41
0.0
  0
VERTEX
  5
   22F
  8
0
  6
CONTINUOUS
 10
-72.1800892220774
 20
250.835215950796
 30
0.0
 40
0.0
 41
0.0
  0
VERTEX
  5
   230
  8
0
  6
CONTINUOUS
 10
-72.2027727294532
 20
250.787458071304
 30
0.0
 40
0.0
 41
0.0
  0
VERTEX
  5
   231
  8
0
  6
CONTINUOUS
 10
-72.2231053309119
 20
250.739436235022
 30
0.0
 40
0.0
 41
0.0
  0
VERTEX
  5
   232
  8
0
  6
CONTINUOUS
 10
-72.2410747788546
 20
250.69117936851
 30
0.0
 40
0.0
 41
0.0
  0
VERTEX
  5
   233
  8
0
  6
CONTINUOUS
 10
-72.2566702491579
 20
250.642716539901
 30
0.0
 40
0.0
 41
0.0
  0
VERTEX
  5
   234
  8
0
  6
CONTINUOUS
 10
-72.2698823476935
 20
250.594076941388
 30
0.0
 40
0.0
 41
0.0
  0
VERTEX
  5
   235
  8
0
  6
CONTINUOUS
 10
-72.2807031159873
 20
250.545289871649
 30
0.0
 40
0.0
 41
0.0
  0
VERTEX
  5
   236
  8
0
  6
CONTINUOUS
 10
-72.2891260360131
 20
250.496384718189
 30
0.0
 40
0.0
 41
0.0
  0
VERTEX
  5
   237
  8
0
  6
CONTINUOUS
 10
-72.2951460341189
 20
250.447390939645
 30
0.0
 40
0.0
 41
0.0
  0
VERTEX
  5
   238
  8
0
  6
CONTINUOUS
 10
-72.298759484083
 20
250.398338048035
 30
0.0
 40
0.0
 41
0.0
  0
VERTEX
  5
   239
  8
0
  6
CONTINUOUS
 10
-72.299964209298
 20
250.34925559099
 30
0.0
 40
0.0
 41
0.0
  0
SEQEND
  5
   23A
  8
0
  6
CONTINUOUS
 62
   218
  0
POLYLINE
  5
   23B
  8
0
  6
CONTINUOUS
 62
   218
 66
     1
 10
0.0
 20
0.0
 30
0.0
  0
VERTEX
  5
   23C
  8
0
  6
CONTINUOUS
 10
-56.299964209298
 20
250.349255591015
 30
0.0
 40
0.0
 41
0.0
  0
VERTEX
  5
   23D
  8
0
  6
CONTINUOUS
 10
-56.3011689345136
 20
250.398338048061
 30
0.0
 40
0.0
 41
0.0
  0
VERTEX
  5
   23E
  8
0
  6
CONTINUOUS
 10
-56.3047823844781
 20
250.44739093967
 30
0.0
 40
0.0
 41
0.0
  0
VERTEX
  5
   23F
  8
0
  6
CONTINUOUS
 10
-56.3108023825844
 20
250.496384718214
 30
0.0
 40
0.0
 41
0.0
  0
VERTEX
  5
   240
  8
0
  6
CONTINUOUS
 10
-56.3192253026107
 20
250.545289871674
 30
0.0
 40
0.0
 41
0.0
  0
VERTEX
  5
   241
  8
0
  6
CONTINUOUS
 10
-56.3300460709051
 20
250.594076941413
 30
0.0
 40
0.0
 41
0.0
  0
VERTEX
  5
   242
  8
0
  6
CONTINUOUS
 10
-56.3432581694412
 20
250.642716539926
 30
0.0
 40
0.0
 41
0.0
  0
VERTEX
  5
   243
  8
0
  6
CONTINUOUS
 10
-56.3588536397449
 20
250.691179368535
 30
0.0
 40
0.0
 41
0.0
  0
VERTEX
  5
   244
  8
0
  6
CONTINUOUS
 10
-56.3768230876882
 20
250.739436235047
 30
0.0
 40
0.0
 41
0.0
  0
VERTEX
  5
   245
  8
0
  6
CONTINUOUS
 10
-56.3971556891474
 20
250.787458071328
 30
0.0
 40
0.0
 41
0.0
  0
VERTEX
  5
   246
  8
0
  6
CONTINUOUS
 10
-56.4198391965237
 20
250.835215950821
 30
0.0
 40
0.0
 41
0.0
  0
VERTEX
  5
   247
  8
0
  6
CONTINUOUS
 10
-56.4448599461205
 20
250.882681105964
 30
0.0
 40
0.0
 41
0.0
  0
VERTEX
  5
   248
  8
0
  6
CONTINUOUS
 10
-56.4722028663738
 20
250.929824945523
 30
0.0
 40
0.0
 41
0.0
  0
VERTEX
  5
   249
  8
0
  6
CONTINUOUS
 10
-56.5018514869309
 20
250.976619071812
 30
0.0
 40
0.0
 41
0.0
  0
VERTEX
  5
   24A
  8
0
  6
CONTINUOUS
 10
-56.5337879485714
 20
251.023035297799
 30
0.0
 40
0.0
 41
0.0
  0
VERTEX
  5
   24B
  8
0
  6
CONTINUOUS
 10
-56.5679930139649
 20
251.069045664084
 30
0.0
 40
0.0
 41
0.0
  0
VERTEX
  5
   24C
  8
0
  6
CONTINUOUS
 10
-56.6044460792591
 20
251.114622455744
 30
0.0
 40
0.0
 41
0.0
  0
VERTEX
  5
   24D
  8
0
  6
CONTINUOUS
 10
-56.6840070368113
 20
251.204365777875
 30
0.0
 40
0.0
 41
0.0
  0
VERTEX
  5
   24E
  8
0
  6
CONTINUOUS
 10
-56.7722791519124
 20
251.292049064666
 30
0.0
 40
0.0
 41
0.0
  0
VERTEX
  5
   24F
  8
0
  6
CONTINUOUS
 10
-56.8690497693056
 20
251.3774610794
 30
0.0
 40
0.0
 41
0.0
  0
VERTEX
  5
   250
  8
0
  6
CONTINUOUS
 10
-56.9740857600973
 20
251.460396057052
 30
0.0
 40
0.0
 41
0.0
  0
VERTEX
  5
   251
  8
0
  6
CONTINUOUS
 10
-57.0871340833856
 20
251.540654199997
 30
0.0
 40
0.0
 41
0.0
  0
VERTEX
  5
   252
  8
0
  6
CONTINUOUS
 10
-57.207922395858
 20
251.61804215934
 30
0.0
 40
0.0
 41
0.0
  0
VERTEX
  5
   253
  8
0
  6
CONTINUOUS
 10
-57.3361597078899
 20
251.692373500706
 30
0.0
 40
0.0
 41
0.0
  0
VERTEX
  5
   254
  8
0
  6
CONTINUOUS
 10
-57.4715370845643
 20
251.763469153384
 30
0.0
 40
0.0
 41
0.0
  0
VERTEX
  5
   255
  8
0
  6
CONTINUOUS
 10
-57.6137283899231
 20
251.831157841721
 30
0.0
 40
0.0
 41
0.0
  0
VERTEX
  5
   256
  8
0
  6
CONTINUOUS
 10
-57.7623910726573
 20
251.895276497736
 30
0.0
 40
0.0
 41
0.0
  0
VERTEX
  5
   257
  8
0
  6
CONTINUOUS
 10
-57.9171669913428
 20
251.955670653971
 30
0.0
 40
0.0
 41
0.0
  0
VERTEX
  5
   258
  8
0
  6
CONTINUOUS
 10
-58.0776832772348
 20
252.012194815614
 30
0.0
 40
0.0
 41
0.0
  0
VERTEX
  5
   259
  8
0
  6
CONTINUOUS
 10
-58.2435532325409
 20
252.064712811009
 30
0.0
 40
0.0
 41
0.0
  0
VERTEX
  5
   25A
  8
0
  6
CONTINUOUS
 10
-58.4143772620104
 20
252.113098119704
 30
0.0
 40
0.0
 41
0.0
  0
VERTEX
  5
   25B
  8
0
  6
CONTINUOUS
 10
-58.5897438355938
 20
252.157234177254
 30
0.0
 40
0.0
 41
0.0
  0
VERTEX
  5
   25C
  8
0
  6
CONTINUOUS
 10
-58.7692304798551
 20
252.197014656029
 30
0.0
 40
0.0
 41
0.0
  0
VERTEX
  5
   25D
  8
0
  6
CONTINUOUS
 10
-58.952404795747
 20
252.232343721371
 30
0.0
 40
0.0
 41
0.0
  0
VERTEX
  5
   25E
  8
0
  6
CONTINUOUS
 10
-59.1388255002985
 20
252.263136262469
 30
0.0
 40
0.0
 41
0.0
  0
VERTEX
  5
   25F
  8
0
  6
CONTINUOUS
 10
-59.3280434897037
 20
252.289318097393
 30
0.0
 40
0.0
 41
0.0
  0
VERTEX
  5
   260
  8
0
  6
CONTINUOUS
 10
-59.5196029212526
 20
252.31082615181
 30
0.0
 40
0.0
 41
0.0
  0
VERTEX
  5
   261
  8
0
  6
CONTINUOUS
 10
-59.713042311496
 20
252.327608610932
 30
0.0
 40
0.0
 41
0.0
  0
VERTEX
  5
   262
  8
0
  6
CONTINUOUS
 10
-59.9078956479995
 20
252.339625044346
 30
0.0
 40
0.0
 41
0.0
  0
VERTEX
  5
   263
  8
0
  6
CONTINUOUS
 10
-60.1036935120083
 20
252.346846503411
 30
0.0
 40
0.0
 41
0.0
  0
VERTEX
  5
   264
  8
0
  6
CONTINUOUS
 10
-60.2999642093181
 20
252.349255591
 30
0.0
 40
0.0
 41
0.0
  0
VERTEX
  5
   265
  8
0
  6
CONTINUOUS
 10
-60.4962349066279
 20
252.346846503409
 30
0.0
 40
0.0
 41
0.0
  0
VERTEX
  5
   266
  8
0
  6
CONTINUOUS
 10
-60.6920327706366
 20
252.339625044342
 30
0.0
 40
0.0
 41
0.0
  0
VERTEX
  5
   267
  8
0
  6
CONTINUOUS
 10
-60.8868861071398
 20
252.327608610927
 30
0.0
 40
0.0
 41
0.0
  0
VERTEX
  5
   268
  8
0
  6
CONTINUOUS
 10
-61.0803254973829
 20
252.310826151803
 30
0.0
 40
0.0
 41
0.0
  0
VERTEX
  5
   269
  8
0
  6
CONTINUOUS
 10
-61.2718849289313
 20
252.289318097384
 30
0.0
 40
0.0
 41
0.0
  0
VERTEX
  5
   26A
  8
0
  6
CONTINUOUS
 10
-61.461102918336
 20
252.263136262459
 30
0.0
 40
0.0
 41
0.0
  0
VERTEX
  5
   26B
  8
0
  6
CONTINUOUS
 10
-61.6475236228869
 20
252.23234372136
 30
0.0
 40
0.0
 41
0.0
  0
VERTEX
  5
   26C
  8
0
  6
CONTINUOUS
 10
-61.8306979387781
 20
252.197014656015
 30
0.0
 40
0.0
 41
0.0
  0
VERTEX
  5
   26D
  8
0
  6
CONTINUOUS
 10
-62.0101845830386
 20
252.157234177239
 30
0.0
 40
0.0
 41
0.0
  0
VERTEX
  5
   26E
  8
0
  6
CONTINUOUS
 10
-62.1855511566211
 20
252.113098119688
 30
0.0
 40
0.0
 41
0.0
  0
VERTEX
  5
   26F
  8
0
  6
CONTINUOUS
 10
-62.3563751860896
 20
252.064712810991
 30
0.0
 40
0.0
 41
0.0
  0
VERTEX
  5
   270
  8
0
  6
CONTINUOUS
 10
-62.5222451413947
 20
252.012194815594
 30
0.0
 40
0.0
 41
0.0
  0
VERTEX
  5
   271
  8
0
  6
CONTINUOUS
 10
-62.6827614272855
 20
251.95567065395
 30
0.0
 40
0.0
 41
0.0
  0
VERTEX
  5
   272
  8
0
  6
CONTINUOUS
 10
-62.8375373459698
 20
251.895276497713
 30
0.0
 40
0.0
 41
0.0
  0
VERTEX
  5
   273
  8
0
  6
CONTINUOUS
 10
-62.9862000287027
 20
251.831157841697
 30
0.0
 40
0.0
 41
0.0
  0
VERTEX
  5
   274
  8
0
  6
CONTINUOUS
 10
-63.1283913340602
 20
251.763469153359
 30
0.0
 40
0.0
 41
0.0
  0
VERTEX
  5
   275
  8
0
  6
CONTINUOUS
 10
-63.2637687107331
 20
251.69237350068
 30
0.0
 40
0.0
 41
0.0
  0
VERTEX
  5
   276
  8
0
  6
CONTINUOUS
 10
-63.3920060227635
 20
251.618042159312
 30
0.0
 40
0.0
 41
0.0
  0
VERTEX
  5
   277
  8
0
  6
CONTINUOUS
 10
-63.5127943352343
 20
251.540654199969
 30
0.0
 40
0.0
 41
0.0
  0
VERTEX
  5
   278
  8
0
  6
CONTINUOUS
 10
-63.6258426585211
 20
251.460396057023
 30
0.0
 40
0.0
 41
0.0
  0
VERTEX
  5
   279
  8
0
  6
CONTINUOUS
 10
-63.7308786493111
 20
251.37746107937
 30
0.0
 40
0.0
 41
0.0
  0
VERTEX
  5
   27A
  8
0
  6
CONTINUOUS
 10
-63.8276492667025
 20
251.292049064635
 30
0.0
 40
0.0
 41
0.0
  0
VERTEX
  5
   27B
  8
0
  6
CONTINUOUS
 10
-63.9159213818019
 20
251.204365777843
 30
0.0
 40
0.0
 41
0.0
  0
VERTEX
  5
   27C
  8
0
  6
CONTINUOUS
 10
-63.9954823393523
 20
251.114622455712
 30
0.0
 40
0.0
 41
0.0
  0
VERTEX
  5
   27D
  8
0
  6
CONTINUOUS
 10
-64.0319354046456
 20
251.069045664051
 30
0.0
 40
0.0
 41
0.0
  0
VERTEX
  5
   27E
  8
0
  6
CONTINUOUS
 10
-64.0661404700382
 20
251.023035297766
 30
0.0
 40
0.0
 41
0.0
  0
VERTEX
  5
   27F
  8
0
  6
CONTINUOUS
 10
-64.0980769316777
 20
250.976619071779
 30
0.0
 40
0.0
 41
0.0
  0
VERTEX
  5
   280
  8
0
  6
CONTINUOUS
 10
-64.1277255522339
 20
250.92982494549
 30
0.0
 40
0.0
 41
0.0
  0
VERTEX
  5
   281
  8
0
  6
CONTINUOUS
 10
-64.1550684724862
 20
250.882681105931
 30
0.0
 40
0.0
 41
0.0
  0
VERTEX
  5
   282
  8
0
  6
CONTINUOUS
 10
-64.1800892220821
 20
250.835215950787
 30
0.0
 40
0.0
 41
0.0
  0
VERTEX
  5
   283
  8
0
  6
CONTINUOUS
 10
-64.2027727294575
 20
250.787458071294
 30
0.0
 40
0.0
 41
0.0
  0
VERTEX
  5
   284
  8
0
  6
CONTINUOUS
 10
-64.2231053309157
 20
250.739436235013
 30
0.0
 40
0.0
 41
0.0
  0
VERTEX
  5
   285
  8
0
  6
CONTINUOUS
 10
-64.241074778858
 20
250.691179368501
 30
0.0
 40
0.0
 41
0.0
  0
VERTEX
  5
   286
  8
0
  6
CONTINUOUS
 10
-64.2566702491608
 20
250.642716539891
 30
0.0
 40
0.0
 41
0.0
  0
VERTEX
  5
   287
  8
0
  6
CONTINUOUS
 10
-64.2698823476959
 20
250.594076941378
 30
0.0
 40
0.0
 41
0.0
  0
VERTEX
  5
   288
  8
0
  6
CONTINUOUS
 10
-64.2807031159892
 20
250.545289871639
 30
0.0
 40
0.0
 41
0.0
  0
VERTEX
  5
   289
  8
0
  6
CONTINUOUS
 10
-64.2891260360146
 20
250.496384718179
 30
0.0
 40
0.0
 41
0.0
  0
VERTEX
  5
   28A
  8
0
  6
CONTINUOUS
 10
-64.2951460341199
 20
250.447390939635
 30
0.0
 40
0.0
 41
0.0
  0
VERTEX
  5
   28B
  8
0
  6
CONTINUOUS
 10
-64.2987594840834
 20
250.398338048025
 30
0.0
 40
0.0
 41
0.0
  0
VERTEX
  5
   28C
  8
0
  6
CONTINUOUS
 10
-64.299964209298
 20
250.34925559098
 30
0.0
 40
0.0
 41
0.0
  0
SEQEND
  5
   28D
  8
0
  6
CONTINUOUS
 62
   218
  0
INSERT
  5
   28E
  8
0
  6
CONTINUOUS
 62
   218
  2
*HATCH104
 10
0.0
 20
0.0
 30
0.0
  0
LINE
  5
   28F
  8
0
  6
CONTINUOUS
 62
   218
 10
-62.878366952658
 20
208.737096448576
 30
0.0
 11
-58.8228463963633
 21
231.737096448576
 31
0.0
  0
LINE
  5
   290
  8
0
  6
CONTINUOUS
 62
   218
 10
-61.456769696018
 20
208.737096448575
 30
0.0
 11
-58.099964209298
 21
227.774486377403
 31
0.0
  0
LINE
  5
   291
  8
0
  6
CONTINUOUS
 62
   218
 10
-60.035172439378
 20
208.737096448575
 30
0.0
 11
-58.099964209298
 21
219.712207701002
 31
0.0
  0
LINE
  5
   292
  8
0
  6
CONTINUOUS
 62
   218
 10
-58.613575182738
 20
208.737096448575
 30
0.0
 11
-58.0999642092981
 21
211.649929024601
 31
0.0
  0
LINE
  5
   293
  8
0
  6
CONTINUOUS
 62
   218
 10
-65.7215614659381
 20
208.737096448575
 30
0.0
 11
-61.6660409096434
 21
231.737096448576
 31
0.0
  0
LINE
  5
   294
  8
0
  6
CONTINUOUS
 62
   218
 10
-67.1431587225781
 20
208.737096448575
 30
0.0
 11
-63.0876381662835
 21
231.737096448575
 31
0.0
  0
LINE
  5
   295
  8
0
  6
CONTINUOUS
 62
   218
 10
-68.5647559792182
 20
208.737096448576
 30
0.0
 11
-64.5092354229235
 21
231.737096448576
 31
0.0
  0
LINE
  5
   296
  8
0
  6
CONTINUOUS
 62
   218
 10
-69.9863532358582
 20
208.737096448575
 30
0.0
 11
-65.9308326795636
 21
231.737096448575
 31
0.0
  0
LINE
  5
   297
  8
0
  6
CONTINUOUS
 62
   218
 10
-70.499964209298
 20
213.886542548952
 30
0.0
 11
-67.3524299362037
 21
231.737096448576
 31
0.0
  0
LINE
  5
   298
  8
0
  6
CONTINUOUS
 62
   218
 10
-70.4999642092981
 20
221.948821225353
 30
0.0
 11
-68.7740271928438
 21
231.737096448575
 31
0.0
  0
LINE
  5
   299
  8
0
  6
CONTINUOUS
 62
   218
 10
-70.499964209298
 20
230.011099901754
 30
0.0
 11
-70.1956244494838
 21
231.737096448575
 31
0.0
  0
ENDBLK
  5
   29A
  8
0
  6
CONTINUOUS
 62
     7
  0
BLOCK
  5
   29B
  8
0
  6
CONTINUOUS
 62
     7
  2
TS4
 70
    64
 10
0.0
 20
0.0
 30
0.0
  3
TS4
  0
POINT
  5
   29C
  8
0
  6
CONTINUOUS
 62
     7
 10
-116.499938964844
 20
250.737045288086
 30
0.0
  0
LINE
  5
   29D
  8
0
  6
CONTINUOUS
 62
   130
 10
-140.000015258781
 20
235.237045288019
 30
0.0
 11
-103.000015258781
 21
235.237045288019
 31
0.0
  0
ARC
  5
   29E
  8
0
  6
CONTINUOUS
 62
     5
 10
-121.499938964844
 20
250.737045288086
 30
0.0
 40
3.99999999999999
 50
270.0
 51
450.0
  0
LINE
  5
   29F
  8
0
  6
CONTINUOUS
 62
     5
 10
-123.999938964844
 20
240.737045288086
 30
0.0
 11
-123.999938964844
 21
260.737045288086
 31
0.0
  0
LINE
  5
   2A0
  8
0
  6
CONTINUOUS
 62
     5
 10
-123.999938964844
 20
260.737045288086
 30
0.0
 11
-121.499938964844
 21
260.737045288086
 31
0.0
  0
LINE
  5
   2A1
  8
0
  6
CONTINUOUS
 62
     5
 10
-104.099938964844
 20
260.737045288086
 30
0.0
 11
-88.9999389648438
 21
260.737045288086
 31
0.0
  0
LINE
  5
   2A2
  8
0
  6
CONTINUOUS
 62
     5
 10
-123.999938964844
 20
240.737045288086
 30
0.0
 11
-121.499938964844
 21
240.737045288086
 31
0.0
  0
LINE
  5
   2A3
  8
0
  6
CONTINUOUS
 62
     5
 10
-104.099938964844
 20
240.737045288086
 30
0.0
 11
-88.9999389648438
 21
240.737045288086
 31
0.0
  0
ARC
  5
   2A4
  8
0
  6
CONTINUOUS
 62
     5
 10
-121.499938964844
 20
250.737045288086
 30
0.0
 40
1.49999999999999
 50
270.0
 51
450.0
  0
ARC
  5
   2A5
  8
0
  6
CONTINUOUS
 62
     5
 10
-121.499938964844
 20
254.737045288086
 30
0.0
 40
2.5
 50
180.0
 51
270.0
  0
ARC
  5
   2A6
  8
0
  6
CONTINUOUS
 62
     5
 10
-121.499938964844
 20
246.737045288086
 30
0.0
 40
2.5
 50
89.9999999999997
 51
180.0
  0
LINE
  5
   2A7
  8
0
  6
CONTINUOUS
 62
     5
 10
-86.9999389648438
 20
242.737045288086
 30
0.0
 11
-86.9999389648438
 21
244.737045288086
 31
0.0
  0
ARC
  5
   2A8
  8
0
  6
CONTINUOUS
 62
     5
 10
-88.9999389648438
 20
258.737045288086
 30
0.0
 40
2.0
 50
360.0
 51
450.0
  0
ARC
  5
   2A9
  8
0
  6
CONTINUOUS
 62
     5
 10
-88.9999389648438
 20
242.737045288086
 30
0.0
 40
2.0
 50
270.0
 51
360.0
  0
LINE
  5
   2AA
  8
0
  6
CONTINUOUS
 62
     5
 10
-95.9999389648438
 20
240.737045288086
 30
0.0
 11
-95.9999389648438
 21
244.737045288086
 31
0.0
  0
LINE
  5
   2AB
  8
0
  6
CONTINUOUS
 62
     5
 10
-91.9999389648438
 20
240.737045288086
 30
0.0
 11
-91.9999389648438
 21
244.737045288086
 31
0.0
  0
LINE
  5
   2AC
  8
0
  6
CONTINUOUS
 62
     1
 10
-104.099938964844
 20
259.237045288086
 30
0.0
 11
-100.599938964844
 21
259.237045288086
 31
0.0
  0
LINE
  5
   2AD
  8
0
  6
CONTINUOUS
 62
     1
 10
-104.099938964844
 20
242.237045288086
 30
0.0
 11
-100.599938964844
 21
242.237045288086
 31
0.0
  0
LINE
  5
   2AE
  8
0
  6
CONTINUOUS
 62
     1
 10
-103.099938964844
 20
242.237045288086
 30
0.0
 11
-103.099938964844
 21
243.737045288087
 31
0.0
  0
LINE
  5
   2AF
  8
0
  6
CONTINUOUS
 62
     1
 10
-100.599938964844
 20
242.237045288086
 30
0.0
 11
-100.599938964844
 21
243.737045288087
 31
0.0
  0
ARC
  5
   2B0
  8
0
  6
CONTINUOUS
 62
     1
 10
-102.349938964844
 20
256.737045288086
 30
0.0
 40
1.25000000000002
 50
126.869897645844
 51
233.130102354156
  0
LINE
  5
   2B1
  8
0
  6
CONTINUOUS
 62
     1
 10
-103.099938964844
 20
257.737045288086
 30
0.0
 11
-103.099938964844
 21
259.237045288086
 31
0.0
  0
ARC
  5
   2B2
  8
0
  6
CONTINUOUS
 62
     1
 10
-102.349938964844
 20
244.737045288086
 30
0.0
 40
1.25000000000002
 50
126.869897645844
 51
233.130102354156
  0
LINE
  5
   2B3
  8
0
  6
CONTINUOUS
 62
     1
 10
-103.099938964844
 20
245.737045288085
 30
0.0
 11
-103.099938964844
 21
255.737045288086
 31
0.0
  0
ARC
  5
   2B4
  8
0
  6
CONTINUOUS
 62
     1
 10
-99.8499389648438
 20
256.737045288086
 30
0.0
 40
1.25000000000002
 50
126.869897645844
 51
233.130102354156
  0
ARC
  5
   2B5
  8
0
  6
CONTINUOUS
 62
     1
 10
-99.8499389648438
 20
244.737045288086
 30
0.0
 40
1.25000000000002
 50
126.869897645844
 51
233.130102354156
  0
LINE
  5
   2B6
  8
0
  6
CONTINUOUS
 62
     1
 10
-100.599938964844
 20
257.737045288086
 30
0.0
 11
-100.599938964844
 21
259.237045288086
 31
0.0
  0
LINE
  5
   2B7
  8
0
  6
CONTINUOUS
 62
     1
 10
-100.599938964844
 20
245.737045288085
 30
0.0
 11
-100.599938964844
 21
246.237045288086
 31
0.0
  0
LINE
  5
   2B8
  8
0
  6
CONTINUOUS
 62
     1
 10
-102.099938964844
 20
253.737045288086
 30
0.0
 11
-99.0999389648438
 21
253.737045288086
 31
0.0
  0
LINE
  5
   2B9
  8
0
  6
CONTINUOUS
 62
     1
 10
-102.099938964844
 20
247.737045288086
 30
0.0
 11
-99.0999389648438
 21
247.737045288086
 31
0.0
  0
LINE
  5
   2BA
  8
0
  6
CONTINUOUS
 62
     1
 10
-100.599938964844
 20
255.237045288086
 30
0.0
 11
-99.0999389648438
 21
255.237045288086
 31
0.0
  0
LINE
  5
   2BB
  8
0
  6
CONTINUOUS
 62
     1
 10
-100.599938964844
 20
246.237045288086
 30
0.0
 11
-99.0999389648438
 21
246.237045288086
 31
0.0
  0
LINE
  5
   2BC
  8
0
  6
CONTINUOUS
 62
     1
 10
-100.599938964844
 20
255.237045288086
 30
0.0
 11
-100.599938964844
 21
255.737045288086
 31
0.0
  0
ARC
  5
   2BD
  8
0
  6
CONTINUOUS
 62
     1
 10
-102.099938964844
 20
254.737045288086
 30
0.0
 40
1.0
 50
180.0
 51
270.0
  0
ARC
  5
   2BE
  8
0
  6
CONTINUOUS
 62
     1
 10
-102.099938964844
 20
246.737045288086
 30
0.0
 40
1.0
 50
90.0
 51
180.0
  0
LINE
  5
   2BF
  8
0
  6
CONTINUOUS
 62
     2
 10
-102.599938964844
 20
252.737045288086
 30
0.0
 11
-99.0999389648438
 21
252.737045288086
 31
0.0
  0
LINE
  5
   2C0
  8
0
  6
CONTINUOUS
 62
     2
 10
-102.599938964844
 20
248.737045288086
 30
0.0
 11
-99.0999389648438
 21
248.737045288086
 31
0.0
  0
LINE
  5
   2C1
  8
0
  6
CONTINUOUS
 62
     2
 10
-99.099938964844
 20
248.737045288086
 30
0.0
 11
-97.9452384264647
 21
250.737045288086
 31
0.0
  0
LINE
  5
   2C2
  8
0
  6
CONTINUOUS
 62
     2
 10
-99.0999389648437
 20
252.737045288086
 30
0.0
 11
-97.9452384264645
 21
250.737045288086
 31
0.0
  0
LINE
  5
   2C3
  8
0
  6
CONTINUOUS
 62
     2
 10
-99.0999389648438
 20
248.737045288086
 30
0.0
 11
-99.0999389648438
 21
252.737045288086
 31
0.0
  0
LINE
  5
   2C4
  8
0
  6
CONTINUOUS
 62
     2
 10
-99.0999389648438
 20
255.237045288086
 30
0.0
 11
-99.0999389648438
 21
255.737045288086
 31
0.0
  0
LINE
  5
   2C5
  8
0
  6
CONTINUOUS
 62
     1
 10
-99.0999389648438
 20
246.237045288086
 30
0.0
 11
-99.0999389648438
 21
247.737045288086
 31
0.0
  0
LINE
  5
   2C6
  8
0
  6
CONTINUOUS
 62
     1
 10
-99.0999389648438
 20
253.737045288086
 30
0.0
 11
-99.0999389648438
 21
255.237045288086
 31
0.0
  0
LINE
  5
   2C7
  8
0
  6
CONTINUOUS
 62
     2
 10
-80.0999389648438
 20
245.737045288086
 30
0.0
 11
-80.0999389648438
 21
255.737045288086
 31
0.0
  0
LINE
  5
   2C8
  8
0
  6
CONTINUOUS
 62
     2
 10
-98.0999389648438
 20
256.737045288086
 30
0.0
 11
-81.0999389648438
 21
256.737045288086
 31
0.0
  0
LINE
  5
   2C9
  8
0
  6
CONTINUOUS
 62
     2
 10
-98.0999389648438
 20
244.737045288086
 30
0.0
 11
-81.0999389648438
 21
244.737045288086
 31
0.0
  0
LINE
  5
   2CA
  8
0
  6
CONTINUOUS
 62
     5
 10
-95.9999389648438
 20
256.737045288086
 30
0.0
 11
-95.9999389648438
 21
260.737045288086
 31
0.0
  0
LINE
  5
   2CB
  8
0
  6
CONTINUOUS
 62
     5
 10
-91.9999389648438
 20
256.737045288086
 30
0.0
 11
-91.9999389648438
 21
260.737045288086
 31
0.0
  0
LINE
  5
   2CC
  8
0
  6
CONTINUOUS
 62
     5
 10
-86.9999389648438
 20
256.737045288086
 30
0.0
 11
-86.9999389648438
 21
258.737045288086
 31
0.0
  0
LINE
  5
   2CD
  8
0
  6
CONTINUOUS
 62
     2
 10
-81.0999389648438
 20
256.737045288086
 30
0.0
 11
-80.0999389648437
 21
255.737045288086
 31
0.0
  0
LINE
  5
   2CE
  8
0
  6
CONTINUOUS
 62
     2
 10
-81.0999389648438
 20
244.737045288086
 30
0.0
 11
-80.0999389648438
 21
245.737045288086
 31
0.0
  0
LINE
  5
   2CF
  8
0
  6
CONTINUOUS
 62
     2
 10
-99.0999389648438
 20
245.737045288086
 30
0.0
 11
-98.0999389648438
 21
244.737045288086
 31
0.0
  0
LINE
  5
   2D0
  8
0
  6
CONTINUOUS
 62
     2
 10
-99.0999389648437
 20
255.737045288086
 30
0.0
 11
-98.0999389648437
 21
256.737045288086
 31
0.0
  0
LINE
  5
   2D1
  8
0
  6
CONTINUOUS
 62
     2
 10
-81.0999389648438
 20
244.737045288086
 30
0.0
 11
-81.0999389648438
 21
256.737045288086
 31
0.0
  0
LINE
  5
   2D2
  8
0
  6
CONTINUOUS
 62
     7
 10
-98.8499389648438
 20
255.987045288086
 30
0.0
 11
-80.3499389648438
 21
255.987045288086
 31
0.0
  0
LINE
  5
   2D3
  8
0
  6
CONTINUOUS
 62
     7
 10
-98.8499389648357
 20
245.487045288089
 30
0.0
 11
-80.3499389648402
 21
245.487045288089
 31
0.0
  0
LINE
  5
   2D4
  8
0
  6
CONTINUOUS
 62
     2
 10
-99.0999389648438
 20
245.737045288086
 30
0.0
 11
-99.0999389648438
 21
246.237045288086
 31
0.0
  0
ARC
  5
   2D5
  8
0
  6
CONTINUOUS
 62
     2
 10
-102.599938964844
 20
253.237045288086
 30
0.0
 40
0.5
 50
180.0
 51
270.0
  0
ARC
  5
   2D6
  8
0
  6
CONTINUOUS
 62
     2
 10
-102.599938964844
 20
248.237045288086
 30
0.0
 40
0.5
 50
90.0
 51
180.0
  0
LINE
  5
   2D7
  8
0
  6
CONTINUOUS
 62
     7
 10
-96.7399243713875
 20
244.239486922159
 30
0.0
 11
-96.7399243713875
 21
257.484599841583
 31
0.0
  0
LINE
  5
   2D8
  8
0
  6
CONTINUOUS
 62
     7
 10
-95.9999389648438
 20
256.737045288086
 30
0.0
 11
-94.9999389648437
 21
256.737045288086
 31
0.0
  0
LINE
  5
   2D9
  8
0
  6
CONTINUOUS
 62
     7
 10
-95.9999389648438
 20
244.737045288086
 30
0.0
 11
-94.9999389648437
 21
244.737045288086
 31
0.0
  0
LINE
  5
   2DA
  8
0
  6
CONTINUOUS
 62
     3
 10
-116.499938964844
 20
235.236949199208
 30
0.0
 11
-116.499938964844
 21
240.737045288086
 31
0.0
  0
LINE
  5
   2DB
  8
0
  6
DASHDOT
 62
     7
 10
-123.681527827821
 20
250.737045288086
 30
0.0
 11
-64.1564715620206
 21
250.737045288086
 31
0.0
  0
LINE
  5
   2DC
  8
0
  6
CONTINUOUS
 62
     3
 10
-121.499938964844
 20
240.737045288086
 30
0.0
 11
-116.499938964844
 21
240.737045288086
 31
0.0
  0
LINE
  5
   2DD
  8
0
  6
CONTINUOUS
 62
     3
 10
-121.499938964844
 20
260.737045288086
 30
0.0
 11
-116.499938964844
 21
260.737045288086
 31
0.0
  0
LINE
  5
   2DE
  8
0
  6
CONTINUOUS
 62
     3
 10
-121.499938964844
 20
254.837045288086
 30
0.0
 11
-116.499938964844
 21
254.837045288086
 31
0.0
  0
LINE
  5
   2DF
  8
0
  6
CONTINUOUS
 62
     3
 10
-121.499938964844
 20
246.637045288086
 30
0.0
 11
-116.499938964844
 21
246.637045288086
 31
0.0
  0
LINE
  5
   2E0
  8
0
  6
CONTINUOUS
 62
     3
 10
-121.499938964844
 20
254.737045288086
 30
0.0
 11
-121.499938964844
 21
260.737045288086
 31
0.0
  0
LINE
  5
   2E1
  8
0
  6
CONTINUOUS
 62
     7
 10
-123.186801800995
 20
243.303746490573
 30
0.0
 11
-114.974347330342
 21
243.303746490573
 31
0.0
  0
INSERT
  5
   2E2
  8
0
  6
CONTINUOUS
 62
     7
  2
*HATCH95
 10
0.0
 20
0.0
 30
0.0
  0
INSERT
  5
   2E3
  8
0
  6
CONTINUOUS
 62
     7
  2
*HATCH96
 10
0.0
 20
0.0
 30
0.0
  0
LINE
  5
   2E4
  8
0
  6
CONTINUOUS
 62
     3
 10
-121.499938964844
 20
235.236945075216
 30
0.0
 11
-121.499938964844
 21
246.737045288086
 31
0.0
  0
LINE
  5
   2E5
  8
0
  6
CONTINUOUS
 62
     7
 10
-125.85605915655
 20
233.393489119924
 30
0.0
 11
-125.85605915655
 21
276.295116212832
 31
0.0
  0
INSERT
  5
   2E6
  8
0
  6
CONTINUOUS
 62
     7
  2
*HATCH97
 10
0.0
 20
0.0
 30
0.0
  0
INSERT
  5
   2E7
  8
0
  6
CONTINUOUS
 62
     7
  2
*HATCH98
 10
0.0
 20
0.0
 30
0.0
  0
INSERT
  5
   2E8
  8
0
  6
CONTINUOUS
 62
     7
  2
*HATCH99
 10
0.0
 20
0.0
 30
0.0
  0
INSERT
  5
   2E9
  8
0
  6
CONTINUOUS
 62
     7
  2
*HATCH100
 10
0.0
 20
0.0
 30
0.0
  0
INSERT
  5
   2EA
  8
0
  6
CONTINUOUS
 62
     7
  2
*HATCH101
 10
0.0
 20
0.0
 30
0.0
  0
INSERT
  5
   2EB
  8
0
  6
CONTINUOUS
 62
     7
  2
*HATCH102
 10
0.0
 20
0.0
 30
0.0
  0
LINE
  5
   2EC
  8
0
  6
CONTINUOUS
 62
   130
 10
-73.0000152587808
 20
239.486984046877
 30
0.0
 11
-73.0000152587808
 21
273.986984046889
 31
0.0
  0
LINE
  5
   2ED
  8
0
  6
CONTINUOUS
 62
   130
 10
-75.5000152587808
 20
240.236983015879
 30
0.0
 11
-75.5000152587808
 21
273.236983015891
 31
0.0
  0
LINE
  5
   2EE
  8
0
  6
CONTINUOUS
 62
   130
 10
-103.000015258781
 20
238.237045288018
 30
0.0
 11
-74.2500142277828
 21
238.237045288018
 31
0.0
  0
LINE
  5
   2EF
  8
0
  6
CONTINUOUS
 62
   130
 10
-105.000015258781
 20
240.237045288017
 30
0.0
 11
-75.5000152587808
 21
240.237045288017
 31
0.0
  0
LINE
  5
   2F0
  8
0
  6
CONTINUOUS
 62
   130
 10
-103.000015258781
 20
235.236913507829
 30
0.0
 11
-103.000015258781
 21
238.236960333924
 31
0.0
  0
LINE
  5
   2F1
  8
0
  6
CONTINUOUS
 62
   130
 10
-105.000015258781
 20
237.236916282155
 30
0.0
 11
-105.000015258781
 21
240.236958684328
 31
0.0
  0
LINE
  5
   2F2
  8
0
  6
CONTINUOUS
 62
   130
 10
-115.999938952025
 20
237.236931540834
 30
0.0
 11
-105.000015235831
 21
237.236916282156
 31
0.0
  0
LINE
  5
   2F3
  8
0
  6
CONTINUOUS
 62
   130
 10
-102.299938964844
 20
275.237045288005
 30
0.0
 11
-74.2500162897787
 21
275.237045288005
 31
0.0
  0
ARC
  5
   2F4
  8
0
  6
CONTINUOUS
 62
   130
 10
-74.2500152587808
 20
273.986984046889
 30
0.0
 40
1.25
 50
360.0
 51
450.000047257464
  0
LINE
  5
   2F5
  8
0
  6
CONTINUOUS
 62
   130
 10
-102.299938964844
 20
273.237045288006
 30
0.0
 11
-75.5000152587808
 21
273.237045288006
 31
0.0
  0
LINE
  5
   2F6
  8
0
  6
CONTINUOUS
 62
   130
 10
-102.299938964844
 20
271.237045288007
 30
0.0
 11
-76.4999795755596
 21
271.237045288007
 31
0.0
  0
LINE
  5
   2F7
  8
0
  6
CONTINUOUS
 62
   130
 10
-78.4999795755596
 20
273.236971056344
 30
0.0
 11
-78.4999795755596
 21
275.236971056345
 31
0.0
  0
LINE
  5
   2F8
  8
0
  6
CONTINUOUS
 62
   130
 10
-102.299938964844
 20
269.237045288007
 30
0.0
 11
-75.5000152587808
 21
269.237045288007
 31
0.0
  0
LINE
  5
   2F9
  8
0
  6
CONTINUOUS
 62
   130
 10
-76.4999795755596
 20
271.23697270594
 30
0.0
 11
-76.4999795755596
 21
273.236972705941
 31
0.0
  0
LINE
  5
   2FA
  8
0
  6
CONTINUOUS
 62
   130
 10
-151.0
 20
238.236920743616
 30
0.0
 11
-151.0
 21
275.236920743628
 31
0.0
  0
LINE
  5
   2FB
  8
0
  6
CONTINUOUS
 62
   130
 10
-115.999938964844
 20
235.236949611607
 30
0.0
 11
-115.999938964844
 21
237.236931540834
 31
0.0
  0
ARC
  5
   2FC
  8
0
  6
CONTINUOUS
 62
   130
 10
-74.2500152587808
 20
239.486984046877
 30
0.0
 40
1.25
 50
270.000047257464
 51
360.0
  0
LINE
  5
   2FD
  8
0
  6
CONTINUOUS
 62
   130
 10
-85.0000152587807
 20
239.736975180295
 30
0.0
 11
-85.0000152587807
 21
240.236975180295
 31
0.0
  0
LINE
  5
   2FE
  8
0
  6
CONTINUOUS
 62
   130
 10
-105.000015258781
 20
239.737045288017
 30
0.0
 11
-85.0000152587807
 21
239.737045288017
 31
0.0
  0
LINE
  5
   2FF
  8
0
  6
CONTINUOUS
 62
     1
 10
-104.099938964844
 20
257.737045288086
 30
0.0
 11
-103.099938964844
 21
257.737045288086
 31
0.0
  0
LINE
  5
   300
  8
0
  6
CONTINUOUS
 62
     1
 10
-104.099938964844
 20
255.737045288086
 30
0.0
 11
-103.099938964844
 21
255.737045288086
 31
0.0
  0
LINE
  5
   301
  8
0
  6
CONTINUOUS
 62
     1
 10
-104.099938964844
 20
245.737045288085
 30
0.0
 11
-103.099938964844
 21
245.737045288085
 31
0.0
  0
LINE
  5
   302
  8
0
  6
CONTINUOUS
 62
     1
 10
-104.099938964844
 20
243.737045288086
 30
0.0
 11
-103.099938964844
 21
243.737045288086
 31
0.0
  0
INSERT
  5
   303
  8
0
  6
CONTINUOUS
 62
     7
  2
*HATCH103
 10
0.0
 20
0.0
 30
0.0
  0
POINT
  5
   304
  8
0
  6
CONTINUOUS
 62
     7
 10
-116.499938964844
 20
250.737045288086
 30
0.0
  0
LINE
  5
   305
  8
0
  6
CONTINUOUS
 62
   130
 10
-151.0
 20
238.236920743616
 30
0.0
 11
-140.000015258781
 21
235.236929816384
 31
0.0
  0
LINE
  5
   306
  8
0
  6
CONTINUOUS
 62
     7
 10
-140.000015258781
 20
237.236929816385
 30
0.0
 11
-140.000015258781
 21
238.236929816385
 31
0.0
  0
LINE
  5
   307
  8
0
  6
CONTINUOUS
 62
     7
 10
-140.000015258781
 20
238.237045288018
 30
0.0
 11
-125.85605915655
 21
238.237045288018
 31
0.0
  0
LINE
  5
   308
  8
0
  6
CONTINUOUS
 62
     7
 10
-140.000014433982
 20
237.237045288018
 30
0.0
 11
-125.856058331752
 21
237.237045288018
 31
0.0
  0
LINE
  5
   309
  8
0
  6
CONTINUOUS
 62
   130
 10
-151.0
 20
275.237045288005
 30
0.0
 11
-118.299938964844
 21
275.237045288005
 31
0.0
  0
LINE
  5
   30A
  8
0
  6
CONTINUOUS
 62
   130
 10
-125.85605915655
 20
273.237045288006
 30
0.0
 11
-118.299938964844
 21
273.237045288006
 31
0.0
  0
LINE
  5
   30B
  8
0
  6
CONTINUOUS
 62
   130
 10
-125.85605915655
 20
271.237045288007
 30
0.0
 11
-118.299938964844
 21
271.237045288007
 31
0.0
  0
LINE
  5
   30C
  8
0
  6
CONTINUOUS
 62
   130
 10
-125.85605915655
 20
269.237045288007
 30
0.0
 11
-118.299938964844
 21
269.237045288007
 31
0.0
  0
INSERT
  5
   30D
  8
255
  6
CONTINUOUS
 62
     7
  2
CAVO
 10
-45.9999747555457
 20
31.9999488395106
 30
0.0
  0
ENDBLK
  5
   30E
  8
0
  6
CONTINUOUS
 62
     7
  0
BLOCK
  5
   30F
  8
0
  6
CONTINUOUS
 62
     7
  2
*UDIM385
 70
    65
 10
0.0
 20
0.0
 30
0.0
  3
*UDIM385
  0
TEXT
  5
   310
  8
0
  6
CONTINUOUS
 62
     7
 10
-680.798256610612
 20
4.43374424362186
 30
0.0
 40
2.99999994291904
  1
5,5
 50
307.954315940341
 41
0.933333333333333
 72
     1
 11
-677.216876008904
 21
2.28113830632507
 31
0.0
 73
     2
  0
TEXT
  5
   311
  8
0
  6
CONTINUOUS
 62
     7
 10
-682.735610435256
 20
6.91752358553599
 30
0.0
 40
2.99999994291904
  1
Ø
 50
307.954315940341
 41
0.933333333333333
 72
     1
 11
-680.876322114992
 21
6.9727215063409
 31
0.0
 73
     2
  0
LINE
  5
   312
  8
0
  6
CONTINUOUS
 62
     7
 10
-676.789500929608
 20
-2.33159947292209
 30
0.0
 11
-689.765354465304
 21
14.3040592276261
 31
0.0
  0
LINE
  5
   313
  8
0
  6
CONTINUOUS
 62
     7
 10
-685.94765877405
 20
10.2566112707411
 30
0.0
 11
-688.175491905431
 21
12.2657801383879
 31
0.0
  0
LINE
  5
   314
  8
0
  6
CONTINUOUS
 62
     7
 10
-688.175491905431
 20
12.2657801383879
 30
0.0
 11
-686.769189590748
 21
9.61581527074939
 31
0.0
  0
LINE
  5
   315
  8
0
  6
CONTINUOUS
 62
     7
 10
-691.993187596685
 20
16.3132280952728
 30
0.0
 11
-689.765354465304
 21
14.3040592276261
 31
0.0
  0
LINE
  5
   316
  8
0
  6
CONTINUOUS
 62
     7
 10
-689.765354465304
 20
14.3040592276261
 30
0.0
 11
-691.171656779986
 21
16.9540240952646
 31
0.0
  0
ENDBLK
  5
   317
  8
0
  6
CONTINUOUS
 62
     7
  0
BLOCK
  5
   318
  8
0
  6
CONTINUOUS
 62
     7
  2
*UDIM386
 70
    65
 10
0.0
 20
0.0
 30
0.0
  3
*UDIM386
  0
TEXT
  5
   319
  8
0
  6
CONTINUOUS
 62
     7
 10
-728.507261702057
 20
100.649223136925
 30
0.0
 40
2.99999994291904
  1
27,5
 50
359.999999948034
 41
0.933333333333333
 72
     1
 11
-723.207261801548
 21
102.149223103604
 31
0.0
 73
     2
  0
TEXT
  5
   31A
  8
0
  6
CONTINUOUS
 62
     7
 10
-717.357261891823
 20
100.649223163442
 30
0.0
 40
2.99999994291904
  1
    CORSA DI SEZIONAMENTO
 50
359.999999948034
 41
0.933333333333333
 72
     1
 11
-682.657262550706
 21
102.149223103604
 31
0.0
 73
     2
  0
LINE
  5
   31B
  8
0
  6
CONTINUOUS
 62
     7
 10
-702.365393663645
 20
52.9423873156466
 30
0.0
 11
-702.365393663645
 21
101.649223132144
 31
0.0
  0
LINE
  5
   31C
  8
0
  6
CONTINUOUS
 62
     7
 10
-715.290393630862
 20
39.7824734085953
 30
0.0
 11
-715.290393630862
 21
101.649223132144
 31
0.0
  0
LINE
  5
   31D
  8
0
  6
CONTINUOUS
 62
     7
 10
-647.957263210943
 20
99.6492231321445
 30
0.0
 11
-728.507261700705
 21
99.6492231321445
 31
0.0
  0
LINE
  5
   31E
  8
0
  6
CONTINUOUS
 62
     7
 10
-699.410970386438
 20
100.170167562096
 30
0.0
 11
-702.365393663645
 21
99.6492231321445
 31
0.0
  0
LINE
  5
   31F
  8
0
  6
CONTINUOUS
 62
     7
 10
-702.365393663645
 20
99.6492231321445
 30
0.0
 11
-699.410970386438
 21
99.1282787021928
 31
0.0
  0
LINE
  5
   320
  8
0
  6
CONTINUOUS
 62
     7
 10
-718.244816908069
 20
99.1282787021928
 30
0.0
 11
-715.290393630862
 21
99.6492231321445
 31
0.0
  0
LINE
  5
   321
  8
0
  6
CONTINUOUS
 62
     7
 10
-715.290393630862
 20
99.6492231321445
 30
0.0
 11
-718.244816908069
 21
100.170167562096
 31
0.0
  0
ENDBLK
  5
   322
  8
0
  6
CONTINUOUS
 62
     7
  0
BLOCK
  5
   323
  8
0
  6
CONTINUOUS
 62
     7
  2
*UDIM387
 70
    65
 10
0.0
 20
0.0
 30
0.0
  3
*UDIM387
  0
TEXT
  5
   324
  8
0
  6
CONTINUOUS
 62
     7
 10
-589.014767240599
 20
9.10996623202481
 30
0.0
 40
2.99999994291904
  1
285
 50
89.9999999480344
 41
0.933333333333333
 72
     1
 11
-590.514767208526
 21
13.0099661591781
 31
0.0
 73
     2
  0
LINE
  5
   325
  8
0
  6
CONTINUOUS
 62
     7
 10
-623.025070404546
 20
-53.6900174640548
 30
0.0
 11
-586.014767237066
 21
-53.6900174640548
 31
0.0
  0
LINE
  5
   326
  8
0
  6
CONTINUOUS
 62
     7
 10
-623.025070404546
 20
80.2599517885005
 30
0.0
 11
-586.014767237066
 21
80.2599517885005
 31
0.0
  0
LINE
  5
   327
  8
0
  6
CONTINUOUS
 62
     7
 10
-588.014767237066
 20
-53.6900174640548
 30
0.0
 11
-588.014767237066
 21
80.2599517885005
 31
0.0
  0
LINE
  5
   328
  8
0
  6
CONTINUOUS
 62
     7
 10
-588.535711667018
 20
-50.7355941868478
 30
0.0
 11
-588.014767237066
 21
-53.6900174640548
 31
0.0
  0
LINE
  5
   329
  8
0
  6
CONTINUOUS
 62
     7
 10
-588.014767237066
 20
-53.6900174640548
 30
0.0
 11
-587.493822807115
 21
-50.7355941868478
 31
0.0
  0
LINE
  5
   32A
  8
0
  6
CONTINUOUS
 62
     7
 10
-587.493822807115
 20
77.3055285112935
 30
0.0
 11
-588.014767237066
 21
80.2599517885005
 31
0.0
  0
LINE
  5
   32B
  8
0
  6
CONTINUOUS
 62
     7
 10
-588.014767237066
 20
80.2599517885005
 30
0.0
 11
-588.535711667018
 21
77.3055285112935
 31
0.0
  0
ENDBLK
  5
   32C
  8
0
  6
CONTINUOUS
 62
     7
  0
BLOCK
  5
   32D
  8
0
  6
CONTINUOUS
 62
     7
  2
*UDIM388
 70
    65
 10
0.0
 20
0.0
 30
0.0
  3
*UDIM388
  0
TEXT
  5
   32E
  8
0
  6
CONTINUOUS
 62
     7
 10
-597.846135782794
 20
38.808708922109
 30
0.0
 40
2.99999994291904
  1
140,75
 50
89.9999999480344
 41
0.933333333333333
 72
     1
 11
-599.346135746917
 21
46.9087087693489
 31
0.0
 73
     2
  0
LINE
  5
   32F
  8
0
  6
CONTINUOUS
 62
     7
 10
-602.319819954774
 20
14.1074734711801
 30
0.0
 11
-594.846135775458
 21
14.1074734711801
 31
0.0
  0
LINE
  5
   330
  8
0
  6
CONTINUOUS
 62
     7
 10
-623.025070404546
 20
80.2599517885005
 30
0.0
 11
-594.846135775458
 21
80.2599517885005
 31
0.0
  0
LINE
  5
   331
  8
0
  6
CONTINUOUS
 62
     7
 10
-596.846135775458
 20
14.1074734711801
 30
0.0
 11
-596.846135775458
 21
80.2599517885005
 31
0.0
  0
LINE
  5
   332
  8
0
  6
CONTINUOUS
 62
     7
 10
-597.367080205409
 20
17.0618967483871
 30
0.0
 11
-596.846135775458
 21
14.1074734711801
 31
0.0
  0
LINE
  5
   333
  8
0
  6
CONTINUOUS
 62
     7
 10
-596.846135775458
 20
14.1074734711801
 30
0.0
 11
-596.325191345506
 21
17.0618967483871
 31
0.0
  0
LINE
  5
   334
  8
0
  6
CONTINUOUS
 62
     7
 10
-596.325191345506
 20
77.3055285112935
 30
0.0
 11
-596.846135775458
 21
80.2599517885005
 31
0.0
  0
LINE
  5
   335
  8
0
  6
CONTINUOUS
 62
     7
 10
-596.846135775458
 20
80.2599517885005
 30
0.0
 11
-597.367080205409
 21
77.3055285112935
 31
0.0
  0
ENDBLK
  5
   336
  8
0
  6
CONTINUOUS
 62
     7
  0
BLOCK
  5
   337
  8
0
  6
CONTINUOUS
 62
     7
  2
*UDIM389
 70
    65
 10
0.0
 20
0.0
 30
0.0
  3
*UDIM389
  0
TEXT
  5
   338
  8
0
  6
CONTINUOUS
 62
     7
 10
-602.132646079277
 20
106.579889316825
 30
0.0
 40
2.99999994291904
  1
3
 50
359.999999948034
 41
0.933333333333333
 72
     1
 11
-601.032646098854
 21
108.079889287292
 31
0.0
 73
     2
  0
TEXT
  5
   339
  8
0
  6
CONTINUOUS
 62
     7
 10
-604.882646049339
 20
106.579889316825
 30
0.0
 40
2.99999994291904
  1
_
 50
359.999999948034
 41
0.933333333333333
 72
     1
 11
-603.782646068916
 21
108.079889287292
 31
0.0
 73
     2
  0
LINE
  5
   33A
  8
0
  6
CONTINUOUS
 62
     7
 10
-609.070395693183
 20
99.8295742487488
 30
0.0
 11
-609.070395693183
 21
107.579889315833
 31
0.0
  0
LINE
  5
   33B
  8
0
  6
CONTINUOUS
 62
     7
 10
-610.480395689607
 20
99.8575874937108
 30
0.0
 11
-610.480395689607
 21
107.579889315833
 31
0.0
  0
LINE
  5
   33C
  8
0
  6
CONTINUOUS
 62
     7
 10
-599.932646119784
 20
105.579889315833
 30
0.0
 11
-610.480395689607
 21
105.579889315833
 31
0.0
  0
LINE
  5
   33D
  8
0
  6
CONTINUOUS
 62
     7
 10
-606.115972415976
 20
106.100833745784
 30
0.0
 11
-609.070395693183
 21
105.579889315833
 31
0.0
  0
LINE
  5
   33E
  8
0
  6
CONTINUOUS
 62
     7
 10
-609.070395693183
 20
105.579889315833
 30
0.0
 11
-606.115972415976
 21
105.058944885881
 31
0.0
  0
LINE
  5
   33F
  8
0
  6
CONTINUOUS
 62
     7
 10
-613.434818966814
 20
105.058944885881
 30
0.0
 11
-610.480395689607
 21
105.579889315833
 31
0.0
  0
LINE
  5
   340
  8
0
  6
CONTINUOUS
 62
     7
 10
-610.480395689607
 20
105.579889315833
 30
0.0
 11
-613.434818966814
 21
106.100833745784
 31
0.0
  0
ENDBLK
  5
   341
  8
0
  6
CONTINUOUS
 62
     7
  0
BLOCK
  5
   342
  8
0
  6
CONTINUOUS
 62
     7
  2
*UDIM390
 70
    65
 10
0.0
 20
0.0
 30
0.0
  3
*UDIM390
  0
TEXT
  5
   343
  8
0
  6
CONTINUOUS
 62
     7
 10
-621.715407662567
 20
106.579889318087
 30
0.0
 40
2.99999994291904
  1
36
 50
359.999999948034
 41
0.933333333333333
 72
     1
 11
-619.215407708782
 21
108.079889287292
 31
0.0
 73
     2
  0
LINE
  5
   344
  8
0
  6
CONTINUOUS
 62
     7
 10
-627.400417161584
 20
87.3699517730033
 30
0.0
 11
-627.400417161584
 21
107.579889315833
 31
0.0
  0
LINE
  5
   345
  8
0
  6
CONTINUOUS
 62
     7
 10
-610.480395689607
 20
105.579889315833
 30
0.0
 11
-627.400417161584
 21
105.579889315833
 31
0.0
  0
LINE
  5
   346
  8
0
  6
CONTINUOUS
 62
     7
 10
-613.434818966814
 20
105.058944885881
 30
0.0
 11
-610.480395689607
 21
105.579889315833
 31
0.0
  0
LINE
  5
   347
  8
0
  6
CONTINUOUS
 62
     7
 10
-610.480395689607
 20
105.579889315833
 30
0.0
 11
-613.434818966814
 21
106.100833745784
 31
0.0
  0
LINE
  5
   348
  8
0
  6
CONTINUOUS
 62
     7
 10
-624.445993884377
 20
106.100833745784
 30
0.0
 11
-627.400417161584
 21
105.579889315833
 31
0.0
  0
LINE
  5
   349
  8
0
  6
CONTINUOUS
 62
     7
 10
-627.400417161584
 20
105.579889315833
 30
0.0
 11
-624.445993884377
 21
105.058944885881
 31
0.0
  0
ENDBLK
  5
   34A
  8
0
  6
CONTINUOUS
 62
     7
  0
BLOCK
  5
   34B
  8
0
  6
CONTINUOUS
 62
     7
  2
*UDIM391
 70
    65
 10
0.0
 20
0.0
 30
0.0
  3
*UDIM391
  0
TEXT
  5
   34C
  8
0
  6
CONTINUOUS
 62
     7
 10
-650.777994893089
 20
106.579889321876
 30
0.0
 40
2.99999994291904
  1
18x18
 50
359.999999948034
 41
0.933333333333333
 72
     1
 11
-644.077995019216
 21
108.079889287292
 31
0.0
 73
     2
  0
LINE
  5
   34D
  8
0
  6
CONTINUOUS
 62
     7
 10
-633.228417146802
 20
87.3699517730033
 30
0.0
 11
-633.228417146802
 21
107.579889315833
 31
0.0
  0
LINE
  5
   34E
  8
0
  6
CONTINUOUS
 62
     7
 10
-627.400417161584
 20
105.579889315833
 30
0.0
 11
-650.777994891736
 21
105.579889315833
 31
0.0
  0
LINE
  5
   34F
  8
0
  6
CONTINUOUS
 62
     7
 10
-624.445993884377
 20
106.100833745784
 30
0.0
 11
-627.400417161584
 21
105.579889315833
 31
0.0
  0
LINE
  5
   350
  8
0
  6
CONTINUOUS
 62
     7
 10
-627.400417161584
 20
105.579889315833
 30
0.0
 11
-624.445993884377
 21
105.058944885881
 31
0.0
  0
LINE
  5
   351
  8
0
  6
CONTINUOUS
 62
     7
 10
-636.182840424009
 20
105.058944885881
 30
0.0
 11
-633.228417146802
 21
105.579889315833
 31
0.0
  0
LINE
  5
   352
  8
0
  6
CONTINUOUS
 62
     7
 10
-633.228417146802
 20
105.579889315833
 30
0.0
 11
-636.182840424009
 21
106.100833745784
 31
0.0
  0
ENDBLK
  5
   353
  8
0
  6
CONTINUOUS
 62
     7
  0
BLOCK
  5
   354
  8
0
  6
CONTINUOUS
 62
     7
  2
*UDIM392
 70
    65
 10
0.0
 20
0.0
 30
0.0
  3
*UDIM392
  0
TEXT
  5
   355
  8
0
  6
CONTINUOUS
 62
     7
 10
-634.737887357126
 20
-73.8986041791468
 30
0.0
 40
2.99999994291904
  1
79,5
 50
359.999999948034
 41
0.933333333333333
 72
     1
 11
-629.437887456616
 21
-72.3986042124676
 31
0.0
 73
     2
  0
LINE
  5
   356
  8
0
  6
CONTINUOUS
 62
     7
 10
-610.480395689607
 20
-73.6337111686632
 30
0.0
 11
-610.480395689607
 21
-76.8986041839271
 31
0.0
  0
LINE
  5
   357
  8
0
  6
CONTINUOUS
 62
     7
 10
-647.845381251578
 20
-65.6174886529761
 30
0.0
 11
-647.845381251578
 21
-76.8986041839271
 31
0.0
  0
LINE
  5
   358
  8
0
  6
CONTINUOUS
 62
     7
 10
-610.480395689607
 20
-74.8986041839271
 30
0.0
 11
-647.845381251578
 21
-74.8986041839271
 31
0.0
  0
LINE
  5
   359
  8
0
  6
CONTINUOUS
 62
     7
 10
-613.434818966814
 20
-75.4195486138788
 30
0.0
 11
-610.480395689607
 21
-74.8986041839271
 31
0.0
  0
LINE
  5
   35A
  8
0
  6
CONTINUOUS
 62
     7
 10
-610.480395689607
 20
-74.8986041839271
 30
0.0
 11
-613.434818966814
 21
-74.3776597539754
 31
0.0
  0
LINE
  5
   35B
  8
0
  6
CONTINUOUS
 62
     7
 10
-644.890957974371
 20
-74.3776597539754
 30
0.0
 11
-647.845381251578
 21
-74.8986041839271
 31
0.0
  0
LINE
  5
   35C
  8
0
  6
CONTINUOUS
 62
     7
 10
-647.845381251578
 20
-74.8986041839271
 30
0.0
 11
-644.890957974371
 21
-75.4195486138788
 31
0.0
  0
ENDBLK
  5
   35D
  8
0
  6
CONTINUOUS
 62
     7
  0
BLOCK
  5
   35E
  8
0
  6
CONTINUOUS
 62
     7
  2
*UDIM393
 70
    65
 10
0.0
 20
0.0
 30
0.0
  3
*UDIM393
  0
TEXT
  5
   35F
  8
0
  6
CONTINUOUS
 62
     7
 10
-724.082788290839
 20
9.93245906616008
 30
0.0
 40
2.99999994291904
  1
105
 50
89.9999999480344
 41
0.933333333333333
 72
     1
 11
-725.582788258766
 21
13.8324589933134
 31
0.0
 73
     2
  0
LINE
  5
   360
  8
0
  6
CONTINUOUS
 62
     7
 10
-700.780393670201
 20
-10.5675497740352
 30
0.0
 11
-725.082788287306
 21
-10.5675497740352
 31
0.0
  0
LINE
  5
   361
  8
0
  6
CONTINUOUS
 62
     7
 10
-700.780393670201
 20
38.7824734085953
 30
0.0
 11
-725.082788287306
 21
38.7824734085953
 31
0.0
  0
LINE
  5
   362
  8
0
  6
CONTINUOUS
 62
     7
 10
-723.082788287306
 20
-10.5675497740352
 30
0.0
 11
-723.082788287306
 21
38.7824734085953
 31
0.0
  0
LINE
  5
   363
  8
0
  6
CONTINUOUS
 62
     7
 10
-723.603732717258
 20
-7.61312649682827
 30
0.0
 11
-723.082788287306
 21
-10.5675497740352
 31
0.0
  0
LINE
  5
   364
  8
0
  6
CONTINUOUS
 62
     7
 10
-723.082788287306
 20
-10.5675497740352
 30
0.0
 11
-722.561843857355
 21
-7.61312649682827
 31
0.0
  0
LINE
  5
   365
  8
0
  6
CONTINUOUS
 62
     7
 10
-722.561843857355
 20
35.8280501313883
 30
0.0
 11
-723.082788287306
 21
38.7824734085953
 31
0.0
  0
LINE
  5
   366
  8
0
  6
CONTINUOUS
 62
     7
 10
-723.082788287306
 20
38.7824734085953
 30
0.0
 11
-723.603732717258
 21
35.8280501313883
 31
0.0
  0
ENDBLK
  5
   367
  8
0
  6
CONTINUOUS
 62
     7
  0
BLOCK
  5
   368
  8
0
  6
CONTINUOUS
 62
     7
  2
*UDIM394
 70
    65
 10
0.0
 20
0.0
 30
0.0
  3
*UDIM394
  0
TEXT
  5
   369
  8
0
  6
CONTINUOUS
 62
     7
 10
-656.664328876008
 20
-0.790075639020863
 30
0.0
 40
2.99999994291904
  1
1,75
 50
89.9999999480344
 41
0.933333333333333
 72
     1
 11
-658.164328842667
 21
4.50992426149468
 31
0.0
 73
     2
  0
LINE
  5
   36A
  8
0
  6
CONTINUOUS
 62
     7
 10
-682.800431287239
 20
13.2849224981907
 30
0.0
 11
-653.664328871207
 21
13.2849224981907
 31
0.0
  0
LINE
  5
   36B
  8
0
  6
CONTINUOUS
 62
     7
 10
-655.664328871207
 20
-0.790075637662291
 30
0.0
 11
-655.664328871207
 21
14.1074734711801
 31
0.0
  0
LINE
  5
   36C
  8
0
  6
CONTINUOUS
 62
     7
 10
-655.143384441256
 20
10.3304992209837
 30
0.0
 11
-655.664328871207
 21
13.2849224981907
 31
0.0
  0
LINE
  5
   36D
  8
0
  6
CONTINUOUS
 62
     7
 10
-655.664328871207
 20
13.2849224981907
 30
0.0
 11
-656.185273301159
 21
10.3304992209837
 31
0.0
  0
LINE
  5
   36E
  8
0
  6
CONTINUOUS
 62
     7
 10
-656.185273301159
 20
17.0618967483871
 30
0.0
 11
-655.664328871207
 21
14.1074734711801
 31
0.0
  0
LINE
  5
   36F
  8
0
  6
CONTINUOUS
 62
     7
 10
-655.664328871207
 20
14.1074734711801
 30
0.0
 11
-655.143384441256
 21
17.0618967483871
 31
0.0
  0
ENDBLK
  5
   370
  8
0
  6
CONTINUOUS
 62
     7
  0
BLOCK
  5
   371
  8
0
  6
CONTINUOUS
 62
     7
  2
*UDIM395
 70
    65
 10
0.0
 20
0.0
 30
0.0
  3
*UDIM395
  0
TEXT
  5
   372
  8
0
  6
CONTINUOUS
 62
     7
 10
-663.397896870209
 20
-92.7796148721824
 30
0.0
 40
2.99999994291904
  1
195,5
 50
359.999999948034
 41
0.933333333333333
 72
     1
 11
-656.697896996337
 21
-91.2796149067659
 31
0.0
 73
     2
  0
LINE
  5
   373
  8
0
  6
CONTINUOUS
 62
     7
 10
-610.480395689607
 20
-73.6337111686632
 30
0.0
 11
-610.480395689607
 21
-95.7796148782254
 31
0.0
  0
LINE
  5
   374
  8
0
  6
CONTINUOUS
 62
     7
 10
-702.365393663645
 20
-24.7276151817881
 30
0.0
 11
-702.365393663645
 21
-95.7796148782254
 31
0.0
  0
LINE
  5
   375
  8
0
  6
CONTINUOUS
 62
     7
 10
-610.480395689607
 20
-93.7796148782254
 30
0.0
 11
-702.365393663645
 21
-93.7796148782254
 31
0.0
  0
LINE
  5
   376
  8
0
  6
CONTINUOUS
 62
     7
 10
-613.434818966814
 20
-94.3005593081771
 30
0.0
 11
-610.480395689607
 21
-93.7796148782254
 31
0.0
  0
LINE
  5
   377
  8
0
  6
CONTINUOUS
 62
     7
 10
-610.480395689607
 20
-93.7796148782254
 30
0.0
 11
-613.434818966814
 21
-93.2586704482737
 31
0.0
  0
LINE
  5
   378
  8
0
  6
CONTINUOUS
 62
     7
 10
-699.410970386438
 20
-93.2586704482737
 30
0.0
 11
-702.365393663645
 21
-93.7796148782254
 31
0.0
  0
LINE
  5
   379
  8
0
  6
CONTINUOUS
 62
     7
 10
-702.365393663645
 20
-93.7796148782254
 30
0.0
 11
-699.410970386438
 21
-94.3005593081771
 31
0.0
  0
ENDBLK
  5
   37A
  8
0
  6
CONTINUOUS
 62
     7
  0
BLOCK
  5
   37B
  8
0
  6
CONTINUOUS
 62
     7
  2
*UDIM396
 70
    65
 10
0.0
 20
0.0
 30
0.0
  3
*UDIM396
  0
TEXT
  5
   37C
  8
0
  6
CONTINUOUS
 62
     7
 10
-659.305395638111
 20
-86.4419299542591
 30
0.0
 40
2.99999994291904
  1
190
 50
359.999999948034
 41
0.933333333333333
 72
     1
 11
-655.405395710963
 21
-84.9419299863172
 31
0.0
 73
     2
  0
LINE
  5
   37D
  8
0
  6
CONTINUOUS
 62
     7
 10
-610.480395689607
 20
-73.6337111686632
 30
0.0
 11
-610.480395689607
 21
-89.4419299577767
 31
0.0
  0
LINE
  5
   37E
  8
0
  6
CONTINUOUS
 62
     7
 10
-699.780395463109
 20
-56.6729092379044
 30
0.0
 11
-699.780395463109
 21
-89.4419299577767
 31
0.0
  0
LINE
  5
   37F
  8
0
  6
CONTINUOUS
 62
     7
 10
-610.480395689607
 20
-87.4419299577767
 30
0.0
 11
-699.780395463109
 21
-87.4419299577767
 31
0.0
  0
LINE
  5
   380
  8
0
  6
CONTINUOUS
 62
     7
 10
-613.434818966814
 20
-87.9628743877283
 30
0.0
 11
-610.480395689607
 21
-87.4419299577767
 31
0.0
  0
LINE
  5
   381
  8
0
  6
CONTINUOUS
 62
     7
 10
-610.480395689607
 20
-87.4419299577767
 30
0.0
 11
-613.434818966814
 21
-86.920985527825
 31
0.0
  0
LINE
  5
   382
  8
0
  6
CONTINUOUS
 62
     7
 10
-696.825972185902
 20
-86.920985527825
 30
0.0
 11
-699.780395463109
 21
-87.4419299577767
 31
0.0
  0
LINE
  5
   383
  8
0
  6
CONTINUOUS
 62
     7
 10
-699.780395463109
 20
-87.4419299577767
 30
0.0
 11
-696.825972185902
 21
-87.9628743877283
 31
0.0
  0
ENDBLK
  5
   384
  8
0
  6
CONTINUOUS
 62
     7
  0
BLOCK
  5
   385
  8
0
  6
CONTINUOUS
 62
     7
  2
*UDIM397
 70
    65
 10
0.0
 20
0.0
 30
0.0
  3
*UDIM397
  0
TEXT
  5
   386
  8
0
  6
CONTINUOUS
 62
     7
 10
-706.470393922549
 20
-86.4419299567845
 30
0.0
 40
2.99999994291904
  1
2
 50
359.999999948034
 41
0.933333333333333
 72
     1
 11
-705.370393942125
 21
-84.9419299863172
 31
0.0
 73
     2
  0
LINE
  5
   387
  8
0
  6
CONTINUOUS
 62
     7
 10
-700.720395460725
 20
-56.8313362037947
 30
0.0
 11
-700.720395460725
 21
-89.4419299577767
 31
0.0
  0
LINE
  5
   388
  8
0
  6
CONTINUOUS
 62
     7
 10
-699.780395463109
 20
-87.4419299577767
 30
0.0
 11
-706.470393921196
 21
-87.4419299577767
 31
0.0
  0
LINE
  5
   389
  8
0
  6
CONTINUOUS
 62
     7
 10
-696.825972185902
 20
-86.920985527825
 30
0.0
 11
-699.780395463109
 21
-87.4419299577767
 31
0.0
  0
LINE
  5
   38A
  8
0
  6
CONTINUOUS
 62
     7
 10
-699.780395463109
 20
-87.4419299577767
 30
0.0
 11
-696.825972185902
 21
-87.9628743877283
 31
0.0
  0
LINE
  5
   38B
  8
0
  6
CONTINUOUS
 62
     7
 10
-703.674818737932
 20
-87.9628743877283
 30
0.0
 11
-700.720395460725
 21
-87.4419299577767
 31
0.0
  0
LINE
  5
   38C
  8
0
  6
CONTINUOUS
 62
     7
 10
-700.720395460725
 20
-87.4419299577767
 30
0.0
 11
-703.674818737932
 21
-86.920985527825
 31
0.0
  0
ENDBLK
  5
   38D
  8
0
  6
CONTINUOUS
 62
     7
  0
BLOCK
  5
   38E
  8
0
  6
CONTINUOUS
 62
     7
  2
*UDIM398
 70
    65
 10
0.0
 20
0.0
 30
0.0
  3
*UDIM398
  0
TEXT
  5
   38F
  8
0
  6
CONTINUOUS
 62
     7
 10
-653.900410001537
 20
-80.3683188246445
 30
0.0
 40
2.99999994291904
  1
167
 50
359.999999948034
 41
0.933333333333333
 72
     1
 11
-650.000410074389
 21
-78.8683188567025
 31
0.0
 73
     2
  0
LINE
  5
   390
  8
0
  6
CONTINUOUS
 62
     7
 10
-610.480395689607
 20
-73.6337111686632
 30
0.0
 11
-610.480395689607
 21
-83.368318828162
 31
0.0
  0
LINE
  5
   391
  8
0
  6
CONTINUOUS
 62
     7
 10
-688.970427271521
 20
7.11492651390842
 30
0.0
 11
-688.970427271521
 21
-83.368318828162
 31
0.0
  0
LINE
  5
   392
  8
0
  6
CONTINUOUS
 62
     7
 10
-610.480395689607
 20
-81.368318828162
 30
0.0
 11
-688.970427271521
 21
-81.368318828162
 31
0.0
  0
LINE
  5
   393
  8
0
  6
CONTINUOUS
 62
     7
 10
-613.434818966814
 20
-81.8892632581137
 30
0.0
 11
-610.480395689607
 21
-81.368318828162
 31
0.0
  0
LINE
  5
   394
  8
0
  6
CONTINUOUS
 62
     7
 10
-610.480395689607
 20
-81.368318828162
 30
0.0
 11
-613.434818966814
 21
-80.8473743982104
 31
0.0
  0
LINE
  5
   395
  8
0
  6
CONTINUOUS
 62
     7
 10
-686.016003994314
 20
-80.8473743982104
 30
0.0
 11
-688.970427271521
 21
-81.368318828162
 31
0.0
  0
LINE
  5
   396
  8
0
  6
CONTINUOUS
 62
     7
 10
-688.970427271521
 20
-81.368318828162
 30
0.0
 11
-686.016003994314
 21
-81.8892632581137
 31
0.0
  0
ENDBLK
  5
   397
  8
0
  6
CONTINUOUS
 62
     7
  0
BLOCK
  5
   398
  8
0
  6
CONTINUOUS
 62
     7
  2
*UDIM399
 70
    65
 10
0.0
 20
0.0
 30
0.0
  3
*UDIM399
  0
TEXT
  5
   399
  8
0
  6
CONTINUOUS
 62
     7
 10
-364.4725627872
 20
98.9514416835305
 30
0.0
 40
3.00000002980232
  1
8
 50
406.249477420785
 41
0.933333333333334
 72
     1
 11
-364.795427664146
 21
100.783314588505
 31
0.0
 73
     2
  0
TEXT
  5
   39A
  8
0
  6
CONTINUOUS
 62
     7
 10
-366.65084966723
 20
96.6760150574067
 30
0.0
 40
3.00000002980232
  1
Ø
 50
406.249477420785
 41
0.933333333333334
 72
     1
 11
-366.973714544176
 21
98.5078879623808
 31
0.0
 73
     2
  0
TEXT
  5
   39B
  8
0
  6
CONTINUOUS
 62
     7
 10
-378.233803808567
 20
84.5765241941398
 30
0.0
 40
3.00000002980232
  1
3 fori
 50
406.249477420785
 41
0.933333333333333
 72
     1
 11
-373.716031127784
 21
91.4649007338643
 31
0.0
 73
     2
  0
LINE
  5
   39C
  8
0
  6
CONTINUOUS
 62
     7
 10
-362.228861897303
 20
99.8491089029006
 30
0.0
 11
-386.695822620789
 21
74.2910548187771
 31
0.0
  0
LINE
  5
   39D
  8
0
  6
CONTINUOUS
 62
     7
 10
-383.646049806212
 20
78.2301637139839
 30
0.0
 11
-385.312783336242
 21
75.7357701323948
 31
0.0
  0
LINE
  5
   39E
  8
0
  6
CONTINUOUS
 62
     7
 10
-385.312783336242
 20
75.7357701323948
 30
0.0
 11
-382.893433410717
 21
77.5096771022952
 31
0.0
  0
LINE
  5
   39F
  8
0
  6
CONTINUOUS
 62
     7
 10
-388.362556150819
 20
71.7966612371879
 30
0.0
 11
-386.695822620789
 21
74.2910548187771
 31
0.0
  0
LINE
  5
   3A0
  8
0
  6
CONTINUOUS
 62
     7
 10
-386.695822620789
 20
74.2910548187771
 30
0.0
 11
-389.115172546314
 21
72.5171478488767
 31
0.0
  0
ENDBLK
  5
   3A1
  8
0
  6
CONTINUOUS
 62
     7
  0
BLOCK
  5
   3A2
  8
0
  6
CONTINUOUS
 62
     7
  2
*UDIM400
 70
    65
 10
0.0
 20
0.0
 30
0.0
  3
*UDIM400
  0
TEXT
  5
   3A3
  8
0
  6
CONTINUOUS
 62
     7
 10
-430.948635068499
 20
83.3901201167925
 30
0.0
 40
3.00000002980232
  1
7
 50
332.117665358245
 41
0.933333333333334
 72
     1
 11
-429.274848240464
 21
84.2015618725825
 31
0.0
 73
     2
  0
TEXT
  5
   3A4
  8
0
  6
CONTINUOUS
 62
     7
 10
-434.484274537729
 20
85.2607493644097
 30
0.0
 40
3.00000002980232
  1
Ø
 50
332.117665358245
 41
1.2
 72
     1
 11
-432.45692376235
 21
85.885128194109
 31
0.0
 73
     2
  0
LINE
  5
   3A5
  8
0
  6
CONTINUOUS
 62
     7
 10
-434.951931844213
 20
84.3768394980539
 30
0.0
 11
-412.061332546028
 21
72.2659257900292
 31
0.0
  0
LINE
  5
   3A6
  8
0
  6
CONTINUOUS
 62
     7
 10
-420.952214053563
 20
76.0914612959842
 30
0.0
 11
-418.027724106758
 21
75.4226126202433
 31
0.0
  0
LINE
  5
   3A7
  8
0
  6
CONTINUOUS
 62
     7
 10
-418.027724106758
 20
75.4226126202433
 30
0.0
 11
-420.225982326188
 21
77.4640975701543
 31
0.0
  0
LINE
  5
   3A8
  8
0
  6
CONTINUOUS
 62
     7
 10
-413.556391903469
 20
73.9353636551877
 30
0.0
 11
-416.480881850273
 21
74.6042123309285
 31
0.0
  0
LINE
  5
   3A9
  8
0
  6
CONTINUOUS
 62
     7
 10
-416.480881850273
 20
74.6042123309285
 30
0.0
 11
-414.282623630844
 21
72.5627273810176
 31
0.0
  0
ENDBLK
  5
   3AA
  8
0
  6
CONTINUOUS
 62
     7
  0
BLOCK
  5
   3AB
  8
0
  6
CONTINUOUS
 62
     7
  2
*UDIM401
 70
    65
 10
0.0
 20
0.0
 30
0.0
  3
*UDIM401
  0
TEXT
  5
   3AC
  8
0
  6
CONTINUOUS
 62
     7
 10
-374.500993625009
 20
29.3958394817703
 30
0.0
 40
3.00000002980232
  1
7
 50
314.924531457191
 41
0.933333333333334
 72
     1
 11
-372.662145017374
 21
29.676260356427
 31
0.0
 73
     2
  0
TEXT
  5
   3AD
  8
0
  6
CONTINUOUS
 62
     7
 10
-377.325692792991
 20
32.2279896982699
 30
0.0
 40
3.00000002980232
  1
Ø
 50
314.924531457191
 41
1.2
 72
     1
 11
-375.204374268549
 21
32.2251955498826
 31
0.0
 73
     2
  0
LINE
  5
   3AE
  8
0
  6
CONTINUOUS
 62
     7
 10
-390.153079851709
 20
43.6731330739504
 30
0.0
 11
-373.655446626233
 21
27.1319820673272
 31
0.0
  0
LINE
  5
   3AF
  8
0
  6
CONTINUOUS
 62
     7
 10
-389.21830412845
 20
41.6363661223578
 30
0.0
 11
-386.622205917076
 21
40.1329453306615
 31
0.0
  0
LINE
  5
   3B0
  8
0
  6
CONTINUOUS
 62
     7
 10
-386.622205917076
 20
40.1329453306615
 30
0.0
 11
-388.118782485113
 21
42.7329950563406
 31
0.0
  0
LINE
  5
   3B1
  8
0
  6
CONTINUOUS
 62
     7
 10
-382.790301828582
 20
37.3904588288141
 30
0.0
 11
-385.386400039955
 21
38.8938796205104
 31
0.0
  0
LINE
  5
   3B2
  8
0
  6
CONTINUOUS
 62
     7
 10
-385.386400039955
 20
38.8938796205104
 30
0.0
 11
-383.889823471918
 21
36.2938298948313
 31
0.0
  0
ENDBLK
  5
   3B3
  8
0
  6
CONTINUOUS
 62
     7
  0
BLOCK
  5
   3B4
  8
0
  6
CONTINUOUS
 62
     7
  2
*UDIM402
 70
    65
 10
0.0
 20
0.0
 30
0.0
  3
*UDIM402
  0
TEXT
  5
   3B5
  8
0
  6
CONTINUOUS
 62
     7
 10
-404.722966153808
 20
16.5674667692452
 30
0.0
 40
3.00000002980232
  1
R min.200
 50
359.999999844103
 41
0.933333333333333
 72
     1
 11
-392.422966027544
 21
18.067466750741
 31
0.0
 73
     2
  0
LINE
  5
   3B6
  8
0
  6
CONTINUOUS
 62
     7
 10
-406.254302978516
 20
33.1182311580345
 30
0.0
 11
-406.254302978516
 21
13.5674667358398
 31
0.0
  0
LINE
  5
   3B7
  8
0
  6
CONTINUOUS
 62
     7
 10
-378.33205937204
 20
17.435084187434
 30
0.0
 11
-378.33205937204
 21
13.5674667358398
 31
0.0
  0
LINE
  5
   3B8
  8
0
  6
CONTINUOUS
 62
     7
 10
-406.254302978516
 20
15.5674667358398
 30
0.0
 11
-378.33205937204
 21
15.5674667358398
 31
0.0
  0
LINE
  5
   3B9
  8
0
  6
CONTINUOUS
 62
     7
 10
-409.208726255723
 20
15.0465223058882
 30
0.0
 11
-406.254302978516
 21
15.5674667358398
 31
0.0
  0
LINE
  5
   3BA
  8
0
  6
CONTINUOUS
 62
     7
 10
-406.254302978516
 20
15.5674667358398
 30
0.0
 11
-409.208726255723
 21
16.0884111657915
 31
0.0
  0
LINE
  5
   3BB
  8
0
  6
CONTINUOUS
 62
     7
 10
-375.377636094833
 20
16.0884111657915
 30
0.0
 11
-378.33205937204
 21
15.5674667358398
 31
0.0
  0
LINE
  5
   3BC
  8
0
  6
CONTINUOUS
 62
     7
 10
-378.33205937204
 20
15.5674667358398
 30
0.0
 11
-375.377636094833
 21
15.0465223058882
 31
0.0
  0
ENDBLK
  5
   3BD
  8
0
  6
CONTINUOUS
 62
     7
  0
BLOCK
  5
   3BE
  8
0
  6
CONTINUOUS
 62
     7
  2
*UDIM403
 70
    65
 10
0.0
 20
0.0
 30
0.0
  3
*UDIM403
  0
TEXT
  5
   3BF
  8
0
  6
CONTINUOUS
 62
     7
 10
-443.794223799788
 20
60.7509124129028
 30
0.0
 40
3.00000002980232
  1
72,5
 50
449.999999844103
 41
0.933333333333333
 72
     1
 11
-445.294223800302
 21
66.0509124696255
 31
0.0
 73
     2
  0
LINE
  5
   3C0
  8
0
  6
CONTINUOUS
 62
     7
 10
-414.549302978516
 20
75.3884124755859
 30
0.0
 11
-444.7942237854
 21
75.3884124755859
 31
0.0
  0
LINE
  5
   3C1
  8
0
  6
CONTINUOUS
 62
     7
 10
-434.715027741659
 20
57.2634124755859
 30
0.0
 11
-444.7942237854
 21
57.2634124755859
 31
0.0
  0
LINE
  5
   3C2
  8
0
  6
CONTINUOUS
 62
     7
 10
-442.7942237854
 20
75.3884124755859
 30
0.0
 11
-442.7942237854
 21
57.2634124755859
 31
0.0
  0
LINE
  5
   3C3
  8
0
  6
CONTINUOUS
 62
     7
 10
-442.273279355449
 20
72.433989198379
 30
0.0
 11
-442.7942237854
 21
75.3884124755859
 31
0.0
  0
LINE
  5
   3C4
  8
0
  6
CONTINUOUS
 62
     7
 10
-442.7942237854
 20
75.3884124755859
 30
0.0
 11
-443.315168215352
 21
72.433989198379
 31
0.0
  0
LINE
  5
   3C5
  8
0
  6
CONTINUOUS
 62
     7
 10
-443.315168215352
 20
60.2178357527929
 30
0.0
 11
-442.7942237854
 21
57.2634124755859
 31
0.0
  0
LINE
  5
   3C6
  8
0
  6
CONTINUOUS
 62
     7
 10
-442.7942237854
 20
57.2634124755859
 30
0.0
 11
-442.273279355449
 21
60.2178357527929
 31
0.0
  0
ENDBLK
  5
   3C7
  8
0
  6
CONTINUOUS
 62
     7
  0
BLOCK
  5
   3C8
  8
0
  6
CONTINUOUS
 62
     7
  2
*UDIM404
 70
    65
 10
0.0
 20
0.0
 30
0.0
  3
*UDIM404
  0
TEXT
  5
   3C9
  8
0
  6
CONTINUOUS
 62
     7
 10
-420.404302625955
 20
84.8297958441921
 30
0.0
 40
3.00000002980232
  1
45
 50
359.999999844103
 41
0.933333333333333
 72
     1
 11
-417.904302597046
 21
86.3297958523035
 31
0.0
 73
     2
  0
LINE
  5
   3CA
  8
0
  6
CONTINUOUS
 62
     7
 10
-411.879302978516
 20
78.0584124755859
 30
0.0
 11
-411.879302978516
 21
85.8297958374023
 31
0.0
  0
LINE
  5
   3CB
  8
0
  6
CONTINUOUS
 62
     7
 10
-400.629302978516
 20
78.0584124755859
 30
0.0
 11
-400.629302978516
 21
85.8297958374023
 31
0.0
  0
LINE
  5
   3CC
  8
0
  6
CONTINUOUS
 62
     7
 10
-420.404302621881
 20
83.8297958374024
 30
0.0
 11
-400.629302978516
 21
83.8297958374024
 31
0.0
  0
LINE
  5
   3CD
  8
0
  6
CONTINUOUS
 62
     7
 10
-414.833726255723
 20
83.3088514074507
 30
0.0
 11
-411.879302978516
 21
83.8297958374024
 31
0.0
  0
LINE
  5
   3CE
  8
0
  6
CONTINUOUS
 62
     7
 10
-411.879302978516
 20
83.8297958374024
 30
0.0
 11
-414.833726255723
 21
84.350740267354
 31
0.0
  0
LINE
  5
   3CF
  8
0
  6
CONTINUOUS
 62
     7
 10
-397.674879701309
 20
84.350740267354
 30
0.0
 11
-400.629302978516
 21
83.8297958374024
 31
0.0
  0
LINE
  5
   3D0
  8
0
  6
CONTINUOUS
 62
     7
 10
-400.629302978516
 20
83.8297958374024
 30
0.0
 11
-397.674879701309
 21
83.3088514074507
 31
0.0
  0
ENDBLK
  5
   3D1
  8
0
  6
CONTINUOUS
 62
     7
  0
BLOCK
  5
   3D2
  8
0
  6
CONTINUOUS
 62
     7
  2
*UDIM405
 70
    65
 10
0.0
 20
0.0
 30
0.0
  3
*UDIM405
  0
TEXT
  5
   3D3
  8
0
  6
CONTINUOUS
 62
     7
 10
-368.052764910766
 20
60.1634127864252
 30
0.0
 40
3.00000002980232
  1
27,25
 50
449.999999844103
 41
0.933333333333333
 72
     1
 11
-369.552764907479
 21
66.8634128570557
 31
0.0
 73
     2
  0
LINE
  5
   3D4
  8
0
  6
CONTINUOUS
 62
     7
 10
-377.261574678379
 20
57.2634124755859
 30
0.0
 11
-365.052764892578
 21
57.2634124755859
 31
0.0
  0
LINE
  5
   3D5
  8
0
  6
CONTINUOUS
 62
     7
 10
-379.998996579074
 20
50.4509124755859
 30
0.0
 11
-365.052764892578
 21
50.4509124755859
 31
0.0
  0
LINE
  5
   3D6
  8
0
  6
CONTINUOUS
 62
     7
 10
-367.052764892578
 20
73.5634129236142
 30
0.0
 11
-367.052764892578
 21
50.4509124755859
 31
0.0
  0
LINE
  5
   3D7
  8
0
  6
CONTINUOUS
 62
     7
 10
-367.57370932253
 20
60.2178357527929
 30
0.0
 11
-367.052764892578
 21
57.2634124755859
 31
0.0
  0
LINE
  5
   3D8
  8
0
  6
CONTINUOUS
 62
     7
 10
-367.052764892578
 20
57.2634124755859
 30
0.0
 11
-366.531820462627
 21
60.2178357527929
 31
0.0
  0
LINE
  5
   3D9
  8
0
  6
CONTINUOUS
 62
     7
 10
-366.531820462627
 20
47.496489198379
 30
0.0
 11
-367.052764892578
 21
50.4509124755859
 31
0.0
  0
LINE
  5
   3DA
  8
0
  6
CONTINUOUS
 62
     7
 10
-367.052764892578
 20
50.4509124755859
 30
0.0
 11
-367.57370932253
 21
47.496489198379
 31
0.0
  0
ENDBLK
  5
   3DB
  8
0
  6
CONTINUOUS
 62
     7
  0
BLOCK
  5
   3DC
  8
0
  6
CONTINUOUS
 62
     7
  2
*UDIM406
 70
    65
 10
0.0
 20
0.0
 30
0.0
  3
*UDIM406
  0
TEXT
  5
   3DD
  8
0
  6
CONTINUOUS
 62
     7
 10
-362.545169833308
 20
65.6966781704635
 30
0.0
 40
3.00000002980232
  1
=
 50
449.999999844103
 41
0.933333333333334
 72
     1
 11
-364.045169845223
 21
66.796678185463
 31
0.0
 73
     2
  0
LINE
  5
   3DE
  8
0
  6
CONTINUOUS
 62
     7
 10
-383.379302978516
 20
75.0134124755859
 30
0.0
 11
-359.545169830322
 21
75.0134124755859
 31
0.0
  0
LINE
  5
   3DF
  8
0
  6
CONTINUOUS
 62
     7
 10
-383.379302978516
 20
57.2634124755859
 30
0.0
 11
-359.545169830322
 21
57.2634124755859
 31
0.0
  0
LINE
  5
   3E0
  8
0
  6
CONTINUOUS
 62
     7
 10
-361.545169830322
 20
75.0134124755859
 30
0.0
 11
-361.545169830322
 21
57.2634124755859
 31
0.0
  0
LINE
  5
   3E1
  8
0
  6
CONTINUOUS
 62
     7
 10
-361.024225400371
 20
72.058989198379
 30
0.0
 11
-361.545169830322
 21
75.0134124755859
 31
0.0
  0
LINE
  5
   3E2
  8
0
  6
CONTINUOUS
 62
     7
 10
-361.545169830322
 20
75.0134124755859
 30
0.0
 11
-362.066114260274
 21
72.058989198379
 31
0.0
  0
LINE
  5
   3E3
  8
0
  6
CONTINUOUS
 62
     7
 10
-362.066114260274
 20
60.2178357527929
 30
0.0
 11
-361.545169830322
 21
57.2634124755859
 31
0.0
  0
LINE
  5
   3E4
  8
0
  6
CONTINUOUS
 62
     7
 10
-361.545169830322
 20
57.2634124755859
 30
0.0
 11
-361.024225400371
 21
60.2178357527929
 31
0.0
  0
ENDBLK
  5
   3E5
  8
0
  6
CONTINUOUS
 62
     7
  0
BLOCK
  5
   3E6
  8
0
  6
CONTINUOUS
 62
     7
  2
*UDIM407
 70
    65
 10
0.0
 20
0.0
 30
0.0
  3
*UDIM407
  0
TEXT
  5
   3E7
  8
0
  6
CONTINUOUS
 62
     7
 10
-362.545169833308
 20
47.9466781704635
 30
0.0
 40
3.00000002980232
  1
=
 50
449.999999844103
 41
0.933333333333334
 72
     1
 11
-364.045169845223
 21
49.046678185463
 31
0.0
 73
     2
  0
LINE
  5
   3E8
  8
0
  6
CONTINUOUS
 62
     7
 10
-383.379302978516
 20
39.5134124755859
 30
0.0
 11
-359.545169830322
 21
39.5134124755859
 31
0.0
  0
LINE
  5
   3E9
  8
0
  6
CONTINUOUS
 62
     7
 10
-361.545169830322
 20
57.2634124755859
 30
0.0
 11
-361.545169830322
 21
39.5134124755859
 31
0.0
  0
LINE
  5
   3EA
  8
0
  6
CONTINUOUS
 62
     7
 10
-361.024225400371
 20
54.308989198379
 30
0.0
 11
-361.545169830322
 21
57.2634124755859
 31
0.0
  0
LINE
  5
   3EB
  8
0
  6
CONTINUOUS
 62
     7
 10
-361.545169830322
 20
57.2634124755859
 30
0.0
 11
-362.066114260274
 21
54.308989198379
 31
0.0
  0
LINE
  5
   3EC
  8
0
  6
CONTINUOUS
 62
     7
 10
-362.066114260274
 20
42.4678357527929
 30
0.0
 11
-361.545169830322
 21
39.5134124755859
 31
0.0
  0
LINE
  5
   3ED
  8
0
  6
CONTINUOUS
 62
     7
 10
-361.545169830322
 20
39.5134124755859
 30
0.0
 11
-361.024225400371
 21
42.4678357527929
 31
0.0
  0
ENDBLK
  5
   3EE
  8
0
  6
CONTINUOUS
 62
     7
  0
BLOCK
  5
   3EF
  8
0
  6
CONTINUOUS
 62
     7
  2
*UDIM408
 70
    65
 10
0.0
 20
0.0
 30
0.0
  3
*UDIM408
  0
TEXT
  5
   3F0
  8
0
  6
CONTINUOUS
 62
     7
 10
-436.397642146207
 20
53.0884124268105
 30
0.0
 40
3.00000002980232
  1
126
 50
449.999999844103
 41
0.933333333333333
 72
     1
 11
-437.897642150521
 21
56.9884124696255
 31
0.0
 73
     2
  0
LINE
  5
   3F1
  8
0
  6
CONTINUOUS
 62
     7
 10
-425.254302978516
 20
73.0134124755859
 30
0.0
 11
-437.39764213562
 21
73.0134124755859
 31
0.0
  0
LINE
  5
   3F2
  8
0
  6
CONTINUOUS
 62
     7
 10
-425.254302978516
 20
41.5134124755859
 30
0.0
 11
-437.39764213562
 21
41.5134124755859
 31
0.0
  0
LINE
  5
   3F3
  8
0
  6
CONTINUOUS
 62
     7
 10
-435.39764213562
 20
73.0134124755859
 30
0.0
 11
-435.39764213562
 21
41.5134124755859
 31
0.0
  0
LINE
  5
   3F4
  8
0
  6
CONTINUOUS
 62
     7
 10
-434.876697705668
 20
70.058989198379
 30
0.0
 11
-435.39764213562
 21
73.0134124755859
 31
0.0
  0
LINE
  5
   3F5
  8
0
  6
CONTINUOUS
 62
     7
 10
-435.39764213562
 20
73.0134124755859
 30
0.0
 11
-435.918586565572
 21
70.058989198379
 31
0.0
  0
LINE
  5
   3F6
  8
0
  6
CONTINUOUS
 62
     7
 10
-435.918586565572
 20
44.4678357527929
 30
0.0
 11
-435.39764213562
 21
41.5134124755859
 31
0.0
  0
LINE
  5
   3F7
  8
0
  6
CONTINUOUS
 62
     7
 10
-435.39764213562
 20
41.5134124755859
 30
0.0
 11
-434.876697705668
 21
44.4678357527929
 31
0.0
  0
ENDBLK
  5
   3F8
  8
0
  6
CONTINUOUS
 62
     7
  0
BLOCK
  5
   3F9
  8
0
  6
CONTINUOUS
 62
     7
  2
*UDIM409
 70
    65
 10
0.0
 20
0.0
 30
0.0
  3
*UDIM409
  0
TEXT
  5
   3FA
  8
0
  6
CONTINUOUS
 62
     7
 10
-355.848155985929
 20
53.0884124268105
 30
0.0
 40
3.00000002980232
  1
142
 50
449.999999844103
 41
0.933333333333333
 72
     1
 11
-357.348155990243
 21
56.9884124696255
 31
0.0
 73
     2
  0
LINE
  5
   3FB
  8
0
  6
CONTINUOUS
 62
     7
 10
-414.629302978516
 20
75.0134124755859
 30
0.0
 11
-352.848155975342
 21
75.0134124755859
 31
0.0
  0
LINE
  5
   3FC
  8
0
  6
CONTINUOUS
 62
     7
 10
-383.379302978516
 20
39.5134124755859
 30
0.0
 11
-352.848155975342
 21
39.5134124755859
 31
0.0
  0
LINE
  5
   3FD
  8
0
  6
CONTINUOUS
 62
     7
 10
-354.848155975342
 20
75.0134124755859
 30
0.0
 11
-354.848155975342
 21
39.5134124755859
 31
0.0
  0
LINE
  5
   3FE
  8
0
  6
CONTINUOUS
 62
     7
 10
-354.32721154539
 20
72.058989198379
 30
0.0
 11
-354.848155975342
 21
75.0134124755859
 31
0.0
  0
LINE
  5
   3FF
  8
0
  6
CONTINUOUS
 62
     7
 10
-354.848155975342
 20
75.0134124755859
 30
0.0
 11
-355.369100405294
 21
72.058989198379
 31
0.0
  0
LINE
  5
   400
  8
0
  6
CONTINUOUS
 62
     7
 10
-355.369100405294
 20
42.4678357527929
 30
0.0
 11
-354.848155975342
 21
39.5134124755859
 31
0.0
  0
LINE
  5
   401
  8
0
  6
CONTINUOUS
 62
     7
 10
-354.848155975342
 20
39.5134124755859
 30
0.0
 11
-354.32721154539
 21
42.4678357527929
 31
0.0
  0
ENDBLK
  5
   402
  8
0
  6
CONTINUOUS
 62
     7
  0
BLOCK
  5
   403
  8
0
  6
CONTINUOUS
 62
     7
  2
*UDIM410
 70
    65
 10
0.0
 20
0.0
 30
0.0
  3
*UDIM410
  0
TEXT
  5
   404
  8
0
  6
CONTINUOUS
 62
     7
 10
-399.236833579174
 20
47.7611747393022
 30
0.0
 40
3.00000002980232
  1
16
 50
449.999999844103
 41
0.933333333333333
 72
     1
 11
-400.736833587289
 21
50.2611747682095
 31
0.0
 73
     2
  0
LINE
  5
   405
  8
0
  6
CONTINUOUS
 62
     7
 10
-391.504302978516
 20
52.4509124755859
 30
0.0
 11
-400.236833572388
 21
52.4509124755859
 31
0.0
  0
LINE
  5
   406
  8
0
  6
CONTINUOUS
 62
     7
 10
-391.504302978516
 20
48.4509124755859
 30
0.0
 11
-400.236833572388
 21
48.4509124755859
 31
0.0
  0
LINE
  5
   407
  8
0
  6
CONTINUOUS
 62
     7
 10
-398.236833572388
 20
52.7611747930447
 30
0.0
 11
-398.236833572388
 21
47.7611747433742
 31
0.0
  0
LINE
  5
   408
  8
0
  6
CONTINUOUS
 62
     7
 10
-398.757778002339
 20
55.4053357527929
 30
0.0
 11
-398.236833572388
 21
52.4509124755859
 31
0.0
  0
LINE
  5
   409
  8
0
  6
CONTINUOUS
 62
     7
 10
-398.236833572388
 20
52.4509124755859
 30
0.0
 11
-397.715889142436
 21
55.4053357527929
 31
0.0
  0
LINE
  5
   40A
  8
0
  6
CONTINUOUS
 62
     7
 10
-397.715889142436
 20
45.496489198379
 30
0.0
 11
-398.236833572388
 21
48.4509124755859
 31
0.0
  0
LINE
  5
   40B
  8
0
  6
CONTINUOUS
 62
     7
 10
-398.236833572388
 20
48.4509124755859
 30
0.0
 11
-398.757778002339
 21
45.496489198379
 31
0.0
  0
ENDBLK
  5
   40C
  8
0
  6
CONTINUOUS
 62
     7
  0
BLOCK
  5
   40D
  8
0
  6
CONTINUOUS
 62
     7
  2
*UDIM411
 70
    65
 10
0.0
 20
0.0
 30
0.0
  3
*UDIM411
  0
TEXT
  5
   40E
  8
0
  6
CONTINUOUS
 62
     7
 10
-397.279303013385
 20
61.8119938441463
 30
0.0
 40
3.00000002980232
  1
94
 50
359.999999844103
 41
0.933333333333333
 72
     1
 11
-394.779302984476
 21
63.3119938522577
 31
0.0
 73
     2
  0
LINE
  5
   40F
  8
0
  6
CONTINUOUS
 62
     7
 10
-382.754302978516
 20
51.3259124755859
 30
0.0
 11
-382.754302978516
 21
62.8119938373566
 31
0.0
  0
LINE
  5
   410
  8
0
  6
CONTINUOUS
 62
     7
 10
-406.254302978516
 20
60.8119938373566
 30
0.0
 11
-382.754302978516
 21
60.8119938373566
 31
0.0
  0
LINE
  5
   411
  8
0
  6
CONTINUOUS
 62
     7
 10
-403.299879701309
 20
61.3329382673082
 30
0.0
 11
-406.254302978516
 21
60.8119938373566
 31
0.0
  0
LINE
  5
   412
  8
0
  6
CONTINUOUS
 62
     7
 10
-406.254302978516
 20
60.8119938373566
 30
0.0
 11
-403.299879701309
 21
60.2910494074049
 31
0.0
  0
LINE
  5
   413
  8
0
  6
CONTINUOUS
 62
     7
 10
-385.708726255723
 20
60.2910494074049
 30
0.0
 11
-382.754302978516
 21
60.8119938373566
 31
0.0
  0
LINE
  5
   414
  8
0
  6
CONTINUOUS
 62
     7
 10
-382.754302978516
 20
60.8119938373566
 30
0.0
 11
-385.708726255723
 21
61.3329382673082
 31
0.0
  0
ENDBLK
  5
   415
  8
0
  6
CONTINUOUS
 62
     7
  0
BLOCK
  5
   416
  8
0
  6
CONTINUOUS
 62
     7
  2
*UDIM412
 70
    65
 10
0.0
 20
0.0
 30
0.0
  3
*UDIM412
  0
TEXT
  5
   417
  8
0
  6
CONTINUOUS
 62
     7
 10
-405.804303057095
 20
26.2052307234826
 30
0.0
 40
3.00000002980232
  1
125
 50
359.999999844103
 41
0.933333333333333
 72
     1
 11
-401.904303014279
 21
27.7052307277918
 31
0.0
 73
     2
  0
LINE
  5
   418
  8
0
  6
CONTINUOUS
 62
     7
 10
-417.254302978516
 20
36.8884124755859
 30
0.0
 11
-417.254302978516
 21
23.2052307128906
 31
0.0
  0
LINE
  5
   419
  8
0
  6
CONTINUOUS
 62
     7
 10
-386.004302978516
 20
36.8884124755859
 30
0.0
 11
-386.004302978516
 21
23.2052307128906
 31
0.0
  0
LINE
  5
   41A
  8
0
  6
CONTINUOUS
 62
     7
 10
-417.254302978516
 20
25.2052307128906
 30
0.0
 11
-386.004302978516
 21
25.2052307128906
 31
0.0
  0
LINE
  5
   41B
  8
0
  6
CONTINUOUS
 62
     7
 10
-414.299879701309
 20
25.7261751428423
 30
0.0
 11
-417.254302978516
 21
25.2052307128906
 31
0.0
  0
LINE
  5
   41C
  8
0
  6
CONTINUOUS
 62
     7
 10
-417.254302978516
 20
25.2052307128906
 30
0.0
 11
-414.299879701309
 21
24.684286282939
 31
0.0
  0
LINE
  5
   41D
  8
0
  6
CONTINUOUS
 62
     7
 10
-388.958726255723
 20
24.684286282939
 30
0.0
 11
-386.004302978516
 21
25.2052307128906
 31
0.0
  0
LINE
  5
   41E
  8
0
  6
CONTINUOUS
 62
     7
 10
-386.004302978516
 20
25.2052307128906
 30
0.0
 11
-388.958726255723
 21
25.7261751428423
 31
0.0
  0
ENDBLK
  5
   41F
  8
0
  6
CONTINUOUS
 62
     7
  0
BLOCK
  5
   420
  8
0
  6
CONTINUOUS
 62
     7
  2
*UDIM413
 70
    65
 10
0.0
 20
0.0
 30
0.0
  3
*UDIM413
  0
TEXT
  5
   421
  8
0
  6
CONTINUOUS
 62
     7
 10
-398.904303013385
 20
33.3084850379176
 30
0.0
 40
3.00000002980232
  1
81
 50
359.999999844103
 41
0.933333333333333
 72
     1
 11
-396.404302984476
 21
34.8084850460291
 31
0.0
 73
     2
  0
LINE
  5
   422
  8
0
  6
CONTINUOUS
 62
     7
 10
-406.254302978516
 20
33.1182311580345
 30
0.0
 11
-406.254302978516
 21
30.3084850311279
 31
0.0
  0
LINE
  5
   423
  8
0
  6
CONTINUOUS
 62
     7
 10
-386.004302978516
 20
36.8884124755859
 30
0.0
 11
-386.004302978516
 21
30.3084850311279
 31
0.0
  0
LINE
  5
   424
  8
0
  6
CONTINUOUS
 62
     7
 10
-406.254302978516
 20
32.3084850311279
 30
0.0
 11
-386.004302978516
 21
32.3084850311279
 31
0.0
  0
LINE
  5
   425
  8
0
  6
CONTINUOUS
 62
     7
 10
-403.299879701309
 20
32.8294294610796
 30
0.0
 11
-406.254302978516
 21
32.3084850311279
 31
0.0
  0
LINE
  5
   426
  8
0
  6
CONTINUOUS
 62
     7
 10
-406.254302978516
 20
32.3084850311279
 30
0.0
 11
-403.299879701309
 21
31.7875406011763
 31
0.0
  0
LINE
  5
   427
  8
0
  6
CONTINUOUS
 62
     7
 10
-388.958726255723
 20
31.7875406011763
 30
0.0
 11
-386.004302978516
 21
32.3084850311279
 31
0.0
  0
LINE
  5
   428
  8
0
  6
CONTINUOUS
 62
     7
 10
-386.004302978516
 20
32.3084850311279
 30
0.0
 11
-388.958726255723
 21
32.8294294610796
 31
0.0
  0
ENDBLK
  5
   429
  8
0
  6
CONTINUOUS
 62
     7
  0
BLOCK
  5
   42A
  8
0
  6
CONTINUOUS
 62
     7
  2
*UDIM414
 70
    65
 10
0.0
 20
0.0
 30
0.0
  3
*UDIM414
  0
TEXT
  5
   42B
  8
0
  6
CONTINUOUS
 62
     7
 10
-411.554303027293
 20
98.6541366683068
 30
0.0
 40
3.00000002980232
  1
135
 50
359.999999844103
 41
0.933333333333333
 72
     1
 11
-407.654302984476
 21
100.154136672616
 31
0.0
 73
     2
  0
LINE
  5
   42C
  8
0
  6
CONTINUOUS
 62
     7
 10
-424.254302978516
 20
74.0134124755859
 30
0.0
 11
-424.254302978516
 21
99.6541366577149
 31
0.0
  0
LINE
  5
   42D
  8
0
  6
CONTINUOUS
 62
     7
 10
-390.504302978516
 20
74.0134124755859
 30
0.0
 11
-390.504302978516
 21
99.6541366577149
 31
0.0
  0
LINE
  5
   42E
  8
0
  6
CONTINUOUS
 62
     7
 10
-424.254302978516
 20
97.6541366577148
 30
0.0
 11
-390.504302978516
 21
97.6541366577148
 31
0.0
  0
LINE
  5
   42F
  8
0
  6
CONTINUOUS
 62
     7
 10
-421.299879701309
 20
98.1750810876665
 30
0.0
 11
-424.254302978516
 21
97.6541366577148
 31
0.0
  0
LINE
  5
   430
  8
0
  6
CONTINUOUS
 62
     7
 10
-424.254302978516
 20
97.6541366577148
 30
0.0
 11
-421.299879701309
 21
97.1331922277632
 31
0.0
  0
LINE
  5
   431
  8
0
  6
CONTINUOUS
 62
     7
 10
-393.458726255723
 20
97.1331922277632
 30
0.0
 11
-390.504302978516
 21
97.6541366577148
 31
0.0
  0
LINE
  5
   432
  8
0
  6
CONTINUOUS
 62
     7
 10
-390.504302978516
 20
97.6541366577148
 30
0.0
 11
-393.458726255723
 21
98.1750810876665
 31
0.0
  0
ENDBLK
  5
   433
  8
0
  6
CONTINUOUS
 62
     7
  0
BLOCK
  5
   434
  8
0
  6
CONTINUOUS
 62
     7
  2
*UDIM415
 70
    65
 10
0.0
 20
0.0
 30
0.0
  3
*UDIM415
  0
TEXT
  5
   435
  8
0
  6
CONTINUOUS
 62
     7
 10
-401.154303490222
 20
91.0569763251491
 30
0.0
 40
3.00000002980232
  1
63
 50
359.999999844103
 41
0.933333333333333
 72
     1
 11
-398.654303461313
 21
92.5569763332605
 31
0.0
 73
     2
  0
LINE
  5
   436
  8
0
  6
CONTINUOUS
 62
     7
 10
-406.254302978516
 20
83.890903636441
 30
0.0
 11
-406.254302978516
 21
92.0569763183594
 31
0.0
  0
LINE
  5
   437
  8
0
  6
CONTINUOUS
 62
     7
 10
-390.504302978516
 20
74.0134124755859
 30
0.0
 11
-390.504302978516
 21
92.0569763183594
 31
0.0
  0
LINE
  5
   438
  8
0
  6
CONTINUOUS
 62
     7
 10
-406.254302978516
 20
90.0569763183594
 30
0.0
 11
-390.504302978516
 21
90.0569763183594
 31
0.0
  0
LINE
  5
   439
  8
0
  6
CONTINUOUS
 62
     7
 10
-403.299879701309
 20
90.577920748311
 30
0.0
 11
-406.254302978516
 21
90.0569763183594
 31
0.0
  0
LINE
  5
   43A
  8
0
  6
CONTINUOUS
 62
     7
 10
-406.254302978516
 20
90.0569763183594
 30
0.0
 11
-403.299879701309
 21
89.5360318884077
 31
0.0
  0
LINE
  5
   43B
  8
0
  6
CONTINUOUS
 62
     7
 10
-393.458726255723
 20
89.5360318884077
 30
0.0
 11
-390.504302978516
 21
90.0569763183594
 31
0.0
  0
LINE
  5
   43C
  8
0
  6
CONTINUOUS
 62
     7
 10
-390.504302978516
 20
90.0569763183594
 30
0.0
 11
-393.458726255723
 21
90.577920748311
 31
0.0
  0
ENDBLK
  5
   43D
  8
0
  6
CONTINUOUS
 62
     7
  0
BLOCK
  5
   43E
  8
0
  6
CONTINUOUS
 62
     7
  2
*HATCH105
 70
    65
 10
0.0
 20
0.0
 30
0.0
  3
*HATCH105
  0
LINE
  5
   43F
  8
0
  6
CONTINUOUS
 62
    52
 10
-11.7279224395752
 20
1.0
 30
0.0
 11
-11.9763488769531
 21
0.75157368183136
 31
0.0
  0
LINE
  5
   440
  8
0
  6
CONTINUOUS
 62
    52
 10
-9.60660171508789
 20
1.0
 30
0.0
 11
-11.6066026687622
 21
-1.0
 31
0.0
  0
LINE
  5
   441
  8
0
  6
CONTINUOUS
 62
    52
 10
-7.48528146743774
 20
1.0
 30
0.0
 11
-9.48528289794922
 21
-1.0
 31
0.0
  0
LINE
  5
   442
  8
0
  6
CONTINUOUS
 62
    52
 10
-5.3639612197876
 20
1.0
 30
0.0
 11
-7.36396265029907
 21
-1.0
 31
0.0
  0
LINE
  5
   443
  8
0
  6
CONTINUOUS
 62
    52
 10
-3.47947335243225
 20
0.763167560100555
 30
0.0
 11
-5.24264097213745
 21
-1.0
 31
0.0
  0
LINE
  5
   444
  8
0
  6
CONTINUOUS
 62
    52
 10
-2.51160907745361
 20
-0.390288293361664
 30
0.0
 11
-3.1213207244873
 21
-1.0
 31
0.0
  0
ENDBLK
  5
   445
  8
0
  6
CONTINUOUS
 62
     7
  0
BLOCK
  5
   446
  8
0
  6
CONTINUOUS
 62
     7
  2
*HATCH106
 70
    65
 10
0.0
 20
0.0
 30
0.0
  3
*HATCH106
  0
LINE
  5
   447
  8
0
  6
CONTINUOUS
 62
    52
 10
5.24264097213745
 20
1.0
 30
0.0
 11
3.24264073371887
 21
-1.0
 31
0.0
  0
LINE
  5
   448
  8
0
  6
CONTINUOUS
 62
    52
 10
7.3639612197876
 20
1.0
 30
0.0
 11
5.3639612197876
 21
-1.0
 31
0.0
  0
LINE
  5
   449
  8
0
  6
CONTINUOUS
 62
    52
 10
9.48528099060059
 20
1.0
 30
0.0
 11
7.4852819442749
 21
-1.0
 31
0.0
  0
ENDBLK
  5
   44A
  8
0
  6
CONTINUOUS
 62
     7
  0
BLOCK
  5
   44B
  8
0
  6
CONTINUOUS
 62
     7
  2
*UDIM416
 70
    65
 10
0.0
 20
0.0
 30
0.0
  3
*UDIM416
  0
TEXT
  5
   44C
  8
0
  6
CONTINUOUS
 62
     7
 10
-545.81569122894
 20
-117.194912029575
 30
0.0
 40
3.00000002980232
  1
80
 50
449.241125536518
 41
0.933333333333333
 72
     1
 11
-547.282448498875
 21
-114.67526457805
 31
0.0
 73
     2
  0
TEXT
  5
   44D
  8
0
  6
CONTINUOUS
 62
     7
 10
-546.349416263201
 20
-112.187403858129
 30
0.0
 40
3.00000002980232
  1
°
 50
449.241125536518
 41
0.933333333333334
 72
     1
 11
-547.834715792363
 21
-111.067633623922
 31
0.0
 73
     2
  0
LINE
  5
   44E
  8
0
  6
CONTINUOUS
 62
     7
 10
-562.878120595944
 20
-117.621371393525
 30
0.0
 11
-548.676153429713
 21
-129.538236804701
 31
0.0
  0
LINE
  5
   44F
  8
0
  6
CONTINUOUS
 62
     7
 10
-562.878120595944
 20
-108.979397649443
 30
0.0
 11
-548.676153429713
 21
-97.0625322382674
 31
0.0
  0
ARC
  5
   450
  8
0
  6
CONTINUOUS
 62
     7
 10
-568.027672224251
 20
-113.300384521484
 30
0.0
 40
23.2616136940404
 50
319.999999815233
 51
399.999999769042
  0
LINE
  5
   451
  8
0
  6
CONTINUOUS
 62
     7
 10
-548.708242225331
 20
-125.654585426294
 30
0.0
 11
-550.208242315951
 21
-128.252661585328
 31
0.0
  0
LINE
  5
   452
  8
0
  6
CONTINUOUS
 62
     7
 10
-550.208242315951
 20
-128.252661585328
 30
0.0
 11
-547.910109053855
 21
-126.324298676111
 31
0.0
  0
LINE
  5
   453
  8
0
  6
CONTINUOUS
 62
     7
 10
-547.910109053855
 20
-100.276470366858
 30
0.0
 11
-550.208242315951
 21
-98.3481074576405
 31
0.0
  0
LINE
  5
   454
  8
0
  6
CONTINUOUS
 62
     7
 10
-550.208242315951
 20
-98.3481074576405
 30
0.0
 11
-548.708242225331
 21
-100.946183616674
 31
0.0
  0
ENDBLK
  5
   455
  8
0
  6
CONTINUOUS
 62
     7
  0
BLOCK
  5
   456
  8
0
  6
CONTINUOUS
 62
     7
  2
*UDIM417
 70
    65
 10
0.0
 20
0.0
 30
0.0
  3
*UDIM417
  0
TEXT
  5
   457
  8
0
  6
CONTINUOUS
 62
     7
 10
-586.089832312695
 20
-107.415317564308
 30
0.0
 40
3.00000002980232
  1
Ø4
 50
449.999999844103
 41
0.933333333333333
 72
     1
 11
-587.589832320809
 21
-104.9153175354
 31
0.0
 73
     2
  0
LINE
  5
   458
  8
0
  6
CONTINUOUS
 62
     7
 10
-566.644165039063
 20
-111.300384521484
 30
0.0
 11
-587.089832305908
 21
-111.300384521484
 31
0.0
  0
LINE
  5
   459
  8
0
  6
CONTINUOUS
 62
     7
 10
-566.644165039063
 20
-115.300384521484
 30
0.0
 11
-587.089832305908
 21
-115.300384521484
 31
0.0
  0
LINE
  5
   45A
  8
0
  6
CONTINUOUS
 62
     7
 10
-585.089832305908
 20
-102.415317510565
 30
0.0
 11
-585.089832305908
 21
-115.300384521484
 31
0.0
  0
LINE
  5
   45B
  8
0
  6
CONTINUOUS
 62
     7
 10
-585.61077673586
 20
-108.345961244277
 30
0.0
 11
-585.089832305908
 21
-111.300384521484
 31
0.0
  0
LINE
  5
   45C
  8
0
  6
CONTINUOUS
 62
     7
 10
-585.089832305908
 20
-111.300384521484
 30
0.0
 11
-584.568887875957
 21
-108.345961244277
 31
0.0
  0
LINE
  5
   45D
  8
0
  6
CONTINUOUS
 62
     7
 10
-584.568887875957
 20
-118.254807798691
 30
0.0
 11
-585.089832305908
 21
-115.300384521484
 31
0.0
  0
LINE
  5
   45E
  8
0
  6
CONTINUOUS
 62
     7
 10
-585.089832305908
 20
-115.300384521484
 30
0.0
 11
-585.61077673586
 21
-118.254807798691
 31
0.0
  0
ENDBLK
  5
   45F
  8
0
  6
CONTINUOUS
 62
     7
  0
ENDSEC
  0
SECTION
  2
ENTITIES
  0
LINE
  5
   460
  8
0
  6
DASHDOT
 62
     3
 10
-648.41650390625
 20
-98.7186739171179
 30
0.0
 11
-648.41650390625
 21
-158.188092139454
 31
0.0
  0
LINE
  5
   461
  8
0
  6
CONTINUOUS
 62
     7
 10
-634.66650390625
 20
-101.414478608392
 30
0.0
 11
-634.66650390625
 21
-157.753891431164
 31
0.0
  0
LINE
  5
   462
  8
0
  6
CONTINUOUS
 62
     7
 10
-662.16650390625
 20
-101.778776539645
 30
0.0
 11
-662.16650390625
 21
-157.18941479497
 31
0.0
  0
LINE
  5
   463
  8
0
  6
CONTINUOUS
 62
     7
 10
-633.651583131565
 20
-156.15633392334
 30
0.0
 11
-664.328717244673
 21
-156.15633392334
 31
0.0
  0
LINE
  5
   464
  8
0
  6
DASHDOT
 62
     3
 10
-658.66650390625
 20
-102.986410391951
 30
0.0
 11
-658.66650390625
 21
-145.615722833797
 31
0.0
  0
LINE
  5
   465
  8
0
  6
DASHDOT
 62
     3
 10
-638.16650390625
 20
-102.986410391951
 30
0.0
 11
-638.16650390625
 21
-146.023009258401
 31
0.0
  0
LINE
  5
   466
  8
0
  6
DASHDOT
 62
     3
 10
-635.444462918543
 20
-107.53133392334
 30
0.0
 11
-661.782318376244
 21
-107.53133392334
 31
0.0
  0
LINE
  5
   467
  8
0
  6
DASHDOT
 62
     3
 10
-635.580225060077
 20
-141.28133392334
 30
0.0
 11
-661.918080517778
 21
-141.28133392334
 31
0.0
  0
CIRCLE
  5
   468
  8
0
  6
CONTINUOUS
 62
     7
 10
-658.66650390625
 20
-107.53133392334
 30
0.0
 40
0.625
  0
CIRCLE
  5
   469
  8
0
  6
CONTINUOUS
 62
     7
 10
-638.16650390625
 20
-107.53133392334
 30
0.0
 40
0.625
  0
CIRCLE
  5
   46A
  8
0
  6
CONTINUOUS
 62
     7
 10
-638.16650390625
 20
-141.28133392334
 30
0.0
 40
0.625
  0
CIRCLE
  5
   46B
  8
0
  6
CONTINUOUS
 62
     7
 10
-658.66650390625
 20
-141.28133392334
 30
0.0
 40
0.625
  0
LINE
  5
   46C
  8
0
  6
CONTINUOUS
 62
     7
 10
-632.344392352073
 20
-102.725951160903
 30
0.0
 11
-663.892593198599
 21
-102.725951160903
 31
0.0
  0
LINE
  5
   46D
  8
0
  6
DASHDOT
 62
     7
 10
-628.547498512405
 20
-123.96883392334
 30
0.0
 11
-672.26267314121
 21
-123.96883392334
 31
0.0
  0
INSERT
  5
   46E
  8
0
  6
CONTINUOUS
 62
     7
  2
*UDIM370
 10
0.0
 20
0.0
 30
0.0
  0
TEXT
  5
   46F
  8
0
  6
CONTINUOUS
 62
     7
 10
-654.639425757261
 20
-120.880744951946
 30
0.0
 40
3.00000002980232
  1
=   =
 50
359.999999896069
 41
0.916666604744064
 72
     2
 11
-641.439426522187
 21
-120.880744975823
 31
0.0
  0
INSERT
  5
   470
  8
0
  6
CONTINUOUS
 62
     7
  2
*UDIM371
 10
0.0
 20
0.0
 30
0.0
  0
INSERT
  5
   471
  8
0
  6
CONTINUOUS
 62
     7
  2
*UDIM372
 10
0.0
 20
0.0
 30
0.0
  0
INSERT
  5
   472
  8
0
  6
CONTINUOUS
 62
     7
  2
*UDIM373
 10
0.0
 20
0.0
 30
0.0
  0
TEXT
  5
   473
  8
0
  6
CONTINUOUS
 62
     7
 10
-649.440473511552
 20
-99.7720593563733
 30
0.0
 40
3.00000002980232
  1
Y
 50
359.999999896069
 41
0.916666604744064
 72
     2
 11
-647.240473642682
 21
-99.7720593603529
 31
0.0
  0
TEXT
  5
   474
  8
0
  6
CONTINUOUS
 62
     7
 10
-686.386726382108
 20
-125.843170670665
 30
0.0
 40
3.00000002980232
  1
X
 50
359.999999896069
 41
0.916666604744064
 72
     2
 11
-684.186726513238
 21
-125.843170674645
 31
0.0
  0
TEXT
  5
   475
  8
0
  6
CONTINUOUS
 62
     7
 10
-626.421943667264
 20
-126.016855744518
 30
0.0
 40
3.00000002980232
  1
X
 50
359.999999896069
 41
0.916666604744064
 72
     2
 11
-624.221943798394
 21
-126.016855748497
 31
0.0
  0
TEXT
  5
   476
  8
0
  6
CONTINUOUS
 62
     7
 10
-649.250111403795
 20
-162.143863705791
 30
0.0
 40
3.00000002980232
  1
Y
 50
359.999999896069
 41
0.916666604744064
 72
     2
 11
-647.050111534925
 21
-162.143863709771
 31
0.0
  0
LINE
  5
   477
  8
0
  6
CONTINUOUS
 62
     7
 10
-529.235342881752
 20
37.8425764078056
 30
0.0
 11
-529.235342881752
 21
38.7825764054214
 31
0.0
  0
LINE
  5
   478
  8
0
  6
CONTINUOUS
 62
     7
 10
-529.235342881752
 20
51.9396360034018
 30
0.0
 11
-529.235342881752
 21
61.4600763479029
 31
0.0
  0
LINE
  5
   479
  8
0
  6
CONTINUOUS
 62
     7
 10
-479.885371693445
 20
51.9396360034018
 30
0.0
 11
-479.885371693445
 21
61.4600763479029
 31
0.0
  0
LINE
  5
   47A
  8
0
  6
CONTINUOUS
 62
     7
 10
-480.120343006326
 20
38.7825907486831
 30
0.0
 11
-529.000342882335
 21
38.7825907486831
 31
0.0
  0
LINE
  5
   47B
  8
0
  6
CONTINUOUS
 62
     7
 10
-499.507842957152
 20
-0.109916324302048
 30
0.0
 11
-499.507842957152
 21
18.6900764563834
 31
0.0
  0
LINE
  5
   47C
  8
0
  6
CONTINUOUS
 62
     7
 10
-509.612842931522
 20
-0.109916324302048
 30
0.0
 11
-509.612842931522
 21
18.6900764563834
 31
0.0
  0
LINE
  5
   47D
  8
0
  6
CONTINUOUS
 62
     7
 10
-479.885343006922
 20
37.8425764078056
 30
0.0
 11
-529.235342881752
 21
37.8425764078056
 31
0.0
  0
LINE
  5
   47E
  8
0
  6
CONTINUOUS
 62
     7
 10
-499.507842957152
 20
18.565777750644
 30
0.0
 11
-509.612842931522
 21
18.565777750644
 31
0.0
  0
LINE
  5
   47F
  8
0
  6
CONTINUOUS
 62
     7
 10
-499.507842957152
 20
18.6900764563834
 30
0.0
 11
-509.612842931522
 21
18.6900764563834
 31
0.0
  0
LINE
  5
   480
  8
0
  6
CONTINUOUS
 62
     7
 10
-499.507842957152
 20
-0.109916324302056
 30
0.0
 11
-509.612842931522
 21
-0.109916324302056
 31
0.0
  0
LINE
  5
   481
  8
0
  6
CONTINUOUS
 62
     7
 10
-499.507842957152
 20
1.43967246990471E-2
 30
0.0
 11
-509.612842931522
 21
1.43967246990471E-2
 31
0.0
  0
ARC
  5
   482
  8
0
  6
CONTINUOUS
 62
     7
 10
-480.120343006326
 20
38.5475907492792
 30
0.0
 40
0.234999999403954
 50
359.999999948034
 51
449.999999948034
  0
ARC
  5
   483
  8
0
  6
CONTINUOUS
 62
     7
 10
-529.000342882335
 20
38.5475907492791
 30
0.0
 40
0.234999999403954
 50
449.999999948034
 51
539.999999948034
  0
LINE
  5
   484
  8
0
  6
CONTINUOUS
 62
     7
 10
-499.507842957152
 20
4.20434825181255
 30
0.0
 11
-509.612842931522
 21
4.20434825181255
 31
0.0
  0
LINE
  5
   485
  8
0
  6
CONTINUOUS
 62
     7
 10
-499.507842957152
 20
0.481500654829958
 30
0.0
 11
-509.612842931522
 21
0.481500654829958
 31
0.0
  0
LINE
  5
   486
  8
0
  6
CONTINUOUS
 62
     7
 10
-499.507842957152
 20
4.2043479221291
 30
0.0
 11
-509.612842931522
 21
4.2043479221291
 31
0.0
  0
LINE
  5
   487
  8
0
  6
CONTINUOUS
 62
     7
 10
-499.507842957152
 20
6.52902486892639
 30
0.0
 11
-509.612842931522
 21
6.52902486892639
 31
0.0
  0
LINE
  5
   488
  8
0
  6
CONTINUOUS
 62
     7
 10
-528.530369724263
 20
51.9396360034018
 30
0.0
 11
-528.530371632617
 21
59.1100763538634
 31
0.0
  0
LINE
  5
   489
  8
0
  6
CONTINUOUS
 62
     7
 10
-480.590369845855
 20
51.9396360034018
 30
0.0
 11
-480.590371754209
 21
59.1100763538634
 31
0.0
  0
LINE
  5
   48A
  8
0
  6
DASHDOT
 62
     7
 10
-521.010386926711
 20
-56.5569126117638
 30
0.0
 11
-521.010386926711
 21
-50.8229330488596
 31
0.0
  0
LINE
  5
   48B
  8
0
  6
DASHDOT
 62
     7
 10
-504.560393304744
 20
-56.5569474466436
 30
0.0
 11
-504.560393304744
 21
-50.8229193986972
 31
0.0
  0
LINE
  5
   48C
  8
0
  6
DASHDOT
 62
     7
 10
-488.110392338013
 20
-56.5569605083531
 30
0.0
 11
-488.110392338013
 21
-50.8229131465103
 31
0.0
  0
LINE
  5
   48D
  8
0
  6
CONTINUOUS
 62
     7
 10
-480.590371754209
 20
59.1100763538634
 30
0.0
 11
-528.530371632617
 21
59.1100763538634
 31
0.0
  0
LINE
  5
   48E
  8
0
  6
CONTINUOUS
 62
     7
 10
-529.235388202398
 20
-34.419942906987
 30
0.0
 11
-529.235358316992
 21
-23.7274019211339
 31
0.0
  0
LINE
  5
   48F
  8
0
  6
CONTINUOUS
 62
     7
 10
-479.885392922687
 20
-34.419916237279
 30
0.0
 11
-479.885378923682
 21
-23.7274019211339
 31
0.0
  0
LINE
  5
   490
  8
0
  6
DASHDOT
 62
     7
 10
-504.560393304744
 20
-49.5405581216866
 30
0.0
 11
-504.560393304744
 21
76.1106823753482
 31
0.0
  0
LINE
  5
   491
  8
0
  6
CONTINUOUS
 62
     7
 10
-480.355392921494
 20
60.5200423478965
 30
0.0
 11
-528.765385627078
 21
60.5200423478965
 31
0.0
  0
LINE
  5
   492
  8
0
  6
CONTINUOUS
 62
     3
 10
-480.472892921197
 20
74.1500332859312
 30
0.0
 11
-528.647885627376
 21
74.1500332859312
 31
0.0
  0
LINE
  5
   493
  8
0
  6
CONTINUOUS
 62
     3
 10
-479.885392922687
 20
60.9900404909407
 30
0.0
 11
-479.885392922687
 21
73.5625287076875
 31
0.0
  0
LINE
  5
   494
  8
0
  6
CONTINUOUS
 62
     3
 10
-529.235388308647
 20
60.9900436285298
 30
0.0
 11
-529.235388308647
 21
73.5625434065872
 31
0.0
  0
LINE
  5
   495
  8
0
  6
CONTINUOUS
 62
     3
 10
-527.519887602436
 20
60.9900440767561
 30
0.0
 11
-527.519887602436
 21
74.1500332859312
 31
0.0
  0
LINE
  5
   496
  8
0
  6
CONTINUOUS
 62
     3
 10
-525.827887427437
 20
60.9900436285292
 30
0.0
 11
-525.827887427437
 21
74.1500332859312
 31
0.0
  0
LINE
  5
   497
  8
0
  6
CONTINUOUS
 62
     3
 10
-524.135887700664
 20
60.9900436285292
 30
0.0
 11
-524.135887700664
 21
74.1500332859312
 31
0.0
  0
LINE
  5
   498
  8
0
  6
CONTINUOUS
 62
     3
 10
-522.443887525665
 20
60.9900436285292
 30
0.0
 11
-522.443887525665
 21
74.1500332859312
 31
0.0
  0
LINE
  5
   499
  8
0
  6
CONTINUOUS
 62
     3
 10
-520.751891384708
 20
60.9900431803022
 30
0.0
 11
-520.751891384708
 21
74.1500332859312
 31
0.0
  0
LINE
  5
   49A
  8
0
  6
CONTINUOUS
 62
     3
 10
-519.059888520347
 20
60.9900431803022
 30
0.0
 11
-519.059888520347
 21
74.1500332859312
 31
0.0
  0
LINE
  5
   49B
  8
0
  6
CONTINUOUS
 62
     3
 10
-517.367892827617
 20
60.9900431803022
 30
0.0
 11
-517.367892827617
 21
74.1500332859312
 31
0.0
  0
LINE
  5
   49C
  8
0
  6
CONTINUOUS
 62
     3
 10
-515.675889963257
 20
60.9900431803022
 30
0.0
 11
-515.675889963257
 21
74.1500332859312
 31
0.0
  0
LINE
  5
   49D
  8
0
  6
CONTINUOUS
 62
     3
 10
-513.983894270527
 20
60.9900427320753
 30
0.0
 11
-513.983894270527
 21
74.1500332859312
 31
0.0
  0
LINE
  5
   49E
  8
0
  6
CONTINUOUS
 62
     3
 10
-512.291891406166
 20
60.9900427320753
 30
0.0
 11
-512.291891406166
 21
74.1500332859312
 31
0.0
  0
LINE
  5
   49F
  8
0
  6
CONTINUOUS
 62
     3
 10
-510.599888541805
 20
60.9900427320753
 30
0.0
 11
-510.599888541805
 21
74.1500332859312
 31
0.0
  0
LINE
  5
   4A0
  8
0
  6
CONTINUOUS
 62
     3
 10
-508.907892849075
 20
60.9900422838484
 30
0.0
 11
-508.907892849075
 21
74.1500332859312
 31
0.0
  0
LINE
  5
   4A1
  8
0
  6
CONTINUOUS
 62
     3
 10
-507.215889984714
 20
60.9900422838484
 30
0.0
 11
-507.215889984714
 21
74.1500332859312
 31
0.0
  0
LINE
  5
   4A2
  8
0
  6
CONTINUOUS
 62
     3
 10
-505.523894291984
 20
60.9900422838484
 30
0.0
 11
-505.523894291984
 21
74.1500332859312
 31
0.0
  0
LINE
  5
   4A3
  8
0
  6
CONTINUOUS
 62
     3
 10
-503.831891427623
 20
60.9900422838484
 30
0.0
 11
-503.831891427623
 21
74.1500332859312
 31
0.0
  0
LINE
  5
   4A4
  8
0
  6
CONTINUOUS
 62
     3
 10
-502.139888563263
 20
60.9900418356214
 30
0.0
 11
-502.139888563263
 21
74.1500332859312
 31
0.0
  0
LINE
  5
   4A5
  8
0
  6
CONTINUOUS
 62
     3
 10
-500.447892870533
 20
60.9900418356214
 30
0.0
 11
-500.447892870533
 21
74.1500332859312
 31
0.0
  0
LINE
  5
   4A6
  8
0
  6
CONTINUOUS
 62
     3
 10
-498.755890006172
 20
60.9900418356214
 30
0.0
 11
-498.755890006172
 21
74.1500332859312
 31
0.0
  0
LINE
  5
   4A7
  8
0
  6
CONTINUOUS
 62
     3
 10
-497.063894313442
 20
60.9900413873945
 30
0.0
 11
-497.063894313442
 21
74.1500332859312
 31
0.0
  0
LINE
  5
   4A8
  8
0
  6
CONTINUOUS
 62
     3
 10
-495.371891449081
 20
60.9900413873945
 30
0.0
 11
-495.371891449081
 21
74.1500332859312
 31
0.0
  0
LINE
  5
   4A9
  8
0
  6
CONTINUOUS
 62
     3
 10
-493.67988858472
 20
60.9900413873945
 30
0.0
 11
-493.67988858472
 21
74.1500332859312
 31
0.0
  0
LINE
  5
   4AA
  8
0
  6
CONTINUOUS
 62
     3
 10
-491.98789289199
 20
60.9900413873945
 30
0.0
 11
-491.98789289199
 21
74.1500332859312
 31
0.0
  0
LINE
  5
   4AB
  8
0
  6
CONTINUOUS
 62
     3
 10
-490.29589002763
 20
60.9900409391676
 30
0.0
 11
-490.29589002763
 21
74.1500332859312
 31
0.0
  0
LINE
  5
   4AC
  8
0
  6
CONTINUOUS
 62
     3
 10
-488.6038943349
 20
60.9900409391676
 30
0.0
 11
-488.6038943349
 21
74.1500332859312
 31
0.0
  0
LINE
  5
   4AD
  8
0
  6
CONTINUOUS
 62
     3
 10
-486.911891470539
 20
60.9900409391676
 30
0.0
 11
-486.911891470539
 21
74.1500332859312
 31
0.0
  0
LINE
  5
   4AE
  8
0
  6
CONTINUOUS
 62
     3
 10
-485.219888606178
 20
60.9900404909407
 30
0.0
 11
-485.219888606178
 21
74.1500332859312
 31
0.0
  0
LINE
  5
   4AF
  8
0
  6
CONTINUOUS
 62
     3
 10
-483.527892913448
 20
60.9900404909407
 30
0.0
 11
-483.527892913448
 21
74.1500332859312
 31
0.0
  0
LINE
  5
   4B0
  8
0
  6
CONTINUOUS
 62
     3
 10
-481.835890049087
 20
60.9900404909407
 30
0.0
 11
-481.835890049087
 21
74.1500332859312
 31
0.0
  0
LINE
  5
   4B1
  8
0
  6
CONTINUOUS
 62
     7
 10
-528.765392350482
 20
60.5200441851831
 30
0.0
 11
-528.765392350482
 21
60.9900440999485
 31
0.0
  0
LINE
  5
   4B2
  8
0
  6
CONTINUOUS
 62
     3
 10
-528.765392377704
 20
60.9900671606486
 30
0.0
 11
-529.235388202398
 21
60.9900671606486
 31
0.0
  0
LINE
  5
   4B3
  8
0
  6
CONTINUOUS
 62
     3
 10
-479.934066354494
 20
60.9900422648058
 30
0.0
 11
-528.765392371997
 21
60.9900422648058
 31
0.0
  0
LINE
  5
   4B4
  8
0
  6
CONTINUOUS
 62
     7
 10
-480.355392921495
 20
60.5200405106121
 30
0.0
 11
-480.355392921495
 21
60.99004050942
 31
0.0
  0
LINE
  5
   4B5
  8
0
  6
CONTINUOUS
 62
     3
 10
-479.885392922687
 20
60.9900404909406
 30
0.0
 11
-480.05746903309
 21
60.9900404909406
 31
0.0
  0
ARC
  5
   4B6
  8
0
  6
CONTINUOUS
 62
     3
 10
-480.472900720402
 20
73.5625287076875
 30
0.0
 40
0.587499414625473
 50
360.000027285161
 51
450.00046185832
  0
ARC
  5
   4B7
  8
0
  6
CONTINUOUS
 62
     3
 10
-528.647901457113
 20
73.5625434065872
 30
0.0
 40
0.587484614486106
 50
449.998225807986
 51
540.001187191324
  0
LINE
  5
   4B8
  8
0
  6
CONTINUOUS
 62
     7
 10
-480.355392921494
 20
-33.9499180942349
 30
0.0
 11
-528.765385627078
 21
-33.9499180942349
 31
0.0
  0
LINE
  5
   4B9
  8
0
  6
CONTINUOUS
 62
     3
 10
-480.472892921197
 20
-47.5799090322696
 30
0.0
 11
-528.647901457113
 21
-47.5799090322696
 31
0.0
  0
LINE
  5
   4BA
  8
0
  6
CONTINUOUS
 62
     3
 10
-479.885392922687
 20
-46.992404454026
 30
0.0
 11
-479.885392922687
 21
-34.419916237279
 31
0.0
  0
LINE
  5
   4BB
  8
0
  6
CONTINUOUS
 62
     3
 10
-529.235388308647
 20
-46.9924191529256
 30
0.0
 11
-529.235388308647
 21
-34.4199193748681
 31
0.0
  0
LINE
  5
   4BC
  8
0
  6
CONTINUOUS
 62
     3
 10
-527.519887602436
 20
-47.5799090322696
 30
0.0
 11
-527.519887602436
 21
-34.4199198230945
 31
0.0
  0
LINE
  5
   4BD
  8
0
  6
CONTINUOUS
 62
     3
 10
-525.827887427436
 20
-47.5799090322696
 30
0.0
 11
-525.827887427436
 21
-34.4199193748675
 31
0.0
  0
LINE
  5
   4BE
  8
0
  6
CONTINUOUS
 62
     3
 10
-524.135887700664
 20
-47.5799090322696
 30
0.0
 11
-524.135887700664
 21
-34.4199193748675
 31
0.0
  0
LINE
  5
   4BF
  8
0
  6
CONTINUOUS
 62
     3
 10
-522.443887525665
 20
-47.5799090322696
 30
0.0
 11
-522.443887525665
 21
-34.4199193748675
 31
0.0
  0
LINE
  5
   4C0
  8
0
  6
CONTINUOUS
 62
     3
 10
-520.751891384708
 20
-47.5799090322696
 30
0.0
 11
-520.751891384708
 21
-34.4199189266406
 31
0.0
  0
LINE
  5
   4C1
  8
0
  6
CONTINUOUS
 62
     3
 10
-519.059888520347
 20
-47.5799090322696
 30
0.0
 11
-519.059888520347
 21
-34.4199189266406
 31
0.0
  0
LINE
  5
   4C2
  8
0
  6
CONTINUOUS
 62
     3
 10
-517.367892827617
 20
-47.5799090322696
 30
0.0
 11
-517.367892827617
 21
-34.4199189266406
 31
0.0
  0
LINE
  5
   4C3
  8
0
  6
CONTINUOUS
 62
     3
 10
-515.675889963256
 20
-47.5799090322696
 30
0.0
 11
-515.675889963256
 21
-34.4199189266406
 31
0.0
  0
LINE
  5
   4C4
  8
0
  6
CONTINUOUS
 62
     3
 10
-513.983894270527
 20
-47.5799090322696
 30
0.0
 11
-513.983894270527
 21
-34.4199184784137
 31
0.0
  0
LINE
  5
   4C5
  8
0
  6
CONTINUOUS
 62
     3
 10
-512.291891406166
 20
-47.5799090322696
 30
0.0
 11
-512.291891406166
 21
-34.4199184784137
 31
0.0
  0
LINE
  5
   4C6
  8
0
  6
CONTINUOUS
 62
     3
 10
-510.599888541805
 20
-47.5799090322696
 30
0.0
 11
-510.599888541805
 21
-34.4199184784137
 31
0.0
  0
LINE
  5
   4C7
  8
0
  6
CONTINUOUS
 62
     3
 10
-508.907892849075
 20
-47.5799090322696
 30
0.0
 11
-508.907892849075
 21
-34.4199180301868
 31
0.0
  0
LINE
  5
   4C8
  8
0
  6
CONTINUOUS
 62
     3
 10
-507.215889984714
 20
-47.5799090322696
 30
0.0
 11
-507.215889984714
 21
-34.4199180301868
 31
0.0
  0
LINE
  5
   4C9
  8
0
  6
CONTINUOUS
 62
     3
 10
-505.523894291984
 20
-47.5799090322696
 30
0.0
 11
-505.523894291984
 21
-34.4199180301868
 31
0.0
  0
LINE
  5
   4CA
  8
0
  6
CONTINUOUS
 62
     3
 10
-503.831891427623
 20
-47.5799090322696
 30
0.0
 11
-503.831891427623
 21
-34.4199180301868
 31
0.0
  0
LINE
  5
   4CB
  8
0
  6
CONTINUOUS
 62
     3
 10
-502.139888563263
 20
-47.5799090322696
 30
0.0
 11
-502.139888563263
 21
-34.4199175819598
 31
0.0
  0
LINE
  5
   4CC
  8
0
  6
CONTINUOUS
 62
     3
 10
-500.447892870533
 20
-47.5799090322696
 30
0.0
 11
-500.447892870533
 21
-34.4199175819598
 31
0.0
  0
LINE
  5
   4CD
  8
0
  6
CONTINUOUS
 62
     3
 10
-498.755890006172
 20
-47.5799090322696
 30
0.0
 11
-498.755890006172
 21
-34.4199175819598
 31
0.0
  0
LINE
  5
   4CE
  8
0
  6
CONTINUOUS
 62
     3
 10
-497.063894313442
 20
-47.5799090322696
 30
0.0
 11
-497.063894313442
 21
-34.4199171337329
 31
0.0
  0
LINE
  5
   4CF
  8
0
  6
CONTINUOUS
 62
     3
 10
-495.371891449081
 20
-47.5799090322696
 30
0.0
 11
-495.371891449081
 21
-34.4199171337329
 31
0.0
  0
LINE
  5
   4D0
  8
0
  6
CONTINUOUS
 62
     3
 10
-493.67988858472
 20
-47.5799090322696
 30
0.0
 11
-493.67988858472
 21
-34.4199171337329
 31
0.0
  0
LINE
  5
   4D1
  8
0
  6
CONTINUOUS
 62
     3
 10
-491.98789289199
 20
-47.5799090322696
 30
0.0
 11
-491.98789289199
 21
-34.4199171337329
 31
0.0
  0
LINE
  5
   4D2
  8
0
  6
CONTINUOUS
 62
     3
 10
-490.29589002763
 20
-47.5799090322696
 30
0.0
 11
-490.29589002763
 21
-34.419916685506
 31
0.0
  0
LINE
  5
   4D3
  8
0
  6
CONTINUOUS
 62
     3
 10
-488.6038943349
 20
-47.5799090322696
 30
0.0
 11
-488.6038943349
 21
-34.419916685506
 31
0.0
  0
LINE
  5
   4D4
  8
0
  6
CONTINUOUS
 62
     3
 10
-486.911891470539
 20
-47.5799090322696
 30
0.0
 11
-486.911891470539
 21
-34.419916685506
 31
0.0
  0
LINE
  5
   4D5
  8
0
  6
CONTINUOUS
 62
     3
 10
-485.219888606178
 20
-47.5799090322696
 30
0.0
 11
-485.219888606178
 21
-34.419916237279
 31
0.0
  0
LINE
  5
   4D6
  8
0
  6
CONTINUOUS
 62
     3
 10
-483.527892913448
 20
-47.5799090322696
 30
0.0
 11
-483.527892913448
 21
-34.419916237279
 31
0.0
  0
LINE
  5
   4D7
  8
0
  6
CONTINUOUS
 62
     3
 10
-481.835890049087
 20
-47.5799090322696
 30
0.0
 11
-481.835890049087
 21
-34.419916237279
 31
0.0
  0
LINE
  5
   4D8
  8
0
  6
CONTINUOUS
 62
     7
 10
-528.765392350482
 20
-34.4199198462869
 30
0.0
 11
-528.765392350482
 21
-33.9499199315215
 31
0.0
  0
LINE
  5
   4D9
  8
0
  6
CONTINUOUS
 62
     3
 10
-528.765392377704
 20
-34.419942906987
 30
0.0
 11
-529.235388202398
 21
-34.419942906987
 31
0.0
  0
LINE
  5
   4DA
  8
0
  6
CONTINUOUS
 62
     3
 10
-479.934066354494
 20
-34.4199180111442
 30
0.0
 11
-528.765392371997
 21
-34.4199180111442
 31
0.0
  0
LINE
  5
   4DB
  8
0
  6
CONTINUOUS
 62
     7
 10
-480.355392921495
 20
-34.4199162557583
 30
0.0
 11
-480.355392921495
 21
-33.9499162569504
 31
0.0
  0
LINE
  5
   4DC
  8
0
  6
CONTINUOUS
 62
     3
 10
-479.885392922687
 20
-34.419916237279
 30
0.0
 11
-480.05746903309
 21
-34.419916237279
 31
0.0
  0
ARC
  5
   4DD
  8
0
  6
CONTINUOUS
 62
     3
 10
-480.472900720402
 20
-46.992404454026
 30
0.0
 40
0.587499414625473
 50
269.999538037749
 51
359.999972610908
  0
ARC
  5
   4DE
  8
0
  6
CONTINUOUS
 62
     3
 10
-528.647901457113
 20
-46.9924191529256
 30
0.0
 40
0.587484614486106
 50
179.998812704745
 51
270.001774088083
  0
LINE
  5
   4DF
  8
0
  6
CONTINUOUS
 62
   150
 10
-529.166558191655
 20
38.7137777811072
 30
0.0
 11
-529.000384330466
 21
38.7826182666334
 31
0.0
  0
LINE
  5
   4E0
  8
0
  6
CONTINUOUS
 62
   150
 10
-529.235388510062
 20
38.5476089407164
 30
0.0
 11
-529.166558782971
 21
38.7137828032353
 31
0.0
  0
LINE
  5
   4E1
  8
0
  6
CONTINUOUS
 62
   150
 10
-529.235400083468
 20
-10.3324216770972
 30
0.0
 11
-529.235400083468
 21
-10.0974073344315
 31
0.0
  0
LINE
  5
   4E2
  8
0
  6
CONTINUOUS
 62
   150
 10
-529.235392911837
 20
33.1425620764649
 30
0.0
 11
-529.235392911837
 21
38.54759792091
 31
0.0
  0
LINE
  5
   4E3
  8
0
  6
CONTINUOUS
 62
   150
 10
-529.166563549703
 20
-10.498592552631
 30
0.0
 11
-529.235400448972
 21
-10.332422284599
 31
0.0
  0
LINE
  5
   4E4
  8
0
  6
CONTINUOUS
 62
   150
 10
-529.000400168683
 20
-10.5673922138283
 30
0.0
 11
-529.166561480222
 21
-10.4985911726437
 31
0.0
  0
LINE
  5
   4E5
  8
0
  6
CONTINUOUS
 62
   150
 10
-480.120367935659
 20
-10.5674270552166
 30
0.0
 11
-494.4553678993
 21
-10.5674162977702
 31
0.0
  0
LINE
  5
   4E6
  8
0
  6
CONTINUOUS
 62
   150
 10
-528.76539291303
 20
-10.5673929899777
 30
0.0
 11
-529.000401876972
 21
-10.5673929899777
 31
0.0
  0
LINE
  5
   4E7
  8
0
  6
CONTINUOUS
 62
   150
 10
-480.120364974987
 20
-10.5674259324023
 30
0.0
 11
-479.954191121612
 21
-10.4985944149485
 31
0.0
  0
LINE
  5
   4E8
  8
0
  6
CONTINUOUS
 62
   150
 10
-479.954191562764
 20
-10.4985935674835
 30
0.0
 11
-479.885358249593
 21
-10.3324232918801
 31
0.0
  0
LINE
  5
   4E9
  8
0
  6
CONTINUOUS
 62
   150
 10
-479.885360764667
 20
-10.3324293635103
 30
0.0
 11
-479.885367936298
 21
38.5475979209116
 31
0.0
  0
LINE
  5
   4EA
  8
0
  6
CONTINUOUS
 62
   150
 10
-479.885365592137
 20
38.5476021201402
 30
0.0
 11
-479.954213250187
 21
38.7137759767711
 31
0.0
  0
LINE
  5
   4EB
  8
0
  6
CONTINUOUS
 62
   150
 10
-479.954216487884
 20
38.7137713248641
 30
0.0
 11
-480.120390349455
 21
38.7825974659025
 31
0.0
  0
LINE
  5
   4EC
  8
0
  6
CONTINUOUS
 62
   150
 10
-480.120389450593
 20
38.7825979203167
 30
0.0
 11
-529.000389326616
 21
38.7826122635789
 31
0.0
  0
LINE
  5
   4ED
  8
0
  6
CONTINUOUS
 62
     3
 10
-492.716398024605
 20
-5.66506874551487
 30
0.0
 11
-492.716398024605
 21
-1.8398356009202
 31
0.0
  0
LINE
  5
   4EE
  8
0
  6
CONTINUOUS
 62
     3
 10
-492.059403167416
 20
-6.42023538810882
 30
0.0
 11
-492.716403416399
 21
-5.66506983796372
 31
0.0
  0
LINE
  5
   4EF
  8
0
  6
CONTINUOUS
 62
     3
 10
-491.216575231085
 20
-6.96030783625767
 30
0.0
 11
-492.05939247438
 21
-6.42023385037221
 31
0.0
  0
LINE
  5
   4F0
  8
0
  6
CONTINUOUS
 62
     3
 10
-490.255926212597
 20
-7.24169441098203
 30
0.0
 11
-491.216580526003
 21
-6.96030831536607
 31
0.0
  0
LINE
  5
   4F1
  8
0
  6
CONTINUOUS
 62
     3
 10
-489.254917167906
 20
-7.24169441290269
 30
0.0
 11
-490.255926229088
 21
-7.24169441290269
 31
0.0
  0
LINE
  5
   4F2
  8
0
  6
CONTINUOUS
 62
     3
 10
-489.254918055422
 20
-7.24169474174214
 30
0.0
 11
-488.294263755219
 21
-6.96031221120458
 31
0.0
  0
LINE
  5
   4F3
  8
0
  6
CONTINUOUS
 62
     3
 10
-488.294253098567
 20
-6.96030667463178
 30
0.0
 11
-487.451428672194
 21
-6.42023264594181
 31
0.0
  0
LINE
  5
   4F4
  8
0
  6
CONTINUOUS
 62
     3
 10
-487.45144363962
 20
-6.42024159634218
 30
0.0
 11
-486.794421827738
 21
-5.66502942150826
 31
0.0
  0
LINE
  5
   4F5
  8
0
  6
CONTINUOUS
 62
     3
 10
-486.79441668473
 20
-5.66502571471998
 30
0.0
 11
-486.794395169839
 21
-1.83981408501784
 31
0.0
  0
LINE
  5
   4F6
  8
0
  6
CONTINUOUS
 62
     3
 10
-486.79439651434
 20
-1.83981441129723
 30
0.0
 11
-487.451418316701
 21
-1.0846201626092
 31
0.0
  0
LINE
  5
   4F7
  8
0
  6
CONTINUOUS
 62
     3
 10
-487.451409378681
 20
-1.08461877138673
 30
0.0
 11
-488.294233805054
 21
-0.544544742696758
 31
0.0
  0
LINE
  5
   4F8
  8
0
  6
CONTINUOUS
 62
     3
 10
-488.294238415132
 20
-0.544545344574829
 30
0.0
 11
-489.254885510963
 21
-0.26316282785789
 31
0.0
  0
LINE
  5
   4F9
  8
0
  6
CONTINUOUS
 62
     3
 10
-489.254888481382
 20
-0.263163317931912
 30
0.0
 11
-490.255904714195
 21
-0.263163317931912
 31
0.0
  0
LINE
  5
   4FA
  8
0
  6
CONTINUOUS
 62
     3
 10
-491.216548482738
 20
-0.544544451918796
 30
0.0
 11
-490.255901386907
 21
-0.26316193520185
 31
0.0
  0
LINE
  5
   4FB
  8
0
  6
CONTINUOUS
 62
     3
 10
-492.05936673391
 20
-1.08461420254628
 30
0.0
 11
-491.216542307538
 21
-0.544540173856319
 31
0.0
  0
LINE
  5
   4FC
  8
0
  6
CONTINUOUS
 62
     3
 10
-492.716403458495
 20
-1.83983990852015
 30
0.0
 11
-492.059381671381
 21
-1.08462415340728
 31
0.0
  0
LINE
  5
   4FD
  8
0
  6
CONTINUOUS
 62
     3
 10
-494.455367899096
 20
33.1425692482328
 30
0.0
 11
-479.885367936051
 21
33.1425979347553
 31
0.0
  0
LINE
  5
   4FE
  8
0
  6
CONTINUOUS
 62
     3
 10
-479.885367936299
 20
37.8425979226981
 30
0.0
 11
-529.235396497653
 21
37.8425979226981
 31
0.0
  0
LINE
  5
   4FF
  8
0
  6
CONTINUOUS
 62
     3
 10
-485.288297185638
 20
29.7350370847326
 30
0.0
 11
-485.341962497194
 21
30.0048338347884
 31
0.0
  0
LINE
  5
   500
  8
0
  6
CONTINUOUS
 62
     3
 10
-485.341959788528
 20
30.0048383778863
 30
0.0
 11
-485.494780077793
 21
30.2335560281125
 31
0.0
  0
LINE
  5
   501
  8
0
  6
CONTINUOUS
 62
     3
 10
-485.49478260779
 20
30.2335539641871
 30
0.0
 11
-485.72350743292
 21
30.3863742400922
 31
0.0
  0
LINE
  5
   502
  8
0
  6
CONTINUOUS
 62
     3
 10
-485.723512160881
 20
30.3863724540651
 30
0.0
 11
-485.993301735756
 21
30.4400377669922
 31
0.0
  0
LINE
  5
   503
  8
0
  6
CONTINUOUS
 62
     3
 10
-486.263092577255
 20
30.3863710763909
 30
0.0
 11
-485.99330300238
 21
30.440036389318
 31
0.0
  0
LINE
  5
   504
  8
0
  6
CONTINUOUS
 62
     3
 10
-486.491800536296
 20
30.2335565693165
 30
0.0
 11
-486.26308288607
 21
30.3863768585807
 31
0.0
  0
LINE
  5
   505
  8
0
  6
CONTINUOUS
 62
     3
 10
-486.644629668991
 20
30.0048377170267
 30
0.0
 11
-486.491802218128
 21
30.2335553628981
 31
0.0
  0
LINE
  5
   506
  8
0
  6
CONTINUOUS
 62
     3
 10
-486.698297899401
 20
29.7350362652148
 30
0.0
 11
-486.644632587845
 21
30.0048330152706
 31
0.0
  0
LINE
  5
   507
  8
0
  6
CONTINUOUS
 62
     3
 10
-486.698295317701
 20
28.3250405737913
 30
0.0
 11
-486.698295317701
 21
29.735040570215
 31
0.0
  0
LINE
  5
   508
  8
0
  6
CONTINUOUS
 62
     3
 10
-486.644633073848
 20
28.0552453039175
 30
0.0
 11
-486.698298386775
 21
28.3250348787921
 31
0.0
  0
LINE
  5
   509
  8
0
  6
CONTINUOUS
 62
     3
 10
-486.491802379554
 20
27.8265335492777
 30
0.0
 11
-486.644629830417
 21
28.0552511951491
 31
0.0
  0
LINE
  5
   50A
  8
0
  6
CONTINUOUS
 62
     3
 10
-486.263084653812
 20
27.6737060282881
 30
0.0
 11
-486.491802299683
 21
27.8265334791515
 31
0.0
  0
LINE
  5
   50B
  8
0
  6
CONTINUOUS
 62
     3
 10
-485.993301741496
 20
27.6200379142777
 30
0.0
 11
-486.263091316371
 21
27.6737032272047
 31
0.0
  0
LINE
  5
   50C
  8
0
  6
CONTINUOUS
 62
     3
 10
-485.993302996639
 20
27.6200365366035
 30
0.0
 11
-485.723513421765
 21
27.6737018495305
 31
0.0
  0
LINE
  5
   50D
  8
0
  6
CONTINUOUS
 62
     3
 10
-485.723505118724
 20
27.6737063684859
 30
0.0
 11
-485.494780297989
 21
27.8265338224457
 31
0.0
  0
LINE
  5
   50E
  8
0
  6
CONTINUOUS
 62
     3
 10
-485.494779267326
 20
27.8265352350395
 30
0.0
 11
-485.341958978062
 21
28.0552528852657
 31
0.0
  0
LINE
  5
   50F
  8
0
  6
CONTINUOUS
 62
     3
 10
-485.341965013908
 20
28.0552439308942
 30
0.0
 11
-485.288299700981
 21
28.3250335057689
 31
0.0
  0
LINE
  5
   510
  8
0
  6
CONTINUOUS
 62
     3
 10
-485.288295321277
 20
28.3250405737913
 30
0.0
 11
-485.288295321277
 21
29.735040570215
 31
0.0
  0
LINE
  5
   511
  8
0
  6
CONTINUOUS
 62
     3
 10
-485.29036792259
 20
18.2200513568675
 30
0.0
 11
-486.700367919014
 21
18.2200513568675
 31
0.0
  0
LINE
  5
   512
  8
0
  6
CONTINUOUS
 62
     3
 10
-486.700367919014
 20
5.53005138905405
 30
0.0
 11
-486.700367919014
 21
18.2200513568675
 31
0.0
  0
LINE
  5
   513
  8
0
  6
CONTINUOUS
 62
     3
 10
-485.29036792259
 20
5.53005138905405
 30
0.0
 11
-486.700367919014
 21
5.53005138905405
 31
0.0
  0
LINE
  5
   514
  8
0
  6
CONTINUOUS
 62
     3
 10
-485.29036792259
 20
5.53005138905405
 30
0.0
 11
-485.29036792259
 21
18.2200513568675
 31
0.0
  0
LINE
  5
   515
  8
0
  6
CONTINUOUS
 62
   150
 10
-495.39536789696
 20
-8.92243602393512
 30
0.0
 11
-495.39536789696
 21
31.7325638729488
 31
0.0
  0
LINE
  5
   516
  8
0
  6
CONTINUOUS
 62
     3
 10
-494.455367899344
 20
33.1425620764649
 30
0.0
 11
-527.590407259271
 21
33.1425620764649
 31
0.0
  0
LINE
  5
   517
  8
0
  6
CONTINUOUS
 62
   150
 10
-495.865367895768
 20
32.202562078849
 30
0.0
 11
-527.590407259271
 21
32.202562078849
 31
0.0
  0
LINE
  5
   518
  8
0
  6
CONTINUOUS
 62
   150
 10
-495.395368924656
 20
31.7325608408163
 30
0.0
 11
-495.865368907376
 21
32.2025608235368
 31
0.0
  0
LINE
  5
   519
  8
0
  6
CONTINUOUS
 62
   150
 10
-528.060406611324
 20
31.7325635951903
 30
0.0
 11
-527.922747157087
 21
32.0649041400599
 31
0.0
  0
LINE
  5
   51A
  8
0
  6
CONTINUOUS
 62
   150
 10
-527.922746911654
 20
32.0649036141393
 30
0.0
 11
-527.590406366784
 21
32.2025630683763
 31
0.0
  0
LINE
  5
   51B
  8
0
  6
CONTINUOUS
 62
     3
 10
-527.590407258715
 20
33.1425620771368
 30
0.0
 11
-529.235394704188
 21
33.1425692487679
 31
0.0
  0
LINE
  5
   51C
  8
0
  6
CONTINUOUS
 62
   150
 10
-529.235396506824
 20
-10.3185792709989
 30
0.0
 11
-529.235394704745
 21
33.1425710410035
 31
0.0
  0
LINE
  5
   51D
  8
0
  6
CONTINUOUS
 62
   150
 10
-494.925367897121
 20
-10.567540008191
 30
0.0
 11
-528.765396497814
 21
-10.5674037472092
 31
0.0
  0
LINE
  5
   51E
  8
0
  6
CONTINUOUS
 62
   150
 10
-494.455367884425
 20
-10.5675471768955
 30
0.0
 11
-494.925367883233
 21
-10.5675400052647
 31
0.0
  0
LINE
  5
   51F
  8
0
  6
CONTINUOUS
 62
   150
 10
-495.533026456142
 20
-9.25477575505167
 30
0.0
 11
-495.395367001905
 21
-8.92243521018206
 31
0.0
  0
LINE
  5
   520
  8
0
  6
CONTINUOUS
 62
   150
 10
-495.865366516322
 20
-9.39243542725234
 30
0.0
 11
-495.533025971452
 21
-9.25477597301537
 31
0.0
  0
LINE
  5
   521
  8
0
  6
CONTINUOUS
 62
   150
 10
-495.865367895768
 20
-9.39243602274303
 30
0.0
 11
-527.590407259271
 21
-9.39243602274303
 31
0.0
  0
LINE
  5
   522
  8
0
  6
CONTINUOUS
 62
   150
 10
-527.590406743689
 20
-9.39243579010253
 30
0.0
 11
-527.922747288558
 21
-9.25477633586555
 31
0.0
  0
LINE
  5
   523
  8
0
  6
CONTINUOUS
 62
   150
 10
-527.922747531237
 20
-9.25477611514682
 30
0.0
 11
-528.060406985474
 21
-8.92243557027722
 31
0.0
  0
LINE
  5
   524
  8
0
  6
CONTINUOUS
 62
   150
 10
-528.060407258079
 20
-8.92243602393512
 30
0.0
 11
-528.060407258079
 21
31.7325638729488
 31
0.0
  0
LINE
  5
   525
  8
0
  6
CONTINUOUS
 62
   150
 10
-509.612878618346
 20
-0.613701876002779
 30
0.0
 11
-509.612878618346
 21
19.0215456480476
 31
0.0
  0
LINE
  5
   526
  8
0
  6
CONTINUOUS
 62
   150
 10
-499.507878643976
 20
-0.613701876002779
 30
0.0
 11
-499.507878643976
 21
19.0215456480476
 31
0.0
  0
LINE
  5
   527
  8
0
  6
CONTINUOUS
 62
     3
 10
-482.235360758708
 20
2.08514775704452
 30
0.0
 11
-483.175360756324
 21
2.08514775704452
 31
0.0
  0
LINE
  5
   528
  8
0
  6
CONTINUOUS
 62
     3
 10
-483.34152343675
 20
2.01632327688916
 30
0.0
 11
-483.175349574231
 21
2.08515300397977
 31
0.0
  0
LINE
  5
   529
  8
0
  6
CONTINUOUS
 62
     3
 10
-483.41036106918
 20
1.85014744547105
 30
0.0
 11
-483.341534928067
 21
2.01631771471791
 31
0.0
  0
LINE
  5
   52A
  8
0
  6
CONTINUOUS
 62
     3
 10
-483.410360755728
 20
-3.31985222924641
 30
0.0
 11
-483.410360755728
 21
1.85014775764057
 31
0.0
  0
LINE
  5
   52B
  8
0
  6
CONTINUOUS
 62
     3
 10
-483.341534846807
 20
-3.48602261637275
 30
0.0
 11
-483.41036098792
 21
-3.3198523471259
 31
0.0
  0
LINE
  5
   52C
  8
0
  6
CONTINUOUS
 62
     3
 10
-483.175351469882
 20
-3.5548513285931
 30
0.0
 11
-483.341525332401
 21
-3.48602160150249
 31
0.0
  0
LINE
  5
   52D
  8
0
  6
CONTINUOUS
 62
     3
 10
-482.235360758708
 20
-3.55485222865036
 30
0.0
 11
-483.175360756324
 21
-3.55485222865036
 31
0.0
  0
LINE
  5
   52E
  8
0
  6
CONTINUOUS
 62
     3
 10
-481.530360760496
 20
-3.55485222865036
 30
0.0
 11
-482.235360758708
 21
-3.55485222865036
 31
0.0
  0
LINE
  5
   52F
  8
0
  6
CONTINUOUS
 62
     3
 10
-481.530368655361
 20
-3.55485560944625
 30
0.0
 11
-481.364201972991
 21
-3.48602588234638
 31
0.0
  0
LINE
  5
   530
  8
0
  6
CONTINUOUS
 62
     3
 10
-481.364191537415
 20
-3.48602021843573
 30
0.0
 11
-481.295358224245
 21
-3.3198499428323
 31
0.0
  0
LINE
  5
   531
  8
0
  6
CONTINUOUS
 62
     3
 10
-481.295360761092
 20
-3.31985222924641
 30
0.0
 11
-481.295360761092
 21
1.85014775764057
 31
0.0
  0
LINE
  5
   532
  8
0
  6
CONTINUOUS
 62
     3
 10
-481.295358878629
 20
1.85014891293896
 30
0.0
 11
-481.364192191799
 21
2.01631918854241
 31
0.0
  0
LINE
  5
   533
  8
0
  6
CONTINUOUS
 62
     3
 10
-481.364200645828
 20
2.01631710726587
 30
0.0
 11
-481.530367328198
 21
2.08514683436574
 31
0.0
  0
LINE
  5
   534
  8
0
  6
CONTINUOUS
 62
     3
 10
-481.530360760496
 20
2.08514775704452
 30
0.0
 11
-482.235360758708
 21
2.08514775704452
 31
0.0
  0
LINE
  5
   535
  8
0
  6
CONTINUOUS
 62
   150
 10
-495.395389411853
 20
20.4525728660976
 30
0.0
 11
-495.395389411853
 21
20.9225728649055
 31
0.0
  0
LINE
  5
   536
  8
0
  6
CONTINUOUS
 62
     3
 10
-495.395389411853
 20
20.9225728649055
 30
0.0
 11
-528.060410843895
 21
20.9225728649055
 31
0.0
  0
LINE
  5
   537
  8
0
  6
CONTINUOUS
 62
     3
 10
-495.395389411853
 20
20.4525728660976
 30
0.0
 11
-528.060410843895
 21
20.4525728660976
 31
0.0
  0
LINE
  5
   538
  8
0
  6
CONTINUOUS
 62
   150
 10
-495.395389411853
 20
-2.57742707548982
 30
0.0
 11
-495.395389411853
 21
-2.10742707668192
 31
0.0
  0
LINE
  5
   539
  8
0
  6
CONTINUOUS
 62
     3
 10
-495.395389411853
 20
-2.10742707668192
 30
0.0
 11
-528.060410843895
 21
-2.10742707668192
 31
0.0
  0
LINE
  5
   53A
  8
0
  6
CONTINUOUS
 62
     3
 10
-495.395389411853
 20
-2.57742707548982
 30
0.0
 11
-528.060410843895
 21
-2.57742707548982
 31
0.0
  0
LINE
  5
   53B
  8
0
  6
CONTINUOUS
 62
     3
 10
-509.612892961607
 20
14.8125728804027
 30
0.0
 11
-528.060410843895
 21
14.8125728804027
 31
0.0
  0
LINE
  5
   53C
  8
0
  6
CONTINUOUS
 62
     3
 10
-509.612892961607
 20
14.3425728815948
 30
0.0
 11
-528.060410843895
 21
14.3425728815948
 31
0.0
  0
LINE
  5
   53D
  8
0
  6
CONTINUOUS
 62
     3
 10
-509.612896547423
 20
4.00257290782088
 30
0.0
 11
-528.060410843895
 21
4.00257290782088
 31
0.0
  0
LINE
  5
   53E
  8
0
  6
CONTINUOUS
 62
     3
 10
-509.612896547423
 20
3.53257290901297
 30
0.0
 11
-528.060410843895
 21
3.53257290901297
 31
0.0
  0
LINE
  5
   53F
  8
0
  6
CONTINUOUS
 62
   150
 10
-495.395389411853
 20
14.3425728815948
 30
0.0
 11
-495.395389411853
 21
14.8125728804027
 31
0.0
  0
LINE
  5
   540
  8
0
  6
CONTINUOUS
 62
     3
 10
-495.395389411853
 20
14.8125728804027
 30
0.0
 11
-499.507878643976
 21
14.8125728804027
 31
0.0
  0
LINE
  5
   541
  8
0
  6
CONTINUOUS
 62
     3
 10
-495.395389411853
 20
14.3425728815948
 30
0.0
 11
-499.507878643976
 21
14.3425728815948
 31
0.0
  0
LINE
  5
   542
  8
0
  6
CONTINUOUS
 62
   150
 10
-495.395389411853
 20
3.53257290901297
 30
0.0
 11
-495.395389411853
 21
4.00257290782088
 31
0.0
  0
LINE
  5
   543
  8
0
  6
CONTINUOUS
 62
     3
 10
-495.395389411853
 20
4.00257290782088
 30
0.0
 11
-499.507882229791
 21
4.00257290782088
 31
0.0
  0
LINE
  5
   544
  8
0
  6
CONTINUOUS
 62
     3
 10
-495.395389411853
 20
3.53257290901297
 30
0.0
 11
-499.507882229791
 21
3.53257290901297
 31
0.0
  0
LINE
  5
   545
  8
0
  6
DOT
 62
   130
 10
-465.550367972658
 20
49.4750763783013
 30
0.0
 11
-479.88537510793
 21
49.4750763783013
 31
0.0
  0
LINE
  5
   546
  8
0
  6
DOT
 62
   130
 10
-465.550360557704
 20
-18.5574377924049
 30
0.0
 11
-479.885372154988
 21
-18.5574377924049
 31
0.0
  0
LINE
  5
   547
  8
0
  6
DOT
 62
   130
 10
-465.550360557704
 20
-18.5574377924049
 30
0.0
 11
-465.550367972657
 21
49.4750692066715
 31
0.0
  0
LINE
  5
   548
  8
0
  6
DOT
 62
   130
 10
-465.08036797385
 20
8.58504779549003
 30
0.0
 11
-465.08036797385
 21
17.9850477716482
 31
0.0
  0
LINE
  5
   549
  8
0
  6
CONTINUOUS
 62
     3
 10
-476.595360773013
 20
-7.39493064908629
 30
0.0
 11
-476.595360773013
 21
-5.04494858412386
 31
0.0
  0
LINE
  5
   54A
  8
0
  6
CONTINUOUS
 62
   150
 10
-494.925369673611
 20
-10.5675400004539
 30
0.0
 11
-529.002062092063
 21
-10.5667116770656
 31
0.0
  0
LINE
  5
   54B
  8
0
  6
CONTINUOUS
 62
   150
 10
-529.064017023417
 20
-10.5410543292781
 30
0.0
 11
-529.063323168131
 21
-10.5403604739927
 31
0.0
  0
LINE
  5
   54C
  8
0
  6
CONTINUOUS
 62
   150
 10
-529.063322370524
 20
38.7557083019555
 30
0.0
 11
-529.063908651327
 21
38.7562963756798
 31
0.0
  0
LINE
  5
   54D
  8
0
  6
CONTINUOUS
 62
   150
 10
-499.507878643976
 20
18.8143608188611
 30
0.0
 11
-509.612878618346
 21
18.8143608188611
 31
0.0
  0
LINE
  5
   54E
  8
0
  6
CONTINUOUS
 62
   150
 10
-499.507878643976
 20
19.0215456480476
 30
0.0
 11
-509.612878618346
 21
19.0215456480476
 31
0.0
  0
LINE
  5
   54F
  8
0
  6
CONTINUOUS
 62
   150
 10
-499.507878643976
 20
-0.613701876002779
 30
0.0
 11
-509.612878618346
 21
-0.613701876002779
 31
0.0
  0
LINE
  5
   550
  8
0
  6
CONTINUOUS
 62
   150
 10
-499.507878643976
 20
-0.298860110443911
 30
0.0
 11
-509.612878618346
 21
-0.298860110443911
 31
0.0
  0
LINE
  5
   551
  8
0
  6
DOT
 62
   130
 10
-465.08036797385
 20
17.9850477716482
 30
0.0
 11
-465.550360801027
 21
17.9850477716482
 31
0.0
  0
LINE
  5
   552
  8
0
  6
DOT
 62
   130
 10
-465.08036797385
 20
8.58504779549003
 30
0.0
 11
-465.550367972658
 21
8.58504779549003
 31
0.0
  0
CIRCLE
  5
   553
  8
0
  6
CONTINUOUS
 62
   130
 10
-471.895366518775
 20
1.30004123466433
 30
0.0
 40
2.4675112371315
  0
LINE
  5
   554
  8
0
  6
DASHDOT
 62
     7
 10
-471.895366518775
 20
-1.63747000127508
 30
0.0
 11
-471.895366518775
 21
4.23755247060374
 31
0.0
  0
LINE
  5
   555
  8
0
  6
DASHDOT
 62
     7
 10
-468.957855282836
 20
1.30004123466433
 30
0.0
 11
-474.832877754715
 21
1.30004123466433
 31
0.0
  0
LINE
  5
   556
  8
0
  6
DASHDOT
 62
     7
 10
-458.300908108174
 20
14.1075979829026
 30
0.0
 11
-535.990940096737
 21
14.1075979829026
 31
0.0
  0
INSERT
  5
   557
  8
255
  6
CONTINUOUS
 62
     7
  2
CS3
 10
-558.534317080736
 20
-19.9612624908577
 30
0.0
 41
0.469999998807907
 42
0.469999998807907
 50
3.50835464724173E-15
 43
0.469999998807907
  0
INSERT
  5
   558
  8
255
  6
CONTINUOUS
 62
     7
  2
CS3
 10
-558.534317080736
 20
46.5313867445193
 30
0.0
 41
0.469999998807907
 42
-0.469999998807907
 50
1.03931142803049E-7
 43
0.469999998807907
  0
INSERT
  5
   559
  8
255
  6
CONTINUOUS
 62
     7
  2
MOSTRA
 10
-558.534401670806
 20
-18.3518916808619
 30
0.0
 41
0.469999998807907
 42
0.469999998807907
 50
359.999999792138
 43
0.469999998807907
  0
LINE
  5
   55A
  8
0
  6
DOT
 62
   130
 10
-479.885378923681
 20
-23.7274019211339
 30
0.0
 11
-479.885361694193
 21
-10.5674272315729
 31
0.0
  0
LINE
  5
   55B
  8
0
  6
DOT
 62
   130
 10
-479.885297083328
 20
38.7826936760697
 30
0.0
 11
-479.88527985781
 21
51.9396360034018
 31
0.0
  0
TEXT
  5
   55C
  8
0
  6
CONTINUOUS
 62
     1
 10
-516.462417603441
 20
-143.043125237961
 30
0.0
 40
2.00000009267888
  1
SCARPELLINI
 50
359.999999948034
 41
0.749999868303543
 72
     2
 11
-500.262419702381
 21
-143.043125252573
 31
0.0
  0
TEXT
  5
   55D
  8
0
  6
CONTINUOUS
 62
     1
 10
-478.138609476609
 20
-149.389205982735
 30
0.0
 40
2.00000009267888
  1
M4504 98-11-17
 50
359.999999948034
 41
0.749999868303543
 72
     1
 11
-467.788610816002
 21
-148.389205945731
 31
0.0
 73
     2
  0
TEXT
  5
   55E
  8
0
  6
CONTINUOUS
 62
     7
 10
-542.891424518987
 20
4.40217262239811
 30
0.0
 40
2.99999994291904
  1
=     =
 50
89.9999999480344
 41
0.916666599088244
 72
     1
 11
-544.391424481978
 21
13.7521717526722
 31
0.0
 73
     2
  0
INSERT
  5
   55F
  8
0
  6
CONTINUOUS
 62
     7
  2
*UDIM374
 10
0.0
 20
0.0
 30
0.0
  0
INSERT
  5
   560
  8
0
  6
CONTINUOUS
 62
     7
  2
*UDIM375
 10
0.0
 20
0.0
 30
0.0
  0
TEXT
  5
   561
  8
0
  6
CONTINUOUS
 62
     7
 10
-704.353525267
 20
106.843150022095
 30
0.0
 40
2.99999994291904
  1
ISOLATING DISTANCE
 50
359.999999948034
 41
0.916666679355833
 72
     1
 11
-679.878525394685
 21
108.34314997148
 31
0.0
 73
     2
  0
TEXT
  5
   562
  8
0
  6
CONTINUOUS
 62
     1
 10
-503.728606800626
 20
-149.389207368164
 30
0.0
 40
2.00000009267888
  1
M 3076 95-01-16
 50
359.999999948034
 41
0.749999868303543
 72
     1
 11
-492.628608236962
 21
-148.389207331836
 31
0.0
 73
     2
  0
INSERT
  5
   563
  8
0
  6
CONTINUOUS
 62
     7
  2
*UDIM376
 10
0.0
 20
0.0
 30
0.0
  0
INSERT
  5
   564
  8
0
  6
CONTINUOUS
 62
     7
  2
*UDIM377
 10
0.0
 20
0.0
 30
0.0
  0
INSERT
  5
   565
  8
0
  6
CONTINUOUS
 62
     7
  2
*UDIM378
 10
0.0
 20
0.0
 30
0.0
  0
TEXT
  5
   566
  8
0
  6
CONTINUOUS
 62
     1
 10
-516.462417132382
 20
-134.576370444406
 30
0.0
 40
2.00000009267888
  1
94-05-03 BARCELLA
 50
359.999999948034
 41
0.749999868303543
 72
     2
 11
-491.262420394624
 21
-134.576370467135
 31
0.0
  0
INSERT
  5
   567
  8
0
  6
CONTINUOUS
 62
     7
  2
*UDIM379
 10
0.0
 20
0.0
 30
0.0
  0
TEXT
  5
   568
  8
0
  6
CONTINUOUS
 62
     7
 10
-505.691160324497
 20
-98.2431993885145
 30
0.0
 40
2.99999994291904
  1
Y
 50
359.999999948034
 41
0.916666599088244
 72
     2
 11
-503.491160536309
 21
-98.2431993904988
 31
0.0
  0
INSERT
  5
   569
  8
0
  6
CONTINUOUS
 62
     7
  2
*UDIM380
 10
0.0
 20
0.0
 30
0.0
  0
TEXT
  5
   56A
  8
0
  6
CONTINUOUS
 62
     7
 10
-451.589305984791
 20
12.8614985108355
 30
0.0
 40
2.99999994291904
  1
X
 50
359.999999948034
 41
0.916666599088244
 72
     2
 11
-449.389306196603
 21
12.8614985088512
 31
0.0
  0
INSERT
  5
   56B
  8
0
  6
CONTINUOUS
 62
     7
  2
*UDIM381
 10
0.0
 20
0.0
 30
0.0
  0
INSERT
  5
   56C
  8
0
  6
CONTINUOUS
 62
     7
  2
*UDIM382
 10
0.0
 20
0.0
 30
0.0
  0
INSERT
  5
   56D
  8
0
  6
CONTINUOUS
 62
     7
  2
*UDIM383
 10
0.0
 20
0.0
 30
0.0
  0
TEXT
  5
   56E
  8
0
  6
CONTINUOUS
 62
     1
 10
-409.308588549709
 20
-160.42584379073
 30
0.0
 40
4.00000018535776
  1
601812/571
 50
359.999999948034
 41
0.937499950975182
 72
     2
 11
-372.558588807727
 21
-160.425843823876
 31
0.0
  0
TEXT
  5
   56F
  8
0
  6
CONTINUOUS
 62
     1
 10
-398.222896765735
 20
-151.444256539542
 30
0.0
 40
2.99999994291904
  1
 S4
 50
359.999999948034
 41
0.916666599088244
 72
     2
 11
-390.522897487666
 21
-151.444256546487
 31
0.0
  0
TEXT
  5
   570
  8
0
  6
CONTINUOUS
 62
     1
 10
-419.757322754768
 20
-133.133985683916
 30
0.0
 40
2.00000009267888
  1
3POLE LOW VOLTAGE M.C.C.B SERIES ISOMAX
 50
359.999999948034
 41
0.749999868303543
 72
     1
 11
-390.657326517708
 21
-132.133985663823
 31
0.0
 73
     2
  0
TEXT
  5
   571
  8
0
  6
CONTINUOUS
 62
     1
 10
-417.507322914459
 20
-136.133985685946
 30
0.0
 40
2.00000009267888
  1
WITHDRAWABLE VERSION CABLE TERMINALS
 50
359.999999948034
 41
0.749999868303543
 72
     1
 11
-390.657326386574
 21
-135.133985663823
 31
0.0
 73
     2
  0
TEXT
  5
   572
  8
0
  6
CONTINUOUS
 62
     1
 10
-416.554928598715
 20
-141.204257733744
 30
0.0
 40
2.00000009267888
  1
INTERR.AUTOMATICO SERIE ISOMAX
 50
359.999999948034
 41
0.749999868303543
 72
     1
 11
-394.204931489179
 21
-140.204257707563
 31
0.0
 73
     2
  0
TEXT
  5
   573
  8
0
  6
CONTINUOUS
 62
     1
 10
-429.304926819569
 20
-144.204257722244
 30
0.0
 40
2.00000009267888
  1
TRIPOL.ESECUZIONE ESTRAIBILE TERMINALI PER CAVI
 50
359.999999948034
 41
0.749999868303543
 72
     1
 11
-394.204931358045
 21
-143.204257707563
 31
0.0
 73
     2
  0
TEXT
  5
   574
  8
0
  6
CONTINUOUS
 62
     7
 10
-584.31479534193
 20
12.7999306531268
 30
0.0
 40
2.99999994291904
  1
X
 50
359.999999948034
 41
0.916666599088244
 72
     1
 11
-583.214795446484
 21
14.2999306235942
 31
0.0
 73
     2
  0
TEXT
  5
   575
  8
0
  6
CONTINUOUS
 62
     7
 10
-505.530536355965
 20
105.149626997874
 30
0.0
 40
2.99999994291904
  1
Y
 50
359.999999948034
 41
0.916666599088244
 72
     1
 11
-504.430536460518
 21
106.649626968341
 31
0.0
 73
     2
  0
INSERT
  5
   576
  8
0
  6
CONTINUOUS
 62
     7
  2
*UDIM384
 10
0.0
 20
0.0
 30
0.0
  0
LINE
  5
   577
  8
0
  6
CONTINUOUS
 62
     2
 10
-634.685374113103
 20
52.7649303433454
 30
0.0
 11
-634.685374113103
 21
62.4538036097865
 31
0.0
  0
LINE
  5
   578
  8
0
  6
CONTINUOUS
 62
     7
 10
-666.880402718186
 20
61.2249303218878
 30
0.0
 11
-668.525402714014
 21
61.2249303218878
 31
0.0
  0
LINE
  5
   579
  8
0
  6
CONTINUOUS
 62
     7
 10
-666.880352516437
 20
52.9999262447191
 30
0.0
 11
-666.880352516437
 21
61.2249262238574
 31
0.0
  0
LINE
  5
   57A
  8
0
  6
CONTINUOUS
 62
     7
 10
-634.685402799845
 20
53.9399303403652
 30
0.0
 11
-636.565402795076
 21
53.9399303403652
 31
0.0
  0
LINE
  5
   57B
  8
0
  6
CONTINUOUS
 62
     7
 10
-636.565403990176
 20
53.9399243730231
 30
0.0
 11
-636.565449051983
 21
71.6589520971644
 31
0.0
  0
LINE
  5
   57C
  8
0
  6
CONTINUOUS
 62
     2
 10
-634.450417143703
 20
52.7649303433454
 30
0.0
 11
-634.685402799845
 21
52.7649303433454
 31
0.0
  0
LINE
  5
   57D
  8
0
  6
CONTINUOUS
 62
     2
 10
-633.745417145491
 20
60.284930324272
 30
0.0
 11
-634.685417143107
 21
60.284930324272
 31
0.0
  0
LINE
  5
   57E
  8
0
  6
CONTINUOUS
 62
     2
 10
-633.745417145491
 20
65.4549303111589
 30
0.0
 11
-634.685417143107
 21
65.4549303111589
 31
0.0
  0
LINE
  5
   57F
  8
0
  6
CONTINUOUS
 62
     2
 10
-633.745417145491
 20
64.1914037030356
 30
0.0
 11
-634.685417143107
 21
64.1914037030356
 31
0.0
  0
LINE
  5
   580
  8
0
  6
CONTINUOUS
 62
     2
 10
-633.745417145491
 20
62.4538036097865
 30
0.0
 11
-634.685417143107
 21
62.4538036097865
 31
0.0
  0
LINE
  5
   581
  8
0
  6
CONTINUOUS
 62
     7
 10
-668.525402714014
 20
60.9899392152895
 30
0.0
 11
-668.525402714014
 21
61.4599463857282
 31
0.0
  0
LINE
  5
   582
  8
0
  6
CONTINUOUS
 62
     7
 10
-678.959401253223
 20
61.4599463857282
 30
0.0
 11
-679.100402687192
 21
61.4599463857282
 31
0.0
  0
LINE
  5
   583
  8
0
  6
CONTINUOUS
 62
     7
 10
-667.11540271759
 20
60.9899535585511
 30
0.0
 11
-668.525402714014
 21
60.9899535585511
 31
0.0
  0
LINE
  5
   584
  8
0
  6
CONTINUOUS
 62
     7
 10
-667.11540271759
 20
49.4749446949518
 30
0.0
 11
-667.11540271759
 21
60.9899535585511
 31
0.0
  0
LINE
  5
   585
  8
0
  6
CONTINUOUS
 62
     7
 10
-678.959386909961
 20
49.4749446949518
 30
0.0
 11
-678.959386909961
 21
61.4599405047191
 31
0.0
  0
LINE
  5
   586
  8
0
  6
CONTINUOUS
 62
     2
 10
-634.685374113103
 20
71.6589520971645
 30
0.0
 11
-678.959408424854
 21
71.6589520971645
 31
0.0
  0
LINE
  5
   587
  8
0
  6
CONTINUOUS
 62
     2
 10
-678.959358223432
 20
61.4599431469742
 30
0.0
 11
-678.959358223432
 21
71.6589488584104
 31
0.0
  0
LINE
  5
   588
  8
0
  6
CONTINUOUS
 62
     7
 10
-668.525402714014
 20
61.459953557359
 30
0.0
 11
-668.525402714014
 21
71.6589520971645
 31
0.0
  0
LINE
  5
   589
  8
0
  6
CONTINUOUS
 62
     7
 10
-681.450409852862
 20
-18.2050175540578
 30
0.0
 11
-681.450409852862
 21
-16.3250658956015
 31
0.0
  0
LINE
  5
   58A
  8
0
  6
CONTINUOUS
 62
     7
 10
-681.450409852862
 20
49.4749446949518
 30
0.0
 11
-681.450409852862
 21
61.4599679006207
 31
0.0
  0
LINE
  5
   58B
  8
0
  6
CONTINUOUS
 62
     7
 10
-679.100409858823
 20
61.4599679006207
 30
0.0
 11
-681.450409852862
 21
61.4599679006207
 31
0.0
  0
LINE
  5
   58C
  8
0
  6
CONTINUOUS
 62
     7
 10
-679.100409858823
 20
-18.2050175540578
 30
0.0
 11
-681.450409852862
 21
-18.2050175540578
 31
0.0
  0
LINE
  5
   58D
  8
0
  6
CONTINUOUS
 62
   218
 10
-634.685416694879
 20
-45.0890178444519
 30
0.0
 11
-678.959407976627
 21
-45.0890178444519
 31
0.0
  0
LINE
  5
   58E
  8
0
  6
CONTINUOUS
 62
   218
 10
-678.959411741142
 20
-33.2450246879628
 30
0.0
 11
-679.1004098584
 21
-33.2450230329971
 31
0.0
  0
LINE
  5
   58F
  8
0
  6
CONTINUOUS
 62
   218
 10
-678.959415596485
 20
-35.1250246827736
 30
0.0
 11
-680.980409854055
 21
-35.1250246827736
 31
0.0
  0
LINE
  5
   590
  8
0
  6
CONTINUOUS
 62
   218
 10
-678.959415596485
 20
-45.0890160515442
 30
0.0
 11
-678.959415596485
 21
-33.2450175159111
 31
0.0
  0
LINE
  5
   591
  8
0
  6
CONTINUOUS
 62
   218
 10
-678.959415596485
 20
-33.2450175159111
 30
0.0
 11
-678.959415596485
 21
-18.2050640979254
 31
0.0
  0
LINE
  5
   592
  8
0
  6
CONTINUOUS
 62
     7
 10
-678.959415596485
 20
-18.675017552866
 30
0.0
 11
-679.100409858823
 21
-18.675017552866
 31
0.0
  0
LINE
  5
   593
  8
0
  6
CONTINUOUS
 62
   218
 10
-633.745417145338
 20
-30.4250246942294
 30
0.0
 11
-634.685416694706
 21
-30.4250175225986
 31
0.0
  0
LINE
  5
   594
  8
0
  6
CONTINUOUS
 62
   218
 10
-634.685416694879
 20
-47.580017479552
 30
0.0
 11
-634.685416694879
 21
-30.4250246946943
 31
0.0
  0
LINE
  5
   595
  8
0
  6
CONTINUOUS
 62
   218
 10
-633.745417145491
 20
-35.4775246818795
 30
0.0
 11
-634.685417143107
 21
-35.4775246818795
 31
0.0
  0
LINE
  5
   596
  8
0
  6
CONTINUOUS
 62
   218
 10
-633.745417145491
 20
-39.5747925757689
 30
0.0
 11
-634.685417143107
 21
-39.5747925757689
 31
0.0
  0
LINE
  5
   597
  8
0
  6
CONTINUOUS
 62
   218
 10
-633.745417145491
 20
-38.4218879251439
 30
0.0
 11
-634.685417143107
 21
-38.4218879251439
 31
0.0
  0
LINE
  5
   598
  8
0
  6
CONTINUOUS
 62
     7
 10
-679.100409858823
 20
-18.4400175534618
 30
0.0
 11
-681.450409852862
 21
-18.4400175534618
 31
0.0
  0
LINE
  5
   599
  8
0
  6
CONTINUOUS
 62
     7
 10
-679.100409858823
 20
-34.8900175117385
 30
0.0
 11
-681.450409852862
 21
-34.8900175117385
 31
0.0
  0
LINE
  5
   59A
  8
0
  6
CONTINUOUS
 62
     7
 10
-681.450409852862
 20
-34.8900175117385
 30
0.0
 11
-681.450409852862
 21
-18.4400175534618
 31
0.0
  0
LINE
  5
   59B
  8
0
  6
CONTINUOUS
 62
     7
 10
-680.510409855247
 20
-34.8900175117385
 30
0.0
 11
-680.510409855247
 21
-18.4400175534618
 31
0.0
  0
LINE
  5
   59C
  8
0
  6
CONTINUOUS
 62
     7
 10
-679.100409858823
 20
-34.8900175117385
 30
0.0
 11
-679.100409858823
 21
-18.4400175534618
 31
0.0
  0
LINE
  5
   59D
  8
0
  6
CONTINUOUS
 62
     2
 10
-634.685374113103
 20
64.1914037030356
 30
0.0
 11
-634.685374113103
 21
74.1499518039977
 31
0.0
  0
LINE
  5
   59E
  8
0
  6
CONTINUOUS
 62
     7
 10
-633.745417145491
 20
60.284930324272
 30
0.0
 11
-633.745417145491
 21
65.4549303111589
 31
0.0
  0
LINE
  5
   59F
  8
0
  6
CONTINUOUS
 62
     7
 10
-633.745417145491
 20
-39.5747925757696
 30
0.0
 11
-633.745417145491
 21
-35.4775246818801
 31
0.0
  0
LINE
  5
   5A0
  8
0
  6
CONTINUOUS
 62
     7
 10
-611.185395687819
 20
58.6399518433368
 30
0.0
 11
-611.185395687819
 21
70.3899518135345
 31
0.0
  0
LINE
  5
   5A1
  8
0
  6
CONTINUOUS
 62
     7
 10
-611.185395687819
 20
-43.8200402769292
 30
0.0
 11
-611.185395687819
 21
-32.0700474783623
 31
0.0
  0
LINE
  5
   5A2
  8
0
  6
CONTINUOUS
 62
     7
 10
-616.355399311478
 20
-46.405033546968
 30
0.0
 11
-633.745420782263
 21
-46.405033546968
 31
0.0
  0
LINE
  5
   5A3
  8
0
  6
CONTINUOUS
 62
     7
 10
-633.745417145491
 20
-37.9450550833189
 30
0.0
 11
-633.745417145491
 21
-18.557565889939
 31
0.0
  0
LINE
  5
   5A4
  8
0
  6
CONTINUOUS
 62
     7
 10
-633.745417145491
 20
-46.4050550618613
 30
0.0
 11
-633.745417145491
 21
-45.0890321159804
 31
0.0
  0
LINE
  5
   5A5
  8
0
  6
CONTINUOUS
 62
     7
 10
-633.745417145491
 20
71.6589647192513
 30
0.0
 11
-633.745417145491
 21
72.974951806978
 31
0.0
  0
LINE
  5
   5A6
  8
0
  6
CONTINUOUS
 62
     7
 10
-633.745417145491
 20
49.4749446949518
 30
0.0
 11
-633.745417145491
 21
64.5149661716973
 31
0.0
  0
LINE
  5
   5A7
  8
0
  6
CONTINUOUS
 62
     7
 10
-616.355395674706
 20
71.6589432043588
 30
0.0
 11
-616.355395674706
 21
72.974951806978
 31
0.0
  0
LINE
  5
   5A8
  8
0
  6
CONTINUOUS
 62
     7
 10
-616.355395674706
 20
-46.4050622334921
 30
0.0
 11
-616.355395674706
 21
-45.0890424251998
 31
0.0
  0
LINE
  5
   5A9
  8
0
  6
CONTINUOUS
 62
     7
 10
-616.355395674706
 20
-37.9450694265806
 30
0.0
 11
-616.355395674706
 21
-32.0700407549584
 31
0.0
  0
LINE
  5
   5AA
  8
0
  6
CONTINUOUS
 62
     7
 10
-610.480395689607
 20
41.4849518868482
 30
0.0
 11
-610.480395689607
 21
48.5349518689668
 31
0.0
  0
LINE
  5
   5AB
  8
0
  6
CONTINUOUS
 62
     7
 10
-610.480395689607
 20
-21.9650192656959
 30
0.0
 11
-610.480395689607
 21
-14.9150192835773
 31
0.0
  0
LINE
  5
   5AC
  8
0
  6
CONTINUOUS
 62
     7
 10
-611.420395687223
 20
-2.22506951717969
 30
0.0
 11
-612.360396741126
 21
-2.22506951717969
 31
0.0
  0
LINE
  5
   5AD
  8
0
  6
CONTINUOUS
 62
     7
 10
-611.420395687223
 20
1.06492330284482
 30
0.0
 11
-612.360397130283
 21
1.06492330284482
 31
0.0
  0
LINE
  5
   5AE
  8
0
  6
CONTINUOUS
 62
     7
 10
-616.355395674706
 20
71.6589575476205
 30
0.0
 11
-633.745417145491
 21
71.6589575476205
 31
0.0
  0
LINE
  5
   5AF
  8
0
  6
CONTINUOUS
 62
     7
 10
-633.745417145491
 20
64.5149518284356
 30
0.0
 11
-633.745417145491
 21
71.6589575476205
 31
0.0
  0
LINE
  5
   5B0
  8
0
  6
CONTINUOUS
 62
     7
 10
-616.355395674706
 20
64.5149590000665
 30
0.0
 11
-616.355395674706
 21
70.3899518135345
 31
0.0
  0
LINE
  5
   5B1
  8
0
  6
CONTINUOUS
 62
     7
 10
-616.355395674706
 20
-45.0890406322921
 30
0.0
 11
-633.745417145491
 21
-45.0890406322921
 31
0.0
  0
LINE
  5
   5B2
  8
0
  6
CONTINUOUS
 62
     7
 10
-633.745417145491
 20
-45.0890406322921
 30
0.0
 11
-633.745417145491
 21
-37.9450622549498
 31
0.0
  0
LINE
  5
   5B3
  8
0
  6
CONTINUOUS
 62
     7
 10
-616.355395674706
 20
-45.0890406322921
 30
0.0
 11
-616.355395674706
 21
-43.8200402769292
 31
0.0
  0
LINE
  5
   5B4
  8
0
  6
CONTINUOUS
 62
     3
 10
-610.715395689011
 20
-14.4450551429236
 30
0.0
 11
-611.420395687223
 21
-14.4450551429236
 31
0.0
  0
LINE
  5
   5B5
  8
0
  6
CONTINUOUS
 62
     3
 10
-610.715395689011
 20
-22.435055122658
 30
0.0
 11
-611.420395687223
 21
-22.435055122658
 31
0.0
  0
LINE
  5
   5B6
  8
0
  6
CONTINUOUS
 62
     3
 10
-610.715395689011
 20
-27.605055109545
 30
0.0
 11
-611.420395687223
 21
-27.605055109545
 31
0.0
  0
LINE
  5
   5B7
  8
0
  6
CONTINUOUS
 62
     3
 10
-610.715395689011
 20
54.1749446830308
 30
0.0
 11
-611.420395687223
 21
54.1749446830308
 31
0.0
  0
LINE
  5
   5B8
  8
0
  6
CONTINUOUS
 62
     3
 10
-610.715395689011
 20
49.0049446961439
 30
0.0
 11
-611.420395687223
 21
49.0049446961439
 31
0.0
  0
LINE
  5
   5B9
  8
0
  6
CONTINUOUS
 62
     3
 10
-610.715395689011
 20
41.0149447164094
 30
0.0
 11
-611.420395687223
 21
41.0149447164094
 31
0.0
  0
LINE
  5
   5BA
  8
0
  6
CONTINUOUS
 62
     3
 10
-611.420395687223
 20
48.5349518689668
 30
0.0
 11
-611.420395687223
 21
54.1749446830308
 31
0.0
  0
LINE
  5
   5BB
  8
0
  6
CONTINUOUS
 62
     3
 10
-611.420395687223
 20
-14.9149834254231
 30
0.0
 11
-611.420395687223
 21
41.4849662301099
 31
0.0
  0
LINE
  5
   5BC
  8
0
  6
CONTINUOUS
 62
     3
 10
-611.420395687223
 20
-27.605055109545
 30
0.0
 11
-611.420395687223
 21
-21.9649834075417
 31
0.0
  0
LINE
  5
   5BD
  8
0
  6
CONTINUOUS
 62
     3
 10
-610.715395689011
 20
-27.605055109545
 30
0.0
 11
-610.715395689011
 21
-21.9650264373267
 31
0.0
  0
LINE
  5
   5BE
  8
0
  6
CONTINUOUS
 62
     3
 10
-610.715395689011
 20
-14.915033626839
 30
0.0
 11
-610.715395689011
 21
41.4849016854323
 31
0.0
  0
LINE
  5
   5BF
  8
0
  6
CONTINUOUS
 62
     3
 10
-610.715395689011
 20
48.5349160108126
 30
0.0
 11
-610.715395689011
 21
54.1749446830308
 31
0.0
  0
LINE
  5
   5C0
  8
0
  6
CONTINUOUS
 62
     3
 10
-610.715395689011
 20
58.4049231574095
 30
0.0
 11
-610.715395689011
 21
70.6249231264151
 31
0.0
  0
LINE
  5
   5C1
  8
0
  6
CONTINUOUS
 62
     3
 10
-614.475402851105
 20
70.3899518135345
 30
0.0
 11
-614.475402851105
 21
71.094923125223
 31
0.0
  0
LINE
  5
   5C2
  8
0
  6
CONTINUOUS
 62
     3
 10
-614.475402851105
 20
57.9349231586016
 30
0.0
 11
-614.475402851105
 21
58.6399661865985
 31
0.0
  0
LINE
  5
   5C3
  8
0
  6
CONTINUOUS
 62
     7
 10
-614.475402851105
 20
70.3899518135345
 30
0.0
 11
-616.355395674706
 21
70.3899518135345
 31
0.0
  0
LINE
  5
   5C4
  8
0
  6
CONTINUOUS
 62
     7
 10
-615.88541719079
 20
58.6399518433368
 30
0.0
 11
-616.355395674706
 21
58.6399518433368
 31
0.0
  0
LINE
  5
   5C5
  8
0
  6
CONTINUOUS
 62
     7
 10
-614.475402851105
 20
58.6399518433368
 30
0.0
 11
-615.88541719079
 21
58.6399518433368
 31
0.0
  0
LINE
  5
   5C6
  8
0
  6
CONTINUOUS
 62
     7
 10
-614.475402851105
 20
-43.8200402769292
 30
0.0
 11
-616.355395674706
 21
-43.8200402769292
 31
0.0
  0
LINE
  5
   5C7
  8
0
  6
CONTINUOUS
 62
     7
 10
-614.475402851105
 20
-32.0700407549584
 30
0.0
 11
-615.88541719079
 21
-32.0700407549584
 31
0.0
  0
LINE
  5
   5C8
  8
0
  6
CONTINUOUS
 62
     7
 10
-615.88541719079
 20
-32.0700407549584
 30
0.0
 11
-616.355395674706
 21
-32.0700407549584
 31
0.0
  0
LINE
  5
   5C9
  8
0
  6
CONTINUOUS
 62
     7
 10
-610.480395689607
 20
48.5349518689668
 30
0.0
 11
-612.360402745281
 21
48.5349518689668
 31
0.0
  0
LINE
  5
   5CA
  8
0
  6
CONTINUOUS
 62
     7
 10
-610.480395689607
 20
41.4849518868482
 30
0.0
 11
-612.360401911371
 21
41.4849518868482
 31
0.0
  0
LINE
  5
   5CB
  8
0
  6
CONTINUOUS
 62
     7
 10
-610.480395689607
 20
-14.9150192835773
 30
0.0
 11
-612.360400900313
 21
-14.9150192835773
 31
0.0
  0
LINE
  5
   5CC
  8
0
  6
CONTINUOUS
 62
     7
 10
-610.480395689607
 20
-21.9650192656959
 30
0.0
 11
-616.355395674706
 21
-21.9650192656959
 31
0.0
  0
LINE
  5
   5CD
  8
0
  6
CONTINUOUS
 62
     3
 10
-610.715447638348
 20
70.6248911708567
 30
0.0
 11
-611.185447621069
 21
71.0948911535772
 31
0.0
  0
LINE
  5
   5CE
  8
0
  6
CONTINUOUS
 62
     3
 10
-611.18536269564
 20
57.9349644355409
 30
0.0
 11
-610.715362712919
 21
58.4049644182614
 31
0.0
  0
LINE
  5
   5CF
  8
0
  6
CONTINUOUS
 62
     3
 10
-611.185395687819
 20
71.094923125223
 30
0.0
 11
-614.475402851105
 21
71.094923125223
 31
0.0
  0
LINE
  5
   5D0
  8
0
  6
CONTINUOUS
 62
     3
 10
-611.185395687819
 20
57.9349231586016
 30
0.0
 11
-614.475402851105
 21
57.9349231586016
 31
0.0
  0
LINE
  5
   5D1
  8
0
  6
CONTINUOUS
 62
     7
 10
-614.475402851105
 20
-44.5250192084754
 30
0.0
 11
-614.475402851105
 21
-43.820047896787
 31
0.0
  0
LINE
  5
   5D2
  8
0
  6
CONTINUOUS
 62
     3
 10
-611.185395687819
 20
-44.5250192084754
 30
0.0
 11
-614.475402851105
 21
-44.5250192084754
 31
0.0
  0
LINE
  5
   5D3
  8
0
  6
CONTINUOUS
 62
     3
 10
-611.185447621069
 20
-44.5249872368297
 30
0.0
 11
-610.715447638348
 21
-44.0549872541092
 31
0.0
  0
LINE
  5
   5D4
  8
0
  6
CONTINUOUS
 62
     3
 10
-610.715395689011
 20
-44.0550192096675
 30
0.0
 11
-610.715395689011
 21
-31.835019240662
 31
0.0
  0
LINE
  5
   5D5
  8
0
  6
CONTINUOUS
 62
     3
 10
-610.715362712919
 20
-31.8350605015139
 30
0.0
 11
-611.185362695639
 21
-31.3650605187934
 31
0.0
  0
LINE
  5
   5D6
  8
0
  6
CONTINUOUS
 62
     3
 10
-611.185395687819
 20
-31.365019241854
 30
0.0
 11
-614.475402851105
 21
-31.365019241854
 31
0.0
  0
LINE
  5
   5D7
  8
0
  6
CONTINUOUS
 62
     3
 10
-614.475402851105
 20
-32.070062269851
 30
0.0
 11
-614.475402851105
 21
-31.365019241854
 31
0.0
  0
LINE
  5
   5D8
  8
0
  6
DASHDOT
 62
     7
 10
-610.480395689607
 20
-14.9150192835773
 30
0.0
 11
-610.480395689607
 21
41.4849518868482
 31
0.0
  0
LINE
  5
   5D9
  8
0
  6
DASHDOT
 62
     7
 10
-610.480395689607
 20
-72.6337111686632
 30
0.0
 11
-610.480395689607
 21
-21.9650192656959
 31
0.0
  0
LINE
  5
   5DA
  8
0
  6
DASHDOT
 62
     7
 10
-610.480395689607
 20
48.5349518689668
 30
0.0
 11
-610.480395689607
 21
98.8575874937109
 31
0.0
  0
LINE
  5
   5DB
  8
0
  6
DASHDOT
 62
     7
 10
-609.070395693183
 20
-72.7658986683279
 30
0.0
 11
-609.070395693183
 21
98.8295742487487
 31
0.0
  0
LINE
  5
   5DC
  8
0
  6
CONTINUOUS
 62
     7
 10
-611.185395687819
 20
70.3899518135345
 30
0.0
 11
-614.475402851105
 21
70.3899518135345
 31
0.0
  0
LINE
  5
   5DD
  8
0
  6
CONTINUOUS
 62
     7
 10
-616.355395674706
 20
70.3899518135345
 30
0.0
 11
-616.355395674706
 21
71.6589575476205
 31
0.0
  0
LINE
  5
   5DE
  8
0
  6
CONTINUOUS
 62
     7
 10
-616.355395674706
 20
58.6399518433368
 30
0.0
 11
-616.355395674706
 21
64.5149231419123
 31
0.0
  0
LINE
  5
   5DF
  8
0
  6
CONTINUOUS
 62
     7
 10
-611.185395687819
 20
58.6399518433368
 30
0.0
 11
-614.475402851105
 21
58.6399518433368
 31
0.0
  0
LINE
  5
   5E0
  8
0
  6
CONTINUOUS
 62
     7
 10
-616.355395674706
 20
49.4749446949518
 30
0.0
 11
-616.355395674706
 21
58.6399518433368
 31
0.0
  0
LINE
  5
   5E1
  8
0
  6
CONTINUOUS
 62
     7
 10
-616.355395674706
 20
-21.9650192656959
 30
0.0
 11
-616.355395674706
 21
-16.3251726662869
 31
0.0
  0
LINE
  5
   5E2
  8
0
  6
CONTINUOUS
 62
     7
 10
-616.355395674706
 20
-32.0700407549584
 30
0.0
 11
-616.355395674706
 21
-21.9650192656959
 31
0.0
  0
LINE
  5
   5E3
  8
0
  6
CONTINUOUS
 62
     7
 10
-611.185395687819
 20
-32.0700407549584
 30
0.0
 11
-614.475402851105
 21
-32.0700407549584
 31
0.0
  0
LINE
  5
   5E4
  8
0
  6
CONTINUOUS
 62
     7
 10
-611.185395687819
 20
-43.8200402769292
 30
0.0
 11
-614.475402851105
 21
-43.8200402769292
 31
0.0
  0
LINE
  5
   5E5
  8
0
  6
CONTINUOUS
 62
     7
 10
-616.355395674706
 20
-43.8200402769292
 30
0.0
 11
-616.355395674706
 21
-37.9450622549498
 31
0.0
  0
LINE
  5
   5E6
  8
0
  6
DASHDOT
 62
     7
 10
-604.460352243681
 20
45.0099518779075
 30
0.0
 11
-618.90724878448
 21
45.0099518779075
 31
0.0
  0
LINE
  5
   5E7
  8
0
  6
DASHDOT
 62
     7
 10
-604.725432914154
 20
-18.44004796116
 30
0.0
 11
-619.967571466373
 21
-18.44004796116
 31
0.0
  0
CIRCLE
  5
   5E8
  8
0
  6
CONTINUOUS
 62
     7
 10
-635.449291655444
 20
79.7236151545722
 30
0.0
 40
9.39999997615814E-2
  0
LINE
  5
   5E9
  8
0
  6
CONTINUOUS
 62
   130
 10
-694.610364101369
 20
-11.1550712830565
 30
0.0
 11
-694.610388305624
 21
-9.27505873747094
 31
0.0
  0
LINE
  5
   5EA
  8
0
  6
CONTINUOUS
 62
   130
 10
-694.610388305548
 20
-16.3250694781489
 30
0.0
 11
-694.610364997748
 21
-14.4450766545481
 31
0.0
  0
LINE
  5
   5EB
  8
0
  6
CONTINUOUS
 62
   130
 10
-632.805416952365
 20
-16.325125019446
 30
0.0
 11
-633.745416949981
 21
-16.3250658534915
 31
0.0
  0
LINE
  5
   5EC
  8
0
  6
CONTINUOUS
 62
   130
 10
-636.095424311161
 20
-16.3250658956015
 30
0.0
 11
-692.260388310552
 21
-16.3250658956015
 31
0.0
  0
LINE
  5
   5ED
  8
0
  6
CONTINUOUS
 62
   130
 10
-612.360402856469
 20
49.4749446949518
 30
0.0
 11
-632.805424319506
 21
49.4749446949518
 31
0.0
  0
LINE
  5
   5EE
  8
0
  6
CONTINUOUS
 62
   130
 10
-612.360402855885
 20
-16.3251842274213
 30
0.0
 11
-632.80541714729
 21
-16.325125061468
 31
0.0
  0
LINE
  5
   5EF
  8
0
  6
CONTINUOUS
 62
   130
 10
-612.360402856402
 20
-16.3251842274695
 30
0.0
 11
-612.360395684771
 21
-11.155082044843
 31
0.0
  0
LINE
  5
   5F0
  8
0
  6
CONTINUOUS
 62
     7
 10
-652.075395584106
 20
34.4349519047296
 30
0.0
 11
-694.610388304591
 21
34.4349519047296
 31
0.0
  0
LINE
  5
   5F1
  8
0
  6
CONTINUOUS
 62
     7
 10
-652.075395584106
 20
20.3349268397844
 30
0.0
 11
-694.610388304591
 21
20.3349268397844
 31
0.0
  0
LINE
  5
   5F2
  8
0
  6
CONTINUOUS
 62
   130
 10
-694.610364996791
 20
-14.4450766578144
 30
0.0
 11
-694.610364100338
 21
-11.1550712874359
 31
0.0
  0
LINE
  5
   5F3
  8
0
  6
CONTINUOUS
 62
   130
 10
-632.805424319506
 20
49.4749446949518
 30
0.0
 11
-694.610388304591
 21
49.4749446949518
 31
0.0
  0
LINE
  5
   5F4
  8
0
  6
CONTINUOUS
 62
   130
 10
-694.610388304591
 20
34.4349519047296
 30
0.0
 11
-694.610388304591
 21
49.4749446949518
 31
0.0
  0
LINE
  5
   5F5
  8
0
  6
CONTINUOUS
 62
     7
 10
-646.552924284481
 20
-14.4450479712546
 30
0.0
 11
-634.68541714295
 21
-14.4450264563622
 31
0.0
  0
LINE
  5
   5F6
  8
0
  6
CONTINUOUS
 62
     7
 10
-665.764145549374
 20
-14.4450587287341
 30
0.0
 11
-648.432924279856
 21
-14.4450479712883
 31
0.0
  0
LINE
  5
   5F7
  8
0
  6
CONTINUOUS
 62
     7
 10
-692.730337211484
 20
-14.4450748649033
 30
0.0
 11
-667.644144648159
 21
-14.4450587287342
 31
0.0
  0
LINE
  5
   5F8
  8
0
  6
CONTINUOUS
 62
     7
 10
-692.730332729215
 20
-12.3300712844524
 30
0.0
 11
-667.644143751705
 21
-12.3300551482828
 31
0.0
  0
LINE
  5
   5F9
  8
0
  6
CONTINUOUS
 62
     7
 10
-665.764143756466
 20
-12.3300533553751
 30
0.0
 11
-648.43292069404
 21
-12.3300425979292
 31
0.0
  0
LINE
  5
   5FA
  8
0
  6
CONTINUOUS
 62
     7
 10
-646.552920698804
 20
-12.3300408050217
 30
0.0
 11
-634.685417143089
 21
-12.3300336333909
 31
0.0
  0
LINE
  5
   5FB
  8
0
  6
CONTINUOUS
 62
     7
 10
-692.730337211505
 20
-14.4450748648419
 30
0.0
 11
-692.73033362569
 21
-12.3300712843909
 31
0.0
  0
LINE
  5
   5FC
  8
0
  6
CONTINUOUS
 62
     7
 10
-634.685417143107
 20
-14.4450264564002
 30
0.0
 11
-634.685417143107
 21
-12.3300336333955
 31
0.0
  0
LINE
  5
   5FD
  8
0
  6
CONTINUOUS
 62
     7
 10
-646.552924284586
 20
-14.4450479712202
 30
0.0
 11
-646.55292069877
 21
-12.3300300475075
 31
0.0
  0
LINE
  5
   5FE
  8
0
  6
CONTINUOUS
 62
     7
 10
-648.43292427982
 20
-14.4450479712262
 30
0.0
 11
-648.432920694005
 21
-12.3300318404213
 31
0.0
  0
LINE
  5
   5FF
  8
0
  6
CONTINUOUS
 62
     7
 10
-665.764145549381
 20
-14.4450587287209
 30
0.0
 11
-665.764143756473
 21
-12.3300425979159
 31
0.0
  0
LINE
  5
   600
  8
0
  6
CONTINUOUS
 62
     7
 10
-667.644144648159
 20
-14.4450587287224
 30
0.0
 11
-667.644142855251
 21
-12.3300443908251
 31
0.0
  0
LINE
  5
   601
  8
0
  6
CONTINUOUS
 62
   130
 10
-679.570389015079
 20
-18.2050640979254
 30
0.0
 11
-679.570389015079
 21
-16.3250641026938
 31
0.0
  0
LINE
  5
   602
  8
0
  6
CONTINUOUS
 62
   130
 10
-677.690388795734
 20
-18.2050640979254
 30
0.0
 11
-677.690388795734
 21
-16.3250641026938
 31
0.0
  0
LINE
  5
   603
  8
0
  6
CONTINUOUS
 62
   130
 10
-677.690388795734
 20
-18.2050640979254
 30
0.0
 11
-679.570389015079
 21
-18.2050640979254
 31
0.0
  0
LINE
  5
   604
  8
0
  6
CONTINUOUS
 62
   130
 10
-640.207888442576
 20
-18.2050389972175
 30
0.0
 11
-640.207888442576
 21
-16.3250730672323
 31
0.0
  0
LINE
  5
   605
  8
0
  6
CONTINUOUS
 62
   130
 10
-638.327888447344
 20
-18.2050389972175
 30
0.0
 11
-638.327888447344
 21
-16.3250730672323
 31
0.0
  0
LINE
  5
   606
  8
0
  6
CONTINUOUS
 62
   130
 10
-638.327888447344
 20
-18.2050389972175
 30
0.0
 11
-640.207888442576
 21
-18.2050389972175
 31
0.0
  0
LINE
  5
   607
  8
0
  6
CONTINUOUS
 62
   130
 10
-692.260388310552
 20
-18.557565889939
 30
0.0
 11
-692.260388310552
 21
-17.3825658929193
 31
0.0
  0
LINE
  5
   608
  8
0
  6
CONTINUOUS
 62
   130
 10
-694.610388304591
 20
-18.557565889939
 30
0.0
 11
-694.610388304591
 21
-16.3250694814169
 31
0.0
  0
LINE
  5
   609
  8
0
  6
CONTINUOUS
 62
   130
 10
-692.260388310552
 20
-18.557565889939
 30
0.0
 11
-694.610388304591
 21
-18.557565889939
 31
0.0
  0
LINE
  5
   60A
  8
0
  6
CONTINUOUS
 62
   130
 10
-692.260388310552
 20
-17.3825658929193
 30
0.0
 11
-692.260388310552
 21
-16.3250658956015
 31
0.0
  0
LINE
  5
   60B
  8
0
  6
CONTINUOUS
 62
   130
 10
-636.095431482792
 20
-18.557565889939
 30
0.0
 11
-636.095431482792
 21
-17.3825658929193
 31
0.0
  0
LINE
  5
   60C
  8
0
  6
CONTINUOUS
 62
   130
 10
-633.745431488752
 20
-18.557565889939
 30
0.0
 11
-636.095431482792
 21
-18.557565889939
 31
0.0
  0
LINE
  5
   60D
  8
0
  6
CONTINUOUS
 62
   130
 10
-633.745431487753
 20
-18.5575658891536
 30
0.0
 11
-633.745417144491
 21
-16.325065894816
 31
0.0
  0
LINE
  5
   60E
  8
0
  6
CONTINUOUS
 62
   130
 10
-636.095431481733
 20
-17.3825658919901
 30
0.0
 11
-636.095424310102
 21
-16.3250730663031
 31
0.0
  0
LINE
  5
   60F
  8
0
  6
CONTINUOUS
 62
     7
 10
-691.320391837215
 20
39.8399600010615
 30
0.0
 11
-692.730391864612
 21
41.2499600284591
 31
0.0
  0
LINE
  5
   610
  8
0
  6
CONTINUOUS
 62
   130
 10
-694.610388304591
 20
-9.27505874185204
 30
0.0
 11
-694.610388304591
 21
20.3349375972307
 31
0.0
  0
LINE
  5
   611
  8
0
  6
CONTINUOUS
 62
     7
 10
-652.075395584106
 20
20.3349268397844
 30
0.0
 11
-652.075395584106
 21
34.4349519047296
 31
0.0
  0
LINE
  5
   612
  8
0
  6
CONTINUOUS
 62
     7
 10
-687.325388771296
 20
34.1999519053256
 30
0.0
 11
-687.325388771296
 21
34.4349519047296
 31
0.0
  0
LINE
  5
   613
  8
0
  6
CONTINUOUS
 62
     7
 10
-646.55292428462
 20
43.2474447107616
 30
0.0
 11
-634.685417143089
 21
43.2474518823926
 31
0.0
  0
LINE
  5
   614
  8
0
  6
CONTINUOUS
 62
     7
 10
-646.552924284637
 20
39.8399447193897
 30
0.0
 11
-646.552924284637
 21
43.247444710747
 31
0.0
  0
LINE
  5
   615
  8
0
  6
CONTINUOUS
 62
     7
 10
-646.55292428462
 20
39.8399447194036
 30
0.0
 11
-634.685417143089
 21
39.8399518910347
 31
0.0
  0
LINE
  5
   616
  8
0
  6
CONTINUOUS
 62
     7
 10
-634.685417143107
 20
39.8399518910205
 30
0.0
 11
-634.685417143107
 21
43.2474518823778
 31
0.0
  0
LINE
  5
   617
  8
0
  6
CONTINUOUS
 62
     7
 10
-667.644144648165
 20
39.8399518910205
 30
0.0
 11
-667.644144648165
 21
43.2474518823778
 31
0.0
  0
LINE
  5
   618
  8
0
  6
CONTINUOUS
 62
     7
 10
-648.432924279869
 20
39.8399518910205
 30
0.0
 11
-667.644145544618
 21
39.8399518910205
 31
0.0
  0
LINE
  5
   619
  8
0
  6
CONTINUOUS
 62
     7
 10
-648.432924279869
 20
39.8399518910205
 30
0.0
 11
-648.432924279869
 21
43.2474518823778
 31
0.0
  0
LINE
  5
   61A
  8
0
  6
CONTINUOUS
 62
     7
 10
-648.432924279869
 20
43.2474518823778
 30
0.0
 11
-667.644145544618
 21
43.2474518823778
 31
0.0
  0
LINE
  5
   61B
  8
0
  6
CONTINUOUS
 62
     7
 10
-669.524144643396
 20
39.8399518910205
 30
0.0
 11
-692.730387412906
 21
39.8399518910205
 31
0.0
  0
LINE
  5
   61C
  8
0
  6
CONTINUOUS
 62
     7
 10
-669.524144643396
 20
39.8399518910205
 30
0.0
 11
-669.524144643396
 21
43.2474518823778
 31
0.0
  0
LINE
  5
   61D
  8
0
  6
CONTINUOUS
 62
     7
 10
-669.524144643396
 20
43.2474518823778
 30
0.0
 11
-692.730387412906
 21
43.2474518823778
 31
0.0
  0
LINE
  5
   61E
  8
0
  6
CONTINUOUS
 62
     7
 10
-692.73038830936
 20
39.8399518910205
 30
0.0
 11
-692.73038830936
 21
43.2474518823778
 31
0.0
  0
LINE
  5
   61F
  8
0
  6
CONTINUOUS
 62
     7
 10
-688.030388769508
 20
-14.445071279093
 30
0.0
 11
-688.030388769508
 21
-12.3300569411957
 31
0.0
  0
LINE
  5
   620
  8
0
  6
CONTINUOUS
 62
     7
 10
-686.150387429595
 20
-14.4450694861853
 30
0.0
 11
-686.150387429595
 21
-12.3300569411957
 31
0.0
  0
LINE
  5
   621
  8
0
  6
CONTINUOUS
 62
     7
 10
-692.73020453632
 20
-14.4450856223505
 30
0.0
 11
-692.730203639866
 21
-12.3300712844532
 31
0.0
  0
LINE
  5
   622
  8
0
  6
CONTINUOUS
 62
   130
 10
-694.610388304682
 20
-16.3250909960001
 30
0.0
 11
-694.610386511774
 21
-15.8550569319457
 31
0.0
  0
LINE
  5
   623
  8
0
  6
CONTINUOUS
 62
   130
 10
-632.8054207222
 20
-16.3251214732654
 30
0.0
 11
-633.745417134
 21
-16.3251071300037
 31
0.0
  0
LINE
  5
   624
  8
0
  6
CONTINUOUS
 62
   130
 10
-612.360395684838
 20
-11.1550820448835
 30
0.0
 11
-612.360402856469
 21
49.4749464878599
 31
0.0
  0
LINE
  5
   625
  8
0
  6
CONTINUOUS
 62
     7
 10
-646.528454680207
 20
-14.4450551429236
 30
0.0
 11
-646.528454680207
 21
-12.3300408050263
 31
0.0
  0
LINE
  5
   626
  8
0
  6
CONTINUOUS
 62
     7
 10
-648.43349442452
 20
-14.4450766578161
 30
0.0
 11
-648.43349442452
 21
-12.330042597934
 31
0.0
  0
LINE
  5
   627
  8
0
  6
CONTINUOUS
 62
     7
 10
-658.89038839519
 20
34.1999519053256
 30
0.0
 11
-694.610388304591
 21
34.1999519053256
 31
0.0
  0
LINE
  5
   628
  8
0
  6
CONTINUOUS
 62
     7
 10
-658.89038839519
 20
20.3349268397844
 30
0.0
 11
-658.89038839519
 21
34.1999519053256
 31
0.0
  0
LINE
  5
   629
  8
0
  6
CONTINUOUS
 62
     7
 10
-694.610388304591
 20
20.3349375972307
 30
0.0
 11
-694.610388304591
 21
34.1999519053256
 31
0.0
  0
LINE
  5
   62A
  8
0
  6
CONTINUOUS
 62
   150
 10
-694.610371271968
 20
-10.5675497740352
 30
0.0
 11
-699.780393670201
 21
-10.5675497740352
 31
0.0
  0
LINE
  5
   62B
  8
0
  6
CONTINUOUS
 62
   150
 10
-694.610388304591
 20
38.7824734085953
 30
0.0
 11
-699.780393670201
 21
38.7824734085953
 31
0.0
  0
LINE
  5
   62C
  8
0
  6
CONTINUOUS
 62
   150
 10
-702.365530129521
 20
-10.3328055388021
 30
0.0
 11
-702.365395661438
 21
-10.331831989899
 31
0.0
  0
LINE
  5
   62D
  8
0
  6
CONTINUOUS
 62
     7
 10
-691.320332732798
 20
-14.4450623145499
 30
0.0
 11
-691.320333629252
 21
-12.3300587340989
 31
0.0
  0
LINE
  5
   62E
  8
0
  6
CONTINUOUS
 62
     7
 10
-634.685417143107
 20
40.5449518892324
 30
0.0
 11
-646.552917113006
 21
40.5449518892324
 31
0.0
  0
LINE
  5
   62F
  8
0
  6
CONTINUOUS
 62
     7
 10
-648.432920694053
 20
40.5449518892324
 30
0.0
 11
-667.644140165895
 21
40.5449518892324
 31
0.0
  0
LINE
  5
   630
  8
0
  6
CONTINUOUS
 62
     7
 10
-669.524140161127
 20
40.5449518892324
 30
0.0
 11
-691.320388312936
 21
40.5449518892324
 31
0.0
  0
LINE
  5
   631
  8
0
  6
CONTINUOUS
 62
     7
 10
-691.672886618922
 20
40.1924594477673
 30
0.0
 11
-691.320386612073
 21
40.5449594546166
 31
0.0
  0
LINE
  5
   632
  8
0
  6
CONTINUOUS
 62
     7
 10
-691.320388312936
 20
40.5449518892324
 30
0.0
 11
-691.320388312936
 21
43.2474518823778
 31
0.0
  0
CIRCLE
  5
   633
  8
0
  6
CONTINUOUS
 62
   130
 10
-688.970427271521
 20
13.2849224981907
 30
0.0
 40
4.69999598547433
  0
CIRCLE
  5
   634
  8
0
  6
CONTINUOUS
 62
   130
 10
-688.970423185367
 20
13.284919683007
 30
0.0
 40
1.29250189602503
  0
CIRCLE
  5
   635
  8
0
  6
CONTINUOUS
 62
   130
 10
-621.995399562664
 20
38.664914792119
 30
0.0
 40
2.82003173989634
  0
CIRCLE
  5
   636
  8
0
  6
CONTINUOUS
 62
   130
 10
-621.995417885174
 20
38.6649357281304
 30
0.0
 40
1.52750446052815
  0
CIRCLE
  5
   637
  8
0
  6
CONTINUOUS
 62
   130
 10
-621.995418988641
 20
-8.33506172013288
 30
0.0
 40
2.82000110723514
  0
CIRCLE
  5
   638
  8
0
  6
CONTINUOUS
 62
   130
 10
-621.99541442807
 20
-8.33505771463849
 30
0.0
 40
1.52750394798675
  0
LINE
  5
   639
  8
0
  6
DASHDOT
 62
     7
 10
-621.995399562664
 20
35.3748830534148
 30
0.0
 11
-621.995399562664
 21
41.9549465308233
 31
0.0
  0
LINE
  5
   63A
  8
0
  6
DASHDOT
 62
     7
 10
-618.70536782396
 20
38.664914792119
 30
0.0
 11
-625.285431301368
 21
38.664914792119
 31
0.0
  0
LINE
  5
   63B
  8
0
  6
DASHDOT
 62
     7
 10
-621.995418988641
 20
-11.6250628261759
 30
0.0
 11
-621.995418988641
 21
-5.04506061408983
 31
0.0
  0
LINE
  5
   63C
  8
0
  6
DASHDOT
 62
     7
 10
-618.705417882597
 20
-8.33506172013288
 30
0.0
 11
-625.285420094684
 21
-8.33506172013288
 31
0.0
  0
LINE
  5
   63D
  8
0
  6
CONTINUOUS
 62
     7
 10
-634.450417143703
 20
49.4749446949518
 30
0.0
 11
-634.450417143703
 21
52.7649303433454
 31
0.0
  0
LINE
  5
   63E
  8
0
  6
CONTINUOUS
 62
     7
 10
-699.780395463109
 20
-55.6729092379044
 30
0.0
 11
-699.780395463109
 21
-20.6726142930828
 31
0.0
  0
LINE
  5
   63F
  8
0
  6
CONTINUOUS
 62
     7
 10
-700.720395460725
 20
-55.8313362037947
 30
0.0
 11
-700.720395460725
 21
-10.5675497740352
 31
0.0
  0
LINE
  5
   640
  8
0
  6
CONTINUOUS
 62
     7
 10
-703.162701279904
 20
-56.2429607800608
 30
0.0
 11
-697.067268309636
 21
-55.2156406165325
 31
0.0
  0
LINE
  5
   641
  8
0
  6
CONTINUOUS
 62
     7
 10
-697.615172396851
 20
69.5010272358066
 30
0.0
 11
-701.861429072768
 21
70.6653234211387
 31
0.0
  0
LINE
  5
   642
  8
0
  6
CONTINUOUS
 62
     7
 10
-700.720395460725
 20
38.7824734085953
 30
0.0
 11
-700.720395460725
 21
70.3524593662236
 31
0.0
  0
LINE
  5
   643
  8
0
  6
DASHDOT
 62
     7
 10
-688.970427271521
 20
8.11492651390842
 30
0.0
 11
-688.970427271521
 21
18.4549184824729
 31
0.0
  0
LINE
  5
   644
  8
0
  6
DASHDOT
 62
     7
 10
-683.800431287239
 20
13.2849224981907
 30
0.0
 11
-694.140423255803
 21
13.2849224981907
 31
0.0
  0
LINE
  5
   645
  8
0
  6
CONTINUOUS
 62
     7
 10
-696.020393679738
 20
-1.7550193169559
 30
0.0
 11
-696.020393679738
 21
4.35488385053054
 31
0.0
  0
LINE
  5
   646
  8
0
  6
CONTINUOUS
 62
     1
 10
-700.720393667817
 20
-23.7276151817881
 30
0.0
 11
-700.720393667817
 21
51.942384626285
 31
0.0
  0
LINE
  5
   647
  8
0
  6
CONTINUOUS
 62
     1
 10
-700.720393667817
 20
-23.7276151817881
 30
0.0
 11
-702.365393663645
 21
-23.7276151817881
 31
0.0
  0
LINE
  5
   648
  8
0
  6
CONTINUOUS
 62
     1
 10
-702.365393663645
 20
-23.7276151817881
 30
0.0
 11
-702.365393663645
 21
-2.69511523513421
 31
0.0
  0
LINE
  5
   649
  8
0
  6
CONTINUOUS
 62
     1
 10
-702.365393663645
 20
5.29488384814636
 30
0.0
 11
-702.365393663645
 21
51.9423873156466
 31
0.0
  0
LINE
  5
   64A
  8
0
  6
CONTINUOUS
 62
     1
 10
-700.720393667817
 20
51.9423873156466
 30
0.0
 11
-702.365393663645
 21
51.9423873156466
 31
0.0
  0
LINE
  5
   64B
  8
0
  6
CONTINUOUS
 62
     1
 10
-699.780393670201
 20
15.5173874080338
 30
0.0
 11
-699.780393670201
 21
46.0673873305477
 31
0.0
  0
LINE
  5
   64C
  8
0
  6
CONTINUOUS
 62
     1
 10
-699.780393670201
 20
4.35488743634596
 30
0.0
 11
-699.780393670201
 21
12.6973910010017
 31
0.0
  0
LINE
  5
   64D
  8
0
  6
CONTINUOUS
 62
     7
 10
-697.665393675566
 20
-20.4012595040372
 30
0.0
 11
-697.665393675566
 21
-18.123969089281
 31
0.0
  0
LINE
  5
   64E
  8
0
  6
CONTINUOUS
 62
     7
 10
-697.665393675566
 20
46.3387403266856
 30
0.0
 11
-697.665393675566
 21
48.6160343272572
 31
0.0
  0
LINE
  5
   64F
  8
0
  6
CONTINUOUS
 62
     7
 10
-697.665393675566
 20
12.9687404113242
 30
0.0
 11
-697.665393675566
 21
15.2460308260804
 31
0.0
  0
LINE
  5
   650
  8
0
  6
CONTINUOUS
 62
     1
 10
-701.895393664837
 20
-2.69511613158807
 30
0.0
 11
-702.365393663645
 21
-2.69511613158807
 31
0.0
  0
LINE
  5
   651
  8
0
  6
CONTINUOUS
 62
     1
 10
-701.895393664837
 20
5.29488384814636
 30
0.0
 11
-702.365393663645
 21
5.29488384814636
 31
0.0
  0
LINE
  5
   652
  8
0
  6
CONTINUOUS
 62
     3
 10
-702.365393663645
 20
-2.22511613278016
 30
0.0
 11
-702.365393663645
 21
4.82488384933845
 31
0.0
  0
LINE
  5
   653
  8
0
  6
CONTINUOUS
 62
     7
 10
-701.895393664837
 20
-2.22511613278016
 30
0.0
 11
-702.365393663645
 21
-2.22511613278016
 31
0.0
  0
LINE
  5
   654
  8
0
  6
CONTINUOUS
 62
     7
 10
-701.895393664837
 20
-4.10511612801179
 30
0.0
 11
-701.895393664837
 21
-2.22511613278016
 31
0.0
  0
LINE
  5
   655
  8
0
  6
CONTINUOUS
 62
     7
 10
-701.425393666029
 20
-4.10511612801179
 30
0.0
 11
-701.895393664837
 21
-4.10511612801179
 31
0.0
  0
LINE
  5
   656
  8
0
  6
CONTINUOUS
 62
     7
 10
-701.425393666029
 20
-4.10511612801179
 30
0.0
 11
-701.425393666029
 21
6.70488384457008
 31
0.0
  0
LINE
  5
   657
  8
0
  6
CONTINUOUS
 62
     7
 10
-701.425393666029
 20
6.70488384457008
 30
0.0
 11
-701.895393664837
 21
6.70488384457008
 31
0.0
  0
LINE
  5
   658
  8
0
  6
CONTINUOUS
 62
     7
 10
-701.895393664837
 20
4.82488384933845
 30
0.0
 11
-701.895393664837
 21
6.70488384457008
 31
0.0
  0
LINE
  5
   659
  8
0
  6
CONTINUOUS
 62
     7
 10
-701.895393664837
 20
4.82488384933845
 30
0.0
 11
-702.365393663645
 21
4.82488384933845
 31
0.0
  0
LINE
  5
   65A
  8
0
  6
CONTINUOUS
 62
     7
 10
-696.020393679738
 20
-1.7550193169559
 30
0.0
 11
-700.720393667817
 21
-1.7550193169559
 31
0.0
  0
LINE
  5
   65B
  8
0
  6
CONTINUOUS
 62
     7
 10
-696.020393679738
 20
4.35488385053054
 30
0.0
 11
-700.720393667817
 21
4.35488385053054
 31
0.0
  0
LINE
  5
   65C
  8
0
  6
CONTINUOUS
 62
     1
 10
-702.365393663645
 20
-2.69511254577264
 30
0.0
 11
-702.365393663645
 21
-2.22511613278016
 31
0.0
  0
LINE
  5
   65D
  8
0
  6
CONTINUOUS
 62
     1
 10
-702.365393663645
 20
4.82488384933845
 30
0.0
 11
-702.365393663645
 21
5.29488743396178
 31
0.0
  0
LINE
  5
   65E
  8
0
  6
CONTINUOUS
 62
     7
 10
-698.135393674374
 20
-20.6726142930828
 30
0.0
 11
-700.720393667817
 21
-20.6726142930828
 31
0.0
  0
LINE
  5
   65F
  8
0
  6
CONTINUOUS
 62
     7
 10
-698.135393674374
 20
-17.8526143002354
 30
0.0
 11
-700.720393667817
 21
-17.8526143002354
 31
0.0
  0
LINE
  5
   660
  8
0
  6
CONTINUOUS
 62
     7
 10
-698.135393674374
 20
-17.9599431344968
 30
0.0
 11
-698.135393674374
 21
-17.8526143002354
 31
0.0
  0
LINE
  5
   661
  8
0
  6
CONTINUOUS
 62
     7
 10
-698.135393674374
 20
-18.265592662225
 30
0.0
 11
-698.135393674374
 21
-17.9599431344968
 31
0.0
  0
LINE
  5
   662
  8
0
  6
CONTINUOUS
 62
     7
 10
-698.135393674374
 20
-18.7230297567069
 30
0.0
 11
-698.135393674374
 21
-18.265592662225
 31
0.0
  0
LINE
  5
   663
  8
0
  6
CONTINUOUS
 62
     7
 10
-698.135393674374
 20
-19.2626142966591
 30
0.0
 11
-698.135393674374
 21
-18.7230297567069
 31
0.0
  0
LINE
  5
   664
  8
0
  6
CONTINUOUS
 62
     7
 10
-698.135393674374
 20
-19.8021970437036
 30
0.0
 11
-698.135393674374
 21
-19.2626142966591
 31
0.0
  0
LINE
  5
   665
  8
0
  6
CONTINUOUS
 62
     7
 10
-698.135393674374
 20
-20.2596341381854
 30
0.0
 11
-698.135393674374
 21
-19.8021970437036
 31
0.0
  0
LINE
  5
   666
  8
0
  6
CONTINUOUS
 62
     7
 10
-698.135393674374
 20
-20.5652836659136
 30
0.0
 11
-698.135393674374
 21
-20.2596341381854
 31
0.0
  0
LINE
  5
   667
  8
0
  6
CONTINUOUS
 62
     7
 10
-698.135393674374
 20
-20.6726142930828
 30
0.0
 11
-698.135393674374
 21
-20.5652836659136
 31
0.0
  0
LINE
  5
   668
  8
0
  6
CONTINUOUS
 62
     7
 10
-698.135393111028
 20
-20.6726146812565
 30
0.0
 11
-697.665393096743
 21
-20.4012599072236
 31
0.0
  0
LINE
  5
   669
  8
0
  6
CONTINUOUS
 62
     7
 10
-697.665392663642
 20
-18.1239699363505
 30
0.0
 11
-698.135392677926
 21
-17.8526151623176
 31
0.0
  0
LINE
  5
   66A
  8
0
  6
CONTINUOUS
 62
     7
 10
-698.135393674374
 20
46.0673873305477
 30
0.0
 11
-700.720393667817
 21
46.0673873305477
 31
0.0
  0
LINE
  5
   66B
  8
0
  6
CONTINUOUS
 62
     7
 10
-698.135393674374
 20
48.8873873233952
 30
0.0
 11
-700.720393667817
 21
48.8873873233952
 31
0.0
  0
LINE
  5
   66C
  8
0
  6
CONTINUOUS
 62
     7
 10
-698.135393674374
 20
48.780056696226
 30
0.0
 11
-698.135393674374
 21
48.8873873233952
 31
0.0
  0
LINE
  5
   66D
  8
0
  6
CONTINUOUS
 62
     7
 10
-698.135393674374
 20
48.4744089614055
 30
0.0
 11
-698.135393674374
 21
48.780056696226
 31
0.0
  0
LINE
  5
   66E
  8
0
  6
CONTINUOUS
 62
     7
 10
-698.135393674374
 20
48.0169664882005
 30
0.0
 11
-698.135393674374
 21
48.4744089614055
 31
0.0
  0
LINE
  5
   66F
  8
0
  6
CONTINUOUS
 62
     7
 10
-698.135393674374
 20
47.4773873269714
 30
0.0
 11
-698.135393674374
 21
48.0169664882005
 31
0.0
  0
LINE
  5
   670
  8
0
  6
CONTINUOUS
 62
     7
 10
-698.135393674374
 20
46.9378009941115
 30
0.0
 11
-698.135393674374
 21
47.4773873269714
 31
0.0
  0
LINE
  5
   671
  8
0
  6
CONTINUOUS
 62
     7
 10
-698.135393674374
 20
46.4803656925374
 30
0.0
 11
-698.135393674374
 21
46.9378009941115
 31
0.0
  0
LINE
  5
   672
  8
0
  6
CONTINUOUS
 62
     7
 10
-698.135393674374
 20
46.1747179577169
 30
0.0
 11
-698.135393674374
 21
46.4803656925374
 31
0.0
  0
LINE
  5
   673
  8
0
  6
CONTINUOUS
 62
     7
 10
-698.135393674374
 20
46.0673873305477
 30
0.0
 11
-698.135393674374
 21
46.1747179577169
 31
0.0
  0
LINE
  5
   674
  8
0
  6
CONTINUOUS
 62
     7
 10
-698.135393759638
 20
46.0673863223349
 30
0.0
 11
-697.665393745354
 21
46.338739321875
 31
0.0
  0
LINE
  5
   675
  8
0
  6
CONTINUOUS
 62
     7
 10
-697.665392984739
 20
48.6160331363584
 30
0.0
 11
-698.135392999023
 21
48.8873861358984
 31
0.0
  0
LINE
  5
   676
  8
0
  6
CONTINUOUS
 62
     7
 10
-698.135393674374
 20
12.6973874151863
 30
0.0
 11
-700.720393667817
 21
12.6973874151863
 31
0.0
  0
LINE
  5
   677
  8
0
  6
CONTINUOUS
 62
     7
 10
-698.135393674374
 20
15.5173874080338
 30
0.0
 11
-700.720393667817
 21
15.5173874080338
 31
0.0
  0
LINE
  5
   678
  8
0
  6
CONTINUOUS
 62
     7
 10
-698.135393674374
 20
15.4100567808646
 30
0.0
 11
-698.135393674374
 21
15.5173874080338
 31
0.0
  0
LINE
  5
   679
  8
0
  6
CONTINUOUS
 62
     7
 10
-698.135393674374
 20
15.1044054602287
 30
0.0
 11
-698.135393674374
 21
15.4100567808646
 31
0.0
  0
LINE
  5
   67A
  8
0
  6
CONTINUOUS
 62
     7
 10
-698.135393674374
 20
14.6469701586545
 30
0.0
 11
-698.135393674374
 21
15.1044054602287
 31
0.0
  0
LINE
  5
   67B
  8
0
  6
CONTINUOUS
 62
     7
 10
-698.135393674374
 20
14.10738741161
 30
0.0
 11
-698.135393674374
 21
14.6469701586545
 31
0.0
  0
LINE
  5
   67C
  8
0
  6
CONTINUOUS
 62
     7
 10
-698.135393674374
 20
13.5678010787501
 30
0.0
 11
-698.135393674374
 21
14.10738741161
 31
0.0
  0
LINE
  5
   67D
  8
0
  6
CONTINUOUS
 62
     7
 10
-698.135393674374
 20
13.110365777176
 30
0.0
 11
-698.135393674374
 21
13.5678010787501
 31
0.0
  0
LINE
  5
   67E
  8
0
  6
CONTINUOUS
 62
     7
 10
-698.135393674374
 20
12.8047144565401
 30
0.0
 11
-698.135393674374
 21
13.110365777176
 31
0.0
  0
LINE
  5
   67F
  8
0
  6
CONTINUOUS
 62
     7
 10
-698.135393674374
 20
12.6973874151863
 30
0.0
 11
-698.135393674374
 21
12.8047144565401
 31
0.0
  0
LINE
  5
   680
  8
0
  6
CONTINUOUS
 62
     7
 10
-698.135393610446
 20
12.697386837655
 30
0.0
 11
-697.665393596162
 21
12.968739837195
 31
0.0
  0
LINE
  5
   681
  8
0
  6
CONTINUOUS
 62
     7
 10
-697.665392923754
 20
15.2460297680222
 30
0.0
 11
-698.135392938037
 21
15.5173863489003
 31
0.0
  0
LINE
  5
   682
  8
0
  6
CONTINUOUS
 62
     7
 10
-699.780395463109
 20
-17.6176143008314
 30
0.0
 11
-700.720393667817
 21
-17.6176143008314
 31
0.0
  0
LINE
  5
   683
  8
0
  6
CONTINUOUS
 62
     7
 10
-699.780395463109
 20
-20.9076142924868
 30
0.0
 11
-700.720393667817
 21
-20.9076142924868
 31
0.0
  0
LINE
  5
   684
  8
0
  6
CONTINUOUS
 62
     7
 10
-699.780395463109
 20
-17.8526143002354
 30
0.0
 11
-699.780395463109
 21
-1.75510896234141
 31
0.0
  0
LINE
  5
   685
  8
0
  6
CONTINUOUS
 62
     7
 10
-699.780393670201
 20
-2.2250193157638
 30
0.0
 11
-700.720393667817
 21
-2.2250193157638
 31
0.0
  0
LINE
  5
   686
  8
0
  6
CONTINUOUS
 62
     7
 10
-699.780393670201
 20
4.82488384933845
 30
0.0
 11
-700.720393667817
 21
4.82488384933845
 31
0.0
  0
LINE
  5
   687
  8
0
  6
CONTINUOUS
 62
     7
 10
-699.780393670201
 20
15.7523874074377
 30
0.0
 11
-700.720393667817
 21
15.7523874074377
 31
0.0
  0
LINE
  5
   688
  8
0
  6
CONTINUOUS
 62
     7
 10
-699.780393670201
 20
12.4623874157824
 30
0.0
 11
-700.720393667817
 21
12.4623874157824
 31
0.0
  0
LINE
  5
   689
  8
0
  6
CONTINUOUS
 62
     7
 10
-699.780395463109
 20
48.8873873233952
 30
0.0
 11
-699.780395463109
 21
70.0947174313934
 31
0.0
  0
LINE
  5
   68A
  8
0
  6
CONTINUOUS
 62
     7
 10
-699.780395463109
 20
49.1223873227991
 30
0.0
 11
-700.720393667817
 21
49.1223873227991
 31
0.0
  0
LINE
  5
   68B
  8
0
  6
CONTINUOUS
 62
     7
 10
-699.780395463109
 20
45.8323873311438
 30
0.0
 11
-700.720393667817
 21
45.8323873311438
 31
0.0
  0
INSERT
  5
   68C
  8
0
  6
CONTINUOUS
 62
     7
  2
*HATCH89
 10
-682.155395507813
 20
-37.5864448547363
 30
0.0
 41
0.469999998807907
 42
0.469999998807907
 50
89.9999999480344
 43
0.469999998807907
  0
INSERT
  5
   68D
  8
0
  6
CONTINUOUS
 62
     7
  2
*HATCH90
 10
-682.155395507813
 20
-37.5864448547363
 30
0.0
 41
0.469999998807907
 42
0.469999998807907
 50
89.9999999480344
 43
0.469999998807907
  0
INSERT
  5
   68E
  8
0
  6
CONTINUOUS
 62
     7
  2
*HATCH91
 10
-682.155395507813
 20
-37.5864448547363
 30
0.0
 41
0.469999998807907
 42
0.469999998807907
 50
89.9999999480344
 43
0.469999998807907
  0
INSERT
  5
   68F
  8
0
  6
CONTINUOUS
 62
     7
  2
*HATCH92
 10
-682.155395507813
 20
-37.5864448547363
 30
0.0
 41
0.469999998807907
 42
0.469999998807907
 50
89.9999999480344
 43
0.469999998807907
  0
INSERT
  5
   690
  8
0
  6
CONTINUOUS
 62
     7
  2
*HATCH93
 10
-682.155395507813
 20
-37.5864448547363
 30
0.0
 41
0.469999998807907
 42
0.469999998807907
 50
89.9999999480344
 43
0.469999998807907
  0
CIRCLE
  5
   691
  8
0
  6
CONTINUOUS
 62
     7
 10
-700.530804487558
 20
-53.4201641431601
 30
0.0
 40
0.117499999701977
  0
LINE
  5
   692
  8
0
  6
DASHDOT
 62
     7
 10
-603.319819954774
 20
14.1074734711801
 30
0.0
 11
-721.524309611436
 21
14.1074734711801
 31
0.0
  0
LINE
  5
   693
  8
0
  6
CONTINUOUS
 62
     7
 10
-634.685417143107
 20
74.1499518039977
 30
0.0
 11
-680.980409854055
 21
74.1499518039977
 31
0.0
  0
LINE
  5
   694
  8
0
  6
CONTINUOUS
 62
     7
 10
-681.450409852862
 20
61.9299678994286
 30
0.0
 11
-681.450409852862
 21
73.6799518051898
 31
0.0
  0
LINE
  5
   695
  8
0
  6
CONTINUOUS
 62
     7
 10
-681.450409852862
 20
-47.1100174807441
 30
0.0
 11
-681.450409852862
 21
-35.5950246815815
 31
0.0
  0
LINE
  5
   696
  8
0
  6
CONTINUOUS
 62
     7
 10
-634.685416694879
 20
-47.580017479552
 30
0.0
 11
-680.980409854055
 21
-47.580017479552
 31
0.0
  0
ARC
  5
   697
  8
0
  6
CONTINUOUS
 62
     7
 10
-680.980409854055
 20
-47.1100174807441
 30
0.0
 40
0.469999998807907
 50
179.999999948034
 51
269.999999948034
  0
LINE
  5
   698
  8
0
  6
CONTINUOUS
 62
     7
 10
-680.980409854055
 20
-35.5950246815815
 30
0.0
 11
-680.980409854055
 21
-35.1250246827736
 31
0.0
  0
LINE
  5
   699
  8
0
  6
CONTINUOUS
 62
     7
 10
-680.980409854055
 20
-35.5950246815815
 30
0.0
 11
-681.450409852862
 21
-35.5950246815815
 31
0.0
  0
ARC
  5
   69A
  8
0
  6
CONTINUOUS
 62
     7
 10
-680.980409854055
 20
73.6799518051898
 30
0.0
 40
0.469999998807907
 50
89.9999999480344
 51
179.999999948034
  0
LINE
  5
   69B
  8
0
  6
CONTINUOUS
 62
     7
 10
-680.980409854055
 20
61.9299678994286
 30
0.0
 11
-681.450409852862
 21
61.9299678994286
 31
0.0
  0
LINE
  5
   69C
  8
0
  6
CONTINUOUS
 62
     7
 10
-680.980409854055
 20
61.4599679006207
 30
0.0
 11
-680.980409854055
 21
61.9299678994286
 31
0.0
  0
LINE
  5
   69D
  8
0
  6
CONTINUOUS
 62
     7
 10
-695.315396370888
 20
39.4874734068071
 30
0.0
 11
-696.490399057269
 21
39.4874734068071
 31
0.0
  0
LINE
  5
   69E
  8
0
  6
CONTINUOUS
 62
     7
 10
-695.315396370888
 20
39.4874734068071
 30
0.0
 11
-695.315396370888
 21
44.4224733942901
 31
0.0
  0
LINE
  5
   69F
  8
0
  6
CONTINUOUS
 62
     7
 10
-696.960399056077
 20
46.0674733901178
 30
0.0
 11
-698.135399053097
 21
46.0674733901178
 31
0.0
  0
LINE
  5
   6A0
  8
0
  6
CONTINUOUS
 62
     7
 10
-698.605399051905
 20
48.8873873233952
 30
0.0
 11
-698.605399051905
 21
50.297473379389
 31
0.0
  0
LINE
  5
   6A1
  8
0
  6
CONTINUOUS
 62
     7
 10
-698.605399051905
 20
50.297473379389
 30
0.0
 11
-699.780395463109
 21
50.297473379389
 31
0.0
  0
LINE
  5
   6A2
  8
0
  6
CONTINUOUS
 62
     7
 10
-696.960399056077
 20
44.892473393098
 30
0.0
 11
-698.135399053097
 21
44.892473393098
 31
0.0
  0
LINE
  5
   6A3
  8
0
  6
CONTINUOUS
 62
     7
 10
-696.490399057269
 20
39.4874734068071
 30
0.0
 11
-696.490399057269
 21
44.4224733942901
 31
0.0
  0
ARC
  5
   6A4
  8
0
  6
CONTINUOUS
 62
     7
 10
-696.960405943225
 20
44.422467431727
 30
0.0
 40
1.64500866879195
 50
360.000319242658
 51
449.999813057862
  0
ARC
  5
   6A5
  8
0
  6
CONTINUOUS
 62
     7
 10
-696.960378259447
 20
44.4224926148378
 30
0.0
 40
0.469976414792414
 50
359.998830132094
 51
450.002235749312
  0
ARC
  5
   6A6
  8
0
  6
CONTINUOUS
 62
     7
 10
-698.135408148716
 20
46.5374583268666
 30
0.0
 40
1.6449863921215
 50
196.604271282219
 51
270.000346548696
  0
LINE
  5
   6A7
  8
0
  6
CONTINUOUS
 62
     7
 10
-695.315396370888
 20
43.7174733960783
 30
0.0
 11
-696.490399057269
 21
43.7174733960783
 31
0.0
  0
INSERT
  5
   6A8
  8
0
  6
CONTINUOUS
 62
     7
  2
*HATCH94
 10
-682.155395507813
 20
-37.5864448547363
 30
0.0
 41
0.469999998807907
 42
0.469999998807907
 50
89.9999999480344
 43
0.469999998807907
  0
LINE
  5
   6A9
  8
0
  6
CONTINUOUS
 62
     7
 10
-698.135393674374
 20
38.7824734085952
 30
0.0
 11
-698.135393674374
 21
42.0724734002506
 31
0.0
  0
LINE
  5
   6AA
  8
0
  6
CONTINUOUS
 62
     7
 10
-697.195393676758
 20
38.7824734085952
 30
0.0
 11
-697.195393676758
 21
42.0724734002506
 31
0.0
  0
LINE
  5
   6AB
  8
0
  6
CONTINUOUS
 62
     7
 10
-697.195393676758
 20
42.0724734002506
 30
0.0
 11
-698.135393674374
 21
42.0724734002506
 31
0.0
  0
INSERT
  5
   6AC
  8
255
  6
CONTINUOUS
 62
     7
  2
TS4
 10
-682.155388336182
 20
-37.586459197998
 30
0.0
 41
0.469999998807907
 42
-0.469999998807907
 50
180.000000207862
 43
0.469999998807907
  0
LINE
  5
   6AD
  8
0
  6
CONTINUOUS
 62
     7
 10
-601.102357539547
 20
98.6712688549679
 30
0.0
 11
-613.63045562999
 21
98.9201714660364
 31
0.0
  0
INSERT
  5
   6AE
  8
255
  6
CONTINUOUS
 62
     7
  2
TS4
 10
-682.155388336182
 20
64.1563935224437
 30
0.0
 41
0.469999998807907
 42
0.469999998807907
 50
179.999999896069
 43
0.469999998807907
  0
LINE
  5
   6AF
  8
0
  6
CONTINUOUS
 62
     7
 10
-604.630387445751
 20
-73.1821494415247
 30
0.0
 11
-613.080629744167
 21
-72.3899392260481
 31
0.0
  0
LINE
  5
   6B0
  8
0
  6
DOT
 62
     7
 10
-715.290393630862
 20
-10.5675497740352
 30
0.0
 11
-715.290393630862
 21
38.7824734085953
 31
0.0
  0
LINE
  5
   6B1
  8
0
  6
DOT
 62
     7
 10
-705.062576068669
 20
38.7824734085953
 30
0.0
 11
-715.290393630862
 21
38.7824734085953
 31
0.0
  0
LINE
  5
   6B2
  8
0
  6
DOT
 62
     7
 10
-704.977852189111
 20
-10.5675497740352
 30
0.0
 11
-715.290393630862
 21
-10.5675497740352
 31
0.0
  0
LINE
  5
   6B3
  8
0
  6
CONTINUOUS
 62
     7
 10
-607.566395696998
 20
43.1769518825566
 30
0.0
 11
-607.566395696998
 21
46.8429518732583
 31
0.0
  0
LINE
  5
   6B4
  8
0
  6
CONTINUOUS
 62
     7
 10
-606.062395700812
 20
44.0699518802917
 30
0.0
 11
-606.062395700812
 21
45.9499518755233
 31
0.0
  0
LINE
  5
   6B5
  8
0
  6
CONTINUOUS
 62
     7
 10
-607.566395696998
 20
46.8429518732583
 30
0.0
 11
-609.070395693183
 21
46.8429518732583
 31
0.0
  0
LINE
  5
   6B6
  8
0
  6
CONTINUOUS
 62
     7
 10
-607.566395696998
 20
43.1769518825566
 30
0.0
 11
-609.070395693183
 21
43.1769518825566
 31
0.0
  0
LINE
  5
   6B7
  8
0
  6
CONTINUOUS
 62
     7
 10
-606.062395700812
 20
45.9499518755233
 30
0.0
 11
-609.070395693183
 21
45.9499518755233
 31
0.0
  0
LINE
  5
   6B8
  8
0
  6
CONTINUOUS
 62
     7
 10
-606.062395700812
 20
44.0699518802917
 30
0.0
 11
-609.070395693183
 21
44.0699518802917
 31
0.0
  0
LINE
  5
   6B9
  8
0
  6
CONTINUOUS
 62
     7
 10
-607.566395696998
 20
-16.6070479658091
 30
0.0
 11
-609.070395693183
 21
-16.6070479658091
 31
0.0
  0
LINE
  5
   6BA
  8
0
  6
CONTINUOUS
 62
     7
 10
-606.062395700812
 20
-17.5000479635441
 30
0.0
 11
-609.070395693183
 21
-17.5000479635441
 31
0.0
  0
LINE
  5
   6BB
  8
0
  6
CONTINUOUS
 62
     7
 10
-606.062395700812
 20
-19.3800479587758
 30
0.0
 11
-609.070395693183
 21
-19.3800479587758
 31
0.0
  0
LINE
  5
   6BC
  8
0
  6
CONTINUOUS
 62
     7
 10
-607.566395696998
 20
-20.2730479565108
 30
0.0
 11
-609.070395693183
 21
-20.2730479565108
 31
0.0
  0
LINE
  5
   6BD
  8
0
  6
CONTINUOUS
 62
     7
 10
-607.566395696998
 20
-20.2730479565108
 30
0.0
 11
-607.566395696998
 21
-16.6070479658091
 31
0.0
  0
LINE
  5
   6BE
  8
0
  6
CONTINUOUS
 62
     7
 10
-606.062395700812
 20
-19.3800479587758
 30
0.0
 11
-606.062395700812
 21
-17.5000479635441
 31
0.0
  0
INSERT
  5
   6BF
  8
0
  6
CONTINUOUS
 62
     7
  2
*UDIM385
 10
0.0
 20
0.0
 30
0.0
  0
INSERT
  5
   6C0
  8
0
  6
CONTINUOUS
 62
     7
  2
*UDIM386
 10
0.0
 20
0.0
 30
0.0
  0
INSERT
  5
   6C1
  8
0
  6
CONTINUOUS
 62
     7
  2
*UDIM387
 10
0.0
 20
0.0
 30
0.0
  0
INSERT
  5
   6C2
  8
0
  6
CONTINUOUS
 62
     7
  2
*UDIM388
 10
0.0
 20
0.0
 30
0.0
  0
INSERT
  5
   6C3
  8
0
  6
CONTINUOUS
 62
     7
  2
*UDIM389
 10
0.0
 20
0.0
 30
0.0
  0
INSERT
  5
   6C4
  8
0
  6
CONTINUOUS
 62
     7
  2
*UDIM390
 10
0.0
 20
0.0
 30
0.0
  0
INSERT
  5
   6C5
  8
0
  6
CONTINUOUS
 62
     7
  2
*UDIM391
 10
0.0
 20
0.0
 30
0.0
  0
INSERT
  5
   6C6
  8
0
  6
CONTINUOUS
 62
     7
  2
*UDIM392
 10
0.0
 20
0.0
 30
0.0
  0
TEXT
  5
   6C7
  8
0
  6
CONTINUOUS
 62
     7
 10
-719.31646651397
 20
3.14433568571476
 30
0.0
 40
2.99999994291904
  1
=      =
 50
89.9999999480344
 41
0.916666599088244
 72
     2
 11
-719.316466494543
 21
24.5943336884863
 31
0.0
  0
INSERT
  5
   6C8
  8
0
  6
CONTINUOUS
 62
     7
  2
*UDIM393
 10
0.0
 20
0.0
 30
0.0
  0
INSERT
  5
   6C9
  8
0
  6
CONTINUOUS
 62
     7
  2
*UDIM394
 10
0.0
 20
0.0
 30
0.0
  0
INSERT
  5
   6CA
  8
0
  6
CONTINUOUS
 62
     7
  2
*UDIM395
 10
0.0
 20
0.0
 30
0.0
  0
INSERT
  5
   6CB
  8
0
  6
CONTINUOUS
 62
     7
  2
*UDIM396
 10
0.0
 20
0.0
 30
0.0
  0
INSERT
  5
   6CC
  8
0
  6
CONTINUOUS
 62
     7
  2
*UDIM397
 10
0.0
 20
0.0
 30
0.0
  0
TEXT
  5
   6CD
  8
0
  6
CONTINUOUS
 62
     7
 10
-735.703142934289
 20
12.1570266193115
 30
0.0
 40
2.99999994291904
  1
X
 50
359.999999948034
 41
0.916666599088244
 72
     2
 11
-733.503143146101
 21
12.1570266173272
 31
0.0
  0
INSERT
  5
   6CE
  8
0
  6
CONTINUOUS
 62
     7
  2
*UDIM398
 10
0.0
 20
0.0
 30
0.0
  0
LINE
  5
   6CF
  8
0
  6
CONTINUOUS
 62
     7
 10
-424.254302978516
 20
41.5134124755859
 30
0.0
 11
-390.504302978516
 21
41.5134124755859
 31
0.0
  0
LINE
  5
   6D0
  8
0
  6
CONTINUOUS
 62
     7
 10
-424.254302978516
 20
73.0134124755859
 30
0.0
 11
-390.504302978516
 21
73.0134124755859
 31
0.0
  0
LINE
  5
   6D1
  8
0
  6
CONTINUOUS
 62
     7
 10
-390.504302978516
 20
73.0134124755859
 30
0.0
 11
-390.504302978516
 21
52.4509124755859
 31
0.0
  0
LINE
  5
   6D2
  8
0
  6
CONTINUOUS
 62
     7
 10
-424.254302978516
 20
73.0134124755859
 30
0.0
 11
-424.254302978516
 21
41.5134124755859
 31
0.0
  0
LINE
  5
   6D3
  8
0
  6
DASHDOT
 62
     7
 10
-394.979289525111
 20
50.4509124755859
 30
0.0
 11
-380.998996579074
 21
50.4509124755859
 31
0.0
  0
LINE
  5
   6D4
  8
0
  6
CONTINUOUS
 62
     7
 10
-390.504302978516
 20
52.4509124755859
 30
0.0
 11
-384.754302978516
 21
52.4509124755859
 31
0.0
  0
LINE
  5
   6D5
  8
0
  6
CONTINUOUS
 62
     7
 10
-390.504302978516
 20
48.4509124755859
 30
0.0
 11
-384.754302978516
 21
48.4509124755859
 31
0.0
  0
ARC
  5
   6D6
  8
0
  6
CONTINUOUS
 62
     7
 10
-384.754302978516
 20
50.4509124755859
 30
0.0
 40
2.0
 50
269.999999844103
 51
449.999999844103
  0
LINE
  5
   6D7
  8
0
  6
CONTINUOUS
 62
     7
 10
-390.504302978516
 20
48.4509124755859
 30
0.0
 11
-390.504302978516
 21
41.5134124755859
 31
0.0
  0
LINE
  5
   6D8
  8
0
  6
DASHDOT
 62
     7
 10
-406.254302978516
 20
82.890903636441
 30
0.0
 11
-406.254302978516
 21
34.1182311580345
 31
0.0
  0
CIRCLE
  5
   6D9
  8
0
  6
CONTINUOUS
 62
     7
 10
-417.254302978516
 20
75.0134124755859
 30
0.0
 40
0.875
  0
CIRCLE
  5
   6DA
  8
0
  6
CONTINUOUS
 62
     7
 10
-386.004302978516
 20
75.0134124755859
 30
0.0
 40
1.0
  0
CIRCLE
  5
   6DB
  8
0
  6
CONTINUOUS
 62
     7
 10
-386.004302978516
 20
57.2634124755859
 30
0.0
 40
1.0
  0
CIRCLE
  5
   6DC
  8
0
  6
CONTINUOUS
 62
     7
 10
-386.004302978516
 20
39.5134124755859
 30
0.0
 40
0.875
  0
CIRCLE
  5
   6DD
  8
0
  6
CONTINUOUS
 62
     7
 10
-417.254302978516
 20
39.5134124755859
 30
0.0
 40
1.0
  0
LINE
  5
   6DE
  8
0
  6
DASHDOT
 62
     7
 10
-417.254302978516
 20
76.6384124755859
 30
0.0
 11
-417.254302978516
 21
73.3884124755859
 31
0.0
  0
LINE
  5
   6DF
  8
0
  6
DASHDOT
 62
     7
 10
-418.879302978516
 20
75.0134124755859
 30
0.0
 11
-415.629302978516
 21
75.0134124755859
 31
0.0
  0
LINE
  5
   6E0
  8
0
  6
DASHDOT
 62
     7
 10
-386.004302978516
 20
76.6384124755859
 30
0.0
 11
-386.004302978516
 21
73.3884124755859
 31
0.0
  0
LINE
  5
   6E1
  8
0
  6
DASHDOT
 62
     7
 10
-387.629302978516
 20
75.0134124755859
 30
0.0
 11
-384.379302978516
 21
75.0134124755859
 31
0.0
  0
LINE
  5
   6E2
  8
0
  6
DASHDOT
 62
     7
 10
-386.004302978516
 20
58.8884124755859
 30
0.0
 11
-386.004302978516
 21
55.6384124755859
 31
0.0
  0
LINE
  5
   6E3
  8
0
  6
DASHDOT
 62
     7
 10
-387.629302978516
 20
57.2634124755859
 30
0.0
 11
-384.379302978516
 21
57.2634124755859
 31
0.0
  0
LINE
  5
   6E4
  8
0
  6
DASHDOT
 62
     7
 10
-386.004302978516
 20
41.1384124755859
 30
0.0
 11
-386.004302978516
 21
37.8884124755859
 31
0.0
  0
LINE
  5
   6E5
  8
0
  6
DASHDOT
 62
     7
 10
-387.629302978516
 20
39.5134124755859
 30
0.0
 11
-384.379302978516
 21
39.5134124755859
 31
0.0
  0
LINE
  5
   6E6
  8
0
  6
DASHDOT
 62
     7
 10
-417.254302978516
 20
41.1384124755859
 30
0.0
 11
-417.254302978516
 21
37.8884124755859
 31
0.0
  0
LINE
  5
   6E7
  8
0
  6
DASHDOT
 62
     7
 10
-418.879302978516
 20
39.5134124755859
 30
0.0
 11
-415.629302978516
 21
39.5134124755859
 31
0.0
  0
LINE
  5
   6E8
  8
0
  6
CONTINUOUS
 62
     7
 10
-430.178862055909
 20
78.0134124755859
 30
0.0
 11
-380.591803580646
 21
78.0134124755859
 31
0.0
  0
LINE
  5
   6E9
  8
0
  6
CONTINUOUS
 62
     7
 10
-430.812273386797
 20
36.5134124755859
 30
0.0
 11
-380.139366915725
 21
36.5134124755859
 31
0.0
  0
LINE
  5
   6EA
  8
0
  6
CONTINUOUS
 62
     7
 10
-381.004302978516
 20
78.8434575231827
 30
0.0
 11
-381.004302978516
 21
35.5905123568037
 31
0.0
  0
LINE
  5
   6EB
  8
0
  6
CONTINUOUS
 62
     7
 10
-429.254302978516
 20
78.8434575231827
 30
0.0
 11
-429.254302978516
 21
35.0023446924073
 31
0.0
  0
POINT
  5
   6EC
  8
0
  6
CONTINUOUS
 62
     7
 10
-382.754302978516
 20
50.3259124755859
 30
0.0
  0
LINE
  5
   6ED
  8
0
  6
DASHDOT
 62
     7
 10
-433.715027741659
 20
57.2634124755859
 30
0.0
 11
-378.261574678379
 21
57.2634124755859
 31
0.0
  0
CIRCLE
  5
   6EE
  8
0
  6
CONTINUOUS
 62
     7
 10
-400.629302978516
 20
75.3884124755859
 30
0.0
 40
0.5
  0
CIRCLE
  5
   6EF
  8
0
  6
CONTINUOUS
 62
     7
 10
-411.879302978516
 20
75.3884124755859
 30
0.0
 40
0.5
  0
CIRCLE
  5
   6F0
  8
0
  6
CONTINUOUS
 62
     7
 10
-400.629302978516
 20
75.3884124755859
 30
0.0
 40
0.92
  0
CIRCLE
  5
   6F1
  8
0
  6
CONTINUOUS
 62
     7
 10
-411.879302978516
 20
75.3884124755859
 30
0.0
 40
0.92
  0
LINE
  5
   6F2
  8
0
  6
DASHDOT
 62
     7
 10
-400.629302978516
 20
77.0584124755859
 30
0.0
 11
-400.629302978516
 21
73.7184124755859
 31
0.0
  0
LINE
  5
   6F3
  8
0
  6
DASHDOT
 62
     7
 10
-402.299302978516
 20
75.3884124755859
 30
0.0
 11
-398.959302978516
 21
75.3884124755859
 31
0.0
  0
LINE
  5
   6F4
  8
0
  6
DASHDOT
 62
     7
 10
-411.879302978516
 20
77.0584124755859
 30
0.0
 11
-411.879302978516
 21
73.7184124755859
 31
0.0
  0
LINE
  5
   6F5
  8
0
  6
DASHDOT
 62
     7
 10
-413.549302978516
 20
75.3884124755859
 30
0.0
 11
-410.209302978516
 21
75.3884124755859
 31
0.0
  0
LINE
  5
   6F6
  8
0
  6
CONTINUOUS
 62
     7
 10
-446.714691567793
 20
103.692183480587
 30
0.0
 11
-412.665462730689
 21
75.953231247731
 31
0.0
  0
LINE
  5
   6F7
  8
0
  6
CONTINUOUS
 62
     7
 10
-418.149976188429
 20
78.4144734009025
 30
0.0
 11
-412.665462730689
 21
75.953231247731
 31
0.0
  0
LINE
  5
   6F8
  8
0
  6
CONTINUOUS
 62
     7
 10
-415.912495130096
 20
80.4501791049226
 30
0.0
 11
-412.665462730689
 21
75.953231247731
 31
0.0
  0
LINE
  5
   6F9
  8
0
  6
CONTINUOUS
 62
     7
 10
-379.574693632475
 20
73.7801024021849
 30
0.0
 11
-379.574693632475
 21
67.7581056016161
 31
0.0
  0
LINE
  5
   6FA
  8
0
  6
CONTINUOUS
 62
     7
 10
-377.089425111605
 20
73.7801024021849
 30
0.0
 11
-377.089425111605
 21
67.7581056016161
 31
0.0
  0
LINE
  5
   6FB
  8
0
  6
CONTINUOUS
 62
     7
 10
-379.574693632475
 20
73.7801024021849
 30
0.0
 11
-377.089425111605
 21
73.7801024021849
 31
0.0
  0
LINE
  5
   6FC
  8
0
  6
CONTINUOUS
 62
     7
 10
-379.574693632475
 20
67.7581056016161
 30
0.0
 11
-377.089425111605
 21
67.7581056016161
 31
0.0
  0
LINE
  5
   6FD
  8
0
  6
CONTINUOUS
 62
     7
 10
-379.574693632475
 20
46.7687193495557
 30
0.0
 11
-379.574693632475
 21
40.746722548987
 31
0.0
  0
LINE
  5
   6FE
  8
0
  6
CONTINUOUS
 62
     7
 10
-377.089425111605
 20
46.7687193495557
 30
0.0
 11
-377.089425111605
 21
40.746722548987
 31
0.0
  0
LINE
  5
   6FF
  8
0
  6
CONTINUOUS
 62
     7
 10
-379.574693632475
 20
46.7687193495557
 30
0.0
 11
-377.089425111605
 21
46.7687193495557
 31
0.0
  0
LINE
  5
   700
  8
0
  6
CONTINUOUS
 62
     7
 10
-379.574693632475
 20
40.746722548987
 30
0.0
 11
-377.089425111605
 21
40.746722548987
 31
0.0
  0
LINE
  5
   701
  8
0
  6
DASHDOT
 62
     7
 10
-378.33205937204
 20
78.3682904407135
 30
0.0
 11
-378.33205937204
 21
18.435084187434
 31
0.0
  0
LINE
  5
   702
  8
0
  6
CONTINUOUS
 62
     7
 10
-460.775271879155
 20
103.692183480587
 30
0.0
 11
-437.657860845045
 21
103.692183480587
 31
0.0
  0
INSERT
  5
   703
  8
0
  6
CONTINUOUS
 62
     7
  2
*UDIM399
 10
0.0
 20
0.0
 30
0.0
  0
INSERT
  5
   704
  8
0
  6
CONTINUOUS
 62
     7
  2
*UDIM400
 10
0.0
 20
0.0
 30
0.0
  0
INSERT
  5
   705
  8
0
  6
CONTINUOUS
 62
     7
  2
*UDIM401
 10
0.0
 20
0.0
 30
0.0
  0
TEXT
  5
   706
  8
0
  6
CONTINUOUS
 62
     7
 10
-458.336462868356
 20
105.12078816687
 30
0.0
 40
3.00000002980232
  1
PART. Z
 50
359.999999844103
 41
0.916666604744064
 72
     2
 11
-439.63646395018
 21
105.120788116082
 31
0.0
  0
INSERT
  5
   707
  8
0
  6
CONTINUOUS
 62
     7
  2
*UDIM402
 10
0.0
 20
0.0
 30
0.0
  0
INSERT
  5
   708
  8
0
  6
CONTINUOUS
 62
     7
  2
*UDIM403
 10
0.0
 20
0.0
 30
0.0
  0
INSERT
  5
   709
  8
0
  6
CONTINUOUS
 62
     7
  2
*UDIM404
 10
0.0
 20
0.0
 30
0.0
  0
TEXT
  5
   70A
  8
0
  6
CONTINUOUS
 62
     7
 10
-431.775431570189
 20
48.0729468513579
 30
0.0
 40
3.00000002980232
  1
=     =
 50
449.999999844103
 41
0.916666604744064
 72
     2
 11
-431.775431519425
 21
66.7729457695336
 31
0.0
  0
INSERT
  5
   70B
  8
0
  6
CONTINUOUS
 62
     7
  2
*UDIM405
 10
0.0
 20
0.0
 30
0.0
  0
INSERT
  5
   70C
  8
0
  6
CONTINUOUS
 62
     7
  2
*UDIM406
 10
0.0
 20
0.0
 30
0.0
  0
INSERT
  5
   70D
  8
0
  6
CONTINUOUS
 62
     7
  2
*UDIM407
 10
0.0
 20
0.0
 30
0.0
  0
INSERT
  5
   70E
  8
0
  6
CONTINUOUS
 62
     7
  2
*UDIM408
 10
0.0
 20
0.0
 30
0.0
  0
INSERT
  5
   70F
  8
0
  6
CONTINUOUS
 62
     7
  2
*UDIM409
 10
0.0
 20
0.0
 30
0.0
  0
INSERT
  5
   710
  8
0
  6
CONTINUOUS
 62
     7
  2
*UDIM410
 10
0.0
 20
0.0
 30
0.0
  0
INSERT
  5
   711
  8
0
  6
CONTINUOUS
 62
     7
  2
*UDIM411
 10
0.0
 20
0.0
 30
0.0
  0
INSERT
  5
   712
  8
0
  6
CONTINUOUS
 62
     7
  2
*UDIM412
 10
0.0
 20
0.0
 30
0.0
  0
INSERT
  5
   713
  8
0
  6
CONTINUOUS
 62
     7
  2
*UDIM413
 10
0.0
 20
0.0
 30
0.0
  0
INSERT
  5
   714
  8
0
  6
CONTINUOUS
 62
     7
  2
*UDIM414
 10
0.0
 20
0.0
 30
0.0
  0
INSERT
  5
   715
  8
0
  6
CONTINUOUS
 62
     7
  2
*UDIM415
 10
0.0
 20
0.0
 30
0.0
  0
TEXT
  5
   716
  8
0
  6
CONTINUOUS
 62
     7
 10
-407.368553290867
 20
9.4498824381879
 30
0.0
 40
3.00000002980232
  1
Y
 50
359.999999844103
 41
0.916666604744064
 72
     2
 11
-405.168553421997
 21
9.44988243221296
 31
0.0
  0
TEXT
  5
   717
  8
0
  6
CONTINUOUS
 62
     7
 10
-407.923540483021
 20
105.624927451616
 30
0.0
 40
3.00000002980232
  1
Y
 50
359.999999844103
 41
0.916666604744064
 72
     2
 11
-405.723540614151
 21
105.624927445641
 31
0.0
  0
TEXT
  5
   718
  8
0
  6
CONTINUOUS
 62
     7
 10
-353.752445111774
 20
56.5590897107175
 30
0.0
 40
3.00000002980232
  1
X
 50
359.999999844103
 41
0.916666604744064
 72
     2
 11
-351.552445242904
 21
56.5590897047426
 31
0.0
  0
TEXT
  5
   719
  8
0
  6
CONTINUOUS
 62
     7
 10
-450.935840497517
 20
56.0161656642011
 30
0.0
 40
3.00000002980232
  1
X
 50
359.999999844103
 41
0.916666604744064
 72
     2
 11
-448.735840628647
 21
56.0161656582261
 31
0.0
  0
LINE
  5
   71A
  8
0
  6
CONTINUOUS
 62
     7
 10
-563.644165039063
 20
-101.342123778383
 30
0.0
 11
-563.644165039063
 21
-125.258645264586
 31
0.0
  0
LINE
  5
   71B
  8
0
  6
CONTINUOUS
 62
     7
 10
-565.644165039063
 20
-101.342123778383
 30
0.0
 11
-565.644165039063
 21
-125.258645264586
 31
0.0
  0
LINE
  5
   71C
  8
0
  6
DASHDOT
 62
     7
 10
-568.84676814146
 20
-113.300384521484
 30
0.0
 11
-560.420548949022
 21
-113.300384521484
 31
0.0
  0
POINT
  5
   71D
  8
0
  6
CONTINUOUS
 62
     7
 10
-565.644165039063
 20
-111.300384521484
 30
0.0
  0
POINT
  5
   71E
  8
0
  6
CONTINUOUS
 62
     7
 10
-565.644165039063
 20
-115.300384521484
 30
0.0
  0
LINE
  5
   71F
  8
0
  6
CONTINUOUS
 62
     7
 10
-563.644165039063
 20
-109.62218525913
 30
0.0
 11
-565.644165039063
 21
-111.300384521484
 31
0.0
  0
LINE
  5
   720
  8
0
  6
CONTINUOUS
 62
     7
 10
-565.644165039063
 20
-115.300384521484
 30
0.0
 11
-563.644165039063
 21
-116.978583783839
 31
0.0
  0
LINE
  5
   721
  8
0
  6
CONTINUOUS
 62
     7
 10
-565.644165039063
 20
-122.800384521484
 30
0.0
 11
-563.644165039063
 21
-122.800384521484
 31
0.0
  0
CIRCLE
  5
   722
  8
0
  6
CONTINUOUS
 62
     7
 10
-564.644165039063
 20
-113.300384521484
 30
0.0
 40
12.0
  0
LINE
  5
   723
  8
0
  6
CONTINUOUS
 62
     7
 10
-571.644157409668
 20
-117.800384521484
 30
0.0
 11
-569.144157409668
 21
-117.800384521484
 31
0.0
  0
LINE
  5
   724
  8
0
  6
CONTINUOUS
 62
     7
 10
-568.144157409668
 20
-108.800384521484
 30
0.0
 11
-568.144157409668
 21
-116.800384521484
 31
0.0
  0
LINE
  5
   725
  8
0
  6
CONTINUOUS
 62
     7
 10
-568.144157409668
 20
-108.800384521484
 30
0.0
 11
-565.644165039063
 21
-108.800384521484
 31
0.0
  0
LINE
  5
   726
  8
0
  6
CONTINUOUS
 62
     7
 10
-571.644157409668
 20
-120.300384521484
 30
0.0
 11
-569.144157409668
 21
-120.300384521484
 31
0.0
  0
LINE
  5
   727
  8
0
  6
CONTINUOUS
 62
     7
 10
-572.644157409668
 20
-121.300384521484
 30
0.0
 11
-572.644157409668
 21
-122.244663255416
 31
0.0
  0
ARC
  5
   728
  8
0
  6
CONTINUOUS
 62
     7
 10
-569.144153262388
 20
-116.800385192823
 30
0.0
 40
0.999996977799109
 50
629.999840735313
 51
720.000252836193
  0
ARC
  5
   729
  8
0
  6
CONTINUOUS
 62
     7
 10
-571.644142756161
 20
-121.300397207789
 30
0.0
 40
3.50001845311552
 50
450.000186734275
 51
513.408761128067
  0
ARC
  5
   72A
  8
0
  6
CONTINUOUS
 62
     7
 10
-571.644201657818
 20
-121.300343626702
 30
0.0
 40
0.999949821243504
 50
449.997764042825
 51
540.001169660043
  0
ARC
  5
   72B
  8
0
  6
CONTINUOUS
 62
     7
 10
-569.144138057286
 20
-116.800416568419
 30
0.0
 40
3.49997105594423
 50
629.999653243441
 51
720.000420168909
  0
INSERT
  5
   72C
  8
0
  6
CONTINUOUS
 62
     7
  2
*HATCH105
 10
-564.644165039063
 20
-113.300384521484
 30
0.0
 50
269.999999844103
  0
INSERT
  5
   72D
  8
0
  6
CONTINUOUS
 62
     7
  2
*HATCH106
 10
-564.644165039063
 20
-113.300384521484
 30
0.0
 50
269.999999844103
  0
TEXT
  5
   72E
  8
0
  6
CONTINUOUS
 62
     7
 10
-572.767577385506
 20
-94.3725223556542
 30
0.0
 40
3.00000002980232
  1
PART. Z
 50
359.999999844103
 41
0.916666689183977
 72
     1
 11
-563.417577058077
 21
-92.8725223661466
 31
0.0
 73
     2
  0
INSERT
  5
   72F
  8
0
  6
CONTINUOUS
 62
     7
  2
*UDIM416
 10
0.0
 20
0.0
 30
0.0
  0
INSERT
  5
   730
  8
0
  6
CONTINUOUS
 62
     7
  2
*UDIM417
 10
0.0
 20
0.0
 30
0.0
  0
ENDSEC
  0
EOF
