  0
SECTION
  2
HEADER
  9
$ACADVER
  1
AC1009
  9
$INSBASE
 10
0.0
 20
0.0
 30
0.0
  9
$EXTMIN
 10
0.578269
 20
0.580464
 30
0.0
  9
$EXTMAX
 10
392.578269
 20
263.080464
 30
0.0
  9
$LIMMIN
 10
0.0
 20
0.0
  9
$LIMMAX
 10
12.0
 20
9.0
  9
$ORTHOMODE
 70
     1
  9
$REGENMODE
 70
     1
  9
$FILLMODE
 70
     1
  9
$QTEXTMODE
 70
     0
  9
$MIRRTEXT
 70
     1
  9
$DRAGMODE
 70
     2
  9
$LTSCALE
 40
5.0
  9
$OSMODE
 70
     0
  9
$ATTMODE
 70
     1
  9
$TEXTSIZE
 40
1.5
  9
$TRACEWID
 40
0.05
  9
$TEXTSTYLE
  7
ROMANS
  9
$CLAYER
  8
0
  9
$CELTYPE
  6
CONTINUOUS
  9
$CECOLOR
 62
   256
  9
$DIMSCALE
 40
1.0
  9
$DIMASZ
 40
0.18
  9
$DIMEXO
 40
0.0625
  9
$DIMDLI
 40
0.38
  9
$DIMRND
 40
0.0
  9
$DIMDLE
 40
0.0
  9
$DIMEXE
 40
0.18
  9
$DIMTP
 40
0.0
  9
$DIMTM
 40
0.0
  9
$DIMTXT
 40
0.18
  9
$DIMCEN
 40
0.09
  9
$DIMTSZ
 40
0.0
  9
$DIMTOL
 70
     0
  9
$DIMLIM
 70
     0
  9
$DIMTIH
 70
     1
  9
$DIMTOH
 70
     1
  9
$DIMSE1
 70
     0
  9
$DIMSE2
 70
     0
  9
$DIMTAD
 70
     0
  9
$DIMZIN
 70
     0
  9
$DIMBLK
  1

  9
$DIMASO
 70
     1
  9
$DIMSHO
 70
     1
  9
$DIMPOST
  1

  9
$DIMAPOST
  1

  9
$DIMALT
 70
     0
  9
$DIMALTD
 70
     2
  9
$DIMALTF
 40
25.4
  9
$DIMLFAC
 40
1.0
  9
$DIMTOFL
 70
     0
  9
$DIMTVP
 40
0.0
  9
$DIMTIX
 70
     0
  9
$DIMSOXD
 70
     0
  9
$DIMSAH
 70
     0
  9
$DIMBLK1
  1

  9
$DIMBLK2
  1

  9
$DIMSTYLE
  2
*UNNAMED
  9
$DIMCLRD
 70
     0
  9
$DIMCLRE
 70
     0
  9
$DIMCLRT
 70
     0
  9
$DIMTFAC
 40
1.0
  9
$DIMGAP
 40
0.09
  9
$LUNITS
 70
     2
  9
$LUPREC
 70
     4
  9
$SKETCHINC
 40
0.1
  9
$FILLETRAD
 40
0.0
  9
$AUNITS
 70
     0
  9
$AUPREC
 70
     0
  9
$MENU
  1
acad
  9
$ELEVATION
 40
0.0
  9
$PELEVATION
 40
0.0
  9
$THICKNESS
 40
0.0
  9
$LIMCHECK
 70
     0
  9
$BLIPMODE
 70
     1
  9
$CHAMFERA
 40
0.0
  9
$CHAMFERB
 40
0.0
  9
$SKPOLY
 70
     0
  9
$TDCREATE
 40
2449253.610260995
  9
$TDUPDATE
 40
2449254.662270485
  9
$TDINDWG
 40
0.0013096065
  9
$TDUSRTIMER
 40
0.0013096065
  9
$USRTIMER
 70
     1
  9
$ANGBASE
 50
0.0
  9
$ANGDIR
 70
     0
  9
$PDMODE
 70
     0
  9
$PDSIZE
 40
0.0
  9
$PLINEWID
 40
0.0
  9
$COORDS
 70
     2
  9
$SPLFRAME
 70
     0
  9
$SPLINETYPE
 70
     6
  9
$SPLINESEGS
 70
     8
  9
$ATTDIA
 70
     0
  9
$ATTREQ
 70
     1
  9
$HANDLING
 70
     0
  9
$HANDSEED
  5
0
  9
$SURFTAB1
 70
   250
  9
$SURFTAB2
 70
   250
  9
$SURFTYPE
 70
     6
  9
$SURFU
 70
     6
  9
$SURFV
 70
     6
  9
$UCSNAME
  2

  9
$UCSORG
 10
0.0
 20
0.0
 30
0.0
  9
$UCSXDIR
 10
1.0
 20
0.0
 30
0.0
  9
$UCSYDIR
 10
0.0
 20
1.0
 30
0.0
  9
$PUCSNAME
  2

  9
$PUCSORG
 10
0.0
 20
0.0
 30
0.0
  9
$PUCSXDIR
 10
1.0
 20
0.0
 30
0.0
  9
$PUCSYDIR
 10
0.0
 20
1.0
 30
0.0
  9
$USERI1
 70
     0
  9
$USERI2
 70
     0
  9
$USERI3
 70
     0
  9
$USERI4
 70
     0
  9
$USERI5
 70
     0
  9
$USERR1
 40
0.0
  9
$USERR2
 40
0.0
  9
$USERR3
 40
0.0
  9
$USERR4
 40
0.0
  9
$USERR5
 40
0.0
  9
$WORLDVIEW
 70
     1
  9
$SHADEDGE
 70
     3
  9
$SHADEDIF
 70
    70
  9
$TILEMODE
 70
     1
  9
$MAXACTVP
 70
    16
  9
$PINSBASE
 10
0.0
 20
0.0
 30
0.0
  9
$PLIMCHECK
 70
     0
  9
$PEXTMIN
 10
1.000000E+20
 20
1.000000E+20
 30
1.000000E+20
  9
$PEXTMAX
 10
-1.000000E+20
 20
-1.000000E+20
 30
-1.000000E+20
  9
$PLIMMIN
 10
0.0
 20
0.0
  9
$PLIMMAX
 10
12.0
 20
9.0
  9
$UNITMODE
 70
     0
  9
$VISRETAIN
 70
     0
  9
$PLINEGEN
 70
     0
  9
$PSLTSCALE
 70
     0
  9
$TREEDEPTH
 70
  3020
  9
$DWGCODEPAGE
  3
undefined
  0
ENDSEC
  0
SECTION
  2
TABLES
  0
TABLE
  2
VPORT
 70
     2
  0
VPORT
  2
*ACTIVE
 70
     0
 10
0.0
 20
0.0
 11
1.0
 21
1.0
 12
222.716394
 22
142.164033
 13
0.0
 23
0.0
 14
2.5
 24
2.5
 15
0.0
 25
0.0
 16
0.0
 26
0.0
 36
1.0
 17
0.0
 27
0.0
 37
0.0
 40
284.328065
 41
1.566616
 42
50.0
 43
0.0
 44
0.0
 50
0.0
 51
0.0
 71
     0
 72
   100
 73
     1
 74
     1
 75
     1
 76
     0
 77
     0
 78
     0
  0
ENDTAB
  0
TABLE
  2
LTYPE
 70
     7
  0
LTYPE
  2
CONTINUOUS
 70
    64
  3
Solid line
 72
    65
 73
     0
 40
0.0
  0
LTYPE
  2
DASHED
 70
    64
  3
__ __ __ __ __ __ __ __ __ __ __ __ __ __ __ __
 72
    65
 73
     2
 40
0.75
 49
0.5
 49
-0.25
  0
LTYPE
  2
CENTER
 70
    64
  3
____ _ ____ _ ____ _ ____ _ ____ _ ____ _ ____ 
 72
    65
 73
     4
 40
2.0
 49
1.25
 49
-0.25
 49
0.25
 49
-0.25
  0
LTYPE
  2
HIDDEN
 70
    64
  3
__ __ __ __ __ __ __ __ __ __ __ __ __ __ __ __
 72
    65
 73
     2
 40
0.375
 49
0.25
 49
-0.125
  0
LTYPE
  2
DOT
 70
     0
  3
. . . . . . . . . . . . . . . . . . . . . . . .
 72
    65
 73
     2
 40
0.25
 49
0.0
 49
-0.25
  0
LTYPE
  2
DASHDOT
 70
     0
  3
__ . __ . __ . __ . __ . __ . __ . __ . __ . __
 72
    65
 73
     4
 40
1.0
 49
0.5
 49
-0.25
 49
0.0
 49
-0.25
  0
LTYPE
  2
PHANTOM
 70
     0
  3
______  __  __  ______  __  __  ______  __  __ 
 72
    65
 73
     6
 40
2.5
 49
1.25
 49
-0.25
 49
0.25
 49
-0.25
 49
0.25
 49
-0.25
  0
ENDTAB
  0
TABLE
  2
LAYER
 70
    13
  0
LAYER
  2
0
 70
    64
 62
     7
  6
CONTINUOUS
  0
LAYER
  2
RAAMI
 70
    64
 62
    -4
  6
CONTINUOUS
  0
LAYER
  2
PAKSU
 70
    64
 62
    -3
  6
CONTINUOUS
  0
LAYER
  2
OHUT
 70
    64
 62
    -6
  6
CONTINUOUS
  0
LAYER
  2
SWEDEN
 70
    64
 62
    -7
  6
CONTINUOUS
  0
LAYER
  2
SWEDEN2
 70
    64
 62
    -5
  6
CONTINUOUS
  0
LAYER
  2
BASE
 70
    64
 62
    -7
  6
CONTINUOUS
  0
LAYER
  2
21
 70
    64
 62
    -2
  6
CONTINUOUS
  0
LAYER
  2
HEL035
 70
    64
 62
    -7
  6
CONTINUOUS
  0
LAYER
  2
MUO
 70
    64
 62
    -7
  6
CONTINUOUS
  0
LAYER
  2
1
 70
    64
 62
    -2
  6
CONTINUOUS
  0
LAYER
  2
BASE1
 70
    64
 62
    -1
  6
CONTINUOUS
  0
LAYER
  2
TEKS
 70
    64
 62
    -5
  6
CONTINUOUS
  0
ENDTAB
  0
TABLE
  2
STYLE
 70
     6
  0
STYLE
  2
STANDARD
 70
    64
 40
0.0
 41
1.0
 50
0.0
 71
     0
 42
2.5
  3
txt
  4

  0
STYLE
  2
ROMANS
 70
    64
 40
0.0
 41
1.0
 50
0.0
 71
     0
 42
1.5
  3
romans
  4

  0
STYLE
  2
GREEKC
 70
    64
 40
0.0
 41
1.0
 50
0.0
 71
     0
 42
1.5
  3
GREEKC
  4

  0
STYLE
  2
GREEKS
 70
    64
 40
0.0
 41
1.0
 50
0.0
 71
     0
 42
2.0
  3
TXT
  4

  0
STYLE
  2
MONOTXT
 70
     0
 40
0.0
 41
1.0
 50
0.0
 71
     0
 42
2.0
  3
monotxt
  4

  0
STYLE
  2
ROMANT
 70
     0
 40
0.0
 41
1.0
 50
0.0
 71
     0
 42
2.5
  3
romant
  4

  0
ENDTAB
  0
TABLE
  2
VIEW
 70
     0
  0
ENDTAB
  0
TABLE
  2
UCS
 70
     0
  0
ENDTAB
  0
TABLE
  2
APPID
 70
     1
  0
APPID
  2
ACAD
 70
    64
  0
ENDTAB
  0
TABLE
  2
DIMSTYLE
 70
     0
  0
ENDTAB
  0
ENDSEC
  0
SECTION
  2
BLOCKS
  0
BLOCK
  8
0
  2
1
 70
    64
 10
0.0
 20
0.0
 30
0.0
  3
1
  0
ENDBLK
  8
0
  0
BLOCK
  8
0
  2
BLC16
 70
     0
 10
0.0
 20
0.0
 30
0.0
  3
BLC16
  0
LINE
  8
0
  6
CONTINUOUS
 10
0.007689
 20
38.054928
 30
0.0
 11
19.983683
 21
38.054928
 31
0.0
  0
LINE
  8
0
  6
CONTINUOUS
 10
19.983683
 20
38.054928
 30
0.0
 11
19.983683
 21
-0.003751
 31
0.0
  0
LINE
  8
0
  6
CONTINUOUS
 10
19.983683
 20
-0.003751
 30
0.0
 11
0.007689
 21
-0.003751
 31
0.0
  0
LINE
  8
0
  6
CONTINUOUS
 10
0.007689
 20
-0.003751
 30
0.0
 11
0.007689
 21
38.054928
 31
0.0
  0
LINE
  8
0
  6
CONTINUOUS
 10
14.152643
 20
36.919738
 30
0.0
 11
14.152643
 21
33.528469
 31
0.0
  0
LINE
  8
0
  6
CONTINUOUS
 10
14.152643
 20
33.528469
 30
0.0
 11
11.560435
 21
33.528469
 31
0.0
  0
LINE
  8
0
  6
CONTINUOUS
 10
11.560435
 20
33.528469
 30
0.0
 11
11.560435
 21
30.778433
 31
0.0
  0
LINE
  8
0
  6
CONTINUOUS
 10
11.560435
 20
30.778433
 30
0.0
 11
14.152643
 21
30.778433
 31
0.0
  0
LINE
  8
0
  6
CONTINUOUS
 10
14.152643
 20
30.778433
 30
0.0
 11
14.152643
 21
27.387164
 31
0.0
  0
TEXT
  8
0
  6
CONTINUOUS
 10
6.558569
 20
30.805266
 30
0.0
 40
2.5
  1
2
 11
6.558569
 21
29.971932
 31
0.0
 73
     1
  0
TEXT
  8
0
  6
CONTINUOUS
 10
6.553289
 20
23.854078
 30
0.0
 40
2.5
  1
2 I
 11
6.553289
 21
23.020744
 31
0.0
 73
     1
  0
LINE
  8
0
  6
CONTINUOUS
 10
12.942534
 20
26.359129
 30
0.0
 11
15.288299
 21
25.023775
 31
0.0
  0
LINE
  8
0
  6
CONTINUOUS
 10
15.288299
 20
25.023775
 30
0.0
 11
12.942534
 21
23.833856
 31
0.0
  0
LINE
  8
0
  6
CONTINUOUS
 10
14.169823
 20
26.359129
 30
0.0
 11
16.515589
 21
25.023775
 31
0.0
  0
LINE
  8
0
  6
CONTINUOUS
 10
16.515589
 20
25.023775
 30
0.0
 11
14.169823
 21
23.833856
 31
0.0
  0
TEXT
  8
0
  6
CONTINUOUS
 10
11.566446
 20
19.235679
 30
0.0
 40
2.5
  1
I
 11
11.566446
 21
18.402346
 31
0.0
 73
     1
  0
TEXT
  8
0
  6
CONTINUOUS
 10
13.018181
 20
18.902346
 30
0.0
 40
1.5
  1
2
 11
13.018181
 21
18.402346
 31
0.0
 73
     1
  0
LINE
  8
0
  6
CONTINUOUS
 10
10.65733
 20
12.773825
 30
0.0
 11
13.003095
 21
13.963744
 31
0.0
  0
LINE
  8
0
  6
CONTINUOUS
 10
13.003095
 20
11.438471
 30
0.0
 11
10.65733
 21
12.773825
 31
0.0
  0
LINE
  8
0
  6
CONTINUOUS
 10
6.557002
 20
16.714658
 30
0.0
 11
15.281743
 21
16.714658
 31
0.0
  0
LINE
  8
0
  6
CONTINUOUS
 10
6.557002
 20
17.523984
 30
0.0
 11
6.557002
 21
15.908791
 31
0.0
  0
LINE
  8
0
  6
CONTINUOUS
 10
15.286518
 20
17.523984
 30
0.0
 11
15.286518
 21
15.908791
 31
0.0
  0
ARC
  8
0
  6
CONTINUOUS
 10
12.684846
 20
18.508045
 30
0.0
 40
2.922744
 50
193.105513
 51
283.105513
  0
TEXT
  8
0
  6
CONTINUOUS
 10
6.557002
 20
11.567974
 30
0.0
 40
2.5
  1
2I
 11
6.557002
 21
10.734641
 31
0.0
 73
     1
  0
LINE
  8
0
  6
CONTINUOUS
 10
6.557002
 20
9.441103
 30
0.0
 11
15.281743
 21
9.441103
 31
0.0
  0
LINE
  8
0
  6
CONTINUOUS
 10
15.286518
 20
10.250429
 30
0.0
 11
15.286518
 21
8.635236
 31
0.0
  0
LINE
  8
0
  6
CONTINUOUS
 10
6.557002
 20
10.250429
 30
0.0
 11
6.557002
 21
8.635236
 31
0.0
  0
TEXT
  8
0
  6
CONTINUOUS
 10
6.557002
 20
4.778631
 30
0.0
 40
2.5
  1
I
 11
6.557002
 21
3.945298
 31
0.0
 73
     1
  0
LINE
  8
0
  6
CONTINUOUS
 10
9.509029
 20
6.822462
 30
0.0
 11
9.509029
 21
5.477736
 31
0.0
  0
LINE
  8
0
  6
CONTINUOUS
 10
8.615065
 20
5.477736
 30
0.0
 11
9.52622
 21
5.477736
 31
0.0
  0
LINE
  8
0
  6
CONTINUOUS
 10
9.509029
 20
5.477736
 30
0.0
 11
10.402992
 21
5.477736
 31
0.0
  0
LINE
  8
0
  6
CONTINUOUS
 10
8.901592
 20
5.082328
 30
0.0
 11
9.509029
 21
5.082328
 31
0.0
  0
LINE
  8
0
  6
CONTINUOUS
 10
9.509029
 20
5.082328
 30
0.0
 11
10.150849
 21
5.082328
 31
0.0
  0
LINE
  8
0
  6
CONTINUOUS
 10
9.981861
 20
4.719969
 30
0.0
 11
9.072041
 21
4.719969
 31
0.0
  0
LINE
  8
0
  6
CONTINUOUS
 10
15.286518
 20
2.797924
 30
0.0
 11
15.286518
 21
1.182731
 31
0.0
  0
LINE
  8
0
  6
CONTINUOUS
 10
6.557002
 20
1.988598
 30
0.0
 11
15.281743
 21
1.988598
 31
0.0
  0
LINE
  8
0
  6
CONTINUOUS
 10
6.557002
 20
2.797924
 30
0.0
 11
6.557002
 21
1.182731
 31
0.0
  0
ENDBLK
  8
0
  0
BLOCK
  8
0
  2
BLC27
 70
     0
 10
0.0
 20
0.0
 30
0.0
  3
BLC27
  0
INSERT
  8
SWEDEN2
  6
CENTER
  2
BLC26
 10
0.08063
 20
0.037985
 30
0.0
 41
1.006225
 42
1.006225
 43
1.006225
  0
ENDBLK
  8
0
  0
BLOCK
  8
0
  2
BLC26
 70
    64
 10
0.0
 20
0.0
 30
0.0
  3
BLC26
  0
ARC
  8
0
  6
CONTINUOUS
 10
-0.180576
 20
1.17922
 30
0.0
 40
1.196859
 50
90.0
 51
265.706237
  0
LINE
  8
0
  6
CONTINUOUS
 10
-0.186638
 20
-0.01092
 30
0.0
 11
0.458942
 21
-0.01092
 31
0.0
  0
LINE
  8
0
  6
CONTINUOUS
 10
-0.186638
 20
2.375671
 30
0.0
 11
0.45288
 21
2.375671
 31
0.0
  0
LINE
  8
0
  6
CONTINUOUS
 10
-0.185509
 20
-2.404629
 30
0.0
 11
0.460071
 21
-2.404629
 31
0.0
  0
ARC
  8
0
  6
CONTINUOUS
 10
-0.180576
 20
-1.207779
 30
0.0
 40
1.196859
 50
90.0
 51
270.0
  0
LINE
  8
0
  6
CONTINUOUS
 10
0.451525
 20
-2.404586
 30
0.0
 11
1.401805
 21
-2.404586
 31
0.0
  0
LINE
  8
0
  6
CONTINUOUS
 10
0.446785
 20
2.375674
 30
0.0
 11
1.418544
 21
2.375674
 31
0.0
  0
LINE
  8
0
  6
CONTINUOUS
 10
0.456627
 20
-0.010911
 30
0.0
 11
1.422749
 21
-0.010911
 31
0.0
  0
ENDBLK
  8
0
  0
BLOCK
  8
0
  2
BLC22
 70
     0
 10
0.0
 20
0.0
 30
0.0
  3
BLC22
  0
LINE
  8
HEL035
 10
0.0
 20
-0.00155
 30
0.0
 11
0.0
 21
9.99845
 31
0.0
  0
LINE
  8
21
 10
2.5
 20
10.0
 30
0.0
 11
5.0
 21
10.0
 31
0.0
  0
LINE
  8
HEL035
 10
0.0
 20
9.99845
 30
0.0
 11
2.5
 21
9.99845
 31
0.0
  0
LINE
  8
HEL035
 10
-2.5
 20
5.0
 30
0.0
 11
2.5
 21
5.0
 31
0.0
  0
LINE
  8
21
 10
2.5
 20
5.0
 30
0.0
 11
5.0
 21
5.0
 31
0.0
  0
LINE
  8
21
 10
5.0
 20
5.0
 30
0.0
 11
5.0
 21
7.9
 31
0.0
  0
LINE
  8
HEL035
 10
3.88095
 20
6.944425
 30
0.0
 11
4.560313
 21
6.008681
 31
0.0
  0
LINE
  8
21
 10
10.0
 20
10.0
 30
0.0
 11
4.2
 21
6.5
 31
0.0
  0
LINE
  8
HEL035
 10
2.5
 20
-0.00155
 30
0.0
 11
0.0
 21
-0.00155
 31
0.0
  0
LINE
  8
21
 10
2.5
 20
0.0
 30
0.0
 11
5.0
 21
0.0
 31
0.0
  0
ENDBLK
  8
0
  0
BLOCK
  8
0
  2
BLC18
 70
     0
 10
0.0
 20
0.0
 30
0.0
  3
BLC18
  0
LINE
  8
MUO
 10
-0.056268
 20
0.849555
 30
0.0
 11
8.307242
 21
9.215502
 31
0.0
  0
LINE
  8
MUO
 10
0.928025
 20
-0.107047
 30
0.0
 11
9.268386
 21
8.2307
 31
0.0
  0
LINE
  8
MUO
 10
-0.056268
 20
-0.107047
 30
0.0
 11
-0.056268
 21
9.215502
 31
0.0
  0
LINE
  8
MUO
 10
9.268386
 20
-0.107047
 30
0.0
 11
-0.056268
 21
-0.107047
 31
0.0
  0
LINE
  8
MUO
 10
9.268386
 20
9.215502
 30
0.0
 11
9.268386
 21
-0.107047
 31
0.0
  0
LINE
  8
MUO
 10
-0.056268
 20
9.215502
 30
0.0
 11
9.268386
 21
9.215502
 31
0.0
  0
ENDBLK
  8
0
  0
BLOCK
  8
0
  2
BLC29
 70
    64
 10
0.0
 20
0.0
 30
0.0
  3
BLC29
  0
LINE
  8
0
  6
CONTINUOUS
 10
0.004865
 20
1.206889
 30
0.0
 11
2.350631
 21
-0.128465
 31
0.0
  0
LINE
  8
0
  6
CONTINUOUS
 10
2.350631
 20
-0.128465
 30
0.0
 11
0.004865
 21
-1.318384
 31
0.0
  0
ENDBLK
  8
0
  0
BLOCK
  8
0
  2
WKU130
 70
     0
 10
190.0
 20
250.0
 30
0.0
  3
WKU130
  0
ARC
  8
21
 10
191.083333
 20
249.916667
 30
0.0
 40
1.086534
 50
32.471192
 51
175.601295
  0
ARC
  8
21
 10
192.916667
 20
251.083333
 30
0.0
 40
1.086534
 50
212.471192
 51
355.601295
  0
ENDBLK
  8
0
  0
BLOCK
  8
0
  2
BLC15
 70
     0
 10
0.0
 20
0.0
 30
0.0
  3
BLC15
  0
LINE
  8
0
  6
CONTINUOUS
 10
0.142084
 20
3.490022
 30
0.0
 11
0.142084
 21
0.844365
 31
0.0
  0
LINE
  8
0
  6
CONTINUOUS
 10
-0.461611
 20
-0.937188
 30
0.0
 11
0.745779
 21
-0.937188
 31
0.0
  0
LINE
  8
0
  6
CONTINUOUS
 10
-0.894108
 20
-0.049675
 30
0.0
 11
1.169267
 21
-0.049675
 31
0.0
  0
LINE
  8
0
  6
CONTINUOUS
 10
-1.389679
 20
0.844365
 30
0.0
 11
1.673848
 21
0.844365
 31
0.0
  0
ENDBLK
  8
0
  0
BLOCK
  8
0
  2
BLC5
 70
     0
 10
0.0
 20
0.0
 30
0.0
  3
BLC5
  0
TEXT
  8
0
 10
-3.043704
 20
-6.645912
 30
0.0
 40
3.2
  1
PE
  0
LINE
  8
0
 10
-2.946392
 20
1.181176
 30
0.0
 11
2.135458
 21
1.181176
 31
0.0
  0
LINE
  8
0
 10
-0.48656
 20
2.238362
 30
0.0
 11
-0.48656
 21
6.930438
 31
0.0
  0
LINE
  8
0
 10
-1.973271
 20
0.065258
 30
0.0
 11
1.225411
 21
0.065258
 31
0.0
  0
LINE
  8
0
 10
2.685091
 20
2.238362
 30
0.0
 11
1.68494
 21
2.238362
 31
0.0
  0
LINE
  8
0
 10
-3.505035
 20
2.238362
 30
0.0
 11
2.649049
 21
2.238362
 31
0.0
  0
CIRCLE
  8
0
 10
-0.47755
 20
1.422632
 30
0.0
 40
3.804563
  0
ENDBLK
  8
0
  0
BLOCK
  8
0
  2
BLC43
 70
    64
 10
0.0
 20
0.0
 30
0.0
  3
BLC43
  0
TEXT
  8
SWEDEN2
  6
CONTINUOUS
 10
-0.646672
 20
-0.986365
 30
0.0
 40
2.0
  1
+
  0
ENDBLK
  8
0
  0
BLOCK
  8
0
  2
BLC42
 70
    64
 10
0.0
 20
0.0
 30
0.0
  3
BLC42
  0
TEXT
  8
SWEDEN2
  6
CONTINUOUS
 10
-0.655237
 20
-0.99442
 30
0.0
 40
2.0
  1
-
  0
ENDBLK
  8
0
  0
BLOCK
  8
0
  2
BLC25
 70
     0
 10
0.0
 20
0.0
 30
0.0
  3
BLC25
  0
TEXT
  8
0
  6
CONTINUOUS
 10
2.0
 20
30.666667
 30
0.0
 40
2.0
  1
1)
 11
2.0
 21
30.0
 31
0.0
 73
     1
  0
TEXT
  8
0
 10
6.0
 20
2.0
 30
0.0
 40
2.0
  1
7B    27     26
 11
6.0
 21
1.333333
 31
0.0
 73
     1
  0
TEXT
  8
0
 10
6.0
 20
5.333333
 30
0.0
 40
2.0
  1
5B     9      8
 11
6.0
 21
4.666667
 31
0.0
 73
     1
  0
TEXT
  8
0
 10
6.0
 20
8.666667
 30
0.0
 40
2.0
  1
3B     3      2
 11
6.0
 21
8.0
 31
0.0
 73
     1
  0
TEXT
  8
0
 10
32.0
 20
12.666667
 30
0.0
 40
2.0
  1
In=5A
 11
32.0
 21
12.0
 31
0.0
 73
     1
  0
TEXT
  8
0
 10
16.0
 20
12.666667
 30
0.0
 40
2.0
  1
In=1A 
 11
16.0
 21
12.0
 31
0.0
 73
     1
  0
TEXT
  8
0
 10
26.0
 20
18.666667
 30
0.0
 40
2.0
  1
108:
 11
26.0
 21
18.0
 31
0.0
 73
     1
  0
TEXT
  8
0
 10
6.0
 20
18.666667
 30
0.0
 40
2.0
  1
101:       
 11
6.0
 21
18.0
 31
0.0
 73
     1
  0
TEXT
  8
0
 10
6.0
 20
24.666667
 30
0.0
 40
2.0
  1
TERMINALS / UTTAG
 11
6.0
 21
24.0
 31
0.0
 73
     1
  0
LINE
  8
0
 10
0.0
 20
12.0
 30
0.0
 11
44.0
 21
12.0
 31
0.0
  0
LINE
  8
0
 10
28.0
 20
18.0
 30
0.0
 11
28.0
 21
0.0
 31
0.0
  0
LINE
  8
0
 10
14.0
 20
18.0
 30
0.0
 11
44.0
 21
18.0
 31
0.0
  0
LINE
  8
0
 10
14.0
 20
24.0
 30
0.0
 11
14.0
 21
0.0
 31
0.0
  0
LINE
  8
0
 10
0.0
 20
24.0
 30
0.0
 11
44.0
 21
24.0
 31
0.0
  0
LINE
  8
0
 10
44.0
 20
0.0
 30
0.0
 11
44.0
 21
30.0
 31
0.0
  0
LINE
  8
0
 10
0.0
 20
0.0
 30
0.0
 11
44.0
 21
0.0
 31
0.0
  0
LINE
  8
0
 10
0.0
 20
30.0
 30
0.0
 11
0.0
 21
0.0
 31
0.0
  0
LINE
  8
0
 10
44.0
 20
30.0
 30
0.0
 11
0.0
 21
30.0
 31
0.0
  0
ENDBLK
  8
0
  0
BLOCK
  8
0
  2
ABBA3V
 70
    64
 10
0.0
 20
0.0
 30
0.0
  3
ABBA3V
  0
TEXT
  8
RAAMI
  6
DASHED
 10
292.217194
 20
11.813359
 30
0.0
 40
3.0
  1
A3
  7
GREEKS
  0
TEXT
  8
RAAMI
  6
DASHED
 10
351.818577
 20
15.69253
 30
0.0
 40
1.4
  1
LEHTI SHEET
  7
GREEKS
  0
LINE
  8
PAKSU
 10
0.237099
 20
262.737999
 30
0.0
 11
392.237099
 21
262.737999
 31
0.0
  0
LINE
  8
RAAMI
 10
18.237099
 20
0.237999
 30
0.0
 11
0.237099
 21
0.237999
 31
0.0
  0
LINE
  8
PAKSU
 10
209.237099
 20
0.237999
 30
0.0
 11
392.237099
 21
0.237999
 31
0.0
  0
LINE
  8
PAKSU
 10
209.237099
 20
0.237999
 30
0.0
 11
209.237099
 21
35.237999
 31
0.0
  0
LINE
  8
PAKSU
 10
392.237099
 20
0.237999
 30
0.0
 11
392.237099
 21
35.237999
 31
0.0
  0
LINE
  8
OHUT
 10
209.237099
 20
18.237999
 30
0.0
 11
392.237099
 21
18.237999
 31
0.0
  0
LINE
  8
OHUT
 10
209.237099
 20
9.737999
 30
0.0
 11
392.237099
 21
9.737999
 31
0.0
  0
LINE
  8
OHUT
 10
209.237099
 20
26.737999
 30
0.0
 11
307.237099
 21
26.737999
 31
0.0
  0
LINE
  8
PAKSU
 10
209.237099
 20
35.237999
 30
0.0
 11
392.237099
 21
35.237999
 31
0.0
  0
TEXT
  8
RAAMI
 10
210.237099
 20
23.971333
 30
0.0
 40
1.4
  1
TARKASTI  CHECKED
  7
ROMANS
  0
TEXT
  8
RAAMI
 10
209.979934
 20
15.704666
 30
0.0
 40
1.4
  1
HYVÄKSYI  APPROVED
  7
ROMANS
  0
LINE
  8
OHUT
 10
307.237099
 20
0.237999
 30
0.0
 11
307.237099
 21
35.237999
 31
0.0
  0
TEXT
  8
RAAMI
 10
259.237099
 20
32.737999
 30
0.0
 40
1.4
  1
LIITTYY  CONCERNING
  7
ROMANS
  0
TEXT
  8
RAAMI
 10
259.237099
 20
23.737999
 30
0.0
 40
1.4
  1
TOLERANSSIT  TOLERANCES
  7
ROMANS
  0
TEXT
  8
RAAMI
 10
259.237099
 20
15.737999
 30
0.0
 40
1.4
  1
SUHDE  SCALE
  7
ROMANS
  0
TEXT
  8
RAAMI
 10
309.237099
 20
32.737999
 30
0.0
 40
1.4
  1
NIMITYS  NAME
  7
ROMANS
  0
TEXT
  8
RAAMI
 10
309.237099
 20
15.737999
 30
0.0
 40
1.4
  1
KOODI  CODE
  7
ROMANS
  0
TEXT
  8
RAAMI
 10
309.237099
 20
7.237999
 30
0.0
 40
1.4
  1
PIIRUSTUS NO  DRAWING NR
  7
ROMANS
  0
LINE
  8
OHUT
 10
349.737099
 20
9.737999
 30
0.0
 11
349.737099
 21
18.237999
 31
0.0
  0
TEXT
  8
RAAMI
 10
371.237099
 20
7.237999
 30
0.0
 40
1.4
  1
PAINOS  REVISION
  7
ROMANS
  0
LINE
  8
OHUT
 10
369.737099
 20
9.737999
 30
0.0
 11
369.737099
 21
0.237999
 31
0.0
  0
LINE
  8
RAAMI
 10
210.187099
 20
1.737999
 30
0.0
 11
211.937099
 21
1.737999
 31
0.0
  0
LINE
  8
RAAMI
 10
215.437099
 20
1.737999
 30
0.0
 11
217.187099
 21
1.737999
 31
0.0
  0
LINE
  8
RAAMI
 10
212.637099
 20
8.737999
 30
0.0
 11
211.459571
 21
5.373634
 31
0.0
  0
LINE
  8
RAAMI
 10
212.425886
 20
3.137999
 30
0.0
 11
213.547099
 21
3.137999
 31
0.0
  0
LINE
  8
RAAMI
 10
212.425889
 20
3.134542
 30
0.0
 11
211.937099
 21
1.737999
 31
0.0
  0
LINE
  8
RAAMI
 10
214.737099
 20
8.737999
 30
0.0
 11
215.913452
 21
5.376991
 31
0.0
  0
LINE
  8
RAAMI
 10
214.948197
 20
3.134863
 30
0.0
 11
215.437099
 21
1.737999
 31
0.0
  0
LINE
  8
RAAMI
 10
214.737099
 20
8.737999
 30
0.0
 11
213.827099
 21
8.737999
 31
0.0
  0
LINE
  8
RAAMI
 10
213.547099
 20
8.737999
 30
0.0
 11
213.547099
 21
5.377999
 31
0.0
  0
LINE
  8
RAAMI
 10
213.827099
 20
8.737999
 30
0.0
 11
213.827099
 21
5.377999
 31
0.0
  0
LINE
  8
RAAMI
 10
213.827099
 20
3.137999
 30
0.0
 11
214.946992
 21
3.137999
 31
0.0
  0
LINE
  8
RAAMI
 10
213.547099
 20
8.737999
 30
0.0
 11
212.637099
 21
8.737999
 31
0.0
  0
LINE
  8
RAAMI
 10
211.45904
 20
5.377999
 30
0.0
 11
213.547099
 21
5.377999
 31
0.0
  0
LINE
  8
RAAMI
 10
211.360082
 20
5.097999
 30
0.0
 11
213.547099
 21
5.097999
 31
0.0
  0
LINE
  8
RAAMI
 10
216.011591
 20
5.096594
 30
0.0
 11
217.187099
 21
1.737999
 31
0.0
  0
LINE
  8
RAAMI
 10
213.827099
 20
5.377999
 30
0.0
 11
215.912213
 21
5.377999
 31
0.0
  0
LINE
  8
RAAMI
 10
213.827099
 20
5.097999
 30
0.0
 11
216.010356
 21
5.097999
 31
0.0
  0
LINE
  8
RAAMI
 10
213.827099
 20
5.097999
 30
0.0
 11
213.827099
 21
3.137999
 31
0.0
  0
LINE
  8
RAAMI
 10
213.547099
 20
5.097999
 30
0.0
 11
213.547099
 21
3.137999
 31
0.0
  0
LINE
  8
RAAMI
 10
211.356988
 20
5.080538
 30
0.0
 11
210.187099
 21
1.737999
 31
0.0
  0
INSERT
  8
RAAMI
  2
*X14
 10
210.187099
 20
1.737999
 30
0.0
 41
0.7
 42
0.7
 43
0.7
  0
INSERT
  8
RAAMI
  2
*X15
 10
210.187099
 20
1.737999
 30
0.0
 41
0.7
 42
0.7
 43
0.7
  0
INSERT
  8
RAAMI
  2
*X16
 10
210.187099
 20
1.737999
 30
0.0
 41
0.7
 42
0.7
 43
0.7
  0
INSERT
  8
RAAMI
  2
*X17
 10
210.187099
 20
1.737999
 30
0.0
 41
0.7
 42
0.7
 43
0.7
  0
LINE
  8
RAAMI
 10
217.677099
 20
1.737999
 30
0.0
 11
217.677099
 21
5.097999
 31
0.0
  0
LINE
  8
RAAMI
 10
217.677099
 20
8.737999
 30
0.0
 11
219.637099
 21
8.737999
 31
0.0
  0
LINE
  8
RAAMI
 10
219.637099
 20
8.737999
 30
0.0
 11
219.637099
 21
5.377999
 31
0.0
  0
LINE
  8
RAAMI
 10
219.637099
 20
5.377999
 30
0.0
 11
217.677099
 21
5.377999
 31
0.0
  0
LINE
  8
RAAMI
 10
217.677099
 20
5.097999
 30
0.0
 11
219.637099
 21
5.097999
 31
0.0
  0
LINE
  8
RAAMI
 10
219.637099
 20
5.097999
 30
0.0
 11
219.637099
 21
1.737999
 31
0.0
  0
LINE
  8
RAAMI
 10
219.637099
 20
1.737999
 30
0.0
 11
217.677099
 21
1.737999
 31
0.0
  0
LINE
  8
RAAMI
 10
217.677099
 20
5.377999
 30
0.0
 11
217.677099
 21
8.737999
 31
0.0
  0
ARC
  8
RAAMI
 10
220.477099
 20
7.162999
 30
0.0
 40
1.575
 50
298.455859
 51
90.052437
  0
LINE
  8
RAAMI
 10
219.917099
 20
8.737999
 30
0.0
 11
220.475658
 21
8.737999
 31
0.0
  0
LINE
  8
RAAMI
 10
219.917099
 20
8.737999
 30
0.0
 11
219.917099
 21
5.377999
 31
0.0
  0
LINE
  8
RAAMI
 10
219.917099
 20
5.377999
 30
0.0
 11
221.901542
 21
5.377999
 31
0.0
  0
LINE
  8
RAAMI
 10
222.157099
 20
5.097999
 30
0.0
 11
219.917099
 21
5.097999
 31
0.0
  0
LINE
  8
RAAMI
 10
219.917099
 20
5.097999
 30
0.0
 11
219.917099
 21
1.737999
 31
0.0
  0
ARC
  8
RAAMI
 10
220.477099
 20
3.837999
 30
0.0
 40
2.1
 50
269.937724
 51
37.056553
  0
LINE
  8
RAAMI
 10
219.917099
 20
1.737999
 30
0.0
 11
220.474817
 21
1.738
 31
0.0
  0
ARC
  8
RAAMI
 10
220.477099
 20
3.837999
 30
0.0
 40
2.1
 50
47.28622
 51
68.787999
  0
INSERT
  8
RAAMI
  2
*X18
 10
210.187099
 20
1.737999
 30
0.0
 41
0.7
 42
0.7
 43
0.7
  0
INSERT
  8
RAAMI
  2
*X19
 10
210.187099
 20
1.737999
 30
0.0
 41
0.7
 42
0.7
 43
0.7
  0
INSERT
  8
RAAMI
  2
*X20
 10
210.187099
 20
1.737999
 30
0.0
 41
0.7
 42
0.7
 43
0.7
  0
INSERT
  8
RAAMI
  2
*X21
 10
210.187099
 20
1.737999
 30
0.0
 41
0.7
 42
0.7
 43
0.7
  0
INSERT
  8
RAAMI
  2
*X21
 10
215.647099
 20
1.737999
 30
0.0
 41
0.7
 42
0.7
 43
0.7
  0
INSERT
  8
RAAMI
  2
*X20
 10
215.647099
 20
1.737999
 30
0.0
 41
0.7
 42
0.7
 43
0.7
  0
INSERT
  8
RAAMI
  2
*X19
 10
215.647099
 20
1.737999
 30
0.0
 41
0.7
 42
0.7
 43
0.7
  0
INSERT
  8
RAAMI
  2
*X18
 10
215.647099
 20
1.737999
 30
0.0
 41
0.7
 42
0.7
 43
0.7
  0
ARC
  8
RAAMI
 10
225.937099
 20
3.837999
 30
0.0
 40
2.1
 50
47.28622
 51
68.787999
  0
LINE
  8
RAAMI
 10
225.377099
 20
1.737999
 30
0.0
 11
225.934817
 21
1.738
 31
0.0
  0
ARC
  8
RAAMI
 10
225.937099
 20
3.837999
 30
0.0
 40
2.1
 50
269.937724
 51
37.056553
  0
LINE
  8
RAAMI
 10
225.377099
 20
5.097999
 30
0.0
 11
225.377099
 21
1.737999
 31
0.0
  0
LINE
  8
RAAMI
 10
227.617099
 20
5.097999
 30
0.0
 11
225.377099
 21
5.097999
 31
0.0
  0
LINE
  8
RAAMI
 10
225.377099
 20
5.377999
 30
0.0
 11
227.361542
 21
5.377999
 31
0.0
  0
LINE
  8
RAAMI
 10
225.377099
 20
8.737999
 30
0.0
 11
225.377099
 21
5.377999
 31
0.0
  0
LINE
  8
RAAMI
 10
225.377099
 20
8.737999
 30
0.0
 11
225.935658
 21
8.737999
 31
0.0
  0
ARC
  8
RAAMI
 10
225.937099
 20
7.162999
 30
0.0
 40
1.575
 50
298.455859
 51
90.052437
  0
LINE
  8
RAAMI
 10
223.137099
 20
5.377999
 30
0.0
 11
223.137099
 21
8.737999
 31
0.0
  0
LINE
  8
RAAMI
 10
225.097099
 20
1.737999
 30
0.0
 11
223.137099
 21
1.737999
 31
0.0
  0
LINE
  8
RAAMI
 10
225.097099
 20
5.097999
 30
0.0
 11
225.097099
 21
1.737999
 31
0.0
  0
LINE
  8
RAAMI
 10
223.137099
 20
5.097999
 30
0.0
 11
225.097099
 21
5.097999
 31
0.0
  0
LINE
  8
RAAMI
 10
225.097099
 20
5.377999
 30
0.0
 11
223.137099
 21
5.377999
 31
0.0
  0
LINE
  8
RAAMI
 10
225.097099
 20
8.737999
 30
0.0
 11
225.097099
 21
5.377999
 31
0.0
  0
LINE
  8
RAAMI
 10
223.137099
 20
8.737999
 30
0.0
 11
225.097099
 21
8.737999
 31
0.0
  0
LINE
  8
RAAMI
 10
223.137099
 20
1.737999
 30
0.0
 11
223.137099
 21
5.097999
 31
0.0
  0
TEXT
  8
RAAMI
 10
229.737099
 20
1.737999
 30
0.0
 40
3.0
  1
ABB 
 41
0.8
  7
ROMANS
  0
TEXT
  8
RAAMI
 10
237.737099
 20
1.737999
 30
0.0
 40
3.0
  1
Strömberg
 41
0.8
  7
ROMANS
  0
LINE
  8
OHUT
 10
282.237099
 20
9.737999
 30
0.0
 11
282.237099
 21
18.237999
 31
0.0
  0
TEXT
  8
RAAMI
 10
27.737099
 20
4.737999
 30
0.0
 40
1.4
  1
MUUTOS
  7
ROMANS
  0
TEXT
  8
RAAMI
 10
27.737099
 20
2.471333
 30
0.0
 40
1.4
  1
REVISION
  7
ROMANS
  0
LINE
  8
OHUT
 10
46.737099
 20
9.237999
 30
0.0
 11
209.237099
 21
9.237999
 31
0.0
  0
LINE
  8
OHUT
 10
46.737099
 20
0.237999
 30
0.0
 11
46.737099
 21
9.237999
 31
0.0
  0
LINE
  8
OHUT
 10
40.737099
 20
4.737999
 30
0.0
 11
209.237099
 21
4.737999
 31
0.0
  0
LINE
  8
OHUT
 10
257.237099
 20
9.737999
 30
0.0
 11
257.237099
 21
35.237999
 31
0.0
  0
LINE
  8
OHUT
 10
271.237099
 20
9.737999
 30
0.0
 11
271.237099
 21
0.237999
 31
0.0
  0
TEXT
  8
RAAMI
 10
210.237099
 20
32.237999
 30
0.0
 40
1.4
  1
TEKI  PREPARED
  7
ROMANS
  0
TEXT
  8
RAAMI
 10
273.237099
 20
7.237999
 30
0.0
 40
1.4
  1
VAST.OSASTO RESP.DEPT.
  7
ROMANS
  0
TEXT
  8
RAAMI
 10
257.407006
 20
1.741783
 30
0.0
 40
3.0
  1
Power
 41
0.8
  7
ROMANS
  0
TEXT
  8
RAAMI
 10
42.237099
 20
1.195292
 30
0.0
 40
2.5
  1
B
  7
ROMANS
  0
TEXT
  8
RAAMI
 10
42.237099
 20
5.587508
 30
0.0
 40
2.5
  1
C
  7
ROMANS
  0
LINE
  8
PAKSU
 10
0.237099
 20
0.237999
 30
0.0
 11
392.237099
 21
0.237999
 31
0.0
  0
LINE
  8
PAKSU
 10
392.237099
 20
262.737999
 30
0.0
 11
392.237099
 21
0.237999
 31
0.0
  0
LINE
  8
PAKSU
 10
0.237099
 20
0.237999
 30
0.0
 11
0.237099
 21
262.737999
 31
0.0
  0
ENDBLK
  8
0
  0
BLOCK
  8
0
  2
*X14
 70
    65
 10
0.0
 20
0.0
 30
0.0
  3
*X
  0
LINE
  8
0
 62
     0
 10
2.284499
 20
6.52714
 30
0.0
 11
4.8
 21
9.042641
 31
0.0
  0
LINE
  8
0
 62
     0
 10
2.379686
 20
6.799104
 30
0.0
 11
4.8
 21
9.219417
 31
0.0
  0
LINE
  8
0
 62
     0
 10
2.474874
 20
7.071068
 30
0.0
 11
4.8
 21
9.396194
 31
0.0
  0
LINE
  8
0
 62
     0
 10
2.570061
 20
7.343032
 30
0.0
 11
4.8
 21
9.572971
 31
0.0
  0
LINE
  8
0
 62
     0
 10
2.665249
 20
7.614996
 30
0.0
 11
4.8
 21
9.749747
 31
0.0
  0
LINE
  8
0
 62
     0
 10
2.760436
 20
7.88696
 30
0.0
 11
4.8
 21
9.926524
 31
0.0
  0
LINE
  8
0
 62
     0
 10
2.855624
 20
8.158924
 30
0.0
 11
4.696699
 21
10.0
 31
0.0
  0
LINE
  8
0
 62
     0
 10
2.950811
 20
8.430889
 30
0.0
 11
4.519922
 21
10.0
 31
0.0
  0
LINE
  8
0
 62
     0
 10
3.045998
 20
8.702853
 30
0.0
 11
4.343146
 21
10.0
 31
0.0
  0
LINE
  8
0
 62
     0
 10
3.141186
 20
8.974817
 30
0.0
 11
4.166369
 21
10.0
 31
0.0
  0
LINE
  8
0
 62
     0
 10
3.236373
 20
9.246781
 30
0.0
 11
3.989592
 21
10.0
 31
0.0
  0
LINE
  8
0
 62
     0
 10
3.331561
 20
9.518745
 30
0.0
 11
3.812816
 21
10.0
 31
0.0
  0
LINE
  8
0
 62
     0
 10
3.426748
 20
9.790709
 30
0.0
 11
3.636039
 21
10.0
 31
0.0
  0
LINE
  8
0
 62
     0
 10
2.189311
 20
6.255175
 30
0.0
 11
4.8
 21
8.865864
 31
0.0
  0
LINE
  8
0
 62
     0
 10
2.094124
 20
5.983211
 30
0.0
 11
4.8
 21
8.689087
 31
0.0
  0
LINE
  8
0
 62
     0
 10
1.998936
 20
5.711247
 30
0.0
 11
4.8
 21
8.512311
 31
0.0
  0
LINE
  8
0
 62
     0
 10
1.903749
 20
5.439283
 30
0.0
 11
4.8
 21
8.335534
 31
0.0
  0
LINE
  8
0
 62
     0
 10
1.841243
 20
5.2
 30
0.0
 11
4.8
 21
8.158757
 31
0.0
  0
LINE
  8
0
 62
     0
 10
2.018019
 20
5.2
 30
0.0
 11
4.8
 21
7.981981
 31
0.0
  0
LINE
  8
0
 62
     0
 10
2.194796
 20
5.2
 30
0.0
 11
4.8
 21
7.805204
 31
0.0
  0
LINE
  8
0
 62
     0
 10
2.371573
 20
5.2
 30
0.0
 11
4.8
 21
7.628427
 31
0.0
  0
LINE
  8
0
 62
     0
 10
2.54835
 20
5.2
 30
0.0
 11
4.8
 21
7.45165
 31
0.0
  0
LINE
  8
0
 62
     0
 10
2.725126
 20
5.2
 30
0.0
 11
4.8
 21
7.274874
 31
0.0
  0
LINE
  8
0
 62
     0
 10
2.901903
 20
5.2
 30
0.0
 11
4.8
 21
7.098097
 31
0.0
  0
LINE
  8
0
 62
     0
 10
3.07868
 20
5.2
 30
0.0
 11
4.8
 21
6.92132
 31
0.0
  0
LINE
  8
0
 62
     0
 10
3.255456
 20
5.2
 30
0.0
 11
4.8
 21
6.744544
 31
0.0
  0
LINE
  8
0
 62
     0
 10
3.432233
 20
5.2
 30
0.0
 11
4.8
 21
6.567767
 31
0.0
  0
LINE
  8
0
 62
     0
 10
3.60901
 20
5.2
 30
0.0
 11
4.8
 21
6.39099
 31
0.0
  0
LINE
  8
0
 62
     0
 10
3.785786
 20
5.2
 30
0.0
 11
4.8
 21
6.214214
 31
0.0
  0
LINE
  8
0
 62
     0
 10
3.962563
 20
5.2
 30
0.0
 11
4.8
 21
6.037437
 31
0.0
  0
LINE
  8
0
 62
     0
 10
4.13934
 20
5.2
 30
0.0
 11
4.8
 21
5.86066
 31
0.0
  0
LINE
  8
0
 62
     0
 10
4.316117
 20
5.2
 30
0.0
 11
4.8
 21
5.683883
 31
0.0
  0
LINE
  8
0
 62
     0
 10
4.492893
 20
5.2
 30
0.0
 11
4.8
 21
5.507107
 31
0.0
  0
LINE
  8
0
 62
     0
 10
4.66967
 20
5.2
 30
0.0
 11
4.8
 21
5.33033
 31
0.0
  0
ENDBLK
  8
0
  0
BLOCK
  8
0
  2
*X15
 70
    65
 10
0.0
 20
0.0
 30
0.0
  3
*X
  0
LINE
  8
0
 62
     0
 10
5.2
 20
6.083883
 30
0.0
 11
7.178252
 21
8.062136
 31
0.0
  0
LINE
  8
0
 62
     0
 10
5.2
 20
6.26066
 30
0.0
 11
7.132421
 21
8.193082
 31
0.0
  0
LINE
  8
0
 62
     0
 10
5.2
 20
6.437437
 30
0.0
 11
7.08659
 21
8.324027
 31
0.0
  0
LINE
  8
0
 62
     0
 10
5.2
 20
6.614214
 30
0.0
 11
7.040759
 21
8.454973
 31
0.0
  0
LINE
  8
0
 62
     0
 10
5.2
 20
6.79099
 30
0.0
 11
6.994928
 21
8.585919
 31
0.0
  0
LINE
  8
0
 62
     0
 10
5.2
 20
6.967767
 30
0.0
 11
6.949097
 21
8.716864
 31
0.0
  0
LINE
  8
0
 62
     0
 10
5.2
 20
7.144544
 30
0.0
 11
6.903266
 21
8.84781
 31
0.0
  0
LINE
  8
0
 62
     0
 10
5.2
 20
7.32132
 30
0.0
 11
6.857435
 21
8.978756
 31
0.0
  0
LINE
  8
0
 62
     0
 10
5.2
 20
7.498097
 30
0.0
 11
6.811604
 21
9.109702
 31
0.0
  0
LINE
  8
0
 62
     0
 10
5.2
 20
7.674874
 30
0.0
 11
6.765773
 21
9.240647
 31
0.0
  0
LINE
  8
0
 62
     0
 10
5.2
 20
7.85165
 30
0.0
 11
6.719942
 21
9.371593
 31
0.0
  0
LINE
  8
0
 62
     0
 10
5.2
 20
8.028427
 30
0.0
 11
6.674111
 21
9.502539
 31
0.0
  0
LINE
  8
0
 62
     0
 10
5.2
 20
8.205204
 30
0.0
 11
6.62828
 21
9.633484
 31
0.0
  0
LINE
  8
0
 62
     0
 10
5.2
 20
8.381981
 30
0.0
 11
6.582449
 21
9.76443
 31
0.0
  0
LINE
  8
0
 62
     0
 10
5.2
 20
8.558757
 30
0.0
 11
6.536619
 21
9.895376
 31
0.0
  0
LINE
  8
0
 62
     0
 10
5.2
 20
8.735534
 30
0.0
 11
6.464466
 21
10.0
 31
0.0
  0
LINE
  8
0
 62
     0
 10
5.2
 20
8.912311
 30
0.0
 11
6.287689
 21
10.0
 31
0.0
  0
LINE
  8
0
 62
     0
 10
5.2
 20
9.089087
 30
0.0
 11
6.110913
 21
10.0
 31
0.0
  0
LINE
  8
0
 62
     0
 10
5.2
 20
9.265864
 30
0.0
 11
5.934136
 21
10.0
 31
0.0
  0
LINE
  8
0
 62
     0
 10
5.2
 20
9.442641
 30
0.0
 11
5.757359
 21
10.0
 31
0.0
  0
LINE
  8
0
 62
     0
 10
5.2
 20
9.619417
 30
0.0
 11
5.580583
 21
10.0
 31
0.0
  0
LINE
  8
0
 62
     0
 10
5.2
 20
9.796194
 30
0.0
 11
5.403806
 21
10.0
 31
0.0
  0
LINE
  8
0
 62
     0
 10
5.2
 20
9.972971
 30
0.0
 11
5.227029
 21
10.0
 31
0.0
  0
LINE
  8
0
 62
     0
 10
5.2
 20
5.907107
 30
0.0
 11
7.224083
 21
7.93119
 31
0.0
  0
LINE
  8
0
 62
     0
 10
5.2
 20
5.73033
 30
0.0
 11
7.269914
 21
7.800245
 31
0.0
  0
LINE
  8
0
 62
     0
 10
5.2
 20
5.553553
 30
0.0
 11
7.315745
 21
7.669299
 31
0.0
  0
LINE
  8
0
 62
     0
 10
5.2
 20
5.376777
 30
0.0
 11
7.361576
 21
7.538353
 31
0.0
  0
LINE
  8
0
 62
     0
 10
5.2
 20
5.2
 30
0.0
 11
7.407407
 21
7.407407
 31
0.0
  0
LINE
  8
0
 62
     0
 10
5.376777
 20
5.2
 30
0.0
 11
7.453238
 21
7.276462
 31
0.0
  0
LINE
  8
0
 62
     0
 10
5.553553
 20
5.2
 30
0.0
 11
7.499069
 21
7.145516
 31
0.0
  0
LINE
  8
0
 62
     0
 10
5.73033
 20
5.2
 30
0.0
 11
7.5449
 21
7.01457
 31
0.0
  0
LINE
  8
0
 62
     0
 10
5.907107
 20
5.2
 30
0.0
 11
7.590731
 21
6.883625
 31
0.0
  0
LINE
  8
0
 62
     0
 10
6.083883
 20
5.2
 30
0.0
 11
7.636562
 21
6.752679
 31
0.0
  0
LINE
  8
0
 62
     0
 10
6.26066
 20
5.2
 30
0.0
 11
7.682393
 21
6.621733
 31
0.0
  0
LINE
  8
0
 62
     0
 10
6.437437
 20
5.2
 30
0.0
 11
7.728224
 21
6.490788
 31
0.0
  0
LINE
  8
0
 62
     0
 10
6.614214
 20
5.2
 30
0.0
 11
7.774055
 21
6.359842
 31
0.0
  0
LINE
  8
0
 62
     0
 10
6.79099
 20
5.2
 30
0.0
 11
7.819886
 21
6.228896
 31
0.0
  0
LINE
  8
0
 62
     0
 10
6.967767
 20
5.2
 30
0.0
 11
7.865717
 21
6.09795
 31
0.0
  0
LINE
  8
0
 62
     0
 10
7.144544
 20
5.2
 30
0.0
 11
7.911548
 21
5.967005
 31
0.0
  0
LINE
  8
0
 62
     0
 10
7.32132
 20
5.2
 30
0.0
 11
7.957379
 21
5.836059
 31
0.0
  0
LINE
  8
0
 62
     0
 10
7.498097
 20
5.2
 30
0.0
 11
8.00321
 21
5.705113
 31
0.0
  0
LINE
  8
0
 62
     0
 10
7.674874
 20
5.2
 30
0.0
 11
8.049041
 21
5.574168
 31
0.0
  0
LINE
  8
0
 62
     0
 10
7.85165
 20
5.2
 30
0.0
 11
8.094872
 21
5.443222
 31
0.0
  0
LINE
  8
0
 62
     0
 10
8.028427
 20
5.2
 30
0.0
 11
8.140703
 21
5.312276
 31
0.0
  0
ENDBLK
  8
0
  0
BLOCK
  8
0
  2
*X16
 70
    65
 10
0.0
 20
0.0
 30
0.0
  3
*X
  0
LINE
  8
0
 62
     0
 10
0.0
 20
0.0
 30
0.0
 11
4.8
 21
4.8
 31
0.0
  0
LINE
  8
0
 62
     0
 10
0.095187
 20
0.271964
 30
0.0
 11
4.623223
 21
4.8
 31
0.0
  0
LINE
  8
0
 62
     0
 10
0.190375
 20
0.543928
 30
0.0
 11
4.446447
 21
4.8
 31
0.0
  0
LINE
  8
0
 62
     0
 10
0.285562
 20
0.815892
 30
0.0
 11
4.26967
 21
4.8
 31
0.0
  0
LINE
  8
0
 62
     0
 10
0.38075
 20
1.087857
 30
0.0
 11
4.092893
 21
4.8
 31
0.0
  0
LINE
  8
0
 62
     0
 10
0.475937
 20
1.359821
 30
0.0
 11
3.916117
 21
4.8
 31
0.0
  0
LINE
  8
0
 62
     0
 10
0.571125
 20
1.631785
 30
0.0
 11
3.73934
 21
4.8
 31
0.0
  0
LINE
  8
0
 62
     0
 10
0.666312
 20
1.903749
 30
0.0
 11
3.562563
 21
4.8
 31
0.0
  0
LINE
  8
0
 62
     0
 10
0.7615
 20
2.175713
 30
0.0
 11
3.385786
 21
4.8
 31
0.0
  0
LINE
  8
0
 62
     0
 10
0.856687
 20
2.447677
 30
0.0
 11
3.20901
 21
4.8
 31
0.0
  0
LINE
  8
0
 62
     0
 10
0.951875
 20
2.719641
 30
0.0
 11
3.032233
 21
4.8
 31
0.0
  0
LINE
  8
0
 62
     0
 10
1.047062
 20
2.991606
 30
0.0
 11
2.855456
 21
4.8
 31
0.0
  0
LINE
  8
0
 62
     0
 10
1.142249
 20
3.26357
 30
0.0
 11
2.67868
 21
4.8
 31
0.0
  0
LINE
  8
0
 62
     0
 10
1.237437
 20
3.535534
 30
0.0
 11
2.501903
 21
4.8
 31
0.0
  0
LINE
  8
0
 62
     0
 10
1.332624
 20
3.807498
 30
0.0
 11
2.325126
 21
4.8
 31
0.0
  0
LINE
  8
0
 62
     0
 10
1.427812
 20
4.079462
 30
0.0
 11
2.14835
 21
4.8
 31
0.0
  0
LINE
  8
0
 62
     0
 10
1.522999
 20
4.351426
 30
0.0
 11
1.971573
 21
4.8
 31
0.0
  0
LINE
  8
0
 62
     0
 10
1.618187
 20
4.62339
 30
0.0
 11
1.794796
 21
4.8
 31
0.0
  0
LINE
  8
0
 62
     0
 10
0.176777
 20
0.0
 30
0.0
 11
4.8
 21
4.623223
 31
0.0
  0
LINE
  8
0
 62
     0
 10
0.353553
 20
0.0
 30
0.0
 11
4.8
 21
4.446447
 31
0.0
  0
LINE
  8
0
 62
     0
 10
0.53033
 20
0.0
 30
0.0
 11
4.8
 21
4.26967
 31
0.0
  0
LINE
  8
0
 62
     0
 10
0.707107
 20
0.0
 30
0.0
 11
4.8
 21
4.092893
 31
0.0
  0
LINE
  8
0
 62
     0
 10
0.883883
 20
0.0
 30
0.0
 11
4.8
 21
3.916117
 31
0.0
  0
LINE
  8
0
 62
     0
 10
1.06066
 20
0.0
 30
0.0
 11
4.8
 21
3.73934
 31
0.0
  0
LINE
  8
0
 62
     0
 10
1.237437
 20
0.0
 30
0.0
 11
3.179842
 21
1.942405
 31
0.0
  0
LINE
  8
0
 62
     0
 10
3.237437
 20
2.0
 30
0.0
 11
4.8
 21
3.562563
 31
0.0
  0
LINE
  8
0
 62
     0
 10
1.414214
 20
0.0
 30
0.0
 11
3.084654
 21
1.670441
 31
0.0
  0
LINE
  8
0
 62
     0
 10
3.414214
 20
2.0
 30
0.0
 11
4.8
 21
3.385786
 31
0.0
  0
LINE
  8
0
 62
     0
 10
1.59099
 20
0.0
 30
0.0
 11
2.989467
 21
1.398477
 31
0.0
  0
LINE
  8
0
 62
     0
 10
3.59099
 20
2.0
 30
0.0
 11
4.8
 21
3.20901
 31
0.0
  0
LINE
  8
0
 62
     0
 10
1.767767
 20
0.0
 30
0.0
 11
2.894279
 21
1.126512
 31
0.0
  0
LINE
  8
0
 62
     0
 10
3.767767
 20
2.0
 30
0.0
 11
4.8
 21
3.032233
 31
0.0
  0
LINE
  8
0
 62
     0
 10
1.944544
 20
0.0
 30
0.0
 11
2.799092
 21
0.854548
 31
0.0
  0
LINE
  8
0
 62
     0
 10
3.944544
 20
2.0
 30
0.0
 11
4.8
 21
2.855456
 31
0.0
  0
LINE
  8
0
 62
     0
 10
2.12132
 20
0.0
 30
0.0
 11
2.703904
 21
0.582584
 31
0.0
  0
LINE
  8
0
 62
     0
 10
4.12132
 20
2.0
 30
0.0
 11
4.8
 21
2.67868
 31
0.0
  0
LINE
  8
0
 62
     0
 10
2.298097
 20
0.0
 30
0.0
 11
2.608717
 21
0.31062
 31
0.0
  0
LINE
  8
0
 62
     0
 10
4.298097
 20
2.0
 30
0.0
 11
4.8
 21
2.501903
 31
0.0
  0
LINE
  8
0
 62
     0
 10
2.474874
 20
0.0
 30
0.0
 11
2.51353
 21
0.038656
 31
0.0
  0
LINE
  8
0
 62
     0
 10
4.474874
 20
2.0
 30
0.0
 11
4.8
 21
2.325126
 31
0.0
  0
LINE
  8
0
 62
     0
 10
4.65165
 20
2.0
 30
0.0
 11
4.8
 21
2.14835
 31
0.0
  0
ENDBLK
  8
0
  0
BLOCK
  8
0
  2
*X17
 70
    65
 10
0.0
 20
0.0
 30
0.0
  3
*X
  0
LINE
  8
0
 62
     0
 10
6.884654
 20
1.75813
 30
0.0
 11
8.736506
 21
3.609982
 31
0.0
  0
LINE
  8
0
 62
     0
 10
6.838823
 20
1.889076
 30
0.0
 11
8.690675
 21
3.740928
 31
0.0
  0
LINE
  8
0
 62
     0
 10
6.772971
 20
2.0
 30
0.0
 11
8.644844
 21
3.871874
 31
0.0
  0
LINE
  8
0
 62
     0
 10
6.596194
 20
2.0
 30
0.0
 11
8.599013
 21
4.002819
 31
0.0
  0
LINE
  8
0
 62
     0
 10
6.419417
 20
2.0
 30
0.0
 11
8.553182
 21
4.133765
 31
0.0
  0
LINE
  8
0
 62
     0
 10
6.242641
 20
2.0
 30
0.0
 11
8.507351
 21
4.264711
 31
0.0
  0
LINE
  8
0
 62
     0
 10
6.065864
 20
2.0
 30
0.0
 11
8.46152
 21
4.395656
 31
0.0
  0
LINE
  8
0
 62
     0
 10
5.889087
 20
2.0
 30
0.0
 11
8.415689
 21
4.526602
 31
0.0
  0
LINE
  8
0
 62
     0
 10
5.712311
 20
2.0
 30
0.0
 11
8.369858
 21
4.657548
 31
0.0
  0
LINE
  8
0
 62
     0
 10
5.535534
 20
2.0
 30
0.0
 11
8.324027
 21
4.788493
 31
0.0
  0
LINE
  8
0
 62
     0
 10
5.358757
 20
2.0
 30
0.0
 11
8.158757
 21
4.8
 31
0.0
  0
LINE
  8
0
 62
     0
 10
5.2
 20
2.018019
 30
0.0
 11
7.981981
 21
4.8
 31
0.0
  0
LINE
  8
0
 62
     0
 10
5.2
 20
2.194796
 30
0.0
 11
7.805204
 21
4.8
 31
0.0
  0
LINE
  8
0
 62
     0
 10
5.2
 20
2.371573
 30
0.0
 11
7.628427
 21
4.8
 31
0.0
  0
LINE
  8
0
 62
     0
 10
5.2
 20
2.54835
 30
0.0
 11
7.45165
 21
4.8
 31
0.0
  0
LINE
  8
0
 62
     0
 10
5.2
 20
2.725126
 30
0.0
 11
7.274874
 21
4.8
 31
0.0
  0
LINE
  8
0
 62
     0
 10
5.2
 20
2.901903
 30
0.0
 11
7.098097
 21
4.8
 31
0.0
  0
LINE
  8
0
 62
     0
 10
5.2
 20
3.07868
 30
0.0
 11
6.92132
 21
4.8
 31
0.0
  0
LINE
  8
0
 62
     0
 10
5.2
 20
3.255456
 30
0.0
 11
6.744544
 21
4.8
 31
0.0
  0
LINE
  8
0
 62
     0
 10
5.2
 20
3.432233
 30
0.0
 11
6.567767
 21
4.8
 31
0.0
  0
LINE
  8
0
 62
     0
 10
5.2
 20
3.60901
 30
0.0
 11
6.39099
 21
4.8
 31
0.0
  0
LINE
  8
0
 62
     0
 10
5.2
 20
3.785786
 30
0.0
 11
6.214214
 21
4.8
 31
0.0
  0
LINE
  8
0
 62
     0
 10
5.2
 20
3.962563
 30
0.0
 11
6.037437
 21
4.8
 31
0.0
  0
LINE
  8
0
 62
     0
 10
5.2
 20
4.13934
 30
0.0
 11
5.86066
 21
4.8
 31
0.0
  0
LINE
  8
0
 62
     0
 10
5.2
 20
4.316117
 30
0.0
 11
5.683883
 21
4.8
 31
0.0
  0
LINE
  8
0
 62
     0
 10
5.2
 20
4.492893
 30
0.0
 11
5.507107
 21
4.8
 31
0.0
  0
LINE
  8
0
 62
     0
 10
5.2
 20
4.66967
 30
0.0
 11
5.33033
 21
4.8
 31
0.0
  0
LINE
  8
0
 62
     0
 10
6.930485
 20
1.627185
 30
0.0
 11
8.782337
 21
3.479036
 31
0.0
  0
LINE
  8
0
 62
     0
 10
6.976316
 20
1.496239
 30
0.0
 11
8.828168
 21
3.348091
 31
0.0
  0
LINE
  8
0
 62
     0
 10
7.022147
 20
1.365293
 30
0.0
 11
8.873999
 21
3.217145
 31
0.0
  0
LINE
  8
0
 62
     0
 10
7.067978
 20
1.234347
 30
0.0
 11
8.91983
 21
3.086199
 31
0.0
  0
LINE
  8
0
 62
     0
 10
7.113809
 20
1.103402
 30
0.0
 11
8.965661
 21
2.955254
 31
0.0
  0
LINE
  8
0
 62
     0
 10
7.15964
 20
0.972456
 30
0.0
 11
9.011492
 21
2.824308
 31
0.0
  0
LINE
  8
0
 62
     0
 10
7.205471
 20
0.84151
 30
0.0
 11
9.057323
 21
2.693362
 31
0.0
  0
LINE
  8
0
 62
     0
 10
7.251302
 20
0.710565
 30
0.0
 11
9.103154
 21
2.562416
 31
0.0
  0
LINE
  8
0
 62
     0
 10
7.297133
 20
0.579619
 30
0.0
 11
9.148985
 21
2.431471
 31
0.0
  0
LINE
  8
0
 62
     0
 10
7.342964
 20
0.448673
 30
0.0
 11
9.194816
 21
2.300525
 31
0.0
  0
LINE
  8
0
 62
     0
 10
7.388795
 20
0.317728
 30
0.0
 11
9.240647
 21
2.169579
 31
0.0
  0
LINE
  8
0
 62
     0
 10
7.434626
 20
0.186782
 30
0.0
 11
9.286478
 21
2.038634
 31
0.0
  0
LINE
  8
0
 62
     0
 10
7.480457
 20
0.055836
 30
0.0
 11
9.332309
 21
1.907688
 31
0.0
  0
LINE
  8
0
 62
     0
 10
7.601398
 20
0.0
 30
0.0
 11
9.37814
 21
1.776742
 31
0.0
  0
LINE
  8
0
 62
     0
 10
7.778175
 20
0.0
 30
0.0
 11
9.423971
 21
1.645797
 31
0.0
  0
LINE
  8
0
 62
     0
 10
7.954951
 20
0.0
 30
0.0
 11
9.469802
 21
1.514851
 31
0.0
  0
LINE
  8
0
 62
     0
 10
8.131728
 20
0.0
 30
0.0
 11
9.515633
 21
1.383905
 31
0.0
  0
LINE
  8
0
 62
     0
 10
8.308505
 20
0.0
 30
0.0
 11
9.561464
 21
1.252959
 31
0.0
  0
LINE
  8
0
 62
     0
 10
8.485281
 20
0.0
 30
0.0
 11
9.607295
 21
1.122014
 31
0.0
  0
LINE
  8
0
 62
     0
 10
8.662058
 20
0.0
 30
0.0
 11
9.653126
 21
0.991068
 31
0.0
  0
LINE
  8
0
 62
     0
 10
8.838835
 20
0.0
 30
0.0
 11
9.698957
 21
0.860122
 31
0.0
  0
LINE
  8
0
 62
     0
 10
9.015611
 20
0.0
 30
0.0
 11
9.744788
 21
0.729177
 31
0.0
  0
LINE
  8
0
 62
     0
 10
9.192388
 20
0.0
 30
0.0
 11
9.790619
 21
0.598231
 31
0.0
  0
LINE
  8
0
 62
     0
 10
9.369165
 20
0.0
 30
0.0
 11
9.83645
 21
0.467285
 31
0.0
  0
LINE
  8
0
 62
     0
 10
9.545942
 20
0.0
 30
0.0
 11
9.882281
 21
0.33634
 31
0.0
  0
LINE
  8
0
 62
     0
 10
9.722718
 20
0.0
 30
0.0
 11
9.928112
 21
0.205394
 31
0.0
  0
LINE
  8
0
 62
     0
 10
9.899495
 20
0.0
 30
0.0
 11
9.973943
 21
0.074448
 31
0.0
  0
ENDBLK
  8
0
  0
BLOCK
  8
0
  2
*X18
 70
    65
 10
0.0
 20
0.0
 30
0.0
  3
*X
  0
LINE
  8
0
 62
     0
 10
10.7
 20
6.280583
 30
0.0
 11
13.5
 21
9.080583
 31
0.0
  0
LINE
  8
0
 62
     0
 10
10.7
 20
6.457359
 30
0.0
 11
13.5
 21
9.257359
 31
0.0
  0
LINE
  8
0
 62
     0
 10
10.7
 20
6.634136
 30
0.0
 11
13.5
 21
9.434136
 31
0.0
  0
LINE
  8
0
 62
     0
 10
10.7
 20
6.810913
 30
0.0
 11
13.5
 21
9.610913
 31
0.0
  0
LINE
  8
0
 62
     0
 10
10.7
 20
6.987689
 30
0.0
 11
13.5
 21
9.787689
 31
0.0
  0
LINE
  8
0
 62
     0
 10
10.7
 20
7.164466
 30
0.0
 11
13.5
 21
9.964466
 31
0.0
  0
LINE
  8
0
 62
     0
 10
10.7
 20
7.341243
 30
0.0
 11
13.358757
 21
10.0
 31
0.0
  0
LINE
  8
0
 62
     0
 10
10.7
 20
7.518019
 30
0.0
 11
13.181981
 21
10.0
 31
0.0
  0
LINE
  8
0
 62
     0
 10
10.7
 20
7.694796
 30
0.0
 11
13.005204
 21
10.0
 31
0.0
  0
LINE
  8
0
 62
     0
 10
10.7
 20
7.871573
 30
0.0
 11
12.828427
 21
10.0
 31
0.0
  0
LINE
  8
0
 62
     0
 10
10.7
 20
8.04835
 30
0.0
 11
12.65165
 21
10.0
 31
0.0
  0
LINE
  8
0
 62
     0
 10
10.7
 20
8.225126
 30
0.0
 11
12.474874
 21
10.0
 31
0.0
  0
LINE
  8
0
 62
     0
 10
10.7
 20
8.401903
 30
0.0
 11
12.298097
 21
10.0
 31
0.0
  0
LINE
  8
0
 62
     0
 10
10.7
 20
8.57868
 30
0.0
 11
12.12132
 21
10.0
 31
0.0
  0
LINE
  8
0
 62
     0
 10
10.7
 20
8.755456
 30
0.0
 11
11.944544
 21
10.0
 31
0.0
  0
LINE
  8
0
 62
     0
 10
10.7
 20
8.932233
 30
0.0
 11
11.767767
 21
10.0
 31
0.0
  0
LINE
  8
0
 62
     0
 10
10.7
 20
9.10901
 30
0.0
 11
11.59099
 21
10.0
 31
0.0
  0
LINE
  8
0
 62
     0
 10
10.7
 20
9.285786
 30
0.0
 11
11.414214
 21
10.0
 31
0.0
  0
LINE
  8
0
 62
     0
 10
10.7
 20
9.462563
 30
0.0
 11
11.237437
 21
10.0
 31
0.0
  0
LINE
  8
0
 62
     0
 10
10.7
 20
9.63934
 30
0.0
 11
11.06066
 21
10.0
 31
0.0
  0
LINE
  8
0
 62
     0
 10
10.7
 20
9.816117
 30
0.0
 11
10.883883
 21
10.0
 31
0.0
  0
LINE
  8
0
 62
     0
 10
10.7
 20
9.992893
 30
0.0
 11
10.707107
 21
10.0
 31
0.0
  0
LINE
  8
0
 62
     0
 10
10.7
 20
6.103806
 30
0.0
 11
13.5
 21
8.903806
 31
0.0
  0
LINE
  8
0
 62
     0
 10
10.7
 20
5.927029
 30
0.0
 11
13.5
 21
8.727029
 31
0.0
  0
LINE
  8
0
 62
     0
 10
10.7
 20
5.750253
 30
0.0
 11
13.5
 21
8.550253
 31
0.0
  0
LINE
  8
0
 62
     0
 10
10.7
 20
5.573476
 30
0.0
 11
13.5
 21
8.373476
 31
0.0
  0
LINE
  8
0
 62
     0
 10
10.7
 20
5.396699
 30
0.0
 11
13.5
 21
8.196699
 31
0.0
  0
LINE
  8
0
 62
     0
 10
10.7
 20
5.219922
 30
0.0
 11
13.5
 21
8.019922
 31
0.0
  0
LINE
  8
0
 62
     0
 10
10.856854
 20
5.2
 30
0.0
 11
13.5
 21
7.843146
 31
0.0
  0
LINE
  8
0
 62
     0
 10
11.033631
 20
5.2
 30
0.0
 11
13.5
 21
7.666369
 31
0.0
  0
LINE
  8
0
 62
     0
 10
11.210408
 20
5.2
 30
0.0
 11
13.5
 21
7.489592
 31
0.0
  0
LINE
  8
0
 62
     0
 10
11.387184
 20
5.2
 30
0.0
 11
13.5
 21
7.312816
 31
0.0
  0
LINE
  8
0
 62
     0
 10
11.563961
 20
5.2
 30
0.0
 11
13.5
 21
7.136039
 31
0.0
  0
LINE
  8
0
 62
     0
 10
11.740738
 20
5.2
 30
0.0
 11
13.5
 21
6.959262
 31
0.0
  0
LINE
  8
0
 62
     0
 10
11.917514
 20
5.2
 30
0.0
 11
13.5
 21
6.782486
 31
0.0
  0
LINE
  8
0
 62
     0
 10
12.094291
 20
5.2
 30
0.0
 11
13.5
 21
6.605709
 31
0.0
  0
LINE
  8
0
 62
     0
 10
12.271068
 20
5.2
 30
0.0
 11
13.5
 21
6.428932
 31
0.0
  0
LINE
  8
0
 62
     0
 10
12.447845
 20
5.2
 30
0.0
 11
13.5
 21
6.252155
 31
0.0
  0
LINE
  8
0
 62
     0
 10
12.624621
 20
5.2
 30
0.0
 11
13.5
 21
6.075379
 31
0.0
  0
LINE
  8
0
 62
     0
 10
12.801398
 20
5.2
 30
0.0
 11
13.5
 21
5.898602
 31
0.0
  0
LINE
  8
0
 62
     0
 10
12.978175
 20
5.2
 30
0.0
 11
13.5
 21
5.721825
 31
0.0
  0
LINE
  8
0
 62
     0
 10
13.154951
 20
5.2
 30
0.0
 11
13.5
 21
5.545049
 31
0.0
  0
LINE
  8
0
 62
     0
 10
13.331728
 20
5.2
 30
0.0
 11
13.5
 21
5.368272
 31
0.0
  0
ENDBLK
  8
0
  0
BLOCK
  8
0
  2
*X19
 70
    65
 10
0.0
 20
0.0
 30
0.0
  3
*X
  0
LINE
  8
0
 62
     0
 10
10.7
 20
1.154058
 30
0.0
 11
13.5
 21
3.954058
 31
0.0
  0
LINE
  8
0
 62
     0
 10
10.7
 20
1.330835
 30
0.0
 11
13.5
 21
4.130835
 31
0.0
  0
LINE
  8
0
 62
     0
 10
10.7
 20
1.507612
 30
0.0
 11
13.5
 21
4.307612
 31
0.0
  0
LINE
  8
0
 62
     0
 10
10.7
 20
1.684389
 30
0.0
 11
13.5
 21
4.484389
 31
0.0
  0
LINE
  8
0
 62
     0
 10
10.7
 20
1.861165
 30
0.0
 11
13.5
 21
4.661165
 31
0.0
  0
LINE
  8
0
 62
     0
 10
10.7
 20
2.037942
 30
0.0
 11
13.462058
 21
4.8
 31
0.0
  0
LINE
  8
0
 62
     0
 10
10.7
 20
2.214719
 30
0.0
 11
13.285281
 21
4.8
 31
0.0
  0
LINE
  8
0
 62
     0
 10
10.7
 20
2.391495
 30
0.0
 11
13.108505
 21
4.8
 31
0.0
  0
LINE
  8
0
 62
     0
 10
10.7
 20
2.568272
 30
0.0
 11
12.931728
 21
4.8
 31
0.0
  0
LINE
  8
0
 62
     0
 10
10.7
 20
2.745049
 30
0.0
 11
12.754951
 21
4.8
 31
0.0
  0
LINE
  8
0
 62
     0
 10
10.7
 20
2.921825
 30
0.0
 11
12.578175
 21
4.8
 31
0.0
  0
LINE
  8
0
 62
     0
 10
10.7
 20
3.098602
 30
0.0
 11
12.401398
 21
4.8
 31
0.0
  0
LINE
  8
0
 62
     0
 10
10.7
 20
3.275379
 30
0.0
 11
12.224621
 21
4.8
 31
0.0
  0
LINE
  8
0
 62
     0
 10
10.7
 20
3.452155
 30
0.0
 11
12.047845
 21
4.8
 31
0.0
  0
LINE
  8
0
 62
     0
 10
10.7
 20
3.628932
 30
0.0
 11
11.871068
 21
4.8
 31
0.0
  0
LINE
  8
0
 62
     0
 10
10.7
 20
3.805709
 30
0.0
 11
11.694291
 21
4.8
 31
0.0
  0
LINE
  8
0
 62
     0
 10
10.7
 20
3.982486
 30
0.0
 11
11.517514
 21
4.8
 31
0.0
  0
LINE
  8
0
 62
     0
 10
10.7
 20
4.159262
 30
0.0
 11
11.340738
 21
4.8
 31
0.0
  0
LINE
  8
0
 62
     0
 10
10.7
 20
4.336039
 30
0.0
 11
11.163961
 21
4.8
 31
0.0
  0
LINE
  8
0
 62
     0
 10
10.7
 20
4.512816
 30
0.0
 11
10.987184
 21
4.8
 31
0.0
  0
LINE
  8
0
 62
     0
 10
10.7
 20
4.689592
 30
0.0
 11
10.810408
 21
4.8
 31
0.0
  0
LINE
  8
0
 62
     0
 10
10.7
 20
0.977282
 30
0.0
 11
13.5
 21
3.777282
 31
0.0
  0
LINE
  8
0
 62
     0
 10
10.7
 20
0.800505
 30
0.0
 11
13.5
 21
3.600505
 31
0.0
  0
LINE
  8
0
 62
     0
 10
10.7
 20
0.623728
 30
0.0
 11
13.5
 21
3.423728
 31
0.0
  0
LINE
  8
0
 62
     0
 10
10.7
 20
0.446952
 30
0.0
 11
13.5
 21
3.246952
 31
0.0
  0
LINE
  8
0
 62
     0
 10
10.7
 20
0.270175
 30
0.0
 11
13.5
 21
3.070175
 31
0.0
  0
LINE
  8
0
 62
     0
 10
10.7
 20
0.093398
 30
0.0
 11
13.5
 21
2.893398
 31
0.0
  0
LINE
  8
0
 62
     0
 10
10.783378
 20
0.0
 30
0.0
 11
13.5
 21
2.716622
 31
0.0
  0
LINE
  8
0
 62
     0
 10
10.960155
 20
0.0
 30
0.0
 11
13.5
 21
2.539845
 31
0.0
  0
LINE
  8
0
 62
     0
 10
11.136932
 20
0.0
 30
0.0
 11
13.5
 21
2.363068
 31
0.0
  0
LINE
  8
0
 62
     0
 10
11.313708
 20
0.0
 30
0.0
 11
13.5
 21
2.186292
 31
0.0
  0
LINE
  8
0
 62
     0
 10
11.490485
 20
0.0
 30
0.0
 11
13.5
 21
2.009515
 31
0.0
  0
LINE
  8
0
 62
     0
 10
11.667262
 20
0.0
 30
0.0
 11
13.5
 21
1.832738
 31
0.0
  0
LINE
  8
0
 62
     0
 10
11.844039
 20
0.0
 30
0.0
 11
13.5
 21
1.655961
 31
0.0
  0
LINE
  8
0
 62
     0
 10
12.020815
 20
0.0
 30
0.0
 11
13.5
 21
1.479185
 31
0.0
  0
LINE
  8
0
 62
     0
 10
12.197592
 20
0.0
 30
0.0
 11
13.5
 21
1.302408
 31
0.0
  0
LINE
  8
0
 62
     0
 10
12.374369
 20
0.0
 30
0.0
 11
13.5
 21
1.125631
 31
0.0
  0
LINE
  8
0
 62
     0
 10
12.551145
 20
0.0
 30
0.0
 11
13.5
 21
0.948855
 31
0.0
  0
LINE
  8
0
 62
     0
 10
12.727922
 20
0.0
 30
0.0
 11
13.5
 21
0.772078
 31
0.0
  0
LINE
  8
0
 62
     0
 10
12.904699
 20
0.0
 30
0.0
 11
13.5
 21
0.595301
 31
0.0
  0
LINE
  8
0
 62
     0
 10
13.081475
 20
0.0
 30
0.0
 11
13.5
 21
0.418525
 31
0.0
  0
LINE
  8
0
 62
     0
 10
13.258252
 20
0.0
 30
0.0
 11
13.5
 21
0.241748
 31
0.0
  0
LINE
  8
0
 62
     0
 10
13.435029
 20
0.0
 30
0.0
 11
13.5
 21
0.064971
 31
0.0
  0
ENDBLK
  8
0
  0
BLOCK
  8
0
  2
*X20
 70
    65
 10
0.0
 20
0.0
 30
0.0
  3
*X
  0
LINE
  8
0
 62
     0
 10
13.9
 20
6.298602
 30
0.0
 11
16.582995
 21
8.981597
 31
0.0
  0
LINE
  8
0
 62
     0
 10
13.9
 20
6.475379
 30
0.0
 11
16.510503
 21
9.085882
 31
0.0
  0
LINE
  8
0
 62
     0
 10
13.9
 20
6.652155
 30
0.0
 11
16.432927
 21
9.185083
 31
0.0
  0
LINE
  8
0
 62
     0
 10
13.9
 20
6.828932
 30
0.0
 11
16.350372
 21
9.279304
 31
0.0
  0
LINE
  8
0
 62
     0
 10
13.9
 20
7.005709
 30
0.0
 11
16.262892
 21
9.368601
 31
0.0
  0
LINE
  8
0
 62
     0
 10
13.9
 20
7.182486
 30
0.0
 11
16.170495
 21
9.452981
 31
0.0
  0
LINE
  8
0
 62
     0
 10
13.9
 20
7.359262
 30
0.0
 11
16.073145
 21
9.532407
 31
0.0
  0
LINE
  8
0
 62
     0
 10
13.9
 20
7.536039
 30
0.0
 11
15.970755
 21
9.606794
 31
0.0
  0
LINE
  8
0
 62
     0
 10
13.9
 20
7.712816
 30
0.0
 11
15.863189
 21
9.676004
 31
0.0
  0
LINE
  8
0
 62
     0
 10
13.9
 20
7.889592
 30
0.0
 11
15.75025
 21
9.739843
 31
0.0
  0
LINE
  8
0
 62
     0
 10
13.9
 20
8.066369
 30
0.0
 11
15.631675
 21
9.798044
 31
0.0
  0
LINE
  8
0
 62
     0
 10
13.9
 20
8.243146
 30
0.0
 11
15.50711
 21
9.850256
 31
0.0
  0
LINE
  8
0
 62
     0
 10
13.9
 20
8.419922
 30
0.0
 11
15.376096
 21
9.896018
 31
0.0
  0
LINE
  8
0
 62
     0
 10
13.9
 20
8.596699
 30
0.0
 11
15.238027
 21
9.934726
 31
0.0
  0
LINE
  8
0
 62
     0
 10
13.9
 20
8.773476
 30
0.0
 11
15.092096
 21
9.965572
 31
0.0
  0
LINE
  8
0
 62
     0
 10
13.9
 20
8.950253
 30
0.0
 11
14.937209
 21
9.987461
 31
0.0
  0
LINE
  8
0
 62
     0
 10
13.9
 20
9.127029
 30
0.0
 11
14.771824
 21
9.998853
 31
0.0
  0
LINE
  8
0
 62
     0
 10
13.9
 20
9.303806
 30
0.0
 11
14.596193
 21
9.999999
 31
0.0
  0
LINE
  8
0
 62
     0
 10
13.9
 20
9.480583
 30
0.0
 11
14.419417
 21
9.999999
 31
0.0
  0
LINE
  8
0
 62
     0
 10
13.9
 20
9.657359
 30
0.0
 11
14.24264
 21
10.0
 31
0.0
  0
LINE
  8
0
 62
     0
 10
13.9
 20
9.834136
 30
0.0
 11
14.065864
 21
10.0
 31
0.0
  0
LINE
  8
0
 62
     0
 10
13.9
 20
6.121825
 30
0.0
 11
16.650245
 21
8.872071
 31
0.0
  0
LINE
  8
0
 62
     0
 10
13.9
 20
5.945049
 30
0.0
 11
16.712035
 21
8.757083
 31
0.0
  0
LINE
  8
0
 62
     0
 10
13.9
 20
5.768272
 30
0.0
 11
16.768067
 21
8.636339
 31
0.0
  0
LINE
  8
0
 62
     0
 10
13.9
 20
5.591495
 30
0.0
 11
16.817955
 21
8.509451
 31
0.0
  0
LINE
  8
0
 62
     0
 10
13.9
 20
5.414719
 30
0.0
 11
16.861189
 21
8.375908
 31
0.0
  0
LINE
  8
0
 62
     0
 10
13.9
 20
5.237942
 30
0.0
 11
16.897097
 21
8.235039
 31
0.0
  0
LINE
  8
0
 62
     0
 10
14.038835
 20
5.2
 30
0.0
 11
16.924779
 21
8.085944
 31
0.0
  0
LINE
  8
0
 62
     0
 10
14.215611
 20
5.2
 30
0.0
 11
16.942997
 21
7.927385
 31
0.0
  0
LINE
  8
0
 62
     0
 10
14.392388
 20
5.2
 30
0.0
 11
16.949987
 21
7.757599
 31
0.0
  0
LINE
  8
0
 62
     0
 10
14.569165
 20
5.2
 30
0.0
 11
16.943101
 21
7.573936
 31
0.0
  0
LINE
  8
0
 62
     0
 10
14.745942
 20
5.2
 30
0.0
 11
16.918037
 21
7.372095
 31
0.0
  0
LINE
  8
0
 62
     0
 10
14.922718
 20
5.2
 30
0.0
 11
16.866909
 21
7.144191
 31
0.0
  0
LINE
  8
0
 62
     0
 10
15.099495
 20
5.2
 30
0.0
 11
16.771715
 21
6.87222
 31
0.0
  0
LINE
  8
0
 62
     0
 10
15.276272
 20
5.2
 30
0.0
 11
15.847951
 21
5.77168
 31
0.0
  0
LINE
  8
0
 62
     0
 10
15.96673
 20
5.890458
 30
0.0
 11
16.559542
 21
6.48327
 31
0.0
  0
LINE
  8
0
 62
     0
 10
15.453048
 20
5.2
 30
0.0
 11
15.970661
 21
5.717613
 31
0.0
  0
LINE
  8
0
 62
     0
 10
15.629825
 20
5.2
 30
0.0
 11
16.088934
 21
5.659109
 31
0.0
  0
LINE
  8
0
 62
     0
 10
15.806602
 20
5.2
 30
0.0
 11
16.202964
 21
5.596363
 31
0.0
  0
LINE
  8
0
 62
     0
 10
15.983378
 20
5.2
 30
0.0
 11
16.312909
 21
5.529531
 31
0.0
  0
LINE
  8
0
 62
     0
 10
16.160155
 20
5.2
 30
0.0
 11
16.418895
 21
5.45874
 31
0.0
  0
LINE
  8
0
 62
     0
 10
16.336932
 20
5.2
 30
0.0
 11
16.521021
 21
5.384089
 31
0.0
  0
LINE
  8
0
 62
     0
 10
16.513708
 20
5.2
 30
0.0
 11
16.619363
 21
5.305655
 31
0.0
  0
LINE
  8
0
 62
     0
 10
16.690485
 20
5.2
 30
0.0
 11
16.713975
 21
5.22349
 31
0.0
  0
ENDBLK
  8
0
  0
BLOCK
  8
0
  2
*X21
 70
    65
 10
0.0
 20
0.0
 30
0.0
  3
*X
  0
LINE
  8
0
 62
     0
 10
13.9
 20
0.818525
 30
0.0
 11
17.39645
 21
4.314974
 31
0.0
  0
LINE
  8
0
 62
     0
 10
13.9
 20
0.995301
 30
0.0
 11
17.336354
 21
4.431655
 31
0.0
  0
LINE
  8
0
 62
     0
 10
13.9
 20
1.172078
 30
0.0
 11
17.272078
 21
4.544156
 31
0.0
  0
LINE
  8
0
 62
     0
 10
13.9
 20
1.348855
 30
0.0
 11
17.203766
 21
4.652621
 31
0.0
  0
LINE
  8
0
 62
     0
 10
13.9
 20
1.525631
 30
0.0
 11
17.131535
 21
4.757167
 31
0.0
  0
LINE
  8
0
 62
     0
 10
13.9
 20
1.702408
 30
0.0
 11
16.997592
 21
4.8
 31
0.0
  0
LINE
  8
0
 62
     0
 10
13.9
 20
1.879185
 30
0.0
 11
16.820815
 21
4.8
 31
0.0
  0
LINE
  8
0
 62
     0
 10
13.9
 20
2.055961
 30
0.0
 11
16.644039
 21
4.8
 31
0.0
  0
LINE
  8
0
 62
     0
 10
13.9
 20
2.232738
 30
0.0
 11
16.467262
 21
4.8
 31
0.0
  0
LINE
  8
0
 62
     0
 10
13.9
 20
2.409515
 30
0.0
 11
16.290485
 21
4.8
 31
0.0
  0
LINE
  8
0
 62
     0
 10
13.9
 20
2.586292
 30
0.0
 11
16.113708
 21
4.8
 31
0.0
  0
LINE
  8
0
 62
     0
 10
13.9
 20
2.763068
 30
0.0
 11
15.936932
 21
4.8
 31
0.0
  0
LINE
  8
0
 62
     0
 10
13.9
 20
2.939845
 30
0.0
 11
15.760155
 21
4.8
 31
0.0
  0
LINE
  8
0
 62
     0
 10
13.9
 20
3.116622
 30
0.0
 11
15.583378
 21
4.8
 31
0.0
  0
LINE
  8
0
 62
     0
 10
13.9
 20
3.293398
 30
0.0
 11
15.406602
 21
4.8
 31
0.0
  0
LINE
  8
0
 62
     0
 10
13.9
 20
3.470175
 30
0.0
 11
15.229825
 21
4.8
 31
0.0
  0
LINE
  8
0
 62
     0
 10
13.9
 20
3.646952
 30
0.0
 11
15.053048
 21
4.8
 31
0.0
  0
LINE
  8
0
 62
     0
 10
13.9
 20
3.823728
 30
0.0
 11
14.876272
 21
4.8
 31
0.0
  0
LINE
  8
0
 62
     0
 10
13.9
 20
4.000505
 30
0.0
 11
14.699495
 21
4.8
 31
0.0
  0
LINE
  8
0
 62
     0
 10
13.9
 20
4.177282
 30
0.0
 11
14.522718
 21
4.8
 31
0.0
  0
LINE
  8
0
 62
     0
 10
13.9
 20
4.354058
 30
0.0
 11
14.345942
 21
4.8
 31
0.0
  0
LINE
  8
0
 62
     0
 10
13.9
 20
4.530835
 30
0.0
 11
14.169165
 21
4.8
 31
0.0
  0
LINE
  8
0
 62
     0
 10
13.9
 20
4.707612
 30
0.0
 11
13.992388
 21
4.8
 31
0.0
  0
LINE
  8
0
 62
     0
 10
13.9
 20
0.641748
 30
0.0
 11
17.452185
 21
4.193933
 31
0.0
  0
LINE
  8
0
 62
     0
 10
13.9
 20
0.464971
 30
0.0
 11
17.503339
 21
4.068311
 31
0.0
  0
LINE
  8
0
 62
     0
 10
13.9
 20
0.288194
 30
0.0
 11
17.549642
 21
3.937837
 31
0.0
  0
LINE
  8
0
 62
     0
 10
13.9
 20
0.111418
 30
0.0
 11
17.590762
 21
3.80218
 31
0.0
  0
LINE
  8
0
 62
     0
 10
13.965359
 20
0.0
 30
0.0
 11
17.62629
 21
3.660931
 31
0.0
  0
LINE
  8
0
 62
     0
 10
14.142136
 20
0.000001
 30
0.0
 11
17.655713
 21
3.513577
 31
0.0
  0
LINE
  8
0
 62
     0
 10
14.318913
 20
0.000001
 30
0.0
 11
17.678385
 21
3.359473
 31
0.0
  0
LINE
  8
0
 62
     0
 10
14.49569
 20
0.000001
 30
0.0
 11
17.693473
 21
3.197784
 31
0.0
  0
LINE
  8
0
 62
     0
 10
14.672467
 20
0.000002
 30
0.0
 11
17.699875
 21
3.027409
 31
0.0
  0
LINE
  8
0
 62
     0
 10
14.853154
 20
0.003912
 30
0.0
 11
17.696088
 21
2.846846
 31
0.0
  0
LINE
  8
0
 62
     0
 10
15.046044
 20
0.020025
 30
0.0
 11
17.679975
 21
2.653956
 31
0.0
  0
LINE
  8
0
 62
     0
 10
15.254483
 20
0.051687
 30
0.0
 11
17.648313
 21
2.445517
 31
0.0
  0
LINE
  8
0
 62
     0
 10
15.483762
 20
0.10419
 30
0.0
 11
17.59581
 21
2.216238
 31
0.0
  0
LINE
  8
0
 62
     0
 10
15.743786
 20
0.187437
 30
0.0
 11
17.512563
 21
1.956214
 31
0.0
  0
LINE
  8
0
 62
     0
 10
16.058176
 20
0.32505
 30
0.0
 11
17.37495
 21
1.641824
 31
0.0
  0
LINE
  8
0
 62
     0
 10
16.54193
 20
0.632028
 30
0.0
 11
17.067972
 21
1.15807
 31
0.0
  0
ENDBLK
  8
0
  0
BLOCK
  8
0
  2
B155
 70
     0
 10
0.0
 20
0.0
 30
0.0
  3
B155
  0
LINE
  8
0
  6
CONTINUOUS
 10
0.0
 20
0.0
 30
0.0
 11
0.0
 21
-1.35427
 31
0.0
  0
LINE
  8
0
  6
CONTINUOUS
 10
-1.210228
 20
-1.35427
 30
0.0
 11
-0.015887
 21
-1.35427
 31
0.0
  0
LINE
  8
0
  6
CONTINUOUS
 10
-0.015887
 20
-1.35427
 30
0.0
 11
1.178454
 21
-1.35427
 31
0.0
  0
LINE
  8
0
  6
CONTINUOUS
 10
-0.831823
 20
-1.833881
 30
0.0
 11
0.752749
 21
-1.833881
 31
0.0
  0
LINE
  8
0
  6
CONTINUOUS
 10
-0.500718
 20
-2.322055
 30
0.0
 11
0.386169
 21
-2.322055
 31
0.0
  0
ENDBLK
  8
0
  0
BLOCK
  8
0
  2
MAA
 70
    64
 10
0.0
 20
0.0
 30
0.0
  3
MAA
  0
LINE
  8
0
  6
CONTINUOUS
 10
-0.500718
 20
-2.587966
 30
0.0
 11
0.386169
 21
-2.587966
 31
0.0
  0
LINE
  8
0
  6
CONTINUOUS
 10
-0.831823
 20
-1.976333
 30
0.0
 11
0.752749
 21
-1.976333
 31
0.0
  0
LINE
  8
0
  6
CONTINUOUS
 10
-0.015887
 20
-1.35427
 30
0.0
 11
1.178454
 21
-1.35427
 31
0.0
  0
LINE
  8
0
  6
CONTINUOUS
 10
-1.210228
 20
-1.35427
 30
0.0
 11
-0.015887
 21
-1.35427
 31
0.0
  0
LINE
  8
0
  6
CONTINUOUS
 10
0.0
 20
0.0
 30
0.0
 11
0.0
 21
-1.35427
 31
0.0
  0
ENDBLK
  8
0
  0
BLOCK
  8
0
  2
B505
 70
     0
 10
0.0
 20
0.0
 30
0.0
  3
B505
  0
TEXT
  8
0
  6
HIDDEN
 10
-37.517333
 20
-93.931674
 30
0.0
 40
2.0
  1
Uo
  7
GREEKS
  0
LINE
  8
0
  6
CONTINUOUS
 10
-35.028779
 20
-75.421831
 30
0.0
 11
-34.141892
 21
-75.421831
 31
0.0
  0
LINE
  8
0
  6
CONTINUOUS
 10
-35.359884
 20
-74.881591
 30
0.0
 11
-33.775313
 21
-74.881591
 31
0.0
  0
LINE
  8
0
  6
CONTINUOUS
 10
-34.543948
 20
-74.263141
 30
0.0
 11
-33.349607
 21
-74.263141
 31
0.0
  0
LINE
  8
0
  6
CONTINUOUS
 10
-35.738289
 20
-74.263141
 30
0.0
 11
-34.543948
 21
-74.263141
 31
0.0
  0
LINE
  8
0
  6
CONTINUOUS
 10
-34.528061
 20
-72.90887
 30
0.0
 11
-34.528061
 21
-74.263141
 31
0.0
  0
TEXT
  8
0
  6
CONTINUOUS
 10
-37.496485
 20
-74.451103
 30
0.0
 40
2.5
  1
I
 11
-37.496485
 21
-75.284437
 31
0.0
 73
     1
  0
TEXT
  8
0
  6
HIDDEN
 10
-37.517333
 20
-83.931674
 30
0.0
 40
2.0
  1
Uo
  7
GREEKS
  0
TEXT
  8
0
  6
CONTINUOUS
 10
-37.496485
 20
-64.451103
 30
0.0
 40
2.5
  1
I
 11
-37.496485
 21
-65.284437
 31
0.0
 73
     1
  0
LINE
  8
0
  6
CONTINUOUS
 10
-34.528061
 20
-62.90887
 30
0.0
 11
-34.528061
 21
-64.263141
 31
0.0
  0
LINE
  8
0
  6
CONTINUOUS
 10
-35.738289
 20
-64.263141
 30
0.0
 11
-34.543948
 21
-64.263141
 31
0.0
  0
LINE
  8
0
  6
CONTINUOUS
 10
-34.543948
 20
-64.263141
 30
0.0
 11
-33.349607
 21
-64.263141
 31
0.0
  0
LINE
  8
0
  6
CONTINUOUS
 10
-35.359884
 20
-64.881591
 30
0.0
 11
-33.775313
 21
-64.881591
 31
0.0
  0
LINE
  8
0
  6
CONTINUOUS
 10
-35.028779
 20
-65.421831
 30
0.0
 11
-34.141892
 21
-65.421831
 31
0.0
  0
TEXT
  8
0
  6
CONTINUOUS
 10
-37.5
 20
-124.216301
 30
0.0
 40
2.0
  1
U12
  7
GREEKS
  0
TEXT
  8
0
  6
CONTINUOUS
 10
-37.5
 20
-143.68944
 30
0.0
 40
2.0
  1
U23
  7
GREEKS
  0
TEXT
  8
0
  6
CONTINUOUS
 10
-37.5
 20
-54.006863
 30
0.0
 40
2.0
  1
L3
  7
GREEKS
  0
TEXT
  8
0
  6
CONTINUOUS
 10
-37.5
 20
-33.964226
 30
0.0
 40
2.0
  1
L2
  7
GREEKS
  0
TEXT
  8
0
  6
CONTINUOUS
 10
-37.5
 20
-13.945824
 30
0.0
 40
2.0
  1
L1
  7
GREEKS
  0
TEXT
  8
0
  6
CONTINUOUS
 10
-37.5
 20
-153.938065
 30
0.0
 40
2.0
  1
U31
  7
GREEKS
  0
TEXT
  8
0
  6
CONTINUOUS
 10
-37.5
 20
-133.68944
 30
0.0
 40
2.0
  1
U23
  7
GREEKS
  0
TEXT
  8
0
  6
CONTINUOUS
 10
-37.5
 20
-114.216301
 30
0.0
 40
2.0
  1
U12
  7
GREEKS
  0
TEXT
  8
0
  6
CONTINUOUS
 10
-37.5
 20
-44.006863
 30
0.0
 40
2.0
  1
L3
  7
GREEKS
  0
TEXT
  8
0
  6
CONTINUOUS
 10
-37.5
 20
-23.964226
 30
0.0
 40
2.0
  1
L2
  7
GREEKS
  0
TEXT
  8
0
  6
CONTINUOUS
 10
-37.5
 20
-3.945824
 30
0.0
 40
2.0
  1
L1
  7
GREEKS
  0
LINE
  8
0
  6
CONTINUOUS
 10
-25.0
 20
-70.0
 30
0.0
 11
-26.0
 21
-71.0
 31
0.0
  0
LINE
  8
0
  6
CONTINUOUS
 10
-25.0
 20
-70.0
 30
0.0
 11
-25.0
 21
-20.0
 31
0.0
  0
LINE
  8
0
  6
CONTINUOUS
 10
-25.0
 20
-20.0
 30
0.0
 11
-25.0
 21
0.0
 31
0.0
  0
LINE
  8
0
  6
CONTINUOUS
 10
-25.0
 20
0.0
 30
0.0
 11
-26.0
 21
1.0
 31
0.0
  0
CIRCLE
  8
0
  6
CONTINUOUS
 10
-7.5
 20
-12.5
 30
0.0
 40
2.5
  0
LINE
  8
0
  6
DASHED
 10
-7.5
 20
-15.0
 30
0.0
 11
-7.5
 21
-85.0
 31
0.0
  0
LINE
  8
0
  6
CONTINUOUS
 10
-25.0
 20
-90.0
 30
0.0
 11
-26.0
 21
-91.0
 31
0.0
  0
LINE
  8
0
  6
CONTINUOUS
 10
-25.0
 20
-80.0
 30
0.0
 11
-26.0
 21
-79.0
 31
0.0
  0
LINE
  8
0
  6
CONTINUOUS
 10
-25.0
 20
-80.0
 30
0.0
 11
-25.0
 21
-90.0
 31
0.0
  0
CIRCLE
  8
0
  6
CONTINUOUS
 10
-7.5
 20
-9.458377
 30
0.0
 40
2.5
  0
LINE
  8
0
  6
DASHED
 10
-20.0
 20
0.0
 30
0.0
 11
12.5
 21
0.0
 31
0.0
  0
LINE
  8
0
  6
DASHED
 10
-7.5
 20
0.0
 30
0.0
 11
-7.5
 21
-6.958377
 31
0.0
  0
LINE
  8
0
  6
DASHED
 10
-15.0
 20
0.0
 30
0.0
 11
-15.0
 21
-60.0
 31
0.0
  0
LINE
  8
0
  6
DASHED
 10
-7.5
 20
-85.0
 30
0.0
 11
-25.0
 21
-85.0
 31
0.0
  0
CIRCLE
  8
0
  6
CONTINUOUS
 10
-15.0
 20
-35.0
 30
0.0
 40
2.5
  0
LINE
  8
0
  6
DASHED
 10
-25.0
 20
-35.0
 30
0.0
 11
-17.5
 21
-35.0
 31
0.0
  0
LINE
  8
0
  6
CONTINUOUS
 10
-25.0
 20
-110.0
 30
0.0
 11
-26.0
 21
-109.0
 31
0.0
  0
LINE
  8
0
  6
CONTINUOUS
 10
-25.0
 20
-130.0
 30
0.0
 11
-25.0
 21
-110.0
 31
0.0
  0
LINE
  8
0
  6
CONTINUOUS
 10
-25.0
 20
-160.0
 30
0.0
 11
-25.0
 21
-130.0
 31
0.0
  0
LINE
  8
0
  6
CONTINUOUS
 10
-25.0
 20
-160.0
 30
0.0
 11
-26.0
 21
-161.0
 31
0.0
  0
LINE
  8
0
  6
DASHED
 10
0.0
 20
-135.0
 30
0.0
 11
-25.0
 21
-135.0
 31
0.0
  0
CIRCLE
  8
0
  6
CONTINUOUS
 10
0.0
 20
-12.5
 30
0.0
 40
2.5
  0
CIRCLE
  8
0
  6
CONTINUOUS
 10
0.0
 20
-9.458377
 30
0.0
 40
2.5
  0
LINE
  8
0
  6
DASHED
 10
0.0
 20
0.0
 30
0.0
 11
0.0
 21
-6.958377
 31
0.0
  0
LINE
  8
0
  6
DASHED
 10
0.0
 20
-15.0
 30
0.0
 11
0.0
 21
-135.0
 31
0.0
  0
POLYLINE
  8
0
  6
CONTINUOUS
 66
     1
 10
0.0
 20
0.0
 30
0.0
 70
     1
 40
0.5
 41
0.5
 71
     2
 72
   601
  0
VERTEX
  8
0
  6
CONTINUOUS
 10
-15.5
 20
0.0
 30
0.0
 42
1.0
  0
VERTEX
  8
0
  6
CONTINUOUS
 10
-14.5
 20
0.0
 30
0.0
 42
1.0
  0
SEQEND
  8
0
  6
CONTINUOUS
  0
POLYLINE
  8
0
  6
CONTINUOUS
 66
     1
 10
0.0
 20
0.0
 30
0.0
 70
     1
 40
0.5
 41
0.5
 71
     2
 72
   601
  0
VERTEX
  8
0
  6
CONTINUOUS
 10
-8.0
 20
0.0
 30
0.0
 42
1.0
  0
VERTEX
  8
0
  6
CONTINUOUS
 10
-7.0
 20
0.0
 30
0.0
 42
1.0
  0
SEQEND
  8
0
  6
CONTINUOUS
  0
POLYLINE
  8
0
  6
CONTINUOUS
 66
     1
 10
0.0
 20
0.0
 30
0.0
 70
     1
 40
0.5
 41
0.5
 71
     2
 72
   601
  0
VERTEX
  8
0
  6
CONTINUOUS
 10
-0.5
 20
0.0
 30
0.0
 42
1.0
  0
VERTEX
  8
0
  6
CONTINUOUS
 10
0.5
 20
0.0
 30
0.0
 42
1.0
  0
SEQEND
  8
0
  6
CONTINUOUS
  0
TEXT
  8
0
  6
CONTINUOUS
 10
-35.0
 20
-100.932957
 30
0.0
 40
2.0
  1
6)
  7
GREEKS
  0
TEXT
  8
0
  6
CONTINUOUS
 10
-37.5
 20
-163.938065
 30
0.0
 40
2.0
  1
U31
  7
GREEKS
  0
LINE
  8
0
  6
DASHED
 10
-52.5
 20
-160.0
 30
0.0
 11
-30.0
 21
-160.0
 31
0.0
  0
LINE
  8
0
  6
DASHED
 10
-47.5
 20
-150.0
 30
0.0
 11
-30.0
 21
-150.0
 31
0.0
  0
LINE
  8
0
  6
DASHED
 10
-52.5
 20
-140.0
 30
0.0
 11
-30.0
 21
-140.0
 31
0.0
  0
LINE
  8
0
  6
DASHED
 10
-47.5
 20
-130.0
 30
0.0
 11
-30.0
 21
-130.0
 31
0.0
  0
LINE
  8
0
  6
DASHED
 10
-52.5
 20
-120.0
 30
0.0
 11
-30.0
 21
-120.0
 31
0.0
  0
LINE
  8
0
  6
DASHED
 10
-47.5
 20
-110.0
 30
0.0
 11
-30.0
 21
-110.0
 31
0.0
  0
INSERT
  8
0
  6
CONTINUOUS
  2
B96
 10
-52.5
 20
-99.913461
 30
0.0
  0
LINE
  8
0
  6
DASHED
 10
-52.5
 20
-90.0
 30
0.0
 11
-30.0
 21
-90.0
 31
0.0
  0
LINE
  8
0
  6
CONTINUOUS
 10
-47.5
 20
-65.33813
 30
0.0
 11
-48.5
 21
-66.33813
 31
0.0
  0
LINE
  8
0
  6
DASHED
 10
-52.5
 20
-70.0
 30
0.0
 11
-30.0
 21
-70.0
 31
0.0
  0
LINE
  8
0
  6
DASHED
 10
-47.5
 20
-80.0
 30
0.0
 11
-30.0
 21
-80.0
 31
0.0
  0
LINE
  8
0
  6
DASHED
 10
-47.5
 20
-60.0
 30
0.0
 11
-30.0
 21
-60.0
 31
0.0
  0
LINE
  8
0
  6
DASHED
 10
-52.5
 20
-50.0
 30
0.0
 11
-30.0
 21
-50.0
 31
0.0
  0
LINE
  8
0
  6
DASHED
 10
-30.0
 20
-40.0
 30
0.0
 11
-47.5
 21
-40.0
 31
0.0
  0
LINE
  8
0
  6
DASHED
 10
-52.5
 20
-30.0
 30
0.0
 11
-30.0
 21
-30.0
 31
0.0
  0
LINE
  8
0
  6
DASHED
 10
-30.0
 20
-20.0
 30
0.0
 11
-47.5
 21
-20.0
 31
0.0
  0
LINE
  8
0
  6
DASHED
 10
-52.5
 20
-10.0
 30
0.0
 11
-30.0
 21
-10.0
 31
0.0
  0
LINE
  8
0
  6
DASHED
 10
-30.0
 20
0.0
 30
0.0
 11
-47.5
 21
0.0
 31
0.0
  0
ENDBLK
  8
0
  0
BLOCK
  8
0
  2
B96
 70
    64
 10
0.0
 20
0.0
 30
0.0
  3
B96
  0
LINE
  8
0
  6
CONTINUOUS
 10
1.819436
 20
0.403461
 30
0.0
 11
1.819436
 21
-0.576539
 31
0.0
  0
LINE
  8
0
  6
CONTINUOUS
 10
1.819436
 20
-0.576539
 30
0.0
 11
5.249436
 21
-0.576539
 31
0.0
  0
LINE
  8
0
  6
CONTINUOUS
 10
5.249436
 20
-0.576539
 30
0.0
 11
5.249436
 21
0.403461
 31
0.0
  0
LINE
  8
0
  6
CONTINUOUS
 10
5.249436
 20
0.403461
 30
0.0
 11
1.819436
 21
0.403461
 31
0.0
  0
POLYLINE
  8
0
  6
CONTINUOUS
 66
     1
 10
0.0
 20
0.0
 30
0.0
 70
    16
 71
     2
 72
   251
  0
VERTEX
  8
0
  6
CONTINUOUS
 10
1.819436
 20
-0.576539
 30
0.0
 70
    64
  0
VERTEX
  8
0
  6
CONTINUOUS
 10
1.833156
 20
-0.576539
 30
0.0
 70
    64
  0
VERTEX
  8
0
  6
CONTINUOUS
 10
1.846876
 20
-0.576539
 30
0.0
 70
    64
  0
VERTEX
  8
0
  6
CONTINUOUS
 10
1.860596
 20
-0.576539
 30
0.0
 70
    64
  0
VERTEX
  8
0
  6
CONTINUOUS
 10
1.874316
 20
-0.576539
 30
0.0
 70
    64
  0
VERTEX
  8
0
  6
CONTINUOUS
 10
1.888036
 20
-0.576539
 30
0.0
 70
    64
  0
VERTEX
  8
0
  6
CONTINUOUS
 10
1.901756
 20
-0.576539
 30
0.0
 70
    64
  0
VERTEX
  8
0
  6
CONTINUOUS
 10
1.915476
 20
-0.576539
 30
0.0
 70
    64
  0
VERTEX
  8
0
  6
CONTINUOUS
 10
1.929196
 20
-0.576539
 30
0.0
 70
    64
  0
VERTEX
  8
0
  6
CONTINUOUS
 10
1.942916
 20
-0.576539
 30
0.0
 70
    64
  0
VERTEX
  8
0
  6
CONTINUOUS
 10
1.956636
 20
-0.576539
 30
0.0
 70
    64
  0
VERTEX
  8
0
  6
CONTINUOUS
 10
1.970356
 20
-0.576539
 30
0.0
 70
    64
  0
VERTEX
  8
0
  6
CONTINUOUS
 10
1.984076
 20
-0.576539
 30
0.0
 70
    64
  0
VERTEX
  8
0
  6
CONTINUOUS
 10
1.997796
 20
-0.576539
 30
0.0
 70
    64
  0
VERTEX
  8
0
  6
CONTINUOUS
 10
2.011516
 20
-0.576539
 30
0.0
 70
    64
  0
VERTEX
  8
0
  6
CONTINUOUS
 10
2.025236
 20
-0.576539
 30
0.0
 70
    64
  0
VERTEX
  8
0
  6
CONTINUOUS
 10
2.038956
 20
-0.576539
 30
0.0
 70
    64
  0
VERTEX
  8
0
  6
CONTINUOUS
 10
2.052676
 20
-0.576539
 30
0.0
 70
    64
  0
VERTEX
  8
0
  6
CONTINUOUS
 10
2.066396
 20
-0.576539
 30
0.0
 70
    64
  0
VERTEX
  8
0
  6
CONTINUOUS
 10
2.080116
 20
-0.576539
 30
0.0
 70
    64
  0
VERTEX
  8
0
  6
CONTINUOUS
 10
2.093836
 20
-0.576539
 30
0.0
 70
    64
  0
VERTEX
  8
0
  6
CONTINUOUS
 10
2.107556
 20
-0.576539
 30
0.0
 70
    64
  0
VERTEX
  8
0
  6
CONTINUOUS
 10
2.121276
 20
-0.576539
 30
0.0
 70
    64
  0
VERTEX
  8
0
  6
CONTINUOUS
 10
2.134996
 20
-0.576539
 30
0.0
 70
    64
  0
VERTEX
  8
0
  6
CONTINUOUS
 10
2.148716
 20
-0.576539
 30
0.0
 70
    64
  0
VERTEX
  8
0
  6
CONTINUOUS
 10
2.162436
 20
-0.576539
 30
0.0
 70
    64
  0
VERTEX
  8
0
  6
CONTINUOUS
 10
2.176156
 20
-0.576539
 30
0.0
 70
    64
  0
VERTEX
  8
0
  6
CONTINUOUS
 10
2.189876
 20
-0.576539
 30
0.0
 70
    64
  0
VERTEX
  8
0
  6
CONTINUOUS
 10
2.203596
 20
-0.576539
 30
0.0
 70
    64
  0
VERTEX
  8
0
  6
CONTINUOUS
 10
2.217316
 20
-0.576539
 30
0.0
 70
    64
  0
VERTEX
  8
0
  6
CONTINUOUS
 10
2.231036
 20
-0.576539
 30
0.0
 70
    64
  0
VERTEX
  8
0
  6
CONTINUOUS
 10
2.244756
 20
-0.576539
 30
0.0
 70
    64
  0
VERTEX
  8
0
  6
CONTINUOUS
 10
2.258476
 20
-0.576539
 30
0.0
 70
    64
  0
VERTEX
  8
0
  6
CONTINUOUS
 10
2.272196
 20
-0.576539
 30
0.0
 70
    64
  0
VERTEX
  8
0
  6
CONTINUOUS
 10
2.285916
 20
-0.576539
 30
0.0
 70
    64
  0
VERTEX
  8
0
  6
CONTINUOUS
 10
2.299636
 20
-0.576539
 30
0.0
 70
    64
  0
VERTEX
  8
0
  6
CONTINUOUS
 10
2.313356
 20
-0.576539
 30
0.0
 70
    64
  0
VERTEX
  8
0
  6
CONTINUOUS
 10
2.327076
 20
-0.576539
 30
0.0
 70
    64
  0
VERTEX
  8
0
  6
CONTINUOUS
 10
2.340796
 20
-0.576539
 30
0.0
 70
    64
  0
VERTEX
  8
0
  6
CONTINUOUS
 10
2.354516
 20
-0.576539
 30
0.0
 70
    64
  0
VERTEX
  8
0
  6
CONTINUOUS
 10
2.368236
 20
-0.576539
 30
0.0
 70
    64
  0
VERTEX
  8
0
  6
CONTINUOUS
 10
2.381956
 20
-0.576539
 30
0.0
 70
    64
  0
VERTEX
  8
0
  6
CONTINUOUS
 10
2.395676
 20
-0.576539
 30
0.0
 70
    64
  0
VERTEX
  8
0
  6
CONTINUOUS
 10
2.409396
 20
-0.576539
 30
0.0
 70
    64
  0
VERTEX
  8
0
  6
CONTINUOUS
 10
2.423116
 20
-0.576539
 30
0.0
 70
    64
  0
VERTEX
  8
0
  6
CONTINUOUS
 10
2.436836
 20
-0.576539
 30
0.0
 70
    64
  0
VERTEX
  8
0
  6
CONTINUOUS
 10
2.450556
 20
-0.576539
 30
0.0
 70
    64
  0
VERTEX
  8
0
  6
CONTINUOUS
 10
2.464276
 20
-0.576539
 30
0.0
 70
    64
  0
VERTEX
  8
0
  6
CONTINUOUS
 10
2.477996
 20
-0.576539
 30
0.0
 70
    64
  0
VERTEX
  8
0
  6
CONTINUOUS
 10
2.491716
 20
-0.576539
 30
0.0
 70
    64
  0
VERTEX
  8
0
  6
CONTINUOUS
 10
2.505436
 20
-0.576539
 30
0.0
 70
    64
  0
VERTEX
  8
0
  6
CONTINUOUS
 10
2.519156
 20
-0.576539
 30
0.0
 70
    64
  0
VERTEX
  8
0
  6
CONTINUOUS
 10
2.532876
 20
-0.576539
 30
0.0
 70
    64
  0
VERTEX
  8
0
  6
CONTINUOUS
 10
2.546596
 20
-0.576539
 30
0.0
 70
    64
  0
VERTEX
  8
0
  6
CONTINUOUS
 10
2.560316
 20
-0.576539
 30
0.0
 70
    64
  0
VERTEX
  8
0
  6
CONTINUOUS
 10
2.574036
 20
-0.576539
 30
0.0
 70
    64
  0
VERTEX
  8
0
  6
CONTINUOUS
 10
2.587756
 20
-0.576539
 30
0.0
 70
    64
  0
VERTEX
  8
0
  6
CONTINUOUS
 10
2.601476
 20
-0.576539
 30
0.0
 70
    64
  0
VERTEX
  8
0
  6
CONTINUOUS
 10
2.615196
 20
-0.576539
 30
0.0
 70
    64
  0
VERTEX
  8
0
  6
CONTINUOUS
 10
2.628916
 20
-0.576539
 30
0.0
 70
    64
  0
VERTEX
  8
0
  6
CONTINUOUS
 10
2.642636
 20
-0.576539
 30
0.0
 70
    64
  0
VERTEX
  8
0
  6
CONTINUOUS
 10
2.656356
 20
-0.576539
 30
0.0
 70
    64
  0
VERTEX
  8
0
  6
CONTINUOUS
 10
2.670076
 20
-0.576539
 30
0.0
 70
    64
  0
VERTEX
  8
0
  6
CONTINUOUS
 10
2.683796
 20
-0.576539
 30
0.0
 70
    64
  0
VERTEX
  8
0
  6
CONTINUOUS
 10
2.697516
 20
-0.576539
 30
0.0
 70
    64
  0
VERTEX
  8
0
  6
CONTINUOUS
 10
2.711236
 20
-0.576539
 30
0.0
 70
    64
  0
VERTEX
  8
0
  6
CONTINUOUS
 10
2.724956
 20
-0.576539
 30
0.0
 70
    64
  0
VERTEX
  8
0
  6
CONTINUOUS
 10
2.738676
 20
-0.576539
 30
0.0
 70
    64
  0
VERTEX
  8
0
  6
CONTINUOUS
 10
2.752396
 20
-0.576539
 30
0.0
 70
    64
  0
VERTEX
  8
0
  6
CONTINUOUS
 10
2.766116
 20
-0.576539
 30
0.0
 70
    64
  0
VERTEX
  8
0
  6
CONTINUOUS
 10
2.779836
 20
-0.576539
 30
0.0
 70
    64
  0
VERTEX
  8
0
  6
CONTINUOUS
 10
2.793556
 20
-0.576539
 30
0.0
 70
    64
  0
VERTEX
  8
0
  6
CONTINUOUS
 10
2.807276
 20
-0.576539
 30
0.0
 70
    64
  0
VERTEX
  8
0
  6
CONTINUOUS
 10
2.820996
 20
-0.576539
 30
0.0
 70
    64
  0
VERTEX
  8
0
  6
CONTINUOUS
 10
2.834716
 20
-0.576539
 30
0.0
 70
    64
  0
VERTEX
  8
0
  6
CONTINUOUS
 10
2.848436
 20
-0.576539
 30
0.0
 70
    64
  0
VERTEX
  8
0
  6
CONTINUOUS
 10
2.862156
 20
-0.576539
 30
0.0
 70
    64
  0
VERTEX
  8
0
  6
CONTINUOUS
 10
2.875876
 20
-0.576539
 30
0.0
 70
    64
  0
VERTEX
  8
0
  6
CONTINUOUS
 10
2.889596
 20
-0.576539
 30
0.0
 70
    64
  0
VERTEX
  8
0
  6
CONTINUOUS
 10
2.903316
 20
-0.576539
 30
0.0
 70
    64
  0
VERTEX
  8
0
  6
CONTINUOUS
 10
2.917036
 20
-0.576539
 30
0.0
 70
    64
  0
VERTEX
  8
0
  6
CONTINUOUS
 10
2.930756
 20
-0.576539
 30
0.0
 70
    64
  0
VERTEX
  8
0
  6
CONTINUOUS
 10
2.944476
 20
-0.576539
 30
0.0
 70
    64
  0
VERTEX
  8
0
  6
CONTINUOUS
 10
2.958196
 20
-0.576539
 30
0.0
 70
    64
  0
VERTEX
  8
0
  6
CONTINUOUS
 10
2.971916
 20
-0.576539
 30
0.0
 70
    64
  0
VERTEX
  8
0
  6
CONTINUOUS
 10
2.985636
 20
-0.576539
 30
0.0
 70
    64
  0
VERTEX
  8
0
  6
CONTINUOUS
 10
2.999356
 20
-0.576539
 30
0.0
 70
    64
  0
VERTEX
  8
0
  6
CONTINUOUS
 10
3.013076
 20
-0.576539
 30
0.0
 70
    64
  0
VERTEX
  8
0
  6
CONTINUOUS
 10
3.026796
 20
-0.576539
 30
0.0
 70
    64
  0
VERTEX
  8
0
  6
CONTINUOUS
 10
3.040516
 20
-0.576539
 30
0.0
 70
    64
  0
VERTEX
  8
0
  6
CONTINUOUS
 10
3.054236
 20
-0.576539
 30
0.0
 70
    64
  0
VERTEX
  8
0
  6
CONTINUOUS
 10
3.067956
 20
-0.576539
 30
0.0
 70
    64
  0
VERTEX
  8
0
  6
CONTINUOUS
 10
3.081676
 20
-0.576539
 30
0.0
 70
    64
  0
VERTEX
  8
0
  6
CONTINUOUS
 10
3.095396
 20
-0.576539
 30
0.0
 70
    64
  0
VERTEX
  8
0
  6
CONTINUOUS
 10
3.109116
 20
-0.576539
 30
0.0
 70
    64
  0
VERTEX
  8
0
  6
CONTINUOUS
 10
3.122836
 20
-0.576539
 30
0.0
 70
    64
  0
VERTEX
  8
0
  6
CONTINUOUS
 10
3.136556
 20
-0.576539
 30
0.0
 70
    64
  0
VERTEX
  8
0
  6
CONTINUOUS
 10
3.150276
 20
-0.576539
 30
0.0
 70
    64
  0
VERTEX
  8
0
  6
CONTINUOUS
 10
3.163996
 20
-0.576539
 30
0.0
 70
    64
  0
VERTEX
  8
0
  6
CONTINUOUS
 10
3.177716
 20
-0.576539
 30
0.0
 70
    64
  0
VERTEX
  8
0
  6
CONTINUOUS
 10
3.191436
 20
-0.576539
 30
0.0
 70
    64
  0
VERTEX
  8
0
  6
CONTINUOUS
 10
3.205156
 20
-0.576539
 30
0.0
 70
    64
  0
VERTEX
  8
0
  6
CONTINUOUS
 10
3.218876
 20
-0.576539
 30
0.0
 70
    64
  0
VERTEX
  8
0
  6
CONTINUOUS
 10
3.232596
 20
-0.576539
 30
0.0
 70
    64
  0
VERTEX
  8
0
  6
CONTINUOUS
 10
3.246316
 20
-0.576539
 30
0.0
 70
    64
  0
VERTEX
  8
0
  6
CONTINUOUS
 10
3.260036
 20
-0.576539
 30
0.0
 70
    64
  0
VERTEX
  8
0
  6
CONTINUOUS
 10
3.273756
 20
-0.576539
 30
0.0
 70
    64
  0
VERTEX
  8
0
  6
CONTINUOUS
 10
3.287476
 20
-0.576539
 30
0.0
 70
    64
  0
VERTEX
  8
0
  6
CONTINUOUS
 10
3.301196
 20
-0.576539
 30
0.0
 70
    64
  0
VERTEX
  8
0
  6
CONTINUOUS
 10
3.314916
 20
-0.576539
 30
0.0
 70
    64
  0
VERTEX
  8
0
  6
CONTINUOUS
 10
3.328636
 20
-0.576539
 30
0.0
 70
    64
  0
VERTEX
  8
0
  6
CONTINUOUS
 10
3.342356
 20
-0.576539
 30
0.0
 70
    64
  0
VERTEX
  8
0
  6
CONTINUOUS
 10
3.356076
 20
-0.576539
 30
0.0
 70
    64
  0
VERTEX
  8
0
  6
CONTINUOUS
 10
3.369796
 20
-0.576539
 30
0.0
 70
    64
  0
VERTEX
  8
0
  6
CONTINUOUS
 10
3.383516
 20
-0.576539
 30
0.0
 70
    64
  0
VERTEX
  8
0
  6
CONTINUOUS
 10
3.397236
 20
-0.576539
 30
0.0
 70
    64
  0
VERTEX
  8
0
  6
CONTINUOUS
 10
3.410956
 20
-0.576539
 30
0.0
 70
    64
  0
VERTEX
  8
0
  6
CONTINUOUS
 10
3.424676
 20
-0.576539
 30
0.0
 70
    64
  0
VERTEX
  8
0
  6
CONTINUOUS
 10
3.438396
 20
-0.576539
 30
0.0
 70
    64
  0
VERTEX
  8
0
  6
CONTINUOUS
 10
3.452116
 20
-0.576539
 30
0.0
 70
    64
  0
VERTEX
  8
0
  6
CONTINUOUS
 10
3.465836
 20
-0.576539
 30
0.0
 70
    64
  0
VERTEX
  8
0
  6
CONTINUOUS
 10
3.479556
 20
-0.576539
 30
0.0
 70
    64
  0
VERTEX
  8
0
  6
CONTINUOUS
 10
3.493276
 20
-0.576539
 30
0.0
 70
    64
  0
VERTEX
  8
0
  6
CONTINUOUS
 10
3.506996
 20
-0.576539
 30
0.0
 70
    64
  0
VERTEX
  8
0
  6
CONTINUOUS
 10
3.520716
 20
-0.576539
 30
0.0
 70
    64
  0
VERTEX
  8
0
  6
CONTINUOUS
 10
3.534436
 20
-0.576539
 30
0.0
 70
    64
  0
VERTEX
  8
0
  6
CONTINUOUS
 10
3.548156
 20
-0.576539
 30
0.0
 70
    64
  0
VERTEX
  8
0
  6
CONTINUOUS
 10
3.561876
 20
-0.576539
 30
0.0
 70
    64
  0
VERTEX
  8
0
  6
CONTINUOUS
 10
3.575596
 20
-0.576539
 30
0.0
 70
    64
  0
VERTEX
  8
0
  6
CONTINUOUS
 10
3.589316
 20
-0.576539
 30
0.0
 70
    64
  0
VERTEX
  8
0
  6
CONTINUOUS
 10
3.603036
 20
-0.576539
 30
0.0
 70
    64
  0
VERTEX
  8
0
  6
CONTINUOUS
 10
3.616756
 20
-0.576539
 30
0.0
 70
    64
  0
VERTEX
  8
0
  6
CONTINUOUS
 10
3.630476
 20
-0.576539
 30
0.0
 70
    64
  0
VERTEX
  8
0
  6
CONTINUOUS
 10
3.644196
 20
-0.576539
 30
0.0
 70
    64
  0
VERTEX
  8
0
  6
CONTINUOUS
 10
3.657916
 20
-0.576539
 30
0.0
 70
    64
  0
VERTEX
  8
0
  6
CONTINUOUS
 10
3.671636
 20
-0.576539
 30
0.0
 70
    64
  0
VERTEX
  8
0
  6
CONTINUOUS
 10
3.685356
 20
-0.576539
 30
0.0
 70
    64
  0
VERTEX
  8
0
  6
CONTINUOUS
 10
3.699076
 20
-0.576539
 30
0.0
 70
    64
  0
VERTEX
  8
0
  6
CONTINUOUS
 10
3.712796
 20
-0.576539
 30
0.0
 70
    64
  0
VERTEX
  8
0
  6
CONTINUOUS
 10
3.726516
 20
-0.576539
 30
0.0
 70
    64
  0
VERTEX
  8
0
  6
CONTINUOUS
 10
3.740236
 20
-0.576539
 30
0.0
 70
    64
  0
VERTEX
  8
0
  6
CONTINUOUS
 10
3.753956
 20
-0.576539
 30
0.0
 70
    64
  0
VERTEX
  8
0
  6
CONTINUOUS
 10
3.767676
 20
-0.576539
 30
0.0
 70
    64
  0
VERTEX
  8
0
  6
CONTINUOUS
 10
3.781396
 20
-0.576539
 30
0.0
 70
    64
  0
VERTEX
  8
0
  6
CONTINUOUS
 10
3.795116
 20
-0.576539
 30
0.0
 70
    64
  0
VERTEX
  8
0
  6
CONTINUOUS
 10
3.808836
 20
-0.576539
 30
0.0
 70
    64
  0
VERTEX
  8
0
  6
CONTINUOUS
 10
3.822556
 20
-0.576539
 30
0.0
 70
    64
  0
VERTEX
  8
0
  6
CONTINUOUS
 10
3.836276
 20
-0.576539
 30
0.0
 70
    64
  0
VERTEX
  8
0
  6
CONTINUOUS
 10
3.849996
 20
-0.576539
 30
0.0
 70
    64
  0
VERTEX
  8
0
  6
CONTINUOUS
 10
3.863716
 20
-0.576539
 30
0.0
 70
    64
  0
VERTEX
  8
0
  6
CONTINUOUS
 10
3.877436
 20
-0.576539
 30
0.0
 70
    64
  0
VERTEX
  8
0
  6
CONTINUOUS
 10
3.891156
 20
-0.576539
 30
0.0
 70
    64
  0
VERTEX
  8
0
  6
CONTINUOUS
 10
3.904876
 20
-0.576539
 30
0.0
 70
    64
  0
VERTEX
  8
0
  6
CONTINUOUS
 10
3.918596
 20
-0.576539
 30
0.0
 70
    64
  0
VERTEX
  8
0
  6
CONTINUOUS
 10
3.932316
 20
-0.576539
 30
0.0
 70
    64
  0
VERTEX
  8
0
  6
CONTINUOUS
 10
3.946036
 20
-0.576539
 30
0.0
 70
    64
  0
VERTEX
  8
0
  6
CONTINUOUS
 10
3.959756
 20
-0.576539
 30
0.0
 70
    64
  0
VERTEX
  8
0
  6
CONTINUOUS
 10
3.973476
 20
-0.576539
 30
0.0
 70
    64
  0
VERTEX
  8
0
  6
CONTINUOUS
 10
3.987196
 20
-0.576539
 30
0.0
 70
    64
  0
VERTEX
  8
0
  6
CONTINUOUS
 10
4.000916
 20
-0.576539
 30
0.0
 70
    64
  0
VERTEX
  8
0
  6
CONTINUOUS
 10
4.014636
 20
-0.576539
 30
0.0
 70
    64
  0
VERTEX
  8
0
  6
CONTINUOUS
 10
4.028356
 20
-0.576539
 30
0.0
 70
    64
  0
VERTEX
  8
0
  6
CONTINUOUS
 10
4.042076
 20
-0.576539
 30
0.0
 70
    64
  0
VERTEX
  8
0
  6
CONTINUOUS
 10
4.055796
 20
-0.576539
 30
0.0
 70
    64
  0
VERTEX
  8
0
  6
CONTINUOUS
 10
4.069516
 20
-0.576539
 30
0.0
 70
    64
  0
VERTEX
  8
0
  6
CONTINUOUS
 10
4.083236
 20
-0.576539
 30
0.0
 70
    64
  0
VERTEX
  8
0
  6
CONTINUOUS
 10
4.096956
 20
-0.576539
 30
0.0
 70
    64
  0
VERTEX
  8
0
  6
CONTINUOUS
 10
4.110676
 20
-0.576539
 30
0.0
 70
    64
  0
VERTEX
  8
0
  6
CONTINUOUS
 10
4.124396
 20
-0.576539
 30
0.0
 70
    64
  0
VERTEX
  8
0
  6
CONTINUOUS
 10
4.138116
 20
-0.576539
 30
0.0
 70
    64
  0
VERTEX
  8
0
  6
CONTINUOUS
 10
4.151836
 20
-0.576539
 30
0.0
 70
    64
  0
VERTEX
  8
0
  6
CONTINUOUS
 10
4.165556
 20
-0.576539
 30
0.0
 70
    64
  0
VERTEX
  8
0
  6
CONTINUOUS
 10
4.179276
 20
-0.576539
 30
0.0
 70
    64
  0
VERTEX
  8
0
  6
CONTINUOUS
 10
4.192996
 20
-0.576539
 30
0.0
 70
    64
  0
VERTEX
  8
0
  6
CONTINUOUS
 10
4.206716
 20
-0.576539
 30
0.0
 70
    64
  0
VERTEX
  8
0
  6
CONTINUOUS
 10
4.220436
 20
-0.576539
 30
0.0
 70
    64
  0
VERTEX
  8
0
  6
CONTINUOUS
 10
4.234156
 20
-0.576539
 30
0.0
 70
    64
  0
VERTEX
  8
0
  6
CONTINUOUS
 10
4.247876
 20
-0.576539
 30
0.0
 70
    64
  0
VERTEX
  8
0
  6
CONTINUOUS
 10
4.261596
 20
-0.576539
 30
0.0
 70
    64
  0
VERTEX
  8
0
  6
CONTINUOUS
 10
4.275316
 20
-0.576539
 30
0.0
 70
    64
  0
VERTEX
  8
0
  6
CONTINUOUS
 10
4.289036
 20
-0.576539
 30
0.0
 70
    64
  0
VERTEX
  8
0
  6
CONTINUOUS
 10
4.302756
 20
-0.576539
 30
0.0
 70
    64
  0
VERTEX
  8
0
  6
CONTINUOUS
 10
4.316476
 20
-0.576539
 30
0.0
 70
    64
  0
VERTEX
  8
0
  6
CONTINUOUS
 10
4.330196
 20
-0.576539
 30
0.0
 70
    64
  0
VERTEX
  8
0
  6
CONTINUOUS
 10
4.343916
 20
-0.576539
 30
0.0
 70
    64
  0
VERTEX
  8
0
  6
CONTINUOUS
 10
4.357636
 20
-0.576539
 30
0.0
 70
    64
  0
VERTEX
  8
0
  6
CONTINUOUS
 10
4.371356
 20
-0.576539
 30
0.0
 70
    64
  0
VERTEX
  8
0
  6
CONTINUOUS
 10
4.385076
 20
-0.576539
 30
0.0
 70
    64
  0
VERTEX
  8
0
  6
CONTINUOUS
 10
4.398796
 20
-0.576539
 30
0.0
 70
    64
  0
VERTEX
  8
0
  6
CONTINUOUS
 10
4.412516
 20
-0.576539
 30
0.0
 70
    64
  0
VERTEX
  8
0
  6
CONTINUOUS
 10
4.426236
 20
-0.576539
 30
0.0
 70
    64
  0
VERTEX
  8
0
  6
CONTINUOUS
 10
4.439956
 20
-0.576539
 30
0.0
 70
    64
  0
VERTEX
  8
0
  6
CONTINUOUS
 10
4.453676
 20
-0.576539
 30
0.0
 70
    64
  0
VERTEX
  8
0
  6
CONTINUOUS
 10
4.467396
 20
-0.576539
 30
0.0
 70
    64
  0
VERTEX
  8
0
  6
CONTINUOUS
 10
4.481116
 20
-0.576539
 30
0.0
 70
    64
  0
VERTEX
  8
0
  6
CONTINUOUS
 10
4.494836
 20
-0.576539
 30
0.0
 70
    64
  0
VERTEX
  8
0
  6
CONTINUOUS
 10
4.508556
 20
-0.576539
 30
0.0
 70
    64
  0
VERTEX
  8
0
  6
CONTINUOUS
 10
4.522276
 20
-0.576539
 30
0.0
 70
    64
  0
VERTEX
  8
0
  6
CONTINUOUS
 10
4.535996
 20
-0.576539
 30
0.0
 70
    64
  0
VERTEX
  8
0
  6
CONTINUOUS
 10
4.549716
 20
-0.576539
 30
0.0
 70
    64
  0
VERTEX
  8
0
  6
CONTINUOUS
 10
4.563436
 20
-0.576539
 30
0.0
 70
    64
  0
VERTEX
  8
0
  6
CONTINUOUS
 10
4.577156
 20
-0.576539
 30
0.0
 70
    64
  0
VERTEX
  8
0
  6
CONTINUOUS
 10
4.590876
 20
-0.576539
 30
0.0
 70
    64
  0
VERTEX
  8
0
  6
CONTINUOUS
 10
4.604596
 20
-0.576539
 30
0.0
 70
    64
  0
VERTEX
  8
0
  6
CONTINUOUS
 10
4.618316
 20
-0.576539
 30
0.0
 70
    64
  0
VERTEX
  8
0
  6
CONTINUOUS
 10
4.632036
 20
-0.576539
 30
0.0
 70
    64
  0
VERTEX
  8
0
  6
CONTINUOUS
 10
4.645756
 20
-0.576539
 30
0.0
 70
    64
  0
VERTEX
  8
0
  6
CONTINUOUS
 10
4.659476
 20
-0.576539
 30
0.0
 70
    64
  0
VERTEX
  8
0
  6
CONTINUOUS
 10
4.673196
 20
-0.576539
 30
0.0
 70
    64
  0
VERTEX
  8
0
  6
CONTINUOUS
 10
4.686916
 20
-0.576539
 30
0.0
 70
    64
  0
VERTEX
  8
0
  6
CONTINUOUS
 10
4.700636
 20
-0.576539
 30
0.0
 70
    64
  0
VERTEX
  8
0
  6
CONTINUOUS
 10
4.714356
 20
-0.576539
 30
0.0
 70
    64
  0
VERTEX
  8
0
  6
CONTINUOUS
 10
4.728076
 20
-0.576539
 30
0.0
 70
    64
  0
VERTEX
  8
0
  6
CONTINUOUS
 10
4.741796
 20
-0.576539
 30
0.0
 70
    64
  0
VERTEX
  8
0
  6
CONTINUOUS
 10
4.755516
 20
-0.576539
 30
0.0
 70
    64
  0
VERTEX
  8
0
  6
CONTINUOUS
 10
4.769236
 20
-0.576539
 30
0.0
 70
    64
  0
VERTEX
  8
0
  6
CONTINUOUS
 10
4.782956
 20
-0.576539
 30
0.0
 70
    64
  0
VERTEX
  8
0
  6
CONTINUOUS
 10
4.796676
 20
-0.576539
 30
0.0
 70
    64
  0
VERTEX
  8
0
  6
CONTINUOUS
 10
4.810396
 20
-0.576539
 30
0.0
 70
    64
  0
VERTEX
  8
0
  6
CONTINUOUS
 10
4.824116
 20
-0.576539
 30
0.0
 70
    64
  0
VERTEX
  8
0
  6
CONTINUOUS
 10
4.837836
 20
-0.576539
 30
0.0
 70
    64
  0
VERTEX
  8
0
  6
CONTINUOUS
 10
4.851556
 20
-0.576539
 30
0.0
 70
    64
  0
VERTEX
  8
0
  6
CONTINUOUS
 10
4.865276
 20
-0.576539
 30
0.0
 70
    64
  0
VERTEX
  8
0
  6
CONTINUOUS
 10
4.878996
 20
-0.576539
 30
0.0
 70
    64
  0
VERTEX
  8
0
  6
CONTINUOUS
 10
4.892716
 20
-0.576539
 30
0.0
 70
    64
  0
VERTEX
  8
0
  6
CONTINUOUS
 10
4.906436
 20
-0.576539
 30
0.0
 70
    64
  0
VERTEX
  8
0
  6
CONTINUOUS
 10
4.920156
 20
-0.576539
 30
0.0
 70
    64
  0
VERTEX
  8
0
  6
CONTINUOUS
 10
4.933876
 20
-0.576539
 30
0.0
 70
    64
  0
VERTEX
  8
0
  6
CONTINUOUS
 10
4.947596
 20
-0.576539
 30
0.0
 70
    64
  0
VERTEX
  8
0
  6
CONTINUOUS
 10
4.961316
 20
-0.576539
 30
0.0
 70
    64
  0
VERTEX
  8
0
  6
CONTINUOUS
 10
4.975036
 20
-0.576539
 30
0.0
 70
    64
  0
VERTEX
  8
0
  6
CONTINUOUS
 10
4.988756
 20
-0.576539
 30
0.0
 70
    64
  0
VERTEX
  8
0
  6
CONTINUOUS
 10
5.002476
 20
-0.576539
 30
0.0
 70
    64
  0
VERTEX
  8
0
  6
CONTINUOUS
 10
5.016196
 20
-0.576539
 30
0.0
 70
    64
  0
VERTEX
  8
0
  6
CONTINUOUS
 10
5.029916
 20
-0.576539
 30
0.0
 70
    64
  0
VERTEX
  8
0
  6
CONTINUOUS
 10
5.043636
 20
-0.576539
 30
0.0
 70
    64
  0
VERTEX
  8
0
  6
CONTINUOUS
 10
5.057356
 20
-0.576539
 30
0.0
 70
    64
  0
VERTEX
  8
0
  6
CONTINUOUS
 10
5.071076
 20
-0.576539
 30
0.0
 70
    64
  0
VERTEX
  8
0
  6
CONTINUOUS
 10
5.084796
 20
-0.576539
 30
0.0
 70
    64
  0
VERTEX
  8
0
  6
CONTINUOUS
 10
5.098516
 20
-0.576539
 30
0.0
 70
    64
  0
VERTEX
  8
0
  6
CONTINUOUS
 10
5.112236
 20
-0.576539
 30
0.0
 70
    64
  0
VERTEX
  8
0
  6
CONTINUOUS
 10
5.125956
 20
-0.576539
 30
0.0
 70
    64
  0
VERTEX
  8
0
  6
CONTINUOUS
 10
5.139676
 20
-0.576539
 30
0.0
 70
    64
  0
VERTEX
  8
0
  6
CONTINUOUS
 10
5.153396
 20
-0.576539
 30
0.0
 70
    64
  0
VERTEX
  8
0
  6
CONTINUOUS
 10
5.167116
 20
-0.576539
 30
0.0
 70
    64
  0
VERTEX
  8
0
  6
CONTINUOUS
 10
5.180836
 20
-0.576539
 30
0.0
 70
    64
  0
VERTEX
  8
0
  6
CONTINUOUS
 10
5.194556
 20
-0.576539
 30
0.0
 70
    64
  0
VERTEX
  8
0
  6
CONTINUOUS
 10
5.208276
 20
-0.576539
 30
0.0
 70
    64
  0
VERTEX
  8
0
  6
CONTINUOUS
 10
5.221996
 20
-0.576539
 30
0.0
 70
    64
  0
VERTEX
  8
0
  6
CONTINUOUS
 10
5.235716
 20
-0.576539
 30
0.0
 70
    64
  0
VERTEX
  8
0
  6
CONTINUOUS
 10
5.249436
 20
-0.576539
 30
0.0
 70
    64
  0
VERTEX
  8
0
  6
CONTINUOUS
 10
1.819436
 20
0.403461
 30
0.0
 70
    64
  0
VERTEX
  8
0
  6
CONTINUOUS
 10
1.833156
 20
0.403461
 30
0.0
 70
    64
  0
VERTEX
  8
0
  6
CONTINUOUS
 10
1.846876
 20
0.403461
 30
0.0
 70
    64
  0
VERTEX
  8
0
  6
CONTINUOUS
 10
1.860596
 20
0.403461
 30
0.0
 70
    64
  0
VERTEX
  8
0
  6
CONTINUOUS
 10
1.874316
 20
0.403461
 30
0.0
 70
    64
  0
VERTEX
  8
0
  6
CONTINUOUS
 10
1.888036
 20
0.403461
 30
0.0
 70
    64
  0
VERTEX
  8
0
  6
CONTINUOUS
 10
1.901756
 20
0.403461
 30
0.0
 70
    64
  0
VERTEX
  8
0
  6
CONTINUOUS
 10
1.915476
 20
0.403461
 30
0.0
 70
    64
  0
VERTEX
  8
0
  6
CONTINUOUS
 10
1.929196
 20
0.403461
 30
0.0
 70
    64
  0
VERTEX
  8
0
  6
CONTINUOUS
 10
1.942916
 20
0.403461
 30
0.0
 70
    64
  0
VERTEX
  8
0
  6
CONTINUOUS
 10
1.956636
 20
0.403461
 30
0.0
 70
    64
  0
VERTEX
  8
0
  6
CONTINUOUS
 10
1.970356
 20
0.403461
 30
0.0
 70
    64
  0
VERTEX
  8
0
  6
CONTINUOUS
 10
1.984076
 20
0.403461
 30
0.0
 70
    64
  0
VERTEX
  8
0
  6
CONTINUOUS
 10
1.997796
 20
0.403461
 30
0.0
 70
    64
  0
VERTEX
  8
0
  6
CONTINUOUS
 10
2.011516
 20
0.403461
 30
0.0
 70
    64
  0
VERTEX
  8
0
  6
CONTINUOUS
 10
2.025236
 20
0.403461
 30
0.0
 70
    64
  0
VERTEX
  8
0
  6
CONTINUOUS
 10
2.038956
 20
0.403461
 30
0.0
 70
    64
  0
VERTEX
  8
0
  6
CONTINUOUS
 10
2.052676
 20
0.403461
 30
0.0
 70
    64
  0
VERTEX
  8
0
  6
CONTINUOUS
 10
2.066396
 20
0.403461
 30
0.0
 70
    64
  0
VERTEX
  8
0
  6
CONTINUOUS
 10
2.080116
 20
0.403461
 30
0.0
 70
    64
  0
VERTEX
  8
0
  6
CONTINUOUS
 10
2.093836
 20
0.403461
 30
0.0
 70
    64
  0
VERTEX
  8
0
  6
CONTINUOUS
 10
2.107556
 20
0.403461
 30
0.0
 70
    64
  0
VERTEX
  8
0
  6
CONTINUOUS
 10
2.121276
 20
0.403461
 30
0.0
 70
    64
  0
VERTEX
  8
0
  6
CONTINUOUS
 10
2.134996
 20
0.403461
 30
0.0
 70
    64
  0
VERTEX
  8
0
  6
CONTINUOUS
 10
2.148716
 20
0.403461
 30
0.0
 70
    64
  0
VERTEX
  8
0
  6
CONTINUOUS
 10
2.162436
 20
0.403461
 30
0.0
 70
    64
  0
VERTEX
  8
0
  6
CONTINUOUS
 10
2.176156
 20
0.403461
 30
0.0
 70
    64
  0
VERTEX
  8
0
  6
CONTINUOUS
 10
2.189876
 20
0.403461
 30
0.0
 70
    64
  0
VERTEX
  8
0
  6
CONTINUOUS
 10
2.203596
 20
0.403461
 30
0.0
 70
    64
  0
VERTEX
  8
0
  6
CONTINUOUS
 10
2.217316
 20
0.403461
 30
0.0
 70
    64
  0
VERTEX
  8
0
  6
CONTINUOUS
 10
2.231036
 20
0.403461
 30
0.0
 70
    64
  0
VERTEX
  8
0
  6
CONTINUOUS
 10
2.244756
 20
0.403461
 30
0.0
 70
    64
  0
VERTEX
  8
0
  6
CONTINUOUS
 10
2.258476
 20
0.403461
 30
0.0
 70
    64
  0
VERTEX
  8
0
  6
CONTINUOUS
 10
2.272196
 20
0.403461
 30
0.0
 70
    64
  0
VERTEX
  8
0
  6
CONTINUOUS
 10
2.285916
 20
0.403461
 30
0.0
 70
    64
  0
VERTEX
  8
0
  6
CONTINUOUS
 10
2.299636
 20
0.403461
 30
0.0
 70
    64
  0
VERTEX
  8
0
  6
CONTINUOUS
 10
2.313356
 20
0.403461
 30
0.0
 70
    64
  0
VERTEX
  8
0
  6
CONTINUOUS
 10
2.327076
 20
0.403461
 30
0.0
 70
    64
  0
VERTEX
  8
0
  6
CONTINUOUS
 10
2.340796
 20
0.403461
 30
0.0
 70
    64
  0
VERTEX
  8
0
  6
CONTINUOUS
 10
2.354516
 20
0.403461
 30
0.0
 70
    64
  0
VERTEX
  8
0
  6
CONTINUOUS
 10
2.368236
 20
0.403461
 30
0.0
 70
    64
  0
VERTEX
  8
0
  6
CONTINUOUS
 10
2.381956
 20
0.403461
 30
0.0
 70
    64
  0
VERTEX
  8
0
  6
CONTINUOUS
 10
2.395676
 20
0.403461
 30
0.0
 70
    64
  0
VERTEX
  8
0
  6
CONTINUOUS
 10
2.409396
 20
0.403461
 30
0.0
 70
    64
  0
VERTEX
  8
0
  6
CONTINUOUS
 10
2.423116
 20
0.403461
 30
0.0
 70
    64
  0
VERTEX
  8
0
  6
CONTINUOUS
 10
2.436836
 20
0.403461
 30
0.0
 70
    64
  0
VERTEX
  8
0
  6
CONTINUOUS
 10
2.450556
 20
0.403461
 30
0.0
 70
    64
  0
VERTEX
  8
0
  6
CONTINUOUS
 10
2.464276
 20
0.403461
 30
0.0
 70
    64
  0
VERTEX
  8
0
  6
CONTINUOUS
 10
2.477996
 20
0.403461
 30
0.0
 70
    64
  0
VERTEX
  8
0
  6
CONTINUOUS
 10
2.491716
 20
0.403461
 30
0.0
 70
    64
  0
VERTEX
  8
0
  6
CONTINUOUS
 10
2.505436
 20
0.403461
 30
0.0
 70
    64
  0
VERTEX
  8
0
  6
CONTINUOUS
 10
2.519156
 20
0.403461
 30
0.0
 70
    64
  0
VERTEX
  8
0
  6
CONTINUOUS
 10
2.532876
 20
0.403461
 30
0.0
 70
    64
  0
VERTEX
  8
0
  6
CONTINUOUS
 10
2.546596
 20
0.403461
 30
0.0
 70
    64
  0
VERTEX
  8
0
  6
CONTINUOUS
 10
2.560316
 20
0.403461
 30
0.0
 70
    64
  0
VERTEX
  8
0
  6
CONTINUOUS
 10
2.574036
 20
0.403461
 30
0.0
 70
    64
  0
VERTEX
  8
0
  6
CONTINUOUS
 10
2.587756
 20
0.403461
 30
0.0
 70
    64
  0
VERTEX
  8
0
  6
CONTINUOUS
 10
2.601476
 20
0.403461
 30
0.0
 70
    64
  0
VERTEX
  8
0
  6
CONTINUOUS
 10
2.615196
 20
0.403461
 30
0.0
 70
    64
  0
VERTEX
  8
0
  6
CONTINUOUS
 10
2.628916
 20
0.403461
 30
0.0
 70
    64
  0
VERTEX
  8
0
  6
CONTINUOUS
 10
2.642636
 20
0.403461
 30
0.0
 70
    64
  0
VERTEX
  8
0
  6
CONTINUOUS
 10
2.656356
 20
0.403461
 30
0.0
 70
    64
  0
VERTEX
  8
0
  6
CONTINUOUS
 10
2.670076
 20
0.403461
 30
0.0
 70
    64
  0
VERTEX
  8
0
  6
CONTINUOUS
 10
2.683796
 20
0.403461
 30
0.0
 70
    64
  0
VERTEX
  8
0
  6
CONTINUOUS
 10
2.697516
 20
0.403461
 30
0.0
 70
    64
  0
VERTEX
  8
0
  6
CONTINUOUS
 10
2.711236
 20
0.403461
 30
0.0
 70
    64
  0
VERTEX
  8
0
  6
CONTINUOUS
 10
2.724956
 20
0.403461
 30
0.0
 70
    64
  0
VERTEX
  8
0
  6
CONTINUOUS
 10
2.738676
 20
0.403461
 30
0.0
 70
    64
  0
VERTEX
  8
0
  6
CONTINUOUS
 10
2.752396
 20
0.403461
 30
0.0
 70
    64
  0
VERTEX
  8
0
  6
CONTINUOUS
 10
2.766116
 20
0.403461
 30
0.0
 70
    64
  0
VERTEX
  8
0
  6
CONTINUOUS
 10
2.779836
 20
0.403461
 30
0.0
 70
    64
  0
VERTEX
  8
0
  6
CONTINUOUS
 10
2.793556
 20
0.403461
 30
0.0
 70
    64
  0
VERTEX
  8
0
  6
CONTINUOUS
 10
2.807276
 20
0.403461
 30
0.0
 70
    64
  0
VERTEX
  8
0
  6
CONTINUOUS
 10
2.820996
 20
0.403461
 30
0.0
 70
    64
  0
VERTEX
  8
0
  6
CONTINUOUS
 10
2.834716
 20
0.403461
 30
0.0
 70
    64
  0
VERTEX
  8
0
  6
CONTINUOUS
 10
2.848436
 20
0.403461
 30
0.0
 70
    64
  0
VERTEX
  8
0
  6
CONTINUOUS
 10
2.862156
 20
0.403461
 30
0.0
 70
    64
  0
VERTEX
  8
0
  6
CONTINUOUS
 10
2.875876
 20
0.403461
 30
0.0
 70
    64
  0
VERTEX
  8
0
  6
CONTINUOUS
 10
2.889596
 20
0.403461
 30
0.0
 70
    64
  0
VERTEX
  8
0
  6
CONTINUOUS
 10
2.903316
 20
0.403461
 30
0.0
 70
    64
  0
VERTEX
  8
0
  6
CONTINUOUS
 10
2.917036
 20
0.403461
 30
0.0
 70
    64
  0
VERTEX
  8
0
  6
CONTINUOUS
 10
2.930756
 20
0.403461
 30
0.0
 70
    64
  0
VERTEX
  8
0
  6
CONTINUOUS
 10
2.944476
 20
0.403461
 30
0.0
 70
    64
  0
VERTEX
  8
0
  6
CONTINUOUS
 10
2.958196
 20
0.403461
 30
0.0
 70
    64
  0
VERTEX
  8
0
  6
CONTINUOUS
 10
2.971916
 20
0.403461
 30
0.0
 70
    64
  0
VERTEX
  8
0
  6
CONTINUOUS
 10
2.985636
 20
0.403461
 30
0.0
 70
    64
  0
VERTEX
  8
0
  6
CONTINUOUS
 10
2.999356
 20
0.403461
 30
0.0
 70
    64
  0
VERTEX
  8
0
  6
CONTINUOUS
 10
3.013076
 20
0.403461
 30
0.0
 70
    64
  0
VERTEX
  8
0
  6
CONTINUOUS
 10
3.026796
 20
0.403461
 30
0.0
 70
    64
  0
VERTEX
  8
0
  6
CONTINUOUS
 10
3.040516
 20
0.403461
 30
0.0
 70
    64
  0
VERTEX
  8
0
  6
CONTINUOUS
 10
3.054236
 20
0.403461
 30
0.0
 70
    64
  0
VERTEX
  8
0
  6
CONTINUOUS
 10
3.067956
 20
0.403461
 30
0.0
 70
    64
  0
VERTEX
  8
0
  6
CONTINUOUS
 10
3.081676
 20
0.403461
 30
0.0
 70
    64
  0
VERTEX
  8
0
  6
CONTINUOUS
 10
3.095396
 20
0.403461
 30
0.0
 70
    64
  0
VERTEX
  8
0
  6
CONTINUOUS
 10
3.109116
 20
0.403461
 30
0.0
 70
    64
  0
VERTEX
  8
0
  6
CONTINUOUS
 10
3.122836
 20
0.403461
 30
0.0
 70
    64
  0
VERTEX
  8
0
  6
CONTINUOUS
 10
3.136556
 20
0.403461
 30
0.0
 70
    64
  0
VERTEX
  8
0
  6
CONTINUOUS
 10
3.150276
 20
0.403461
 30
0.0
 70
    64
  0
VERTEX
  8
0
  6
CONTINUOUS
 10
3.163996
 20
0.403461
 30
0.0
 70
    64
  0
VERTEX
  8
0
  6
CONTINUOUS
 10
3.177716
 20
0.403461
 30
0.0
 70
    64
  0
VERTEX
  8
0
  6
CONTINUOUS
 10
3.191436
 20
0.403461
 30
0.0
 70
    64
  0
VERTEX
  8
0
  6
CONTINUOUS
 10
3.205156
 20
0.403461
 30
0.0
 70
    64
  0
VERTEX
  8
0
  6
CONTINUOUS
 10
3.218876
 20
0.403461
 30
0.0
 70
    64
  0
VERTEX
  8
0
  6
CONTINUOUS
 10
3.232596
 20
0.403461
 30
0.0
 70
    64
  0
VERTEX
  8
0
  6
CONTINUOUS
 10
3.246316
 20
0.403461
 30
0.0
 70
    64
  0
VERTEX
  8
0
  6
CONTINUOUS
 10
3.260036
 20
0.403461
 30
0.0
 70
    64
  0
VERTEX
  8
0
  6
CONTINUOUS
 10
3.273756
 20
0.403461
 30
0.0
 70
    64
  0
VERTEX
  8
0
  6
CONTINUOUS
 10
3.287476
 20
0.403461
 30
0.0
 70
    64
  0
VERTEX
  8
0
  6
CONTINUOUS
 10
3.301196
 20
0.403461
 30
0.0
 70
    64
  0
VERTEX
  8
0
  6
CONTINUOUS
 10
3.314916
 20
0.403461
 30
0.0
 70
    64
  0
VERTEX
  8
0
  6
CONTINUOUS
 10
3.328636
 20
0.403461
 30
0.0
 70
    64
  0
VERTEX
  8
0
  6
CONTINUOUS
 10
3.342356
 20
0.403461
 30
0.0
 70
    64
  0
VERTEX
  8
0
  6
CONTINUOUS
 10
3.356076
 20
0.403461
 30
0.0
 70
    64
  0
VERTEX
  8
0
  6
CONTINUOUS
 10
3.369796
 20
0.403461
 30
0.0
 70
    64
  0
VERTEX
  8
0
  6
CONTINUOUS
 10
3.383516
 20
0.403461
 30
0.0
 70
    64
  0
VERTEX
  8
0
  6
CONTINUOUS
 10
3.397236
 20
0.403461
 30
0.0
 70
    64
  0
VERTEX
  8
0
  6
CONTINUOUS
 10
3.410956
 20
0.403461
 30
0.0
 70
    64
  0
VERTEX
  8
0
  6
CONTINUOUS
 10
3.424676
 20
0.403461
 30
0.0
 70
    64
  0
VERTEX
  8
0
  6
CONTINUOUS
 10
3.438396
 20
0.403461
 30
0.0
 70
    64
  0
VERTEX
  8
0
  6
CONTINUOUS
 10
3.452116
 20
0.403461
 30
0.0
 70
    64
  0
VERTEX
  8
0
  6
CONTINUOUS
 10
3.465836
 20
0.403461
 30
0.0
 70
    64
  0
VERTEX
  8
0
  6
CONTINUOUS
 10
3.479556
 20
0.403461
 30
0.0
 70
    64
  0
VERTEX
  8
0
  6
CONTINUOUS
 10
3.493276
 20
0.403461
 30
0.0
 70
    64
  0
VERTEX
  8
0
  6
CONTINUOUS
 10
3.506996
 20
0.403461
 30
0.0
 70
    64
  0
VERTEX
  8
0
  6
CONTINUOUS
 10
3.520716
 20
0.403461
 30
0.0
 70
    64
  0
VERTEX
  8
0
  6
CONTINUOUS
 10
3.534436
 20
0.403461
 30
0.0
 70
    64
  0
VERTEX
  8
0
  6
CONTINUOUS
 10
3.548156
 20
0.403461
 30
0.0
 70
    64
  0
VERTEX
  8
0
  6
CONTINUOUS
 10
3.561876
 20
0.403461
 30
0.0
 70
    64
  0
VERTEX
  8
0
  6
CONTINUOUS
 10
3.575596
 20
0.403461
 30
0.0
 70
    64
  0
VERTEX
  8
0
  6
CONTINUOUS
 10
3.589316
 20
0.403461
 30
0.0
 70
    64
  0
VERTEX
  8
0
  6
CONTINUOUS
 10
3.603036
 20
0.403461
 30
0.0
 70
    64
  0
VERTEX
  8
0
  6
CONTINUOUS
 10
3.616756
 20
0.403461
 30
0.0
 70
    64
  0
VERTEX
  8
0
  6
CONTINUOUS
 10
3.630476
 20
0.403461
 30
0.0
 70
    64
  0
VERTEX
  8
0
  6
CONTINUOUS
 10
3.644196
 20
0.403461
 30
0.0
 70
    64
  0
VERTEX
  8
0
  6
CONTINUOUS
 10
3.657916
 20
0.403461
 30
0.0
 70
    64
  0
VERTEX
  8
0
  6
CONTINUOUS
 10
3.671636
 20
0.403461
 30
0.0
 70
    64
  0
VERTEX
  8
0
  6
CONTINUOUS
 10
3.685356
 20
0.403461
 30
0.0
 70
    64
  0
VERTEX
  8
0
  6
CONTINUOUS
 10
3.699076
 20
0.403461
 30
0.0
 70
    64
  0
VERTEX
  8
0
  6
CONTINUOUS
 10
3.712796
 20
0.403461
 30
0.0
 70
    64
  0
VERTEX
  8
0
  6
CONTINUOUS
 10
3.726516
 20
0.403461
 30
0.0
 70
    64
  0
VERTEX
  8
0
  6
CONTINUOUS
 10
3.740236
 20
0.403461
 30
0.0
 70
    64
  0
VERTEX
  8
0
  6
CONTINUOUS
 10
3.753956
 20
0.403461
 30
0.0
 70
    64
  0
VERTEX
  8
0
  6
CONTINUOUS
 10
3.767676
 20
0.403461
 30
0.0
 70
    64
  0
VERTEX
  8
0
  6
CONTINUOUS
 10
3.781396
 20
0.403461
 30
0.0
 70
    64
  0
VERTEX
  8
0
  6
CONTINUOUS
 10
3.795116
 20
0.403461
 30
0.0
 70
    64
  0
VERTEX
  8
0
  6
CONTINUOUS
 10
3.808836
 20
0.403461
 30
0.0
 70
    64
  0
VERTEX
  8
0
  6
CONTINUOUS
 10
3.822556
 20
0.403461
 30
0.0
 70
    64
  0
VERTEX
  8
0
  6
CONTINUOUS
 10
3.836276
 20
0.403461
 30
0.0
 70
    64
  0
VERTEX
  8
0
  6
CONTINUOUS
 10
3.849996
 20
0.403461
 30
0.0
 70
    64
  0
VERTEX
  8
0
  6
CONTINUOUS
 10
3.863716
 20
0.403461
 30
0.0
 70
    64
  0
VERTEX
  8
0
  6
CONTINUOUS
 10
3.877436
 20
0.403461
 30
0.0
 70
    64
  0
VERTEX
  8
0
  6
CONTINUOUS
 10
3.891156
 20
0.403461
 30
0.0
 70
    64
  0
VERTEX
  8
0
  6
CONTINUOUS
 10
3.904876
 20
0.403461
 30
0.0
 70
    64
  0
VERTEX
  8
0
  6
CONTINUOUS
 10
3.918596
 20
0.403461
 30
0.0
 70
    64
  0
VERTEX
  8
0
  6
CONTINUOUS
 10
3.932316
 20
0.403461
 30
0.0
 70
    64
  0
VERTEX
  8
0
  6
CONTINUOUS
 10
3.946036
 20
0.403461
 30
0.0
 70
    64
  0
VERTEX
  8
0
  6
CONTINUOUS
 10
3.959756
 20
0.403461
 30
0.0
 70
    64
  0
VERTEX
  8
0
  6
CONTINUOUS
 10
3.973476
 20
0.403461
 30
0.0
 70
    64
  0
VERTEX
  8
0
  6
CONTINUOUS
 10
3.987196
 20
0.403461
 30
0.0
 70
    64
  0
VERTEX
  8
0
  6
CONTINUOUS
 10
4.000916
 20
0.403461
 30
0.0
 70
    64
  0
VERTEX
  8
0
  6
CONTINUOUS
 10
4.014636
 20
0.403461
 30
0.0
 70
    64
  0
VERTEX
  8
0
  6
CONTINUOUS
 10
4.028356
 20
0.403461
 30
0.0
 70
    64
  0
VERTEX
  8
0
  6
CONTINUOUS
 10
4.042076
 20
0.403461
 30
0.0
 70
    64
  0
VERTEX
  8
0
  6
CONTINUOUS
 10
4.055796
 20
0.403461
 30
0.0
 70
    64
  0
VERTEX
  8
0
  6
CONTINUOUS
 10
4.069516
 20
0.403461
 30
0.0
 70
    64
  0
VERTEX
  8
0
  6
CONTINUOUS
 10
4.083236
 20
0.403461
 30
0.0
 70
    64
  0
VERTEX
  8
0
  6
CONTINUOUS
 10
4.096956
 20
0.403461
 30
0.0
 70
    64
  0
VERTEX
  8
0
  6
CONTINUOUS
 10
4.110676
 20
0.403461
 30
0.0
 70
    64
  0
VERTEX
  8
0
  6
CONTINUOUS
 10
4.124396
 20
0.403461
 30
0.0
 70
    64
  0
VERTEX
  8
0
  6
CONTINUOUS
 10
4.138116
 20
0.403461
 30
0.0
 70
    64
  0
VERTEX
  8
0
  6
CONTINUOUS
 10
4.151836
 20
0.403461
 30
0.0
 70
    64
  0
VERTEX
  8
0
  6
CONTINUOUS
 10
4.165556
 20
0.403461
 30
0.0
 70
    64
  0
VERTEX
  8
0
  6
CONTINUOUS
 10
4.179276
 20
0.403461
 30
0.0
 70
    64
  0
VERTEX
  8
0
  6
CONTINUOUS
 10
4.192996
 20
0.403461
 30
0.0
 70
    64
  0
VERTEX
  8
0
  6
CONTINUOUS
 10
4.206716
 20
0.403461
 30
0.0
 70
    64
  0
VERTEX
  8
0
  6
CONTINUOUS
 10
4.220436
 20
0.403461
 30
0.0
 70
    64
  0
VERTEX
  8
0
  6
CONTINUOUS
 10
4.234156
 20
0.403461
 30
0.0
 70
    64
  0
VERTEX
  8
0
  6
CONTINUOUS
 10
4.247876
 20
0.403461
 30
0.0
 70
    64
  0
VERTEX
  8
0
  6
CONTINUOUS
 10
4.261596
 20
0.403461
 30
0.0
 70
    64
  0
VERTEX
  8
0
  6
CONTINUOUS
 10
4.275316
 20
0.403461
 30
0.0
 70
    64
  0
VERTEX
  8
0
  6
CONTINUOUS
 10
4.289036
 20
0.403461
 30
0.0
 70
    64
  0
VERTEX
  8
0
  6
CONTINUOUS
 10
4.302756
 20
0.403461
 30
0.0
 70
    64
  0
VERTEX
  8
0
  6
CONTINUOUS
 10
4.316476
 20
0.403461
 30
0.0
 70
    64
  0
VERTEX
  8
0
  6
CONTINUOUS
 10
4.330196
 20
0.403461
 30
0.0
 70
    64
  0
VERTEX
  8
0
  6
CONTINUOUS
 10
4.343916
 20
0.403461
 30
0.0
 70
    64
  0
VERTEX
  8
0
  6
CONTINUOUS
 10
4.357636
 20
0.403461
 30
0.0
 70
    64
  0
VERTEX
  8
0
  6
CONTINUOUS
 10
4.371356
 20
0.403461
 30
0.0
 70
    64
  0
VERTEX
  8
0
  6
CONTINUOUS
 10
4.385076
 20
0.403461
 30
0.0
 70
    64
  0
VERTEX
  8
0
  6
CONTINUOUS
 10
4.398796
 20
0.403461
 30
0.0
 70
    64
  0
VERTEX
  8
0
  6
CONTINUOUS
 10
4.412516
 20
0.403461
 30
0.0
 70
    64
  0
VERTEX
  8
0
  6
CONTINUOUS
 10
4.426236
 20
0.403461
 30
0.0
 70
    64
  0
VERTEX
  8
0
  6
CONTINUOUS
 10
4.439956
 20
0.403461
 30
0.0
 70
    64
  0
VERTEX
  8
0
  6
CONTINUOUS
 10
4.453676
 20
0.403461
 30
0.0
 70
    64
  0
VERTEX
  8
0
  6
CONTINUOUS
 10
4.467396
 20
0.403461
 30
0.0
 70
    64
  0
VERTEX
  8
0
  6
CONTINUOUS
 10
4.481116
 20
0.403461
 30
0.0
 70
    64
  0
VERTEX
  8
0
  6
CONTINUOUS
 10
4.494836
 20
0.403461
 30
0.0
 70
    64
  0
VERTEX
  8
0
  6
CONTINUOUS
 10
4.508556
 20
0.403461
 30
0.0
 70
    64
  0
VERTEX
  8
0
  6
CONTINUOUS
 10
4.522276
 20
0.403461
 30
0.0
 70
    64
  0
VERTEX
  8
0
  6
CONTINUOUS
 10
4.535996
 20
0.403461
 30
0.0
 70
    64
  0
VERTEX
  8
0
  6
CONTINUOUS
 10
4.549716
 20
0.403461
 30
0.0
 70
    64
  0
VERTEX
  8
0
  6
CONTINUOUS
 10
4.563436
 20
0.403461
 30
0.0
 70
    64
  0
VERTEX
  8
0
  6
CONTINUOUS
 10
4.577156
 20
0.403461
 30
0.0
 70
    64
  0
VERTEX
  8
0
  6
CONTINUOUS
 10
4.590876
 20
0.403461
 30
0.0
 70
    64
  0
VERTEX
  8
0
  6
CONTINUOUS
 10
4.604596
 20
0.403461
 30
0.0
 70
    64
  0
VERTEX
  8
0
  6
CONTINUOUS
 10
4.618316
 20
0.403461
 30
0.0
 70
    64
  0
VERTEX
  8
0
  6
CONTINUOUS
 10
4.632036
 20
0.403461
 30
0.0
 70
    64
  0
VERTEX
  8
0
  6
CONTINUOUS
 10
4.645756
 20
0.403461
 30
0.0
 70
    64
  0
VERTEX
  8
0
  6
CONTINUOUS
 10
4.659476
 20
0.403461
 30
0.0
 70
    64
  0
VERTEX
  8
0
  6
CONTINUOUS
 10
4.673196
 20
0.403461
 30
0.0
 70
    64
  0
VERTEX
  8
0
  6
CONTINUOUS
 10
4.686916
 20
0.403461
 30
0.0
 70
    64
  0
VERTEX
  8
0
  6
CONTINUOUS
 10
4.700636
 20
0.403461
 30
0.0
 70
    64
  0
VERTEX
  8
0
  6
CONTINUOUS
 10
4.714356
 20
0.403461
 30
0.0
 70
    64
  0
VERTEX
  8
0
  6
CONTINUOUS
 10
4.728076
 20
0.403461
 30
0.0
 70
    64
  0
VERTEX
  8
0
  6
CONTINUOUS
 10
4.741796
 20
0.403461
 30
0.0
 70
    64
  0
VERTEX
  8
0
  6
CONTINUOUS
 10
4.755516
 20
0.403461
 30
0.0
 70
    64
  0
VERTEX
  8
0
  6
CONTINUOUS
 10
4.769236
 20
0.403461
 30
0.0
 70
    64
  0
VERTEX
  8
0
  6
CONTINUOUS
 10
4.782956
 20
0.403461
 30
0.0
 70
    64
  0
VERTEX
  8
0
  6
CONTINUOUS
 10
4.796676
 20
0.403461
 30
0.0
 70
    64
  0
VERTEX
  8
0
  6
CONTINUOUS
 10
4.810396
 20
0.403461
 30
0.0
 70
    64
  0
VERTEX
  8
0
  6
CONTINUOUS
 10
4.824116
 20
0.403461
 30
0.0
 70
    64
  0
VERTEX
  8
0
  6
CONTINUOUS
 10
4.837836
 20
0.403461
 30
0.0
 70
    64
  0
VERTEX
  8
0
  6
CONTINUOUS
 10
4.851556
 20
0.403461
 30
0.0
 70
    64
  0
VERTEX
  8
0
  6
CONTINUOUS
 10
4.865276
 20
0.403461
 30
0.0
 70
    64
  0
VERTEX
  8
0
  6
CONTINUOUS
 10
4.878996
 20
0.403461
 30
0.0
 70
    64
  0
VERTEX
  8
0
  6
CONTINUOUS
 10
4.892716
 20
0.403461
 30
0.0
 70
    64
  0
VERTEX
  8
0
  6
CONTINUOUS
 10
4.906436
 20
0.403461
 30
0.0
 70
    64
  0
VERTEX
  8
0
  6
CONTINUOUS
 10
4.920156
 20
0.403461
 30
0.0
 70
    64
  0
VERTEX
  8
0
  6
CONTINUOUS
 10
4.933876
 20
0.403461
 30
0.0
 70
    64
  0
VERTEX
  8
0
  6
CONTINUOUS
 10
4.947596
 20
0.403461
 30
0.0
 70
    64
  0
VERTEX
  8
0
  6
CONTINUOUS
 10
4.961316
 20
0.403461
 30
0.0
 70
    64
  0
VERTEX
  8
0
  6
CONTINUOUS
 10
4.975036
 20
0.403461
 30
0.0
 70
    64
  0
VERTEX
  8
0
  6
CONTINUOUS
 10
4.988756
 20
0.403461
 30
0.0
 70
    64
  0
VERTEX
  8
0
  6
CONTINUOUS
 10
5.002476
 20
0.403461
 30
0.0
 70
    64
  0
VERTEX
  8
0
  6
CONTINUOUS
 10
5.016196
 20
0.403461
 30
0.0
 70
    64
  0
VERTEX
  8
0
  6
CONTINUOUS
 10
5.029916
 20
0.403461
 30
0.0
 70
    64
  0
VERTEX
  8
0
  6
CONTINUOUS
 10
5.043636
 20
0.403461
 30
0.0
 70
    64
  0
VERTEX
  8
0
  6
CONTINUOUS
 10
5.057356
 20
0.403461
 30
0.0
 70
    64
  0
VERTEX
  8
0
  6
CONTINUOUS
 10
5.071076
 20
0.403461
 30
0.0
 70
    64
  0
VERTEX
  8
0
  6
CONTINUOUS
 10
5.084796
 20
0.403461
 30
0.0
 70
    64
  0
VERTEX
  8
0
  6
CONTINUOUS
 10
5.098516
 20
0.403461
 30
0.0
 70
    64
  0
VERTEX
  8
0
  6
CONTINUOUS
 10
5.112236
 20
0.403461
 30
0.0
 70
    64
  0
VERTEX
  8
0
  6
CONTINUOUS
 10
5.125956
 20
0.403461
 30
0.0
 70
    64
  0
VERTEX
  8
0
  6
CONTINUOUS
 10
5.139676
 20
0.403461
 30
0.0
 70
    64
  0
VERTEX
  8
0
  6
CONTINUOUS
 10
5.153396
 20
0.403461
 30
0.0
 70
    64
  0
VERTEX
  8
0
  6
CONTINUOUS
 10
5.167116
 20
0.403461
 30
0.0
 70
    64
  0
VERTEX
  8
0
  6
CONTINUOUS
 10
5.180836
 20
0.403461
 30
0.0
 70
    64
  0
VERTEX
  8
0
  6
CONTINUOUS
 10
5.194556
 20
0.403461
 30
0.0
 70
    64
  0
VERTEX
  8
0
  6
CONTINUOUS
 10
5.208276
 20
0.403461
 30
0.0
 70
    64
  0
VERTEX
  8
0
  6
CONTINUOUS
 10
5.221996
 20
0.403461
 30
0.0
 70
    64
  0
VERTEX
  8
0
  6
CONTINUOUS
 10
5.235716
 20
0.403461
 30
0.0
 70
    64
  0
VERTEX
  8
0
  6
CONTINUOUS
 10
5.249436
 20
0.403461
 30
0.0
 70
    64
  0
SEQEND
  8
0
  6
CONTINUOUS
  0
LINE
  8
0
  6
DASHED
 10
5.0
 20
-0.086539
 30
0.0
 11
15.0
 21
-0.086539
 31
0.0
  0
ARC
  8
0
  6
CONTINUOUS
 10
2.5
 20
-0.086539
 30
0.0
 40
2.5
 50
90.0
 51
270.0
  0
ENDBLK
  8
0
  0
BLOCK
  8
0
  2
B507
 70
     0
 10
0.0
 20
0.0
 30
0.0
  3
B507
  0
LINE
  8
0
  6
CONTINUOUS
 10
0.079622
 20
0.147754
 30
0.0
 11
0.079622
 21
-9.002074
 31
0.0
  0
INSERT
  8
0
  6
CONTINUOUS
  2
BLC29
 10
0.212369
 20
-6.641509
 30
0.0
 50
270.0
  0
ENDBLK
  8
0
  0
BLOCK
  8
0
  2
B506
 70
    64
 10
0.0
 20
0.0
 30
0.0
  3
B506
  0
INSERT
  8
BASE
  6
CONTINUOUS
  2
BLC29
 10
1.994594
 20
-0.128476
 30
0.0
 50
180.0
  0
ENDBLK
  8
0
  0
ENDSEC
  0
SECTION
  2
ENTITIES
  0
INSERT
  8
0
  2
1
 10
65.405438
 20
98.713066
 30
0.0
  0
INSERT
  8
0
  2
1
 10
72.541652
 20
49.71056
 30
0.0
  0
INSERT
  8
0
  2
1
 10
85.390443
 20
73.497234
 30
0.0
  0
LINE
  8
0
  6
CENTER
 62
   249
 10
260.0
 20
195.0
 30
0.0
 11
260.0
 21
87.5
 31
0.0
  0
LINE
  8
0
  6
CENTER
 62
   249
 10
260.0
 20
87.5
 30
0.0
 11
260.0
 21
57.5
 31
0.0
  0
LINE
  8
0
  6
CONTINUOUS
 62
   249
 10
210.450615
 20
202.209828
 30
0.0
 11
210.450615
 21
160.0
 31
0.0
  0
LINE
  8
0
  6
CONTINUOUS
 62
   249
 10
210.450615
 20
230.0
 30
0.0
 11
210.450615
 21
202.18832
 31
0.0
  0
LINE
  8
0
  6
CENTER
 62
   249
 10
260.0
 20
217.5
 30
0.0
 11
260.0
 21
195.0
 31
0.0
  0
LINE
  8
0
  6
CONTINUOUS
 62
   249
 10
180.0
 20
215.0
 30
0.0
 11
180.0
 21
200.0
 31
0.0
  0
LINE
  8
0
  6
CONTINUOUS
 62
   249
 10
180.0
 20
215.0
 30
0.0
 11
180.0
 21
230.0
 31
0.0
  0
LINE
  8
0
  6
CONTINUOUS
 62
   249
 10
180.0
 20
200.0
 30
0.0
 11
180.0
 21
160.0
 31
0.0
  0
LINE
  8
0
  6
CENTER
 62
   249
 10
40.0
 20
242.5
 30
0.0
 11
40.0
 21
57.5
 31
0.0
  0
LINE
  8
0
  6
CONTINUOUS
 62
   249
 10
61.853436
 20
132.138137
 30
0.0
 11
56.756076
 21
129.285297
 31
0.0
  0
LINE
  8
0
  6
CONTINUOUS
 62
   249
 10
74.353436
 20
122.138137
 30
0.0
 11
69.256076
 21
119.285297
 31
0.0
  0
LINE
  8
0
  6
CONTINUOUS
 62
   249
 10
75.740939
 20
122.5
 30
0.0
 11
77.5
 21
122.5
 31
0.0
  0
LINE
  8
0
  6
CONTINUOUS
 62
   249
 10
70.0
 20
122.5
 30
0.0
 11
40.0
 21
122.5
 31
0.0
  0
LINE
  8
0
  6
DASHED
 62
   249
 10
60.0
 20
137.5
 30
0.0
 11
60.0
 21
131.100824
 31
0.0
  0
LINE
  8
0
  6
DASHED
 62
   249
 10
72.5
 20
135.0
 30
0.0
 11
72.5
 21
121.100824
 31
0.0
  0
LINE
  8
0
  6
DASHED
 62
   249
 10
85.0
 20
135.0
 30
0.0
 11
85.0
 21
106.100824
 31
0.0
  0
LINE
  8
0
  6
DASHED
 62
   249
 10
97.5
 20
135.0
 30
0.0
 11
97.5
 21
91.100824
 31
0.0
  0
LINE
  8
0
  6
DASHED
 62
   249
 10
107.5
 20
112.5
 30
0.0
 11
107.5
 21
76.100824
 31
0.0
  0
TEXT
  8
0
  6
DASHED
 62
   249
 10
55.697373
 20
133.403492
 30
0.0
 40
2.0
  1
A
  7
ROMANS
  0
TEXT
  8
0
  6
DASHED
 62
   249
 10
69.143373
 20
123.774588
 30
0.0
 40
2.0
  1
B
  7
ROMANS
  0
TEXT
  8
0
  6
DASHED
 62
   249
 10
81.055109
 20
108.134364
 30
0.0
 40
2.0
  1
C
  7
ROMANS
  0
TEXT
  8
0
  6
DASHED
 62
   249
 10
93.484014
 20
93.255752
 30
0.0
 40
2.0
  1
D
  7
ROMANS
  0
TEXT
  8
0
  6
DASHED
 62
   249
 10
103.171573
 20
78.364654
 30
0.0
 40
2.0
  1
E
  7
ROMANS
  0
LINE
  8
0
  6
CENTER
 62
   249
 10
40.0
 20
57.5
 30
0.0
 11
260.0
 21
57.5
 31
0.0
  0
LINE
  8
0
  6
CONTINUOUS
 62
   249
 10
240.0
 20
177.5
 30
0.0
 11
241.0
 21
176.5
 31
0.0
  0
LINE
  8
0
  6
CONTINUOUS
 62
   249
 10
240.0
 20
222.5
 30
0.0
 11
241.0
 21
223.5
 31
0.0
  0
LINE
  8
0
  6
CONTINUOUS
 62
   249
 10
240.0
 20
222.5
 30
0.0
 11
240.0
 21
177.5
 31
0.0
  0
LINE
  8
0
  6
CENTER
 62
   249
 10
260.0
 20
217.5
 30
0.0
 11
260.0
 21
242.5
 31
0.0
  0
LINE
  8
0
  6
CENTER
 62
   249
 10
260.0
 20
242.5
 30
0.0
 11
40.0
 21
242.5
 31
0.0
  0
LINE
  8
0
  6
CONTINUOUS
 62
   249
 10
25.0
 20
107.5
 30
0.0
 11
25.0
 21
97.499655
 31
0.0
  0
LINE
  8
0
  6
CONTINUOUS
 62
   249
 10
25.0
 20
107.5
 30
0.0
 11
26.0
 21
108.5
 31
0.0
  0
LINE
  8
0
  6
CONTINUOUS
 62
   249
 10
25.0
 20
97.499655
 30
0.0
 11
26.0
 21
96.499655
 31
0.0
  0
TEXT
  8
0
  6
CONTINUOUS
 62
   249
 10
20.0
 20
129.277191
 30
0.0
 40
2.0
  1
4)
  7
ROMANS
  0
LINE
  8
0
  6
CONTINUOUS
 62
   249
 10
180.0
 20
160.0
 30
0.0
 11
210.450615
 21
160.0
 31
0.0
  0
LINE
  8
0
  6
CONTINUOUS
 62
   249
 10
107.5
 20
186.684312
 30
0.0
 11
107.5
 21
137.361159
 31
0.0
  0
TEXT
  8
0
 62
   249
 10
336.306053
 20
85.596965
 30
0.0
 40
2.0
  1
TERMINALS / UTTAG
  7
ROMANS
 11
336.306053
 21
84.930298
 31
0.0
 73
     1
  0
LINE
  8
0
 62
   249
 10
337.029564
 20
50.926412
 30
0.0
 11
367.339004
 21
50.926412
 31
0.0
  0
LINE
  8
0
 62
   249
 10
367.379939
 20
84.930298
 30
0.0
 11
367.379939
 21
38.778087
 31
0.0
  0
LINE
  8
0
 62
   249
 10
352.088281
 20
84.930298
 30
0.0
 11
352.088281
 21
38.778087
 31
0.0
  0
LINE
  8
0
 62
   249
 10
322.275257
 20
84.930298
 30
0.0
 11
382.088281
 21
84.930298
 31
0.0
  0
LINE
  8
0
 62
   249
 10
322.275257
 20
90.930298
 30
0.0
 11
322.275257
 21
38.778087
 31
0.0
  0
LINE
  8
0
  6
CONTINUOUS
 62
   249
 10
322.275257
 20
38.778087
 30
0.0
 11
367.339004
 21
38.778087
 31
0.0
  0
LINE
  8
0
  6
CONTINUOUS
 62
   249
 10
199.245375
 20
222.999995
 30
0.0
 11
199.245375
 21
221.211864
 31
0.0
  0
LINE
  8
0
  6
CONTINUOUS
 62
   249
 10
193.845856
 20
220.987114
 30
0.0
 11
196.721966
 21
223.815673
 31
0.0
  0
ARC
  8
0
  6
HIDDEN
 62
   249
 10
198.156579
 20
226.083261
 30
0.0
 40
4.998196
 50
206.402922
 51
282.21115
  0
LINE
  8
0
  6
CONTINUOUS
 62
   249
 10
196.291263
 20
224.35288
 30
0.0
 11
197.19194
 21
223.229131
 31
0.0
  0
LINE
  8
0
  6
CONTINUOUS
 62
   249
 10
191.461711
 20
222.154717
 30
0.0
 11
199.249916
 21
222.154717
 31
0.0
  0
LINE
  8
0
  6
CONTINUOUS
 62
   249
 10
191.430679
 20
222.999995
 30
0.0
 11
191.430679
 21
221.211864
 31
0.0
  0
LINE
  8
0
  6
HIDDEN
 62
   249
 10
180.0
 20
175.0
 30
0.0
 11
200.0
 21
175.0
 31
0.0
  0
LINE
  8
0
  6
HIDDEN
 62
   249
 10
180.0
 20
170.0
 30
0.0
 11
200.0
 21
170.0
 31
0.0
  0
LINE
  8
0
  6
HIDDEN
 62
   249
 10
180.0
 20
185.0
 30
0.0
 11
200.0
 21
185.0
 31
0.0
  0
LINE
  8
0
  6
CONTINUOUS
 62
   249
 10
186.180599
 20
188.677597
 30
0.0
 11
188.526365
 21
187.342244
 31
0.0
  0
LINE
  8
0
  6
CONTINUOUS
 62
   249
 10
188.526365
 20
187.342244
 30
0.0
 11
186.180599
 21
186.152325
 31
0.0
  0
LINE
  8
0
  6
HIDDEN
 62
   249
 10
182.5
 20
215.0
 30
0.0
 11
200.0
 21
215.0
 31
0.0
  0
TEXT
  8
0
  6
CONTINUOUS
 62
   249
 10
183.770128
 20
211.098346
 30
0.0
 40
2.5
  1
I
 11
183.770128
 21
210.265013
 31
0.0
 73
     1
  0
LINE
  8
0
  6
CONTINUOUS
 62
   249
 10
190.533043
 20
212.30095
 30
0.0
 11
188.187278
 21
211.111031
 31
0.0
  0
LINE
  8
0
  6
CONTINUOUS
 62
   249
 10
188.187278
 20
213.636304
 30
0.0
 11
190.533043
 21
212.30095
 31
0.0
  0
LINE
  8
0
  6
CONTINUOUS
 62
   249
 10
188.850465
 20
212.30095
 30
0.0
 11
186.5047
 21
211.111031
 31
0.0
  0
LINE
  8
0
  6
CONTINUOUS
 62
   249
 10
186.5047
 20
213.636304
 30
0.0
 11
188.850465
 21
212.30095
 31
0.0
  0
LINE
  8
0
  6
CONTINUOUS
 62
   249
 10
199.245829
 20
212.873828
 30
0.0
 11
199.245829
 21
211.085697
 31
0.0
  0
LINE
  8
0
  6
CONTINUOUS
 62
   249
 10
193.84631
 20
210.860947
 30
0.0
 11
196.72242
 21
213.689506
 31
0.0
  0
LINE
  8
0
  6
CONTINUOUS
 62
   249
 10
196.291717
 20
214.226713
 30
0.0
 11
197.192394
 21
213.102963
 31
0.0
  0
LINE
  8
0
  6
CONTINUOUS
 62
   249
 10
191.462165
 20
212.02855
 30
0.0
 11
199.25037
 21
212.02855
 31
0.0
  0
LINE
  8
0
  6
CONTINUOUS
 62
   249
 10
191.431134
 20
212.873828
 30
0.0
 11
191.431134
 21
211.085697
 31
0.0
  0
LINE
  8
0
  6
HIDDEN
 62
   249
 10
182.5
 20
220.0
 30
0.0
 11
200.0
 21
220.0
 31
0.0
  0
LINE
  8
0
  6
CONTINUOUS
 62
   249
 10
186.5047
 20
219.283577
 30
0.0
 11
188.850465
 21
217.948224
 31
0.0
  0
LINE
  8
0
  6
CONTINUOUS
 62
   249
 10
188.850465
 20
217.948224
 30
0.0
 11
186.5047
 21
216.758305
 31
0.0
  0
LINE
  8
0
  6
CONTINUOUS
 62
   249
 10
188.187278
 20
219.283577
 30
0.0
 11
190.533043
 21
217.948224
 31
0.0
  0
LINE
  8
0
  6
CONTINUOUS
 62
   249
 10
190.533043
 20
217.948224
 30
0.0
 11
188.187278
 21
216.758305
 31
0.0
  0
TEXT
  8
0
  6
CONTINUOUS
 62
   249
 10
183.770128
 20
216.74562
 30
0.0
 40
2.5
  1
I
 11
183.770128
 21
215.912287
 31
0.0
 73
     1
  0
LINE
  8
0
  6
HIDDEN
 62
   249
 10
182.5
 20
225.0
 30
0.0
 11
200.0
 21
225.0
 31
0.0
  0
TEXT
  8
0
  6
CONTINUOUS
 62
   249
 10
183.770128
 20
221.04182
 30
0.0
 40
2.5
  1
I
 11
183.770128
 21
220.208487
 31
0.0
 73
     1
  0
LINE
  8
0
  6
CONTINUOUS
 62
   249
 10
188.906117
 20
222.244424
 30
0.0
 11
186.560351
 21
221.054505
 31
0.0
  0
LINE
  8
0
  6
CONTINUOUS
 62
   249
 10
186.560351
 20
223.579778
 30
0.0
 11
188.906117
 21
222.244424
 31
0.0
  0
LINE
  8
0
  6
CONTINUOUS
 62
   249
 10
180.0
 20
230.0
 30
0.0
 11
210.450615
 21
230.0
 31
0.0
  0
LINE
  8
0
  6
CONTINUOUS
 62
   249
 10
186.560351
 20
228.279314
 30
0.0
 11
188.906117
 21
226.94396
 31
0.0
  0
LINE
  8
0
  6
CONTINUOUS
 62
   249
 10
188.906117
 20
226.94396
 30
0.0
 11
186.560351
 21
225.754041
 31
0.0
  0
TEXT
  8
0
  6
CONTINUOUS
 62
   249
 10
183.770128
 20
225.741357
 30
0.0
 40
2.5
  1
I
 11
183.770128
 21
224.908023
 31
0.0
 73
     1
  0
TEXT
  8
0
  6
CONTINUOUS
 62
   249
 10
205.0
 20
225.0
 30
0.0
 40
2.5
  1
U1
  7
ROMANS
  0
LINE
  8
0
  6
CONTINUOUS
 62
   249
 10
206.558306
 20
222.485616
 30
0.0
 11
208.904071
 21
221.150262
 31
0.0
  0
LINE
  8
0
  6
CONTINUOUS
 62
   249
 10
208.904071
 20
221.150262
 30
0.0
 11
206.558306
 21
219.960343
 31
0.0
  0
LINE
  8
0
  6
CONTINUOUS
 62
   249
 10
52.798812
 20
215.0
 30
0.0
 11
47.5
 21
215.0
 31
0.0
  0
LINE
  8
0
  6
CONTINUOUS
 62
   249
 10
52.798812
 20
220.0
 30
0.0
 11
40.0
 21
220.0
 31
0.0
  0
LINE
  8
0
 62
   249
 10
52.798812
 20
221.589925
 30
0.0
 11
52.798812
 21
213.4
 31
0.0
  0
LINE
  8
0
 62
   249
 10
57.004853
 20
221.59384
 30
0.0
 11
55.09105
 21
219.315018
 31
0.0
  0
LINE
  8
0
 62
   249
 10
58.496971
 20
221.59384
 30
0.0
 11
56.642636
 21
219.315018
 31
0.0
  0
LINE
  8
0
 62
   249
 10
60.221556
 20
221.589925
 30
0.0
 11
52.798812
 21
221.589925
 31
0.0
  0
LINE
  8
0
 62
   249
 10
60.221556
 20
213.4
 30
0.0
 11
60.221556
 21
221.589925
 31
0.0
  0
LINE
  8
0
  6
CONTINUOUS
 62
   249
 10
60.221556
 20
217.5
 30
0.0
 11
65.0
 21
217.5
 31
0.0
  0
LINE
  8
0
  6
CONTINUOUS
 62
   249
 10
60.221556
 20
210.0
 30
0.0
 11
167.5
 21
210.0
 31
0.0
  0
LINE
  8
0
 62
   249
 10
60.221556
 20
206.204212
 30
0.0
 11
60.221556
 21
214.089925
 31
0.0
  0
LINE
  8
0
 62
   249
 10
60.221556
 20
213.704212
 30
0.0
 11
52.798812
 21
213.704212
 31
0.0
  0
LINE
  8
0
 62
   249
 10
58.496971
 20
213.708127
 30
0.0
 11
56.642636
 21
211.429305
 31
0.0
  0
LINE
  8
0
 62
   249
 10
57.004853
 20
213.708127
 30
0.0
 11
55.09105
 21
211.429305
 31
0.0
  0
LINE
  8
0
 62
   249
 10
52.798812
 20
214.089925
 30
0.0
 11
52.798812
 21
206.204212
 31
0.0
  0
LINE
  8
0
  6
CONTINUOUS
 62
   249
 10
52.798812
 20
212.5
 30
0.0
 11
40.0
 21
212.5
 31
0.0
  0
LINE
  8
0
  6
CONTINUOUS
 62
   249
 10
52.798812
 20
207.5
 30
0.0
 11
47.5
 21
207.5
 31
0.0
  0
LINE
  8
0
 62
   249
 10
60.221556
 20
206.204212
 30
0.0
 11
52.798812
 21
206.204212
 31
0.0
  0
LINE
  8
0
  6
CONTINUOUS
 62
   249
 10
232.5
 20
86.253046
 30
0.0
 11
240.0
 21
86.253046
 31
0.0
  0
LINE
  8
0
 62
   249
 10
245.0
 20
137.5
 30
0.0
 11
243.480133
 21
137.5
 31
0.0
  0
ARC
  8
0
 62
   249
 10
245.065849
 20
138.75
 30
0.0
 40
1.251733
 50
266.984476
 51
93.015524
  0
LINE
  8
0
 62
   249
 10
245.0
 20
140.0
 30
0.0
 11
243.480133
 21
140.0
 31
0.0
  0
LINE
  8
0
 62
   249
 10
245.0
 20
142.5
 30
0.0
 11
243.480133
 21
142.5
 31
0.0
  0
ARC
  8
0
 62
   249
 10
245.065849
 20
141.25
 30
0.0
 40
1.251733
 50
266.984476
 51
93.015524
  0
LINE
  8
0
 62
   249
 10
250.0
 20
135.0
 30
0.0
 11
252.5
 21
135.0
 31
0.0
  0
ARC
  8
0
 62
   249
 10
249.934151
 20
136.25
 30
0.0
 40
1.251733
 50
86.984476
 51
273.015524
  0
ARC
  8
0
 62
   249
 10
249.934151
 20
138.75
 30
0.0
 40
1.251733
 50
86.984476
 51
273.015524
  0
LINE
  8
0
 62
   249
 10
250.0
 20
137.5
 30
0.0
 11
252.5
 21
137.5
 31
0.0
  0
LINE
  8
0
 62
   249
 10
250.0
 20
140.0
 30
0.0
 11
252.5
 21
140.0
 31
0.0
  0
LINE
  8
0
 62
   249
 10
252.5
 20
140.0
 30
0.0
 11
255.0
 21
140.0
 31
0.0
  0
LINE
  8
0
 62
   249
 10
252.5
 20
135.0
 30
0.0
 11
260.0
 21
135.0
 31
0.0
  0
LINE
  8
0
 62
   249
 10
252.5
 20
140.0
 30
0.0
 11
260.0
 21
140.0
 31
0.0
  0
LINE
  8
0
 62
   249
 10
252.5
 20
145.0
 30
0.0
 11
260.0
 21
145.0
 31
0.0
  0
LINE
  8
0
 62
   249
 10
250.0
 20
145.0
 30
0.0
 11
252.5
 21
145.0
 31
0.0
  0
LINE
  8
0
 62
   249
 10
250.0
 20
142.5
 30
0.0
 11
252.5
 21
142.5
 31
0.0
  0
ARC
  8
0
 62
   249
 10
249.934151
 20
143.75
 30
0.0
 40
1.251733
 50
86.984476
 51
273.015524
  0
ARC
  8
0
 62
   249
 10
249.934151
 20
141.25
 30
0.0
 40
1.251733
 50
86.984476
 51
273.015524
  0
LINE
  8
0
 62
   249
 10
250.0
 20
140.0
 30
0.0
 11
252.5
 21
140.0
 31
0.0
  0
LINE
  8
0
 62
   249
 10
245.0
 20
177.5
 30
0.0
 11
243.480133
 21
177.5
 31
0.0
  0
ARC
  8
0
 62
   249
 10
245.065849
 20
178.75
 30
0.0
 40
1.251733
 50
266.984476
 51
93.015524
  0
LINE
  8
0
 62
   249
 10
245.0
 20
180.0
 30
0.0
 11
243.480133
 21
180.0
 31
0.0
  0
LINE
  8
0
 62
   249
 10
245.0
 20
182.5
 30
0.0
 11
243.480133
 21
182.5
 31
0.0
  0
ARC
  8
0
 62
   249
 10
245.065849
 20
181.25
 30
0.0
 40
1.251733
 50
266.984476
 51
93.015524
  0
LINE
  8
0
 62
   249
 10
250.0
 20
175.0
 30
0.0
 11
252.5
 21
175.0
 31
0.0
  0
ARC
  8
0
 62
   249
 10
249.934151
 20
176.25
 30
0.0
 40
1.251733
 50
86.984476
 51
273.015524
  0
ARC
  8
0
 62
   249
 10
249.934151
 20
178.75
 30
0.0
 40
1.251733
 50
86.984476
 51
273.015524
  0
LINE
  8
0
 62
   249
 10
250.0
 20
177.5
 30
0.0
 11
252.5
 21
177.5
 31
0.0
  0
LINE
  8
0
 62
   249
 10
250.0
 20
180.0
 30
0.0
 11
252.5
 21
180.0
 31
0.0
  0
LINE
  8
0
 62
   249
 10
252.5
 20
180.0
 30
0.0
 11
255.0
 21
180.0
 31
0.0
  0
LINE
  8
0
 62
   249
 10
252.5
 20
175.0
 30
0.0
 11
260.0
 21
175.0
 31
0.0
  0
LINE
  8
0
 62
   249
 10
252.5
 20
180.0
 30
0.0
 11
260.0
 21
180.0
 31
0.0
  0
LINE
  8
0
 62
   249
 10
252.5
 20
185.0
 30
0.0
 11
260.0
 21
185.0
 31
0.0
  0
LINE
  8
0
 62
   249
 10
250.0
 20
185.0
 30
0.0
 11
252.5
 21
185.0
 31
0.0
  0
LINE
  8
0
 62
   249
 10
250.0
 20
182.5
 30
0.0
 11
252.5
 21
182.5
 31
0.0
  0
ARC
  8
0
 62
   249
 10
249.934151
 20
183.75
 30
0.0
 40
1.251733
 50
86.984476
 51
273.015524
  0
ARC
  8
0
 62
   249
 10
249.934151
 20
181.25
 30
0.0
 40
1.251733
 50
86.984476
 51
273.015524
  0
LINE
  8
0
 62
   249
 10
250.0
 20
180.0
 30
0.0
 11
252.5
 21
180.0
 31
0.0
  0
LINE
  8
0
 62
   249
 10
245.0
 20
197.5
 30
0.0
 11
243.480133
 21
197.5
 31
0.0
  0
ARC
  8
0
 62
   249
 10
245.065849
 20
198.75
 30
0.0
 40
1.251733
 50
266.984476
 51
93.015524
  0
LINE
  8
0
 62
   249
 10
245.0
 20
200.0
 30
0.0
 11
243.480133
 21
200.0
 31
0.0
  0
LINE
  8
0
 62
   249
 10
245.0
 20
202.5
 30
0.0
 11
243.480133
 21
202.5
 31
0.0
  0
ARC
  8
0
 62
   249
 10
245.065849
 20
201.25
 30
0.0
 40
1.251733
 50
266.984476
 51
93.015524
  0
LINE
  8
0
 62
   249
 10
250.0
 20
195.0
 30
0.0
 11
252.5
 21
195.0
 31
0.0
  0
ARC
  8
0
 62
   249
 10
249.934151
 20
196.25
 30
0.0
 40
1.251733
 50
86.984476
 51
273.015524
  0
ARC
  8
0
 62
   249
 10
249.934151
 20
198.75
 30
0.0
 40
1.251733
 50
86.984476
 51
273.015524
  0
LINE
  8
0
 62
   249
 10
250.0
 20
197.5
 30
0.0
 11
252.5
 21
197.5
 31
0.0
  0
LINE
  8
0
 62
   249
 10
250.0
 20
200.0
 30
0.0
 11
252.5
 21
200.0
 31
0.0
  0
LINE
  8
0
 62
   249
 10
252.5
 20
200.0
 30
0.0
 11
255.0
 21
200.0
 31
0.0
  0
LINE
  8
0
 62
   249
 10
252.5
 20
195.0
 30
0.0
 11
260.0
 21
195.0
 31
0.0
  0
LINE
  8
0
 62
   249
 10
252.5
 20
200.0
 30
0.0
 11
260.0
 21
200.0
 31
0.0
  0
LINE
  8
0
 62
   249
 10
252.5
 20
205.0
 30
0.0
 11
260.0
 21
205.0
 31
0.0
  0
LINE
  8
0
 62
   249
 10
250.0
 20
205.0
 30
0.0
 11
252.5
 21
205.0
 31
0.0
  0
LINE
  8
0
 62
   249
 10
250.0
 20
202.5
 30
0.0
 11
252.5
 21
202.5
 31
0.0
  0
ARC
  8
0
 62
   249
 10
249.934151
 20
203.75
 30
0.0
 40
1.251733
 50
86.984476
 51
273.015524
  0
ARC
  8
0
 62
   249
 10
249.934151
 20
201.25
 30
0.0
 40
1.251733
 50
86.984476
 51
273.015524
  0
LINE
  8
0
 62
   249
 10
250.0
 20
200.0
 30
0.0
 11
252.5
 21
200.0
 31
0.0
  0
LINE
  8
0
 62
   249
 10
245.0
 20
217.5
 30
0.0
 11
243.480133
 21
217.5
 31
0.0
  0
ARC
  8
0
 62
   249
 10
245.065849
 20
218.75
 30
0.0
 40
1.251733
 50
266.984476
 51
93.015524
  0
LINE
  8
0
 62
   249
 10
245.0
 20
220.0
 30
0.0
 11
243.480133
 21
220.0
 31
0.0
  0
LINE
  8
0
 62
   249
 10
245.0
 20
222.5
 30
0.0
 11
243.480133
 21
222.5
 31
0.0
  0
ARC
  8
0
 62
   249
 10
245.065849
 20
221.25
 30
0.0
 40
1.251733
 50
266.984476
 51
93.015524
  0
LINE
  8
0
 62
   249
 10
250.0
 20
215.0
 30
0.0
 11
252.5
 21
215.0
 31
0.0
  0
ARC
  8
0
 62
   249
 10
249.934151
 20
216.25
 30
0.0
 40
1.251733
 50
86.984476
 51
273.015524
  0
ARC
  8
0
 62
   249
 10
249.934151
 20
218.75
 30
0.0
 40
1.251733
 50
86.984476
 51
273.015524
  0
LINE
  8
0
 62
   249
 10
250.0
 20
217.5
 30
0.0
 11
252.5
 21
217.5
 31
0.0
  0
LINE
  8
0
 62
   249
 10
250.0
 20
220.0
 30
0.0
 11
252.5
 21
220.0
 31
0.0
  0
LINE
  8
0
 62
   249
 10
252.5
 20
220.0
 30
0.0
 11
255.0
 21
220.0
 31
0.0
  0
LINE
  8
0
 62
   249
 10
252.5
 20
215.0
 30
0.0
 11
260.0
 21
215.0
 31
0.0
  0
LINE
  8
0
 62
   249
 10
252.5
 20
220.0
 30
0.0
 11
255.0
 21
220.0
 31
0.0
  0
LINE
  8
0
 62
   249
 10
252.5
 20
225.0
 30
0.0
 11
255.0
 21
225.0
 31
0.0
  0
LINE
  8
0
 62
   249
 10
250.0
 20
225.0
 30
0.0
 11
260.0
 21
225.0
 31
0.0
  0
LINE
  8
0
 62
   249
 10
250.0
 20
222.5
 30
0.0
 11
252.5
 21
222.5
 31
0.0
  0
ARC
  8
0
 62
   249
 10
249.934151
 20
223.75
 30
0.0
 40
1.251733
 50
86.984476
 51
273.015524
  0
ARC
  8
0
 62
   249
 10
249.934151
 20
221.25
 30
0.0
 40
1.251733
 50
86.984476
 51
273.015524
  0
LINE
  8
0
 62
   249
 10
250.0
 20
220.0
 30
0.0
 11
260.0
 21
220.0
 31
0.0
  0
TEXT
  8
0
  6
CONTINUOUS
 62
   249
 10
256.284516
 20
222.163714
 30
0.0
 40
2.0
  1
3
  7
ROMANS
  0
TEXT
  8
0
  6
CONTINUOUS
 62
   249
 10
256.284516
 20
217.199365
 30
0.0
 40
2.0
  1
2
  7
ROMANS
  0
TEXT
  8
0
  6
CONTINUOUS
 62
   249
 10
256.284516
 20
212.246037
 30
0.0
 40
2.0
  1
1
  7
ROMANS
  0
TEXT
  8
0
  6
CONTINUOUS
 62
   249
 10
256.284516
 20
182.106638
 30
0.0
 40
2.0
  1
9
  7
ROMANS
  0
TEXT
  8
0
  6
CONTINUOUS
 62
   249
 10
256.284516
 20
177.505961
 30
0.0
 40
2.0
  1
8
  7
ROMANS
  0
TEXT
  8
0
  6
CONTINUOUS
 62
   249
 10
256.284516
 20
172.001615
 30
0.0
 40
2.0
  1
7
  7
ROMANS
  0
LINE
  8
0
  6
HIDDEN
 62
   249
 10
260.0
 20
230.0
 30
0.0
 11
255.0
 21
230.0
 31
0.0
  0
LINE
  8
0
  6
HIDDEN
 62
   249
 10
255.0
 20
230.0
 30
0.0
 11
255.0
 21
65.0
 31
0.0
  0
LINE
  8
0
  6
HIDDEN
 62
   249
 10
255.0
 20
65.0
 30
0.0
 11
260.0
 21
65.0
 31
0.0
  0
TEXT
  8
0
  6
HIDDEN
 62
   249
 10
255.929881
 20
226.186149
 30
0.0
 40
2.0
  1
X0
  7
ROMANS
  0
LINE
  8
0
  6
CONTINUOUS
 62
   249
 10
240.0
 20
140.0
 30
0.0
 11
232.5
 21
140.0
 31
0.0
  0
LINE
  8
0
  6
CONTINUOUS
 62
   249
 10
240.0
 20
200.0
 30
0.0
 11
232.5
 21
200.0
 31
0.0
  0
LINE
  8
0
  6
CONTINUOUS
 62
   249
 10
266.0
 20
139.5
 30
0.0
 11
265.0
 21
138.5
 31
0.0
  0
LINE
  8
0
  6
CONTINUOUS
 62
   249
 10
266.0
 20
146.5
 30
0.0
 11
266.0
 21
139.5
 31
0.0
  0
LINE
  8
0
  6
CONTINUOUS
 62
   249
 10
266.0
 20
146.5
 30
0.0
 11
265.0
 21
147.5
 31
0.0
  0
LINE
  8
0
  6
CONTINUOUS
 62
   249
 10
266.0
 20
186.5
 30
0.0
 11
265.0
 21
187.5
 31
0.0
  0
LINE
  8
0
  6
CONTINUOUS
 62
   249
 10
266.0
 20
186.5
 30
0.0
 11
266.0
 21
179.5
 31
0.0
  0
LINE
  8
0
  6
CONTINUOUS
 62
   249
 10
266.0
 20
179.5
 30
0.0
 11
265.0
 21
178.5
 31
0.0
  0
LINE
  8
0
  6
CONTINUOUS
 62
   249
 10
266.0
 20
199.5
 30
0.0
 11
265.0
 21
198.5
 31
0.0
  0
LINE
  8
0
  6
CONTINUOUS
 62
   249
 10
266.0
 20
206.5
 30
0.0
 11
266.0
 21
199.5
 31
0.0
  0
LINE
  8
0
  6
CONTINUOUS
 62
   249
 10
266.0
 20
206.5
 30
0.0
 11
265.0
 21
207.5
 31
0.0
  0
LINE
  8
0
  6
CONTINUOUS
 62
   249
 10
266.0
 20
226.5
 30
0.0
 11
265.0
 21
227.5
 31
0.0
  0
LINE
  8
0
  6
CONTINUOUS
 62
   249
 10
266.0
 20
219.5
 30
0.0
 11
265.0
 21
218.5
 31
0.0
  0
LINE
  8
0
  6
CONTINUOUS
 62
   249
 10
266.0
 20
226.5
 30
0.0
 11
266.0
 21
219.5
 31
0.0
  0
LINE
  8
0
  6
DASHED
 62
   249
 10
260.0
 20
140.0
 30
0.0
 11
264.266471
 21
140.0
 31
0.0
  0
LINE
  8
0
  6
DASHED
 62
   249
 10
260.0
 20
145.0
 30
0.0
 11
264.266471
 21
145.0
 31
0.0
  0
LINE
  8
0
  6
DASHED
 62
   249
 10
260.0
 20
180.0
 30
0.0
 11
264.266471
 21
180.0
 31
0.0
  0
LINE
  8
0
  6
DASHED
 62
   249
 10
260.0
 20
185.0
 30
0.0
 11
264.266471
 21
185.0
 31
0.0
  0
LINE
  8
0
  6
DASHED
 62
   249
 10
260.0
 20
200.0
 30
0.0
 11
264.266471
 21
200.0
 31
0.0
  0
LINE
  8
0
  6
DASHED
 62
   249
 10
260.0
 20
205.0
 30
0.0
 11
264.266471
 21
205.0
 31
0.0
  0
LINE
  8
0
  6
DASHED
 62
   249
 10
260.0
 20
220.0
 30
0.0
 11
264.266471
 21
220.0
 31
0.0
  0
LINE
  8
0
  6
DASHED
 62
   249
 10
260.0
 20
225.0
 30
0.0
 11
264.266471
 21
225.0
 31
0.0
  0
LINE
  8
0
  6
DASHED
 62
   249
 10
40.0
 20
220.0
 30
0.0
 11
32.5
 21
220.0
 31
0.0
  0
LINE
  8
0
  6
DASHED
 62
   249
 10
40.0
 20
212.5
 30
0.0
 11
32.5
 21
212.5
 31
0.0
  0
LINE
  8
0
  6
DASHED
 62
   249
 10
40.0
 20
207.5
 30
0.0
 11
32.5
 21
207.5
 31
0.0
  0
LINE
  8
0
  6
CONTINUOUS
 62
   249
 10
25.0
 20
207.499655
 30
0.0
 11
26.0
 21
206.499655
 31
0.0
  0
LINE
  8
0
  6
CONTINUOUS
 62
   249
 10
25.0
 20
220.0
 30
0.0
 11
26.0
 21
221.0
 31
0.0
  0
LINE
  8
0
  6
CONTINUOUS
 62
   249
 10
25.0
 20
220.0
 30
0.0
 11
25.0
 21
207.499655
 31
0.0
  0
LINE
  8
0
  6
DASHED
 62
   249
 10
40.0
 20
107.5
 30
0.0
 11
27.5
 21
107.5
 31
0.0
  0
LINE
  8
0
  6
DASHED
 62
   249
 10
40.0
 20
97.5
 30
0.0
 11
27.5
 21
97.5
 31
0.0
  0
LINE
  8
0
  6
DASHED
 62
   249
 10
40.0
 20
92.5
 30
0.0
 11
27.5
 21
92.5
 31
0.0
  0
LINE
  8
0
  6
DASHED
 62
   249
 10
40.0
 20
82.5
 30
0.0
 11
27.5
 21
82.5
 31
0.0
  0
LINE
  8
0
  6
DASHED
 62
   249
 10
40.0
 20
77.5
 30
0.0
 11
27.5
 21
77.5
 31
0.0
  0
LINE
  8
0
  6
CONTINUOUS
 62
   249
 10
25.0
 20
92.5
 30
0.0
 11
26.0
 21
93.5
 31
0.0
  0
LINE
  8
0
  6
CONTINUOUS
 62
   249
 10
25.0
 20
67.499655
 30
0.0
 11
26.0
 21
66.499655
 31
0.0
  0
LINE
  8
0
  6
CONTINUOUS
 62
   249
 10
25.0
 20
92.5
 30
0.0
 11
25.0
 21
67.499655
 31
0.0
  0
TEXT
  8
0
  6
CONTINUOUS
 62
   249
 10
354.653959
 20
81.078617
 30
0.0
 40
2.0
  1
In=1A
  7
ROMANS
  0
TEXT
  8
0
  6
CONTINUOUS
 62
   249
 10
325.789791
 20
66.896057
 30
0.0
 40
2.0
  1
L3
  7
ROMANS
  0
TEXT
  8
0
  6
CONTINUOUS
 62
   249
 10
355.810381
 20
66.824096
 30
0.0
 40
2.0
  1
7-9
  7
ROMANS
  0
TEXT
  8
0
  6
CONTINUOUS
 62
   249
 10
370.95038
 20
66.824096
 30
0.0
 40
2.0
  1
7-8
  7
ROMANS
  0
LINE
  8
0
  6
DASHED
 62
   249
 10
266.0
 20
225.0
 30
0.0
 11
277.5
 21
225.0
 31
0.0
  0
LINE
  8
0
  6
DASHED
 62
   249
 10
260.0
 20
215.0
 30
0.0
 11
277.5
 21
215.0
 31
0.0
  0
LINE
  8
0
  6
DASHED
 62
   249
 10
266.0
 20
205.0
 30
0.0
 11
277.5
 21
205.0
 31
0.0
  0
LINE
  8
0
  6
DASHED
 62
   249
 10
260.0
 20
195.0
 30
0.0
 11
277.5
 21
195.0
 31
0.0
  0
LINE
  8
0
  6
DASHED
 62
   249
 10
266.0
 20
185.0
 30
0.0
 11
277.5
 21
185.0
 31
0.0
  0
LINE
  8
0
  6
DASHED
 62
   249
 10
260.0
 20
175.0
 30
0.0
 11
277.5
 21
175.0
 31
0.0
  0
LINE
  8
0
  6
DASHED
 62
   249
 10
266.0
 20
145.0
 30
0.0
 11
277.5
 21
145.0
 31
0.0
  0
LINE
  8
0
  6
DASHED
 62
   249
 10
260.0
 20
135.0
 30
0.0
 11
277.5
 21
135.0
 31
0.0
  0
LINE
  8
0
  6
CONTINUOUS
 62
   249
 10
280.0
 20
155.0
 30
0.0
 11
280.0
 21
205.0
 31
0.0
  0
LINE
  8
0
  6
CONTINUOUS
 62
   249
 10
280.0
 20
205.0
 30
0.0
 11
280.0
 21
225.0
 31
0.0
  0
LINE
  8
0
  6
CONTINUOUS
 62
   249
 10
280.0
 20
225.0
 30
0.0
 11
279.0
 21
226.0
 31
0.0
  0
CIRCLE
  8
0
  6
CONTINUOUS
 62
   249
 10
297.5
 20
225.0
 30
0.0
 40
2.5
  0
LINE
  8
0
  6
DASHED
 62
   249
 10
297.5
 20
222.5
 30
0.0
 11
297.5
 21
120.153734
 31
0.0
  0
TEXT
  8
0
  6
CONTINUOUS
 62
   249
 10
272.5
 20
222.114287
 30
0.0
 40
2.0
  1
L1
  7
ROMANS
  0
TEXT
  8
0
  6
CONTINUOUS
 62
   249
 10
272.5
 20
182.088956
 30
0.0
 40
2.0
  1
L3
  7
ROMANS
  0
TEXT
  8
0
  6
CONTINUOUS
 62
   249
 10
272.5
 20
212.114287
 30
0.0
 40
2.0
  1
L1
  7
ROMANS
  0
TEXT
  8
0
  6
CONTINUOUS
 62
   249
 10
272.5
 20
172.088956
 30
0.0
 40
2.0
  1
L3
  7
ROMANS
  0
TEXT
  8
0
  6
CONTINUOUS
 62
   249
 10
203.537884
 20
176.452113
 30
0.0
 40
2.5
  1
U
  7
GREEKS
  0
TEXT
  8
0
  6
CONTINUOUS
 62
   249
 10
255.678282
 20
161.801534
 30
0.0
 40
2.0
  1
37
  7
ROMANS
  0
TEXT
  8
0
  6
CONTINUOUS
 62
   249
 10
255.678282
 20
156.753053
 30
0.0
 40
2.0
  1
38
  7
ROMANS
  0
TEXT
  8
0
  6
CONTINUOUS
 62
   249
 10
255.678282
 20
151.704571
 30
0.0
 40
2.0
  1
39
  7
ROMANS
  0
LINE
  8
0
  6
CONTINUOUS
 62
   249
 10
280.0
 20
135.0
 30
0.0
 11
279.0
 21
134.0
 31
0.0
  0
LINE
  8
0
  6
CONTINUOUS
 62
   249
 10
280.0
 20
145.0
 30
0.0
 11
279.0
 21
146.0
 31
0.0
  0
LINE
  8
0
  6
CONTINUOUS
 62
   249
 10
280.0
 20
145.0
 30
0.0
 11
280.0
 21
135.0
 31
0.0
  0
CIRCLE
  8
0
  6
CONTINUOUS
 62
   249
 10
297.5
 20
228.041623
 30
0.0
 40
2.5
  0
LINE
  8
0
  6
DASHED
 62
   249
 10
297.5
 20
237.5
 30
0.0
 11
297.5
 21
230.541623
 31
0.0
  0
LINE
  8
0
  6
DASHED
 62
   249
 10
290.0
 20
237.5
 30
0.0
 11
290.0
 21
129.129889
 31
0.0
  0
LINE
  8
0
  6
DASHED
 62
   249
 10
287.504097
 20
140.0
 30
0.0
 11
280.0
 21
140.0
 31
0.0
  0
CIRCLE
  8
0
  6
CONTINUOUS
 62
   249
 10
290.0
 20
189.965554
 30
0.0
 40
2.5
  0
LINE
  8
0
  6
DASHED
 62
   249
 10
280.0
 20
189.965554
 30
0.0
 11
287.5
 21
189.965554
 31
0.0
  0
LINE
  8
0
 62
   249
 10
337.029564
 20
80.430298
 30
0.0
 11
382.088281
 21
80.430298
 31
0.0
  0
TEXT
  8
0
  6
DASHED
 62
   249
 10
369.657013
 20
81.078617
 30
0.0
 40
2.0
  1
In=5A
  7
ROMANS
  0
TEXT
  8
0
  6
DASHED
 62
   249
 10
325.789791
 20
75.127616
 30
0.0
 40
2.0
  1
L1            
  7
ROMANS
  0
TEXT
  8
0
  6
DASHED
 62
   249
 10
355.980301
 20
75.127616
 30
0.0
 40
2.0
  1
1-3
  7
ROMANS
  0
TEXT
  8
0
  6
DASHED
 62
   249
 10
371.135516
 20
75.127616
 30
0.0
 40
2.0
  1
1-2
  7
ROMANS
  0
TEXT
  8
0
  6
CONTINUOUS
 62
   249
 10
337.740689
 20
51.956262
 30
0.0
 40
2.0
  1
Un=100V
  7
ROMANS
  0
TEXT
  8
0
  6
CONTINUOUS
 62
   249
 10
353.061279
 20
51.956262
 30
0.0
 40
2.0
  1
Un=110V
  7
ROMANS
  0
TEXT
  8
0
  6
CONTINUOUS
 62
   249
 10
339.169373
 20
47.432795
 30
0.0
 40
2.0
  1
28-29
  7
ROMANS
  0
TEXT
  8
0
  6
CONTINUOUS
 62
   249
 10
355.167156
 20
47.432795
 30
0.0
 40
2.0
  1
28-30
  7
ROMANS
  0
LINE
  8
0
  6
CONTINUOUS
 62
   249
 10
47.5
 20
207.5
 30
0.0
 11
40.0
 21
207.5
 31
0.0
  0
LINE
  8
0
  6
CONTINUOUS
 62
   249
 10
47.5
 20
215.0
 30
0.0
 11
47.5
 21
207.5
 31
0.0
  0
LINE
  8
0
  6
CONTINUOUS
 62
   249
 10
189.900936
 20
179.960055
 30
0.0
 11
192.400936
 21
179.960055
 31
0.0
  0
LINE
  8
0
  6
CONTINUOUS
 62
   249
 10
189.900936
 20
179.960055
 30
0.0
 11
187.676489
 21
179.399413
 31
0.0
  0
LINE
  8
0
  6
CONTINUOUS
 62
   249
 10
184.900936
 20
179.960055
 30
0.0
 11
187.400936
 21
179.960055
 31
0.0
  0
TEXT
  8
0
  6
HIDDEN
 62
   249
 10
181.080478
 20
179.226807
 30
0.0
 40
1.5
  1
EN
  0
TEXT
  8
0
  6
HIDDEN
 62
   249
 10
181.080478
 20
182.167847
 30
0.0
 40
1.5
  1
EN
  0
LINE
  8
0
  6
CONTINUOUS
 62
   249
 10
184.900936
 20
182.901095
 30
0.0
 11
187.400936
 21
182.901095
 31
0.0
  0
LINE
  8
0
  6
CONTINUOUS
 62
   249
 10
189.900936
 20
182.901095
 30
0.0
 11
187.676489
 21
182.340453
 31
0.0
  0
LINE
  8
0
  6
CONTINUOUS
 62
   249
 10
189.900936
 20
182.901095
 30
0.0
 11
192.400936
 21
182.901095
 31
0.0
  0
LINE
  8
0
  6
CONTINUOUS
 62
   249
 10
178.01273
 20
164.971652
 30
0.0
 11
170.0
 21
164.971652
 31
0.0
  0
LINE
  8
0
  6
CONTINUOUS
 62
   249
 10
178.01273
 20
168.000813
 30
0.0
 11
167.5
 21
168.000813
 31
0.0
  0
CIRCLE
  8
0
  6
CONTINUOUS
 62
   249
 10
179.012659
 20
167.994509
 30
0.0
 40
1.0
  0
CIRCLE
  8
0
  6
CONTINUOUS
 62
   249
 10
179.012659
 20
164.965349
 30
0.0
 40
1.0
  0
LINE
  8
0
  6
CONTINUOUS
 62
   249
 10
191.431134
 20
177.590902
 30
0.0
 11
191.431134
 21
175.80277
 31
0.0
  0
LINE
  8
0
  6
CONTINUOUS
 62
   249
 10
191.462165
 20
176.745623
 30
0.0
 11
199.25037
 21
176.745623
 31
0.0
  0
LINE
  8
0
  6
CONTINUOUS
 62
   249
 10
196.291717
 20
178.943786
 30
0.0
 11
197.192394
 21
177.820037
 31
0.0
  0
LINE
  8
0
  6
CONTINUOUS
 62
   249
 10
193.84631
 20
175.578021
 30
0.0
 11
196.72242
 21
178.406579
 31
0.0
  0
LINE
  8
0
  6
CONTINUOUS
 62
   249
 10
199.245829
 20
177.590902
 30
0.0
 11
199.245829
 21
175.80277
 31
0.0
  0
LINE
  8
0
  6
CONTINUOUS
 62
   249
 10
185.829204
 20
173.561795
 30
0.0
 11
188.174969
 21
172.226442
 31
0.0
  0
LINE
  8
0
  6
CONTINUOUS
 62
   249
 10
188.174969
 20
172.226442
 30
0.0
 11
185.829204
 21
171.036523
 31
0.0
  0
LINE
  8
0
  6
CONTINUOUS
 62
   249
 10
187.571688
 20
173.561795
 30
0.0
 11
189.917454
 21
172.226442
 31
0.0
  0
LINE
  8
0
  6
CONTINUOUS
 62
   249
 10
189.917454
 20
172.226442
 30
0.0
 11
187.571688
 21
171.036523
 31
0.0
  0
LINE
  8
0
  6
CONTINUOUS
 62
   249
 10
189.900936
 20
167.901095
 30
0.0
 11
192.400936
 21
167.901095
 31
0.0
  0
LINE
  8
0
  6
CONTINUOUS
 62
   249
 10
189.900936
 20
167.901095
 30
0.0
 11
187.676489
 21
167.340453
 31
0.0
  0
LINE
  8
0
  6
CONTINUOUS
 62
   249
 10
184.900936
 20
167.901095
 30
0.0
 11
187.400936
 21
167.901095
 31
0.0
  0
TEXT
  8
0
  6
HIDDEN
 62
   249
 10
181.080478
 20
167.167847
 30
0.0
 40
1.5
  1
EN
  0
TEXT
  8
0
  6
HIDDEN
 62
   249
 10
181.080478
 20
164.226807
 30
0.0
 40
1.5
  1
EN
  0
LINE
  8
0
  6
CONTINUOUS
 62
   249
 10
184.900936
 20
164.960055
 30
0.0
 11
187.400936
 21
164.960055
 31
0.0
  0
LINE
  8
0
  6
CONTINUOUS
 62
   249
 10
189.900936
 20
164.960055
 30
0.0
 11
187.676489
 21
164.399413
 31
0.0
  0
LINE
  8
0
  6
CONTINUOUS
 62
   249
 10
189.900936
 20
164.960055
 30
0.0
 11
192.400936
 21
164.960055
 31
0.0
  0
LINE
  8
0
  6
CONTINUOUS
 62
   249
 10
199.245829
 20
162.489158
 30
0.0
 11
199.245829
 21
160.701026
 31
0.0
  0
LINE
  8
0
  6
CONTINUOUS
 62
   249
 10
193.84631
 20
160.476276
 30
0.0
 11
196.72242
 21
163.304835
 31
0.0
  0
LINE
  8
0
  6
CONTINUOUS
 62
   249
 10
196.291717
 20
163.842042
 30
0.0
 11
197.192394
 21
162.718293
 31
0.0
  0
LINE
  8
0
  6
CONTINUOUS
 62
   249
 10
191.462165
 20
161.643879
 30
0.0
 11
199.25037
 21
161.643879
 31
0.0
  0
LINE
  8
0
  6
CONTINUOUS
 62
   249
 10
191.431134
 20
162.489158
 30
0.0
 11
191.431134
 21
160.701026
 31
0.0
  0
TEXT
  8
0
  6
CONTINUOUS
 62
   249
 10
205.0
 20
185.775586
 30
0.0
 40
2.5
  1
U2
  7
ROMANS
  0
ARC
  8
0
 62
   249
 10
249.934151
 20
121.25
 30
0.0
 40
1.251733
 50
86.984476
 51
273.015524
  0
ARC
  8
0
 62
   249
 10
249.934151
 20
123.75
 30
0.0
 40
1.251733
 50
86.984476
 51
273.015524
  0
LINE
  8
0
 62
   249
 10
250.0
 20
122.5
 30
0.0
 11
252.5
 21
122.5
 31
0.0
  0
LINE
  8
0
 62
   249
 10
252.5
 20
125.0
 30
0.0
 11
255.0
 21
125.0
 31
0.0
  0
LINE
  8
0
 62
   249
 10
252.5
 20
120.0
 30
0.0
 11
255.0
 21
120.0
 31
0.0
  0
LINE
  8
0
 62
   249
 10
252.5
 20
120.0
 30
0.0
 11
255.0
 21
120.0
 31
0.0
  0
LINE
  8
0
 62
   249
 10
250.0
 20
120.0
 30
0.0
 11
260.0
 21
120.0
 31
0.0
  0
LINE
  8
0
 62
   249
 10
250.0
 20
117.5
 30
0.0
 11
252.5
 21
117.5
 31
0.0
  0
ARC
  8
0
 62
   249
 10
249.934151
 20
118.75
 30
0.0
 40
1.251733
 50
86.984476
 51
273.015524
  0
ARC
  8
0
 62
   249
 10
249.934151
 20
116.25
 30
0.0
 40
1.251733
 50
86.984476
 51
273.015524
  0
LINE
  8
0
 62
   249
 10
250.0
 20
115.0
 30
0.0
 11
252.5
 21
115.0
 31
0.0
  0
ARC
  8
0
 62
   249
 10
245.065849
 20
121.25
 30
0.0
 40
1.251733
 50
266.984476
 51
93.015524
  0
LINE
  8
0
 62
   249
 10
245.0
 20
122.5
 30
0.0
 11
243.480133
 21
122.5
 31
0.0
  0
LINE
  8
0
 62
   249
 10
245.0
 20
120.0
 30
0.0
 11
243.480133
 21
120.0
 31
0.0
  0
ARC
  8
0
 62
   249
 10
245.065849
 20
118.75
 30
0.0
 40
1.251733
 50
266.984476
 51
93.015524
  0
LINE
  8
0
 62
   249
 10
245.0
 20
117.5
 30
0.0
 11
243.480133
 21
117.5
 31
0.0
  0
LINE
  8
0
 62
   249
 10
250.0
 20
95.0
 30
0.0
 11
252.5
 21
95.0
 31
0.0
  0
ARC
  8
0
 62
   249
 10
249.934151
 20
96.25
 30
0.0
 40
1.251733
 50
86.984476
 51
273.015524
  0
ARC
  8
0
 62
   249
 10
249.934151
 20
98.75
 30
0.0
 40
1.251733
 50
86.984476
 51
273.015524
  0
LINE
  8
0
 62
   249
 10
250.0
 20
97.5
 30
0.0
 11
252.5
 21
97.5
 31
0.0
  0
LINE
  8
0
 62
   249
 10
252.5
 20
95.0
 30
0.0
 11
255.0
 21
95.0
 31
0.0
  0
LINE
  8
0
 62
   249
 10
250.0
 20
95.0
 30
0.0
 11
260.0
 21
95.0
 31
0.0
  0
LINE
  8
0
 62
   249
 10
250.0
 20
92.5
 30
0.0
 11
252.5
 21
92.5
 31
0.0
  0
ARC
  8
0
 62
   249
 10
249.934151
 20
93.75
 30
0.0
 40
1.251733
 50
86.984476
 51
273.015524
  0
ARC
  8
0
 62
   249
 10
249.934151
 20
91.25
 30
0.0
 40
1.251733
 50
86.984476
 51
273.015524
  0
LINE
  8
0
 62
   249
 10
250.0
 20
90.0
 30
0.0
 11
252.5
 21
90.0
 31
0.0
  0
ARC
  8
0
 62
   249
 10
245.065849
 20
96.25
 30
0.0
 40
1.251733
 50
266.984476
 51
93.015524
  0
LINE
  8
0
 62
   249
 10
245.0
 20
97.5
 30
0.0
 11
243.480133
 21
97.5
 31
0.0
  0
LINE
  8
0
 62
   249
 10
245.0
 20
95.0
 30
0.0
 11
243.480133
 21
95.0
 31
0.0
  0
ARC
  8
0
 62
   249
 10
245.065849
 20
93.75
 30
0.0
 40
1.251733
 50
266.984476
 51
93.015524
  0
LINE
  8
0
 62
   249
 10
245.0
 20
92.5
 30
0.0
 11
243.480133
 21
92.5
 31
0.0
  0
LINE
  8
0
 62
   249
 10
250.0
 20
75.0
 30
0.0
 11
252.5
 21
75.0
 31
0.0
  0
ARC
  8
0
 62
   249
 10
249.934151
 20
76.25
 30
0.0
 40
1.251733
 50
86.984476
 51
273.015524
  0
ARC
  8
0
 62
   249
 10
249.934151
 20
78.75
 30
0.0
 40
1.251733
 50
86.984476
 51
273.015524
  0
LINE
  8
0
 62
   249
 10
250.0
 20
77.5
 30
0.0
 11
252.5
 21
77.5
 31
0.0
  0
LINE
  8
0
 62
   249
 10
252.5
 20
75.0
 30
0.0
 11
255.0
 21
75.0
 31
0.0
  0
LINE
  8
0
 62
   249
 10
250.0
 20
75.0
 30
0.0
 11
260.0
 21
75.0
 31
0.0
  0
LINE
  8
0
 62
   249
 10
250.0
 20
72.5
 30
0.0
 11
252.5
 21
72.5
 31
0.0
  0
ARC
  8
0
 62
   249
 10
249.934151
 20
73.75
 30
0.0
 40
1.251733
 50
86.984476
 51
273.015524
  0
ARC
  8
0
 62
   249
 10
249.934151
 20
71.25
 30
0.0
 40
1.251733
 50
86.984476
 51
273.015524
  0
LINE
  8
0
 62
   249
 10
250.0
 20
70.0
 30
0.0
 11
252.5
 21
70.0
 31
0.0
  0
ARC
  8
0
 62
   249
 10
245.065849
 20
76.25
 30
0.0
 40
1.251733
 50
266.984476
 51
93.015524
  0
LINE
  8
0
 62
   249
 10
245.0
 20
77.5
 30
0.0
 11
243.480133
 21
77.5
 31
0.0
  0
LINE
  8
0
 62
   249
 10
245.0
 20
75.0
 30
0.0
 11
243.480133
 21
75.0
 31
0.0
  0
ARC
  8
0
 62
   249
 10
245.065849
 20
73.75
 30
0.0
 40
1.251733
 50
266.984476
 51
93.015524
  0
LINE
  8
0
 62
   249
 10
245.0
 20
72.5
 30
0.0
 11
243.480133
 21
72.5
 31
0.0
  0
LINE
  8
0
 62
   249
 10
250.0
 20
125.0
 30
0.0
 11
260.0
 21
125.0
 31
0.0
  0
LINE
  8
0
 62
   249
 10
252.5
 20
115.0
 30
0.0
 11
260.0
 21
115.0
 31
0.0
  0
LINE
  8
0
 62
   249
 10
250.0
 20
80.0
 30
0.0
 11
260.0
 21
80.0
 31
0.0
  0
LINE
  8
0
 62
   249
 10
252.5
 20
70.0
 30
0.0
 11
260.0
 21
70.0
 31
0.0
  0
LINE
  8
0
 62
   249
 10
252.5
 20
90.0
 30
0.0
 11
260.0
 21
90.0
 31
0.0
  0
LINE
  8
0
 62
   249
 10
250.0
 20
100.0
 30
0.0
 11
260.0
 21
100.0
 31
0.0
  0
LINE
  8
0
  6
CONTINUOUS
 62
   249
 10
240.0
 20
100.0
 30
0.0
 11
240.0
 21
72.5
 31
0.0
  0
LINE
  8
0
  6
CONTINUOUS
 62
   249
 10
240.0
 20
72.5
 30
0.0
 11
241.0
 21
71.5
 31
0.0
  0
LINE
  8
0
  6
CONTINUOUS
 62
   249
 10
240.0
 20
100.0
 30
0.0
 11
241.0
 21
101.0
 31
0.0
  0
TEXT
  8
0
  6
HIDDEN
 62
   249
 10
256.267203
 20
202.505131
 30
0.0
 40
2.0
  1
6
  7
ROMANS
  0
TEXT
  8
0
  6
HIDDEN
 62
   249
 10
256.267203
 20
197.453437
 30
0.0
 40
2.0
  1
5
  7
ROMANS
  0
TEXT
  8
0
  6
HIDDEN
 62
   249
 10
256.267203
 20
192.390728
 30
0.0
 40
2.0
  1
4
  7
ROMANS
  0
TEXT
  8
0
  6
HIDDEN
 62
   249
 10
255.220532
 20
122.459045
 30
0.0
 40
2.0
  1
30
  7
ROMANS
  0
TEXT
  8
0
  6
HIDDEN
 62
   249
 10
255.220532
 20
117.352276
 30
0.0
 40
2.0
  1
29
  7
ROMANS
  0
TEXT
  8
0
  6
HIDDEN
 62
   249
 10
255.220532
 20
112.344643
 30
0.0
 40
2.0
  1
28
  7
ROMANS
  0
TEXT
  8
0
  6
HIDDEN
 62
   249
 10
255.220532
 20
97.325125
 30
0.0
 40
2.0
  1
18
  7
ROMANS
  0
TEXT
  8
0
  6
HIDDEN
 62
   249
 10
255.220532
 20
92.328507
 30
0.0
 40
2.0
  1
17
  7
ROMANS
  0
TEXT
  8
0
  6
HIDDEN
 62
   249
 10
255.220532
 20
87.320874
 30
0.0
 40
2.0
  1
16
  7
ROMANS
  0
TEXT
  8
0
  6
HIDDEN
 62
   249
 10
255.448176
 20
77.455568
 30
0.0
 40
2.0
  1
21
  7
ROMANS
  0
TEXT
  8
0
  6
HIDDEN
 62
   249
 10
255.448176
 20
72.293723
 30
0.0
 40
2.0
  1
20
  7
ROMANS
  0
TEXT
  8
0
  6
HIDDEN
 62
   249
 10
255.448176
 20
67.297105
 30
0.0
 40
2.0
  1
19
  7
ROMANS
  0
LINE
  8
0
  6
CONTINUOUS
 62
   249
 10
240.0
 20
135.0
 30
0.0
 11
241.0
 21
134.0
 31
0.0
  0
LINE
  8
0
  6
CONTINUOUS
 62
   249
 10
240.0
 20
165.0
 30
0.0
 11
241.0
 21
166.0
 31
0.0
  0
LINE
  8
0
  6
CONTINUOUS
 62
   249
 10
240.0
 20
165.0
 30
0.0
 11
240.0
 21
155.0
 31
0.0
  0
TEXT
  8
0
  6
CONTINUOUS
 62
   249
 10
51.636438
 20
154.2654
 30
0.0
 40
2.0
  1
SGR
 50
90.0
  7
ROMANS
  0
LINE
  8
0
  6
CONTINUOUS
 62
   249
 10
55.0
 20
157.5
 30
0.0
 11
55.0
 21
177.5
 31
0.0
  0
LINE
  8
0
  6
CONTINUOUS
 62
   249
 10
55.0
 20
152.5
 30
0.0
 11
53.285914
 21
157.586297
 31
0.0
  0
LINE
  8
0
  6
CONTINUOUS
 62
   249
 10
55.0
 20
147.5
 30
0.0
 11
55.0
 21
152.5
 31
0.0
  0
TEXT
  8
0
  6
CONTINUOUS
 62
   249
 10
60.367753
 20
143.964455
 30
0.0
 40
2.5
  1
1
 11
60.367753
 21
143.131122
 31
0.0
 73
     1
  0
LINE
  8
0
  6
CONTINUOUS
 62
   249
 10
55.933891
 20
146.624549
 30
0.0
 11
58.279656
 21
145.289195
 31
0.0
  0
LINE
  8
0
  6
CONTINUOUS
 62
   249
 10
55.925849
 20
143.299262
 30
0.0
 11
58.30931
 21
144.487454
 31
0.0
  0
LINE
  8
0
  6
CONTINUOUS
 62
   249
 10
58.279656
 20
145.289195
 30
0.0
 11
55.933891
 21
144.099276
 31
0.0
  0
LINE
  8
0
  6
CONTINUOUS
 62
   249
 10
60.0
 20
150.0
 30
0.0
 11
60.0
 21
152.5
 31
0.0
  0
LINE
  8
0
  6
CONTINUOUS
 62
   249
 10
60.0
 20
142.5
 30
0.0
 11
60.0
 21
137.5
 31
0.0
  0
LINE
  8
0
  6
CONTINUOUS
 62
   249
 10
66.078314
 20
147.5
 30
0.0
 11
53.578314
 21
147.5
 31
0.0
  0
LINE
  8
0
  6
CONTINUOUS
 62
   249
 10
66.078314
 20
147.5
 30
0.0
 11
66.078314
 21
142.5
 31
0.0
  0
LINE
  8
0
  6
CONTINUOUS
 62
   249
 10
57.5
 20
147.5
 30
0.0
 11
57.5
 21
194.492731
 31
0.0
  0
LINE
  8
0
  6
CONTINUOUS
 62
   249
 10
53.578314
 20
142.5
 30
0.0
 11
66.078314
 21
142.5
 31
0.0
  0
LINE
  8
0
  6
CONTINUOUS
 62
   249
 10
53.578314
 20
147.5
 30
0.0
 11
53.578314
 21
142.5
 31
0.0
  0
LINE
  8
0
  6
CONTINUOUS
 62
   249
 10
67.5
 20
147.5
 30
0.0
 11
77.5
 21
147.5
 31
0.0
  0
LINE
  8
0
  6
CONTINUOUS
 62
   249
 10
77.5
 20
147.5
 30
0.0
 11
77.5
 21
142.5
 31
0.0
  0
LINE
  8
0
  6
CONTINUOUS
 62
   249
 10
77.5
 20
142.5
 30
0.0
 11
67.5
 21
142.5
 31
0.0
  0
LINE
  8
0
  6
CONTINUOUS
 62
   249
 10
67.5
 20
142.5
 30
0.0
 11
67.5
 21
147.5
 31
0.0
  0
LINE
  8
0
  6
CONTINUOUS
 62
   249
 10
71.707396
 20
145.289195
 30
0.0
 11
69.36163
 21
144.099276
 31
0.0
  0
LINE
  8
0
  6
CONTINUOUS
 62
   249
 10
69.353589
 20
143.299262
 30
0.0
 11
71.737049
 21
144.487454
 31
0.0
  0
LINE
  8
0
  6
CONTINUOUS
 62
   249
 10
69.36163
 20
146.624549
 30
0.0
 11
71.707396
 21
145.289195
 31
0.0
  0
TEXT
  8
0
  6
CONTINUOUS
 62
   249
 10
73.795492
 20
143.964455
 30
0.0
 40
2.5
  1
1
 11
73.795492
 21
143.131122
 31
0.0
 73
     1
  0
TEXT
  8
0
  6
CONTINUOUS
 62
   249
 10
86.295492
 20
143.964455
 30
0.0
 40
2.5
  1
1
 11
86.295492
 21
143.131122
 31
0.0
 73
     1
  0
LINE
  8
0
  6
CONTINUOUS
 62
   249
 10
81.86163
 20
146.624549
 30
0.0
 11
84.207396
 21
145.289195
 31
0.0
  0
LINE
  8
0
  6
CONTINUOUS
 62
   249
 10
81.853589
 20
143.299262
 30
0.0
 11
84.237049
 21
144.487454
 31
0.0
  0
LINE
  8
0
  6
CONTINUOUS
 62
   249
 10
84.207396
 20
145.289195
 30
0.0
 11
81.86163
 21
144.099276
 31
0.0
  0
LINE
  8
0
  6
CONTINUOUS
 62
   249
 10
80.0
 20
142.5
 30
0.0
 11
80.0
 21
147.5
 31
0.0
  0
LINE
  8
0
  6
CONTINUOUS
 62
   249
 10
90.0
 20
142.5
 30
0.0
 11
80.0
 21
142.5
 31
0.0
  0
LINE
  8
0
  6
CONTINUOUS
 62
   249
 10
90.0
 20
147.5
 30
0.0
 11
90.0
 21
142.5
 31
0.0
  0
LINE
  8
0
  6
CONTINUOUS
 62
   249
 10
80.0
 20
147.5
 30
0.0
 11
90.0
 21
147.5
 31
0.0
  0
LINE
  8
0
  6
CONTINUOUS
 62
   249
 10
92.5
 20
147.5
 30
0.0
 11
102.5
 21
147.5
 31
0.0
  0
LINE
  8
0
  6
CONTINUOUS
 62
   249
 10
102.5
 20
147.5
 30
0.0
 11
102.5
 21
142.5
 31
0.0
  0
LINE
  8
0
  6
CONTINUOUS
 62
   249
 10
102.5
 20
142.5
 30
0.0
 11
92.5
 21
142.5
 31
0.0
  0
LINE
  8
0
  6
CONTINUOUS
 62
   249
 10
92.5
 20
142.5
 30
0.0
 11
92.5
 21
147.5
 31
0.0
  0
LINE
  8
0
  6
CONTINUOUS
 62
   249
 10
96.707396
 20
145.289195
 30
0.0
 11
94.36163
 21
144.099276
 31
0.0
  0
LINE
  8
0
  6
CONTINUOUS
 62
   249
 10
94.353589
 20
143.299262
 30
0.0
 11
96.737049
 21
144.487454
 31
0.0
  0
LINE
  8
0
  6
CONTINUOUS
 62
   249
 10
94.36163
 20
146.624549
 30
0.0
 11
96.707396
 21
145.289195
 31
0.0
  0
TEXT
  8
0
  6
CONTINUOUS
 62
   249
 10
98.795492
 20
143.964455
 30
0.0
 40
2.5
  1
1
 11
98.795492
 21
143.131122
 31
0.0
 73
     1
  0
LINE
  8
0
  6
CONTINUOUS
 62
   249
 10
95.0
 20
147.5
 30
0.0
 11
95.0
 21
152.5
 31
0.0
  0
LINE
  8
0
  6
CONTINUOUS
 62
   249
 10
95.0
 20
152.5
 30
0.0
 11
93.285914
 21
157.586297
 31
0.0
  0
LINE
  8
0
  6
CONTINUOUS
 62
   249
 10
95.0
 20
157.5
 30
0.0
 11
95.0
 21
160.0
 31
0.0
  0
LINE
  8
0
  6
CONTINUOUS
 62
   249
 10
87.5
 20
147.5
 30
0.0
 11
87.5
 21
152.5
 31
0.0
  0
LINE
  8
0
  6
CONTINUOUS
 62
   249
 10
87.5
 20
152.5
 30
0.0
 11
85.785914
 21
157.586297
 31
0.0
  0
LINE
  8
0
  6
CONTINUOUS
 62
   249
 10
87.5
 20
157.5
 30
0.0
 11
87.5
 21
170.0
 31
0.0
  0
LINE
  8
0
  6
CONTINUOUS
 62
   249
 10
75.0
 20
157.5
 30
0.0
 11
75.0
 21
170.0
 31
0.0
  0
LINE
  8
0
  6
CONTINUOUS
 62
   249
 10
75.0
 20
152.5
 30
0.0
 11
73.285914
 21
157.586297
 31
0.0
  0
LINE
  8
0
  6
CONTINUOUS
 62
   249
 10
75.0
 20
147.5
 30
0.0
 11
75.0
 21
152.5
 31
0.0
  0
LINE
  8
0
  6
CONTINUOUS
 62
   249
 10
70.0
 20
147.5
 30
0.0
 11
70.0
 21
152.5
 31
0.0
  0
LINE
  8
0
  6
CONTINUOUS
 62
   249
 10
70.0
 20
152.5
 30
0.0
 11
68.285914
 21
157.586297
 31
0.0
  0
TEXT
  8
0
  6
CONTINUOUS
 62
   249
 10
54.674687
 20
155.0
 30
0.0
 40
2.0
  1
3
  7
ROMANS
  0
TEXT
  8
0
  6
CONTINUOUS
 62
   249
 10
69.735509
 20
155.0
 30
0.0
 40
2.0
  1
2
  7
ROMANS
  0
TEXT
  8
0
  6
CONTINUOUS
 62
   249
 10
74.837321
 20
155.0
 30
0.0
 40
2.0
  1
7
  7
ROMANS
  0
TEXT
  8
0
  6
CONTINUOUS
 62
   249
 10
87.658737
 20
155.0
 30
0.0
 40
2.0
  1
8
  7
ROMANS
  0
TEXT
  8
0
  6
CONTINUOUS
 62
   249
 10
95.332204
 20
155.0
 30
0.0
 40
2.0
  1
1
  7
ROMANS
  0
LINE
  8
0
  6
CONTINUOUS
 62
   249
 10
60.0
 20
147.5
 30
0.0
 11
60.0
 21
204.665835
 31
0.0
  0
LINE
  8
0
  6
CONTINUOUS
 62
   249
 10
57.5
 20
132.5
 30
0.0
 11
40.0
 21
132.5
 31
0.0
  0
LINE
  8
0
  6
CONTINUOUS
 62
   249
 10
65.0
 20
132.5
 30
0.0
 11
65.0
 21
127.5
 31
0.0
  0
LINE
  8
0
  6
CONTINUOUS
 62
   249
 10
65.0
 20
127.5
 30
0.0
 11
40.0
 21
127.5
 31
0.0
  0
LINE
  8
0
  6
CONTINUOUS
 62
   249
 10
63.240939
 20
132.5
 30
0.0
 11
65.0
 21
132.5
 31
0.0
  0
LINE
  8
0
  6
CONTINUOUS
 62
   249
 10
77.5
 20
122.5
 30
0.0
 11
77.5
 21
117.5
 31
0.0
  0
LINE
  8
0
  6
CONTINUOUS
 62
   249
 10
77.5
 20
117.5
 30
0.0
 11
40.0
 21
117.5
 31
0.0
  0
LINE
  8
0
  6
CONTINUOUS
 62
   249
 10
120.818812
 20
137.5
 30
0.0
 11
120.818812
 21
132.5
 31
0.0
  0
LINE
  8
0
  6
CONTINUOUS
 62
   249
 10
120.818812
 20
132.5
 30
0.0
 11
113.318812
 21
132.5
 31
0.0
  0
LINE
  8
0
  6
CONTINUOUS
 62
   249
 10
113.318812
 20
132.5
 30
0.0
 11
113.318812
 21
137.5
 31
0.0
  0
LINE
  8
0
  6
CONTINUOUS
 62
   249
 10
113.318812
 20
137.5
 30
0.0
 11
120.818812
 21
137.5
 31
0.0
  0
LINE
  8
0
  6
CONTINUOUS
 62
   249
 10
123.91379
 20
137.5
 30
0.0
 11
136.030389
 21
137.5
 31
0.0
  0
LINE
  8
0
  6
CONTINUOUS
 62
   249
 10
136.030389
 20
137.5
 30
0.0
 11
136.030389
 21
132.5
 31
0.0
  0
LINE
  8
0
  6
CONTINUOUS
 62
   249
 10
136.030389
 20
132.5
 30
0.0
 11
123.91379
 21
132.5
 31
0.0
  0
LINE
  8
0
  6
CONTINUOUS
 62
   249
 10
123.91379
 20
132.5
 30
0.0
 11
123.91379
 21
137.5
 31
0.0
  0
LINE
  8
0
  6
CONTINUOUS
 62
   249
 10
129.329949
 20
135.289195
 30
0.0
 11
126.984184
 21
134.099276
 31
0.0
  0
LINE
  8
0
  6
CONTINUOUS
 62
   249
 10
126.976142
 20
133.299262
 30
0.0
 11
129.359603
 21
134.487454
 31
0.0
  0
LINE
  8
0
  6
CONTINUOUS
 62
   249
 10
126.984184
 20
136.624549
 30
0.0
 11
129.329949
 21
135.289195
 31
0.0
  0
TEXT
  8
0
  6
CONTINUOUS
 62
   249
 10
131.418046
 20
133.964455
 30
0.0
 40
2.5
  1
1
 11
131.418046
 21
133.131122
 31
0.0
 73
     1
  0
TEXT
  8
0
  6
CONTINUOUS
 62
   249
 10
145.651854
 20
133.964455
 30
0.0
 40
2.5
  1
1
 11
145.651854
 21
133.131122
 31
0.0
 73
     1
  0
LINE
  8
0
  6
CONTINUOUS
 62
   249
 10
141.217992
 20
136.624549
 30
0.0
 11
143.563758
 21
135.289195
 31
0.0
  0
LINE
  8
0
  6
CONTINUOUS
 62
   249
 10
141.20995
 20
133.299262
 30
0.0
 11
143.593411
 21
134.487454
 31
0.0
  0
LINE
  8
0
  6
CONTINUOUS
 62
   249
 10
143.563758
 20
135.289195
 30
0.0
 11
141.217992
 21
134.099276
 31
0.0
  0
LINE
  8
0
  6
CONTINUOUS
 62
   249
 10
137.5
 20
132.5
 30
0.0
 11
137.5
 21
137.5
 31
0.0
  0
LINE
  8
0
  6
CONTINUOUS
 62
   249
 10
150.0
 20
132.5
 30
0.0
 11
137.5
 21
132.5
 31
0.0
  0
LINE
  8
0
  6
CONTINUOUS
 62
   249
 10
150.0
 20
137.5
 30
0.0
 11
150.0
 21
132.5
 31
0.0
  0
LINE
  8
0
  6
CONTINUOUS
 62
   249
 10
137.5
 20
137.5
 30
0.0
 11
150.0
 21
137.5
 31
0.0
  0
LINE
  8
0
  6
CONTINUOUS
 62
   249
 10
145.0
 20
90.0
 30
0.0
 11
145.0
 21
92.5
 31
0.0
  0
LINE
  8
0
  6
CONTINUOUS
 62
   249
 10
72.5
 20
135.0
 30
0.0
 11
72.5
 21
142.5
 31
0.0
  0
LINE
  8
0
  6
CONTINUOUS
 62
   249
 10
85.0
 20
135.0
 30
0.0
 11
85.0
 21
142.5
 31
0.0
  0
LINE
  8
0
  6
CONTINUOUS
 62
   249
 10
97.5
 20
135.0
 30
0.0
 11
97.5
 21
142.5
 31
0.0
  0
LINE
  8
0
  6
CONTINUOUS
 62
   249
 10
118.318812
 20
132.5
 30
0.0
 11
118.318812
 21
57.5
 31
0.0
  0
LINE
  8
0
  6
CONTINUOUS
 62
   249
 10
130.0
 20
132.5
 30
0.0
 11
130.0
 21
57.5
 31
0.0
  0
LINE
  8
0
  6
CONTINUOUS
 62
   249
 10
145.0
 20
132.5
 30
0.0
 11
145.0
 21
57.5
 31
0.0
  0
TEXT
  8
0
  6
CONTINUOUS
 62
   249
 10
116.306984
 20
133.955036
 30
0.0
 40
2.5
  1
&
  7
GREEKS
  0
CIRCLE
  8
0
  6
CONTINUOUS
 62
   249
 10
115.818318
 20
138.207385
 30
0.0
 40
0.707409
  0
LINE
  8
0
  6
CONTINUOUS
 62
   249
 10
95.0
 20
160.0
 30
0.0
 11
95.0
 21
212.5
 31
0.0
  0
LINE
  8
0
  6
CONTINUOUS
 62
   249
 10
95.0
 20
212.5
 30
0.0
 11
180.0
 21
212.5
 31
0.0
  0
LINE
  8
0
  6
CONTINUOUS
 62
   249
 10
97.5
 20
147.5
 30
0.0
 11
97.5
 21
200.0
 31
0.0
  0
LINE
  8
0
  6
CONTINUOUS
 62
   249
 10
97.5
 20
200.0
 30
0.0
 11
180.0
 21
200.0
 31
0.0
  0
LINE
  8
0
  6
CONTINUOUS
 62
   249
 10
107.5
 20
186.684312
 30
0.0
 11
180.0
 21
186.684312
 31
0.0
  0
LINE
  8
0
  6
CONTINUOUS
 62
   249
 10
65.0
 20
217.5
 30
0.0
 11
170.0
 21
217.5
 31
0.0
  0
LINE
  8
0
  6
CONTINUOUS
 62
   249
 10
170.0
 20
217.5
 30
0.0
 11
170.0
 21
164.971652
 31
0.0
  0
LINE
  8
0
  6
CONTINUOUS
 62
   249
 10
167.5
 20
210.0
 30
0.0
 11
167.5
 21
168.000813
 31
0.0
  0
LINE
  8
0
  6
CONTINUOUS
 62
   249
 10
145.0
 20
172.5
 30
0.0
 11
145.0
 21
137.5
 31
0.0
  0
LINE
  8
0
  6
CONTINUOUS
 62
   249
 10
55.0
 20
151.055194
 30
0.0
 11
115.818812
 21
151.055194
 31
0.0
  0
LINE
  8
0
  6
CONTINUOUS
 62
   249
 10
40.0
 20
107.5
 30
0.0
 11
82.5
 21
107.5
 31
0.0
  0
LINE
  8
0
  6
CONTINUOUS
 62
   249
 10
82.5
 20
102.5
 30
0.0
 11
40.0
 21
102.5
 31
0.0
  0
LINE
  8
0
  6
CONTINUOUS
 62
   249
 10
82.5
 20
102.5
 30
0.0
 11
82.5
 21
105.0
 31
0.0
  0
LINE
  8
0
  6
CONTINUOUS
 62
   249
 10
88.240939
 20
107.5
 30
0.0
 11
90.0
 21
107.5
 31
0.0
  0
LINE
  8
0
  6
CONTINUOUS
 62
   249
 10
86.853436
 20
107.138137
 30
0.0
 11
81.756076
 21
104.285297
 31
0.0
  0
LINE
  8
0
  6
CONTINUOUS
 62
   249
 10
99.353436
 20
92.138137
 30
0.0
 11
94.256076
 21
89.285297
 31
0.0
  0
LINE
  8
0
  6
CONTINUOUS
 62
   249
 10
100.740939
 20
92.5
 30
0.0
 11
102.5
 21
92.5
 31
0.0
  0
LINE
  8
0
  6
CONTINUOUS
 62
   249
 10
95.0
 20
87.5
 30
0.0
 11
95.0
 21
90.0
 31
0.0
  0
LINE
  8
0
  6
CONTINUOUS
 62
   249
 10
95.0
 20
87.5
 30
0.0
 11
40.0
 21
87.5
 31
0.0
  0
LINE
  8
0
  6
CONTINUOUS
 62
   249
 10
40.0
 20
92.5
 30
0.0
 11
95.0
 21
92.5
 31
0.0
  0
LINE
  8
0
  6
CONTINUOUS
 62
   249
 10
40.0
 20
77.5
 30
0.0
 11
105.0
 21
77.5
 31
0.0
  0
LINE
  8
0
  6
CONTINUOUS
 62
   249
 10
105.0
 20
72.5
 30
0.0
 11
40.0
 21
72.5
 31
0.0
  0
LINE
  8
0
  6
CONTINUOUS
 62
   249
 10
105.0
 20
72.5
 30
0.0
 11
105.0
 21
75.0
 31
0.0
  0
LINE
  8
0
  6
CONTINUOUS
 62
   249
 10
110.740939
 20
77.5
 30
0.0
 11
112.5
 21
77.5
 31
0.0
  0
LINE
  8
0
  6
CONTINUOUS
 62
   249
 10
109.353436
 20
77.138137
 30
0.0
 11
104.256076
 21
74.285297
 31
0.0
  0
LINE
  8
0
  6
CONTINUOUS
 62
   249
 10
90.0
 20
107.5
 30
0.0
 11
90.0
 21
97.5
 31
0.0
  0
LINE
  8
0
  6
CONTINUOUS
 62
   249
 10
90.0
 20
97.5
 30
0.0
 11
40.0
 21
97.5
 31
0.0
  0
LINE
  8
0
  6
CONTINUOUS
 62
   249
 10
102.5
 20
92.5
 30
0.0
 11
102.5
 21
82.5
 31
0.0
  0
LINE
  8
0
  6
CONTINUOUS
 62
   249
 10
102.5
 20
82.5
 30
0.0
 11
40.0
 21
82.5
 31
0.0
  0
LINE
  8
0
  6
CONTINUOUS
 62
   249
 10
112.5
 20
77.5
 30
0.0
 11
112.5
 21
67.5
 31
0.0
  0
LINE
  8
0
  6
CONTINUOUS
 62
   249
 10
112.5
 20
67.5
 30
0.0
 11
40.0
 21
67.5
 31
0.0
  0
LINE
  8
0
  6
CONTINUOUS
 62
   249
 10
180.0
 20
194.492731
 30
0.0
 11
57.5
 21
194.492731
 31
0.0
  0
LINE
  8
0
  6
CONTINUOUS
 62
   249
 10
180.0
 20
204.665835
 30
0.0
 11
60.0
 21
204.665835
 31
0.0
  0
LINE
  8
0
  6
CONTINUOUS
 62
   249
 10
85.0
 20
162.5
 30
0.0
 11
85.0
 21
147.5
 31
0.0
  0
LINE
  8
0
  6
CONTINUOUS
 62
   249
 10
147.5
 20
137.5
 30
0.0
 11
147.5
 21
162.5
 31
0.0
  0
LINE
  8
0
  6
CONTINUOUS
 62
   249
 10
142.5
 20
137.5
 30
0.0
 11
142.5
 21
177.5
 31
0.0
  0
LINE
  8
0
  6
CONTINUOUS
 62
   249
 10
140.0
 20
137.5
 30
0.0
 11
140.0
 21
187.5
 31
0.0
  0
LINE
  8
0
  6
CONTINUOUS
 62
   249
 10
132.5
 20
137.5
 30
0.0
 11
132.5
 21
194.492731
 31
0.0
  0
LINE
  8
0
  6
CONTINUOUS
 62
   249
 10
130.0
 20
137.5
 30
0.0
 11
130.0
 21
200.0
 31
0.0
  0
LINE
  8
0
  6
CONTINUOUS
 62
   249
 10
127.5
 20
137.5
 30
0.0
 11
127.5
 21
204.665835
 31
0.0
  0
LINE
  8
0
  6
CONTINUOUS
 62
   249
 10
118.318812
 20
137.5
 30
0.0
 11
118.318812
 21
177.5
 31
0.0
  0
LINE
  8
0
  6
HIDDEN
 62
   249
 10
40.0
 20
225.0
 30
0.0
 11
45.0
 21
225.0
 31
0.0
  0
LINE
  8
0
  6
HIDDEN
 62
   249
 10
45.0
 20
225.0
 30
0.0
 11
45.0
 21
202.5
 31
0.0
  0
LINE
  8
0
  6
HIDDEN
 62
   249
 10
45.0
 20
202.5
 30
0.0
 11
40.0
 21
202.5
 31
0.0
  0
TEXT
  8
0
  6
HIDDEN
 62
   249
 10
40.879157
 20
221.746473
 30
0.0
 40
2.0
  1
X2
  7
ROMANS
  0
TEXT
  8
0
  6
HIDDEN
 62
   249
 10
40.475238
 20
217.333058
 30
0.0
 40
2.0
  1
12
  7
ROMANS
  0
TEXT
  8
0
  6
HIDDEN
 62
   249
 10
40.475238
 20
209.949416
 30
0.0
 40
2.0
  1
10
  7
ROMANS
  0
TEXT
  8
0
  6
HIDDEN
 62
   249
 10
40.475238
 20
204.809022
 30
0.0
 40
2.0
  1
11
  7
ROMANS
  0
LINE
  8
0
  6
HIDDEN
 62
   249
 10
40.0
 20
137.5
 30
0.0
 11
45.0
 21
137.5
 31
0.0
  0
LINE
  8
0
  6
HIDDEN
 62
   249
 10
45.0
 20
137.5
 30
0.0
 11
45.0
 21
113.211798
 31
0.0
  0
LINE
  8
0
  6
HIDDEN
 62
   249
 10
45.0
 20
113.211798
 30
0.0
 11
40.0
 21
113.211798
 31
0.0
  0
LINE
  8
0
  6
HIDDEN
 62
   249
 10
40.0
 20
62.5
 30
0.0
 11
45.0
 21
62.5
 31
0.0
  0
LINE
  8
0
  6
HIDDEN
 62
   249
 10
45.0
 20
62.5
 30
0.0
 11
45.0
 21
111.97351
 31
0.0
  0
LINE
  8
0
  6
HIDDEN
 62
   249
 10
45.0
 20
111.97351
 30
0.0
 11
40.0
 21
111.97351
 31
0.0
  0
TEXT
  8
0
  6
HIDDEN
 62
   249
 10
41.1717
 20
133.629257
 30
0.0
 40
2.0
  1
X1
  7
ROMANS
  0
TEXT
  8
0
  6
HIDDEN
 62
   249
 10
41.1717
 20
129.910394
 30
0.0
 40
2.0
  1
4
  7
ROMANS
  0
TEXT
  8
0
  6
HIDDEN
 62
   249
 10
41.1717
 20
124.902761
 30
0.0
 40
2.0
  1
3
  7
ROMANS
  0
TEXT
  8
0
  6
HIDDEN
 62
   249
 10
41.1717
 20
119.61975
 30
0.0
 40
2.0
  1
7
  7
ROMANS
  0
TEXT
  8
0
  6
HIDDEN
 62
   249
 10
41.1717
 20
114.810389
 30
0.0
 40
2.0
  1
6
  7
ROMANS
  0
TEXT
  8
0
  6
HIDDEN
 62
   249
 10
40.745853
 20
108.976621
 30
0.0
 40
2.0
  1
X2
  7
ROMANS
  0
TEXT
  8
0
  6
HIDDEN
 62
   249
 10
41.1717
 20
104.773092
 30
0.0
 40
2.0
  1
3
  7
ROMANS
  0
TEXT
  8
0
  6
HIDDEN
 62
   249
 10
41.1717
 20
99.842565
 30
0.0
 40
2.0
  1
1
  7
ROMANS
  0
TEXT
  8
0
  6
HIDDEN
 62
   249
 10
41.1717
 20
94.625644
 30
0.0
 40
2.0
  1
2
  7
ROMANS
  0
TEXT
  8
0
  6
HIDDEN
 62
   249
 10
41.1717
 20
89.695117
 30
0.0
 40
2.0
  1
6
  7
ROMANS
  0
TEXT
  8
0
  6
HIDDEN
 62
   249
 10
41.1717
 20
84.918802
 30
0.0
 40
2.0
  1
4
  7
ROMANS
  0
TEXT
  8
0
  6
HIDDEN
 62
   249
 10
41.1717
 20
79.690866
 30
0.0
 40
2.0
  1
5
  7
ROMANS
  0
TEXT
  8
0
  6
HIDDEN
 62
   249
 10
41.1717
 20
74.760338
 30
0.0
 40
2.0
  1
9
  7
ROMANS
  0
TEXT
  8
0
  6
HIDDEN
 62
   249
 10
41.1717
 20
69.686614
 30
0.0
 40
2.0
  1
7
  7
ROMANS
  0
TEXT
  8
0
  6
HIDDEN
 62
   249
 10
41.1717
 20
64.756087
 30
0.0
 40
2.0
  1
8
  7
ROMANS
  0
TEXT
  8
0
  6
HIDDEN
 62
   249
 10
19.955888
 20
231.239977
 30
0.0
 40
2.0
  1
2)
  7
ROMANS
  0
LINE
  8
0
  6
DASHED
 62
   249
 10
40.0
 20
132.5
 30
0.0
 11
27.5
 21
132.5
 31
0.0
  0
LINE
  8
0
  6
DASHED
 62
   249
 10
40.0
 20
127.5
 30
0.0
 11
27.5
 21
127.5
 31
0.0
  0
LINE
  8
0
  6
DASHED
 62
   249
 10
40.0
 20
117.5
 30
0.0
 11
27.5
 21
117.5
 31
0.0
  0
LINE
  8
0
  6
DASHED
 62
   249
 10
40.0
 20
122.5
 30
0.0
 11
27.5
 21
122.5
 31
0.0
  0
LINE
  8
0
  6
CONTINUOUS
 62
   249
 10
25.0
 20
122.5
 30
0.0
 11
26.0
 21
123.5
 31
0.0
  0
LINE
  8
0
  6
CONTINUOUS
 62
   249
 10
25.0
 20
117.499655
 30
0.0
 11
26.0
 21
116.499655
 31
0.0
  0
LINE
  8
0
  6
CONTINUOUS
 62
   249
 10
25.0
 20
122.5
 30
0.0
 11
25.0
 21
117.5
 31
0.0
  0
LINE
  8
0
  6
DASHED
 62
   249
 10
40.0
 20
67.5
 30
0.0
 11
27.5
 21
67.5
 31
0.0
  0
LINE
  8
0
  6
CONTINUOUS
 62
   249
 10
115.0
 20
45.0
 30
0.0
 11
227.500345
 21
45.0
 31
0.0
  0
LINE
  8
0
  6
CONTINUOUS
 62
   249
 10
227.500345
 20
45.0
 30
0.0
 11
228.500345
 21
46.0
 31
0.0
  0
LINE
  8
0
  6
CONTINUOUS
 62
   249
 10
115.0
 20
45.0
 30
0.0
 11
114.0
 21
46.0
 31
0.0
  0
LINE
  8
0
  6
CONTINUOUS
 62
   249
 10
130.0
 20
57.5
 30
0.0
 11
130.0
 21
50.0
 31
0.0
  0
LINE
  8
0
  6
CONTINUOUS
 62
   249
 10
145.0
 20
57.5
 30
0.0
 11
145.0
 21
50.0
 31
0.0
  0
LINE
  8
0
  6
CONTINUOUS
 62
   249
 10
227.5
 20
57.5
 30
0.0
 11
227.5
 21
50.0
 31
0.0
  0
TEXT
  8
0
  6
HIDDEN
 62
   249
 10
168.484926
 20
38.667815
 30
0.0
 40
2.0
  1
SHEET 2
  7
ROMANS
  0
TEXT
  8
0
  6
HIDDEN
 62
   249
 10
267.31485
 20
226.11903
 30
0.0
 40
2.0
  1
1)
  7
ROMANS
  0
TEXT
  8
0
  6
HIDDEN
 62
   249
 10
267.31485
 20
206.11903
 30
0.0
 40
2.0
  1
1)
  7
ROMANS
  0
TEXT
  8
0
  6
HIDDEN
 62
   249
 10
267.31485
 20
186.11903
 30
0.0
 40
2.0
  1
1)
  7
ROMANS
  0
TEXT
  8
0
  6
HIDDEN
 62
   249
 10
267.31485
 20
146.11903
 30
0.0
 40
2.0
  1
1)
  7
ROMANS
  0
TEXT
  8
0
  6
HIDDEN
 62
   249
 10
272.505995
 20
202.053511
 30
0.0
 40
2.0
  1
L2
  7
ROMANS
  0
TEXT
  8
0
  6
HIDDEN
 62
   249
 10
272.505995
 20
192.053511
 30
0.0
 40
2.0
  1
L2
  7
ROMANS
  0
TEXT
  8
0
  6
HIDDEN
 62
   249
 10
267.31485
 20
81.11903
 30
0.0
 40
2.0
  1
1)
  7
ROMANS
  0
TEXT
  8
0
  6
HIDDEN
 62
   249
 10
267.31485
 20
101.11903
 30
0.0
 40
2.0
  1
1)
  7
ROMANS
  0
TEXT
  8
0
  6
HIDDEN
 62
   249
 10
267.31485
 20
126.11903
 30
0.0
 40
2.0
  1
1)
  7
ROMANS
  0
LINE
  8
0
  6
CONTINUOUS
 62
   249
 10
280.0
 20
100.808726
 30
0.0
 11
279.0
 21
101.808726
 31
0.0
  0
LINE
  8
0
  6
CONTINUOUS
 62
   249
 10
280.0
 20
100.0
 30
0.0
 11
280.0
 21
100.808726
 31
0.0
  0
LINE
  8
0
  6
CONTINUOUS
 62
   249
 10
280.0
 20
70.0
 30
0.0
 11
280.0
 21
100.0
 31
0.0
  0
LINE
  8
0
  6
CONTINUOUS
 62
   249
 10
280.0
 20
70.0
 30
0.0
 11
279.0
 21
69.0
 31
0.0
  0
LINE
  8
0
  6
DASHED
 62
   249
 10
266.0
 20
80.0
 30
0.0
 11
277.5
 21
80.0
 31
0.0
  0
LINE
  8
0
  6
DASHED
 62
   249
 10
266.0
 20
100.0
 30
0.0
 11
277.5
 21
100.0
 31
0.0
  0
LINE
  8
0
  6
DASHED
 62
   249
 10
266.0
 20
125.0
 30
0.0
 11
277.5
 21
125.0
 31
0.0
  0
LINE
  8
0
  6
CONTINUOUS
 62
   249
 10
266.0
 20
126.5
 30
0.0
 11
266.0
 21
119.5
 31
0.0
  0
LINE
  8
0
  6
CONTINUOUS
 62
   249
 10
266.0
 20
119.5
 30
0.0
 11
265.0
 21
118.5
 31
0.0
  0
LINE
  8
0
  6
CONTINUOUS
 62
   249
 10
266.0
 20
126.5
 30
0.0
 11
265.0
 21
127.5
 31
0.0
  0
LINE
  8
0
  6
CONTINUOUS
 62
   249
 10
266.0
 20
101.5
 30
0.0
 11
265.0
 21
102.5
 31
0.0
  0
LINE
  8
0
  6
CONTINUOUS
 62
   249
 10
266.0
 20
101.5
 30
0.0
 11
266.0
 21
94.5
 31
0.0
  0
LINE
  8
0
  6
CONTINUOUS
 62
   249
 10
266.0
 20
94.5
 30
0.0
 11
265.0
 21
93.5
 31
0.0
  0
LINE
  8
0
  6
CONTINUOUS
 62
   249
 10
266.0
 20
74.5
 30
0.0
 11
265.0
 21
73.5
 31
0.0
  0
LINE
  8
0
  6
CONTINUOUS
 62
   249
 10
266.0
 20
81.5
 30
0.0
 11
266.0
 21
74.5
 31
0.0
  0
LINE
  8
0
  6
CONTINUOUS
 62
   249
 10
266.0
 20
81.5
 30
0.0
 11
265.0
 21
82.5
 31
0.0
  0
LINE
  8
0
  6
DASHED
 62
   249
 10
260.0
 20
70.0
 30
0.0
 11
277.5
 21
70.0
 31
0.0
  0
LINE
  8
0
  6
DASHED
 62
   249
 10
260.0
 20
75.0
 30
0.0
 11
264.266471
 21
75.0
 31
0.0
  0
LINE
  8
0
  6
DASHED
 62
   249
 10
260.0
 20
80.0
 30
0.0
 11
264.266471
 21
80.0
 31
0.0
  0
LINE
  8
0
  6
DASHED
 62
   249
 10
260.0
 20
90.0
 30
0.0
 11
277.5
 21
90.0
 31
0.0
  0
LINE
  8
0
  6
DASHED
 62
   249
 10
260.0
 20
95.0
 30
0.0
 11
264.266471
 21
95.0
 31
0.0
  0
LINE
  8
0
  6
DASHED
 62
   249
 10
260.0
 20
100.0
 30
0.0
 11
264.266471
 21
100.0
 31
0.0
  0
LINE
  8
0
  6
DASHED
 62
   249
 10
260.0
 20
115.0
 30
0.0
 11
277.5
 21
115.0
 31
0.0
  0
LINE
  8
0
  6
DASHED
 62
   249
 10
260.0
 20
120.0
 30
0.0
 11
264.266471
 21
120.0
 31
0.0
  0
LINE
  8
0
  6
DASHED
 62
   249
 10
260.0
 20
125.0
 30
0.0
 11
264.266471
 21
125.0
 31
0.0
  0
TEXT
  8
0
  6
HIDDEN
 62
   249
 10
272.145158
 20
121.883444
 30
0.0
 40
2.0
  1
Uo
  7
ROMANS
  0
TEXT
  8
0
  6
HIDDEN
 62
   249
 10
272.145158
 20
111.883444
 30
0.0
 40
2.0
  1
Uo
  7
ROMANS
  0
TEXT
  8
0
  6
HIDDEN
 62
   249
 10
271.791434
 20
86.655021
 30
0.0
 40
2.0
  1
U23
  7
ROMANS
  0
TEXT
  8
0
  6
HIDDEN
 62
   249
 10
271.791434
 20
66.825549
 30
0.0
 40
2.0
  1
U31
  7
ROMANS
  0
TEXT
  8
0
  6
HIDDEN
 62
   249
 10
271.791434
 20
76.825549
 30
0.0
 40
2.0
  1
U31
  7
ROMANS
  0
TEXT
  8
0
  6
HIDDEN
 62
   249
 10
271.791434
 20
96.655021
 30
0.0
 40
2.0
  1
U23
  7
ROMANS
  0
LINE
  8
0
  6
DASHED
 62
   249
 10
305.0
 20
84.326634
 30
0.0
 11
280.0
 21
84.326634
 31
0.0
  0
CIRCLE
  8
0
  6
CONTINUOUS
 62
   249
 10
305.0
 20
225.0
 30
0.0
 40
2.5
  0
CIRCLE
  8
0
  6
CONTINUOUS
 62
   249
 10
305.0
 20
228.041623
 30
0.0
 40
2.5
  0
LINE
  8
0
  6
DASHED
 62
   249
 10
305.0
 20
237.5
 30
0.0
 11
305.0
 21
230.541623
 31
0.0
  0
LINE
  8
0
  6
DASHED
 62
   249
 10
305.0
 20
222.5
 30
0.0
 11
305.0
 21
84.326634
 31
0.0
  0
LINE
  8
0
  6
CONTINUOUS
 62
   249
 10
327.5
 20
120.372218
 30
0.0
 11
380.0
 21
120.372218
 31
0.0
  0
LINE
  8
0
  6
CONTINUOUS
 62
   249
 10
380.0
 20
120.372218
 30
0.0
 11
380.0
 21
102.872218
 31
0.0
  0
LINE
  8
0
  6
CONTINUOUS
 62
   249
 10
380.0
 20
102.872218
 30
0.0
 11
327.5
 21
102.872218
 31
0.0
  0
LINE
  8
0
  6
CONTINUOUS
 62
   249
 10
327.5
 20
102.872218
 30
0.0
 11
327.5
 21
120.372218
 31
0.0
  0
TEXT
  8
0
  6
CONTINUOUS
 62
   249
 10
340.300233
 20
122.109204
 30
0.0
 40
1.8
  1
482,6 mm
  7
ROMANS
  0
TEXT
  8
0
  6
CONTINUOUS
 62
   249
 10
384.172238
 20
105.372218
 30
0.0
 40
1.8
  1
132,5 mm
 50
90.0
  7
ROMANS
  0
TEXT
  8
0
  6
CONTINUOUS
 62
   249
 10
325.789791
 20
71.07212
 30
0.0
 40
2.0
  1
L2
  7
ROMANS
  0
TEXT
  8
0
  6
CONTINUOUS
 62
   249
 10
355.825597
 20
71.08314
 30
0.0
 40
2.0
  1
4-6
  7
ROMANS
  0
TEXT
  8
0
  6
CONTINUOUS
 62
   249
 10
370.919948
 20
71.08314
 30
0.0
 40
2.0
  1
4-5
  7
ROMANS
  0
LINE
  8
0
 62
   249
 10
382.088281
 20
90.930298
 30
0.0
 11
322.275257
 21
90.930298
 31
0.0
  0
TEXT
  8
0
  6
HIDDEN
 62
   249
 10
325.857358
 20
47.461357
 30
0.0
 40
2.0
  1
Uo
  7
ROMANS
  0
TEXT
  8
0
  6
HIDDEN
 62
   249
 10
325.826621
 20
43.630815
 30
0.0
 40
2.0
  1
U23
  7
ROMANS
  0
TEXT
  8
0
  6
HIDDEN
 62
   249
 10
325.826621
 20
39.721256
 30
0.0
 40
2.0
  1
U31
  7
ROMANS
  0
LINE
  8
0
  6
CONTINUOUS
 62
   249
 10
337.029564
 20
55.422532
 30
0.0
 11
382.088281
 21
55.422532
 31
0.0
  0
TEXT
  8
0
  6
CONTINUOUS
 62
   249
 10
339.144563
 20
43.618792
 30
0.0
 40
2.0
  1
16-17
  7
ROMANS
  0
TEXT
  8
0
  6
CONTINUOUS
 62
   249
 10
339.144563
 20
39.74546
 30
0.0
 40
2.0
  1
19-20
  7
ROMANS
  0
TEXT
  8
0
  6
CONTINUOUS
 62
   249
 10
355.195332
 20
43.607771
 30
0.0
 40
2.0
  1
16-18
  7
ROMANS
  0
TEXT
  8
0
  6
CONTINUOUS
 62
   249
 10
355.195332
 20
39.756481
 30
0.0
 40
2.0
  1
19-21
  7
ROMANS
  0
TEXT
  8
0
  6
CONTINUOUS
 62
   249
 10
316.960435
 20
89.542612
 30
0.0
 40
2.0
  1
1)
  7
ROMANS
  0
LINE
  8
0
 62
   249
 10
60.221556
 20
228.704212
 30
0.0
 11
52.798812
 21
228.704212
 31
0.0
  0
LINE
  8
0
  6
CONTINUOUS
 62
   249
 10
60.221556
 20
232.5
 30
0.0
 11
65.0
 21
232.5
 31
0.0
  0
LINE
  8
0
 62
   249
 10
60.221556
 20
228.704212
 30
0.0
 11
60.221556
 21
236.589925
 31
0.0
  0
LINE
  8
0
 62
   249
 10
60.221556
 20
236.589925
 30
0.0
 11
52.798812
 21
236.589925
 31
0.0
  0
LINE
  8
0
 62
   249
 10
58.496971
 20
236.567786
 30
0.0
 11
56.642636
 21
234.288964
 31
0.0
  0
LINE
  8
0
 62
   249
 10
57.004853
 20
236.567786
 30
0.0
 11
55.09105
 21
234.288964
 31
0.0
  0
LINE
  8
0
 62
   249
 10
52.798812
 20
236.589925
 30
0.0
 11
52.798812
 21
228.704212
 31
0.0
  0
LINE
  8
0
  6
CONTINUOUS
 62
   249
 10
52.798812
 20
230.0
 30
0.0
 11
40.0
 21
230.0
 31
0.0
  0
LINE
  8
0
  6
CONTINUOUS
 62
   249
 10
52.798812
 20
235.0
 30
0.0
 11
40.0
 21
235.0
 31
0.0
  0
LINE
  8
0
  6
HIDDEN
 62
   249
 10
40.0
 20
240.0
 30
0.0
 11
45.0
 21
240.0
 31
0.0
  0
LINE
  8
0
  6
HIDDEN
 62
   249
 10
40.0
 20
226.348482
 30
0.0
 11
45.0
 21
226.348482
 31
0.0
  0
LINE
  8
0
  6
HIDDEN
 62
   249
 10
45.0
 20
240.0
 30
0.0
 11
45.0
 21
226.348482
 31
0.0
  0
TEXT
  8
0
  6
CONTINUOUS
 62
   249
 10
41.09856
 20
236.598074
 30
0.0
 40
2.0
  1
X1
  7
ROMANS
  0
TEXT
  8
0
  6
CONTINUOUS
 62
   249
 10
40.442426
 20
232.252652
 30
0.0
 40
2.0
  1
12
  7
ROMANS
  0
TEXT
  8
0
  6
CONTINUOUS
 62
   249
 10
40.442426
 20
227.401185
 30
0.0
 40
2.0
  1
11
  7
ROMANS
  0
LINE
  8
0
  6
HIDDEN
 62
   249
 10
182.5
 20
210.0
 30
0.0
 11
210.450615
 21
210.0
 31
0.0
  0
LINE
  8
0
  6
HIDDEN
 62
   249
 10
182.5
 20
205.0
 30
0.0
 11
200.0
 21
205.0
 31
0.0
  0
LINE
  8
0
  6
CONTINUOUS
 62
   249
 10
187.792268
 20
203.604867
 30
0.0
 11
190.138033
 21
202.269513
 31
0.0
  0
LINE
  8
0
  6
CONTINUOUS
 62
   249
 10
190.138033
 20
202.269513
 30
0.0
 11
187.792268
 21
201.079594
 31
0.0
  0
TEXT
  8
0
  6
CONTINUOUS
 62
   249
 10
183.770128
 20
201.06691
 30
0.0
 40
2.5
  1
I
 11
183.770128
 21
200.233576
 31
0.0
 73
     1
  0
LINE
  8
0
  6
CONTINUOUS
 62
   249
 10
182.5
 20
230.0
 30
0.0
 11
182.5
 21
190.0
 31
0.0
  0
TEXT
  8
0
  6
CONTINUOUS
 62
   249
 10
181.991916
 20
193.287092
 30
0.0
 40
1.5
  1
PROGRAMMING: SEE SHEET 3
 50
90.0
  7
ROMANS
  0
TEXT
  8
0
  6
CONTINUOUS
 62
   249
 10
182.005063
 20
171.346592
 30
0.0
 40
2.5
  1
I
 11
182.005063
 21
170.513259
 31
0.0
 73
     1
  0
TEXT
  8
0
  6
CONTINUOUS
 62
   249
 10
182.005063
 20
175.765761
 30
0.0
 40
2.5
  1
I
 11
182.005063
 21
174.932428
 31
0.0
 73
     1
  0
LINE
  8
0
  6
CONTINUOUS
 62
   249
 10
188.526365
 20
176.762687
 30
0.0
 11
186.180599
 21
175.572768
 31
0.0
  0
LINE
  8
0
  6
CONTINUOUS
 62
   249
 10
186.180599
 20
178.098041
 30
0.0
 11
188.526365
 21
176.762687
 31
0.0
  0
TEXT
  8
0
  6
CONTINUOUS
 62
   249
 10
182.005063
 20
186.268175
 30
0.0
 40
2.5
  1
I
 11
182.005063
 21
185.434842
 31
0.0
 73
     1
  0
TEXT
  8
0
  6
CONTINUOUS
 62
   249
 10
182.005063
 20
160.733974
 30
0.0
 40
2.5
  1
I
 11
182.005063
 21
159.900641
 31
0.0
 73
     1
  0
LINE
  8
0
  6
CONTINUOUS
 62
   249
 10
189.917454
 20
161.613824
 30
0.0
 11
187.571688
 21
160.423905
 31
0.0
  0
LINE
  8
0
  6
CONTINUOUS
 62
   249
 10
187.571688
 20
162.949178
 30
0.0
 11
189.917454
 21
161.613824
 31
0.0
  0
LINE
  8
0
  6
CONTINUOUS
 62
   249
 10
188.174969
 20
161.613824
 30
0.0
 11
185.829204
 21
160.423905
 31
0.0
  0
LINE
  8
0
  6
CONTINUOUS
 62
   249
 10
185.829204
 20
162.949178
 30
0.0
 11
188.174969
 21
161.613824
 31
0.0
  0
TEXT
  8
0
  6
CONTINUOUS
 62
   249
 10
204.815092
 20
219.998858
 30
0.0
 40
2.5
  1
I
  7
GREEKS
  0
LINE
  8
0
  6
CONTINUOUS
 62
   249
 10
201.724689
 20
173.214764
 30
0.0
 11
209.268276
 21
173.214764
 31
0.0
  0
TEXT
  8
0
  6
CONTINUOUS
 62
   249
 10
204.296619
 20
181.529986
 30
0.0
 40
2.5
  1
I
 11
204.296619
 21
180.696653
 31
0.0
 73
     1
  0
TEXT
  8
0
  6
CONTINUOUS
 62
   249
 10
204.72661
 20
168.025469
 30
0.0
 40
1.5
  1
f
  7
GREEKC
  0
TEXT
  8
0
  6
CONTINUOUS
 62
   249
 10
200.471568
 20
167.510459
 30
0.0
 40
1.5
  1
SIN
  7
GREEKS
  0
TEXT
  8
0
  6
CONTINUOUS
 62
   249
 10
200.471568
 20
163.357643
 30
0.0
 40
1.5
  1
COS
  7
GREEKS
  0
TEXT
  8
0
  6
CONTINUOUS
 62
   249
 10
204.72661
 20
163.864059
 30
0.0
 40
1.5
  1
f
  7
GREEKC
  0
TEXT
  8
0
  6
HIDDEN
 62
   249
 10
207.367691
 20
163.362921
 30
0.0
 40
1.5
  1
EN
  0
TEXT
  8
0
  6
HIDDEN
 62
   249
 10
207.367691
 20
167.499914
 30
0.0
 40
1.5
  1
EN
  0
LINE
  8
0
  6
CONTINUOUS
 62
   249
 10
70.0
 20
157.5
 30
0.0
 11
70.0
 21
180.377204
 31
0.0
  0
LINE
  8
0
  6
CONTINUOUS
 62
   249
 10
55.0
 20
177.5
 30
0.0
 11
180.0
 21
177.5
 31
0.0
  0
LINE
  8
0
  6
CONTINUOUS
 62
   249
 10
147.5
 20
162.5
 30
0.0
 11
180.0
 21
162.5
 31
0.0
  0
LINE
  8
0
  6
CONTINUOUS
 62
   249
 10
65.0
 20
147.5
 30
0.0
 11
65.0
 21
162.5
 31
0.0
  0
LINE
  8
0
  6
CONTINUOUS
 62
   249
 10
65.0
 20
162.5
 30
0.0
 11
147.5
 21
162.5
 31
0.0
  0
LINE
  8
0
  6
CONTINUOUS
 62
   249
 10
47.5
 20
138.608096
 30
0.0
 11
47.5
 21
170.0
 31
0.0
  0
LINE
  8
0
  6
CONTINUOUS
 62
   249
 10
47.5
 20
170.0
 30
0.0
 11
87.5
 21
170.0
 31
0.0
  0
LINE
  8
0
  6
CONTINUOUS
 62
   249
 10
60.0
 20
138.608096
 30
0.0
 11
47.5
 21
138.608096
 31
0.0
  0
LINE
  8
0
  6
CONTINUOUS
 62
   249
 10
82.5
 20
147.5
 30
0.0
 11
82.5
 21
177.5
 31
0.0
  0
LINE
  8
0
  6
CONTINUOUS
 62
   249
 10
180.0
 20
172.5
 30
0.0
 11
145.0
 21
172.5
 31
0.0
  0
LINE
  8
0
  6
CONTINUOUS
 62
   249
 10
145.0
 20
160.0
 30
0.0
 11
145.0
 21
157.5
 31
0.0
  0
LINE
  8
0
  6
CONTINUOUS
 62
   249
 10
67.5
 20
180.377204
 30
0.0
 11
75.0
 21
180.377204
 31
0.0
  0
LINE
  8
0
  6
CONTINUOUS
 62
   249
 10
75.0
 20
180.377204
 30
0.0
 11
75.0
 21
185.377204
 31
0.0
  0
LINE
  8
0
  6
CONTINUOUS
 62
   249
 10
75.0
 20
185.377204
 30
0.0
 11
67.5
 21
185.377204
 31
0.0
  0
LINE
  8
0
  6
CONTINUOUS
 62
   249
 10
67.5
 20
185.377204
 30
0.0
 11
67.5
 21
180.377204
 31
0.0
  0
TEXT
  8
0
  6
CONTINUOUS
 62
   249
 10
72.995812
 20
181.932409
 30
0.0
 40
2.5
  1
1
 11
72.995812
 21
181.099076
 31
0.0
 73
     1
  0
LINE
  8
0
  6
CONTINUOUS
 62
   249
 10
68.56195
 20
184.592502
 30
0.0
 11
70.907716
 21
183.257149
 31
0.0
  0
LINE
  8
0
  6
CONTINUOUS
 62
   249
 10
68.553908
 20
181.267216
 30
0.0
 11
70.937369
 21
182.455408
 31
0.0
  0
LINE
  8
0
  6
CONTINUOUS
 62
   249
 10
70.907716
 20
183.257149
 30
0.0
 11
68.56195
 21
182.06723
 31
0.0
  0
LINE
  8
0
  6
CONTINUOUS
 62
   249
 10
125.0
 20
137.5
 30
0.0
 11
125.0
 21
212.5
 31
0.0
  0
TEXT
  8
0
  6
CONTINUOUS
 62
   249
 10
174.842601
 20
210.165666
 30
0.0
 40
1.5
  1
SS1
  7
ROMANS
  0
TEXT
  8
0
  6
CONTINUOUS
 62
   249
 10
174.842601
 20
202.300383
 30
0.0
 40
1.5
  1
TS1
  7
ROMANS
  0
TEXT
  8
0
  6
CONTINUOUS
 62
   249
 10
174.842601
 20
197.773686
 30
0.0
 40
1.5
  1
SS2
  7
ROMANS
  0
TEXT
  8
0
  6
CONTINUOUS
 62
   249
 10
174.842601
 20
192.336744
 30
0.0
 40
1.5
  1
TS2
  7
ROMANS
  0
ARC
  8
0
 62
   249
 10
249.934151
 20
161.25
 30
0.0
 40
1.251733
 50
86.984476
 51
273.015524
  0
LINE
  8
0
 62
   249
 10
250.0
 20
160.0
 30
0.0
 11
252.5
 21
160.0
 31
0.0
  0
ARC
  8
0
 62
   249
 10
249.934151
 20
163.75
 30
0.0
 40
1.251733
 50
86.984476
 51
273.015524
  0
LINE
  8
0
 62
   249
 10
250.0
 20
162.5
 30
0.0
 11
252.5
 21
162.5
 31
0.0
  0
LINE
  8
0
 62
   249
 10
250.0
 20
165.0
 30
0.0
 11
252.5
 21
165.0
 31
0.0
  0
LINE
  8
0
 62
   249
 10
252.5
 20
160.0
 30
0.0
 11
255.0
 21
160.0
 31
0.0
  0
LINE
  8
0
 62
   249
 10
250.0
 20
160.0
 30
0.0
 11
252.5
 21
160.0
 31
0.0
  0
LINE
  8
0
 62
   249
 10
250.0
 20
157.5
 30
0.0
 11
252.5
 21
157.5
 31
0.0
  0
ARC
  8
0
 62
   249
 10
249.934151
 20
158.75
 30
0.0
 40
1.251733
 50
86.984476
 51
273.015524
  0
ARC
  8
0
 62
   249
 10
249.934151
 20
156.25
 30
0.0
 40
1.251733
 50
86.984476
 51
273.015524
  0
LINE
  8
0
 62
   249
 10
250.0
 20
155.0
 30
0.0
 11
252.5
 21
155.0
 31
0.0
  0
ARC
  8
0
 62
   249
 10
245.065849
 20
161.25
 30
0.0
 40
1.251733
 50
266.984476
 51
93.015524
  0
LINE
  8
0
 62
   249
 10
245.0
 20
162.5
 30
0.0
 11
243.480133
 21
162.5
 31
0.0
  0
LINE
  8
0
 62
   249
 10
245.0
 20
160.0
 30
0.0
 11
243.480133
 21
160.0
 31
0.0
  0
ARC
  8
0
 62
   249
 10
245.065849
 20
158.75
 30
0.0
 40
1.251733
 50
266.984476
 51
93.015524
  0
LINE
  8
0
 62
   249
 10
245.0
 20
157.5
 30
0.0
 11
243.480133
 21
157.5
 31
0.0
  0
LINE
  8
0
 62
   249
 10
252.5
 20
155.0
 30
0.0
 11
260.0
 21
155.0
 31
0.0
  0
LINE
  8
0
 62
   249
 10
252.5
 20
160.0
 30
0.0
 11
260.0
 21
160.0
 31
0.0
  0
LINE
  8
0
 62
   249
 10
252.5
 20
165.0
 30
0.0
 11
260.0
 21
165.0
 31
0.0
  0
TEXT
  8
0
  6
CONTINUOUS
 62
   249
 10
255.85973
 20
141.91075
 30
0.0
 40
2.0
  1
27
  7
ROMANS
  0
TEXT
  8
0
  6
CONTINUOUS
 62
   249
 10
255.85973
 20
137.013268
 30
0.0
 40
2.0
  1
26
  7
ROMANS
  0
TEXT
  8
0
  6
CONTINUOUS
 62
   249
 10
255.85973
 20
131.994619
 30
0.0
 40
2.0
  1
25
  7
ROMANS
  0
LINE
  8
0
  6
CONTINUOUS
 62
   249
 10
217.5
 20
217.5
 30
0.0
 11
225.0
 21
217.5
 31
0.0
  0
LINE
  8
0
  6
CONTINUOUS
 62
   249
 10
221.246052
 20
181.776309
 30
0.0
 11
221.246052
 21
140.0
 31
0.0
  0
LINE
  8
0
  6
CONTINUOUS
 62
   249
 10
221.246052
 20
140.0
 30
0.0
 11
232.5
 21
140.0
 31
0.0
  0
CIRCLE
  8
0
  6
CONTINUOUS
 62
   249
 10
211.450323
 20
168.483421
 30
0.0
 40
1.0
  0
LINE
  8
0
  6
CONTINUOUS
 62
   249
 10
65.0
 20
232.5
 30
0.0
 11
215.0
 21
232.5
 31
0.0
  0
LINE
  8
0
  6
CONTINUOUS
 62
   249
 10
215.0
 20
232.5
 30
0.0
 11
215.0
 21
164.043906
 31
0.0
  0
LINE
  8
0
  6
CONTINUOUS
 62
   249
 10
210.450615
 20
164.043906
 30
0.0
 11
215.0
 21
164.043906
 31
0.0
  0
LINE
  8
0
  6
CONTINUOUS
 62
   249
 10
212.450316
 20
168.479447
 30
0.0
 11
215.0
 21
168.479447
 31
0.0
  0
LINE
  8
0
  6
CONTINUOUS
 62
   249
 10
210.450615
 20
181.776309
 30
0.0
 11
221.246052
 21
181.776309
 31
0.0
  0
LINE
  8
0
  6
CONTINUOUS
 62
   249
 10
232.5
 20
200.0
 30
0.0
 11
225.0
 21
200.0
 31
0.0
  0
LINE
  8
0
  6
CONTINUOUS
 62
   249
 10
225.0
 20
217.5
 30
0.0
 11
225.0
 21
200.0
 31
0.0
  0
LINE
  8
0
  6
CONTINUOUS
 62
   249
 10
210.450615
 20
217.5
 30
0.0
 11
217.5
 21
217.5
 31
0.0
  0
LINE
  8
0
  6
CONTINUOUS
 62
   249
 10
232.5
 20
86.253046
 30
0.0
 11
227.5
 21
86.253046
 31
0.0
  0
LINE
  8
0
  6
CONTINUOUS
 62
   249
 10
227.5
 20
86.253046
 30
0.0
 11
227.5
 21
57.5
 31
0.0
  0
LINE
  8
0
  6
DASHED
 62
   249
 10
40.0
 20
235.0
 30
0.0
 11
32.5
 21
235.0
 31
0.0
  0
LINE
  8
0
  6
DASHED
 62
   249
 10
40.0
 20
230.0
 30
0.0
 11
32.5
 21
230.0
 31
0.0
  0
LINE
  8
0
  6
CONTINUOUS
 62
   249
 10
25.0
 20
235.0
 30
0.0
 11
26.0
 21
236.0
 31
0.0
  0
LINE
  8
0
  6
CONTINUOUS
 62
   249
 10
25.0
 20
229.999655
 30
0.0
 11
26.0
 21
228.999655
 31
0.0
  0
LINE
  8
0
  6
CONTINUOUS
 62
   249
 10
25.0
 20
235.0
 30
0.0
 11
25.0
 21
230.0
 31
0.0
  0
TEXT
  8
0
  6
CONTINUOUS
 62
   249
 10
19.940672
 20
213.067384
 30
0.0
 40
2.0
  1
3)
  7
ROMANS
  0
TEXT
  8
0
  6
CONTINUOUS
 62
   249
 10
17.993014
 20
119.173819
 30
0.0
 40
2.0
  1
5a)
  7
ROMANS
  0
TEXT
  8
0
  6
CONTINUOUS
 62
   249
 10
17.993014
 20
101.591145
 30
0.0
 40
2.0
  1
5b)
  7
ROMANS
  0
TEXT
  8
0
  6
CONTINUOUS
 62
   249
 10
17.993014
 20
80.437871
 30
0.0
 40
2.0
  1
5c)
  7
ROMANS
  0
TEXT
  8
0
  6
HIDDEN
 62
   249
 10
267.31485
 20
166.11903
 30
0.0
 40
2.0
  1
1)
  7
ROMANS
  0
LINE
  8
0
  6
CONTINUOUS
 62
   249
 10
280.0
 20
155.0
 30
0.0
 11
279.0
 21
154.0
 31
0.0
  0
LINE
  8
0
  6
DASHED
 62
   249
 10
260.0
 20
155.0
 30
0.0
 11
277.5
 21
155.0
 31
0.0
  0
LINE
  8
0
  6
DASHED
 62
   249
 10
266.0
 20
165.0
 30
0.0
 11
277.5
 21
165.0
 31
0.0
  0
LINE
  8
0
  6
DASHED
 62
   249
 10
260.0
 20
165.0
 30
0.0
 11
264.266471
 21
165.0
 31
0.0
  0
LINE
  8
0
  6
DASHED
 62
   249
 10
260.0
 20
160.0
 30
0.0
 11
264.266471
 21
160.0
 31
0.0
  0
LINE
  8
0
  6
CONTINUOUS
 62
   249
 10
266.0
 20
166.5
 30
0.0
 11
265.0
 21
167.5
 31
0.0
  0
LINE
  8
0
  6
CONTINUOUS
 62
   249
 10
266.0
 20
166.5
 30
0.0
 11
266.0
 21
159.5
 31
0.0
  0
LINE
  8
0
  6
CONTINUOUS
 62
   249
 10
266.0
 20
159.5
 30
0.0
 11
265.0
 21
158.5
 31
0.0
  0
TEXT
  8
0
  6
CONTINUOUS
 62
   249
 10
272.145116
 20
141.364983
 30
0.0
 40
2.5
  1
I
 11
272.145116
 21
140.531649
 31
0.0
 73
     1
  0
TEXT
  8
0
  6
CONTINUOUS
 62
   249
 10
272.145116
 20
131.364983
 30
0.0
 40
2.5
  1
I
 11
272.145116
 21
130.531649
 31
0.0
 73
     1
  0
LINE
  8
0
  6
DASHED
 62
   249
 10
310.0
 20
237.5
 30
0.0
 11
277.5
 21
237.5
 31
0.0
  0
TEXT
  8
0
  6
DASHED
 62
   249
 10
358.574422
 20
122.58283
 30
0.0
 40
1.8
  1
(19")
  7
ROMANS
  0
TEXT
  8
0
  6
DASHED
 62
   249
 10
339.921304
 20
62.540235
 30
0.0
 40
2.0
  1
25-27
  7
ROMANS
  0
TEXT
  8
0
  6
DASHED
 62
   249
 10
353.65129
 20
62.540235
 30
0.0
 40
2.0
  1
25-26
  7
ROMANS
  0
TEXT
  8
0
  6
CONTINUOUS
 62
   249
 10
52.713192
 20
34.387285
 30
0.0
 40
2.014518
  1
f
  7
GREEKC
  0
TEXT
  8
0
  6
DASHED
 62
   249
 10
19.98632
 20
43.721695
 30
0.0
 40
2.0
  1
2) OPERATING CHARACTERISTICS
  7
ROMANS
  0
TEXT
  8
0
  6
DASHED
 62
   249
 10
21.313679
 20
40.388361
 30
0.0
 40
2.0
  1
  SIN  OR COS  /
  7
ROMANS
  0
TEXT
  8
0
  6
DASHED
 62
   249
 10
21.313679
 20
37.055028
 30
0.0
 40
2.0
  1
  FUNKTIONSKARAKTERISTIKEN
  7
ROMANS
  0
TEXT
  8
0
  6
DASHED
 62
   249
 10
21.313679
 20
33.721695
 30
0.0
 40
2.0
  1
  SIN  ELLER COS
  7
ROMANS
  0
TEXT
  8
0
  6
CONTINUOUS
 62
   249
 10
30.676688
 20
34.387285
 30
0.0
 40
2.014518
  1
f
  7
GREEKC
  0
TEXT
  8
0
  6
CONTINUOUS
 62
   249
 10
30.676688
 20
41.074201
 30
0.0
 40
2.014518
  1
f
  7
GREEKC
  0
TEXT
  8
0
  6
CONTINUOUS
 62
   249
 10
46.675472
 20
41.074201
 30
0.0
 40
2.014518
  1
f
  7
GREEKC
  0
TEXT
  8
0
  6
DASHED
 62
   249
 10
19.996249
 20
26.479261
 30
0.0
 40
2.0
  1
3) BLOCKING INPUT /
  7
ROMANS
  0
TEXT
  8
0
  6
DASHED
 62
   249
 10
21.323608
 20
23.145927
 30
0.0
 40
2.0
  1
  BLOCKERING IN
  7
ROMANS
  0
TEXT
  8
0
  6
DASHED
 62
   249
 10
20.043235
 20
16.343157
 30
0.0
 40
2.0
  1
4) TRIP 1 /
  7
ROMANS
  0
TEXT
  8
0
  6
DASHED
 62
   249
 10
21.323608
 20
13.009824
 30
0.0
 40
2.0
  1
  UTLÖSNING 1
  7
ROMANS
  0
TEXT
  8
0
  6
DASHED
 62
   249
 10
87.5
 20
35.0
 30
0.0
 40
2.0
  1
5a) TRIP 2 OR ALARM OUTPUT /
  7
ROMANS
  0
TEXT
  8
0
  6
DASHED
 62
   249
 10
88.839015
 20
31.666667
 30
0.0
 40
2.0
  1
   UTLÖSNING 2 ELLER SIGNALUTGÅNG
  7
ROMANS
  0
TEXT
  8
0
  6
DASHED
 62
   249
 10
87.5
 20
25.833333
 30
0.0
 40
2.0
  1
5b) ALARM OUTPUT /
  7
ROMANS
  0
TEXT
  8
0
  6
DASHED
 62
   249
 10
88.839015
 20
22.5
 30
0.0
 40
2.0
  1
   SIGNALUTGÅNG
  7
ROMANS
  0
TEXT
  8
0
  6
DASHED
 62
   249
 10
87.5
 20
16.309142
 30
0.0
 40
2.0
  1
5c) START, BLOCKING ETC.
  7
ROMANS
  0
TEXT
  8
0
  6
DASHED
 62
   249
 10
88.839015
 20
12.975808
 30
0.0
 40
2.0
  1
   START, BLOCKERING MM.
  7
ROMANS
  0
TEXT
  8
0
  6
DASHED
 62
   249
 10
202.5
 20
220.0
 30
0.0
 40
2.0
  1
3
  7
GREEKS
  0
LINE
  8
0
  6
CONTINUOUS
 62
   249
 10
180.0
 20
190.0
 30
0.0
 11
210.450615
 21
190.0
 31
0.0
  0
LINE
  8
0
  6
HIDDEN
 62
   249
 10
182.5
 20
195.0
 30
0.0
 11
200.0
 21
195.0
 31
0.0
  0
LINE
  8
0
  6
HIDDEN
 62
   249
 10
182.5
 20
200.0
 30
0.0
 11
200.0
 21
200.0
 31
0.0
  0
TEXT
  8
0
  6
CONTINUOUS
 62
   249
 10
183.770128
 20
206.374206
 30
0.0
 40
2.5
  1
I
 11
183.770128
 21
205.540872
 31
0.0
 73
     1
  0
LINE
  8
0
  6
CONTINUOUS
 62
   249
 10
190.29143
 20
207.6246
 30
0.0
 11
187.945664
 21
206.434681
 31
0.0
  0
LINE
  8
0
  6
CONTINUOUS
 62
   249
 10
187.945664
 20
208.959954
 30
0.0
 11
190.29143
 21
207.6246
 31
0.0
  0
LINE
  8
0
  6
CONTINUOUS
 62
   249
 10
199.53338
 20
192.952367
 30
0.0
 11
199.53338
 21
191.164236
 31
0.0
  0
LINE
  8
0
  6
CONTINUOUS
 62
   249
 10
194.13386
 20
190.939486
 30
0.0
 11
197.009971
 21
193.768045
 31
0.0
  0
LINE
  8
0
  6
CONTINUOUS
 62
   249
 10
196.579267
 20
194.305252
 30
0.0
 11
197.479944
 21
193.181503
 31
0.0
  0
LINE
  8
0
  6
CONTINUOUS
 62
   249
 10
191.749716
 20
192.107089
 30
0.0
 11
199.537921
 21
192.107089
 31
0.0
  0
LINE
  8
0
  6
CONTINUOUS
 62
   249
 10
191.718684
 20
192.952367
 30
0.0
 11
191.718684
 21
191.164236
 31
0.0
  0
LINE
  8
0
  6
CONTINUOUS
 62
   249
 10
187.258312
 20
193.714843
 30
0.0
 11
189.604078
 21
192.379489
 31
0.0
  0
LINE
  8
0
  6
CONTINUOUS
 62
   249
 10
189.604078
 20
192.379489
 30
0.0
 11
187.258312
 21
191.18957
 31
0.0
  0
LINE
  8
0
  6
CONTINUOUS
 62
   249
 10
188.737209
 20
193.714843
 30
0.0
 11
191.082974
 21
192.379489
 31
0.0
  0
LINE
  8
0
  6
CONTINUOUS
 62
   249
 10
191.082974
 20
192.379489
 30
0.0
 11
188.737209
 21
191.18957
 31
0.0
  0
TEXT
  8
0
  6
CONTINUOUS
 62
   249
 10
183.770128
 20
191.176886
 30
0.0
 40
2.5
  1
I
 11
183.770128
 21
190.343552
 31
0.0
 73
     1
  0
LINE
  8
0
  6
CONTINUOUS
 62
   249
 10
191.430679
 20
202.898838
 30
0.0
 11
191.430679
 21
201.110706
 31
0.0
  0
LINE
  8
0
  6
CONTINUOUS
 62
   249
 10
191.461711
 20
202.053559
 30
0.0
 11
199.249916
 21
202.053559
 31
0.0
  0
LINE
  8
0
  6
CONTINUOUS
 62
   249
 10
196.291263
 20
204.251722
 30
0.0
 11
197.19194
 21
203.127973
 31
0.0
  0
LINE
  8
0
  6
CONTINUOUS
 62
   249
 10
193.845856
 20
200.885957
 30
0.0
 11
196.721966
 21
203.714515
 31
0.0
  0
LINE
  8
0
  6
CONTINUOUS
 62
   249
 10
199.245375
 20
202.898838
 30
0.0
 11
199.245375
 21
201.110706
 31
0.0
  0
TEXT
  8
0
  6
CONTINUOUS
 62
   249
 10
183.770128
 20
196.29181
 30
0.0
 40
2.5
  1
I
 11
183.770128
 21
195.458477
 31
0.0
 73
     1
  0
LINE
  8
0
  6
CONTINUOUS
 62
   249
 10
191.706
 20
197.494414
 30
0.0
 11
189.360235
 21
196.304495
 31
0.0
  0
LINE
  8
0
  6
CONTINUOUS
 62
   249
 10
189.360235
 20
198.829768
 30
0.0
 11
191.706
 21
197.494414
 31
0.0
  0
LINE
  8
0
  6
CONTINUOUS
 62
   249
 10
190.155216
 20
197.494414
 30
0.0
 11
187.809451
 21
196.304495
 31
0.0
  0
LINE
  8
0
  6
CONTINUOUS
 62
   249
 10
187.809451
 20
198.829768
 30
0.0
 11
190.155216
 21
197.494414
 31
0.0
  0
TEXT
  8
0
  6
CONTINUOUS
 62
   249
 10
202.577202
 20
198.166974
 30
0.0
 40
2.5
  1
I
 11
202.577202
 21
197.333641
 31
0.0
 73
     1
  0
LINE
  8
0
  6
CONTINUOUS
 62
   249
 10
200.0
 20
230.0
 30
0.0
 11
200.0
 21
130.0
 31
0.0
  0
LINE
  8
0
  6
CONTINUOUS
 62
   249
 10
217.5
 20
217.5
 30
0.0
 11
217.5
 21
57.5
 31
0.0
  0
LINE
  8
0
  6
CONTINUOUS
 62
   249
 10
240.0
 20
145.0
 30
0.0
 11
241.0
 21
146.0
 31
0.0
  0
LINE
  8
0
  6
CONTINUOUS
 62
   249
 10
240.0
 20
155.0
 30
0.0
 11
241.0
 21
154.0
 31
0.0
  0
LINE
  8
0
  6
CONTINUOUS
 62
   249
 10
240.0
 20
145.0
 30
0.0
 11
240.0
 21
135.0
 31
0.0
  0
LINE
  8
0
  6
HIDDEN
 62
   249
 10
180.0
 20
130.0
 30
0.0
 11
180.0
 21
57.5
 31
0.0
  0
LINE
  8
0
  6
HIDDEN
 62
   249
 10
210.450615
 20
130.0
 30
0.0
 11
210.450615
 21
57.5
 31
0.0
  0
LINE
  8
0
  6
CONTINUOUS
 62
   249
 10
240.0
 20
160.0
 30
0.0
 11
225.351542
 21
160.0
 31
0.0
  0
LINE
  8
0
  6
CONTINUOUS
 62
   249
 10
210.450615
 20
197.033998
 30
0.0
 11
225.351542
 21
197.033998
 31
0.0
  0
LINE
  8
0
  6
CONTINUOUS
 62
   249
 10
72.5
 20
185.377204
 30
0.0
 11
72.5
 21
194.492731
 31
0.0
  0
LINE
  8
0
  6
CONTINUOUS
 62
   249
 10
170.0
 20
217.5
 30
0.0
 11
180.0
 21
217.5
 31
0.0
  0
LINE
  8
0
  6
CONTINUOUS
 62
   249
 10
178.01273
 20
183.000813
 30
0.0
 11
167.5
 21
183.000813
 31
0.0
  0
LINE
  8
0
  6
CONTINUOUS
 62
   249
 10
178.01273
 20
179.971652
 30
0.0
 11
170.0
 21
179.971652
 31
0.0
  0
CIRCLE
  8
0
  6
CONTINUOUS
 62
   249
 10
179.012659
 20
179.965349
 30
0.0
 40
1.0
  0
CIRCLE
  8
0
  6
CONTINUOUS
 62
   249
 10
179.012659
 20
182.994509
 30
0.0
 40
1.0
  0
LINE
  8
0
  6
CONTINUOUS
 62
   249
 10
70.0
 20
185.377204
 30
0.0
 11
70.0
 21
204.665835
 31
0.0
  0
TEXT
  8
0
  6
CONTINUOUS
 62
   249
 10
212.805314
 20
28.117486
 30
0.0
 40
2.0
  1
1993-09-22  JR / RITU
  7
ROMANS
  0
TEXT
  8
0
  6
CONTINUOUS
 62
   249
 10
317.5
 20
27.5
 30
0.0
 40
2.0
  1
CIRCUIT DIAGRAM / KRETSSCHEMA
  7
ROMANS
  0
TEXT
  8
0
  6
CONTINUOUS
 62
   249
 10
317.5
 20
24.166667
 30
0.0
 40
2.0
  1
SPAC 539 C / E263
  7
ROMANS
  0
TEXT
  8
0
  6
CONTINUOUS
 62
   249
 10
317.5
 20
2.5
 30
0.0
 40
2.5
  1
RS 10195-AA
  7
ROMANS
  0
TEXT
  8
0
  6
CONTINUOUS
 62
   249
 10
370.299098
 20
11.968596
 30
0.0
 40
2.0
  1
1/3
  7
ROMANS
  0
TEXT
  8
0
  6
CONTINUOUS
 62
   249
 10
337.659567
 20
97.385547
 30
0.0
 40
2.0
  1
SPAC 539 C / E263
  7
ROMANS
  0
LINE
  8
0
  6
CONTINUOUS
 62
   249
 10
355.0
 20
187.5
 30
0.0
 11
375.0
 21
187.5
 31
0.0
  0
LINE
  8
0
  6
CONTINUOUS
 62
   249
 10
360.600275
 20
195.292443
 30
0.0
 11
360.600275
 21
193.504312
 31
0.0
  0
LINE
  8
0
  6
CONTINUOUS
 62
   249
 10
360.631307
 20
194.447165
 30
0.0
 11
368.419512
 21
194.447165
 31
0.0
  0
LINE
  8
0
  6
CONTINUOUS
 62
   249
 10
363.015452
 20
193.279562
 30
0.0
 11
365.891562
 21
196.108121
 31
0.0
  0
LINE
  8
0
  6
CONTINUOUS
 62
   249
 10
365.460859
 20
196.645328
 30
0.0
 11
366.361536
 21
195.521578
 31
0.0
  0
LINE
  8
0
  6
CONTINUOUS
 62
   249
 10
368.414971
 20
195.292443
 30
0.0
 11
368.414971
 21
193.504312
 31
0.0
  0
LINE
  8
0
  6
CONTINUOUS
 62
   249
 10
370.263099
 20
199.118016
 30
0.0
 11
367.917333
 21
197.928097
 31
0.0
  0
LINE
  8
0
  6
CONTINUOUS
 62
   249
 10
367.917333
 20
200.45337
 30
0.0
 11
370.263099
 21
199.118016
 31
0.0
  0
LINE
  8
0
  6
CONTINUOUS
 62
   249
 10
366.325994
 20
200.45337
 30
0.0
 11
368.671759
 21
199.118016
 31
0.0
  0
LINE
  8
0
  6
CONTINUOUS
 62
   249
 10
368.671759
 20
199.118016
 30
0.0
 11
366.325994
 21
197.928097
 31
0.0
  0
TEXT
  8
0
  6
DASHED
 62
   249
 10
361.094202
 20
198.044326
 30
0.0
 40
2.5
  1
I
  0
LINE
  8
0
  6
CONTINUOUS
 62
   249
 10
368.414971
 20
230.348909
 30
0.0
 11
368.414971
 21
228.560777
 31
0.0
  0
LINE
  8
0
  6
CONTINUOUS
 62
   249
 10
363.015452
 20
228.336027
 30
0.0
 11
365.891562
 21
231.164586
 31
0.0
  0
LINE
  8
0
  6
CONTINUOUS
 62
   249
 10
365.460859
 20
231.701793
 30
0.0
 11
366.361536
 21
230.578044
 31
0.0
  0
LINE
  8
0
  6
CONTINUOUS
 62
   249
 10
360.631307
 20
229.50363
 30
0.0
 11
368.419512
 21
229.50363
 31
0.0
  0
LINE
  8
0
  6
CONTINUOUS
 62
   249
 10
360.600275
 20
230.348909
 30
0.0
 11
360.600275
 21
228.560777
 31
0.0
  0
LINE
  8
0
  6
CONTINUOUS
 62
   249
 10
366.979016
 20
215.263505
 30
0.0
 11
369.324782
 21
213.928151
 31
0.0
  0
LINE
  8
0
  6
CONTINUOUS
 62
   249
 10
369.324782
 20
213.928151
 30
0.0
 11
366.979016
 21
212.738232
 31
0.0
  0
TEXT
  8
0
  6
DASHED
 62
   249
 10
361.063796
 20
212.840061
 30
0.0
 40
2.5
  1
I
  0
LINE
  8
0
  6
CONTINUOUS
 62
   249
 10
370.914971
 20
156.430368
 30
0.0
 11
370.914971
 21
154.642237
 31
0.0
  0
LINE
  8
0
  6
CONTINUOUS
 62
   249
 10
367.960859
 20
157.783253
 30
0.0
 11
368.861536
 21
156.659504
 31
0.0
  0
LINE
  8
0
  6
CONTINUOUS
 62
   249
 10
365.515452
 20
154.417487
 30
0.0
 11
368.391562
 21
157.246046
 31
0.0
  0
LINE
  8
0
  6
CONTINUOUS
 62
   249
 10
363.131307
 20
155.58509
 30
0.0
 11
370.919512
 21
155.58509
 31
0.0
  0
LINE
  8
0
  6
CONTINUOUS
 62
   249
 10
363.100275
 20
156.430368
 30
0.0
 11
363.100275
 21
154.642237
 31
0.0
  0
LINE
  8
0
  6
CONTINUOUS
 62
   249
 10
367.352417
 20
159.948557
 30
0.0
 11
366.103744
 21
159.315151
 31
0.0
  0
LINE
  8
0
  6
CONTINUOUS
 62
   249
 10
366.103744
 20
160.659378
 30
0.0
 11
367.352417
 21
159.948557
 31
0.0
  0
TEXT
  8
0
  6
CONTINUOUS
 62
   249
 10
367.505219
 20
159.02768
 30
0.0
 40
2.0
  1
I
  0
TEXT
  8
0
  6
CONTINUOUS
 62
   249
 10
360.982104
 20
159.031931
 30
0.0
 40
2.0
  1
O
  0
LINE
  8
0
  6
CONTINUOUS
 62
   249
 10
362.859268
 20
159.948557
 30
0.0
 11
367.352417
 21
159.948557
 31
0.0
  0
TEXT
  8
0
  6
DASHED
 62
   249
 10
361.443359
 20
253.268474
 30
0.0
 40
2.5
  1
3I
  0
LINE
  8
0
  6
CONTINUOUS
 62
   249
 10
365.850579
 20
255.816754
 30
0.0
 11
368.196345
 21
254.4814
 31
0.0
  0
LINE
  8
0
  6
CONTINUOUS
 62
   249
 10
368.196345
 20
254.4814
 30
0.0
 11
365.850579
 21
253.291481
 31
0.0
  0
LINE
  8
0
  6
CONTINUOUS
 62
   249
 10
360.600275
 20
250.206143
 30
0.0
 11
360.600275
 21
248.418012
 31
0.0
  0
LINE
  8
0
  6
CONTINUOUS
 62
   249
 10
360.631307
 20
249.360865
 30
0.0
 11
368.419512
 21
249.360865
 31
0.0
  0
LINE
  8
0
  6
CONTINUOUS
 62
   249
 10
365.460859
 20
251.559027
 30
0.0
 11
366.361536
 21
250.435278
 31
0.0
  0
ARC
  8
0
  6
HIDDEN
 62
   249
 10
367.326175
 20
253.289409
 30
0.0
 40
4.998196
 50
206.402922
 51
282.21115
  0
LINE
  8
0
  6
CONTINUOUS
 62
   249
 10
363.015452
 20
248.193262
 30
0.0
 11
365.891562
 21
251.021821
 31
0.0
  0
LINE
  8
0
  6
CONTINUOUS
 62
   249
 10
368.414971
 20
250.206143
 30
0.0
 11
368.414971
 21
248.418012
 31
0.0
  0
TEXT
  8
0
  6
DASHED
 62
   249
 10
361.443359
 20
243.282752
 30
0.0
 40
2.5
  1
3I
  0
LINE
  8
0
  6
CONTINUOUS
 62
   249
 10
368.438869
 20
244.50956
 30
0.0
 11
366.093104
 21
243.319641
 31
0.0
  0
LINE
  8
0
  6
CONTINUOUS
 62
   249
 10
366.093104
 20
245.844914
 30
0.0
 11
368.438869
 21
244.50956
 31
0.0
  0
LINE
  8
0
  6
CONTINUOUS
 62
   249
 10
367.786378
 20
245.844914
 30
0.0
 11
370.132143
 21
244.50956
 31
0.0
  0
LINE
  8
0
  6
CONTINUOUS
 62
   249
 10
370.132143
 20
244.50956
 30
0.0
 11
367.786378
 21
243.319641
 31
0.0
  0
LINE
  8
0
  6
CONTINUOUS
 62
   249
 10
368.414971
 20
240.552173
 30
0.0
 11
368.414971
 21
238.764041
 31
0.0
  0
LINE
  8
0
  6
CONTINUOUS
 62
   249
 10
365.460859
 20
241.905057
 30
0.0
 11
366.361536
 21
240.781308
 31
0.0
  0
LINE
  8
0
  6
CONTINUOUS
 62
   249
 10
363.015452
 20
238.539291
 30
0.0
 11
365.891562
 21
241.36785
 31
0.0
  0
LINE
  8
0
  6
CONTINUOUS
 62
   249
 10
360.631307
 20
239.706894
 30
0.0
 11
368.419512
 21
239.706894
 31
0.0
  0
LINE
  8
0
  6
CONTINUOUS
 62
   249
 10
360.600275
 20
240.552173
 30
0.0
 11
360.600275
 21
238.764041
 31
0.0
  0
LINE
  8
0
  6
HIDDEN
 62
   249
 10
355.0
 20
237.5
 30
0.0
 11
375.0
 21
237.5
 31
0.0
  0
LINE
  8
0
  6
CONTINUOUS
 62
   249
 10
355.0
 20
257.5
 30
0.0
 11
375.0
 21
257.5
 31
0.0
  0
LINE
  8
0
  6
CONTINUOUS
 62
   249
 10
375.0
 20
257.5
 30
0.0
 11
375.0
 21
175.0
 31
0.0
  0
LINE
  8
0
  6
CONTINUOUS
 62
   249
 10
355.0
 20
175.0
 30
0.0
 11
355.0
 21
257.5
 31
0.0
  0
LINE
  8
0
  6
CONTINUOUS
 62
   249
 10
355.0
 20
217.5
 30
0.0
 11
375.0
 21
217.5
 31
0.0
  0
LINE
  8
0
  6
CONTINUOUS
 62
   249
 10
360.600275
 20
220.823413
 30
0.0
 11
360.600275
 21
219.035282
 31
0.0
  0
LINE
  8
0
  6
CONTINUOUS
 62
   249
 10
360.631307
 20
219.978135
 30
0.0
 11
368.419512
 21
219.978135
 31
0.0
  0
LINE
  8
0
  6
CONTINUOUS
 62
   249
 10
363.015452
 20
218.810532
 30
0.0
 11
365.891562
 21
221.639091
 31
0.0
  0
LINE
  8
0
  6
CONTINUOUS
 62
   249
 10
365.460859
 20
222.176297
 30
0.0
 11
366.361536
 21
221.052548
 31
0.0
  0
LINE
  8
0
  6
CONTINUOUS
 62
   249
 10
368.414971
 20
220.823413
 30
0.0
 11
368.414971
 21
219.035282
 31
0.0
  0
LINE
  8
0
  6
CONTINUOUS
 62
   249
 10
368.414971
 20
209.58206
 30
0.0
 11
368.414971
 21
207.793929
 31
0.0
  0
LINE
  8
0
  6
CONTINUOUS
 62
   249
 10
363.015452
 20
207.569179
 30
0.0
 11
365.891562
 21
210.397738
 31
0.0
  0
LINE
  8
0
  6
CONTINUOUS
 62
   249
 10
365.460859
 20
210.934944
 30
0.0
 11
366.361536
 21
209.811195
 31
0.0
  0
LINE
  8
0
  6
CONTINUOUS
 62
   249
 10
360.631307
 20
208.736782
 30
0.0
 11
368.419512
 21
208.736782
 31
0.0
  0
LINE
  8
0
  6
CONTINUOUS
 62
   249
 10
360.600275
 20
209.58206
 30
0.0
 11
360.600275
 21
207.793929
 31
0.0
  0
LINE
  8
0
  6
CONTINUOUS
 62
   249
 10
361.109312
 20
203.75802
 30
0.0
 11
368.652899
 21
203.75802
 31
0.0
  0
TEXT
  8
0
  6
DASHED
 62
   249
 10
361.063796
 20
232.921465
 30
0.0
 40
2.5
  1
I
  0
LINE
  8
0
  6
CONTINUOUS
 62
   249
 10
369.324782
 20
234.009554
 30
0.0
 11
366.979016
 21
232.819635
 31
0.0
  0
LINE
  8
0
  6
CONTINUOUS
 62
   249
 10
366.979016
 20
235.344908
 30
0.0
 11
369.324782
 21
234.009554
 31
0.0
  0
TEXT
  8
0
  6
DASHED
 62
   249
 10
361.094202
 20
223.539677
 30
0.0
 40
2.5
  1
I
  0
LINE
  8
0
  6
CONTINUOUS
 62
   249
 10
369.127047
 20
224.613368
 30
0.0
 11
366.781282
 21
223.423448
 31
0.0
  0
LINE
  8
0
  6
CONTINUOUS
 62
   249
 10
366.781282
 20
225.948721
 30
0.0
 11
369.127047
 21
224.613368
 31
0.0
  0
LINE
  8
0
  6
CONTINUOUS
 62
   249
 10
368.474556
 20
225.948721
 30
0.0
 11
370.820321
 21
224.613368
 31
0.0
  0
LINE
  8
0
  6
CONTINUOUS
 62
   249
 10
370.820321
 20
224.613368
 30
0.0
 11
368.474556
 21
223.423448
 31
0.0
  0
LINE
  8
0
  6
CONTINUOUS
 62
   249
 10
360.548135
 20
189.718453
 30
0.0
 11
368.091721
 21
189.718453
 31
0.0
  0
TEXT
  8
0
  6
CONTINUOUS
 62
   249
 10
65.0
 20
214.618189
 30
0.0
 40
2.0
  1
BS1
  7
ROMANS
  0
TEXT
  8
0
  6
CONTINUOUS
 62
   249
 10
65.0
 20
207.118189
 30
0.0
 40
2.0
  1
BS2
  7
ROMANS
  0
TEXT
  8
0
  6
CONTINUOUS
 62
   249
 10
358.617361
 20
154.415083
 30
0.0
 40
2.0
  1
n
  7
GREEKS
  0
TEXT
  8
0
  6
CONTINUOUS
 62
   249
 10
360.857858
 20
154.389051
 30
0.0
 40
2.0
  1
x
  7
GREEKS
  0
LINE
  8
0
  6
CONTINUOUS
 62
   249
 10
115.818812
 20
138.914794
 30
0.0
 11
115.818812
 21
151.055194
 31
0.0
  0
LINE
  8
0
  6
CONTINUOUS
 62
   249
 10
217.5
 20
57.5
 30
0.0
 11
217.5
 21
50.0
 31
0.0
  0
LINE
  8
0
  6
HIDDEN
 62
   249
 10
180.0
 20
57.5
 30
0.0
 11
180.0
 21
50.0
 31
0.0
  0
LINE
  8
0
  6
HIDDEN
 62
   249
 10
210.450615
 20
57.5
 30
0.0
 11
210.450615
 21
50.0
 31
0.0
  0
TEXT
  8
0
  6
CONTINUOUS
 62
   249
 10
348.457856
 20
145.506852
 30
0.0
 40
2.0
  1
FEEDER PROTECTION
  7
ROMANS
  0
TEXT
  8
0
  6
CONTINUOUS
 62
   249
 10
348.457856
 20
142.173518
 30
0.0
 40
2.0
  1
AND CONTROL UNIT
  7
ROMANS
  0
TEXT
  8
0
  6
CONTINUOUS
 62
   249
 10
348.457856
 20
136.340185
 30
0.0
 40
2.0
  1
SKYDDS- OCH KONTROLL-
  7
ROMANS
  0
TEXT
  8
0
  6
CONTINUOUS
 62
   249
 10
348.457856
 20
133.006852
 30
0.0
 40
2.0
  1
ENHET
  7
ROMANS
  0
CIRCLE
  8
0
  6
CONTINUOUS
 62
   249
 10
87.5
 20
107.5
 30
0.0
 40
0.740939
  0
CIRCLE
  8
0
  6
CONTINUOUS
 62
   249
 10
75.0
 20
122.5
 30
0.0
 40
0.740939
  0
CIRCLE
  8
0
  6
CONTINUOUS
 62
   249
 10
62.5
 20
132.5
 30
0.0
 40
0.740939
  0
CIRCLE
  8
0
  6
CONTINUOUS
 62
   249
 10
100.0
 20
92.5
 30
0.0
 40
0.740939
  0
CIRCLE
  8
0
  6
CONTINUOUS
 62
   249
 10
110.0
 20
77.5
 30
0.0
 40
0.740939
  0
TEXT
  8
0
  6
CONTINUOUS
 62
   249
 10
325.788564
 20
62.315276
 30
0.0
 40
2.5
  1
I
 11
325.788564
 21
61.481943
 31
0.0
 73
     1
  0
TEXT
  8
0
  6
CONTINUOUS
 62
   249
 10
380.0
 20
2.5
 30
0.0
 40
2.5
  1
A
  7
ROMANS
  0
TEXT
  8
0
  6
CONTINUOUS
 62
   249
 10
273.754031
 20
131.347487
 30
0.0
 40
1.5
  1
01
  7
ROMANS
  0
TEXT
  8
0
  6
CONTINUOUS
 62
   249
 10
273.754031
 20
141.370038
 30
0.0
 40
1.5
  1
01
  7
ROMANS
  0
LINE
  8
0
  6
CONTINUOUS
 62
   249
 10
240.0
 20
125.0
 30
0.0
 11
240.0
 21
115.0
 31
0.0
  0
LINE
  8
0
  6
CONTINUOUS
 62
   249
 10
240.0
 20
120.0
 30
0.0
 11
232.5
 21
120.0
 31
0.0
  0
LINE
  8
0
  6
CONTINUOUS
 62
   249
 10
229.66296
 20
120.0
 30
0.0
 11
232.5
 21
120.0
 31
0.0
  0
LINE
  8
0
  6
CONTINUOUS
 62
   249
 10
240.0
 20
125.0
 30
0.0
 11
241.0
 21
126.0
 31
0.0
  0
LINE
  8
0
  6
CONTINUOUS
 62
   249
 10
240.0
 20
115.0
 30
0.0
 11
241.0
 21
114.0
 31
0.0
  0
TEXT
  8
0
  6
CONTINUOUS
 62
   249
 10
273.754031
 20
161.109924
 30
0.0
 40
1.5
  1
02
  7
ROMANS
  0
TEXT
  8
0
  6
CONTINUOUS
 62
   249
 10
272.145116
 20
161.104868
 30
0.0
 40
2.5
  1
I
 11
272.145116
 21
160.271535
 31
0.0
 73
     1
  0
TEXT
  8
0
  6
CONTINUOUS
 62
   249
 10
272.145116
 20
151.104868
 30
0.0
 40
2.5
  1
I
 11
272.145116
 21
150.271535
 31
0.0
 73
     1
  0
TEXT
  8
0
  6
CONTINUOUS
 62
   249
 10
273.754031
 20
151.087373
 30
0.0
 40
1.5
  1
02
  7
ROMANS
  0
LINE
  8
0
  6
CONTINUOUS
 62
   249
 10
225.351542
 20
197.033998
 30
0.0
 11
225.351542
 21
160.0
 31
0.0
  0
LINE
  8
0
  6
CONTINUOUS
 62
   249
 10
210.450615
 20
174.895025
 30
0.0
 11
229.66296
 21
174.895025
 31
0.0
  0
LINE
  8
0
  6
CONTINUOUS
 62
   249
 10
229.66296
 20
174.895025
 30
0.0
 11
229.66296
 21
120.0
 31
0.0
  0
LINE
  8
0
  6
HIDDEN
 62
   249
 10
180.0
 20
155.0
 30
0.0
 11
200.0
 21
155.0
 31
0.0
  0
LINE
  8
0
  6
HIDDEN
 62
   249
 10
180.0
 20
145.0
 30
0.0
 11
200.0
 21
145.0
 31
0.0
  0
LINE
  8
0
  6
HIDDEN
 62
   249
 10
180.0
 20
140.0
 30
0.0
 11
200.0
 21
140.0
 31
0.0
  0
LINE
  8
0
  6
CONTINUOUS
 62
   249
 10
180.0
 20
130.0
 30
0.0
 11
210.450615
 21
130.0
 31
0.0
  0
TEXT
  8
0
  6
CONTINUOUS
 62
   249
 10
205.0
 20
155.352153
 30
0.0
 40
2.5
  1
U3
  7
ROMANS
  0
LINE
  8
0
  6
CONTINUOUS
 62
   249
 10
187.571688
 20
148.414309
 30
0.0
 11
189.917454
 21
147.078955
 31
0.0
  0
LINE
  8
0
  6
CONTINUOUS
 62
   249
 10
189.917454
 20
147.078955
 30
0.0
 11
187.571688
 21
145.889036
 31
0.0
  0
LINE
  8
0
  6
CONTINUOUS
 62
   249
 10
191.431134
 20
147.954289
 30
0.0
 11
191.431134
 21
146.166157
 31
0.0
  0
LINE
  8
0
  6
CONTINUOUS
 62
   249
 10
191.462165
 20
147.10901
 30
0.0
 11
199.25037
 21
147.10901
 31
0.0
  0
LINE
  8
0
  6
CONTINUOUS
 62
   249
 10
196.291717
 20
149.307173
 30
0.0
 11
197.192394
 21
148.183424
 31
0.0
  0
LINE
  8
0
  6
CONTINUOUS
 62
   249
 10
193.84631
 20
145.941408
 30
0.0
 11
196.72242
 21
148.769966
 31
0.0
  0
LINE
  8
0
  6
CONTINUOUS
 62
   249
 10
199.245829
 20
147.954289
 30
0.0
 11
199.245829
 21
146.166157
 31
0.0
  0
LINE
  8
0
  6
CONTINUOUS
 62
   249
 10
189.900936
 20
150.425187
 30
0.0
 11
192.400936
 21
150.425187
 31
0.0
  0
LINE
  8
0
  6
CONTINUOUS
 62
   249
 10
189.900936
 20
150.425187
 30
0.0
 11
187.676489
 21
149.864544
 31
0.0
  0
LINE
  8
0
  6
CONTINUOUS
 62
   249
 10
184.900936
 20
150.425187
 30
0.0
 11
187.400936
 21
150.425187
 31
0.0
  0
TEXT
  8
0
  6
HIDDEN
 62
   249
 10
181.080478
 20
149.691939
 30
0.0
 40
1.5
  1
EN
  0
TEXT
  8
0
  6
HIDDEN
 62
   249
 10
181.080478
 20
152.632979
 30
0.0
 40
1.5
  1
EN
  0
LINE
  8
0
  6
CONTINUOUS
 62
   249
 10
184.900936
 20
153.366226
 30
0.0
 11
187.400936
 21
153.366226
 31
0.0
  0
LINE
  8
0
  6
CONTINUOUS
 62
   249
 10
189.900936
 20
153.366226
 30
0.0
 11
187.676489
 21
152.805584
 31
0.0
  0
LINE
  8
0
  6
CONTINUOUS
 62
   249
 10
189.900936
 20
153.366226
 30
0.0
 11
192.400936
 21
153.366226
 31
0.0
  0
LINE
  8
0
  6
CONTINUOUS
 62
   249
 10
189.900936
 20
138.024347
 30
0.0
 11
192.400936
 21
138.024347
 31
0.0
  0
LINE
  8
0
  6
CONTINUOUS
 62
   249
 10
189.900936
 20
138.024347
 30
0.0
 11
187.676489
 21
137.463705
 31
0.0
  0
LINE
  8
0
  6
CONTINUOUS
 62
   249
 10
184.900936
 20
138.024347
 30
0.0
 11
187.400936
 21
138.024347
 31
0.0
  0
TEXT
  8
0
  6
HIDDEN
 62
   249
 10
181.080478
 20
137.291099
 30
0.0
 40
1.5
  1
EN
  0
TEXT
  8
0
  6
HIDDEN
 62
   249
 10
181.080478
 20
134.350059
 30
0.0
 40
1.5
  1
EN
  0
LINE
  8
0
  6
CONTINUOUS
 62
   249
 10
184.900936
 20
135.083307
 30
0.0
 11
187.400936
 21
135.083307
 31
0.0
  0
LINE
  8
0
  6
CONTINUOUS
 62
   249
 10
189.900936
 20
135.083307
 30
0.0
 11
187.676489
 21
134.522665
 31
0.0
  0
LINE
  8
0
  6
CONTINUOUS
 62
   249
 10
189.900936
 20
135.083307
 30
0.0
 11
192.400936
 21
135.083307
 31
0.0
  0
LINE
  8
0
  6
CONTINUOUS
 62
   249
 10
199.245829
 20
132.612409
 30
0.0
 11
199.245829
 21
130.824278
 31
0.0
  0
LINE
  8
0
  6
CONTINUOUS
 62
   249
 10
193.84631
 20
130.599528
 30
0.0
 11
196.72242
 21
133.428087
 31
0.0
  0
LINE
  8
0
  6
CONTINUOUS
 62
   249
 10
196.291717
 20
133.965294
 30
0.0
 11
197.192394
 21
132.841545
 31
0.0
  0
LINE
  8
0
  6
CONTINUOUS
 62
   249
 10
191.462165
 20
131.767131
 30
0.0
 11
199.25037
 21
131.767131
 31
0.0
  0
LINE
  8
0
  6
CONTINUOUS
 62
   249
 10
191.431134
 20
132.612409
 30
0.0
 11
191.431134
 21
130.824278
 31
0.0
  0
LINE
  8
0
  6
CONTINUOUS
 62
   249
 10
189.917454
 20
131.737076
 30
0.0
 11
187.571688
 21
130.547157
 31
0.0
  0
LINE
  8
0
  6
CONTINUOUS
 62
   249
 10
187.571688
 20
133.07243
 30
0.0
 11
189.917454
 21
131.737076
 31
0.0
  0
LINE
  8
0
  6
CONTINUOUS
 62
   249
 10
188.174969
 20
131.737076
 30
0.0
 11
185.829204
 21
130.547157
 31
0.0
  0
LINE
  8
0
  6
CONTINUOUS
 62
   249
 10
185.829204
 20
133.07243
 30
0.0
 11
188.174969
 21
131.737076
 31
0.0
  0
LINE
  8
0
  6
CONTINUOUS
 62
   249
 10
189.736473
 20
157.474173
 30
0.0
 11
187.390707
 21
156.284254
 31
0.0
  0
LINE
  8
0
  6
CONTINUOUS
 62
   249
 10
187.390707
 20
158.809527
 30
0.0
 11
189.736473
 21
157.474173
 31
0.0
  0
LINE
  8
0
  6
CONTINUOUS
 62
   249
 10
191.127562
 20
142.349694
 30
0.0
 11
188.781796
 21
141.159774
 31
0.0
  0
LINE
  8
0
  6
CONTINUOUS
 62
   249
 10
188.781796
 20
143.685047
 30
0.0
 11
191.127562
 21
142.349694
 31
0.0
  0
LINE
  8
0
  6
CONTINUOUS
 62
   249
 10
189.385078
 20
142.349694
 30
0.0
 11
187.039312
 21
141.159774
 31
0.0
  0
LINE
  8
0
  6
CONTINUOUS
 62
   249
 10
187.039312
 20
143.685047
 30
0.0
 11
189.385078
 21
142.349694
 31
0.0
  0
TEXT
  8
0
  6
CONTINUOUS
 62
   249
 10
182.005063
 20
156.391427
 30
0.0
 40
2.5
  1
Uo
 11
182.005063
 21
155.558094
 31
0.0
 73
     1
  0
TEXT
  8
0
  6
CONTINUOUS
 62
   249
 10
182.005063
 20
141.162355
 30
0.0
 40
2.5
  1
Uo
 11
182.005063
 21
140.329022
 31
0.0
 73
     1
  0
TEXT
  8
0
  6
CONTINUOUS
 62
   249
 10
182.005063
 20
146.013097
 30
0.0
 40
2.5
  1
Uo
 11
182.005063
 21
145.179763
 31
0.0
 73
     1
  0
TEXT
  8
0
  6
CONTINUOUS
 62
   249
 10
201.378775
 20
146.013097
 30
0.0
 40
2.5
  1
Uo
 11
201.378775
 21
145.179763
 31
0.0
 73
     1
  0
LINE
  8
0
  6
CONTINUOUS
 62
   249
 10
208.344646
 20
147.078955
 30
0.0
 11
205.99888
 21
145.889036
 31
0.0
  0
LINE
  8
0
  6
CONTINUOUS
 62
   249
 10
205.99888
 20
148.414309
 30
0.0
 11
208.344646
 21
147.078955
 31
0.0
  0
TEXT
  8
0
  6
CONTINUOUS
 62
   249
 10
181.046561
 20
130.69725
 30
0.0
 40
2.5
  1
Uo
 11
181.046561
 21
129.863917
 31
0.0
 73
     1
  0
LINE
  8
0
  6
CONTINUOUS
 62
   249
 10
164.725254
 20
115.691617
 30
0.0
 11
152.225254
 21
115.691617
 31
0.0
  0
LINE
  8
0
  6
CONTINUOUS
 62
   249
 10
152.225254
 20
115.691617
 30
0.0
 11
152.225254
 21
120.691617
 31
0.0
  0
LINE
  8
0
  6
CONTINUOUS
 62
   249
 10
152.225254
 20
120.691617
 30
0.0
 11
164.725254
 21
120.691617
 31
0.0
  0
LINE
  8
0
  6
CONTINUOUS
 62
   249
 10
164.725254
 20
120.691617
 30
0.0
 11
164.725254
 21
115.691617
 31
0.0
  0
LINE
  8
0
  6
CONTINUOUS
 62
   249
 10
158.289012
 20
118.480813
 30
0.0
 11
155.943247
 21
117.290893
 31
0.0
  0
LINE
  8
0
  6
CONTINUOUS
 62
   249
 10
155.935205
 20
116.49088
 30
0.0
 11
158.318665
 21
117.679071
 31
0.0
  0
LINE
  8
0
  6
CONTINUOUS
 62
   249
 10
155.943247
 20
119.816166
 30
0.0
 11
158.289012
 21
118.480813
 31
0.0
  0
TEXT
  8
0
  6
CONTINUOUS
 62
   249
 10
160.377108
 20
117.156073
 30
0.0
 40
2.5
  1
1
 11
160.377108
 21
116.322739
 31
0.0
 73
     1
  0
LINE
  8
0
  6
CONTINUOUS
 62
   249
 10
103.613983
 20
132.361159
 30
0.0
 11
103.613983
 21
137.361159
 31
0.0
  0
LINE
  8
0
  6
CONTINUOUS
 62
   249
 10
103.613983
 20
137.361159
 30
0.0
 11
111.113983
 21
137.361159
 31
0.0
  0
LINE
  8
0
  6
CONTINUOUS
 62
   249
 10
111.113983
 20
137.361159
 30
0.0
 11
111.113983
 21
132.361159
 31
0.0
  0
LINE
  8
0
  6
CONTINUOUS
 62
   249
 10
111.113983
 20
132.361159
 30
0.0
 11
103.613983
 21
132.361159
 31
0.0
  0
LINE
  8
0
  6
CONTINUOUS
 62
   249
 10
107.5
 20
132.361159
 30
0.0
 11
107.5
 21
112.5
 31
0.0
  0
TEXT
  8
0
  6
CONTINUOUS
 62
   249
 10
109.08496
 20
133.964455
 30
0.0
 40
2.5
  1
1
 11
109.08496
 21
133.131122
 31
0.0
 73
     1
  0
LINE
  8
0
  6
CONTINUOUS
 62
   249
 10
104.651098
 20
136.624549
 30
0.0
 11
106.996864
 21
135.289195
 31
0.0
  0
LINE
  8
0
  6
CONTINUOUS
 62
   249
 10
104.643056
 20
133.299262
 30
0.0
 11
107.026517
 21
134.487454
 31
0.0
  0
LINE
  8
0
  6
CONTINUOUS
 62
   249
 10
106.996864
 20
135.289195
 30
0.0
 11
104.651098
 21
134.099276
 31
0.0
  0
LINE
  8
0
  6
CONTINUOUS
 62
   249
 10
118.318812
 20
57.5
 30
0.0
 11
118.318812
 21
50.0
 31
0.0
  0
LINE
  8
0
  6
CONTINUOUS
 62
   249
 10
178.01273
 20
134.86491
 30
0.0
 11
170.0
 21
134.86491
 31
0.0
  0
CIRCLE
  8
0
  6
CONTINUOUS
 62
   249
 10
179.012659
 20
134.858607
 30
0.0
 40
1.0
  0
LINE
  8
0
  6
CONTINUOUS
 62
   249
 10
178.01273
 20
137.902047
 30
0.0
 11
170.0
 21
137.902047
 31
0.0
  0
CIRCLE
  8
0
  6
CONTINUOUS
 62
   249
 10
179.012659
 20
137.895744
 30
0.0
 40
1.0
  0
LINE
  8
0
  6
CONTINUOUS
 62
   249
 10
180.0
 20
131.607813
 30
0.0
 11
170.0
 21
131.607813
 31
0.0
  0
LINE
  8
0
  6
CONTINUOUS
 62
   249
 10
170.0
 20
131.607813
 30
0.0
 11
162.5
 21
131.607813
 31
0.0
  0
LINE
  8
0
  6
CONTINUOUS
 62
   249
 10
180.0
 20
157.5
 30
0.0
 11
110.0
 21
157.5
 31
0.0
  0
LINE
  8
0
  6
CONTINUOUS
 62
   249
 10
110.0
 20
157.5
 30
0.0
 11
110.0
 21
150.0
 31
0.0
  0
LINE
  8
0
  6
CONTINUOUS
 62
   249
 10
110.0
 20
137.5
 30
0.0
 11
110.0
 21
142.5
 31
0.0
  0
LINE
  8
0
  6
CONTINUOUS
 62
   249
 10
110.0
 20
142.5
 30
0.0
 11
108.285914
 21
147.586297
 31
0.0
  0
TEXT
  8
0
  6
CONTINUOUS
 62
   249
 10
110.332204
 20
142.5
 30
0.0
 40
2.0
  1
4
  7
ROMANS
  0
LINE
  8
0
  6
CONTINUOUS
 62
   249
 10
110.0
 20
150.0
 30
0.0
 11
110.0
 21
147.5
 31
0.0
  0
TEXT
  8
0
  6
CONTINUOUS
 62
   249
 10
106.2231
 20
138.54171
 30
0.0
 40
2.0
  1
SGR
 50
90.0
  7
ROMANS
  0
LINE
  8
0
  6
CONTINUOUS
 62
   249
 10
62.5
 20
152.5
 30
0.0
 11
60.785914
 21
157.586297
 31
0.0
  0
LINE
  8
0
  6
CONTINUOUS
 62
   249
 10
62.5
 20
147.5
 30
0.0
 11
62.5
 21
152.5
 31
0.0
  0
LINE
  8
0
  6
CONTINUOUS
 62
   249
 10
62.5
 20
157.5
 30
0.0
 11
62.5
 21
170.0
 31
0.0
  0
TEXT
  8
0
  6
CONTINUOUS
 62
   249
 10
62.139384
 20
155.0
 30
0.0
 40
2.0
  1
6
  7
ROMANS
  0
LINE
  8
0
  6
CONTINUOUS
 62
   249
 10
100.0
 20
152.5
 30
0.0
 11
98.285914
 21
157.586297
 31
0.0
  0
LINE
  8
0
  6
CONTINUOUS
 62
   249
 10
100.0
 20
147.5
 30
0.0
 11
100.0
 21
152.5
 31
0.0
  0
TEXT
  8
0
  6
CONTINUOUS
 62
   249
 10
100.131238
 20
155.0
 30
0.0
 40
2.0
  1
5
  7
ROMANS
  0
LINE
  8
0
  6
CONTINUOUS
 62
   249
 10
62.5
 20
170.0
 30
0.0
 11
62.5
 21
173.728561
 31
0.0
  0
LINE
  8
0
  6
CONTINUOUS
 62
   249
 10
162.5
 20
131.607813
 30
0.0
 11
162.5
 21
120.691617
 31
0.0
  0
LINE
  8
0
  6
CONTINUOUS
 62
   249
 10
160.0
 20
159.723022
 30
0.0
 11
160.0
 21
120.691617
 31
0.0
  0
LINE
  8
0
  6
CONTINUOUS
 62
   249
 10
157.5
 20
157.5
 30
0.0
 11
157.5
 21
120.691617
 31
0.0
  0
LINE
  8
0
  6
CONTINUOUS
 62
   249
 10
157.5
 20
157.5
 30
0.0
 11
157.5
 21
167.992711
 31
0.0
  0
LINE
  8
0
  6
CONTINUOUS
 62
   249
 10
157.5
 20
167.992711
 30
0.0
 11
102.158292
 21
167.992711
 31
0.0
  0
LINE
  8
0
  6
CONTINUOUS
 62
   249
 10
102.158292
 20
167.992711
 30
0.0
 11
102.158292
 21
173.728561
 31
0.0
  0
LINE
  8
0
  6
CONTINUOUS
 62
   249
 10
102.158292
 20
173.728561
 30
0.0
 11
90.680236
 21
173.728561
 31
0.0
  0
LINE
  8
0
  6
CONTINUOUS
 62
   249
 10
90.680236
 20
173.728561
 30
0.0
 11
62.5
 21
173.728561
 31
0.0
  0
LINE
  8
0
  6
CONTINUOUS
 62
   249
 10
160.0
 20
157.5
 30
0.0
 11
160.0
 21
159.723022
 31
0.0
  0
LINE
  8
0
  6
CONTINUOUS
 62
   249
 10
160.0
 20
159.723022
 30
0.0
 11
100.0
 21
159.723022
 31
0.0
  0
LINE
  8
0
  6
CONTINUOUS
 62
   249
 10
100.0
 20
159.723022
 30
0.0
 11
100.0
 21
157.5
 31
0.0
  0
LINE
  8
0
  6
CONTINUOUS
 62
   249
 10
170.0
 20
134.86491
 30
0.0
 11
170.0
 21
165.0
 31
0.0
  0
LINE
  8
0
  6
CONTINUOUS
 62
   249
 10
155.0
 20
157.5
 30
0.0
 11
155.0
 21
120.691617
 31
0.0
  0
LINE
  8
0
  6
CONTINUOUS
 62
   249
 10
170.0
 20
137.902047
 30
0.0
 11
167.5
 21
137.902047
 31
0.0
  0
LINE
  8
0
  6
CONTINUOUS
 62
   249
 10
167.5
 20
137.902047
 30
0.0
 11
167.5
 21
168.000813
 31
0.0
  0
LINE
  8
0
  6
CONTINUOUS
 62
   249
 10
178.01273
 20
153.252604
 30
0.0
 11
170.0
 21
153.252604
 31
0.0
  0
CIRCLE
  8
0
  6
CONTINUOUS
 62
   249
 10
179.012659
 20
153.246301
 30
0.0
 40
1.0
  0
LINE
  8
0
  6
CONTINUOUS
 62
   249
 10
170.0
 20
153.252604
 30
0.0
 11
167.5
 21
153.252604
 31
0.0
  0
LINE
  8
0
  6
CONTINUOUS
 62
   249
 10
178.01273
 20
150.527858
 30
0.0
 11
170.0
 21
150.527858
 31
0.0
  0
CIRCLE
  8
0
  6
CONTINUOUS
 62
   249
 10
179.012659
 20
150.521555
 30
0.0
 40
1.0
  0
LINE
  8
0
  6
CONTINUOUS
 62
   249
 10
180.0
 20
142.397009
 30
0.0
 11
160.0
 21
142.397009
 31
0.0
  0
TEXT
  8
0
  6
DASHED
 62
   249
 10
163.617076
 20
59.039786
 30
0.0
 40
2.0
  1
CH 17
 50
90.0
  7
ROMANS
  0
TEXT
  8
0
  6
DASHED
 62
   249
 10
148.017464
 20
59.039786
 30
0.0
 40
2.0
  1
CH 16
 50
90.0
  7
ROMANS
  0
TEXT
  8
0
  6
DASHED
 62
   249
 10
133.77963
 20
59.039786
 30
0.0
 40
2.0
  1
CH 15
 50
90.0
  7
ROMANS
  0
TEXT
  8
0
  6
DASHED
 62
   249
 10
120.915832
 20
59.039786
 30
0.0
 40
2.0
  1
AR INH
 50
90.0
  7
ROMANS
  0
LINE
  8
0
  6
CONTINUOUS
 62
   249
 10
135.0
 20
137.5
 30
0.0
 11
135.0
 21
190.609386
 31
0.0
  0
LINE
  8
0
  6
CONTINUOUS
 62
   249
 10
180.0
 20
190.609386
 30
0.0
 11
135.0
 21
190.609386
 31
0.0
  0
TEXT
  8
0
  6
CONTINUOUS
 62
   249
 10
174.842601
 20
188.592855
 30
0.0
 40
1.5
  1
SS3
  7
ROMANS
  0
LINE
  8
0
  6
CONTINUOUS
 62
   249
 10
355.0
 20
151.298616
 30
0.0
 11
355.0
 21
215.0
 31
0.0
  0
LINE
  8
0
  6
CONTINUOUS
 62
   249
 10
375.0
 20
215.0
 30
0.0
 11
375.0
 21
151.298616
 31
0.0
  0
LINE
  8
0
  6
CONTINUOUS
 62
   249
 10
355.0
 20
163.798616
 30
0.0
 11
375.0
 21
163.798616
 31
0.0
  0
LINE
  8
0
  6
CONTINUOUS
 62
   249
 10
355.0
 20
151.298616
 30
0.0
 11
375.0
 21
151.298616
 31
0.0
  0
LINE
  8
0
  6
CONTINUOUS
 62
   249
 10
360.600275
 20
179.302476
 30
0.0
 11
360.600275
 21
177.514345
 31
0.0
  0
LINE
  8
0
  6
CONTINUOUS
 62
   249
 10
360.631307
 20
178.457198
 30
0.0
 11
368.419512
 21
178.457198
 31
0.0
  0
LINE
  8
0
  6
CONTINUOUS
 62
   249
 10
365.460859
 20
180.65536
 30
0.0
 11
366.361536
 21
179.531611
 31
0.0
  0
LINE
  8
0
  6
CONTINUOUS
 62
   249
 10
363.015452
 20
177.289595
 30
0.0
 11
365.891562
 21
180.118154
 31
0.0
  0
LINE
  8
0
  6
CONTINUOUS
 62
   249
 10
368.414971
 20
179.302476
 30
0.0
 11
368.414971
 21
177.514345
 31
0.0
  0
LINE
  8
0
  6
CONTINUOUS
 62
   249
 10
369.324782
 20
183.648567
 30
0.0
 11
366.979016
 21
182.458648
 31
0.0
  0
LINE
  8
0
  6
CONTINUOUS
 62
   249
 10
366.979016
 20
184.983921
 30
0.0
 11
369.324782
 21
183.648567
 31
0.0
  0
LINE
  8
0
  6
CONTINUOUS
 62
   249
 10
368.414971
 20
168.577494
 30
0.0
 11
368.414971
 21
166.789362
 31
0.0
  0
LINE
  8
0
  6
CONTINUOUS
 62
   249
 10
363.015452
 20
166.564613
 30
0.0
 11
365.891562
 21
169.393171
 31
0.0
  0
LINE
  8
0
  6
CONTINUOUS
 62
   249
 10
365.460859
 20
169.930378
 30
0.0
 11
366.361536
 21
168.806629
 31
0.0
  0
LINE
  8
0
  6
CONTINUOUS
 62
   249
 10
360.631307
 20
167.732215
 30
0.0
 11
368.419512
 21
167.732215
 31
0.0
  0
LINE
  8
0
  6
CONTINUOUS
 62
   249
 10
360.600275
 20
168.577494
 30
0.0
 11
360.600275
 21
166.789362
 31
0.0
  0
TEXT
  8
0
  6
HIDDEN
 62
   249
 10
360.767287
 20
183.046318
 30
0.0
 40
2.5
  1
Uo
  7
ROMANS
  0
TEXT
  8
0
  6
HIDDEN
 62
   249
 10
360.687501
 20
172.009294
 30
0.0
 40
2.5
  1
Uo
  7
ROMANS
  0
LINE
  8
0
  6
CONTINUOUS
 62
   249
 10
368.671759
 20
172.987429
 30
0.0
 11
366.325994
 21
171.79751
 31
0.0
  0
LINE
  8
0
  6
CONTINUOUS
 62
   249
 10
366.325994
 20
174.322783
 30
0.0
 11
368.671759
 21
172.987429
 31
0.0
  0
LINE
  8
0
  6
CONTINUOUS
 62
   249
 10
367.917333
 20
174.322783
 30
0.0
 11
370.263099
 21
172.987429
 31
0.0
  0
LINE
  8
0
  6
CONTINUOUS
 62
   249
 10
370.263099
 20
172.987429
 30
0.0
 11
367.917333
 21
171.79751
 31
0.0
  0
TEXT
  8
0
  6
CONTINUOUS
 62
   249
 10
325.788564
 20
57.805708
 30
0.0
 40
2.5
  1
I
 11
325.788564
 21
56.972374
 31
0.0
 73
     1
  0
TEXT
  8
0
  6
DASHED
 62
   249
 10
353.649698
 20
58.030666
 30
0.0
 40
2.0
  1
37-39
  7
ROMANS
  0
TEXT
  8
0
  6
DASHED
 62
   249
 10
369.094018
 20
58.030666
 30
0.0
 40
2.0
  1
37-38
  7
ROMANS
  0
TEXT
  8
0
  6
CONTINUOUS
 62
   249
 10
327.568243
 20
62.115826
 30
0.0
 40
1.5
  1
01
  7
ROMANS
  0
TEXT
  8
0
  6
CONTINUOUS
 62
   249
 10
327.568243
 20
57.973778
 30
0.0
 40
1.5
  1
02
  7
ROMANS
  0
LINE
  8
0
 62
   249
 10
367.339004
 20
84.930298
 30
0.0
 11
367.339004
 21
38.778087
 31
0.0
  0
LINE
  8
0
 62
   249
 10
337.029564
 20
84.930298
 30
0.0
 11
337.029564
 21
38.778087
 31
0.0
  0
TEXT
  8
0
  6
CONTINUOUS
 62
   249
 10
338.470638
 20
81.078617
 30
0.0
 40
2.0
  1
In=0,2A
  7
ROMANS
  0
LINE
  8
0
 62
   249
 10
382.088281
 20
55.422532
 30
0.0
 11
382.088281
 21
90.930298
 31
0.0
  0
LINE
  8
0
  6
CONTINUOUS
 62
   249
 10
180.0
 20
160.0
 30
0.0
 11
180.0
 21
130.0
 31
0.0
  0
LINE
  8
0
  6
CONTINUOUS
 62
   249
 10
210.450615
 20
160.0
 30
0.0
 11
210.450615
 21
130.0
 31
0.0
  0
LINE
  8
0
  6
CONTINUOUS
 62
   249
 10
180.0
 20
147.282461
 30
0.0
 11
157.5
 21
147.282461
 31
0.0
  0
CIRCLE
  8
0
  6
CONTINUOUS
 62
   249
 10
290.0
 20
140.143063
 30
0.0
 40
2.5
  0
LINE
  8
0
  6
DASHED
 62
   249
 10
297.5
 20
120.153734
 30
0.0
 11
280.0
 21
120.153734
 31
0.0
  0
LINE
  8
0
  6
CONTINUOUS
 62
   249
 10
280.0
 20
125.163091
 30
0.0
 11
280.0
 21
115.163091
 31
0.0
  0
LINE
  8
0
  6
CONTINUOUS
 62
   249
 10
280.0
 20
125.163091
 30
0.0
 11
279.0
 21
126.163091
 31
0.0
  0
LINE
  8
0
  6
CONTINUOUS
 62
   249
 10
280.0
 20
115.163091
 30
0.0
 11
279.0
 21
114.163091
 31
0.0
  0
LINE
  8
0
  6
CONTINUOUS
 62
   249
 10
162.5
 20
164.723022
 30
0.0
 11
162.5
 21
120.691617
 31
0.0
  0
LINE
  8
0
  6
CONTINUOUS
 62
   249
 10
162.5
 20
164.723022
 30
0.0
 11
72.5
 21
164.723022
 31
0.0
  0
LINE
  8
0
  6
CONTINUOUS
 62
   249
 10
72.5
 20
147.5
 30
0.0
 11
72.5
 21
164.723022
 31
0.0
  0
LINE
  8
0
  6
CONTINUOUS
 62
   249
 10
210.450615
 20
147.395025
 30
0.0
 11
229.66296
 21
147.395025
 31
0.0
  0
TEXT
  8
0
  6
CONTINUOUS
 62
   249
 10
65.0
 20
229.569579
 30
0.0
 40
2.0
  1
BACTRL
  7
ROMANS
  0
LINE
  8
0
  6
CONTINUOUS
 62
   249
 10
160.0
 20
115.691617
 30
0.0
 11
160.0
 21
57.5
 31
0.0
  0
LINE
  8
0
  6
CONTINUOUS
 62
   249
 10
160.0
 20
57.5
 30
0.0
 11
160.0
 21
50.0
 31
0.0
  0
TEXT
  8
0
  6
DASHED
 62
   249
 10
292.558364
 20
12.155824
 30
0.0
 40
3.0
  1
A3
  7
GREEKS
  0
TEXT
  8
0
  6
DASHED
 62
   249
 10
352.159746
 20
16.034995
 30
0.0
 40
1.4
  1
LEHTI SHEET
  7
GREEKS
  0
LINE
  8
0
 62
   249
 10
0.578269
 20
263.080464
 30
0.0
 11
392.578269
 21
263.080464
 31
0.0
  0
LINE
  8
0
 62
   249
 10
18.578269
 20
0.580464
 30
0.0
 11
0.578269
 21
0.580464
 31
0.0
  0
LINE
  8
0
 62
   249
 10
209.578269
 20
0.580464
 30
0.0
 11
392.578269
 21
0.580464
 31
0.0
  0
LINE
  8
0
 62
   249
 10
209.578269
 20
0.580464
 30
0.0
 11
209.578269
 21
35.580464
 31
0.0
  0
LINE
  8
0
 62
   249
 10
392.578269
 20
0.580464
 30
0.0
 11
392.578269
 21
35.580464
 31
0.0
  0
LINE
  8
0
 62
   249
 10
209.578269
 20
18.580464
 30
0.0
 11
392.578269
 21
18.580464
 31
0.0
  0
LINE
  8
0
 62
   249
 10
209.578269
 20
10.080464
 30
0.0
 11
392.578269
 21
10.080464
 31
0.0
  0
LINE
  8
0
 62
   249
 10
209.578269
 20
27.080464
 30
0.0
 11
307.578269
 21
27.080464
 31
0.0
  0
LINE
  8
0
 62
   249
 10
209.578269
 20
35.580464
 30
0.0
 11
392.578269
 21
35.580464
 31
0.0
  0
TEXT
  8
0
 62
   249
 10
210.578269
 20
24.313797
 30
0.0
 40
1.4
  1
TARKASTI  CHECKED
  7
ROMANS
  0
TEXT
  8
0
 62
   249
 10
210.321103
 20
16.047131
 30
0.0
 40
1.4
  1
HYVÄKSYI  APPROVED
  7
ROMANS
  0
LINE
  8
0
 62
   249
 10
307.578269
 20
0.580464
 30
0.0
 11
307.578269
 21
35.580464
 31
0.0
  0
TEXT
  8
0
 62
   249
 10
259.578269
 20
33.080464
 30
0.0
 40
1.4
  1
LIITTYY  CONCERNING
  7
ROMANS
  0
TEXT
  8
0
 62
   249
 10
259.578269
 20
24.080464
 30
0.0
 40
1.4
  1
TOLERANSSIT  TOLERANCES
  7
ROMANS
  0
TEXT
  8
0
 62
   249
 10
259.578269
 20
16.080464
 30
0.0
 40
1.4
  1
SUHDE  SCALE
  7
ROMANS
  0
TEXT
  8
0
 62
   249
 10
309.578269
 20
33.080464
 30
0.0
 40
1.4
  1
NIMITYS  NAME
  7
ROMANS
  0
TEXT
  8
0
 62
   249
 10
309.578269
 20
16.080464
 30
0.0
 40
1.4
  1
KOODI  CODE
  7
ROMANS
  0
TEXT
  8
0
 62
   249
 10
309.578269
 20
7.580464
 30
0.0
 40
1.4
  1
PIIRUSTUS NO  DRAWING NR
  7
ROMANS
  0
LINE
  8
0
 62
   249
 10
350.078269
 20
10.080464
 30
0.0
 11
350.078269
 21
18.580464
 31
0.0
  0
TEXT
  8
0
 62
   249
 10
371.578269
 20
7.580464
 30
0.0
 40
1.4
  1
PAINOS  REVISION
  7
ROMANS
  0
LINE
  8
0
 62
   249
 10
370.078269
 20
10.080464
 30
0.0
 11
370.078269
 21
0.580464
 31
0.0
  0
LINE
  8
0
 62
   249
 10
210.528269
 20
2.080464
 30
0.0
 11
212.278269
 21
2.080464
 31
0.0
  0
LINE
  8
0
 62
   249
 10
215.778269
 20
2.080464
 30
0.0
 11
217.528269
 21
2.080464
 31
0.0
  0
LINE
  8
0
 62
   249
 10
212.978269
 20
9.080464
 30
0.0
 11
211.800741
 21
5.716099
 31
0.0
  0
LINE
  8
0
 62
   249
 10
212.767055
 20
3.480464
 30
0.0
 11
213.888269
 21
3.480464
 31
0.0
  0
LINE
  8
0
 62
   249
 10
212.767058
 20
3.477007
 30
0.0
 11
212.278269
 21
2.080464
 31
0.0
  0
LINE
  8
0
 62
   249
 10
215.078269
 20
9.080464
 30
0.0
 11
216.254621
 21
5.719456
 31
0.0
  0
LINE
  8
0
 62
   249
 10
215.289366
 20
3.477328
 30
0.0
 11
215.778269
 21
2.080464
 31
0.0
  0
LINE
  8
0
 62
   249
 10
215.078269
 20
9.080464
 30
0.0
 11
214.168269
 21
9.080464
 31
0.0
  0
LINE
  8
0
 62
   249
 10
213.888269
 20
9.080464
 30
0.0
 11
213.888269
 21
5.720464
 31
0.0
  0
LINE
  8
0
 62
   249
 10
214.168269
 20
9.080464
 30
0.0
 11
214.168269
 21
5.720464
 31
0.0
  0
LINE
  8
0
 62
   249
 10
214.168269
 20
3.480464
 30
0.0
 11
215.288162
 21
3.480464
 31
0.0
  0
LINE
  8
0
 62
   249
 10
213.888269
 20
9.080464
 30
0.0
 11
212.978269
 21
9.080464
 31
0.0
  0
LINE
  8
0
 62
   249
 10
211.800209
 20
5.720464
 30
0.0
 11
213.888269
 21
5.720464
 31
0.0
  0
LINE
  8
0
 62
   249
 10
211.701251
 20
5.440464
 30
0.0
 11
213.888269
 21
5.440464
 31
0.0
  0
LINE
  8
0
 62
   249
 10
216.35276
 20
5.439058
 30
0.0
 11
217.528269
 21
2.080464
 31
0.0
  0
LINE
  8
0
 62
   249
 10
214.168269
 20
5.720464
 30
0.0
 11
216.253382
 21
5.720464
 31
0.0
  0
LINE
  8
0
 62
   249
 10
214.168269
 20
5.440464
 30
0.0
 11
216.351525
 21
5.440464
 31
0.0
  0
LINE
  8
0
 62
   249
 10
214.168269
 20
5.440464
 30
0.0
 11
214.168269
 21
3.480464
 31
0.0
  0
LINE
  8
0
 62
   249
 10
213.888269
 20
5.440464
 30
0.0
 11
213.888269
 21
3.480464
 31
0.0
  0
LINE
  8
0
 62
   249
 10
211.698157
 20
5.423003
 30
0.0
 11
210.528269
 21
2.080464
 31
0.0
  0
INSERT
  8
0
 62
   249
  2
*X14
 10
210.528269
 20
2.080464
 30
0.0
 41
0.7
 42
0.7
 43
0.7
  0
INSERT
  8
0
 62
   249
  2
*X15
 10
210.528269
 20
2.080464
 30
0.0
 41
0.7
 42
0.7
 43
0.7
  0
INSERT
  8
0
 62
   249
  2
*X16
 10
210.528269
 20
2.080464
 30
0.0
 41
0.7
 42
0.7
 43
0.7
  0
INSERT
  8
0
 62
   249
  2
*X17
 10
210.528269
 20
2.080464
 30
0.0
 41
0.7
 42
0.7
 43
0.7
  0
LINE
  8
0
 62
   249
 10
218.018269
 20
2.080464
 30
0.0
 11
218.018269
 21
5.440464
 31
0.0
  0
LINE
  8
0
 62
   249
 10
218.018269
 20
9.080464
 30
0.0
 11
219.978269
 21
9.080464
 31
0.0
  0
LINE
  8
0
 62
   249
 10
219.978269
 20
9.080464
 30
0.0
 11
219.978269
 21
5.720464
 31
0.0
  0
LINE
  8
0
 62
   249
 10
219.978269
 20
5.720464
 30
0.0
 11
218.018269
 21
5.720464
 31
0.0
  0
LINE
  8
0
 62
   249
 10
218.018269
 20
5.440464
 30
0.0
 11
219.978269
 21
5.440464
 31
0.0
  0
LINE
  8
0
 62
   249
 10
219.978269
 20
5.440464
 30
0.0
 11
219.978269
 21
2.080464
 31
0.0
  0
LINE
  8
0
 62
   249
 10
219.978269
 20
2.080464
 30
0.0
 11
218.018269
 21
2.080464
 31
0.0
  0
LINE
  8
0
 62
   249
 10
218.018269
 20
5.720464
 30
0.0
 11
218.018269
 21
9.080464
 31
0.0
  0
ARC
  8
0
 62
   249
 10
220.818269
 20
7.505464
 30
0.0
 40
1.575
 50
298.455859
 51
90.052437
  0
LINE
  8
0
 62
   249
 10
220.258269
 20
9.080464
 30
0.0
 11
220.816827
 21
9.080463
 31
0.0
  0
LINE
  8
0
 62
   249
 10
220.258269
 20
9.080464
 30
0.0
 11
220.258269
 21
5.720464
 31
0.0
  0
LINE
  8
0
 62
   249
 10
220.258269
 20
5.720464
 30
0.0
 11
222.242711
 21
5.720464
 31
0.0
  0
LINE
  8
0
 62
   249
 10
222.498269
 20
5.440464
 30
0.0
 11
220.258269
 21
5.440464
 31
0.0
  0
LINE
  8
0
 62
   249
 10
220.258269
 20
5.440464
 30
0.0
 11
220.258269
 21
2.080464
 31
0.0
  0
ARC
  8
0
 62
   249
 10
220.818269
 20
4.180464
 30
0.0
 40
2.1
 50
269.937724
 51
37.056553
  0
LINE
  8
0
 62
   249
 10
220.258269
 20
2.080464
 30
0.0
 11
220.815986
 21
2.080465
 31
0.0
  0
ARC
  8
0
 62
   249
 10
220.818269
 20
4.180464
 30
0.0
 40
2.1
 50
47.28622
 51
68.787999
  0
INSERT
  8
0
 62
   249
  2
*X18
 10
210.528269
 20
2.080464
 30
0.0
 41
0.7
 42
0.7
 43
0.7
  0
INSERT
  8
0
 62
   249
  2
*X19
 10
210.528269
 20
2.080464
 30
0.0
 41
0.7
 42
0.7
 43
0.7
  0
INSERT
  8
0
 62
   249
  2
*X20
 10
210.528269
 20
2.080464
 30
0.0
 41
0.7
 42
0.7
 43
0.7
  0
INSERT
  8
0
 62
   249
  2
*X21
 10
210.528269
 20
2.080464
 30
0.0
 41
0.7
 42
0.7
 43
0.7
  0
INSERT
  8
0
 62
   249
  2
*X21
 10
215.988269
 20
2.080464
 30
0.0
 41
0.7
 42
0.7
 43
0.7
  0
INSERT
  8
0
 62
   249
  2
*X20
 10
215.988269
 20
2.080464
 30
0.0
 41
0.7
 42
0.7
 43
0.7
  0
INSERT
  8
0
 62
   249
  2
*X19
 10
215.988269
 20
2.080464
 30
0.0
 41
0.7
 42
0.7
 43
0.7
  0
INSERT
  8
0
 62
   249
  2
*X18
 10
215.988269
 20
2.080464
 30
0.0
 41
0.7
 42
0.7
 43
0.7
  0
ARC
  8
0
 62
   249
 10
226.278269
 20
4.180464
 30
0.0
 40
2.1
 50
47.28622
 51
68.787999
  0
LINE
  8
0
 62
   249
 10
225.718269
 20
2.080464
 30
0.0
 11
226.275986
 21
2.080465
 31
0.0
  0
ARC
  8
0
 62
   249
 10
226.278269
 20
4.180464
 30
0.0
 40
2.1
 50
269.937724
 51
37.056553
  0
LINE
  8
0
 62
   249
 10
225.718269
 20
5.440464
 30
0.0
 11
225.718269
 21
2.080464
 31
0.0
  0
LINE
  8
0
 62
   249
 10
227.958269
 20
5.440464
 30
0.0
 11
225.718269
 21
5.440464
 31
0.0
  0
LINE
  8
0
 62
   249
 10
225.718269
 20
5.720464
 30
0.0
 11
227.702711
 21
5.720464
 31
0.0
  0
LINE
  8
0
 62
   249
 10
225.718269
 20
9.080464
 30
0.0
 11
225.718269
 21
5.720464
 31
0.0
  0
LINE
  8
0
 62
   249
 10
225.718269
 20
9.080464
 30
0.0
 11
226.276827
 21
9.080463
 31
0.0
  0
ARC
  8
0
 62
   249
 10
226.278269
 20
7.505464
 30
0.0
 40
1.575
 50
298.455859
 51
90.052437
  0
LINE
  8
0
 62
   249
 10
223.478269
 20
5.720464
 30
0.0
 11
223.478269
 21
9.080464
 31
0.0
  0
LINE
  8
0
 62
   249
 10
225.438269
 20
2.080464
 30
0.0
 11
223.478269
 21
2.080464
 31
0.0
  0
LINE
  8
0
 62
   249
 10
225.438269
 20
5.440464
 30
0.0
 11
225.438269
 21
2.080464
 31
0.0
  0
LINE
  8
0
 62
   249
 10
223.478269
 20
5.440464
 30
0.0
 11
225.438269
 21
5.440464
 31
0.0
  0
LINE
  8
0
 62
   249
 10
225.438269
 20
5.720464
 30
0.0
 11
223.478269
 21
5.720464
 31
0.0
  0
LINE
  8
0
 62
   249
 10
225.438269
 20
9.080464
 30
0.0
 11
225.438269
 21
5.720464
 31
0.0
  0
LINE
  8
0
 62
   249
 10
223.478269
 20
9.080464
 30
0.0
 11
225.438269
 21
9.080464
 31
0.0
  0
LINE
  8
0
 62
   249
 10
223.478269
 20
2.080464
 30
0.0
 11
223.478269
 21
5.440464
 31
0.0
  0
TEXT
  8
0
 62
   249
 10
230.078269
 20
2.080464
 30
0.0
 40
3.0
  1
ABB 
 41
0.8
  7
ROMANS
  0
TEXT
  8
0
 62
   249
 10
238.078269
 20
2.080464
 30
0.0
 40
3.0
  1
Strömberg
 41
0.8
  7
ROMANS
  0
LINE
  8
0
 62
   249
 10
282.578269
 20
10.080464
 30
0.0
 11
282.578269
 21
18.580464
 31
0.0
  0
TEXT
  8
0
 62
   249
 10
28.078269
 20
5.080464
 30
0.0
 40
1.4
  1
MUUTOS
  7
ROMANS
  0
TEXT
  8
0
 62
   249
 10
28.078269
 20
2.813797
 30
0.0
 40
1.4
  1
REVISION
  7
ROMANS
  0
LINE
  8
0
 62
   249
 10
47.078269
 20
9.580464
 30
0.0
 11
209.578269
 21
9.580464
 31
0.0
  0
LINE
  8
0
 62
   249
 10
47.078269
 20
0.580464
 30
0.0
 11
47.078269
 21
9.580464
 31
0.0
  0
LINE
  8
0
 62
   249
 10
41.078269
 20
5.080464
 30
0.0
 11
209.578269
 21
5.080464
 31
0.0
  0
LINE
  8
0
 62
   249
 10
257.578269
 20
10.080464
 30
0.0
 11
257.578269
 21
35.580464
 31
0.0
  0
LINE
  8
0
 62
   249
 10
271.578269
 20
10.080464
 30
0.0
 11
271.578269
 21
0.580464
 31
0.0
  0
TEXT
  8
0
 62
   249
 10
210.578269
 20
32.580464
 30
0.0
 40
1.4
  1
TEKI  PREPARED
  7
ROMANS
  0
TEXT
  8
0
 62
   249
 10
273.578269
 20
7.580464
 30
0.0
 40
1.4
  1
VAST.OSASTO RESP.DEPT.
  7
ROMANS
  0
TEXT
  8
0
 62
   249
 10
257.748175
 20
2.084248
 30
0.0
 40
3.0
  1
Power
 41
0.8
  7
ROMANS
  0
TEXT
  8
0
 62
   249
 10
42.578269
 20
1.537757
 30
0.0
 40
2.5
  1
B
  7
ROMANS
  0
TEXT
  8
0
 62
   249
 10
42.578269
 20
5.929973
 30
0.0
 40
2.5
  1
C
  7
ROMANS
  0
LINE
  8
0
 62
   249
 10
0.578269
 20
0.580464
 30
0.0
 11
392.578269
 21
0.580464
 31
0.0
  0
LINE
  8
0
 62
   249
 10
392.578269
 20
263.080464
 30
0.0
 11
392.578269
 21
0.580464
 31
0.0
  0
LINE
  8
0
 62
   249
 10
0.578269
 20
0.580464
 30
0.0
 11
0.578269
 21
263.080464
 31
0.0
  0
LINE
  8
0
  6
CONTINUOUS
 62
   249
 10
176.525955
 20
130.298659
 30
0.0
 11
174.18019
 21
131.634013
 31
0.0
  0
LINE
  8
0
  6
CONTINUOUS
 62
   249
 10
174.18019
 20
131.634013
 30
0.0
 11
176.525955
 21
132.823932
 31
0.0
  0
ARC
  8
0
  6
CONTINUOUS
 62
   249
 10
162.5
 20
131.607813
 30
0.0
 40
0.5
 50
180.0
 51
0.0
  0
ARC
  8
0
  6
CONTINUOUS
 62
   249
 10
162.5
 20
131.607813
 30
0.0
 40
0.5
 50
0.0
 51
180.0
  0
ARC
  8
0
  6
CONTINUOUS
 62
   249
 10
55.0
 20
151.055194
 30
0.0
 40
0.5
 50
180.0
 51
0.0
  0
ARC
  8
0
  6
CONTINUOUS
 62
   249
 10
55.0
 20
151.055194
 30
0.0
 40
0.5
 50
0.0
 51
180.0
  0
ARC
  8
0
  6
CONTINUOUS
 62
   249
 10
60.0
 20
138.608096
 30
0.0
 40
0.5
 50
180.0
 51
0.0
  0
ARC
  8
0
  6
CONTINUOUS
 62
   249
 10
60.0
 20
138.608096
 30
0.0
 40
0.5
 50
0.0
 51
180.0
  0
TEXT
  8
0
  6
CONTINUOUS
 62
   249
 10
29.344763
 20
206.50558
 30
0.0
 40
2.0
  1
-
  0
TEXT
  8
0
  6
CONTINUOUS
 62
   249
 10
29.353328
 20
211.513635
 30
0.0
 40
2.0
  1
+
  0
ARC
  8
0
  6
CONTINUOUS
 62
   249
 10
47.5
 20
207.5
 30
0.0
 40
0.5
 50
180.0
 51
0.0
  0
ARC
  8
0
  6
CONTINUOUS
 62
   249
 10
47.5
 20
207.5
 30
0.0
 40
0.5
 50
0.0
 51
180.0
  0
ARC
  8
0
  6
CONTINUOUS
 62
   249
 10
72.5
 20
194.492731
 30
0.0
 40
0.5
 50
180.0
 51
0.0
  0
ARC
  8
0
  6
CONTINUOUS
 62
   249
 10
72.5
 20
194.492731
 30
0.0
 40
0.5
 50
0.0
 51
180.0
  0
ARC
  8
0
  6
CONTINUOUS
 62
   249
 10
70.0
 20
204.665835
 30
0.0
 40
0.5
 50
180.0
 51
0.0
  0
ARC
  8
0
  6
CONTINUOUS
 62
   249
 10
70.0
 20
204.665835
 30
0.0
 40
0.5
 50
0.0
 51
180.0
  0
TEXT
  8
0
  6
CONTINUOUS
 62
   249
 10
29.353328
 20
219.013635
 30
0.0
 40
2.0
  1
+
  0
TEXT
  8
0
  6
CONTINUOUS
 62
   249
 10
29.344763
 20
229.00558
 30
0.0
 40
2.0
  1
-
  0
TEXT
  8
0
  6
CONTINUOUS
 62
   249
 10
29.353328
 20
234.013635
 30
0.0
 40
2.0
  1
+
  0
ARC
  8
0
  6
CONTINUOUS
 62
   249
 10
85.0
 20
162.5
 30
0.0
 40
0.5
 50
180.0
 51
0.0
  0
ARC
  8
0
  6
CONTINUOUS
 62
   249
 10
85.0
 20
162.5
 30
0.0
 40
0.5
 50
0.0
 51
180.0
  0
ARC
  8
0
  6
CONTINUOUS
 62
   249
 10
75.0
 20
170.0
 30
0.0
 40
0.5
 50
180.0
 51
0.0
  0
ARC
  8
0
  6
CONTINUOUS
 62
   249
 10
75.0
 20
170.0
 30
0.0
 40
0.5
 50
0.0
 51
180.0
  0
ARC
  8
0
  6
CONTINUOUS
 62
   249
 10
82.5
 20
177.5
 30
0.0
 40
0.5
 50
180.0
 51
0.0
  0
ARC
  8
0
  6
CONTINUOUS
 62
   249
 10
82.5
 20
177.5
 30
0.0
 40
0.5
 50
0.0
 51
180.0
  0
ARC
  8
0
  6
CONTINUOUS
 62
   249
 10
118.318812
 20
177.5
 30
0.0
 40
0.5
 50
180.0
 51
0.0
  0
ARC
  8
0
  6
CONTINUOUS
 62
   249
 10
118.318812
 20
177.5
 30
0.0
 40
0.5
 50
0.0
 51
180.0
  0
ARC
  8
0
  6
CONTINUOUS
 62
   249
 10
132.5
 20
194.492731
 30
0.0
 40
0.5
 50
180.0
 51
0.0
  0
ARC
  8
0
  6
CONTINUOUS
 62
   249
 10
132.5
 20
194.492731
 30
0.0
 40
0.5
 50
0.0
 51
180.0
  0
ARC
  8
0
  6
CONTINUOUS
 62
   249
 10
130.0
 20
200.0
 30
0.0
 40
0.5
 50
180.0
 51
0.0
  0
ARC
  8
0
  6
CONTINUOUS
 62
   249
 10
130.0
 20
200.0
 30
0.0
 40
0.5
 50
0.0
 51
180.0
  0
ARC
  8
0
  6
CONTINUOUS
 62
   249
 10
127.5
 20
204.665835
 30
0.0
 40
0.5
 50
180.0
 51
0.0
  0
ARC
  8
0
  6
CONTINUOUS
 62
   249
 10
127.5
 20
204.665835
 30
0.0
 40
0.5
 50
0.0
 51
180.0
  0
ARC
  8
0
  6
CONTINUOUS
 62
   249
 10
125.0
 20
212.5
 30
0.0
 40
0.5
 50
180.0
 51
0.0
  0
ARC
  8
0
  6
CONTINUOUS
 62
   249
 10
125.0
 20
212.5
 30
0.0
 40
0.5
 50
0.0
 51
180.0
  0
LINE
  8
0
  6
CONTINUOUS
 62
   249
 10
184.184557
 20
170.602588
 30
0.0
 11
185.071444
 21
170.602588
 31
0.0
  0
LINE
  8
0
  6
CONTINUOUS
 62
   249
 10
183.853452
 20
171.214221
 30
0.0
 11
185.438024
 21
171.214221
 31
0.0
  0
LINE
  8
0
  6
CONTINUOUS
 62
   249
 10
184.669388
 20
171.836284
 30
0.0
 11
185.863729
 21
171.836284
 31
0.0
  0
LINE
  8
0
  6
CONTINUOUS
 62
   249
 10
183.475047
 20
171.836284
 30
0.0
 11
184.669388
 21
171.836284
 31
0.0
  0
LINE
  8
0
  6
CONTINUOUS
 62
   249
 10
184.685275
 20
173.190554
 30
0.0
 11
184.685275
 21
171.836284
 31
0.0
  0
LINE
  8
0
  6
CONTINUOUS
 62
   249
 10
173.924362
 20
171.164635
 30
0.0
 11
171.578597
 21
172.499989
 31
0.0
  0
LINE
  8
0
  6
CONTINUOUS
 62
   249
 10
171.578597
 20
172.499989
 30
0.0
 11
173.924362
 21
173.689908
 31
0.0
  0
ARC
  8
0
  6
CONTINUOUS
 62
   249
 10
160.0
 20
142.5
 30
0.0
 40
0.5
 50
180.0
 51
0.0
  0
ARC
  8
0
  6
CONTINUOUS
 62
   249
 10
160.0
 20
142.5
 30
0.0
 40
0.5
 50
0.0
 51
180.0
  0
ARC
  8
0
  6
CONTINUOUS
 62
   249
 10
157.5
 20
147.385451
 30
0.0
 40
0.5
 50
180.0
 51
0.0
  0
ARC
  8
0
  6
CONTINUOUS
 62
   249
 10
157.5
 20
147.385451
 30
0.0
 40
0.5
 50
0.0
 51
180.0
  0
ARC
  8
0
  6
CONTINUOUS
 62
   249
 10
147.5
 20
162.5
 30
0.0
 40
0.5
 50
180.0
 51
0.0
  0
ARC
  8
0
  6
CONTINUOUS
 62
   249
 10
147.5
 20
162.5
 30
0.0
 40
0.5
 50
0.0
 51
180.0
  0
ARC
  8
0
  6
CONTINUOUS
 62
   249
 10
155.0
 20
157.5
 30
0.0
 40
0.5
 50
180.0
 51
0.0
  0
ARC
  8
0
  6
CONTINUOUS
 62
   249
 10
155.0
 20
157.5
 30
0.0
 40
0.5
 50
0.0
 51
180.0
  0
LINE
  8
0
  6
CONTINUOUS
 62
   249
 10
173.92602
 20
141.058801
 30
0.0
 11
171.580254
 21
142.394155
 31
0.0
  0
LINE
  8
0
  6
CONTINUOUS
 62
   249
 10
171.580254
 20
142.394155
 30
0.0
 11
173.92602
 21
143.584074
 31
0.0
  0
LINE
  8
0
  6
CONTINUOUS
 62
   249
 10
173.92602
 20
145.944252
 30
0.0
 11
171.580254
 21
147.279606
 31
0.0
  0
LINE
  8
0
  6
CONTINUOUS
 62
   249
 10
171.580254
 20
147.279606
 30
0.0
 11
173.92602
 21
148.469525
 31
0.0
  0
ARC
  8
0
  6
CONTINUOUS
 62
   249
 10
170.0
 20
150.527858
 30
0.0
 40
0.5
 50
180.0
 51
0.0
  0
ARC
  8
0
  6
CONTINUOUS
 62
   249
 10
170.0
 20
150.527858
 30
0.0
 40
0.5
 50
0.0
 51
180.0
  0
LINE
  8
0
  6
CONTINUOUS
 62
   249
 10
173.92602
 20
161.164646
 30
0.0
 11
171.580254
 21
162.5
 31
0.0
  0
LINE
  8
0
  6
CONTINUOUS
 62
   249
 10
171.580254
 20
162.5
 30
0.0
 11
173.92602
 21
163.689919
 31
0.0
  0
INSERT
  8
0
  6
CONTINUOUS
 62
   249
  2
BLC29
 10
174.494594
 20
157.371524
 30
0.0
 50
180.0
  0
ARC
  8
0
  6
CONTINUOUS
 62
   249
 10
167.5
 20
153.252604
 30
0.0
 40
0.5
 50
180.0
 51
0.0
  0
ARC
  8
0
  6
CONTINUOUS
 62
   249
 10
167.5
 20
153.252604
 30
0.0
 40
0.5
 50
0.0
 51
180.0
  0
ARC
  8
0
  6
CONTINUOUS
 62
   249
 10
167.5
 20
168.000813
 30
0.0
 40
0.5
 50
180.0
 51
0.0
  0
ARC
  8
0
  6
CONTINUOUS
 62
   249
 10
167.5
 20
168.000813
 30
0.0
 40
0.5
 50
0.0
 51
180.0
  0
ARC
  8
0
  6
CONTINUOUS
 62
   249
 10
170.0
 20
165.0
 30
0.0
 40
0.5
 50
180.0
 51
0.0
  0
ARC
  8
0
  6
CONTINUOUS
 62
   249
 10
170.0
 20
165.0
 30
0.0
 40
0.5
 50
0.0
 51
180.0
  0
LINE
  8
0
  6
CONTINUOUS
 62
   249
 10
184.184557
 20
160.501939
 30
0.0
 11
185.071444
 21
160.501939
 31
0.0
  0
LINE
  8
0
  6
CONTINUOUS
 62
   249
 10
183.853452
 20
161.113572
 30
0.0
 11
185.438024
 21
161.113572
 31
0.0
  0
LINE
  8
0
  6
CONTINUOUS
 62
   249
 10
184.669388
 20
161.735634
 30
0.0
 11
185.863729
 21
161.735634
 31
0.0
  0
LINE
  8
0
  6
CONTINUOUS
 62
   249
 10
183.475047
 20
161.735634
 30
0.0
 11
184.669388
 21
161.735634
 31
0.0
  0
LINE
  8
0
  6
CONTINUOUS
 62
   249
 10
184.685275
 20
163.089905
 30
0.0
 11
184.685275
 21
161.735634
 31
0.0
  0
ARC
  8
0
  6
CONTINUOUS
 62
   249
 10
142.5
 20
177.5
 30
0.0
 40
0.5
 50
180.0
 51
0.0
  0
ARC
  8
0
  6
CONTINUOUS
 62
   249
 10
142.5
 20
177.5
 30
0.0
 40
0.5
 50
0.0
 51
180.0
  0
ARC
  8
0
  6
CONTINUOUS
 62
   249
 10
140.0
 20
186.684312
 30
0.0
 40
0.5
 50
180.0
 51
0.0
  0
ARC
  8
0
  6
CONTINUOUS
 62
   249
 10
140.0
 20
186.684312
 30
0.0
 40
0.5
 50
0.0
 51
180.0
  0
LINE
  8
0
  6
CONTINUOUS
 62
   249
 10
173.924362
 20
193.157382
 30
0.0
 11
171.578597
 21
194.492735
 31
0.0
  0
LINE
  8
0
  6
CONTINUOUS
 62
   249
 10
171.578597
 20
194.492735
 30
0.0
 11
173.924362
 21
195.682654
 31
0.0
  0
ARC
  8
0
  6
CONTINUOUS
 62
   249
 10
167.5
 20
183.000813
 30
0.0
 40
0.5
 50
180.0
 51
0.0
  0
ARC
  8
0
  6
CONTINUOUS
 62
   249
 10
167.5
 20
183.000813
 30
0.0
 40
0.5
 50
0.0
 51
180.0
  0
ARC
  8
0
  6
CONTINUOUS
 62
   249
 10
170.0
 20
179.971652
 30
0.0
 40
0.5
 50
180.0
 51
0.0
  0
ARC
  8
0
  6
CONTINUOUS
 62
   249
 10
170.0
 20
179.971652
 30
0.0
 40
0.5
 50
0.0
 51
180.0
  0
LINE
  8
0
  6
CONTINUOUS
 62
   249
 10
173.92602
 20
189.271178
 30
0.0
 11
171.580254
 21
190.606531
 31
0.0
  0
LINE
  8
0
  6
CONTINUOUS
 62
   249
 10
171.580254
 20
190.606531
 30
0.0
 11
173.92602
 21
191.79645
 31
0.0
  0
LINE
  8
0
  6
CONTINUOUS
 62
   249
 10
173.924362
 20
185.348947
 30
0.0
 11
171.578597
 21
186.6843
 31
0.0
  0
LINE
  8
0
  6
CONTINUOUS
 62
   249
 10
171.578597
 20
186.6843
 30
0.0
 11
173.924362
 21
187.87422
 31
0.0
  0
LINE
  8
0
  6
CONTINUOUS
 62
   249
 10
184.184557
 20
175.765721
 30
0.0
 11
185.071444
 21
175.765721
 31
0.0
  0
LINE
  8
0
  6
CONTINUOUS
 62
   249
 10
183.853452
 20
176.377354
 30
0.0
 11
185.438024
 21
176.377354
 31
0.0
  0
LINE
  8
0
  6
CONTINUOUS
 62
   249
 10
184.669388
 20
176.999416
 30
0.0
 11
185.863729
 21
176.999416
 31
0.0
  0
LINE
  8
0
  6
CONTINUOUS
 62
   249
 10
183.475047
 20
176.999416
 30
0.0
 11
184.669388
 21
176.999416
 31
0.0
  0
LINE
  8
0
  6
CONTINUOUS
 62
   249
 10
184.685275
 20
178.353686
 30
0.0
 11
184.685275
 21
176.999416
 31
0.0
  0
LINE
  8
0
  6
CONTINUOUS
 62
   249
 10
184.112669
 20
185.649432
 30
0.0
 11
184.999556
 21
185.649432
 31
0.0
  0
LINE
  8
0
  6
CONTINUOUS
 62
   249
 10
183.781565
 20
186.261065
 30
0.0
 11
185.366136
 21
186.261065
 31
0.0
  0
LINE
  8
0
  6
CONTINUOUS
 62
   249
 10
184.597501
 20
186.883127
 30
0.0
 11
185.791842
 21
186.883127
 31
0.0
  0
LINE
  8
0
  6
CONTINUOUS
 62
   249
 10
183.40316
 20
186.883127
 30
0.0
 11
184.597501
 21
186.883127
 31
0.0
  0
LINE
  8
0
  6
CONTINUOUS
 62
   249
 10
184.613387
 20
188.237397
 30
0.0
 11
184.613387
 21
186.883127
 31
0.0
  0
LINE
  8
0
  6
CONTINUOUS
 62
   249
 10
185.63429
 20
190.456785
 30
0.0
 11
186.521177
 21
190.456785
 31
0.0
  0
LINE
  8
0
  6
CONTINUOUS
 62
   249
 10
185.303186
 20
191.068418
 30
0.0
 11
186.887757
 21
191.068418
 31
0.0
  0
LINE
  8
0
  6
CONTINUOUS
 62
   249
 10
186.119122
 20
191.69048
 30
0.0
 11
187.313463
 21
191.69048
 31
0.0
  0
LINE
  8
0
  6
CONTINUOUS
 62
   249
 10
184.924781
 20
191.69048
 30
0.0
 11
186.119122
 21
191.69048
 31
0.0
  0
LINE
  8
0
  6
CONTINUOUS
 62
   249
 10
186.135009
 20
193.044751
 30
0.0
 11
186.135009
 21
191.69048
 31
0.0
  0
LINE
  8
0
  6
CONTINUOUS
 62
   249
 10
173.924362
 20
203.331255
 30
0.0
 11
171.578597
 21
204.666609
 31
0.0
  0
LINE
  8
0
  6
CONTINUOUS
 62
   249
 10
171.578597
 20
204.666609
 30
0.0
 11
173.924362
 21
205.856528
 31
0.0
  0
LINE
  8
0
  6
CONTINUOUS
 62
   249
 10
173.924362
 20
198.664635
 30
0.0
 11
171.578597
 21
199.999989
 31
0.0
  0
LINE
  8
0
  6
CONTINUOUS
 62
   249
 10
171.578597
 20
199.999989
 30
0.0
 11
173.924362
 21
201.189908
 31
0.0
  0
LINE
  8
0
  6
CONTINUOUS
 62
   249
 10
173.924362
 20
211.164635
 30
0.0
 11
171.578597
 21
212.499989
 31
0.0
  0
LINE
  8
0
  6
CONTINUOUS
 62
   249
 10
171.578597
 20
212.499989
 30
0.0
 11
173.924362
 21
213.689908
 31
0.0
  0
LINE
  8
0
  6
CONTINUOUS
 62
   249
 10
185.63429
 20
195.654628
 30
0.0
 11
186.521177
 21
195.654628
 31
0.0
  0
LINE
  8
0
  6
CONTINUOUS
 62
   249
 10
185.303186
 20
196.266261
 30
0.0
 11
186.887757
 21
196.266261
 31
0.0
  0
LINE
  8
0
  6
CONTINUOUS
 62
   249
 10
186.119122
 20
196.888323
 30
0.0
 11
187.313463
 21
196.888323
 31
0.0
  0
LINE
  8
0
  6
CONTINUOUS
 62
   249
 10
184.924781
 20
196.888323
 30
0.0
 11
186.119122
 21
196.888323
 31
0.0
  0
LINE
  8
0
  6
CONTINUOUS
 62
   249
 10
186.135009
 20
198.242593
 30
0.0
 11
186.135009
 21
196.888323
 31
0.0
  0
LINE
  8
0
  6
CONTINUOUS
 62
   249
 10
185.63429
 20
200.670242
 30
0.0
 11
186.521177
 21
200.670242
 31
0.0
  0
LINE
  8
0
  6
CONTINUOUS
 62
   249
 10
185.303186
 20
201.281875
 30
0.0
 11
186.887757
 21
201.281875
 31
0.0
  0
LINE
  8
0
  6
CONTINUOUS
 62
   249
 10
186.119122
 20
201.903937
 30
0.0
 11
187.313463
 21
201.903937
 31
0.0
  0
LINE
  8
0
  6
CONTINUOUS
 62
   249
 10
184.924781
 20
201.903937
 30
0.0
 11
186.119122
 21
201.903937
 31
0.0
  0
LINE
  8
0
  6
CONTINUOUS
 62
   249
 10
186.135009
 20
203.258208
 30
0.0
 11
186.135009
 21
201.903937
 31
0.0
  0
LINE
  8
0
  6
CONTINUOUS
 62
   249
 10
185.63429
 20
205.772632
 30
0.0
 11
186.521177
 21
205.772632
 31
0.0
  0
LINE
  8
0
  6
CONTINUOUS
 62
   249
 10
185.303186
 20
206.384265
 30
0.0
 11
186.887757
 21
206.384265
 31
0.0
  0
LINE
  8
0
  6
CONTINUOUS
 62
   249
 10
186.119122
 20
207.006327
 30
0.0
 11
187.313463
 21
207.006327
 31
0.0
  0
LINE
  8
0
  6
CONTINUOUS
 62
   249
 10
184.924781
 20
207.006327
 30
0.0
 11
186.119122
 21
207.006327
 31
0.0
  0
LINE
  8
0
  6
CONTINUOUS
 62
   249
 10
186.135009
 20
208.360598
 30
0.0
 11
186.135009
 21
207.006327
 31
0.0
  0
ARC
  8
0
  6
CONTINUOUS
 62
   249
 10
170.0
 20
217.5
 30
0.0
 40
0.5
 50
180.0
 51
0.0
  0
ARC
  8
0
  6
CONTINUOUS
 62
   249
 10
170.0
 20
217.5
 30
0.0
 40
0.5
 50
0.0
 51
180.0
  0
LINE
  8
0
  6
CONTINUOUS
 62
   249
 10
232.38991
 20
84.919149
 30
0.0
 11
230.044144
 21
86.254503
 31
0.0
  0
LINE
  8
0
  6
CONTINUOUS
 62
   249
 10
230.044144
 20
86.254503
 30
0.0
 11
232.38991
 21
87.444422
 31
0.0
  0
LINE
  8
0
  6
CONTINUOUS
 62
   249
 10
234.913158
 20
118.664635
 30
0.0
 11
232.567393
 21
119.999989
 31
0.0
  0
LINE
  8
0
  6
CONTINUOUS
 62
   249
 10
232.567393
 20
119.999989
 30
0.0
 11
234.913158
 21
121.189908
 31
0.0
  0
LINE
  8
0
  6
CONTINUOUS
 62
   249
 10
207.347595
 20
173.925586
 30
0.0
 11
208.596268
 21
173.214764
 31
0.0
  0
LINE
  8
0
  6
CONTINUOUS
 62
   249
 10
208.596268
 20
173.214764
 30
0.0
 11
207.347595
 21
172.581359
 31
0.0
  0
LINE
  8
0
  6
CONTINUOUS
 62
   249
 10
203.72323
 20
172.490627
 30
0.0
 11
202.474557
 21
173.201449
 31
0.0
  0
LINE
  8
0
  6
CONTINUOUS
 62
   249
 10
202.474557
 20
173.201449
 30
0.0
 11
203.72323
 21
173.834854
 31
0.0
  0
ARC
  8
0
  6
CONTINUOUS
 62
   249
 10
215.0
 20
168.479447
 30
0.0
 40
0.5
 50
180.0
 51
0.0
  0
ARC
  8
0
  6
CONTINUOUS
 62
   249
 10
215.0
 20
168.479447
 30
0.0
 40
0.5
 50
0.0
 51
180.0
  0
LINE
  8
0
  6
CONTINUOUS
 62
   249
 10
234.913158
 20
138.664635
 30
0.0
 11
232.567393
 21
139.999989
 31
0.0
  0
LINE
  8
0
  6
CONTINUOUS
 62
   249
 10
232.567393
 20
139.999989
 30
0.0
 11
234.913158
 21
141.189908
 31
0.0
  0
ARC
  8
0
  6
CONTINUOUS
 62
   249
 10
229.66296
 20
147.395025
 30
0.0
 40
0.5
 50
180.0
 51
0.0
  0
ARC
  8
0
  6
CONTINUOUS
 62
   249
 10
229.66296
 20
147.395025
 30
0.0
 40
0.5
 50
0.0
 51
180.0
  0
LINE
  8
0
  6
CONTINUOUS
 62
   249
 10
234.913158
 20
158.664635
 30
0.0
 11
232.567393
 21
159.999989
 31
0.0
  0
LINE
  8
0
  6
CONTINUOUS
 62
   249
 10
232.567393
 20
159.999989
 30
0.0
 11
234.913158
 21
161.189908
 31
0.0
  0
LINE
  8
0
  6
CONTINUOUS
 62
   249
 10
206.925006
 20
180.720592
 30
0.0
 11
207.811893
 21
180.720592
 31
0.0
  0
LINE
  8
0
  6
CONTINUOUS
 62
   249
 10
206.593901
 20
181.332226
 30
0.0
 11
208.178473
 21
181.332226
 31
0.0
  0
LINE
  8
0
  6
CONTINUOUS
 62
   249
 10
207.409837
 20
181.954288
 30
0.0
 11
208.604178
 21
181.954288
 31
0.0
  0
LINE
  8
0
  6
CONTINUOUS
 62
   249
 10
206.215496
 20
181.954288
 30
0.0
 11
207.409837
 21
181.954288
 31
0.0
  0
LINE
  8
0
  6
CONTINUOUS
 62
   249
 10
207.425724
 20
183.308558
 30
0.0
 11
207.425724
 21
181.954288
 31
0.0
  0
LINE
  8
0
  6
CONTINUOUS
 62
   249
 10
206.853118
 20
175.748366
 30
0.0
 11
207.740005
 21
175.748366
 31
0.0
  0
LINE
  8
0
  6
CONTINUOUS
 62
   249
 10
206.522014
 20
176.359999
 30
0.0
 11
208.106585
 21
176.359999
 31
0.0
  0
LINE
  8
0
  6
CONTINUOUS
 62
   249
 10
207.33795
 20
176.982061
 30
0.0
 11
208.532291
 21
176.982061
 31
0.0
  0
LINE
  8
0
  6
CONTINUOUS
 62
   249
 10
206.143609
 20
176.982061
 30
0.0
 11
207.33795
 21
176.982061
 31
0.0
  0
LINE
  8
0
  6
CONTINUOUS
 62
   249
 10
207.353836
 20
178.336331
 30
0.0
 11
207.353836
 21
176.982061
 31
0.0
  0
LINE
  8
0
  6
CONTINUOUS
 62
   249
 10
204.88819
 20
197.312037
 30
0.0
 11
205.775077
 21
197.312037
 31
0.0
  0
LINE
  8
0
  6
CONTINUOUS
 62
   249
 10
204.557086
 20
197.92367
 30
0.0
 11
206.141657
 21
197.92367
 31
0.0
  0
LINE
  8
0
  6
CONTINUOUS
 62
   249
 10
205.373022
 20
198.545732
 30
0.0
 11
206.567363
 21
198.545732
 31
0.0
  0
LINE
  8
0
  6
CONTINUOUS
 62
   249
 10
204.178681
 20
198.545732
 30
0.0
 11
205.373022
 21
198.545732
 31
0.0
  0
LINE
  8
0
  6
CONTINUOUS
 62
   249
 10
205.388908
 20
199.900002
 30
0.0
 11
205.388908
 21
198.545732
 31
0.0
  0
LINE
  8
0
  6
CONTINUOUS
 62
   249
 10
231.989729
 20
198.664635
 30
0.0
 11
229.643963
 21
199.999989
 31
0.0
  0
LINE
  8
0
  6
CONTINUOUS
 62
   249
 10
229.643963
 20
199.999989
 30
0.0
 11
231.989729
 21
201.189908
 31
0.0
  0
ARC
  8
0
  6
CONTINUOUS
 62
   249
 10
217.5
 20
217.5
 30
0.0
 40
0.5
 50
180.0
 51
0.0
  0
ARC
  8
0
  6
CONTINUOUS
 62
   249
 10
217.5
 20
217.5
 30
0.0
 40
0.5
 50
0.0
 51
180.0
  0
ARC
  8
0
  6
CONTINUOUS
 62
   249
 10
290.0
 20
237.5
 30
0.0
 40
0.5
 50
180.0
 51
0.0
  0
ARC
  8
0
  6
CONTINUOUS
 62
   249
 10
290.0
 20
237.5
 30
0.0
 40
0.5
 50
0.0
 51
180.0
  0
ARC
  8
0
  6
CONTINUOUS
 62
   249
 10
297.5
 20
237.5
 30
0.0
 40
0.5
 50
180.0
 51
0.0
  0
ARC
  8
0
  6
CONTINUOUS
 62
   249
 10
297.5
 20
237.5
 30
0.0
 40
0.5
 50
0.0
 51
180.0
  0
ARC
  8
0
  6
CONTINUOUS
 62
   249
 10
305.0
 20
237.5
 30
0.0
 40
0.5
 50
180.0
 51
0.0
  0
ARC
  8
0
  6
CONTINUOUS
 62
   249
 10
305.0
 20
237.5
 30
0.0
 40
0.5
 50
0.0
 51
180.0
  0
LINE
  8
0
  6
CONTINUOUS
 62
   249
 10
363.668929
 20
211.994969
 30
0.0
 11
364.555816
 21
211.994969
 31
0.0
  0
LINE
  8
0
  6
CONTINUOUS
 62
   249
 10
363.337824
 20
212.606602
 30
0.0
 11
364.922396
 21
212.606602
 31
0.0
  0
LINE
  8
0
  6
CONTINUOUS
 62
   249
 10
364.15376
 20
213.228665
 30
0.0
 11
365.348101
 21
213.228665
 31
0.0
  0
LINE
  8
0
  6
CONTINUOUS
 62
   249
 10
362.959419
 20
213.228665
 30
0.0
 11
364.15376
 21
213.228665
 31
0.0
  0
LINE
  8
0
  6
CONTINUOUS
 62
   249
 10
364.169647
 20
214.582935
 30
0.0
 11
364.169647
 21
213.228665
 31
0.0
  0
LINE
  8
0
  6
CONTINUOUS
 62
   249
 10
362.524417
 20
189.007632
 30
0.0
 11
361.275743
 21
189.718453
 31
0.0
  0
LINE
  8
0
  6
CONTINUOUS
 62
   249
 10
361.275743
 20
189.718453
 30
0.0
 11
362.524417
 21
190.351859
 31
0.0
  0
LINE
  8
0
  6
CONTINUOUS
 62
   249
 10
366.171041
 20
190.429275
 30
0.0
 11
367.419714
 21
189.718453
 31
0.0
  0
LINE
  8
0
  6
CONTINUOUS
 62
   249
 10
367.419714
 20
189.718453
 30
0.0
 11
366.171041
 21
189.085048
 31
0.0
  0
LINE
  8
0
  6
CONTINUOUS
 62
   249
 10
363.596119
 20
197.240204
 30
0.0
 11
364.483006
 21
197.240204
 31
0.0
  0
LINE
  8
0
  6
CONTINUOUS
 62
   249
 10
363.265014
 20
197.851837
 30
0.0
 11
364.849586
 21
197.851837
 31
0.0
  0
LINE
  8
0
  6
CONTINUOUS
 62
   249
 10
364.08095
 20
198.473899
 30
0.0
 11
365.275291
 21
198.473899
 31
0.0
  0
LINE
  8
0
  6
CONTINUOUS
 62
   249
 10
362.886609
 20
198.473899
 30
0.0
 11
364.08095
 21
198.473899
 31
0.0
  0
LINE
  8
0
  6
CONTINUOUS
 62
   249
 10
364.096837
 20
199.828169
 30
0.0
 11
364.096837
 21
198.473899
 31
0.0
  0
LINE
  8
0
  6
CONTINUOUS
 62
   249
 10
364.773875
 20
204.468842
 30
0.0
 11
366.022548
 21
203.75802
 31
0.0
  0
LINE
  8
0
  6
CONTINUOUS
 62
   249
 10
366.022548
 20
203.75802
 30
0.0
 11
364.773875
 21
203.124615
 31
0.0
  0
LINE
  8
0
  6
CONTINUOUS
 62
   249
 10
363.887359
 20
232.225278
 30
0.0
 11
364.774246
 21
232.225278
 31
0.0
  0
LINE
  8
0
  6
CONTINUOUS
 62
   249
 10
363.556254
 20
232.836911
 30
0.0
 11
365.140826
 21
232.836911
 31
0.0
  0
LINE
  8
0
  6
CONTINUOUS
 62
   249
 10
364.37219
 20
233.458973
 30
0.0
 11
365.566531
 21
233.458973
 31
0.0
  0
LINE
  8
0
  6
CONTINUOUS
 62
   249
 10
363.177849
 20
233.458973
 30
0.0
 11
364.37219
 21
233.458973
 31
0.0
  0
LINE
  8
0
  6
CONTINUOUS
 62
   249
 10
364.388077
 20
234.813243
 30
0.0
 11
364.388077
 21
233.458973
 31
0.0
  0
LINE
  8
0
  6
CONTINUOUS
 62
   249
 10
364.032979
 20
222.754384
 30
0.0
 11
364.919866
 21
222.754384
 31
0.0
  0
LINE
  8
0
  6
CONTINUOUS
 62
   249
 10
363.701874
 20
223.366018
 30
0.0
 11
365.286446
 21
223.366018
 31
0.0
  0
LINE
  8
0
  6
CONTINUOUS
 62
   249
 10
364.51781
 20
223.98808
 30
0.0
 11
365.712151
 21
223.98808
 31
0.0
  0
LINE
  8
0
  6
CONTINUOUS
 62
   249
 10
363.323469
 20
223.98808
 30
0.0
 11
364.51781
 21
223.98808
 31
0.0
  0
LINE
  8
0
  6
CONTINUOUS
 62
   249
 10
364.533697
 20
225.34235
 30
0.0
 11
364.533697
 21
223.98808
 31
0.0
  0
ENDSEC
  0
EOF
