  0
SECTION
  2
HEADER
  9
$ACADVER
  1
AC1009
  9
$INSBASE
 10
0.0
 20
0.0
 30
0.0
  9
$EXTMIN
 10
0.237099
 20
0.237999
 30
0.0
  9
$EXTMAX
 10
392.237099
 20
262.737999
 30
0.0
  9
$LIMMIN
 10
0.0
 20
0.0
  9
$LIMMAX
 10
12.0
 20
9.0
  9
$ORTHOMODE
 70
     1
  9
$REGENMODE
 70
     1
  9
$FILLMODE
 70
     1
  9
$QTEXTMODE
 70
     0
  9
$MIRRTEXT
 70
     1
  9
$DRAGMODE
 70
     2
  9
$LTSCALE
 40
5.0
  9
$OSMODE
 70
     0
  9
$ATTMODE
 70
     1
  9
$TEXTSIZE
 40
2.0
  9
$TRACEWID
 40
0.05
  9
$TEXTSTYLE
  7
ROMANS
  9
$CLAYER
  8
0
  9
$CELTYPE
  6
DASHED
  9
$CECOLOR
 62
   256
  9
$DIMSCALE
 40
1.0
  9
$DIMASZ
 40
0.18
  9
$DIMEXO
 40
0.0625
  9
$DIMDLI
 40
0.38
  9
$DIMRND
 40
0.0
  9
$DIMDLE
 40
0.0
  9
$DIMEXE
 40
0.18
  9
$DIMTP
 40
0.0
  9
$DIMTM
 40
0.0
  9
$DIMTXT
 40
0.18
  9
$DIMCEN
 40
0.09
  9
$DIMTSZ
 40
0.0
  9
$DIMTOL
 70
     0
  9
$DIMLIM
 70
     0
  9
$DIMTIH
 70
     1
  9
$DIMTOH
 70
     1
  9
$DIMSE1
 70
     0
  9
$DIMSE2
 70
     0
  9
$DIMTAD
 70
     0
  9
$DIMZIN
 70
     0
  9
$DIMBLK
  1

  9
$DIMASO
 70
     1
  9
$DIMSHO
 70
     1
  9
$DIMPOST
  1

  9
$DIMAPOST
  1

  9
$DIMALT
 70
     0
  9
$DIMALTD
 70
     2
  9
$DIMALTF
 40
25.4
  9
$DIMLFAC
 40
1.0
  9
$DIMTOFL
 70
     0
  9
$DIMTVP
 40
0.0
  9
$DIMTIX
 70
     0
  9
$DIMSOXD
 70
     0
  9
$DIMSAH
 70
     0
  9
$DIMBLK1
  1

  9
$DIMBLK2
  1

  9
$DIMSTYLE
  2
*UNNAMED
  9
$DIMCLRD
 70
     0
  9
$DIMCLRE
 70
     0
  9
$DIMCLRT
 70
     0
  9
$DIMTFAC
 40
1.0
  9
$DIMGAP
 40
0.09
  9
$LUNITS
 70
     2
  9
$LUPREC
 70
     4
  9
$SKETCHINC
 40
0.1
  9
$FILLETRAD
 40
2.0
  9
$AUNITS
 70
     0
  9
$AUPREC
 70
     0
  9
$MENU
  1
acad
  9
$ELEVATION
 40
0.0
  9
$PELEVATION
 40
0.0
  9
$THICKNESS
 40
0.0
  9
$LIMCHECK
 70
     0
  9
$BLIPMODE
 70
     1
  9
$CHAMFERA
 40
0.0
  9
$CHAMFERB
 40
0.0
  9
$SKPOLY
 70
     0
  9
$TDCREATE
 40
2449475.577127662
  9
$TDUPDATE
 40
2449660.495615393
  9
$TDINDWG
 40
0.0165768519
  9
$TDUSRTIMER
 40
0.0165768519
  9
$USRTIMER
 70
     1
  9
$ANGBASE
 50
0.0
  9
$ANGDIR
 70
     0
  9
$PDMODE
 70
     0
  9
$PDSIZE
 40
0.0
  9
$PLINEWID
 40
0.0
  9
$COORDS
 70
     2
  9
$SPLFRAME
 70
     0
  9
$SPLINETYPE
 70
     6
  9
$SPLINESEGS
 70
     8
  9
$ATTDIA
 70
     0
  9
$ATTREQ
 70
     1
  9
$HANDLING
 70
     0
  9
$HANDSEED
  5
0
  9
$SURFTAB1
 70
   250
  9
$SURFTAB2
 70
   250
  9
$SURFTYPE
 70
     6
  9
$SURFU
 70
     6
  9
$SURFV
 70
     6
  9
$UCSNAME
  2

  9
$UCSORG
 10
0.0
 20
0.0
 30
0.0
  9
$UCSXDIR
 10
1.0
 20
0.0
 30
0.0
  9
$UCSYDIR
 10
0.0
 20
1.0
 30
0.0
  9
$PUCSNAME
  2

  9
$PUCSORG
 10
0.0
 20
0.0
 30
0.0
  9
$PUCSXDIR
 10
1.0
 20
0.0
 30
0.0
  9
$PUCSYDIR
 10
0.0
 20
1.0
 30
0.0
  9
$USERI1
 70
     0
  9
$USERI2
 70
     0
  9
$USERI3
 70
     0
  9
$USERI4
 70
     0
  9
$USERI5
 70
     0
  9
$USERR1
 40
0.0
  9
$USERR2
 40
0.0
  9
$USERR3
 40
0.0
  9
$USERR4
 40
0.0
  9
$USERR5
 40
0.0
  9
$WORLDVIEW
 70
     1
  9
$SHADEDGE
 70
     3
  9
$SHADEDIF
 70
    70
  9
$TILEMODE
 70
     1
  9
$MAXACTVP
 70
    16
  9
$PINSBASE
 10
0.0
 20
0.0
 30
0.0
  9
$PLIMCHECK
 70
     0
  9
$PEXTMIN
 10
1.000000E+20
 20
1.000000E+20
 30
1.000000E+20
  9
$PEXTMAX
 10
-1.000000E+20
 20
-1.000000E+20
 30
-1.000000E+20
  9
$PLIMMIN
 10
0.0
 20
0.0
  9
$PLIMMAX
 10
12.0
 20
9.0
  9
$UNITMODE
 70
     0
  9
$VISRETAIN
 70
     0
  9
$PLINEGEN
 70
     0
  9
$PSLTSCALE
 70
     0
  9
$TREEDEPTH
 70
  3020
  9
$DWGCODEPAGE
  3
undefined
  0
ENDSEC
  0
SECTION
  2
TABLES
  0
TABLE
  2
VPORT
 70
     2
  0
VPORT
  2
*ACTIVE
 70
     0
 10
0.0
 20
0.0
 11
1.0
 21
1.0
 12
222.522843
 22
142.040485
 13
0.0
 23
0.0
 14
2.5
 24
2.5
 15
0.0
 25
0.0
 16
0.0
 26
0.0
 36
1.0
 17
0.0
 27
0.0
 37
0.0
 40
284.080971
 41
1.566616
 42
50.0
 43
0.0
 44
0.0
 50
0.0
 51
0.0
 71
     0
 72
   100
 73
     1
 74
     1
 75
     1
 76
     0
 77
     0
 78
     0
  0
ENDTAB
  0
TABLE
  2
LTYPE
 70
     7
  0
LTYPE
  2
CONTINUOUS
 70
    64
  3
Solid line
 72
    65
 73
     0
 40
0.0
  0
LTYPE
  2
DASHED
 70
    64
  3
__ __ __ __ __ __ __ __ __ __ __ __ __ __ __ __
 72
    65
 73
     2
 40
0.75
 49
0.5
 49
-0.25
  0
LTYPE
  2
CENTER
 70
    64
  3
____ _ ____ _ ____ _ ____ _ ____ _ ____ _ ____ 
 72
    65
 73
     4
 40
2.0
 49
1.25
 49
-0.25
 49
0.25
 49
-0.25
  0
LTYPE
  2
HIDDEN
 70
    64
  3
__ __ __ __ __ __ __ __ __ __ __ __ __ __ __ __
 72
    65
 73
     2
 40
0.375
 49
0.25
 49
-0.125
  0
LTYPE
  2
DOT
 70
     0
  3
. . . . . . . . . . . . . . . . . . . . . . . .
 72
    65
 73
     2
 40
0.25
 49
0.0
 49
-0.25
  0
LTYPE
  2
DASHDOT
 70
     0
  3
__ . __ . __ . __ . __ . __ . __ . __ . __ . __
 72
    65
 73
     4
 40
1.0
 49
0.5
 49
-0.25
 49
0.0
 49
-0.25
  0
LTYPE
  2
PHANTOM
 70
     0
  3
______  __  __  ______  __  __  ______  __  __ 
 72
    65
 73
     6
 40
2.5
 49
1.25
 49
-0.25
 49
0.25
 49
-0.25
 49
0.25
 49
-0.25
  0
ENDTAB
  0
TABLE
  2
LAYER
 70
    13
  0
LAYER
  2
0
 70
    64
 62
     7
  6
CONTINUOUS
  0
LAYER
  2
RAAMI
 70
    64
 62
    -4
  6
CONTINUOUS
  0
LAYER
  2
PAKSU
 70
    64
 62
    -3
  6
CONTINUOUS
  0
LAYER
  2
OHUT
 70
    64
 62
    -6
  6
CONTINUOUS
  0
LAYER
  2
SWEDEN
 70
    64
 62
    -7
  6
CONTINUOUS
  0
LAYER
  2
SWEDEN2
 70
    64
 62
    -5
  6
CONTINUOUS
  0
LAYER
  2
BASE
 70
    64
 62
    -7
  6
CONTINUOUS
  0
LAYER
  2
21
 70
    64
 62
    -2
  6
CONTINUOUS
  0
LAYER
  2
HEL035
 70
    64
 62
    -7
  6
CONTINUOUS
  0
LAYER
  2
MUO
 70
    64
 62
    -7
  6
CONTINUOUS
  0
LAYER
  2
1
 70
    64
 62
    -2
  6
CONTINUOUS
  0
LAYER
  2
BASE1
 70
    64
 62
    -5
  6
CONTINUOUS
  0
LAYER
  2
TEKS
 70
    64
 62
    -5
  6
CONTINUOUS
  0
ENDTAB
  0
TABLE
  2
STYLE
 70
     4
  0
STYLE
  2
STANDARD
 70
    64
 40
0.0
 41
1.0
 50
0.0
 71
     0
 42
2.5
  3
txt
  4

  0
STYLE
  2
ROMANS
 70
    64
 40
0.0
 41
1.0
 50
0.0
 71
     0
 42
2.0
  3
romans
  4

  0
STYLE
  2
GREEKC
 70
    64
 40
0.0
 41
1.0
 50
0.0
 71
     0
 42
1.5
  3
GREEKC
  4

  0
STYLE
  2
GREEKS
 70
    64
 40
0.0
 41
1.0
 50
0.0
 71
     0
 42
2.0
  3
TXT
  4

  0
ENDTAB
  0
TABLE
  2
VIEW
 70
     0
  0
ENDTAB
  0
TABLE
  2
UCS
 70
     0
  0
ENDTAB
  0
TABLE
  2
APPID
 70
     1
  0
APPID
  2
ACAD
 70
    64
  0
ENDTAB
  0
TABLE
  2
DIMSTYLE
 70
     0
  0
ENDTAB
  0
ENDSEC
  0
SECTION
  2
BLOCKS
  0
BLOCK
  8
0
  2
1
 70
    64
 10
0.0
 20
0.0
 30
0.0
  3
1
  0
ENDBLK
  8
0
  0
BLOCK
  8
0
  2
BLC27
 70
     0
 10
0.0
 20
0.0
 30
0.0
  3
BLC27
  0
INSERT
  8
SWEDEN2
  6
CENTER
  2
BLC26
 10
0.08063
 20
0.037985
 30
0.0
 41
1.006225
 42
1.006225
 43
1.006225
  0
ENDBLK
  8
0
  0
BLOCK
  8
0
  2
BLC26
 70
    64
 10
0.0
 20
0.0
 30
0.0
  3
BLC26
  0
ARC
  8
0
  6
CONTINUOUS
 10
-0.180576
 20
1.17922
 30
0.0
 40
1.196859
 50
90.0
 51
265.706237
  0
LINE
  8
0
  6
CONTINUOUS
 10
-0.186638
 20
-0.01092
 30
0.0
 11
0.458942
 21
-0.01092
 31
0.0
  0
LINE
  8
0
  6
CONTINUOUS
 10
-0.186638
 20
2.375671
 30
0.0
 11
0.45288
 21
2.375671
 31
0.0
  0
LINE
  8
0
  6
CONTINUOUS
 10
-0.185509
 20
-2.404629
 30
0.0
 11
0.460071
 21
-2.404629
 31
0.0
  0
ARC
  8
0
  6
CONTINUOUS
 10
-0.180576
 20
-1.207779
 30
0.0
 40
1.196859
 50
90.0
 51
270.0
  0
LINE
  8
0
  6
CONTINUOUS
 10
0.451525
 20
-2.404586
 30
0.0
 11
1.401805
 21
-2.404586
 31
0.0
  0
LINE
  8
0
  6
CONTINUOUS
 10
0.446785
 20
2.375674
 30
0.0
 11
1.418544
 21
2.375674
 31
0.0
  0
LINE
  8
0
  6
CONTINUOUS
 10
0.456627
 20
-0.010911
 30
0.0
 11
1.422749
 21
-0.010911
 31
0.0
  0
ENDBLK
  8
0
  0
BLOCK
  8
0
  2
BLC29
 70
    64
 10
0.0
 20
0.0
 30
0.0
  3
BLC29
  0
LINE
  8
0
  6
CONTINUOUS
 10
0.004865
 20
1.206889
 30
0.0
 11
2.350631
 21
-0.128465
 31
0.0
  0
LINE
  8
0
  6
CONTINUOUS
 10
2.350631
 20
-0.128465
 30
0.0
 11
0.004865
 21
-1.318384
 31
0.0
  0
ENDBLK
  8
0
  0
BLOCK
  8
0
  2
WKU130
 70
    64
 10
190.0
 20
250.0
 30
0.0
  3
WKU130
  0
ARC
  8
21
 10
191.083333
 20
249.916667
 30
0.0
 40
1.086534
 50
32.471192
 51
175.601295
  0
ARC
  8
21
 10
192.916667
 20
251.083333
 30
0.0
 40
1.086534
 50
212.471192
 51
355.601295
  0
ENDBLK
  8
0
  0
BLOCK
  8
0
  2
*X5
 70
    65
 10
0.0
 20
0.0
 30
0.0
  3
*X
  0
LINE
  8
0
 62
     0
 10
2.284499
 20
6.52714
 30
0.0
 11
4.8
 21
9.042641
 31
0.0
  0
LINE
  8
0
 62
     0
 10
2.379686
 20
6.799104
 30
0.0
 11
4.8
 21
9.219417
 31
0.0
  0
LINE
  8
0
 62
     0
 10
2.474874
 20
7.071068
 30
0.0
 11
4.8
 21
9.396194
 31
0.0
  0
LINE
  8
0
 62
     0
 10
2.570061
 20
7.343032
 30
0.0
 11
4.8
 21
9.572971
 31
0.0
  0
LINE
  8
0
 62
     0
 10
2.665249
 20
7.614996
 30
0.0
 11
4.8
 21
9.749747
 31
0.0
  0
LINE
  8
0
 62
     0
 10
2.760436
 20
7.88696
 30
0.0
 11
4.8
 21
9.926524
 31
0.0
  0
LINE
  8
0
 62
     0
 10
2.855624
 20
8.158924
 30
0.0
 11
4.696699
 21
10.0
 31
0.0
  0
LINE
  8
0
 62
     0
 10
2.950811
 20
8.430889
 30
0.0
 11
4.519922
 21
10.0
 31
0.0
  0
LINE
  8
0
 62
     0
 10
3.045998
 20
8.702853
 30
0.0
 11
4.343146
 21
10.0
 31
0.0
  0
LINE
  8
0
 62
     0
 10
3.141186
 20
8.974817
 30
0.0
 11
4.166369
 21
10.0
 31
0.0
  0
LINE
  8
0
 62
     0
 10
3.236373
 20
9.246781
 30
0.0
 11
3.989592
 21
10.0
 31
0.0
  0
LINE
  8
0
 62
     0
 10
3.331561
 20
9.518745
 30
0.0
 11
3.812816
 21
10.0
 31
0.0
  0
LINE
  8
0
 62
     0
 10
3.426748
 20
9.790709
 30
0.0
 11
3.636039
 21
10.0
 31
0.0
  0
LINE
  8
0
 62
     0
 10
2.189311
 20
6.255175
 30
0.0
 11
4.8
 21
8.865864
 31
0.0
  0
LINE
  8
0
 62
     0
 10
2.094124
 20
5.983211
 30
0.0
 11
4.8
 21
8.689087
 31
0.0
  0
LINE
  8
0
 62
     0
 10
1.998936
 20
5.711247
 30
0.0
 11
4.8
 21
8.512311
 31
0.0
  0
LINE
  8
0
 62
     0
 10
1.903749
 20
5.439283
 30
0.0
 11
4.8
 21
8.335534
 31
0.0
  0
LINE
  8
0
 62
     0
 10
1.841243
 20
5.2
 30
0.0
 11
4.8
 21
8.158757
 31
0.0
  0
LINE
  8
0
 62
     0
 10
2.018019
 20
5.2
 30
0.0
 11
4.8
 21
7.981981
 31
0.0
  0
LINE
  8
0
 62
     0
 10
2.194796
 20
5.2
 30
0.0
 11
4.8
 21
7.805204
 31
0.0
  0
LINE
  8
0
 62
     0
 10
2.371573
 20
5.2
 30
0.0
 11
4.8
 21
7.628427
 31
0.0
  0
LINE
  8
0
 62
     0
 10
2.54835
 20
5.2
 30
0.0
 11
4.8
 21
7.45165
 31
0.0
  0
LINE
  8
0
 62
     0
 10
2.725126
 20
5.2
 30
0.0
 11
4.8
 21
7.274874
 31
0.0
  0
LINE
  8
0
 62
     0
 10
2.901903
 20
5.2
 30
0.0
 11
4.8
 21
7.098097
 31
0.0
  0
LINE
  8
0
 62
     0
 10
3.07868
 20
5.2
 30
0.0
 11
4.8
 21
6.92132
 31
0.0
  0
LINE
  8
0
 62
     0
 10
3.255456
 20
5.2
 30
0.0
 11
4.8
 21
6.744544
 31
0.0
  0
LINE
  8
0
 62
     0
 10
3.432233
 20
5.2
 30
0.0
 11
4.8
 21
6.567767
 31
0.0
  0
LINE
  8
0
 62
     0
 10
3.60901
 20
5.2
 30
0.0
 11
4.8
 21
6.39099
 31
0.0
  0
LINE
  8
0
 62
     0
 10
3.785786
 20
5.2
 30
0.0
 11
4.8
 21
6.214214
 31
0.0
  0
LINE
  8
0
 62
     0
 10
3.962563
 20
5.2
 30
0.0
 11
4.8
 21
6.037437
 31
0.0
  0
LINE
  8
0
 62
     0
 10
4.13934
 20
5.2
 30
0.0
 11
4.8
 21
5.86066
 31
0.0
  0
LINE
  8
0
 62
     0
 10
4.316117
 20
5.2
 30
0.0
 11
4.8
 21
5.683883
 31
0.0
  0
LINE
  8
0
 62
     0
 10
4.492893
 20
5.2
 30
0.0
 11
4.8
 21
5.507107
 31
0.0
  0
LINE
  8
0
 62
     0
 10
4.66967
 20
5.2
 30
0.0
 11
4.8
 21
5.33033
 31
0.0
  0
ENDBLK
  8
0
  0
BLOCK
  8
0
  2
*X6
 70
    65
 10
0.0
 20
0.0
 30
0.0
  3
*X
  0
LINE
  8
0
 62
     0
 10
5.2
 20
6.083883
 30
0.0
 11
7.178252
 21
8.062136
 31
0.0
  0
LINE
  8
0
 62
     0
 10
5.2
 20
6.26066
 30
0.0
 11
7.132421
 21
8.193082
 31
0.0
  0
LINE
  8
0
 62
     0
 10
5.2
 20
6.437437
 30
0.0
 11
7.08659
 21
8.324027
 31
0.0
  0
LINE
  8
0
 62
     0
 10
5.2
 20
6.614214
 30
0.0
 11
7.040759
 21
8.454973
 31
0.0
  0
LINE
  8
0
 62
     0
 10
5.2
 20
6.79099
 30
0.0
 11
6.994928
 21
8.585919
 31
0.0
  0
LINE
  8
0
 62
     0
 10
5.2
 20
6.967767
 30
0.0
 11
6.949097
 21
8.716864
 31
0.0
  0
LINE
  8
0
 62
     0
 10
5.2
 20
7.144544
 30
0.0
 11
6.903266
 21
8.84781
 31
0.0
  0
LINE
  8
0
 62
     0
 10
5.2
 20
7.32132
 30
0.0
 11
6.857435
 21
8.978756
 31
0.0
  0
LINE
  8
0
 62
     0
 10
5.2
 20
7.498097
 30
0.0
 11
6.811604
 21
9.109702
 31
0.0
  0
LINE
  8
0
 62
     0
 10
5.2
 20
7.674874
 30
0.0
 11
6.765773
 21
9.240647
 31
0.0
  0
LINE
  8
0
 62
     0
 10
5.2
 20
7.85165
 30
0.0
 11
6.719942
 21
9.371593
 31
0.0
  0
LINE
  8
0
 62
     0
 10
5.2
 20
8.028427
 30
0.0
 11
6.674111
 21
9.502539
 31
0.0
  0
LINE
  8
0
 62
     0
 10
5.2
 20
8.205204
 30
0.0
 11
6.62828
 21
9.633484
 31
0.0
  0
LINE
  8
0
 62
     0
 10
5.2
 20
8.381981
 30
0.0
 11
6.582449
 21
9.76443
 31
0.0
  0
LINE
  8
0
 62
     0
 10
5.2
 20
8.558757
 30
0.0
 11
6.536619
 21
9.895376
 31
0.0
  0
LINE
  8
0
 62
     0
 10
5.2
 20
8.735534
 30
0.0
 11
6.464466
 21
10.0
 31
0.0
  0
LINE
  8
0
 62
     0
 10
5.2
 20
8.912311
 30
0.0
 11
6.287689
 21
10.0
 31
0.0
  0
LINE
  8
0
 62
     0
 10
5.2
 20
9.089087
 30
0.0
 11
6.110913
 21
10.0
 31
0.0
  0
LINE
  8
0
 62
     0
 10
5.2
 20
9.265864
 30
0.0
 11
5.934136
 21
10.0
 31
0.0
  0
LINE
  8
0
 62
     0
 10
5.2
 20
9.442641
 30
0.0
 11
5.757359
 21
10.0
 31
0.0
  0
LINE
  8
0
 62
     0
 10
5.2
 20
9.619417
 30
0.0
 11
5.580583
 21
10.0
 31
0.0
  0
LINE
  8
0
 62
     0
 10
5.2
 20
9.796194
 30
0.0
 11
5.403806
 21
10.0
 31
0.0
  0
LINE
  8
0
 62
     0
 10
5.2
 20
9.972971
 30
0.0
 11
5.227029
 21
10.0
 31
0.0
  0
LINE
  8
0
 62
     0
 10
5.2
 20
5.907107
 30
0.0
 11
7.224083
 21
7.93119
 31
0.0
  0
LINE
  8
0
 62
     0
 10
5.2
 20
5.73033
 30
0.0
 11
7.269914
 21
7.800245
 31
0.0
  0
LINE
  8
0
 62
     0
 10
5.2
 20
5.553553
 30
0.0
 11
7.315745
 21
7.669299
 31
0.0
  0
LINE
  8
0
 62
     0
 10
5.2
 20
5.376777
 30
0.0
 11
7.361576
 21
7.538353
 31
0.0
  0
LINE
  8
0
 62
     0
 10
5.2
 20
5.2
 30
0.0
 11
7.407407
 21
7.407407
 31
0.0
  0
LINE
  8
0
 62
     0
 10
5.376777
 20
5.2
 30
0.0
 11
7.453238
 21
7.276462
 31
0.0
  0
LINE
  8
0
 62
     0
 10
5.553553
 20
5.2
 30
0.0
 11
7.499069
 21
7.145516
 31
0.0
  0
LINE
  8
0
 62
     0
 10
5.73033
 20
5.2
 30
0.0
 11
7.5449
 21
7.01457
 31
0.0
  0
LINE
  8
0
 62
     0
 10
5.907107
 20
5.2
 30
0.0
 11
7.590731
 21
6.883625
 31
0.0
  0
LINE
  8
0
 62
     0
 10
6.083883
 20
5.2
 30
0.0
 11
7.636562
 21
6.752679
 31
0.0
  0
LINE
  8
0
 62
     0
 10
6.26066
 20
5.2
 30
0.0
 11
7.682393
 21
6.621733
 31
0.0
  0
LINE
  8
0
 62
     0
 10
6.437437
 20
5.2
 30
0.0
 11
7.728224
 21
6.490788
 31
0.0
  0
LINE
  8
0
 62
     0
 10
6.614214
 20
5.2
 30
0.0
 11
7.774055
 21
6.359842
 31
0.0
  0
LINE
  8
0
 62
     0
 10
6.79099
 20
5.2
 30
0.0
 11
7.819886
 21
6.228896
 31
0.0
  0
LINE
  8
0
 62
     0
 10
6.967767
 20
5.2
 30
0.0
 11
7.865717
 21
6.09795
 31
0.0
  0
LINE
  8
0
 62
     0
 10
7.144544
 20
5.2
 30
0.0
 11
7.911548
 21
5.967005
 31
0.0
  0
LINE
  8
0
 62
     0
 10
7.32132
 20
5.2
 30
0.0
 11
7.957379
 21
5.836059
 31
0.0
  0
LINE
  8
0
 62
     0
 10
7.498097
 20
5.2
 30
0.0
 11
8.00321
 21
5.705113
 31
0.0
  0
LINE
  8
0
 62
     0
 10
7.674874
 20
5.2
 30
0.0
 11
8.049041
 21
5.574168
 31
0.0
  0
LINE
  8
0
 62
     0
 10
7.85165
 20
5.2
 30
0.0
 11
8.094872
 21
5.443222
 31
0.0
  0
LINE
  8
0
 62
     0
 10
8.028427
 20
5.2
 30
0.0
 11
8.140703
 21
5.312276
 31
0.0
  0
ENDBLK
  8
0
  0
BLOCK
  8
0
  2
*X7
 70
    65
 10
0.0
 20
0.0
 30
0.0
  3
*X
  0
LINE
  8
0
 62
     0
 10
0.0
 20
0.0
 30
0.0
 11
4.8
 21
4.8
 31
0.0
  0
LINE
  8
0
 62
     0
 10
0.095187
 20
0.271964
 30
0.0
 11
4.623223
 21
4.8
 31
0.0
  0
LINE
  8
0
 62
     0
 10
0.190375
 20
0.543928
 30
0.0
 11
4.446447
 21
4.8
 31
0.0
  0
LINE
  8
0
 62
     0
 10
0.285562
 20
0.815892
 30
0.0
 11
4.26967
 21
4.8
 31
0.0
  0
LINE
  8
0
 62
     0
 10
0.38075
 20
1.087857
 30
0.0
 11
4.092893
 21
4.8
 31
0.0
  0
LINE
  8
0
 62
     0
 10
0.475937
 20
1.359821
 30
0.0
 11
3.916117
 21
4.8
 31
0.0
  0
LINE
  8
0
 62
     0
 10
0.571125
 20
1.631785
 30
0.0
 11
3.73934
 21
4.8
 31
0.0
  0
LINE
  8
0
 62
     0
 10
0.666312
 20
1.903749
 30
0.0
 11
3.562563
 21
4.8
 31
0.0
  0
LINE
  8
0
 62
     0
 10
0.7615
 20
2.175713
 30
0.0
 11
3.385786
 21
4.8
 31
0.0
  0
LINE
  8
0
 62
     0
 10
0.856687
 20
2.447677
 30
0.0
 11
3.20901
 21
4.8
 31
0.0
  0
LINE
  8
0
 62
     0
 10
0.951875
 20
2.719641
 30
0.0
 11
3.032233
 21
4.8
 31
0.0
  0
LINE
  8
0
 62
     0
 10
1.047062
 20
2.991606
 30
0.0
 11
2.855456
 21
4.8
 31
0.0
  0
LINE
  8
0
 62
     0
 10
1.142249
 20
3.26357
 30
0.0
 11
2.67868
 21
4.8
 31
0.0
  0
LINE
  8
0
 62
     0
 10
1.237437
 20
3.535534
 30
0.0
 11
2.501903
 21
4.8
 31
0.0
  0
LINE
  8
0
 62
     0
 10
1.332624
 20
3.807498
 30
0.0
 11
2.325126
 21
4.8
 31
0.0
  0
LINE
  8
0
 62
     0
 10
1.427812
 20
4.079462
 30
0.0
 11
2.14835
 21
4.8
 31
0.0
  0
LINE
  8
0
 62
     0
 10
1.522999
 20
4.351426
 30
0.0
 11
1.971573
 21
4.8
 31
0.0
  0
LINE
  8
0
 62
     0
 10
1.618187
 20
4.62339
 30
0.0
 11
1.794796
 21
4.8
 31
0.0
  0
LINE
  8
0
 62
     0
 10
0.176777
 20
0.0
 30
0.0
 11
4.8
 21
4.623223
 31
0.0
  0
LINE
  8
0
 62
     0
 10
0.353553
 20
0.0
 30
0.0
 11
4.8
 21
4.446447
 31
0.0
  0
LINE
  8
0
 62
     0
 10
0.53033
 20
0.0
 30
0.0
 11
4.8
 21
4.26967
 31
0.0
  0
LINE
  8
0
 62
     0
 10
0.707107
 20
0.0
 30
0.0
 11
4.8
 21
4.092893
 31
0.0
  0
LINE
  8
0
 62
     0
 10
0.883883
 20
0.0
 30
0.0
 11
4.8
 21
3.916117
 31
0.0
  0
LINE
  8
0
 62
     0
 10
1.06066
 20
0.0
 30
0.0
 11
4.8
 21
3.73934
 31
0.0
  0
LINE
  8
0
 62
     0
 10
1.237437
 20
0.0
 30
0.0
 11
3.179842
 21
1.942405
 31
0.0
  0
LINE
  8
0
 62
     0
 10
3.237437
 20
2.0
 30
0.0
 11
4.8
 21
3.562563
 31
0.0
  0
LINE
  8
0
 62
     0
 10
1.414214
 20
0.0
 30
0.0
 11
3.084654
 21
1.670441
 31
0.0
  0
LINE
  8
0
 62
     0
 10
3.414214
 20
2.0
 30
0.0
 11
4.8
 21
3.385786
 31
0.0
  0
LINE
  8
0
 62
     0
 10
1.59099
 20
0.0
 30
0.0
 11
2.989467
 21
1.398477
 31
0.0
  0
LINE
  8
0
 62
     0
 10
3.59099
 20
2.0
 30
0.0
 11
4.8
 21
3.20901
 31
0.0
  0
LINE
  8
0
 62
     0
 10
1.767767
 20
0.0
 30
0.0
 11
2.894279
 21
1.126512
 31
0.0
  0
LINE
  8
0
 62
     0
 10
3.767767
 20
2.0
 30
0.0
 11
4.8
 21
3.032233
 31
0.0
  0
LINE
  8
0
 62
     0
 10
1.944544
 20
0.0
 30
0.0
 11
2.799092
 21
0.854548
 31
0.0
  0
LINE
  8
0
 62
     0
 10
3.944544
 20
2.0
 30
0.0
 11
4.8
 21
2.855456
 31
0.0
  0
LINE
  8
0
 62
     0
 10
2.12132
 20
0.0
 30
0.0
 11
2.703904
 21
0.582584
 31
0.0
  0
LINE
  8
0
 62
     0
 10
4.12132
 20
2.0
 30
0.0
 11
4.8
 21
2.67868
 31
0.0
  0
LINE
  8
0
 62
     0
 10
2.298097
 20
0.0
 30
0.0
 11
2.608717
 21
0.31062
 31
0.0
  0
LINE
  8
0
 62
     0
 10
4.298097
 20
2.0
 30
0.0
 11
4.8
 21
2.501903
 31
0.0
  0
LINE
  8
0
 62
     0
 10
2.474874
 20
0.0
 30
0.0
 11
2.51353
 21
0.038656
 31
0.0
  0
LINE
  8
0
 62
     0
 10
4.474874
 20
2.0
 30
0.0
 11
4.8
 21
2.325126
 31
0.0
  0
LINE
  8
0
 62
     0
 10
4.65165
 20
2.0
 30
0.0
 11
4.8
 21
2.14835
 31
0.0
  0
ENDBLK
  8
0
  0
BLOCK
  8
0
  2
*X8
 70
    65
 10
0.0
 20
0.0
 30
0.0
  3
*X
  0
LINE
  8
0
 62
     0
 10
6.884654
 20
1.75813
 30
0.0
 11
8.736506
 21
3.609982
 31
0.0
  0
LINE
  8
0
 62
     0
 10
6.838823
 20
1.889076
 30
0.0
 11
8.690675
 21
3.740928
 31
0.0
  0
LINE
  8
0
 62
     0
 10
6.772971
 20
2.0
 30
0.0
 11
8.644844
 21
3.871874
 31
0.0
  0
LINE
  8
0
 62
     0
 10
6.596194
 20
2.0
 30
0.0
 11
8.599013
 21
4.002819
 31
0.0
  0
LINE
  8
0
 62
     0
 10
6.419417
 20
2.0
 30
0.0
 11
8.553182
 21
4.133765
 31
0.0
  0
LINE
  8
0
 62
     0
 10
6.242641
 20
2.0
 30
0.0
 11
8.507351
 21
4.264711
 31
0.0
  0
LINE
  8
0
 62
     0
 10
6.065864
 20
2.0
 30
0.0
 11
8.46152
 21
4.395656
 31
0.0
  0
LINE
  8
0
 62
     0
 10
5.889087
 20
2.0
 30
0.0
 11
8.415689
 21
4.526602
 31
0.0
  0
LINE
  8
0
 62
     0
 10
5.712311
 20
2.0
 30
0.0
 11
8.369858
 21
4.657548
 31
0.0
  0
LINE
  8
0
 62
     0
 10
5.535534
 20
2.0
 30
0.0
 11
8.324027
 21
4.788493
 31
0.0
  0
LINE
  8
0
 62
     0
 10
5.358757
 20
2.0
 30
0.0
 11
8.158757
 21
4.8
 31
0.0
  0
LINE
  8
0
 62
     0
 10
5.2
 20
2.018019
 30
0.0
 11
7.981981
 21
4.8
 31
0.0
  0
LINE
  8
0
 62
     0
 10
5.2
 20
2.194796
 30
0.0
 11
7.805204
 21
4.8
 31
0.0
  0
LINE
  8
0
 62
     0
 10
5.2
 20
2.371573
 30
0.0
 11
7.628427
 21
4.8
 31
0.0
  0
LINE
  8
0
 62
     0
 10
5.2
 20
2.54835
 30
0.0
 11
7.45165
 21
4.8
 31
0.0
  0
LINE
  8
0
 62
     0
 10
5.2
 20
2.725126
 30
0.0
 11
7.274874
 21
4.8
 31
0.0
  0
LINE
  8
0
 62
     0
 10
5.2
 20
2.901903
 30
0.0
 11
7.098097
 21
4.8
 31
0.0
  0
LINE
  8
0
 62
     0
 10
5.2
 20
3.07868
 30
0.0
 11
6.92132
 21
4.8
 31
0.0
  0
LINE
  8
0
 62
     0
 10
5.2
 20
3.255456
 30
0.0
 11
6.744544
 21
4.8
 31
0.0
  0
LINE
  8
0
 62
     0
 10
5.2
 20
3.432233
 30
0.0
 11
6.567767
 21
4.8
 31
0.0
  0
LINE
  8
0
 62
     0
 10
5.2
 20
3.60901
 30
0.0
 11
6.39099
 21
4.8
 31
0.0
  0
LINE
  8
0
 62
     0
 10
5.2
 20
3.785786
 30
0.0
 11
6.214214
 21
4.8
 31
0.0
  0
LINE
  8
0
 62
     0
 10
5.2
 20
3.962563
 30
0.0
 11
6.037437
 21
4.8
 31
0.0
  0
LINE
  8
0
 62
     0
 10
5.2
 20
4.13934
 30
0.0
 11
5.86066
 21
4.8
 31
0.0
  0
LINE
  8
0
 62
     0
 10
5.2
 20
4.316117
 30
0.0
 11
5.683883
 21
4.8
 31
0.0
  0
LINE
  8
0
 62
     0
 10
5.2
 20
4.492893
 30
0.0
 11
5.507107
 21
4.8
 31
0.0
  0
LINE
  8
0
 62
     0
 10
5.2
 20
4.66967
 30
0.0
 11
5.33033
 21
4.8
 31
0.0
  0
LINE
  8
0
 62
     0
 10
6.930485
 20
1.627185
 30
0.0
 11
8.782337
 21
3.479036
 31
0.0
  0
LINE
  8
0
 62
     0
 10
6.976316
 20
1.496239
 30
0.0
 11
8.828168
 21
3.348091
 31
0.0
  0
LINE
  8
0
 62
     0
 10
7.022147
 20
1.365293
 30
0.0
 11
8.873999
 21
3.217145
 31
0.0
  0
LINE
  8
0
 62
     0
 10
7.067978
 20
1.234347
 30
0.0
 11
8.91983
 21
3.086199
 31
0.0
  0
LINE
  8
0
 62
     0
 10
7.113809
 20
1.103402
 30
0.0
 11
8.965661
 21
2.955254
 31
0.0
  0
LINE
  8
0
 62
     0
 10
7.15964
 20
0.972456
 30
0.0
 11
9.011492
 21
2.824308
 31
0.0
  0
LINE
  8
0
 62
     0
 10
7.205471
 20
0.84151
 30
0.0
 11
9.057323
 21
2.693362
 31
0.0
  0
LINE
  8
0
 62
     0
 10
7.251302
 20
0.710565
 30
0.0
 11
9.103154
 21
2.562416
 31
0.0
  0
LINE
  8
0
 62
     0
 10
7.297133
 20
0.579619
 30
0.0
 11
9.148985
 21
2.431471
 31
0.0
  0
LINE
  8
0
 62
     0
 10
7.342964
 20
0.448673
 30
0.0
 11
9.194816
 21
2.300525
 31
0.0
  0
LINE
  8
0
 62
     0
 10
7.388795
 20
0.317728
 30
0.0
 11
9.240647
 21
2.169579
 31
0.0
  0
LINE
  8
0
 62
     0
 10
7.434626
 20
0.186782
 30
0.0
 11
9.286478
 21
2.038634
 31
0.0
  0
LINE
  8
0
 62
     0
 10
7.480457
 20
0.055836
 30
0.0
 11
9.332309
 21
1.907688
 31
0.0
  0
LINE
  8
0
 62
     0
 10
7.601398
 20
0.0
 30
0.0
 11
9.37814
 21
1.776742
 31
0.0
  0
LINE
  8
0
 62
     0
 10
7.778175
 20
0.0
 30
0.0
 11
9.423971
 21
1.645797
 31
0.0
  0
LINE
  8
0
 62
     0
 10
7.954951
 20
0.0
 30
0.0
 11
9.469802
 21
1.514851
 31
0.0
  0
LINE
  8
0
 62
     0
 10
8.131728
 20
0.0
 30
0.0
 11
9.515633
 21
1.383905
 31
0.0
  0
LINE
  8
0
 62
     0
 10
8.308505
 20
0.0
 30
0.0
 11
9.561464
 21
1.252959
 31
0.0
  0
LINE
  8
0
 62
     0
 10
8.485281
 20
0.0
 30
0.0
 11
9.607295
 21
1.122014
 31
0.0
  0
LINE
  8
0
 62
     0
 10
8.662058
 20
0.0
 30
0.0
 11
9.653126
 21
0.991068
 31
0.0
  0
LINE
  8
0
 62
     0
 10
8.838835
 20
0.0
 30
0.0
 11
9.698957
 21
0.860122
 31
0.0
  0
LINE
  8
0
 62
     0
 10
9.015611
 20
0.0
 30
0.0
 11
9.744788
 21
0.729177
 31
0.0
  0
LINE
  8
0
 62
     0
 10
9.192388
 20
0.0
 30
0.0
 11
9.790619
 21
0.598231
 31
0.0
  0
LINE
  8
0
 62
     0
 10
9.369165
 20
0.0
 30
0.0
 11
9.83645
 21
0.467285
 31
0.0
  0
LINE
  8
0
 62
     0
 10
9.545942
 20
0.0
 30
0.0
 11
9.882281
 21
0.33634
 31
0.0
  0
LINE
  8
0
 62
     0
 10
9.722718
 20
0.0
 30
0.0
 11
9.928112
 21
0.205394
 31
0.0
  0
LINE
  8
0
 62
     0
 10
9.899495
 20
0.0
 30
0.0
 11
9.973943
 21
0.074448
 31
0.0
  0
ENDBLK
  8
0
  0
BLOCK
  8
0
  2
*X9
 70
    65
 10
0.0
 20
0.0
 30
0.0
  3
*X
  0
LINE
  8
0
 62
     0
 10
10.7
 20
6.280583
 30
0.0
 11
13.5
 21
9.080583
 31
0.0
  0
LINE
  8
0
 62
     0
 10
10.7
 20
6.457359
 30
0.0
 11
13.5
 21
9.257359
 31
0.0
  0
LINE
  8
0
 62
     0
 10
10.7
 20
6.634136
 30
0.0
 11
13.5
 21
9.434136
 31
0.0
  0
LINE
  8
0
 62
     0
 10
10.7
 20
6.810913
 30
0.0
 11
13.5
 21
9.610913
 31
0.0
  0
LINE
  8
0
 62
     0
 10
10.7
 20
6.987689
 30
0.0
 11
13.5
 21
9.787689
 31
0.0
  0
LINE
  8
0
 62
     0
 10
10.7
 20
7.164466
 30
0.0
 11
13.5
 21
9.964466
 31
0.0
  0
LINE
  8
0
 62
     0
 10
10.7
 20
7.341243
 30
0.0
 11
13.358757
 21
10.0
 31
0.0
  0
LINE
  8
0
 62
     0
 10
10.7
 20
7.518019
 30
0.0
 11
13.181981
 21
10.0
 31
0.0
  0
LINE
  8
0
 62
     0
 10
10.7
 20
7.694796
 30
0.0
 11
13.005204
 21
10.0
 31
0.0
  0
LINE
  8
0
 62
     0
 10
10.7
 20
7.871573
 30
0.0
 11
12.828427
 21
10.0
 31
0.0
  0
LINE
  8
0
 62
     0
 10
10.7
 20
8.04835
 30
0.0
 11
12.65165
 21
10.0
 31
0.0
  0
LINE
  8
0
 62
     0
 10
10.7
 20
8.225126
 30
0.0
 11
12.474874
 21
10.0
 31
0.0
  0
LINE
  8
0
 62
     0
 10
10.7
 20
8.401903
 30
0.0
 11
12.298097
 21
10.0
 31
0.0
  0
LINE
  8
0
 62
     0
 10
10.7
 20
8.57868
 30
0.0
 11
12.12132
 21
10.0
 31
0.0
  0
LINE
  8
0
 62
     0
 10
10.7
 20
8.755456
 30
0.0
 11
11.944544
 21
10.0
 31
0.0
  0
LINE
  8
0
 62
     0
 10
10.7
 20
8.932233
 30
0.0
 11
11.767767
 21
10.0
 31
0.0
  0
LINE
  8
0
 62
     0
 10
10.7
 20
9.10901
 30
0.0
 11
11.59099
 21
10.0
 31
0.0
  0
LINE
  8
0
 62
     0
 10
10.7
 20
9.285786
 30
0.0
 11
11.414214
 21
10.0
 31
0.0
  0
LINE
  8
0
 62
     0
 10
10.7
 20
9.462563
 30
0.0
 11
11.237437
 21
10.0
 31
0.0
  0
LINE
  8
0
 62
     0
 10
10.7
 20
9.63934
 30
0.0
 11
11.06066
 21
10.0
 31
0.0
  0
LINE
  8
0
 62
     0
 10
10.7
 20
9.816117
 30
0.0
 11
10.883883
 21
10.0
 31
0.0
  0
LINE
  8
0
 62
     0
 10
10.7
 20
9.992893
 30
0.0
 11
10.707107
 21
10.0
 31
0.0
  0
LINE
  8
0
 62
     0
 10
10.7
 20
6.103806
 30
0.0
 11
13.5
 21
8.903806
 31
0.0
  0
LINE
  8
0
 62
     0
 10
10.7
 20
5.927029
 30
0.0
 11
13.5
 21
8.727029
 31
0.0
  0
LINE
  8
0
 62
     0
 10
10.7
 20
5.750253
 30
0.0
 11
13.5
 21
8.550253
 31
0.0
  0
LINE
  8
0
 62
     0
 10
10.7
 20
5.573476
 30
0.0
 11
13.5
 21
8.373476
 31
0.0
  0
LINE
  8
0
 62
     0
 10
10.7
 20
5.396699
 30
0.0
 11
13.5
 21
8.196699
 31
0.0
  0
LINE
  8
0
 62
     0
 10
10.7
 20
5.219922
 30
0.0
 11
13.5
 21
8.019922
 31
0.0
  0
LINE
  8
0
 62
     0
 10
10.856854
 20
5.2
 30
0.0
 11
13.5
 21
7.843146
 31
0.0
  0
LINE
  8
0
 62
     0
 10
11.033631
 20
5.2
 30
0.0
 11
13.5
 21
7.666369
 31
0.0
  0
LINE
  8
0
 62
     0
 10
11.210408
 20
5.2
 30
0.0
 11
13.5
 21
7.489592
 31
0.0
  0
LINE
  8
0
 62
     0
 10
11.387184
 20
5.2
 30
0.0
 11
13.5
 21
7.312816
 31
0.0
  0
LINE
  8
0
 62
     0
 10
11.563961
 20
5.2
 30
0.0
 11
13.5
 21
7.136039
 31
0.0
  0
LINE
  8
0
 62
     0
 10
11.740738
 20
5.2
 30
0.0
 11
13.5
 21
6.959262
 31
0.0
  0
LINE
  8
0
 62
     0
 10
11.917514
 20
5.2
 30
0.0
 11
13.5
 21
6.782486
 31
0.0
  0
LINE
  8
0
 62
     0
 10
12.094291
 20
5.2
 30
0.0
 11
13.5
 21
6.605709
 31
0.0
  0
LINE
  8
0
 62
     0
 10
12.271068
 20
5.2
 30
0.0
 11
13.5
 21
6.428932
 31
0.0
  0
LINE
  8
0
 62
     0
 10
12.447845
 20
5.2
 30
0.0
 11
13.5
 21
6.252155
 31
0.0
  0
LINE
  8
0
 62
     0
 10
12.624621
 20
5.2
 30
0.0
 11
13.5
 21
6.075379
 31
0.0
  0
LINE
  8
0
 62
     0
 10
12.801398
 20
5.2
 30
0.0
 11
13.5
 21
5.898602
 31
0.0
  0
LINE
  8
0
 62
     0
 10
12.978175
 20
5.2
 30
0.0
 11
13.5
 21
5.721825
 31
0.0
  0
LINE
  8
0
 62
     0
 10
13.154951
 20
5.2
 30
0.0
 11
13.5
 21
5.545049
 31
0.0
  0
LINE
  8
0
 62
     0
 10
13.331728
 20
5.2
 30
0.0
 11
13.5
 21
5.368272
 31
0.0
  0
ENDBLK
  8
0
  0
BLOCK
  8
0
  2
*X10
 70
    65
 10
0.0
 20
0.0
 30
0.0
  3
*X
  0
LINE
  8
0
 62
     0
 10
10.7
 20
1.154058
 30
0.0
 11
13.5
 21
3.954058
 31
0.0
  0
LINE
  8
0
 62
     0
 10
10.7
 20
1.330835
 30
0.0
 11
13.5
 21
4.130835
 31
0.0
  0
LINE
  8
0
 62
     0
 10
10.7
 20
1.507612
 30
0.0
 11
13.5
 21
4.307612
 31
0.0
  0
LINE
  8
0
 62
     0
 10
10.7
 20
1.684389
 30
0.0
 11
13.5
 21
4.484389
 31
0.0
  0
LINE
  8
0
 62
     0
 10
10.7
 20
1.861165
 30
0.0
 11
13.5
 21
4.661165
 31
0.0
  0
LINE
  8
0
 62
     0
 10
10.7
 20
2.037942
 30
0.0
 11
13.462058
 21
4.8
 31
0.0
  0
LINE
  8
0
 62
     0
 10
10.7
 20
2.214719
 30
0.0
 11
13.285281
 21
4.8
 31
0.0
  0
LINE
  8
0
 62
     0
 10
10.7
 20
2.391495
 30
0.0
 11
13.108505
 21
4.8
 31
0.0
  0
LINE
  8
0
 62
     0
 10
10.7
 20
2.568272
 30
0.0
 11
12.931728
 21
4.8
 31
0.0
  0
LINE
  8
0
 62
     0
 10
10.7
 20
2.745049
 30
0.0
 11
12.754951
 21
4.8
 31
0.0
  0
LINE
  8
0
 62
     0
 10
10.7
 20
2.921825
 30
0.0
 11
12.578175
 21
4.8
 31
0.0
  0
LINE
  8
0
 62
     0
 10
10.7
 20
3.098602
 30
0.0
 11
12.401398
 21
4.8
 31
0.0
  0
LINE
  8
0
 62
     0
 10
10.7
 20
3.275379
 30
0.0
 11
12.224621
 21
4.8
 31
0.0
  0
LINE
  8
0
 62
     0
 10
10.7
 20
3.452155
 30
0.0
 11
12.047845
 21
4.8
 31
0.0
  0
LINE
  8
0
 62
     0
 10
10.7
 20
3.628932
 30
0.0
 11
11.871068
 21
4.8
 31
0.0
  0
LINE
  8
0
 62
     0
 10
10.7
 20
3.805709
 30
0.0
 11
11.694291
 21
4.8
 31
0.0
  0
LINE
  8
0
 62
     0
 10
10.7
 20
3.982486
 30
0.0
 11
11.517514
 21
4.8
 31
0.0
  0
LINE
  8
0
 62
     0
 10
10.7
 20
4.159262
 30
0.0
 11
11.340738
 21
4.8
 31
0.0
  0
LINE
  8
0
 62
     0
 10
10.7
 20
4.336039
 30
0.0
 11
11.163961
 21
4.8
 31
0.0
  0
LINE
  8
0
 62
     0
 10
10.7
 20
4.512816
 30
0.0
 11
10.987184
 21
4.8
 31
0.0
  0
LINE
  8
0
 62
     0
 10
10.7
 20
4.689592
 30
0.0
 11
10.810408
 21
4.8
 31
0.0
  0
LINE
  8
0
 62
     0
 10
10.7
 20
0.977282
 30
0.0
 11
13.5
 21
3.777282
 31
0.0
  0
LINE
  8
0
 62
     0
 10
10.7
 20
0.800505
 30
0.0
 11
13.5
 21
3.600505
 31
0.0
  0
LINE
  8
0
 62
     0
 10
10.7
 20
0.623728
 30
0.0
 11
13.5
 21
3.423728
 31
0.0
  0
LINE
  8
0
 62
     0
 10
10.7
 20
0.446952
 30
0.0
 11
13.5
 21
3.246952
 31
0.0
  0
LINE
  8
0
 62
     0
 10
10.7
 20
0.270175
 30
0.0
 11
13.5
 21
3.070175
 31
0.0
  0
LINE
  8
0
 62
     0
 10
10.7
 20
0.093398
 30
0.0
 11
13.5
 21
2.893398
 31
0.0
  0
LINE
  8
0
 62
     0
 10
10.783378
 20
0.0
 30
0.0
 11
13.5
 21
2.716622
 31
0.0
  0
LINE
  8
0
 62
     0
 10
10.960155
 20
0.0
 30
0.0
 11
13.5
 21
2.539845
 31
0.0
  0
LINE
  8
0
 62
     0
 10
11.136932
 20
0.0
 30
0.0
 11
13.5
 21
2.363068
 31
0.0
  0
LINE
  8
0
 62
     0
 10
11.313708
 20
0.0
 30
0.0
 11
13.5
 21
2.186292
 31
0.0
  0
LINE
  8
0
 62
     0
 10
11.490485
 20
0.0
 30
0.0
 11
13.5
 21
2.009515
 31
0.0
  0
LINE
  8
0
 62
     0
 10
11.667262
 20
0.0
 30
0.0
 11
13.5
 21
1.832738
 31
0.0
  0
LINE
  8
0
 62
     0
 10
11.844039
 20
0.0
 30
0.0
 11
13.5
 21
1.655961
 31
0.0
  0
LINE
  8
0
 62
     0
 10
12.020815
 20
0.0
 30
0.0
 11
13.5
 21
1.479185
 31
0.0
  0
LINE
  8
0
 62
     0
 10
12.197592
 20
0.0
 30
0.0
 11
13.5
 21
1.302408
 31
0.0
  0
LINE
  8
0
 62
     0
 10
12.374369
 20
0.0
 30
0.0
 11
13.5
 21
1.125631
 31
0.0
  0
LINE
  8
0
 62
     0
 10
12.551145
 20
0.0
 30
0.0
 11
13.5
 21
0.948855
 31
0.0
  0
LINE
  8
0
 62
     0
 10
12.727922
 20
0.0
 30
0.0
 11
13.5
 21
0.772078
 31
0.0
  0
LINE
  8
0
 62
     0
 10
12.904699
 20
0.0
 30
0.0
 11
13.5
 21
0.595301
 31
0.0
  0
LINE
  8
0
 62
     0
 10
13.081475
 20
0.0
 30
0.0
 11
13.5
 21
0.418525
 31
0.0
  0
LINE
  8
0
 62
     0
 10
13.258252
 20
0.0
 30
0.0
 11
13.5
 21
0.241748
 31
0.0
  0
LINE
  8
0
 62
     0
 10
13.435029
 20
0.0
 30
0.0
 11
13.5
 21
0.064971
 31
0.0
  0
ENDBLK
  8
0
  0
BLOCK
  8
0
  2
*X11
 70
    65
 10
0.0
 20
0.0
 30
0.0
  3
*X
  0
LINE
  8
0
 62
     0
 10
13.9
 20
6.298602
 30
0.0
 11
16.582995
 21
8.981597
 31
0.0
  0
LINE
  8
0
 62
     0
 10
13.9
 20
6.475379
 30
0.0
 11
16.510503
 21
9.085882
 31
0.0
  0
LINE
  8
0
 62
     0
 10
13.9
 20
6.652155
 30
0.0
 11
16.432927
 21
9.185083
 31
0.0
  0
LINE
  8
0
 62
     0
 10
13.9
 20
6.828932
 30
0.0
 11
16.350372
 21
9.279304
 31
0.0
  0
LINE
  8
0
 62
     0
 10
13.9
 20
7.005709
 30
0.0
 11
16.262892
 21
9.368601
 31
0.0
  0
LINE
  8
0
 62
     0
 10
13.9
 20
7.182486
 30
0.0
 11
16.170495
 21
9.452981
 31
0.0
  0
LINE
  8
0
 62
     0
 10
13.9
 20
7.359262
 30
0.0
 11
16.073145
 21
9.532407
 31
0.0
  0
LINE
  8
0
 62
     0
 10
13.9
 20
7.536039
 30
0.0
 11
15.970755
 21
9.606794
 31
0.0
  0
LINE
  8
0
 62
     0
 10
13.9
 20
7.712816
 30
0.0
 11
15.863189
 21
9.676004
 31
0.0
  0
LINE
  8
0
 62
     0
 10
13.9
 20
7.889592
 30
0.0
 11
15.75025
 21
9.739843
 31
0.0
  0
LINE
  8
0
 62
     0
 10
13.9
 20
8.066369
 30
0.0
 11
15.631675
 21
9.798044
 31
0.0
  0
LINE
  8
0
 62
     0
 10
13.9
 20
8.243146
 30
0.0
 11
15.50711
 21
9.850256
 31
0.0
  0
LINE
  8
0
 62
     0
 10
13.9
 20
8.419922
 30
0.0
 11
15.376096
 21
9.896018
 31
0.0
  0
LINE
  8
0
 62
     0
 10
13.9
 20
8.596699
 30
0.0
 11
15.238027
 21
9.934726
 31
0.0
  0
LINE
  8
0
 62
     0
 10
13.9
 20
8.773476
 30
0.0
 11
15.092096
 21
9.965572
 31
0.0
  0
LINE
  8
0
 62
     0
 10
13.9
 20
8.950253
 30
0.0
 11
14.937209
 21
9.987461
 31
0.0
  0
LINE
  8
0
 62
     0
 10
13.9
 20
9.127029
 30
0.0
 11
14.771824
 21
9.998853
 31
0.0
  0
LINE
  8
0
 62
     0
 10
13.9
 20
9.303806
 30
0.0
 11
14.596193
 21
9.999999
 31
0.0
  0
LINE
  8
0
 62
     0
 10
13.9
 20
9.480583
 30
0.0
 11
14.419417
 21
9.999999
 31
0.0
  0
LINE
  8
0
 62
     0
 10
13.9
 20
9.657359
 30
0.0
 11
14.24264
 21
10.0
 31
0.0
  0
LINE
  8
0
 62
     0
 10
13.9
 20
9.834136
 30
0.0
 11
14.065864
 21
10.0
 31
0.0
  0
LINE
  8
0
 62
     0
 10
13.9
 20
6.121825
 30
0.0
 11
16.650245
 21
8.872071
 31
0.0
  0
LINE
  8
0
 62
     0
 10
13.9
 20
5.945049
 30
0.0
 11
16.712035
 21
8.757083
 31
0.0
  0
LINE
  8
0
 62
     0
 10
13.9
 20
5.768272
 30
0.0
 11
16.768067
 21
8.636339
 31
0.0
  0
LINE
  8
0
 62
     0
 10
13.9
 20
5.591495
 30
0.0
 11
16.817955
 21
8.509451
 31
0.0
  0
LINE
  8
0
 62
     0
 10
13.9
 20
5.414719
 30
0.0
 11
16.861189
 21
8.375908
 31
0.0
  0
LINE
  8
0
 62
     0
 10
13.9
 20
5.237942
 30
0.0
 11
16.897097
 21
8.235039
 31
0.0
  0
LINE
  8
0
 62
     0
 10
14.038835
 20
5.2
 30
0.0
 11
16.924779
 21
8.085944
 31
0.0
  0
LINE
  8
0
 62
     0
 10
14.215611
 20
5.2
 30
0.0
 11
16.942997
 21
7.927385
 31
0.0
  0
LINE
  8
0
 62
     0
 10
14.392388
 20
5.2
 30
0.0
 11
16.949987
 21
7.757599
 31
0.0
  0
LINE
  8
0
 62
     0
 10
14.569165
 20
5.2
 30
0.0
 11
16.943101
 21
7.573936
 31
0.0
  0
LINE
  8
0
 62
     0
 10
14.745942
 20
5.2
 30
0.0
 11
16.918037
 21
7.372095
 31
0.0
  0
LINE
  8
0
 62
     0
 10
14.922718
 20
5.2
 30
0.0
 11
16.866909
 21
7.144191
 31
0.0
  0
LINE
  8
0
 62
     0
 10
15.099495
 20
5.2
 30
0.0
 11
16.771715
 21
6.87222
 31
0.0
  0
LINE
  8
0
 62
     0
 10
15.276272
 20
5.2
 30
0.0
 11
15.847951
 21
5.77168
 31
0.0
  0
LINE
  8
0
 62
     0
 10
15.96673
 20
5.890458
 30
0.0
 11
16.559542
 21
6.48327
 31
0.0
  0
LINE
  8
0
 62
     0
 10
15.453048
 20
5.2
 30
0.0
 11
15.970661
 21
5.717613
 31
0.0
  0
LINE
  8
0
 62
     0
 10
15.629825
 20
5.2
 30
0.0
 11
16.088934
 21
5.659109
 31
0.0
  0
LINE
  8
0
 62
     0
 10
15.806602
 20
5.2
 30
0.0
 11
16.202964
 21
5.596363
 31
0.0
  0
LINE
  8
0
 62
     0
 10
15.983378
 20
5.2
 30
0.0
 11
16.312909
 21
5.529531
 31
0.0
  0
LINE
  8
0
 62
     0
 10
16.160155
 20
5.2
 30
0.0
 11
16.418895
 21
5.45874
 31
0.0
  0
LINE
  8
0
 62
     0
 10
16.336932
 20
5.2
 30
0.0
 11
16.521021
 21
5.384089
 31
0.0
  0
LINE
  8
0
 62
     0
 10
16.513708
 20
5.2
 30
0.0
 11
16.619363
 21
5.305655
 31
0.0
  0
LINE
  8
0
 62
     0
 10
16.690485
 20
5.2
 30
0.0
 11
16.713975
 21
5.22349
 31
0.0
  0
ENDBLK
  8
0
  0
BLOCK
  8
0
  2
*X12
 70
    65
 10
0.0
 20
0.0
 30
0.0
  3
*X
  0
LINE
  8
0
 62
     0
 10
13.9
 20
0.818525
 30
0.0
 11
17.39645
 21
4.314974
 31
0.0
  0
LINE
  8
0
 62
     0
 10
13.9
 20
0.995301
 30
0.0
 11
17.336354
 21
4.431655
 31
0.0
  0
LINE
  8
0
 62
     0
 10
13.9
 20
1.172078
 30
0.0
 11
17.272078
 21
4.544156
 31
0.0
  0
LINE
  8
0
 62
     0
 10
13.9
 20
1.348855
 30
0.0
 11
17.203766
 21
4.652621
 31
0.0
  0
LINE
  8
0
 62
     0
 10
13.9
 20
1.525631
 30
0.0
 11
17.131535
 21
4.757167
 31
0.0
  0
LINE
  8
0
 62
     0
 10
13.9
 20
1.702408
 30
0.0
 11
16.997592
 21
4.8
 31
0.0
  0
LINE
  8
0
 62
     0
 10
13.9
 20
1.879185
 30
0.0
 11
16.820815
 21
4.8
 31
0.0
  0
LINE
  8
0
 62
     0
 10
13.9
 20
2.055961
 30
0.0
 11
16.644039
 21
4.8
 31
0.0
  0
LINE
  8
0
 62
     0
 10
13.9
 20
2.232738
 30
0.0
 11
16.467262
 21
4.8
 31
0.0
  0
LINE
  8
0
 62
     0
 10
13.9
 20
2.409515
 30
0.0
 11
16.290485
 21
4.8
 31
0.0
  0
LINE
  8
0
 62
     0
 10
13.9
 20
2.586292
 30
0.0
 11
16.113708
 21
4.8
 31
0.0
  0
LINE
  8
0
 62
     0
 10
13.9
 20
2.763068
 30
0.0
 11
15.936932
 21
4.8
 31
0.0
  0
LINE
  8
0
 62
     0
 10
13.9
 20
2.939845
 30
0.0
 11
15.760155
 21
4.8
 31
0.0
  0
LINE
  8
0
 62
     0
 10
13.9
 20
3.116622
 30
0.0
 11
15.583378
 21
4.8
 31
0.0
  0
LINE
  8
0
 62
     0
 10
13.9
 20
3.293398
 30
0.0
 11
15.406602
 21
4.8
 31
0.0
  0
LINE
  8
0
 62
     0
 10
13.9
 20
3.470175
 30
0.0
 11
15.229825
 21
4.8
 31
0.0
  0
LINE
  8
0
 62
     0
 10
13.9
 20
3.646952
 30
0.0
 11
15.053048
 21
4.8
 31
0.0
  0
LINE
  8
0
 62
     0
 10
13.9
 20
3.823728
 30
0.0
 11
14.876272
 21
4.8
 31
0.0
  0
LINE
  8
0
 62
     0
 10
13.9
 20
4.000505
 30
0.0
 11
14.699495
 21
4.8
 31
0.0
  0
LINE
  8
0
 62
     0
 10
13.9
 20
4.177282
 30
0.0
 11
14.522718
 21
4.8
 31
0.0
  0
LINE
  8
0
 62
     0
 10
13.9
 20
4.354058
 30
0.0
 11
14.345942
 21
4.8
 31
0.0
  0
LINE
  8
0
 62
     0
 10
13.9
 20
4.530835
 30
0.0
 11
14.169165
 21
4.8
 31
0.0
  0
LINE
  8
0
 62
     0
 10
13.9
 20
4.707612
 30
0.0
 11
13.992388
 21
4.8
 31
0.0
  0
LINE
  8
0
 62
     0
 10
13.9
 20
0.641748
 30
0.0
 11
17.452185
 21
4.193933
 31
0.0
  0
LINE
  8
0
 62
     0
 10
13.9
 20
0.464971
 30
0.0
 11
17.503339
 21
4.068311
 31
0.0
  0
LINE
  8
0
 62
     0
 10
13.9
 20
0.288194
 30
0.0
 11
17.549642
 21
3.937837
 31
0.0
  0
LINE
  8
0
 62
     0
 10
13.9
 20
0.111418
 30
0.0
 11
17.590762
 21
3.80218
 31
0.0
  0
LINE
  8
0
 62
     0
 10
13.965359
 20
0.0
 30
0.0
 11
17.62629
 21
3.660931
 31
0.0
  0
LINE
  8
0
 62
     0
 10
14.142136
 20
0.000001
 30
0.0
 11
17.655713
 21
3.513577
 31
0.0
  0
LINE
  8
0
 62
     0
 10
14.318913
 20
0.000001
 30
0.0
 11
17.678385
 21
3.359473
 31
0.0
  0
LINE
  8
0
 62
     0
 10
14.49569
 20
0.000001
 30
0.0
 11
17.693473
 21
3.197784
 31
0.0
  0
LINE
  8
0
 62
     0
 10
14.672467
 20
0.000002
 30
0.0
 11
17.699875
 21
3.027409
 31
0.0
  0
LINE
  8
0
 62
     0
 10
14.853154
 20
0.003912
 30
0.0
 11
17.696088
 21
2.846846
 31
0.0
  0
LINE
  8
0
 62
     0
 10
15.046044
 20
0.020025
 30
0.0
 11
17.679975
 21
2.653956
 31
0.0
  0
LINE
  8
0
 62
     0
 10
15.254483
 20
0.051687
 30
0.0
 11
17.648313
 21
2.445517
 31
0.0
  0
LINE
  8
0
 62
     0
 10
15.483762
 20
0.10419
 30
0.0
 11
17.59581
 21
2.216238
 31
0.0
  0
LINE
  8
0
 62
     0
 10
15.743786
 20
0.187437
 30
0.0
 11
17.512563
 21
1.956214
 31
0.0
  0
LINE
  8
0
 62
     0
 10
16.058176
 20
0.32505
 30
0.0
 11
17.37495
 21
1.641824
 31
0.0
  0
LINE
  8
0
 62
     0
 10
16.54193
 20
0.632028
 30
0.0
 11
17.067972
 21
1.15807
 31
0.0
  0
ENDBLK
  8
0
  0
BLOCK
  8
0
  2
BLC15
 70
    64
 10
0.0
 20
0.0
 30
0.0
  3
BLC15
  0
LINE
  8
0
  6
CONTINUOUS
 10
0.142084
 20
3.490022
 30
0.0
 11
0.142084
 21
0.844365
 31
0.0
  0
LINE
  8
0
  6
CONTINUOUS
 10
-0.461611
 20
-0.937188
 30
0.0
 11
0.745779
 21
-0.937188
 31
0.0
  0
LINE
  8
0
  6
CONTINUOUS
 10
-0.894108
 20
-0.049675
 30
0.0
 11
1.169267
 21
-0.049675
 31
0.0
  0
LINE
  8
0
  6
CONTINUOUS
 10
-1.389679
 20
0.844365
 30
0.0
 11
1.673848
 21
0.844365
 31
0.0
  0
ENDBLK
  8
0
  0
BLOCK
  8
0
  2
BLC55
 70
    64
 10
0.0
 20
0.0
 30
0.0
  3
BLC55
  0
INSERT
  8
SWEDEN
  6
CENTER
  2
BLC5
 10
0.087066
 20
-0.756831
 30
0.0
 41
0.6
 42
0.6
 43
0.6
  0
ENDBLK
  8
0
  0
BLOCK
  8
0
  2
BLC5
 70
    64
 10
0.0
 20
0.0
 30
0.0
  3
BLC5
  0
TEXT
  8
0
 10
-3.043704
 20
-6.645912
 30
0.0
 40
3.2
  1
PE
  0
LINE
  8
0
 10
-2.946392
 20
1.181176
 30
0.0
 11
2.135458
 21
1.181176
 31
0.0
  0
LINE
  8
0
 10
-0.48656
 20
2.238362
 30
0.0
 11
-0.48656
 21
6.930438
 31
0.0
  0
LINE
  8
0
 10
-1.973271
 20
0.065258
 30
0.0
 11
1.225411
 21
0.065258
 31
0.0
  0
LINE
  8
0
 10
2.685091
 20
2.238362
 30
0.0
 11
1.68494
 21
2.238362
 31
0.0
  0
LINE
  8
0
 10
-3.505035
 20
2.238362
 30
0.0
 11
2.649049
 21
2.238362
 31
0.0
  0
CIRCLE
  8
0
 10
-0.47755
 20
1.422632
 30
0.0
 40
3.804563
  0
ENDBLK
  8
0
  0
BLOCK
  8
0
  2
BLC43
 70
    64
 10
0.0
 20
0.0
 30
0.0
  3
BLC43
  0
TEXT
  8
SWEDEN2
  6
CONTINUOUS
 10
-0.646672
 20
-0.986365
 30
0.0
 40
2.0
  1
+
  0
ENDBLK
  8
0
  0
BLOCK
  8
0
  2
BLC42
 70
    64
 10
0.0
 20
0.0
 30
0.0
  3
BLC42
  0
TEXT
  8
SWEDEN2
  6
CONTINUOUS
 10
-0.655237
 20
-0.99442
 30
0.0
 40
2.0
  1
-
  0
ENDBLK
  8
0
  0
BLOCK
  8
0
  2
BLC44
 70
    64
 10
0.0
 20
0.0
 30
0.0
  3
BLC44
  0
LINE
  8
HEL035
 10
-2.520993
 20
1.697877
 30
0.0
 11
1.479007
 21
1.697877
 31
0.0
  0
INSERT
  8
HEL035
  2
WKU130
 10
-2.181043
 20
-0.027675
 30
0.0
 41
0.8
 42
0.8
 43
0.8
  0
ENDBLK
  8
0
  0
BLOCK
  8
0
  2
B39
 70
    64
 10
0.0
 20
0.0
 30
0.0
  3
B39
  0
LINE
  8
0
 10
-10.0
 20
2.5
 30
0.0
 11
-11.519867
 21
2.5
 31
0.0
  0
ARC
  8
0
 10
-9.934151
 20
3.75
 30
0.0
 40
1.251733
 50
266.984476
 51
93.015524
  0
LINE
  8
0
 10
-10.0
 20
5.0
 30
0.0
 11
-11.519867
 21
5.0
 31
0.0
  0
LINE
  8
0
 10
-10.0
 20
7.5
 30
0.0
 11
-11.519867
 21
7.5
 31
0.0
  0
ARC
  8
0
 10
-9.934151
 20
6.25
 30
0.0
 40
1.251733
 50
266.984476
 51
93.015524
  0
LINE
  8
0
 10
-5.0
 20
0.0
 30
0.0
 11
-2.5
 21
0.0
 31
0.0
  0
ARC
  8
0
 10
-5.065849
 20
1.25
 30
0.0
 40
1.251733
 50
86.984476
 51
273.015524
  0
ARC
  8
0
 10
-5.065849
 20
3.75
 30
0.0
 40
1.251733
 50
86.984476
 51
273.015524
  0
LINE
  8
0
 10
-5.0
 20
2.5
 30
0.0
 11
-2.5
 21
2.5
 31
0.0
  0
LINE
  8
0
 10
-5.0
 20
5.0
 30
0.0
 11
-2.5
 21
5.0
 31
0.0
  0
LINE
  8
0
 10
-2.5
 20
5.0
 30
0.0
 11
0.0
 21
5.0
 31
0.0
  0
LINE
  8
0
 10
-2.5
 20
0.0
 30
0.0
 11
0.0
 21
0.0
 31
0.0
  0
LINE
  8
0
 10
-2.5
 20
5.0
 30
0.0
 11
0.0
 21
5.0
 31
0.0
  0
LINE
  8
0
 10
-2.5
 20
10.0
 30
0.0
 11
0.0
 21
10.0
 31
0.0
  0
LINE
  8
0
 10
-5.0
 20
10.0
 30
0.0
 11
-2.5
 21
10.0
 31
0.0
  0
LINE
  8
0
 10
-5.0
 20
7.5
 30
0.0
 11
-2.5
 21
7.5
 31
0.0
  0
ARC
  8
0
 10
-5.065849
 20
8.75
 30
0.0
 40
1.251733
 50
86.984476
 51
273.015524
  0
ARC
  8
0
 10
-5.065849
 20
6.25
 30
0.0
 40
1.251733
 50
86.984476
 51
273.015524
  0
LINE
  8
0
 10
-5.0
 20
5.0
 30
0.0
 11
-2.5
 21
5.0
 31
0.0
  0
ENDBLK
  8
0
  0
BLOCK
  8
0
  2
SPADNET
 70
     0
 10
0.0
 20
0.0
 30
0.0
  3
SPADNET
  0
LINE
  8
0
  6
DASHED
 10
0.0
 20
-7.95366
 30
0.0
 11
0.0
 21
-37.5
 31
0.0
  0
LINE
  8
0
  6
DASHED
 10
0.0
 20
40.0
 30
0.0
 11
0.0
 21
7.632058
 31
0.0
  0
LINE
  8
0
  6
DASHED
 10
-15.0
 20
-40.0
 30
0.0
 11
-15.0
 21
-25.0
 31
0.0
  0
CIRCLE
  8
0
  6
CONTINUOUS
 10
0.0
 20
-25.059993
 30
0.0
 40
4.398585
  0
LINE
  8
0
  6
DASHED
 10
-4.398585
 20
-25.059993
 30
0.0
 11
-15.0
 21
-25.059993
 31
0.0
  0
CIRCLE
  8
0
  6
CONTINUOUS
 10
0.0
 20
24.940007
 30
0.0
 40
4.398585
  0
CIRCLE
  8
0
  6
CONTINUOUS
 10
0.0
 20
-3.555075
 30
0.0
 40
4.398585
  0
INSERT
  8
0
  6
DASHED
  2
B97
 10
14.158425
 20
3.233484
 30
0.0
 50
90.0
  0
LINE
  8
0
  6
DASHED
 10
0.0
 20
3.233473
 30
0.0
 11
12.5
 21
3.233473
 31
0.0
  0
CIRCLE
  8
0
  6
CONTINUOUS
 10
0.0
 20
3.233473
 30
0.0
 40
4.398585
  0
LINE
  8
0
  6
CONTINUOUS
 10
2.330189
 20
0.899953
 30
0.0
 11
-0.003212
 21
3.233355
 31
0.0
  0
LINE
  8
0
  6
CONTINUOUS
 10
-0.003212
 20
3.233355
 30
0.0
 11
-2.336614
 21
0.899953
 31
0.0
  0
LINE
  8
0
  6
CONTINUOUS
 10
-0.003212
 20
3.233355
 30
0.0
 11
-0.003212
 21
5.566756
 31
0.0
  0
ENDBLK
  8
0
  0
BLOCK
  8
0
  2
B97
 70
    64
 10
0.0
 20
0.0
 30
0.0
  3
B97
  0
INSERT
  8
0
  6
DASHED
  2
BLC15
 10
-0.142087
 20
-2.191142
 30
0.0
  0
ENDBLK
  8
0
  0
BLOCK
  8
0
  2
B63
 70
     0
 10
0.0
 20
0.0
 30
0.0
  3
B63
  0
LINE
  8
BASE
  6
CONTINUOUS
 10
10.740939
 20
0.0
 30
0.0
 11
15.0
 21
0.0
 31
0.0
  0
LINE
  8
BASE
  6
CONTINUOUS
 10
0.0
 20
0.0
 30
0.0
 11
5.0
 21
0.0
 31
0.0
  0
LINE
  8
BASE
  6
CONTINUOUS
 10
9.353436
 20
-0.361863
 30
0.0
 11
4.256076
 21
-3.214703
 31
0.0
  0
LINE
  8
BASE
  6
CONTINUOUS
 10
5.0
 20
-5.0
 30
0.0
 11
0.0
 21
-5.0
 31
0.0
  0
LINE
  8
BASE
  6
CONTINUOUS
 10
5.0
 20
-5.0
 30
0.0
 11
5.0
 21
-2.5
 31
0.0
  0
CIRCLE
  8
BASE
  6
CONTINUOUS
 10
10.0
 20
0.0
 30
0.0
 40
0.740939
  0
ENDBLK
  8
0
  0
BLOCK
  8
0
  2
B503
 70
     0
 10
0.0
 20
0.0
 30
0.0
  3
B503
  0
TEXT
  8
0
  6
DASHED
 10
-0.023606
 20
-24.320351
 30
0.0
 40
2.0
  1
SPAA 323 C
  0
TEXT
  8
0
  6
DASHED
 10
25.173575
 20
-9.654986
 30
0.0
 40
1.8
  1
162 mm
  0
TEXT
  8
0
  6
DASHED
 10
4.709103
 20
1.339698
 30
0.0
 40
1.8
  1
226 mm
  0
LINE
  8
0
  6
CONTINUOUS
 10
-2.051187
 20
-19.443928
 30
0.0
 11
21.294585
 21
-19.443928
 31
0.0
  0
LINE
  8
0
  6
CONTINUOUS
 10
23.294585
 20
-17.443928
 30
0.0
 11
23.294585
 21
-1.945115
 31
0.0
  0
LINE
  8
0
  6
CONTINUOUS
 10
21.294585
 20
0.054885
 30
0.0
 11
-2.051187
 21
0.054885
 31
0.0
  0
LINE
  8
0
  6
CONTINUOUS
 10
-4.051187
 20
-1.945115
 30
0.0
 11
-4.051187
 21
-17.443928
 31
0.0
  0
ARC
  8
0
  6
CONTINUOUS
 10
21.294585
 20
-1.945115
 30
0.0
 40
2.0
 50
0.0
 51
90.0
  0
ARC
  8
0
  6
CONTINUOUS
 10
-2.051187
 20
-1.945115
 30
0.0
 40
2.0
 50
90.0
 51
180.0
  0
ARC
  8
0
  6
CONTINUOUS
 10
-2.051187
 20
-17.443928
 30
0.0
 40
2.0
 50
180.0
 51
270.0
  0
ARC
  8
0
  6
CONTINUOUS
 10
21.294585
 20
-17.443928
 30
0.0
 40
2.0
 50
270.0
 51
0.0
  0
ENDBLK
  8
0
  0
BLOCK
  8
0
  2
B1017
 70
     0
 10
0.0
 20
0.0
 30
0.0
  3
B1017
  0
CIRCLE
  8
0
  6
CONTINUOUS
 10
2.472238
 20
0.004128
 30
0.0
 40
2.384188
  0
ENDBLK
  8
0
  0
BLOCK
  8
0
  2
B1018
 70
    64
 10
0.0
 20
0.0
 30
0.0
  3
B1018
  0
CIRCLE
  8
0
  6
CONTINUOUS
 10
-2.434747
 20
-0.088862
 30
0.0
 40
3.00182
  0
ENDBLK
  8
0
  0
BLOCK
  8
0
  2
B155
 70
    64
 10
0.0
 20
0.0
 30
0.0
  3
B155
  0
LINE
  8
0
  6
CONTINUOUS
 10
0.0
 20
0.0
 30
0.0
 11
0.0
 21
-1.35427
 31
0.0
  0
LINE
  8
0
  6
CONTINUOUS
 10
-1.210228
 20
-1.35427
 30
0.0
 11
-0.015887
 21
-1.35427
 31
0.0
  0
LINE
  8
0
  6
CONTINUOUS
 10
-0.015887
 20
-1.35427
 30
0.0
 11
1.178454
 21
-1.35427
 31
0.0
  0
LINE
  8
0
  6
CONTINUOUS
 10
-0.831823
 20
-1.976333
 30
0.0
 11
0.752749
 21
-1.976333
 31
0.0
  0
LINE
  8
0
  6
CONTINUOUS
 10
-0.500718
 20
-2.587966
 30
0.0
 11
0.386169
 21
-2.587966
 31
0.0
  0
ENDBLK
  8
0
  0
ENDSEC
  0
SECTION
  2
ENTITIES
  0
INSERT
  8
0
  2
1
 10
65.405438
 20
98.713066
 30
0.0
  0
INSERT
  8
0
  2
1
 10
72.541652
 20
49.71056
 30
0.0
  0
INSERT
  8
0
  2
1
 10
85.390443
 20
73.497234
 30
0.0
  0
LINE
  8
0
  6
CENTER
 62
   249
 10
260.0
 20
230.0
 30
0.0
 11
260.0
 21
87.5
 31
0.0
  0
LINE
  8
0
  6
CENTER
 62
   249
 10
260.0
 20
87.5
 30
0.0
 11
260.0
 21
57.5
 31
0.0
  0
LINE
  8
0
  6
CONTINUOUS
 62
   249
 10
167.5
 20
85.0
 30
0.0
 11
167.5
 21
78.249065
 31
0.0
  0
LINE
  8
0
  6
CONTINUOUS
 62
   249
 10
235.0
 20
70.0
 30
0.0
 11
245.0
 21
70.0
 31
0.0
  0
LINE
  8
0
  6
CONTINUOUS
 62
   249
 10
235.0
 20
70.0
 30
0.0
 11
237.5
 21
72.5
 31
0.0
  0
LINE
  8
0
  6
CONTINUOUS
 62
   249
 10
240.0
 20
70.0
 30
0.0
 11
242.5
 21
72.5
 31
0.0
  0
LINE
  8
0
  6
CONTINUOUS
 62
   249
 10
245.0
 20
70.0
 30
0.0
 11
247.5
 21
72.5
 31
0.0
  0
LINE
  8
0
  6
CONTINUOUS
 62
   249
 10
240.0
 20
70.0
 30
0.0
 11
240.0
 21
57.5
 31
0.0
  0
LINE
  8
0
  6
CONTINUOUS
 62
   249
 10
225.0
 20
75.0
 30
0.0
 11
225.0
 21
57.5
 31
0.0
  0
LINE
  8
0
  6
CONTINUOUS
 62
   249
 10
220.0
 20
75.0
 30
0.0
 11
220.0
 21
57.5
 31
0.0
  0
INSERT
  8
0
  6
DASHED
 62
   249
  2
BLC55
 10
240.204861
 20
46.598836
 30
0.0
  0
LINE
  8
0
  6
DASHED
 62
   249
 10
225.0
 20
57.5
 30
0.0
 11
225.0
 21
50.0
 31
0.0
  0
LINE
  8
0
  6
DASHED
 62
   249
 10
240.0
 20
57.5
 30
0.0
 11
240.0
 21
50.0
 31
0.0
  0
LINE
  8
0
  6
DASHED
 62
   249
 10
220.0
 20
57.5
 30
0.0
 11
220.0
 21
50.0
 31
0.0
  0
LINE
  8
0
  6
DASHED
 62
   249
 10
167.5
 20
57.5
 30
0.0
 11
167.5
 21
50.0
 31
0.0
  0
LINE
  8
0
  6
DASHED
 62
   249
 10
162.5
 20
57.5
 30
0.0
 11
162.5
 21
50.0
 31
0.0
  0
LINE
  8
0
  6
DASHED
 62
   249
 10
157.5
 20
57.5
 30
0.0
 11
157.5
 21
50.0
 31
0.0
  0
INSERT
  8
0
  6
DASHED
 62
   249
  2
BLC42
 10
225.0
 20
47.5
 30
0.0
  0
INSERT
  8
0
  6
DASHED
 62
   249
  2
BLC43
 10
220.0
 20
47.5
 30
0.0
  0
LINE
  8
0
  6
CONTINUOUS
 62
   249
 10
177.5
 20
137.732891
 30
0.0
 11
207.950615
 21
137.732891
 31
0.0
  0
TEXT
  8
0
  6
CONTINUOUS
 62
   249
 10
189.408766
 20
133.795815
 30
0.0
 40
2.5
  1
IRF
 11
189.408766
 21
132.962481
 31
0.0
 73
     1
  0
LINE
  8
0
  6
CONTINUOUS
 62
   249
 10
207.950615
 20
132.5
 30
0.0
 11
177.5
 21
132.5
 31
0.0
  0
LINE
  8
0
  6
CONTINUOUS
 62
   249
 10
207.950615
 20
210.0
 30
0.0
 11
207.950615
 21
132.5
 31
0.0
  0
INSERT
  8
0
  6
CONTINUOUS
 62
   249
  2
BLC44
 10
223.3521
 20
44.08565
 30
0.0
  0
LINE
  8
0
  6
CONTINUOUS
 62
   249
 10
162.5
 20
85.0
 30
0.0
 11
162.5
 21
57.5
 31
0.0
  0
LINE
  8
0
  6
CONTINUOUS
 62
   249
 10
177.5
 20
145.0
 30
0.0
 11
207.950615
 21
145.0
 31
0.0
  0
TEXT
  8
0
  6
CONTINUOUS
 62
   249
 10
181.230324
 20
139.807235
 30
0.0
 40
2.5
  1
SERIAL I/O
  0
CIRCLE
  8
0
  6
CONTINUOUS
 62
   249
 10
176.512659
 20
134.998324
 30
0.0
 40
1.0
  0
LINE
  8
0
  6
CONTINUOUS
 62
   249
 10
177.5
 20
210.0
 30
0.0
 11
207.950615
 21
210.0
 31
0.0
  0
LINE
  8
0
  6
CONTINUOUS
 62
   249
 10
197.5
 20
145.0
 30
0.0
 11
197.5
 21
210.0
 31
0.0
  0
LINE
  8
0
  6
CONTINUOUS
 62
   249
 10
177.5
 20
210.0
 30
0.0
 11
177.5
 21
132.5
 31
0.0
  0
LINE
  8
0
  6
CENTER
 62
   249
 10
42.5
 20
230.0
 30
0.0
 11
42.5
 21
57.5
 31
0.0
  0
LINE
  8
0
  6
CENTER
 62
   249
 10
42.5
 20
57.5
 30
0.0
 11
260.0
 21
57.5
 31
0.0
  0
LINE
  8
0
  6
CONTINUOUS
 62
   249
 10
150.0
 20
67.5
 30
0.0
 11
152.5
 21
67.5
 31
0.0
  0
LINE
  8
0
  6
CONTINUOUS
 62
   249
 10
152.5
 20
67.5
 30
0.0
 11
152.5
 21
57.5
 31
0.0
  0
LINE
  8
0
  6
CONTINUOUS
 62
   249
 10
157.5
 20
75.0
 30
0.0
 11
157.5
 21
57.5
 31
0.0
  0
INSERT
  8
0
  6
CONTINUOUS
 62
   249
  2
BLC29
 10
238.588624
 20
197.371524
 30
0.0
 50
180.0
  0
LINE
  8
0
  6
CONTINUOUS
 62
   249
 10
240.0
 20
175.0
 30
0.0
 11
241.0
 21
174.0
 31
0.0
  0
LINE
  8
0
  6
CONTINUOUS
 62
   249
 10
240.0
 20
217.5
 30
0.0
 11
241.0
 21
218.5
 31
0.0
  0
LINE
  8
0
  6
CONTINUOUS
 62
   249
 10
240.0
 20
217.5
 30
0.0
 11
240.0
 21
192.5
 31
0.0
  0
LINE
  8
0
  6
CONTINUOUS
 62
   249
 10
220.0
 20
141.434542
 30
0.0
 11
207.950615
 21
141.434542
 31
0.0
  0
LINE
  8
0
  6
CONTINUOUS
 62
   249
 10
240.0
 20
192.5
 30
0.0
 11
240.0
 21
175.0
 31
0.0
  0
LINE
  8
0
  6
CENTER
 62
   249
 10
260.0
 20
230.0
 30
0.0
 11
42.5
 21
230.0
 31
0.0
  0
INSERT
  8
0
  6
CONTINUOUS
 62
   249
  2
BLC29
 10
219.871538
 20
118.1989
 30
0.0
 50
90.0
  0
LINE
  8
0
  6
CONTINUOUS
 62
   249
 10
251.338166
 20
78.592819
 30
0.0
 11
253.257416
 21
81.280896
 31
0.0
  0
TEXT
  8
0
  6
CONTINUOUS
 62
   249
 10
254.637977
 20
81.707347
 30
0.0
 40
2.0
  1
9
  7
ROMANS
  0
TEXT
  8
0
  6
CONTINUOUS
 62
   249
 10
236.696317
 20
76.142085
 30
0.0
 40
2.0
  1
SERIAL PORT
  7
ROMANS
  0
ARC
  8
0
  6
CONTINUOUS
 62
   249
 10
262.5
 20
80.0
 30
0.0
 40
2.5
 50
90.0
 51
270.0
  0
LINE
  8
0
  6
CONTINUOUS
 62
   249
 10
261.819436
 20
80.49
 30
0.0
 11
261.819436
 21
79.51
 31
0.0
  0
LINE
  8
0
  6
CONTINUOUS
 62
   249
 10
261.819436
 20
79.51
 30
0.0
 11
265.249436
 21
79.51
 31
0.0
  0
LINE
  8
0
  6
CONTINUOUS
 62
   249
 10
265.249436
 20
79.51
 30
0.0
 11
265.249436
 21
80.49
 31
0.0
  0
LINE
  8
0
  6
CONTINUOUS
 62
   249
 10
265.249436
 20
80.49
 30
0.0
 11
261.819436
 21
80.49
 31
0.0
  0
POLYLINE
  8
0
  6
CONTINUOUS
 62
   249
 66
     1
 10
0.0
 20
0.0
 30
0.0
 70
    16
 71
     2
 72
   251
  0
VERTEX
  8
0
  6
CONTINUOUS
 62
   249
 10
261.819436
 20
79.51
 30
0.0
 70
    64
  0
VERTEX
  8
0
  6
CONTINUOUS
 62
   249
 10
261.833156
 20
79.51
 30
0.0
 70
    64
  0
VERTEX
  8
0
  6
CONTINUOUS
 62
   249
 10
261.846876
 20
79.51
 30
0.0
 70
    64
  0
VERTEX
  8
0
  6
CONTINUOUS
 62
   249
 10
261.860596
 20
79.51
 30
0.0
 70
    64
  0
VERTEX
  8
0
  6
CONTINUOUS
 62
   249
 10
261.874316
 20
79.51
 30
0.0
 70
    64
  0
VERTEX
  8
0
  6
CONTINUOUS
 62
   249
 10
261.888036
 20
79.51
 30
0.0
 70
    64
  0
VERTEX
  8
0
  6
CONTINUOUS
 62
   249
 10
261.901756
 20
79.51
 30
0.0
 70
    64
  0
VERTEX
  8
0
  6
CONTINUOUS
 62
   249
 10
261.915476
 20
79.51
 30
0.0
 70
    64
  0
VERTEX
  8
0
  6
CONTINUOUS
 62
   249
 10
261.929196
 20
79.51
 30
0.0
 70
    64
  0
VERTEX
  8
0
  6
CONTINUOUS
 62
   249
 10
261.942916
 20
79.51
 30
0.0
 70
    64
  0
VERTEX
  8
0
  6
CONTINUOUS
 62
   249
 10
261.956636
 20
79.51
 30
0.0
 70
    64
  0
VERTEX
  8
0
  6
CONTINUOUS
 62
   249
 10
261.970356
 20
79.51
 30
0.0
 70
    64
  0
VERTEX
  8
0
  6
CONTINUOUS
 62
   249
 10
261.984076
 20
79.51
 30
0.0
 70
    64
  0
VERTEX
  8
0
  6
CONTINUOUS
 62
   249
 10
261.997796
 20
79.51
 30
0.0
 70
    64
  0
VERTEX
  8
0
  6
CONTINUOUS
 62
   249
 10
262.011516
 20
79.51
 30
0.0
 70
    64
  0
VERTEX
  8
0
  6
CONTINUOUS
 62
   249
 10
262.025236
 20
79.51
 30
0.0
 70
    64
  0
VERTEX
  8
0
  6
CONTINUOUS
 62
   249
 10
262.038956
 20
79.51
 30
0.0
 70
    64
  0
VERTEX
  8
0
  6
CONTINUOUS
 62
   249
 10
262.052676
 20
79.51
 30
0.0
 70
    64
  0
VERTEX
  8
0
  6
CONTINUOUS
 62
   249
 10
262.066396
 20
79.51
 30
0.0
 70
    64
  0
VERTEX
  8
0
  6
CONTINUOUS
 62
   249
 10
262.080116
 20
79.51
 30
0.0
 70
    64
  0
VERTEX
  8
0
  6
CONTINUOUS
 62
   249
 10
262.093836
 20
79.51
 30
0.0
 70
    64
  0
VERTEX
  8
0
  6
CONTINUOUS
 62
   249
 10
262.107556
 20
79.51
 30
0.0
 70
    64
  0
VERTEX
  8
0
  6
CONTINUOUS
 62
   249
 10
262.121276
 20
79.51
 30
0.0
 70
    64
  0
VERTEX
  8
0
  6
CONTINUOUS
 62
   249
 10
262.134996
 20
79.51
 30
0.0
 70
    64
  0
VERTEX
  8
0
  6
CONTINUOUS
 62
   249
 10
262.148716
 20
79.51
 30
0.0
 70
    64
  0
VERTEX
  8
0
  6
CONTINUOUS
 62
   249
 10
262.162436
 20
79.51
 30
0.0
 70
    64
  0
VERTEX
  8
0
  6
CONTINUOUS
 62
   249
 10
262.176156
 20
79.51
 30
0.0
 70
    64
  0
VERTEX
  8
0
  6
CONTINUOUS
 62
   249
 10
262.189876
 20
79.51
 30
0.0
 70
    64
  0
VERTEX
  8
0
  6
CONTINUOUS
 62
   249
 10
262.203596
 20
79.51
 30
0.0
 70
    64
  0
VERTEX
  8
0
  6
CONTINUOUS
 62
   249
 10
262.217316
 20
79.51
 30
0.0
 70
    64
  0
VERTEX
  8
0
  6
CONTINUOUS
 62
   249
 10
262.231036
 20
79.51
 30
0.0
 70
    64
  0
VERTEX
  8
0
  6
CONTINUOUS
 62
   249
 10
262.244756
 20
79.51
 30
0.0
 70
    64
  0
VERTEX
  8
0
  6
CONTINUOUS
 62
   249
 10
262.258476
 20
79.51
 30
0.0
 70
    64
  0
VERTEX
  8
0
  6
CONTINUOUS
 62
   249
 10
262.272196
 20
79.51
 30
0.0
 70
    64
  0
VERTEX
  8
0
  6
CONTINUOUS
 62
   249
 10
262.285916
 20
79.51
 30
0.0
 70
    64
  0
VERTEX
  8
0
  6
CONTINUOUS
 62
   249
 10
262.299636
 20
79.51
 30
0.0
 70
    64
  0
VERTEX
  8
0
  6
CONTINUOUS
 62
   249
 10
262.313356
 20
79.51
 30
0.0
 70
    64
  0
VERTEX
  8
0
  6
CONTINUOUS
 62
   249
 10
262.327076
 20
79.51
 30
0.0
 70
    64
  0
VERTEX
  8
0
  6
CONTINUOUS
 62
   249
 10
262.340796
 20
79.51
 30
0.0
 70
    64
  0
VERTEX
  8
0
  6
CONTINUOUS
 62
   249
 10
262.354516
 20
79.51
 30
0.0
 70
    64
  0
VERTEX
  8
0
  6
CONTINUOUS
 62
   249
 10
262.368236
 20
79.51
 30
0.0
 70
    64
  0
VERTEX
  8
0
  6
CONTINUOUS
 62
   249
 10
262.381956
 20
79.51
 30
0.0
 70
    64
  0
VERTEX
  8
0
  6
CONTINUOUS
 62
   249
 10
262.395676
 20
79.51
 30
0.0
 70
    64
  0
VERTEX
  8
0
  6
CONTINUOUS
 62
   249
 10
262.409396
 20
79.51
 30
0.0
 70
    64
  0
VERTEX
  8
0
  6
CONTINUOUS
 62
   249
 10
262.423116
 20
79.51
 30
0.0
 70
    64
  0
VERTEX
  8
0
  6
CONTINUOUS
 62
   249
 10
262.436836
 20
79.51
 30
0.0
 70
    64
  0
VERTEX
  8
0
  6
CONTINUOUS
 62
   249
 10
262.450556
 20
79.51
 30
0.0
 70
    64
  0
VERTEX
  8
0
  6
CONTINUOUS
 62
   249
 10
262.464276
 20
79.51
 30
0.0
 70
    64
  0
VERTEX
  8
0
  6
CONTINUOUS
 62
   249
 10
262.477996
 20
79.51
 30
0.0
 70
    64
  0
VERTEX
  8
0
  6
CONTINUOUS
 62
   249
 10
262.491716
 20
79.51
 30
0.0
 70
    64
  0
VERTEX
  8
0
  6
CONTINUOUS
 62
   249
 10
262.505436
 20
79.51
 30
0.0
 70
    64
  0
VERTEX
  8
0
  6
CONTINUOUS
 62
   249
 10
262.519156
 20
79.51
 30
0.0
 70
    64
  0
VERTEX
  8
0
  6
CONTINUOUS
 62
   249
 10
262.532876
 20
79.51
 30
0.0
 70
    64
  0
VERTEX
  8
0
  6
CONTINUOUS
 62
   249
 10
262.546596
 20
79.51
 30
0.0
 70
    64
  0
VERTEX
  8
0
  6
CONTINUOUS
 62
   249
 10
262.560316
 20
79.51
 30
0.0
 70
    64
  0
VERTEX
  8
0
  6
CONTINUOUS
 62
   249
 10
262.574036
 20
79.51
 30
0.0
 70
    64
  0
VERTEX
  8
0
  6
CONTINUOUS
 62
   249
 10
262.587756
 20
79.51
 30
0.0
 70
    64
  0
VERTEX
  8
0
  6
CONTINUOUS
 62
   249
 10
262.601476
 20
79.51
 30
0.0
 70
    64
  0
VERTEX
  8
0
  6
CONTINUOUS
 62
   249
 10
262.615196
 20
79.51
 30
0.0
 70
    64
  0
VERTEX
  8
0
  6
CONTINUOUS
 62
   249
 10
262.628916
 20
79.51
 30
0.0
 70
    64
  0
VERTEX
  8
0
  6
CONTINUOUS
 62
   249
 10
262.642636
 20
79.51
 30
0.0
 70
    64
  0
VERTEX
  8
0
  6
CONTINUOUS
 62
   249
 10
262.656356
 20
79.51
 30
0.0
 70
    64
  0
VERTEX
  8
0
  6
CONTINUOUS
 62
   249
 10
262.670076
 20
79.51
 30
0.0
 70
    64
  0
VERTEX
  8
0
  6
CONTINUOUS
 62
   249
 10
262.683796
 20
79.51
 30
0.0
 70
    64
  0
VERTEX
  8
0
  6
CONTINUOUS
 62
   249
 10
262.697516
 20
79.51
 30
0.0
 70
    64
  0
VERTEX
  8
0
  6
CONTINUOUS
 62
   249
 10
262.711236
 20
79.51
 30
0.0
 70
    64
  0
VERTEX
  8
0
  6
CONTINUOUS
 62
   249
 10
262.724956
 20
79.51
 30
0.0
 70
    64
  0
VERTEX
  8
0
  6
CONTINUOUS
 62
   249
 10
262.738676
 20
79.51
 30
0.0
 70
    64
  0
VERTEX
  8
0
  6
CONTINUOUS
 62
   249
 10
262.752396
 20
79.51
 30
0.0
 70
    64
  0
VERTEX
  8
0
  6
CONTINUOUS
 62
   249
 10
262.766116
 20
79.51
 30
0.0
 70
    64
  0
VERTEX
  8
0
  6
CONTINUOUS
 62
   249
 10
262.779836
 20
79.51
 30
0.0
 70
    64
  0
VERTEX
  8
0
  6
CONTINUOUS
 62
   249
 10
262.793556
 20
79.51
 30
0.0
 70
    64
  0
VERTEX
  8
0
  6
CONTINUOUS
 62
   249
 10
262.807276
 20
79.51
 30
0.0
 70
    64
  0
VERTEX
  8
0
  6
CONTINUOUS
 62
   249
 10
262.820996
 20
79.51
 30
0.0
 70
    64
  0
VERTEX
  8
0
  6
CONTINUOUS
 62
   249
 10
262.834716
 20
79.51
 30
0.0
 70
    64
  0
VERTEX
  8
0
  6
CONTINUOUS
 62
   249
 10
262.848436
 20
79.51
 30
0.0
 70
    64
  0
VERTEX
  8
0
  6
CONTINUOUS
 62
   249
 10
262.862156
 20
79.51
 30
0.0
 70
    64
  0
VERTEX
  8
0
  6
CONTINUOUS
 62
   249
 10
262.875876
 20
79.51
 30
0.0
 70
    64
  0
VERTEX
  8
0
  6
CONTINUOUS
 62
   249
 10
262.889596
 20
79.51
 30
0.0
 70
    64
  0
VERTEX
  8
0
  6
CONTINUOUS
 62
   249
 10
262.903316
 20
79.51
 30
0.0
 70
    64
  0
VERTEX
  8
0
  6
CONTINUOUS
 62
   249
 10
262.917036
 20
79.51
 30
0.0
 70
    64
  0
VERTEX
  8
0
  6
CONTINUOUS
 62
   249
 10
262.930756
 20
79.51
 30
0.0
 70
    64
  0
VERTEX
  8
0
  6
CONTINUOUS
 62
   249
 10
262.944476
 20
79.51
 30
0.0
 70
    64
  0
VERTEX
  8
0
  6
CONTINUOUS
 62
   249
 10
262.958196
 20
79.51
 30
0.0
 70
    64
  0
VERTEX
  8
0
  6
CONTINUOUS
 62
   249
 10
262.971916
 20
79.51
 30
0.0
 70
    64
  0
VERTEX
  8
0
  6
CONTINUOUS
 62
   249
 10
262.985636
 20
79.51
 30
0.0
 70
    64
  0
VERTEX
  8
0
  6
CONTINUOUS
 62
   249
 10
262.999356
 20
79.51
 30
0.0
 70
    64
  0
VERTEX
  8
0
  6
CONTINUOUS
 62
   249
 10
263.013076
 20
79.51
 30
0.0
 70
    64
  0
VERTEX
  8
0
  6
CONTINUOUS
 62
   249
 10
263.026796
 20
79.51
 30
0.0
 70
    64
  0
VERTEX
  8
0
  6
CONTINUOUS
 62
   249
 10
263.040516
 20
79.51
 30
0.0
 70
    64
  0
VERTEX
  8
0
  6
CONTINUOUS
 62
   249
 10
263.054236
 20
79.51
 30
0.0
 70
    64
  0
VERTEX
  8
0
  6
CONTINUOUS
 62
   249
 10
263.067956
 20
79.51
 30
0.0
 70
    64
  0
VERTEX
  8
0
  6
CONTINUOUS
 62
   249
 10
263.081676
 20
79.51
 30
0.0
 70
    64
  0
VERTEX
  8
0
  6
CONTINUOUS
 62
   249
 10
263.095396
 20
79.51
 30
0.0
 70
    64
  0
VERTEX
  8
0
  6
CONTINUOUS
 62
   249
 10
263.109116
 20
79.51
 30
0.0
 70
    64
  0
VERTEX
  8
0
  6
CONTINUOUS
 62
   249
 10
263.122836
 20
79.51
 30
0.0
 70
    64
  0
VERTEX
  8
0
  6
CONTINUOUS
 62
   249
 10
263.136556
 20
79.51
 30
0.0
 70
    64
  0
VERTEX
  8
0
  6
CONTINUOUS
 62
   249
 10
263.150276
 20
79.51
 30
0.0
 70
    64
  0
VERTEX
  8
0
  6
CONTINUOUS
 62
   249
 10
263.163996
 20
79.51
 30
0.0
 70
    64
  0
VERTEX
  8
0
  6
CONTINUOUS
 62
   249
 10
263.177716
 20
79.51
 30
0.0
 70
    64
  0
VERTEX
  8
0
  6
CONTINUOUS
 62
   249
 10
263.191436
 20
79.51
 30
0.0
 70
    64
  0
VERTEX
  8
0
  6
CONTINUOUS
 62
   249
 10
263.205156
 20
79.51
 30
0.0
 70
    64
  0
VERTEX
  8
0
  6
CONTINUOUS
 62
   249
 10
263.218876
 20
79.51
 30
0.0
 70
    64
  0
VERTEX
  8
0
  6
CONTINUOUS
 62
   249
 10
263.232596
 20
79.51
 30
0.0
 70
    64
  0
VERTEX
  8
0
  6
CONTINUOUS
 62
   249
 10
263.246316
 20
79.51
 30
0.0
 70
    64
  0
VERTEX
  8
0
  6
CONTINUOUS
 62
   249
 10
263.260036
 20
79.51
 30
0.0
 70
    64
  0
VERTEX
  8
0
  6
CONTINUOUS
 62
   249
 10
263.273756
 20
79.51
 30
0.0
 70
    64
  0
VERTEX
  8
0
  6
CONTINUOUS
 62
   249
 10
263.287476
 20
79.51
 30
0.0
 70
    64
  0
VERTEX
  8
0
  6
CONTINUOUS
 62
   249
 10
263.301196
 20
79.51
 30
0.0
 70
    64
  0
VERTEX
  8
0
  6
CONTINUOUS
 62
   249
 10
263.314916
 20
79.51
 30
0.0
 70
    64
  0
VERTEX
  8
0
  6
CONTINUOUS
 62
   249
 10
263.328636
 20
79.51
 30
0.0
 70
    64
  0
VERTEX
  8
0
  6
CONTINUOUS
 62
   249
 10
263.342356
 20
79.51
 30
0.0
 70
    64
  0
VERTEX
  8
0
  6
CONTINUOUS
 62
   249
 10
263.356076
 20
79.51
 30
0.0
 70
    64
  0
VERTEX
  8
0
  6
CONTINUOUS
 62
   249
 10
263.369796
 20
79.51
 30
0.0
 70
    64
  0
VERTEX
  8
0
  6
CONTINUOUS
 62
   249
 10
263.383516
 20
79.51
 30
0.0
 70
    64
  0
VERTEX
  8
0
  6
CONTINUOUS
 62
   249
 10
263.397236
 20
79.51
 30
0.0
 70
    64
  0
VERTEX
  8
0
  6
CONTINUOUS
 62
   249
 10
263.410956
 20
79.51
 30
0.0
 70
    64
  0
VERTEX
  8
0
  6
CONTINUOUS
 62
   249
 10
263.424676
 20
79.51
 30
0.0
 70
    64
  0
VERTEX
  8
0
  6
CONTINUOUS
 62
   249
 10
263.438396
 20
79.51
 30
0.0
 70
    64
  0
VERTEX
  8
0
  6
CONTINUOUS
 62
   249
 10
263.452116
 20
79.51
 30
0.0
 70
    64
  0
VERTEX
  8
0
  6
CONTINUOUS
 62
   249
 10
263.465836
 20
79.51
 30
0.0
 70
    64
  0
VERTEX
  8
0
  6
CONTINUOUS
 62
   249
 10
263.479556
 20
79.51
 30
0.0
 70
    64
  0
VERTEX
  8
0
  6
CONTINUOUS
 62
   249
 10
263.493276
 20
79.51
 30
0.0
 70
    64
  0
VERTEX
  8
0
  6
CONTINUOUS
 62
   249
 10
263.506996
 20
79.51
 30
0.0
 70
    64
  0
VERTEX
  8
0
  6
CONTINUOUS
 62
   249
 10
263.520716
 20
79.51
 30
0.0
 70
    64
  0
VERTEX
  8
0
  6
CONTINUOUS
 62
   249
 10
263.534436
 20
79.51
 30
0.0
 70
    64
  0
VERTEX
  8
0
  6
CONTINUOUS
 62
   249
 10
263.548156
 20
79.51
 30
0.0
 70
    64
  0
VERTEX
  8
0
  6
CONTINUOUS
 62
   249
 10
263.561876
 20
79.51
 30
0.0
 70
    64
  0
VERTEX
  8
0
  6
CONTINUOUS
 62
   249
 10
263.575596
 20
79.51
 30
0.0
 70
    64
  0
VERTEX
  8
0
  6
CONTINUOUS
 62
   249
 10
263.589316
 20
79.51
 30
0.0
 70
    64
  0
VERTEX
  8
0
  6
CONTINUOUS
 62
   249
 10
263.603036
 20
79.51
 30
0.0
 70
    64
  0
VERTEX
  8
0
  6
CONTINUOUS
 62
   249
 10
263.616756
 20
79.51
 30
0.0
 70
    64
  0
VERTEX
  8
0
  6
CONTINUOUS
 62
   249
 10
263.630476
 20
79.51
 30
0.0
 70
    64
  0
VERTEX
  8
0
  6
CONTINUOUS
 62
   249
 10
263.644196
 20
79.51
 30
0.0
 70
    64
  0
VERTEX
  8
0
  6
CONTINUOUS
 62
   249
 10
263.657916
 20
79.51
 30
0.0
 70
    64
  0
VERTEX
  8
0
  6
CONTINUOUS
 62
   249
 10
263.671636
 20
79.51
 30
0.0
 70
    64
  0
VERTEX
  8
0
  6
CONTINUOUS
 62
   249
 10
263.685356
 20
79.51
 30
0.0
 70
    64
  0
VERTEX
  8
0
  6
CONTINUOUS
 62
   249
 10
263.699076
 20
79.51
 30
0.0
 70
    64
  0
VERTEX
  8
0
  6
CONTINUOUS
 62
   249
 10
263.712796
 20
79.51
 30
0.0
 70
    64
  0
VERTEX
  8
0
  6
CONTINUOUS
 62
   249
 10
263.726516
 20
79.51
 30
0.0
 70
    64
  0
VERTEX
  8
0
  6
CONTINUOUS
 62
   249
 10
263.740236
 20
79.51
 30
0.0
 70
    64
  0
VERTEX
  8
0
  6
CONTINUOUS
 62
   249
 10
263.753956
 20
79.51
 30
0.0
 70
    64
  0
VERTEX
  8
0
  6
CONTINUOUS
 62
   249
 10
263.767676
 20
79.51
 30
0.0
 70
    64
  0
VERTEX
  8
0
  6
CONTINUOUS
 62
   249
 10
263.781396
 20
79.51
 30
0.0
 70
    64
  0
VERTEX
  8
0
  6
CONTINUOUS
 62
   249
 10
263.795116
 20
79.51
 30
0.0
 70
    64
  0
VERTEX
  8
0
  6
CONTINUOUS
 62
   249
 10
263.808836
 20
79.51
 30
0.0
 70
    64
  0
VERTEX
  8
0
  6
CONTINUOUS
 62
   249
 10
263.822556
 20
79.51
 30
0.0
 70
    64
  0
VERTEX
  8
0
  6
CONTINUOUS
 62
   249
 10
263.836276
 20
79.51
 30
0.0
 70
    64
  0
VERTEX
  8
0
  6
CONTINUOUS
 62
   249
 10
263.849996
 20
79.51
 30
0.0
 70
    64
  0
VERTEX
  8
0
  6
CONTINUOUS
 62
   249
 10
263.863716
 20
79.51
 30
0.0
 70
    64
  0
VERTEX
  8
0
  6
CONTINUOUS
 62
   249
 10
263.877436
 20
79.51
 30
0.0
 70
    64
  0
VERTEX
  8
0
  6
CONTINUOUS
 62
   249
 10
263.891156
 20
79.51
 30
0.0
 70
    64
  0
VERTEX
  8
0
  6
CONTINUOUS
 62
   249
 10
263.904876
 20
79.51
 30
0.0
 70
    64
  0
VERTEX
  8
0
  6
CONTINUOUS
 62
   249
 10
263.918596
 20
79.51
 30
0.0
 70
    64
  0
VERTEX
  8
0
  6
CONTINUOUS
 62
   249
 10
263.932316
 20
79.51
 30
0.0
 70
    64
  0
VERTEX
  8
0
  6
CONTINUOUS
 62
   249
 10
263.946036
 20
79.51
 30
0.0
 70
    64
  0
VERTEX
  8
0
  6
CONTINUOUS
 62
   249
 10
263.959756
 20
79.51
 30
0.0
 70
    64
  0
VERTEX
  8
0
  6
CONTINUOUS
 62
   249
 10
263.973476
 20
79.51
 30
0.0
 70
    64
  0
VERTEX
  8
0
  6
CONTINUOUS
 62
   249
 10
263.987196
 20
79.51
 30
0.0
 70
    64
  0
VERTEX
  8
0
  6
CONTINUOUS
 62
   249
 10
264.000916
 20
79.51
 30
0.0
 70
    64
  0
VERTEX
  8
0
  6
CONTINUOUS
 62
   249
 10
264.014636
 20
79.51
 30
0.0
 70
    64
  0
VERTEX
  8
0
  6
CONTINUOUS
 62
   249
 10
264.028356
 20
79.51
 30
0.0
 70
    64
  0
VERTEX
  8
0
  6
CONTINUOUS
 62
   249
 10
264.042076
 20
79.51
 30
0.0
 70
    64
  0
VERTEX
  8
0
  6
CONTINUOUS
 62
   249
 10
264.055796
 20
79.51
 30
0.0
 70
    64
  0
VERTEX
  8
0
  6
CONTINUOUS
 62
   249
 10
264.069516
 20
79.51
 30
0.0
 70
    64
  0
VERTEX
  8
0
  6
CONTINUOUS
 62
   249
 10
264.083236
 20
79.51
 30
0.0
 70
    64
  0
VERTEX
  8
0
  6
CONTINUOUS
 62
   249
 10
264.096956
 20
79.51
 30
0.0
 70
    64
  0
VERTEX
  8
0
  6
CONTINUOUS
 62
   249
 10
264.110676
 20
79.51
 30
0.0
 70
    64
  0
VERTEX
  8
0
  6
CONTINUOUS
 62
   249
 10
264.124396
 20
79.51
 30
0.0
 70
    64
  0
VERTEX
  8
0
  6
CONTINUOUS
 62
   249
 10
264.138116
 20
79.51
 30
0.0
 70
    64
  0
VERTEX
  8
0
  6
CONTINUOUS
 62
   249
 10
264.151836
 20
79.51
 30
0.0
 70
    64
  0
VERTEX
  8
0
  6
CONTINUOUS
 62
   249
 10
264.165556
 20
79.51
 30
0.0
 70
    64
  0
VERTEX
  8
0
  6
CONTINUOUS
 62
   249
 10
264.179276
 20
79.51
 30
0.0
 70
    64
  0
VERTEX
  8
0
  6
CONTINUOUS
 62
   249
 10
264.192996
 20
79.51
 30
0.0
 70
    64
  0
VERTEX
  8
0
  6
CONTINUOUS
 62
   249
 10
264.206716
 20
79.51
 30
0.0
 70
    64
  0
VERTEX
  8
0
  6
CONTINUOUS
 62
   249
 10
264.220436
 20
79.51
 30
0.0
 70
    64
  0
VERTEX
  8
0
  6
CONTINUOUS
 62
   249
 10
264.234156
 20
79.51
 30
0.0
 70
    64
  0
VERTEX
  8
0
  6
CONTINUOUS
 62
   249
 10
264.247876
 20
79.51
 30
0.0
 70
    64
  0
VERTEX
  8
0
  6
CONTINUOUS
 62
   249
 10
264.261596
 20
79.51
 30
0.0
 70
    64
  0
VERTEX
  8
0
  6
CONTINUOUS
 62
   249
 10
264.275316
 20
79.51
 30
0.0
 70
    64
  0
VERTEX
  8
0
  6
CONTINUOUS
 62
   249
 10
264.289036
 20
79.51
 30
0.0
 70
    64
  0
VERTEX
  8
0
  6
CONTINUOUS
 62
   249
 10
264.302756
 20
79.51
 30
0.0
 70
    64
  0
VERTEX
  8
0
  6
CONTINUOUS
 62
   249
 10
264.316476
 20
79.51
 30
0.0
 70
    64
  0
VERTEX
  8
0
  6
CONTINUOUS
 62
   249
 10
264.330196
 20
79.51
 30
0.0
 70
    64
  0
VERTEX
  8
0
  6
CONTINUOUS
 62
   249
 10
264.343916
 20
79.51
 30
0.0
 70
    64
  0
VERTEX
  8
0
  6
CONTINUOUS
 62
   249
 10
264.357636
 20
79.51
 30
0.0
 70
    64
  0
VERTEX
  8
0
  6
CONTINUOUS
 62
   249
 10
264.371356
 20
79.51
 30
0.0
 70
    64
  0
VERTEX
  8
0
  6
CONTINUOUS
 62
   249
 10
264.385076
 20
79.51
 30
0.0
 70
    64
  0
VERTEX
  8
0
  6
CONTINUOUS
 62
   249
 10
264.398796
 20
79.51
 30
0.0
 70
    64
  0
VERTEX
  8
0
  6
CONTINUOUS
 62
   249
 10
264.412516
 20
79.51
 30
0.0
 70
    64
  0
VERTEX
  8
0
  6
CONTINUOUS
 62
   249
 10
264.426236
 20
79.51
 30
0.0
 70
    64
  0
VERTEX
  8
0
  6
CONTINUOUS
 62
   249
 10
264.439956
 20
79.51
 30
0.0
 70
    64
  0
VERTEX
  8
0
  6
CONTINUOUS
 62
   249
 10
264.453676
 20
79.51
 30
0.0
 70
    64
  0
VERTEX
  8
0
  6
CONTINUOUS
 62
   249
 10
264.467396
 20
79.51
 30
0.0
 70
    64
  0
VERTEX
  8
0
  6
CONTINUOUS
 62
   249
 10
264.481116
 20
79.51
 30
0.0
 70
    64
  0
VERTEX
  8
0
  6
CONTINUOUS
 62
   249
 10
264.494836
 20
79.51
 30
0.0
 70
    64
  0
VERTEX
  8
0
  6
CONTINUOUS
 62
   249
 10
264.508556
 20
79.51
 30
0.0
 70
    64
  0
VERTEX
  8
0
  6
CONTINUOUS
 62
   249
 10
264.522276
 20
79.51
 30
0.0
 70
    64
  0
VERTEX
  8
0
  6
CONTINUOUS
 62
   249
 10
264.535996
 20
79.51
 30
0.0
 70
    64
  0
VERTEX
  8
0
  6
CONTINUOUS
 62
   249
 10
264.549716
 20
79.51
 30
0.0
 70
    64
  0
VERTEX
  8
0
  6
CONTINUOUS
 62
   249
 10
264.563436
 20
79.51
 30
0.0
 70
    64
  0
VERTEX
  8
0
  6
CONTINUOUS
 62
   249
 10
264.577156
 20
79.51
 30
0.0
 70
    64
  0
VERTEX
  8
0
  6
CONTINUOUS
 62
   249
 10
264.590876
 20
79.51
 30
0.0
 70
    64
  0
VERTEX
  8
0
  6
CONTINUOUS
 62
   249
 10
264.604596
 20
79.51
 30
0.0
 70
    64
  0
VERTEX
  8
0
  6
CONTINUOUS
 62
   249
 10
264.618316
 20
79.51
 30
0.0
 70
    64
  0
VERTEX
  8
0
  6
CONTINUOUS
 62
   249
 10
264.632036
 20
79.51
 30
0.0
 70
    64
  0
VERTEX
  8
0
  6
CONTINUOUS
 62
   249
 10
264.645756
 20
79.51
 30
0.0
 70
    64
  0
VERTEX
  8
0
  6
CONTINUOUS
 62
   249
 10
264.659476
 20
79.51
 30
0.0
 70
    64
  0
VERTEX
  8
0
  6
CONTINUOUS
 62
   249
 10
264.673196
 20
79.51
 30
0.0
 70
    64
  0
VERTEX
  8
0
  6
CONTINUOUS
 62
   249
 10
264.686916
 20
79.51
 30
0.0
 70
    64
  0
VERTEX
  8
0
  6
CONTINUOUS
 62
   249
 10
264.700636
 20
79.51
 30
0.0
 70
    64
  0
VERTEX
  8
0
  6
CONTINUOUS
 62
   249
 10
264.714356
 20
79.51
 30
0.0
 70
    64
  0
VERTEX
  8
0
  6
CONTINUOUS
 62
   249
 10
264.728076
 20
79.51
 30
0.0
 70
    64
  0
VERTEX
  8
0
  6
CONTINUOUS
 62
   249
 10
264.741796
 20
79.51
 30
0.0
 70
    64
  0
VERTEX
  8
0
  6
CONTINUOUS
 62
   249
 10
264.755516
 20
79.51
 30
0.0
 70
    64
  0
VERTEX
  8
0
  6
CONTINUOUS
 62
   249
 10
264.769236
 20
79.51
 30
0.0
 70
    64
  0
VERTEX
  8
0
  6
CONTINUOUS
 62
   249
 10
264.782956
 20
79.51
 30
0.0
 70
    64
  0
VERTEX
  8
0
  6
CONTINUOUS
 62
   249
 10
264.796676
 20
79.51
 30
0.0
 70
    64
  0
VERTEX
  8
0
  6
CONTINUOUS
 62
   249
 10
264.810396
 20
79.51
 30
0.0
 70
    64
  0
VERTEX
  8
0
  6
CONTINUOUS
 62
   249
 10
264.824116
 20
79.51
 30
0.0
 70
    64
  0
VERTEX
  8
0
  6
CONTINUOUS
 62
   249
 10
264.837836
 20
79.51
 30
0.0
 70
    64
  0
VERTEX
  8
0
  6
CONTINUOUS
 62
   249
 10
264.851556
 20
79.51
 30
0.0
 70
    64
  0
VERTEX
  8
0
  6
CONTINUOUS
 62
   249
 10
264.865276
 20
79.51
 30
0.0
 70
    64
  0
VERTEX
  8
0
  6
CONTINUOUS
 62
   249
 10
264.878996
 20
79.51
 30
0.0
 70
    64
  0
VERTEX
  8
0
  6
CONTINUOUS
 62
   249
 10
264.892716
 20
79.51
 30
0.0
 70
    64
  0
VERTEX
  8
0
  6
CONTINUOUS
 62
   249
 10
264.906436
 20
79.51
 30
0.0
 70
    64
  0
VERTEX
  8
0
  6
CONTINUOUS
 62
   249
 10
264.920156
 20
79.51
 30
0.0
 70
    64
  0
VERTEX
  8
0
  6
CONTINUOUS
 62
   249
 10
264.933876
 20
79.51
 30
0.0
 70
    64
  0
VERTEX
  8
0
  6
CONTINUOUS
 62
   249
 10
264.947596
 20
79.51
 30
0.0
 70
    64
  0
VERTEX
  8
0
  6
CONTINUOUS
 62
   249
 10
264.961316
 20
79.51
 30
0.0
 70
    64
  0
VERTEX
  8
0
  6
CONTINUOUS
 62
   249
 10
264.975036
 20
79.51
 30
0.0
 70
    64
  0
VERTEX
  8
0
  6
CONTINUOUS
 62
   249
 10
264.988756
 20
79.51
 30
0.0
 70
    64
  0
VERTEX
  8
0
  6
CONTINUOUS
 62
   249
 10
265.002476
 20
79.51
 30
0.0
 70
    64
  0
VERTEX
  8
0
  6
CONTINUOUS
 62
   249
 10
265.016196
 20
79.51
 30
0.0
 70
    64
  0
VERTEX
  8
0
  6
CONTINUOUS
 62
   249
 10
265.029916
 20
79.51
 30
0.0
 70
    64
  0
VERTEX
  8
0
  6
CONTINUOUS
 62
   249
 10
265.043636
 20
79.51
 30
0.0
 70
    64
  0
VERTEX
  8
0
  6
CONTINUOUS
 62
   249
 10
265.057356
 20
79.51
 30
0.0
 70
    64
  0
VERTEX
  8
0
  6
CONTINUOUS
 62
   249
 10
265.071076
 20
79.51
 30
0.0
 70
    64
  0
VERTEX
  8
0
  6
CONTINUOUS
 62
   249
 10
265.084796
 20
79.51
 30
0.0
 70
    64
  0
VERTEX
  8
0
  6
CONTINUOUS
 62
   249
 10
265.098516
 20
79.51
 30
0.0
 70
    64
  0
VERTEX
  8
0
  6
CONTINUOUS
 62
   249
 10
265.112236
 20
79.51
 30
0.0
 70
    64
  0
VERTEX
  8
0
  6
CONTINUOUS
 62
   249
 10
265.125956
 20
79.51
 30
0.0
 70
    64
  0
VERTEX
  8
0
  6
CONTINUOUS
 62
   249
 10
265.139676
 20
79.51
 30
0.0
 70
    64
  0
VERTEX
  8
0
  6
CONTINUOUS
 62
   249
 10
265.153396
 20
79.51
 30
0.0
 70
    64
  0
VERTEX
  8
0
  6
CONTINUOUS
 62
   249
 10
265.167116
 20
79.51
 30
0.0
 70
    64
  0
VERTEX
  8
0
  6
CONTINUOUS
 62
   249
 10
265.180836
 20
79.51
 30
0.0
 70
    64
  0
VERTEX
  8
0
  6
CONTINUOUS
 62
   249
 10
265.194556
 20
79.51
 30
0.0
 70
    64
  0
VERTEX
  8
0
  6
CONTINUOUS
 62
   249
 10
265.208276
 20
79.51
 30
0.0
 70
    64
  0
VERTEX
  8
0
  6
CONTINUOUS
 62
   249
 10
265.221996
 20
79.51
 30
0.0
 70
    64
  0
VERTEX
  8
0
  6
CONTINUOUS
 62
   249
 10
265.235716
 20
79.51
 30
0.0
 70
    64
  0
VERTEX
  8
0
  6
CONTINUOUS
 62
   249
 10
265.249436
 20
79.51
 30
0.0
 70
    64
  0
VERTEX
  8
0
  6
CONTINUOUS
 62
   249
 10
261.819436
 20
80.49
 30
0.0
 70
    64
  0
VERTEX
  8
0
  6
CONTINUOUS
 62
   249
 10
261.833156
 20
80.49
 30
0.0
 70
    64
  0
VERTEX
  8
0
  6
CONTINUOUS
 62
   249
 10
261.846876
 20
80.49
 30
0.0
 70
    64
  0
VERTEX
  8
0
  6
CONTINUOUS
 62
   249
 10
261.860596
 20
80.49
 30
0.0
 70
    64
  0
VERTEX
  8
0
  6
CONTINUOUS
 62
   249
 10
261.874316
 20
80.49
 30
0.0
 70
    64
  0
VERTEX
  8
0
  6
CONTINUOUS
 62
   249
 10
261.888036
 20
80.49
 30
0.0
 70
    64
  0
VERTEX
  8
0
  6
CONTINUOUS
 62
   249
 10
261.901756
 20
80.49
 30
0.0
 70
    64
  0
VERTEX
  8
0
  6
CONTINUOUS
 62
   249
 10
261.915476
 20
80.49
 30
0.0
 70
    64
  0
VERTEX
  8
0
  6
CONTINUOUS
 62
   249
 10
261.929196
 20
80.49
 30
0.0
 70
    64
  0
VERTEX
  8
0
  6
CONTINUOUS
 62
   249
 10
261.942916
 20
80.49
 30
0.0
 70
    64
  0
VERTEX
  8
0
  6
CONTINUOUS
 62
   249
 10
261.956636
 20
80.49
 30
0.0
 70
    64
  0
VERTEX
  8
0
  6
CONTINUOUS
 62
   249
 10
261.970356
 20
80.49
 30
0.0
 70
    64
  0
VERTEX
  8
0
  6
CONTINUOUS
 62
   249
 10
261.984076
 20
80.49
 30
0.0
 70
    64
  0
VERTEX
  8
0
  6
CONTINUOUS
 62
   249
 10
261.997796
 20
80.49
 30
0.0
 70
    64
  0
VERTEX
  8
0
  6
CONTINUOUS
 62
   249
 10
262.011516
 20
80.49
 30
0.0
 70
    64
  0
VERTEX
  8
0
  6
CONTINUOUS
 62
   249
 10
262.025236
 20
80.49
 30
0.0
 70
    64
  0
VERTEX
  8
0
  6
CONTINUOUS
 62
   249
 10
262.038956
 20
80.49
 30
0.0
 70
    64
  0
VERTEX
  8
0
  6
CONTINUOUS
 62
   249
 10
262.052676
 20
80.49
 30
0.0
 70
    64
  0
VERTEX
  8
0
  6
CONTINUOUS
 62
   249
 10
262.066396
 20
80.49
 30
0.0
 70
    64
  0
VERTEX
  8
0
  6
CONTINUOUS
 62
   249
 10
262.080116
 20
80.49
 30
0.0
 70
    64
  0
VERTEX
  8
0
  6
CONTINUOUS
 62
   249
 10
262.093836
 20
80.49
 30
0.0
 70
    64
  0
VERTEX
  8
0
  6
CONTINUOUS
 62
   249
 10
262.107556
 20
80.49
 30
0.0
 70
    64
  0
VERTEX
  8
0
  6
CONTINUOUS
 62
   249
 10
262.121276
 20
80.49
 30
0.0
 70
    64
  0
VERTEX
  8
0
  6
CONTINUOUS
 62
   249
 10
262.134996
 20
80.49
 30
0.0
 70
    64
  0
VERTEX
  8
0
  6
CONTINUOUS
 62
   249
 10
262.148716
 20
80.49
 30
0.0
 70
    64
  0
VERTEX
  8
0
  6
CONTINUOUS
 62
   249
 10
262.162436
 20
80.49
 30
0.0
 70
    64
  0
VERTEX
  8
0
  6
CONTINUOUS
 62
   249
 10
262.176156
 20
80.49
 30
0.0
 70
    64
  0
VERTEX
  8
0
  6
CONTINUOUS
 62
   249
 10
262.189876
 20
80.49
 30
0.0
 70
    64
  0
VERTEX
  8
0
  6
CONTINUOUS
 62
   249
 10
262.203596
 20
80.49
 30
0.0
 70
    64
  0
VERTEX
  8
0
  6
CONTINUOUS
 62
   249
 10
262.217316
 20
80.49
 30
0.0
 70
    64
  0
VERTEX
  8
0
  6
CONTINUOUS
 62
   249
 10
262.231036
 20
80.49
 30
0.0
 70
    64
  0
VERTEX
  8
0
  6
CONTINUOUS
 62
   249
 10
262.244756
 20
80.49
 30
0.0
 70
    64
  0
VERTEX
  8
0
  6
CONTINUOUS
 62
   249
 10
262.258476
 20
80.49
 30
0.0
 70
    64
  0
VERTEX
  8
0
  6
CONTINUOUS
 62
   249
 10
262.272196
 20
80.49
 30
0.0
 70
    64
  0
VERTEX
  8
0
  6
CONTINUOUS
 62
   249
 10
262.285916
 20
80.49
 30
0.0
 70
    64
  0
VERTEX
  8
0
  6
CONTINUOUS
 62
   249
 10
262.299636
 20
80.49
 30
0.0
 70
    64
  0
VERTEX
  8
0
  6
CONTINUOUS
 62
   249
 10
262.313356
 20
80.49
 30
0.0
 70
    64
  0
VERTEX
  8
0
  6
CONTINUOUS
 62
   249
 10
262.327076
 20
80.49
 30
0.0
 70
    64
  0
VERTEX
  8
0
  6
CONTINUOUS
 62
   249
 10
262.340796
 20
80.49
 30
0.0
 70
    64
  0
VERTEX
  8
0
  6
CONTINUOUS
 62
   249
 10
262.354516
 20
80.49
 30
0.0
 70
    64
  0
VERTEX
  8
0
  6
CONTINUOUS
 62
   249
 10
262.368236
 20
80.49
 30
0.0
 70
    64
  0
VERTEX
  8
0
  6
CONTINUOUS
 62
   249
 10
262.381956
 20
80.49
 30
0.0
 70
    64
  0
VERTEX
  8
0
  6
CONTINUOUS
 62
   249
 10
262.395676
 20
80.49
 30
0.0
 70
    64
  0
VERTEX
  8
0
  6
CONTINUOUS
 62
   249
 10
262.409396
 20
80.49
 30
0.0
 70
    64
  0
VERTEX
  8
0
  6
CONTINUOUS
 62
   249
 10
262.423116
 20
80.49
 30
0.0
 70
    64
  0
VERTEX
  8
0
  6
CONTINUOUS
 62
   249
 10
262.436836
 20
80.49
 30
0.0
 70
    64
  0
VERTEX
  8
0
  6
CONTINUOUS
 62
   249
 10
262.450556
 20
80.49
 30
0.0
 70
    64
  0
VERTEX
  8
0
  6
CONTINUOUS
 62
   249
 10
262.464276
 20
80.49
 30
0.0
 70
    64
  0
VERTEX
  8
0
  6
CONTINUOUS
 62
   249
 10
262.477996
 20
80.49
 30
0.0
 70
    64
  0
VERTEX
  8
0
  6
CONTINUOUS
 62
   249
 10
262.491716
 20
80.49
 30
0.0
 70
    64
  0
VERTEX
  8
0
  6
CONTINUOUS
 62
   249
 10
262.505436
 20
80.49
 30
0.0
 70
    64
  0
VERTEX
  8
0
  6
CONTINUOUS
 62
   249
 10
262.519156
 20
80.49
 30
0.0
 70
    64
  0
VERTEX
  8
0
  6
CONTINUOUS
 62
   249
 10
262.532876
 20
80.49
 30
0.0
 70
    64
  0
VERTEX
  8
0
  6
CONTINUOUS
 62
   249
 10
262.546596
 20
80.49
 30
0.0
 70
    64
  0
VERTEX
  8
0
  6
CONTINUOUS
 62
   249
 10
262.560316
 20
80.49
 30
0.0
 70
    64
  0
VERTEX
  8
0
  6
CONTINUOUS
 62
   249
 10
262.574036
 20
80.49
 30
0.0
 70
    64
  0
VERTEX
  8
0
  6
CONTINUOUS
 62
   249
 10
262.587756
 20
80.49
 30
0.0
 70
    64
  0
VERTEX
  8
0
  6
CONTINUOUS
 62
   249
 10
262.601476
 20
80.49
 30
0.0
 70
    64
  0
VERTEX
  8
0
  6
CONTINUOUS
 62
   249
 10
262.615196
 20
80.49
 30
0.0
 70
    64
  0
VERTEX
  8
0
  6
CONTINUOUS
 62
   249
 10
262.628916
 20
80.49
 30
0.0
 70
    64
  0
VERTEX
  8
0
  6
CONTINUOUS
 62
   249
 10
262.642636
 20
80.49
 30
0.0
 70
    64
  0
VERTEX
  8
0
  6
CONTINUOUS
 62
   249
 10
262.656356
 20
80.49
 30
0.0
 70
    64
  0
VERTEX
  8
0
  6
CONTINUOUS
 62
   249
 10
262.670076
 20
80.49
 30
0.0
 70
    64
  0
VERTEX
  8
0
  6
CONTINUOUS
 62
   249
 10
262.683796
 20
80.49
 30
0.0
 70
    64
  0
VERTEX
  8
0
  6
CONTINUOUS
 62
   249
 10
262.697516
 20
80.49
 30
0.0
 70
    64
  0
VERTEX
  8
0
  6
CONTINUOUS
 62
   249
 10
262.711236
 20
80.49
 30
0.0
 70
    64
  0
VERTEX
  8
0
  6
CONTINUOUS
 62
   249
 10
262.724956
 20
80.49
 30
0.0
 70
    64
  0
VERTEX
  8
0
  6
CONTINUOUS
 62
   249
 10
262.738676
 20
80.49
 30
0.0
 70
    64
  0
VERTEX
  8
0
  6
CONTINUOUS
 62
   249
 10
262.752396
 20
80.49
 30
0.0
 70
    64
  0
VERTEX
  8
0
  6
CONTINUOUS
 62
   249
 10
262.766116
 20
80.49
 30
0.0
 70
    64
  0
VERTEX
  8
0
  6
CONTINUOUS
 62
   249
 10
262.779836
 20
80.49
 30
0.0
 70
    64
  0
VERTEX
  8
0
  6
CONTINUOUS
 62
   249
 10
262.793556
 20
80.49
 30
0.0
 70
    64
  0
VERTEX
  8
0
  6
CONTINUOUS
 62
   249
 10
262.807276
 20
80.49
 30
0.0
 70
    64
  0
VERTEX
  8
0
  6
CONTINUOUS
 62
   249
 10
262.820996
 20
80.49
 30
0.0
 70
    64
  0
VERTEX
  8
0
  6
CONTINUOUS
 62
   249
 10
262.834716
 20
80.49
 30
0.0
 70
    64
  0
VERTEX
  8
0
  6
CONTINUOUS
 62
   249
 10
262.848436
 20
80.49
 30
0.0
 70
    64
  0
VERTEX
  8
0
  6
CONTINUOUS
 62
   249
 10
262.862156
 20
80.49
 30
0.0
 70
    64
  0
VERTEX
  8
0
  6
CONTINUOUS
 62
   249
 10
262.875876
 20
80.49
 30
0.0
 70
    64
  0
VERTEX
  8
0
  6
CONTINUOUS
 62
   249
 10
262.889596
 20
80.49
 30
0.0
 70
    64
  0
VERTEX
  8
0
  6
CONTINUOUS
 62
   249
 10
262.903316
 20
80.49
 30
0.0
 70
    64
  0
VERTEX
  8
0
  6
CONTINUOUS
 62
   249
 10
262.917036
 20
80.49
 30
0.0
 70
    64
  0
VERTEX
  8
0
  6
CONTINUOUS
 62
   249
 10
262.930756
 20
80.49
 30
0.0
 70
    64
  0
VERTEX
  8
0
  6
CONTINUOUS
 62
   249
 10
262.944476
 20
80.49
 30
0.0
 70
    64
  0
VERTEX
  8
0
  6
CONTINUOUS
 62
   249
 10
262.958196
 20
80.49
 30
0.0
 70
    64
  0
VERTEX
  8
0
  6
CONTINUOUS
 62
   249
 10
262.971916
 20
80.49
 30
0.0
 70
    64
  0
VERTEX
  8
0
  6
CONTINUOUS
 62
   249
 10
262.985636
 20
80.49
 30
0.0
 70
    64
  0
VERTEX
  8
0
  6
CONTINUOUS
 62
   249
 10
262.999356
 20
80.49
 30
0.0
 70
    64
  0
VERTEX
  8
0
  6
CONTINUOUS
 62
   249
 10
263.013076
 20
80.49
 30
0.0
 70
    64
  0
VERTEX
  8
0
  6
CONTINUOUS
 62
   249
 10
263.026796
 20
80.49
 30
0.0
 70
    64
  0
VERTEX
  8
0
  6
CONTINUOUS
 62
   249
 10
263.040516
 20
80.49
 30
0.0
 70
    64
  0
VERTEX
  8
0
  6
CONTINUOUS
 62
   249
 10
263.054236
 20
80.49
 30
0.0
 70
    64
  0
VERTEX
  8
0
  6
CONTINUOUS
 62
   249
 10
263.067956
 20
80.49
 30
0.0
 70
    64
  0
VERTEX
  8
0
  6
CONTINUOUS
 62
   249
 10
263.081676
 20
80.49
 30
0.0
 70
    64
  0
VERTEX
  8
0
  6
CONTINUOUS
 62
   249
 10
263.095396
 20
80.49
 30
0.0
 70
    64
  0
VERTEX
  8
0
  6
CONTINUOUS
 62
   249
 10
263.109116
 20
80.49
 30
0.0
 70
    64
  0
VERTEX
  8
0
  6
CONTINUOUS
 62
   249
 10
263.122836
 20
80.49
 30
0.0
 70
    64
  0
VERTEX
  8
0
  6
CONTINUOUS
 62
   249
 10
263.136556
 20
80.49
 30
0.0
 70
    64
  0
VERTEX
  8
0
  6
CONTINUOUS
 62
   249
 10
263.150276
 20
80.49
 30
0.0
 70
    64
  0
VERTEX
  8
0
  6
CONTINUOUS
 62
   249
 10
263.163996
 20
80.49
 30
0.0
 70
    64
  0
VERTEX
  8
0
  6
CONTINUOUS
 62
   249
 10
263.177716
 20
80.49
 30
0.0
 70
    64
  0
VERTEX
  8
0
  6
CONTINUOUS
 62
   249
 10
263.191436
 20
80.49
 30
0.0
 70
    64
  0
VERTEX
  8
0
  6
CONTINUOUS
 62
   249
 10
263.205156
 20
80.49
 30
0.0
 70
    64
  0
VERTEX
  8
0
  6
CONTINUOUS
 62
   249
 10
263.218876
 20
80.49
 30
0.0
 70
    64
  0
VERTEX
  8
0
  6
CONTINUOUS
 62
   249
 10
263.232596
 20
80.49
 30
0.0
 70
    64
  0
VERTEX
  8
0
  6
CONTINUOUS
 62
   249
 10
263.246316
 20
80.49
 30
0.0
 70
    64
  0
VERTEX
  8
0
  6
CONTINUOUS
 62
   249
 10
263.260036
 20
80.49
 30
0.0
 70
    64
  0
VERTEX
  8
0
  6
CONTINUOUS
 62
   249
 10
263.273756
 20
80.49
 30
0.0
 70
    64
  0
VERTEX
  8
0
  6
CONTINUOUS
 62
   249
 10
263.287476
 20
80.49
 30
0.0
 70
    64
  0
VERTEX
  8
0
  6
CONTINUOUS
 62
   249
 10
263.301196
 20
80.49
 30
0.0
 70
    64
  0
VERTEX
  8
0
  6
CONTINUOUS
 62
   249
 10
263.314916
 20
80.49
 30
0.0
 70
    64
  0
VERTEX
  8
0
  6
CONTINUOUS
 62
   249
 10
263.328636
 20
80.49
 30
0.0
 70
    64
  0
VERTEX
  8
0
  6
CONTINUOUS
 62
   249
 10
263.342356
 20
80.49
 30
0.0
 70
    64
  0
VERTEX
  8
0
  6
CONTINUOUS
 62
   249
 10
263.356076
 20
80.49
 30
0.0
 70
    64
  0
VERTEX
  8
0
  6
CONTINUOUS
 62
   249
 10
263.369796
 20
80.49
 30
0.0
 70
    64
  0
VERTEX
  8
0
  6
CONTINUOUS
 62
   249
 10
263.383516
 20
80.49
 30
0.0
 70
    64
  0
VERTEX
  8
0
  6
CONTINUOUS
 62
   249
 10
263.397236
 20
80.49
 30
0.0
 70
    64
  0
VERTEX
  8
0
  6
CONTINUOUS
 62
   249
 10
263.410956
 20
80.49
 30
0.0
 70
    64
  0
VERTEX
  8
0
  6
CONTINUOUS
 62
   249
 10
263.424676
 20
80.49
 30
0.0
 70
    64
  0
VERTEX
  8
0
  6
CONTINUOUS
 62
   249
 10
263.438396
 20
80.49
 30
0.0
 70
    64
  0
VERTEX
  8
0
  6
CONTINUOUS
 62
   249
 10
263.452116
 20
80.49
 30
0.0
 70
    64
  0
VERTEX
  8
0
  6
CONTINUOUS
 62
   249
 10
263.465836
 20
80.49
 30
0.0
 70
    64
  0
VERTEX
  8
0
  6
CONTINUOUS
 62
   249
 10
263.479556
 20
80.49
 30
0.0
 70
    64
  0
VERTEX
  8
0
  6
CONTINUOUS
 62
   249
 10
263.493276
 20
80.49
 30
0.0
 70
    64
  0
VERTEX
  8
0
  6
CONTINUOUS
 62
   249
 10
263.506996
 20
80.49
 30
0.0
 70
    64
  0
VERTEX
  8
0
  6
CONTINUOUS
 62
   249
 10
263.520716
 20
80.49
 30
0.0
 70
    64
  0
VERTEX
  8
0
  6
CONTINUOUS
 62
   249
 10
263.534436
 20
80.49
 30
0.0
 70
    64
  0
VERTEX
  8
0
  6
CONTINUOUS
 62
   249
 10
263.548156
 20
80.49
 30
0.0
 70
    64
  0
VERTEX
  8
0
  6
CONTINUOUS
 62
   249
 10
263.561876
 20
80.49
 30
0.0
 70
    64
  0
VERTEX
  8
0
  6
CONTINUOUS
 62
   249
 10
263.575596
 20
80.49
 30
0.0
 70
    64
  0
VERTEX
  8
0
  6
CONTINUOUS
 62
   249
 10
263.589316
 20
80.49
 30
0.0
 70
    64
  0
VERTEX
  8
0
  6
CONTINUOUS
 62
   249
 10
263.603036
 20
80.49
 30
0.0
 70
    64
  0
VERTEX
  8
0
  6
CONTINUOUS
 62
   249
 10
263.616756
 20
80.49
 30
0.0
 70
    64
  0
VERTEX
  8
0
  6
CONTINUOUS
 62
   249
 10
263.630476
 20
80.49
 30
0.0
 70
    64
  0
VERTEX
  8
0
  6
CONTINUOUS
 62
   249
 10
263.644196
 20
80.49
 30
0.0
 70
    64
  0
VERTEX
  8
0
  6
CONTINUOUS
 62
   249
 10
263.657916
 20
80.49
 30
0.0
 70
    64
  0
VERTEX
  8
0
  6
CONTINUOUS
 62
   249
 10
263.671636
 20
80.49
 30
0.0
 70
    64
  0
VERTEX
  8
0
  6
CONTINUOUS
 62
   249
 10
263.685356
 20
80.49
 30
0.0
 70
    64
  0
VERTEX
  8
0
  6
CONTINUOUS
 62
   249
 10
263.699076
 20
80.49
 30
0.0
 70
    64
  0
VERTEX
  8
0
  6
CONTINUOUS
 62
   249
 10
263.712796
 20
80.49
 30
0.0
 70
    64
  0
VERTEX
  8
0
  6
CONTINUOUS
 62
   249
 10
263.726516
 20
80.49
 30
0.0
 70
    64
  0
VERTEX
  8
0
  6
CONTINUOUS
 62
   249
 10
263.740236
 20
80.49
 30
0.0
 70
    64
  0
VERTEX
  8
0
  6
CONTINUOUS
 62
   249
 10
263.753956
 20
80.49
 30
0.0
 70
    64
  0
VERTEX
  8
0
  6
CONTINUOUS
 62
   249
 10
263.767676
 20
80.49
 30
0.0
 70
    64
  0
VERTEX
  8
0
  6
CONTINUOUS
 62
   249
 10
263.781396
 20
80.49
 30
0.0
 70
    64
  0
VERTEX
  8
0
  6
CONTINUOUS
 62
   249
 10
263.795116
 20
80.49
 30
0.0
 70
    64
  0
VERTEX
  8
0
  6
CONTINUOUS
 62
   249
 10
263.808836
 20
80.49
 30
0.0
 70
    64
  0
VERTEX
  8
0
  6
CONTINUOUS
 62
   249
 10
263.822556
 20
80.49
 30
0.0
 70
    64
  0
VERTEX
  8
0
  6
CONTINUOUS
 62
   249
 10
263.836276
 20
80.49
 30
0.0
 70
    64
  0
VERTEX
  8
0
  6
CONTINUOUS
 62
   249
 10
263.849996
 20
80.49
 30
0.0
 70
    64
  0
VERTEX
  8
0
  6
CONTINUOUS
 62
   249
 10
263.863716
 20
80.49
 30
0.0
 70
    64
  0
VERTEX
  8
0
  6
CONTINUOUS
 62
   249
 10
263.877436
 20
80.49
 30
0.0
 70
    64
  0
VERTEX
  8
0
  6
CONTINUOUS
 62
   249
 10
263.891156
 20
80.49
 30
0.0
 70
    64
  0
VERTEX
  8
0
  6
CONTINUOUS
 62
   249
 10
263.904876
 20
80.49
 30
0.0
 70
    64
  0
VERTEX
  8
0
  6
CONTINUOUS
 62
   249
 10
263.918596
 20
80.49
 30
0.0
 70
    64
  0
VERTEX
  8
0
  6
CONTINUOUS
 62
   249
 10
263.932316
 20
80.49
 30
0.0
 70
    64
  0
VERTEX
  8
0
  6
CONTINUOUS
 62
   249
 10
263.946036
 20
80.49
 30
0.0
 70
    64
  0
VERTEX
  8
0
  6
CONTINUOUS
 62
   249
 10
263.959756
 20
80.49
 30
0.0
 70
    64
  0
VERTEX
  8
0
  6
CONTINUOUS
 62
   249
 10
263.973476
 20
80.49
 30
0.0
 70
    64
  0
VERTEX
  8
0
  6
CONTINUOUS
 62
   249
 10
263.987196
 20
80.49
 30
0.0
 70
    64
  0
VERTEX
  8
0
  6
CONTINUOUS
 62
   249
 10
264.000916
 20
80.49
 30
0.0
 70
    64
  0
VERTEX
  8
0
  6
CONTINUOUS
 62
   249
 10
264.014636
 20
80.49
 30
0.0
 70
    64
  0
VERTEX
  8
0
  6
CONTINUOUS
 62
   249
 10
264.028356
 20
80.49
 30
0.0
 70
    64
  0
VERTEX
  8
0
  6
CONTINUOUS
 62
   249
 10
264.042076
 20
80.49
 30
0.0
 70
    64
  0
VERTEX
  8
0
  6
CONTINUOUS
 62
   249
 10
264.055796
 20
80.49
 30
0.0
 70
    64
  0
VERTEX
  8
0
  6
CONTINUOUS
 62
   249
 10
264.069516
 20
80.49
 30
0.0
 70
    64
  0
VERTEX
  8
0
  6
CONTINUOUS
 62
   249
 10
264.083236
 20
80.49
 30
0.0
 70
    64
  0
VERTEX
  8
0
  6
CONTINUOUS
 62
   249
 10
264.096956
 20
80.49
 30
0.0
 70
    64
  0
VERTEX
  8
0
  6
CONTINUOUS
 62
   249
 10
264.110676
 20
80.49
 30
0.0
 70
    64
  0
VERTEX
  8
0
  6
CONTINUOUS
 62
   249
 10
264.124396
 20
80.49
 30
0.0
 70
    64
  0
VERTEX
  8
0
  6
CONTINUOUS
 62
   249
 10
264.138116
 20
80.49
 30
0.0
 70
    64
  0
VERTEX
  8
0
  6
CONTINUOUS
 62
   249
 10
264.151836
 20
80.49
 30
0.0
 70
    64
  0
VERTEX
  8
0
  6
CONTINUOUS
 62
   249
 10
264.165556
 20
80.49
 30
0.0
 70
    64
  0
VERTEX
  8
0
  6
CONTINUOUS
 62
   249
 10
264.179276
 20
80.49
 30
0.0
 70
    64
  0
VERTEX
  8
0
  6
CONTINUOUS
 62
   249
 10
264.192996
 20
80.49
 30
0.0
 70
    64
  0
VERTEX
  8
0
  6
CONTINUOUS
 62
   249
 10
264.206716
 20
80.49
 30
0.0
 70
    64
  0
VERTEX
  8
0
  6
CONTINUOUS
 62
   249
 10
264.220436
 20
80.49
 30
0.0
 70
    64
  0
VERTEX
  8
0
  6
CONTINUOUS
 62
   249
 10
264.234156
 20
80.49
 30
0.0
 70
    64
  0
VERTEX
  8
0
  6
CONTINUOUS
 62
   249
 10
264.247876
 20
80.49
 30
0.0
 70
    64
  0
VERTEX
  8
0
  6
CONTINUOUS
 62
   249
 10
264.261596
 20
80.49
 30
0.0
 70
    64
  0
VERTEX
  8
0
  6
CONTINUOUS
 62
   249
 10
264.275316
 20
80.49
 30
0.0
 70
    64
  0
VERTEX
  8
0
  6
CONTINUOUS
 62
   249
 10
264.289036
 20
80.49
 30
0.0
 70
    64
  0
VERTEX
  8
0
  6
CONTINUOUS
 62
   249
 10
264.302756
 20
80.49
 30
0.0
 70
    64
  0
VERTEX
  8
0
  6
CONTINUOUS
 62
   249
 10
264.316476
 20
80.49
 30
0.0
 70
    64
  0
VERTEX
  8
0
  6
CONTINUOUS
 62
   249
 10
264.330196
 20
80.49
 30
0.0
 70
    64
  0
VERTEX
  8
0
  6
CONTINUOUS
 62
   249
 10
264.343916
 20
80.49
 30
0.0
 70
    64
  0
VERTEX
  8
0
  6
CONTINUOUS
 62
   249
 10
264.357636
 20
80.49
 30
0.0
 70
    64
  0
VERTEX
  8
0
  6
CONTINUOUS
 62
   249
 10
264.371356
 20
80.49
 30
0.0
 70
    64
  0
VERTEX
  8
0
  6
CONTINUOUS
 62
   249
 10
264.385076
 20
80.49
 30
0.0
 70
    64
  0
VERTEX
  8
0
  6
CONTINUOUS
 62
   249
 10
264.398796
 20
80.49
 30
0.0
 70
    64
  0
VERTEX
  8
0
  6
CONTINUOUS
 62
   249
 10
264.412516
 20
80.49
 30
0.0
 70
    64
  0
VERTEX
  8
0
  6
CONTINUOUS
 62
   249
 10
264.426236
 20
80.49
 30
0.0
 70
    64
  0
VERTEX
  8
0
  6
CONTINUOUS
 62
   249
 10
264.439956
 20
80.49
 30
0.0
 70
    64
  0
VERTEX
  8
0
  6
CONTINUOUS
 62
   249
 10
264.453676
 20
80.49
 30
0.0
 70
    64
  0
VERTEX
  8
0
  6
CONTINUOUS
 62
   249
 10
264.467396
 20
80.49
 30
0.0
 70
    64
  0
VERTEX
  8
0
  6
CONTINUOUS
 62
   249
 10
264.481116
 20
80.49
 30
0.0
 70
    64
  0
VERTEX
  8
0
  6
CONTINUOUS
 62
   249
 10
264.494836
 20
80.49
 30
0.0
 70
    64
  0
VERTEX
  8
0
  6
CONTINUOUS
 62
   249
 10
264.508556
 20
80.49
 30
0.0
 70
    64
  0
VERTEX
  8
0
  6
CONTINUOUS
 62
   249
 10
264.522276
 20
80.49
 30
0.0
 70
    64
  0
VERTEX
  8
0
  6
CONTINUOUS
 62
   249
 10
264.535996
 20
80.49
 30
0.0
 70
    64
  0
VERTEX
  8
0
  6
CONTINUOUS
 62
   249
 10
264.549716
 20
80.49
 30
0.0
 70
    64
  0
VERTEX
  8
0
  6
CONTINUOUS
 62
   249
 10
264.563436
 20
80.49
 30
0.0
 70
    64
  0
VERTEX
  8
0
  6
CONTINUOUS
 62
   249
 10
264.577156
 20
80.49
 30
0.0
 70
    64
  0
VERTEX
  8
0
  6
CONTINUOUS
 62
   249
 10
264.590876
 20
80.49
 30
0.0
 70
    64
  0
VERTEX
  8
0
  6
CONTINUOUS
 62
   249
 10
264.604596
 20
80.49
 30
0.0
 70
    64
  0
VERTEX
  8
0
  6
CONTINUOUS
 62
   249
 10
264.618316
 20
80.49
 30
0.0
 70
    64
  0
VERTEX
  8
0
  6
CONTINUOUS
 62
   249
 10
264.632036
 20
80.49
 30
0.0
 70
    64
  0
VERTEX
  8
0
  6
CONTINUOUS
 62
   249
 10
264.645756
 20
80.49
 30
0.0
 70
    64
  0
VERTEX
  8
0
  6
CONTINUOUS
 62
   249
 10
264.659476
 20
80.49
 30
0.0
 70
    64
  0
VERTEX
  8
0
  6
CONTINUOUS
 62
   249
 10
264.673196
 20
80.49
 30
0.0
 70
    64
  0
VERTEX
  8
0
  6
CONTINUOUS
 62
   249
 10
264.686916
 20
80.49
 30
0.0
 70
    64
  0
VERTEX
  8
0
  6
CONTINUOUS
 62
   249
 10
264.700636
 20
80.49
 30
0.0
 70
    64
  0
VERTEX
  8
0
  6
CONTINUOUS
 62
   249
 10
264.714356
 20
80.49
 30
0.0
 70
    64
  0
VERTEX
  8
0
  6
CONTINUOUS
 62
   249
 10
264.728076
 20
80.49
 30
0.0
 70
    64
  0
VERTEX
  8
0
  6
CONTINUOUS
 62
   249
 10
264.741796
 20
80.49
 30
0.0
 70
    64
  0
VERTEX
  8
0
  6
CONTINUOUS
 62
   249
 10
264.755516
 20
80.49
 30
0.0
 70
    64
  0
VERTEX
  8
0
  6
CONTINUOUS
 62
   249
 10
264.769236
 20
80.49
 30
0.0
 70
    64
  0
VERTEX
  8
0
  6
CONTINUOUS
 62
   249
 10
264.782956
 20
80.49
 30
0.0
 70
    64
  0
VERTEX
  8
0
  6
CONTINUOUS
 62
   249
 10
264.796676
 20
80.49
 30
0.0
 70
    64
  0
VERTEX
  8
0
  6
CONTINUOUS
 62
   249
 10
264.810396
 20
80.49
 30
0.0
 70
    64
  0
VERTEX
  8
0
  6
CONTINUOUS
 62
   249
 10
264.824116
 20
80.49
 30
0.0
 70
    64
  0
VERTEX
  8
0
  6
CONTINUOUS
 62
   249
 10
264.837836
 20
80.49
 30
0.0
 70
    64
  0
VERTEX
  8
0
  6
CONTINUOUS
 62
   249
 10
264.851556
 20
80.49
 30
0.0
 70
    64
  0
VERTEX
  8
0
  6
CONTINUOUS
 62
   249
 10
264.865276
 20
80.49
 30
0.0
 70
    64
  0
VERTEX
  8
0
  6
CONTINUOUS
 62
   249
 10
264.878996
 20
80.49
 30
0.0
 70
    64
  0
VERTEX
  8
0
  6
CONTINUOUS
 62
   249
 10
264.892716
 20
80.49
 30
0.0
 70
    64
  0
VERTEX
  8
0
  6
CONTINUOUS
 62
   249
 10
264.906436
 20
80.49
 30
0.0
 70
    64
  0
VERTEX
  8
0
  6
CONTINUOUS
 62
   249
 10
264.920156
 20
80.49
 30
0.0
 70
    64
  0
VERTEX
  8
0
  6
CONTINUOUS
 62
   249
 10
264.933876
 20
80.49
 30
0.0
 70
    64
  0
VERTEX
  8
0
  6
CONTINUOUS
 62
   249
 10
264.947596
 20
80.49
 30
0.0
 70
    64
  0
VERTEX
  8
0
  6
CONTINUOUS
 62
   249
 10
264.961316
 20
80.49
 30
0.0
 70
    64
  0
VERTEX
  8
0
  6
CONTINUOUS
 62
   249
 10
264.975036
 20
80.49
 30
0.0
 70
    64
  0
VERTEX
  8
0
  6
CONTINUOUS
 62
   249
 10
264.988756
 20
80.49
 30
0.0
 70
    64
  0
VERTEX
  8
0
  6
CONTINUOUS
 62
   249
 10
265.002476
 20
80.49
 30
0.0
 70
    64
  0
VERTEX
  8
0
  6
CONTINUOUS
 62
   249
 10
265.016196
 20
80.49
 30
0.0
 70
    64
  0
VERTEX
  8
0
  6
CONTINUOUS
 62
   249
 10
265.029916
 20
80.49
 30
0.0
 70
    64
  0
VERTEX
  8
0
  6
CONTINUOUS
 62
   249
 10
265.043636
 20
80.49
 30
0.0
 70
    64
  0
VERTEX
  8
0
  6
CONTINUOUS
 62
   249
 10
265.057356
 20
80.49
 30
0.0
 70
    64
  0
VERTEX
  8
0
  6
CONTINUOUS
 62
   249
 10
265.071076
 20
80.49
 30
0.0
 70
    64
  0
VERTEX
  8
0
  6
CONTINUOUS
 62
   249
 10
265.084796
 20
80.49
 30
0.0
 70
    64
  0
VERTEX
  8
0
  6
CONTINUOUS
 62
   249
 10
265.098516
 20
80.49
 30
0.0
 70
    64
  0
VERTEX
  8
0
  6
CONTINUOUS
 62
   249
 10
265.112236
 20
80.49
 30
0.0
 70
    64
  0
VERTEX
  8
0
  6
CONTINUOUS
 62
   249
 10
265.125956
 20
80.49
 30
0.0
 70
    64
  0
VERTEX
  8
0
  6
CONTINUOUS
 62
   249
 10
265.139676
 20
80.49
 30
0.0
 70
    64
  0
VERTEX
  8
0
  6
CONTINUOUS
 62
   249
 10
265.153396
 20
80.49
 30
0.0
 70
    64
  0
VERTEX
  8
0
  6
CONTINUOUS
 62
   249
 10
265.167116
 20
80.49
 30
0.0
 70
    64
  0
VERTEX
  8
0
  6
CONTINUOUS
 62
   249
 10
265.180836
 20
80.49
 30
0.0
 70
    64
  0
VERTEX
  8
0
  6
CONTINUOUS
 62
   249
 10
265.194556
 20
80.49
 30
0.0
 70
    64
  0
VERTEX
  8
0
  6
CONTINUOUS
 62
   249
 10
265.208276
 20
80.49
 30
0.0
 70
    64
  0
VERTEX
  8
0
  6
CONTINUOUS
 62
   249
 10
265.221996
 20
80.49
 30
0.0
 70
    64
  0
VERTEX
  8
0
  6
CONTINUOUS
 62
   249
 10
265.235716
 20
80.49
 30
0.0
 70
    64
  0
VERTEX
  8
0
  6
CONTINUOUS
 62
   249
 10
265.249436
 20
80.49
 30
0.0
 70
    64
  0
SEQEND
  8
0
  6
CONTINUOUS
 62
   249
  0
LINE
  8
0
  6
DASHED
 62
   249
 10
42.5
 20
115.0
 30
0.0
 11
37.5
 21
115.0
 31
0.0
  0
LINE
  8
0
  6
DASHED
 62
   249
 10
42.5
 20
105.0
 30
0.0
 11
37.5
 21
105.0
 31
0.0
  0
LINE
  8
0
  6
DASHED
 62
   249
 10
42.5
 20
95.0
 30
0.0
 11
37.5
 21
95.0
 31
0.0
  0
LINE
  8
0
  6
DASHED
 62
   249
 10
42.5
 20
90.0
 30
0.0
 11
37.5
 21
90.0
 31
0.0
  0
LINE
  8
0
  6
DASHED
 62
   249
 10
42.5
 20
62.5
 30
0.0
 11
37.5
 21
62.5
 31
0.0
  0
LINE
  8
0
  6
CONTINUOUS
 62
   249
 10
35.0
 20
99.999655
 30
0.0
 11
36.0
 21
98.999655
 31
0.0
  0
TEXT
  8
0
  6
CONTINUOUS
 62
   249
 10
27.5
 20
61.500038
 30
0.0
 40
2.0
  1
4)
  7
ROMANS
  0
LINE
  8
0
  6
CONTINUOUS
 62
   249
 10
177.5
 20
165.0
 30
0.0
 11
207.950615
 21
165.0
 31
0.0
  0
TEXT
  8
0
  6
HIDDEN
 62
   249
 10
189.121307
 20
205.670986
 30
0.0
 40
2.339483
  1
D
  7
GREEKC
  0
LINE
  8
0
  6
CONTINUOUS
 62
   249
 10
207.950615
 20
202.5
 30
0.0
 11
235.0
 21
202.5
 31
0.0
  0
LINE
  8
0
  6
CONTINUOUS
 62
   249
 10
362.5
 20
252.5
 30
0.0
 11
380.0
 21
252.5
 31
0.0
  0
LINE
  8
0
  6
CONTINUOUS
 62
   249
 10
380.0
 20
252.5
 30
0.0
 11
380.0
 21
232.5
 31
0.0
  0
LINE
  8
0
  6
CONTINUOUS
 62
   249
 10
380.0
 20
232.5
 30
0.0
 11
362.5
 21
232.5
 31
0.0
  0
LINE
  8
0
  6
CONTINUOUS
 62
   249
 10
362.5
 20
232.5
 30
0.0
 11
362.5
 21
252.5
 31
0.0
  0
TEXT
  8
0
 62
   249
 10
370.837049
 20
75.114703
 30
0.0
 40
2.0
  1
In=5A
  7
ROMANS
 11
370.837049
 21
74.448036
 31
0.0
 73
     1
  0
TEXT
  8
0
 62
   249
 10
354.837049
 20
75.114703
 30
0.0
 40
2.0
  1
In=1A 
  7
ROMANS
 11
354.837049
 21
74.448036
 31
0.0
 73
     1
  0
TEXT
  8
0
 62
   249
 10
344.837049
 20
80.380309
 30
0.0
 40
2.0
  1
TERMINALS / UTTAG
  7
ROMANS
 11
344.837049
 21
79.713642
 31
0.0
 73
     1
  0
LINE
  8
0
 62
   249
 10
352.837049
 20
74.448036
 30
0.0
 11
382.837049
 21
74.448036
 31
0.0
  0
LINE
  8
0
 62
   249
 10
366.837049
 20
78.524389
 30
0.0
 11
366.837049
 21
37.211897
 31
0.0
  0
LINE
  8
0
 62
   249
 10
352.837049
 20
78.524389
 30
0.0
 11
352.837049
 21
37.211897
 31
0.0
  0
LINE
  8
0
 62
   249
 10
338.837049
 20
78.524389
 30
0.0
 11
382.837049
 21
78.524389
 31
0.0
  0
LINE
  8
0
 62
   249
 10
382.837049
 20
37.211897
 30
0.0
 11
382.837049
 21
84.524389
 31
0.0
  0
LINE
  8
0
 62
   249
 10
338.837049
 20
84.524389
 30
0.0
 11
338.837049
 21
37.211897
 31
0.0
  0
LINE
  8
0
 62
   249
 10
382.837049
 20
84.524389
 30
0.0
 11
338.837049
 21
84.524389
 31
0.0
  0
LINE
  8
0
  6
CONTINUOUS
 62
   249
 10
338.837049
 20
37.211897
 30
0.0
 11
382.837049
 21
37.211897
 31
0.0
  0
LINE
  8
0
  6
CONTINUOUS
 62
   249
 10
172.5
 20
95.0
 30
0.0
 11
172.5
 21
57.5
 31
0.0
  0
LINE
  8
0
  6
CONTINUOUS
 62
   249
 10
167.5
 20
90.0
 30
0.0
 11
167.5
 21
57.5
 31
0.0
  0
TEXT
  8
0
  6
CONTINUOUS
 62
   249
 10
155.445572
 20
57.877099
 30
0.0
 40
2.0
  1
18
 50
90.0
  7
ROMANS
  0
TEXT
  8
0
  6
CONTINUOUS
 62
   249
 10
160.568127
 20
57.877099
 30
0.0
 40
2.0
  1
15
 50
90.0
  7
ROMANS
  0
TEXT
  8
0
  6
CONTINUOUS
 62
   249
 10
165.523885
 20
57.877099
 30
0.0
 40
2.0
  1
13
 50
90.0
  7
ROMANS
  0
TEXT
  8
0
  6
CONTINUOUS
 62
   249
 10
175.428239
 20
58.561614
 30
0.0
 40
2.0
  1
8
 50
90.0
  7
ROMANS
  0
TEXT
  8
0
  6
CONTINUOUS
 62
   249
 10
170.587502
 20
57.877099
 30
0.0
 40
2.0
  1
10
 50
90.0
  7
ROMANS
  0
TEXT
  8
0
  6
CONTINUOUS
 62
   249
 10
223.138441
 20
58.708915
 30
0.0
 40
2.0
  1
1
 50
90.0
  7
ROMANS
  0
TEXT
  8
0
  6
CONTINUOUS
 62
   249
 10
228.191192
 20
58.708915
 30
0.0
 40
2.0
  1
2
 50
90.0
  7
ROMANS
  0
INSERT
  8
0
  6
CONTINUOUS
 62
   249
  2
B39
 10
255.0
 20
210.0
 30
0.0
  0
INSERT
  8
0
  6
CONTINUOUS
 62
   249
  2
B39
 10
255.0
 20
192.5
 30
0.0
  0
INSERT
  8
0
  6
CONTINUOUS
 62
   249
  2
B39
 10
255.0
 20
172.5
 30
0.0
  0
LINE
  8
0
  6
CONTINUOUS
 62
   249
 10
232.5
 20
80.0
 30
0.0
 11
260.0
 21
80.0
 31
0.0
  0
LINE
  8
0
  6
CONTINUOUS
 62
   249
 10
225.0
 20
77.929605
 30
0.0
 11
225.0
 21
75.0
 31
0.0
  0
LINE
  8
0
  6
CONTINUOUS
 62
   249
 10
220.0
 20
77.929605
 30
0.0
 11
220.0
 21
75.0
 31
0.0
  0
LINE
  8
0
  6
CONTINUOUS
 62
   249
 10
225.0
 20
92.5
 30
0.0
 11
225.0
 21
87.252154
 31
0.0
  0
LINE
  8
0
  6
CONTINUOUS
 62
   249
 10
220.0
 20
92.5
 30
0.0
 11
220.0
 21
87.252154
 31
0.0
  0
INSERT
  8
0
 62
   249
  2
WKU130
 10
222.806261
 20
78.502888
 30
0.0
 41
0.8
 42
0.8
 43
0.8
  0
LINE
  8
0
 62
   249
 10
222.466311
 20
80.22844
 30
0.0
 11
226.466311
 21
80.22844
 31
0.0
  0
LINE
  8
0
 62
   249
 10
218.709901
 20
85.174464
 30
0.0
 11
222.709901
 21
85.174464
 31
0.0
  0
LINE
  8
0
 62
   249
 10
217.795103
 20
78.886207
 30
0.0
 11
226.158613
 21
87.252154
 31
0.0
  0
LINE
  8
0
 62
   249
 10
218.779395
 20
77.929605
 30
0.0
 11
227.119756
 21
86.267352
 31
0.0
  0
LINE
  8
0
 62
   249
 10
217.795103
 20
77.929605
 30
0.0
 11
217.795103
 21
87.252154
 31
0.0
  0
LINE
  8
0
 62
   249
 10
227.119756
 20
77.929605
 30
0.0
 11
217.795103
 21
77.929605
 31
0.0
  0
LINE
  8
0
 62
   249
 10
227.119756
 20
87.252154
 30
0.0
 11
227.119756
 21
77.929605
 31
0.0
  0
LINE
  8
0
 62
   249
 10
217.795103
 20
87.252154
 30
0.0
 11
227.119756
 21
87.252154
 31
0.0
  0
TEXT
  8
0
  6
CONTINUOUS
 62
   249
 10
219.366734
 20
93.05315
 30
0.0
 40
2.0
  1
+
  0
TEXT
  8
0
  6
CONTINUOUS
 62
   249
 10
224.297086
 20
93.077719
 30
0.0
 40
2.0
  1
-
  0
LINE
  8
0
  6
CONTINUOUS
 62
   249
 10
266.0
 20
184.0
 30
0.0
 11
265.0
 21
185.0
 31
0.0
  0
LINE
  8
0
  6
CONTINUOUS
 62
   249
 10
266.0
 20
184.0
 30
0.0
 11
266.0
 21
177.0
 31
0.0
  0
LINE
  8
0
  6
CONTINUOUS
 62
   249
 10
266.0
 20
177.0
 30
0.0
 11
265.0
 21
176.0
 31
0.0
  0
LINE
  8
0
  6
CONTINUOUS
 62
   249
 10
270.0
 20
202.5
 30
0.0
 11
266.0
 21
202.5
 31
0.0
  0
LINE
  8
0
  6
CONTINUOUS
 62
   249
 10
270.0
 20
182.5
 30
0.0
 11
266.0
 21
182.5
 31
0.0
  0
LINE
  8
0
  6
CONTINUOUS
 62
   249
 10
266.0
 20
197.0
 30
0.0
 11
265.0
 21
196.0
 31
0.0
  0
LINE
  8
0
  6
CONTINUOUS
 62
   249
 10
266.0
 20
204.0
 30
0.0
 11
266.0
 21
197.0
 31
0.0
  0
LINE
  8
0
  6
CONTINUOUS
 62
   249
 10
266.0
 20
204.0
 30
0.0
 11
265.0
 21
205.0
 31
0.0
  0
LINE
  8
0
  6
CONTINUOUS
 62
   249
 10
266.0
 20
221.5
 30
0.0
 11
265.0
 21
222.5
 31
0.0
  0
LINE
  8
0
  6
CONTINUOUS
 62
   249
 10
266.0
 20
214.5
 30
0.0
 11
265.0
 21
213.5
 31
0.0
  0
LINE
  8
0
  6
CONTINUOUS
 62
   249
 10
266.0
 20
221.5
 30
0.0
 11
266.0
 21
214.5
 31
0.0
  0
LINE
  8
0
  6
CONTINUOUS
 62
   249
 10
270.0
 20
220.0
 30
0.0
 11
266.0
 21
220.0
 31
0.0
  0
LINE
  8
0
  6
CONTINUOUS
 62
   249
 10
260.0
 20
177.5
 30
0.0
 11
264.266471
 21
177.5
 31
0.0
  0
LINE
  8
0
  6
CONTINUOUS
 62
   249
 10
260.0
 20
182.5
 30
0.0
 11
264.266471
 21
182.5
 31
0.0
  0
LINE
  8
0
  6
CONTINUOUS
 62
   249
 10
260.0
 20
197.5
 30
0.0
 11
264.266471
 21
197.5
 31
0.0
  0
LINE
  8
0
  6
CONTINUOUS
 62
   249
 10
260.0
 20
202.5
 30
0.0
 11
264.266471
 21
202.5
 31
0.0
  0
LINE
  8
0
  6
CONTINUOUS
 62
   249
 10
260.0
 20
215.0
 30
0.0
 11
264.266471
 21
215.0
 31
0.0
  0
LINE
  8
0
  6
CONTINUOUS
 62
   249
 10
260.0
 20
220.0
 30
0.0
 11
264.266471
 21
220.0
 31
0.0
  0
TEXT
  8
0
  6
CONTINUOUS
 62
   249
 10
344.279773
 20
66.016535
 30
0.0
 40
2.0
  1
L2     
  7
ROMANS
  0
TEXT
  8
0
  6
CONTINUOUS
 62
   249
 10
344.279773
 20
62.683202
 30
0.0
 40
2.0
  1
L3
  7
ROMANS
  0
TEXT
  8
0
  6
CONTINUOUS
 62
   249
 10
356.939551
 20
65.988655
 30
0.0
 40
2.0
  1
4-6     
  7
ROMANS
  0
TEXT
  8
0
  6
CONTINUOUS
 62
   249
 10
356.939551
 20
62.655322
 30
0.0
 40
2.0
  1
7-9
  7
ROMANS
  0
TEXT
  8
0
  6
CONTINUOUS
 62
   249
 10
372.323007
 20
65.988655
 30
0.0
 40
2.0
  1
4-5
  7
ROMANS
  0
TEXT
  8
0
  6
CONTINUOUS
 62
   249
 10
372.323007
 20
62.655322
 30
0.0
 40
2.0
  1
7-8
  7
ROMANS
  0
LINE
  8
0
  6
CONTINUOUS
 62
   249
 10
140.0
 20
62.5
 30
0.0
 11
140.0
 21
65.0
 31
0.0
  0
LINE
  8
0
  6
CONTINUOUS
 62
   249
 10
144.353436
 20
67.138137
 30
0.0
 11
139.256076
 21
64.285297
 31
0.0
  0
LINE
  8
0
  6
CONTINUOUS
 62
   249
 10
145.740939
 20
67.5
 30
0.0
 11
150.0
 21
67.5
 31
0.0
  0
LINE
  8
0
  6
DASHED
 62
   249
 10
260.0
 20
210.0
 30
0.0
 11
280.0
 21
210.0
 31
0.0
  0
LINE
  8
0
  6
CONTINUOUS
 62
   249
 10
177.5
 20
187.5
 30
0.0
 11
207.950615
 21
187.5
 31
0.0
  0
TEXT
  8
0
  6
CONTINUOUS
 62
   249
 10
201.62812
 20
205.541623
 30
0.0
 40
2.5
  1
U1
  7
ROMANS
  0
TEXT
  8
0
  6
CONTINUOUS
 62
   249
 10
201.62812
 20
183.86521
 30
0.0
 40
2.5
  1
U2
  7
ROMANS
  0
TEXT
  8
0
  6
CONTINUOUS
 62
   249
 10
201.62812
 20
160.954516
 30
0.0
 40
2.5
  1
U3
  7
ROMANS
  0
TEXT
  8
0
  6
CONTINUOUS
 62
   249
 10
198.635355
 20
175.68466
 30
0.0
 40
2.0
  1
3I/3I
  7
GREEKS
  0
TEXT
  8
0
  6
CONTINUOUS
 62
   249
 10
198.575501
 20
197.260923
 30
0.0
 40
2.0
  1
3I/3I
  7
GREEKS
  0
TEXT
  8
0
  6
CONTINUOUS
 62
   249
 10
201.304856
 20
154.10969
 30
0.0
 40
2.5
  1
3I
  7
GREEKS
  0
TEXT
  8
0
  6
CONTINUOUS
 62
   249
 10
184.735191
 20
205.634448
 30
0.0
 40
2.5
  1
Y
  7
GREEKS
  0
TEXT
  8
0
  6
CONTINUOUS
 62
   249
 10
187.063251
 20
205.634448
 30
0.0
 40
2.5
  1
/
  7
GREEKS
  0
TEXT
  8
0
  6
HIDDEN
 62
   249
 10
189.565157
 20
199.364764
 30
0.0
 40
2.5
  1
I
  7
GREEKS
  0
INSERT
  8
0
  6
CONTINUOUS
 62
   249
  2
BLC29
 10
191.149993
 20
200.258983
 30
0.0
 41
0.684724
 42
0.684724
 43
0.684724
  0
LINE
  8
0
  6
CONTINUOUS
 62
   249
 10
42.5
 20
85.0
 30
0.0
 11
125.0
 21
85.0
 31
0.0
  0
LINE
  8
0
  6
CONTINUOUS
 62
   249
 10
129.353436
 20
84.638137
 30
0.0
 11
124.256076
 21
81.785297
 31
0.0
  0
LINE
  8
0
  6
CONTINUOUS
 62
   249
 10
125.0
 20
80.0
 30
0.0
 11
125.0
 21
82.5
 31
0.0
  0
LINE
  8
0
  6
CONTINUOUS
 62
   249
 10
125.0
 20
80.0
 30
0.0
 11
42.5
 21
80.0
 31
0.0
  0
TEXT
  8
0
  6
CONTINUOUS
 62
   249
 10
43.306147
 20
131.636967
 30
0.0
 40
2.0
  1
X1
  7
ROMANS
  0
INSERT
  8
0
  6
CONTINUOUS
 62
   249
  2
BLC29
 10
171.445035
 20
134.871538
 30
0.0
 50
180.0
  0
LINE
  8
0
  6
CONTINUOUS
 62
   249
 10
175.51266
 20
135.0
 30
0.0
 11
142.5
 21
135.0
 31
0.0
  0
INSERT
  8
0
  6
CONTINUOUS
 62
   249
  2
B39
 10
255.0
 20
90.0
 30
0.0
  0
INSERT
  8
0
  6
CONTINUOUS
 62
   249
  2
B39
 10
255.0
 20
107.5
 30
0.0
  0
INSERT
  8
0
  6
CONTINUOUS
 62
   249
  2
B39
 10
255.0
 20
125.0
 30
0.0
  0
LINE
  8
0
  6
CONTINUOUS
 62
   249
 10
232.5
 20
112.5
 30
0.0
 11
240.0
 21
112.5
 31
0.0
  0
LINE
  8
0
  6
CONTINUOUS
 62
   249
 10
240.0
 20
112.5
 30
0.0
 11
240.0
 21
92.5
 31
0.0
  0
LINE
  8
0
  6
CONTINUOUS
 62
   249
 10
240.0
 20
132.5
 30
0.0
 11
240.0
 21
112.5
 31
0.0
  0
LINE
  8
0
  6
CONTINUOUS
 62
   249
 10
240.0
 20
132.5
 30
0.0
 11
241.0
 21
133.5
 31
0.0
  0
LINE
  8
0
  6
CONTINUOUS
 62
   249
 10
240.0
 20
92.5
 30
0.0
 11
241.0
 21
91.5
 31
0.0
  0
INSERT
  8
0
  6
CONTINUOUS
 62
   249
  2
BLC29
 10
237.822352
 20
112.371524
 30
0.0
 50
180.0
  0
LINE
  8
0
  6
CONTINUOUS
 62
   249
 10
255.0
 20
220.0
 30
0.0
 11
260.0
 21
220.0
 31
0.0
  0
LINE
  8
0
  6
CONTINUOUS
 62
   249
 10
255.0
 20
215.0
 30
0.0
 11
260.0
 21
215.0
 31
0.0
  0
LINE
  8
0
  6
CONTINUOUS
 62
   249
 10
255.0
 20
210.0
 30
0.0
 11
260.0
 21
210.0
 31
0.0
  0
LINE
  8
0
  6
CONTINUOUS
 62
   249
 10
255.0
 20
202.5
 30
0.0
 11
260.0
 21
202.5
 31
0.0
  0
LINE
  8
0
  6
CONTINUOUS
 62
   249
 10
255.0
 20
197.5
 30
0.0
 11
260.0
 21
197.5
 31
0.0
  0
LINE
  8
0
  6
CONTINUOUS
 62
   249
 10
255.0
 20
182.5
 30
0.0
 11
260.0
 21
182.5
 31
0.0
  0
LINE
  8
0
  6
CONTINUOUS
 62
   249
 10
255.0
 20
177.5
 30
0.0
 11
260.0
 21
177.5
 31
0.0
  0
LINE
  8
0
  6
CONTINUOUS
 62
   249
 10
255.0
 20
172.5
 30
0.0
 11
260.0
 21
172.5
 31
0.0
  0
LINE
  8
0
  6
CONTINUOUS
 62
   249
 10
255.0
 20
192.5
 30
0.0
 11
260.0
 21
192.5
 31
0.0
  0
LINE
  8
0
  6
CONTINUOUS
 62
   249
 10
255.0
 20
135.0
 30
0.0
 11
260.0
 21
135.0
 31
0.0
  0
LINE
  8
0
  6
CONTINUOUS
 62
   249
 10
255.0
 20
130.0
 30
0.0
 11
260.0
 21
130.0
 31
0.0
  0
LINE
  8
0
  6
CONTINUOUS
 62
   249
 10
255.0
 20
125.0
 30
0.0
 11
260.0
 21
125.0
 31
0.0
  0
LINE
  8
0
  6
CONTINUOUS
 62
   249
 10
255.0
 20
117.5
 30
0.0
 11
260.0
 21
117.5
 31
0.0
  0
LINE
  8
0
  6
CONTINUOUS
 62
   249
 10
255.0
 20
112.5
 30
0.0
 11
260.0
 21
112.5
 31
0.0
  0
LINE
  8
0
  6
CONTINUOUS
 62
   249
 10
255.0
 20
107.5
 30
0.0
 11
260.0
 21
107.5
 31
0.0
  0
LINE
  8
0
  6
CONTINUOUS
 62
   249
 10
255.0
 20
100.0
 30
0.0
 11
260.0
 21
100.0
 31
0.0
  0
LINE
  8
0
  6
CONTINUOUS
 62
   249
 10
255.0
 20
95.0
 30
0.0
 11
260.0
 21
95.0
 31
0.0
  0
LINE
  8
0
  6
CONTINUOUS
 62
   249
 10
255.0
 20
90.0
 30
0.0
 11
260.0
 21
90.0
 31
0.0
  0
TEXT
  8
0
  6
CONTINUOUS
 62
   249
 10
256.659655
 20
216.628984
 30
0.0
 40
2.0
  1
3
  7
ROMANS
  0
TEXT
  8
0
  6
CONTINUOUS
 62
   249
 10
256.659655
 20
211.818921
 30
0.0
 40
2.0
  1
2
  7
ROMANS
  0
TEXT
  8
0
  6
CONTINUOUS
 62
   249
 10
257.024841
 20
206.854573
 30
0.0
 40
2.0
  1
1
  7
ROMANS
  0
TEXT
  8
0
  6
CONTINUOUS
 62
   249
 10
256.659655
 20
199.211958
 30
0.0
 40
2.0
  1
6
  7
ROMANS
  0
TEXT
  8
0
  6
CONTINUOUS
 62
   249
 10
256.659655
 20
194.23659
 30
0.0
 40
2.0
  1
5
  7
ROMANS
  0
TEXT
  8
0
  6
CONTINUOUS
 62
   249
 10
256.659655
 20
189.128977
 30
0.0
 40
2.0
  1
4
  7
ROMANS
  0
TEXT
  8
0
  6
CONTINUOUS
 62
   249
 10
256.579058
 20
179.260563
 30
0.0
 40
2.0
  1
9
  7
ROMANS
  0
TEXT
  8
0
  6
CONTINUOUS
 62
   249
 10
256.579058
 20
174.296215
 30
0.0
 40
2.0
  1
8
  7
ROMANS
  0
TEXT
  8
0
  6
CONTINUOUS
 62
   249
 10
256.579058
 20
169.034316
 30
0.0
 40
2.0
  1
7
  7
ROMANS
  0
TEXT
  8
0
  6
CONTINUOUS
 62
   249
 10
255.611243
 20
131.668399
 30
0.0
 40
2.0
  1
15
  7
ROMANS
  0
TEXT
  8
0
  6
CONTINUOUS
 62
   249
 10
255.611243
 20
126.307317
 30
0.0
 40
2.0
  1
14
  7
ROMANS
  0
TEXT
  8
0
  6
CONTINUOUS
 62
   249
 10
255.611243
 20
121.640519
 30
0.0
 40
2.0
  1
13
  7
ROMANS
  0
TEXT
  8
0
  6
CONTINUOUS
 62
   249
 10
255.611243
 20
114.156158
 30
0.0
 40
2.0
  1
18
  7
ROMANS
  0
TEXT
  8
0
  6
CONTINUOUS
 62
   249
 10
255.611243
 20
109.059565
 30
0.0
 40
2.0
  1
17
  7
ROMANS
  0
TEXT
  8
0
  6
CONTINUOUS
 62
   249
 10
255.503505
 20
103.808687
 30
0.0
 40
2.0
  1
16
  7
ROMANS
  0
TEXT
  8
0
  6
CONTINUOUS
 62
   249
 10
255.503505
 20
96.806763
 30
0.0
 40
2.0
  1
21
  7
ROMANS
  0
TEXT
  8
0
  6
CONTINUOUS
 62
   249
 10
255.606408
 20
91.743231
 30
0.0
 40
2.0
  1
20
  7
ROMANS
  0
TEXT
  8
0
  6
CONTINUOUS
 62
   249
 10
255.503505
 20
86.712761
 30
0.0
 40
2.0
  1
19
  7
ROMANS
  0
LINE
  8
0
  6
CONTINUOUS
 62
   249
 10
207.950615
 20
200.0
 30
0.0
 11
232.5
 21
200.0
 31
0.0
  0
LINE
  8
0
  6
CONTINUOUS
 62
   249
 10
232.5
 20
200.0
 30
0.0
 11
232.5
 21
112.5
 31
0.0
  0
LINE
  8
0
  6
CONTINUOUS
 62
   249
 10
207.950615
 20
160.0
 30
0.0
 11
235.0
 21
160.0
 31
0.0
  0
LINE
  8
0
  6
CONTINUOUS
 62
   249
 10
235.0
 20
160.0
 30
0.0
 11
235.0
 21
187.5
 31
0.0
  0
LINE
  8
0
  6
CONTINUOUS
 62
   249
 10
207.950615
 20
177.5
 30
0.0
 11
232.5
 21
177.5
 31
0.0
  0
LINE
  8
0
  6
CONTINUOUS
 62
   249
 10
207.950615
 20
182.5
 30
0.0
 11
235.0
 21
182.5
 31
0.0
  0
LINE
  8
0
  6
CONTINUOUS
 62
   249
 10
220.0
 20
141.434542
 30
0.0
 11
220.0
 21
107.5
 31
0.0
  0
LINE
  8
0
  6
CONTINUOUS
 62
   249
 10
220.0
 20
107.5
 30
0.0
 11
232.5
 21
107.5
 31
0.0
  0
LINE
  8
0
  6
CONTINUOUS
 62
   249
 10
232.5
 20
107.5
 30
0.0
 11
232.5
 21
80.0
 31
0.0
  0
INSERT
  8
0
  6
CONTINUOUS
 62
   249
  2
BLC29
 10
220.128462
 20
115.1934
 30
0.0
 50
270.0
  0
LINE
  8
0
  6
CONTINUOUS
 62
   249
 10
260.0
 20
135.0
 30
0.0
 11
264.266471
 21
135.0
 31
0.0
  0
LINE
  8
0
  6
CONTINUOUS
 62
   249
 10
260.0
 20
130.0
 30
0.0
 11
264.266471
 21
130.0
 31
0.0
  0
LINE
  8
0
  6
CONTINUOUS
 62
   249
 10
260.0
 20
117.5
 30
0.0
 11
264.266471
 21
117.5
 31
0.0
  0
LINE
  8
0
  6
CONTINUOUS
 62
   249
 10
260.0
 20
112.5
 30
0.0
 11
264.266471
 21
112.5
 31
0.0
  0
LINE
  8
0
  6
CONTINUOUS
 62
   249
 10
260.0
 20
100.0
 30
0.0
 11
264.266471
 21
100.0
 31
0.0
  0
LINE
  8
0
  6
CONTINUOUS
 62
   249
 10
260.0
 20
95.0
 30
0.0
 11
264.266471
 21
95.0
 31
0.0
  0
LINE
  8
0
  6
CONTINUOUS
 62
   249
 10
270.0
 20
135.0
 30
0.0
 11
266.0
 21
135.0
 31
0.0
  0
LINE
  8
0
  6
CONTINUOUS
 62
   249
 10
266.0
 20
136.5
 30
0.0
 11
266.0
 21
129.5
 31
0.0
  0
LINE
  8
0
  6
CONTINUOUS
 62
   249
 10
266.0
 20
129.5
 30
0.0
 11
265.0
 21
128.5
 31
0.0
  0
LINE
  8
0
  6
CONTINUOUS
 62
   249
 10
266.0
 20
136.5
 30
0.0
 11
265.0
 21
137.5
 31
0.0
  0
LINE
  8
0
  6
CONTINUOUS
 62
   249
 10
266.0
 20
119.0
 30
0.0
 11
265.0
 21
120.0
 31
0.0
  0
LINE
  8
0
  6
CONTINUOUS
 62
   249
 10
266.0
 20
119.0
 30
0.0
 11
266.0
 21
112.0
 31
0.0
  0
LINE
  8
0
  6
CONTINUOUS
 62
   249
 10
266.0
 20
112.0
 30
0.0
 11
265.0
 21
111.0
 31
0.0
  0
LINE
  8
0
  6
CONTINUOUS
 62
   249
 10
270.0
 20
100.0
 30
0.0
 11
266.0
 21
100.0
 31
0.0
  0
LINE
  8
0
  6
CONTINUOUS
 62
   249
 10
270.0
 20
117.5
 30
0.0
 11
266.0
 21
117.5
 31
0.0
  0
LINE
  8
0
  6
CONTINUOUS
 62
   249
 10
266.0
 20
94.5
 30
0.0
 11
265.0
 21
93.5
 31
0.0
  0
LINE
  8
0
  6
CONTINUOUS
 62
   249
 10
266.0
 20
101.5
 30
0.0
 11
266.0
 21
94.5
 31
0.0
  0
LINE
  8
0
  6
CONTINUOUS
 62
   249
 10
266.0
 20
101.5
 30
0.0
 11
265.0
 21
102.5
 31
0.0
  0
TEXT
  8
0
  6
DASHED
 62
   249
 10
266.817887
 20
221.099106
 30
0.0
 40
2.0
  1
6)
  7
ROMANS
  0
TEXT
  8
0
  6
DASHED
 62
   249
 10
266.817887
 20
203.599106
 30
0.0
 40
2.0
  1
6)
  7
ROMANS
  0
TEXT
  8
0
  6
DASHED
 62
   249
 10
266.817887
 20
183.599106
 30
0.0
 40
2.0
  1
6)
  7
ROMANS
  0
TEXT
  8
0
  6
DASHED
 62
   249
 10
266.817887
 20
136.099106
 30
0.0
 40
2.0
  1
6)
  7
ROMANS
  0
TEXT
  8
0
  6
DASHED
 62
   249
 10
266.817887
 20
118.599106
 30
0.0
 40
2.0
  1
6)
  7
ROMANS
  0
TEXT
  8
0
  6
DASHED
 62
   249
 10
266.817887
 20
101.099106
 30
0.0
 40
2.0
  1
6)
  7
ROMANS
  0
LINE
  8
0
  6
DASHED
 62
   249
 10
265.0
 20
80.0
 30
0.0
 11
282.5
 21
80.0
 31
0.0
  0
TEXT
  8
0
  6
DASHED
 62
   249
 10
285.232804
 20
78.986126
 30
0.0
 40
2.0
  1
5)
  7
ROMANS
  0
TEXT
  8
0
  6
DASHED
 62
   249
 10
355.009126
 20
186.981409
 30
0.0
 40
2.0
  1
DIFFERENTIAL RELAY
  7
ROMANS
  0
TEXT
  8
0
  6
DASHED
 62
   249
 10
355.009126
 20
182.961966
 30
0.0
 40
2.0
  1
DIFFERENTIALRELÄ
  7
ROMANS
  0
LINE
  8
0
  6
CONTINUOUS
 62
   249
 10
35.0
 20
130.0
 30
0.0
 11
36.0
 21
131.0
 31
0.0
  0
LINE
  8
0
  6
CONTINUOUS
 62
   249
 10
35.0
 20
130.0
 30
0.0
 11
35.0
 21
99.999655
 31
0.0
  0
TEXT
  8
0
  6
DASHED
 62
   249
 10
28.03868
 20
113.112804
 30
0.0
 40
2.0
  1
2)
  7
ROMANS
  0
LINE
  8
0
  6
DASHED
 62
   249
 10
172.5
 20
57.5
 30
0.0
 11
172.5
 21
50.0
 31
0.0
  0
LINE
  8
0
  6
DASHED
 62
   249
 10
177.5
 20
57.5
 30
0.0
 11
177.5
 21
50.0
 31
0.0
  0
TEXT
  8
0
  6
CONTINUOUS
 62
   249
 10
344.279773
 20
40.062529
 30
0.0
 40
2.0
  1
L3'
  7
ROMANS
  0
TEXT
  8
0
  6
CONTINUOUS
 62
   249
 10
344.279773
 20
43.395863
 30
0.0
 40
2.0
  1
L2'
  7
ROMANS
  0
TEXT
  8
0
  6
DASHED
 62
   249
 10
344.294989
 20
46.691262
 30
0.0
 40
2.0
  1
L1'
  7
ROMANS
  0
TEXT
  8
0
  6
DASHED
 62
   249
 10
355.93529
 20
46.603099
 30
0.0
 40
2.0
  1
13-15
  7
ROMANS
  0
TEXT
  8
0
  6
DASHED
 62
   249
 10
370.390565
 20
46.603099
 30
0.0
 40
2.0
  1
13-14
  7
ROMANS
  0
TEXT
  8
0
  6
DASHED
 62
   249
 10
355.93529
 20
43.396171
 30
0.0
 40
2.0
  1
16-18
  7
ROMANS
  0
TEXT
  8
0
  6
DASHED
 62
   249
 10
370.344917
 20
43.407191
 30
0.0
 40
2.0
  1
16-17
  7
ROMANS
  0
TEXT
  8
0
  6
DASHED
 62
   249
 10
355.950506
 20
40.090059
 30
0.0
 40
2.0
  1
19-21
  7
ROMANS
  0
TEXT
  8
0
  6
DASHED
 62
   249
 10
370.344917
 20
40.090059
 30
0.0
 40
2.0
  1
19-20
  7
ROMANS
  0
TEXT
  8
0
  6
DASHED
 62
   249
 10
333.434499
 20
109.145631
 30
0.0
 40
2.0
  1
3) ALARM ETC.
  7
ROMANS
  0
TEXT
  8
0
  6
DASHED
 62
   249
 10
338.458519
 20
105.812297
 30
0.0
 40
2.0
  1
SIGNAL MM.
  7
ROMANS
  0
TEXT
  8
0
  6
DASHED
 62
   249
 10
333.434499
 20
99.978964
 30
0.0
 40
2.0
  1
4) INTERNAL RELAY FAULT, IRF
  7
ROMANS
  0
TEXT
  8
0
  6
DASHED
 62
   249
 10
338.664197
 20
96.645631
 30
0.0
 40
2.0
  1
INTERNT RELÄFEL, IRF
  7
ROMANS
  0
TEXT
  8
0
  6
DASHED
 62
   249
 10
333.434499
 20
90.812297
 30
0.0
 40
2.0
  1
5) BUS CONNECTION MODULE
  7
ROMANS
  0
TEXT
  8
0
  6
DASHED
 62
   249
 10
333.4855
 20
83.6898
 30
0.0
 40
2.0
  1
6)
  7
ROMANS
  0
TEXT
  8
0
  6
DASHED
 62
   249
 10
210.704658
 20
27.85902
 30
0.0
 40
2.0
  1
94-05-02 JR / AD-ELECT.
  7
ROMANS
  0
TEXT
  8
0
  6
DASHED
 62
   249
 10
317.5
 20
27.5
 30
0.0
 40
2.0
  1
CIRCUIT DIAGRAM / KRETSSCHEMA
  7
ROMANS
  0
TEXT
  8
0
  6
DASHED
 62
   249
 10
317.5
 20
24.166667
 30
0.0
 40
2.0
  1
SPAD 346 C
  7
ROMANS
  0
LINE
  8
0
 62
   249
 10
0.237099
 20
0.237999
 30
0.0
 11
0.237099
 21
262.737999
 31
0.0
  0
LINE
  8
0
 62
   249
 10
392.237099
 20
262.737999
 30
0.0
 11
392.237099
 21
0.237999
 31
0.0
  0
LINE
  8
0
 62
   249
 10
0.237099
 20
0.237999
 30
0.0
 11
392.237099
 21
0.237999
 31
0.0
  0
TEXT
  8
0
 62
   249
 10
42.237099
 20
5.587508
 30
0.0
 40
2.5
  1
C
  7
ROMANS
  0
TEXT
  8
0
 62
   249
 10
42.237099
 20
1.195292
 30
0.0
 40
2.5
  1
B
  7
ROMANS
  0
TEXT
  8
0
 62
   249
 10
257.407006
 20
1.741783
 30
0.0
 40
3.0
  1
Power
 41
0.8
  7
ROMANS
  0
TEXT
  8
0
 62
   249
 10
273.237099
 20
7.237999
 30
0.0
 40
1.4
  1
VAST.OSASTO RESP.DEPT.
  7
ROMANS
  0
TEXT
  8
0
 62
   249
 10
210.237099
 20
32.237999
 30
0.0
 40
1.4
  1
TEKI  PREPARED
  7
ROMANS
  0
LINE
  8
0
 62
   249
 10
271.237099
 20
9.737999
 30
0.0
 11
271.237099
 21
0.237999
 31
0.0
  0
LINE
  8
0
 62
   249
 10
257.237099
 20
9.737999
 30
0.0
 11
257.237099
 21
35.237999
 31
0.0
  0
LINE
  8
0
 62
   249
 10
40.737099
 20
4.737999
 30
0.0
 11
209.237099
 21
4.737999
 31
0.0
  0
LINE
  8
0
 62
   249
 10
46.737099
 20
0.237999
 30
0.0
 11
46.737099
 21
9.237999
 31
0.0
  0
LINE
  8
0
 62
   249
 10
46.737099
 20
9.237999
 30
0.0
 11
209.237099
 21
9.237999
 31
0.0
  0
TEXT
  8
0
 62
   249
 10
27.737099
 20
2.471333
 30
0.0
 40
1.4
  1
REVISION
  7
ROMANS
  0
TEXT
  8
0
 62
   249
 10
27.737099
 20
4.737999
 30
0.0
 40
1.4
  1
MUUTOS
  7
ROMANS
  0
LINE
  8
0
 62
   249
 10
282.237099
 20
9.737999
 30
0.0
 11
282.237099
 21
18.237999
 31
0.0
  0
TEXT
  8
0
 62
   249
 10
237.737099
 20
1.737999
 30
0.0
 40
3.0
  1
Strömberg
 41
0.8
  7
ROMANS
  0
TEXT
  8
0
 62
   249
 10
229.737099
 20
1.737999
 30
0.0
 40
3.0
  1
ABB 
 41
0.8
  7
ROMANS
  0
LINE
  8
0
 62
   249
 10
223.137099
 20
1.737999
 30
0.0
 11
223.137099
 21
5.097999
 31
0.0
  0
LINE
  8
0
 62
   249
 10
223.137099
 20
8.737999
 30
0.0
 11
225.097099
 21
8.737999
 31
0.0
  0
LINE
  8
0
 62
   249
 10
225.097099
 20
8.737999
 30
0.0
 11
225.097099
 21
5.377999
 31
0.0
  0
LINE
  8
0
 62
   249
 10
225.097099
 20
5.377999
 30
0.0
 11
223.137099
 21
5.377999
 31
0.0
  0
LINE
  8
0
 62
   249
 10
223.137099
 20
5.097999
 30
0.0
 11
225.097099
 21
5.097999
 31
0.0
  0
LINE
  8
0
 62
   249
 10
225.097099
 20
5.097999
 30
0.0
 11
225.097099
 21
1.737999
 31
0.0
  0
LINE
  8
0
 62
   249
 10
225.097099
 20
1.737999
 30
0.0
 11
223.137099
 21
1.737999
 31
0.0
  0
LINE
  8
0
 62
   249
 10
223.137099
 20
5.377999
 30
0.0
 11
223.137099
 21
8.737999
 31
0.0
  0
ARC
  8
0
 62
   249
 10
225.937099
 20
7.162999
 30
0.0
 40
1.575
 50
298.455859
 51
90.052437
  0
LINE
  8
0
 62
   249
 10
225.377099
 20
8.737999
 30
0.0
 11
225.935658
 21
8.737999
 31
0.0
  0
LINE
  8
0
 62
   249
 10
225.377099
 20
8.737999
 30
0.0
 11
225.377099
 21
5.377999
 31
0.0
  0
LINE
  8
0
 62
   249
 10
225.377099
 20
5.377999
 30
0.0
 11
227.361542
 21
5.377999
 31
0.0
  0
LINE
  8
0
 62
   249
 10
227.617099
 20
5.097999
 30
0.0
 11
225.377099
 21
5.097999
 31
0.0
  0
LINE
  8
0
 62
   249
 10
225.377099
 20
5.097999
 30
0.0
 11
225.377099
 21
1.737999
 31
0.0
  0
ARC
  8
0
 62
   249
 10
225.937099
 20
3.837999
 30
0.0
 40
2.1
 50
269.937724
 51
37.056553
  0
LINE
  8
0
 62
   249
 10
225.377099
 20
1.737999
 30
0.0
 11
225.934817
 21
1.738
 31
0.0
  0
ARC
  8
0
 62
   249
 10
225.937099
 20
3.837999
 30
0.0
 40
2.1
 50
47.28622
 51
68.787999
  0
INSERT
  8
0
 62
   249
  2
*X9
 10
215.647099
 20
1.737999
 30
0.0
 41
0.7
 42
0.7
 43
0.7
  0
INSERT
  8
0
 62
   249
  2
*X10
 10
215.647099
 20
1.737999
 30
0.0
 41
0.7
 42
0.7
 43
0.7
  0
INSERT
  8
0
 62
   249
  2
*X11
 10
215.647099
 20
1.737999
 30
0.0
 41
0.7
 42
0.7
 43
0.7
  0
INSERT
  8
0
 62
   249
  2
*X12
 10
215.647099
 20
1.737999
 30
0.0
 41
0.7
 42
0.7
 43
0.7
  0
INSERT
  8
0
 62
   249
  2
*X12
 10
210.187099
 20
1.737999
 30
0.0
 41
0.7
 42
0.7
 43
0.7
  0
INSERT
  8
0
 62
   249
  2
*X11
 10
210.187099
 20
1.737999
 30
0.0
 41
0.7
 42
0.7
 43
0.7
  0
INSERT
  8
0
 62
   249
  2
*X10
 10
210.187099
 20
1.737999
 30
0.0
 41
0.7
 42
0.7
 43
0.7
  0
INSERT
  8
0
 62
   249
  2
*X9
 10
210.187099
 20
1.737999
 30
0.0
 41
0.7
 42
0.7
 43
0.7
  0
ARC
  8
0
 62
   249
 10
220.477099
 20
3.837999
 30
0.0
 40
2.1
 50
47.28622
 51
68.787999
  0
LINE
  8
0
 62
   249
 10
219.917099
 20
1.737999
 30
0.0
 11
220.474817
 21
1.738
 31
0.0
  0
ARC
  8
0
 62
   249
 10
220.477099
 20
3.837999
 30
0.0
 40
2.1
 50
269.937724
 51
37.056553
  0
LINE
  8
0
 62
   249
 10
219.917099
 20
5.097999
 30
0.0
 11
219.917099
 21
1.737999
 31
0.0
  0
LINE
  8
0
 62
   249
 10
222.157099
 20
5.097999
 30
0.0
 11
219.917099
 21
5.097999
 31
0.0
  0
LINE
  8
0
 62
   249
 10
219.917099
 20
5.377999
 30
0.0
 11
221.901542
 21
5.377999
 31
0.0
  0
LINE
  8
0
 62
   249
 10
219.917099
 20
8.737999
 30
0.0
 11
219.917099
 21
5.377999
 31
0.0
  0
LINE
  8
0
 62
   249
 10
219.917099
 20
8.737999
 30
0.0
 11
220.475658
 21
8.737999
 31
0.0
  0
ARC
  8
0
 62
   249
 10
220.477099
 20
7.162999
 30
0.0
 40
1.575
 50
298.455859
 51
90.052437
  0
LINE
  8
0
 62
   249
 10
217.677099
 20
5.377999
 30
0.0
 11
217.677099
 21
8.737999
 31
0.0
  0
LINE
  8
0
 62
   249
 10
219.637099
 20
1.737999
 30
0.0
 11
217.677099
 21
1.737999
 31
0.0
  0
LINE
  8
0
 62
   249
 10
219.637099
 20
5.097999
 30
0.0
 11
219.637099
 21
1.737999
 31
0.0
  0
LINE
  8
0
 62
   249
 10
217.677099
 20
5.097999
 30
0.0
 11
219.637099
 21
5.097999
 31
0.0
  0
LINE
  8
0
 62
   249
 10
219.637099
 20
5.377999
 30
0.0
 11
217.677099
 21
5.377999
 31
0.0
  0
LINE
  8
0
 62
   249
 10
219.637099
 20
8.737999
 30
0.0
 11
219.637099
 21
5.377999
 31
0.0
  0
LINE
  8
0
 62
   249
 10
217.677099
 20
8.737999
 30
0.0
 11
219.637099
 21
8.737999
 31
0.0
  0
LINE
  8
0
 62
   249
 10
217.677099
 20
1.737999
 30
0.0
 11
217.677099
 21
5.097999
 31
0.0
  0
INSERT
  8
0
 62
   249
  2
*X8
 10
210.187099
 20
1.737999
 30
0.0
 41
0.7
 42
0.7
 43
0.7
  0
INSERT
  8
0
 62
   249
  2
*X7
 10
210.187099
 20
1.737999
 30
0.0
 41
0.7
 42
0.7
 43
0.7
  0
INSERT
  8
0
 62
   249
  2
*X6
 10
210.187099
 20
1.737999
 30
0.0
 41
0.7
 42
0.7
 43
0.7
  0
INSERT
  8
0
 62
   249
  2
*X5
 10
210.187099
 20
1.737999
 30
0.0
 41
0.7
 42
0.7
 43
0.7
  0
LINE
  8
0
 62
   249
 10
211.356988
 20
5.080538
 30
0.0
 11
210.187099
 21
1.737999
 31
0.0
  0
LINE
  8
0
 62
   249
 10
213.547099
 20
5.097999
 30
0.0
 11
213.547099
 21
3.137999
 31
0.0
  0
LINE
  8
0
 62
   249
 10
213.827099
 20
5.097999
 30
0.0
 11
213.827099
 21
3.137999
 31
0.0
  0
LINE
  8
0
 62
   249
 10
213.827099
 20
5.097999
 30
0.0
 11
216.010356
 21
5.097999
 31
0.0
  0
LINE
  8
0
 62
   249
 10
213.827099
 20
5.377999
 30
0.0
 11
215.912213
 21
5.377999
 31
0.0
  0
LINE
  8
0
 62
   249
 10
216.011591
 20
5.096594
 30
0.0
 11
217.187099
 21
1.737999
 31
0.0
  0
LINE
  8
0
 62
   249
 10
211.360082
 20
5.097999
 30
0.0
 11
213.547099
 21
5.097999
 31
0.0
  0
LINE
  8
0
 62
   249
 10
211.45904
 20
5.377999
 30
0.0
 11
213.547099
 21
5.377999
 31
0.0
  0
LINE
  8
0
 62
   249
 10
213.547099
 20
8.737999
 30
0.0
 11
212.637099
 21
8.737999
 31
0.0
  0
LINE
  8
0
 62
   249
 10
213.827099
 20
3.137999
 30
0.0
 11
214.946992
 21
3.137999
 31
0.0
  0
LINE
  8
0
 62
   249
 10
213.827099
 20
8.737999
 30
0.0
 11
213.827099
 21
5.377999
 31
0.0
  0
LINE
  8
0
 62
   249
 10
213.547099
 20
8.737999
 30
0.0
 11
213.547099
 21
5.377999
 31
0.0
  0
LINE
  8
0
 62
   249
 10
214.737099
 20
8.737999
 30
0.0
 11
213.827099
 21
8.737999
 31
0.0
  0
LINE
  8
0
 62
   249
 10
214.948197
 20
3.134863
 30
0.0
 11
215.437099
 21
1.737999
 31
0.0
  0
LINE
  8
0
 62
   249
 10
214.737099
 20
8.737999
 30
0.0
 11
215.913452
 21
5.376991
 31
0.0
  0
LINE
  8
0
 62
   249
 10
212.425889
 20
3.134542
 30
0.0
 11
211.937099
 21
1.737999
 31
0.0
  0
LINE
  8
0
 62
   249
 10
212.425886
 20
3.137999
 30
0.0
 11
213.547099
 21
3.137999
 31
0.0
  0
LINE
  8
0
 62
   249
 10
212.637099
 20
8.737999
 30
0.0
 11
211.459571
 21
5.373634
 31
0.0
  0
LINE
  8
0
 62
   249
 10
215.437099
 20
1.737999
 30
0.0
 11
217.187099
 21
1.737999
 31
0.0
  0
LINE
  8
0
 62
   249
 10
210.187099
 20
1.737999
 30
0.0
 11
211.937099
 21
1.737999
 31
0.0
  0
LINE
  8
0
 62
   249
 10
369.737099
 20
9.737999
 30
0.0
 11
369.737099
 21
0.237999
 31
0.0
  0
TEXT
  8
0
 62
   249
 10
371.237099
 20
7.237999
 30
0.0
 40
1.4
  1
PAINOS  REVISION
  7
ROMANS
  0
LINE
  8
0
 62
   249
 10
349.737099
 20
9.737999
 30
0.0
 11
349.737099
 21
18.237999
 31
0.0
  0
TEXT
  8
0
 62
   249
 10
309.237099
 20
7.237999
 30
0.0
 40
1.4
  1
PIIRUSTUS NO  DRAWING NR
  7
ROMANS
  0
TEXT
  8
0
 62
   249
 10
309.237099
 20
15.737999
 30
0.0
 40
1.4
  1
KOODI  CODE
  7
ROMANS
  0
TEXT
  8
0
 62
   249
 10
309.237099
 20
32.737999
 30
0.0
 40
1.4
  1
NIMITYS  NAME
  7
ROMANS
  0
TEXT
  8
0
 62
   249
 10
259.237099
 20
15.737999
 30
0.0
 40
1.4
  1
SUHDE  SCALE
  7
ROMANS
  0
TEXT
  8
0
 62
   249
 10
259.237099
 20
23.737999
 30
0.0
 40
1.4
  1
TOLERANSSIT  TOLERANCES
  7
ROMANS
  0
TEXT
  8
0
 62
   249
 10
259.237099
 20
32.737999
 30
0.0
 40
1.4
  1
LIITTYY  CONCERNING
  7
ROMANS
  0
LINE
  8
0
 62
   249
 10
307.237099
 20
0.237999
 30
0.0
 11
307.237099
 21
35.237999
 31
0.0
  0
TEXT
  8
0
 62
   249
 10
209.979934
 20
15.704666
 30
0.0
 40
1.4
  1
HYVÄKSYI  APPROVED
  7
ROMANS
  0
TEXT
  8
0
 62
   249
 10
210.237099
 20
23.971333
 30
0.0
 40
1.4
  1
TARKASTI  CHECKED
  7
ROMANS
  0
LINE
  8
0
 62
   249
 10
209.237099
 20
35.237999
 30
0.0
 11
392.237099
 21
35.237999
 31
0.0
  0
LINE
  8
0
 62
   249
 10
209.237099
 20
26.737999
 30
0.0
 11
307.237099
 21
26.737999
 31
0.0
  0
LINE
  8
0
 62
   249
 10
209.237099
 20
9.737999
 30
0.0
 11
392.237099
 21
9.737999
 31
0.0
  0
LINE
  8
0
 62
   249
 10
209.237099
 20
18.237999
 30
0.0
 11
392.237099
 21
18.237999
 31
0.0
  0
LINE
  8
0
 62
   249
 10
392.237099
 20
0.237999
 30
0.0
 11
392.237099
 21
35.237999
 31
0.0
  0
LINE
  8
0
 62
   249
 10
209.237099
 20
0.237999
 30
0.0
 11
209.237099
 21
35.237999
 31
0.0
  0
LINE
  8
0
 62
   249
 10
209.237099
 20
0.237999
 30
0.0
 11
392.237099
 21
0.237999
 31
0.0
  0
LINE
  8
0
 62
   249
 10
18.237099
 20
0.237999
 30
0.0
 11
0.237099
 21
0.237999
 31
0.0
  0
LINE
  8
0
 62
   249
 10
0.237099
 20
262.737999
 30
0.0
 11
392.237099
 21
262.737999
 31
0.0
  0
TEXT
  8
0
  6
DASHED
 62
   249
 10
351.818577
 20
15.69253
 30
0.0
 40
1.4
  1
LEHTI SHEET
  7
GREEKS
  0
TEXT
  8
0
  6
DASHED
 62
   249
 10
372.740686
 20
12.507642
 30
0.0
 40
2.0
  1
1
  7
ROMANS
  0
TEXT
  8
0
  6
DASHED
 62
   249
 10
322.5
 20
2.5
 30
0.0
 40
2.5
  1
1MRS10209-AA
  7
ROMANS
  0
TEXT
  8
0
  6
DASHED
 62
   249
 10
292.217194
 20
11.813359
 30
0.0
 40
3.0
  1
A3
  7
GREEKS
  0
POLYLINE
  8
0
  6
CONTINUOUS
 62
   249
 66
     1
 10
0.0
 20
0.0
 30
0.0
 70
     1
 40
0.5
 41
0.5
 71
     2
 72
   601
  0
VERTEX
  8
0
  6
CONTINUOUS
 62
   249
 10
234.5
 20
182.5
 30
0.0
 42
1.0
  0
VERTEX
  8
0
  6
CONTINUOUS
 62
   249
 10
235.5
 20
182.5
 30
0.0
 42
1.0
  0
SEQEND
  8
0
  6
CONTINUOUS
 62
   249
  0
TEXT
  8
0
  6
CONTINUOUS
 62
   249
 10
380.0
 20
2.5
 30
0.0
 40
2.5
  1
A
  7
ROMANS
  0
TEXT
  8
0
  6
CONTINUOUS
 62
   249
 10
344.279773
 20
69.344444
 30
0.0
 40
2.0
  1
L1
  7
ROMANS
  0
TEXT
  8
0
  6
CONTINUOUS
 62
   249
 10
356.939551
 20
69.316564
 30
0.0
 40
2.0
  1
1-3
  7
ROMANS
  0
TEXT
  8
0
  6
CONTINUOUS
 62
   249
 10
372.323007
 20
69.316564
 30
0.0
 40
2.0
  1
1-2
  7
ROMANS
  0
TEXT
  8
0
  6
DASHED
 62
   249
 10
266.817887
 20
168.599106
 30
0.0
 40
2.0
  1
6)
  7
ROMANS
  0
LINE
  8
0
  6
CONTINUOUS
 62
   249
 10
266.0
 20
169.0
 30
0.0
 11
265.0
 21
170.0
 31
0.0
  0
LINE
  8
0
  6
CONTINUOUS
 62
   249
 10
266.0
 20
162.0
 30
0.0
 11
265.0
 21
161.0
 31
0.0
  0
LINE
  8
0
  6
CONTINUOUS
 62
   249
 10
266.0
 20
169.0
 30
0.0
 11
266.0
 21
162.0
 31
0.0
  0
LINE
  8
0
  6
CONTINUOUS
 62
   249
 10
270.0
 20
167.5
 30
0.0
 11
266.0
 21
167.5
 31
0.0
  0
LINE
  8
0
  6
CONTINUOUS
 62
   249
 10
260.0
 20
162.5
 30
0.0
 11
264.266471
 21
162.5
 31
0.0
  0
LINE
  8
0
  6
CONTINUOUS
 62
   249
 10
260.0
 20
167.5
 30
0.0
 11
264.266471
 21
167.5
 31
0.0
  0
TEXT
  8
0
  6
CONTINUOUS
 62
   249
 10
255.611243
 20
158.980717
 30
0.0
 40
2.0
  1
26
  7
ROMANS
  0
TEXT
  8
0
  6
CONTINUOUS
 62
   249
 10
255.611243
 20
164.341799
 30
0.0
 40
2.0
  1
27
  7
ROMANS
  0
LINE
  8
0
  6
CONTINUOUS
 62
   249
 10
255.0
 20
157.5
 30
0.0
 11
260.0
 21
157.5
 31
0.0
  0
LINE
  8
0
  6
CONTINUOUS
 62
   249
 10
255.0
 20
162.5
 30
0.0
 11
260.0
 21
162.5
 31
0.0
  0
LINE
  8
0
  6
CONTINUOUS
 62
   249
 10
255.0
 20
167.5
 30
0.0
 11
260.0
 21
167.5
 31
0.0
  0
INSERT
  8
0
  6
CONTINUOUS
 62
   249
  2
B39
 10
255.0
 20
157.5
 30
0.0
  0
INSERT
  8
0
  6
CONTINUOUS
 62
   249
  2
B39
 10
255.0
 20
142.5
 30
0.0
  0
LINE
  8
0
  6
CONTINUOUS
 62
   249
 10
255.0
 20
152.5
 30
0.0
 11
260.0
 21
152.5
 31
0.0
  0
LINE
  8
0
  6
CONTINUOUS
 62
   249
 10
255.0
 20
147.5
 30
0.0
 11
260.0
 21
147.5
 31
0.0
  0
LINE
  8
0
  6
CONTINUOUS
 62
   249
 10
255.0
 20
142.5
 30
0.0
 11
260.0
 21
142.5
 31
0.0
  0
TEXT
  8
0
  6
CONTINUOUS
 62
   249
 10
255.611243
 20
149.341799
 30
0.0
 40
2.0
  1
39
  7
ROMANS
  0
TEXT
  8
0
  6
CONTINUOUS
 62
   249
 10
255.611243
 20
143.980717
 30
0.0
 40
2.0
  1
38
  7
ROMANS
  0
LINE
  8
0
  6
CONTINUOUS
 62
   249
 10
260.0
 20
152.5
 30
0.0
 11
264.266471
 21
152.5
 31
0.0
  0
LINE
  8
0
  6
CONTINUOUS
 62
   249
 10
260.0
 20
147.5
 30
0.0
 11
264.266471
 21
147.5
 31
0.0
  0
LINE
  8
0
  6
CONTINUOUS
 62
   249
 10
270.0
 20
152.5
 30
0.0
 11
266.0
 21
152.5
 31
0.0
  0
LINE
  8
0
  6
CONTINUOUS
 62
   249
 10
266.0
 20
154.0
 30
0.0
 11
266.0
 21
147.0
 31
0.0
  0
LINE
  8
0
  6
CONTINUOUS
 62
   249
 10
266.0
 20
147.0
 30
0.0
 11
265.0
 21
146.0
 31
0.0
  0
LINE
  8
0
  6
CONTINUOUS
 62
   249
 10
266.0
 20
154.0
 30
0.0
 11
265.0
 21
155.0
 31
0.0
  0
TEXT
  8
0
  6
DASHED
 62
   249
 10
266.817887
 20
153.599106
 30
0.0
 40
2.0
  1
6)
  7
ROMANS
  0
LINE
  8
0
  6
CONTINUOUS
 62
   249
 10
311.56955
 20
152.051548
 30
0.0
 11
311.56955
 21
150.212802
 31
0.0
  0
LINE
  8
0
  6
CONTINUOUS
 62
   249
 10
311.56955
 20
150.212802
 30
0.0
 11
316.077355
 21
150.212802
 31
0.0
  0
LINE
  8
0
  6
CONTINUOUS
 62
   249
 10
316.077355
 20
150.212802
 30
0.0
 11
316.077355
 21
152.051548
 31
0.0
  0
LINE
  8
0
  6
CONTINUOUS
 62
   249
 10
316.077355
 20
152.051548
 30
0.0
 11
311.56955
 21
152.051548
 31
0.0
  0
LINE
  8
0
  6
CONTINUOUS
 62
   249
 10
235.0
 20
202.5
 30
0.0
 11
235.0
 21
187.5
 31
0.0
  0
TEXT
  8
0
  6
CONTINUOUS
 62
   249
 10
255.611243
 20
139.313919
 30
0.0
 40
2.0
  1
37
  7
ROMANS
  0
TEXT
  8
0
  6
CONTINUOUS
 62
   249
 10
255.611243
 20
154.313919
 30
0.0
 40
2.0
  1
25
  7
ROMANS
  0
LINE
  8
0
  6
CONTINUOUS
 62
   249
 10
242.5
 20
162.5
 30
0.0
 11
227.5
 21
162.5
 31
0.0
  0
POLYLINE
  8
0
  6
CONTINUOUS
 62
   249
 66
     1
 10
0.0
 20
0.0
 30
0.0
 70
     1
 40
0.5
 41
0.5
 71
     2
 72
   601
  0
VERTEX
  8
0
  6
CONTINUOUS
 62
   249
 10
232.0
 20
177.5
 30
0.0
 42
1.0
  0
VERTEX
  8
0
  6
CONTINUOUS
 62
   249
 10
233.0
 20
177.5
 30
0.0
 42
1.0
  0
SEQEND
  8
0
  6
CONTINUOUS
 62
   249
  0
LINE
  8
0
  6
CONTINUOUS
 62
   249
 10
235.0
 20
197.5
 30
0.0
 11
240.0
 21
197.5
 31
0.0
  0
LINE
  8
0
  6
CONTINUOUS
 62
   249
 10
242.5
 20
147.5
 30
0.0
 11
230.0
 21
147.5
 31
0.0
  0
LINE
  8
0
  6
CONTINUOUS
 62
   249
 10
230.0
 20
147.5
 30
0.0
 11
230.0
 21
180.0
 31
0.0
  0
LINE
  8
0
  6
CONTINUOUS
 62
   249
 10
230.0
 20
180.0
 30
0.0
 11
207.950615
 21
180.0
 31
0.0
  0
POLYLINE
  8
0
  6
CONTINUOUS
 62
   249
 66
     1
 10
0.0
 20
0.0
 30
0.0
 70
     1
 40
0.5
 41
0.5
 71
     2
 72
   601
  0
VERTEX
  8
0
  6
CONTINUOUS
 62
   249
 10
229.5
 20
155.0
 30
0.0
 42
1.0
  0
VERTEX
  8
0
  6
CONTINUOUS
 62
   249
 10
230.5
 20
155.0
 30
0.0
 42
1.0
  0
SEQEND
  8
0
  6
CONTINUOUS
 62
   249
  0
INSERT
  8
0
  6
CONTINUOUS
 62
   249
  2
BLC29
 10
239.93872
 20
162.371524
 30
0.0
 50
180.0
  0
INSERT
  8
0
  6
CONTINUOUS
 62
   249
  2
BLC29
 10
239.93872
 20
147.371524
 30
0.0
 50
180.0
  0
TEXT
  8
0
  6
CONTINUOUS
 62
   249
 10
184.832957
 20
199.359061
 30
0.0
 40
2.5
  1
3
  7
GREEKS
  0
TEXT
  8
0
  6
HIDDEN
 62
   249
 10
186.978523
 20
199.359231
 30
0.0
 40
2.339483
  1
D
  7
GREEKC
  0
TEXT
  8
0
  6
HIDDEN
 62
   249
 10
186.978523
 20
193.593686
 30
0.0
 40
2.339483
  1
D
  7
GREEKC
  0
TEXT
  8
0
  6
CONTINUOUS
 62
   249
 10
184.832957
 20
193.593516
 30
0.0
 40
2.5
  1
3
  7
GREEKS
  0
INSERT
  8
0
  6
CONTINUOUS
 62
   249
  2
BLC29
 10
191.149993
 20
194.493438
 30
0.0
 41
0.684724
 42
0.684724
 43
0.684724
  0
TEXT
  8
0
  6
HIDDEN
 62
   249
 10
189.565157
 20
193.599219
 30
0.0
 40
2.5
  1
I
  7
GREEKS
  0
INSERT
  8
0
  6
CONTINUOUS
 62
   249
  2
BLC29
 10
193.101243
 20
194.493438
 30
0.0
 41
0.684724
 42
0.684724
 43
0.684724
  0
TEXT
  8
0
  6
HIDDEN
 62
   249
 10
186.596384
 20
176.507622
 30
0.0
 40
2.5
  1
I
  7
GREEKS
  0
INSERT
  8
0
  6
CONTINUOUS
 62
   249
  2
BLC29
 10
191.233789
 20
177.401841
 30
0.0
 41
0.684724
 42
0.684724
 43
0.684724
  0
TEXT
  8
0
  6
HIDDEN
 62
   249
 10
184.009751
 20
176.502089
 30
0.0
 40
2.339483
  1
D
  7
GREEKC
  0
TEXT
  8
0
  6
CONTINUOUS
 62
   249
 10
187.964229
 20
175.977041
 30
0.0
 40
1.5
  1
01
  7
ROMANS
  0
TEXT
  8
0
  6
CONTINUOUS
 62
   249
 10
187.964229
 20
170.159477
 30
0.0
 40
1.5
  1
02
  7
ROMANS
  0
TEXT
  8
0
  6
HIDDEN
 62
   249
 10
184.009751
 20
170.684524
 30
0.0
 40
2.339483
  1
D
  7
GREEKC
  0
INSERT
  8
0
  6
CONTINUOUS
 62
   249
  2
BLC29
 10
191.233789
 20
171.584276
 30
0.0
 41
0.684724
 42
0.684724
 43
0.684724
  0
TEXT
  8
0
  6
HIDDEN
 62
   249
 10
186.596384
 20
170.690057
 30
0.0
 40
2.5
  1
I
  7
GREEKS
  0
LINE
  8
0
  6
CONTINUOUS
 62
   249
 10
136.853436
 20
74.638137
 30
0.0
 11
131.756076
 21
71.785297
 31
0.0
  0
LINE
  8
0
  6
CONTINUOUS
 62
   249
 10
138.240939
 20
75.0
 30
0.0
 11
157.5
 21
75.0
 31
0.0
  0
LINE
  8
0
  6
CONTINUOUS
 62
   249
 10
123.240939
 20
90.0
 30
0.0
 11
167.5
 21
90.0
 31
0.0
  0
LINE
  8
0
  6
CONTINUOUS
 62
   249
 10
121.853436
 20
89.638137
 30
0.0
 11
116.756076
 21
86.785297
 31
0.0
  0
LINE
  8
0
  6
CONTINUOUS
 62
   249
 10
114.353436
 20
94.638137
 30
0.0
 11
109.256076
 21
91.785297
 31
0.0
  0
LINE
  8
0
  6
CONTINUOUS
 62
   249
 10
115.740939
 20
95.0
 30
0.0
 11
172.5
 21
95.0
 31
0.0
  0
LINE
  8
0
  6
CONTINUOUS
 62
   249
 10
100.740939
 20
105.0
 30
0.0
 11
182.5
 21
105.0
 31
0.0
  0
LINE
  8
0
  6
CONTINUOUS
 62
   249
 10
99.353436
 20
104.638137
 30
0.0
 11
94.256076
 21
101.785297
 31
0.0
  0
LINE
  8
0
  6
CONTINUOUS
 62
   249
 10
108.240939
 20
100.0
 30
0.0
 11
177.5
 21
100.0
 31
0.0
  0
LINE
  8
0
  6
CONTINUOUS
 62
   249
 10
106.853436
 20
99.638137
 30
0.0
 11
101.756076
 21
96.785297
 31
0.0
  0
LINE
  8
0
  6
CONTINUOUS
 62
   249
 10
91.853436
 20
114.638137
 30
0.0
 11
86.756076
 21
111.785297
 31
0.0
  0
LINE
  8
0
  6
CONTINUOUS
 62
   249
 10
93.240939
 20
115.0
 30
0.0
 11
192.5
 21
115.0
 31
0.0
  0
LINE
  8
0
  6
CONTINUOUS
 62
   249
 10
93.240939
 20
120.0
 30
0.0
 11
197.5
 21
120.0
 31
0.0
  0
LINE
  8
0
  6
CONTINUOUS
 62
   249
 10
91.853436
 20
119.638137
 30
0.0
 11
86.756076
 21
116.785297
 31
0.0
  0
LINE
  8
0
  6
CONTINUOUS
 62
   249
 10
84.353436
 20
129.638137
 30
0.0
 11
79.256076
 21
126.785297
 31
0.0
  0
LINE
  8
0
  6
CONTINUOUS
 62
   249
 10
85.740939
 20
130.0
 30
0.0
 11
207.5
 21
130.0
 31
0.0
  0
LINE
  8
0
  6
CONTINUOUS
 62
   249
 10
85.740939
 20
125.0
 30
0.0
 11
202.5
 21
125.0
 31
0.0
  0
LINE
  8
0
  6
CONTINUOUS
 62
   249
 10
84.353436
 20
124.638137
 30
0.0
 11
79.256076
 21
121.785297
 31
0.0
  0
LINE
  8
0
  6
CONTINUOUS
 62
   249
 10
140.0
 20
62.5
 30
0.0
 11
42.5
 21
62.5
 31
0.0
  0
LINE
  8
0
  6
CONTINUOUS
 62
   249
 10
42.5
 20
67.5
 30
0.0
 11
90.0
 21
67.5
 31
0.0
  0
LINE
  8
0
  6
CONTINUOUS
 62
   249
 10
140.0
 20
67.5
 30
0.0
 11
90.0
 21
67.5
 31
0.0
  0
LINE
  8
0
  6
CONTINUOUS
 62
   249
 10
202.5
 20
125.0
 30
0.0
 11
202.5
 21
57.5
 31
0.0
  0
LINE
  8
0
  6
CONTINUOUS
 62
   249
 10
197.5
 20
120.0
 30
0.0
 11
197.5
 21
57.5
 31
0.0
  0
LINE
  8
0
  6
CONTINUOUS
 62
   249
 10
192.5
 20
115.0
 30
0.0
 11
192.5
 21
57.5
 31
0.0
  0
LINE
  8
0
  6
CONTINUOUS
 62
   249
 10
182.5
 20
105.0
 30
0.0
 11
182.5
 21
57.5
 31
0.0
  0
LINE
  8
0
  6
CONTINUOUS
 62
   249
 10
177.5
 20
100.0
 30
0.0
 11
177.5
 21
57.5
 31
0.0
  0
LINE
  8
0
  6
CONTINUOUS
 62
   249
 10
207.5
 20
130.0
 30
0.0
 11
207.5
 21
57.5
 31
0.0
  0
LINE
  8
0
  6
CONTINUOUS
 62
   249
 10
227.5
 20
162.5
 30
0.0
 11
227.5
 21
175.0
 31
0.0
  0
LINE
  8
0
  6
CONTINUOUS
 62
   249
 10
227.5
 20
175.0
 30
0.0
 11
207.950615
 21
175.0
 31
0.0
  0
POLYLINE
  8
0
  6
CONTINUOUS
 62
   249
 66
     1
 10
0.0
 20
0.0
 30
0.0
 70
     1
 40
0.5
 41
0.5
 71
     2
 72
   601
  0
VERTEX
  8
0
  6
CONTINUOUS
 62
   249
 10
234.5
 20
197.5
 30
0.0
 42
1.0
  0
VERTEX
  8
0
  6
CONTINUOUS
 62
   249
 10
235.5
 20
197.5
 30
0.0
 42
1.0
  0
SEQEND
  8
0
  6
CONTINUOUS
 62
   249
  0
LINE
  8
0
  6
CONTINUOUS
 62
   249
 10
207.950615
 20
155.0
 30
0.0
 11
230.0
 21
155.0
 31
0.0
  0
LINE
  8
0
  6
CONTINUOUS
 62
   249
 10
207.950615
 20
197.5
 30
0.0
 11
215.0
 21
197.5
 31
0.0
  0
LINE
  8
0
  6
CONTINUOUS
 62
   249
 10
207.950615
 20
172.5
 30
0.0
 11
215.0
 21
172.5
 31
0.0
  0
LINE
  8
0
  6
CONTINUOUS
 62
   249
 10
207.950615
 20
150.0
 30
0.0
 11
215.0
 21
150.0
 31
0.0
  0
LINE
  8
0
  6
CONTINUOUS
 62
   249
 10
215.0
 20
150.0
 30
0.0
 11
215.0
 21
217.5
 31
0.0
  0
POLYLINE
  8
0
  6
CONTINUOUS
 62
   249
 66
     1
 10
0.0
 20
0.0
 30
0.0
 70
     1
 40
0.5
 41
0.5
 71
     2
 72
   601
  0
VERTEX
  8
0
  6
CONTINUOUS
 62
   249
 10
214.5
 20
172.5
 30
0.0
 42
1.0
  0
VERTEX
  8
0
  6
CONTINUOUS
 62
   249
 10
215.5
 20
172.5
 30
0.0
 42
1.0
  0
SEQEND
  8
0
  6
CONTINUOUS
 62
   249
  0
POLYLINE
  8
0
  6
CONTINUOUS
 62
   249
 66
     1
 10
0.0
 20
0.0
 30
0.0
 70
     1
 40
0.5
 41
0.5
 71
     2
 72
   601
  0
VERTEX
  8
0
  6
CONTINUOUS
 62
   249
 10
214.5
 20
197.5
 30
0.0
 42
1.0
  0
VERTEX
  8
0
  6
CONTINUOUS
 62
   249
 10
215.5
 20
197.5
 30
0.0
 42
1.0
  0
SEQEND
  8
0
  6
CONTINUOUS
 62
   249
  0
LINE
  8
0
  6
CONTINUOUS
 62
   249
 10
130.740939
 20
85.0
 30
0.0
 11
162.5
 21
85.0
 31
0.0
  0
LINE
  8
0
  6
CONTINUOUS
 62
   249
 10
132.5
 20
75.0
 30
0.0
 11
42.5
 21
75.0
 31
0.0
  0
LINE
  8
0
  6
CONTINUOUS
 62
   249
 10
117.5
 20
90.0
 30
0.0
 11
42.5
 21
90.0
 31
0.0
  0
LINE
  8
0
  6
CONTINUOUS
 62
   249
 10
110.0
 20
95.0
 30
0.0
 11
42.5
 21
95.0
 31
0.0
  0
LINE
  8
0
  6
CONTINUOUS
 62
   249
 10
102.5
 20
100.0
 30
0.0
 11
42.5
 21
100.0
 31
0.0
  0
LINE
  8
0
  6
CONTINUOUS
 62
   249
 10
95.0
 20
105.0
 30
0.0
 11
42.5
 21
105.0
 31
0.0
  0
LINE
  8
0
  6
CONTINUOUS
 62
   249
 10
87.5
 20
115.0
 30
0.0
 11
42.5
 21
115.0
 31
0.0
  0
LINE
  8
0
  6
CONTINUOUS
 62
   249
 10
87.5
 20
120.0
 30
0.0
 11
42.5
 21
120.0
 31
0.0
  0
LINE
  8
0
  6
CONTINUOUS
 62
   249
 10
80.0
 20
125.0
 30
0.0
 11
42.5
 21
125.0
 31
0.0
  0
LINE
  8
0
  6
CONTINUOUS
 62
   249
 10
80.0
 20
130.0
 30
0.0
 11
42.5
 21
130.0
 31
0.0
  0
LINE
  8
0
  6
CONTINUOUS
 62
   249
 10
177.5
 20
185.0
 30
0.0
 11
82.5
 21
185.0
 31
0.0
  0
LINE
  8
0
  6
CONTINUOUS
 62
   249
 10
177.5
 20
182.5
 30
0.0
 11
90.0
 21
182.5
 31
0.0
  0
LINE
  8
0
  6
CONTINUOUS
 62
   249
 10
177.5
 20
177.5
 30
0.0
 11
105.0
 21
177.5
 31
0.0
  0
LINE
  8
0
  6
CONTINUOUS
 62
   249
 10
177.5
 20
180.0
 30
0.0
 11
97.5
 21
180.0
 31
0.0
  0
LINE
  8
0
  6
CONTINUOUS
 62
   249
 10
177.5
 20
175.0
 30
0.0
 11
112.5
 21
175.0
 31
0.0
  0
LINE
  8
0
  6
CONTINUOUS
 62
   249
 10
177.5
 20
172.5
 30
0.0
 11
120.0
 21
172.5
 31
0.0
  0
LINE
  8
0
  6
CONTINUOUS
 62
   249
 10
177.5
 20
170.0
 30
0.0
 11
127.5
 21
170.0
 31
0.0
  0
LINE
  8
0
  6
CONTINUOUS
 62
   249
 10
177.5
 20
167.5
 30
0.0
 11
135.0
 21
167.5
 31
0.0
  0
LINE
  8
0
  6
CONTINUOUS
 62
   249
 10
177.5
 20
190.0
 30
0.0
 11
135.0
 21
190.0
 31
0.0
  0
LINE
  8
0
  6
CONTINUOUS
 62
   249
 10
177.5
 20
192.5
 30
0.0
 11
127.5
 21
192.5
 31
0.0
  0
LINE
  8
0
  6
CONTINUOUS
 62
   249
 10
177.5
 20
195.0
 30
0.0
 11
120.0
 21
195.0
 31
0.0
  0
LINE
  8
0
  6
CONTINUOUS
 62
   249
 10
177.5
 20
197.5
 30
0.0
 11
112.5
 21
197.5
 31
0.0
  0
LINE
  8
0
  6
CONTINUOUS
 62
   249
 10
177.5
 20
200.0
 30
0.0
 11
105.0
 21
200.0
 31
0.0
  0
LINE
  8
0
  6
CONTINUOUS
 62
   249
 10
177.5
 20
202.5
 30
0.0
 11
97.5
 21
202.5
 31
0.0
  0
LINE
  8
0
  6
CONTINUOUS
 62
   249
 10
177.5
 20
205.0
 30
0.0
 11
90.0
 21
205.0
 31
0.0
  0
LINE
  8
0
  6
CONTINUOUS
 62
   249
 10
177.5
 20
207.5
 30
0.0
 11
82.5
 21
207.5
 31
0.0
  0
LINE
  8
0
  6
DASHED
 62
   249
 10
82.5
 20
123.600824
 30
0.0
 11
82.5
 21
132.5
 31
0.0
  0
LINE
  8
0
  6
DASHED
 62
   249
 10
90.0
 20
113.600824
 30
0.0
 11
90.0
 21
132.5
 31
0.0
  0
LINE
  8
0
  6
DASHED
 62
   249
 10
97.5
 20
103.600824
 30
0.0
 11
97.5
 21
132.5
 31
0.0
  0
LINE
  8
0
  6
DASHED
 62
   249
 10
105.0
 20
98.600824
 30
0.0
 11
105.0
 21
132.5
 31
0.0
  0
LINE
  8
0
  6
DASHED
 62
   249
 10
112.5
 20
93.600824
 30
0.0
 11
112.5
 21
132.5
 31
0.0
  0
LINE
  8
0
  6
DASHED
 62
   249
 10
120.0
 20
88.600824
 30
0.0
 11
120.0
 21
132.5
 31
0.0
  0
LINE
  8
0
  6
DASHED
 62
   249
 10
127.5
 20
83.600824
 30
0.0
 11
127.5
 21
132.5
 31
0.0
  0
LINE
  8
0
  6
DASHED
 62
   249
 10
135.0
 20
73.600824
 30
0.0
 11
135.0
 21
132.5
 31
0.0
  0
LINE
  8
0
  6
DASHED
 62
   249
 10
142.5
 20
66.100824
 30
0.0
 11
142.5
 21
132.5
 31
0.0
  0
LINE
  8
0
  6
CONTINUOUS
 62
   249
 10
97.5
 20
132.5
 30
0.0
 11
97.5
 21
202.5
 31
0.0
  0
LINE
  8
0
  6
CONTINUOUS
 62
   249
 10
120.0
 20
132.5
 30
0.0
 11
120.0
 21
195.0
 31
0.0
  0
LINE
  8
0
  6
CONTINUOUS
 62
   249
 10
112.5
 20
132.5
 30
0.0
 11
112.5
 21
197.5
 31
0.0
  0
LINE
  8
0
  6
CONTINUOUS
 62
   249
 10
105.0
 20
132.5
 30
0.0
 11
105.0
 21
200.0
 31
0.0
  0
LINE
  8
0
  6
CONTINUOUS
 62
   249
 10
142.5
 20
132.5
 30
0.0
 11
142.5
 21
135.0
 31
0.0
  0
LINE
  8
0
  6
CONTINUOUS
 62
   249
 10
135.0
 20
132.5
 30
0.0
 11
135.0
 21
190.0
 31
0.0
  0
LINE
  8
0
  6
CONTINUOUS
 62
   249
 10
127.5
 20
132.5
 30
0.0
 11
127.5
 21
192.5
 31
0.0
  0
POLYLINE
  8
0
  6
CONTINUOUS
 62
   249
 66
     1
 10
0.0
 20
0.0
 30
0.0
 70
     1
 40
0.5
 41
0.5
  0
VERTEX
  8
0
  6
CONTINUOUS
 62
   249
 10
82.0
 20
185.0
 30
0.0
 42
1.0
  0
VERTEX
  8
0
  6
CONTINUOUS
 62
   249
 10
83.0
 20
185.0
 30
0.0
 42
1.0
  0
SEQEND
  8
0
  6
CONTINUOUS
 62
   249
  0
POLYLINE
  8
0
  6
CONTINUOUS
 62
   249
 66
     1
 10
0.0
 20
0.0
 30
0.0
 70
     1
 40
0.5
 41
0.5
  0
VERTEX
  8
0
  6
CONTINUOUS
 62
   249
 10
89.5
 20
182.5
 30
0.0
 42
1.0
  0
VERTEX
  8
0
  6
CONTINUOUS
 62
   249
 10
90.5
 20
182.5
 30
0.0
 42
1.0
  0
SEQEND
  8
0
  6
CONTINUOUS
 62
   249
  0
POLYLINE
  8
0
  6
CONTINUOUS
 62
   249
 66
     1
 10
0.0
 20
0.0
 30
0.0
 70
     1
 40
0.5
 41
0.5
  0
VERTEX
  8
0
  6
CONTINUOUS
 62
   249
 10
97.0
 20
180.0
 30
0.0
 42
1.0
  0
VERTEX
  8
0
  6
CONTINUOUS
 62
   249
 10
98.0
 20
180.0
 30
0.0
 42
1.0
  0
SEQEND
  8
0
  6
CONTINUOUS
 62
   249
  0
POLYLINE
  8
0
  6
CONTINUOUS
 62
   249
 66
     1
 10
0.0
 20
0.0
 30
0.0
 70
     1
 40
0.5
 41
0.5
  0
VERTEX
  8
0
  6
CONTINUOUS
 62
   249
 10
104.5
 20
177.5
 30
0.0
 42
1.0
  0
VERTEX
  8
0
  6
CONTINUOUS
 62
   249
 10
105.5
 20
177.5
 30
0.0
 42
1.0
  0
SEQEND
  8
0
  6
CONTINUOUS
 62
   249
  0
POLYLINE
  8
0
  6
CONTINUOUS
 62
   249
 66
     1
 10
0.0
 20
0.0
 30
0.0
 70
     1
 40
0.5
 41
0.5
  0
VERTEX
  8
0
  6
CONTINUOUS
 62
   249
 10
112.0
 20
175.0
 30
0.0
 42
1.0
  0
VERTEX
  8
0
  6
CONTINUOUS
 62
   249
 10
113.0
 20
175.0
 30
0.0
 42
1.0
  0
SEQEND
  8
0
  6
CONTINUOUS
 62
   249
  0
POLYLINE
  8
0
  6
CONTINUOUS
 62
   249
 66
     1
 10
0.0
 20
0.0
 30
0.0
 70
     1
 40
0.5
 41
0.5
  0
VERTEX
  8
0
  6
CONTINUOUS
 62
   249
 10
119.5
 20
172.5
 30
0.0
 42
1.0
  0
VERTEX
  8
0
  6
CONTINUOUS
 62
   249
 10
120.5
 20
172.5
 30
0.0
 42
1.0
  0
SEQEND
  8
0
  6
CONTINUOUS
 62
   249
  0
POLYLINE
  8
0
  6
CONTINUOUS
 62
   249
 66
     1
 10
0.0
 20
0.0
 30
0.0
 70
     1
 40
0.5
 41
0.5
  0
VERTEX
  8
0
  6
CONTINUOUS
 62
   249
 10
127.0
 20
170.0
 30
0.0
 42
1.0
  0
VERTEX
  8
0
  6
CONTINUOUS
 62
   249
 10
128.0
 20
170.0
 30
0.0
 42
1.0
  0
SEQEND
  8
0
  6
CONTINUOUS
 62
   249
  0
POLYLINE
  8
0
  6
CONTINUOUS
 62
   249
 66
     1
 10
0.0
 20
0.0
 30
0.0
 70
     1
 40
0.5
 41
0.5
  0
VERTEX
  8
0
  6
CONTINUOUS
 62
   249
 10
134.5
 20
167.5
 30
0.0
 42
1.0
  0
VERTEX
  8
0
  6
CONTINUOUS
 62
   249
 10
135.5
 20
167.5
 30
0.0
 42
1.0
  0
SEQEND
  8
0
  6
CONTINUOUS
 62
   249
  0
LINE
  8
0
  6
CONTINUOUS
 62
   249
 10
82.5
 20
132.5
 30
0.0
 11
82.5
 21
207.5
 31
0.0
  0
LINE
  8
0
  6
CONTINUOUS
 62
   249
 10
90.0
 20
132.5
 30
0.0
 11
90.0
 21
205.0
 31
0.0
  0
LINE
  8
0
  6
CONTINUOUS
 62
   249
 10
57.877948
 20
148.933648
 30
0.0
 11
50.754927
 21
148.933648
 31
0.0
  0
LINE
  8
0
  6
CONTINUOUS
 62
   249
 10
57.877948
 20
146.028148
 30
0.0
 11
57.877948
 21
148.933648
 31
0.0
  0
LINE
  8
0
  6
CONTINUOUS
 62
   249
 10
50.754927
 20
146.028148
 30
0.0
 11
57.877948
 21
146.028148
 31
0.0
  0
LINE
  8
0
  6
CONTINUOUS
 62
   249
 10
50.754927
 20
148.933648
 30
0.0
 11
50.754927
 21
146.028148
 31
0.0
  0
LINE
  8
0
  6
DASHED
 62
   249
 10
57.877948
 20
147.480898
 30
0.0
 11
66.388485
 21
147.480898
 31
0.0
  0
LINE
  8
0
  6
CONTINUOUS
 62
   249
 10
54.316438
 20
148.933648
 30
0.0
 11
54.316438
 21
150.0
 31
0.0
  0
LINE
  8
0
  6
CONTINUOUS
 62
   249
 10
54.316438
 20
150.0
 30
0.0
 11
42.5
 21
150.0
 31
0.0
  0
LINE
  8
0
  6
CONTINUOUS
 62
   249
 10
54.316438
 20
146.028148
 30
0.0
 11
54.316438
 21
145.0
 31
0.0
  0
LINE
  8
0
  6
CONTINUOUS
 62
   249
 10
54.316438
 20
145.0
 30
0.0
 11
42.5
 21
145.0
 31
0.0
  0
LINE
  8
0
  6
CONTINUOUS
 62
   249
 10
65.0
 20
145.0
 30
0.0
 11
68.214703
 21
150.743924
 31
0.0
  0
LINE
  8
0
  6
CONTINUOUS
 62
   249
 10
65.0
 20
145.0
 30
0.0
 11
65.0
 21
142.5
 31
0.0
  0
LINE
  8
0
  6
CONTINUOUS
 62
   249
 10
65.0
 20
150.0
 30
0.0
 11
65.0
 21
152.5
 31
0.0
  0
LINE
  8
0
  6
CONTINUOUS
 62
   249
 10
65.0
 20
152.5
 30
0.0
 11
75.0
 21
152.5
 31
0.0
  0
LINE
  8
0
  6
CONTINUOUS
 62
   249
 10
72.5
 20
182.5
 30
0.0
 11
72.5
 21
217.5
 31
0.0
  0
LINE
  8
0
  6
CONTINUOUS
 62
   249
 10
72.5
 20
217.5
 30
0.0
 11
215.0
 21
217.5
 31
0.0
  0
LINE
  8
0
  6
CONTINUOUS
 62
   249
 10
65.0
 20
165.0
 30
0.0
 11
65.0
 21
167.5
 31
0.0
  0
LINE
  8
0
  6
CONTINUOUS
 62
   249
 10
65.0
 20
160.0
 30
0.0
 11
65.0
 21
157.5
 31
0.0
  0
LINE
  8
0
  6
CONTINUOUS
 62
   249
 10
65.0
 20
160.0
 30
0.0
 11
68.214703
 21
165.743924
 31
0.0
  0
LINE
  8
0
  6
CONTINUOUS
 62
   249
 10
54.316438
 20
160.0
 30
0.0
 11
42.5
 21
160.0
 31
0.0
  0
LINE
  8
0
  6
CONTINUOUS
 62
   249
 10
54.316438
 20
161.028148
 30
0.0
 11
54.316438
 21
160.0
 31
0.0
  0
LINE
  8
0
  6
CONTINUOUS
 62
   249
 10
54.316438
 20
165.0
 30
0.0
 11
42.5
 21
165.0
 31
0.0
  0
LINE
  8
0
  6
CONTINUOUS
 62
   249
 10
54.316438
 20
163.933648
 30
0.0
 11
54.316438
 21
165.0
 31
0.0
  0
LINE
  8
0
  6
DASHED
 62
   249
 10
57.877948
 20
162.480898
 30
0.0
 11
66.388485
 21
162.480898
 31
0.0
  0
LINE
  8
0
  6
CONTINUOUS
 62
   249
 10
50.754927
 20
163.933648
 30
0.0
 11
50.754927
 21
161.028148
 31
0.0
  0
LINE
  8
0
  6
CONTINUOUS
 62
   249
 10
50.754927
 20
161.028148
 30
0.0
 11
57.877948
 21
161.028148
 31
0.0
  0
LINE
  8
0
  6
CONTINUOUS
 62
   249
 10
57.877948
 20
161.028148
 30
0.0
 11
57.877948
 21
163.933648
 31
0.0
  0
LINE
  8
0
  6
CONTINUOUS
 62
   249
 10
57.877948
 20
163.933648
 30
0.0
 11
50.754927
 21
163.933648
 31
0.0
  0
LINE
  8
0
  6
CONTINUOUS
 62
   249
 10
65.0
 20
167.5
 30
0.0
 11
75.0
 21
167.5
 31
0.0
  0
LINE
  8
0
  6
CONTINUOUS
 62
   249
 10
65.0
 20
182.5
 30
0.0
 11
72.5
 21
182.5
 31
0.0
  0
LINE
  8
0
  6
CONTINUOUS
 62
   249
 10
57.877948
 20
178.933648
 30
0.0
 11
50.754927
 21
178.933648
 31
0.0
  0
LINE
  8
0
  6
CONTINUOUS
 62
   249
 10
57.877948
 20
176.028148
 30
0.0
 11
57.877948
 21
178.933648
 31
0.0
  0
LINE
  8
0
  6
CONTINUOUS
 62
   249
 10
50.754927
 20
176.028148
 30
0.0
 11
57.877948
 21
176.028148
 31
0.0
  0
LINE
  8
0
  6
CONTINUOUS
 62
   249
 10
50.754927
 20
178.933648
 30
0.0
 11
50.754927
 21
176.028148
 31
0.0
  0
LINE
  8
0
  6
DASHED
 62
   249
 10
57.877948
 20
177.480898
 30
0.0
 11
66.388485
 21
177.480898
 31
0.0
  0
LINE
  8
0
  6
CONTINUOUS
 62
   249
 10
54.316438
 20
178.933648
 30
0.0
 11
54.316438
 21
180.0
 31
0.0
  0
LINE
  8
0
  6
CONTINUOUS
 62
   249
 10
54.316438
 20
180.0
 30
0.0
 11
42.5
 21
180.0
 31
0.0
  0
LINE
  8
0
  6
CONTINUOUS
 62
   249
 10
54.316438
 20
176.028148
 30
0.0
 11
54.316438
 21
175.0
 31
0.0
  0
LINE
  8
0
  6
CONTINUOUS
 62
   249
 10
54.316438
 20
175.0
 30
0.0
 11
42.5
 21
175.0
 31
0.0
  0
LINE
  8
0
  6
CONTINUOUS
 62
   249
 10
65.0
 20
175.0
 30
0.0
 11
68.214703
 21
180.743924
 31
0.0
  0
LINE
  8
0
  6
CONTINUOUS
 62
   249
 10
65.0
 20
175.0
 30
0.0
 11
65.0
 21
172.5
 31
0.0
  0
LINE
  8
0
  6
CONTINUOUS
 62
   249
 10
65.0
 20
180.0
 30
0.0
 11
65.0
 21
182.5
 31
0.0
  0
LINE
  8
0
  6
CONTINUOUS
 62
   249
 10
65.0
 20
195.0
 30
0.0
 11
65.0
 21
197.5
 31
0.0
  0
LINE
  8
0
  6
CONTINUOUS
 62
   249
 10
65.0
 20
190.0
 30
0.0
 11
65.0
 21
187.5
 31
0.0
  0
LINE
  8
0
  6
CONTINUOUS
 62
   249
 10
65.0
 20
190.0
 30
0.0
 11
68.214703
 21
195.743924
 31
0.0
  0
LINE
  8
0
  6
CONTINUOUS
 62
   249
 10
54.316438
 20
190.0
 30
0.0
 11
42.5
 21
190.0
 31
0.0
  0
LINE
  8
0
  6
CONTINUOUS
 62
   249
 10
54.316438
 20
191.028148
 30
0.0
 11
54.316438
 21
190.0
 31
0.0
  0
LINE
  8
0
  6
CONTINUOUS
 62
   249
 10
54.316438
 20
195.0
 30
0.0
 11
42.5
 21
195.0
 31
0.0
  0
LINE
  8
0
  6
CONTINUOUS
 62
   249
 10
54.316438
 20
193.933648
 30
0.0
 11
54.316438
 21
195.0
 31
0.0
  0
LINE
  8
0
  6
DASHED
 62
   249
 10
57.877948
 20
192.480898
 30
0.0
 11
66.388485
 21
192.480898
 31
0.0
  0
LINE
  8
0
  6
CONTINUOUS
 62
   249
 10
50.754927
 20
193.933648
 30
0.0
 11
50.754927
 21
191.028148
 31
0.0
  0
LINE
  8
0
  6
CONTINUOUS
 62
   249
 10
50.754927
 20
191.028148
 30
0.0
 11
57.877948
 21
191.028148
 31
0.0
  0
LINE
  8
0
  6
CONTINUOUS
 62
   249
 10
57.877948
 20
191.028148
 30
0.0
 11
57.877948
 21
193.933648
 31
0.0
  0
LINE
  8
0
  6
CONTINUOUS
 62
   249
 10
57.877948
 20
193.933648
 30
0.0
 11
50.754927
 21
193.933648
 31
0.0
  0
LINE
  8
0
  6
CONTINUOUS
 62
   249
 10
65.0
 20
197.5
 30
0.0
 11
72.5
 21
197.5
 31
0.0
  0
LINE
  8
0
  6
CONTINUOUS
 62
   249
 10
65.0
 20
212.5
 30
0.0
 11
72.5
 21
212.5
 31
0.0
  0
LINE
  8
0
  6
CONTINUOUS
 62
   249
 10
57.877948
 20
208.933648
 30
0.0
 11
50.754927
 21
208.933648
 31
0.0
  0
LINE
  8
0
  6
CONTINUOUS
 62
   249
 10
57.877948
 20
206.028148
 30
0.0
 11
57.877948
 21
208.933648
 31
0.0
  0
LINE
  8
0
  6
CONTINUOUS
 62
   249
 10
50.754927
 20
206.028148
 30
0.0
 11
57.877948
 21
206.028148
 31
0.0
  0
LINE
  8
0
  6
CONTINUOUS
 62
   249
 10
50.754927
 20
208.933648
 30
0.0
 11
50.754927
 21
206.028148
 31
0.0
  0
LINE
  8
0
  6
DASHED
 62
   249
 10
57.877948
 20
207.480898
 30
0.0
 11
66.388485
 21
207.480898
 31
0.0
  0
LINE
  8
0
  6
CONTINUOUS
 62
   249
 10
54.316438
 20
208.933648
 30
0.0
 11
54.316438
 21
210.0
 31
0.0
  0
LINE
  8
0
  6
CONTINUOUS
 62
   249
 10
54.316438
 20
210.0
 30
0.0
 11
42.5
 21
210.0
 31
0.0
  0
LINE
  8
0
  6
CONTINUOUS
 62
   249
 10
54.316438
 20
206.028148
 30
0.0
 11
54.316438
 21
205.0
 31
0.0
  0
LINE
  8
0
  6
CONTINUOUS
 62
   249
 10
54.316438
 20
205.0
 30
0.0
 11
42.5
 21
205.0
 31
0.0
  0
LINE
  8
0
  6
CONTINUOUS
 62
   249
 10
65.0
 20
205.0
 30
0.0
 11
68.214703
 21
210.743924
 31
0.0
  0
LINE
  8
0
  6
CONTINUOUS
 62
   249
 10
65.0
 20
205.0
 30
0.0
 11
65.0
 21
202.5
 31
0.0
  0
LINE
  8
0
  6
CONTINUOUS
 62
   249
 10
65.0
 20
210.0
 30
0.0
 11
65.0
 21
212.5
 31
0.0
  0
POLYLINE
  8
0
  6
CONTINUOUS
 62
   249
 66
     1
 10
0.0
 20
0.0
 30
0.0
 70
     1
 40
0.5
 41
0.5
  0
VERTEX
  8
0
  6
CONTINUOUS
 62
   249
 10
72.0
 20
212.5
 30
0.0
 42
1.0
  0
VERTEX
  8
0
  6
CONTINUOUS
 62
   249
 10
73.0
 20
212.5
 30
0.0
 42
1.0
  0
SEQEND
  8
0
  6
CONTINUOUS
 62
   249
  0
POLYLINE
  8
0
  6
CONTINUOUS
 62
   249
 66
     1
 10
0.0
 20
0.0
 30
0.0
 70
     1
 40
0.5
 41
0.5
  0
VERTEX
  8
0
  6
CONTINUOUS
 62
   249
 10
72.0
 20
197.5
 30
0.0
 42
1.0
  0
VERTEX
  8
0
  6
CONTINUOUS
 62
   249
 10
73.0
 20
197.5
 30
0.0
 42
1.0
  0
SEQEND
  8
0
  6
CONTINUOUS
 62
   249
  0
POLYLINE
  8
0
  6
CONTINUOUS
 62
   249
 66
     1
 10
0.0
 20
0.0
 30
0.0
 70
     1
 40
0.5
 41
0.5
  0
VERTEX
  8
0
  6
CONTINUOUS
 62
   249
 10
74.5
 20
167.5
 30
0.0
 42
1.0
  0
VERTEX
  8
0
  6
CONTINUOUS
 62
   249
 10
75.5
 20
167.5
 30
0.0
 42
1.0
  0
SEQEND
  8
0
  6
CONTINUOUS
 62
   249
  0
LINE
  8
0
  6
HIDDEN
 62
   249
 10
260.0
 20
85.0
 30
0.0
 11
255.0
 21
85.0
 31
0.0
  0
LINE
  8
0
  6
HIDDEN
 62
   249
 10
255.0
 20
85.0
 30
0.0
 11
255.0
 21
225.0
 31
0.0
  0
LINE
  8
0
  6
HIDDEN
 62
   249
 10
260.0
 20
225.0
 30
0.0
 11
255.0
 21
225.0
 31
0.0
  0
TEXT
  8
0
  6
CONTINUOUS
 62
   249
 10
255.821449
 20
221.742446
 30
0.0
 40
2.0
  1
X0
  7
ROMANS
  0
LINE
  8
0
  6
HIDDEN
 62
   249
 10
147.5
 20
57.5
 30
0.0
 11
147.5
 21
62.5
 31
0.0
  0
LINE
  8
0
  6
HIDDEN
 62
   249
 10
147.5
 20
62.5
 30
0.0
 11
186.471129
 21
62.5
 31
0.0
  0
LINE
  8
0
  6
HIDDEN
 62
   249
 10
186.471129
 20
62.5
 30
0.0
 11
186.471129
 21
57.5
 31
0.0
  0
TEXT
  8
0
  6
CONTINUOUS
 62
   249
 10
151.007068
 20
57.877099
 30
0.0
 40
2.0
  1
X2
 50
90.0
  7
ROMANS
  0
TEXT
  8
0
  6
CONTINUOUS
 62
   249
 10
180.840325
 20
58.561614
 30
0.0
 40
2.0
  1
6
 50
90.0
  7
ROMANS
  0
TEXT
  8
0
  6
CONTINUOUS
 62
   249
 10
185.681062
 20
58.561614
 30
0.0
 40
2.0
  1
4
 50
90.0
  7
ROMANS
  0
LINE
  8
0
  6
HIDDEN
 62
   249
 10
187.5
 20
57.5
 30
0.0
 11
187.5
 21
62.5
 31
0.0
  0
LINE
  8
0
  6
HIDDEN
 62
   249
 10
187.5
 20
62.5
 30
0.0
 11
212.5
 21
62.5
 31
0.0
  0
TEXT
  8
0
  6
CONTINUOUS
 62
   249
 10
190.638441
 20
57.877099
 30
0.0
 40
2.0
  1
X1
 50
90.0
  7
ROMANS
  0
TEXT
  8
0
  6
CONTINUOUS
 62
   249
 10
195.638441
 20
57.877099
 30
0.0
 40
2.0
  1
16
 50
90.0
  7
ROMANS
  0
TEXT
  8
0
  6
CONTINUOUS
 62
   249
 10
200.638441
 20
57.877099
 30
0.0
 40
2.0
  1
18
 50
90.0
  7
ROMANS
  0
LINE
  8
0
  6
HIDDEN
 62
   249
 10
212.5
 20
57.5
 30
0.0
 11
212.5
 21
62.5
 31
0.0
  0
LINE
  8
0
  6
HIDDEN
 62
   249
 10
215.0
 20
57.5
 30
0.0
 11
215.0
 21
62.5
 31
0.0
  0
LINE
  8
0
  6
HIDDEN
 62
   249
 10
215.0
 20
62.5
 30
0.0
 11
230.0
 21
62.5
 31
0.0
  0
LINE
  8
0
  6
HIDDEN
 62
   249
 10
230.0
 20
62.5
 30
0.0
 11
230.0
 21
57.5
 31
0.0
  0
TEXT
  8
0
  6
CONTINUOUS
 62
   249
 10
205.59138
 20
57.877099
 30
0.0
 40
2.0
  1
12
 50
90.0
  7
ROMANS
  0
TEXT
  8
0
  6
CONTINUOUS
 62
   249
 10
210.891264
 20
57.877099
 30
0.0
 40
2.0
  1
14
 50
90.0
  7
ROMANS
  0
TEXT
  8
0
  6
CONTINUOUS
 62
   249
 10
218.138441
 20
57.877099
 30
0.0
 40
2.0
  1
X2
 50
90.0
  7
ROMANS
  0
LINE
  8
0
  6
HIDDEN
 62
   249
 10
42.5
 20
135.0
 30
0.0
 11
47.5
 21
135.0
 31
0.0
  0
LINE
  8
0
  6
HIDDEN
 62
   249
 10
47.5
 20
135.0
 30
0.0
 11
47.5
 21
111.195736
 31
0.0
  0
LINE
  8
0
  6
HIDDEN
 62
   249
 10
47.5
 20
111.195736
 30
0.0
 11
42.5
 21
111.195736
 31
0.0
  0
TEXT
  8
0
  6
CONTINUOUS
 62
   249
 10
43.007057
 20
126.932006
 30
0.0
 40
2.0
  1
13
  7
ROMANS
  0
TEXT
  8
0
  6
CONTINUOUS
 62
   249
 10
43.007057
 20
121.932006
 30
0.0
 40
2.0
  1
11
  7
ROMANS
  0
TEXT
  8
0
  6
CONTINUOUS
 62
   249
 10
43.007057
 20
116.932006
 30
0.0
 40
2.0
  1
17
  7
ROMANS
  0
TEXT
  8
0
  6
CONTINUOUS
 62
   249
 10
43.007057
 20
111.932006
 30
0.0
 40
2.0
  1
15
  7
ROMANS
  0
LINE
  8
0
  6
HIDDEN
 62
   249
 10
42.5
 20
110.0
 30
0.0
 11
47.5
 21
110.0
 31
0.0
  0
LINE
  8
0
  6
HIDDEN
 62
   249
 10
47.5
 20
110.0
 30
0.0
 11
47.5
 21
58.717083
 31
0.0
  0
LINE
  8
0
  6
HIDDEN
 62
   249
 10
47.5
 20
58.717083
 30
0.0
 11
42.5
 21
58.717083
 31
0.0
  0
TEXT
  8
0
  6
CONTINUOUS
 62
   249
 10
43.976696
 20
86.932006
 30
0.0
 40
2.0
  1
9
  7
ROMANS
  0
TEXT
  8
0
  6
CONTINUOUS
 62
   249
 10
43.976696
 20
91.932006
 30
0.0
 40
2.0
  1
7
  7
ROMANS
  0
TEXT
  8
0
  6
CONTINUOUS
 62
   249
 10
43.976696
 20
96.932006
 30
0.0
 40
2.0
  1
5
  7
ROMANS
  0
TEXT
  8
0
  6
CONTINUOUS
 62
   249
 10
43.976696
 20
101.932006
 30
0.0
 40
2.0
  1
3
  7
ROMANS
  0
TEXT
  8
0
  6
CONTINUOUS
 62
   249
 10
43.306147
 20
106.636967
 30
0.0
 40
2.0
  1
X2
  7
ROMANS
  0
TEXT
  8
0
  6
CONTINUOUS
 62
   249
 10
43.007057
 20
64.124627
 30
0.0
 40
2.0
  1
16
  7
ROMANS
  0
TEXT
  8
0
  6
CONTINUOUS
 62
   249
 10
43.007057
 20
71.446487
 30
0.0
 40
2.0
  1
14
  7
ROMANS
  0
TEXT
  8
0
  6
CONTINUOUS
 62
   249
 10
43.007057
 20
76.932006
 30
0.0
 40
2.0
  1
11
  7
ROMANS
  0
TEXT
  8
0
  6
CONTINUOUS
 62
   249
 10
43.007057
 20
81.932006
 30
0.0
 40
2.0
  1
12
  7
ROMANS
  0
TEXT
  8
0
  6
CONTINUOUS
 62
   249
 10
43.007057
 20
59.505995
 30
0.0
 40
2.0
  1
17
  7
ROMANS
  0
LINE
  8
0
  6
HIDDEN
 62
   249
 10
42.5
 20
215.0
 30
0.0
 11
47.5
 21
215.0
 31
0.0
  0
LINE
  8
0
  6
HIDDEN
 62
   249
 10
47.5
 20
215.0
 30
0.0
 11
47.5
 21
140.0
 31
0.0
  0
LINE
  8
0
  6
HIDDEN
 62
   249
 10
47.5
 20
140.0
 30
0.0
 11
42.5
 21
140.0
 31
0.0
  0
TEXT
  8
0
  6
CONTINUOUS
 62
   249
 10
43.306147
 20
211.636967
 30
0.0
 40
2.0
  1
X1
  7
ROMANS
  0
TEXT
  8
0
  6
CONTINUOUS
 62
   249
 10
43.976696
 20
201.932006
 30
0.0
 40
2.0
  1
2
  7
ROMANS
  0
TEXT
  8
0
  6
CONTINUOUS
 62
   249
 10
43.976696
 20
206.932006
 30
0.0
 40
2.0
  1
1
  7
ROMANS
  0
TEXT
  8
0
  6
CONTINUOUS
 62
   249
 10
43.976696
 20
186.932006
 30
0.0
 40
2.0
  1
4
  7
ROMANS
  0
TEXT
  8
0
  6
CONTINUOUS
 62
   249
 10
43.976696
 20
191.932006
 30
0.0
 40
2.0
  1
3
  7
ROMANS
  0
TEXT
  8
0
  6
CONTINUOUS
 62
   249
 10
43.976696
 20
171.932006
 30
0.0
 40
2.0
  1
6
  7
ROMANS
  0
TEXT
  8
0
  6
CONTINUOUS
 62
   249
 10
43.976696
 20
176.932006
 30
0.0
 40
2.0
  1
5
  7
ROMANS
  0
TEXT
  8
0
  6
CONTINUOUS
 62
   249
 10
43.976696
 20
156.932006
 30
0.0
 40
2.0
  1
8
  7
ROMANS
  0
TEXT
  8
0
  6
CONTINUOUS
 62
   249
 10
43.976696
 20
161.932006
 30
0.0
 40
2.0
  1
7
  7
ROMANS
  0
TEXT
  8
0
  6
CONTINUOUS
 62
   249
 10
43.976696
 20
146.932006
 30
0.0
 40
2.0
  1
9
  7
ROMANS
  0
TEXT
  8
0
  6
CONTINUOUS
 62
   249
 10
43.007057
 20
141.932006
 30
0.0
 40
2.0
  1
10
  7
ROMANS
  0
TEXT
  8
0
  6
HIDDEN
 62
   249
 10
65.414748
 20
213.693637
 30
0.0
 40
2.0
  1
BS1
  7
ROMANS
  0
TEXT
  8
0
  6
HIDDEN
 62
   249
 10
65.414748
 20
198.693637
 30
0.0
 40
2.0
  1
BS2
  7
ROMANS
  0
TEXT
  8
0
  6
HIDDEN
 62
   249
 10
65.414748
 20
168.693637
 30
0.0
 40
2.0
  1
BS4
  7
ROMANS
  0
TEXT
  8
0
  6
HIDDEN
 62
   249
 10
65.414748
 20
183.693637
 30
0.0
 40
2.0
  1
BS3
  7
ROMANS
  0
TEXT
  8
0
  6
HIDDEN
 62
   249
 10
65.414748
 20
153.693637
 30
0.0
 40
2.0
  1
BS5
  7
ROMANS
  0
TEXT
  8
0
  6
HIDDEN
 62
   249
 10
80.885843
 20
135.0
 30
0.0
 40
2.0
  1
TS4
 50
90.0
  7
ROMANS
  0
TEXT
  8
0
  6
HIDDEN
 62
   249
 10
88.804544
 20
135.0
 30
0.0
 40
2.0
  1
TS3
 50
90.0
  7
ROMANS
  0
TEXT
  8
0
  6
HIDDEN
 62
   249
 10
96.220468
 20
135.0
 30
0.0
 40
2.0
  1
TS2
 50
90.0
  7
ROMANS
  0
TEXT
  8
0
  6
HIDDEN
 62
   249
 10
103.602905
 20
135.0
 30
0.0
 40
2.0
  1
TS1
 50
90.0
  7
ROMANS
  0
TEXT
  8
0
  6
HIDDEN
 62
   249
 10
110.885843
 20
135.0
 30
0.0
 40
2.0
  1
SS4
 50
90.0
  7
ROMANS
  0
TEXT
  8
0
  6
HIDDEN
 62
   249
 10
118.804544
 20
135.0
 30
0.0
 40
2.0
  1
SS3
 50
90.0
  7
ROMANS
  0
TEXT
  8
0
  6
HIDDEN
 62
   249
 10
126.220468
 20
135.0
 30
0.0
 40
2.0
  1
SS2
 50
90.0
  7
ROMANS
  0
TEXT
  8
0
  6
HIDDEN
 62
   249
 10
133.602905
 20
135.0
 30
0.0
 40
2.0
  1
SS1
 50
90.0
  7
ROMANS
  0
TEXT
  8
0
  6
DASHED
 62
   249
 10
28.03868
 20
176.519183
 30
0.0
 40
2.0
  1
1)
  7
ROMANS
  0
LINE
  8
0
  6
CONTINUOUS
 62
   249
 10
35.0
 20
144.999655
 30
0.0
 11
36.0
 21
143.999655
 31
0.0
  0
LINE
  8
0
  6
CONTINUOUS
 62
   249
 10
35.0
 20
210.0
 30
0.0
 11
36.0
 21
211.0
 31
0.0
  0
LINE
  8
0
  6
CONTINUOUS
 62
   249
 10
35.0
 20
210.0
 30
0.0
 11
35.0
 21
144.999655
 31
0.0
  0
LINE
  8
0
  6
DASHED
 62
   249
 10
42.5
 20
210.0
 30
0.0
 11
37.5
 21
210.0
 31
0.0
  0
LINE
  8
0
  6
DASHED
 62
   249
 10
42.5
 20
205.0
 30
0.0
 11
37.5
 21
205.0
 31
0.0
  0
LINE
  8
0
  6
DASHED
 62
   249
 10
42.5
 20
190.0
 30
0.0
 11
37.5
 21
190.0
 31
0.0
  0
LINE
  8
0
  6
DASHED
 62
   249
 10
42.5
 20
195.0
 30
0.0
 11
37.5
 21
195.0
 31
0.0
  0
LINE
  8
0
  6
DASHED
 62
   249
 10
42.5
 20
160.0
 30
0.0
 11
37.5
 21
160.0
 31
0.0
  0
LINE
  8
0
  6
DASHED
 62
   249
 10
42.5
 20
165.0
 30
0.0
 11
37.5
 21
165.0
 31
0.0
  0
LINE
  8
0
  6
DASHED
 62
   249
 10
42.5
 20
175.0
 30
0.0
 11
37.5
 21
175.0
 31
0.0
  0
LINE
  8
0
  6
DASHED
 62
   249
 10
42.5
 20
180.0
 30
0.0
 11
37.5
 21
180.0
 31
0.0
  0
LINE
  8
0
  6
DASHED
 62
   249
 10
42.5
 20
145.0
 30
0.0
 11
37.5
 21
145.0
 31
0.0
  0
LINE
  8
0
  6
DASHED
 62
   249
 10
42.5
 20
150.0
 30
0.0
 11
37.5
 21
150.0
 31
0.0
  0
LINE
  8
0
  6
DASHED
 62
   249
 10
42.5
 20
120.0
 30
0.0
 11
37.5
 21
120.0
 31
0.0
  0
LINE
  8
0
  6
DASHED
 62
   249
 10
42.5
 20
125.0
 30
0.0
 11
37.5
 21
125.0
 31
0.0
  0
LINE
  8
0
  6
DASHED
 62
   249
 10
42.5
 20
130.0
 30
0.0
 11
37.5
 21
130.0
 31
0.0
  0
LINE
  8
0
  6
DASHED
 62
   249
 10
42.5
 20
100.0
 30
0.0
 11
37.5
 21
100.0
 31
0.0
  0
LINE
  8
0
  6
DASHED
 62
   249
 10
42.5
 20
80.0
 30
0.0
 11
37.5
 21
80.0
 31
0.0
  0
LINE
  8
0
  6
DASHED
 62
   249
 10
42.5
 20
85.0
 30
0.0
 11
37.5
 21
85.0
 31
0.0
  0
LINE
  8
0
  6
DASHED
 62
   249
 10
42.5
 20
75.0
 30
0.0
 11
37.5
 21
75.0
 31
0.0
  0
LINE
  8
0
  6
CONTINUOUS
 62
   249
 10
35.0
 20
95.0
 30
0.0
 11
36.0
 21
96.0
 31
0.0
  0
LINE
  8
0
  6
CONTINUOUS
 62
   249
 10
35.0
 20
95.0
 30
0.0
 11
35.0
 21
74.999655
 31
0.0
  0
LINE
  8
0
  6
CONTINUOUS
 62
   249
 10
35.0
 20
74.999655
 30
0.0
 11
36.0
 21
73.999655
 31
0.0
  0
TEXT
  8
0
  6
DASHED
 62
   249
 10
28.03868
 20
84.019183
 30
0.0
 40
2.0
  1
3)
  7
ROMANS
  0
LINE
  8
0
  6
DASHED
 62
   249
 10
152.5
 20
57.5
 30
0.0
 11
152.5
 21
50.0
 31
0.0
  0
LINE
  8
0
  6
DASHED
 62
   249
 10
182.5
 20
57.5
 30
0.0
 11
182.5
 21
50.0
 31
0.0
  0
LINE
  8
0
  6
DASHED
 62
   249
 10
207.5
 20
57.5
 30
0.0
 11
207.5
 21
50.0
 31
0.0
  0
LINE
  8
0
  6
DASHED
 62
   249
 10
202.5
 20
57.5
 30
0.0
 11
202.5
 21
50.0
 31
0.0
  0
LINE
  8
0
  6
DASHED
 62
   249
 10
197.5
 20
57.5
 30
0.0
 11
197.5
 21
50.0
 31
0.0
  0
LINE
  8
0
  6
DASHED
 62
   249
 10
192.5
 20
57.5
 30
0.0
 11
192.5
 21
50.0
 31
0.0
  0
TEXT
  8
0
  6
DASHED
 62
   249
 10
334.773514
 20
115.812297
 30
0.0
 40
2.0
  1
  UTLÖSNING
  7
ROMANS
  0
TEXT
  8
0
  6
DASHED
 62
   249
 10
333.434499
 20
119.145631
 30
0.0
 40
2.0
  1
2) TRIP
  7
ROMANS
  0
TEXT
  8
0
  6
DASHED
 62
   249
 10
339.174255
 20
125.812297
 30
0.0
 40
2.0
  1
KONTROLLINGÅNGAR
  7
ROMANS
  0
TEXT
  8
0
  6
DASHED
 62
   249
 10
333.434499
 20
129.145631
 30
0.0
 40
2.0
  1
1) CONTROL INPUTS
  7
ROMANS
  0
TEXT
  8
0
  6
DASHED
 62
   249
 10
334.665
 20
87.340526
 30
0.0
 40
2.0
  1
  BUSSANSLUTNINGSMODUL
  7
ROMANS
  0
TEXT
  8
0
  6
HIDDEN
 62
   249
 10
369.606363
 20
217.440215
 30
0.0
 40
2.5
  1
I
  7
GREEKS
  0
INSERT
  8
0
  6
CONTINUOUS
 62
   249
  2
BLC29
 10
374.243768
 20
218.334434
 30
0.0
 41
0.684724
 42
0.684724
 43
0.684724
  0
TEXT
  8
0
  6
HIDDEN
 62
   249
 10
367.019729
 20
217.434682
 30
0.0
 40
2.339483
  1
D
  7
GREEKC
  0
TEXT
  8
0
  6
CONTINUOUS
 62
   249
 10
370.974207
 20
216.909634
 30
0.0
 40
1.5
  1
02
  7
ROMANS
  0
TEXT
  8
0
  6
CONTINUOUS
 62
   249
 10
370.974207
 20
222.442802
 30
0.0
 40
1.5
  1
01
  7
ROMANS
  0
TEXT
  8
0
  6
HIDDEN
 62
   249
 10
367.019729
 20
222.96785
 30
0.0
 40
2.339483
  1
D
  7
GREEKC
  0
INSERT
  8
0
  6
CONTINUOUS
 62
   249
  2
BLC29
 10
374.243768
 20
223.867602
 30
0.0
 41
0.684724
 42
0.684724
 43
0.684724
  0
TEXT
  8
0
  6
HIDDEN
 62
   249
 10
369.606363
 20
222.973383
 30
0.0
 40
2.5
  1
I
  7
GREEKS
  0
INSERT
  8
0
  6
CONTINUOUS
 62
   249
  2
BLC29
 10
375.189948
 20
235.812096
 30
0.0
 41
0.684724
 42
0.684724
 43
0.684724
  0
TEXT
  8
0
  6
HIDDEN
 62
   249
 10
371.653862
 20
234.917877
 30
0.0
 40
2.5
  1
I
  7
GREEKS
  0
INSERT
  8
0
  6
CONTINUOUS
 62
   249
  2
BLC29
 10
373.238699
 20
235.812096
 30
0.0
 41
0.684724
 42
0.684724
 43
0.684724
  0
TEXT
  8
0
  6
CONTINUOUS
 62
   249
 10
366.921662
 20
234.912174
 30
0.0
 40
2.5
  1
3
  7
GREEKS
  0
TEXT
  8
0
  6
HIDDEN
 62
   249
 10
369.067229
 20
234.912344
 30
0.0
 40
2.339483
  1
D
  7
GREEKC
  0
TEXT
  8
0
  6
HIDDEN
 62
   249
 10
369.067229
 20
240.130971
 30
0.0
 40
2.339483
  1
D
  7
GREEKC
  0
TEXT
  8
0
  6
CONTINUOUS
 62
   249
 10
366.921662
 20
240.130801
 30
0.0
 40
2.5
  1
3
  7
GREEKS
  0
INSERT
  8
0
  6
CONTINUOUS
 62
   249
  2
BLC29
 10
373.238699
 20
241.030723
 30
0.0
 41
0.684724
 42
0.684724
 43
0.684724
  0
TEXT
  8
0
  6
HIDDEN
 62
   249
 10
371.653862
 20
240.136504
 30
0.0
 40
2.5
  1
I
  7
GREEKS
  0
TEXT
  8
0
  6
CONTINUOUS
 62
   249
 10
370.178949
 20
247.346886
 30
0.0
 40
2.5
  1
/
  7
GREEKS
  0
TEXT
  8
0
  6
CONTINUOUS
 62
   249
 10
367.850889
 20
247.346886
 30
0.0
 40
2.5
  1
Y
  7
GREEKS
  0
TEXT
  8
0
  6
HIDDEN
 62
   249
 10
372.237005
 20
247.383424
 30
0.0
 40
2.339483
  1
D
  7
GREEKC
  0
LINE
  8
0
  6
CONTINUOUS
 62
   249
 10
380.0
 20
212.5
 30
0.0
 11
362.5
 21
212.5
 31
0.0
  0
LINE
  8
0
  6
CONTINUOUS
 62
   249
 10
362.5
 20
192.5
 30
0.0
 11
362.5
 21
232.5
 31
0.0
  0
LINE
  8
0
  6
CONTINUOUS
 62
   249
 10
380.0
 20
232.5
 30
0.0
 11
380.0
 21
192.5
 31
0.0
  0
LINE
  8
0
  6
CONTINUOUS
 62
   249
 10
380.0
 20
192.5
 30
0.0
 11
362.5
 21
192.5
 31
0.0
  0
TEXT
  8
0
  6
HIDDEN
 62
   249
 10
344.796099
 20
52.441177
 30
0.0
 40
2.0
  1
I
  7
GREEKS
  0
TEXT
  8
0
  6
CONTINUOUS
 62
   249
 10
346.163944
 20
51.910596
 30
0.0
 40
1.5
  1
02
  7
ROMANS
  0
TEXT
  8
0
  6
CONTINUOUS
 62
   249
 10
346.163944
 20
56.530117
 30
0.0
 40
1.5
  1
01
  7
ROMANS
  0
TEXT
  8
0
  6
HIDDEN
 62
   249
 10
344.796099
 20
57.060697
 30
0.0
 40
2.0
  1
I
  7
GREEKS
  0
TEXT
  8
0
  6
DASHED
 62
   249
 10
355.93529
 20
57.066661
 30
0.0
 40
2.0
  1
25-27
  7
ROMANS
  0
TEXT
  8
0
  6
DASHED
 62
   249
 10
370.390565
 20
57.066661
 30
0.0
 40
2.0
  1
25-26
  7
ROMANS
  0
TEXT
  8
0
  6
DASHED
 62
   249
 10
355.93529
 20
52.41941
 30
0.0
 40
2.0
  1
37-39
  7
ROMANS
  0
TEXT
  8
0
  6
DASHED
 62
   249
 10
370.390565
 20
52.41941
 30
0.0
 40
2.0
  1
37-38
  7
ROMANS
  0
LINE
  8
0
  6
DASHED
 62
   249
 10
325.0
 20
147.131109
 30
0.0
 11
325.0
 21
102.5
 31
0.0
  0
LINE
  8
0
  6
DASHED
 62
   249
 10
325.0
 20
207.5
 30
0.0
 11
325.0
 21
162.716827
 31
0.0
  0
LINE
  8
0
  6
DASHED
 62
   249
 10
321.493684
 20
112.440007
 30
0.0
 11
283.5
 21
112.440007
 31
0.0
  0
INSERT
  8
0
  6
DASHED
 62
   249
  2
B97
 10
299.779463
 20
158.318232
 30
0.0
 50
270.0
  0
LINE
  8
0
  6
DASHED
 62
   249
 10
325.0
 20
158.318243
 30
0.0
 11
303.412848
 21
158.318243
 31
0.0
  0
LINE
  8
0
  6
DASHED
 62
   249
 10
270.0
 20
220.0
 30
0.0
 11
280.0
 21
220.0
 31
0.0
  0
LINE
  8
0
  6
DASHED
 62
   249
 10
260.0
 20
192.5
 30
0.0
 11
280.0
 21
192.5
 31
0.0
  0
LINE
  8
0
  6
DASHED
 62
   249
 10
270.0
 20
202.5
 30
0.0
 11
280.0
 21
202.5
 31
0.0
  0
LINE
  8
0
  6
DASHED
 62
   249
 10
260.0
 20
172.5
 30
0.0
 11
280.0
 21
172.5
 31
0.0
  0
LINE
  8
0
  6
DASHED
 62
   249
 10
270.0
 20
182.5
 30
0.0
 11
280.0
 21
182.5
 31
0.0
  0
LINE
  8
0
  6
DASHED
 62
   249
 10
260.0
 20
157.5
 30
0.0
 11
280.0
 21
157.5
 31
0.0
  0
LINE
  8
0
  6
DASHED
 62
   249
 10
270.0
 20
167.5
 30
0.0
 11
280.0
 21
167.5
 31
0.0
  0
LINE
  8
0
  6
DASHED
 62
   249
 10
260.0
 20
142.5
 30
0.0
 11
280.0
 21
142.5
 31
0.0
  0
LINE
  8
0
  6
DASHED
 62
   249
 10
270.0
 20
152.5
 30
0.0
 11
280.0
 21
152.5
 31
0.0
  0
LINE
  8
0
  6
CONTINUOUS
 62
   249
 10
283.5
 20
221.5
 30
0.0
 11
283.5
 21
172.0
 31
0.0
  0
LINE
  8
0
  6
CONTINUOUS
 62
   249
 10
283.5
 20
157.0
 30
0.0
 11
282.5
 21
156.0
 31
0.0
  0
LINE
  8
0
  6
CONTINUOUS
 62
   249
 10
283.5
 20
221.5
 30
0.0
 11
282.5
 21
222.5
 31
0.0
  0
LINE
  8
0
  6
DASHED
 62
   249
 10
260.0
 20
125.0
 30
0.0
 11
280.0
 21
125.0
 31
0.0
  0
LINE
  8
0
  6
DASHED
 62
   249
 10
270.0
 20
135.0
 30
0.0
 11
280.0
 21
135.0
 31
0.0
  0
LINE
  8
0
  6
DASHED
 62
   249
 10
260.0
 20
107.5
 30
0.0
 11
280.0
 21
107.5
 31
0.0
  0
LINE
  8
0
  6
DASHED
 62
   249
 10
270.0
 20
117.5
 30
0.0
 11
280.0
 21
117.5
 31
0.0
  0
LINE
  8
0
  6
DASHED
 62
   249
 10
260.0
 20
90.0
 30
0.0
 11
280.0
 21
90.0
 31
0.0
  0
LINE
  8
0
  6
DASHED
 62
   249
 10
270.0
 20
100.0
 30
0.0
 11
280.0
 21
100.0
 31
0.0
  0
LINE
  8
0
  6
CONTINUOUS
 62
   249
 10
283.5
 20
168.095598
 30
0.0
 11
282.5
 21
169.095598
 31
0.0
  0
LINE
  8
0
  6
CONTINUOUS
 62
   249
 10
283.5
 20
89.5
 30
0.0
 11
282.5
 21
88.5
 31
0.0
  0
LINE
  8
0
  6
CONTINUOUS
 62
   249
 10
283.5
 20
135.595598
 30
0.0
 11
283.5
 21
89.5
 31
0.0
  0
LINE
  8
0
  6
CONTINUOUS
 62
   249
 10
283.5
 20
135.595598
 30
0.0
 11
282.5
 21
136.595598
 31
0.0
  0
LINE
  8
0
  6
CONTINUOUS
 62
   249
 10
283.5
 20
168.095598
 30
0.0
 11
283.5
 21
157.0
 31
0.0
  0
LINE
  8
0
  6
CONTINUOUS
 62
   249
 10
283.5
 20
172.0
 30
0.0
 11
282.5
 21
171.0
 31
0.0
  0
LINE
  8
0
  6
CONTINUOUS
 62
   249
 10
283.5
 20
153.095598
 30
0.0
 11
283.5
 21
142.0
 31
0.0
  0
LINE
  8
0
  6
CONTINUOUS
 62
   249
 10
283.5
 20
153.095598
 30
0.0
 11
282.5
 21
154.095598
 31
0.0
  0
LINE
  8
0
  6
CONTINUOUS
 62
   249
 10
283.5
 20
142.0
 30
0.0
 11
282.5
 21
141.0
 31
0.0
  0
LINE
  8
0
  6
CONTINUOUS
 62
   249
 10
325.0
 20
158.318243
 30
0.0
 11
323.068033
 21
156.386275
 31
0.0
  0
LINE
  8
0
  6
CONTINUOUS
 62
   249
 10
326.931967
 20
156.386275
 30
0.0
 11
325.0
 21
158.318243
 31
0.0
  0
LINE
  8
0
  6
CONTINUOUS
 62
   249
 10
325.0
 20
158.318243
 30
0.0
 11
325.0
 21
160.25021
 31
0.0
  0
INSERT
  8
0
  6
DASHED
 62
   249
  2
B97
 10
299.779463
 20
151.132164
 30
0.0
 50
270.0
  0
LINE
  8
0
  6
DASHED
 62
   249
 10
325.0
 20
151.132175
 30
0.0
 11
316.077355
 21
151.132175
 31
0.0
  0
LINE
  8
0
  6
CONTINUOUS
 62
   249
 10
325.0
 20
151.132175
 30
0.0
 11
323.068033
 21
149.200208
 31
0.0
  0
LINE
  8
0
  6
CONTINUOUS
 62
   249
 10
326.931967
 20
149.200208
 30
0.0
 11
325.0
 21
151.132175
 31
0.0
  0
LINE
  8
0
  6
CONTINUOUS
 62
   249
 10
325.0
 20
151.132175
 30
0.0
 11
325.0
 21
153.064143
 31
0.0
  0
LINE
  8
0
  6
DASHED
 62
   249
 10
303.412848
 20
158.318243
 30
0.0
 11
300.970447
 21
158.318243
 31
0.0
  0
LINE
  8
0
  6
DASHED
 62
   249
 10
303.414641
 20
151.132175
 30
0.0
 11
300.970447
 21
151.132175
 31
0.0
  0
LINE
  8
0
  6
DASHED
 62
   249
 10
311.56955
 20
151.132175
 30
0.0
 11
303.414641
 21
151.132175
 31
0.0
  0
LINE
  8
0
  6
DASHED
 62
   249
 10
306.399517
 20
161.312014
 30
0.0
 11
306.399517
 21
162.5
 31
0.0
  0
LINE
  8
0
  6
DASHED
 62
   249
 10
306.399517
 20
162.5
 30
0.0
 11
283.5
 21
162.5
 31
0.0
  0
LINE
  8
0
  6
DASHED
 62
   249
 10
306.399517
 20
147.596957
 30
0.0
 11
306.399517
 21
147.5
 31
0.0
  0
LINE
  8
0
  6
DASHED
 62
   249
 10
306.399517
 20
146.551861
 30
0.0
 11
283.5
 21
146.551861
 31
0.0
  0
LINE
  8
0
  6
DASHED
 62
   249
 10
322.063571
 20
197.440007
 30
0.0
 11
283.5
 21
197.440007
 31
0.0
  0
TEXT
  8
0
  6
CONTINUOUS
 62
   249
 10
273.089723
 20
199.440905
 30
0.0
 40
2.0
  1
L2     
  7
ROMANS
  0
TEXT
  8
0
  6
CONTINUOUS
 62
   249
 10
273.089723
 20
179.366229
 30
0.0
 40
2.0
  1
L3
  7
ROMANS
  0
TEXT
  8
0
  6
CONTINUOUS
 62
   249
 10
273.089723
 20
86.554749
 30
0.0
 40
2.0
  1
L3'
  7
ROMANS
  0
TEXT
  8
0
  6
CONTINUOUS
 62
   249
 10
273.089723
 20
103.926244
 30
0.0
 40
2.0
  1
L2'
  7
ROMANS
  0
TEXT
  8
0
  6
DASHED
 62
   249
 10
273.104939
 20
121.723595
 30
0.0
 40
2.0
  1
L1'
  7
ROMANS
  0
TEXT
  8
0
  6
CONTINUOUS
 62
   249
 10
273.089723
 20
216.728173
 30
0.0
 40
2.0
  1
L1
  7
ROMANS
  0
TEXT
  8
0
  6
HIDDEN
 62
   249
 10
273.606049
 20
139.124845
 30
0.0
 40
2.0
  1
I
  7
GREEKS
  0
TEXT
  8
0
  6
CONTINUOUS
 62
   249
 10
274.973893
 20
138.594264
 30
0.0
 40
1.5
  1
02
  7
ROMANS
  0
TEXT
  8
0
  6
CONTINUOUS
 62
   249
 10
274.973893
 20
153.914914
 30
0.0
 40
1.5
  1
01
  7
ROMANS
  0
TEXT
  8
0
  6
HIDDEN
 62
   249
 10
273.606049
 20
154.445494
 30
0.0
 40
2.0
  1
I
  7
GREEKS
  0
TEXT
  8
0
  6
CONTINUOUS
 62
   249
 10
273.089723
 20
206.728173
 30
0.0
 40
2.0
  1
L1
  7
ROMANS
  0
TEXT
  8
0
  6
CONTINUOUS
 62
   249
 10
273.089723
 20
189.440905
 30
0.0
 40
2.0
  1
L2     
  7
ROMANS
  0
TEXT
  8
0
  6
CONTINUOUS
 62
   249
 10
273.089723
 20
96.554749
 30
0.0
 40
2.0
  1
L3'
  7
ROMANS
  0
TEXT
  8
0
  6
CONTINUOUS
 62
   249
 10
273.089723
 20
113.926244
 30
0.0
 40
2.0
  1
L2'
  7
ROMANS
  0
TEXT
  8
0
  6
DASHED
 62
   249
 10
273.104939
 20
131.723595
 30
0.0
 40
2.0
  1
L1'
  7
ROMANS
  0
TEXT
  8
0
  6
CONTINUOUS
 62
   249
 10
274.973893
 20
148.594264
 30
0.0
 40
1.5
  1
02
  7
ROMANS
  0
TEXT
  8
0
  6
HIDDEN
 62
   249
 10
273.606049
 20
149.124845
 30
0.0
 40
2.0
  1
I
  7
GREEKS
  0
TEXT
  8
0
  6
CONTINUOUS
 62
   249
 10
274.973893
 20
163.914914
 30
0.0
 40
1.5
  1
01
  7
ROMANS
  0
TEXT
  8
0
  6
HIDDEN
 62
   249
 10
273.606049
 20
164.445494
 30
0.0
 40
2.0
  1
I
  7
GREEKS
  0
CIRCLE
  8
0
  6
CONTINUOUS
 62
   249
 10
145.0
 20
67.5
 30
0.0
 40
0.740939
  0
CIRCLE
  8
0
  6
CONTINUOUS
 62
   249
 10
137.5
 20
75.0
 30
0.0
 40
0.740939
  0
CIRCLE
  8
0
  6
CONTINUOUS
 62
   249
 10
130.0
 20
85.0
 30
0.0
 40
0.740939
  0
CIRCLE
  8
0
  6
CONTINUOUS
 62
   249
 10
122.5
 20
90.0
 30
0.0
 40
0.740939
  0
CIRCLE
  8
0
  6
CONTINUOUS
 62
   249
 10
115.0
 20
95.0
 30
0.0
 40
0.740939
  0
CIRCLE
  8
0
  6
CONTINUOUS
 62
   249
 10
107.5
 20
100.0
 30
0.0
 40
0.740939
  0
CIRCLE
  8
0
  6
CONTINUOUS
 62
   249
 10
100.0
 20
105.0
 30
0.0
 40
0.740939
  0
CIRCLE
  8
0
  6
CONTINUOUS
 62
   249
 10
92.5
 20
115.0
 30
0.0
 40
0.740939
  0
CIRCLE
  8
0
  6
CONTINUOUS
 62
   249
 10
92.5
 20
120.0
 30
0.0
 40
0.740939
  0
CIRCLE
  8
0
  6
CONTINUOUS
 62
   249
 10
85.0
 20
125.0
 30
0.0
 40
0.740939
  0
CIRCLE
  8
0
  6
CONTINUOUS
 62
   249
 10
85.0
 20
130.0
 30
0.0
 40
0.740939
  0
TEXT
  8
0
  6
DASHED
 62
   249
 10
350.788343
 20
146.465494
 30
0.0
 40
2.0
  1
SPAD 346 C
  7
ROMANS
  0
TEXT
  8
0
  6
DASHED
 62
   249
 10
375.985524
 20
161.130859
 30
0.0
 40
1.8
  1
162 mm
  7
ROMANS
  0
TEXT
  8
0
  6
DASHED
 62
   249
 10
355.521052
 20
172.125543
 30
0.0
 40
1.8
  1
226 mm
  7
ROMANS
  0
LINE
  8
0
  6
CONTINUOUS
 62
   249
 10
348.760762
 20
151.341917
 30
0.0
 11
372.106533
 21
151.341917
 31
0.0
  0
LINE
  8
0
  6
CONTINUOUS
 62
   249
 10
374.106533
 20
153.341917
 30
0.0
 11
374.106533
 21
168.84073
 31
0.0
  0
LINE
  8
0
  6
CONTINUOUS
 62
   249
 10
372.106533
 20
170.84073
 30
0.0
 11
348.760762
 21
170.84073
 31
0.0
  0
LINE
  8
0
  6
CONTINUOUS
 62
   249
 10
346.760762
 20
168.84073
 30
0.0
 11
346.760762
 21
153.341917
 31
0.0
  0
ARC
  8
0
  6
CONTINUOUS
 62
   249
 10
372.106533
 20
168.84073
 30
0.0
 40
2.0
 50
0.0
 51
90.0
  0
ARC
  8
0
  6
CONTINUOUS
 62
   249
 10
348.760762
 20
168.84073
 30
0.0
 40
2.0
 50
90.0
 51
180.0
  0
ARC
  8
0
  6
CONTINUOUS
 62
   249
 10
348.760762
 20
153.341917
 30
0.0
 40
2.0
 50
180.0
 51
270.0
  0
ARC
  8
0
  6
CONTINUOUS
 62
   249
 10
372.106533
 20
153.341917
 30
0.0
 40
2.0
 50
270.0
 51
0.0
  0
LINE
  8
0
  6
DASHED
 62
   249
 10
42.5
 20
67.5
 30
0.0
 11
37.5
 21
67.5
 31
0.0
  0
TEXT
  8
0
  6
CONTINUOUS
 62
   249
 10
273.089723
 20
168.520068
 30
0.0
 40
2.0
  1
L3
  7
ROMANS
  0
CIRCLE
  8
0
  6
CONTINUOUS
 62
   249
 10
306.414658
 20
158.310232
 30
0.0
 40
3.00182
  0
LINE
  8
0
  6
DASHED
 62
   249
 10
306.399517
 20
146.551861
 30
0.0
 11
306.399517
 21
148.02635
 31
0.0
  0
CIRCLE
  8
0
  6
CONTINUOUS
 62
   249
 10
306.414658
 20
151.028132
 30
0.0
 40
3.00182
  0
CIRCLE
  8
0
  6
CONTINUOUS
 62
   249
 10
325.034866
 20
157.777819
 30
0.0
 40
4.019811
  0
CIRCLE
  8
0
  6
CONTINUOUS
 62
   249
 10
325.034866
 20
151.160394
 30
0.0
 40
4.019811
  0
CIRCLE
  8
0
  6
CONTINUOUS
 62
   249
 10
324.959532
 20
112.18327
 30
0.0
 40
3.475345
  0
INSERT
  8
0
  6
DASHED
 62
   249
  2
B1018
 10
327.5
 20
197.5
 30
0.0
  0
TEXT
  8
0
  6
CONTINUOUS
 62
   249
 10
198.635355
 20
170.638724
 30
0.0
 40
2.5
  1
2I
  7
GREEKS
  0
TEXT
  8
0
  6
CONTINUOUS
 62
   249
 10
201.07741
 20
148.304824
 30
0.0
 40
2.5
  1
I
  7
GREEKS
  0
INSERT
  8
0
  6
DASHED
 62
   249
  2
B155
 10
204.348514
 20
172.077674
 30
0.0
  0
INSERT
  8
0
  6
DASHED
 62
   249
  2
B155
 10
204.348514
 20
150.047223
 30
0.0
  0
TEXT
  8
0
  6
CONTINUOUS
 62
   249
 10
184.832957
 20
159.173646
 30
0.0
 40
2.5
  1
3
  7
GREEKS
  0
TEXT
  8
0
  6
HIDDEN
 62
   249
 10
187.494198
 20
159.179349
 30
0.0
 40
2.5
  1
I
  7
GREEKS
  0
INSERT
  8
0
  6
CONTINUOUS
 62
   249
  2
BLC29
 10
189.079035
 20
160.073568
 30
0.0
 41
0.684724
 42
0.684724
 43
0.684724
  0
TEXT
  8
0
  6
CONTINUOUS
 62
   249
 10
185.646975
 20
153.350759
 30
0.0
 40
2.5
  1
I
  7
GREEKS
  0
INSERT
  8
0
  6
DASHED
 62
   249
  2
B155
 10
188.918079
 20
155.093159
 30
0.0
  0
TEXT
  8
0
  6
HIDDEN
 62
   249
 10
184.009751
 20
147.544314
 30
0.0
 40
2.339483
  1
D
  7
GREEKC
  0
TEXT
  8
0
  6
HIDDEN
 62
   249
 10
186.596384
 20
147.549847
 30
0.0
 40
2.5
  1
I
  7
GREEKS
  0
INSERT
  8
0
  6
CONTINUOUS
 62
   249
  2
BLC29
 10
189.15086
 20
148.444066
 30
0.0
 41
0.684724
 42
0.684724
 43
0.684724
  0
POLYLINE
  8
0
  6
CONTINUOUS
 62
   249
 66
     1
 10
0.0
 20
0.0
 30
0.0
 70
     1
 40
0.5
 41
0.5
  0
VERTEX
  8
0
  6
CONTINUOUS
 62
   249
 10
134.5
 20
147.5
 30
0.0
 42
1.0
  0
VERTEX
  8
0
  6
CONTINUOUS
 62
   249
 10
135.5
 20
147.5
 30
0.0
 42
1.0
  0
SEQEND
  8
0
  6
CONTINUOUS
 62
   249
  0
POLYLINE
  8
0
  6
CONTINUOUS
 62
   249
 66
     1
 10
0.0
 20
0.0
 30
0.0
 70
     1
 40
0.5
 41
0.5
  0
VERTEX
  8
0
  6
CONTINUOUS
 62
   249
 10
127.0
 20
150.0
 30
0.0
 42
1.0
  0
VERTEX
  8
0
  6
CONTINUOUS
 62
   249
 10
128.0
 20
150.0
 30
0.0
 42
1.0
  0
SEQEND
  8
0
  6
CONTINUOUS
 62
   249
  0
POLYLINE
  8
0
  6
CONTINUOUS
 62
   249
 66
     1
 10
0.0
 20
0.0
 30
0.0
 70
     1
 40
0.5
 41
0.5
  0
VERTEX
  8
0
  6
CONTINUOUS
 62
   249
 10
119.5
 20
152.5
 30
0.0
 42
1.0
  0
VERTEX
  8
0
  6
CONTINUOUS
 62
   249
 10
120.5
 20
152.5
 30
0.0
 42
1.0
  0
SEQEND
  8
0
  6
CONTINUOUS
 62
   249
  0
POLYLINE
  8
0
  6
CONTINUOUS
 62
   249
 66
     1
 10
0.0
 20
0.0
 30
0.0
 70
     1
 40
0.5
 41
0.5
  0
VERTEX
  8
0
  6
CONTINUOUS
 62
   249
 10
112.0
 20
155.0
 30
0.0
 42
1.0
  0
VERTEX
  8
0
  6
CONTINUOUS
 62
   249
 10
113.0
 20
155.0
 30
0.0
 42
1.0
  0
SEQEND
  8
0
  6
CONTINUOUS
 62
   249
  0
POLYLINE
  8
0
  6
CONTINUOUS
 62
   249
 66
     1
 10
0.0
 20
0.0
 30
0.0
 70
     1
 40
0.5
 41
0.5
  0
VERTEX
  8
0
  6
CONTINUOUS
 62
   249
 10
104.5
 20
157.5
 30
0.0
 42
1.0
  0
VERTEX
  8
0
  6
CONTINUOUS
 62
   249
 10
105.5
 20
157.5
 30
0.0
 42
1.0
  0
SEQEND
  8
0
  6
CONTINUOUS
 62
   249
  0
POLYLINE
  8
0
  6
CONTINUOUS
 62
   249
 66
     1
 10
0.0
 20
0.0
 30
0.0
 70
     1
 40
0.5
 41
0.5
  0
VERTEX
  8
0
  6
CONTINUOUS
 62
   249
 10
97.0
 20
160.0
 30
0.0
 42
1.0
  0
VERTEX
  8
0
  6
CONTINUOUS
 62
   249
 10
98.0
 20
160.0
 30
0.0
 42
1.0
  0
SEQEND
  8
0
  6
CONTINUOUS
 62
   249
  0
POLYLINE
  8
0
  6
CONTINUOUS
 62
   249
 66
     1
 10
0.0
 20
0.0
 30
0.0
 70
     1
 40
0.5
 41
0.5
  0
VERTEX
  8
0
  6
CONTINUOUS
 62
   249
 10
89.5
 20
162.5
 30
0.0
 42
1.0
  0
VERTEX
  8
0
  6
CONTINUOUS
 62
   249
 10
90.5
 20
162.5
 30
0.0
 42
1.0
  0
SEQEND
  8
0
  6
CONTINUOUS
 62
   249
  0
POLYLINE
  8
0
  6
CONTINUOUS
 62
   249
 66
     1
 10
0.0
 20
0.0
 30
0.0
 70
     1
 40
0.5
 41
0.5
  0
VERTEX
  8
0
  6
CONTINUOUS
 62
   249
 10
82.0
 20
165.0
 30
0.0
 42
1.0
  0
VERTEX
  8
0
  6
CONTINUOUS
 62
   249
 10
83.0
 20
165.0
 30
0.0
 42
1.0
  0
SEQEND
  8
0
  6
CONTINUOUS
 62
   249
  0
LINE
  8
0
  6
CONTINUOUS
 62
   249
 10
177.5
 20
147.5
 30
0.0
 11
135.0
 21
147.5
 31
0.0
  0
LINE
  8
0
  6
CONTINUOUS
 62
   249
 10
177.5
 20
150.0
 30
0.0
 11
127.5
 21
150.0
 31
0.0
  0
LINE
  8
0
  6
CONTINUOUS
 62
   249
 10
177.5
 20
152.5
 30
0.0
 11
120.0
 21
152.5
 31
0.0
  0
LINE
  8
0
  6
CONTINUOUS
 62
   249
 10
177.5
 20
155.0
 30
0.0
 11
112.5
 21
155.0
 31
0.0
  0
LINE
  8
0
  6
CONTINUOUS
 62
   249
 10
177.5
 20
157.5
 30
0.0
 11
105.0
 21
157.5
 31
0.0
  0
LINE
  8
0
  6
CONTINUOUS
 62
   249
 10
177.5
 20
160.0
 30
0.0
 11
97.5
 21
160.0
 31
0.0
  0
LINE
  8
0
  6
CONTINUOUS
 62
   249
 10
177.5
 20
162.5
 30
0.0
 11
90.0
 21
162.5
 31
0.0
  0
LINE
  8
0
  6
CONTINUOUS
 62
   249
 10
177.5
 20
165.0
 30
0.0
 11
82.5
 21
165.0
 31
0.0
  0
TEXT
  8
0
  6
CONTINUOUS
 62
   249
 10
366.921662
 20
206.383634
 30
0.0
 40
2.5
  1
3
  7
GREEKS
  0
TEXT
  8
0
  6
HIDDEN
 62
   249
 10
369.939934
 20
206.389337
 30
0.0
 40
2.5
  1
I
  7
GREEKS
  0
INSERT
  8
0
  6
CONTINUOUS
 62
   249
  2
BLC29
 10
372.010131
 20
207.283556
 30
0.0
 41
0.684724
 42
0.684724
 43
0.684724
  0
TEXT
  8
0
  6
HIDDEN
 62
   249
 10
369.939934
 20
200.841816
 30
0.0
 40
2.5
  1
I
  7
GREEKS
  0
TEXT
  8
0
  6
HIDDEN
 62
   249
 10
367.019729
 20
195.464301
 30
0.0
 40
2.339483
  1
D
  7
GREEKC
  0
TEXT
  8
0
  6
HIDDEN
 62
   249
 10
369.606363
 20
195.469834
 30
0.0
 40
2.5
  1
I
  7
GREEKS
  0
INSERT
  8
0
  6
CONTINUOUS
 62
   249
  2
BLC29
 10
372.22649
 20
196.364053
 30
0.0
 41
0.684724
 42
0.684724
 43
0.684724
  0
INSERT
  8
0
  6
DASHED
 62
   249
  2
B155
 10
372.955754
 20
202.380925
 30
0.0
  0
LINE
  8
0
  6
CONTINUOUS
 62
   249
 10
75.0
 20
152.5
 30
0.0
 11
75.0
 21
215.0
 31
0.0
  0
LINE
  8
0
  6
CONTINUOUS
 62
   249
 10
75.0
 20
215.0
 30
0.0
 11
217.5
 21
215.0
 31
0.0
  0
LINE
  8
0
  6
CONTINUOUS
 62
   249
 10
217.5
 20
170.0
 30
0.0
 11
217.5
 21
215.0
 31
0.0
  0
LINE
  8
0
  6
CONTINUOUS
 62
   249
 10
207.950615
 20
195.0
 30
0.0
 11
217.5
 21
195.0
 31
0.0
  0
LINE
  8
0
  6
CONTINUOUS
 62
   249
 10
207.950615
 20
170.0
 30
0.0
 11
217.5
 21
170.0
 31
0.0
  0
POLYLINE
  8
0
  6
DASHED
 62
   249
 66
     1
 10
0.0
 20
0.0
 30
0.0
 70
     1
 40
0.5
 41
0.5
  0
VERTEX
  8
0
  6
DASHED
 62
   249
 10
217.0
 20
195.0
 30
0.0
 42
1.0
  0
VERTEX
  8
0
  6
DASHED
 62
   249
 10
218.0
 20
195.0
 30
0.0
 42
1.0
  0
SEQEND
  8
0
  6
DASHED
 62
   249
  0
INSERT
  8
0
  6
CONTINUOUS
 62
   249
  2
BLC29
 10
212.061205
 20
197.371524
 30
0.0
 50
180.0
  0
INSERT
  8
0
  6
CONTINUOUS
 62
   249
  2
BLC29
 10
212.061205
 20
194.871524
 30
0.0
 50
180.0
  0
INSERT
  8
0
  6
CONTINUOUS
 62
   249
  2
BLC29
 10
212.061205
 20
172.371524
 30
0.0
 50
180.0
  0
INSERT
  8
0
  6
CONTINUOUS
 62
   249
  2
BLC29
 10
212.061205
 20
169.871524
 30
0.0
 50
180.0
  0
INSERT
  8
0
  6
CONTINUOUS
 62
   249
  2
BLC29
 10
212.061205
 20
149.871524
 30
0.0
 50
180.0
  0
ENDSEC
  0
EOF
