  0
SECTION
  2
HEADER
  9
$ACADVER
  1
AC1009
  9
$DWGCODEPAGE
  3
iso8859-1
  9
$INSBASE
 10
0.0
 20
0.0
 30
0.0
  9
$EXTMIN
 10
1.0E20
 20
1.0E20
  9
$EXTMAX
 10
-1.0E20
 20
-1.0E20
  9
$LIMMIN
 10
0.0
 20
0.0
  9
$LIMMAX
 10
12.0
 20
9.0
  9
$ORTHOMODE
 70
     0
  9
$REGENMODE
 70
     1
  9
$FILLMODE
 70
     1
  9
$QTEXTMODE
 70
     0
  9
$MIRRTEXT
 70
     1
  9
$DRAGMODE
 70
     2
  9
$LTSCALE
 40
15.0
  9
$OSMODE
 70
     0
  9
$ATTMODE
 70
     1
  9
$TEXTSIZE
 40
0.2
  9
$TRACEWID
 40
0.05
  9
$TEXTSTYLE
  7
STANDARD
  9
$CLAYER
  8
0
  9
$CELTYPE
  6
DASHED
  9
$CECOLOR
 62
   256
  9
$DIMSCALE
 40
1.0
  9
$DIMASZ
 40
0.18
  9
$DIMEXO
 40
0.0625
  9
$DIMDLI
 40
0.38
  9
$DIMRND
 40
0.0
  9
$DIMDLE
 40
0.0
  9
$DIMEXE
 40
0.18
  9
$DIMTP
 40
0.0
  9
$DIMTM
 40
0.0
  9
$DIMTXT
 40
0.18
  9
$DIMCEN
 40
0.09
  9
$DIMTSZ
 40
0.0
  9
$DIMTOL
 70
     0
  9
$DIMLIM
 70
     0
  9
$DIMTIH
 70
     1
  9
$DIMTOH
 70
     1
  9
$DIMSE1
 70
     0
  9
$DIMSE2
 70
     0
  9
$DIMTAD
 70
     0
  9
$DIMZIN
 70
     0
  9
$DIMBLK
  1

  9
$DIMASO
 70
     1
  9
$DIMSHO
 70
     1
  9
$DIMPOST
  1

  9
$DIMAPOST
  1

  9
$DIMALT
 70
     0
  9
$DIMALTD
 70
     2
  9
$DIMALTF
 40
25.4
  9
$DIMLFAC
 40
1.0
  9
$DIMTOFL
 70
     0
  9
$DIMTVP
 40
0.0
  9
$DIMTIX
 70
     0
  9
$DIMSOXD
 70
     0
  9
$DIMSAH
 70
     0
  9
$DIMBLK1
  1

  9
$DIMBLK2
  1

  9
$DIMSTYLE
  2
STANDARD
  9
$DIMCLRD
 70
     0
  9
$DIMCLRE
 70
     0
  9
$DIMCLRT
 70
     0
  9
$DIMTFAC
 40
1.0
  9
$DIMGAP
 40
0.09
  9
$LUNITS
 70
     2
  9
$LUPREC
 70
     4
  9
$AXISMODE
 70
     0
  9
$AXISUNIT
 10
0.0
 20
0.0
  9
$SKETCHINC
 40
0.1
  9
$FILLETRAD
 40
0.0
  9
$AUNITS
 70
     0
  9
$AUPREC
 70
     0
  9
$MENU
  1
acad
  9
$ELEVATION
 40
0.0
  9
$PELEVATION
 40
0.0
  9
$THICKNESS
 40
0.0
  9
$LIMCHECK
 70
     0
  9
$BLIPMODE
 70
     1
  9
$CHAMFERA
 40
0.0
  9
$CHAMFERB
 40
0.0
  9
$SKPOLY
 70
     0
  9
$TDCREATE
 40
0.000000000
  9
$TDUPDATE
 40
0.000000000
  9
$TDINDWG
 40
0.0
  9
$TDUSRTIMER
 40
0.0
  9
$USRTIMER
 70
     1
  9
$ANGBASE
 50
0.0
  9
$ANGDIR
 70
     0
  9
$PDMODE
 70
     0
  9
$PDSIZE
 40
0.0
  9
$PLINEWID
 40
0.0
  9
$COORDS
 70
     1
  9
$SPLFRAME
 70
     0
  9
$SPLINETYPE
 70
     6
  9
$SPLINESEGS
 70
     8
  9
$ATTDIA
 70
     0
  9
$ATTREQ
 70
     1
  9
$HANDLING
 70
     1
  9
$HANDSEED
  5
   76C
  9
$SURFTAB1
 70
     6
  9
$SURFTAB2
 70
     6
  9
$SURFTYPE
 70
     6
  9
$SURFU
 70
     6
  9
$SURFV
 70
     6
  9
$UCSNAME
  2

  9
$UCSORG
 10
0.0
 20
0.0
 30
0.0
  9
$UCSXDIR
 10
1.0
 20
0.0
 30
0.0
  9
$UCSYDIR
 10
0.0
 20
1.0
 30
0.0
  9
$PUCSNAME
  2

  9
$PUCSORG
 10
0.0
 20
0.0
 30
0.0
  9
$PUCSXDIR
 10
1.0
 20
0.0
 30
0.0
  9
$PUCSYDIR
 10
0.0
 20
1.0
 30
0.0
  9
$USERI1
 70
     0
  9
$USERI2
 70
     0
  9
$USERI3
 70
     0
  9
$USERI4
 70
     0
  9
$USERI5
 70
     0
  9
$USERR1
 40
0.0
  9
$USERR2
 40
0.0
  9
$USERR3
 40
0.0
  9
$USERR4
 40
0.0
  9
$USERR5
 40
0.0
  9
$WORLDVIEW
 70
     1
  9
$SHADEDGE
 70
     3
  9
$SHADEDIF
 70
    70
  9
$TILEMODE
 70
     1
  9
$MAXACTVP
 70
    16
  9
$PINSBASE
 10
0.0
 20
0.0
 30
0.0
  9
$PLIMCHECK
 70
     0
  9
$PEXTMIN
 10
1.0E20
 20
1.0E20
 30
1.0E20
  9
$PEXTMAX
 10
-1.0E20
 20
-1.0E20
 30
-1.0E20
  9
$PLIMMIN
 10
0.0
 20
0.0
  9
$PLIMMAX
 10
12.0
 20
9.0
  9
$UNITMODE
 70
     0
  9
$VISRETAIN
 70
     0
  0
ENDSEC
  0
SECTION
  2
TABLES
  0
TABLE
  2
VPORT
 70
     1
  0
VPORT
  2
*ACTIVE
 70
     0
 10
0.0
 20
0.0
 11
1.0
 21
1.0
 12
6.801242
 22
4.5
 13
0.0
 23
0.0
 14
1.0
 24
1.0
 15
0.0
 25
0.0
 16
0.0
 26
0.0
 36
1.0
 17
0.0
 27
0.0
 37
0.0
 40
9.0
 41
1.511387
 42
50.0
 43
0.0
 44
0.0
 50
0.0
 51
0.0
 71
     0
 72
   100
 73
     1
 74
     1
 75
     0
 76
     0
 77
     0
 78
     0
  0
ENDTAB
  0
TABLE
  2
LTYPE
 70
    41
  0
LTYPE
  2
BYBLOCK
 70
     0
  3

 72
    65
 73
     0
 40
0.0
  0
LTYPE
  2
BYLAYER
 70
     0
  3

 72
    65
 73
     0
 40
0.0
  0
LTYPE
  2
CONTINUOUS
 70
     0
  3
Solid line
 72
    65
 73
     0
 40
0.0
  0
LTYPE
  2
BORDER
 70
    64
  3
__ __ . __ __ . __ __ . __ __ . __ __ . __ __ .
 72
    65
 73
     6
 40
1.75
 49
0.5
 49
-0.25
 49
0.5
 49
-0.25
 49
0.0
 49
-0.25
  0
LTYPE
  2
BORDER2
 70
    64
  3
__.__.__.__.__.__.__.__.__.__.__.__.__.__.__.__
 72
    65
 73
     6
 40
0.875
 49
0.25
 49
-0.125
 49
0.25
 49
-0.125
 49
0.0
 49
-0.125
  0
LTYPE
  2
BORDERX2
 70
    64
  3
____  ____  .  ____  ____  .  ____  ____  .  __
 72
    65
 73
     6
 40
3.5
 49
1.0
 49
-0.5
 49
1.0
 49
-0.5
 49
0.0
 49
-0.5
  0
LTYPE
  2
CENTER
 70
    64
  3
____ _ ____ _ ____ _ ____ _ ____ _ ____ _ ____
 72
    65
 73
     4
 40
2.0
 49
1.25
 49
-0.25
 49
0.25
 49
-0.25
  0
LTYPE
  2
CENTER2
 70
    64
  3
___ _ ___ _ ___ _ ___ _ ___ _ ___ _ ___ _ ___ _
 72
    65
 73
     4
 40
1.125
 49
0.75
 49
-0.125
 49
0.125
 49
-0.125
  0
LTYPE
  2
CENTERX2
 70
    64
  3
________  __  ________  __  ________  __  _____
 72
    65
 73
     4
 40
4.0
 49
2.5
 49
-0.5
 49
0.5
 49
-0.5
  0
LTYPE
  2
DASHDOT
 70
    64
  3
__ . __ . __ . __ . __ . __ . __ . __ . __ . __
 72
    65
 73
     4
 40
1.0
 49
0.5
 49
-0.25
 49
0.0
 49
-0.25
  0
LTYPE
  2
DASHDOT2
 70
    64
  3
_._._._._._._._._._._._._._._._._._._._._._._._
 72
    65
 73
     4
 40
0.5
 49
0.25
 49
-0.125
 49
0.0
 49
-0.125
  0
LTYPE
  2
DASHDOTX2
 70
    64
  3
____  .  ____  .  ____  .  ____  .  ____  .  __
 72
    65
 73
     4
 40
2.0
 49
1.0
 49
-0.5
 49
0.0
 49
-0.5
  0
LTYPE
  2
DASHED
 70
    64
  3
__ __ __ __ __ __ __ __ __ __ __ __ __ __ __ __
 72
    65
 73
     2
 40
0.75
 49
0.5
 49
-0.25
  0
LTYPE
  2
DASHED2
 70
    64
  3
_ _ _ _ _ _ _ _ _ _ _ _ _ _ _ _ _ _ _ _ _ _ _ _
 72
    65
 73
     2
 40
0.375
 49
0.25
 49
-0.125
  0
LTYPE
  2
DASHEDX2
 70
    64
  3
____  ____  ____  ____  ____  ____  ____  ____
 72
    65
 73
     2
 40
1.5
 49
1.0
 49
-0.5
  0
LTYPE
  2
DIVIDE
 70
    64
  3
____ . . ____ . . ____ . . ____ . . ____ . . __
 72
    65
 73
     6
 40
1.25
 49
0.5
 49
-0.25
 49
0.0
 49
-0.25
 49
0.0
 49
-0.25
  0
LTYPE
  2
DIVIDE2
 70
    64
  3
__..__..__..__..__..__..__..__..__..__..__..__.
 72
    65
 73
     6
 40
0.625
 49
0.25
 49
-0.125
 49
0.0
 49
-0.125
 49
0.0
 49
-0.125
  0
LTYPE
  2
DIVIDEX2
 70
    64
  3
________  .  .  ________  .  .  ________  .  .
 72
    65
 73
     6
 40
2.5
 49
1.0
 49
-0.5
 49
0.0
 49
-0.5
 49
0.0
 49
-0.5
  0
LTYPE
  2
DOT
 70
    64
  3
. . . . . . . . . . . . . . . . . . . . . . . .
 72
    65
 73
     2
 40
0.25
 49
0.0
 49
-0.25
  0
LTYPE
  2
DOT2
 70
    64
  3
...............................................
 72
    65
 73
     2
 40
0.125
 49
0.0
 49
-0.125
  0
LTYPE
  2
DOTX2
 70
    64
  3
.  .  .  .  .  .  .  .  .  .  .  .  .  .  .  .
 72
    65
 73
     2
 40
0.5
 49
0.0
 49
-0.5
  0
LTYPE
  2
HIDDEN
 70
    64
  3
__ __ __ __ __ __ __ __ __ __ __ __ __ __ __ __
 72
    65
 73
     2
 40
0.375
 49
0.25
 49
-0.125
  0
LTYPE
  2
HIDDEN2
 70
    64
  3
_ _ _ _ _ _ _ _ _ _ _ _ _ _ _ _ _ _ _ _ _ _ _ _
 72
    65
 73
     2
 40
0.1875
 49
0.125
 49
-0.0625
  0
LTYPE
  2
HIDDENX2
 70
    64
  3
____ ____ ____ ____ ____ ____ ____ ____ ____ __
 72
    65
 73
     2
 40
0.75
 49
0.5
 49
-0.25
  0
LTYPE
  2
PHANTOM
 70
    64
  3
______  __  __  ______  __  __  ______  __  __
 72
    65
 73
     6
 40
2.5
 49
1.25
 49
-0.25
 49
0.25
 49
-0.25
 49
0.25
 49
-0.25
  0
LTYPE
  2
PHANTOM2
 70
    64
  3
___ _ _ ___ _ _ ___ _ _ ___ _ _ ___ _ _ ___ _ _
 72
    65
 73
     6
 40
1.25
 49
0.625
 49
-0.125
 49
0.125
 49
-0.125
 49
0.125
 49
-0.125
  0
LTYPE
  2
PHANTOMX2
 70
    64
  3
____________    ____    ____    ____________
 72
    65
 73
     6
 40
5.0
 49
2.5
 49
-0.5
 49
0.5
 49
-0.5
 49
0.5
 49
-0.5
  0
LTYPE
  2
ACAD_ISO02W100
 70
    64
  3
__ __ __ __ __ __ __ __ __ __ __ __ __ __ __ __
 72
    65
 73
     2
 40
15.0
 49
12.0
 49
-3.0
  0
LTYPE
  2
ACAD_ISO03W100
 70
    64
  3
__    __    __    __    __    __    __    __
 72
    65
 73
     2
 40
30.0
 49
12.0
 49
-18.0
  0
LTYPE
  2
ACAD_ISO04W100
 70
    64
  3
____ . ____ . ____ . ____ . ____ . ____ . ____
 72
    65
 73
     4
 40
30.5
 49
24.0
 49
-3.0
 49
0.5
 49
-3.0
  0
LTYPE
  2
ACAD_ISO05W100
 70
    64
  3
____ .. ____ .. ____ .. ____ .. ____ .. ____ ..
 72
    65
 73
     6
 40
34.0
 49
24.0
 49
-3.0
 49
0.5
 49
-3.0
 49
0.5
 49
-3.0
  0
LTYPE
  2
ACAD_ISO06W100
 70
    64
  3
____ ... ____ ... ____ ... ____ ... ____ ... __
 72
    65
 73
     8
 40
37.5
 49
24.0
 49
-3.0
 49
0.5
 49
-3.0
 49
0.5
 49
-3.0
 49
0.5
 49
-3.0
  0
LTYPE
  2
ACAD_ISO07W100
 70
    64
  3
. . . . . . . . . . . . . . . . . . . . . . . .
 72
    65
 73
     2
 40
3.5
 49
0.5
 49
-3.0
  0
LTYPE
  2
ACAD_ISO08W100
 70
    64
  3
____ __ ____ __ ____ __ ____ ____ __ __ ____ __
 72
    65
 73
     4
 40
36.0
 49
24.0
 49
-3.0
 49
6.0
 49
-3.0
  0
LTYPE
  2
ACAD_ISO09W100
 70
    64
  3
____ __ __ ____ __ __ ____ __ __ ____ __ __ ___
 72
    65
 73
     6
 40
45.0
 49
24.0
 49
-3.0
 49
6.0
 49
-3.0
 49
6.0
 49
-3.0
  0
LTYPE
  2
ACAD_ISO10W100
 70
    64
  3
__ . __ . __ . __ . __ . __ . __ . __ . __ . __
 72
    65
 73
     4
 40
18.5
 49
12.0
 49
-3.0
 49
0.5
 49
-3.0
  0
LTYPE
  2
ACAD_ISO11W100
 70
    64
  3
__ __ . __ __ . __ __ . __ __ . __ __ . __ __ .
 72
    65
 73
     6
 40
33.5
 49
12.0
 49
-3.0
 49
12.0
 49
-3.0
 49
0.5
 49
-3.0
  0
LTYPE
  2
ACAD_ISO12W100
 70
    64
  3
__ . . __ . . __ . . __ . . __ . . __ . . __ .
 72
    65
 73
     6
 40
22.0
 49
12.0
 49
-3.0
 49
0.5
 49
-3.0
 49
0.5
 49
-3.0
  0
LTYPE
  2
ACAD_ISO13W100
 70
    64
  3
__ __ . . __ __ . . __ __ . . __ __ . . __ __ .
 72
    65
 73
     8
 40
37.0
 49
12.0
 49
-3.0
 49
12.0
 49
-3.0
 49
0.5
 49
-3.0
 49
0.5
 49
-3.0
  0
LTYPE
  2
ACAD_ISO14W100
 70
    64
  3
__ . . . __ . . . __ . . . __ . . . __ . . . __
 72
    65
 73
     8
 40
25.5
 49
12.0
 49
-3.0
 49
0.5
 49
-3.0
 49
0.5
 49
-3.0
 49
0.5
 49
-3.0
  0
LTYPE
  2
ACAD_ISO15W100
 70
    64
  3
__ __ . . . __ __ . . . __ __ . . . __ __ . . .
 72
    65
 73
    10
 40
40.5
 49
12.0
 49
-3.0
 49
12.0
 49
-3.0
 49
0.5
 49
-3.0
 49
0.5
 49
-3.0
 49
0.5
 49
-3.0
  0
ENDTAB
  0
TABLE
  2
STYLE
 70
     4
  0
STYLE
  2
STANDARD
 70
    64
 40
0.0
 41
1.0
 50
0.0
 71
     0
 42
0.2
  3
txt
  4

  0
STYLE
  2
TOLERANCE
 70
    64
 40
0.0
 41
1.0
 50
0.0
 71
     0
 42
0.2
  3
../igesfont/iges1003.shx
  4

  0
STYLE
  2
ROMANS
 70
    64
 40
0.0
 41
1.0
 50
0.0
 71
     0
 42
0.2
  3
romans.shx
  4

  0
STYLE
  2
ROMANC
 70
    64
 40
0.0
 41
1.0
 50
0.0
 71
     0
 42
0.2
  3
romanc.shx
  4

  0
ENDTAB
  0
TABLE
  2
DIMSTYLE
 70
     2
  0
DIMSTYLE
  2
UNNAMED
 70
     0
  3

  4

  5

  6

  7

 40
1.0
 41
0.18
 42
0.0625
 43
0.38
 44
0.18
 45
0.0
 46
0.0
 47
0.0
 48
0.0
140
0.18
141
0.09
142
0.0
143
25.4
144
1.0
145
0.0
146
1.0
147
0.09
 71
     0
 72
     0
 73
     1
 74
     1
 75
     0
 76
     0
 77
     0
 78
     0
170
     0
171
     2
172
     0
173
     0
174
     0
175
     0
176
     0
177
     0
178
     0
  0
DIMSTYLE
  2
STANDARD
 70
     0
  3

  4

  5

  6

  7

 40
1.0
 41
0.18
 42
0.0625
 43
0.38
 44
0.18
 45
0.0
 46
0.0
 47
0.0
 48
0.0
140
0.18
141
0.09
142
0.0
143
25.4
144
1.0
145
0.0
146
1.0
147
0.09
 71
     0
 72
     0
 73
     1
 74
     1
 75
     0
 76
     0
 77
     0
 78
     0
170
     0
171
     2
172
     0
173
     0
174
     0
175
     0
176
     0
177
     0
178
     0
  0
ENDTAB
  0
TABLE
  2
LAYER
 70
     1
  0
LAYER
  2
0
 70
     0
 62
     7
  6
CONTINUOUS
  0
ENDTAB
  0
ENDSEC
  0
SECTION
  2
BLOCKS
  0
BLOCK
  5
     B
  8
0
  6
CONTINUOUS
 62
     7
  2
*UDIM209
 70
    65
 10
0.0
 20
0.0
 30
0.0
  3
*UDIM209
  0
TEXT
  5
     C
  8
0
  6
CONTINUOUS
 62
     7
 10
33.3258410316807
 20
82.7284317016602
 30
0.0
 40
3.00000002980232
  1
11,5
 41
0.933333333333333
 72
     1
 11
38.6258410843315
 21
84.2284317165613
 31
0.0
 73
     2
  0
LINE
  5
     D
  8
0
  6
CONTINUOUS
 62
     7
 10
24.8955402977125
 20
90.8533138178177
 30
0.0
 11
24.8955402977125
 21
79.7284317016602
 31
0.0
  0
LINE
  5
     E
  8
0
  6
CONTINUOUS
 62
     7
 10
27.7705534157502
 20
120.728303783941
 30
0.0
 11
27.7705534157502
 21
79.7284317016602
 31
0.0
  0
LINE
  5
     F
  8
0
  6
CONTINUOUS
 62
     7
 10
24.8955402977125
 20
81.7284317016602
 30
0.0
 11
43.9258411369823
 21
81.7284317016602
 31
0.0
  0
LINE
  5
    10
  8
0
  6
CONTINUOUS
 62
     7
 10
21.9411170360309
 20
81.2074871836598
 30
0.0
 11
24.8955402977125
 21
81.7284317016602
 31
0.0
  0
LINE
  5
    11
  8
0
  6
CONTINUOUS
 62
     7
 10
24.8955402977125
 20
81.7284317016602
 30
0.0
 11
21.9411170360309
 21
82.2493762196605
 31
0.0
  0
LINE
  5
    12
  8
0
  6
CONTINUOUS
 62
     7
 10
30.7249766774319
 20
82.2493762196605
 30
0.0
 11
27.7705534157502
 21
81.7284317016602
 31
0.0
  0
LINE
  5
    13
  8
0
  6
CONTINUOUS
 62
     7
 10
27.7705534157502
 20
81.7284317016602
 30
0.0
 11
30.7249766774319
 21
81.2074871836598
 31
0.0
  0
ENDBLK
  5
    14
  8
0
  6
CONTINUOUS
 62
     7
  0
BLOCK
  5
    15
  8
0
  6
CONTINUOUS
 62
     7
  2
*UDIM210
 70
    65
 10
0.0
 20
0.0
 30
0.0
  3
*UDIM210
  0
TEXT
  5
    16
  8
0
  6
CONTINUOUS
 62
     7
 10
42.370693206792
 20
121.17831720989
 30
0.0
 40
3.00000002980232
  1
170
 50
90.0
 41
0.933333333333333
 72
     1
 11
40.870693191886
 21
125.078317248631
 31
0.0
 73
     2
  0
LINE
  5
    17
  8
0
  6
CONTINUOUS
 62
     7
 10
11.2705384515567
 20
104.103317135382
 30
0.0
 11
45.3706932067871
 21
104.103317135382
 31
0.0
  0
LINE
  5
    18
  8
0
  6
CONTINUOUS
 62
     7
 10
11.2705384515567
 20
146.603317135382
 30
0.0
 11
45.3706932067871
 21
146.603317135382
 31
0.0
  0
LINE
  5
    19
  8
0
  6
CONTINUOUS
 62
     7
 10
43.3706932067871
 20
104.103317135382
 30
0.0
 11
43.3706932067871
 21
146.603317135382
 31
0.0
  0
LINE
  5
    1A
  8
0
  6
CONTINUOUS
 62
     7
 10
42.8497486887868
 20
107.057740397064
 30
0.0
 11
43.3706932067871
 21
104.103317135382
 31
0.0
  0
LINE
  5
    1B
  8
0
  6
CONTINUOUS
 62
     7
 10
43.3706932067871
 20
104.103317135382
 30
0.0
 11
43.8916377247874
 21
107.057740397064
 31
0.0
  0
LINE
  5
    1C
  8
0
  6
CONTINUOUS
 62
     7
 10
43.8916377247874
 20
143.6488938737
 30
0.0
 11
43.3706932067871
 21
146.603317135382
 31
0.0
  0
LINE
  5
    1D
  8
0
  6
CONTINUOUS
 62
     7
 10
43.3706932067871
 20
146.603317135382
 30
0.0
 11
42.8497486887868
 21
143.6488938737
 31
0.0
  0
ENDBLK
  5
    1E
  8
0
  6
CONTINUOUS
 62
     7
  0
BLOCK
  5
    1F
  8
0
  6
CONTINUOUS
 62
     7
  2
*UDIM211
 70
    65
 10
0.0
 20
0.0
 30
0.0
  3
*UDIM211
  0
TEXT
  5
    20
  8
0
  6
CONTINUOUS
 62
     7
 10
42.4168510437061
 20
198.678317231827
 30
0.0
 40
3.00000002980232
  1
170
 50
90.0
 41
0.933333333333333
 72
     1
 11
40.9168510288
 21
202.578317270569
 31
0.0
 73
     2
  0
LINE
  5
    21
  8
0
  6
CONTINUOUS
 62
     7
 10
20.0205474132695
 20
181.603310809425
 30
0.0
 11
45.4168510437012
 21
181.603310809425
 31
0.0
  0
LINE
  5
    22
  8
0
  6
CONTINUOUS
 62
     7
 10
20.0205428895049
 20
224.103310809425
 30
0.0
 11
45.4168510437012
 21
224.103310809425
 31
0.0
  0
LINE
  5
    23
  8
0
  6
CONTINUOUS
 62
     7
 10
43.4168510437012
 20
181.603310809425
 30
0.0
 11
43.4168510437012
 21
224.103310809425
 31
0.0
  0
LINE
  5
    24
  8
0
  6
CONTINUOUS
 62
     7
 10
42.8959065257008
 20
184.557734071107
 30
0.0
 11
43.4168510437012
 21
181.603310809425
 31
0.0
  0
LINE
  5
    25
  8
0
  6
CONTINUOUS
 62
     7
 10
43.4168510437012
 20
181.603310809425
 30
0.0
 11
43.9377955617015
 21
184.557734071107
 31
0.0
  0
LINE
  5
    26
  8
0
  6
CONTINUOUS
 62
     7
 10
43.9377955617015
 20
221.148887547744
 30
0.0
 11
43.4168510437012
 21
224.103310809425
 31
0.0
  0
LINE
  5
    27
  8
0
  6
CONTINUOUS
 62
     7
 10
43.4168510437012
 20
224.103310809425
 30
0.0
 11
42.8959065257008
 21
221.148887547744
 31
0.0
  0
ENDBLK
  5
    28
  8
0
  6
CONTINUOUS
 62
     7
  0
BLOCK
  5
    29
  8
0
  6
CONTINUOUS
 62
     7
  2
*UDIM212
 70
    65
 10
0.0
 20
0.0
 30
0.0
  3
*UDIM212
  0
TEXT
  5
    2A
  8
0
  6
CONTINUOUS
 62
     7
 10
32.6777801513738
 20
130.115826375097
 30
0.0
 40
3.00000002980232
  1
87,5
 50
90.0
 41
0.933333333333333
 72
     1
 11
31.177780136466
 21
135.415826427746
 31
0.0
 73
     2
  0
LINE
  5
    2B
  8
0
  6
CONTINUOUS
 62
     7
 10
28.020664432607
 20
124.778317135382
 30
0.0
 11
35.6777801513672
 21
124.778317135382
 31
0.0
  0
LINE
  5
    2C
  8
0
  6
CONTINUOUS
 62
     7
 10
11.2705384515567
 20
146.603317135382
 30
0.0
 11
35.6777801513672
 21
146.603317135382
 31
0.0
  0
LINE
  5
    2D
  8
0
  6
CONTINUOUS
 62
     7
 10
33.6777801513672
 20
124.778317135382
 30
0.0
 11
33.6777801513672
 21
146.603317135382
 31
0.0
  0
LINE
  5
    2E
  8
0
  6
CONTINUOUS
 62
     7
 10
33.1568356333668
 20
127.732740397064
 30
0.0
 11
33.6777801513672
 21
124.778317135382
 31
0.0
  0
LINE
  5
    2F
  8
0
  6
CONTINUOUS
 62
     7
 10
33.6777801513672
 20
124.778317135382
 30
0.0
 11
34.1987246693675
 21
127.732740397064
 31
0.0
  0
LINE
  5
    30
  8
0
  6
CONTINUOUS
 62
     7
 10
34.1987246693675
 20
143.6488938737
 30
0.0
 11
33.6777801513672
 21
146.603317135382
 31
0.0
  0
LINE
  5
    31
  8
0
  6
CONTINUOUS
 62
     7
 10
33.6777801513672
 20
146.603317135382
 30
0.0
 11
33.1568356333668
 21
143.6488938737
 31
0.0
  0
ENDBLK
  5
    32
  8
0
  6
CONTINUOUS
 62
     7
  0
BLOCK
  5
    33
  8
0
  6
CONTINUOUS
 62
     7
  2
*UDIM213
 70
    65
 10
0.0
 20
0.0
 30
0.0
  3
*UDIM213
  0
TEXT
  5
    34
  8
0
  6
CONTINUOUS
 62
     7
 10
33.0008773803778
 20
207.615811108444
 30
0.0
 40
3.00000002980232
  1
87,5
 50
90.0
 41
0.933333333333333
 72
     1
 11
31.5008773654699
 21
212.915811161093
 31
0.0
 73
     2
  0
LINE
  5
    35
  8
0
  6
CONTINUOUS
 62
     7
 10
28.020664432607
 20
202.278310809425
 30
0.0
 11
36.0008773803711
 21
202.278310809425
 31
0.0
  0
LINE
  5
    36
  8
0
  6
CONTINUOUS
 62
     7
 10
20.0205428895049
 20
224.103310809425
 30
0.0
 11
36.0008773803711
 21
224.103310809425
 31
0.0
  0
LINE
  5
    37
  8
0
  6
CONTINUOUS
 62
     7
 10
34.0008773803711
 20
202.278310809425
 30
0.0
 11
34.0008773803711
 21
224.103310809425
 31
0.0
  0
LINE
  5
    38
  8
0
  6
CONTINUOUS
 62
     7
 10
33.4799328623708
 20
205.232734071107
 30
0.0
 11
34.0008773803711
 21
202.278310809425
 31
0.0
  0
LINE
  5
    39
  8
0
  6
CONTINUOUS
 62
     7
 10
34.0008773803711
 20
202.278310809425
 30
0.0
 11
34.5218218983714
 21
205.232734071107
 31
0.0
  0
LINE
  5
    3A
  8
0
  6
CONTINUOUS
 62
     7
 10
34.5218218983714
 20
221.148887547744
 30
0.0
 11
34.0008773803711
 21
224.103310809425
 31
0.0
  0
LINE
  5
    3B
  8
0
  6
CONTINUOUS
 62
     7
 10
34.0008773803711
 20
224.103310809425
 30
0.0
 11
33.4799328623708
 21
221.148887547744
 31
0.0
  0
ENDBLK
  5
    3C
  8
0
  6
CONTINUOUS
 62
     7
  0
BLOCK
  5
    3D
  8
0
  6
CONTINUOUS
 62
     7
  2
*UDIM214
 70
    65
 10
0.0
 20
0.0
 30
0.0
  3
*UDIM214
  0
TEXT
  5
    3E
  8
0
  6
CONTINUOUS
 62
     7
 10
-40.711410522456
 20
159.928317230186
 30
0.0
 40
3.00000002980232
  1
578
 50
90.0
 41
0.933333333333333
 72
     1
 11
-42.2114105373621
 21
163.828317268927
 31
0.0
 73
     2
  0
LINE
  5
    3F
  8
0
  6
CONTINUOUS
 62
     7
 10
-21.1044597022872
 20
91.8533138178177
 30
0.0
 11
-41.7114105224609
 21
91.8533138178177
 31
0.0
  0
LINE
  5
    40
  8
0
  6
CONTINUOUS
 62
     7
 10
-21.1044597022872
 20
236.353313817818
 30
0.0
 11
-41.7114105224609
 21
236.353313817818
 31
0.0
  0
LINE
  5
    41
  8
0
  6
CONTINUOUS
 62
     7
 10
-39.7114105224609
 20
91.8533138178177
 30
0.0
 11
-39.7114105224609
 21
236.353313817818
 31
0.0
  0
LINE
  5
    42
  8
0
  6
CONTINUOUS
 62
     7
 10
-40.2323550404613
 20
94.8077370794993
 30
0.0
 11
-39.7114105224609
 21
91.8533138178177
 31
0.0
  0
LINE
  5
    43
  8
0
  6
CONTINUOUS
 62
     7
 10
-39.7114105224609
 20
91.8533138178177
 30
0.0
 11
-39.1904660044606
 21
94.8077370794993
 31
0.0
  0
LINE
  5
    44
  8
0
  6
CONTINUOUS
 62
     7
 10
-39.1904660044606
 20
233.398890556136
 30
0.0
 11
-39.7114105224609
 21
236.353313817818
 31
0.0
  0
LINE
  5
    45
  8
0
  6
CONTINUOUS
 62
     7
 10
-39.7114105224609
 20
236.353313817818
 30
0.0
 11
-40.2323550404613
 21
233.398890556136
 31
0.0
  0
ENDBLK
  5
    46
  8
0
  6
CONTINUOUS
 62
     7
  0
BLOCK
  5
    47
  8
0
  6
CONTINUOUS
 62
     7
  2
*UDIM215
 70
    65
 10
0.0
 20
0.0
 30
0.0
  3
*UDIM215
  0
TEXT
  5
    48
  8
0
  6
CONTINUOUS
 62
     7
 10
-29.4030132293617
 20
137.465811082746
 30
0.0
 40
3.00000002980232
  1
157,5
 50
90.0
 41
0.933333333333333
 72
     1
 11
-30.9030132442713
 21
144.165811149303
 31
0.0
 73
     2
  0
LINE
  5
    49
  8
0
  6
CONTINUOUS
 62
     7
 10
-23.3120031420556
 20
124.778317135382
 30
0.0
 11
-30.4030132293701
 21
124.778317135382
 31
0.0
  0
LINE
  5
    4A
  8
0
  6
CONTINUOUS
 62
     7
 10
-28.4030132293701
 20
124.778317135382
 30
0.0
 11
-28.4030132293701
 21
164.103313817818
 31
0.0
  0
LINE
  5
    4B
  8
0
  6
CONTINUOUS
 62
     7
 10
-28.9239577473705
 20
127.732740397064
 30
0.0
 11
-28.4030132293701
 21
124.778317135382
 31
0.0
  0
LINE
  5
    4C
  8
0
  6
CONTINUOUS
 62
     7
 10
-28.4030132293701
 20
124.778317135382
 30
0.0
 11
-27.8820687113698
 21
127.732740397064
 31
0.0
  0
LINE
  5
    4D
  8
0
  6
CONTINUOUS
 62
     7
 10
-27.8820687113698
 20
161.148890556136
 30
0.0
 11
-28.4030132293701
 21
164.103313817818
 31
0.0
  0
LINE
  5
    4E
  8
0
  6
CONTINUOUS
 62
     7
 10
-28.4030132293701
 20
164.103313817818
 30
0.0
 11
-28.9239577473705
 21
161.148890556136
 31
0.0
  0
ENDBLK
  5
    4F
  8
0
  6
CONTINUOUS
 62
     7
  0
BLOCK
  5
    50
  8
0
  6
CONTINUOUS
 62
     7
  2
*UDIM216
 70
    65
 10
0.0
 20
0.0
 30
0.0
  3
*UDIM216
  0
TEXT
  5
    51
  8
0
  6
CONTINUOUS
 62
     7
 10
-29.4030132293617
 20
176.215811078814
 30
0.0
 40
3.00000002980232
  1
152,5
 50
90.0
 41
0.933333333333333
 72
     1
 11
-30.9030132442713
 21
182.91581114537
 31
0.0
 73
     2
  0
LINE
  5
    52
  8
0
  6
CONTINUOUS
 62
     7
 10
-23.3120031420556
 20
202.278310809425
 30
0.0
 11
-30.4030132293701
 21
202.278310809425
 31
0.0
  0
LINE
  5
    53
  8
0
  6
CONTINUOUS
 62
     7
 10
-28.4030132293701
 20
164.103313817818
 30
0.0
 11
-28.4030132293701
 21
202.278310809425
 31
0.0
  0
LINE
  5
    54
  8
0
  6
CONTINUOUS
 62
     7
 10
-28.9239577473705
 20
167.057737079499
 30
0.0
 11
-28.4030132293701
 21
164.103313817818
 31
0.0
  0
LINE
  5
    55
  8
0
  6
CONTINUOUS
 62
     7
 10
-28.4030132293701
 20
164.103313817818
 30
0.0
 11
-27.8820687113698
 21
167.057737079499
 31
0.0
  0
LINE
  5
    56
  8
0
  6
CONTINUOUS
 62
     7
 10
-27.8820687113698
 20
199.323887547744
 30
0.0
 11
-28.4030132293701
 21
202.278310809425
 31
0.0
  0
LINE
  5
    57
  8
0
  6
CONTINUOUS
 62
     7
 10
-28.4030132293701
 20
202.278310809425
 30
0.0
 11
-28.9239577473705
 21
199.323887547744
 31
0.0
  0
ENDBLK
  5
    58
  8
0
  6
CONTINUOUS
 62
     7
  0
BLOCK
  5
    59
  8
0
  6
CONTINUOUS
 62
     7
  2
*UDIM217
 70
    65
 10
0.0
 20
0.0
 30
0.0
  3
*UDIM217
  0
TEXT
  5
    5A
  8
0
  6
CONTINUOUS
 62
     7
 10
-8.90371947235728
 20
73.7028656005859
 30
0.0
 40
3.00000002980232
  1
35
 41
0.933333333333333
 72
     1
 11
-6.40371944752201
 21
75.2028656154871
 31
0.0
 73
     2
  0
LINE
  5
    5B
  8
0
  6
CONTINUOUS
 62
     7
 10
-10.7294589898144
 20
97.4033138330598
 30
0.0
 11
-10.7294589898144
 21
70.7028656005859
 31
0.0
  0
LINE
  5
    5C
  8
0
  6
CONTINUOUS
 62
     7
 10
-1.97946051291801
 20
97.4033133374362
 30
0.0
 11
-1.97946051291801
 21
70.7028656005859
 31
0.0
  0
LINE
  5
    5D
  8
0
  6
CONTINUOUS
 62
     7
 10
-10.7294589898144
 20
72.7028656005859
 30
0.0
 11
-1.97946051291801
 21
72.7028656005859
 31
0.0
  0
LINE
  5
    5E
  8
0
  6
CONTINUOUS
 62
     7
 10
-13.683882251496
 20
72.1819210825856
 30
0.0
 11
-10.7294589898144
 21
72.7028656005859
 31
0.0
  0
LINE
  5
    5F
  8
0
  6
CONTINUOUS
 62
     7
 10
-10.7294589898144
 20
72.7028656005859
 30
0.0
 11
-13.683882251496
 21
73.2238101185863
 31
0.0
  0
LINE
  5
    60
  8
0
  6
CONTINUOUS
 62
     7
 10
0.974962748763602
 20
73.2238101185863
 30
0.0
 11
-1.97946051291801
 21
72.7028656005859
 31
0.0
  0
LINE
  5
    61
  8
0
  6
CONTINUOUS
 62
     7
 10
-1.97946051291801
 20
72.7028656005859
 30
0.0
 11
0.974962748763602
 21
72.1819210825856
 31
0.0
  0
ENDBLK
  5
    62
  8
0
  6
CONTINUOUS
 62
     7
  0
BLOCK
  5
    63
  8
0
  6
CONTINUOUS
 62
     7
  2
*UDIM218
 70
    65
 10
0.0
 20
0.0
 30
0.0
  3
*UDIM218
  0
TEXT
  5
    64
  8
0
  6
CONTINUOUS
 62
     7
 10
-0.457038336852352
 20
73.7028656005859
 30
0.0
 40
3.00000002980232
  1
35
 41
0.933333333333333
 72
     1
 11
2.04296168798292
 21
75.2028656154871
 31
0.0
 73
     2
  0
LINE
  5
    65
  8
0
  6
CONTINUOUS
 62
     7
 10
6.7705394403174
 20
97.403313747901
 30
0.0
 11
6.7705394403174
 21
70.7028656005859
 31
0.0
  0
LINE
  5
    66
  8
0
  6
CONTINUOUS
 62
     7
 10
-1.97946051291801
 20
72.7028656005859
 30
0.0
 11
6.7705394403174
 21
72.7028656005859
 31
0.0
  0
LINE
  5
    67
  8
0
  6
CONTINUOUS
 62
     7
 10
-4.93388377459961
 20
72.1819210825856
 30
0.0
 11
-1.97946051291801
 21
72.7028656005859
 31
0.0
  0
LINE
  5
    68
  8
0
  6
CONTINUOUS
 62
     7
 10
-1.97946051291801
 20
72.7028656005859
 30
0.0
 11
-4.93388377459961
 21
73.2238101185863
 31
0.0
  0
LINE
  5
    69
  8
0
  6
CONTINUOUS
 62
     7
 10
9.72496270199901
 20
73.2238101185863
 30
0.0
 11
6.7705394403174
 21
72.7028656005859
 31
0.0
  0
LINE
  5
    6A
  8
0
  6
CONTINUOUS
 62
     7
 10
6.7705394403174
 20
72.7028656005859
 30
0.0
 11
9.72496270199901
 21
72.1819210825856
 31
0.0
  0
ENDBLK
  5
    6B
  8
0
  6
CONTINUOUS
 62
     7
  0
BLOCK
  5
    6C
  8
0
  6
CONTINUOUS
 62
     7
  2
*UDIM219
 70
    65
 10
0.0
 20
0.0
 30
0.0
  3
*UDIM219
  0
TEXT
  5
    6D
  8
0
  6
CONTINUOUS
 62
     7
 10
8.49736554698486
 20
73.7028656005859
 30
0.0
 40
3.00000002980232
  1
35
 41
0.933333333333333
 72
     1
 11
10.9973655718201
 21
75.2028656154871
 31
0.0
 73
     2
  0
LINE
  5
    6E
  8
0
  6
CONTINUOUS
 62
     7
 10
15.5204693455729
 20
97.4033385796443
 30
0.0
 11
15.5204693455729
 21
70.7028656005859
 31
0.0
  0
LINE
  5
    6F
  8
0
  6
CONTINUOUS
 62
     7
 10
6.7705394403174
 20
72.7028656005859
 30
0.0
 11
15.5204693455729
 21
72.7028656005859
 31
0.0
  0
LINE
  5
    70
  8
0
  6
CONTINUOUS
 62
     7
 10
3.8161161786358
 20
72.1819210825856
 30
0.0
 11
6.7705394403174
 21
72.7028656005859
 31
0.0
  0
LINE
  5
    71
  8
0
  6
CONTINUOUS
 62
     7
 10
6.7705394403174
 20
72.7028656005859
 30
0.0
 11
3.8161161786358
 21
73.2238101185863
 31
0.0
  0
LINE
  5
    72
  8
0
  6
CONTINUOUS
 62
     7
 10
18.4748926072545
 20
73.2238101185863
 30
0.0
 11
15.5204693455729
 21
72.7028656005859
 31
0.0
  0
LINE
  5
    73
  8
0
  6
CONTINUOUS
 62
     7
 10
15.5204693455729
 20
72.7028656005859
 30
0.0
 11
18.4748926072545
 21
72.1819210825856
 31
0.0
  0
ENDBLK
  5
    74
  8
0
  6
CONTINUOUS
 62
     7
  0
BLOCK
  5
    75
  8
0
  6
CONTINUOUS
 62
     7
  2
*UDIM220
 70
    65
 10
0.0
 20
0.0
 30
0.0
  3
*UDIM220
  0
TEXT
  5
    76
  8
0
  6
CONTINUOUS
 62
     7
 10
-1.77945980659548
 20
251.729354858398
 30
0.0
 40
3.00000002980232
  1
180
 41
0.933333333333333
 72
     1
 11
2.12054023214754
 21
253.2293548733
 31
0.0
 73
     2
  0
LINE
  5
    77
  8
0
  6
CONTINUOUS
 62
     7
 10
-20.1044597022872
 20
237.353313817818
 30
0.0
 11
-20.1044597022872
 21
252.729354858398
 31
0.0
  0
LINE
  5
    78
  8
0
  6
CONTINUOUS
 62
     7
 10
24.8955402977125
 20
237.353313817818
 30
0.0
 11
24.8955402977125
 21
252.729354858398
 31
0.0
  0
LINE
  5
    79
  8
0
  6
CONTINUOUS
 62
     7
 10
-20.1044597022872
 20
250.729354858398
 30
0.0
 11
24.8955402977125
 21
250.729354858398
 31
0.0
  0
LINE
  5
    7A
  8
0
  6
CONTINUOUS
 62
     7
 10
-17.1500364406056
 20
251.250299376399
 30
0.0
 11
-20.1044597022872
 21
250.729354858398
 31
0.0
  0
LINE
  5
    7B
  8
0
  6
CONTINUOUS
 62
     7
 10
-20.1044597022872
 20
250.729354858398
 30
0.0
 11
-17.1500364406056
 21
250.208410340398
 31
0.0
  0
LINE
  5
    7C
  8
0
  6
CONTINUOUS
 62
     7
 10
21.9411170360309
 20
250.208410340398
 30
0.0
 11
24.8955402977125
 21
250.729354858398
 31
0.0
  0
LINE
  5
    7D
  8
0
  6
CONTINUOUS
 62
     7
 10
24.8955402977125
 20
250.729354858398
 30
0.0
 11
21.9411170360309
 21
251.250299376399
 31
0.0
  0
ENDBLK
  5
    7E
  8
0
  6
CONTINUOUS
 62
     7
  0
BLOCK
  5
    7F
  8
0
  6
CONTINUOUS
 62
     7
  2
*UDIM221
 70
    65
 10
0.0
 20
0.0
 30
0.0
  3
*UDIM221
  0
TEXT
  5
    80
  8
0
  6
CONTINUOUS
 62
     7
 10
-149.076380679445
 20
73.4259305048108
 30
0.0
 40
3.00000002980232
  1
27,5
 50
359.999999948034
 41
0.933333333333333
 72
     1
 11
-143.776380625442
 21
74.9259305149317
 31
0.0
 73
     2
  0
LINE
  5
    81
  8
0
  6
CONTINUOUS
 62
     7
 10
-131.754617777541
 20
110.665813854648
 30
0.0
 11
-131.754617777541
 21
70.4259305000305
 31
0.0
  0
LINE
  5
    82
  8
0
  6
CONTINUOUS
 62
     7
 10
-138.629617777541
 20
110.665813854648
 30
0.0
 11
-138.629617777541
 21
70.4259305000305
 31
0.0
  0
LINE
  5
    83
  8
0
  6
CONTINUOUS
 62
     7
 10
-131.754617777541
 20
72.4259305000305
 30
0.0
 11
-149.076380678092
 21
72.4259305000305
 31
0.0
  0
LINE
  5
    84
  8
0
  6
CONTINUOUS
 62
     7
 10
-128.80019451586
 20
72.9468750180309
 30
0.0
 11
-131.754617777541
 21
72.4259305000305
 31
0.0
  0
LINE
  5
    85
  8
0
  6
CONTINUOUS
 62
     7
 10
-131.754617777541
 20
72.4259305000305
 30
0.0
 11
-128.80019451586
 21
71.9049859820302
 31
0.0
  0
LINE
  5
    86
  8
0
  6
CONTINUOUS
 62
     7
 10
-141.584041039223
 20
71.9049859820302
 30
0.0
 11
-138.629617777541
 21
72.4259305000305
 31
0.0
  0
LINE
  5
    87
  8
0
  6
CONTINUOUS
 62
     7
 10
-138.629617777541
 20
72.4259305000305
 30
0.0
 11
-141.584041039223
 21
72.9468750180309
 31
0.0
  0
ENDBLK
  5
    88
  8
0
  6
CONTINUOUS
 62
     7
  0
BLOCK
  5
    89
  8
0
  6
CONTINUOUS
 62
     7
  2
*UDIM222
 70
    65
 10
0.0
 20
0.0
 30
0.0
  3
*UDIM222
  0
TEXT
  5
    8A
  8
0
  6
CONTINUOUS
 62
     7
 10
-115.809265140251
 20
198.115806239091
 30
0.0
 40
3.00000002980232
  1
105
 50
89.9999999480344
 41
0.933333333333333
 72
     1
 11
-117.30926515162
 21
202.015806279193
 31
0.0
 73
     2
  0
LINE
  5
    8B
  8
0
  6
CONTINUOUS
 62
     7
 10
-103.771982953436
 20
189.165813855238
 30
0.0
 11
-116.809265136719
 21
189.165813855238
 31
0.0
  0
LINE
  5
    8C
  8
0
  6
CONTINUOUS
 62
     7
 10
-103.771982953436
 20
215.415813854648
 30
0.0
 11
-116.809265136719
 21
215.415813854648
 31
0.0
  0
LINE
  5
    8D
  8
0
  6
CONTINUOUS
 62
     7
 10
-114.809265136719
 20
189.165813855238
 30
0.0
 11
-114.809265136719
 21
215.415813854648
 31
0.0
  0
LINE
  5
    8E
  8
0
  6
CONTINUOUS
 62
     7
 10
-115.330209654719
 20
192.12023711692
 30
0.0
 11
-114.809265136719
 21
189.165813855238
 31
0.0
  0
LINE
  5
    8F
  8
0
  6
CONTINUOUS
 62
     7
 10
-114.809265136719
 20
189.165813855238
 30
0.0
 11
-114.288320618718
 21
192.12023711692
 31
0.0
  0
LINE
  5
    90
  8
0
  6
CONTINUOUS
 62
     7
 10
-114.288320618718
 20
212.461390592966
 30
0.0
 11
-114.809265136719
 21
215.415813854648
 31
0.0
  0
LINE
  5
    91
  8
0
  6
CONTINUOUS
 62
     7
 10
-114.809265136719
 20
215.415813854648
 30
0.0
 11
-115.330209654719
 21
212.461390592966
 31
0.0
  0
ENDBLK
  5
    92
  8
0
  6
CONTINUOUS
 62
     7
  0
BLOCK
  5
    93
  8
0
  6
CONTINUOUS
 62
     7
  2
*UDIM223
 70
    65
 10
0.0
 20
0.0
 30
0.0
  3
*UDIM223
  0
TEXT
  5
    94
  8
0
  6
CONTINUOUS
 62
     7
 10
-145.085548404411
 20
120.615813868191
 30
0.0
 40
3.00000002980232
  1
105
 50
89.9999999480344
 41
0.933333333333333
 72
     1
 11
-146.58554841578
 21
124.515813908292
 31
0.0
 73
     2
  0
LINE
  5
    95
  8
0
  6
CONTINUOUS
 62
     7
 10
-139.629617777541
 20
111.665813854648
 30
0.0
 11
-146.085548400879
 21
111.665813854648
 31
0.0
  0
LINE
  5
    96
  8
0
  6
CONTINUOUS
 62
     7
 10
-139.629617777541
 20
137.915813854648
 30
0.0
 11
-146.085548400879
 21
137.915813854648
 31
0.0
  0
LINE
  5
    97
  8
0
  6
CONTINUOUS
 62
     7
 10
-144.085548400879
 20
111.665813854648
 30
0.0
 11
-144.085548400879
 21
137.915813854648
 31
0.0
  0
LINE
  5
    98
  8
0
  6
CONTINUOUS
 62
     7
 10
-144.606492918879
 20
114.62023711633
 30
0.0
 11
-144.085548400879
 21
111.665813854648
 31
0.0
  0
LINE
  5
    99
  8
0
  6
CONTINUOUS
 62
     7
 10
-144.085548400879
 20
111.665813854648
 30
0.0
 11
-143.564603882879
 21
114.62023711633
 31
0.0
  0
LINE
  5
    9A
  8
0
  6
CONTINUOUS
 62
     7
 10
-143.564603882879
 20
134.961390592966
 30
0.0
 11
-144.085548400879
 21
137.915813854648
 31
0.0
  0
LINE
  5
    9B
  8
0
  6
CONTINUOUS
 62
     7
 10
-144.085548400879
 20
137.915813854648
 30
0.0
 11
-144.606492918879
 21
134.961390592966
 31
0.0
  0
ENDBLK
  5
    9C
  8
0
  6
CONTINUOUS
 62
     7
  0
BLOCK
  5
    9D
  8
0
  6
CONTINUOUS
 62
     7
  2
*UDIM224
 70
    65
 10
0.0
 20
0.0
 30
0.0
  3
*UDIM224
  0
TEXT
  5
    9E
  8
0
  6
CONTINUOUS
 62
     7
 10
-104.625818955798
 20
73.4259305035481
 30
0.0
 40
3.00000002980232
  1
275
 50
359.999999948034
 41
0.933333333333333
 72
     1
 11
-100.725818915702
 21
74.9259305149317
 31
0.0
 73
     2
  0
LINE
  5
    9F
  8
0
  6
CONTINUOUS
 62
     7
 10
-74.6470184326172
 20
90.853313854648
 30
0.0
 11
-74.6470184326172
 21
70.4259305000305
 31
0.0
  0
LINE
  5
    A0
  8
0
  6
CONTINUOUS
 62
     7
 10
-131.754617777541
 20
110.665813854648
 30
0.0
 11
-131.754617777541
 21
70.4259305000305
 31
0.0
  0
LINE
  5
    A1
  8
0
  6
CONTINUOUS
 62
     7
 10
-74.6470184326172
 20
72.4259305000305
 30
0.0
 11
-131.754617777541
 21
72.4259305000305
 31
0.0
  0
LINE
  5
    A2
  8
0
  6
CONTINUOUS
 62
     7
 10
-77.6014416942988
 20
71.9049859820302
 30
0.0
 11
-74.6470184326172
 21
72.4259305000305
 31
0.0
  0
LINE
  5
    A3
  8
0
  6
CONTINUOUS
 62
     7
 10
-74.6470184326172
 20
72.4259305000305
 30
0.0
 11
-77.6014416942988
 21
72.9468750180309
 31
0.0
  0
LINE
  5
    A4
  8
0
  6
CONTINUOUS
 62
     7
 10
-128.80019451586
 20
72.9468750180309
 30
0.0
 11
-131.754617777541
 21
72.4259305000305
 31
0.0
  0
LINE
  5
    A5
  8
0
  6
CONTINUOUS
 62
     7
 10
-131.754617777541
 20
72.4259305000305
 30
0.0
 11
-128.80019451586
 21
71.9049859820302
 31
0.0
  0
ENDBLK
  5
    A6
  8
0
  6
CONTINUOUS
 62
     7
  0
BLOCK
  5
    A7
  8
0
  6
CONTINUOUS
 62
     7
  2
*UDIM225
 70
    65
 10
0.0
 20
0.0
 30
0.0
  3
*UDIM225
  0
TEXT
  5
    A8
  8
0
  6
CONTINUOUS
 62
     7
 10
-69.2970184647659
 20
251.960133077969
 30
0.0
 40
3.00000002980232
  1
65
 50
359.999999948034
 41
0.933333333333333
 72
     1
 11
-66.7970184385777
 21
253.460133090615
 31
0.0
 73
     2
  0
LINE
  5
    A9
  8
0
  6
CONTINUOUS
 62
     7
 10
-58.3970184326172
 20
243.005731092424
 30
0.0
 11
-58.3970184326172
 21
252.960133075714
 31
0.0
  0
LINE
  5
    AA
  8
0
  6
CONTINUOUS
 62
     7
 10
-74.6470184326172
 20
237.353313854648
 30
0.0
 11
-74.6470184326172
 21
252.960133075714
 31
0.0
  0
LINE
  5
    AB
  8
0
  6
CONTINUOUS
 62
     7
 10
-58.3970184326172
 20
250.960133075714
 30
0.0
 11
-74.6470184326172
 21
250.960133075714
 31
0.0
  0
LINE
  5
    AC
  8
0
  6
CONTINUOUS
 62
     7
 10
-61.3514416942988
 20
250.439188557714
 30
0.0
 11
-58.3970184326172
 21
250.960133075714
 31
0.0
  0
LINE
  5
    AD
  8
0
  6
CONTINUOUS
 62
     7
 10
-58.3970184326172
 20
250.960133075714
 30
0.0
 11
-61.3514416942988
 21
251.481077593714
 31
0.0
  0
LINE
  5
    AE
  8
0
  6
CONTINUOUS
 62
     7
 10
-71.6925951709356
 20
251.481077593714
 30
0.0
 11
-74.6470184326172
 21
250.960133075714
 31
0.0
  0
LINE
  5
    AF
  8
0
  6
CONTINUOUS
 62
     7
 10
-74.6470184326172
 20
250.960133075714
 30
0.0
 11
-71.6925951709356
 21
250.439188557714
 31
0.0
  0
ENDBLK
  5
    B0
  8
0
  6
CONTINUOUS
 62
     7
  0
BLOCK
  5
    B1
  8
0
  6
CONTINUOUS
 62
     7
  2
*UDIM226
 70
    65
 10
0.0
 20
0.0
 30
0.0
  3
*UDIM226
  0
TEXT
  5
    B2
  8
0
  6
CONTINUOUS
 62
     7
 10
-94.5595185064891
 20
251.960133081757
 30
0.0
 40
3.00000002980232
  1
103,5
 50
359.999999948034
 41
0.933333333333333
 72
     1
 11
-87.8595184385776
 21
253.460133090615
 31
0.0
 73
     2
  0
LINE
  5
    B3
  8
0
  6
CONTINUOUS
 62
     7
 10
-100.522018432617
 20
216.415813855562
 30
0.0
 11
-100.522018432617
 21
252.960133075714
 31
0.0
  0
LINE
  5
    B4
  8
0
  6
CONTINUOUS
 62
     7
 10
-74.6470184326172
 20
250.960133075714
 30
0.0
 11
-100.522018432617
 21
250.960133075714
 31
0.0
  0
LINE
  5
    B5
  8
0
  6
CONTINUOUS
 62
     7
 10
-77.6014416942988
 20
250.439188557714
 30
0.0
 11
-74.6470184326172
 21
250.960133075714
 31
0.0
  0
LINE
  5
    B6
  8
0
  6
CONTINUOUS
 62
     7
 10
-74.6470184326172
 20
250.960133075714
 30
0.0
 11
-77.6014416942988
 21
251.481077593714
 31
0.0
  0
LINE
  5
    B7
  8
0
  6
CONTINUOUS
 62
     7
 10
-97.5675951709356
 20
251.481077593714
 30
0.0
 11
-100.522018432617
 21
250.960133075714
 31
0.0
  0
LINE
  5
    B8
  8
0
  6
CONTINUOUS
 62
     7
 10
-100.522018432617
 20
250.960133075714
 30
0.0
 11
-97.5675951709356
 21
250.439188557714
 31
0.0
  0
ENDBLK
  5
    B9
  8
0
  6
CONTINUOUS
 62
     7
  0
BLOCK
  5
    BA
  8
0
  6
CONTINUOUS
 62
     7
  2
*UDIM227
 70
    65
 10
0.0
 20
0.0
 30
0.0
  3
*UDIM227
  0
TEXT
  5
    BB
  8
0
  6
CONTINUOUS
 62
     7
 10
132.055570492634
 20
215.890990231069
 30
0.0
 40
3.00000002980232
  1
14
 50
89.9999999480344
 41
0.933333333333333
 72
     1
 11
130.555570479997
 21
218.390990257263
 31
0.0
 73
     2
  0
LINE
  5
    BC
  8
0
  6
CONTINUOUS
 62
     7
 10
121.38261626007
 20
207.853315353394
 30
0.0
 11
135.055570494899
 21
207.853315353394
 31
0.0
  0
LINE
  5
    BD
  8
0
  6
CONTINUOUS
 62
     7
 10
113.927700042725
 20
211.353315353394
 30
0.0
 11
135.055570494899
 21
211.353315353394
 31
0.0
  0
LINE
  5
    BE
  8
0
  6
CONTINUOUS
 62
     7
 10
133.055570494899
 20
207.853315353394
 30
0.0
 11
133.055570494899
 21
220.890990282098
 31
0.0
  0
LINE
  5
    BF
  8
0
  6
CONTINUOUS
 62
     7
 10
133.832027651317
 20
204.955537880183
 30
0.0
 11
133.055570494899
 21
207.853315353394
 31
0.0
  0
LINE
  5
    C0
  8
0
  6
CONTINUOUS
 62
     7
 10
133.055570494899
 20
207.853315353394
 30
0.0
 11
132.27911333848
 21
204.955537880183
 31
0.0
  0
LINE
  5
    C1
  8
0
  6
CONTINUOUS
 62
     7
 10
132.27911333848
 20
214.251092826604
 30
0.0
 11
133.055570494899
 21
211.353315353394
 31
0.0
  0
LINE
  5
    C2
  8
0
  6
CONTINUOUS
 62
     7
 10
133.055570494899
 20
211.353315353394
 30
0.0
 11
133.832027651317
 21
214.251092826604
 31
0.0
  0
ENDBLK
  5
    C3
  8
0
  6
CONTINUOUS
 62
     7
  0
BLOCK
  5
    C4
  8
0
  6
CONTINUOUS
 62
     7
  2
*UDIM228
 70
    65
 10
0.0
 20
0.0
 30
0.0
  3
*UDIM228
  0
TEXT
  5
    C5
  8
0
  6
CONTINUOUS
 62
     7
 10
132.055570491366
 20
160.203315313292
 30
0.0
 40
3.00000002980232
  1
350
 50
89.9999999480344
 41
0.933333333333333
 72
     1
 11
130.555570479997
 21
164.103315353394
 31
0.0
 73
     2
  0
LINE
  5
    C6
  8
0
  6
CONTINUOUS
 62
     7
 10
121.452824783011
 20
120.353315353394
 30
0.0
 11
135.055570494899
 21
120.353315353394
 31
0.0
  0
LINE
  5
    C7
  8
0
  6
CONTINUOUS
 62
     7
 10
133.055570494899
 20
120.353315353394
 30
0.0
 11
133.055570494899
 21
207.853315353394
 31
0.0
  0
LINE
  5
    C8
  8
0
  6
CONTINUOUS
 62
     7
 10
132.27911333848
 20
123.251092826604
 30
0.0
 11
133.055570494899
 21
120.353315353394
 31
0.0
  0
LINE
  5
    C9
  8
0
  6
CONTINUOUS
 62
     7
 10
133.055570494899
 20
120.353315353394
 30
0.0
 11
133.832027651317
 21
123.251092826604
 31
0.0
  0
CIRCLE
  5
    CA
  8
0
  6
CONTINUOUS
 62
     7
 10
133.055570494899
 20
207.853315353394
 30
0.0
 40
0.5
  0
ENDBLK
  5
    CB
  8
0
  6
CONTINUOUS
 62
     7
  0
BLOCK
  5
    CC
  8
0
  6
CONTINUOUS
 62
     7
  2
*UDIM229
 70
    65
 10
0.0
 20
0.0
 30
0.0
  3
*UDIM229
  0
TEXT
  5
    CD
  8
0
  6
CONTINUOUS
 62
     7
 10
132.055570492634
 20
105.954972240957
 30
0.0
 40
3.00000002980232
  1
14
 50
89.9999999480344
 41
0.933333333333333
 72
     1
 11
130.555570479997
 21
108.454972267151
 31
0.0
 73
     2
  0
LINE
  5
    CE
  8
0
  6
CONTINUOUS
 62
     7
 10
113.927700042725
 20
116.853315353394
 30
0.0
 11
135.055570494899
 21
116.853315353394
 31
0.0
  0
LINE
  5
    CF
  8
0
  6
CONTINUOUS
 62
     7
 10
133.055570494899
 20
105.954972242316
 30
0.0
 11
133.055570494899
 21
120.353315353394
 31
0.0
  0
LINE
  5
    D0
  8
0
  6
CONTINUOUS
 62
     7
 10
133.832027651317
 20
113.955537880183
 30
0.0
 11
133.055570494899
 21
116.853315353394
 31
0.0
  0
LINE
  5
    D1
  8
0
  6
CONTINUOUS
 62
     7
 10
133.055570494899
 20
116.853315353394
 30
0.0
 11
132.27911333848
 21
113.955537880183
 31
0.0
  0
CIRCLE
  5
    D2
  8
0
  6
CONTINUOUS
 62
     7
 10
133.055570494899
 20
120.353315353394
 30
0.0
 40
0.5
  0
ENDBLK
  5
    D3
  8
0
  6
CONTINUOUS
 62
     7
  0
BLOCK
  5
    D4
  8
0
  6
CONTINUOUS
 62
     7
  2
*UDIM230
 70
    65
 10
0.0
 20
0.0
 30
0.0
  3
*UDIM230
  0
TEXT
  5
    D5
  8
0
  6
CONTINUOUS
 62
     7
 10
66.9823314998713
 20
218.2283153272
 30
0.0
 40
3.00000002980232
  1
75
 50
89.9999999480344
 41
0.933333333333333
 72
     1
 11
65.4823314872344
 21
220.728315353394
 31
0.0
 73
     2
  0
LINE
  5
    D6
  8
0
  6
CONTINUOUS
 62
     7
 10
80.6777000427246
 20
211.353315353394
 30
0.0
 11
65.9823315021356
 21
211.353315353394
 31
0.0
  0
LINE
  5
    D7
  8
0
  6
CONTINUOUS
 62
     7
 10
80.6777000427246
 20
230.103315353394
 30
0.0
 11
65.9823315021356
 21
230.103315353394
 31
0.0
  0
LINE
  5
    D8
  8
0
  6
CONTINUOUS
 62
     7
 10
67.9823315021356
 20
211.353315353394
 30
0.0
 11
67.9823315021356
 21
230.103315353394
 31
0.0
  0
LINE
  5
    D9
  8
0
  6
CONTINUOUS
 62
     7
 10
67.2058743457171
 20
214.251092826604
 30
0.0
 11
67.9823315021356
 21
211.353315353394
 31
0.0
  0
LINE
  5
    DA
  8
0
  6
CONTINUOUS
 62
     7
 10
67.9823315021356
 20
211.353315353394
 30
0.0
 11
68.7587886585542
 21
214.251092826604
 31
0.0
  0
LINE
  5
    DB
  8
0
  6
CONTINUOUS
 62
     7
 10
68.7587886585542
 20
227.205537880183
 30
0.0
 11
67.9823315021356
 21
230.103315353394
 31
0.0
  0
LINE
  5
    DC
  8
0
  6
CONTINUOUS
 62
     7
 10
67.9823315021356
 20
230.103315353394
 30
0.0
 11
67.2058743457171
 21
227.205537880183
 31
0.0
  0
ENDBLK
  5
    DD
  8
0
  6
CONTINUOUS
 62
     7
  0
BLOCK
  5
    DE
  8
0
  6
CONTINUOUS
 62
     7
  2
*UDIM231
 70
    65
 10
0.0
 20
0.0
 30
0.0
  3
*UDIM231
  0
TEXT
  5
    DF
  8
0
  6
CONTINUOUS
 62
     7
 10
66.9823314998713
 20
200.3533153272
 30
0.0
 40
3.00000002980232
  1
68
 50
89.9999999480344
 41
0.933333333333333
 72
     1
 11
65.4823314872344
 21
202.853315353394
 31
0.0
 73
     2
  0
LINE
  5
    E0
  8
0
  6
CONTINUOUS
 62
     7
 10
80.6777000427246
 20
194.353315353394
 30
0.0
 11
65.9823315021356
 21
194.353315353394
 31
0.0
  0
LINE
  5
    E1
  8
0
  6
CONTINUOUS
 62
     7
 10
67.9823315021356
 20
194.353315353394
 30
0.0
 11
67.9823315021356
 21
211.353315353394
 31
0.0
  0
LINE
  5
    E2
  8
0
  6
CONTINUOUS
 62
     7
 10
67.2058743457171
 20
197.251092826604
 30
0.0
 11
67.9823315021356
 21
194.353315353394
 31
0.0
  0
LINE
  5
    E3
  8
0
  6
CONTINUOUS
 62
     7
 10
67.9823315021356
 20
194.353315353394
 30
0.0
 11
68.7587886585542
 21
197.251092826604
 31
0.0
  0
LINE
  5
    E4
  8
0
  6
CONTINUOUS
 62
     7
 10
68.7587886585542
 20
208.455537880183
 30
0.0
 11
67.9823315021356
 21
211.353315353394
 31
0.0
  0
LINE
  5
    E5
  8
0
  6
CONTINUOUS
 62
     7
 10
67.9823315021356
 20
211.353315353394
 30
0.0
 11
67.2058743457171
 21
208.455537880183
 31
0.0
  0
ENDBLK
  5
    E6
  8
0
  6
CONTINUOUS
 62
     7
  0
BLOCK
  5
    E7
  8
0
  6
CONTINUOUS
 62
     7
  2
*UDIM232
 70
    65
 10
0.0
 20
0.0
 30
0.0
  3
*UDIM232
  0
TEXT
  5
    E8
  8
0
  6
CONTINUOUS
 62
     7
 10
66.9823314998713
 20
182.4783153272
 30
0.0
 40
3.00000002980232
  1
75
 50
89.9999999480344
 41
0.933333333333333
 72
     1
 11
65.4823314872344
 21
184.978315353394
 31
0.0
 73
     2
  0
LINE
  5
    E9
  8
0
  6
CONTINUOUS
 62
     7
 10
80.6777000427246
 20
175.603315353394
 30
0.0
 11
65.9823315021356
 21
175.603315353394
 31
0.0
  0
LINE
  5
    EA
  8
0
  6
CONTINUOUS
 62
     7
 10
67.9823315021356
 20
175.603315353394
 30
0.0
 11
67.9823315021356
 21
194.353315353394
 31
0.0
  0
LINE
  5
    EB
  8
0
  6
CONTINUOUS
 62
     7
 10
67.2058743457171
 20
178.501092826604
 30
0.0
 11
67.9823315021356
 21
175.603315353394
 31
0.0
  0
LINE
  5
    EC
  8
0
  6
CONTINUOUS
 62
     7
 10
67.9823315021356
 20
175.603315353394
 30
0.0
 11
68.7587886585542
 21
178.501092826604
 31
0.0
  0
LINE
  5
    ED
  8
0
  6
CONTINUOUS
 62
     7
 10
68.7587886585542
 20
191.455537880183
 30
0.0
 11
67.9823315021356
 21
194.353315353394
 31
0.0
  0
LINE
  5
    EE
  8
0
  6
CONTINUOUS
 62
     7
 10
67.9823315021356
 20
194.353315353394
 30
0.0
 11
67.2058743457171
 21
191.455537880183
 31
0.0
  0
ENDBLK
  5
    EF
  8
0
  6
CONTINUOUS
 62
     7
  0
BLOCK
  5
    F0
  8
0
  6
CONTINUOUS
 62
     7
  2
*UDIM233
 70
    65
 10
0.0
 20
0.0
 30
0.0
  3
*UDIM233
  0
TEXT
  5
    F1
  8
0
  6
CONTINUOUS
 62
     7
 10
66.9823314998713
 20
161.6033153272
 30
0.0
 40
3.00000002980232
  1
92
 50
89.9999999480344
 41
0.933333333333333
 72
     1
 11
65.4823314872344
 21
164.103315353394
 31
0.0
 73
     2
  0
LINE
  5
    F2
  8
0
  6
CONTINUOUS
 62
     7
 10
80.6777000427246
 20
152.603315353394
 30
0.0
 11
65.9823315021356
 21
152.603315353394
 31
0.0
  0
LINE
  5
    F3
  8
0
  6
CONTINUOUS
 62
     7
 10
67.9823315021356
 20
152.603315353394
 30
0.0
 11
67.9823315021356
 21
175.603315353394
 31
0.0
  0
LINE
  5
    F4
  8
0
  6
CONTINUOUS
 62
     7
 10
67.2058743457171
 20
155.501092826604
 30
0.0
 11
67.9823315021356
 21
152.603315353394
 31
0.0
  0
LINE
  5
    F5
  8
0
  6
CONTINUOUS
 62
     7
 10
67.9823315021356
 20
152.603315353394
 30
0.0
 11
68.7587886585542
 21
155.501092826604
 31
0.0
  0
LINE
  5
    F6
  8
0
  6
CONTINUOUS
 62
     7
 10
68.7587886585542
 20
172.705537880183
 30
0.0
 11
67.9823315021356
 21
175.603315353394
 31
0.0
  0
LINE
  5
    F7
  8
0
  6
CONTINUOUS
 62
     7
 10
67.9823315021356
 20
175.603315353394
 30
0.0
 11
67.2058743457171
 21
172.705537880183
 31
0.0
  0
ENDBLK
  5
    F8
  8
0
  6
CONTINUOUS
 62
     7
  0
BLOCK
  5
    F9
  8
0
  6
CONTINUOUS
 62
     7
  2
*UDIM234
 70
    65
 10
0.0
 20
0.0
 30
0.0
  3
*UDIM234
  0
TEXT
  5
    FA
  8
0
  6
CONTINUOUS
 62
     7
 10
66.9823314998713
 20
140.7283153272
 30
0.0
 40
3.00000002980232
  1
75
 50
89.9999999480344
 41
0.933333333333333
 72
     1
 11
65.4823314872344
 21
143.228315353394
 31
0.0
 73
     2
  0
LINE
  5
    FB
  8
0
  6
CONTINUOUS
 62
     7
 10
80.6777000427246
 20
133.853315353394
 30
0.0
 11
65.9823315021356
 21
133.853315353394
 31
0.0
  0
LINE
  5
    FC
  8
0
  6
CONTINUOUS
 62
     7
 10
67.9823315021356
 20
133.853315353394
 30
0.0
 11
67.9823315021356
 21
152.603315353394
 31
0.0
  0
LINE
  5
    FD
  8
0
  6
CONTINUOUS
 62
     7
 10
67.2058743457171
 20
136.751092826604
 30
0.0
 11
67.9823315021356
 21
133.853315353394
 31
0.0
  0
LINE
  5
    FE
  8
0
  6
CONTINUOUS
 62
     7
 10
67.9823315021356
 20
133.853315353394
 30
0.0
 11
68.7587886585542
 21
136.751092826604
 31
0.0
  0
LINE
  5
    FF
  8
0
  6
CONTINUOUS
 62
     7
 10
68.7587886585542
 20
149.705537880183
 30
0.0
 11
67.9823315021356
 21
152.603315353394
 31
0.0
  0
LINE
  5
   100
  8
0
  6
CONTINUOUS
 62
     7
 10
67.9823315021356
 20
152.603315353394
 30
0.0
 11
67.2058743457171
 21
149.705537880183
 31
0.0
  0
ENDBLK
  5
   101
  8
0
  6
CONTINUOUS
 62
     7
  0
BLOCK
  5
   102
  8
0
  6
CONTINUOUS
 62
     7
  2
*UDIM235
 70
    65
 10
0.0
 20
0.0
 30
0.0
  3
*UDIM235
  0
TEXT
  5
   103
  8
0
  6
CONTINUOUS
 62
     7
 10
66.9823314998713
 20
122.8533153272
 30
0.0
 40
3.00000002980232
  1
68
 50
89.9999999480344
 41
0.933333333333333
 72
     1
 11
65.4823314872344
 21
125.353315353394
 31
0.0
 73
     2
  0
LINE
  5
   104
  8
0
  6
CONTINUOUS
 62
     7
 10
80.6777000427246
 20
116.853315353394
 30
0.0
 11
65.9823315021356
 21
116.853315353394
 31
0.0
  0
LINE
  5
   105
  8
0
  6
CONTINUOUS
 62
     7
 10
67.9823315021356
 20
116.853315353394
 30
0.0
 11
67.9823315021356
 21
133.853315353394
 31
0.0
  0
LINE
  5
   106
  8
0
  6
CONTINUOUS
 62
     7
 10
67.2058743457171
 20
119.751092826604
 30
0.0
 11
67.9823315021356
 21
116.853315353394
 31
0.0
  0
LINE
  5
   107
  8
0
  6
CONTINUOUS
 62
     7
 10
67.9823315021356
 20
116.853315353394
 30
0.0
 11
68.7587886585542
 21
119.751092826604
 31
0.0
  0
LINE
  5
   108
  8
0
  6
CONTINUOUS
 62
     7
 10
68.7587886585542
 20
130.955537880183
 30
0.0
 11
67.9823315021356
 21
133.853315353394
 31
0.0
  0
LINE
  5
   109
  8
0
  6
CONTINUOUS
 62
     7
 10
67.9823315021356
 20
133.853315353394
 30
0.0
 11
67.2058743457171
 21
130.955537880183
 31
0.0
  0
ENDBLK
  5
   10A
  8
0
  6
CONTINUOUS
 62
     7
  0
BLOCK
  5
   10B
  8
0
  6
CONTINUOUS
 62
     7
  2
*UDIM236
 70
    65
 10
0.0
 20
0.0
 30
0.0
  3
*UDIM236
  0
TEXT
  5
   10C
  8
0
  6
CONTINUOUS
 62
     7
 10
66.9823314998713
 20
104.9783153272
 30
0.0
 40
3.00000002980232
  1
75
 50
89.9999999480344
 41
0.933333333333333
 72
     1
 11
65.4823314872344
 21
107.478315353394
 31
0.0
 73
     2
  0
LINE
  5
   10D
  8
0
  6
CONTINUOUS
 62
     7
 10
80.6777000427246
 20
98.1033153533936
 30
0.0
 11
65.9823315021356
 21
98.1033153533936
 31
0.0
  0
LINE
  5
   10E
  8
0
  6
CONTINUOUS
 62
     7
 10
67.9823315021356
 20
98.1033153533936
 30
0.0
 11
67.9823315021356
 21
116.853315353394
 31
0.0
  0
LINE
  5
   10F
  8
0
  6
CONTINUOUS
 62
     7
 10
67.2058743457171
 20
101.001092826604
 30
0.0
 11
67.9823315021356
 21
98.1033153533936
 31
0.0
  0
LINE
  5
   110
  8
0
  6
CONTINUOUS
 62
     7
 10
67.9823315021356
 20
98.1033153533936
 30
0.0
 11
68.7587886585542
 21
101.001092826604
 31
0.0
  0
LINE
  5
   111
  8
0
  6
CONTINUOUS
 62
     7
 10
68.7587886585542
 20
113.955537880183
 30
0.0
 11
67.9823315021356
 21
116.853315353394
 31
0.0
  0
LINE
  5
   112
  8
0
  6
CONTINUOUS
 62
     7
 10
67.9823315021356
 20
116.853315353394
 30
0.0
 11
67.2058743457171
 21
113.955537880183
 31
0.0
  0
ENDBLK
  5
   113
  8
0
  6
CONTINUOUS
 62
     7
  0
BLOCK
  5
   114
  8
0
  6
CONTINUOUS
 62
     7
  2
*UDIM237
 70
    65
 10
0.0
 20
0.0
 30
0.0
  3
*UDIM237
  0
TEXT
  5
   115
  8
0
  6
CONTINUOUS
 62
     7
 10
69.8805865164976
 20
254.703772130181
 30
0.0
 40
3.00000002980232
  1
=
 50
359.999999948034
 41
0.933333333333334
 72
     1
 11
70.9805865287781
 21
256.20377214409
 31
0.0
 73
     2
  0
LINE
  5
   116
  8
0
  6
CONTINUOUS
 62
     7
 10
77.9277000427246
 20
227.353315353394
 30
0.0
 11
77.9277000427246
 21
255.703772129189
 31
0.0
  0
LINE
  5
   117
  8
0
  6
CONTINUOUS
 62
     7
 10
77.6152000427246
 20
243.94483935995
 30
0.0
 11
77.6152000427246
 21
255.703772129189
 31
0.0
  0
LINE
  5
   118
  8
0
  6
CONTINUOUS
 62
     7
 10
77.9277000427246
 20
253.703772129189
 30
0.0
 11
69.8805865178506
 21
253.703772129189
 31
0.0
  0
LINE
  5
   119
  8
0
  6
CONTINUOUS
 62
     7
 10
80.8254775159351
 20
254.480229285607
 30
0.0
 11
77.9277000427246
 21
253.703772129189
 31
0.0
  0
LINE
  5
   11A
  8
0
  6
CONTINUOUS
 62
     7
 10
77.9277000427246
 20
253.703772129189
 30
0.0
 11
80.8254775159351
 21
252.92731497277
 31
0.0
  0
LINE
  5
   11B
  8
0
  6
CONTINUOUS
 62
     7
 10
74.7174225695141
 20
252.92731497277
 30
0.0
 11
77.6152000427246
 21
253.703772129189
 31
0.0
  0
LINE
  5
   11C
  8
0
  6
CONTINUOUS
 62
     7
 10
77.6152000427246
 20
253.703772129189
 30
0.0
 11
74.7174225695141
 21
254.480229285607
 31
0.0
  0
ENDBLK
  5
   11D
  8
0
  6
CONTINUOUS
 62
     7
  0
BLOCK
  5
   11E
  8
0
  6
CONTINUOUS
 62
     7
  2
*UDIM238
 70
    65
 10
0.0
 20
0.0
 30
0.0
  3
*UDIM238
  0
TEXT
  5
   11F
  8
0
  6
CONTINUOUS
 62
     7
 10
93.4027000026287
 20
254.703772132706
 30
0.0
 40
3.00000002980232
  1
155
 50
359.999999948034
 41
0.933333333333333
 72
     1
 11
97.3027000427246
 21
256.20377214409
 31
0.0
 73
     2
  0
LINE
  5
   120
  8
0
  6
CONTINUOUS
 62
     7
 10
116.677700042725
 20
227.353315353394
 30
0.0
 11
116.677700042725
 21
255.703772129189
 31
0.0
  0
LINE
  5
   121
  8
0
  6
CONTINUOUS
 62
     7
 10
116.677700042725
 20
253.703772129189
 30
0.0
 11
77.9277000427246
 21
253.703772129189
 31
0.0
  0
LINE
  5
   122
  8
0
  6
CONTINUOUS
 62
     7
 10
113.779922569514
 20
252.92731497277
 30
0.0
 11
116.677700042725
 21
253.703772129189
 31
0.0
  0
LINE
  5
   123
  8
0
  6
CONTINUOUS
 62
     7
 10
116.677700042725
 20
253.703772129189
 30
0.0
 11
113.779922569514
 21
254.480229285607
 31
0.0
  0
CIRCLE
  5
   124
  8
0
  6
CONTINUOUS
 62
     7
 10
77.9277000427246
 20
253.703772129189
 30
0.0
 40
0.5
  0
ENDBLK
  5
   125
  8
0
  6
CONTINUOUS
 62
     7
  0
BLOCK
  5
   126
  8
0
  6
CONTINUOUS
 62
     7
  2
*UDIM239
 70
    65
 10
0.0
 20
0.0
 30
0.0
  3
*UDIM239
  0
TEXT
  5
   127
  8
0
  6
CONTINUOUS
 62
     7
 10
123.571561228869
 20
254.703772130181
 30
0.0
 40
3.00000002980232
  1
=
 50
359.999999948034
 41
0.933333333333334
 72
     1
 11
124.67156124115
 21
256.20377214409
 31
0.0
 73
     2
  0
LINE
  5
   128
  8
0
  6
CONTINUOUS
 62
     7
 10
116.990200042725
 20
243.641879791709
 30
0.0
 11
116.990200042725
 21
255.703772129189
 31
0.0
  0
LINE
  5
   129
  8
0
  6
CONTINUOUS
 62
     7
 10
125.771561252077
 20
253.703772129189
 30
0.0
 11
116.677700042725
 21
253.703772129189
 31
0.0
  0
LINE
  5
   12A
  8
0
  6
CONTINUOUS
 62
     7
 10
119.887977515935
 20
254.480229285607
 30
0.0
 11
116.990200042725
 21
253.703772129189
 31
0.0
  0
LINE
  5
   12B
  8
0
  6
CONTINUOUS
 62
     7
 10
116.990200042725
 20
253.703772129189
 30
0.0
 11
119.887977515935
 21
252.92731497277
 31
0.0
  0
CIRCLE
  5
   12C
  8
0
  6
CONTINUOUS
 62
     7
 10
116.677700042725
 20
253.703772129189
 30
0.0
 40
0.5
  0
ENDBLK
  5
   12D
  8
0
  6
CONTINUOUS
 62
     7
  0
BLOCK
  5
   12E
  8
0
  6
CONTINUOUS
 62
     7
  2
*UDIM240
 70
    65
 10
0.0
 20
0.0
 30
0.0
  3
*UDIM240
  0
TEXT
  5
   12F
  8
0
  6
CONTINUOUS
 62
     7
 10
98.5698208131507
 20
222.111629217695
 30
0.0
 40
3.00000002980232
  1
15
 50
359.999999948034
 41
0.933333333333333
 72
     1
 11
101.069820839339
 21
223.611629230341
 31
0.0
 73
     2
  0
TEXT
  5
   130
  8
0
  6
CONTINUOUS
 62
     7
 10
94.5698207833484
 20
222.111629216793
 30
0.0
 40
3.00000002980232
  1
R
 50
359.999999948034
 41
1.2
 72
     1
 11
96.0698207996025
 21
223.611629230341
 31
0.0
 73
     2
  0
LINE
  5
   131
  8
0
  6
CONTINUOUS
 62
     7
 10
115.32508078362
 20
229.236900896288
 30
0.0
 11
108.569820864174
 21
221.11162921544
 31
0.0
  0
LINE
  5
   132
  8
0
  6
CONTINUOUS
 62
     7
 10
108.569820864174
 20
221.11162921544
 30
0.0
 11
94.5698207847014
 21
221.11162921544
 31
0.0
  0
LINE
  5
   133
  8
0
  6
CONTINUOUS
 62
     7
 10
114.069588710354
 20
226.512246853301
 30
0.0
 11
115.32508078362
 21
229.236900896288
 31
0.0
  0
LINE
  5
   134
  8
0
  6
CONTINUOUS
 62
     7
 10
115.32508078362
 20
229.236900896288
 30
0.0
 11
112.875465707194
 21
227.505027350863
 31
0.0
  0
ENDBLK
  5
   135
  8
0
  6
CONTINUOUS
 62
     7
  0
BLOCK
  5
   136
  8
0
  6
CONTINUOUS
 62
     7
  2
*UDIM241
 70
    65
 10
0.0
 20
0.0
 30
0.0
  3
*UDIM241
  0
TEXT
  5
   137
  8
0
  6
CONTINUOUS
 62
     7
 10
76.8443445321303
 20
64.3854942483226
 30
0.0
 40
3.00000002980232
  1
Ø7 (N°8 FORI)
 50
359.999999948034
 41
0.933333333333333
 72
     1
 11
94.7443447113037
 21
65.8854942470789
 31
0.0
 73
     2
  0
LINE
  5
   138
  8
0
  6
CONTINUOUS
 62
     7
 10
117.990200042725
 20
119.353315353394
 30
0.0
 11
117.990200042725
 21
61.3854942321777
 31
0.0
  0
LINE
  5
   139
  8
0
  6
CONTINUOUS
 62
     7
 10
115.990200042725
 20
119.353315353394
 30
0.0
 11
115.990200042725
 21
61.3854942321777
 31
0.0
  0
LINE
  5
   13A
  8
0
  6
CONTINUOUS
 62
     7
 10
117.990200042725
 20
63.3854942321777
 30
0.0
 11
76.8443445334832
 21
63.3854942321777
 31
0.0
  0
LINE
  5
   13B
  8
0
  6
CONTINUOUS
 62
     7
 10
120.944623304406
 20
63.9064387501781
 30
0.0
 11
117.990200042725
 21
63.3854942321777
 31
0.0
  0
LINE
  5
   13C
  8
0
  6
CONTINUOUS
 62
     7
 10
117.990200042725
 20
63.3854942321777
 30
0.0
 11
120.944623304406
 21
62.8645497141774
 31
0.0
  0
LINE
  5
   13D
  8
0
  6
CONTINUOUS
 62
     7
 10
113.035776781043
 20
62.8645497141774
 30
0.0
 11
115.990200042725
 21
63.3854942321777
 31
0.0
  0
LINE
  5
   13E
  8
0
  6
CONTINUOUS
 62
     7
 10
115.990200042725
 20
63.3854942321777
 30
0.0
 11
113.035776781043
 21
63.9064387501781
 31
0.0
  0
ENDBLK
  5
   13F
  8
0
  6
CONTINUOUS
 62
     7
  0
BLOCK
  5
   140
  8
0
  6
CONTINUOUS
 62
     7
  2
*UDIM242
 70
    65
 10
0.0
 20
0.0
 30
0.0
  3
*UDIM242
  0
TEXT
  5
   141
  8
0
  6
CONTINUOUS
 62
     7
 10
90.3276999688527
 20
265.076263433777
 30
0.0
 40
3.00000002980232
  1
157,5
 50
359.999999948034
 41
0.933333333333333
 72
     1
 11
97.0277000367641
 21
266.576263442636
 31
0.0
 73
     2
  0
LINE
  5
   142
  8
0
  6
CONTINUOUS
 62
     7
 10
116.990200042725
 20
243.641879791709
 30
0.0
 11
116.990200042725
 21
266.076263427734
 31
0.0
  0
LINE
  5
   143
  8
0
  6
CONTINUOUS
 62
     7
 10
77.6152000427246
 20
243.94483935995
 30
0.0
 11
77.6152000427246
 21
266.076263427734
 31
0.0
  0
LINE
  5
   144
  8
0
  6
CONTINUOUS
 62
     7
 10
116.990200042725
 20
264.076263427734
 30
0.0
 11
77.6152000427246
 21
264.076263427734
 31
0.0
  0
LINE
  5
   145
  8
0
  6
CONTINUOUS
 62
     7
 10
114.035776781043
 20
263.555318909734
 30
0.0
 11
116.990200042725
 21
264.076263427734
 31
0.0
  0
LINE
  5
   146
  8
0
  6
CONTINUOUS
 62
     7
 10
116.990200042725
 20
264.076263427734
 30
0.0
 11
114.035776781043
 21
264.597207945735
 31
0.0
  0
LINE
  5
   147
  8
0
  6
CONTINUOUS
 62
     7
 10
80.5696233044062
 20
264.597207945735
 30
0.0
 11
77.6152000427246
 21
264.076263427734
 31
0.0
  0
LINE
  5
   148
  8
0
  6
CONTINUOUS
 62
     7
 10
77.6152000427246
 20
264.076263427734
 30
0.0
 11
80.5696233044062
 21
263.555318909734
 31
0.0
  0
ENDBLK
  5
   149
  8
0
  6
CONTINUOUS
 62
     7
  0
ENDSEC
  0
SECTION
  2
ENTITIES
  0
LINE
  5
   14A
  8
0
  6
DOT
 62
     7
 10
-20.1044597022875
 20
202.228313817818
 30
0.0
 11
-15.8544597022873
 21
202.228313817818
 31
0.0
  0
LINE
  5
   14B
  8
0
  6
DOT
 62
     7
 10
20.6455402977127
 20
202.228313817818
 30
0.0
 11
24.8955402977125
 21
202.228313817818
 31
0.0
  0
LINE
  5
   14C
  8
0
  6
CONTINUOUS
 62
     7
 10
-20.1044597022872
 20
236.353313817818
 30
0.0
 11
24.8955402977125
 21
236.353313817818
 31
0.0
  0
LINE
  5
   14D
  8
0
  6
CONTINUOUS
 62
     7
 10
-20.1044597022872
 20
91.8533138178177
 30
0.0
 11
24.8955402977125
 21
91.8533138178177
 31
0.0
  0
LINE
  5
   14E
  8
0
  6
DOT
 62
     7
 10
-20.1044597022875
 20
125.978313817818
 30
0.0
 11
-15.8544597022873
 21
125.978313817818
 31
0.0
  0
LINE
  5
   14F
  8
0
  6
DOT
 62
     7
 10
20.6455402977127
 20
125.978313817818
 30
0.0
 11
24.8955402977125
 21
125.978313817818
 31
0.0
  0
LINE
  5
   150
  8
0
  6
CONTINUOUS
 62
     7
 10
-20.1044597022872
 20
91.8533138178177
 30
0.0
 11
-20.1044597022872
 21
236.353313817818
 31
0.0
  0
LINE
  5
   151
  8
0
  6
CONTINUOUS
 62
     7
 10
24.8955402977125
 20
91.8533138178177
 30
0.0
 11
24.8955402977125
 21
236.353313817818
 31
0.0
  0
LINE
  5
   152
  8
0
  6
CONTINUOUS
 62
     7
 10
-5.0544595115526
 20
179.728313817818
 30
0.0
 11
-5.0544595115526
 21
181.603310809425
 31
0.0
  0
LINE
  5
   153
  8
0
  6
CONTINUOUS
 62
     7
 10
1.09554106065199
 20
179.728313817818
 30
0.0
 11
1.09554106065199
 21
181.603310809425
 31
0.0
  0
LINE
  5
   154
  8
0
  6
CONTINUOUS
 62
     7
 10
-13.8044595115526
 20
179.728313817818
 30
0.0
 11
-13.8044595115526
 21
181.603310809425
 31
0.0
  0
LINE
  5
   155
  8
0
  6
CONTINUOUS
 62
     7
 10
-7.65445989302232
 20
179.728313817818
 30
0.0
 11
-7.65445989302232
 21
181.603310809425
 31
0.0
  0
LINE
  5
   156
  8
0
  6
CONTINUOUS
 62
     7
 10
12.4455395347731
 20
179.728313817818
 30
0.0
 11
12.4455395347731
 21
181.603310809425
 31
0.0
  0
LINE
  5
   157
  8
0
  6
CONTINUOUS
 62
     7
 10
18.595541060652
 20
179.728313817818
 30
0.0
 11
18.595541060652
 21
181.603310809425
 31
0.0
  0
LINE
  5
   158
  8
0
  6
CONTINUOUS
 62
     7
 10
3.69553953477309
 20
179.728313817818
 30
0.0
 11
3.69553953477309
 21
181.603310809425
 31
0.0
  0
LINE
  5
   159
  8
0
  6
CONTINUOUS
 62
     7
 10
9.84554106065199
 20
179.728313817818
 30
0.0
 11
9.84554106065199
 21
181.603310809425
 31
0.0
  0
LINE
  5
   15A
  8
0
  6
CONTINUOUS
 62
     7
 10
-5.0544595115526
 20
224.103310809425
 30
0.0
 11
-5.0544595115526
 21
225.978313817818
 31
0.0
  0
LINE
  5
   15B
  8
0
  6
CONTINUOUS
 62
     7
 10
1.09554106065199
 20
224.103310809425
 30
0.0
 11
1.09554106065199
 21
225.978313817818
 31
0.0
  0
LINE
  5
   15C
  8
0
  6
CONTINUOUS
 62
     7
 10
-13.8044595115526
 20
224.103310809425
 30
0.0
 11
-13.8044595115526
 21
225.978313817818
 31
0.0
  0
LINE
  5
   15D
  8
0
  6
CONTINUOUS
 62
     7
 10
-7.65445989302232
 20
224.103310809425
 30
0.0
 11
-7.65445989302232
 21
225.978313817818
 31
0.0
  0
LINE
  5
   15E
  8
0
  6
CONTINUOUS
 62
     7
 10
12.4455395347731
 20
224.103310809425
 30
0.0
 11
12.4455395347731
 21
225.978313817818
 31
0.0
  0
LINE
  5
   15F
  8
0
  6
CONTINUOUS
 62
     7
 10
18.595541060652
 20
224.103310809425
 30
0.0
 11
18.595541060652
 21
225.978313817818
 31
0.0
  0
LINE
  5
   160
  8
0
  6
CONTINUOUS
 62
     7
 10
3.69553953477309
 20
224.103310809425
 30
0.0
 11
3.69553953477309
 21
225.978313817818
 31
0.0
  0
LINE
  5
   161
  8
0
  6
CONTINUOUS
 62
     7
 10
9.84554106065199
 20
224.103310809425
 30
0.0
 11
9.84554106065199
 21
225.978313817818
 31
0.0
  0
LINE
  5
   162
  8
0
  6
CONTINUOUS
 62
     7
 10
-5.0544595115526
 20
102.228313817818
 30
0.0
 11
-5.0544595115526
 21
104.103317135382
 31
0.0
  0
LINE
  5
   163
  8
0
  6
CONTINUOUS
 62
     7
 10
1.09554106065199
 20
102.228313817818
 30
0.0
 11
1.09554106065199
 21
104.103317135382
 31
0.0
  0
LINE
  5
   164
  8
0
  6
CONTINUOUS
 62
     7
 10
-13.8044595115526
 20
102.228313817818
 30
0.0
 11
-13.8044595115526
 21
104.103317135382
 31
0.0
  0
LINE
  5
   165
  8
0
  6
CONTINUOUS
 62
     7
 10
-7.65445989302232
 20
102.228313817818
 30
0.0
 11
-7.65445989302232
 21
104.103317135382
 31
0.0
  0
LINE
  5
   166
  8
0
  6
CONTINUOUS
 62
     7
 10
12.4455395347731
 20
102.228313817818
 30
0.0
 11
12.4455395347731
 21
107.290811413335
 31
0.0
  0
LINE
  5
   167
  8
0
  6
CONTINUOUS
 62
     7
 10
18.595541060652
 20
102.228313817818
 30
0.0
 11
18.595541060652
 21
107.290811413335
 31
0.0
  0
LINE
  5
   168
  8
0
  6
CONTINUOUS
 62
     7
 10
3.69553953477309
 20
102.228313817818
 30
0.0
 11
3.69553953477309
 21
104.103317135382
 31
0.0
  0
LINE
  5
   169
  8
0
  6
CONTINUOUS
 62
     7
 10
9.84554106065199
 20
102.228313817818
 30
0.0
 11
9.84554106065199
 21
104.103317135382
 31
0.0
  0
LINE
  5
   16A
  8
0
  6
CONTINUOUS
 62
     7
 10
-5.0544595115526
 20
146.603317135382
 30
0.0
 11
-5.0544595115526
 21
148.478313817818
 31
0.0
  0
LINE
  5
   16B
  8
0
  6
CONTINUOUS
 62
     7
 10
1.09554106065199
 20
146.603317135382
 30
0.0
 11
1.09554106065199
 21
148.478313817818
 31
0.0
  0
LINE
  5
   16C
  8
0
  6
CONTINUOUS
 62
     7
 10
-13.8044595115526
 20
146.603317135382
 30
0.0
 11
-13.8044595115526
 21
148.478313817818
 31
0.0
  0
LINE
  5
   16D
  8
0
  6
CONTINUOUS
 62
     7
 10
-7.65445989302232
 20
146.603317135382
 30
0.0
 11
-7.65445989302232
 21
148.478313817818
 31
0.0
  0
LINE
  5
   16E
  8
0
  6
CONTINUOUS
 62
     7
 10
12.4455395347731
 20
143.478315228032
 30
0.0
 11
12.4455395347731
 21
148.478313817818
 31
0.0
  0
LINE
  5
   16F
  8
0
  6
CONTINUOUS
 62
     7
 10
18.595541060652
 20
143.478315228032
 30
0.0
 11
18.595541060652
 21
148.478313817818
 31
0.0
  0
LINE
  5
   170
  8
0
  6
CONTINUOUS
 62
     7
 10
3.69553953477309
 20
146.603317135382
 30
0.0
 11
3.69553953477309
 21
148.478313817818
 31
0.0
  0
LINE
  5
   171
  8
0
  6
CONTINUOUS
 62
     7
 10
9.84554106065199
 20
146.603317135382
 30
0.0
 11
9.84554106065199
 21
148.478313817818
 31
0.0
  0
ARC
  5
   172
  8
0
  6
CONTINUOUS
 62
     7
 10
15.5204693455729
 20
102.228231724612
 30
0.0
 40
3.07489314496732
 50
179.998457780923
 51
360.001549963691
  0
ARC
  5
   173
  8
0
  6
CONTINUOUS
 62
     7
 10
6.7705394403174
 20
102.228315340291
 30
0.0
 40
3.07500159238963
 50
180.000014802993
 51
359.999991002854
  0
CIRCLE
  5
   174
  8
0
  6
DOT
 62
     7
 10
22.0830431842915
 20
120.353313666251
 30
0.0
 40
0.412500327817027
  0
ARC
  5
   175
  8
0
  6
CONTINUOUS
 62
     7
 10
-1.97946051291801
 20
102.228311682851
 30
0.0
 40
3.07499834541494
 50
179.999965156188
 51
360.000058145076
  0
ARC
  5
   176
  8
0
  6
CONTINUOUS
 62
     7
 10
-10.7294589898144
 20
102.228312947793
 30
0.0
 40
3.07499911473337
 50
179.999989076708
 51
360.000010301295
  0
CIRCLE
  5
   177
  8
0
  6
DOT
 62
     7
 10
-17.2919572631185
 20
120.353313943112
 30
0.0
 40
0.412500386766081
  0
ARC
  5
   178
  8
0
  6
CONTINUOUS
 62
     7
 10
-10.7294482485982
 20
148.478312859394
 30
0.0
 40
3.07500748192718
 50
6.48458607371659E-5
 51
179.999934352529
  0
ARC
  5
   179
  8
0
  6
CONTINUOUS
 62
     7
 10
-1.97945133462643
 20
148.478301677739
 30
0.0
 40
3.07501214586539
 50
1.71340950267339E-4
 51
179.999725554945
  0
ARC
  5
   17A
  8
0
  6
CONTINUOUS
 62
     7
 10
6.77051098208369
 20
148.478374926951
 30
0.0
 40
3.0749306091789
 50
359.998807049779
 51
540.001196053456
  0
ARC
  5
   17B
  8
0
  6
CONTINUOUS
 62
     7
 10
15.520629581514
 20
148.478149286092
 30
0.0
 40
3.07518500490954
 50
3.01197479703874E-3
 51
179.996992350512
  0
ARC
  5
   17C
  8
0
  6
CONTINUOUS
 62
     7
 10
15.5204954587791
 20
179.728490742913
 30
0.0
 40
3.07514901951787
 50
180.003333964022
 51
359.996664314069
  0
ARC
  5
   17D
  8
0
  6
CONTINUOUS
 62
     7
 10
6.77056037308453
 20
179.728284498917
 30
0.0
 40
3.07496761278338
 50
179.999491256222
 51
360.000507400182
  0
ARC
  5
   17E
  8
0
  6
CONTINUOUS
 62
     7
 10
-1.97950454118562
 20
179.728436854469
 30
0.0
 40
3.07511289642569
 50
180.002360508238
 51
359.997668858639
  0
ARC
  5
   17F
  8
0
  6
CONTINUOUS
 62
     7
 10
-10.7295045411674
 20
179.728410259641
 30
0.0
 40
3.0750950667649
 50
180.001865384906
 51
359.998133926687
  0
CIRCLE
  5
   180
  8
0
  6
DOT
 62
     7
 10
-17.2919705986566
 20
207.853309174876
 30
0.0
 40
0.412502973807917
  0
ARC
  5
   181
  8
0
  6
CONTINUOUS
 62
     7
 10
-10.7294597235686
 20
225.978461109148
 30
0.0
 40
3.07485539825489
 50
359.997293908401
 51
540.002705820777
  0
ARC
  5
   182
  8
0
  6
CONTINUOUS
 62
     7
 10
-1.97941857693582
 20
225.978206538175
 30
0.0
 40
3.07510563558323
 50
2.08339559085127E-3
 51
179.997962331096
  0
ARC
  5
   183
  8
0
  6
CONTINUOUS
 62
     7
 10
6.77047538653711
 20
225.978303410879
 30
0.0
 40
3.07504568927932
 50
2.78016973411121E-4
 51
179.999720019488
  0
CIRCLE
  5
   184
  8
0
  6
DOT
 62
     7
 10
22.0830332617612
 20
207.853305598218
 30
0.0
 40
0.412504488053291
  0
ARC
  5
   185
  8
0
  6
CONTINUOUS
 62
     7
 10
15.5204647145777
 20
225.978303410879
 30
0.0
 40
3.07485732175775
 50
7.01670929853488E-15
 51
180.0
  0
LINE
  5
   186
  8
0
  6
DASHDOT
 62
     7
 10
20.9205428564745
 20
120.353313666251
 30
0.0
 11
23.2455435121085
 21
120.353313666251
 31
0.0
  0
LINE
  5
   187
  8
0
  6
DASHDOT
 62
     7
 10
22.0830431842915
 20
119.190813338434
 30
0.0
 11
22.0830431842915
 21
121.515813994068
 31
0.0
  0
LINE
  5
   188
  8
0
  6
DASHDOT
 62
     7
 10
15.5205402287201
 20
103.65330596337
 30
0.0
 11
15.5205402287201
 21
111.303313548378
 31
0.0
  0
LINE
  5
   189
  8
0
  6
DASHDOT
 62
     7
 10
11.6955762006056
 20
102.228231724612
 30
0.0
 11
19.3453624905402
 21
102.228231724612
 31
0.0
  0
LINE
  5
   18A
  8
0
  6
DASHDOT
 62
     7
 10
15.5204693455729
 20
98.4033385796443
 30
0.0
 11
15.5204693455729
 21
106.053124869579
 31
0.0
  0
LINE
  5
   18B
  8
0
  6
DASHDOT
 62
     7
 10
2.94553784792774
 20
102.228315340291
 30
0.0
 11
10.595541032707
 21
102.228315340291
 31
0.0
  0
LINE
  5
   18C
  8
0
  6
DASHDOT
 62
     7
 10
6.7705394403174
 20
98.403313747901
 30
0.0
 11
6.7705394403174
 21
106.05331693268
 31
0.0
  0
LINE
  5
   18D
  8
0
  6
DASHDOT
 62
     7
 10
6.77053463638934
 20
103.653563276498
 30
0.0
 11
6.77053463638934
 21
111.303341149335
 31
0.0
  0
LINE
  5
   18E
  8
0
  6
DASHDOT
 62
     7
 10
-1.97946536356732
 20
103.653468193757
 30
0.0
 11
-1.97946536356732
 21
111.303332083417
 31
0.0
  0
LINE
  5
   18F
  8
0
  6
DASHDOT
 62
     7
 10
-5.80445885833297
 20
102.228311682851
 30
0.0
 11
1.84553783249692
 21
102.228311682851
 31
0.0
  0
LINE
  5
   190
  8
0
  6
DASHDOT
 62
     7
 10
-1.97946051291801
 20
98.4033133374362
 30
0.0
 11
-1.97946051291801
 21
106.053310028266
 31
0.0
  0
LINE
  5
   191
  8
0
  6
DASHDOT
 62
     7
 10
-10.7294653635233
 20
103.653371873193
 30
0.0
 11
-10.7294653635233
 21
111.303322897601
 31
0.0
  0
LINE
  5
   192
  8
0
  6
DASHDOT
 62
     7
 10
-14.5544581045478
 20
102.228312947793
 30
0.0
 11
-6.90445987508109
 21
102.228312947793
 31
0.0
  0
LINE
  5
   193
  8
0
  6
DASHDOT
 62
     7
 10
-10.7294589898144
 20
98.4033138330598
 30
0.0
 11
-10.7294589898144
 21
106.053312062527
 31
0.0
  0
LINE
  5
   194
  8
0
  6
DASHDOT
 62
     7
 10
-18.4544576498846
 20
120.353313943112
 30
0.0
 11
-16.1294568763524
 21
120.353313943112
 31
0.0
  0
LINE
  5
   195
  8
0
  6
DOT
 62
     7
 10
-17.2919572631185
 20
119.190813556346
 30
0.0
 11
-17.2919572631185
 21
121.515814329878
 31
0.0
  0
LINE
  5
   196
  8
0
  6
DASHDOT
 62
     7
 10
-10.7294827026497
 20
139.403327421721
 30
0.0
 11
-10.7294827026497
 21
147.053276513146
 31
0.0
  0
LINE
  5
   197
  8
0
  6
DASHDOT
 62
     7
 10
-14.5544557305254
 20
148.478312859394
 30
0.0
 11
-6.90444076667105
 21
148.478312859394
 31
0.0
  0
LINE
  5
   198
  8
0
  6
DASHDOT
 62
     7
 10
-10.7294482485982
 20
144.653305377466
 30
0.0
 11
-10.7294482485982
 21
152.303320341321
 31
0.0
  0
LINE
  5
   199
  8
0
  6
DASHDOT
 62
     7
 10
-1.97945199563054
 20
139.403308397109
 30
0.0
 11
-1.97945199563054
 21
147.053333237938
 31
0.0
  0
LINE
  5
   19A
  8
0
  6
DASHDOT
 62
     7
 10
6.7706281637308
 20
139.403273908705
 30
0.0
 11
6.7706281637308
 21
147.053486202666
 31
0.0
  0
LINE
  5
   19B
  8
0
  6
DASHDOT
 62
     7
 10
15.5205423892916
 20
139.403311228757
 30
0.0
 11
15.5205423892916
 21
147.053313988528
 31
0.0
  0
LINE
  5
   19C
  8
0
  6
DASHDOT
 62
     7
 10
11.6954445766045
 20
148.478149286092
 30
0.0
 11
19.3458145864235
 21
148.478149286092
 31
0.0
  0
LINE
  5
   19D
  8
0
  6
DASHDOT
 62
     7
 10
15.520629581514
 20
144.652964281183
 30
0.0
 11
15.520629581514
 21
152.303334291002
 31
0.0
  0
LINE
  5
   19E
  8
0
  6
DASHDOT
 62
     7
 10
2.94558037290476
 20
148.478374926951
 30
0.0
 11
10.5954415912626
 21
148.478374926951
 31
0.0
  0
LINE
  5
   19F
  8
0
  6
DASHDOT
 62
     7
 10
6.77051098208367
 20
144.653444317772
 30
0.0
 11
6.77051098208367
 21
152.30330553613
 31
0.0
  0
LINE
  5
   1A0
  8
0
  6
DASHDOT
 62
     7
 10
-5.80446348049185
 20
148.478301677739
 30
0.0
 11
1.84556081123893
 21
148.478301677739
 31
0.0
  0
LINE
  5
   1A1
  8
0
  6
DASHDOT
 62
     7
 10
-1.97945133462645
 20
144.653289531873
 30
0.0
 11
-1.97945133462645
 21
152.303313823604
 31
0.0
  0
LINE
  5
   1A2
  8
0
  6
DASHDOT
 62
     7
 10
11.6953464392612
 20
179.728490742913
 30
0.0
 11
19.3456444782969
 21
179.728490742913
 31
0.0
  0
LINE
  5
   1A3
  8
0
  6
DASHDOT
 62
     7
 10
15.5204954587791
 20
175.903341723395
 30
0.0
 11
15.5204954587791
 21
183.553639762431
 31
0.0
  0
LINE
  5
   1A4
  8
0
  6
DASHDOT
 62
     7
 10
2.94559276030111
 20
179.728284498917
 30
0.0
 11
10.5955279858679
 21
179.728284498917
 31
0.0
  0
LINE
  5
   1A5
  8
0
  6
DASHDOT
 62
     7
 10
6.77056037308451
 20
175.903316886134
 30
0.0
 11
6.77056037308451
 21
183.5532521117
 31
0.0
  0
LINE
  5
   1A6
  8
0
  6
DASHDOT
 62
     7
 10
-5.80461743761134
 20
179.728436854469
 30
0.0
 11
1.84560835524004
 21
179.728436854469
 31
0.0
  0
LINE
  5
   1A7
  8
0
  6
DASHDOT
 62
     7
 10
-1.97950454118564
 20
175.903323958044
 30
0.0
 11
-1.97950454118564
 21
183.553549750895
 31
0.0
  0
LINE
  5
   1A8
  8
0
  6
DASHDOT
 62
     7
 10
-14.5545996079324
 20
179.728410259641
 30
0.0
 11
-6.90440947440256
 21
179.728410259641
 31
0.0
  0
LINE
  5
   1A9
  8
0
  6
DASHDOT
 62
     7
 10
-10.7295045411674
 20
175.903315192876
 30
0.0
 11
-10.7295045411674
 21
183.553505326405
 31
0.0
  0
LINE
  5
   1AA
  8
0
  6
DASHDOT
 62
     7
 10
-10.7295041135075
 20
181.153334932446
 30
0.0
 11
-10.7295041135075
 21
188.803329351013
 31
0.0
  0
LINE
  5
   1AB
  8
0
  6
DASHDOT
 62
     7
 10
-1.97942996239992
 20
181.153156975706
 30
0.0
 11
-1.97942996239992
 21
188.803318121481
 31
0.0
  0
LINE
  5
   1AC
  8
0
  6
DASHDOT
 62
     7
 10
6.77061945651264
 20
181.152759686284
 30
0.0
 11
6.77061945651264
 21
188.803329850135
 31
0.0
  0
LINE
  5
   1AD
  8
0
  6
DASHDOT
 62
     7
 10
15.5205331485296
 20
181.153381885267
 30
0.0
 11
15.5205331485296
 21
188.803320400208
 31
0.0
  0
LINE
  5
   1AE
  8
0
  6
DASHDOT
 62
     7
 10
20.9205287737079
 20
207.853305598218
 30
0.0
 11
23.2455377498145
 21
207.853305598218
 31
0.0
  0
LINE
  5
   1AF
  8
0
  6
DASHDOT
 62
     7
 10
22.0830332617612
 20
206.690801110165
 30
0.0
 11
22.0830332617612
 21
209.015810086271
 31
0.0
  0
LINE
  5
   1B0
  8
0
  6
DASHDOT
 62
     7
 10
-18.4544735724645
 20
207.853309174876
 30
0.0
 11
-16.1294676248487
 21
207.853309174876
 31
0.0
  0
LINE
  5
   1B1
  8
0
  6
DASHDOT
 62
     7
 10
-17.2919705986566
 20
206.690806201069
 30
0.0
 11
-17.2919705986566
 21
209.015812148684
 31
0.0
  0
LINE
  5
   1B2
  8
0
  6
DASHDOT
 62
     7
 10
-10.7294622002434
 20
216.903310674789
 30
0.0
 11
-10.7294622002434
 21
224.553284257263
 31
0.0
  0
LINE
  5
   1B3
  8
0
  6
DASHDOT
 62
     7
 10
-1.97945825693814
 20
216.903319798266
 30
0.0
 11
-1.97945825693814
 21
224.553282229083
 31
0.0
  0
LINE
  5
   1B4
  8
0
  6
DASHDOT
 62
     7
 10
6.77054250612271
 20
189.07624089399
 30
0.0
 11
6.77054250612271
 21
224.55327921161
 31
0.0
  0
LINE
  5
   1B5
  8
0
  6
DASHDOT
 62
     7
 10
15.5204647145777
 20
216.903335846617
 30
0.0
 11
15.5204647145777
 21
224.553050490132
 31
0.0
  0
LINE
  5
   1B6
  8
0
  6
DASHDOT
 62
     7
 10
11.6956073928199
 20
225.978303410879
 30
0.0
 11
19.3453220363354
 21
225.978303410879
 31
0.0
  0
LINE
  5
   1B7
  8
0
  6
DASHDOT
 62
     7
 10
15.5204647145777
 20
222.153446089122
 30
0.0
 11
15.5204647145777
 21
229.803160732637
 31
0.0
  0
LINE
  5
   1B8
  8
0
  6
DASHDOT
 62
     7
 10
2.94542969725776
 20
225.978303410879
 30
0.0
 11
10.5955210758164
 21
225.978303410879
 31
0.0
  0
LINE
  5
   1B9
  8
0
  6
DASHDOT
 62
     7
 10
6.77047538653708
 20
222.1532577216
 30
0.0
 11
6.77047538653708
 21
230.513547775438
 31
0.0
  0
LINE
  5
   1BA
  8
0
  6
DASHDOT
 62
     7
 10
-5.8045242125191
 20
225.978206538175
 30
0.0
 11
1.84568705864737
 21
225.978206538175
 31
0.0
  0
LINE
  5
   1BB
  8
0
  6
DASHDOT
 62
     7
 10
-1.97941857693586
 20
222.153100902591
 30
0.0
 11
-1.97941857693586
 21
229.803312173758
 31
0.0
  0
LINE
  5
   1BC
  8
0
  6
DASHDOT
 62
     7
 10
-14.5543151218235
 20
225.978461109148
 30
0.0
 11
-6.90460432531373
 21
225.978461109148
 31
0.0
  0
LINE
  5
   1BD
  8
0
  6
DASHDOT
 62
     7
 10
-10.7294597235686
 20
222.153605710893
 30
0.0
 11
-10.7294597235686
 21
229.803316507403
 31
0.0
  0
LINE
  5
   1BE
  8
0
  6
DASHDOT
 62
     7
 10
-38.5155255102991
 20
164.103313817818
 30
0.0
 11
44.0382706570884
 21
164.103313817818
 31
0.0
  0
LINE
  5
   1BF
  8
0
  6
CONTINUOUS
 62
     7
 10
-15.4794597022872
 20
121.853313817818
 30
0.0
 11
-15.4794597022872
 21
128.853313817818
 31
0.0
  0
LINE
  5
   1C0
  8
0
  6
CONTINUOUS
 62
     7
 10
-15.4794597022872
 20
199.353313817818
 30
0.0
 11
-15.4794597022872
 21
206.353313817818
 31
0.0
  0
ARC
  5
   1C1
  8
0
  6
CONTINUOUS
 62
     7
 10
-14.7294597022872
 20
128.853313817818
 30
0.0
 40
0.75
 50
120.00041082385
 51
180.0
  0
ARC
  5
   1C2
  8
0
  6
CONTINUOUS
 62
     7
 10
-14.7294597022872
 20
199.353313817818
 30
0.0
 40
0.75
 50
180.0
 51
239.999980660076
  0
ARC
  5
   1C3
  8
0
  6
CONTINUOUS
 62
     7
 10
-14.7294597022872
 20
206.353313817818
 30
0.0
 40
0.75
 50
120.00001933995
 51
180.0
  0
ARC
  5
   1C4
  8
0
  6
CONTINUOUS
 62
     7
 10
-14.7294597022872
 20
121.853313817818
 30
0.0
 40
0.75
 50
180.0
 51
239.999589176172
  0
LINE
  5
   1C5
  8
0
  6
DASHDOT
 62
     7
 10
2.39554029771265
 20
79.1648125232813
 30
0.0
 11
2.39554029771265
 21
248.836929451771
 31
0.0
  0
LINE
  5
   1C6
  8
0
  6
DASHDOT
 62
     7
 10
-22.3120031420556
 20
202.278310809425
 30
0.0
 11
27.020664432607
 21
202.278310809425
 31
0.0
  0
LINE
  5
   1C7
  8
0
  6
DASHDOT
 62
     7
 10
-6.3544629921856
 20
141.453336616811
 30
0.0
 11
-6.3544629921856
 21
144.003299569139
 31
0.0
  0
LINE
  5
   1C8
  8
0
  6
DASHDOT
 62
     7
 10
-7.62944446834976
 20
142.728318092975
 30
0.0
 11
-5.07948151602144
 21
142.728318092975
 31
0.0
  0
LINE
  5
   1C9
  8
0
  6
DASHDOT
 62
     7
 10
-6.35443318743089
 20
106.703307969454
 30
0.0
 11
-6.35443318743089
 21
109.253350132996
 31
0.0
  0
LINE
  5
   1CA
  8
0
  6
DASHDOT
 62
     7
 10
-7.6294542692022
 20
107.978329051225
 30
0.0
 11
-5.07941210565959
 21
107.978329051225
 31
0.0
  0
LINE
  5
   1CB
  8
0
  6
DASHDOT
 62
     7
 10
2.39557165258688
 20
141.453282609843
 30
0.0
 11
2.39557165258688
 21
144.003314943459
 31
0.0
  0
LINE
  5
   1CC
  8
0
  6
DASHDOT
 62
     7
 10
1.12055548577904
 20
142.728298776651
 30
0.0
 11
3.67058781939472
 21
142.728298776651
 31
0.0
  0
LINE
  5
   1CD
  8
0
  6
CONTINUOUS
 62
     7
 10
11.1455384515567
 20
121.10331904273
 30
0.0
 11
14.0205384515567
 21
121.10331904273
 31
0.0
  0
LINE
  5
   1CE
  8
0
  6
CONTINUOUS
 62
     7
 10
11.1455384515567
 20
113.97831904273
 30
0.0
 11
14.0205384515567
 21
113.97831904273
 31
0.0
  0
LINE
  5
   1CF
  8
0
  6
CONTINUOUS
 62
     7
 10
14.0205384515567
 20
113.97831904273
 30
0.0
 11
14.0205384515567
 21
121.10331904273
 31
0.0
  0
LINE
  5
   1D0
  8
0
  6
CONTINUOUS
 62
     7
 10
11.1455534157502
 20
109.978305691289
 30
0.0
 11
12.1455152687776
 21
109.978305691289
 31
0.0
  0
LINE
  5
   1D1
  8
0
  6
CONTINUOUS
 62
     7
 10
15.0830419716584
 20
135.35331904273
 30
0.0
 11
15.0830419716584
 21
135.47831904273
 31
0.0
  0
LINE
  5
   1D2
  8
0
  6
CONTINUOUS
 62
     7
 10
12.1454810349989
 20
109.478279998925
 30
0.0
 11
12.145557328944
 21
110.603313377911
 31
0.0
  0
LINE
  5
   1D3
  8
0
  6
CONTINUOUS
 62
     7
 10
13.1455534157502
 20
109.478312367009
 30
0.0
 11
13.1455534157502
 21
110.603313320684
 31
0.0
  0
LINE
  5
   1D4
  8
0
  6
CONTINUOUS
 62
     7
 10
12.1455572304475
 20
110.603313320684
 30
0.0
 11
13.1455534157502
 21
110.603313320684
 31
0.0
  0
LINE
  5
   1D5
  8
0
  6
CONTINUOUS
 62
     7
 10
13.8955572304475
 20
112.228315228032
 30
0.0
 11
14.5205610451448
 21
112.228315228032
 31
0.0
  0
LINE
  5
   1D6
  8
0
  6
CONTINUOUS
 62
     7
 10
13.8955343539422
 20
111.228313328073
 30
0.0
 11
13.8955572421258
 21
112.228314281748
 31
0.0
  0
LINE
  5
   1D7
  8
0
  6
CONTINUOUS
 62
     7
 10
13.8955534160746
 20
111.228314275478
 30
0.0
 11
13.8955572307719
 21
112.228315229153
 31
0.0
  0
LINE
  5
   1D8
  8
0
  6
CONTINUOUS
 62
     7
 10
12.1455572304475
 20
112.228315228032
 30
0.0
 11
13.8955572304475
 21
112.228315228032
 31
0.0
  0
LINE
  5
   1D9
  8
0
  6
CONTINUOUS
 62
     7
 10
12.1454809389953
 20
109.478263729978
 30
0.0
 11
13.8955610476378
 21
109.478277081418
 31
0.0
  0
LINE
  5
   1DA
  8
0
  6
CONTINUOUS
 62
     7
 10
12.1454771220935
 20
108.478296154583
 30
0.0
 11
13.6405523479236
 21
108.47829996928
 31
0.0
  0
LINE
  5
   1DB
  8
0
  6
CONTINUOUS
 62
     7
 10
12.1455572304475
 20
110.603309505986
 30
0.0
 11
12.1455572304475
 21
112.228315228032
 31
0.0
  0
LINE
  5
   1DC
  8
0
  6
CONTINUOUS
 62
     7
 10
11.145549601053
 20
143.47831904273
 30
0.0
 11
11.3955572304475
 21
143.47831904273
 31
0.0
  0
LINE
  5
   1DD
  8
0
  6
CONTINUOUS
 62
     7
 10
11.145549601053
 20
142.47831904273
 30
0.0
 11
11.3955572304475
 21
142.47831904273
 31
0.0
  0
LINE
  5
   1DE
  8
0
  6
CONTINUOUS
 62
     7
 10
11.145549601053
 20
109.47824847083
 30
0.0
 11
11.3954084572542
 21
109.47824847083
 31
0.0
  0
LINE
  5
   1DF
  8
0
  6
CONTINUOUS
 62
     7
 10
11.1455496016661
 20
108.478248470913
 30
0.0
 11
11.3954008284728
 21
108.478249424587
 31
0.0
  0
LINE
  5
   1E0
  8
0
  6
CONTINUOUS
 62
     7
 10
11.145549601053
 20
112.228317135381
 30
0.0
 11
12.1455572304475
 21
112.228317135381
 31
0.0
  0
LINE
  5
   1E1
  8
0
  6
CONTINUOUS
 62
     7
 10
11.145549601053
 20
111.228313320684
 30
0.0
 11
12.1455572304475
 21
111.228313320684
 31
0.0
  0
LINE
  5
   1E2
  8
0
  6
CONTINUOUS
 62
     7
 10
18.5205572304475
 20
135.47831904273
 30
0.0
 11
18.7705534157502
 21
135.47831904273
 31
0.0
  0
LINE
  5
   1E3
  8
0
  6
CONTINUOUS
 62
     7
 10
18.5205572304475
 20
143.478315228032
 30
0.0
 11
18.7705534157502
 21
143.478315228032
 31
0.0
  0
LINE
  5
   1E4
  8
0
  6
CONTINUOUS
 62
     7
 10
17.7705572304475
 20
143.478315228032
 30
0.0
 11
18.5205572304475
 21
143.478315228032
 31
0.0
  0
LINE
  5
   1E5
  8
0
  6
CONTINUOUS
 62
     7
 10
17.7705572304475
 20
135.47831904273
 30
0.0
 11
18.5205572304475
 21
135.47831904273
 31
0.0
  0
LINE
  5
   1E6
  8
0
  6
CONTINUOUS
 62
     7
 10
13.1455305275666
 20
129.478311413335
 30
0.0
 11
13.1455305275666
 21
135.47831904273
 31
0.0
  0
LINE
  5
   1E7
  8
0
  6
CONTINUOUS
 62
     7
 10
13.578052347635
 20
107.478311413335
 30
0.0
 11
13.640552347635
 21
107.478311413335
 31
0.0
  0
LINE
  5
   1E8
  8
0
  6
CONTINUOUS
 62
     7
 10
13.640552347635
 20
107.290811413335
 30
0.0
 11
18.7705572304475
 21
107.290811413335
 31
0.0
  0
LINE
  5
   1E9
  8
0
  6
CONTINUOUS
 62
     7
 10
18.7705572304475
 20
107.290811413335
 30
0.0
 11
18.7705572304475
 21
108.478309505986
 31
0.0
  0
LINE
  5
   1EA
  8
0
  6
CONTINUOUS
 62
     7
 10
13.640552347635
 20
107.290811413335
 30
0.0
 11
13.640552347635
 21
108.478309505986
 31
0.0
  0
LINE
  5
   1EB
  8
0
  6
CONTINUOUS
 62
     7
 10
11.3955457863557
 20
107.915811413335
 30
0.0
 11
13.5780370888459
 21
107.915811413335
 31
0.0
  0
LINE
  5
   1EC
  8
0
  6
CONTINUOUS
 62
     7
 10
11.3955305275666
 20
107.290811413335
 30
0.0
 11
13.640552347635
 21
107.290811413335
 31
0.0
  0
LINE
  5
   1ED
  8
0
  6
CONTINUOUS
 62
     7
 10
11.3955305382092
 20
107.290811419719
 30
0.0
 11
11.39555724109
 21
108.478175043857
 31
0.0
  0
LINE
  5
   1EE
  8
0
  6
CONTINUOUS
 62
     7
 10
11.3955572304475
 20
136.85331904273
 30
0.0
 11
11.3955572304475
 21
140.16581904273
 31
0.0
  0
LINE
  5
   1EF
  8
0
  6
CONTINUOUS
 62
     7
 10
13.1455572304475
 20
138.35331904273
 30
0.0
 11
13.1455572304475
 21
140.16581904273
 31
0.0
  0
LINE
  5
   1F0
  8
0
  6
CONTINUOUS
 62
     7
 10
13.1455572304475
 20
138.35331904273
 30
0.0
 11
14.1455572304475
 21
138.35331904273
 31
0.0
  0
LINE
  5
   1F1
  8
0
  6
CONTINUOUS
 62
     7
 10
14.1455631739038
 20
138.35332474096
 30
0.0
 11
14.5205631821415
 21
138.728324749198
 31
0.0
  0
LINE
  5
   1F2
  8
0
  6
CONTINUOUS
 62
     7
 10
14.3330632717961
 20
138.540817362506
 30
0.0
 11
14.5205747136712
 21
138.728321170223
 31
0.0
  0
LINE
  5
   1F3
  8
0
  6
CONTINUOUS
 62
     7
 10
14.5205686746984
 20
140.165819049804
 30
0.0
 11
14.5205724893958
 21
138.728319044449
 31
0.0
  0
LINE
  5
   1F4
  8
0
  6
CONTINUOUS
 62
     7
 10
14.5205572304475
 20
138.72831904273
 30
0.0
 11
14.5205572304475
 21
140.16581904273
 31
0.0
  0
LINE
  5
   1F5
  8
0
  6
CONTINUOUS
 62
     7
 10
12.3955572304475
 20
135.47831904273
 30
0.0
 11
12.3955572304475
 21
136.22831904273
 31
0.0
  0
LINE
  5
   1F6
  8
0
  6
CONTINUOUS
 62
     7
 10
12.3955572304475
 20
135.47831904273
 30
0.0
 11
12.8955572304475
 21
135.47831904273
 31
0.0
  0
LINE
  5
   1F7
  8
0
  6
CONTINUOUS
 62
     7
 10
12.3955572304475
 20
136.22831904273
 30
0.0
 11
12.8955572304475
 21
136.22831904273
 31
0.0
  0
LINE
  5
   1F8
  8
0
  6
CONTINUOUS
 62
     7
 10
12.3955572304475
 20
136.478315228032
 30
0.0
 11
12.3955572304475
 21
137.60331904273
 31
0.0
  0
LINE
  5
   1F9
  8
0
  6
CONTINUOUS
 62
     7
 10
12.8955572304475
 20
135.47831904273
 30
0.0
 11
17.7705572304475
 21
135.47831904273
 31
0.0
  0
LINE
  5
   1FA
  8
0
  6
CONTINUOUS
 62
     7
 10
11.3955572304475
 20
143.478315228032
 30
0.0
 11
17.7705572304475
 21
143.478315228032
 31
0.0
  0
LINE
  5
   1FB
  8
0
  6
CONTINUOUS
 62
     7
 10
11.3955572304475
 20
140.16581904273
 30
0.0
 11
11.3955572304475
 21
143.478315228032
 31
0.0
  0
LINE
  5
   1FC
  8
0
  6
CONTINUOUS
 62
     7
 10
11.3955572304475
 20
140.16581904273
 30
0.0
 11
15.2705572304475
 21
140.16581904273
 31
0.0
  0
LINE
  5
   1FD
  8
0
  6
CONTINUOUS
 62
     7
 10
15.2705572304475
 20
137.60331904273
 30
0.0
 11
15.2705572304475
 21
140.16581904273
 31
0.0
  0
LINE
  5
   1FE
  8
0
  6
CONTINUOUS
 62
     7
 10
12.3955572304475
 20
137.60331904273
 30
0.0
 11
15.2705572304475
 21
137.60331904273
 31
0.0
  0
LINE
  5
   1FF
  8
0
  6
CONTINUOUS
 62
     7
 10
12.3955572304475
 20
136.22831904273
 30
0.0
 11
12.3955572304475
 21
136.478315228032
 31
0.0
  0
LINE
  5
   200
  8
0
  6
CONTINUOUS
 62
     7
 10
11.3955572304475
 20
136.85331904273
 30
0.0
 11
12.3955572304475
 21
136.85331904273
 31
0.0
  0
LINE
  5
   201
  8
0
  6
CONTINUOUS
 62
     7
 10
14.5205572304475
 20
119.165803783941
 30
0.0
 11
14.5205572304475
 21
127.978307598638
 31
0.0
  0
LINE
  5
   202
  8
0
  6
CONTINUOUS
 62
     7
 10
14.5205743660953
 20
112.228315228044
 30
0.0
 11
14.5205743660953
 21
116.540803783952
 31
0.0
  0
LINE
  5
   203
  8
0
  6
CONTINUOUS
 62
     7
 10
13.1455572305319
 20
127.978307598667
 30
0.0
 11
14.5205572305319
 21
127.978309506016
 31
0.0
  0
LINE
  5
   204
  8
0
  6
CONTINUOUS
 62
     7
 10
14.5205572305295
 20
127.978307598666
 30
0.0
 11
18.7705534158322
 21
127.978313320712
 31
0.0
  0
LINE
  5
   205
  8
0
  6
CONTINUOUS
 62
     7
 10
15.7705572304475
 20
135.35331904273
 30
0.0
 11
15.7705572304475
 21
135.47831904273
 31
0.0
  0
LINE
  5
   206
  8
0
  6
CONTINUOUS
 62
     7
 10
14.0206047046738
 20
119.165803783941
 30
0.0
 11
14.5205534157502
 21
119.165803783941
 31
0.0
  0
LINE
  5
   207
  8
0
  6
CONTINUOUS
 62
     7
 10
14.5205572304475
 20
119.165803783941
 30
0.0
 11
15.3955572304475
 21
119.165803783941
 31
0.0
  0
LINE
  5
   208
  8
0
  6
CONTINUOUS
 62
     7
 10
14.0206047046738
 20
116.540803783941
 30
0.0
 11
14.5205534157502
 21
116.540803783941
 31
0.0
  0
LINE
  5
   209
  8
0
  6
CONTINUOUS
 62
     7
 10
14.5205572304475
 20
116.540803783941
 30
0.0
 11
15.3955572304475
 21
116.540803783941
 31
0.0
  0
LINE
  5
   20A
  8
0
  6
CONTINUOUS
 62
     7
 10
13.1455586995977
 20
112.978315246563
 30
0.0
 11
13.8955587160729
 21
112.228314281783
 31
0.0
  0
LINE
  5
   20B
  8
0
  6
CONTINUOUS
 62
     7
 10
16.2080572304475
 20
135.35331904273
 30
0.0
 11
16.2080572304475
 21
135.47831904273
 31
0.0
  0
LINE
  5
   20C
  8
0
  6
CONTINUOUS
 62
     7
 10
16.8330572304475
 20
135.35331904273
 30
0.0
 11
16.8330572304475
 21
135.47831904273
 31
0.0
  0
LINE
  5
   20D
  8
0
  6
CONTINUOUS
 62
     7
 10
18.7705584630579
 20
108.478307598638
 30
0.0
 11
18.7705584630579
 21
143.478315228033
 31
0.0
  0
LINE
  5
   20E
  8
0
  6
CONTINUOUS
 62
     7
 10
19.0205534157502
 20
121.728303783941
 30
0.0
 11
19.0205534157502
 21
126.728303783941
 31
0.0
  0
LINE
  5
   20F
  8
0
  6
CONTINUOUS
 62
     7
 10
12.8955572304475
 20
127.978307598638
 30
0.0
 11
13.1455572304475
 21
127.978307598638
 31
0.0
  0
LINE
  5
   210
  8
0
  6
CONTINUOUS
 62
     7
 10
12.8955562489914
 20
113.228315188728
 30
0.0
 11
13.1455562404343
 21
112.978315197285
 31
0.0
  0
LINE
  5
   211
  8
0
  6
CONTINUOUS
 62
     7
 10
12.8955572304475
 20
113.228315228032
 30
0.0
 11
12.8955572304475
 21
113.851680630252
 31
0.0
  0
LINE
  5
   212
  8
0
  6
CONTINUOUS
 62
     7
 10
13.8955534161737
 20
111.228314274755
 30
0.0
 11
13.8955610455685
 21
109.478272309286
 31
0.0
  0
LINE
  5
   213
  8
0
  6
CONTINUOUS
 62
     7
 10
13.8955267129753
 20
109.478312371807
 30
0.0
 11
13.8955305276725
 21
111.228310455147
 31
0.0
  0
LINE
  5
   214
  8
0
  6
CONTINUOUS
 62
     7
 10
11.3954084746705
 20
109.478248473377
 30
0.0
 11
12.1454809539185
 21
109.478263732167
 31
0.0
  0
LINE
  5
   215
  8
0
  6
CONTINUOUS
 62
     7
 10
11.3954008290845
 20
108.478279945605
 30
0.0
 11
11.395408458479
 21
109.478248471617
 31
0.0
  0
LINE
  5
   216
  8
0
  6
CONTINUOUS
 62
     7
 10
11.3954008475208
 20
108.478279944725
 30
0.0
 11
12.1454771414661
 21
108.478296157189
 31
0.0
  0
LINE
  5
   217
  8
0
  6
CONTINUOUS
 62
     7
 10
11.395531007689
 20
108.478175102443
 30
0.0
 11
12.1455424517808
 21
108.478255211085
 31
0.0
  0
LINE
  5
   218
  8
0
  6
CONTINUOUS
 62
     7
 10
11.3955496707336
 20
109.478248481022
 30
0.0
 11
12.145542041339
 21
109.478278998599
 31
0.0
  0
LINE
  5
   219
  8
0
  6
CONTINUOUS
 62
     7
 10
11.145549601053
 20
136.478315228032
 30
0.0
 11
12.3955572304475
 21
136.478315228032
 31
0.0
  0
LINE
  5
   21A
  8
0
  6
CONTINUOUS
 62
     7
 10
11.145549601053
 20
140.478315228032
 30
0.0
 11
11.3955572304475
 21
140.478315228032
 31
0.0
  0
LINE
  5
   21B
  8
0
  6
CONTINUOUS
 62
     7
 10
12.8955572304475
 20
135.47831904273
 30
0.0
 11
12.8955572304475
 21
136.228315228032
 31
0.0
  0
LINE
  5
   21C
  8
0
  6
CONTINUOUS
 62
     7
 10
12.8765265165161
 20
136.323989302575
 30
0.0
 11
12.8955580407579
 21
136.228316693169
 31
0.0
  0
LINE
  5
   21D
  8
0
  6
CONTINUOUS
 62
     7
 10
12.8223323461711
 20
136.405090013151
 30
0.0
 11
12.8765239332544
 21
136.323985736195
 31
0.0
  0
LINE
  5
   21E
  8
0
  6
CONTINUOUS
 62
     7
 10
12.7412273193974
 20
136.459282275548
 30
0.0
 11
12.8223315963534
 21
136.405090688464
 31
0.0
  0
LINE
  5
   21F
  8
0
  6
CONTINUOUS
 62
     7
 10
12.64555889309
 20
136.478315925577
 30
0.0
 11
12.7412315024956
 21
136.459284401335
 31
0.0
  0
LINE
  5
   220
  8
0
  6
CONTINUOUS
 62
     7
 10
12.3955572304475
 20
136.478315228032
 30
0.0
 11
12.6455572304475
 21
136.478315228032
 31
0.0
  0
LINE
  5
   221
  8
0
  6
CONTINUOUS
 62
     7
 10
14.5205572304475
 20
135.35331904273
 30
0.0
 11
16.1455572304475
 21
135.35331904273
 31
0.0
  0
LINE
  5
   222
  8
0
  6
CONTINUOUS
 62
     7
 10
14.5205572304475
 20
127.978307598638
 30
0.0
 11
14.5205572304475
 21
135.35331904273
 31
0.0
  0
LINE
  5
   223
  8
0
  6
CONTINUOUS
 62
     7
 10
16.8955572304475
 20
135.35331904273
 30
0.0
 11
18.5205572304475
 21
135.35331904273
 31
0.0
  0
LINE
  5
   224
  8
0
  6
CONTINUOUS
 62
     7
 10
18.5205572304475
 20
127.978313320684
 30
0.0
 11
18.5205572304475
 21
135.35331904273
 31
0.0
  0
LINE
  5
   225
  8
0
  6
CONTINUOUS
 62
     7
 10
16.1455572307504
 20
127.978315228132
 30
0.0
 11
16.8955572307504
 21
127.978317135481
 31
0.0
  0
LINE
  5
   226
  8
0
  6
CONTINUOUS
 62
     7
 10
16.1455572304475
 20
135.35331904273
 30
0.0
 11
16.8955572304475
 21
135.35331904273
 31
0.0
  0
LINE
  5
   227
  8
0
  6
CONTINUOUS
 62
     7
 10
12.8955572304475
 20
129.478307598638
 30
0.0
 11
14.5205572304475
 21
129.478307598638
 31
0.0
  0
LINE
  5
   228
  8
0
  6
CONTINUOUS
 62
     7
 10
12.8955572304475
 20
127.978309505986
 30
0.0
 11
12.8955572304475
 21
129.478307598638
 31
0.0
  0
LINE
  5
   229
  8
0
  6
CONTINUOUS
 62
     7
 10
11.145549601053
 20
138.22831904273
 30
0.0
 11
11.3955572304475
 21
138.22831904273
 31
0.0
  0
LINE
  5
   22A
  8
0
  6
CONTINUOUS
 62
     7
 10
11.145549601053
 20
137.22831904273
 30
0.0
 11
11.3955572304475
 21
137.22831904273
 31
0.0
  0
LINE
  5
   22B
  8
0
  6
CONTINUOUS
 62
     7
 10
12.3955534157502
 20
109.478311413335
 30
0.0
 11
12.3955534157502
 21
110.603313320684
 31
0.0
  0
LINE
  5
   22C
  8
0
  6
CONTINUOUS
 62
     7
 10
13.578052347635
 20
107.478311413335
 30
0.0
 11
13.578052347635
 21
108.478311413335
 31
0.0
  0
LINE
  5
   22D
  8
0
  6
CONTINUOUS
 62
     7
 10
13.7705572304475
 20
139.10331904273
 30
0.0
 11
13.7705572304475
 21
140.16581904273
 31
0.0
  0
LINE
  5
   22E
  8
0
  6
CONTINUOUS
 62
     7
 10
13.7705564216031
 20
139.103318373007
 30
0.0
 11
14.3330564286913
 21
138.540818365918
 31
0.0
  0
LINE
  5
   22F
  8
0
  6
CONTINUOUS
 62
     7
 10
13.1455572304475
 20
139.10331904273
 30
0.0
 11
13.7705572304475
 21
139.10331904273
 31
0.0
  0
LINE
  5
   230
  8
0
  6
CONTINUOUS
 62
     7
 10
11.3955572304475
 20
140.91581904273
 30
0.0
 11
16.0205572304475
 21
140.91581904273
 31
0.0
  0
LINE
  5
   231
  8
0
  6
CONTINUOUS
 62
     7
 10
12.3955572304475
 20
136.85331904273
 30
0.0
 11
16.0205572304475
 21
136.85331904273
 31
0.0
  0
LINE
  5
   232
  8
0
  6
CONTINUOUS
 62
     7
 10
15.2705605878727
 20
137.603321489193
 30
0.0
 11
16.0205606043482
 21
136.853321472718
 31
0.0
  0
LINE
  5
   233
  8
0
  6
CONTINUOUS
 62
     7
 10
16.0205572304475
 20
136.85331904273
 30
0.0
 11
16.0205572304475
 21
140.91581904273
 31
0.0
  0
LINE
  5
   234
  8
0
  6
CONTINUOUS
 62
     7
 10
15.2705633902973
 20
140.16582500354
 30
0.0
 11
16.0205634067727
 21
140.915825020015
 31
0.0
  0
LINE
  5
   235
  8
0
  6
CONTINUOUS
 62
     7
 10
18.7705572304475
 20
126.728303783941
 30
0.0
 11
19.0205534157502
 21
126.728303783941
 31
0.0
  0
LINE
  5
   236
  8
0
  6
CONTINUOUS
 62
     7
 10
18.7705534157502
 20
121.728303783941
 30
0.0
 11
19.0205534157502
 21
121.728303783941
 31
0.0
  0
LINE
  5
   237
  8
0
  6
CONTINUOUS
 62
     7
 10
14.5205648604268
 20
109.478302826932
 30
0.0
 11
14.5205686751241
 21
108.728329530724
 31
0.0
  0
LINE
  5
   238
  8
0
  6
CONTINUOUS
 62
     7
 10
14.5205534167169
 20
111.228312364174
 30
0.0
 11
14.5205648608083
 21
109.47830282862
 31
0.0
  0
LINE
  5
   239
  8
0
  6
CONTINUOUS
 62
     7
 10
14.520553417066
 20
111.228312367321
 30
0.0
 11
14.5205610464605
 21
112.228315228353
 31
0.0
  0
LINE
  5
   23A
  8
0
  6
CONTINUOUS
 62
     7
 10
11.395404645006
 20
108.728308552649
 30
0.0
 11
12.1454771242541
 21
108.728314274695
 31
0.0
  0
LINE
  5
   23B
  8
0
  6
CONTINUOUS
 62
     7
 10
12.1454771235729
 20
108.728314274597
 30
0.0
 11
14.5205686763073
 21
108.728329533385
 31
0.0
  0
LINE
  5
   23C
  8
0
  6
CONTINUOUS
 62
     7
 10
13.8955616241334
 20
109.478272275423
 30
0.0
 11
14.5205692493955
 21
108.728329494986
 31
0.0
  0
LINE
  5
   23D
  8
0
  6
CONTINUOUS
 62
     7
 10
14.5205572304475
 20
115.915803783941
 30
0.0
 11
15.3955572304475
 21
115.915803783941
 31
0.0
  0
LINE
  5
   23E
  8
0
  6
CONTINUOUS
 62
     7
 10
14.5205572304475
 20
119.790803783941
 30
0.0
 11
15.3955572304475
 21
119.790803783941
 31
0.0
  0
LINE
  5
   23F
  8
0
  6
CONTINUOUS
 62
     7
 10
15.3955572304475
 20
115.915803783941
 30
0.0
 11
15.3955572304475
 21
116.540803783941
 31
0.0
  0
LINE
  5
   240
  8
0
  6
CONTINUOUS
 62
     7
 10
15.3955572304475
 20
119.165803783941
 30
0.0
 11
15.3955572304475
 21
119.790803783941
 31
0.0
  0
LINE
  5
   241
  8
0
  6
CONTINUOUS
 62
     7
 10
12.8955572304475
 20
128.103309505986
 30
0.0
 11
14.5205572304475
 21
128.103309505986
 31
0.0
  0
CIRCLE
  5
   242
  8
0
  6
CONTINUOUS
 62
     7
 10
15.3956283629022
 20
117.853281387883
 30
0.0
 40
1.31245477015101
  0
ARC
  5
   243
  8
0
  6
CONTINUOUS
 62
     7
 10
15.3955560998782
 20
117.853309522506
 30
0.0
 40
1.93749829259581
 50
0.0
 51
90.0
  0
ARC
  5
   244
  8
0
  6
CONTINUOUS
 62
     7
 10
15.3955560998782
 20
117.853309522506
 30
0.0
 40
1.93749829259581
 50
270.0
 51
360.0
  0
LINE
  5
   245
  8
0
  6
DASHDOT
 62
     7
 10
15.3956283629022
 20
115.790826617732
 30
0.0
 11
15.3956283629022
 21
119.915736158034
 31
0.0
  0
LINE
  5
   246
  8
0
  6
DASHDOT
 62
     7
 10
13.3331735927512
 20
117.853281387883
 30
0.0
 11
17.4580831330532
 21
117.853281387883
 31
0.0
  0
LINE
  5
   247
  8
0
  6
CONTINUOUS
 62
     7
 10
12.8955572304475
 20
120.976677769257
 30
0.0
 11
12.8955572304475
 21
127.978307598638
 31
0.0
  0
LINE
  5
   248
  8
0
  6
CONTINUOUS
 62
     7
 10
-14.9794542136443
 20
137.91581904273
 30
0.0
 11
11.0205457863557
 21
137.91581904273
 31
0.0
  0
LINE
  5
   249
  8
0
  6
CONTINUOUS
 62
     7
 10
-14.9794542136443
 20
111.66581904273
 30
0.0
 11
11.0205457863557
 21
111.66581904273
 31
0.0
  0
ARC
  5
   24A
  8
0
  6
CONTINUOUS
 62
     7
 10
-14.9794542136443
 20
137.79081904273
 30
0.0
 40
0.125
 50
90.0
 51
180.0
  0
ARC
  5
   24B
  8
0
  6
CONTINUOUS
 62
     7
 10
11.0205457863557
 20
137.79081904273
 30
0.0
 40
0.125
 50
0.0
 51
90.0
  0
ARC
  5
   24C
  8
0
  6
CONTINUOUS
 62
     7
 10
11.0205457863557
 20
111.79081904273
 30
0.0
 40
0.125
 50
270.0
 51
360.0
  0
ARC
  5
   24D
  8
0
  6
CONTINUOUS
 62
     7
 10
-14.9794542136443
 20
111.79081904273
 30
0.0
 40
0.125
 50
180.0
 51
270.0
  0
LINE
  5
   24E
  8
0
  6
CONTINUOUS
 62
     7
 10
-14.9169542136443
 20
137.72831904273
 30
0.0
 11
10.9580457863557
 21
137.72831904273
 31
0.0
  0
LINE
  5
   24F
  8
0
  6
CONTINUOUS
 62
     7
 10
-14.9169542136443
 20
111.85331904273
 30
0.0
 11
10.9580457863557
 21
111.85331904273
 31
0.0
  0
LINE
  5
   250
  8
0
  6
CONTINUOUS
 62
     7
 10
-14.9169542136443
 20
111.85331904273
 30
0.0
 11
-14.9169542136443
 21
137.72831904273
 31
0.0
  0
LINE
  5
   251
  8
0
  6
CONTINUOUS
 62
     7
 10
10.9580457863557
 20
111.85331904273
 30
0.0
 11
10.9580457863557
 21
137.72831904273
 31
0.0
  0
LINE
  5
   252
  8
0
  6
CONTINUOUS
 62
     7
 10
-14.9169542136443
 20
134.91581904273
 30
0.0
 11
10.9580457863557
 21
134.91581904273
 31
0.0
  0
LINE
  5
   253
  8
0
  6
CONTINUOUS
 62
     7
 10
-14.9169542136443
 20
137.41581904273
 30
0.0
 11
10.9580457863557
 21
137.41581904273
 31
0.0
  0
LINE
  5
   254
  8
0
  6
CONTINUOUS
 62
     7
 10
2.52054578635571
 20
111.85331904273
 30
0.0
 11
2.52054578635571
 21
134.91581904273
 31
0.0
  0
LINE
  5
   255
  8
0
  6
CONTINUOUS
 62
     7
 10
10.0205457863557
 20
111.85331904273
 30
0.0
 11
10.0205457863557
 21
134.91581904273
 31
0.0
  0
LINE
  5
   256
  8
0
  6
CONTINUOUS
 62
     7
 10
2.27054578635571
 20
111.85331904273
 30
0.0
 11
2.27054578635571
 21
134.91581904273
 31
0.0
  0
LINE
  5
   257
  8
0
  6
CONTINUOUS
 62
     7
 10
10.2705457863557
 20
111.85331904273
 30
0.0
 11
10.2705457863557
 21
134.91581904273
 31
0.0
  0
CIRCLE
  5
   258
  8
0
  6
CONTINUOUS
 62
     7
 10
6.27054578635571
 20
130.29081904273
 30
0.0
 40
2.6875
  0
CIRCLE
  5
   259
  8
0
  6
CONTINUOUS
 62
     7
 10
6.27054578635571
 20
117.96581904273
 30
0.0
 40
2.6875
  0
LINE
  5
   25A
  8
0
  6
DASHDOT
 62
     7
 10
6.27054578635571
 20
126.85331904273
 30
0.0
 11
6.27054578635571
 21
133.72831904273
 31
0.0
  0
LINE
  5
   25B
  8
0
  6
DASHDOT
 62
     7
 10
2.83304578635571
 20
130.29081904273
 30
0.0
 11
9.70804578635571
 21
130.29081904273
 31
0.0
  0
LINE
  5
   25C
  8
0
  6
DASHDOT
 62
     7
 10
6.27054578635571
 20
114.52831904273
 30
0.0
 11
6.27054578635571
 21
121.40331904273
 31
0.0
  0
LINE
  5
   25D
  8
0
  6
DASHDOT
 62
     7
 10
2.83304578635571
 20
117.96581904273
 30
0.0
 11
9.70804578635571
 21
117.96581904273
 31
0.0
  0
LINE
  5
   25E
  8
0
  6
DASHDOT
 62
     7
 10
-2.71121686495725
 20
114.16581904273
 30
0.0
 11
-1.32935165618198
 21
114.16581904273
 31
0.0
  0
LINE
  5
   25F
  8
0
  6
DASHDOT
 62
     7
 10
-1.97945421364429
 20
113.459495794332
 30
0.0
 11
-1.97945421364429
 21
114.77678786251
 31
0.0
  0
ARC
  5
   260
  8
0
  6
CONTINUOUS
 62
     7
 10
-7.04195421364429
 20
119.04081904273
 30
0.0
 40
1.3125
 50
0.0
 51
180.0
  0
ARC
  5
   261
  8
0
  6
CONTINUOUS
 62
     7
 10
-7.04195421364429
 20
116.54081904273
 30
0.0
 40
1.3125
 50
1.56165987539836
 51
360.0
  0
LINE
  5
   262
  8
0
  6
CONTINUOUS
 62
     7
 10
-5.72945421364429
 20
116.54081904273
 30
0.0
 11
-5.72945421364429
 21
119.04081904273
 31
0.0
  0
LINE
  5
   263
  8
0
  6
CONTINUOUS
 62
     7
 10
-8.35445421364429
 20
116.54081904273
 30
0.0
 11
-8.35445421364429
 21
119.04081904273
 31
0.0
  0
LINE
  5
   264
  8
0
  6
DASHDOT
 62
     7
 10
-7.04195421364429
 20
114.47831904273
 30
0.0
 11
-7.04195421364429
 21
118.60331904273
 31
0.0
  0
LINE
  5
   265
  8
0
  6
DASHDOT
 62
     7
 10
-9.10445421364429
 20
116.54081904273
 30
0.0
 11
-4.97945421364429
 21
116.54081904273
 31
0.0
  0
LINE
  5
   266
  8
0
  6
CONTINUOUS
 62
     7
 10
-8.33042472164981
 20
116.79081904273
 30
0.0
 11
-5.75348370563877
 21
116.79081904273
 31
0.0
  0
LINE
  5
   267
  8
0
  6
CONTINUOUS
 62
     7
 10
-8.33042472164981
 20
116.29081904273
 30
0.0
 11
-5.75348370563877
 21
116.29081904273
 31
0.0
  0
LINE
  5
   268
  8
0
  6
CONTINUOUS
 62
     7
 10
8.08304578635571
 20
126.97831904273
 30
0.0
 11
8.70804578635571
 21
126.97831904273
 31
0.0
  0
LINE
  5
   269
  8
0
  6
CONTINUOUS
 62
     7
 10
8.08304578635571
 20
122.60331904273
 30
0.0
 11
8.70804578635571
 21
122.60331904273
 31
0.0
  0
LINE
  5
   26A
  8
0
  6
CONTINUOUS
 62
     7
 10
8.08304578635571
 20
122.60331904273
 30
0.0
 11
8.08304578635571
 21
126.97831904273
 31
0.0
  0
LINE
  5
   26B
  8
0
  6
CONTINUOUS
 62
     7
 10
8.70804578635571
 20
122.60331904273
 30
0.0
 11
8.70804578635571
 21
126.97831904273
 31
0.0
  0
LINE
  5
   26C
  8
0
  6
CONTINUOUS
 62
     1
 10
-10.0419542136443
 20
132.79081904273
 30
0.0
 11
-10.0419542136443
 21
134.380821383553
 31
0.0
  0
LINE
  5
   26D
  8
0
  6
CONTINUOUS
 62
     1
 10
-10.0419542136443
 20
132.79081904273
 30
0.0
 11
-8.41695421364429
 21
132.79081904273
 31
0.0
  0
LINE
  5
   26E
  8
0
  6
CONTINUOUS
 62
     1
 10
-8.41695421364429
 20
123.072150849573
 30
0.0
 11
-8.41695421364429
 21
132.79081904273
 31
0.0
  0
ARC
  5
   26F
  8
0
  6
CONTINUOUS
 62
     1
 10
-7.04195421364429
 20
129.04081904273
 30
0.0
 40
5.75
 50
146.0
 51
256.164776385962
  0
ARC
  5
   270
  8
0
  6
CONTINUOUS
 62
     1
 10
-7.04195421364429
 20
129.04081904273
 30
0.0
 40
6.125
 50
119.327168765378
 51
257.027121849249
  0
LINE
  5
   271
  8
0
  6
CONTINUOUS
 62
     1
 10
-12.1198093455439
 20
132.465875576488
 30
0.0
 11
-11.8089202558358
 21
132.256178237686
 31
0.0
  0
LINE
  5
   272
  8
0
  6
CONTINUOUS
 62
     1
 10
-11.7919542136443
 20
129.04081904273
 30
0.0
 11
-9.91695421364429
 21
130.91581904273
 31
0.0
  0
LINE
  5
   273
  8
0
  6
CONTINUOUS
 62
     1
 10
-11.7919542136443
 20
129.04081904273
 30
0.0
 11
-9.9169542136443
 21
127.16581904273
 31
0.0
  0
LINE
  5
   274
  8
0
  6
CONTINUOUS
 62
     1
 10
-9.91695421364429
 20
127.16581904273
 30
0.0
 11
-9.91695421364429
 21
130.91581904273
 31
0.0
  0
ARC
  5
   275
  8
0
  6
CONTINUOUS
 62
     1
 10
-7.04195421364429
 20
129.04081904273
 30
0.0
 40
5.625
 50
284.149004508935
 51
435.850995491065
  0
LINE
  5
   276
  8
0
  6
CONTINUOUS
 62
     1
 10
-5.66695421364429
 20
123.586462985412
 30
0.0
 11
-5.66695421364429
 21
134.495175100048
 31
0.0
  0
LINE
  5
   277
  8
0
  6
CONTINUOUS
 62
     1
 10
-5.66695421364429
 20
131.04081904273
 30
0.0
 11
-1.78451900244102
 21
131.04081904273
 31
0.0
  0
LINE
  5
   278
  8
0
  6
CONTINUOUS
 62
     1
 10
-5.66695421364429
 20
127.04081904273
 30
0.0
 11
-1.78451900244102
 21
127.04081904273
 31
0.0
  0
LINE
  5
   279
  8
0
  6
CONTINUOUS
 62
     1
 10
-5.79195421364429
 20
123.55646630061
 30
0.0
 11
-5.79195421364429
 21
134.52517178485
 31
0.0
  0
LINE
  5
   27A
  8
0
  6
CONTINUOUS
 62
     1
 10
-8.04195421364429
 20
122.04081904273
 30
0.0
 11
-8.04195421364429
 21
134.363236256741
 31
0.0
  0
ARC
  5
   27B
  8
0
  6
CONTINUOUS
 62
     1
 10
-7.04195421364429
 20
129.04081904273
 30
0.0
 40
5.625
 50
77.1604115930958
 51
87.4526818174296
  0
LINE
  5
   27C
  8
0
  6
CONTINUOUS
 62
     1
 10
-6.79195421364429
 20
123.421377344482
 30
0.0
 11
-6.79195421364429
 21
134.660260740977
 31
0.0
  0
LINE
  5
   27D
  8
0
  6
CONTINUOUS
 62
     1
 10
-7.29195421364429
 20
122.04081904273
 30
0.0
 11
-7.29195421364429
 21
134.660260740977
 31
0.0
  0
ARC
  5
   27E
  8
0
  6
CONTINUOUS
 62
     1
 10
-7.04195421364429
 20
129.04081904273
 30
0.0
 40
5.625
 50
92.5473181825704
 51
116.387799961243
  0
ARC
  5
   27F
  8
0
  6
CONTINUOUS
 62
     1
 10
-7.04195421364429
 20
129.04081904273
 30
0.0
 40
5.625
 50
259.759651678814
 51
267.45268181743
  0
LINE
  5
   280
  8
0
  6
CONTINUOUS
 62
     1
 10
-7.29195421364429
 20
133.66581904273
 30
0.0
 11
-6.79195421364429
 21
133.66581904273
 31
0.0
  0
LINE
  5
   281
  8
0
  6
CONTINUOUS
 62
     1
 10
-7.29195421364429
 20
124.41581904273
 30
0.0
 11
-6.79195421364429
 21
124.41581904273
 31
0.0
  0
LINE
  5
   282
  8
0
  6
CONTINUOUS
 62
     1
 10
-9.54195421364429
 20
133.29081904273
 30
0.0
 11
-9.54195421364429
 21
134.079730135416
 31
0.0
  0
LINE
  5
   283
  8
0
  6
CONTINUOUS
 62
     1
 10
-9.29195421364429
 20
133.04081904273
 30
0.0
 11
-8.04195421364429
 21
133.04081904273
 31
0.0
  0
ARC
  5
   284
  8
0
  6
CONTINUOUS
 62
     1
 10
-9.29195421364429
 20
133.29081904273
 30
0.0
 40
0.25
 50
180.0
 51
270.0
  0
ARC
  5
   285
  8
0
  6
CONTINUOUS
 62
     1
 10
-7.79195421364429
 20
134.363236256741
 30
0.0
 40
0.25
 50
98.0209328752446
 51
180.0
  0
LINE
  5
   286
  8
0
  6
CONTINUOUS
 62
     1
 10
-8.04195421364429
 20
122.04081904273
 30
0.0
 11
-7.29195421364429
 21
122.04081904273
 31
0.0
  0
ARC
  5
   287
  8
0
  6
CONTINUOUS
 62
     1
 10
-7.04195421364429
 20
129.04081904273
 30
0.0
 40
5.625
 50
272.54731818257
 51
282.839588406904
  0
CIRCLE
  5
   288
  8
0
  6
CONTINUOUS
 62
     7
 10
-13.8544542136443
 20
129.04081904273
 30
0.0
 40
0.625
  0
CIRCLE
  5
   289
  8
0
  6
CONTINUOUS
 62
     7
 10
-13.8544542136443
 20
129.04081904273
 30
0.0
 40
0.375
  0
LINE
  5
   28A
  8
0
  6
CONTINUOUS
 62
     7
 10
-7.29195421364429
 20
121.22831904273
 30
0.0
 11
-7.29195421364429
 21
123.22831904273
 31
0.0
  0
LINE
  5
   28B
  8
0
  6
CONTINUOUS
 62
     7
 10
-6.79195421364429
 20
121.22831904273
 30
0.0
 11
-6.79195421364429
 21
123.22831904273
 31
0.0
  0
LINE
  5
   28C
  8
0
  6
CONTINUOUS
 62
     7
 10
-7.29195421364429
 20
123.22831904273
 30
0.0
 11
-6.79195421364429
 21
123.22831904273
 31
0.0
  0
LINE
  5
   28D
  8
0
  6
CONTINUOUS
 62
     7
 10
-7.29195421364429
 20
121.22831904273
 30
0.0
 11
-6.79195421364429
 21
121.22831904273
 31
0.0
  0
LINE
  5
   28E
  8
0
  6
CONTINUOUS
 62
     7
 10
10.5205384515567
 20
145.903316372443
 30
0.0
 11
11.1455384515567
 21
145.903316372443
 31
0.0
  0
LINE
  5
   28F
  8
0
  6
CONTINUOUS
 62
     7
 10
10.5205384515567
 20
145.903316372443
 30
0.0
 11
10.5205384515567
 21
146.353317135382
 31
0.0
  0
LINE
  5
   290
  8
0
  6
CONTINUOUS
 62
     7
 10
-14.2294615484433
 20
146.603317135382
 30
0.0
 11
-6.79196299218561
 21
146.603317135382
 31
0.0
  0
LINE
  5
   291
  8
0
  6
CONTINUOUS
 62
     7
 10
-5.91696299218561
 20
146.603317135382
 30
0.0
 11
1.95805456489703
 21
146.603317135382
 31
0.0
  0
LINE
  5
   292
  8
0
  6
CONTINUOUS
 62
     7
 10
2.83305456489703
 20
146.603317135382
 30
0.0
 11
10.2705384515567
 21
146.603317135382
 31
0.0
  0
LINE
  5
   293
  8
0
  6
CONTINUOUS
 62
     7
 10
-14.4794615484433
 20
145.903316372443
 30
0.0
 11
-14.4794615484433
 21
146.353317135382
 31
0.0
  0
LINE
  5
   294
  8
0
  6
CONTINUOUS
 62
     7
 10
-15.1044615484433
 20
145.903316372443
 30
0.0
 11
-14.4794615484433
 21
145.903316372443
 31
0.0
  0
LINE
  5
   295
  8
0
  6
CONTINUOUS
 62
     7
 10
-15.1044643594777
 20
104.803317123461
 30
0.0
 11
-15.1044643594777
 21
145.903316372443
 31
0.0
  0
LINE
  5
   296
  8
0
  6
CONTINUOUS
 62
     7
 10
-15.1044615484433
 20
104.803317123461
 30
0.0
 11
-14.4794615484433
 21
104.803317123461
 31
0.0
  0
LINE
  5
   297
  8
0
  6
CONTINUOUS
 62
     7
 10
-14.4794615484433
 20
104.353317135382
 30
0.0
 11
-14.4794615484433
 21
104.803317123461
 31
0.0
  0
LINE
  5
   298
  8
0
  6
CONTINUOUS
 62
     7
 10
-6.97946299218561
 20
144.978317135382
 30
0.0
 11
-5.72946299218561
 21
144.978317135382
 31
0.0
  0
LINE
  5
   299
  8
0
  6
CONTINUOUS
 62
     7
 10
8.83303463690296
 20
140.603317134669
 30
0.0
 11
8.83303654425159
 21
141.603317134728
 31
0.0
  0
LINE
  5
   29A
  8
0
  6
CONTINUOUS
 62
     7
 10
-12.7919615484433
 20
140.603317135382
 30
0.0
 11
8.83303463685941
 21
140.603317135382
 31
0.0
  0
LINE
  5
   29B
  8
0
  6
CONTINUOUS
 62
     7
 10
-12.7919615484433
 20
140.603317135382
 30
0.0
 11
-12.7919615484433
 21
141.603317135382
 31
0.0
  0
LINE
  5
   29C
  8
0
  6
CONTINUOUS
 62
     7
 10
9.77053845155668
 20
142.540817135382
 30
0.0
 11
10.5205384515567
 21
142.540817135382
 31
0.0
  0
LINE
  5
   29D
  8
0
  6
CONTINUOUS
 62
     7
 10
10.5205384515567
 20
142.540817135382
 30
0.0
 11
10.5205384515567
 21
145.903316372443
 31
0.0
  0
LINE
  5
   29E
  8
0
  6
CONTINUOUS
 62
     7
 10
-14.4794616676526
 20
142.540817135382
 30
0.0
 11
-13.729461429234
 21
142.540817135382
 31
0.0
  0
LINE
  5
   29F
  8
0
  6
CONTINUOUS
 62
     7
 10
-14.4794630303613
 20
142.540817135382
 30
0.0
 11
-14.4794630303613
 21
145.903316372443
 31
0.0
  0
LINE
  5
   2A0
  8
0
  6
CONTINUOUS
 62
     7
 10
-12.7919615484433
 20
109.103317135382
 30
0.0
 11
-12.7919615484433
 21
110.103317135382
 31
0.0
  0
LINE
  5
   2A1
  8
0
  6
CONTINUOUS
 62
     7
 10
-12.7919615484433
 20
110.103317135382
 30
0.0
 11
8.83303845155669
 21
110.103317135382
 31
0.0
  0
LINE
  5
   2A2
  8
0
  6
CONTINUOUS
 62
     7
 10
-14.4794617868619
 20
108.165817135382
 30
0.0
 11
-13.7294611908154
 21
108.165817135382
 31
0.0
  0
LINE
  5
   2A3
  8
0
  6
CONTINUOUS
 62
     7
 10
-14.4794614988097
 20
104.803317123461
 30
0.0
 11
-14.4794614988097
 21
108.165817075777
 31
0.0
  0
LINE
  5
   2A4
  8
0
  6
CONTINUOUS
 62
     7
 10
3.33303845155669
 20
140.728317135382
 30
0.0
 11
3.33303845155669
 21
142.145347469855
 31
0.0
  0
LINE
  5
   2A5
  8
0
  6
CONTINUOUS
 62
     7
 10
-14.0882275003456
 20
142.469454605061
 30
0.0
 11
-13.7294614155275
 21
142.540816145524
 31
0.0
  0
LINE
  5
   2A6
  8
0
  6
CONTINUOUS
 62
     7
 10
-14.3923727523357
 20
142.266235157282
 30
0.0
 11
-14.088225859342
 21
142.469459345996
 31
0.0
  0
LINE
  5
   2A7
  8
0
  6
CONTINUOUS
 62
     7
 10
-14.5955994611848
 20
141.962078875213
 30
0.0
 11
-14.3923749883765
 21
142.266228500824
 31
0.0
  0
LINE
  5
   2A8
  8
0
  6
CONTINUOUS
 62
     7
 10
-14.6669614825855
 20
141.603317771185
 30
0.0
 11
-14.5955985718006
 21
141.962082410803
 31
0.0
  0
LINE
  5
   2A9
  8
0
  6
CONTINUOUS
 62
     7
 10
-14.6669616033586
 20
141.603317754727
 30
0.0
 11
-14.5955986925737
 21
141.244553115109
 31
0.0
  0
LINE
  5
   2AA
  8
0
  6
CONTINUOUS
 62
     7
 10
-14.595597895909
 20
141.244549679096
 30
0.0
 11
-14.3923734231006
 21
140.940400053485
 31
0.0
  0
LINE
  5
   2AB
  8
0
  6
CONTINUOUS
 62
     7
 10
-14.3923753338213
 20
140.940406426735
 30
0.0
 11
-14.0882284408276
 21
140.737182238021
 31
0.0
  0
LINE
  5
   2AC
  8
0
  6
CONTINUOUS
 62
     7
 10
-14.0882271005275
 20
140.73717740056
 30
0.0
 11
-13.7294615051877
 21
140.665815860458
 31
0.0
  0
LINE
  5
   2AD
  8
0
  6
CONTINUOUS
 62
     7
 10
11.1455384515567
 20
104.803317123461
 30
0.0
 11
11.1455384515567
 21
145.903316372443
 31
0.0
  0
CIRCLE
  5
   2AE
  8
0
  6
CONTINUOUS
 62
     7
 10
-10.7294617012382
 20
143.47831485999
 30
0.0
 40
1.37500034557561
  0
CIRCLE
  5
   2AF
  8
0
  6
CONTINUOUS
 62
     7
 10
-10.7294628948331
 20
145.603319464566
 30
0.0
 40
0.350001132261826
  0
CIRCLE
  5
   2B0
  8
0
  6
CONTINUOUS
 62
     7
 10
-6.35446299218561
 20
142.728318092975
 30
0.0
 40
1.12499828446178
  0
CIRCLE
  5
   2B1
  8
0
  6
CONTINUOUS
 62
     7
 10
-1.97945421364429
 20
143.478314306762
 30
0.0
 40
1.37500778069648
  0
CIRCLE
  5
   2B2
  8
0
  6
CONTINUOUS
 62
     7
 10
-1.97946189067068
 20
145.603317579288
 30
0.0
 40
0.350000533144011
  0
ARC
  5
   2B3
  8
0
  6
CONTINUOUS
 62
     7
 10
-6.35445783449032
 20
140.728322190048
 30
0.0
 40
0.43749799431662
 50
343.397681320923
 51
556.602318679077
  0
ARC
  5
   2B4
  8
0
  6
CONTINUOUS
 62
     7
 10
-6.35446405109149
 20
140.728322675096
 30
0.0
 40
0.937505922424163
 50
180.000029643803
 51
187.66254857655
  0
ARC
  5
   2B5
  8
0
  6
CONTINUOUS
 62
     7
 10
2.39553784672325
 20
140.728318100696
 30
0.0
 40
0.937501686694485
 50
180.000125761636
 51
187.662301319562
  0
ARC
  5
   2B6
  8
0
  6
CONTINUOUS
 62
     7
 10
2.39553895699445
 20
140.728316042922
 30
0.0
 40
0.437499243526868
 50
343.398570158311
 51
556.601429841689
  0
CIRCLE
  5
   2B7
  8
0
  6
CONTINUOUS
 62
     7
 10
2.39553929104982
 20
142.728318849792
 30
0.0
 40
1.12499993545791
  0
CIRCLE
  5
   2B8
  8
0
  6
CONTINUOUS
 62
     7
 10
6.77054005183754
 20
143.478325189089
 30
0.0
 40
1.37499299977956
  0
CIRCLE
  5
   2B9
  8
0
  6
CONTINUOUS
 62
     7
 10
6.770541421204
 20
145.6033199376
 30
0.0
 40
0.349997690355193
  0
CIRCLE
  5
   2BA
  8
0
  6
CONTINUOUS
 62
     7
 10
9.77053484605749
 20
141.603321801259
 30
0.0
 40
0.43750452606138
  0
ARC
  5
   2BB
  8
0
  6
CONTINUOUS
 62
     7
 10
10.2705398074674
 20
146.353318766692
 30
0.0
 40
0.249998801197616
 50
359.999798812773
 51
450.000230940986
  0
CIRCLE
  5
   2BC
  8
0
  6
CONTINUOUS
 62
     7
 10
-13.7294600458553
 20
141.603318752445
 30
0.0
 40
0.43750145242139
  0
ARC
  5
   2BD
  8
0
  6
CONTINUOUS
 62
     7
 10
-13.7294545250017
 20
141.603295404175
 30
0.0
 40
0.937480002721381
 50
269.999551156832
 51
450.000409034301
  0
ARC
  5
   2BE
  8
0
  6
CONTINUOUS
 62
     7
 10
-14.2294609107092
 20
146.353317418464
 30
0.0
 40
0.250000997782364
 50
90.0000472705142
 51
180.000478836282
  0
CIRCLE
  5
   2BF
  8
0
  6
CONTINUOUS
 62
     7
 10
-13.7294615067496
 20
109.103317638284
 30
0.0
 40
0.437499790794377
  0
CIRCLE
  5
   2C0
  8
0
  6
CONTINUOUS
 62
     7
 10
-10.729457530553
 20
107.228317987224
 30
0.0
 40
1.37499922265712
  0
CIRCLE
  5
   2C1
  8
0
  6
CONTINUOUS
 62
     7
 10
-10.7294583789921
 20
105.103317261959
 30
0.0
 40
0.350000050406668
  0
ARC
  5
   2C2
  8
0
  6
CONTINUOUS
 62
     7
 10
-14.2294614881262
 20
104.353317161303
 30
0.0
 40
0.250000026530426
 50
180.000006076757
 51
269.999989535183
  0
LINE
  5
   2C3
  8
0
  6
DASHDOT
 62
     7
 10
-11.8294640270949
 20
145.603319464566
 30
0.0
 11
-9.62946176257129
 21
145.603319464566
 31
0.0
  0
LINE
  5
   2C4
  8
0
  6
DASHDOT
 62
     7
 10
-12.8544620468138
 20
143.47831485999
 30
0.0
 11
-8.60446135566261
 21
143.47831485999
 31
0.0
  0
LINE
  5
   2C5
  8
0
  6
DASHDOT
 62
     7
 10
-3.0794624238147
 20
145.603317579288
 30
0.0
 11
-0.879461357526676
 21
145.603317579288
 31
0.0
  0
LINE
  5
   2C6
  8
0
  6
DASHDOT
 62
     7
 10
-4.10446199434077
 20
143.478314306762
 30
0.0
 11
0.145553567052183
 21
143.478314306762
 31
0.0
  0
LINE
  5
   2C7
  8
0
  6
DASHDOT
 62
     7
 10
-7.62089885126647
 20
140.728322190048
 30
0.0
 11
-5.12676698005771
 21
140.728322190048
 31
0.0
  0
LINE
  5
   2C8
  8
0
  6
DASHDOT
 62
     7
 10
1.17379850724764
 20
140.728316042922
 30
0.0
 11
3.58303820052132
 21
140.728316042922
 31
0.0
  0
LINE
  5
   2C9
  8
0
  6
DASHDOT
 62
     7
 10
5.6705437308488
 20
145.6033199376
 30
0.0
 11
7.87053911155919
 21
145.6033199376
 31
0.0
  0
LINE
  5
   2CA
  8
0
  6
DASHDOT
 62
     7
 10
4.64554705205797
 20
143.478325189089
 30
0.0
 11
8.89553305161709
 21
143.478325189089
 31
0.0
  0
LINE
  5
   2CB
  8
0
  6
DASHDOT
 62
     7
 10
-13.7294545250017
 20
139.915815401454
 30
0.0
 11
-13.7294545250017
 21
143.290775406897
 31
0.0
  0
LINE
  5
   2CC
  8
0
  6
DASHDOT
 62
     7
 10
-15.4169345277231
 20
141.603295404175
 30
0.0
 11
-12.0419745222803
 21
141.603295404175
 31
0.0
  0
LINE
  5
   2CD
  8
0
  6
DASHDOT
 62
     7
 10
-12.8544567532102
 20
107.228317987224
 30
0.0
 11
-8.60445830789592
 21
107.228317987224
 31
0.0
  0
LINE
  5
   2CE
  8
0
  6
DASHDOT
 62
     7
 10
-11.8294584293988
 20
105.103317261959
 30
0.0
 11
-9.62945832858548
 21
105.103317261959
 31
0.0
  0
LINE
  5
   2CF
  8
0
  6
DASHDOT
 62
     7
 10
9.77053484605749
 20
140.415817275198
 30
0.0
 11
9.77053484605749
 21
142.79082632732
 31
0.0
  0
LINE
  5
   2D0
  8
0
  6
DASHDOT
 62
     7
 10
8.5830303199961
 20
141.603321801259
 30
0.0
 11
10.9580393721189
 21
141.603321801259
 31
0.0
  0
CIRCLE
  5
   2D1
  8
0
  6
CONTINUOUS
 62
     7
 10
9.77053484605749
 20
141.603321801259
 30
0.0
 40
0.937484119743857
  0
CIRCLE
  5
   2D2
  8
0
  6
CONTINUOUS
 62
     7
 10
-13.7294620070955
 20
109.103316493846
 30
0.0
 40
0.937500335919419
  0
LINE
  5
   2D3
  8
0
  6
DASHDOT
 62
     7
 10
-13.7294620070955
 20
107.415816157926
 30
0.0
 11
-13.7294620070955
 21
110.790816829765
 31
0.0
  0
LINE
  5
   2D4
  8
0
  6
DASHDOT
 62
     7
 10
-15.4169623430149
 20
109.103316493846
 30
0.0
 11
-12.0419616711761
 21
109.103316493846
 31
0.0
  0
LINE
  5
   2D5
  8
0
  6
CONTINUOUS
 62
     7
 10
1.45803616002877
 20
140.728318100696
 30
0.0
 11
1.45803616002877
 21
142.10645653858
 31
0.0
  0
LINE
  5
   2D6
  8
0
  6
CONTINUOUS
 62
     7
 10
-5.41695812866733
 20
140.728322675096
 30
0.0
 11
-5.41695812866733
 21
142.106461380443
 31
0.0
  0
LINE
  5
   2D7
  8
0
  6
CONTINUOUS
 62
     7
 10
-7.29196997351565
 20
140.728322675096
 30
0.0
 11
-7.29196997351565
 21
142.106464573246
 31
0.0
  0
ARC
  5
   2D8
  8
0
  6
CONTINUOUS
 62
     7
 10
-6.35446405109149
 20
140.728322675096
 30
0.0
 40
0.937505922424163
 50
352.33745142345
 51
359.999970356197
  0
ARC
  5
   2D9
  8
0
  6
CONTINUOUS
 62
     7
 10
2.39553784672325
 20
140.728318100696
 30
0.0
 40
0.937501686694485
 50
352.337698680437
 51
360.0
  0
LINE
  5
   2DA
  8
0
  6
CONTINUOUS
 62
     7
 10
-14.8544542136443
 20
110.290822857427
 30
0.0
 11
10.8955419716584
 21
110.290822857427
 31
0.0
  0
LINE
  5
   2DB
  8
0
  6
CONTINUOUS
 62
     7
 10
-15.1044507804159
 20
140.540817135382
 30
0.0
 11
11.1455454048868
 21
140.540817135382
 31
0.0
  0
LINE
  5
   2DC
  8
0
  6
CONTINUOUS
 62
     7
 10
-15.1044542136443
 20
110.540823095845
 30
0.0
 11
-14.8544542136443
 21
110.540823095845
 31
0.0
  0
LINE
  5
   2DD
  8
0
  6
CONTINUOUS
 62
     7
 10
-14.8544542136443
 20
110.290822857427
 30
0.0
 11
-14.8544542136443
 21
110.540822857427
 31
0.0
  0
LINE
  5
   2DE
  8
0
  6
CONTINUOUS
 62
     7
 10
10.8955419716582
 20
110.540823095845
 30
0.0
 11
11.1455419716582
 21
110.540823095845
 31
0.0
  0
LINE
  5
   2DF
  8
0
  6
CONTINUOUS
 62
     7
 10
10.8955419716584
 20
110.290822857427
 30
0.0
 11
10.8955419716584
 21
110.540822857427
 31
0.0
  0
LINE
  5
   2E0
  8
0
  6
CONTINUOUS
 62
     7
 10
-1.79195421364428
 20
110.540822359553
 30
0.0
 11
10.8955420347692
 21
110.540822359553
 31
0.0
  0
LINE
  5
   2E1
  8
0
  6
CONTINUOUS
 62
     7
 10
-14.8544542356522
 20
110.540822875767
 30
0.0
 11
-2.16695421364428
 21
110.540822875767
 31
0.0
  0
LINE
  5
   2E2
  8
0
  6
CONTINUOUS
 62
     7
 10
-14.7294542136443
 20
137.91581904273
 30
0.0
 11
-14.7294542136443
 21
140.540822857427
 31
0.0
  0
LINE
  5
   2E3
  8
0
  6
CONTINUOUS
 62
     7
 10
10.770542210077
 20
137.91581904273
 30
0.0
 11
10.770542210077
 21
140.540822857427
 31
0.0
  0
LINE
  5
   2E4
  8
0
  6
CONTINUOUS
 62
     7
 10
-1.79195421364429
 20
110.478322857427
 30
0.0
 11
-1.79195421364429
 21
110.540822857427
 31
0.0
  0
LINE
  5
   2E5
  8
0
  6
CONTINUOUS
 62
     7
 10
-2.16695421364429
 20
110.478322857427
 30
0.0
 11
-2.16695421364429
 21
110.540822857427
 31
0.0
  0
ARC
  5
   2E6
  8
0
  6
CONTINUOUS
 62
     7
 10
-1.97947563956121
 20
111.353372292182
 30
0.0
 40
0.687449651850481
 50
152.967149341799
 51
387.032850658201
  0
ARC
  5
   2E7
  8
0
  6
CONTINUOUS
 62
     7
 10
-1.97946387288007
 20
110.478315629193
 30
0.0
 40
0.18748584914764
 50
179.998288901736
 51
360.003191406695
  0
LINE
  5
   2E8
  8
0
  6
DASHDOT
 62
     7
 10
-2.88990881940467
 20
111.353372292182
 30
0.0
 11
-0.975989345311991
 21
111.353372292182
 31
0.0
  0
LINE
  5
   2E9
  8
0
  6
DASHDOT
 62
     7
 10
-2.32443261115002
 20
110.478315629193
 30
0.0
 11
-1.59366335740554
 21
110.478315629193
 31
0.0
  0
LINE
  5
   2EA
  8
0
  6
CONTINUOUS
 62
     7
 10
-6.79196299218561
 20
145.853317135382
 30
0.0
 11
-6.79196299218561
 21
146.603317135382
 31
0.0
  0
LINE
  5
   2EB
  8
0
  6
CONTINUOUS
 62
     7
 10
-5.91696299218561
 20
145.853317135382
 30
0.0
 11
-5.91696299218561
 21
146.603317135382
 31
0.0
  0
LINE
  5
   2EC
  8
0
  6
CONTINUOUS
 62
     7
 10
-6.97946299218561
 20
144.978317135382
 30
0.0
 11
-6.97946299218561
 21
145.853317135382
 31
0.0
  0
LINE
  5
   2ED
  8
0
  6
CONTINUOUS
 62
     7
 10
-5.72946299218561
 20
144.978317135382
 30
0.0
 11
-5.72946299218561
 21
145.853317135382
 31
0.0
  0
LINE
  5
   2EE
  8
0
  6
CONTINUOUS
 62
     7
 10
-5.91696299218561
 20
145.853317135382
 30
0.0
 11
-5.72946299218561
 21
145.853317135382
 31
0.0
  0
LINE
  5
   2EF
  8
0
  6
CONTINUOUS
 62
     7
 10
-6.97946299218561
 20
145.853317135382
 30
0.0
 11
-6.79196299218561
 21
145.853317135382
 31
0.0
  0
LINE
  5
   2F0
  8
0
  6
CONTINUOUS
 62
     7
 10
1.95805456489704
 20
145.853317135382
 30
0.0
 11
1.95805456489704
 21
146.603317135382
 31
0.0
  0
LINE
  5
   2F1
  8
0
  6
CONTINUOUS
 62
     7
 10
2.83305456489703
 20
145.853317135382
 30
0.0
 11
2.83305456489703
 21
146.603317135382
 31
0.0
  0
LINE
  5
   2F2
  8
0
  6
CONTINUOUS
 62
     7
 10
3.02055456489703
 20
144.978317135382
 30
0.0
 11
3.02055456489703
 21
145.853317135382
 31
0.0
  0
LINE
  5
   2F3
  8
0
  6
CONTINUOUS
 62
     7
 10
1.77055456489703
 20
144.978317135382
 30
0.0
 11
3.02055456489703
 21
144.978317135382
 31
0.0
  0
LINE
  5
   2F4
  8
0
  6
CONTINUOUS
 62
     7
 10
1.77055456489704
 20
144.978317135382
 30
0.0
 11
1.77055456489704
 21
145.853317135382
 31
0.0
  0
LINE
  5
   2F5
  8
0
  6
CONTINUOUS
 62
     7
 10
2.83305456489703
 20
145.853317135382
 30
0.0
 11
3.02055456489703
 21
145.853317135382
 31
0.0
  0
LINE
  5
   2F6
  8
0
  6
CONTINUOUS
 62
     7
 10
1.77055456489703
 20
145.853317135382
 30
0.0
 11
1.95805456489703
 21
145.853317135382
 31
0.0
  0
LINE
  5
   2F7
  8
0
  6
CONTINUOUS
 62
     7
 10
10.5205531211547
 20
104.803317123461
 30
0.0
 11
11.1455531211547
 21
104.803317123461
 31
0.0
  0
LINE
  5
   2F8
  8
0
  6
CONTINUOUS
 62
     7
 10
10.5205531211547
 20
104.353317135382
 30
0.0
 11
10.5205531211547
 21
104.803317123461
 31
0.0
  0
ARC
  5
   2F9
  8
0
  6
CONTINUOUS
 62
     7
 10
10.2705530608376
 20
104.353317161303
 30
0.0
 40
0.250000026530426
 50
270.000010464817
 51
359.999993923243
  0
LINE
  5
   2FA
  8
0
  6
CONTINUOUS
 62
     7
 10
10.5205530715211
 20
104.803317123461
 30
0.0
 11
10.5205530715211
 21
108.165817075777
 31
0.0
  0
LINE
  5
   2FB
  8
0
  6
CONTINUOUS
 62
     7
 10
9.77055276352687
 20
108.165817135382
 30
0.0
 11
10.5205533595733
 21
108.165817135382
 31
0.0
  0
CIRCLE
  5
   2FC
  8
0
  6
CONTINUOUS
 62
     7
 10
9.77055357980694
 20
109.103316493846
 30
0.0
 40
0.937500335919419
  0
CIRCLE
  5
   2FD
  8
0
  6
CONTINUOUS
 62
     7
 10
9.77055307946107
 20
109.103317638284
 30
0.0
 40
0.437499790794377
  0
LINE
  5
   2FE
  8
0
  6
DASHDOT
 62
     7
 10
8.08305324388752
 20
109.103316493846
 30
0.0
 11
11.4580539157264
 21
109.103316493846
 31
0.0
  0
LINE
  5
   2FF
  8
0
  6
CONTINUOUS
 62
     7
 10
8.83305312115474
 20
109.103317135382
 30
0.0
 11
8.83305312115474
 21
110.103317135382
 31
0.0
  0
LINE
  5
   300
  8
0
  6
DASHDOT
 62
     7
 10
9.77055357980694
 20
107.415816157926
 30
0.0
 11
9.77055357980694
 21
110.790816829765
 31
0.0
  0
LINE
  5
   301
  8
0
  6
DASHDOT
 62
     7
 10
4.64554988060735
 20
107.228317987224
 30
0.0
 11
8.8955483259216
 21
107.228317987224
 31
0.0
  0
CIRCLE
  5
   302
  8
0
  6
CONTINUOUS
 62
     7
 10
6.77054910326447
 20
107.228317987224
 30
0.0
 40
1.37499922265712
  0
CIRCLE
  5
   303
  8
0
  6
CONTINUOUS
 62
     7
 10
6.77054995170357
 20
105.103317261959
 30
0.0
 40
0.350000050406668
  0
LINE
  5
   304
  8
0
  6
DASHDOT
 62
     7
 10
5.6705499012969
 20
105.103317261959
 30
0.0
 11
7.87055000211024
 21
105.103317261959
 31
0.0
  0
LINE
  5
   305
  8
0
  6
DASHDOT
 62
     7
 10
-4.10445675321017
 20
107.228317987224
 30
0.0
 11
0.145541692104082
 21
107.228317987224
 31
0.0
  0
CIRCLE
  5
   306
  8
0
  6
CONTINUOUS
 62
     7
 10
-1.97945753055304
 20
107.228317987224
 30
0.0
 40
1.37499922265712
  0
LINE
  5
   307
  8
0
  6
DASHDOT
 62
     7
 10
-3.07945842939881
 20
105.103317261959
 30
0.0
 11
-0.879458328585475
 21
105.103317261959
 31
0.0
  0
CIRCLE
  5
   308
  8
0
  6
CONTINUOUS
 62
     7
 10
-1.97945837899214
 20
105.103317261959
 30
0.0
 40
0.350000050406668
  0
CIRCLE
  5
   309
  8
0
  6
CONTINUOUS
 62
     7
 10
-6.35446299218561
 20
107.978318092975
 30
0.0
 40
1.12499828446178
  0
CIRCLE
  5
   30A
  8
0
  6
CONTINUOUS
 62
     7
 10
2.39553929104982
 20
107.978318849792
 30
0.0
 40
1.12499993545791
  0
LINE
  5
   30B
  8
0
  6
DASHDOT
 62
     7
 10
2.39553929104982
 20
140.853318914334
 30
0.0
 11
2.39553929104982
 21
144.60331878525
 31
0.0
  0
LINE
  5
   30C
  8
0
  6
DASHDOT
 62
     7
 10
0.520539355591914
 20
142.728318849792
 30
0.0
 11
4.27053922650773
 21
142.728318849792
 31
0.0
  0
LINE
  5
   30D
  8
0
  6
DASHDOT
 62
     7
 10
-6.35446299218561
 20
140.853319808513
 30
0.0
 11
-6.35446299218561
 21
144.603316377437
 31
0.0
  0
LINE
  5
   30E
  8
0
  6
DASHDOT
 62
     7
 10
-8.22946127664739
 20
142.728318092975
 30
0.0
 11
-4.47946470772382
 21
142.728318092975
 31
0.0
  0
LINE
  5
   30F
  8
0
  6
DASHDOT
 62
     7
 10
-6.35446299218561
 20
106.103319808513
 30
0.0
 11
-6.35446299218561
 21
109.853316377437
 31
0.0
  0
LINE
  5
   310
  8
0
  6
DASHDOT
 62
     7
 10
-8.22946127664739
 20
107.978318092975
 30
0.0
 11
-4.47946470772382
 21
107.978318092975
 31
0.0
  0
LINE
  5
   311
  8
0
  6
DASHDOT
 62
     7
 10
2.39553929104982
 20
106.103318914334
 30
0.0
 11
2.39553929104982
 21
109.85331878525
 31
0.0
  0
LINE
  5
   312
  8
0
  6
DASHDOT
 62
     7
 10
0.520539355591914
 20
107.978318849792
 30
0.0
 11
4.27053922650773
 21
107.978318849792
 31
0.0
  0
LINE
  5
   313
  8
0
  6
CONTINUOUS
 62
     7
 10
2.83305456489704
 20
104.103317135382
 30
0.0
 11
10.2705384515567
 21
104.103317135382
 31
0.0
  0
LINE
  5
   314
  8
0
  6
CONTINUOUS
 62
     7
 10
2.83305456489703
 20
104.103317135382
 30
0.0
 11
2.83305456489703
 21
104.853317135382
 31
0.0
  0
LINE
  5
   315
  8
0
  6
CONTINUOUS
 62
     7
 10
2.83305456489704
 20
104.853317135382
 30
0.0
 11
3.02055456489704
 21
104.853317135382
 31
0.0
  0
LINE
  5
   316
  8
0
  6
CONTINUOUS
 62
     7
 10
3.02055456489703
 20
104.853317135382
 30
0.0
 11
3.02055456489703
 21
105.728317135382
 31
0.0
  0
LINE
  5
   317
  8
0
  6
CONTINUOUS
 62
     7
 10
1.77055456489704
 20
105.728317135382
 30
0.0
 11
3.02055456489704
 21
105.728317135382
 31
0.0
  0
LINE
  5
   318
  8
0
  6
CONTINUOUS
 62
     7
 10
1.77055456489704
 20
104.853317135382
 30
0.0
 11
1.77055456489704
 21
105.728317135382
 31
0.0
  0
LINE
  5
   319
  8
0
  6
CONTINUOUS
 62
     7
 10
1.77055456489704
 20
104.853317135382
 30
0.0
 11
1.95805456489704
 21
104.853317135382
 31
0.0
  0
LINE
  5
   31A
  8
0
  6
CONTINUOUS
 62
     7
 10
1.95805456489704
 20
104.103317135382
 30
0.0
 11
1.95805456489704
 21
104.853317135382
 31
0.0
  0
LINE
  5
   31B
  8
0
  6
CONTINUOUS
 62
     7
 10
-5.91696299218561
 20
104.103317135382
 30
0.0
 11
1.95805456489704
 21
104.103317135382
 31
0.0
  0
LINE
  5
   31C
  8
0
  6
CONTINUOUS
 62
     7
 10
-5.91696299218561
 20
104.103317135382
 30
0.0
 11
-5.91696299218561
 21
104.853317135382
 31
0.0
  0
LINE
  5
   31D
  8
0
  6
CONTINUOUS
 62
     7
 10
-5.91696299218561
 20
104.853317135382
 30
0.0
 11
-5.72946299218561
 21
104.853317135382
 31
0.0
  0
LINE
  5
   31E
  8
0
  6
CONTINUOUS
 62
     7
 10
-5.72946299218561
 20
104.853317135382
 30
0.0
 11
-5.72946299218561
 21
105.728317135382
 31
0.0
  0
LINE
  5
   31F
  8
0
  6
CONTINUOUS
 62
     7
 10
-6.9794629921856
 20
105.728317135382
 30
0.0
 11
-5.72946299218561
 21
105.728317135382
 31
0.0
  0
LINE
  5
   320
  8
0
  6
CONTINUOUS
 62
     7
 10
-6.97946299218561
 20
104.853317135382
 30
0.0
 11
-6.97946299218561
 21
105.728317135382
 31
0.0
  0
LINE
  5
   321
  8
0
  6
CONTINUOUS
 62
     7
 10
-6.9794629921856
 20
104.853317135382
 30
0.0
 11
-6.7919629921856
 21
104.853317135382
 31
0.0
  0
LINE
  5
   322
  8
0
  6
CONTINUOUS
 62
     7
 10
-6.79196299218561
 20
104.103317135382
 30
0.0
 11
-6.79196299218561
 21
104.853317135382
 31
0.0
  0
LINE
  5
   323
  8
0
  6
CONTINUOUS
 62
     7
 10
-14.2294615484433
 20
104.103317135382
 30
0.0
 11
-6.7919629921856
 21
104.103317135382
 31
0.0
  0
LINE
  5
   324
  8
0
  6
DASHDOT
 62
     7
 10
11.145543728998
 20
218.953290373191
 30
0.0
 11
11.145543728998
 21
221.50333467448
 31
0.0
  0
LINE
  5
   325
  8
0
  6
DASHDOT
 62
     7
 10
9.87052157835353
 20
220.228312523836
 30
0.0
 11
12.4205658796426
 21
220.228312523836
 31
0.0
  0
LINE
  5
   326
  8
0
  6
CONTINUOUS
 62
     7
 10
19.2705428895049
 20
223.403310046486
 30
0.0
 11
19.8955428895049
 21
223.403310046486
 31
0.0
  0
LINE
  5
   327
  8
0
  6
CONTINUOUS
 62
     7
 10
19.2705428895049
 20
223.403310046486
 30
0.0
 11
19.2705428895049
 21
223.853310809425
 31
0.0
  0
LINE
  5
   328
  8
0
  6
CONTINUOUS
 62
     7
 10
-5.9169585542374
 20
224.103310809425
 30
0.0
 11
1.9580414457626
 21
224.103310809425
 31
0.0
  0
LINE
  5
   329
  8
0
  6
CONTINUOUS
 62
     7
 10
2.8330414457626
 20
224.103310809425
 30
0.0
 11
10.7080590028452
 21
224.103310809425
 31
0.0
  0
LINE
  5
   32A
  8
0
  6
CONTINUOUS
 62
     7
 10
11.5830590028452
 20
224.103310809425
 30
0.0
 11
19.0205428895049
 21
224.103310809425
 31
0.0
  0
LINE
  5
   32B
  8
0
  6
CONTINUOUS
 62
     7
 10
-14.4794571104951
 20
223.403310046486
 30
0.0
 11
-14.4794571104951
 21
223.853310809425
 31
0.0
  0
LINE
  5
   32C
  8
0
  6
CONTINUOUS
 62
     7
 10
-15.1044571104951
 20
223.403310046486
 30
0.0
 11
-14.4794571104951
 21
223.403310046486
 31
0.0
  0
LINE
  5
   32D
  8
0
  6
CONTINUOUS
 62
     7
 10
-15.1044599215295
 20
182.303310797504
 30
0.0
 11
-15.1044599215295
 21
223.403310046486
 31
0.0
  0
LINE
  5
   32E
  8
0
  6
CONTINUOUS
 62
     7
 10
-15.1044571104951
 20
182.303310797504
 30
0.0
 11
-14.4794571104951
 21
182.303310797504
 31
0.0
  0
LINE
  5
   32F
  8
0
  6
CONTINUOUS
 62
     7
 10
-14.4794571104951
 20
181.853310809425
 30
0.0
 11
-14.4794571104951
 21
182.303310797504
 31
0.0
  0
LINE
  5
   330
  8
0
  6
CONTINUOUS
 62
     7
 10
1.7705414457626
 20
222.478310809425
 30
0.0
 11
3.0205414457626
 21
222.478310809425
 31
0.0
  0
LINE
  5
   331
  8
0
  6
CONTINUOUS
 62
     7
 10
17.5830390748511
 20
218.103310810135
 30
0.0
 11
17.5830409821998
 21
219.103310810195
 31
0.0
  0
LINE
  5
   332
  8
0
  6
CONTINUOUS
 62
     7
 10
-12.7919571104951
 20
218.103310809425
 30
0.0
 11
17.5830390748076
 21
218.103310809425
 31
0.0
  0
LINE
  5
   333
  8
0
  6
CONTINUOUS
 62
     7
 10
-12.7919571104951
 20
218.103310809425
 30
0.0
 11
-12.7919571104951
 21
219.103310809425
 31
0.0
  0
LINE
  5
   334
  8
0
  6
CONTINUOUS
 62
     7
 10
18.5205428895049
 20
220.040810809425
 30
0.0
 11
19.2705428895049
 21
220.040810809425
 31
0.0
  0
LINE
  5
   335
  8
0
  6
CONTINUOUS
 62
     7
 10
19.2705428895049
 20
220.040810809425
 30
0.0
 11
19.2705428895049
 21
223.403310046486
 31
0.0
  0
LINE
  5
   336
  8
0
  6
CONTINUOUS
 62
     7
 10
-14.4794572297044
 20
220.040810809425
 30
0.0
 11
-13.7294569912858
 21
220.040810809425
 31
0.0
  0
LINE
  5
   337
  8
0
  6
CONTINUOUS
 62
     7
 10
-14.4794585924131
 20
220.040810809425
 30
0.0
 11
-14.4794585924131
 21
223.403310046486
 31
0.0
  0
LINE
  5
   338
  8
0
  6
CONTINUOUS
 62
     7
 10
-12.7919571104951
 20
186.603310809425
 30
0.0
 11
-12.7919571104951
 21
187.603310809425
 31
0.0
  0
LINE
  5
   339
  8
0
  6
CONTINUOUS
 62
     7
 10
-14.4794573489137
 20
185.665810809425
 30
0.0
 11
-13.7294567528672
 21
185.665810809425
 31
0.0
  0
LINE
  5
   33A
  8
0
  6
CONTINUOUS
 62
     7
 10
-14.4794570608615
 20
182.303310797504
 30
0.0
 11
-14.4794570608615
 21
185.665810749821
 31
0.0
  0
LINE
  5
   33B
  8
0
  6
CONTINUOUS
 62
     7
 10
12.0830428895049
 20
218.228310809425
 30
0.0
 11
12.0830428895049
 21
219.645341143898
 31
0.0
  0
CIRCLE
  5
   33C
  8
0
  6
CONTINUOUS
 62
     7
 10
-1.97945726329002
 20
220.978308534033
 30
0.0
 40
1.37500034557561
  0
CIRCLE
  5
   33D
  8
0
  6
CONTINUOUS
 62
     7
 10
-1.97945845688491
 20
223.103313138609
 30
0.0
 40
0.350001132261826
  0
CIRCLE
  5
   33E
  8
0
  6
CONTINUOUS
 62
     7
 10
2.3955414457626
 20
220.228311767018
 30
0.0
 40
1.12499828446178
  0
CIRCLE
  5
   33F
  8
0
  6
CONTINUOUS
 62
     7
 10
6.77055022430391
 20
220.978307980805
 30
0.0
 40
1.37500778069648
  0
CIRCLE
  5
   340
  8
0
  6
CONTINUOUS
 62
     7
 10
6.77054254727752
 20
223.103311253331
 30
0.0
 40
0.350000533144011
  0
ARC
  5
   341
  8
0
  6
CONTINUOUS
 62
     7
 10
2.39554660345788
 20
218.228315864091
 30
0.0
 40
0.43749799431662
 50
343.397681320923
 51
556.602318679077
  0
ARC
  5
   342
  8
0
  6
CONTINUOUS
 62
     7
 10
2.39554038685672
 20
218.228316349139
 30
0.0
 40
0.937505922424163
 50
180.000029643803
 51
187.66254857655
  0
ARC
  5
   343
  8
0
  6
CONTINUOUS
 62
     7
 10
11.1455422846715
 20
218.228311774739
 30
0.0
 40
0.937501686694485
 50
180.000125761636
 51
187.662301319563
  0
ARC
  5
   344
  8
0
  6
CONTINUOUS
 62
     7
 10
11.1455433949427
 20
218.228309716965
 30
0.0
 40
0.437499243526868
 50
343.398570158311
 51
556.601429841689
  0
CIRCLE
  5
   345
  8
0
  6
CONTINUOUS
 62
     7
 10
11.145543728998
 20
220.228312523836
 30
0.0
 40
1.12499993545791
  0
CIRCLE
  5
   346
  8
0
  6
CONTINUOUS
 62
     7
 10
15.5205444897857
 20
220.978318863132
 30
0.0
 40
1.37499299977956
  0
CIRCLE
  5
   347
  8
0
  6
CONTINUOUS
 62
     7
 10
15.5205458591522
 20
223.103313611643
 30
0.0
 40
0.349997690355193
  0
CIRCLE
  5
   348
  8
0
  6
CONTINUOUS
 62
     7
 10
18.5205392840057
 20
219.103315475302
 30
0.0
 40
0.43750452606138
  0
ARC
  5
   349
  8
0
  6
CONTINUOUS
 62
     7
 10
19.0205442454157
 20
223.853312440735
 30
0.0
 40
0.249998801197616
 50
359.999798812773
 51
450.000230940986
  0
CIRCLE
  5
   34A
  8
0
  6
CONTINUOUS
 62
     7
 10
-13.7294556079071
 20
219.103312426488
 30
0.0
 40
0.43750145242139
  0
ARC
  5
   34B
  8
0
  6
CONTINUOUS
 62
     7
 10
-13.7294500870535
 20
219.103289078218
 30
0.0
 40
0.937480002721381
 50
269.999551156832
 51
450.000409034301
  0
ARC
  5
   34C
  8
0
  6
CONTINUOUS
 62
     7
 10
-14.229456472761
 20
223.853311092508
 30
0.0
 40
0.250000997782364
 50
90.0000472705142
 51
180.000478836281
  0
CIRCLE
  5
   34D
  8
0
  6
CONTINUOUS
 62
     7
 10
-13.7294570688014
 20
186.603311312327
 30
0.0
 40
0.437499790794377
  0
ARC
  5
   34E
  8
0
  6
CONTINUOUS
 62
     7
 10
-14.2294570501779
 20
181.853310835346
 30
0.0
 40
0.250000026530426
 50
180.000006076757
 51
269.999989535183
  0
LINE
  5
   34F
  8
0
  6
DASHDOT
 62
     7
 10
-3.07945958914673
 20
223.103313138609
 30
0.0
 11
-0.879457324623083
 21
223.103313138609
 31
0.0
  0
LINE
  5
   350
  8
0
  6
DASHDOT
 62
     7
 10
-4.10445760886564
 20
220.978308534033
 30
0.0
 11
0.145543082285606
 21
220.978308534033
 31
0.0
  0
LINE
  5
   351
  8
0
  6
DASHDOT
 62
     7
 10
5.67054201413351
 20
223.103311253331
 30
0.0
 11
7.87054308042153
 21
223.103311253331
 31
0.0
  0
LINE
  5
   352
  8
0
  6
DASHDOT
 62
     7
 10
4.64554244360743
 20
220.978307980805
 30
0.0
 11
8.89555800500039
 21
220.978307980805
 31
0.0
  0
LINE
  5
   353
  8
0
  6
DASHDOT
 62
     7
 10
2.3955414457626
 20
218.353313482556
 30
0.0
 11
2.3955414457626
 21
224.69421502707
 31
0.0
  0
LINE
  5
   354
  8
0
  6
DASHDOT
 62
     7
 10
0.520543161300814
 20
220.228311767018
 30
0.0
 11
4.27053973022438
 21
220.228311767018
 31
0.0
  0
LINE
  5
   355
  8
0
  6
DASHDOT
 62
     7
 10
1.12910558668174
 20
218.228315864091
 30
0.0
 11
3.6232374578905
 21
218.228315864091
 31
0.0
  0
LINE
  5
   356
  8
0
  6
DASHDOT
 62
     7
 10
9.92380294519585
 20
218.228309716965
 30
0.0
 11
12.3330426384695
 21
218.228309716965
 31
0.0
  0
LINE
  5
   357
  8
0
  6
DASHDOT
 62
     7
 10
14.420548168797
 20
223.103313611643
 30
0.0
 11
16.6205435495074
 21
223.103313611643
 31
0.0
  0
LINE
  5
   358
  8
0
  6
DASHDOT
 62
     7
 10
13.3955514900062
 20
220.978318863132
 30
0.0
 11
17.6455374895653
 21
220.978318863132
 31
0.0
  0
LINE
  5
   359
  8
0
  6
DASHDOT
 62
     7
 10
-13.7294500870535
 20
217.415809075497
 30
0.0
 11
-13.7294500870535
 21
220.79076908094
 31
0.0
  0
LINE
  5
   35A
  8
0
  6
DASHDOT
 62
     7
 10
-15.4169300897748
 20
219.103289078218
 30
0.0
 11
-12.0419700843321
 21
219.103289078218
 31
0.0
  0
LINE
  5
   35B
  8
0
  6
DASHDOT
 62
     7
 10
18.5205392840057
 20
217.915810949241
 30
0.0
 11
18.5205392840057
 21
220.290820001363
 31
0.0
  0
LINE
  5
   35C
  8
0
  6
DASHDOT
 62
     7
 10
17.3330347579443
 20
219.103315475302
 30
0.0
 11
19.7080438100671
 21
219.103315475302
 31
0.0
  0
CIRCLE
  5
   35D
  8
0
  6
CONTINUOUS
 62
     7
 10
18.5205392840057
 20
219.103315475302
 30
0.0
 40
0.937484119743857
  0
CIRCLE
  5
   35E
  8
0
  6
CONTINUOUS
 62
     7
 10
-13.7294575691473
 20
186.603310167889
 30
0.0
 40
0.937500335919419
  0
LINE
  5
   35F
  8
0
  6
DASHDOT
 62
     7
 10
-13.7294575691473
 20
184.915809831969
 30
0.0
 11
-13.7294575691473
 21
188.290810503808
 31
0.0
  0
LINE
  5
   360
  8
0
  6
DASHDOT
 62
     7
 10
-15.4169579050667
 20
186.603310167889
 30
0.0
 11
-12.0419572332279
 21
186.603310167889
 31
0.0
  0
LINE
  5
   361
  8
0
  6
CONTINUOUS
 62
     7
 10
10.208040597977
 20
218.228311774739
 30
0.0
 11
10.208040597977
 21
219.606450212624
 31
0.0
  0
LINE
  5
   362
  8
0
  6
CONTINUOUS
 62
     7
 10
3.33304630928088
 20
218.228316349139
 30
0.0
 11
3.33304630928088
 21
219.606455054486
 31
0.0
  0
LINE
  5
   363
  8
0
  6
CONTINUOUS
 62
     7
 10
1.45803446443255
 20
218.228316349139
 30
0.0
 11
1.45803446443255
 21
219.606458247289
 31
0.0
  0
ARC
  5
   364
  8
0
  6
CONTINUOUS
 62
     7
 10
2.39554038685672
 20
218.228316349139
 30
0.0
 40
0.937505922424163
 50
352.33745142345
 51
359.999970356197
  0
ARC
  5
   365
  8
0
  6
CONTINUOUS
 62
     7
 10
11.1455422846715
 20
218.228311774739
 30
0.0
 40
0.937501686694485
 50
352.337698680437
 51
360.0
  0
LINE
  5
   366
  8
0
  6
CONTINUOUS
 62
     7
 10
-14.8544497756961
 20
187.79081653147
 30
0.0
 11
19.6455464096067
 21
187.79081653147
 31
0.0
  0
LINE
  5
   367
  8
0
  6
CONTINUOUS
 62
     7
 10
-15.1044599215295
 20
218.040810809425
 30
0.0
 11
19.895549842835
 21
218.040810809425
 31
0.0
  0
LINE
  5
   368
  8
0
  6
CONTINUOUS
 62
     3
 10
-6.22944977569608
 20
215.415812716773
 30
0.0
 11
19.7705464096067
 21
215.415812716773
 31
0.0
  0
LINE
  5
   369
  8
0
  6
CONTINUOUS
 62
     3
 10
16.3955464245078
 20
189.16581653147
 30
0.0
 11
19.7705464096067
 21
189.16581653147
 31
0.0
  0
LINE
  5
   36A
  8
0
  6
CONTINUOUS
 62
     3
 10
7.38286993542389
 20
189.16581653147
 30
0.0
 11
13.5205464096067
 21
189.16581653147
 31
0.0
  0
LINE
  5
   36B
  8
0
  6
CONTINUOUS
 62
     3
 10
-6.22944977569608
 20
189.165816531463
 30
0.0
 11
-2.85444977569608
 21
189.165816531463
 31
0.0
  0
LINE
  5
   36C
  8
0
  6
CONTINUOUS
 62
     7
 10
-6.35444977569608
 20
188.040816769889
 30
0.0
 11
-6.10444977569608
 21
188.040816769889
 31
0.0
  0
LINE
  5
   36D
  8
0
  6
CONTINUOUS
 62
     7
 10
-14.8544497756961
 20
187.79081653147
 30
0.0
 11
-14.8544497756961
 21
188.04081653147
 31
0.0
  0
LINE
  5
   36E
  8
0
  6
CONTINUOUS
 62
     7
 10
19.6455464096064
 20
188.040816769889
 30
0.0
 11
19.8955464096064
 21
188.040816769889
 31
0.0
  0
LINE
  5
   36F
  8
0
  6
CONTINUOUS
 62
     7
 10
19.6455464096066
 20
187.79081653147
 30
0.0
 11
19.6455464096066
 21
188.04081653147
 31
0.0
  0
LINE
  5
   370
  8
0
  6
CONTINUOUS
 62
     7
 10
6.95805022430392
 20
188.040816033596
 30
0.0
 11
19.6455464727174
 21
188.040816033596
 31
0.0
  0
LINE
  5
   371
  8
0
  6
CONTINUOUS
 62
     7
 10
-15.1044599215295
 20
188.04081654981
 30
0.0
 11
6.58305022430392
 21
188.04081654981
 31
0.0
  0
LINE
  5
   372
  8
0
  6
CONTINUOUS
 62
     7
 10
19.5205466480252
 20
215.415812716773
 30
0.0
 11
19.5205466480252
 21
218.04081653147
 31
0.0
  0
LINE
  5
   373
  8
0
  6
CONTINUOUS
 62
     3
 10
-2.85444977569608
 20
189.165816531469
 30
0.0
 11
2.05502243039248E-2
 21
189.165816531469
 31
0.0
  0
LINE
  5
   374
  8
0
  6
CONTINUOUS
 62
     3
 10
13.5205464096067
 20
189.16581653147
 30
0.0
 11
16.3955464096067
 21
189.16581653147
 31
0.0
  0
ARC
  5
   375
  8
0
  6
CONTINUOUS
 62
     3
 10
-6.22944977569608
 20
189.290816531463
 30
0.0
 40
0.125
 50
180.0
 51
270.0
  0
ARC
  5
   376
  8
0
  6
CONTINUOUS
 62
     3
 10
-6.22944977569608
 20
215.290812716773
 30
0.0
 40
0.125
 50
89.9999999999999
 51
180.0
  0
ARC
  5
   377
  8
0
  6
CONTINUOUS
 62
     3
 10
19.7705464096067
 20
215.290812716773
 30
0.0
 40
0.125
 50
360.0
 51
450.0
  0
ARC
  5
   378
  8
0
  6
CONTINUOUS
 62
     3
 10
19.7705464096067
 20
189.29081653147
 30
0.0
 40
0.125
 50
270.0
 51
360.0
  0
LINE
  5
   379
  8
0
  6
CONTINUOUS
 62
     7
 10
6.95805022430391
 20
187.97831653147
 30
0.0
 11
6.95805022430391
 21
188.04081653147
 31
0.0
  0
LINE
  5
   37A
  8
0
  6
CONTINUOUS
 62
     7
 10
6.58305022430391
 20
187.97831653147
 30
0.0
 11
6.58305022430391
 21
188.04081653147
 31
0.0
  0
ARC
  5
   37B
  8
0
  6
CONTINUOUS
 62
     7
 10
6.770528798387
 20
188.853365966225
 30
0.0
 40
0.687449651850481
 50
152.967149341799
 51
387.032850658201
  0
ARC
  5
   37C
  8
0
  6
CONTINUOUS
 62
     7
 10
6.77054056506814
 20
187.978309303236
 30
0.0
 40
0.18748584914764
 50
179.998288901736
 51
360.003191406695
  0
LINE
  5
   37D
  8
0
  6
CONTINUOUS
 62
     3
 10
2.05502243039248E-2
 20
189.16581653147
 30
0.0
 11
6.15818766135011
 21
189.16581653147
 31
0.0
  0
LINE
  5
   37E
  8
0
  6
DASHDOT
 62
     7
 10
5.86009561854353
 20
188.853365966225
 30
0.0
 11
7.77401509263621
 21
188.853365966225
 31
0.0
  0
LINE
  5
   37F
  8
0
  6
DASHDOT
 62
     7
 10
6.4255718267982
 20
187.978309303236
 30
0.0
 11
7.15634108054267
 21
187.978309303236
 31
0.0
  0
LINE
  5
   380
  8
0
  6
CONTINUOUS
 62
     7
 10
-2.60444977569608
 20
189.165812716773
 30
0.0
 11
-0.104453590393341
 21
189.165812716773
 31
0.0
  0
LINE
  5
   381
  8
0
  6
CONTINUOUS
 62
     7
 10
13.6455425949094
 20
189.165812716773
 30
0.0
 11
16.1455425949094
 21
189.165812716773
 31
0.0
  0
LINE
  5
   382
  8
0
  6
CONTINUOUS
 62
     7
 10
19.8955502243039
 20
182.30331061869
 30
0.0
 11
19.8955502243039
 21
193.790808902076
 31
0.0
  0
LINE
  5
   383
  8
0
  6
CONTINUOUS
 62
     7
 10
-6.35444977569608
 20
189.290812716773
 30
0.0
 11
-6.35444977569608
 21
193.790808902076
 31
0.0
  0
LINE
  5
   384
  8
0
  6
CONTINUOUS
 62
     7
 10
-6.22944977568911
 20
215.415812716773
 30
0.0
 11
19.7705502243039
 21
215.415812716773
 31
0.0
  0
LINE
  5
   385
  8
0
  6
CONTINUOUS
 62
     7
 10
-6.22944977569608
 20
189.165812716773
 30
0.0
 11
-2.60444977569608
 21
189.165812716773
 31
0.0
  0
LINE
  5
   386
  8
0
  6
CONTINUOUS
 62
     7
 10
-0.104453590393341
 20
189.165812716773
 30
0.0
 11
13.6455425949094
 21
189.165812716773
 31
0.0
  0
LINE
  5
   387
  8
0
  6
CONTINUOUS
 62
     7
 10
16.1455425949094
 20
189.165812716773
 30
0.0
 11
19.7705502243039
 21
189.165812716773
 31
0.0
  0
LINE
  5
   388
  8
0
  6
CONTINUOUS
 62
     7
 10
9.45805022430392
 20
194.728308902076
 30
0.0
 11
9.45805022430392
 21
204.728305087378
 31
0.0
  0
LINE
  5
   389
  8
0
  6
CONTINUOUS
 62
     7
 10
4.08305022430392
 20
194.728308902076
 30
0.0
 11
4.08305022430392
 21
204.728305087378
 31
0.0
  0
LINE
  5
   38A
  8
0
  6
CONTINUOUS
 62
     7
 10
-6.35444977569608
 20
212.415805087378
 30
0.0
 11
19.8955502243039
 21
212.415805087378
 31
0.0
  0
LINE
  5
   38B
  8
0
  6
CONTINUOUS
 62
     7
 10
-6.35444977569608
 20
214.915805087378
 30
0.0
 11
19.8955502243039
 21
214.915805087378
 31
0.0
  0
LINE
  5
   38C
  8
0
  6
CONTINUOUS
 62
     7
 10
4.08305022430392
 20
204.66218875437
 30
0.0
 11
9.45805022430392
 21
204.66218875437
 31
0.0
  0
LINE
  5
   38D
  8
0
  6
CONTINUOUS
 62
     7
 10
4.08305022430392
 20
204.728305087378
 30
0.0
 11
9.45805022430392
 21
204.728305087378
 31
0.0
  0
LINE
  5
   38E
  8
0
  6
CONTINUOUS
 62
     7
 10
4.08305022430392
 20
194.728308902076
 30
0.0
 11
9.45805022430392
 21
194.728308902076
 31
0.0
  0
LINE
  5
   38F
  8
0
  6
CONTINUOUS
 62
     7
 10
4.08305022430392
 20
194.794432864478
 30
0.0
 11
9.45805022430392
 21
194.794432864478
 31
0.0
  0
LINE
  5
   390
  8
0
  6
CONTINUOUS
 62
     7
 10
19.8955464096067
 20
194.040808902076
 30
0.0
 11
19.8955464096067
 21
197.040806913766
 31
0.0
  0
LINE
  5
   391
  8
0
  6
CONTINUOUS
 62
     7
 10
19.8955464096067
 20
205.665808902076
 30
0.0
 11
19.8955464096067
 21
223.403310046486
 31
0.0
  0
LINE
  5
   392
  8
0
  6
CONTINUOUS
 62
     7
 10
19.8955464096067
 20
197.290806913766
 30
0.0
 11
19.8955464096067
 21
202.165808902076
 31
0.0
  0
LINE
  5
   393
  8
0
  6
CONTINUOUS
 62
     7
 10
19.8955464096067
 20
202.415808902076
 30
0.0
 11
19.8955464096067
 21
205.415808902076
 31
0.0
  0
LINE
  5
   394
  8
0
  6
CONTINUOUS
 62
     7
 10
-6.35444977569735
 20
194.040808902076
 30
0.0
 11
-6.35444977569735
 21
197.040808902076
 31
0.0
  0
LINE
  5
   395
  8
0
  6
CONTINUOUS
 62
     7
 10
-6.35444977570182
 20
197.290808902076
 30
0.0
 11
-6.35444977570182
 21
202.165808902076
 31
0.0
  0
LINE
  5
   396
  8
0
  6
CONTINUOUS
 62
     7
 10
-6.35444977569478
 20
202.415808902076
 30
0.0
 11
-6.35444977569478
 21
205.415808902076
 31
0.0
  0
LINE
  5
   397
  8
0
  6
CONTINUOUS
 62
     7
 10
-6.35444977568911
 20
205.665808902076
 30
0.0
 11
-6.35444977568911
 21
215.290812716773
 31
0.0
  0
LINE
  5
   398
  8
0
  6
CONTINUOUS
 62
     7
 10
-6.10444979059724
 20
197.040813710932
 30
0.0
 11
4.08304823087293
 21
197.040813710932
 31
0.0
  0
LINE
  5
   399
  8
0
  6
CONTINUOUS
 62
     7
 10
19.6455464096067
 20
197.04081172262
 30
0.0
 11
19.8955464096066
 21
197.04081172262
 31
0.0
  0
LINE
  5
   39A
  8
0
  6
CONTINUOUS
 62
     7
 10
-6.10444979059724
 20
197.290813710933
 30
0.0
 11
4.08304334110087
 21
197.290813710933
 31
0.0
  0
LINE
  5
   39B
  8
0
  6
CONTINUOUS
 62
     7
 10
19.6455464096067
 20
197.29081172262
 30
0.0
 11
19.8955464096066
 21
197.29081172262
 31
0.0
  0
LINE
  5
   39C
  8
0
  6
CONTINUOUS
 62
     7
 10
-6.10444979059724
 20
197.040808902076
 30
0.0
 11
-6.10444979059724
 21
197.290808902076
 31
0.0
  0
LINE
  5
   39D
  8
0
  6
CONTINUOUS
 62
     7
 10
19.6455464096067
 20
197.040808902076
 30
0.0
 11
19.6455464096067
 21
197.290808902076
 31
0.0
  0
LINE
  5
   39E
  8
0
  6
CONTINUOUS
 62
     7
 10
19.6455464096067
 20
193.790808902076
 30
0.0
 11
19.8955502243039
 21
193.790808902076
 31
0.0
  0
LINE
  5
   39F
  8
0
  6
CONTINUOUS
 62
     7
 10
19.6455464096067
 20
194.040808902076
 30
0.0
 11
19.8955464096067
 21
194.040808902076
 31
0.0
  0
LINE
  5
   3A0
  8
0
  6
CONTINUOUS
 62
     7
 10
-6.10444979059724
 20
193.790808902076
 30
0.0
 11
-6.10444979059724
 21
194.040808902076
 31
0.0
  0
LINE
  5
   3A1
  8
0
  6
CONTINUOUS
 62
     7
 10
19.6455464096067
 20
193.790808902076
 30
0.0
 11
19.6455464096067
 21
194.040808902076
 31
0.0
  0
LINE
  5
   3A2
  8
0
  6
CONTINUOUS
 62
     7
 10
19.6455464096067
 20
205.415808902076
 30
0.0
 11
19.8955464096067
 21
205.415808902076
 31
0.0
  0
LINE
  5
   3A3
  8
0
  6
CONTINUOUS
 62
     7
 10
19.6455464096067
 20
205.665808902076
 30
0.0
 11
19.8955464096067
 21
205.665808902076
 31
0.0
  0
LINE
  5
   3A4
  8
0
  6
CONTINUOUS
 62
     7
 10
-6.10444979059724
 20
205.415808902076
 30
0.0
 11
-6.10444979059724
 21
205.665808902076
 31
0.0
  0
LINE
  5
   3A5
  8
0
  6
CONTINUOUS
 62
     7
 10
19.6455464096067
 20
205.415808902076
 30
0.0
 11
19.6455464096067
 21
205.665808902076
 31
0.0
  0
LINE
  5
   3A6
  8
0
  6
CONTINUOUS
 62
     7
 10
-6.10444979059724
 20
202.165808902076
 30
0.0
 11
4.08304824244949
 21
202.165808902076
 31
0.0
  0
LINE
  5
   3A7
  8
0
  6
CONTINUOUS
 62
     7
 10
19.6455464096067
 20
202.165808902076
 30
0.0
 11
19.8955464096067
 21
202.165808902076
 31
0.0
  0
LINE
  5
   3A8
  8
0
  6
CONTINUOUS
 62
     7
 10
-6.10444979059724
 20
202.415808902076
 30
0.0
 11
4.08305022430392
 21
202.415808902076
 31
0.0
  0
LINE
  5
   3A9
  8
0
  6
CONTINUOUS
 62
     7
 10
19.6455464096067
 20
202.415808902076
 30
0.0
 11
19.8955464096067
 21
202.415808902076
 31
0.0
  0
LINE
  5
   3AA
  8
0
  6
CONTINUOUS
 62
     7
 10
-6.10444979059724
 20
202.165808902076
 30
0.0
 11
-6.10444979059724
 21
202.415808902076
 31
0.0
  0
LINE
  5
   3AB
  8
0
  6
CONTINUOUS
 62
     7
 10
19.6455464096067
 20
202.165808902076
 30
0.0
 11
19.6455464096067
 21
202.415808902076
 31
0.0
  0
ARC
  5
   3AC
  8
0
  6
CONTINUOUS
 62
     7
 10
-6.22944977569608
 20
189.290812716773
 30
0.0
 40
0.125
 50
180.0
 51
270.0
  0
ARC
  5
   3AD
  8
0
  6
CONTINUOUS
 62
     7
 10
19.7705502243039
 20
189.290812716773
 30
0.0
 40
0.125
 50
270.0
 51
360.0
  0
ARC
  5
   3AE
  8
0
  6
CONTINUOUS
 62
     7
 10
19.7705502243039
 20
215.290812716773
 30
0.0
 40
0.125
 50
360.0
 51
450.0
  0
ARC
  5
   3AF
  8
0
  6
CONTINUOUS
 62
     7
 10
-6.22944977568911
 20
215.290812716773
 30
0.0
 40
0.125
 50
89.9999999999999
 51
180.0
  0
LINE
  5
   3B0
  8
0
  6
CONTINUOUS
 62
     7
 10
3.39555022430392
 20
194.040808902076
 30
0.0
 11
3.39555022430392
 21
197.040812474367
 31
0.0
  0
LINE
  5
   3B1
  8
0
  6
CONTINUOUS
 62
     7
 10
10.1455502243039
 20
194.040808902076
 30
0.0
 11
10.1455502243039
 21
197.040810486055
 31
0.0
  0
LINE
  5
   3B2
  8
0
  6
CONTINUOUS
 62
     7
 10
10.1455502243039
 20
202.415808902076
 30
0.0
 11
10.1455502243039
 21
205.415808902076
 31
0.0
  0
LINE
  5
   3B3
  8
0
  6
CONTINUOUS
 62
     7
 10
3.39555022430392
 20
202.415808902076
 30
0.0
 11
3.39555022430392
 21
205.415808902076
 31
0.0
  0
LINE
  5
   3B4
  8
0
  6
CONTINUOUS
 62
     7
 10
1.9580414457626
 20
223.353310809425
 30
0.0
 11
1.9580414457626
 21
224.103310809425
 31
0.0
  0
LINE
  5
   3B5
  8
0
  6
CONTINUOUS
 62
     7
 10
2.8330414457626
 20
223.353310809425
 30
0.0
 11
2.8330414457626
 21
224.103310809425
 31
0.0
  0
LINE
  5
   3B6
  8
0
  6
CONTINUOUS
 62
     7
 10
1.7705414457626
 20
222.478310809425
 30
0.0
 11
1.7705414457626
 21
223.353310809425
 31
0.0
  0
LINE
  5
   3B7
  8
0
  6
CONTINUOUS
 62
     7
 10
3.0205414457626
 20
222.478310809425
 30
0.0
 11
3.0205414457626
 21
223.353310809425
 31
0.0
  0
LINE
  5
   3B8
  8
0
  6
CONTINUOUS
 62
     7
 10
2.8330414457626
 20
223.353310809425
 30
0.0
 11
3.0205414457626
 21
223.353310809425
 31
0.0
  0
LINE
  5
   3B9
  8
0
  6
CONTINUOUS
 62
     7
 10
1.7705414457626
 20
223.353310809425
 30
0.0
 11
1.9580414457626
 21
223.353310809425
 31
0.0
  0
LINE
  5
   3BA
  8
0
  6
CONTINUOUS
 62
     7
 10
10.7080590028452
 20
223.353310809425
 30
0.0
 11
10.7080590028452
 21
224.103310809425
 31
0.0
  0
LINE
  5
   3BB
  8
0
  6
CONTINUOUS
 62
     7
 10
11.5830590028452
 20
223.353310809425
 30
0.0
 11
11.5830590028452
 21
224.103310809425
 31
0.0
  0
LINE
  5
   3BC
  8
0
  6
CONTINUOUS
 62
     7
 10
11.7705590028452
 20
222.478310809425
 30
0.0
 11
11.7705590028452
 21
223.353310809425
 31
0.0
  0
LINE
  5
   3BD
  8
0
  6
CONTINUOUS
 62
     7
 10
10.5205590028452
 20
222.478310809425
 30
0.0
 11
11.7705590028452
 21
222.478310809425
 31
0.0
  0
LINE
  5
   3BE
  8
0
  6
CONTINUOUS
 62
     7
 10
10.5205590028452
 20
222.478310809425
 30
0.0
 11
10.5205590028452
 21
223.353310809425
 31
0.0
  0
LINE
  5
   3BF
  8
0
  6
CONTINUOUS
 62
     7
 10
11.5830590028452
 20
223.353310809425
 30
0.0
 11
11.7705590028452
 21
223.353310809425
 31
0.0
  0
LINE
  5
   3C0
  8
0
  6
CONTINUOUS
 62
     7
 10
10.5205590028452
 20
223.353310809425
 30
0.0
 11
10.7080590028452
 21
223.353310809425
 31
0.0
  0
LINE
  5
   3C1
  8
0
  6
CONTINUOUS
 62
     7
 10
-6.35444977568911
 20
205.665808902076
 30
0.0
 11
-6.10444979059724
 21
205.665808902076
 31
0.0
  0
LINE
  5
   3C2
  8
0
  6
CONTINUOUS
 62
     7
 10
-6.35444977569478
 20
205.415808902076
 30
0.0
 11
-6.10444979059724
 21
205.415808902076
 31
0.0
  0
LINE
  5
   3C3
  8
0
  6
CONTINUOUS
 62
     7
 10
-6.35444977569478
 20
202.415808902076
 30
0.0
 11
-6.10444979059724
 21
202.415808902076
 31
0.0
  0
LINE
  5
   3C4
  8
0
  6
CONTINUOUS
 62
     7
 10
-6.35444977570182
 20
202.165808902076
 30
0.0
 11
-6.10444979059724
 21
202.165808902076
 31
0.0
  0
LINE
  5
   3C5
  8
0
  6
CONTINUOUS
 62
     7
 10
-6.35444977570182
 20
197.290813710933
 30
0.0
 11
-6.10444979059724
 21
197.290813710933
 31
0.0
  0
LINE
  5
   3C6
  8
0
  6
CONTINUOUS
 62
     7
 10
-6.35444977569735
 20
197.040813710932
 30
0.0
 11
-6.10444979059724
 21
197.040813710932
 31
0.0
  0
LINE
  5
   3C7
  8
0
  6
CONTINUOUS
 62
     7
 10
-6.35444977569735
 20
194.040808902076
 30
0.0
 11
-6.10444979059724
 21
194.040808902076
 31
0.0
  0
LINE
  5
   3C8
  8
0
  6
CONTINUOUS
 62
     7
 10
-6.35444977569608
 20
193.790808902076
 30
0.0
 11
-6.10444979059724
 21
193.790808902076
 31
0.0
  0
LINE
  5
   3C9
  8
0
  6
CONTINUOUS
 62
     7
 10
-6.10444979059724
 20
205.665808902076
 30
0.0
 11
19.6455464096067
 21
205.665808902076
 31
0.0
  0
LINE
  5
   3CA
  8
0
  6
CONTINUOUS
 62
     7
 10
-6.10444979059724
 20
205.415808902076
 30
0.0
 11
19.6455464096067
 21
205.415808902076
 31
0.0
  0
LINE
  5
   3CB
  8
0
  6
CONTINUOUS
 62
     7
 10
9.45805022430392
 20
202.415808902076
 30
0.0
 11
19.6455464096067
 21
202.415808902076
 31
0.0
  0
LINE
  5
   3CC
  8
0
  6
CONTINUOUS
 62
     7
 10
9.45805022430392
 20
202.165808902076
 30
0.0
 11
19.6455464096067
 21
202.165808902076
 31
0.0
  0
LINE
  5
   3CD
  8
0
  6
CONTINUOUS
 62
     7
 10
9.45804947811427
 20
197.29081172262
 30
0.0
 11
19.6455464096067
 21
197.29081172262
 31
0.0
  0
LINE
  5
   3CE
  8
0
  6
CONTINUOUS
 62
     7
 10
9.45804938651708
 20
197.04081172262
 30
0.0
 11
19.6455464096067
 21
197.04081172262
 31
0.0
  0
LINE
  5
   3CF
  8
0
  6
CONTINUOUS
 62
     7
 10
-6.10444979059724
 20
194.040808902076
 30
0.0
 11
19.6455464096067
 21
194.040808902076
 31
0.0
  0
LINE
  5
   3D0
  8
0
  6
CONTINUOUS
 62
     7
 10
-6.10444979059724
 20
193.790808902076
 30
0.0
 11
19.6455464096067
 21
193.790808902076
 31
0.0
  0
LINE
  5
   3D1
  8
0
  6
CONTINUOUS
 62
     7
 10
4.08305022430392
 20
198.25963907943
 30
0.0
 11
9.45805022430392
 21
198.25963907943
 31
0.0
  0
LINE
  5
   3D2
  8
0
  6
CONTINUOUS
 62
     7
 10
4.08305022430392
 20
196.730522703026
 30
0.0
 11
9.45805022430392
 21
196.730522703026
 31
0.0
  0
LINE
  5
   3D3
  8
0
  6
CONTINUOUS
 62
     7
 10
4.08305022430392
 20
195.243568046473
 30
0.0
 11
9.45805022430392
 21
195.243568046473
 31
0.0
  0
LINE
  5
   3D4
  8
0
  6
CONTINUOUS
 62
     7
 10
4.08305022430392
 20
195.042881264544
 30
0.0
 11
9.45805022430392
 21
195.042881264544
 31
0.0
  0
ARC
  5
   3D5
  8
0
  6
CONTINUOUS
 62
     7
 10
-13.7294336692283
 20
219.10329652327
 30
0.0
 40
0.937526387895239
 50
90.00142448128
 51
269.998569999042
  0
LINE
  5
   3D6
  8
0
  6
CONTINUOUS
 62
     7
 10
-14.2294571104951
 20
224.103310809425
 30
0.0
 11
-6.7919585542374
 21
224.103310809425
 31
0.0
  0
LINE
  5
   3D7
  8
0
  6
CONTINUOUS
 62
     7
 10
-6.9794585542374
 20
222.478310809425
 30
0.0
 11
-5.7294585542374
 21
222.478310809425
 31
0.0
  0
CIRCLE
  5
   3D8
  8
0
  6
CONTINUOUS
 62
     7
 10
-10.72945726329
 20
220.978308534033
 30
0.0
 40
1.37500034557561
  0
CIRCLE
  5
   3D9
  8
0
  6
CONTINUOUS
 62
     7
 10
-10.7294584568849
 20
223.103313138609
 30
0.0
 40
0.350001132261826
  0
CIRCLE
  5
   3DA
  8
0
  6
CONTINUOUS
 62
     7
 10
-6.3544585542374
 20
220.228311767018
 30
0.0
 40
1.12499828446178
  0
ARC
  5
   3DB
  8
0
  6
CONTINUOUS
 62
     7
 10
-6.35445339654212
 20
218.228315864091
 30
0.0
 40
0.43749799431662
 50
343.397681320923
 51
556.602318679077
  0
LINE
  5
   3DC
  8
0
  6
CONTINUOUS
 62
     7
 10
-5.41695369071912
 20
218.103310809425
 30
0.0
 11
-5.41695369071912
 21
219.606455054486
 31
0.0
  0
LINE
  5
   3DD
  8
0
  6
CONTINUOUS
 62
     7
 10
-7.29196553556745
 20
218.103310809425
 30
0.0
 11
-7.29196553556745
 21
219.606458247289
 31
0.0
  0
LINE
  5
   3DE
  8
0
  6
CONTINUOUS
 62
     7
 10
-6.7919585542374
 20
223.353310809425
 30
0.0
 11
-6.7919585542374
 21
224.103310809425
 31
0.0
  0
LINE
  5
   3DF
  8
0
  6
CONTINUOUS
 62
     7
 10
-5.9169585542374
 20
223.353310809425
 30
0.0
 11
-5.9169585542374
 21
224.103310809425
 31
0.0
  0
LINE
  5
   3E0
  8
0
  6
CONTINUOUS
 62
     7
 10
-6.9794585542374
 20
222.478310809425
 30
0.0
 11
-6.9794585542374
 21
223.353310809425
 31
0.0
  0
LINE
  5
   3E1
  8
0
  6
CONTINUOUS
 62
     7
 10
-5.7294585542374
 20
222.478310809425
 30
0.0
 11
-5.7294585542374
 21
223.353310809425
 31
0.0
  0
LINE
  5
   3E2
  8
0
  6
CONTINUOUS
 62
     7
 10
-5.9169585542374
 20
223.353310809425
 30
0.0
 11
-5.7294585542374
 21
223.353310809425
 31
0.0
  0
LINE
  5
   3E3
  8
0
  6
CONTINUOUS
 62
     7
 10
-6.9794585542374
 20
223.353310809425
 30
0.0
 11
-6.7919585542374
 21
223.353310809425
 31
0.0
  0
LINE
  5
   3E4
  8
0
  6
DASHDOT
 62
     7
 10
-7.62089441331826
 20
218.228315864091
 30
0.0
 11
-5.1267625421095
 21
218.228315864091
 31
0.0
  0
LINE
  5
   3E5
  8
0
  6
CONTINUOUS
 62
     7
 10
-14.2294571104951
 20
181.603310809425
 30
0.0
 11
-6.7919585542374
 21
181.603310809425
 31
0.0
  0
LINE
  5
   3E6
  8
0
  6
CONTINUOUS
 62
     7
 10
-6.9794585542374
 20
183.228310809425
 30
0.0
 11
-5.72944962483323
 21
183.228310809425
 31
0.0
  0
CIRCLE
  5
   3E7
  8
0
  6
CONTINUOUS
 62
     7
 10
-10.7294530926048
 20
184.728311661267
 30
0.0
 40
1.37499922265712
  0
CIRCLE
  5
   3E8
  8
0
  6
CONTINUOUS
 62
     7
 10
-10.7294539410439
 20
182.603310936002
 30
0.0
 40
0.350000050406668
  0
CIRCLE
  5
   3E9
  8
0
  6
CONTINUOUS
 62
     7
 10
-6.35445408953532
 20
185.478311344189
 30
0.0
 40
1.12499949670426
  0
LINE
  5
   3EA
  8
0
  6
CONTINUOUS
 62
     7
 10
-5.9169585542374
 20
181.603310809425
 30
0.0
 11
-5.9169585542374
 21
182.353310809425
 31
0.0
  0
LINE
  5
   3EB
  8
0
  6
CONTINUOUS
 62
     7
 10
-6.7919585542374
 20
181.603310809425
 30
0.0
 11
-6.7919585542374
 21
182.353310809425
 31
0.0
  0
LINE
  5
   3EC
  8
0
  6
CONTINUOUS
 62
     7
 10
-6.9794585542374
 20
182.353310809425
 30
0.0
 11
-6.7919585542374
 21
182.353310809425
 31
0.0
  0
LINE
  5
   3ED
  8
0
  6
CONTINUOUS
 62
     7
 10
-5.9169585542374
 20
182.353310809425
 30
0.0
 11
-5.72944962483323
 21
182.353310809425
 31
0.0
  0
LINE
  5
   3EE
  8
0
  6
CONTINUOUS
 62
     7
 10
-6.9794585542374
 20
182.353310809425
 30
0.0
 11
-6.9794585542374
 21
183.228310809425
 31
0.0
  0
LINE
  5
   3EF
  8
0
  6
DASHDOT
 62
     7
 10
-13.5794595891467
 20
223.103313138609
 30
0.0
 11
-7.87945732462308
 21
223.103313138609
 31
0.0
  0
LINE
  5
   3F0
  8
0
  6
DASHDOT
 62
     7
 10
-14.6044576088656
 20
220.978308534033
 30
0.0
 11
-6.85445691771439
 21
220.978308534033
 31
0.0
  0
LINE
  5
   3F1
  8
0
  6
DASHDOT
 62
     7
 10
-6.3544585542374
 20
216.603313482556
 30
0.0
 11
-6.3544585542374
 21
223.85331005148
 31
0.0
  0
LINE
  5
   3F2
  8
0
  6
DASHDOT
 62
     7
 10
-9.97945683869919
 20
220.228311767018
 30
0.0
 11
-2.72946026977562
 21
220.228311767018
 31
0.0
  0
LINE
  5
   3F3
  8
0
  6
DASHDOT
 62
     7
 10
-14.604452315262
 20
184.728311661267
 30
0.0
 11
-6.85445386994771
 21
184.728311661267
 31
0.0
  0
LINE
  5
   3F4
  8
0
  6
DASHDOT
 62
     7
 10
-13.5794539914506
 20
182.603310936002
 30
0.0
 11
-7.87945389063727
 21
182.603310936002
 31
0.0
  0
LINE
  5
   3F5
  8
0
  6
CONTINUOUS
 62
     7
 10
-7.25444977568912
 20
188.04081654981
 30
0.0
 11
-7.25444977568912
 21
218.040810809425
 31
0.0
  0
LINE
  5
   3F6
  8
0
  6
CONTINUOUS
 62
     7
 10
-8.15444977568911
 20
188.04081654981
 30
0.0
 11
-8.15444977568911
 21
218.040810809425
 31
0.0
  0
LINE
  5
   3F7
  8
0
  6
CONTINUOUS
 62
     7
 10
-9.05444977568911
 20
188.04081654981
 30
0.0
 11
-9.05444977568911
 21
218.040810809425
 31
0.0
  0
LINE
  5
   3F8
  8
0
  6
CONTINUOUS
 62
     7
 10
-9.95444977568911
 20
188.04081654981
 30
0.0
 11
-9.95444977568911
 21
218.040810809425
 31
0.0
  0
LINE
  5
   3F9
  8
0
  6
CONTINUOUS
 62
     7
 10
-10.8544497756891
 20
188.04081654981
 30
0.0
 11
-10.8544497756891
 21
218.040810809425
 31
0.0
  0
LINE
  5
   3FA
  8
0
  6
CONTINUOUS
 62
     7
 10
-11.7544497756891
 20
188.04081654981
 30
0.0
 11
-11.7544497756891
 21
218.040810809425
 31
0.0
  0
LINE
  5
   3FB
  8
0
  6
CONTINUOUS
 62
     7
 10
-12.6544497756891
 20
188.04081654981
 30
0.0
 11
-12.6544497756891
 21
218.040810809425
 31
0.0
  0
LINE
  5
   3FC
  8
0
  6
CONTINUOUS
 62
     7
 10
-13.5544497756891
 20
188.04081654981
 30
0.0
 11
-13.5544497756891
 21
218.040810809425
 31
0.0
  0
LINE
  5
   3FD
  8
0
  6
CONTINUOUS
 62
     7
 10
-14.4544497756891
 20
188.04081654981
 30
0.0
 11
-14.4544497756891
 21
218.040810809425
 31
0.0
  0
LINE
  5
   3FE
  8
0
  6
CONTINUOUS
 62
     7
 10
-15.1044599215295
 20
215.415812716773
 30
0.0
 11
-6.22944977568911
 21
215.415812716773
 31
0.0
  0
LINE
  5
   3FF
  8
0
  6
CONTINUOUS
 62
     7
 10
-15.1044599215295
 20
189.165812716773
 30
0.0
 11
-6.22944977569608
 21
189.165812716773
 31
0.0
  0
LINE
  5
   400
  8
0
  6
DASHDOT
 62
     7
 10
11.145543728998
 20
218.353312588378
 30
0.0
 11
11.145543728998
 21
222.103312459293
 31
0.0
  0
LINE
  5
   401
  8
0
  6
DASHDOT
 62
     7
 10
9.27054379354012
 20
220.228312523836
 30
0.0
 11
13.0205436644559
 21
220.228312523836
 31
0.0
  0
LINE
  5
   402
  8
0
  6
DASHDOT
 62
     7
 10
-6.35445408953532
 20
183.603311847485
 30
0.0
 11
-6.35445408953532
 21
187.353310840893
 31
0.0
  0
LINE
  5
   403
  8
0
  6
DASHDOT
 62
     7
 10
-8.22945358623958
 20
185.478311344189
 30
0.0
 11
-4.47945459283107
 21
185.478311344189
 31
0.0
  0
LINE
  5
   404
  8
0
  6
CONTINUOUS
 62
     7
 10
-5.72944962483323
 20
182.353310809425
 30
0.0
 11
-5.72944962483323
 21
183.228310809425
 31
0.0
  0
LINE
  5
   405
  8
0
  6
CONTINUOUS
 62
     7
 10
17.5830474132695
 20
186.603310809425
 30
0.0
 11
17.5830474132695
 21
187.603310809425
 31
0.0
  0
CIRCLE
  5
   406
  8
0
  6
CONTINUOUS
 62
     7
 10
18.5205478719217
 20
186.603310167889
 30
0.0
 40
0.937500335919419
  0
CIRCLE
  5
   407
  8
0
  6
CONTINUOUS
 62
     7
 10
18.5205473715758
 20
186.603311312327
 30
0.0
 40
0.437499790794377
  0
LINE
  5
   408
  8
0
  6
DASHDOT
 62
     7
 10
16.8330475360023
 20
186.603310167889
 30
0.0
 11
20.2080482078411
 21
186.603310167889
 31
0.0
  0
LINE
  5
   409
  8
0
  6
DASHDOT
 62
     7
 10
18.5205478719217
 20
184.915809831969
 30
0.0
 11
18.5205478719217
 21
188.290810503808
 31
0.0
  0
LINE
  5
   40A
  8
0
  6
CONTINUOUS
 62
     7
 10
18.5205470556417
 20
185.665810809425
 30
0.0
 11
19.2705476516881
 21
185.665810809425
 31
0.0
  0
LINE
  5
   40B
  8
0
  6
CONTINUOUS
 62
     7
 10
19.2705473636359
 20
182.303310797504
 30
0.0
 11
19.2705473636359
 21
185.665810749821
 31
0.0
  0
LINE
  5
   40C
  8
0
  6
CONTINUOUS
 62
     7
 10
19.2705474132695
 20
182.303310797504
 30
0.0
 11
19.8955474132695
 21
182.303310797504
 31
0.0
  0
LINE
  5
   40D
  8
0
  6
CONTINUOUS
 62
     7
 10
19.2705474132695
 20
181.853310809425
 30
0.0
 11
19.2705474132695
 21
182.303310797504
 31
0.0
  0
ARC
  5
   40E
  8
0
  6
CONTINUOUS
 62
     7
 10
19.0205473529524
 20
181.853310835346
 30
0.0
 40
0.250000026530426
 50
270.000010464817
 51
359.999993923243
  0
LINE
  5
   40F
  8
0
  6
CONTINUOUS
 62
     7
 10
11.5830488570118
 20
181.603310809425
 30
0.0
 11
19.0205474132695
 21
181.603310809425
 31
0.0
  0
LINE
  5
   410
  8
0
  6
CONTINUOUS
 62
     7
 10
11.5830488570118
 20
181.603310809425
 30
0.0
 11
11.5830488570118
 21
182.353310809425
 31
0.0
  0
LINE
  5
   411
  8
0
  6
CONTINUOUS
 62
     7
 10
10.7080488570118
 20
181.603310809425
 30
0.0
 11
10.7080488570118
 21
182.353310809425
 31
0.0
  0
LINE
  5
   412
  8
0
  6
CONTINUOUS
 62
     7
 10
10.5205399276076
 20
182.353310809425
 30
0.0
 11
10.7080488570118
 21
182.353310809425
 31
0.0
  0
LINE
  5
   413
  8
0
  6
CONTINUOUS
 62
     7
 10
11.5830488570118
 20
182.353310809425
 30
0.0
 11
11.7705488570118
 21
182.353310809425
 31
0.0
  0
LINE
  5
   414
  8
0
  6
CONTINUOUS
 62
     7
 10
11.7705488570118
 20
182.353310809425
 30
0.0
 11
11.7705488570118
 21
183.228310809425
 31
0.0
  0
LINE
  5
   415
  8
0
  6
CONTINUOUS
 62
     7
 10
10.5205399276076
 20
183.228310809425
 30
0.0
 11
11.7705488570118
 21
183.228310809425
 31
0.0
  0
LINE
  5
   416
  8
0
  6
CONTINUOUS
 62
     7
 10
10.5205399276076
 20
182.353310809425
 30
0.0
 11
10.5205399276076
 21
183.228310809425
 31
0.0
  0
CIRCLE
  5
   417
  8
0
  6
CONTINUOUS
 62
     7
 10
15.5205433953792
 20
184.728311661267
 30
0.0
 40
1.37499922265712
  0
LINE
  5
   418
  8
0
  6
DASHDOT
 62
     7
 10
11.6455441727221
 20
184.728311661267
 30
0.0
 11
19.3955426180364
 21
184.728311661267
 31
0.0
  0
LINE
  5
   419
  8
0
  6
DASHDOT
 62
     7
 10
12.6705441934117
 20
182.603310936002
 30
0.0
 11
18.370544294225
 21
182.603310936002
 31
0.0
  0
CIRCLE
  5
   41A
  8
0
  6
CONTINUOUS
 62
     7
 10
15.5205442438183
 20
182.603310936002
 30
0.0
 40
0.350000050406668
  0
LINE
  5
   41B
  8
0
  6
DASHDOT
 62
     7
 10
9.27054489560548
 20
185.478311344189
 30
0.0
 11
13.020543889014
 21
185.478311344189
 31
0.0
  0
LINE
  5
   41C
  8
0
  6
DASHDOT
 62
     7
 10
11.1455443923097
 20
183.603311847485
 30
0.0
 11
11.1455443923097
 21
187.353310840893
 31
0.0
  0
CIRCLE
  5
   41D
  8
0
  6
CONTINUOUS
 62
     7
 10
11.1455443923097
 20
185.478311344189
 30
0.0
 40
1.12499949670426
  0
LINE
  5
   41E
  8
0
  6
DASHDOT
 62
     7
 10
2.39554591046468
 20
183.603311847485
 30
0.0
 11
2.39554591046468
 21
187.353310840893
 31
0.0
  0
LINE
  5
   41F
  8
0
  6
DASHDOT
 62
     7
 10
0.520546413760421
 20
185.478311344189
 30
0.0
 11
4.27054540716893
 21
185.478311344189
 31
0.0
  0
CIRCLE
  5
   420
  8
0
  6
CONTINUOUS
 62
     7
 10
2.39554591046468
 20
185.478311344189
 30
0.0
 40
1.12499949670426
  0
CIRCLE
  5
   421
  8
0
  6
CONTINUOUS
 62
     7
 10
-1.97945309260484
 20
184.728311661267
 30
0.0
 40
1.37499922265712
  0
LINE
  5
   422
  8
0
  6
DASHDOT
 62
     7
 10
-5.85445231526196
 20
184.728311661267
 30
0.0
 11
1.89554613005229
 21
184.728311661267
 31
0.0
  0
CIRCLE
  5
   423
  8
0
  6
CONTINUOUS
 62
     7
 10
-1.97945394104394
 20
182.603310936002
 30
0.0
 40
0.350000050406668
  0
LINE
  5
   424
  8
0
  6
DASHDOT
 62
     7
 10
-4.8294539914506
 20
182.603310936002
 30
0.0
 11
0.870546109362728
 21
182.603310936002
 31
0.0
  0
CIRCLE
  5
   425
  8
0
  6
CONTINUOUS
 62
     7
 10
6.77054690739516
 20
184.728311661267
 30
0.0
 40
1.37499922265712
  0
LINE
  5
   426
  8
0
  6
DASHDOT
 62
     7
 10
2.89554768473804
 20
184.728311661267
 30
0.0
 11
10.6455461300523
 21
184.728311661267
 31
0.0
  0
LINE
  5
   427
  8
0
  6
DASHDOT
 62
     7
 10
3.9205460085494
 20
182.603310936002
 30
0.0
 11
9.62054610936273
 21
182.603310936002
 31
0.0
  0
CIRCLE
  5
   428
  8
0
  6
CONTINUOUS
 62
     7
 10
6.77054605895606
 20
182.603310936002
 30
0.0
 40
0.350000050406668
  0
LINE
  5
   429
  8
0
  6
CONTINUOUS
 62
     7
 10
-5.9169585542374
 20
181.603310809425
 30
0.0
 11
1.9580414457626
 21
181.603310809425
 31
0.0
  0
LINE
  5
   42A
  8
0
  6
CONTINUOUS
 62
     7
 10
2.8330414457626
 20
181.603310809425
 30
0.0
 11
2.8330414457626
 21
182.353310809425
 31
0.0
  0
LINE
  5
   42B
  8
0
  6
CONTINUOUS
 62
     7
 10
1.9580414457626
 20
181.603310809425
 30
0.0
 11
1.9580414457626
 21
182.353310809425
 31
0.0
  0
LINE
  5
   42C
  8
0
  6
CONTINUOUS
 62
     7
 10
1.7705414457626
 20
182.353310809425
 30
0.0
 11
1.9580414457626
 21
182.353310809425
 31
0.0
  0
LINE
  5
   42D
  8
0
  6
CONTINUOUS
 62
     7
 10
2.8330414457626
 20
182.353310809425
 30
0.0
 11
3.02055037516677
 21
182.353310809425
 31
0.0
  0
LINE
  5
   42E
  8
0
  6
CONTINUOUS
 62
     7
 10
3.02055037516677
 20
182.353310809425
 30
0.0
 11
3.02055037516677
 21
183.228310809425
 31
0.0
  0
LINE
  5
   42F
  8
0
  6
CONTINUOUS
 62
     7
 10
1.7705414457626
 20
182.353310809425
 30
0.0
 11
1.7705414457626
 21
183.228310809425
 31
0.0
  0
LINE
  5
   430
  8
0
  6
CONTINUOUS
 62
     7
 10
1.7705414457626
 20
183.228310809425
 30
0.0
 11
3.02055037516677
 21
183.228310809425
 31
0.0
  0
LINE
  5
   431
  8
0
  6
CONTINUOUS
 62
     7
 10
2.8330414457626
 20
181.603310809425
 30
0.0
 11
10.7080414457626
 21
181.603310809425
 31
0.0
  0
LINE
  5
   432
  8
0
  6
DASHDOT
 62
     7
 10
-22.3120031420556
 20
124.778317135382
 30
0.0
 11
27.020664432607
 21
124.778317135382
 31
0.0
  0
LINE
  5
   433
  8
0
  6
DOT
 62
     7
 10
20.1455572304475
 20
143.478315228032
 30
0.0
 11
27.5205584630579
 21
143.478315228032
 31
0.0
  0
LINE
  5
   434
  8
0
  6
DOT
 62
     7
 10
27.5205584630579
 20
107.290811413335
 30
0.0
 11
27.5205584630579
 21
143.478315228033
 31
0.0
  0
LINE
  5
   435
  8
0
  6
DOT
 62
     7
 10
22.390552347635
 20
107.290811413335
 30
0.0
 11
27.5205572304475
 21
107.290811413335
 31
0.0
  0
LINE
  5
   436
  8
0
  6
DOT
 62
     7
 10
27.7705534157502
 20
121.728303783941
 30
0.0
 11
27.7705534157502
 21
126.728303783941
 31
0.0
  0
LINE
  5
   437
  8
0
  6
DOT
 62
     7
 10
27.5205572304475
 20
126.728303783941
 30
0.0
 11
27.7705534157502
 21
126.728303783941
 31
0.0
  0
LINE
  5
   438
  8
0
  6
DOT
 62
     7
 10
27.5205534157502
 20
121.728303783941
 30
0.0
 11
27.7705534157502
 21
121.728303783941
 31
0.0
  0
LINE
  5
   439
  8
0
  6
CONTINUOUS
 62
     7
 10
27.8158760781103
 20
81.7495890597327
 30
0.0
 11
51.6445750844109
 21
81.7495890597327
 31
0.0
  0
LINE
  5
   43A
  8
0
  6
DOT
 62
     7
 10
-20.1044597022875
 20
214.728313817818
 30
0.0
 11
-15.8544597022873
 21
214.728313817818
 31
0.0
  0
LINE
  5
   43B
  8
0
  6
DOT
 62
     7
 10
20.6455402977127
 20
214.728313817818
 30
0.0
 11
24.8955402977125
 21
214.728313817818
 31
0.0
  0
LINE
  5
   43C
  8
0
  6
DOT
 62
     7
 10
-20.1044597022875
 20
113.478313817818
 30
0.0
 11
-15.8544597022873
 21
113.478313817818
 31
0.0
  0
LINE
  5
   43D
  8
0
  6
DOT
 62
     7
 10
20.6455402977127
 20
113.478313817818
 30
0.0
 11
24.8955402977125
 21
113.478313817818
 31
0.0
  0
LINE
  5
   43E
  8
0
  6
DOT
 62
     7
 10
19.8955402977127
 20
114.228313817818
 30
0.0
 11
19.8955402977127
 21
125.228313817818
 31
0.0
  0
LINE
  5
   43F
  8
0
  6
CONTINUOUS
 62
     7
 10
-15.1044597022873
 20
121.203794764979
 30
0.0
 11
-15.1044597022873
 21
125.228313817818
 31
0.0
  0
ARC
  5
   440
  8
0
  6
CONTINUOUS
 62
     7
 10
-15.8544597022873
 20
125.228313817818
 30
0.0
 40
0.75
 50
0.0
 51
59.9999999999843
  0
ARC
  5
   441
  8
0
  6
DOT
 62
     7
 10
-15.8544597022873
 20
114.228313817818
 30
0.0
 40
0.75
 50
270.0
 51
360.0
  0
ARC
  5
   442
  8
0
  6
DOT
 62
     7
 10
20.6455402977127
 20
125.228313817818
 30
0.0
 40
0.75
 50
90.0
 51
180.0
  0
ARC
  5
   443
  8
0
  6
DOT
 62
     7
 10
20.6455402977127
 20
114.228313817818
 30
0.0
 40
0.75
 50
180.0
 51
270.0
  0
ARC
  5
   444
  8
0
  6
DOT
 62
     7
 10
20.6455402977127
 20
213.978313817818
 30
0.0
 40
0.75
 50
90.0
 51
180.0
  0
ARC
  5
   445
  8
0
  6
DOT
 62
     7
 10
20.6455402977127
 20
202.978313817818
 30
0.0
 40
0.75
 50
180.0
 51
270.0
  0
ARC
  5
   446
  8
0
  6
DOT
 62
     7
 10
-15.8544597022873
 20
202.978313817818
 30
0.0
 40
0.75
 50
270.0
 51
300.000000000053
  0
ARC
  5
   447
  8
0
  6
DOT
 62
     7
 10
-15.8544597022873
 20
213.978313817818
 30
0.0
 40
0.75
 50
0.0
 51
90.0
  0
ARC
  5
   448
  8
0
  6
DOT
 62
     7
 10
-15.8544597022873
 20
125.228313817818
 30
0.0
 40
0.75
 50
59.9999999999843
 51
90.0
  0
ARC
  5
   449
  8
0
  6
CONTINUOUS
 62
     7
 10
-15.8544597022873
 20
202.978313817818
 30
0.0
 40
0.75
 50
300.000000000053
 51
360.0
  0
LINE
  5
   44A
  8
0
  6
CONTINUOUS
 62
     7
 10
-15.1044597022873
 20
202.978313817818
 30
0.0
 11
-15.1044597022873
 21
207.002832870654
 31
0.0
  0
INSERT
  5
   44B
  8
0
  6
CONTINUOUS
 62
     7
  2
*UDIM209
 10
0.0
 20
0.0
 30
0.0
  0
TEXT
  5
   44C
  8
0
  6
CONTINUOUS
 62
     7
 10
46.1452866494656
 20
162.698806747794
 30
0.0
 40
3.00000002980232
  1
X
 41
0.916666604744064
 72
     1
 11
47.2452865839004
 21
164.198806762695
 31
0.0
 73
     2
  0
TEXT
  5
   44D
  8
0
  6
CONTINUOUS
 62
     7
 10
0.546954244375228
 20
63.2639160007238
 30
0.0
 40
3.00000002980232
  1
Y
 41
0.916666604744064
 72
     1
 11
1.64695417881012
 21
64.763916015625
 31
0.0
 73
     2
  0
TEXT
  5
   44E
  8
0
  6
CONTINUOUS
 62
     7
 10
0.639267057180404
 20
260.076171860099
 30
0.0
 40
3.00000002980232
  1
Y
 41
0.916666604744064
 72
     1
 11
1.7392669916153
 21
261.576171875
 31
0.0
 73
     2
  0
INSERT
  5
   44F
  8
0
  6
CONTINUOUS
 62
     7
  2
*UDIM210
 10
0.0
 20
0.0
 30
0.0
  0
INSERT
  5
   450
  8
0
  6
CONTINUOUS
 62
     7
  2
*UDIM211
 10
0.0
 20
0.0
 30
0.0
  0
INSERT
  5
   451
  8
0
  6
CONTINUOUS
 62
     7
  2
*UDIM212
 10
0.0
 20
0.0
 30
0.0
  0
INSERT
  5
   452
  8
0
  6
CONTINUOUS
 62
     7
  2
*UDIM213
 10
0.0
 20
0.0
 30
0.0
  0
INSERT
  5
   453
  8
0
  6
CONTINUOUS
 62
     7
  2
*UDIM214
 10
0.0
 20
0.0
 30
0.0
  0
INSERT
  5
   454
  8
0
  6
CONTINUOUS
 62
     7
  2
*UDIM215
 10
0.0
 20
0.0
 30
0.0
  0
INSERT
  5
   455
  8
0
  6
CONTINUOUS
 62
     7
  2
*UDIM216
 10
0.0
 20
0.0
 30
0.0
  0
TEXT
  5
   456
  8
0
  6
CONTINUOUS
 62
     7
 10
-2.01841901789109
 20
69.4950713962317
 30
0.0
 40
3.00000002980232
  1
= =
 41
0.916666604744064
 72
     1
 11
1.83158075809479
 21
70.9950714111328
 31
0.0
 73
     2
  0
TEXT
  5
   457
  8
0
  6
CONTINUOUS
 62
     7
 10
-3.5318886347115
 20
247.336929306388
 30
0.0
 40
3.00000002980232
  1
=  =
 41
0.916666604744064
 72
     1
 11
1.69311106204987
 21
248.836929321289
 31
0.0
 73
     2
  0
INSERT
  5
   458
  8
0
  6
CONTINUOUS
 62
     7
  2
*UDIM217
 10
0.0
 20
0.0
 30
0.0
  0
INSERT
  5
   459
  8
0
  6
CONTINUOUS
 62
     7
  2
*UDIM218
 10
0.0
 20
0.0
 30
0.0
  0
INSERT
  5
   45A
  8
0
  6
CONTINUOUS
 62
     7
  2
*UDIM219
 10
0.0
 20
0.0
 30
0.0
  0
INSERT
  5
   45B
  8
0
  6
CONTINUOUS
 62
     7
  2
*UDIM220
 10
0.0
 20
0.0
 30
0.0
  0
LINE
  5
   45C
  8
0
  6
CONTINUOUS
 62
     7
 10
-64.6470184326172
 20
198.879410777077
 30
0.0
 11
-64.6470184326172
 21
201.478311449574
 31
0.0
  0
LINE
  5
   45D
  8
0
  6
CONTINUOUS
 62
     7
 10
-64.6470200605519
 20
201.47830326552
 30
0.0
 11
-64.5899293019741
 21
201.765313452285
 31
0.0
  0
LINE
  5
   45E
  8
0
  6
CONTINUOUS
 62
     7
 10
-64.5899280542914
 20
201.765322924741
 30
0.0
 11
-64.4273485253248
 21
202.008639582207
 31
0.0
  0
LINE
  5
   45F
  8
0
  6
CONTINUOUS
 62
     7
 10
-64.4273469209701
 20
202.008643245787
 30
0.0
 11
-64.1840293102376
 21
202.171225651725
 31
0.0
  0
LINE
  5
   460
  8
0
  6
CONTINUOUS
 62
     7
 10
-64.1840278498723
 20
202.171229990592
 30
0.0
 11
-63.8970157462141
 21
202.228320747722
 31
0.0
  0
LINE
  5
   461
  8
0
  6
CONTINUOUS
 62
     7
 10
-64.1840278498723
 20
202.171229990592
 30
0.0
 11
-63.8970157462141
 21
202.228320747722
 31
0.0
  0
LINE
  5
   462
  8
0
  6
CONTINUOUS
 62
     7
 10
-58.3970184326172
 20
202.228313854648
 30
0.0
 11
-63.8970184326172
 21
202.228313854648
 31
0.0
  0
LINE
  5
   463
  8
0
  6
CONTINUOUS
 62
     7
 10
-58.3970184326172
 20
202.228313854648
 30
0.0
 11
-58.3970184326172
 21
214.728313854648
 31
0.0
  0
LINE
  5
   464
  8
0
  6
CONTINUOUS
 62
     7
 10
-64.6470184326172
 20
215.478313854648
 30
0.0
 11
-64.6470184326172
 21
235.603307932316
 31
0.0
  0
LINE
  5
   465
  8
0
  6
CONTINUOUS
 62
     7
 10
-64.6470179936128
 20
235.603305725267
 30
0.0
 11
-64.7041087507326
 21
235.890323545204
 31
0.0
  0
LINE
  5
   466
  8
0
  6
CONTINUOUS
 62
     7
 10
-64.7041089012934
 20
235.890330283268
 30
0.0
 11
-64.86668843026
 21
236.133646940734
 31
0.0
  0
LINE
  5
   467
  8
0
  6
CONTINUOUS
 62
     7
 10
-64.8666895259993
 20
236.133651443137
 30
0.0
 11
-65.1100071367318
 21
236.296233849075
 31
0.0
  0
LINE
  5
   468
  8
0
  6
CONTINUOUS
 62
     7
 10
-65.1100060988366
 20
236.296224688229
 30
0.0
 11
-65.3970182005115
 21
236.353307817246
 31
0.0
  0
LINE
  5
   469
  8
0
  6
CONTINUOUS
 62
     7
 10
-65.3970485563734
 20
236.353313854648
 30
0.0
 11
-74.6470184326172
 21
236.353313854648
 31
0.0
  0
LINE
  5
   46A
  8
0
  6
CONTINUOUS
 62
     7
 10
-74.6470184326172
 20
91.853313854648
 30
0.0
 11
-74.6470184326172
 21
236.353313854648
 31
0.0
  0
LINE
  5
   46B
  8
0
  6
CONTINUOUS
 62
     7
 10
-65.3970187533773
 20
91.853313854648
 30
0.0
 11
-74.6470184326172
 21
91.853313854648
 31
0.0
  0
LINE
  5
   46C
  8
0
  6
CONTINUOUS
 62
     7
 10
-65.3970190619291
 20
91.8533137932732
 30
0.0
 11
-65.110006964403
 21
91.9104041419602
 31
0.0
  0
LINE
  5
   46D
  8
0
  6
CONTINUOUS
 62
     7
 10
-65.1100058468087
 20
91.9104043384824
 30
0.0
 11
-64.8666882412118
 21
92.0729839133206
 31
0.0
  0
LINE
  5
   46E
  8
0
  6
CONTINUOUS
 62
     7
 10
-64.8666885955341
 20
92.0729838191677
 30
0.0
 11
-64.7041090529254
 21
92.316301332983
 31
0.0
  0
LINE
  5
   46F
  8
0
  6
CONTINUOUS
 62
     7
 10
-64.7041092040623
 20
92.3163012794386
 30
0.0
 11
-64.6470184454778
 21
92.6033138507716
 31
0.0
  0
LINE
  5
   470
  8
0
  6
CONTINUOUS
 62
     7
 10
-64.6470184326172
 20
92.6033139154259
 30
0.0
 11
-64.6470184326172
 21
112.728313854648
 31
0.0
  0
LINE
  5
   471
  8
0
  6
CONTINUOUS
 62
     7
 10
-58.3970184326172
 20
113.478313854648
 30
0.0
 11
-58.3970184326172
 21
125.978313854648
 31
0.0
  0
LINE
  5
   472
  8
0
  6
CONTINUOUS
 62
     7
 10
-58.3970184326172
 20
125.978313854648
 30
0.0
 11
-63.8970184326172
 21
125.978313854648
 31
0.0
  0
LINE
  5
   473
  8
0
  6
CONTINUOUS
 62
     7
 10
-63.8970173766455
 20
125.978315806864
 30
0.0
 11
-64.1840294803037
 21
126.035406563994
 31
0.0
  0
LINE
  5
   474
  8
0
  6
CONTINUOUS
 62
     7
 10
-64.1840308222745
 20
126.035402294332
 30
0.0
 11
-64.4273484178965
 21
126.197980873443
 31
0.0
  0
LINE
  5
   475
  8
0
  6
CONTINUOUS
 62
     7
 10
-64.4273481429693
 20
126.197982882174
 30
0.0
 11
-64.5899276719358
 21
126.44129953964
 31
0.0
  0
LINE
  5
   476
  8
0
  6
CONTINUOUS
 62
     7
 10
-64.5899273952802
 20
126.441303064355
 30
0.0
 11
-64.6470181524116
 21
126.728317079252
 31
0.0
  0
LINE
  5
   477
  8
0
  6
CONTINUOUS
 62
     7
 10
-64.6470184326172
 20
126.728318487938
 30
0.0
 11
-64.6470184326172
 21
126.911298346424
 31
0.0
  0
LINE
  5
   478
  8
0
  6
CONTINUOUS
 62
     7
 10
-73.8970184326172
 20
91.853313854648
 30
0.0
 11
-73.8970184326172
 21
236.353313854648
 31
0.0
  0
LINE
  5
   479
  8
0
  6
DASHDOT
 62
     7
 10
-70.1470184326172
 20
194.978313854648
 30
0.0
 11
-73.1470184326172
 21
194.978313854648
 31
0.0
  0
LINE
  5
   47A
  8
0
  6
DASHDOT
 62
     7
 10
-71.6470184326172
 20
193.478313854648
 30
0.0
 11
-71.6470184326172
 21
196.478313854648
 31
0.0
  0
LINE
  5
   47B
  8
0
  6
DASHDOT
 62
     7
 10
-70.1470184326172
 20
132.478313854648
 30
0.0
 11
-73.1470184326172
 21
132.478313854648
 31
0.0
  0
LINE
  5
   47C
  8
0
  6
DASHDOT
 62
     7
 10
-71.6470184326172
 20
130.978313854648
 30
0.0
 11
-71.6470184326172
 21
133.978313854648
 31
0.0
  0
LINE
  5
   47D
  8
0
  6
CONTINUOUS
 62
     7
 10
-59.1470184326172
 20
113.478313854648
 30
0.0
 11
-59.1470184326172
 21
125.978313854648
 31
0.0
  0
LINE
  5
   47E
  8
0
  6
CONTINUOUS
 62
     7
 10
-59.1470184326172
 20
202.228313854648
 30
0.0
 11
-59.1470184326172
 21
214.728313854648
 31
0.0
  0
LINE
  5
   47F
  8
0
  6
CONTINUOUS
 62
     7
 10
-73.8970184326172
 20
129.603313854648
 30
0.0
 11
-74.6470184326172
 21
129.603313854648
 31
0.0
  0
LINE
  5
   480
  8
0
  6
CONTINUOUS
 62
     7
 10
-73.8970184326172
 20
121.103313854648
 30
0.0
 11
-74.6470184326172
 21
121.103313854648
 31
0.0
  0
LINE
  5
   481
  8
0
  6
DASHDOT
 62
     7
 10
-53.9912433721102
 20
164.103313854648
 30
0.0
 11
-99.3185998217451
 21
164.103313854648
 31
0.0
  0
LINE
  5
   482
  8
0
  6
CONTINUOUS
 62
     7
 10
-73.8970184326172
 20
198.603313854648
 30
0.0
 11
-74.6470184326172
 21
198.603313854648
 31
0.0
  0
LINE
  5
   483
  8
0
  6
CONTINUOUS
 62
     7
 10
-73.8970184326172
 20
207.103313854648
 30
0.0
 11
-74.6470184326172
 21
207.103313854648
 31
0.0
  0
LINE
  5
   484
  8
0
  6
CONTINUOUS
 62
     7
 10
-75.1466908372943
 20
182.30331747861
 30
0.0
 11
-93.1466908372943
 21
182.30331747861
 31
0.0
  0
LINE
  5
   485
  8
0
  6
CONTINUOUS
 62
     7
 10
-75.1466908372943
 20
181.603316959161
 30
0.0
 11
-75.1466908372943
 21
224.103313854648
 31
0.0
  0
LINE
  5
   486
  8
0
  6
CONTINUOUS
 62
     7
 10
-92.2716899570558
 20
206.353307341861
 30
0.0
 11
-92.271685115311
 21
208.41581326818
 31
0.0
  0
LINE
  5
   487
  8
0
  6
CONTINUOUS
 62
     7
 10
-92.8966760317102
 20
219.978312112629
 30
0.0
 11
-93.0734567279228
 21
220.051535215336
 31
0.0
  0
LINE
  5
   488
  8
0
  6
CONTINUOUS
 62
     7
 10
-93.0734599137012
 20
220.051529933816
 30
0.0
 11
-93.1466830221403
 21
220.228306808429
 31
0.0
  0
LINE
  5
   489
  8
0
  6
CONTINUOUS
 62
     7
 10
-92.2716867501469
 20
218.228313581794
 30
0.0
 11
-92.2716905648439
 21
219.978313581934
 31
0.0
  0
LINE
  5
   48A
  8
0
  6
CONTINUOUS
 62
     7
 10
-92.2716908372943
 20
219.978313854648
 30
0.0
 11
-92.8966832078998
 21
219.978313854648
 31
0.0
  0
LINE
  5
   48B
  8
0
  6
CONTINUOUS
 62
     7
 10
-92.271687022597
 20
208.415813854648
 30
0.0
 11
-92.271687022597
 21
218.228313854648
 31
0.0
  0
LINE
  5
   48C
  8
0
  6
CONTINUOUS
 62
     7
 10
-91.1466908372943
 20
195.728313854648
 30
0.0
 11
-91.1466908372943
 21
205.853313854648
 31
0.0
  0
LINE
  5
   48D
  8
0
  6
CONTINUOUS
 62
     7
 10
-91.1466983278466
 20
205.853327623934
 30
0.0
 11
-91.2136844064787
 21
206.103327617087
 31
0.0
  0
LINE
  5
   48E
  8
0
  6
CONTINUOUS
 62
     7
 10
-91.2136929233519
 20
206.103337130856
 30
0.0
 11
-91.3967030153555
 21
206.286351033267
 31
0.0
  0
LINE
  5
   48F
  8
0
  6
CONTINUOUS
 62
     7
 10
-91.3966771410439
 20
206.286321263274
 30
0.0
 11
-91.6466809423337
 21
206.353307341876
 31
0.0
  0
LINE
  5
   490
  8
0
  6
CONTINUOUS
 62
     7
 10
-91.1466908372943
 20
195.728313854648
 30
0.0
 11
-93.1466908372943
 21
195.728313854648
 31
0.0
  0
LINE
  5
   491
  8
0
  6
CONTINUOUS
 62
     7
 10
-93.146680165508
 20
191.978310666658
 30
0.0
 11
-92.8966611022528
 21
192.228310657736
 31
0.0
  0
LINE
  5
   492
  8
0
  6
CONTINUOUS
 62
     7
 10
-92.8966669826812
 20
194.978316506208
 30
0.0
 11
-93.1466898603862
 21
195.228316497131
 31
0.0
  0
LINE
  5
   493
  8
0
  6
CONTINUOUS
 62
     7
 10
-77.2047120786961
 20
194.978306468355
 30
0.0
 11
-92.8966638304051
 21
194.978306468355
 31
0.0
  0
LINE
  5
   494
  8
0
  6
CONTINUOUS
 62
     7
 10
-77.2047004617755
 20
192.228313854648
 30
0.0
 11
-92.8966674722735
 21
192.228313854648
 31
0.0
  0
LINE
  5
   495
  8
0
  6
CONTINUOUS
 62
     7
 10
-77.204710961416
 20
194.978302879186
 30
0.0
 11
-76.2716897072638
 21
195.228306693476
 31
0.0
  0
LINE
  5
   496
  8
0
  6
CONTINUOUS
 62
     7
 10
-76.2716977931345
 20
195.228303997821
 30
0.0
 11
-75.396689696227
 21
195.462762893886
 31
0.0
  0
LINE
  5
   497
  8
0
  6
CONTINUOUS
 62
     7
 10
-75.1466911151335
 20
191.676872822981
 30
0.0
 11
-77.2047009661302
 21
192.228314007116
 31
0.0
  0
LINE
  5
   498
  8
0
  6
CONTINUOUS
 62
     7
 10
-75.1466940875454
 20
196.051889753187
 30
0.0
 11
-75.3966933589599
 21
196.118875831821
 31
0.0
  0
LINE
  5
   499
  8
0
  6
CONTINUOUS
 62
     7
 10
-75.1466908372943
 20
190.103310039951
 30
0.0
 11
-76.1466905988757
 21
190.103310039951
 31
0.0
  0
LINE
  5
   49A
  8
0
  6
CONTINUOUS
 62
     7
 10
-76.1466905988757
 20
181.603316959161
 30
0.0
 11
-76.1466905988757
 21
190.103310039951
 31
0.0
  0
LINE
  5
   49B
  8
0
  6
CONTINUOUS
 62
     7
 10
-75.3966908372943
 20
191.743854931308
 30
0.0
 11
-75.3966908372943
 21
202.853310039951
 31
0.0
  0
LINE
  5
   49C
  8
0
  6
CONTINUOUS
 62
     7
 10
-76.2716908372943
 20
195.228313854648
 30
0.0
 11
-76.2716908372943
 21
201.478313854648
 31
0.0
  0
LINE
  5
   49D
  8
0
  6
CONTINUOUS
 62
     7
 10
-75.1466905988757
 20
202.853310039951
 30
0.0
 11
-75.8966903604571
 21
202.853310039951
 31
0.0
  0
LINE
  5
   49E
  8
0
  6
CONTINUOUS
 62
     7
 10
-76.0841934027778
 20
202.803068002698
 30
0.0
 11
-75.8966929360297
 21
202.853307561669
 31
0.0
  0
LINE
  5
   49F
  8
0
  6
CONTINUOUS
 62
     7
 10
-76.0841934027778
 20
202.803068002698
 30
0.0
 11
-75.8966929360297
 21
202.853307561669
 31
0.0
  0
LINE
  5
   4A0
  8
0
  6
CONTINUOUS
 62
     7
 10
-76.2214511266732
 20
202.665806310335
 30
0.0
 11
-76.0841916457516
 21
202.803066740009
 31
0.0
  0
LINE
  5
   4A1
  8
0
  6
CONTINUOUS
 62
     7
 10
-76.2716870892518
 20
202.478303011618
 30
0.0
 11
-76.221446812932
 21
202.665803011023
 31
0.0
  0
LINE
  5
   4A2
  8
0
  6
CONTINUOUS
 62
     7
 10
-76.2716953672473
 20
201.478310427384
 30
0.0
 11
-76.2716953672473
 21
202.478306612686
 31
0.0
  0
LINE
  5
   4A3
  8
0
  6
CONTINUOUS
 62
     7
 10
-76.2214522853823
 20
201.290808453099
 30
0.0
 11
-76.2452579001474
 21
201.37965275107
 31
0.0
  0
LINE
  5
   4A4
  8
0
  6
CONTINUOUS
 62
     7
 10
-76.2452574415677
 20
201.379650329599
 30
0.0
 11
-76.2716921008986
 21
201.47830984335
 31
0.0
  0
LINE
  5
   4A5
  8
0
  6
CONTINUOUS
 62
     7
 10
-76.0841907600488
 20
201.153540599947
 30
0.0
 11
-76.2214504725754
 21
201.290801029823
 31
0.0
  0
LINE
  5
   4A6
  8
0
  6
CONTINUOUS
 62
     7
 10
-75.8966876242285
 20
201.103304845641
 30
0.0
 11
-76.08418762164
 21
201.153544400758
 31
0.0
  0
LINE
  5
   4A7
  8
0
  6
CONTINUOUS
 62
     7
 10
-75.3966908372943
 20
201.103310039951
 30
0.0
 11
-75.8966905988757
 21
201.103310039951
 31
0.0
  0
LINE
  5
   4A8
  8
0
  6
CONTINUOUS
 62
     7
 10
-76.9714441738712
 20
192.165811020845
 30
0.0
 11
-76.2716849549786
 21
192.353311006335
 31
0.0
  0
LINE
  5
   4A9
  8
0
  6
CONTINUOUS
 62
     7
 10
-76.271682492644
 20
192.353313389734
 30
0.0
 11
-76.271682492644
 21
194.853313389734
 31
0.0
  0
LINE
  5
   4AA
  8
0
  6
CONTINUOUS
 62
     7
 10
-76.2716825657772
 20
194.853310046171
 30
0.0
 11
-76.9714477435467
 21
195.040810044497
 31
0.0
  0
LINE
  5
   4AB
  8
0
  6
CONTINUOUS
 62
     7
 10
-76.2214531322381
 20
201.158485388691
 30
0.0
 11
-76.2716931670028
 21
201.379653899384
 31
0.0
  0
LINE
  5
   4AC
  8
0
  6
CONTINUOUS
 62
     7
 10
-76.2452559389178
 20
201.379654339267
 30
0.0
 11
-76.2716903604571
 21
201.379654339267
 31
0.0
  0
LINE
  5
   4AD
  8
0
  6
CONTINUOUS
 62
     7
 10
-76.2381966432379
 20
197.853307463681
 30
0.0
 11
-76.27168968279
 21
197.878171659471
 31
0.0
  0
LINE
  5
   4AE
  8
0
  6
CONTINUOUS
 62
     7
 10
-76.2381988703041
 20
197.853298685281
 30
0.0
 11
-76.2214516352698
 21
197.865730782729
 31
0.0
  0
LINE
  5
   4AF
  8
0
  6
CONTINUOUS
 62
     7
 10
-76.2214503206317
 20
200.353313854648
 30
0.0
 11
-76.2716905988757
 21
200.353313854648
 31
0.0
  0
LINE
  5
   4B0
  8
0
  6
CONTINUOUS
 62
     7
 10
-76.2214489539096
 20
198.840867196993
 30
0.0
 11
-76.238196188944
 21
198.853299294441
 31
0.0
  0
LINE
  5
   4B1
  8
0
  6
CONTINUOUS
 62
     7
 10
-76.2716916487687
 20
198.828441526849
 30
0.0
 11
-76.2381986092166
 21
198.853305722639
 31
0.0
  0
LINE
  5
   4B2
  8
0
  6
CONTINUOUS
 62
     7
 10
-76.2487423412844
 20
200.783831887608
 30
0.0
 11
-76.221448906519
 21
200.936274817993
 31
0.0
  0
LINE
  5
   4B3
  8
0
  6
CONTINUOUS
 62
     7
 10
-76.2716903988061
 20
200.353314566978
 30
0.0
 11
-76.2487435647596
 21
200.783833654563
 31
0.0
  0
LINE
  5
   4B4
  8
0
  6
CONTINUOUS
 62
     7
 10
-76.2214492330888
 20
197.865738161412
 30
0.0
 11
-76.0926092663423
 21
197.891365294839
 31
0.0
  0
LINE
  5
   4B5
  8
0
  6
CONTINUOUS
 62
     7
 10
-76.0926099578843
 20
197.891366803873
 30
0.0
 11
-76.084190205816
 21
197.896993481968
 31
0.0
  0
LINE
  5
   4B6
  8
0
  6
CONTINUOUS
 62
     7
 10
-76.0841865000367
 20
198.809620291421
 30
0.0
 11
-76.0926067286523
 21
198.815246969633
 31
0.0
  0
LINE
  5
   4B7
  8
0
  6
CONTINUOUS
 62
     7
 10
-76.0926083772149
 20
198.815245771671
 30
0.0
 11
-76.2214478674113
 21
198.84087290111
 31
0.0
  0
LINE
  5
   4B8
  8
0
  6
CONTINUOUS
 62
     7
 10
-76.0841905988757
 20
200.353313854648
 30
0.0
 11
-76.2214503206317
 21
200.353313854648
 31
0.0
  0
LINE
  5
   4B9
  8
0
  6
CONTINUOUS
 62
     7
 10
-76.0841894773416
 20
197.896990033665
 30
0.0
 11
-75.8966894816932
 21
197.930559361868
 31
0.0
  0
LINE
  5
   4BA
  8
0
  6
CONTINUOUS
 62
     7
 10
-75.8966891915485
 20
198.776051773756
 30
0.0
 11
-76.084189187197
 21
198.809621101959
 31
0.0
  0
LINE
  5
   4BB
  8
0
  6
CONTINUOUS
 62
     7
 10
-75.8966905988757
 20
200.353313854648
 30
0.0
 11
-76.0841905988757
 21
200.353313854648
 31
0.0
  0
LINE
  5
   4BC
  8
0
  6
CONTINUOUS
 62
     7
 10
-75.3966908372943
 20
198.776054790927
 30
0.0
 11
-75.8966905988757
 21
198.776054790927
 31
0.0
  0
LINE
  5
   4BD
  8
0
  6
CONTINUOUS
 62
     7
 10
-75.3966908372943
 20
200.353313854648
 30
0.0
 11
-75.8966905988757
 21
200.353313854648
 31
0.0
  0
LINE
  5
   4BE
  8
0
  6
CONTINUOUS
 62
     7
 10
-75.3966908372943
 20
197.930565288974
 30
0.0
 11
-75.8966905988757
 21
197.930565288974
 31
0.0
  0
LINE
  5
   4BF
  8
0
  6
CONTINUOUS
 62
     7
 10
-75.1466908372943
 20
224.103313854648
 30
0.0
 11
-99.3966908375925
 21
224.103313854648
 31
0.0
  0
LINE
  5
   4C0
  8
0
  6
CONTINUOUS
 62
     7
 10
-75.1466908372943
 20
223.403316906406
 30
0.0
 11
-98.696690074653
 21
223.403316906406
 31
0.0
  0
LINE
  5
   4C1
  8
0
  6
CONTINUOUS
 62
     7
 10
-93.1466908375925
 20
182.30331747861
 30
0.0
 11
-98.696690074653
 21
182.30331747861
 31
0.0
  0
LINE
  5
   4C2
  8
0
  6
CONTINUOUS
 62
     7
 10
-93.1466908375925
 20
181.603317669345
 30
0.0
 11
-99.3966908375925
 21
181.603317669345
 31
0.0
  0
LINE
  5
   4C3
  8
0
  6
CONTINUOUS
 62
     7
 10
-93.1466908375925
 20
181.603317669345
 30
0.0
 11
-93.1466908375925
 21
192.165813854648
 31
0.0
  0
LINE
  5
   4C4
  8
0
  6
CONTINUOUS
 62
     7
 10
-93.1466908375931
 20
195.040810039951
 30
0.0
 11
-93.1466908375931
 21
195.728329113437
 31
0.0
  0
LINE
  5
   4C5
  8
0
  6
CONTINUOUS
 62
     7
 10
-93.1466908372943
 20
220.228325675949
 30
0.0
 11
-93.1466908372943
 21
224.103313854648
 31
0.0
  0
LINE
  5
   4C6
  8
0
  6
CONTINUOUS
 62
     7
 10
-100.521690837592
 20
206.090530804111
 30
0.0
 11
-100.521690837592
 21
208.478233746005
 31
0.0
  0
LINE
  5
   4C7
  8
0
  6
CONTINUOUS
 62
     7
 10
-100.521688749462
 20
191.728239744489
 30
0.0
 11
-100.521677305371
 21
193.365919559688
 31
0.0
  0
LINE
  5
   4C8
  8
0
  6
CONTINUOUS
 62
     7
 10
-99.3966908375925
 20
218.040813854648
 30
0.0
 11
-99.3966908375925
 21
224.103313854648
 31
0.0
  0
LINE
  5
   4C9
  8
0
  6
CONTINUOUS
 62
     7
 10
-98.696690074653
 20
220.040817669345
 30
0.0
 11
-99.3966908375925
 21
220.040817669345
 31
0.0
  0
LINE
  5
   4CA
  8
0
  6
CONTINUOUS
 62
     7
 10
-99.3966908375925
 20
181.603317669345
 30
0.0
 11
-99.3966908375925
 21
187.790818112123
 31
0.0
  0
LINE
  5
   4CB
  8
0
  6
CONTINUOUS
 62
     7
 10
-98.696690074653
 20
185.665817669345
 30
0.0
 11
-99.3966908375925
 21
185.665817669345
 31
0.0
  0
LINE
  5
   4CC
  8
0
  6
CONTINUOUS
 62
     7
 10
-98.696690074653
 20
182.303318432285
 30
0.0
 11
-98.696690074653
 21
187.790818302858
 31
0.0
  0
LINE
  5
   4CD
  8
0
  6
CONTINUOUS
 62
     7
 10
-93.1466900728891
 20
195.040813854648
 30
0.0
 11
-98.6966893099496
 21
195.040813854648
 31
0.0
  0
LINE
  5
   4CE
  8
0
  6
CONTINUOUS
 62
     7
 10
-93.1466902454914
 20
192.165813854648
 30
0.0
 11
-98.6966894825519
 21
192.165813854648
 31
0.0
  0
LINE
  5
   4CF
  8
0
  6
CONTINUOUS
 62
     7
 10
-98.696690074653
 20
218.040813854648
 30
0.0
 11
-100.021690599174
 21
218.040813854648
 31
0.0
  0
LINE
  5
   4D0
  8
0
  6
CONTINUOUS
 62
     7
 10
-99.2716908375924
 20
187.790817907764
 30
0.0
 11
-99.3966908375924
 21
187.790817907764
 31
0.0
  0
LINE
  5
   4D1
  8
0
  6
CONTINUOUS
 62
     7
 10
-98.696690074653
 20
187.790824719725
 30
0.0
 11
-100.021690599174
 21
187.790824719725
 31
0.0
  0
LINE
  5
   4D2
  8
0
  6
CONTINUOUS
 62
     7
 10
-102.772018417716
 20
189.290814093067
 30
0.0
 11
-102.772018417716
 21
189.790813377811
 31
0.0
  0
LINE
  5
   4D3
  8
0
  6
CONTINUOUS
 62
     7
 10
-100.522018432617
 20
189.165813855562
 30
0.0
 11
-100.522018432617
 21
215.415813855562
 31
0.0
  0
LINE
  5
   4D4
  8
0
  6
CONTINUOUS
 62
     7
 10
-100.021690599174
 20
215.415813854648
 30
0.0
 11
-102.771982953436
 21
215.415813854648
 31
0.0
  0
LINE
  5
   4D5
  8
0
  6
CONTINUOUS
 62
     7
 10
-100.021690599174
 20
189.165813855238
 30
0.0
 11
-102.771982953436
 21
189.165813855238
 31
0.0
  0
LINE
  5
   4D6
  8
0
  6
CONTINUOUS
 62
     7
 10
-102.772018265405
 20
189.290813652161
 30
0.0
 11
-102.772004198709
 21
193.790809837721
 31
0.0
  0
LINE
  5
   4D7
  8
0
  6
CONTINUOUS
 62
     7
 10
-102.772003367736
 20
194.040809950761
 30
0.0
 11
-102.771969750716
 21
197.040809950714
 31
0.0
  0
LINE
  5
   4D8
  8
0
  6
CONTINUOUS
 62
     7
 10
-102.77201770246
 20
197.290813738495
 30
0.0
 11
-102.77201770246
 21
202.165809923798
 31
0.0
  0
LINE
  5
   4D9
  8
0
  6
CONTINUOUS
 62
     7
 10
-102.77196795244
 20
197.290807347881
 30
0.0
 11
-102.77198130388
 21
202.165807348192
 31
0.0
  0
LINE
  5
   4DA
  8
0
  6
CONTINUOUS
 62
     7
 10
-102.771980787882
 20
202.415809228706
 30
0.0
 11
-102.771928812661
 21
205.415809228675
 31
0.0
  0
LINE
  5
   4DB
  8
0
  6
CONTINUOUS
 62
     7
 10
-91.6466809423338
 20
206.353307341876
 30
0.0
 11
-92.2716889300081
 21
206.353307341876
 31
0.0
  0
LINE
  5
   4DC
  8
0
  6
CONTINUOUS
 62
     7
 10
-100.021690599174
 20
215.415813854648
 30
0.0
 11
-100.021690599174
 21
218.040813854648
 31
0.0
  0
LINE
  5
   4DD
  8
0
  6
CONTINUOUS
 62
     7
 10
-100.021690599174
 20
187.790817941824
 30
0.0
 11
-100.021690599174
 21
189.165813855238
 31
0.0
  0
LINE
  5
   4DE
  8
0
  6
CONTINUOUS
 62
     7
 10
-98.696690074653
 20
218.040813854648
 30
0.0
 11
-98.696690074653
 21
223.403316906406
 31
0.0
  0
LINE
  5
   4DF
  8
0
  6
CONTINUOUS
 62
     7
 10
-98.696690074653
 20
187.790818302858
 30
0.0
 11
-98.696690074653
 21
218.040813854648
 31
0.0
  0
ARC
  5
   4E0
  8
0
  6
CONTINUOUS
 62
     7
 10
-107.940700789631
 20
196.779843442005
 30
0.0
 40
0.249999948938953
 50
103.311182841492
 51
191.376398179393
  0
ARC
  5
   4E1
  8
0
  6
CONTINUOUS
 62
     7
 10
-107.641515425357
 20
195.292888801981
 30
0.0
 40
0.250000186311685
 50
191.376398179393
 51
279.405979352418
  0
LINE
  5
   4E2
  8
0
  6
CONTINUOUS
 62
     7
 10
-107.998260655438
 20
197.023126705333
 30
0.0
 11
-102.771970605855
 21
198.259646430556
 31
0.0
  0
LINE
  5
   4E3
  8
0
  6
CONTINUOUS
 62
     7
 10
-107.886603672196
 20
195.243575397598
 30
0.0
 11
-108.185788954323
 21
196.730530054151
 31
0.0
  0
LINE
  5
   4E4
  8
0
  6
CONTINUOUS
 62
     7
 10
-107.600658178088
 20
195.04624992033
 30
0.0
 11
-102.77198313769
 21
195.846149631155
 31
0.0
  0
LINE
  5
   4E5
  8
0
  6
CONTINUOUS
 62
     7
 10
-102.771982953436
 20
189.165813855238
 30
0.0
 11
-102.771982953436
 21
215.415813854648
 31
0.0
  0
LINE
  5
   4E6
  8
0
  6
DASHDOT
 62
     7
 10
-41.8864745377751
 20
202.290813854648
 30
0.0
 11
-109.948352940114
 21
202.290813854648
 31
0.0
  0
LINE
  5
   4E7
  8
0
  6
CONTINUOUS
 62
     7
 10
-75.1466908372943
 20
181.603316959161
 30
0.0
 11
-93.1466908372943
 21
181.603316959161
 31
0.0
  0
LINE
  5
   4E8
  8
0
  6
DASHDOT
 62
     7
 10
-70.401105292243
 20
220.228313854648
 30
0.0
 11
-77.6347856767776
 21
220.228313854648
 31
0.0
  0
LINE
  5
   4E9
  8
0
  6
DASHDOT
 62
     7
 10
-72.0630611007271
 20
185.478313854648
 30
0.0
 11
-77.6347856767776
 21
185.478313854648
 31
0.0
  0
LINE
  5
   4EA
  8
0
  6
CONTINUOUS
 62
     7
 10
-74.6470184326172
 20
184.228313854648
 30
0.0
 11
-74.6470184326172
 21
186.728313854648
 31
0.0
  0
LINE
  5
   4EB
  8
0
  6
CONTINUOUS
 62
     7
 10
-74.6470184326172
 20
221.478313854648
 30
0.0
 11
-75.1466908372943
 21
221.478313854648
 31
0.0
  0
LINE
  5
   4EC
  8
0
  6
CONTINUOUS
 62
     7
 10
-74.6470184326172
 20
218.978313854648
 30
0.0
 11
-75.1466908372943
 21
218.978313854648
 31
0.0
  0
LINE
  5
   4ED
  8
0
  6
CONTINUOUS
 62
     7
 10
-74.6470184326172
 20
186.728313854648
 30
0.0
 11
-75.1466908372943
 21
186.728313854648
 31
0.0
  0
LINE
  5
   4EE
  8
0
  6
CONTINUOUS
 62
     7
 10
-74.6470184326172
 20
184.228313854648
 30
0.0
 11
-75.1466908372943
 21
184.228313854648
 31
0.0
  0
LINE
  5
   4EF
  8
0
  6
CONTINUOUS
 62
     7
 10
-74.6470184326172
 20
218.978313854648
 30
0.0
 11
-74.6470184326172
 21
221.478313854648
 31
0.0
  0
LINE
  5
   4F0
  8
0
  6
DASHDOT
 62
     7
 10
-42.8824367504385
 20
124.778313854648
 30
0.0
 11
-133.440808372673
 21
124.778313854648
 31
0.0
  0
LINE
  5
   4F1
  8
0
  6
CONTINUOUS
 62
     7
 10
-87.52203170692
 20
104.80331747861
 30
0.0
 11
-105.52203170692
 21
104.80331747861
 31
0.0
  0
LINE
  5
   4F2
  8
0
  6
CONTINUOUS
 62
     7
 10
-87.52203170692
 20
104.103313854648
 30
0.0
 11
-87.52203170692
 21
107.415806225254
 31
0.0
  0
LINE
  5
   4F3
  8
0
  6
CONTINUOUS
 62
     7
 10
-87.0220317069201
 20
106.728310278369
 30
0.0
 11
-87.52203170692
 21
106.728310278369
 31
0.0
  0
LINE
  5
   4F4
  8
0
  6
CONTINUOUS
 62
     7
 10
-87.0220317069201
 20
143.978306225254
 30
0.0
 11
-87.52203170692
 21
143.978306225254
 31
0.0
  0
LINE
  5
   4F5
  8
0
  6
CONTINUOUS
 62
     7
 10
-88.4679508275101
 20
120.391366803873
 30
0.0
 11
-88.4595310754418
 21
120.396993481968
 31
0.0
  0
LINE
  5
   4F6
  8
0
  6
CONTINUOUS
 62
     7
 10
-87.52203170692
 20
145.903316906406
 30
0.0
 11
-111.072030944279
 21
145.903316906406
 31
0.0
  0
LINE
  5
   4F7
  8
0
  6
CONTINUOUS
 62
     7
 10
-105.522031707218
 20
104.80331747861
 30
0.0
 11
-111.072030944279
 21
104.80331747861
 31
0.0
  0
LINE
  5
   4F8
  8
0
  6
CONTINUOUS
 62
     7
 10
-111.072030944279
 20
104.803318432285
 30
0.0
 11
-111.072030944279
 21
107.603306225254
 31
0.0
  0
LINE
  5
   4F9
  8
0
  6
CONTINUOUS
 62
     7
 10
-111.072030944279
 20
143.603310039951
 30
0.0
 11
-111.072030944279
 21
145.903316906406
 31
0.0
  0
LINE
  5
   4FA
  8
0
  6
CONTINUOUS
 62
     7
 10
-75.1470219453396
 20
117.85330765595
 30
0.0
 11
-75.6470172179462
 21
117.853309563281
 31
0.0
  0
LINE
  5
   4FB
  8
0
  6
CONTINUOUS
 62
     7
 10
-75.1470209916653
 20
116.103307655934
 30
0.0
 11
-75.6470170130553
 21
116.103309563267
 31
0.0
  0
LINE
  5
   4FC
  8
0
  6
CONTINUOUS
 62
     7
 10
-75.0220202628283
 20
104.353313854648
 30
0.0
 11
-75.0220202628283
 21
110.603313854648
 31
0.0
  0
LINE
  5
   4FD
  8
0
  6
CONTINUOUS
 62
     7
 10
-75.0220202628283
 20
140.103313854648
 30
0.0
 11
-75.0220202628283
 21
146.353313854648
 31
0.0
  0
LINE
  5
   4FE
  8
0
  6
CONTINUOUS
 62
     7
 10
-77.7720202628283
 20
104.803314617587
 30
0.0
 11
-87.0220317069201
 21
104.803314617587
 31
0.0
  0
LINE
  5
   4FF
  8
0
  6
CONTINUOUS
 62
     7
 10
-77.7720202628283
 20
104.103313854648
 30
0.0
 11
-87.0220317069201
 21
104.103313854648
 31
0.0
  0
LINE
  5
   500
  8
0
  6
CONTINUOUS
 62
     7
 10
-77.7720202628283
 20
146.603313854648
 30
0.0
 11
-87.0220317069201
 21
146.603313854648
 31
0.0
  0
LINE
  5
   501
  8
0
  6
CONTINUOUS
 62
     7
 10
-77.7720202628283
 20
145.903316906406
 30
0.0
 11
-87.0220317069201
 21
145.903316906406
 31
0.0
  0
LINE
  5
   502
  8
0
  6
CONTINUOUS
 62
     7
 10
-87.0220317069201
 20
104.103313854648
 30
0.0
 11
-87.0220317069201
 21
107.415806225254
 31
0.0
  0
LINE
  5
   503
  8
0
  6
CONTINUOUS
 62
     7
 10
-77.7720202628283
 20
104.103313854648
 30
0.0
 11
-77.7720202628283
 21
104.353313854648
 31
0.0
  0
LINE
  5
   504
  8
0
  6
CONTINUOUS
 62
     7
 10
-74.6470175446946
 20
111.228312831575
 30
0.0
 11
-74.6470213593917
 21
114.478312831745
 31
0.0
  0
LINE
  5
   505
  8
0
  6
CONTINUOUS
 62
     7
 10
-74.647020339969
 20
136.228311061837
 30
0.0
 11
-74.647016525272
 21
139.478311061668
 31
0.0
  0
LINE
  5
   506
  8
0
  6
CONTINUOUS
 62
     7
 10
-74.7720202628282
 20
139.603313854648
 30
0.0
 11
-75.1470202628283
 21
139.603313854648
 31
0.0
  0
LINE
  5
   507
  8
0
  6
CONTINUOUS
 62
     7
 10
-74.7720202628282
 20
111.103313854648
 30
0.0
 11
-75.1470202628283
 21
111.103313854648
 31
0.0
  0
LINE
  5
   508
  8
0
  6
CONTINUOUS
 62
     7
 10
-75.1470202628283
 20
139.478313854648
 30
0.0
 11
-75.1470202628283
 21
139.603313854648
 31
0.0
  0
LINE
  5
   509
  8
0
  6
CONTINUOUS
 62
     7
 10
-75.1470202628283
 20
114.478340557529
 30
0.0
 11
-75.1470202628283
 21
136.228313854648
 31
0.0
  0
LINE
  5
   50A
  8
0
  6
CONTINUOUS
 62
     7
 10
-75.1470202628283
 20
111.103313854648
 30
0.0
 11
-75.1470202628283
 21
111.228332928134
 31
0.0
  0
LINE
  5
   50B
  8
0
  6
CONTINUOUS
 62
     7
 10
-74.7720202628282
 20
111.103313854648
 30
0.0
 11
-74.7720202628282
 21
111.228310039951
 31
0.0
  0
LINE
  5
   50C
  8
0
  6
CONTINUOUS
 62
     7
 10
-74.7720202628282
 20
114.478310039951
 30
0.0
 11
-74.7720202628282
 21
136.228294781162
 31
0.0
  0
LINE
  5
   50D
  8
0
  6
CONTINUOUS
 62
     7
 10
-74.7720202628282
 20
139.478294781162
 30
0.0
 11
-74.7720202628282
 21
139.603313854648
 31
0.0
  0
LINE
  5
   50E
  8
0
  6
CONTINUOUS
 62
     7
 10
-75.0220202628283
 20
110.603313854648
 30
0.0
 11
-75.6470174884243
 21
110.603313854648
 31
0.0
  0
LINE
  5
   50F
  8
0
  6
CONTINUOUS
 62
     7
 10
-75.0220202628283
 20
104.353313854648
 30
0.0
 11
-77.7720202628283
 21
104.353313854648
 31
0.0
  0
LINE
  5
   510
  8
0
  6
CONTINUOUS
 62
     7
 10
-75.0220202628283
 20
140.103313854648
 30
0.0
 11
-75.6470198488305
 21
140.103313854648
 31
0.0
  0
LINE
  5
   511
  8
0
  6
CONTINUOUS
 62
     7
 10
-75.0220202628283
 20
146.353313854648
 30
0.0
 11
-76.7720240775255
 21
146.353313854648
 31
0.0
  0
LINE
  5
   512
  8
0
  6
CONTINUOUS
 62
     7
 10
-74.647016448131
 20
111.228313854648
 30
0.0
 11
-75.647016433347
 21
111.228313854648
 31
0.0
  0
LINE
  5
   513
  8
0
  6
CONTINUOUS
 62
     7
 10
-74.6470202628283
 20
114.478313854648
 30
0.0
 11
-75.6470168177737
 21
114.478313854648
 31
0.0
  0
LINE
  5
   514
  8
0
  6
CONTINUOUS
 62
     7
 10
-74.647016448131
 20
139.478313854648
 30
0.0
 11
-75.6470197749023
 21
139.478313854648
 31
0.0
  0
LINE
  5
   515
  8
0
  6
CONTINUOUS
 62
     7
 10
-74.6470202628283
 20
136.228313854648
 30
0.0
 11
-75.6470193904756
 21
136.228313854648
 31
0.0
  0
LINE
  5
   516
  8
0
  6
CONTINUOUS
 62
     7
 10
-75.1470202628283
 20
135.353313854648
 30
0.0
 11
-75.6470192869761
 21
135.353313854648
 31
0.0
  0
LINE
  5
   517
  8
0
  6
CONTINUOUS
 62
     7
 10
-75.1470202628283
 20
133.353313854648
 30
0.0
 11
-75.6470190504058
 21
133.353313854648
 31
0.0
  0
LINE
  5
   518
  8
0
  6
CONTINUOUS
 62
     7
 10
-76.7720240775255
 20
104.353313854648
 30
0.0
 11
-77.7720202628283
 21
104.353313854648
 31
0.0
  0
LINE
  5
   519
  8
0
  6
CONTINUOUS
 62
     7
 10
-77.7720202628283
 20
104.353313854648
 30
0.0
 11
-77.7720202628283
 21
108.603249432347
 31
0.0
  0
LINE
  5
   51A
  8
0
  6
CONTINUOUS
 62
     7
 10
-77.7720202628283
 20
146.353313854648
 30
0.0
 11
-77.7720202628283
 21
146.603313854648
 31
0.0
  0
LINE
  5
   51B
  8
0
  6
CONTINUOUS
 62
     7
 10
-77.7720202628283
 20
143.603310039951
 30
0.0
 11
-77.7720202628283
 21
146.353313854648
 31
0.0
  0
LINE
  5
   51C
  8
0
  6
CONTINUOUS
 62
     7
 10
-76.7720240775255
 20
146.353313854648
 30
0.0
 11
-77.7720202628283
 21
146.353313854648
 31
0.0
  0
LINE
  5
   51D
  8
0
  6
DASHDOT
 62
     7
 10
-71.7192081748339
 20
137.853313854648
 30
0.0
 11
-77.1323017383471
 21
137.853313854648
 31
0.0
  0
LINE
  5
   51E
  8
0
  6
DASHDOT
 62
     7
 10
-72.1776787426915
 20
112.853313854648
 30
0.0
 11
-76.839309496192
 21
112.853313854648
 31
0.0
  0
LINE
  5
   51F
  8
0
  6
CONTINUOUS
 62
     7
 10
-119.39699975938
 20
111.353303366588
 30
0.0
 11
-119.397012633983
 21
112.353310042288
 31
0.0
  0
LINE
  5
   520
  8
0
  6
CONTINUOUS
 62
     7
 10
-115.972337645676
 20
109.603302411543
 30
0.0
 11
-115.89701287221
 21
109.603303365217
 31
0.0
  0
LINE
  5
   521
  8
0
  6
CONTINUOUS
 62
     7
 10
-119.397012633943
 20
108.603304319783
 30
0.0
 11
-119.397000236177
 21
109.603300505095
 31
0.0
  0
LINE
  5
   522
  8
0
  6
CONTINUOUS
 62
     7
 10
-86.5220277881157
 20
108.6032747764
 30
0.0
 11
-87.0220277881157
 21
108.603306247652
 31
0.0
  0
LINE
  5
   523
  8
0
  6
CONTINUOUS
 62
     7
 10
-88.27203170692
 20
108.603304661068
 30
0.0
 11
-118.147012633434
 21
108.603304661068
 31
0.0
  0
LINE
  5
   524
  8
0
  6
CONTINUOUS
 62
     7
 10
-75.6470202628283
 20
143.603310039951
 30
0.0
 11
-86.52203170692
 21
143.603310039951
 31
0.0
  0
LINE
  5
   525
  8
0
  6
CONTINUOUS
 62
     7
 10
-75.6470202555205
 20
108.603243282796
 30
0.0
 11
-86.5220278866139
 21
108.603274754048
 31
0.0
  0
LINE
  5
   526
  8
0
  6
CONTINUOUS
 62
     7
 10
-75.6470202627926
 20
108.603243278981
 30
0.0
 11
-75.6470164480954
 21
111.35329763751
 31
0.0
  0
LINE
  5
   527
  8
0
  6
CONTINUOUS
 62
     7
 10
-96.772016448131
 20
135.603313854648
 30
0.0
 11
-119.397012633434
 21
135.603313854648
 31
0.0
  0
LINE
  5
   528
  8
0
  6
CONTINUOUS
 62
     7
 10
-96.772016448131
 20
128.103302410556
 30
0.0
 11
-105.397021216503
 21
128.103302410556
 31
0.0
  0
LINE
  5
   529
  8
0
  6
CONTINUOUS
 62
     7
 10
-119.397003589667
 20
109.603300503209
 30
0.0
 11
-119.397003589667
 21
111.353303364231
 31
0.0
  0
LINE
  5
   52A
  8
0
  6
CONTINUOUS
 62
     7
 10
-86.52203170692
 20
143.603310039951
 30
0.0
 11
-119.397012633434
 21
143.603310039951
 31
0.0
  0
LINE
  5
   52B
  8
0
  6
CONTINUOUS
 62
     7
 10
-119.397012633434
 20
135.603313854648
 30
0.0
 11
-119.397012633434
 21
143.603310039951
 31
0.0
  0
LINE
  5
   52C
  8
0
  6
CONTINUOUS
 62
     7
 10
-93.834531704021
 20
109.603315762017
 30
0.0
 11
-87.5220278905243
 21
109.603327206109
 31
0.0
  0
LINE
  5
   52D
  8
0
  6
CONTINUOUS
 62
     7
 10
-94.8345317069131
 20
109.603304628242
 30
0.0
 11
-104.053266448124
 21
109.603304628242
 31
0.0
  0
LINE
  5
   52E
  8
0
  6
CONTINUOUS
 62
     7
 10
-105.053265971291
 20
109.603304121349
 30
0.0
 11
-118.396985453713
 21
109.603304121349
 31
0.0
  0
LINE
  5
   52F
  8
0
  6
CONTINUOUS
 62
     7
 10
-105.053265494454
 20
110.728306982371
 30
0.0
 11
-118.396983069527
 21
110.728306982371
 31
0.0
  0
LINE
  5
   530
  8
0
  6
CONTINUOUS
 62
     7
 10
-94.8345297995645
 20
110.728307489265
 30
0.0
 11
-104.05326549445
 21
110.728307489265
 31
0.0
  0
LINE
  5
   531
  8
0
  6
CONTINUOUS
 62
     7
 10
-87.5220278922136
 20
110.728308132611
 30
0.0
 11
-93.8345297995622
 21
110.728308132611
 31
0.0
  0
LINE
  5
   532
  8
0
  6
CONTINUOUS
 62
     7
 10
-118.396985453724
 20
109.603300504392
 30
0.0
 11
-118.396983546375
 21
110.728303365207
 31
0.0
  0
LINE
  5
   533
  8
0
  6
CONTINUOUS
 62
     7
 10
-87.5220278922228
 20
109.603327206088
 30
0.0
 11
-87.5220278922228
 21
110.728323391391
 31
0.0
  0
LINE
  5
   534
  8
0
  6
CONTINUOUS
 62
     7
 10
-93.8345317068928
 20
109.603315757943
 30
0.0
 11
-93.8345297995442
 21
110.728324341037
 31
0.0
  0
LINE
  5
   535
  8
0
  6
CONTINUOUS
 62
     7
 10
-94.8345317068943
 20
109.603315759816
 30
0.0
 11
-94.8345297995456
 21
110.728323389454
 31
0.0
  0
LINE
  5
   536
  8
0
  6
CONTINUOUS
 62
     7
 10
-104.053276882754
 20
109.60331003996
 30
0.0
 11
-104.053276882754
 21
110.728317669355
 31
0.0
  0
LINE
  5
   537
  8
0
  6
CONTINUOUS
 62
     7
 10
-105.053276405906
 20
109.603309086285
 30
0.0
 11
-105.053276405906
 21
110.728317669354
 31
0.0
  0
LINE
  5
   538
  8
0
  6
CONTINUOUS
 62
     7
 10
-111.397012991062
 20
107.603306225254
 30
0.0
 11
-111.397012991062
 21
108.603306225254
 31
0.0
  0
LINE
  5
   539
  8
0
  6
CONTINUOUS
 62
     7
 10
-110.397012871852
 20
107.603306225254
 30
0.0
 11
-110.397012871852
 21
108.603306225254
 31
0.0
  0
LINE
  5
   53A
  8
0
  6
CONTINUOUS
 62
     7
 10
-110.397012871852
 20
107.603306225254
 30
0.0
 11
-111.397012991062
 21
107.603306225254
 31
0.0
  0
LINE
  5
   53B
  8
0
  6
CONTINUOUS
 62
     7
 10
-90.4595126334337
 20
107.603319576694
 30
0.0
 11
-90.4595126334337
 21
108.603302410556
 31
0.0
  0
LINE
  5
   53C
  8
0
  6
CONTINUOUS
 62
     7
 10
-89.4595126334337
 20
107.603319576694
 30
0.0
 11
-89.4595126334337
 21
108.603302410556
 31
0.0
  0
LINE
  5
   53D
  8
0
  6
CONTINUOUS
 62
     7
 10
-89.4595126334337
 20
107.603319576694
 30
0.0
 11
-90.4595126334337
 21
107.603319576694
 31
0.0
  0
LINE
  5
   53E
  8
0
  6
CONTINUOUS
 62
     7
 10
-118.147012633434
 20
107.415806225254
 30
0.0
 11
-118.147012633434
 21
108.040806225254
 31
0.0
  0
LINE
  5
   53F
  8
0
  6
CONTINUOUS
 62
     7
 10
-119.397012633434
 20
107.415806225254
 30
0.0
 11
-119.397012633434
 21
108.603304317905
 31
0.0
  0
LINE
  5
   540
  8
0
  6
CONTINUOUS
 62
     7
 10
-118.147012633434
 20
107.415806225254
 30
0.0
 11
-119.397012633434
 21
107.415806225254
 31
0.0
  0
LINE
  5
   541
  8
0
  6
CONTINUOUS
 62
     7
 10
-118.147012633434
 20
108.040806225254
 30
0.0
 11
-118.147012633434
 21
108.603306225254
 31
0.0
  0
LINE
  5
   542
  8
0
  6
CONTINUOUS
 62
     7
 10
-88.2720355216173
 20
107.415806225254
 30
0.0
 11
-88.2720355216173
 21
108.040806225254
 31
0.0
  0
LINE
  5
   543
  8
0
  6
CONTINUOUS
 62
     7
 10
-87.0220355216173
 20
107.415806225254
 30
0.0
 11
-88.2720355216173
 21
107.415806225254
 31
0.0
  0
LINE
  5
   544
  8
0
  6
CONTINUOUS
 62
     7
 10
-87.0220355210859
 20
107.415806224543
 30
0.0
 11
-87.0220278916913
 21
108.603306224532
 31
0.0
  0
LINE
  5
   545
  8
0
  6
CONTINUOUS
 62
     7
 10
-88.2720355210539
 20
108.040806225088
 30
0.0
 11
-88.2720317063567
 21
108.603302410295
 31
0.0
  0
LINE
  5
   546
  8
0
  6
CONTINUOUS
 62
     7
 10
-117.647014508051
 20
138.478318168501
 30
0.0
 11
-118.397014524526
 21
139.228318184976
 31
0.0
  0
LINE
  5
   547
  8
0
  6
CONTINUOUS
 62
     7
 10
-119.397012633434
 20
112.353310039951
 30
0.0
 11
-119.397012633434
 21
128.103308132602
 31
0.0
  0
LINE
  5
   548
  8
0
  6
CONTINUOUS
 62
     7
 10
-105.397022170177
 20
128.103307230017
 30
0.0
 11
-119.397012633434
 21
128.103307230017
 31
0.0
  0
LINE
  5
   549
  8
0
  6
CONTINUOUS
 62
     7
 10
-96.772016448131
 20
128.103302410556
 30
0.0
 11
-96.772016448131
 21
135.603313854648
 31
0.0
  0
LINE
  5
   54A
  8
0
  6
CONTINUOUS
 62
     7
 10
-115.522012871852
 20
135.478313854648
 30
0.0
 11
-115.522012871852
 21
135.603313854648
 31
0.0
  0
LINE
  5
   54B
  8
0
  6
CONTINUOUS
 62
     7
 10
-87.5220278922136
 20
140.290798595867
 30
0.0
 11
-93.8345317069108
 21
140.290798595867
 31
0.0
  0
LINE
  5
   54C
  8
0
  6
CONTINUOUS
 62
     7
 10
-93.8345317069201
 20
138.478310039951
 30
0.0
 11
-93.8345317069201
 21
140.290810039951
 31
0.0
  0
LINE
  5
   54D
  8
0
  6
CONTINUOUS
 62
     7
 10
-87.5220278922136
 20
138.478298595867
 30
0.0
 11
-93.8345317069108
 21
138.478298595867
 31
0.0
  0
LINE
  5
   54E
  8
0
  6
CONTINUOUS
 62
     7
 10
-87.5220278922228
 20
138.478313854648
 30
0.0
 11
-87.5220278922228
 21
140.290813854648
 31
0.0
  0
LINE
  5
   54F
  8
0
  6
CONTINUOUS
 62
     7
 10
-105.053265971294
 20
138.478313854648
 30
0.0
 11
-105.053265971294
 21
140.290813854648
 31
0.0
  0
LINE
  5
   550
  8
0
  6
CONTINUOUS
 62
     7
 10
-94.8345317069201
 20
138.478313854648
 30
0.0
 11
-105.053266448131
 21
138.478313854648
 31
0.0
  0
LINE
  5
   551
  8
0
  6
CONTINUOUS
 62
     7
 10
-94.8345317069201
 20
138.478313854648
 30
0.0
 11
-94.8345317069201
 21
140.290813854648
 31
0.0
  0
LINE
  5
   552
  8
0
  6
CONTINUOUS
 62
     7
 10
-94.8345317069201
 20
140.290813854648
 30
0.0
 11
-105.053266448131
 21
140.290813854648
 31
0.0
  0
LINE
  5
   553
  8
0
  6
CONTINUOUS
 62
     7
 10
-106.053265971294
 20
138.478313854648
 30
0.0
 11
-118.397012156597
 21
138.478313854648
 31
0.0
  0
LINE
  5
   554
  8
0
  6
CONTINUOUS
 62
     7
 10
-106.053265971294
 20
138.478313854648
 30
0.0
 11
-106.053265971294
 21
140.290813854648
 31
0.0
  0
LINE
  5
   555
  8
0
  6
CONTINUOUS
 62
     7
 10
-106.053265971294
 20
140.290813854648
 30
0.0
 11
-118.397012156597
 21
140.290813854648
 31
0.0
  0
LINE
  5
   556
  8
0
  6
CONTINUOUS
 62
     7
 10
-118.397012633434
 20
138.478313854648
 30
0.0
 11
-118.397012633434
 21
140.290813854648
 31
0.0
  0
LINE
  5
   557
  8
0
  6
CONTINUOUS
 62
     7
 10
-115.897012871852
 20
109.603303364231
 30
0.0
 11
-115.897012871852
 21
110.728309086276
 31
0.0
  0
LINE
  5
   558
  8
0
  6
CONTINUOUS
 62
     7
 10
-114.897012156597
 20
109.603303364231
 30
0.0
 11
-114.897012156597
 21
110.728310039951
 31
0.0
  0
LINE
  5
   559
  8
0
  6
CONTINUOUS
 62
     7
 10
-118.39692009911
 20
109.60329382749
 30
0.0
 11
-118.39692009911
 21
110.728303364233
 31
0.0
  0
LINE
  5
   55A
  8
0
  6
CONTINUOUS
 62
     7
 10
-119.397012633482
 20
108.603290966922
 30
0.0
 11
-119.397011679808
 21
108.853309086646
 31
0.0
  0
LINE
  5
   55B
  8
0
  6
CONTINUOUS
 62
     7
 10
-86.5220297939379
 20
108.603274755318
 30
0.0
 11
-87.0220278865965
 21
108.603282384712
 31
0.0
  0
LINE
  5
   55C
  8
0
  6
CONTINUOUS
 62
     7
 10
-75.647014785131
 20
111.353297642185
 30
0.0
 11
-75.647014785131
 21
143.603309086277
 31
0.0
  0
LINE
  5
   55D
  8
0
  6
CONTINUOUS
 62
     7
 10
-93.8215159598497
 20
109.603310993625
 30
0.0
 11
-93.8215159598497
 21
110.728319576694
 31
0.0
  0
LINE
  5
   55E
  8
0
  6
CONTINUOUS
 62
     7
 10
-94.8348349753527
 20
109.603299549533
 30
0.0
 11
-94.8348349753527
 21
110.72831862302
 31
0.0
  0
LINE
  5
   55F
  8
0
  6
CONTINUOUS
 62
     7
 10
-100.397012633434
 20
135.478313854648
 30
0.0
 11
-119.397012633434
 21
135.478313854648
 31
0.0
  0
LINE
  5
   560
  8
0
  6
CONTINUOUS
 62
     7
 10
-100.397012633434
 20
128.103302410556
 30
0.0
 11
-100.397012633434
 21
135.478313854648
 31
0.0
  0
LINE
  5
   561
  8
0
  6
CONTINUOUS
 62
     7
 10
-119.397012633434
 20
128.103308132602
 30
0.0
 11
-119.397012633434
 21
135.478313854648
 31
0.0
  0
LINE
  5
   562
  8
0
  6
CONTINUOUS
 62
     7
 10
-117.64697785219
 20
109.60330717893
 30
0.0
 11
-117.64697785219
 21
110.728308132605
 31
0.0
  0
LINE
  5
   563
  8
0
  6
CONTINUOUS
 62
     7
 10
-87.5220278922228
 20
138.853313854648
 30
0.0
 11
-93.8345278922228
 21
138.853313854648
 31
0.0
  0
LINE
  5
   564
  8
0
  6
CONTINUOUS
 62
     7
 10
-94.8345297995714
 20
138.853313854648
 30
0.0
 11
-105.053263587108
 21
138.853313854648
 31
0.0
  0
LINE
  5
   565
  8
0
  6
CONTINUOUS
 62
     7
 10
-106.053263587108
 20
138.853313854648
 30
0.0
 11
-117.647012633434
 21
138.853313854648
 31
0.0
  0
LINE
  5
   566
  8
0
  6
CONTINUOUS
 62
     7
 10
-117.834511732838
 20
138.665817874671
 30
0.0
 11
-117.647011728719
 21
138.85331787879
 31
0.0
  0
LINE
  5
   567
  8
0
  6
CONTINUOUS
 62
     7
 10
-117.647012633434
 20
138.853313854648
 30
0.0
 11
-117.647012633434
 21
140.290813854648
 31
0.0
  0
LINE
  5
   568
  8
0
  6
CONTINUOUS
 62
     7
 10
-87.0220317069201
 20
143.603310039951
 30
0.0
 11
-87.0220317069201
 21
146.603313854648
 31
0.0
  0
LINE
  5
   569
  8
0
  6
CONTINUOUS
 62
     7
 10
-87.52203170692
 20
143.603310039951
 30
0.0
 11
-87.52203170692
 21
146.603313854648
 31
0.0
  0
LINE
  5
   56A
  8
0
  6
CONTINUOUS
 62
     7
 10
-105.52203170692
 20
143.603310039951
 30
0.0
 11
-105.52203170692
 21
145.903316906406
 31
0.0
  0
CIRCLE
  5
   56B
  8
0
  6
CONTINUOUS
 62
     7
 10
-80.7720280522295
 20
137.853313769103
 30
0.0
 40
1.49999906106587
  0
CIRCLE
  5
   56C
  8
0
  6
CONTINUOUS
 62
     7
 10
-80.7720342612849
 20
137.853307196509
 30
0.0
 40
0.812501011785081
  0
CIRCLE
  5
   56D
  8
0
  6
CONTINUOUS
 62
     7
 10
-80.7720277374002
 20
112.85330712082
 30
0.0
 40
1.50000258950911
  0
CIRCLE
  5
   56E
  8
0
  6
CONTINUOUS
 62
     7
 10
-80.7720264489505
 20
112.853310036888
 30
0.0
 40
0.812500267857199
  0
CIRCLE
  5
   56F
  8
0
  6
CONTINUOUS
 62
     7
 10
-116.397034780048
 20
124.353293351308
 30
0.0
 40
2.50000442185753
  0
CIRCLE
  5
   570
  8
0
  6
CONTINUOUS
 62
     7
 10
-116.397032401109
 20
124.353298930184
 30
0.0
 40
0.687499365703881
  0
LINE
  5
   571
  8
0
  6
CONTINUOUS
 62
     7
 10
-116.397034780048
 20
121.10328892945
 30
0.0
 11
-116.397034780048
 21
127.603297773166
 31
0.0
  0
LINE
  5
   572
  8
0
  6
CONTINUOUS
 62
     7
 10
-113.147030358191
 20
124.353293351308
 30
0.0
 11
-119.647039201906
 21
124.353293351308
 31
0.0
  0
LINE
  5
   573
  8
0
  6
CONTINUOUS
 62
     7
 10
-80.7720280522295
 20
135.603314708037
 30
0.0
 11
-80.7720280522295
 21
140.103312830168
 31
0.0
  0
LINE
  5
   574
  8
0
  6
CONTINUOUS
 62
     7
 10
-78.5220289911637
 20
137.853313769103
 30
0.0
 11
-83.0220271132954
 21
137.853313769103
 31
0.0
  0
LINE
  5
   575
  8
0
  6
CONTINUOUS
 62
     7
 10
-80.7720277374002
 20
110.603304531311
 30
0.0
 11
-80.7720277374002
 21
115.103309710329
 31
0.0
  0
LINE
  5
   576
  8
0
  6
CONTINUOUS
 62
     7
 10
-78.5220251478911
 20
112.85330712082
 30
0.0
 11
-83.0220303269094
 21
112.85330712082
 31
0.0
  0
LINE
  5
   577
  8
0
  6
DOT
 62
     7
 10
-131.754617777541
 20
137.915813854648
 30
0.0
 11
-138.629617777541
 21
137.915813854648
 31
0.0
  0
LINE
  5
   578
  8
0
  6
DOT
 62
     7
 10
-131.754617777541
 20
111.665813854648
 30
0.0
 11
-138.629617777541
 21
111.665813854648
 31
0.0
  0
LINE
  5
   579
  8
0
  6
CONTINUOUS
 62
     7
 10
-87.5220317069201
 20
146.603313854648
 30
0.0
 11
-111.697030944279
 21
146.603313854648
 31
0.0
  0
LINE
  5
   57A
  8
0
  6
CONTINUOUS
 62
     7
 10
-87.52203170692
 20
104.103313854648
 30
0.0
 11
-111.697030944279
 21
104.103313854648
 31
0.0
  0
LINE
  5
   57B
  8
0
  6
CONTINUOUS
 62
     7
 10
-111.697030944279
 20
143.603310039951
 30
0.0
 11
-111.697030944279
 21
146.603313854648
 31
0.0
  0
LINE
  5
   57C
  8
0
  6
CONTINUOUS
 62
     7
 10
-111.697030944279
 20
104.103313854648
 30
0.0
 11
-111.697030944279
 21
108.6033047297
 31
0.0
  0
LINE
  5
   57D
  8
0
  6
CONTINUOUS
 62
     7
 10
-121.697840904581
 20
110.160807364216
 30
0.0
 11
-121.697840904581
 21
139.18278629864
 31
0.0
  0
LINE
  5
   57E
  8
0
  6
CONTINUOUS
 62
     7
 10
-124.238134024741
 20
109.551832986096
 30
0.0
 11
-124.238134024741
 21
139.147987762747
 31
0.0
  0
LINE
  5
   57F
  8
0
  6
CONTINUOUS
 62
     7
 10
-131.754617777541
 20
111.665813854648
 30
0.0
 11
-131.754617777541
 21
137.915813854648
 31
0.0
  0
ARC
  5
   580
  8
0
  6
CONTINUOUS
 62
     7
 10
-131.442117777541
 20
137.603313854648
 30
0.0
 40
0.3125
 50
89.9999999480344
 51
179.999999948034
  0
ARC
  5
   581
  8
0
  6
CONTINUOUS
 62
     7
 10
-131.442117777541
 20
111.978313854648
 30
0.0
 40
0.3125
 50
179.999999948034
 51
269.999999948034
  0
LINE
  5
   582
  8
0
  6
CONTINUOUS
 62
     7
 10
-119.397012633434
 20
137.915813854648
 30
0.0
 11
-121.697840904581
 21
137.915813854648
 31
0.0
  0
LINE
  5
   583
  8
0
  6
CONTINUOUS
 62
     7
 10
-119.397012633434
 20
111.665813854648
 30
0.0
 11
-121.697840904581
 21
111.665813854648
 31
0.0
  0
LINE
  5
   584
  8
0
  6
CONTINUOUS
 62
     7
 10
-70.8191669636028
 20
194.18182467941
 30
0.0
 11
-71.1808781483159
 21
194.390661514117
 31
0.0
  0
LINE
  5
   585
  8
0
  6
CONTINUOUS
 62
     7
 10
-71.8071420724182
 20
194.070383670451
 30
0.0
 11
-71.7773125147314
 21
194.239559206692
 31
0.0
  0
LINE
  5
   586
  8
0
  6
CONTINUOUS
 62
     7
 10
-72.5571378007917
 20
194.801174968205
 30
0.0
 11
-72.3856360045458
 21
194.847127503081
 31
0.0
  0
LINE
  5
   587
  8
0
  6
CONTINUOUS
 62
     7
 10
-72.3856068205593
 20
195.109553668697
 30
0.0
 11
-72.5571400174596
 21
195.155507084057
 31
0.0
  0
LINE
  5
   588
  8
0
  6
CONTINUOUS
 62
     7
 10
-71.7772835155311
 20
195.716962816573
 30
0.0
 11
-71.8071409032835
 21
195.88628913953
 31
0.0
  0
LINE
  5
   589
  8
0
  6
CONTINUOUS
 62
     7
 10
-71.1809939448389
 20
195.565947256545
 30
0.0
 11
-70.8191631766005
 21
195.774854189464
 31
0.0
  0
LINE
  5
   58A
  8
0
  6
CONTINUOUS
 62
     7
 10
-70.8191421443993
 20
131.681802476483
 30
0.0
 11
-71.1924732050162
 21
131.897344311887
 31
0.0
  0
LINE
  5
   58B
  8
0
  6
CONTINUOUS
 62
     7
 10
-71.8071153209606
 20
131.570364714443
 30
0.0
 11
-71.7747838552277
 21
131.753725762871
 31
0.0
  0
LINE
  5
   58C
  8
0
  6
CONTINUOUS
 62
     7
 10
-72.5571129874026
 20
132.301143849052
 30
0.0
 11
-72.3716614786222
 21
132.350834097851
 31
0.0
  0
LINE
  5
   58D
  8
0
  6
CONTINUOUS
 62
     7
 10
-72.3716621662206
 20
132.605792655539
 30
0.0
 11
-72.557113675001
 21
132.655482904338
 31
0.0
  0
LINE
  5
   58E
  8
0
  6
CONTINUOUS
 62
     7
 10
-71.7747839113168
 20
133.202898709562
 30
0.0
 11
-71.8071153770497
 21
133.38625975799
 31
0.0
  0
LINE
  5
   58F
  8
0
  6
CONTINUOUS
 62
     7
 10
-71.1924738616179
 20
133.059277611361
 30
0.0
 11
-70.819142801001
 21
133.274819446765
 31
0.0
  0
LINE
  5
   590
  8
0
  6
CONTINUOUS
 62
     7
 10
-68.6760868620342
 20
134.118190016534
 30
0.0
 11
-71.3958459010076
 21
134.462477887103
 31
0.0
  0
LINE
  5
   591
  8
0
  6
CONTINUOUS
 62
     7
 10
-68.2982267071927
 20
134.070357037233
 30
0.0
 11
-68.6760877264889
 21
134.118189525462
 31
0.0
  0
LINE
  5
   592
  8
0
  6
CONTINUOUS
 62
     7
 10
-63.9552310193404
 20
133.520581513691
 30
0.0
 11
-68.2982294837324
 21
134.070355701727
 31
0.0
  0
LINE
  5
   593
  8
0
  6
CONTINUOUS
 62
     7
 10
-69.0312382254377
 20
123.680147942753
 30
0.0
 11
-62.7697714838758
 21
130.144978162499
 31
0.0
  0
LINE
  5
   594
  8
0
  6
CONTINUOUS
 62
     7
 10
-70.2970903302412
 20
123.235601112828
 30
0.0
 11
-71.058341774792
 21
123.331967998716
 31
0.0
  0
LINE
  5
   595
  8
0
  6
CONTINUOUS
 62
     7
 10
-71.4909382108577
 20
123.760277007933
 30
0.0
 11
-71.5948829891229
 21
124.520532802446
 31
0.0
  0
LINE
  5
   596
  8
0
  6
CONTINUOUS
 62
     7
 10
-70.6421552693699
 20
126.481692083762
 30
0.0
 11
-70.5388036820286
 21
127.298125032218
 31
0.0
  0
LINE
  5
   597
  8
0
  6
CONTINUOUS
 62
     7
 10
-70.5388028550839
 20
127.298126577009
 30
0.0
 11
-70.2562348654441
 21
129.530313900181
 31
0.0
  0
LINE
  5
   598
  8
0
  6
CONTINUOUS
 62
     7
 10
-70.906110257005
 20
130.368558471217
 30
0.0
 11
-71.0039419834307
 21
130.380944793902
 31
0.0
  0
LINE
  5
   599
  8
0
  6
CONTINUOUS
 62
     7
 10
-71.0039375247921
 20
130.380947186238
 30
0.0
 11
-71.8981903125712
 21
130.494148325448
 31
0.0
  0
LINE
  5
   59A
  8
0
  6
CONTINUOUS
 62
     7
 10
-68.5376946526199
 20
125.986424160791
 30
0.0
 11
-65.3982427060734
 21
129.227841013292
 31
0.0
  0
LINE
  5
   59B
  8
0
  6
CONTINUOUS
 62
     7
 10
-69.3928931891821
 20
126.397077220132
 30
0.0
 11
-69.1557487067663
 21
128.270429318717
 31
0.0
  0
LINE
  5
   59C
  8
0
  6
CONTINUOUS
 62
     7
 10
-68.0327741520583
 20
132.217553992033
 30
0.0
 11
-68.0297414676999
 21
132.241857428318
 31
0.0
  0
LINE
  5
   59D
  8
0
  6
CONTINUOUS
 62
     7
 10
-66.5799836300804
 20
132.592871561072
 30
0.0
 11
-67.4680108456279
 21
132.705283053757
 31
0.0
  0
LINE
  5
   59E
  8
0
  6
CONTINUOUS
 62
     7
 10
-69.9140528206311
 20
127.2190373762
 30
0.0
 11
-70.5388029683436
 21
127.298123678241
 31
0.0
  0
LINE
  5
   59F
  8
0
  6
CONTINUOUS
 62
     7
 10
-69.3736595891291
 20
127.567104956666
 30
0.0
 11
-68.1844066879927
 21
131.405491472394
 31
0.0
  0
LINE
  5
   5A0
  8
0
  6
CONTINUOUS
 62
     7
 10
-69.3412787720842
 20
192.488542306576
 30
0.0
 11
-72.0315920447285
 21
193.01564953828
 31
0.0
  0
LINE
  5
   5A1
  8
0
  6
CONTINUOUS
 62
     7
 10
-68.9675087193684
 20
192.41530869015
 30
0.0
 11
-69.341278477582
 21
192.488543249615
 31
0.0
  0
LINE
  5
   5A2
  8
0
  6
CONTINUOUS
 62
     7
 10
-68.9675087193684
 20
192.41530869015
 30
0.0
 11
-69.341278477582
 21
192.488543249615
 31
0.0
  0
LINE
  5
   5A3
  8
0
  6
CONTINUOUS
 62
     7
 10
-64.6715307249911
 20
191.573610541532
 30
0.0
 11
-68.9675093079467
 21
192.415308220027
 31
0.0
  0
LINE
  5
   5A4
  8
0
  6
CONTINUOUS
 62
     7
 10
-62.486111472972
 20
194.406271029565
 30
0.0
 11
-66.4009978903729
 21
202.51019885603
 31
0.0
  0
LINE
  5
   5A5
  8
0
  6
CONTINUOUS
 62
     7
 10
-67.4632447044603
 20
203.329738646589
 30
0.0
 11
-68.2162545234227
 21
203.477268250761
 31
0.0
  0
LINE
  5
   5A6
  8
0
  6
CONTINUOUS
 62
     7
 10
-69.0988643767342
 20
202.51728231344
 30
0.0
 11
-68.7614620439223
 21
203.206445501169
 31
0.0
  0
LINE
  5
   5A7
  8
0
  6
CONTINUOUS
 62
     7
 10
-68.9683393357221
 20
199.548565682494
 30
0.0
 11
-68.8101095032774
 21
200.356159978702
 31
0.0
  0
LINE
  5
   5A8
  8
0
  6
CONTINUOUS
 62
     7
 10
-69.4009503865327
 20
197.340552078104
 30
0.0
 11
-68.96833891093
 21
199.548567537574
 31
0.0
  0
LINE
  5
   5A9
  8
0
  6
CONTINUOUS
 62
     7
 10
-70.2811614342782
 20
196.748747152539
 30
0.0
 11
-70.3779326743822
 21
196.767706198349
 31
0.0
  0
LINE
  5
   5AA
  8
0
  6
CONTINUOUS
 62
     7
 10
-70.3779305148445
 20
196.767713258973
 30
0.0
 11
-71.2624997069595
 21
196.941022589382
 31
0.0
  0
LINE
  5
   5AB
  8
0
  6
CONTINUOUS
 62
     7
 10
-64.6936732864809
 20
196.102362529054
 30
0.0
 11
-66.6565677136035
 21
200.165610333881
 31
0.0
  0
LINE
  5
   5AC
  8
0
  6
CONTINUOUS
 62
     7
 10
-67.9605276532183
 20
198.191155588376
 30
0.0
 11
-67.5974600359295
 21
200.044228715929
 31
0.0
  0
LINE
  5
   5AD
  8
0
  6
CONTINUOUS
 62
     7
 10
-68.1384605704049
 20
194.067040855606
 30
0.0
 11
-68.1337036429686
 21
194.091073448676
 31
0.0
  0
LINE
  5
   5AE
  8
0
  6
CONTINUOUS
 62
     7
 10
-66.8722413629835
 20
193.278567426203
 30
0.0
 11
-67.750655511008
 21
193.45067130323
 31
0.0
  0
LINE
  5
   5AF
  8
0
  6
CONTINUOUS
 62
     7
 10
-68.3503507118801
 20
199.42748804033
 30
0.0
 11
-68.9683393078516
 21
199.548566528519
 31
0.0
  0
LINE
  5
   5B0
  8
0
  6
CONTINUOUS
 62
     7
 10
-68.0226970950525
 20
194.909675111928
 30
0.0
 11
-67.9465748075667
 21
198.927352456081
 31
0.0
  0
LINE
  5
   5B1
  8
0
  6
CONTINUOUS
 62
     7
 10
-63.820922042143
 20
194.123912378356
 30
0.0
 11
-63.4590991730196
 21
194.332814750635
 31
0.0
  0
LINE
  5
   5B2
  8
0
  6
CONTINUOUS
 62
     7
 10
-64.4172160876288
 20
194.274909194366
 30
0.0
 11
-64.4470786520735
 21
194.444254885344
 31
0.0
  0
LINE
  5
   5B3
  8
0
  6
CONTINUOUS
 62
     7
 10
-65.0253711392336
 20
193.667466936585
 30
0.0
 11
-65.1970779326419
 21
193.713474398812
 31
0.0
  0
LINE
  5
   5B4
  8
0
  6
CONTINUOUS
 62
     7
 10
-65.1970756014815
 20
193.359135490494
 30
0.0
 11
-65.0253536649941
 21
193.405147010187
 31
0.0
  0
LINE
  5
   5B5
  8
0
  6
CONTINUOUS
 62
     7
 10
-64.4470792209819
 20
192.628349750055
 30
0.0
 11
-64.4171994288979
 21
192.797800189511
 31
0.0
  0
LINE
  5
   5B6
  8
0
  6
CONTINUOUS
 62
     7
 10
-63.4591032480042
 20
192.73978510672
 30
0.0
 11
-63.8210089443312
 21
192.948731022811
 31
0.0
  0
LINE
  5
   5B7
  8
0
  6
CONTINUOUS
 62
     7
 10
-63.7518503731341
 20
132.117385498142
 30
0.0
 11
-63.3785174047888
 21
132.332927343723
 31
0.0
  0
LINE
  5
   5B8
  8
0
  6
CONTINUOUS
 62
     7
 10
-64.3366360735782
 20
132.275025514646
 30
0.0
 11
-64.3664938170996
 21
132.444367372443
 31
0.0
  0
LINE
  5
   5B9
  8
0
  6
CONTINUOUS
 62
     7
 10
-64.9448521968326
 20
131.667598566732
 30
0.0
 11
-65.1164926688144
 21
131.713588258663
 31
0.0
  0
LINE
  5
   5BA
  8
0
  6
CONTINUOUS
 62
     7
 10
-65.1164920000243
 20
131.359249351954
 30
0.0
 11
-64.9448559218232
 21
131.405237866606
 31
0.0
  0
LINE
  5
   5BB
  8
0
  6
CONTINUOUS
 62
     7
 10
-64.3664933626542
 20
130.628472651254
 30
0.0
 11
-64.3366398324892
 21
130.797790612483
 31
0.0
  0
LINE
  5
   5BC
  8
0
  6
CONTINUOUS
 62
     7
 10
-63.37852112753
 20
130.739903728295
 30
0.0
 11
-63.7518541033335
 21
130.955449381729
 31
0.0
  0
LINE
  5
   5BD
  8
0
  6
CONTINUOUS
 62
     7
 10
-75.3587092728036
 20
126.728130711228
 30
0.0
 11
-75.6470221847909
 21
126.728130711228
 31
0.0
  0
LINE
  5
   5BE
  8
0
  6
CONTINUOUS
 62
     7
 10
-75.3587092728036
 20
126.728130711228
 30
0.0
 11
-75.3587092728036
 21
126.915630711228
 31
0.0
  0
LINE
  5
   5BF
  8
0
  6
CONTINUOUS
 62
     7
 10
-74.6470202774423
 20
126.915630711228
 30
0.0
 11
-75.3587092728036
 21
126.915630711228
 31
0.0
  0
LINE
  5
   5C0
  8
0
  6
CONTINUOUS
 62
     7
 10
-71.6087092728036
 20
126.915630711228
 30
0.0
 11
-73.8970202774423
 21
126.915630711228
 31
0.0
  0
LINE
  5
   5C1
  8
0
  6
CONTINUOUS
 62
     7
 10
-71.6087092728036
 20
123.165630711228
 30
0.0
 11
-71.6087092728036
 21
126.915630711228
 31
0.0
  0
LINE
  5
   5C2
  8
0
  6
CONTINUOUS
 62
     7
 10
-71.6087092728036
 20
123.165630711228
 30
0.0
 11
-73.8970202774423
 21
123.165630711228
 31
0.0
  0
LINE
  5
   5C3
  8
0
  6
CONTINUOUS
 62
     7
 10
-74.6470202774423
 20
123.165630711228
 30
0.0
 11
-75.1470202774423
 21
123.165630711228
 31
0.0
  0
LINE
  5
   5C4
  8
0
  6
CONTINUOUS
 62
     7
 10
-75.3587092728036
 20
123.485626591355
 30
0.0
 11
-75.3587092728036
 21
124.290630711228
 31
0.0
  0
LINE
  5
   5C5
  8
0
  6
CONTINUOUS
 62
     7
 10
-75.3587092728036
 20
125.790630711228
 30
0.0
 11
-75.3587092728036
 21
126.728130711228
 31
0.0
  0
LINE
  5
   5C6
  8
0
  6
CONTINUOUS
 62
     7
 10
-72.7337092728036
 20
126.040630711228
 30
0.0
 11
-73.8970202774423
 21
126.040630711228
 31
0.0
  0
LINE
  5
   5C7
  8
0
  6
CONTINUOUS
 62
     7
 10
-74.6470202774423
 20
126.040630711228
 30
0.0
 11
-75.3419627518075
 21
126.040630711228
 31
0.0
  0
LINE
  5
   5C8
  8
0
  6
CONTINUOUS
 62
     7
 10
-72.5569319327883
 20
125.967407838419
 30
0.0
 11
-72.7337088188057
 21
126.040630952561
 31
0.0
  0
LINE
  5
   5C9
  8
0
  6
CONTINUOUS
 62
     7
 10
-72.483709031364
 20
125.79063116341
 30
0.0
 11
-72.5569321455055
 21
125.967408049427
 31
0.0
  0
LINE
  5
   5CA
  8
0
  6
CONTINUOUS
 62
     7
 10
-72.4837092728036
 20
124.290630711228
 30
0.0
 11
-72.4837092728036
 21
125.790630711228
 31
0.0
  0
LINE
  5
   5CB
  8
0
  6
CONTINUOUS
 62
     7
 10
-72.556933210845
 20
124.113854567399
 30
0.0
 11
-72.4837100967072
 21
124.290629543805
 31
0.0
  0
LINE
  5
   5CC
  8
0
  6
CONTINUOUS
 62
     7
 10
-72.7337085257803
 20
124.040631202949
 30
0.0
 11
-72.556931638075
 21
124.113856221708
 31
0.0
  0
LINE
  5
   5CD
  8
0
  6
CONTINUOUS
 62
     7
 10
-74.6470202774423
 20
124.040630711228
 30
0.0
 11
-75.3419627518075
 21
124.040630711228
 31
0.0
  0
LINE
  5
   5CE
  8
0
  6
CONTINUOUS
 62
     7
 10
-72.7337092728036
 20
124.040630711228
 30
0.0
 11
-73.8970202774423
 21
124.040630711228
 31
0.0
  0
LINE
  5
   5CF
  8
0
  6
CONTINUOUS
 62
     7
 10
-74.8587092728036
 20
123.165630711228
 30
0.0
 11
-74.8587092728036
 21
124.040630711228
 31
0.0
  0
LINE
  5
   5D0
  8
0
  6
CONTINUOUS
 62
     7
 10
-74.8587092728036
 20
126.040630711228
 30
0.0
 11
-74.8587092728036
 21
126.915630711228
 31
0.0
  0
LINE
  5
   5D1
  8
0
  6
CONTINUOUS
 62
     7
 10
-75.3587092728036
 20
123.790630711228
 30
0.0
 11
-75.6470221847909
 21
123.790630711228
 31
0.0
  0
LINE
  5
   5D2
  8
0
  6
CONTINUOUS
 62
     7
 10
-72.7337092728036
 20
125.790630711228
 30
0.0
 11
-73.8970202774423
 21
125.790630711228
 31
0.0
  0
LINE
  5
   5D3
  8
0
  6
CONTINUOUS
 62
     7
 10
-74.6470202774423
 20
125.790630711228
 30
0.0
 11
-75.3587092728036
 21
125.790630711228
 31
0.0
  0
LINE
  5
   5D4
  8
0
  6
CONTINUOUS
 62
     7
 10
-75.358708823859
 20
126.014744762906
 30
0.0
 11
-75.3419623024968
 21
126.040631298919
 31
0.0
  0
LINE
  5
   5D5
  8
0
  6
CONTINUOUS
 62
     7
 10
-72.7337092728036
 20
124.290630711228
 30
0.0
 11
-73.8970202774423
 21
124.290630711228
 31
0.0
  0
LINE
  5
   5D6
  8
0
  6
CONTINUOUS
 62
     7
 10
-74.6470202774423
 20
124.290630711228
 30
0.0
 11
-75.3587092728036
 21
124.290630711228
 31
0.0
  0
LINE
  5
   5D7
  8
0
  6
CONTINUOUS
 62
     7
 10
-72.7337102223873
 20
125.790629760219
 30
0.0
 11
-72.5569333404552
 21
125.967406642151
 31
0.0
  0
LINE
  5
   5D8
  8
0
  6
CONTINUOUS
 62
     7
 10
-72.7337092728036
 20
124.290630711228
 30
0.0
 11
-72.7337092728036
 21
125.790630711228
 31
0.0
  0
LINE
  5
   5D9
  8
0
  6
CONTINUOUS
 62
     7
 10
-72.5569304566455
 20
124.113857424838
 30
0.0
 11
-72.733707348308
 21
124.290632409161
 31
0.0
  0
LINE
  5
   5DA
  8
0
  6
CONTINUOUS
 62
     7
 10
-72.1266511248135
 20
200.915824200873
 30
0.0
 11
-72.1266511248135
 21
201.853324200873
 31
0.0
  0
LINE
  5
   5DB
  8
0
  6
CONTINUOUS
 62
     7
 10
-72.1266511248135
 20
204.353324200873
 30
0.0
 11
-72.1266511248135
 21
205.415824200873
 31
0.0
  0
LINE
  5
   5DC
  8
0
  6
CONTINUOUS
 62
     7
 10
-69.2516511248135
 20
206.415824200873
 30
0.0
 11
-70.2625420855068
 21
206.415824200873
 31
0.0
  0
LINE
  5
   5DD
  8
0
  6
CONTINUOUS
 62
     7
 10
-69.2517335361138
 20
203.415824200925
 30
0.0
 11
-69.2517335361138
 21
206.415824200925
 31
0.0
  0
LINE
  5
   5DE
  8
0
  6
CONTINUOUS
 62
     7
 10
-72.1266511248135
 20
204.353324200873
 30
0.0
 11
-73.8970459270099
 21
204.353324200873
 31
0.0
  0
LINE
  5
   5DF
  8
0
  6
CONTINUOUS
 62
     7
 10
-72.1266511248135
 20
201.496680524115
 30
0.0
 11
-73.8970459270099
 21
201.496680524115
 31
0.0
  0
LINE
  5
   5E0
  8
0
  6
DOT
 62
     7
 10
-84.7516516016506
 20
201.496680524115
 30
0.0
 11
-84.7516516016506
 21
204.353324200873
 31
0.0
  0
LINE
  5
   5E1
  8
0
  6
CONTINUOUS
 62
     7
 10
-70.2625420855068
 20
206.415824200873
 30
0.0
 11
-72.1266530321621
 21
206.415824200873
 31
0.0
  0
LINE
  5
   5E2
  8
0
  6
CONTINUOUS
 62
     7
 10
-72.1266530321621
 20
205.415824200873
 30
0.0
 11
-72.1266530321621
 21
206.415824200873
 31
0.0
  0
LINE
  5
   5E3
  8
0
  6
CONTINUOUS
 62
     7
 10
-71.0016530321621
 20
205.415824200873
 30
0.0
 11
-72.1266530321621
 21
205.415824200873
 31
0.0
  0
LINE
  5
   5E4
  8
0
  6
CONTINUOUS
 62
     7
 10
-71.6214561615344
 20
203.415819077297
 30
0.0
 11
-71.4443740988488
 21
203.489351183011
 31
0.0
  0
LINE
  5
   5E5
  8
0
  6
CONTINUOUS
 62
     7
 10
-71.6214535997891
 20
203.415824200873
 30
0.0
 11
-72.1266530321621
 21
203.415824200873
 31
0.0
  0
LINE
  5
   5E6
  8
0
  6
CONTINUOUS
 62
     7
 10
-72.1266530321621
 20
202.415824200873
 30
0.0
 11
-72.1266530321621
 21
203.415824200873
 31
0.0
  0
LINE
  5
   5E7
  8
0
  6
CONTINUOUS
 62
     7
 10
-70.8766530321621
 20
202.415824200873
 30
0.0
 11
-72.1266530321621
 21
202.415824200873
 31
0.0
  0
LINE
  5
   5E8
  8
0
  6
CONTINUOUS
 62
     7
 10
-70.6266530321621
 20
201.165824200873
 30
0.0
 11
-70.6266530321621
 21
202.165824200873
 31
0.0
  0
LINE
  5
   5E9
  8
0
  6
CONTINUOUS
 62
     7
 10
-70.8766530321621
 20
200.915824200873
 30
0.0
 11
-72.1266530321621
 21
200.915824200873
 31
0.0
  0
LINE
  5
   5EA
  8
0
  6
CONTINUOUS
 62
     7
 10
-72.1266530321621
 20
199.915824200873
 30
0.0
 11
-72.1266530321621
 21
200.915824200873
 31
0.0
  0
LINE
  5
   5EB
  8
0
  6
CONTINUOUS
 62
     7
 10
-69.7516530321621
 20
199.915824200873
 30
0.0
 11
-72.1266530321621
 21
199.915824200873
 31
0.0
  0
LINE
  5
   5EC
  8
0
  6
CONTINUOUS
 62
     7
 10
-69.2516530321621
 20
200.415824200873
 30
0.0
 11
-69.2516530321621
 21
203.415824200873
 31
0.0
  0
LINE
  5
   5ED
  8
0
  6
CONTINUOUS
 62
     7
 10
-69.2516530321621
 20
203.415824200873
 30
0.0
 11
-70.1033070848965
 21
203.415824200873
 31
0.0
  0
LINE
  5
   5EE
  8
0
  6
CONTINUOUS
 62
     7
 10
-69.3186409658696
 20
200.165824476701
 30
0.0
 11
-69.2516529743136
 21
200.415824474799
 31
0.0
  0
LINE
  5
   5EF
  8
0
  6
CONTINUOUS
 62
     7
 10
-69.5016583274136
 20
199.982798788204
 30
0.0
 11
-69.3186463121999
 21
200.165812700919
 31
0.0
  0
LINE
  5
   5F0
  8
0
  6
CONTINUOUS
 62
     7
 10
-69.7516484117488
 20
199.915833643792
 30
0.0
 11
-69.501648409369
 21
199.982819730137
 31
0.0
  0
LINE
  5
   5F1
  8
0
  6
DOT
 62
     7
 10
-86.8587140411752
 20
123.665800465256
 30
0.0
 11
-86.8587140411752
 21
124.603300465256
 31
0.0
  0
LINE
  5
   5F2
  8
0
  6
DOT
 62
     7
 10
-86.8587140411752
 20
127.103300465256
 30
0.0
 11
-86.8587140411752
 21
128.165800465256
 31
0.0
  0
LINE
  5
   5F3
  8
0
  6
DOT
 62
     7
 10
-83.9837149948495
 20
129.165800465256
 30
0.0
 11
-84.9946050018685
 21
129.165800465256
 31
0.0
  0
LINE
  5
   5F4
  8
0
  6
DOT
 62
     7
 10
-83.9837347815291
 20
126.165800465269
 30
0.0
 11
-83.9837347815291
 21
129.165800465269
 31
0.0
  0
LINE
  5
   5F5
  8
0
  6
DOT
 62
     7
 10
-86.8587140411752
 20
127.103300465256
 30
0.0
 11
-99.4837140411752
 21
127.103300465256
 31
0.0
  0
LINE
  5
   5F6
  8
0
  6
DOT
 62
     7
 10
-86.8587140411752
 20
124.246654881149
 30
0.0
 11
-99.4837140411752
 21
124.246654881149
 31
0.0
  0
LINE
  5
   5F7
  8
0
  6
DOT
 62
     7
 10
-99.4837144584077
 20
124.246654881149
 30
0.0
 11
-99.4837144584077
 21
127.103300465256
 31
0.0
  0
LINE
  5
   5F8
  8
0
  6
DOT
 62
     7
 10
-84.9946059555428
 20
129.165800465256
 30
0.0
 11
-86.8587159485238
 21
129.165800465256
 31
0.0
  0
LINE
  5
   5F9
  8
0
  6
DOT
 62
     7
 10
-86.8587159485238
 20
128.165800465256
 30
0.0
 11
-86.8587159485238
 21
129.165800465256
 31
0.0
  0
LINE
  5
   5FA
  8
0
  6
DOT
 62
     7
 10
-85.7337159485238
 20
128.165800465256
 30
0.0
 11
-86.8587159485238
 21
128.165800465256
 31
0.0
  0
LINE
  5
   5FB
  8
0
  6
DOT
 62
     7
 10
-86.3535156729947
 20
126.165801331133
 30
0.0
 11
-86.1764336126818
 21
126.23933152825
 31
0.0
  0
LINE
  5
   5FC
  8
0
  6
DOT
 62
     7
 10
-86.3535165161507
 20
126.165800465256
 30
0.0
 11
-86.8587159485238
 21
126.165800465256
 31
0.0
  0
LINE
  5
   5FD
  8
0
  6
DOT
 62
     7
 10
-86.8587159485238
 20
125.165800465256
 30
0.0
 11
-86.8587159485238
 21
126.165800465256
 31
0.0
  0
LINE
  5
   5FE
  8
0
  6
DOT
 62
     7
 10
-85.6087159485238
 20
125.165800465256
 30
0.0
 11
-86.8587159485238
 21
125.165800465256
 31
0.0
  0
LINE
  5
   5FF
  8
0
  6
DOT
 62
     7
 10
-85.4319388647886
 20
125.092577631061
 30
0.0
 11
-85.6087157508059
 21
125.165800745203
 31
0.0
  0
LINE
  5
   600
  8
0
  6
DOT
 62
     7
 10
-85.3587158643127
 20
124.915800949321
 30
0.0
 11
-85.4319389784543
 21
125.092577835338
 31
0.0
  0
LINE
  5
   601
  8
0
  6
DOT
 62
     7
 10
-85.3587159485238
 20
123.915800465256
 30
0.0
 11
-85.3587159485238
 21
124.915800465256
 31
0.0
  0
LINE
  5
   602
  8
0
  6
DOT
 62
     7
 10
-85.4319387770345
 20
123.739024155015
 30
0.0
 11
-85.358715662893
 21
123.915801041032
 31
0.0
  0
LINE
  5
   603
  8
0
  6
DOT
 62
     7
 10
-85.6087155479209
 20
123.665800843194
 30
0.0
 11
-85.4319386619036
 21
123.739023957336
 31
0.0
  0
LINE
  5
   604
  8
0
  6
DOT
 62
     7
 10
-85.6087159485238
 20
123.665800465256
 30
0.0
 11
-86.8587159485238
 21
123.665800465256
 31
0.0
  0
LINE
  5
   605
  8
0
  6
DOT
 62
     7
 10
-86.8587159485238
 20
122.665800465256
 30
0.0
 11
-86.8587159485238
 21
123.665800465256
 31
0.0
  0
LINE
  5
   606
  8
0
  6
DOT
 62
     7
 10
-84.4837159485238
 20
122.665800465256
 30
0.0
 11
-86.8587159485238
 21
122.665800465256
 31
0.0
  0
LINE
  5
   607
  8
0
  6
DOT
 62
     7
 10
-83.9837149948495
 20
123.165800465256
 30
0.0
 11
-83.9837149948495
 21
126.165800465256
 31
0.0
  0
LINE
  5
   608
  8
0
  6
DOT
 62
     7
 10
-83.9837149948495
 20
126.165800465256
 30
0.0
 11
-84.8353690475839
 21
126.165800465256
 31
0.0
  0
LINE
  5
   609
  8
0
  6
DOT
 62
     7
 10
-84.0507029593441
 20
122.915800524429
 30
0.0
 11
-83.983714967788
 21
123.165800522527
 31
0.0
  0
LINE
  5
   60A
  8
0
  6
DOT
 62
     7
 10
-84.2337156209466
 20
122.732787684585
 30
0.0
 11
-84.0507036186462
 21
122.915799686886
 31
0.0
  0
LINE
  5
   60B
  8
0
  6
DOT
 62
     7
 10
-84.4837162347253
 20
122.665800231424
 30
0.0
 11
-84.2337152825286
 21
122.732788222981
 31
0.0
  0
LINE
  5
   60C
  8
0
  6
DOT
 62
     7
 10
-75.3587092728036
 20
123.165630711228
 30
0.0
 11
-75.3587092728036
 21
123.353130711228
 31
0.0
  0
LINE
  5
   60D
  8
0
  6
CONTINUOUS
 62
     7
 10
-75.3587092728036
 20
123.353130711228
 30
0.0
 11
-75.3587092728036
 21
123.485626591355
 31
0.0
  0
LINE
  5
   60E
  8
0
  6
DOT
 62
     7
 10
-75.3587092728036
 20
123.374544514328
 30
0.0
 11
-83.9837149948495
 21
123.374544514328
 31
0.0
  0
LINE
  5
   60F
  8
0
  6
DOT
 62
     7
 10
-73.8970459270099
 20
204.353324200873
 30
0.0
 11
-74.6470459270099
 21
204.353324200873
 31
0.0
  0
LINE
  5
   610
  8
0
  6
DOT
 62
     7
 10
-73.8970459270099
 20
201.496680524115
 30
0.0
 11
-74.6470459270099
 21
201.496680524115
 31
0.0
  0
LINE
  5
   611
  8
0
  6
DOT
 62
     7
 10
-73.8970202774423
 20
126.915630711228
 30
0.0
 11
-74.6470202774423
 21
126.915630711228
 31
0.0
  0
LINE
  5
   612
  8
0
  6
DOT
 62
     7
 10
-73.8970202774423
 20
126.040630711228
 30
0.0
 11
-74.6470202774423
 21
126.040630711228
 31
0.0
  0
LINE
  5
   613
  8
0
  6
DOT
 62
     7
 10
-73.8970202774423
 20
125.790630711228
 30
0.0
 11
-74.6470202774423
 21
125.790630711228
 31
0.0
  0
LINE
  5
   614
  8
0
  6
DOT
 62
     7
 10
-73.8970202774423
 20
124.290630711228
 30
0.0
 11
-74.6470202774423
 21
124.290630711228
 31
0.0
  0
LINE
  5
   615
  8
0
  6
DOT
 62
     7
 10
-73.8970202774423
 20
124.040630711228
 30
0.0
 11
-74.6470202774423
 21
124.040630711228
 31
0.0
  0
LINE
  5
   616
  8
0
  6
DOT
 62
     7
 10
-73.8970202774423
 20
123.165630711228
 30
0.0
 11
-74.6470202774423
 21
123.165630711228
 31
0.0
  0
LINE
  5
   617
  8
0
  6
DOT
 62
     7
 10
-75.1470813125985
 20
123.165630711228
 30
0.0
 11
-75.3587092728036
 21
123.165630711228
 31
0.0
  0
LINE
  5
   618
  8
0
  6
DOT
 62
     7
 10
-75.6470221847909
 20
126.728130711228
 30
0.0
 11
-83.9837092728036
 21
126.728130711228
 31
0.0
  0
LINE
  5
   619
  8
0
  6
DOT
 62
     7
 10
-75.6470221847909
 20
123.790630711228
 30
0.0
 11
-83.9837149948495
 21
123.790630711228
 31
0.0
  0
ARC
  5
   61A
  8
0
  6
CONTINUOUS
 62
     7
 10
-71.6470184326172
 20
132.478313854648
 30
0.0
 40
1.99999967543207
 50
442.785348034685
 51
622.785347870261
  0
ARC
  5
   61B
  8
0
  6
CONTINUOUS
 62
     7
 10
-71.6470193837172
 20
132.478299195967
 30
0.0
 40
1.41248795303004
 50
413.10879337948
 51
666.892555958853
  0
CIRCLE
  5
   61C
  8
0
  6
CONTINUOUS
 62
     7
 10
-71.6470211538945
 20
132.478304806079
 30
0.0
 40
0.624992302909675
  0
CIRCLE
  5
   61D
  8
0
  6
CONTINUOUS
 62
     7
 10
-71.6470193144264
 20
132.47832132181
 30
0.0
 40
0.750006975145277
  0
ARC
  5
   61E
  8
0
  6
CONTINUOUS
 62
     7
 10
-71.8809757430259
 20
133.373238373984
 30
0.0
 40
7.49991266056972E-2
 50
369.999989548482
 51
464.650868616615
  0
ARC
  5
   61F
  8
0
  6
CONTINUOUS
 62
     7
 10
-72.5377027319973
 20
132.727927160477
 30
0.0
 40
7.50010032796931E-2
 50
164.344015768398
 51
255.000384256703
  0
ARC
  5
   620
  8
0
  6
CONTINUOUS
 62
     7
 10
-72.5377055746409
 20
132.228700381723
 30
0.0
 40
7.49973305189071E-2
 50
104.999615639364
 51
195.654776095813
  0
ARC
  5
   621
  8
0
  6
CONTINUOUS
 62
     7
 10
-71.8809766148185
 20
131.583386834905
 30
0.0
 40
7.49988623621114E-2
 50
255.348810750251
 51
350.000010347587
  0
ARC
  5
   622
  8
0
  6
CONTINUOUS
 62
     7
 10
-70.919161014022
 20
133.448025454788
 30
0.0
 40
0.200016656417564
 50
299.999890260925
 51
413.10879337948
  0
ARC
  5
   623
  8
0
  6
CONTINUOUS
 62
     7
 10
-70.9191618584876
 20
131.508588789071
 30
0.0
 40
0.200017727390803
 50
306.891624273075
 51
420.000109635144
  0
ARC
  5
   624
  8
0
  6
CONTINUOUS
 62
     7
 10
-71.6470141581641
 20
132.478304042254
 30
0.0
 40
1.00000991837321
 50
195.654776095813
 51
255.348810750251
  0
ARC
  5
   625
  8
0
  6
CONTINUOUS
 62
     7
 10
-71.6470141581641
 20
132.478304042254
 30
0.0
 40
1.00000991837321
 50
104.650868616615
 51
164.3440157684
  0
ARC
  5
   626
  8
0
  6
CONTINUOUS
 62
     7
 10
-71.0002907075128
 20
129.624505853583
 30
0.0
 40
0.749991750893169
 50
352.784981031124
 51
442.786037559047
  0
ARC
  5
   627
  8
0
  6
CONTINUOUS
 62
     7
 10
-64.2063874276416
 20
131.536413132376
 30
0.0
 40
1.41251189627873
 50
413.108766241899
 51
666.892030960495
  0
CIRCLE
  5
   628
  8
0
  6
CONTINUOUS
 62
     7
 10
-64.206400732759
 20
131.536418327139
 30
0.0
 40
0.624999465674181
  0
CIRCLE
  5
   629
  8
0
  6
CONTINUOUS
 62
     7
 10
-64.2064041257022
 20
131.536407732177
 30
0.0
 40
0.750011059136962
  0
ARC
  5
   62A
  8
0
  6
CONTINUOUS
 62
     7
 10
-63.4785348641582
 20
132.506130698915
 30
0.0
 40
0.200013253401966
 50
299.999764654435
 51
413.108766241899
  0
ARC
  5
   62B
  8
0
  6
CONTINUOUS
 62
     7
 10
-63.4785165108441
 20
130.566699220779
 30
0.0
 40
0.199995814578595
 50
306.892030960496
 51
419.999797440822
  0
ARC
  5
   62C
  8
0
  6
CONTINUOUS
 62
     7
 10
-64.4403588640127
 20
130.641493288147
 30
0.0
 40
0.075002955015946
 50
255.347586409527
 51
359.999999948034
  0
ARC
  5
   62D
  8
0
  6
CONTINUOUS
 62
     7
 10
-65.097084618145
 20
131.286805782466
 30
0.0
 40
7.49975281664594E-2
 50
104.999615639366
 51
195.653447779728
  0
ARC
  5
   62E
  8
0
  6
CONTINUOUS
 62
     7
 10
-65.0970824821221
 20
131.786032237047
 30
0.0
 40
7.50005915770405E-2
 50
164.343119982189
 51
255.000384256703
  0
ARC
  5
   62F
  8
0
  6
CONTINUOUS
 62
     7
 10
-64.4403583115507
 20
132.431336398058
 30
0.0
 40
7.50020702436668E-2
 50
369.999410942215
 51
464.651618711891
  0
ARC
  5
   630
  8
0
  6
CONTINUOUS
 62
     7
 10
-64.2063811953563
 20
131.536390536469
 30
0.0
 40
1.00002999820734
 50
104.651618711891
 51
164.34311998219
  0
ARC
  5
   631
  8
0
  6
CONTINUOUS
 62
     7
 10
-64.2063811953563
 20
131.536390536469
 30
0.0
 40
1.00002999820734
 50
195.653447779726
 51
255.347586409529
  0
ARC
  5
   632
  8
0
  6
CONTINUOUS
 62
     7
 10
-68.7388780249122
 20
133.622154853008
 30
0.0
 40
0.499992453423494
 50
381.471023627111
 51
442.785435717569
  0
ARC
  5
   633
  8
0
  6
CONTINUOUS
 62
     7
 10
-67.5308122133351
 20
132.209260941706
 30
0.0
 40
0.499982470461088
 50
442.785548391966
 51
536.260277507458
  0
ARC
  5
   634
  8
0
  6
CONTINUOUS
 62
     7
 10
-66.6427676011944
 20
132.096843361856
 30
0.0
 40
0.499985570224054
 50
347.04511724812
 51
442.785548391966
  0
ARC
  5
   635
  8
0
  6
CONTINUOUS
 62
     7
 10
-64.2064547791243
 20
131.53639657848
 30
0.0
 40
1.99994469835972
 50
167.04511724812
 51
231.65587882288
  0
ARC
  5
   636
  8
0
  6
CONTINUOUS
 62
     7
 10
-65.7573763784837
 20
129.575695329466
 30
0.0
 40
0.499979401550246
 50
315.915496216315
 51
411.65587882288
  0
ARC
  5
   637
  8
0
  6
CONTINUOUS
 62
     7
 10
-71.6470111465624
 20
132.478309357765
 30
0.0
 40
3.62498970729039
 50
342.785374127555
 51
381.471023627111
  0
ARC
  5
   638
  8
0
  6
CONTINUOUS
 62
     7
 10
-69.85126477024
 20
127.71508106133
 30
0.0
 40
0.50000396978696
 50
262.785376415822
 51
342.785374127556
  0
ARC
  5
   639
  8
0
  6
CONTINUOUS
 62
     7
 10
-68.896847844017
 20
126.334289051325
 30
0.0
 40
0.500004597841786
 50
172.785397591174
 51
315.915496216315
  0
ARC
  5
   63A
  8
0
  6
CONTINUOUS
 62
     7
 10
-70.1087002546299
 20
124.723722478604
 30
0.0
 40
1.50000905003373
 50
262.785297621983
 51
315.915496216315
  0
ARC
  5
   63B
  8
0
  6
CONTINUOUS
 62
     7
 10
-71.3862142780231
 20
126.57587477909
 30
0.0
 40
0.749993665098146
 50
304.595802215213
 51
352.78534803547
  0
ARC
  5
   63C
  8
0
  6
CONTINUOUS
 62
     7
 10
-70.99554606067
 20
123.828009824462
 30
0.0
 40
0.500001694190673
 50
187.78540319404
 51
262.785297621983
  0
ARC
  5
   63D
  8
0
  6
CONTINUOUS
 62
     7
 10
-70.1087002546299
 20
124.723722478604
 30
0.0
 40
1.50000905003373
 50
124.595802215213
 51
187.78540319404
  0
ARC
  5
   63E
  8
0
  6
CONTINUOUS
 62
     7
 10
-64.2064344760812
 20
131.536420628946
 30
0.0
 40
2.00003226280672
 50
315.915496216315
 51
442.785380222003
  0
ARC
  5
   63F
  8
0
  6
CONTINUOUS
 62
     7
 10
-70.9191720032663
 20
195.948055706587
 30
0.0
 40
0.200005546837953
 50
300.000456168237
 51
431.578173582236
  0
CIRCLE
  5
   640
  8
0
  6
CONTINUOUS
 62
     7
 10
-71.6470990768687
 20
194.978258456025
 30
0.0
 40
0.750088075069682
  0
CIRCLE
  5
   641
  8
0
  6
CONTINUOUS
 62
     7
 10
-71.647061982208
 20
194.97831148751
 30
0.0
 40
0.62502968750119
  0
ARC
  5
   642
  8
0
  6
CONTINUOUS
 62
     7
 10
-71.8809980706428
 20
195.873263700185
 30
0.0
 40
7.49956288275005E-2
 50
370.000193067405
 51
464.649841042817
  0
ARC
  5
   643
  8
0
  6
CONTINUOUS
 62
     7
 10
-72.5377243345223
 20
195.22795365981
 30
0.0
 40
7.50076029646313E-2
 50
164.343979667931
 51
255.002731944714
  0
ARC
  5
   644
  8
0
  6
CONTINUOUS
 62
     7
 10
-71.6470380550808
 20
194.978332905803
 30
0.0
 40
1.41250839669382
 50
415.158634283667
 51
666.892150426925
  0
ARC
  5
   645
  8
0
  6
CONTINUOUS
 62
     7
 10
-72.5377398140557
 20
194.72873381836
 30
0.0
 40
7.49902241730112E-2
 50
104.999615639366
 51
195.654765066508
  0
ARC
  5
   646
  8
0
  6
CONTINUOUS
 62
     7
 10
-71.8810074473992
 20
194.083412080573
 30
0.0
 40
7.50055024942994E-2
 50
255.34951846025
 51
350.000214707327
  0
ARC
  5
   647
  8
0
  6
CONTINUOUS
 62
     7
 10
-70.919163947687
 20
194.008617410456
 30
0.0
 40
0.199997871564071
 50
306.892106614663
 51
419.999669105549
  0
ARC
  5
   648
  8
0
  6
CONTINUOUS
 62
     7
 10
-71.6470184326172
 20
194.978313854648
 30
0.0
 40
2.0000352437092
 50
438.915454165864
 51
618.913680972796
  0
ARC
  5
   649
  8
0
  6
CONTINUOUS
 62
     7
 10
-69.2451484098973
 20
192.979229242887
 30
0.0
 40
0.500015707468923
 50
258.914586729548
 51
320.229993540726
  0
ARC
  5
   64A
  8
0
  6
CONTINUOUS
 62
     7
 10
-71.64718842514
 20
194.978404150988
 30
0.0
 40
3.62515555426103
 50
320.229993540726
 51
358.914555886878
  0
ARC
  5
   64B
  8
0
  6
CONTINUOUS
 62
     7
 10
-70.1369529040341
 20
197.484754970918
 30
0.0
 40
0.749996804840081
 50
258.914452267196
 51
348.915565399083
  0
ARC
  5
   64C
  8
0
  6
CONTINUOUS
 62
     7
 10
-67.6545156697627
 20
193.941330426114
 30
0.0
 40
0.500005683165443
 50
165.4395110333
 51
258.914705929299
  0
ARC
  5
   64D
  8
0
  6
CONTINUOUS
 62
     7
 10
-66.7760957616003
 20
193.769204415286
 30
0.0
 40
0.499973051491461
 50
258.914705929299
 51
354.654346730976
  0
ARC
  5
   64E
  8
0
  6
CONTINUOUS
 62
     7
 10
-64.2870105099634
 20
193.536298441258
 30
0.0
 40
1.99997477491169
 50
110.045404574869
 51
174.654346730975
  0
ARC
  5
   64F
  8
0
  6
CONTINUOUS
 62
     7
 10
-65.1439261035911
 20
195.884862163039
 30
0.0
 40
0.500032981388342
 50
290.04540457487
 51
385.784495466471
  0
ARC
  5
   650
  8
0
  6
CONTINUOUS
 62
     7
 10
-64.2870105099634
 20
193.536298441258
 30
0.0
 40
1.99997477491169
 50
258.914638970051
 51
385.784493876919
  0
ARC
  5
   651
  8
0
  6
CONTINUOUS
 62
     7
 10
-64.2869569927704
 20
193.536260214079
 30
0.0
 40
1.00004223623663
 50
104.651492469975
 51
164.34149801801
  0
CIRCLE
  5
   652
  8
0
  6
CONTINUOUS
 62
     7
 10
-64.2869713574997
 20
193.536356160736
 30
0.0
 40
0.749949513772966
  0
CIRCLE
  5
   653
  8
0
  6
CONTINUOUS
 62
     7
 10
-64.2869826014252
 20
193.536323285372
 30
0.0
 40
0.624978357388308
  0
ARC
  5
   654
  8
0
  6
CONTINUOUS
 62
     7
 10
-63.559102048697
 20
194.506015825587
 30
0.0
 40
0.199999497205595
 50
300.000456168236
 51
413.108349330755
  0
ARC
  5
   655
  8
0
  6
CONTINUOUS
 62
     7
 10
-64.5209367067575
 20
194.431224069981
 30
0.0
 40
7.49958967312688E-2
 50
370.000771080632
 51
464.651492469977
  0
ARC
  5
   656
  8
0
  6
CONTINUOUS
 62
     7
 10
-65.1776502593653
 20
193.785926862
 30
0.0
 40
7.50157277935369E-2
 50
164.341498018006
 51
255.000384256702
  0
ARC
  5
   657
  8
0
  6
CONTINUOUS
 62
     7
 10
-65.1776677801568
 20
193.286688633915
 30
0.0
 40
7.49984019386955E-2
 50
104.999615639368
 51
195.652538968768
  0
ARC
  5
   658
  8
0
  6
CONTINUOUS
 62
     7
 10
-64.5209459690918
 20
192.641372676495
 30
0.0
 40
7.50056499063673E-2
 50
255.346756600072
 51
349.999636694068
  0
ARC
  5
   659
  8
0
  6
CONTINUOUS
 62
     7
 10
-63.559100357139
 20
192.566577912266
 30
0.0
 40
0.199997855970618
 50
306.890968745396
 51
420.000051611382
  0
ARC
  5
   65A
  8
0
  6
CONTINUOUS
 62
     7
 10
-64.2869839266965
 20
193.536346127273
 30
0.0
 40
1.41254456951418
 50
413.106300431844
 51
666.891107158561
  0
ARC
  5
   65B
  8
0
  6
CONTINUOUS
 62
     7
 10
-64.2869569927704
 20
193.536260214079
 30
0.0
 40
1.00004223623663
 50
195.652538968769
 51
255.346756600074
  0
ARC
  5
   65C
  8
0
  6
CONTINUOUS
 62
     7
 10
-69.5461075517265
 20
200.500365090683
 30
0.0
 40
0.749992337725081
 50
348.914611502425
 51
397.104148232325
  0
ARC
  5
   65D
  8
0
  6
CONTINUOUS
 62
     7
 10
-67.7516369668479
 20
201.857716780763
 30
0.0
 40
1.50001555961044
 50
385.784493876919
 51
438.915024399353
  0
ARC
  5
   65E
  8
0
  6
CONTINUOUS
 62
     7
 10
-68.3124139085196
 20
202.98661675964
 30
0.0
 40
0.499969430311921
 50
438.915024399353
 51
513.914432215881
  0
ARC
  5
   65F
  8
0
  6
CONTINUOUS
 62
     7
 10
-67.1067791668057
 20
199.94809235083
 30
0.0
 40
0.500010834252806
 50
385.784495466471
 51
528.914615691644
  0
ARC
  5
   660
  8
0
  6
CONTINUOUS
 62
     7
 10
-68.4465168926266
 20
198.936789871155
 30
0.0
 40
0.500036127340476
 50
358.914555886879
 51
438.914825491493
  0
ARC
  5
   661
  8
0
  6
CONTINUOUS
 62
     7
 10
-67.7516369668479
 20
201.857716780763
 30
0.0
 40
1.50001555961044
 50
153.914432215882
 51
217.104148232325
  0
ARC
  5
   662
  8
0
  6
DOT
 62
     7
 10
-87.8587382526979
 20
127.915798388559
 30
0.0
 40
3.12502136322927
 50
333.61238758824
 51
383.578049024604
  0
ARC
  5
   663
  8
0
  6
DOT
 62
     7
 10
-84.8353702263679
 20
126.415800121747
 30
0.0
 40
0.249999194934912
 50
153.61238758824
 51
269.999999948034
  0
ARC
  5
   664
  8
0
  6
DOT
 62
     7
 10
-87.8587252106356
 20
127.915803610089
 30
0.0
 40
2.37500995692732
 50
315.09937820352
 51
359.999999948034
  0
ARC
  5
   665
  8
0
  6
DOT
 62
     7
 10
-85.7337148386733
 20
127.915801821842
 30
0.0
 40
0.249998961263034
 50
359.999813955908
 51
450.000212216809
  0
ARC
  5
   666
  8
0
  6
CONTINUOUS
 62
     7
 10
-73.1266796951366
 20
205.165824371384
 30
0.0
 40
3.12502668617424
 50
333.612391066367
 51
383.577961477224
  0
ARC
  5
   667
  8
0
  6
CONTINUOUS
 62
     7
 10
-73.1267100476196
 20
205.165836142633
 30
0.0
 40
2.37505826872054
 50
315.100366921352
 51
359.999999948034
  0
ARC
  5
   668
  8
0
  6
CONTINUOUS
 62
     7
 10
-71.0016604002443
 20
205.16581909508
 30
0.0
 40
0.250008671343176
 50
359.998464058805
 51
449.998390640638
  0
ARC
  5
   669
  8
0
  6
CONTINUOUS
 62
     7
 10
-70.1033072777868
 20
203.665824154743
 30
0.0
 40
0.249999568047851
 50
153.612391066368
 51
269.999999948034
  0
ARC
  5
   66A
  8
0
  6
CONTINUOUS
 62
     7
 10
-70.8766351985043
 20
201.165806865783
 30
0.0
 40
0.249978918711994
 50
269.996351272176
 51
360.001213434459
  0
ARC
  5
   66B
  8
0
  6
CONTINUOUS
 62
     7
 10
-70.8766188055554
 20
202.165859771104
 30
0.0
 40
0.249964000357179
 50
359.999999948034
 51
449.999999948034
  0
ARC
  5
   66C
  8
0
  6
CONTINUOUS
 62
     7
 10
-71.6470552059455
 20
194.978335386023
 30
0.0
 40
0.999993181879694
 50
104.649841042816
 51
164.343979667932
  0
ARC
  5
   66D
  8
0
  6
CONTINUOUS
 62
     7
 10
-71.6470552059455
 20
194.978335386023
 30
0.0
 40
0.999993181879694
 50
195.654765066503
 51
255.34951846025
  0
LINE
  5
   66E
  8
0
  6
DASHDOT
 62
     7
 10
-71.6470184326172
 20
192.228278610939
 30
0.0
 11
-71.6470184326172
 21
197.728349098357
 31
0.0
  0
LINE
  5
   66F
  8
0
  6
DASHDOT
 62
     7
 10
-68.896983188908
 20
194.978313854648
 30
0.0
 11
-74.3970536763264
 21
194.978313854648
 31
0.0
  0
LINE
  5
   670
  8
0
  6
DASHDOT
 62
     7
 10
-64.2870105099634
 20
190.786323666347
 30
0.0
 11
-64.2870105099634
 21
196.28627321617
 31
0.0
  0
LINE
  5
   671
  8
0
  6
DASHDOT
 62
     7
 10
-61.5370357350517
 20
193.536298441258
 30
0.0
 11
-67.0369852848751
 21
193.536298441258
 31
0.0
  0
LINE
  5
   672
  8
0
  6
DASHDOT
 62
     7
 10
-64.2064344760812
 20
128.78638836614
 30
0.0
 11
-64.2064344760812
 21
134.286452891753
 31
0.0
  0
LINE
  5
   673
  8
0
  6
DASHDOT
 62
     7
 10
-61.4564022132745
 20
131.536420628946
 30
0.0
 11
-66.9564667388879
 21
131.536420628946
 31
0.0
  0
LINE
  5
   674
  8
0
  6
CONTINUOUS
 62
     7
 10
-72.5220184326172
 20
184.978313854648
 30
0.0
 11
-72.5220184326172
 21
185.978313854648
 31
0.0
  0
LINE
  5
   675
  8
0
  6
CONTINUOUS
 62
     7
 10
-72.6470184326172
 20
220.853313854648
 30
0.0
 11
-73.8970184326172
 21
220.853313854648
 31
0.0
  0
LINE
  5
   676
  8
0
  6
CONTINUOUS
 62
     7
 10
-72.6470184326172
 20
219.603313854648
 30
0.0
 11
-73.8970184326172
 21
219.603313854648
 31
0.0
  0
LINE
  5
   677
  8
0
  6
CONTINUOUS
 62
     7
 10
-72.6470184326172
 20
184.853313854648
 30
0.0
 11
-72.6470184326172
 21
186.103313854648
 31
0.0
  0
LINE
  5
   678
  8
0
  6
CONTINUOUS
 62
     7
 10
-72.5220184326172
 20
220.728313854648
 30
0.0
 11
-73.8970184326172
 21
220.728313854648
 31
0.0
  0
LINE
  5
   679
  8
0
  6
CONTINUOUS
 62
     7
 10
-72.5220184326172
 20
219.728313854648
 30
0.0
 11
-73.8970184326172
 21
219.728313854648
 31
0.0
  0
LINE
  5
   67A
  8
0
  6
CONTINUOUS
 62
     7
 10
-72.6470184326172
 20
186.103313854648
 30
0.0
 11
-73.8970184326172
 21
186.103313854648
 31
0.0
  0
LINE
  5
   67B
  8
0
  6
CONTINUOUS
 62
     7
 10
-72.6470184326172
 20
184.853313854648
 30
0.0
 11
-73.8970184326172
 21
184.853313854648
 31
0.0
  0
LINE
  5
   67C
  8
0
  6
CONTINUOUS
 62
     7
 10
-72.5220184326172
 20
185.978313854648
 30
0.0
 11
-73.8970184326172
 21
185.978313854648
 31
0.0
  0
LINE
  5
   67D
  8
0
  6
CONTINUOUS
 62
     7
 10
-72.5220184326172
 20
184.978313854648
 30
0.0
 11
-73.8970184326172
 21
184.978313854648
 31
0.0
  0
LINE
  5
   67E
  8
0
  6
CONTINUOUS
 62
     7
 10
-72.5220184326172
 20
219.728313854648
 30
0.0
 11
-72.5220184326172
 21
220.728313854648
 31
0.0
  0
LINE
  5
   67F
  8
0
  6
CONTINUOUS
 62
     7
 10
-72.6470184326172
 20
219.603313854648
 30
0.0
 11
-72.6470184326172
 21
220.853313854648
 31
0.0
  0
LINE
  5
   680
  8
0
  6
CONTINUOUS
 62
     7
 10
-72.5220184326172
 20
185.978313854648
 30
0.0
 11
-72.6470184326172
 21
186.103313854648
 31
0.0
  0
LINE
  5
   681
  8
0
  6
CONTINUOUS
 62
     7
 10
-72.6470184326172
 20
184.853313854648
 30
0.0
 11
-72.5220184326172
 21
184.978313854648
 31
0.0
  0
LINE
  5
   682
  8
0
  6
CONTINUOUS
 62
     7
 10
-72.5220184326172
 20
220.728313854648
 30
0.0
 11
-72.6470184326172
 21
220.853313854648
 31
0.0
  0
LINE
  5
   683
  8
0
  6
CONTINUOUS
 62
     7
 10
-72.6470184326172
 20
219.603313854648
 30
0.0
 11
-72.5220184326172
 21
219.728313854648
 31
0.0
  0
LINE
  5
   684
  8
0
  6
CONTINUOUS
 62
     7
 10
-72.5220184326172
 20
112.478313854648
 30
0.0
 11
-72.5220184326172
 21
113.228313854648
 31
0.0
  0
LINE
  5
   685
  8
0
  6
CONTINUOUS
 62
     7
 10
-73.7720184326172
 20
111.890813854648
 30
0.0
 11
-73.7720184326172
 21
113.815813854648
 31
0.0
  0
LINE
  5
   686
  8
0
  6
CONTINUOUS
 62
     7
 10
-72.9720184326172
 20
111.890813854648
 30
0.0
 11
-72.9720184326172
 21
113.815813854648
 31
0.0
  0
LINE
  5
   687
  8
0
  6
CONTINUOUS
 62
     7
 10
-72.9720184326172
 20
113.815813854648
 30
0.0
 11
-73.8970184326172
 21
113.815813854648
 31
0.0
  0
LINE
  5
   688
  8
0
  6
CONTINUOUS
 62
     7
 10
-72.9720184326172
 20
111.890813854648
 30
0.0
 11
-73.8970184326172
 21
111.890813854648
 31
0.0
  0
LINE
  5
   689
  8
0
  6
CONTINUOUS
 62
     7
 10
-72.6470184326172
 20
113.353313854648
 30
0.0
 11
-72.9720184326172
 21
113.353313854648
 31
0.0
  0
LINE
  5
   68A
  8
0
  6
CONTINUOUS
 62
     7
 10
-72.6470184326172
 20
112.353313854648
 30
0.0
 11
-72.9720184326172
 21
112.353313854648
 31
0.0
  0
LINE
  5
   68B
  8
0
  6
CONTINUOUS
 62
     7
 10
-72.6470184326172
 20
112.353313854648
 30
0.0
 11
-72.6470184326172
 21
113.353313854648
 31
0.0
  0
LINE
  5
   68C
  8
0
  6
CONTINUOUS
 62
     7
 10
-72.6470184326172
 20
112.353313854648
 30
0.0
 11
-72.5220184326172
 21
112.478313854648
 31
0.0
  0
LINE
  5
   68D
  8
0
  6
CONTINUOUS
 62
     7
 10
-72.5220184326172
 20
113.228313854648
 30
0.0
 11
-72.6470184326172
 21
113.353313854648
 31
0.0
  0
LINE
  5
   68E
  8
0
  6
CONTINUOUS
 62
     7
 10
-72.6470184326172
 20
113.253313854648
 30
0.0
 11
-73.7720184326172
 21
113.253313854648
 31
0.0
  0
LINE
  5
   68F
  8
0
  6
CONTINUOUS
 62
     7
 10
-72.6470184326172
 20
112.453313854648
 30
0.0
 11
-73.7720184326172
 21
112.453313854648
 31
0.0
  0
LINE
  5
   690
  8
0
  6
CONTINUOUS
 62
     7
 10
-72.5220184326172
 20
137.478313854648
 30
0.0
 11
-72.5220184326172
 21
138.228313854648
 31
0.0
  0
LINE
  5
   691
  8
0
  6
CONTINUOUS
 62
     7
 10
-73.7720184326172
 20
136.890813854648
 30
0.0
 11
-73.7720184326172
 21
138.815813854648
 31
0.0
  0
LINE
  5
   692
  8
0
  6
CONTINUOUS
 62
     7
 10
-72.9720184326172
 20
136.890813854648
 30
0.0
 11
-72.9720184326172
 21
138.815813854648
 31
0.0
  0
LINE
  5
   693
  8
0
  6
CONTINUOUS
 62
     7
 10
-72.9720184326172
 20
138.815813854648
 30
0.0
 11
-73.8970184326172
 21
138.815813854648
 31
0.0
  0
LINE
  5
   694
  8
0
  6
CONTINUOUS
 62
     7
 10
-72.9720184326172
 20
136.890813854648
 30
0.0
 11
-73.8970184326172
 21
136.890813854648
 31
0.0
  0
LINE
  5
   695
  8
0
  6
CONTINUOUS
 62
     7
 10
-72.6470184326172
 20
138.353313854648
 30
0.0
 11
-72.9720184326172
 21
138.353313854648
 31
0.0
  0
LINE
  5
   696
  8
0
  6
CONTINUOUS
 62
     7
 10
-72.6470184326172
 20
137.353313854648
 30
0.0
 11
-72.9720184326172
 21
137.353313854648
 31
0.0
  0
LINE
  5
   697
  8
0
  6
CONTINUOUS
 62
     7
 10
-72.6470184326172
 20
137.353313854648
 30
0.0
 11
-72.6470184326172
 21
138.353313854648
 31
0.0
  0
LINE
  5
   698
  8
0
  6
CONTINUOUS
 62
     7
 10
-72.6470184326172
 20
137.353313854648
 30
0.0
 11
-72.5220184326172
 21
137.478313854648
 31
0.0
  0
LINE
  5
   699
  8
0
  6
CONTINUOUS
 62
     7
 10
-72.5220184326172
 20
138.228313854648
 30
0.0
 11
-72.6470184326172
 21
138.353313854648
 31
0.0
  0
LINE
  5
   69A
  8
0
  6
CONTINUOUS
 62
     7
 10
-72.6470184326172
 20
138.253313854648
 30
0.0
 11
-73.7720184326172
 21
138.253313854648
 31
0.0
  0
LINE
  5
   69B
  8
0
  6
CONTINUOUS
 62
     7
 10
-72.6470184326172
 20
137.453313854648
 30
0.0
 11
-73.7720184326172
 21
137.453313854648
 31
0.0
  0
LINE
  5
   69C
  8
0
  6
CONTINUOUS
 62
     7
 10
-74.6470459270099
 20
204.353324200873
 30
0.0
 11
-75.0220497417072
 21
204.353324200873
 31
0.0
  0
LINE
  5
   69D
  8
0
  6
CONTINUOUS
 62
     7
 10
-74.6470459270099
 20
201.496680524115
 30
0.0
 11
-75.0220497417072
 21
201.496680524115
 31
0.0
  0
LINE
  5
   69E
  8
0
  6
DOT
 62
     7
 10
-75.0220497417072
 20
201.496680524115
 30
0.0
 11
-84.7516511248135
 21
201.496680524115
 31
0.0
  0
LINE
  5
   69F
  8
0
  6
DOT
 62
     7
 10
-75.0220497417072
 20
204.353324200873
 30
0.0
 11
-84.7516511248135
 21
204.353324200873
 31
0.0
  0
LINE
  5
   6A0
  8
0
  6
CONTINUOUS
 62
     7
 10
-67.0370113276085
 20
133.91069983415
 30
0.0
 11
-67.0370113276085
 21
192.037071774706
 31
0.0
  0
LINE
  5
   6A1
  8
0
  6
CONTINUOUS
 62
     7
 10
-63.1620113276085
 20
126.911298346424
 30
0.0
 11
-65.4120113276085
 21
126.911298346424
 31
0.0
  0
LINE
  5
   6A2
  8
0
  6
CONTINUOUS
 62
     7
 10
-61.5370113276118
 20
128.536298346424
 30
0.0
 11
-61.5370113276118
 21
195.536298346424
 31
0.0
  0
LINE
  5
   6A3
  8
0
  6
CONTINUOUS
 62
     7
 10
-63.1620113276085
 20
197.161298346427
 30
0.0
 11
-63.8170239950615
 21
197.161298346427
 31
0.0
  0
LINE
  5
   6A4
  8
0
  6
CONTINUOUS
 62
     7
 10
-64.7870113276085
 20
172.286298346424
 30
0.0
 11
-64.7870113276085
 21
189.786298346424
 31
0.0
  0
LINE
  5
   6A5
  8
0
  6
CONTINUOUS
 62
     7
 10
-64.7870113276085
 20
189.786298346424
 30
0.0
 11
-66.0370113276085
 21
189.786298346424
 31
0.0
  0
LINE
  5
   6A6
  8
0
  6
CONTINUOUS
 62
     7
 10
-66.0370113276085
 20
172.286298346424
 30
0.0
 11
-66.0370113276085
 21
189.786298346424
 31
0.0
  0
LINE
  5
   6A7
  8
0
  6
CONTINUOUS
 62
     7
 10
-64.7870113276085
 20
172.286298346424
 30
0.0
 11
-66.0370113276085
 21
172.286298346424
 31
0.0
  0
LINE
  5
   6A8
  8
0
  6
CONTINUOUS
 62
     7
 10
-62.5370113276085
 20
172.286298346424
 30
0.0
 11
-62.5370113276085
 21
189.786298346424
 31
0.0
  0
LINE
  5
   6A9
  8
0
  6
CONTINUOUS
 62
     7
 10
-62.5370113276085
 20
189.786298346424
 30
0.0
 11
-63.7870113276085
 21
189.786298346424
 31
0.0
  0
LINE
  5
   6AA
  8
0
  6
CONTINUOUS
 62
     7
 10
-63.7870113276085
 20
172.286298346424
 30
0.0
 11
-63.7870113276085
 21
189.786298346424
 31
0.0
  0
LINE
  5
   6AB
  8
0
  6
CONTINUOUS
 62
     7
 10
-62.5370113276085
 20
172.286298346424
 30
0.0
 11
-63.7870113276085
 21
172.286298346424
 31
0.0
  0
LINE
  5
   6AC
  8
0
  6
CONTINUOUS
 62
     7
 10
-64.7870113276085
 20
153.786298346424
 30
0.0
 11
-64.7870113276085
 21
171.286298346424
 31
0.0
  0
LINE
  5
   6AD
  8
0
  6
CONTINUOUS
 62
     7
 10
-64.7870113276085
 20
171.286298346424
 30
0.0
 11
-66.0370113276085
 21
171.286298346424
 31
0.0
  0
LINE
  5
   6AE
  8
0
  6
CONTINUOUS
 62
     7
 10
-66.0370113276085
 20
153.786298346424
 30
0.0
 11
-66.0370113276085
 21
171.286298346424
 31
0.0
  0
LINE
  5
   6AF
  8
0
  6
CONTINUOUS
 62
     7
 10
-64.7870113276085
 20
153.786298346424
 30
0.0
 11
-66.0370113276085
 21
153.786298346424
 31
0.0
  0
LINE
  5
   6B0
  8
0
  6
CONTINUOUS
 62
     7
 10
-62.5370113276085
 20
153.786298346424
 30
0.0
 11
-62.5370113276085
 21
171.286298346424
 31
0.0
  0
LINE
  5
   6B1
  8
0
  6
CONTINUOUS
 62
     7
 10
-62.5370113276085
 20
171.286298346424
 30
0.0
 11
-63.7870113276085
 21
171.286298346424
 31
0.0
  0
LINE
  5
   6B2
  8
0
  6
CONTINUOUS
 62
     7
 10
-63.7870113276085
 20
153.786298346424
 30
0.0
 11
-63.7870113276085
 21
171.286298346424
 31
0.0
  0
LINE
  5
   6B3
  8
0
  6
CONTINUOUS
 62
     7
 10
-62.5370113276085
 20
153.786298346424
 30
0.0
 11
-63.7870113276085
 21
153.786298346424
 31
0.0
  0
LINE
  5
   6B4
  8
0
  6
CONTINUOUS
 62
     7
 10
-62.5370113276085
 20
135.286298346424
 30
0.0
 11
-63.7870113276085
 21
135.286298346424
 31
0.0
  0
LINE
  5
   6B5
  8
0
  6
CONTINUOUS
 62
     7
 10
-62.5370113276085
 20
135.286298346424
 30
0.0
 11
-62.5370113276085
 21
152.786298346424
 31
0.0
  0
LINE
  5
   6B6
  8
0
  6
CONTINUOUS
 62
     7
 10
-62.5370113276085
 20
152.786298346424
 30
0.0
 11
-63.7870113276085
 21
152.786298346424
 31
0.0
  0
LINE
  5
   6B7
  8
0
  6
CONTINUOUS
 62
     7
 10
-63.7870113276085
 20
135.286298346424
 30
0.0
 11
-63.7870113276085
 21
152.786298346424
 31
0.0
  0
LINE
  5
   6B8
  8
0
  6
CONTINUOUS
 62
     7
 10
-64.7870113276085
 20
135.036298346424
 30
0.0
 11
-64.7870113276085
 21
152.786298346424
 31
0.0
  0
LINE
  5
   6B9
  8
0
  6
CONTINUOUS
 62
     7
 10
-64.7870113276085
 20
152.786298346424
 30
0.0
 11
-66.0370113276085
 21
152.786298346424
 31
0.0
  0
LINE
  5
   6BA
  8
0
  6
CONTINUOUS
 62
     7
 10
-66.0370113276085
 20
135.036298346424
 30
0.0
 11
-66.0370113276085
 21
152.786298346424
 31
0.0
  0
LINE
  5
   6BB
  8
0
  6
CONTINUOUS
 62
     7
 10
-64.7870113276085
 20
135.036298346424
 30
0.0
 11
-66.0370113276085
 21
135.036298346424
 31
0.0
  0
LINE
  5
   6BC
  8
0
  6
CONTINUOUS
 62
     7
 10
-62.0370113276085
 20
131.661298346424
 30
0.0
 11
-62.2103045684987
 21
131.661298346424
 31
0.0
  0
LINE
  5
   6BD
  8
0
  6
CONTINUOUS
 62
     7
 10
-62.0370113276085
 20
130.411298346424
 30
0.0
 11
-62.5528840832476
 21
130.411298346424
 31
0.0
  0
LINE
  5
   6BE
  8
0
  6
CONTINUOUS
 62
     7
 10
-62.0370113276085
 20
194.161298346424
 30
0.0
 11
-62.38720151461
 21
194.161298346424
 31
0.0
  0
LINE
  5
   6BF
  8
0
  6
CONTINUOUS
 62
     7
 10
-62.0370113276085
 20
192.911298346424
 30
0.0
 11
-62.3872015770072
 21
192.911298346424
 31
0.0
  0
ARC
  5
   6C0
  8
0
  6
CONTINUOUS
 62
     7
 10
-65.4120107533176
 20
133.286301944803
 30
0.0
 40
0.750000389249079
 50
386.415883893663
 51
499.154876550343
  0
ARC
  5
   6C1
  8
0
  6
CONTINUOUS
 62
     7
 10
-63.1620145754944
 20
133.536295908637
 30
0.0
 40
0.749997284630743
 50
303.192639285909
 51
539.999999948034
  0
CIRCLE
  5
   6C2
  8
0
  6
CONTINUOUS
 62
     7
 10
-63.1620132946836
 20
128.536296267706
 30
0.0
 40
0.749998195827733
  0
ARC
  5
   6C3
  8
0
  6
CONTINUOUS
 62
     7
 10
-65.4120177122195
 20
128.536302305232
 30
0.0
 40
1.62499837084063
 50
254.551831626826
 51
270.000226575994
  0
ARC
  5
   6C4
  8
0
  6
CONTINUOUS
 62
     7
 10
-63.1619837188008
 20
128.536281972501
 30
0.0
 40
1.62496782273609
 50
269.999023065023
 51
360.000793748429
  0
ARC
  5
   6C5
  8
0
  6
CONTINUOUS
 62
     7
 10
-62.0369796500251
 20
129.911340801756
 30
0.0
 40
0.499952603548109
 50
359.995335296763
 51
450.003501511366
  0
ARC
  5
   6C6
  8
0
  6
CONTINUOUS
 62
     7
 10
-62.0370345734775
 20
132.161326459209
 30
0.0
 40
0.50003296622079
 50
270.002529328162
 51
359.996972758398
  0
ARC
  5
   6C7
  8
0
  6
CONTINUOUS
 62
     7
 10
-63.1620112009971
 20
195.536298449678
 30
0.0
 40
1.62499984923088
 50
359.99999454028
 51
450.000006179351
  0
ARC
  5
   6C8
  8
0
  6
CONTINUOUS
 62
     7
 10
-63.1620106551865
 20
195.536298612007
 30
0.0
 40
0.75000067202368
 50
304.763654642858
 51
466.80533311098
  0
ARC
  5
   6C9
  8
0
  6
CONTINUOUS
 62
     7
 10
-62.0370115695871
 20
192.411297743949
 30
0.0
 40
0.500000536134302
 50
360.000082966994
 51
449.99997196921
  0
ARC
  5
   6CA
  8
0
  6
CONTINUOUS
 62
     7
 10
-62.0370119252555
 20
194.661299456028
 30
0.0
 40
0.500000990828685
 50
270.000074103479
 51
359.999880264456
  0
ARC
  5
   6CB
  8
0
  6
CONTINUOUS
 62
     7
 10
-63.1620116812971
 20
191.53629968938
 30
0.0
 40
0.74999873218463
 50
177.274948798823
 51
421.440537758342
  0
ARC
  5
   6CC
  8
0
  6
CONTINUOUS
 62
     7
 10
-65.4120104950876
 20
191.536299286118
 30
0.0
 40
0.749999124779091
 50
155.1077025543
 51
362.721575385804
  0
LINE
  5
   6CD
  8
0
  6
DASHDOT
 62
     7
 10
-65.4120104950876
 20
190.036300161339
 30
0.0
 11
-65.4120104950876
 21
193.036298410897
 31
0.0
  0
LINE
  5
   6CE
  8
0
  6
DASHDOT
 62
     7
 10
-63.9120113703085
 20
191.536299286118
 30
0.0
 11
-66.1411095937509
 21
191.536299286118
 31
0.0
  0
LINE
  5
   6CF
  8
0
  6
DASHDOT
 62
     7
 10
-64.2870105099634
 20
195.235733655449
 30
0.0
 11
-64.2870105099634
 21
197.913679561597
 31
0.0
  0
LINE
  5
   6D0
  8
0
  6
DASHDOT
 62
     7
 10
-63.1620106551865
 20
194.036297939983
 30
0.0
 11
-63.1620106551865
 21
197.03629928403
 31
0.0
  0
LINE
  5
   6D1
  8
0
  6
DASHDOT
 62
     7
 10
-61.6620099831628
 20
195.536298612007
 30
0.0
 11
-64.6620113272102
 21
195.536298612007
 31
0.0
  0
LINE
  5
   6D2
  8
0
  6
DASHDOT
 62
     7
 10
-63.1620116812971
 20
190.036300957196
 30
0.0
 11
-63.1620116812971
 21
193.036298421565
 31
0.0
  0
LINE
  5
   6D3
  8
0
  6
DASHDOT
 62
     7
 10
-62.3133521638333
 20
191.53629968938
 30
0.0
 11
-64.6620104134817
 21
191.53629968938
 31
0.0
  0
LINE
  5
   6D4
  8
0
  6
DASHDOT
 62
     7
 10
-63.1620145754944
 20
132.036298624006
 30
0.0
 11
-63.1620145754944
 21
135.036293193268
 31
0.0
  0
LINE
  5
   6D5
  8
0
  6
DASHDOT
 62
     7
 10
-61.6620172908636
 20
133.536295908637
 30
0.0
 11
-64.275812445995
 21
133.536295908637
 31
0.0
  0
LINE
  5
   6D6
  8
0
  6
DASHDOT
 62
     7
 10
-65.4120107533176
 20
131.786301555554
 30
0.0
 11
-65.4120107533176
 21
134.786302334052
 31
0.0
  0
LINE
  5
   6D7
  8
0
  6
DASHDOT
 62
     7
 10
-64.2887439089905
 20
133.286301944803
 30
0.0
 11
-66.9120111425667
 21
133.286301944803
 31
0.0
  0
LINE
  5
   6D8
  8
0
  6
DASHDOT
 62
     7
 10
-63.1620132946836
 20
127.036298071879
 30
0.0
 11
-63.1620132946836
 21
130.036294463534
 31
0.0
  0
LINE
  5
   6D9
  8
0
  6
DASHDOT
 62
     7
 10
-61.6620150988559
 20
128.536296267706
 30
0.0
 11
-64.2855110432416
 21
128.536296267706
 31
0.0
  0
LINE
  5
   6DA
  8
0
  6
DOT
 62
     7
 10
-58.3970184326172
 20
86.2729447712251
 30
0.0
 11
-58.3970184326172
 21
242.005731092424
 31
0.0
  0
LINE
  5
   6DB
  8
0
  6
DOT
 62
     7
 10
-57.6470184326172
 20
86.2729447712251
 30
0.0
 11
-57.6470184326172
 21
242.005731092424
 31
0.0
  0
LINE
  5
   6DC
  8
0
  6
CONTINUOUS
 62
     7
 10
-55.2633222211518
 20
242.005731092424
 30
0.0
 11
-60.063621503133
 21
242.005731092424
 31
0.0
  0
LINE
  5
   6DD
  8
0
  6
CONTINUOUS
 62
     7
 10
-55.1510423284398
 20
86.2729447712251
 30
0.0
 11
-61.5444051224591
 21
86.2729447712251
 31
0.0
  0
LINE
  5
   6DE
  8
0
  6
DASHDOT
 62
     7
 10
-51.3706494831427
 20
207.853313854648
 30
0.0
 11
-65.4918714886729
 21
207.853313854648
 31
0.0
  0
LINE
  5
   6DF
  8
0
  6
CONTINUOUS
 62
     7
 10
-58.3970184326172
 20
214.728313854648
 30
0.0
 11
-63.8970184326172
 21
214.728313854648
 31
0.0
  0
LINE
  5
   6E0
  8
0
  6
CONTINUOUS
 62
     7
 10
-58.3970184326172
 20
113.478313854648
 30
0.0
 11
-63.8970184326172
 21
113.478313854648
 31
0.0
  0
ARC
  5
   6E1
  8
0
  6
CONTINUOUS
 62
     7
 10
-63.8970184326172
 20
112.728313854648
 30
0.0
 40
0.75
 50
89.9999999480344
 51
179.999999948034
  0
ARC
  5
   6E2
  8
0
  6
CONTINUOUS
 62
     7
 10
-63.8970184326172
 20
215.478313854648
 30
0.0
 40
0.75
 50
179.999999948034
 51
269.999999948034
  0
LINE
  5
   6E3
  8
0
  6
CONTINUOUS
 62
     7
 10
-60.8970184326172
 20
206.853313854648
 30
0.0
 11
-60.8970184326172
 21
208.853313854648
 31
0.0
  0
LINE
  5
   6E4
  8
0
  6
CONTINUOUS
 62
     7
 10
-59.6470184326172
 20
206.728313854648
 30
0.0
 11
-59.6470184326172
 21
208.978313854648
 31
0.0
  0
LINE
  5
   6E5
  8
0
  6
CONTINUOUS
 62
     7
 10
-59.6470184326172
 20
208.978313854648
 30
0.0
 11
-60.7720184326172
 21
208.978313854648
 31
0.0
  0
LINE
  5
   6E6
  8
0
  6
CONTINUOUS
 62
     7
 10
-59.6470184326172
 20
206.728313854648
 30
0.0
 11
-60.7720184326172
 21
206.728313854648
 31
0.0
  0
ARC
  5
   6E7
  8
0
  6
CONTINUOUS
 62
     7
 10
-59.3970184326172
 20
208.978313854648
 30
0.0
 40
0.25
 50
359.999999948034
 51
539.999999948034
  0
ARC
  5
   6E8
  8
0
  6
CONTINUOUS
 62
     7
 10
-59.3970184326172
 20
206.728313854648
 30
0.0
 40
0.25
 50
179.999999948034
 51
359.999999948034
  0
LINE
  5
   6E9
  8
0
  6
CONTINUOUS
 62
     7
 10
-60.8970184326172
 20
208.853313854648
 30
0.0
 11
-60.7720184326172
 21
208.978313854648
 31
0.0
  0
LINE
  5
   6EA
  8
0
  6
CONTINUOUS
 62
     7
 10
-60.7720184326172
 20
206.728313854648
 30
0.0
 11
-60.8970184326172
 21
206.853313854648
 31
0.0
  0
LINE
  5
   6EB
  8
0
  6
CONTINUOUS
 62
     7
 10
-60.7720184326172
 20
206.728313854648
 30
0.0
 11
-60.7720184326172
 21
208.978313854648
 31
0.0
  0
LINE
  5
   6EC
  8
0
  6
DASHDOT
 62
     7
 10
-53.9745297741871
 20
120.353313854648
 30
0.0
 11
-65.4918714886729
 21
120.353313854648
 31
0.0
  0
LINE
  5
   6ED
  8
0
  6
CONTINUOUS
 62
     7
 10
-60.8970184326172
 20
119.353313854648
 30
0.0
 11
-60.8970184326172
 21
121.353313854648
 31
0.0
  0
LINE
  5
   6EE
  8
0
  6
CONTINUOUS
 62
     7
 10
-59.6470184326172
 20
119.228313854648
 30
0.0
 11
-59.6470184326172
 21
121.478313854648
 31
0.0
  0
LINE
  5
   6EF
  8
0
  6
CONTINUOUS
 62
     7
 10
-59.6470184326172
 20
119.228313854648
 30
0.0
 11
-60.7720184326172
 21
119.228313854648
 31
0.0
  0
LINE
  5
   6F0
  8
0
  6
CONTINUOUS
 62
     7
 10
-59.6470184326172
 20
121.478313854648
 30
0.0
 11
-60.7720184326172
 21
121.478313854648
 31
0.0
  0
ARC
  5
   6F1
  8
0
  6
CONTINUOUS
 62
     7
 10
-59.3970184326172
 20
119.228313854648
 30
0.0
 40
0.25
 50
179.999999948034
 51
359.999999948034
  0
ARC
  5
   6F2
  8
0
  6
CONTINUOUS
 62
     7
 10
-59.3970184326172
 20
121.478313854648
 30
0.0
 40
0.25
 50
359.999999948034
 51
539.999999948034
  0
LINE
  5
   6F3
  8
0
  6
CONTINUOUS
 62
     7
 10
-60.7720184326172
 20
119.228313854648
 30
0.0
 11
-60.8970184326172
 21
119.353313854648
 31
0.0
  0
LINE
  5
   6F4
  8
0
  6
CONTINUOUS
 62
     7
 10
-60.8970184326172
 20
121.353313854648
 30
0.0
 11
-60.7720184326172
 21
121.478313854648
 31
0.0
  0
LINE
  5
   6F5
  8
0
  6
CONTINUOUS
 62
     7
 10
-60.7720184326172
 20
119.228313854648
 30
0.0
 11
-60.7720184326172
 21
121.478313854648
 31
0.0
  0
LINE
  5
   6F6
  8
0
  6
CONTINUOUS
 62
     7
 10
-56.3970184326172
 20
121.728313854648
 30
0.0
 11
-57.6470184326172
 21
121.728313854648
 31
0.0
  0
LINE
  5
   6F7
  8
0
  6
CONTINUOUS
 62
     7
 10
-56.3970184326172
 20
118.978313854648
 30
0.0
 11
-57.6470184326172
 21
118.978313854648
 31
0.0
  0
LINE
  5
   6F8
  8
0
  6
CONTINUOUS
 62
     7
 10
-56.3970184326172
 20
120.978313854648
 30
0.0
 11
-57.6470184326172
 21
120.978313854648
 31
0.0
  0
LINE
  5
   6F9
  8
0
  6
CONTINUOUS
 62
     7
 10
-56.3970184326172
 20
119.728313854648
 30
0.0
 11
-57.6470184326172
 21
119.728313854648
 31
0.0
  0
LINE
  5
   6FA
  8
0
  6
CONTINUOUS
 62
     7
 10
-56.3970184326172
 20
118.978313854648
 30
0.0
 11
-56.3970184326172
 21
121.728313854648
 31
0.0
  0
LINE
  5
   6FB
  8
0
  6
CONTINUOUS
 62
     7
 10
-56.3970184326172
 20
209.228313854648
 30
0.0
 11
-57.6470184326172
 21
209.228313854648
 31
0.0
  0
LINE
  5
   6FC
  8
0
  6
CONTINUOUS
 62
     7
 10
-56.3970184326172
 20
208.478313854648
 30
0.0
 11
-57.6470184326172
 21
208.478313854648
 31
0.0
  0
LINE
  5
   6FD
  8
0
  6
CONTINUOUS
 62
     7
 10
-56.3970184326172
 20
207.228313854648
 30
0.0
 11
-57.6470184326172
 21
207.228313854648
 31
0.0
  0
LINE
  5
   6FE
  8
0
  6
CONTINUOUS
 62
     7
 10
-56.3970184326172
 20
206.478313854648
 30
0.0
 11
-57.6470184326172
 21
206.478313854648
 31
0.0
  0
LINE
  5
   6FF
  8
0
  6
CONTINUOUS
 62
     7
 10
-56.3970184326172
 20
206.478313854648
 30
0.0
 11
-56.3970184326172
 21
209.228313854648
 31
0.0
  0
LINE
  5
   700
  8
0
  6
DOT
 62
     7
 10
-138.629617777541
 20
111.665813854648
 30
0.0
 11
-138.629617777541
 21
137.915813854648
 31
0.0
  0
LINE
  5
   701
  8
0
  6
CONTINUOUS
 62
     7
 10
-124.238134024741
 20
111.665813854648
 30
0.0
 11
-131.754617777541
 21
111.665813854648
 31
0.0
  0
LINE
  5
   702
  8
0
  6
CONTINUOUS
 62
     7
 10
-124.238134024741
 20
137.915813854648
 30
0.0
 11
-131.754617777541
 21
137.915813854648
 31
0.0
  0
LINE
  5
   703
  8
0
  6
CONTINUOUS
 62
     7
 10
-149.196250632913
 20
56.162521398442
 30
0.0
 11
-149.196250632913
 21
72.466038359397
 31
0.0
  0
LINE
  5
   704
  8
0
  6
CONTINUOUS
 62
     7
 10
-84.8961064630683
 20
56.162521398442
 30
0.0
 11
-149.196250632913
 21
56.162521398442
 31
0.0
  0
TEXT
  5
   705
  8
0
  6
CONTINUOUS
 62
     7
 10
-141.335112003097
 20
62.0165867997427
 30
0.0
 40
3.00000002980232
  1
ISOLATING DISTANCE
 50
359.999999948034
 41
0.916666604744064
 72
     1
 11
-116.860113414126
 21
63.5165867925687
 31
0.0
 73
     2
  0
TEXT
  5
   706
  8
0
  6
CONTINUOUS
 62
     7
 10
-145.460111940269
 20
58.0165868034632
 30
0.0
 40
3.00000002980232
  1
CORSA DI SEZIONAMENTO
 50
359.999999948034
 41
0.916666604744064
 72
     1
 11
-116.860113588972
 21
59.5165867925687
 31
0.0
 73
     2
  0
INSERT
  5
   707
  8
0
  6
CONTINUOUS
 62
     7
  2
*UDIM221
 10
0.0
 20
0.0
 30
0.0
  0
TEXT
  5
   708
  8
0
  6
CONTINUOUS
 62
     7
 10
-51.6122321201979
 20
162.660496233005
 30
0.0
 40
3.00000002980232
  1
X
 50
359.999999948034
 41
0.916666604744064
 72
     1
 11
-50.5122321844101
 21
164.160496246914
 31
0.0
 73
     2
  0
TEXT
  5
   709
  8
0
  6
CONTINUOUS
 62
     7
 10
-102.752656848591
 20
162.177769182224
 30
0.0
 40
3.00000002980232
  1
X
 50
359.999999948034
 41
0.916666604744064
 72
     1
 11
-101.652656912804
 21
163.677769196133
 31
0.0
 73
     2
  0
TEXT
  5
   70A
  8
0
  6
CONTINUOUS
 62
     7
 10
-141.368713368737
 20
118.805195657295
 30
0.0
 40
3.00000002980232
  1
=  =
 50
89.9999999480344
 41
0.916666604744064
 72
     1
 11
-142.868713378906
 21
124.030195355415
 31
0.0
 73
     2
  0
TEXT
  5
   70B
  8
0
  6
CONTINUOUS
 62
     7
 10
-111.278369893396
 20
197.226353494209
 30
0.0
 40
3.00000002980232
  1
=  =
 50
89.9999999480344
 41
0.916666604744064
 72
     1
 11
-112.778369903564
 21
202.451353192329
 31
0.0
 73
     2
  0
INSERT
  5
   70C
  8
0
  6
CONTINUOUS
 62
     7
  2
*UDIM222
 10
0.0
 20
0.0
 30
0.0
  0
INSERT
  5
   70D
  8
0
  6
CONTINUOUS
 62
     7
  2
*UDIM223
 10
0.0
 20
0.0
 30
0.0
  0
INSERT
  5
   70E
  8
0
  6
CONTINUOUS
 62
     7
  2
*UDIM224
 10
0.0
 20
0.0
 30
0.0
  0
INSERT
  5
   70F
  8
0
  6
CONTINUOUS
 62
     7
  2
*UDIM225
 10
0.0
 20
0.0
 30
0.0
  0
INSERT
  5
   710
  8
0
  6
CONTINUOUS
 62
     7
  2
*UDIM226
 10
0.0
 20
0.0
 30
0.0
  0
LINE
  5
   711
  8
0
  6
CONTINUOUS
 62
     7
 10
74.8027000427246
 20
85.6718534210865
 30
0.0
 11
74.8027000427246
 21
241.508634086684
 31
0.0
  0
LINE
  5
   712
  8
0
  6
CONTINUOUS
 62
     7
 10
119.802700042725
 20
85.6718534210865
 30
0.0
 11
119.802700042725
 21
241.508634086684
 31
0.0
  0
LINE
  5
   713
  8
0
  6
DASHDOT
 62
     7
 10
97.3025930647963
 20
238.315971788917
 30
0.0
 11
97.3025930647963
 21
241.890816128263
 31
0.0
  0
LINE
  5
   714
  8
0
  6
DASHDOT
 62
     7
 10
97.3026959346424
 20
86.3158160188335
 30
0.0
 11
97.3026959346424
 21
89.8907972281818
 31
0.0
  0
LINE
  5
   715
  8
0
  6
DASHDOT
 62
     7
 10
97.3025738973929
 20
139.815792248131
 30
0.0
 11
97.3025738973929
 21
143.39086143447
 31
0.0
  0
LINE
  5
   716
  8
0
  6
DASHDOT
 62
     7
 10
123.050540131843
 20
164.103315353394
 30
0.0
 11
71.444675914723
 21
164.103315353394
 31
0.0
  0
LINE
  5
   717
  8
0
  6
DASHDOT
 62
     7
 10
97.3027000427246
 20
82.1561733248645
 30
0.0
 11
97.3027000427246
 21
249.420600131114
 31
0.0
  0
LINE
  5
   718
  8
0
  6
DASHDOT
 62
     7
 10
77.6152000427246
 20
93.1427487554664
 30
0.0
 11
77.6152000427246
 21
242.94483935995
 31
0.0
  0
LINE
  5
   719
  8
0
  6
DASHDOT
 62
     7
 10
120.38261626007
 20
207.853315353394
 30
0.0
 11
73.4833229352209
 21
207.853315353394
 31
0.0
  0
LINE
  5
   71A
  8
0
  6
DASHDOT
 62
     7
 10
116.990200042725
 20
93.5639998931148
 30
0.0
 11
116.990200042725
 21
242.641879791709
 31
0.0
  0
LINE
  5
   71B
  8
0
  6
DASHDOT
 62
     7
 10
120.452824783011
 20
120.353315353394
 30
0.0
 11
73.9045740728693
 21
120.353315353394
 31
0.0
  0
LINE
  5
   71C
  8
0
  6
CONTINUOUS
 62
   212
 10
106.05261413094
 20
115.164184950795
 30
0.0
 11
106.05261413094
 21
115.414184950795
 31
0.0
  0
CIRCLE
  5
   71D
  8
0
  6
CONTINUOUS
 62
     7
 10
77.6152000427246
 20
207.853315353394
 30
0.0
 40
1.0
  0
CIRCLE
  5
   71E
  8
0
  6
CONTINUOUS
 62
     7
 10
116.990200042725
 20
207.853315353394
 30
0.0
 40
1.0
  0
CIRCLE
  5
   71F
  8
0
  6
CONTINUOUS
 62
     7
 10
77.6152000427246
 20
120.353315353394
 30
0.0
 40
1.0
  0
CIRCLE
  5
   720
  8
0
  6
CONTINUOUS
 62
     7
 10
116.990200042725
 20
120.353315353394
 30
0.0
 40
1.0
  0
LINE
  5
   721
  8
0
  6
CONTINUOUS
 62
     7
 10
119.802700042725
 20
241.508634086684
 30
0.0
 11
74.8027000427246
 21
241.508634086684
 31
0.0
  0
LINE
  5
   722
  8
0
  6
CONTINUOUS
 62
     7
 10
119.802700042725
 20
85.6718534210865
 30
0.0
 11
74.8027000427246
 21
85.6718534210865
 31
0.0
  0
LINE
  5
   723
  8
0
  6
DASHDOT
 62
     7
 10
120.930246426052
 20
96.9142079353333
 30
0.0
 11
74.0863358628081
 21
96.9142079353333
 31
0.0
  0
POINT
  5
   724
  8
0
  6
CONTINUOUS
 62
     7
 10
115.990200042725
 20
120.353315353394
 30
0.0
  0
POINT
  5
   725
  8
0
  6
CONTINUOUS
 62
     7
 10
117.990200042725
 20
120.353315353394
 30
0.0
  0
LINE
  5
   726
  8
0
  6
DASHDOT
 62
     7
 10
58.2134821903892
 20
164.103315353394
 30
0.0
 11
49.9088128072433
 21
164.103315353394
 31
0.0
  0
TEXT
  5
   727
  8
0
  6
CONTINUOUS
 62
     2
 10
71.4318389881303
 20
21.7256897207607
 30
0.0
 40
2.50000005960464
  1
SCARPELLINI
 50
359.999999948034
 41
1.09799996061325
 11
71.4318389892578
 21
22.975689750563
 31
0.0
 73
     2
  0
TEXT
  5
   728
  8
0
  6
CONTINUOUS
 62
     2
 10
133.611070202134
 20
17.5867171160347
 30
0.0
 40
2.00000008940697
  1
N0002 99-02-11
 50
359.999999948034
 41
0.749999861419206
 72
     1
 11
143.961068749428
 21
18.586717151403
 31
0.0
 73
     2
  0
LINE
  5
   729
  8
0
  6
CONTINUOUS
 62
     7
 10
77.9277000427246
 20
101.853315353394
 30
0.0
 11
77.9277000427246
 21
113.103315353394
 31
0.0
  0
LINE
  5
   72A
  8
0
  6
CONTINUOUS
 62
     7
 10
116.677700042725
 20
101.853315353394
 30
0.0
 11
116.677700042725
 21
113.103315353394
 31
0.0
  0
LINE
  5
   72B
  8
0
  6
CONTINUOUS
 62
     7
 10
112.927700042725
 20
230.103315353394
 30
0.0
 11
81.6777000427246
 21
230.103315353394
 31
0.0
  0
LINE
  5
   72C
  8
0
  6
CONTINUOUS
 62
     7
 10
112.927700042725
 20
211.353315353394
 30
0.0
 11
81.6777000427246
 21
211.353315353394
 31
0.0
  0
LINE
  5
   72D
  8
0
  6
CONTINUOUS
 62
     7
 10
112.927700042725
 20
194.353315353394
 30
0.0
 11
81.6777000427246
 21
194.353315353394
 31
0.0
  0
LINE
  5
   72E
  8
0
  6
CONTINUOUS
 62
     7
 10
112.927700042725
 20
175.603315353394
 30
0.0
 11
81.6777000427246
 21
175.603315353394
 31
0.0
  0
LINE
  5
   72F
  8
0
  6
CONTINUOUS
 62
     7
 10
112.927700042725
 20
152.603315353394
 30
0.0
 11
81.6777000427246
 21
152.603315353394
 31
0.0
  0
LINE
  5
   730
  8
0
  6
CONTINUOUS
 62
     7
 10
112.927700042725
 20
133.853315353394
 30
0.0
 11
81.6777000427246
 21
133.853315353394
 31
0.0
  0
LINE
  5
   731
  8
0
  6
CONTINUOUS
 62
     7
 10
112.927700042725
 20
116.853315353394
 30
0.0
 11
81.6777000427246
 21
116.853315353394
 31
0.0
  0
LINE
  5
   732
  8
0
  6
CONTINUOUS
 62
     7
 10
112.927700042725
 20
98.1033153533936
 30
0.0
 11
81.6777000427246
 21
98.1033153533936
 31
0.0
  0
LINE
  5
   733
  8
0
  6
CONTINUOUS
 62
     7
 10
116.677700042725
 20
215.103315353394
 30
0.0
 11
116.677700042725
 21
226.353315353394
 31
0.0
  0
LINE
  5
   734
  8
0
  6
CONTINUOUS
 62
     7
 10
77.9277000427246
 20
215.103315353394
 30
0.0
 11
77.9277000427246
 21
226.353315353394
 31
0.0
  0
LINE
  5
   735
  8
0
  6
CONTINUOUS
 62
     7
 10
116.677700042725
 20
179.353315353394
 30
0.0
 11
116.677700042725
 21
190.603315353394
 31
0.0
  0
LINE
  5
   736
  8
0
  6
CONTINUOUS
 62
     7
 10
77.9277000427246
 20
179.353315353394
 30
0.0
 11
77.9277000427246
 21
190.603315353394
 31
0.0
  0
LINE
  5
   737
  8
0
  6
CONTINUOUS
 62
     7
 10
116.677700042725
 20
137.603315353394
 30
0.0
 11
116.677700042725
 21
148.853315353394
 31
0.0
  0
LINE
  5
   738
  8
0
  6
CONTINUOUS
 62
     7
 10
77.9277000427246
 20
137.603315353394
 30
0.0
 11
77.9277000427246
 21
148.853315353394
 31
0.0
  0
ARC
  5
   739
  8
0
  6
CONTINUOUS
 62
     7
 10
81.6777000427246
 20
113.103315353394
 30
0.0
 40
3.75
 50
89.9999999480344
 51
179.999999948034
  0
ARC
  5
   73A
  8
0
  6
CONTINUOUS
 62
     7
 10
81.6777000427246
 20
101.853315353394
 30
0.0
 40
3.75
 50
179.999999948034
 51
269.999999948034
  0
ARC
  5
   73B
  8
0
  6
CONTINUOUS
 62
     7
 10
112.927700042725
 20
113.103315353394
 30
0.0
 40
3.75
 50
359.999999948034
 51
449.999999948034
  0
ARC
  5
   73C
  8
0
  6
CONTINUOUS
 62
     7
 10
112.927700042725
 20
101.853315353394
 30
0.0
 40
3.75
 50
269.999999948034
 51
359.999999948034
  0
ARC
  5
   73D
  8
0
  6
CONTINUOUS
 62
     7
 10
112.927700042725
 20
137.603315353394
 30
0.0
 40
3.75
 50
269.999999948034
 51
359.999999948034
  0
ARC
  5
   73E
  8
0
  6
CONTINUOUS
 62
     7
 10
112.927700042725
 20
148.853315353394
 30
0.0
 40
3.75
 50
359.999999948034
 51
449.999999948034
  0
ARC
  5
   73F
  8
0
  6
CONTINUOUS
 62
     7
 10
81.6777000427246
 20
148.853315353394
 30
0.0
 40
3.75
 50
89.9999999480344
 51
179.999999948034
  0
ARC
  5
   740
  8
0
  6
CONTINUOUS
 62
     7
 10
81.6777000427246
 20
137.603315353394
 30
0.0
 40
3.75
 50
179.999999948034
 51
269.999999948034
  0
ARC
  5
   741
  8
0
  6
CONTINUOUS
 62
     7
 10
81.6777000427246
 20
179.353315353394
 30
0.0
 40
3.75
 50
179.999999948034
 51
269.999999948034
  0
ARC
  5
   742
  8
0
  6
CONTINUOUS
 62
     7
 10
112.927700042725
 20
179.353315353394
 30
0.0
 40
3.75
 50
269.999999948034
 51
359.999999948034
  0
ARC
  5
   743
  8
0
  6
CONTINUOUS
 62
     7
 10
112.927700042725
 20
190.603315353394
 30
0.0
 40
3.75
 50
359.999999948034
 51
449.999999948034
  0
ARC
  5
   744
  8
0
  6
CONTINUOUS
 62
     7
 10
81.6777000427246
 20
190.603315353394
 30
0.0
 40
3.75
 50
89.9999999480344
 51
179.999999948034
  0
ARC
  5
   745
  8
0
  6
CONTINUOUS
 62
     7
 10
81.6777000427246
 20
215.103315353394
 30
0.0
 40
3.75
 50
179.999999948034
 51
269.999999948034
  0
ARC
  5
   746
  8
0
  6
CONTINUOUS
 62
     7
 10
112.927700042725
 20
215.103315353394
 30
0.0
 40
3.75
 50
269.999999948034
 51
359.999999948034
  0
ARC
  5
   747
  8
0
  6
CONTINUOUS
 62
     7
 10
112.927700042725
 20
226.353315353394
 30
0.0
 40
3.75
 50
359.999999948034
 51
449.999999948034
  0
ARC
  5
   748
  8
0
  6
CONTINUOUS
 62
     7
 10
81.6777000427246
 20
226.353315353394
 30
0.0
 40
3.75
 50
89.9999999480344
 51
179.999999948034
  0
INSERT
  5
   749
  8
0
  6
CONTINUOUS
 62
     7
  2
*UDIM227
 10
0.0
 20
0.0
 30
0.0
  0
INSERT
  5
   74A
  8
0
  6
CONTINUOUS
 62
     7
  2
*UDIM228
 10
0.0
 20
0.0
 30
0.0
  0
INSERT
  5
   74B
  8
0
  6
CONTINUOUS
 62
     7
  2
*UDIM229
 10
0.0
 20
0.0
 30
0.0
  0
INSERT
  5
   74C
  8
0
  6
CONTINUOUS
 62
     7
  2
*UDIM230
 10
0.0
 20
0.0
 30
0.0
  0
INSERT
  5
   74D
  8
0
  6
CONTINUOUS
 62
     7
  2
*UDIM231
 10
0.0
 20
0.0
 30
0.0
  0
INSERT
  5
   74E
  8
0
  6
CONTINUOUS
 62
     7
  2
*UDIM232
 10
0.0
 20
0.0
 30
0.0
  0
INSERT
  5
   74F
  8
0
  6
CONTINUOUS
 62
     7
  2
*UDIM233
 10
0.0
 20
0.0
 30
0.0
  0
INSERT
  5
   750
  8
0
  6
CONTINUOUS
 62
     7
  2
*UDIM234
 10
0.0
 20
0.0
 30
0.0
  0
INSERT
  5
   751
  8
0
  6
CONTINUOUS
 62
     7
  2
*UDIM235
 10
0.0
 20
0.0
 30
0.0
  0
INSERT
  5
   752
  8
0
  6
CONTINUOUS
 62
     7
  2
*UDIM236
 10
0.0
 20
0.0
 30
0.0
  0
INSERT
  5
   753
  8
0
  6
CONTINUOUS
 62
     7
  2
*UDIM237
 10
0.0
 20
0.0
 30
0.0
  0
INSERT
  5
   754
  8
0
  6
CONTINUOUS
 62
     7
  2
*UDIM238
 10
0.0
 20
0.0
 30
0.0
  0
INSERT
  5
   755
  8
0
  6
CONTINUOUS
 62
     7
  2
*UDIM239
 10
0.0
 20
0.0
 30
0.0
  0
INSERT
  5
   756
  8
0
  6
CONTINUOUS
 62
     7
  2
*UDIM240
 10
0.0
 20
0.0
 30
0.0
  0
TEXT
  5
   757
  8
0
  6
CONTINUOUS
 62
     2
 10
108.021073969297
 20
17.5867156617616
 30
0.0
 40
2.00000008940697
  1
M 3193 95-10-26
 50
359.999999948034
 41
0.749999861419206
 72
     1
 11
119.121072411537
 21
18.5867156964535
 31
0.0
 73
     2
  0
TEXT
  5
   758
  8
0
  6
CONTINUOUS
 62
     2
 10
83.1966415962498
 20
17.4594878785584
 30
0.0
 40
2.00000008940697
  1
M 3076 95-01-16
 50
359.999999948034
 41
0.749999861419206
 72
     1
 11
94.2966400384903
 21
18.4594879132503
 31
0.0
 73
     2
  0
INSERT
  5
   759
  8
0
  6
CONTINUOUS
 62
     7
  2
*UDIM241
 10
0.0
 20
0.0
 30
0.0
  0
TEXT
  5
   75A
  8
0
  6
CONTINUOUS
 62
     2
 10
231.958236909772
 20
28.5518417038791
 30
0.0
 40
2.50000005960464
  1
ENG
 50
359.999999948034
 41
1.09999991695086
 72
     1
 11
235.624903380871
 21
29.8018417303743
 31
0.0
 73
     2
  0
TEXT
  5
   75B
  8
0
  6
CONTINUOUS
 62
     2
 10
231.958236909772
 20
4.61826321266815
 30
0.0
 40
2.50000005960464
  1
1/1
 50
359.999999948034
 41
1.09999991695086
 72
     1
 11
235.624903380871
 21
5.86826323916334
 31
0.0
 73
     2
  0
TEXT
  5
   75C
  8
0
  6
CONTINUOUS
 62
     2
 10
231.958236909772
 20
13.0850600876682
 30
0.0
 40
2.50000005960464
  1
1:1
 50
359.999999948034
 41
1.09999991695086
 72
     1
 11
235.624903380871
 21
14.3350601141633
 31
0.0
 73
     2
  0
TEXT
  5
   75D
  8
0
  6
CONTINUOUS
 62
     2
 10
231.958236909772
 20
22.5518417038791
 30
0.0
 40
2.50000005960464
  1
ITA
 50
359.999999948034
 41
1.09999991695086
 72
     1
 11
235.624903380871
 21
23.8018417303743
 31
0.0
 73
     2
  0
TEXT
  5
   75E
  8
0
  6
CONTINUOUS
 62
     2
 10
71.4318389881304
 20
30.1924363234297
 30
0.0
 40
2.50000005960464
  1
BARCELLA
 50
359.999999948034
 41
1.09799996061325
 11
71.4318389892578
 21
31.442436353232
 31
0.0
 73
     2
  0
TEXT
  5
   75F
  8
0
  6
CONTINUOUS
 62
     2
 10
71.4318389881304
 20
34.1924363236755
 30
0.0
 40
2.50000005960464
  1
94-05-16
 50
359.999999948034
 41
1.09999991695086
 11
71.4318389892578
 21
35.4424363534778
 31
0.0
 73
     2
  0
TEXT
  5
   760
  8
0
  6
CONTINUOUS
 62
     2
 10
172.078569098768
 20
5.92359928470741
 30
0.0
 40
4.49999994039536
  1
601812/641
 50
359.999999948034
 41
1.09999994414824
 72
     1
 11
196.003567576408
 21
8.17359923332604
 31
0.0
 73
     2
  0
TEXT
  5
   761
  8
0
  6
CONTINUOUS
 62
     2
 10
190.07856764929
 20
15.3903503085959
 30
0.0
 40
2.50000005960464
  1
S3
 50
359.999999948034
 41
1.09999991695086
 72
     1
 11
192.370234191418
 21
16.6403503363313
 31
0.0
 73
     2
  0
TEXT
  5
   762
  8
0
  6
CONTINUOUS
 62
     1
 10
182.187972151329
 20
33.8887557644075
 30
0.0
 40
2.00000008940697
  1
INTERLOCK APPLICATION BETWEEN
 50
359.999999948034
 41
0.625
 72
     1
 11
200.187972956894
 21
34.8887557928759
 31
0.0
 73
     2
  0
TEXT
  5
   763
  8
0
  6
CONTINUOUS
 62
     1
 10
178.437972114825
 20
30.8887557677898
 30
0.0
 40
2.00000008940697
  1
 TWO DOWNSTREAM MCCBS ISOMAX SERIES
 50
359.999999948034
 41
0.625
 72
     1
 11
200.187973088028
 21
31.8887557928759
 31
0.0
 73
     2
  0
TEXT
  5
   764
  8
0
  6
CONTINUOUS
 62
     1
 10
182.265364757394
 20
25.8184890402109
 30
0.0
 40
2.00000008940697
  1
APPLICAZIONE INTERBLOCCO TRA
 50
359.999999948034
 41
0.625
 72
     1
 11
199.640365535019
 21
26.8184890692431
 31
0.0
 73
     2
  0
TEXT
  5
   765
  8
0
  6
CONTINUOUS
 62
     1
 10
174.140364525312
 20
22.8184890475392
 30
0.0
 40
2.00000008940697
  1
DUE INTERRUTTORI SOVRAPPOSTI SERIE ISOMAX
 50
359.999999948034
 41
0.625
 72
     1
 11
199.640365666153
 21
23.8184890692431
 31
0.0
 73
     2
  0
TEXT
  5
   766
  8
0
  6
CONTINUOUS
 62
     7
 10
96.1715889857591
 20
76.4155959911124
 30
0.0
 40
3.00000002980232
  1
Y
 50
359.999999948034
 41
0.916666604744064
 72
     1
 11
97.2715889215469
 21
77.9155960050214
 31
0.0
 73
     2
  0
TEXT
  5
   767
  8
0
  6
CONTINUOUS
 62
     7
 10
139.409233102185
 20
157.38642160856
 30
0.0
 40
3.00000002980232
  1
=   =
 50
89.9999999480344
 41
0.916666604744064
 72
     1
 11
137.909233093262
 21
163.986421227455
 31
0.0
 73
     2
  0
TEXT
  5
   768
  8
0
  6
CONTINUOUS
 62
     7
 10
91.3534701743604
 20
260.64489746277
 30
0.0
 40
3.00000002980232
  1
=  =
 50
359.999999948034
 41
0.916666604744064
 72
     1
 11
96.5784698724747
 21
262.144897472958
 31
0.0
 73
     2
  0
TEXT
  5
   769
  8
0
  6
CONTINUOUS
 62
     7
 10
95.0240288661302
 20
272.11949157526
 30
0.0
 40
3.00000002980232
  1
Y
 50
359.999999948034
 41
0.916666604744064
 72
     1
 11
96.124028801918
 21
273.619491589169
 31
0.0
 73
     2
  0
INSERT
  5
   76A
  8
0
  6
CONTINUOUS
 62
     7
  2
*UDIM242
 10
0.0
 20
0.0
 30
0.0
  0
TEXT
  5
   76B
  8
0
  6
CONTINUOUS
 62
     7
 10
141.370445339519
 20
162.427886961002
 30
0.0
 40
3.00000002980232
  1
X
 50
359.999999948034
 41
0.916666604744064
 72
     1
 11
142.470445275307
 21
163.927886974911
 31
0.0
 73
     2
  0
ENDSEC
  0
EOF
