  0
SECTION
  2
HEADER
  9
$ACADVER
  1
AC1009
  9
$INSBASE
 10
0.0
 20
0.0
 30
0.0
  9
$EXTMIN
 10
104.45892
 20
135.313215
 30
0.0
  9
$EXTMAX
 10
2403.618688
 20
1654.998261
 30
0.0
  9
$LIMMIN
 10
0.0
 20
0.0
  9
$LIMMAX
 10
12.0
 20
9.0
  9
$ORTHOMODE
 70
     0
  9
$REGENMODE
 70
     1
  9
$FILLMODE
 70
     1
  9
$QTEXTMODE
 70
     0
  9
$MIRRTEXT
 70
     1
  9
$DRAGMODE
 70
     2
  9
$LTSCALE
 40
20.0
  9
$OSMODE
 70
  1023
  9
$ATTMODE
 70
     1
  9
$TEXTSIZE
 40
0.2
  9
$TRACEWID
 40
0.05
  9
$TEXTSTYLE
  7
STANDARD
  9
$CLAYER
  8
0
  9
$CELTYPE
  6
CONTINUOUS
  9
$CECOLOR
 62
   256
  9
$DIMSCALE
 40
1.0
  9
$DIMASZ
 40
10.0
  9
$DIMEXO
 40
0.0625
  9
$DIMDLI
 40
0.38
  9
$DIMRND
 40
0.0
  9
$DIMDLE
 40
0.0
  9
$DIMEXE
 40
0.18
  9
$DIMTP
 40
0.0
  9
$DIMTM
 40
0.0
  9
$DIMTXT
 40
10.0
  9
$DIMCEN
 40
0.09
  9
$DIMTSZ
 40
0.0
  9
$DIMTOL
 70
     0
  9
$DIMLIM
 70
     0
  9
$DIMTIH
 70
     1
  9
$DIMTOH
 70
     1
  9
$DIMSE1
 70
     0
  9
$DIMSE2
 70
     0
  9
$DIMTAD
 70
     0
  9
$DIMZIN
 70
     0
  9
$DIMBLK
  1

  9
$DIMASO
 70
     1
  9
$DIMSHO
 70
     1
  9
$DIMPOST
  1

  9
$DIMAPOST
  1

  9
$DIMALT
 70
     0
  9
$DIMALTD
 70
     2
  9
$DIMALTF
 40
25.4
  9
$DIMLFAC
 40
1.0
  9
$DIMTOFL
 70
     0
  9
$DIMTVP
 40
0.0
  9
$DIMTIX
 70
     0
  9
$DIMSOXD
 70
     0
  9
$DIMSAH
 70
     0
  9
$DIMBLK1
  1

  9
$DIMBLK2
  1

  9
$DIMSTYLE
  2
STANDARD
  9
$DIMCLRD
 70
     1
  9
$DIMCLRE
 70
     1
  9
$DIMCLRT
 70
     1
  9
$DIMTFAC
 40
1.0
  9
$DIMGAP
 40
10.0
  9
$LUNITS
 70
     2
  9
$LUPREC
 70
     4
  9
$SKETCHINC
 40
0.1
  9
$FILLETRAD
 40
0.0
  9
$AUNITS
 70
     0
  9
$AUPREC
 70
     0
  9
$MENU
  1
acad
  9
$ELEVATION
 40
0.0
  9
$PELEVATION
 40
0.0
  9
$THICKNESS
 40
0.0
  9
$LIMCHECK
 70
     0
  9
$BLIPMODE
 70
     0
  9
$CHAMFERA
 40
0.0
  9
$CHAMFERB
 40
0.0
  9
$SKPOLY
 70
     0
  9
$TDCREATE
 40
2452054.60317
  9
$TDUPDATE
 40
2452058.473617
  9
$TDINDWG
 40
0.013204
  9
$TDUSRTIMER
 40
0.013204
  9
$USRTIMER
 70
     1
  9
$ANGBASE
 50
0.0
  9
$ANGDIR
 70
     0
  9
$PDMODE
 70
     0
  9
$PDSIZE
 40
0.0
  9
$PLINEWID
 40
0.0
  9
$COORDS
 70
     1
  9
$SPLFRAME
 70
     0
  9
$SPLINETYPE
 70
     6
  9
$SPLINESEGS
 70
     8
  9
$ATTDIA
 70
     0
  9
$ATTREQ
 70
     1
  9
$HANDLING
 70
     1
  9
$HANDSEED
  5
61B
  9
$SURFTAB1
 70
     6
  9
$SURFTAB2
 70
     6
  9
$SURFTYPE
 70
     6
  9
$SURFU
 70
     6
  9
$SURFV
 70
     6
  9
$UCSNAME
  2

  9
$UCSORG
 10
0.0
 20
0.0
 30
0.0
  9
$UCSXDIR
 10
1.0
 20
0.0
 30
0.0
  9
$UCSYDIR
 10
0.0
 20
1.0
 30
0.0
  9
$PUCSNAME
  2

  9
$PUCSORG
 10
0.0
 20
0.0
 30
0.0
  9
$PUCSXDIR
 10
1.0
 20
0.0
 30
0.0
  9
$PUCSYDIR
 10
0.0
 20
1.0
 30
0.0
  9
$USERI1
 70
     0
  9
$USERI2
 70
     0
  9
$USERI3
 70
     0
  9
$USERI4
 70
     0
  9
$USERI5
 70
     0
  9
$USERR1
 40
0.0
  9
$USERR2
 40
0.0
  9
$USERR3
 40
0.0
  9
$USERR4
 40
0.0
  9
$USERR5
 40
0.0
  9
$WORLDVIEW
 70
     1
  9
$SHADEDGE
 70
     3
  9
$SHADEDIF
 70
    70
  9
$TILEMODE
 70
     1
  9
$MAXACTVP
 70
    48
  9
$PLIMCHECK
 70
     0
  9
$PEXTMIN
 10
1.000000E+020
 20
1.000000E+020
 30
1.000000E+020
  9
$PEXTMAX
 10
-1.000000E+020
 20
-1.000000E+020
 30
-1.000000E+020
  9
$PLIMMIN
 10
0.0
 20
0.0
  9
$PLIMMAX
 10
12.0
 20
9.0
  9
$UNITMODE
 70
     0
  9
$VISRETAIN
 70
     1
  9
$PLINEGEN
 70
     0
  9
$PSLTSCALE
 70
     1
  0
ENDSEC
  0
SECTION
  2
TABLES
  0
TABLE
  2
VPORT
 70
     4
  0
VPORT
  2
*ACTIVE
 70
     0
 10
0.0
 20
0.0
 11
1.0
 21
1.0
 12
1254.038804
 22
895.155738
 13
0.0
 23
0.0
 14
1.0
 24
1.0
 15
0.0
 25
0.0
 16
0.0
 26
0.0
 36
1.0
 17
0.0
 27
0.0
 37
0.0
 40
1529.374855
 41
1.679787
 42
50.0
 43
0.0
 44
0.0
 50
0.0
 51
0.0
 71
     0
 72
   100
 73
     1
 74
     1
 75
     0
 76
     0
 77
     0
 78
     0
  0
ENDTAB
  0
TABLE
  2
LTYPE
 70
     3
  0
LTYPE
  2
CONTINUOUS
 70
     0
  3
Solid line
 72
    65
 73
     0
 40
0.0
  0
LTYPE
  2
CENTER
 70
     0
  3
____ _ ____ _ ____ _ ____ _ ____ _ ____
 72
    65
 73
     4
 40
2.0
 49
1.25
 49
-0.25
 49
0.25
 49
-0.25
  0
LTYPE
  2
DASHED
 70
     0
  3
_ _ _ _ _ _ _ _ _ _ _ _ _ _ _ _ _ _ _ _ _
 72
    65
 73
     2
 40
0.75
 49
0.5
 49
-0.25
  0
ENDTAB
  0
TABLE
  2
LAYER
 70
     5
  0
LAYER
  2
0
 70
     0
 62
     7
  6
CONTINUOUS
  0
LAYER
  2
5
 70
     0
 62
     7
  6
CONTINUOUS
  0
LAYER
  2
6
 70
     0
 62
     5
  6
CENTER
  0
LAYER
  2
7
 70
     0
 62
     3
  6
DASHED
  0
LAYER
  2
BYLAYER
 70
     0
 62
     7
  6
CONTINUOUS
  0
ENDTAB
  0
TABLE
  2
STYLE
 70
     1
  0
STYLE
  2
STANDARD
 70
     0
 40
0.0
 41
1.0
 50
0.0
 71
     0
 42
0.2
  3
txt
  4

  0
ENDTAB
  0
TABLE
  2
VIEW
 70
     0
  0
ENDTAB
  0
TABLE
  2
UCS
 70
     0
  0
ENDTAB
  0
TABLE
  2
APPID
 70
     1
  0
APPID
  2
ACAD
 70
     0
  0
ENDTAB
  0
TABLE
  2
DIMSTYLE
 70
     1
  0
DIMSTYLE
  2
STANDARD
 70
     0
  3

  4

  5

  6

  7

 40
1.0
 41
0.18
 42
0.0625
 43
0.38
 44
0.18
 45
0.0
 46
0.0
 47
0.0
 48
0.0
140
0.18
141
0.09
142
0.0
143
25.4
144
1.0
145
0.0
146
1.0
147
0.09
 71
     0
 72
     0
 73
     1
 74
     1
 75
     0
 76
     0
 77
     0
 78
     0
170
     0
171
     2
172
     0
173
     0
174
     0
175
     0
176
     0
177
     0
178
     0
  0
ENDTAB
  0
ENDSEC
  0
SECTION
  2
BLOCKS
  0
BLOCK
  8
0
  2
$MODEL_SPACE
 70
     0
 10
0.0
 20
0.0
 30
0.0
  3
$MODEL_SPACE
  1

  0
ENDBLK
  5
1A
  8
0
  0
BLOCK
 67
     1
  8
0
  2
$PAPER_SPACE
 70
     0
 10
0.0
 20
0.0
 30
0.0
  3
$PAPER_SPACE
  1

  0
ENDBLK
  5
17
 67
     1
  8
0
  0
BLOCK
  8
0
  2
A$C05293501
 70
     0
 10
0.0
 20
0.0
 30
0.0
  3
A$C05293501
  1

  0
LINE
  5
5F5
  8
5
  6
CONTINUOUS
 10
60.4918
 20
70.750001
 30
0.0
 11
60.4918
 21
0.000001
 31
0.0
  0
LINE
  5
5F6
  8
5
  6
CENTER
 10
60.4918
 20
70.750001
 30
0.0
 11
60.4918
 21
0.000001
 31
0.0
  0
LINE
  5
5F7
  8
5
  6
CONTINUOUS
 10
50.4918
 20
70.750001
 30
0.0
 11
50.4918
 21
0.000001
 31
0.0
  0
LINE
  5
5F8
  8
5
  6
CENTER
 10
50.4918
 20
70.750001
 30
0.0
 11
50.4918
 21
0.000001
 31
0.0
  0
LINE
  5
5F9
  8
5
  6
CONTINUOUS
 10
40.4918
 20
70.750001
 30
0.0
 11
40.4918
 21
0.000001
 31
0.0
  0
LINE
  5
5FA
  8
5
  6
CENTER
 10
40.4918
 20
70.750001
 30
0.0
 11
40.4918
 21
0.000001
 31
0.0
  0
LINE
  5
5FB
  8
5
  6
CONTINUOUS
 10
30.4918
 20
70.750001
 30
0.0
 11
30.4918
 21
0.000001
 31
0.0
  0
LINE
  5
5FC
  8
5
  6
CENTER
 10
30.4918
 20
70.750001
 30
0.0
 11
30.4918
 21
0.000001
 31
0.0
  0
LINE
  5
5FD
  8
5
  6
CONTINUOUS
 10
20.4918
 20
70.750001
 30
0.0
 11
20.4918
 21
13.187001
 31
0.0
  0
LINE
  5
5FE
  8
5
  6
CENTER
 10
20.4918
 20
70.750001
 30
0.0
 11
20.4918
 21
12.818001
 31
0.0
  0
LINE
  5
5FF
  8
5
  6
CONTINUOUS
 10
10.4918
 20
70.750001
 30
0.0
 11
10.4918
 21
35.248001
 31
0.0
  0
LINE
  5
600
  8
5
  6
CENTER
 10
10.4918
 20
70.750001
 30
0.0
 11
10.4918
 21
35.248001
 31
0.0
  0
LINE
  5
601
  8
5
  6
CONTINUOUS
 10
0.7536
 20
40.776001
 30
0.0
 11
70.6364
 21
40.776001
 31
0.0
  0
LINE
  5
602
  8
5
  6
CONTINUOUS
 10
0.0
 20
40.776001
 30
0.0
 11
70.6364
 21
40.776001
 31
0.0
  0
LINE
  5
603
  8
5
  6
CONTINUOUS
 10
10.8588
 20
30.776001
 30
0.0
 11
70.6364
 21
30.776001
 31
0.0
  0
LINE
  5
604
  8
5
  6
CONTINUOUS
 10
6.8688
 20
30.776001
 30
0.0
 11
70.6364
 21
30.776001
 31
0.0
  0
LINE
  5
605
  8
5
  6
CONTINUOUS
 10
10.4918
 20
20.776001
 30
0.0
 11
70.6364
 21
20.776001
 31
0.0
  0
LINE
  5
606
  8
5
  6
CONTINUOUS
 10
10.4918
 20
20.776001
 30
0.0
 11
70.6364
 21
20.776001
 31
0.0
  0
LINE
  5
607
  8
5
  6
CONTINUOUS
 10
23.4865
 20
10.776001
 30
0.0
 11
70.6364
 21
10.776001
 31
0.0
  0
LINE
  5
608
  8
5
  6
CONTINUOUS
 10
22.9952
 20
10.776001
 30
0.0
 11
70.6364
 21
10.776001
 31
0.0
  0
LINE
  5
609
  8
5
  6
CONTINUOUS
 10
1.2561
 20
60.776001
 30
0.0
 11
70.6364
 21
60.776001
 31
0.0
  0
LINE
  5
60A
  8
5
  6
CONTINUOUS
 10
1.2561
 20
60.776001
 30
0.0
 11
70.6364
 21
60.776001
 31
0.0
  0
LINE
  5
60B
  8
5
  6
CONTINUOUS
 10
0.2512
 20
50.776001
 30
0.0
 11
70.6364
 21
50.776001
 31
0.0
  0
LINE
  5
60C
  8
5
  6
CONTINUOUS
 10
0.2512
 20
50.776001
 30
0.0
 11
70.6364
 21
50.776001
 31
0.0
  0
ENDBLK
  5
60E
  8
0
  0
BLOCK
  8
0
  2
A$C27E33DB7
 70
     0
 10
0.0
 20
0.0
 30
0.0
  3
A$C27E33DB7
  1

  0
INSERT
  5
610
  8
0
  6
CONTINUOUS
  2
A$C05293501
 10
0.0
 20
-0.000001
 30
0.0
  0
ENDBLK
  5
612
  8
0
  0
ENDSEC
  0
SECTION
  2
ENTITIES
  0
LINE
  5
25
  8
5
  6
CONTINUOUS
 10
1405.903
 20
1072.373
 30
0.0
 11
969.9034
 21
1072.373
 31
0.0
  0
LINE
  5
26
  8
5
  6
CONTINUOUS
 10
1405.916
 20
1461.874
 30
0.0
 11
1408.123
 21
1444.649
 31
0.0
  0
LINE
  5
27
  8
5
  6
CONTINUOUS
 10
1410.349
 20
1427.273
 30
0.0
 11
1408.123
 21
1444.649
 31
0.0
  0
LINE
  5
28
  8
5
  6
CONTINUOUS
 10
1405.903
 20
1461.973
 30
0.0
 11
1405.916
 21
1461.874
 31
0.0
  0
LINE
  5
29
  8
5
  6
CONTINUOUS
 10
1411.884
 20
1415.286
 30
0.0
 11
1410.349
 21
1427.273
 31
0.0
  0
LINE
  5
2A
  8
5
  6
CONTINUOUS
 10
1259.424
 20
1444.624
 30
0.0
 11
1280.781
 21
1461.874
 31
0.0
  0
LINE
  5
2B
  8
5
  6
CONTINUOUS
 10
1280.781
 20
1461.874
 30
0.0
 11
1280.903
 21
1461.973
 31
0.0
  0
LINE
  5
2C
  8
5
  6
CONTINUOUS
 10
1414.48
 20
986.4733
 30
0.0
 11
1413.903
 21
981.9733
 31
0.0
  0
LINE
  5
2D
  8
5
  6
CONTINUOUS
 10
1254.903
 20
1440.973
 30
0.0
 11
1259.424
 21
1444.624
 31
0.0
  0
LINE
  5
2E
  8
5
  6
CONTINUOUS
 10
1280.903
 20
1461.973
 30
0.0
 11
1405.903
 21
1461.973
 31
0.0
  0
LINE
  5
2F
  8
5
  6
CONTINUOUS
 10
1408.119
 20
1089.773
 30
0.0
 11
1408.126
 21
1089.723
 31
0.0
  0
LINE
  5
30
  8
5
  6
CONTINUOUS
 10
955.9034
 20
1221.973
 30
0.0
 11
955.9034
 21
1002.973
 31
0.0
  0
LINE
  5
31
  8
5
  6
CONTINUOUS
 10
955.9034
 20
1440.973
 30
0.0
 11
955.9034
 21
1221.973
 31
0.0
  0
LINE
  5
32
  8
5
  6
CONTINUOUS
 10
898.4034
 20
1496.973
 30
0.0
 11
898.4034
 21
946.9733
 31
0.0
  0
LINE
  5
33
  8
5
  6
CONTINUOUS
 10
880.4034
 20
1496.973
 30
0.0
 11
880.4034
 21
946.9733
 31
0.0
  0
CIRCLE
  5
34
  8
5
  6
CONTINUOUS
 10
904.4034
 20
1113.973
 30
0.0
 40
1.5
  0
LINE
  5
35
  8
5
  6
CONTINUOUS
 10
875.4034
 20
1446.973
 30
0.0
 11
875.4034
 21
996.9733
 31
0.0
  0
LINE
  5
36
  8
5
  6
CONTINUOUS
 10
750.4034
 20
1255.973
 30
0.0
 11
759.4034
 21
1255.973
 31
0.0
  0
LINE
  5
37
  8
5
  6
CONTINUOUS
 10
759.4034
 20
1255.973
 30
0.0
 11
861.4034
 21
1255.973
 31
0.0
  0
LINE
  5
38
  8
5
  6
CONTINUOUS
 10
870.4034
 20
1255.973
 30
0.0
 11
861.4034
 21
1255.973
 31
0.0
  0
LINE
  5
39
  8
5
  6
CONTINUOUS
 10
740.4034
 20
1251.973
 30
0.0
 11
740.4034
 21
1191.973
 31
0.0
  0
LINE
  5
3A
  8
5
  6
CONTINUOUS
 10
1413.903
 20
981.9733
 30
0.0
 11
983.9034
 21
981.9733
 31
0.0
  0
LINE
  5
3B
  8
5
  6
CONTINUOUS
 10
981.6873
 20
999.2727
 30
0.0
 11
981.6809
 21
999.3227
 31
0.0
  0
LINE
  5
3C
  8
5
  6
CONTINUOUS
 10
981.6809
 20
999.3227
 30
0.0
 11
981.6744
 21
999.3733
 31
0.0
  0
LINE
  5
3D
  8
5
  6
CONTINUOUS
 10
983.9034
 20
981.9733
 30
0.0
 11
981.6873
 21
999.2727
 31
0.0
  0
LINE
  5
3E
  8
5
  6
CONTINUOUS
 10
981.6744
 20
999.3733
 30
0.0
 11
979.4326
 21
1016.873
 31
0.0
  0
LINE
  5
3F
  8
5
  6
CONTINUOUS
 10
979.4326
 20
1016.873
 30
0.0
 11
977.9227
 21
1028.66
 31
0.0
  0
LINE
  5
40
  8
5
  6
CONTINUOUS
 10
1408.126
 20
1354.224
 30
0.0
 11
1408.12
 21
1354.173
 31
0.0
  0
LINE
  5
41
  8
5
  6
CONTINUOUS
 10
1064.403
 20
1072.373
 30
0.0
 11
1064.403
 21
1052.25
 31
0.0
  0
LINE
  5
42
  8
5
  6
CONTINUOUS
 10
1064.403
 20
1052.25
 30
0.0
 11
1056.403
 21
1045.182
 31
0.0
  0
LINE
  5
43
  8
5
  6
CONTINUOUS
 10
967.6809
 20
1089.723
 30
0.0
 11
967.6875
 21
1089.773
 31
0.0
  0
LINE
  5
44
  8
5
  6
CONTINUOUS
 10
967.6873
 20
1354.173
 30
0.0
 11
967.6809
 21
1354.224
 31
0.0
  0
LINE
  5
45
  8
5
  6
CONTINUOUS
 10
1056.403
 20
1045.182
 30
0.0
 11
1036.403
 21
1045.182
 31
0.0
  0
LINE
  5
46
  8
5
  6
CONTINUOUS
 10
1036.403
 20
1045.182
 30
0.0
 11
1028.403
 21
1052.25
 31
0.0
  0
LINE
  5
47
  8
5
  6
CONTINUOUS
 10
1028.403
 20
1052.25
 30
0.0
 11
1028.403
 21
1072.373
 31
0.0
  0
LINE
  5
48
  8
5
  6
CONTINUOUS
 10
999.7873
 20
1032.78
 30
0.0
 11
996.6534
 21
1072.373
 31
0.0
  0
LINE
  5
49
  8
5
  6
CONTINUOUS
 10
999.7873
 20
1032.78
 30
0.0
 11
1016.903
 21
1018.68
 31
0.0
  0
LINE
  5
4A
  8
5
  6
CONTINUOUS
 10
1016.903
 20
1018.68
 30
0.0
 11
1075.903
 21
1018.68
 31
0.0
  0
LINE
  5
4B
  8
5
  6
CONTINUOUS
 10
1075.903
 20
1018.68
 30
0.0
 11
1093.02
 21
1032.78
 31
0.0
  0
LINE
  5
4C
  8
5
  6
CONTINUOUS
 10
1093.02
 20
1032.78
 30
0.0
 11
1096.154
 21
1072.373
 31
0.0
  0
LINE
  5
4D
  8
5
  6
CONTINUOUS
 10
996.2479
 20
1041.463
 30
0.0
 11
995.2307
 21
1062.033
 31
0.0
  0
LINE
  5
4E
  8
5
  6
CONTINUOUS
 10
996.2479
 20
1041.463
 30
0.0
 11
999.7873
 21
1010.702
 31
0.0
  0
LINE
  5
4F
  8
5
  6
CONTINUOUS
 10
999.7873
 20
1010.702
 30
0.0
 11
999.7873
 21
1032.78
 31
0.0
  0
LINE
  5
50
  8
5
  6
CONTINUOUS
 10
1093.02
 20
1032.78
 30
0.0
 11
1093.02
 21
1010.702
 31
0.0
  0
LINE
  5
51
  8
5
  6
CONTINUOUS
 10
1254.903
 20
1427.473
 30
0.0
 11
1254.903
 21
1381.913
 31
0.0
  0
LINE
  5
52
  8
5
  6
CONTINUOUS
 10
1254.903
 20
1427.473
 30
0.0
 11
1254.903
 21
1440.973
 31
0.0
  0
LINE
  5
53
  8
5
  6
CONTINUOUS
 10
969.9034
 20
1371.573
 30
0.0
 11
1405.903
 21
1371.573
 31
0.0
  0
LINE
  5
54
  8
5
  6
CONTINUOUS
 10
1096.559
 20
1041.463
 30
0.0
 11
1093.02
 21
1010.702
 31
0.0
  0
LINE
  5
55
  8
5
  6
CONTINUOUS
 10
1408.132
 20
1354.173
 30
0.0
 11
1410.374
 21
1336.673
 31
0.0
  0
LINE
  5
56
  8
5
  6
CONTINUOUS
 10
1410.374
 20
1336.673
 30
0.0
 11
1411.884
 21
1324.886
 31
0.0
  0
LINE
  5
57
  8
5
  6
CONTINUOUS
 10
1405.903
 20
1371.573
 30
0.0
 11
1408.126
 21
1354.224
 31
0.0
  0
LINE
  5
58
  8
5
  6
CONTINUOUS
 10
1410.374
 20
1107.273
 30
0.0
 11
1411.884
 21
1119.06
 31
0.0
  0
LINE
  5
59
  8
5
  6
CONTINUOUS
 10
1408.126
 20
1089.723
 30
0.0
 11
1405.903
 21
1072.373
 31
0.0
  0
LINE
  5
5A
  8
5
  6
CONTINUOUS
 10
1408.132
 20
1089.773
 30
0.0
 11
1410.374
 21
1107.273
 31
0.0
  0
LINE
  5
5B
  8
5
  6
CONTINUOUS
 10
967.6744
 20
1354.173
 30
0.0
 11
965.4326
 21
1336.673
 31
0.0
  0
LINE
  5
5C
  8
5
  6
CONTINUOUS
 10
1705.403
 20
1425.267
 30
0.0
 11
1705.403
 21
1305.267
 31
0.0
  0
LINE
  5
5D
  8
5
  6
CONTINUOUS
 10
965.4326
 20
1336.673
 30
0.0
 11
963.9227
 21
1324.886
 31
0.0
  0
LINE
  5
5E
  8
5
  6
CONTINUOUS
 10
967.6809
 20
1354.224
 30
0.0
 11
969.9034
 21
1371.573
 31
0.0
  0
LINE
  5
5F
  8
5
  6
CONTINUOUS
 10
979.218
 20
1412.391
 30
0.0
 11
981.2288
 21
1469.973
 31
0.0
  0
LINE
  5
60
  8
5
  6
CONTINUOUS
 10
965.4326
 20
1107.273
 30
0.0
 11
963.9227
 21
1119.06
 31
0.0
  0
LINE
  5
61
  8
5
  6
CONTINUOUS
 10
969.9034
 20
1072.373
 30
0.0
 11
967.6809
 21
1089.723
 31
0.0
  0
LINE
  5
62
  8
5
  6
CONTINUOUS
 10
967.6744
 20
1089.773
 30
0.0
 11
965.4326
 21
1107.273
 31
0.0
  0
LINE
  5
63
  8
5
  6
CONTINUOUS
 10
1542.403
 20
1100.92
 30
0.0
 11
1542.403
 21
1343.027
 31
0.0
  0
LINE
  5
64
  8
5
  6
CONTINUOUS
 10
1542.403
 20
1100.92
 30
0.0
 11
1542.403
 21
989.4733
 31
0.0
  0
LINE
  5
65
  8
5
  6
CONTINUOUS
 10
1542.403
 20
1454.473
 30
0.0
 11
1542.403
 21
1343.027
 31
0.0
  0
LINE
  5
66
  8
5
  6
CONTINUOUS
 10
1615.403
 20
1361.973
 30
0.0
 11
1615.403
 21
1081.973
 31
0.0
  0
LINE
  5
67
  8
5
  6
CONTINUOUS
 10
1473.903
 20
1457.473
 30
0.0
 11
1413.403
 21
1457.473
 31
0.0
  0
LINE
  5
68
  8
5
  6
CONTINUOUS
 10
1473.903
 20
1454.473
 30
0.0
 11
1542.403
 21
1454.473
 31
0.0
  0
LINE
  5
69
  8
5
  6
CONTINUOUS
 10
1473.903
 20
989.4733
 30
0.0
 11
1542.403
 21
989.4733
 31
0.0
  0
LINE
  5
6A
  8
5
  6
CONTINUOUS
 10
1473.903
 20
1099.677
 30
0.0
 11
1473.903
 21
986.4733
 31
0.0
  0
LINE
  5
6B
  8
5
  6
CONTINUOUS
 10
1473.903
 20
1457.473
 30
0.0
 11
1473.903
 21
1344.269
 31
0.0
  0
LINE
  5
6C
  8
5
  6
CONTINUOUS
 10
1473.903
 20
1099.677
 30
0.0
 11
1473.903
 21
1344.269
 31
0.0
  0
LINE
  5
6D
  8
5
  6
CONTINUOUS
 10
1413.403
 20
1344.269
 30
0.0
 11
1413.403
 21
1099.677
 31
0.0
  0
LINE
  5
6E
  8
5
  6
CONTINUOUS
 10
1413.403
 20
1344.269
 30
0.0
 11
1413.403
 21
1457.473
 31
0.0
  0
LINE
  5
6F
  8
5
  6
CONTINUOUS
 10
1405.916
 20
1461.874
 30
0.0
 11
1280.781
 21
1461.874
 31
0.0
  0
LINE
  5
70
  8
5
  6
CONTINUOUS
 10
1259.424
 20
1444.624
 30
0.0
 11
1408.12
 21
1444.624
 31
0.0
  0
LINE
  5
71
  8
5
  6
CONTINUOUS
 10
1408.123
 20
1444.649
 30
0.0
 11
1408.12
 21
1444.624
 31
0.0
  0
LINE
  5
72
  8
5
  6
CONTINUOUS
 10
1405.903
 20
1427.473
 30
0.0
 11
1385.684
 21
1427.473
 31
0.0
  0
LINE
  5
73
  8
5
  6
CONTINUOUS
 10
1291.123
 20
1427.473
 30
0.0
 11
1254.903
 21
1427.473
 31
0.0
  0
LINE
  5
74
  8
5
  6
CONTINUOUS
 10
1408.12
 20
1444.624
 30
0.0
 11
1405.903
 21
1427.473
 31
0.0
  0
LINE
  5
75
  8
5
  6
CONTINUOUS
 10
1408.119
 20
1089.773
 30
0.0
 11
967.6874
 21
1089.773
 31
0.0
  0
LINE
  5
76
  8
5
  6
CONTINUOUS
 10
1405.903
 20
1106.873
 30
0.0
 11
1408.119
 21
1089.773
 31
0.0
  0
LINE
  5
77
  8
5
  6
CONTINUOUS
 10
969.9035
 20
1106.873
 30
0.0
 11
1405.903
 21
1106.873
 31
0.0
  0
LINE
  5
78
  8
5
  6
CONTINUOUS
 10
967.6875
 20
1089.773
 30
0.0
 11
969.9035
 21
1106.873
 31
0.0
  0
LINE
  5
79
  8
5
  6
CONTINUOUS
 10
1408.12
 20
1354.173
 30
0.0
 11
967.6873
 21
1354.173
 31
0.0
  0
LINE
  5
7A
  8
5
  6
CONTINUOUS
 10
969.9035
 20
1336.673
 30
0.0
 11
967.6873
 21
1354.173
 31
0.0
  0
LINE
  5
7B
  8
5
  6
CONTINUOUS
 10
1405.903
 20
1336.673
 30
0.0
 11
969.9035
 21
1336.673
 31
0.0
  0
LINE
  5
7C
  8
5
  6
CONTINUOUS
 10
1408.12
 20
1354.173
 30
0.0
 11
1405.903
 21
1336.673
 31
0.0
  0
LINE
  5
7D
  8
5
  6
CONTINUOUS
 10
1405.903
 20
1336.673
 30
0.0
 11
1410.374
 21
1336.673
 31
0.0
  0
LINE
  5
7E
  8
5
  6
CONTINUOUS
 10
1705.403
 20
1405.267
 30
0.0
 11
1722.724
 21
1415.267
 31
0.0
  0
LINE
  5
80
  8
5
  6
CONTINUOUS
 10
1405.903
 20
1106.873
 30
0.0
 11
1405.903
 21
1107.273
 31
0.0
  0
LINE
  5
81
  8
5
  6
CONTINUOUS
 10
1408.593
 20
1221.973
 30
0.0
 11
1405.903
 21
1221.973
 31
0.0
  0
LINE
  5
82
  8
5
  6
CONTINUOUS
 10
1405.903
 20
1204.673
 30
0.0
 11
1405.903
 21
1221.973
 31
0.0
  0
LINE
  5
83
  8
5
  6
CONTINUOUS
 10
1405.903
 20
1204.673
 30
0.0
 11
1408.681
 21
1204.673
 31
0.0
  0
LINE
  5
84
  8
5
  6
CONTINUOUS
 10
1408.944
 20
1256.473
 30
0.0
 11
1405.903
 21
1256.473
 31
0.0
  0
LINE
  5
85
  8
5
  6
CONTINUOUS
 10
1473.903
 20
986.4733
 30
0.0
 11
1413.403
 21
986.4733
 31
0.0
  0
LINE
  5
86
  8
5
  6
CONTINUOUS
 10
1705.403
 20
1385.267
 30
0.0
 11
1722.724
 21
1395.267
 31
0.0
  0
LINE
  5
87
  8
5
  6
CONTINUOUS
 10
1405.903
 20
1239.273
 30
0.0
 11
1405.903
 21
1256.473
 31
0.0
  0
LINE
  5
88
  8
5
  6
CONTINUOUS
 10
1405.903
 20
1239.273
 30
0.0
 11
1408.681
 21
1239.273
 31
0.0
  0
LINE
  5
89
  8
5
  6
CONTINUOUS
 10
1409.834
 20
1286.373
 30
0.0
 11
1405.903
 21
1286.373
 31
0.0
  0
LINE
  5
8A
  8
5
  6
CONTINUOUS
 10
1405.903
 20
1271.473
 30
0.0
 11
1405.903
 21
1286.373
 31
0.0
  0
LINE
  5
8B
  8
5
  6
CONTINUOUS
 10
1405.903
 20
1271.473
 30
0.0
 11
1409.32
 21
1271.473
 31
0.0
  0
LINE
  5
8C
  8
5
  6
CONTINUOUS
 10
1411.458
 20
1318.373
 30
0.0
 11
1405.903
 21
1318.373
 31
0.0
  0
LINE
  5
8D
  8
5
  6
CONTINUOUS
 10
1405.903
 20
1301.373
 30
0.0
 11
1405.903
 21
1318.373
 31
0.0
  0
LINE
  5
8E
  8
5
  6
CONTINUOUS
 10
1405.903
 20
1301.373
 30
0.0
 11
1410.502
 21
1301.373
 31
0.0
  0
LINE
  5
8F
  8
5
  6
CONTINUOUS
 10
1705.403
 20
1365.267
 30
0.0
 11
1722.724
 21
1375.267
 31
0.0
  0
LINE
  5
90
  8
5
  6
CONTINUOUS
 10
1413.403
 20
986.4733
 30
0.0
 11
1413.403
 21
1099.677
 31
0.0
  0
LINE
  5
91
  8
5
  6
CONTINUOUS
 10
1705.403
 20
1345.267
 30
0.0
 11
1722.724
 21
1355.267
 31
0.0
  0
LINE
  5
92
  8
5
  6
CONTINUOUS
 10
1705.403
 20
1325.267
 30
0.0
 11
1722.724
 21
1335.267
 31
0.0
  0
LINE
  5
93
  8
5
  6
CONTINUOUS
 10
1408.944
 20
1187.473
 30
0.0
 11
1405.903
 21
1187.473
 31
0.0
  0
LINE
  5
94
  8
5
  6
CONTINUOUS
 10
1405.903
 20
1172.573
 30
0.0
 11
1405.903
 21
1187.473
 31
0.0
  0
LINE
  5
95
  8
5
  6
CONTINUOUS
 10
1405.903
 20
1172.573
 30
0.0
 11
1409.317
 21
1172.573
 31
0.0
  0
LINE
  5
96
  8
5
  6
CONTINUOUS
 10
1409.834
 20
1157.573
 30
0.0
 11
1405.903
 21
1157.573
 31
0.0
  0
LINE
  5
97
  8
5
  6
CONTINUOUS
 10
1405.903
 20
1142.573
 30
0.0
 11
1405.903
 21
1157.573
 31
0.0
  0
LINE
  5
98
  8
5
  6
CONTINUOUS
 10
1405.903
 20
1142.573
 30
0.0
 11
1410.502
 21
1142.573
 31
0.0
  0
LINE
  5
99
  8
5
  6
CONTINUOUS
 10
1411.458
 20
1125.573
 30
0.0
 11
1405.903
 21
1125.573
 31
0.0
  0
LINE
  5
9A
  8
5
  6
CONTINUOUS
 10
1405.903
 20
1107.273
 30
0.0
 11
1405.903
 21
1125.573
 31
0.0
  0
LINE
  5
9B
  8
5
  6
CONTINUOUS
 10
1405.903
 20
1187.473
 30
0.0
 11
1405.903
 21
1204.673
 31
0.0
  0
LINE
  5
9C
  8
5
  6
CONTINUOUS
 10
1405.903
 20
1221.973
 30
0.0
 11
1405.903
 21
1239.273
 31
0.0
  0
LINE
  5
9D
  8
5
  6
CONTINUOUS
 10
1405.903
 20
1256.473
 30
0.0
 11
1405.903
 21
1271.473
 31
0.0
  0
LINE
  5
9E
  8
5
  6
CONTINUOUS
 10
1405.903
 20
1286.373
 30
0.0
 11
1405.903
 21
1301.373
 31
0.0
  0
LINE
  5
9F
  8
5
  6
CONTINUOUS
 10
1405.903
 20
1318.373
 30
0.0
 11
1405.903
 21
1336.673
 31
0.0
  0
LINE
  5
A0
  8
5
  6
CONTINUOUS
 10
1405.903
 20
1157.573
 30
0.0
 11
1405.903
 21
1172.573
 31
0.0
  0
LINE
  5
A1
  8
5
  6
CONTINUOUS
 10
1405.903
 20
1125.573
 30
0.0
 11
1405.903
 21
1142.573
 31
0.0
  0
LINE
  5
A2
  8
5
  6
CONTINUOUS
 10
965.4326
 20
1336.673
 30
0.0
 11
969.9035
 21
1336.673
 31
0.0
  0
LINE
  5
A4
  8
5
  6
CONTINUOUS
 10
969.9035
 20
1107.273
 30
0.0
 11
969.9035
 21
1106.873
 31
0.0
  0
LINE
  5
A5
  8
5
  6
CONTINUOUS
 10
967.1257
 20
1204.673
 30
0.0
 11
969.9035
 21
1204.673
 31
0.0
  0
LINE
  5
A6
  8
5
  6
CONTINUOUS
 10
969.9035
 20
1221.973
 30
0.0
 11
969.9035
 21
1204.673
 31
0.0
  0
LINE
  5
A7
  8
5
  6
CONTINUOUS
 10
969.9035
 20
1221.973
 30
0.0
 11
967.2134
 21
1221.973
 31
0.0
  0
LINE
  5
A8
  8
5
  6
CONTINUOUS
 10
967.1257
 20
1239.273
 30
0.0
 11
969.9035
 21
1239.273
 31
0.0
  0
LINE
  5
A9
  8
5
  6
CONTINUOUS
 10
969.9035
 20
1256.473
 30
0.0
 11
969.9035
 21
1239.273
 31
0.0
  0
LINE
  5
AA
  8
5
  6
CONTINUOUS
 10
969.9035
 20
1256.473
 30
0.0
 11
966.863
 21
1256.473
 31
0.0
  0
LINE
  5
AB
  8
5
  6
CONTINUOUS
 10
966.4873
 20
1271.473
 30
0.0
 11
969.9035
 21
1271.473
 31
0.0
  0
LINE
  5
AC
  8
5
  6
CONTINUOUS
 10
969.9035
 20
1286.373
 30
0.0
 11
969.9035
 21
1271.473
 31
0.0
  0
LINE
  5
AD
  8
5
  6
CONTINUOUS
 10
969.9035
 20
1286.373
 30
0.0
 11
965.973
 21
1286.373
 31
0.0
  0
LINE
  5
AE
  8
5
  6
CONTINUOUS
 10
965.3044
 20
1301.373
 30
0.0
 11
969.9035
 21
1301.373
 31
0.0
  0
LINE
  5
AF
  8
5
  6
CONTINUOUS
 10
969.9035
 20
1318.373
 30
0.0
 11
969.9035
 21
1301.373
 31
0.0
  0
LINE
  5
B0
  8
5
  6
CONTINUOUS
 10
969.9035
 20
1318.373
 30
0.0
 11
964.3491
 21
1318.373
 31
0.0
  0
LINE
  5
B1
  8
5
  6
CONTINUOUS
 10
966.4902
 20
1172.573
 30
0.0
 11
969.9035
 21
1172.573
 31
0.0
  0
LINE
  5
B2
  8
5
  6
CONTINUOUS
 10
969.9035
 20
1187.473
 30
0.0
 11
969.9035
 21
1172.573
 31
0.0
  0
LINE
  5
B3
  8
5
  6
CONTINUOUS
 10
969.9035
 20
1187.473
 30
0.0
 11
966.863
 21
1187.473
 31
0.0
  0
LINE
  5
B4
  8
5
  6
CONTINUOUS
 10
1097.576
 20
1062.033
 30
0.0
 11
1096.559
 21
1041.463
 31
0.0
  0
LINE
  5
B5
  8
5
  6
CONTINUOUS
 10
1097.576
 20
1062.033
 30
0.0
 11
1413.404
 21
1062.033
 31
0.0
  0
LINE
  5
B6
  8
5
  6
CONTINUOUS
 10
1028.403
 20
1062.033
 30
0.0
 11
1064.404
 21
1062.033
 31
0.0
  0
LINE
  5
B7
  8
5
  6
CONTINUOUS
 10
983.9035
 20
1062.033
 30
0.0
 11
995.2307
 21
1062.033
 31
0.0
  0
LINE
  5
B8
  8
5
  6
CONTINUOUS
 10
983.9035
 20
1062.033
 30
0.0
 11
983.9035
 21
1016.473
 31
0.0
  0
LINE
  5
B9
  8
5
  6
CONTINUOUS
 10
983.9035
 20
1016.473
 30
0.0
 11
999.1233
 21
1016.473
 31
0.0
  0
LINE
  5
BA
  8
5
  6
CONTINUOUS
 10
1093.684
 20
1016.473
 30
0.0
 11
1413.404
 21
1016.473
 31
0.0
  0
LINE
  5
BB
  8
5
  6
CONTINUOUS
 10
898.4035
 20
1005.47
 30
0.0
 11
955.9034
 21
1003.462
 31
0.0
  0
LINE
  5
BC
  8
5
  6
CONTINUOUS
 10
955.9034
 20
1440.484
 30
0.0
 11
898.4035
 21
1438.476
 31
0.0
  0
LINE
  5
BD
  8
5
  6
CONTINUOUS
 10
979.4326
 20
1016.873
 30
0.0
 11
979.4326
 21
1035.412
 31
0.0
  0
LINE
  5
BE
  8
5
  6
CONTINUOUS
 10
1221.578
 20
1469.973
 30
0.0
 11
1223.589
 21
1412.391
 31
0.0
  0
LINE
  5
BF
  8
5
  6
CONTINUOUS
 10
981.6743
 20
1047.376
 30
0.0
 11
981.6743
 21
999.3734
 31
0.0
  0
LINE
  5
C0
  8
5
  6
CONTINUOUS
 10
981.6809
 20
999.3227
 30
0.0
 11
983.9035
 21
1016.473
 31
0.0
  0
LINE
  5
C1
  8
5
  6
CONTINUOUS
 10
981.6873
 20
999.2727
 30
0.0
 11
1413.404
 21
999.2726
 31
0.0
  0
LINE
  5
C2
  8
5
  6
CONTINUOUS
 10
1093.02
 20
1010.702
 30
0.0
 11
1075.903
 21
1001.002
 31
0.0
  0
LINE
  5
C3
  8
5
  6
CONTINUOUS
 10
1075.903
 20
1001.002
 30
0.0
 11
1016.903
 21
1001.002
 31
0.0
  0
LINE
  5
C4
  8
5
  6
CONTINUOUS
 10
1016.903
 20
1001.002
 30
0.0
 11
999.7873
 21
1010.702
 31
0.0
  0
LINE
  5
C5
  8
5
  6
CONTINUOUS
 10
1075.903
 20
1001.002
 30
0.0
 11
1075.903
 21
1018.68
 31
0.0
  0
LINE
  5
C6
  8
5
  6
CONTINUOUS
 10
1016.903
 20
1018.68
 30
0.0
 11
1016.903
 21
1001.002
 31
0.0
  0
LINE
  5
C7
  8
5
  6
CONTINUOUS
 10
880.4033
 20
1446.973
 30
0.0
 11
875.4034
 21
1446.973
 31
0.0
  0
LINE
  5
C8
  8
5
  6
CONTINUOUS
 10
965.3044
 20
1142.573
 30
0.0
 11
969.9035
 21
1142.573
 31
0.0
  0
LINE
  5
C9
  8
5
  6
CONTINUOUS
 10
875.4033
 20
996.9734
 30
0.0
 11
880.4033
 21
996.9734
 31
0.0
  0
LINE
  5
CA
  8
5
  6
CONTINUOUS
 10
898.4034
 20
1496.973
 30
0.0
 11
880.4034
 21
1496.973
 31
0.0
  0
LINE
  5
CB
  8
5
  6
CONTINUOUS
 10
880.4033
 20
946.9733
 30
0.0
 11
898.4035
 21
946.9733
 31
0.0
  0
LINE
  5
CC
  8
5
  6
CONTINUOUS
 10
870.4033
 20
1251.973
 30
0.0
 11
870.4034
 21
1255.973
 31
0.0
  0
LINE
  5
CD
  8
5
  6
CONTINUOUS
 10
861.4034
 20
1250.592
 30
0.0
 11
759.4034
 21
1250.592
 31
0.0
  0
LINE
  5
CE
  8
5
  6
CONTINUOUS
 10
750.4034
 20
1255.973
 30
0.0
 11
750.4032
 21
1251.973
 31
0.0
  0
LINE
  5
CF
  8
5
  6
CONTINUOUS
 10
969.9035
 20
1157.573
 30
0.0
 11
969.9035
 21
1142.573
 31
0.0
  0
LINE
  5
D0
  8
5
  6
CONTINUOUS
 10
969.9035
 20
1157.573
 30
0.0
 11
965.973
 21
1157.573
 31
0.0
  0
LINE
  5
D1
  8
5
  6
CONTINUOUS
 10
969.9035
 20
1125.573
 30
0.0
 11
969.9035
 21
1107.273
 31
0.0
  0
LINE
  5
D2
  8
5
  6
CONTINUOUS
 10
969.9035
 20
1125.573
 30
0.0
 11
964.3491
 21
1125.573
 31
0.0
  0
LINE
  5
D3
  8
5
  6
CONTINUOUS
 10
969.9035
 20
1204.673
 30
0.0
 11
969.9035
 21
1187.473
 31
0.0
  0
LINE
  5
D4
  8
5
  6
CONTINUOUS
 10
969.9035
 20
1239.273
 30
0.0
 11
969.9035
 21
1221.973
 31
0.0
  0
LINE
  5
D5
  8
5
  6
CONTINUOUS
 10
969.9035
 20
1271.473
 30
0.0
 11
969.9035
 21
1256.473
 31
0.0
  0
LINE
  5
D6
  8
5
  6
CONTINUOUS
 10
969.9035
 20
1301.373
 30
0.0
 11
969.9035
 21
1286.373
 31
0.0
  0
LINE
  5
D7
  8
5
  6
CONTINUOUS
 10
969.9035
 20
1336.673
 30
0.0
 11
969.9035
 21
1318.373
 31
0.0
  0
LINE
  5
D8
  8
5
  6
CONTINUOUS
 10
969.9035
 20
1172.573
 30
0.0
 11
969.9035
 21
1157.573
 31
0.0
  0
LINE
  5
D9
  8
5
  6
CONTINUOUS
 10
969.9035
 20
1142.573
 30
0.0
 11
969.9035
 21
1125.573
 31
0.0
  0
LINE
  5
DA
  8
5
  6
CONTINUOUS
 10
1405.903
 20
1125.573
 30
0.0
 11
969.9035
 21
1125.573
 31
0.0
  0
LINE
  5
DC
  8
5
  6
CONTINUOUS
 10
1405.903
 20
1157.573
 30
0.0
 11
969.9035
 21
1157.573
 31
0.0
  0
LINE
  5
DD
  8
5
  6
CONTINUOUS
 10
969.9035
 20
1142.573
 30
0.0
 11
1405.903
 21
1142.573
 31
0.0
  0
LINE
  5
DE
  8
5
  6
CONTINUOUS
 10
1405.903
 20
1187.473
 30
0.0
 11
969.9035
 21
1187.473
 31
0.0
  0
LINE
  5
DF
  8
5
  6
CONTINUOUS
 10
969.9035
 20
1172.573
 30
0.0
 11
1405.903
 21
1172.573
 31
0.0
  0
LINE
  5
E0
  8
5
  6
CONTINUOUS
 10
1405.903
 20
1318.373
 30
0.0
 11
969.9035
 21
1318.373
 31
0.0
  0
LINE
  5
E1
  8
5
  6
CONTINUOUS
 10
969.9035
 20
1301.373
 30
0.0
 11
1405.903
 21
1301.373
 31
0.0
  0
LINE
  5
E2
  8
5
  6
CONTINUOUS
 10
1405.903
 20
1286.373
 30
0.0
 11
969.9035
 21
1286.373
 31
0.0
  0
LINE
  5
E3
  8
5
  6
CONTINUOUS
 10
969.9035
 20
1271.473
 30
0.0
 11
1405.903
 21
1271.473
 31
0.0
  0
LINE
  5
E4
  8
5
  6
CONTINUOUS
 10
1408.132
 20
1089.773
 30
0.0
 11
1408.126
 21
1089.723
 31
0.0
  0
LINE
  5
E5
  8
5
  6
CONTINUOUS
 10
1405.903
 20
1256.473
 30
0.0
 11
969.9035
 21
1256.473
 31
0.0
  0
LINE
  5
E6
  8
5
  6
CONTINUOUS
 10
1408.126
 20
1354.224
 30
0.0
 11
1408.132
 21
1354.173
 31
0.0
  0
LINE
  5
E7
  8
5
  6
CONTINUOUS
 10
967.6744
 20
1089.773
 30
0.0
 11
967.6809
 21
1089.723
 31
0.0
  0
LINE
  5
E8
  8
5
  6
CONTINUOUS
 10
967.6809
 20
1354.224
 30
0.0
 11
967.6744
 21
1354.173
 31
0.0
  0
LINE
  5
E9
  8
5
  6
CONTINUOUS
 10
969.9035
 20
1239.273
 30
0.0
 11
1405.903
 21
1239.273
 31
0.0
  0
LINE
  5
EA
  8
5
  6
CONTINUOUS
 10
979.9034
 20
1469.973
 30
0.0
 11
979.9034
 21
1506.273
 31
0.0
  0
LINE
  5
EB
  8
5
  6
CONTINUOUS
 10
1222.903
 20
1506.273
 30
0.0
 11
1222.903
 21
1469.973
 31
0.0
  0
LINE
  5
ED
  8
5
  6
CONTINUOUS
 10
969.9035
 20
1204.673
 30
0.0
 11
1405.903
 21
1204.673
 31
0.0
  0
LINE
  5
EE
  8
5
  6
CONTINUOUS
 10
1410.349
 20
1408.411
 30
0.0
 11
1410.349
 21
1427.273
 31
0.0
  0
LINE
  5
EF
  8
5
  6
CONTINUOUS
 10
1408.12
 20
1444.624
 30
0.0
 11
1408.12
 21
1396.495
 31
0.0
  0
LINE
  5
F0
  8
5
  6
CONTINUOUS
 10
1225.403
 20
1506.273
 30
0.0
 11
977.4034
 21
1506.273
 31
0.0
  0
LINE
  5
F1
  8
5
  6
CONTINUOUS
 10
987.4034
 20
1531.773
 30
0.0
 11
1215.403
 21
1531.773
 31
0.0
  0
LINE
  5
F2
  8
5
  6
CONTINUOUS
 10
987.4034
 20
1554.773
 30
0.0
 11
946.4034
 21
1554.773
 31
0.0
  0
LINE
  5
F3
  8
5
  6
CONTINUOUS
 10
1256.403
 20
1554.773
 30
0.0
 11
1215.403
 21
1554.773
 31
0.0
  0
LINE
  5
F4
  8
5
  6
CONTINUOUS
 10
1405.903
 20
1381.913
 30
0.0
 11
1405.903
 21
1427.473
 31
0.0
  0
LINE
  5
F5
  8
5
  6
CONTINUOUS
 10
953.4034
 20
1530.273
 30
0.0
 11
977.4034
 21
1506.273
 31
0.0
  0
LINE
  5
F6
  8
5
  6
CONTINUOUS
 10
1308.903
 20
1425.267
 30
0.0
 11
1291.787
 21
1411.167
 31
0.0
  0
LINE
  5
F7
  8
5
  6
CONTINUOUS
 10
1249.403
 20
1530.273
 30
0.0
 11
1225.403
 21
1506.273
 31
0.0
  0
LINE
  5
F8
  8
5
  6
CONTINUOUS
 10
1249.403
 20
1530.273
 30
0.0
 11
1249.403
 21
1554.773
 31
0.0
  0
LINE
  5
F9
  8
5
  6
CONTINUOUS
 10
953.4034
 20
1530.273
 30
0.0
 11
953.4034
 21
1554.773
 31
0.0
  0
LINE
  5
FA
  8
5
  6
CONTINUOUS
 10
991.4035
 20
1650.773
 30
0.0
 11
1211.403
 21
1650.773
 31
0.0
  0
LINE
  5
FB
  8
5
  6
CONTINUOUS
 10
1060.398
 20
1654.973
 30
0.0
 11
1060.398
 21
1650.773
 31
0.0
  0
LINE
  5
FC
  8
5
  6
CONTINUOUS
 10
1062.498
 20
1650.773
 30
0.0
 11
1062.498
 21
1654.973
 31
0.0
  0
LINE
  5
FD
  8
5
  6
CONTINUOUS
 10
1097.519
 20
1650.773
 30
0.0
 11
1097.519
 21
1654.973
 31
0.0
  0
LINE
  5
FE
  8
5
  6
CONTINUOUS
 10
1111.298
 20
1650.773
 30
0.0
 11
1111.298
 21
1654.973
 31
0.0
  0
LINE
  5
FF
  8
5
  6
CONTINUOUS
 10
1308.903
 20
1442.944
 30
0.0
 11
1308.903
 21
1425.267
 31
0.0
  0
LINE
  5
100
  8
5
  6
CONTINUOUS
 10
750.4032
 20
1251.973
 30
0.0
 11
740.4035
 21
1251.973
 31
0.0
  0
LINE
  5
101
  8
5
  6
CONTINUOUS
 10
1113.398
 20
1650.773
 30
0.0
 11
1113.398
 21
1654.973
 31
0.0
  0
LINE
  5
102
  8
5
  6
CONTINUOUS
 10
1159.043
 20
1650.773
 30
0.0
 11
1159.043
 21
1654.973
 31
0.0
  0
LINE
  5
103
  8
5
  6
CONTINUOUS
 10
1143.165
 20
1650.773
 30
0.0
 11
1143.165
 21
1654.973
 31
0.0
  0
LINE
  5
104
  8
5
  6
CONTINUOUS
 10
1156.943
 20
1650.773
 30
0.0
 11
1156.943
 21
1654.973
 31
0.0
  0
LINE
  5
105
  8
5
  6
CONTINUOUS
 10
1036.401
 20
1654.973
 30
0.0
 11
1045.263
 21
1654.973
 31
0.0
  0
LINE
  5
106
  8
5
  6
CONTINUOUS
 10
1045.263
 20
1654.973
 30
0.0
 11
1048.954
 21
1654.973
 31
0.0
  0
LINE
  5
107
  8
5
  6
CONTINUOUS
 10
1048.954
 20
1654.973
 30
0.0
 11
1060.398
 21
1654.973
 31
0.0
  0
LINE
  5
108
  8
5
  6
CONTINUOUS
 10
1062.498
 20
1654.973
 30
0.0
 11
1073.891
 21
1654.973
 31
0.0
  0
LINE
  5
109
  8
5
  6
CONTINUOUS
 10
1073.891
 20
1654.973
 30
0.0
 11
1077.731
 21
1654.973
 31
0.0
  0
LINE
  5
10A
  8
5
  6
CONTINUOUS
 10
1077.731
 20
1654.973
 30
0.0
 11
1087.232
 21
1654.973
 31
0.0
  0
LINE
  5
10B
  8
5
  6
CONTINUOUS
 10
1097.519
 20
1654.973
 30
0.0
 11
1111.298
 21
1654.973
 31
0.0
  0
LINE
  5
10C
  8
5
  6
CONTINUOUS
 10
1113.398
 20
1654.973
 30
0.0
 11
1118.2
 21
1654.973
 31
0.0
  0
LINE
  5
10D
  8
5
  6
CONTINUOUS
 10
995.2373
 20
1469.973
 30
0.0
 11
992.9165
 21
1403.511
 31
0.0
  0
LINE
  5
10E
  8
5
  6
CONTINUOUS
 10
1118.2
 20
1654.973
 30
0.0
 11
1133.028
 21
1654.973
 31
0.0
  0
LINE
  5
10F
  8
5
  6
CONTINUOUS
 10
1159.043
 20
1654.973
 30
0.0
 11
1163.845
 21
1654.973
 31
0.0
  0
LINE
  5
110
  8
5
  6
CONTINUOUS
 10
1163.845
 20
1654.973
 30
0.0
 11
1178.673
 21
1654.973
 31
0.0
  0
LINE
  5
111
  8
5
  6
CONTINUOUS
 10
1291.787
 20
1433.244
 30
0.0
 11
1308.903
 21
1442.944
 31
0.0
  0
LINE
  5
112
  8
5
  6
CONTINUOUS
 10
1143.165
 20
1654.973
 30
0.0
 11
1156.943
 21
1654.973
 31
0.0
  0
LINE
  5
113
  8
5
  6
CONTINUOUS
 10
1291.787
 20
1411.167
 30
0.0
 11
1291.787
 21
1433.244
 31
0.0
  0
LINE
  5
114
  8
5
  6
CONTINUOUS
 10
1367.903
 20
1442.944
 30
0.0
 11
1385.02
 21
1433.244
 31
0.0
  0
LINE
  5
115
  8
5
  6
CONTINUOUS
 10
1367.903
 20
1425.267
 30
0.0
 11
1367.903
 21
1442.944
 31
0.0
  0
LINE
  5
116
  8
5
  6
CONTINUOUS
 10
1385.02
 20
1411.167
 30
0.0
 11
1367.903
 21
1425.267
 31
0.0
  0
LINE
  5
117
  8
5
  6
CONTINUOUS
 10
1260.903
 20
1576.773
 30
0.0
 11
1260.903
 21
1599.773
 31
0.0
  0
LINE
  5
118
  8
5
  6
CONTINUOUS
 10
1385.02
 20
1433.244
 30
0.0
 11
1385.02
 21
1411.167
 31
0.0
  0
LINE
  5
119
  8
5
  6
CONTINUOUS
 10
1320.403
 20
1391.697
 30
0.0
 11
1328.404
 21
1398.764
 31
0.0
  0
LINE
  5
11A
  8
5
  6
CONTINUOUS
 10
941.9034
 20
1599.773
 30
0.0
 11
941.9034
 21
1576.773
 31
0.0
  0
LINE
  5
11B
  8
5
  6
CONTINUOUS
 10
1211.403
 20
1650.773
 30
0.0
 11
1260.903
 21
1599.773
 31
0.0
  0
LINE
  5
11C
  8
5
  6
CONTINUOUS
 10
941.9034
 20
1599.773
 30
0.0
 11
991.4035
 21
1650.773
 31
0.0
  0
LINE
  5
11D
  8
5
  6
CONTINUOUS
 10
1260.903
 20
1599.773
 30
0.0
 11
1214.903
 21
1599.773
 31
0.0
  0
LINE
  5
11E
  8
5
  6
CONTINUOUS
 10
1348.403
 20
1398.764
 30
0.0
 11
1356.403
 21
1391.697
 31
0.0
  0
LINE
  5
11F
  8
5
  6
CONTINUOUS
 10
1328.404
 20
1398.764
 30
0.0
 11
1348.403
 21
1398.764
 31
0.0
  0
LINE
  5
120
  8
5
  6
CONTINUOUS
 10
1367.903
 20
1425.267
 30
0.0
 11
1308.903
 21
1425.267
 31
0.0
  0
LINE
  5
121
  8
5
  6
CONTINUOUS
 10
1308.903
 20
1442.944
 30
0.0
 11
1367.903
 21
1442.944
 31
0.0
  0
LINE
  5
122
  8
5
  6
CONTINUOUS
 10
1320.403
 20
1381.913
 30
0.0
 11
1356.403
 21
1381.913
 31
0.0
  0
LINE
  5
123
  8
5
  6
CONTINUOUS
 10
1254.903
 20
1381.913
 30
0.0
 11
1287.231
 21
1381.913
 31
0.0
  0
LINE
  5
124
  8
5
  6
CONTINUOUS
 10
1209.89
 20
1403.511
 30
0.0
 11
992.9165
 21
1403.511
 31
0.0
  0
LINE
  5
125
  8
5
  6
CONTINUOUS
 10
1389.576
 20
1381.913
 30
0.0
 11
1405.903
 21
1381.913
 31
0.0
  0
LINE
  5
126
  8
5
  6
CONTINUOUS
 10
1388.559
 20
1402.483
 30
0.0
 11
1389.576
 21
1381.913
 31
0.0
  0
LINE
  5
127
  8
5
  6
CONTINUOUS
 10
1287.231
 20
1381.913
 30
0.0
 11
1288.248
 21
1402.483
 31
0.0
  0
LINE
  5
128
  8
5
  6
CONTINUOUS
 10
1291.787
 20
1411.167
 30
0.0
 11
1288.653
 21
1371.573
 31
0.0
  0
LINE
  5
129
  8
5
  6
CONTINUOUS
 10
1288.248
 20
1402.483
 30
0.0
 11
1291.787
 21
1433.244
 31
0.0
  0
LINE
  5
12A
  8
5
  6
CONTINUOUS
 10
1388.559
 20
1402.483
 30
0.0
 11
1385.02
 21
1433.244
 31
0.0
  0
LINE
  5
12B
  8
5
  6
CONTINUOUS
 10
1385.02
 20
1411.167
 30
0.0
 11
1388.153
 21
1371.573
 31
0.0
  0
LINE
  5
12C
  8
5
  6
CONTINUOUS
 10
1320.403
 20
1371.573
 30
0.0
 11
1320.403
 21
1391.697
 31
0.0
  0
LINE
  5
12D
  8
5
  6
CONTINUOUS
 10
1356.403
 20
1391.697
 30
0.0
 11
1356.403
 21
1371.573
 31
0.0
  0
LINE
  5
12E
  8
5
  6
CONTINUOUS
 10
1606.403
 20
1081.973
 30
0.0
 11
1542.403
 21
998.4734
 31
0.0
  0
LINE
  5
12F
  8
5
  6
CONTINUOUS
 10
1606.403
 20
1361.973
 30
0.0
 11
1542.403
 21
1445.473
 31
0.0
  0
LINE
  5
130
  8
5
  6
CONTINUOUS
 10
1606.403
 20
1361.973
 30
0.0
 11
1606.403
 21
1081.973
 31
0.0
  0
LINE
  5
131
  8
5
  6
CONTINUOUS
 10
1615.403
 20
1081.973
 30
0.0
 11
1606.403
 21
1081.973
 31
0.0
  0
LINE
  5
132
  8
5
  6
CONTINUOUS
 10
1615.403
 20
1361.973
 30
0.0
 11
1606.403
 21
1361.973
 31
0.0
  0
LINE
  5
133
  8
5
  6
CONTINUOUS
 10
1413.403
 20
1099.677
 30
0.0
 11
1473.903
 21
1099.677
 31
0.0
  0
LINE
  5
134
  8
5
  6
CONTINUOUS
 10
1473.903
 20
1344.269
 30
0.0
 11
1413.403
 21
1344.269
 31
0.0
  0
LINE
  5
135
  8
5
  6
CONTINUOUS
 10
1542.403
 20
1343.027
 30
0.0
 11
1473.903
 21
1343.027
 31
0.0
  0
LINE
  5
136
  8
5
  6
CONTINUOUS
 10
1473.903
 20
1100.92
 30
0.0
 11
1542.403
 21
1100.92
 31
0.0
  0
LINE
  5
137
  8
5
  6
CONTINUOUS
 10
987.9034
 20
1599.773
 30
0.0
 11
941.9034
 21
1599.773
 31
0.0
  0
LINE
  5
138
  8
5
  6
CONTINUOUS
 10
987.9034
 20
1631.273
 30
0.0
 11
1214.903
 21
1631.273
 31
0.0
  0
LINE
  5
13A
  8
5
  6
CONTINUOUS
 10
987.4034
 20
1579.773
 30
0.0
 11
987.4034
 21
1531.773
 31
0.0
  0
LINE
  5
13B
  8
6
  6
CENTER
 10
2093.262
 20
941.9733
 30
0.0
 11
2093.262
 21
1501.973
 31
0.0
  0
LINE
  5
13C
  8
6
  6
CENTER
 10
1813.262
 20
1221.973
 30
0.0
 11
2373.262
 21
1221.973
 31
0.0
  0
LINE
  5
13D
  8
5
  6
CONTINUOUS
 10
1215.403
 20
1531.773
 30
0.0
 11
1215.403
 21
1579.773
 31
0.0
  0
LINE
  5
13E
  8
5
  6
CONTINUOUS
 10
1256.403
 20
1554.773
 30
0.0
 11
1256.403
 21
1576.773
 31
0.0
  0
LINE
  5
13F
  8
5
  6
CONTINUOUS
 10
946.4034
 20
1554.773
 30
0.0
 11
946.4034
 21
1576.773
 31
0.0
  0
LINE
  5
140
  8
5
  6
CONTINUOUS
 10
987.9034
 20
1631.273
 30
0.0
 11
987.9034
 21
1579.773
 31
0.0
  0
LINE
  5
141
  8
5
  6
CONTINUOUS
 10
1214.903
 20
1579.773
 30
0.0
 11
1214.903
 21
1631.273
 31
0.0
  0
LINE
  5
142
  8
5
  6
CONTINUOUS
 10
941.9034
 20
1576.773
 30
0.0
 11
987.4034
 21
1576.773
 31
0.0
  0
LINE
  5
143
  8
5
  6
CONTINUOUS
 10
1215.403
 20
1576.773
 30
0.0
 11
1260.903
 21
1576.773
 31
0.0
  0
LINE
  5
144
  8
5
  6
CONTINUOUS
 10
1222.903
 20
1469.973
 30
0.0
 11
1207.903
 21
1469.973
 31
0.0
  0
LINE
  5
145
  8
5
  6
CONTINUOUS
 10
994.9034
 20
1469.973
 30
0.0
 11
1207.903
 21
1469.973
 31
0.0
  0
LINE
  5
146
  8
5
  6
CONTINUOUS
 10
994.9034
 20
1469.973
 30
0.0
 11
979.9034
 21
1469.973
 31
0.0
  0
LINE
  5
147
  8
5
  6
CONTINUOUS
 10
994.9035
 20
1506.273
 30
0.0
 11
994.9034
 21
1469.973
 31
0.0
  0
LINE
  5
148
  8
5
  6
CONTINUOUS
 10
1207.903
 20
1469.973
 30
0.0
 11
1207.903
 21
1506.273
 31
0.0
  0
LINE
  5
149
  8
5
  6
CONTINUOUS
 10
953.4034
 20
1530.273
 30
0.0
 11
1249.403
 21
1530.273
 31
0.0
  0
LINE
  5
14A
  8
5
  6
CONTINUOUS
 10
1036.401
 20
1650.773
 30
0.0
 11
1036.401
 21
1654.973
 31
0.0
  0
LINE
  5
14B
  8
7
  6
DASHED
 10
2344.262
 20
1112.473
 30
0.0
 11
2344.262
 21
1115.473
 31
0.0
  0
LINE
  5
14C
  8
5
  6
CONTINUOUS
 10
2386.262
 20
1477.623
 30
0.0
 11
2386.262
 21
1597.623
 31
0.0
  0
LINE
  5
14D
  8
7
  6
DASHED
 10
2255.648
 20
1112.473
 30
0.0
 11
2344.262
 21
1112.473
 31
0.0
  0
LINE
  5
14E
  8
7
  6
DASHED
 10
2257.631
 20
1115.473
 30
0.0
 11
2344.262
 21
1115.473
 31
0.0
  0
LINE
  5
14F
  8
5
  6
CONTINUOUS
 10
1045.263
 20
1650.773
 30
0.0
 11
1045.263
 21
1654.973
 31
0.0
  0
LINE
  5
150
  8
5
  6
CONTINUOUS
 10
1048.954
 20
1650.773
 30
0.0
 11
1048.954
 21
1654.973
 31
0.0
  0
LINE
  5
151
  8
5
  6
CONTINUOUS
 10
1073.891
 20
1650.773
 30
0.0
 11
1073.891
 21
1654.973
 31
0.0
  0
LINE
  5
152
  8
5
  6
CONTINUOUS
 10
1077.731
 20
1650.773
 30
0.0
 11
1077.731
 21
1654.973
 31
0.0
  0
LINE
  5
153
  8
5
  6
CONTINUOUS
 10
1087.232
 20
1650.773
 30
0.0
 11
1087.232
 21
1654.973
 31
0.0
  0
LINE
  5
154
  8
5
  6
CONTINUOUS
 10
875.4034
 20
1251.973
 30
0.0
 11
870.4033
 21
1251.973
 31
0.0
  0
LINE
  5
155
  8
5
  6
CONTINUOUS
 10
740.4035
 20
1191.973
 30
0.0
 11
875.4034
 21
1191.973
 31
0.0
  0
ARC
  5
156
  8
5
  6
CONTINUOUS
 10
861.4034
 20
410.3372
 30
0.0
 40
9.0
 50
270.0
 51
90.0
  0
LINE
  5
157
  8
5
  6
CONTINUOUS
 10
2386.262
 20
1577.623
 30
0.0
 11
2403.582
 21
1587.623
 31
0.0
  0
LINE
  5
158
  8
5
  6
CONTINUOUS
 10
2386.262
 20
1557.967
 30
0.0
 11
2403.582
 21
1567.967
 31
0.0
  0
LINE
  5
159
  8
5
  6
CONTINUOUS
 10
2386.262
 20
1537.967
 30
0.0
 11
2403.582
 21
1547.967
 31
0.0
  0
LINE
  5
15A
  8
5
  6
CONTINUOUS
 10
2386.262
 20
1517.967
 30
0.0
 11
2403.582
 21
1527.967
 31
0.0
  0
LINE
  5
15B
  8
5
  6
CONTINUOUS
 10
2386.262
 20
1497.967
 30
0.0
 11
2403.582
 21
1507.967
 31
0.0
  0
LINE
  5
15C
  8
5
  6
CONTINUOUS
 10
759.4034
 20
401.3372
 30
0.0
 11
861.4034
 21
401.3372
 31
0.0
  0
ARC
  5
15D
  8
5
  6
CONTINUOUS
 10
759.4034
 20
410.3372
 30
0.0
 40
9.0
 50
90.0
 51
270.0
  0
LINE
  5
15E
  8
5
  6
CONTINUOUS
 10
861.4034
 20
419.3372
 30
0.0
 11
759.4034
 21
419.3372
 31
0.0
  0
LINE
  5
15F
  8
6
  6
CENTER
 10
379.6071
 20
993.4733
 30
0.0
 11
379.6071
 21
1450.473
 31
0.0
  0
LINE
  5
160
  8
6
  6
CENTER
 10
151.1071
 20
1221.973
 30
0.0
 11
608.1071
 21
1221.973
 31
0.0
  0
LINE
  5
161
  8
6
  6
CENTER
 10
1640.403
 20
410.3366
 30
0.0
 11
1211.403
 21
410.336878
 31
0.0
  0
LINE
  5
162
  8
5
  6
CONTINUOUS
 10
740.4034
 20
440.3372
 30
0.0
 11
740.4034
 21
380.3372
 31
0.0
  0
LINE
  5
163
  8
5
  6
CONTINUOUS
 10
740.4034
 20
380.3372
 30
0.0
 11
875.4034
 21
380.3372
 31
0.0
  0
LINE
  5
164
  8
5
  6
CONTINUOUS
 10
875.4034
 20
440.3372
 30
0.0
 11
740.4034
 21
440.3372
 31
0.0
  0
CIRCLE
  5
165
  8
5
  6
CONTINUOUS
 10
2093.262
 20
1221.973
 30
0.0
 40
30.0
  0
LINE
  5
166
  8
5
  6
CONTINUOUS
 10
2084.262
 20
1255.973
 30
0.0
 11
2102.262
 21
1255.973
 31
0.0
  0
ARC
  5
167
  8
5
  6
CONTINUOUS
 10
2093.262
 20
1221.973
 30
0.0
 40
35.0
 50
104.9005
 51
0.0
  0
ARC
  5
168
  8
5
  6
CONTINUOUS
 10
2093.262
 20
1221.973
 30
0.0
 40
34.99999
 50
0.000002
 51
103.7292
  0
LINE
  5
169
  8
5
  6
CONTINUOUS
 10
1118.2
 20
1650.773
 30
0.0
 11
1118.2
 21
1654.973
 31
0.0
  0
LINE
  5
16A
  8
5
  6
CONTINUOUS
 10
1133.028
 20
1650.773
 30
0.0
 11
1133.028
 21
1654.973
 31
0.0
  0
LINE
  5
16B
  8
5
  6
CONTINUOUS
 10
1163.846
 20
1650.773
 30
0.0
 11
1163.845
 21
1654.973
 31
0.0
  0
LINE
  5
16C
  8
5
  6
CONTINUOUS
 10
1178.673
 20
1650.773
 30
0.0
 11
1178.673
 21
1654.973
 31
0.0
  0
LINE
  5
16D
  8
5
  6
CONTINUOUS
 10
1211.403
 20
1631.273
 30
0.0
 11
1211.403
 21
1650.773
 31
0.0
  0
LINE
  5
16E
  8
5
  6
CONTINUOUS
 10
991.4035
 20
1650.773
 30
0.0
 11
991.4035
 21
1631.273
 31
0.0
  0
LINE
  5
16F
  8
5
  6
CONTINUOUS
 10
174.5604
 20
1045.182
 30
0.0
 11
174.5604
 21
1045.182
 31
0.0
  0
LINE
  5
170
  8
5
  6
CONTINUOUS
 10
584.6538
 20
1045.182
 30
0.0
 11
584.6538
 21
1045.182
 31
0.0
  0
LINE
  5
171
  8
5
  6
CONTINUOUS
 10
584.6538
 20
1398.764
 30
0.0
 11
584.6538
 21
1398.764
 31
0.0
  0
LINE
  5
172
  8
5
  6
CONTINUOUS
 10
200.5084
 20
1424.712
 30
0.0
 11
200.5084
 21
1424.712
 31
0.0
  0
LINE
  5
173
  8
5
  6
CONTINUOUS
 10
258.1071
 20
1469.973
 30
0.0
 11
258.1071
 21
1506.273
 31
0.0
  0
LINE
  5
174
  8
5
  6
CONTINUOUS
 10
174.5603
 20
1398.764
 30
0.0
 11
174.5603
 21
1398.764
 31
0.0
  0
LINE
  5
175
  8
5
  6
CONTINUOUS
 10
861.4034
 20
1255.973
 30
0.0
 11
861.4034
 21
1250.592
 31
0.0
  0
LINE
  5
176
  8
5
  6
CONTINUOUS
 10
759.4034
 20
1255.973
 30
0.0
 11
759.4034
 21
1250.592
 31
0.0
  0
LINE
  5
177
  8
5
  6
CONTINUOUS
 10
501.1071
 20
1506.273
 30
0.0
 11
501.1071
 21
1469.973
 31
0.0
  0
LINE
  5
178
  8
5
  6
CONTINUOUS
 10
955.9034
 20
1002.973
 30
0.0
 11
981.2133
 21
1002.973
 31
0.0
  0
LINE
  5
179
  8
5
  6
CONTINUOUS
 10
980.2142
 20
1440.973
 30
0.0
 11
955.9034
 21
1440.973
 31
0.0
  0
LINE
  5
17A
  8
5
  6
CONTINUOUS
 10
1254.903
 20
1440.973
 30
0.0
 11
1222.592
 21
1440.973
 31
0.0
  0
LINE
  5
17B
  8
5
  6
CONTINUOUS
 10
503.6071
 20
1506.273
 30
0.0
 11
255.6071
 21
1506.273
 31
0.0
  0
LINE
  5
17C
  8
5
  6
CONTINUOUS
 10
1413.404
 20
1440.973
 30
0.0
 11
1408.594
 21
1440.973
 31
0.0
  0
LINE
  5
17D
  8
5
  6
CONTINUOUS
 10
158.6362
 20
1018.68
 30
0.0
 11
167.1084
 21
1032.78
 31
0.0
  0
LINE
  5
17E
  8
5
  6
CONTINUOUS
 10
1209.89
 20
1403.511
 30
0.0
 11
1207.57
 21
1469.973
 31
0.0
  0
LINE
  5
17F
  8
5
  6
CONTINUOUS
 10
167.1084
 20
1032.78
 30
0.0
 11
183.5841
 21
1060.2
 31
0.0
  0
LINE
  5
180
  8
5
  6
CONTINUOUS
 10
231.6071
 20
1531.773
 30
0.0
 11
187.1071
 21
1531.773
 31
0.0
  0
LINE
  5
181
  8
5
  6
CONTINUOUS
 10
231.6071
 20
1530.273
 30
0.0
 11
231.6071
 21
1554.773
 31
0.0
  0
LINE
  5
182
  8
5
  6
CONTINUOUS
 10
534.6071
 20
1554.773
 30
0.0
 11
222.1071
 21
1554.773
 31
0.0
  0
LINE
  5
183
  8
5
  6
CONTINUOUS
 10
187.1071
 20
1531.773
 30
0.0
 11
187.1071
 21
1579.773
 31
0.0
  0
LINE
  5
184
  8
5
  6
CONTINUOUS
 10
231.6071
 20
1530.273
 30
0.0
 11
255.6071
 21
1506.273
 31
0.0
  0
LINE
  5
185
  8
5
  6
CONTINUOUS
 10
527.6071
 20
1530.273
 30
0.0
 11
503.6071
 21
1506.273
 31
0.0
  0
LINE
  5
186
  8
5
  6
CONTINUOUS
 10
527.6071
 20
1554.773
 30
0.0
 11
527.6071
 21
1530.273
 31
0.0
  0
LINE
  5
187
  8
5
  6
CONTINUOUS
 10
266.607
 20
1650.773
 30
0.0
 11
489.6107
 21
1650.769
 31
0.0
  0
LINE
  5
188
  8
5
  6
CONTINUOUS
 10
379.7704
 20
1650.773
 30
0.0
 11
379.7704
 21
1654.973
 31
0.0
  0
LINE
  5
189
  8
5
  6
CONTINUOUS
 10
404.6675
 20
1650.773
 30
0.0
 11
404.6675
 21
1654.973
 31
0.0
  0
LINE
  5
18A
  8
5
  6
CONTINUOUS
 10
351.6039
 20
1650.773
 30
0.0
 11
351.6039
 21
1654.973
 31
0.0
  0
LINE
  5
18B
  8
5
  6
CONTINUOUS
 10
377.6706
 20
1650.773
 30
0.0
 11
377.6706
 21
1654.973
 31
0.0
  0
LINE
  5
18C
  8
5
  6
CONTINUOUS
 10
351.6039
 20
1654.973
 30
0.0
 11
351.6039
 21
1654.973
 31
0.0
  0
LINE
  5
18D
  8
5
  6
CONTINUOUS
 10
379.7704
 20
1654.973
 30
0.0
 11
379.7704
 21
1654.973
 31
0.0
  0
LINE
  5
18E
  8
5
  6
CONTINUOUS
 10
351.6039
 20
1654.973
 30
0.0
 11
351.6039
 21
1654.973
 31
0.0
  0
LINE
  5
18F
  8
5
  6
CONTINUOUS
 10
379.7704
 20
1654.973
 30
0.0
 11
379.7704
 21
1654.973
 31
0.0
  0
LINE
  5
190
  8
5
  6
CONTINUOUS
 10
379.7704
 20
1654.973
 30
0.0
 11
382.3251
 21
1654.973
 31
0.0
  0
LINE
  5
191
  8
5
  6
CONTINUOUS
 10
382.3251
 20
1654.973
 30
0.0
 11
394.2284
 21
1654.973
 31
0.0
  0
LINE
  5
192
  8
5
  6
CONTINUOUS
 10
394.2284
 20
1654.973
 30
0.0
 11
404.6675
 21
1654.973
 31
0.0
  0
LINE
  5
193
  8
5
  6
CONTINUOUS
 10
351.6039
 20
1654.973
 30
0.0
 11
366.4329
 21
1654.973
 31
0.0
  0
LINE
  5
194
  8
5
  6
CONTINUOUS
 10
366.4329
 20
1654.973
 30
0.0
 11
377.6706
 21
1654.973
 31
0.0
  0
LINE
  5
195
  8
5
  6
CONTINUOUS
 10
539.1071
 20
1599.773
 30
0.0
 11
539.1071
 21
1576.773
 31
0.0
  0
LINE
  5
196
  8
5
  6
CONTINUOUS
 10
539.1071
 20
1599.773
 30
0.0
 11
489.6071
 21
1599.773
 31
0.0
  0
LINE
  5
197
  8
5
  6
CONTINUOUS
 10
489.6107
 20
1650.769
 30
0.0
 11
539.1071
 21
1599.773
 31
0.0
  0
LINE
  5
198
  8
5
  6
CONTINUOUS
 10
266.6071
 20
1599.773
 30
0.0
 11
217.1071
 21
1599.773
 31
0.0
  0
LINE
  5
199
  8
5
  6
CONTINUOUS
 10
247.6782
 20
1631.273
 30
0.0
 11
266.607
 21
1650.773
 31
0.0
  0
LINE
  5
19A
  8
5
  6
CONTINUOUS
 10
188.1071
 20
1631.273
 30
0.0
 11
251.176
 21
1631.273
 31
0.0
  0
LINE
  5
19B
  8
5
  6
CONTINUOUS
 10
187.1071
 20
1579.773
 30
0.0
 11
217.1071
 21
1579.773
 31
0.0
  0
LINE
  5
19C
  8
5
  6
CONTINUOUS
 10
222.1071
 20
1554.773
 30
0.0
 11
222.1071
 21
1576.773
 31
0.0
  0
LINE
  5
19D
  8
5
  6
CONTINUOUS
 10
534.6071
 20
1576.773
 30
0.0
 11
534.6071
 21
1554.773
 31
0.0
  0
LINE
  5
19E
  8
5
  6
CONTINUOUS
 10
188.1071
 20
1579.773
 30
0.0
 11
188.1071
 21
1631.273
 31
0.0
  0
LINE
  5
19F
  8
5
  6
CONTINUOUS
 10
217.1071
 20
1576.773
 30
0.0
 11
217.1071
 21
1599.773
 31
0.0
  0
LINE
  5
1A0
  8
5
  6
CONTINUOUS
 10
539.1071
 20
1576.773
 30
0.0
 11
217.1071
 21
1576.773
 31
0.0
  0
LINE
  5
1A1
  8
5
  6
CONTINUOUS
 10
501.1071
 20
1469.973
 30
0.0
 11
486.1071
 21
1469.973
 31
0.0
  0
LINE
  5
1A2
  8
5
  6
CONTINUOUS
 10
486.1071
 20
1469.973
 30
0.0
 11
273.1071
 21
1469.973
 31
0.0
  0
LINE
  5
1A3
  8
5
  6
CONTINUOUS
 10
273.1071
 20
1469.973
 30
0.0
 11
258.1071
 21
1469.973
 31
0.0
  0
LINE
  5
1A4
  8
5
  6
CONTINUOUS
 10
273.1071
 20
1506.273
 30
0.0
 11
273.1071
 21
1469.973
 31
0.0
  0
LINE
  5
1A5
  8
5
  6
CONTINUOUS
 10
486.1071
 20
1469.973
 30
0.0
 11
486.1071
 21
1506.273
 31
0.0
  0
LINE
  5
1A6
  8
5
  6
CONTINUOUS
 10
231.6071
 20
1530.273
 30
0.0
 11
527.6071
 21
1530.273
 31
0.0
  0
LINE
  5
1A7
  8
5
  6
CONTINUOUS
 10
382.3252
 20
1650.773
 30
0.0
 11
382.3251
 21
1654.973
 31
0.0
  0
LINE
  5
1A8
  8
5
  6
CONTINUOUS
 10
394.2283
 20
1650.773
 30
0.0
 11
394.2284
 21
1654.973
 31
0.0
  0
LINE
  5
1A9
  8
5
  6
CONTINUOUS
 10
404.6675
 20
1650.773
 30
0.0
 11
404.6675
 21
1650.773
 31
0.0
  0
LINE
  5
1AA
  8
5
  6
CONTINUOUS
 10
260.3549
 20
986.4733
 30
0.0
 11
264.9071
 21
981.9733
 31
0.0
  0
LINE
  5
1AB
  8
5
  6
CONTINUOUS
 10
494.3071
 20
981.9733
 30
0.0
 11
498.8593
 21
986.4733
 31
0.0
  0
LINE
  5
1AC
  8
5
  6
CONTINUOUS
 10
592.1058
 20
1032.78
 30
0.0
 11
575.6301
 21
1060.2
 31
0.0
  0
LINE
  5
1AD
  8
5
  6
CONTINUOUS
 10
592.1058
 20
1032.78
 30
0.0
 11
600.578
 21
1018.68
 31
0.0
  0
LINE
  5
1AE
  8
5
  6
CONTINUOUS
 10
404.6675
 20
1654.973
 30
0.0
 11
404.6675
 21
1654.973
 31
0.0
  0
LINE
  5
1AF
  8
5
  6
CONTINUOUS
 10
214.2186
 20
1029.566
 30
0.0
 11
189.1862
 21
1010.702
 31
0.0
  0
LINE
  5
1B0
  8
5
  6
CONTINUOUS
 10
189.1862
 20
1010.702
 30
0.0
 11
176.3139
 21
1001.002
 31
0.0
  0
LINE
  5
1B1
  8
5
  6
CONTINUOUS
 10
176.3139
 20
1001.002
 30
0.0
 11
158.6362
 21
1018.68
 31
0.0
  0
LINE
  5
1B2
  8
5
  6
CONTINUOUS
 10
366.4329
 20
1650.773
 30
0.0
 11
366.4329
 21
1654.973
 31
0.0
  0
LINE
  5
1B3
  8
5
  6
CONTINUOUS
 10
489.6071
 20
1599.773
 30
0.0
 11
266.6071
 21
1599.773
 31
0.0
  0
ARC
  5
1B4
  8
5
  6
CONTINUOUS
 10
148.6372
 20
1317.644
 30
0.0
 40
9.25
 50
167.4823
 51
192.5177
  0
ARC
  5
1B5
  8
5
  6
CONTINUOUS
 10
148.6372
 20
1126.302
 30
0.0
 40
9.25
 50
167.4823
 51
192.5177
  0
ARC
  5
1B6
  8
5
  6
CONTINUOUS
 10
283.9362
 20
991.0034
 30
0.0
 40
9.25
 50
257.4822
 51
282.5178
  0
ARC
  5
1B7
  8
5
  6
CONTINUOUS
 10
475.2779
 20
991.0034
 30
0.0
 40
9.25
 50
257.4822
 51
282.5178
  0
ARC
  5
1B8
  8
5
  6
CONTINUOUS
 10
610.577
 20
1126.302
 30
0.0
 40
9.25
 50
347.4822
 51
12.5178
  0
ARC
  5
1B9
  8
5
  6
CONTINUOUS
 10
610.577
 20
1317.644
 30
0.0
 40
9.25
 50
347.4822
 51
12.5178
  0
LINE
  5
1BA
  8
5
  6
CONTINUOUS
 10
128.6071
 20
1115.473
 30
0.0
 11
128.6071
 21
1112.473
 31
0.0
  0
ARC
  5
1BB
  8
5
  6
CONTINUOUS
 10
379.6071
 20
1221.973
 30
0.0
 40
275.0
 50
115.9179
 51
131.6479
  0
ARC
  5
1BC
  8
5
  6
CONTINUOUS
 10
379.6071
 20
1221.973
 30
0.0
 40
275.0
 50
138.9399
 51
221.0601
  0
ARC
  5
1BD
  8
5
  6
CONTINUOUS
 10
379.6071
 20
1221.973
 30
0.0
 40
275.0
 50
228.3521
 51
311.6479
  0
ARC
  5
1BE
  8
5
  6
CONTINUOUS
 10
379.6071
 20
1221.973
 30
0.0
 40
275.0
 50
318.9399
 51
41.0601
  0
ARC
  5
1BF
  8
5
  6
CONTINUOUS
 10
379.6071
 20
1221.973
 30
0.0
 40
275.0
 50
48.35208
 51
64.08214
  0
LINE
  5
1C0
  8
5
  6
CONTINUOUS
 10
283.2071
 20
981.9733
 30
0.0
 11
264.9071
 21
981.9733
 31
0.0
  0
LINE
  5
1C1
  8
5
  6
CONTINUOUS
 10
476.0071
 20
981.9733
 30
0.0
 11
459.0071
 21
981.9733
 31
0.0
  0
LINE
  5
1C2
  8
5
  6
CONTINUOUS
 10
444.0071
 20
981.9733
 30
0.0
 11
429.0071
 21
981.9733
 31
0.0
  0
LINE
  5
1C3
  8
5
  6
CONTINUOUS
 10
414.1071
 20
981.9733
 30
0.0
 11
396.9071
 21
981.9733
 31
0.0
  0
LINE
  5
1C4
  8
5
  6
CONTINUOUS
 10
315.2071
 20
981.9733
 30
0.0
 11
300.2071
 21
981.9733
 31
0.0
  0
LINE
  5
1C5
  8
5
  6
CONTINUOUS
 10
345.1071
 20
981.9733
 30
0.0
 11
330.2071
 21
981.9733
 31
0.0
  0
LINE
  5
1C6
  8
5
  6
CONTINUOUS
 10
379.6071
 20
981.9733
 30
0.0
 11
362.3071
 21
981.9733
 31
0.0
  0
LINE
  5
1C7
  8
5
  6
CONTINUOUS
 10
300.2071
 20
981.9733
 30
0.0
 11
283.2071
 21
981.9733
 31
0.0
  0
LINE
  5
1C8
  8
5
  6
CONTINUOUS
 10
494.3071
 20
981.9733
 30
0.0
 11
476.0071
 21
981.9733
 31
0.0
  0
LINE
  5
1C9
  8
5
  6
CONTINUOUS
 10
459.0071
 20
981.9733
 30
0.0
 11
444.0071
 21
981.9733
 31
0.0
  0
LINE
  5
1CA
  8
5
  6
CONTINUOUS
 10
429.0071
 20
981.9733
 30
0.0
 11
414.1071
 21
981.9733
 31
0.0
  0
LINE
  5
1CB
  8
5
  6
CONTINUOUS
 10
396.9071
 20
981.9733
 30
0.0
 11
379.6071
 21
981.9733
 31
0.0
  0
LINE
  5
1CC
  8
5
  6
CONTINUOUS
 10
330.2071
 20
981.9733
 30
0.0
 11
315.2071
 21
981.9733
 31
0.0
  0
LINE
  5
1CD
  8
5
  6
CONTINUOUS
 10
362.3071
 20
981.9733
 30
0.0
 11
345.1071
 21
981.9733
 31
0.0
  0
LINE
  5
1CE
  8
5
  6
CONTINUOUS
 10
489.6071
 20
1599.773
 30
0.0
 11
489.6107
 21
1650.769
 31
0.0
  0
LINE
  5
1CF
  8
5
  6
CONTINUOUS
 10
266.607
 20
1650.773
 30
0.0
 11
266.6071
 21
1599.773
 31
0.0
  0
LINE
  5
1D0
  8
5
  6
CONTINUOUS
 10
251.176
 20
1631.273
 30
0.0
 11
220.607
 21
1599.773
 31
0.0
  0
LINE
  5
1D1
  8
5
  6
CONTINUOUS
 10
987.4034
 20
217.8372
 30
0.0
 11
1215.403
 21
217.8372
 31
0.0
  0
LINE
  5
1D2
  8
5
  6
CONTINUOUS
 10
1054.603
 20
435.3938
 30
0.0
 11
1046.063
 21
410.4963
 31
0.0
  0
LINE
  5
1D3
  8
5
  6
CONTINUOUS
 10
1046.063
 20
410.4963
 30
0.0
 11
1060.397
 21
410.4968
 31
0.0
  0
LINE
  5
1D4
  8
5
  6
CONTINUOUS
 10
1060.397
 20
410.4968
 30
0.0
 11
1060.396
 21
435.394
 31
0.0
  0
LINE
  5
1D5
  8
5
  6
CONTINUOUS
 10
1060.396
 20
435.394
 30
0.0
 11
1054.603
 21
435.3938
 31
0.0
  0
LINE
  5
1D6
  8
5
  6
CONTINUOUS
 10
1060.398
 20
393.0879
 30
0.0
 11
1060.397
 21
408.3968
 31
0.0
  0
LINE
  5
1D7
  8
5
  6
CONTINUOUS
 10
600.578
 20
1018.68
 30
0.0
 11
582.9003
 21
1001.002
 31
0.0
  0
LINE
  5
1D8
  8
5
  6
CONTINUOUS
 10
582.9003
 20
1001.002
 30
0.0
 11
570.028
 21
1010.702
 31
0.0
  0
LINE
  5
1D9
  8
5
  6
CONTINUOUS
 10
544.9955
 20
1029.566
 30
0.0
 11
570.028
 21
1010.702
 31
0.0
  0
LINE
  5
1DA
  8
5
  6
CONTINUOUS
 10
1060.397
 20
408.3968
 30
0.0
 11
1045.342
 21
408.3963
 31
0.0
  0
LINE
  5
1DB
  8
5
  6
CONTINUOUS
 10
1045.342
 20
408.3963
 30
0.0
 11
1036.401
 21
382.3297
 31
0.0
  0
LINE
  5
1DC
  8
5
  6
CONTINUOUS
 10
167.1084
 20
1032.78
 30
0.0
 11
189.1862
 21
1010.702
 31
0.0
  0
LINE
  5
1DD
  8
5
  6
CONTINUOUS
 10
362.3072
 20
986.4732
 30
0.0
 11
362.3072
 21
981.9733
 31
0.0
  0
LINE
  5
1DE
  8
5
  6
CONTINUOUS
 10
379.6071
 20
981.9733
 30
0.0
 11
379.6071
 21
986.4732
 31
0.0
  0
LINE
  5
1DF
  8
5
  6
CONTINUOUS
 10
330.2072
 20
986.4732
 30
0.0
 11
330.2072
 21
981.9733
 31
0.0
  0
LINE
  5
1E0
  8
5
  6
CONTINUOUS
 10
1036.401
 20
382.3297
 30
0.0
 11
1045.263
 21
382.33
 31
0.0
  0
LINE
  5
1E1
  8
5
  6
CONTINUOUS
 10
345.1072
 20
981.9733
 30
0.0
 11
345.1072
 21
986.4732
 31
0.0
  0
LINE
  5
1E2
  8
5
  6
CONTINUOUS
 10
300.2072
 20
986.4732
 30
0.0
 11
300.2072
 21
981.9733
 31
0.0
  0
LINE
  5
1E3
  8
5
  6
CONTINUOUS
 10
315.2071
 20
981.9733
 30
0.0
 11
315.2071
 21
986.4732
 31
0.0
  0
LINE
  5
1E4
  8
5
  6
CONTINUOUS
 10
396.9072
 20
986.4732
 30
0.0
 11
396.9072
 21
981.9733
 31
0.0
  0
LINE
  5
1E5
  8
5
  6
CONTINUOUS
 10
414.1072
 20
981.9733
 30
0.0
 11
414.1072
 21
986.4732
 31
0.0
  0
LINE
  5
1E6
  8
5
  6
CONTINUOUS
 10
429.0072
 20
986.4732
 30
0.0
 11
429.0072
 21
981.9733
 31
0.0
  0
LINE
  5
1E7
  8
5
  6
CONTINUOUS
 10
444.0071
 20
981.9733
 30
0.0
 11
444.0071
 21
986.4732
 31
0.0
  0
LINE
  5
1E8
  8
5
  6
CONTINUOUS
 10
459.0072
 20
986.4732
 30
0.0
 11
459.0072
 21
981.9733
 31
0.0
  0
LINE
  5
1E9
  8
5
  6
CONTINUOUS
 10
476.0071
 20
981.9733
 30
0.0
 11
476.0071
 21
986.4732
 31
0.0
  0
LINE
  5
1EA
  8
5
  6
CONTINUOUS
 10
264.9071
 20
986.4732
 30
0.0
 11
264.9071
 21
981.9733
 31
0.0
  0
LINE
  5
1EB
  8
5
  6
CONTINUOUS
 10
1045.263
 20
382.33
 30
0.0
 11
1048.954
 21
393.0875
 31
0.0
  0
LINE
  5
1EC
  8
5
  6
CONTINUOUS
 10
1048.954
 20
393.0875
 30
0.0
 11
1060.398
 21
393.0879
 31
0.0
  0
LINE
  5
1ED
  8
5
  6
CONTINUOUS
 10
1062.497
 20
410.4968
 30
0.0
 11
1077.177
 21
410.4974
 31
0.0
  0
LINE
  5
1EE
  8
5
  6
CONTINUOUS
 10
1077.177
 20
410.4974
 30
0.0
 11
1068.289
 21
435.3943
 31
0.0
  0
LINE
  5
1EF
  8
5
  6
CONTINUOUS
 10
1068.289
 20
435.3943
 30
0.0
 11
1062.496
 21
435.3941
 31
0.0
  0
LINE
  5
1F0
  8
5
  6
CONTINUOUS
 10
1062.496
 20
435.3941
 30
0.0
 11
1062.497
 21
410.4968
 31
0.0
  0
LINE
  5
1F1
  8
5
  6
CONTINUOUS
 10
1077.927
 20
408.3974
 30
0.0
 11
1062.497
 21
408.3968
 31
0.0
  0
LINE
  5
1F2
  8
5
  6
CONTINUOUS
 10
1062.497
 20
408.3968
 30
0.0
 11
1062.498
 21
393.0879
 31
0.0
  0
LINE
  5
1F3
  8
5
  6
CONTINUOUS
 10
1062.498
 20
393.0879
 30
0.0
 11
1073.891
 21
393.0884
 31
0.0
  0
LINE
  5
1F4
  8
5
  6
CONTINUOUS
 10
1073.891
 20
393.0884
 30
0.0
 11
1077.731
 21
382.3311
 31
0.0
  0
LINE
  5
1F5
  8
5
  6
CONTINUOUS
 10
283.207
 20
981.9733
 30
0.0
 11
283.207
 21
986.4732
 31
0.0
  0
LINE
  5
1F6
  8
5
  6
CONTINUOUS
 10
1077.731
 20
382.3311
 30
0.0
 11
1087.232
 21
382.3314
 31
0.0
  0
LINE
  5
1F7
  8
5
  6
CONTINUOUS
 10
494.3071
 20
986.4732
 30
0.0
 11
494.3071
 21
981.9733
 31
0.0
  0
LINE
  5
1F8
  8
5
  6
CONTINUOUS
 10
570.028
 20
1010.702
 30
0.0
 11
592.1058
 21
1032.78
 31
0.0
  0
LINE
  5
1F9
  8
5
  6
CONTINUOUS
 10
128.6071
 20
1112.473
 30
0.0
 11
139.6071
 21
1112.473
 31
0.0
  0
LINE
  5
1FA
  8
5
  6
CONTINUOUS
 10
139.6071
 20
1115.473
 30
0.0
 11
128.6071
 21
1115.473
 31
0.0
  0
LINE
  5
1FB
  8
5
  6
CONTINUOUS
 10
1087.232
 20
382.3314
 30
0.0
 11
1077.927
 21
408.3974
 31
0.0
  0
LINE
  5
1FC
  8
5
  6
CONTINUOUS
 10
955.9034
 20
629.3372
 30
0.0
 11
955.9035
 21
569.8373
 31
0.0
  0
LINE
  5
1FD
  8
5
  6
CONTINUOUS
 10
955.9034
 20
247.8372
 30
0.0
 11
955.9034
 21
191.3372
 31
0.0
  0
LINE
  5
1FE
  8
5
  6
CONTINUOUS
 10
898.4034
 20
410.3372
 30
0.0
 11
898.4034
 21
135.3372
 31
0.0
  0
LINE
  5
1FF
  8
5
  6
CONTINUOUS
 10
1111.296
 20
435.3958
 30
0.0
 11
1097.518
 21
435.3953
 31
0.0
  0
LINE
  5
200
  8
5
  6
CONTINUOUS
 10
1097.518
 20
435.3953
 30
0.0
 11
1097.518
 21
410.498
 31
0.0
  0
LINE
  5
201
  8
5
  6
CONTINUOUS
 10
1097.518
 20
410.4981
 30
0.0
 11
1111.297
 21
410.4985
 31
0.0
  0
LINE
  5
202
  8
5
  6
CONTINUOUS
 10
1111.297
 20
410.4985
 30
0.0
 11
1111.296
 21
435.3958
 31
0.0
  0
LINE
  5
203
  8
5
  6
CONTINUOUS
 10
1111.297
 20
408.3985
 30
0.0
 11
1097.518
 21
408.3981
 31
0.0
  0
LINE
  5
204
  8
5
  6
CONTINUOUS
 10
1097.518
 20
408.3981
 30
0.0
 11
1097.519
 21
382.3318
 31
0.0
  0
LINE
  5
205
  8
5
  6
CONTINUOUS
 10
1097.519
 20
382.3318
 30
0.0
 11
1111.298
 21
382.3323
 31
0.0
  0
LINE
  5
206
  8
5
  6
CONTINUOUS
 10
1111.298
 20
382.3323
 30
0.0
 11
1111.297
 21
408.3985
 31
0.0
  0
LINE
  5
207
  8
5
  6
CONTINUOUS
 10
1127.974
 20
408.399
 30
0.0
 11
1113.397
 21
408.3985
 31
0.0
  0
LINE
  5
208
  8
5
  6
CONTINUOUS
 10
898.4034
 20
685.3372
 30
0.0
 11
898.4034
 21
410.3372
 31
0.0
  0
LINE
  5
209
  8
5
  6
CONTINUOUS
 10
880.4034
 20
410.3372
 30
0.0
 11
880.4034
 21
135.3372
 31
0.0
  0
LINE
  5
20A
  8
5
  6
CONTINUOUS
 10
880.4034
 20
685.3372
 30
0.0
 11
880.4034
 21
410.3372
 31
0.0
  0
LINE
  5
20B
  8
5
  6
CONTINUOUS
 10
904.4034
 20
159.3372
 30
0.0
 11
905.9034
 21
159.3372
 31
0.0
  0
LINE
  5
20C
  8
5
  6
CONTINUOUS
 10
902.9034
 20
159.3372
 30
0.0
 11
904.4034
 21
159.3372
 31
0.0
  0
LINE
  5
20D
  8
5
  6
CONTINUOUS
 10
875.4034
 20
410.3372
 30
0.0
 11
875.4034
 21
185.3372
 31
0.0
  0
LINE
  5
20E
  8
5
  6
CONTINUOUS
 10
875.4034
 20
635.3372
 30
0.0
 11
875.4034
 21
410.3372
 31
0.0
  0
LINE
  5
20F
  8
5
  6
CONTINUOUS
 10
544.9955
 20
1414.381
 30
0.0
 11
570.028
 21
1433.244
 31
0.0
  0
LINE
  5
210
  8
5
  6
CONTINUOUS
 10
570.028
 20
1433.244
 30
0.0
 11
582.9003
 21
1442.944
 31
0.0
  0
LINE
  5
211
  8
5
  6
CONTINUOUS
 10
600.578
 20
1425.266
 30
0.0
 11
592.1058
 21
1411.166
 31
0.0
  0
LINE
  5
212
  8
5
  6
CONTINUOUS
 10
592.1058
 20
1411.166
 30
0.0
 11
575.6301
 21
1383.746
 31
0.0
  0
LINE
  5
213
  8
5
  6
CONTINUOUS
 10
582.9003
 20
1442.944
 30
0.0
 11
600.578
 21
1425.266
 31
0.0
  0
LINE
  5
214
  8
5
  6
CONTINUOUS
 10
498.9462
 20
1457.473
 30
0.0
 11
494.4071
 21
1461.973
 31
0.0
  0
LINE
  5
215
  8
5
  6
CONTINUOUS
 10
264.7071
 20
1461.874
 30
0.0
 11
260.2679
 21
1457.473
 31
0.0
  0
LINE
  5
216
  8
5
  6
CONTINUOUS
 10
264.8071
 20
1461.973
 30
0.0
 11
264.7071
 21
1461.874
 31
0.0
  0
LINE
  5
217
  8
5
  6
CONTINUOUS
 10
475.9071
 20
1461.973
 30
0.0
 11
494.2071
 21
1461.973
 31
0.0
  0
LINE
  5
218
  8
5
  6
CONTINUOUS
 10
443.9071
 20
1461.973
 30
0.0
 11
458.9071
 21
1461.973
 31
0.0
  0
LINE
  5
219
  8
5
  6
CONTINUOUS
 10
414.0071
 20
1461.973
 30
0.0
 11
428.9071
 21
1461.973
 31
0.0
  0
LINE
  5
21A
  8
5
  6
CONTINUOUS
 10
379.5071
 20
1461.973
 30
0.0
 11
396.8071
 21
1461.973
 31
0.0
  0
LINE
  5
21B
  8
5
  6
CONTINUOUS
 10
345.0071
 20
1461.973
 30
0.0
 11
362.2071
 21
1461.973
 31
0.0
  0
LINE
  5
21C
  8
5
  6
CONTINUOUS
 10
315.1071
 20
1461.973
 30
0.0
 11
330.1071
 21
1461.973
 31
0.0
  0
LINE
  5
21D
  8
5
  6
CONTINUOUS
 10
283.1071
 20
1461.973
 30
0.0
 11
300.1071
 21
1461.973
 31
0.0
  0
LINE
  5
21E
  8
5
  6
CONTINUOUS
 10
494.2071
 20
1461.973
 30
0.0
 11
494.4071
 21
1461.973
 31
0.0
  0
LINE
  5
21F
  8
5
  6
CONTINUOUS
 10
458.9071
 20
1461.973
 30
0.0
 11
475.9071
 21
1461.973
 31
0.0
  0
LINE
  5
220
  8
5
  6
CONTINUOUS
 10
428.9071
 20
1461.973
 30
0.0
 11
443.9071
 21
1461.973
 31
0.0
  0
LINE
  5
221
  8
5
  6
CONTINUOUS
 10
396.8071
 20
1461.973
 30
0.0
 11
414.0071
 21
1461.973
 31
0.0
  0
LINE
  5
222
  8
5
  6
CONTINUOUS
 10
362.2071
 20
1461.973
 30
0.0
 11
379.5071
 21
1461.973
 31
0.0
  0
LINE
  5
223
  8
5
  6
CONTINUOUS
 10
330.1071
 20
1461.973
 30
0.0
 11
345.0071
 21
1461.973
 31
0.0
  0
LINE
  5
224
  8
5
  6
CONTINUOUS
 10
300.1071
 20
1461.973
 30
0.0
 11
315.1071
 21
1461.973
 31
0.0
  0
LINE
  5
225
  8
5
  6
CONTINUOUS
 10
264.8071
 20
1461.973
 30
0.0
 11
283.1071
 21
1461.973
 31
0.0
  0
LINE
  5
226
  8
5
  6
CONTINUOUS
 10
615.1071
 20
1102.721
 30
0.0
 11
619.6071
 21
1107.273
 31
0.0
  0
LINE
  5
227
  8
5
  6
CONTINUOUS
 10
619.6071
 20
1336.673
 30
0.0
 11
615.1071
 21
1341.225
 31
0.0
  0
LINE
  5
228
  8
5
  6
CONTINUOUS
 10
139.6071
 20
1106.873
 30
0.0
 11
144.1071
 21
1102.425
 31
0.0
  0
LINE
  5
229
  8
5
  6
CONTINUOUS
 10
144.1071
 20
1341.225
 30
0.0
 11
139.6071
 21
1336.673
 31
0.0
  0
LINE
  5
22A
  8
5
  6
CONTINUOUS
 10
619.6071
 20
1221.973
 30
0.0
 11
619.6071
 21
1204.673
 31
0.0
  0
LINE
  5
22B
  8
5
  6
CONTINUOUS
 10
955.9035
 20
628.8484
 30
0.0
 11
898.4035
 21
626.8404
 31
0.0
  0
LINE
  5
22C
  8
5
  6
CONTINUOUS
 10
898.4035
 20
193.834
 30
0.0
 11
955.9035
 21
191.8261
 31
0.0
  0
LINE
  5
22D
  8
5
  6
CONTINUOUS
 10
902.9034
 20
193.6769
 30
0.0
 11
902.9034
 21
159.3372
 31
0.0
  0
LINE
  5
22E
  8
5
  6
CONTINUOUS
 10
905.9034
 20
159.3372
 30
0.0
 11
905.9034
 21
193.5721
 31
0.0
  0
LINE
  5
22F
  8
5
  6
CONTINUOUS
 10
619.6071
 20
1256.473
 30
0.0
 11
619.6071
 21
1239.273
 31
0.0
  0
LINE
  5
230
  8
5
  6
CONTINUOUS
 10
875.4034
 20
185.3372
 30
0.0
 11
880.4035
 21
185.3372
 31
0.0
  0
LINE
  5
231
  8
5
  6
CONTINUOUS
 10
880.4035
 20
635.3371
 30
0.0
 11
875.4034
 21
635.3372
 31
0.0
  0
LINE
  5
232
  8
5
  6
CONTINUOUS
 10
619.6071
 20
1286.373
 30
0.0
 11
619.6071
 21
1271.473
 31
0.0
  0
LINE
  5
233
  8
5
  6
CONTINUOUS
 10
880.4035
 20
135.3371
 30
0.0
 11
898.4035
 21
135.3371
 31
0.0
  0
LINE
  5
234
  8
5
  6
CONTINUOUS
 10
619.6071
 20
1318.373
 30
0.0
 11
619.6071
 21
1301.373
 31
0.0
  0
LINE
  5
235
  8
5
  6
CONTINUOUS
 10
619.6071
 20
1187.473
 30
0.0
 11
619.6071
 21
1172.573
 31
0.0
  0
LINE
  5
236
  8
5
  6
CONTINUOUS
 10
898.4034
 20
685.3372
 30
0.0
 11
880.4034
 21
685.3372
 31
0.0
  0
LINE
  5
237
  8
5
  6
CONTINUOUS
 10
619.6071
 20
1157.573
 30
0.0
 11
619.6071
 21
1142.573
 31
0.0
  0
LINE
  5
238
  8
5
  6
CONTINUOUS
 10
619.6071
 20
1125.573
 30
0.0
 11
619.6071
 21
1107.273
 31
0.0
  0
LINE
  5
239
  8
5
  6
CONTINUOUS
 10
619.6071
 20
1204.673
 30
0.0
 11
619.6071
 21
1187.473
 31
0.0
  0
LINE
  5
23A
  8
5
  6
CONTINUOUS
 10
619.6071
 20
1239.273
 30
0.0
 11
619.6071
 21
1221.973
 31
0.0
  0
LINE
  5
23B
  8
5
  6
CONTINUOUS
 10
619.6071
 20
1271.473
 30
0.0
 11
619.6071
 21
1256.473
 31
0.0
  0
LINE
  5
23C
  8
5
  6
CONTINUOUS
 10
619.6071
 20
1301.373
 30
0.0
 11
619.6071
 21
1286.373
 31
0.0
  0
LINE
  5
23D
  8
5
  6
CONTINUOUS
 10
619.6071
 20
1336.673
 30
0.0
 11
619.6071
 21
1318.373
 31
0.0
  0
LINE
  5
23E
  8
5
  6
CONTINUOUS
 10
619.6071
 20
1172.573
 30
0.0
 11
619.6071
 21
1157.573
 31
0.0
  0
LINE
  5
23F
  8
5
  6
CONTINUOUS
 10
619.6071
 20
1142.573
 30
0.0
 11
619.6071
 21
1125.573
 31
0.0
  0
LINE
  5
240
  8
5
  6
CONTINUOUS
 10
139.6071
 20
1107.273
 30
0.0
 11
139.6071
 21
1125.573
 31
0.0
  0
LINE
  5
241
  8
5
  6
CONTINUOUS
 10
139.6071
 20
1142.573
 30
0.0
 11
139.6071
 21
1157.573
 31
0.0
  0
LINE
  5
242
  8
5
  6
CONTINUOUS
 10
139.6071
 20
1172.573
 30
0.0
 11
139.6071
 21
1187.473
 31
0.0
  0
LINE
  5
243
  8
5
  6
CONTINUOUS
 10
139.6071
 20
1301.373
 30
0.0
 11
139.6071
 21
1318.373
 31
0.0
  0
LINE
  5
244
  8
5
  6
CONTINUOUS
 10
139.6071
 20
1271.473
 30
0.0
 11
139.6071
 21
1286.373
 31
0.0
  0
LINE
  5
245
  8
5
  6
CONTINUOUS
 10
139.6071
 20
1239.273
 30
0.0
 11
139.6071
 21
1256.473
 31
0.0
  0
LINE
  5
246
  8
5
  6
CONTINUOUS
 10
139.6071
 20
1204.673
 30
0.0
 11
139.6071
 21
1221.973
 31
0.0
  0
LINE
  5
247
  8
5
  6
CONTINUOUS
 10
139.6071
 20
1125.573
 30
0.0
 11
139.6071
 21
1142.573
 31
0.0
  0
LINE
  5
248
  8
5
  6
CONTINUOUS
 10
139.6071
 20
1106.873
 30
0.0
 11
139.6071
 21
1107.273
 31
0.0
  0
LINE
  5
249
  8
5
  6
CONTINUOUS
 10
1413.403
 20
629.3372
 30
0.0
 11
1408.594
 21
629.3372
 31
0.0
  0
LINE
  5
24A
  8
5
  6
CONTINUOUS
 10
1408.594
 20
191.3373
 30
0.0
 11
1413.403
 21
191.3373
 31
0.0
  0
LINE
  5
24B
  8
5
  6
CONTINUOUS
 10
955.9035
 20
191.3373
 30
0.0
 11
967.2133
 21
191.3373
 31
0.0
  0
LINE
  5
24C
  8
5
  6
CONTINUOUS
 10
2305.761
 20
1032.78
 30
0.0
 11
2300.618
 21
1041.339
 31
0.0
  0
LINE
  5
24D
  8
5
  6
CONTINUOUS
 10
2305.761
 20
1032.78
 30
0.0
 11
2314.233
 21
1018.68
 31
0.0
  0
LINE
  5
24E
  8
5
  6
CONTINUOUS
 10
1872.291
 20
1018.68
 30
0.0
 11
1880.763
 21
1032.78
 31
0.0
  0
LINE
  5
24F
  8
5
  6
CONTINUOUS
 10
1880.763
 20
1032.78
 30
0.0
 11
1885.906
 21
1041.339
 31
0.0
  0
LINE
  5
250
  8
5
  6
CONTINUOUS
 10
2296.555
 20
1001.002
 30
0.0
 11
2283.683
 21
1010.702
 31
0.0
  0
LINE
  5
251
  8
5
  6
CONTINUOUS
 10
2276.014
 20
1016.482
 30
0.0
 11
2283.683
 21
1010.702
 31
0.0
  0
LINE
  5
252
  8
5
  6
CONTINUOUS
 10
2314.233
 20
1018.68
 30
0.0
 11
2296.555
 21
1001.002
 31
0.0
  0
CIRCLE
  5
253
  8
5
  6
CONTINUOUS
 10
2324.232
 20
1317.644
 30
0.0
 40
9.25
  0
CIRCLE
  5
254
  8
5
  6
CONTINUOUS
 10
2324.232
 20
1126.302
 30
0.0
 40
9.25
  0
CIRCLE
  5
255
  8
5
  6
CONTINUOUS
 10
2188.933
 20
991.0034
 30
0.0
 40
9.25
  0
CIRCLE
  5
256
  8
5
  6
CONTINUOUS
 10
1997.591
 20
991.0034
 30
0.0
 40
9.25
  0
CIRCLE
  5
257
  8
5
  6
CONTINUOUS
 10
1862.292
 20
1126.302
 30
0.0
 40
9.25
  0
CIRCLE
  5
258
  8
5
  6
CONTINUOUS
 10
1862.292
 20
1317.644
 30
0.0
 40
9.25
  0
CIRCLE
  5
259
  8
5
  6
CONTINUOUS
 10
1997.591
 20
1452.943
 30
0.0
 40
9.25
  0
CIRCLE
  5
25A
  8
5
  6
CONTINUOUS
 10
2188.933
 20
1452.943
 30
0.0
 40
9.25
  0
LINE
  5
25B
  8
5
  6
CONTINUOUS
 10
2124.262
 20
1115.473
 30
0.0
 11
2124.262
 21
1112.473
 31
0.0
  0
CIRCLE
  5
25C
  8
5
  6
CONTINUOUS
 10
2093.262
 20
1221.973
 30
0.0
 40
225.0
  0
LINE
  5
25D
  8
5
  6
CONTINUOUS
 10
1113.397
 20
408.3985
 30
0.0
 11
1113.398
 21
382.3323
 31
0.0
  0
LINE
  5
25E
  8
5
  6
CONTINUOUS
 10
1113.398
 20
382.3323
 30
0.0
 11
1118.2
 21
382.3325
 31
0.0
  0
ARC
  5
25F
  8
5
  6
CONTINUOUS
 10
1118.199
 20
397.161
 30
0.0
 40
14.82843
 50
270.002
 51
0.0019
  0
ARC
  5
260
  8
5
  6
CONTINUOUS
 10
1116.214
 20
396.355
 30
0.0
 40
16.83332
 50
2.745839
 51
45.68278
  0
CIRCLE
  5
261
  8
5
  6
CONTINUOUS
 10
2093.262
 20
1221.973
 30
0.0
 40
275.0
  0
LINE
  5
262
  8
5
  6
CONTINUOUS
 10
2067.262
 20
1156.214
 30
0.0
 11
2067.262
 21
1128.473
 31
0.0
  0
LINE
  5
263
  8
5
  6
CONTINUOUS
 10
2119.262
 20
1156.214
 30
0.0
 11
2119.262
 21
1128.473
 31
0.0
  0
LINE
  5
264
  8
5
  6
CONTINUOUS
 10
2119.262
 20
1128.473
 30
0.0
 11
2067.262
 21
1128.473
 31
0.0
  0
LINE
  5
265
  8
5
  6
CONTINUOUS
 10
1918.672
 20
1128.473
 30
0.0
 11
2067.262
 21
1128.473
 31
0.0
  0
LINE
  5
266
  8
5
  6
CONTINUOUS
 10
139.6071
 20
1157.573
 30
0.0
 11
139.6071
 21
1172.573
 31
0.0
  0
LINE
  5
267
  8
5
  6
CONTINUOUS
 10
139.6071
 20
1187.473
 30
0.0
 11
139.6071
 21
1204.673
 31
0.0
  0
LINE
  5
268
  8
5
  6
CONTINUOUS
 10
139.6071
 20
1318.373
 30
0.0
 11
139.6071
 21
1336.673
 31
0.0
  0
LINE
  5
269
  8
5
  6
CONTINUOUS
 10
139.6071
 20
1286.373
 30
0.0
 11
139.6071
 21
1301.373
 31
0.0
  0
LINE
  5
26A
  8
5
  6
CONTINUOUS
 10
139.6071
 20
1256.473
 30
0.0
 11
139.6071
 21
1271.473
 31
0.0
  0
LINE
  5
26B
  8
5
  6
CONTINUOUS
 10
139.6071
 20
1221.973
 30
0.0
 11
139.6071
 21
1239.273
 31
0.0
  0
LINE
  5
26C
  8
5
  6
CONTINUOUS
 10
2119.262
 20
1128.473
 30
0.0
 11
2267.852
 21
1128.473
 31
0.0
  0
LINE
  5
26D
  8
5
  6
CONTINUOUS
 10
2074.262
 20
1106.473
 30
0.0
 11
2112.262
 21
1106.473
 31
0.0
  0
LINE
  5
26E
  8
5
  6
CONTINUOUS
 10
2112.262
 20
1106.473
 30
0.0
 11
2129.262
 21
1106.473
 31
0.0
  0
LINE
  5
26F
  8
5
  6
CONTINUOUS
 10
2163.262
 20
1106.473
 30
0.0
 11
2180.262
 21
1106.473
 31
0.0
  0
LINE
  5
270
  8
5
  6
CONTINUOUS
 10
2040.262
 20
1106.473
 30
0.0
 11
2057.262
 21
1106.473
 31
0.0
  0
LINE
  5
271
  8
5
  6
CONTINUOUS
 10
2006.262
 20
1106.473
 30
0.0
 11
2023.262
 21
1106.473
 31
0.0
  0
LINE
  5
272
  8
5
  6
CONTINUOUS
 10
2180.262
 20
1106.473
 30
0.0
 11
2254.146
 21
1106.473
 31
0.0
  0
LINE
  5
273
  8
5
  6
CONTINUOUS
 10
1932.378
 20
1106.473
 30
0.0
 11
2006.262
 21
1106.473
 31
0.0
  0
LINE
  5
274
  8
5
  6
CONTINUOUS
 10
2146.262
 20
1106.473
 30
0.0
 11
2163.262
 21
1106.473
 31
0.0
  0
LINE
  5
275
  8
5
  6
CONTINUOUS
 10
2023.262
 20
1106.473
 30
0.0
 11
2040.262
 21
1106.473
 31
0.0
  0
LINE
  5
276
  8
5
  6
CONTINUOUS
 10
2129.262
 20
1106.473
 30
0.0
 11
2146.262
 21
1106.473
 31
0.0
  0
LINE
  5
277
  8
5
  6
CONTINUOUS
 10
2057.262
 20
1106.473
 30
0.0
 11
2074.262
 21
1106.473
 31
0.0
  0
LINE
  5
278
  8
5
  6
CONTINUOUS
 10
2074.262
 20
1016.973
 30
0.0
 11
2074.262
 21
1024.836
 31
0.0
  0
LINE
  5
279
  8
5
  6
CONTINUOUS
 10
2074.262
 20
1024.836
 30
0.0
 11
2074.262
 21
1106.473
 31
0.0
  0
LINE
  5
27A
  8
5
  6
CONTINUOUS
 10
1113.397
 20
410.4985
 30
0.0
 11
1125.341
 21
410.499
 31
0.0
  0
LINE
  5
27B
  8
5
  6
CONTINUOUS
 10
258.996
 20
1457.473
 30
0.0
 11
259.4325
 21
1469.973
 31
0.0
  0
LINE
  5
27C
  8
5
  6
CONTINUOUS
 10
2112.262
 20
1016.973
 30
0.0
 11
2093.262
 21
1016.974
 31
0.0
  0
LINE
  5
27D
  8
5
  6
CONTINUOUS
 10
499.7817
 20
1469.973
 30
0.0
 11
500.2182
 21
1457.473
 31
0.0
  0
LINE
  5
27E
  8
5
  6
CONTINUOUS
 10
2093.262
 20
1016.974
 30
0.0
 11
2074.262
 21
1016.973
 31
0.0
  0
LINE
  5
27F
  8
5
  6
CONTINUOUS
 10
2112.262
 20
1024.836
 30
0.0
 11
2112.262
 21
1016.973
 31
0.0
  0
ARC
  5
280
  8
5
  6
CONTINUOUS
 10
1116.214
 20
396.355
 30
0.0
 40
16.83329
 50
57.16499
 51
82.74766
  0
ARC
  5
281
  8
5
  6
CONTINUOUS
 10
1115.167
 20
426.2048
 30
0.0
 40
13.5281
 50
283.5581
 51
354.7072
  0
ARC
  5
282
  8
5
  6
CONTINUOUS
 10
1118.198
 20
424.9565
 30
0.0
 40
10.43949
 50
0.001947
 51
90.00195
  0
LINE
  5
283
  8
5
  6
CONTINUOUS
 10
1118.198
 20
435.396
 30
0.0
 11
1113.396
 21
435.3959
 31
0.0
  0
LINE
  5
284
  8
5
  6
CONTINUOUS
 10
2112.262
 20
1106.473
 30
0.0
 11
2112.262
 21
1024.836
 31
0.0
  0
LINE
  5
285
  8
5
  6
CONTINUOUS
 10
158.6362
 20
1425.266
 30
0.0
 11
176.3139
 21
1442.944
 31
0.0
  0
LINE
  5
286
  8
5
  6
CONTINUOUS
 10
2102.262
 20
1255.973
 30
0.0
 11
2102.262
 21
1250.591
 31
0.0
  0
LINE
  5
287
  8
5
  6
CONTINUOUS
 10
2084.262
 20
1255.973
 30
0.0
 11
2084.262
 21
1250.591
 31
0.0
  0
LINE
  5
28C
  8
5
  6
CONTINUOUS
 10
1889.969
 20
1001.002
 30
0.0
 11
1872.291
 21
1018.68
 31
0.0
  0
LINE
  5
28D
  8
5
  6
CONTINUOUS
 10
1910.51
 20
1016.482
 30
0.0
 11
1902.841
 21
1010.702
 31
0.0
  0
LINE
  5
28E
  8
5
  6
CONTINUOUS
 10
1902.841
 20
1010.702
 30
0.0
 11
1889.969
 21
1001.002
 31
0.0
  0
LINE
  5
28F
  8
5
  6
CONTINUOUS
 10
1113.396
 20
435.3959
 30
0.0
 11
1113.397
 21
410.4985
 31
0.0
  0
LINE
  5
290
  8
5
  6
CONTINUOUS
 10
1143.164
 20
410.4996
 30
0.0
 11
1156.942
 21
410.5001
 31
0.0
  0
LINE
  5
291
  8
5
  6
CONTINUOUS
 10
1156.942
 20
410.5001
 30
0.0
 11
1156.942
 21
435.3973
 31
0.0
  0
LINE
  5
292
  8
5
  6
CONTINUOUS
 10
1156.942
 20
435.3973
 30
0.0
 11
1143.163
 21
435.3969
 31
0.0
  0
LINE
  5
293
  8
5
  6
CONTINUOUS
 10
2283.683
 20
1010.702
 30
0.0
 11
2305.761
 21
1032.78
 31
0.0
  0
LINE
  5
294
  8
5
  6
CONTINUOUS
 10
1880.763
 20
1032.78
 30
0.0
 11
1902.841
 21
1010.702
 31
0.0
  0
LINE
  5
295
  8
5
  6
CONTINUOUS
 10
2124.262
 20
1112.473
 30
0.0
 11
2255.648
 21
1112.473
 31
0.0
  0
LINE
  5
296
  8
5
  6
CONTINUOUS
 10
2124.262
 20
1115.473
 30
0.0
 11
2257.631
 21
1115.473
 31
0.0
  0
ARC
  5
297
  8
5
  6
CONTINUOUS
 10
2093.262
 20
1221.973
 30
0.0
 40
76.16056
 50
51.37464
 51
128.6254
  0
LINE
  5
298
  8
5
  6
CONTINUOUS
 10
2045.721
 20
1281.473
 30
0.0
 11
1904.36
 21
1281.473
 31
0.0
  0
ARC
  5
299
  8
5
  6
CONTINUOUS
 10
2093.262
 20
1221.973
 30
0.0
 40
198.0506
 50
197.4833
 51
202.7223
  0
LINE
  5
29A
  8
5
  6
CONTINUOUS
 10
1899.825
 20
1264.473
 30
0.0
 11
2030.062
 21
1264.473
 31
0.0
  0
ARC
  5
29B
  8
5
  6
CONTINUOUS
 10
2093.262
 20
1221.973
 30
0.0
 40
76.16056
 50
128.6254
 51
146.0802
  0
LINE
  5
29C
  8
5
  6
CONTINUOUS
 10
2156.461
 20
1264.473
 30
0.0
 11
2286.699
 21
1264.473
 31
0.0
  0
ARC
  5
29D
  8
5
  6
CONTINUOUS
 10
2093.262
 20
1221.973
 30
0.0
 40
198.0506
 50
192.3916
 51
197.4833
  0
LINE
  5
29E
  8
5
  6
CONTINUOUS
 10
2282.163
 20
1281.473
 30
0.0
 11
2140.803
 21
1281.473
 31
0.0
  0
ARC
  5
29F
  8
5
  6
CONTINUOUS
 10
2093.262
 20
1221.973
 30
0.0
 40
76.16056
 50
146.0802
 51
160.4385
  0
LINE
  5
2A0
  8
5
  6
CONTINUOUS
 10
2021.497
 20
1247.473
 30
0.0
 11
1896.86
 21
1247.473
 31
0.0
  0
ARC
  5
2A1
  8
5
  6
CONTINUOUS
 10
2093.262
 20
1221.973
 30
0.0
 40
198.0506
 50
187.3977
 51
192.3916
  0
LINE
  5
2A2
  8
5
  6
CONTINUOUS
 10
1895.394
 20
1230.473
 30
0.0
 11
2017.577
 21
1230.473
 31
0.0
  0
LINE
  5
2A3
  8
5
  6
CONTINUOUS
 10
1143.163
 20
435.3969
 30
0.0
 11
1143.164
 21
410.4996
 31
0.0
  0
LINE
  5
2A4
  8
5
  6
CONTINUOUS
 10
1159.042
 20
410.5001
 30
0.0
 11
1170.987
 21
410.5005
 31
0.0
  0
ARC
  5
2A5
  8
5
  6
CONTINUOUS
 10
1161.859
 20
396.3566
 30
0.0
 40
16.83336
 50
57.16459
 51
82.74766
  0
ARC
  5
2A6
  8
5
  6
CONTINUOUS
 10
1160.813
 20
426.2064
 30
0.0
 40
13.5281
 50
283.5581
 51
354.7072
  0
ARC
  5
2A7
  8
5
  6
CONTINUOUS
 10
1163.844
 20
424.9581
 30
0.0
 40
10.43949
 50
0.001947
 51
90.00195
  0
LINE
  5
2A8
  8
5
  6
CONTINUOUS
 10
1163.844
 20
435.3976
 30
0.0
 11
1159.042
 21
435.3974
 31
0.0
  0
LINE
  5
2A9
  8
5
  6
CONTINUOUS
 10
1159.042
 20
435.3974
 30
0.0
 11
1159.042
 21
410.5001
 31
0.0
  0
LINE
  5
2AA
  8
5
  6
CONTINUOUS
 10
1159.042
 20
408.4001
 30
0.0
 11
1159.043
 21
382.3338
 31
0.0
  0
LINE
  5
2AB
  8
5
  6
CONTINUOUS
 10
1159.043
 20
382.3338
 30
0.0
 11
1163.845
 21
382.3341
 31
0.0
  0
ARC
  5
2AC
  8
5
  6
CONTINUOUS
 10
1163.845
 20
397.1625
 30
0.0
 40
14.82844
 50
270.0017
 51
0.0019
  0
ARC
  5
2AD
  8
5
  6
CONTINUOUS
 10
1161.859
 20
396.3566
 30
0.0
 40
16.83332
 50
2.745839
 51
45.68319
  0
LINE
  5
2AE
  8
5
  6
CONTINUOUS
 10
1173.62
 20
408.4006
 30
0.0
 11
1159.042
 21
408.4001
 31
0.0
  0
LINE
  5
2AF
  8
5
  6
CONTINUOUS
 10
1143.164
 20
408.3996
 30
0.0
 11
1156.942
 21
408.4001
 31
0.0
  0
LINE
  5
2B0
  8
5
  6
CONTINUOUS
 10
1143.164
 20
408.3996
 30
0.0
 11
1143.165
 21
382.3334
 31
0.0
  0
LINE
  5
2B1
  8
5
  6
CONTINUOUS
 10
1143.165
 20
382.3334
 30
0.0
 11
1156.943
 21
382.3338
 31
0.0
  0
LINE
  5
2B2
  8
5
  6
CONTINUOUS
 10
1156.943
 20
382.3338
 30
0.0
 11
1156.942
 21
408.4001
 31
0.0
  0
LINE
  5
2B3
  8
5
  6
CONTINUOUS
 10
1260.903
 20
297.3372
 30
0.0
 11
1260.903
 21
247.8372
 31
0.0
  0
LINE
  5
2B4
  8
5
  6
CONTINUOUS
 10
1260.903
 20
569.8372
 30
0.0
 11
1260.903
 21
520.3372
 31
0.0
  0
LINE
  5
2B5
  8
5
  6
CONTINUOUS
 10
1260.903
 20
520.3372
 30
0.0
 11
1260.903
 21
297.3372
 31
0.0
  0
LINE
  5
2B6
  8
5
  6
CONTINUOUS
 10
941.9034
 20
569.8372
 30
0.0
 11
991.4034
 21
569.8372
 31
0.0
  0
LINE
  5
2B7
  8
5
  6
CONTINUOUS
 10
991.4034
 20
569.8372
 30
0.0
 11
1211.403
 21
569.8372
 31
0.0
  0
LINE
  5
2B8
  8
5
  6
CONTINUOUS
 10
1211.403
 20
569.8372
 30
0.0
 11
1260.903
 21
569.8372
 31
0.0
  0
LINE
  5
2B9
  8
5
  6
CONTINUOUS
 10
941.9034
 20
520.3372
 30
0.0
 11
941.9034
 21
569.8372
 31
0.0
  0
LINE
  5
2BA
  8
5
  6
CONTINUOUS
 10
941.9034
 20
247.8372
 30
0.0
 11
941.9034
 21
297.3372
 31
0.0
  0
LINE
  5
2BB
  8
5
  6
CONTINUOUS
 10
941.9034
 20
297.3372
 30
0.0
 11
941.9034
 21
520.3372
 31
0.0
  0
LINE
  5
2BC
  8
5
  6
CONTINUOUS
 10
987.4034
 20
247.8372
 30
0.0
 11
987.4034
 21
217.8372
 31
0.0
  0
LINE
  5
2BD
  8
5
  6
CONTINUOUS
 10
1215.403
 20
217.8372
 30
0.0
 11
1215.403
 21
247.8372
 31
0.0
  0
LINE
  5
2BE
  8
5
  6
CONTINUOUS
 10
987.9034
 20
218.8372
 30
0.0
 11
1214.903
 21
218.8372
 31
0.0
  0
LINE
  5
2BF
  8
5
  6
CONTINUOUS
 10
987.9034
 20
247.8372
 30
0.0
 11
941.9034
 21
247.8372
 31
0.0
  0
LINE
  5
2C0
  8
5
  6
CONTINUOUS
 10
1260.903
 20
247.8372
 30
0.0
 11
1214.903
 21
247.8372
 31
0.0
  0
LINE
  5
2C1
  8
5
  6
CONTINUOUS
 10
987.9034
 20
281.9061
 30
0.0
 11
987.9034
 21
218.8372
 31
0.0
  0
LINE
  5
2C2
  8
5
  6
CONTINUOUS
 10
1214.903
 20
218.8372
 30
0.0
 11
1214.903
 21
281.9061
 31
0.0
  0
LINE
  5
2C3
  8
5
  6
CONTINUOUS
 10
991.4035
 20
297.3296
 30
0.0
 11
1211.403
 21
297.3296
 31
0.0
  0
LINE
  5
2C4
  8
5
  6
CONTINUOUS
 10
1211.403
 20
297.3296
 30
0.0
 11
1211.403
 21
520.3447
 31
0.0
  0
LINE
  5
2C5
  8
5
  6
CONTINUOUS
 10
1211.403
 20
520.3447
 30
0.0
 11
991.396
 21
520.3372
 31
0.0
  0
LINE
  5
2C6
  8
5
  6
CONTINUOUS
 10
991.396
 20
520.3372
 30
0.0
 11
991.4035
 21
297.3296
 31
0.0
  0
LINE
  5
2C7
  8
5
  6
CONTINUOUS
 10
1260.903
 20
520.3372
 30
0.0
 11
1211.403
 21
569.8372
 31
0.0
  0
LINE
  5
2C8
  8
5
  6
CONTINUOUS
 10
991.4034
 20
569.8372
 30
0.0
 11
941.9034
 21
520.3372
 31
0.0
  0
LINE
  5
2C9
  8
5
  6
CONTINUOUS
 10
1211.403
 20
520.3447
 30
0.0
 11
1211.403
 21
569.8372
 31
0.0
  0
LINE
  5
2CA
  8
5
  6
CONTINUOUS
 10
1260.903
 20
520.3372
 30
0.0
 11
1211.403
 21
520.3447
 31
0.0
  0
LINE
  5
2CB
  8
5
  6
CONTINUOUS
 10
1211.403
 20
297.3296
 30
0.0
 11
1260.903
 21
297.3372
 31
0.0
  0
LINE
  5
2CC
  8
5
  6
CONTINUOUS
 10
991.396
 20
520.3372
 30
0.0
 11
941.9034
 21
520.3372
 31
0.0
  0
LINE
  5
2CD
  8
5
  6
CONTINUOUS
 10
991.4034
 20
569.8372
 30
0.0
 11
991.396
 21
520.3372
 31
0.0
  0
LINE
  5
2CE
  8
5
  6
CONTINUOUS
 10
941.9034
 20
297.3372
 30
0.0
 11
991.4035
 21
297.3296
 31
0.0
  0
LINE
  5
2CF
  8
5
  6
CONTINUOUS
 10
1214.903
 20
251.3371
 30
0.0
 11
1260.903
 21
297.3372
 31
0.0
  0
LINE
  5
2D0
  8
5
  6
CONTINUOUS
 10
941.9034
 20
297.3372
 30
0.0
 11
987.9035
 21
251.3371
 31
0.0
  0
LINE
  5
2D1
  8
5
  6
CONTINUOUS
 10
1211.403
 20
278.4085
 30
0.0
 11
1211.403
 21
297.3296
 31
0.0
  0
LINE
  5
2D2
  8
5
  6
CONTINUOUS
 10
1211.403
 20
278.4085
 30
0.0
 11
1214.903
 21
281.9061
 31
0.0
  0
LINE
  5
2D3
  8
5
  6
CONTINUOUS
 10
987.9034
 20
281.9061
 30
0.0
 11
991.4035
 21
278.4085
 31
0.0
  0
LINE
  5
2D4
  8
5
  6
CONTINUOUS
 10
991.4035
 20
297.3296
 30
0.0
 11
991.4035
 21
278.4085
 31
0.0
  0
LINE
  5
2D5
  8
5
  6
CONTINUOUS
 10
991.4035
 20
278.4085
 30
0.0
 11
1211.403
 21
278.4085
 31
0.0
  0
LINE
  5
2D6
  8
5
  6
CONTINUOUS
 10
2214.762
 20
1506.273
 30
0.0
 11
2214.762
 21
1469.973
 31
0.0
  0
LINE
  5
2D7
  8
5
  6
CONTINUOUS
 10
1971.762
 20
1469.973
 30
0.0
 11
1971.762
 21
1506.273
 31
0.0
  0
LINE
  5
2D8
  8
5
  6
CONTINUOUS
 10
2217.262
 20
1506.273
 30
0.0
 11
1969.262
 21
1506.273
 31
0.0
  0
LINE
  5
2D9
  8
5
  6
CONTINUOUS
 10
2241.262
 20
1531.773
 30
0.0
 11
2285.762
 21
1531.773
 31
0.0
  0
LINE
  5
2DA
  8
5
  6
CONTINUOUS
 10
2241.262
 20
1530.273
 30
0.0
 11
2241.262
 21
1554.773
 31
0.0
  0
LINE
  5
2DB
  8
5
  6
CONTINUOUS
 10
2250.762
 20
1554.773
 30
0.0
 11
1938.262
 21
1554.773
 31
0.0
  0
LINE
  5
2DC
  8
5
  6
CONTINUOUS
 10
2285.762
 20
1579.773
 30
0.0
 11
2285.762
 21
1531.773
 31
0.0
  0
LINE
  5
2DD
  8
5
  6
CONTINUOUS
 10
2241.262
 20
1530.273
 30
0.0
 11
2217.262
 21
1506.273
 31
0.0
  0
LINE
  5
2DE
  8
5
  6
CONTINUOUS
 10
1969.262
 20
1506.273
 30
0.0
 11
1945.262
 21
1530.273
 31
0.0
  0
LINE
  5
2DF
  8
5
  6
CONTINUOUS
 10
1945.262
 20
1530.273
 30
0.0
 11
1945.262
 21
1554.773
 31
0.0
  0
LINE
  5
2E0
  8
5
  6
CONTINUOUS
 10
1983.262
 20
1650.773
 30
0.0
 11
2206.269
 21
1650.773
 31
0.0
  0
LINE
  5
2E1
  8
5
  6
CONTINUOUS
 10
2093.103
 20
1650.773
 30
0.0
 11
2093.103
 21
1654.973
 31
0.0
  0
LINE
  5
2E2
  8
5
  6
CONTINUOUS
 10
2068.205
 20
1654.973
 30
0.0
 11
2068.205
 21
1650.773
 31
0.0
  0
LINE
  5
2E3
  8
5
  6
CONTINUOUS
 10
2095.203
 20
1650.773
 30
0.0
 11
2095.203
 21
1654.973
 31
0.0
  0
LINE
  5
2E4
  8
5
  6
CONTINUOUS
 10
2121.269
 20
1650.773
 30
0.0
 11
2121.269
 21
1654.973
 31
0.0
  0
LINE
  5
2E5
  8
5
  6
CONTINUOUS
 10
2068.205
 20
1654.973
 30
0.0
 11
2093.103
 21
1654.973
 31
0.0
  0
LINE
  5
2E6
  8
5
  6
CONTINUOUS
 10
2095.203
 20
1654.973
 30
0.0
 11
2121.269
 21
1654.973
 31
0.0
  0
LINE
  5
2E7
  8
5
  6
CONTINUOUS
 10
2068.205
 20
1654.973
 30
0.0
 11
2068.205
 21
1654.973
 31
0.0
  0
LINE
  5
2E8
  8
5
  6
CONTINUOUS
 10
2095.203
 20
1654.973
 30
0.0
 11
2095.203
 21
1654.973
 31
0.0
  0
LINE
  5
2E9
  8
5
  6
CONTINUOUS
 10
1933.762
 20
1599.773
 30
0.0
 11
1933.762
 21
1576.773
 31
0.0
  0
LINE
  5
2EA
  8
5
  6
CONTINUOUS
 10
1983.262
 20
1599.773
 30
0.0
 11
1933.762
 21
1599.773
 31
0.0
  0
LINE
  5
2EB
  8
5
  6
CONTINUOUS
 10
1933.762
 20
1599.773
 30
0.0
 11
1983.262
 21
1650.773
 31
0.0
  0
LINE
  5
2EC
  8
5
  6
CONTINUOUS
 10
167.1084
 20
1411.166
 30
0.0
 11
183.5841
 21
1383.746
 31
0.0
  0
LINE
  5
2ED
  8
5
  6
CONTINUOUS
 10
167.1084
 20
1411.166
 30
0.0
 11
158.6362
 21
1425.266
 31
0.0
  0
LINE
  5
2EE
  8
5
  6
CONTINUOUS
 10
176.3139
 20
1442.944
 30
0.0
 11
189.1862
 21
1433.244
 31
0.0
  0
LINE
  5
2EF
  8
5
  6
CONTINUOUS
 10
2255.762
 20
1599.773
 30
0.0
 11
2206.262
 21
1599.773
 31
0.0
  0
LINE
  5
2F0
  8
5
  6
CONTINUOUS
 10
2206.269
 20
1650.773
 30
0.0
 11
2225.191
 21
1631.273
 31
0.0
  0
LINE
  5
2F1
  8
5
  6
CONTINUOUS
 10
2221.693
 20
1631.273
 30
0.0
 11
2284.762
 21
1631.273
 31
0.0
  0
LINE
  5
2F2
  8
5
  6
CONTINUOUS
 10
2255.762
 20
1579.773
 30
0.0
 11
2285.762
 21
1579.773
 31
0.0
  0
LINE
  5
2F3
  8
5
  6
CONTINUOUS
 10
2250.762
 20
1554.773
 30
0.0
 11
2250.762
 21
1576.773
 31
0.0
  0
LINE
  5
2F4
  8
5
  6
CONTINUOUS
 10
1938.262
 20
1554.773
 30
0.0
 11
1938.262
 21
1576.773
 31
0.0
  0
LINE
  5
2F5
  8
5
  6
CONTINUOUS
 10
2284.762
 20
1631.273
 30
0.0
 11
2284.762
 21
1579.773
 31
0.0
  0
LINE
  5
2F6
  8
5
  6
CONTINUOUS
 10
2255.762
 20
1599.773
 30
0.0
 11
2255.762
 21
1576.773
 31
0.0
  0
LINE
  5
2F7
  8
5
  6
CONTINUOUS
 10
2255.762
 20
1576.773
 30
0.0
 11
1933.762
 21
1576.773
 31
0.0
  0
LINE
  5
2F8
  8
5
  6
CONTINUOUS
 10
2214.762
 20
1469.973
 30
0.0
 11
2211.663
 21
1469.973
 31
0.0
  0
LINE
  5
2F9
  8
5
  6
CONTINUOUS
 10
1974.861
 20
1469.973
 30
0.0
 11
1971.762
 21
1469.973
 31
0.0
  0
LINE
  5
2FA
  8
5
  6
CONTINUOUS
 10
1986.762
 20
1506.273
 30
0.0
 11
1986.762
 21
1475.514
 31
0.0
  0
LINE
  5
2FB
  8
5
  6
CONTINUOUS
 10
2199.762
 20
1475.514
 30
0.0
 11
2199.762
 21
1506.273
 31
0.0
  0
LINE
  5
2FC
  8
5
  6
CONTINUOUS
 10
1945.262
 20
1530.273
 30
0.0
 11
2241.262
 21
1530.273
 31
0.0
  0
LINE
  5
2FD
  8
5
  6
CONTINUOUS
 10
2206.262
 20
1599.773
 30
0.0
 11
1983.262
 21
1599.773
 31
0.0
  0
LINE
  5
2FE
  8
5
  6
CONTINUOUS
 10
214.2186
 20
1414.381
 30
0.0
 11
189.1862
 21
1433.244
 31
0.0
  0
LINE
  5
2FF
  8
5
  6
CONTINUOUS
 10
1983.262
 20
1650.773
 30
0.0
 11
1983.262
 21
1599.773
 31
0.0
  0
LINE
  5
300
  8
5
  6
CONTINUOUS
 10
2206.262
 20
1599.773
 30
0.0
 11
2206.269
 21
1650.773
 31
0.0
  0
LINE
  5
301
  8
5
  6
CONTINUOUS
 10
2252.262
 20
1599.773
 30
0.0
 11
2221.693
 21
1631.273
 31
0.0
  0
CIRCLE
  5
302
  8
5
  6
CONTINUOUS
 10
379.6071
 20
1221.973
 30
0.0
 40
140.0
  0
LINE
  5
303
  8
5
  6
CONTINUOUS
 10
144.1071
 20
1099.677
 30
0.0
 11
257.3111
 21
986.4733
 31
0.0
  0
LINE
  5
304
  8
5
  6
CONTINUOUS
 10
257.3111
 20
986.4733
 30
0.0
 11
501.9031
 21
986.4733
 31
0.0
  0
LINE
  5
305
  8
5
  6
CONTINUOUS
 10
501.9031
 20
986.4733
 30
0.0
 11
615.1071
 21
1099.677
 31
0.0
  0
LINE
  5
306
  8
5
  6
CONTINUOUS
 10
615.1071
 20
1099.677
 30
0.0
 11
615.1071
 21
1344.269
 31
0.0
  0
LINE
  5
307
  8
5
  6
CONTINUOUS
 10
615.1071
 20
1344.269
 30
0.0
 11
501.9031
 21
1457.473
 31
0.0
  0
LINE
  5
308
  8
5
  6
CONTINUOUS
 10
501.9031
 20
1457.473
 30
0.0
 11
257.3111
 21
1457.473
 31
0.0
  0
LINE
  5
309
  8
5
  6
CONTINUOUS
 10
257.3111
 20
1457.473
 30
0.0
 11
144.1071
 21
1344.269
 31
0.0
  0
LINE
  5
30A
  8
5
  6
CONTINUOUS
 10
144.1071
 20
1099.677
 30
0.0
 11
144.1071
 21
1344.269
 31
0.0
  0
LINE
  5
30B
  8
5
  6
CONTINUOUS
 10
258.5538
 20
1454.473
 30
0.0
 11
147.1071
 21
1343.027
 31
0.0
  0
LINE
  5
30C
  8
5
  6
CONTINUOUS
 10
500.6605
 20
1454.473
 30
0.0
 11
258.5538
 21
1454.473
 31
0.0
  0
LINE
  5
30D
  8
5
  6
CONTINUOUS
 10
612.1071
 20
1343.027
 30
0.0
 11
500.6605
 21
1454.473
 31
0.0
  0
LINE
  5
30E
  8
5
  6
CONTINUOUS
 10
612.1071
 20
1100.92
 30
0.0
 11
612.1071
 21
1343.027
 31
0.0
  0
LINE
  5
30F
  8
5
  6
CONTINUOUS
 10
500.6605
 20
989.4733
 30
0.0
 11
612.1071
 21
1100.92
 31
0.0
  0
LINE
  5
310
  8
5
  6
CONTINUOUS
 10
258.5538
 20
989.4733
 30
0.0
 11
500.6605
 21
989.4733
 31
0.0
  0
LINE
  5
311
  8
5
  6
CONTINUOUS
 10
147.1071
 20
1100.92
 30
0.0
 11
258.5538
 21
989.4733
 31
0.0
  0
LINE
  5
312
  8
5
  6
CONTINUOUS
 10
147.1071
 20
1100.92
 30
0.0
 11
147.1071
 21
1343.027
 31
0.0
  0
LINE
  5
313
  8
5
  6
CONTINUOUS
 10
592.1058
 20
1411.166
 30
0.0
 11
570.028
 21
1433.244
 31
0.0
  0
LINE
  5
314
  8
5
  6
CONTINUOUS
 10
264.7071
 20
1457.473
 30
0.0
 11
264.7071
 21
1461.874
 31
0.0
  0
LINE
  5
315
  8
5
  6
CONTINUOUS
 10
494.2071
 20
1461.973
 30
0.0
 11
494.2071
 21
1457.473
 31
0.0
  0
LINE
  5
316
  8
5
  6
CONTINUOUS
 10
300.1071
 20
1457.473
 30
0.0
 11
300.1071
 21
1461.973
 31
0.0
  0
LINE
  5
317
  8
5
  6
CONTINUOUS
 10
283.1071
 20
1461.973
 30
0.0
 11
283.1071
 21
1457.473
 31
0.0
  0
LINE
  5
318
  8
5
  6
CONTINUOUS
 10
330.1071
 20
1457.473
 30
0.0
 11
330.1071
 21
1461.973
 31
0.0
  0
LINE
  5
319
  8
5
  6
CONTINUOUS
 10
315.1072
 20
1461.973
 30
0.0
 11
315.1071
 21
1457.473
 31
0.0
  0
LINE
  5
31A
  8
5
  6
CONTINUOUS
 10
362.2071
 20
1457.473
 30
0.0
 11
362.2071
 21
1461.973
 31
0.0
  0
LINE
  5
31B
  8
5
  6
CONTINUOUS
 10
345.0071
 20
1461.973
 30
0.0
 11
345.0071
 21
1457.473
 31
0.0
  0
LINE
  5
31C
  8
5
  6
CONTINUOUS
 10
396.8071
 20
1457.473
 30
0.0
 11
396.8071
 21
1461.973
 31
0.0
  0
LINE
  5
31D
  8
5
  6
CONTINUOUS
 10
379.5072
 20
1461.973
 30
0.0
 11
379.5071
 21
1457.473
 31
0.0
  0
LINE
  5
31E
  8
5
  6
CONTINUOUS
 10
428.9071
 20
1457.473
 30
0.0
 11
428.9071
 21
1461.973
 31
0.0
  0
ARC
  5
31F
  8
5
  6
CONTINUOUS
 10
2093.262
 20
1221.973
 30
0.0
 40
76.16056
 50
160.4385
 51
173.5921
  0
LINE
  5
320
  8
5
  6
CONTINUOUS
 10
2168.947
 20
1230.473
 30
0.0
 11
2291.13
 21
1230.473
 31
0.0
  0
ARC
  5
321
  8
5
  6
CONTINUOUS
 10
2093.262
 20
1221.973
 30
0.0
 40
198.0506
 50
182.4598
 51
187.3977
  0
LINE
  5
322
  8
5
  6
CONTINUOUS
 10
2289.664
 20
1247.473
 30
0.0
 11
2165.027
 21
1247.473
 31
0.0
  0
ARC
  5
323
  8
5
  6
CONTINUOUS
 10
2093.262
 20
1221.973
 30
0.0
 40
76.16056
 50
173.5921
 51
186.4079
  0
LINE
  5
324
  8
5
  6
CONTINUOUS
 10
2017.577
 20
1213.473
 30
0.0
 11
1895.394
 21
1213.473
 31
0.0
  0
ARC
  5
325
  8
5
  6
CONTINUOUS
 10
2093.262
 20
1221.973
 30
0.0
 40
198.0505
 50
177.5402
 51
182.4598
  0
LINE
  5
326
  8
5
  6
CONTINUOUS
 10
1896.86
 20
1196.473
 30
0.0
 11
2021.497
 21
1196.473
 31
0.0
  0
ARC
  5
327
  8
5
  6
CONTINUOUS
 10
2093.262
 20
1221.973
 30
0.0
 40
76.16056
 50
186.4079
 51
199.5615
  0
LINE
  5
328
  8
5
  6
CONTINUOUS
 10
414.0071
 20
1461.973
 30
0.0
 11
414.0071
 21
1457.473
 31
0.0
  0
LINE
  5
329
  8
5
  6
CONTINUOUS
 10
2165.027
 20
1196.473
 30
0.0
 11
2289.664
 21
1196.473
 31
0.0
  0
ARC
  5
32A
  8
5
  6
CONTINUOUS
 10
2093.262
 20
1221.973
 30
0.0
 40
198.0506
 50
172.6023
 51
177.5402
  0
LINE
  5
32B
  8
5
  6
CONTINUOUS
 10
2291.13
 20
1213.473
 30
0.0
 11
2168.947
 21
1213.473
 31
0.0
  0
LINE
  5
32C
  8
5
  6
CONTINUOUS
 10
458.9071
 20
1457.473
 30
0.0
 11
458.9071
 21
1461.973
 31
0.0
  0
ARC
  5
32D
  8
5
  6
CONTINUOUS
 10
2093.262
 20
1221.973
 30
0.0
 40
76.16056
 50
199.5615
 51
213.9198
  0
LINE
  5
32E
  8
5
  6
CONTINUOUS
 10
2030.062
 20
1179.473
 30
0.0
 11
1899.825
 21
1179.473
 31
0.0
  0
ARC
  5
32F
  8
5
  6
CONTINUOUS
 10
2093.262
 20
1221.973
 30
0.0
 40
198.0506
 50
167.6084
 51
172.6023
  0
LINE
  5
330
  8
5
  6
CONTINUOUS
 10
443.9071
 20
1461.973
 30
0.0
 11
443.9071
 21
1457.473
 31
0.0
  0
LINE
  5
331
  8
5
  6
CONTINUOUS
 10
475.9071
 20
1461.973
 30
0.0
 11
475.9071
 21
1457.473
 31
0.0
  0
LINE
  5
332
  8
5
  6
CONTINUOUS
 10
1904.36
 20
1162.473
 30
0.0
 11
2045.721
 21
1162.473
 31
0.0
  0
ARC
  5
333
  8
5
  6
CONTINUOUS
 10
2093.262
 20
1221.973
 30
0.0
 40
76.16056
 50
213.9198
 51
231.3746
  0
LINE
  5
334
  8
5
  6
CONTINUOUS
 10
615.1071
 20
1336.673
 30
0.0
 11
619.6071
 21
1336.673
 31
0.0
  0
LINE
  5
335
  8
5
  6
CONTINUOUS
 10
619.607
 20
1107.273
 30
0.0
 11
615.1071
 21
1107.273
 31
0.0
  0
LINE
  5
336
  8
5
  6
CONTINUOUS
 10
2140.803
 20
1162.473
 30
0.0
 11
2282.163
 21
1162.473
 31
0.0
  0
ARC
  5
337
  8
5
  6
CONTINUOUS
 10
2093.262
 20
1221.973
 30
0.0
 40
198.0506
 50
162.5167
 51
167.6084
  0
LINE
  5
338
  8
5
  6
CONTINUOUS
 10
615.1071
 20
1204.673
 30
0.0
 11
619.607
 21
1204.673
 31
0.0
  0
LINE
  5
339
  8
5
  6
CONTINUOUS
 10
619.6071
 20
1221.973
 30
0.0
 11
615.1071
 21
1221.973
 31
0.0
  0
LINE
  5
33A
  8
5
  6
CONTINUOUS
 10
2286.699
 20
1179.473
 30
0.0
 11
2156.461
 21
1179.473
 31
0.0
  0
ARC
  5
33B
  8
5
  6
CONTINUOUS
 10
2093.262
 20
1221.973
 30
0.0
 40
76.16056
 50
308.6254
 51
326.0802
  0
LINE
  5
33C
  8
5
  6
CONTINUOUS
 10
615.1071
 20
1239.273
 30
0.0
 11
619.6071
 21
1239.273
 31
0.0
  0
LINE
  5
33D
  8
5
  6
CONTINUOUS
 10
619.6071
 20
1256.473
 30
0.0
 11
615.1071
 21
1256.473
 31
0.0
  0
ARC
  5
33E
  8
5
  6
CONTINUOUS
 10
2093.262
 20
1221.973
 30
0.0
 40
198.0506
 50
157.2777
 51
162.5167
  0
LINE
  5
33F
  8
5
  6
CONTINUOUS
 10
2275.941
 20
1298.473
 30
0.0
 11
1910.582
 21
1298.473
 31
0.0
  0
LINE
  5
340
  8
5
  6
CONTINUOUS
 10
615.1071
 20
1271.473
 30
0.0
 11
619.6071
 21
1271.473
 31
0.0
  0
LINE
  5
341
  8
5
  6
CONTINUOUS
 10
619.6071
 20
1286.373
 30
0.0
 11
615.1071
 21
1286.373
 31
0.0
  0
ARC
  5
342
  8
5
  6
CONTINUOUS
 10
2093.262
 20
1221.973
 30
0.0
 40
198.0506
 50
151.8292
 51
157.2777
  0
ARC
  5
343
  8
5
  6
CONTINUOUS
 10
2093.262
 20
1221.973
 30
0.0
 40
76.16064
 50
326.0802
 51
340.4385
  0
LINE
  5
344
  8
5
  6
CONTINUOUS
 10
615.1071
 20
1301.373
 30
0.0
 11
619.6071
 21
1301.373
 31
0.0
  0
LINE
  5
345
  8
5
  6
CONTINUOUS
 10
619.6071
 20
1318.373
 30
0.0
 11
615.1071
 21
1318.373
 31
0.0
  0
ARC
  5
346
  8
5
  6
CONTINUOUS
 10
2093.262
 20
1221.973
 30
0.0
 40
198.0506
 50
124.6134
 51
151.8292
  0
ARC
  5
347
  8
5
  6
CONTINUOUS
 10
2093.262
 20
1221.973
 30
0.0
 40
76.16056
 50
340.4385
 51
353.5921
  0
LINE
  5
348
  8
5
  6
CONTINUOUS
 10
615.1071
 20
1172.573
 30
0.0
 11
619.607
 21
1172.573
 31
0.0
  0
ARC
  5
349
  8
5
  6
CONTINUOUS
 10
2093.262
 20
1221.973
 30
0.0
 40
198.0506
 50
118.8292
 51
124.6134
  0
ARC
  5
34A
  8
5
  6
CONTINUOUS
 10
2093.262
 20
1221.973
 30
0.0
 40
76.16056
 50
353.5921
 51
6.4079
  0
ARC
  5
34B
  8
5
  6
CONTINUOUS
 10
2093.262
 20
1221.973
 30
0.0
 40
198.0506
 50
113.351
 51
118.8292
  0
LINE
  5
34C
  8
5
  6
CONTINUOUS
 10
619.607
 20
1187.473
 30
0.0
 11
615.1071
 21
1187.473
 31
0.0
  0
ARC
  5
34D
  8
5
  6
CONTINUOUS
 10
2093.262
 20
1221.973
 30
0.0
 40
76.16063
 50
6.407885
 51
19.56149
  0
ARC
  5
34E
  8
5
  6
CONTINUOUS
 10
2093.262
 20
1221.973
 30
0.0
 40
198.0506
 50
108.091
 51
113.351
  0
ARC
  5
34F
  8
5
  6
CONTINUOUS
 10
2093.262
 20
1221.973
 30
0.0
 40
76.16047
 50
19.56149
 51
33.91979
  0
ARC
  5
350
  8
5
  6
CONTINUOUS
 10
2093.262
 20
1221.973
 30
0.0
 40
198.0506
 50
102.9847
 51
108.091
  0
ARC
  5
351
  8
5
  6
CONTINUOUS
 10
2093.262
 20
1221.973
 30
0.0
 40
76.16063
 50
33.91979
 51
51.37464
  0
ARC
  5
352
  8
5
  6
CONTINUOUS
 10
2093.262
 20
1221.973
 30
0.0
 40
198.0506
 50
97.98151
 51
102.9847
  0
LINE
  5
353
  8
5
  6
CONTINUOUS
 10
615.1071
 20
1142.573
 30
0.0
 11
619.607
 21
1142.573
 31
0.0
  0
ARC
  5
354
  8
5
  6
CONTINUOUS
 10
2093.262
 20
1221.973
 30
0.0
 40
198.0506
 50
93.03906
 51
97.98151
  0
ARC
  5
355
  8
5
  6
CONTINUOUS
 10
2093.262
 20
1221.973
 30
0.0
 40
198.0506
 50
86.96094
 51
93.03906
  0
LINE
  5
356
  8
5
  6
CONTINUOUS
 10
619.607
 20
1157.573
 30
0.0
 11
615.1071
 21
1157.573
 31
0.0
  0
LINE
  5
357
  8
5
  6
CONTINUOUS
 10
619.607
 20
1125.573
 30
0.0
 11
615.1071
 21
1125.573
 31
0.0
  0
LINE
  5
358
  8
5
  6
CONTINUOUS
 10
2267.852
 20
1315.473
 30
0.0
 11
2205.762
 21
1315.473
 31
0.0
  0
LINE
  5
359
  8
5
  6
CONTINUOUS
 10
2205.762
 20
1315.473
 30
0.0
 11
2188.762
 21
1315.473
 31
0.0
  0
LINE
  5
35A
  8
5
  6
CONTINUOUS
 10
139.6072
 20
1336.673
 30
0.0
 11
144.1071
 21
1336.673
 31
0.0
  0
LINE
  5
35B
  8
5
  6
CONTINUOUS
 10
144.1071
 20
1107.273
 30
0.0
 11
139.6072
 21
1107.273
 31
0.0
  0
LINE
  5
35C
  8
5
  6
CONTINUOUS
 10
2188.762
 20
1315.473
 30
0.0
 11
2171.762
 21
1315.473
 31
0.0
  0
LINE
  5
35D
  8
5
  6
CONTINUOUS
 10
2171.762
 20
1315.473
 30
0.0
 11
2154.762
 21
1315.473
 31
0.0
  0
LINE
  5
35E
  8
5
  6
CONTINUOUS
 10
144.1071
 20
1221.973
 30
0.0
 11
139.6072
 21
1221.973
 31
0.0
  0
LINE
  5
35F
  8
5
  6
CONTINUOUS
 10
139.6072
 20
1204.673
 30
0.0
 11
144.1071
 21
1204.673
 31
0.0
  0
LINE
  5
360
  8
5
  6
CONTINUOUS
 10
2154.762
 20
1315.473
 30
0.0
 11
2137.762
 21
1315.473
 31
0.0
  0
LINE
  5
361
  8
5
  6
CONTINUOUS
 10
2137.762
 20
1315.473
 30
0.0
 11
2120.762
 21
1315.473
 31
0.0
  0
LINE
  5
362
  8
5
  6
CONTINUOUS
 10
144.1071
 20
1256.473
 30
0.0
 11
139.6072
 21
1256.473
 31
0.0
  0
LINE
  5
363
  8
5
  6
CONTINUOUS
 10
139.6072
 20
1239.273
 30
0.0
 11
144.1071
 21
1239.273
 31
0.0
  0
LINE
  5
364
  8
5
  6
CONTINUOUS
 10
2120.762
 20
1315.473
 30
0.0
 11
2103.762
 21
1315.473
 31
0.0
  0
LINE
  5
365
  8
5
  6
CONTINUOUS
 10
2103.762
 20
1315.473
 30
0.0
 11
2082.762
 21
1315.473
 31
0.0
  0
LINE
  5
366
  8
5
  6
CONTINUOUS
 10
144.1071
 20
1286.373
 30
0.0
 11
139.6072
 21
1286.373
 31
0.0
  0
LINE
  5
367
  8
5
  6
CONTINUOUS
 10
139.6072
 20
1271.473
 30
0.0
 11
144.1071
 21
1271.473
 31
0.0
  0
LINE
  5
368
  8
5
  6
CONTINUOUS
 10
2082.762
 20
1315.473
 30
0.0
 11
2065.762
 21
1315.473
 31
0.0
  0
LINE
  5
369
  8
5
  6
CONTINUOUS
 10
2065.762
 20
1315.473
 30
0.0
 11
2048.762
 21
1315.473
 31
0.0
  0
LINE
  5
36A
  8
5
  6
CONTINUOUS
 10
144.1071
 20
1318.373
 30
0.0
 11
139.6072
 21
1318.373
 31
0.0
  0
LINE
  5
36B
  8
5
  6
CONTINUOUS
 10
139.6072
 20
1301.373
 30
0.0
 11
144.1071
 21
1301.373
 31
0.0
  0
LINE
  5
36C
  8
5
  6
CONTINUOUS
 10
2048.762
 20
1315.473
 30
0.0
 11
2031.762
 21
1315.473
 31
0.0
  0
LINE
  5
36D
  8
5
  6
CONTINUOUS
 10
144.1071
 20
1187.473
 30
0.0
 11
139.6072
 21
1187.473
 31
0.0
  0
LINE
  5
36E
  8
5
  6
CONTINUOUS
 10
139.6072
 20
1172.573
 30
0.0
 11
144.1071
 21
1172.573
 31
0.0
  0
LINE
  5
36F
  8
5
  6
CONTINUOUS
 10
144.1071
 20
1157.573
 30
0.0
 11
139.6072
 21
1157.573
 31
0.0
  0
LINE
  5
370
  8
5
  6
CONTINUOUS
 10
139.6072
 20
1142.573
 30
0.0
 11
144.1071
 21
1142.573
 31
0.0
  0
LINE
  5
371
  8
5
  6
CONTINUOUS
 10
144.1071
 20
1125.573
 30
0.0
 11
139.6072
 21
1125.573
 31
0.0
  0
LINE
  5
372
  8
5
  6
CONTINUOUS
 10
189.1862
 20
1433.244
 30
0.0
 11
167.1084
 21
1411.166
 31
0.0
  0
CIRCLE
  5
373
  8
5
  6
CONTINUOUS
 10
379.6071
 20
1221.973
 30
0.0
 40
223.5
  0
LINE
  5
374
  8
5
  6
CONTINUOUS
 10
2031.762
 20
1315.473
 30
0.0
 11
2014.762
 21
1315.473
 31
0.0
  0
LINE
  5
375
  8
5
  6
CONTINUOUS
 10
2014.762
 20
1315.473
 30
0.0
 11
1997.762
 21
1315.473
 31
0.0
  0
LINE
  5
376
  8
5
  6
CONTINUOUS
 10
1997.762
 20
1315.473
 30
0.0
 11
1980.762
 21
1315.473
 31
0.0
  0
LINE
  5
377
  8
5
  6
CONTINUOUS
 10
1980.762
 20
1315.473
 30
0.0
 11
1918.672
 21
1315.473
 31
0.0
  0
ARC
  5
378
  8
5
  6
CONTINUOUS
 10
2093.262
 20
1221.973
 30
0.0
 40
198.0506
 50
82.01849
 51
86.96094
  0
LINE
  5
379
  8
5
  6
CONTINUOUS
 10
2188.762
 20
1395.478
 30
0.0
 11
2188.762
 21
1315.473
 31
0.0
  0
LINE
  5
37A
  8
5
  6
CONTINUOUS
 10
2205.762
 20
1315.473
 30
0.0
 11
2205.762
 21
1384.969
 31
0.0
  0
ARC
  5
37B
  8
5
  6
CONTINUOUS
 10
2093.262
 20
1221.973
 30
0.0
 40
198.0506
 50
77.01534
 51
82.01849
  0
LINE
  5
37C
  8
5
  6
CONTINUOUS
 10
2154.762
 20
1410.233
 30
0.0
 11
2154.762
 21
1315.473
 31
0.0
  0
LINE
  5
37D
  8
5
  6
CONTINUOUS
 10
2171.762
 20
1315.473
 30
0.0
 11
2171.762
 21
1403.802
 31
0.0
  0
ARC
  5
37E
  8
5
  6
CONTINUOUS
 10
2093.262
 20
1221.973
 30
0.0
 40
198.0506
 50
71.90902
 51
77.01534
  0
LINE
  5
37F
  8
5
  6
CONTINUOUS
 10
2120.762
 20
1418.105
 30
0.0
 11
2120.762
 21
1315.473
 31
0.0
  0
LINE
  5
380
  8
5
  6
CONTINUOUS
 10
2137.762
 20
1315.473
 30
0.0
 11
2137.762
 21
1414.96
 31
0.0
  0
ARC
  5
381
  8
5
  6
CONTINUOUS
 10
2093.262
 20
1221.973
 30
0.0
 40
198.0506
 50
66.64896
 51
71.90902
  0
LINE
  5
382
  8
5
  6
CONTINUOUS
 10
273.441
 20
1469.973
 30
0.0
 11
273.1616
 21
1461.973
 31
0.0
  0
LINE
  5
383
  8
5
  6
CONTINUOUS
 10
486.0525
 20
1461.973
 30
0.0
 11
485.7732
 21
1469.973
 31
0.0
  0
LINE
  5
384
  8
5
  6
CONTINUOUS
 10
2082.762
 20
1419.745
 30
0.0
 11
2082.762
 21
1315.473
 31
0.0
  0
LINE
  5
385
  8
5
  6
CONTINUOUS
 10
2103.762
 20
1315.473
 30
0.0
 11
2103.762
 21
1419.745
 31
0.0
  0
ARC
  5
386
  8
5
  6
CONTINUOUS
 10
2093.262
 20
1221.973
 30
0.0
 40
198.0506
 50
61.17081
 51
66.64896
  0
LINE
  5
387
  8
5
  6
CONTINUOUS
 10
2048.762
 20
1414.96
 30
0.0
 11
2048.762
 21
1315.473
 31
0.0
  0
LINE
  5
388
  8
5
  6
CONTINUOUS
 10
2065.762
 20
1315.473
 30
0.0
 11
2065.762
 21
1418.105
 31
0.0
  0
ARC
  5
389
  8
5
  6
CONTINUOUS
 10
2093.262
 20
1221.973
 30
0.0
 40
198.0506
 50
55.38656
 51
61.17081
  0
LINE
  5
38A
  8
5
  6
CONTINUOUS
 10
2014.762
 20
1403.802
 30
0.0
 11
2014.762
 21
1315.473
 31
0.0
  0
LINE
  5
38B
  8
5
  6
CONTINUOUS
 10
2031.762
 20
1315.473
 30
0.0
 11
2031.762
 21
1410.233
 31
0.0
  0
ARC
  5
38C
  8
5
  6
CONTINUOUS
 10
2093.262
 20
1221.973
 30
0.0
 40
198.0506
 50
28.17081
 51
55.38656
  0
LINE
  5
38D
  8
5
  6
CONTINUOUS
 10
1980.762
 20
1384.97
 30
0.0
 11
1980.762
 21
1315.473
 31
0.0
  0
LINE
  5
38E
  8
5
  6
CONTINUOUS
 10
1997.762
 20
1315.473
 30
0.0
 11
1997.762
 21
1395.478
 31
0.0
  0
ARC
  5
38F
  8
5
  6
CONTINUOUS
 10
2093.262
 20
1221.973
 30
0.0
 40
198.0506
 50
22.72228
 51
28.17083
  0
ARC
  5
390
  8
5
  6
CONTINUOUS
 10
2093.262
 20
1221.973
 30
0.0
 40
198.0506
 50
17.48333
 51
22.72228
  0
ARC
  5
391
  8
5
  6
CONTINUOUS
 10
2093.262
 20
1221.973
 30
0.0
 40
198.0506
 50
12.39158
 51
17.48333
  0
ARC
  5
392
  8
5
  6
CONTINUOUS
 10
2093.262
 20
1221.973
 30
0.0
 40
198.0505
 50
7.39763
 51
12.39158
  0
ARC
  5
393
  8
5
  6
CONTINUOUS
 10
2093.262
 20
1221.973
 30
0.0
 40
198.0505
 50
2.459784
 51
7.39763
  0
ARC
  5
394
  8
5
  6
CONTINUOUS
 10
2093.262
 20
1221.973
 30
0.0
 40
198.0506
 50
357.5402
 51
2.4598
  0
ARC
  5
395
  8
5
  6
CONTINUOUS
 10
2093.262
 20
1221.973
 30
0.0
 40
198.0506
 50
352.6023
 51
357.5402
  0
ARC
  5
396
  8
5
  6
CONTINUOUS
 10
2093.262
 20
1221.973
 30
0.0
 40
198.0506
 50
347.6084
 51
352.6023
  0
LINE
  5
397
  8
5
  6
CONTINUOUS
 10
2067.262
 20
1145.473
 30
0.0
 11
1910.582
 21
1145.473
 31
0.0
  0
ARC
  5
398
  8
5
  6
CONTINUOUS
 10
2093.262
 20
1221.973
 30
0.0
 40
198.0506
 50
202.7223
 51
208.1708
  0
ARC
  5
399
  8
5
  6
CONTINUOUS
 10
2093.262
 20
1221.973
 30
0.0
 40
198.0506
 50
331.8292
 51
337.2777
  0
LINE
  5
39A
  8
5
  6
CONTINUOUS
 10
2275.941
 20
1145.473
 30
0.0
 11
2119.262
 21
1145.473
 31
0.0
  0
ARC
  5
39B
  8
5
  6
CONTINUOUS
 10
2093.262
 20
1221.973
 30
0.0
 40
76.16059
 50
231.3746
 51
250.0388
  0
ARC
  5
39C
  8
5
  6
CONTINUOUS
 10
2093.262
 20
1221.973
 30
0.0
 40
198.0506
 50
342.5167
 51
347.6084
  0
ARC
  5
39D
  8
5
  6
CONTINUOUS
 10
2093.262
 20
1221.973
 30
0.0
 40
198.0506
 50
337.2777
 51
342.5167
  0
ARC
  5
39E
  8
5
  6
CONTINUOUS
 10
2093.262
 20
1221.973
 30
0.0
 40
76.16056
 50
289.9612
 51
308.6254
  0
ARC
  5
39F
  8
5
  6
CONTINUOUS
 10
2093.262
 20
1221.973
 30
0.0
 40
198.0506
 50
254.478
 51
259.527
  0
LINE
  5
3A0
  8
5
  6
CONTINUOUS
 10
2057.262
 20
1027.222
 30
0.0
 11
2057.262
 21
1106.473
 31
0.0
  0
LINE
  5
3A1
  8
5
  6
CONTINUOUS
 10
2040.262
 20
1106.473
 30
0.0
 11
2040.262
 21
1031.146
 31
0.0
  0
ARC
  5
3A2
  8
5
  6
CONTINUOUS
 10
2093.262
 20
1221.973
 30
0.0
 40
198.0506
 50
249.3018
 51
254.478
  0
LINE
  5
3A3
  8
5
  6
CONTINUOUS
 10
2023.262
 20
1036.706
 30
0.0
 11
2023.262
 21
1106.473
 31
0.0
  0
LINE
  5
3A4
  8
5
  6
CONTINUOUS
 10
2006.262
 20
1106.473
 30
0.0
 11
2006.262
 21
1044.055
 31
0.0
  0
ARC
  5
3A5
  8
5
  6
CONTINUOUS
 10
2093.262
 20
1221.973
 30
0.0
 40
198.0506
 50
243.9419
 51
249.3018
  0
LINE
  5
3A6
  8
5
  6
CONTINUOUS
 10
965.4326
 20
205.2372
 30
0.0
 11
963.9227
 21
217.0242
 31
0.0
  0
LINE
  5
3A7
  8
5
  6
CONTINUOUS
 10
1260.904
 20
559.9371
 30
0.0
 11
1405.903
 21
559.9372
 31
0.0
  0
LINE
  5
3A8
  8
5
  6
CONTINUOUS
 10
2146.262
 20
1031.146
 30
0.0
 11
2146.262
 21
1106.473
 31
0.0
  0
LINE
  5
3A9
  8
5
  6
CONTINUOUS
 10
2129.262
 20
1106.473
 30
0.0
 11
2129.262
 21
1027.222
 31
0.0
  0
ARC
  5
3AA
  8
5
  6
CONTINUOUS
 10
2093.262
 20
1221.973
 30
0.0
 40
198.0506
 50
290.6982
 51
296.0581
  0
LINE
  5
3AB
  8
5
  6
CONTINUOUS
 10
2180.262
 20
1044.055
 30
0.0
 11
2180.262
 21
1106.473
 31
0.0
  0
LINE
  5
3AC
  8
5
  6
CONTINUOUS
 10
2163.262
 20
1106.473
 30
0.0
 11
2163.262
 21
1036.706
 31
0.0
  0
ARC
  5
3AD
  8
5
  6
CONTINUOUS
 10
2093.262
 20
1221.973
 30
0.0
 40
198.0505
 50
285.522
 51
290.6982
  0
ARC
  5
3AE
  8
5
  6
CONTINUOUS
 10
2093.262
 20
1221.973
 30
0.0
 40
198.0506
 50
215.6748
 51
243.9419
  0
ARC
  5
3AF
  8
5
  6
CONTINUOUS
 10
2093.262
 20
1221.973
 30
0.0
 40
198.0506
 50
280.473
 51
285.522
  0
ARC
  5
3B0
  8
5
  6
CONTINUOUS
 10
2093.262
 20
1221.973
 30
0.0
 40
198.0506
 50
296.0581
 51
324.3252
  0
ARC
  5
3B1
  8
5
  6
CONTINUOUS
 10
2093.262
 20
1221.973
 30
0.0
 40
198.0506
 50
259.527
 51
264.4949
  0
ARC
  5
3B2
  8
5
  6
CONTINUOUS
 10
2093.262
 20
1221.973
 30
0.0
 40
198.0506
 50
275.5051
 51
280.473
  0
CIRCLE
  5
3B3
  8
5
  6
CONTINUOUS
 10
2093.262
 20
1221.973
 30
0.0
 40
210.0
  0
ARC
  5
3B4
  8
5
  6
CONTINUOUS
 10
2093.262
 20
1221.973
 30
0.0
 40
185.7597
 50
325.0178
 51
329.7789
  0
ARC
  5
3B5
  8
5
  6
CONTINUOUS
 10
2093.262
 20
1221.973
 30
0.0
 40
185.7597
 50
321.5544
 51
323.8805
  0
ARC
  5
3B6
  8
5
  6
CONTINUOUS
 10
2093.262
 20
1221.973
 30
0.0
 40
185.7597
 50
210.2211
 51
218.4456
  0
ARC
  5
3B7
  8
5
  6
CONTINUOUS
 10
2093.262
 20
1221.973
 30
0.0
 40
76.0
 50
290.0052
 51
249.9948
  0
ARC
  5
3B8
  8
5
  6
CONTINUOUS
 10
2093.262
 20
1221.973
 30
0.0
 40
70.71259
 50
248.427
 51
291.573
  0
CIRCLE
  5
3B9
  8
5
  6
CONTINUOUS
 10
2093.262
 20
1221.973
 30
0.0
 40
65.0
  0
LINE
  5
3BB
  8
5
  6
CONTINUOUS
 10
1405.903
 20
260.7372
 30
0.0
 11
1260.904
 21
260.7372
 31
0.0
  0
LINE
  5
3BD
  8
5
  6
CONTINUOUS
 10
1411.884
 20
513.2502
 30
0.0
 11
1410.387
 21
524.9372
 31
0.0
  0
LINE
  5
3BE
  8
5
  6
CONTINUOUS
 10
1405.916
 20
559.8372
 30
0.0
 11
1408.123
 21
542.6125
 31
0.0
  0
LINE
  5
3BF
  8
5
  6
CONTINUOUS
 10
1408.145
 20
542.4372
 30
0.0
 11
1408.123
 21
542.6125
 31
0.0
  0
LINE
  5
3C0
  8
5
  6
CONTINUOUS
 10
1410.387
 20
524.9372
 30
0.0
 11
1408.145
 21
542.4372
 31
0.0
  0
LINE
  5
3C1
  8
5
  6
CONTINUOUS
 10
1405.903
 20
559.9372
 30
0.0
 11
1405.916
 21
559.8372
 31
0.0
  0
LINE
  5
3C2
  8
5
  6
CONTINUOUS
 10
1408.132
 20
632.9372
 30
0.0
 11
1410.374
 21
615.4372
 31
0.0
  0
LINE
  5
3C3
  8
5
  6
CONTINUOUS
 10
1405.903
 20
650.3372
 30
0.0
 11
1408.12
 21
633.0378
 31
0.0
  0
LINE
  5
3C4
  8
5
  6
CONTINUOUS
 10
1408.12
 20
633.0378
 30
0.0
 11
1408.126
 21
632.9878
 31
0.0
  0
LINE
  5
3C5
  8
5
  6
CONTINUOUS
 10
1081.701
 20
569.8372
 30
0.0
 11
1079.019
 21
600.7581
 31
0.0
  0
LINE
  5
3C6
  8
5
  6
CONTINUOUS
 10
1408.126
 20
632.9878
 30
0.0
 11
1408.132
 21
632.9372
 31
0.0
  0
LINE
  5
3C7
  8
5
  6
CONTINUOUS
 10
1410.374
 20
615.4372
 30
0.0
 11
1411.884
 21
603.6502
 31
0.0
  0
LINE
  5
3C8
  8
5
  6
CONTINUOUS
 10
1408.12
 20
187.6366
 30
0.0
 11
1405.903
 21
170.3372
 31
0.0
  0
LINE
  5
3C9
  8
5
  6
CONTINUOUS
 10
1408.132
 20
187.7372
 30
0.0
 11
1410.374
 21
205.2372
 31
0.0
  0
LINE
  5
3CA
  8
5
  6
CONTINUOUS
 10
983.1063
 20
569.8372
 30
0.0
 11
985.7874
 21
600.7581
 31
0.0
  0
LINE
  5
3CB
  8
5
  6
CONTINUOUS
 10
1408.126
 20
187.6866
 30
0.0
 11
1408.132
 21
187.7372
 31
0.0
  0
LINE
  5
3CC
  8
5
  6
CONTINUOUS
 10
1408.126
 20
187.6866
 30
0.0
 11
1408.12
 21
187.6366
 31
0.0
  0
LINE
  5
3CD
  8
5
  6
CONTINUOUS
 10
1014.404
 20
569.8373
 30
0.0
 11
1014.403
 21
582.984
 31
0.0
  0
LINE
  5
3CE
  8
5
  6
CONTINUOUS
 10
1410.374
 20
205.2372
 30
0.0
 11
1411.884
 21
217.0242
 31
0.0
  0
LINE
  5
3CF
  8
5
  6
CONTINUOUS
 10
967.6873
 20
633.0378
 30
0.0
 11
969.9034
 21
650.3372
 31
0.0
  0
LINE
  5
3D0
  8
5
  6
CONTINUOUS
 10
967.6744
 20
632.9372
 30
0.0
 11
965.4326
 21
615.4372
 31
0.0
  0
LINE
  5
3D1
  8
5
  6
CONTINUOUS
 10
1050.403
 20
582.984
 30
0.0
 11
1050.403
 21
569.8373
 31
0.0
  0
LINE
  5
3D2
  8
5
  6
CONTINUOUS
 10
967.6809
 20
632.9878
 30
0.0
 11
967.6744
 21
632.9372
 31
0.0
  0
LINE
  5
3D3
  8
5
  6
CONTINUOUS
 10
967.6809
 20
632.9878
 30
0.0
 11
967.6873
 21
633.0378
 31
0.0
  0
LINE
  5
3D4
  8
5
  6
CONTINUOUS
 10
965.4326
 20
615.4372
 30
0.0
 11
963.9227
 21
603.6502
 31
0.0
  0
LINE
  5
3D5
  8
5
  6
CONTINUOUS
 10
967.6744
 20
187.7372
 30
0.0
 11
965.4326
 21
205.2372
 31
0.0
  0
LINE
  5
3D6
  8
5
  6
CONTINUOUS
 10
969.9034
 20
170.3372
 30
0.0
 11
967.6873
 21
187.6366
 31
0.0
  0
LINE
  5
3D7
  8
5
  6
CONTINUOUS
 10
967.6873
 20
187.6366
 30
0.0
 11
967.6809
 21
187.6866
 31
0.0
  0
LINE
  5
3D8
  8
5
  6
CONTINUOUS
 10
967.6809
 20
187.6866
 30
0.0
 11
967.6744
 21
187.7372
 31
0.0
  0
LINE
  5
3D9
  8
5
  6
CONTINUOUS
 10
969.9034
 20
650.3372
 30
0.0
 11
1405.903
 21
650.3372
 31
0.0
  0
LINE
  5
3DA
  8
5
  6
CONTINUOUS
 10
1405.903
 20
170.3372
 30
0.0
 11
969.9034
 21
170.3372
 31
0.0
  0
LINE
  5
3DB
  8
5
  6
CONTINUOUS
 10
1410.349
 20
295.4372
 30
0.0
 11
1408.123
 21
278.0619
 31
0.0
  0
LINE
  5
3DC
  8
5
  6
CONTINUOUS
 10
1408.123
 20
278.0619
 30
0.0
 11
1408.12
 21
278.0372
 31
0.0
  0
LINE
  5
3DD
  8
5
  6
CONTINUOUS
 10
1411.884
 20
307.4242
 30
0.0
 11
1410.349
 21
295.4372
 31
0.0
  0
LINE
  5
3DE
  8
5
  6
CONTINUOUS
 10
1408.12
 20
278.0372
 30
0.0
 11
1405.903
 21
260.7372
 31
0.0
  0
LINE
  5
3DF
  8
5
  6
CONTINUOUS
 10
1542.403
 20
642.8372
 30
0.0
 11
1542.403
 21
531.3906
 31
0.0
  0
LINE
  5
3E0
  8
5
  6
CONTINUOUS
 10
1542.403
 20
531.3906
 30
0.0
 11
1542.403
 21
289.2839
 31
0.0
  0
LINE
  5
3E1
  8
5
  6
CONTINUOUS
 10
1542.403
 20
289.2839
 30
0.0
 11
1542.403
 21
177.8372
 31
0.0
  0
LINE
  5
3E2
  8
5
  6
CONTINUOUS
 10
1615.403
 20
550.3372
 30
0.0
 11
1615.403
 21
270.3372
 31
0.0
  0
LINE
  5
3E3
  8
5
  6
CONTINUOUS
 10
1473.903
 20
645.8372
 30
0.0
 11
1413.403
 21
645.8372
 31
0.0
  0
LINE
  5
3E4
  8
5
  6
CONTINUOUS
 10
1473.903
 20
174.8372
 30
0.0
 11
1413.403
 21
174.8372
 31
0.0
  0
LINE
  5
3E5
  8
5
  6
CONTINUOUS
 10
1473.903
 20
642.8372
 30
0.0
 11
1542.403
 21
642.8372
 31
0.0
  0
LINE
  5
3E6
  8
5
  6
CONTINUOUS
 10
1542.403
 20
177.8372
 30
0.0
 11
1473.903
 21
177.8372
 31
0.0
  0
LINE
  5
3E7
  8
5
  6
CONTINUOUS
 10
1473.903
 20
645.8372
 30
0.0
 11
1473.903
 21
532.6332
 31
0.0
  0
LINE
  5
3E8
  8
5
  6
CONTINUOUS
 10
1473.903
 20
532.6332
 30
0.0
 11
1473.903
 21
288.0412
 31
0.0
  0
LINE
  5
3E9
  8
5
  6
CONTINUOUS
 10
1473.903
 20
288.0412
 30
0.0
 11
1473.903
 21
174.8372
 31
0.0
  0
LINE
  5
3EA
  8
5
  6
CONTINUOUS
 10
1413.403
 20
174.8372
 30
0.0
 11
1413.403
 21
288.0412
 31
0.0
  0
LINE
  5
3EB
  8
5
  6
CONTINUOUS
 10
1413.403
 20
288.0412
 30
0.0
 11
1413.403
 21
532.6332
 31
0.0
  0
LINE
  5
3EC
  8
5
  6
CONTINUOUS
 10
1413.403
 20
532.6332
 30
0.0
 11
1413.403
 21
645.8372
 31
0.0
  0
LINE
  5
3ED
  8
5
  6
CONTINUOUS
 10
1079.019
 20
600.7581
 30
0.0
 11
1061.904
 21
613.6303
 31
0.0
  0
LINE
  5
3EE
  8
5
  6
CONTINUOUS
 10
1061.904
 20
613.6303
 30
0.0
 11
1002.903
 21
613.6303
 31
0.0
  0
LINE
  5
3EF
  8
5
  6
CONTINUOUS
 10
1002.903
 20
613.6303
 30
0.0
 11
985.7874
 21
600.7581
 31
0.0
  0
LINE
  5
3F0
  8
5
  6
CONTINUOUS
 10
1014.403
 20
582.984
 30
0.0
 11
1022.403
 21
589.4359
 31
0.0
  0
LINE
  5
3F1
  8
5
  6
CONTINUOUS
 10
1022.403
 20
589.4359
 30
0.0
 11
1042.403
 21
589.4359
 31
0.0
  0
LINE
  5
3F2
  8
5
  6
CONTINUOUS
 10
1042.403
 20
589.4359
 30
0.0
 11
1050.403
 21
582.984
 31
0.0
  0
LINE
  5
3F3
  8
5
  6
CONTINUOUS
 10
1260.903
 20
542.4372
 30
0.0
 11
1408.1
 21
542.4371
 31
0.0
  0
LINE
  5
3F4
  8
5
  6
CONTINUOUS
 10
985.7874
 20
622.8357
 30
0.0
 11
982.6534
 21
599.0459
 31
0.0
  0
LINE
  5
3F5
  8
5
  6
CONTINUOUS
 10
1405.916
 20
559.8372
 30
0.0
 11
1260.903
 21
559.8372
 31
0.0
  0
LINE
  5
3F6
  8
5
  6
CONTINUOUS
 10
985.7874
 20
622.8357
 30
0.0
 11
1002.903
 21
631.308
 31
0.0
  0
LINE
  5
3F7
  8
5
  6
CONTINUOUS
 10
1002.903
 20
631.308
 30
0.0
 11
1061.904
 21
631.308
 31
0.0
  0
LINE
  5
3F8
  8
5
  6
CONTINUOUS
 10
1061.904
 20
631.308
 30
0.0
 11
1079.019
 21
622.8357
 31
0.0
  0
LINE
  5
3F9
  8
5
  6
CONTINUOUS
 10
1280.903
 20
525.1373
 30
0.0
 11
1260.903
 21
541.4315
 31
0.0
  0
LINE
  5
3FA
  8
5
  6
CONTINUOUS
 10
1079.019
 20
622.8357
 30
0.0
 11
1082.154
 21
599.0459
 31
0.0
  0
LINE
  5
3FB
  8
5
  6
CONTINUOUS
 10
985.7874
 20
600.7581
 30
0.0
 11
985.7874
 21
622.8357
 31
0.0
  0
LINE
  5
3FC
  8
5
  6
CONTINUOUS
 10
981.2307
 20
570.2772
 30
0.0
 11
982.6534
 21
599.0459
 31
0.0
  0
LINE
  5
3FD
  8
5
  6
CONTINUOUS
 10
1260.903
 20
279.2429
 30
0.0
 11
1280.781
 21
295.4372
 31
0.0
  0
LINE
  5
3FE
  8
5
  6
CONTINUOUS
 10
1260.903
 20
278.0372
 30
0.0
 11
1408.12
 21
278.0372
 31
0.0
  0
LINE
  5
3FF
  8
5
  6
CONTINUOUS
 10
1082.154
 20
599.0459
 30
0.0
 11
1083.576
 21
570.2772
 31
0.0
  0
LINE
  5
400
  8
5
  6
CONTINUOUS
 10
1079.019
 20
622.8357
 30
0.0
 11
1079.019
 21
600.7581
 31
0.0
  0
LINE
  5
401
  8
5
  6
CONTINUOUS
 10
1061.904
 20
613.6303
 30
0.0
 11
1061.904
 21
631.308
 31
0.0
  0
LINE
  5
402
  8
5
  6
CONTINUOUS
 10
1002.903
 20
631.308
 30
0.0
 11
1002.903
 21
613.6303
 31
0.0
  0
LINE
  5
403
  8
5
  6
CONTINUOUS
 10
1408.123
 20
542.6125
 30
0.0
 11
1408.1
 21
542.4371
 31
0.0
  0
LINE
  5
404
  8
5
  6
CONTINUOUS
 10
1405.903
 20
525.1373
 30
0.0
 11
1280.903
 21
525.1373
 31
0.0
  0
LINE
  5
405
  8
5
  6
CONTINUOUS
 10
1408.1
 20
542.4371
 30
0.0
 11
1405.903
 21
525.1373
 31
0.0
  0
LINE
  5
406
  8
5
  6
CONTINUOUS
 10
1405.916
 20
295.4372
 30
0.0
 11
1280.781
 21
295.4372
 31
0.0
  0
LINE
  5
407
  8
5
  6
CONTINUOUS
 10
1405.916
 20
295.4372
 30
0.0
 11
1408.123
 21
278.0619
 31
0.0
  0
LINE
  5
408
  8
5
  6
CONTINUOUS
 10
1405.903
 20
295.5372
 30
0.0
 11
1405.916
 21
295.4372
 31
0.0
  0
LINE
  5
409
  8
5
  6
CONTINUOUS
 10
1280.903
 20
295.5372
 30
0.0
 11
1405.903
 21
295.5372
 31
0.0
  0
LINE
  5
40A
  8
5
  6
CONTINUOUS
 10
1280.781
 20
295.4372
 30
0.0
 11
1280.903
 21
295.5372
 31
0.0
  0
LINE
  5
40B
  8
5
  6
CONTINUOUS
 10
1408.1
 20
542.4371
 30
0.0
 11
1408.145
 21
542.4372
 31
0.0
  0
LINE
  5
40C
  8
5
  6
CONTINUOUS
 10
1410.349
 20
295.4372
 30
0.0
 11
1405.916
 21
295.4372
 31
0.0
  0
LINE
  5
40D
  8
5
  6
CONTINUOUS
 10
1405.903
 20
524.9371
 30
0.0
 11
1410.387
 21
524.9372
 31
0.0
  0
LINE
  5
40E
  8
5
  6
CONTINUOUS
 10
1405.903
 20
524.9371
 30
0.0
 11
1405.903
 21
525.1373
 31
0.0
  0
LINE
  5
40F
  8
5
  6
CONTINUOUS
 10
1410.507
 20
330.8371
 30
0.0
 11
1405.903
 21
330.8371
 31
0.0
  0
LINE
  5
410
  8
5
  6
CONTINUOUS
 10
1405.903
 20
313.8372
 30
0.0
 11
1405.903
 21
330.8371
 31
0.0
  0
LINE
  5
411
  8
5
  6
CONTINUOUS
 10
1405.903
 20
313.8372
 30
0.0
 11
1411.464
 21
313.8372
 31
0.0
  0
LINE
  5
412
  8
5
  6
CONTINUOUS
 10
1409.32
 20
360.8371
 30
0.0
 11
1405.903
 21
360.8371
 31
0.0
  0
LINE
  5
413
  8
5
  6
CONTINUOUS
 10
1405.903
 20
345.8372
 30
0.0
 11
1405.903
 21
360.8371
 31
0.0
  0
LINE
  5
414
  8
5
  6
CONTINUOUS
 10
1405.903
 20
345.8372
 30
0.0
 11
1409.838
 21
345.8372
 31
0.0
  0
LINE
  5
415
  8
5
  6
CONTINUOUS
 10
1408.682
 20
392.9371
 30
0.0
 11
1405.903
 21
392.9371
 31
0.0
  0
LINE
  5
416
  8
5
  6
CONTINUOUS
 10
1405.903
 20
375.7372
 30
0.0
 11
1405.903
 21
392.9371
 31
0.0
  0
LINE
  5
417
  8
5
  6
CONTINUOUS
 10
1405.903
 20
375.7372
 30
0.0
 11
1408.946
 21
375.7372
 31
0.0
  0
LINE
  5
418
  8
5
  6
CONTINUOUS
 10
1408.68
 20
427.5372
 30
0.0
 11
1405.903
 21
427.5372
 31
0.0
  0
LINE
  5
419
  8
5
  6
CONTINUOUS
 10
1405.903
 20
410.2372
 30
0.0
 11
1405.903
 21
427.5372
 31
0.0
  0
LINE
  5
41A
  8
5
  6
CONTINUOUS
 10
1405.903
 20
410.2372
 30
0.0
 11
1408.594
 21
410.2372
 31
0.0
  0
LINE
  5
41B
  8
5
  6
CONTINUOUS
 10
1409.314
 20
459.6372
 30
0.0
 11
1405.903
 21
459.6372
 31
0.0
  0
LINE
  5
41C
  8
5
  6
CONTINUOUS
 10
1405.903
 20
444.7371
 30
0.0
 11
1405.903
 21
459.6372
 31
0.0
  0
LINE
  5
41D
  8
5
  6
CONTINUOUS
 10
1405.903
 20
444.7371
 30
0.0
 11
1408.942
 21
444.7371
 31
0.0
  0
LINE
  5
41E
  8
5
  6
CONTINUOUS
 10
1410.497
 20
489.6372
 30
0.0
 11
1405.903
 21
489.6372
 31
0.0
  0
LINE
  5
41F
  8
5
  6
CONTINUOUS
 10
1405.903
 20
474.6371
 30
0.0
 11
1405.903
 21
489.6372
 31
0.0
  0
LINE
  5
420
  8
5
  6
CONTINUOUS
 10
1405.903
 20
474.6371
 30
0.0
 11
1409.83
 21
474.6371
 31
0.0
  0
LINE
  5
421
  8
5
  6
CONTINUOUS
 10
1405.903
 20
506.6372
 30
0.0
 11
1405.903
 21
524.9371
 31
0.0
  0
LINE
  5
422
  8
5
  6
CONTINUOUS
 10
1405.903
 20
506.6372
 30
0.0
 11
1411.451
 21
506.6372
 31
0.0
  0
LINE
  5
423
  8
5
  6
CONTINUOUS
 10
1405.903
 20
295.5372
 30
0.0
 11
1405.903
 21
313.8372
 31
0.0
  0
LINE
  5
424
  8
5
  6
CONTINUOUS
 10
1405.903
 20
330.8371
 30
0.0
 11
1405.903
 21
345.8372
 31
0.0
  0
LINE
  5
425
  8
5
  6
CONTINUOUS
 10
1260.903
 20
313.8372
 30
0.0
 11
1280.903
 21
313.8372
 31
0.0
  0
LINE
  5
426
  8
5
  6
CONTINUOUS
 10
1405.903
 20
360.8371
 30
0.0
 11
1405.903
 21
375.7372
 31
0.0
  0
LINE
  5
427
  8
5
  6
CONTINUOUS
 10
1280.903
 20
330.8371
 30
0.0
 11
1260.903
 21
330.8372
 31
0.0
  0
LINE
  5
428
  8
5
  6
CONTINUOUS
 10
1405.903
 20
392.9371
 30
0.0
 11
1405.903
 21
410.2372
 31
0.0
  0
LINE
  5
429
  8
5
  6
CONTINUOUS
 10
1405.903
 20
427.5372
 30
0.0
 11
1405.903
 21
444.7371
 31
0.0
  0
LINE
  5
42A
  8
5
  6
CONTINUOUS
 10
1260.903
 20
345.8372
 30
0.0
 11
1280.903
 21
345.8372
 31
0.0
  0
LINE
  5
42B
  8
5
  6
CONTINUOUS
 10
1405.903
 20
459.6372
 30
0.0
 11
1405.903
 21
474.6371
 31
0.0
  0
LINE
  5
42C
  8
5
  6
CONTINUOUS
 10
1280.903
 20
360.8371
 30
0.0
 11
1260.903
 21
360.8372
 31
0.0
  0
LINE
  5
42D
  8
5
  6
CONTINUOUS
 10
1405.903
 20
489.6372
 30
0.0
 11
1405.903
 21
506.6372
 31
0.0
  0
LINE
  5
42E
  8
5
  6
CONTINUOUS
 10
1280.903
 20
330.8371
 30
0.0
 11
1280.903
 21
313.8372
 31
0.0
  0
LINE
  5
42F
  8
5
  6
CONTINUOUS
 10
1260.903
 20
375.7372
 30
0.0
 11
1280.903
 21
375.7372
 31
0.0
  0
LINE
  5
430
  8
5
  6
CONTINUOUS
 10
1280.903
 20
360.8371
 30
0.0
 11
1280.903
 21
345.8372
 31
0.0
  0
LINE
  5
431
  8
5
  6
CONTINUOUS
 10
1280.903
 20
392.9371
 30
0.0
 11
1260.903
 21
392.9372
 31
0.0
  0
LINE
  5
432
  8
5
  6
CONTINUOUS
 10
1280.903
 20
392.9371
 30
0.0
 11
1280.903
 21
375.7372
 31
0.0
  0
LINE
  5
433
  8
5
  6
CONTINUOUS
 10
1280.903
 20
459.6372
 30
0.0
 11
1260.903
 21
459.6372
 31
0.0
  0
LINE
  5
434
  8
5
  6
CONTINUOUS
 10
1280.903
 20
459.6372
 30
0.0
 11
1280.903
 21
444.7371
 31
0.0
  0
LINE
  5
435
  8
5
  6
CONTINUOUS
 10
1280.903
 20
489.6372
 30
0.0
 11
1280.903
 21
474.6371
 31
0.0
  0
LINE
  5
436
  8
5
  6
CONTINUOUS
 10
1260.903
 20
444.7372
 30
0.0
 11
1280.903
 21
444.7371
 31
0.0
  0
LINE
  5
437
  8
5
  6
CONTINUOUS
 10
1280.903
 20
524.9371
 30
0.0
 11
1280.903
 21
506.6372
 31
0.0
  0
LINE
  5
438
  8
5
  6
CONTINUOUS
 10
1280.903
 20
489.6372
 30
0.0
 11
1260.903
 21
489.6372
 31
0.0
  0
LINE
  5
439
  8
5
  6
CONTINUOUS
 10
1280.903
 20
313.8372
 30
0.0
 11
1280.903
 21
295.5372
 31
0.0
  0
LINE
  5
43A
  8
5
  6
CONTINUOUS
 10
1280.903
 20
345.8372
 30
0.0
 11
1280.903
 21
330.8371
 31
0.0
  0
LINE
  5
43B
  8
5
  6
CONTINUOUS
 10
1260.903
 20
474.6372
 30
0.0
 11
1280.903
 21
474.6371
 31
0.0
  0
LINE
  5
43C
  8
5
  6
CONTINUOUS
 10
1280.903
 20
375.7372
 30
0.0
 11
1280.903
 21
360.8371
 31
0.0
  0
LINE
  5
43D
  8
5
  6
CONTINUOUS
 10
1280.903
 20
524.9371
 30
0.0
 11
1260.903
 21
524.9372
 31
0.0
  0
LINE
  5
43E
  8
5
  6
CONTINUOUS
 10
1280.903
 20
410.2372
 30
0.0
 11
1280.903
 21
392.9371
 31
0.0
  0
LINE
  5
43F
  8
5
  6
CONTINUOUS
 10
1280.903
 20
444.7371
 30
0.0
 11
1280.903
 21
427.5372
 31
0.0
  0
LINE
  5
440
  8
5
  6
CONTINUOUS
 10
1260.903
 20
506.6372
 30
0.0
 11
1280.903
 21
506.6372
 31
0.0
  0
LINE
  5
441
  8
5
  6
CONTINUOUS
 10
1280.903
 20
474.6371
 30
0.0
 11
1280.903
 21
459.6372
 31
0.0
  0
LINE
  5
442
  8
5
  6
CONTINUOUS
 10
1280.903
 20
506.6372
 30
0.0
 11
1280.903
 21
489.6372
 31
0.0
  0
LINE
  5
443
  8
5
  6
CONTINUOUS
 10
1280.903
 20
525.1373
 30
0.0
 11
1280.903
 21
524.9371
 31
0.0
  0
LINE
  5
444
  8
5
  6
CONTINUOUS
 10
1280.781
 20
295.4372
 30
0.0
 11
1260.903
 21
295.4372
 31
0.0
  0
LINE
  5
445
  8
5
  6
CONTINUOUS
 10
1280.903
 20
427.5372
 30
0.0
 11
1280.903
 21
410.2372
 31
0.0
  0
LINE
  5
446
  8
5
  6
CONTINUOUS
 10
1405.903
 20
524.9371
 30
0.0
 11
1280.903
 21
524.9371
 31
0.0
  0
LINE
  5
447
  8
5
  6
CONTINUOUS
 10
1280.903
 20
506.6372
 30
0.0
 11
1405.903
 21
506.6372
 31
0.0
  0
LINE
  5
448
  8
5
  6
CONTINUOUS
 10
1280.903
 20
474.6371
 30
0.0
 11
1405.903
 21
474.6371
 31
0.0
  0
LINE
  5
449
  8
5
  6
CONTINUOUS
 10
1405.903
 20
489.6372
 30
0.0
 11
1280.903
 21
489.6372
 31
0.0
  0
LINE
  5
44A
  8
5
  6
CONTINUOUS
 10
1280.903
 20
444.7371
 30
0.0
 11
1405.903
 21
444.7371
 31
0.0
  0
LINE
  5
44B
  8
5
  6
CONTINUOUS
 10
1405.903
 20
459.6372
 30
0.0
 11
1280.903
 21
459.6372
 31
0.0
  0
LINE
  5
44C
  8
5
  6
CONTINUOUS
 10
1280.903
 20
410.2372
 30
0.0
 11
1260.903
 21
410.2372
 31
0.0
  0
LINE
  5
44D
  8
5
  6
CONTINUOUS
 10
1280.903
 20
410.2372
 30
0.0
 11
1405.903
 21
410.2372
 31
0.0
  0
LINE
  5
44E
  8
5
  6
CONTINUOUS
 10
1405.903
 20
427.5372
 30
0.0
 11
1280.903
 21
427.5372
 31
0.0
  0
LINE
  5
44F
  8
5
  6
CONTINUOUS
 10
1260.903
 20
427.5372
 30
0.0
 11
1280.903
 21
427.5372
 31
0.0
  0
LINE
  5
450
  8
5
  6
CONTINUOUS
 10
1405.903
 20
392.9371
 30
0.0
 11
1280.903
 21
392.9371
 31
0.0
  0
LINE
  5
451
  8
5
  6
CONTINUOUS
 10
1280.903
 20
375.7372
 30
0.0
 11
1405.903
 21
375.7372
 31
0.0
  0
LINE
  5
452
  8
5
  6
CONTINUOUS
 10
1405.903
 20
360.8371
 30
0.0
 11
1280.903
 21
360.8371
 31
0.0
  0
LINE
  5
453
  8
5
  6
CONTINUOUS
 10
1280.903
 20
345.8372
 30
0.0
 11
1405.903
 21
345.8372
 31
0.0
  0
LINE
  5
454
  8
5
  6
CONTINUOUS
 10
1405.903
 20
330.8371
 30
0.0
 11
1280.903
 21
330.8371
 31
0.0
  0
LINE
  5
455
  8
5
  6
CONTINUOUS
 10
1280.903
 20
313.8372
 30
0.0
 11
1405.903
 21
313.8372
 31
0.0
  0
LINE
  5
456
  8
5
  6
CONTINUOUS
 10
967.6873
 20
633.0378
 30
0.0
 11
1408.12
 21
633.0378
 31
0.0
  0
LINE
  5
457
  8
5
  6
CONTINUOUS
 10
969.9035
 20
615.8371
 30
0.0
 11
967.6809
 21
632.9878
 31
0.0
  0
LINE
  5
458
  8
5
  6
CONTINUOUS
 10
1405.903
 20
615.8371
 30
0.0
 11
1079.942
 21
615.8372
 31
0.0
  0
LINE
  5
459
  8
5
  6
CONTINUOUS
 10
984.8653
 20
615.8372
 30
0.0
 11
969.9035
 21
615.8371
 31
0.0
  0
LINE
  5
45A
  8
5
  6
CONTINUOUS
 10
1408.126
 20
632.9878
 30
0.0
 11
1405.903
 21
615.8371
 31
0.0
  0
LINE
  5
45B
  8
5
  6
CONTINUOUS
 10
1408.12
 20
187.6366
 30
0.0
 11
967.6873
 21
187.6366
 31
0.0
  0
LINE
  5
45C
  8
5
  6
CONTINUOUS
 10
1405.903
 20
204.8372
 30
0.0
 11
1408.126
 21
187.6866
 31
0.0
  0
LINE
  5
45D
  8
5
  6
CONTINUOUS
 10
969.9035
 20
204.8372
 30
0.0
 11
1290.865
 21
204.8372
 31
0.0
  0
LINE
  5
45E
  8
5
  6
CONTINUOUS
 10
1385.942
 20
204.8372
 30
0.0
 11
1405.903
 21
204.8372
 31
0.0
  0
LINE
  5
45F
  8
5
  6
CONTINUOUS
 10
967.6809
 20
187.6866
 30
0.0
 11
969.9035
 21
204.8372
 31
0.0
  0
LINE
  5
460
  8
5
  6
CONTINUOUS
 10
1288.653
 20
221.6284
 30
0.0
 11
1287.231
 21
250.397
 31
0.0
  0
LINE
  5
461
  8
5
  6
CONTINUOUS
 10
1405.903
 20
204.8372
 30
0.0
 11
1405.903
 21
250.397
 31
0.0
  0
LINE
  5
462
  8
5
  6
CONTINUOUS
 10
1405.903
 20
250.397
 30
0.0
 11
1389.576
 21
250.397
 31
0.0
  0
LINE
  5
463
  8
5
  6
CONTINUOUS
 10
1389.576
 20
250.397
 30
0.0
 11
1388.153
 21
221.6284
 31
0.0
  0
LINE
  5
464
  8
5
  6
CONTINUOUS
 10
1356.403
 20
250.397
 30
0.0
 11
1320.403
 21
250.397
 31
0.0
  0
LINE
  5
465
  8
5
  6
CONTINUOUS
 10
1083.576
 20
570.2772
 30
0.0
 11
1405.903
 21
570.2772
 31
0.0
  0
LINE
  5
466
  8
5
  6
CONTINUOUS
 10
1405.903
 20
570.2772
 30
0.0
 11
1405.903
 21
615.8371
 31
0.0
  0
LINE
  5
467
  8
5
  6
CONTINUOUS
 10
969.9035
 20
615.8371
 30
0.0
 11
969.9035
 21
570.2772
 31
0.0
  0
LINE
  5
468
  8
5
  6
CONTINUOUS
 10
969.9035
 20
570.2772
 30
0.0
 11
981.2307
 21
570.2772
 31
0.0
  0
LINE
  5
469
  8
5
  6
CONTINUOUS
 10
1014.404
 20
570.2772
 30
0.0
 11
1050.403
 21
570.2772
 31
0.0
  0
LINE
  5
46A
  8
5
  6
CONTINUOUS
 10
1408.132
 20
235.74
 30
0.0
 11
1408.132
 21
187.7372
 31
0.0
  0
LINE
  5
46B
  8
5
  6
CONTINUOUS
 10
1410.374
 20
205.2373
 30
0.0
 11
1410.374
 21
223.7764
 31
0.0
  0
LINE
  5
46C
  8
5
  6
CONTINUOUS
 10
1410.374
 20
596.8979
 30
0.0
 11
1410.374
 21
615.4372
 31
0.0
  0
LINE
  5
46D
  8
5
  6
CONTINUOUS
 10
1408.132
 20
632.9372
 30
0.0
 11
1408.132
 21
584.9343
 31
0.0
  0
LINE
  5
46E
  8
5
  6
CONTINUOUS
 10
967.6744
 20
584.9343
 30
0.0
 11
967.6744
 21
632.9372
 31
0.0
  0
LINE
  5
46F
  8
5
  6
CONTINUOUS
 10
965.4326
 20
615.4372
 30
0.0
 11
965.4326
 21
596.8979
 31
0.0
  0
LINE
  5
470
  8
5
  6
CONTINUOUS
 10
1308.903
 20
189.3663
 30
0.0
 11
1291.787
 21
197.8385
 31
0.0
  0
LINE
  5
471
  8
5
  6
CONTINUOUS
 10
1308.903
 20
207.044
 30
0.0
 11
1308.903
 21
189.3663
 31
0.0
  0
LINE
  5
472
  8
5
  6
CONTINUOUS
 10
1291.787
 20
219.9164
 30
0.0
 11
1308.903
 21
207.044
 31
0.0
  0
LINE
  5
473
  8
5
  6
CONTINUOUS
 10
1287.231
 20
250.397
 30
0.0
 11
1260.903
 21
250.3971
 31
0.0
  0
LINE
  5
474
  8
5
  6
CONTINUOUS
 10
1291.787
 20
197.8385
 30
0.0
 11
1291.787
 21
219.9164
 31
0.0
  0
LINE
  5
475
  8
5
  6
CONTINUOUS
 10
1367.903
 20
207.044
 30
0.0
 11
1385.019
 21
219.9164
 31
0.0
  0
LINE
  5
476
  8
5
  6
CONTINUOUS
 10
969.9034
 20
247.8372
 30
0.0
 11
969.9035
 21
204.8372
 31
0.0
  0
LINE
  5
477
  8
5
  6
CONTINUOUS
 10
1367.903
 20
189.3663
 30
0.0
 11
1367.903
 21
207.044
 31
0.0
  0
LINE
  5
478
  8
5
  6
CONTINUOUS
 10
1385.019
 20
197.8385
 30
0.0
 11
1367.903
 21
189.3663
 31
0.0
  0
LINE
  5
479
  8
5
  6
CONTINUOUS
 10
1385.019
 20
219.9164
 30
0.0
 11
1385.019
 21
197.8385
 31
0.0
  0
LINE
  5
47A
  8
5
  6
CONTINUOUS
 10
1328.403
 20
231.2386
 30
0.0
 11
1320.403
 21
237.6905
 31
0.0
  0
LINE
  5
47B
  8
5
  6
CONTINUOUS
 10
1356.403
 20
237.6905
 30
0.0
 11
1348.403
 21
231.2386
 31
0.0
  0
LINE
  5
47C
  8
5
  6
CONTINUOUS
 10
1348.403
 20
231.2386
 30
0.0
 11
1328.403
 21
231.2386
 31
0.0
  0
LINE
  5
47D
  8
5
  6
CONTINUOUS
 10
1367.903
 20
189.3663
 30
0.0
 11
1308.903
 21
189.3663
 31
0.0
  0
LINE
  5
47E
  8
5
  6
CONTINUOUS
 10
1308.903
 20
207.044
 30
0.0
 11
1367.903
 21
207.044
 31
0.0
  0
LINE
  5
47F
  8
5
  6
CONTINUOUS
 10
1291.787
 20
197.8385
 30
0.0
 11
1288.653
 21
221.6284
 31
0.0
  0
LINE
  5
480
  8
5
  6
CONTINUOUS
 10
1288.248
 20
260.7372
 30
0.0
 11
1291.787
 21
219.9164
 31
0.0
  0
LINE
  5
481
  8
5
  6
CONTINUOUS
 10
1388.559
 20
260.7372
 30
0.0
 11
1385.019
 21
219.9164
 31
0.0
  0
LINE
  5
482
  8
5
  6
CONTINUOUS
 10
1385.019
 20
197.8385
 30
0.0
 11
1388.153
 21
221.6284
 31
0.0
  0
LINE
  5
483
  8
5
  6
CONTINUOUS
 10
1356.403
 20
260.7372
 30
0.0
 11
1356.403
 21
237.6905
 31
0.0
  0
LINE
  5
484
  8
5
  6
CONTINUOUS
 10
1320.403
 20
237.6905
 30
0.0
 11
1320.403
 21
260.7372
 31
0.0
  0
LINE
  5
485
  8
5
  6
CONTINUOUS
 10
1606.403
 20
550.3372
 30
0.0
 11
1542.404
 21
633.8371
 31
0.0
  0
LINE
  5
486
  8
5
  6
CONTINUOUS
 10
965.4326
 20
223.7764
 30
0.0
 11
965.4326
 21
205.2373
 31
0.0
  0
LINE
  5
487
  8
5
  6
CONTINUOUS
 10
967.6744
 20
187.7372
 30
0.0
 11
967.6744
 21
235.74
 31
0.0
  0
LINE
  5
488
  8
5
  6
CONTINUOUS
 10
1606.403
 20
550.3372
 30
0.0
 11
1606.403
 21
270.3372
 31
0.0
  0
LINE
  5
489
  8
5
  6
CONTINUOUS
 10
1542.404
 20
186.8371
 30
0.0
 11
1606.403
 21
270.3372
 31
0.0
  0
LINE
  5
48A
  8
5
  6
CONTINUOUS
 10
1615.403
 20
550.3372
 30
0.0
 11
1606.403
 21
550.3372
 31
0.0
  0
LINE
  5
48B
  8
5
  6
CONTINUOUS
 10
1606.403
 20
270.3372
 30
0.0
 11
1615.403
 21
270.3372
 31
0.0
  0
LINE
  5
48C
  8
5
  6
CONTINUOUS
 10
1473.903
 20
532.6332
 30
0.0
 11
1413.403
 21
532.6332
 31
0.0
  0
LINE
  5
48D
  8
5
  6
CONTINUOUS
 10
1473.903
 20
288.0412
 30
0.0
 11
1413.403
 21
288.0412
 31
0.0
  0
LINE
  5
48E
  8
5
  6
CONTINUOUS
 10
1473.904
 20
289.2839
 30
0.0
 11
1542.403
 21
289.2839
 31
0.0
  0
LINE
  5
48F
  8
5
  6
CONTINUOUS
 10
1473.904
 20
531.3906
 30
0.0
 11
1542.403
 21
531.3906
 31
0.0
  0
LINE
  5
490
  8
5
  6
CONTINUOUS
 10
1880.763
 20
1411.166
 30
0.0
 11
1885.906
 21
1402.607
 31
0.0
  0
LINE
  5
491
  8
5
  6
CONTINUOUS
 10
967.2133
 20
629.3372
 30
0.0
 11
955.9035
 21
629.3372
 31
0.0
  0
LINE
  5
496
  8
5
  6
CONTINUOUS
 10
2305.761
 20
1411.166
 30
0.0
 11
2300.618
 21
1402.607
 31
0.0
  0
LINE
  5
497
  8
5
  6
CONTINUOUS
 10
1889.969
 20
1442.944
 30
0.0
 11
1902.841
 21
1433.244
 31
0.0
  0
LINE
  5
498
  8
5
  6
CONTINUOUS
 10
1880.763
 20
1411.166
 30
0.0
 11
1872.291
 21
1425.266
 31
0.0
  0
LINE
  5
499
  8
5
  6
CONTINUOUS
 10
1872.291
 20
1425.266
 30
0.0
 11
1889.969
 21
1442.944
 31
0.0
  0
LINE
  5
49A
  8
5
  6
CONTINUOUS
 10
2296.555
 20
1442.944
 30
0.0
 11
2314.233
 21
1425.266
 31
0.0
  0
LINE
  5
49B
  8
5
  6
CONTINUOUS
 10
2314.233
 20
1425.266
 30
0.0
 11
2305.761
 21
1411.166
 31
0.0
  0
LINE
  5
49C
  8
5
  6
CONTINUOUS
 10
2283.683
 20
1433.244
 30
0.0
 11
2296.555
 21
1442.944
 31
0.0
  0
LINE
  5
49D
  8
5
  6
CONTINUOUS
 10
1902.841
 20
1433.244
 30
0.0
 11
1880.763
 21
1411.166
 31
0.0
  0
LINE
  5
49E
  8
5
  6
CONTINUOUS
 10
2305.761
 20
1411.166
 30
0.0
 11
2283.683
 21
1433.244
 31
0.0
  0
LINE
  5
49F
  8
5
  6
CONTINUOUS
 10
2213.437
 20
1469.973
 30
0.0
 11
2213.46
 21
1469.314
 31
0.0
  0
LINE
  5
4B7
  8
7
  6
DASHED
 10
898.4034
 20
1462.193
 30
0.0
 11
880.4034
 21
1462.193
 31
0.0
  0
LINE
  5
4B8
  8
7
  6
DASHED
 10
898.4034
 20
1443.682
 30
0.0
 11
880.4034
 21
1443.693
 31
0.0
  0
LINE
  5
4B9
  8
7
  6
DASHED
 10
898.4034
 20
1000.254
 30
0.0
 11
880.4034
 21
1000.254
 31
0.0
  0
LINE
  5
4BA
  8
7
  6
DASHED
 10
898.4034
 20
981.7534
 30
0.0
 11
880.4034
 21
981.7534
 31
0.0
  0
LINE
  5
4BB
  8
7
  6
DASHED
 10
898.4034
 20
650.557
 30
0.0
 11
880.4034
 21
650.557
 31
0.0
  0
LINE
  5
4BC
  8
7
  6
DASHED
 10
898.4034
 20
632.0571
 30
0.0
 11
880.4034
 21
632.0571
 31
0.0
  0
LINE
  5
4BD
  8
7
  6
DASHED
 10
898.4034
 20
496.7581
 30
0.0
 11
880.4034
 21
496.7581
 31
0.0
  0
LINE
  5
4BE
  8
7
  6
DASHED
 10
898.4034
 20
515.258
 30
0.0
 11
880.4034
 21
515.258
 31
0.0
  0
LINE
  5
4BF
  8
7
  6
DASHED
 10
898.4034
 20
323.9164
 30
0.0
 11
880.4034
 21
323.9164
 31
0.0
  0
LINE
  5
4C0
  8
7
  6
DASHED
 10
898.4034
 20
305.4163
 30
0.0
 11
880.4034
 21
305.4163
 31
0.0
  0
LINE
  5
4C1
  8
7
  6
DASHED
 10
898.4034
 20
188.6172
 30
0.0
 11
880.4034
 21
188.6172
 31
0.0
  0
LINE
  5
4C2
  8
7
  6
DASHED
 10
898.4034
 20
170.1173
 30
0.0
 11
880.4034
 21
170.1173
 31
0.0
  0
LINE
  5
4C3
  8
7
  6
DASHED
 10
898.4034
 20
1117.052
 30
0.0
 11
880.4034
 21
1117.052
 31
0.0
  0
LINE
  5
4C4
  8
7
  6
DASHED
 10
898.4034
 20
1135.552
 30
0.0
 11
880.4034
 21
1135.552
 31
0.0
  0
LINE
  5
4C5
  8
7
  6
DASHED
 10
898.4034
 20
1326.894
 30
0.0
 11
880.4034
 21
1326.894
 31
0.0
  0
LINE
  5
4C6
  8
7
  6
DASHED
 10
898.4034
 20
1308.394
 30
0.0
 11
880.4034
 21
1308.394
 31
0.0
  0
LINE
  5
4C7
  8
6
  6
CENTER
 10
905.9034
 20
1126.302
 30
0.0
 11
867.9034
 21
1126.302
 31
0.0
  0
LINE
  5
4C8
  8
6
  6
CENTER
 10
905.9034
 20
991.0035
 30
0.0
 11
867.9034
 21
991.0035
 31
0.0
  0
LINE
  5
4C9
  8
6
  6
CENTER
 10
905.9034
 20
1317.644
 30
0.0
 11
867.9034
 21
1317.644
 31
0.0
  0
LINE
  5
4CA
  8
6
  6
CENTER
 10
905.9034
 20
1452.927
 30
0.0
 11
867.9034
 21
1452.951
 31
0.0
  0
LINE
  5
4CB
  8
6
  6
CENTER
 10
905.9034
 20
179.3673
 30
0.0
 11
867.9034
 21
179.3673
 31
0.0
  0
LINE
  5
4CC
  8
6
  6
CENTER
 10
905.9034
 20
314.6663
 30
0.0
 11
867.9034
 21
314.6663
 31
0.0
  0
LINE
  5
4CD
  8
6
  6
CENTER
 10
905.9034
 20
506.0081
 30
0.0
 11
867.9034
 21
506.0081
 31
0.0
  0
LINE
  5
4CE
  8
6
  6
CENTER
 10
905.9034
 20
641.3071
 30
0.0
 11
867.9034
 21
641.3071
 31
0.0
  0
ARC
  5
4CF
  8
6
  6
CENTER
 10
2093.262
 20
1221.973
 30
0.0
 40
250.0
 50
18.08247
 51
26.72072
  0
LINE
  5
4D0
  8
6
  6
CENTER
 10
2308.526
 20
1311.139
 30
0.0
 11
2337.397
 21
1323.097
 31
0.0
  0
ARC
  5
4D1
  8
6
  6
CENTER
 10
2093.262
 20
1221.973
 30
0.0
 40
250.0
 50
332.1428
 51
342.1568
  0
LINE
  5
4D2
  8
6
  6
CENTER
 10
2308.526
 20
1132.808
 30
0.0
 11
2337.397
 21
1120.849
 31
0.0
  0
ARC
  5
4D3
  8
6
  6
CENTER
 10
2093.262
 20
1221.973
 30
0.0
 40
250.0
 50
287.8131
 51
296.6789
  0
LINE
  5
4D4
  8
6
  6
CENTER
 10
2182.427
 20
1006.709
 30
0.0
 11
2194.386
 21
977.8381
 31
0.0
  0
ARC
  5
4D5
  8
6
  6
CENTER
 10
2093.262
 20
1221.973
 30
0.0
 40
250.0
 50
241.9338
 51
252.2748
  0
LINE
  5
4D6
  8
6
  6
CENTER
 10
2004.097
 20
1006.709
 30
0.0
 11
1992.138
 21
977.8381
 31
0.0
  0
ARC
  5
4D7
  8
6
  6
CENTER
 10
2093.262
 20
1221.973
 30
0.0
 40
250.0
 50
197.0444
 51
207.5812
  0
LINE
  5
4D8
  8
6
  6
CENTER
 10
1877.998
 20
1132.808
 30
0.0
 11
1849.127
 21
1120.849
 31
0.0
  0
ARC
  5
4D9
  8
6
  6
CENTER
 10
2093.262
 20
1221.973
 30
0.0
 40
250.0
 50
153.0924
 51
162.2464
  0
LINE
  5
4DA
  8
6
  6
CENTER
 10
1877.998
 20
1311.139
 30
0.0
 11
1849.127
 21
1323.097
 31
0.0
  0
ARC
  5
4DB
  8
6
  6
CENTER
 10
2093.262
 20
1221.973
 30
0.0
 40
250.0
 50
107.7805
 51
117.2171
  0
LINE
  5
4DC
  8
6
  6
CENTER
 10
2004.097
 20
1437.237
 30
0.0
 11
1992.138
 21
1466.108
 31
0.0
  0
ARC
  5
4DD
  8
6
  6
CENTER
 10
2093.262
 20
1221.973
 30
0.0
 40
250.0
 50
62.77481
 51
71.76192
  0
LINE
  5
4DE
  8
6
  6
CENTER
 10
2182.427
 20
1437.237
 30
0.0
 11
2194.386
 21
1466.108
 31
0.0
  0
LINE
  5
4DF
  8
5
  6
CONTINUOUS
 10
1910.51
 20
1427.465
 30
0.0
 11
1902.841
 21
1433.244
 31
0.0
  0
LINE
  5
4E4
  8
5
  6
CONTINUOUS
 10
2276.014
 20
1427.465
 30
0.0
 11
2283.683
 21
1433.244
 31
0.0
  0
LINE
  5
4E5
  8
5
  6
CONTINUOUS
 10
1973.064
 20
1469.314
 30
0.0
 11
1973.087
 21
1469.973
 31
0.0
  0
ARC
  5
4E8
  8
5
  6
CENTER
 10
2093.262
 20
1221.973
 30
0.0
 40
250.0
 50
22.35838
 51
22.68099
  0
LINE
  5
4E9
  8
6
  6
CENTER
 10
715.4034
 20
1221.973
 30
0.0
 11
1640.403
 21
1221.973
 31
0.0
  0
LINE
  5
501
  8
0
  6
CONTINUOUS
 10
750.4032
 20
1251.973
 30
0.0
 11
759.4034
 21
1250.592
 31
0.0
  0
LINE
  5
502
  8
0
  6
CONTINUOUS
 10
870.4033
 20
1251.973
 30
0.0
 11
861.4034
 21
1250.592
 31
0.0
  0
LINE
  5
503
  8
6
  6
CENTER
 10
991.399699
 20
410.337021
 30
0.0
 11
715.4034
 21
410.3372
 31
0.0
  0
LINE
  5
505
  8
5
  6
CONTINUOUS
 10
1086.824594
 20
1554.969351
 30
0.0
 11
1100.603594
 21
1554.969851
 31
0.0
  0
LINE
  5
506
  8
5
  6
CONTINUOUS
 10
1100.602594
 20
1581.036051
 30
0.0
 11
1086.823594
 21
1581.035651
 31
0.0
  0
LINE
  5
507
  8
5
  6
CONTINUOUS
 10
1086.823594
 20
1583.135651
 30
0.0
 11
1100.602594
 21
1583.136051
 31
0.0
  0
LINE
  5
508
  8
5
  6
CONTINUOUS
 10
1100.601594
 20
1608.033351
 30
0.0
 11
1086.823594
 21
1608.032851
 31
0.0
  0
LINE
  5
509
  8
5
  6
CONTINUOUS
 10
1034.647594
 20
1581.033851
 30
0.0
 11
1025.706594
 21
1554.967251
 31
0.0
  0
LINE
  5
50A
  8
5
  6
CONTINUOUS
 10
1049.703594
 20
1565.725451
 30
0.0
 11
1049.702594
 21
1581.034351
 31
0.0
  0
LINE
  5
50B
  8
5
  6
CONTINUOUS
 10
1025.706594
 20
1554.967251
 30
0.0
 11
1034.568594
 21
1554.967551
 31
0.0
  0
LINE
  5
50C
  8
5
  6
CONTINUOUS
 10
1038.259594
 20
1565.725051
 30
0.0
 11
1049.703594
 21
1565.725451
 31
0.0
  0
LINE
  5
50D
  8
5
  6
CONTINUOUS
 10
1034.568594
 20
1554.967551
 30
0.0
 11
1038.259594
 21
1565.725051
 31
0.0
  0
LINE
  5
50E
  8
5
  6
CONTINUOUS
 10
1049.702594
 20
1581.034351
 30
0.0
 11
1034.647594
 21
1581.033851
 31
0.0
  0
LINE
  5
50F
  8
5
  6
CONTINUOUS
 10
1049.701594
 20
1608.031551
 30
0.0
 11
1043.908594
 21
1608.031351
 31
0.0
  0
LINE
  5
510
  8
5
  6
CONTINUOUS
 10
1049.702594
 20
1583.134351
 30
0.0
 11
1049.701594
 21
1608.031551
 31
0.0
  0
LINE
  5
511
  8
5
  6
CONTINUOUS
 10
1035.368594
 20
1583.133851
 30
0.0
 11
1049.702594
 21
1583.134351
 31
0.0
  0
LINE
  5
512
  8
5
  6
CONTINUOUS
 10
1043.908594
 20
1608.031351
 30
0.0
 11
1035.368594
 21
1583.133851
 31
0.0
  0
LINE
  5
513
  8
5
  6
CONTINUOUS
 10
1086.823594
 20
1581.035651
 30
0.0
 11
1086.824594
 21
1554.969351
 31
0.0
  0
LINE
  5
514
  8
5
  6
CONTINUOUS
 10
1076.537594
 20
1554.968951
 30
0.0
 11
1067.232594
 21
1581.034951
 31
0.0
  0
LINE
  5
515
  8
5
  6
CONTINUOUS
 10
1051.802594
 20
1581.034351
 30
0.0
 11
1051.803594
 21
1565.725451
 31
0.0
  0
LINE
  5
516
  8
5
  6
CONTINUOUS
 10
1067.036594
 20
1554.968651
 30
0.0
 11
1076.537594
 21
1554.968951
 31
0.0
  0
LINE
  5
517
  8
5
  6
CONTINUOUS
 10
1063.196594
 20
1565.725951
 30
0.0
 11
1067.036594
 21
1554.968651
 31
0.0
  0
LINE
  5
518
  8
5
  6
CONTINUOUS
 10
1051.803594
 20
1565.725451
 30
0.0
 11
1063.196594
 21
1565.725951
 31
0.0
  0
LINE
  5
519
  8
5
  6
CONTINUOUS
 10
1067.232594
 20
1581.034951
 30
0.0
 11
1051.802594
 21
1581.034351
 31
0.0
  0
LINE
  5
51A
  8
5
  6
CONTINUOUS
 10
1051.801594
 20
1608.031651
 30
0.0
 11
1051.802594
 21
1583.134351
 31
0.0
  0
LINE
  5
51B
  8
5
  6
CONTINUOUS
 10
1057.594594
 20
1608.031851
 30
0.0
 11
1051.801594
 21
1608.031651
 31
0.0
  0
LINE
  5
51C
  8
5
  6
CONTINUOUS
 10
1066.482594
 20
1583.134951
 30
0.0
 11
1057.594594
 21
1608.031851
 31
0.0
  0
LINE
  5
51D
  8
5
  6
CONTINUOUS
 10
1051.802594
 20
1583.134351
 30
0.0
 11
1066.482594
 21
1583.134951
 31
0.0
  0
LINE
  5
51E
  8
5
  6
CONTINUOUS
 10
1086.823594
 20
1608.032851
 30
0.0
 11
1086.823594
 21
1583.135551
 31
0.0
  0
LINE
  5
51F
  8
5
  6
CONTINUOUS
 10
1132.470594
 20
1554.970951
 30
0.0
 11
1146.248594
 21
1554.971351
 31
0.0
  0
LINE
  5
520
  8
5
  6
CONTINUOUS
 10
1132.469594
 20
1581.037151
 30
0.0
 11
1146.247594
 21
1581.037651
 31
0.0
  0
LINE
  5
521
  8
5
  6
CONTINUOUS
 10
1146.247594
 20
1608.034851
 30
0.0
 11
1132.468594
 21
1608.034451
 31
0.0
  0
LINE
  5
522
  8
5
  6
CONTINUOUS
 10
1132.469594
 20
1583.137151
 30
0.0
 11
1146.247594
 21
1583.137651
 31
0.0
  0
LINE
  5
523
  8
5
  6
CONTINUOUS
 10
1132.469594
 20
1581.037151
 30
0.0
 11
1132.470594
 21
1554.970951
 31
0.0
  0
ARC
  5
524
  8
5
  6
CONTINUOUS
 10
1105.519594
 20
1568.992551
 30
0.0
 40
16.83332
 50
2.745839
 51
45.68278
  0
LINE
  5
525
  8
5
  6
CONTINUOUS
 10
1102.702594
 20
1581.036051
 30
0.0
 11
1102.703594
 21
1554.969851
 31
0.0
  0
LINE
  5
526
  8
5
  6
CONTINUOUS
 10
1100.603594
 20
1554.969851
 30
0.0
 11
1100.602594
 21
1581.036051
 31
0.0
  0
ARC
  5
527
  8
5
  6
CONTINUOUS
 10
1107.504594
 20
1569.798551
 30
0.0
 40
14.82843
 50
270.002
 51
0.0019
  0
LINE
  5
528
  8
5
  6
CONTINUOUS
 10
1102.703594
 20
1554.969851
 30
0.0
 11
1107.505594
 21
1554.970051
 31
0.0
  0
LINE
  5
529
  8
5
  6
CONTINUOUS
 10
1102.701594
 20
1608.033451
 30
0.0
 11
1102.702594
 21
1583.136051
 31
0.0
  0
LINE
  5
52A
  8
5
  6
CONTINUOUS
 10
1107.503594
 20
1608.033551
 30
0.0
 11
1102.701594
 21
1608.033451
 31
0.0
  0
ARC
  5
52B
  8
5
  6
CONTINUOUS
 10
1107.503594
 20
1597.594051
 30
0.0
 40
10.43949
 50
0.001947
 51
90.00195
  0
ARC
  5
52C
  8
5
  6
CONTINUOUS
 10
1104.472594
 20
1598.842351
 30
0.0
 40
13.5281
 50
283.5581
 51
354.7072
  0
ARC
  5
52D
  8
5
  6
CONTINUOUS
 10
1105.519594
 20
1568.992551
 30
0.0
 40
16.83329
 50
57.16499
 51
82.74766
  0
LINE
  5
52E
  8
5
  6
CONTINUOUS
 10
1102.702594
 20
1583.136051
 30
0.0
 11
1114.646594
 21
1583.136551
 31
0.0
  0
LINE
  5
52F
  8
5
  6
CONTINUOUS
 10
1117.279594
 20
1581.036551
 30
0.0
 11
1102.702594
 21
1581.036051
 31
0.0
  0
LINE
  5
530
  8
5
  6
CONTINUOUS
 10
1100.602594
 20
1583.136051
 30
0.0
 11
1100.601594
 21
1608.033351
 31
0.0
  0
LINE
  5
531
  8
5
  6
CONTINUOUS
 10
1132.468594
 20
1608.034451
 30
0.0
 11
1132.469594
 21
1583.137151
 31
0.0
  0
LINE
  5
532
  8
5
  6
CONTINUOUS
 10
1146.248594
 20
1554.971351
 30
0.0
 11
1146.247594
 21
1581.037651
 31
0.0
  0
ARC
  5
533
  8
5
  6
CONTINUOUS
 10
1151.164594
 20
1568.994151
 30
0.0
 40
16.83332
 50
2.745839
 51
45.68319
  0
LINE
  5
534
  8
5
  6
CONTINUOUS
 10
1148.347594
 20
1581.037651
 30
0.0
 11
1148.348594
 21
1554.971351
 31
0.0
  0
ARC
  5
535
  8
5
  6
CONTINUOUS
 10
1153.150594
 20
1569.800051
 30
0.0
 40
14.82844
 50
270.0017
 51
0.0019
  0
LINE
  5
536
  8
5
  6
CONTINUOUS
 10
1148.348594
 20
1554.971351
 30
0.0
 11
1153.150594
 21
1554.971651
 31
0.0
  0
LINE
  5
537
  8
5
  6
CONTINUOUS
 10
1162.925594
 20
1581.038151
 30
0.0
 11
1148.347594
 21
1581.037651
 31
0.0
  0
LINE
  5
538
  8
5
  6
CONTINUOUS
 10
1148.347594
 20
1608.034951
 30
0.0
 11
1148.347594
 21
1583.137651
 31
0.0
  0
LINE
  5
539
  8
5
  6
CONTINUOUS
 10
1153.149594
 20
1608.035151
 30
0.0
 11
1148.347594
 21
1608.034951
 31
0.0
  0
ARC
  5
53A
  8
5
  6
CONTINUOUS
 10
1153.149594
 20
1597.595651
 30
0.0
 40
10.43949
 50
0.001947
 51
90.00195
  0
ARC
  5
53B
  8
5
  6
CONTINUOUS
 10
1150.118594
 20
1598.843951
 30
0.0
 40
13.5281
 50
283.5581
 51
354.7072
  0
ARC
  5
53C
  8
5
  6
CONTINUOUS
 10
1151.164594
 20
1568.994151
 30
0.0
 40
16.83336
 50
57.16459
 51
82.74766
  0
LINE
  5
53D
  8
5
  6
CONTINUOUS
 10
1148.347594
 20
1583.137651
 30
0.0
 11
1160.292594
 21
1583.138051
 31
0.0
  0
LINE
  5
53E
  8
5
  6
CONTINUOUS
 10
1146.247594
 20
1583.137651
 30
0.0
 11
1146.247594
 21
1608.034851
 31
0.0
  0
LINE
  5
579
  8
5
  6
CONTINUOUS
 10
481.828465
 20
1268.733277
 30
0.0
 11
481.828465
 21
1251.305167
 31
0.0
  0
ARC
  5
57A
  8
5
  6
CONTINUOUS
 10
483.800365
 20
1241.404717
 30
0.0
 40
11.783352
 50
57.16459
 51
82.74766
  0
LINE
  5
57B
  8
5
  6
CONTINUOUS
 10
480.358465
 20
1251.305167
 30
0.0
 11
480.358465
 21
1268.733207
 31
0.0
  0
LINE
  5
57C
  8
5
  6
CONTINUOUS
 10
470.713165
 20
1268.732927
 30
0.0
 11
470.713865
 21
1251.304817
 31
0.0
  0
LINE
  5
57D
  8
5
  6
CONTINUOUS
 10
449.876265
 20
1268.732227
 30
0.0
 11
449.876965
 21
1251.304047
 31
0.0
  0
ARC
  5
57E
  8
5
  6
CONTINUOUS
 10
451.848865
 20
1241.403597
 30
0.0
 40
11.783303
 50
57.16499
 51
82.74766
  0
LINE
  5
57F
  8
5
  6
CONTINUOUS
 10
448.406965
 20
1251.304047
 30
0.0
 11
448.406265
 21
1268.732157
 31
0.0
  0
LINE
  5
580
  8
5
  6
CONTINUOUS
 10
438.761665
 20
1268.731807
 30
0.0
 11
438.761665
 21
1251.303697
 31
0.0
  0
LINE
  5
581
  8
5
  6
CONTINUOUS
 10
412.776965
 20
1251.302857
 30
0.0
 11
412.776265
 21
1268.730897
 31
0.0
  0
LINE
  5
582
  8
5
  6
CONTINUOUS
 10
414.246265
 20
1268.730967
 30
0.0
 11
414.246965
 21
1251.302857
 31
0.0
  0
LINE
  5
583
  8
5
  6
CONTINUOUS
 10
424.522965
 20
1251.303277
 30
0.0
 11
418.301365
 21
1268.731107
 31
0.0
  0
LINE
  5
584
  8
5
  6
CONTINUOUS
 10
408.721165
 20
1268.730757
 30
0.0
 11
402.743165
 21
1251.302507
 31
0.0
  0
LINE
  5
585
  8
5
  6
CONTINUOUS
 10
438.761665
 20
1251.303767
 30
0.0
 11
448.406965
 21
1251.304047
 31
0.0
  0
LINE
  5
586
  8
5
  6
CONTINUOUS
 10
438.762365
 20
1231.587357
 30
0.0
 11
448.407665
 21
1231.587707
 31
0.0
  0
LINE
  5
587
  8
5
  6
CONTINUOUS
 10
448.406965
 20
1249.834047
 30
0.0
 11
438.761665
 21
1249.833767
 31
0.0
  0
LINE
  5
588
  8
5
  6
CONTINUOUS
 10
402.238465
 20
1249.832507
 30
0.0
 11
395.979765
 21
1231.585887
 31
0.0
  0
LINE
  5
589
  8
5
  6
CONTINUOUS
 10
395.979765
 20
1231.585887
 30
0.0
 11
402.183165
 21
1231.586097
 31
0.0
  0
LINE
  5
58A
  8
5
  6
CONTINUOUS
 10
414.246965
 20
1251.302857
 30
0.0
 11
424.522965
 21
1251.303277
 31
0.0
  0
LINE
  5
58B
  8
5
  6
CONTINUOUS
 10
422.222765
 20
1239.116977
 30
0.0
 11
424.910765
 21
1231.586867
 31
0.0
  0
LINE
  5
58C
  8
5
  6
CONTINUOUS
 10
425.047965
 20
1249.833277
 30
0.0
 11
414.246965
 21
1249.832857
 31
0.0
  0
LINE
  5
58D
  8
5
  6
CONTINUOUS
 10
402.743165
 20
1251.302507
 30
0.0
 11
412.776965
 21
1251.302857
 31
0.0
  0
LINE
  5
58E
  8
5
  6
CONTINUOUS
 10
412.777665
 20
1239.116627
 30
0.0
 11
412.776965
 21
1249.832857
 31
0.0
  0
LINE
  5
58F
  8
5
  6
CONTINUOUS
 10
414.246965
 20
1249.832857
 30
0.0
 11
414.247665
 21
1239.116627
 31
0.0
  0
LINE
  5
590
  8
5
  6
CONTINUOUS
 10
414.247665
 20
1239.116627
 30
0.0
 11
422.222765
 21
1239.116977
 31
0.0
  0
LINE
  5
591
  8
5
  6
CONTINUOUS
 10
402.183165
 20
1231.586097
 30
0.0
 11
404.766865
 21
1239.116347
 31
0.0
  0
LINE
  5
592
  8
5
  6
CONTINUOUS
 10
404.766865
 20
1239.116347
 30
0.0
 11
412.777665
 21
1239.116627
 31
0.0
  0
LINE
  5
593
  8
5
  6
CONTINUOUS
 10
412.776965
 20
1249.832857
 30
0.0
 11
402.238465
 21
1249.832507
 31
0.0
  0
LINE
  5
594
  8
5
  6
CONTINUOUS
 10
438.761665
 20
1249.833767
 30
0.0
 11
438.762365
 21
1231.587357
 31
0.0
  0
LINE
  5
595
  8
5
  6
CONTINUOUS
 10
431.561465
 20
1231.587077
 30
0.0
 11
425.047965
 21
1249.833277
 31
0.0
  0
LINE
  5
596
  8
5
  6
CONTINUOUS
 10
424.910765
 20
1231.586867
 30
0.0
 11
431.561465
 21
1231.587077
 31
0.0
  0
ARC
  5
597
  8
5
  6
CONTINUOUS
 10
483.800365
 20
1241.404717
 30
0.0
 40
11.783324
 50
2.745839
 51
45.68319
  0
ARC
  5
598
  8
5
  6
CONTINUOUS
 10
485.190565
 20
1241.968847
 30
0.0
 40
10.379908
 50
270.0017
 51
0.0019
  0
LINE
  5
599
  8
5
  6
CONTINUOUS
 10
449.876965
 20
1251.304047
 30
0.0
 11
458.237765
 21
1251.304397
 31
0.0
  0
LINE
  5
59A
  8
5
  6
CONTINUOUS
 10
449.876965
 20
1249.834047
 30
0.0
 11
449.877665
 21
1231.587707
 31
0.0
  0
LINE
  5
59B
  8
5
  6
CONTINUOUS
 10
448.407665
 20
1231.587707
 30
0.0
 11
448.406965
 21
1249.834047
 31
0.0
  0
LINE
  5
59C
  8
5
  6
CONTINUOUS
 10
449.877665
 20
1231.587707
 30
0.0
 11
453.239065
 21
1231.587847
 31
0.0
  0
LINE
  5
59D
  8
5
  6
CONTINUOUS
 10
460.080865
 20
1249.834397
 30
0.0
 11
449.876965
 21
1249.834047
 31
0.0
  0
ARC
  5
59E
  8
5
  6
CONTINUOUS
 10
451.848865
 20
1241.403597
 30
0.0
 40
11.783324
 50
2.745839
 51
45.68278
  0
ARC
  5
59F
  8
5
  6
CONTINUOUS
 10
453.238365
 20
1241.967797
 30
0.0
 40
10.379901
 50
270.002
 51
0.0019
  0
LINE
  5
5A0
  8
5
  6
CONTINUOUS
 10
481.828465
 20
1251.305167
 30
0.0
 11
490.189965
 21
1251.305447
 31
0.0
  0
LINE
  5
5A1
  8
5
  6
CONTINUOUS
 10
470.713865
 20
1251.304817
 30
0.0
 11
480.358465
 21
1251.305167
 31
0.0
  0
LINE
  5
5A2
  8
5
  6
CONTINUOUS
 10
480.359165
 20
1231.588757
 30
0.0
 11
480.358465
 21
1249.835167
 31
0.0
  0
LINE
  5
5A3
  8
5
  6
CONTINUOUS
 10
481.828465
 20
1249.835167
 30
0.0
 11
481.829165
 21
1231.588757
 31
0.0
  0
LINE
  5
5A4
  8
5
  6
CONTINUOUS
 10
481.829165
 20
1231.588757
 30
0.0
 11
485.190565
 21
1231.588967
 31
0.0
  0
LINE
  5
5A5
  8
5
  6
CONTINUOUS
 10
492.033065
 20
1249.835517
 30
0.0
 11
481.828465
 21
1249.835167
 31
0.0
  0
LINE
  5
5A6
  8
5
  6
CONTINUOUS
 10
470.713865
 20
1249.834817
 30
0.0
 11
470.714565
 21
1231.588477
 31
0.0
  0
LINE
  5
5A7
  8
5
  6
CONTINUOUS
 10
470.714565
 20
1231.588477
 30
0.0
 11
480.359165
 21
1231.588757
 31
0.0
  0
LINE
  5
5A8
  8
5
  6
CONTINUOUS
 10
470.713865
 20
1249.834817
 30
0.0
 11
480.358465
 21
1249.835167
 31
0.0
  0
LINE
  5
5A9
  8
5
  6
CONTINUOUS
 10
448.406265
 20
1268.732157
 30
0.0
 11
438.761665
 21
1268.731807
 31
0.0
  0
LINE
  5
5AA
  8
5
  6
CONTINUOUS
 10
418.301365
 20
1268.731107
 30
0.0
 11
414.246265
 21
1268.730967
 31
0.0
  0
LINE
  5
5AB
  8
5
  6
CONTINUOUS
 10
412.776265
 20
1268.730897
 30
0.0
 11
408.721165
 21
1268.730757
 31
0.0
  0
ARC
  5
5AC
  8
5
  6
CONTINUOUS
 10
485.189865
 20
1261.425767
 30
0.0
 40
7.307643
 50
0.001947
 51
90.00195
  0
ARC
  5
5AD
  8
5
  6
CONTINUOUS
 10
483.068165
 20
1262.299577
 30
0.0
 40
9.46967
 50
283.5581
 51
354.7072
  0
LINE
  5
5AE
  8
5
  6
CONTINUOUS
 10
453.237665
 20
1268.732297
 30
0.0
 11
449.876265
 21
1268.732227
 31
0.0
  0
ARC
  5
5AF
  8
5
  6
CONTINUOUS
 10
453.237665
 20
1261.424647
 30
0.0
 40
7.307643
 50
0.001947
 51
90.00195
  0
ARC
  5
5B0
  8
5
  6
CONTINUOUS
 10
451.115965
 20
1262.298457
 30
0.0
 40
9.46967
 50
283.5581
 51
354.7072
  0
LINE
  5
5B1
  8
5
  6
CONTINUOUS
 10
485.189865
 20
1268.733417
 30
0.0
 11
481.828465
 21
1268.733277
 31
0.0
  0
LINE
  5
5B2
  8
5
  6
CONTINUOUS
 10
480.358465
 20
1268.733207
 30
0.0
 11
470.713165
 21
1268.732927
 31
0.0
  0
LINE
  5
5B3
  8
5
  6
CONTINUOUS
 10
2134.796981
 20
1642.191834
 30
0.0
 11
2134.796981
 21
1624.763724
 31
0.0
  0
ARC
  5
5B4
  8
5
  6
CONTINUOUS
 10
2136.768881
 20
1614.863274
 30
0.0
 40
11.783352
 50
57.16459
 51
82.74766
  0
LINE
  5
5B5
  8
5
  6
CONTINUOUS
 10
2133.326981
 20
1624.763724
 30
0.0
 11
2133.326981
 21
1642.191764
 31
0.0
  0
LINE
  5
5B6
  8
5
  6
CONTINUOUS
 10
2123.681681
 20
1642.191484
 30
0.0
 11
2123.682381
 21
1624.763374
 31
0.0
  0
LINE
  5
5B7
  8
5
  6
CONTINUOUS
 10
2102.844781
 20
1642.190784
 30
0.0
 11
2102.845481
 21
1624.762604
 31
0.0
  0
ARC
  5
5B8
  8
5
  6
CONTINUOUS
 10
2104.817381
 20
1614.862154
 30
0.0
 40
11.783303
 50
57.16499
 51
82.74766
  0
LINE
  5
5B9
  8
5
  6
CONTINUOUS
 10
2101.375481
 20
1624.762604
 30
0.0
 11
2101.374781
 21
1642.190714
 31
0.0
  0
LINE
  5
5BA
  8
5
  6
CONTINUOUS
 10
2091.730181
 20
1642.190364
 30
0.0
 11
2091.730181
 21
1624.762254
 31
0.0
  0
LINE
  5
5BB
  8
5
  6
CONTINUOUS
 10
2065.745481
 20
1624.761414
 30
0.0
 11
2065.744781
 21
1642.189454
 31
0.0
  0
LINE
  5
5BC
  8
5
  6
CONTINUOUS
 10
2067.214781
 20
1642.189524
 30
0.0
 11
2067.215481
 21
1624.761414
 31
0.0
  0
LINE
  5
5BD
  8
5
  6
CONTINUOUS
 10
2077.491481
 20
1624.761834
 30
0.0
 11
2071.269881
 21
1642.189664
 31
0.0
  0
LINE
  5
5BE
  8
5
  6
CONTINUOUS
 10
2061.689681
 20
1642.189314
 30
0.0
 11
2055.711681
 21
1624.761064
 31
0.0
  0
LINE
  5
5BF
  8
5
  6
CONTINUOUS
 10
2091.730181
 20
1624.762324
 30
0.0
 11
2101.375481
 21
1624.762604
 31
0.0
  0
LINE
  5
5C0
  8
5
  6
CONTINUOUS
 10
2091.730881
 20
1605.045914
 30
0.0
 11
2101.376181
 21
1605.046264
 31
0.0
  0
LINE
  5
5C1
  8
5
  6
CONTINUOUS
 10
2101.375481
 20
1623.292604
 30
0.0
 11
2091.730181
 21
1623.292324
 31
0.0
  0
LINE
  5
5C2
  8
5
  6
CONTINUOUS
 10
2055.206981
 20
1623.291064
 30
0.0
 11
2048.948281
 21
1605.044444
 31
0.0
  0
LINE
  5
5C3
  8
5
  6
CONTINUOUS
 10
2048.948281
 20
1605.044444
 30
0.0
 11
2055.151681
 21
1605.044654
 31
0.0
  0
LINE
  5
5C4
  8
5
  6
CONTINUOUS
 10
2067.215481
 20
1624.761414
 30
0.0
 11
2077.491481
 21
1624.761834
 31
0.0
  0
LINE
  5
5C5
  8
5
  6
CONTINUOUS
 10
2075.191281
 20
1612.575534
 30
0.0
 11
2077.879281
 21
1605.045424
 31
0.0
  0
LINE
  5
5C6
  8
5
  6
CONTINUOUS
 10
2078.016481
 20
1623.291834
 30
0.0
 11
2067.215481
 21
1623.291414
 31
0.0
  0
LINE
  5
5C7
  8
5
  6
CONTINUOUS
 10
2055.711681
 20
1624.761064
 30
0.0
 11
2065.745481
 21
1624.761414
 31
0.0
  0
LINE
  5
5C8
  8
5
  6
CONTINUOUS
 10
2065.746181
 20
1612.575184
 30
0.0
 11
2065.745481
 21
1623.291414
 31
0.0
  0
LINE
  5
5C9
  8
5
  6
CONTINUOUS
 10
2067.215481
 20
1623.291414
 30
0.0
 11
2067.216181
 21
1612.575184
 31
0.0
  0
LINE
  5
5CA
  8
5
  6
CONTINUOUS
 10
2067.216181
 20
1612.575184
 30
0.0
 11
2075.191281
 21
1612.575534
 31
0.0
  0
LINE
  5
5CB
  8
5
  6
CONTINUOUS
 10
2055.151681
 20
1605.044654
 30
0.0
 11
2057.735381
 21
1612.574904
 31
0.0
  0
LINE
  5
5CC
  8
5
  6
CONTINUOUS
 10
2057.735381
 20
1612.574904
 30
0.0
 11
2065.746181
 21
1612.575184
 31
0.0
  0
LINE
  5
5CD
  8
5
  6
CONTINUOUS
 10
2065.745481
 20
1623.291414
 30
0.0
 11
2055.206981
 21
1623.291064
 31
0.0
  0
LINE
  5
5CE
  8
5
  6
CONTINUOUS
 10
2091.730181
 20
1623.292324
 30
0.0
 11
2091.730881
 21
1605.045914
 31
0.0
  0
LINE
  5
5CF
  8
5
  6
CONTINUOUS
 10
2084.529981
 20
1605.045634
 30
0.0
 11
2078.016481
 21
1623.291834
 31
0.0
  0
LINE
  5
5D0
  8
5
  6
CONTINUOUS
 10
2077.879281
 20
1605.045424
 30
0.0
 11
2084.529981
 21
1605.045634
 31
0.0
  0
ARC
  5
5D1
  8
5
  6
CONTINUOUS
 10
2136.768881
 20
1614.863274
 30
0.0
 40
11.783324
 50
2.745839
 51
45.68319
  0
ARC
  5
5D2
  8
5
  6
CONTINUOUS
 10
2138.159081
 20
1615.427404
 30
0.0
 40
10.379908
 50
270.0017
 51
0.0019
  0
LINE
  5
5D3
  8
5
  6
CONTINUOUS
 10
2102.845481
 20
1624.762604
 30
0.0
 11
2111.206281
 21
1624.762954
 31
0.0
  0
LINE
  5
5D4
  8
5
  6
CONTINUOUS
 10
2102.845481
 20
1623.292604
 30
0.0
 11
2102.846181
 21
1605.046264
 31
0.0
  0
LINE
  5
5D5
  8
5
  6
CONTINUOUS
 10
2101.376181
 20
1605.046264
 30
0.0
 11
2101.375481
 21
1623.292604
 31
0.0
  0
LINE
  5
5D6
  8
5
  6
CONTINUOUS
 10
2102.846181
 20
1605.046264
 30
0.0
 11
2106.207581
 21
1605.046404
 31
0.0
  0
LINE
  5
5D7
  8
5
  6
CONTINUOUS
 10
2113.049381
 20
1623.292954
 30
0.0
 11
2102.845481
 21
1623.292604
 31
0.0
  0
ARC
  5
5D8
  8
5
  6
CONTINUOUS
 10
2104.817381
 20
1614.862154
 30
0.0
 40
11.783324
 50
2.745839
 51
45.68278
  0
ARC
  5
5D9
  8
5
  6
CONTINUOUS
 10
2106.206881
 20
1615.426354
 30
0.0
 40
10.379901
 50
270.002
 51
0.0019
  0
LINE
  5
5DA
  8
5
  6
CONTINUOUS
 10
2134.796981
 20
1624.763724
 30
0.0
 11
2143.158481
 21
1624.764004
 31
0.0
  0
LINE
  5
5DB
  8
5
  6
CONTINUOUS
 10
2123.682381
 20
1624.763374
 30
0.0
 11
2133.326981
 21
1624.763724
 31
0.0
  0
LINE
  5
5DC
  8
5
  6
CONTINUOUS
 10
2133.327681
 20
1605.047314
 30
0.0
 11
2133.326981
 21
1623.293724
 31
0.0
  0
LINE
  5
5DD
  8
5
  6
CONTINUOUS
 10
2134.796981
 20
1623.293724
 30
0.0
 11
2134.797681
 21
1605.047314
 31
0.0
  0
LINE
  5
5DE
  8
5
  6
CONTINUOUS
 10
2134.797681
 20
1605.047314
 30
0.0
 11
2138.159081
 21
1605.047524
 31
0.0
  0
LINE
  5
5DF
  8
5
  6
CONTINUOUS
 10
2145.001581
 20
1623.294074
 30
0.0
 11
2134.796981
 21
1623.293724
 31
0.0
  0
LINE
  5
5E0
  8
5
  6
CONTINUOUS
 10
2123.682381
 20
1623.293374
 30
0.0
 11
2123.683081
 21
1605.047034
 31
0.0
  0
LINE
  5
5E1
  8
5
  6
CONTINUOUS
 10
2123.683081
 20
1605.047034
 30
0.0
 11
2133.327681
 21
1605.047314
 31
0.0
  0
LINE
  5
5E2
  8
5
  6
CONTINUOUS
 10
2123.682381
 20
1623.293374
 30
0.0
 11
2133.326981
 21
1623.293724
 31
0.0
  0
LINE
  5
5E3
  8
5
  6
CONTINUOUS
 10
2101.374781
 20
1642.190714
 30
0.0
 11
2091.730181
 21
1642.190364
 31
0.0
  0
LINE
  5
5E4
  8
5
  6
CONTINUOUS
 10
2071.269881
 20
1642.189664
 30
0.0
 11
2067.214781
 21
1642.189524
 31
0.0
  0
LINE
  5
5E5
  8
5
  6
CONTINUOUS
 10
2065.744781
 20
1642.189454
 30
0.0
 11
2061.689681
 21
1642.189314
 31
0.0
  0
ARC
  5
5E6
  8
5
  6
CONTINUOUS
 10
2138.158381
 20
1634.884324
 30
0.0
 40
7.307643
 50
0.001947
 51
90.00195
  0
ARC
  5
5E7
  8
5
  6
CONTINUOUS
 10
2136.036681
 20
1635.758134
 30
0.0
 40
9.46967
 50
283.5581
 51
354.7072
  0
LINE
  5
5E8
  8
5
  6
CONTINUOUS
 10
2106.206181
 20
1642.190854
 30
0.0
 11
2102.844781
 21
1642.190784
 31
0.0
  0
ARC
  5
5E9
  8
5
  6
CONTINUOUS
 10
2106.206181
 20
1634.883204
 30
0.0
 40
7.307643
 50
0.001947
 51
90.00195
  0
ARC
  5
5EA
  8
5
  6
CONTINUOUS
 10
2104.084481
 20
1635.757014
 30
0.0
 40
9.46967
 50
283.5581
 51
354.7072
  0
LINE
  5
5EB
  8
5
  6
CONTINUOUS
 10
2138.158381
 20
1642.191974
 30
0.0
 11
2134.796981
 21
1642.191834
 31
0.0
  0
LINE
  5
5EC
  8
5
  6
CONTINUOUS
 10
2133.326981
 20
1642.191764
 30
0.0
 11
2123.681681
 21
1642.191484
 31
0.0
  0
INSERT
  5
613
  8
0
  6
CONTINUOUS
  2
A$C27E33DB7
 10
296.045038
 20
1138.587016
 30
0.0
  0
ENDSEC
  0
EOF
