  0
SECTION
  2
HEADER
  9
$ACADVER
  1
AC1009
  9
$DWGCODEPAGE
  3
iso8859-1
  9
$INSBASE
 10
0.0
 20
0.0
 30
0.0
  9
$EXTMIN
 10
1.0E20
 20
1.0E20
  9
$EXTMAX
 10
-1.0E20
 20
-1.0E20
  9
$LIMMIN
 10
0.0
 20
0.0
  9
$LIMMAX
 10
12.0
 20
9.0
  9
$ORTHOMODE
 70
     0
  9
$REGENMODE
 70
     1
  9
$FILLMODE
 70
     1
  9
$QTEXTMODE
 70
     0
  9
$MIRRTEXT
 70
     1
  9
$DRAGMODE
 70
     2
  9
$LTSCALE
 40
15.0
  9
$OSMODE
 70
     0
  9
$ATTMODE
 70
     1
  9
$TEXTSIZE
 40
0.2
  9
$TRACEWID
 40
0.05
  9
$TEXTSTYLE
  7
STANDARD
  9
$CLAYER
  8
0
  9
$CELTYPE
  6
DASHED
  9
$CECOLOR
 62
   256
  9
$DIMSCALE
 40
1.0
  9
$DIMASZ
 40
0.18
  9
$DIMEXO
 40
0.0625
  9
$DIMDLI
 40
0.38
  9
$DIMRND
 40
0.0
  9
$DIMDLE
 40
0.0
  9
$DIMEXE
 40
0.18
  9
$DIMTP
 40
0.0
  9
$DIMTM
 40
0.0
  9
$DIMTXT
 40
0.18
  9
$DIMCEN
 40
0.09
  9
$DIMTSZ
 40
0.0
  9
$DIMTOL
 70
     0
  9
$DIMLIM
 70
     0
  9
$DIMTIH
 70
     1
  9
$DIMTOH
 70
     1
  9
$DIMSE1
 70
     0
  9
$DIMSE2
 70
     0
  9
$DIMTAD
 70
     0
  9
$DIMZIN
 70
     0
  9
$DIMBLK
  1

  9
$DIMASO
 70
     1
  9
$DIMSHO
 70
     1
  9
$DIMPOST
  1

  9
$DIMAPOST
  1

  9
$DIMALT
 70
     0
  9
$DIMALTD
 70
     2
  9
$DIMALTF
 40
25.4
  9
$DIMLFAC
 40
1.0
  9
$DIMTOFL
 70
     0
  9
$DIMTVP
 40
0.0
  9
$DIMTIX
 70
     0
  9
$DIMSOXD
 70
     0
  9
$DIMSAH
 70
     0
  9
$DIMBLK1
  1

  9
$DIMBLK2
  1

  9
$DIMSTYLE
  2
STANDARD
  9
$DIMCLRD
 70
     0
  9
$DIMCLRE
 70
     0
  9
$DIMCLRT
 70
     0
  9
$DIMTFAC
 40
1.0
  9
$DIMGAP
 40
0.09
  9
$LUNITS
 70
     2
  9
$LUPREC
 70
     4
  9
$AXISMODE
 70
     0
  9
$AXISUNIT
 10
0.0
 20
0.0
  9
$SKETCHINC
 40
0.1
  9
$FILLETRAD
 40
0.0
  9
$AUNITS
 70
     0
  9
$AUPREC
 70
     0
  9
$MENU
  1
acad
  9
$ELEVATION
 40
0.0
  9
$PELEVATION
 40
0.0
  9
$THICKNESS
 40
0.0
  9
$LIMCHECK
 70
     0
  9
$BLIPMODE
 70
     1
  9
$CHAMFERA
 40
0.0
  9
$CHAMFERB
 40
0.0
  9
$SKPOLY
 70
     0
  9
$TDCREATE
 40
0.000000000
  9
$TDUPDATE
 40
0.000000000
  9
$TDINDWG
 40
0.0
  9
$TDUSRTIMER
 40
0.0
  9
$USRTIMER
 70
     1
  9
$ANGBASE
 50
0.0
  9
$ANGDIR
 70
     0
  9
$PDMODE
 70
     0
  9
$PDSIZE
 40
0.0
  9
$PLINEWID
 40
0.0
  9
$COORDS
 70
     1
  9
$SPLFRAME
 70
     0
  9
$SPLINETYPE
 70
     6
  9
$SPLINESEGS
 70
     8
  9
$ATTDIA
 70
     0
  9
$ATTREQ
 70
     1
  9
$HANDLING
 70
     1
  9
$HANDSEED
  5
   65C
  9
$SURFTAB1
 70
     6
  9
$SURFTAB2
 70
     6
  9
$SURFTYPE
 70
     6
  9
$SURFU
 70
     6
  9
$SURFV
 70
     6
  9
$UCSNAME
  2

  9
$UCSORG
 10
0.0
 20
0.0
 30
0.0
  9
$UCSXDIR
 10
1.0
 20
0.0
 30
0.0
  9
$UCSYDIR
 10
0.0
 20
1.0
 30
0.0
  9
$PUCSNAME
  2

  9
$PUCSORG
 10
0.0
 20
0.0
 30
0.0
  9
$PUCSXDIR
 10
1.0
 20
0.0
 30
0.0
  9
$PUCSYDIR
 10
0.0
 20
1.0
 30
0.0
  9
$USERI1
 70
     0
  9
$USERI2
 70
     0
  9
$USERI3
 70
     0
  9
$USERI4
 70
     0
  9
$USERI5
 70
     0
  9
$USERR1
 40
0.0
  9
$USERR2
 40
0.0
  9
$USERR3
 40
0.0
  9
$USERR4
 40
0.0
  9
$USERR5
 40
0.0
  9
$WORLDVIEW
 70
     1
  9
$SHADEDGE
 70
     3
  9
$SHADEDIF
 70
    70
  9
$TILEMODE
 70
     1
  9
$MAXACTVP
 70
    16
  9
$PINSBASE
 10
0.0
 20
0.0
 30
0.0
  9
$PLIMCHECK
 70
     0
  9
$PEXTMIN
 10
1.0E20
 20
1.0E20
 30
1.0E20
  9
$PEXTMAX
 10
-1.0E20
 20
-1.0E20
 30
-1.0E20
  9
$PLIMMIN
 10
0.0
 20
0.0
  9
$PLIMMAX
 10
12.0
 20
9.0
  9
$UNITMODE
 70
     0
  9
$VISRETAIN
 70
     0
  0
ENDSEC
  0
SECTION
  2
TABLES
  0
TABLE
  2
VPORT
 70
     1
  0
VPORT
  2
*ACTIVE
 70
     0
 10
0.0
 20
0.0
 11
1.0
 21
1.0
 12
6.801242
 22
4.5
 13
0.0
 23
0.0
 14
1.0
 24
1.0
 15
0.0
 25
0.0
 16
0.0
 26
0.0
 36
1.0
 17
0.0
 27
0.0
 37
0.0
 40
9.0
 41
1.511387
 42
50.0
 43
0.0
 44
0.0
 50
0.0
 51
0.0
 71
     0
 72
   100
 73
     1
 74
     1
 75
     0
 76
     0
 77
     0
 78
     0
  0
ENDTAB
  0
TABLE
  2
LTYPE
 70
    41
  0
LTYPE
  2
BYBLOCK
 70
     0
  3

 72
    65
 73
     0
 40
0.0
  0
LTYPE
  2
BYLAYER
 70
     0
  3

 72
    65
 73
     0
 40
0.0
  0
LTYPE
  2
CONTINUOUS
 70
     0
  3
Solid line
 72
    65
 73
     0
 40
0.0
  0
LTYPE
  2
BORDER
 70
    64
  3
__ __ . __ __ . __ __ . __ __ . __ __ . __ __ .
 72
    65
 73
     6
 40
1.75
 49
0.5
 49
-0.25
 49
0.5
 49
-0.25
 49
0.0
 49
-0.25
  0
LTYPE
  2
BORDER2
 70
    64
  3
__.__.__.__.__.__.__.__.__.__.__.__.__.__.__.__
 72
    65
 73
     6
 40
0.875
 49
0.25
 49
-0.125
 49
0.25
 49
-0.125
 49
0.0
 49
-0.125
  0
LTYPE
  2
BORDERX2
 70
    64
  3
____  ____  .  ____  ____  .  ____  ____  .  __
 72
    65
 73
     6
 40
3.5
 49
1.0
 49
-0.5
 49
1.0
 49
-0.5
 49
0.0
 49
-0.5
  0
LTYPE
  2
CENTER
 70
    64
  3
____ _ ____ _ ____ _ ____ _ ____ _ ____ _ ____
 72
    65
 73
     4
 40
2.0
 49
1.25
 49
-0.25
 49
0.25
 49
-0.25
  0
LTYPE
  2
CENTER2
 70
    64
  3
___ _ ___ _ ___ _ ___ _ ___ _ ___ _ ___ _ ___ _
 72
    65
 73
     4
 40
1.125
 49
0.75
 49
-0.125
 49
0.125
 49
-0.125
  0
LTYPE
  2
CENTERX2
 70
    64
  3
________  __  ________  __  ________  __  _____
 72
    65
 73
     4
 40
4.0
 49
2.5
 49
-0.5
 49
0.5
 49
-0.5
  0
LTYPE
  2
DASHDOT
 70
    64
  3
__ . __ . __ . __ . __ . __ . __ . __ . __ . __
 72
    65
 73
     4
 40
1.0
 49
0.5
 49
-0.25
 49
0.0
 49
-0.25
  0
LTYPE
  2
DASHDOT2
 70
    64
  3
_._._._._._._._._._._._._._._._._._._._._._._._
 72
    65
 73
     4
 40
0.5
 49
0.25
 49
-0.125
 49
0.0
 49
-0.125
  0
LTYPE
  2
DASHDOTX2
 70
    64
  3
____  .  ____  .  ____  .  ____  .  ____  .  __
 72
    65
 73
     4
 40
2.0
 49
1.0
 49
-0.5
 49
0.0
 49
-0.5
  0
LTYPE
  2
DASHED
 70
    64
  3
__ __ __ __ __ __ __ __ __ __ __ __ __ __ __ __
 72
    65
 73
     2
 40
0.75
 49
0.5
 49
-0.25
  0
LTYPE
  2
DASHED2
 70
    64
  3
_ _ _ _ _ _ _ _ _ _ _ _ _ _ _ _ _ _ _ _ _ _ _ _
 72
    65
 73
     2
 40
0.375
 49
0.25
 49
-0.125
  0
LTYPE
  2
DASHEDX2
 70
    64
  3
____  ____  ____  ____  ____  ____  ____  ____
 72
    65
 73
     2
 40
1.5
 49
1.0
 49
-0.5
  0
LTYPE
  2
DIVIDE
 70
    64
  3
____ . . ____ . . ____ . . ____ . . ____ . . __
 72
    65
 73
     6
 40
1.25
 49
0.5
 49
-0.25
 49
0.0
 49
-0.25
 49
0.0
 49
-0.25
  0
LTYPE
  2
DIVIDE2
 70
    64
  3
__..__..__..__..__..__..__..__..__..__..__..__.
 72
    65
 73
     6
 40
0.625
 49
0.25
 49
-0.125
 49
0.0
 49
-0.125
 49
0.0
 49
-0.125
  0
LTYPE
  2
DIVIDEX2
 70
    64
  3
________  .  .  ________  .  .  ________  .  .
 72
    65
 73
     6
 40
2.5
 49
1.0
 49
-0.5
 49
0.0
 49
-0.5
 49
0.0
 49
-0.5
  0
LTYPE
  2
DOT
 70
    64
  3
. . . . . . . . . . . . . . . . . . . . . . . .
 72
    65
 73
     2
 40
0.25
 49
0.0
 49
-0.25
  0
LTYPE
  2
DOT2
 70
    64
  3
...............................................
 72
    65
 73
     2
 40
0.125
 49
0.0
 49
-0.125
  0
LTYPE
  2
DOTX2
 70
    64
  3
.  .  .  .  .  .  .  .  .  .  .  .  .  .  .  .
 72
    65
 73
     2
 40
0.5
 49
0.0
 49
-0.5
  0
LTYPE
  2
HIDDEN
 70
    64
  3
__ __ __ __ __ __ __ __ __ __ __ __ __ __ __ __
 72
    65
 73
     2
 40
0.375
 49
0.25
 49
-0.125
  0
LTYPE
  2
HIDDEN2
 70
    64
  3
_ _ _ _ _ _ _ _ _ _ _ _ _ _ _ _ _ _ _ _ _ _ _ _
 72
    65
 73
     2
 40
0.1875
 49
0.125
 49
-0.0625
  0
LTYPE
  2
HIDDENX2
 70
    64
  3
____ ____ ____ ____ ____ ____ ____ ____ ____ __
 72
    65
 73
     2
 40
0.75
 49
0.5
 49
-0.25
  0
LTYPE
  2
PHANTOM
 70
    64
  3
______  __  __  ______  __  __  ______  __  __
 72
    65
 73
     6
 40
2.5
 49
1.25
 49
-0.25
 49
0.25
 49
-0.25
 49
0.25
 49
-0.25
  0
LTYPE
  2
PHANTOM2
 70
    64
  3
___ _ _ ___ _ _ ___ _ _ ___ _ _ ___ _ _ ___ _ _
 72
    65
 73
     6
 40
1.25
 49
0.625
 49
-0.125
 49
0.125
 49
-0.125
 49
0.125
 49
-0.125
  0
LTYPE
  2
PHANTOMX2
 70
    64
  3
____________    ____    ____    ____________
 72
    65
 73
     6
 40
5.0
 49
2.5
 49
-0.5
 49
0.5
 49
-0.5
 49
0.5
 49
-0.5
  0
LTYPE
  2
ACAD_ISO02W100
 70
    64
  3
__ __ __ __ __ __ __ __ __ __ __ __ __ __ __ __
 72
    65
 73
     2
 40
15.0
 49
12.0
 49
-3.0
  0
LTYPE
  2
ACAD_ISO03W100
 70
    64
  3
__    __    __    __    __    __    __    __
 72
    65
 73
     2
 40
30.0
 49
12.0
 49
-18.0
  0
LTYPE
  2
ACAD_ISO04W100
 70
    64
  3
____ . ____ . ____ . ____ . ____ . ____ . ____
 72
    65
 73
     4
 40
30.5
 49
24.0
 49
-3.0
 49
0.5
 49
-3.0
  0
LTYPE
  2
ACAD_ISO05W100
 70
    64
  3
____ .. ____ .. ____ .. ____ .. ____ .. ____ ..
 72
    65
 73
     6
 40
34.0
 49
24.0
 49
-3.0
 49
0.5
 49
-3.0
 49
0.5
 49
-3.0
  0
LTYPE
  2
ACAD_ISO06W100
 70
    64
  3
____ ... ____ ... ____ ... ____ ... ____ ... __
 72
    65
 73
     8
 40
37.5
 49
24.0
 49
-3.0
 49
0.5
 49
-3.0
 49
0.5
 49
-3.0
 49
0.5
 49
-3.0
  0
LTYPE
  2
ACAD_ISO07W100
 70
    64
  3
. . . . . . . . . . . . . . . . . . . . . . . .
 72
    65
 73
     2
 40
3.5
 49
0.5
 49
-3.0
  0
LTYPE
  2
ACAD_ISO08W100
 70
    64
  3
____ __ ____ __ ____ __ ____ ____ __ __ ____ __
 72
    65
 73
     4
 40
36.0
 49
24.0
 49
-3.0
 49
6.0
 49
-3.0
  0
LTYPE
  2
ACAD_ISO09W100
 70
    64
  3
____ __ __ ____ __ __ ____ __ __ ____ __ __ ___
 72
    65
 73
     6
 40
45.0
 49
24.0
 49
-3.0
 49
6.0
 49
-3.0
 49
6.0
 49
-3.0
  0
LTYPE
  2
ACAD_ISO10W100
 70
    64
  3
__ . __ . __ . __ . __ . __ . __ . __ . __ . __
 72
    65
 73
     4
 40
18.5
 49
12.0
 49
-3.0
 49
0.5
 49
-3.0
  0
LTYPE
  2
ACAD_ISO11W100
 70
    64
  3
__ __ . __ __ . __ __ . __ __ . __ __ . __ __ .
 72
    65
 73
     6
 40
33.5
 49
12.0
 49
-3.0
 49
12.0
 49
-3.0
 49
0.5
 49
-3.0
  0
LTYPE
  2
ACAD_ISO12W100
 70
    64
  3
__ . . __ . . __ . . __ . . __ . . __ . . __ .
 72
    65
 73
     6
 40
22.0
 49
12.0
 49
-3.0
 49
0.5
 49
-3.0
 49
0.5
 49
-3.0
  0
LTYPE
  2
ACAD_ISO13W100
 70
    64
  3
__ __ . . __ __ . . __ __ . . __ __ . . __ __ .
 72
    65
 73
     8
 40
37.0
 49
12.0
 49
-3.0
 49
12.0
 49
-3.0
 49
0.5
 49
-3.0
 49
0.5
 49
-3.0
  0
LTYPE
  2
ACAD_ISO14W100
 70
    64
  3
__ . . . __ . . . __ . . . __ . . . __ . . . __
 72
    65
 73
     8
 40
25.5
 49
12.0
 49
-3.0
 49
0.5
 49
-3.0
 49
0.5
 49
-3.0
 49
0.5
 49
-3.0
  0
LTYPE
  2
ACAD_ISO15W100
 70
    64
  3
__ __ . . . __ __ . . . __ __ . . . __ __ . . .
 72
    65
 73
    10
 40
40.5
 49
12.0
 49
-3.0
 49
12.0
 49
-3.0
 49
0.5
 49
-3.0
 49
0.5
 49
-3.0
 49
0.5
 49
-3.0
  0
ENDTAB
  0
TABLE
  2
STYLE
 70
     4
  0
STYLE
  2
STANDARD
 70
    64
 40
0.0
 41
1.0
 50
0.0
 71
     0
 42
0.2
  3
txt
  4

  0
STYLE
  2
TOLERANCE
 70
    64
 40
0.0
 41
1.0
 50
0.0
 71
     0
 42
0.2
  3
../igesfont/iges1003.shx
  4

  0
STYLE
  2
ROMANS
 70
    64
 40
0.0
 41
1.0
 50
0.0
 71
     0
 42
0.2
  3
romans.shx
  4

  0
STYLE
  2
ROMANC
 70
    64
 40
0.0
 41
1.0
 50
0.0
 71
     0
 42
0.2
  3
romanc.shx
  4

  0
ENDTAB
  0
TABLE
  2
DIMSTYLE
 70
     2
  0
DIMSTYLE
  2
UNNAMED
 70
     0
  3

  4

  5

  6

  7

 40
1.0
 41
0.18
 42
0.0625
 43
0.38
 44
0.18
 45
0.0
 46
0.0
 47
0.0
 48
0.0
140
0.18
141
0.09
142
0.0
143
25.4
144
1.0
145
0.0
146
1.0
147
0.09
 71
     0
 72
     0
 73
     1
 74
     1
 75
     0
 76
     0
 77
     0
 78
     0
170
     0
171
     2
172
     0
173
     0
174
     0
175
     0
176
     0
177
     0
178
     0
  0
DIMSTYLE
  2
STANDARD
 70
     0
  3

  4

  5

  6

  7

 40
1.0
 41
0.18
 42
0.0625
 43
0.38
 44
0.18
 45
0.0
 46
0.0
 47
0.0
 48
0.0
140
0.18
141
0.09
142
0.0
143
25.4
144
1.0
145
0.0
146
1.0
147
0.09
 71
     0
 72
     0
 73
     1
 74
     1
 75
     0
 76
     0
 77
     0
 78
     0
170
     0
171
     2
172
     0
173
     0
174
     0
175
     0
176
     0
177
     0
178
     0
  0
ENDTAB
  0
TABLE
  2
LAYER
 70
     2
  0
LAYER
  2
0
 70
     0
 62
     7
  6
CONTINUOUS
  0
LAYER
  2
255
 70
     0
 62
     7
  6
CONTINUOUS
  0
ENDTAB
  0
ENDSEC
  0
SECTION
  2
BLOCKS
  0
BLOCK
  5
     B
  8
0
  6
CONTINUOUS
 62
     5
  2
*UDIM0
 70
    65
 10
0.0
 20
0.0
 30
0.0
  3
*UDIM0
  0
TEXT
  5
     C
  8
0
  6
CONTINUOUS
 62
     5
 10
-636.978338895828
 20
-125.847627046347
 30
0.0
 40
2.99999994933605
  1
105,25
 50
449.999999896069
 41
0.933333333333333
 72
     1
 11
-638.478338855854
 21
-117.747627180428
 31
0.0
 73
     2
  0
LINE
  5
     D
  8
0
  6
CONTINUOUS
 62
     5
 10
-632.609136387013
 20
-107.973550096154
 30
0.0
 11
-637.978338881186
 21
-107.973550096154
 31
0.0
  0
LINE
  5
     E
  8
0
  6
CONTINUOUS
 62
     5
 10
-635.978338881186
 20
-107.973550096154
 30
0.0
 11
-635.978338881186
 21
-129.023550409824
 31
0.0
  0
LINE
  5
     F
  8
0
  6
CONTINUOUS
 62
     5
 10
-635.457394451235
 20
-110.927973373361
 30
0.0
 11
-635.978338881186
 21
-107.973550096154
 31
0.0
  0
LINE
  5
    10
  8
0
  6
CONTINUOUS
 62
     5
 10
-635.978338881186
 20
-107.973550096154
 30
0.0
 11
-636.499283311138
 21
-110.927973373361
 31
0.0
  0
LINE
  5
    11
  8
0
  6
CONTINUOUS
 62
     5
 10
-636.499283311138
 20
-126.069127132617
 30
0.0
 11
-635.978338881186
 21
-129.023550409824
 31
0.0
  0
LINE
  5
    12
  8
0
  6
CONTINUOUS
 62
     5
 10
-635.978338881186
 20
-129.023550409824
 30
0.0
 11
-635.457394451235
 21
-126.069127132617
 31
0.0
  0
ENDBLK
  5
    13
  8
0
  6
CONTINUOUS
 62
     5
  0
BLOCK
  5
    14
  8
0
  6
CONTINUOUS
 62
     7
  2
*UDIM1
 70
    65
 10
0.0
 20
0.0
 30
0.0
  3
*UDIM1
  0
TEXT
  5
    15
  8
0
  6
CONTINUOUS
 62
     7
 10
-604.157339051235
 20
-118.852096403617
 30
0.0
 40
2.99999994933605
  1
43,75
 50
359.999999896069
 41
0.933333333333333
 72
     1
 11
-597.457339161671
 21
-117.352096441068
 31
0.0
 73
     2
  0
LINE
  5
    16
  8
0
  6
CONTINUOUS
 62
     7
 10
-590.75733927482
 20
-119.852096415736
 30
0.0
 11
-623.029907291755
 21
-119.852096415736
 31
0.0
  0
LINE
  5
    17
  8
0
  6
CONTINUOUS
 62
     7
 10
-617.234330438577
 20
-120.373040845688
 30
0.0
 11
-614.27990716137
 21
-119.852096415736
 31
0.0
  0
LINE
  5
    18
  8
0
  6
CONTINUOUS
 62
     7
 10
-614.27990716137
 20
-119.852096415736
 30
0.0
 11
-617.234330438577
 21
-119.331151985785
 31
0.0
  0
LINE
  5
    19
  8
0
  6
CONTINUOUS
 62
     7
 10
-620.075484014548
 20
-119.331151985785
 30
0.0
 11
-623.029907291755
 21
-119.852096415736
 31
0.0
  0
LINE
  5
    1A
  8
0
  6
CONTINUOUS
 62
     7
 10
-623.029907291755
 20
-119.852096415736
 30
0.0
 11
-620.075484014548
 21
-120.373040845688
 31
0.0
  0
ENDBLK
  5
    1B
  8
0
  6
CONTINUOUS
 62
     7
  0
BLOCK
  5
    1C
  8
0
  6
CONTINUOUS
 62
     7
  2
*UDIM2
 70
    65
 10
0.0
 20
0.0
 30
0.0
  3
*UDIM2
  0
TEXT
  5
    1D
  8
0
  6
CONTINUOUS
 62
     7
 10
-598.200033451467
 20
-104.763780740257
 30
0.0
 40
2.99999994933605
  1
5,5
 50
367.792237950467
 41
0.933333333333333
 72
     1
 11
-594.539417293077
 21
-102.74886417841
 31
0.0
 73
     2
  0
TEXT
  5
    1E
  8
0
  6
CONTINUOUS
 62
     7
 10
-601.320946985624
 20
-105.190862000843
 30
0.0
 40
2.99999994933605
  1
Ø
 50
367.792237950467
 41
0.933333333333333
 72
     1
 11
-600.434476188596
 21
-103.555573216208
 31
0.0
 73
     2
  0
TEXT
  5
    1F
  8
0
  6
CONTINUOUS
 62
     7
 10
-589.927135659127
 20
-103.631676453212
 30
0.0
 40
2.99999994933605
  1
 - M5
 50
367.792237950467
 41
0.933333333333333
 72
     1
 11
-583.492374139375
 21
-101.237132114153
 31
0.0
 73
     2
  0
LINE
  5
    20
  8
0
  6
CONTINUOUS
 62
     7
 10
-576.515287218478
 20
-102.805652581151
 30
0.0
 11
-614.824828588825
 21
-108.048119841463
 31
0.0
  0
LINE
  5
    21
  8
0
  6
CONTINUOUS
 62
     7
 10
-610.878473310915
 20
-106.982281503216
 30
0.0
 11
-613.734985733915
 21
-107.898980350846
 31
0.0
  0
LINE
  5
    22
  8
0
  6
CONTINUOUS
 62
     7
 10
-613.734985733915
 20
-107.898980350846
 30
0.0
 11
-610.737212609523
 21
-108.014549787449
 31
0.0
  0
LINE
  5
    23
  8
0
  6
CONTINUOUS
 62
     7
 10
-617.681341011825
 20
-108.964818689092
 30
0.0
 11
-614.824828588825
 21
-108.048119841463
 31
0.0
  0
LINE
  5
    24
  8
0
  6
CONTINUOUS
 62
     7
 10
-614.824828588825
 20
-108.048119841463
 30
0.0
 11
-617.822601713217
 21
-107.93255040486
 31
0.0
  0
ENDBLK
  5
    25
  8
0
  6
CONTINUOUS
 62
     7
  0
BLOCK
  5
    26
  8
0
  6
CONTINUOUS
 62
     7
  2
*UDIM3
 70
    65
 10
0.0
 20
0.0
 30
0.0
  3
*UDIM3
  0
TEXT
  5
    27
  8
0
  6
CONTINUOUS
 62
     7
 10
-645.267059714873
 20
-133.548550028283
 30
0.0
 40
2.99999994933605
  1
214
 50
449.999999896069
 41
0.933333333333333
 72
     1
 11
-646.767059682491
 21
-129.648550091434
 31
0.0
 73
     2
  0
LINE
  5
    28
  8
0
  6
CONTINUOUS
 62
     7
 10
-632.609136387012
 20
-107.97354905103
 30
0.0
 11
-646.267059707822
 21
-107.973534776803
 31
0.0
  0
LINE
  5
    29
  8
0
  6
CONTINUOUS
 62
     7
 10
-635.108512091364
 20
-150.773549352445
 30
0.0
 11
-646.267059707821
 21
-150.773533937151
 31
0.0
  0
LINE
  5
    2A
  8
0
  6
CONTINUOUS
 62
     7
 10
-644.267059707823
 20
-107.973536867051
 30
0.0
 11
-644.267059707823
 21
-150.773536700108
 31
0.0
  0
LINE
  5
    2B
  8
0
  6
CONTINUOUS
 62
     7
 10
-643.746115277871
 20
-110.927960144258
 30
0.0
 11
-644.267059707823
 21
-107.973536867051
 31
0.0
  0
LINE
  5
    2C
  8
0
  6
CONTINUOUS
 62
     7
 10
-644.267059707823
 20
-107.973536867051
 30
0.0
 11
-644.788004137774
 21
-110.927960144258
 31
0.0
  0
LINE
  5
    2D
  8
0
  6
CONTINUOUS
 62
     7
 10
-644.788004137774
 20
-147.819113422901
 30
0.0
 11
-644.267059707823
 21
-150.773536700108
 31
0.0
  0
LINE
  5
    2E
  8
0
  6
CONTINUOUS
 62
     7
 10
-644.267059707823
 20
-150.773536700108
 30
0.0
 11
-643.746115277871
 21
-147.819113422901
 31
0.0
  0
ENDBLK
  5
    2F
  8
0
  6
CONTINUOUS
 62
     7
  0
BLOCK
  5
    30
  8
0
  6
CONTINUOUS
 62
     7
  2
*HATCH0
 70
    65
 10
0.0
 20
0.0
 30
0.0
  3
*HATCH0
  0
LINE
  5
    31
  8
0
  6
CONTINUOUS
 62
   210
 10
204.102630615234
 20
-24.9999752044678
 30
0.0
 11
201.237121582031
 21
-27.8654766082764
 31
0.0
  0
LINE
  5
    32
  8
0
  6
CONTINUOUS
 62
   210
 10
205.237121582031
 20
-28.108118057251
 30
0.0
 11
201.237121582031
 21
-32.1081161499023
 31
0.0
  0
LINE
  5
    33
  8
0
  6
CONTINUOUS
 62
   210
 10
205.237121582031
 20
-32.350757598877
 30
0.0
 11
201.237121582031
 21
-36.3507537841797
 31
0.0
  0
LINE
  5
    34
  8
0
  6
CONTINUOUS
 62
   210
 10
205.237121582031
 20
-36.5933952331543
 30
0.0
 11
203.887817382813
 21
-37.9427146911621
 31
0.0
  0
ENDBLK
  5
    35
  8
0
  6
CONTINUOUS
 62
     7
  0
BLOCK
  5
    36
  8
0
  6
CONTINUOUS
 62
     7
  2
*HATCH1
 70
    65
 10
0.0
 20
0.0
 30
0.0
  3
*HATCH1
  0
LINE
  5
    37
  8
0
  6
CONTINUOUS
 62
   210
 10
198.4345703125
 20
-13.6974716186523
 30
0.0
 11
196.745849609375
 21
-15.3861865997314
 31
0.0
  0
LINE
  5
    38
  8
0
  6
CONTINUOUS
 62
   210
 10
199.737075805664
 20
-16.6376056671143
 30
0.0
 11
196.745849609375
 21
-19.6288280487061
 31
0.0
  0
ENDBLK
  5
    39
  8
0
  6
CONTINUOUS
 62
     7
  0
BLOCK
  5
    3A
  8
0
  6
CONTINUOUS
 62
     7
  2
*HATCH2
 70
    65
 10
0.0
 20
0.0
 30
0.0
  3
*HATCH2
  0
LINE
  5
    3B
  8
0
  6
CONTINUOUS
 62
   210
 10
-10.7629241943359
 20
-21.0568885803223
 30
0.0
 11
-6.81984090805054
 21
-24.9999752044678
 31
0.0
  0
LINE
  5
    3C
  8
0
  6
CONTINUOUS
 62
   210
 10
-7.57719612121582
 20
-19.9999771118164
 30
0.0
 11
-5.86297512054443
 21
-21.7141990661621
 31
0.0
  0
ENDBLK
  5
    3D
  8
0
  6
CONTINUOUS
 62
     7
  0
BLOCK
  5
    3E
  8
0
  6
CONTINUOUS
 62
     7
  2
*HATCH3
 70
    65
 10
0.0
 20
0.0
 30
0.0
  3
*HATCH3
  0
LINE
  5
    3F
  8
0
  6
CONTINUOUS
 62
   210
 10
4.3370246887207
 20
-21.3076019287109
 30
0.0
 11
8.02939128875732
 21
-24.9999752044678
 31
0.0
  0
LINE
  5
    40
  8
0
  6
CONTINUOUS
 62
   210
 10
7.27203750610352
 20
-19.9999771118164
 30
0.0
 11
12.2720289230347
 21
-24.9999752044678
 31
0.0
  0
LINE
  5
    41
  8
0
  6
CONTINUOUS
 62
   210
 10
11.5146751403809
 20
-19.9999771118164
 30
0.0
 11
16.5146675109863
 21
-24.9999752044678
 31
0.0
  0
LINE
  5
    42
  8
0
  6
CONTINUOUS
 62
   210
 10
15.7573137283325
 20
-19.9999771118164
 30
0.0
 11
19.7282981872559
 21
-23.9709663391113
 31
0.0
  0
ENDBLK
  5
    43
  8
0
  6
CONTINUOUS
 62
     7
  0
BLOCK
  5
    44
  8
0
  6
CONTINUOUS
 62
     7
  2
*HATCH4
 70
    65
 10
0.0
 20
0.0
 30
0.0
  3
*HATCH4
  0
LINE
  5
    45
  8
0
  6
CONTINUOUS
 62
   210
 10
14.9705638885498
 20
-1.99999904632568
 30
0.0
 11
14.237024307251
 21
-2.73353862762451
 31
0.0
  0
LINE
  5
    46
  8
0
  6
CONTINUOUS
 62
   210
 10
18.237024307251
 20
-2.97617936134338
 30
0.0
 11
14.237024307251
 21
-6.9761791229248
 31
0.0
  0
LINE
  5
    47
  8
0
  6
CONTINUOUS
 62
   210
 10
18.237024307251
 20
-7.21882009506226
 30
0.0
 11
14.237024307251
 21
-11.2188205718994
 31
0.0
  0
LINE
  5
    48
  8
0
  6
CONTINUOUS
 62
   210
 10
18.237024307251
 20
-11.4614601135254
 30
0.0
 11
14.237024307251
 21
-15.461462020874
 31
0.0
  0
LINE
  5
    49
  8
0
  6
CONTINUOUS
 62
   210
 10
18.237024307251
 20
-15.7041015625
 30
0.0
 11
14.237024307251
 21
-19.7041034698486
 31
0.0
  0
LINE
  5
    4A
  8
0
  6
CONTINUOUS
 62
   210
 10
18.237024307251
 20
-19.946741104126
 30
0.0
 11
18.1837902069092
 21
-19.9999771118164
 31
0.0
  0
ENDBLK
  5
    4B
  8
0
  6
CONTINUOUS
 62
     7
  0
BLOCK
  5
    4C
  8
0
  6
CONTINUOUS
 62
     7
  2
*HATCH5
 70
    65
 10
0.0
 20
0.0
 30
0.0
  3
*HATCH5
  0
LINE
  5
    4D
  8
0
  6
CONTINUOUS
 62
   210
 10
15.237024307251
 20
-25.0680618286133
 30
0.0
 11
11.237024307251
 21
-29.0680618286133
 31
0.0
  0
LINE
  5
    4E
  8
0
  6
CONTINUOUS
 62
   210
 10
15.237024307251
 20
-29.3107032775879
 30
0.0
 11
11.237024307251
 21
-33.3107032775879
 31
0.0
  0
LINE
  5
    4F
  8
0
  6
CONTINUOUS
 62
   210
 10
15.237024307251
 20
-33.5533447265625
 30
0.0
 11
11.237024307251
 21
-37.5533409118652
 31
0.0
  0
LINE
  5
    50
  8
0
  6
CONTINUOUS
 62
   210
 10
15.237024307251
 20
-37.7959823608398
 30
0.0
 11
11.7791585922241
 21
-41.253849029541
 31
0.0
  0
ENDBLK
  5
    51
  8
0
  6
CONTINUOUS
 62
     7
  0
BLOCK
  5
    52
  8
0
  6
CONTINUOUS
 62
     7
  2
*HATCH6
 70
    65
 10
0.0
 20
0.0
 30
0.0
  3
*HATCH6
  0
LINE
  5
    53
  8
0
  6
CONTINUOUS
 62
    52
 10
187.863540649414
 20
-106.999984741211
 30
0.0
 11
185.863540649414
 21
-108.999984741211
 31
0.0
  0
LINE
  5
    54
  8
0
  6
CONTINUOUS
 62
    52
 10
192.106185913086
 20
-106.999984741211
 30
0.0
 11
190.106185913086
 21
-108.999984741211
 31
0.0
  0
LINE
  5
    55
  8
0
  6
CONTINUOUS
 62
    52
 10
196.348831176758
 20
-106.999984741211
 30
0.0
 11
194.348831176758
 21
-108.999984741211
 31
0.0
  0
LINE
  5
    56
  8
0
  6
CONTINUOUS
 62
    52
 10
200.59147644043
 20
-106.999984741211
 30
0.0
 11
198.59147644043
 21
-108.999984741211
 31
0.0
  0
LINE
  5
    57
  8
0
  6
CONTINUOUS
 62
    52
 10
204.834121704102
 20
-106.999984741211
 30
0.0
 11
202.834121704102
 21
-108.999984741211
 31
0.0
  0
LINE
  5
    58
  8
0
  6
CONTINUOUS
 62
    52
 10
209.076766967773
 20
-106.999984741211
 30
0.0
 11
207.076766967773
 21
-108.999984741211
 31
0.0
  0
LINE
  5
    59
  8
0
  6
CONTINUOUS
 62
    52
 10
213.319412231445
 20
-106.999984741211
 30
0.0
 11
211.319412231445
 21
-108.999984741211
 31
0.0
  0
LINE
  5
    5A
  8
0
  6
CONTINUOUS
 62
    52
 10
217.562057495117
 20
-106.999984741211
 30
0.0
 11
215.562057495117
 21
-108.999984741211
 31
0.0
  0
LINE
  5
    5B
  8
0
  6
CONTINUOUS
 62
    52
 10
221.804702758789
 20
-106.999984741211
 30
0.0
 11
219.804702758789
 21
-108.999984741211
 31
0.0
  0
LINE
  5
    5C
  8
0
  6
CONTINUOUS
 62
    52
 10
226.047348022461
 20
-106.999984741211
 30
0.0
 11
224.047348022461
 21
-108.999984741211
 31
0.0
  0
LINE
  5
    5D
  8
0
  6
CONTINUOUS
 62
    52
 10
230.289993286133
 20
-106.999984741211
 30
0.0
 11
228.289993286133
 21
-108.999984741211
 31
0.0
  0
LINE
  5
    5E
  8
0
  6
CONTINUOUS
 62
    52
 10
234.532638549805
 20
-106.999984741211
 30
0.0
 11
232.532638549805
 21
-108.999984741211
 31
0.0
  0
LINE
  5
    5F
  8
0
  6
CONTINUOUS
 62
    52
 10
238.775283813477
 20
-106.999984741211
 30
0.0
 11
236.775283813477
 21
-108.999984741211
 31
0.0
  0
LINE
  5
    60
  8
0
  6
CONTINUOUS
 62
    52
 10
243.017929077148
 20
-106.999984741211
 30
0.0
 11
241.017929077148
 21
-108.999984741211
 31
0.0
  0
LINE
  5
    61
  8
0
  6
CONTINUOUS
 62
    52
 10
247.26057434082
 20
-106.999984741211
 30
0.0
 11
245.26057434082
 21
-108.999984741211
 31
0.0
  0
LINE
  5
    62
  8
0
  6
CONTINUOUS
 62
    52
 10
251.503219604492
 20
-106.999984741211
 30
0.0
 11
249.503219604492
 21
-108.999984741211
 31
0.0
  0
LINE
  5
    63
  8
0
  6
CONTINUOUS
 62
    52
 10
255.745864868164
 20
-106.999984741211
 30
0.0
 11
253.745864868164
 21
-108.999984741211
 31
0.0
  0
LINE
  5
    64
  8
0
  6
CONTINUOUS
 62
    52
 10
259.281341552734
 20
-107.707077026367
 30
0.0
 11
257.988433837891
 21
-108.999984741211
 31
0.0
  0
ENDBLK
  5
    65
  8
0
  6
CONTINUOUS
 62
     7
  0
BLOCK
  5
    66
  8
0
  6
CONTINUOUS
 62
     7
  2
*HATCH7
 70
    65
 10
0.0
 20
0.0
 30
0.0
  3
*HATCH7
  0
LINE
  5
    67
  8
0
  6
CONTINUOUS
 62
    52
 10
168.771667480469
 20
-106.999984741211
 30
0.0
 11
166.771667480469
 21
-108.999984741211
 31
0.0
  0
LINE
  5
    68
  8
0
  6
CONTINUOUS
 62
    52
 10
173.014312744141
 20
-106.999984741211
 30
0.0
 11
171.014312744141
 21
-108.999984741211
 31
0.0
  0
LINE
  5
    69
  8
0
  6
CONTINUOUS
 62
    52
 10
177.256958007812
 20
-106.999984741211
 30
0.0
 11
175.256958007813
 21
-108.999984741211
 31
0.0
  0
ENDBLK
  5
    6A
  8
0
  6
CONTINUOUS
 62
     7
  0
BLOCK
  5
    6B
  8
0
  6
CONTINUOUS
 62
     7
  2
*HATCH8
 70
    65
 10
0.0
 20
0.0
 30
0.0
  3
*HATCH8
  0
LINE
  5
    6C
  8
0
  6
CONTINUOUS
 62
    52
 10
45.7350769042969
 20
-106.999984741211
 30
0.0
 11
43.7350769042969
 21
-108.999984741211
 31
0.0
  0
LINE
  5
    6D
  8
0
  6
CONTINUOUS
 62
    52
 10
49.9777145385742
 20
-106.999984741211
 30
0.0
 11
47.9777145385742
 21
-108.999984741211
 31
0.0
  0
LINE
  5
    6E
  8
0
  6
CONTINUOUS
 62
    52
 10
53.9806251525879
 20
-107.239715576172
 30
0.0
 11
52.2203598022461
 21
-108.999984741211
 31
0.0
  0
ENDBLK
  5
    6F
  8
0
  6
CONTINUOUS
 62
     7
  0
BLOCK
  5
    70
  8
0
  6
CONTINUOUS
 62
     7
  2
*HATCH9
 70
    65
 10
0.0
 20
0.0
 30
0.0
  3
*HATCH9
  0
LINE
  5
    71
  8
0
  6
CONTINUOUS
 62
    52
 10
-41.2390594482422
 20
-106.999984741211
 30
0.0
 11
-43.2390594482422
 21
-108.999984741211
 31
0.0
  0
LINE
  5
    72
  8
0
  6
CONTINUOUS
 62
    52
 10
-36.9964218139648
 20
-106.999984741211
 30
0.0
 11
-38.9964218139648
 21
-108.999984741211
 31
0.0
  0
LINE
  5
    73
  8
0
  6
CONTINUOUS
 62
    52
 10
-32.7537841796875
 20
-106.999984741211
 30
0.0
 11
-34.7537841796875
 21
-108.999984741211
 31
0.0
  0
LINE
  5
    74
  8
0
  6
CONTINUOUS
 62
    52
 10
-28.5111427307129
 20
-106.999984741211
 30
0.0
 11
-30.5111446380615
 21
-108.999984741211
 31
0.0
  0
LINE
  5
    75
  8
0
  6
CONTINUOUS
 62
    52
 10
-24.2685012817383
 20
-106.999984741211
 30
0.0
 11
-26.2685031890869
 21
-108.999984741211
 31
0.0
  0
LINE
  5
    76
  8
0
  6
CONTINUOUS
 62
    52
 10
-20.0258598327637
 20
-106.999984741211
 30
0.0
 11
-22.0258617401123
 21
-108.999984741211
 31
0.0
  0
LINE
  5
    77
  8
0
  6
CONTINUOUS
 62
    52
 10
-15.7832183837891
 20
-106.999984741211
 30
0.0
 11
-17.7832202911377
 21
-108.999984741211
 31
0.0
  0
LINE
  5
    78
  8
0
  6
CONTINUOUS
 62
    52
 10
-11.5405769348145
 20
-106.999984741211
 30
0.0
 11
-13.5405788421631
 21
-108.999984741211
 31
0.0
  0
LINE
  5
    79
  8
0
  6
CONTINUOUS
 62
    52
 10
-7.297935962677
 20
-106.999984741211
 30
0.0
 11
-9.29793739318848
 21
-108.999984741211
 31
0.0
  0
LINE
  5
    7A
  8
0
  6
CONTINUOUS
 62
    52
 10
-3.05529546737671
 20
-106.999984741211
 30
0.0
 11
-5.05529689788818
 21
-108.999984741211
 31
0.0
  0
LINE
  5
    7B
  8
0
  6
CONTINUOUS
 62
    52
 10
1.18734502792358
 20
-106.999984741211
 30
0.0
 11
-0.812656402587891
 21
-108.999984741211
 31
0.0
  0
LINE
  5
    7C
  8
0
  6
CONTINUOUS
 62
    52
 10
5.42998552322388
 20
-106.999984741211
 30
0.0
 11
3.4299840927124
 21
-108.999984741211
 31
0.0
  0
LINE
  5
    7D
  8
0
  6
CONTINUOUS
 62
    52
 10
9.67262649536133
 20
-106.999984741211
 30
0.0
 11
7.6726245880127
 21
-108.999984741211
 31
0.0
  0
LINE
  5
    7E
  8
0
  6
CONTINUOUS
 62
    52
 10
13.9152679443359
 20
-106.999984741211
 30
0.0
 11
11.9152660369873
 21
-108.999984741211
 31
0.0
  0
LINE
  5
    7F
  8
0
  6
CONTINUOUS
 62
    52
 10
18.1579093933105
 20
-106.999984741211
 30
0.0
 11
16.1579074859619
 21
-108.999984741211
 31
0.0
  0
LINE
  5
    80
  8
0
  6
CONTINUOUS
 62
    52
 10
22.4005508422852
 20
-106.999984741211
 30
0.0
 11
20.4005489349365
 21
-108.999984741211
 31
0.0
  0
LINE
  5
    81
  8
0
  6
CONTINUOUS
 62
    52
 10
26.6431922912598
 20
-106.999984741211
 30
0.0
 11
24.6431903839111
 21
-108.999984741211
 31
0.0
  0
LINE
  5
    82
  8
0
  6
CONTINUOUS
 62
    52
 10
30.8858337402344
 20
-106.999984741211
 30
0.0
 11
28.8858318328857
 21
-108.999984741211
 31
0.0
  0
LINE
  5
    83
  8
0
  6
CONTINUOUS
 62
    52
 10
35.1284713745117
 20
-106.999984741211
 30
0.0
 11
33.1284713745117
 21
-108.999984741211
 31
0.0
  0
ENDBLK
  5
    84
  8
0
  6
CONTINUOUS
 62
     7
  0
BLOCK
  5
    85
  8
0
  6
CONTINUOUS
 62
     7
  2
TASSELLO_POST_
 70
    64
 10
0.0
 20
0.0
 30
0.0
  3
TASSELLO_POST_
  0
LINE
  5
    86
  8
0
  6
CONTINUOUS
 62
   210
 10
-1.00000000000001
 20
20.5
 30
0.0
 11
-9.40287806727546E-15
 21
20.5
 31
0.0
  0
LINE
  5
    87
  8
0
  6
CONTINUOUS
 62
   210
 10
1.09959191973985E-6
 20
20.4999953320827
 30
0.0
 11
1.00000106536339
 21
19.4999953663112
 31
0.0
  0
LINE
  5
    88
  8
0
  6
CONTINUOUS
 62
   210
 10
1.0
 20
18.0
 30
0.0
 11
1.0
 21
19.5
 31
0.0
  0
LINE
  5
    89
  8
0
  6
CONTINUOUS
 62
   210
 10
-1.00000000000001
 20
18.0
 30
0.0
 11
0.99999999999999
 21
18.0
 31
0.0
  0
LINE
  5
    8A
  8
0
  6
CONTINUOUS
 62
   210
 10
-4.25000286102296
 20
11.5
 30
0.0
 11
-1.00000000000001
 21
11.5
 31
0.0
  0
LINE
  5
    8B
  8
0
  6
CONTINUOUS
 62
   210
 10
-1.0
 20
11.5
 30
0.0
 11
-1.0
 21
18.0
 31
0.0
  0
LINE
  5
    8C
  8
0
  6
CONTINUOUS
 62
   210
 10
-16.5
 20
-10.0
 30
0.0
 11
-15.0
 21
-10.0
 31
0.0
  0
LINE
  5
    8D
  8
0
  6
CONTINUOUS
 62
   210
 10
-16.5
 20
20.5
 30
0.0
 11
-1.00000000000001
 21
20.5
 31
0.0
  0
LINE
  5
    8E
  8
0
  6
CONTINUOUS
 62
   210
 10
-16.5
 20
-10.0
 30
0.0
 11
-16.5
 21
20.5
 31
0.0
  0
LINE
  5
    8F
  8
0
  6
CONTINUOUS
 62
   210
 10
-1.0
 20
18.0
 30
0.0
 11
-1.0
 21
20.5
 31
0.0
  0
LINE
  5
    90
  8
0
  6
CONTINUOUS
 62
   210
 10
-15.0000014150192
 20
-10.000004602161
 30
0.0
 11
-1.00000116385348
 21
17.9999959001704
 31
0.0
  0
LINE
  5
    91
  8
0
  6
CONTINUOUS
 62
   210
 10
-2.00000000000001
 20
14.8000030517578
 30
0.0
 11
-1.00000000000001
 21
14.8000030517578
 31
0.0
  0
LINE
  5
    92
  8
0
  6
CONTINUOUS
 62
   210
 10
-2.39999850435556
 20
15.1999924026964
 30
0.0
 11
-1.99999887210357
 21
14.7999985023696
 31
0.0
  0
LINE
  5
    93
  8
0
  6
CONTINUOUS
 62
   210
 10
-0.5
 20
-9.5
 30
0.0
 11
-0.5
 21
9.5
 31
0.0
  0
LINE
  5
    94
  8
0
  6
CONTINUOUS
 62
   218
 10
0.0
 20
-7.0
 30
0.0
 11
0.0
 21
7.0
 31
0.0
  0
LINE
  5
    95
  8
0
  6
CONTINUOUS
 62
   210
 10
-16.5
 20
-9.0
 30
0.0
 11
-14.5
 21
-9.0
 31
0.0
  0
LINE
  5
    96
  8
0
  6
CONTINUOUS
 62
   210
 10
-16.5
 20
19.5
 30
0.0
 11
-1.00000000000001
 21
19.5
 31
0.0
  0
LINE
  5
    97
  8
0
  6
CONTINUOUS
 62
   210
 10
-14.7500023841858
 20
-9.5
 30
0.0
 11
-0.500000476837169
 21
-9.5
 31
0.0
  0
LINE
  5
    98
  8
0
  6
CONTINUOUS
 62
   210
 10
-5.24999713897706
 20
9.5
 30
0.0
 11
-0.50000000000001
 21
9.5
 31
0.0
  0
LINE
  5
    99
  8
0
  6
CONTINUOUS
 62
   218
 10
-0.50000000000001
 20
7.0
 30
0.0
 11
-1.02295146566999E-14
 21
7.0
 31
0.0
  0
LINE
  5
    9A
  8
0
  6
CONTINUOUS
 62
   218
 10
-0.500000000000011
 20
-7.0
 30
0.0
 11
-1.10867674161031E-14
 21
-7.0
 31
0.0
  0
LINE
  5
    9B
  8
0
  6
CONTINUOUS
 62
   210
 10
-0.999999999999991
 20
20.5
 30
0.0
 11
9.40287806727546E-15
 21
20.5
 31
0.0
  0
LINE
  5
    9C
  8
0
  6
CONTINUOUS
 62
   210
 10
1.09959193395071E-6
 20
20.4999953320826
 30
0.0
 11
1.0000010653634
 21
19.4999953663112
 31
0.0
  0
LINE
  5
    9D
  8
0
  6
CONTINUOUS
 62
   210
 10
1.0
 20
18.0
 30
0.0
 11
1.0
 21
19.5
 31
0.0
  0
LINE
  5
    9E
  8
0
  6
CONTINUOUS
 62
   210
 10
-0.99999999999999
 20
18.0
 30
0.0
 11
1.00000000000001
 21
18.0
 31
0.0
  0
LINE
  5
    9F
  8
0
  6
CONTINUOUS
 62
   210
 10
-4.25000190734862
 20
11.5
 30
0.0
 11
-0.99999999999999
 21
11.5
 31
0.0
  0
LINE
  5
    A0
  8
0
  6
CONTINUOUS
 62
   210
 10
-1.0
 20
11.5
 30
0.0
 11
-1.0
 21
18.0
 31
0.0
  0
LINE
  5
    A1
  8
0
  6
CONTINUOUS
 62
   210
 10
-16.5
 20
20.5
 30
0.0
 11
-0.999999999999991
 21
20.5
 31
0.0
  0
LINE
  5
    A2
  8
0
  6
CONTINUOUS
 62
   210
 10
-1.0
 20
18.0
 30
0.0
 11
-1.0
 21
20.5
 31
0.0
  0
LINE
  5
    A3
  8
0
  6
CONTINUOUS
 62
   210
 10
-15.0000014150192
 20
-10.000004602161
 30
0.0
 11
-1.00000116385345
 21
17.9999959001704
 31
0.0
  0
LINE
  5
    A4
  8
0
  6
CONTINUOUS
 62
   210
 10
-1.99999999999999
 20
14.8000030517578
 30
0.0
 11
-0.99999999999999
 21
14.8000030517578
 31
0.0
  0
LINE
  5
    A5
  8
0
  6
CONTINUOUS
 62
   210
 10
-2.3999985317481
 20
15.1999924202095
 30
0.0
 11
-1.99999889949612
 21
14.7999985198827
 31
0.0
  0
LINE
  5
    A6
  8
0
  6
CONTINUOUS
 62
   210
 10
-0.5
 20
-9.5
 30
0.0
 11
-0.5
 21
9.5
 31
0.0
  0
LINE
  5
    A7
  8
0
  6
CONTINUOUS
 62
   218
 10
0.0
 20
-7.0
 30
0.0
 11
0.0
 21
7.0
 31
0.0
  0
LINE
  5
    A8
  8
0
  6
CONTINUOUS
 62
   210
 10
-16.5
 20
19.5
 30
0.0
 11
-0.999999999999991
 21
19.5
 31
0.0
  0
LINE
  5
    A9
  8
0
  6
CONTINUOUS
 62
   210
 10
-14.7500023841858
 20
-9.5
 30
0.0
 11
-0.500000476837147
 21
-9.5
 31
0.0
  0
LINE
  5
    AA
  8
0
  6
CONTINUOUS
 62
   210
 10
-5.24999713897704
 20
9.5
 30
0.0
 11
-0.49999999999999
 21
9.5
 31
0.0
  0
LINE
  5
    AB
  8
0
  6
CONTINUOUS
 62
   218
 10
-0.49999999999999
 20
7.0
 30
0.0
 11
1.02295146566999E-14
 21
7.0
 31
0.0
  0
LINE
  5
    AC
  8
0
  6
CONTINUOUS
 62
   218
 10
-0.499999999999989
 20
-7.0
 30
0.0
 11
1.10867674161031E-14
 21
-7.0
 31
0.0
  0
LINE
  5
    AD
  8
0
  6
CONTINUOUS
 62
   210
 10
-16.5
 20
-10.0
 30
0.0
 11
-16.5
 21
20.5
 31
0.0
  0
LINE
  5
    AE
  8
0
  6
CONTINUOUS
 62
   210
 10
-16.5
 20
-9.0
 30
0.0
 11
-14.5
 21
-9.0
 31
0.0
  0
LINE
  5
    AF
  8
0
  6
CONTINUOUS
 62
   210
 10
-16.5
 20
-10.0
 30
0.0
 11
-15.0
 21
-10.0
 31
0.0
  0
ENDBLK
  5
    B0
  8
0
  6
CONTINUOUS
 62
     7
  0
BLOCK
  5
    B1
  8
0
  6
CONTINUOUS
 62
     2
  2
*HATCH10
 70
    65
 10
0.0
 20
0.0
 30
0.0
  3
*HATCH10
  0
LINE
  5
    B2
  8
0
  6
CONTINUOUS
 62
   210
 10
210.466598510742
 20
-24.9999752044678
 30
0.0
 11
207.237121582031
 21
-28.2294387817383
 31
0.0
  0
LINE
  5
    B3
  8
0
  6
CONTINUOUS
 62
   210
 10
212.137130737305
 20
-27.572078704834
 30
0.0
 11
208.709228515625
 21
-30.9999752044678
 31
0.0
  0
ENDBLK
  5
    B4
  8
0
  6
CONTINUOUS
 62
     2
  0
BLOCK
  5
    B5
  8
0
  6
CONTINUOUS
 62
     2
  2
*HATCH11
 70
    65
 10
0.0
 20
0.0
 30
0.0
  3
*HATCH11
  0
LINE
  5
    B6
  8
0
  6
CONTINUOUS
 62
   210
 10
225.315841674805
 20
-24.9999752044678
 30
0.0
 11
222.337127685547
 21
-27.9786815643311
 31
0.0
  0
LINE
  5
    B7
  8
0
  6
CONTINUOUS
 62
   210
 10
229.558471679688
 20
-24.9999752044678
 30
0.0
 11
223.558471679687
 21
-30.9999752044678
 31
0.0
  0
LINE
  5
    B8
  8
0
  6
CONTINUOUS
 62
   210
 10
233.801116943359
 20
-24.9999752044678
 30
0.0
 11
227.801116943359
 21
-30.9999752044678
 31
0.0
  0
LINE
  5
    B9
  8
0
  6
CONTINUOUS
 62
   210
 10
238.043762207031
 20
-24.9999752044678
 30
0.0
 11
232.043762207031
 21
-30.9999752044678
 31
0.0
  0
LINE
  5
    BA
  8
0
  6
CONTINUOUS
 62
   210
 10
242.286407470703
 20
-24.9999752044678
 30
0.0
 11
236.286407470703
 21
-30.9999752044678
 31
0.0
  0
LINE
  5
    BB
  8
0
  6
CONTINUOUS
 62
   210
 10
245.237121582031
 20
-26.2918853759766
 30
0.0
 11
240.529037475586
 21
-30.9999752044678
 31
0.0
  0
LINE
  5
    BC
  8
0
  6
CONTINUOUS
 62
   210
 10
245.237121582031
 20
-30.5345268249512
 30
0.0
 11
244.771682739258
 21
-30.9999752044678
 31
0.0
  0
ENDBLK
  5
    BD
  8
0
  6
CONTINUOUS
 62
     2
  0
BLOCK
  5
    BE
  8
0
  6
CONTINUOUS
 62
     2
  2
*HATCH12
 70
    65
 10
0.0
 20
0.0
 30
0.0
  3
*HATCH12
  0
LINE
  5
    BF
  8
0
  6
CONTINUOUS
 62
   210
 10
259.256958007813
 20
-24.9999752044678
 30
0.0
 11
256.237121582031
 21
-28.0198078155518
 31
0.0
  0
LINE
  5
    C0
  8
0
  6
CONTINUOUS
 62
   210
 10
263.237121582031
 20
-25.2624492645264
 30
0.0
 11
257.499603271484
 21
-30.9999752044678
 31
0.0
  0
LINE
  5
    C1
  8
0
  6
CONTINUOUS
 62
   210
 10
263.237121582031
 20
-29.505090713501
 30
0.0
 11
261.742218017578
 21
-30.9999752044678
 31
0.0
  0
ENDBLK
  5
    C2
  8
0
  6
CONTINUOUS
 62
     2
  0
BLOCK
  5
    C3
  8
0
  6
CONTINUOUS
 62
     2
  2
*HATCH13
 70
    65
 10
0.0
 20
0.0
 30
0.0
  3
*HATCH13
  0
LINE
  5
    C4
  8
0
  6
CONTINUOUS
 62
   210
 10
222.237121582031
 20
-20.7118453979492
 30
0.0
 11
225.525253295898
 21
-23.9999752044678
 31
0.0
  0
LINE
  5
    C5
  8
0
  6
CONTINUOUS
 62
   210
 10
225.76789855957
 20
-19.9999771118164
 30
0.0
 11
227.237075805664
 21
-21.4691581726074
 31
0.0
  0
ENDBLK
  5
    C6
  8
0
  6
CONTINUOUS
 62
     2
  0
BLOCK
  5
    C7
  8
0
  6
CONTINUOUS
 62
     2
  2
*HATCH14
 70
    65
 10
0.0
 20
0.0
 30
0.0
  3
*HATCH14
  0
LINE
  5
    C8
  8
0
  6
CONTINUOUS
 62
   210
 10
196.745849609375
 20
-22.797721862793
 30
0.0
 11
198.948104858398
 21
-24.9999752044678
 31
0.0
  0
LINE
  5
    C9
  8
0
  6
CONTINUOUS
 62
   210
 10
198.19075012207
 20
-19.9999771118164
 30
0.0
 11
203.190734863281
 21
-24.9999752044678
 31
0.0
  0
LINE
  5
    CA
  8
0
  6
CONTINUOUS
 62
   210
 10
202.433395385742
 20
-19.9999771118164
 30
0.0
 11
207.237121582031
 21
-24.8037223815918
 31
0.0
  0
LINE
  5
    CB
  8
0
  6
CONTINUOUS
 62
   210
 10
206.676025390625
 20
-19.9999771118164
 30
0.0
 11
210.676025390625
 21
-23.9999752044678
 31
0.0
  0
LINE
  5
    CC
  8
0
  6
CONTINUOUS
 62
   210
 10
210.918670654297
 20
-19.9999771118164
 30
0.0
 11
212.237121582031
 21
-21.3184394836426
 31
0.0
  0
ENDBLK
  5
    CD
  8
0
  6
CONTINUOUS
 62
     2
  0
BLOCK
  5
    CE
  8
0
  6
CONTINUOUS
 62
     7
  2
*UDIM4
 70
    65
 10
0.0
 20
0.0
 30
0.0
  3
*UDIM4
  0
TEXT
  5
    CF
  8
0
  6
CONTINUOUS
 62
     7
 10
-526.071453098015
 20
-75.7926285408785
 30
0.0
 40
3.00000002980232
  1
M10
 50
89.9999999480344
 41
0.933333333333333
 72
     1
 11
-527.571453109384
 21
-71.8926285007769
 31
0.0
 73
     2
  0
LINE
  5
    D0
  8
0
  6
CONTINUOUS
 62
     7
 10
-498.331798777928
 20
-64.6505314091021
 30
0.0
 11
-527.071453094482
 21
-64.6505314091021
 31
0.0
  0
LINE
  5
    D1
  8
0
  6
CONTINUOUS
 62
     7
 10
-498.331798777928
 20
-59.5505314091021
 30
0.0
 11
-527.071453094482
 21
-59.5505314091021
 31
0.0
  0
LINE
  5
    D2
  8
0
  6
CONTINUOUS
 62
     7
 10
-525.071453094483
 20
-75.7926285395199
 30
0.0
 11
-525.071453094483
 21
-59.5505314091021
 31
0.0
  0
LINE
  5
    D3
  8
0
  6
CONTINUOUS
 62
     7
 10
-524.550508664531
 20
-67.6049546863091
 30
0.0
 11
-525.071453094483
 21
-64.6505314091021
 31
0.0
  0
LINE
  5
    D4
  8
0
  6
CONTINUOUS
 62
     7
 10
-525.071453094483
 20
-64.6505314091021
 30
0.0
 11
-525.592397524434
 21
-67.6049546863091
 31
0.0
  0
LINE
  5
    D5
  8
0
  6
CONTINUOUS
 62
     7
 10
-525.592397524434
 20
-56.5961081318952
 30
0.0
 11
-525.071453094483
 21
-59.5505314091021
 31
0.0
  0
LINE
  5
    D6
  8
0
  6
CONTINUOUS
 62
     7
 10
-525.071453094483
 20
-59.5505314091021
 30
0.0
 11
-524.550508664531
 21
-56.5961081318952
 31
0.0
  0
ENDBLK
  5
    D7
  8
0
  6
CONTINUOUS
 62
     7
  0
BLOCK
  5
    D8
  8
0
  6
CONTINUOUS
 62
     7
  2
*UDIM5
 70
    65
 10
0.0
 20
0.0
 30
0.0
  3
*UDIM5
  0
TEXT
  5
    D9
  8
0
  6
CONTINUOUS
 62
     7
 10
-488.831800316087
 20
76.7215385446933
 30
0.0
 40
3.00000002980232
  1
6
 50
359.999999948034
 41
0.933333333333334
 72
     1
 11
-487.731800303807
 21
78.2215385586023
 31
0.0
 73
     2
  0
LINE
  5
    DA
  8
0
  6
CONTINUOUS
 62
     7
 10
-491.831799731602
 20
70.8995197513873
 30
0.0
 11
-491.831799731602
 21
77.7215385437012
 31
0.0
  0
LINE
  5
    DB
  8
0
  6
CONTINUOUS
 62
     7
 10
-494.831799731602
 20
70.8995197513873
 30
0.0
 11
-494.831799731602
 21
77.7215385437012
 31
0.0
  0
LINE
  5
    DC
  8
0
  6
CONTINUOUS
 62
     7
 10
-486.631800292879
 20
75.7215385437012
 30
0.0
 11
-494.831799731602
 21
75.7215385437012
 31
0.0
  0
LINE
  5
    DD
  8
0
  6
CONTINUOUS
 62
     7
 10
-488.877376454395
 20
76.2424829736528
 30
0.0
 11
-491.831799731602
 21
75.7215385437012
 31
0.0
  0
LINE
  5
    DE
  8
0
  6
CONTINUOUS
 62
     7
 10
-491.831799731602
 20
75.7215385437012
 30
0.0
 11
-488.877376454395
 21
75.2005941137495
 31
0.0
  0
LINE
  5
    DF
  8
0
  6
CONTINUOUS
 62
     7
 10
-497.786223008809
 20
75.2005941137495
 30
0.0
 11
-494.831799731602
 21
75.7215385437012
 31
0.0
  0
LINE
  5
    E0
  8
0
  6
CONTINUOUS
 62
     7
 10
-494.831799731602
 20
75.7215385437012
 30
0.0
 11
-497.786223008809
 21
76.2424829736528
 31
0.0
  0
ENDBLK
  5
    E1
  8
0
  6
CONTINUOUS
 62
     7
  0
BLOCK
  5
    E2
  8
0
  6
CONTINUOUS
 62
     7
  2
*UDIM6
 70
    65
 10
0.0
 20
0.0
 30
0.0
  3
*UDIM6
  0
TEXT
  5
    E3
  8
0
  6
CONTINUOUS
 62
     7
 10
-503.856793810265
 20
76.721538545956
 30
0.0
 40
3.00000002980232
  1
25
 50
359.999999948034
 41
0.933333333333333
 72
     1
 11
-501.356793784077
 21
78.2215385586023
 31
0.0
 73
     2
  0
LINE
  5
    E4
  8
0
  6
CONTINUOUS
 62
     7
 10
-507.331787109375
 20
65.4555993225994
 30
0.0
 11
-507.331787109375
 21
77.7215385437012
 31
0.0
  0
LINE
  5
    E5
  8
0
  6
CONTINUOUS
 62
     7
 10
-494.831799731602
 20
75.7215385437012
 30
0.0
 11
-507.331787109375
 21
75.7215385437012
 31
0.0
  0
LINE
  5
    E6
  8
0
  6
CONTINUOUS
 62
     7
 10
-497.786223008809
 20
75.2005941137495
 30
0.0
 11
-494.831799731602
 21
75.7215385437012
 31
0.0
  0
LINE
  5
    E7
  8
0
  6
CONTINUOUS
 62
     7
 10
-494.831799731602
 20
75.7215385437012
 30
0.0
 11
-497.786223008809
 21
76.2424829736528
 31
0.0
  0
LINE
  5
    E8
  8
0
  6
CONTINUOUS
 62
     7
 10
-504.377363832168
 20
76.2424829736528
 30
0.0
 11
-507.331787109375
 21
75.7215385437012
 31
0.0
  0
LINE
  5
    E9
  8
0
  6
CONTINUOUS
 62
     7
 10
-507.331787109375
 20
75.7215385437012
 30
0.0
 11
-504.377363832168
 21
75.2005941137495
 31
0.0
  0
ENDBLK
  5
    EA
  8
0
  6
CONTINUOUS
 62
     7
  0
BLOCK
  5
    EB
  8
0
  6
CONTINUOUS
 62
     7
  2
*UDIM7
 70
    65
 10
0.0
 20
0.0
 30
0.0
  3
*UDIM7
  0
TEXT
  5
    EC
  8
0
  6
CONTINUOUS
 62
     7
 10
-477.163620327226
 20
-89.8949279775235
 30
0.0
 40
3.00000002980232
  1
5
 50
359.999999948034
 41
0.933333333333334
 72
     1
 11
-476.063620314946
 21
-88.3949279636145
 31
0.0
 73
     2
  0
TEXT
  5
    ED
  8
0
  6
CONTINUOUS
 62
     7
 10
-488.313620444449
 20
-89.8949279737353
 30
0.0
 40
3.00000002980232
  1
min.
 50
359.999999948034
 41
0.933333333333333
 72
     1
 11
-483.013620390445
 21
-88.3949279636145
 31
0.0
 73
     2
  0
LINE
  5
    EE
  8
0
  6
CONTINUOUS
 62
     7
 10
-492.331799731602
 20
-68.6004802486127
 30
0.0
 11
-492.331799731602
 21
-92.8949279785156
 31
0.0
  0
LINE
  5
    EF
  8
0
  6
CONTINUOUS
 62
     7
 10
-494.831798777928
 20
-68.1005058288574
 30
0.0
 11
-494.831798777928
 21
-92.8949279785156
 31
0.0
  0
LINE
  5
    F0
  8
0
  6
CONTINUOUS
 62
     7
 10
-474.963620304018
 20
-90.8949279785156
 30
0.0
 11
-494.831798777928
 21
-90.8949279785156
 31
0.0
  0
LINE
  5
    F1
  8
0
  6
CONTINUOUS
 62
     7
 10
-489.377376454395
 20
-90.373983548564
 30
0.0
 11
-492.331799731602
 21
-90.8949279785156
 31
0.0
  0
LINE
  5
    F2
  8
0
  6
CONTINUOUS
 62
     7
 10
-492.331799731602
 20
-90.8949279785156
 30
0.0
 11
-489.377376454395
 21
-91.4158724084673
 31
0.0
  0
LINE
  5
    F3
  8
0
  6
CONTINUOUS
 62
     7
 10
-497.786222055135
 20
-91.4158724084673
 30
0.0
 11
-494.831798777928
 21
-90.8949279785156
 31
0.0
  0
LINE
  5
    F4
  8
0
  6
CONTINUOUS
 62
     7
 10
-494.831798777928
 20
-90.8949279785156
 30
0.0
 11
-497.786222055135
 21
-90.373983548564
 31
0.0
  0
ENDBLK
  5
    F5
  8
0
  6
CONTINUOUS
 62
     7
  0
BLOCK
  5
    F6
  8
0
  6
CONTINUOUS
 62
     7
  2
*UDIM8
 70
    65
 10
0.0
 20
0.0
 30
0.0
  3
*UDIM8
  0
TEXT
  5
    F7
  8
0
  6
CONTINUOUS
 62
     7
 10
-503.081798408739
 20
-89.8949279775235
 30
0.0
 40
3.00000002980232
  1
5
 50
359.999999948034
 41
0.933333333333334
 72
     1
 11
-501.981798396458
 21
-88.3949279636145
 31
0.0
 73
     2
  0
LINE
  5
    F8
  8
0
  6
CONTINUOUS
 62
     7
 10
-497.331798777928
 20
-68.1005058288574
 30
0.0
 11
-497.331798777928
 21
-92.8949279785156
 31
0.0
  0
LINE
  5
    F9
  8
0
  6
CONTINUOUS
 62
     7
 10
-494.831798777928
 20
-90.8949279785156
 30
0.0
 11
-503.081798407386
 21
-90.8949279785156
 31
0.0
  0
LINE
  5
    FA
  8
0
  6
CONTINUOUS
 62
     7
 10
-491.877375500721
 20
-90.373983548564
 30
0.0
 11
-494.831798777928
 21
-90.8949279785156
 31
0.0
  0
LINE
  5
    FB
  8
0
  6
CONTINUOUS
 62
     7
 10
-494.831798777928
 20
-90.8949279785156
 30
0.0
 11
-491.877375500721
 21
-91.4158724084673
 31
0.0
  0
LINE
  5
    FC
  8
0
  6
CONTINUOUS
 62
     7
 10
-500.286222055135
 20
-91.4158724084673
 30
0.0
 11
-497.331798777928
 21
-90.8949279785156
 31
0.0
  0
LINE
  5
    FD
  8
0
  6
CONTINUOUS
 62
     7
 10
-497.331798777928
 20
-90.8949279785156
 30
0.0
 11
-500.286222055135
 21
-90.373983548564
 31
0.0
  0
ENDBLK
  5
    FE
  8
0
  6
CONTINUOUS
 62
     7
  0
BLOCK
  5
    FF
  8
0
  6
CONTINUOUS
 62
     7
  2
*UDIM9
 70
    65
 10
0.0
 20
0.0
 30
0.0
  3
*UDIM9
  0
TEXT
  5
   100
  8
0
  6
CONTINUOUS
 62
     7
 10
-523.232902665274
 20
-82.9452419258457
 30
0.0
 40
3.00000002980232
  1
20
 50
359.999999948034
 41
0.933333333333333
 72
     1
 11
-520.732902639086
 21
-81.4452419131994
 31
0.0
 73
     2
  0
LINE
  5
   101
  8
0
  6
CONTINUOUS
 62
     7
 10
-497.331798777928
 20
-68.1005058288574
 30
0.0
 11
-497.331798777928
 21
-85.9452419281006
 31
0.0
  0
LINE
  5
   102
  8
0
  6
CONTINUOUS
 62
     7
 10
-507.331787109375
 20
-81.69183167959
 30
0.0
 11
-507.331787109375
 21
-85.9452419281006
 31
0.0
  0
LINE
  5
   103
  8
0
  6
CONTINUOUS
 62
     7
 10
-497.331798777928
 20
-83.9452419281006
 30
0.0
 11
-523.232902663921
 21
-83.9452419281006
 31
0.0
  0
LINE
  5
   104
  8
0
  6
CONTINUOUS
 62
     7
 10
-500.286222055135
 20
-84.4661863580523
 30
0.0
 11
-497.331798777928
 21
-83.9452419281006
 31
0.0
  0
LINE
  5
   105
  8
0
  6
CONTINUOUS
 62
     7
 10
-497.331798777928
 20
-83.9452419281006
 30
0.0
 11
-500.286222055135
 21
-83.4242974981489
 31
0.0
  0
LINE
  5
   106
  8
0
  6
CONTINUOUS
 62
     7
 10
-504.377363832168
 20
-83.4242974981489
 30
0.0
 11
-507.331787109375
 21
-83.9452419281006
 31
0.0
  0
LINE
  5
   107
  8
0
  6
CONTINUOUS
 62
     7
 10
-507.331787109375
 20
-83.9452419281006
 30
0.0
 11
-504.377363832168
 21
-84.4661863580523
 31
0.0
  0
ENDBLK
  5
   108
  8
0
  6
CONTINUOUS
 62
     7
  0
BLOCK
  5
   109
  8
0
  6
CONTINUOUS
 62
     7
  2
*UDIM10
 70
    65
 10
0.0
 20
0.0
 30
0.0
  3
*UDIM10
  0
TEXT
  5
   10A
  8
0
  6
CONTINUOUS
 62
     7
 10
-534.221931464856
 20
11.7120169681134
 30
0.0
 40
3.00000002980232
  1
107,25
 50
89.9999999480344
 41
0.933333333333333
 72
     1
 11
-535.721931472421
 21
19.8120170499383
 31
0.0
 73
     2
  0
LINE
  5
   10B
  8
0
  6
CONTINUOUS
 62
     5
 10
-502.04647030889
 20
46.8995197513873
 30
0.0
 11
-535.22193145752
 21
46.8995197513873
 31
0.0
  0
LINE
  5
   10C
  8
0
  6
CONTINUOUS
 62
     5
 10
-533.22193145752
 20
-6.72548873903133
 30
0.0
 11
-533.22193145752
 21
46.8995197513873
 31
0.0
  0
LINE
  5
   10D
  8
0
  6
CONTINUOUS
 62
     5
 10
-533.742875887471
 20
-3.77106546182437
 30
0.0
 11
-533.22193145752
 21
-6.72548873903133
 31
0.0
  0
LINE
  5
   10E
  8
0
  6
CONTINUOUS
 62
     5
 10
-533.22193145752
 20
-6.72548873903133
 30
0.0
 11
-532.700987027568
 21
-3.77106546182437
 31
0.0
  0
LINE
  5
   10F
  8
0
  6
CONTINUOUS
 62
     5
 10
-532.700987027568
 20
43.9450964741803
 30
0.0
 11
-533.22193145752
 21
46.8995197513873
 31
0.0
  0
LINE
  5
   110
  8
0
  6
CONTINUOUS
 62
     5
 10
-533.22193145752
 20
46.8995197513873
 30
0.0
 11
-533.742875887471
 21
43.9450964741803
 31
0.0
  0
ENDBLK
  5
   111
  8
0
  6
CONTINUOUS
 62
     7
  0
BLOCK
  5
   112
  8
0
  6
CONTINUOUS
 62
     7
  2
*UDIM11
 70
    65
 10
0.0
 20
0.0
 30
0.0
  3
*UDIM11
  0
TEXT
  5
   113
  8
0
  6
CONTINUOUS
 62
     7
 10
-534.22193146232
 20
49.6995170092084
 30
0.0
 40
3.00000002980232
  1
33,5
 50
89.9999999480344
 41
0.933333333333333
 72
     1
 11
-535.721931472421
 21
54.9995170632178
 31
0.0
 73
     2
  0
LINE
  5
   114
  8
0
  6
CONTINUOUS
 62
     5
 10
-497.295487433404
 20
63.6495197513873
 30
0.0
 11
-535.22193145752
 21
63.6495197513873
 31
0.0
  0
LINE
  5
   115
  8
0
  6
CONTINUOUS
 62
     5
 10
-533.22193145752
 20
46.8995197513873
 30
0.0
 11
-533.22193145752
 21
63.6495197513873
 31
0.0
  0
LINE
  5
   116
  8
0
  6
CONTINUOUS
 62
     5
 10
-533.742875887471
 20
49.8539430285942
 30
0.0
 11
-533.22193145752
 21
46.8995197513873
 31
0.0
  0
LINE
  5
   117
  8
0
  6
CONTINUOUS
 62
     5
 10
-533.22193145752
 20
46.8995197513873
 30
0.0
 11
-532.700987027568
 21
49.8539430285942
 31
0.0
  0
LINE
  5
   118
  8
0
  6
CONTINUOUS
 62
     5
 10
-532.700987027568
 20
60.6950964741803
 30
0.0
 11
-533.22193145752
 21
63.6495197513873
 31
0.0
  0
LINE
  5
   119
  8
0
  6
CONTINUOUS
 62
     5
 10
-533.22193145752
 20
63.6495197513873
 30
0.0
 11
-533.742875887471
 21
60.6950964741803
 31
0.0
  0
ENDBLK
  5
   11A
  8
0
  6
CONTINUOUS
 62
     7
  0
BLOCK
  5
   11B
  8
0
  6
CONTINUOUS
 62
     7
  2
*UDIM12
 70
    65
 10
0.0
 20
0.0
 30
0.0
  3
*UDIM12
  0
TEXT
  5
   11C
  8
0
  6
CONTINUOUS
 62
     7
 10
-534.22193146232
 20
72.8245172178247
 30
0.0
 40
3.00000002980232
  1
12,5
 50
89.9999999480344
 41
0.933333333333333
 72
     1
 11
-535.721931472421
 21
78.124517271834
 31
0.0
 73
     2
  0
LINE
  5
   11D
  8
0
  6
CONTINUOUS
 62
     5
 10
-495.831799731602
 20
69.8995197513873
 30
0.0
 11
-535.22193145752
 21
69.8995197513873
 31
0.0
  0
LINE
  5
   11E
  8
0
  6
CONTINUOUS
 62
     5
 10
-533.22193145752
 20
63.6495197513873
 30
0.0
 11
-533.22193145752
 21
83.4245173244848
 31
0.0
  0
LINE
  5
   11F
  8
0
  6
CONTINUOUS
 62
     5
 10
-533.742875887471
 20
66.6039430285942
 30
0.0
 11
-533.22193145752
 21
63.6495197513873
 31
0.0
  0
LINE
  5
   120
  8
0
  6
CONTINUOUS
 62
     5
 10
-533.22193145752
 20
63.6495197513873
 30
0.0
 11
-532.700987027568
 21
66.6039430285942
 31
0.0
  0
LINE
  5
   121
  8
0
  6
CONTINUOUS
 62
     5
 10
-532.700987027568
 20
66.9450964741803
 30
0.0
 11
-533.22193145752
 21
69.8995197513873
 31
0.0
  0
LINE
  5
   122
  8
0
  6
CONTINUOUS
 62
     5
 10
-533.22193145752
 20
69.8995197513873
 30
0.0
 11
-533.742875887471
 21
66.9450964741803
 31
0.0
  0
ENDBLK
  5
   123
  8
0
  6
CONTINUOUS
 62
     7
  0
BLOCK
  5
   124
  8
0
  6
CONTINUOUS
 62
     7
  2
*UDIM13
 70
    65
 10
0.0
 20
0.0
 30
0.0
  3
*UDIM13
  0
TEXT
  5
   125
  8
0
  6
CONTINUOUS
 62
     7
 10
-449.831794846417
 20
-113.894790648422
 30
0.0
 40
3.00000002980232
  1
2
 50
359.999999948034
 41
0.933333333333334
 72
     1
 11
-448.731794834137
 21
-112.394790634513
 31
0.0
 73
     2
  0
LINE
  5
   126
  8
0
  6
CONTINUOUS
 62
     7
 10
-452.83179473877
 20
-84.7917677316697
 30
0.0
 11
-452.83179473877
 21
-116.894790649414
 31
0.0
  0
LINE
  5
   127
  8
0
  6
CONTINUOUS
 62
     7
 10
-453.83179473877
 20
-85.2276651675671
 30
0.0
 11
-453.83179473877
 21
-116.894790649414
 31
0.0
  0
LINE
  5
   128
  8
0
  6
CONTINUOUS
 62
     7
 10
-447.63179482321
 20
-114.894790649414
 30
0.0
 11
-453.83179473877
 21
-114.894790649414
 31
0.0
  0
LINE
  5
   129
  8
0
  6
CONTINUOUS
 62
     7
 10
-449.877371461563
 20
-114.373846219462
 30
0.0
 11
-452.83179473877
 21
-114.894790649414
 31
0.0
  0
LINE
  5
   12A
  8
0
  6
CONTINUOUS
 62
     7
 10
-452.83179473877
 20
-114.894790649414
 30
0.0
 11
-449.877371461563
 21
-115.415735079366
 31
0.0
  0
LINE
  5
   12B
  8
0
  6
CONTINUOUS
 62
     7
 10
-456.786218015977
 20
-115.415735079366
 30
0.0
 11
-453.83179473877
 21
-114.894790649414
 31
0.0
  0
LINE
  5
   12C
  8
0
  6
CONTINUOUS
 62
     7
 10
-453.83179473877
 20
-114.894790649414
 30
0.0
 11
-456.786218015977
 21
-114.373846219462
 31
0.0
  0
ENDBLK
  5
   12D
  8
0
  6
CONTINUOUS
 62
     7
  0
BLOCK
  5
   12E
  8
0
  6
CONTINUOUS
 62
     7
  2
*UDIM14
 70
    65
 10
0.0
 20
0.0
 30
0.0
  3
*UDIM14
  0
TEXT
  5
   12F
  8
0
  6
CONTINUOUS
 62
     7
 10
-484.756790970129
 20
-113.894790645896
 30
0.0
 40
3.00000002980232
  1
107
 50
359.999999948034
 41
0.933333333333333
 72
     1
 11
-480.856790930033
 21
-112.394790634513
 31
0.0
 73
     2
  0
LINE
  5
   130
  8
0
  6
CONTINUOUS
 62
     7
 10
-507.331787109375
 20
-81.69183167959
 30
0.0
 11
-507.331787109375
 21
-116.894790649414
 31
0.0
  0
LINE
  5
   131
  8
0
  6
CONTINUOUS
 62
     7
 10
-453.83179473877
 20
-114.894790649414
 30
0.0
 11
-507.331787109375
 21
-114.894790649414
 31
0.0
  0
LINE
  5
   132
  8
0
  6
CONTINUOUS
 62
     7
 10
-456.786218015977
 20
-115.415735079366
 30
0.0
 11
-453.83179473877
 21
-114.894790649414
 31
0.0
  0
LINE
  5
   133
  8
0
  6
CONTINUOUS
 62
     7
 10
-453.83179473877
 20
-114.894790649414
 30
0.0
 11
-456.786218015977
 21
-114.373846219462
 31
0.0
  0
LINE
  5
   134
  8
0
  6
CONTINUOUS
 62
     7
 10
-504.377363832168
 20
-114.373846219462
 30
0.0
 11
-507.331787109375
 21
-114.894790649414
 31
0.0
  0
LINE
  5
   135
  8
0
  6
CONTINUOUS
 62
     7
 10
-507.331787109375
 20
-114.894790649414
 30
0.0
 11
-504.377363832168
 21
-115.415735079366
 31
0.0
  0
ENDBLK
  5
   136
  8
0
  6
CONTINUOUS
 62
     7
  0
BLOCK
  5
   137
  8
0
  6
CONTINUOUS
 62
     7
  2
*UDIM15
 70
    65
 10
0.0
 20
0.0
 30
0.0
  3
*UDIM15
  0
TEXT
  5
   138
  8
0
  6
CONTINUOUS
 62
     7
 10
-488.431787189367
 20
-106.549564355529
 30
0.0
 40
3.00000002980232
  1
103,5
 50
359.999999948034
 41
0.933333333333333
 72
     1
 11
-481.731787121456
 21
-105.049564346671
 31
0.0
 73
     2
  0
LINE
  5
   139
  8
0
  6
CONTINUOUS
 62
     7
 10
-455.581795052686
 20
-33.9754734802422
 30
0.0
 11
-455.581818776638
 21
-109.549564361572
 31
0.0
  0
LINE
  5
   13A
  8
0
  6
CONTINUOUS
 62
     7
 10
-507.331787423292
 20
-81.6918316795899
 30
0.0
 11
-507.331796168293
 21
-109.549564361572
 31
0.0
  0
LINE
  5
   13B
  8
0
  6
CONTINUOUS
 62
     7
 10
-455.581818148805
 20
-107.549564361572
 30
0.0
 11
-507.33179554046
 21
-107.549564361572
 31
0.0
  0
LINE
  5
   13C
  8
0
  6
CONTINUOUS
 62
     7
 10
-458.536241426012
 20
-108.070508791524
 30
0.0
 11
-455.581818148805
 21
-107.549564361572
 31
0.0
  0
LINE
  5
   13D
  8
0
  6
CONTINUOUS
 62
     7
 10
-455.581818148805
 20
-107.549564361572
 30
0.0
 11
-458.536241426012
 21
-107.028619931621
 31
0.0
  0
LINE
  5
   13E
  8
0
  6
CONTINUOUS
 62
     7
 10
-504.377372263253
 20
-107.028619931621
 30
0.0
 11
-507.33179554046
 21
-107.549564361572
 31
0.0
  0
LINE
  5
   13F
  8
0
  6
CONTINUOUS
 62
     7
 10
-507.33179554046
 20
-107.549564361572
 30
0.0
 11
-504.377372263253
 21
-108.070508791524
 31
0.0
  0
ENDBLK
  5
   140
  8
0
  6
CONTINUOUS
 62
     7
  0
BLOCK
  5
   141
  8
0
  6
CONTINUOUS
 62
     7
  2
*UDIM16
 70
    65
 10
0.0
 20
0.0
 30
0.0
  3
*UDIM16
  0
TEXT
  5
   142
  8
0
  6
CONTINUOUS
 62
     7
 10
-514.581782773504
 20
-106.54956436058
 30
0.0
 40
3.00000002980232
  1
3
 50
359.999999948034
 41
0.933333333333334
 72
     1
 11
-513.481782761224
 21
-105.049564346671
 31
0.0
 73
     2
  0
TEXT
  5
   143
  8
0
  6
CONTINUOUS
 62
     7
 10
-517.33178280728
 20
-106.54956436058
 30
0.0
 40
3.00000002980232
  1
_
 50
359.999999948034
 41
0.933333333333334
 72
     1
 11
-516.231782795
 21
-105.049564346671
 31
0.0
 73
     2
  0
LINE
  5
   144
  8
0
  6
CONTINUOUS
 62
     7
 10
-508.831787423292
 20
-81.6918316795899
 30
0.0
 11
-508.831796168293
 21
-109.549564361572
 31
0.0
  0
LINE
  5
   145
  8
0
  6
CONTINUOUS
 62
     7
 10
-507.33179554046
 20
-107.549564361572
 30
0.0
 11
-517.331782805928
 21
-107.549564361572
 31
0.0
  0
LINE
  5
   146
  8
0
  6
CONTINUOUS
 62
     7
 10
-504.377372263253
 20
-107.028619931621
 30
0.0
 11
-507.33179554046
 21
-107.549564361572
 31
0.0
  0
LINE
  5
   147
  8
0
  6
CONTINUOUS
 62
     7
 10
-507.33179554046
 20
-107.549564361572
 30
0.0
 11
-504.377372263253
 21
-108.070508791524
 31
0.0
  0
LINE
  5
   148
  8
0
  6
CONTINUOUS
 62
     7
 10
-511.786218817667
 20
-108.070508791524
 30
0.0
 11
-508.83179554046
 21
-107.549564361572
 31
0.0
  0
LINE
  5
   149
  8
0
  6
CONTINUOUS
 62
     7
 10
-508.83179554046
 20
-107.549564361572
 30
0.0
 11
-511.786218817667
 21
-107.028619931621
 31
0.0
  0
ENDBLK
  5
   14A
  8
0
  6
CONTINUOUS
 62
     7
  0
BLOCK
  5
   14B
  8
0
  6
CONTINUOUS
 62
     7
  2
*UDIM17
 70
    65
 10
0.0
 20
0.0
 30
0.0
  3
*UDIM17
  0
TEXT
  5
   14C
  8
0
  6
CONTINUOUS
 62
     7
 10
-448.256401064276
 20
-61.9799504342526
 30
0.0
 40
3.00000002980232
  1
12
 50
89.9999999480344
 41
0.933333333333333
 72
     1
 11
-449.756401076913
 21
-59.4799504080588
 31
0.0
 73
     2
  0
LINE
  5
   14D
  8
0
  6
CONTINUOUS
 62
     7
 10
-485.979828291452
 20
-62.1005314091021
 30
0.0
 11
-445.256401062012
 21
-62.1005314091021
 31
0.0
  0
LINE
  5
   14E
  8
0
  6
CONTINUOUS
 62
     7
 10
-485.630404279246
 20
-56.1005314091021
 30
0.0
 11
-445.256401062012
 21
-56.1005314091021
 31
0.0
  0
LINE
  5
   14F
  8
0
  6
CONTINUOUS
 62
     7
 10
-447.256401062012
 20
-62.1005314091021
 30
0.0
 11
-447.256401062012
 21
-56.1005314091021
 31
0.0
  0
LINE
  5
   150
  8
0
  6
CONTINUOUS
 62
     7
 10
-446.73545663206
 20
-65.0549546863091
 30
0.0
 11
-447.256401062012
 21
-62.1005314091021
 31
0.0
  0
LINE
  5
   151
  8
0
  6
CONTINUOUS
 62
     7
 10
-447.256401062012
 20
-62.1005314091021
 30
0.0
 11
-447.777345491963
 21
-65.0549546863091
 31
0.0
  0
LINE
  5
   152
  8
0
  6
CONTINUOUS
 62
     7
 10
-447.777345491963
 20
-53.1461081318951
 30
0.0
 11
-447.256401062012
 21
-56.1005314091021
 31
0.0
  0
LINE
  5
   153
  8
0
  6
CONTINUOUS
 62
     7
 10
-447.256401062012
 20
-56.1005314091021
 30
0.0
 11
-446.73545663206
 21
-53.1461081318951
 31
0.0
  0
ENDBLK
  5
   154
  8
0
  6
CONTINUOUS
 62
     7
  0
BLOCK
  5
   155
  8
0
  6
CONTINUOUS
 62
     7
  2
*UDIM18
 70
    65
 10
0.0
 20
0.0
 30
0.0
  3
*UDIM18
  0
TEXT
  5
   156
  8
0
  6
CONTINUOUS
 62
     7
 10
-533.946638109564
 20
-70.6255320075005
 30
0.0
 40
3.00000002980232
  1
15
 50
89.9999999480344
 41
0.933333333333333
 72
     1
 11
-535.446638122201
 21
-68.1255319813067
 31
0.0
 73
     2
  0
LINE
  5
   157
  8
0
  6
CONTINUOUS
 62
     7
 10
-502.04647030889
 20
-62.1005314091021
 30
0.0
 11
-534.9466381073
 21
-62.1005314091021
 31
0.0
  0
LINE
  5
   158
  8
0
  6
CONTINUOUS
 62
     7
 10
-507.331787586212
 20
-54.6005314091021
 30
0.0
 11
-534.9466381073
 21
-54.6005314091021
 31
0.0
  0
LINE
  5
   159
  8
0
  6
CONTINUOUS
 62
     7
 10
-532.9466381073
 20
-70.625532006142
 30
0.0
 11
-532.9466381073
 21
-54.6005314091021
 31
0.0
  0
LINE
  5
   15A
  8
0
  6
CONTINUOUS
 62
     7
 10
-532.425693677348
 20
-65.0549546863091
 30
0.0
 11
-532.9466381073
 21
-62.1005314091021
 31
0.0
  0
LINE
  5
   15B
  8
0
  6
CONTINUOUS
 62
     7
 10
-532.9466381073
 20
-62.1005314091021
 30
0.0
 11
-533.467582537252
 21
-65.0549546863091
 31
0.0
  0
LINE
  5
   15C
  8
0
  6
CONTINUOUS
 62
     7
 10
-533.467582537252
 20
-51.6461081318952
 30
0.0
 11
-532.9466381073
 21
-54.6005314091021
 31
0.0
  0
LINE
  5
   15D
  8
0
  6
CONTINUOUS
 62
     7
 10
-532.9466381073
 20
-54.6005314091021
 30
0.0
 11
-532.425693677348
 21
-51.6461081318952
 31
0.0
  0
ENDBLK
  5
   15E
  8
0
  6
CONTINUOUS
 62
     7
  0
BLOCK
  5
   15F
  8
0
  6
CONTINUOUS
 62
     7
  2
*UDIM19
 70
    65
 10
0.0
 20
0.0
 30
0.0
  3
*UDIM19
  0
TEXT
  5
   160
  8
0
  6
CONTINUOUS
 62
     7
 10
-488.931844405038
 20
-98.1324958740839
 30
0.0
 40
3.00000002980232
  1
101,5
 50
359.999999948034
 41
0.933333333333333
 72
     1
 11
-482.231844337127
 21
-96.6324958652258
 31
0.0
 73
     2
  0
LINE
  5
   161
  8
0
  6
CONTINUOUS
 62
     7
 10
-456.581795052686
 20
18.5245112609687
 30
0.0
 11
-456.581832614992
 21
-101.132495880127
 31
0.0
  0
LINE
  5
   162
  8
0
  6
CONTINUOUS
 62
     7
 10
-507.331787423292
 20
-81.6918316795899
 30
0.0
 11
-507.331793526036
 21
-101.132495880127
 31
0.0
  0
LINE
  5
   163
  8
0
  6
CONTINUOUS
 62
     7
 10
-456.581831987159
 20
-99.132495880127
 30
0.0
 11
-507.331792898203
 21
-99.132495880127
 31
0.0
  0
LINE
  5
   164
  8
0
  6
CONTINUOUS
 62
     7
 10
-459.536255264366
 20
-99.6534403100786
 30
0.0
 11
-456.581831987159
 21
-99.132495880127
 31
0.0
  0
LINE
  5
   165
  8
0
  6
CONTINUOUS
 62
     7
 10
-456.581831987159
 20
-99.132495880127
 30
0.0
 11
-459.536255264366
 21
-98.6115514501753
 31
0.0
  0
LINE
  5
   166
  8
0
  6
CONTINUOUS
 62
     7
 10
-504.377369620997
 20
-98.6115514501753
 30
0.0
 11
-507.331792898203
 21
-99.132495880127
 31
0.0
  0
LINE
  5
   167
  8
0
  6
CONTINUOUS
 62
     7
 10
-507.331792898203
 20
-99.132495880127
 30
0.0
 11
-504.377369620997
 21
-99.6534403100786
 31
0.0
  0
ENDBLK
  5
   168
  8
0
  6
CONTINUOUS
 62
     7
  0
BLOCK
  5
   169
  8
0
  6
CONTINUOUS
 62
     7
  2
*UDIM20
 70
    65
 10
0.0
 20
0.0
 30
0.0
  3
*UDIM20
  0
TEXT
  5
   16A
  8
0
  6
CONTINUOUS
 62
     7
 10
-426.635795595526
 20
41.6180244222778
 30
0.0
 40
3.00000002980232
  1
12
 50
89.9999999480344
 41
0.933333333333333
 72
     1
 11
-428.135795608163
 21
44.1180244484717
 31
0.0
 73
     2
  0
LINE
  5
   16B
  8
0
  6
CONTINUOUS
 62
     7
 10
-487.054663316243
 20
40.8995197513873
 30
0.0
 11
-423.635795593262
 21
40.8995197513873
 31
0.0
  0
LINE
  5
   16C
  8
0
  6
CONTINUOUS
 62
     7
 10
-485.979828291452
 20
46.8995197513873
 30
0.0
 11
-423.635795593262
 21
46.8995197513873
 31
0.0
  0
LINE
  5
   16D
  8
0
  6
CONTINUOUS
 62
     7
 10
-425.635795593262
 20
40.8995197513873
 30
0.0
 11
-425.635795593262
 21
46.8995197513873
 31
0.0
  0
LINE
  5
   16E
  8
0
  6
CONTINUOUS
 62
     7
 10
-425.11485116331
 20
37.9450964741803
 30
0.0
 11
-425.635795593262
 21
40.8995197513873
 31
0.0
  0
LINE
  5
   16F
  8
0
  6
CONTINUOUS
 62
     7
 10
-425.635795593262
 20
40.8995197513873
 30
0.0
 11
-426.156740023213
 21
37.9450964741803
 31
0.0
  0
LINE
  5
   170
  8
0
  6
CONTINUOUS
 62
     7
 10
-426.156740023213
 20
49.8539430285942
 30
0.0
 11
-425.635795593262
 21
46.8995197513873
 31
0.0
  0
LINE
  5
   171
  8
0
  6
CONTINUOUS
 62
     7
 10
-425.635795593262
 20
46.8995197513873
 30
0.0
 11
-425.11485116331
 21
49.8539430285942
 31
0.0
  0
ENDBLK
  5
   172
  8
0
  6
CONTINUOUS
 62
     7
  0
BLOCK
  5
   173
  8
0
  6
CONTINUOUS
 62
     7
  2
*UDIM21
 70
    65
 10
0.0
 20
0.0
 30
0.0
  3
*UDIM21
  0
TEXT
  5
   174
  8
0
  6
CONTINUOUS
 62
     7
 10
-543.854290012077
 20
-11.7755096896167
 30
0.0
 40
3.00000002980232
  1
218
 50
89.9999999480344
 41
0.933333333333333
 72
     1
 11
-545.354290023446
 21
-7.87550964951515
 31
0.0
 73
     2
  0
LINE
  5
   175
  8
0
  6
CONTINUOUS
 62
     7
 10
-502.04647030889
 20
-62.1005314091021
 30
0.0
 11
-544.854290008545
 21
-62.1005314091021
 31
0.0
  0
LINE
  5
   176
  8
0
  6
CONTINUOUS
 62
     7
 10
-502.04647030889
 20
46.8995197513873
 30
0.0
 11
-544.854290008545
 21
46.8995197513873
 31
0.0
  0
LINE
  5
   177
  8
0
  6
CONTINUOUS
 62
     7
 10
-542.854290008545
 20
-62.1005314091021
 30
0.0
 11
-542.854290008545
 21
46.8995197513873
 31
0.0
  0
LINE
  5
   178
  8
0
  6
CONTINUOUS
 62
     7
 10
-543.375234438497
 20
-59.1461081318952
 30
0.0
 11
-542.854290008545
 21
-62.1005314091021
 31
0.0
  0
LINE
  5
   179
  8
0
  6
CONTINUOUS
 62
     7
 10
-542.854290008545
 20
-62.1005314091021
 30
0.0
 11
-542.333345578593
 21
-59.1461081318952
 31
0.0
  0
LINE
  5
   17A
  8
0
  6
CONTINUOUS
 62
     7
 10
-542.333345578593
 20
43.9450964741803
 30
0.0
 11
-542.854290008545
 21
46.8995197513873
 31
0.0
  0
LINE
  5
   17B
  8
0
  6
CONTINUOUS
 62
     7
 10
-542.854290008545
 20
46.8995197513873
 30
0.0
 11
-543.375234438497
 21
43.9450964741803
 31
0.0
  0
ENDBLK
  5
   17C
  8
0
  6
CONTINUOUS
 62
     7
  0
BLOCK
  5
   17D
  8
0
  6
CONTINUOUS
 62
     7
  2
*UDIM22
 70
    65
 10
0.0
 20
0.0
 30
0.0
  3
*UDIM22
  0
TEXT
  5
   17E
  8
0
  6
CONTINUOUS
 62
     7
 10
-477.745770312839
 20
-121.965095516502
 30
0.0
 40
3.00000002980232
  1
135
 50
359.999999948034
 41
0.933333333333333
 72
     1
 11
-473.845770272743
 21
-120.465095505118
 31
0.0
 73
     2
  0
LINE
  5
   17F
  8
0
  6
CONTINUOUS
 62
     7
 10
-439.809753747675
 20
-12.8504734802422
 30
0.0
 11
-439.809788942301
 21
-124.965095520019
 31
0.0
  0
LINE
  5
   180
  8
0
  6
CONTINUOUS
 62
     7
 10
-507.331787423292
 20
-81.6918316795899
 30
0.0
 11
-507.331801007482
 21
-124.965095520019
 31
0.0
  0
LINE
  5
   181
  8
0
  6
CONTINUOUS
 62
     7
 10
-439.809788314468
 20
-122.96509552002
 30
0.0
 11
-507.331800379649
 21
-122.96509552002
 31
0.0
  0
LINE
  5
   182
  8
0
  6
CONTINUOUS
 62
     7
 10
-442.764211591675
 20
-123.486039949971
 30
0.0
 11
-439.809788314468
 21
-122.96509552002
 31
0.0
  0
LINE
  5
   183
  8
0
  6
CONTINUOUS
 62
     7
 10
-439.809788314468
 20
-122.96509552002
 30
0.0
 11
-442.764211591675
 21
-122.444151090068
 31
0.0
  0
LINE
  5
   184
  8
0
  6
CONTINUOUS
 62
     7
 10
-504.377377102442
 20
-122.444151090068
 30
0.0
 11
-507.331800379649
 21
-122.96509552002
 31
0.0
  0
LINE
  5
   185
  8
0
  6
CONTINUOUS
 62
     7
 10
-507.331800379649
 20
-122.96509552002
 30
0.0
 11
-504.377377102442
 21
-123.486039949971
 31
0.0
  0
ENDBLK
  5
   186
  8
0
  6
CONTINUOUS
 62
     7
  0
BLOCK
  5
   187
  8
0
  6
CONTINUOUS
 62
     7
  2
*UDIM23
 70
    65
 10
0.0
 20
0.0
 30
0.0
  3
*UDIM23
  0
TEXT
  5
   188
  8
0
  6
CONTINUOUS
 62
     7
 10
-418.415580753044
 20
-10.9004829736405
 30
0.0
 40
3.00000002980232
  1
105
 50
89.9999999480344
 41
0.933333333333333
 72
     1
 11
-419.915580764413
 21
-7.00048293353893
 31
0.0
 73
     2
  0
LINE
  5
   189
  8
0
  6
CONTINUOUS
 62
     7
 10
-452.83179473877
 20
-32.9754734802423
 30
0.0
 11
-415.415580749512
 21
-32.9754734802423
 31
0.0
  0
LINE
  5
   18A
  8
0
  6
CONTINUOUS
 62
     7
 10
-452.83179473877
 20
19.5245112609687
 30
0.0
 11
-415.415580749512
 21
19.5245112609687
 31
0.0
  0
LINE
  5
   18B
  8
0
  6
CONTINUOUS
 62
     7
 10
-417.415580749512
 20
-32.9754734802423
 30
0.0
 11
-417.415580749512
 21
19.5245112609687
 31
0.0
  0
LINE
  5
   18C
  8
0
  6
CONTINUOUS
 62
     7
 10
-417.936525179463
 20
-30.0210502030353
 30
0.0
 11
-417.415580749512
 21
-32.9754734802423
 31
0.0
  0
LINE
  5
   18D
  8
0
  6
CONTINUOUS
 62
     7
 10
-417.415580749512
 20
-32.9754734802423
 30
0.0
 11
-416.89463631956
 21
-30.0210502030353
 31
0.0
  0
LINE
  5
   18E
  8
0
  6
CONTINUOUS
 62
     7
 10
-416.89463631956
 20
16.5700879837617
 30
0.0
 11
-417.415580749512
 21
19.5245112609687
 31
0.0
  0
LINE
  5
   18F
  8
0
  6
CONTINUOUS
 62
     7
 10
-417.415580749512
 20
19.5245112609687
 30
0.0
 11
-417.936525179463
 21
16.5700879837617
 31
0.0
  0
ENDBLK
  5
   190
  8
0
  6
CONTINUOUS
 62
     7
  0
BLOCK
  5
   191
  8
0
  6
CONTINUOUS
 62
     0
  2
$1ON-OFF
 70
    64
 10
0.0
 20
0.0
 30
0.0
  3
$1ON-OFF
  0
LINE
  5
   192
  8
0
  6
CONTINUOUS
 62
     0
 10
5.09999999999999
 20
-29.65
 30
0.0
 11
5.54999999999999
 21
-29.65
 31
0.0
  0
LINE
  5
   193
  8
0
  6
CONTINUOUS
 62
     0
 10
3.79999999999999
 20
-37.35
 30
0.0
 11
4.59999999999999
 21
-37.35
 31
0.0
  0
LINE
  5
   194
  8
0
  6
CONTINUOUS
 62
     0
 10
-2.6
 20
-34.75
 30
0.0
 11
-2.6
 21
-34.25
 31
0.0
  0
LINE
  5
   195
  8
0
  6
CONTINUOUS
 62
     0
 10
2.6
 20
-34.75
 30
0.0
 11
2.6
 21
-34.25
 31
0.0
  0
ARC
  5
   196
  8
0
  6
CONTINUOUS
 62
     0
 10
-3.5527136788005E-15
 20
-34.25
 30
0.0
 40
2.6
 50
0.0
 51
180.0
  0
ARC
  5
   197
  8
0
  6
CONTINUOUS
 62
     0
 10
-3.5527136788005E-15
 20
-34.75
 30
0.0
 40
2.6
 50
180.0
 51
360.0
  0
ARC
  5
   198
  8
0
  6
CONTINUOUS
 62
     0
 10
-3.5527136788005E-15
 20
-34.25
 30
0.0
 40
1.8
 50
0.0
 51
180.0
  0
ARC
  5
   199
  8
0
  6
CONTINUOUS
 62
     0
 10
-3.5527136788005E-15
 20
-34.75
 30
0.0
 40
1.8
 50
180.0
 51
360.0
  0
LINE
  5
   19A
  8
0
  6
CONTINUOUS
 62
     0
 10
-1.8
 20
-34.75
 30
0.0
 11
-1.8
 21
-34.25
 31
0.0
  0
LINE
  5
   19B
  8
0
  6
CONTINUOUS
 62
     0
 10
1.8
 20
-34.75
 30
0.0
 11
1.8
 21
-34.25
 31
0.0
  0
LINE
  5
   19C
  8
0
  6
CONTINUOUS
 62
     0
 10
2.84999999999999
 20
-32.85
 30
0.0
 11
2.84999999999999
 21
-32.05
 31
0.0
  0
LINE
  5
   19D
  8
0
  6
CONTINUOUS
 62
     0
 10
2.84999999999999
 20
-32.85
 30
0.0
 11
3.79999999999999
 21
-32.85
 31
0.0
  0
LINE
  5
   19E
  8
0
  6
CONTINUOUS
 62
     0
 10
5.54999999999999
 20
-32.85
 30
0.0
 11
5.54999999999999
 21
-32.05
 31
0.0
  0
LINE
  5
   19F
  8
0
  6
CONTINUOUS
 62
     0
 10
2.84999999999999
 20
-32.05
 30
0.0
 11
3.79999999999999
 21
-32.05
 31
0.0
  0
LINE
  5
   1A0
  8
0
  6
CONTINUOUS
 62
     0
 10
3.79999999999999
 20
-37.35
 30
0.0
 11
3.79999999999999
 21
-32.85
 31
0.0
  0
LINE
  5
   1A1
  8
0
  6
CONTINUOUS
 62
     0
 10
4.59999999999999
 20
-37.35
 30
0.0
 11
4.59999999999999
 21
-32.85
 31
0.0
  0
LINE
  5
   1A2
  8
0
  6
CONTINUOUS
 62
     0
 10
4.59999999999999
 20
-32.85
 30
0.0
 11
5.54999999999999
 21
-32.85
 31
0.0
  0
LINE
  5
   1A3
  8
0
  6
CONTINUOUS
 62
     0
 10
4.59999999999999
 20
-32.05
 30
0.0
 11
5.54999999999999
 21
-32.05
 31
0.0
  0
LINE
  5
   1A4
  8
0
  6
CONTINUOUS
 62
     0
 10
3.79999999999999
 20
-32.05
 30
0.0
 11
3.79999999999999
 21
-30.95
 31
0.0
  0
LINE
  5
   1A5
  8
0
  6
CONTINUOUS
 62
     0
 10
4.59999999999999
 20
-32.05
 30
0.0
 11
4.59999999999999
 21
-30.95
 31
0.0
  0
ARC
  5
   1A6
  8
0
  6
CONTINUOUS
 62
     0
 10
5.09999999999999
 20
-30.95
 30
0.0
 40
1.3
 50
89.9999999999999
 51
180.0
  0
ARC
  5
   1A7
  8
0
  6
CONTINUOUS
 62
     0
 10
5.09999999999999
 20
-30.95
 30
0.0
 40
0.5
 50
89.9999999999999
 51
180.0
  0
LINE
  5
   1A8
  8
0
  6
CONTINUOUS
 62
     0
 10
5.54999999999999
 20
-30.45
 30
0.0
 11
5.54999999999999
 21
-29.65
 31
0.0
  0
LINE
  5
   1A9
  8
0
  6
CONTINUOUS
 62
     0
 10
5.09999999999999
 20
-30.45
 30
0.0
 11
5.54999999999999
 21
-30.45
 31
0.0
  0
LINE
  5
   1AA
  8
0
  6
CONTINUOUS
 62
     0
 10
8.29999999999998
 20
-29.65
 30
0.0
 11
8.74999999999999
 21
-29.65
 31
0.0
  0
LINE
  5
   1AB
  8
0
  6
CONTINUOUS
 62
     0
 10
6.99999999999999
 20
-37.35
 30
0.0
 11
7.79999999999999
 21
-37.35
 31
0.0
  0
LINE
  5
   1AC
  8
0
  6
CONTINUOUS
 62
     0
 10
6.04999999999999
 20
-32.85
 30
0.0
 11
6.04999999999999
 21
-32.05
 31
0.0
  0
LINE
  5
   1AD
  8
0
  6
CONTINUOUS
 62
     0
 10
6.04999999999999
 20
-32.85
 30
0.0
 11
6.99999999999999
 21
-32.85
 31
0.0
  0
LINE
  5
   1AE
  8
0
  6
CONTINUOUS
 62
     0
 10
8.74999999999999
 20
-32.85
 30
0.0
 11
8.74999999999999
 21
-32.05
 31
0.0
  0
LINE
  5
   1AF
  8
0
  6
CONTINUOUS
 62
     0
 10
6.04999999999999
 20
-32.05
 30
0.0
 11
6.99999999999999
 21
-32.05
 31
0.0
  0
LINE
  5
   1B0
  8
0
  6
CONTINUOUS
 62
     0
 10
6.99999999999999
 20
-37.35
 30
0.0
 11
6.99999999999999
 21
-32.85
 31
0.0
  0
LINE
  5
   1B1
  8
0
  6
CONTINUOUS
 62
     0
 10
7.79999999999999
 20
-37.35
 30
0.0
 11
7.79999999999999
 21
-32.85
 31
0.0
  0
LINE
  5
   1B2
  8
0
  6
CONTINUOUS
 62
     0
 10
7.79999999999999
 20
-32.85
 30
0.0
 11
8.74999999999999
 21
-32.85
 31
0.0
  0
LINE
  5
   1B3
  8
0
  6
CONTINUOUS
 62
     0
 10
7.79999999999999
 20
-32.05
 30
0.0
 11
8.74999999999999
 21
-32.05
 31
0.0
  0
LINE
  5
   1B4
  8
0
  6
CONTINUOUS
 62
     0
 10
6.99999999999999
 20
-32.05
 30
0.0
 11
6.99999999999999
 21
-30.95
 31
0.0
  0
LINE
  5
   1B5
  8
0
  6
CONTINUOUS
 62
     0
 10
7.79999999999999
 20
-32.05
 30
0.0
 11
7.79999999999999
 21
-30.95
 31
0.0
  0
ARC
  5
   1B6
  8
0
  6
CONTINUOUS
 62
     0
 10
8.29999999999998
 20
-30.95
 30
0.0
 40
1.3
 50
89.9999999999999
 51
180.0
  0
ARC
  5
   1B7
  8
0
  6
CONTINUOUS
 62
     0
 10
8.29999999999998
 20
-30.95
 30
0.0
 40
0.5
 50
89.9999999999999
 51
180.0
  0
LINE
  5
   1B8
  8
0
  6
CONTINUOUS
 62
     0
 10
8.74999999999999
 20
-30.45
 30
0.0
 11
8.74999999999999
 21
-29.65
 31
0.0
  0
LINE
  5
   1B9
  8
0
  6
CONTINUOUS
 62
     0
 10
8.29999999999998
 20
-30.45
 30
0.0
 11
8.74999999999999
 21
-30.45
 31
0.0
  0
LINE
  5
   1BA
  8
0
  6
CONTINUOUS
 62
     0
 10
3.4
 20
-2.85000000000002
 30
0.0
 11
4.19999999999999
 21
-2.85000000000002
 31
0.0
  0
ARC
  5
   1BB
  8
0
  6
CONTINUOUS
 62
     0
 10
-3.5527136788005E-15
 20
0.249999999999979
 30
0.0
 40
2.6
 50
0.0
 51
180.0
  0
ARC
  5
   1BC
  8
0
  6
CONTINUOUS
 62
     0
 10
-3.5527136788005E-15
 20
0.249999999999979
 30
0.0
 40
1.8
 50
0.0
 51
180.0
  0
ARC
  5
   1BD
  8
0
  6
CONTINUOUS
 62
     0
 10
-3.5527136788005E-15
 20
-0.250000000000018
 30
0.0
 40
2.6
 50
180.0
 51
360.0
  0
ARC
  5
   1BE
  8
0
  6
CONTINUOUS
 62
     0
 10
-3.5527136788005E-15
 20
-0.250000000000018
 30
0.0
 40
1.8
 50
180.0
 51
360.0
  0
LINE
  5
   1BF
  8
0
  6
CONTINUOUS
 62
     0
 10
1.8
 20
-0.250000000000018
 30
0.0
 11
1.8
 21
0.249999999999979
 31
0.0
  0
LINE
  5
   1C0
  8
0
  6
CONTINUOUS
 62
     0
 10
2.6
 20
-0.250000000000018
 30
0.0
 11
2.6
 21
0.249999999999979
 31
0.0
  0
LINE
  5
   1C1
  8
0
  6
CONTINUOUS
 62
     0
 10
-1.8
 20
-0.250000000000032
 30
0.0
 11
-1.8
 21
0.249999999999964
 31
0.0
  0
LINE
  5
   1C2
  8
0
  6
CONTINUOUS
 62
     0
 10
-2.6
 20
-0.250000000000018
 30
0.0
 11
-2.6
 21
0.249999999999979
 31
0.0
  0
LINE
  5
   1C3
  8
0
  6
CONTINUOUS
 62
     0
 10
3.4
 20
-2.85000000000002
 30
0.0
 11
3.4
 21
2.84999999999998
 31
0.0
  0
LINE
  5
   1C4
  8
0
  6
CONTINUOUS
 62
     0
 10
4.19999999999999
 20
-2.85000000000002
 30
0.0
 11
4.19999999999999
 21
0.649999999999981
 31
0.0
  0
LINE
  5
   1C5
  8
0
  6
CONTINUOUS
 62
     0
 10
6.99999999999999
 20
-2.85000000000002
 30
0.0
 11
6.99999999999999
 21
0.649999999999981
 31
0.0
  0
LINE
  5
   1C6
  8
0
  6
CONTINUOUS
 62
     0
 10
7.79999999999999
 20
-2.85000000000002
 30
0.0
 11
7.79999999999999
 21
0.84999999999998
 31
0.0
  0
LINE
  5
   1C7
  8
0
  6
CONTINUOUS
 62
     0
 10
3.4
 20
2.84999999999998
 30
0.0
 11
4.19999999999999
 21
2.84999999999998
 31
0.0
  0
ARC
  5
   1C8
  8
0
  6
CONTINUOUS
 62
     0
 10
5.59999999999999
 20
0.649999999999981
 30
0.0
 40
1.4
 50
0.0
 51
180.0
  0
LINE
  5
   1C9
  8
0
  6
CONTINUOUS
 62
     0
 10
4.19999999999999
 20
2.05
 30
0.0
 11
4.19999999999999
 21
2.84999999999998
 31
0.0
  0
ARC
  5
   1CA
  8
0
  6
CONTINUOUS
 62
     0
 10
5.79999999999999
 20
0.84999999999998
 30
0.0
 40
2.0
 50
0.0
 51
143.130102354155
  0
LINE
  5
   1CB
  8
0
  6
CONTINUOUS
 62
     0
 10
6.99999999999999
 20
-2.85000000000002
 30
0.0
 11
7.79999999999999
 21
-2.85000000000002
 31
0.0
  0
ENDBLK
  5
   1CC
  8
0
  6
CONTINUOUS
 62
     0
  0
BLOCK
  5
   1CD
  8
0
  6
CONTINUOUS
 62
     7
  2
COPRITERMINALI
 70
    64
 10
0.0
 20
0.0
 30
0.0
  3
COPRITERMINALI
  0
LINE
  5
   1CE
  8
0
  6
CONTINUOUS
 62
     2
 10
70.0
 20
-25.5
 30
0.0
 11
70.0
 21
-1.25
 31
0.0
  0
LINE
  5
   1CF
  8
0
  6
CONTINUOUS
 62
     2
 10
68.7500079259097
 20
6.86639207359008E-6
 30
0.0
 11
69.6338885468344
 21
-0.366112524937034
 31
0.0
  0
LINE
  5
   1D0
  8
0
  6
CONTINUOUS
 62
     2
 10
69.633884498095
 20
-0.366107105298454
 30
0.0
 11
70.0000038894241
 21
-1.24998772622308
 31
0.0
  0
LINE
  5
   1D1
  8
0
  6
CONTINUOUS
 62
     2
 10
-50.3122698373484
 20
-26.5
 30
0.0
 11
69.0
 21
-26.5
 31
0.0
  0
LINE
  5
   1D2
  8
0
  6
CONTINUOUS
 62
     2
 10
67.6000061035156
 20
-25.5
 30
0.0
 11
67.6000061035156
 21
-0.310653686523438
 31
0.0
  0
LINE
  5
   1D3
  8
0
  6
CONTINUOUS
 62
     2
 10
64.0
 20
-25.5
 30
0.0
 11
64.0
 21
-0.310653686523438
 31
0.0
  0
LINE
  5
   1D4
  8
0
  6
CONTINUOUS
 62
     2
 10
60.3999938964844
 20
-25.5
 30
0.0
 11
60.3999938964844
 21
-0.310653686523438
 31
0.0
  0
LINE
  5
   1D5
  8
0
  6
CONTINUOUS
 62
     2
 10
56.8000030517578
 20
-25.5
 30
0.0
 11
56.8000030517578
 21
-0.310653686523438
 31
0.0
  0
LINE
  5
   1D6
  8
0
  6
CONTINUOUS
 62
     2
 10
53.1999969482422
 20
-25.5
 30
0.0
 11
53.1999969482422
 21
-0.310653686523438
 31
0.0
  0
LINE
  5
   1D7
  8
0
  6
CONTINUOUS
 62
     2
 10
49.5999984741211
 20
-25.5
 30
0.0
 11
49.5999984741211
 21
-0.310653686523438
 31
0.0
  0
LINE
  5
   1D8
  8
0
  6
CONTINUOUS
 62
     2
 10
46.0
 20
-25.5
 30
0.0
 11
46.0
 21
-0.310653686523438
 31
0.0
  0
LINE
  5
   1D9
  8
0
  6
CONTINUOUS
 62
     2
 10
42.4000015258789
 20
-25.5
 30
0.0
 11
42.4000015258789
 21
-0.310653686523438
 31
0.0
  0
LINE
  5
   1DA
  8
0
  6
CONTINUOUS
 62
     2
 10
38.8000030517578
 20
-25.5
 30
0.0
 11
38.8000030517578
 21
-0.310653686523438
 31
0.0
  0
LINE
  5
   1DB
  8
0
  6
CONTINUOUS
 62
     2
 10
35.1999969482422
 20
-25.5
 30
0.0
 11
35.1999969482422
 21
-0.310653686523438
 31
0.0
  0
LINE
  5
   1DC
  8
0
  6
CONTINUOUS
 62
     2
 10
31.5999984741211
 20
-25.5
 30
0.0
 11
31.5999984741211
 21
-0.310653686523438
 31
0.0
  0
LINE
  5
   1DD
  8
0
  6
CONTINUOUS
 62
     2
 10
28.0
 20
-25.5
 30
0.0
 11
28.0
 21
-0.310653686523438
 31
0.0
  0
LINE
  5
   1DE
  8
0
  6
CONTINUOUS
 62
     2
 10
24.4000015258789
 20
-25.5
 30
0.0
 11
24.4000015258789
 21
-0.310653686523438
 31
0.0
  0
LINE
  5
   1DF
  8
0
  6
CONTINUOUS
 62
     2
 10
20.8000030517578
 20
-25.5
 30
0.0
 11
20.8000030517578
 21
-0.310653686523438
 31
0.0
  0
LINE
  5
   1E0
  8
0
  6
CONTINUOUS
 62
     2
 10
17.1999969482422
 20
-25.5
 30
0.0
 11
17.1999969482422
 21
-0.310653686523438
 31
0.0
  0
LINE
  5
   1E1
  8
0
  6
CONTINUOUS
 62
     2
 10
13.5999984741211
 20
-25.5
 30
0.0
 11
13.5999984741211
 21
-0.310653686523438
 31
0.0
  0
LINE
  5
   1E2
  8
0
  6
CONTINUOUS
 62
     2
 10
10.0
 20
-25.5
 30
0.0
 11
10.0
 21
-0.310653686523438
 31
0.0
  0
LINE
  5
   1E3
  8
0
  6
CONTINUOUS
 62
     2
 10
6.40000152587891
 20
-25.5
 30
0.0
 11
6.40000152587891
 21
-0.310653686523438
 31
0.0
  0
LINE
  5
   1E4
  8
0
  6
CONTINUOUS
 62
     2
 10
2.80000305175781
 20
-25.5
 30
0.0
 11
2.80000305175781
 21
-0.310653686523438
 31
0.0
  0
LINE
  5
   1E5
  8
0
  6
CONTINUOUS
 62
     2
 10
-0.800003051757813
 20
-25.5
 30
0.0
 11
-0.800003051757813
 21
-0.310653686523438
 31
0.0
  0
LINE
  5
   1E6
  8
0
  6
CONTINUOUS
 62
     2
 10
-4.40000152587891
 20
-25.5
 30
0.0
 11
-4.40000152587891
 21
-0.310653686523438
 31
0.0
  0
LINE
  5
   1E7
  8
0
  6
CONTINUOUS
 62
     2
 10
-8.0
 20
-25.5
 30
0.0
 11
-8.0
 21
-0.310653686523438
 31
0.0
  0
LINE
  5
   1E8
  8
0
  6
CONTINUOUS
 62
     2
 10
-11.5999984741211
 20
-25.5
 30
0.0
 11
-11.5999984741211
 21
-0.310653686523438
 31
0.0
  0
LINE
  5
   1E9
  8
0
  6
CONTINUOUS
 62
     2
 10
-15.2000007629395
 20
-25.5
 30
0.0
 11
-15.2000007629395
 21
-0.310653686523438
 31
0.0
  0
LINE
  5
   1EA
  8
0
  6
CONTINUOUS
 62
     2
 10
-18.7999992370605
 20
-25.5
 30
0.0
 11
-18.7999992370605
 21
-0.310653686523438
 31
0.0
  0
LINE
  5
   1EB
  8
0
  6
CONTINUOUS
 62
     2
 10
-22.4000015258789
 20
-25.5
 30
0.0
 11
-22.4000015258789
 21
-0.310653686523438
 31
0.0
  0
LINE
  5
   1EC
  8
0
  6
CONTINUOUS
 62
     2
 10
-26.0
 20
-25.5
 30
0.0
 11
-26.0
 21
-0.310653686523438
 31
0.0
  0
LINE
  5
   1ED
  8
0
  6
CONTINUOUS
 62
     2
 10
-29.5999984741211
 20
-25.5
 30
0.0
 11
-29.5999984741211
 21
-0.310653686523438
 31
0.0
  0
LINE
  5
   1EE
  8
0
  6
CONTINUOUS
 62
     2
 10
-33.2000007629395
 20
-25.5
 30
0.0
 11
-33.2000007629395
 21
-0.310653686523438
 31
0.0
  0
LINE
  5
   1EF
  8
0
  6
CONTINUOUS
 62
     2
 10
-36.7999992370605
 20
-25.5
 30
0.0
 11
-36.7999992370605
 21
-1.57802866758733
 31
0.0
  0
LINE
  5
   1F0
  8
0
  6
CONTINUOUS
 62
     2
 10
-40.3999996185303
 20
-25.5
 30
0.0
 11
-40.3999996185303
 21
-9.73654360470745
 31
0.0
  0
LINE
  5
   1F1
  8
0
  6
CONTINUOUS
 62
     2
 10
-44.0
 20
-25.5
 30
0.0
 11
-44.0
 21
-13.1224262368184
 31
0.0
  0
LINE
  5
   1F2
  8
0
  6
CONTINUOUS
 62
     2
 10
-47.6000003814697
 20
-25.5
 30
0.0
 11
-47.6000003814697
 21
-19.6719599536075
 31
0.0
  0
LINE
  5
   1F3
  8
0
  6
CONTINUOUS
 62
     2
 10
69.0
 20
-25.5
 30
0.0
 11
70.0
 21
-25.5
 31
0.0
  0
LINE
  5
   1F4
  8
0
  6
CONTINUOUS
 62
     2
 10
69.0
 20
-26.5
 30
0.0
 11
69.0
 21
-25.5
 31
0.0
  0
LINE
  5
   1F5
  8
0
  6
CONTINUOUS
 62
     2
 10
-50.0113882406146
 20
-25.5
 30
0.0
 11
69.0
 21
-25.5
 31
0.0
  0
POLYLINE
  5
   1F6
  8
0
  6
CONTINUOUS
 62
     7
 66
     1
 10
0.0
 20
0.0
 30
0.0
  0
VERTEX
  5
   1F7
  8
0
  6
CONTINUOUS
 10
-32.7985341005249
 20
1.46534476677357
 30
0.0
 40
0.0
 41
0.0
  0
VERTEX
  5
   1F8
  8
0
  6
CONTINUOUS
 10
-32.987325734826
 20
1.38611824466164
 30
0.0
 40
0.0
 41
0.0
  0
VERTEX
  5
   1F9
  8
0
  6
CONTINUOUS
 10
-33.1761383659282
 20
1.30452772384226
 30
0.0
 40
0.0
 41
0.0
  0
VERTEX
  5
   1FA
  8
0
  6
CONTINUOUS
 10
-33.3649571819992
 20
1.2205639026575
 30
0.0
 40
0.0
 41
0.0
  0
VERTEX
  5
   1FB
  8
0
  6
CONTINUOUS
 10
-33.5537436722753
 20
1.13420259679675
 30
0.0
 40
0.0
 41
0.0
  0
VERTEX
  5
   1FC
  8
0
  6
CONTINUOUS
 10
-33.7424237775954
 20
1.04539729797038
 30
0.0
 40
0.0
 41
0.0
  0
VERTEX
  5
   1FD
  8
0
  6
CONTINUOUS
 10
-33.9308760409356
 20
0.954071732583381
 30
0.0
 40
0.0
 41
0.0
  0
VERTEX
  5
   1FE
  8
0
  6
CONTINUOUS
 10
-34.1189197579429
 20
0.860112420409048
 30
0.0
 40
0.0
 41
0.0
  0
VERTEX
  5
   1FF
  8
0
  6
CONTINUOUS
 10
-34.3063031274698
 20
0.763361233262619
 30
0.0
 40
0.0
 41
0.0
  0
VERTEX
  5
   200
  8
0
  6
CONTINUOUS
 10
-34.4926914021084
 20
0.663607953674938
 30
0.0
 40
0.0
 41
0.0
  0
VERTEX
  5
   201
  8
0
  6
CONTINUOUS
 10
-34.677655038725
 20
0.560582833566116
 30
0.0
 40
0.0
 41
0.0
  0
VERTEX
  5
   202
  8
0
  6
CONTINUOUS
 10
-34.8784103981661
 20
0.443322466790008
 30
0.0
 40
0.0
 41
0.0
  0
VERTEX
  5
   203
  8
0
  6
CONTINUOUS
 10
-35.0759426418482
 20
0.321176016961332
 30
0.0
 40
0.0
 41
0.0
  0
VERTEX
  5
   204
  8
0
  6
CONTINUOUS
 10
-35.2692686635283
 20
0.193538151426688
 30
0.0
 40
0.0
 41
0.0
  0
VERTEX
  5
   205
  8
0
  6
CONTINUOUS
 10
-35.3640244418552
 20
0.127461536313317
 30
0.0
 40
0.0
 41
0.0
  0
VERTEX
  5
   206
  8
0
  6
CONTINUOUS
 10
-35.4573271080756
 20
5.97736727108731E-2
 30
0.0
 40
0.0
 41
0.0
  0
VERTEX
  5
   207
  8
0
  6
CONTINUOUS
 10
-35.5490394606962
 20
-9.60309240398241E-3
 30
0.0
 40
0.0
 41
0.0
  0
VERTEX
  5
   208
  8
0
  6
CONTINUOUS
 10
-35.6390252699828
 20
-8.07433924806405E-2
 30
0.0
 40
0.0
 41
0.0
  0
VERTEX
  5
   209
  8
0
  6
CONTINUOUS
 10
-35.7271507435377
 20
-0.153717619863218
 30
0.0
 40
0.0
 41
0.0
  0
VERTEX
  5
   20A
  8
0
  6
CONTINUOUS
 10
-35.8132859918789
 20
-0.228590704259229
 30
0.0
 40
0.0
 41
0.0
  0
VERTEX
  5
   20B
  8
0
  6
CONTINUOUS
 10
-35.8973064940184
 20
-0.305420891208261
 30
0.0
 40
0.0
 41
0.0
  0
VERTEX
  5
   20C
  8
0
  6
CONTINUOUS
 10
-35.9790945630406
 20
-0.384258520550641
 30
0.0
 40
0.0
 41
0.0
  0
VERTEX
  5
   20D
  8
0
  6
CONTINUOUS
 10
-36.0585408116809
 20
-0.465144804896116
 30
0.0
 40
0.0
 41
0.0
  0
VERTEX
  5
   20E
  8
0
  6
CONTINUOUS
 10
-36.1355456179043
 20
-0.548110608092519
 30
0.0
 40
0.0
 41
0.0
  0
VERTEX
  5
   20F
  8
0
  6
CONTINUOUS
 10
-36.2100205904837
 20
-0.633175223694445
 30
0.0
 40
0.0
 41
0.0
  0
VERTEX
  5
   210
  8
0
  6
CONTINUOUS
 10
-36.2818900345783
 20
-0.720345153431922
 30
0.0
 40
0.0
 41
0.0
  0
VERTEX
  5
   211
  8
0
  6
CONTINUOUS
 10
-36.3510924173127
 20
-0.809612885679086
 30
0.0
 40
0.0
 41
0.0
  0
VERTEX
  5
   212
  8
0
  6
CONTINUOUS
 10
-36.4175818333547
 20
-0.900955673922852
 30
0.0
 40
0.0
 41
0.0
  0
VERTEX
  5
   213
  8
0
  6
CONTINUOUS
 10
-36.4842089214757
 20
-0.998698060580724
 30
0.0
 40
0.0
 41
0.0
  0
VERTEX
  5
   214
  8
0
  6
CONTINUOUS
 10
-36.5478230303524
 20
-1.09860399437586
 30
0.0
 40
0.0
 41
0.0
  0
VERTEX
  5
   215
  8
0
  6
CONTINUOUS
 10
-36.6084326261379
 20
-1.20058996805088
 30
0.0
 40
0.0
 41
0.0
  0
VERTEX
  5
   216
  8
0
  6
CONTINUOUS
 10
-36.6660650525139
 20
-1.30455597838066
 30
0.0
 40
0.0
 41
0.0
  0
VERTEX
  5
   217
  8
0
  6
CONTINUOUS
 10
-36.720764852164
 20
-1.41038786788055
 30
0.0
 40
0.0
 41
0.0
  0
VERTEX
  5
   218
  8
0
  6
CONTINUOUS
 10
-36.772592088246
 20
-1.5179596665147
 30
0.0
 40
0.0
 41
0.0
  0
VERTEX
  5
   219
  8
0
  6
CONTINUOUS
 10
-36.8216206658649
 20
-1.62713593340431
 30
0.0
 40
0.0
 41
0.0
  0
VERTEX
  5
   21A
  8
0
  6
CONTINUOUS
 10
-36.8679366535456
 20
-1.73777409853593
 30
0.0
 40
0.0
 41
0.0
  0
VERTEX
  5
   21B
  8
0
  6
CONTINUOUS
 10
-36.9116366047058
 20
-1.84972680446973
 30
0.0
 40
0.0
 41
0.0
  0
VERTEX
  5
   21C
  8
0
  6
CONTINUOUS
 10
-36.9528258791284
 20
-1.96284424804777
 30
0.0
 40
0.0
 41
0.0
  0
VERTEX
  5
   21D
  8
0
  6
CONTINUOUS
 10
-36.9916169644346
 20
-2.07697652210229
 30
0.0
 40
0.0
 41
0.0
  0
VERTEX
  5
   21E
  8
0
  6
CONTINUOUS
 10
-37.0281277975565
 20
-2.19197595716401
 30
0.0
 40
0.0
 41
0.0
  0
VERTEX
  5
   21F
  8
0
  6
CONTINUOUS
 10
-37.0624800862098
 20
-2.30769946317035
 30
0.0
 40
0.0
 41
0.0
  0
VERTEX
  5
   220
  8
0
  6
CONTINUOUS
 10
-37.0947976303668
 20
-2.42401087117378
 30
0.0
 40
0.0
 41
0.0
  0
VERTEX
  5
   221
  8
0
  6
CONTINUOUS
 10
-37.1538240751995
 20
-2.65790137320645
 30
0.0
 40
0.0
 41
0.0
  0
VERTEX
  5
   222
  8
0
  6
CONTINUOUS
 10
-37.2061755929259
 20
-2.89278551889659
 30
0.0
 40
0.0
 41
0.0
  0
VERTEX
  5
   223
  8
0
  6
CONTINUOUS
 10
-37.2527466947769
 20
-3.12806197104888
 30
0.0
 40
0.0
 41
0.0
  0
VERTEX
  5
   224
  8
0
  6
CONTINUOUS
 10
-37.3055099122189
 20
-3.43174144190569
 30
0.0
 40
0.0
 41
0.0
  0
VERTEX
  5
   225
  8
0
  6
CONTINUOUS
 10
-37.3512539865609
 20
-3.73592540029735
 30
0.0
 40
0.0
 41
0.0
  0
VERTEX
  5
   226
  8
0
  6
CONTINUOUS
 10
-37.3912594330599
 20
-4.04143909690471
 30
0.0
 40
0.0
 41
0.0
  0
VERTEX
  5
   227
  8
0
  6
CONTINUOUS
 10
-37.484081826403
 20
-4.85625124244804
 30
0.0
 40
0.0
 41
0.0
  0
VERTEX
  5
   228
  8
0
  6
CONTINUOUS
 10
-37.5087165182104
 20
-5.05343858415647
 30
0.0
 40
0.0
 41
0.0
  0
VERTEX
  5
   229
  8
0
  6
CONTINUOUS
 10
-37.5368776838213
 20
-5.25003759879164
 30
0.0
 40
0.0
 41
0.0
  0
VERTEX
  5
   22A
  8
0
  6
CONTINUOUS
 10
-37.5700900337405
 20
-5.44519211565509
 30
0.0
 40
0.0
 41
0.0
  0
VERTEX
  5
   22B
  8
0
  6
CONTINUOUS
 10
-37.6098747473722
 20
-5.63798076894811
 30
0.0
 40
0.0
 41
0.0
  0
VERTEX
  5
   22C
  8
0
  6
CONTINUOUS
 10
-37.6326833692714
 20
-5.73319912336667
 30
0.0
 40
0.0
 41
0.0
  0
VERTEX
  5
   22D
  8
0
  6
CONTINUOUS
 10
-37.6576569296812
 20
-5.82748599671333
 30
0.0
 40
0.0
 41
0.0
  0
VERTEX
  5
   22E
  8
0
  6
CONTINUOUS
 10
-37.6849433721994
 20
-5.92073860823248
 30
0.0
 40
0.0
 41
0.0
  0
VERTEX
  5
   22F
  8
0
  6
CONTINUOUS
 10
-37.714673067854
 20
-6.01286303977628
 30
0.0
 40
0.0
 41
0.0
  0
VERTEX
  5
   230
  8
0
  6
CONTINUOUS
 10
-37.7469559231241
 20
-6.10377639202161
 30
0.0
 40
0.0
 41
0.0
  0
VERTEX
  5
   231
  8
0
  6
CONTINUOUS
 10
-37.78187848796
 20
-6.19340894068695
 30
0.0
 40
0.0
 41
0.0
  0
VERTEX
  5
   232
  8
0
  6
CONTINUOUS
 10
-37.8195010638042
 20
-6.28170629274936
 30
0.0
 40
0.0
 41
0.0
  0
VERTEX
  5
   233
  8
0
  6
CONTINUOUS
 10
-37.8598548116121
 20
-6.36863154266136
 30
0.0
 40
0.0
 41
0.0
  0
VERTEX
  5
   234
  8
0
  6
CONTINUOUS
 10
-37.9029388598727
 20
-6.45416742856786
 30
0.0
 40
0.0
 41
0.0
  0
VERTEX
  5
   235
  8
0
  6
CONTINUOUS
 10
-37.9487174126288
 20
-6.53831848852312
 30
0.0
 40
0.0
 41
0.0
  0
VERTEX
  5
   236
  8
0
  6
CONTINUOUS
 10
-38.0286864729316
 20
-6.67225301423163
 30
0.0
 40
0.0
 41
0.0
  0
VERTEX
  5
   237
  8
0
  6
CONTINUOUS
 10
-38.1150390798986
 20
-6.8028706245178
 30
0.0
 40
0.0
 41
0.0
  0
VERTEX
  5
   238
  8
0
  6
CONTINUOUS
 10
-38.2070185807485
 20
-6.93057610050436
 30
0.0
 40
0.0
 41
0.0
  0
VERTEX
  5
   239
  8
0
  6
CONTINUOUS
 10
-38.3036968261118
 20
-7.05588455839049
 30
0.0
 40
0.0
 41
0.0
  0
VERTEX
  5
   23A
  8
0
  6
CONTINUOUS
 10
-38.4040306042343
 20
-7.17938541424661
 30
0.0
 40
0.0
 41
0.0
  0
VERTEX
  5
   23B
  8
0
  6
CONTINUOUS
 10
-38.5069180751816
 20
-7.30170634880901
 30
0.0
 40
0.0
 41
0.0
  0
VERTEX
  5
   23C
  8
0
  6
CONTINUOUS
 10
-38.7159922001321
 20
-7.54529428909543
 30
0.0
 40
0.0
 41
0.0
  0
VERTEX
  5
   23D
  8
0
  6
CONTINUOUS
 10
-38.9230764176215
 20
-7.79106578065651
 30
0.0
 40
0.0
 41
0.0
  0
VERTEX
  5
   23E
  8
0
  6
CONTINUOUS
 10
-39.0492905438886
 20
-7.94743016342612
 30
0.0
 40
0.0
 41
0.0
  0
VERTEX
  5
   23F
  8
0
  6
CONTINUOUS
 10
-39.1720926895887
 20
-8.10596637232394
 30
0.0
 40
0.0
 41
0.0
  0
VERTEX
  5
   240
  8
0
  6
CONTINUOUS
 10
-39.2915423579209
 20
-8.26650382153249
 30
0.0
 40
0.0
 41
0.0
  0
VERTEX
  5
   241
  8
0
  6
CONTINUOUS
 10
-39.4081581658554
 20
-8.42858806907501
 30
0.0
 40
0.0
 41
0.0
  0
VERTEX
  5
   242
  8
0
  6
CONTINUOUS
 10
-39.7506581208203
 20
-8.91693906781153
 30
0.0
 40
0.0
 41
0.0
  0
VERTEX
  5
   243
  8
0
  6
CONTINUOUS
 10
-39.8662782944218
 20
-9.07768851283964
 30
0.0
 40
0.0
 41
0.0
  0
VERTEX
  5
   244
  8
0
  6
CONTINUOUS
 10
-39.9845157611785
 20
-9.2361542510314
 30
0.0
 40
0.0
 41
0.0
  0
VERTEX
  5
   245
  8
0
  6
CONTINUOUS
 10
-40.1062266379697
 20
-9.39179843171584
 30
0.0
 40
0.0
 41
0.0
  0
VERTEX
  5
   246
  8
0
  6
CONTINUOUS
 10
-40.2148341924907
 20
-9.52407326647005
 30
0.0
 40
0.0
 41
0.0
  0
VERTEX
  5
   247
  8
0
  6
CONTINUOUS
 10
-40.3265164185618
 20
-9.65401373135785
 30
0.0
 40
0.0
 41
0.0
  0
VERTEX
  5
   248
  8
0
  6
CONTINUOUS
 10
-40.4411382640661
 20
-9.78177164218492
 30
0.0
 40
0.0
 41
0.0
  0
VERTEX
  5
   249
  8
0
  6
CONTINUOUS
 10
-40.5583926747722
 20
-9.90761915475169
 30
0.0
 40
0.0
 41
0.0
  0
VERTEX
  5
   24A
  8
0
  6
CONTINUOUS
 10
-40.7989738488973
 20
-10.1550722676369
 30
0.0
 40
0.0
 41
0.0
  0
VERTEX
  5
   24B
  8
0
  6
CONTINUOUS
 10
-41.2893768583179
 20
-10.6445457238492
 30
0.0
 40
0.0
 41
0.0
  0
VERTEX
  5
   24C
  8
0
  6
CONTINUOUS
 10
-41.5940241015684
 20
-10.955109459031
 30
0.0
 40
0.0
 41
0.0
  0
VERTEX
  5
   24D
  8
0
  6
CONTINUOUS
 10
-42.1954700483199
 20
-11.5793773921751
 30
0.0
 40
0.0
 41
0.0
  0
VERTEX
  5
   24E
  8
0
  6
CONTINUOUS
 10
-42.347775221839
 20
-11.7326209485733
 30
0.0
 40
0.0
 41
0.0
  0
VERTEX
  5
   24F
  8
0
  6
CONTINUOUS
 10
-42.502350507148
 20
-11.8833923677083
 30
0.0
 40
0.0
 41
0.0
  0
VERTEX
  5
   250
  8
0
  6
CONTINUOUS
 10
-42.6597994445063
 20
-12.0311806438999
 30
0.0
 40
0.0
 41
0.0
  0
VERTEX
  5
   251
  8
0
  6
CONTINUOUS
 10
-42.820512437592
 20
-12.1756813031234
 30
0.0
 40
0.0
 41
0.0
  0
VERTEX
  5
   252
  8
0
  6
CONTINUOUS
 10
-43.0155331612107
 20
-12.3428420590265
 30
0.0
 40
0.0
 41
0.0
  0
VERTEX
  5
   253
  8
0
  6
CONTINUOUS
 10
-43.2148025653934
 20
-12.5058862845384
 30
0.0
 40
0.0
 41
0.0
  0
VERTEX
  5
   254
  8
0
  6
CONTINUOUS
 10
-43.4172492048293
 20
-12.6659017911538
 30
0.0
 40
0.0
 41
0.0
  0
VERTEX
  5
   255
  8
0
  6
CONTINUOUS
 10
-43.8251700648084
 20
-12.9831565215351
 30
0.0
 40
0.0
 41
0.0
  0
VERTEX
  5
   256
  8
0
  6
CONTINUOUS
 10
-44.0266982514479
 20
-13.144118085893
 30
0.0
 40
0.0
 41
0.0
  0
VERTEX
  5
   257
  8
0
  6
CONTINUOUS
 10
-44.223788405618
 20
-13.3092210056989
 30
0.0
 40
0.0
 41
0.0
  0
VERTEX
  5
   258
  8
0
  6
CONTINUOUS
 10
-44.3200234143467
 20
-13.3939001539125
 30
0.0
 40
0.0
 41
0.0
  0
VERTEX
  5
   259
  8
0
  6
CONTINUOUS
 10
-44.4143963389803
 20
-13.4802759895322
 30
0.0
 40
0.0
 41
0.0
  0
VERTEX
  5
   25A
  8
0
  6
CONTINUOUS
 10
-44.5066872140269
 20
-13.5685320080033
 30
0.0
 40
0.0
 41
0.0
  0
VERTEX
  5
   25B
  8
0
  6
CONTINUOUS
 10
-44.5966985147177
 20
-13.65882641513
 30
0.0
 40
0.0
 41
0.0
  0
VERTEX
  5
   25C
  8
0
  6
CONTINUOUS
 10
-44.6842594820077
 20
-13.751287836343
 30
0.0
 40
0.0
 41
0.0
  0
VERTEX
  5
   25D
  8
0
  6
CONTINUOUS
 10
-44.7692304475773
 20
-13.8460110259679
 30
0.0
 40
0.0
 41
0.0
  0
VERTEX
  5
   25E
  8
0
  6
CONTINUOUS
 10
-44.8316754293085
 20
-13.919148479824
 30
0.0
 40
0.0
 41
0.0
  0
VERTEX
  5
   25F
  8
0
  6
CONTINUOUS
 10
-44.8925495771136
 20
-13.9936205060287
 30
0.0
 40
0.0
 41
0.0
  0
VERTEX
  5
   260
  8
0
  6
CONTINUOUS
 10
-44.9518345462706
 20
-14.0694233174704
 30
0.0
 40
0.0
 41
0.0
  0
VERTEX
  5
   261
  8
0
  6
CONTINUOUS
 10
-45.0095235348834
 20
-14.1465412902514
 30
0.0
 40
0.0
 41
0.0
  0
VERTEX
  5
   262
  8
0
  6
CONTINUOUS
 10
-45.0656205683129
 20
-14.2249479749392
 30
0.0
 40
0.0
 41
0.0
  0
VERTEX
  5
   263
  8
0
  6
CONTINUOUS
 10
-45.1201397836063
 20
-14.3046071078174
 30
0.0
 40
0.0
 41
0.0
  0
VERTEX
  5
   264
  8
0
  6
CONTINUOUS
 10
-45.22454757299
 20
-14.467494659365
 30
0.0
 40
0.0
 41
0.0
  0
VERTEX
  5
   265
  8
0
  6
CONTINUOUS
 10
-45.3230350414971
 20
-14.6347559770176
 30
0.0
 40
0.0
 41
0.0
  0
VERTEX
  5
   266
  8
0
  6
CONTINUOUS
 10
-45.4160063181122
 20
-14.8058507844132
 30
0.0
 40
0.0
 41
0.0
  0
VERTEX
  5
   267
  8
0
  6
CONTINUOUS
 10
-45.5039586241091
 20
-14.9801788567333
 30
0.0
 40
0.0
 41
0.0
  0
VERTEX
  5
   268
  8
0
  6
CONTINUOUS
 10
-45.5874593748174
 20
-15.1571123807314
 30
0.0
 40
0.0
 41
0.0
  0
VERTEX
  5
   269
  8
0
  6
CONTINUOUS
 10
-45.66712328139
 20
-15.3360283147627
 30
0.0
 40
0.0
 41
0.0
  0
VERTEX
  5
   26A
  8
0
  6
CONTINUOUS
 10
-45.7435894525699
 20
-15.5163407488124
 30
0.0
 40
0.0
 41
0.0
  0
VERTEX
  5
   26B
  8
0
  6
CONTINUOUS
 10
-45.8289676167773
 20
-15.7261721688122
 30
0.0
 40
0.0
 41
0.0
  0
VERTEX
  5
   26C
  8
0
  6
CONTINUOUS
 10
-45.9118811358644
 20
-15.9365383326597
 30
0.0
 40
0.0
 41
0.0
  0
VERTEX
  5
   26D
  8
0
  6
CONTINUOUS
 10
-46.2360650001272
 20
-16.7755771288026
 30
0.0
 40
0.0
 41
0.0
  0
VERTEX
  5
   26E
  8
0
  6
CONTINUOUS
 10
-46.4033373787501
 20
-17.1912807391923
 30
0.0
 40
0.0
 41
0.0
  0
VERTEX
  5
   26F
  8
0
  6
CONTINUOUS
 10
-46.4899241565071
 20
-17.3980883677176
 30
0.0
 40
0.0
 41
0.0
  0
VERTEX
  5
   270
  8
0
  6
CONTINUOUS
 10
-46.5787543139922
 20
-17.6042529023681
 30
0.0
 40
0.0
 41
0.0
  0
VERTEX
  5
   271
  8
0
  6
CONTINUOUS
 10
-46.7234874846221
 20
-17.9283926707999
 30
0.0
 40
0.0
 41
0.0
  0
VERTEX
  5
   272
  8
0
  6
CONTINUOUS
 10
-46.8731405849947
 20
-18.2509757795179
 30
0.0
 40
0.0
 41
0.0
  0
VERTEX
  5
   273
  8
0
  6
CONTINUOUS
 10
-47.026722933389
 20
-18.5717231529382
 30
0.0
 40
0.0
 41
0.0
  0
VERTEX
  5
   274
  8
0
  6
CONTINUOUS
 10
-47.1836205216845
 20
-18.8900453691345
 30
0.0
 40
0.0
 41
0.0
  0
VERTEX
  5
   275
  8
0
  6
CONTINUOUS
 10
-47.3443221036293
 20
-19.2049855534274
 30
0.0
 40
0.0
 41
0.0
  0
VERTEX
  5
   276
  8
0
  6
CONTINUOUS
 10
-47.4261133418592
 20
-19.3596223585118
 30
0.0
 40
0.0
 41
0.0
  0
VERTEX
  5
   277
  8
0
  6
CONTINUOUS
 10
-47.5098548534003
 20
-19.5128858329721
 30
0.0
 40
0.0
 41
0.0
  0
VERTEX
  5
   278
  8
0
  6
CONTINUOUS
 10
-47.5961327741862
 20
-19.6645537675075
 30
0.0
 40
0.0
 41
0.0
  0
VERTEX
  5
   279
  8
0
  6
CONTINUOUS
 10
-47.6855864464957
 20
-19.8144038150727
 30
0.0
 40
0.0
 41
0.0
  0
VERTEX
  5
   27A
  8
0
  6
CONTINUOUS
 10
-47.7788575248224
 20
-19.9622280320566
 30
0.0
 40
0.0
 41
0.0
  0
VERTEX
  5
   27B
  8
0
  6
CONTINUOUS
 10
-47.8765390817446
 20
-20.1078474194623
 30
0.0
 40
0.0
 41
0.0
  0
VERTEX
  5
   27C
  8
0
  6
CONTINUOUS
 10
-47.9791247137951
 20
-20.2511264640867
 30
0.0
 40
0.0
 41
0.0
  0
VERTEX
  5
   27D
  8
0
  6
CONTINUOUS
 10
-48.0869576473305
 20
-20.3919876796999
 30
0.0
 40
0.0
 41
0.0
  0
VERTEX
  5
   27E
  8
0
  6
CONTINUOUS
 10
-48.2001798444015
 20
-20.5304261482248
 30
0.0
 40
0.0
 41
0.0
  0
VERTEX
  5
   27F
  8
0
  6
CONTINUOUS
 10
-48.3186811086219
 20
-20.6665240609164
 30
0.0
 40
0.0
 41
0.0
  0
VERTEX
  5
   280
  8
0
  6
CONTINUOUS
 10
-48.4150782534868
 20
-20.7717635306882
 30
0.0
 40
0.0
 41
0.0
  0
VERTEX
  5
   281
  8
0
  6
CONTINUOUS
 10
-48.5141349147584
 20
-20.8758092619276
 30
0.0
 40
0.0
 41
0.0
  0
VERTEX
  5
   282
  8
0
  6
CONTINUOUS
 10
-48.7182874692573
 20
-21.0810508153296
 30
0.0
 40
0.0
 41
0.0
  0
VERTEX
  5
   283
  8
0
  6
CONTINUOUS
 10
-49.1324042007541
 20
-21.4868336513077
 30
0.0
 40
0.0
 41
0.0
  0
VERTEX
  5
   284
  8
0
  6
CONTINUOUS
 10
-49.2326703830543
 20
-21.5889145873466
 30
0.0
 40
0.0
 41
0.0
  0
VERTEX
  5
   285
  8
0
  6
CONTINUOUS
 10
-49.3299912665073
 20
-21.6918402664255
 30
0.0
 40
0.0
 41
0.0
  0
VERTEX
  5
   286
  8
0
  6
CONTINUOUS
 10
-49.4235516145899
 20
-21.7959056879614
 30
0.0
 40
0.0
 41
0.0
  0
VERTEX
  5
   287
  8
0
  6
CONTINUOUS
 10
-49.5125649943476
 20
-21.9013972484245
 30
0.0
 40
0.0
 41
0.0
  0
VERTEX
  5
   288
  8
0
  6
CONTINUOUS
 10
-49.5962900597728
 20
-22.0085874811719
 30
0.0
 40
0.0
 41
0.0
  0
VERTEX
  5
   289
  8
0
  6
CONTINUOUS
 10
-49.6740468351834
 20
-22.1177297962829
 30
0.0
 40
0.0
 41
0.0
  0
VERTEX
  5
   28A
  8
0
  6
CONTINUOUS
 10
-49.7452329986007
 20
-22.2290532203928
 30
0.0
 40
0.0
 41
0.0
  0
VERTEX
  5
   28B
  8
0
  6
CONTINUOUS
 10
-49.8093401651283
 20
-22.3427571365279
 30
0.0
 40
0.0
 41
0.0
  0
VERTEX
  5
   28C
  8
0
  6
CONTINUOUS
 10
-49.8386099474367
 20
-22.4005546861325
 30
0.0
 40
0.0
 41
0.0
  0
VERTEX
  5
   28D
  8
0
  6
CONTINUOUS
 10
-49.8659701703298
 20
-22.45900602394
 30
0.0
 40
0.0
 41
0.0
  0
VERTEX
  5
   28E
  8
0
  6
CONTINUOUS
 10
-49.8913909566918
 20
-22.5181253931462
 30
0.0
 40
0.0
 41
0.0
  0
VERTEX
  5
   28F
  8
0
  6
CONTINUOUS
 10
-49.9148513536078
 20
-22.5779241979403
 30
0.0
 40
0.0
 41
0.0
  0
VERTEX
  5
   290
  8
0
  6
CONTINUOUS
 10
-49.9363398412198
 20
-22.6384108391246
 30
0.0
 40
0.0
 41
0.0
  0
VERTEX
  5
   291
  8
0
  6
CONTINUOUS
 10
-49.9558548415817
 20
-22.6995905497346
 30
0.0
 40
0.0
 41
0.0
  0
VERTEX
  5
   292
  8
0
  6
CONTINUOUS
 10
-49.9734052275155
 20
-22.7614652306584
 30
0.0
 40
0.0
 41
0.0
  0
VERTEX
  5
   293
  8
0
  6
CONTINUOUS
 10
-49.9890108314664
 20
-22.8240332862572
 30
0.0
 40
0.0
 41
0.0
  0
VERTEX
  5
   294
  8
0
  6
CONTINUOUS
 10
-50.0047554413711
 20
-22.8976612019038
 30
0.0
 40
0.0
 41
0.0
  0
VERTEX
  5
   295
  8
0
  6
CONTINUOUS
 10
-50.0179816338646
 20
-22.9722050111457
 30
0.0
 40
0.0
 41
0.0
  0
VERTEX
  5
   296
  8
0
  6
CONTINUOUS
 10
-50.0287785296796
 20
-23.0476436087821
 30
0.0
 40
0.0
 41
0.0
  0
VERTEX
  5
   297
  8
0
  6
CONTINUOUS
 10
-50.0372536536442
 20
-23.1239498544954
 30
0.0
 40
0.0
 41
0.0
  0
VERTEX
  5
   298
  8
0
  6
CONTINUOUS
 10
-50.0435311829812
 20
-23.2010910536714
 30
0.0
 40
0.0
 41
0.0
  0
VERTEX
  5
   299
  8
0
  6
CONTINUOUS
 10
-50.0477501956075
 20
-23.2790294382178
 30
0.0
 40
0.0
 41
0.0
  0
VERTEX
  5
   29A
  8
0
  6
CONTINUOUS
 10
-50.0506329756619
 20
-23.4371242085802
 30
0.0
 40
0.0
 41
0.0
  0
VERTEX
  5
   29B
  8
0
  6
CONTINUOUS
 10
-50.0472460663974
 20
-23.5978488224255
 30
0.0
 40
0.0
 41
0.0
  0
VERTEX
  5
   29C
  8
0
  6
CONTINUOUS
 10
-50.0390598426638
 20
-23.7607675333913
 30
0.0
 40
0.0
 41
0.0
  0
VERTEX
  5
   29D
  8
0
  6
CONTINUOUS
 10
-49.9890108314664
 20
-24.4247659373166
 30
0.0
 40
0.0
 41
0.0
  0
VERTEX
  5
   29E
  8
0
  6
CONTINUOUS
 10
-49.9782754597228
 20
-24.6151470722734
 30
0.0
 40
0.0
 41
0.0
  0
VERTEX
  5
   29F
  8
0
  6
CONTINUOUS
 10
-49.9723525063678
 20
-24.8046442609763
 30
0.0
 40
0.0
 41
0.0
  0
VERTEX
  5
   2A0
  8
0
  6
CONTINUOUS
 10
-49.9724954976356
 20
-24.9927030661309
 30
0.0
 40
0.0
 41
0.0
  0
VERTEX
  5
   2A1
  8
0
  6
CONTINUOUS
 10
-49.9796724480558
 20
-25.1788316161205
 30
0.0
 40
0.0
 41
0.0
  0
VERTEX
  5
   2A2
  8
0
  6
CONTINUOUS
 10
-49.9861319995373
 20
-25.2710343532933
 30
0.0
 40
0.0
 41
0.0
  0
VERTEX
  5
   2A3
  8
0
  6
CONTINUOUS
 10
-49.9946020525772
 20
-25.3625961755665
 30
0.0
 40
0.0
 41
0.0
  0
VERTEX
  5
   2A4
  8
0
  6
CONTINUOUS
 10
-50.0051394256299
 20
-25.4534712231002
 30
0.0
 40
0.0
 41
0.0
  0
VERTEX
  5
   2A5
  8
0
  6
CONTINUOUS
 10
-50.0177898786914
 20
-25.5436167158895
 30
0.0
 40
0.0
 41
0.0
  0
VERTEX
  5
   2A6
  8
0
  6
CONTINUOUS
 10
-50.0325892443032
 20
-25.6329928153444
 30
0.0
 40
0.0
 41
0.0
  0
VERTEX
  5
   2A7
  8
0
  6
CONTINUOUS
 10
-50.0495645585561
 20
-25.7215624858699
 30
0.0
 40
0.0
 41
0.0
  0
VERTEX
  5
   2A8
  8
0
  6
CONTINUOUS
 10
-50.0687351920944
 20
-25.8092913564462
 30
0.0
 40
0.0
 41
0.0
  0
VERTEX
  5
   2A9
  8
0
  6
CONTINUOUS
 10
-50.0901139811192
 20
-25.8961475822085
 30
0.0
 40
0.0
 41
0.0
  0
VERTEX
  5
   2AA
  8
0
  6
CONTINUOUS
 10
-50.1137083583927
 20
-25.9821017060272
 30
0.0
 40
0.0
 41
0.0
  0
VERTEX
  5
   2AB
  8
0
  6
CONTINUOUS
 10
-50.1395214842418
 20
-26.0671265200876
 30
0.0
 40
0.0
 41
0.0
  0
VERTEX
  5
   2AC
  8
0
  6
CONTINUOUS
 10
-50.1675533775622
 20
-26.1511969274705
 30
0.0
 40
0.0
 41
0.0
  0
VERTEX
  5
   2AD
  8
0
  6
CONTINUOUS
 10
-50.197802046822
 20
-26.2342898037315
 30
0.0
 40
0.0
 41
0.0
  0
VERTEX
  5
   2AE
  8
0
  6
CONTINUOUS
 10
-50.2371435833903
 20
-26.3329706799233
 30
0.0
 40
0.0
 41
0.0
  0
VERTEX
  5
   2AF
  8
0
  6
CONTINUOUS
 10
-50.279687072296
 20
-26.4301709561747
 30
0.0
 40
0.0
 41
0.0
  0
VERTEX
  5
   2B0
  8
0
  6
CONTINUOUS
 10
-50.3254279934567
 20
-26.5258601674124
 30
0.0
 40
0.0
 41
0.0
  0
VERTEX
  5
   2B1
  8
0
  6
CONTINUOUS
 10
-50.3743623018934
 20
-26.6200110507319
 30
0.0
 40
0.0
 41
0.0
  0
VERTEX
  5
   2B2
  8
0
  6
CONTINUOUS
 10
-50.4264864013363
 20
-26.7125993674983
 30
0.0
 40
0.0
 41
0.0
  0
VERTEX
  5
   2B3
  8
0
  6
CONTINUOUS
 10
-50.4817971178297
 20
-26.8036037254486
 30
0.0
 40
0.0
 41
0.0
  0
VERTEX
  5
   2B4
  8
0
  6
CONTINUOUS
 10
-50.5402916733374
 20
-26.8930054007936
 30
0.0
 40
0.0
 41
0.0
  0
VERTEX
  5
   2B5
  8
0
  6
CONTINUOUS
 10
-50.6019676593486
 20
-26.980788160319
 30
0.0
 40
0.0
 41
0.0
  0
VERTEX
  5
   2B6
  8
0
  6
CONTINUOUS
 10
-50.6668230104823
 20
-27.0669380834879
 30
0.0
 40
0.0
 41
0.0
  0
VERTEX
  5
   2B7
  8
0
  6
CONTINUOUS
 10
-50.7348559780937
 20
-27.151443384542
 30
0.0
 40
0.0
 41
0.0
  0
VERTEX
  5
   2B8
  8
0
  6
CONTINUOUS
 10
-50.8060651038788
 20
-27.2342942346039
 30
0.0
 40
0.0
 41
0.0
  0
VERTEX
  5
   2B9
  8
0
  6
CONTINUOUS
 10
-50.8804491934799
 20
-27.3154825837783
 30
0.0
 40
0.0
 41
0.0
  0
VERTEX
  5
   2BA
  8
0
  6
CONTINUOUS
 10
-50.9580072900914
 20
-27.3950019832541
 30
0.0
 40
0.0
 41
0.0
  0
VERTEX
  5
   2BB
  8
0
  6
CONTINUOUS
 10
-51.0387386480646
 20
-27.4728474074061
 30
0.0
 40
0.0
 41
0.0
  0
VERTEX
  5
   2BC
  8
0
  6
CONTINUOUS
 10
-51.1226427065134
 20
-27.5490150758969
 30
0.0
 40
0.0
 41
0.0
  0
VERTEX
  5
   2BD
  8
0
  6
CONTINUOUS
 10
-51.2097190629195
 20
-27.6235022757782
 30
0.0
 40
0.0
 41
0.0
  0
VERTEX
  5
   2BE
  8
0
  6
CONTINUOUS
 10
-51.2999674467378
 20
-27.6963071835933
 30
0.0
 40
0.0
 41
0.0
  0
VERTEX
  5
   2BF
  8
0
  6
CONTINUOUS
 10
-51.3933876930018
 20
-27.767428687478
 30
0.0
 40
0.0
 41
0.0
  0
VERTEX
  5
   2C0
  8
0
  6
CONTINUOUS
 10
-51.4899797159288
 20
-27.8368662092632
 30
0.0
 40
0.0
 41
0.0
  0
VERTEX
  5
   2C1
  8
0
  6
CONTINUOUS
 10
-51.5897434825258
 20
-27.904619526576
 30
0.0
 40
0.0
 41
0.0
  0
SEQEND
  5
   2C2
  8
0
  6
CONTINUOUS
 62
     7
  0
LINE
  5
   2C3
  8
0
  6
CONTINUOUS
 62
     7
 10
-35.5368898912662
 20
6.8663920274048E-6
 30
0.0
 11
68.7500079259097
 21
6.8663920274048E-6
 31
0.0
  0
ENDBLK
  5
   2C4
  8
0
  6
CONTINUOUS
 62
     7
  0
BLOCK
  5
   2C5
  8
0
  6
CONTINUOUS
 62
     7
  2
*UDIM24
 70
    65
 10
0.0
 20
0.0
 30
0.0
  3
*UDIM24
  0
TEXT
  5
   2C6
  8
0
  6
CONTINUOUS
 62
     7
 10
-569.324153903679
 20
-10.9004906161304
 30
0.0
 40
3.00000002980232
  1
161
 50
89.9999999480344
 41
0.933333333333333
 72
     1
 11
-570.824153915048
 21
-7.00049057602882
 31
0.0
 73
     2
  0
LINE
  5
   2C7
  8
0
  6
CONTINUOUS
 62
     7
 10
-589.029892654068
 20
-46.9754886627197
 30
0.0
 11
-566.324153900146
 21
-46.9754886627197
 31
0.0
  0
LINE
  5
   2C8
  8
0
  6
CONTINUOUS
 62
     7
 10
-589.029892654068
 20
33.5245094299316
 30
0.0
 11
-566.324153900146
 21
33.5245094299316
 31
0.0
  0
LINE
  5
   2C9
  8
0
  6
CONTINUOUS
 62
     7
 10
-568.324153900147
 20
-46.9754886627197
 30
0.0
 11
-568.324153900147
 21
33.5245094299316
 31
0.0
  0
LINE
  5
   2CA
  8
0
  6
CONTINUOUS
 62
     7
 10
-568.845098330098
 20
-44.0210653855128
 30
0.0
 11
-568.324153900147
 21
-46.9754886627197
 31
0.0
  0
LINE
  5
   2CB
  8
0
  6
CONTINUOUS
 62
     7
 10
-568.324153900147
 20
-46.9754886627197
 30
0.0
 11
-567.803209470195
 21
-44.0210653855128
 31
0.0
  0
LINE
  5
   2CC
  8
0
  6
CONTINUOUS
 62
     7
 10
-567.803209470195
 20
30.5700861527247
 30
0.0
 11
-568.324153900147
 21
33.5245094299316
 31
0.0
  0
LINE
  5
   2CD
  8
0
  6
CONTINUOUS
 62
     7
 10
-568.324153900147
 20
33.5245094299316
 30
0.0
 11
-568.845098330098
 21
30.5700861527247
 31
0.0
  0
ENDBLK
  5
   2CE
  8
0
  6
CONTINUOUS
 62
     7
  0
BLOCK
  5
   2CF
  8
0
  6
CONTINUOUS
 62
     7
  2
*UDIM25
 70
    65
 10
0.0
 20
0.0
 30
0.0
  3
*UDIM25
  0
TEXT
  5
   2D0
  8
0
  6
CONTINUOUS
 62
     7
 10
-622.829892014671
 20
99.0300483738789
 30
0.0
 40
3.00000002980232
  1
117
 50
359.999999948034
 41
0.933333333333333
 72
     1
 11
-618.929891974576
 21
100.530048385262
 31
0.0
 73
     2
  0
LINE
  5
   2D1
  8
0
  6
CONTINUOUS
 62
     7
 10
-589.404892654069
 20
33.8995094299316
 30
0.0
 11
-589.404892654068
 21
100.030048370361
 31
0.0
  0
LINE
  5
   2D2
  8
0
  6
CONTINUOUS
 62
     7
 10
-647.904892654068
 20
33.8995094299316
 30
0.0
 11
-647.904892654068
 21
100.030048370361
 31
0.0
  0
LINE
  5
   2D3
  8
0
  6
CONTINUOUS
 62
     7
 10
-589.404892654068
 20
98.0300483703613
 30
0.0
 11
-647.904892654068
 21
98.0300483703613
 31
0.0
  0
LINE
  5
   2D4
  8
0
  6
CONTINUOUS
 62
     7
 10
-592.359315931276
 20
97.5091039404097
 30
0.0
 11
-589.404892654068
 21
98.0300483703613
 31
0.0
  0
LINE
  5
   2D5
  8
0
  6
CONTINUOUS
 62
     7
 10
-589.404892654068
 20
98.0300483703613
 30
0.0
 11
-592.359315931276
 21
98.550992800313
 31
0.0
  0
LINE
  5
   2D6
  8
0
  6
CONTINUOUS
 62
     7
 10
-644.950469376861
 20
98.550992800313
 30
0.0
 11
-647.904892654068
 21
98.0300483703613
 31
0.0
  0
LINE
  5
   2D7
  8
0
  6
CONTINUOUS
 62
     7
 10
-647.904892654068
 20
98.0300483703613
 30
0.0
 11
-644.950469376861
 21
97.5091039404097
 31
0.0
  0
ENDBLK
  5
   2D8
  8
0
  6
CONTINUOUS
 62
     7
  0
BLOCK
  5
   2D9
  8
0
  6
CONTINUOUS
 62
     7
  2
*UDIM26
 70
    65
 10
0.0
 20
0.0
 30
0.0
  3
*UDIM26
  0
TEXT
  5
   2DA
  8
0
  6
CONTINUOUS
 62
     7
 10
-659.630573983157
 20
68.1910958419541
 30
0.0
 40
3.00000002980232
  1
11
 50
349.544729133648
 41
0.933333333333333
 72
     1
 11
-656.899879963715
 21
69.2125214834298
 31
0.0
 73
     2
  0
TEXT
  5
   2DB
  8
0
  6
CONTINUOUS
 62
     7
 10
-662.728274146319
 20
68.7627196358352
 30
0.0
 40
3.00000002980232
  1
Ø
 50
349.544729133648
 41
0.933333333333334
 72
     1
 11
-661.374335763953
 21
70.03820030033
 31
0.0
 73
     2
  0
LINE
  5
   2DC
  8
0
  6
CONTINUOUS
 62
     7
 10
-637.825527818428
 20
63.1504907358198
 30
0.0
 11
-662.909742016064
 21
67.7793227605936
 31
0.0
  0
LINE
  5
   2DD
  8
0
  6
CONTINUOUS
 62
     7
 10
-634.825622526532
 20
63.1266529579342
 30
0.0
 11
-637.825527818428
 21
63.1504907358198
 31
0.0
  0
LINE
  5
   2DE
  8
0
  6
CONTINUOUS
 62
     7
 10
-637.825527818428
 20
63.1504907358198
 30
0.0
 11
-635.014691879648
 21
62.1020627100288
 31
0.0
  0
LINE
  5
   2DF
  8
0
  6
CONTINUOUS
 62
     7
 10
-646.234115917434
 20
64.1724018036294
 30
0.0
 11
-643.234210625538
 21
64.1485640257438
 31
0.0
  0
LINE
  5
   2E0
  8
0
  6
CONTINUOUS
 62
     7
 10
-643.234210625538
 20
64.1485640257438
 30
0.0
 11
-646.045046564317
 21
65.1969920515348
 31
0.0
  0
ENDBLK
  5
   2E1
  8
0
  6
CONTINUOUS
 62
     7
  0
BLOCK
  5
   2E2
  8
0
  6
CONTINUOUS
 62
     7
  2
*UDIM27
 70
    65
 10
0.0
 20
0.0
 30
0.0
  3
*UDIM27
  0
TEXT
  5
   2E3
  8
0
  6
CONTINUOUS
 62
     7
 10
-643.30486910512
 20
78.0140571616787
 30
0.0
 40
3.00000002980232
  1
25
 50
359.999999948034
 41
0.933333333333333
 72
     1
 11
-640.804869078931
 21
79.514057174325
 31
0.0
 73
     2
  0
LINE
  5
   2E4
  8
0
  6
CONTINUOUS
 62
     7
 10
-634.279869221983
 20
70.8995273807818
 30
0.0
 11
-634.279869221983
 21
79.0140571594238
 31
0.0
  0
LINE
  5
   2E5
  8
0
  6
CONTINUOUS
 62
     7
 10
-646.779869221983
 20
70.8995273807818
 30
0.0
 11
-646.779869221983
 21
79.0140571594238
 31
0.0
  0
LINE
  5
   2E6
  8
0
  6
CONTINUOUS
 62
     7
 10
-634.279869221983
 20
77.0140571594238
 30
0.0
 11
-646.779869221983
 21
77.0140571594238
 31
0.0
  0
LINE
  5
   2E7
  8
0
  6
CONTINUOUS
 62
     7
 10
-637.23429249919
 20
76.4931127294722
 30
0.0
 11
-634.279869221983
 21
77.0140571594238
 31
0.0
  0
LINE
  5
   2E8
  8
0
  6
CONTINUOUS
 62
     7
 10
-634.279869221983
 20
77.0140571594238
 30
0.0
 11
-637.23429249919
 21
77.5350015893755
 31
0.0
  0
LINE
  5
   2E9
  8
0
  6
CONTINUOUS
 62
     7
 10
-643.825445944776
 20
77.5350015893755
 30
0.0
 11
-646.779869221983
 21
77.0140571594238
 31
0.0
  0
LINE
  5
   2EA
  8
0
  6
CONTINUOUS
 62
     7
 10
-646.779869221983
 20
77.0140571594238
 30
0.0
 11
-643.825445944776
 21
76.4931127294722
 31
0.0
  0
ENDBLK
  5
   2EB
  8
0
  6
CONTINUOUS
 62
     7
  0
BLOCK
  5
   2EC
  8
0
  6
CONTINUOUS
 62
     7
  2
*UDIM28
 70
    65
 10
0.0
 20
0.0
 30
0.0
  3
*UDIM28
  0
TEXT
  5
   2ED
  8
0
  6
CONTINUOUS
 62
     7
 10
-560.119037631706
 20
77.9744941310095
 30
0.0
 40
3.00000002980232
  1
100
 50
89.9999999480344
 41
0.933333333333333
 72
     1
 11
-561.619037643075
 21
81.8744941711111
 31
0.0
 73
     2
  0
LINE
  5
   2EE
  8
0
  6
CONTINUOUS
 62
     7
 10
-583.279889984444
 20
57.1495052337331
 30
0.0
 11
-557.119037628174
 21
57.1495052337331
 31
0.0
  0
LINE
  5
   2EF
  8
0
  6
CONTINUOUS
 62
     7
 10
-628.0910871707
 20
107.149505233733
 30
0.0
 11
-557.119037628174
 21
107.149505233733
 31
0.0
  0
LINE
  5
   2F0
  8
0
  6
CONTINUOUS
 62
     7
 10
-559.119037628174
 20
57.1495052337331
 30
0.0
 11
-559.119037628174
 21
107.149505233733
 31
0.0
  0
LINE
  5
   2F1
  8
0
  6
CONTINUOUS
 62
     7
 10
-559.639982058126
 20
60.1039285109401
 30
0.0
 11
-559.119037628174
 21
57.1495052337331
 31
0.0
  0
LINE
  5
   2F2
  8
0
  6
CONTINUOUS
 62
     7
 10
-559.119037628174
 20
57.1495052337331
 30
0.0
 11
-558.598093198222
 21
60.1039285109401
 31
0.0
  0
LINE
  5
   2F3
  8
0
  6
CONTINUOUS
 62
     7
 10
-558.598093198222
 20
104.195081956526
 30
0.0
 11
-559.119037628174
 21
107.149505233733
 31
0.0
  0
LINE
  5
   2F4
  8
0
  6
CONTINUOUS
 62
     7
 10
-559.119037628174
 20
107.149505233733
 30
0.0
 11
-559.639982058126
 21
104.195081956526
 31
0.0
  0
ENDBLK
  5
   2F5
  8
0
  6
CONTINUOUS
 62
     7
  0
BLOCK
  5
   2F6
  8
0
  6
CONTINUOUS
 62
     7
  2
*UDIM29
 70
    65
 10
0.0
 20
0.0
 30
0.0
  3
*UDIM29
  0
TEXT
  5
   2F7
  8
0
  6
CONTINUOUS
 62
     7
 10
-577.567430980389
 20
16.837009360012
 30
0.0
 40
3.00000002980232
  1
127,75
 50
89.9999999480344
 41
0.933333333333333
 72
     1
 11
-579.067430987954
 21
24.9370094418368
 31
0.0
 73
     2
  0
LINE
  5
   2F8
  8
0
  6
CONTINUOUS
 62
     7
 10
-583.279889984444
 20
57.1495052337331
 30
0.0
 11
-574.567430973053
 21
57.1495052337331
 31
0.0
  0
LINE
  5
   2F9
  8
0
  6
CONTINUOUS
 62
     7
 10
-576.567430973053
 20
-6.72549057006836
 30
0.0
 11
-576.567430973053
 21
57.1495052337331
 31
0.0
  0
LINE
  5
   2FA
  8
0
  6
CONTINUOUS
 62
     7
 10
-577.088375403005
 20
-3.7710672928614
 30
0.0
 11
-576.567430973053
 21
-6.72549057006836
 31
0.0
  0
LINE
  5
   2FB
  8
0
  6
CONTINUOUS
 62
     7
 10
-576.567430973053
 20
-6.72549057006836
 30
0.0
 11
-576.046486543101
 21
-3.7710672928614
 31
0.0
  0
LINE
  5
   2FC
  8
0
  6
CONTINUOUS
 62
     7
 10
-576.046486543101
 20
54.1950819565262
 30
0.0
 11
-576.567430973053
 21
57.1495052337331
 31
0.0
  0
LINE
  5
   2FD
  8
0
  6
CONTINUOUS
 62
     7
 10
-576.567430973053
 20
57.1495052337331
 30
0.0
 11
-577.088375403005
 21
54.1950819565262
 31
0.0
  0
ENDBLK
  5
   2FE
  8
0
  6
CONTINUOUS
 62
     7
  0
BLOCK
  5
   2FF
  8
0
  6
CONTINUOUS
 62
     7
  2
*UDIM30
 70
    65
 10
0.0
 20
0.0
 30
0.0
  3
*UDIM30
  0
TEXT
  5
   300
  8
0
  6
CONTINUOUS
 62
     7
 10
-560.119037631706
 20
-11.7754791790493
 30
0.0
 40
3.00000002980232
  1
259
 50
89.9999999480344
 41
0.933333333333333
 72
     1
 11
-561.619037643075
 21
-7.87547913894768
 31
0.0
 73
     2
  0
LINE
  5
   301
  8
0
  6
CONTINUOUS
 62
     7
 10
-585.654892458442
 20
-72.3504726192182
 30
0.0
 11
-557.119037628174
 21
-72.3504726192182
 31
0.0
  0
LINE
  5
   302
  8
0
  6
CONTINUOUS
 62
     7
 10
-583.279889984444
 20
57.1495052337331
 30
0.0
 11
-557.119037628174
 21
57.1495052337331
 31
0.0
  0
LINE
  5
   303
  8
0
  6
CONTINUOUS
 62
     7
 10
-559.119037628174
 20
-72.3504726192182
 30
0.0
 11
-559.119037628174
 21
57.1495052337331
 31
0.0
  0
LINE
  5
   304
  8
0
  6
CONTINUOUS
 62
     7
 10
-559.639982058126
 20
-69.3960493420113
 30
0.0
 11
-559.119037628174
 21
-72.3504726192182
 31
0.0
  0
LINE
  5
   305
  8
0
  6
CONTINUOUS
 62
     7
 10
-559.119037628174
 20
-72.3504726192182
 30
0.0
 11
-558.598093198222
 21
-69.3960493420113
 31
0.0
  0
LINE
  5
   306
  8
0
  6
CONTINUOUS
 62
     7
 10
-558.598093198222
 20
54.1950819565262
 30
0.0
 11
-559.119037628174
 21
57.1495052337331
 31
0.0
  0
LINE
  5
   307
  8
0
  6
CONTINUOUS
 62
     7
 10
-559.119037628174
 20
57.1495052337331
 30
0.0
 11
-559.639982058126
 21
54.1950819565262
 31
0.0
  0
ENDBLK
  5
   308
  8
0
  6
CONTINUOUS
 62
     7
  0
BLOCK
  5
   309
  8
0
  6
CONTINUOUS
 62
     5
  2
*UDIM31
 70
    65
 10
0.0
 20
0.0
 30
0.0
  3
*UDIM31
  0
TEXT
  5
   30A
  8
0
  6
CONTINUOUS
 62
     5
 10
-663.315071113293
 20
16.2120093421463
 30
0.0
 40
3.00000002980232
  1
125,25
 50
89.9999999480344
 41
0.933333333333333
 72
     1
 11
-664.815071120858
 21
24.3120094239712
 31
0.0
 73
     2
  0
LINE
  5
   30B
  8
0
  6
CONTINUOUS
 62
     5
 10
-652.90486907959
 20
55.8995018005371
 30
0.0
 11
-664.315071105957
 21
55.8995018005371
 31
0.0
  0
LINE
  5
   30C
  8
0
  6
CONTINUOUS
 62
     5
 10
-662.315071105957
 20
-6.72549057006836
 30
0.0
 11
-662.315071105957
 21
55.8995018005371
 31
0.0
  0
LINE
  5
   30D
  8
0
  6
CONTINUOUS
 62
     5
 10
-662.836015535909
 20
-3.7710672928614
 30
0.0
 11
-662.315071105957
 21
-6.72549057006836
 31
0.0
  0
LINE
  5
   30E
  8
0
  6
CONTINUOUS
 62
     5
 10
-662.315071105957
 20
-6.72549057006836
 30
0.0
 11
-661.794126676006
 21
-3.7710672928614
 31
0.0
  0
LINE
  5
   30F
  8
0
  6
CONTINUOUS
 62
     5
 10
-661.794126676006
 20
52.9450785233301
 30
0.0
 11
-662.315071105957
 21
55.8995018005371
 31
0.0
  0
LINE
  5
   310
  8
0
  6
CONTINUOUS
 62
     5
 10
-662.315071105957
 20
55.8995018005371
 30
0.0
 11
-662.836015535909
 21
52.9450785233301
 31
0.0
  0
ENDBLK
  5
   311
  8
0
  6
CONTINUOUS
 62
     5
  0
BLOCK
  5
   312
  8
0
  6
CONTINUOUS
 62
     7
  2
*UDIM32
 70
    65
 10
0.0
 20
0.0
 30
0.0
  3
*UDIM32
  0
TEXT
  5
   313
  8
0
  6
CONTINUOUS
 62
     7
 10
-622.829888199967
 20
-89.0534057582012
 30
0.0
 40
3.00000002980232
  1
105
 50
359.999999948034
 41
0.933333333333333
 72
     1
 11
-618.929888159871
 21
-87.5534057468176
 31
0.0
 73
     2
  0
LINE
  5
   314
  8
0
  6
CONTINUOUS
 62
     7
 10
-592.404900283463
 20
-0.975498199462891
 30
0.0
 11
-592.404900283463
 21
-92.0534057617188
 31
0.0
  0
LINE
  5
   315
  8
0
  6
CONTINUOUS
 62
     7
 10
-644.904892654055
 20
-0.975498199462891
 30
0.0
 11
-644.904892654055
 21
-92.0534057617188
 31
0.0
  0
LINE
  5
   316
  8
0
  6
CONTINUOUS
 62
     7
 10
-592.404900283463
 20
-90.0534057617188
 30
0.0
 11
-644.904892654055
 21
-90.0534057617188
 31
0.0
  0
LINE
  5
   317
  8
0
  6
CONTINUOUS
 62
     7
 10
-595.35932356067
 20
-90.5743501916704
 30
0.0
 11
-592.404900283463
 21
-90.0534057617188
 31
0.0
  0
LINE
  5
   318
  8
0
  6
CONTINUOUS
 62
     7
 10
-592.404900283463
 20
-90.0534057617188
 30
0.0
 11
-595.35932356067
 21
-89.5324613317671
 31
0.0
  0
LINE
  5
   319
  8
0
  6
CONTINUOUS
 62
     7
 10
-641.950469376848
 20
-89.5324613317671
 30
0.0
 11
-644.904892654055
 21
-90.0534057617188
 31
0.0
  0
LINE
  5
   31A
  8
0
  6
CONTINUOUS
 62
     7
 10
-644.904892654055
 20
-90.0534057617188
 30
0.0
 11
-641.950469376848
 21
-90.5743501916704
 31
0.0
  0
ENDBLK
  5
   31B
  8
0
  6
CONTINUOUS
 62
     7
  0
BLOCK
  5
   31C
  8
0
  6
CONTINUOUS
 62
     7
  2
*UDIM33
 70
    65
 10
0.0
 20
0.0
 30
0.0
  3
*UDIM33
  0
TEXT
  5
   31D
  8
0
  6
CONTINUOUS
 62
     7
 10
-673.836868289665
 20
-11.7754829950894
 30
0.0
 40
3.00000002980232
  1
254
 50
89.9999999480344
 41
0.933333333333333
 72
     1
 11
-675.336868301034
 21
-7.87548295498782
 31
0.0
 73
     2
  0
LINE
  5
   31E
  8
0
  6
CONTINUOUS
 62
     7
 10
-652.904892458442
 20
-71.1004734802424
 30
0.0
 11
-674.836868286133
 21
-71.1004734802424
 31
0.0
  0
LINE
  5
   31F
  8
0
  6
CONTINUOUS
 62
     7
 10
-652.90486907959
 20
55.8995018005371
 30
0.0
 11
-674.836868286133
 21
55.8995018005371
 31
0.0
  0
LINE
  5
   320
  8
0
  6
CONTINUOUS
 62
     7
 10
-672.836868286133
 20
-71.1004734802424
 30
0.0
 11
-672.836868286133
 21
55.8995018005371
 31
0.0
  0
LINE
  5
   321
  8
0
  6
CONTINUOUS
 62
     7
 10
-673.357812716085
 20
-68.1460502030354
 30
0.0
 11
-672.836868286133
 21
-71.1004734802424
 31
0.0
  0
LINE
  5
   322
  8
0
  6
CONTINUOUS
 62
     7
 10
-672.836868286133
 20
-71.1004734802424
 30
0.0
 11
-672.315923856181
 21
-68.1460502030354
 31
0.0
  0
LINE
  5
   323
  8
0
  6
CONTINUOUS
 62
     7
 10
-672.315923856181
 20
52.9450785233301
 30
0.0
 11
-672.836868286133
 21
55.8995018005371
 31
0.0
  0
LINE
  5
   324
  8
0
  6
CONTINUOUS
 62
     7
 10
-672.836868286133
 20
55.8995018005371
 30
0.0
 11
-673.357812716085
 21
52.9450785233301
 31
0.0
  0
ENDBLK
  5
   325
  8
0
  6
CONTINUOUS
 62
     7
  0
BLOCK
  5
   326
  8
0
  6
CONTINUOUS
 62
     7
  2
*UDIM34
 70
    65
 10
0.0
 20
0.0
 30
0.0
  3
*UDIM34
  0
TEXT
  5
   327
  8
0
  6
CONTINUOUS
 62
     7
 10
-614.69239202241
 20
-81.4396781860956
 30
0.0
 40
3.00000002980232
  1
43,75
 50
359.999999948034
 41
0.933333333333333
 72
     1
 11
-607.992391954498
 21
-79.9396781772375
 31
0.0
 73
     2
  0
LINE
  5
   328
  8
0
  6
CONTINUOUS
 62
     7
 10
-596.779893515575
 20
-75.8004694740473
 30
0.0
 11
-596.77990027467
 21
-84.4396781921381
 31
0.0
  0
LINE
  5
   329
  8
0
  6
CONTINUOUS
 62
     7
 10
-618.654892271365
 20
-75.8004731436474
 30
0.0
 11
-618.65489903046
 21
-84.4396781921381
 31
0.0
  0
LINE
  5
   32A
  8
0
  6
CONTINUOUS
 62
     7
 10
-596.779898709921
 20
-82.4396781921387
 30
0.0
 11
-618.654897465711
 21
-82.4396781921387
 31
0.0
  0
LINE
  5
   32B
  8
0
  6
CONTINUOUS
 62
     7
 10
-599.734321987128
 20
-82.9606226220903
 30
0.0
 11
-596.779898709921
 21
-82.4396781921387
 31
0.0
  0
LINE
  5
   32C
  8
0
  6
CONTINUOUS
 62
     7
 10
-596.779898709921
 20
-82.4396781921387
 30
0.0
 11
-599.734321987128
 21
-81.918733762187
 31
0.0
  0
LINE
  5
   32D
  8
0
  6
CONTINUOUS
 62
     7
 10
-615.700474188504
 20
-81.918733762187
 30
0.0
 11
-618.654897465711
 21
-82.4396781921387
 31
0.0
  0
LINE
  5
   32E
  8
0
  6
CONTINUOUS
 62
     7
 10
-618.654897465711
 20
-82.4396781921387
 30
0.0
 11
-615.700474188504
 21
-82.9606226220903
 31
0.0
  0
ENDBLK
  5
   32F
  8
0
  6
CONTINUOUS
 62
     7
  0
BLOCK
  5
   330
  8
0
  6
CONTINUOUS
 62
     7
  2
*UDIM35
 70
    65
 10
0.0
 20
0.0
 30
0.0
  3
*UDIM35
  0
TEXT
  5
   331
  8
0
  6
CONTINUOUS
 62
     7
 10
-636.567392046629
 20
-81.4396781860956
 30
0.0
 40
3.00000002980232
  1
43,75
 50
359.999999948034
 41
0.933333333333333
 72
     1
 11
-629.867391978717
 21
-79.9396781772375
 31
0.0
 73
     2
  0
LINE
  5
   332
  8
0
  6
CONTINUOUS
 62
     7
 10
-640.529894084545
 20
-70.8504737560956
 30
0.0
 11
-640.529917806461
 21
-84.4396781921356
 31
0.0
  0
LINE
  5
   333
  8
0
  6
CONTINUOUS
 62
     7
 10
-618.654897465711
 20
-82.4396781921387
 30
0.0
 11
-640.529914315173
 21
-82.4396781921387
 31
0.0
  0
LINE
  5
   334
  8
0
  6
CONTINUOUS
 62
     7
 10
-621.609320742918
 20
-82.9606226220903
 30
0.0
 11
-618.654897465711
 21
-82.4396781921387
 31
0.0
  0
LINE
  5
   335
  8
0
  6
CONTINUOUS
 62
     7
 10
-618.654897465711
 20
-82.4396781921387
 30
0.0
 11
-621.609320742918
 21
-81.918733762187
 31
0.0
  0
LINE
  5
   336
  8
0
  6
CONTINUOUS
 62
     7
 10
-637.575491037966
 20
-81.918733762187
 30
0.0
 11
-640.529914315173
 21
-82.4396781921387
 31
0.0
  0
LINE
  5
   337
  8
0
  6
CONTINUOUS
 62
     7
 10
-640.529914315173
 20
-82.4396781921387
 30
0.0
 11
-637.575491037966
 21
-82.9606226220903
 31
0.0
  0
ENDBLK
  5
   338
  8
0
  6
CONTINUOUS
 62
     7
  0
BLOCK
  5
   339
  8
0
  6
CONTINUOUS
 62
     7
  2
*UDIM36
 70
    65
 10
0.0
 20
0.0
 30
0.0
  3
*UDIM36
  0
TEXT
  5
   33A
  8
0
  6
CONTINUOUS
 62
     7
 10
-622.829926343762
 20
-94.9485168421855
 30
0.0
 40
3.00000002980232
  1
140
 50
359.999999948034
 41
0.933333333333333
 72
     1
 11
-618.929926303667
 21
-93.448516830802
 31
0.0
 73
     2
  0
LINE
  5
   33B
  8
0
  6
CONTINUOUS
 62
     7
 10
-583.654877022901
 20
42.8995094299317
 30
0.0
 11
-583.654921237418
 21
-97.948516845703
 31
0.0
  0
LINE
  5
   33C
  8
0
  6
CONTINUOUS
 62
     7
 10
-653.654869419405
 20
42.8995094299317
 30
0.0
 11
-653.654916985226
 21
-97.948516845703
 31
0.0
  0
LINE
  5
   33D
  8
0
  6
CONTINUOUS
 62
     7
 10
-583.654920609585
 20
-95.9485168457031
 30
0.0
 11
-653.654916309806
 21
-95.9485168457031
 31
0.0
  0
LINE
  5
   33E
  8
0
  6
CONTINUOUS
 62
     7
 10
-586.609343886792
 20
-96.4694612756548
 30
0.0
 11
-583.654920609585
 21
-95.9485168457031
 31
0.0
  0
LINE
  5
   33F
  8
0
  6
CONTINUOUS
 62
     7
 10
-583.654920609585
 20
-95.9485168457031
 30
0.0
 11
-586.609343886792
 21
-95.4275724157515
 31
0.0
  0
LINE
  5
   340
  8
0
  6
CONTINUOUS
 62
     7
 10
-650.700493032599
 20
-95.4275724157515
 30
0.0
 11
-653.654916309806
 21
-95.9485168457031
 31
0.0
  0
LINE
  5
   341
  8
0
  6
CONTINUOUS
 62
     7
 10
-653.654916309806
 20
-95.9485168457031
 30
0.0
 11
-650.700493032599
 21
-96.4694612756548
 31
0.0
  0
ENDBLK
  5
   342
  8
0
  6
CONTINUOUS
 62
     7
  0
BLOCK
  5
   343
  8
0
  6
CONTINUOUS
 62
     7
  2
MOSTRINA
 70
    64
 10
0.0
 20
0.0
 30
0.0
  3
MOSTRINA
  0
LINE
  5
   344
  8
0
  6
CONTINUOUS
 62
     3
 10
173.338256835938
 20
30.7306251525879
 30
0.0
 11
173.338256835938
 21
189.230621337891
 31
0.0
  0
LINE
  5
   345
  8
0
  6
CONTINUOUS
 62
     3
 10
57.5882568359375
 20
29.4806251525879
 30
0.0
 11
172.088256835938
 21
29.4806251525879
 31
0.0
  0
LINE
  5
   346
  8
0
  6
CONTINUOUS
 62
     3
 10
56.3382568359375
 20
30.7306251525879
 30
0.0
 11
56.3382568359375
 21
189.230621337891
 31
0.0
  0
LINE
  5
   347
  8
0
  6
CONTINUOUS
 62
     3
 10
57.5882568359375
 20
190.480621337891
 30
0.0
 11
172.088256835938
 21
190.480621337891
 31
0.0
  0
LINE
  5
   348
  8
0
  6
CONTINUOUS
 62
     3
 10
167.838256835938
 20
56.9806251525879
 30
0.0
 11
167.838256835938
 21
162.980625152588
 31
0.0
  0
LINE
  5
   349
  8
0
  6
CONTINUOUS
 62
     3
 10
61.8382568359375
 20
56.9806251525879
 30
0.0
 11
167.838256835938
 21
56.9806251525879
 31
0.0
  0
LINE
  5
   34A
  8
0
  6
CONTINUOUS
 62
     3
 10
61.8382568359375
 20
56.9806251525879
 30
0.0
 11
61.8382568359375
 21
162.980625152588
 31
0.0
  0
LINE
  5
   34B
  8
0
  6
CONTINUOUS
 62
     3
 10
61.8382568359375
 20
162.980621337891
 30
0.0
 11
167.838256835938
 21
162.980621337891
 31
0.0
  0
LINE
  5
   34C
  8
0
  6
CONTINUOUS
 62
     3
 10
168.838256835938
 20
48.4806251525879
 30
0.0
 11
168.838256835938
 21
49.4806251525879
 31
0.0
  0
LINE
  5
   34D
  8
0
  6
CONTINUOUS
 62
     3
 10
61.8382568359375
 20
50.4806251525879
 30
0.0
 11
167.838256835938
 21
50.4806251525879
 31
0.0
  0
LINE
  5
   34E
  8
0
  6
CONTINUOUS
 62
     3
 10
60.8382568359375
 20
48.4806251525879
 30
0.0
 11
60.8382568359375
 21
49.4806251525879
 31
0.0
  0
LINE
  5
   34F
  8
0
  6
CONTINUOUS
 62
     3
 10
61.8382568359375
 20
49.4806251525879
 30
0.0
 11
167.838256835938
 21
49.4806251525879
 31
0.0
  0
LINE
  5
   350
  8
0
  6
CONTINUOUS
 62
     3
 10
60.8382568359375
 20
29.4806251525879
 30
0.0
 11
60.8382568359375
 21
48.4806251525879
 31
0.0
  0
LINE
  5
   351
  8
0
  6
CONTINUOUS
 62
     3
 10
60.8382568359375
 20
49.4806213378906
 30
0.0
 11
60.8382568359375
 21
190.480621337891
 31
0.0
  0
LINE
  5
   352
  8
0
  6
CONTINUOUS
 62
     3
 10
61.8382568359375
 20
29.4806251525879
 30
0.0
 11
61.8382568359375
 21
49.4806251525879
 31
0.0
  0
LINE
  5
   353
  8
0
  6
CONTINUOUS
 62
     3
 10
61.8382568359375
 20
162.980621337891
 30
0.0
 11
61.8382568359375
 21
169.480621337891
 31
0.0
  0
LINE
  5
   354
  8
0
  6
CONTINUOUS
 62
     3
 10
61.8382568359375
 20
50.4806251525879
 30
0.0
 11
61.8382568359375
 21
56.9806251525879
 31
0.0
  0
LINE
  5
   355
  8
0
  6
CONTINUOUS
 62
     3
 10
168.838256835938
 20
29.4806251525879
 30
0.0
 11
168.838256835938
 21
48.4806251525879
 31
0.0
  0
LINE
  5
   356
  8
0
  6
CONTINUOUS
 62
     3
 10
168.838256835938
 20
49.4806251525879
 30
0.0
 11
168.838256835938
 21
190.480621337891
 31
0.0
  0
LINE
  5
   357
  8
0
  6
CONTINUOUS
 62
     3
 10
167.838256835938
 20
50.4806251525879
 30
0.0
 11
167.838256835938
 21
56.9806251525879
 31
0.0
  0
LINE
  5
   358
  8
0
  6
CONTINUOUS
 62
     3
 10
167.838256835938
 20
162.980621337891
 30
0.0
 11
167.838256835938
 21
169.480621337891
 31
0.0
  0
LINE
  5
   359
  8
0
  6
CONTINUOUS
 62
     3
 10
167.838256835938
 20
29.4806251525879
 30
0.0
 11
167.838256835938
 21
49.4806251525879
 31
0.0
  0
LINE
  5
   35A
  8
0
  6
CONTINUOUS
 62
     3
 10
60.8382568359375
 20
170.480621337891
 30
0.0
 11
168.838256835938
 21
170.480621337891
 31
0.0
  0
LINE
  5
   35B
  8
0
  6
CONTINUOUS
 62
     3
 10
61.8382568359375
 20
169.480621337891
 30
0.0
 11
167.838256835938
 21
169.480621337891
 31
0.0
  0
ARC
  5
   35C
  8
0
  6
CONTINUOUS
 62
     3
 10
57.5882568359375
 20
30.7306251525879
 30
0.0
 40
1.25
 50
180.0
 51
270.0
  0
ARC
  5
   35D
  8
0
  6
CONTINUOUS
 62
     3
 10
172.088256835938
 20
30.7306251525879
 30
0.0
 40
1.25
 50
270.0
 51
360.0
  0
ARC
  5
   35E
  8
0
  6
CONTINUOUS
 62
     3
 10
172.088256835938
 20
189.230621337891
 30
0.0
 40
1.25
 50
0.0
 51
90.0
  0
ARC
  5
   35F
  8
0
  6
CONTINUOUS
 62
     3
 10
57.5882568359375
 20
189.230621337891
 30
0.0
 40
1.25
 50
90.0
 51
180.0
  0
LINE
  5
   360
  8
0
  6
DOT
 62
     3
 10
60.3382577409677
 20
179.7306252571
 30
0.0
 11
60.8382568359375
 21
179.7306252571
 31
0.0
  0
LINE
  5
   361
  8
0
  6
DOT
 62
     3
 10
60.3382577409676
 20
181.2306252571
 30
0.0
 11
60.8382568359375
 21
181.2306252571
 31
0.0
  0
LINE
  5
   362
  8
0
  6
CONTINUOUS
 62
     3
 10
168.338257745313
 20
179.730625257273
 30
0.0
 11
168.838256835938
 21
179.730625257273
 31
0.0
  0
LINE
  5
   363
  8
0
  6
CONTINUOUS
 62
     3
 10
168.338257745314
 20
181.230625257273
 30
0.0
 11
168.838256835938
 21
181.230625257273
 31
0.0
  0
ARC
  5
   364
  8
0
  6
DOT
 62
     3
 10
60.3382577401871
 20
180.480625257147
 30
0.0
 40
0.749999999345164
 50
90.0
 51
270.0
  0
ARC
  5
   365
  8
0
  6
CONTINUOUS
 62
     3
 10
61.338257740822
 20
180.480625256974
 30
0.0
 40
0.750000000009701
 50
270.0
 51
450.0
  0
LINE
  5
   366
  8
0
  6
CONTINUOUS
 62
     3
 10
60.8382568359375
 20
181.2306252571
 30
0.0
 11
61.3382577409688
 21
181.2306252571
 31
0.0
  0
LINE
  5
   367
  8
0
  6
CONTINUOUS
 62
     3
 10
60.8382568359375
 20
179.7306252571
 30
0.0
 11
61.3382577409689
 21
179.7306252571
 31
0.0
  0
ARC
  5
   368
  8
0
  6
CONTINUOUS
 62
     3
 10
168.338257745503
 20
180.480625256952
 30
0.0
 40
0.750000000048506
 50
90.0000000038822
 51
269.999999996024
  0
ARC
  5
   369
  8
0
  6
DOT
 62
     3
 10
169.338257745421
 20
180.480625256965
 30
0.0
 40
0.750000000029104
 50
270.000000002449
 51
449.999999997486
  0
LINE
  5
   36A
  8
0
  6
DOT
 62
     3
 10
168.838256835938
 20
181.230625257273
 30
0.0
 11
169.338257745315
 21
181.230625257273
 31
0.0
  0
LINE
  5
   36B
  8
0
  6
DOT
 62
     3
 10
168.838256835938
 20
179.730625257273
 30
0.0
 11
169.338257745315
 21
179.730625257273
 31
0.0
  0
POINT
  5
   36C
  8
0
  6
CONTINUOUS
 62
     3
 10
114.838256835938
 20
109.980621337891
 30
0.0
  0
ENDBLK
  5
   36D
  8
0
  6
CONTINUOUS
 62
     7
  0
BLOCK
  5
   36E
  8
0
  6
CONTINUOUS
 62
     7
  2
*UDIM37
 70
    65
 10
0.0
 20
0.0
 30
0.0
  3
*UDIM37
  0
TEXT
  5
   36F
  8
0
  6
CONTINUOUS
 62
     7
 10
-382.126779727172
 20
8.49715610294369
 30
0.0
 40
3.00000002980232
  1
7
 50
398.442908631415
 41
0.933333333333334
 72
     1
 11
-382.197830627188
 21
10.355906177147
 31
0.0
 73
     2
  0
TEXT
  5
   370
  8
0
  6
CONTINUOUS
 62
     7
 10
-384.593948124795
 20
6.53869237839924
 30
0.0
 40
3.00000002980232
  1
Ø
 50
398.442908631415
 41
0.933333333333334
 72
     1
 11
-384.664999024811
 21
8.39744245260258
 31
0.0
 73
     2
  0
LINE
  5
   371
  8
0
  6
CONTINUOUS
 62
     7
 10
-360.327767488282
 20
24.5246695550155
 30
0.0
 11
-383.97221360598
 21
5.75546431832485
 31
0.0
  0
LINE
  5
   372
  8
0
  6
CONTINUOUS
 62
     7
 10
-358.337669407522
 20
26.7695547701117
 30
0.0
 11
-360.327767488282
 21
24.5246695550155
 31
0.0
  0
LINE
  5
   373
  8
0
  6
CONTINUOUS
 62
     7
 10
-360.327767488282
 20
24.5246695550155
 30
0.0
 11
-357.68989114381
 21
25.9535181793555
 31
0.0
  0
LINE
  5
   374
  8
0
  6
CONTINUOUS
 62
     7
 10
-363.688514674509
 20
21.1917489408258
 30
0.0
 11
-361.69841659375
 21
23.436634155922
 31
0.0
  0
LINE
  5
   375
  8
0
  6
CONTINUOUS
 62
     7
 10
-361.69841659375
 20
23.436634155922
 30
0.0
 11
-364.336292938221
 21
22.007785531582
 31
0.0
  0
ENDBLK
  5
   376
  8
0
  6
CONTINUOUS
 62
     7
  0
BLOCK
  5
   377
  8
0
  6
CONTINUOUS
 62
     7
  2
*UDIM38
 70
    65
 10
0.0
 20
0.0
 30
0.0
  3
*UDIM38
  0
TEXT
  5
   378
  8
0
  6
CONTINUOUS
 62
     7
 10
-353.788092075885
 20
72.2668304511257
 30
0.0
 40
3.00000002980232
  1
80
 50
359.999999844103
 41
0.933333333333333
 72
     1
 11
-351.288092046976
 21
73.7668304592371
 31
0.0
 73
     2
  0
LINE
  5
   379
  8
0
  6
CONTINUOUS
 62
     7
 10
-361.013092041016
 20
62.1056518554688
 30
0.0
 11
-361.013092041016
 21
73.2668304443359
 31
0.0
  0
LINE
  5
   37A
  8
0
  6
CONTINUOUS
 62
     7
 10
-341.013092041016
 20
62.1056518554688
 30
0.0
 11
-341.013092041016
 21
73.2668304443359
 31
0.0
  0
LINE
  5
   37B
  8
0
  6
CONTINUOUS
 62
     7
 10
-361.013092041016
 20
71.2668304443359
 30
0.0
 11
-341.013092041016
 21
71.2668304443359
 31
0.0
  0
LINE
  5
   37C
  8
0
  6
CONTINUOUS
 62
     7
 10
-358.058668763809
 20
71.7877748742876
 30
0.0
 11
-361.013092041016
 21
71.2668304443359
 31
0.0
  0
LINE
  5
   37D
  8
0
  6
CONTINUOUS
 62
     7
 10
-361.013092041016
 20
71.2668304443359
 30
0.0
 11
-358.058668763809
 21
70.7458860143843
 31
0.0
  0
LINE
  5
   37E
  8
0
  6
CONTINUOUS
 62
     7
 10
-343.967515318223
 20
70.7458860143843
 30
0.0
 11
-341.013092041016
 21
71.2668304443359
 31
0.0
  0
LINE
  5
   37F
  8
0
  6
CONTINUOUS
 62
     7
 10
-341.013092041016
 20
71.2668304443359
 30
0.0
 11
-343.967515318223
 21
71.7877748742876
 31
0.0
  0
ENDBLK
  5
   380
  8
0
  6
CONTINUOUS
 62
     7
  0
BLOCK
  5
   381
  8
0
  6
CONTINUOUS
 62
     7
  2
*UDIM39
 70
    65
 10
0.0
 20
0.0
 30
0.0
  3
*UDIM39
  0
TEXT
  5
   382
  8
0
  6
CONTINUOUS
 62
     7
 10
-355.188092089793
 20
78.7064895735802
 30
0.0
 40
3.00000002980232
  1
112
 50
359.999999844103
 41
0.933333333333333
 72
     1
 11
-351.288092046976
 21
80.2064895778894
 31
0.0
 73
     2
  0
LINE
  5
   383
  8
0
  6
CONTINUOUS
 62
     7
 10
-365.013092041016
 20
56.7306518554688
 30
0.0
 11
-365.013092041016
 21
79.7064895629883
 31
0.0
  0
LINE
  5
   384
  8
0
  6
CONTINUOUS
 62
     7
 10
-337.013092041016
 20
56.7306518554688
 30
0.0
 11
-337.013092041016
 21
79.7064895629883
 31
0.0
  0
LINE
  5
   385
  8
0
  6
CONTINUOUS
 62
     7
 10
-365.013092041016
 20
77.7064895629883
 30
0.0
 11
-337.013092041016
 21
77.7064895629883
 31
0.0
  0
LINE
  5
   386
  8
0
  6
CONTINUOUS
 62
     7
 10
-362.058668763809
 20
78.22743399294
 30
0.0
 11
-365.013092041016
 21
77.7064895629883
 31
0.0
  0
LINE
  5
   387
  8
0
  6
CONTINUOUS
 62
     7
 10
-365.013092041016
 20
77.7064895629883
 30
0.0
 11
-362.058668763809
 21
77.1855451330366
 31
0.0
  0
LINE
  5
   388
  8
0
  6
CONTINUOUS
 62
     7
 10
-339.967515318223
 20
77.1855451330366
 30
0.0
 11
-337.013092041016
 21
77.7064895629883
 31
0.0
  0
LINE
  5
   389
  8
0
  6
CONTINUOUS
 62
     7
 10
-337.013092041016
 20
77.7064895629883
 30
0.0
 11
-339.967515318223
 21
78.22743399294
 31
0.0
  0
ENDBLK
  5
   38A
  8
0
  6
CONTINUOUS
 62
     7
  0
BLOCK
  5
   38B
  8
0
  6
CONTINUOUS
 62
     7
  2
*UDIM40
 70
    65
 10
0.0
 20
0.0
 30
0.0
  3
*UDIM40
  0
TEXT
  5
   38C
  8
0
  6
CONTINUOUS
 62
     7
 10
-377.420467387296
 20
37.5556518066933
 30
0.0
 40
3.00000002980232
  1
112
 50
449.999999844103
 41
0.933333333333333
 72
     1
 11
-378.92046739161
 21
41.4556518495083
 31
0.0
 73
     2
  0
LINE
  5
   38D
  8
0
  6
CONTINUOUS
 62
     7
 10
-366.013092041016
 20
55.7306518554688
 30
0.0
 11
-378.420467376709
 21
55.7306518554688
 31
0.0
  0
LINE
  5
   38E
  8
0
  6
CONTINUOUS
 62
     7
 10
-366.013092041016
 20
27.7306518554688
 30
0.0
 11
-378.420467376709
 21
27.7306518554688
 31
0.0
  0
LINE
  5
   38F
  8
0
  6
CONTINUOUS
 62
     7
 10
-376.420467376709
 20
55.7306518554688
 30
0.0
 11
-376.420467376709
 21
27.7306518554688
 31
0.0
  0
LINE
  5
   390
  8
0
  6
CONTINUOUS
 62
     7
 10
-375.899522946757
 20
52.7762285782618
 30
0.0
 11
-376.420467376709
 21
55.7306518554688
 31
0.0
  0
LINE
  5
   391
  8
0
  6
CONTINUOUS
 62
     7
 10
-376.420467376709
 20
55.7306518554688
 30
0.0
 11
-376.941411806661
 21
52.7762285782618
 31
0.0
  0
LINE
  5
   392
  8
0
  6
CONTINUOUS
 62
     7
 10
-376.941411806661
 20
30.6850751326757
 30
0.0
 11
-376.420467376709
 21
27.7306518554688
 31
0.0
  0
LINE
  5
   393
  8
0
  6
CONTINUOUS
 62
     7
 10
-376.420467376709
 20
27.7306518554688
 30
0.0
 11
-375.899522946757
 21
30.6850751326757
 31
0.0
  0
ENDBLK
  5
   394
  8
0
  6
CONTINUOUS
 62
     7
  0
BLOCK
  5
   395
  8
0
  6
CONTINUOUS
 62
     7
  2
*UDIM41
 70
    65
 10
0.0
 20
0.0
 30
0.0
  3
*UDIM41
  0
TEXT
  5
   396
  8
0
  6
CONTINUOUS
 62
     7
 10
-387.148723612882
 20
37.5556518066933
 30
0.0
 40
3.00000002980232
  1
142
 50
449.999999844103
 41
0.933333333333333
 72
     1
 11
-388.648723617196
 21
41.4556518495083
 31
0.0
 73
     2
  0
LINE
  5
   397
  8
0
  6
CONTINUOUS
 62
     7
 10
-363.638092041016
 20
59.4806518554688
 30
0.0
 11
-388.148723602295
 21
59.4806518554688
 31
0.0
  0
LINE
  5
   398
  8
0
  6
CONTINUOUS
 62
     7
 10
-363.638092041016
 20
23.9806518554688
 30
0.0
 11
-388.148723602295
 21
23.9806518554688
 31
0.0
  0
LINE
  5
   399
  8
0
  6
CONTINUOUS
 62
     7
 10
-386.148723602295
 20
59.4806518554688
 30
0.0
 11
-386.148723602295
 21
23.9806518554688
 31
0.0
  0
LINE
  5
   39A
  8
0
  6
CONTINUOUS
 62
     7
 10
-385.627779172343
 20
56.5262285782618
 30
0.0
 11
-386.148723602295
 21
59.4806518554688
 31
0.0
  0
LINE
  5
   39B
  8
0
  6
CONTINUOUS
 62
     7
 10
-386.148723602295
 20
59.4806518554688
 30
0.0
 11
-386.669668032247
 21
56.5262285782618
 31
0.0
  0
LINE
  5
   39C
  8
0
  6
CONTINUOUS
 62
     7
 10
-386.669668032247
 20
26.9350751326757
 30
0.0
 11
-386.148723602295
 21
23.9806518554688
 31
0.0
  0
LINE
  5
   39D
  8
0
  6
CONTINUOUS
 62
     7
 10
-386.148723602295
 20
23.9806518554688
 30
0.0
 11
-385.627779172343
 21
26.9350751326757
 31
0.0
  0
ENDBLK
  5
   39E
  8
0
  6
CONTINUOUS
 62
     7
  0
ENDSEC
  0
SECTION
  2
ENTITIES
  0
LINE
  5
   39F
  8
0
  6
DASHDOT
 62
     7
 10
-602.124948015445
 20
-107.973550096154
 30
0.0
 11
-631.609136387013
 21
-107.973550096154
 31
0.0
  0
LINE
  5
   3A0
  8
0
  6
DASHDOT
 62
     7
 10
-599.561485754571
 20
-150.773550733924
 30
0.0
 11
-634.108512091365
 21
-150.773550733924
 31
0.0
  0
LINE
  5
   3A1
  8
0
  6
DASHDOT
 62
     7
 10
-618.654907226563
 20
-102.546555107366
 30
0.0
 11
-618.654907226563
 21
-155.738397020498
 31
0.0
  0
LINE
  5
   3A2
  8
0
  6
CONTINUOUS
 62
     7
 10
-631.404907416552
 20
-102.995161003019
 30
0.0
 11
-631.404907416552
 21
-155.353877681367
 31
0.0
  0
LINE
  5
   3A3
  8
0
  6
CONTINUOUS
 62
     7
 10
-605.904907036573
 20
-102.995161003019
 30
0.0
 11
-605.904907036573
 21
-156.635608811804
 31
0.0
  0
LINE
  5
   3A4
  8
0
  6
CONTINUOUS
 62
     7
 10
-602.124948015445
 20
-103.97355003655
 30
0.0
 11
-634.108512091365
 21
-103.97355003655
 31
0.0
  0
LINE
  5
   3A5
  8
0
  6
CONTINUOUS
 62
     7
 10
-599.561485754571
 20
-154.773550793529
 30
0.0
 11
-636.351541569629
 21
-154.773550793529
 31
0.0
  0
CIRCLE
  5
   3A6
  8
0
  6
CONTINUOUS
 62
     7
 10
-623.029907291755
 20
-107.973550096154
 30
0.0
 40
0.550000008195639
  0
CIRCLE
  5
   3A7
  8
0
  6
CONTINUOUS
 62
     7
 10
-614.27990716137
 20
-107.973550096154
 30
0.0
 40
0.550000008195639
  0
LINE
  5
   3A8
  8
0
  6
DASHDOT
 62
     7
 10
-623.029907291755
 20
-102.546555107366
 30
0.0
 11
-623.029907291755
 21
-155.738397020498
 31
0.0
  0
LINE
  5
   3A9
  8
0
  6
DASHDOT
 62
     7
 10
-614.27990716137
 20
-102.546555107366
 30
0.0
 11
-614.27990716137
 21
-153.647243915702
 31
0.0
  0
CIRCLE
  5
   3AA
  8
0
  6
CONTINUOUS
 62
     7
 10
-623.029907291755
 20
-150.773550733924
 30
0.0
 40
0.550000008195639
  0
CIRCLE
  5
   3AB
  8
0
  6
CONTINUOUS
 62
     7
 10
-614.27990716137
 20
-150.773550733924
 30
0.0
 40
0.550000008195639
  0
LINE
  5
   3AC
  8
0
  6
DASHDOT
 62
     7
 10
-596.421545585615
 20
-129.023550409824
 30
0.0
 11
-636.331147819825
 21
-129.023550409824
 31
0.0
  0
INSERT
  5
   3AD
  8
0
  6
CONTINUOUS
 62
     5
  2
*UDIM0
 10
0.0
 20
0.0
 30
0.0
  0
INSERT
  5
   3AE
  8
0
  6
CONTINUOUS
 62
     7
  2
*UDIM1
 10
0.0
 20
0.0
 30
0.0
  0
INSERT
  5
   3AF
  8
0
  6
CONTINUOUS
 62
     7
  2
*UDIM2
 10
0.0
 20
0.0
 30
0.0
  0
INSERT
  5
   3B0
  8
0
  6
CONTINUOUS
 62
     7
  2
*UDIM3
 10
0.0
 20
0.0
 30
0.0
  0
TEXT
  5
   3B1
  8
0
  6
CONTINUOUS
 62
     7
 10
-651.627911871003
 20
-130.826655312174
 30
0.0
 40
2.99999994933605
  1
X
 50
359.999999896069
 41
0.916666607525612
 72
     2
 11
-649.427912052797
 21
-130.826655316154
 31
0.0
  0
TEXT
  5
   3B2
  8
0
  6
CONTINUOUS
 62
     7
 10
-594.310763189762
 20
-131.134185338424
 30
0.0
 40
2.99999994933605
  1
X
 50
359.999999896069
 41
0.916666607525612
 72
     2
 11
-592.110763371556
 21
-131.134185342404
 31
0.0
  0
TEXT
  5
   3B3
  8
0
  6
CONTINUOUS
 62
     7
 10
-619.560863701821
 20
-162.985202429863
 30
0.0
 40
2.99999994933605
  1
Y
 50
359.999999896069
 41
0.916666607525612
 72
     2
 11
-617.360863883615
 21
-162.985202433842
 31
0.0
  0
LINE
  5
   3B4
  8
0
  6
CONTINUOUS
 62
     7
 10
-506.331802368164
 20
7.14950180053711
 30
0.0
 11
-506.331802368164
 21
7.39948654174805
 31
0.0
  0
LINE
  5
   3B5
  8
0
  6
CONTINUOUS
 62
     7
 10
-506.331802368164
 20
14.899486541748
 30
0.0
 11
-506.331802368164
 21
24.899471282959
 31
0.0
  0
LINE
  5
   3B6
  8
0
  6
CONTINUOUS
 62
     7
 10
-505.081787109375
 20
7.39948654174805
 30
0.0
 11
-505.081787109375
 21
14.899486541748
 31
0.0
  0
LINE
  5
   3B7
  8
0
  6
CONTINUOUS
 62
     7
 10
-505.081787109375
 20
7.39948654174805
 30
0.0
 11
-506.331802368164
 21
7.39948654174805
 31
0.0
  0
LINE
  5
   3B8
  8
0
  6
CONTINUOUS
 62
     7
 10
-505.081787109375
 20
14.899486541748
 30
0.0
 11
-506.331802368164
 21
14.899486541748
 31
0.0
  0
LINE
  5
   3B9
  8
0
  6
CONTINUOUS
 62
     7
 10
-505.081787109375
 20
24.899471282959
 30
0.0
 11
-505.081787109375
 21
32.399471282959
 31
0.0
  0
LINE
  5
   3BA
  8
0
  6
CONTINUOUS
 62
     7
 10
-505.081787109375
 20
24.899471282959
 30
0.0
 11
-506.331802368164
 21
24.899471282959
 31
0.0
  0
LINE
  5
   3BB
  8
0
  6
CONTINUOUS
 62
     7
 10
-505.081787109375
 20
32.399471282959
 30
0.0
 11
-506.331802368164
 21
32.399471282959
 31
0.0
  0
LINE
  5
   3BC
  8
0
  6
CONTINUOUS
 62
     7
 10
-472.081809997559
 20
7.14948654174805
 30
0.0
 11
-472.081809997559
 21
34.649471282959
 31
0.0
  0
LINE
  5
   3BD
  8
0
  6
CONTINUOUS
 62
     2
 10
-505.581798777928
 20
55.8994941711426
 30
0.0
 11
-506.331787109375
 21
55.8994941711426
 31
0.0
  0
LINE
  5
   3BE
  8
0
  6
CONTINUOUS
 62
     2
 10
-506.33179895744
 20
34.399471282959
 30
0.0
 11
-506.331791556173
 21
44.7067832946777
 31
0.0
  0
LINE
  5
   3BF
  8
0
  6
CONTINUOUS
 62
     7
 10
-470.331802368164
 20
43.399471282959
 30
0.0
 11
-472.081802368164
 21
43.399471282959
 31
0.0
  0
LINE
  5
   3C0
  8
0
  6
CONTINUOUS
 62
     7
 10
-472.08181435724
 20
34.6494669233522
 30
0.0
 11
-472.081806727846
 21
43.3994669233522
 31
0.0
  0
LINE
  5
   3C1
  8
0
  6
CONTINUOUS
 62
     7
 10
-504.331802368164
 20
35.649471282959
 30
0.0
 11
-506.331802368164
 21
35.649471282959
 31
0.0
  0
LINE
  5
   3C2
  8
0
  6
CONTINUOUS
 62
     7
 10
-504.331801096782
 20
35.6494649254294
 30
0.0
 11
-504.331798542414
 21
36.6538832217577
 31
0.0
  0
LINE
  5
   3C3
  8
0
  6
CONTINUOUS
 62
     7
 10
-472.081809997559
 20
2.39949417114258
 30
0.0
 11
-472.081809997559
 21
7.14950180053711
 31
0.0
  0
LINE
  5
   3C4
  8
0
  6
CONTINUOUS
 62
     7
 10
-506.331797268503
 20
-28.1004931097918
 30
0.0
 11
-506.331782009714
 21
-27.9533755546504
 31
0.0
  0
LINE
  5
   3C5
  8
0
  6
CONTINUOUS
 62
     7
 10
-506.331782989564
 20
-20.2476124496991
 30
0.0
 11
-506.331798248352
 21
7.14949753565246
 31
0.0
  0
LINE
  5
   3C6
  8
0
  6
CONTINUOUS
 62
     7
 10
-470.831802368164
 20
-21.3504981994629
 30
0.0
 11
-504.831819152833
 21
-21.3504981994629
 31
0.0
  0
LINE
  5
   3C7
  8
0
  6
CONTINUOUS
 62
     7
 10
-470.831802368164
 20
-26.8504981994629
 30
0.0
 11
-504.831819152833
 21
-26.8504981994629
 31
0.0
  0
LINE
  5
   3C8
  8
0
  6
CONTINUOUS
 62
     7
 10
-502.215772870039
 20
-21.3504931148515
 30
0.0
 11
-506.331785267044
 21
-20.2476074017831
 31
0.0
  0
LINE
  5
   3C9
  8
0
  6
CONTINUOUS
 62
     7
 10
-506.331782960053
 20
-27.9533798294993
 30
0.0
 11
-502.215770468275
 21
-26.8504976651031
 31
0.0
  0
LINE
  5
   3CA
  8
0
  6
CONTINUOUS
 62
     7
 10
-470.331809997559
 20
-19.8504981994629
 30
0.0
 11
-474.331809997559
 21
-19.8504981994629
 31
0.0
  0
LINE
  5
   3CB
  8
0
  6
CONTINUOUS
 62
     7
 10
-474.331809997559
 20
-19.8504981994629
 30
0.0
 11
-474.331809997559
 21
1.39949417114258
 31
0.0
  0
LINE
  5
   3CC
  8
0
  6
CONTINUOUS
 62
     7
 10
-505.831787109375
 20
-23.8504981994629
 30
0.0
 11
-505.831787109375
 21
-20.3815879821777
 31
0.0
  0
LINE
  5
   3CD
  8
0
  6
CONTINUOUS
 62
     7
 10
-505.831794151876
 20
-27.8194034460686
 30
0.0
 11
-505.831786522487
 21
-27.3504932287834
 31
0.0
  0
LINE
  5
   3CE
  8
0
  6
CONTINUOUS
 62
     2
 10
-506.331787109375
 20
-19.8504981994629
 30
0.0
 11
-507.331787109375
 21
-19.8504981994629
 31
0.0
  0
LINE
  5
   3CF
  8
0
  6
CONTINUOUS
 62
     2
 10
-506.331787109375
 20
-17.1004981994629
 30
0.0
 11
-507.331787109375
 21
-17.1004981994629
 31
0.0
  0
LINE
  5
   3D0
  8
0
  6
CONTINUOUS
 62
     7
 10
-470.331820802557
 20
-27.3504786863662
 30
0.0
 11
-470.831813156865
 21
-26.8504863320586
 31
0.0
  0
LINE
  5
   3D1
  8
0
  6
CONTINUOUS
 62
     7
 10
-470.831808686426
 20
-21.3504974984846
 30
0.0
 11
-470.331808703541
 21
-20.8504975155989
 31
0.0
  0
LINE
  5
   3D2
  8
0
  6
CONTINUOUS
 62
     7
 10
-472.081809997559
 20
1.39949417114258
 30
0.0
 11
-472.081809997559
 21
2.39949417114258
 31
0.0
  0
LINE
  5
   3D3
  8
0
  6
CONTINUOUS
 62
     2
 10
-505.331787109375
 20
-37.1004829406732
 30
0.0
 11
-507.331787109375
 21
-37.1004829406732
 31
0.0
  0
LINE
  5
   3D4
  8
0
  6
CONTINUOUS
 62
     7
 10
-506.331802368164
 20
-30.1004981994629
 30
0.0
 11
-506.331802368164
 21
-28.1004981994629
 31
0.0
  0
LINE
  5
   3D5
  8
0
  6
CONTINUOUS
 62
     7
 10
-470.331809997559
 20
-34.6004829406738
 30
0.0
 11
-475.331802368164
 21
-34.6004829406738
 31
0.0
  0
LINE
  5
   3D6
  8
0
  6
CONTINUOUS
 62
     7
 10
-475.331802368164
 20
-37.1004829406738
 30
0.0
 11
-475.331802368164
 21
-34.6004829406738
 31
0.0
  0
LINE
  5
   3D7
  8
0
  6
CONTINUOUS
 62
     7
 10
-506.331802368164
 20
-35.8504734802425
 30
0.0
 11
-506.331802368164
 21
-30.1004981994629
 31
0.0
  0
LINE
  5
   3D8
  8
0
  6
CONTINUOUS
 62
     2
 10
-506.331802368164
 20
34.399471282959
 30
0.0
 11
-506.581787109375
 21
34.399471282959
 31
0.0
  0
LINE
  5
   3D9
  8
0
  6
CONTINUOUS
 62
     7
 10
-506.33179473877
 20
-0.850498199462891
 30
0.0
 11
-506.581787109375
 21
-0.850498199462891
 31
0.0
  0
LINE
  5
   3DA
  8
0
  6
CONTINUOUS
 62
     7
 10
-506.331787109375
 20
-16.8504962921143
 30
0.0
 11
-506.581787109375
 21
-16.8504962921143
 31
0.0
  0
LINE
  5
   3DB
  8
0
  6
CONTINUOUS
 62
     7
 10
-505.831787109375
 20
-20.6004977226257
 30
0.0
 11
-506.581787109375
 21
-20.6004977226257
 31
0.0
  0
LINE
  5
   3DC
  8
0
  6
CONTINUOUS
 62
     7
 10
-506.331802368164
 20
-28.6004905700684
 30
0.0
 11
-506.581787109375
 21
-28.6004905700684
 31
0.0
  0
LINE
  5
   3DD
  8
0
  6
CONTINUOUS
 62
     2
 10
-506.581787109375
 20
-35.4004781652176
 30
0.0
 11
-506.581787109375
 21
-19.8505058288574
 31
0.0
  0
LINE
  5
   3DE
  8
0
  6
CONTINUOUS
 62
     2
 10
-506.581787109375
 20
-17.1005058288574
 30
0.0
 11
-506.581787109375
 21
34.3994636535645
 31
0.0
  0
LINE
  5
   3DF
  8
0
  6
CONTINUOUS
 62
     7
 10
-505.831787109375
 20
24.8994941711426
 30
0.0
 11
-505.831787109375
 21
32.399471282959
 31
0.0
  0
LINE
  5
   3E0
  8
0
  6
CONTINUOUS
 62
     7
 10
-505.831787109375
 20
7.39951705932617
 30
0.0
 11
-505.831787109375
 21
14.8995094299316
 31
0.0
  0
LINE
  5
   3E1
  8
0
  6
CONTINUOUS
 62
     7
 10
-505.831787109375
 20
-27.3504600524902
 30
0.0
 11
-505.831787109375
 21
-23.8504600524902
 31
0.0
  0
LINE
  5
   3E2
  8
0
  6
CONTINUOUS
 62
     2
 10
-506.381791013891
 20
-35.6004742607015
 30
0.0
 11
-506.581787959828
 21
-35.4004773147646
 31
0.0
  0
LINE
  5
   3E3
  8
0
  6
CONTINUOUS
 62
     2
 10
-506.331787109375
 20
42.399471282959
 30
0.0
 11
-507.331787109375
 21
42.399471282959
 31
0.0
  0
LINE
  5
   3E4
  8
0
  6
CONTINUOUS
 62
     2
 10
-506.331787109375
 20
47.899471282959
 30
0.0
 11
-507.331787109375
 21
47.899471282959
 31
0.0
  0
LINE
  5
   3E5
  8
0
  6
CONTINUOUS
 62
     2
 10
-506.331787109375
 20
46.5552940368652
 30
0.0
 11
-507.331787109375
 21
46.5552940368652
 31
0.0
  0
LINE
  5
   3E6
  8
0
  6
CONTINUOUS
 62
     2
 10
-506.331787109375
 20
44.7067832946777
 30
0.0
 11
-507.331787109375
 21
44.7067832946777
 31
0.0
  0
LINE
  5
   3E7
  8
0
  6
CONTINUOUS
 62
     7
 10
-471.831817626954
 20
8.64946919431684
 30
0.0
 11
-471.831817626954
 21
35.8994920825004
 31
0.0
  0
LINE
  5
   3E8
  8
0
  6
CONTINUOUS
 62
     7
 10
-457.831840515142
 20
43.8994858296837
 30
0.0
 11
-457.831840515142
 21
55.8994858296837
 31
0.0
  0
LINE
  5
   3E9
  8
0
  6
CONTINUOUS
 62
     7
 10
-457.831802368164
 20
43.8994883727851
 30
0.0
 11
-458.081802368164
 21
43.8994883727851
 31
0.0
  0
LINE
  5
   3EA
  8
0
  6
CONTINUOUS
 62
     7
 10
-458.081802368164
 20
43.6494883727851
 30
0.0
 11
-458.081802368164
 21
43.8994883727851
 31
0.0
  0
LINE
  5
   3EB
  8
0
  6
CONTINUOUS
 62
     7
 10
-470.331802368164
 20
43.1494807433905
 30
0.0
 11
-470.331802368164
 21
43.6494883727851
 31
0.0
  0
LINE
  5
   3EC
  8
0
  6
CONTINUOUS
 62
     7
 10
-470.331809184473
 20
54.4994786769638
 30
0.0
 11
-470.331801555078
 21
55.89949546106
 31
0.0
  0
LINE
  5
   3ED
  8
0
  6
CONTINUOUS
 62
     7
 10
-457.831798553472
 20
55.899503631566
 30
0.0
 11
-470.331798553472
 21
55.899503631566
 31
0.0
  0
LINE
  5
   3EE
  8
0
  6
CONTINUOUS
 62
     7
 10
-459.081802368164
 20
43.6494883727851
 30
0.0
 11
-459.231803894043
 21
43.6494883727851
 31
0.0
  0
LINE
  5
   3EF
  8
0
  6
CONTINUOUS
 62
     7
 10
-470.331802368164
 20
43.1494960021796
 30
0.0
 11
-471.831802368164
 21
43.1494960021796
 31
0.0
  0
LINE
  5
   3F0
  8
0
  6
CONTINUOUS
 62
     7
 10
-471.831802368164
 20
35.8994960021796
 30
0.0
 11
-471.831802368164
 21
43.1494960021796
 31
0.0
  0
LINE
  5
   3F1
  8
0
  6
CONTINUOUS
 62
     7
 10
-470.331825256348
 20
-34.1004963684259
 30
0.0
 11
-470.331825256348
 21
-30.4621907043634
 31
0.0
  0
LINE
  5
   3F2
  8
0
  6
CONTINUOUS
 62
     7
 10
-471.831809997559
 20
2.64948837278507
 30
0.0
 11
-471.831809997559
 21
8.64947311399601
 31
0.0
  0
LINE
  5
   3F3
  8
0
  6
CONTINUOUS
 62
     7
 10
-471.831809997559
 20
1.39947311399602
 30
0.0
 11
-472.331809997559
 21
1.39947311399602
 31
0.0
  0
LINE
  5
   3F4
  8
0
  6
CONTINUOUS
 62
     7
 10
-459.231819530851
 20
-35.6004811096262
 30
0.0
 11
-470.331825634366
 21
-35.6004811096262
 31
0.0
  0
LINE
  5
   3F5
  8
0
  6
CONTINUOUS
 62
     7
 10
-470.331825256348
 20
-35.6004963684259
 30
0.0
 11
-470.331825256348
 21
-34.1004963684259
 31
0.0
  0
LINE
  5
   3F6
  8
0
  6
CONTINUOUS
 62
     7
 10
-470.331817626953
 20
-30.4621907043634
 30
0.0
 11
-470.331817626953
 21
-26.9754917632841
 31
0.0
  0
LINE
  5
   3F7
  8
0
  6
CONTINUOUS
 62
     7
 10
-459.081825256348
 20
-37.1005039978204
 30
0.0
 11
-459.081825256348
 21
-35.6005039978204
 31
0.0
  0
LINE
  5
   3F8
  8
0
  6
CONTINUOUS
 62
     7
 10
-459.081825256348
 20
-35.6005039978204
 30
0.0
 11
-459.23181912303
 21
-35.6005039978204
 31
0.0
  0
LINE
  5
   3F9
  8
0
  6
CONTINUOUS
 62
     7
 10
-472.331809997559
 20
1.39947311399602
 30
0.0
 11
-474.331809997559
 21
1.39947311399602
 31
0.0
  0
LINE
  5
   3FA
  8
0
  6
CONTINUOUS
 62
     7
 10
-471.831809997559
 20
1.39947311399602
 30
0.0
 11
-471.831809997559
 21
2.64948837278507
 31
0.0
  0
LINE
  5
   3FB
  8
0
  6
CONTINUOUS
 62
     7
 10
-459.231821232009
 20
-26.9754811096282
 30
0.0
 11
-470.33181970613
 21
-26.9754811096282
 31
0.0
  0
LINE
  5
   3FC
  8
0
  6
CONTINUOUS
 62
     7
 10
-459.23182490924
 20
-21.2254811096296
 30
0.0
 11
-470.331823383361
 21
-21.2254811096296
 31
0.0
  0
LINE
  5
   3FD
  8
0
  6
CONTINUOUS
 62
     7
 10
-469.682304903292
 20
-33.7254878100963
 30
0.0
 11
-469.581825793058
 21
-33.3504878152734
 31
0.0
  0
LINE
  5
   3FE
  8
0
  6
CONTINUOUS
 62
     7
 10
-469.956820585407
 20
-34.0000123428259
 30
0.0
 11
-469.682307358907
 21
-33.7254914801068
 31
0.0
  0
LINE
  5
   3FF
  8
0
  6
CONTINUOUS
 62
     7
 10
-470.331833899046
 20
-34.1004846505859
 30
0.0
 11
-469.956826284773
 21
-34.0000055327045
 31
0.0
  0
LINE
  5
   400
  8
0
  6
CONTINUOUS
 62
     7
 10
-469.956822106889
 20
-28.2009744061789
 30
0.0
 11
-470.33182210414
 21
-28.1004876596516
 31
0.0
  0
LINE
  5
   401
  8
0
  6
CONTINUOUS
 62
     7
 10
-469.682309516548
 20
-28.4754918348879
 30
0.0
 11
-469.956822746868
 21
-28.2009786045679
 31
0.0
  0
LINE
  5
   402
  8
0
  6
CONTINUOUS
 62
     7
 10
-469.581830982979
 20
-28.8504911397217
 30
0.0
 11
-469.682317729507
 21
-28.4754911424714
 31
0.0
  0
LINE
  5
   403
  8
0
  6
CONTINUOUS
 62
     7
 10
-469.581829494883
 20
-33.3504933990606
 30
0.0
 11
-469.581821865489
 21
-28.8504933990606
 31
0.0
  0
LINE
  5
   404
  8
0
  6
CONTINUOUS
 62
     7
 10
-459.231819152833
 20
-35.6005039978204
 30
0.0
 11
-459.231819152833
 21
43.6494821163924
 31
0.0
  0
LINE
  5
   405
  8
0
  6
CONTINUOUS
 62
     7
 10
-459.231796264648
 20
54.4994944763007
 30
0.0
 11
-491.706798777928
 21
54.4994944763007
 31
0.0
  0
LINE
  5
   406
  8
0
  6
CONTINUOUS
 62
     7
 10
-459.231849670417
 20
43.649484927302
 30
0.0
 11
-459.231849670417
 21
54.4994910308177
 31
0.0
  0
LINE
  5
   407
  8
0
  6
CONTINUOUS
 62
     7
 10
-470.331802368164
 20
43.6494960021796
 30
0.0
 11
-470.331802368164
 21
54.4994944763007
 31
0.0
  0
LINE
  5
   408
  8
0
  6
CONTINUOUS
 62
     7
 10
-451.08179473877
 20
-32.9754734802423
 30
0.0
 11
-451.08179473877
 21
-23.4754981994629
 31
0.0
  0
LINE
  5
   409
  8
0
  6
CONTINUOUS
 62
     7
 10
-451.08179473877
 20
18.3995112609687
 30
0.0
 11
-451.08179473877
 21
18.5245112609687
 31
0.0
  0
LINE
  5
   40A
  8
0
  6
CONTINUOUS
 62
     7
 10
-453.83179473877
 20
19.5245112609687
 30
0.0
 11
-455.58179473877
 21
19.5245112609687
 31
0.0
  0
LINE
  5
   40B
  8
0
  6
CONTINUOUS
 62
     7
 10
-453.83179473877
 20
-32.9754734802423
 30
0.0
 11
-455.58179473877
 21
-32.9754734802423
 31
0.0
  0
LINE
  5
   40C
  8
0
  6
CONTINUOUS
 62
     7
 10
-459.08179473877
 20
-41.1004734802423
 30
0.0
 11
-459.08179473877
 21
-35.6005039978204
 31
0.0
  0
LINE
  5
   40D
  8
0
  6
CONTINUOUS
 62
     7
 10
-456.58179473877
 20
-41.1004734802423
 30
0.0
 11
-456.58179473877
 21
-32.9754734802423
 31
0.0
  0
LINE
  5
   40E
  8
0
  6
CONTINUOUS
 62
     7
 10
-456.58179473877
 20
19.5245112609687
 30
0.0
 11
-456.58179473877
 21
43.6495112609687
 31
0.0
  0
LINE
  5
   40F
  8
0
  6
CONTINUOUS
 62
     7
 10
-456.58179473877
 20
43.6495112609687
 30
0.0
 11
-459.08179473877
 21
43.6495112609687
 31
0.0
  0
LINE
  5
   410
  8
0
  6
CONTINUOUS
 62
     7
 10
-456.58179473877
 20
-41.1004734802423
 30
0.0
 11
-459.08179473877
 21
-41.1004734802423
 31
0.0
  0
LINE
  5
   411
  8
0
  6
CONTINUOUS
 62
     7
 10
-455.58179473877
 20
-32.9754734802423
 30
0.0
 11
-455.58179473877
 21
19.5245112609687
 31
0.0
  0
LINE
  5
   412
  8
0
  6
CONTINUOUS
 62
     7
 10
-455.58179473877
 20
-32.9754734802423
 30
0.0
 11
-456.58179473877
 21
-32.9754734802423
 31
0.0
  0
LINE
  5
   413
  8
0
  6
CONTINUOUS
 62
     7
 10
-455.58179473877
 20
19.5245112609687
 30
0.0
 11
-456.58179473877
 21
19.5245112609687
 31
0.0
  0
LINE
  5
   414
  8
0
  6
CONTINUOUS
 62
     7
 10
-459.231830732947
 20
-20.9505116756117
 30
0.0
 11
-459.081829214024
 21
-20.9373891186243
 31
0.0
  0
LINE
  5
   415
  8
0
  6
CONTINUOUS
 62
     7
 10
-459.081803427988
 20
-27.2636243911671
 30
0.0
 11
-459.231804951106
 21
-27.2504942047608
 31
0.0
  0
LINE
  5
   416
  8
0
  6
CONTINUOUS
 62
     7
 10
-470.331817626953
 20
-21.2254917632828
 30
0.0
 11
-470.331817626953
 21
-19.8505116272149
 31
0.0
  0
LINE
  5
   417
  8
0
  6
CONTINUOUS
 62
   218
 10
-459.231796741486
 20
-69.7004738617122
 30
0.0
 11
-483.032035885621
 21
-69.7004738617122
 31
0.0
  0
LINE
  5
   418
  8
0
  6
CONTINUOUS
 62
     2
 10
-505.331787109375
 20
-35.8504734802425
 30
0.0
 11
-507.331787109375
 21
-35.8504734802425
 31
0.0
  0
LINE
  5
   419
  8
0
  6
CONTINUOUS
 62
     7
 10
-459.231788635254
 20
-35.8504734802425
 30
0.0
 11
-467.83179473877
 21
-35.8504734802425
 31
0.0
  0
LINE
  5
   41A
  8
0
  6
CONTINUOUS
 62
   218
 10
-457.831787109375
 20
-71.1004734802425
 30
0.0
 11
-457.831787109375
 21
-59.100481109637
 31
0.0
  0
LINE
  5
   41B
  8
0
  6
CONTINUOUS
 62
     2
 10
-505.331787109375
 20
-37.1004734802425
 30
0.0
 11
-505.331787109375
 21
-35.8504734802425
 31
0.0
  0
LINE
  5
   41C
  8
0
  6
CONTINUOUS
 62
   218
 10
-459.23179273627
 20
-57.1004811100848
 30
0.0
 11
-459.081794738807
 21
-57.100479349483
 31
0.0
  0
LINE
  5
   41D
  8
0
  6
CONTINUOUS
 62
   218
 10
-457.831787109375
 20
-59.100481109637
 30
0.0
 11
-459.231788635254
 21
-59.100481109637
 31
0.0
  0
LINE
  5
   41E
  8
0
  6
CONTINUOUS
 62
   218
 10
-459.231788635254
 20
-69.7004719543636
 30
0.0
 11
-459.231788635254
 21
-57.1004734802425
 31
0.0
  0
LINE
  5
   41F
  8
0
  6
CONTINUOUS
 62
   218
 10
-459.231788635254
 20
-57.1004734802425
 30
0.0
 11
-459.231788635254
 21
-35.8504734802425
 31
0.0
  0
LINE
  5
   420
  8
0
  6
CONTINUOUS
 62
     7
 10
-459.08179473877
 20
-41.6004734802425
 30
0.0
 11
-459.231788635254
 21
-41.6004734802425
 31
0.0
  0
LINE
  5
   421
  8
0
  6
CONTINUOUS
 62
   218
 10
-507.331787109212
 20
-54.1004811091423
 30
0.0
 11
-506.331787586071
 21
-54.1004734797477
 31
0.0
  0
LINE
  5
   422
  8
0
  6
CONTINUOUS
 62
   218
 10
-506.331787586212
 20
-71.1004734802423
 30
0.0
 11
-506.331787586212
 21
-54.1004811096368
 31
0.0
  0
LINE
  5
   423
  8
0
  6
CONTINUOUS
 62
   218
 10
-506.331787109375
 20
-59.475481109637
 30
0.0
 11
-507.331787109375
 21
-59.475481109637
 31
0.0
  0
LINE
  5
   424
  8
0
  6
CONTINUOUS
 62
     7
 10
-470.331800459739
 20
-35.8504734779872
 30
0.0
 11
-470.331792830344
 21
-34.8504734779644
 31
0.0
  0
LINE
  5
   425
  8
0
  6
CONTINUOUS
 62
     7
 10
-470.331787109375
 20
-34.8504734802425
 30
0.0
 11
-475.331787109375
 21
-34.8504734802425
 31
0.0
  0
LINE
  5
   426
  8
0
  6
CONTINUOUS
 62
     7
 10
-467.83179473877
 20
-35.8504734802425
 30
0.0
 11
-470.33179473877
 21
-35.8504734802425
 31
0.0
  0
LINE
  5
   427
  8
0
  6
CONTINUOUS
 62
   218
 10
-506.331787109375
 20
-63.8342767524898
 30
0.0
 11
-507.331787109375
 21
-63.8342767524898
 31
0.0
  0
LINE
  5
   428
  8
0
  6
CONTINUOUS
 62
   218
 10
-506.331787109375
 20
-62.6077824402034
 30
0.0
 11
-507.331787109375
 21
-62.6077824402034
 31
0.0
  0
LINE
  5
   429
  8
0
  6
CONTINUOUS
 62
   218
 10
-506.331787109375
 20
-59.5393696594417
 30
0.0
 11
-507.331787109375
 21
-59.5393696594417
 31
0.0
  0
LINE
  5
   42A
  8
0
  6
CONTINUOUS
 62
     7
 10
-456.58179473877
 20
-41.3504734802423
 30
0.0
 11
-459.08179473877
 21
-41.3504734802423
 31
0.0
  0
LINE
  5
   42B
  8
0
  6
CONTINUOUS
 62
     7
 10
-456.58179473877
 20
-58.8504734802423
 30
0.0
 11
-459.08179473877
 21
-58.8504734802423
 31
0.0
  0
LINE
  5
   42C
  8
0
  6
CONTINUOUS
 62
     7
 10
-456.58179473877
 20
-58.8504734802423
 30
0.0
 11
-456.58179473877
 21
-41.3504734802423
 31
0.0
  0
LINE
  5
   42D
  8
0
  6
CONTINUOUS
 62
     7
 10
-457.58179473877
 20
-58.8504734802423
 30
0.0
 11
-457.58179473877
 21
-41.3504734802423
 31
0.0
  0
LINE
  5
   42E
  8
0
  6
CONTINUOUS
 62
     7
 10
-459.08179473877
 20
-58.8504734802423
 30
0.0
 11
-459.08179473877
 21
-41.3504734802423
 31
0.0
  0
ARC
  5
   42F
  8
0
  6
CONTINUOUS
 62
     7
 10
-440.744268353513
 20
-17.7474142127737
 30
0.0
 40
0.499999897877905
 50
348.623573369035
 51
436.688788706936
  0
ARC
  5
   430
  8
0
  6
CONTINUOUS
 62
     7
 10
-441.342640553431
 20
-20.7213231967726
 30
0.0
 40
0.50000037262337
 50
260.593992196011
 51
348.623573369035
  0
LINE
  5
   431
  8
0
  6
DASHDOT
 62
     7
 10
-433.343976027739
 20
-20.801744850671
 30
0.0
 11
-458.402319262193
 21
-15.7598246827727
 31
0.0
  0
LINE
  5
   432
  8
0
  6
CONTINUOUS
 62
     7
 10
-440.629148381166
 20
-17.260847743075
 30
0.0
 11
-451.08179473877
 21
-14.7877871551032
 31
0.0
  0
LINE
  5
   433
  8
0
  6
CONTINUOUS
 62
     7
 10
-440.852464108551
 20
-20.8199502480564
 30
0.0
 11
-440.254092072926
 21
-17.8460412310005
 31
0.0
  0
LINE
  5
   434
  8
0
  6
CONTINUOUS
 62
     7
 10
-441.424355292025
 20
-21.214600919644
 30
0.0
 11
-451.08179473877
 21
-19.6147817847427
 31
0.0
  0
LINE
  5
   435
  8
0
  6
CONTINUOUS
 62
     7
 10
-504.831819152833
 20
-26.8504981994629
 30
0.0
 11
-504.831819152833
 21
-21.3504981994629
 31
0.0
  0
LINE
  5
   436
  8
0
  6
CONTINUOUS
 62
     7
 10
-495.331799731602
 20
51.8994941711426
 30
0.0
 11
-497.331798777928
 21
51.8994941711426
 31
0.0
  0
LINE
  5
   437
  8
0
  6
DASHDOT
 62
     7
 10
-486.979828291452
 20
46.8995197513873
 30
0.0
 11
-501.04647030889
 21
46.8995197513873
 31
0.0
  0
LINE
  5
   438
  8
0
  6
CONTINUOUS
 62
     7
 10
-489.751868744255
 20
36.6538832217577
 30
0.0
 11
-488.236620255428
 21
39.9972056938791
 31
0.0
  0
LINE
  5
   439
  8
0
  6
CONTINUOUS
 62
     7
 10
-494.831799731602
 20
36.6538832217577
 30
0.0
 11
-494.831799731602
 21
41.8995197513873
 31
0.0
  0
LINE
  5
   43A
  8
0
  6
CONTINUOUS
 62
     7
 10
-497.331798777928
 20
36.6538832217577
 30
0.0
 11
-497.331798777928
 21
44.3995197513873
 31
0.0
  0
LINE
  5
   43B
  8
0
  6
CONTINUOUS
 62
     2
 10
-506.331790228831
 20
46.5552940368652
 30
0.0
 11
-506.331783519137
 21
55.899493632603
 31
0.0
  0
LINE
  5
   43C
  8
0
  6
CONTINUOUS
 62
     7
 10
-488.054663316243
 20
40.8995197513873
 30
0.0
 11
-494.831799731602
 21
40.8995197513873
 31
0.0
  0
LINE
  5
   43D
  8
0
  6
CONTINUOUS
 62
     7
 10
-488.961096064781
 20
38.8995197513873
 30
0.0
 11
-494.831799731602
 21
38.8995197513873
 31
0.0
  0
INSERT
  5
   43E
  8
0
  6
CONTINUOUS
 62
     7
  2
*HATCH0
 10
-507.331787109375
 20
-61.7190437316895
 30
0.0
 41
0.5
 42
0.5
 50
89.9999999480344
 43
0.5
  0
LINE
  5
   43F
  8
0
  6
CONTINUOUS
 62
     2
 10
-470.331817626953
 20
55.8994941711426
 30
0.0
 11
-491.706798777928
 21
55.8994941711426
 31
0.0
  0
LINE
  5
   440
  8
0
  6
DASHDOT
 62
     7
 10
-507.331787109375
 20
-80.69183167959
 30
0.0
 11
-507.331787109375
 21
64.4555993225994
 31
0.0
  0
LINE
  5
   441
  8
0
  6
DASHDOT
 62
     7
 10
-508.831787109375
 20
-80.69183167959
 30
0.0
 11
-508.831787109375
 21
64.4555993225994
 31
0.0
  0
LINE
  5
   442
  8
0
  6
CONTINUOUS
 62
     7
 10
-505.766926483808
 20
64.4555993225994
 30
0.0
 11
-510.835822355836
 21
64.4555993225994
 31
0.0
  0
LINE
  5
   443
  8
0
  6
CONTINUOUS
 62
     7
 10
-503.956606529513
 20
-80.69183167959
 30
0.0
 11
-513.249582294897
 21
-80.69183167959
 31
0.0
  0
ARC
  5
   444
  8
0
  6
CONTINUOUS
 62
     7
 10
-477.83179473877
 20
-11.8504734802423
 30
0.0
 40
38.0220413050115
 50
333.082565820193
 51
379.93594827737
  0
LINE
  5
   445
  8
0
  6
CONTINUOUS
 62
     7
 10
-439.809753433758
 20
-11.8504734802423
 30
0.0
 11
-439.809753433758
 21
9.82416603519
 31
0.0
  0
LINE
  5
   446
  8
0
  6
CONTINUOUS
 62
     7
 10
-489.751868744255
 20
36.6538832217577
 30
0.0
 11
-508.535871990489
 21
36.6538832217577
 31
0.0
  0
LINE
  5
   447
  8
0
  6
CONTINUOUS
 62
     7
 10
-497.331798777928
 20
38.1494941711426
 30
0.0
 11
-499.831798777928
 21
38.1494941711426
 31
0.0
  0
LINE
  5
   448
  8
0
  6
CONTINUOUS
 62
     7
 10
-501.327409727313
 20
36.6538832217576
 30
0.0
 11
-499.831798777928
 21
38.1494941711425
 31
0.0
  0
INSERT
  5
   449
  8
0
  6
CONTINUOUS
 62
     7
  2
*HATCH1
 10
-507.331787109375
 20
-61.7190437316895
 30
0.0
 41
0.5
 42
0.5
 50
89.9999999480344
 43
0.5
  0
LINE
  5
   44A
  8
0
  6
DASHDOT
 62
     7
 10
-486.979828291452
 20
-62.1005314091021
 30
0.0
 11
-501.04647030889
 21
-62.1005314091021
 31
0.0
  0
LINE
  5
   44B
  8
0
  6
CONTINUOUS
 62
     7
 10
-494.831798777928
 20
-67.1005058288574
 30
0.0
 11
-497.331798777928
 21
-67.1005058288574
 31
0.0
  0
LINE
  5
   44C
  8
0
  6
CONTINUOUS
 62
     7
 10
-497.331798777928
 20
-67.1005058288574
 30
0.0
 11
-497.331798777928
 21
-51.8548948794726
 31
0.0
  0
LINE
  5
   44D
  8
0
  6
CONTINUOUS
 62
     7
 10
-494.831799731602
 20
-59.5505314091021
 30
0.0
 11
-494.831799731602
 21
-51.8548948794726
 31
0.0
  0
LINE
  5
   44E
  8
0
  6
CONTINUOUS
 62
     7
 10
-486.900171419497
 20
-51.8548948794726
 30
0.0
 11
-511.886071526699
 21
-51.8548948794726
 31
0.0
  0
LINE
  5
   44F
  8
0
  6
CONTINUOUS
 62
     7
 10
-482.22014988239
 20
-72.6561634290314
 30
0.0
 11
-488.137863065674
 21
-51.1125932127597
 31
0.0
  0
LINE
  5
   450
  8
0
  6
CONTINUOUS
 62
   218
 10
-457.831787586212
 20
-71.1004734802423
 30
0.0
 11
-496.831798777928
 21
-71.1004734802423
 31
0.0
  0
INSERT
  5
   451
  8
0
  6
CONTINUOUS
 62
     7
  2
*HATCH2
 10
-507.331787109375
 20
-61.7190437316895
 30
0.0
 41
0.5
 42
0.5
 50
89.9999999480344
 43
0.5
  0
INSERT
  5
   452
  8
0
  6
CONTINUOUS
 62
     7
  2
*HATCH3
 10
-507.331787109375
 20
-61.7190437316895
 30
0.0
 41
0.5
 42
0.5
 50
89.9999999480344
 43
0.5
  0
LINE
  5
   453
  8
0
  6
CONTINUOUS
 62
     7
 10
-497.331798777928
 20
-54.6005314091021
 30
0.0
 11
-506.331787586212
 21
-54.6005314091021
 31
0.0
  0
LINE
  5
   454
  8
0
  6
CONTINUOUS
 62
     7
 10
-497.331798777928
 20
-52.6005314091021
 30
0.0
 11
-507.331787109375
 21
-52.6005314091021
 31
0.0
  0
LINE
  5
   455
  8
0
  6
CONTINUOUS
 62
     7
 10
-486.630404279246
 20
-56.1005314091021
 30
0.0
 11
-494.831799731602
 21
-56.1005314091021
 31
0.0
  0
INSERT
  5
   456
  8
0
  6
CONTINUOUS
 62
     7
  2
*HATCH4
 10
-507.331787109375
 20
-61.7190437316895
 30
0.0
 41
0.5
 42
0.5
 50
89.9999999480344
 43
0.5
  0
LINE
  5
   457
  8
0
  6
CONTINUOUS
 62
     7
 10
-487.179775912999
 20
-54.1005314091021
 30
0.0
 11
-494.831799731602
 21
-54.1005314091021
 31
0.0
  0
INSERT
  5
   458
  8
0
  6
CONTINUOUS
 62
     7
  2
*HATCH5
 10
-507.331787109375
 20
-61.7190437316895
 30
0.0
 41
0.5
 42
0.5
 50
89.9999999480344
 43
0.5
  0
LINE
  5
   459
  8
0
  6
CONTINUOUS
 62
     7
 10
-475.331802368164
 20
-37.1004829406732
 30
0.0
 11
-505.331787109375
 21
-37.1004829406732
 31
0.0
  0
LINE
  5
   45A
  8
0
  6
CONTINUOUS
 62
     7
 10
-451.08179473877
 20
0.274501800537109
 30
0.0
 11
-451.08179473877
 21
19.5245112609687
 31
0.0
  0
LINE
  5
   45B
  8
0
  6
CONTINUOUS
 62
     7
 10
-451.08179473877
 20
-6.22549819946289
 30
0.0
 11
-451.08179473877
 21
-0.225498199462891
 31
0.0
  0
LINE
  5
   45C
  8
0
  6
CONTINUOUS
 62
     7
 10
-451.08179473877
 20
-16.4754925583739
 30
0.0
 11
-451.08179473877
 21
-6.72549819946289
 31
0.0
  0
LINE
  5
   45D
  8
0
  6
CONTINUOUS
 62
     7
 10
-451.08179473877
 20
-22.9754981994629
 30
0.0
 11
-451.08179473877
 21
-16.9754925583739
 31
0.0
  0
LINE
  5
   45E
  8
0
  6
CONTINUOUS
 62
     1
 10
-453.83179473877
 20
-34.2287311553955
 30
0.0
 11
-453.83179473877
 21
-33.2287311553955
 31
0.0
  0
LINE
  5
   45F
  8
0
  6
CONTINUOUS
 62
     1
 10
-452.83179473877
 20
-34.2287311553955
 30
0.0
 11
-453.83179473877
 21
-34.2287311553955
 31
0.0
  0
LINE
  5
   460
  8
0
  6
CONTINUOUS
 62
     1
 10
-453.83179473877
 20
-33.2287311553955
 30
0.0
 11
-453.83179473877
 21
20.7712669372559
 31
0.0
  0
LINE
  5
   461
  8
0
  6
CONTINUOUS
 62
     1
 10
-452.83179473877
 20
20.7712669372559
 30
0.0
 11
-453.83179473877
 21
20.7712669372559
 31
0.0
  0
LINE
  5
   462
  8
0
  6
CONTINUOUS
 62
     1
 10
-456.081794649363
 20
27.5599403381348
 30
0.0
 11
-456.081794649363
 21
29.982593536377
 31
0.0
  0
LINE
  5
   463
  8
0
  6
CONTINUOUS
 62
     1
 10
-456.081794649363
 20
-43.440055847168
 30
0.0
 11
-456.081794649363
 21
-41.017406463623
 31
0.0
  0
LINE
  5
   464
  8
0
  6
CONTINUOUS
 62
     1
 10
-452.83179473877
 20
-47.4787311553955
 30
0.0
 11
-452.83179473877
 21
34.0212688446045
 31
0.0
  0
LINE
  5
   465
  8
0
  6
CONTINUOUS
 62
     1
 10
-451.08179473877
 20
-47.4787311553955
 30
0.0
 11
-452.83179473877
 21
-47.4787311553955
 31
0.0
  0
LINE
  5
   466
  8
0
  6
CONTINUOUS
 62
     1
 10
-451.08179473877
 20
-47.4787330627441
 30
0.0
 11
-451.08179473877
 21
34.0212669372559
 31
0.0
  0
LINE
  5
   467
  8
0
  6
CONTINUOUS
 62
     1
 10
-451.08179473877
 20
34.0212669372559
 30
0.0
 11
-451.58179473877
 21
34.0212669372559
 31
0.0
  0
LINE
  5
   468
  8
0
  6
CONTINUOUS
 62
     1
 10
-452.08179473877
 20
34.0212669372559
 30
0.0
 11
-452.83179473877
 21
34.0212669372559
 31
0.0
  0
LINE
  5
   469
  8
0
  6
CONTINUOUS
 62
     1
 10
-452.83179473877
 20
27.2712669372559
 30
0.0
 11
-455.581794656213
 21
27.2712669372559
 31
0.0
  0
LINE
  5
   46A
  8
0
  6
CONTINUOUS
 62
     1
 10
-452.83179473877
 20
30.2712669372559
 30
0.0
 11
-455.581794656213
 21
30.2712669372559
 31
0.0
  0
LINE
  5
   46B
  8
0
  6
CONTINUOUS
 62
     1
 10
-455.581794656213
 20
27.2712669372559
 30
0.0
 11
-455.581794656213
 21
27.3854484558106
 31
0.0
  0
LINE
  5
   46C
  8
0
  6
CONTINUOUS
 62
     1
 10
-455.581794258351
 20
27.2712657887251
 30
0.0
 11
-456.081794274815
 21
27.5599391932233
 31
0.0
  0
LINE
  5
   46D
  8
0
  6
CONTINUOUS
 62
     1
 10
-455.581794656213
 20
27.2712669372559
 30
0.0
 11
-455.581794656213
 21
27.7106056213379
 31
0.0
  0
LINE
  5
   46E
  8
0
  6
CONTINUOUS
 62
     1
 10
-455.581794656213
 20
27.7106056213379
 30
0.0
 11
-455.581794656213
 21
28.1972465515137
 31
0.0
  0
LINE
  5
   46F
  8
0
  6
CONTINUOUS
 62
     1
 10
-455.581794656213
 20
28.1972465515137
 30
0.0
 11
-455.581794656213
 21
28.7712669372559
 31
0.0
  0
LINE
  5
   470
  8
0
  6
CONTINUOUS
 62
     1
 10
-455.581794656213
 20
28.7712669372559
 30
0.0
 11
-455.581794656213
 21
29.3452949523926
 31
0.0
  0
LINE
  5
   471
  8
0
  6
CONTINUOUS
 62
     1
 10
-455.581794656213
 20
29.3452949523926
 30
0.0
 11
-455.581794656213
 21
29.8319282531738
 31
0.0
  0
LINE
  5
   472
  8
0
  6
CONTINUOUS
 62
     1
 10
-455.581794656213
 20
29.8319282531738
 30
0.0
 11
-455.581794656213
 21
30.2712669372559
 31
0.0
  0
LINE
  5
   473
  8
0
  6
CONTINUOUS
 62
     1
 10
-455.581794656213
 20
30.1570854187012
 30
0.0
 11
-455.581794656213
 21
30.2712669372559
 31
0.0
  0
LINE
  5
   474
  8
0
  6
CONTINUOUS
 62
     1
 10
-456.081795083952
 20
29.9825923455079
 30
0.0
 11
-455.581795067488
 21
30.2712657500062
 31
0.0
  0
LINE
  5
   475
  8
0
  6
CONTINUOUS
 62
     1
 10
-452.83179473877
 20
-40.7287311553955
 30
0.0
 11
-455.581793653657
 21
-40.7287311553955
 31
0.0
  0
LINE
  5
   476
  8
0
  6
CONTINUOUS
 62
     1
 10
-452.83179473877
 20
-43.7287311553955
 30
0.0
 11
-455.581795495438
 21
-43.7287311553955
 31
0.0
  0
LINE
  5
   477
  8
0
  6
CONTINUOUS
 62
     1
 10
-456.081794910437
 20
-41.0174071637489
 30
0.0
 11
-455.581794893973
 21
-40.7287318714924
 31
0.0
  0
LINE
  5
   478
  8
0
  6
CONTINUOUS
 62
     1
 10
-455.581794639555
 20
-43.7287316495398
 30
0.0
 11
-455.581794639555
 21
-40.7287311553955
 31
0.0
  0
LINE
  5
   479
  8
0
  6
CONTINUOUS
 62
     1
 10
-455.581794432393
 20
-43.728731769145
 30
0.0
 11
-456.081794448857
 21
-43.4400564768885
 31
0.0
  0
LINE
  5
   47A
  8
0
  6
CONTINUOUS
 62
     1
 10
-507.331761260954
 20
-43.7287311553955
 30
0.0
 11
-507.331761260954
 21
-43.6145496368408
 31
0.0
  0
LINE
  5
   47B
  8
0
  6
CONTINUOUS
 62
     1
 10
-451.58179473877
 20
34.0212669372559
 30
0.0
 11
-452.08179473877
 21
34.0212669372559
 31
0.0
  0
LINE
  5
   47C
  8
0
  6
CONTINUOUS
 62
     7
 10
-453.83179473877
 20
20.7712669372558
 30
0.0
 11
-453.83179473877
 21
27.2712669372559
 31
0.0
  0
LINE
  5
   47D
  8
0
  6
CONTINUOUS
 62
     7
 10
-452.83179473877
 20
34.0212669372559
 30
0.0
 11
-452.83179473877
 21
68.3367863755881
 31
0.0
  0
LINE
  5
   47E
  8
0
  6
CONTINUOUS
 62
     7
 10
-453.83179473877
 20
-84.2276651675671
 30
0.0
 11
-453.83179473877
 21
-43.7287311553955
 31
0.0
  0
LINE
  5
   47F
  8
0
  6
CONTINUOUS
 62
     7
 10
-452.83179473877
 20
-83.7917677316697
 30
0.0
 11
-452.83179473877
 21
-47.4787311553955
 31
0.0
  0
LINE
  5
   480
  8
0
  6
CONTINUOUS
 62
     7
 10
-456.406409298031
 20
-85.3499330523732
 30
0.0
 11
-449.779641275939
 21
-82.4613418632562
 31
0.0
  0
LINE
  5
   481
  8
0
  6
CONTINUOUS
 62
     7
 10
-455.976703045035
 20
66.3171204908307
 30
0.0
 11
-450.24691338006
 21
69.9968019270527
 31
0.0
  0
LINE
  5
   482
  8
0
  6
CONTINUOUS
 62
     7
 10
-452.83179473877
 20
21.2712669372559
 30
0.0
 11
-453.83179473877
 21
21.2712669372559
 31
0.0
  0
LINE
  5
   483
  8
0
  6
CONTINUOUS
 62
     7
 10
-452.83179473877
 20
-34.7287311553955
 30
0.0
 11
-453.83179473877
 21
-34.7287311553955
 31
0.0
  0
LINE
  5
   484
  8
0
  6
CONTINUOUS
 62
     7
 10
-452.83179473877
 20
-40.4787311553955
 30
0.0
 11
-453.83179473877
 21
-40.4787311553955
 31
0.0
  0
LINE
  5
   485
  8
0
  6
CONTINUOUS
 62
     7
 10
-452.83179473877
 20
-43.9787311553955
 30
0.0
 11
-453.83179473877
 21
-43.9787311553955
 31
0.0
  0
LINE
  5
   486
  8
0
  6
CONTINUOUS
 62
     7
 10
-452.83179473877
 20
30.5212669372559
 30
0.0
 11
-453.83179473877
 21
30.5212669372559
 31
0.0
  0
LINE
  5
   487
  8
0
  6
CONTINUOUS
 62
     7
 10
-452.83179473877
 20
27.0212669372559
 30
0.0
 11
-453.83179473877
 21
27.0212669372559
 31
0.0
  0
LINE
  5
   488
  8
0
  6
CONTINUOUS
 62
     7
 10
-453.83179473877
 20
30.2712669372559
 30
0.0
 11
-453.83179473877
 21
67.6945845407257
 31
0.0
  0
LINE
  5
   489
  8
0
  6
CONTINUOUS
 62
     7
 10
-453.83179473877
 20
-40.7287311553955
 30
0.0
 11
-453.83179473877
 21
-34.2287311553955
 31
0.0
  0
INSERT
  5
   48A
  8
0
  6
CONTINUOUS
 62
     7
  2
*HATCH6
 10
-507.331787109375
 20
-61.7190437316895
 30
0.0
 41
0.5
 42
0.5
 50
89.9999999480344
 43
0.5
  0
INSERT
  5
   48B
  8
0
  6
CONTINUOUS
 62
     7
  2
*HATCH7
 10
-507.331787109375
 20
-61.7190437316895
 30
0.0
 41
0.5
 42
0.5
 50
89.9999999480344
 43
0.5
  0
INSERT
  5
   48C
  8
0
  6
CONTINUOUS
 62
     7
  2
*HATCH8
 10
-507.331787109375
 20
-61.7190437316895
 30
0.0
 41
0.5
 42
0.5
 50
89.9999999480344
 43
0.5
  0
INSERT
  5
   48D
  8
0
  6
CONTINUOUS
 62
     7
  2
*HATCH9
 10
-507.331787109375
 20
-61.7190437316895
 30
0.0
 41
0.5
 42
0.5
 50
89.9999999480344
 43
0.5
  0
LINE
  5
   48E
  8
0
  6
DASHDOT
 62
     3
 10
-412.026707080237
 20
-6.72548873903133
 30
0.0
 11
-416.914770681618
 21
-6.72548873903133
 31
0.0
  0
LINE
  5
   48F
  8
0
  6
DASHDOT
 62
     3
 10
-424.534399236712
 20
-6.72548873903133
 30
0.0
 11
-541.272859363809
 21
-6.72548873903133
 31
0.0
  0
LINE
  5
   490
  8
0
  6
CONTINUOUS
 62
     7
 10
-495.331799731602
 20
49.3995197513873
 30
0.0
 11
-497.331798777928
 21
49.3995197513873
 31
0.0
  0
LINE
  5
   491
  8
0
  6
CONTINUOUS
 62
     7
 10
-495.331799731602
 20
44.3995197513873
 30
0.0
 11
-497.331798777928
 21
44.3995197513873
 31
0.0
  0
LINE
  5
   492
  8
0
  6
CONTINUOUS
 62
     7
 10
-497.331798777928
 20
49.3995197513873
 30
0.0
 11
-497.331798777928
 21
51.8994941711426
 31
0.0
  0
LINE
  5
   493
  8
0
  6
CONTINUOUS
 62
     7
 10
-468.149333922742
 20
39.997205693879
 30
0.0
 11
-488.236620255428
 21
39.997205693879
 31
0.0
  0
LINE
  5
   494
  8
0
  6
CONTINUOUS
 62
     7
 10
-468.149333922742
 20
39.997205693879
 30
0.0
 11
-462.46782175184
 21
59.2899202720124
 31
0.0
  0
LINE
  5
   495
  8
0
  6
CONTINUOUS
 62
     7
 10
-492.331799731602
 20
-59.5505314091021
 30
0.0
 11
-497.331798777928
 21
-59.5505314091021
 31
0.0
  0
LINE
  5
   496
  8
0
  6
CONTINUOUS
 62
     7
 10
-492.331799731602
 20
-64.6505314091021
 30
0.0
 11
-497.331798777928
 21
-64.6505314091021
 31
0.0
  0
INSERT
  5
   497
  8
255
  6
CONTINUOUS
 62
     7
  2
TASSELLO_POST_
 10
-497.331798777928
 20
46.8995197513873
 30
0.0
 41
0.5
 42
0.5
 50
3.50835464724173E-15
 43
0.5
  0
LINE
  5
   498
  8
0
  6
CONTINUOUS
 62
     7
 10
-457.206840515142
 20
57.149503631566
 30
0.0
 11
-482.581815291377
 21
57.149503631566
 31
0.0
  0
LINE
  5
   499
  8
0
  6
CONTINUOUS
 62
     7
 10
-456.581840515142
 20
44.1495112609687
 30
0.0
 11
-456.581840515142
 21
56.524503631566
 31
0.0
  0
ARC
  5
   49A
  8
0
  6
CONTINUOUS
 62
     7
 10
-457.206840515142
 20
56.524503631566
 30
0.0
 40
0.625
 50
359.999999948034
 51
449.999999948034
  0
LINE
  5
   49B
  8
0
  6
CONTINUOUS
 62
     7
 10
-456.58179473877
 20
44.1495112609687
 30
0.0
 11
-457.081840515142
 21
44.1495112609687
 31
0.0
  0
LINE
  5
   49C
  8
0
  6
CONTINUOUS
 62
     7
 10
-457.081840515142
 20
43.6495112609687
 30
0.0
 11
-457.081840515142
 21
44.1495112609687
 31
0.0
  0
LINE
  5
   49D
  8
0
  6
CONTINUOUS
 62
     2
 10
-491.831799731602
 20
41.3995197513873
 30
0.0
 11
-491.831799731602
 21
69.8995197513873
 31
0.0
  0
LINE
  5
   49E
  8
0
  6
CONTINUOUS
 62
     2
 10
-491.831799731602
 20
41.8995197513873
 30
0.0
 11
-495.331799731602
 21
41.8995197513873
 31
0.0
  0
LINE
  5
   49F
  8
0
  6
CONTINUOUS
 62
     2
 10
-491.831799731602
 20
69.8995197513873
 30
0.0
 11
-494.831799731602
 21
69.8995197513873
 31
0.0
  0
LINE
  5
   4A0
  8
0
  6
CONTINUOUS
 62
     2
 10
-494.831799731602
 20
41.8995197513873
 30
0.0
 11
-494.831799731602
 21
44.3995197513873
 31
0.0
  0
LINE
  5
   4A1
  8
0
  6
DASHDOT
 62
     7
 10
-490.850150439937
 20
63.6495197513873
 30
0.0
 11
-496.295487433404
 21
63.6495197513873
 31
0.0
  0
LINE
  5
   4A2
  8
0
  6
CONTINUOUS
 62
     2
 10
-491.831799731602
 20
66.3995197513873
 30
0.0
 11
-494.831799731602
 21
66.3995197513873
 31
0.0
  0
LINE
  5
   4A3
  8
0
  6
CONTINUOUS
 62
     2
 10
-491.831799731602
 20
60.8995197513873
 30
0.0
 11
-494.831799731602
 21
60.8995197513873
 31
0.0
  0
LINE
  5
   4A4
  8
0
  6
CONTINUOUS
 62
     2
 10
-491.831799731602
 20
49.4495197513873
 30
0.0
 11
-495.331799731602
 21
49.4495197513873
 31
0.0
  0
LINE
  5
   4A5
  8
0
  6
CONTINUOUS
 62
     2
 10
-491.831799731602
 20
44.3495197513873
 30
0.0
 11
-495.331799731602
 21
44.3495197513873
 31
0.0
  0
LINE
  5
   4A6
  8
0
  6
CONTINUOUS
 62
     1
 10
-456.581840515142
 20
58.6495197513873
 30
0.0
 11
-456.581840515142
 21
107.149519751387
 31
0.0
  0
LINE
  5
   4A7
  8
0
  6
CONTINUOUS
 62
     1
 10
-507.081798315992
 20
58.6495197513873
 30
0.0
 11
-507.081798315992
 21
107.149519751387
 31
0.0
  0
LINE
  5
   4A8
  8
0
  6
CONTINUOUS
 62
     1
 10
-507.081798315992
 20
57.6495197513873
 30
0.0
 11
-507.081798315992
 21
58.6495197513873
 31
0.0
  0
LINE
  5
   4A9
  8
0
  6
CONTINUOUS
 62
     1
 10
-456.581840515142
 20
58.6495197513873
 30
0.0
 11
-491.831799731602
 21
58.6495197513873
 31
0.0
  0
LINE
  5
   4AA
  8
0
  6
CONTINUOUS
 62
     1
 10
-506.581798311713
 20
57.1495197214373
 30
0.0
 11
-507.081798294599
 21
57.649519704323
 31
0.0
  0
LINE
  5
   4AB
  8
0
  6
CONTINUOUS
 62
     1
 10
-457.081840908771
 20
57.1495197513873
 30
0.0
 11
-491.831799731602
 21
57.1495197513873
 31
0.0
  0
LINE
  5
   4AC
  8
0
  6
CONTINUOUS
 62
     1
 10
-491.706798777928
 20
52.8995195129687
 30
0.0
 11
-491.706798777928
 21
57.1495195129687
 31
0.0
  0
LINE
  5
   4AD
  8
0
  6
CONTINUOUS
 62
     1
 10
-491.706799182466
 20
53.9995197150129
 30
0.0
 11
-491.831799731602
 21
54.1245202641487
 31
0.0
  0
LINE
  5
   4AE
  8
0
  6
CONTINUOUS
 62
     1
 10
-491.706798777928
 20
52.8995195129687
 30
0.0
 11
-491.831799731602
 21
52.8995195129687
 31
0.0
  0
LINE
  5
   4AF
  8
0
  6
CONTINUOUS
 62
     1
 10
-457.08184114837
 20
57.1495195117875
 30
0.0
 11
-456.581841165485
 21
57.6495194946732
 31
0.0
  0
LINE
  5
   4B0
  8
0
  6
CONTINUOUS
 62
     1
 10
-456.581840515142
 20
57.6495197513873
 30
0.0
 11
-456.581840515142
 21
58.6495197513873
 31
0.0
  0
LINE
  5
   4B1
  8
0
  6
CONTINUOUS
 62
     1
 10
-497.456799002339
 20
53.9995195053631
 30
0.0
 11
-496.956799019453
 21
54.4995194882488
 31
0.0
  0
LINE
  5
   4B2
  8
0
  6
CONTINUOUS
 62
     1
 10
-497.456798777928
 20
52.8995195874745
 30
0.0
 11
-497.456798777928
 21
57.1495197513873
 31
0.0
  0
LINE
  5
   4B3
  8
0
  6
CONTINUOUS
 62
     1
 10
-456.581840515142
 20
107.149519751387
 30
0.0
 11
-507.081798315992
 21
107.149519751387
 31
0.0
  0
LINE
  5
   4B4
  8
0
  6
CONTINUOUS
 62
     1
 10
-494.831799731602
 20
58.6495197513873
 30
0.0
 11
-507.081798315992
 21
58.6495197513873
 31
0.0
  0
LINE
  5
   4B5
  8
0
  6
CONTINUOUS
 62
     1
 10
-494.831799731602
 20
57.1495197513873
 30
0.0
 11
-506.581798301091
 21
57.1495197513873
 31
0.0
  0
LINE
  5
   4B6
  8
0
  6
CONTINUOUS
 62
     1
 10
-494.831799731602
 20
54.4995195368105
 30
0.0
 11
-496.956798777928
 21
54.4995195368105
 31
0.0
  0
LINE
  5
   4B7
  8
0
  6
CONTINUOUS
 62
     1
 10
-494.831799731602
 20
52.8995195129687
 30
0.0
 11
-497.456798777928
 21
52.8995195129687
 31
0.0
  0
INSERT
  5
   4B8
  8
0
  6
CONTINUOUS
 62
     2
  2
*HATCH10
 10
-507.331787109375
 20
-61.7190437316895
 30
0.0
 41
0.5
 42
0.5
 50
89.9999999480344
 43
0.5
  0
INSERT
  5
   4B9
  8
0
  6
CONTINUOUS
 62
     2
  2
*HATCH11
 10
-507.331787109375
 20
-61.7190437316895
 30
0.0
 41
0.5
 42
0.5
 50
89.9999999480344
 43
0.5
  0
INSERT
  5
   4BA
  8
0
  6
CONTINUOUS
 62
     2
  2
*HATCH12
 10
-507.331787109375
 20
-61.7190437316895
 30
0.0
 41
0.5
 42
0.5
 50
89.9999999480344
 43
0.5
  0
INSERT
  5
   4BB
  8
0
  6
CONTINUOUS
 62
     2
  2
*HATCH13
 10
-507.331787109375
 20
-61.7190437316895
 30
0.0
 41
0.5
 42
0.5
 50
89.9999999480344
 43
0.5
  0
INSERT
  5
   4BC
  8
0
  6
CONTINUOUS
 62
     2
  2
*HATCH14
 10
-507.331787109375
 20
-61.7190437316895
 30
0.0
 41
0.5
 42
0.5
 50
89.9999999480344
 43
0.5
  0
LINE
  5
   4BD
  8
0
  6
CONTINUOUS
 62
     2
 10
-491.231799731602
 20
41.3995197513873
 30
0.0
 11
-491.231799731602
 21
52.3995197513873
 31
0.0
  0
LINE
  5
   4BE
  8
0
  6
CONTINUOUS
 62
     2
 10
-491.231799731602
 20
52.3995197513873
 30
0.0
 11
-491.831799731602
 21
52.3995197513873
 31
0.0
  0
LINE
  5
   4BF
  8
0
  6
CONTINUOUS
 62
     2
 10
-491.231799731602
 20
41.3995197513873
 30
0.0
 11
-491.831799731602
 21
41.3995197513873
 31
0.0
  0
LINE
  5
   4C0
  8
0
  6
CONTINUOUS
 62
     2
 10
-494.831799731602
 20
49.3995197513873
 30
0.0
 11
-494.831799731602
 21
69.8995197513873
 31
0.0
  0
INSERT
  5
   4C1
  8
0
  6
CONTINUOUS
 62
     7
  2
TASSELLO_POST_
 10
-497.331798777928
 20
-62.1004802486127
 30
0.0
 41
0.5
 42
-0.5
 50
1.03931142803049E-7
 43
0.5
  0
LINE
  5
   4C2
  8
0
  6
CONTINUOUS
 62
     7
 10
-491.731799731602
 20
-56.6004802486127
 30
0.0
 11
-492.331799731602
 21
-56.6004802486127
 31
0.0
  0
LINE
  5
   4C3
  8
0
  6
CONTINUOUS
 62
     7
 10
-491.731799731602
 20
-67.6004802486127
 30
0.0
 11
-491.731799731602
 21
-56.6004802486127
 31
0.0
  0
LINE
  5
   4C4
  8
0
  6
CONTINUOUS
 62
     7
 10
-491.731799731602
 20
-67.6004802486127
 30
0.0
 11
-492.331799731602
 21
-67.6004802486127
 31
0.0
  0
LINE
  5
   4C5
  8
0
  6
CONTINUOUS
 62
     7
 10
-492.331799731602
 20
-67.6004802486127
 30
0.0
 11
-492.331799731602
 21
-56.6004802486127
 31
0.0
  0
LINE
  5
   4C6
  8
0
  6
CONTINUOUS
 62
     7
 10
-494.831798777928
 20
-67.1005058288574
 30
0.0
 11
-494.831798777928
 21
-64.6505314091021
 31
0.0
  0
LINE
  5
   4C7
  8
0
  6
CONTINUOUS
 62
     7
 10
-505.581798777928
 20
-71.1004734802423
 30
0.0
 11
-506.331787586212
 21
-71.1004734802423
 31
0.0
  0
CIRCLE
  5
   4C8
  8
0
  6
CONTINUOUS
 62
     7
 10
-494.017261988186
 20
67.8378580188951
 30
0.0
 40
0.15
  0
LINE
  5
   4C9
  8
0
  6
CONTINUOUS
 62
     1
 10
-491.031799731602
 20
42.1745197513873
 30
0.0
 11
-491.031799731602
 21
51.6245197513873
 31
0.0
  0
ARC
  5
   4CA
  8
0
  6
CONTINUOUS
 62
     1
 10
-489.536589134759
 20
43.3557697513873
 30
0.0
 40
1.80478940315675
 50
319.117607838934
 51
400.882392057134
  0
ARC
  5
   4CB
  8
0
  6
CONTINUOUS
 62
     1
 10
-489.536589134759
 20
50.4432697513873
 30
0.0
 40
1.80478940315675
 50
319.117607838934
 51
400.882392057134
  0
LINE
  5
   4CC
  8
0
  6
CONTINUOUS
 62
     1
 10
-488.137140649389
 20
44.5370197513873
 30
0.0
 11
-491.031799731602
 21
44.5370197513873
 31
0.0
  0
ARC
  5
   4CD
  8
0
  6
CONTINUOUS
 62
     1
 10
-494.819299731602
 20
46.8995197513873
 30
0.0
 40
7.0875
 50
340.528779313544
 51
379.471220582525
  0
LINE
  5
   4CE
  8
0
  6
CONTINUOUS
 62
     1
 10
-488.137140649389
 20
49.2620197513873
 30
0.0
 11
-491.031799731602
 21
49.2620197513873
 31
0.0
  0
LINE
  5
   4CF
  8
0
  6
CONTINUOUS
 62
     1
 10
-488.172069722201
 20
42.1745197513873
 30
0.0
 11
-491.031799731602
 21
42.1745197513873
 31
0.0
  0
LINE
  5
   4D0
  8
0
  6
CONTINUOUS
 62
     1
 10
-488.172069722201
 20
51.6245197513873
 30
0.0
 11
-491.031799731602
 21
51.6245197513873
 31
0.0
  0
LINE
  5
   4D1
  8
0
  6
CONTINUOUS
 62
     1
 10
-491.031799731602
 20
42.8495197513873
 30
0.0
 11
-491.231799731602
 21
42.8495197513873
 31
0.0
  0
LINE
  5
   4D2
  8
0
  6
CONTINUOUS
 62
     1
 10
-491.031799731602
 20
50.9495197513873
 30
0.0
 11
-491.231799731602
 21
50.9495197513873
 31
0.0
  0
LINE
  5
   4D3
  8
0
  6
CONTINUOUS
 62
     7
 10
-492.731799731602
 20
44.8595922513873
 30
0.0
 11
-497.331798777928
 21
44.8595922513873
 31
0.0
  0
LINE
  5
   4D4
  8
0
  6
CONTINUOUS
 62
     7
 10
-492.731799731602
 20
48.9394472513873
 30
0.0
 11
-497.331798777928
 21
48.9394472513873
 31
0.0
  0
LINE
  5
   4D5
  8
0
  6
CONTINUOUS
 62
     1
 10
-491.831799731602
 20
49.3995197513873
 30
0.0
 11
-496.831798777928
 21
49.3995197513873
 31
0.0
  0
LINE
  5
   4D6
  8
0
  6
CONTINUOUS
 62
     1
 10
-491.831799731602
 20
44.3995197513873
 30
0.0
 11
-496.831798777928
 21
44.3995197513873
 31
0.0
  0
LINE
  5
   4D7
  8
0
  6
CONTINUOUS
 62
     1
 10
-492.731799731602
 20
44.3995197513873
 30
0.0
 11
-492.731799731602
 21
49.3995197513873
 31
0.0
  0
LINE
  5
   4D8
  8
0
  6
CONTINUOUS
 62
     1
 10
-487.731799731602
 20
43.3557697513873
 30
0.0
 11
-487.731799731602
 21
50.4432697513873
 31
0.0
  0
LINE
  5
   4D9
  8
0
  6
DASHDOT
 62
     7
 10
-486.231799731602
 20
46.8995197513873
 30
0.0
 11
-500.731799731602
 21
46.8995197513873
 31
0.0
  0
LINE
  5
   4DA
  8
0
  6
CONTINUOUS
 62
     1
 10
-491.531799731602
 20
-66.8255314091021
 30
0.0
 11
-491.531799731602
 21
-57.3755314091021
 31
0.0
  0
ARC
  5
   4DB
  8
0
  6
CONTINUOUS
 62
     1
 10
-490.036589134759
 20
-65.6442814091021
 30
0.0
 40
1.80478940315675
 50
319.117607838934
 51
400.882392057134
  0
ARC
  5
   4DC
  8
0
  6
CONTINUOUS
 62
     1
 10
-490.036589134759
 20
-58.5567814091021
 30
0.0
 40
1.80478940315675
 50
319.117607838934
 51
400.882392057134
  0
LINE
  5
   4DD
  8
0
  6
CONTINUOUS
 62
     1
 10
-488.637140649389
 20
-64.4630314091021
 30
0.0
 11
-491.531799731602
 21
-64.4630314091021
 31
0.0
  0
ARC
  5
   4DE
  8
0
  6
CONTINUOUS
 62
     1
 10
-495.319299731602
 20
-62.1005314091021
 30
0.0
 40
7.0875
 50
340.528779313544
 51
379.471220582525
  0
LINE
  5
   4DF
  8
0
  6
CONTINUOUS
 62
     1
 10
-488.637140649389
 20
-59.7380314091021
 30
0.0
 11
-491.531799731602
 21
-59.7380314091021
 31
0.0
  0
LINE
  5
   4E0
  8
0
  6
CONTINUOUS
 62
     1
 10
-488.672069722201
 20
-66.8255314091021
 30
0.0
 11
-491.531799731602
 21
-66.8255314091021
 31
0.0
  0
LINE
  5
   4E1
  8
0
  6
CONTINUOUS
 62
     1
 10
-488.672069722201
 20
-57.3755314091021
 30
0.0
 11
-491.531799731602
 21
-57.3755314091021
 31
0.0
  0
LINE
  5
   4E2
  8
0
  6
CONTINUOUS
 62
     1
 10
-491.531799731602
 20
-66.1505314091021
 30
0.0
 11
-491.731799731602
 21
-66.1505314091021
 31
0.0
  0
LINE
  5
   4E3
  8
0
  6
CONTINUOUS
 62
     1
 10
-491.531799731602
 20
-58.0505314091021
 30
0.0
 11
-491.731799731602
 21
-58.0505314091021
 31
0.0
  0
LINE
  5
   4E4
  8
0
  6
CONTINUOUS
 62
     7
 10
-493.231799731602
 20
-64.1404589091021
 30
0.0
 11
-497.331798777928
 21
-64.1404589091021
 31
0.0
  0
LINE
  5
   4E5
  8
0
  6
CONTINUOUS
 62
     7
 10
-493.231799731602
 20
-60.0606039091021
 30
0.0
 11
-497.331798777928
 21
-60.0606039091021
 31
0.0
  0
LINE
  5
   4E6
  8
0
  6
CONTINUOUS
 62
     1
 10
-492.331799731602
 20
-59.6005314091021
 30
0.0
 11
-497.331798777928
 21
-59.6005314091021
 31
0.0
  0
LINE
  5
   4E7
  8
0
  6
CONTINUOUS
 62
     1
 10
-492.331799731602
 20
-64.6005314091021
 30
0.0
 11
-497.331798777928
 21
-64.6005314091021
 31
0.0
  0
LINE
  5
   4E8
  8
0
  6
CONTINUOUS
 62
     1
 10
-493.231799731602
 20
-64.6005314091021
 30
0.0
 11
-493.231799731602
 21
-59.6005314091021
 31
0.0
  0
LINE
  5
   4E9
  8
0
  6
CONTINUOUS
 62
     1
 10
-488.231799731602
 20
-65.6442814091021
 30
0.0
 11
-488.231799731602
 21
-58.5567814091021
 31
0.0
  0
LINE
  5
   4EA
  8
0
  6
CONTINUOUS
 62
     7
 10
-495.331799731602
 20
49.3995197513873
 30
0.0
 11
-495.331799731602
 21
51.8994941711426
 31
0.0
  0
LINE
  5
   4EB
  8
0
  6
CONTINUOUS
 62
     7
 10
-495.331799731602
 20
41.8995197513873
 30
0.0
 11
-495.331799731602
 21
44.3495197513873
 31
0.0
  0
LINE
  5
   4EC
  8
0
  6
CONTINUOUS
 62
     7
 10
-494.831799731602
 20
51.8994941711426
 30
0.0
 11
-495.331799731602
 21
51.8994941711426
 31
0.0
  0
LINE
  5
   4ED
  8
0
  6
DASHDOT
 62
     7
 10
-503.520137830188
 20
45.8995112609687
 30
0.0
 11
-516.180712651412
 21
45.8995112609687
 31
0.0
  0
LINE
  5
   4EE
  8
0
  6
CONTINUOUS
 62
     7
 10
-510.831787109375
 20
43.8995112609687
 30
0.0
 11
-510.831787109375
 21
47.8995112609687
 31
0.0
  0
LINE
  5
   4EF
  8
0
  6
CONTINUOUS
 62
     7
 10
-512.831787109375
 20
44.6495112609687
 30
0.0
 11
-512.831787109375
 21
47.1495112609687
 31
0.0
  0
LINE
  5
   4F0
  8
0
  6
CONTINUOUS
 62
     7
 10
-508.831787109375
 20
47.8995112609687
 30
0.0
 11
-510.831787109375
 21
47.8995112609687
 31
0.0
  0
LINE
  5
   4F1
  8
0
  6
CONTINUOUS
 62
     7
 10
-508.831787109375
 20
43.8995112609687
 30
0.0
 11
-510.831787109375
 21
43.8995112609687
 31
0.0
  0
LINE
  5
   4F2
  8
0
  6
CONTINUOUS
 62
     7
 10
-508.831787109375
 20
47.1495112609687
 30
0.0
 11
-512.831787109375
 21
47.1495112609687
 31
0.0
  0
LINE
  5
   4F3
  8
0
  6
CONTINUOUS
 62
     7
 10
-508.831787109375
 20
44.6495112609687
 30
0.0
 11
-512.831787109375
 21
44.6495112609687
 31
0.0
  0
LINE
  5
   4F4
  8
0
  6
CONTINUOUS
 62
     7
 10
-508.831787109375
 20
-59.1004887390313
 30
0.0
 11
-510.831787109375
 21
-59.1004887390313
 31
0.0
  0
LINE
  5
   4F5
  8
0
  6
CONTINUOUS
 62
     7
 10
-508.831787109375
 20
-59.8504887390313
 30
0.0
 11
-512.831787109375
 21
-59.8504887390313
 31
0.0
  0
LINE
  5
   4F6
  8
0
  6
DASHDOT
 62
     7
 10
-503.520137830188
 20
-61.1004887390313
 30
0.0
 11
-516.180712651412
 21
-61.1004887390313
 31
0.0
  0
LINE
  5
   4F7
  8
0
  6
CONTINUOUS
 62
     7
 10
-508.831787109375
 20
-62.3504887390313
 30
0.0
 11
-512.831787109375
 21
-62.3504887390313
 31
0.0
  0
LINE
  5
   4F8
  8
0
  6
CONTINUOUS
 62
     7
 10
-508.831787109375
 20
-63.1004887390313
 30
0.0
 11
-510.831787109375
 21
-63.1004887390313
 31
0.0
  0
LINE
  5
   4F9
  8
0
  6
CONTINUOUS
 62
     7
 10
-510.831787109375
 20
-63.1004887390313
 30
0.0
 11
-510.831787109375
 21
-59.1004887390313
 31
0.0
  0
LINE
  5
   4FA
  8
0
  6
CONTINUOUS
 62
     7
 10
-512.831787109375
 20
-62.3504887390313
 30
0.0
 11
-512.831787109375
 21
-59.8504887390313
 31
0.0
  0
CIRCLE
  5
   4FB
  8
0
  6
CONTINUOUS
 62
     7
 10
-510.006204125625
 20
45.9998978349729
 30
0.0
 40
0.1
  0
TEXT
  5
   4FC
  8
0
  6
CONTINUOUS
 62
     1
 10
-455.517515508242
 20
-149.93613056493
 30
0.0
 40
2.00000008940697
  1
M 3076 95-01-16
 50
359.999999948034
 41
0.749999861419206
 72
     1
 11
-444.417517066002
 21
-148.936130530238
 31
0.0
 73
     2
  0
INSERT
  5
   4FD
  8
0
  6
CONTINUOUS
 62
     7
  2
*UDIM4
 10
0.0
 20
0.0
 30
0.0
  0
INSERT
  5
   4FE
  8
0
  6
CONTINUOUS
 62
     7
  2
*UDIM5
 10
0.0
 20
0.0
 30
0.0
  0
INSERT
  5
   4FF
  8
0
  6
CONTINUOUS
 62
     7
  2
*UDIM6
 10
0.0
 20
0.0
 30
0.0
  0
INSERT
  5
   500
  8
0
  6
CONTINUOUS
 62
     7
  2
*UDIM7
 10
0.0
 20
0.0
 30
0.0
  0
INSERT
  5
   501
  8
0
  6
CONTINUOUS
 62
     7
  2
*UDIM8
 10
0.0
 20
0.0
 30
0.0
  0
INSERT
  5
   502
  8
0
  6
CONTINUOUS
 62
     7
  2
*UDIM9
 10
0.0
 20
0.0
 30
0.0
  0
TEXT
  5
   503
  8
0
  6
CONTINUOUS
 62
     1
 10
-462.257568316566
 20
-134.96837190571
 30
0.0
 40
2.00000008940697
  1
93-04-05 ROTA S.
 50
359.999999948034
 41
0.749999861419206
 72
     2
 11
-438.557571643995
 21
-134.968371927086
 31
0.0
  0
INSERT
  5
   504
  8
0
  6
CONTINUOUS
 62
     7
  2
*UDIM10
 10
0.0
 20
0.0
 30
0.0
  0
INSERT
  5
   505
  8
0
  6
CONTINUOUS
 62
     7
  2
*UDIM11
 10
0.0
 20
0.0
 30
0.0
  0
INSERT
  5
   506
  8
0
  6
CONTINUOUS
 62
     7
  2
*UDIM12
 10
0.0
 20
0.0
 30
0.0
  0
TEXT
  5
   507
  8
0
  6
CONTINUOUS
 62
     5
 10
-414.758270278367
 20
-24.2190112937168
 30
0.0
 40
3.00000002980232
  1
=          =
 50
89.9999999480344
 41
0.916666604744064
 72
     2
 11
-414.758270248977
 21
8.23098683221382
 31
0.0
  0
INSERT
  5
   508
  8
0
  6
CONTINUOUS
 62
     7
  2
*UDIM13
 10
0.0
 20
0.0
 30
0.0
  0
INSERT
  5
   509
  8
0
  6
CONTINUOUS
 62
     7
  2
*UDIM14
 10
0.0
 20
0.0
 30
0.0
  0
INSERT
  5
   50A
  8
0
  6
CONTINUOUS
 62
     7
  2
*UDIM15
 10
0.0
 20
0.0
 30
0.0
  0
INSERT
  5
   50B
  8
0
  6
CONTINUOUS
 62
     7
  2
*UDIM16
 10
0.0
 20
0.0
 30
0.0
  0
INSERT
  5
   50C
  8
0
  6
CONTINUOUS
 62
     7
  2
*UDIM17
 10
0.0
 20
0.0
 30
0.0
  0
INSERT
  5
   50D
  8
0
  6
CONTINUOUS
 62
     7
  2
*UDIM18
 10
0.0
 20
0.0
 30
0.0
  0
INSERT
  5
   50E
  8
0
  6
CONTINUOUS
 62
     7
  2
*UDIM19
 10
0.0
 20
0.0
 30
0.0
  0
INSERT
  5
   50F
  8
0
  6
CONTINUOUS
 62
     7
  2
*UDIM20
 10
0.0
 20
0.0
 30
0.0
  0
INSERT
  5
   510
  8
0
  6
CONTINUOUS
 62
     7
  2
*UDIM21
 10
0.0
 20
0.0
 30
0.0
  0
INSERT
  5
   511
  8
0
  6
CONTINUOUS
 62
     7
  2
*UDIM22
 10
0.0
 20
0.0
 30
0.0
  0
INSERT
  5
   512
  8
0
  6
CONTINUOUS
 62
     7
  2
*UDIM23
 10
0.0
 20
0.0
 30
0.0
  0
TEXT
  5
   513
  8
0
  6
CONTINUOUS
 62
     7
 10
-408.944946201008
 20
-7.95826670458159
 30
0.0
 40
3.00000002980232
  1
X
 50
359.999999948034
 41
0.916666604744064
 72
     1
 11
-407.84494626522
 21
-6.45826669067257
 31
0.0
 73
     2
  0
TEXT
  5
   514
  8
0
  6
CONTINUOUS
 62
     1
 10
-360.440429601881
 20
-160.981753662022
 30
0.0
 40
4.00000017881393
  1
601812/101
 50
359.999999948034
 41
0.937499973922969
 72
     2
 11
-323.690429002109
 21
-160.981753695169
 31
0.0
  0
TEXT
  5
   515
  8
0
  6
CONTINUOUS
 62
     1
 10
-342.354736263911
 20
-152.000171580761
 30
0.0
 40
3.00000002980232
  1
S5
 50
359.999999948034
 41
0.916666604744064
 72
     2
 11
-337.40473655349
 21
-152.000171585226
 31
0.0
  0
TEXT
  5
   516
  8
0
  6
CONTINUOUS
 62
     1
 10
-370.889156118939
 20
-133.689899469594
 30
0.0
 40
2.00000008940697
  1
3POLE LOW VOLTAGE M.C.C.B SERIES ISOMAX
 50
359.999999948034
 41
0.749999861419206
 72
     1
 11
-341.789160197975
 21
-132.689899451137
 31
0.0
 73
     2
  0
TEXT
  5
   517
  8
0
  6
CONTINUOUS
 62
     1
 10
-374.639155462539
 20
-136.689899466211
 30
0.0
 40
2.00000008940697
  1
FIXED VERSION FRONT+EXTENDED FRONT TERMINALS
 50
359.999999948034
 41
0.749999861419206
 72
     1
 11
-341.789160066841
 21
-135.689899451137
 31
0.0
 73
     2
  0
TEXT
  5
   518
  8
0
  6
CONTINUOUS
 62
     1
 10
-367.686764486293
 20
-141.760166199315
 30
0.0
 40
2.00000008940697
  1
INTERR.AUTOMATICO SERIE ISOMAX
 50
359.999999948034
 41
0.749999861419206
 72
     1
 11
-345.33676761985
 21
-140.76016617477
 31
0.0
 73
     2
  0
TEXT
  5
   519
  8
0
  6
CONTINUOUS
 62
     1
 10
-381.936762359148
 20
-144.760166186462
 30
0.0
 40
2.00000008940697
  1
TRIPOL.ESECUZIONE FISSA TERMINALI ANT.E ANT.PROL.
 50
359.999999948034
 41
0.749999861419206
 72
     1
 11
-345.336767488716
 21
-143.76016617477
 31
0.0
 73
     2
  0
LINE
  5
   51A
  8
0
  6
CONTINUOUS
 62
     7
 10
-637.212299654852
 20
55.8995018005371
 30
0.0
 11
-651.90486907959
 21
55.8995018005371
 31
0.0
  0
LINE
  5
   51B
  8
0
  6
CONTINUOUS
 62
     7
 10
-583.654876708984
 20
43.8995094299316
 30
0.0
 11
-583.654876708984
 21
54.4995018005371
 31
0.0
  0
LINE
  5
   51C
  8
0
  6
CONTINUOUS
 62
     7
 10
-653.654869081694
 20
43.8995094299316
 30
0.0
 11
-653.654869081694
 21
54.4995018005371
 31
0.0
  0
ARC
  5
   51D
  8
0
  6
CONTINUOUS
 62
     7
 10
-640.529864542981
 20
46.8995288585668
 30
0.0
 40
2.75000604975671
 50
110.451265672946
 51
190.591003768719
  0
ARC
  5
   51E
  8
0
  6
CONTINUOUS
 62
     7
 10
-651.904882382425
 20
55.3994932510402
 30
0.0
 40
0.499990919521533
 50
449.999429635018
 51
540.000998310938
  0
LINE
  5
   51F
  8
0
  6
CONTINUOUS
 62
     7
 10
-652.40486907959
 20
54.4995018005371
 30
0.0
 11
-653.654869081694
 21
54.4995018005371
 31
0.0
  0
LINE
  5
   520
  8
0
  6
CONTINUOUS
 62
     7
 10
-632.21737881698
 20
43.8995094299316
 30
0.0
 11
-652.40486907959
 21
43.8995094299316
 31
0.0
  0
LINE
  5
   521
  8
0
  6
CONTINUOUS
 62
     7
 10
-610.342399232926
 20
43.8995094299316
 30
0.0
 11
-626.96737881698
 21
43.8995094299316
 31
0.0
  0
LINE
  5
   522
  8
0
  6
CONTINUOUS
 62
     7
 10
-584.90486907959
 20
43.8995094299316
 30
0.0
 11
-605.092399232926
 21
43.8995094299316
 31
0.0
  0
CIRCLE
  5
   523
  8
0
  6
CONTINUOUS
 62
     7
 10
-640.529869221983
 20
53.8995069625925
 30
0.0
 40
0.699999510271856
  0
LINE
  5
   524
  8
0
  6
CONTINUOUS
 62
     7
 10
-652.40486907959
 20
43.8995094299316
 30
0.0
 11
-652.40486907959
 21
54.4995018005371
 31
0.0
  0
LINE
  5
   525
  8
0
  6
CONTINUOUS
 62
     7
 10
-583.654892458442
 20
-35.8504734802424
 30
0.0
 11
-583.654892458442
 21
-34.8504734802424
 31
0.0
  0
LINE
  5
   526
  8
0
  6
CONTINUOUS
 62
     7
 10
-653.654892458442
 20
-35.8504734802424
 30
0.0
 11
-653.654892458442
 21
-34.8504734802424
 31
0.0
  0
LINE
  5
   527
  8
0
  6
CONTINUOUS
 62
     7
 10
-583.654892458442
 20
-69.7004719543635
 30
0.0
 11
-583.654892458442
 21
-35.8504734802424
 31
0.0
  0
LINE
  5
   528
  8
0
  6
CONTINUOUS
 62
     7
 10
-653.654892458442
 20
-69.7004735040843
 30
0.0
 11
-653.654892458442
 21
-35.8504750299632
 31
0.0
  0
LINE
  5
   529
  8
0
  6
CONTINUOUS
 62
     7
 10
-652.404892458442
 20
-69.7004735040843
 30
0.0
 11
-653.654892458442
 21
-69.7004735040843
 31
0.0
  0
LINE
  5
   52A
  8
0
  6
CONTINUOUS
 62
     7
 10
-652.404892458442
 20
-70.6004734802424
 30
0.0
 11
-652.404892458442
 21
-69.7004735040843
 31
0.0
  0
LINE
  5
   52B
  8
0
  6
CONTINUOUS
 62
     7
 10
-630.467392458442
 20
-71.1004734802424
 30
0.0
 11
-651.904892458442
 21
-71.1004734802424
 31
0.0
  0
LINE
  5
   52C
  8
0
  6
CONTINUOUS
 62
     7
 10
-608.592392458442
 20
-71.1004734802422
 30
0.0
 11
-628.717392458442
 21
-71.1004734802422
 31
0.0
  0
LINE
  5
   52D
  8
0
  6
CONTINUOUS
 62
     7
 10
-585.404892458442
 20
-71.1004734802426
 30
0.0
 11
-606.842392458442
 21
-71.1004734802426
 31
0.0
  0
LINE
  5
   52E
  8
0
  6
CONTINUOUS
 62
     7
 10
-584.904892458442
 20
-70.6004734802424
 30
0.0
 11
-584.904892458442
 21
-69.7004735040843
 31
0.0
  0
LINE
  5
   52F
  8
0
  6
CONTINUOUS
 62
     7
 10
-583.654892458442
 20
-69.7004735040843
 30
0.0
 11
-584.904892458442
 21
-69.7004735040843
 31
0.0
  0
LINE
  5
   530
  8
0
  6
CONTINUOUS
 62
     1
 10
-652.404892458442
 20
-69.7004735040843
 30
0.0
 11
-652.404892458442
 21
-59.1004731226146
 31
0.0
  0
LINE
  5
   531
  8
0
  6
CONTINUOUS
 62
     1
 10
-632.217392458442
 20
-59.1004734802424
 30
0.0
 11
-652.404892458442
 21
-59.1004734802424
 31
0.0
  0
LINE
  5
   532
  8
0
  6
CONTINUOUS
 62
     1
 10
-632.217392458442
 20
-61.1004734802424
 30
0.0
 11
-632.217392458442
 21
-59.1004734802424
 31
0.0
  0
LINE
  5
   533
  8
0
  6
CONTINUOUS
 62
     1
 10
-626.967392458442
 20
-61.1004734802424
 30
0.0
 11
-626.967392458442
 21
-59.1004734802424
 31
0.0
  0
LINE
  5
   534
  8
0
  6
CONTINUOUS
 62
     1
 10
-610.342392458442
 20
-59.1004734802424
 30
0.0
 11
-626.967392458442
 21
-59.1004734802424
 31
0.0
  0
LINE
  5
   535
  8
0
  6
CONTINUOUS
 62
     1
 10
-610.342392458442
 20
-61.1004734802424
 30
0.0
 11
-610.342392458442
 21
-59.1004734802424
 31
0.0
  0
LINE
  5
   536
  8
0
  6
CONTINUOUS
 62
     1
 10
-605.092392458442
 20
-61.1004734802424
 30
0.0
 11
-605.092392458442
 21
-59.1004734802424
 31
0.0
  0
LINE
  5
   537
  8
0
  6
CONTINUOUS
 62
     1
 10
-584.904892458442
 20
-59.1004734802424
 30
0.0
 11
-605.092392458442
 21
-59.1004734802424
 31
0.0
  0
LINE
  5
   538
  8
0
  6
CONTINUOUS
 62
     1
 10
-584.904892458442
 20
-69.7004735040843
 30
0.0
 11
-584.904892458442
 21
-59.1004731226146
 31
0.0
  0
LINE
  5
   539
  8
0
  6
CONTINUOUS
 62
     1
 10
-628.342392458442
 20
-64.3504734802424
 30
0.0
 11
-628.342392458442
 21
-63.3616486358821
 31
0.0
  0
LINE
  5
   53A
  8
0
  6
CONTINUOUS
 62
     1
 10
-630.842392458442
 20
-64.3504734802424
 30
0.0
 11
-630.842392458442
 21
-63.3616486358821
 31
0.0
  0
LINE
  5
   53B
  8
0
  6
CONTINUOUS
 62
     1
 10
-628.342392458442
 20
-64.3504734802424
 30
0.0
 11
-630.842392458442
 21
-64.3504734802424
 31
0.0
  0
LINE
  5
   53C
  8
0
  6
CONTINUOUS
 62
     1
 10
-608.967392458442
 20
-64.3504734802424
 30
0.0
 11
-608.967392458442
 21
-63.3616486358821
 31
0.0
  0
LINE
  5
   53D
  8
0
  6
CONTINUOUS
 62
     1
 10
-606.467392458442
 20
-64.3504734802424
 30
0.0
 11
-606.467392458442
 21
-63.3616486358821
 31
0.0
  0
LINE
  5
   53E
  8
0
  6
CONTINUOUS
 62
     1
 10
-606.467392458442
 20
-64.3504734802424
 30
0.0
 11
-608.967392458442
 21
-64.3504734802424
 31
0.0
  0
LINE
  5
   53F
  8
0
  6
CONTINUOUS
 62
     7
 10
-606.467392458442
 20
-69.6004734802424
 30
0.0
 11
-606.467392458442
 21
-67.8504734802424
 31
0.0
  0
LINE
  5
   540
  8
0
  6
CONTINUOUS
 62
     7
 10
-608.967392458442
 20
-69.6004735994517
 30
0.0
 11
-608.967392458442
 21
-67.8504734802424
 31
0.0
  0
LINE
  5
   541
  8
0
  6
CONTINUOUS
 62
     7
 10
-606.842392458442
 20
-71.1004734802422
 30
0.0
 11
-606.842392458442
 21
-69.6004734802422
 31
0.0
  0
LINE
  5
   542
  8
0
  6
CONTINUOUS
 62
     7
 10
-606.467392458442
 20
-69.6004734802424
 30
0.0
 11
-606.842392458442
 21
-69.6004734802424
 31
0.0
  0
LINE
  5
   543
  8
0
  6
CONTINUOUS
 62
     7
 10
-608.592392458442
 20
-71.1004734802422
 30
0.0
 11
-608.592392458442
 21
-69.6004734802422
 31
0.0
  0
LINE
  5
   544
  8
0
  6
CONTINUOUS
 62
     7
 10
-608.592392458442
 20
-69.6004734802424
 30
0.0
 11
-608.967392458442
 21
-69.6004734802424
 31
0.0
  0
LINE
  5
   545
  8
0
  6
CONTINUOUS
 62
     7
 10
-628.342392458442
 20
-69.6004734802424
 30
0.0
 11
-628.342392458442
 21
-67.8504734802424
 31
0.0
  0
LINE
  5
   546
  8
0
  6
CONTINUOUS
 62
     7
 10
-630.842392458442
 20
-69.6004735994517
 30
0.0
 11
-630.842392458442
 21
-67.8504734802424
 31
0.0
  0
LINE
  5
   547
  8
0
  6
CONTINUOUS
 62
     7
 10
-630.467392458442
 20
-71.1004734802422
 30
0.0
 11
-630.467392458442
 21
-69.6004734802422
 31
0.0
  0
LINE
  5
   548
  8
0
  6
CONTINUOUS
 62
     7
 10
-630.467392458442
 20
-69.6004734802424
 30
0.0
 11
-630.842392458442
 21
-69.6004734802424
 31
0.0
  0
LINE
  5
   549
  8
0
  6
CONTINUOUS
 62
     7
 10
-628.717392458442
 20
-71.1004734802422
 30
0.0
 11
-628.717392458442
 21
-69.6004734802422
 31
0.0
  0
LINE
  5
   54A
  8
0
  6
CONTINUOUS
 62
     7
 10
-628.342392458442
 20
-69.6004734802424
 30
0.0
 11
-628.717392458442
 21
-69.6004734802424
 31
0.0
  0
CIRCLE
  5
   54B
  8
0
  6
CONTINUOUS
 62
     1
 10
-596.779891346489
 20
-62.1004726589471
 30
0.0
 40
2.75000084159095
  0
CIRCLE
  5
   54C
  8
0
  6
CONTINUOUS
 62
     1
 10
-607.717391967262
 20
-61.1004741831604
 30
0.0
 40
1.37500079763464
  0
ARC
  5
   54D
  8
0
  6
CONTINUOUS
 62
     1
 10
-607.717396383398
 20
-61.1004840776241
 30
0.0
 40
2.62501075357347
 50
121.002660601852
 51
418.997339294217
  0
CIRCLE
  5
   54E
  8
0
  6
CONTINUOUS
 62
     1
 10
-629.59239227386
 20
-61.1004728126566
 30
0.0
 40
1.37499960951013
  0
CIRCLE
  5
   54F
  8
0
  6
CONTINUOUS
 62
     1
 10
-618.654892654068
 20
-62.1004735855715
 30
0.0
 40
2.74999984850238
  0
CIRCLE
  5
   550
  8
0
  6
CONTINUOUS
 62
     1
 10
-596.779892733201
 20
-69.1004710022198
 30
0.0
 40
0.699998471827824
  0
CIRCLE
  5
   551
  8
0
  6
CONTINUOUS
 62
     1
 10
-618.65489148899
 20
-69.1004721229514
 30
0.0
 40
0.700001020696338
  0
CIRCLE
  5
   552
  8
0
  6
CONTINUOUS
 62
     1
 10
-640.529892841287
 20
-69.1004740770454
 30
0.0
 40
0.700000042083871
  0
CIRCLE
  5
   553
  8
0
  6
CONTINUOUS
 62
     1
 10
-640.529892338901
 20
-62.1004735964999
 30
0.0
 40
2.75000015959725
  0
LINE
  5
   554
  8
0
  6
DASHDOT
 62
     7
 10
-604.342407972037
 20
-32.8504312212596
 30
0.0
 11
-611.092278231191
 21
-32.8504312212596
 31
0.0
  0
LINE
  5
   555
  8
0
  6
DASHDOT
 62
     7
 10
-618.654892654069
 20
-72.9600106226759
 30
0.0
 11
-618.654892654069
 21
-33.4450289312035
 31
0.0
  0
LINE
  5
   556
  8
0
  6
DASHDOT
 62
     7
 10
-614.404892805566
 20
-62.1004735855715
 30
0.0
 11
-622.904892502571
 21
-62.1004735855715
 31
0.0
  0
ARC
  5
   557
  8
0
  6
CONTINUOUS
 62
     1
 10
-629.592395060097
 20
-61.1004672804546
 30
0.0
 40
2.62499406553746
 50
121.002766250911
 51
418.997233645158
  0
ARC
  5
   558
  8
0
  6
CONTINUOUS
 62
     7
 10
-585.404888857945
 20
-70.6004780438659
 30
0.0
 40
0.499995200460646
 50
269.999729091746
 51
360.000478711826
  0
ARC
  5
   559
  8
0
  6
CONTINUOUS
 62
     7
 10
-651.904892635679
 20
-70.6004735435804
 30
0.0
 40
0.499999889965255
 50
179.99999084272
 51
269.999993044176
  0
LINE
  5
   55A
  8
0
  6
CONTINUOUS
 62
     1
 10
-583.654892654068
 20
19.7745170593262
 30
0.0
 11
-583.654892654068
 21
43.8995094299316
 31
0.0
  0
LINE
  5
   55B
  8
0
  6
CONTINUOUS
 62
     1
 10
-583.654892654068
 20
-40.3504905998707
 30
0.0
 11
-583.654892654068
 21
-32.7254829406738
 31
0.0
  0
LINE
  5
   55C
  8
0
  6
CONTINUOUS
 62
     1
 10
-653.654892654068
 20
-40.3504905998707
 30
0.0
 11
-653.654892654068
 21
-32.7254981994629
 31
0.0
  0
LINE
  5
   55D
  8
0
  6
CONTINUOUS
 62
     1
 10
-653.654892654068
 20
19.7745018005371
 30
0.0
 11
-653.654892654068
 21
43.8995094299316
 31
0.0
  0
LINE
  5
   55E
  8
0
  6
CONTINUOUS
 62
     1
 10
-583.654892654068
 20
43.8995094299316
 30
0.0
 11
-653.654892654068
 21
43.8995094299316
 31
0.0
  0
LINE
  5
   55F
  8
0
  6
CONTINUOUS
 62
     1
 10
-584.154900283463
 20
-40.8504905700683
 30
0.0
 11
-589.404892654068
 21
-40.8504905700683
 31
0.0
  0
LINE
  5
   560
  8
0
  6
CONTINUOUS
 62
     1
 10
-653.654892654068
 20
-32.7254905700683
 30
0.0
 11
-653.654892654068
 21
19.7745094299316
 31
0.0
  0
LINE
  5
   561
  8
0
  6
CONTINUOUS
 62
     1
 10
-583.654892654068
 20
-32.7254905700684
 30
0.0
 11
-583.654892654068
 21
19.7745094299316
 31
0.0
  0
LINE
  5
   562
  8
0
  6
CONTINUOUS
 62
     1
 10
-604.404892654068
 20
-36.8504910469055
 30
0.0
 11
-610.904892654068
 21
-36.8504910469055
 31
0.0
  0
ARC
  5
   563
  8
0
  6
CONTINUOUS
 62
     1
 10
-583.904892654068
 20
-32.4754905700684
 30
0.0
 40
0.25
 50
269.999999948034
 51
359.999999948034
  0
ARC
  5
   564
  8
0
  6
CONTINUOUS
 62
     1
 10
-653.404892654068
 20
-32.4754905700684
 30
0.0
 40
0.25
 50
179.999999948034
 51
269.999999948034
  0
LINE
  5
   565
  8
0
  6
CONTINUOUS
 62
     1
 10
-583.654892654068
 20
-40.3504905998707
 30
0.0
 11
-589.404892654068
 21
-40.3504905998707
 31
0.0
  0
LINE
  5
   566
  8
0
  6
CONTINUOUS
 62
     1
 10
-647.904892654068
 20
-40.3504905998707
 30
0.0
 11
-653.654892654068
 21
-40.3504905998707
 31
0.0
  0
LINE
  5
   567
  8
0
  6
CONTINUOUS
 62
     1
 10
-584.154900283463
 20
-40.8504905700685
 30
0.0
 11
-584.154900283463
 21
-40.3504905998709
 31
0.0
  0
LINE
  5
   568
  8
0
  6
CONTINUOUS
 62
     1
 10
-653.154885024674
 20
-40.8504905700685
 30
0.0
 11
-653.154885024674
 21
-40.3504905998709
 31
0.0
  0
LINE
  5
   569
  8
0
  6
CONTINUOUS
 62
     1
 10
-648.029885024674
 20
-32.7254981994629
 30
0.0
 11
-648.029885024674
 21
19.7745018005371
 31
0.0
  0
LINE
  5
   56A
  8
0
  6
CONTINUOUS
 62
     1
 10
-652.529885024674
 20
-32.7254905700684
 30
0.0
 11
-652.529885024674
 21
19.7745018005371
 31
0.0
  0
LINE
  5
   56B
  8
0
  6
CONTINUOUS
 62
     1
 10
-651.379891128189
 20
-32.7254981994629
 30
0.0
 11
-651.379891128189
 21
19.7745018005371
 31
0.0
  0
LINE
  5
   56C
  8
0
  6
CONTINUOUS
 62
     1
 10
-649.829888076432
 20
-32.7254981994629
 30
0.0
 11
-649.829888076432
 21
19.7745018005371
 31
0.0
  0
LINE
  5
   56D
  8
0
  6
CONTINUOUS
 62
     1
 10
-648.029885024674
 20
19.7745018005371
 30
0.0
 11
-648.029885024674
 21
43.8995018005371
 31
0.0
  0
LINE
  5
   56E
  8
0
  6
CONTINUOUS
 62
     1
 10
-646.229889602311
 20
33.5245094299316
 30
0.0
 11
-646.229889602311
 21
43.8995018005371
 31
0.0
  0
LINE
  5
   56F
  8
0
  6
CONTINUOUS
 62
     1
 10
-652.529885024674
 20
19.7745018005371
 30
0.0
 11
-652.529885024674
 21
43.8995018005371
 31
0.0
  0
LINE
  5
   570
  8
0
  6
CONTINUOUS
 62
     1
 10
-651.379891128189
 20
19.7745018005371
 30
0.0
 11
-651.379891128189
 21
43.8995018005371
 31
0.0
  0
LINE
  5
   571
  8
0
  6
CONTINUOUS
 62
     1
 10
-649.829888076432
 20
19.7745018005371
 30
0.0
 11
-649.829888076432
 21
43.8995018005371
 31
0.0
  0
LINE
  5
   572
  8
0
  6
CONTINUOUS
 62
     1
 10
-645.079888076432
 20
33.5245094299316
 30
0.0
 11
-645.079888076432
 21
43.8995018005371
 31
0.0
  0
LINE
  5
   573
  8
0
  6
CONTINUOUS
 62
     1
 10
-648.029885024674
 20
-40.3504905998707
 30
0.0
 11
-648.029885024674
 21
-32.7254901230335
 31
0.0
  0
LINE
  5
   574
  8
0
  6
CONTINUOUS
 62
     1
 10
-652.529885024674
 20
-40.3504905998707
 30
0.0
 11
-652.529885024674
 21
-32.7254901230335
 31
0.0
  0
LINE
  5
   575
  8
0
  6
CONTINUOUS
 62
     1
 10
-651.379891128189
 20
-40.3504905998707
 30
0.0
 11
-651.379891128189
 21
-32.7254901230335
 31
0.0
  0
LINE
  5
   576
  8
0
  6
CONTINUOUS
 62
     1
 10
-649.829888076432
 20
-40.3504905998707
 30
0.0
 11
-649.829888076432
 21
-32.7254901230335
 31
0.0
  0
LINE
  5
   577
  8
0
  6
CONTINUOUS
 62
     1
 10
-589.529900283463
 20
-32.7254981994629
 30
0.0
 11
-589.529900283463
 21
19.7745018005371
 31
0.0
  0
LINE
  5
   578
  8
0
  6
CONTINUOUS
 62
     1
 10
-584.779900283463
 20
-32.7254905700684
 30
0.0
 11
-584.779900283463
 21
19.7745018005371
 31
0.0
  0
LINE
  5
   579
  8
0
  6
CONTINUOUS
 62
     1
 10
-585.929894179947
 20
-32.7254981994629
 30
0.0
 11
-585.929894179947
 21
19.7745018005371
 31
0.0
  0
LINE
  5
   57A
  8
0
  6
CONTINUOUS
 62
     1
 10
-587.729897231705
 20
-32.7254981994629
 30
0.0
 11
-587.729897231705
 21
19.7745018005371
 31
0.0
  0
LINE
  5
   57B
  8
0
  6
CONTINUOUS
 62
     1
 10
-589.529900283463
 20
19.7745018005371
 30
0.0
 11
-589.529900283463
 21
43.8995018005371
 31
0.0
  0
LINE
  5
   57C
  8
0
  6
CONTINUOUS
 62
     1
 10
-591.329895705826
 20
33.5245094299316
 30
0.0
 11
-591.329895705826
 21
43.8995018005371
 31
0.0
  0
LINE
  5
   57D
  8
0
  6
CONTINUOUS
 62
     1
 10
-584.779900283463
 20
19.7745018005371
 30
0.0
 11
-584.779900283463
 21
43.8995018005371
 31
0.0
  0
LINE
  5
   57E
  8
0
  6
CONTINUOUS
 62
     1
 10
-585.929894179947
 20
19.7745018005371
 30
0.0
 11
-585.929894179947
 21
43.8995018005371
 31
0.0
  0
LINE
  5
   57F
  8
0
  6
CONTINUOUS
 62
     1
 10
-587.729897231705
 20
19.7745018005371
 30
0.0
 11
-587.729897231705
 21
43.8995018005371
 31
0.0
  0
LINE
  5
   580
  8
0
  6
CONTINUOUS
 62
     1
 10
-592.229897231705
 20
33.5245094299316
 30
0.0
 11
-592.229897231705
 21
43.8995018005371
 31
0.0
  0
LINE
  5
   581
  8
0
  6
CONTINUOUS
 62
     1
 10
-589.529900283463
 20
-40.3504905998707
 30
0.0
 11
-589.529900283463
 21
-32.7254901230335
 31
0.0
  0
LINE
  5
   582
  8
0
  6
CONTINUOUS
 62
     1
 10
-584.779900283463
 20
-40.3504905998707
 30
0.0
 11
-584.779900283463
 21
-32.7254901230335
 31
0.0
  0
LINE
  5
   583
  8
0
  6
CONTINUOUS
 62
     1
 10
-585.929894179947
 20
-40.3504905998707
 30
0.0
 11
-585.929894179947
 21
-32.7254901230335
 31
0.0
  0
LINE
  5
   584
  8
0
  6
CONTINUOUS
 62
     1
 10
-587.729897231705
 20
-40.3504905998707
 30
0.0
 11
-587.729897231705
 21
-32.7254901230335
 31
0.0
  0
LINE
  5
   585
  8
0
  6
CONTINUOUS
 62
     1
 10
-644.154892654068
 20
33.5245094299316
 30
0.0
 11
-644.154892654068
 21
41.3995094299316
 31
0.0
  0
LINE
  5
   586
  8
0
  6
CONTINUOUS
 62
     1
 10
-593.154892654068
 20
33.5245094299316
 30
0.0
 11
-593.154892654068
 21
41.3995094299316
 31
0.0
  0
LINE
  5
   587
  8
0
  6
CONTINUOUS
 62
     1
 10
-593.154892654068
 20
41.3995094299316
 30
0.0
 11
-644.154892654068
 21
41.3995094299316
 31
0.0
  0
LINE
  5
   588
  8
0
  6
CONTINUOUS
 62
     3
 10
-632.404900283463
 20
-32.9754905700684
 30
0.0
 11
-637.404892654068
 21
-32.9754905700684
 31
0.0
  0
LINE
  5
   589
  8
0
  6
CONTINUOUS
 62
     3
 10
-599.904907912858
 20
-32.9754905700684
 30
0.0
 11
-604.904907912857
 21
-32.9754905700684
 31
0.0
  0
LINE
  5
   58A
  8
0
  6
CONTINUOUS
 62
     3
 10
-592.404892654068
 20
-32.7254905700684
 30
0.0
 11
-592.404892654068
 21
-23.7254981994629
 31
0.0
  0
LINE
  5
   58B
  8
0
  6
CONTINUOUS
 62
     3
 10
-644.904892654068
 20
-32.7254905700684
 30
0.0
 11
-644.904892654068
 21
-23.7254981994629
 31
0.0
  0
LINE
  5
   58C
  8
0
  6
CONTINUOUS
 62
     3
 10
-592.654892654068
 20
19.5245094299316
 30
0.0
 11
-644.654892654055
 21
19.5245094299316
 31
0.0
  0
LINE
  5
   58D
  8
0
  6
CONTINUOUS
 62
     3
 10
-637.404892654068
 20
-32.9754905700684
 30
0.0
 11
-644.654892654069
 21
-32.9754905700684
 31
0.0
  0
LINE
  5
   58E
  8
0
  6
CONTINUOUS
 62
     3
 10
-604.904907912857
 20
-32.9754905700684
 30
0.0
 11
-632.404900283463
 21
-32.9754905700684
 31
0.0
  0
LINE
  5
   58F
  8
0
  6
CONTINUOUS
 62
     3
 10
-592.654892654068
 20
-32.9754905700684
 30
0.0
 11
-599.904907912858
 21
-32.9754905700684
 31
0.0
  0
LINE
  5
   590
  8
0
  6
CONTINUOUS
 62
     3
 10
-613.279892654068
 20
-21.8504981994629
 30
0.0
 11
-613.279892654068
 21
-1.85050582885742
 31
0.0
  0
LINE
  5
   591
  8
0
  6
CONTINUOUS
 62
     3
 10
-624.029892654068
 20
-21.8504981994629
 30
0.0
 11
-624.029892654068
 21
-1.85050582885742
 31
0.0
  0
LINE
  5
   592
  8
0
  6
CONTINUOUS
 62
     1
 10
-592.404892654068
 20
13.7744941711426
 30
0.0
 11
-644.904892654068
 21
13.7744941711426
 31
0.0
  0
LINE
  5
   593
  8
0
  6
CONTINUOUS
 62
     1
 10
-592.404892654068
 20
18.7744941711426
 30
0.0
 11
-644.904892654068
 21
18.7744941711426
 31
0.0
  0
LINE
  5
   594
  8
0
  6
CONTINUOUS
 62
     3
 10
-613.279892654068
 20
-1.98273849487305
 30
0.0
 11
-624.029892654068
 21
-1.98273849487305
 31
0.0
  0
LINE
  5
   595
  8
0
  6
CONTINUOUS
 62
     3
 10
-613.279892654068
 20
-1.85050582885742
 30
0.0
 11
-624.029892654068
 21
-1.85050582885742
 31
0.0
  0
LINE
  5
   596
  8
0
  6
CONTINUOUS
 62
     3
 10
-613.279892654068
 20
-21.8504981994629
 30
0.0
 11
-624.029892654068
 21
-21.8504981994629
 31
0.0
  0
LINE
  5
   597
  8
0
  6
CONTINUOUS
 62
     3
 10
-613.279892654068
 20
-21.7182502746582
 30
0.0
 11
-624.029892654068
 21
-21.7182502746582
 31
0.0
  0
LINE
  5
   598
  8
0
  6
DASHDOT
 62
     3
 10
-618.654892654068
 20
-34.6021315097478
 30
0.0
 11
-618.654892654068
 21
8.62571157377661
 31
0.0
  0
LINE
  5
   599
  8
0
  6
DASHDOT
 62
     3
 10
-618.654892654068
 20
8.23934521751703
 30
0.0
 11
-618.654892654068
 21
92.1529328935526
 31
0.0
  0
LINE
  5
   59A
  8
0
  6
CONTINUOUS
 62
     3
 10
-592.404900283463
 20
-23.2254981994629
 30
0.0
 11
-592.404900283463
 21
-17.2255021760821
 31
0.0
  0
LINE
  5
   59B
  8
0
  6
CONTINUOUS
 62
     3
 10
-592.404900283463
 20
2.45018005371094E-2
 30
0.0
 11
-592.404900283463
 21
19.2745094299316
 31
0.0
  0
LINE
  5
   59C
  8
0
  6
CONTINUOUS
 62
     3
 10
-592.404900283463
 20
-16.7255021760821
 30
0.0
 11
-592.404900283463
 21
-6.97549819946289
 31
0.0
  0
LINE
  5
   59D
  8
0
  6
CONTINUOUS
 62
     3
 10
-592.404900283463
 20
-6.47549819946289
 30
0.0
 11
-592.404900283463
 21
-0.475498199462891
 31
0.0
  0
LINE
  5
   59E
  8
0
  6
CONTINUOUS
 62
     3
 10
-644.904892654071
 20
-23.2254981994629
 30
0.0
 11
-644.904892654071
 21
-17.2254981994618
 31
0.0
  0
LINE
  5
   59F
  8
0
  6
CONTINUOUS
 62
     3
 10
-644.90489265408
 20
-16.7254981994618
 30
0.0
 11
-644.90489265408
 21
-6.97549819946289
 31
0.0
  0
LINE
  5
   5A0
  8
0
  6
CONTINUOUS
 62
     3
 10
-644.904892654066
 20
-6.47549819946289
 30
0.0
 11
-644.904892654066
 21
-0.475498199462891
 31
0.0
  0
LINE
  5
   5A1
  8
0
  6
CONTINUOUS
 62
     3
 10
-644.904892654055
 20
2.45018005371094E-2
 30
0.0
 11
-644.904892654055
 21
19.2745094299316
 31
0.0
  0
LINE
  5
   5A2
  8
0
  6
CONTINUOUS
 62
     1
 10
-624.029896640931
 20
-16.9754885817508
 30
0.0
 11
-644.404892683871
 21
-16.9754885817508
 31
0.0
  0
LINE
  5
   5A3
  8
0
  6
CONTINUOUS
 62
     3
 10
-592.404900283463
 20
-17.2254925583739
 30
0.0
 11
-592.904900283463
 21
-17.2254925583739
 31
0.0
  0
LINE
  5
   5A4
  8
0
  6
CONTINUOUS
 62
     1
 10
-624.029906420475
 20
-16.4754885817478
 30
0.0
 11
-644.404892683871
 21
-16.4754885817478
 31
0.0
  0
LINE
  5
   5A5
  8
0
  6
CONTINUOUS
 62
     3
 10
-592.404900283463
 20
-16.7254925583739
 30
0.0
 11
-592.904900283463
 21
-16.7254925583739
 31
0.0
  0
LINE
  5
   5A6
  8
0
  6
CONTINUOUS
 62
     3
 10
-644.404892683871
 20
-17.2254981994629
 30
0.0
 11
-644.404892683871
 21
-16.7254981994629
 31
0.0
  0
LINE
  5
   5A7
  8
0
  6
CONTINUOUS
 62
     3
 10
-592.904900283463
 20
-17.2254981994629
 30
0.0
 11
-592.904900283463
 21
-16.7254981994629
 31
0.0
  0
LINE
  5
   5A8
  8
0
  6
CONTINUOUS
 62
     3
 10
-592.404892654068
 20
-23.7254981994629
 30
0.0
 11
-592.904900283463
 21
-23.7254981994629
 31
0.0
  0
LINE
  5
   5A9
  8
0
  6
CONTINUOUS
 62
     3
 10
-592.404900283463
 20
-23.2254981994629
 30
0.0
 11
-592.904900283463
 21
-23.2254981994629
 31
0.0
  0
LINE
  5
   5AA
  8
0
  6
CONTINUOUS
 62
     3
 10
-644.404892683871
 20
-23.7254981994629
 30
0.0
 11
-644.404892683871
 21
-23.2254981994629
 31
0.0
  0
LINE
  5
   5AB
  8
0
  6
CONTINUOUS
 62
     3
 10
-592.904900283463
 20
-23.7254981994629
 30
0.0
 11
-592.904900283463
 21
-23.2254981994629
 31
0.0
  0
LINE
  5
   5AC
  8
0
  6
CONTINUOUS
 62
     3
 10
-592.404900283463
 20
-0.475498199462891
 30
0.0
 11
-592.904900283463
 21
-0.475498199462891
 31
0.0
  0
LINE
  5
   5AD
  8
0
  6
CONTINUOUS
 62
     3
 10
-592.404900283463
 20
2.45018005371094E-2
 30
0.0
 11
-592.904900283463
 21
2.45018005371094E-2
 31
0.0
  0
LINE
  5
   5AE
  8
0
  6
CONTINUOUS
 62
     3
 10
-644.404892683871
 20
-0.475498199462891
 30
0.0
 11
-644.404892683871
 21
2.45018005371094E-2
 31
0.0
  0
LINE
  5
   5AF
  8
0
  6
CONTINUOUS
 62
     3
 10
-592.904900283463
 20
-0.475498199462891
 30
0.0
 11
-592.904900283463
 21
2.45018005371094E-2
 31
0.0
  0
LINE
  5
   5B0
  8
0
  6
CONTINUOUS
 62
     1
 10
-624.029896617777
 20
-6.72549819946289
 30
0.0
 11
-644.404892683871
 21
-6.72549819946289
 31
0.0
  0
LINE
  5
   5B1
  8
0
  6
CONTINUOUS
 62
     3
 10
-592.404900283463
 20
-6.97549819946289
 30
0.0
 11
-592.904900283463
 21
-6.97549819946289
 31
0.0
  0
LINE
  5
   5B2
  8
0
  6
CONTINUOUS
 62
     1
 10
-624.029892654068
 20
-6.22549819946289
 30
0.0
 11
-644.404892683871
 21
-6.22549819946289
 31
0.0
  0
LINE
  5
   5B3
  8
0
  6
CONTINUOUS
 62
     3
 10
-592.404900283463
 20
-6.47549819946289
 30
0.0
 11
-592.904900283463
 21
-6.47549819946289
 31
0.0
  0
LINE
  5
   5B4
  8
0
  6
CONTINUOUS
 62
     3
 10
-644.404892683871
 20
-6.97549819946289
 30
0.0
 11
-644.404892683871
 21
-6.47549819946289
 31
0.0
  0
LINE
  5
   5B5
  8
0
  6
CONTINUOUS
 62
     3
 10
-592.904900283463
 20
-6.97549819946289
 30
0.0
 11
-592.904900283463
 21
-6.47549819946289
 31
0.0
  0
ARC
  5
   5B6
  8
0
  6
CONTINUOUS
 62
     3
 10
-644.654892654069
 20
-32.7254905700684
 30
0.0
 40
0.25
 50
179.999999948034
 51
269.999999948034
  0
ARC
  5
   5B7
  8
0
  6
CONTINUOUS
 62
     3
 10
-592.654892654068
 20
-32.7254905700684
 30
0.0
 40
0.25
 50
269.999999948034
 51
359.999999948034
  0
ARC
  5
   5B8
  8
0
  6
CONTINUOUS
 62
     3
 10
-592.654892654068
 20
19.2745094299316
 30
0.0
 40
0.25
 50
359.999999948034
 51
449.999999948034
  0
ARC
  5
   5B9
  8
0
  6
CONTINUOUS
 62
     3
 10
-644.654892654055
 20
19.2745094299316
 30
0.0
 40
0.25
 50
449.999999948034
 51
539.999999948034
  0
INSERT
  5
   5BA
  8
255
  6
CONTINUOUS
 62
     3
  2
$1ON-OFF
 10
-608.654897536881
 20
-3.47549819946288
 30
0.0
 41
0.5
 42
0.5
 50
359.999999792137
 43
0.5
  0
LINE
  5
   5BB
  8
0
  6
CONTINUOUS
 62
     1
 10
-629.904892654068
 20
-0.975498199462891
 30
0.0
 11
-630.654892654068
 21
-0.975498199462891
 31
0.0
  0
LINE
  5
   5BC
  8
0
  6
CONTINUOUS
 62
     1
 10
-629.904892654068
 20
-5.47549819946289
 30
0.0
 11
-630.654892654068
 21
-5.47549819946289
 31
0.0
  0
CIRCLE
  5
   5BD
  8
0
  6
CONTINUOUS
 62
     1
 10
-630.279892654068
 20
-19.9754981994629
 30
0.0
 40
2.25
  0
CIRCLE
  5
   5BE
  8
0
  6
CONTINUOUS
 62
     1
 10
-630.279892654068
 20
-19.9754981994629
 30
0.0
 40
1.5
  0
LINE
  5
   5BF
  8
0
  6
CONTINUOUS
 62
     1
 10
-630.654892654068
 20
-5.47549819946289
 30
0.0
 11
-630.654892654068
 21
-0.975498199462891
 31
0.0
  0
LINE
  5
   5C0
  8
0
  6
CONTINUOUS
 62
     1
 10
-629.904892654068
 20
-5.47549819946289
 30
0.0
 11
-629.904892654068
 21
-0.975498199462891
 31
0.0
  0
LINE
  5
   5C1
  8
0
  6
CONTINUOUS
 62
     1
 10
-625.404892654068
 20
-22.9754981994629
 30
0.0
 11
-625.404892654068
 21
-16.9754910548801
 31
0.0
  0
LINE
  5
   5C2
  8
0
  6
CONTINUOUS
 62
     1
 10
-611.904892654068
 20
-22.9754981994629
 30
0.0
 11
-611.904892654068
 21
-16.9754950315033
 31
0.0
  0
LINE
  5
   5C3
  8
0
  6
CONTINUOUS
 62
     1
 10
-611.904892654068
 20
-6.22549819946289
 30
0.0
 11
-611.904892654068
 21
-0.225498199462891
 31
0.0
  0
LINE
  5
   5C4
  8
0
  6
CONTINUOUS
 62
     1
 10
-625.404892654068
 20
-6.22549819946289
 30
0.0
 11
-625.404892654068
 21
-0.225498199462891
 31
0.0
  0
LINE
  5
   5C5
  8
0
  6
CONTINUOUS
 62
     7
 10
-583.654892458442
 20
-41.3504734802423
 30
0.0
 11
-589.404892654068
 21
-41.3504734802423
 31
0.0
  0
LINE
  5
   5C6
  8
0
  6
CONTINUOUS
 62
     1
 10
-583.654892458442
 20
-58.8504734802423
 30
0.0
 11
-653.654892458442
 21
-58.8504734802423
 31
0.0
  0
LINE
  5
   5C7
  8
0
  6
DASHDOT
 62
     7
 10
-640.529869221983
 20
48.1995074523206
 30
0.0
 11
-640.529869221983
 21
59.5995064728643
 31
0.0
  0
LINE
  5
   5C8
  8
0
  6
DASHDOT
 62
     7
 10
-634.829869711711
 20
53.8995069625925
 30
0.0
 11
-646.229868732254
 21
53.8995069625925
 31
0.0
  0
LINE
  5
   5C9
  8
0
  6
DASHDOT
 62
     7
 10
-640.529892338901
 20
-69.8504737560971
 30
0.0
 11
-640.529892338901
 21
-54.3504734369026
 31
0.0
  0
LINE
  5
   5CA
  8
0
  6
DASHDOT
 62
     7
 10
-632.779892179304
 20
-62.1004735964999
 30
0.0
 11
-648.279892498498
 21
-62.1004735964999
 31
0.0
  0
LINE
  5
   5CB
  8
0
  6
DASHDOT
 62
     7
 10
-640.529892841287
 20
-74.8004741191293
 30
0.0
 11
-640.529892841287
 21
-63.4004740349615
 31
0.0
  0
LINE
  5
   5CC
  8
0
  6
DASHDOT
 62
     7
 10
-634.829892799203
 20
-69.1004740770454
 30
0.0
 11
-646.229892883371
 21
-69.1004740770454
 31
0.0
  0
LINE
  5
   5CD
  8
0
  6
DASHDOT
 62
     7
 10
-618.65489148899
 20
-74.8004731436477
 30
0.0
 11
-618.65489148899
 21
-63.400471102255
 31
0.0
  0
LINE
  5
   5CE
  8
0
  6
DASHDOT
 62
     7
 10
-612.954890468293
 20
-69.1004721229514
 30
0.0
 11
-624.354892509686
 21
-69.1004721229514
 31
0.0
  0
LINE
  5
   5CF
  8
0
  6
DASHDOT
 62
     7
 10
-629.592395060097
 20
-68.7254613459921
 30
0.0
 11
-629.592395060097
 21
-53.4754732149171
 31
0.0
  0
LINE
  5
   5D0
  8
0
  6
DASHDOT
 62
     7
 10
-621.96740099456
 20
-61.1004672804546
 30
0.0
 11
-637.217389125635
 21
-61.1004672804546
 31
0.0
  0
LINE
  5
   5D1
  8
0
  6
DASHDOT
 62
     7
 10
-607.717396383398
 20
-68.7254948311975
 30
0.0
 11
-607.717396383398
 21
-53.4754733240506
 31
0.0
  0
LINE
  5
   5D2
  8
0
  6
DASHDOT
 62
     7
 10
-600.092385629825
 20
-61.1004840776241
 30
0.0
 11
-615.342407136972
 21
-61.1004840776241
 31
0.0
  0
LINE
  5
   5D3
  8
0
  6
DASHDOT
 62
     7
 10
-596.779891346489
 20
-69.850473500538
 30
0.0
 11
-596.779891346489
 21
-54.3504718173561
 31
0.0
  0
LINE
  5
   5D4
  8
0
  6
DASHDOT
 62
     7
 10
-589.029890504898
 20
-62.100472658947
 30
0.0
 11
-604.52989218808
 21
-62.100472658947
 31
0.0
  0
LINE
  5
   5D5
  8
0
  6
DASHDOT
 62
     7
 10
-596.779892733201
 20
-74.8004694740476
 30
0.0
 11
-596.779892733201
 21
-63.400472530392
 31
0.0
  0
LINE
  5
   5D6
  8
0
  6
DASHDOT
 62
     7
 10
-591.079894261373
 20
-69.1004710022198
 30
0.0
 11
-602.479891205029
 21
-69.1004710022198
 31
0.0
  0
LINE
  5
   5D7
  8
0
  6
CONTINUOUS
 62
     7
 10
-613.279892654068
 20
-17.2608477430751
 30
0.0
 11
-624.029892654068
 21
-17.2608477430751
 31
0.0
  0
LINE
  5
   5D8
  8
0
  6
CONTINUOUS
 62
     7
 10
-613.279892654068
 20
-14.7877871551032
 30
0.0
 11
-624.029892654068
 21
-14.7877871551032
 31
0.0
  0
LINE
  5
   5D9
  8
0
  6
CONTINUOUS
 62
     7
 10
-613.279892654068
 20
-21.221323569396
 30
0.0
 11
-624.029892654068
 21
-21.221323569396
 31
0.0
  0
LINE
  5
   5DA
  8
0
  6
CONTINUOUS
 62
     7
 10
-652.40486907959
 20
54.4995018005371
 30
0.0
 11
-652.40486907959
 21
55.3995094299316
 31
0.0
  0
LINE
  5
   5DB
  8
0
  6
CONTINUOUS
 62
     7
 10
-606.467392458442
 20
-67.8504734802424
 30
0.0
 11
-608.967392458442
 21
-67.8504734802424
 31
0.0
  0
LINE
  5
   5DC
  8
0
  6
CONTINUOUS
 62
     7
 10
-628.342392458442
 20
-67.8504734802424
 30
0.0
 11
-630.842392458442
 21
-67.8504734802424
 31
0.0
  0
LINE
  5
   5DD
  8
0
  6
CONTINUOUS
 62
     1
 10
-644.404892683871
 20
0.274501800537109
 30
0.0
 11
-644.904892654055
 21
0.274501800537109
 31
0.0
  0
LINE
  5
   5DE
  8
0
  6
CONTINUOUS
 62
     1
 10
-644.404892683871
 20
-0.225498199462891
 30
0.0
 11
-644.904892654066
 21
-0.225498199462891
 31
0.0
  0
LINE
  5
   5DF
  8
0
  6
CONTINUOUS
 62
     3
 10
-644.404892683871
 20
-6.47549819946289
 30
0.0
 11
-644.904892654066
 21
-6.47549819946289
 31
0.0
  0
LINE
  5
   5E0
  8
0
  6
CONTINUOUS
 62
     3
 10
-644.404892683871
 20
-6.97549819946289
 30
0.0
 11
-644.90489265408
 21
-6.97549819946289
 31
0.0
  0
LINE
  5
   5E1
  8
0
  6
CONTINUOUS
 62
     3
 10
-644.404892683871
 20
-16.7254885817478
 30
0.0
 11
-644.90489265408
 21
-16.7254885817478
 31
0.0
  0
LINE
  5
   5E2
  8
0
  6
CONTINUOUS
 62
     3
 10
-644.404892683871
 20
-17.2254885817508
 30
0.0
 11
-644.904892654071
 21
-17.2254885817508
 31
0.0
  0
LINE
  5
   5E3
  8
0
  6
CONTINUOUS
 62
     3
 10
-644.404892683871
 20
-23.2254981994629
 30
0.0
 11
-644.904892654071
 21
-23.2254981994629
 31
0.0
  0
LINE
  5
   5E4
  8
0
  6
CONTINUOUS
 62
     3
 10
-644.404892683871
 20
-23.7254981994629
 30
0.0
 11
-644.904892654068
 21
-23.7254981994629
 31
0.0
  0
LINE
  5
   5E5
  8
0
  6
CONTINUOUS
 62
     1
 10
-592.904900283463
 20
-23.4754981994629
 30
0.0
 11
-644.404892683871
 21
-23.4754981994629
 31
0.0
  0
LINE
  5
   5E6
  8
0
  6
CONTINUOUS
 62
     1
 10
-592.904900283463
 20
-22.9754981994629
 30
0.0
 11
-644.404892683871
 21
-22.9754981994629
 31
0.0
  0
LINE
  5
   5E7
  8
0
  6
CONTINUOUS
 62
     1
 10
-592.904900283463
 20
-16.9754925583739
 30
0.0
 11
-613.279894329642
 21
-16.9754925583739
 31
0.0
  0
LINE
  5
   5E8
  8
0
  6
CONTINUOUS
 62
     1
 10
-592.904900283463
 20
-16.4754925583739
 30
0.0
 11
-613.279894146448
 21
-16.4754925583739
 31
0.0
  0
LINE
  5
   5E9
  8
0
  6
CONTINUOUS
 62
     1
 10
-592.904900283463
 20
-6.72549819946289
 30
0.0
 11
-613.279892654068
 21
-6.72549819946289
 31
0.0
  0
LINE
  5
   5EA
  8
0
  6
CONTINUOUS
 62
     1
 10
-592.904900283463
 20
-6.22549819946289
 30
0.0
 11
-613.279892654068
 21
-6.22549819946289
 31
0.0
  0
LINE
  5
   5EB
  8
0
  6
CONTINUOUS
 62
     1
 10
-592.904900283463
 20
-0.225498199462891
 30
0.0
 11
-644.404892683871
 21
-0.225498199462891
 31
0.0
  0
LINE
  5
   5EC
  8
0
  6
CONTINUOUS
 62
     1
 10
-592.904900283463
 20
0.274501800537109
 30
0.0
 11
-644.404892683871
 21
0.274501800537109
 31
0.0
  0
LINE
  5
   5ED
  8
0
  6
DASHDOT
 62
     3
 10
-574.186160643895
 20
-6.72549057006836
 30
0.0
 11
-663.321438080841
 21
-6.72549057006836
 31
0.0
  0
LINE
  5
   5EE
  8
0
  6
CONTINUOUS
 62
     1
 10
-647.904892654068
 20
-32.9754905700684
 30
0.0
 11
-653.654892654068
 21
-32.9754905700684
 31
0.0
  0
LINE
  5
   5EF
  8
0
  6
CONTINUOUS
 62
     1
 10
-583.654892654068
 20
-32.9754905700684
 30
0.0
 11
-589.404892654068
 21
-32.9754905700684
 31
0.0
  0
LINE
  5
   5F0
  8
0
  6
CONTINUOUS
 62
     1
 10
-583.654892654068
 20
19.2745094299316
 30
0.0
 11
-589.404892654069
 21
19.2745094299316
 31
0.0
  0
LINE
  5
   5F1
  8
0
  6
CONTINUOUS
 62
     1
 10
-647.904892654068
 20
19.5245094299316
 30
0.0
 11
-653.654892654068
 21
19.5245094299316
 31
0.0
  0
LINE
  5
   5F2
  8
0
  6
DASHDOT
 62
     3
 10
-663.321438080841
 20
-6.72549057006836
 30
0.0
 11
-671.084833212446
 21
-6.72549057006836
 31
0.0
  0
LINE
  5
   5F3
  8
0
  6
CONTINUOUS
 62
     7
 10
-648.029885024674
 20
-58.8504734802423
 30
0.0
 11
-648.029885024674
 21
-41.3504734802423
 31
0.0
  0
LINE
  5
   5F4
  8
0
  6
CONTINUOUS
 62
     7
 10
-649.829888076432
 20
-58.8504734802423
 30
0.0
 11
-649.829888076432
 21
-41.3504734802423
 31
0.0
  0
LINE
  5
   5F5
  8
0
  6
CONTINUOUS
 62
     7
 10
-651.379891128189
 20
-58.8504734802423
 30
0.0
 11
-651.379891128189
 21
-41.3504734802423
 31
0.0
  0
LINE
  5
   5F6
  8
0
  6
CONTINUOUS
 62
     7
 10
-652.529885024674
 20
-58.8504734802423
 30
0.0
 11
-652.529885024674
 21
-41.3504734802423
 31
0.0
  0
LINE
  5
   5F7
  8
0
  6
CONTINUOUS
 62
     7
 10
-591.079895705826
 20
-58.8504734802423
 30
0.0
 11
-591.079895705826
 21
-46.9754886627197
 31
0.0
  0
LINE
  5
   5F8
  8
0
  6
CONTINUOUS
 62
     7
 10
-589.279900283463
 20
-58.8504734802423
 30
0.0
 11
-589.279900283463
 21
-41.3504734802423
 31
0.0
  0
LINE
  5
   5F9
  8
0
  6
CONTINUOUS
 62
     7
 10
-587.479897231705
 20
-58.8504734802423
 30
0.0
 11
-587.479897231705
 21
-41.3504734802423
 31
0.0
  0
LINE
  5
   5FA
  8
0
  6
CONTINUOUS
 62
     7
 10
-585.929894179947
 20
-58.8504734802423
 30
0.0
 11
-585.929894179947
 21
-41.3504734802423
 31
0.0
  0
LINE
  5
   5FB
  8
0
  6
CONTINUOUS
 62
     7
 10
-584.779900283463
 20
-58.8504734802423
 30
0.0
 11
-584.779900283463
 21
-41.3504734802423
 31
0.0
  0
INSERT
  5
   5FC
  8
255
  6
CONTINUOUS
 62
     7
  2
COPRITERMINALI
 10
-618.654893947399
 20
57.1495018005371
 30
0.0
 41
0.5
 42
0.5
 50
3.50835464724173E-15
 43
0.5
  0
LINE
  5
   5FD
  8
0
  6
CONTINUOUS
 62
     2
 10
-646.779869221983
 20
55.8995018005371
 30
0.0
 11
-646.779869221983
 21
69.8995273807818
 31
0.0
  0
LINE
  5
   5FE
  8
0
  6
CONTINUOUS
 62
     2
 10
-634.279869221983
 20
57.1495052337331
 30
0.0
 11
-634.279869221983
 21
69.8995273807818
 31
0.0
  0
LINE
  5
   5FF
  8
0
  6
CONTINUOUS
 62
     2
 10
-634.279869221983
 20
69.8995273807818
 30
0.0
 11
-646.779869221983
 21
69.8995273807818
 31
0.0
  0
CIRCLE
  5
   600
  8
0
  6
CONTINUOUS
 62
     2
 10
-640.529869221983
 20
63.6495273807818
 30
0.0
 40
2.75
  0
LINE
  5
   601
  8
0
  6
CONTINUOUS
 62
     2
 10
-612.404869221983
 20
69.8995273807818
 30
0.0
 11
-624.904869221983
 21
69.8995273807818
 31
0.0
  0
LINE
  5
   602
  8
0
  6
CONTINUOUS
 62
     2
 10
-612.404869221983
 20
57.1495052337331
 30
0.0
 11
-612.404869221983
 21
69.8995273807818
 31
0.0
  0
LINE
  5
   603
  8
0
  6
CONTINUOUS
 62
     2
 10
-624.904869221983
 20
57.1495052337331
 30
0.0
 11
-624.904869221983
 21
69.8995273807818
 31
0.0
  0
CIRCLE
  5
   604
  8
0
  6
CONTINUOUS
 62
     7
 10
-618.654869221983
 20
63.6495273807818
 30
0.0
 40
2.75
  0
LINE
  5
   605
  8
0
  6
CONTINUOUS
 62
     2
 10
-590.529869221983
 20
57.1495052337331
 30
0.0
 11
-590.529869221983
 21
69.8995273807818
 31
0.0
  0
LINE
  5
   606
  8
0
  6
CONTINUOUS
 62
     2
 10
-590.529869221983
 20
69.8995273807818
 30
0.0
 11
-603.029869221983
 21
69.8995273807818
 31
0.0
  0
LINE
  5
   607
  8
0
  6
CONTINUOUS
 62
     2
 10
-603.029869221983
 20
57.1495052337331
 30
0.0
 11
-603.029869221983
 21
69.8995273807818
 31
0.0
  0
CIRCLE
  5
   608
  8
0
  6
CONTINUOUS
 62
     7
 10
-596.779869221983
 20
63.6495273807818
 30
0.0
 40
2.75
  0
LINE
  5
   609
  8
0
  6
DASHDOT
 62
     7
 10
-596.779869221983
 20
58.3995273807818
 30
0.0
 11
-596.779869221983
 21
68.8995273807818
 31
0.0
  0
LINE
  5
   60A
  8
0
  6
DASHDOT
 62
     7
 10
-591.529869221983
 20
63.6495273807818
 30
0.0
 11
-602.029869221983
 21
63.6495273807818
 31
0.0
  0
LINE
  5
   60B
  8
0
  6
DASHDOT
 62
     7
 10
-618.654869221983
 20
58.3995273807818
 30
0.0
 11
-618.654869221983
 21
68.8995273807818
 31
0.0
  0
LINE
  5
   60C
  8
0
  6
DASHDOT
 62
     7
 10
-613.404869221983
 20
63.6495273807818
 30
0.0
 11
-623.904869221983
 21
63.6495273807818
 31
0.0
  0
LINE
  5
   60D
  8
0
  6
DASHDOT
 62
     7
 10
-640.529869221983
 20
58.3995273807818
 30
0.0
 11
-640.529869221983
 21
68.8995273807818
 31
0.0
  0
LINE
  5
   60E
  8
0
  6
DASHDOT
 62
     7
 10
-635.279869221983
 20
63.6495273807818
 30
0.0
 11
-645.779869221983
 21
63.6495273807818
 31
0.0
  0
LINE
  5
   60F
  8
0
  6
CONTINUOUS
 62
     1
 10
-630.342369221983
 20
58.6495052337331
 30
0.0
 11
-632.342369221983
 21
58.6495052337331
 31
0.0
  0
LINE
  5
   610
  8
0
  6
CONTINUOUS
 62
     1
 10
-626.842369221983
 20
58.6495052337331
 30
0.0
 11
-628.842369221983
 21
58.6495052337331
 31
0.0
  0
LINE
  5
   611
  8
0
  6
CONTINUOUS
 62
     1
 10
-626.842369221983
 20
57.6495052337331
 30
0.0
 11
-632.342369221983
 21
57.6495052337331
 31
0.0
  0
LINE
  5
   612
  8
0
  6
CONTINUOUS
 62
     1
 10
-629.091087170701
 20
107.149505233733
 30
0.0
 11
-630.093651273265
 21
107.149505233733
 31
0.0
  0
LINE
  5
   613
  8
0
  6
CONTINUOUS
 62
     1
 10
-628.842369221983
 20
58.6495052337331
 30
0.0
 11
-629.091087170701
 21
107.149505233733
 31
0.0
  0
LINE
  5
   614
  8
0
  6
CONTINUOUS
 62
     1
 10
-630.342369221983
 20
58.6495052337331
 30
0.0
 11
-630.093651273265
 21
107.149505233733
 31
0.0
  0
LINE
  5
   615
  8
0
  6
CONTINUOUS
 62
     1
 10
-626.842369221983
 20
57.1495052337331
 30
0.0
 11
-626.842369221983
 21
58.6495052337331
 31
0.0
  0
LINE
  5
   616
  8
0
  6
CONTINUOUS
 62
     1
 10
-632.342369221983
 20
57.1495052337331
 30
0.0
 11
-632.342369221983
 21
58.6495052337331
 31
0.0
  0
LINE
  5
   617
  8
0
  6
CONTINUOUS
 62
     1
 10
-606.967369221983
 20
58.6495052337331
 30
0.0
 11
-607.216087170701
 21
107.149505233733
 31
0.0
  0
LINE
  5
   618
  8
0
  6
CONTINUOUS
 62
     1
 10
-608.467369221983
 20
58.6495052337331
 30
0.0
 11
-608.218651273265
 21
107.149505233733
 31
0.0
  0
LINE
  5
   619
  8
0
  6
CONTINUOUS
 62
     1
 10
-607.216087170701
 20
107.149505233733
 30
0.0
 11
-608.218651273265
 21
107.149505233733
 31
0.0
  0
LINE
  5
   61A
  8
0
  6
CONTINUOUS
 62
     1
 10
-604.967369221983
 20
58.6495052337331
 30
0.0
 11
-606.967369221983
 21
58.6495052337331
 31
0.0
  0
LINE
  5
   61B
  8
0
  6
CONTINUOUS
 62
     1
 10
-608.467369221983
 20
58.6495052337331
 30
0.0
 11
-610.467369221983
 21
58.6495052337331
 31
0.0
  0
LINE
  5
   61C
  8
0
  6
CONTINUOUS
 62
     1
 10
-604.967369221983
 20
57.6495052337331
 30
0.0
 11
-610.467369221983
 21
57.6495052337331
 31
0.0
  0
LINE
  5
   61D
  8
0
  6
CONTINUOUS
 62
     1
 10
-604.967369221983
 20
57.1495052337331
 30
0.0
 11
-604.967369221983
 21
58.6495052337331
 31
0.0
  0
LINE
  5
   61E
  8
0
  6
CONTINUOUS
 62
     1
 10
-610.467369221983
 20
57.1495052337331
 30
0.0
 11
-610.467369221983
 21
58.6495052337331
 31
0.0
  0
LINE
  5
   61F
  8
0
  6
CONTINUOUS
 62
     7
 10
-586.654892458442
 20
-72.3504726192182
 30
0.0
 11
-586.654892458442
 21
-71.1004734802426
 31
0.0
  0
LINE
  5
   620
  8
0
  6
CONTINUOUS
 62
     7
 10
-650.654892458442
 20
-72.3504726192182
 30
0.0
 11
-650.654892458442
 21
-71.1004734802424
 31
0.0
  0
LINE
  5
   621
  8
0
  6
CONTINUOUS
 62
     7
 10
-586.654892458442
 20
-72.3504726192182
 30
0.0
 11
-650.654892458442
 21
-72.3504726192182
 31
0.0
  0
LINE
  5
   622
  8
0
  6
CONTINUOUS
 62
     1
 10
-647.904892654068
 20
-40.8504905700683
 30
0.0
 11
-653.154885024674
 21
-40.8504905700683
 31
0.0
  0
LINE
  5
   623
  8
0
  6
CONTINUOUS
 62
     7
 10
-647.904892654068
 20
-41.3504734802423
 30
0.0
 11
-653.654892458442
 21
-41.3504734802423
 31
0.0
  0
CIRCLE
  5
   624
  8
0
  6
CONTINUOUS
 62
     7
 10
-591.129642107112
 20
30.8712251404512
 30
0.0
 40
0.1
  0
TEXT
  5
   625
  8
0
  6
CONTINUOUS
 62
     7
 10
-565.973308577928
 20
-24.1887683737949
 30
0.0
 40
3.00000002980232
  1
=          =
 50
89.9999999480344
 41
0.916666604744064
 72
     2
 11
-565.973308548537
 21
8.26122975213569
 31
0.0
  0
INSERT
  5
   626
  8
0
  6
CONTINUOUS
 62
     7
  2
*UDIM24
 10
0.0
 20
0.0
 30
0.0
  0
INSERT
  5
   627
  8
0
  6
CONTINUOUS
 62
     7
  2
*UDIM25
 10
0.0
 20
0.0
 30
0.0
  0
INSERT
  5
   628
  8
0
  6
CONTINUOUS
 62
     7
  2
*UDIM26
 10
0.0
 20
0.0
 30
0.0
  0
INSERT
  5
   629
  8
0
  6
CONTINUOUS
 62
     7
  2
*UDIM27
 10
0.0
 20
0.0
 30
0.0
  0
INSERT
  5
   62A
  8
0
  6
CONTINUOUS
 62
     7
  2
*UDIM28
 10
0.0
 20
0.0
 30
0.0
  0
INSERT
  5
   62B
  8
0
  6
CONTINUOUS
 62
     7
  2
*UDIM29
 10
0.0
 20
0.0
 30
0.0
  0
INSERT
  5
   62C
  8
0
  6
CONTINUOUS
 62
     7
  2
*UDIM30
 10
0.0
 20
0.0
 30
0.0
  0
INSERT
  5
   62D
  8
0
  6
CONTINUOUS
 62
     5
  2
*UDIM31
 10
0.0
 20
0.0
 30
0.0
  0
TEXT
  5
   62E
  8
0
  6
CONTINUOUS
 62
     7
 10
-633.685255213944
 20
-92.5749818597024
 30
0.0
 40
3.00000002980232
  1
=         =
 50
359.999999948034
 41
0.916666604744064
 72
     2
 11
-603.985256929564
 21
-92.5749818864901
 31
0.0
  0
INSERT
  5
   62F
  8
0
  6
CONTINUOUS
 62
     7
  2
*UDIM32
 10
0.0
 20
0.0
 30
0.0
  0
TEXT
  5
   630
  8
0
  6
CONTINUOUS
 62
     7
 10
-620.976036365191
 20
-122.528389494021
 30
0.0
 40
3.00000002980232
  1
Y
 50
359.999999948034
 41
0.916666604744064
 72
     2
 11
-618.776036496321
 21
-122.528389496005
 31
0.0
  0
INSERT
  5
   631
  8
0
  6
CONTINUOUS
 62
     7
  2
*UDIM33
 10
0.0
 20
0.0
 30
0.0
  0
INSERT
  5
   632
  8
0
  6
CONTINUOUS
 62
     7
  2
*UDIM34
 10
0.0
 20
0.0
 30
0.0
  0
INSERT
  5
   633
  8
0
  6
CONTINUOUS
 62
     7
  2
*UDIM35
 10
0.0
 20
0.0
 30
0.0
  0
INSERT
  5
   634
  8
0
  6
CONTINUOUS
 62
     7
  2
*UDIM36
 10
0.0
 20
0.0
 30
0.0
  0
TEXT
  5
   635
  8
0
  6
CONTINUOUS
 62
     7
 10
-554.121265323323
 20
-8.04007314970334
 30
0.0
 40
3.00000002980232
  1
X
 50
359.999999948034
 41
0.916666604744064
 72
     1
 11
-553.021265387535
 21
-6.54007313579432
 31
0.0
 73
     2
  0
TEXT
  5
   636
  8
0
  6
CONTINUOUS
 62
     7
 10
-682.794624240559
 20
-8.15336584379513
 30
0.0
 40
3.00000002980232
  1
X
 50
359.999999948034
 41
0.916666604744064
 72
     1
 11
-681.694624304771
 21
-6.65336582988611
 31
0.0
 73
     2
  0
TEXT
  5
   637
  8
0
  6
CONTINUOUS
 62
     7
 10
-619.803306491536
 20
93.6268961496131
 30
0.0
 40
3.00000002980232
  1
Y
 50
359.999999948034
 41
0.916666604744064
 72
     1
 11
-618.703306555748
 21
95.1268961635221
 31
0.0
 73
     2
  0
INSERT
  5
   638
  8
255
  6
CONTINUOUS
 62
     7
  2
MOSTRINA
 10
-676.074021072037
 20
-61.7158012390137
 30
0.0
 41
0.5
 42
0.5
 50
3.50835464724173E-15
 43
0.5
  0
LINE
  5
   639
  8
0
  6
CONTINUOUS
 62
     7
 10
-365.013092041016
 20
27.7306518554688
 30
0.0
 11
-337.013092041016
 21
27.7306518554688
 31
0.0
  0
LINE
  5
   63A
  8
0
  6
CONTINUOUS
 62
     7
 10
-365.013092041016
 20
55.7306518554688
 30
0.0
 11
-337.013092041016
 21
55.7306518554688
 31
0.0
  0
LINE
  5
   63B
  8
0
  6
CONTINUOUS
 62
     7
 10
-365.013092041016
 20
55.7306518554688
 30
0.0
 11
-365.013092041016
 21
27.7306518554688
 31
0.0
  0
LINE
  5
   63C
  8
0
  6
CONTINUOUS
 62
     7
 10
-337.013092041016
 20
55.7306518554688
 30
0.0
 11
-337.013092041016
 21
27.7306518554688
 31
0.0
  0
CIRCLE
  5
   63D
  8
0
  6
CONTINUOUS
 62
     7
 10
-361.013092041016
 20
59.4806518554688
 30
0.0
 40
0.875
  0
CIRCLE
  5
   63E
  8
0
  6
CONTINUOUS
 62
     7
 10
-341.013092041016
 20
59.4806518554688
 30
0.0
 40
0.875
  0
CIRCLE
  5
   63F
  8
0
  6
CONTINUOUS
 62
     7
 10
-361.013092041016
 20
23.9806518554688
 30
0.0
 40
0.875
  0
CIRCLE
  5
   640
  8
0
  6
CONTINUOUS
 62
     7
 10
-341.013092041016
 20
23.9806518554688
 30
0.0
 40
0.875
  0
LINE
  5
   641
  8
0
  6
DASHDOT
 62
     7
 10
-361.013092041016
 20
61.1056518554688
 30
0.0
 11
-361.013092041016
 21
57.8556518554688
 31
0.0
  0
LINE
  5
   642
  8
0
  6
DASHDOT
 62
     7
 10
-362.638092041016
 20
59.4806518554688
 30
0.0
 11
-359.388092041016
 21
59.4806518554688
 31
0.0
  0
LINE
  5
   643
  8
0
  6
DASHDOT
 62
     7
 10
-341.013092041016
 20
61.1056518554688
 30
0.0
 11
-341.013092041016
 21
57.8556518554688
 31
0.0
  0
LINE
  5
   644
  8
0
  6
DASHDOT
 62
     7
 10
-342.638092041016
 20
59.4806518554688
 30
0.0
 11
-339.388092041016
 21
59.4806518554688
 31
0.0
  0
LINE
  5
   645
  8
0
  6
DASHDOT
 62
     7
 10
-341.013092041016
 20
25.6056518554688
 30
0.0
 11
-341.013092041016
 21
22.3556518554688
 31
0.0
  0
LINE
  5
   646
  8
0
  6
DASHDOT
 62
     7
 10
-342.638092041016
 20
23.9806518554688
 30
0.0
 11
-339.388092041016
 21
23.9806518554688
 31
0.0
  0
LINE
  5
   647
  8
0
  6
DASHDOT
 62
     7
 10
-361.013092041016
 20
25.6056518554688
 30
0.0
 11
-361.013092041016
 21
22.3556518554688
 31
0.0
  0
LINE
  5
   648
  8
0
  6
DASHDOT
 62
     7
 10
-362.638092041016
 20
23.9806518554688
 30
0.0
 11
-359.388092041016
 21
23.9806518554688
 31
0.0
  0
LINE
  5
   649
  8
0
  6
DASHDOT
 62
     7
 10
-351.013092041016
 20
69.1007641408058
 30
0.0
 11
-351.013092041016
 21
12.6074010106477
 31
0.0
  0
LINE
  5
   64A
  8
0
  6
CONTINUOUS
 62
     7
 10
-367.833668584681
 20
62.1318375106748
 30
0.0
 11
-333.879108361374
 21
62.1318375106748
 31
0.0
  0
LINE
  5
   64B
  8
0
  6
CONTINUOUS
 62
     7
 10
-367.833668584681
 20
20.5667724097295
 30
0.0
 11
-333.879108361374
 21
20.5667724097295
 31
0.0
  0
LINE
  5
   64C
  8
0
  6
CONTINUOUS
 62
     7
 10
-333.879108361374
 20
62.1318375106748
 30
0.0
 11
-333.879108361374
 21
20.5667724097295
 31
0.0
  0
LINE
  5
   64D
  8
0
  6
CONTINUOUS
 62
     7
 10
-367.833668584681
 20
62.1318375106748
 30
0.0
 11
-367.833668584681
 21
20.5667724097295
 31
0.0
  0
LINE
  5
   64E
  8
0
  6
DASHDOT
 62
     7
 10
-374.647397187324
 20
41.7306518554688
 30
0.0
 11
-326.773127209093
 21
41.7306518554688
 31
0.0
  0
TEXT
  5
   64F
  8
0
  6
CONTINUOUS
 62
     5
 10
-372.778431829588
 20
31.4906933952422
 30
0.0
 40
3.00000002980232
  1
=     =
 50
449.999999844103
 41
0.916666604744064
 72
     2
 11
-372.778431778824
 21
50.1906923134179
 31
0.0
  0
TEXT
  5
   650
  8
0
  6
CONTINUOUS
 62
     5
 10
-381.691960643788
 20
27.5536916885824
 30
0.0
 40
3.00000002980232
  1
=        =
 50
449.999999844103
 41
0.916666604744064
 72
     2
 11
-381.691960570628
 21
54.503690131411
 31
0.0
  0
INSERT
  5
   651
  8
0
  6
CONTINUOUS
 62
     7
  2
*UDIM37
 10
0.0
 20
0.0
 30
0.0
  0
TEXT
  5
   652
  8
0
  6
CONTINUOUS
 62
     7
 10
-357.9136340341
 20
74.9549977217458
 30
0.0
 40
3.00000002980232
  1
=   =
 50
359.999999844103
 41
0.916666604744064
 72
     2
 11
-344.713634799026
 21
74.9549976858961
 31
0.0
  0
TEXT
  5
   653
  8
0
  6
CONTINUOUS
 62
     7
 10
-357.972176285687
 20
68.3982560072683
 30
0.0
 40
3.00000002980232
  1
=   =
 50
359.999999844103
 41
0.916666604744064
 72
     2
 11
-344.772177050613
 21
68.3982559714186
 31
0.0
  0
INSERT
  5
   654
  8
0
  6
CONTINUOUS
 62
     7
  2
*UDIM38
 10
0.0
 20
0.0
 30
0.0
  0
INSERT
  5
   655
  8
0
  6
CONTINUOUS
 62
     7
  2
*UDIM39
 10
0.0
 20
0.0
 30
0.0
  0
INSERT
  5
   656
  8
0
  6
CONTINUOUS
 62
     7
  2
*UDIM40
 10
0.0
 20
0.0
 30
0.0
  0
INSERT
  5
   657
  8
0
  6
CONTINUOUS
 62
     7
  2
*UDIM41
 10
0.0
 20
0.0
 30
0.0
  0
TEXT
  5
   658
  8
0
  6
CONTINUOUS
 62
     7
 10
-352.201372037433
 20
5.7555579447797
 30
0.0
 40
3.00000002980232
  1
Y
 50
359.999999844103
 41
0.916666604744064
 72
     2
 11
-350.001372168564
 21
5.75555793880475
 31
0.0
  0
TEXT
  5
   659
  8
0
  6
CONTINUOUS
 62
     7
 10
-351.264694581531
 20
84.4950141215375
 30
0.0
 40
3.00000002980232
  1
Y
 50
359.999999844103
 41
0.916666604744064
 72
     2
 11
-349.064694712662
 21
84.4950141155626
 31
0.0
  0
TEXT
  5
   65A
  8
0
  6
CONTINUOUS
 62
     7
 10
-325.785196195148
 20
40.6770320439389
 30
0.0
 40
3.00000002980232
  1
X
 50
359.999999844103
 41
0.916666604744064
 72
     2
 11
-323.585196326279
 21
40.677032037964
 31
0.0
  0
TEXT
  5
   65B
  8
0
  6
CONTINUOUS
 62
     7
 10
-396.805885205768
 20
40.6770320439389
 30
0.0
 40
3.00000002980232
  1
X
 50
359.999999844103
 41
0.916666604744064
 72
     2
 11
-394.605885336899
 21
40.677032037964
 31
0.0
  0
ENDSEC
  0
EOF
