  0
SECTION
  2
HEADER
  9
$ACADVER
  1
AC1009
  9
$DWGCODEPAGE
  3
iso8859-1
  9
$INSBASE
 10
0.0
 20
0.0
 30
0.0
  9
$EXTMIN
 10
1.0E20
 20
1.0E20
  9
$EXTMAX
 10
-1.0E20
 20
-1.0E20
  9
$LIMMIN
 10
0.0
 20
0.0
  9
$LIMMAX
 10
12.0
 20
9.0
  9
$ORTHOMODE
 70
     0
  9
$REGENMODE
 70
     1
  9
$FILLMODE
 70
     1
  9
$QTEXTMODE
 70
     0
  9
$MIRRTEXT
 70
     1
  9
$DRAGMODE
 70
     2
  9
$LTSCALE
 40
15.0
  9
$OSMODE
 70
     0
  9
$ATTMODE
 70
     1
  9
$TEXTSIZE
 40
0.2
  9
$TRACEWID
 40
0.05
  9
$TEXTSTYLE
  7
STANDARD
  9
$CLAYER
  8
0
  9
$CELTYPE
  6
DASHED
  9
$CECOLOR
 62
   256
  9
$DIMSCALE
 40
1.0
  9
$DIMASZ
 40
0.18
  9
$DIMEXO
 40
0.0625
  9
$DIMDLI
 40
0.38
  9
$DIMRND
 40
0.0
  9
$DIMDLE
 40
0.0
  9
$DIMEXE
 40
0.18
  9
$DIMTP
 40
0.0
  9
$DIMTM
 40
0.0
  9
$DIMTXT
 40
0.18
  9
$DIMCEN
 40
0.09
  9
$DIMTSZ
 40
0.0
  9
$DIMTOL
 70
     0
  9
$DIMLIM
 70
     0
  9
$DIMTIH
 70
     1
  9
$DIMTOH
 70
     1
  9
$DIMSE1
 70
     0
  9
$DIMSE2
 70
     0
  9
$DIMTAD
 70
     0
  9
$DIMZIN
 70
     0
  9
$DIMBLK
  1

  9
$DIMASO
 70
     1
  9
$DIMSHO
 70
     1
  9
$DIMPOST
  1

  9
$DIMAPOST
  1

  9
$DIMALT
 70
     0
  9
$DIMALTD
 70
     2
  9
$DIMALTF
 40
25.4
  9
$DIMLFAC
 40
1.0
  9
$DIMTOFL
 70
     0
  9
$DIMTVP
 40
0.0
  9
$DIMTIX
 70
     0
  9
$DIMSOXD
 70
     0
  9
$DIMSAH
 70
     0
  9
$DIMBLK1
  1

  9
$DIMBLK2
  1

  9
$DIMSTYLE
  2
STANDARD
  9
$DIMCLRD
 70
     0
  9
$DIMCLRE
 70
     0
  9
$DIMCLRT
 70
     0
  9
$DIMTFAC
 40
1.0
  9
$DIMGAP
 40
0.09
  9
$LUNITS
 70
     2
  9
$LUPREC
 70
     4
  9
$AXISMODE
 70
     0
  9
$AXISUNIT
 10
0.0
 20
0.0
  9
$SKETCHINC
 40
0.1
  9
$FILLETRAD
 40
0.0
  9
$AUNITS
 70
     0
  9
$AUPREC
 70
     0
  9
$MENU
  1
acad
  9
$ELEVATION
 40
0.0
  9
$PELEVATION
 40
0.0
  9
$THICKNESS
 40
0.0
  9
$LIMCHECK
 70
     0
  9
$BLIPMODE
 70
     1
  9
$CHAMFERA
 40
0.0
  9
$CHAMFERB
 40
0.0
  9
$SKPOLY
 70
     0
  9
$TDCREATE
 40
0.000000000
  9
$TDUPDATE
 40
0.000000000
  9
$TDINDWG
 40
0.0
  9
$TDUSRTIMER
 40
0.0
  9
$USRTIMER
 70
     1
  9
$ANGBASE
 50
0.0
  9
$ANGDIR
 70
     0
  9
$PDMODE
 70
     0
  9
$PDSIZE
 40
0.0
  9
$PLINEWID
 40
0.0
  9
$COORDS
 70
     1
  9
$SPLFRAME
 70
     0
  9
$SPLINETYPE
 70
     6
  9
$SPLINESEGS
 70
     8
  9
$ATTDIA
 70
     0
  9
$ATTREQ
 70
     1
  9
$HANDLING
 70
     1
  9
$HANDSEED
  5
   79E
  9
$SURFTAB1
 70
     6
  9
$SURFTAB2
 70
     6
  9
$SURFTYPE
 70
     6
  9
$SURFU
 70
     6
  9
$SURFV
 70
     6
  9
$UCSNAME
  2

  9
$UCSORG
 10
0.0
 20
0.0
 30
0.0
  9
$UCSXDIR
 10
1.0
 20
0.0
 30
0.0
  9
$UCSYDIR
 10
0.0
 20
1.0
 30
0.0
  9
$PUCSNAME
  2

  9
$PUCSORG
 10
0.0
 20
0.0
 30
0.0
  9
$PUCSXDIR
 10
1.0
 20
0.0
 30
0.0
  9
$PUCSYDIR
 10
0.0
 20
1.0
 30
0.0
  9
$USERI1
 70
     0
  9
$USERI2
 70
     0
  9
$USERI3
 70
     0
  9
$USERI4
 70
     0
  9
$USERI5
 70
     0
  9
$USERR1
 40
0.0
  9
$USERR2
 40
0.0
  9
$USERR3
 40
0.0
  9
$USERR4
 40
0.0
  9
$USERR5
 40
0.0
  9
$WORLDVIEW
 70
     1
  9
$SHADEDGE
 70
     3
  9
$SHADEDIF
 70
    70
  9
$TILEMODE
 70
     1
  9
$MAXACTVP
 70
    16
  9
$PINSBASE
 10
0.0
 20
0.0
 30
0.0
  9
$PLIMCHECK
 70
     0
  9
$PEXTMIN
 10
1.0E20
 20
1.0E20
 30
1.0E20
  9
$PEXTMAX
 10
-1.0E20
 20
-1.0E20
 30
-1.0E20
  9
$PLIMMIN
 10
0.0
 20
0.0
  9
$PLIMMAX
 10
12.0
 20
9.0
  9
$UNITMODE
 70
     0
  9
$VISRETAIN
 70
     0
  0
ENDSEC
  0
SECTION
  2
TABLES
  0
TABLE
  2
VPORT
 70
     1
  0
VPORT
  2
*ACTIVE
 70
     0
 10
0.0
 20
0.0
 11
1.0
 21
1.0
 12
6.801242
 22
4.5
 13
0.0
 23
0.0
 14
1.0
 24
1.0
 15
0.0
 25
0.0
 16
0.0
 26
0.0
 36
1.0
 17
0.0
 27
0.0
 37
0.0
 40
9.0
 41
1.511387
 42
50.0
 43
0.0
 44
0.0
 50
0.0
 51
0.0
 71
     0
 72
   100
 73
     1
 74
     1
 75
     0
 76
     0
 77
     0
 78
     0
  0
ENDTAB
  0
TABLE
  2
LTYPE
 70
    41
  0
LTYPE
  2
BYBLOCK
 70
     0
  3

 72
    65
 73
     0
 40
0.0
  0
LTYPE
  2
BYLAYER
 70
     0
  3

 72
    65
 73
     0
 40
0.0
  0
LTYPE
  2
CONTINUOUS
 70
     0
  3
Solid line
 72
    65
 73
     0
 40
0.0
  0
LTYPE
  2
BORDER
 70
    64
  3
__ __ . __ __ . __ __ . __ __ . __ __ . __ __ .
 72
    65
 73
     6
 40
1.75
 49
0.5
 49
-0.25
 49
0.5
 49
-0.25
 49
0.0
 49
-0.25
  0
LTYPE
  2
BORDER2
 70
    64
  3
__.__.__.__.__.__.__.__.__.__.__.__.__.__.__.__
 72
    65
 73
     6
 40
0.875
 49
0.25
 49
-0.125
 49
0.25
 49
-0.125
 49
0.0
 49
-0.125
  0
LTYPE
  2
BORDERX2
 70
    64
  3
____  ____  .  ____  ____  .  ____  ____  .  __
 72
    65
 73
     6
 40
3.5
 49
1.0
 49
-0.5
 49
1.0
 49
-0.5
 49
0.0
 49
-0.5
  0
LTYPE
  2
CENTER
 70
    64
  3
____ _ ____ _ ____ _ ____ _ ____ _ ____ _ ____
 72
    65
 73
     4
 40
2.0
 49
1.25
 49
-0.25
 49
0.25
 49
-0.25
  0
LTYPE
  2
CENTER2
 70
    64
  3
___ _ ___ _ ___ _ ___ _ ___ _ ___ _ ___ _ ___ _
 72
    65
 73
     4
 40
1.125
 49
0.75
 49
-0.125
 49
0.125
 49
-0.125
  0
LTYPE
  2
CENTERX2
 70
    64
  3
________  __  ________  __  ________  __  _____
 72
    65
 73
     4
 40
4.0
 49
2.5
 49
-0.5
 49
0.5
 49
-0.5
  0
LTYPE
  2
DASHDOT
 70
    64
  3
__ . __ . __ . __ . __ . __ . __ . __ . __ . __
 72
    65
 73
     4
 40
1.0
 49
0.5
 49
-0.25
 49
0.0
 49
-0.25
  0
LTYPE
  2
DASHDOT2
 70
    64
  3
_._._._._._._._._._._._._._._._._._._._._._._._
 72
    65
 73
     4
 40
0.5
 49
0.25
 49
-0.125
 49
0.0
 49
-0.125
  0
LTYPE
  2
DASHDOTX2
 70
    64
  3
____  .  ____  .  ____  .  ____  .  ____  .  __
 72
    65
 73
     4
 40
2.0
 49
1.0
 49
-0.5
 49
0.0
 49
-0.5
  0
LTYPE
  2
DASHED
 70
    64
  3
__ __ __ __ __ __ __ __ __ __ __ __ __ __ __ __
 72
    65
 73
     2
 40
0.75
 49
0.5
 49
-0.25
  0
LTYPE
  2
DASHED2
 70
    64
  3
_ _ _ _ _ _ _ _ _ _ _ _ _ _ _ _ _ _ _ _ _ _ _ _
 72
    65
 73
     2
 40
0.375
 49
0.25
 49
-0.125
  0
LTYPE
  2
DASHEDX2
 70
    64
  3
____  ____  ____  ____  ____  ____  ____  ____
 72
    65
 73
     2
 40
1.5
 49
1.0
 49
-0.5
  0
LTYPE
  2
DIVIDE
 70
    64
  3
____ . . ____ . . ____ . . ____ . . ____ . . __
 72
    65
 73
     6
 40
1.25
 49
0.5
 49
-0.25
 49
0.0
 49
-0.25
 49
0.0
 49
-0.25
  0
LTYPE
  2
DIVIDE2
 70
    64
  3
__..__..__..__..__..__..__..__..__..__..__..__.
 72
    65
 73
     6
 40
0.625
 49
0.25
 49
-0.125
 49
0.0
 49
-0.125
 49
0.0
 49
-0.125
  0
LTYPE
  2
DIVIDEX2
 70
    64
  3
________  .  .  ________  .  .  ________  .  .
 72
    65
 73
     6
 40
2.5
 49
1.0
 49
-0.5
 49
0.0
 49
-0.5
 49
0.0
 49
-0.5
  0
LTYPE
  2
DOT
 70
    64
  3
. . . . . . . . . . . . . . . . . . . . . . . .
 72
    65
 73
     2
 40
0.25
 49
0.0
 49
-0.25
  0
LTYPE
  2
DOT2
 70
    64
  3
...............................................
 72
    65
 73
     2
 40
0.125
 49
0.0
 49
-0.125
  0
LTYPE
  2
DOTX2
 70
    64
  3
.  .  .  .  .  .  .  .  .  .  .  .  .  .  .  .
 72
    65
 73
     2
 40
0.5
 49
0.0
 49
-0.5
  0
LTYPE
  2
HIDDEN
 70
    64
  3
__ __ __ __ __ __ __ __ __ __ __ __ __ __ __ __
 72
    65
 73
     2
 40
0.375
 49
0.25
 49
-0.125
  0
LTYPE
  2
HIDDEN2
 70
    64
  3
_ _ _ _ _ _ _ _ _ _ _ _ _ _ _ _ _ _ _ _ _ _ _ _
 72
    65
 73
     2
 40
0.1875
 49
0.125
 49
-0.0625
  0
LTYPE
  2
HIDDENX2
 70
    64
  3
____ ____ ____ ____ ____ ____ ____ ____ ____ __
 72
    65
 73
     2
 40
0.75
 49
0.5
 49
-0.25
  0
LTYPE
  2
PHANTOM
 70
    64
  3
______  __  __  ______  __  __  ______  __  __
 72
    65
 73
     6
 40
2.5
 49
1.25
 49
-0.25
 49
0.25
 49
-0.25
 49
0.25
 49
-0.25
  0
LTYPE
  2
PHANTOM2
 70
    64
  3
___ _ _ ___ _ _ ___ _ _ ___ _ _ ___ _ _ ___ _ _
 72
    65
 73
     6
 40
1.25
 49
0.625
 49
-0.125
 49
0.125
 49
-0.125
 49
0.125
 49
-0.125
  0
LTYPE
  2
PHANTOMX2
 70
    64
  3
____________    ____    ____    ____________
 72
    65
 73
     6
 40
5.0
 49
2.5
 49
-0.5
 49
0.5
 49
-0.5
 49
0.5
 49
-0.5
  0
LTYPE
  2
ACAD_ISO02W100
 70
    64
  3
__ __ __ __ __ __ __ __ __ __ __ __ __ __ __ __
 72
    65
 73
     2
 40
15.0
 49
12.0
 49
-3.0
  0
LTYPE
  2
ACAD_ISO03W100
 70
    64
  3
__    __    __    __    __    __    __    __
 72
    65
 73
     2
 40
30.0
 49
12.0
 49
-18.0
  0
LTYPE
  2
ACAD_ISO04W100
 70
    64
  3
____ . ____ . ____ . ____ . ____ . ____ . ____
 72
    65
 73
     4
 40
30.5
 49
24.0
 49
-3.0
 49
0.5
 49
-3.0
  0
LTYPE
  2
ACAD_ISO05W100
 70
    64
  3
____ .. ____ .. ____ .. ____ .. ____ .. ____ ..
 72
    65
 73
     6
 40
34.0
 49
24.0
 49
-3.0
 49
0.5
 49
-3.0
 49
0.5
 49
-3.0
  0
LTYPE
  2
ACAD_ISO06W100
 70
    64
  3
____ ... ____ ... ____ ... ____ ... ____ ... __
 72
    65
 73
     8
 40
37.5
 49
24.0
 49
-3.0
 49
0.5
 49
-3.0
 49
0.5
 49
-3.0
 49
0.5
 49
-3.0
  0
LTYPE
  2
ACAD_ISO07W100
 70
    64
  3
. . . . . . . . . . . . . . . . . . . . . . . .
 72
    65
 73
     2
 40
3.5
 49
0.5
 49
-3.0
  0
LTYPE
  2
ACAD_ISO08W100
 70
    64
  3
____ __ ____ __ ____ __ ____ ____ __ __ ____ __
 72
    65
 73
     4
 40
36.0
 49
24.0
 49
-3.0
 49
6.0
 49
-3.0
  0
LTYPE
  2
ACAD_ISO09W100
 70
    64
  3
____ __ __ ____ __ __ ____ __ __ ____ __ __ ___
 72
    65
 73
     6
 40
45.0
 49
24.0
 49
-3.0
 49
6.0
 49
-3.0
 49
6.0
 49
-3.0
  0
LTYPE
  2
ACAD_ISO10W100
 70
    64
  3
__ . __ . __ . __ . __ . __ . __ . __ . __ . __
 72
    65
 73
     4
 40
18.5
 49
12.0
 49
-3.0
 49
0.5
 49
-3.0
  0
LTYPE
  2
ACAD_ISO11W100
 70
    64
  3
__ __ . __ __ . __ __ . __ __ . __ __ . __ __ .
 72
    65
 73
     6
 40
33.5
 49
12.0
 49
-3.0
 49
12.0
 49
-3.0
 49
0.5
 49
-3.0
  0
LTYPE
  2
ACAD_ISO12W100
 70
    64
  3
__ . . __ . . __ . . __ . . __ . . __ . . __ .
 72
    65
 73
     6
 40
22.0
 49
12.0
 49
-3.0
 49
0.5
 49
-3.0
 49
0.5
 49
-3.0
  0
LTYPE
  2
ACAD_ISO13W100
 70
    64
  3
__ __ . . __ __ . . __ __ . . __ __ . . __ __ .
 72
    65
 73
     8
 40
37.0
 49
12.0
 49
-3.0
 49
12.0
 49
-3.0
 49
0.5
 49
-3.0
 49
0.5
 49
-3.0
  0
LTYPE
  2
ACAD_ISO14W100
 70
    64
  3
__ . . . __ . . . __ . . . __ . . . __ . . . __
 72
    65
 73
     8
 40
25.5
 49
12.0
 49
-3.0
 49
0.5
 49
-3.0
 49
0.5
 49
-3.0
 49
0.5
 49
-3.0
  0
LTYPE
  2
ACAD_ISO15W100
 70
    64
  3
__ __ . . . __ __ . . . __ __ . . . __ __ . . .
 72
    65
 73
    10
 40
40.5
 49
12.0
 49
-3.0
 49
12.0
 49
-3.0
 49
0.5
 49
-3.0
 49
0.5
 49
-3.0
 49
0.5
 49
-3.0
  0
ENDTAB
  0
TABLE
  2
STYLE
 70
     4
  0
STYLE
  2
STANDARD
 70
    64
 40
0.0
 41
1.0
 50
0.0
 71
     0
 42
0.2
  3
txt
  4

  0
STYLE
  2
TOLERANCE
 70
    64
 40
0.0
 41
1.0
 50
0.0
 71
     0
 42
0.2
  3
../igesfont/iges1003.shx
  4

  0
STYLE
  2
ROMANS
 70
    64
 40
0.0
 41
1.0
 50
0.0
 71
     0
 42
0.2
  3
romans.shx
  4

  0
STYLE
  2
ROMANC
 70
    64
 40
0.0
 41
1.0
 50
0.0
 71
     0
 42
0.2
  3
romanc.shx
  4

  0
ENDTAB
  0
TABLE
  2
DIMSTYLE
 70
     2
  0
DIMSTYLE
  2
UNNAMED
 70
     0
  3

  4

  5

  6

  7

 40
1.0
 41
0.18
 42
0.0625
 43
0.38
 44
0.18
 45
0.0
 46
0.0
 47
0.0
 48
0.0
140
0.18
141
0.09
142
0.0
143
25.4
144
1.0
145
0.0
146
1.0
147
0.09
 71
     0
 72
     0
 73
     1
 74
     1
 75
     0
 76
     0
 77
     0
 78
     0
170
     0
171
     2
172
     0
173
     0
174
     0
175
     0
176
     0
177
     0
178
     0
  0
DIMSTYLE
  2
STANDARD
 70
     0
  3

  4

  5

  6

  7

 40
1.0
 41
0.18
 42
0.0625
 43
0.38
 44
0.18
 45
0.0
 46
0.0
 47
0.0
 48
0.0
140
0.18
141
0.09
142
0.0
143
25.4
144
1.0
145
0.0
146
1.0
147
0.09
 71
     0
 72
     0
 73
     1
 74
     1
 75
     0
 76
     0
 77
     0
 78
     0
170
     0
171
     2
172
     0
173
     0
174
     0
175
     0
176
     0
177
     0
178
     0
  0
ENDTAB
  0
TABLE
  2
LAYER
 70
     2
  0
LAYER
  2
0
 70
     0
 62
     7
  6
CONTINUOUS
  0
LAYER
  2
255
 70
     0
 62
     7
  6
CONTINUOUS
  0
ENDTAB
  0
ENDSEC
  0
SECTION
  2
BLOCKS
  0
BLOCK
  5
     B
  8
0
  6
CONTINUOUS
 62
     0
  2
$1MOSTRA
 70
    64
 10
0.0
 20
0.0
 30
0.0
  3
$1MOSTRA
  0
LINE
  5
     C
  8
0
  6
CONTINUOUS
 62
     0
 10
131.0
 20
-24.0000152587891
 30
0.0
 11
131.0
 21
169.499984741211
 31
0.0
  0
LINE
  5
     D
  8
0
  6
CONTINUOUS
 62
     0
 10
-94.7500023146612
 20
-25.250020980835
 30
0.0
 11
129.75
 21
-25.250020980835
 31
0.0
  0
LINE
  5
     E
  8
0
  6
CONTINUOUS
 62
     0
 10
-96.0
 20
-24.000020980835
 30
0.0
 11
-96.0
 21
169.499979019165
 31
0.0
  0
LINE
  5
     F
  8
0
  6
CONTINUOUS
 62
     0
 10
-87.0
 20
170.749984741211
 30
0.0
 11
129.75
 21
170.749984741211
 31
0.0
  0
LINE
  5
    10
  8
0
  6
CONTINUOUS
 62
     0
 10
-94.7500138961029
 20
170.749984741211
 30
0.0
 11
-87.0
 21
170.749984741211
 31
0.0
  0
LINE
  5
    11
  8
0
  6
CONTINUOUS
 62
     0
 10
78.0
 20
-5.25002145767212
 30
0.0
 11
78.0
 21
-4.2500216960907
 31
0.0
  0
LINE
  5
    12
  8
0
  6
CONTINUOUS
 62
     0
 10
-87.0
 20
-5.25002145767211
 30
0.0
 11
-87.0
 21
-4.25002169609069
 31
0.0
  0
LINE
  5
    13
  8
0
  6
CONTINUOUS
 62
     0
 10
-86.0
 20
-5.25002145767211
 30
0.0
 11
77.0
 21
-5.25002145767212
 31
0.0
  0
LINE
  5
    14
  8
0
  6
CONTINUOUS
 62
     0
 10
78.0
 20
149.749984741211
 30
0.0
 11
78.0
 21
150.749984741211
 31
0.0
  0
LINE
  5
    15
  8
0
  6
CONTINUOUS
 62
     0
 10
-87.0
 20
149.749984741211
 30
0.0
 11
-87.0
 21
150.749984741211
 31
0.0
  0
LINE
  5
    16
  8
0
  6
CONTINUOUS
 62
     0
 10
-86.0
 20
-25.250020980835
 30
0.0
 11
-86.0
 21
-5.25002098083496
 31
0.0
  0
LINE
  5
    17
  8
0
  6
CONTINUOUS
 62
     0
 10
-87.0
 20
-25.250020980835
 30
0.0
 11
-87.0
 21
-5.25002098083496
 31
0.0
  0
LINE
  5
    18
  8
0
  6
CONTINUOUS
 62
     0
 10
-87.0
 20
-4.25002169609069
 30
0.0
 11
-87.0
 21
149.749978303909
 31
0.0
  0
LINE
  5
    19
  8
0
  6
CONTINUOUS
 62
     0
 10
-87.0
 20
150.749984741211
 30
0.0
 11
-87.0
 21
170.749984741211
 31
0.0
  0
LINE
  5
    1A
  8
0
  6
CONTINUOUS
 62
     0
 10
78.0
 20
-25.250020980835
 30
0.0
 11
78.0
 21
-5.25002098083497
 31
0.0
  0
LINE
  5
    1B
  8
0
  6
CONTINUOUS
 62
     0
 10
78.0
 20
-4.2500216960907
 30
0.0
 11
78.0
 21
22.6249783039093
 31
0.0
  0
LINE
  5
    1C
  8
0
  6
CONTINUOUS
 62
     0
 10
78.0
 20
23.624979019165
 30
0.0
 11
78.0
 21
64.624979019165
 31
0.0
  0
LINE
  5
    1D
  8
0
  6
CONTINUOUS
 62
     0
 10
78.0
 20
65.6249771118164
 30
0.0
 11
78.0
 21
149.749984741211
 31
0.0
  0
LINE
  5
    1E
  8
0
  6
CONTINUOUS
 62
     0
 10
78.0
 20
150.749984741211
 30
0.0
 11
78.0
 21
170.749984741211
 31
0.0
  0
LINE
  5
    1F
  8
0
  6
CONTINUOUS
 62
     0
 10
77.0
 20
-25.250020980835
 30
0.0
 11
77.0
 21
-5.25002098083497
 31
0.0
  0
LINE
  5
    20
  8
0
  6
CONTINUOUS
 62
     0
 10
112.0
 20
23.624979019165
 30
0.0
 11
112.0
 21
64.624979019165
 31
0.0
  0
LINE
  5
    21
  8
0
  6
CONTINUOUS
 62
     0
 10
-86.0
 20
150.749984741211
 30
0.0
 11
77.0
 21
150.749984741211
 31
0.0
  0
LINE
  5
    22
  8
0
  6
DOT
 62
     0
 10
78.0
 20
22.6249809265137
 30
0.0
 11
78.0
 21
23.6249809265137
 31
0.0
  0
LINE
  5
    23
  8
0
  6
DOT
 62
     0
 10
78.0
 20
64.6249847412109
 30
0.0
 11
78.0
 21
65.6249847412109
 31
0.0
  0
LINE
  5
    24
  8
0
  6
CONTINUOUS
 62
     0
 10
-95.2283575359481
 20
170.654833276614
 30
0.0
 11
-94.7500021275396
 21
170.749987082197
 31
0.0
  0
LINE
  5
    25
  8
0
  6
CONTINUOUS
 62
     0
 10
-95.6338828572815
 20
170.383870758251
 30
0.0
 11
-95.2283576589463
 21
170.654836342308
 31
0.0
  0
LINE
  5
    26
  8
0
  6
CONTINUOUS
 62
     0
 10
-95.9048442813714
 20
169.978321294716
 30
0.0
 11
-95.6338787006842
 21
170.38385412157
 31
0.0
  0
LINE
  5
    27
  8
0
  6
CONTINUOUS
 62
     0
 10
-96.0000009070014
 20
169.49998927381
 30
0.0
 11
-95.9048471000262
 21
169.978337054874
 31
0.0
  0
LINE
  5
    28
  8
0
  6
CONTINUOUS
 62
     0
 10
129.750003154688
 20
170.749986935154
 30
0.0
 11
130.228350935752
 21
170.654833128179
 31
0.0
  0
LINE
  5
    29
  8
0
  6
CONTINUOUS
 62
     0
 10
130.228341409222
 20
170.654823450862
 30
0.0
 11
130.633874236076
 21
170.383857870175
 31
0.0
  0
LINE
  5
    2A
  8
0
  6
CONTINUOUS
 62
     0
 10
130.633876465973
 20
170.383854910394
 30
0.0
 11
130.90484204666
 21
169.97832208354
 31
0.0
  0
LINE
  5
    2B
  8
0
  6
CONTINUOUS
 62
     0
 10
130.90484765696
 20
169.978336952213
 30
0.0
 11
131.000001463935
 21
169.499989171149
 31
0.0
  0
LINE
  5
    2C
  8
0
  6
CONTINUOUS
 62
     0
 10
129.750001912704
 20
-25.2500209810903
 30
0.0
 11
130.228349689786
 21
-25.1548709896053
 31
0.0
  0
LINE
  5
    2D
  8
0
  6
CONTINUOUS
 62
     0
 10
130.228338306514
 20
-25.1548722950462
 30
0.0
 11
130.633871133368
 21
-24.8839067143591
 31
0.0
  0
LINE
  5
    2E
  8
0
  6
CONTINUOUS
 62
     0
 10
130.633879356188
 20
-24.8839055654524
 30
0.0
 11
130.904844938572
 21
-24.4783765528653
 31
0.0
  0
LINE
  5
    2F
  8
0
  6
CONTINUOUS
 62
     0
 10
130.904848088874
 20
-24.4783766972257
 30
0.0
 11
131.000001894457
 21
-24.0000212888173
 31
0.0
  0
LINE
  5
    30
  8
0
  6
CONTINUOUS
 62
     0
 10
-95.2283572980338
 20
-25.1548710672825
 30
0.0
 11
-94.750001893597
 21
-25.2500210645891
 31
0.0
  0
LINE
  5
    31
  8
0
  6
CONTINUOUS
 62
     0
 10
-95.6338848795916
 20
-24.8839050834456
 30
0.0
 11
-95.2283596812563
 21
-25.1548706675021
 31
0.0
  0
LINE
  5
    32
  8
0
  6
CONTINUOUS
 62
     0
 10
-95.9048453281177
 20
-24.4783764153605
 30
0.0
 11
-95.6338797457343
 21
-24.8839054279476
 31
0.0
  0
LINE
  5
    33
  8
0
  6
CONTINUOUS
 62
     0
 10
-96.0000013278323
 20
-24.0000213932639
 30
0.0
 11
-95.9048475222492
 21
-24.4783768016722
 31
0.0
  0
LINE
  5
    34
  8
0
  6
CONTINUOUS
 62
     0
 10
71.0
 20
161.499984741211
 30
0.0
 11
71.5
 21
161.499984741211
 31
0.0
  0
LINE
  5
    35
  8
0
  6
CONTINUOUS
 62
     0
 10
70.6249985834239
 20
161.39948892087
 30
0.0
 11
70.9999985887286
 21
161.499983299907
 31
0.0
  0
LINE
  5
    36
  8
0
  6
CONTINUOUS
 62
     0
 10
70.3504841000321
 20
161.124991898345
 30
0.0
 11
70.6250049664647
 21
161.399497515692
 31
0.0
  0
LINE
  5
    37
  8
0
  6
CONTINUOUS
 62
     0
 10
70.2500005005121
 20
160.74998610992
 30
0.0
 11
70.3504796223163
 21
161.124986104743
 31
0.0
  0
LINE
  5
    38
  8
0
  6
CONTINUOUS
 62
     0
 10
70.2500001717027
 20
160.749985945318
 30
0.0
 11
70.3504792935069
 21
160.374985950495
 31
0.0
  0
LINE
  5
    39
  8
0
  6
CONTINUOUS
 62
     0
 10
70.3504785443499
 20
160.374981262897
 30
0.0
 11
70.6249994243228
 21
160.100460382924
 31
0.0
  0
LINE
  5
    3A
  8
0
  6
CONTINUOUS
 62
     0
 10
70.6250004494111
 20
160.100464493128
 30
0.0
 11
71.000000444234
 21
159.999985371324
 31
0.0
  0
LINE
  5
    3B
  8
0
  6
CONTINUOUS
 62
     0
 10
71.0
 20
159.999984741211
 30
0.0
 11
71.5
 21
159.999984741211
 31
0.0
  0
LINE
  5
    3C
  8
0
  6
CONTINUOUS
 62
     0
 10
-71.0000005237262
 20
159.999985364975
 30
0.0
 11
-70.6250005289034
 21
160.100464486779
 31
0.0
  0
LINE
  5
    3D
  8
0
  6
CONTINUOUS
 62
     0
 10
-70.6249991572831
 20
160.100460461707
 30
0.0
 11
-70.3504782773103
 21
160.37498134168
 31
0.0
  0
LINE
  5
    3E
  8
0
  6
CONTINUOUS
 62
     0
 10
-70.3504793419514
 20
160.374985939145
 30
0.0
 11
-70.2500002201472
 21
160.749985933968
 31
0.0
  0
LINE
  5
    3F
  8
0
  6
CONTINUOUS
 62
     0
 10
-70.3504796707608
 20
161.124986116093
 30
0.0
 11
-70.2500005489566
 21
160.74998612127
 31
0.0
  0
LINE
  5
    40
  8
0
  6
CONTINUOUS
 62
     0
 10
-70.625005364328
 20
161.399497643651
 30
0.0
 11
-70.3504844978953
 21
161.124992026304
 31
0.0
  0
LINE
  5
    41
  8
0
  6
CONTINUOUS
 62
     0
 10
-70.9999984404592
 20
161.499983275092
 30
0.0
 11
-70.6249984351544
 21
161.399488896056
 31
0.0
  0
LINE
  5
    42
  8
0
  6
CONTINUOUS
 62
     0
 10
-71.5
 20
161.499984741211
 30
0.0
 11
-71.0
 21
161.499984741211
 31
0.0
  0
LINE
  5
    43
  8
0
  6
CONTINUOUS
 62
     0
 10
-71.5
 20
159.999984741211
 30
0.0
 11
-71.0
 21
159.999984741211
 31
0.0
  0
LINE
  5
    44
  8
0
  6
DOT
 62
     0
 10
129.207102522664
 20
93.2070806462287
 30
0.0
 11
129.423868885951
 21
92.8826559114065
 31
0.0
  0
LINE
  5
    45
  8
0
  6
CONTINUOUS
 62
     0
 10
78.0
 20
64.6249771118164
 30
0.0
 11
112.0
 21
64.6249771118164
 31
0.0
  0
LINE
  5
    46
  8
0
  6
CONTINUOUS
 62
     0
 10
78.0
 20
23.624979019165
 30
0.0
 11
112.0
 21
23.624979019165
 31
0.0
  0
LINE
  5
    47
  8
0
  6
CONTINUOUS
 62
     0
 10
78.0
 20
22.624979019165
 30
0.0
 11
131.0
 21
22.624979019165
 31
0.0
  0
LINE
  5
    48
  8
0
  6
CONTINUOUS
 62
     0
 10
113.0
 20
22.6249771118164
 30
0.0
 11
113.0
 21
65.6249771118164
 31
0.0
  0
LINE
  5
    49
  8
0
  6
CONTINUOUS
 62
     0
 10
121.443762073863
 20
22.6249762341869
 30
0.0
 11
121.469671496571
 21
22.655306892856
 31
0.0
  0
LINE
  5
    4A
  8
0
  6
CONTINUOUS
 62
     0
 10
122.530331822982
 20
22.6553070669901
 30
0.0
 11
122.556233618116
 21
22.6249802236221
 31
0.0
  0
LINE
  5
    4B
  8
0
  6
CONTINUOUS
 62
     0
 10
77.0
 20
-4.2500216960907
 30
0.0
 11
77.0
 21
149.749978303909
 31
0.0
  0
LINE
  5
    4C
  8
0
  6
CONTINUOUS
 62
     0
 10
-86.0
 20
149.749984741211
 30
0.0
 11
77.0
 21
149.749984741211
 31
0.0
  0
LINE
  5
    4D
  8
0
  6
CONTINUOUS
 62
     0
 10
-86.0
 20
-4.25002169609069
 30
0.0
 11
77.0
 21
-4.2500216960907
 31
0.0
  0
LINE
  5
    4E
  8
0
  6
CONTINUOUS
 62
     0
 10
-86.0
 20
-4.25002169609069
 30
0.0
 11
-86.0
 21
149.749978303909
 31
0.0
  0
LINE
  5
    4F
  8
0
  6
CONTINUOUS
 62
     0
 10
70.0000086006236
 20
142.749981641769
 30
0.0
 11
77.0000047406314
 21
149.749991353068
 31
0.0
  0
LINE
  5
    50
  8
0
  6
CONTINUOUS
 62
     0
 10
70.0000002534282
 20
2.74998164176941
 30
0.0
 11
77.0000028943928
 21
-4.25002276936366
 31
0.0
  0
LINE
  5
    51
  8
0
  6
CONTINUOUS
 62
     0
 10
-86.0000010794079
 20
149.749986269664
 30
0.0
 11
-70.0
 21
142.220568727026
 31
0.0
  0
LINE
  5
    52
  8
0
  6
CONTINUOUS
 62
     0
 10
-86.0000042824209
 20
-4.25002269924179
 30
0.0
 11
-70.0
 21
3.27939166971828
 31
0.0
  0
LINE
  5
    53
  8
0
  6
CONTINUOUS
 62
     0
 10
71.5
 20
150.749984741211
 30
0.0
 11
71.5
 21
170.749984741211
 31
0.0
  0
LINE
  5
    54
  8
0
  6
CONTINUOUS
 62
     0
 10
77.0
 20
150.749984741211
 30
0.0
 11
77.0
 21
170.749984741211
 31
0.0
  0
LINE
  5
    55
  8
0
  6
CONTINUOUS
 62
     0
 10
-71.5
 20
150.749984741211
 30
0.0
 11
-71.5
 21
170.749984741211
 31
0.0
  0
LINE
  5
    56
  8
0
  6
CONTINUOUS
 62
     0
 10
-86.0
 20
150.749984741211
 30
0.0
 11
-86.0
 21
170.749984741211
 31
0.0
  0
LINE
  5
    57
  8
0
  6
CONTINUOUS
 62
     0
 10
78.0
 20
65.6249771118164
 30
0.0
 11
131.0
 21
65.6249771118164
 31
0.0
  0
POINT
  5
    58
  8
0
  6
CONTINUOUS
 62
     0
 10
4.30031180087553E-6
 20
72.749980198372
 30
0.0
  0
ENDBLK
  5
    59
  8
0
  6
CONTINUOUS
 62
     0
  0
BLOCK
  5
    5A
  8
0
  6
CONTINUOUS
 62
     7
  2
*UDIM1507
 70
    65
 10
0.0
 20
0.0
 30
0.0
  3
*UDIM1507
  0
TEXT
  5
    5B
  8
0
  6
CONTINUOUS
 62
     7
 10
73.0869759329447
 20
-26.4181452396601
 30
0.0
 40
2.99999997871263
  1
196
 50
90.0
 41
0.933333333333333
 72
     1
 11
71.5869759435835
 21
-22.5181452673355
 31
0.0
 73
     2
  0
LINE
  5
    5C
  8
0
  6
CONTINUOUS
 62
     7
 10
110.790892004835
 20
-56.5431455491804
 30
0.0
 11
72.0869759329398
 21
-56.5431455491804
 31
0.0
  0
LINE
  5
    5D
  8
0
  6
CONTINUOUS
 62
     7
 10
113.503392768772
 20
12.0568552852847
 30
0.0
 11
72.0869759329398
 21
12.0568552852847
 31
0.0
  0
LINE
  5
    5E
  8
0
  6
CONTINUOUS
 62
     7
 10
74.0869759329398
 20
-56.5431455491804
 30
0.0
 11
74.0869759329398
 21
12.0568552852847
 31
0.0
  0
LINE
  5
    5F
  8
0
  6
CONTINUOUS
 62
     7
 10
73.5660315029882
 20
-53.5887222719734
 30
0.0
 11
74.0869759329398
 21
-56.5431455491804
 31
0.0
  0
LINE
  5
    60
  8
0
  6
CONTINUOUS
 62
     7
 10
74.0869759329398
 20
-56.5431455491804
 30
0.0
 11
74.6079203628915
 21
-53.5887222719734
 31
0.0
  0
LINE
  5
    61
  8
0
  6
CONTINUOUS
 62
     7
 10
74.6079203628915
 20
9.10243200807768
 30
0.0
 11
74.0869759329398
 21
12.0568552852847
 31
0.0
  0
LINE
  5
    62
  8
0
  6
CONTINUOUS
 62
     7
 10
74.0869759329398
 20
12.0568552852847
 30
0.0
 11
73.5660315029882
 21
9.10243200807768
 31
0.0
  0
ENDBLK
  5
    63
  8
0
  6
CONTINUOUS
 62
     7
  0
BLOCK
  5
    64
  8
0
  6
CONTINUOUS
 62
     7
  2
*UDIM1508
 70
    65
 10
0.0
 20
0.0
 30
0.0
  3
*UDIM1508
  0
TEXT
  5
    65
  8
0
  6
CONTINUOUS
 62
     7
 10
125.378393922239
 20
41.6398785686324
 30
0.0
 40
2.99999997871263
  1
96
 41
0.933333333333333
 72
     1
 11
127.8783939045
 21
43.1398785579887
 31
0.0
 73
     2
  0
LINE
  5
    66
  8
0
  6
CONTINUOUS
 62
     7
 10
111.353392822417
 20
12.6193532900192
 30
0.0
 11
111.353392822417
 21
42.6398785686324
 31
0.0
  0
LINE
  5
    67
  8
0
  6
CONTINUOUS
 62
     7
 10
144.953393755321
 20
22.2770793611267
 30
0.0
 11
144.953393755321
 21
42.6398785686324
 31
0.0
  0
LINE
  5
    68
  8
0
  6
CONTINUOUS
 62
     7
 10
111.353392822417
 20
40.6398785686324
 30
0.0
 11
144.953393755321
 21
40.6398785686324
 31
0.0
  0
LINE
  5
    69
  8
0
  6
CONTINUOUS
 62
     7
 10
114.307816099624
 20
41.1608229985841
 30
0.0
 11
111.353392822417
 21
40.6398785686324
 31
0.0
  0
LINE
  5
    6A
  8
0
  6
CONTINUOUS
 62
     7
 10
111.353392822417
 20
40.6398785686324
 30
0.0
 11
114.307816099624
 21
40.1189341386808
 31
0.0
  0
LINE
  5
    6B
  8
0
  6
CONTINUOUS
 62
     7
 10
141.998970478114
 20
40.1189341386808
 30
0.0
 11
144.953393755321
 21
40.6398785686324
 31
0.0
  0
LINE
  5
    6C
  8
0
  6
CONTINUOUS
 62
     7
 10
144.953393755321
 20
40.6398785686324
 30
0.0
 11
141.998970478114
 21
41.1608229985841
 31
0.0
  0
ENDBLK
  5
    6D
  8
0
  6
CONTINUOUS
 62
     7
  0
BLOCK
  5
    6E
  8
0
  6
CONTINUOUS
 62
     7
  2
*UDIM1509
 70
    65
 10
0.0
 20
0.0
 30
0.0
  3
*UDIM1509
  0
TEXT
  5
    6F
  8
0
  6
CONTINUOUS
 62
     7
 10
163.70339517493
 20
41.6398785686324
 30
0.0
 40
2.99999997871263
  1
131
 41
0.933333333333333
 72
     1
 11
167.603395147256
 21
43.1398785579887
 31
0.0
 73
     2
  0
LINE
  5
    70
  8
0
  6
CONTINUOUS
 62
     7
 10
190.803391469391
 20
12.6193552927352
 30
0.0
 11
190.803391469391
 21
42.6398785686324
 31
0.0
  0
LINE
  5
    71
  8
0
  6
CONTINUOUS
 62
     7
 10
144.953393755321
 20
40.6398785686324
 30
0.0
 11
190.803391469391
 21
40.6398785686324
 31
0.0
  0
LINE
  5
    72
  8
0
  6
CONTINUOUS
 62
     7
 10
147.907817032528
 20
41.1608229985841
 30
0.0
 11
144.953393755321
 21
40.6398785686324
 31
0.0
  0
LINE
  5
    73
  8
0
  6
CONTINUOUS
 62
     7
 10
144.953393755321
 20
40.6398785686324
 30
0.0
 11
147.907817032528
 21
40.1189341386808
 31
0.0
  0
LINE
  5
    74
  8
0
  6
CONTINUOUS
 62
     7
 10
187.848968192184
 20
40.1189341386808
 30
0.0
 11
190.803391469391
 21
40.6398785686324
 31
0.0
  0
LINE
  5
    75
  8
0
  6
CONTINUOUS
 62
     7
 10
190.803391469391
 20
40.6398785686324
 30
0.0
 11
187.848968192184
 21
41.1608229985841
 31
0.0
  0
ENDBLK
  5
    76
  8
0
  6
CONTINUOUS
 62
     7
  0
BLOCK
  5
    77
  8
0
  6
CONTINUOUS
 62
     7
  2
*UDIM1510
 70
    65
 10
0.0
 20
0.0
 30
0.0
  3
*UDIM1510
  0
TEXT
  5
    78
  8
0
  6
CONTINUOUS
 62
     7
 10
46.470874549056
 20
-33.2398714173884
 30
0.0
 40
2.99999997871263
  1
295
 50
90.0
 41
0.933333333333333
 72
     1
 11
44.9708745596948
 21
-29.3398714450639
 31
0.0
 73
     2
  0
LINE
  5
    79
  8
0
  6
CONTINUOUS
 62
     7
 10
83.9283947775407
 20
-78.9431420847002
 30
0.0
 11
45.4708745490511
 21
-78.9431420847002
 31
0.0
  0
LINE
  5
    7A
  8
0
  6
CONTINUOUS
 62
     7
 10
83.9283947775407
 20
24.3068534866748
 30
0.0
 11
45.4708745490511
 21
24.3068534866748
 31
0.0
  0
LINE
  5
    7B
  8
0
  6
CONTINUOUS
 62
     7
 10
47.4708745490511
 20
-78.9431420847002
 30
0.0
 11
47.4708745490511
 21
24.3068534866748
 31
0.0
  0
LINE
  5
    7C
  8
0
  6
CONTINUOUS
 62
     7
 10
46.9499301190995
 20
-75.9887188074932
 30
0.0
 11
47.4708745490511
 21
-78.9431420847002
 31
0.0
  0
LINE
  5
    7D
  8
0
  6
CONTINUOUS
 62
     7
 10
47.4708745490511
 20
-78.9431420847002
 30
0.0
 11
47.9918189790028
 21
-75.9887188074932
 31
0.0
  0
LINE
  5
    7E
  8
0
  6
CONTINUOUS
 62
     7
 10
47.9918189790028
 20
21.3524302094678
 30
0.0
 11
47.4708745490511
 21
24.3068534866748
 31
0.0
  0
LINE
  5
    7F
  8
0
  6
CONTINUOUS
 62
     7
 10
47.4708745490511
 20
24.3068534866748
 30
0.0
 11
46.9499301190995
 21
21.3524302094678
 31
0.0
  0
ENDBLK
  5
    80
  8
0
  6
CONTINUOUS
 62
     7
  0
BLOCK
  5
    81
  8
0
  6
CONTINUOUS
 62
     7
  2
*UDIM1511
 70
    65
 10
0.0
 20
0.0
 30
0.0
  3
*UDIM1511
  0
TEXT
  5
    82
  8
0
  6
CONTINUOUS
 62
     7
 10
53.277198438272
 20
-3.14314831082911
 30
0.0
 40
2.99999997871263
  1
133
 50
90.0
 41
0.933333333333333
 72
     1
 11
51.7771984489108
 21
0.756851661495418
 31
0.0
 73
     2
  0
LINE
  5
    83
  8
0
  6
CONTINUOUS
 62
     7
 10
70.618410655275
 20
-22.2431457205835
 30
0.0
 11
52.2771984382671
 21
-22.2431457205835
 31
0.0
  0
LINE
  5
    84
  8
0
  6
CONTINUOUS
 62
     7
 10
83.9283947775407
 20
24.3068534866748
 30
0.0
 11
52.2771984382671
 21
24.3068534866748
 31
0.0
  0
LINE
  5
    85
  8
0
  6
CONTINUOUS
 62
     7
 10
54.2771984382671
 20
-22.2431457205835
 30
0.0
 11
54.2771984382671
 21
24.3068534866748
 31
0.0
  0
LINE
  5
    86
  8
0
  6
CONTINUOUS
 62
     7
 10
53.7562540083154
 20
-19.2887224433765
 30
0.0
 11
54.2771984382671
 21
-22.2431457205835
 31
0.0
  0
LINE
  5
    87
  8
0
  6
CONTINUOUS
 62
     7
 10
54.2771984382671
 20
-22.2431457205835
 30
0.0
 11
54.7981428682187
 21
-19.2887224433765
 31
0.0
  0
LINE
  5
    88
  8
0
  6
CONTINUOUS
 62
     7
 10
54.7981428682187
 20
21.3524302094678
 30
0.0
 11
54.2771984382671
 21
24.3068534866748
 31
0.0
  0
LINE
  5
    89
  8
0
  6
CONTINUOUS
 62
     7
 10
54.2771984382671
 20
24.3068534866748
 30
0.0
 11
53.7562540083154
 21
21.3524302094678
 31
0.0
  0
ENDBLK
  5
    8A
  8
0
  6
CONTINUOUS
 62
     7
  0
BLOCK
  5
    8B
  8
0
  6
CONTINUOUS
 62
     7
  2
*UDIM1512
 70
    65
 10
0.0
 20
0.0
 30
0.0
  3
*UDIM1512
  0
TEXT
  5
    8C
  8
0
  6
CONTINUOUS
 62
     7
 10
59.7684229981372
 20
-31.4931504997478
 30
0.0
 40
2.99999997871263
  1
273
 50
90.0
 41
0.933333333333333
 72
     1
 11
58.268423008776
 21
-27.5931505274233
 31
0.0
 73
     2
  0
LINE
  5
    8D
  8
0
  6
CONTINUOUS
 62
     7
 10
83.2284025798329
 20
-75.093155671453
 30
0.0
 11
58.7684229981323
 21
-75.093155671453
 31
0.0
  0
LINE
  5
    8E
  8
0
  6
CONTINUOUS
 62
     7
 10
83.3158947879718
 20
20.4568482116617
 30
0.0
 11
58.7684229981323
 21
20.4568482116617
 31
0.0
  0
LINE
  5
    8F
  8
0
  6
CONTINUOUS
 62
     7
 10
60.7684229981323
 20
-75.093155671453
 30
0.0
 11
60.7684229981323
 21
20.4568482116617
 31
0.0
  0
LINE
  5
    90
  8
0
  6
CONTINUOUS
 62
     7
 10
60.2474785681807
 20
-72.1387323942461
 30
0.0
 11
60.7684229981323
 21
-75.093155671453
 31
0.0
  0
LINE
  5
    91
  8
0
  6
CONTINUOUS
 62
     7
 10
60.7684229981323
 20
-75.093155671453
 30
0.0
 11
61.289367428084
 21
-72.1387323942461
 31
0.0
  0
LINE
  5
    92
  8
0
  6
CONTINUOUS
 62
     7
 10
61.289367428084
 20
17.5024249344548
 30
0.0
 11
60.7684229981323
 21
20.4568482116617
 31
0.0
  0
LINE
  5
    93
  8
0
  6
CONTINUOUS
 62
     7
 10
60.7684229981323
 20
20.4568482116617
 30
0.0
 11
60.2474785681807
 21
17.5024249344548
 31
0.0
  0
ENDBLK
  5
    94
  8
0
  6
CONTINUOUS
 62
     7
  0
BLOCK
  5
    95
  8
0
  6
CONTINUOUS
 62
     7
  2
*UDIM1513
 70
    65
 10
0.0
 20
0.0
 30
0.0
  3
*UDIM1513
  0
TEXT
  5
    96
  8
0
  6
CONTINUOUS
 62
     7
 10
66.5747468873532
 20
-5.06814827804759
 30
0.0
 40
2.99999997871263
  1
122
 50
90.0
 41
0.933333333333333
 72
     1
 11
65.074746897992
 21
-1.16814830572307
 31
0.0
 73
     2
  0
LINE
  5
    97
  8
0
  6
CONTINUOUS
 62
     7
 10
70.618410655275
 20
-22.2431457205835
 30
0.0
 11
65.5747468873483
 21
-22.2431457205835
 31
0.0
  0
LINE
  5
    98
  8
0
  6
CONTINUOUS
 62
     7
 10
83.3158947879718
 20
20.4568482116617
 30
0.0
 11
65.5747468873483
 21
20.4568482116617
 31
0.0
  0
LINE
  5
    99
  8
0
  6
CONTINUOUS
 62
     7
 10
67.5747468873483
 20
-22.2431457205835
 30
0.0
 11
67.5747468873483
 21
20.4568482116617
 31
0.0
  0
LINE
  5
    9A
  8
0
  6
CONTINUOUS
 62
     7
 10
67.0538024573966
 20
-19.2887224433765
 30
0.0
 11
67.5747468873483
 21
-22.2431457205835
 31
0.0
  0
LINE
  5
    9B
  8
0
  6
CONTINUOUS
 62
     7
 10
67.5747468873483
 20
-22.2431457205835
 30
0.0
 11
68.0956913173
 21
-19.2887224433765
 31
0.0
  0
LINE
  5
    9C
  8
0
  6
CONTINUOUS
 62
     7
 10
68.0956913173
 20
17.5024249344548
 30
0.0
 11
67.5747468873483
 21
20.4568482116617
 31
0.0
  0
LINE
  5
    9D
  8
0
  6
CONTINUOUS
 62
     7
 10
67.5747468873483
 20
20.4568482116617
 30
0.0
 11
67.0538024573966
 21
17.5024249344548
 31
0.0
  0
ENDBLK
  5
    9E
  8
0
  6
CONTINUOUS
 62
     7
  0
BLOCK
  5
    9F
  8
0
  6
CONTINUOUS
 62
     7
  2
*UDIM1514
 70
    65
 10
0.0
 20
0.0
 30
0.0
  3
*UDIM1514
  0
TEXT
  5
    A0
  8
0
  6
CONTINUOUS
 62
     7
 10
104.115916044552
 20
-89.454086255125
 30
0.0
 40
2.99999997871263
  1
193,5
 41
0.933333333333333
 72
     1
 11
110.81591599701
 21
-87.9540862657687
 31
0.0
 73
     2
  0
LINE
  5
    A1
  8
0
  6
CONTINUOUS
 62
     7
 10
77.2284349629982
 20
-31.8182176723292
 30
0.0
 11
77.2284349629982
 21
-92.4540862551251
 31
0.0
  0
LINE
  5
    A2
  8
0
  6
CONTINUOUS
 62
     7
 10
144.953393755321
 20
-84.2271007976297
 30
0.0
 11
144.953393755321
 21
-92.4540862551251
 31
0.0
  0
LINE
  5
    A3
  8
0
  6
CONTINUOUS
 62
     7
 10
77.2284349629982
 20
-90.4540862551251
 30
0.0
 11
144.953393755321
 21
-90.4540862551251
 31
0.0
  0
LINE
  5
    A4
  8
0
  6
CONTINUOUS
 62
     7
 10
80.1828582402052
 20
-89.9331418251734
 30
0.0
 11
77.2284349629982
 21
-90.4540862551251
 31
0.0
  0
LINE
  5
    A5
  8
0
  6
CONTINUOUS
 62
     7
 10
77.2284349629982
 20
-90.4540862551251
 30
0.0
 11
80.1828582402052
 21
-90.9750306850767
 31
0.0
  0
LINE
  5
    A6
  8
0
  6
CONTINUOUS
 62
     7
 10
141.998970478114
 20
-90.9750306850767
 30
0.0
 11
144.953393755321
 21
-90.4540862551251
 31
0.0
  0
LINE
  5
    A7
  8
0
  6
CONTINUOUS
 62
     7
 10
144.953393755321
 20
-90.4540862551251
 30
0.0
 11
141.998970478114
 21
-89.9331418251734
 31
0.0
  0
ENDBLK
  5
    A8
  8
0
  6
CONTINUOUS
 62
     7
  0
BLOCK
  5
    A9
  8
0
  6
CONTINUOUS
 62
     7
  2
*UDIM1515
 70
    65
 10
0.0
 20
0.0
 30
0.0
  3
*UDIM1515
  0
TEXT
  5
    AA
  8
0
  6
CONTINUOUS
 62
     7
 10
140.778435621204
 20
34.0677000476835
 30
0.0
 40
2.99999997871263
  1
140
 41
0.933333333333333
 72
     1
 11
144.67843559353
 21
35.5677000370398
 31
0.0
 73
     2
  0
LINE
  5
    AB
  8
0
  6
CONTINUOUS
 62
     7
 10
120.453434894453
 20
3.25685519732804
 30
0.0
 11
120.453434894453
 21
35.0677000476835
 31
0.0
  0
LINE
  5
    AC
  8
0
  6
CONTINUOUS
 62
     7
 10
169.45343472756
 20
3.25685386218402
 30
0.0
 11
169.45343472756
 21
35.0677000476835
 31
0.0
  0
LINE
  5
    AD
  8
0
  6
CONTINUOUS
 62
     7
 10
120.453434894453
 20
33.0677000476835
 30
0.0
 11
169.45343472756
 21
33.0677000476835
 31
0.0
  0
LINE
  5
    AE
  8
0
  6
CONTINUOUS
 62
     7
 10
123.40785817166
 20
33.5886444776352
 30
0.0
 11
120.453434894453
 21
33.0677000476835
 31
0.0
  0
LINE
  5
    AF
  8
0
  6
CONTINUOUS
 62
     7
 10
120.453434894453
 20
33.0677000476835
 30
0.0
 11
123.40785817166
 21
32.5467556177319
 31
0.0
  0
LINE
  5
    B0
  8
0
  6
CONTINUOUS
 62
     7
 10
166.499011450353
 20
32.5467556177319
 30
0.0
 11
169.45343472756
 21
33.0677000476835
 31
0.0
  0
LINE
  5
    B1
  8
0
  6
CONTINUOUS
 62
     7
 10
169.45343472756
 20
33.0677000476835
 30
0.0
 11
166.499011450353
 21
33.5886444776352
 31
0.0
  0
ENDBLK
  5
    B2
  8
0
  6
CONTINUOUS
 62
     7
  0
BLOCK
  5
    B3
  8
0
  6
CONTINUOUS
 62
     7
  2
*UDIM1516
 70
    65
 10
0.0
 20
0.0
 30
0.0
  3
*UDIM1516
  0
TEXT
  5
    B4
  8
0
  6
CONTINUOUS
 62
     7
 10
128.528393105205
 20
49.6961375867086
 30
0.0
 40
2.99999997871263
  1
280
 41
0.933333333333333
 72
     1
 11
132.428393077531
 21
51.1961375760649
 31
0.0
 73
     2
  0
LINE
  5
    B5
  8
0
  6
CONTINUOUS
 62
     7
 10
83.8783947954224
 20
21.0193482191123
 30
0.0
 11
83.8783947954224
 21
50.6961375867086
 31
0.0
  0
LINE
  5
    B6
  8
0
  6
CONTINUOUS
 62
     7
 10
181.528393132452
 20
21.0193482191123
 30
0.0
 11
181.528393132452
 21
50.6961375867086
 31
0.0
  0
LINE
  5
    B7
  8
0
  6
CONTINUOUS
 62
     7
 10
83.8783947954224
 20
48.6961375867086
 30
0.0
 11
181.528393132452
 21
48.6961375867086
 31
0.0
  0
LINE
  5
    B8
  8
0
  6
CONTINUOUS
 62
     7
 10
86.8328180726293
 20
49.2170820166602
 30
0.0
 11
83.8783947954224
 21
48.6961375867086
 31
0.0
  0
LINE
  5
    B9
  8
0
  6
CONTINUOUS
 62
     7
 10
83.8783947954224
 20
48.6961375867086
 30
0.0
 11
86.8328180726293
 21
48.1751931567569
 31
0.0
  0
LINE
  5
    BA
  8
0
  6
CONTINUOUS
 62
     7
 10
178.573969855245
 20
48.1751931567569
 30
0.0
 11
181.528393132452
 21
48.6961375867086
 31
0.0
  0
LINE
  5
    BB
  8
0
  6
CONTINUOUS
 62
     7
 10
181.528393132452
 20
48.6961375867086
 30
0.0
 11
178.573969855245
 21
49.2170820166602
 31
0.0
  0
ENDBLK
  5
    BC
  8
0
  6
CONTINUOUS
 62
     7
  0
BLOCK
  5
    BD
  8
0
  6
CONTINUOUS
 62
     7
  2
*UDIM1517
 70
    65
 10
0.0
 20
0.0
 30
0.0
  3
*UDIM1517
  0
TEXT
  5
    BE
  8
0
  6
CONTINUOUS
 62
     7
 10
161.865917731363
 20
-89.454086255125
 30
0.0
 40
2.99999997871263
  1
136,5
 41
0.933333333333333
 72
     1
 11
168.565917683821
 21
-87.9540862657687
 31
0.0
 73
     2
  0
LINE
  5
    BF
  8
0
  6
CONTINUOUS
 62
     7
 10
144.953393755321
 20
-84.2271007976297
 30
0.0
 11
144.953393755321
 21
-92.4540862551251
 31
0.0
  0
LINE
  5
    C0
  8
0
  6
CONTINUOUS
 62
     7
 10
192.728439671765
 20
-31.8181615962803
 30
0.0
 11
192.728439671765
 21
-92.4540862551251
 31
0.0
  0
LINE
  5
    C1
  8
0
  6
CONTINUOUS
 62
     7
 10
144.953393755321
 20
-90.4540862551251
 30
0.0
 11
192.728439671765
 21
-90.4540862551251
 31
0.0
  0
LINE
  5
    C2
  8
0
  6
CONTINUOUS
 62
     7
 10
147.907817032528
 20
-89.9331418251734
 30
0.0
 11
144.953393755321
 21
-90.4540862551251
 31
0.0
  0
LINE
  5
    C3
  8
0
  6
CONTINUOUS
 62
     7
 10
144.953393755321
 20
-90.4540862551251
 30
0.0
 11
147.907817032528
 21
-90.9750306850767
 31
0.0
  0
LINE
  5
    C4
  8
0
  6
CONTINUOUS
 62
     7
 10
189.774016394558
 20
-90.9750306850767
 30
0.0
 11
192.728439671765
 21
-90.4540862551251
 31
0.0
  0
LINE
  5
    C5
  8
0
  6
CONTINUOUS
 62
     7
 10
192.728439671765
 20
-90.4540862551251
 30
0.0
 11
189.774016394558
 21
-89.9331418251734
 31
0.0
  0
ENDBLK
  5
    C6
  8
0
  6
CONTINUOUS
 62
     7
  0
BLOCK
  5
    C7
  8
0
  6
CONTINUOUS
 62
     7
  2
BASETT_1
 70
    64
 10
0.0
 20
0.0
 30
0.0
  3
BASETT_1
  0
LINE
  5
    C8
  8
0
  6
CONTINUOUS
 62
     1
 10
280.0
 20
2.408423695113
 30
0.0
 11
280.0
 21
7.408423695113
 31
0.0
  0
LINE
  5
    C9
  8
0
  6
CONTINUOUS
 62
     1
 10
0.0
 20
2.40842369511297
 30
0.0
 11
0.0
 21
7.40842369511297
 31
0.0
  0
LINE
  5
    CA
  8
0
  6
CONTINUOUS
 62
     1
 10
254.0
 20
7.40842369511297
 30
0.0
 11
280.0
 21
7.40842369511297
 31
0.0
  0
LINE
  5
    CB
  8
0
  6
CONTINUOUS
 62
     1
 10
0.0
 20
7.40842369511297
 30
0.0
 11
25.9999847412109
 21
7.40842369511297
 31
0.0
  0
LINE
  5
    CC
  8
0
  6
CONTINUOUS
 62
     1
 10
0.0
 20
2.40842369511297
 30
0.0
 11
280.000007629395
 21
2.40842369511297
 31
0.0
  0
LINE
  5
    CD
  8
0
  6
CONTINUOUS
 62
     1
 10
26.0
 20
8.40842369511297
 30
0.0
 11
44.0000038146973
 21
8.40842369511297
 31
0.0
  0
LINE
  5
    CE
  8
0
  6
CONTINUOUS
 62
     1
 10
236.000003814697
 20
8.40842369511297
 30
0.0
 11
254.0
 21
8.40842369511297
 31
0.0
  0
LINE
  5
    CF
  8
0
  6
CONTINUOUS
 62
     1
 10
276.250007629395
 20
0.0
 30
0.0
 11
276.250007629395
 21
2.40842321827584
 31
0.0
  0
LINE
  5
    D0
  8
0
  6
CONTINUOUS
 62
     1
 10
265.250007629395
 20
0.0
 30
0.0
 11
265.250007629395
 21
2.408423695113
 31
0.0
  0
LINE
  5
    D1
  8
0
  6
CONTINUOUS
 62
     1
 10
222.0
 20
43.908423695113
 30
0.0
 11
268.0
 21
43.908423695113
 31
0.0
  0
LINE
  5
    D2
  8
0
  6
CONTINUOUS
 62
     1
 10
280.0
 20
0.0
 30
0.0
 11
280.0
 21
21.908423695113
 31
0.0
  0
LINE
  5
    D3
  8
0
  6
CONTINUOUS
 62
     1
 10
82.0
 20
43.908423695113
 30
0.0
 11
128.0
 21
43.908423695113
 31
0.0
  0
LINE
  5
    D4
  8
0
  6
CONTINUOUS
 62
     1
 10
12.0
 20
43.908423695113
 30
0.0
 11
58.0
 21
43.908423695113
 31
0.0
  0
LINE
  5
    D5
  8
0
  6
CONTINUOUS
 62
     1
 10
0.0
 20
0.0
 30
0.0
 11
0.0
 21
21.908423695113
 31
0.0
  0
LINE
  5
    D6
  8
0
  6
CONTINUOUS
 62
     1
 10
257.999996185303
 20
4.408423695113
 30
0.0
 11
257.999996185303
 21
6.408423695113
 31
0.0
  0
LINE
  5
    D7
  8
0
  6
CONTINUOUS
 62
     1
 10
253.752990722656
 20
6.40842369511297
 30
0.0
 11
257.999996185303
 21
6.40842369511297
 31
0.0
  0
LINE
  5
    D8
  8
0
  6
CONTINUOUS
 62
     1
 10
21.9999961853027
 20
4.40842369511297
 30
0.0
 11
21.9999961853027
 21
6.40842369511297
 31
0.0
  0
LINE
  5
    D9
  8
0
  6
CONTINUOUS
 62
     1
 10
21.9999961853027
 20
6.40842369511297
 30
0.0
 11
26.2470016479492
 21
6.40842369511297
 31
0.0
  0
LINE
  5
    DA
  8
0
  6
CONTINUOUS
 62
     1
 10
31.0000076293945
 20
6.40842369511297
 30
0.0
 11
39.0000076293945
 21
6.40842369511297
 31
0.0
  0
LINE
  5
    DB
  8
0
  6
CONTINUOUS
 62
     1
 10
241.000007629395
 20
6.40842369511297
 30
0.0
 11
249.000007629395
 21
6.40842369511297
 31
0.0
  0
LINE
  5
    DC
  8
0
  6
CONTINUOUS
 62
     1
 10
127.000001907349
 20
2.40842369511297
 30
0.0
 11
127.000001907349
 21
6.70199516728094
 31
0.0
  0
LINE
  5
    DD
  8
0
  6
CONTINUOUS
 62
     1
 10
108.000010490417
 20
0.0
 30
0.0
 11
108.000010490417
 21
2.40842369511297
 31
0.0
  0
LINE
  5
    DE
  8
0
  6
CONTINUOUS
 62
     1
 10
86.0000095367432
 20
0.0
 30
0.0
 11
86.0000095367432
 21
2.40842369511297
 31
0.0
  0
LINE
  5
    DF
  8
0
  6
CONTINUOUS
 62
     1
 10
25.9999961853027
 20
6.40842369511297
 30
0.0
 11
25.9999961853027
 21
8.40842369511297
 31
0.0
  0
LINE
  5
    E0
  8
0
  6
CONTINUOUS
 62
     1
 10
44.0
 20
4.40842369511297
 30
0.0
 11
44.0
 21
8.40842369511297
 31
0.0
  0
LINE
  5
    E1
  8
0
  6
CONTINUOUS
 62
     1
 10
253.999996185303
 20
6.408423695113
 30
0.0
 11
253.999996185303
 21
8.408423695113
 31
0.0
  0
LINE
  5
    E2
  8
0
  6
CONTINUOUS
 62
     1
 10
236.0
 20
4.408423695113
 30
0.0
 11
236.0
 21
8.408423695113
 31
0.0
  0
LINE
  5
    E3
  8
0
  6
CONTINUOUS
 62
     1
 10
270.0
 20
23.908423695113
 30
0.0
 11
270.0
 21
41.908423695113
 31
0.0
  0
LINE
  5
    E4
  8
0
  6
CONTINUOUS
 62
     1
 10
220.0
 20
23.908423695113
 30
0.0
 11
220.0
 21
41.908423695113
 31
0.0
  0
LINE
  5
    E5
  8
0
  6
CONTINUOUS
 62
     1
 10
130.0
 20
23.908423695113
 30
0.0
 11
130.0
 21
41.908423695113
 31
0.0
  0
LINE
  5
    E6
  8
0
  6
CONTINUOUS
 62
     1
 10
80.0
 20
23.908423695113
 30
0.0
 11
80.0
 21
41.908423695113
 31
0.0
  0
LINE
  5
    E7
  8
0
  6
CONTINUOUS
 62
     1
 10
60.0
 20
23.908423695113
 30
0.0
 11
60.0
 21
41.908423695113
 31
0.0
  0
LINE
  5
    E8
  8
0
  6
CONTINUOUS
 62
     1
 10
10.0
 20
23.908423695113
 30
0.0
 11
10.0
 21
41.908423695113
 31
0.0
  0
LINE
  5
    E9
  8
0
  6
CONTINUOUS
 62
     1
 10
253.752990722656
 20
4.408423695113
 30
0.0
 11
253.752990722656
 21
6.408423695113
 31
0.0
  0
LINE
  5
    EA
  8
0
  6
CONTINUOUS
 62
     1
 10
26.2470016479492
 20
4.40842369511297
 30
0.0
 11
26.2470016479492
 21
6.40842369511297
 31
0.0
  0
LINE
  5
    EB
  8
0
  6
CONTINUOUS
 62
     1
 10
39.0000076293945
 20
4.40842369511297
 30
0.0
 11
39.0000076293945
 21
6.40842369511297
 31
0.0
  0
LINE
  5
    EC
  8
0
  6
CONTINUOUS
 62
     1
 10
31.0000076293945
 20
4.40842369511297
 30
0.0
 11
31.0000076293945
 21
6.40842369511297
 31
0.0
  0
LINE
  5
    ED
  8
0
  6
CONTINUOUS
 62
     1
 10
241.000007629395
 20
4.408423695113
 30
0.0
 11
241.000007629395
 21
6.408423695113
 31
0.0
  0
LINE
  5
    EE
  8
0
  6
CONTINUOUS
 62
     1
 10
249.000007629395
 20
4.408423695113
 30
0.0
 11
249.000007629395
 21
6.408423695113
 31
0.0
  0
ARC
  5
    EF
  8
0
  6
CONTINUOUS
 62
     1
 10
12.0000111838347
 20
41.9083438895289
 30
0.0
 40
2.00007783126227
 50
90.0001807661626
 51
179.997830672605
  0
ARC
  5
    F0
  8
0
  6
CONTINUOUS
 62
     1
 10
58.0000129063801
 20
41.9084460065579
 30
0.0
 40
1.99997510265494
 50
359.999226374319
 51
450.000285340162
  0
ARC
  5
    F1
  8
0
  6
CONTINUOUS
 62
     1
 10
81.9999903249802
 20
41.9084505969239
 30
0.0
 40
1.99997081808889
 50
89.9996952185933
 51
180.000394138682
  0
ARC
  5
    F2
  8
0
  6
CONTINUOUS
 62
     1
 10
127.999995507033
 20
41.9084180337511
 30
0.0
 40
2.00000657851261
 50
5.38727676514194E-4
 51
89.9998988942161
  0
ARC
  5
    F3
  8
0
  6
CONTINUOUS
 62
     1
 10
221.999999983491
 20
41.908425958954
 30
0.0
 40
1.99999862788034
 50
90.0000839312064
 51
180.000255608246
  0
ARC
  5
    F4
  8
0
  6
CONTINUOUS
 62
     1
 10
267.99998881617
 20
41.9083438895404
 30
0.0
 40
2.00007783125045
 50
2.16932706530805E-3
 51
89.9998192339624
  0
ARC
  5
    F5
  8
0
  6
CONTINUOUS
 62
     1
 10
8.0
 20
23.908423695113
 30
0.0
 40
2.0
 50
270.0
 51
360.0
  0
ARC
  5
    F6
  8
0
  6
CONTINUOUS
 62
     1
 10
62.0
 20
23.908423695113
 30
0.0
 40
2.0
 50
180.0
 51
270.0
  0
ARC
  5
    F7
  8
0
  6
CONTINUOUS
 62
     1
 10
78.0
 20
23.908423695113
 30
0.0
 40
2.0
 50
270.0
 51
360.0
  0
ARC
  5
    F8
  8
0
  6
CONTINUOUS
 62
     1
 10
202.0
 20
23.908423695113
 30
0.0
 40
2.0
 50
180.0
 51
270.0
  0
ARC
  5
    F9
  8
0
  6
CONTINUOUS
 62
     1
 10
218.0
 20
23.908423695113
 30
0.0
 40
2.0
 50
270.0
 51
360.0
  0
ARC
  5
    FA
  8
0
  6
CONTINUOUS
 62
     1
 10
272.0
 20
23.908423695113
 30
0.0
 40
2.0
 50
180.0
 51
270.0
  0
ARC
  5
    FB
  8
0
  6
CONTINUOUS
 62
     1
 10
234.0
 20
4.408423695113
 30
0.0
 40
2.0
 50
270.0
 51
360.0
  0
ARC
  5
    FC
  8
0
  6
CONTINUOUS
 62
     1
 10
251.000007629395
 20
4.408423695113
 30
0.0
 40
2.0
 50
180.0
 51
270.0
  0
ARC
  5
    FD
  8
0
  6
CONTINUOUS
 62
     1
 10
239.000007629395
 20
4.408423695113
 30
0.0
 40
2.0
 50
270.0
 51
360.0
  0
ARC
  5
    FE
  8
0
  6
CONTINUOUS
 62
     1
 10
255.752990722656
 20
4.408423695113
 30
0.0
 40
2.0
 50
180.0
 51
270.0
  0
ARC
  5
    FF
  8
0
  6
CONTINUOUS
 62
     1
 10
259.999996185303
 20
4.408423695113
 30
0.0
 40
2.0
 50
180.0
 51
270.0
  0
ARC
  5
   100
  8
0
  6
CONTINUOUS
 62
     1
 10
29.0000076293945
 20
4.40842369511297
 30
0.0
 40
2.0
 50
270.0
 51
360.0
  0
ARC
  5
   101
  8
0
  6
CONTINUOUS
 62
     1
 10
41.0000076293945
 20
4.40842369511297
 30
0.0
 40
2.0
 50
180.0
 51
270.0
  0
ARC
  5
   102
  8
0
  6
CONTINUOUS
 62
     1
 10
24.2470016479492
 20
4.40842369511297
 30
0.0
 40
2.0
 50
270.0
 51
360.0
  0
ARC
  5
   103
  8
0
  6
CONTINUOUS
 62
     1
 10
19.9999961853027
 20
4.40842369511297
 30
0.0
 40
2.0
 50
270.0
 51
360.0
  0
ARC
  5
   104
  8
0
  6
CONTINUOUS
 62
     1
 10
46.0
 20
4.40842369511297
 30
0.0
 40
2.0
 50
180.0
 51
270.0
  0
LINE
  5
   105
  8
0
  6
CONTINUOUS
 62
     1
 10
219.5
 20
21.908423695113
 30
0.0
 11
280.0
 21
21.908423695113
 31
0.0
  0
LINE
  5
   106
  8
0
  6
CONTINUOUS
 62
     1
 10
202.0
 20
21.908423695113
 30
0.0
 11
218.0
 21
21.908423695113
 31
0.0
  0
LINE
  5
   107
  8
0
  6
CONTINUOUS
 62
     1
 10
62.0
 20
21.908423695113
 30
0.0
 11
78.0
 21
21.908423695113
 31
0.0
  0
LINE
  5
   108
  8
0
  6
CONTINUOUS
 62
     1
 10
0.0
 20
21.908423695113
 30
0.0
 11
60.5
 21
21.908423695113
 31
0.0
  0
LINE
  5
   109
  8
0
  6
CONTINUOUS
 62
     1
 10
79.5000019073486
 20
21.908423695113
 30
0.0
 11
130.500001907349
 21
21.908423695113
 31
0.0
  0
LINE
  5
   10A
  8
0
  6
CONTINUOUS
 62
     1
 10
219.500003814697
 20
7.40842369511297
 30
0.0
 11
236.0
 21
7.40842369511297
 31
0.0
  0
LINE
  5
   10B
  8
0
  6
CONTINUOUS
 62
     1
 10
79.5000019073486
 20
7.40842369511297
 30
0.0
 11
130.500001907349
 21
7.40842369511297
 31
0.0
  0
LINE
  5
   10C
  8
0
  6
CONTINUOUS
 62
     1
 10
44.0000038146973
 20
7.40842369511297
 30
0.0
 11
60.5000038146973
 21
7.40842369511297
 31
0.0
  0
LINE
  5
   10D
  8
0
  6
CONTINUOUS
 62
     1
 10
60.5000038146973
 20
2.40842369511297
 30
0.0
 11
60.5000038146973
 21
22.5855437141331
 31
0.0
  0
LINE
  5
   10E
  8
0
  6
CONTINUOUS
 62
     1
 10
79.5000019073486
 20
2.40842369511297
 30
0.0
 11
79.5000019073486
 21
22.5855502023139
 31
0.0
  0
LINE
  5
   10F
  8
0
  6
CONTINUOUS
 62
     1
 10
219.500003814697
 20
2.408423695113
 30
0.0
 11
219.500003814697
 21
22.5855523650534
 31
0.0
  0
LINE
  5
   110
  8
0
  6
CONTINUOUS
 62
     1
 10
200.500001907349
 20
2.408423695113
 30
0.0
 11
200.500001907349
 21
22.5855458768538
 31
0.0
  0
LINE
  5
   111
  8
0
  6
CONTINUOUS
 62
     1
 10
127.000001907349
 20
2.40842369511297
 30
0.0
 11
127.000001907349
 21
7.25410011723211
 31
0.0
  0
LINE
  5
   112
  8
0
  6
CONTINUOUS
 62
     1
 10
102.000002622604
 20
2.40842369511297
 30
0.0
 11
102.000002622604
 21
2.48760918095282
 31
0.0
  0
LINE
  5
   113
  8
0
  6
CONTINUOUS
 62
     1
 10
124.000001907349
 20
2.40842369511297
 30
0.0
 11
124.000001907349
 21
2.48760918095282
 31
0.0
  0
LINE
  5
   114
  8
0
  6
CONTINUOUS
 62
     1
 10
127.000001907349
 20
7.25410011723211
 30
0.0
 11
130.500001907349
 21
7.25410011723211
 31
0.0
  0
LINE
  5
   115
  8
0
  6
CONTINUOUS
 62
     1
 10
123.902115054153
 20
2.76105204176998
 30
0.0
 11
123.981300543408
 21
2.50631036658035
 31
0.0
  0
LINE
  5
   116
  8
0
  6
CONTINUOUS
 62
     1
 10
123.981300228695
 20
2.50630800219012
 30
0.0
 11
124.000001782211
 21
2.48760835604929
 31
0.0
  0
LINE
  5
   117
  8
0
  6
CONTINUOUS
 62
     1
 10
123.618036275392
 20
3.34569103230383
 30
0.0
 11
123.647331242312
 21
3.23285228926971
 31
0.0
  0
LINE
  5
   118
  8
0
  6
CONTINUOUS
 62
     1
 10
123.647331577819
 20
3.23285637145052
 30
0.0
 11
123.872778276713
 21
2.79039343563809
 31
0.0
  0
LINE
  5
   119
  8
0
  6
CONTINUOUS
 62
     1
 10
123.872777491439
 20
2.79038624073023
 30
0.0
 11
123.902114420235
 21
2.76104740525171
 31
0.0
  0
LINE
  5
   11A
  8
0
  6
CONTINUOUS
 62
     1
 10
123.175573352132
 20
6.85377063365633
 30
0.0
 11
123.217443470685
 21
6.79110660228386
 31
0.0
  0
LINE
  5
   11B
  8
0
  6
CONTINUOUS
 62
     1
 10
123.217443319868
 20
6.79110527142767
 30
0.0
 11
123.293563695634
 21
6.40842246121283
 31
0.0
  0
LINE
  5
   11C
  8
0
  6
CONTINUOUS
 62
     1
 10
123.293563842773
 20
4.40842369511297
 30
0.0
 11
123.293563842773
 21
6.40842369511297
 31
0.0
  0
LINE
  5
   11D
  8
0
  6
CONTINUOUS
 62
     1
 10
123.293564867512
 20
4.40843065139456
 30
0.0
 11
123.391451905052
 21
3.79039627244221
 31
0.0
  0
LINE
  5
   11E
  8
0
  6
CONTINUOUS
 62
     1
 10
123.391451100832
 20
3.79039231203482
 30
0.0
 11
123.618036488679
 21
3.34569396373549
 31
0.0
  0
LINE
  5
   11F
  8
0
  6
CONTINUOUS
 62
     1
 10
122.61803538493
 20
7.18859211375369
 30
0.0
 11
122.832306925269
 21
7.11552921937135
 31
0.0
  0
LINE
  5
   120
  8
0
  6
CONTINUOUS
 62
     1
 10
122.832307717482
 20
7.11553049108862
 30
0.0
 11
123.175573262604
 21
6.85376978461053
 31
0.0
  0
LINE
  5
   121
  8
0
  6
CONTINUOUS
 62
     1
 10
122.000000932387
 20
7.25409867705756
 30
0.0
 11
122.618035291428
 21
7.18859269751714
 31
0.0
  0
LINE
  5
   122
  8
0
  6
CONTINUOUS
 62
     1
 10
104.000001907349
 20
7.25409630253587
 30
0.0
 11
122.000001907349
 21
7.25410011723317
 31
0.0
  0
LINE
  5
   123
  8
0
  6
CONTINUOUS
 62
     1
 10
103.381968430629
 20
7.18858918708386
 30
0.0
 11
104.000002374762
 21
7.25409516895283
 31
0.0
  0
LINE
  5
   124
  8
0
  6
CONTINUOUS
 62
     1
 10
102.824432444718
 20
6.85377229408902
 30
0.0
 11
103.167698454331
 21
7.1155330115805
 31
0.0
  0
LINE
  5
   125
  8
0
  6
CONTINUOUS
 62
     1
 10
103.167698166633
 20
7.1155324769805
 30
0.0
 11
103.381968755508
 21
7.18859156184466
 31
0.0
  0
LINE
  5
   126
  8
0
  6
CONTINUOUS
 62
     1
 10
102.381968877677
 20
3.34569297868354
 30
0.0
 11
102.608554979576
 21
3.79039132159248
 31
0.0
  0
LINE
  5
   127
  8
0
  6
CONTINUOUS
 62
     1
 10
102.6085547115
 20
3.79039155206224
 30
0.0
 11
102.706441515935
 21
4.40842593101464
 31
0.0
  0
LINE
  5
   128
  8
0
  6
CONTINUOUS
 62
     1
 10
102.706441402435
 20
4.40842369511297
 30
0.0
 11
102.706441402435
 21
6.40842369511297
 31
0.0
  0
LINE
  5
   129
  8
0
  6
CONTINUOUS
 62
     1
 10
102.706441307936
 20
6.40842237837461
 30
0.0
 11
102.782561922082
 21
6.79110517130606
 31
0.0
  0
LINE
  5
   12A
  8
0
  6
CONTINUOUS
 62
     1
 10
102.7825622944
 20
6.79110765668852
 30
0.0
 11
102.824432172238
 21
6.85377168885413
 31
0.0
  0
LINE
  5
   12B
  8
0
  6
CONTINUOUS
 62
     1
 10
102.097889834771
 20
2.76105201376586
 30
0.0
 11
102.127228431838
 21
2.79039085072048
 31
0.0
  0
LINE
  5
   12C
  8
0
  6
CONTINUOUS
 62
     1
 10
102.127228409228
 20
2.79039138856603
 30
0.0
 11
102.352674628626
 21
3.2328543160937
 31
0.0
  0
LINE
  5
   12D
  8
0
  6
CONTINUOUS
 62
     1
 10
102.352674226854
 20
3.23285204615508
 30
0.0
 11
102.381968478293
 21
3.34569078982972
 31
0.0
  0
LINE
  5
   12E
  8
0
  6
CONTINUOUS
 62
     1
 10
102.000002368196
 20
2.4876082295381
 30
0.0
 11
102.018703921712
 21
2.50630787567893
 31
0.0
  0
LINE
  5
   12F
  8
0
  6
CONTINUOUS
 62
     1
 10
102.018703706004
 20
2.50630448113588
 30
0.0
 11
102.09788895496
 21
2.76104614710865
 31
0.0
  0
LINE
  5
   130
  8
0
  6
CONTINUOUS
 62
     1
 10
135.0
 20
2.67636848273354
 30
0.0
 11
135.0
 21
21.908423695113
 31
0.0
  0
LINE
  5
   131
  8
0
  6
CONTINUOUS
 62
     1
 10
145.0
 20
2.67637729239949
 30
0.0
 11
145.0
 21
21.908423695113
 31
0.0
  0
LINE
  5
   132
  8
0
  6
CONTINUOUS
 62
     1
 10
75.0
 20
2.40842369511297
 30
0.0
 11
75.0
 21
21.908423695113
 31
0.0
  0
LINE
  5
   133
  8
0
  6
CONTINUOUS
 62
     1
 10
65.0
 20
2.40842750981024
 30
0.0
 11
65.0
 21
21.908423695113
 31
0.0
  0
LINE
  5
   134
  8
0
  6
CONTINUOUS
 62
     1
 10
149.500001907349
 20
21.908423695113
 30
0.0
 11
200.500001907349
 21
21.908423695113
 31
0.0
  0
LINE
  5
   135
  8
0
  6
CONTINUOUS
 62
     1
 10
149.500001907349
 20
2.40842369511299
 30
0.0
 11
149.500001907349
 21
22.5855502023139
 31
0.0
  0
LINE
  5
   136
  8
0
  6
CONTINUOUS
 62
     1
 10
130.500003814697
 20
2.40842369511297
 30
0.0
 11
130.500003814697
 21
22.5855437141331
 31
0.0
  0
ARC
  5
   137
  8
0
  6
CONTINUOUS
 62
     1
 10
148.0
 20
23.908423695113
 30
0.0
 40
2.0
 50
270.0
 51
360.0
  0
LINE
  5
   138
  8
0
  6
CONTINUOUS
 62
     1
 10
132.0
 20
21.908423695113
 30
0.0
 11
148.0
 21
21.908423695113
 31
0.0
  0
ARC
  5
   139
  8
0
  6
CONTINUOUS
 62
     1
 10
132.0
 20
23.908423695113
 30
0.0
 40
2.0
 50
180.0
 51
270.0
  0
LINE
  5
   13A
  8
0
  6
CONTINUOUS
 62
     1
 10
150.0
 20
23.908423695113
 30
0.0
 11
150.0
 21
41.908423695113
 31
0.0
  0
ARC
  5
   13B
  8
0
  6
CONTINUOUS
 62
     1
 10
151.99999032498
 20
41.9084505969239
 30
0.0
 40
1.99997081808889
 50
89.9996952185933
 51
180.000394138682
  0
LINE
  5
   13C
  8
0
  6
CONTINUOUS
 62
     1
 10
152.0
 20
43.908423695113
 30
0.0
 11
198.0
 21
43.908423695113
 31
0.0
  0
ARC
  5
   13D
  8
0
  6
CONTINUOUS
 62
     1
 10
197.999995507033
 20
41.9084180337511
 30
0.0
 40
2.00000657851261
 50
5.38727676514194E-4
 51
89.9998988942161
  0
LINE
  5
   13E
  8
0
  6
CONTINUOUS
 62
     1
 10
200.0
 20
23.908423695113
 30
0.0
 11
200.0
 21
41.908423695113
 31
0.0
  0
LINE
  5
   13F
  8
0
  6
CONTINUOUS
 62
     1
 10
149.500001907349
 20
7.40842369511297
 30
0.0
 11
200.500001907349
 21
7.40842369511297
 31
0.0
  0
ARC
  5
   140
  8
0
  6
CONTINUOUS
 62
     1
 10
134.000007629395
 20
4.40842369511297
 30
0.0
 40
2.0
 50
270.0
 51
360.0
  0
LINE
  5
   141
  8
0
  6
CONTINUOUS
 62
     1
 10
136.000007629395
 20
4.40842369511299
 30
0.0
 11
136.000007629395
 21
6.40842369511299
 31
0.0
  0
LINE
  5
   142
  8
0
  6
CONTINUOUS
 62
     1
 10
136.000007629395
 20
6.40842369511297
 30
0.0
 11
144.000007629395
 21
6.40842369511297
 31
0.0
  0
LINE
  5
   143
  8
0
  6
CONTINUOUS
 62
     1
 10
144.000007629395
 20
4.40842369511299
 30
0.0
 11
144.000007629395
 21
6.40842369511299
 31
0.0
  0
ARC
  5
   144
  8
0
  6
CONTINUOUS
 62
     1
 10
146.000007629395
 20
4.40842369511299
 30
0.0
 40
2.0
 50
180.0
 51
270.0
  0
LINE
  5
   145
  8
0
  6
CONTINUOUS
 62
     1
 10
-9.00000358413877
 20
0.0
 30
0.0
 11
288.318687082187
 21
0.0
 31
0.0
  0
LINE
  5
   146
  8
0
  6
DASHDOT
 62
     7
 10
245.0
 20
-8.87362665261153
 30
0.0
 11
245.0
 21
95.5915780969564
 31
0.0
  0
LINE
  5
   147
  8
0
  6
CONTINUOUS
 62
     7
 10
240.0
 20
88.908423695113
 30
0.0
 11
250.0
 21
88.908423695113
 31
0.0
  0
LINE
  5
   148
  8
0
  6
CONTINUOUS
 62
     7
 10
240.0
 20
43.908423695113
 30
0.0
 11
240.0
 21
88.908423695113
 31
0.0
  0
LINE
  5
   149
  8
0
  6
CONTINUOUS
 62
     7
 10
250.0
 20
43.908423695113
 30
0.0
 11
250.0
 21
88.908423695113
 31
0.0
  0
LINE
  5
   14A
  8
0
  6
CONTINUOUS
 62
     7
 10
180.0
 20
43.908423695113
 30
0.0
 11
180.0
 21
88.908423695113
 31
0.0
  0
LINE
  5
   14B
  8
0
  6
CONTINUOUS
 62
     7
 10
170.0
 20
43.908423695113
 30
0.0
 11
170.0
 21
88.908423695113
 31
0.0
  0
LINE
  5
   14C
  8
0
  6
CONTINUOUS
 62
     7
 10
170.0
 20
88.908423695113
 30
0.0
 11
180.0
 21
88.908423695113
 31
0.0
  0
LINE
  5
   14D
  8
0
  6
DASHDOT
 62
     7
 10
175.0
 20
-8.87362665261153
 30
0.0
 11
175.0
 21
95.5915780969564
 31
0.0
  0
LINE
  5
   14E
  8
0
  6
DASHDOT
 62
     7
 10
105.0
 20
-8.87362665261153
 30
0.0
 11
105.0
 21
95.5915780969564
 31
0.0
  0
LINE
  5
   14F
  8
0
  6
CONTINUOUS
 62
     7
 10
100.0
 20
43.908423695113
 30
0.0
 11
100.0
 21
88.908423695113
 31
0.0
  0
LINE
  5
   150
  8
0
  6
CONTINUOUS
 62
     7
 10
110.0
 20
43.908423695113
 30
0.0
 11
110.0
 21
88.908423695113
 31
0.0
  0
LINE
  5
   151
  8
0
  6
CONTINUOUS
 62
     7
 10
100.0
 20
88.908423695113
 30
0.0
 11
110.0
 21
88.908423695113
 31
0.0
  0
LINE
  5
   152
  8
0
  6
DASHDOT
 62
     7
 10
35.0
 20
-8.87362665261153
 30
0.0
 11
35.0
 21
95.5915780969564
 31
0.0
  0
LINE
  5
   153
  8
0
  6
CONTINUOUS
 62
     7
 10
30.0
 20
43.908423695113
 30
0.0
 11
30.0
 21
88.908423695113
 31
0.0
  0
LINE
  5
   154
  8
0
  6
CONTINUOUS
 62
     7
 10
30.0
 20
88.908423695113
 30
0.0
 11
40.0
 21
88.908423695113
 31
0.0
  0
LINE
  5
   155
  8
0
  6
CONTINUOUS
 62
     7
 10
40.0
 20
43.908423695113
 30
0.0
 11
40.0
 21
88.908423695113
 31
0.0
  0
LINE
  5
   156
  8
0
  6
DASHDOT
 62
     7
 10
233.706967054663
 20
68.908423695113
 30
0.0
 11
256.74359781556
 21
68.908423695113
 31
0.0
  0
LINE
  5
   157
  8
0
  6
DASHDOT
 62
     7
 10
164.597074771971
 20
68.908423695113
 30
0.0
 11
184.014657800038
 21
68.908423695113
 31
0.0
  0
LINE
  5
   158
  8
0
  6
DASHDOT
 62
     7
 10
94.512823484286
 20
68.908423695113
 30
0.0
 11
114.069600655924
 21
68.908423695113
 31
0.0
  0
LINE
  5
   159
  8
0
  6
DASHDOT
 62
     7
 10
25.472528273379
 20
68.908423695113
 30
0.0
 11
45.4468878757281
 21
68.908423695113
 31
0.0
  0
LINE
  5
   15A
  8
0
  6
DOT
 62
     7
 10
30.0
 20
75.908423695113
 30
0.0
 11
40.0
 21
75.908423695113
 31
0.0
  0
LINE
  5
   15B
  8
0
  6
DOT
 62
     7
 10
30.0
 20
61.908423695113
 30
0.0
 11
40.0
 21
61.908423695113
 31
0.0
  0
LINE
  5
   15C
  8
0
  6
DOT
 62
     7
 10
100.0
 20
75.908423695113
 30
0.0
 11
110.0
 21
75.908423695113
 31
0.0
  0
LINE
  5
   15D
  8
0
  6
DOT
 62
     7
 10
100.0
 20
61.908423695113
 30
0.0
 11
110.0
 21
61.908423695113
 31
0.0
  0
LINE
  5
   15E
  8
0
  6
DOT
 62
     7
 10
170.0
 20
75.908423695113
 30
0.0
 11
180.0
 21
75.908423695113
 31
0.0
  0
LINE
  5
   15F
  8
0
  6
DOT
 62
     7
 10
170.0
 20
61.908423695113
 30
0.0
 11
180.0
 21
61.908423695113
 31
0.0
  0
LINE
  5
   160
  8
0
  6
DOT
 62
     7
 10
240.0
 20
75.908423695113
 30
0.0
 11
250.0
 21
75.908423695113
 31
0.0
  0
LINE
  5
   161
  8
0
  6
DOT
 62
     7
 10
240.0
 20
61.908423695113
 30
0.0
 11
250.0
 21
61.908423695113
 31
0.0
  0
LINE
  5
   162
  8
0
  6
CONTINUOUS
 62
     7
 10
35.0
 20
43.908423695113
 30
0.0
 11
35.0
 21
88.908423695113
 31
0.0
  0
LINE
  5
   163
  8
0
  6
CONTINUOUS
 62
     7
 10
105.0
 20
43.908423695113
 30
0.0
 11
105.0
 21
88.908423695113
 31
0.0
  0
LINE
  5
   164
  8
0
  6
CONTINUOUS
 62
     7
 10
175.0
 20
43.908423695113
 30
0.0
 11
175.0
 21
88.908423695113
 31
0.0
  0
LINE
  5
   165
  8
0
  6
CONTINUOUS
 62
     7
 10
245.0
 20
43.908423695113
 30
0.0
 11
245.0
 21
88.908423695113
 31
0.0
  0
ENDBLK
  5
   166
  8
0
  6
CONTINUOUS
 62
     7
  0
BLOCK
  5
   167
  8
0
  6
CONTINUOUS
 62
     7
  2
*UDIM1518
 70
    65
 10
0.0
 20
0.0
 30
0.0
  3
*UDIM1518
  0
TEXT
  5
   168
  8
0
  6
CONTINUOUS
 62
     7
 10
170.487299563266
 20
-105.624046534645
 30
0.0
 40
2.99999997871263
  1
10
 50
359.999999896069
 41
0.933333333333333
 72
     1
 11
172.98729954824
 21
-104.124046549811
 31
0.0
 73
     2
  0
LINE
  5
   169
  8
0
  6
CONTINUOUS
 62
     7
 10
167.51229849707
 20
-111.191912436336
 30
0.0
 11
167.51229849707
 21
-104.624046539167
 31
0.0
  0
LINE
  5
   16A
  8
0
  6
CONTINUOUS
 62
     7
 10
164.012298556674
 20
-111.191912436336
 30
0.0
 11
164.012298556674
 21
-104.624046539167
 31
0.0
  0
LINE
  5
   16B
  8
0
  6
CONTINUOUS
 62
     7
 10
175.487299530501
 20
-106.624046539167
 30
0.0
 11
164.012298556674
 21
-106.624046539167
 31
0.0
  0
LINE
  5
   16C
  8
0
  6
CONTINUOUS
 62
     7
 10
170.466721774277
 20
-106.103102109216
 30
0.0
 11
167.51229849707
 21
-106.624046539167
 31
0.0
  0
LINE
  5
   16D
  8
0
  6
CONTINUOUS
 62
     7
 10
167.51229849707
 20
-106.624046539167
 30
0.0
 11
170.466721774277
 21
-107.144990969119
 31
0.0
  0
LINE
  5
   16E
  8
0
  6
CONTINUOUS
 62
     7
 10
161.057875279467
 20
-107.144990969119
 30
0.0
 11
164.012298556674
 21
-106.624046539167
 31
0.0
  0
LINE
  5
   16F
  8
0
  6
CONTINUOUS
 62
     7
 10
164.012298556674
 20
-106.624046539167
 30
0.0
 11
161.057875279467
 21
-106.103102109216
 31
0.0
  0
ENDBLK
  5
   170
  8
0
  6
CONTINUOUS
 62
     7
  0
BLOCK
  5
   171
  8
0
  6
CONTINUOUS
 62
     7
  2
*UDIM1519
 70
    65
 10
0.0
 20
0.0
 30
0.0
  3
*UDIM1519
  0
TEXT
  5
   172
  8
0
  6
CONTINUOUS
 62
     7
 10
150.737298823743
 20
-153.639039193822
 30
0.0
 40
2.99999997871263
  1
70
 50
359.999999896069
 41
0.933333333333333
 72
     1
 11
153.237298808717
 21
-152.139039208988
 31
0.0
 73
     2
  0
LINE
  5
   173
  8
0
  6
CONTINUOUS
 62
     7
 10
165.762298526872
 20
-147.415629475213
 30
0.0
 11
165.762298526872
 21
-156.639039198344
 31
0.0
  0
LINE
  5
   174
  8
0
  6
CONTINUOUS
 62
     7
 10
141.262298944105
 20
-147.415629475213
 30
0.0
 11
141.262298944105
 21
-156.639039198344
 31
0.0
  0
LINE
  5
   175
  8
0
  6
CONTINUOUS
 62
     7
 10
165.762298526872
 20
-154.639039198344
 30
0.0
 11
141.262298944105
 21
-154.639039198344
 31
0.0
  0
LINE
  5
   176
  8
0
  6
CONTINUOUS
 62
     7
 10
162.807875249665
 20
-155.159983628296
 30
0.0
 11
165.762298526872
 21
-154.639039198344
 31
0.0
  0
LINE
  5
   177
  8
0
  6
CONTINUOUS
 62
     7
 10
165.762298526872
 20
-154.639039198344
 30
0.0
 11
162.807875249665
 21
-154.118094768393
 31
0.0
  0
LINE
  5
   178
  8
0
  6
CONTINUOUS
 62
     7
 10
144.216722221312
 20
-154.118094768393
 30
0.0
 11
141.262298944105
 21
-154.639039198344
 31
0.0
  0
LINE
  5
   179
  8
0
  6
CONTINUOUS
 62
     7
 10
141.262298944105
 20
-154.639039198344
 30
0.0
 11
144.216722221312
 21
-155.159983628296
 31
0.0
  0
ENDBLK
  5
   17A
  8
0
  6
CONTINUOUS
 62
     7
  0
BLOCK
  5
   17B
  8
0
  6
CONTINUOUS
 62
     7
  2
*UDIM1520
 70
    65
 10
0.0
 20
0.0
 30
0.0
  3
*UDIM1520
  0
TEXT
  5
   17C
  8
0
  6
CONTINUOUS
 62
     7
 10
126.237301911264
 20
-153.639039193822
 30
0.0
 40
2.99999997871263
  1
70
 50
359.999999896069
 41
0.933333333333333
 72
     1
 11
128.737301896237
 21
-152.139039208988
 31
0.0
 73
     2
  0
LINE
  5
   17D
  8
0
  6
CONTINUOUS
 62
     7
 10
116.762299361337
 20
-147.415629475213
 30
0.0
 11
116.762299361337
 21
-156.639039198344
 31
0.0
  0
LINE
  5
   17E
  8
0
  6
CONTINUOUS
 62
     7
 10
141.262298944105
 20
-154.639039198344
 30
0.0
 11
116.762299361337
 21
-154.639039198344
 31
0.0
  0
LINE
  5
   17F
  8
0
  6
CONTINUOUS
 62
     7
 10
138.307875666898
 20
-155.159983628296
 30
0.0
 11
141.262298944105
 21
-154.639039198344
 31
0.0
  0
LINE
  5
   180
  8
0
  6
CONTINUOUS
 62
     7
 10
141.262298944105
 20
-154.639039198344
 30
0.0
 11
138.307875666898
 21
-154.118094768393
 31
0.0
  0
LINE
  5
   181
  8
0
  6
CONTINUOUS
 62
     7
 10
119.716722638544
 20
-154.118094768393
 30
0.0
 11
116.762299361337
 21
-154.639039198344
 31
0.0
  0
LINE
  5
   182
  8
0
  6
CONTINUOUS
 62
     7
 10
116.762299361337
 20
-154.639039198344
 30
0.0
 11
119.716722638544
 21
-155.159983628296
 31
0.0
  0
ENDBLK
  5
   183
  8
0
  6
CONTINUOUS
 62
     7
  0
BLOCK
  5
   184
  8
0
  6
CONTINUOUS
 62
     7
  2
*UDIM1521
 70
    65
 10
0.0
 20
0.0
 30
0.0
  3
*UDIM1521
  0
TEXT
  5
   185
  8
0
  6
CONTINUOUS
 62
     7
 10
101.737304998784
 20
-153.639039193822
 30
0.0
 40
2.99999997871263
  1
70
 50
359.999999896069
 41
0.933333333333333
 72
     1
 11
104.237304983758
 21
-152.139039208988
 31
0.0
 73
     2
  0
LINE
  5
   186
  8
0
  6
CONTINUOUS
 62
     7
 10
92.2622997785696
 20
-147.415629475213
 30
0.0
 11
92.2622997785696
 21
-156.639039198344
 31
0.0
  0
LINE
  5
   187
  8
0
  6
CONTINUOUS
 62
     7
 10
116.762299361337
 20
-154.639039198344
 30
0.0
 11
92.2622997785696
 21
-154.639039198344
 31
0.0
  0
LINE
  5
   188
  8
0
  6
CONTINUOUS
 62
     7
 10
113.80787608413
 20
-155.159983628296
 30
0.0
 11
116.762299361337
 21
-154.639039198344
 31
0.0
  0
LINE
  5
   189
  8
0
  6
CONTINUOUS
 62
     7
 10
116.762299361337
 20
-154.639039198344
 30
0.0
 11
113.80787608413
 21
-154.118094768393
 31
0.0
  0
LINE
  5
   18A
  8
0
  6
CONTINUOUS
 62
     7
 10
95.2167230557765
 20
-154.118094768393
 30
0.0
 11
92.2622997785696
 21
-154.639039198344
 31
0.0
  0
LINE
  5
   18B
  8
0
  6
CONTINUOUS
 62
     7
 10
92.2622997785696
 20
-154.639039198344
 30
0.0
 11
95.2167230557765
 21
-155.159983628296
 31
0.0
  0
ENDBLK
  5
   18C
  8
0
  6
CONTINUOUS
 62
     7
  0
BLOCK
  5
   18D
  8
0
  6
CONTINUOUS
 62
     7
  2
*UDIM1522
 70
    65
 10
0.0
 20
0.0
 30
0.0
  3
*UDIM1522
  0
TEXT
  5
   18E
  8
0
  6
CONTINUOUS
 62
     7
 10
251.755388638961
 20
-7.41523557926352
 30
0.0
 40
3.00000002980232
  1
7
 50
337.538462804533
 41
0.933333333333334
 72
     1
 11
253.34503321272
 21
-6.44930069643635
 31
0.0
 73
     2
  0
TEXT
  5
   18F
  8
0
  6
CONTINUOUS
 62
     7
 10
248.058843724896
 20
-5.88698300304491
 30
0.0
 40
3.00000002980232
  1
Ø
 50
337.538462804533
 41
1.2
 72
     1
 11
250.018142790606
 21
-5.0738733791228
 31
0.0
 73
     2
  0
LINE
  5
   190
  8
0
  6
CONTINUOUS
 62
     7
 10
247.676780586148
 20
-6.81111923010143
 30
0.0
 11
266.414453500933
 21
-14.5577847104468
 31
0.0
  0
LINE
  5
   191
  8
0
  6
CONTINUOUS
 62
     7
 10
257.201937218704
 20
-11.589276728649
 30
0.0
 11
260.176534004225
 21
-11.9788585089869
 31
0.0
  0
LINE
  5
   192
  8
0
  6
CONTINUOUS
 62
     7
 10
260.176534004225
 20
-11.9788585089869
 30
0.0
 11
257.795248538704
 21
-10.154172362906
 31
0.0
  0
LINE
  5
   193
  8
0
  6
CONTINUOUS
 62
     7
 10
264.76836917778
 20
-13.0370507859995
 30
0.0
 11
261.79377239226
 21
-12.6474690056616
 31
0.0
  0
LINE
  5
   194
  8
0
  6
CONTINUOUS
 62
     7
 10
261.79377239226
 20
-12.6474690056616
 30
0.0
 11
264.175057857781
 21
-14.4721551517424
 31
0.0
  0
ENDBLK
  5
   195
  8
0
  6
CONTINUOUS
 62
     7
  0
BLOCK
  5
   196
  8
0
  6
CONTINUOUS
 62
     7
  2
*UDIM1523
 70
    65
 10
0.0
 20
0.0
 30
0.0
  3
*UDIM1523
  0
TEXT
  5
   197
  8
0
  6
CONTINUOUS
 62
     7
 10
209.113856085228
 20
40.7117340314664
 30
0.0
 40
3.00000002980232
  1
7
 50
326.05689139177
 41
0.933333333333334
 72
     1
 11
210.863961916007
 21
41.3419162668687
 31
0.0
 73
     2
  0
TEXT
  5
   198
  8
0
  6
CONTINUOUS
 62
     7
 10
205.795486415222
 20
42.9452118065079
 30
0.0
 40
3.00000002980232
  1
Ø
 50
326.05689139177
 41
1.2
 72
     1
 11
207.87742921328
 21
43.3520462630401
 31
0.0
 73
     2
  0
LINE
  5
   199
  8
0
  6
CONTINUOUS
 62
     7
 10
205.237116976953
 20
42.1156193893805
 30
0.0
 11
225.234008615641
 21
28.6564157863485
 31
0.0
  0
LINE
  5
   19A
  8
0
  6
CONTINUOUS
 62
     7
 10
216.796735689166
 20
33.3992969204804
 30
0.0
 11
219.634259838204
 21
32.4254095021288
 31
0.0
  0
LINE
  5
   19B
  8
0
  6
CONTINUOUS
 62
     7
 10
219.634259838204
 20
32.4254095021288
 30
0.0
 11
217.663835583422
 21
34.6875828500765
 31
0.0
  0
LINE
  5
   19C
  8
0
  6
CONTINUOUS
 62
     7
 10
223.923570707319
 20
30.4743755648712
 30
0.0
 11
221.08604655828
 21
31.4482629832228
 31
0.0
  0
LINE
  5
   19D
  8
0
  6
CONTINUOUS
 62
     7
 10
221.08604655828
 20
31.4482629832228
 30
0.0
 11
223.056470813063
 21
29.186089635275
 31
0.0
  0
ENDBLK
  5
   19E
  8
0
  6
CONTINUOUS
 62
     7
  0
BLOCK
  5
   19F
  8
0
  6
CONTINUOUS
 62
     7
  2
*UDIM1524
 70
    65
 10
0.0
 20
0.0
 30
0.0
  3
*UDIM1524
  0
TEXT
  5
   1A0
  8
0
  6
CONTINUOUS
 62
     7
 10
267.272312557067
 20
40.3965527474292
 30
0.0
 40
3.00000002980232
  1
8
 50
407.936580148673
 41
0.933333333333334
 72
     1
 11
266.895655023444
 21
42.2181260155436
 31
0.0
 73
     2
  0
TEXT
  5
   1A1
  8
0
  6
CONTINUOUS
 62
     7
 10
265.161961324016
 20
38.0579810175601
 30
0.0
 40
3.00000002980232
  1
Ø
 50
407.936580148673
 41
0.933333333333334
 72
     1
 11
264.785303790393
 21
39.8795542856745
 31
0.0
 73
     2
  0
TEXT
  5
   1A2
  8
0
  6
CONTINUOUS
 62
     7
 10
269.114682678223
 20
42.4381630242548
 30
0.0
 40
3.00000002980232
  1
(5 fori)
 50
407.936580148673
 41
0.933333333333333
 72
     1
 11
275.303562378365
 21
51.5352928167998
 31
0.0
 73
     2
  0
LINE
  5
   1A3
  8
0
  6
CONTINUOUS
 62
     7
 10
284.462056961639
 20
57.952611525045
 30
0.0
 11
260.315200427958
 21
31.1944325212491
 31
0.0
  0
LINE
  5
   1A4
  8
0
  6
CONTINUOUS
 62
     7
 10
263.247678944232
 20
35.2216229637809
 30
0.0
 11
261.655105968527
 21
32.6792399641025
 31
0.0
  0
LINE
  5
   1A5
  8
0
  6
CONTINUOUS
 62
     7
 10
261.655105968527
 20
32.6792399641025
 30
0.0
 11
264.021181111137
 21
34.5236066357601
 31
0.0
  0
LINE
  5
   1A6
  8
0
  6
CONTINUOUS
 62
     7
 10
258.722627452253
 20
28.6520495215707
 30
0.0
 11
260.315200427958
 21
31.1944325212491
 31
0.0
  0
LINE
  5
   1A7
  8
0
  6
CONTINUOUS
 62
     7
 10
260.315200427958
 20
31.1944325212491
 30
0.0
 11
257.949125285347
 21
29.3500658495914
 31
0.0
  0
ENDBLK
  5
   1A8
  8
0
  6
CONTINUOUS
 62
     7
  0
BLOCK
  5
   1A9
  8
0
  6
CONTINUOUS
 62
     7
  2
*UDIM1525
 70
    65
 10
0.0
 20
0.0
 30
0.0
  3
*UDIM1525
  0
TEXT
  5
   1AA
  8
0
  6
CONTINUOUS
 62
     7
 10
243.632926625239
 20
-47.4281463288993
 30
0.0
 40
3.00000002980232
  1
R min.200
 50
359.999999844103
 41
0.933333333333333
 72
     1
 11
255.932926751502
 21
-45.9281463474035
 31
0.0
 73
     2
  0
LINE
  5
   1AB
  8
0
  6
CONTINUOUS
 62
     7
 10
235.735153198242
 20
-20.8593724318583
 30
0.0
 11
235.735153198242
 21
-50.4281463623047
 31
0.0
  0
LINE
  5
   1AC
  8
0
  6
CONTINUOUS
 62
     7
 10
276.193686216728
 20
-45.6857455972262
 30
0.0
 11
276.193686216728
 21
-50.4281463623047
 31
0.0
  0
LINE
  5
   1AD
  8
0
  6
CONTINUOUS
 62
     7
 10
235.735153198242
 20
-48.4281463623047
 30
0.0
 11
276.193686216728
 21
-48.4281463623047
 31
0.0
  0
LINE
  5
   1AE
  8
0
  6
CONTINUOUS
 62
     7
 10
238.689576475449
 20
-47.907201932353
 30
0.0
 11
235.735153198242
 21
-48.4281463623047
 31
0.0
  0
LINE
  5
   1AF
  8
0
  6
CONTINUOUS
 62
     7
 10
235.735153198242
 20
-48.4281463623047
 30
0.0
 11
238.689576475449
 21
-48.9490907922564
 31
0.0
  0
LINE
  5
   1B0
  8
0
  6
CONTINUOUS
 62
     7
 10
273.239262939521
 20
-48.9490907922564
 30
0.0
 11
276.193686216728
 21
-48.4281463623047
 31
0.0
  0
LINE
  5
   1B1
  8
0
  6
CONTINUOUS
 62
     7
 10
276.193686216728
 20
-48.4281463623047
 30
0.0
 11
273.239262939521
 21
-47.907201932353
 31
0.0
  0
ENDBLK
  5
   1B2
  8
0
  6
CONTINUOUS
 62
     7
  0
BLOCK
  5
   1B3
  8
0
  6
CONTINUOUS
 62
     7
  2
*UDIM1526
 70
    65
 10
0.0
 20
0.0
 30
0.0
  3
*UDIM1526
  0
TEXT
  5
   1B4
  8
0
  6
CONTINUOUS
 62
     7
 10
199.463016503223
 20
18.2868362078081
 30
0.0
 40
3.00000002980232
  1
90
 50
449.999999844103
 41
0.933333333333333
 72
     1
 11
197.963016495109
 21
20.7868362367153
 31
0.0
 73
     2
  0
LINE
  5
   1B5
  8
0
  6
CONTINUOUS
 62
     7
 10
232.377653198242
 20
32.3118362426758
 30
0.0
 11
198.46301651001
 21
32.3118362426758
 31
0.0
  0
LINE
  5
   1B6
  8
0
  6
CONTINUOUS
 62
     7
 10
204.929128507706
 20
9.81183624267578
 30
0.0
 11
198.46301651001
 21
9.81183624267578
 31
0.0
  0
LINE
  5
   1B7
  8
0
  6
CONTINUOUS
 62
     7
 10
200.46301651001
 20
32.3118362426758
 30
0.0
 11
200.46301651001
 21
9.81183624267578
 31
0.0
  0
LINE
  5
   1B8
  8
0
  6
CONTINUOUS
 62
     7
 10
200.983960939961
 20
29.3574129654688
 30
0.0
 11
200.46301651001
 21
32.3118362426758
 31
0.0
  0
LINE
  5
   1B9
  8
0
  6
CONTINUOUS
 62
     7
 10
200.46301651001
 20
32.3118362426758
 30
0.0
 11
199.942072080058
 21
29.3574129654688
 31
0.0
  0
LINE
  5
   1BA
  8
0
  6
CONTINUOUS
 62
     7
 10
199.942072080058
 20
12.7662595198827
 30
0.0
 11
200.46301651001
 21
9.81183624267578
 31
0.0
  0
LINE
  5
   1BB
  8
0
  6
CONTINUOUS
 62
     7
 10
200.46301651001
 20
9.81183624267578
 30
0.0
 11
200.983960939961
 21
12.7662595198827
 31
0.0
  0
ENDBLK
  5
   1BC
  8
0
  6
CONTINUOUS
 62
     7
  0
BLOCK
  5
   1BD
  8
0
  6
CONTINUOUS
 62
     7
  2
*UDIM1527
 70
    65
 10
0.0
 20
0.0
 30
0.0
  3
*UDIM1527
  0
TEXT
  5
   1BE
  8
0
  6
CONTINUOUS
 62
     7
 10
205.716941822909
 20
5.63683619390035
 30
0.0
 40
3.00000002980232
  1
161
 50
449.999999844103
 41
0.933333333333333
 72
     1
 11
204.216941818595
 21
9.53683623671532
 31
0.0
 73
     2
  0
LINE
  5
   1BF
  8
0
  6
CONTINUOUS
 62
     7
 10
212.360153198242
 20
29.9368362426758
 30
0.0
 11
204.716941833496
 21
29.9368362426758
 31
0.0
  0
LINE
  5
   1C0
  8
0
  6
CONTINUOUS
 62
     7
 10
212.360153198242
 20
-10.3131637573242
 30
0.0
 11
204.716941833496
 21
-10.3131637573242
 31
0.0
  0
LINE
  5
   1C1
  8
0
  6
CONTINUOUS
 62
     7
 10
206.716941833496
 20
29.9368362426758
 30
0.0
 11
206.716941833496
 21
-10.3131637573242
 31
0.0
  0
LINE
  5
   1C2
  8
0
  6
CONTINUOUS
 62
     7
 10
207.237886263448
 20
26.9824129654688
 30
0.0
 11
206.716941833496
 21
29.9368362426758
 31
0.0
  0
LINE
  5
   1C3
  8
0
  6
CONTINUOUS
 62
     7
 10
206.716941833496
 20
29.9368362426758
 30
0.0
 11
206.195997403544
 21
26.9824129654688
 31
0.0
  0
LINE
  5
   1C4
  8
0
  6
CONTINUOUS
 62
     7
 10
206.195997403544
 20
-7.35874048011726
 30
0.0
 11
206.716941833496
 21
-10.3131637573242
 31
0.0
  0
LINE
  5
   1C5
  8
0
  6
CONTINUOUS
 62
     7
 10
206.716941833496
 20
-10.3131637573242
 30
0.0
 11
207.237886263448
 21
-7.35874048011726
 31
0.0
  0
ENDBLK
  5
   1C6
  8
0
  6
CONTINUOUS
 62
     7
  0
BLOCK
  5
   1C7
  8
0
  6
CONTINUOUS
 62
     7
  2
*UDIM1528
 70
    65
 10
0.0
 20
0.0
 30
0.0
  3
*UDIM1528
  0
TEXT
  5
   1C8
  8
0
  6
CONTINUOUS
 62
     7
 10
290.277912129306
 20
5.63683619390035
 30
0.0
 40
3.00000002980232
  1
177
 50
449.999999844103
 41
0.933333333333333
 72
     1
 11
288.777912124991
 21
9.53683623671532
 31
0.0
 73
     2
  0
LINE
  5
   1C9
  8
0
  6
CONTINUOUS
 62
     7
 10
263.610153198242
 20
31.9368362426758
 30
0.0
 11
293.277912139893
 21
31.9368362426758
 31
0.0
  0
LINE
  5
   1CA
  8
0
  6
CONTINUOUS
 62
     7
 10
263.610153198242
 20
-12.3131637573242
 30
0.0
 11
293.277912139893
 21
-12.3131637573242
 31
0.0
  0
LINE
  5
   1CB
  8
0
  6
CONTINUOUS
 62
     7
 10
291.277912139893
 20
31.9368362426758
 30
0.0
 11
291.277912139893
 21
-12.3131637573242
 31
0.0
  0
LINE
  5
   1CC
  8
0
  6
CONTINUOUS
 62
     7
 10
291.798856569844
 20
28.9824129654688
 30
0.0
 11
291.277912139893
 21
31.9368362426758
 31
0.0
  0
LINE
  5
   1CD
  8
0
  6
CONTINUOUS
 62
     7
 10
291.277912139893
 20
31.9368362426758
 30
0.0
 11
290.756967709941
 21
28.9824129654688
 31
0.0
  0
LINE
  5
   1CE
  8
0
  6
CONTINUOUS
 62
     7
 10
290.756967709941
 20
-9.35874048011726
 30
0.0
 11
291.277912139893
 21
-12.3131637573242
 31
0.0
  0
LINE
  5
   1CF
  8
0
  6
CONTINUOUS
 62
     7
 10
291.277912139893
 20
-12.3131637573242
 30
0.0
 11
291.798856569844
 21
-9.35874048011726
 31
0.0
  0
ENDBLK
  5
   1D0
  8
0
  6
CONTINUOUS
 62
     7
  0
BLOCK
  5
   1D1
  8
0
  6
CONTINUOUS
 62
     7
  2
*UDIM1529
 70
    65
 10
0.0
 20
0.0
 30
0.0
  3
*UDIM1529
  0
TEXT
  5
   1D2
  8
0
  6
CONTINUOUS
 62
     7
 10
283.630882260198
 20
19.0606775372237
 30
0.0
 40
3.00000002980232
  1
=
 50
449.999999844103
 41
0.933333333333334
 72
     1
 11
282.130882248282
 21
20.1606775522232
 31
0.0
 73
     2
  0
LINE
  5
   1D3
  8
0
  6
CONTINUOUS
 62
     7
 10
263.610153198242
 20
31.9368362426758
 30
0.0
 11
286.630882263184
 21
31.9368362426758
 31
0.0
  0
LINE
  5
   1D4
  8
0
  6
CONTINUOUS
 62
     7
 10
277.942621190886
 20
9.81183624267578
 30
0.0
 11
286.630882263184
 21
9.81183624267578
 31
0.0
  0
LINE
  5
   1D5
  8
0
  6
CONTINUOUS
 62
     7
 10
284.630882263184
 20
31.9368362426758
 30
0.0
 11
284.630882263184
 21
9.81183624267578
 31
0.0
  0
LINE
  5
   1D6
  8
0
  6
CONTINUOUS
 62
     7
 10
285.151826693135
 20
28.9824129654688
 30
0.0
 11
284.630882263184
 21
31.9368362426758
 31
0.0
  0
LINE
  5
   1D7
  8
0
  6
CONTINUOUS
 62
     7
 10
284.630882263184
 20
31.9368362426758
 30
0.0
 11
284.109937833232
 21
28.9824129654688
 31
0.0
  0
LINE
  5
   1D8
  8
0
  6
CONTINUOUS
 62
     7
 10
284.109937833232
 20
12.7662595198827
 30
0.0
 11
284.630882263184
 21
9.81183624267578
 31
0.0
  0
LINE
  5
   1D9
  8
0
  6
CONTINUOUS
 62
     7
 10
284.630882263184
 20
9.81183624267578
 30
0.0
 11
285.151826693135
 21
12.7662595198827
 31
0.0
  0
ENDBLK
  5
   1DA
  8
0
  6
CONTINUOUS
 62
     7
  0
BLOCK
  5
   1DB
  8
0
  6
CONTINUOUS
 62
     7
  2
*UDIM1530
 70
    65
 10
0.0
 20
0.0
 30
0.0
  3
*UDIM1530
  0
TEXT
  5
   1DC
  8
0
  6
CONTINUOUS
 62
     7
 10
283.630882260198
 20
-3.2390365512162
 30
0.0
 40
3.00000002980232
  1
=
 50
449.999999844103
 41
0.933333333333334
 72
     1
 11
282.130882248282
 21
-2.13903653621674
 31
0.0
 73
     2
  0
LINE
  5
   1DD
  8
0
  6
CONTINUOUS
 62
     7
 10
263.610153198242
 20
-12.3131637573242
 30
0.0
 11
286.630882263184
 21
-12.3131637573242
 31
0.0
  0
LINE
  5
   1DE
  8
0
  6
CONTINUOUS
 62
     7
 10
284.630882263184
 20
9.81183624267578
 30
0.0
 11
284.630882263184
 21
-12.3131637573242
 31
0.0
  0
LINE
  5
   1DF
  8
0
  6
CONTINUOUS
 62
     7
 10
285.151826693135
 20
6.85741296546882
 30
0.0
 11
284.630882263184
 21
9.81183624267578
 31
0.0
  0
LINE
  5
   1E0
  8
0
  6
CONTINUOUS
 62
     7
 10
284.630882263184
 20
9.81183624267578
 30
0.0
 11
284.109937833232
 21
6.85741296546882
 31
0.0
  0
LINE
  5
   1E1
  8
0
  6
CONTINUOUS
 62
     7
 10
284.109937833232
 20
-9.35874048011726
 30
0.0
 11
284.630882263184
 21
-12.3131637573242
 31
0.0
  0
LINE
  5
   1E2
  8
0
  6
CONTINUOUS
 62
     7
 10
284.630882263184
 20
-12.3131637573242
 30
0.0
 11
285.151826693135
 21
-9.35874048011726
 31
0.0
  0
ENDBLK
  5
   1E3
  8
0
  6
CONTINUOUS
 62
     7
  0
BLOCK
  5
   1E4
  8
0
  6
CONTINUOUS
 62
     7
  2
*UDIM1531
 70
    65
 10
0.0
 20
0.0
 30
0.0
  3
*UDIM1531
  0
TEXT
  5
   1E5
  8
0
  6
CONTINUOUS
 62
     7
 10
245.202884671086
 20
12.8118361323089
 30
0.0
 40
3.00000002980232
  1
9
 50
449.999999844103
 41
0.933333333333334
 72
     1
 11
243.702884659171
 21
13.9118361473083
 31
0.0
 73
     2
  0
LINE
  5
   1E6
  8
0
  6
CONTINUOUS
 62
     7
 10
264.985153198242
 20
7.56183624267578
 30
0.0
 11
244.202884674072
 21
7.56183624267578
 31
0.0
  0
LINE
  5
   1E7
  8
0
  6
CONTINUOUS
 62
     7
 10
246.202884674072
 20
15.0118361582359
 30
0.0
 11
246.202884674072
 21
7.56183624267578
 31
0.0
  0
LINE
  5
   1E8
  8
0
  6
CONTINUOUS
 62
     7
 10
245.681940244121
 20
12.7662595198827
 30
0.0
 11
246.202884674072
 21
9.81183624267578
 31
0.0
  0
LINE
  5
   1E9
  8
0
  6
CONTINUOUS
 62
     7
 10
246.202884674072
 20
9.81183624267578
 30
0.0
 11
246.723829104024
 21
12.7662595198827
 31
0.0
  0
LINE
  5
   1EA
  8
0
  6
CONTINUOUS
 62
     7
 10
246.723829104024
 20
4.60741296546882
 30
0.0
 11
246.202884674072
 21
7.56183624267578
 31
0.0
  0
LINE
  5
   1EB
  8
0
  6
CONTINUOUS
 62
     7
 10
246.202884674072
 20
7.56183624267578
 30
0.0
 11
245.681940244121
 21
4.60741296546882
 31
0.0
  0
ENDBLK
  5
   1EC
  8
0
  6
CONTINUOUS
 62
     7
  0
BLOCK
  5
   1ED
  8
0
  6
CONTINUOUS
 62
     7
  2
*UDIM1532
 70
    65
 10
0.0
 20
0.0
 30
0.0
  3
*UDIM1532
  0
TEXT
  5
   1EE
  8
0
  6
CONTINUOUS
 62
     7
 10
245.202884667286
 20
0.395729602278318
 30
0.0
 40
3.00000002980232
  1
39
 50
449.999999844103
 41
0.933333333333333
 72
     1
 11
243.702884659171
 21
2.89572963118553
 31
0.0
 73
     2
  0
LINE
  5
   1EF
  8
0
  6
CONTINUOUS
 62
     7
 10
264.985153198242
 20
-2.18816375732422
 30
0.0
 11
244.202884674072
 21
-2.18816375732422
 31
0.0
  0
LINE
  5
   1F0
  8
0
  6
CONTINUOUS
 62
     7
 10
246.202884674072
 20
7.56183624267578
 30
0.0
 11
246.202884674072
 21
-2.18816375732422
 31
0.0
  0
LINE
  5
   1F1
  8
0
  6
CONTINUOUS
 62
     7
 10
245.681940244121
 20
10.5162595198827
 30
0.0
 11
246.202884674072
 21
7.56183624267578
 31
0.0
  0
LINE
  5
   1F2
  8
0
  6
CONTINUOUS
 62
     7
 10
246.202884674072
 20
7.56183624267578
 30
0.0
 11
246.723829104024
 21
10.5162595198827
 31
0.0
  0
LINE
  5
   1F3
  8
0
  6
CONTINUOUS
 62
     7
 10
246.723829104024
 20
-5.14258703453118
 30
0.0
 11
246.202884674072
 21
-2.18816375732422
 31
0.0
  0
LINE
  5
   1F4
  8
0
  6
CONTINUOUS
 62
     7
 10
246.202884674072
 20
-2.18816375732422
 30
0.0
 11
245.681940244121
 21
-5.14258703453118
 31
0.0
  0
ENDBLK
  5
   1F5
  8
0
  6
CONTINUOUS
 62
     7
  0
BLOCK
  5
   1F6
  8
0
  6
CONTINUOUS
 62
     7
  2
*UDIM1533
 70
    65
 10
0.0
 20
0.0
 30
0.0
  3
*UDIM1533
  0
TEXT
  5
   1F7
  8
0
  6
CONTINUOUS
 62
     7
 10
246.685153149465
 20
-39.4655341996131
 30
0.0
 40
3.00000002980232
  1
121
 50
359.999999844103
 41
0.933333333333333
 72
     1
 11
250.585153192282
 21
-37.9655341953039
 31
0.0
 73
     2
  0
LINE
  5
   1F8
  8
0
  6
CONTINUOUS
 62
     7
 10
235.735153198242
 20
-20.8593724318583
 30
0.0
 11
235.735153198242
 21
-42.4655342102051
 31
0.0
  0
LINE
  5
   1F9
  8
0
  6
CONTINUOUS
 62
     7
 10
265.985153198242
 20
-3.93816375732422
 30
0.0
 11
265.985153198242
 21
-42.4655342102051
 31
0.0
  0
LINE
  5
   1FA
  8
0
  6
CONTINUOUS
 62
     7
 10
235.735153198242
 20
-40.4655342102051
 30
0.0
 11
265.985153198242
 21
-40.4655342102051
 31
0.0
  0
LINE
  5
   1FB
  8
0
  6
CONTINUOUS
 62
     7
 10
238.689576475449
 20
-39.9445897802534
 30
0.0
 11
235.735153198242
 21
-40.4655342102051
 31
0.0
  0
LINE
  5
   1FC
  8
0
  6
CONTINUOUS
 62
     7
 10
235.735153198242
 20
-40.4655342102051
 30
0.0
 11
238.689576475449
 21
-40.9864786401567
 31
0.0
  0
LINE
  5
   1FD
  8
0
  6
CONTINUOUS
 62
     7
 10
263.030729921035
 20
-40.9864786401567
 30
0.0
 11
265.985153198242
 21
-40.4655342102051
 31
0.0
  0
LINE
  5
   1FE
  8
0
  6
CONTINUOUS
 62
     7
 10
265.985153198242
 20
-40.4655342102051
 30
0.0
 11
263.030729921035
 21
-39.9445897802534
 31
0.0
  0
ENDBLK
  5
   1FF
  8
0
  6
CONTINUOUS
 62
     7
  0
BLOCK
  5
   200
  8
0
  6
CONTINUOUS
 62
     7
  2
*UDIM1534
 70
    65
 10
0.0
 20
0.0
 30
0.0
  3
*UDIM1534
  0
TEXT
  5
   201
  8
0
  6
CONTINUOUS
 62
     7
 10
270.561349363028
 20
-20.7752284935765
 30
0.0
 40
3.00000002980232
  1
16
 50
359.999999844103
 41
0.933333333333333
 72
     1
 11
273.061349391937
 21
-19.2752284854651
 31
0.0
 73
     2
  0
LINE
  5
   202
  8
0
  6
CONTINUOUS
 62
     7
 10
263.985153198242
 20
-1.18816375732422
 30
0.0
 11
263.985153198242
 21
-23.7752285003662
 31
0.0
  0
LINE
  5
   203
  8
0
  6
CONTINUOUS
 62
     7
 10
267.985153198242
 20
-1.18816375732422
 30
0.0
 11
267.985153198242
 21
-23.7752285003662
 31
0.0
  0
LINE
  5
   204
  8
0
  6
CONTINUOUS
 62
     7
 10
263.985153198242
 20
-21.7752285003662
 30
0.0
 11
275.561349416773
 21
-21.7752285003662
 31
0.0
  0
LINE
  5
   205
  8
0
  6
CONTINUOUS
 62
     7
 10
261.030729921035
 20
-22.2961729303179
 30
0.0
 11
263.985153198242
 21
-21.7752285003662
 31
0.0
  0
LINE
  5
   206
  8
0
  6
CONTINUOUS
 62
     7
 10
263.985153198242
 20
-21.7752285003662
 30
0.0
 11
261.030729921035
 21
-21.2542840704145
 31
0.0
  0
LINE
  5
   207
  8
0
  6
CONTINUOUS
 62
     7
 10
270.939576475449
 20
-21.2542840704146
 30
0.0
 11
267.985153198242
 21
-21.7752285003662
 31
0.0
  0
LINE
  5
   208
  8
0
  6
CONTINUOUS
 62
     7
 10
267.985153198242
 20
-21.7752285003662
 30
0.0
 11
270.939576475449
 21
-22.2961729303179
 31
0.0
  0
ENDBLK
  5
   209
  8
0
  6
CONTINUOUS
 62
     7
  0
BLOCK
  5
   20A
  8
0
  6
CONTINUOUS
 62
     7
  2
*UDIM1535
 70
    65
 10
0.0
 20
0.0
 30
0.0
  3
*UDIM1535
  0
TEXT
  5
   20B
  8
0
  6
CONTINUOUS
 62
     7
 10
233.697653121649
 20
-33.533237439079
 30
0.0
 40
3.00000002980232
  1
162,5
 50
359.999999844103
 41
0.933333333333333
 72
     1
 11
240.397653192282
 21
-32.0332374423742
 31
0.0
 73
     2
  0
LINE
  5
   20C
  8
0
  6
CONTINUOUS
 62
     7
 10
220.360153198242
 20
-14.9381637573242
 30
0.0
 11
220.360153198242
 21
-36.5332374572754
 31
0.0
  0
LINE
  5
   20D
  8
0
  6
CONTINUOUS
 62
     7
 10
260.985153198242
 20
-14.9381637573242
 30
0.0
 11
260.985153198242
 21
-36.5332374572754
 31
0.0
  0
LINE
  5
   20E
  8
0
  6
CONTINUOUS
 62
     7
 10
220.360153198242
 20
-34.5332374572754
 30
0.0
 11
260.985153198242
 21
-34.5332374572754
 31
0.0
  0
LINE
  5
   20F
  8
0
  6
CONTINUOUS
 62
     7
 10
223.314576475449
 20
-34.0122930273237
 30
0.0
 11
220.360153198242
 21
-34.5332374572754
 31
0.0
  0
LINE
  5
   210
  8
0
  6
CONTINUOUS
 62
     7
 10
220.360153198242
 20
-34.5332374572754
 30
0.0
 11
223.314576475449
 21
-35.0541818872271
 31
0.0
  0
LINE
  5
   211
  8
0
  6
CONTINUOUS
 62
     7
 10
258.030729921035
 20
-35.0541818872271
 30
0.0
 11
260.985153198242
 21
-34.5332374572754
 31
0.0
  0
LINE
  5
   212
  8
0
  6
CONTINUOUS
 62
     7
 10
260.985153198242
 20
-34.5332374572754
 30
0.0
 11
258.030729921035
 21
-34.0122930273237
 31
0.0
  0
ENDBLK
  5
   213
  8
0
  6
CONTINUOUS
 62
     7
  0
BLOCK
  5
   214
  8
0
  6
CONTINUOUS
 62
     7
  2
*UDIM1536
 70
    65
 10
0.0
 20
0.0
 30
0.0
  3
*UDIM1536
  0
TEXT
  5
   215
  8
0
  6
CONTINUOUS
 62
     7
 10
244.185153149465
 20
-26.8862075699745
 30
0.0
 40
3.00000002980232
  1
101
 50
359.999999844103
 41
0.933333333333333
 72
     1
 11
248.085153192282
 21
-25.3862075656652
 31
0.0
 73
     2
  0
LINE
  5
   216
  8
0
  6
CONTINUOUS
 62
     7
 10
235.735153198242
 20
-20.8593724318583
 30
0.0
 11
235.735153198242
 21
-29.8862075805664
 31
0.0
  0
LINE
  5
   217
  8
0
  6
CONTINUOUS
 62
     7
 10
260.985153198242
 20
-14.9381637573242
 30
0.0
 11
260.985153198242
 21
-29.8862075805664
 31
0.0
  0
LINE
  5
   218
  8
0
  6
CONTINUOUS
 62
     7
 10
235.735153198242
 20
-27.8862075805664
 30
0.0
 11
260.985153198242
 21
-27.8862075805664
 31
0.0
  0
LINE
  5
   219
  8
0
  6
CONTINUOUS
 62
     7
 10
238.689576475449
 20
-27.3652631506147
 30
0.0
 11
235.735153198242
 21
-27.8862075805664
 31
0.0
  0
LINE
  5
   21A
  8
0
  6
CONTINUOUS
 62
     7
 10
235.735153198242
 20
-27.8862075805664
 30
0.0
 11
238.689576475449
 21
-28.4071520105181
 31
0.0
  0
LINE
  5
   21B
  8
0
  6
CONTINUOUS
 62
     7
 10
258.030729921035
 20
-28.4071520105181
 30
0.0
 11
260.985153198242
 21
-27.8862075805664
 31
0.0
  0
LINE
  5
   21C
  8
0
  6
CONTINUOUS
 62
     7
 10
260.985153198242
 20
-27.8862075805664
 30
0.0
 11
258.030729921035
 21
-27.3652631506147
 31
0.0
  0
ENDBLK
  5
   21D
  8
0
  6
CONTINUOUS
 62
     7
  0
BLOCK
  5
   21E
  8
0
  6
CONTINUOUS
 62
     7
  2
*UDIM1537
 70
    65
 10
0.0
 20
0.0
 30
0.0
  3
*UDIM1537
  0
TEXT
  5
   21F
  8
0
  6
CONTINUOUS
 62
     7
 10
218.88515350908
 20
-20.0962314423749
 30
0.0
 40
3.00000002980232
  1
19,75
 50
359.999999844103
 41
0.933333333333333
 72
     1
 11
225.585153579712
 21
-18.5962314456701
 31
0.0
 73
     2
  0
LINE
  5
   220
  8
0
  6
CONTINUOUS
 62
     7
 10
235.735153198242
 20
-20.8593724318583
 30
0.0
 11
235.735153198242
 21
-23.0962314605713
 31
0.0
  0
LINE
  5
   221
  8
0
  6
CONTINUOUS
 62
     7
 10
240.672653198242
 20
-14.9381637573242
 30
0.0
 11
240.672653198242
 21
-23.0962314605713
 31
0.0
  0
LINE
  5
   222
  8
0
  6
CONTINUOUS
 62
     7
 10
218.885153513153
 20
-21.0962314605713
 30
0.0
 11
240.672653198242
 21
-21.0962314605713
 31
0.0
  0
LINE
  5
   223
  8
0
  6
CONTINUOUS
 62
     7
 10
232.780729921035
 20
-21.617175890523
 30
0.0
 11
235.735153198242
 21
-21.0962314605713
 31
0.0
  0
LINE
  5
   224
  8
0
  6
CONTINUOUS
 62
     7
 10
235.735153198242
 20
-21.0962314605713
 30
0.0
 11
232.780729921035
 21
-20.5752870306196
 31
0.0
  0
LINE
  5
   225
  8
0
  6
CONTINUOUS
 62
     7
 10
243.627076475449
 20
-20.5752870306196
 30
0.0
 11
240.672653198242
 21
-21.0962314605713
 31
0.0
  0
LINE
  5
   226
  8
0
  6
CONTINUOUS
 62
     7
 10
240.672653198242
 20
-21.0962314605713
 30
0.0
 11
243.627076475449
 21
-21.617175890523
 31
0.0
  0
ENDBLK
  5
   227
  8
0
  6
CONTINUOUS
 62
     7
  0
BLOCK
  5
   228
  8
0
  6
CONTINUOUS
 62
     7
  2
*UDIM1538
 70
    65
 10
0.0
 20
0.0
 30
0.0
  3
*UDIM1538
  0
TEXT
  5
   229
  8
0
  6
CONTINUOUS
 62
     7
 10
230.435153149465
 20
52.2780647383752
 30
0.0
 40
3.00000002980232
  1
170
 50
359.999999844103
 41
0.933333333333333
 72
     1
 11
234.335153192282
 21
53.7780647426844
 31
0.0
 73
     2
  0
LINE
  5
   22A
  8
0
  6
CONTINUOUS
 62
     7
 10
213.360153198242
 20
30.9368362426758
 30
0.0
 11
213.360153198242
 21
53.2780647277832
 31
0.0
  0
LINE
  5
   22B
  8
0
  6
CONTINUOUS
 62
     7
 10
255.860153198242
 20
30.9368362426758
 30
0.0
 11
255.860153198242
 21
53.2780647277832
 31
0.0
  0
LINE
  5
   22C
  8
0
  6
CONTINUOUS
 62
     7
 10
213.360153198242
 20
51.2780647277832
 30
0.0
 11
255.860153198242
 21
51.2780647277832
 31
0.0
  0
LINE
  5
   22D
  8
0
  6
CONTINUOUS
 62
     7
 10
216.314576475449
 20
51.7990091577349
 30
0.0
 11
213.360153198242
 21
51.2780647277832
 31
0.0
  0
LINE
  5
   22E
  8
0
  6
CONTINUOUS
 62
     7
 10
213.360153198242
 20
51.2780647277832
 30
0.0
 11
216.314576475449
 21
50.7571202978315
 31
0.0
  0
LINE
  5
   22F
  8
0
  6
CONTINUOUS
 62
     7
 10
252.905729921035
 20
50.7571202978315
 30
0.0
 11
255.860153198242
 21
51.2780647277832
 31
0.0
  0
LINE
  5
   230
  8
0
  6
CONTINUOUS
 62
     7
 10
255.860153198242
 20
51.2780647277832
 30
0.0
 11
252.905729921035
 21
51.7990091577349
 31
0.0
  0
ENDBLK
  5
   231
  8
0
  6
CONTINUOUS
 62
     7
  0
BLOCK
  5
   232
  8
0
  6
CONTINUOUS
 62
     7
  2
*UDIM1539
 70
    65
 10
0.0
 20
0.0
 30
0.0
  3
*UDIM1539
  0
TEXT
  5
   233
  8
0
  6
CONTINUOUS
 62
     7
 10
240.222653135557
 20
46.6674003745016
 30
0.0
 40
3.00000002980232
  1
80,5
 50
359.999999844103
 41
0.933333333333333
 72
     1
 11
245.522653192282
 21
48.1674003750086
 31
0.0
 73
     2
  0
LINE
  5
   234
  8
0
  6
CONTINUOUS
 62
     7
 10
235.735153198242
 20
41.8895341572956
 30
0.0
 11
235.735153198242
 21
47.6674003601074
 31
0.0
  0
LINE
  5
   235
  8
0
  6
CONTINUOUS
 62
     7
 10
255.860153198242
 20
30.9368362426758
 30
0.0
 11
255.860153198242
 21
47.6674003601074
 31
0.0
  0
LINE
  5
   236
  8
0
  6
CONTINUOUS
 62
     7
 10
235.735153198242
 20
45.6674003601074
 30
0.0
 11
255.860153198242
 21
45.6674003601074
 31
0.0
  0
LINE
  5
   237
  8
0
  6
CONTINUOUS
 62
     7
 10
238.689576475449
 20
46.1883447900591
 30
0.0
 11
235.735153198242
 21
45.6674003601074
 31
0.0
  0
LINE
  5
   238
  8
0
  6
CONTINUOUS
 62
     7
 10
235.735153198242
 20
45.6674003601074
 30
0.0
 11
238.689576475449
 21
45.1464559301558
 31
0.0
  0
LINE
  5
   239
  8
0
  6
CONTINUOUS
 62
     7
 10
252.905729921035
 20
45.1464559301558
 30
0.0
 11
255.860153198242
 21
45.6674003601074
 31
0.0
  0
LINE
  5
   23A
  8
0
  6
CONTINUOUS
 62
     7
 10
255.860153198242
 20
45.6674003601074
 30
0.0
 11
252.905729921035
 21
46.1883447900591
 31
0.0
  0
ENDBLK
  5
   23B
  8
0
  6
CONTINUOUS
 62
     7
  0
BLOCK
  5
   23C
  8
0
  6
CONTINUOUS
 62
     7
  2
*UDIM1540
 70
    65
 10
0.0
 20
0.0
 30
0.0
  3
*UDIM1540
  0
TEXT
  5
   23D
  8
0
  6
CONTINUOUS
 62
     7
 10
238.589773477017
 20
41.2711544104762
 30
0.0
 40
3.00000002980232
  1
45
 50
359.999999844103
 41
0.933333333333333
 72
     1
 11
241.089773505926
 21
42.7711544185877
 31
0.0
 73
     2
  0
LINE
  5
   23E
  8
0
  6
CONTINUOUS
 62
     7
 10
235.047653198242
 20
34.9818362426758
 30
0.0
 11
235.047653198242
 21
42.2711544036865
 31
0.0
  0
LINE
  5
   23F
  8
0
  6
CONTINUOUS
 62
     7
 10
246.297653198242
 20
34.9818362426758
 30
0.0
 11
246.297653198242
 21
42.2711544036865
 31
0.0
  0
LINE
  5
   240
  8
0
  6
CONTINUOUS
 62
     7
 10
235.047653198242
 20
40.2711544036865
 30
0.0
 11
246.297653198242
 21
40.2711544036865
 31
0.0
  0
LINE
  5
   241
  8
0
  6
CONTINUOUS
 62
     7
 10
232.093229921035
 20
39.7502099737349
 30
0.0
 11
235.047653198242
 21
40.2711544036865
 31
0.0
  0
LINE
  5
   242
  8
0
  6
CONTINUOUS
 62
     7
 10
235.047653198242
 20
40.2711544036865
 30
0.0
 11
232.093229921035
 21
40.7920988336382
 31
0.0
  0
LINE
  5
   243
  8
0
  6
CONTINUOUS
 62
     7
 10
249.252076475449
 20
40.7920988336382
 30
0.0
 11
246.297653198242
 21
40.2711544036865
 31
0.0
  0
LINE
  5
   244
  8
0
  6
CONTINUOUS
 62
     7
 10
246.297653198242
 20
40.2711544036865
 30
0.0
 11
249.252076475449
 21
39.7502099737349
 31
0.0
  0
ENDBLK
  5
   245
  8
0
  6
CONTINUOUS
 62
     7
  0
BLOCK
  5
   246
  8
0
  6
CONTINUOUS
 62
     7
  2
*HATCH303
 70
    65
 10
0.0
 20
0.0
 30
0.0
  3
*HATCH303
  0
LINE
  5
   247
  8
0
  6
CONTINUOUS
 62
    52
 10
-11.7279224395752
 20
1.0
 30
0.0
 11
-11.9763488769531
 21
0.75157368183136
 31
0.0
  0
LINE
  5
   248
  8
0
  6
CONTINUOUS
 62
    52
 10
-9.60660171508789
 20
1.0
 30
0.0
 11
-11.6066026687622
 21
-1.0
 31
0.0
  0
LINE
  5
   249
  8
0
  6
CONTINUOUS
 62
    52
 10
-7.48528146743774
 20
1.0
 30
0.0
 11
-9.48528289794922
 21
-1.0
 31
0.0
  0
LINE
  5
   24A
  8
0
  6
CONTINUOUS
 62
    52
 10
-5.3639612197876
 20
1.0
 30
0.0
 11
-7.36396265029907
 21
-1.0
 31
0.0
  0
LINE
  5
   24B
  8
0
  6
CONTINUOUS
 62
    52
 10
-3.47947335243225
 20
0.763167560100555
 30
0.0
 11
-5.24264097213745
 21
-1.0
 31
0.0
  0
LINE
  5
   24C
  8
0
  6
CONTINUOUS
 62
    52
 10
-2.51160907745361
 20
-0.390288293361664
 30
0.0
 11
-3.1213207244873
 21
-1.0
 31
0.0
  0
ENDBLK
  5
   24D
  8
0
  6
CONTINUOUS
 62
     7
  0
BLOCK
  5
   24E
  8
0
  6
CONTINUOUS
 62
     7
  2
*HATCH304
 70
    65
 10
0.0
 20
0.0
 30
0.0
  3
*HATCH304
  0
LINE
  5
   24F
  8
0
  6
CONTINUOUS
 62
    52
 10
5.24264097213745
 20
1.0
 30
0.0
 11
3.24264073371887
 21
-1.0
 31
0.0
  0
LINE
  5
   250
  8
0
  6
CONTINUOUS
 62
    52
 10
7.3639612197876
 20
1.0
 30
0.0
 11
5.3639612197876
 21
-1.0
 31
0.0
  0
LINE
  5
   251
  8
0
  6
CONTINUOUS
 62
    52
 10
9.48528099060059
 20
1.0
 30
0.0
 11
7.4852819442749
 21
-1.0
 31
0.0
  0
ENDBLK
  5
   252
  8
0
  6
CONTINUOUS
 62
     7
  0
BLOCK
  5
   253
  8
0
  6
CONTINUOUS
 62
     7
  2
*UDIM1541
 70
    65
 10
0.0
 20
0.0
 30
0.0
  3
*UDIM1541
  0
TEXT
  5
   254
  8
0
  6
CONTINUOUS
 62
     7
 10
69.5892655886872
 20
-164.913127971958
 30
0.0
 40
3.00000002980232
  1
80
 50
449.241125536518
 41
0.933333333333333
 72
     1
 11
68.1225083187524
 21
-162.393480520433
 31
0.0
 73
     2
  0
TEXT
  5
   255
  8
0
  6
CONTINUOUS
 62
     7
 10
69.0555405544255
 20
-159.905619800511
 30
0.0
 40
3.00000002980232
  1
°
 50
449.241125536518
 41
0.933333333333334
 72
     1
 11
67.5702410252638
 21
-158.785849566304
 31
0.0
 73
     2
  0
LINE
  5
   256
  8
0
  6
CONTINUOUS
 62
     7
 10
52.5268362216834
 20
-165.339587335908
 30
0.0
 11
66.7288033879139
 21
-177.256452747084
 31
0.0
  0
LINE
  5
   257
  8
0
  6
CONTINUOUS
 62
     7
 10
52.5268362216834
 20
-156.697613591826
 30
0.0
 11
66.7288033879139
 21
-144.78074818065
 31
0.0
  0
ARC
  5
   258
  8
0
  6
CONTINUOUS
 62
     7
 10
47.377284593376
 20
-161.018600463867
 30
0.0
 40
23.2616136940404
 50
319.999999815233
 51
399.999999769042
  0
LINE
  5
   259
  8
0
  6
CONTINUOUS
 62
     7
 10
66.6967145922959
 20
-173.372801368677
 30
0.0
 11
65.196714501676
 21
-175.970877527711
 31
0.0
  0
LINE
  5
   25A
  8
0
  6
CONTINUOUS
 62
     7
 10
65.196714501676
 20
-175.970877527711
 30
0.0
 11
67.4948477637724
 21
-174.042514618493
 31
0.0
  0
LINE
  5
   25B
  8
0
  6
CONTINUOUS
 62
     7
 10
67.4948477637724
 20
-147.994686309241
 30
0.0
 11
65.196714501676
 21
-146.066323400023
 31
0.0
  0
LINE
  5
   25C
  8
0
  6
CONTINUOUS
 62
     7
 10
65.196714501676
 20
-146.066323400023
 30
0.0
 11
66.6967145922959
 21
-148.664399559057
 31
0.0
  0
ENDBLK
  5
   25D
  8
0
  6
CONTINUOUS
 62
     7
  0
BLOCK
  5
   25E
  8
0
  6
CONTINUOUS
 62
     7
  2
*UDIM1542
 70
    65
 10
0.0
 20
0.0
 30
0.0
  3
*UDIM1542
  0
TEXT
  5
   25F
  8
0
  6
CONTINUOUS
 62
     7
 10
29.3151245049322
 20
-155.13353350669
 30
0.0
 40
3.00000002980232
  1
Ø4
 50
449.999999844103
 41
0.933333333333333
 72
     1
 11
27.8151244968176
 21
-152.633533477783
 31
0.0
 73
     2
  0
LINE
  5
   260
  8
0
  6
CONTINUOUS
 62
     7
 10
48.7607917785645
 20
-159.018600463867
 30
0.0
 11
28.3151245117188
 21
-159.018600463867
 31
0.0
  0
LINE
  5
   261
  8
0
  6
CONTINUOUS
 62
     7
 10
48.7607917785645
 20
-163.018600463867
 30
0.0
 11
28.3151245117188
 21
-163.018600463867
 31
0.0
  0
LINE
  5
   262
  8
0
  6
CONTINUOUS
 62
     7
 10
30.3151245117188
 20
-150.133533452948
 30
0.0
 11
30.3151245117188
 21
-163.018600463867
 31
0.0
  0
LINE
  5
   263
  8
0
  6
CONTINUOUS
 62
     7
 10
29.7941800817671
 20
-156.06417718666
 30
0.0
 11
30.3151245117188
 21
-159.018600463867
 31
0.0
  0
LINE
  5
   264
  8
0
  6
CONTINUOUS
 62
     7
 10
30.3151245117188
 20
-159.018600463867
 30
0.0
 11
30.8360689416704
 21
-156.06417718666
 31
0.0
  0
LINE
  5
   265
  8
0
  6
CONTINUOUS
 62
     7
 10
30.8360689416704
 20
-165.973023741074
 30
0.0
 11
30.3151245117188
 21
-163.018600463867
 31
0.0
  0
LINE
  5
   266
  8
0
  6
CONTINUOUS
 62
     7
 10
30.3151245117188
 20
-163.018600463867
 30
0.0
 11
29.7941800817671
 21
-165.973023741074
 31
0.0
  0
ENDBLK
  5
   267
  8
0
  6
CONTINUOUS
 62
     7
  0
BLOCK
  5
   268
  8
0
  6
CONTINUOUS
 62
     7
  2
*UDIM1543
 70
    65
 10
0.0
 20
0.0
 30
0.0
  3
*UDIM1543
  0
TEXT
  5
   269
  8
0
  6
CONTINUOUS
 62
     7
 10
-19.5214930421514
 20
-131.964225471745
 30
0.0
 40
2.99999994933605
  1
107
 50
359.999999896069
 41
0.933333333333333
 72
     1
 11
-15.6214931053011
 21
-130.464225504131
 31
0.0
 73
     2
  0
LINE
  5
   26A
  8
0
  6
CONTINUOUS
 62
     7
 10
-3.54090048372746
 20
-132.964225478799
 30
0.0
 11
-24.9409008026123
 21
-132.964225478799
 31
0.0
  0
LINE
  5
   26B
  8
0
  6
CONTINUOUS
 62
     7
 10
-6.49532376093442
 20
-133.485169908751
 30
0.0
 11
-3.54090048372746
 21
-132.964225478799
 31
0.0
  0
LINE
  5
   26C
  8
0
  6
CONTINUOUS
 62
     7
 10
-3.54090048372746
 20
-132.964225478799
 30
0.0
 11
-6.49532376093442
 21
-132.443281048848
 31
0.0
  0
LINE
  5
   26D
  8
0
  6
CONTINUOUS
 62
     7
 10
-21.9864775254053
 20
-132.443281048848
 30
0.0
 11
-24.9409008026123
 21
-132.964225478799
 31
0.0
  0
LINE
  5
   26E
  8
0
  6
CONTINUOUS
 62
     7
 10
-24.9409008026123
 20
-132.964225478799
 30
0.0
 11
-21.9864775254053
 21
-133.485169908751
 31
0.0
  0
ENDBLK
  5
   26F
  8
0
  6
CONTINUOUS
 62
     7
  0
BLOCK
  5
   270
  8
0
  6
CONTINUOUS
 62
     7
  2
*UDIM1544
 70
    65
 10
0.0
 20
0.0
 30
0.0
  3
*UDIM1544
  0
TEXT
  5
   271
  8
0
  6
CONTINUOUS
 62
     7
 10
-42.7433225317351
 20
-175.586854260056
 30
0.0
 40
2.99999994933605
  1
2
 50
359.999999896069
 41
0.933333333333333
 72
     1
 11
-41.6433225475985
 21
-174.086854287378
 31
0.0
 73
     2
  0
TEXT
  5
   272
  8
0
  6
CONTINUOUS
 62
     7
 10
-45.4933225065024
 20
-175.586854500469
 30
0.0
 40
2.99999994933605
  1
R
 50
359.999999896069
 41
0.933333333333333
 72
     1
 11
-44.3933225223658
 21
-174.08685452779
 31
0.0
 73
     2
  0
LINE
  5
   273
  8
0
  6
CONTINUOUS
 62
     7
 10
-60.2510145282632
 20
-183.344784740876
 30
0.0
 11
-51.9559043324164
 21
-176.5868551636
 31
0.0
  0
LINE
  5
   274
  8
0
  6
CONTINUOUS
 62
     7
 10
-51.9559043324164
 20
-176.5868551636
 30
0.0
 11
-40.5433223476183
 21
-176.586854165881
 31
0.0
  0
LINE
  5
   275
  8
0
  6
CONTINUOUS
 62
     7
 10
-58.2895361966797
 20
-181.074850214347
 30
0.0
 11
-60.2510145282632
 21
-183.344784740876
 31
0.0
  0
LINE
  5
   276
  8
0
  6
CONTINUOUS
 62
     7
 10
-60.2510145282632
 20
-183.344784740876
 30
0.0
 11
-57.6314645841396
 21
-181.88260893399
 31
0.0
  0
ENDBLK
  5
   277
  8
0
  6
CONTINUOUS
 62
     7
  0
BLOCK
  5
   278
  8
0
  6
CONTINUOUS
 62
     7
  2
*UDIM1545
 70
    65
 10
0.0
 20
0.0
 30
0.0
  3
*UDIM1545
  0
TEXT
  5
   279
  8
0
  6
CONTINUOUS
 62
     7
 10
-36.1159008955522
 20
-109.057366304722
 30
0.0
 40
2.99999994933605
  1
284
 50
359.999999896069
 41
0.933333333333333
 72
     1
 11
-32.215900958702
 21
-107.557366337109
 31
0.0
 73
     2
  0
LINE
  5
   27A
  8
0
  6
CONTINUOUS
 62
     7
 10
-3.54090048372746
 20
-123.092138249427
 30
0.0
 11
-3.54090048372746
 21
-108.057366311777
 31
0.0
  0
LINE
  5
   27B
  8
0
  6
CONTINUOUS
 62
     7
 10
-60.3409013301134
 20
-123.092138249427
 30
0.0
 11
-60.3409013301134
 21
-108.057366311777
 31
0.0
  0
LINE
  5
   27C
  8
0
  6
CONTINUOUS
 62
     7
 10
-3.54090048372746
 20
-110.057366311777
 30
0.0
 11
-60.3409013301134
 21
-110.057366311777
 31
0.0
  0
LINE
  5
   27D
  8
0
  6
CONTINUOUS
 62
     7
 10
-6.49532376093442
 20
-110.578310741729
 30
0.0
 11
-3.54090048372746
 21
-110.057366311777
 31
0.0
  0
LINE
  5
   27E
  8
0
  6
CONTINUOUS
 62
     7
 10
-3.54090048372746
 20
-110.057366311777
 30
0.0
 11
-6.49532376093442
 21
-109.536421881825
 31
0.0
  0
LINE
  5
   27F
  8
0
  6
CONTINUOUS
 62
     7
 10
-57.3864780529065
 20
-109.536421881825
 30
0.0
 11
-60.3409013301134
 21
-110.057366311777
 31
0.0
  0
LINE
  5
   280
  8
0
  6
CONTINUOUS
 62
     7
 10
-60.3409013301134
 20
-110.057366311777
 30
0.0
 11
-57.3864780529065
 21
-110.578310741729
 31
0.0
  0
ENDBLK
  5
   281
  8
0
  6
CONTINUOUS
 62
     7
  0
BLOCK
  5
   282
  8
0
  6
CONTINUOUS
 62
     7
  2
*UDIM1546
 70
    65
 10
0.0
 20
0.0
 30
0.0
  3
*UDIM1546
  0
TEXT
  5
   283
  8
0
  6
CONTINUOUS
 62
     7
 10
-83.1331624066115
 20
-137.26676300913
 30
0.0
 40
2.99999994933605
  1
77,5
 50
449.999999896069
 41
0.933333333333333
 72
     1
 11
-84.6331623716989
 21
-131.966763095925
 31
0.0
 73
     2
  0
LINE
  5
   284
  8
0
  6
CONTINUOUS
 62
     7
 10
-60.940901324153
 20
-123.692138243467
 30
0.0
 11
-84.1331623970309
 21
-123.692138243467
 31
0.0
  0
LINE
  5
   285
  8
0
  6
CONTINUOUS
 62
     7
 10
-60.940901324153
 20
-139.192138474435
 30
0.0
 11
-84.1331623970309
 21
-139.192138474435
 31
0.0
  0
LINE
  5
   286
  8
0
  6
CONTINUOUS
 62
     7
 10
-82.1331623970309
 20
-123.692138243467
 30
0.0
 11
-82.1331623970309
 21
-139.192138474435
 31
0.0
  0
LINE
  5
   287
  8
0
  6
CONTINUOUS
 62
     7
 10
-82.6541068269826
 20
-120.73771496626
 30
0.0
 11
-82.1331623970309
 21
-123.692138243467
 31
0.0
  0
LINE
  5
   288
  8
0
  6
CONTINUOUS
 62
     7
 10
-82.1331623970309
 20
-123.692138243467
 30
0.0
 11
-81.6122179670792
 21
-120.73771496626
 31
0.0
  0
LINE
  5
   289
  8
0
  6
CONTINUOUS
 62
     7
 10
-81.6122179670792
 20
-142.146561751642
 30
0.0
 11
-82.1331623970309
 21
-139.192138474435
 31
0.0
  0
LINE
  5
   28A
  8
0
  6
CONTINUOUS
 62
     7
 10
-82.1331623970309
 20
-139.192138474435
 30
0.0
 11
-82.6541068269826
 21
-142.146561751642
 31
0.0
  0
ENDBLK
  5
   28B
  8
0
  6
CONTINUOUS
 62
     7
  0
BLOCK
  5
   28C
  8
0
  6
CONTINUOUS
 62
     7
  2
*UDIM1547
 70
    65
 10
0.0
 20
0.0
 30
0.0
  3
*UDIM1547
  0
TEXT
  5
   28D
  8
0
  6
CONTINUOUS
 62
     7
 10
-83.1331624066115
 20
-149.815740857257
 30
0.0
 40
2.99999994933605
  1
57,5
 50
449.999999896069
 41
0.933333333333333
 72
     1
 11
-84.6331623716989
 21
-144.515740944052
 31
0.0
 73
     2
  0
LINE
  5
   28E
  8
0
  6
CONTINUOUS
 62
     7
 10
-51.6701136435296
 20
-150.692138645798
 30
0.0
 11
-84.1331623970309
 21
-150.692138645798
 31
0.0
  0
LINE
  5
   28F
  8
0
  6
CONTINUOUS
 62
     7
 10
-82.1331623970309
 20
-139.192138474435
 30
0.0
 11
-82.1331623970309
 21
-150.692138645798
 31
0.0
  0
LINE
  5
   290
  8
0
  6
CONTINUOUS
 62
     7
 10
-82.6541068269826
 20
-136.237715197228
 30
0.0
 11
-82.1331623970309
 21
-139.192138474435
 31
0.0
  0
LINE
  5
   291
  8
0
  6
CONTINUOUS
 62
     7
 10
-82.1331623970309
 20
-139.192138474435
 30
0.0
 11
-81.6122179670792
 21
-136.237715197228
 31
0.0
  0
LINE
  5
   292
  8
0
  6
CONTINUOUS
 62
     7
 10
-81.6122179670792
 20
-153.646561923005
 30
0.0
 11
-82.1331623970309
 21
-150.692138645798
 31
0.0
  0
LINE
  5
   293
  8
0
  6
CONTINUOUS
 62
     7
 10
-82.1331623970309
 20
-150.692138645798
 30
0.0
 11
-82.6541068269826
 21
-153.646561923005
 31
0.0
  0
ENDBLK
  5
   294
  8
0
  6
CONTINUOUS
 62
     7
  0
BLOCK
  5
   295
  8
0
  6
CONTINUOUS
 62
     7
  2
*UDIM1548
 70
    65
 10
0.0
 20
0.0
 30
0.0
  3
*UDIM1548
  0
TEXT
  5
   296
  8
0
  6
CONTINUOUS
 62
     7
 10
-83.1331624066115
 20
-164.917138763522
 30
0.0
 40
2.99999994933605
  1
86,5
 50
449.999999896069
 41
0.933333333333333
 72
     1
 11
-84.6331623716989
 21
-159.617138850316
 31
0.0
 73
     2
  0
LINE
  5
   297
  8
0
  6
CONTINUOUS
 62
     7
 10
-60.940901324153
 20
-167.992138903588
 30
0.0
 11
-84.1331623970309
 21
-167.992138903588
 31
0.0
  0
LINE
  5
   298
  8
0
  6
CONTINUOUS
 62
     7
 10
-82.1331623970309
 20
-150.692138645798
 30
0.0
 11
-82.1331623970309
 21
-167.992138903588
 31
0.0
  0
LINE
  5
   299
  8
0
  6
CONTINUOUS
 62
     7
 10
-81.6122179670792
 20
-153.646561923005
 30
0.0
 11
-82.1331623970309
 21
-150.692138645798
 31
0.0
  0
LINE
  5
   29A
  8
0
  6
CONTINUOUS
 62
     7
 10
-82.1331623970309
 20
-150.692138645798
 30
0.0
 11
-82.6541068269826
 21
-153.646561923005
 31
0.0
  0
LINE
  5
   29B
  8
0
  6
CONTINUOUS
 62
     7
 10
-82.6541068269826
 20
-165.037715626381
 30
0.0
 11
-82.1331623970309
 21
-167.992138903588
 31
0.0
  0
LINE
  5
   29C
  8
0
  6
CONTINUOUS
 62
     7
 10
-82.1331623970309
 20
-167.992138903588
 30
0.0
 11
-81.6122179670792
 21
-165.037715626381
 31
0.0
  0
ENDBLK
  5
   29D
  8
0
  6
CONTINUOUS
 62
     7
  0
BLOCK
  5
   29E
  8
0
  6
CONTINUOUS
 62
     7
  2
*UDIM1549
 70
    65
 10
0.0
 20
0.0
 30
0.0
  3
*UDIM1549
  0
TEXT
  5
   29F
  8
0
  6
CONTINUOUS
 62
     7
 10
-83.1331624066115
 20
-181.885339723803
 30
0.0
 40
2.99999994933605
  1
77,5
 50
449.999999896069
 41
0.933333333333333
 72
     1
 11
-84.6331623716989
 21
-176.585339810598
 31
0.0
 73
     2
  0
LINE
  5
   2A0
  8
0
  6
CONTINUOUS
 62
     7
 10
-60.940901324153
 20
-183.492139134556
 30
0.0
 11
-84.1331623970309
 21
-183.492139134556
 31
0.0
  0
LINE
  5
   2A1
  8
0
  6
CONTINUOUS
 62
     7
 10
-82.1331623970309
 20
-167.992138903588
 30
0.0
 11
-82.1331623970309
 21
-183.492139134556
 31
0.0
  0
LINE
  5
   2A2
  8
0
  6
CONTINUOUS
 62
     7
 10
-81.6122179670792
 20
-170.946562180795
 30
0.0
 11
-82.1331623970309
 21
-167.992138903588
 31
0.0
  0
LINE
  5
   2A3
  8
0
  6
CONTINUOUS
 62
     7
 10
-82.1331623970309
 20
-167.992138903588
 30
0.0
 11
-82.6541068269826
 21
-170.946562180795
 31
0.0
  0
LINE
  5
   2A4
  8
0
  6
CONTINUOUS
 62
     7
 10
-82.6541068269826
 20
-180.537715857349
 30
0.0
 11
-82.1331623970309
 21
-183.492139134556
 31
0.0
  0
LINE
  5
   2A5
  8
0
  6
CONTINUOUS
 62
     7
 10
-82.1331623970309
 20
-183.492139134556
 30
0.0
 11
-81.6122179670792
 21
-180.537715857349
 31
0.0
  0
ENDBLK
  5
   2A6
  8
0
  6
CONTINUOUS
 62
     7
  0
BLOCK
  5
   2A7
  8
0
  6
CONTINUOUS
 62
     7
  2
*UDIM1550
 70
    65
 10
0.0
 20
0.0
 30
0.0
  3
*UDIM1550
  0
TEXT
  5
   2A8
  8
0
  6
CONTINUOUS
 62
     7
 10
-20.2323191604045
 20
-174.889689981104
 30
0.0
 40
2.99999994933605
  1
70
 50
359.999999896069
 41
0.933333333333333
 72
     1
 11
-17.732319199911
 21
-173.389690010958
 31
0.0
 73
     2
  0
LINE
  5
   2A9
  8
0
  6
CONTINUOUS
 62
     7
 10
-10.940900593996
 20
-163.268951420478
 30
0.0
 11
-10.940900593996
 21
-177.889689985626
 31
0.0
  0
LINE
  5
   2AA
  8
0
  6
CONTINUOUS
 62
     7
 10
-10.940900593996
 20
-175.889689985626
 30
0.0
 11
-24.9409008026123
 21
-175.889689985626
 31
0.0
  0
LINE
  5
   2AB
  8
0
  6
CONTINUOUS
 62
     7
 10
-13.895323871203
 20
-176.410634415578
 30
0.0
 11
-10.940900593996
 21
-175.889689985626
 31
0.0
  0
LINE
  5
   2AC
  8
0
  6
CONTINUOUS
 62
     7
 10
-10.940900593996
 20
-175.889689985626
 30
0.0
 11
-13.895323871203
 21
-175.368745555675
 31
0.0
  0
LINE
  5
   2AD
  8
0
  6
CONTINUOUS
 62
     7
 10
-21.9864775254053
 20
-175.368745555675
 30
0.0
 11
-24.9409008026123
 21
-175.889689985626
 31
0.0
  0
LINE
  5
   2AE
  8
0
  6
CONTINUOUS
 62
     7
 10
-24.9409008026123
 20
-175.889689985626
 30
0.0
 11
-21.9864775254053
 21
-176.410634415578
 31
0.0
  0
ENDBLK
  5
   2AF
  8
0
  6
CONTINUOUS
 62
     7
  0
BLOCK
  5
   2B0
  8
0
  6
CONTINUOUS
 62
     7
  2
*UDIM1551
 70
    65
 10
0.0
 20
0.0
 30
0.0
  3
*UDIM1551
  0
TEXT
  5
   2B1
  8
0
  6
CONTINUOUS
 62
     7
 10
-2.54396632436738
 20
-166.737898719091
 30
0.0
 40
2.99999994933605
  1
8,5
 50
345.453431325576
 41
0.933333333333333
 72
     1
 11
1.60776470776241
 21
-166.26553355619
 31
0.0
 73
     2
  0
TEXT
  5
   2B2
  8
0
  6
CONTINUOUS
 62
     7
 10
-5.59298930496872
 20
-165.946723293161
 30
0.0
 40
2.99999994933605
  1
Ø
 50
345.453431325576
 41
0.933333333333333
 72
     1
 11
-4.15150091631201
 21
-164.771091076648
 31
0.0
 73
     2
  0
TEXT
  5
   2B3
  8
0
  6
CONTINUOUS
 62
     7
 10
5.53836444158573
 20
-168.835141525487
 30
0.0
 40
2.99999994933605
  1
 - M8
 50
345.453431325576
 41
0.933333333333333
 72
     1
 11
12.4003381171886
 21
-169.066043416198
 31
0.0
 73
     2
  0
LINE
  5
   2B4
  8
0
  6
CONTINUOUS
 62
     7
 10
18.2576445765259
 20
-173.168720517621
 30
0.0
 11
-11.7636528515912
 21
-165.378647078395
 31
0.0
  0
LINE
  5
   2B5
  8
0
  6
CONTINUOUS
 62
     7
 10
-7.127588640072
 20
-166.043438778844
 30
0.0
 11
-10.1181483364009
 21
-165.805630657256
 31
0.0
  0
LINE
  5
   2B6
  8
0
  6
CONTINUOUS
 62
     7
 10
-10.1181483364009
 20
-165.805630657256
 30
0.0
 11
-7.38927653862963
 21
-167.051928659873
 31
0.0
  0
LINE
  5
   2B7
  8
0
  6
CONTINUOUS
 62
     7
 10
-14.7542125479201
 20
-165.140838956807
 30
0.0
 11
-11.7636528515912
 21
-165.378647078395
 31
0.0
  0
LINE
  5
   2B8
  8
0
  6
CONTINUOUS
 62
     7
 10
-11.7636528515912
 20
-165.378647078395
 30
0.0
 11
-14.4925246493625
 21
-164.132349075777
 31
0.0
  0
ENDBLK
  5
   2B9
  8
0
  6
CONTINUOUS
 62
     7
  0
BLOCK
  5
   2BA
  8
0
  6
CONTINUOUS
 62
     7
  2
*UDIM1552
 70
    65
 10
0.0
 20
0.0
 30
0.0
  3
*UDIM1552
  0
TEXT
  5
   2BB
  8
0
  6
CONTINUOUS
 62
     7
 10
-75.1497272265246
 20
-159.214917734783
 30
0.0
 40
2.99999994933605
  1
120
 50
449.999999896069
 41
0.933333333333333
 72
     1
 11
-76.6497271941427
 21
-155.314917797935
 31
0.0
 73
     2
  0
LINE
  5
   2BC
  8
0
  6
CONTINUOUS
 62
     7
 10
-56.7909012623131
 20
-141.592138510197
 30
0.0
 11
-76.1497272194747
 21
-141.592138510197
 31
0.0
  0
LINE
  5
   2BD
  8
0
  6
CONTINUOUS
 62
     7
 10
-42.7909010536969
 20
-165.592138867825
 30
0.0
 11
-76.1497272194747
 21
-165.592138867825
 31
0.0
  0
LINE
  5
   2BE
  8
0
  6
CONTINUOUS
 62
     7
 10
-74.1497272194747
 20
-141.592138510197
 30
0.0
 11
-74.1497272194747
 21
-165.592138867825
 31
0.0
  0
LINE
  5
   2BF
  8
0
  6
CONTINUOUS
 62
     7
 10
-73.628782789523
 20
-144.546561787404
 30
0.0
 11
-74.1497272194747
 21
-141.592138510197
 31
0.0
  0
LINE
  5
   2C0
  8
0
  6
CONTINUOUS
 62
     7
 10
-74.1497272194747
 20
-141.592138510197
 30
0.0
 11
-74.6706716494264
 21
-144.546561787404
 31
0.0
  0
LINE
  5
   2C1
  8
0
  6
CONTINUOUS
 62
     7
 10
-74.6706716494264
 20
-162.637715590618
 30
0.0
 11
-74.1497272194747
 21
-165.592138867825
 31
0.0
  0
LINE
  5
   2C2
  8
0
  6
CONTINUOUS
 62
     7
 10
-74.1497272194747
 20
-165.592138867825
 30
0.0
 11
-73.628782789523
 21
-162.637715590618
 31
0.0
  0
ENDBLK
  5
   2C3
  8
0
  6
CONTINUOUS
 62
     7
  0
BLOCK
  5
   2C4
  8
0
  6
CONTINUOUS
 62
     7
  2
*UDIM1553
 70
    65
 10
0.0
 20
0.0
 30
0.0
  3
*UDIM1553
  0
TEXT
  5
   2C5
  8
0
  6
CONTINUOUS
 62
     7
 10
-69.2026873455156
 20
-138.667139826719
 30
0.0
 40
2.99999994933605
  1
45,5
 50
449.999999896069
 41
0.933333333333333
 72
     1
 11
-70.702687310603
 21
-133.367139913514
 31
0.0
 73
     2
  0
LINE
  5
   2C6
  8
0
  6
CONTINUOUS
 62
     7
 10
-14.7909006364644
 20
-141.592138510197
 30
0.0
 11
-70.202687335935
 21
-141.592138510197
 31
0.0
  0
LINE
  5
   2C7
  8
0
  6
CONTINUOUS
 62
     7
 10
-51.6701136435296
 20
-150.692138645798
 30
0.0
 11
-70.202687335935
 21
-150.692138645798
 31
0.0
  0
LINE
  5
   2C8
  8
0
  6
CONTINUOUS
 62
     7
 10
-68.202687335935
 20
-128.067140003021
 30
0.0
 11
-68.202687335935
 21
-150.692138645798
 31
0.0
  0
LINE
  5
   2C9
  8
0
  6
CONTINUOUS
 62
     7
 10
-68.7236317658867
 20
-138.63771523299
 30
0.0
 11
-68.202687335935
 21
-141.592138510197
 31
0.0
  0
LINE
  5
   2CA
  8
0
  6
CONTINUOUS
 62
     7
 10
-68.202687335935
 20
-141.592138510197
 30
0.0
 11
-67.6817429059834
 21
-138.63771523299
 31
0.0
  0
LINE
  5
   2CB
  8
0
  6
CONTINUOUS
 62
     7
 10
-67.6817429059834
 20
-153.646561923005
 30
0.0
 11
-68.202687335935
 21
-150.692138645798
 31
0.0
  0
LINE
  5
   2CC
  8
0
  6
CONTINUOUS
 62
     7
 10
-68.202687335935
 20
-150.692138645798
 30
0.0
 11
-68.7236317658867
 21
-153.646561923005
 31
0.0
  0
ENDBLK
  5
   2CD
  8
0
  6
CONTINUOUS
 62
     7
  0
BLOCK
  5
   2CE
  8
0
  6
CONTINUOUS
 62
     7
  2
*UDIM1554
 70
    65
 10
0.0
 20
0.0
 30
0.0
  3
*UDIM1554
  0
TEXT
  5
   2CF
  8
0
  6
CONTINUOUS
 62
     7
 10
-36.1159008955522
 20
-114.961489317505
 30
0.0
 40
2.99999994933605
  1
210
 50
359.999999896069
 41
0.933333333333333
 72
     1
 11
-32.215900958702
 21
-113.461489349892
 31
0.0
 73
     2
  0
LINE
  5
   2D0
  8
0
  6
CONTINUOUS
 62
     7
 10
-10.940900593996
 20
-137.742138467729
 30
0.0
 11
-10.940900593996
 21
-113.96148932456
 31
0.0
  0
LINE
  5
   2D1
  8
0
  6
CONTINUOUS
 62
     7
 10
-52.9409012198448
 20
-137.742138467729
 30
0.0
 11
-52.9409012198448
 21
-113.96148932456
 31
0.0
  0
LINE
  5
   2D2
  8
0
  6
CONTINUOUS
 62
     7
 10
-10.940900593996
 20
-115.96148932456
 30
0.0
 11
-52.9409012198448
 21
-115.96148932456
 31
0.0
  0
LINE
  5
   2D3
  8
0
  6
CONTINUOUS
 62
     7
 10
-13.895323871203
 20
-116.482433754512
 30
0.0
 11
-10.940900593996
 21
-115.96148932456
 31
0.0
  0
LINE
  5
   2D4
  8
0
  6
CONTINUOUS
 62
     7
 10
-10.940900593996
 20
-115.96148932456
 30
0.0
 11
-13.895323871203
 21
-115.440544894608
 31
0.0
  0
LINE
  5
   2D5
  8
0
  6
CONTINUOUS
 62
     7
 10
-49.9864779426379
 20
-115.440544894608
 30
0.0
 11
-52.9409012198448
 21
-115.96148932456
 31
0.0
  0
LINE
  5
   2D6
  8
0
  6
CONTINUOUS
 62
     7
 10
-52.9409012198448
 20
-115.96148932456
 30
0.0
 11
-49.9864779426379
 21
-116.482433754512
 31
0.0
  0
ENDBLK
  5
   2D7
  8
0
  6
CONTINUOUS
 62
     7
  0
BLOCK
  5
   2D8
  8
0
  6
CONTINUOUS
 62
     7
  2
*HATCH305
 70
    65
 10
0.0
 20
0.0
 30
0.0
  3
*HATCH305
  0
LINE
  5
   2D9
  8
0
  6
CONTINUOUS
 62
    52
 10
92.5330276489258
 20
39.5000114440918
 30
0.0
 11
90.5330276489258
 21
37.5000114440918
 31
0.0
  0
LINE
  5
   2DA
  8
0
  6
CONTINUOUS
 62
    52
 10
96.7756729125977
 20
39.5000114440918
 30
0.0
 11
94.7756729125977
 21
37.5000114440918
 31
0.0
  0
LINE
  5
   2DB
  8
0
  6
CONTINUOUS
 62
    52
 10
101.01831817627
 20
39.5000114440918
 30
0.0
 11
99.0183181762695
 21
37.5000114440918
 31
0.0
  0
LINE
  5
   2DC
  8
0
  6
CONTINUOUS
 62
    52
 10
105.260963439941
 20
39.5000114440918
 30
0.0
 11
103.260963439941
 21
37.5000114440918
 31
0.0
  0
LINE
  5
   2DD
  8
0
  6
CONTINUOUS
 62
    52
 10
109.503608703613
 20
39.5000114440918
 30
0.0
 11
107.503608703613
 21
37.5000114440918
 31
0.0
  0
LINE
  5
   2DE
  8
0
  6
CONTINUOUS
 62
    52
 10
113.746253967285
 20
39.5000114440918
 30
0.0
 11
111.746253967285
 21
37.5000114440918
 31
0.0
  0
LINE
  5
   2DF
  8
0
  6
CONTINUOUS
 62
    52
 10
117.988899230957
 20
39.5000114440918
 30
0.0
 11
115.988899230957
 21
37.5000114440918
 31
0.0
  0
ENDBLK
  5
   2E0
  8
0
  6
CONTINUOUS
 62
     7
  0
BLOCK
  5
   2E1
  8
0
  6
CONTINUOUS
 62
     7
  2
$3BASETT
 70
    64
 10
0.0
 20
0.0
 30
0.0
  3
$3BASETT
  0
LINE
  5
   2E2
  8
0
  6
CONTINUOUS
 62
     1
 10
9.37916411203332E-13
 20
8.29115314964895E-16
 30
0.0
 11
48.5000000000009
 21
8.29115314964895E-16
 31
0.0
  0
LINE
  5
   2E3
  8
0
  6
CONTINUOUS
 62
     1
 10
-2.00000000000001
 20
16.4999999606765
 30
0.0
 11
48.5000000000058
 21
16.4999900306657
 31
0.0
  0
LINE
  5
   2E4
  8
0
  6
CONTINUOUS
 62
     1
 10
-2.5
 20
278.499999567409
 30
0.0
 11
48.5
 21
278.499999567409
 31
0.0
  0
LINE
  5
   2E5
  8
0
  6
CONTINUOUS
 62
     1
 10
1.49317556230405E-11
 20
294.999952060667
 30
0.0
 11
48.5000000000149
 21
294.999952060667
 31
0.0
  0
LINE
  5
   2E6
  8
0
  6
CONTINUOUS
 62
     1
 10
0.0
 20
0.0
 30
0.0
 11
0.0
 21
16.4999995674088
 31
0.0
  0
LINE
  5
   2E7
  8
0
  6
CONTINUOUS
 62
     1
 10
0.0
 20
224.499952060667
 30
0.0
 11
0.0
 21
263.499999567409
 31
0.0
  0
LINE
  5
   2E8
  8
0
  6
CONTINUOUS
 62
     1
 10
48.5
 20
74.4999564682283
 30
0.0
 11
48.5
 21
81.4999995674093
 31
0.0
  0
LINE
  5
   2E9
  8
0
  6
CONTINUOUS
 62
     1
 10
45.5000901428785
 20
77.4999576057394
 30
0.0
 11
47.5
 21
77.4999576057394
 31
0.0
  0
LINE
  5
   2EA
  8
0
  6
CONTINUOUS
 62
     1
 10
49.5
 20
198.49998430862
 30
0.0
 11
49.5
 21
216.49998430862
 31
0.0
  0
LINE
  5
   2EB
  8
0
  6
CONTINUOUS
 62
     1
 10
49.5
 20
78.4999919380148
 30
0.0
 11
49.5
 21
96.4999919380148
 31
0.0
  0
LINE
  5
   2EC
  8
0
  6
CONTINUOUS
 62
     1
 10
48.5
 20
294.999999567409
 30
0.0
 11
61.0
 21
294.999999567409
 31
0.0
  0
LINE
  5
   2ED
  8
0
  6
CONTINUOUS
 62
     1
 10
48.5
 20
278.499999567409
 30
0.0
 11
63.0
 21
278.499999567409
 31
0.0
  0
LINE
  5
   2EE
  8
0
  6
CONTINUOUS
 62
     1
 10
63.0
 20
223.499960071298
 30
0.0
 11
63.0
 21
293.000130967507
 31
0.0
  0
LINE
  5
   2EF
  8
0
  6
CONTINUOUS
 62
     1
 10
48.5000000000152
 20
3.42048471119702E-5
 30
0.0
 11
61.0000000000152
 21
3.42048471119702E-5
 31
0.0
  0
LINE
  5
   2F0
  8
0
  6
CONTINUOUS
 62
     1
 10
48.5000000000458
 20
16.499990030663
 30
0.0
 11
63.0000000000458
 21
16.4999824012685
 31
0.0
  0
LINE
  5
   2F1
  8
0
  6
CONTINUOUS
 62
     1
 10
63.0
 20
1.99997801527987
 30
0.0
 11
63.0
 21
71.5000155985656
 31
0.0
  0
LINE
  5
   2F2
  8
0
  6
CONTINUOUS
 62
     1
 10
47.5
 20
143.499991938015
 30
0.0
 11
47.5
 21
151.499991938015
 31
0.0
  0
LINE
  5
   2F3
  8
0
  6
CONTINUOUS
 62
     1
 10
48.5
 20
216.49998430862
 30
0.0
 11
49.5
 21
216.49998430862
 31
0.0
  0
LINE
  5
   2F4
  8
0
  6
CONTINUOUS
 62
     1
 10
45.5
 20
198.49998430862
 30
0.0
 11
49.5
 21
198.49998430862
 31
0.0
  0
LINE
  5
   2F5
  8
0
  6
CONTINUOUS
 62
     1
 10
45.5
 20
96.4999919380148
 30
0.0
 11
49.5
 21
96.4999919380148
 31
0.0
  0
LINE
  5
   2F6
  8
0
  6
CONTINUOUS
 62
     1
 10
48.5
 20
78.4999919380148
 30
0.0
 11
49.5
 21
78.4999919380148
 31
0.0
  0
LINE
  5
   2F7
  8
0
  6
CONTINUOUS
 62
     1
 10
45.5
 20
151.499991938015
 30
0.0
 11
47.5
 21
151.499991938015
 31
0.0
  0
LINE
  5
   2F8
  8
0
  6
CONTINUOUS
 62
     1
 10
45.5
 20
143.499991938015
 30
0.0
 11
47.5
 21
143.499991938015
 31
0.0
  0
ARC
  5
   2F9
  8
0
  6
CONTINUOUS
 62
     1
 10
61.0001195664684
 20
293.000130967507
 30
0.0
 40
1.99983675500225
 50
359.996219692575
 51
450.003067297461
  0
ARC
  5
   2FA
  8
0
  6
CONTINUOUS
 62
     1
 10
60.999997541172
 20
1.99997801527987
 30
0.0
 40
1.99998559606681
 50
270.000149683848
 51
360.00043490088
  0
LINE
  5
   2FB
  8
0
  6
CONTINUOUS
 62
     1
 10
-2.5
 20
263.499999567409
 30
0.0
 11
-2.5
 21
278.499999567409
 31
0.0
  0
LINE
  5
   2FC
  8
0
  6
CONTINUOUS
 62
     1
 10
-2.0
 20
16.4999999606765
 30
0.0
 11
-2.0
 21
31.499999567409
 31
0.0
  0
LINE
  5
   2FD
  8
0
  6
CONTINUOUS
 62
     1
 10
-2.5
 20
263.499999567409
 30
0.0
 11
-1.92386683707583E-15
 21
263.499999567409
 31
0.0
  0
LINE
  5
   2FE
  8
0
  6
CONTINUOUS
 62
     1
 10
-2.0
 20
31.499999567409
 30
0.0
 11
-1.92881868216852E-15
 21
31.499999567409
 31
0.0
  0
LINE
  5
   2FF
  8
0
  6
CONTINUOUS
 62
     1
 10
0.0
 20
31.499999567409
 30
0.0
 11
0.0
 21
85.5
 31
0.0
  0
LINE
  5
   300
  8
0
  6
CONTINUOUS
 62
     1
 10
0.0
 20
278.499999567409
 30
0.0
 11
0.0
 21
294.999952060667
 31
0.0
  0
LINE
  5
   301
  8
0
  6
CONTINUOUS
 62
     1
 10
49.5
 20
73.499980493923
 30
0.0
 11
61.0
 21
73.499980493923
 31
0.0
  0
LINE
  5
   302
  8
0
  6
CONTINUOUS
 62
     1
 10
48.7928895797786
 20
73.7928770569176
 30
0.0
 11
49.1173066946318
 21
73.5761030782846
 31
0.0
  0
LINE
  5
   303
  8
0
  6
CONTINUOUS
 62
     1
 10
45.5
 20
217.499953791042
 30
0.0
 11
47.5
 21
217.499953791042
 31
0.0
  0
LINE
  5
   304
  8
0
  6
CONTINUOUS
 62
     1
 10
48.5
 20
218.499953791042
 30
0.0
 11
48.5
 21
220.49998430862
 31
0.0
  0
LINE
  5
   305
  8
0
  6
CONTINUOUS
 62
     1
 10
49.5
 20
221.49998430862
 30
0.0
 11
61.0
 21
221.49998430862
 31
0.0
  0
LINE
  5
   306
  8
0
  6
CONTINUOUS
 62
     1
 10
48.5
 20
213.499999567409
 30
0.0
 11
48.5
 21
218.49998430862
 31
0.0
  0
LINE
  5
   307
  8
0
  6
CONTINUOUS
 62
     1
 10
85.0
 20
20.4999995674093
 30
0.0
 11
85.0
 21
66.4999995674093
 31
0.0
  0
LINE
  5
   308
  8
0
  6
CONTINUOUS
 62
     1
 10
85.0
 20
228.499999567409
 30
0.0
 11
85.0
 21
274.499999567409
 31
0.0
  0
LINE
  5
   309
  8
0
  6
CONTINUOUS
 62
     1
 10
65.0
 20
18.4999995674093
 30
0.0
 11
83.0
 21
18.4999995674093
 31
0.0
  0
LINE
  5
   30A
  8
0
  6
CONTINUOUS
 62
     1
 10
65.0
 20
68.4999995674093
 30
0.0
 11
83.0
 21
68.4999995674093
 31
0.0
  0
LINE
  5
   30B
  8
0
  6
CONTINUOUS
 62
     1
 10
65.0
 20
276.499999567409
 30
0.0
 11
83.0
 21
276.499999567409
 31
0.0
  0
LINE
  5
   30C
  8
0
  6
CONTINUOUS
 62
     1
 10
65.0
 20
226.499999567409
 30
0.0
 11
83.0
 21
226.499999567409
 31
0.0
  0
ARC
  5
   30D
  8
0
  6
CONTINUOUS
 62
     1
 10
64.9999165137627
 20
278.499791758427
 30
0.0
 40
1.99978487451056
 50
179.993632987589
 51
270.002663206323
  0
ARC
  5
   30E
  8
0
  6
CONTINUOUS
 62
     1
 10
82.9999340347904
 20
274.4999314475
 30
0.0
 40
2.0000757729629
 50
0.002355312465183
 51
89.9978053040706
  0
ARC
  5
   30F
  8
0
  6
CONTINUOUS
 62
     1
 10
82.9999116167853
 20
228.500087346486
 30
0.0
 40
2.00011549437606
 50
270.002897544432
 51
359.997857039135
  0
ARC
  5
   310
  8
0
  6
CONTINUOUS
 62
     1
 10
64.9999184375488
 20
224.50012847784
 30
0.0
 40
1.99984640930379
 50
89.9973313750434
 51
180.003331076003
  0
ARC
  5
   311
  8
0
  6
CONTINUOUS
 62
     1
 10
61.0000256605929
 20
223.499960071298
 30
0.0
 40
1.99997025751221
 50
269.999590543356
 51
360.001042404463
  0
ARC
  5
   312
  8
0
  6
CONTINUOUS
 62
     1
 10
49.4998375253428
 20
220.500158338518
 30
0.0
 40
0.999767477268007
 50
90.0
 51
180.0
  0
ARC
  5
   313
  8
0
  6
CONTINUOUS
 62
     1
 10
47.4999789081749
 20
218.49996520695
 30
0.0
 40
1.00002296670393
 50
270.001612621459
 51
359.998496043313
  0
ARC
  5
   314
  8
0
  6
CONTINUOUS
 62
     1
 10
61.0000128593571
 20
71.5000155985656
 30
0.0
 40
1.99996077363452
 50
359.998963444352
 51
450.00007365585
  0
ARC
  5
   315
  8
0
  6
CONTINUOUS
 62
     1
 10
65.0000025173283
 20
70.5000043721036
 30
0.0
 40
2.00000239651892
 50
180.000166916245
 51
270.000162708079
  0
ARC
  5
   316
  8
0
  6
CONTINUOUS
 62
     1
 10
83.0000105972873
 20
66.500007360899
 30
0.0
 40
1.99998409967202
 50
359.99975548358
 51
450.00004232059
  0
ARC
  5
   317
  8
0
  6
CONTINUOUS
 62
     1
 10
82.9999123216256
 20
20.500063832728
 30
0.0
 40
2.00010029490385
 50
270.002773926169
 51
359.998166697101
  0
ARC
  5
   318
  8
0
  6
CONTINUOUS
 62
     1
 10
64.9999636318814
 20
16.5000487387311
 30
0.0
 40
1.9999391421224
 50
89.9987223290514
 51
180.001392964213
  0
ARC
  5
   319
  8
0
  6
CONTINUOUS
 62
     1
 10
49.4999889213575
 20
74.4999564682283
 30
0.0
 40
0.999975386078343
 50
180.0
 51
270.0
  0
ARC
  5
   31A
  8
0
  6
CONTINUOUS
 62
     1
 10
47.5
 20
76.4999576057394
 30
0.0
 40
1.0
 50
0.0
 51
90.0
  0
LINE
  5
   31B
  8
0
  6
DASHDOT
 62
     1
 10
-4.2589963029921
 20
251.499999567409
 30
0.0
 11
89.4453946237602
 21
251.499999567409
 31
0.0
  0
LINE
  5
   31C
  8
0
  6
CONTINUOUS
 62
     1
 10
47.5
 20
85.4999919380148
 30
0.0
 11
47.5
 21
89.4999919380148
 31
0.0
  0
LINE
  5
   31D
  8
0
  6
CONTINUOUS
 62
     1
 10
47.5
 20
205.49998430862
 30
0.0
 11
47.5
 21
209.49998430862
 31
0.0
  0
LINE
  5
   31E
  8
0
  6
CONTINUOUS
 62
     1
 10
45.5
 20
209.49998430862
 30
0.0
 11
47.5
 21
209.49998430862
 31
0.0
  0
LINE
  5
   31F
  8
0
  6
CONTINUOUS
 62
     1
 10
45.5
 20
205.49998430862
 30
0.0
 11
47.5
 21
205.49998430862
 31
0.0
  0
LINE
  5
   320
  8
0
  6
CONTINUOUS
 62
     1
 10
45.5
 20
89.4999919380148
 30
0.0
 11
47.5
 21
89.4999919380148
 31
0.0
  0
LINE
  5
   321
  8
0
  6
CONTINUOUS
 62
     1
 10
45.5
 20
85.4999919380148
 30
0.0
 11
47.5
 21
85.4999919380148
 31
0.0
  0
LINE
  5
   322
  8
0
  6
DASHDOT
 62
     1
 10
-4.2589963029921
 20
43.4999995674093
 30
0.0
 11
99.2454243656788
 21
43.4999995674093
 31
0.0
  0
ENDBLK
  5
   323
  8
0
  6
CONTINUOUS
 62
     7
  0
BLOCK
  5
   324
  8
0
  6
CONTINUOUS
 62
     7
  2
*HATCH306
 70
    65
 10
0.0
 20
0.0
 30
0.0
  3
*HATCH306
  0
LINE
  5
   325
  8
0
  6
CONTINUOUS
 62
    52
 10
41.621337890625
 20
39.5000152587891
 30
0.0
 11
39.621337890625
 21
37.5000152587891
 31
0.0
  0
LINE
  5
   326
  8
0
  6
CONTINUOUS
 62
    52
 10
45.8639755249023
 20
39.5000152587891
 30
0.0
 11
43.8639755249023
 21
37.5000152587891
 31
0.0
  0
LINE
  5
   327
  8
0
  6
CONTINUOUS
 62
    52
 10
50.1066131591797
 20
39.5000152587891
 30
0.0
 11
48.1066131591797
 21
37.5000152587891
 31
0.0
  0
LINE
  5
   328
  8
0
  6
CONTINUOUS
 62
    52
 10
54.349250793457
 20
39.5000152587891
 30
0.0
 11
52.349250793457
 21
37.5000152587891
 31
0.0
  0
LINE
  5
   329
  8
0
  6
CONTINUOUS
 62
    52
 10
58.5918884277344
 20
39.5000152587891
 30
0.0
 11
56.5918884277344
 21
37.5000152587891
 31
0.0
  0
LINE
  5
   32A
  8
0
  6
CONTINUOUS
 62
    52
 10
62.8345260620117
 20
39.5000152587891
 30
0.0
 11
60.8345260620117
 21
37.5000152587891
 31
0.0
  0
LINE
  5
   32B
  8
0
  6
CONTINUOUS
 62
    52
 10
67.0771713256836
 20
39.5000152587891
 30
0.0
 11
65.0771636962891
 21
37.5000152587891
 31
0.0
  0
LINE
  5
   32C
  8
0
  6
CONTINUOUS
 62
    52
 10
71.3198165893555
 20
39.5000152587891
 30
0.0
 11
69.3198089599609
 21
37.5000152587891
 31
0.0
  0
LINE
  5
   32D
  8
0
  6
CONTINUOUS
 62
    52
 10
75.2372512817383
 20
39.1748008728027
 30
0.0
 11
73.5624618530273
 21
37.5000152587891
 31
0.0
  0
ENDBLK
  5
   32E
  8
0
  6
CONTINUOUS
 62
     7
  0
BLOCK
  5
   32F
  8
0
  6
CONTINUOUS
 62
     7
  2
*HATCH307
 70
    65
 10
0.0
 20
0.0
 30
0.0
  3
*HATCH307
  0
LINE
  5
   330
  8
0
  6
CONTINUOUS
 62
    52
 10
-22.018274307251
 20
39.5000152587891
 30
0.0
 11
-24.018274307251
 21
37.5000152587891
 31
0.0
  0
LINE
  5
   331
  8
0
  6
CONTINUOUS
 62
    52
 10
-17.7756328582764
 20
39.5000152587891
 30
0.0
 11
-19.7756328582764
 21
37.5000152587891
 31
0.0
  0
LINE
  5
   332
  8
0
  6
CONTINUOUS
 62
    52
 10
-13.5329914093018
 20
39.5000152587891
 30
0.0
 11
-15.5329914093018
 21
37.5000152587891
 31
0.0
  0
LINE
  5
   333
  8
0
  6
CONTINUOUS
 62
    52
 10
-9.29034996032715
 20
39.5000152587891
 30
0.0
 11
-11.2903499603271
 21
37.5000152587891
 31
0.0
  0
LINE
  5
   334
  8
0
  6
CONTINUOUS
 62
    52
 10
-5.04770851135254
 20
39.5000152587891
 30
0.0
 11
-7.04770851135254
 21
37.5000152587891
 31
0.0
  0
LINE
  5
   335
  8
0
  6
CONTINUOUS
 62
    52
 10
-0.805067539215088
 20
39.5000152587891
 30
0.0
 11
-2.80506730079651
 21
37.5000152587891
 31
0.0
  0
LINE
  5
   336
  8
0
  6
CONTINUOUS
 62
    52
 10
3.43757343292236
 20
39.5000152587891
 30
0.0
 11
1.43757367134094
 21
37.5000152587891
 31
0.0
  0
LINE
  5
   337
  8
0
  6
CONTINUOUS
 62
    52
 10
7.68021488189697
 20
39.5000152587891
 30
0.0
 11
5.68021488189697
 21
37.5000152587891
 31
0.0
  0
LINE
  5
   338
  8
0
  6
CONTINUOUS
 62
    52
 10
11.9228563308716
 20
39.5000152587891
 30
0.0
 11
9.92285633087158
 21
37.5000152587891
 31
0.0
  0
LINE
  5
   339
  8
0
  6
CONTINUOUS
 62
    52
 10
16.1654968261719
 20
39.5000152587891
 30
0.0
 11
14.1654977798462
 21
37.5000152587891
 31
0.0
  0
LINE
  5
   33A
  8
0
  6
CONTINUOUS
 62
    52
 10
20.4081382751465
 20
39.5000152587891
 30
0.0
 11
18.4081382751465
 21
37.5000152587891
 31
0.0
  0
LINE
  5
   33B
  8
0
  6
CONTINUOUS
 62
    52
 10
24.6507797241211
 20
39.5000152587891
 30
0.0
 11
22.6507797241211
 21
37.5000152587891
 31
0.0
  0
LINE
  5
   33C
  8
0
  6
CONTINUOUS
 62
    52
 10
28.8934211730957
 20
39.5000152587891
 30
0.0
 11
26.8934211730957
 21
37.5000152587891
 31
0.0
  0
ENDBLK
  5
   33D
  8
0
  6
CONTINUOUS
 62
     7
  0
BLOCK
  5
   33E
  8
0
  6
CONTINUOUS
 62
     7
  2
*HATCH308
 70
    65
 10
0.0
 20
0.0
 30
0.0
  3
*HATCH308
  0
LINE
  5
   33F
  8
0
  6
CONTINUOUS
 62
    52
 10
128.595474243164
 20
39.5000152587891
 30
0.0
 11
126.595474243164
 21
37.5000114440918
 31
0.0
  0
LINE
  5
   340
  8
0
  6
CONTINUOUS
 62
    52
 10
132.838119506836
 20
39.5000152587891
 30
0.0
 11
130.838119506836
 21
37.5000114440918
 31
0.0
  0
LINE
  5
   341
  8
0
  6
CONTINUOUS
 62
    52
 10
137.080764770508
 20
39.5000152587891
 30
0.0
 11
135.080764770508
 21
37.5000114440918
 31
0.0
  0
LINE
  5
   342
  8
0
  6
CONTINUOUS
 62
    52
 10
141.32341003418
 20
39.5000152587891
 30
0.0
 11
139.32341003418
 21
37.5000114440918
 31
0.0
  0
LINE
  5
   343
  8
0
  6
CONTINUOUS
 62
    52
 10
145.566055297852
 20
39.5000152587891
 30
0.0
 11
143.566055297852
 21
37.5000114440918
 31
0.0
  0
LINE
  5
   344
  8
0
  6
CONTINUOUS
 62
    52
 10
149.808700561523
 20
39.5000152587891
 30
0.0
 11
147.808700561523
 21
37.5000114440918
 31
0.0
  0
LINE
  5
   345
  8
0
  6
CONTINUOUS
 62
    52
 10
154.051345825195
 20
39.5000152587891
 30
0.0
 11
152.051345825195
 21
37.5000114440918
 31
0.0
  0
LINE
  5
   346
  8
0
  6
CONTINUOUS
 62
    52
 10
158.293991088867
 20
39.5000152587891
 30
0.0
 11
156.293991088867
 21
37.5000114440918
 31
0.0
  0
LINE
  5
   347
  8
0
  6
CONTINUOUS
 62
    52
 10
162.536636352539
 20
39.5000152587891
 30
0.0
 11
160.536636352539
 21
37.5000114440918
 31
0.0
  0
LINE
  5
   348
  8
0
  6
CONTINUOUS
 62
    52
 10
166.779281616211
 20
39.5000152587891
 30
0.0
 11
164.779281616211
 21
37.5000114440918
 31
0.0
  0
LINE
  5
   349
  8
0
  6
CONTINUOUS
 62
    52
 10
171.021926879883
 20
39.5000152587891
 30
0.0
 11
169.021926879883
 21
37.5000114440918
 31
0.0
  0
LINE
  5
   34A
  8
0
  6
CONTINUOUS
 62
    52
 10
175.264572143555
 20
39.5000152587891
 30
0.0
 11
173.264572143555
 21
37.5000114440918
 31
0.0
  0
LINE
  5
   34B
  8
0
  6
CONTINUOUS
 62
    52
 10
179.507217407227
 20
39.5000152587891
 30
0.0
 11
177.507217407227
 21
37.5000114440918
 31
0.0
  0
LINE
  5
   34C
  8
0
  6
CONTINUOUS
 62
    52
 10
183.749862670898
 20
39.5000152587891
 30
0.0
 11
181.749862670898
 21
37.5000114440918
 31
0.0
  0
LINE
  5
   34D
  8
0
  6
CONTINUOUS
 62
    52
 10
187.99250793457
 20
39.5000152587891
 30
0.0
 11
185.99250793457
 21
37.5000114440918
 31
0.0
  0
LINE
  5
   34E
  8
0
  6
CONTINUOUS
 62
    52
 10
192.235153198242
 20
39.5000152587891
 30
0.0
 11
190.235153198242
 21
37.5000114440918
 31
0.0
  0
LINE
  5
   34F
  8
0
  6
CONTINUOUS
 62
    52
 10
196.477798461914
 20
39.5000152587891
 30
0.0
 11
194.477798461914
 21
37.5000114440918
 31
0.0
  0
LINE
  5
   350
  8
0
  6
CONTINUOUS
 62
    52
 10
200.720443725586
 20
39.5000152587891
 30
0.0
 11
198.720443725586
 21
37.5000114440918
 31
0.0
  0
LINE
  5
   351
  8
0
  6
CONTINUOUS
 62
    52
 10
204.963088989258
 20
39.5000152587891
 30
0.0
 11
202.963088989258
 21
37.5000114440918
 31
0.0
  0
LINE
  5
   352
  8
0
  6
CONTINUOUS
 62
    52
 10
207.737045288086
 20
38.0314140319824
 30
0.0
 11
207.205642700195
 21
37.5000114440918
 31
0.0
  0
ENDBLK
  5
   353
  8
0
  6
CONTINUOUS
 62
     7
  0
BLOCK
  5
   354
  8
0
  6
CONTINUOUS
 62
     7
  2
*HATCH309
 70
    65
 10
0.0
 20
0.0
 30
0.0
  3
*HATCH309
  0
LINE
  5
   355
  8
0
  6
CONTINUOUS
 62
    52
 10
217.690933227539
 20
39.5000152587891
 30
0.0
 11
215.690933227539
 21
37.5000152587891
 31
0.0
  0
LINE
  5
   356
  8
0
  6
CONTINUOUS
 62
    52
 10
221.933578491211
 20
39.5000152587891
 30
0.0
 11
219.933578491211
 21
37.5000152587891
 31
0.0
  0
LINE
  5
   357
  8
0
  6
CONTINUOUS
 62
    52
 10
226.176223754883
 20
39.5000152587891
 30
0.0
 11
224.176223754883
 21
37.5000152587891
 31
0.0
  0
LINE
  5
   358
  8
0
  6
CONTINUOUS
 62
    52
 10
230.418869018555
 20
39.5000152587891
 30
0.0
 11
228.418869018555
 21
37.5000152587891
 31
0.0
  0
LINE
  5
   359
  8
0
  6
CONTINUOUS
 62
    52
 10
234.661514282227
 20
39.5000152587891
 30
0.0
 11
232.661514282227
 21
37.5000152587891
 31
0.0
  0
LINE
  5
   35A
  8
0
  6
CONTINUOUS
 62
    52
 10
238.904159545898
 20
39.5000152587891
 30
0.0
 11
236.904159545898
 21
37.5000152587891
 31
0.0
  0
LINE
  5
   35B
  8
0
  6
CONTINUOUS
 62
    52
 10
242.12809753418
 20
38.4813385009766
 30
0.0
 11
241.146774291992
 21
37.5000152587891
 31
0.0
  0
ENDBLK
  5
   35C
  8
0
  6
CONTINUOUS
 62
     7
  0
BLOCK
  5
   35D
  8
0
  6
CONTINUOUS
 62
     7
  2
*HATCH310
 70
    65
 10
0.0
 20
0.0
 30
0.0
  3
*HATCH310
  0
LINE
  5
   35E
  8
0
  6
CONTINUOUS
 62
    52
 10
198.084335327148
 20
30.5000228881836
 30
0.0
 11
195.584335327148
 21
28.0000171661377
 31
0.0
  0
LINE
  5
   35F
  8
0
  6
CONTINUOUS
 62
    52
 10
202.32698059082
 20
30.5000228881836
 30
0.0
 11
199.82698059082
 21
28.0000171661377
 31
0.0
  0
ENDBLK
  5
   360
  8
0
  6
CONTINUOUS
 62
     7
  0
BLOCK
  5
   361
  8
0
  6
CONTINUOUS
 62
     7
  2
*UDIM1555
 70
    65
 10
0.0
 20
0.0
 30
0.0
  3
*UDIM1555
  0
TEXT
  5
   362
  8
0
  6
CONTINUOUS
 62
     7
 10
37.9344091748139
 20
22.3601433809724
 30
0.0
 40
2.99999997871263
  1
14
 50
406.355194750416
 41
0.933333333333333
 72
     1
 11
38.5744247194323
 21
25.2045027081352
 31
0.0
 73
     2
  0
TEXT
  5
   363
  8
0
  6
CONTINUOUS
 62
     7
 10
35.7603244478607
 20
20.0807014697626
 30
0.0
 40
2.99999997871263
  1
Ø
 50
406.355194750416
 41
0.933333333333333
 72
     1
 11
35.4340801109254
 21
21.9119755026465
 31
0.0
 73
     2
  0
LINE
  5
   364
  8
0
  6
CONTINUOUS
 62
     7
 10
23.5623589280227
 20
5.84273116178927
 30
0.0
 11
42.1089696813358
 21
25.2881195148615
 31
0.0
  0
LINE
  5
   365
  8
0
  6
CONTINUOUS
 62
     7
 10
21.9002306722132
 20
3.34526651514467
 30
0.0
 11
23.5623589280227
 21
5.84273116178927
 31
0.0
  0
LINE
  5
   366
  8
0
  6
CONTINUOUS
 62
     7
 10
23.5623589280227
 20
5.84273116178927
 30
0.0
 11
21.1462861789002
 21
4.06436323839793
 31
0.0
  0
LINE
  5
   367
  8
0
  6
CONTINUOUS
 62
     7
 10
28.6063967324771
 20
11.885994306233
 30
0.0
 11
26.9442684766676
 21
9.38852965958837
 31
0.0
  0
LINE
  5
   368
  8
0
  6
CONTINUOUS
 62
     7
 10
26.9442684766676
 20
9.38852965958837
 30
0.0
 11
29.3603412257902
 21
11.1668975829797
 31
0.0
  0
ENDBLK
  5
   369
  8
0
  6
CONTINUOUS
 62
     7
  0
BLOCK
  5
   36A
  8
0
  6
CONTINUOUS
 62
     7
  2
*UDIM1556
 70
    65
 10
0.0
 20
0.0
 30
0.0
  3
*UDIM1556
  0
TEXT
  5
   36B
  8
0
  6
CONTINUOUS
 62
     7
 10
-45.2189153743505
 20
-31.3663605975854
 30
0.0
 40
2.99999997871263
  1
5,5
 50
338.210419294434
 41
0.933333333333333
 72
     1
 11
-41.0407588829485
 21
-31.4212066144973
 31
0.0
 73
     2
  0
TEXT
  5
   36C
  8
0
  6
CONTINUOUS
 62
     7
 10
-48.1438583879688
 20
-30.1970838152813
 30
0.0
 40
2.99999997871263
  1
Ø
 50
338.210419294434
 41
0.933333333333333
 72
     1
 11
-46.5656512445096
 21
-29.2125726862272
 31
0.0
 73
     2
  0
LINE
  5
   36D
  8
0
  6
CONTINUOUS
 62
     7
 10
-38.3473983135885
 20
-35.1902659897717
 30
0.0
 11
-55.2654241653811
 21
-28.4271069180062
 31
0.0
  0
LINE
  5
   36E
  8
0
  6
CONTINUOUS
 62
     7
 10
-50.5412443618994
 20
-29.7546195614608
 30
0.0
 11
-53.4779580222344
 21
-29.1416653403303
 31
0.0
  0
LINE
  5
   36F
  8
0
  6
CONTINUOUS
 62
     7
 10
-53.4779580222344
 20
-29.1416653403303
 30
0.0
 11
-50.9279924465718
 21
-30.7220689479369
 31
0.0
  0
LINE
  5
   370
  8
0
  6
CONTINUOUS
 62
     7
 10
-58.2021378257162
 20
-27.8141526968757
 30
0.0
 11
-55.2654241653811
 21
-28.4271069180062
 31
0.0
  0
LINE
  5
   371
  8
0
  6
CONTINUOUS
 62
     7
 10
-55.2654241653811
 20
-28.4271069180062
 30
0.0
 11
-57.8153897410437
 21
-26.8467033103997
 31
0.0
  0
ENDBLK
  5
   372
  8
0
  6
CONTINUOUS
 62
     7
  0
BLOCK
  5
   373
  8
0
  6
CONTINUOUS
 62
     7
  2
*UDIM1557
 70
    65
 10
0.0
 20
0.0
 30
0.0
  3
*UDIM1557
  0
TEXT
  5
   374
  8
0
  6
CONTINUOUS
 62
     7
 10
-86.1571998580963
 20
-84.9039423479811
 30
0.0
 40
2.99999997871263
  1
27,5
 50
359.999999948034
 41
0.933333333333333
 72
     1
 11
-80.8571998943511
 21
-83.4039423634051
 31
0.0
 73
     2
  0
LINE
  5
   375
  8
0
  6
CONTINUOUS
 62
     7
 10
-64.3466727554797
 20
-59.0093684717241
 30
0.0
 11
-64.3466727554797
 21
-87.9039423527614
 31
0.0
  0
LINE
  5
   376
  8
0
  6
CONTINUOUS
 62
     7
 10
-73.971672591567
 20
-49.2093686386171
 30
0.0
 11
-73.971672591567
 21
-87.9039423527614
 31
0.0
  0
LINE
  5
   377
  8
0
  6
CONTINUOUS
 62
     7
 10
-64.3466727554797
 20
-85.9039423527614
 30
0.0
 11
-86.1571998567434
 21
-85.9039423527614
 31
0.0
  0
LINE
  5
   378
  8
0
  6
CONTINUOUS
 62
     7
 10
-61.3922494782728
 20
-85.3829979228098
 30
0.0
 11
-64.3466727554797
 21
-85.9039423527614
 31
0.0
  0
LINE
  5
   379
  8
0
  6
CONTINUOUS
 62
     7
 10
-64.3466727554797
 20
-85.9039423527614
 30
0.0
 11
-61.3922494782728
 21
-86.4248867827131
 31
0.0
  0
LINE
  5
   37A
  8
0
  6
CONTINUOUS
 62
     7
 10
-76.9260958687739
 20
-86.4248867827131
 30
0.0
 11
-73.971672591567
 21
-85.9039423527614
 31
0.0
  0
LINE
  5
   37B
  8
0
  6
CONTINUOUS
 62
     7
 10
-73.971672591567
 20
-85.9039423527614
 30
0.0
 11
-76.9260958687739
 21
-85.3829979228098
 31
0.0
  0
ENDBLK
  5
   37C
  8
0
  6
CONTINUOUS
 62
     7
  0
BLOCK
  5
   37D
  8
0
  6
CONTINUOUS
 62
     7
  2
*UDIM1558
 70
    65
 10
0.0
 20
0.0
 30
0.0
  3
*UDIM1558
  0
TEXT
  5
   37E
  8
0
  6
CONTINUOUS
 62
     7
 10
-33.346679555168
 20
48.2803172768678
 30
0.0
 40
2.99999997871263
  1
190
 50
359.999999948034
 41
0.933333333333333
 72
     1
 11
-29.4466795814887
 21
49.7803172627065
 31
0.0
 73
     2
  0
LINE
  5
   37F
  8
0
  6
CONTINUOUS
 62
     7
 10
4.07831406295327
 20
36.7339582048483
 30
0.0
 11
4.07831406295327
 21
49.2803172733502
 31
0.0
  0
LINE
  5
   380
  8
0
  6
CONTINUOUS
 62
     7
 10
-62.4216741234063
 20
18.9833235753719
 30
0.0
 11
-62.4216741234063
 21
49.2803172733502
 31
0.0
  0
LINE
  5
   381
  8
0
  6
CONTINUOUS
 62
     7
 10
4.07831406295327
 20
47.2803172733502
 30
0.0
 11
-62.4216741234063
 21
47.2803172733502
 31
0.0
  0
LINE
  5
   382
  8
0
  6
CONTINUOUS
 62
     7
 10
1.1238907857463
 20
46.7593728433985
 30
0.0
 11
4.07831406295327
 21
47.2803172733502
 31
0.0
  0
LINE
  5
   383
  8
0
  6
CONTINUOUS
 62
     7
 10
4.07831406295327
 20
47.2803172733502
 30
0.0
 11
1.1238907857463
 21
47.8012617033018
 31
0.0
  0
LINE
  5
   384
  8
0
  6
CONTINUOUS
 62
     7
 10
-59.4672508461994
 20
47.8012617033018
 30
0.0
 11
-62.4216741234063
 21
47.2803172733502
 31
0.0
  0
LINE
  5
   385
  8
0
  6
CONTINUOUS
 62
     7
 10
-62.4216741234063
 20
47.2803172733502
 30
0.0
 11
-59.4672508461994
 21
46.7593728433985
 31
0.0
  0
ENDBLK
  5
   386
  8
0
  6
CONTINUOUS
 62
     7
  0
BLOCK
  5
   387
  8
0
  6
CONTINUOUS
 62
     7
  2
*UDIM1559
 70
    65
 10
0.0
 20
0.0
 30
0.0
  3
*UDIM1559
  0
TEXT
  5
   388
  8
0
  6
CONTINUOUS
 62
     7
 10
-68.8716746457322
 20
48.2803172743423
 30
0.0
 40
2.99999997871263
  1
2
 50
359.999999948034
 41
0.933333333333333
 72
     1
 11
-67.7716746521847
 21
49.7803172627065
 31
0.0
 73
     2
  0
LINE
  5
   389
  8
0
  6
CONTINUOUS
 62
     7
 10
-63.1216741114854
 20
19.1752590559742
 30
0.0
 11
-63.1216741114854
 21
49.2803172733502
 31
0.0
  0
LINE
  5
   38A
  8
0
  6
CONTINUOUS
 62
     7
 10
-62.4216741234063
 20
47.2803172733502
 30
0.0
 11
-68.8716746443793
 21
47.2803172733502
 31
0.0
  0
LINE
  5
   38B
  8
0
  6
CONTINUOUS
 62
     7
 10
-59.4672508461994
 20
47.8012617033018
 30
0.0
 11
-62.4216741234063
 21
47.2803172733502
 31
0.0
  0
LINE
  5
   38C
  8
0
  6
CONTINUOUS
 62
     7
 10
-62.4216741234063
 20
47.2803172733502
 30
0.0
 11
-59.4672508461994
 21
46.7593728433985
 31
0.0
  0
LINE
  5
   38D
  8
0
  6
CONTINUOUS
 62
     7
 10
-66.0760973886924
 20
46.7593728433985
 30
0.0
 11
-63.1216741114854
 21
47.2803172733502
 31
0.0
  0
LINE
  5
   38E
  8
0
  6
CONTINUOUS
 62
     7
 10
-63.1216741114854
 20
47.2803172733502
 30
0.0
 11
-66.0760973886924
 21
47.8012617033018
 31
0.0
  0
ENDBLK
  5
   38F
  8
0
  6
CONTINUOUS
 62
     7
  0
BLOCK
  5
   390
  8
0
  6
CONTINUOUS
 62
     7
  2
*UDIM1560
 70
    65
 10
0.0
 20
0.0
 30
0.0
  3
*UDIM1560
  0
TEXT
  5
   391
  8
0
  6
CONTINUOUS
 62
     7
 10
-29.3216876314268
 20
41.616421211154
 30
0.0
 40
2.99999997871263
  1
167
 50
359.999999948034
 41
0.933333333333333
 72
     1
 11
-25.4216876577475
 21
43.1164211969928
 31
0.0
 73
     2
  0
LINE
  5
   392
  8
0
  6
CONTINUOUS
 62
     7
 10
4.07831406295327
 20
36.7339582048483
 30
0.0
 11
4.07831406295327
 21
42.6164212076365
 31
0.0
  0
LINE
  5
   393
  8
0
  6
CONTINUOUS
 62
     7
 10
-54.3716909434958
 20
-23.9343866769406
 30
0.0
 11
-54.3716909434958
 21
42.6164212076365
 31
0.0
  0
LINE
  5
   394
  8
0
  6
CONTINUOUS
 62
     7
 10
4.07831406295327
 20
40.6164212076365
 30
0.0
 11
-54.3716909434958
 21
40.6164212076365
 31
0.0
  0
LINE
  5
   395
  8
0
  6
CONTINUOUS
 62
     7
 10
1.1238907857463
 20
40.0954767776848
 30
0.0
 11
4.07831406295327
 21
40.6164212076365
 31
0.0
  0
LINE
  5
   396
  8
0
  6
CONTINUOUS
 62
     7
 10
4.07831406295327
 20
40.6164212076365
 30
0.0
 11
1.1238907857463
 21
41.1373656375881
 31
0.0
  0
LINE
  5
   397
  8
0
  6
CONTINUOUS
 62
     7
 10
-51.4172676662889
 20
41.1373656375881
 30
0.0
 11
-54.3716909434958
 21
40.6164212076365
 31
0.0
  0
LINE
  5
   398
  8
0
  6
CONTINUOUS
 62
     7
 10
-54.3716909434958
 20
40.6164212076365
 30
0.0
 11
-51.4172676662889
 21
40.0954767776848
 31
0.0
  0
ENDBLK
  5
   399
  8
0
  6
CONTINUOUS
 62
     7
  0
BLOCK
  5
   39A
  8
0
  6
CONTINUOUS
 62
     7
  2
*UDIM1561
 70
    65
 10
0.0
 20
0.0
 30
0.0
  3
*UDIM1561
  0
TEXT
  5
   39B
  8
0
  6
CONTINUOUS
 62
     7
 10
20.6549136441265
 20
-32.9593698295141
 30
0.0
 40
2.99999997871263
  1
145
 50
89.9999999480344
 41
0.933333333333333
 72
     1
 11
19.1549136583024
 21
-29.0593698558291
 31
0.0
 73
     2
  0
LINE
  5
   39C
  8
0
  6
CONTINUOUS
 62
     7
 10
12.078313943744
 20
-54.1593698724332
 30
0.0
 11
23.6549136476588
 21
-54.1593698724332
 31
0.0
  0
LINE
  5
   39D
  8
0
  6
CONTINUOUS
 62
     7
 10
12.078313943744
 20
-3.40937073670057
 30
0.0
 11
23.6549136476588
 21
-3.40937073670057
 31
0.0
  0
LINE
  5
   39E
  8
0
  6
CONTINUOUS
 62
     7
 10
21.6549136476588
 20
-54.1593698724332
 30
0.0
 11
21.6549136476588
 21
-3.40937073670057
 31
0.0
  0
LINE
  5
   39F
  8
0
  6
CONTINUOUS
 62
     7
 10
21.1339692177071
 20
-51.2049465952263
 30
0.0
 11
21.6549136476588
 21
-54.1593698724332
 31
0.0
  0
LINE
  5
   3A0
  8
0
  6
CONTINUOUS
 62
     7
 10
21.6549136476588
 20
-54.1593698724332
 30
0.0
 11
22.1758580776104
 21
-51.2049465952263
 31
0.0
  0
LINE
  5
   3A1
  8
0
  6
CONTINUOUS
 62
     7
 10
22.1758580776104
 20
-6.36379401390754
 30
0.0
 11
21.6549136476588
 21
-3.40937073670057
 31
0.0
  0
LINE
  5
   3A2
  8
0
  6
CONTINUOUS
 62
     7
 10
21.6549136476588
 20
-3.40937073670057
 30
0.0
 11
21.1339692177071
 21
-6.36379401390754
 31
0.0
  0
ENDBLK
  5
   3A3
  8
0
  6
CONTINUOUS
 62
     7
  0
BLOCK
  5
   3A4
  8
0
  6
CONTINUOUS
 62
     7
  2
*UDIM1562
 70
    65
 10
0.0
 20
0.0
 30
0.0
  3
*UDIM1562
  0
TEXT
  5
   3A5
  8
0
  6
CONTINUOUS
 62
     7
 10
28.8521051256702
 20
-52.3722838237143
 30
0.0
 40
2.99999997871263
  1
40
 50
89.9999999480344
 41
0.933333333333333
 72
     1
 11
27.3521051385782
 21
-49.8722838400952
 31
0.0
 73
     2
  0
LINE
  5
   3A6
  8
0
  6
CONTINUOUS
 62
     7
 10
29.8521051279345
 20
-72.1843682303253
 30
0.0
 11
29.8521051279345
 21
-47.3722838578347
 31
0.0
  0
LINE
  5
   3A7
  8
0
  6
CONTINUOUS
 62
     7
 10
30.3730495578861
 20
-75.1387915075322
 30
0.0
 11
29.8521051279345
 21
-72.1843682303253
 31
0.0
  0
LINE
  5
   3A8
  8
0
  6
CONTINUOUS
 62
     7
 10
29.8521051279345
 20
-72.1843682303253
 30
0.0
 11
29.3311606979828
 21
-75.1387915075322
 31
0.0
  0
LINE
  5
   3A9
  8
0
  6
CONTINUOUS
 62
     7
 10
29.3311606979828
 20
-55.2299451915369
 30
0.0
 11
29.8521051279345
 21
-58.1843684687439
 31
0.0
  0
LINE
  5
   3AA
  8
0
  6
CONTINUOUS
 62
     7
 10
29.8521051279345
 20
-58.1843684687439
 30
0.0
 11
30.3730495578861
 21
-55.2299451915369
 31
0.0
  0
ENDBLK
  5
   3AB
  8
0
  6
CONTINUOUS
 62
     7
  0
BLOCK
  5
   3AC
  8
0
  6
CONTINUOUS
 62
     7
  2
*UDIM1563
 70
    65
 10
0.0
 20
0.0
 30
0.0
  3
*UDIM1563
  0
TEXT
  5
   3AD
  8
0
  6
CONTINUOUS
 62
     7
 10
35.2283126479769
 20
33.1080824265648
 30
0.0
 40
2.99999997871263
  1
20
 50
359.999999948034
 41
0.933333333333333
 72
     1
 11
37.7283126315903
 21
34.6080824136663
 31
0.0
 73
     2
  0
LINE
  5
   3AE
  8
0
  6
CONTINUOUS
 62
     7
 10
32.2533135831359
 20
15.6156302914795
 30
0.0
 11
32.2533135831359
 21
34.1080824243099
 31
0.0
  0
LINE
  5
   3AF
  8
0
  6
CONTINUOUS
 62
     7
 10
25.2533137023452
 20
14.5656303093609
 30
0.0
 11
25.2533137023452
 21
34.1080824243099
 31
0.0
  0
LINE
  5
   3B0
  8
0
  6
CONTINUOUS
 62
     7
 10
40.2283126138508
 20
32.1080824243099
 30
0.0
 11
25.2533137023452
 21
32.1080824243099
 31
0.0
  0
LINE
  5
   3B1
  8
0
  6
CONTINUOUS
 62
     7
 10
29.2988903059289
 20
31.5871379943583
 30
0.0
 11
32.2533135831359
 21
32.1080824243099
 31
0.0
  0
LINE
  5
   3B2
  8
0
  6
CONTINUOUS
 62
     7
 10
32.2533135831359
 20
32.1080824243099
 30
0.0
 11
29.2988903059289
 21
32.6290268542616
 31
0.0
  0
LINE
  5
   3B3
  8
0
  6
CONTINUOUS
 62
     7
 10
28.2077369795521
 20
32.6290268542616
 30
0.0
 11
25.2533137023452
 21
32.1080824243099
 31
0.0
  0
LINE
  5
   3B4
  8
0
  6
CONTINUOUS
 62
     7
 10
25.2533137023452
 20
32.1080824243099
 30
0.0
 11
28.2077369795521
 21
31.5871379943583
 31
0.0
  0
ENDBLK
  5
   3B5
  8
0
  6
CONTINUOUS
 62
     7
  0
BLOCK
  5
   3B6
  8
0
  6
CONTINUOUS
 62
     7
  2
*UDIM1564
 70
    65
 10
0.0
 20
0.0
 30
0.0
  3
*UDIM1564
  0
TEXT
  5
   3B7
  8
0
  6
CONTINUOUS
 62
     7
 10
9.09081096719689
 20
33.1080824290903
 30
0.0
 40
2.99999997871263
  1
60,5
 50
359.999999948034
 41
0.933333333333333
 72
     1
 11
14.3908109309421
 21
34.6080824136663
 31
0.0
 73
     2
  0
LINE
  5
   3B8
  8
0
  6
CONTINUOUS
 62
     7
 10
25.2533137023452
 20
32.1080824243099
 30
0.0
 11
4.07831406295327
 21
32.1080824243099
 31
0.0
  0
LINE
  5
   3B9
  8
0
  6
CONTINUOUS
 62
     7
 10
22.2988904251382
 20
31.5871379943583
 30
0.0
 11
25.2533137023452
 21
32.1080824243099
 31
0.0
  0
LINE
  5
   3BA
  8
0
  6
CONTINUOUS
 62
     7
 10
25.2533137023452
 20
32.1080824243099
 30
0.0
 11
22.2988904251382
 21
32.6290268542616
 31
0.0
  0
LINE
  5
   3BB
  8
0
  6
CONTINUOUS
 62
     7
 10
7.03273734016024
 20
32.6290268542616
 30
0.0
 11
4.07831406295327
 21
32.1080824243099
 31
0.0
  0
LINE
  5
   3BC
  8
0
  6
CONTINUOUS
 62
     7
 10
4.07831406295327
 20
32.1080824243099
 30
0.0
 11
7.03273734016024
 21
31.5871379943583
 31
0.0
  0
ENDBLK
  5
   3BD
  8
0
  6
CONTINUOUS
 62
     7
  0
BLOCK
  5
   3BE
  8
0
  6
CONTINUOUS
 62
     7
  2
*UDIM1565
 70
    65
 10
0.0
 20
0.0
 30
0.0
  3
*UDIM1565
  0
TEXT
  5
   3BF
  8
0
  6
CONTINUOUS
 62
     7
 10
11.0201762295117
 20
27.1125914995727
 30
0.0
 40
2.99999997871263
  1
3
 50
359.999999948034
 41
0.933333333333333
 72
     1
 11
12.1201762230593
 21
28.6125914879368
 31
0.0
 73
     2
  0
TEXT
  5
   3C0
  8
0
  6
CONTINUOUS
 62
     7
 10
8.27017623320152
 20
27.1125914995727
 30
0.0
 40
2.99999997871263
  1
_
 50
359.999999948034
 41
0.933333333333333
 72
     1
 11
9.37017622674907
 21
28.6125914879368
 31
0.0
 73
     2
  0
LINE
  5
   3C1
  8
0
  6
CONTINUOUS
 62
     7
 10
13.2201762152539
 20
26.1125914985805
 30
0.0
 11
4.07831406295327
 21
26.1125914985805
 31
0.0
  0
LINE
  5
   3C2
  8
0
  6
CONTINUOUS
 62
     7
 10
8.08273732227885
 20
26.6335359285322
 30
0.0
 11
5.12831404507187
 21
26.1125914985805
 31
0.0
  0
LINE
  5
   3C3
  8
0
  6
CONTINUOUS
 62
     7
 10
5.12831404507187
 20
26.1125914985805
 30
0.0
 11
8.08273732227885
 21
25.5916470686289
 31
0.0
  0
LINE
  5
   3C4
  8
0
  6
CONTINUOUS
 62
     7
 10
1.1238907857463
 20
25.5916470686289
 30
0.0
 11
4.07831406295327
 21
26.1125914985805
 31
0.0
  0
LINE
  5
   3C5
  8
0
  6
CONTINUOUS
 62
     7
 10
4.07831406295327
 20
26.1125914985805
 30
0.0
 11
1.1238907857463
 21
26.6335359285322
 31
0.0
  0
ENDBLK
  5
   3C6
  8
0
  6
CONTINUOUS
 62
     7
  0
BLOCK
  5
   3C7
  8
0
  6
CONTINUOUS
 62
     7
  2
*UDIM1566
 70
    65
 10
0.0
 20
0.0
 30
0.0
  3
*UDIM1566
  0
TEXT
  5
   3C8
  8
0
  6
CONTINUOUS
 62
     7
 10
14.9807064361174
 20
-16.3343720179979
 30
0.0
 40
2.99999997871263
  1
58
 50
89.9999999480344
 41
0.933333333333333
 72
     1
 11
13.4807064490254
 21
-13.8343720343788
 31
0.0
 73
     2
  0
LINE
  5
   3C9
  8
0
  6
CONTINUOUS
 62
     7
 10
12.078313943744
 20
-3.40937073670057
 30
0.0
 11
17.9807064383817
 21
-3.40937073670057
 31
0.0
  0
LINE
  5
   3CA
  8
0
  6
CONTINUOUS
 62
     7
 10
15.9807064383817
 20
-23.7093690558496
 30
0.0
 11
15.9807064383817
 21
-3.40937073670057
 31
0.0
  0
LINE
  5
   3CB
  8
0
  6
CONTINUOUS
 62
     7
 10
15.4597620084301
 20
-20.7549457786426
 30
0.0
 11
15.9807064383817
 21
-23.7093690558496
 31
0.0
  0
LINE
  5
   3CC
  8
0
  6
CONTINUOUS
 62
     7
 10
15.9807064383817
 20
-23.7093690558496
 30
0.0
 11
16.5016508683334
 21
-20.7549457786426
 31
0.0
  0
LINE
  5
   3CD
  8
0
  6
CONTINUOUS
 62
     7
 10
16.5016508683334
 20
-6.36379401390754
 30
0.0
 11
15.9807064383817
 21
-3.40937073670057
 31
0.0
  0
LINE
  5
   3CE
  8
0
  6
CONTINUOUS
 62
     7
 10
15.9807064383817
 20
-3.40937073670057
 30
0.0
 11
15.4597620084301
 21
-6.36379401390754
 31
0.0
  0
ENDBLK
  5
   3CF
  8
0
  6
CONTINUOUS
 62
     7
  0
BLOCK
  5
   3D0
  8
0
  6
CONTINUOUS
 62
     7
  2
*UDIM1567
 70
    65
 10
0.0
 20
0.0
 30
0.0
  3
*UDIM1567
  0
TEXT
  5
   3D1
  8
0
  6
CONTINUOUS
 62
     7
 10
28.9682893557747
 20
-13.6218682326063
 30
0.0
 40
2.99999997871263
  1
89,5
 50
89.9999999480344
 41
0.933333333333333
 72
     1
 11
27.4682893712187
 21
-8.32186826885544
 31
0.0
 73
     2
  0
LINE
  5
   3D2
  8
0
  6
CONTINUOUS
 62
     7
 10
16.5066965922309
 20
-23.7093690558496
 30
0.0
 11
31.968289360575
 21
-23.7093690558496
 31
0.0
  0
LINE
  5
   3D3
  8
0
  6
CONTINUOUS
 62
     7
 10
29.968289360575
 20
-23.7093690558496
 30
0.0
 11
29.968289360575
 21
7.61563041068882
 31
0.0
  0
LINE
  5
   3D4
  8
0
  6
CONTINUOUS
 62
     7
 10
29.4473449306233
 20
-20.7549457786426
 30
0.0
 11
29.968289360575
 21
-23.7093690558496
 31
0.0
  0
LINE
  5
   3D5
  8
0
  6
CONTINUOUS
 62
     7
 10
29.968289360575
 20
-23.7093690558496
 30
0.0
 11
30.4892337905267
 21
-20.7549457786426
 31
0.0
  0
LINE
  5
   3D6
  8
0
  6
CONTINUOUS
 62
     7
 10
30.4892337905267
 20
4.66120713348185
 30
0.0
 11
29.968289360575
 21
7.61563041068882
 31
0.0
  0
LINE
  5
   3D7
  8
0
  6
CONTINUOUS
 62
     7
 10
29.968289360575
 20
7.61563041068882
 30
0.0
 11
29.4473449306233
 21
4.66120713348185
 31
0.0
  0
ENDBLK
  5
   3D8
  8
0
  6
CONTINUOUS
 62
     7
  0
BLOCK
  5
   3D9
  8
0
  6
CONTINUOUS
 62
     7
  2
*UDIM1568
 70
    65
 10
0.0
 20
0.0
 30
0.0
  3
*UDIM1568
  0
TEXT
  5
   3DA
  8
0
  6
CONTINUOUS
 62
     7
 10
37.1497047755754
 20
-32.959367159226
 30
0.0
 40
2.99999997871263
  1
208
 50
89.9999999480344
 41
0.933333333333333
 72
     1
 11
35.6497047897513
 21
-29.059367185541
 31
0.0
 73
     2
  0
LINE
  5
   3DB
  8
0
  6
CONTINUOUS
 62
     7
 10
32.2033136010173
 20
-65.1843683495346
 30
0.0
 11
40.1497047791077
 21
-65.1843683495346
 31
0.0
  0
LINE
  5
   3DC
  8
0
  6
CONTINUOUS
 62
     7
 10
32.2033136010173
 20
7.61563041068882
 30
0.0
 11
40.1497047791077
 21
7.61563041068882
 31
0.0
  0
LINE
  5
   3DD
  8
0
  6
CONTINUOUS
 62
     7
 10
38.1497047791077
 20
-65.1843683495346
 30
0.0
 11
38.1497047791077
 21
7.61563041068882
 31
0.0
  0
LINE
  5
   3DE
  8
0
  6
CONTINUOUS
 62
     7
 10
37.628760349156
 20
-62.2299450723276
 30
0.0
 11
38.1497047791077
 21
-65.1843683495346
 31
0.0
  0
LINE
  5
   3DF
  8
0
  6
CONTINUOUS
 62
     7
 10
38.1497047791077
 20
-65.1843683495346
 30
0.0
 11
38.6706492090593
 21
-62.2299450723276
 31
0.0
  0
LINE
  5
   3E0
  8
0
  6
CONTINUOUS
 62
     7
 10
38.6706492090593
 20
4.66120713348185
 30
0.0
 11
38.1497047791077
 21
7.61563041068882
 31
0.0
  0
LINE
  5
   3E1
  8
0
  6
CONTINUOUS
 62
     7
 10
38.1497047791077
 20
7.61563041068882
 30
0.0
 11
37.628760349156
 21
4.66120713348185
 31
0.0
  0
ENDBLK
  5
   3E2
  8
0
  6
CONTINUOUS
 62
     7
  0
BLOCK
  5
   3E3
  8
0
  6
CONTINUOUS
 62
     7
  2
*UDIM1569
 70
    65
 10
0.0
 20
0.0
 30
0.0
  3
*UDIM1569
  0
TEXT
  5
   3E4
  8
0
  6
CONTINUOUS
 62
     7
 10
-37.109183670372
 20
-95.5014223679656
 30
0.0
 40
2.99999997871263
  1
195,5
 50
359.999999948034
 41
0.933333333333333
 72
     1
 11
-30.4091837165609
 21
-94.0014223846523
 31
0.0
 73
     2
  0
LINE
  5
   3E5
  8
0
  6
CONTINUOUS
 62
     7
 10
4.07831406295327
 20
-91.946049257806
 30
0.0
 11
4.07831406295327
 21
-98.5014223740086
 31
0.0
  0
LINE
  5
   3E6
  8
0
  6
CONTINUOUS
 62
     7
 10
-64.3466727554797
 20
-59.0093684717241
 30
0.0
 11
-64.3466727554797
 21
-98.5014223740086
 31
0.0
  0
LINE
  5
   3E7
  8
0
  6
CONTINUOUS
 62
     7
 10
4.07831406295327
 20
-96.5014223740086
 30
0.0
 11
-64.3466727554797
 21
-96.5014223740086
 31
0.0
  0
LINE
  5
   3E8
  8
0
  6
CONTINUOUS
 62
     7
 10
1.1238907857463
 20
-97.0223668039603
 30
0.0
 11
4.07831406295327
 21
-96.5014223740086
 31
0.0
  0
LINE
  5
   3E9
  8
0
  6
CONTINUOUS
 62
     7
 10
4.07831406295327
 20
-96.5014223740086
 30
0.0
 11
1.1238907857463
 21
-95.9804779440569
 31
0.0
  0
LINE
  5
   3EA
  8
0
  6
CONTINUOUS
 62
     7
 10
-61.3922494782728
 20
-95.9804779440569
 30
0.0
 11
-64.3466727554797
 21
-96.5014223740086
 31
0.0
  0
LINE
  5
   3EB
  8
0
  6
CONTINUOUS
 62
     7
 10
-64.3466727554797
 20
-96.5014223740086
 30
0.0
 11
-61.3922494782728
 21
-97.0223668039603
 31
0.0
  0
ENDBLK
  5
   3EC
  8
0
  6
CONTINUOUS
 62
     7
  0
BLOCK
  5
   3ED
  8
0
  6
CONTINUOUS
 62
     7
  2
*UDIM1570
 70
    65
 10
0.0
 20
0.0
 30
0.0
  3
*UDIM1570
  0
TEXT
  5
   3EE
  8
0
  6
CONTINUOUS
 62
     7
 10
-78.748275658578
 20
-16.7694646942076
 30
0.0
 40
2.99999997871263
  1
14,5
 50
89.9999999480344
 41
0.933333333333333
 72
     1
 11
-80.248275643134
 21
-11.4694647304567
 31
0.0
 73
     2
  0
LINE
  5
   3EF
  8
0
  6
CONTINUOUS
 62
     7
 10
-59.2216901418141
 20
-28.7843858752589
 30
0.0
 11
-79.7482756537777
 21
-28.7843858752589
 31
0.0
  0
LINE
  5
   3F0
  8
0
  6
CONTINUOUS
 62
     7
 10
-72.3414219673821
 20
-23.7093690558496
 30
0.0
 11
-79.7482756537777
 21
-23.7093690558496
 31
0.0
  0
LINE
  5
   3F1
  8
0
  6
CONTINUOUS
 62
     7
 10
-77.7482756537777
 20
-28.7843858752589
 30
0.0
 11
-77.7482756537777
 21
-6.16946476806442
 31
0.0
  0
LINE
  5
   3F2
  8
0
  6
CONTINUOUS
 62
     7
 10
-77.227331223826
 20
-31.7388091524659
 30
0.0
 11
-77.7482756537777
 21
-28.7843858752589
 31
0.0
  0
LINE
  5
   3F3
  8
0
  6
CONTINUOUS
 62
     7
 10
-77.7482756537777
 20
-28.7843858752589
 30
0.0
 11
-78.2692200837294
 21
-31.7388091524659
 31
0.0
  0
LINE
  5
   3F4
  8
0
  6
CONTINUOUS
 62
     7
 10
-78.2692200837294
 20
-20.7549457786426
 30
0.0
 11
-77.7482756537777
 21
-23.7093690558496
 31
0.0
  0
LINE
  5
   3F5
  8
0
  6
CONTINUOUS
 62
     7
 10
-77.7482756537777
 20
-23.7093690558496
 30
0.0
 11
-77.227331223826
 21
-20.7549457786426
 31
0.0
  0
ENDBLK
  5
   3F6
  8
0
  6
CONTINUOUS
 62
     7
  0
BLOCK
  5
   3F7
  8
0
  6
CONTINUOUS
 62
     7
  2
*UDIM1571
 70
    65
 10
0.0
 20
0.0
 30
0.0
  3
*UDIM1571
  0
TEXT
  5
   3F8
  8
0
  6
CONTINUOUS
 62
     7
 10
-86.2132848380429
 20
-27.8843672456528
 30
0.0
 40
2.99999997871263
  1
140
 50
89.9999999480344
 41
0.933333333333333
 72
     1
 11
-87.713284823867
 21
-23.9843672719678
 31
0.0
 73
     2
  0
LINE
  5
   3F9
  8
0
  6
CONTINUOUS
 62
     7
 10
-63.4216741234063
 20
-48.2093686386171
 30
0.0
 11
-87.2132848345107
 21
-48.2093686386171
 31
0.0
  0
LINE
  5
   3FA
  8
0
  6
CONTINUOUS
 62
     7
 10
-63.4216727882623
 20
0.79062919177386
 30
0.0
 11
-87.2132848345107
 21
0.79062919177386
 31
0.0
  0
LINE
  5
   3FB
  8
0
  6
CONTINUOUS
 62
     7
 10
-85.2132848345107
 20
-48.2093686386171
 30
0.0
 11
-85.2132848345107
 21
0.79062919177386
 31
0.0
  0
LINE
  5
   3FC
  8
0
  6
CONTINUOUS
 62
     7
 10
-85.7342292644623
 20
-45.2549453614101
 30
0.0
 11
-85.2132848345107
 21
-48.2093686386171
 31
0.0
  0
LINE
  5
   3FD
  8
0
  6
CONTINUOUS
 62
     7
 10
-85.2132848345107
 20
-48.2093686386171
 30
0.0
 11
-84.692340404559
 21
-45.2549453614101
 31
0.0
  0
LINE
  5
   3FE
  8
0
  6
CONTINUOUS
 62
     7
 10
-84.692340404559
 20
-2.16379408543311
 30
0.0
 11
-85.2132848345107
 21
0.79062919177386
 31
0.0
  0
LINE
  5
   3FF
  8
0
  6
CONTINUOUS
 62
     7
 10
-85.2132848345107
 20
0.79062919177386
 30
0.0
 11
-85.7342292644623
 21
-2.16379408543311
 31
0.0
  0
ENDBLK
  5
   400
  8
0
  6
CONTINUOUS
 62
     7
  0
ENDSEC
  0
SECTION
  2
ENTITIES
  0
LINE
  5
   401
  8
0
  6
CONTINUOUS
 62
     7
 10
83.8783947954224
 20
11.0068605995086
 30
0.0
 11
83.8783947954224
 21
20.0193482191123
 31
0.0
  0
LINE
  5
   402
  8
0
  6
CONTINUOUS
 62
     7
 10
181.528393132452
 20
12.0568552852846
 30
0.0
 11
181.528393132452
 21
20.0193482191123
 31
0.0
  0
LINE
  5
   403
  8
0
  6
CONTINUOUS
 62
     1
 10
181.615900921334
 20
-74.6556556789036
 30
0.0
 11
181.615900921334
 21
-56.5431455491804
 31
0.0
  0
LINE
  5
   404
  8
0
  6
CONTINUOUS
 62
     1
 10
83.7909025872835
 20
-74.6556556789036
 30
0.0
 11
83.7909025872835
 21
-42.6306669054217
 31
0.0
  0
LINE
  5
   405
  8
0
  6
CONTINUOUS
 62
     1
 10
83.7909025872835
 20
-5.88067821242263
 30
0.0
 11
83.7909025872835
 21
11.0068428622893
 31
0.0
  0
LINE
  5
   406
  8
0
  6
CONTINUOUS
 62
     1
 10
83.7909025872835
 20
11.0068428622893
 30
0.0
 11
111.353392822417
 21
11.0068428622893
 31
0.0
  0
LINE
  5
   407
  8
0
  6
CONTINUOUS
 62
     1
 10
84.1409025604614
 20
-50.593156088669
 30
0.0
 11
111.353392822417
 21
-50.593156088669
 31
0.0
  0
LINE
  5
   408
  8
0
  6
CONTINUOUS
 62
     1
 10
83.7909025872835
 20
-42.6306615648456
 30
0.0
 11
83.7909025872835
 21
-5.88066219069439
 31
0.0
  0
LINE
  5
   409
  8
0
  6
CONTINUOUS
 62
     1
 10
83.7909025872835
 20
-50.2431561154911
 30
0.0
 11
111.353392822417
 21
-50.2431561154911
 31
0.0
  0
LINE
  5
   40A
  8
0
  6
CONTINUOUS
 62
     1
 10
84.1409025604614
 20
-50.593156088669
 30
0.0
 11
84.1409025604614
 21
-50.2431561154911
 31
0.0
  0
LINE
  5
   40B
  8
0
  6
CONTINUOUS
 62
     1
 10
180.145896673907
 20
12.0568552852846
 30
0.0
 11
180.145896673907
 21
20.4568482116617
 31
0.0
  0
LINE
  5
   40C
  8
0
  6
CONTINUOUS
 62
     1
 10
180.950897728313
 20
12.0568552852846
 30
0.0
 11
180.950897728313
 21
20.4568482116617
 31
0.0
  0
LINE
  5
   40D
  8
0
  6
CONTINUOUS
 62
     1
 10
175.105898895968
 20
12.0568552852846
 30
0.0
 11
175.105898895968
 21
20.4568482116617
 31
0.0
  0
LINE
  5
   40E
  8
0
  6
CONTINUOUS
 62
     1
 10
176.365895670165
 20
12.0568552852846
 30
0.0
 11
176.365895670165
 21
20.4568482116617
 31
0.0
  0
LINE
  5
   40F
  8
0
  6
CONTINUOUS
 62
     1
 10
177.625897784937
 20
12.0568552852846
 30
0.0
 11
177.625897784937
 21
20.4568482116617
 31
0.0
  0
LINE
  5
   410
  8
0
  6
CONTINUOUS
 62
     1
 10
178.88589989971
 20
12.0568552852846
 30
0.0
 11
178.88589989971
 21
20.4568482116617
 31
0.0
  0
LINE
  5
   411
  8
0
  6
CONTINUOUS
 62
     1
 10
169.435900060643
 20
-5.88066219069439
 30
0.0
 11
169.435900060643
 21
11.0068428622893
 31
0.0
  0
LINE
  5
   412
  8
0
  6
CONTINUOUS
 62
     1
 10
170.240895774473
 20
12.0568552852846
 30
0.0
 11
170.240895774473
 21
20.4568482116617
 31
0.0
  0
LINE
  5
   413
  8
0
  6
CONTINUOUS
 62
     1
 10
171.325897892226
 20
12.0568552852846
 30
0.0
 11
171.325897892226
 21
20.4568482116617
 31
0.0
  0
LINE
  5
   414
  8
0
  6
CONTINUOUS
 62
     1
 10
172.585900006998
 20
12.0568552852846
 30
0.0
 11
172.585900006998
 21
20.4568482116617
 31
0.0
  0
LINE
  5
   415
  8
0
  6
CONTINUOUS
 62
     1
 10
173.845896781195
 20
12.0568552852846
 30
0.0
 11
173.845896781195
 21
20.4568482116617
 31
0.0
  0
LINE
  5
   416
  8
0
  6
CONTINUOUS
 62
     1
 10
84.4559024424442
 20
-5.88066219069439
 30
0.0
 11
84.4559024424442
 21
20.4568482116617
 31
0.0
  0
LINE
  5
   417
  8
0
  6
CONTINUOUS
 62
     1
 10
114.800898854841
 20
12.0568552852847
 30
0.0
 11
114.800898854841
 21
20.4568482116617
 31
0.0
  0
LINE
  5
   418
  8
0
  6
CONTINUOUS
 62
     1
 10
113.540902080644
 20
12.0568552852847
 30
0.0
 11
113.540902080644
 21
20.4568482116617
 31
0.0
  0
LINE
  5
   419
  8
0
  6
CONTINUOUS
 62
     1
 10
112.280901968587
 20
12.0568552852847
 30
0.0
 11
112.280901968587
 21
20.4568482116617
 31
0.0
  0
LINE
  5
   41A
  8
0
  6
CONTINUOUS
 62
     1
 10
111.020901856531
 20
-5.88066219069439
 30
0.0
 11
111.020901856531
 21
20.4568482116617
 31
0.0
  0
LINE
  5
   41B
  8
0
  6
CONTINUOUS
 62
     1
 10
119.840901973356
 20
12.0568552852847
 30
0.0
 11
119.840901973356
 21
20.4568482116617
 31
0.0
  0
LINE
  5
   41C
  8
0
  6
CONTINUOUS
 62
     1
 10
118.580899858583
 20
12.0568552852847
 30
0.0
 11
118.580899858583
 21
20.4568482116617
 31
0.0
  0
LINE
  5
   41D
  8
0
  6
CONTINUOUS
 62
     1
 10
117.32089774381
 20
12.0568552852847
 30
0.0
 11
117.32089774381
 21
20.4568482116617
 31
0.0
  0
LINE
  5
   41E
  8
0
  6
CONTINUOUS
 62
     1
 10
116.060900969613
 20
12.0568552852847
 30
0.0
 11
116.060900969613
 21
20.4568482116617
 31
0.0
  0
LINE
  5
   41F
  8
0
  6
CONTINUOUS
 62
     1
 10
111.020901856531
 20
-42.6306615648456
 30
0.0
 11
111.020901856531
 21
-5.88066219069439
 31
0.0
  0
LINE
  5
   420
  8
0
  6
CONTINUOUS
 62
     1
 10
84.4559024424442
 20
-42.6306615648456
 30
0.0
 11
84.4559024424442
 21
-5.88066219069439
 31
0.0
  0
LINE
  5
   421
  8
0
  6
CONTINUOUS
 62
     1
 10
84.4559024424442
 20
-50.2431561154911
 30
0.0
 11
84.4559024424442
 21
-42.6306615857072
 31
0.0
  0
LINE
  5
   422
  8
0
  6
CONTINUOUS
 62
     1
 10
111.020901856531
 20
-50.2431561154911
 30
0.0
 11
111.020901856531
 21
-42.6306615857072
 31
0.0
  0
ARC
  5
   423
  8
0
  6
CONTINUOUS
 62
     1
 10
83.9659025843033
 20
-6.05566218771417
 30
0.0
 40
0.174999997019768
 50
90.0
 51
180.0
  0
ARC
  5
   424
  8
0
  6
CONTINUOUS
 62
     1
 10
83.9659025843033
 20
-42.4556615678259
 30
0.0
 40
0.174999997019768
 50
180.0
 51
270.0
  0
LINE
  5
   425
  8
0
  6
CONTINUOUS
 62
     1
 10
137.603393880491
 20
-19.6181512755939
 30
0.0
 11
152.303393630151
 21
-19.6181512755939
 31
0.0
  0
LINE
  5
   426
  8
0
  6
CONTINUOUS
 62
     7
 10
137.603393880491
 20
-19.4525400113244
 30
0.0
 11
152.303393630151
 21
-19.4525400113244
 31
0.0
  0
LINE
  5
   427
  8
0
  6
DASHDOT
 62
     7
 10
144.953393755321
 20
-50.4495005014836
 30
0.0
 11
144.953393755321
 21
21.2770793611267
 31
0.0
  0
LINE
  5
   428
  8
0
  6
CONTINUOUS
 62
     1
 10
84.3158838449344
 20
-64.4181558532283
 30
0.0
 11
85.4533838255628
 21
-64.4181558532283
 31
0.0
  0
LINE
  5
   429
  8
0
  6
DASHDOT
 62
     2
 10
144.953393755321
 20
-83.2271007976297
 30
0.0
 11
144.953393755321
 21
-48.9113932510646
 31
0.0
  0
LINE
  5
   42A
  8
0
  6
CONTINUOUS
 62
     1
 10
181.003377191566
 20
-64.4181611938044
 30
0.0
 11
181.003377191566
 21
-56.5431455491804
 31
0.0
  0
LINE
  5
   42B
  8
0
  6
CONTINUOUS
 62
     1
 10
84.4034025768527
 20
-64.4181558532283
 30
0.0
 11
84.4034025768527
 21
-50.593156088669
 31
0.0
  0
LINE
  5
   42C
  8
0
  6
CONTINUOUS
 62
     1
 10
157.010893549983
 20
-22.6281512243339
 30
0.0
 11
157.010893549983
 21
-21.4031512451955
 31
0.0
  0
LINE
  5
   42D
  8
0
  6
CONTINUOUS
 62
     7
 10
137.603393880491
 20
-34.8352961977558
 30
0.0
 11
152.303393630151
 21
-34.8352961977558
 31
0.0
  0
LINE
  5
   42E
  8
0
  6
CONTINUOUS
 62
     7
 10
137.603393880491
 20
-31.9581184996241
 30
0.0
 11
152.303393630151
 21
-31.9581184996241
 31
0.0
  0
LINE
  5
   42F
  8
0
  6
CONTINUOUS
 62
     7
 10
137.603393880491
 20
-37.8587540271034
 30
0.0
 11
152.303393630151
 21
-37.8587540271034
 31
0.0
  0
LINE
  5
   430
  8
0
  6
CONTINUOUS
 62
     7
 10
152.303393630151
 20
-31.9581184996241
 30
0.0
 11
152.303393630151
 21
-19.4525400113244
 31
0.0
  0
LINE
  5
   431
  8
0
  6
CONTINUOUS
 62
     7
 10
137.603393880491
 20
-31.9581184996241
 30
0.0
 11
137.603393880491
 21
-19.4525400113244
 31
0.0
  0
LINE
  5
   432
  8
0
  6
DASHDOT
 62
     7
 10
169.453393338089
 20
9.1698927212482
 30
0.0
 11
169.453393338089
 21
20.7553315160268
 31
0.0
  0
LINE
  5
   433
  8
0
  6
DASHDOT
 62
     7
 10
120.453394172554
 20
9.89398264592187
 30
0.0
 11
120.453394172554
 21
22.0828297112618
 31
0.0
  0
LINE
  5
   434
  8
0
  6
CONTINUOUS
 62
     1
 10
83.9659025843033
 20
-5.88066219069439
 30
0.0
 11
111.353392822417
 21
-5.88066219069439
 31
0.0
  0
LINE
  5
   435
  8
0
  6
CONTINUOUS
 62
     1
 10
84.4034025768527
 20
-64.4181611953309
 30
0.0
 11
181.003377191566
 21
-64.4181611953309
 31
0.0
  0
LINE
  5
   436
  8
0
  6
CONTINUOUS
 62
   130
 10
84.5783947835011
 20
-78.8735142161364
 30
0.0
 11
84.5783947835011
 21
-75.093155671453
 31
0.0
  0
LINE
  5
   437
  8
0
  6
CONTINUOUS
 62
   130
 10
84.5783951604562
 20
-77.7181387528471
 30
0.0
 11
84.6050379589839
 21
-77.8520777266693
 31
0.0
  0
LINE
  5
   438
  8
0
  6
CONTINUOUS
 62
   130
 10
84.6050377738063
 20
-77.8520781787699
 30
0.0
 11
84.6809073309007
 21
-77.9656268393217
 31
0.0
  0
LINE
  5
   439
  8
0
  6
CONTINUOUS
 62
   130
 10
84.6809074127556
 20
-78.8406268992974
 30
0.0
 11
84.7944560733075
 21
-78.9164964563918
 31
0.0
  0
LINE
  5
   43A
  8
0
  6
CONTINUOUS
 62
   130
 10
84.5783947835011
 20
-78.8735142161364
 30
0.0
 11
84.9283944466697
 21
-78.9431422282052
 31
0.0
  0
LINE
  5
   43B
  8
0
  6
CONTINUOUS
 62
   130
 10
84.9283947775407
 20
-78.9431420847002
 30
0.0
 11
180.478399774097
 21
-78.9431420847002
 31
0.0
  0
LINE
  5
   43C
  8
0
  6
CONTINUOUS
 62
   130
 10
180.478391528918
 20
-78.9431420495789
 30
0.0
 11
180.612333175085
 21
-78.9164965811351
 31
0.0
  0
LINE
  5
   43D
  8
0
  6
CONTINUOUS
 62
   130
 10
180.612335944858
 20
-78.9164964930704
 30
0.0
 11
180.725881935966
 21
-78.8406269330785
 31
0.0
  0
LINE
  5
   43E
  8
0
  6
CONTINUOUS
 62
   130
 10
180.725877992298
 20
-78.8406272582048
 30
0.0
 11
180.801746218157
 21
-78.7270786029508
 31
0.0
  0
LINE
  5
   43F
  8
0
  6
CONTINUOUS
 62
   130
 10
180.801748505142
 20
-78.7270782769579
 30
0.0
 11
180.8283926386
 21
-78.5931392997105
 31
0.0
  0
LINE
  5
   440
  8
0
  6
CONTINUOUS
 62
   130
 10
180.828393144373
 20
-78.5931367572099
 30
0.0
 11
180.828393144373
 21
-75.093155671453
 31
0.0
  0
LINE
  5
   441
  8
0
  6
CONTINUOUS
 62
   130
 10
180.828393144373
 20
20.4568482116617
 30
0.0
 11
180.828393144373
 21
23.9568669495251
 31
0.0
  0
LINE
  5
   442
  8
0
  6
CONTINUOUS
 62
   130
 10
180.801749933336
 20
24.090803963215
 30
0.0
 11
180.828394066821
 21
23.9568623123282
 31
0.0
  0
LINE
  5
   443
  8
0
  6
CONTINUOUS
 62
   130
 10
180.725879213064
 20
24.2043408703817
 30
0.0
 11
180.801747433689
 21
24.0907948845769
 31
0.0
  0
LINE
  5
   444
  8
0
  6
CONTINUOUS
 62
   130
 10
180.612332235458
 20
24.2802106219817
 30
0.0
 11
180.725878221263
 21
24.2043424013571
 31
0.0
  0
LINE
  5
   445
  8
0
  6
CONTINUOUS
 62
   130
 10
180.478392362068
 20
24.306852818143
 30
0.0
 11
180.612334007407
 21
24.2802140244449
 31
0.0
  0
LINE
  5
   446
  8
0
  6
CONTINUOUS
 62
   130
 10
84.9283947775407
 20
24.3068534866748
 30
0.0
 11
180.478408985039
 21
24.3068534866748
 31
0.0
  0
LINE
  5
   447
  8
0
  6
CONTINUOUS
 62
   130
 10
84.7944555975634
 20
24.2802164632296
 30
0.0
 11
84.9283945773835
 21
24.3068552569954
 31
0.0
  0
LINE
  5
   448
  8
0
  6
CONTINUOUS
 62
   130
 10
84.5783947835011
 20
24.1358482769812
 30
0.0
 11
84.7944551010355
 21
24.2802102945946
 31
0.0
  0
LINE
  5
   449
  8
0
  6
CONTINUOUS
 62
   130
 10
84.6050378647885
 20
23.21580229294
 30
0.0
 11
84.6809074247804
 21
23.329348284048
 31
0.0
  0
LINE
  5
   44A
  8
0
  6
CONTINUOUS
 62
   130
 10
84.5783947818341
 20
23.0818587245586
 30
0.0
 11
84.6050375803649
 21
23.2158003720248
 31
0.0
  0
LINE
  5
   44B
  8
0
  6
CONTINUOUS
 62
   130
 10
84.5783947835011
 20
20.4568482116617
 30
0.0
 11
84.5783947835011
 21
24.1358482769813
 31
0.0
  0
LINE
  5
   44C
  8
0
  6
CONTINUOUS
 62
   130
 10
180.725879213064
 20
24.2043408703817
 30
0.0
 11
180.801747433689
 21
24.0907948845769
 31
0.0
  0
LINE
  5
   44D
  8
0
  6
CONTINUOUS
 62
   130
 10
180.478391058258
 20
24.3068570528812
 30
0.0
 11
180.535385684516
 21
24.2955190101508
 31
0.0
  0
LINE
  5
   44E
  8
0
  6
CONTINUOUS
 62
   130
 10
84.7944565655764
 20
-78.9165002897122
 30
0.0
 11
84.9283955393986
 21
-78.94314308824
 31
0.0
  0
LINE
  5
   44F
  8
0
  6
CONTINUOUS
 62
   130
 10
84.680907262009
 20
-78.8406296569288
 30
0.0
 11
84.7944559197122
 21
-78.916500553409
 31
0.0
  0
LINE
  5
   450
  8
0
  6
CONTINUOUS
 62
   130
 10
180.801751136268
 20
-78.7270829138504
 30
0.0
 11
180.828395269742
 21
-78.5931426008291
 31
0.0
  0
LINE
  5
   451
  8
0
  6
CONTINUOUS
 62
   130
 10
180.725880678318
 20
-78.840629734635
 30
0.0
 11
180.801748902737
 21
-78.7270824143756
 31
0.0
  0
LINE
  5
   452
  8
0
  6
CONTINUOUS
 62
   130
 10
180.478393070599
 20
-78.9431434181164
 30
0.0
 11
180.612334718065
 21
-78.9165006195856
 31
0.0
  0
LINE
  5
   453
  8
0
  6
DASHDOT
 62
     7
 10
169.453394982557
 20
29.3818278544831
 30
0.0
 11
169.453394982557
 21
34.9818236927312
 31
0.0
  0
LINE
  5
   454
  8
0
  6
DASHDOT
 62
     7
 10
120.453394059489
 20
29.3818946633728
 30
0.0
 11
120.453394059489
 21
34.9818292719775
 31
0.0
  0
LINE
  5
   455
  8
0
  6
DASHDOT
 62
     7
 10
144.953384868446
 20
-89.6181383104556
 30
0.0
 11
144.953384868446
 21
-84.0181206754679
 31
0.0
  0
LINE
  5
   456
  8
0
  6
CONTINUOUS
 62
   130
 10
120.453434894453
 20
2.25685386218402
 30
0.0
 11
169.453434059988
 21
2.25685386218402
 31
0.0
  0
LINE
  5
   457
  8
0
  6
CONTINUOUS
 62
   130
 10
120.453434894453
 20
-46.7431439682069
 30
0.0
 11
169.453434059988
 21
-46.7431439682069
 31
0.0
  0
LINE
  5
   458
  8
0
  6
CONTINUOUS
 62
     1
 10
120.453434894453
 20
-1.94314606629041
 30
0.0
 11
169.453434059988
 21
-1.94314606629041
 31
0.0
  0
LINE
  5
   459
  8
0
  6
CONTINUOUS
 62
     1
 10
120.453435562025
 20
1.55685387410495
 30
0.0
 11
169.45343472756
 21
1.55685387410495
 31
0.0
  0
LINE
  5
   45A
  8
0
  6
CONTINUOUS
 62
   130
 10
120.453434894453
 20
-46.7431439682069
 30
0.0
 11
120.453434894453
 21
2.25685519732804
 31
0.0
  0
LINE
  5
   45B
  8
0
  6
CONTINUOUS
 62
   130
 10
169.45343472756
 20
-46.743145303351
 30
0.0
 11
169.45343472756
 21
2.25685386218402
 31
0.0
  0
LINE
  5
   45C
  8
0
  6
CONTINUOUS
 62
   130
 10
121.678431869517
 20
-2.99314604840902
 30
0.0
 11
157.028428597222
 21
-2.99314604840902
 31
0.0
  0
LINE
  5
   45D
  8
0
  6
CONTINUOUS
 62
   130
 10
121.678431869517
 20
-45.5181453242126
 30
0.0
 11
157.028428597222
 21
-45.5181453242126
 31
0.0
  0
LINE
  5
   45E
  8
0
  6
CONTINUOUS
 62
   130
 10
121.678431869517
 20
-45.5181453242126
 30
0.0
 11
121.678431869517
 21
-2.99314604840902
 31
0.0
  0
LINE
  5
   45F
  8
0
  6
CONTINUOUS
 62
   130
 10
157.02842959858
 20
-45.5181453242126
 30
0.0
 11
157.02842959858
 21
-2.99314604840902
 31
0.0
  0
LINE
  5
   460
  8
0
  6
CONTINUOUS
 62
     1
 10
167.353437433611
 20
-18.2181457891288
 30
0.0
 11
167.353437433611
 21
-17.5181725039301
 31
0.0
  0
LINE
  5
   461
  8
0
  6
CONTINUOUS
 62
     1
 10
167.353437433932
 20
-19.4431457676115
 30
0.0
 11
167.35344010422
 21
-20.1431457556906
 31
0.0
  0
LINE
  5
   462
  8
0
  6
CONTINUOUS
 62
     1
 10
166.303429441884
 20
-26.9681456378917
 30
0.0
 11
166.30343478246
 21
-26.2681456498127
 31
0.0
  0
LINE
  5
   463
  8
0
  6
CONTINUOUS
 62
     1
 10
164.58880594848
 20
-39.7438192138479
 30
0.0
 11
165.008420335455
 21
-40.2438546877335
 31
0.0
  0
LINE
  5
   464
  8
0
  6
CONTINUOUS
 62
     1
 10
164.058785103357
 20
-39.3627816408632
 30
0.0
 11
164.588807901789
 21
-39.7438183776593
 31
0.0
  0
LINE
  5
   465
  8
0
  6
CONTINUOUS
 62
     1
 10
163.451131267291
 20
-39.1243089898006
 30
0.0
 11
164.058784665781
 21
-39.3627817371733
 31
0.0
  0
LINE
  5
   466
  8
0
  6
CONTINUOUS
 62
     1
 10
162.803428446826
 20
-39.0431442040096
 30
0.0
 11
163.451136200176
 21
-39.1243076084012
 31
0.0
  0
LINE
  5
   467
  8
0
  6
CONTINUOUS
 62
     1
 10
162.155721002398
 20
-39.1243070623978
 30
0.0
 11
162.803428755747
 21
-39.0431436580062
 31
0.0
  0
LINE
  5
   468
  8
0
  6
CONTINUOUS
 62
     1
 10
161.548062241964
 20
-39.3627819849659
 30
0.0
 11
162.155715640454
 21
-39.1243092375932
 31
0.0
  0
LINE
  5
   469
  8
0
  6
CONTINUOUS
 62
     1
 10
161.018039919325
 20
-39.7438185321002
 30
0.0
 11
161.548062717757
 21
-39.3627817953042
 31
0.0
  0
LINE
  5
   46A
  8
0
  6
CONTINUOUS
 62
     1
 10
160.598424277671
 20
-40.2438527812296
 30
0.0
 11
161.018041332709
 21
-39.7438173128894
 31
0.0
  0
LINE
  5
   46B
  8
0
  6
CONTINUOUS
 62
     1
 10
160.598423129092
 20
-43.0924343059519
 30
0.0
 11
160.598423129092
 21
-40.2438538033155
 31
0.0
  0
LINE
  5
   46C
  8
0
  6
CONTINUOUS
 62
     1
 10
160.598423902889
 20
-43.092434030506
 30
0.0
 11
161.018040957927
 21
-43.5924694988463
 31
0.0
  0
LINE
  5
   46D
  8
0
  6
CONTINUOUS
 62
     1
 10
161.018040003675
 20
-43.5924698157778
 30
0.0
 11
161.548062802107
 21
-43.9735065525738
 31
0.0
  0
LINE
  5
   46E
  8
0
  6
CONTINUOUS
 62
     1
 10
161.548060881399
 20
-43.9735068883297
 30
0.0
 11
162.155714279063
 21
-44.2119809664068
 31
0.0
  0
LINE
  5
   46F
  8
0
  6
CONTINUOUS
 62
     1
 10
162.155720672662
 20
-44.2119796679884
 30
0.0
 11
162.803428426012
 21
-44.29314307238
 31
0.0
  0
LINE
  5
   470
  8
0
  6
CONTINUOUS
 62
     1
 10
162.803428776562
 20
-44.2931425263766
 30
0.0
 11
163.451136529911
 21
-44.211979121985
 31
0.0
  0
LINE
  5
   471
  8
0
  6
CONTINUOUS
 62
     1
 10
163.451129182988
 20
-44.2119818402835
 30
0.0
 11
164.058782580651
 21
-43.9735077622065
 31
0.0
  0
LINE
  5
   472
  8
0
  6
CONTINUOUS
 62
     1
 10
164.058785019007
 20
-43.9735067070148
 30
0.0
 11
164.588807817439
 21
-43.5924699702187
 31
0.0
  0
LINE
  5
   473
  8
0
  6
CONTINUOUS
 62
     1
 10
164.588804891533
 20
-43.5924723226374
 30
0.0
 11
165.008419278509
 21
-43.0924368487519
 31
0.0
  0
LINE
  5
   474
  8
0
  6
CONTINUOUS
 62
     1
 10
165.008422519933
 20
-43.0924343059519
 30
0.0
 11
165.008422519933
 21
-40.2438538033155
 31
0.0
  0
LINE
  5
   475
  8
0
  6
CONTINUOUS
 62
     1
 10
167.477168338802
 20
-35.1568531826368
 30
0.0
 11
167.528424517828
 21
-35.2805970007416
 31
0.0
  0
LINE
  5
   476
  8
0
  6
CONTINUOUS
 62
     1
 10
167.353424858139
 20
-35.1055972310538
 30
0.0
 11
167.477168676243
 21
-35.15685341008
 31
0.0
  0
LINE
  5
   477
  8
0
  6
CONTINUOUS
 62
     1
 10
166.303424100052
 20
-35.1055974363517
 30
0.0
 11
167.35342408217
 21
-35.1055974363517
 31
0.0
  0
LINE
  5
   478
  8
0
  6
CONTINUOUS
 62
     1
 10
166.179681265602
 20
-35.1568530749605
 30
0.0
 11
166.303425083707
 21
-35.1055968959343
 31
0.0
  0
LINE
  5
   479
  8
0
  6
CONTINUOUS
 62
     1
 10
166.128424754394
 20
-35.2805966645963
 30
0.0
 11
166.179680933421
 21
-35.1568528464915
 31
0.0
  0
LINE
  5
   47A
  8
0
  6
CONTINUOUS
 62
     1
 10
166.128424103032
 20
-36.1555974184703
 30
0.0
 11
166.128424103032
 21
-35.2805974333714
 31
0.0
  0
LINE
  5
   47B
  8
0
  6
CONTINUOUS
 62
     1
 10
166.128424103032
 20
-36.8555974065494
 30
0.0
 11
166.128424103032
 21
-36.1555974184703
 31
0.0
  0
LINE
  5
   47C
  8
0
  6
CONTINUOUS
 62
     1
 10
166.128424103032
 20
-37.5555973946284
 30
0.0
 11
166.128424103032
 21
-36.8555974065494
 31
0.0
  0
LINE
  5
   47D
  8
0
  6
CONTINUOUS
 62
     1
 10
166.128424103032
 20
-38.2555973827075
 30
0.0
 11
166.128424103032
 21
-37.5555973946284
 31
0.0
  0
LINE
  5
   47E
  8
0
  6
CONTINUOUS
 62
     1
 10
166.128424103032
 20
-39.1305973678063
 30
0.0
 11
166.128424103032
 21
-38.2555973827075
 31
0.0
  0
LINE
  5
   47F
  8
0
  6
CONTINUOUS
 62
     1
 10
166.128424540043
 20
-39.1305970101036
 30
0.0
 11
166.179680719069
 21
-39.2543408282083
 31
0.0
  0
LINE
  5
   480
  8
0
  6
CONTINUOUS
 62
     1
 10
166.179681050225
 20
-39.2543410278251
 30
0.0
 11
166.30342486833
 21
-39.3055972068513
 31
0.0
  0
LINE
  5
   481
  8
0
  6
CONTINUOUS
 62
     1
 10
166.303424100052
 20
-39.3055973648261
 30
0.0
 11
167.35342408217
 21
-39.3055973648261
 31
0.0
  0
LINE
  5
   482
  8
0
  6
CONTINUOUS
 62
     1
 10
167.353425073516
 20
-39.3055968717318
 30
0.0
 11
167.477168891621
 21
-39.2543406927056
 31
0.0
  0
LINE
  5
   483
  8
0
  6
CONTINUOUS
 62
     1
 10
167.477168553154
 20
-39.2543404920631
 30
0.0
 11
167.52842473218
 21
-39.1305966739583
 31
0.0
  0
LINE
  5
   484
  8
0
  6
CONTINUOUS
 62
     1
 10
167.52842407919
 20
-39.1305973678063
 30
0.0
 11
167.52842407919
 21
-38.2555973827075
 31
0.0
  0
LINE
  5
   485
  8
0
  6
CONTINUOUS
 62
     1
 10
167.52842407919
 20
-38.2555973827075
 30
0.0
 11
167.52842407919
 21
-37.5555973946284
 31
0.0
  0
LINE
  5
   486
  8
0
  6
CONTINUOUS
 62
     1
 10
167.52842407919
 20
-37.5555973946284
 30
0.0
 11
167.52842407919
 21
-36.8555974065494
 31
0.0
  0
LINE
  5
   487
  8
0
  6
CONTINUOUS
 62
     1
 10
167.52842407919
 20
-36.8555974065494
 30
0.0
 11
167.52842407919
 21
-36.1555974184703
 31
0.0
  0
LINE
  5
   488
  8
0
  6
CONTINUOUS
 62
     1
 10
167.52842407919
 20
-36.1555974184703
 30
0.0
 11
167.52842407919
 21
-35.2805974333714
 31
0.0
  0
LINE
  5
   489
  8
0
  6
CONTINUOUS
 62
     1
 10
166.303434781204
 20
-5.35564600817588
 30
0.0
 11
166.303434781204
 21
-4.30564602605727
 31
0.0
  0
LINE
  5
   48A
  8
0
  6
CONTINUOUS
 62
     1
 10
166.303433882421
 20
-5.35564903915635
 30
0.0
 11
166.403700524846
 21
-5.66423821194254
 31
0.0
  0
LINE
  5
   48B
  8
0
  6
CONTINUOUS
 62
     1
 10
166.403701128097
 20
-5.66423558622332
 30
0.0
 11
166.666201121309
 21
-5.854952904142
 31
0.0
  0
LINE
  5
   48C
  8
0
  6
CONTINUOUS
 62
     1
 10
166.666201422365
 20
-5.85495248770985
 30
0.0
 11
166.990668122162
 21
-5.85495248770985
 31
0.0
  0
LINE
  5
   48D
  8
0
  6
CONTINUOUS
 62
     1
 10
166.990667426479
 20
-5.85495318286797
 30
0.0
 11
167.253167419691
 21
-5.66423586494929
 31
0.0
  0
LINE
  5
   48E
  8
0
  6
CONTINUOUS
 62
     1
 10
167.253166132052
 20
-5.66423898661988
 30
0.0
 11
167.353432774477
 21
-5.35564981383369
 31
0.0
  0
LINE
  5
   48F
  8
0
  6
CONTINUOUS
 62
     1
 10
167.353434763323
 20
-5.35564600817588
 30
0.0
 11
167.353434763323
 21
-4.30564602605727
 31
0.0
  0
LINE
  5
   490
  8
0
  6
CONTINUOUS
 62
     1
 10
167.253167199568
 20
-3.99705995955766
 30
0.0
 11
167.353433841994
 21
-4.30564913234382
 31
0.0
  0
LINE
  5
   491
  8
0
  6
CONTINUOUS
 62
     1
 10
166.990667822818
 20
-3.80633997279185
 30
0.0
 11
167.25316781603
 21
-3.99705729071054
 31
0.0
  0
LINE
  5
   492
  8
0
  6
CONTINUOUS
 62
     1
 10
166.666201422365
 20
-3.8063395465233
 30
0.0
 11
166.990668122162
 21
-3.8063395465233
 31
0.0
  0
LINE
  5
   493
  8
0
  6
CONTINUOUS
 62
     1
 10
166.403700731758
 20
-3.99705756943651
 30
0.0
 11
166.66620072497
 21
-3.80634025151783
 31
0.0
  0
LINE
  5
   494
  8
0
  6
CONTINUOUS
 62
     1
 10
166.303432814904
 20
-4.30564990702117
 30
0.0
 11
166.40369945733
 21
-3.997060734235
 31
0.0
  0
LINE
  5
   495
  8
0
  6
CONTINUOUS
 62
     1
 10
166.30343478122
 20
-26.9681456400897
 30
0.0
 11
166.303442792084
 21
-17.5181458010223
 31
0.0
  0
LINE
  5
   496
  8
0
  6
CONTINUOUS
 62
     1
 10
166.303434781204
 20
-26.9681456401172
 30
0.0
 11
167.353448114763
 21
-26.9681456401172
 31
0.0
  0
LINE
  5
   497
  8
0
  6
CONTINUOUS
 62
     1
 10
167.353437433639
 20
-17.5181725038813
 30
0.0
 11
167.353448114791
 21
-26.9681456400684
 31
0.0
  0
LINE
  5
   498
  8
0
  6
CONTINUOUS
 62
     1
 10
166.303442819987
 20
-17.5181457856304
 30
0.0
 11
167.35343746153
 21
-17.51817248851
 31
0.0
  0
LINE
  5
   499
  8
0
  6
CONTINUOUS
 62
     5
 10
77.9284483020578
 20
-49.368125231244
 30
0.0
 11
83.703437522558
 21
-49.3681572746999
 31
0.0
  0
LINE
  5
   49A
  8
0
  6
CONTINUOUS
 62
     5
 10
77.9284483025175
 20
-0.3681460931125
 30
0.0
 11
83.7034375230177
 21
-0.3681460931125
 31
0.0
  0
LINE
  5
   49B
  8
0
  6
CONTINUOUS
 62
     5
 10
83.7034375230177
 20
-1.76818345330321
 30
0.0
 11
83.7034375230177
 21
-0.3681460931125
 31
0.0
  0
LINE
  5
   49C
  8
0
  6
CONTINUOUS
 62
     5
 10
83.7034375230177
 20
-49.3681572749437
 30
0.0
 11
83.7034375230177
 21
-47.9682013585382
 31
0.0
  0
LINE
  5
   49D
  8
0
  6
CONTINUOUS
 62
     5
 10
77.5784327203395
 20
-49.0181919946483
 30
0.0
 11
77.5784327203395
 21
-0.718144752007703
 31
0.0
  0
LINE
  5
   49E
  8
0
  6
CONTINUOUS
 62
     1
 10
83.3534348586901
 20
-49.3681038691829
 30
0.0
 11
83.3534348586901
 21
-47.9681946828181
 31
0.0
  0
LINE
  5
   49F
  8
0
  6
CONTINUOUS
 62
     1
 10
83.3534348586901
 20
-5.00556590549513
 30
0.0
 11
83.3534348586901
 21
-0.3681460931125
 31
0.0
  0
LINE
  5
   4A0
  8
0
  6
CONTINUOUS
 62
     5
 10
77.5784414541112
 20
-49.0181036205331
 30
0.0
 11
77.605077578165
 21
-49.1521307188955
 31
0.0
  0
LINE
  5
   4A1
  8
0
  6
CONTINUOUS
 62
     5
 10
77.6050913392557
 20
-49.152043097809
 30
0.0
 11
77.680948879991
 21
-49.2656798730698
 31
0.0
  0
LINE
  5
   4A2
  8
0
  6
CONTINUOUS
 62
     5
 10
77.6809613224217
 20
-49.2655919793294
 30
0.0
 11
77.7945099829735
 21
-49.3414615364239
 31
0.0
  0
LINE
  5
   4A3
  8
0
  6
CONTINUOUS
 62
     5
 10
77.7945097407898
 20
-49.3414612640317
 30
0.0
 11
77.9284487204599
 21
-49.3681254261047
 31
0.0
  0
LINE
  5
   4A4
  8
0
  6
CONTINUOUS
 62
     5
 10
77.7945095752216
 20
-0.394790783740561
 30
0.0
 11
77.9284485524689
 21
-0.368146650282398
 31
0.0
  0
LINE
  5
   4A5
  8
0
  6
CONTINUOUS
 62
     5
 10
77.680963588876
 20
-0.470661867647252
 30
0.0
 11
77.7945095746808
 21
-0.394793647022695
 31
0.0
  0
LINE
  5
   4A6
  8
0
  6
CONTINUOUS
 62
     5
 10
77.6050911366406
 20
-0.584203188484423
 30
0.0
 11
77.6809606966324
 21
-0.470657197376426
 31
0.0
  0
LINE
  5
   4A7
  8
0
  6
CONTINUOUS
 62
     5
 10
77.5784416605753
 20
-0.718146445144413
 30
0.0
 11
77.6050911359604
 21
-0.584204796864825
 31
0.0
  0
LINE
  5
   4A8
  8
0
  6
CONTINUOUS
 62
     1
 10
83.3534348566887
 20
-47.9681906762575
 30
0.0
 11
83.7034361858723
 21
-47.9681946816896
 31
0.0
  0
LINE
  5
   4A9
  8
0
  6
CONTINUOUS
 62
     1
 10
83.3534348552137
 20
-1.76815140246222
 30
0.0
 11
83.7034361843972
 21
-1.76814606188614
 31
0.0
  0
LINE
  5
   4AA
  8
0
  6
CONTINUOUS
 62
     1
 10
82.3909348746611
 20
-44.1182361375751
 30
0.0
 11
83.7034348523094
 21
-44.1182428132954
 31
0.0
  0
LINE
  5
   4AB
  8
0
  6
CONTINUOUS
 62
     1
 10
82.3909348750814
 20
-45.5182427897261
 30
0.0
 11
83.7034348527296
 21
-45.5182427897261
 31
0.0
  0
LINE
  5
   4AC
  8
0
  6
CONTINUOUS
 62
     1
 10
83.3534348586901
 20
-7.71819403312747
 30
0.0
 11
83.7034348527296
 21
-7.71819403312747
 31
0.0
  0
LINE
  5
   4AD
  8
0
  6
CONTINUOUS
 62
     1
 10
83.3534348586901
 20
-9.11819400928562
 30
0.0
 11
83.7034348527296
 21
-9.11819400928562
 31
0.0
  0
LINE
  5
   4AE
  8
0
  6
CONTINUOUS
 62
     5
 10
83.7034348527296
 20
-41.6682148172667
 30
0.0
 11
83.7034348527296
 21
-10.1682153537085
 31
0.0
  0
LINE
  5
   4AF
  8
0
  6
CONTINUOUS
 62
     5
 10
83.7034348527025
 20
-47.268214724068
 30
0.0
 11
83.7034361878465
 21
-47.9681946855598
 31
0.0
  0
LINE
  5
   4B0
  8
0
  6
CONTINUOUS
 62
     5
 10
83.7034348527296
 20
-45.8679276897768
 30
0.0
 11
83.7034348527296
 21
-43.7685098483324
 31
0.0
  0
LINE
  5
   4B1
  8
0
  6
CONTINUOUS
 62
     5
 10
83.7034059410447
 20
-4.56821544906155
 30
0.0
 11
83.7034059410447
 21
-1.76818345328878
 31
0.0
  0
LINE
  5
   4B2
  8
0
  6
CONTINUOUS
 62
     5
 10
83.7034348527296
 20
-9.46821002505339
 30
0.0
 11
83.7034348527296
 21
-7.36821006081618
 31
0.0
  0
LINE
  5
   4B3
  8
0
  6
CONTINUOUS
 62
     1
 10
80.7284349033936
 20
-44.1182267918397
 30
0.0
 11
80.7284349033936
 21
-43.7680652453737
 31
0.0
  0
LINE
  5
   4B4
  8
0
  6
CONTINUOUS
 62
     1
 10
83.3534361938341
 20
-4.56821544907598
 30
0.0
 11
83.7034348527296
 21
-4.56821544907598
 31
0.0
  0
LINE
  5
   4B5
  8
0
  6
CONTINUOUS
 62
     1
 10
81.953434882532
 20
-10.1682153537085
 30
0.0
 11
83.7034348527296
 21
-10.1682153537085
 31
0.0
  0
LINE
  5
   4B6
  8
0
  6
CONTINUOUS
 62
     1
 10
82.3909348750814
 20
-47.2682107164673
 30
0.0
 11
83.7034348527296
 21
-47.2682107164673
 31
0.0
  0
LINE
  5
   4B7
  8
0
  6
CONTINUOUS
 62
     1
 10
81.953434882532
 20
-41.6682094766907
 30
0.0
 11
83.7034348527296
 21
-41.6682094766907
 31
0.0
  0
LINE
  5
   4B8
  8
0
  6
CONTINUOUS
 62
     5
 10
77.2284349629982
 20
-30.8182176723292
 30
0.0
 11
77.2284349629982
 21
-23.8182177915385
 31
0.0
  0
LINE
  5
   4B9
  8
0
  6
CONTINUOUS
 62
     1
 10
79.2409255827174
 20
-5.00572078220148
 30
0.0
 11
80.4659349078639
 21
-5.00572078220148
 31
0.0
  0
LINE
  5
   4BA
  8
0
  6
CONTINUOUS
 62
     1
 10
79.2409255827174
 20
-5.00572078220148
 30
0.0
 11
80.4659349078639
 21
-5.00572078220148
 31
0.0
  0
LINE
  5
   4BB
  8
0
  6
CONTINUOUS
 62
     1
 10
81.953434882532
 20
-9.81818865678861
 30
0.0
 11
83.3534348586901
 21
-9.81818865678861
 31
0.0
  0
LINE
  5
   4BC
  8
0
  6
CONTINUOUS
 62
     1
 10
83.3534348586901
 20
-9.81818865678861
 30
0.0
 11
83.3534348586901
 21
-5.00572078220148
 31
0.0
  0
LINE
  5
   4BD
  8
0
  6
CONTINUOUS
 62
     1
 10
81.2534335583378
 20
-11.568103176208
 30
0.0
 11
81.9534255355528
 21
-11.5681085167841
 31
0.0
  0
LINE
  5
   4BE
  8
0
  6
CONTINUOUS
 62
     1
 10
81.9534255364555
 20
-11.5681085173645
 30
0.0
 11
81.9534295418876
 21
-10.1681459277175
 31
0.0
  0
LINE
  5
   4BF
  8
0
  6
CONTINUOUS
 62
     1
 10
81.2534335552617
 20
-10.6930978457483
 30
0.0
 11
81.9534268676207
 21
-10.6931085269005
 31
0.0
  0
LINE
  5
   4C0
  8
0
  6
CONTINUOUS
 62
     1
 10
80.4659349078639
 20
-7.01822074792881
 30
0.0
 11
80.4659349078639
 21
-5.00572078220148
 31
0.0
  0
LINE
  5
   4C1
  8
0
  6
CONTINUOUS
 62
     1
 10
80.4659311816376
 20
-7.01821433359942
 30
0.0
 11
80.9909311842297
 21
-7.54321433619154
 31
0.0
  0
LINE
  5
   4C2
  8
0
  6
CONTINUOUS
 62
     1
 10
80.9909348989232
 20
-7.54322073898811
 30
0.0
 11
82.2159348780616
 21
-7.54322073898811
 31
0.0
  0
LINE
  5
   4C3
  8
0
  6
CONTINUOUS
 62
     1
 10
82.2159348780616
 20
-7.54322073898811
 30
0.0
 11
82.2159348780616
 21
-5.00556590549513
 31
0.0
  0
LINE
  5
   4C4
  8
0
  6
CONTINUOUS
 62
     1
 10
80.4659349078639
 20
-5.00564067356026
 30
0.0
 11
83.3534348586901
 21
-5.00564067356026
 31
0.0
  0
LINE
  5
   4C5
  8
0
  6
CONTINUOUS
 62
     1
 10
80.990934898859
 20
-46.3931640012935
 30
0.0
 11
82.3909348750172
 21
-46.3931666715815
 31
0.0
  0
LINE
  5
   4C6
  8
0
  6
CONTINUOUS
 62
     1
 10
82.3909348750814
 20
-47.9680651738481
 30
0.0
 11
82.3909348750814
 21
-46.3931666716157
 31
0.0
  0
LINE
  5
   4C7
  8
0
  6
CONTINUOUS
 62
     1
 10
80.9909348989232
 20
-47.9680651738481
 30
0.0
 11
80.9909348989232
 21
-46.3931640013277
 31
0.0
  0
LINE
  5
   4C8
  8
0
  6
CONTINUOUS
 62
     1
 10
79.7659309142308
 20
-44.1181974186031
 30
0.0
 11
82.3909348749593
 21
-44.1181907428827
 31
0.0
  0
LINE
  5
   4C9
  8
0
  6
CONTINUOUS
 62
     1
 10
82.3909348750814
 20
-46.3931907042081
 30
0.0
 11
82.3909348750814
 21
-44.1181907429511
 31
0.0
  0
LINE
  5
   4CA
  8
0
  6
CONTINUOUS
 62
     1
 10
81.953434882532
 20
-13.6681351854627
 30
0.0
 11
81.953434882532
 21
-11.5681245400733
 31
0.0
  0
LINE
  5
   4CB
  8
0
  6
CONTINUOUS
 62
     1
 10
79.7659312178118
 20
-44.118197798962
 30
0.0
 11
79.7926527898463
 21
-44.0914762269275
 31
0.0
  0
LINE
  5
   4CC
  8
0
  6
CONTINUOUS
 62
     1
 10
79.765931922488
 20
-44.1181493655284
 30
0.0
 11
80.116024042935
 21
-43.7680665998043
 31
0.0
  0
LINE
  5
   4CD
  8
0
  6
CONTINUOUS
 62
     1
 10
81.9534377346519
 20
-43.7680652453728
 30
0.0
 11
81.9534377346519
 21
-13.6681351854618
 31
0.0
  0
LINE
  5
   4CE
  8
0
  6
CONTINUOUS
 62
     1
 10
81.953434882532
 20
-10.1681459262195
 30
0.0
 11
81.953434882532
 21
-8.59306584440037
 31
0.0
  0
LINE
  5
   4CF
  8
0
  6
CONTINUOUS
 62
     1
 10
79.7659349197849
 20
-43.7680652453737
 30
0.0
 11
81.953434882532
 21
-43.7680652453737
 31
0.0
  0
LINE
  5
   4D0
  8
0
  6
CONTINUOUS
 62
     1
 10
79.7659349197849
 20
-47.9680651738481
 30
0.0
 11
83.3534348586901
 21
-47.9680651738481
 31
0.0
  0
LINE
  5
   4D1
  8
0
  6
CONTINUOUS
 62
     1
 10
79.7659349197849
 20
-47.9680651738481
 30
0.0
 11
79.7659349197849
 21
-43.7680652453737
 31
0.0
  0
LINE
  5
   4D2
  8
0
  6
CONTINUOUS
 62
     1
 10
79.2409322584375
 20
-8.59306584440037
 30
0.0
 11
81.953434882532
 21
-8.59306584440037
 31
0.0
  0
LINE
  5
   4D3
  8
0
  6
CONTINUOUS
 62
     1
 10
79.2409322584375
 20
-8.59306584440037
 30
0.0
 11
79.2409322584375
 21
-5.00556590549513
 31
0.0
  0
LINE
  5
   4D4
  8
0
  6
CONTINUOUS
 62
     1
 10
81.6034348884924
 20
-10.1681459262195
 30
0.0
 11
81.953434882532
 21
-10.1681459262195
 31
0.0
  0
LINE
  5
   4D5
  8
0
  6
CONTINUOUS
 62
     1
 10
81.4694961142797
 20
-10.1947905335656
 30
0.0
 11
81.6034350915271
 21
-10.1681464001074
 31
0.0
  0
LINE
  5
   4D6
  8
0
  6
CONTINUOUS
 62
     1
 10
81.3559474072156
 20
-10.2706608543797
 30
0.0
 11
81.4694960624697
 21
-10.1947926285212
 31
0.0
  0
LINE
  5
   4D7
  8
0
  6
CONTINUOUS
 62
     1
 10
81.2800777261608
 20
-10.3842032084381
 30
0.0
 11
81.3559472861527
 21
-10.2706572173301
 31
0.0
  0
LINE
  5
   4D8
  8
0
  6
CONTINUOUS
 62
     1
 10
81.2534348999452
 20
-10.5181459955863
 30
0.0
 11
81.280077698476
 21
-10.3842043481201
 31
0.0
  0
LINE
  5
   4D9
  8
0
  6
CONTINUOUS
 62
     1
 10
81.2534348944529
 20
-13.3181351914232
 30
0.0
 11
81.2534348944529
 21
-10.518145920259
 31
0.0
  0
LINE
  5
   4DA
  8
0
  6
CONTINUOUS
 62
     1
 10
81.2534349150743
 20
-13.3181352680391
 30
0.0
 11
81.2800777136052
 21
-13.4520769155053
 31
0.0
  0
LINE
  5
   4DB
  8
0
  6
CONTINUOUS
 62
     1
 10
81.280077108779
 20
-13.4520756394179
 30
0.0
 11
81.3559466687708
 21
-13.5656216305259
 31
0.0
  0
LINE
  5
   4DC
  8
0
  6
CONTINUOUS
 62
     1
 10
81.3559493871974
 20
-13.5656258665285
 30
0.0
 11
81.4694980424514
 21
-13.641494092387
 31
0.0
  0
LINE
  5
   4DD
  8
0
  6
CONTINUOUS
 62
     1
 10
81.4694962936159
 20
-13.6414915509822
 30
0.0
 11
81.6034352708633
 21
-13.6681356844403
 31
0.0
  0
LINE
  5
   4DE
  8
0
  6
CONTINUOUS
 62
     1
 10
81.6034348884924
 20
-13.6681351854627
 30
0.0
 11
81.9534308770999
 21
-13.6681351854627
 31
0.0
  0
LINE
  5
   4DF
  8
0
  6
CONTINUOUS
 62
     1
 10
192.028445024262
 20
-11.5681405618016
 30
0.0
 11
192.378439677726
 21
-11.5681405618016
 31
0.0
  0
LINE
  5
   4E0
  8
0
  6
CONTINUOUS
 62
     7
 10
192.028445024262
 20
-0.3681460931125
 30
0.0
 11
192.378439677726
 21
-0.3681460931125
 31
0.0
  0
LINE
  5
   4E1
  8
0
  6
CONTINUOUS
 62
     7
 10
181.615900921334
 20
-0.3681460931125
 30
0.0
 11
190.803391469391
 21
-0.3681460931125
 31
0.0
  0
LINE
  5
   4E2
  8
0
  6
DOT
 62
     7
 10
181.615900921334
 20
-11.5681405618016
 30
0.0
 11
190.803391469391
 21
-11.5681405618016
 31
0.0
  0
LINE
  5
   4E3
  8
0
  6
DOT
 62
     7
 10
181.615900921334
 20
-51.0306505709114
 30
0.0
 11
190.803391469391
 21
-51.0306505709114
 31
0.0
  0
LINE
  5
   4E4
  8
0
  6
CONTINUOUS
 62
     7
 10
192.378445018302
 20
-51.0306505709114
 30
0.0
 11
192.378445018302
 21
-49.3681532695116
 31
0.0
  0
LINE
  5
   4E5
  8
0
  6
DOT
 62
     7
 10
181.615900921334
 20
-22.0681593420576
 30
0.0
 11
190.803391469391
 21
-22.0681499960521
 31
0.0
  0
LINE
  5
   4E6
  8
0
  6
CONTINUOUS
 62
     7
 10
192.378439677726
 20
-0.368146093111733
 30
0.0
 11
192.378445018302
 21
-49.3681559397989
 31
0.0
  0
LINE
  5
   4E7
  8
0
  6
CONTINUOUS
 62
     7
 10
192.728439671765
 20
-30.8181615962803
 30
0.0
 11
192.728439671765
 21
-23.8181617154896
 31
0.0
  0
LINE
  5
   4E8
  8
0
  6
CONTINUOUS
 62
     1
 10
121.678432203303
 20
-17.7611046286993
 30
0.0
 11
157.028428931008
 21
-17.7611046286993
 31
0.0
  0
LINE
  5
   4E9
  8
0
  6
CONTINUOUS
 62
     1
 10
121.678432203303
 20
-17.4111046346598
 30
0.0
 11
157.028428931008
 21
-17.4111046346598
 31
0.0
  0
LINE
  5
   4EA
  8
0
  6
CONTINUOUS
 62
   210
 10
137.603433934818
 20
-39.4175919155311
 30
0.0
 11
137.603433934818
 21
-18.7187019634657
 31
0.0
  0
LINE
  5
   4EB
  8
0
  6
CONTINUOUS
 62
   210
 10
152.303435019623
 20
-39.4175919155311
 30
0.0
 11
152.303435019623
 21
-18.7187019634657
 31
0.0
  0
LINE
  5
   4EC
  8
0
  6
CONTINUOUS
 62
     1
 10
121.678432203303
 20
-24.4111045154505
 30
0.0
 11
137.60343460239
 21
-24.4111045154505
 31
0.0
  0
LINE
  5
   4ED
  8
0
  6
CONTINUOUS
 62
     1
 10
152.303435019623
 20
-24.4111045154505
 30
0.0
 11
157.02842959858
 21
-24.4111045154505
 31
0.0
  0
LINE
  5
   4EE
  8
0
  6
CONTINUOUS
 62
     1
 10
152.303435019623
 20
-24.0611045214109
 30
0.0
 11
157.02842959858
 21
-24.0611045214109
 31
0.0
  0
LINE
  5
   4EF
  8
0
  6
CONTINUOUS
 62
     1
 10
121.678432203303
 20
-24.0611045214109
 30
0.0
 11
137.60343460239
 21
-24.0611045214109
 31
0.0
  0
LINE
  5
   4F0
  8
0
  6
CONTINUOUS
 62
     1
 10
152.303435019623
 20
-33.8015061957428
 30
0.0
 11
157.02842959858
 21
-33.8015061957428
 31
0.0
  0
LINE
  5
   4F1
  8
0
  6
CONTINUOUS
 62
     1
 10
121.678432203303
 20
-33.8015061957428
 30
0.0
 11
137.60343460239
 21
-33.8015061957428
 31
0.0
  0
LINE
  5
   4F2
  8
0
  6
CONTINUOUS
 62
     1
 10
121.678432203303
 20
-34.1515061897824
 30
0.0
 11
137.60343460239
 21
-34.1515061897824
 31
0.0
  0
LINE
  5
   4F3
  8
0
  6
CONTINUOUS
 62
     1
 10
152.303435019623
 20
-34.1515061897824
 30
0.0
 11
157.02842959858
 21
-34.1515061897824
 31
0.0
  0
LINE
  5
   4F4
  8
0
  6
CONTINUOUS
 62
     1
 10
121.678432203303
 20
-40.451506082494
 30
0.0
 11
157.028428931008
 21
-40.451506082494
 31
0.0
  0
LINE
  5
   4F5
  8
0
  6
CONTINUOUS
 62
     1
 10
121.678432203303
 20
-40.8015060765335
 30
0.0
 11
157.028428931008
 21
-40.8015060765335
 31
0.0
  0
LINE
  5
   4F6
  8
0
  6
CONTINUOUS
 62
     1
 10
77.5784416327579
 20
-0.718146087152036
 30
0.0
 11
83.3534348586901
 21
-0.718146087152036
 31
0.0
  0
LINE
  5
   4F7
  8
0
  6
CONTINUOUS
 62
     1
 10
77.5784416228511
 20
-49.0181038711187
 30
0.0
 11
78.7159349277595
 21
-49.0180785033827
 31
0.0
  0
LINE
  5
   4F8
  8
0
  6
CONTINUOUS
 62
     1
 10
80.7284349033936
 20
-43.7682241275121
 30
0.0
 11
83.7034348527296
 21
-43.7682241275121
 31
0.0
  0
LINE
  5
   4F9
  8
0
  6
CONTINUOUS
 62
     1
 10
82.3909348750814
 20
-45.8682240917493
 30
0.0
 11
83.7034348527296
 21
-45.8682240917493
 31
0.0
  0
LINE
  5
   4FA
  8
0
  6
CONTINUOUS
 62
     1
 10
83.3534348586901
 20
-7.36821006081618
 30
0.0
 11
83.7034348527296
 21
-7.36821006081618
 31
0.0
  0
LINE
  5
   4FB
  8
0
  6
CONTINUOUS
 62
     1
 10
83.3534348586901
 20
-9.46821002505339
 30
0.0
 11
83.7034348527296
 21
-9.46821002505339
 31
0.0
  0
LINE
  5
   4FC
  8
0
  6
CONTINUOUS
 62
     5
 10
83.7034348527296
 20
-7.19321540437249
 30
0.0
 11
83.7034348527296
 21
-4.56821544907598
 31
0.0
  0
LINE
  5
   4FD
  8
0
  6
CONTINUOUS
 62
     5
 10
83.7034348527296
 20
-7.36821006081618
 30
0.0
 11
83.7034348527296
 21
-7.19321540437249
 31
0.0
  0
LINE
  5
   4FE
  8
0
  6
CONTINUOUS
 62
     5
 10
83.7034348527296
 20
-9.64321536264924
 30
0.0
 11
83.7034348527296
 21
-9.46821002505339
 31
0.0
  0
LINE
  5
   4FF
  8
0
  6
CONTINUOUS
 62
     5
 10
83.7034348527296
 20
-10.1682153537085
 30
0.0
 11
83.7034348527296
 21
-9.64321536264924
 31
0.0
  0
LINE
  5
   500
  8
0
  6
CONTINUOUS
 62
     5
 10
83.7034348527296
 20
-43.5932241304923
 30
0.0
 11
83.7034348527296
 21
-41.6682094766907
 31
0.0
  0
LINE
  5
   501
  8
0
  6
CONTINUOUS
 62
     5
 10
83.7034348527296
 20
-43.7682241275121
 30
0.0
 11
83.7034348527296
 21
-43.5932241304923
 31
0.0
  0
LINE
  5
   502
  8
0
  6
CONTINUOUS
 62
     5
 10
83.7034348527296
 20
-46.0432240887691
 30
0.0
 11
83.7034348527296
 21
-45.8682240917493
 31
0.0
  0
LINE
  5
   503
  8
0
  6
CONTINUOUS
 62
     5
 10
83.7034348527296
 20
-47.2682107164673
 30
0.0
 11
83.7034348527296
 21
-46.0432240887691
 31
0.0
  0
LINE
  5
   504
  8
0
  6
CONTINUOUS
 62
     5
 10
77.2284349629982
 20
-30.8182176723292
 30
0.0
 11
77.5784349570378
 21
-30.8182176723292
 31
0.0
  0
LINE
  5
   505
  8
0
  6
CONTINUOUS
 62
     5
 10
77.2284349629982
 20
-23.8182177915385
 30
0.0
 11
77.5784349570378
 21
-23.8182177915385
 31
0.0
  0
LINE
  5
   506
  8
0
  6
CONTINUOUS
 62
     1
 10
80.7284348674487
 20
-7.28072207712707
 30
0.0
 11
81.5159348639612
 21
-6.49322208061459
 31
0.0
  0
LINE
  5
   507
  8
0
  6
CONTINUOUS
 62
     1
 10
78.7159349376662
 20
-49.0180785074069
 30
0.0
 11
78.7159349376662
 21
-42.718062592967
 31
0.0
  0
LINE
  5
   508
  8
0
  6
CONTINUOUS
 62
     1
 10
78.7159349376662
 20
-42.718062592967
 30
0.0
 11
79.7659349197849
 21
-42.718062592967
 31
0.0
  0
LINE
  5
   509
  8
0
  6
CONTINUOUS
 62
     1
 10
78.7159356413749
 20
-42.7180633405546
 30
0.0
 11
79.7659356465574
 21
-43.7680660009919
 31
0.0
  0
LINE
  5
   50A
  8
0
  6
CONTINUOUS
 62
     1
 10
78.7159349373917
 20
-49.0180785072892
 30
0.0
 11
79.7659349195103
 21
-49.0180745018571
 31
0.0
  0
LINE
  5
   50B
  8
0
  6
CONTINUOUS
 62
     1
 10
78.7159343918399
 20
-49.0180781487732
 30
0.0
 11
79.7659343969818
 21
-47.9680647787809
 31
0.0
  0
LINE
  5
   50C
  8
0
  6
CONTINUOUS
 62
     1
 10
82.0409348810418
 20
-47.9680731847122
 30
0.0
 11
82.0409348810418
 21
-46.3931666716157
 31
0.0
  0
LINE
  5
   50D
  8
0
  6
CONTINUOUS
 62
     1
 10
79.7659349197849
 20
-42.718062592967
 30
0.0
 11
81.953434882532
 21
-42.718062592967
 31
0.0
  0
LINE
  5
   50E
  8
0
  6
CONTINUOUS
 62
     1
 10
79.7659349196134
 20
-49.018074501884
 30
0.0
 11
83.3534348585187
 21
-49.0180624855879
 31
0.0
  0
LINE
  5
   50F
  8
0
  6
CONTINUOUS
 62
     1
 10
78.190934946607
 20
-9.6430604859429
 30
0.0
 11
78.190934946607
 21
-3.95556058280044
 31
0.0
  0
LINE
  5
   510
  8
0
  6
CONTINUOUS
 62
     1
 10
78.190934946607
 20
-3.95556058280044
 30
0.0
 11
79.2409322584375
 21
-3.95556058280044
 31
0.0
  0
LINE
  5
   511
  8
0
  6
CONTINUOUS
 62
     1
 10
78.1909359950801
 20
-3.95556232927233
 30
0.0
 11
79.2409333450077
 21
-5.00556764496456
 31
0.0
  0
LINE
  5
   512
  8
0
  6
CONTINUOUS
 62
     1
 10
78.190934752647
 20
-9.64305557406383
 30
0.0
 11
79.2409320730716
 21
-8.59306090888036
 31
0.0
  0
LINE
  5
   513
  8
0
  6
CONTINUOUS
 62
     1
 10
81.5159348899825
 20
-6.4932207568695
 30
0.0
 11
82.2159348780616
 21
-6.4932207568695
 31
0.0
  0
LINE
  5
   514
  8
0
  6
CONTINUOUS
 62
     1
 10
81.5159348899825
 20
-6.4932207568695
 30
0.0
 11
81.5159348899825
 21
-5.00564067356026
 31
0.0
  0
LINE
  5
   515
  8
0
  6
CONTINUOUS
 62
     1
 10
79.2409322584375
 20
-3.95556058280044
 30
0.0
 11
83.3534348586901
 21
-3.95556058280044
 31
0.0
  0
LINE
  5
   516
  8
0
  6
CONTINUOUS
 62
     1
 10
78.190934946607
 20
-9.6430604859429
 30
0.0
 11
81.953434882532
 21
-9.6430604859429
 31
0.0
  0
LINE
  5
   517
  8
0
  6
CONTINUOUS
 62
     7
 10
192.378445018302
 20
-23.8181617154896
 30
0.0
 11
192.728439671765
 21
-23.8181617154896
 31
0.0
  0
LINE
  5
   518
  8
0
  6
CONTINUOUS
 62
     7
 10
192.378439677726
 20
-30.8181615962803
 30
0.0
 11
192.728439671765
 21
-30.8181615962803
 31
0.0
  0
LINE
  5
   519
  8
0
  6
CONTINUOUS
 62
   210
 10
137.603433934818
 20
-39.4175919155311
 30
0.0
 11
152.303435019623
 21
-39.4175919155311
 31
0.0
  0
LINE
  5
   51A
  8
0
  6
CONTINUOUS
 62
   210
 10
137.603433934818
 20
-39.0354229614682
 30
0.0
 11
152.303435019623
 21
-39.0354229614682
 31
0.0
  0
LINE
  5
   51B
  8
0
  6
CONTINUOUS
 62
   210
 10
137.603433934818
 20
-19.1008682472407
 30
0.0
 11
152.303435019623
 21
-19.1008682472407
 31
0.0
  0
LINE
  5
   51C
  8
0
  6
CONTINUOUS
 62
   210
 10
137.603433934818
 20
-18.7187019634657
 30
0.0
 11
152.303435019623
 21
-18.7187019634657
 31
0.0
  0
CIRCLE
  5
   51D
  8
0
  6
CONTINUOUS
 62
     7
 10
187.653444403703
 20
-36.2431585521988
 30
0.0
 40
1.83750002924935
  0
LINE
  5
   51E
  8
0
  6
CONTINUOUS
 62
     1
 10
83.7034348527296
 20
-42.6306615648456
 30
0.0
 11
111.353392822417
 21
-42.6306615648456
 31
0.0
  0
LINE
  5
   51F
  8
0
  6
DASHDOT
 62
     2
 10
71.618410655275
 20
-22.2431457205835
 30
0.0
 11
197.773867106796
 21
-22.2431457205835
 31
0.0
  0
LINE
  5
   520
  8
0
  6
CONTINUOUS
 62
     7
 10
84.3158947879718
 20
20.4568482116617
 30
0.0
 11
181.090893139903
 21
20.4568482116617
 31
0.0
  0
LINE
  5
   521
  8
0
  6
CONTINUOUS
 62
     7
 10
84.2284025798329
 20
-75.093155671453
 30
0.0
 11
181.178400928784
 21
-75.093155671453
 31
0.0
  0
ARC
  5
   522
  8
0
  6
CONTINUOUS
 62
     7
 10
84.3158947879718
 20
20.0193482191123
 30
0.0
 40
0.437499992549419
 50
90.0
 51
180.0
  0
ARC
  5
   523
  8
0
  6
CONTINUOUS
 62
     7
 10
181.090893139903
 20
20.0193482191123
 30
0.0
 40
0.437499992549419
 50
0.0
 51
90.0
  0
ARC
  5
   524
  8
0
  6
CONTINUOUS
 62
     7
 10
181.178400928784
 20
-74.6556556789036
 30
0.0
 40
0.437499992549419
 50
270.0
 51
360.0
  0
ARC
  5
   525
  8
0
  6
CONTINUOUS
 62
     7
 10
84.2284025798329
 20
-74.6556556789036
 30
0.0
 40
0.437499992549419
 50
180.0
 51
270.0
  0
LINE
  5
   526
  8
0
  6
CONTINUOUS
 62
     1
 10
121.100901951898
 20
12.0568552852847
 30
0.0
 11
121.100901951898
 21
20.4568482116617
 31
0.0
  0
LINE
  5
   527
  8
0
  6
CONTINUOUS
 62
     1
 10
122.36090193044
 20
12.0568552852847
 30
0.0
 11
122.36090193044
 21
20.4568482116617
 31
0.0
  0
LINE
  5
   528
  8
0
  6
CONTINUOUS
 62
     1
 10
123.620901908983
 20
12.0568552852847
 30
0.0
 11
123.620901908983
 21
20.4568482116617
 31
0.0
  0
LINE
  5
   529
  8
0
  6
CONTINUOUS
 62
     1
 10
124.880901887525
 20
12.0568552852847
 30
0.0
 11
124.880901887525
 21
20.4568482116617
 31
0.0
  0
LINE
  5
   52A
  8
0
  6
CONTINUOUS
 62
     1
 10
126.140901866067
 20
12.0568552852847
 30
0.0
 11
126.140901866067
 21
20.4568482116617
 31
0.0
  0
LINE
  5
   52B
  8
0
  6
CONTINUOUS
 62
     1
 10
127.40090184461
 20
12.0568552852847
 30
0.0
 11
127.40090184461
 21
20.4568482116617
 31
0.0
  0
LINE
  5
   52C
  8
0
  6
CONTINUOUS
 62
     1
 10
128.660901823152
 20
12.0568552852847
 30
0.0
 11
128.660901823152
 21
20.4568482116617
 31
0.0
  0
LINE
  5
   52D
  8
0
  6
CONTINUOUS
 62
     1
 10
129.920901801694
 20
12.0568552852847
 30
0.0
 11
129.920901801694
 21
20.4568482116617
 31
0.0
  0
LINE
  5
   52E
  8
0
  6
CONTINUOUS
 62
     1
 10
131.180901780237
 20
12.0568552852847
 30
0.0
 11
131.180901780237
 21
20.4568482116617
 31
0.0
  0
LINE
  5
   52F
  8
0
  6
CONTINUOUS
 62
     1
 10
132.440901758779
 20
12.0568552852847
 30
0.0
 11
132.440901758779
 21
20.4568482116617
 31
0.0
  0
LINE
  5
   530
  8
0
  6
CONTINUOUS
 62
     1
 10
133.700901737321
 20
12.0568552852847
 30
0.0
 11
133.700901737321
 21
20.4568482116617
 31
0.0
  0
LINE
  5
   531
  8
0
  6
CONTINUOUS
 62
     1
 10
134.960901715864
 20
12.0568552852847
 30
0.0
 11
134.960901715864
 21
20.4568482116617
 31
0.0
  0
LINE
  5
   532
  8
0
  6
CONTINUOUS
 62
     1
 10
136.220901694406
 20
12.0568552852847
 30
0.0
 11
136.220901694406
 21
20.4568482116617
 31
0.0
  0
LINE
  5
   533
  8
0
  6
CONTINUOUS
 62
     1
 10
137.480901672948
 20
12.0568552852847
 30
0.0
 11
137.480901672948
 21
20.4568482116617
 31
0.0
  0
LINE
  5
   534
  8
0
  6
CONTINUOUS
 62
     1
 10
138.740901651491
 20
12.0568552852847
 30
0.0
 11
138.740901651491
 21
20.4568482116617
 31
0.0
  0
LINE
  5
   535
  8
0
  6
CONTINUOUS
 62
     1
 10
140.000901630033
 20
12.0568552852846
 30
0.0
 11
140.000901630033
 21
20.4568482116617
 31
0.0
  0
LINE
  5
   536
  8
0
  6
CONTINUOUS
 62
     1
 10
141.260901608575
 20
12.0568552852846
 30
0.0
 11
141.260901608575
 21
20.4568482116617
 31
0.0
  0
LINE
  5
   537
  8
0
  6
CONTINUOUS
 62
     1
 10
142.520901587118
 20
12.0568552852846
 30
0.0
 11
142.520901587118
 21
20.4568482116617
 31
0.0
  0
LINE
  5
   538
  8
0
  6
CONTINUOUS
 62
     1
 10
143.78090156566
 20
12.0568552852846
 30
0.0
 11
143.78090156566
 21
20.4568482116617
 31
0.0
  0
LINE
  5
   539
  8
0
  6
CONTINUOUS
 62
     1
 10
168.805885558744
 20
12.0568552852846
 30
0.0
 11
168.805885558744
 21
20.4568482116617
 31
0.0
  0
LINE
  5
   53A
  8
0
  6
CONTINUOUS
 62
     1
 10
167.545885580202
 20
12.0568552852846
 30
0.0
 11
167.545885580202
 21
20.4568482116617
 31
0.0
  0
LINE
  5
   53B
  8
0
  6
CONTINUOUS
 62
     1
 10
166.285885601659
 20
12.0568552852846
 30
0.0
 11
166.285885601659
 21
20.4568482116617
 31
0.0
  0
LINE
  5
   53C
  8
0
  6
CONTINUOUS
 62
     1
 10
165.025885623117
 20
12.0568552852846
 30
0.0
 11
165.025885623117
 21
20.4568482116617
 31
0.0
  0
LINE
  5
   53D
  8
0
  6
CONTINUOUS
 62
     1
 10
163.765885644575
 20
12.0568552852846
 30
0.0
 11
163.765885644575
 21
20.4568482116617
 31
0.0
  0
LINE
  5
   53E
  8
0
  6
CONTINUOUS
 62
     1
 10
162.505885666032
 20
12.0568552852846
 30
0.0
 11
162.505885666032
 21
20.4568482116617
 31
0.0
  0
LINE
  5
   53F
  8
0
  6
CONTINUOUS
 62
     1
 10
161.24588568749
 20
12.0568552852846
 30
0.0
 11
161.24588568749
 21
20.4568482116617
 31
0.0
  0
LINE
  5
   540
  8
0
  6
CONTINUOUS
 62
     1
 10
159.985885708948
 20
12.0568552852846
 30
0.0
 11
159.985885708948
 21
20.4568482116617
 31
0.0
  0
LINE
  5
   541
  8
0
  6
CONTINUOUS
 62
     1
 10
158.725885730405
 20
12.0568552852846
 30
0.0
 11
158.725885730405
 21
20.4568482116617
 31
0.0
  0
LINE
  5
   542
  8
0
  6
CONTINUOUS
 62
     1
 10
157.465885751863
 20
12.0568552852846
 30
0.0
 11
157.465885751863
 21
20.4568482116617
 31
0.0
  0
LINE
  5
   543
  8
0
  6
CONTINUOUS
 62
     1
 10
156.205885773321
 20
12.0568552852846
 30
0.0
 11
156.205885773321
 21
20.4568482116617
 31
0.0
  0
LINE
  5
   544
  8
0
  6
CONTINUOUS
 62
     1
 10
154.945885794779
 20
12.0568552852846
 30
0.0
 11
154.945885794779
 21
20.4568482116617
 31
0.0
  0
LINE
  5
   545
  8
0
  6
CONTINUOUS
 62
     1
 10
153.685885816236
 20
12.0568552852846
 30
0.0
 11
153.685885816236
 21
20.4568482116617
 31
0.0
  0
LINE
  5
   546
  8
0
  6
CONTINUOUS
 62
     1
 10
152.425885837694
 20
12.0568552852846
 30
0.0
 11
152.425885837694
 21
20.4568482116617
 31
0.0
  0
LINE
  5
   547
  8
0
  6
CONTINUOUS
 62
     1
 10
151.165885859152
 20
12.0568552852846
 30
0.0
 11
151.165885859152
 21
20.4568482116617
 31
0.0
  0
LINE
  5
   548
  8
0
  6
CONTINUOUS
 62
     1
 10
149.905885880609
 20
12.0568552852846
 30
0.0
 11
149.905885880609
 21
20.4568482116617
 31
0.0
  0
LINE
  5
   549
  8
0
  6
CONTINUOUS
 62
     1
 10
148.645885902067
 20
12.0568552852846
 30
0.0
 11
148.645885902067
 21
20.4568482116617
 31
0.0
  0
LINE
  5
   54A
  8
0
  6
CONTINUOUS
 62
     1
 10
147.385885923525
 20
12.0568552852846
 30
0.0
 11
147.385885923525
 21
20.4568482116617
 31
0.0
  0
LINE
  5
   54B
  8
0
  6
CONTINUOUS
 62
     1
 10
146.125885944982
 20
12.0568552852846
 30
0.0
 11
146.125885944982
 21
20.4568482116617
 31
0.0
  0
LINE
  5
   54C
  8
0
  6
CONTINUOUS
 62
     1
 10
121.100901951898
 20
-75.093155671453
 30
0.0
 11
121.100901951898
 21
-64.4181611953309
 31
0.0
  0
LINE
  5
   54D
  8
0
  6
CONTINUOUS
 62
     1
 10
122.36090193044
 20
-75.093155671453
 30
0.0
 11
122.36090193044
 21
-64.4181611953309
 31
0.0
  0
LINE
  5
   54E
  8
0
  6
CONTINUOUS
 62
     1
 10
123.620901908983
 20
-75.093155671453
 30
0.0
 11
123.620901908983
 21
-64.4181611953309
 31
0.0
  0
LINE
  5
   54F
  8
0
  6
CONTINUOUS
 62
     1
 10
124.880901887525
 20
-75.093155671453
 30
0.0
 11
124.880901887525
 21
-64.4181611953309
 31
0.0
  0
LINE
  5
   550
  8
0
  6
CONTINUOUS
 62
     1
 10
126.140901866067
 20
-75.093155671453
 30
0.0
 11
126.140901866067
 21
-64.4181611953309
 31
0.0
  0
LINE
  5
   551
  8
0
  6
CONTINUOUS
 62
     1
 10
127.40090184461
 20
-75.093155671453
 30
0.0
 11
127.40090184461
 21
-64.4181611953309
 31
0.0
  0
LINE
  5
   552
  8
0
  6
CONTINUOUS
 62
     1
 10
128.660901823152
 20
-75.093155671453
 30
0.0
 11
128.660901823152
 21
-64.4181611953309
 31
0.0
  0
LINE
  5
   553
  8
0
  6
CONTINUOUS
 62
     1
 10
129.920901801694
 20
-75.093155671453
 30
0.0
 11
129.920901801694
 21
-64.4181611953309
 31
0.0
  0
LINE
  5
   554
  8
0
  6
CONTINUOUS
 62
     1
 10
131.180901780237
 20
-75.093155671453
 30
0.0
 11
131.180901780237
 21
-64.4181611953309
 31
0.0
  0
LINE
  5
   555
  8
0
  6
CONTINUOUS
 62
     1
 10
132.440901758779
 20
-75.093155671453
 30
0.0
 11
132.440901758779
 21
-64.4181611953309
 31
0.0
  0
LINE
  5
   556
  8
0
  6
CONTINUOUS
 62
     1
 10
133.700901737321
 20
-75.093155671453
 30
0.0
 11
133.700901737321
 21
-64.4181611953309
 31
0.0
  0
LINE
  5
   557
  8
0
  6
CONTINUOUS
 62
     1
 10
134.960901715864
 20
-75.093155671453
 30
0.0
 11
134.960901715864
 21
-64.4181611953309
 31
0.0
  0
LINE
  5
   558
  8
0
  6
CONTINUOUS
 62
     1
 10
136.220901694406
 20
-75.093155671453
 30
0.0
 11
136.220901694406
 21
-64.4181611953309
 31
0.0
  0
LINE
  5
   559
  8
0
  6
CONTINUOUS
 62
     1
 10
137.480901672948
 20
-75.093155671453
 30
0.0
 11
137.480901672948
 21
-64.4181611953309
 31
0.0
  0
LINE
  5
   55A
  8
0
  6
CONTINUOUS
 62
     1
 10
138.740901651491
 20
-75.093155671453
 30
0.0
 11
138.740901651491
 21
-64.4181611953309
 31
0.0
  0
LINE
  5
   55B
  8
0
  6
CONTINUOUS
 62
     1
 10
140.000901630033
 20
-75.093155671453
 30
0.0
 11
140.000901630033
 21
-64.4181611953309
 31
0.0
  0
LINE
  5
   55C
  8
0
  6
CONTINUOUS
 62
     1
 10
141.260901608575
 20
-75.093155671453
 30
0.0
 11
141.260901608575
 21
-64.4181611953309
 31
0.0
  0
LINE
  5
   55D
  8
0
  6
CONTINUOUS
 62
     1
 10
142.520901587118
 20
-75.093155671453
 30
0.0
 11
142.520901587118
 21
-64.4181611953309
 31
0.0
  0
LINE
  5
   55E
  8
0
  6
CONTINUOUS
 62
     1
 10
143.78090156566
 20
-75.093155671453
 30
0.0
 11
143.78090156566
 21
-64.4181611953309
 31
0.0
  0
LINE
  5
   55F
  8
0
  6
CONTINUOUS
 62
     1
 10
168.805885558744
 20
-75.093155671453
 30
0.0
 11
168.805885558744
 21
-64.4181611953309
 31
0.0
  0
LINE
  5
   560
  8
0
  6
CONTINUOUS
 62
     1
 10
167.545885580202
 20
-75.093155671453
 30
0.0
 11
167.545885580202
 21
-64.4181611953309
 31
0.0
  0
LINE
  5
   561
  8
0
  6
CONTINUOUS
 62
     1
 10
166.285885601659
 20
-75.093155671453
 30
0.0
 11
166.285885601659
 21
-64.4181611953309
 31
0.0
  0
LINE
  5
   562
  8
0
  6
CONTINUOUS
 62
     1
 10
165.025885623117
 20
-75.093155671453
 30
0.0
 11
165.025885623117
 21
-64.4181611953309
 31
0.0
  0
LINE
  5
   563
  8
0
  6
CONTINUOUS
 62
     1
 10
163.765885644575
 20
-75.093155671453
 30
0.0
 11
163.765885644575
 21
-64.4181611953309
 31
0.0
  0
LINE
  5
   564
  8
0
  6
CONTINUOUS
 62
     1
 10
162.505885666032
 20
-75.093155671453
 30
0.0
 11
162.505885666032
 21
-64.4181611953309
 31
0.0
  0
LINE
  5
   565
  8
0
  6
CONTINUOUS
 62
     1
 10
161.24588568749
 20
-75.093155671453
 30
0.0
 11
161.24588568749
 21
-64.4181611953309
 31
0.0
  0
LINE
  5
   566
  8
0
  6
CONTINUOUS
 62
     1
 10
159.985885708948
 20
-75.093155671453
 30
0.0
 11
159.985885708948
 21
-64.4181611953309
 31
0.0
  0
LINE
  5
   567
  8
0
  6
CONTINUOUS
 62
     1
 10
158.725885730405
 20
-75.093155671453
 30
0.0
 11
158.725885730405
 21
-64.4181611953309
 31
0.0
  0
LINE
  5
   568
  8
0
  6
CONTINUOUS
 62
     1
 10
157.465885751863
 20
-75.093155671453
 30
0.0
 11
157.465885751863
 21
-64.4181611953309
 31
0.0
  0
LINE
  5
   569
  8
0
  6
CONTINUOUS
 62
     1
 10
156.205885773321
 20
-75.093155671453
 30
0.0
 11
156.205885773321
 21
-64.4181611953309
 31
0.0
  0
LINE
  5
   56A
  8
0
  6
CONTINUOUS
 62
     1
 10
154.945885794779
 20
-75.093155671453
 30
0.0
 11
154.945885794779
 21
-64.4181611953309
 31
0.0
  0
LINE
  5
   56B
  8
0
  6
CONTINUOUS
 62
     1
 10
153.685885816236
 20
-75.093155671453
 30
0.0
 11
153.685885816236
 21
-64.4181611953309
 31
0.0
  0
LINE
  5
   56C
  8
0
  6
CONTINUOUS
 62
     1
 10
152.425885837694
 20
-75.093155671453
 30
0.0
 11
152.425885837694
 21
-64.4181611953309
 31
0.0
  0
LINE
  5
   56D
  8
0
  6
CONTINUOUS
 62
     1
 10
151.165885859152
 20
-75.093155671453
 30
0.0
 11
151.165885859152
 21
-64.4181611953309
 31
0.0
  0
LINE
  5
   56E
  8
0
  6
CONTINUOUS
 62
     1
 10
149.905885880609
 20
-75.093155671453
 30
0.0
 11
149.905885880609
 21
-64.4181611953309
 31
0.0
  0
LINE
  5
   56F
  8
0
  6
CONTINUOUS
 62
     1
 10
148.645885902067
 20
-75.093155671453
 30
0.0
 11
148.645885902067
 21
-64.4181611953309
 31
0.0
  0
LINE
  5
   570
  8
0
  6
CONTINUOUS
 62
     1
 10
147.385885923525
 20
-75.093155671453
 30
0.0
 11
147.385885923525
 21
-64.4181611953309
 31
0.0
  0
LINE
  5
   571
  8
0
  6
CONTINUOUS
 62
     1
 10
146.125885944982
 20
-75.093155671453
 30
0.0
 11
146.125885944982
 21
-64.4181611953309
 31
0.0
  0
LINE
  5
   572
  8
0
  6
CONTINUOUS
 62
     1
 10
119.840901973356
 20
-75.093155671453
 30
0.0
 11
119.840901973356
 21
-56.5431455491804
 31
0.0
  0
LINE
  5
   573
  8
0
  6
CONTINUOUS
 62
     1
 10
118.580901994813
 20
-75.093155671453
 30
0.0
 11
118.580901994813
 21
-56.5431455491804
 31
0.0
  0
LINE
  5
   574
  8
0
  6
CONTINUOUS
 62
     1
 10
117.320902016271
 20
-75.093155671453
 30
0.0
 11
117.320902016271
 21
-56.5431455491804
 31
0.0
  0
LINE
  5
   575
  8
0
  6
CONTINUOUS
 62
     1
 10
116.060902037729
 20
-75.093155671453
 30
0.0
 11
116.060902037729
 21
-56.5431455491804
 31
0.0
  0
LINE
  5
   576
  8
0
  6
CONTINUOUS
 62
     1
 10
114.800902059186
 20
-75.093155671453
 30
0.0
 11
114.800902059186
 21
-56.5431455491804
 31
0.0
  0
LINE
  5
   577
  8
0
  6
CONTINUOUS
 62
     1
 10
113.540902080644
 20
-75.093155671453
 30
0.0
 11
113.540902080644
 21
-56.5431455491804
 31
0.0
  0
LINE
  5
   578
  8
0
  6
CONTINUOUS
 62
     1
 10
112.280902102102
 20
-75.093155671453
 30
0.0
 11
112.280902102102
 21
-56.5431455491804
 31
0.0
  0
LINE
  5
   579
  8
0
  6
CONTINUOUS
 62
     1
 10
111.020902123559
 20
-75.093155671453
 30
0.0
 11
111.020902123559
 21
-50.593156088669
 31
0.0
  0
LINE
  5
   57A
  8
0
  6
CONTINUOUS
 62
     1
 10
170.065885537286
 20
-75.093155671453
 30
0.0
 11
170.065885537286
 21
-56.5431455491804
 31
0.0
  0
LINE
  5
   57B
  8
0
  6
CONTINUOUS
 62
     1
 10
171.325885515829
 20
-75.093155671453
 30
0.0
 11
171.325885515829
 21
-56.5431455491804
 31
0.0
  0
LINE
  5
   57C
  8
0
  6
CONTINUOUS
 62
     1
 10
172.585885494371
 20
-75.093155671453
 30
0.0
 11
172.585885494371
 21
-56.5431455491804
 31
0.0
  0
LINE
  5
   57D
  8
0
  6
CONTINUOUS
 62
     1
 10
173.845885472913
 20
-75.093155671453
 30
0.0
 11
173.845885472913
 21
-56.5431455491804
 31
0.0
  0
LINE
  5
   57E
  8
0
  6
CONTINUOUS
 62
     1
 10
175.105885451456
 20
-75.093155671453
 30
0.0
 11
175.105885451456
 21
-56.5431455491804
 31
0.0
  0
LINE
  5
   57F
  8
0
  6
CONTINUOUS
 62
     1
 10
176.365885429998
 20
-75.093155671453
 30
0.0
 11
176.365885429998
 21
-56.5431455491804
 31
0.0
  0
LINE
  5
   580
  8
0
  6
CONTINUOUS
 62
     1
 10
177.62588540854
 20
-75.093155671453
 30
0.0
 11
177.62588540854
 21
-56.5431455491804
 31
0.0
  0
LINE
  5
   581
  8
0
  6
CONTINUOUS
 62
     1
 10
178.885885387083
 20
-75.093155671453
 30
0.0
 11
178.885885387083
 21
-56.5431455491804
 31
0.0
  0
LINE
  5
   582
  8
0
  6
CONTINUOUS
 62
     1
 10
180.145885365625
 20
-75.093155671453
 30
0.0
 11
180.145885365625
 21
-56.5431455491804
 31
0.0
  0
LINE
  5
   583
  8
0
  6
CONTINUOUS
 62
     1
 10
109.760901877988
 20
-75.093155671453
 30
0.0
 11
109.760901877988
 21
20.4568482116617
 31
0.0
  0
LINE
  5
   584
  8
0
  6
CONTINUOUS
 62
     1
 10
108.500901899446
 20
-75.093155671453
 30
0.0
 11
108.500901899446
 21
20.4568482116617
 31
0.0
  0
LINE
  5
   585
  8
0
  6
CONTINUOUS
 62
     1
 10
107.240901920904
 20
-75.093155671453
 30
0.0
 11
107.240901920904
 21
20.4568482116617
 31
0.0
  0
LINE
  5
   586
  8
0
  6
CONTINUOUS
 62
     1
 10
105.980901942361
 20
-75.093155671453
 30
0.0
 11
105.980901942361
 21
20.4568482116617
 31
0.0
  0
LINE
  5
   587
  8
0
  6
CONTINUOUS
 62
     1
 10
104.720901963819
 20
-75.093155671453
 30
0.0
 11
104.720901963819
 21
20.4568482116617
 31
0.0
  0
LINE
  5
   588
  8
0
  6
CONTINUOUS
 62
     1
 10
103.460901985277
 20
-75.093155671453
 30
0.0
 11
103.460901985277
 21
20.4568482116617
 31
0.0
  0
LINE
  5
   589
  8
0
  6
CONTINUOUS
 62
     1
 10
102.200902006734
 20
-75.093155671453
 30
0.0
 11
102.200902006734
 21
20.4568482116617
 31
0.0
  0
LINE
  5
   58A
  8
0
  6
CONTINUOUS
 62
     1
 10
100.940902028192
 20
-75.093155671453
 30
0.0
 11
100.940902028192
 21
20.4568482116617
 31
0.0
  0
LINE
  5
   58B
  8
0
  6
CONTINUOUS
 62
     1
 10
99.6809020496496
 20
-75.093155671453
 30
0.0
 11
99.6809020496496
 21
20.4568482116617
 31
0.0
  0
LINE
  5
   58C
  8
0
  6
CONTINUOUS
 62
     1
 10
98.4209020711073
 20
-75.093155671453
 30
0.0
 11
98.4209020711073
 21
20.4568482116617
 31
0.0
  0
LINE
  5
   58D
  8
0
  6
CONTINUOUS
 62
     1
 10
97.160902092565
 20
-75.093155671453
 30
0.0
 11
97.160902092565
 21
20.4568482116617
 31
0.0
  0
LINE
  5
   58E
  8
0
  6
CONTINUOUS
 62
     1
 10
95.9009021140226
 20
-75.093155671453
 30
0.0
 11
95.9009021140226
 21
20.4568482116617
 31
0.0
  0
LINE
  5
   58F
  8
0
  6
CONTINUOUS
 62
     1
 10
94.6409021354803
 20
-75.093155671453
 30
0.0
 11
94.6409021354803
 21
20.4568482116617
 31
0.0
  0
LINE
  5
   590
  8
0
  6
CONTINUOUS
 62
     1
 10
93.380902156938
 20
-75.093155671453
 30
0.0
 11
93.380902156938
 21
20.4568482116617
 31
0.0
  0
LINE
  5
   591
  8
0
  6
CONTINUOUS
 62
     1
 10
92.1209021783956
 20
-75.093155671453
 30
0.0
 11
92.1209021783956
 21
20.4568482116617
 31
0.0
  0
LINE
  5
   592
  8
0
  6
CONTINUOUS
 62
     1
 10
90.8609021998533
 20
-75.093155671453
 30
0.0
 11
90.8609021998533
 21
20.4568482116617
 31
0.0
  0
LINE
  5
   593
  8
0
  6
CONTINUOUS
 62
     1
 10
89.600902221311
 20
-75.093155671453
 30
0.0
 11
89.600902221311
 21
20.4568482116617
 31
0.0
  0
LINE
  5
   594
  8
0
  6
CONTINUOUS
 62
     1
 10
88.3409022427687
 20
-75.093155671453
 30
0.0
 11
88.3409022427687
 21
20.4568482116617
 31
0.0
  0
LINE
  5
   595
  8
0
  6
CONTINUOUS
 62
     1
 10
87.0809022642263
 20
-75.093155671453
 30
0.0
 11
87.0809022642263
 21
20.4568482116617
 31
0.0
  0
LINE
  5
   596
  8
0
  6
CONTINUOUS
 62
     1
 10
85.820902285684
 20
-75.093155671453
 30
0.0
 11
85.820902285684
 21
20.4568482116617
 31
0.0
  0
INSERT
  5
   597
  8
255
  6
CONTINUOUS
 62
     2
  2
$1MOSTRA
 10
144.953392250212
 20
-47.70563835639
 30
0.0
 41
0.349999994039536
 42
0.349999994039536
 50
359.999999792138
 43
0.349999994039536
  0
LINE
  5
   598
  8
0
  6
DOT
 62
     7
 10
181.615900921334
 20
-56.5431455491804
 30
0.0
 11
181.615900921334
 21
12.0568552852846
 31
0.0
  0
LINE
  5
   599
  8
0
  6
CONTINUOUS
 62
     7
 10
190.803391469391
 20
-0.3681460931125
 30
0.0
 11
192.028445024262
 21
-0.3681460931125
 31
0.0
  0
LINE
  5
   59A
  8
0
  6
CONTINUOUS
 62
     1
 10
190.803391469391
 20
-11.5681405618016
 30
0.0
 11
192.028445024262
 21
-11.5681405618016
 31
0.0
  0
LINE
  5
   59B
  8
0
  6
CONTINUOUS
 62
     1
 10
190.803391469391
 20
-22.0681499960521
 30
0.0
 11
192.378439677789
 21
-22.0681483938291
 31
0.0
  0
LINE
  5
   59C
  8
0
  6
CONTINUOUS
 62
     7
 10
190.803391469391
 20
-51.0306505709114
 30
0.0
 11
192.378445018302
 21
-51.0306505709114
 31
0.0
  0
LINE
  5
   59D
  8
0
  6
DASHDOT
 62
     7
 10
187.653444403703
 20
-39.1306585635668
 30
0.0
 11
187.653444403703
 21
-33.3556585408308
 31
0.0
  0
LINE
  5
   59E
  8
0
  6
DASHDOT
 62
     7
 10
184.765944392335
 20
-36.2431585521988
 30
0.0
 11
190.54094441507
 21
-36.2431585521988
 31
0.0
  0
TEXT
  5
   59F
  8
0
  6
CONTINUOUS
 62
     7
 10
76.7843811568654
 20
-39.1232579415155
 30
0.0
 40
2.99999997871263
  1
=          =
 50
90.0
 41
0.91666663951344
 72
     1
 11
75.2843811674887
 21
-22.8982585290134
 31
0.0
 73
     2
  0
TEXT
  5
   5A0
  8
0
  6
CONTINUOUS
 62
     7
 10
197.83077344923
 20
-23.5770724858393
 30
0.0
 40
2.99999997871263
  1
X
 41
0.91666663951344
 72
     1
 11
198.930773417086
 21
-22.077072496483
 31
0.0
 73
     2
  0
INSERT
  5
   5A1
  8
0
  6
CONTINUOUS
 62
     7
  2
*UDIM1507
 10
0.0
 20
0.0
 30
0.0
  0
INSERT
  5
   5A2
  8
0
  6
CONTINUOUS
 62
     7
  2
*UDIM1508
 10
0.0
 20
0.0
 30
0.0
  0
INSERT
  5
   5A3
  8
0
  6
CONTINUOUS
 62
     7
  2
*UDIM1509
 10
0.0
 20
0.0
 30
0.0
  0
INSERT
  5
   5A4
  8
0
  6
CONTINUOUS
 62
     7
  2
*UDIM1510
 10
0.0
 20
0.0
 30
0.0
  0
INSERT
  5
   5A5
  8
0
  6
CONTINUOUS
 62
     7
  2
*UDIM1511
 10
0.0
 20
0.0
 30
0.0
  0
INSERT
  5
   5A6
  8
0
  6
CONTINUOUS
 62
     7
  2
*UDIM1512
 10
0.0
 20
0.0
 30
0.0
  0
INSERT
  5
   5A7
  8
0
  6
CONTINUOUS
 62
     7
  2
*UDIM1513
 10
0.0
 20
0.0
 30
0.0
  0
INSERT
  5
   5A8
  8
0
  6
CONTINUOUS
 62
     7
  2
*UDIM1514
 10
0.0
 20
0.0
 30
0.0
  0
TEXT
  5
   5A9
  8
0
  6
CONTINUOUS
 62
     7
 10
144.483994757721
 20
54.9982950721569
 30
0.0
 40
2.99999997871263
  1
Y
 41
0.91666663951344
 72
     2
 11
146.683994693433
 21
54.9982950721569
 31
0.0
  0
TEXT
  5
   5AA
  8
0
  6
CONTINUOUS
 62
     7
 10
128.644926256554
 20
29.9367232333279
 30
0.0
 40
2.99999997871263
  1
=          =
 41
0.91666663951344
 72
     2
 11
161.094925081562
 21
29.9367232333279
 31
0.0
  0
INSERT
  5
   5AB
  8
0
  6
CONTINUOUS
 62
     7
  2
*UDIM1515
 10
0.0
 20
0.0
 30
0.0
  0
INSERT
  5
   5AC
  8
0
  6
CONTINUOUS
 62
     7
  2
*UDIM1516
 10
0.0
 20
0.0
 30
0.0
  0
INSERT
  5
   5AD
  8
0
  6
CONTINUOUS
 62
     7
  2
*UDIM1517
 10
0.0
 20
0.0
 30
0.0
  0
TEXT
  5
   5AE
  8
0
  6
CONTINUOUS
 62
     7
 10
145.073073650888
 20
-95.9572030378927
 30
0.0
 40
2.99999997871263
  1
Y
 41
0.91666663951344
 72
     2
 11
147.2730735866
 21
-95.9572030378927
 31
0.0
  0
TEXT
  5
   5AF
  8
0
  6
CONTINUOUS
 62
     1
 10
188.05602613661
 20
-193.700965879868
 30
0.0
 40
2.00000003448554
  1
M4504 98-11-17
 50
359.999999896069
 41
0.749999888539317
 72
     1
 11
198.406024780273
 21
-192.700965881348
 31
0.0
 73
     2
  0
TEXT
  5
   5B0
  8
0
  6
CONTINUOUS
 62
     1
 10
123.989456174949
 20
-186.621772785947
 30
0.0
 40
2.00000003448554
  1
SCARPELLINI
 50
359.999999896069
 41
0.749999888539317
 72
     2
 11
140.18945404983
 21
-186.621772815251
 31
0.0
  0
INSERT
  5
   5B1
  8
255
  6
CONTINUOUS
 62
     7
  2
BASETT_1
 10
80.0122999871858
 20
-143.30986019969
 30
0.0
 41
0.349999994039536
 42
0.349999994039536
 50
7.01670929448346E-15
 43
0.349999994039536
  0
LINE
  5
   5B2
  8
0
  6
DOT
 62
     7
 10
85.2622998977789
 20
-112.191912436336
 30
0.0
 11
85.2622998977789
 21
-127.941912168115
 31
0.0
  0
LINE
  5
   5B3
  8
0
  6
DOT
 62
     7
 10
99.2622996593603
 20
-112.191912436336
 30
0.0
 11
99.2622996593603
 21
-127.941912168115
 31
0.0
  0
LINE
  5
   5B4
  8
0
  6
DOT
 62
     7
 10
109.762299480546
 20
-112.191912436336
 30
0.0
 11
109.762299480546
 21
-127.941912168115
 31
0.0
  0
LINE
  5
   5B5
  8
0
  6
DOT
 62
     7
 10
123.762299242128
 20
-112.191912436336
 30
0.0
 11
123.762299242128
 21
-127.941912168115
 31
0.0
  0
LINE
  5
   5B6
  8
0
  6
DOT
 62
     7
 10
134.262299063314
 20
-112.191912436336
 30
0.0
 11
134.262299063314
 21
-127.941912168115
 31
0.0
  0
LINE
  5
   5B7
  8
0
  6
DOT
 62
     7
 10
148.262298824895
 20
-112.191912436336
 30
0.0
 11
148.262298824895
 21
-127.941912168115
 31
0.0
  0
LINE
  5
   5B8
  8
0
  6
DOT
 62
     7
 10
158.762298646081
 20
-112.191912436336
 30
0.0
 11
158.762298646081
 21
-127.941912168115
 31
0.0
  0
LINE
  5
   5B9
  8
0
  6
DOT
 62
     7
 10
172.762298407663
 20
-112.191912436336
 30
0.0
 11
172.762298407663
 21
-127.941912168115
 31
0.0
  0
LINE
  5
   5BA
  8
0
  6
DOT
 62
     7
 10
172.762298407663
 20
-112.191912436336
 30
0.0
 11
167.51229849707
 21
-112.191912436336
 31
0.0
  0
LINE
  5
   5BB
  8
0
  6
DOT
 62
     7
 10
164.012298556674
 20
-112.191912436336
 30
0.0
 11
158.762298646081
 21
-112.191912436336
 31
0.0
  0
LINE
  5
   5BC
  8
0
  6
DOT
 62
     7
 10
148.262298824895
 20
-112.191912436336
 30
0.0
 11
143.012298914302
 21
-112.191912436336
 31
0.0
  0
LINE
  5
   5BD
  8
0
  6
DOT
 62
     7
 10
139.512298973907
 20
-112.191912436336
 30
0.0
 11
134.262299063314
 21
-112.191912436336
 31
0.0
  0
LINE
  5
   5BE
  8
0
  6
DOT
 62
     7
 10
123.762299242128
 20
-112.191912436336
 30
0.0
 11
118.512299331535
 21
-112.191912436336
 31
0.0
  0
LINE
  5
   5BF
  8
0
  6
DOT
 62
     7
 10
115.012299391139
 20
-112.191912436336
 30
0.0
 11
109.762299480546
 21
-112.191912436336
 31
0.0
  0
LINE
  5
   5C0
  8
0
  6
DOT
 62
     7
 10
99.2622996593603
 20
-112.191912436336
 30
0.0
 11
94.0122997487673
 21
-112.191912436336
 31
0.0
  0
LINE
  5
   5C1
  8
0
  6
DOT
 62
     7
 10
90.5122998083719
 20
-112.191912436336
 30
0.0
 11
85.2622998977789
 21
-112.191912436336
 31
0.0
  0
TEXT
  5
   5C2
  8
0
  6
CONTINUOUS
 62
     1
 10
162.525810072156
 20
-193.454299925278
 30
0.0
 40
2.00000003448554
  1
M4371 97-07-07
 50
359.999999896069
 41
0.749999888539317
 72
     1
 11
172.87580871582
 21
-192.454299926758
 31
0.0
 73
     2
  0
TEXT
  5
   5C3
  8
0
  6
CONTINUOUS
 62
     1
 10
136.785813368229
 20
-193.454300583073
 30
0.0
 40
2.00000003448554
  1
M 3076 95-01-16
 50
359.999999896069
 41
0.749999888539317
 72
     1
 11
147.885811913365
 21
-192.45430058591
 31
0.0
 73
     2
  0
INSERT
  5
   5C4
  8
0
  6
CONTINUOUS
 62
     7
  2
*UDIM1518
 10
0.0
 20
0.0
 30
0.0
  0
INSERT
  5
   5C5
  8
0
  6
CONTINUOUS
 62
     7
  2
*UDIM1519
 10
0.0
 20
0.0
 30
0.0
  0
INSERT
  5
   5C6
  8
0
  6
CONTINUOUS
 62
     7
  2
*UDIM1520
 10
0.0
 20
0.0
 30
0.0
  0
INSERT
  5
   5C7
  8
0
  6
CONTINUOUS
 62
     7
  2
*UDIM1521
 10
0.0
 20
0.0
 30
0.0
  0
TEXT
  5
   5C8
  8
0
  6
CONTINUOUS
 62
     1
 10
231.973710236725
 20
-204.689864141059
 30
0.0
 40
4.00000006897109
  1
601840/191
 50
359.999999896069
 41
0.937499981746078
 72
     2
 11
268.72371014024
 21
-204.689864207537
 31
0.0
  0
TEXT
  5
   5C9
  8
0
  6
CONTINUOUS
 62
     1
 10
233.059406630273
 20
-195.708282324389
 30
0.0
 40
2.99999997871263
  1
     S6
 50
359.999999896069
 41
0.91666663951344
 72
     2
 11
251.759405960146
 21
-195.708282358216
 31
0.0
  0
TEXT
  5
   5CA
  8
0
  6
CONTINUOUS
 62
     1
 10
221.524977191286
 20
-177.398010362614
 30
0.0
 40
2.00000003448554
  1
4POLE LOW VOLTAGE M.C.C.B SERIES ISOMAX
 50
359.999999896069
 41
0.749999888539317
 72
     1
 11
250.624973371735
 21
-176.398010398011
 31
0.0
 73
     2
  0
TEXT
  5
   5CB
  8
0
  6
CONTINUOUS
 62
     1
 10
223.7749768957
 20
-180.398010366684
 30
0.0
 40
2.00000003448554
  1
WITHDRAWABLE VERSION REAR TERMINALS.
 50
359.999999896069
 41
0.749999888539317
 72
     1
 11
250.624973371735
 21
-179.398010398011
 31
0.0
 73
     2
  0
TEXT
  5
   5CC
  8
0
  6
CONTINUOUS
 62
     1
 10
224.727370468948
 20
-185.468277723961
 30
0.0
 40
2.00000003448554
  1
INTERR.AUTOMATICO SERIE ISOMAX
 50
359.999999896069
 41
0.749999888539317
 72
     1
 11
247.077367536154
 21
-184.468277747147
 31
0.0
 73
     2
  0
TEXT
  5
   5CD
  8
0
  6
CONTINUOUS
 62
     1
 10
212.727372045406
 20
-188.468277702254
 30
0.0
 40
2.00000003448554
  1
TETRAP.ESECUZIONE ESTRAIBILE TERMIN.POSTERIORI
 50
359.999999896069
 41
0.749999888539317
 72
     1
 11
247.077367536154
 21
-187.468277747147
 31
0.0
 73
     2
  0
TEXT
  5
   5CE
  8
0
  6
CONTINUOUS
 62
     1
 10
123.989456191417
 20
-178.155022613187
 30
0.0
 40
2.00000003448554
  1
93-04-05 FERRARI M.
 50
359.999999896069
 41
0.749999888539317
 72
     2
 11
152.18945248984
 21
-178.155022664199
 31
0.0
  0
LINE
  5
   5CF
  8
0
  6
DASHDOT
 62
     2
 10
235.735153198242
 20
40.8895341572956
 30
0.0
 11
235.735153198242
 21
-19.8593724318583
 31
0.0
  0
LINE
  5
   5D0
  8
0
  6
DASHDOT
 62
     2
 10
205.929128507706
 20
9.81183624267578
 30
0.0
 11
276.942621190886
 21
9.81183624267578
 31
0.0
  0
LINE
  5
   5D1
  8
0
  6
CONTINUOUS
 62
     7
 10
213.360153198242
 20
29.9368362426758
 30
0.0
 11
255.860153198242
 21
29.9368362426758
 31
0.0
  0
LINE
  5
   5D2
  8
0
  6
CONTINUOUS
 62
     7
 10
213.360153198242
 20
-10.3131637573242
 30
0.0
 11
255.860153198242
 21
-10.3131637573242
 31
0.0
  0
CIRCLE
  5
   5D3
  8
0
  6
CONTINUOUS
 62
     7
 10
260.985153198242
 20
9.81183624267578
 30
0.0
 40
1.0
  0
CIRCLE
  5
   5D4
  8
0
  6
CONTINUOUS
 62
     7
 10
240.672653198242
 20
31.9368362426758
 30
0.0
 40
1.0
  0
CIRCLE
  5
   5D5
  8
0
  6
CONTINUOUS
 62
     7
 10
220.360153198242
 20
31.9368362426758
 30
0.0
 40
0.875
  0
CIRCLE
  5
   5D6
  8
0
  6
CONTINUOUS
 62
     7
 10
260.985153198242
 20
-12.3131637573242
 30
0.0
 40
0.875
  0
CIRCLE
  5
   5D7
  8
0
  6
CONTINUOUS
 62
     7
 10
240.672653198242
 20
-12.3131637573242
 30
0.0
 40
1.0
  0
CIRCLE
  5
   5D8
  8
0
  6
CONTINUOUS
 62
     7
 10
220.360153198242
 20
-12.3131637573242
 30
0.0
 40
1.0
  0
CIRCLE
  5
   5D9
  8
0
  6
CONTINUOUS
 62
     7
 10
260.985153198242
 20
31.9368362426758
 30
0.0
 40
1.0
  0
LINE
  5
   5DA
  8
0
  6
DASHDOT
 62
     7
 10
260.985153198242
 20
33.5618362426758
 30
0.0
 11
260.985153198242
 21
11.2362854412205
 31
0.0
  0
LINE
  5
   5DB
  8
0
  6
DASHDOT
 62
     7
 10
259.360153198242
 20
31.9368362426758
 30
0.0
 11
262.610153198242
 21
31.9368362426758
 31
0.0
  0
LINE
  5
   5DC
  8
0
  6
DASHDOT
 62
     7
 10
240.672653198242
 20
40.9582885887364
 30
0.0
 11
240.672653198242
 21
30.3118362426758
 31
0.0
  0
LINE
  5
   5DD
  8
0
  6
DASHDOT
 62
     7
 10
239.047653198242
 20
31.9368362426758
 30
0.0
 11
242.297653198242
 21
31.9368362426758
 31
0.0
  0
LINE
  5
   5DE
  8
0
  6
DASHDOT
 62
     7
 10
220.360153198242
 20
33.5618362426758
 30
0.0
 11
220.360153198242
 21
30.3118362426758
 31
0.0
  0
LINE
  5
   5DF
  8
0
  6
DASHDOT
 62
     7
 10
218.735153198242
 20
31.9368362426758
 30
0.0
 11
221.985153198242
 21
31.9368362426758
 31
0.0
  0
LINE
  5
   5E0
  8
0
  6
DASHDOT
 62
     7
 10
240.672653198242
 20
-10.6881637573242
 30
0.0
 11
240.672653198242
 21
-13.9381637573242
 31
0.0
  0
LINE
  5
   5E1
  8
0
  6
DASHDOT
 62
     7
 10
239.047653198242
 20
-12.3131637573242
 30
0.0
 11
242.297653198242
 21
-12.3131637573242
 31
0.0
  0
LINE
  5
   5E2
  8
0
  6
DASHDOT
 62
     7
 10
260.985153198242
 20
-10.6881637573242
 30
0.0
 11
260.985153198242
 21
-13.9381637573242
 31
0.0
  0
LINE
  5
   5E3
  8
0
  6
DASHDOT
 62
     7
 10
259.360153198242
 20
-12.3131637573242
 30
0.0
 11
262.610153198242
 21
-12.3131637573242
 31
0.0
  0
LINE
  5
   5E4
  8
0
  6
DASHDOT
 62
     7
 10
220.360153198242
 20
-10.6881637573242
 30
0.0
 11
220.360153198242
 21
-13.9381637573242
 31
0.0
  0
LINE
  5
   5E5
  8
0
  6
DASHDOT
 62
     7
 10
218.735153198242
 20
-12.3131637573242
 30
0.0
 11
221.985153198242
 21
-12.3131637573242
 31
0.0
  0
LINE
  5
   5E6
  8
0
  6
DASHDOT
 62
     7
 10
260.985153198242
 20
11.4368362426758
 30
0.0
 11
260.985153198242
 21
-10.4669407118345
 31
0.0
  0
ARC
  5
   5E7
  8
0
  6
CONTINUOUS
 62
     7
 10
265.985153198242
 20
5.56183624267578
 30
0.0
 40
2.0
 50
359.999999844103
 51
539.999999844103
  0
ARC
  5
   5E8
  8
0
  6
CONTINUOUS
 62
     7
 10
265.985153198242
 20
-0.188163757324219
 30
0.0
 40
2.0
 50
539.999999844103
 51
719.999999844103
  0
LINE
  5
   5E9
  8
0
  6
CONTINUOUS
 62
     7
 10
267.985153198242
 20
5.56183624267578
 30
0.0
 11
267.985153198242
 21
-0.188163757324219
 31
0.0
  0
LINE
  5
   5EA
  8
0
  6
CONTINUOUS
 62
     7
 10
263.985153198242
 20
5.56183624267578
 30
0.0
 11
263.985153198242
 21
-0.188163757324219
 31
0.0
  0
LINE
  5
   5EB
  8
0
  6
DASHDOT
 62
     7
 10
265.985153198242
 20
8.31183624267578
 30
0.0
 11
265.985153198242
 21
2.81183624267578
 31
0.0
  0
LINE
  5
   5EC
  8
0
  6
DASHDOT
 62
     7
 10
263.235153198242
 20
5.56183624267578
 30
0.0
 11
268.735153198242
 21
5.56183624267578
 31
0.0
  0
LINE
  5
   5ED
  8
0
  6
DASHDOT
 62
     7
 10
265.985153198242
 20
2.56183624267578
 30
0.0
 11
265.985153198242
 21
-2.93816375732422
 31
0.0
  0
LINE
  5
   5EE
  8
0
  6
DASHDOT
 62
     7
 10
263.235153198242
 20
-0.188163757324219
 30
0.0
 11
268.735153198242
 21
-0.188163757324219
 31
0.0
  0
POINT
  5
   5EF
  8
0
  6
CONTINUOUS
 62
     7
 10
265.985153198242
 20
7.56183624267578
 30
0.0
  0
POINT
  5
   5F0
  8
0
  6
CONTINUOUS
 62
     7
 10
265.985153198242
 20
-2.18816375732422
 30
0.0
  0
CIRCLE
  5
   5F1
  8
0
  6
CONTINUOUS
 62
     7
 10
246.297653198242
 20
32.3118362426758
 30
0.0
 40
0.5
  0
CIRCLE
  5
   5F2
  8
0
  6
CONTINUOUS
 62
     7
 10
235.047653198242
 20
32.3118362426758
 30
0.0
 40
0.5
  0
CIRCLE
  5
   5F3
  8
0
  6
CONTINUOUS
 62
     7
 10
235.047653198242
 20
32.3118362426758
 30
0.0
 40
0.92
  0
CIRCLE
  5
   5F4
  8
0
  6
CONTINUOUS
 62
     7
 10
246.297653198242
 20
32.3118362426758
 30
0.0
 40
0.92
  0
LINE
  5
   5F5
  8
0
  6
DASHDOT
 62
     7
 10
246.297653198242
 20
33.9818362426758
 30
0.0
 11
246.297653198242
 21
30.6418362426758
 31
0.0
  0
LINE
  5
   5F6
  8
0
  6
DASHDOT
 62
     7
 10
244.627653198242
 20
32.3118362426758
 30
0.0
 11
247.967653198242
 21
32.3118362426758
 31
0.0
  0
LINE
  5
   5F7
  8
0
  6
DASHDOT
 62
     7
 10
235.047653198242
 20
33.9818362426758
 30
0.0
 11
235.047653198242
 21
30.6418362426758
 31
0.0
  0
LINE
  5
   5F8
  8
0
  6
DASHDOT
 62
     7
 10
233.377653198242
 20
32.3118362426758
 30
0.0
 11
236.717653198242
 21
32.3118362426758
 31
0.0
  0
LINE
  5
   5F9
  8
0
  6
CONTINUOUS
 62
     7
 10
210.725977564719
 20
36.4281290902843
 30
0.0
 11
272.279949729874
 21
36.4281290902843
 31
0.0
  0
LINE
  5
   5FA
  8
0
  6
CONTINUOUS
 62
     7
 10
210.725977564719
 20
-15.4315117638471
 30
0.0
 11
272.279949729874
 21
-15.4315117638471
 31
0.0
  0
LINE
  5
   5FB
  8
0
  6
CONTINUOUS
 62
     7
 10
210.725977564719
 20
36.4281290902843
 30
0.0
 11
210.725977564719
 21
-15.4315117638471
 31
0.0
  0
LINE
  5
   5FC
  8
0
  6
CONTINUOUS
 62
     7
 10
272.279949729874
 20
36.4281290902843
 30
0.0
 11
272.279949729874
 21
-15.4315117638471
 31
0.0
  0
LINE
  5
   5FD
  8
0
  6
CONTINUOUS
 62
     7
 10
255.860153198242
 20
29.9368362426758
 30
0.0
 11
255.860153198242
 21
-10.3131637573242
 31
0.0
  0
LINE
  5
   5FE
  8
0
  6
CONTINUOUS
 62
     7
 10
213.360153198242
 20
29.9368362426758
 30
0.0
 11
213.360153198242
 21
-10.3131637573242
 31
0.0
  0
LINE
  5
   5FF
  8
0
  6
CONTINUOUS
 62
     7
 10
278.101576798425
 20
29.5752262749749
 30
0.0
 11
278.101576798425
 21
20.5494362154089
 31
0.0
  0
LINE
  5
   600
  8
0
  6
CONTINUOUS
 62
     7
 10
274.285795635031
 20
29.5752262749749
 30
0.0
 11
274.285795635031
 21
20.5494362154089
 31
0.0
  0
LINE
  5
   601
  8
0
  6
CONTINUOUS
 62
     7
 10
274.285795635031
 20
29.5752262749749
 30
0.0
 11
278.101576798425
 21
29.5752262749749
 31
0.0
  0
LINE
  5
   602
  8
0
  6
CONTINUOUS
 62
     7
 10
274.285795635031
 20
20.5494362154089
 30
0.0
 11
278.101576798425
 21
20.5494362154089
 31
0.0
  0
LINE
  5
   603
  8
0
  6
CONTINUOUS
 62
     7
 10
274.285795635031
 20
-9.95155378962332
 30
0.0
 11
278.101576798425
 21
-9.95155378962332
 31
0.0
  0
LINE
  5
   604
  8
0
  6
CONTINUOUS
 62
     7
 10
274.285795635031
 20
-0.925763730057369
 30
0.0
 11
278.101576798425
 21
-0.925763730057369
 31
0.0
  0
LINE
  5
   605
  8
0
  6
CONTINUOUS
 62
     7
 10
278.101576798425
 20
-0.925763730057369
 30
0.0
 11
278.101576798425
 21
-9.95155378962332
 31
0.0
  0
LINE
  5
   606
  8
0
  6
CONTINUOUS
 62
     7
 10
274.285795635031
 20
-0.925763730057369
 30
0.0
 11
274.285795635031
 21
-9.95155378962332
 31
0.0
  0
LINE
  5
   607
  8
0
  6
DASHDOT
 62
     2
 10
276.193686216728
 20
35.2988980200655
 30
0.0
 11
276.193686216728
 21
-44.6857455972262
 31
0.0
  0
LINE
  5
   608
  8
0
  6
CONTINUOUS
 62
     2
 10
214.986207953114
 20
58.8426083706117
 30
0.0
 11
233.257478825372
 21
33.776424574466
 31
0.0
  0
LINE
  5
   609
  8
0
  6
CONTINUOUS
 62
     2
 10
193.659876554656
 20
58.8426083706116
 30
0.0
 11
214.986207953114
 21
58.8426083706116
 31
0.0
  0
LINE
  5
   60A
  8
0
  6
CONTINUOUS
 62
     7
 10
230.470204169022
 20
36.0263474983035
 30
0.0
 11
233.257478825372
 21
33.776424574466
 31
0.0
  0
LINE
  5
   60B
  8
0
  6
CONTINUOUS
 62
     7
 10
232.014130215139
 20
37.0004642233514
 30
0.0
 11
233.257478825372
 21
33.776424574466
 31
0.0
  0
INSERT
  5
   60C
  8
0
  6
CONTINUOUS
 62
     7
  2
*UDIM1522
 10
0.0
 20
0.0
 30
0.0
  0
INSERT
  5
   60D
  8
0
  6
CONTINUOUS
 62
     7
  2
*UDIM1523
 10
0.0
 20
0.0
 30
0.0
  0
INSERT
  5
   60E
  8
0
  6
CONTINUOUS
 62
     7
  2
*UDIM1524
 10
0.0
 20
0.0
 30
0.0
  0
TEXT
  5
   60F
  8
0
  6
CONTINUOUS
 62
     7
 10
194.727533007065
 20
59.9895133956885
 30
0.0
 40
3.00000002980232
  1
PART. Z
 50
359.999999844103
 41
0.916666689183977
 72
     1
 11
204.077533334494
 21
61.4895133851962
 31
0.0
 73
     2
  0
INSERT
  5
   610
  8
0
  6
CONTINUOUS
 62
     7
  2
*UDIM1525
 10
0.0
 20
0.0
 30
0.0
  0
TEXT
  5
   611
  8
0
  6
CONTINUOUS
 62
     7
 10
194.675396074749
 20
8.53694682360203
 30
0.0
 40
3.00000002980232
  1
X
 50
359.999999844103
 41
0.916666604744064
 72
     2
 11
196.875395943619
 21
8.53694681762708
 31
0.0
  0
TEXT
  5
   612
  8
0
  6
CONTINUOUS
 62
     7
 10
292.16516887138
 20
8.35826318502933
 30
0.0
 40
3.00000002980232
  1
X
 50
359.999999844103
 41
0.916666604744064
 72
     2
 11
294.36516874025
 21
8.35826317905439
 31
0.0
  0
TEXT
  5
   613
  8
0
  6
CONTINUOUS
 62
     7
 10
234.235944857098
 20
56.7100447917035
 30
0.0
 40
3.00000002980232
  1
Y
 50
359.999999844103
 41
0.916666604744064
 72
     2
 11
236.435944725968
 21
56.7100447857286
 31
0.0
  0
TEXT
  5
   614
  8
0
  6
CONTINUOUS
 62
     7
 10
234.772211899258
 20
-53.931678841109
 30
0.0
 40
3.00000002980232
  1
Y
 50
359.999999844103
 41
0.916666604744064
 72
     2
 11
236.972211768128
 21
-53.9316788470839
 31
0.0
  0
TEXT
  5
   615
  8
0
  6
CONTINUOUS
 62
     7
 10
209.182775072759
 20
5.3977695471918
 30
0.0
 40
2.50000005960464
  1
=  =
 50
449.999999844103
 41
0.899999932169916
 72
     2
 11
209.182775095969
 21
13.9477690921103
 31
0.0
  0
INSERT
  5
   616
  8
0
  6
CONTINUOUS
 62
     7
  2
*UDIM1526
 10
0.0
 20
0.0
 30
0.0
  0
INSERT
  5
   617
  8
0
  6
CONTINUOUS
 62
     7
  2
*UDIM1527
 10
0.0
 20
0.0
 30
0.0
  0
INSERT
  5
   618
  8
0
  6
CONTINUOUS
 62
     7
  2
*UDIM1528
 10
0.0
 20
0.0
 30
0.0
  0
INSERT
  5
   619
  8
0
  6
CONTINUOUS
 62
     7
  2
*UDIM1529
 10
0.0
 20
0.0
 30
0.0
  0
INSERT
  5
   61A
  8
0
  6
CONTINUOUS
 62
     7
  2
*UDIM1530
 10
0.0
 20
0.0
 30
0.0
  0
INSERT
  5
   61B
  8
0
  6
CONTINUOUS
 62
     7
  2
*UDIM1531
 10
0.0
 20
0.0
 30
0.0
  0
INSERT
  5
   61C
  8
0
  6
CONTINUOUS
 62
     7
  2
*UDIM1532
 10
0.0
 20
0.0
 30
0.0
  0
INSERT
  5
   61D
  8
0
  6
CONTINUOUS
 62
     7
  2
*UDIM1533
 10
0.0
 20
0.0
 30
0.0
  0
INSERT
  5
   61E
  8
0
  6
CONTINUOUS
 62
     7
  2
*UDIM1534
 10
0.0
 20
0.0
 30
0.0
  0
INSERT
  5
   61F
  8
0
  6
CONTINUOUS
 62
     7
  2
*UDIM1535
 10
0.0
 20
0.0
 30
0.0
  0
INSERT
  5
   620
  8
0
  6
CONTINUOUS
 62
     7
  2
*UDIM1536
 10
0.0
 20
0.0
 30
0.0
  0
INSERT
  5
   621
  8
0
  6
CONTINUOUS
 62
     7
  2
*UDIM1537
 10
0.0
 20
0.0
 30
0.0
  0
INSERT
  5
   622
  8
0
  6
CONTINUOUS
 62
     7
  2
*UDIM1538
 10
0.0
 20
0.0
 30
0.0
  0
INSERT
  5
   623
  8
0
  6
CONTINUOUS
 62
     7
  2
*UDIM1539
 10
0.0
 20
0.0
 30
0.0
  0
TEXT
  5
   624
  8
0
  6
CONTINUOUS
 62
     7
 10
236.527021817049
 20
37.9840047794393
 30
0.0
 40
2.50000005960464
  1
=  =
 50
359.999999844103
 41
0.899999932169916
 72
     2
 11
245.077021361968
 21
37.9840047562185
 31
0.0
  0
INSERT
  5
   625
  8
0
  6
CONTINUOUS
 62
     7
  2
*UDIM1540
 10
0.0
 20
0.0
 30
0.0
  0
LINE
  5
   626
  8
0
  6
CONTINUOUS
 62
     7
 10
51.7607917785645
 20
-149.060339720766
 30
0.0
 11
51.7607917785645
 21
-172.976861206969
 31
0.0
  0
LINE
  5
   627
  8
0
  6
CONTINUOUS
 62
     7
 10
49.7607917785645
 20
-149.060339720766
 30
0.0
 11
49.7607917785645
 21
-172.976861206969
 31
0.0
  0
LINE
  5
   628
  8
0
  6
DASHDOT
 62
     7
 10
46.5581886761675
 20
-161.018600463867
 30
0.0
 11
54.9844078686048
 21
-161.018600463867
 31
0.0
  0
POINT
  5
   629
  8
0
  6
CONTINUOUS
 62
     7
 10
49.7607917785645
 20
-159.018600463867
 30
0.0
  0
POINT
  5
   62A
  8
0
  6
CONTINUOUS
 62
     7
 10
49.7607917785645
 20
-163.018600463867
 30
0.0
  0
LINE
  5
   62B
  8
0
  6
CONTINUOUS
 62
     7
 10
51.7607917785645
 20
-157.340401201513
 30
0.0
 11
49.7607917785645
 21
-159.018600463867
 31
0.0
  0
LINE
  5
   62C
  8
0
  6
CONTINUOUS
 62
     7
 10
49.7607917785645
 20
-163.018600463867
 30
0.0
 11
51.7607917785645
 21
-164.696799726222
 31
0.0
  0
LINE
  5
   62D
  8
0
  6
CONTINUOUS
 62
     7
 10
49.7607917785645
 20
-170.518600463867
 30
0.0
 11
51.7607917785645
 21
-170.518600463867
 31
0.0
  0
CIRCLE
  5
   62E
  8
0
  6
CONTINUOUS
 62
     7
 10
50.7607917785645
 20
-161.018600463867
 30
0.0
 40
12.0
  0
LINE
  5
   62F
  8
0
  6
CONTINUOUS
 62
     7
 10
43.760799407959
 20
-165.518600463867
 30
0.0
 11
46.260799407959
 21
-165.518600463867
 31
0.0
  0
LINE
  5
   630
  8
0
  6
CONTINUOUS
 62
     7
 10
47.260799407959
 20
-156.518600463867
 30
0.0
 11
47.260799407959
 21
-164.518600463867
 31
0.0
  0
LINE
  5
   631
  8
0
  6
CONTINUOUS
 62
     7
 10
47.260799407959
 20
-156.518600463867
 30
0.0
 11
49.7607917785644
 21
-156.518600463867
 31
0.0
  0
LINE
  5
   632
  8
0
  6
CONTINUOUS
 62
     7
 10
43.760799407959
 20
-168.018600463867
 30
0.0
 11
46.260799407959
 21
-168.018600463867
 31
0.0
  0
LINE
  5
   633
  8
0
  6
CONTINUOUS
 62
     7
 10
42.760799407959
 20
-169.018600463867
 30
0.0
 11
42.760799407959
 21
-169.962879197798
 31
0.0
  0
ARC
  5
   634
  8
0
  6
CONTINUOUS
 62
     7
 10
46.2608035552389
 20
-164.518601135206
 30
0.0
 40
0.999996977799109
 50
629.999840735313
 51
720.000252836193
  0
ARC
  5
   635
  8
0
  6
CONTINUOUS
 62
     7
 10
43.7608140614657
 20
-169.018613150172
 30
0.0
 40
3.50001845311552
 50
450.000186734275
 51
513.408761128067
  0
ARC
  5
   636
  8
0
  6
CONTINUOUS
 62
     7
 10
43.760755159809
 20
-169.018559569085
 30
0.0
 40
0.999949821243504
 50
449.997764042825
 51
540.001169660043
  0
ARC
  5
   637
  8
0
  6
CONTINUOUS
 62
     7
 10
46.2608187603406
 20
-164.518632510801
 30
0.0
 40
3.49997105594423
 50
629.999653243441
 51
720.000420168909
  0
INSERT
  5
   638
  8
0
  6
CONTINUOUS
 62
     7
  2
*HATCH303
 10
50.7607917785645
 20
-161.018600463867
 30
0.0
 50
269.999999844103
  0
INSERT
  5
   639
  8
0
  6
CONTINUOUS
 62
     7
  2
*HATCH304
 10
50.7607917785645
 20
-161.018600463867
 30
0.0
 50
269.999999844103
  0
LINE
  5
   63A
  8
0
  6
CONTINUOUS
 62
     7
 10
30.4575760893018
 20
-149.04914576565
 30
0.0
 11
30.4575760893018
 21
-173.631333552234
 31
0.0
  0
TEXT
  5
   63B
  8
0
  6
CONTINUOUS
 62
     7
 10
71.5363289360197
 20
-174.823738099673
 30
0.0
 40
3.00000002980232
  1
PART. Z
 50
359.999999844103
 41
0.916666689183977
 72
     1
 11
80.8863292634487
 21
-173.323738110165
 31
0.0
 73
     2
  0
INSERT
  5
   63C
  8
0
  6
CONTINUOUS
 62
     7
  2
*UDIM1541
 10
0.0
 20
0.0
 30
0.0
  0
INSERT
  5
   63D
  8
0
  6
CONTINUOUS
 62
     7
  2
*UDIM1542
 10
0.0
 20
0.0
 30
0.0
  0
LINE
  5
   63E
  8
0
  6
DASHDOT
 62
     2
 10
-24.9409008026123
 20
-117.626589571424
 30
0.0
 11
-24.9409008026123
 21
-189.135830017874
 31
0.0
  0
LINE
  5
   63F
  8
0
  6
DASHDOT
 62
     2
 10
8.3719934791353
 20
-150.692138645798
 30
0.0
 11
-50.6701136435296
 21
-150.692138645798
 31
0.0
  0
CIRCLE
  5
   640
  8
0
  6
CONTINUOUS
 62
     7
 10
-52.9409012198448
 20
-141.592138510197
 30
0.0
 40
0.850000012665987
  0
CIRCLE
  5
   641
  8
0
  6
CONTINUOUS
 62
     7
 10
-10.940900593996
 20
-141.592138510197
 30
0.0
 40
0.850000012665987
  0
CIRCLE
  5
   642
  8
0
  6
CONTINUOUS
 62
     7
 10
-10.940900593996
 20
-165.592138867825
 30
0.0
 40
0.850000012665987
  0
CIRCLE
  5
   643
  8
0
  6
CONTINUOUS
 62
     7
 10
-52.9409012198448
 20
-165.592138867825
 30
0.0
 40
0.850000012665987
  0
LINE
  5
   644
  8
0
  6
DASHDOT
 62
     7
 10
-52.9409012198448
 20
-138.742138467729
 30
0.0
 11
-52.9409012198448
 21
-144.442138552666
 31
0.0
  0
LINE
  5
   645
  8
0
  6
DASHDOT
 62
     7
 10
-50.0909011773765
 20
-141.592138510197
 30
0.0
 11
-55.7909012623131
 21
-141.592138510197
 31
0.0
  0
LINE
  5
   646
  8
0
  6
DASHDOT
 62
     7
 10
-10.940900593996
 20
-138.742138467729
 30
0.0
 11
-10.940900593996
 21
-162.268951420478
 31
0.0
  0
LINE
  5
   647
  8
0
  6
DASHDOT
 62
     7
 10
-8.09090055152774
 20
-141.592138510197
 30
0.0
 11
-13.7909006364644
 21
-141.592138510197
 31
0.0
  0
LINE
  5
   648
  8
0
  6
DASHDOT
 62
     7
 10
-10.940900593996
 20
-162.742138825357
 30
0.0
 11
-10.940900593996
 21
-168.442138910294
 31
0.0
  0
LINE
  5
   649
  8
0
  6
DASHDOT
 62
     7
 10
-8.09090055152774
 20
-165.592138867825
 30
0.0
 11
-34.5659178936419
 21
-165.592138867825
 31
0.0
  0
LINE
  5
   64A
  8
0
  6
DASHDOT
 62
     7
 10
-52.9409012198448
 20
-145.970904487268
 30
0.0
 11
-52.9409012198448
 21
-168.442138910294
 31
0.0
  0
LINE
  5
   64B
  8
0
  6
DASHDOT
 62
     7
 10
-36.0909009687603
 20
-165.592138867825
 30
0.0
 11
-41.7909010536969
 21
-165.592138867825
 31
0.0
  0
LINE
  5
   64C
  8
0
  6
CONTINUOUS
 62
     7
 10
5.90995699167252E-2
 20
-120.592138197273
 30
0.0
 11
5.90995699167252E-2
 21
-186.59213918075
 31
0.0
  0
LINE
  5
   64D
  8
0
  6
CONTINUOUS
 62
     7
 10
-62.9409013688564
 20
-120.592138197273
 30
0.0
 11
-62.9409013688564
 21
-186.59213918075
 31
0.0
  0
LINE
  5
   64E
  8
0
  6
CONTINUOUS
 62
     7
 10
5.90995699167252E-2
 20
-186.59213918075
 30
0.0
 11
-62.9409013688564
 21
-186.59213918075
 31
0.0
  0
LINE
  5
   64F
  8
0
  6
CONTINUOUS
 62
     7
 10
5.90995699167252E-2
 20
-120.592138197273
 30
0.0
 11
-62.9409013688564
 21
-120.592138197273
 31
0.0
  0
LINE
  5
   650
  8
0
  6
CONTINUOUS
 62
     7
 10
-3.94090048968792
 20
-139.192138474435
 30
0.0
 11
-59.9409013241529
 21
-139.192138474435
 31
0.0
  0
LINE
  5
   651
  8
0
  6
CONTINUOUS
 62
     7
 10
-3.94090048968792
 20
-123.692138243467
 30
0.0
 11
-59.9409013241529
 21
-123.692138243467
 31
0.0
  0
LINE
  5
   652
  8
0
  6
CONTINUOUS
 62
     7
 10
-3.54090048372746
 20
-124.092138249427
 30
0.0
 11
-3.54090048372746
 21
-138.792138468474
 31
0.0
  0
LINE
  5
   653
  8
0
  6
CONTINUOUS
 62
     7
 10
-60.3409013301134
 20
-124.092138249427
 30
0.0
 11
-60.3409013301134
 21
-138.792138468474
 31
0.0
  0
LINE
  5
   654
  8
0
  6
CONTINUOUS
 62
     7
 10
-3.94090048968792
 20
-167.992138903588
 30
0.0
 11
-59.9409013241529
 21
-167.992138903588
 31
0.0
  0
LINE
  5
   655
  8
0
  6
CONTINUOUS
 62
     7
 10
-3.94090048968792
 20
-183.492139134556
 30
0.0
 11
-59.9409013241529
 21
-183.492139134556
 31
0.0
  0
LINE
  5
   656
  8
0
  6
CONTINUOUS
 62
     7
 10
-3.54090048372746
 20
-168.392138909549
 30
0.0
 11
-3.54090048372746
 21
-183.092139128596
 31
0.0
  0
LINE
  5
   657
  8
0
  6
CONTINUOUS
 62
     7
 10
-60.3409013301134
 20
-168.392138909549
 30
0.0
 11
-60.3409013301134
 21
-183.092139128596
 31
0.0
  0
ARC
  5
   658
  8
0
  6
CONTINUOUS
 62
     7
 10
-3.94090048968792
 20
-124.092138249427
 30
0.0
 40
0.400000005960464
 50
359.999999896069
 51
449.999999896069
  0
ARC
  5
   659
  8
0
  6
CONTINUOUS
 62
     7
 10
-3.94090048968792
 20
-138.792138468474
 30
0.0
 40
0.400000005960464
 50
269.999999896069
 51
359.999999896069
  0
ARC
  5
   65A
  8
0
  6
CONTINUOUS
 62
     7
 10
-59.9409013241529
 20
-138.792138468474
 30
0.0
 40
0.400000005960464
 50
179.999999896069
 51
269.999999896069
  0
ARC
  5
   65B
  8
0
  6
CONTINUOUS
 62
     7
 10
-59.9409013241529
 20
-124.092138249427
 30
0.0
 40
0.400000005960464
 50
449.999999896069
 51
539.999999896069
  0
ARC
  5
   65C
  8
0
  6
CONTINUOUS
 62
     7
 10
-59.9409013241529
 20
-168.392138909549
 30
0.0
 40
0.400000005960464
 50
449.999999896069
 51
539.999999896069
  0
ARC
  5
   65D
  8
0
  6
CONTINUOUS
 62
     7
 10
-59.9409013241529
 20
-183.092139128596
 30
0.0
 40
0.400000005960464
 50
179.999999896069
 51
269.999999896069
  0
ARC
  5
   65E
  8
0
  6
CONTINUOUS
 62
     7
 10
-3.94090048968792
 20
-183.092139128596
 30
0.0
 40
0.400000005960464
 50
269.999999896069
 51
359.999999896069
  0
ARC
  5
   65F
  8
0
  6
CONTINUOUS
 62
     7
 10
-3.94090048968792
 20
-168.392138909549
 30
0.0
 40
0.400000005960464
 50
359.999999896069
 51
449.999999896069
  0
INSERT
  5
   660
  8
0
  6
CONTINUOUS
 62
     7
  2
*UDIM1543
 10
0.0
 20
0.0
 30
0.0
  0
INSERT
  5
   661
  8
0
  6
CONTINUOUS
 62
     7
  2
*UDIM1544
 10
0.0
 20
0.0
 30
0.0
  0
INSERT
  5
   662
  8
0
  6
CONTINUOUS
 62
     7
  2
*UDIM1545
 10
0.0
 20
0.0
 30
0.0
  0
INSERT
  5
   663
  8
0
  6
CONTINUOUS
 62
     7
  2
*UDIM1546
 10
0.0
 20
0.0
 30
0.0
  0
INSERT
  5
   664
  8
0
  6
CONTINUOUS
 62
     7
  2
*UDIM1547
 10
0.0
 20
0.0
 30
0.0
  0
INSERT
  5
   665
  8
0
  6
CONTINUOUS
 62
     7
  2
*UDIM1548
 10
0.0
 20
0.0
 30
0.0
  0
INSERT
  5
   666
  8
0
  6
CONTINUOUS
 62
     7
  2
*UDIM1549
 10
0.0
 20
0.0
 30
0.0
  0
INSERT
  5
   667
  8
0
  6
CONTINUOUS
 62
     7
  2
*UDIM1550
 10
0.0
 20
0.0
 30
0.0
  0
INSERT
  5
   668
  8
0
  6
CONTINUOUS
 62
     7
  2
*UDIM1551
 10
0.0
 20
0.0
 30
0.0
  0
INSERT
  5
   669
  8
0
  6
CONTINUOUS
 62
     7
  2
*UDIM1552
 10
0.0
 20
0.0
 30
0.0
  0
INSERT
  5
   66A
  8
0
  6
CONTINUOUS
 62
     7
  2
*UDIM1553
 10
0.0
 20
0.0
 30
0.0
  0
INSERT
  5
   66B
  8
0
  6
CONTINUOUS
 62
     7
  2
*UDIM1554
 10
0.0
 20
0.0
 30
0.0
  0
TEXT
  5
   66C
  8
0
  6
CONTINUOUS
 62
     7
 10
-25.8619638607376
 20
-193.330969750215
 30
0.0
 40
2.99999994933605
  1
Y
 50
359.999999896069
 41
0.916666607525612
 72
     2
 11
-23.6619640425318
 21
-193.330969754195
 31
0.0
  0
TEXT
  5
   66D
  8
0
  6
CONTINUOUS
 62
     7
 10
-26.9575092643306
 20
-106.583687573791
 30
0.0
 40
2.99999994933605
  1
Y
 50
359.999999896069
 41
0.916666607525612
 72
     2
 11
-24.7575094461247
 21
-106.58368757777
 31
0.0
  0
TEXT
  5
   66E
  8
0
  6
CONTINUOUS
 62
     7
 10
-94.7817343655664
 20
-152.198218053915
 30
0.0
 40
2.99999994933605
  1
X
 50
359.999999896069
 41
0.916666607525612
 72
     2
 11
-92.5817345473606
 21
-152.198218057895
 31
0.0
  0
TEXT
  5
   66F
  8
0
  6
CONTINUOUS
 62
     7
 10
9.92432188217536
 20
-152.606254482725
 30
0.0
 40
2.99999994933605
  1
X
 50
359.999999896069
 41
0.916666607525612
 72
     2
 11
12.1243217003812
 21
-152.606254486705
 31
0.0
  0
LINE
  5
   670
  8
0
  6
CONTINUOUS
 62
   130
 10
-13.2466856420037
 20
18.1681235552607
 30
0.0
 11
-47.8966690301895
 21
18.1681235552607
 31
0.0
  0
LINE
  5
   671
  8
0
  6
CONTINUOUS
 62
     3
 10
-13.7716909736404
 20
-51.3593702539029
 30
0.0
 11
-14.1216909468183
 21
-51.3593702539029
 31
0.0
  0
LINE
  5
   672
  8
0
  6
CONTINUOUS
 62
     3
 10
-14.1216909468183
 20
-51.3593702539029
 30
0.0
 11
-29.6841189654831
 21
-51.3593702539029
 31
0.0
  0
LINE
  5
   673
  8
0
  6
CONTINUOUS
 62
     3
 10
-13.2466856420037
 20
17.0656289146123
 30
0.0
 11
-41.0716744661343
 21
17.0656289146123
 31
0.0
  0
LINE
  5
   674
  8
0
  6
CONTINUOUS
 62
     3
 10
-13.2466910938429
 20
-51.3593704764271
 30
0.0
 11
-13.7716910849022
 21
-51.3593704764271
 31
0.0
  0
LINE
  5
   675
  8
0
  6
CONTINUOUS
 62
     3
 10
-29.8716715612288
 20
-52.0593714702889
 30
0.0
 11
-29.6841105442532
 21
-51.3593718469413
 31
0.0
  0
LINE
  5
   676
  8
0
  6
CONTINUOUS
 62
     3
 10
-29.6966853618632
 20
-52.059369908196
 30
0.0
 11
-41.0716691464198
 21
-52.059369908196
 31
0.0
  0
LINE
  5
   677
  8
0
  6
CONTINUOUS
 62
     3
 10
-48.7716690152884
 20
-52.0593859299242
 30
0.0
 11
-48.7716690152884
 21
-50.8343774259751
 31
0.0
  0
LINE
  5
   678
  8
0
  6
CONTINUOUS
 62
     3
 10
-48.7716690152884
 20
-1.83437076352266
 30
0.0
 11
-48.7716690152884
 21
9.54060768045792
 31
0.0
  0
LINE
  5
   679
  8
0
  6
CONTINUOUS
 62
     3
 10
-47.0216690450907
 20
9.54060768045792
 30
0.0
 11
-48.7716690152884
 21
9.54060768045792
 31
0.0
  0
LINE
  5
   67A
  8
0
  6
CONTINUOUS
 62
     3
 10
-45.971664056182
 20
-52.0593859299242
 30
0.0
 11
-48.7716690152884
 21
-52.0593859299242
 31
0.0
  0
LINE
  5
   67B
  8
0
  6
CONTINUOUS
 62
     3
 10
-40.0216691643
 20
-1.83437076352266
 30
0.0
 11
-40.0216691643
 21
8.73427648882162
 31
0.0
  0
LINE
  5
   67C
  8
0
  6
CONTINUOUS
 62
     3
 10
-40.0216688305556
 20
7.09061745625897
 30
0.0
 11
-40.0216684967696
 21
7.26561745327874
 31
0.0
  0
LINE
  5
   67D
  8
0
  6
CONTINUOUS
 62
     3
 10
-41.0716654490888
 20
17.0656356684245
 30
0.0
 11
-47.4416642724932
 21
17.0656356684245
 31
0.0
  0
LINE
  5
   67E
  8
0
  6
CONTINUOUS
 62
     3
 10
-41.0716691464186
 20
-52.059369908196
 30
0.0
 11
-47.0216637045146
 21
-52.059369908196
 31
0.0
  0
LINE
  5
   67F
  8
0
  6
CONTINUOUS
 62
     3
 10
-47.7216690331697
 20
9.54060768045792
 30
0.0
 11
-47.7216690331697
 21
9.71561301805377
 31
0.0
  0
LINE
  5
   680
  8
0
  6
CONTINUOUS
 62
     3
 10
-41.0716691464186
 20
9.01561402236301
 30
0.0
 11
-41.0716691464186
 21
18.1156235561548
 31
0.0
  0
LINE
  5
   681
  8
0
  6
CONTINUOUS
 62
     3
 10
-47.7216690331697
 20
9.71561301805377
 30
0.0
 11
-47.8966690301895
 21
9.71561301805377
 31
0.0
  0
LINE
  5
   682
  8
0
  6
CONTINUOUS
 62
     3
 10
-47.8966690301895
 20
9.71561301805377
 30
0.0
 11
-47.8966690301895
 21
18.1681235552607
 31
0.0
  0
LINE
  5
   683
  8
0
  6
CONTINUOUS
 62
     3
 10
-46.9166642646866
 20
9.71560717597855
 30
0.0
 11
-47.7216653197721
 21
9.71561251655459
 31
0.0
  0
LINE
  5
   684
  8
0
  6
CONTINUOUS
 62
     3
 10
-47.4416679698229
 20
9.71560233690161
 30
0.0
 11
-47.4416679698229
 21
17.065612892884
 31
0.0
  0
LINE
  5
   685
  8
0
  6
CONTINUOUS
 62
     3
 10
-47.7216636925937
 20
9.54061836161009
 30
0.0
 11
-48.7716690152884
 21
9.54061836161009
 31
0.0
  0
LINE
  5
   686
  8
0
  6
CONTINUOUS
 62
     3
 10
-47.0216690450907
 20
-1.83437076352266
 30
0.0
 11
-47.0216690450907
 21
9.54060768045792
 31
0.0
  0
LINE
  5
   687
  8
0
  6
CONTINUOUS
 62
     3
 10
-40.0216684326877
 20
8.73427220635894
 30
0.0
 11
-41.0716680620866
 21
9.01561373182236
 31
0.0
  0
LINE
  5
   688
  8
0
  6
CONTINUOUS
 62
     3
 10
-47.0216622432923
 20
6.63354222339734
 30
0.0
 11
-46.9166665234297
 21
6.67824283910006
 31
0.0
  0
LINE
  5
   689
  8
0
  6
CONTINUOUS
 62
     3
 10
-46.9166722320025
 20
8.20300436853947
 30
0.0
 11
-47.0216679572849
 21
8.24769964395527
 31
0.0
  0
LINE
  5
   68A
  8
0
  6
CONTINUOUS
 62
     3
 10
-13.9466856300828
 20
-74.7043751301591
 30
0.0
 11
-46.9166840004931
 21
-74.7043751301591
 31
0.0
  0
LINE
  5
   68B
  8
0
  6
CONTINUOUS
 62
     2
 10
-13.9466856300841
 20
-75.6843748464407
 30
0.0
 11
-29.867268702464
 21
-75.6843748464407
 31
0.0
  0
LINE
  5
   68C
  8
0
  6
CONTINUOUS
 62
     2
 10
-29.8672793836162
 20
-75.6843748464399
 30
0.0
 11
-47.8966850519191
 21
-75.6843748464399
 31
0.0
  0
LINE
  5
   68D
  8
0
  6
CONTINUOUS
 62
     3
 10
-13.246685642005
 20
-51.534375257713
 30
0.0
 11
-29.6966853618632
 21
-51.534375257713
 31
0.0
  0
LINE
  5
   68E
  8
0
  6
CONTINUOUS
 62
     2
 10
-47.8966850519191
 20
-75.6843748464409
 30
0.0
 11
-47.8966850519191
 21
-67.2843803300682
 31
0.0
  0
LINE
  5
   68F
  8
0
  6
CONTINUOUS
 62
     2
 10
-46.9166853356372
 20
-67.2843803300682
 30
0.0
 11
-48.4216850429784
 21
-67.2843803300682
 31
0.0
  0
LINE
  5
   690
  8
0
  6
CONTINUOUS
 62
     3
 10
-46.9166853356372
 20
-74.704373795015
 30
0.0
 11
-46.9166853356372
 21
-67.2843803300682
 31
0.0
  0
LINE
  5
   691
  8
0
  6
CONTINUOUS
 62
     3
 10
-29.6966853618632
 20
-52.0593805893484
 30
0.0
 11
-29.6966853618632
 21
-51.534375257713
 31
0.0
  0
LINE
  5
   692
  8
0
  6
CONTINUOUS
 62
     2
 10
-46.9166853356372
 20
-65.88438035391
 30
0.0
 11
-46.9166853356372
 21
-52.2343752457919
 31
0.0
  0
LINE
  5
   693
  8
0
  6
CONTINUOUS
 62
     3
 10
-33.4591852977882
 20
-75.6843748464402
 30
0.0
 11
-33.4591852977882
 21
-74.7043751301583
 31
0.0
  0
LINE
  5
   694
  8
0
  6
CONTINUOUS
 62
     2
 10
-13.9466856300841
 20
-76.5593748315396
 30
0.0
 11
-13.9466856300841
 21
-72.0093749090258
 31
0.0
  0
LINE
  5
   695
  8
0
  6
CONTINUOUS
 62
     3
 10
-33.3761072962733
 20
-75.6843748464403
 30
0.0
 11
-33.3761072962733
 21
-74.7043761315164
 31
0.0
  0
LINE
  5
   696
  8
0
  6
CONTINUOUS
 62
     7
 10
-48.7716853040467
 20
-65.8843805236408
 30
0.0
 11
-48.7716853040467
 21
-52.2343807560989
 31
0.0
  0
LINE
  5
   697
  8
0
  6
CONTINUOUS
 62
     7
 10
-46.9166853356372
 20
-52.2343807560989
 30
0.0
 11
-48.7716853040467
 21
-52.2343807560989
 31
0.0
  0
LINE
  5
   698
  8
0
  6
CONTINUOUS
 62
     7
 10
-46.9166853356372
 20
-65.8843805236408
 30
0.0
 11
-48.7716853040467
 21
-65.8843805236408
 31
0.0
  0
LINE
  5
   699
  8
0
  6
CONTINUOUS
 62
     7
 10
-47.8966853189479
 20
-65.8843805236408
 30
0.0
 11
-47.8966853189479
 21
-52.2343807560989
 31
0.0
  0
LINE
  5
   69A
  8
0
  6
CONTINUOUS
 62
     2
 10
-46.9166853356372
 20
-67.2843803300682
 30
0.0
 11
-46.9166853356372
 21
-65.88438035391
 31
0.0
  0
LINE
  5
   69B
  8
0
  6
CONTINUOUS
 62
     7
 10
-45.971664056182
 20
-52.2343752457919
 30
0.0
 11
-45.971664056182
 21
-50.8343752696337
 31
0.0
  0
LINE
  5
   69C
  8
0
  6
CONTINUOUS
 62
     7
 10
-45.971664056182
 20
-52.2343752457919
 30
0.0
 11
-47.3716641992331
 21
-52.2343752457919
 31
0.0
  0
LINE
  5
   69D
  8
0
  6
CONTINUOUS
 62
     7
 10
-13.2466856420037
 20
19.0431235403596
 30
0.0
 11
-48.7716690152884
 21
19.0431235403596
 31
0.0
  0
LINE
  5
   69E
  8
0
  6
CONTINUOUS
 62
     7
 10
-48.7716690152884
 20
9.89061835564962
 30
0.0
 11
-48.7716690152884
 21
19.0431235403595
 31
0.0
  0
LINE
  5
   69F
  8
0
  6
CONTINUOUS
 62
     7
 10
-13.9466856300841
 20
-76.5593748315396
 30
0.0
 11
-48.7716850370179
 21
-76.5593748315396
 31
0.0
  0
LINE
  5
   6A0
  8
0
  6
CONTINUOUS
 62
     7
 10
-48.7716850370179
 20
-76.5593748315396
 30
0.0
 11
-48.7716850370179
 21
-67.6343803241077
 31
0.0
  0
LINE
  5
   6A1
  8
0
  6
CONTINUOUS
 62
     7
 10
-48.4216690212488
 20
9.89061835564962
 30
0.0
 11
-48.7716690152884
 21
9.89061835564962
 31
0.0
  0
LINE
  5
   6A2
  8
0
  6
CONTINUOUS
 62
     7
 10
-48.4216690212488
 20
9.54061836161009
 30
0.0
 11
-48.4216690212488
 21
9.89061835564962
 31
0.0
  0
LINE
  5
   6A3
  8
0
  6
CONTINUOUS
 62
     7
 10
-48.4216850429784
 20
-67.6343803241077
 30
0.0
 11
-48.7716850370179
 21
-67.6343803241077
 31
0.0
  0
LINE
  5
   6A4
  8
0
  6
CONTINUOUS
 62
     7
 10
-48.4216850429784
 20
-67.6343803241077
 30
0.0
 11
-48.4216850429784
 21
-67.2843803300682
 31
0.0
  0
LINE
  5
   6A5
  8
0
  6
CONTINUOUS
 62
     7
 10
-46.8466638743878
 20
-52.2343752457919
 30
0.0
 11
-48.246664184332
 21
-52.2343752457919
 31
0.0
  0
LINE
  5
   6A6
  8
0
  6
CONTINUOUS
 62
     7
 10
-58.5716454841437
 20
-46.9843793373684
 30
0.0
 11
-58.5716635085886
 21
-45.5843700152021
 31
0.0
  0
LINE
  5
   6A7
  8
0
  6
CONTINUOUS
 62
     3
 10
-53.7771186072779
 20
-49.4343806326705
 30
0.0
 11
-53.67166392577
 21
-49.4343792975265
 31
0.0
  0
LINE
  5
   6A8
  8
0
  6
CONTINUOUS
 62
     7
 10
-58.5716635085321
 20
-50.8343779374881
 30
0.0
 11
-58.5716461516598
 21
-49.4343833019061
 31
0.0
  0
LINE
  5
   6A9
  8
0
  6
CONTINUOUS
 62
     7
 10
-12.5466855083321
 20
-50.8344192980279
 30
0.0
 11
-13.2466854964111
 21
-50.8343752382752
 31
0.0
  0
LINE
  5
   6AA
  8
0
  6
CONTINUOUS
 62
     7
 10
-56.8216635376215
 20
-50.8343779399217
 30
0.0
 11
-14.9966909527774
 21
-50.8343752696337
 31
0.0
  0
LINE
  5
   6AB
  8
0
  6
CONTINUOUS
 62
     7
 10
2.67832476794729
 20
-1.83437076352266
 30
0.0
 11
-12.5466909945008
 21
-1.83437076352266
 31
0.0
  0
LINE
  5
   6AC
  8
0
  6
CONTINUOUS
 62
     7
 10
2.67832476838255
 20
-50.8344633890728
 30
0.0
 11
-12.5466856534894
 21
-50.8344193293209
 31
0.0
  0
LINE
  5
   6AD
  8
0
  6
CONTINUOUS
 62
     7
 10
2.67832476799728
 20
-50.8344633891086
 30
0.0
 11
2.67833010857316
 21
-46.9843873514645
 31
0.0
  0
LINE
  5
   6AE
  8
0
  6
CONTINUOUS
 62
     3
 10
-26.8966693878174
 20
-13.0343652322117
 30
0.0
 11
-58.5716635078193
 21
-13.0343652322117
 31
0.0
  0
LINE
  5
   6AF
  8
0
  6
CONTINUOUS
 62
     3
 10
-26.8966693878174
 20
-23.534381075126
 30
0.0
 11
-38.9716758579015
 21
-23.534381075126
 31
0.0
  0
LINE
  5
   6B0
  8
0
  6
CONTINUOUS
 62
     7
 10
-58.5716461509474
 20
-49.4343833043384
 30
0.0
 11
-58.5716454833753
 21
-46.9843793406296
 31
0.0
  0
LINE
  5
   6B1
  8
0
  6
CONTINUOUS
 62
     7
 10
-12.5466909945008
 20
-1.83437076352266
 30
0.0
 11
-58.5716635078193
 21
-1.83437076352266
 31
0.0
  0
LINE
  5
   6B2
  8
0
  6
CONTINUOUS
 62
     7
 10
-58.5716635078193
 20
-13.0343652322117
 30
0.0
 11
-58.5716635078193
 21
-1.83437076352266
 31
0.0
  0
LINE
  5
   6B3
  8
0
  6
CONTINUOUS
 62
     3
 10
-22.784190820041
 20
-49.4343619420069
 30
0.0
 11
-13.9466856299666
 21
-49.4343459202788
 31
0.0
  0
LINE
  5
   6B4
  8
0
  6
CONTINUOUS
 62
     3
 10
-37.0904192142092
 20
-49.4343699528958
 30
0.0
 11
-24.1841907963056
 21
-49.434361942032
 31
0.0
  0
LINE
  5
   6B5
  8
0
  6
CONTINUOUS
 62
     3
 10
-57.1716254800521
 20
-49.4343833043359
 30
0.0
 11
-38.4904185228005
 21
-49.4343712880399
 31
0.0
  0
LINE
  5
   6B6
  8
0
  6
CONTINUOUS
 62
     3
 10
-57.171622142192
 20
-47.859379325726
 30
0.0
 11
-38.4904178552285
 21
-47.8593673094296
 31
0.0
  0
LINE
  5
   6B7
  8
0
  6
CONTINUOUS
 62
     3
 10
-37.0904178790652
 20
-47.8593659742857
 30
0.0
 11
-24.1841881260176
 21
-47.8593579634218
 31
0.0
  0
LINE
  5
   6B8
  8
0
  6
CONTINUOUS
 62
     3
 10
-22.7841881498562
 20
-47.859356628278
 30
0.0
 11
-13.9466856300699
 21
-47.8593512877019
 31
0.0
  0
LINE
  5
   6B9
  8
0
  6
CONTINUOUS
 62
     3
 10
-57.1716254800679
 20
-49.4343833042902
 30
0.0
 11
-57.1716228097798
 21
-47.8593793256802
 31
0.0
  0
LINE
  5
   6BA
  8
0
  6
CONTINUOUS
 62
     3
 10
-13.9466856300828
 20
-49.4343459203071
 30
0.0
 11
-13.9466856300828
 21
-47.8593512877053
 31
0.0
  0
LINE
  5
   6BB
  8
0
  6
CONTINUOUS
 62
     3
 10
-22.784190820119
 20
-49.4343619419813
 30
0.0
 11
-22.784188149831
 21
-47.8593499525072
 31
0.0
  0
LINE
  5
   6BC
  8
0
  6
CONTINUOUS
 62
     3
 10
-24.1841907962792
 20
-49.4343619419858
 30
0.0
 11
-24.1841881259911
 21
-47.8593512876558
 31
0.0
  0
LINE
  5
   6BD
  8
0
  6
CONTINUOUS
 62
     3
 10
-37.0904192142145
 20
-49.434369952886
 30
0.0
 11
-37.0904178790704
 21
-47.8593592985559
 31
0.0
  0
LINE
  5
   6BE
  8
0
  6
CONTINUOUS
 62
     3
 10
-38.4904185228011
 20
-49.4343712880311
 30
0.0
 11
-38.4904171876571
 21
-47.859359298557
 31
0.0
  0
LINE
  5
   6BF
  8
0
  6
CONTINUOUS
 62
     7
 10
-45.971664056182
 20
-52.2343752457919
 30
0.0
 11
-45.971664056182
 21
-50.8343752696337
 31
0.0
  0
LINE
  5
   6C0
  8
0
  6
CONTINUOUS
 62
     7
 10
-45.971664056182
 20
-52.2343752457919
 30
0.0
 11
-47.3716641992331
 21
-52.2343752457919
 31
0.0
  0
LINE
  5
   6C1
  8
0
  6
CONTINUOUS
 62
     7
 10
-18.059164197743
 20
-52.2343565537756
 30
0.0
 11
-18.059164197743
 21
-50.8343806102098
 31
0.0
  0
LINE
  5
   6C2
  8
0
  6
CONTINUOUS
 62
     7
 10
-16.6591642215849
 20
-52.2343565537756
 30
0.0
 11
-16.6591642215849
 21
-50.8343806102098
 31
0.0
  0
LINE
  5
   6C3
  8
0
  6
CONTINUOUS
 62
     7
 10
-16.6591642215849
 20
-52.2343565537756
 30
0.0
 11
-18.059164197743
 21
-52.2343565537756
 31
0.0
  0
LINE
  5
   6C4
  8
0
  6
CONTINUOUS
 62
     7
 10
-56.8216635376216
 20
-52.4968752413215
 30
0.0
 11
-56.8216635376216
 21
-51.6218752562227
 31
0.0
  0
LINE
  5
   6C5
  8
0
  6
CONTINUOUS
 62
     7
 10
-58.5716635078193
 20
-52.4968752413215
 30
0.0
 11
-58.5716635078193
 21
-50.8343779399218
 31
0.0
  0
LINE
  5
   6C6
  8
0
  6
CONTINUOUS
 62
     7
 10
-56.8216635376216
 20
-52.4968752413215
 30
0.0
 11
-58.5716635078193
 21
-52.4968752413215
 31
0.0
  0
LINE
  5
   6C7
  8
0
  6
CONTINUOUS
 62
     7
 10
-56.8216635376216
 20
-51.6218752562227
 30
0.0
 11
-56.8216635376216
 21
-50.8343752696337
 31
0.0
  0
LINE
  5
   6C8
  8
0
  6
CONTINUOUS
 62
     7
 10
-14.9966962933536
 20
-52.4968752413215
 30
0.0
 11
-14.9966962933536
 21
-51.6218752562227
 31
0.0
  0
LINE
  5
   6C9
  8
0
  6
CONTINUOUS
 62
     7
 10
-13.2466963231559
 20
-52.4968752413215
 30
0.0
 11
-14.9966962933536
 21
-52.4968752413215
 31
0.0
  0
LINE
  5
   6CA
  8
0
  6
CONTINUOUS
 62
     7
 10
-13.2466963224119
 20
-52.4968752407366
 30
0.0
 11
-13.2466856412596
 21
-50.8343752690488
 31
0.0
  0
LINE
  5
   6CB
  8
0
  6
CONTINUOUS
 62
     7
 10
-14.9966962925648
 20
-51.6218752555307
 30
0.0
 11
-14.9966909519887
 21
-50.8343806095178
 31
0.0
  0
LINE
  5
   6CC
  8
0
  6
CONTINUOUS
 62
     3
 10
-56.1216661740062
 20
-9.00935926136328
 30
0.0
 11
-57.1716661791904
 21
-7.95935925617906
 31
0.0
  0
LINE
  5
   6CD
  8
0
  6
CONTINUOUS
 62
     7
 10
-58.5716635078193
 20
-45.5843700184646
 30
0.0
 11
-58.5716635078193
 21
-23.5343730642619
 31
0.0
  0
LINE
  5
   6CE
  8
0
  6
CONTINUOUS
 62
     3
 10
-38.9716771930457
 20
-23.5343757345495
 30
0.0
 11
-58.5716635078194
 21
-23.5343730642615
 31
0.0
  0
LINE
  5
   6CF
  8
0
  6
CONTINUOUS
 62
     3
 10
-26.8966693878174
 20
-23.534381075126
 30
0.0
 11
-26.8966693878174
 21
-13.0343652322117
 31
0.0
  0
LINE
  5
   6D0
  8
0
  6
CONTINUOUS
 62
     3
 10
-22.7841908201443
 20
-6.47187068453563
 30
0.0
 11
-13.9466856300699
 21
-6.47186534395942
 31
0.0
  0
LINE
  5
   6D1
  8
0
  6
CONTINUOUS
 62
     3
 10
-22.7841908201572
 20
-9.00937064133313
 30
0.0
 11
-22.7841908201572
 21
-6.4718706845465
 31
0.0
  0
LINE
  5
   6D2
  8
0
  6
CONTINUOUS
 62
     3
 10
-22.7841908201443
 20
-9.00937064132274
 30
0.0
 11
-13.9466856300699
 21
-9.00936530074653
 31
0.0
  0
LINE
  5
   6D3
  8
0
  6
CONTINUOUS
 62
     3
 10
-13.9466856300828
 20
-9.00936530075705
 30
0.0
 11
-13.9466856300828
 21
-6.47186534397042
 31
0.0
  0
LINE
  5
   6D4
  8
0
  6
CONTINUOUS
 62
     3
 10
-38.490418522805
 20
-9.00936530075705
 30
0.0
 11
-38.490418522805
 21
-6.47186534397042
 31
0.0
  0
LINE
  5
   6D5
  8
0
  6
CONTINUOUS
 62
     3
 10
-24.1841907963153
 20
-9.00936530075705
 30
0.0
 11
-38.490419190377
 21
-9.00936530075705
 31
0.0
  0
LINE
  5
   6D6
  8
0
  6
CONTINUOUS
 62
     3
 10
-24.1841907963153
 20
-9.00936530075705
 30
0.0
 11
-24.1841907963153
 21
-6.47186534397042
 31
0.0
  0
LINE
  5
   6D7
  8
0
  6
CONTINUOUS
 62
     3
 10
-24.1841907963153
 20
-6.47186534397042
 30
0.0
 11
-38.490419190377
 21
-6.47186534397042
 31
0.0
  0
LINE
  5
   6D8
  8
0
  6
CONTINUOUS
 62
     3
 10
-39.8904184989631
 20
-9.00936530075705
 30
0.0
 11
-57.1716628640891
 21
-9.00936530075705
 31
0.0
  0
LINE
  5
   6D9
  8
0
  6
CONTINUOUS
 62
     3
 10
-39.8904184989631
 20
-9.00936530075705
 30
0.0
 11
-39.8904184989631
 21
-6.47186534397042
 31
0.0
  0
LINE
  5
   6DA
  8
0
  6
CONTINUOUS
 62
     3
 10
-39.8904184989631
 20
-6.47186534397042
 30
0.0
 11
-57.1716628640891
 21
-6.47186534397042
 31
0.0
  0
LINE
  5
   6DB
  8
0
  6
CONTINUOUS
 62
     3
 10
-57.1716635316611
 20
-9.00936530075705
 30
0.0
 11
-57.1716635316611
 21
-6.47186534397042
 31
0.0
  0
LINE
  5
   6DC
  8
0
  6
CONTINUOUS
 62
     3
 10
-53.6716639250518
 20
-49.4343792989076
 30
0.0
 11
-53.6716639250518
 21
-47.8593713148656
 31
0.0
  0
LINE
  5
   6DD
  8
0
  6
CONTINUOUS
 62
     3
 10
-52.2716629475356
 20
-49.4343792989076
 30
0.0
 11
-52.2716629475356
 21
-47.8593699797216
 31
0.0
  0
LINE
  5
   6DE
  8
0
  6
CONTINUOUS
 62
     3
 10
-57.1715266793998
 20
-49.4343926503447
 30
0.0
 11
-57.1715260118278
 21
-47.8593793257266
 31
0.0
  0
LINE
  5
   6DF
  8
0
  6
CONTINUOUS
 62
     7
 10
-58.5716635078867
 20
-50.8343966317077
 30
0.0
 11
-58.5716621727427
 21
-50.4843712699317
 31
0.0
  0
LINE
  5
   6E0
  8
0
  6
CONTINUOUS
 62
     7
 10
-12.5466883156561
 20
-50.8344193275432
 30
0.0
 11
-13.2466856334472
 21
-50.8344086463911
 31
0.0
  0
LINE
  5
   6E1
  8
0
  6
CONTINUOUS
 62
     7
 10
2.67833010852374
 20
-46.9843873514947
 30
0.0
 11
2.67832476794771
 21
-1.83437209866639
 31
0.0
  0
LINE
  5
   6E2
  8
0
  6
CONTINUOUS
 62
     3
 10
-22.765968774569
 20
-49.4343686177555
 30
0.0
 11
-22.765968774569
 21
-47.8593566282814
 31
0.0
  0
LINE
  5
   6E3
  8
0
  6
CONTINUOUS
 62
     3
 10
-24.1846153721137
 20
-49.4343846394837
 30
0.0
 11
-24.1846153721137
 21
-47.8593579634254
 31
0.0
  0
LINE
  5
   6E4
  8
0
  6
CONTINUOUS
 62
     3
 10
-42.8216851383445
 20
-35.8718862055957
 30
0.0
 11
-47.5466636955739
 21
-35.8718862055957
 31
0.0
  0
LINE
  5
   6E5
  8
0
  6
CONTINUOUS
 62
     3
 10
-42.8216851383445
 20
-39.5468861430109
 30
0.0
 11
-47.5466636955739
 21
-39.5468861430109
 31
0.0
  0
LINE
  5
   6E6
  8
0
  6
CONTINUOUS
 62
     3
 10
-47.5466638624669
 20
-39.5468861430109
 30
0.0
 11
-47.5466638624669
 21
-35.8718862055957
 31
0.0
  0
LINE
  5
   6E7
  8
0
  6
CONTINUOUS
 62
     3
 10
-42.8216851383445
 20
-39.5468861430109
 30
0.0
 11
-42.8216851383445
 21
-35.8718862055957
 31
0.0
  0
LINE
  5
   6E8
  8
0
  6
CONTINUOUS
 62
   130
 10
-52.4466722905635
 20
0.79062919177386
 30
0.0
 11
-62.4216727882623
 21
0.79062919177386
 31
0.0
  0
LINE
  5
   6E9
  8
0
  6
CONTINUOUS
 62
   130
 10
-52.4466722905635
 20
-0.259370790344747
 30
0.0
 11
-52.4466722905635
 21
0.79062919177386
 31
0.0
  0
LINE
  5
   6EA
  8
0
  6
CONTINUOUS
 62
   130
 10
-52.4466722905635
 20
-1.83437076352266
 30
0.0
 11
-52.4466722905635
 21
-0.259370790344747
 31
0.0
  0
LINE
  5
   6EB
  8
0
  6
CONTINUOUS
 62
     3
 10
-52.4466722905635
 20
-48.2093686386171
 30
0.0
 11
-52.4466722905635
 21
-47.8593766554417
 31
0.0
  0
LINE
  5
   6EC
  8
0
  6
CONTINUOUS
 62
     3
 10
-52.4466722905635
 20
-48.2093686386171
 30
0.0
 11
-53.6716639250518
 21
-48.2093686386171
 31
0.0
  0
LINE
  5
   6ED
  8
0
  6
CONTINUOUS
 62
   130
 10
-58.571645483375
 20
-48.2093686386171
 30
0.0
 11
-62.4216741234063
 21
-48.2093686386171
 31
0.0
  0
LINE
  5
   6EE
  8
0
  6
CONTINUOUS
 62
   130
 10
-64.3466727554797
 20
9.06292036947889E-2
 30
0.0
 11
-64.3466727554797
 21
0.79062919177386
 31
0.0
  0
LINE
  5
   6EF
  8
0
  6
CONTINUOUS
 62
     3
 10
-52.2716629475356
 20
-48.2093699737611
 30
0.0
 11
-52.4466722905635
 21
-48.2093699737611
 31
0.0
  0
LINE
  5
   6F0
  8
0
  6
CONTINUOUS
 62
     2
 10
-48.7716725200414
 20
0.79062919177386
 30
0.0
 11
-52.4466724574565
 21
0.79062919177386
 31
0.0
  0
LINE
  5
   6F1
  8
0
  6
CONTINUOUS
 62
     3
 10
-56.1216221600785
 20
-49.4343739583282
 30
0.0
 11
-56.1216228276505
 21
-47.8593726500062
 31
0.0
  0
LINE
  5
   6F2
  8
0
  6
CONTINUOUS
 62
     3
 10
-13.9466856300828
 20
-8.48436530969775
 30
0.0
 11
-22.7841854795811
 21
-8.48436530969775
 31
0.0
  0
LINE
  5
   6F3
  8
0
  6
CONTINUOUS
 62
     3
 10
-24.1841881260273
 20
-8.48436530969775
 30
0.0
 11
-38.4904151849449
 21
-8.48436530969775
 31
0.0
  0
LINE
  5
   6F4
  8
0
  6
CONTINUOUS
 62
     3
 10
-39.8904151611031
 20
-8.48436530969775
 30
0.0
 11
-56.1216635495425
 21
-8.48436530969775
 31
0.0
  0
LINE
  5
   6F5
  8
0
  6
CONTINUOUS
 62
     3
 10
-56.384162284238
 20
-8.74685967719548
 30
0.0
 11
-56.121662282942
 21
-8.48435967589943
 31
0.0
  0
LINE
  5
   6F6
  8
0
  6
CONTINUOUS
 62
     3
 10
-56.1216635495425
 20
-8.48436530969775
 30
0.0
 11
-56.1216635495425
 21
-6.47186534397042
 31
0.0
  0
LINE
  5
   6F7
  8
0
  6
CONTINUOUS
 62
     3
 10
-46.6716638773681
 20
-38.6281361586571
 30
0.0
 11
-46.6716638773681
 21
-38.1849671445978
 31
0.0
  0
LINE
  5
   6F8
  8
0
  6
CONTINUOUS
 62
     3
 10
-46.6716638773681
 20
-38.1849671445978
 30
0.0
 11
-46.6716638773681
 21
-37.7093861743033
 31
0.0
  0
LINE
  5
   6F9
  8
0
  6
CONTINUOUS
 62
     3
 10
-46.6716638773681
 20
-37.7093861743033
 30
0.0
 11
-46.6716638773681
 21
-37.2338052040088
 31
0.0
  0
LINE
  5
   6FA
  8
0
  6
CONTINUOUS
 62
     3
 10
-46.6716638773681
 20
-37.2338052040088
 30
0.0
 11
-46.6716638773681
 21
-36.7906361899495
 31
0.0
  0
LINE
  5
   6FB
  8
0
  6
CONTINUOUS
 62
     3
 10
-46.6716638773681
 20
-36.7906361899495
 30
0.0
 11
-46.6716638773681
 21
-36.4100774195749
 31
0.0
  0
LINE
  5
   6FC
  8
0
  6
CONTINUOUS
 62
     3
 10
-46.6716638773681
 20
-36.4100774195749
 30
0.0
 11
-46.6716638773681
 21
-36.1180654006221
 31
0.0
  0
LINE
  5
   6FD
  8
0
  6
CONTINUOUS
 62
     3
 10
-46.6716638773681
 20
-36.1180654006221
 30
0.0
 11
-46.6716638773681
 21
-35.9344964492805
 31
0.0
  0
LINE
  5
   6FE
  8
0
  6
CONTINUOUS
 62
     3
 10
-46.6716638773681
 20
-35.9344964492805
 30
0.0
 11
-46.6716638773681
 21
-35.8718862055957
 31
0.0
  0
LINE
  5
   6FF
  8
0
  6
CONTINUOUS
 62
     3
 10
-46.6716638773681
 20
-39.5468861430109
 30
0.0
 11
-46.6716638773681
 21
-39.4842758993261
 31
0.0
  0
LINE
  5
   700
  8
0
  6
CONTINUOUS
 62
     3
 10
-46.6716638773681
 20
-39.4842758993261
 30
0.0
 11
-46.6716638773681
 21
-39.3007069479845
 31
0.0
  0
LINE
  5
   701
  8
0
  6
CONTINUOUS
 62
     3
 10
-46.6716638773681
 20
-39.3007069479845
 30
0.0
 11
-46.6716638773681
 21
-39.0086949290317
 31
0.0
  0
LINE
  5
   702
  8
0
  6
CONTINUOUS
 62
     3
 10
-46.6716638773681
 20
-39.0086949290317
 30
0.0
 11
-46.6716638773681
 21
-38.6281361586571
 31
0.0
  0
LINE
  5
   703
  8
0
  6
CONTINUOUS
 62
     7
 10
-58.5716635078202
 20
-23.5343730642617
 30
0.0
 11
-58.5716635078202
 21
-13.0343652322119
 31
0.0
  0
LINE
  5
   704
  8
0
  6
CONTINUOUS
 62
     7
 10
-64.3466727554797
 20
-3.40937073670057
 30
0.0
 11
-64.3466727554797
 21
9.06292036947889E-2
 31
0.0
  0
CIRCLE
  5
   705
  8
0
  6
CONTINUOUS
 62
     7
 10
-54.3716909434958
 20
-28.7843858752589
 30
0.0
 40
3.49999920427875
  0
CIRCLE
  5
   706
  8
0
  6
CONTINUOUS
 62
     7
 10
-54.3716910938078
 20
-28.7843861291683
 30
0.0
 40
0.962500513221885
  0
CIRCLE
  5
   707
  8
0
  6
CONTINUOUS
 62
     7
 10
-4.49668719821022
 20
-9.88435752348085
 30
0.0
 40
2.10000119521557
  0
CIRCLE
  5
   708
  8
0
  6
CONTINUOUS
 62
     7
 10
-4.49668460327179
 20
-9.88436096138952
 30
0.0
 40
1.13749792246321
  0
CIRCLE
  5
   709
  8
0
  6
CONTINUOUS
 62
     7
 10
-4.49668717948837
 20
-44.8843730091589
 30
0.0
 40
2.10000165327577
  0
CIRCLE
  5
   70A
  8
0
  6
CONTINUOUS
 62
     7
 10
-4.49668900644243
 20
-44.8843712404747
 30
0.0
 40
1.13749951227535
  0
LINE
  5
   70B
  8
0
  6
DASHDOT
 62
     7
 10
-4.49668717948837
 20
-47.3343746564742
 30
0.0
 11
-4.49668717948837
 21
-42.4343713618436
 31
0.0
  0
LINE
  5
   70C
  8
0
  6
DASHDOT
 62
     7
 10
-2.04668553217306
 20
-44.8843730091589
 30
0.0
 11
-6.94668882680368
 21
-44.8843730091589
 31
0.0
  0
LINE
  5
   70D
  8
0
  6
DASHDOT
 62
     7
 10
-4.49668719821022
 20
-12.334358712736
 30
0.0
 11
-4.49668719821022
 21
-7.43435633422575
 31
0.0
  0
LINE
  5
   70E
  8
0
  6
DASHDOT
 62
     7
 10
-2.04668600895511
 20
-9.88435752348085
 30
0.0
 11
-6.94668838746532
 21
-9.88435752348085
 31
0.0
  0
LINE
  5
   70F
  8
0
  6
DASHDOT
 62
     7
 10
-54.3716909434958
 20
-32.6343850735772
 30
0.0
 11
-54.3716909434958
 21
-24.9343866769406
 31
0.0
  0
LINE
  5
   710
  8
0
  6
DASHDOT
 62
     7
 10
-50.5216917451776
 20
-28.7843858752589
 30
0.0
 11
-58.2216901418141
 21
-28.7843858752589
 31
0.0
  0
LINE
  5
   711
  8
0
  6
CONTINUOUS
 62
     3
 10
-32.1466692984104
 20
-23.534381075126
 30
0.0
 11
-32.1466692984104
 21
-13.0343652322117
 31
0.0
  0
LINE
  5
   712
  8
0
  6
DASHDOT
 62
     2
 10
15.5066965922309
 20
-23.7093690558496
 30
0.0
 11
-71.3414219673821
 21
-23.7093690558496
 31
0.0
  0
LINE
  5
   713
  8
0
  6
DASHDOT
 62
     2
 10
12.1025806799996
 20
-7.78437066219476
 30
0.0
 11
-0.179824046830973
 21
-7.78437066219476
 31
0.0
  0
LINE
  5
   714
  8
0
  6
DASHDOT
 62
     2
 10
11.8389738764162
 20
-49.784367276651
 30
0.0
 11
-0.179824046830973
 21
-49.784367276651
 31
0.0
  0
LINE
  5
   715
  8
0
  6
DASHDOT
 62
     2
 10
12.2526973180335
 20
-28.7843703045669
 30
0.0
 11
-3.68067843838127
 21
-28.7843703045669
 31
0.0
  0
LINE
  5
   716
  8
0
  6
DOT
 62
     7
 10
4.07831406295327
 20
-90.946049257806
 30
0.0
 11
4.07831406295327
 21
35.7339582048483
 31
0.0
  0
LINE
  5
   717
  8
0
  6
DOT
 62
     7
 10
5.12831404507187
 20
-90.6821325755922
 30
0.0
 11
5.12831404507187
 21
35.9318957165087
 31
0.0
  0
LINE
  5
   718
  8
0
  6
DOT
 62
     7
 10
11.078313943744
 20
-4.45937071881917
 30
0.0
 11
11.078313943744
 21
-3.40937073670057
 31
0.0
  0
LINE
  5
   719
  8
0
  6
CONTINUOUS
 62
     7
 10
7.92831399738816
 20
-5.2678707050505
 30
0.0
 11
5.12831404507187
 21
-5.2678707050505
 31
0.0
  0
LINE
  5
   71A
  8
0
  6
CONTINUOUS
 62
     7
 10
7.92831399738816
 20
-10.300870619339
 30
0.0
 11
5.12831404507187
 21
-10.300870619339
 31
0.0
  0
LINE
  5
   71B
  8
0
  6
CONTINUOUS
 62
     7
 10
7.92831399738816
 20
-10.300870619339
 30
0.0
 11
7.92831399738816
 21
-5.2678707050505
 31
0.0
  0
LINE
  5
   71C
  8
0
  6
CONTINUOUS
 62
     7
 10
7.92831399738816
 20
-52.3008699040833
 30
0.0
 11
7.92831399738816
 21
-47.2678699897948
 31
0.0
  0
LINE
  5
   71D
  8
0
  6
CONTINUOUS
 62
     7
 10
7.92831399738816
 20
-52.3008699040833
 30
0.0
 11
5.12831404507187
 21
-52.3008699040833
 31
0.0
  0
LINE
  5
   71E
  8
0
  6
CONTINUOUS
 62
     7
 10
7.92831399738816
 20
-47.2678699897948
 30
0.0
 11
5.12831404507187
 21
-47.2678699897948
 31
0.0
  0
LINE
  5
   71F
  8
0
  6
CONTINUOUS
 62
     7
 10
-62.4216741234063
 20
-75.580261462594
 30
0.0
 11
-62.4216741234063
 21
-55.7343685104671
 31
0.0
  0
LINE
  5
   720
  8
0
  6
CONTINUOUS
 62
     7
 10
-63.1216741114854
 20
-75.7260629868285
 30
0.0
 11
-63.1216741114854
 21
-51.8843699111763
 31
0.0
  0
LINE
  5
   721
  8
0
  6
CONTINUOUS
 62
     7
 10
-60.8092739910515
 20
17.5412138616617
 30
0.0
 11
-63.9713799804789
 21
18.4082429232789
 31
0.0
  0
LINE
  5
   722
  8
0
  6
CONTINUOUS
 62
     7
 10
-63.1216741114854
 20
-51.8843699111763
 30
0.0
 11
-63.1216741114854
 21
18.1752590559742
 31
0.0
  0
LINE
  5
   723
  8
0
  6
CONTINUOUS
 62
     7
 10
-59.621672835946
 20
-39.984298683627
 30
0.0
 11
-59.621672835946
 21
-35.4343708588901
 31
0.0
  0
LINE
  5
   724
  8
0
  6
CONTINUOUS
 62
     1
 10
-64.3466727554797
 20
-58.0093684717241
 30
0.0
 11
-64.3466727554797
 21
-40.3343707754436
 31
0.0
  0
LINE
  5
   725
  8
0
  6
CONTINUOUS
 62
     1
 10
-64.3466727554797
 20
-30.2718709468069
 30
0.0
 11
-64.3466727554797
 21
10.5906303600249
 31
0.0
  0
LINE
  5
   726
  8
0
  6
CONTINUOUS
 62
     1
 10
-62.4216727882623
 20
-22.659368406159
 30
0.0
 11
-62.4216727882623
 21
6.21563043453068
 31
0.0
  0
LINE
  5
   727
  8
0
  6
CONTINUOUS
 62
     1
 10
-62.4216727882623
 20
-35.4343708588901
 30
0.0
 11
-62.4216727882623
 21
-24.7593657001082
 31
0.0
  0
LINE
  5
   728
  8
0
  6
CONTINUOUS
 62
     7
 10
-60.8466728150844
 20
6.41770181170466
 30
0.0
 11
-60.8466728150844
 21
8.11355902159391
 31
0.0
  0
LINE
  5
   729
  8
0
  6
CONTINUOUS
 62
     7
 10
-60.8466728150844
 20
-24.5572969932222
 30
0.0
 11
-60.8466728150844
 21
-22.861442453621
 31
0.0
  0
LINE
  5
   72A
  8
0
  6
CONTINUOUS
 62
     7
 10
-63.9966727614402
 20
-40.3343707754436
 30
0.0
 11
-64.3466727554797
 21
-40.3343707754436
 31
0.0
  0
LINE
  5
   72B
  8
0
  6
CONTINUOUS
 62
     7
 10
-63.9966727614402
 20
-41.7343707516017
 30
0.0
 11
-63.9966727614402
 21
-40.3343707754436
 31
0.0
  0
LINE
  5
   72C
  8
0
  6
CONTINUOUS
 62
     7
 10
-63.6466727674007
 20
-41.7343707516017
 30
0.0
 11
-63.9966727614402
 21
-41.7343707516017
 31
0.0
  0
LINE
  5
   72D
  8
0
  6
CONTINUOUS
 62
     7
 10
-63.6466727674007
 20
-41.7343707516017
 30
0.0
 11
-63.6466727674007
 21
-33.6843708886924
 31
0.0
  0
LINE
  5
   72E
  8
0
  6
CONTINUOUS
 62
     7
 10
-63.6466727674007
 20
-33.6843708886924
 30
0.0
 11
-63.9966727614402
 21
-33.6843708886924
 31
0.0
  0
LINE
  5
   72F
  8
0
  6
CONTINUOUS
 62
     7
 10
-63.9966727614402
 20
-35.0843708648506
 30
0.0
 11
-63.9966727614402
 21
-33.6843708886924
 31
0.0
  0
LINE
  5
   730
  8
0
  6
CONTINUOUS
 62
     7
 10
-63.9966727614402
 20
-35.0843708648505
 30
0.0
 11
-64.3466727554797
 21
-35.0843708648505
 31
0.0
  0
LINE
  5
   731
  8
0
  6
CONTINUOUS
 62
     7
 10
-59.621672835946
 20
-39.9842986836269
 30
0.0
 11
-63.1216727763414
 21
-39.9842986836269
 31
0.0
  0
LINE
  5
   732
  8
0
  6
CONTINUOUS
 62
     7
 10
-59.621672835946
 20
-35.4343708588901
 30
0.0
 11
-63.1216727763414
 21
-35.4343708588901
 31
0.0
  0
LINE
  5
   733
  8
0
  6
CONTINUOUS
 62
     1
 10
-64.3466727554797
 20
-35.0843708648505
 30
0.0
 11
-64.3466727554797
 21
-30.2718682765189
 31
0.0
  0
LINE
  5
   734
  8
0
  6
CONTINUOUS
 62
     7
 10
-61.1966728091239
 20
6.21563043453068
 30
0.0
 11
-63.1216727763414
 21
6.21563043453068
 31
0.0
  0
LINE
  5
   735
  8
0
  6
CONTINUOUS
 62
     7
 10
-61.1966728091239
 20
8.31563039876789
 30
0.0
 11
-63.1216727763414
 21
8.31563039876789
 31
0.0
  0
LINE
  5
   736
  8
0
  6
CONTINUOUS
 62
     7
 10
-61.1966728091239
 20
6.21562972039246
 30
0.0
 11
-61.1966728091239
 21
8.31562980482154
 31
0.0
  0
LINE
  5
   737
  8
0
  6
CONTINUOUS
 62
     7
 10
-61.1966728726188
 20
6.21562968373394
 30
0.0
 11
-60.8466728670549
 21
6.41770106344141
 31
0.0
  0
LINE
  5
   738
  8
0
  6
CONTINUOUS
 62
     7
 10
-60.8466723006391
 20
8.11355813475434
 30
0.0
 11
-61.196672306203
 21
8.31562951446182
 31
0.0
  0
LINE
  5
   739
  8
0
  6
CONTINUOUS
 62
     7
 10
-61.1966728091239
 20
-24.7593683703962
 30
0.0
 11
-63.1216727763414
 21
-24.7593683703962
 31
0.0
  0
LINE
  5
   73A
  8
0
  6
CONTINUOUS
 62
     7
 10
-61.1966728091239
 20
-22.659368406159
 30
0.0
 11
-63.1216727763414
 21
-22.659368406159
 31
0.0
  0
LINE
  5
   73B
  8
0
  6
CONTINUOUS
 62
     7
 10
-61.1966728091239
 20
-24.7593683703962
 30
0.0
 11
-61.1966728091239
 21
-22.659368406159
 31
0.0
  0
LINE
  5
   73C
  8
0
  6
CONTINUOUS
 62
     7
 10
-61.1966727615181
 20
-24.7593688004727
 30
0.0
 11
-60.8466727559542
 21
-24.5572974207653
 31
0.0
  0
LINE
  5
   73D
  8
0
  6
CONTINUOUS
 62
     7
 10
-60.8466722552249
 20
-22.8614432415367
 30
0.0
 11
-61.1966722607885
 21
-22.6593691948753
 31
0.0
  0
LINE
  5
   73E
  8
0
  6
CONTINUOUS
 62
     7
 10
-62.4216741234063
 20
-53.6343685462299
 30
0.0
 11
-62.4216741234063
 21
-39.9842986836269
 31
0.0
  0
LINE
  5
   73F
  8
0
  6
CONTINUOUS
 62
     7
 10
-62.4216727882623
 20
-40.3342986776665
 30
0.0
 11
-63.1216727763414
 21
-40.3342986776665
 31
0.0
  0
LINE
  5
   740
  8
0
  6
CONTINUOUS
 62
     7
 10
-62.4216727882623
 20
-35.0843708648505
 30
0.0
 11
-63.1216727763414
 21
-35.0843708648505
 31
0.0
  0
LINE
  5
   741
  8
0
  6
CONTINUOUS
 62
     7
 10
-62.4216727882623
 20
-22.4843684091392
 30
0.0
 11
-63.1216727763414
 21
-22.4843684091392
 31
0.0
  0
LINE
  5
   742
  8
0
  6
CONTINUOUS
 62
     7
 10
-62.4216727882623
 20
-24.934368367416
 30
0.0
 11
-63.1216727763414
 21
-24.934368367416
 31
0.0
  0
LINE
  5
   743
  8
0
  6
CONTINUOUS
 62
     7
 10
-62.4216741234063
 20
8.31563039876789
 30
0.0
 11
-62.4216741234063
 21
17.9833235753719
 31
0.0
  0
LINE
  5
   744
  8
0
  6
CONTINUOUS
 62
     7
 10
-62.4216741234063
 20
8.49063039578766
 30
0.0
 11
-63.1216727763414
 21
8.49063039578766
 31
0.0
  0
LINE
  5
   745
  8
0
  6
CONTINUOUS
 62
     7
 10
-62.4216741234063
 20
6.04063043751091
 30
0.0
 11
-63.1216727763414
 21
6.04063043751091
 31
0.0
  0
LINE
  5
   746
  8
0
  6
CONTINUOUS
 62
   130
 10
-64.3466727554797
 20
-40.3343707754436
 30
0.0
 11
-64.3466727554797
 21
-35.0843708648505
 31
0.0
  0
LINE
  5
   747
  8
0
  6
CONTINUOUS
 62
     7
 10
-65.3723173048574
 20
-76.1948447206715
 30
0.0
 11
-60.1429241294358
 21
-75.1056254224103
 31
0.0
  0
INSERT
  5
   748
  8
0
  6
CONTINUOUS
 62
     7
  2
*HATCH305
 10
-49.2966690063477
 20
-66.6673355102539
 30
0.0
 41
0.349999994039536
 42
0.349999994039536
 50
89.9999999480344
 43
0.349999994039536
  0
LINE
  5
   749
  8
0
  6
CONTINUOUS
 62
     7
 10
32.2533135831359
 20
14.6156302914795
 30
0.0
 11
16.5033138513568
 21
14.6156302914795
 31
0.0
  0
LINE
  5
   74A
  8
0
  6
CONTINUOUS
 62
     7
 10
32.2533135831359
 20
0.615630529898112
 30
0.0
 11
16.5033138513568
 21
0.615630529898112
 31
0.0
  0
LINE
  5
   74B
  8
0
  6
CONTINUOUS
 62
     7
 10
32.2533135831359
 20
0.615630529898112
 30
0.0
 11
32.2533135831359
 21
14.6156302914795
 31
0.0
  0
CIRCLE
  5
   74C
  8
0
  6
CONTINUOUS
 62
     7
 10
25.2533137023452
 20
7.61563041068882
 30
0.0
 40
2.44999995827675
  0
LINE
  5
   74D
  8
0
  6
DASHDOT
 62
     7
 10
25.2533137023452
 20
1.66563051201672
 30
0.0
 11
25.2533137023452
 21
13.5656303093609
 31
0.0
  0
LINE
  5
   74E
  8
0
  6
DASHDOT
 62
     7
 10
31.2033136010173
 20
7.61563041068882
 30
0.0
 11
19.3033138036731
 21
7.61563041068882
 31
0.0
  0
INSERT
  5
   74F
  8
255
  6
CONTINUOUS
 62
     7
  2
$3BASETT
 10
-13.2466856420037
 20
-80.4093639334153
 30
0.0
 41
0.349999994039536
 42
0.349999994039536
 50
3.50835464724173E-15
 43
0.349999994039536
  0
LINE
  5
   750
  8
0
  6
CONTINUOUS
 62
     7
 10
32.2533135831359
 20
-72.1843682303253
 30
0.0
 11
32.2533135831359
 21
-58.1843684687439
 31
0.0
  0
LINE
  5
   751
  8
0
  6
CONTINUOUS
 62
     7
 10
32.2533135831359
 20
-72.1843682303253
 30
0.0
 11
16.5033138513568
 21
-72.1843682303253
 31
0.0
  0
LINE
  5
   752
  8
0
  6
CONTINUOUS
 62
     7
 10
32.2533135831359
 20
-58.1843684687439
 30
0.0
 11
16.5033138513568
 21
-58.1843684687439
 31
0.0
  0
CIRCLE
  5
   753
  8
0
  6
CONTINUOUS
 62
     7
 10
25.2533137023452
 20
-65.1843683495346
 30
0.0
 40
2.44999995827675
  0
LINE
  5
   754
  8
0
  6
DASHDOT
 62
     7
 10
25.2533137023452
 20
-71.1343682482067
 30
0.0
 11
25.2533137023452
 21
-59.2343684508625
 31
0.0
  0
LINE
  5
   755
  8
0
  6
DASHDOT
 62
     7
 10
31.2033136010173
 20
-65.1843683495346
 30
0.0
 11
19.3033138036731
 21
-65.1843683495346
 31
0.0
  0
LINE
  5
   756
  8
0
  6
DOT
 62
     7
 10
11.078313943744
 20
-3.40937073670057
 30
0.0
 11
5.65331403613118
 21
-3.40937073670057
 31
0.0
  0
LINE
  5
   757
  8
0
  6
DOT
 62
     7
 10
11.078313943744
 20
-4.45937071881917
 30
0.0
 11
5.65331403613118
 21
-4.45937071881917
 31
0.0
  0
LINE
  5
   758
  8
0
  6
DOT
 62
     7
 10
11.078313943744
 20
-54.1593698724332
 30
0.0
 11
5.65331403613118
 21
-54.1593698724332
 31
0.0
  0
LINE
  5
   759
  8
0
  6
DOT
 62
     7
 10
11.078313943744
 20
-53.1093698903146
 30
0.0
 11
5.65331403613118
 21
-53.1093698903146
 31
0.0
  0
LINE
  5
   75A
  8
0
  6
DOT
 62
     7
 10
11.078313943744
 20
-54.1593698724332
 30
0.0
 11
11.078313943744
 21
-53.1093698903146
 31
0.0
  0
ARC
  5
   75B
  8
0
  6
DOT
 62
     7
 10
5.65331403613118
 20
-52.5843698992553
 30
0.0
 40
0.524999991059303
 50
179.999999948034
 51
269.999999948034
  0
ARC
  5
   75C
  8
0
  6
DOT
 62
     7
 10
5.65331403613118
 20
-52.5843698992553
 30
0.0
 40
1.57499997317791
 50
179.999999948034
 51
269.999999948034
  0
ARC
  5
   75D
  8
0
  6
DOT
 62
     7
 10
5.65331403613118
 20
-4.98437070987848
 30
0.0
 40
1.57499997317791
 50
89.9999999480344
 51
179.999999948034
  0
ARC
  5
   75E
  8
0
  6
DOT
 62
     7
 10
5.65331403613118
 20
-4.98437070987848
 30
0.0
 40
0.524999991059303
 50
89.9999999480344
 51
179.999999948034
  0
LINE
  5
   75F
  8
0
  6
CONTINUOUS
 62
     7
 10
-62.4216741234063
 20
-55.9093685074869
 30
0.0
 11
-63.1216727763414
 21
-55.9093685074869
 31
0.0
  0
LINE
  5
   760
  8
0
  6
CONTINUOUS
 62
     7
 10
-61.1966728091239
 20
-55.7343685104671
 30
0.0
 11
-63.1216727763414
 21
-55.7343685104671
 31
0.0
  0
LINE
  5
   761
  8
0
  6
CONTINUOUS
 62
     7
 10
-61.1966728091239
 20
-53.6343685462299
 30
0.0
 11
-63.1216727763414
 21
-53.6343685462299
 31
0.0
  0
LINE
  5
   762
  8
0
  6
CONTINUOUS
 62
     7
 10
-62.4216741234063
 20
-53.4593685492101
 30
0.0
 11
-63.1216727763414
 21
-53.4593685492101
 31
0.0
  0
LINE
  5
   763
  8
0
  6
CONTINUOUS
 62
     7
 10
-61.1966728091239
 20
-55.7343679165208
 30
0.0
 11
-61.1966728091239
 21
-53.6343678320917
 31
0.0
  0
LINE
  5
   764
  8
0
  6
CONTINUOUS
 62
     7
 10
-60.8466728150844
 20
-55.5322971332931
 30
0.0
 11
-60.8466728150844
 21
-53.8364399234039
 31
0.0
  0
LINE
  5
   765
  8
0
  6
CONTINUOUS
 62
     7
 10
-60.8466728670549
 20
-53.8364391751406
 30
0.0
 11
-61.1966728726188
 21
-53.6343677954332
 31
0.0
  0
LINE
  5
   766
  8
0
  6
CONTINUOUS
 62
     7
 10
-61.196672306203
 20
-55.734367626161
 30
0.0
 11
-60.8466723006391
 21
-55.5322962464536
 31
0.0
  0
LINE
  5
   767
  8
0
  6
CONTINUOUS
 62
     7
 10
-63.1216727763414
 20
10.5906303600249
 30
0.0
 11
-64.3466727554797
 21
10.5906303600249
 31
0.0
  0
LINE
  5
   768
  8
0
  6
CONTINUOUS
 62
     7
 10
-63.1216727763414
 20
-58.0093684717241
 30
0.0
 11
-64.3466727554797
 21
-58.0093684717241
 31
0.0
  0
INSERT
  5
   769
  8
0
  6
CONTINUOUS
 62
     7
  2
*HATCH306
 10
-49.2966690063477
 20
-66.6673355102539
 30
0.0
 41
0.349999994039536
 42
0.349999994039536
 50
89.9999999480344
 43
0.349999994039536
  0
INSERT
  5
   76A
  8
0
  6
CONTINUOUS
 62
     7
  2
*HATCH307
 10
-49.2966690063477
 20
-66.6673355102539
 30
0.0
 41
0.349999994039536
 42
0.349999994039536
 50
89.9999999480344
 43
0.349999994039536
  0
INSERT
  5
   76B
  8
0
  6
CONTINUOUS
 62
     7
  2
*HATCH308
 10
-49.2966690063477
 20
-66.6673355102539
 30
0.0
 41
0.349999994039536
 42
0.349999994039536
 50
89.9999999480344
 43
0.349999994039536
  0
INSERT
  5
   76C
  8
0
  6
CONTINUOUS
 62
     7
  2
*HATCH309
 10
-49.2966690063477
 20
-66.6673355102539
 30
0.0
 41
0.349999994039536
 42
0.349999994039536
 50
89.9999999480344
 43
0.349999994039536
  0
LINE
  5
   76D
  8
0
  6
CONTINUOUS
 62
     7
 10
-59.0966748476027
 20
1.31563051797718
 30
0.0
 11
-59.9716768354176
 21
1.31563051797718
 31
0.0
  0
LINE
  5
   76E
  8
0
  6
CONTINUOUS
 62
     7
 10
-59.0966748476027
 20
1.31563051797718
 30
0.0
 11
-59.0966748476027
 21
4.99063045539231
 31
0.0
  0
LINE
  5
   76F
  8
0
  6
CONTINUOUS
 62
     7
 10
-60.3216768294571
 20
6.21563043453068
 30
0.0
 11
-61.196676814556
 21
6.21563043453068
 31
0.0
  0
LINE
  5
   770
  8
0
  6
CONTINUOUS
 62
     7
 10
-61.5466768085955
 20
8.31563039876789
 30
0.0
 11
-61.5466768085955
 21
9.3656303808865
 31
0.0
  0
LINE
  5
   771
  8
0
  6
CONTINUOUS
 62
     7
 10
-61.5466768085955
 20
9.3656303808865
 30
0.0
 11
-62.4216741234063
 21
9.3656303808865
 31
0.0
  0
LINE
  5
   772
  8
0
  6
CONTINUOUS
 62
     7
 10
-60.3216768294571
 20
5.34063044943184
 30
0.0
 11
-61.196676814556
 21
5.34063044943184
 31
0.0
  0
LINE
  5
   773
  8
0
  6
CONTINUOUS
 62
     7
 10
-59.9716768354176
 20
1.31563051797718
 30
0.0
 11
-59.9716768354176
 21
4.99063045539231
 31
0.0
  0
ARC
  5
   774
  8
0
  6
CONTINUOUS
 62
     7
 10
-60.3216819581844
 20
4.99062601518581
 30
0.0
 40
1.2250064377287
 50
360.000319242658
 51
449.999813057862
  0
ARC
  5
   775
  8
0
  6
CONTINUOUS
 62
     7
 10
-60.3216613426049
 20
4.9906447685659
 30
0.0
 40
0.349982431475061
 50
359.998830132094
 51
450.002235749312
  0
ARC
  5
   776
  8
0
  6
CONTINUOUS
 62
     7
 10
-61.1966835878894
 20
6.5656192121434
 30
0.0
 40
1.22498984871903
 50
196.601143374767
 51
270.000346548696
  0
LINE
  5
   777
  8
0
  6
CONTINUOUS
 62
     7
 10
-59.0966748476027
 20
4.465630464333
 30
0.0
 11
-59.9716768354176
 21
4.465630464333
 31
0.0
  0
INSERT
  5
   778
  8
0
  6
CONTINUOUS
 62
     7
  2
*HATCH310
 10
-49.2966690063477
 20
-66.6673355102539
 30
0.0
 41
0.349999994039536
 42
0.349999994039536
 50
89.9999999480344
 43
0.349999994039536
  0
LINE
  5
   779
  8
0
  6
DOT
 62
     7
 10
32.2533135831359
 20
9.3656303808865
 30
0.0
 11
16.5033138513568
 21
9.3656303808865
 31
0.0
  0
LINE
  5
   77A
  8
0
  6
DOT
 62
     7
 10
32.2533135831359
 20
5.86563444592343
 30
0.0
 11
16.5033138513568
 21
5.86563444592343
 31
0.0
  0
LINE
  5
   77B
  8
0
  6
DOT
 62
     7
 10
32.2533135831359
 20
-63.4343683793369
 30
0.0
 11
16.5033138513568
 21
-63.4343683793369
 31
0.0
  0
LINE
  5
   77C
  8
0
  6
DOT
 62
     7
 10
32.2533135831359
 20
-66.9343683197322
 30
0.0
 11
16.5033138513568
 21
-66.9343683197322
 31
0.0
  0
LINE
  5
   77D
  8
0
  6
DOT
 62
     7
 10
-68.6836192009028
 20
0.79062919177386
 30
0.0
 11
-73.971672591567
 21
0.79062919177386
 31
0.0
  0
LINE
  5
   77E
  8
0
  6
DOT
 62
     7
 10
-73.971672591567
 20
-48.2093686386171
 30
0.0
 11
-73.971672591567
 21
0.79062919177386
 31
0.0
  0
LINE
  5
   77F
  8
0
  6
DOT
 62
     7
 10
-68.1966453194622
 20
-48.2093686386171
 30
0.0
 11
-73.971672591567
 21
-48.2093686386171
 31
0.0
  0
LINE
  5
   780
  8
0
  6
CONTINUOUS
 62
     3
 10
-45.5658901893567
 20
-85.894301067969
 30
0.0
 11
-64.1989864489625
 21
-85.894301067969
 31
0.0
  0
LINE
  5
   781
  8
0
  6
CONTINUOUS
 62
     7
 10
9.3283139735463
 20
-51.1843672528091
 30
0.0
 11
9.3283139735463
 21
-48.3843673004928
 31
0.0
  0
LINE
  5
   782
  8
0
  6
CONTINUOUS
 62
     7
 10
9.3283139735463
 20
-6.38437068603662
 30
0.0
 11
5.12831404507187
 21
-6.38437068603662
 31
0.0
  0
LINE
  5
   783
  8
0
  6
CONTINUOUS
 62
     7
 10
9.3283139735463
 20
-9.1843706383529
 30
0.0
 11
5.12831404507187
 21
-9.1843706383529
 31
0.0
  0
LINE
  5
   784
  8
0
  6
CONTINUOUS
 62
     7
 10
9.3283139735463
 20
-48.3843673004928
 30
0.0
 11
5.12831404507187
 21
-48.3843673004928
 31
0.0
  0
LINE
  5
   785
  8
0
  6
CONTINUOUS
 62
     7
 10
9.3283139735463
 20
-51.1843672528091
 30
0.0
 11
5.12831404507187
 21
-51.1843672528091
 31
0.0
  0
LINE
  5
   786
  8
0
  6
CONTINUOUS
 62
     7
 10
9.3283139735463
 20
-9.1843706383529
 30
0.0
 11
9.3283139735463
 21
-6.38437068603662
 31
0.0
  0
TEXT
  5
   787
  8
0
  6
CONTINUOUS
 62
     1
 10
-61.0604240842561
 20
-89.1538749836837
 30
0.0
 40
2.00000003448554
  1
ISOLATING DISTANCE
 50
359.999999948034
 41
0.749999888539317
 72
     1
 11
-47.7104258356136
 21
-88.1538749784819
 31
0.0
 73
     2
  0
INSERT
  5
   788
  8
0
  6
CONTINUOUS
 62
     7
  2
*UDIM1555
 10
0.0
 20
0.0
 30
0.0
  0
INSERT
  5
   789
  8
0
  6
CONTINUOUS
 62
     7
  2
*UDIM1556
 10
0.0
 20
0.0
 30
0.0
  0
TEXT
  5
   78A
  8
0
  6
CONTINUOUS
 62
     1
 10
-60.5272248788504
 20
-85.0153228139474
 30
0.0
 40
2.00000003448554
  1
CORSA DI
 50
359.999999948034
 41
0.749999888539317
  0
TEXT
  5
   78B
  8
0
  6
CONTINUOUS
 62
     1
 10
-48.5272264604809
 20
-85.0153234990194
 30
0.0
 40
2.00000003448554
  1
 SEZIONAMENTO
 50
359.999999948034
 41
0.749999888539317
  0
INSERT
  5
   78C
  8
0
  6
CONTINUOUS
 62
     7
  2
*UDIM1557
 10
0.0
 20
0.0
 30
0.0
  0
INSERT
  5
   78D
  8
0
  6
CONTINUOUS
 62
     7
  2
*UDIM1558
 10
0.0
 20
0.0
 30
0.0
  0
INSERT
  5
   78E
  8
0
  6
CONTINUOUS
 62
     7
  2
*UDIM1559
 10
0.0
 20
0.0
 30
0.0
  0
INSERT
  5
   78F
  8
0
  6
CONTINUOUS
 62
     7
  2
*UDIM1560
 10
0.0
 20
0.0
 30
0.0
  0
INSERT
  5
   790
  8
0
  6
CONTINUOUS
 62
     7
  2
*UDIM1561
 10
0.0
 20
0.0
 30
0.0
  0
INSERT
  5
   791
  8
0
  6
CONTINUOUS
 62
     7
  2
*UDIM1562
 10
0.0
 20
0.0
 30
0.0
  0
INSERT
  5
   792
  8
0
  6
CONTINUOUS
 62
     7
  2
*UDIM1563
 10
0.0
 20
0.0
 30
0.0
  0
INSERT
  5
   793
  8
0
  6
CONTINUOUS
 62
     7
  2
*UDIM1564
 10
0.0
 20
0.0
 30
0.0
  0
INSERT
  5
   794
  8
0
  6
CONTINUOUS
 62
     7
  2
*UDIM1565
 10
0.0
 20
0.0
 30
0.0
  0
INSERT
  5
   795
  8
0
  6
CONTINUOUS
 62
     7
  2
*UDIM1566
 10
0.0
 20
0.0
 30
0.0
  0
INSERT
  5
   796
  8
0
  6
CONTINUOUS
 62
     7
  2
*UDIM1567
 10
0.0
 20
0.0
 30
0.0
  0
INSERT
  5
   797
  8
0
  6
CONTINUOUS
 62
     7
  2
*UDIM1568
 10
0.0
 20
0.0
 30
0.0
  0
INSERT
  5
   798
  8
0
  6
CONTINUOUS
 62
     7
  2
*UDIM1569
 10
0.0
 20
0.0
 30
0.0
  0
TEXT
  5
   799
  8
0
  6
CONTINUOUS
 62
     7
 10
-82.2806036247351
 20
-41.4988904553207
 30
0.0
 40
2.99999997871263
  1
=          =
 50
89.9999999480344
 41
0.91666663951344
 72
     2
 11
-82.2806035953447
 21
-9.04889163031273
 31
0.0
  0
TEXT
  5
   79A
  8
0
  6
CONTINUOUS
 62
     7
 10
39.1329545560232
 20
-24.6189425222364
 30
0.0
 40
2.99999997871263
  1
X
 50
359.999999948034
 41
0.91666663951344
 72
     2
 11
41.3329544917353
 21
-24.6189425242207
 31
0.0
  0
TEXT
  5
   79B
  8
0
  6
CONTINUOUS
 62
     7
 10
-93.3843058367574
 20
-23.4289126352759
 30
0.0
 40
2.99999997871263
  1
X
 50
359.999999948034
 41
0.91666663951344
 72
     2
 11
-91.1843059010453
 21
-23.4289126372602
 31
0.0
  0
INSERT
  5
   79C
  8
0
  6
CONTINUOUS
 62
     7
  2
*UDIM1570
 10
0.0
 20
0.0
 30
0.0
  0
INSERT
  5
   79D
  8
0
  6
CONTINUOUS
 62
     7
  2
*UDIM1571
 10
0.0
 20
0.0
 30
0.0
  0
ENDSEC
  0
EOF
