  0
SECTION
  2
HEADER
  9
$ACADVER
  1
AC1015
  9
$ACADMAINTVER
 70
    13
  9
$DWGCODEPAGE
  3
ANSI_1252
  9
$INSBASE
 10
0.0
 20
0.0
 30
0.0
  9
$EXTMIN
 10
0.5794608709704362
 20
0.5791515336964367
 30
0.0
  9
$EXTMAX
 10
392.5794608709704
 20
263.0791515336964
 30
0.0
  9
$LIMMIN
 10
0.0
 20
0.0
  9
$LIMMAX
 10
12.0
 20
9.0
  9
$ORTHOMODE
 70
     1
  9
$REGENMODE
 70
     1
  9
$FILLMODE
 70
     1
  9
$QTEXTMODE
 70
     0
  9
$MIRRTEXT
 70
     1
  9
$LTSCALE
 40
5.0
  9
$ATTMODE
 70
     1
  9
$TEXTSIZE
 40
2.5
  9
$TRACEWID
 40
0.05
  9
$TEXTSTYLE
  7
ROMANS
  9
$CLAYER
  8
0
  9
$CELTYPE
  6
CONTINUOUS
  9
$CECOLOR
 62
   256
  9
$CELTSCALE
 40
1.0
  9
$DISPSILH
 70
     0
  9
$DIMSCALE
 40
1.0
  9
$DIMASZ
 40
0.18
  9
$DIMEXO
 40
0.0625
  9
$DIMDLI
 40
0.38
  9
$DIMRND
 40
0.0
  9
$DIMDLE
 40
0.0
  9
$DIMEXE
 40
0.18
  9
$DIMTP
 40
0.0
  9
$DIMTM
 40
0.0
  9
$DIMTXT
 40
0.18
  9
$DIMCEN
 40
0.09
  9
$DIMTSZ
 40
0.0
  9
$DIMTOL
 70
     0
  9
$DIMLIM
 70
     0
  9
$DIMTIH
 70
     1
  9
$DIMTOH
 70
     1
  9
$DIMSE1
 70
     0
  9
$DIMSE2
 70
     0
  9
$DIMTAD
 70
     0
  9
$DIMZIN
 70
     0
  9
$DIMBLK
  1

  9
$DIMASO
 70
     1
  9
$DIMSHO
 70
     1
  9
$DIMPOST
  1

  9
$DIMAPOST
  1

  9
$DIMALT
 70
     0
  9
$DIMALTD
 70
     2
  9
$DIMALTF
 40
25.4
  9
$DIMLFAC
 40
1.0
  9
$DIMTOFL
 70
     0
  9
$DIMTVP
 40
0.0
  9
$DIMTIX
 70
     0
  9
$DIMSOXD
 70
     0
  9
$DIMSAH
 70
     0
  9
$DIMBLK1
  1

  9
$DIMBLK2
  1

  9
$DIMSTYLE
  2
Standard
  9
$DIMCLRD
 70
     0
  9
$DIMCLRE
 70
     0
  9
$DIMCLRT
 70
     0
  9
$DIMTFAC
 40
1.0
  9
$DIMGAP
 40
0.09
  9
$DIMJUST
 70
     0
  9
$DIMSD1
 70
     0
  9
$DIMSD2
 70
     0
  9
$DIMTOLJ
 70
     1
  9
$DIMTZIN
 70
     0
  9
$DIMALTZ
 70
     0
  9
$DIMALTTZ
 70
     0
  9
$DIMUPT
 70
     0
  9
$DIMDEC
 70
     4
  9
$DIMTDEC
 70
     4
  9
$DIMALTU
 70
     2
  9
$DIMALTTD
 70
     2
  9
$DIMTXSTY
  7
STANDARD
  9
$DIMAUNIT
 70
     0
  9
$DIMADEC
 70
     0
  9
$DIMALTRND
 40
0.0
  9
$DIMAZIN
 70
     0
  9
$DIMDSEP
 70
    46
  9
$DIMATFIT
 70
     3
  9
$DIMFRAC
 70
     0
  9
$DIMLDRBLK
  1

  9
$DIMLUNIT
 70
     2
  9
$DIMLWD
 70
    -2
  9
$DIMLWE
 70
    -2
  9
$DIMTMOVE
 70
     2
  9
$LUNITS
 70
     2
  9
$LUPREC
 70
     4
  9
$SKETCHINC
 40
0.1
  9
$FILLETRAD
 40
1.5
  9
$AUNITS
 70
     0
  9
$AUPREC
 70
     0
  9
$MENU
  1
C:\ACADWIN\SUPPORT\ACAD_2
  9
$ELEVATION
 40
0.0
  9
$PELEVATION
 40
0.0
  9
$THICKNESS
 40
0.0
  9
$LIMCHECK
 70
     0
  9
$CHAMFERA
 40
0.0
  9
$CHAMFERB
 40
0.0
  9
$CHAMFERC
 40
0.0
  9
$CHAMFERD
 40
0.0
  9
$SKPOLY
 70
     0
  9
$TDCREATE
 40
2450482.368834837
  9
$TDUCREATE
 40
2450482.243834837
  9
$TDUPDATE
 40
2453201.633339965
  9
$TDUUPDATE
 40
2453201.508339965
  9
$TDINDWG
 40
0.0001287616
  9
$TDUSRTIMER
 40
0.0001287616
  9
$USRTIMER
 70
     1
  9
$ANGBASE
 50
0.0
  9
$ANGDIR
 70
     0
  9
$PDMODE
 70
     0
  9
$PDSIZE
 40
0.0
  9
$PLINEWID
 40
0.0
  9
$SPLFRAME
 70
     0
  9
$SPLINETYPE
 70
     6
  9
$SPLINESEGS
 70
     8
  9
$HANDSEED
  5
853
  9
$SURFTAB1
 70
   100
  9
$SURFTAB2
 70
   100
  9
$SURFTYPE
 70
     6
  9
$SURFU
 70
     6
  9
$SURFV
 70
     6
  9
$UCSBASE
  2

  9
$UCSNAME
  2

  9
$UCSORG
 10
0.0
 20
0.0
 30
0.0
  9
$UCSXDIR
 10
1.0
 20
0.0
 30
0.0
  9
$UCSYDIR
 10
0.0
 20
1.0
 30
0.0
  9
$UCSORTHOREF
  2

  9
$UCSORTHOVIEW
 70
     0
  9
$UCSORGTOP
 10
0.0
 20
0.0
 30
0.0
  9
$UCSORGBOTTOM
 10
0.0
 20
0.0
 30
0.0
  9
$UCSORGLEFT
 10
0.0
 20
0.0
 30
0.0
  9
$UCSORGRIGHT
 10
0.0
 20
0.0
 30
0.0
  9
$UCSORGFRONT
 10
0.0
 20
0.0
 30
0.0
  9
$UCSORGBACK
 10
0.0
 20
0.0
 30
0.0
  9
$PUCSBASE
  2

  9
$PUCSNAME
  2

  9
$PUCSORG
 10
0.0
 20
0.0
 30
0.0
  9
$PUCSXDIR
 10
1.0
 20
0.0
 30
0.0
  9
$PUCSYDIR
 10
0.0
 20
1.0
 30
0.0
  9
$PUCSORTHOREF
  2

  9
$PUCSORTHOVIEW
 70
     0
  9
$PUCSORGTOP
 10
0.0
 20
0.0
 30
0.0
  9
$PUCSORGBOTTOM
 10
0.0
 20
0.0
 30
0.0
  9
$PUCSORGLEFT
 10
0.0
 20
0.0
 30
0.0
  9
$PUCSORGRIGHT
 10
0.0
 20
0.0
 30
0.0
  9
$PUCSORGFRONT
 10
0.0
 20
0.0
 30
0.0
  9
$PUCSORGBACK
 10
0.0
 20
0.0
 30
0.0
  9
$USERI1
 70
     0
  9
$USERI2
 70
     0
  9
$USERI3
 70
     0
  9
$USERI4
 70
     0
  9
$USERI5
 70
     0
  9
$USERR1
 40
0.0
  9
$USERR2
 40
0.0
  9
$USERR3
 40
0.0
  9
$USERR4
 40
0.0
  9
$USERR5
 40
0.0
  9
$WORLDVIEW
 70
     1
  9
$SHADEDGE
 70
     3
  9
$SHADEDIF
 70
    70
  9
$TILEMODE
 70
     1
  9
$MAXACTVP
 70
    16
  9
$PINSBASE
 10
0.0
 20
0.0
 30
0.0
  9
$PLIMCHECK
 70
     0
  9
$PEXTMIN
 10
1.000000000000000E+20
 20
1.000000000000000E+20
 30
1.000000000000000E+20
  9
$PEXTMAX
 10
-1.000000000000000E+20
 20
-1.000000000000000E+20
 30
-1.000000000000000E+20
  9
$PLIMMIN
 10
0.0
 20
0.0
  9
$PLIMMAX
 10
12.0
 20
9.0
  9
$UNITMODE
 70
     0
  9
$VISRETAIN
 70
     0
  9
$PLINEGEN
 70
     0
  9
$PSLTSCALE
 70
     0
  9
$TREEDEPTH
 70
  3020
  9
$CMLSTYLE
  2
Standard
  9
$CMLJUST
 70
     0
  9
$CMLSCALE
 40
1.0
  9
$PROXYGRAPHICS
 70
     1
  9
$MEASUREMENT
 70
     0
  9
$CELWEIGHT
370
    -1
  9
$ENDCAPS
280
     0
  9
$JOINSTYLE
280
     0
  9
$LWDISPLAY
290
     0
  9
$INSUNITS
 70
     0
  9
$HYPERLINKBASE
  1

  9
$STYLESHEET
  1

  9
$XEDIT
290
     1
  9
$CEPSNTYPE
380
     0
  9
$PSTYLEMODE
290
     1
  9
$FINGERPRINTGUID
  2
{7F99F6A8-4231-4918-B761-4138CC66E025}
  9
$VERSIONGUID
  2
{F7D2C4C8-6111-47A2-8B6A-3173C1F5514A}
  9
$EXTNAMES
290
     1
  9
$PSVPSCALE
 40
0.0
  9
$OLESTARTUP
290
     0
  0
ENDSEC
  0
SECTION
  2
CLASSES
  0
CLASS
  1
ACDBDICTIONARYWDFLT
  2
AcDbDictionaryWithDefault
  3
AutoCAD 2000
 90
        0
280
     0
281
     0
  0
CLASS
  1
ACDBPLACEHOLDER
  2
AcDbPlaceHolder
  3
AutoCAD 2000
 90
        0
280
     0
281
     0
  0
CLASS
  1
LAYOUT
  2
AcDbLayout
  3
AutoCAD 2000
 90
        0
280
     0
281
     0
  0
CLASS
  1
DICTIONARYVAR
  2
AcDbDictionaryVar
  3
AutoCAD 2000
 90
        0
280
     0
281
     0
  0
ENDSEC
  0
SECTION
  2
TABLES
  0
TABLE
  2
VPORT
  5
8
330
0
100
AcDbSymbolTable
 70
     3
  0
VPORT
  5
852
330
8
100
AcDbSymbolTableRecord
100
AcDbViewportTableRecord
  2
*Active
 70
     0
 10
0.0
 20
0.0
 11
1.0
 21
1.0
 12
238.9550980629424
 22
131.5395757668482
 13
0.0
 23
0.0
 14
2.5
 24
2.5
 15
0.0
 25
0.0
 16
0.0
 26
0.0
 36
1.0
 17
0.0
 27
0.0
 37
0.0
 40
263.0791515336964
 41
1.816602316602316
 42
50.0
 43
0.0
 44
0.0
 50
0.0
 51
0.0
 71
     0
 72
   100
 73
     1
 74
     0
 75
     0
 76
     0
 77
     0
 78
     0
281
     0
 65
     1
110
0.0
120
0.0
130
0.0
111
1.0
121
0.0
131
0.0
112
0.0
122
1.0
132
0.0
 79
     0
146
0.0
  0
ENDTAB
  0
TABLE
  2
LTYPE
  5
5
330
0
100
AcDbSymbolTable
 70
     4
  0
LTYPE
  5
13
330
5
100
AcDbSymbolTableRecord
100
AcDbLinetypeTableRecord
  2
ByBlock
 70
     0
  3

 72
    65
 73
     0
 40
0.0
  0
LTYPE
  5
14
330
5
100
AcDbSymbolTableRecord
100
AcDbLinetypeTableRecord
  2
ByLayer
 70
     0
  3

 72
    65
 73
     0
 40
0.0
  0
LTYPE
  5
15
330
5
100
AcDbSymbolTableRecord
100
AcDbLinetypeTableRecord
  2
CONTINUOUS
 70
     0
  3
Solid line
 72
    65
 73
     0
 40
0.0
  0
LTYPE
  5
3C
330
5
100
AcDbSymbolTableRecord
100
AcDbLinetypeTableRecord
  2
DASHED
 70
     0
  3
__ __ __ __ __ __ __ __ __ __ __ __ __ __ __ __
 72
    65
 73
     2
 40
0.75
 49
0.5
 74
     0
 49
-0.25
 74
     0
  0
LTYPE
  5
3D
330
5
100
AcDbSymbolTableRecord
100
AcDbLinetypeTableRecord
  2
CENTER
 70
     0
  3
____ _ ____ _ ____ _ ____ _ ____ _ ____ _ ____ 
 72
    65
 73
     4
 40
2.0
 49
1.25
 74
     0
 49
-0.25
 74
     0
 49
0.25
 74
     0
 49
-0.25
 74
     0
  0
LTYPE
  5
3E
330
5
100
AcDbSymbolTableRecord
100
AcDbLinetypeTableRecord
  2
HIDDEN
 70
     0
  3
__ __ __ __ __ __ __ __ __ __ __ __ __ __ __ __
 72
    65
 73
     2
 40
0.375
 49
0.25
 74
     0
 49
-0.125
 74
     0
  0
ENDTAB
  0
TABLE
  2
LAYER
  5
2
330
0
100
AcDbSymbolTable
 70
    13
  0
LAYER
  5
10
330
2
100
AcDbSymbolTableRecord
100
AcDbLayerTableRecord
  2
0
 70
     0
 62
     7
  6
CONTINUOUS
370
    -3
390
F
  0
LAYER
  5
42
330
2
100
AcDbSymbolTableRecord
100
AcDbLayerTableRecord
  2
RAAMI
 70
     0
 62
     4
  6
CONTINUOUS
370
    -3
390
F
  0
LAYER
  5
43
330
2
100
AcDbSymbolTableRecord
100
AcDbLayerTableRecord
  2
PAKSU
 70
     0
 62
     3
  6
CONTINUOUS
370
    -3
390
F
  0
LAYER
  5
44
330
2
100
AcDbSymbolTableRecord
100
AcDbLayerTableRecord
  2
OHUT
 70
     0
 62
     6
  6
CONTINUOUS
370
    -3
390
F
  0
LAYER
  5
45
330
2
100
AcDbSymbolTableRecord
100
AcDbLayerTableRecord
  2
SWEDEN
 70
     0
 62
     7
  6
CONTINUOUS
370
    -3
390
F
  0
LAYER
  5
46
330
2
100
AcDbSymbolTableRecord
100
AcDbLayerTableRecord
  2
SWEDEN2
 70
     0
 62
     5
  6
CONTINUOUS
370
    -3
390
F
  0
LAYER
  5
47
330
2
100
AcDbSymbolTableRecord
100
AcDbLayerTableRecord
  2
BASE
 70
     0
 62
     7
  6
CONTINUOUS
370
    -3
390
F
  0
LAYER
  5
48
330
2
100
AcDbSymbolTableRecord
100
AcDbLayerTableRecord
  2
21
 70
     0
 62
     2
  6
CONTINUOUS
370
    -3
390
F
  0
LAYER
  5
49
330
2
100
AcDbSymbolTableRecord
100
AcDbLayerTableRecord
  2
HEL035
 70
     0
 62
     7
  6
CONTINUOUS
370
    -3
390
F
  0
LAYER
  5
4A
330
2
100
AcDbSymbolTableRecord
100
AcDbLayerTableRecord
  2
MUO
 70
     0
 62
     7
  6
CONTINUOUS
370
    -3
390
F
  0
LAYER
  5
4B
330
2
100
AcDbSymbolTableRecord
100
AcDbLayerTableRecord
  2
1
 70
     0
 62
     2
  6
CONTINUOUS
370
    -3
390
F
  0
LAYER
  5
4C
330
2
100
AcDbSymbolTableRecord
100
AcDbLayerTableRecord
  2
BASE1
 70
     0
 62
     5
  6
CONTINUOUS
370
    -3
390
F
  0
LAYER
  5
4D
330
2
100
AcDbSymbolTableRecord
100
AcDbLayerTableRecord
  2
TEKS
 70
     0
 62
     5
  6
CONTINUOUS
370
    -3
390
F
  0
ENDTAB
  0
TABLE
  2
STYLE
  5
3
330
0
100
AcDbSymbolTable
 70
     3
  0
STYLE
  5
11
330
3
100
AcDbSymbolTableRecord
100
AcDbTextStyleTableRecord
  2
STANDARD
 70
     0
 40
0.0
 41
1.0
 50
0.0
 71
     0
 42
2.0
  3
txt
  4

  0
STYLE
  5
3A
330
3
100
AcDbSymbolTableRecord
100
AcDbTextStyleTableRecord
  2
ROMANS
 70
     0
 40
0.0
 41
1.0
 50
0.0
 71
     0
 42
2.5
  3
romans
  4

  0
STYLE
  5
3B
330
3
100
AcDbSymbolTableRecord
100
AcDbTextStyleTableRecord
  2
GREEKS
 70
     0
 40
0.0
 41
1.0
 50
0.0
 71
     0
 42
3.0
  3
TXT
  4

  0
ENDTAB
  0
TABLE
  2
VIEW
  5
6
330
0
100
AcDbSymbolTable
 70
     0
  0
ENDTAB
  0
TABLE
  2
UCS
  5
7
330
0
100
AcDbSymbolTable
 70
     0
  0
ENDTAB
  0
TABLE
  2
APPID
  5
9
330
0
100
AcDbSymbolTable
 70
     1
  0
APPID
  5
12
330
9
100
AcDbSymbolTableRecord
100
AcDbRegAppTableRecord
  2
ACAD
 70
     0
  0
ENDTAB
  0
TABLE
  2
DIMSTYLE
  5
A
330
0
100
AcDbSymbolTable
 70
     1
100
AcDbDimStyleTable
 71
     0
  0
DIMSTYLE
105
84D
330
A
100
AcDbSymbolTableRecord
100
AcDbDimStyleTableRecord
  2
Standard
 70
     0
340
11
  0
ENDTAB
  0
TABLE
  2
BLOCK_RECORD
  5
1
330
0
100
AcDbSymbolTable
 70
    24
  0
BLOCK_RECORD
  5
1E
330
1
100
AcDbSymbolTableRecord
100
AcDbBlockTableRecord
  2
*Model_Space
340
21
  0
BLOCK_RECORD
  5
1A
330
1
100
AcDbSymbolTableRecord
100
AcDbBlockTableRecord
  2
*Paper_Space
340
1D
  0
BLOCK_RECORD
  5
22
330
1
100
AcDbSymbolTableRecord
100
AcDbBlockTableRecord
  2
1
340
0
102
{BLKREFS
331
2C0
331
2C1
331
2C2
102
}
  0
BLOCK_RECORD
  5
23
330
1
100
AcDbSymbolTableRecord
100
AcDbBlockTableRecord
  2
BLC16
340
0
  0
BLOCK_RECORD
  5
24
330
1
100
AcDbSymbolTableRecord
100
AcDbBlockTableRecord
  2
BLC27
340
0
  0
BLOCK_RECORD
  5
25
330
1
100
AcDbSymbolTableRecord
100
AcDbBlockTableRecord
  2
BLC26
340
0
102
{BLKREFS
331
7D
102
}
  0
BLOCK_RECORD
  5
26
330
1
100
AcDbSymbolTableRecord
100
AcDbBlockTableRecord
  2
BLC28
340
0
  0
BLOCK_RECORD
  5
27
330
1
100
AcDbSymbolTableRecord
100
AcDbBlockTableRecord
  2
BLC22
340
0
  0
BLOCK_RECORD
  5
28
330
1
100
AcDbSymbolTableRecord
100
AcDbBlockTableRecord
  2
BLC18
340
0
  0
BLOCK_RECORD
  5
29
330
1
100
AcDbSymbolTableRecord
100
AcDbBlockTableRecord
  2
BLC29
340
0
  0
BLOCK_RECORD
  5
2A
330
1
100
AcDbSymbolTableRecord
100
AcDbBlockTableRecord
  2
WKU130
340
0
  0
BLOCK_RECORD
  5
2B
330
1
100
AcDbSymbolTableRecord
100
AcDbBlockTableRecord
  2
BLC15
340
0
  0
BLOCK_RECORD
  5
2C
330
1
100
AcDbSymbolTableRecord
100
AcDbBlockTableRecord
  2
BLC5
340
0
  0
BLOCK_RECORD
  5
2D
330
1
100
AcDbSymbolTableRecord
100
AcDbBlockTableRecord
  2
BLC57
340
0
  0
BLOCK_RECORD
  5
2E
330
1
100
AcDbSymbolTableRecord
100
AcDbBlockTableRecord
  2
BLC25
340
0
  0
BLOCK_RECORD
  5
2F
330
1
100
AcDbSymbolTableRecord
100
AcDbBlockTableRecord
  2
*X13
340
0
102
{BLKREFS
331
3B3
102
}
  0
BLOCK_RECORD
  5
30
330
1
100
AcDbSymbolTableRecord
100
AcDbBlockTableRecord
  2
ABBA3V
340
0
  0
BLOCK_RECORD
  5
31
330
1
100
AcDbSymbolTableRecord
100
AcDbBlockTableRecord
  2
*X15
340
0
102
{BLKREFS
331
112
331
80C
102
}
  0
BLOCK_RECORD
  5
32
330
1
100
AcDbSymbolTableRecord
100
AcDbBlockTableRecord
  2
*X16
340
0
102
{BLKREFS
331
113
331
80D
102
}
  0
BLOCK_RECORD
  5
33
330
1
100
AcDbSymbolTableRecord
100
AcDbBlockTableRecord
  2
*X17
340
0
102
{BLKREFS
331
114
331
80E
102
}
  0
BLOCK_RECORD
  5
34
330
1
100
AcDbSymbolTableRecord
100
AcDbBlockTableRecord
  2
*X18
340
0
102
{BLKREFS
331
115
331
80F
102
}
  0
BLOCK_RECORD
  5
35
330
1
100
AcDbSymbolTableRecord
100
AcDbBlockTableRecord
  2
*X19
340
0
102
{BLKREFS
331
127
331
12E
331
821
331
828
102
}
  0
BLOCK_RECORD
  5
36
330
1
100
AcDbSymbolTableRecord
100
AcDbBlockTableRecord
  2
*X20
340
0
102
{BLKREFS
331
128
331
12D
331
822
331
827
102
}
  0
BLOCK_RECORD
  5
37
330
1
100
AcDbSymbolTableRecord
100
AcDbBlockTableRecord
  2
*X21
340
0
102
{BLKREFS
331
129
331
12C
331
823
331
826
102
}
  0
BLOCK_RECORD
  5
38
330
1
100
AcDbSymbolTableRecord
100
AcDbBlockTableRecord
  2
*X22
340
0
102
{BLKREFS
331
12A
331
12B
331
824
331
825
102
}
  0
BLOCK_RECORD
  5
39
330
1
100
AcDbSymbolTableRecord
100
AcDbBlockTableRecord
  2
MAA
340
0
102
{BLKREFS
331
7DD
331
7DE
331
7DF
331
7E0
102
}
  0
ENDTAB
  0
ENDSEC
  0
SECTION
  2
BLOCKS
  0
BLOCK
  5
50
330
1E
100
AcDbEntity
  8
0
100
AcDbBlockBegin
  2
*Model_Space
 70
     0
 10
0.0
 20
0.0
 30
0.0
  3
*Model_Space
  1

  0
ENDBLK
  5
51
330
1E
100
AcDbEntity
  8
0
100
AcDbBlockEnd
  0
BLOCK
  5
4E
330
1A
100
AcDbEntity
 67
     1
  8
0
100
AcDbBlockBegin
  2
*Paper_Space
 70
     0
 10
0.0
 20
0.0
 30
0.0
  3
*Paper_Space
  1

  0
ENDBLK
  5
4F
330
1A
100
AcDbEntity
 67
     1
  8
0
100
AcDbBlockEnd
  0
BLOCK
  5
52
330
22
100
AcDbEntity
  8
0
100
AcDbBlockBegin
  2
1
 70
     0
 10
0.0
 20
0.0
 30
0.0
  3
1
  1

  0
ENDBLK
  5
53
330
22
100
AcDbEntity
  8
0
100
AcDbBlockEnd
  0
BLOCK
  5
54
330
23
100
AcDbEntity
  8
0
100
AcDbBlockBegin
  2
BLC16
 70
     0
 10
0.0
 20
0.0
 30
0.0
  3
BLC16
  1

  0
LINE
  5
55
330
23
100
AcDbEntity
  8
0
  6
Continuous
100
AcDbLine
 10
0.007688543809266
 20
38.05492790713048
 30
0.0
 11
19.98368297262045
 21
38.05492790713048
 31
0.0
  0
LINE
  5
56
330
23
100
AcDbEntity
  8
0
  6
Continuous
100
AcDbLine
 10
19.98368297262045
 20
38.05492790713048
 30
0.0
 11
19.98368297262045
 21
-0.0037506651295445
 31
0.0
  0
LINE
  5
57
330
23
100
AcDbEntity
  8
0
  6
Continuous
100
AcDbLine
 10
19.98368297262045
 20
-0.0037506651295445
 30
0.0
 11
0.007688543809266
 21
-0.0037506651295445
 31
0.0
  0
LINE
  5
58
330
23
100
AcDbEntity
  8
0
  6
Continuous
100
AcDbLine
 10
0.007688543809266
 20
-0.0037506651295445
 30
0.0
 11
0.007688543809266
 21
38.05492790713048
 31
0.0
  0
LINE
  5
59
330
23
100
AcDbEntity
  8
0
  6
Continuous
100
AcDbLine
 10
14.15264305765733
 20
36.91973811995545
 30
0.0
 11
14.15264305765733
 21
33.52846854603386
 31
0.0
  0
LINE
  5
5A
330
23
100
AcDbEntity
  8
0
  6
Continuous
100
AcDbLine
 10
14.15264305765733
 20
33.52846854603386
 30
0.0
 11
11.56043525426407
 21
33.52846854603386
 31
0.0
  0
LINE
  5
5B
330
23
100
AcDbEntity
  8
0
  6
Continuous
100
AcDbLine
 10
11.56043525426407
 20
33.52846854603386
 30
0.0
 11
11.56043525426407
 21
30.77843318004674
 31
0.0
  0
LINE
  5
5C
330
23
100
AcDbEntity
  8
0
  6
Continuous
100
AcDbLine
 10
11.56043525426407
 20
30.77843318004674
 30
0.0
 11
14.15264305765733
 21
30.77843318004674
 31
0.0
  0
LINE
  5
5D
330
23
100
AcDbEntity
  8
0
  6
Continuous
100
AcDbLine
 10
14.15264305765733
 20
30.77843318004674
 30
0.0
 11
14.15264305765733
 21
27.3871636061251
 31
0.0
  0
TEXT
  5
5E
330
23
100
AcDbEntity
  8
0
  6
Continuous
100
AcDbText
 10
6.558569492786901
 20
30.80526575700884
 30
0.0
 40
2.5
  1
2
 11
6.558569492786901
 21
29.97193242367551
 31
0.0
100
AcDbText
 73
     1
  0
TEXT
  5
60
330
23
100
AcDbEntity
  8
0
  6
Continuous
100
AcDbText
 10
6.553289092987213
 20
23.85407765705549
 30
0.0
 40
2.5
  1
2 I
 11
6.553289092987213
 21
23.02074432372215
 31
0.0
100
AcDbText
 73
     1
  0
LINE
  5
61
330
23
100
AcDbEntity
  8
0
  6
Continuous
100
AcDbLine
 10
12.94253367881567
 20
26.35912860214402
 30
0.0
 11
15.2882991910413
 21
25.02377489077527
 31
0.0
  0
LINE
  5
62
330
23
100
AcDbEntity
  8
0
  6
Continuous
100
AcDbLine
 10
15.2882991910413
 20
25.02377489077527
 30
0.0
 11
12.94253367881567
 21
23.83385574203085
 31
0.0
  0
LINE
  5
63
330
23
100
AcDbEntity
  8
0
  6
Continuous
100
AcDbLine
 10
14.16982338783971
 20
26.35912860214402
 30
0.0
 11
16.51558890006533
 21
25.02377489077527
 31
0.0
  0
LINE
  5
64
330
23
100
AcDbEntity
  8
0
  6
Continuous
100
AcDbLine
 10
16.51558890006533
 20
25.02377489077527
 30
0.0
 11
14.16982338783971
 21
23.83385574203085
 31
0.0
  0
TEXT
  5
65
330
23
100
AcDbEntity
  8
0
  6
Continuous
100
AcDbText
 10
11.56644561204224
 20
19.2356793808035
 30
0.0
 40
2.5
  1
I
 11
11.56644561204224
 21
18.40234604747017
 31
0.0
100
AcDbText
 73
     1
  0
TEXT
  5
66
330
23
100
AcDbEntity
  8
0
  6
Continuous
100
AcDbText
 10
13.01818129898113
 20
18.90234604747017
 30
0.0
 40
1.5
  1
2
 11
13.01818129898113
 21
18.40234604747017
 31
0.0
100
AcDbText
 73
     1
  0
LINE
  5
67
330
23
100
AcDbEntity
  8
0
  6
Continuous
100
AcDbLine
 10
10.65732992648723
 20
12.77382488441155
 30
0.0
 11
13.00309543871283
 21
13.96374403315597
 31
0.0
  0
LINE
  5
68
330
23
100
AcDbEntity
  8
0
  6
Continuous
100
AcDbLine
 10
13.00309543871283
 20
11.43847117304277
 30
0.0
 11
10.65732992648723
 21
12.77382488441155
 31
0.0
  0
LINE
  5
69
330
23
100
AcDbEntity
  8
0
  6
Continuous
100
AcDbLine
 10
6.557002402835379
 20
16.71465824609843
 30
0.0
 11
15.28174286348452
 21
16.71465824609843
 31
0.0
  0
LINE
  5
6A
330
23
100
AcDbEntity
  8
0
  6
Continuous
100
AcDbLine
 10
6.557002402835379
 20
17.52398388997782
 30
0.0
 11
6.557002402835379
 21
15.90879125881686
 31
0.0
  0
LINE
  5
6B
330
23
100
AcDbEntity
  8
0
  6
Continuous
100
AcDbLine
 10
15.28651830982313
 20
17.52398388997782
 30
0.0
 11
15.28651830982313
 21
15.90879125881686
 31
0.0
  0
ARC
  5
6C
330
23
100
AcDbEntity
  8
0
  6
Continuous
100
AcDbCircle
 10
12.68484626207323
 20
18.50804481635963
 30
0.0
 40
2.922744400799075
100
AcDbArc
 50
193.1055130667446
 51
283.1055130667446
  0
TEXT
  5
6D
330
23
100
AcDbEntity
  8
0
  6
Continuous
100
AcDbText
 10
6.557002402835379
 20
11.5679743218787
 30
0.0
 40
2.5
  1
2I
 11
6.557002402835379
 21
10.73464098854536
 31
0.0
100
AcDbText
 73
     1
  0
LINE
  5
6E
330
23
100
AcDbEntity
  8
0
  6
Continuous
100
AcDbLine
 10
6.557002402835379
 20
9.441103420977455
 30
0.0
 11
15.28174286348452
 21
9.441103420977455
 31
0.0
  0
LINE
  5
6F
330
23
100
AcDbEntity
  8
0
  6
Continuous
100
AcDbLine
 10
15.28651830982313
 20
10.25042906485684
 30
0.0
 11
15.28651830982313
 21
8.63523643369588
 31
0.0
  0
LINE
  5
70
330
23
100
AcDbEntity
  8
0
  6
Continuous
100
AcDbLine
 10
6.557002402835379
 20
10.25042906485684
 30
0.0
 11
6.557002402835379
 21
8.63523643369588
 31
0.0
  0
TEXT
  5
71
330
23
100
AcDbEntity
  8
0
  6
Continuous
100
AcDbText
 10
6.557002402835379
 20
4.778631420446179
 30
0.0
 40
2.5
  1
I
 11
6.557002402835379
 21
3.945298087112846
 31
0.0
100
AcDbText
 73
     1
  0
LINE
  5
72
330
23
100
AcDbEntity
  8
0
  6
Continuous
100
AcDbLine
 10
9.509028761221046
 20
6.822461571955827
 30
0.0
 11
9.509028761221046
 21
5.477735886740859
 31
0.0
  0
LINE
  5
73
330
23
100
AcDbEntity
  8
0
  6
Continuous
100
AcDbLine
 10
8.615065206632394
 20
5.477735886740859
 30
0.0
 11
9.526220368040085
 21
5.477735886740859
 31
0.0
  0
LINE
  5
74
330
23
100
AcDbEntity
  8
0
  6
Continuous
100
AcDbLine
 10
9.509028761221046
 20
5.477735886740859
 30
0.0
 11
10.40299231580975
 21
5.477735886740859
 31
0.0
  0
LINE
  5
75
330
23
100
AcDbEntity
  8
0
  6
Continuous
100
AcDbLine
 10
8.90159198694927
 20
5.082327781630496
 30
0.0
 11
9.509028761221046
 21
5.082327781630496
 31
0.0
  0
LINE
  5
76
330
23
100
AcDbEntity
  8
0
  6
Continuous
100
AcDbLine
 10
9.509028761221046
 20
5.082327781630525
 30
0.0
 11
10.15084874913087
 21
5.082327781630496
 31
0.0
  0
LINE
  5
77
330
23
100
AcDbEntity
  8
0
  6
Continuous
100
AcDbLine
 10
9.981861134137275
 20
4.719969133827802
 30
0.0
 11
9.072041111215057
 21
4.719969133827802
 31
0.0
  0
LINE
  5
78
330
23
100
AcDbEntity
  8
0
  6
Continuous
100
AcDbLine
 10
15.28651830982313
 20
2.79792376144114
 30
0.0
 11
15.28651830982313
 21
1.182731130280146
 31
0.0
  0
LINE
  5
79
330
23
100
AcDbEntity
  8
0
  6
Continuous
100
AcDbLine
 10
6.557002402835379
 20
1.98859811756175
 30
0.0
 11
15.28174286348452
 21
1.98859811756175
 31
0.0
  0
LINE
  5
7A
330
23
100
AcDbEntity
  8
0
  6
Continuous
100
AcDbLine
 10
6.557002402835379
 20
2.79792376144114
 30
0.0
 11
6.557002402835379
 21
1.182731130280146
 31
0.0
  0
ENDBLK
  5
7B
330
23
100
AcDbEntity
  8
0
100
AcDbBlockEnd
  0
BLOCK
  5
7C
330
24
100
AcDbEntity
  8
0
100
AcDbBlockBegin
  2
BLC27
 70
     0
 10
0.0
 20
0.0
 30
0.0
  3
BLC27
  1

  0
INSERT
  5
7D
330
24
100
AcDbEntity
  8
SWEDEN2
  6
CENTER
100
AcDbBlockReference
  2
BLC26
 10
0.0806298676206154
 20
0.0379850207146433
 30
0.0
 41
1.006224687463202
 42
1.006224687463202
 43
1.006224687463202
  0
ENDBLK
  5
7E
330
24
100
AcDbEntity
  8
0
100
AcDbBlockEnd
  0
BLOCK
  5
7F
330
25
100
AcDbEntity
  8
0
100
AcDbBlockBegin
  2
BLC26
 70
     0
 10
0.0
 20
0.0
 30
0.0
  3
BLC26
  1

  0
ARC
  5
80
330
25
100
AcDbEntity
  8
0
  6
Continuous
100
AcDbCircle
 10
-0.1805760986685527
 20
1.179220254965343
 30
0.0
 40
1.196858692389954
100
AcDbArc
 50
90.0
 51
265.7062371869478
  0
LINE
  5
81
330
25
100
AcDbEntity
  8
0
  6
Continuous
100
AcDbLine
 10
-0.1866378806934961
 20
-0.0109199663277195
 30
0.0
 11
0.4589419049629271
 21
-0.0109199663277195
 31
0.0
  0
LINE
  5
82
330
25
100
AcDbEntity
  8
0
  6
Continuous
100
AcDbLine
 10
-0.1866378806934961
 20
2.375670901630712
 30
0.0
 11
0.4528801229380406
 21
2.375670901630712
 31
0.0
  0
LINE
  5
83
330
25
100
AcDbEntity
  8
0
  6
Continuous
100
AcDbLine
 10
-0.1855088671185854
 20
-2.40462935692193
 30
0.0
 11
0.4600709185378947
 21
-2.40462935692193
 31
0.0
  0
ARC
  5
84
330
25
100
AcDbEntity
  8
0
  6
Continuous
100
AcDbCircle
 10
-0.1805760986685527
 20
-1.207778658717671
 30
0.0
 40
1.196858692389954
100
AcDbArc
 50
90.0
 51
270.0
  0
LINE
  5
85
330
25
100
AcDbEntity
  8
0
  6
Continuous
100
AcDbLine
 10
0.4515250165858618
 20
-2.404586463428898
 30
0.0
 11
1.401804627155996
 21
-2.404586463428898
 31
0.0
  0
LINE
  5
86
330
25
100
AcDbEntity
  8
0
  6
Continuous
100
AcDbLine
 10
0.4467851751237788
 20
2.375673621606836
 30
0.0
 11
1.418543909567034
 21
2.375673621606836
 31
0.0
  0
LINE
  5
87
330
25
100
AcDbEntity
  8
0
  6
Continuous
100
AcDbLine
 10
0.4566268661492927
 20
-0.0109105363144124
 30
0.0
 11
1.422748890188501
 21
-0.0109105363144124
 31
0.0
  0
ENDBLK
  5
88
330
25
100
AcDbEntity
  8
0
100
AcDbBlockEnd
  0
BLOCK
  5
89
330
26
100
AcDbEntity
  8
0
100
AcDbBlockBegin
  2
BLC28
 70
     0
 10
0.0
 20
0.0
 30
0.0
  3
BLC28
  1

  0
LINE
  5
8A
330
26
100
AcDbEntity
  8
0
  6
Continuous
100
AcDbLine
 10
0.4845759328177337
 20
2.400948399895582
 30
0.0
 11
1.4567117645079
 21
2.400948399895582
 31
0.0
  0
LINE
  5
8B
330
26
100
AcDbEntity
  8
0
  6
Continuous
100
AcDbLine
 10
0.4746729803414951
 20
4.802388298304521
 30
0.0
 11
1.4524806091963
 21
4.802388298304521
 31
0.0
  0
LINE
  5
8C
330
26
100
AcDbEntity
  8
0
  6
Continuous
100
AcDbLine
 10
0.4794423258352936
 20
-0.0076274117533615
 30
0.0
 11
1.435637129983888
 21
-0.0076274117533615
 31
0.0
  0
ARC
  5
8D
330
26
100
AcDbEntity
  8
0
  6
Continuous
100
AcDbCircle
 10
-0.1565934213067237
 20
1.19663014749571
 30
0.0
 40
1.204308763687699
100
AcDbArc
 50
90.0
 51
270.0
  0
LINE
  5
8E
330
26
100
AcDbEntity
  8
0
  6
Continuous
100
AcDbLine
 10
-0.1615568946986912
 20
-0.0076705722449901
 30
0.0
 11
0.4880414233560657
 21
-0.0076705722449901
 31
0.0
  0
LINE
  5
8F
330
26
100
AcDbEntity
  8
0
  6
Continuous
100
AcDbLine
 10
-0.1626929360302256
 20
4.802385561397414
 30
0.0
 11
0.480805867301001
 21
4.802385561397414
 31
0.0
  0
LINE
  5
90
330
26
100
AcDbEntity
  8
0
  6
Continuous
100
AcDbLine
 10
-0.1626929360302256
 20
2.400938911183402
 30
0.0
 11
0.486905382024446
 21
2.400938911183402
 31
0.0
  0
ARC
  5
91
330
26
100
AcDbEntity
  8
0
  6
Continuous
100
AcDbCircle
 10
-0.1565934213067237
 20
3.598487383391386
 30
0.0
 40
1.204308763687699
100
AcDbArc
 50
90.0
 51
265.7062371869478
  0
LINE
  5
92
330
26
100
AcDbEntity
  8
0
  6
Continuous
100
AcDbLine
 10
0.4845759328177337
 20
-2.362960848436557
 30
0.0
 11
1.4567117645079
 21
-2.362960848436557
 31
0.0
  0
LINE
  5
93
330
26
100
AcDbEntity
  8
0
  6
Continuous
100
AcDbLine
 10
0.4794423258352936
 20
-4.771536660085502
 30
0.0
 11
1.435637129983888
 21
-4.771536660085502
 31
0.0
  0
ARC
  5
94
330
26
100
AcDbEntity
  8
0
  6
Continuous
100
AcDbCircle
 10
-0.1565934213067237
 20
-3.567279100836429
 30
0.0
 40
1.204308763687699
100
AcDbArc
 50
90.0
 51
270.0
  0
LINE
  5
95
330
26
100
AcDbEntity
  8
0
  6
Continuous
100
AcDbLine
 10
-0.1615568946986912
 20
-4.77157982057713
 30
0.0
 11
0.4880414233560657
 21
-4.77157982057713
 31
0.0
  0
LINE
  5
96
330
26
100
AcDbEntity
  8
0
  6
Continuous
100
AcDbLine
 10
-0.1626929360302256
 20
-2.362970337148738
 30
0.0
 11
0.486905382024446
 21
-2.362970337148738
 31
0.0
  0
ARC
  5
97
330
26
100
AcDbEntity
  8
0
  6
Continuous
100
AcDbCircle
 10
-0.1565934213067237
 20
-1.165421864940753
 30
0.0
 40
1.204308763687699
100
AcDbArc
 50
101.2846498384606
 51
265.7062371869478
  0
ENDBLK
  5
98
330
26
100
AcDbEntity
  8
0
100
AcDbBlockEnd
  0
BLOCK
  5
99
330
27
100
AcDbEntity
  8
0
100
AcDbBlockBegin
  2
BLC22
 70
     0
 10
0.0
 20
0.0
 30
0.0
  3
BLC22
  1

  0
LINE
  5
9A
330
27
100
AcDbEntity
  8
HEL035
100
AcDbLine
 10
0.0
 20
-0.0015500000000088
 30
0.0
 11
0.0
 21
9.998450000000048
 31
0.0
  0
LINE
  5
9B
330
27
100
AcDbEntity
  8
21
100
AcDbLine
 10
2.5
 20
10.0
 30
0.0
 11
5.0
 21
10.0
 31
0.0
  0
LINE
  5
9C
330
27
100
AcDbEntity
  8
HEL035
100
AcDbLine
 10
0.0
 20
9.998450000000048
 30
0.0
 11
2.5
 21
9.998450000000048
 31
0.0
  0
LINE
  5
9D
330
27
100
AcDbEntity
  8
HEL035
100
AcDbLine
 10
-2.5
 20
5.0
 30
0.0
 11
2.5
 21
5.0
 31
0.0
  0
LINE
  5
9E
330
27
100
AcDbEntity
  8
21
100
AcDbLine
 10
2.5
 20
5.0
 30
0.0
 11
5.0
 21
5.0
 31
0.0
  0
LINE
  5
9F
330
27
100
AcDbEntity
  8
21
100
AcDbLine
 10
5.0
 20
5.0
 30
0.0
 11
5.0
 21
7.900000000000005
 31
0.0
  0
LINE
  5
A0
330
27
100
AcDbEntity
  8
HEL035
100
AcDbLine
 10
3.880950475618021
 20
6.944424757063899
 30
0.0
 11
4.560313229692326
 21
6.008681430563825
 31
0.0
  0
LINE
  5
A1
330
27
100
AcDbEntity
  8
21
100
AcDbLine
 10
10.0
 20
10.0
 30
0.0
 11
4.199999999999988
 21
6.5
 31
0.0
  0
LINE
  5
A2
330
27
100
AcDbEntity
  8
HEL035
100
AcDbLine
 10
2.5
 20
-0.0015500000000088
 30
0.0
 11
0.0
 21
-0.0015500000000088
 31
0.0
  0
LINE
  5
A3
330
27
100
AcDbEntity
  8
21
100
AcDbLine
 10
2.5
 20
0.0
 30
0.0
 11
5.0
 21
0.0
 31
0.0
  0
ENDBLK
  5
A4
330
27
100
AcDbEntity
  8
0
100
AcDbBlockEnd
  0
BLOCK
  5
A5
330
28
100
AcDbEntity
  8
0
100
AcDbBlockBegin
  2
BLC18
 70
     0
 10
0.0
 20
0.0
 30
0.0
  3
BLC18
  1

  0
LINE
  5
A6
330
28
100
AcDbEntity
  8
MUO
100
AcDbLine
 10
-0.0562679883412756
 20
0.8495546738177921
 30
0.0
 11
8.307242059683858
 21
9.215501804109429
 31
0.0
  0
LINE
  5
A7
330
28
100
AcDbEntity
  8
MUO
100
AcDbLine
 10
0.9280248765246881
 20
-0.107047211869272
 30
0.0
 11
9.268385649226672
 21
8.230699888388677
 31
0.0
  0
LINE
  5
A8
330
28
100
AcDbEntity
  8
MUO
100
AcDbLine
 10
-0.0562679883412756
 20
-0.107047211869272
 30
0.0
 11
-0.0562679883412756
 21
9.215501804109429
 31
0.0
  0
LINE
  5
A9
330
28
100
AcDbEntity
  8
MUO
100
AcDbLine
 10
9.268385649226672
 20
-0.107047211869272
 30
0.0
 11
-0.0562679883412756
 21
-0.107047211869272
 31
0.0
  0
LINE
  5
AA
330
28
100
AcDbEntity
  8
MUO
100
AcDbLine
 10
9.268385649226672
 20
9.215501804109429
 30
0.0
 11
9.268385649226672
 21
-0.107047211869272
 31
0.0
  0
LINE
  5
AB
330
28
100
AcDbEntity
  8
MUO
100
AcDbLine
 10
-0.0562679883412756
 20
9.215501804109429
 30
0.0
 11
9.268385649226672
 21
9.215501804109429
 31
0.0
  0
ENDBLK
  5
AC
330
28
100
AcDbEntity
  8
0
100
AcDbBlockEnd
  0
BLOCK
  5
AD
330
29
100
AcDbEntity
  8
0
100
AcDbBlockBegin
  2
BLC29
 70
     0
 10
0.0
 20
0.0
 30
0.0
  3
BLC29
  1

  0
LINE
  5
AE
330
29
100
AcDbEntity
  8
0
  6
Continuous
100
AcDbLine
 10
0.0048653824876794
 20
1.206889041390212
 30
0.0
 11
2.350630894713304
 21
-0.1284646699785696
 31
0.0
  0
LINE
  5
AF
330
29
100
AcDbEntity
  8
0
  6
Continuous
100
AcDbLine
 10
2.350630894713304
 20
-0.1284646699785696
 30
0.0
 11
0.0048653824876794
 21
-1.318383818722992
 31
0.0
  0
ENDBLK
  5
B0
330
29
100
AcDbEntity
  8
0
100
AcDbBlockEnd
  0
BLOCK
  5
B1
330
2A
100
AcDbEntity
  8
0
100
AcDbBlockBegin
  2
WKU130
 70
     0
 10
190.0
 20
250.0
 30
0.0
  3
WKU130
  1

  0
ARC
  5
B2
330
2A
100
AcDbEntity
  8
21
100
AcDbCircle
 10
191.083333
 20
249.916667
 30
0.0
 40
1.086534
100
AcDbArc
 50
32.47119199999999
 51
175.6012949999999
  0
ARC
  5
B3
330
2A
100
AcDbEntity
  8
21
100
AcDbCircle
 10
192.9166669999999
 20
251.083333
 30
0.0
 40
1.086534
100
AcDbArc
 50
212.471192
 51
355.6012949999999
  0
ENDBLK
  5
B4
330
2A
100
AcDbEntity
  8
0
100
AcDbBlockEnd
  0
BLOCK
  5
B5
330
2B
100
AcDbEntity
  8
0
100
AcDbBlockBegin
  2
BLC15
 70
     0
 10
0.0
 20
0.0
 30
0.0
  3
BLC15
  1

  0
LINE
  5
B6
330
2B
100
AcDbEntity
  8
0
  6
Continuous
100
AcDbLine
 10
0.1420843676212655
 20
3.490022375113255
 30
0.0
 11
0.1420843676212655
 21
0.8443648832166417
 31
0.0
  0
LINE
  5
B7
330
2B
100
AcDbEntity
  8
0
  6
Continuous
100
AcDbLine
 10
-0.4616105474578376
 20
-0.9371884861638335
 30
0.0
 11
0.7457792827003687
 21
-0.9371884861638335
 31
0.0
  0
LINE
  5
B8
330
2B
100
AcDbEntity
  8
0
  6
Continuous
100
AcDbLine
 10
-0.8941083970667307
 20
-0.0496747197325362
 30
0.0
 11
1.169266760442411
 21
-0.0496747197325362
 31
0.0
  0
LINE
  5
B9
330
2B
100
AcDbEntity
  8
0
  6
Continuous
100
AcDbLine
 10
-1.389678849743603
 20
0.8443648832166417
 30
0.0
 11
1.673847584986134
 21
0.8443648832166417
 31
0.0
  0
ENDBLK
  5
BA
330
2B
100
AcDbEntity
  8
0
100
AcDbBlockEnd
  0
BLOCK
  5
BB
330
2C
100
AcDbEntity
  8
0
100
AcDbBlockBegin
  2
BLC5
 70
     0
 10
0.0
 20
0.0
 30
0.0
  3
BLC5
  1

  0
TEXT
  5
BC
330
2C
100
AcDbEntity
  8
0
100
AcDbText
 10
-3.043703616622593
 20
-6.645911909806137
 30
0.0
 40
3.2
  1
PE
100
AcDbText
  0
LINE
  5
BD
330
2C
100
AcDbEntity
  8
0
100
AcDbLine
 10
-2.946391600460657
 20
1.181176409735783
 30
0.0
 11
2.135458132443943
 21
1.181176409735783
 31
0.0
  0
LINE
  5
BE
330
2C
100
AcDbEntity
  8
0
100
AcDbLine
 10
-0.4865600808100226
 20
2.238361925631892
 30
0.0
 11
-0.4865600808100226
 21
6.930438381985624
 31
0.0
  0
LINE
  5
BF
330
2C
100
AcDbEntity
  8
0
100
AcDbLine
 10
-1.973271438840612
 20
0.0652583651787779
 30
0.0
 11
1.225410573891878
 21
0.0652583651787779
 31
0.0
  0
LINE
  5
C0
330
2C
100
AcDbEntity
  8
0
100
AcDbLine
 10
2.685090816321945
 20
2.238361925631892
 30
0.0
 11
1.68493953910135
 21
2.238361925631892
 31
0.0
  0
LINE
  5
C1
330
2C
100
AcDbEntity
  8
0
100
AcDbLine
 10
-3.505034656205481
 20
2.238361925631892
 30
0.0
 11
2.649049328854516
 21
2.238361925631892
 31
0.0
  0
CIRCLE
  5
C2
330
2C
100
AcDbEntity
  8
0
100
AcDbCircle
 10
-0.4775497089431724
 20
1.422632360897239
 30
0.0
 40
3.80456268992242
  0
ENDBLK
  5
C3
330
2C
100
AcDbEntity
  8
0
100
AcDbBlockEnd
  0
BLOCK
  5
C4
330
2D
100
AcDbEntity
  8
0
100
AcDbBlockBegin
  2
BLC57
 70
     0
 10
0.0
 20
0.0
 30
0.0
  3
BLC57
  1

  0
TEXT
  5
C5
330
2D
100
AcDbEntity
  8
0
  6
Continuous
100
AcDbText
 10
5.743694433929135
 20
1.362373143485873
 30
0.0
 40
2.5
  1
1
 11
5.743694433929135
 21
0.5290398101525398
 31
0.0
100
AcDbText
 73
     1
  0
LINE
  5
C6
330
2D
100
AcDbEntity
  8
0
  6
Continuous
100
AcDbLine
 10
1.301790899551605
 20
0.6971801650394128
 30
0.0
 11
3.685251332632219
 21
1.885372006239947
 31
0.0
  0
LINE
  5
C7
330
2D
100
AcDbEntity
  8
0
  6
Continuous
100
AcDbLine
 10
3.65559815579715
 20
2.68711305054316
 30
0.0
 11
1.309832643571525
 21
1.497193901798738
 31
0.0
  0
LINE
  5
C8
330
2D
100
AcDbEntity
  8
0
  6
Continuous
100
AcDbLine
 10
1.309832643571525
 20
4.022466761911914
 30
0.0
 11
3.65559815579715
 21
2.68711305054316
 31
0.0
  0
LINE
  5
C9
330
2D
100
AcDbEntity
  8
BASE
  6
Continuous
100
AcDbLine
 10
7.5
 20
0.0
 30
0.0
 11
7.5
 21
5.0
 31
0.0
  0
LINE
  5
CA
330
2D
100
AcDbEntity
  8
BASE
  6
Continuous
100
AcDbLine
 10
0.0
 20
0.0
 30
0.0
 11
7.5
 21
0.0
 31
0.0
  0
LINE
  5
CB
330
2D
100
AcDbEntity
  8
BASE
  6
Continuous
100
AcDbLine
 10
0.0
 20
5.0
 30
0.0
 11
0.0
 21
0.0
 31
0.0
  0
LINE
  5
CC
330
2D
100
AcDbEntity
  8
BASE
  6
Continuous
100
AcDbLine
 10
7.5
 20
5.0
 30
0.0
 11
0.0
 21
5.0
 31
0.0
  0
ENDBLK
  5
CD
330
2D
100
AcDbEntity
  8
0
100
AcDbBlockEnd
  0
BLOCK
  5
CE
330
2E
100
AcDbEntity
  8
0
100
AcDbBlockBegin
  2
BLC25
 70
     0
 10
0.0
 20
0.0
 30
0.0
  3
BLC25
  1

  0
TEXT
  5
CF
330
2E
100
AcDbEntity
  8
0
  6
Continuous
100
AcDbText
 10
2.0
 20
30.66666666666666
 30
0.0
 40
2.0
  1
1)
 11
2.0
 21
30.0
 31
0.0
100
AcDbText
 73
     1
  0
TEXT
  5
D0
330
2E
100
AcDbEntity
  8
0
100
AcDbText
 10
6.0
 20
1.999999999999995
 30
0.0
 40
2.0
  1
7B    27     26
 11
6.0
 21
1.333333333333328
 31
0.0
100
AcDbText
 73
     1
  0
TEXT
  5
D1
330
2E
100
AcDbEntity
  8
0
100
AcDbText
 10
6.0
 20
5.333333333333331
 30
0.0
 40
2.0
  1
5B     9      8
 11
6.0
 21
4.666666666666664
 31
0.0
100
AcDbText
 73
     1
  0
TEXT
  5
D2
330
2E
100
AcDbEntity
  8
0
100
AcDbText
 10
6.0
 20
8.666666666666666
 30
0.0
 40
2.0
  1
3B     3      2
 11
6.0
 21
8.0
 31
0.0
100
AcDbText
 73
     1
  0
TEXT
  5
D3
330
2E
100
AcDbEntity
  8
0
100
AcDbText
 10
32.0
 20
12.66666666666666
 30
0.0
 40
2.0
  1
In=5A
 11
32.0
 21
12.0
 31
0.0
100
AcDbText
 73
     1
  0
TEXT
  5
D4
330
2E
100
AcDbEntity
  8
0
100
AcDbText
 10
16.0
 20
12.66666666666666
 30
0.0
 40
2.0
  1
In=1A 
 11
16.0
 21
12.0
 31
0.0
100
AcDbText
 73
     1
  0
TEXT
  5
D5
330
2E
100
AcDbEntity
  8
0
100
AcDbText
 10
26.0
 20
18.66666666666666
 30
0.0
 40
2.0
  1
108:
 11
26.0
 21
18.0
 31
0.0
100
AcDbText
 73
     1
  0
TEXT
  5
D6
330
2E
100
AcDbEntity
  8
0
100
AcDbText
 10
6.0
 20
18.66666666666666
 30
0.0
 40
2.0
  1
101:       
 11
6.0
 21
18.0
 31
0.0
100
AcDbText
 73
     1
  0
TEXT
  5
D7
330
2E
100
AcDbEntity
  8
0
100
AcDbText
 10
6.0
 20
24.66666666666666
 30
0.0
 40
2.0
  1
TERMINALS / UTTAG
 11
6.0
 21
24.0
 31
0.0
100
AcDbText
 73
     1
  0
LINE
  5
D8
330
2E
100
AcDbEntity
  8
0
100
AcDbLine
 10
0.0
 20
12.0
 30
0.0
 11
44.0
 21
12.0
 31
0.0
  0
LINE
  5
D9
330
2E
100
AcDbEntity
  8
0
100
AcDbLine
 10
28.0
 20
18.0
 30
0.0
 11
28.0
 21
0.0
 31
0.0
  0
LINE
  5
DA
330
2E
100
AcDbEntity
  8
0
100
AcDbLine
 10
14.0
 20
18.0
 30
0.0
 11
44.0
 21
18.0
 31
0.0
  0
LINE
  5
DB
330
2E
100
AcDbEntity
  8
0
100
AcDbLine
 10
14.0
 20
24.0
 30
0.0
 11
14.0
 21
0.0
 31
0.0
  0
LINE
  5
DC
330
2E
100
AcDbEntity
  8
0
100
AcDbLine
 10
0.0
 20
24.0
 30
0.0
 11
44.0
 21
24.0
 31
0.0
  0
LINE
  5
DD
330
2E
100
AcDbEntity
  8
0
100
AcDbLine
 10
44.0
 20
0.0
 30
0.0
 11
44.0
 21
30.0
 31
0.0
  0
LINE
  5
DE
330
2E
100
AcDbEntity
  8
0
100
AcDbLine
 10
0.0
 20
0.0
 30
0.0
 11
44.0
 21
0.0
 31
0.0
  0
LINE
  5
DF
330
2E
100
AcDbEntity
  8
0
100
AcDbLine
 10
0.0
 20
30.0
 30
0.0
 11
0.0
 21
0.0
 31
0.0
  0
LINE
  5
E0
330
2E
100
AcDbEntity
  8
0
100
AcDbLine
 10
44.0
 20
30.0
 30
0.0
 11
0.0
 21
30.0
 31
0.0
  0
ENDBLK
  5
E1
330
2E
100
AcDbEntity
  8
0
100
AcDbBlockEnd
  0
BLOCK
  5
E2
330
2F
100
AcDbEntity
  8
0
100
AcDbBlockBegin
  2
*X13
 70
     1
 10
0.0
 20
0.0
 30
0.0
  3
*X13
  1

  0
LINE
  5
E3
330
2F
100
AcDbEntity
  8
0
  6
Continuous
 62
     0
100
AcDbLine
 10
78.70659715724506
 20
140.0
 30
0.0
 11
80.0
 21
140.0
 31
0.0
  0
ENDBLK
  5
E4
330
2F
100
AcDbEntity
  8
0
100
AcDbBlockEnd
  0
BLOCK
  5
E5
330
30
100
AcDbEntity
  8
0
100
AcDbBlockBegin
  2
ABBA3V
 70
     0
 10
0.0
 20
0.0
 30
0.0
  3
ABBA3V
  1

  0
TEXT
  5
E6
330
30
100
AcDbEntity
  8
RAAMI
  6
DASHED
100
AcDbText
 10
292.217194262135
 20
11.81335905974098
 30
0.0
 40
3.0
  1
A3
  7
GREEKS
100
AcDbText
  0
TEXT
  5
E7
330
30
100
AcDbEntity
  8
RAAMI
  6
DASHED
100
AcDbText
 10
351.8185767466981
 20
15.69252984362215
 30
0.0
 40
1.399999999999999
  1
LEHTI SHEET
  7
GREEKS
100
AcDbText
  0
LINE
  5
E8
330
30
100
AcDbEntity
  8
PAKSU
100
AcDbLine
 10
0.2370990874900258
 20
262.7379992524221
 30
0.0
 11
392.23709908749
 21
262.7379992524221
 31
0.0
  0
LINE
  5
E9
330
30
100
AcDbEntity
  8
RAAMI
100
AcDbLine
 10
18.23709908749002
 20
0.2379992524221779
 30
0.0
 11
0.2370990874900258
 21
0.2379992524221779
 31
0.0
  0
LINE
  5
EA
330
30
100
AcDbEntity
  8
PAKSU
100
AcDbLine
 10
209.23709908749
 20
0.2379992524221779
 30
0.0
 11
392.23709908749
 21
0.2379992524221779
 31
0.0
  0
LINE
  5
EB
330
30
100
AcDbEntity
  8
PAKSU
100
AcDbLine
 10
209.23709908749
 20
0.2379992524221779
 30
0.0
 11
209.23709908749
 21
35.23799925242217
 31
0.0
  0
LINE
  5
EC
330
30
100
AcDbEntity
  8
PAKSU
100
AcDbLine
 10
392.23709908749
 20
0.2379992524221779
 30
0.0
 11
392.23709908749
 21
35.23799925242217
 31
0.0
  0
LINE
  5
ED
330
30
100
AcDbEntity
  8
OHUT
100
AcDbLine
 10
209.23709908749
 20
18.23799925242217
 30
0.0
 11
392.23709908749
 21
18.23799925242217
 31
0.0
  0
LINE
  5
EE
330
30
100
AcDbEntity
  8
OHUT
100
AcDbLine
 10
209.23709908749
 20
9.737999252422177
 30
0.0
 11
392.23709908749
 21
9.737999252422177
 31
0.0
  0
LINE
  5
EF
330
30
100
AcDbEntity
  8
OHUT
100
AcDbLine
 10
209.23709908749
 20
26.73799925242217
 30
0.0
 11
307.23709908749
 21
26.73799925242217
 31
0.0
  0
LINE
  5
F0
330
30
100
AcDbEntity
  8
PAKSU
100
AcDbLine
 10
209.23709908749
 20
35.23799925242217
 30
0.0
 11
392.23709908749
 21
35.23799925242217
 31
0.0
  0
TEXT
  5
F1
330
30
100
AcDbEntity
  8
RAAMI
100
AcDbText
 10
210.23709908749
 20
23.97133258575551
 30
0.0
 40
1.399999999999999
  1
TARKASTI  CHECKED
  7
ROMANS
100
AcDbText
  0
TEXT
  5
F3
330
30
100
AcDbEntity
  8
RAAMI
100
AcDbText
 10
209.9799338133564
 20
15.70466591908884
 30
0.0
 40
1.399999999999999
  1
HYVÄKSYI  APPROVED
  7
ROMANS
100
AcDbText
  0
LINE
  5
F4
330
30
100
AcDbEntity
  8
OHUT
100
AcDbLine
 10
307.23709908749
 20
0.2379992524221779
 30
0.0
 11
307.23709908749
 21
35.23799925242217
 31
0.0
  0
TEXT
  5
F5
330
30
100
AcDbEntity
  8
RAAMI
100
AcDbText
 10
259.23709908749
 20
32.73799925242217
 30
0.0
 40
1.399999999999999
  1
LIITTYY  CONCERNING
  7
ROMANS
100
AcDbText
  0
TEXT
  5
F6
330
30
100
AcDbEntity
  8
RAAMI
100
AcDbText
 10
259.23709908749
 20
23.73799925242217
 30
0.0
 40
1.399999999999999
  1
TOLERANSSIT  TOLERANCES
  7
ROMANS
100
AcDbText
  0
TEXT
  5
F7
330
30
100
AcDbEntity
  8
RAAMI
100
AcDbText
 10
259.23709908749
 20
15.73799925242217
 30
0.0
 40
1.399999999999999
  1
SUHDE  SCALE
  7
ROMANS
100
AcDbText
  0
TEXT
  5
F8
330
30
100
AcDbEntity
  8
RAAMI
100
AcDbText
 10
309.23709908749
 20
32.73799925242217
 30
0.0
 40
1.399999999999999
  1
NIMITYS  NAME
  7
ROMANS
100
AcDbText
  0
TEXT
  5
F9
330
30
100
AcDbEntity
  8
RAAMI
100
AcDbText
 10
309.23709908749
 20
15.73799925242217
 30
0.0
 40
1.399999999999999
  1
KOODI  CODE
  7
ROMANS
100
AcDbText
  0
TEXT
  5
FA
330
30
100
AcDbEntity
  8
RAAMI
100
AcDbText
 10
309.23709908749
 20
7.237999252422177
 30
0.0
 40
1.399999999999999
  1
PIIRUSTUS NO  DRAWING NR
  7
ROMANS
100
AcDbText
  0
LINE
  5
FB
330
30
100
AcDbEntity
  8
OHUT
100
AcDbLine
 10
349.73709908749
 20
9.737999252422177
 30
0.0
 11
349.73709908749
 21
18.23799925242217
 31
0.0
  0
TEXT
  5
FC
330
30
100
AcDbEntity
  8
RAAMI
100
AcDbText
 10
371.23709908749
 20
7.237999252422177
 30
0.0
 40
1.399999999999999
  1
PAINOS  REVISION
  7
ROMANS
100
AcDbText
  0
LINE
  5
FD
330
30
100
AcDbEntity
  8
OHUT
100
AcDbLine
 10
369.73709908749
 20
9.737999252422177
 30
0.0
 11
369.73709908749
 21
0.2379992524221779
 31
0.0
  0
LINE
  5
FE
330
30
100
AcDbEntity
  8
RAAMI
100
AcDbLine
 10
210.18709908749
 20
1.737999252422177
 30
0.0
 11
211.93709908749
 21
1.737999252422177
 31
0.0
  0
LINE
  5
FF
330
30
100
AcDbEntity
  8
RAAMI
100
AcDbLine
 10
215.43709908749
 20
1.737999252422177
 30
0.0
 11
217.18709908749
 21
1.737999252422177
 31
0.0
  0
LINE
  5
100
330
30
100
AcDbEntity
  8
RAAMI
100
AcDbLine
 10
212.63709908749
 20
8.737999252422177
 30
0.0
 11
211.4595712478463
 21
5.373633996297456
 31
0.0
  0
LINE
  5
101
330
30
100
AcDbEntity
  8
RAAMI
100
AcDbLine
 10
212.4258857855872
 20
3.137999252422176
 30
0.0
 11
213.54709908749
 21
3.137999252422176
 31
0.0
  0
LINE
  5
102
330
30
100
AcDbEntity
  8
RAAMI
100
AcDbLine
 10
212.4258889824527
 20
3.134541809458486
 30
0.0
 11
211.93709908749
 21
1.737999252422177
 31
0.0
  0
LINE
  5
103
330
30
100
AcDbEntity
  8
RAAMI
100
AcDbLine
 10
214.73709908749
 20
8.737999252422177
 30
0.0
 11
215.9134520127146
 21
5.376990894637707
 31
0.0
  0
LINE
  5
104
330
30
100
AcDbEntity
  8
RAAMI
100
AcDbLine
 10
214.9481967907755
 20
3.134862957320585
 30
0.0
 11
215.43709908749
 21
1.737999252422177
 31
0.0
  0
LINE
  5
105
330
30
100
AcDbEntity
  8
RAAMI
100
AcDbLine
 10
214.73709908749
 20
8.737999252422177
 30
0.0
 11
213.82709908749
 21
8.737999252422177
 31
0.0
  0
LINE
  5
106
330
30
100
AcDbEntity
  8
RAAMI
100
AcDbLine
 10
213.54709908749
 20
8.737999252422177
 30
0.0
 11
213.54709908749
 21
5.377999252422178
 31
0.0
  0
LINE
  5
107
330
30
100
AcDbEntity
  8
RAAMI
100
AcDbLine
 10
213.82709908749
 20
8.737999252422177
 30
0.0
 11
213.82709908749
 21
5.377999252422178
 31
0.0
  0
LINE
  5
108
330
30
100
AcDbEntity
  8
RAAMI
100
AcDbLine
 10
213.82709908749
 20
3.137999252422176
 30
0.0
 11
214.9469924809167
 21
3.137999252422176
 31
0.0
  0
LINE
  5
109
330
30
100
AcDbEntity
  8
RAAMI
100
AcDbLine
 10
213.54709908749
 20
8.737999252422177
 30
0.0
 11
212.63709908749
 21
8.737999252422177
 31
0.0
  0
LINE
  5
10A
330
30
100
AcDbEntity
  8
RAAMI
100
AcDbLine
 10
211.4590398011296
 20
5.377999252422178
 30
0.0
 11
213.54709908749
 21
5.377999252422178
 31
0.0
  0
LINE
  5
10B
330
30
100
AcDbEntity
  8
RAAMI
100
AcDbLine
 10
211.3600815769602
 20
5.097999252422177
 30
0.0
 11
213.54709908749
 21
5.097999252422177
 31
0.0
  0
LINE
  5
10C
330
30
100
AcDbEntity
  8
RAAMI
100
AcDbLine
 10
216.0115910012183
 20
5.096593784627025
 30
0.0
 11
217.18709908749
 21
1.737999252422177
 31
0.0
  0
LINE
  5
10D
330
30
100
AcDbEntity
  8
RAAMI
100
AcDbLine
 10
213.82709908749
 20
5.377999252422178
 30
0.0
 11
215.9122127349171
 21
5.377999252422178
 31
0.0
  0
LINE
  5
10E
330
30
100
AcDbEntity
  8
RAAMI
100
AcDbLine
 10
213.82709908749
 20
5.097999252422177
 30
0.0
 11
216.0103556182099
 21
5.097999252422177
 31
0.0
  0
LINE
  5
10F
330
30
100
AcDbEntity
  8
RAAMI
100
AcDbLine
 10
213.82709908749
 20
5.097999252422177
 30
0.0
 11
213.82709908749
 21
3.137999252422176
 31
0.0
  0
LINE
  5
110
330
30
100
AcDbEntity
  8
RAAMI
100
AcDbLine
 10
213.54709908749
 20
5.097999252422177
 30
0.0
 11
213.54709908749
 21
3.137999252422176
 31
0.0
  0
LINE
  5
111
330
30
100
AcDbEntity
  8
RAAMI
100
AcDbLine
 10
211.3569877289154
 20
5.080538227923291
 30
0.0
 11
210.18709908749
 21
1.737999252422177
 31
0.0
  0
INSERT
  5
112
330
30
100
AcDbEntity
  8
RAAMI
100
AcDbBlockReference
  2
*X15
 10
210.18709908749
 20
1.737999252422177
 30
0.0
 41
0.7
 42
0.7
 43
0.7
  0
INSERT
  5
113
330
30
100
AcDbEntity
  8
RAAMI
100
AcDbBlockReference
  2
*X16
 10
210.18709908749
 20
1.737999252422177
 30
0.0
 41
0.7
 42
0.7
 43
0.7
  0
INSERT
  5
114
330
30
100
AcDbEntity
  8
RAAMI
100
AcDbBlockReference
  2
*X17
 10
210.18709908749
 20
1.737999252422177
 30
0.0
 41
0.7
 42
0.7
 43
0.7
  0
INSERT
  5
115
330
30
100
AcDbEntity
  8
RAAMI
100
AcDbBlockReference
  2
*X18
 10
210.18709908749
 20
1.737999252422177
 30
0.0
 41
0.7
 42
0.7
 43
0.7
  0
LINE
  5
116
330
30
100
AcDbEntity
  8
RAAMI
100
AcDbLine
 10
217.67709908749
 20
1.737999252422177
 30
0.0
 11
217.67709908749
 21
5.097999252422177
 31
0.0
  0
LINE
  5
117
330
30
100
AcDbEntity
  8
RAAMI
100
AcDbLine
 10
217.67709908749
 20
8.737999252422177
 30
0.0
 11
219.63709908749
 21
8.737999252422177
 31
0.0
  0
LINE
  5
118
330
30
100
AcDbEntity
  8
RAAMI
100
AcDbLine
 10
219.63709908749
 20
8.737999252422177
 30
0.0
 11
219.63709908749
 21
5.377999252422178
 31
0.0
  0
LINE
  5
119
330
30
100
AcDbEntity
  8
RAAMI
100
AcDbLine
 10
219.63709908749
 20
5.377999252422178
 30
0.0
 11
217.67709908749
 21
5.377999252422178
 31
0.0
  0
LINE
  5
11A
330
30
100
AcDbEntity
  8
RAAMI
100
AcDbLine
 10
217.67709908749
 20
5.097999252422177
 30
0.0
 11
219.63709908749
 21
5.097999252422177
 31
0.0
  0
LINE
  5
11B
330
30
100
AcDbEntity
  8
RAAMI
100
AcDbLine
 10
219.63709908749
 20
5.097999252422177
 30
0.0
 11
219.63709908749
 21
1.737999252422177
 31
0.0
  0
LINE
  5
11C
330
30
100
AcDbEntity
  8
RAAMI
100
AcDbLine
 10
219.63709908749
 20
1.737999252422177
 30
0.0
 11
217.67709908749
 21
1.737999252422177
 31
0.0
  0
LINE
  5
11D
330
30
100
AcDbEntity
  8
RAAMI
100
AcDbLine
 10
217.67709908749
 20
5.377999252422178
 30
0.0
 11
217.67709908749
 21
8.737999252422177
 31
0.0
  0
ARC
  5
11E
330
30
100
AcDbEntity
  8
RAAMI
100
AcDbCircle
 10
220.47709908749
 20
7.162999252422174
 30
0.0
 40
1.574999999999998
100
AcDbArc
 50
298.4558593394117
 51
90.0524369955635
  0
LINE
  5
11F
330
30
100
AcDbEntity
  8
RAAMI
100
AcDbLine
 10
219.91709908749
 20
8.737999252422177
 30
0.0
 11
220.4756576504909
 21
8.737998592821838
 31
0.0
  0
LINE
  5
120
330
30
100
AcDbEntity
  8
RAAMI
100
AcDbLine
 10
219.91709908749
 20
8.737999252422177
 30
0.0
 11
219.91709908749
 21
5.377999252422178
 31
0.0
  0
LINE
  5
121
330
30
100
AcDbEntity
  8
RAAMI
100
AcDbLine
 10
219.91709908749
 20
5.377999252422178
 30
0.0
 11
221.9015418540271
 21
5.377999252422178
 31
0.0
  0
LINE
  5
122
330
30
100
AcDbEntity
  8
RAAMI
100
AcDbLine
 10
222.15709908749
 20
5.097999252422177
 30
0.0
 11
219.91709908749
 21
5.097999252422177
 31
0.0
  0
LINE
  5
123
330
30
100
AcDbEntity
  8
RAAMI
100
AcDbLine
 10
219.91709908749
 20
5.097999252422177
 30
0.0
 11
219.91709908749
 21
1.737999252422177
 31
0.0
  0
ARC
  5
124
330
30
100
AcDbEntity
  8
RAAMI
100
AcDbCircle
 10
220.47709908749
 20
3.837999252422179
 30
0.0
 40
2.099999999999998
100
AcDbArc
 50
269.9377244294032
 51
37.05655321680703
  0
LINE
  5
125
330
30
100
AcDbEntity
  8
RAAMI
100
AcDbLine
 10
219.91709908749
 20
1.737999252422177
 30
0.0
 11
220.4748165690634
 21
1.738000492872633
 31
0.0
  0
ARC
  5
126
330
30
100
AcDbEntity
  8
RAAMI
100
AcDbCircle
 10
220.47709908749
 20
3.837999252422179
 30
0.0
 40
2.099999999999998
100
AcDbArc
 50
47.28621969132301
 51
68.78799932186918
  0
INSERT
  5
127
330
30
100
AcDbEntity
  8
RAAMI
100
AcDbBlockReference
  2
*X19
 10
210.18709908749
 20
1.737999252422177
 30
0.0
 41
0.7
 42
0.7
 43
0.7
  0
INSERT
  5
128
330
30
100
AcDbEntity
  8
RAAMI
100
AcDbBlockReference
  2
*X20
 10
210.18709908749
 20
1.737999252422177
 30
0.0
 41
0.7
 42
0.7
 43
0.7
  0
INSERT
  5
129
330
30
100
AcDbEntity
  8
RAAMI
100
AcDbBlockReference
  2
*X21
 10
210.18709908749
 20
1.737999252422177
 30
0.0
 41
0.7
 42
0.7
 43
0.7
  0
INSERT
  5
12A
330
30
100
AcDbEntity
  8
RAAMI
100
AcDbBlockReference
  2
*X22
 10
210.18709908749
 20
1.737999252422177
 30
0.0
 41
0.7
 42
0.7
 43
0.7
  0
INSERT
  5
12B
330
30
100
AcDbEntity
  8
RAAMI
100
AcDbBlockReference
  2
*X22
 10
215.64709908749
 20
1.737999252422177
 30
0.0
 41
0.7
 42
0.7
 43
0.7
  0
INSERT
  5
12C
330
30
100
AcDbEntity
  8
RAAMI
100
AcDbBlockReference
  2
*X21
 10
215.64709908749
 20
1.737999252422177
 30
0.0
 41
0.7
 42
0.7
 43
0.7
  0
INSERT
  5
12D
330
30
100
AcDbEntity
  8
RAAMI
100
AcDbBlockReference
  2
*X20
 10
215.64709908749
 20
1.737999252422177
 30
0.0
 41
0.7
 42
0.7
 43
0.7
  0
INSERT
  5
12E
330
30
100
AcDbEntity
  8
RAAMI
100
AcDbBlockReference
  2
*X19
 10
215.64709908749
 20
1.737999252422177
 30
0.0
 41
0.7
 42
0.7
 43
0.7
  0
ARC
  5
12F
330
30
100
AcDbEntity
  8
RAAMI
100
AcDbCircle
 10
225.93709908749
 20
3.837999252422179
 30
0.0
 40
2.099999999999998
100
AcDbArc
 50
47.28621969132301
 51
68.78799932186918
  0
LINE
  5
130
330
30
100
AcDbEntity
  8
RAAMI
100
AcDbLine
 10
225.37709908749
 20
1.737999252422177
 30
0.0
 11
225.9348165690634
 21
1.738000492872633
 31
0.0
  0
ARC
  5
131
330
30
100
AcDbEntity
  8
RAAMI
100
AcDbCircle
 10
225.93709908749
 20
3.837999252422179
 30
0.0
 40
2.099999999999998
100
AcDbArc
 50
269.9377244294032
 51
37.05655321680703
  0
LINE
  5
132
330
30
100
AcDbEntity
  8
RAAMI
100
AcDbLine
 10
225.37709908749
 20
5.097999252422177
 30
0.0
 11
225.37709908749
 21
1.737999252422177
 31
0.0
  0
LINE
  5
133
330
30
100
AcDbEntity
  8
RAAMI
100
AcDbLine
 10
227.61709908749
 20
5.097999252422177
 30
0.0
 11
225.37709908749
 21
5.097999252422177
 31
0.0
  0
LINE
  5
134
330
30
100
AcDbEntity
  8
RAAMI
100
AcDbLine
 10
225.37709908749
 20
5.377999252422178
 30
0.0
 11
227.3615418540271
 21
5.377999252422178
 31
0.0
  0
LINE
  5
135
330
30
100
AcDbEntity
  8
RAAMI
100
AcDbLine
 10
225.37709908749
 20
8.737999252422177
 30
0.0
 11
225.37709908749
 21
5.377999252422178
 31
0.0
  0
LINE
  5
136
330
30
100
AcDbEntity
  8
RAAMI
100
AcDbLine
 10
225.37709908749
 20
8.737999252422177
 30
0.0
 11
225.9356576504909
 21
8.737998592821838
 31
0.0
  0
ARC
  5
137
330
30
100
AcDbEntity
  8
RAAMI
100
AcDbCircle
 10
225.93709908749
 20
7.162999252422174
 30
0.0
 40
1.574999999999998
100
AcDbArc
 50
298.4558593394117
 51
90.0524369955635
  0
LINE
  5
138
330
30
100
AcDbEntity
  8
RAAMI
100
AcDbLine
 10
223.13709908749
 20
5.377999252422178
 30
0.0
 11
223.13709908749
 21
8.737999252422177
 31
0.0
  0
LINE
  5
139
330
30
100
AcDbEntity
  8
RAAMI
100
AcDbLine
 10
225.09709908749
 20
1.737999252422177
 30
0.0
 11
223.13709908749
 21
1.737999252422177
 31
0.0
  0
LINE
  5
13A
330
30
100
AcDbEntity
  8
RAAMI
100
AcDbLine
 10
225.09709908749
 20
5.097999252422177
 30
0.0
 11
225.09709908749
 21
1.737999252422177
 31
0.0
  0
LINE
  5
13B
330
30
100
AcDbEntity
  8
RAAMI
100
AcDbLine
 10
223.13709908749
 20
5.097999252422177
 30
0.0
 11
225.09709908749
 21
5.097999252422177
 31
0.0
  0
LINE
  5
13C
330
30
100
AcDbEntity
  8
RAAMI
100
AcDbLine
 10
225.09709908749
 20
5.377999252422178
 30
0.0
 11
223.13709908749
 21
5.377999252422178
 31
0.0
  0
LINE
  5
13D
330
30
100
AcDbEntity
  8
RAAMI
100
AcDbLine
 10
225.09709908749
 20
8.737999252422177
 30
0.0
 11
225.09709908749
 21
5.377999252422178
 31
0.0
  0
LINE
  5
13E
330
30
100
AcDbEntity
  8
RAAMI
100
AcDbLine
 10
223.13709908749
 20
8.737999252422177
 30
0.0
 11
225.09709908749
 21
8.737999252422177
 31
0.0
  0
LINE
  5
13F
330
30
100
AcDbEntity
  8
RAAMI
100
AcDbLine
 10
223.13709908749
 20
1.737999252422177
 30
0.0
 11
223.13709908749
 21
5.097999252422177
 31
0.0
  0
TEXT
  5
140
330
30
100
AcDbEntity
  8
RAAMI
100
AcDbText
 10
229.73709908749
 20
1.737999252422177
 30
0.0
 40
3.0
  1
ABB 
 41
0.8
  7
ROMANS
100
AcDbText
  0
TEXT
  5
141
330
30
100
AcDbEntity
  8
RAAMI
100
AcDbText
 10
237.73709908749
 20
1.737999252422177
 30
0.0
 40
3.0
  1
Strömberg
 41
0.8
  7
ROMANS
100
AcDbText
  0
LINE
  5
142
330
30
100
AcDbEntity
  8
OHUT
100
AcDbLine
 10
282.23709908749
 20
9.737999252422177
 30
0.0
 11
282.23709908749
 21
18.23799925242217
 31
0.0
  0
TEXT
  5
143
330
30
100
AcDbEntity
  8
RAAMI
100
AcDbText
 10
27.73709908749002
 20
4.737999252422177
 30
0.0
 40
1.399999999999999
  1
MUUTOS
  7
ROMANS
100
AcDbText
  0
TEXT
  5
144
330
30
100
AcDbEntity
  8
RAAMI
100
AcDbText
 10
27.73709908749002
 20
2.471332585755512
 30
0.0
 40
1.399999999999999
  1
REVISION
  7
ROMANS
100
AcDbText
  0
LINE
  5
145
330
30
100
AcDbEntity
  8
OHUT
100
AcDbLine
 10
46.73709908749002
 20
9.237999252422177
 30
0.0
 11
209.23709908749
 21
9.237999252422177
 31
0.0
  0
LINE
  5
146
330
30
100
AcDbEntity
  8
OHUT
100
AcDbLine
 10
46.73709908749002
 20
0.2379992524221779
 30
0.0
 11
46.73709908749002
 21
9.237999252422177
 31
0.0
  0
LINE
  5
147
330
30
100
AcDbEntity
  8
OHUT
100
AcDbLine
 10
40.73709908749002
 20
4.737999252422177
 30
0.0
 11
209.23709908749
 21
4.737999252422177
 31
0.0
  0
LINE
  5
148
330
30
100
AcDbEntity
  8
OHUT
100
AcDbLine
 10
257.23709908749
 20
9.737999252422177
 30
0.0
 11
257.23709908749
 21
35.23799925242217
 31
0.0
  0
LINE
  5
149
330
30
100
AcDbEntity
  8
OHUT
100
AcDbLine
 10
271.23709908749
 20
9.737999252422177
 30
0.0
 11
271.23709908749
 21
0.2379992524221779
 31
0.0
  0
TEXT
  5
14A
330
30
100
AcDbEntity
  8
RAAMI
100
AcDbText
 10
210.23709908749
 20
32.23799925242218
 30
0.0
 40
1.399999999999999
  1
TEKI  PREPARED
  7
ROMANS
100
AcDbText
  0
TEXT
  5
14B
330
30
100
AcDbEntity
  8
RAAMI
100
AcDbText
 10
273.23709908749
 20
7.237999252422177
 30
0.0
 40
1.399999999999999
  1
VAST.OSASTO RESP.DEPT.
  7
ROMANS
100
AcDbText
  0
TEXT
  5
14C
330
30
100
AcDbEntity
  8
RAAMI
100
AcDbText
 10
257.4070059842234
 20
1.741782898647898
 30
0.0
 40
3.0
  1
Power
 41
0.8
  7
ROMANS
100
AcDbText
  0
TEXT
  5
14D
330
30
100
AcDbEntity
  8
RAAMI
100
AcDbText
 10
42.23709908749002
 20
1.195292064563767
 30
0.0
 40
2.5
  1
B
  7
ROMANS
100
AcDbText
  0
TEXT
  5
14E
330
30
100
AcDbEntity
  8
RAAMI
100
AcDbText
 10
42.23709908749002
 20
5.587508451304787
 30
0.0
 40
2.5
  1
C
  7
ROMANS
100
AcDbText
  0
LINE
  5
14F
330
30
100
AcDbEntity
  8
PAKSU
100
AcDbLine
 10
0.2370990874900258
 20
0.2379992524221779
 30
0.0
 11
392.23709908749
 21
0.2379992524221779
 31
0.0
  0
LINE
  5
150
330
30
100
AcDbEntity
  8
PAKSU
100
AcDbLine
 10
392.23709908749
 20
262.7379992524221
 30
0.0
 11
392.23709908749
 21
0.2379992524221779
 31
0.0
  0
LINE
  5
151
330
30
100
AcDbEntity
  8
PAKSU
100
AcDbLine
 10
0.2370990874900258
 20
0.2379992524221779
 30
0.0
 11
0.2370990874900258
 21
262.7379992524221
 31
0.0
  0
ENDBLK
  5
152
330
30
100
AcDbEntity
  8
0
100
AcDbBlockEnd
  0
BLOCK
  5
153
330
31
100
AcDbEntity
  8
0
100
AcDbBlockBegin
  2
*X15
 70
     1
 10
0.0
 20
0.0
 30
0.0
  3
*X15
  1

  0
LINE
  5
154
330
31
100
AcDbEntity
  8
0
 62
     0
100
AcDbLine
 10
2.284498831525768
 20
6.527139518645053
 30
0.0
 11
4.8
 21
9.042640687119284
 31
0.0
  0
LINE
  5
155
330
31
100
AcDbEntity
  8
0
 62
     0
100
AcDbLine
 10
2.379686282839342
 20
6.799103665255263
 30
0.0
 11
4.8
 21
9.219417382415922
 31
0.0
  0
LINE
  5
156
330
31
100
AcDbEntity
  8
0
 62
     0
100
AcDbLine
 10
2.474873734152915
 20
7.071067811865474
 30
0.0
 11
4.8
 21
9.396194077712559
 31
0.0
  0
LINE
  5
157
330
31
100
AcDbEntity
  8
0
 62
     0
100
AcDbLine
 10
2.570061185466489
 20
7.343031958475685
 30
0.0
 11
4.8
 21
9.572970773009195
 31
0.0
  0
LINE
  5
158
330
31
100
AcDbEntity
  8
0
 62
     0
100
AcDbLine
 10
2.665248636780063
 20
7.614996105085896
 30
0.0
 11
4.8
 21
9.749747468305832
 31
0.0
  0
LINE
  5
159
330
31
100
AcDbEntity
  8
0
 62
     0
100
AcDbLine
 10
2.760436088093637
 20
7.886960251696106
 30
0.0
 11
4.8
 21
9.926524163602469
 31
0.0
  0
LINE
  5
15A
330
31
100
AcDbEntity
  8
0
 62
     0
100
AcDbLine
 10
2.85562353940721
 20
8.158924398306316
 30
0.0
 11
4.696699141100895
 21
10.0
 31
0.0
  0
LINE
  5
15B
330
31
100
AcDbEntity
  8
0
 62
     0
100
AcDbLine
 10
2.950810990720784
 20
8.430888544916527
 30
0.0
 11
4.519922445804257
 21
10.0
 31
0.0
  0
LINE
  5
15C
330
31
100
AcDbEntity
  8
0
 62
     0
100
AcDbLine
 10
3.045998442034358
 20
8.702852691526738
 30
0.0
 11
4.343145750507621
 21
10.0
 31
0.0
  0
LINE
  5
15D
330
31
100
AcDbEntity
  8
0
 62
     0
100
AcDbLine
 10
3.141185893347932
 20
8.974816838136948
 30
0.0
 11
4.166369055210983
 21
10.0
 31
0.0
  0
LINE
  5
15E
330
31
100
AcDbEntity
  8
0
 62
     0
100
AcDbLine
 10
3.236373344661505
 20
9.246780984747159
 30
0.0
 11
3.989592359914347
 21
10.0
 31
0.0
  0
LINE
  5
15F
330
31
100
AcDbEntity
  8
0
 62
     0
100
AcDbLine
 10
3.331560795975079
 20
9.51874513135737
 30
0.0
 11
3.81281566461771
 21
10.0
 31
0.0
  0
LINE
  5
160
330
31
100
AcDbEntity
  8
0
 62
     0
100
AcDbLine
 10
3.426748247288653
 20
9.790709277967581
 30
0.0
 11
3.636038969321073
 21
10.0
 31
0.0
  0
LINE
  5
161
330
31
100
AcDbEntity
  8
0
 62
     0
100
AcDbLine
 10
2.189311380212195
 20
6.255175372034843
 30
0.0
 11
4.8
 21
8.865863991822648
 31
0.0
  0
LINE
  5
162
330
31
100
AcDbEntity
  8
0
 62
     0
100
AcDbLine
 10
2.094123928898621
 20
5.983211225424632
 30
0.0
 11
4.8
 21
8.689087296526011
 31
0.0
  0
LINE
  5
163
330
31
100
AcDbEntity
  8
0
 62
     0
100
AcDbLine
 10
1.998936477585047
 20
5.711247078814421
 30
0.0
 11
4.8
 21
8.512310601229374
 31
0.0
  0
LINE
  5
164
330
31
100
AcDbEntity
  8
0
 62
     0
100
AcDbLine
 10
1.903749026271473
 20
5.439282932204211
 30
0.0
 11
4.8
 21
8.335533905932738
 31
0.0
  0
LINE
  5
165
330
31
100
AcDbEntity
  8
0
 62
     0
100
AcDbLine
 10
1.841242789363899
 20
5.2
 30
0.0
 11
4.8
 21
8.1587572106361
 31
0.0
  0
LINE
  5
166
330
31
100
AcDbEntity
  8
0
 62
     0
100
AcDbLine
 10
2.018019484660536
 20
5.2
 30
0.0
 11
4.8
 21
7.981980515339463
 31
0.0
  0
LINE
  5
167
330
31
100
AcDbEntity
  8
0
 62
     0
100
AcDbLine
 10
2.194796179957173
 20
5.2
 30
0.0
 11
4.8
 21
7.805203820042827
 31
0.0
  0
LINE
  5
168
330
31
100
AcDbEntity
  8
0
 62
     0
100
AcDbLine
 10
2.37157287525381
 20
5.2
 30
0.0
 11
4.8
 21
7.62842712474619
 31
0.0
  0
LINE
  5
169
330
31
100
AcDbEntity
  8
0
 62
     0
100
AcDbLine
 10
2.548349570550447
 20
5.2
 30
0.0
 11
4.8
 21
7.451650429449553
 31
0.0
  0
LINE
  5
16A
330
31
100
AcDbEntity
  8
0
 62
     0
100
AcDbLine
 10
2.725126265847084
 20
5.2
 30
0.0
 11
4.8
 21
7.274873734152916
 31
0.0
  0
LINE
  5
16B
330
31
100
AcDbEntity
  8
0
 62
     0
100
AcDbLine
 10
2.901902961143721
 20
5.2
 30
0.0
 11
4.8
 21
7.098097038856279
 31
0.0
  0
LINE
  5
16C
330
31
100
AcDbEntity
  8
0
 62
     0
100
AcDbLine
 10
3.078679656440358
 20
5.2
 30
0.0
 11
4.8
 21
6.921320343559642
 31
0.0
  0
LINE
  5
16D
330
31
100
AcDbEntity
  8
0
 62
     0
100
AcDbLine
 10
3.255456351736994
 20
5.2
 30
0.0
 11
4.8
 21
6.744543648263006
 31
0.0
  0
LINE
  5
16E
330
31
100
AcDbEntity
  8
0
 62
     0
100
AcDbLine
 10
3.432233047033631
 20
5.2
 30
0.0
 11
4.8
 21
6.567766952966368
 31
0.0
  0
LINE
  5
16F
330
31
100
AcDbEntity
  8
0
 62
     0
100
AcDbLine
 10
3.609009742330268
 20
5.2
 30
0.0
 11
4.8
 21
6.390990257669732
 31
0.0
  0
LINE
  5
170
330
31
100
AcDbEntity
  8
0
 62
     0
100
AcDbLine
 10
3.785786437626905
 20
5.2
 30
0.0
 11
4.8
 21
6.214213562373095
 31
0.0
  0
LINE
  5
171
330
31
100
AcDbEntity
  8
0
 62
     0
100
AcDbLine
 10
3.962563132923542
 20
5.2
 30
0.0
 11
4.8
 21
6.037436867076458
 31
0.0
  0
LINE
  5
172
330
31
100
AcDbEntity
  8
0
 62
     0
100
AcDbLine
 10
4.139339828220179
 20
5.2
 30
0.0
 11
4.8
 21
5.860660171779821
 31
0.0
  0
LINE
  5
173
330
31
100
AcDbEntity
  8
0
 62
     0
100
AcDbLine
 10
4.316116523516816
 20
5.2
 30
0.0
 11
4.8
 21
5.683883476483184
 31
0.0
  0
LINE
  5
174
330
31
100
AcDbEntity
  8
0
 62
     0
100
AcDbLine
 10
4.492893218813453
 20
5.2
 30
0.0
 11
4.8
 21
5.507106781186547
 31
0.0
  0
LINE
  5
175
330
31
100
AcDbEntity
  8
0
 62
     0
100
AcDbLine
 10
4.669669914110089
 20
5.2
 30
0.0
 11
4.8
 21
5.330330085889911
 31
0.0
  0
ENDBLK
  5
176
330
31
100
AcDbEntity
  8
0
100
AcDbBlockEnd
  0
BLOCK
  5
177
330
32
100
AcDbEntity
  8
0
100
AcDbBlockBegin
  2
*X16
 70
     1
 10
0.0
 20
0.0
 30
0.0
  3
*X16
  1

  0
LINE
  5
178
330
32
100
AcDbEntity
  8
0
 62
     0
100
AcDbLine
 10
5.2
 20
6.083883476483183
 30
0.0
 11
7.178252432022877
 21
8.062135908506061
 31
0.0
  0
LINE
  5
179
330
32
100
AcDbEntity
  8
0
 62
     0
100
AcDbLine
 10
5.2
 20
6.260660171779821
 30
0.0
 11
7.132421436945971
 21
8.19308160872579
 31
0.0
  0
LINE
  5
17A
330
32
100
AcDbEntity
  8
0
 62
     0
100
AcDbLine
 10
5.2
 20
6.437436867076457
 30
0.0
 11
7.086590441869065
 21
8.324027308945522
 31
0.0
  0
LINE
  5
17B
330
32
100
AcDbEntity
  8
0
 62
     0
100
AcDbLine
 10
5.2
 20
6.614213562373095
 30
0.0
 11
7.04075944679216
 21
8.454973009165254
 31
0.0
  0
LINE
  5
17C
330
32
100
AcDbEntity
  8
0
 62
     0
100
AcDbLine
 10
5.2
 20
6.790990257669731
 30
0.0
 11
6.994928451715254
 21
8.585918709384984
 31
0.0
  0
LINE
  5
17D
330
32
100
AcDbEntity
  8
0
 62
     0
100
AcDbLine
 10
5.2
 20
6.967766952966368
 30
0.0
 11
6.949097456638348
 21
8.716864409604715
 31
0.0
  0
LINE
  5
17E
330
32
100
AcDbEntity
  8
0
 62
     0
100
AcDbLine
 10
5.2
 20
7.144543648263005
 30
0.0
 11
6.903266461561442
 21
8.847810109824447
 31
0.0
  0
LINE
  5
17F
330
32
100
AcDbEntity
  8
0
 62
     0
100
AcDbLine
 10
5.2
 20
7.321320343559642
 30
0.0
 11
6.857435466484536
 21
8.978755810044177
 31
0.0
  0
LINE
  5
180
330
32
100
AcDbEntity
  8
0
 62
     0
100
AcDbLine
 10
5.2
 20
7.498097038856279
 30
0.0
 11
6.81160447140763
 21
9.109701510263908
 31
0.0
  0
LINE
  5
181
330
32
100
AcDbEntity
  8
0
 62
     0
100
AcDbLine
 10
5.2
 20
7.674873734152916
 30
0.0
 11
6.765773476330724
 21
9.24064721048364
 31
0.0
  0
LINE
  5
182
330
32
100
AcDbEntity
  8
0
 62
     0
100
AcDbLine
 10
5.2
 20
7.851650429449552
 30
0.0
 11
6.719942481253818
 21
9.37159291070337
 31
0.0
  0
LINE
  5
183
330
32
100
AcDbEntity
  8
0
 62
     0
100
AcDbLine
 10
5.2
 20
8.028427124746189
 30
0.0
 11
6.674111486176912
 21
9.502538610923101
 31
0.0
  0
LINE
  5
184
330
32
100
AcDbEntity
  8
0
 62
     0
100
AcDbLine
 10
5.2
 20
8.205203820042827
 30
0.0
 11
6.628280491100007
 21
9.633484311142833
 31
0.0
  0
LINE
  5
185
330
32
100
AcDbEntity
  8
0
 62
     0
100
AcDbLine
 10
5.2
 20
8.381980515339463
 30
0.0
 11
6.582449496023101
 21
9.764430011362563
 31
0.0
  0
LINE
  5
186
330
32
100
AcDbEntity
  8
0
 62
     0
100
AcDbLine
 10
5.2
 20
8.5587572106361
 30
0.0
 11
6.536618500946195
 21
9.895375711582294
 31
0.0
  0
LINE
  5
187
330
32
100
AcDbEntity
  8
0
 62
     0
100
AcDbLine
 10
5.2
 20
8.735533905932737
 30
0.0
 11
6.464466094067264
 21
10.0
 31
0.0
  0
LINE
  5
188
330
32
100
AcDbEntity
  8
0
 62
     0
100
AcDbLine
 10
5.2
 20
8.912310601229373
 30
0.0
 11
6.287689398770627
 21
10.0
 31
0.0
  0
LINE
  5
189
330
32
100
AcDbEntity
  8
0
 62
     0
100
AcDbLine
 10
5.2
 20
9.089087296526011
 30
0.0
 11
6.11091270347399
 21
10.0
 31
0.0
  0
LINE
  5
18A
330
32
100
AcDbEntity
  8
0
 62
     0
100
AcDbLine
 10
5.2
 20
9.265863991822648
 30
0.0
 11
5.934136008177353
 21
10.0
 31
0.0
  0
LINE
  5
18B
330
32
100
AcDbEntity
  8
0
 62
     0
100
AcDbLine
 10
5.2
 20
9.442640687119284
 30
0.0
 11
5.757359312880716
 21
10.0
 31
0.0
  0
LINE
  5
18C
330
32
100
AcDbEntity
  8
0
 62
     0
100
AcDbLine
 10
5.2
 20
9.619417382415921
 30
0.0
 11
5.580582617584079
 21
10.0
 31
0.0
  0
LINE
  5
18D
330
32
100
AcDbEntity
  8
0
 62
     0
100
AcDbLine
 10
5.2
 20
9.796194077712558
 30
0.0
 11
5.403805922287442
 21
10.0
 31
0.0
  0
LINE
  5
18E
330
32
100
AcDbEntity
  8
0
 62
     0
100
AcDbLine
 10
5.2
 20
9.972970773009194
 30
0.0
 11
5.227029226990805
 21
10.0
 31
0.0
  0
LINE
  5
18F
330
32
100
AcDbEntity
  8
0
 62
     0
100
AcDbLine
 10
5.2
 20
5.907106781186547
 30
0.0
 11
7.224083427099783
 21
7.931190208286329
 31
0.0
  0
LINE
  5
190
330
32
100
AcDbEntity
  8
0
 62
     0
100
AcDbLine
 10
5.2
 20
5.73033008588991
 30
0.0
 11
7.269914422176689
 21
7.800244508066598
 31
0.0
  0
LINE
  5
191
330
32
100
AcDbEntity
  8
0
 62
     0
100
AcDbLine
 10
5.2
 20
5.553553390593273
 30
0.0
 11
7.315745417253594
 21
7.669298807846868
 31
0.0
  0
LINE
  5
192
330
32
100
AcDbEntity
  8
0
 62
     0
100
AcDbLine
 10
5.2
 20
5.376776695296636
 30
0.0
 11
7.3615764123305
 21
7.538353107627136
 31
0.0
  0
LINE
  5
193
330
32
100
AcDbEntity
  8
0
 62
     0
100
AcDbLine
 10
5.2
 20
5.2
 30
0.0
 11
7.407407407407406
 21
7.407407407407405
 31
0.0
  0
LINE
  5
194
330
32
100
AcDbEntity
  8
0
 62
     0
100
AcDbLine
 10
5.376776695296637
 20
5.2
 30
0.0
 11
7.453238402484312
 21
7.276461707187674
 31
0.0
  0
LINE
  5
195
330
32
100
AcDbEntity
  8
0
 62
     0
100
AcDbLine
 10
5.553553390593274
 20
5.2
 30
0.0
 11
7.499069397561219
 21
7.145516006967943
 31
0.0
  0
LINE
  5
196
330
32
100
AcDbEntity
  8
0
 62
     0
100
AcDbLine
 10
5.730330085889911
 20
5.2
 30
0.0
 11
7.544900392638124
 21
7.014570306748212
 31
0.0
  0
LINE
  5
197
330
32
100
AcDbEntity
  8
0
 62
     0
100
AcDbLine
 10
5.907106781186548
 20
5.2
 30
0.0
 11
7.59073138771503
 21
6.883624606528481
 31
0.0
  0
LINE
  5
198
330
32
100
AcDbEntity
  8
0
 62
     0
100
AcDbLine
 10
6.083883476483184
 20
5.2
 30
0.0
 11
7.636562382791936
 21
6.752678906308751
 31
0.0
  0
LINE
  5
199
330
32
100
AcDbEntity
  8
0
 62
     0
100
AcDbLine
 10
6.260660171779822
 20
5.2
 30
0.0
 11
7.682393377868842
 21
6.621733206089019
 31
0.0
  0
LINE
  5
19A
330
32
100
AcDbEntity
  8
0
 62
     0
100
AcDbLine
 10
6.437436867076458
 20
5.2
 30
0.0
 11
7.728224372945748
 21
6.490787505869288
 31
0.0
  0
LINE
  5
19B
330
32
100
AcDbEntity
  8
0
 62
     0
100
AcDbLine
 10
6.614213562373095
 20
5.2
 30
0.0
 11
7.774055368022653
 21
6.359841805649558
 31
0.0
  0
LINE
  5
19C
330
32
100
AcDbEntity
  8
0
 62
     0
100
AcDbLine
 10
6.790990257669732
 20
5.2
 30
0.0
 11
7.819886363099559
 21
6.228896105429826
 31
0.0
  0
LINE
  5
19D
330
32
100
AcDbEntity
  8
0
 62
     0
100
AcDbLine
 10
6.967766952966369
 20
5.2
 30
0.0
 11
7.865717358176465
 21
6.097950405210095
 31
0.0
  0
LINE
  5
19E
330
32
100
AcDbEntity
  8
0
 62
     0
100
AcDbLine
 10
7.144543648263006
 20
5.2
 30
0.0
 11
7.911548353253371
 21
5.967004704990364
 31
0.0
  0
LINE
  5
19F
330
32
100
AcDbEntity
  8
0
 62
     0
100
AcDbLine
 10
7.321320343559643
 20
5.2
 30
0.0
 11
7.957379348330277
 21
5.836059004770634
 31
0.0
  0
LINE
  5
1A0
330
32
100
AcDbEntity
  8
0
 62
     0
100
AcDbLine
 10
7.49809703885628
 20
5.2
 30
0.0
 11
8.003210343407182
 21
5.705113304550902
 31
0.0
  0
LINE
  5
1A1
330
32
100
AcDbEntity
  8
0
 62
     0
100
AcDbLine
 10
7.674873734152916
 20
5.2
 30
0.0
 11
8.049041338484089
 21
5.574167604331171
 31
0.0
  0
LINE
  5
1A2
330
32
100
AcDbEntity
  8
0
 62
     0
100
AcDbLine
 10
7.851650429449553
 20
5.2
 30
0.0
 11
8.094872333560994
 21
5.443221904111441
 31
0.0
  0
LINE
  5
1A3
330
32
100
AcDbEntity
  8
0
 62
     0
100
AcDbLine
 10
8.02842712474619
 20
5.2
 30
0.0
 11
8.140703328637901
 21
5.312276203891709
 31
0.0
  0
ENDBLK
  5
1A4
330
32
100
AcDbEntity
  8
0
100
AcDbBlockEnd
  0
BLOCK
  5
1A5
330
33
100
AcDbEntity
  8
0
100
AcDbBlockBegin
  2
*X17
 70
     1
 10
0.0
 20
0.0
 30
0.0
  3
*X17
  1

  0
LINE
  5
1A6
330
33
100
AcDbEntity
  8
0
 62
     0
100
AcDbLine
 10
0.0
 20
0.0
 30
0.0
 11
4.8
 21
4.799999999999999
 31
0.0
  0
LINE
  5
1A7
330
33
100
AcDbEntity
  8
0
 62
     0
100
AcDbLine
 10
0.0951874513135737
 20
0.2719641466102105
 30
0.0
 11
4.623223304703364
 21
4.8
 31
0.0
  0
LINE
  5
1A8
330
33
100
AcDbEntity
  8
0
 62
     0
100
AcDbLine
 10
0.1903749026271474
 20
0.5439282932204211
 30
0.0
 11
4.446446609406727
 21
4.8
 31
0.0
  0
LINE
  5
1A9
330
33
100
AcDbEntity
  8
0
 62
     0
100
AcDbLine
 10
0.2855623539407211
 20
0.8158924398306318
 30
0.0
 11
4.269669914110091
 21
4.8
 31
0.0
  0
LINE
  5
1AA
330
33
100
AcDbEntity
  8
0
 62
     0
100
AcDbLine
 10
0.3807498052542948
 20
1.087856586440842
 30
0.0
 11
4.092893218813453
 21
4.8
 31
0.0
  0
LINE
  5
1AB
330
33
100
AcDbEntity
  8
0
 62
     0
100
AcDbLine
 10
0.4759372565678686
 20
1.359820733051052
 30
0.0
 11
3.916116523516816
 21
4.8
 31
0.0
  0
LINE
  5
1AC
330
33
100
AcDbEntity
  8
0
 62
     0
100
AcDbLine
 10
0.5711247078814422
 20
1.631784879661263
 30
0.0
 11
3.73933982822018
 21
4.8
 31
0.0
  0
LINE
  5
1AD
330
33
100
AcDbEntity
  8
0
 62
     0
100
AcDbLine
 10
0.6663121591950159
 20
1.903749026271474
 30
0.0
 11
3.562563132923543
 21
4.8
 31
0.0
  0
LINE
  5
1AE
330
33
100
AcDbEntity
  8
0
 62
     0
100
AcDbLine
 10
0.7614996105085896
 20
2.175713172881684
 30
0.0
 11
3.385786437626906
 21
4.8
 31
0.0
  0
LINE
  5
1AF
330
33
100
AcDbEntity
  8
0
 62
     0
100
AcDbLine
 10
0.8566870618221631
 20
2.447677319491895
 30
0.0
 11
3.209009742330269
 21
4.8
 31
0.0
  0
LINE
  5
1B0
330
33
100
AcDbEntity
  8
0
 62
     0
100
AcDbLine
 10
0.951874513135737
 20
2.719641466102105
 30
0.0
 11
3.032233047033632
 21
4.8
 31
0.0
  0
LINE
  5
1B1
330
33
100
AcDbEntity
  8
0
 62
     0
100
AcDbLine
 10
1.04706196444931
 20
2.991605612712316
 30
0.0
 11
2.855456351736995
 21
4.8
 31
0.0
  0
LINE
  5
1B2
330
33
100
AcDbEntity
  8
0
 62
     0
100
AcDbLine
 10
1.142249415762884
 20
3.263569759322527
 30
0.0
 11
2.678679656440358
 21
4.8
 31
0.0
  0
LINE
  5
1B3
330
33
100
AcDbEntity
  8
0
 62
     0
100
AcDbLine
 10
1.237436867076458
 20
3.535533905932737
 30
0.0
 11
2.501902961143721
 21
4.8
 31
0.0
  0
LINE
  5
1B4
330
33
100
AcDbEntity
  8
0
 62
     0
100
AcDbLine
 10
1.332624318390031
 20
3.807498052542948
 30
0.0
 11
2.325126265847084
 21
4.8
 31
0.0
  0
LINE
  5
1B5
330
33
100
AcDbEntity
  8
0
 62
     0
100
AcDbLine
 10
1.427811769703605
 20
4.079462199153158
 30
0.0
 11
2.148349570550447
 21
4.8
 31
0.0
  0
LINE
  5
1B6
330
33
100
AcDbEntity
  8
0
 62
     0
100
AcDbLine
 10
1.522999221017179
 20
4.351426345763369
 30
0.0
 11
1.971572875253811
 21
4.8
 31
0.0
  0
LINE
  5
1B7
330
33
100
AcDbEntity
  8
0
 62
     0
100
AcDbLine
 10
1.618186672330752
 20
4.623390492373579
 30
0.0
 11
1.794796179957174
 21
4.8
 31
0.0
  0
LINE
  5
1B8
330
33
100
AcDbEntity
  8
0
 62
     0
100
AcDbLine
 10
0.1767766952966369
 20
0.0
 30
0.0
 11
4.8
 21
4.623223304703363
 31
0.0
  0
LINE
  5
1B9
330
33
100
AcDbEntity
  8
0
 62
     0
100
AcDbLine
 10
0.3535533905932738
 20
0.0
 30
0.0
 11
4.8
 21
4.446446609406725
 31
0.0
  0
LINE
  5
1BA
330
33
100
AcDbEntity
  8
0
 62
     0
100
AcDbLine
 10
0.5303300858899107
 20
0.0
 30
0.0
 11
4.8
 21
4.269669914110089
 31
0.0
  0
LINE
  5
1BB
330
33
100
AcDbEntity
  8
0
 62
     0
100
AcDbLine
 10
0.7071067811865476
 20
0.0
 30
0.0
 11
4.8
 21
4.092893218813452
 31
0.0
  0
LINE
  5
1BC
330
33
100
AcDbEntity
  8
0
 62
     0
100
AcDbLine
 10
0.8838834764831844
 20
0.0
 30
0.0
 11
4.8
 21
3.916116523516815
 31
0.0
  0
LINE
  5
1BD
330
33
100
AcDbEntity
  8
0
 62
     0
100
AcDbLine
 10
1.060660171779821
 20
0.0
 30
0.0
 11
4.8
 21
3.739339828220178
 31
0.0
  0
LINE
  5
1BE
330
33
100
AcDbEntity
  8
0
 62
     0
100
AcDbLine
 10
1.237436867076458
 20
0.0
 30
0.0
 11
3.17984168695883
 21
1.942404819882371
 31
0.0
  0
LINE
  5
1BF
330
33
100
AcDbEntity
  8
0
 62
     0
100
AcDbLine
 10
3.237436867076458
 20
2.0
 30
0.0
 11
4.8
 21
3.562563132923541
 31
0.0
  0
LINE
  5
1C0
330
33
100
AcDbEntity
  8
0
 62
     0
100
AcDbLine
 10
1.414213562373095
 20
0.0
 30
0.0
 11
3.084654235645256
 21
1.670440673272161
 31
0.0
  0
LINE
  5
1C1
330
33
100
AcDbEntity
  8
0
 62
     0
100
AcDbLine
 10
3.414213562373095
 20
2.0
 30
0.0
 11
4.8
 21
3.385786437626904
 31
0.0
  0
LINE
  5
1C2
330
33
100
AcDbEntity
  8
0
 62
     0
100
AcDbLine
 10
1.590990257669732
 20
0.0
 30
0.0
 11
2.989466784331682
 21
1.39847652666195
 31
0.0
  0
LINE
  5
1C3
330
33
100
AcDbEntity
  8
0
 62
     0
100
AcDbLine
 10
3.590990257669732
 20
2.0
 30
0.0
 11
4.8
 21
3.209009742330267
 31
0.0
  0
LINE
  5
1C4
330
33
100
AcDbEntity
  8
0
 62
     0
100
AcDbLine
 10
1.767766952966368
 20
0.0
 30
0.0
 11
2.894279333018109
 21
1.12651238005174
 31
0.0
  0
LINE
  5
1C5
330
33
100
AcDbEntity
  8
0
 62
     0
100
AcDbLine
 10
3.767766952966369
 20
2.0
 30
0.0
 11
4.8
 21
3.032233047033631
 31
0.0
  0
LINE
  5
1C6
330
33
100
AcDbEntity
  8
0
 62
     0
100
AcDbLine
 10
1.944543648263005
 20
0.0
 30
0.0
 11
2.799091881704535
 21
0.8545482334415293
 31
0.0
  0
LINE
  5
1C7
330
33
100
AcDbEntity
  8
0
 62
     0
100
AcDbLine
 10
3.944543648263006
 20
2.0
 30
0.0
 11
4.8
 21
2.855456351736994
 31
0.0
  0
LINE
  5
1C8
330
33
100
AcDbEntity
  8
0
 62
     0
100
AcDbLine
 10
2.121320343559642
 20
0.0
 30
0.0
 11
2.703904430390961
 21
0.5825840868313189
 31
0.0
  0
LINE
  5
1C9
330
33
100
AcDbEntity
  8
0
 62
     0
100
AcDbLine
 10
4.121320343559642
 20
2.0
 30
0.0
 11
4.8
 21
2.678679656440357
 31
0.0
  0
LINE
  5
1CA
330
33
100
AcDbEntity
  8
0
 62
     0
100
AcDbLine
 10
2.298097038856279
 20
0.0
 30
0.0
 11
2.608716979077388
 21
0.3106199402211083
 31
0.0
  0
LINE
  5
1CB
330
33
100
AcDbEntity
  8
0
 62
     0
100
AcDbLine
 10
4.29809703885628
 20
2.0
 30
0.0
 11
4.8
 21
2.50190296114372
 31
0.0
  0
LINE
  5
1CC
330
33
100
AcDbEntity
  8
0
 62
     0
100
AcDbLine
 10
2.474873734152916
 20
0.0
 30
0.0
 11
2.513529527763814
 21
0.0386557936108977
 31
0.0
  0
LINE
  5
1CD
330
33
100
AcDbEntity
  8
0
 62
     0
100
AcDbLine
 10
4.474873734152916
 20
2.0
 30
0.0
 11
4.8
 21
2.325126265847083
 31
0.0
  0
LINE
  5
1CE
330
33
100
AcDbEntity
  8
0
 62
     0
100
AcDbLine
 10
4.651650429449554
 20
2.0
 30
0.0
 11
4.8
 21
2.148349570550446
 31
0.0
  0
ENDBLK
  5
1CF
330
33
100
AcDbEntity
  8
0
100
AcDbBlockEnd
  0
BLOCK
  5
1D0
330
34
100
AcDbEntity
  8
0
100
AcDbBlockBegin
  2
*X18
 70
     1
 10
0.0
 20
0.0
 30
0.0
  3
*X18
  1

  0
LINE
  5
1D1
330
34
100
AcDbEntity
  8
0
 62
     0
100
AcDbLine
 10
6.884654412785825
 20
1.758130249183355
 30
0.0
 11
8.736506264637677
 21
3.609982101035206
 31
0.0
  0
LINE
  5
1D2
330
34
100
AcDbEntity
  8
0
 62
     0
100
AcDbLine
 10
6.838823417708919
 20
1.889075949403086
 30
0.0
 11
8.690675269560772
 21
3.740927801254938
 31
0.0
  0
LINE
  5
1D3
330
34
100
AcDbEntity
  8
0
 62
     0
100
AcDbLine
 10
6.772970773009196
 20
2.0
 30
0.0
 11
8.644844274483865
 21
3.871873501474668
 31
0.0
  0
LINE
  5
1D4
330
34
100
AcDbEntity
  8
0
 62
     0
100
AcDbLine
 10
6.596194077712559
 20
2.0
 30
0.0
 11
8.59901327940696
 21
4.0028192016944
 31
0.0
  0
LINE
  5
1D5
330
34
100
AcDbEntity
  8
0
 62
     0
100
AcDbLine
 10
6.419417382415922
 20
2.0
 30
0.0
 11
8.553182284330054
 21
4.133764901914131
 31
0.0
  0
LINE
  5
1D6
330
34
100
AcDbEntity
  8
0
 62
     0
100
AcDbLine
 10
6.242640687119285
 20
2.0
 30
0.0
 11
8.507351289253149
 21
4.264710602133861
 31
0.0
  0
LINE
  5
1D7
330
34
100
AcDbEntity
  8
0
 62
     0
100
AcDbLine
 10
6.065863991822649
 20
2.0
 30
0.0
 11
8.461520294176242
 21
4.395656302353593
 31
0.0
  0
LINE
  5
1D8
330
34
100
AcDbEntity
  8
0
 62
     0
100
AcDbLine
 10
5.889087296526011
 20
2.0
 30
0.0
 11
8.415689299099337
 21
4.526602002573324
 31
0.0
  0
LINE
  5
1D9
330
34
100
AcDbEntity
  8
0
 62
     0
100
AcDbLine
 10
5.712310601229375
 20
2.0
 30
0.0
 11
8.369858304022431
 21
4.657547702793054
 31
0.0
  0
LINE
  5
1DA
330
34
100
AcDbEntity
  8
0
 62
     0
100
AcDbLine
 10
5.535533905932737
 20
2.0
 30
0.0
 11
8.324027308945524
 21
4.788493403012786
 31
0.0
  0
LINE
  5
1DB
330
34
100
AcDbEntity
  8
0
 62
     0
100
AcDbLine
 10
5.358757210636101
 20
2.0
 30
0.0
 11
8.158757210636101
 21
4.8
 31
0.0
  0
LINE
  5
1DC
330
34
100
AcDbEntity
  8
0
 62
     0
100
AcDbLine
 10
5.2
 20
2.018019484660535
 30
0.0
 11
7.981980515339465
 21
4.8
 31
0.0
  0
LINE
  5
1DD
330
34
100
AcDbEntity
  8
0
 62
     0
100
AcDbLine
 10
5.2
 20
2.194796179957172
 30
0.0
 11
7.805203820042828
 21
4.8
 31
0.0
  0
LINE
  5
1DE
330
34
100
AcDbEntity
  8
0
 62
     0
100
AcDbLine
 10
5.2
 20
2.371572875253809
 30
0.0
 11
7.628427124746191
 21
4.8
 31
0.0
  0
LINE
  5
1DF
330
34
100
AcDbEntity
  8
0
 62
     0
100
AcDbLine
 10
5.2
 20
2.548349570550446
 30
0.0
 11
7.451650429449554
 21
4.8
 31
0.0
  0
LINE
  5
1E0
330
34
100
AcDbEntity
  8
0
 62
     0
100
AcDbLine
 10
5.2
 20
2.725126265847083
 30
0.0
 11
7.274873734152918
 21
4.8
 31
0.0
  0
LINE
  5
1E1
330
34
100
AcDbEntity
  8
0
 62
     0
100
AcDbLine
 10
5.2
 20
2.90190296114372
 30
0.0
 11
7.09809703885628
 21
4.8
 31
0.0
  0
LINE
  5
1E2
330
34
100
AcDbEntity
  8
0
 62
     0
100
AcDbLine
 10
5.2
 20
3.078679656440356
 30
0.0
 11
6.921320343559644
 21
4.8
 31
0.0
  0
LINE
  5
1E3
330
34
100
AcDbEntity
  8
0
 62
     0
100
AcDbLine
 10
5.2
 20
3.255456351736993
 30
0.0
 11
6.744543648263007
 21
4.8
 31
0.0
  0
LINE
  5
1E4
330
34
100
AcDbEntity
  8
0
 62
     0
100
AcDbLine
 10
5.2
 20
3.43223304703363
 30
0.0
 11
6.56776695296637
 21
4.8
 31
0.0
  0
LINE
  5
1E5
330
34
100
AcDbEntity
  8
0
 62
     0
100
AcDbLine
 10
5.2
 20
3.609009742330267
 30
0.0
 11
6.390990257669733
 21
4.8
 31
0.0
  0
LINE
  5
1E6
330
34
100
AcDbEntity
  8
0
 62
     0
100
AcDbLine
 10
5.2
 20
3.785786437626904
 30
0.0
 11
6.214213562373096
 21
4.8
 31
0.0
  0
LINE
  5
1E7
330
34
100
AcDbEntity
  8
0
 62
     0
100
AcDbLine
 10
5.2
 20
3.962563132923541
 30
0.0
 11
6.037436867076459
 21
4.8
 31
0.0
  0
LINE
  5
1E8
330
34
100
AcDbEntity
  8
0
 62
     0
100
AcDbLine
 10
5.2
 20
4.139339828220178
 30
0.0
 11
5.860660171779822
 21
4.8
 31
0.0
  0
LINE
  5
1E9
330
34
100
AcDbEntity
  8
0
 62
     0
100
AcDbLine
 10
5.2
 20
4.316116523516814
 30
0.0
 11
5.683883476483186
 21
4.8
 31
0.0
  0
LINE
  5
1EA
330
34
100
AcDbEntity
  8
0
 62
     0
100
AcDbLine
 10
5.2
 20
4.492893218813452
 30
0.0
 11
5.507106781186549
 21
4.8
 31
0.0
  0
LINE
  5
1EB
330
34
100
AcDbEntity
  8
0
 62
     0
100
AcDbLine
 10
5.2
 20
4.669669914110088
 30
0.0
 11
5.330330085889912
 21
4.8
 31
0.0
  0
LINE
  5
1EC
330
34
100
AcDbEntity
  8
0
 62
     0
100
AcDbLine
 10
6.930485407862731
 20
1.627184548963624
 30
0.0
 11
8.782337259714584
 21
3.479036400815475
 31
0.0
  0
LINE
  5
1ED
330
34
100
AcDbEntity
  8
0
 62
     0
100
AcDbLine
 10
6.976316402939636
 20
1.496238848743893
 30
0.0
 11
8.828168254791489
 21
3.348090700595744
 31
0.0
  0
LINE
  5
1EE
330
34
100
AcDbEntity
  8
0
 62
     0
100
AcDbLine
 10
7.022147398016543
 20
1.365293148524162
 30
0.0
 11
8.873999249868395
 21
3.217145000376013
 31
0.0
  0
LINE
  5
1EF
330
34
100
AcDbEntity
  8
0
 62
     0
100
AcDbLine
 10
7.067978393093449
 20
1.234347448304431
 30
0.0
 11
8.9198302449453
 21
3.086199300156282
 31
0.0
  0
LINE
  5
1F0
330
34
100
AcDbEntity
  8
0
 62
     0
100
AcDbLine
 10
7.113809388170355
 20
1.1034017480847
 30
0.0
 11
8.965661240022207
 21
2.955253599936551
 31
0.0
  0
LINE
  5
1F1
330
34
100
AcDbEntity
  8
0
 62
     0
100
AcDbLine
 10
7.159640383247261
 20
0.9724560478649696
 30
0.0
 11
9.011492235099112
 21
2.82430789971682
 31
0.0
  0
LINE
  5
1F2
330
34
100
AcDbEntity
  8
0
 62
     0
100
AcDbLine
 10
7.205471378324166
 20
0.8415103476452385
 30
0.0
 11
9.057323230176018
 21
2.693362199497089
 31
0.0
  0
LINE
  5
1F3
330
34
100
AcDbEntity
  8
0
 62
     0
100
AcDbLine
 10
7.251302373401072
 20
0.7105646474255075
 30
0.0
 11
9.103154225252923
 21
2.562416499277358
 31
0.0
  0
LINE
  5
1F4
330
34
100
AcDbEntity
  8
0
 62
     0
100
AcDbLine
 10
7.297133368477978
 20
0.5796189472057765
 30
0.0
 11
9.14898522032983
 21
2.431470799057627
 31
0.0
  0
LINE
  5
1F5
330
34
100
AcDbEntity
  8
0
 62
     0
100
AcDbLine
 10
7.342964363554884
 20
0.4486732469860454
 30
0.0
 11
9.194816215406737
 21
2.300525098837896
 31
0.0
  0
LINE
  5
1F6
330
34
100
AcDbEntity
  8
0
 62
     0
100
AcDbLine
 10
7.38879535863179
 20
0.3177275467663144
 30
0.0
 11
9.240647210483642
 21
2.169579398618165
 31
0.0
  0
LINE
  5
1F7
330
34
100
AcDbEntity
  8
0
 62
     0
100
AcDbLine
 10
7.434626353708695
 20
0.1867818465465834
 30
0.0
 11
9.286478205560548
 21
2.038633698398434
 31
0.0
  0
LINE
  5
1F8
330
34
100
AcDbEntity
  8
0
 62
     0
100
AcDbLine
 10
7.480457348785601
 20
0.0558361463268524
 30
0.0
 11
9.332309200637453
 21
1.907687998178703
 31
0.0
  0
LINE
  5
1F9
330
34
100
AcDbEntity
  8
0
 62
     0
100
AcDbLine
 10
7.601397897755386
 20
0.0
 30
0.0
 11
9.37814019571436
 21
1.776742297958972
 31
0.0
  0
LINE
  5
1FA
330
34
100
AcDbEntity
  8
0
 62
     0
100
AcDbLine
 10
7.778174593052023
 20
0.0
 30
0.0
 11
9.423971190791265
 21
1.645796597739241
 31
0.0
  0
LINE
  5
1FB
330
34
100
AcDbEntity
  8
0
 62
     0
100
AcDbLine
 10
7.954951288348659
 20
0.0
 30
0.0
 11
9.469802185868172
 21
1.51485089751951
 31
0.0
  0
LINE
  5
1FC
330
34
100
AcDbEntity
  8
0
 62
     0
100
AcDbLine
 10
8.131727983645296
 20
0.0
 30
0.0
 11
9.515633180945076
 21
1.383905197299779
 31
0.0
  0
LINE
  5
1FD
330
34
100
AcDbEntity
  8
0
 62
     0
100
AcDbLine
 10
8.308504678941934
 20
0.0
 30
0.0
 11
9.561464176021983
 21
1.252959497080048
 31
0.0
  0
LINE
  5
1FE
330
34
100
AcDbEntity
  8
0
 62
     0
100
AcDbLine
 10
8.485281374238571
 20
0.0
 30
0.0
 11
9.607295171098888
 21
1.122013796860317
 31
0.0
  0
LINE
  5
1FF
330
34
100
AcDbEntity
  8
0
 62
     0
100
AcDbLine
 10
8.662058069535207
 20
0.0
 30
0.0
 11
9.653126166175795
 21
0.9910680966405861
 31
0.0
  0
LINE
  5
200
330
34
100
AcDbEntity
  8
0
 62
     0
100
AcDbLine
 10
8.838834764831844
 20
0.0
 30
0.0
 11
9.6989571612527
 21
0.860122396420855
 31
0.0
  0
LINE
  5
201
330
34
100
AcDbEntity
  8
0
 62
     0
100
AcDbLine
 10
9.01561146012848
 20
0.0
 30
0.0
 11
9.744788156329606
 21
0.7291766962011242
 31
0.0
  0
LINE
  5
202
330
34
100
AcDbEntity
  8
0
 62
     0
100
AcDbLine
 10
9.192388155425119
 20
0.0
 30
0.0
 11
9.790619151406511
 21
0.5982309959813931
 31
0.0
  0
LINE
  5
203
330
34
100
AcDbEntity
  8
0
 62
     0
100
AcDbLine
 10
9.369164850721755
 20
0.0
 30
0.0
 11
9.836450146483418
 21
0.467285295761662
 31
0.0
  0
LINE
  5
204
330
34
100
AcDbEntity
  8
0
 62
     0
100
AcDbLine
 10
9.545941546018392
 20
0.0
 30
0.0
 11
9.882281141560325
 21
0.336339595541931
 31
0.0
  0
LINE
  5
205
330
34
100
AcDbEntity
  8
0
 62
     0
100
AcDbLine
 10
9.722718241315028
 20
0.0
 30
0.0
 11
9.92811213663723
 21
0.2053938953222
 31
0.0
  0
LINE
  5
206
330
34
100
AcDbEntity
  8
0
 62
     0
100
AcDbLine
 10
9.899494936611665
 20
0.0
 30
0.0
 11
9.973943131714136
 21
0.0744481951024689
 31
0.0
  0
ENDBLK
  5
207
330
34
100
AcDbEntity
  8
0
100
AcDbBlockEnd
  0
BLOCK
  5
208
330
35
100
AcDbEntity
  8
0
100
AcDbBlockBegin
  2
*X19
 70
     1
 10
0.0
 20
0.0
 30
0.0
  3
*X19
  1

  0
LINE
  5
209
330
35
100
AcDbEntity
  8
0
 62
     0
100
AcDbLine
 10
10.7
 20
6.280582617584078
 30
0.0
 11
13.5
 21
9.080582617584076
 31
0.0
  0
LINE
  5
20A
330
35
100
AcDbEntity
  8
0
 62
     0
100
AcDbLine
 10
10.7
 20
6.457359312880715
 30
0.0
 11
13.5
 21
9.257359312880712
 31
0.0
  0
LINE
  5
20B
330
35
100
AcDbEntity
  8
0
 62
     0
100
AcDbLine
 10
10.7
 20
6.634136008177351
 30
0.0
 11
13.5
 21
9.43413600817735
 31
0.0
  0
LINE
  5
20C
330
35
100
AcDbEntity
  8
0
 62
     0
100
AcDbLine
 10
10.7
 20
6.810912703473989
 30
0.0
 11
13.5
 21
9.610912703473987
 31
0.0
  0
LINE
  5
20D
330
35
100
AcDbEntity
  8
0
 62
     0
100
AcDbLine
 10
10.7
 20
6.987689398770625
 30
0.0
 11
13.5
 21
9.787689398770623
 31
0.0
  0
LINE
  5
20E
330
35
100
AcDbEntity
  8
0
 62
     0
100
AcDbLine
 10
10.7
 20
7.164466094067263
 30
0.0
 11
13.5
 21
9.96446609406726
 31
0.0
  0
LINE
  5
20F
330
35
100
AcDbEntity
  8
0
 62
     0
100
AcDbLine
 10
10.7
 20
7.341242789363899
 30
0.0
 11
13.3587572106361
 21
10.0
 31
0.0
  0
LINE
  5
210
330
35
100
AcDbEntity
  8
0
 62
     0
100
AcDbLine
 10
10.7
 20
7.518019484660536
 30
0.0
 11
13.18198051533946
 21
10.0
 31
0.0
  0
LINE
  5
211
330
35
100
AcDbEntity
  8
0
 62
     0
100
AcDbLine
 10
10.7
 20
7.694796179957173
 30
0.0
 11
13.00520382004282
 21
10.0
 31
0.0
  0
LINE
  5
212
330
35
100
AcDbEntity
  8
0
 62
     0
100
AcDbLine
 10
10.7
 20
7.87157287525381
 30
0.0
 11
12.82842712474619
 21
10.0
 31
0.0
  0
LINE
  5
213
330
35
100
AcDbEntity
  8
0
 62
     0
100
AcDbLine
 10
10.7
 20
8.048349570550447
 30
0.0
 11
12.65165042944955
 21
10.0
 31
0.0
  0
LINE
  5
214
330
35
100
AcDbEntity
  8
0
 62
     0
100
AcDbLine
 10
10.7
 20
8.225126265847084
 30
0.0
 11
12.47487373415292
 21
10.0
 31
0.0
  0
LINE
  5
215
330
35
100
AcDbEntity
  8
0
 62
     0
100
AcDbLine
 10
10.7
 20
8.40190296114372
 30
0.0
 11
12.29809703885628
 21
10.0
 31
0.0
  0
LINE
  5
216
330
35
100
AcDbEntity
  8
0
 62
     0
100
AcDbLine
 10
10.7
 20
8.578679656440357
 30
0.0
 11
12.12132034355964
 21
10.0
 31
0.0
  0
LINE
  5
217
330
35
100
AcDbEntity
  8
0
 62
     0
100
AcDbLine
 10
10.7
 20
8.755456351736995
 30
0.0
 11
11.944543648263
 21
10.0
 31
0.0
  0
LINE
  5
218
330
35
100
AcDbEntity
  8
0
 62
     0
100
AcDbLine
 10
10.7
 20
8.932233047033632
 30
0.0
 11
11.76776695296637
 21
10.0
 31
0.0
  0
LINE
  5
219
330
35
100
AcDbEntity
  8
0
 62
     0
100
AcDbLine
 10
10.7
 20
9.109009742330268
 30
0.0
 11
11.59099025766973
 21
10.0
 31
0.0
  0
LINE
  5
21A
330
35
100
AcDbEntity
  8
0
 62
     0
100
AcDbLine
 10
10.7
 20
9.285786437626905
 30
0.0
 11
11.41421356237309
 21
10.0
 31
0.0
  0
LINE
  5
21B
330
35
100
AcDbEntity
  8
0
 62
     0
100
AcDbLine
 10
10.7
 20
9.462563132923541
 30
0.0
 11
11.23743686707646
 21
10.0
 31
0.0
  0
LINE
  5
21C
330
35
100
AcDbEntity
  8
0
 62
     0
100
AcDbLine
 10
10.7
 20
9.63933982822018
 30
0.0
 11
11.06066017177982
 21
10.0
 31
0.0
  0
LINE
  5
21D
330
35
100
AcDbEntity
  8
0
 62
     0
100
AcDbLine
 10
10.7
 20
9.816116523516816
 30
0.0
 11
10.88388347648318
 21
10.0
 31
0.0
  0
LINE
  5
21E
330
35
100
AcDbEntity
  8
0
 62
     0
100
AcDbLine
 10
10.7
 20
9.992893218813453
 30
0.0
 11
10.70710678118655
 21
10.0
 31
0.0
  0
LINE
  5
21F
330
35
100
AcDbEntity
  8
0
 62
     0
100
AcDbLine
 10
10.7
 20
6.103805922287441
 30
0.0
 11
13.5
 21
8.903805922287439
 31
0.0
  0
LINE
  5
220
330
35
100
AcDbEntity
  8
0
 62
     0
100
AcDbLine
 10
10.7
 20
5.927029226990804
 30
0.0
 11
13.5
 21
8.727029226990802
 31
0.0
  0
LINE
  5
221
330
35
100
AcDbEntity
  8
0
 62
     0
100
AcDbLine
 10
10.7
 20
5.750252531694168
 30
0.0
 11
13.5
 21
8.550252531694166
 31
0.0
  0
LINE
  5
222
330
35
100
AcDbEntity
  8
0
 62
     0
100
AcDbLine
 10
10.7
 20
5.57347583639753
 30
0.0
 11
13.5
 21
8.373475836397528
 31
0.0
  0
LINE
  5
223
330
35
100
AcDbEntity
  8
0
 62
     0
100
AcDbLine
 10
10.7
 20
5.396699141100894
 30
0.0
 11
13.5
 21
8.196699141100891
 31
0.0
  0
LINE
  5
224
330
35
100
AcDbEntity
  8
0
 62
     0
100
AcDbLine
 10
10.7
 20
5.219922445804257
 30
0.0
 11
13.5
 21
8.019922445804255
 31
0.0
  0
LINE
  5
225
330
35
100
AcDbEntity
  8
0
 62
     0
100
AcDbLine
 10
10.85685424949238
 20
5.2
 30
0.0
 11
13.5
 21
7.843145750507618
 31
0.0
  0
LINE
  5
226
330
35
100
AcDbEntity
  8
0
 62
     0
100
AcDbLine
 10
11.03363094478901
 20
5.2
 30
0.0
 11
13.5
 21
7.666369055210981
 31
0.0
  0
LINE
  5
227
330
35
100
AcDbEntity
  8
0
 62
     0
100
AcDbLine
 10
11.21040764008565
 20
5.2
 30
0.0
 11
13.5
 21
7.489592359914344
 31
0.0
  0
LINE
  5
228
330
35
100
AcDbEntity
  8
0
 62
     0
100
AcDbLine
 10
11.38718433538229
 20
5.2
 30
0.0
 11
13.5
 21
7.312815664617708
 31
0.0
  0
LINE
  5
229
330
35
100
AcDbEntity
  8
0
 62
     0
100
AcDbLine
 10
11.56396103067893
 20
5.2
 30
0.0
 11
13.5
 21
7.13603896932107
 31
0.0
  0
LINE
  5
22A
330
35
100
AcDbEntity
  8
0
 62
     0
100
AcDbLine
 10
11.74073772597556
 20
5.2
 30
0.0
 11
13.5
 21
6.959262274024434
 31
0.0
  0
LINE
  5
22B
330
35
100
AcDbEntity
  8
0
 62
     0
100
AcDbLine
 10
11.9175144212722
 20
5.2
 30
0.0
 11
13.5
 21
6.782485578727796
 31
0.0
  0
LINE
  5
22C
330
35
100
AcDbEntity
  8
0
 62
     0
100
AcDbLine
 10
12.09429111656884
 20
5.2
 30
0.0
 11
13.5
 21
6.60570888343116
 31
0.0
  0
LINE
  5
22D
330
35
100
AcDbEntity
  8
0
 62
     0
100
AcDbLine
 10
12.27106781186547
 20
5.2
 30
0.0
 11
13.5
 21
6.428932188134523
 31
0.0
  0
LINE
  5
22E
330
35
100
AcDbEntity
  8
0
 62
     0
100
AcDbLine
 10
12.44784450716211
 20
5.2
 30
0.0
 11
13.5
 21
6.252155492837886
 31
0.0
  0
LINE
  5
22F
330
35
100
AcDbEntity
  8
0
 62
     0
100
AcDbLine
 10
12.62462120245875
 20
5.2
 30
0.0
 11
13.5
 21
6.075378797541249
 31
0.0
  0
LINE
  5
230
330
35
100
AcDbEntity
  8
0
 62
     0
100
AcDbLine
 10
12.80139789775538
 20
5.2
 30
0.0
 11
13.5
 21
5.898602102244612
 31
0.0
  0
LINE
  5
231
330
35
100
AcDbEntity
  8
0
 62
     0
100
AcDbLine
 10
12.97817459305202
 20
5.2
 30
0.0
 11
13.5
 21
5.721825406947975
 31
0.0
  0
LINE
  5
232
330
35
100
AcDbEntity
  8
0
 62
     0
100
AcDbLine
 10
13.15495128834866
 20
5.2
 30
0.0
 11
13.5
 21
5.545048711651339
 31
0.0
  0
LINE
  5
233
330
35
100
AcDbEntity
  8
0
 62
     0
100
AcDbLine
 10
13.3317279836453
 20
5.2
 30
0.0
 11
13.5
 21
5.368272016354701
 31
0.0
  0
ENDBLK
  5
234
330
35
100
AcDbEntity
  8
0
100
AcDbBlockEnd
  0
BLOCK
  5
235
330
36
100
AcDbEntity
  8
0
100
AcDbBlockBegin
  2
*X20
 70
     1
 10
0.0
 20
0.0
 30
0.0
  3
*X20
  1

  0
LINE
  5
236
330
36
100
AcDbEntity
  8
0
 62
     0
100
AcDbLine
 10
10.7
 20
1.154058453981608
 30
0.0
 11
13.5
 21
3.954058453981607
 31
0.0
  0
LINE
  5
237
330
36
100
AcDbEntity
  8
0
 62
     0
100
AcDbLine
 10
10.7
 20
1.330835149278245
 30
0.0
 11
13.5
 21
4.130835149278244
 31
0.0
  0
LINE
  5
238
330
36
100
AcDbEntity
  8
0
 62
     0
100
AcDbLine
 10
10.7
 20
1.507611844574882
 30
0.0
 11
13.5
 21
4.30761184457488
 31
0.0
  0
LINE
  5
239
330
36
100
AcDbEntity
  8
0
 62
     0
100
AcDbLine
 10
10.7
 20
1.684388539871519
 30
0.0
 11
13.5
 21
4.484388539871518
 31
0.0
  0
LINE
  5
23A
330
36
100
AcDbEntity
  8
0
 62
     0
100
AcDbLine
 10
10.7
 20
1.861165235168155
 30
0.0
 11
13.5
 21
4.661165235168154
 31
0.0
  0
LINE
  5
23B
330
36
100
AcDbEntity
  8
0
 62
     0
100
AcDbLine
 10
10.7
 20
2.037941930464792
 30
0.0
 11
13.46205806953521
 21
4.800000000000001
 31
0.0
  0
LINE
  5
23C
330
36
100
AcDbEntity
  8
0
 62
     0
100
AcDbLine
 10
10.7
 20
2.214718625761429
 30
0.0
 11
13.28528137423857
 21
4.800000000000001
 31
0.0
  0
LINE
  5
23D
330
36
100
AcDbEntity
  8
0
 62
     0
100
AcDbLine
 10
10.7
 20
2.391495321058066
 30
0.0
 11
13.10850467894193
 21
4.800000000000001
 31
0.0
  0
LINE
  5
23E
330
36
100
AcDbEntity
  8
0
 62
     0
100
AcDbLine
 10
10.7
 20
2.568272016354703
 30
0.0
 11
12.9317279836453
 21
4.800000000000001
 31
0.0
  0
LINE
  5
23F
330
36
100
AcDbEntity
  8
0
 62
     0
100
AcDbLine
 10
10.7
 20
2.74504871165134
 30
0.0
 11
12.75495128834866
 21
4.800000000000001
 31
0.0
  0
LINE
  5
240
330
36
100
AcDbEntity
  8
0
 62
     0
100
AcDbLine
 10
10.7
 20
2.921825406947977
 30
0.0
 11
12.57817459305202
 21
4.800000000000001
 31
0.0
  0
LINE
  5
241
330
36
100
AcDbEntity
  8
0
 62
     0
100
AcDbLine
 10
10.7
 20
3.098602102244614
 30
0.0
 11
12.40139789775539
 21
4.800000000000001
 31
0.0
  0
LINE
  5
242
330
36
100
AcDbEntity
  8
0
 62
     0
100
AcDbLine
 10
10.7
 20
3.275378797541251
 30
0.0
 11
12.22462120245875
 21
4.800000000000001
 31
0.0
  0
LINE
  5
243
330
36
100
AcDbEntity
  8
0
 62
     0
100
AcDbLine
 10
10.7
 20
3.452155492837887
 30
0.0
 11
12.04784450716211
 21
4.800000000000001
 31
0.0
  0
LINE
  5
244
330
36
100
AcDbEntity
  8
0
 62
     0
100
AcDbLine
 10
10.7
 20
3.628932188134524
 30
0.0
 11
11.87106781186547
 21
4.800000000000001
 31
0.0
  0
LINE
  5
245
330
36
100
AcDbEntity
  8
0
 62
     0
100
AcDbLine
 10
10.7
 20
3.805708883431161
 30
0.0
 11
11.69429111656884
 21
4.800000000000001
 31
0.0
  0
LINE
  5
246
330
36
100
AcDbEntity
  8
0
 62
     0
100
AcDbLine
 10
10.7
 20
3.982485578727798
 30
0.0
 11
11.5175144212722
 21
4.800000000000001
 31
0.0
  0
LINE
  5
247
330
36
100
AcDbEntity
  8
0
 62
     0
100
AcDbLine
 10
10.7
 20
4.159262274024435
 30
0.0
 11
11.34073772597556
 21
4.800000000000001
 31
0.0
  0
LINE
  5
248
330
36
100
AcDbEntity
  8
0
 62
     0
100
AcDbLine
 10
10.7
 20
4.336038969321072
 30
0.0
 11
11.16396103067893
 21
4.800000000000001
 31
0.0
  0
LINE
  5
249
330
36
100
AcDbEntity
  8
0
 62
     0
100
AcDbLine
 10
10.7
 20
4.512815664617709
 30
0.0
 11
10.98718433538229
 21
4.800000000000001
 31
0.0
  0
LINE
  5
24A
330
36
100
AcDbEntity
  8
0
 62
     0
100
AcDbLine
 10
10.7
 20
4.689592359914345
 30
0.0
 11
10.81040764008565
 21
4.800000000000001
 31
0.0
  0
LINE
  5
24B
330
36
100
AcDbEntity
  8
0
 62
     0
100
AcDbLine
 10
10.7
 20
0.9772817586849718
 30
0.0
 11
13.5
 21
3.77728175868497
 31
0.0
  0
LINE
  5
24C
330
36
100
AcDbEntity
  8
0
 62
     0
100
AcDbLine
 10
10.7
 20
0.800505063388335
 30
0.0
 11
13.5
 21
3.600505063388333
 31
0.0
  0
LINE
  5
24D
330
36
100
AcDbEntity
  8
0
 62
     0
100
AcDbLine
 10
10.7
 20
0.6237283680916982
 30
0.0
 11
13.5
 21
3.423728368091696
 31
0.0
  0
LINE
  5
24E
330
36
100
AcDbEntity
  8
0
 62
     0
100
AcDbLine
 10
10.7
 20
0.4469516727950612
 30
0.0
 11
13.5
 21
3.246951672795059
 31
0.0
  0
LINE
  5
24F
330
36
100
AcDbEntity
  8
0
 62
     0
100
AcDbLine
 10
10.7
 20
0.2701749774984243
 30
0.0
 11
13.5
 21
3.070174977498422
 31
0.0
  0
LINE
  5
250
330
36
100
AcDbEntity
  8
0
 62
     0
100
AcDbLine
 10
10.7
 20
0.0933982822017875
 30
0.0
 11
13.5
 21
2.893398282201785
 31
0.0
  0
LINE
  5
251
330
36
100
AcDbEntity
  8
0
 62
     0
100
AcDbLine
 10
10.78337841309485
 20
0.0
 30
0.0
 11
13.5
 21
2.716621586905149
 31
0.0
  0
LINE
  5
252
330
36
100
AcDbEntity
  8
0
 62
     0
100
AcDbLine
 10
10.96015510839148
 20
0.0
 30
0.0
 11
13.5
 21
2.539844891608512
 31
0.0
  0
LINE
  5
253
330
36
100
AcDbEntity
  8
0
 62
     0
100
AcDbLine
 10
11.13693180368812
 20
0.0
 30
0.0
 11
13.5
 21
2.363068196311875
 31
0.0
  0
LINE
  5
254
330
36
100
AcDbEntity
  8
0
 62
     0
100
AcDbLine
 10
11.31370849898476
 20
0.0
 30
0.0
 11
13.5
 21
2.186291501015238
 31
0.0
  0
LINE
  5
255
330
36
100
AcDbEntity
  8
0
 62
     0
100
AcDbLine
 10
11.49048519428139
 20
0.0
 30
0.0
 11
13.5
 21
2.009514805718601
 31
0.0
  0
LINE
  5
256
330
36
100
AcDbEntity
  8
0
 62
     0
100
AcDbLine
 10
11.66726188957803
 20
0.0
 30
0.0
 11
13.5
 21
1.832738110421964
 31
0.0
  0
LINE
  5
257
330
36
100
AcDbEntity
  8
0
 62
     0
100
AcDbLine
 10
11.84403858487467
 20
0.0
 30
0.0
 11
13.5
 21
1.655961415125327
 31
0.0
  0
LINE
  5
258
330
36
100
AcDbEntity
  8
0
 62
     0
100
AcDbLine
 10
12.02081528017131
 20
0.0
 30
0.0
 11
13.5
 21
1.479184719828691
 31
0.0
  0
LINE
  5
259
330
36
100
AcDbEntity
  8
0
 62
     0
100
AcDbLine
 10
12.19759197546794
 20
0.0
 30
0.0
 11
13.5
 21
1.302408024532054
 31
0.0
  0
LINE
  5
25A
330
36
100
AcDbEntity
  8
0
 62
     0
100
AcDbLine
 10
12.37436867076458
 20
0.0
 30
0.0
 11
13.5
 21
1.125631329235417
 31
0.0
  0
LINE
  5
25B
330
36
100
AcDbEntity
  8
0
 62
     0
100
AcDbLine
 10
12.55114536606122
 20
0.0
 30
0.0
 11
13.5
 21
0.9488546339387806
 31
0.0
  0
LINE
  5
25C
330
36
100
AcDbEntity
  8
0
 62
     0
100
AcDbLine
 10
12.72792206135785
 20
0.0
 30
0.0
 11
13.5
 21
0.7720779386421438
 31
0.0
  0
LINE
  5
25D
330
36
100
AcDbEntity
  8
0
 62
     0
100
AcDbLine
 10
12.90469875665449
 20
0.0
 30
0.0
 11
13.5
 21
0.5953012433455069
 31
0.0
  0
LINE
  5
25E
330
36
100
AcDbEntity
  8
0
 62
     0
100
AcDbLine
 10
13.08147545195113
 20
0.0
 30
0.0
 11
13.5
 21
0.4185245480488699
 31
0.0
  0
LINE
  5
25F
330
36
100
AcDbEntity
  8
0
 62
     0
100
AcDbLine
 10
13.25825214724776
 20
0.0
 30
0.0
 11
13.5
 21
0.2417478527522331
 31
0.0
  0
LINE
  5
260
330
36
100
AcDbEntity
  8
0
 62
     0
100
AcDbLine
 10
13.4350288425444
 20
0.0
 30
0.0
 11
13.5
 21
0.0649711574555962
 31
0.0
  0
ENDBLK
  5
261
330
36
100
AcDbEntity
  8
0
100
AcDbBlockEnd
  0
BLOCK
  5
262
330
37
100
AcDbEntity
  8
0
100
AcDbBlockBegin
  2
*X21
 70
     1
 10
0.0
 20
0.0
 30
0.0
  3
*X21
  1

  0
LINE
  5
263
330
37
100
AcDbEntity
  8
0
 62
     0
100
AcDbLine
 10
13.9
 20
6.298602102244612
 30
0.0
 11
16.58299474438346
 21
8.981596846628077
 31
0.0
  0
LINE
  5
264
330
37
100
AcDbEntity
  8
0
 62
     0
100
AcDbLine
 10
13.9
 20
6.47537879754125
 30
0.0
 11
16.51050279500106
 21
9.085881592542312
 31
0.0
  0
LINE
  5
265
330
37
100
AcDbEntity
  8
0
 62
     0
100
AcDbLine
 10
13.9
 20
6.652155492837886
 30
0.0
 11
16.43292735533684
 21
9.185082848174726
 31
0.0
  0
LINE
  5
266
330
37
100
AcDbEntity
  8
0
 62
     0
100
AcDbLine
 10
13.9
 20
6.828932188134523
 30
0.0
 11
16.35037215123712
 21
9.279304339371643
 31
0.0
  0
LINE
  5
267
330
37
100
AcDbEntity
  8
0
 62
     0
100
AcDbLine
 10
13.9
 20
7.00570888343116
 30
0.0
 11
16.26289196487371
 21
9.368600848304868
 31
0.0
  0
LINE
  5
268
330
37
100
AcDbEntity
  8
0
 62
     0
100
AcDbLine
 10
13.9
 20
7.182485578727797
 30
0.0
 11
16.17049525263323
 21
9.452980831361033
 31
0.0
  0
LINE
  5
269
330
37
100
AcDbEntity
  8
0
 62
     0
100
AcDbLine
 10
13.9
 20
7.359262274024434
 30
0.0
 11
16.07314454342055
 21
9.532406817444991
 31
0.0
  0
LINE
  5
26A
330
37
100
AcDbEntity
  8
0
 62
     0
100
AcDbLine
 10
13.9
 20
7.53603896932107
 30
0.0
 11
15.97075466195056
 21
9.606793631271633
 31
0.0
  0
LINE
  5
26B
330
37
100
AcDbEntity
  8
0
 62
     0
100
AcDbLine
 10
13.9
 20
7.712815664617708
 30
0.0
 11
15.86318857628903
 21
9.67600424090674
 31
0.0
  0
LINE
  5
26C
330
37
100
AcDbEntity
  8
0
 62
     0
100
AcDbLine
 10
13.9
 20
7.889592359914344
 30
0.0
 11
15.75025038159864
 21
9.739842741512989
 31
0.0
  0
LINE
  5
26D
330
37
100
AcDbEntity
  8
0
 62
     0
100
AcDbLine
 10
13.9
 20
8.066369055210982
 30
0.0
 11
15.63167453725327
 21
9.798043592464253
 31
0.0
  0
LINE
  5
26E
330
37
100
AcDbEntity
  8
0
 62
     0
100
AcDbLine
 10
13.9
 20
8.243145750507618
 30
0.0
 11
15.50710986763958
 21
9.850255618147199
 31
0.0
  0
LINE
  5
26F
330
37
100
AcDbEntity
  8
0
 62
     0
100
AcDbLine
 10
13.9
 20
8.419922445804255
 30
0.0
 11
15.37609582797506
 21
9.896018273779313
 31
0.0
  0
LINE
  5
270
330
37
100
AcDbEntity
  8
0
 62
     0
100
AcDbLine
 10
13.9
 20
8.596699141100891
 30
0.0
 11
15.23802674945604
 21
9.934725890556936
 31
0.0
  0
LINE
  5
271
330
37
100
AcDbEntity
  8
0
 62
     0
100
AcDbLine
 10
13.9
 20
8.773475836397528
 30
0.0
 11
15.09209641503479
 21
9.965572251432316
 31
0.0
  0
LINE
  5
272
330
37
100
AcDbEntity
  8
0
 62
     0
100
AcDbLine
 10
13.9
 20
8.950252531694166
 30
0.0
 11
14.93720855236614
 21
9.987461084060305
 31
0.0
  0
LINE
  5
273
330
37
100
AcDbEntity
  8
0
 62
     0
100
AcDbLine
 10
13.9
 20
9.127029226990803
 30
0.0
 11
14.77182410265905
 21
9.998853329649859
 31
0.0
  0
LINE
  5
274
330
37
100
AcDbEntity
  8
0
 62
     0
100
AcDbLine
 10
13.9
 20
9.303805922287439
 30
0.0
 11
14.59619325557977
 21
9.999999177867216
 31
0.0
  0
LINE
  5
275
330
37
100
AcDbEntity
  8
0
 62
     0
100
AcDbLine
 10
13.9
 20
9.480582617584076
 30
0.0
 11
14.41941676903803
 21
9.999999386622105
 31
0.0
  0
LINE
  5
276
330
37
100
AcDbEntity
  8
0
 62
     0
100
AcDbLine
 10
13.9
 20
9.657359312880712
 30
0.0
 11
14.24264028249628
 21
9.999999595376992
 31
0.0
  0
LINE
  5
277
330
37
100
AcDbEntity
  8
0
 62
     0
100
AcDbLine
 10
13.9
 20
9.834136008177351
 30
0.0
 11
14.06586379595453
 21
9.99999980413188
 31
0.0
  0
LINE
  5
278
330
37
100
AcDbEntity
  8
0
 62
     0
100
AcDbLine
 10
13.9
 20
6.121825406947976
 30
0.0
 11
16.65024539739187
 21
8.872070804339848
 31
0.0
  0
LINE
  5
279
330
37
100
AcDbEntity
  8
0
 62
     0
100
AcDbLine
 10
13.9
 20
5.945048711651339
 30
0.0
 11
16.71203459532913
 21
8.75708330698047
 31
0.0
  0
LINE
  5
27A
330
37
100
AcDbEntity
  8
0
 62
     0
100
AcDbLine
 10
13.9
 20
5.768272016354702
 30
0.0
 11
16.76806734382514
 21
8.636339360179849
 31
0.0
  0
LINE
  5
27B
330
37
100
AcDbEntity
  8
0
 62
     0
100
AcDbLine
 10
13.9
 20
5.591495321058065
 30
0.0
 11
16.81795531761595
 21
8.509450638674019
 31
0.0
  0
LINE
  5
27C
330
37
100
AcDbEntity
  8
0
 62
     0
100
AcDbLine
 10
13.9
 20
5.414718625761429
 30
0.0
 11
16.86118931399924
 21
8.375907939760674
 31
0.0
  0
LINE
  5
27D
330
37
100
AcDbEntity
  8
0
 62
     0
100
AcDbLine
 10
13.9
 20
5.237941930464791
 30
0.0
 11
16.89709737442627
 21
8.235039304891063
 31
0.0
  0
LINE
  5
27E
330
37
100
AcDbEntity
  8
0
 62
     0
100
AcDbLine
 10
14.03883476483184
 20
5.2
 30
0.0
 11
16.92477897501023
 21
8.085944210178388
 31
0.0
  0
LINE
  5
27F
330
37
100
AcDbEntity
  8
0
 62
     0
100
AcDbLine
 10
14.21561146012848
 20
5.2
 30
0.0
 11
16.94299675793814
 21
7.927385297809664
 31
0.0
  0
LINE
  5
280
330
37
100
AcDbEntity
  8
0
 62
     0
100
AcDbLine
 10
14.39238815542512
 20
5.2
 30
0.0
 11
16.9499871677438
 21
7.757599012318679
 31
0.0
  0
LINE
  5
281
330
37
100
AcDbEntity
  8
0
 62
     0
100
AcDbLine
 10
14.56916485072175
 20
5.2
 30
0.0
 11
16.94310086073496
 21
7.573936010013212
 31
0.0
  0
LINE
  5
282
330
37
100
AcDbEntity
  8
0
 62
     0
100
AcDbLine
 10
14.74594154601839
 20
5.2
 30
0.0
 11
16.91803700563266
 21
7.372095459614269
 31
0.0
  0
LINE
  5
283
330
37
100
AcDbEntity
  8
0
 62
     0
100
AcDbLine
 10
14.92271824131503
 20
5.2
 30
0.0
 11
16.86690917579153
 21
7.144190934476499
 31
0.0
  0
LINE
  5
284
330
37
100
AcDbEntity
  8
0
 62
     0
100
AcDbLine
 10
15.09949493661166
 20
5.2
 30
0.0
 11
16.77171472429693
 21
6.872219787685267
 31
0.0
  0
LINE
  5
285
330
37
100
AcDbEntity
  8
0
 62
     0
100
AcDbLine
 10
15.2762716319083
 20
5.2
 30
0.0
 11
15.84795125284192
 21
5.771679620933618
 31
0.0
  0
LINE
  5
286
330
37
100
AcDbEntity
  8
0
 62
     0
100
AcDbLine
 10
15.96672997781769
 20
5.89045834590939
 30
0.0
 11
16.55954165409061
 21
6.483270022182311
 31
0.0
  0
LINE
  5
287
330
37
100
AcDbEntity
  8
0
 62
     0
100
AcDbLine
 10
15.45304832720494
 20
5.2
 30
0.0
 11
15.97066124869689
 21
5.717612921491952
 31
0.0
  0
LINE
  5
288
330
37
100
AcDbEntity
  8
0
 62
     0
100
AcDbLine
 10
15.62982502250157
 20
5.2
 30
0.0
 11
16.08893422102424
 21
5.659109198522661
 31
0.0
  0
LINE
  5
289
330
37
100
AcDbEntity
  8
0
 62
     0
100
AcDbLine
 10
15.80660171779821
 20
5.2
 30
0.0
 11
16.20296425787942
 21
5.59636254008121
 31
0.0
  0
LINE
  5
28A
330
37
100
AcDbEntity
  8
0
 62
     0
100
AcDbLine
 10
15.98337841309485
 20
5.2
 30
0.0
 11
16.31290894781219
 21
5.529530534717341
 31
0.0
  0
LINE
  5
28B
330
37
100
AcDbEntity
  8
0
 62
     0
100
AcDbLine
 10
16.16015510839148
 20
5.2
 30
0.0
 11
16.41889477551746
 21
5.458739667125973
 31
0.0
  0
LINE
  5
28C
330
37
100
AcDbEntity
  8
0
 62
     0
100
AcDbLine
 10
16.33693180368812
 20
5.2
 30
0.0
 11
16.52102114525041
 21
5.384089341562286
 31
0.0
  0
LINE
  5
28D
330
37
100
AcDbEntity
  8
0
 62
     0
100
AcDbLine
 10
16.51370849898476
 20
5.2
 30
0.0
 11
16.61936335457592
 21
5.305654855591162
 31
0.0
  0
LINE
  5
28E
330
37
100
AcDbEntity
  8
0
 62
     0
100
AcDbLine
 10
16.69048519428139
 20
5.2
 30
0.0
 11
16.71397473843326
 21
5.223489544151862
 31
0.0
  0
ENDBLK
  5
28F
330
37
100
AcDbEntity
  8
0
100
AcDbBlockEnd
  0
BLOCK
  5
290
330
38
100
AcDbEntity
  8
0
100
AcDbBlockBegin
  2
*X22
 70
     1
 10
0.0
 20
0.0
 30
0.0
  3
*X22
  1

  0
LINE
  5
291
330
38
100
AcDbEntity
  8
0
 62
     0
100
AcDbLine
 10
13.9
 20
0.8185245480488701
 30
0.0
 11
17.39644991717202
 21
4.314974465220889
 31
0.0
  0
LINE
  5
292
330
38
100
AcDbEntity
  8
0
 62
     0
100
AcDbLine
 10
13.9
 20
0.995301243345507
 30
0.0
 11
17.33635410458252
 21
4.431655347928027
 31
0.0
  0
LINE
  5
293
330
38
100
AcDbEntity
  8
0
 62
     0
100
AcDbLine
 10
13.9
 20
1.172077938642143
 30
0.0
 11
17.27207765977055
 21
4.544155598412691
 31
0.0
  0
LINE
  5
294
330
38
100
AcDbEntity
  8
0
 62
     0
100
AcDbLine
 10
13.9
 20
1.34885463393878
 30
0.0
 11
17.20376610315736
 21
4.652620737096146
 31
0.0
  0
LINE
  5
295
330
38
100
AcDbEntity
  8
0
 62
     0
100
AcDbLine
 10
13.9
 20
1.525631329235417
 30
0.0
 11
17.13153548167385
 21
4.757166810909273
 31
0.0
  0
LINE
  5
296
330
38
100
AcDbEntity
  8
0
 62
     0
100
AcDbLine
 10
13.9
 20
1.702408024532054
 30
0.0
 11
16.99759197546794
 21
4.8
 31
0.0
  0
LINE
  5
297
330
38
100
AcDbEntity
  8
0
 62
     0
100
AcDbLine
 10
13.9
 20
1.879184719828691
 30
0.0
 11
16.82081528017131
 21
4.8
 31
0.0
  0
LINE
  5
298
330
38
100
AcDbEntity
  8
0
 62
     0
100
AcDbLine
 10
13.9
 20
2.055961415125328
 30
0.0
 11
16.64403858487467
 21
4.8
 31
0.0
  0
LINE
  5
299
330
38
100
AcDbEntity
  8
0
 62
     0
100
AcDbLine
 10
13.9
 20
2.232738110421965
 30
0.0
 11
16.46726188957803
 21
4.8
 31
0.0
  0
LINE
  5
29A
330
38
100
AcDbEntity
  8
0
 62
     0
100
AcDbLine
 10
13.9
 20
2.409514805718601
 30
0.0
 11
16.2904851942814
 21
4.8
 31
0.0
  0
LINE
  5
29B
330
38
100
AcDbEntity
  8
0
 62
     0
100
AcDbLine
 10
13.9
 20
2.586291501015238
 30
0.0
 11
16.11370849898476
 21
4.8
 31
0.0
  0
LINE
  5
29C
330
38
100
AcDbEntity
  8
0
 62
     0
100
AcDbLine
 10
13.9
 20
2.763068196311875
 30
0.0
 11
15.93693180368812
 21
4.8
 31
0.0
  0
LINE
  5
29D
330
38
100
AcDbEntity
  8
0
 62
     0
100
AcDbLine
 10
13.9
 20
2.939844891608512
 30
0.0
 11
15.76015510839149
 21
4.8
 31
0.0
  0
LINE
  5
29E
330
38
100
AcDbEntity
  8
0
 62
     0
100
AcDbLine
 10
13.9
 20
3.116621586905149
 30
0.0
 11
15.58337841309485
 21
4.8
 31
0.0
  0
LINE
  5
29F
330
38
100
AcDbEntity
  8
0
 62
     0
100
AcDbLine
 10
13.9
 20
3.293398282201786
 30
0.0
 11
15.40660171779821
 21
4.8
 31
0.0
  0
LINE
  5
2A0
330
38
100
AcDbEntity
  8
0
 62
     0
100
AcDbLine
 10
13.9
 20
3.470174977498423
 30
0.0
 11
15.22982502250157
 21
4.8
 31
0.0
  0
LINE
  5
2A1
330
38
100
AcDbEntity
  8
0
 62
     0
100
AcDbLine
 10
13.9
 20
3.64695167279506
 30
0.0
 11
15.05304832720494
 21
4.8
 31
0.0
  0
LINE
  5
2A2
330
38
100
AcDbEntity
  8
0
 62
     0
100
AcDbLine
 10
13.9
 20
3.823728368091696
 30
0.0
 11
14.8762716319083
 21
4.8
 31
0.0
  0
LINE
  5
2A3
330
38
100
AcDbEntity
  8
0
 62
     0
100
AcDbLine
 10
13.9
 20
4.000505063388334
 30
0.0
 11
14.69949493661166
 21
4.8
 31
0.0
  0
LINE
  5
2A4
330
38
100
AcDbEntity
  8
0
 62
     0
100
AcDbLine
 10
13.9
 20
4.17728175868497
 30
0.0
 11
14.52271824131503
 21
4.8
 31
0.0
  0
LINE
  5
2A5
330
38
100
AcDbEntity
  8
0
 62
     0
100
AcDbLine
 10
13.9
 20
4.354058453981607
 30
0.0
 11
14.34594154601839
 21
4.8
 31
0.0
  0
LINE
  5
2A6
330
38
100
AcDbEntity
  8
0
 62
     0
100
AcDbLine
 10
13.9
 20
4.530835149278244
 30
0.0
 11
14.16916485072175
 21
4.8
 31
0.0
  0
LINE
  5
2A7
330
38
100
AcDbEntity
  8
0
 62
     0
100
AcDbLine
 10
13.9
 20
4.707611844574881
 30
0.0
 11
13.99238815542512
 21
4.8
 31
0.0
  0
LINE
  5
2A8
330
38
100
AcDbEntity
  8
0
 62
     0
100
AcDbLine
 10
13.9
 20
0.6417478527522334
 30
0.0
 11
17.45218526214292
 21
4.193933114895161
 31
0.0
  0
LINE
  5
2A9
330
38
100
AcDbEntity
  8
0
 62
     0
100
AcDbLine
 10
13.9
 20
0.4649711574555965
 30
0.0
 11
17.50333949830906
 21
4.068310655764662
 31
0.0
  0
LINE
  5
2AA
330
38
100
AcDbEntity
  8
0
 62
     0
100
AcDbLine
 10
13.9
 20
0.2881944621589596
 30
0.0
 11
17.54964242799989
 21
3.937836890158853
 31
0.0
  0
LINE
  5
2AB
330
38
100
AcDbEntity
  8
0
 62
     0
100
AcDbLine
 10
13.9
 20
0.1114177668623227
 30
0.0
 11
17.59076236298873
 21
3.802180129851055
 31
0.0
  0
LINE
  5
2AC
330
38
100
AcDbEntity
  8
0
 62
     0
100
AcDbLine
 10
13.96535907380306
 20
0.0000001453687495
 30
0.0
 11
17.62628957551245
 21
3.660930647078139
 31
0.0
  0
LINE
  5
2AD
330
38
100
AcDbEntity
  8
0
 62
     0
100
AcDbLine
 10
14.14213616227945
 20
0.0000005385484993
 30
0.0
 11
17.65571284726207
 21
3.513577223531124
 31
0.0
  0
LINE
  5
2AE
330
38
100
AcDbEntity
  8
0
 62
     0
100
AcDbLine
 10
14.31891325075583
 20
0.0000009317282491
 30
0.0
 11
17.67838532706747
 21
3.359473008039884
 31
0.0
  0
LINE
  5
2AF
330
38
100
AcDbEntity
  8
0
 62
     0
100
AcDbLine
 10
14.49569033923222
 20
0.0000013249079989
 30
0.0
 11
17.6934731399576
 21
3.197784125633374
 31
0.0
  0
LINE
  5
2B0
330
38
100
AcDbEntity
  8
0
 62
     0
100
AcDbLine
 10
14.67246742770861
 20
0.0000017180877487
 30
0.0
 11
17.6998747877926
 21
3.027409078171735
 31
0.0
  0
LINE
  5
2B1
330
38
100
AcDbEntity
  8
0
 62
     0
100
AcDbLine
 10
14.85315433025688
 20
0.0039119253393838
 30
0.0
 11
17.69608807466061
 21
2.846845669743118
 31
0.0
  0
LINE
  5
2B2
330
38
100
AcDbEntity
  8
0
 62
     0
100
AcDbLine
 10
15.04604362941941
 20
0.0200245292052809
 30
0.0
 11
17.67997547079472
 21
2.653956370580586
 31
0.0
  0
LINE
  5
2B3
330
38
100
AcDbEntity
  8
0
 62
     0
100
AcDbLine
 10
15.25448294516349
 20
0.051687149652724
 30
0.0
 11
17.64831285034728
 21
2.445517054836507
 31
0.0
  0
LINE
  5
2B4
330
38
100
AcDbEntity
  8
0
 62
     0
100
AcDbLine
 10
15.48376230096711
 20
0.104189810159703
 30
0.0
 11
17.5958101898403
 21
2.216237699032893
 31
0.0
  0
LINE
  5
2B5
330
38
100
AcDbEntity
  8
0
 62
     0
100
AcDbLine
 10
15.74378625147994
 20
0.1874370653758922
 30
0.0
 11
17.51256293462411
 21
1.956213748520063
 31
0.0
  0
LINE
  5
2B6
330
38
100
AcDbEntity
  8
0
 62
     0
100
AcDbLine
 10
16.05817558800134
 20
0.3250497066006601
 30
0.0
 11
17.37495029339934
 21
1.641824411998659
 31
0.0
  0
LINE
  5
2B7
330
38
100
AcDbEntity
  8
0
 62
     0
100
AcDbLine
 10
16.54193023656893
 20
0.6320276598716133
 30
0.0
 11
17.06797234012839
 21
1.158069763431071
 31
0.0
  0
ENDBLK
  5
2B8
330
38
100
AcDbEntity
  8
0
100
AcDbBlockEnd
  0
BLOCK
  5
2B9
330
39
100
AcDbEntity
  8
0
100
AcDbBlockBegin
  2
MAA
 70
     0
 10
0.0
 20
0.0
 30
0.0
  3
MAA
  1

  0
LINE
  5
2BA
330
39
100
AcDbEntity
  8
0
  6
Continuous
100
AcDbLine
 10
-0.5007181785718445
 20
-2.587965694815835
 30
0.0
 11
0.3861686956486778
 21
-2.587965694815835
 31
0.0
  0
LINE
  5
2BB
330
39
100
AcDbEntity
  8
0
  6
Continuous
100
AcDbLine
 10
-0.8318226116142
 20
-1.976332608015752
 30
0.0
 11
0.7527486036598248
 21
-1.976332608015752
 31
0.0
  0
LINE
  5
2BC
330
39
100
AcDbEntity
  8
0
  6
Continuous
100
AcDbLine
 10
-0.0158866873312604
 20
-1.35427039676108
 30
0.0
 11
1.178454303285661
 21
-1.35427039676108
 31
0.0
  0
LINE
  5
2BD
330
39
100
AcDbEntity
  8
0
  6
Continuous
100
AcDbLine
 10
-1.210227677948239
 20
-1.35427039676108
 30
0.0
 11
-0.0158866873312604
 21
-1.35427039676108
 31
0.0
  0
LINE
  5
2BE
330
39
100
AcDbEntity
  8
0
  6
Continuous
100
AcDbLine
 10
0.0
 20
0.0
 30
0.0
 11
0.0
 21
-1.35427039676108
 31
0.0
  0
ENDBLK
  5
2BF
330
39
100
AcDbEntity
  8
0
100
AcDbBlockEnd
  0
ENDSEC
  0
SECTION
  2
ENTITIES
  0
INSERT
  5
2C0
330
1E
100
AcDbEntity
  8
0
100
AcDbBlockReference
  2
1
 10
65.40543794728922
 20
98.7130660876682
 30
0.0
  0
INSERT
  5
2C1
330
1E
100
AcDbEntity
  8
0
100
AcDbBlockReference
  2
1
 10
72.5416524658361
 20
49.71055967492806
 30
0.0
  0
INSERT
  5
2C2
330
1E
100
AcDbEntity
  8
0
100
AcDbBlockReference
  2
1
 10
85.39044274796726
 20
73.49723378259056
 30
0.0
  0
TEXT
  5
2C3
330
1E
100
AcDbEntity
  8
BASE
  6
Continuous
100
AcDbText
 10
249.8073226925022
 20
166.4243895130455
 30
0.0
 40
3.75
  1
I
 11
249.8073226925022
 21
165.1743895130455
 31
0.0
100
AcDbText
 73
     1
  0
LINE
  5
2C4
330
1E
100
AcDbEntity
  8
BASE
  6
Continuous
100
AcDbLine
 10
258.5224025797805
 20
189.9992940441497
 30
0.0
 11
255.0037543114421
 21
188.2144153210331
 31
0.0
  0
LINE
  5
2C5
330
1E
100
AcDbEntity
  8
BASE
  6
Continuous
100
AcDbLine
 10
255.0037543114421
 20
192.0023246112028
 30
0.0
 11
258.5224025797805
 21
189.9992940441497
 31
0.0
  0
LINE
  5
2C6
330
1E
100
AcDbEntity
  8
BASE
  6
Continuous
100
AcDbLine
 10
255.9865522886453
 20
189.9992940441497
 30
0.0
 11
252.4679040203068
 21
188.2144153210331
 31
0.0
  0
LINE
  5
2C7
330
1E
100
AcDbEntity
  8
BASE
  6
Continuous
100
AcDbLine
 10
252.4679040203068
 20
192.0023246112028
 30
0.0
 11
255.9865522886453
 21
189.9992940441497
 31
0.0
  0
TEXT
  5
2C8
330
1E
100
AcDbEntity
  8
BASE
  6
Continuous
100
AcDbText
 10
249.7541115128032
 20
188.2283406374754
 30
0.0
 40
3.75
  1
I
 11
249.7541115128032
 21
186.9783406374754
 31
0.0
100
AcDbText
 73
     1
  0
LINE
  5
2C9
330
1E
100
AcDbEntity
  8
BASE
  6
Continuous
100
AcDbLine
 10
261.8356833852865
 20
167.5027034301926
 30
0.0
 11
258.3170351169481
 21
165.717824707076
 31
0.0
  0
LINE
  5
2CA
330
1E
100
AcDbEntity
  8
BASE
  6
Continuous
100
AcDbLine
 10
258.3170351169481
 20
169.5057339972457
 30
0.0
 11
261.8356833852865
 21
167.5027034301926
 31
0.0
  0
LINE
  5
2CB
330
1E
100
AcDbEntity
  8
BASE
  6
Continuous
100
AcDbLine
 10
255.7811848258129
 20
169.5057339972457
 30
0.0
 11
259.2998330941513
 21
167.5027034301926
 31
0.0
  0
LINE
  5
2CC
330
1E
100
AcDbEntity
  8
BASE
  6
Continuous
100
AcDbLine
 10
259.2998330941513
 20
167.5027034301926
 30
0.0
 11
255.7811848258129
 21
165.717824707076
 31
0.0
  0
LINE
  5
2CD
330
1E
100
AcDbEntity
  8
BASE
  6
Continuous
100
AcDbLine
 10
260.4979636589776
 20
182.4910174711573
 30
0.0
 11
256.9793153906391
 21
180.7061387480407
 31
0.0
  0
LINE
  5
2CE
330
1E
100
AcDbEntity
  8
BASE
  6
Continuous
100
AcDbLine
 10
256.9793153906391
 20
184.4940480382105
 30
0.0
 11
260.4979636589776
 21
182.4910174711573
 31
0.0
  0
TEXT
  5
2CF
330
1E
100
AcDbEntity
  8
BASE
  6
Continuous
100
AcDbText
 10
249.8073226925022
 20
181.4127035540103
 30
0.0
 40
3.75
  1
I
 11
249.8073226925022
 21
180.1627035540103
 31
0.0
100
AcDbText
 73
     1
  0
TEXT
  5
2D0
330
1E
100
AcDbEntity
  8
BASE
  6
Continuous
100
AcDbText
 10
249.8073226925022
 20
173.7884917668087
 30
0.0
 40
3.75
  1
I
 11
249.8073226925022
 21
172.5384917668087
 31
0.0
100
AcDbText
 73
     1
  0
LINE
  5
2D1
330
1E
100
AcDbEntity
  8
BASE
  6
Continuous
100
AcDbLine
 10
260.4979636589776
 20
175.0271709957004
 30
0.0
 11
256.9793153906391
 21
173.2422922725838
 31
0.0
  0
LINE
  5
2D2
330
1E
100
AcDbEntity
  8
BASE
  6
Continuous
100
AcDbLine
 10
256.9793153906391
 20
177.0302015627536
 30
0.0
 11
260.4979636589776
 21
175.0271709957004
 31
0.0
  0
LINE
  5
2D3
330
1E
100
AcDbEntity
  8
BASE
  6
Continuous
100
AcDbLine
 10
264.1933338194973
 20
206.3540405329165
 30
0.0
 11
264.1933338194973
 21
203.6718434140307
 31
0.0
  0
LINE
  5
2D4
330
1E
100
AcDbEntity
  8
BASE
  6
Continuous
100
AcDbLine
 10
264.2398814005614
 20
205.086122704185
 30
0.0
 11
275.9221889408099
 21
205.086122704185
 31
0.0
  0
LINE
  5
2D5
330
1E
100
AcDbEntity
  8
BASE
  6
Continuous
100
AcDbLine
 10
267.816097994515
 20
203.3347186995172
 30
0.0
 11
272.1302640443639
 21
207.5775565699801
 31
0.0
  0
LINE
  5
2D6
330
1E
100
AcDbEntity
  8
BASE
  6
Continuous
100
AcDbLine
 10
271.484208855935
 20
208.3833668632077
 30
0.0
 11
272.8352240136507
 21
206.69774329064
 31
0.0
  0
LINE
  5
2D7
330
1E
100
AcDbEntity
  8
BASE
  6
Continuous
100
AcDbLine
 10
275.9153770996785
 20
206.3540405329165
 30
0.0
 11
275.9153770996785
 21
203.6718434140307
 31
0.0
  0
ARC
  5
2D8
330
1E
100
AcDbEntity
  8
BASE
  6
HIDDEN
100
AcDbCircle
 10
274.2821831834865
 20
210.9789390027996
 30
0.0
 40
7.497293977925679
100
AcDbArc
 50
206.402921519098
 51
282.2111496748031
  0
TEXT
  5
2D9
330
1E
100
AcDbEntity
  8
BASE
  6
Continuous
100
AcDbText
 10
249.7541115128032
 20
195.755401568809
 30
0.0
 40
3.75
  1
I
 11
249.7541115128032
 21
194.505401568809
 31
0.0
100
AcDbText
 73
     1
  0
LINE
  5
2DA
330
1E
100
AcDbEntity
  8
BASE
  6
Continuous
100
AcDbLine
 10
255.9865522886453
 20
197.5263549754834
 30
0.0
 11
252.4679040203068
 21
195.7414762523667
 31
0.0
  0
LINE
  5
2DB
330
1E
100
AcDbEntity
  8
BASE
  6
Continuous
100
AcDbLine
 10
258.5224025797805
 20
197.5263549754834
 30
0.0
 11
255.0037543114421
 21
195.7414762523667
 31
0.0
  0
LINE
  5
2DC
330
1E
100
AcDbEntity
  8
BASE
  6
Continuous
100
AcDbLine
 10
252.4679040203068
 20
199.5293855425365
 30
0.0
 11
255.9865522886453
 21
197.5263549754834
 31
0.0
  0
LINE
  5
2DD
330
1E
100
AcDbEntity
  8
BASE
  6
Continuous
100
AcDbLine
 10
255.0037543114421
 20
199.5293855425365
 30
0.0
 11
258.5224025797805
 21
197.5263549754834
 31
0.0
  0
TEXT
  5
2DE
330
1E
100
AcDbEntity
  8
BASE
  6
Continuous
100
AcDbText
 10
249.7541115128032
 20
203.2436643504345
 30
0.0
 40
3.75
  1
I
 11
249.7541115128032
 21
201.9936643504345
 31
0.0
100
AcDbText
 73
     1
  0
LINE
  5
2DF
330
1E
100
AcDbEntity
  8
BASE
  6
Continuous
100
AcDbLine
 10
255.9865522886453
 20
205.0146177571089
 30
0.0
 11
252.4679040203068
 21
203.2297390339922
 31
0.0
  0
LINE
  5
2E0
330
1E
100
AcDbEntity
  8
BASE
  6
Continuous
100
AcDbLine
 10
252.4679040203068
 20
207.017648324162
 30
0.0
 11
255.9865522886453
 21
205.0146177571089
 31
0.0
  0
LINE
  5
2E1
330
1E
100
AcDbEntity
  8
BASE
  6
Continuous
100
AcDbLine
 10
255.9865522886453
 20
212.5467267133296
 30
0.0
 11
252.4679040203068
 21
210.761847990213
 31
0.0
  0
LINE
  5
2E2
330
1E
100
AcDbEntity
  8
BASE
  6
Continuous
100
AcDbLine
 10
252.4679040203068
 20
214.5497572803828
 30
0.0
 11
255.9865522886453
 21
212.5467267133296
 31
0.0
  0
TEXT
  5
2E3
330
1E
100
AcDbEntity
  8
BASE
  6
Continuous
100
AcDbText
 10
249.7541115128032
 20
210.7757733066553
 30
0.0
 40
3.75
  1
I
 11
249.7541115128032
 21
209.5257733066553
 31
0.0
100
AcDbText
 73
     1
  0
LINE
  5
2E4
330
1E
100
AcDbEntity
  8
BASE
  6
Continuous
100
AcDbLine
 10
92.5
 20
96.25
 30
0.0
 11
92.5
 21
88.75
 31
0.0
  0
LINE
  5
2E5
330
1E
100
AcDbEntity
  8
BASE
  6
Continuous
100
AcDbLine
 10
92.5
 20
88.75
 30
0.0
 11
115.0
 21
88.75
 31
0.0
  0
LINE
  5
2E6
330
1E
100
AcDbEntity
  8
BASE
  6
Continuous
100
AcDbLine
 10
115.0
 20
88.75
 30
0.0
 11
115.0
 21
96.25
 31
0.0
  0
LINE
  5
2E7
330
1E
100
AcDbEntity
  8
BASE
  6
Continuous
100
AcDbLine
 10
115.0
 20
96.25
 30
0.0
 11
92.5
 21
96.25
 31
0.0
  0
LINE
  5
2E8
330
1E
100
AcDbEntity
  8
BASE
  6
Continuous
100
AcDbLine
 10
96.25
 20
96.25
 30
0.0
 11
96.25
 21
100.0
 31
0.0
  0
LINE
  5
2E9
330
1E
100
AcDbEntity
  8
BASE
  6
Continuous
100
AcDbLine
 10
100.0
 20
96.25
 30
0.0
 11
100.0
 21
100.0
 31
0.0
  0
LINE
  5
2EA
330
1E
100
AcDbEntity
  8
BASE
  6
Continuous
100
AcDbLine
 10
103.75
 20
96.25
 30
0.0
 11
103.75
 21
100.0
 31
0.0
  0
LINE
  5
2EB
330
1E
100
AcDbEntity
  8
BASE
  6
Continuous
100
AcDbLine
 10
107.4999999999999
 20
96.25
 30
0.0
 11
107.4999999999999
 21
100.0
 31
0.0
  0
LINE
  5
2EC
330
1E
100
AcDbEntity
  8
BASE
  6
Continuous
100
AcDbLine
 10
107.4999999999999
 20
107.4999999999999
 30
0.0
 11
107.4999999999999
 21
111.25
 31
0.0
  0
LINE
  5
2ED
330
1E
100
AcDbEntity
  8
BASE
  6
Continuous
100
AcDbLine
 10
103.75
 20
107.4999999999999
 30
0.0
 11
103.75
 21
111.25
 31
0.0
  0
LINE
  5
2EE
330
1E
100
AcDbEntity
  8
BASE
  6
Continuous
100
AcDbLine
 10
100.0
 20
107.4999999999999
 30
0.0
 11
100.0
 21
111.25
 31
0.0
  0
LINE
  5
2EF
330
1E
100
AcDbEntity
  8
BASE
  6
Continuous
100
AcDbLine
 10
96.25
 20
107.4999999999999
 30
0.0
 11
96.25
 21
111.25
 31
0.0
  0
LINE
  5
2F0
330
1E
100
AcDbEntity
  8
BASE
  6
Continuous
100
AcDbLine
 10
107.4999999999999
 20
100.0
 30
0.0
 11
104.9233156111356
 21
107.5224483772417
 31
0.0
  0
LINE
  5
2F1
330
1E
100
AcDbEntity
  8
BASE
  6
Continuous
100
AcDbLine
 10
103.75
 20
100.0
 30
0.0
 11
101.1733156111356
 21
107.5224483772417
 31
0.0
  0
LINE
  5
2F2
330
1E
100
AcDbEntity
  8
BASE
  6
Continuous
100
AcDbLine
 10
100.0
 20
100.0
 30
0.0
 11
97.42331561113566
 21
107.5224483772417
 31
0.0
  0
LINE
  5
2F3
330
1E
100
AcDbEntity
  8
BASE
  6
Continuous
100
AcDbLine
 10
96.25
 20
100.0
 30
0.0
 11
93.67331561113564
 21
107.5224483772417
 31
0.0
  0
LINE
  5
2F4
330
1E
100
AcDbEntity
  8
BASE
  6
Continuous
100
AcDbLine
 10
102.9422593305217
 20
92.93379259342993
 30
0.0
 11
99.42361106218328
 21
91.14891387031326
 31
0.0
  0
LINE
  5
2F5
330
1E
100
AcDbEntity
  8
BASE
  6
Continuous
100
AcDbLine
 10
99.4115484461534
 20
89.94889326517428
 30
0.0
 11
102.9867390957742
 21
91.73118102697509
 31
0.0
  0
LINE
  5
2F6
330
1E
100
AcDbEntity
  8
BASE
  6
Continuous
100
AcDbLine
 10
99.42361106218328
 20
94.93682316048305
 30
0.0
 11
102.9422593305217
 21
92.93379259342993
 31
0.0
  0
TEXT
  5
2F7
330
1E
100
AcDbEntity
  8
BASE
  6
Continuous
100
AcDbText
 10
106.0744037477196
 20
90.94668273284398
 30
0.0
 40
3.75
  1
1
 11
106.0744037477196
 21
89.69668273284398
 31
0.0
100
AcDbText
 73
     1
  0
TEXT
  5
2F8
330
1E
100
AcDbEntity
  8
BASE
  6
Continuous
100
AcDbText
 10
131.2516701594731
 20
90.94668273284398
 30
0.0
 40
3.75
  1
1
 11
131.2516701594731
 21
89.69668273284398
 31
0.0
100
AcDbText
 73
     1
  0
LINE
  5
2F9
330
1E
100
AcDbEntity
  8
BASE
  6
Continuous
100
AcDbLine
 10
124.6008774739367
 20
94.93682316048305
 30
0.0
 11
128.1195257422751
 21
92.93379259342993
 31
0.0
  0
LINE
  5
2FA
330
1E
100
AcDbEntity
  8
BASE
  6
Continuous
100
AcDbLine
 10
124.5888148579068
 20
89.94889326517428
 30
0.0
 11
128.1640055075277
 21
91.73118102697509
 31
0.0
  0
LINE
  5
2FB
330
1E
100
AcDbEntity
  8
BASE
  6
Continuous
100
AcDbLine
 10
128.1195257422751
 20
92.93379259342993
 30
0.0
 11
124.6008774739367
 21
91.14891387031326
 31
0.0
  0
LINE
  5
2FC
330
1E
100
AcDbEntity
  8
BASE
  6
Continuous
100
AcDbLine
 10
122.5
 20
100.0
 30
0.0
 11
119.9233156111356
 21
107.5224483772417
 31
0.0
  0
LINE
  5
2FD
330
1E
100
AcDbEntity
  8
BASE
  6
Continuous
100
AcDbLine
 10
126.2499999999999
 20
100.0
 30
0.0
 11
123.6733156111356
 21
107.5224483772417
 31
0.0
  0
LINE
  5
2FE
330
1E
100
AcDbEntity
  8
BASE
  6
Continuous
100
AcDbLine
 10
130.0
 20
100.0
 30
0.0
 11
127.4233156111356
 21
107.5224483772417
 31
0.0
  0
LINE
  5
2FF
330
1E
100
AcDbEntity
  8
BASE
  6
Continuous
100
AcDbLine
 10
133.75
 20
100.0
 30
0.0
 11
131.1733156111356
 21
107.5224483772417
 31
0.0
  0
LINE
  5
300
330
1E
100
AcDbEntity
  8
BASE
  6
Continuous
100
AcDbLine
 10
122.5
 20
107.4999999999999
 30
0.0
 11
122.5
 21
111.25
 31
0.0
  0
LINE
  5
301
330
1E
100
AcDbEntity
  8
BASE
  6
Continuous
100
AcDbLine
 10
126.2499999999999
 20
107.4999999999999
 30
0.0
 11
126.2499999999999
 21
111.25
 31
0.0
  0
LINE
  5
302
330
1E
100
AcDbEntity
  8
BASE
  6
Continuous
100
AcDbLine
 10
130.0
 20
107.4999999999999
 30
0.0
 11
130.0
 21
111.25
 31
0.0
  0
LINE
  5
303
330
1E
100
AcDbEntity
  8
BASE
  6
Continuous
100
AcDbLine
 10
133.75
 20
107.4999999999999
 30
0.0
 11
133.75
 21
111.25
 31
0.0
  0
LINE
  5
304
330
1E
100
AcDbEntity
  8
BASE
  6
Continuous
100
AcDbLine
 10
133.75
 20
96.25
 30
0.0
 11
133.75
 21
100.0
 31
0.0
  0
LINE
  5
305
330
1E
100
AcDbEntity
  8
BASE
  6
Continuous
100
AcDbLine
 10
130.0
 20
96.25
 30
0.0
 11
130.0
 21
100.0
 31
0.0
  0
LINE
  5
306
330
1E
100
AcDbEntity
  8
BASE
  6
Continuous
100
AcDbLine
 10
126.2499999999999
 20
96.25
 30
0.0
 11
126.2499999999999
 21
100.0
 31
0.0
  0
LINE
  5
307
330
1E
100
AcDbEntity
  8
BASE
  6
Continuous
100
AcDbLine
 10
122.5
 20
96.25
 30
0.0
 11
122.5
 21
100.0
 31
0.0
  0
LINE
  5
308
330
1E
100
AcDbEntity
  8
BASE
  6
Continuous
100
AcDbLine
 10
137.5
 20
96.25
 30
0.0
 11
118.75
 21
96.25
 31
0.0
  0
LINE
  5
309
330
1E
100
AcDbEntity
  8
BASE
  6
Continuous
100
AcDbLine
 10
137.5
 20
88.75
 30
0.0
 11
137.5
 21
96.25
 31
0.0
  0
LINE
  5
30A
330
1E
100
AcDbEntity
  8
BASE
  6
Continuous
100
AcDbLine
 10
118.75
 20
88.75
 30
0.0
 11
137.5
 21
88.75
 31
0.0
  0
LINE
  5
30B
330
1E
100
AcDbEntity
  8
BASE
  6
Continuous
100
AcDbLine
 10
118.75
 20
96.25
 30
0.0
 11
118.75
 21
88.75
 31
0.0
  0
LINE
  5
30C
330
1E
100
AcDbEntity
  8
BASE
  6
Continuous
100
AcDbLine
 10
141.25
 20
96.25
 30
0.0
 11
141.25
 21
88.75
 31
0.0
  0
LINE
  5
30D
330
1E
100
AcDbEntity
  8
BASE
  6
Continuous
100
AcDbLine
 10
141.25
 20
88.75
 30
0.0
 11
160.0
 21
88.75
 31
0.0
  0
LINE
  5
30E
330
1E
100
AcDbEntity
  8
BASE
  6
Continuous
100
AcDbLine
 10
160.0
 20
88.75
 30
0.0
 11
160.0
 21
96.25
 31
0.0
  0
LINE
  5
30F
330
1E
100
AcDbEntity
  8
BASE
  6
Continuous
100
AcDbLine
 10
160.0
 20
96.25
 30
0.0
 11
141.25
 21
96.25
 31
0.0
  0
LINE
  5
310
330
1E
100
AcDbEntity
  8
BASE
  6
Continuous
100
AcDbLine
 10
145.0
 20
96.25
 30
0.0
 11
145.0
 21
100.0
 31
0.0
  0
LINE
  5
311
330
1E
100
AcDbEntity
  8
BASE
  6
Continuous
100
AcDbLine
 10
148.75
 20
96.25
 30
0.0
 11
148.75
 21
100.0
 31
0.0
  0
LINE
  5
312
330
1E
100
AcDbEntity
  8
BASE
  6
Continuous
100
AcDbLine
 10
152.5
 20
96.25
 30
0.0
 11
152.5
 21
100.0
 31
0.0
  0
LINE
  5
313
330
1E
100
AcDbEntity
  8
BASE
  6
Continuous
100
AcDbLine
 10
156.25
 20
96.25
 30
0.0
 11
156.25
 21
100.0
 31
0.0
  0
LINE
  5
314
330
1E
100
AcDbEntity
  8
BASE
  6
Continuous
100
AcDbLine
 10
156.25
 20
107.4999999999999
 30
0.0
 11
156.25
 21
111.25
 31
0.0
  0
LINE
  5
315
330
1E
100
AcDbEntity
  8
BASE
  6
Continuous
100
AcDbLine
 10
152.5
 20
107.4999999999999
 30
0.0
 11
152.5
 21
111.25
 31
0.0
  0
LINE
  5
316
330
1E
100
AcDbEntity
  8
BASE
  6
Continuous
100
AcDbLine
 10
148.75
 20
107.4999999999999
 30
0.0
 11
148.75
 21
111.25
 31
0.0
  0
LINE
  5
317
330
1E
100
AcDbEntity
  8
BASE
  6
Continuous
100
AcDbLine
 10
145.0
 20
107.4999999999999
 30
0.0
 11
145.0
 21
111.25
 31
0.0
  0
LINE
  5
318
330
1E
100
AcDbEntity
  8
BASE
  6
Continuous
100
AcDbLine
 10
156.25
 20
100.0
 30
0.0
 11
153.6733156111356
 21
107.5224483772417
 31
0.0
  0
LINE
  5
319
330
1E
100
AcDbEntity
  8
BASE
  6
Continuous
100
AcDbLine
 10
152.5
 20
100.0
 30
0.0
 11
149.9233156111356
 21
107.5224483772417
 31
0.0
  0
LINE
  5
31A
330
1E
100
AcDbEntity
  8
BASE
  6
Continuous
100
AcDbLine
 10
148.75
 20
100.0
 30
0.0
 11
146.1733156111356
 21
107.5224483772417
 31
0.0
  0
LINE
  5
31B
330
1E
100
AcDbEntity
  8
BASE
  6
Continuous
100
AcDbLine
 10
145.0
 20
100.0
 30
0.0
 11
142.4233156111356
 21
107.5224483772417
 31
0.0
  0
LINE
  5
31C
330
1E
100
AcDbEntity
  8
BASE
  6
Continuous
100
AcDbLine
 10
150.6195257422751
 20
92.93379259342993
 30
0.0
 11
147.1008774739367
 21
91.14891387031326
 31
0.0
  0
LINE
  5
31D
330
1E
100
AcDbEntity
  8
BASE
  6
Continuous
100
AcDbLine
 10
147.0888148579068
 20
89.94889326517428
 30
0.0
 11
150.6640055075277
 21
91.73118102697509
 31
0.0
  0
LINE
  5
31E
330
1E
100
AcDbEntity
  8
BASE
  6
Continuous
100
AcDbLine
 10
147.1008774739367
 20
94.93682316048305
 30
0.0
 11
150.6195257422751
 21
92.93379259342993
 31
0.0
  0
TEXT
  5
31F
330
1E
100
AcDbEntity
  8
BASE
  6
Continuous
100
AcDbText
 10
153.7516701594731
 20
90.94668273284398
 30
0.0
 40
3.75
  1
1
 11
153.7516701594731
 21
89.69668273284398
 31
0.0
100
AcDbText
 73
     1
  0
TEXT
  5
320
330
1E
100
AcDbEntity
  8
BASE
  6
Continuous
100
AcDbText
 10
82.50167015947312
 20
90.94668273284398
 30
0.0
 40
3.75
  1
1
 11
82.50167015947312
 21
89.69668273284398
 31
0.0
100
AcDbText
 73
     1
  0
LINE
  5
321
330
1E
100
AcDbEntity
  8
BASE
  6
Continuous
100
AcDbLine
 10
75.85087747393675
 20
94.93682316048305
 30
0.0
 11
79.36952574227518
 21
92.93379259342993
 31
0.0
  0
LINE
  5
322
330
1E
100
AcDbEntity
  8
BASE
  6
Continuous
100
AcDbLine
 10
75.83881485790687
 20
89.94889326517428
 30
0.0
 11
79.41400550752774
 21
91.73118102697509
 31
0.0
  0
LINE
  5
323
330
1E
100
AcDbEntity
  8
BASE
  6
Continuous
100
AcDbLine
 10
79.36952574227518
 20
92.93379259342993
 30
0.0
 11
75.85087747393675
 21
91.14891387031326
 31
0.0
  0
LINE
  5
324
330
1E
100
AcDbEntity
  8
BASE
  6
Continuous
100
AcDbLine
 10
77.5
 20
88.75
 30
0.0
 11
77.5
 21
85.0
 31
0.0
  0
LINE
  5
325
330
1E
100
AcDbEntity
  8
BASE
  6
Continuous
100
AcDbLine
 10
85.0
 20
96.25
 30
0.0
 11
85.0
 21
100.0
 31
0.0
  0
LINE
  5
326
330
1E
100
AcDbEntity
  8
BASE
  6
Continuous
100
AcDbLine
 10
81.25
 20
96.25
 30
0.0
 11
81.25
 21
100.0
 31
0.0
  0
LINE
  5
327
330
1E
100
AcDbEntity
  8
BASE
  6
Continuous
100
AcDbLine
 10
77.5
 20
96.25
 30
0.0
 11
77.5
 21
109.2287270419404
 31
0.0
  0
LINE
  5
328
330
1E
100
AcDbEntity
  8
BASE
  6
Continuous
100
AcDbLine
 10
88.75
 20
96.25
 30
0.0
 11
70.0
 21
96.25
 31
0.0
  0
LINE
  5
329
330
1E
100
AcDbEntity
  8
BASE
  6
Continuous
100
AcDbLine
 10
88.75
 20
88.75
 30
0.0
 11
88.75
 21
96.25
 31
0.0
  0
LINE
  5
32A
330
1E
100
AcDbEntity
  8
BASE
  6
Continuous
100
AcDbLine
 10
70.0
 20
88.75
 30
0.0
 11
88.75
 21
88.75
 31
0.0
  0
LINE
  5
32B
330
1E
100
AcDbEntity
  8
BASE
  6
Continuous
100
AcDbLine
 10
70.0
 20
96.25
 30
0.0
 11
70.0
 21
88.75
 31
0.0
  0
LINE
  5
32C
330
1E
100
AcDbEntity
  8
BASE
  6
Continuous
100
AcDbLine
 10
73.75
 20
96.25
 30
0.0
 11
73.75
 21
109.2287270419422
 31
0.0
  0
LINE
  5
32D
330
1E
100
AcDbEntity
  8
BASE
  6
Continuous
100
AcDbLine
 10
163.75
 20
96.25
 30
0.0
 11
163.75
 21
88.75
 31
0.0
  0
LINE
  5
32E
330
1E
100
AcDbEntity
  8
BASE
  6
Continuous
100
AcDbLine
 10
163.75
 20
88.75
 30
0.0
 11
201.25
 21
88.75
 31
0.0
  0
LINE
  5
32F
330
1E
100
AcDbEntity
  8
BASE
  6
Continuous
100
AcDbLine
 10
201.25
 20
88.75
 30
0.0
 11
201.25
 21
96.25
 31
0.0
  0
LINE
  5
330
330
1E
100
AcDbEntity
  8
BASE
  6
Continuous
100
AcDbLine
 10
201.25
 20
96.25
 30
0.0
 11
163.75
 21
96.25
 31
0.0
  0
LINE
  5
331
330
1E
100
AcDbEntity
  8
BASE
  6
Continuous
100
AcDbLine
 10
176.1667423350577
 20
89.94889326517428
 30
0.0
 11
179.7419329846786
 21
91.73118102697509
 31
0.0
  0
LINE
  5
332
330
1E
100
AcDbEntity
  8
BASE
  6
Continuous
100
AcDbLine
 10
179.697453219426
 20
92.93379259342993
 30
0.0
 11
176.1788049510876
 21
91.14891387031326
 31
0.0
  0
LINE
  5
333
330
1E
100
AcDbEntity
  8
BASE
  6
Continuous
100
AcDbLine
 10
176.1788049510876
 20
94.93682316048305
 30
0.0
 11
179.697453219426
 21
92.93379259342993
 31
0.0
  0
TEXT
  5
334
330
1E
100
AcDbEntity
  8
BASE
  6
Continuous
100
AcDbText
 10
182.829597636624
 20
90.94668273284398
 30
0.0
 40
3.75
  1
1
 11
182.829597636624
 21
89.69668273284398
 31
0.0
100
AcDbText
 73
     1
  0
LINE
  5
335
330
1E
100
AcDbEntity
  8
BASE
  6
Continuous
100
AcDbLine
 10
167.5
 20
96.25
 30
0.0
 11
167.5
 21
100.0
 31
0.0
  0
LINE
  5
336
330
1E
100
AcDbEntity
  8
BASE
  6
Continuous
100
AcDbLine
 10
171.25
 20
96.25
 30
0.0
 11
171.25
 21
100.0
 31
0.0
  0
LINE
  5
337
330
1E
100
AcDbEntity
  8
BASE
  6
Continuous
100
AcDbLine
 10
175.0
 20
96.25
 30
0.0
 11
175.0
 21
100.0
 31
0.0
  0
LINE
  5
338
330
1E
100
AcDbEntity
  8
BASE
  6
Continuous
100
AcDbLine
 10
178.75
 20
96.25
 30
0.0
 11
178.75
 21
100.0
 31
0.0
  0
LINE
  5
339
330
1E
100
AcDbEntity
  8
BASE
  6
Continuous
100
AcDbLine
 10
182.5
 20
96.25
 30
0.0
 11
182.5
 21
100.0
 31
0.0
  0
LINE
  5
33A
330
1E
100
AcDbEntity
  8
BASE
  6
Continuous
100
AcDbLine
 10
186.25
 20
96.25
 30
0.0
 11
186.25
 21
100.0
 31
0.0
  0
LINE
  5
33B
330
1E
100
AcDbEntity
  8
BASE
  6
Continuous
100
AcDbLine
 10
190.0
 20
96.25
 30
0.0
 11
190.0
 21
100.0
 31
0.0
  0
LINE
  5
33C
330
1E
100
AcDbEntity
  8
BASE
  6
Continuous
100
AcDbLine
 10
193.75
 20
96.25
 30
0.0
 11
193.75
 21
100.0
 31
0.0
  0
LINE
  5
33D
330
1E
100
AcDbEntity
  8
BASE
  6
Continuous
100
AcDbLine
 10
197.5
 20
96.25
 30
0.0
 11
197.5
 21
100.0
 31
0.0
  0
LINE
  5
33E
330
1E
100
AcDbEntity
  8
BASE
  6
Continuous
100
AcDbLine
 10
171.25
 20
100.0
 30
0.0
 11
168.6733156111356
 21
107.5224483772417
 31
0.0
  0
LINE
  5
33F
330
1E
100
AcDbEntity
  8
BASE
  6
Continuous
100
AcDbLine
 10
175.0
 20
100.0
 30
0.0
 11
172.4233156111356
 21
107.5224483772417
 31
0.0
  0
LINE
  5
340
330
1E
100
AcDbEntity
  8
BASE
  6
Continuous
100
AcDbLine
 10
178.75
 20
100.0
 30
0.0
 11
176.1733156111356
 21
107.5224483772417
 31
0.0
  0
LINE
  5
341
330
1E
100
AcDbEntity
  8
BASE
  6
Continuous
100
AcDbLine
 10
182.5
 20
100.0
 30
0.0
 11
179.9233156111356
 21
107.5224483772417
 31
0.0
  0
LINE
  5
342
330
1E
100
AcDbEntity
  8
BASE
  6
Continuous
100
AcDbLine
 10
186.25
 20
100.0
 30
0.0
 11
183.6733156111356
 21
107.5224483772417
 31
0.0
  0
LINE
  5
343
330
1E
100
AcDbEntity
  8
BASE
  6
Continuous
100
AcDbLine
 10
190.0
 20
100.0
 30
0.0
 11
187.4233156111356
 21
107.5224483772417
 31
0.0
  0
LINE
  5
344
330
1E
100
AcDbEntity
  8
BASE
  6
Continuous
100
AcDbLine
 10
193.75
 20
100.0
 30
0.0
 11
191.1733156111356
 21
107.5224483772417
 31
0.0
  0
LINE
  5
345
330
1E
100
AcDbEntity
  8
BASE
  6
Continuous
100
AcDbLine
 10
197.5
 20
100.0
 30
0.0
 11
194.9233156111356
 21
107.5224483772417
 31
0.0
  0
LINE
  5
346
330
1E
100
AcDbEntity
  8
BASE
  6
Continuous
100
AcDbLine
 10
167.5
 20
100.0
 30
0.0
 11
167.5
 21
111.25
 31
0.0
  0
LINE
  5
347
330
1E
100
AcDbEntity
  8
BASE
  6
Continuous
100
AcDbLine
 10
171.25
 20
107.4999999999999
 30
0.0
 11
171.25
 21
111.25
 31
0.0
  0
LINE
  5
348
330
1E
100
AcDbEntity
  8
BASE
  6
Continuous
100
AcDbLine
 10
175.0
 20
107.4999999999999
 30
0.0
 11
175.0
 21
111.25
 31
0.0
  0
LINE
  5
349
330
1E
100
AcDbEntity
  8
BASE
  6
Continuous
100
AcDbLine
 10
178.75
 20
107.4999999999999
 30
0.0
 11
178.75
 21
111.25
 31
0.0
  0
LINE
  5
34A
330
1E
100
AcDbEntity
  8
BASE
  6
Continuous
100
AcDbLine
 10
182.5
 20
107.4999999999999
 30
0.0
 11
182.5
 21
111.25
 31
0.0
  0
LINE
  5
34B
330
1E
100
AcDbEntity
  8
BASE
  6
Continuous
100
AcDbLine
 10
186.25
 20
107.4999999999999
 30
0.0
 11
186.25
 21
111.25
 31
0.0
  0
LINE
  5
34C
330
1E
100
AcDbEntity
  8
BASE
  6
Continuous
100
AcDbLine
 10
190.0
 20
107.4999999999999
 30
0.0
 11
190.0
 21
111.25
 31
0.0
  0
LINE
  5
34D
330
1E
100
AcDbEntity
  8
BASE
  6
Continuous
100
AcDbLine
 10
193.75
 20
107.4999999999999
 30
0.0
 11
193.75
 21
111.25
 31
0.0
  0
LINE
  5
34E
330
1E
100
AcDbEntity
  8
BASE
  6
Continuous
100
AcDbLine
 10
197.5
 20
107.4999999999999
 30
0.0
 11
197.5
 21
111.25
 31
0.0
  0
LINE
  5
34F
330
1E
100
AcDbEntity
  8
BASE
  6
Continuous
100
AcDbLine
 10
197.5
 20
111.25
 30
0.0
 11
197.5
 21
111.25
 31
0.0
  0
LINE
  5
350
330
1E
100
AcDbEntity
  8
BASE
  6
Continuous
100
AcDbLine
 10
85.0
 20
160.0
 30
0.0
 11
85.0
 21
130.0
 31
0.0
  0
LINE
  5
351
330
1E
100
AcDbEntity
  8
BASE
  6
Continuous
100
AcDbLine
 10
156.25
 20
167.5
 30
0.0
 11
156.25
 21
111.25
 31
0.0
  0
LINE
  5
352
330
1E
100
AcDbEntity
  8
BASE
  6
Continuous
100
AcDbLine
 10
81.25
 20
175.0
 30
0.0
 11
81.25
 21
130.0
 31
0.0
  0
LINE
  5
353
330
1E
100
AcDbEntity
  8
BASE
  6
Continuous
100
AcDbLine
 10
152.5
 20
182.5
 30
0.0
 11
152.5
 21
111.25
 31
0.0
  0
LINE
  5
354
330
1E
100
AcDbEntity
  8
BASE
  6
Continuous
100
AcDbLine
 10
77.5
 20
190.0
 30
0.0
 11
77.5
 21
130.0
 31
0.0
  0
LINE
  5
355
330
1E
100
AcDbEntity
  8
BASE
  6
Continuous
100
AcDbLine
 10
148.75
 20
197.4999999999999
 30
0.0
 11
148.75
 21
111.25
 31
0.0
  0
LINE
  5
356
330
1E
100
AcDbEntity
  8
BASE
  6
Continuous
100
AcDbLine
 10
73.75
 20
205.0
 30
0.0
 11
73.75
 21
130.0
 31
0.0
  0
LINE
  5
357
330
1E
100
AcDbEntity
  8
BASE
  6
Continuous
100
AcDbLine
 10
235.0
 20
212.5
 30
0.0
 11
145.0
 21
212.5
 31
0.0
  0
LINE
  5
358
330
1E
100
AcDbEntity
  8
BASE
  6
Continuous
100
AcDbLine
 10
145.0
 20
212.5
 30
0.0
 11
145.0
 21
111.25
 31
0.0
  0
LINE
  5
359
330
1E
100
AcDbEntity
  8
BASE
  6
Continuous
100
AcDbLine
 10
197.5
 20
111.25
 30
0.0
 11
197.5
 21
160.0
 31
0.0
  0
LINE
  5
35A
330
1E
100
AcDbEntity
  8
BASE
  6
Continuous
100
AcDbLine
 10
193.75
 20
111.25
 30
0.0
 11
193.75
 21
167.5
 31
0.0
  0
LINE
  5
35B
330
1E
100
AcDbEntity
  8
BASE
  6
Continuous
100
AcDbLine
 10
190.0
 20
111.25
 30
0.0
 11
190.0
 21
174.9999999999999
 31
0.0
  0
LINE
  5
35C
330
1E
100
AcDbEntity
  8
BASE
  6
Continuous
100
AcDbLine
 10
186.25
 20
111.25
 30
0.0
 11
186.25
 21
182.5
 31
0.0
  0
LINE
  5
35D
330
1E
100
AcDbEntity
  8
BASE
  6
Continuous
100
AcDbLine
 10
182.5
 20
111.25
 30
0.0
 11
182.4999999999999
 21
189.9999999999999
 31
0.0
  0
LINE
  5
35E
330
1E
100
AcDbEntity
  8
BASE
  6
Continuous
100
AcDbLine
 10
178.75
 20
111.25
 30
0.0
 11
178.75
 21
197.4999999999999
 31
0.0
  0
LINE
  5
35F
330
1E
100
AcDbEntity
  8
BASE
  6
Continuous
100
AcDbLine
 10
175.0
 20
111.25
 30
0.0
 11
175.0
 21
205.0
 31
0.0
  0
LINE
  5
360
330
1E
100
AcDbEntity
  8
BASE
  6
Continuous
100
AcDbLine
 10
171.25
 20
111.25
 30
0.0
 11
171.25
 21
212.5
 31
0.0
  0
LINE
  5
361
330
1E
100
AcDbEntity
  8
BASE
  6
Continuous
100
AcDbLine
 10
96.25
 20
111.25
 30
0.0
 11
96.25
 21
197.4999999999999
 31
0.0
  0
LINE
  5
362
330
1E
100
AcDbEntity
  8
BASE
  6
Continuous
100
AcDbLine
 10
100.0
 20
111.25
 30
0.0
 11
99.99999999999994
 21
205.0
 31
0.0
  0
LINE
  5
363
330
1E
100
AcDbEntity
  8
BASE
  6
Continuous
100
AcDbLine
 10
103.75
 20
111.25
 30
0.0
 11
103.7499999999999
 21
190.0
 31
0.0
  0
LINE
  5
364
330
1E
100
AcDbEntity
  8
BASE
  6
Continuous
100
AcDbLine
 10
107.4999999999999
 20
111.25
 30
0.0
 11
107.5
 21
175.0
 31
0.0
  0
LINE
  5
365
330
1E
100
AcDbEntity
  8
BASE
  6
Continuous
100
AcDbLine
 10
122.5
 20
111.25
 30
0.0
 11
122.5
 21
205.0
 31
0.0
  0
LINE
  5
366
330
1E
100
AcDbEntity
  8
BASE
  6
Continuous
100
AcDbLine
 10
126.2499999999999
 20
111.25
 30
0.0
 11
126.2499999999999
 21
189.9999999999999
 31
0.0
  0
LINE
  5
367
330
1E
100
AcDbEntity
  8
BASE
  6
Continuous
100
AcDbLine
 10
130.0
 20
111.25
 30
0.0
 11
130.0
 21
174.9999999999999
 31
0.0
  0
LINE
  5
368
330
1E
100
AcDbEntity
  8
BASE
  6
Continuous
100
AcDbLine
 10
133.75
 20
111.25
 30
0.0
 11
133.75
 21
160.0
 31
0.0
  0
TEXT
  5
369
330
1E
100
AcDbEntity
  8
BASE
  6
Continuous
100
AcDbText
 10
121.9221885768732
 20
111.3908778538372
 30
0.0
 40
2.25
  1
U1/SGR2/1
 50
90.0
  7
ROMANS
100
AcDbText
  0
TEXT
  5
36A
330
1E
100
AcDbEntity
  8
BASE
  6
Continuous
100
AcDbText
 10
125.9597399124315
 20
111.3908778538372
 30
0.0
 40
2.25
  1
U1/SGR2/3
 50
90.0
  7
ROMANS
100
AcDbText
  0
TEXT
  5
36B
330
1E
100
AcDbEntity
  8
BASE
  6
Continuous
100
AcDbText
 10
129.7097399124315
 20
111.3908778538372
 30
0.0
 40
2.25
  1
U1/SGR2/5
 50
90.0
  7
ROMANS
100
AcDbText
  0
TEXT
  5
36C
330
1E
100
AcDbEntity
  8
BASE
  6
Continuous
100
AcDbText
 10
133.0164316034458
 20
111.3908778538372
 30
0.0
 40
2.25
  1
U1/SGR2/7
 50
90.0
  7
ROMANS
100
AcDbText
  0
TEXT
  5
36D
330
1E
100
AcDbEntity
  8
BASE
  6
Continuous
100
AcDbText
 10
144.7559938220136
 20
111.3908778538372
 30
0.0
 40
2.25
  1
U1/SGR1/1
 50
90.0
  7
ROMANS
100
AcDbText
  0
TEXT
  5
36E
330
1E
100
AcDbEntity
  8
BASE
  6
Continuous
100
AcDbText
 10
148.4801504867068
 20
111.3908778538372
 30
0.0
 40
2.25
  1
U1/SGR1/3
 50
90.0
  7
ROMANS
100
AcDbText
  0
TEXT
  5
36F
330
1E
100
AcDbEntity
  8
BASE
  6
Continuous
100
AcDbText
 10
152.2559938220136
 20
111.3908778538372
 30
0.0
 40
2.25
  1
U1/SGR1/5
 50
90.0
  7
ROMANS
100
AcDbText
  0
TEXT
  5
370
330
1E
100
AcDbEntity
  8
BASE
  6
Continuous
100
AcDbText
 10
155.706461180807
 20
111.3908778538372
 30
0.0
 40
2.25
  1
U1/SGR1/7
 50
90.0
  7
ROMANS
100
AcDbText
  0
TEXT
  5
371
330
1E
100
AcDbEntity
  8
BASE
  6
Continuous
100
AcDbText
 10
170.9633700067066
 20
111.4521976732714
 30
0.0
 40
2.25
  1
U1/SGR3/1
 50
90.0
  7
ROMANS
100
AcDbText
  0
TEXT
  5
372
330
1E
100
AcDbEntity
  8
BASE
  6
Continuous
100
AcDbText
 10
174.7650867643937
 20
111.4521976732714
 30
0.0
 40
2.25
  1
U1/SGR3/2
 50
90.0
  7
ROMANS
100
AcDbText
  0
TEXT
  5
373
330
1E
100
AcDbEntity
  8
BASE
  6
Continuous
100
AcDbText
 10
178.4633700067067
 20
111.4521976732714
 30
0.0
 40
2.25
  1
U1/SGR3/3
 50
90.0
  7
ROMANS
100
AcDbText
  0
TEXT
  5
374
330
1E
100
AcDbEntity
  8
BASE
  6
Continuous
100
AcDbText
 10
182.2133700067066
 20
111.4521976732714
 30
0.0
 40
2.25
  1
U1/SGR3/4
 50
90.0
  7
ROMANS
100
AcDbText
  0
TEXT
  5
375
330
1E
100
AcDbEntity
  8
BASE
  6
Continuous
100
AcDbText
 10
185.9633700067067
 20
111.4521976732714
 30
0.0
 40
2.25
  1
U1/SGR3/5
 50
90.0
  7
ROMANS
100
AcDbText
  0
TEXT
  5
376
330
1E
100
AcDbEntity
  8
BASE
  6
Continuous
100
AcDbText
 10
189.6616532490196
 20
111.4521976732714
 30
0.0
 40
2.25
  1
U1/SGR3/6
 50
90.0
  7
ROMANS
100
AcDbText
  0
TEXT
  5
377
330
1E
100
AcDbEntity
  8
BASE
  6
Continuous
100
AcDbText
 10
193.1638373655
 20
111.4521976732714
 30
0.0
 40
2.25
  1
U1/SGR3/7
 50
90.0
  7
ROMANS
100
AcDbText
  0
TEXT
  5
378
330
1E
100
AcDbEntity
  8
BASE
  6
Continuous
100
AcDbText
 10
196.9396957443436
 20
111.4521976732714
 30
0.0
 40
2.25
  1
U1/SGR3/8
 50
90.0
  7
ROMANS
100
AcDbText
  0
CIRCLE
  5
379
330
1E
100
AcDbEntity
  8
BASE
  6
Continuous
100
AcDbCircle
 10
85.00786302394459
 20
104.7999705606001
 30
0.0
 40
1.049999999999999
  0
LINE
  5
37A
330
1E
100
AcDbEntity
  8
BASE
  6
Continuous
100
AcDbLine
 10
85.0
 20
100.0
 30
0.0
 11
85.0
 21
103.75
 31
0.0
  0
LINE
  5
37B
330
1E
100
AcDbEntity
  8
BASE
  6
Continuous
100
AcDbLine
 10
81.25
 20
100.0
 30
0.0
 11
81.25
 21
103.75
 31
0.0
  0
CIRCLE
  5
37C
330
1E
100
AcDbEntity
  8
BASE
  6
Continuous
100
AcDbCircle
 10
81.25786302394459
 20
104.7999705606001
 30
0.0
 40
1.049999999999999
  0
LINE
  5
37D
330
1E
100
AcDbEntity
  8
BASE
  6
Continuous
100
AcDbLine
 10
85.0
 20
122.5
 30
0.0
 11
85.0
 21
105.8499411186897
 31
0.0
  0
LINE
  5
37E
330
1E
100
AcDbEntity
  8
BASE
  6
Continuous
100
AcDbLine
 10
81.25
 20
122.5
 30
0.0
 11
81.25
 21
105.8499411186879
 31
0.0
  0
CIRCLE
  5
37F
330
1E
100
AcDbEntity
  8
BASE
  6
Continuous
100
AcDbCircle
 10
77.50786302394459
 20
110.2786976000306
 30
0.0
 40
1.049999999999999
  0
CIRCLE
  5
380
330
1E
100
AcDbEntity
  8
BASE
  6
Continuous
100
AcDbCircle
 10
73.75786302394459
 20
110.2786976000306
 30
0.0
 40
1.049999999999999
  0
LINE
  5
381
330
1E
100
AcDbEntity
  8
BASE
  6
Continuous
100
AcDbLine
 10
77.5
 20
122.5
 30
0.0
 11
77.5
 21
111.3286681581199
 31
0.0
  0
LINE
  5
382
330
1E
100
AcDbEntity
  8
BASE
  6
Continuous
100
AcDbLine
 10
73.75
 20
122.5
 30
0.0
 11
73.75
 21
111.3286681581199
 31
0.0
  0
LINE
  5
383
330
1E
100
AcDbEntity
  8
BASE
  6
Continuous
100
AcDbLine
 10
82.3077761603864
 20
104.7864647868806
 30
0.0
 11
83.957949887501
 21
104.7864647868806
 31
0.0
  0
LINE
  5
384
330
1E
100
AcDbEntity
  8
BASE
  6
Continuous
100
AcDbLine
 10
74.80786207539688
 20
110.2772862364137
 30
0.0
 11
76.45786397249051
 21
110.2772862364137
 31
0.0
  0
LINE
  5
385
330
1E
100
AcDbEntity
  8
BASE
  6
Continuous
100
AcDbLine
 10
70.0
 20
118.75
 30
0.0
 11
85.0
 21
118.75
 31
0.0
  0
LINE
  5
386
330
1E
100
AcDbEntity
  8
BASE
  6
Continuous
100
AcDbLine
 10
85.0
 20
117.4028685924114
 30
0.0
 11
83.0598960169946
 21
118.7500001970903
 31
0.0
  0
LINE
  5
387
330
1E
100
AcDbEntity
  8
BASE
  6
Continuous
100
AcDbLine
 10
83.0598960169946
 20
118.7500001970903
 30
0.0
 11
85.0
 21
120.110153284767
 31
0.0
  0
LINE
  5
388
330
1E
100
AcDbEntity
  8
BASE
  6
Continuous
100
AcDbLine
 10
81.25
 20
117.4028685924114
 30
0.0
 11
79.3098960169946
 21
118.7500001970903
 31
0.0
  0
LINE
  5
389
330
1E
100
AcDbEntity
  8
BASE
  6
Continuous
100
AcDbLine
 10
79.3098960169946
 20
118.7500001970903
 30
0.0
 11
81.25
 21
120.110153284767
 31
0.0
  0
LINE
  5
38A
330
1E
100
AcDbEntity
  8
BASE
  6
Continuous
100
AcDbLine
 10
77.5
 20
117.4028685924114
 30
0.0
 11
75.5598960169946
 21
118.7500001970903
 31
0.0
  0
LINE
  5
38B
330
1E
100
AcDbEntity
  8
BASE
  6
Continuous
100
AcDbLine
 10
75.5598960169946
 20
118.7500001970903
 30
0.0
 11
77.5
 21
120.110153284767
 31
0.0
  0
LINE
  5
38C
330
1E
100
AcDbEntity
  8
BASE
  6
Continuous
100
AcDbLine
 10
73.75
 20
117.4028685924114
 30
0.0
 11
71.8098960169946
 21
118.7500001970903
 31
0.0
  0
LINE
  5
38D
330
1E
100
AcDbEntity
  8
BASE
  6
Continuous
100
AcDbLine
 10
71.8098960169946
 20
118.7500001970903
 30
0.0
 11
73.75
 21
120.110153284767
 31
0.0
  0
LINE
  5
38E
330
1E
100
AcDbEntity
  8
BASE
  6
Continuous
100
AcDbLine
 10
85.0
 20
122.5
 30
0.0
 11
82.42331561113564
 21
130.0224483772417
 31
0.0
  0
LINE
  5
38F
330
1E
100
AcDbEntity
  8
BASE
  6
Continuous
100
AcDbLine
 10
81.25
 20
122.5
 30
0.0
 11
78.67331561113565
 21
130.0224483772417
 31
0.0
  0
LINE
  5
390
330
1E
100
AcDbEntity
  8
BASE
  6
Continuous
100
AcDbLine
 10
77.5
 20
122.5
 30
0.0
 11
74.92331561113565
 21
130.0224483772417
 31
0.0
  0
LINE
  5
391
330
1E
100
AcDbEntity
  8
BASE
  6
Continuous
100
AcDbLine
 10
73.75
 20
122.5
 30
0.0
 11
71.1733156111357
 21
130.0224483772417
 31
0.0
  0
LINE
  5
392
330
1E
100
AcDbEntity
  8
BASE
  6
Continuous
100
AcDbLine
 10
72.70877819106434
 20
110.2348682329512
 30
0.0
 11
70.21823778096274
 21
110.2348682329512
 31
0.0
  0
LINE
  5
393
330
1E
100
AcDbEntity
  8
BASE
  6
Continuous
100
AcDbLine
 10
80.20840463414122
 20
104.766249824128
 30
0.0
 11
70.5096240471845
 21
104.766249824128
 31
0.0
  0
LINE
  5
394
330
1E
100
AcDbEntity
  8
BASE
  6
Continuous
100
AcDbLine
 10
64.4361495092362
 20
104.6958287774923
 30
0.0
 11
54.92633670102089
 21
104.6958287774923
 31
0.0
  0
LINE
  5
395
330
1E
100
AcDbEntity
  8
BASE
  6
Continuous
100
AcDbLine
 10
64.4361495092362
 20
110.2812636225664
 30
0.0
 11
54.92633670102089
 21
110.2812636225664
 31
0.0
  0
LINE
  5
396
330
1E
100
AcDbEntity
  8
BASE
  6
Continuous
100
AcDbLine
 10
70.5096240471845
 20
104.766249824128
 30
0.0
 11
64.4361495092362
 21
102.4299583533786
 31
0.0
  0
LINE
  5
397
330
1E
100
AcDbEntity
  8
BASE
  6
Continuous
100
AcDbLine
 10
70.21823778096274
 20
110.2348682329512
 30
0.0
 11
64.4361495092362
 21
108.010664702015
 31
0.0
  0
TEXT
  5
398
330
1E
100
AcDbEntity
  8
BASE
  6
Continuous
100
AcDbText
 10
43.90811733841916
 20
111.6427023290577
 30
0.0
 40
2.25
  1
SEAL. IN
  7
ROMANS
100
AcDbText
  0
TEXT
  5
399
330
1E
100
AcDbEntity
  8
BASE
  6
Continuous
100
AcDbText
 10
73.32159642594888
 20
134.0008845370489
 30
0.0
 40
2.25
  1
U1/SGR1/2
 50
90.0
  7
ROMANS
100
AcDbText
  0
TEXT
  5
39A
330
1E
100
AcDbEntity
  8
BASE
  6
Continuous
100
AcDbText
 10
77.07159642594888
 20
134.0008845370489
 30
0.0
 40
2.25
  1
U1/SGR1/4
 50
90.0
  7
ROMANS
100
AcDbText
  0
TEXT
  5
39B
330
1E
100
AcDbEntity
  8
BASE
  6
Continuous
100
AcDbText
 10
80.82159642594888
 20
134.0008845370489
 30
0.0
 40
2.25
  1
U1/SGR1/6
 50
90.0
  7
ROMANS
100
AcDbText
  0
TEXT
  5
39C
330
1E
100
AcDbEntity
  8
BASE
  6
Continuous
100
AcDbText
 10
84.57159642594888
 20
134.0008845370489
 30
0.0
 40
2.25
  1
U1/SGR1/8
 50
90.0
  7
ROMANS
100
AcDbText
  0
LINE
  5
39D
330
1E
100
AcDbEntity
  8
BASE
  6
Continuous
100
AcDbLine
 10
77.5
 20
85.0
 30
0.0
 11
77.5
 21
77.5
 31
0.0
  0
LINE
  5
39E
330
1E
100
AcDbEntity
  8
BASE
  6
Continuous
100
AcDbLine
 10
182.5
 20
88.75
 30
0.0
 11
182.5
 21
77.5
 31
0.0
  0
LINE
  5
39F
330
1E
100
AcDbEntity
  8
BASE
  6
Continuous
100
AcDbLine
 10
70.0
 20
118.75
 30
0.0
 11
55.0
 21
118.75
 31
0.0
  0
LINE
  5
3A0
330
1E
100
AcDbEntity
  8
BASE
  6
Continuous
100
AcDbLine
 10
167.5
 20
111.25
 30
0.0
 11
167.5
 21
186.25
 31
0.0
  0
LINE
  5
3A1
330
1E
100
AcDbEntity
  8
BASE
  6
Continuous
100
AcDbLine
 10
167.5
 20
186.25
 30
0.0
 11
55.0
 21
186.25
 31
0.0
  0
LINE
  5
3A2
330
1E
100
AcDbEntity
  8
BASE
  6
Continuous
100
AcDbLine
 10
55.0
 20
186.25
 30
0.0
 11
55.0
 21
175.0
 31
0.0
  0
LINE
  5
3A3
330
1E
100
AcDbEntity
  8
BASE
  6
Continuous
100
AcDbLine
 10
55.0
 20
167.5
 30
0.0
 11
55.0
 21
160.0
 31
0.0
  0
LINE
  5
3A4
330
1E
100
AcDbEntity
  8
BASE
  6
Continuous
100
AcDbLine
 10
55.0
 20
167.5
 30
0.0
 11
51.4448728566536
 21
174.8844255865725
 31
0.0
  0
LINE
  5
3A5
330
1E
100
AcDbEntity
  8
BASE
  6
Continuous
100
AcDbLine
 10
55.0
 20
118.75
 30
0.0
 11
55.0
 21
137.5
 31
0.0
  0
LINE
  5
3A6
330
1E
100
AcDbEntity
  8
BASE
  6
Continuous
100
AcDbLine
 10
72.5
 20
215.0
 30
0.0
 11
50.0
 21
215.0
 31
0.0
  0
LINE
  5
3A7
330
1E
100
AcDbEntity
  8
BASE
  6
Continuous
100
AcDbLine
 10
55.0
 20
142.9727121886138
 30
0.0
 11
55.0
 21
137.5
 31
0.0
  0
LINE
  5
3A8
330
1E
100
AcDbEntity
  8
BASE
  6
Continuous
100
AcDbLine
 10
55.0
 20
155.2575994335176
 30
0.0
 11
55.0
 21
160.0
 31
0.0
  0
LINE
  5
3A9
330
1E
100
AcDbEntity
  8
BASE
100
AcDbLine
 10
64.95360621211244
 20
142.9727121886138
 30
0.0
 11
64.95360621211244
 21
155.2575994335176
 31
0.0
  0
LINE
  5
3AA
330
1E
100
AcDbEntity
  8
BASE
100
AcDbLine
 10
45.33687130019018
 20
142.9727121886138
 30
0.0
 11
64.95360621211242
 21
142.9727121886138
 31
0.0
  0
LINE
  5
3AB
330
1E
100
AcDbEntity
  8
BASE
100
AcDbLine
 10
64.95360621211242
 20
155.2575994335176
 30
0.0
 11
45.33687130019018
 21
155.2575994335176
 31
0.0
  0
LINE
  5
3AC
330
1E
100
AcDbEntity
  8
BASE
100
AcDbLine
 10
45.33687130019018
 20
155.2575994335176
 30
0.0
 11
45.33687130019018
 21
142.9727121886138
 31
0.0
  0
LINE
  5
3AD
330
1E
100
AcDbEntity
  8
BASE
  6
Continuous
100
AcDbLine
 10
263.7832729415021
 20
191.2512498885402
 30
0.0
 11
263.7832729415021
 21
188.5690527696545
 31
0.0
  0
LINE
  5
3AE
330
1E
100
AcDbEntity
  8
BASE
  6
Continuous
100
AcDbLine
 10
275.5053162216835
 20
191.2512498885402
 30
0.0
 11
275.5053162216835
 21
188.5690527696545
 31
0.0
  0
LINE
  5
3AF
330
1E
100
AcDbEntity
  8
BASE
  6
Continuous
100
AcDbLine
 10
263.8298205225664
 20
189.9833320598089
 30
0.0
 11
275.5121280628149
 21
189.9833320598089
 31
0.0
  0
LINE
  5
3B0
330
1E
100
AcDbEntity
  8
BASE
  6
Continuous
100
AcDbLine
 10
267.40603711652
 20
188.231928055141
 30
0.0
 11
271.7202031663688
 21
192.474765925604
 31
0.0
  0
LINE
  5
3B1
330
1E
100
AcDbEntity
  8
BASE
  6
Continuous
100
AcDbLine
 10
271.0390190532348
 20
193.2805762188314
 30
0.0
 11
272.3900342109507
 21
191.5949526462638
 31
0.0
  0
TEXT
  5
3B2
330
1E
100
AcDbEntity
  8
BASE
  6
DASHED
100
AcDbText
 10
49.18408800356337
 20
144.8028485719457
 30
0.0
 40
2.25
  1
0,1...1s
  7
ROMANS
100
AcDbText
  0
INSERT
  5
3B3
330
1E
100
AcDbEntity
  8
BASE
  6
Continuous
100
AcDbBlockReference
  2
*X13
 10
-46.25
 20
-91.25
 30
0.0
 41
1.5
 42
1.5
 43
1.5
  0
POLYLINE
  5
3B4
330
1E
100
AcDbEntity
  8
BASE
  6
Continuous
100
AcDbPolygonMesh
 66
     1
 10
0.0
 20
0.0
 30
0.0
 70
    16
 71
     2
 72
   101
  0
VERTEX
  5
3B5
330
3B4
100
AcDbEntity
  8
BASE
  6
Continuous
100
AcDbVertex
100
AcDbPolygonMeshVertex
 10
71.8098960169946
 20
118.7500001970903
 30
0.0
 70
    64
  0
VERTEX
  5
3B6
330
3B4
100
AcDbEntity
  8
BASE
  6
Continuous
100
AcDbVertex
100
AcDbPolygonMeshVertex
 10
71.82929705682465
 20
118.7365288810435
 30
0.0
 70
    64
  0
VERTEX
  5
3B7
330
3B4
100
AcDbEntity
  8
BASE
  6
Continuous
100
AcDbVertex
100
AcDbPolygonMeshVertex
 10
71.84869809665468
 20
118.7230575649967
 30
0.0
 70
    64
  0
VERTEX
  5
3B8
330
3B4
100
AcDbEntity
  8
BASE
  6
Continuous
100
AcDbVertex
100
AcDbPolygonMeshVertex
 10
71.86809913648474
 20
118.7095862489499
 30
0.0
 70
    64
  0
VERTEX
  5
3B9
330
3B4
100
AcDbEntity
  8
BASE
  6
Continuous
100
AcDbVertex
100
AcDbPolygonMeshVertex
 10
71.8875001763148
 20
118.6961149329031
 30
0.0
 70
    64
  0
VERTEX
  5
3BA
330
3B4
100
AcDbEntity
  8
BASE
  6
Continuous
100
AcDbVertex
100
AcDbPolygonMeshVertex
 10
71.90690121614489
 20
118.6826436168564
 30
0.0
 70
    64
  0
VERTEX
  5
3BB
330
3B4
100
AcDbEntity
  8
BASE
  6
Continuous
100
AcDbVertex
100
AcDbPolygonMeshVertex
 10
71.92630225597492
 20
118.6691723008095
 30
0.0
 70
    64
  0
VERTEX
  5
3BC
330
3B4
100
AcDbEntity
  8
BASE
  6
Continuous
100
AcDbVertex
100
AcDbPolygonMeshVertex
 10
71.94570329580497
 20
118.6557009847628
 30
0.0
 70
    64
  0
VERTEX
  5
3BD
330
3B4
100
AcDbEntity
  8
BASE
  6
Continuous
100
AcDbVertex
100
AcDbPolygonMeshVertex
 10
71.96510433563503
 20
118.642229668716
 30
0.0
 70
    64
  0
VERTEX
  5
3BE
330
3B4
100
AcDbEntity
  8
BASE
  6
Continuous
100
AcDbVertex
100
AcDbPolygonMeshVertex
 10
71.98450537546506
 20
118.6287583526692
 30
0.0
 70
    64
  0
VERTEX
  5
3BF
330
3B4
100
AcDbEntity
  8
BASE
  6
Continuous
100
AcDbVertex
100
AcDbPolygonMeshVertex
 10
72.00390641529512
 20
118.6152870366224
 30
0.0
 70
    64
  0
VERTEX
  5
3C0
330
3B4
100
AcDbEntity
  8
BASE
  6
Continuous
100
AcDbVertex
100
AcDbPolygonMeshVertex
 10
72.0233074551252
 20
118.6018157205756
 30
0.0
 70
    64
  0
VERTEX
  5
3C1
330
3B4
100
AcDbEntity
  8
BASE
  6
Continuous
100
AcDbVertex
100
AcDbPolygonMeshVertex
 10
72.04270849495526
 20
118.5883444045288
 30
0.0
 70
    64
  0
VERTEX
  5
3C2
330
3B4
100
AcDbEntity
  8
BASE
  6
Continuous
100
AcDbVertex
100
AcDbPolygonMeshVertex
 10
72.06210953478529
 20
118.574873088482
 30
0.0
 70
    64
  0
VERTEX
  5
3C3
330
3B4
100
AcDbEntity
  8
BASE
  6
Continuous
100
AcDbVertex
100
AcDbPolygonMeshVertex
 10
72.08151057461535
 20
118.5614017724353
 30
0.0
 70
    64
  0
VERTEX
  5
3C4
330
3B4
100
AcDbEntity
  8
BASE
  6
Continuous
100
AcDbVertex
100
AcDbPolygonMeshVertex
 10
72.10091161444541
 20
118.5479304563884
 30
0.0
 70
    64
  0
VERTEX
  5
3C5
330
3B4
100
AcDbEntity
  8
BASE
  6
Continuous
100
AcDbVertex
100
AcDbPolygonMeshVertex
 10
72.12031265427544
 20
118.5344591403417
 30
0.0
 70
    64
  0
VERTEX
  5
3C6
330
3B4
100
AcDbEntity
  8
BASE
  6
Continuous
100
AcDbVertex
100
AcDbPolygonMeshVertex
 10
72.13971369410552
 20
118.5209878242949
 30
0.0
 70
    64
  0
VERTEX
  5
3C7
330
3B4
100
AcDbEntity
  8
BASE
  6
Continuous
100
AcDbVertex
100
AcDbPolygonMeshVertex
 10
72.15911473393558
 20
118.5075165082481
 30
0.0
 70
    64
  0
VERTEX
  5
3C8
330
3B4
100
AcDbEntity
  8
BASE
  6
Continuous
100
AcDbVertex
100
AcDbPolygonMeshVertex
 10
72.17851577376563
 20
118.4940451922013
 30
0.0
 70
    64
  0
VERTEX
  5
3C9
330
3B4
100
AcDbEntity
  8
BASE
  6
Continuous
100
AcDbVertex
100
AcDbPolygonMeshVertex
 10
72.19791681359566
 20
118.4805738761545
 30
0.0
 70
    64
  0
VERTEX
  5
3CA
330
3B4
100
AcDbEntity
  8
BASE
  6
Continuous
100
AcDbVertex
100
AcDbPolygonMeshVertex
 10
72.21731785342573
 20
118.4671025601077
 30
0.0
 70
    64
  0
VERTEX
  5
3CB
330
3B4
100
AcDbEntity
  8
BASE
  6
Continuous
100
AcDbVertex
100
AcDbPolygonMeshVertex
 10
72.23671889325578
 20
118.453631244061
 30
0.0
 70
    64
  0
VERTEX
  5
3CC
330
3B4
100
AcDbEntity
  8
BASE
  6
Continuous
100
AcDbVertex
100
AcDbPolygonMeshVertex
 10
72.25611993308584
 20
118.4401599280142
 30
0.0
 70
    64
  0
VERTEX
  5
3CD
330
3B4
100
AcDbEntity
  8
BASE
  6
Continuous
100
AcDbVertex
100
AcDbPolygonMeshVertex
 10
72.2755209729159
 20
118.4266886119673
 30
0.0
 70
    64
  0
VERTEX
  5
3CE
330
3B4
100
AcDbEntity
  8
BASE
  6
Continuous
100
AcDbVertex
100
AcDbPolygonMeshVertex
 10
72.29492201274595
 20
118.4132172959206
 30
0.0
 70
    64
  0
VERTEX
  5
3CF
330
3B4
100
AcDbEntity
  8
BASE
  6
Continuous
100
AcDbVertex
100
AcDbPolygonMeshVertex
 10
72.31432305257602
 20
118.3997459798738
 30
0.0
 70
    64
  0
VERTEX
  5
3D0
330
3B4
100
AcDbEntity
  8
BASE
  6
Continuous
100
AcDbVertex
100
AcDbPolygonMeshVertex
 10
72.33372409240605
 20
118.386274663827
 30
0.0
 70
    64
  0
VERTEX
  5
3D1
330
3B4
100
AcDbEntity
  8
BASE
  6
Continuous
100
AcDbVertex
100
AcDbPolygonMeshVertex
 10
72.3531251322361
 20
118.3728033477802
 30
0.0
 70
    64
  0
VERTEX
  5
3D2
330
3B4
100
AcDbEntity
  8
BASE
  6
Continuous
100
AcDbVertex
100
AcDbPolygonMeshVertex
 10
72.37252617206616
 20
118.3593320317334
 30
0.0
 70
    64
  0
VERTEX
  5
3D3
330
3B4
100
AcDbEntity
  8
BASE
  6
Continuous
100
AcDbVertex
100
AcDbPolygonMeshVertex
 10
72.39192721189621
 20
118.3458607156866
 30
0.0
 70
    64
  0
VERTEX
  5
3D4
330
3B4
100
AcDbEntity
  8
BASE
  6
Continuous
100
AcDbVertex
100
AcDbPolygonMeshVertex
 10
72.41132825172627
 20
118.3323893996399
 30
0.0
 70
    64
  0
VERTEX
  5
3D5
330
3B4
100
AcDbEntity
  8
BASE
  6
Continuous
100
AcDbVertex
100
AcDbPolygonMeshVertex
 10
72.43072929155633
 20
118.318918083593
 30
0.0
 70
    64
  0
VERTEX
  5
3D6
330
3B4
100
AcDbEntity
  8
BASE
  6
Continuous
100
AcDbVertex
100
AcDbPolygonMeshVertex
 10
72.45013033138639
 20
118.3054467675463
 30
0.0
 70
    64
  0
VERTEX
  5
3D7
330
3B4
100
AcDbEntity
  8
BASE
  6
Continuous
100
AcDbVertex
100
AcDbPolygonMeshVertex
 10
72.46953137121642
 20
118.2919754514995
 30
0.0
 70
    64
  0
VERTEX
  5
3D8
330
3B4
100
AcDbEntity
  8
BASE
  6
Continuous
100
AcDbVertex
100
AcDbPolygonMeshVertex
 10
72.48893241104648
 20
118.2785041354527
 30
0.0
 70
    64
  0
VERTEX
  5
3D9
330
3B4
100
AcDbEntity
  8
BASE
  6
Continuous
100
AcDbVertex
100
AcDbPolygonMeshVertex
 10
72.50833345087653
 20
118.2650328194059
 30
0.0
 70
    64
  0
VERTEX
  5
3DA
330
3B4
100
AcDbEntity
  8
BASE
  6
Continuous
100
AcDbVertex
100
AcDbPolygonMeshVertex
 10
72.52773449070659
 20
118.2515615033591
 30
0.0
 70
    64
  0
VERTEX
  5
3DB
330
3B4
100
AcDbEntity
  8
BASE
  6
Continuous
100
AcDbVertex
100
AcDbPolygonMeshVertex
 10
72.54713553053665
 20
118.2380901873123
 30
0.0
 70
    64
  0
VERTEX
  5
3DC
330
3B4
100
AcDbEntity
  8
BASE
  6
Continuous
100
AcDbVertex
100
AcDbPolygonMeshVertex
 10
72.56653657036671
 20
118.2246188712655
 30
0.0
 70
    64
  0
VERTEX
  5
3DD
330
3B4
100
AcDbEntity
  8
BASE
  6
Continuous
100
AcDbVertex
100
AcDbPolygonMeshVertex
 10
72.58593761019676
 20
118.2111475552187
 30
0.0
 70
    64
  0
VERTEX
  5
3DE
330
3B4
100
AcDbEntity
  8
BASE
  6
Continuous
100
AcDbVertex
100
AcDbPolygonMeshVertex
 10
72.60533865002679
 20
118.1976762391719
 30
0.0
 70
    64
  0
VERTEX
  5
3DF
330
3B4
100
AcDbEntity
  8
BASE
  6
Continuous
100
AcDbVertex
100
AcDbPolygonMeshVertex
 10
72.62473968985688
 20
118.1842049231252
 30
0.0
 70
    64
  0
VERTEX
  5
3E0
330
3B4
100
AcDbEntity
  8
BASE
  6
Continuous
100
AcDbVertex
100
AcDbPolygonMeshVertex
 10
72.64414072968691
 20
118.1707336070784
 30
0.0
 70
    64
  0
VERTEX
  5
3E1
330
3B4
100
AcDbEntity
  8
BASE
  6
Continuous
100
AcDbVertex
100
AcDbPolygonMeshVertex
 10
72.66354176951697
 20
118.1572622910316
 30
0.0
 70
    64
  0
VERTEX
  5
3E2
330
3B4
100
AcDbEntity
  8
BASE
  6
Continuous
100
AcDbVertex
100
AcDbPolygonMeshVertex
 10
72.68294280934703
 20
118.1437909749848
 30
0.0
 70
    64
  0
VERTEX
  5
3E3
330
3B4
100
AcDbEntity
  8
BASE
  6
Continuous
100
AcDbVertex
100
AcDbPolygonMeshVertex
 10
72.70234384917708
 20
118.130319658938
 30
0.0
 70
    64
  0
VERTEX
  5
3E4
330
3B4
100
AcDbEntity
  8
BASE
  6
Continuous
100
AcDbVertex
100
AcDbPolygonMeshVertex
 10
72.72174488900714
 20
118.1168483428912
 30
0.0
 70
    64
  0
VERTEX
  5
3E5
330
3B4
100
AcDbEntity
  8
BASE
  6
Continuous
100
AcDbVertex
100
AcDbPolygonMeshVertex
 10
72.74114592883719
 20
118.1033770268445
 30
0.0
 70
    64
  0
VERTEX
  5
3E6
330
3B4
100
AcDbEntity
  8
BASE
  6
Continuous
100
AcDbVertex
100
AcDbPolygonMeshVertex
 10
72.76054696866726
 20
118.0899057107976
 30
0.0
 70
    64
  0
VERTEX
  5
3E7
330
3B4
100
AcDbEntity
  8
BASE
  6
Continuous
100
AcDbVertex
100
AcDbPolygonMeshVertex
 10
72.77994800849729
 20
118.0764343947509
 30
0.0
 70
    64
  0
VERTEX
  5
3E8
330
3B4
100
AcDbEntity
  8
BASE
  6
Continuous
100
AcDbVertex
100
AcDbPolygonMeshVertex
 10
72.79934904832734
 20
118.0629630787041
 30
0.0
 70
    64
  0
VERTEX
  5
3E9
330
3B4
100
AcDbEntity
  8
BASE
  6
Continuous
100
AcDbVertex
100
AcDbPolygonMeshVertex
 10
72.8187500881574
 20
118.0494917626573
 30
0.0
 70
    64
  0
VERTEX
  5
3EA
330
3B4
100
AcDbEntity
  8
BASE
  6
Continuous
100
AcDbVertex
100
AcDbPolygonMeshVertex
 10
72.83815112798746
 20
118.0360204466105
 30
0.0
 70
    64
  0
VERTEX
  5
3EB
330
3B4
100
AcDbEntity
  8
BASE
  6
Continuous
100
AcDbVertex
100
AcDbPolygonMeshVertex
 10
72.85755216781751
 20
118.0225491305637
 30
0.0
 70
    64
  0
VERTEX
  5
3EC
330
3B4
100
AcDbEntity
  8
BASE
  6
Continuous
100
AcDbVertex
100
AcDbPolygonMeshVertex
 10
72.87695320764758
 20
118.0090778145169
 30
0.0
 70
    64
  0
VERTEX
  5
3ED
330
3B4
100
AcDbEntity
  8
BASE
  6
Continuous
100
AcDbVertex
100
AcDbPolygonMeshVertex
 10
72.89635424747763
 20
117.9956064984701
 30
0.0
 70
    64
  0
VERTEX
  5
3EE
330
3B4
100
AcDbEntity
  8
BASE
  6
Continuous
100
AcDbVertex
100
AcDbPolygonMeshVertex
 10
72.91575528730766
 20
117.9821351824233
 30
0.0
 70
    64
  0
VERTEX
  5
3EF
330
3B4
100
AcDbEntity
  8
BASE
  6
Continuous
100
AcDbVertex
100
AcDbPolygonMeshVertex
 10
72.93515632713772
 20
117.9686638663765
 30
0.0
 70
    64
  0
VERTEX
  5
3F0
330
3B4
100
AcDbEntity
  8
BASE
  6
Continuous
100
AcDbVertex
100
AcDbPolygonMeshVertex
 10
72.95455736696777
 20
117.9551925503298
 30
0.0
 70
    64
  0
VERTEX
  5
3F1
330
3B4
100
AcDbEntity
  8
BASE
  6
Continuous
100
AcDbVertex
100
AcDbPolygonMeshVertex
 10
72.97395840679786
 20
117.941721234283
 30
0.0
 70
    64
  0
VERTEX
  5
3F2
330
3B4
100
AcDbEntity
  8
BASE
  6
Continuous
100
AcDbVertex
100
AcDbPolygonMeshVertex
 10
72.99335944662789
 20
117.9282499182361
 30
0.0
 70
    64
  0
VERTEX
  5
3F3
330
3B4
100
AcDbEntity
  8
BASE
  6
Continuous
100
AcDbVertex
100
AcDbPolygonMeshVertex
 10
73.01276048645795
 20
117.9147786021894
 30
0.0
 70
    64
  0
VERTEX
  5
3F4
330
3B4
100
AcDbEntity
  8
BASE
  6
Continuous
100
AcDbVertex
100
AcDbPolygonMeshVertex
 10
73.03216152628801
 20
117.9013072861426
 30
0.0
 70
    64
  0
VERTEX
  5
3F5
330
3B4
100
AcDbEntity
  8
BASE
  6
Continuous
100
AcDbVertex
100
AcDbPolygonMeshVertex
 10
73.05156256611804
 20
117.8878359700958
 30
0.0
 70
    64
  0
VERTEX
  5
3F6
330
3B4
100
AcDbEntity
  8
BASE
  6
Continuous
100
AcDbVertex
100
AcDbPolygonMeshVertex
 10
73.07096360594809
 20
117.8743646540491
 30
0.0
 70
    64
  0
VERTEX
  5
3F7
330
3B4
100
AcDbEntity
  8
BASE
  6
Continuous
100
AcDbVertex
100
AcDbPolygonMeshVertex
 10
73.09036464577818
 20
117.8608933380022
 30
0.0
 70
    64
  0
VERTEX
  5
3F8
330
3B4
100
AcDbEntity
  8
BASE
  6
Continuous
100
AcDbVertex
100
AcDbPolygonMeshVertex
 10
73.10976568560824
 20
117.8474220219554
 30
0.0
 70
    64
  0
VERTEX
  5
3F9
330
3B4
100
AcDbEntity
  8
BASE
  6
Continuous
100
AcDbVertex
100
AcDbPolygonMeshVertex
 10
73.12916672543827
 20
117.8339507059087
 30
0.0
 70
    64
  0
VERTEX
  5
3FA
330
3B4
100
AcDbEntity
  8
BASE
  6
Continuous
100
AcDbVertex
100
AcDbPolygonMeshVertex
 10
73.14856776526832
 20
117.8204793898619
 30
0.0
 70
    64
  0
VERTEX
  5
3FB
330
3B4
100
AcDbEntity
  8
BASE
  6
Continuous
100
AcDbVertex
100
AcDbPolygonMeshVertex
 10
73.16796880509838
 20
117.8070080738151
 30
0.0
 70
    64
  0
VERTEX
  5
3FC
330
3B4
100
AcDbEntity
  8
BASE
  6
Continuous
100
AcDbVertex
100
AcDbPolygonMeshVertex
 10
73.18736984492841
 20
117.7935367577683
 30
0.0
 70
    64
  0
VERTEX
  5
3FD
330
3B4
100
AcDbEntity
  8
BASE
  6
Continuous
100
AcDbVertex
100
AcDbPolygonMeshVertex
 10
73.2067708847585
 20
117.7800654417215
 30
0.0
 70
    64
  0
VERTEX
  5
3FE
330
3B4
100
AcDbEntity
  8
BASE
  6
Continuous
100
AcDbVertex
100
AcDbPolygonMeshVertex
 10
73.22617192458856
 20
117.7665941256747
 30
0.0
 70
    64
  0
VERTEX
  5
3FF
330
3B4
100
AcDbEntity
  8
BASE
  6
Continuous
100
AcDbVertex
100
AcDbPolygonMeshVertex
 10
73.24557296441861
 20
117.7531228096279
 30
0.0
 70
    64
  0
VERTEX
  5
400
330
3B4
100
AcDbEntity
  8
BASE
  6
Continuous
100
AcDbVertex
100
AcDbPolygonMeshVertex
 10
73.26497400424864
 20
117.7396514935811
 30
0.0
 70
    64
  0
VERTEX
  5
401
330
3B4
100
AcDbEntity
  8
BASE
  6
Continuous
100
AcDbVertex
100
AcDbPolygonMeshVertex
 10
73.2843750440787
 20
117.7261801775344
 30
0.0
 70
    64
  0
VERTEX
  5
402
330
3B4
100
AcDbEntity
  8
BASE
  6
Continuous
100
AcDbVertex
100
AcDbPolygonMeshVertex
 10
73.30377608390875
 20
117.7127088614876
 30
0.0
 70
    64
  0
VERTEX
  5
403
330
3B4
100
AcDbEntity
  8
BASE
  6
Continuous
100
AcDbVertex
100
AcDbPolygonMeshVertex
 10
73.32317712373878
 20
117.6992375454407
 30
0.0
 70
    64
  0
VERTEX
  5
404
330
3B4
100
AcDbEntity
  8
BASE
  6
Continuous
100
AcDbVertex
100
AcDbPolygonMeshVertex
 10
73.34257816356887
 20
117.685766229394
 30
0.0
 70
    64
  0
VERTEX
  5
405
330
3B4
100
AcDbEntity
  8
BASE
  6
Continuous
100
AcDbVertex
100
AcDbPolygonMeshVertex
 10
73.36197920339893
 20
117.6722949133472
 30
0.0
 70
    64
  0
VERTEX
  5
406
330
3B4
100
AcDbEntity
  8
BASE
  6
Continuous
100
AcDbVertex
100
AcDbPolygonMeshVertex
 10
73.38138024322899
 20
117.6588235973004
 30
0.0
 70
    64
  0
VERTEX
  5
407
330
3B4
100
AcDbEntity
  8
BASE
  6
Continuous
100
AcDbVertex
100
AcDbPolygonMeshVertex
 10
73.40078128305902
 20
117.6453522812536
 30
0.0
 70
    64
  0
VERTEX
  5
408
330
3B4
100
AcDbEntity
  8
BASE
  6
Continuous
100
AcDbVertex
100
AcDbPolygonMeshVertex
 10
73.42018232288907
 20
117.6318809652068
 30
0.0
 70
    64
  0
VERTEX
  5
409
330
3B4
100
AcDbEntity
  8
BASE
  6
Continuous
100
AcDbVertex
100
AcDbPolygonMeshVertex
 10
73.43958336271914
 20
117.61840964916
 30
0.0
 70
    64
  0
VERTEX
  5
40A
330
3B4
100
AcDbEntity
  8
BASE
  6
Continuous
100
AcDbVertex
100
AcDbPolygonMeshVertex
 10
73.45898440254919
 20
117.6049383331132
 30
0.0
 70
    64
  0
VERTEX
  5
40B
330
3B4
100
AcDbEntity
  8
BASE
  6
Continuous
100
AcDbVertex
100
AcDbPolygonMeshVertex
 10
73.47838544237925
 20
117.5914670170664
 30
0.0
 70
    64
  0
VERTEX
  5
40C
330
3B4
100
AcDbEntity
  8
BASE
  6
Continuous
100
AcDbVertex
100
AcDbPolygonMeshVertex
 10
73.4977864822093
 20
117.5779957010196
 30
0.0
 70
    64
  0
VERTEX
  5
40D
330
3B4
100
AcDbEntity
  8
BASE
  6
Continuous
100
AcDbVertex
100
AcDbPolygonMeshVertex
 10
73.51718752203936
 20
117.5645243849729
 30
0.0
 70
    64
  0
VERTEX
  5
40E
330
3B4
100
AcDbEntity
  8
BASE
  6
Continuous
100
AcDbVertex
100
AcDbPolygonMeshVertex
 10
73.53658856186939
 20
117.5510530689261
 30
0.0
 70
    64
  0
VERTEX
  5
40F
330
3B4
100
AcDbEntity
  8
BASE
  6
Continuous
100
AcDbVertex
100
AcDbPolygonMeshVertex
 10
73.55598960169945
 20
117.5375817528793
 30
0.0
 70
    64
  0
VERTEX
  5
410
330
3B4
100
AcDbEntity
  8
BASE
  6
Continuous
100
AcDbVertex
100
AcDbPolygonMeshVertex
 10
73.57539064152951
 20
117.5241104368325
 30
0.0
 70
    64
  0
VERTEX
  5
411
330
3B4
100
AcDbEntity
  8
BASE
  6
Continuous
100
AcDbVertex
100
AcDbPolygonMeshVertex
 10
73.59479168135957
 20
117.5106391207857
 30
0.0
 70
    64
  0
VERTEX
  5
412
330
3B4
100
AcDbEntity
  8
BASE
  6
Continuous
100
AcDbVertex
100
AcDbPolygonMeshVertex
 10
73.61419272118962
 20
117.4971678047389
 30
0.0
 70
    64
  0
VERTEX
  5
413
330
3B4
100
AcDbEntity
  8
BASE
  6
Continuous
100
AcDbVertex
100
AcDbPolygonMeshVertex
 10
73.63359376101968
 20
117.4836964886922
 30
0.0
 70
    64
  0
VERTEX
  5
414
330
3B4
100
AcDbEntity
  8
BASE
  6
Continuous
100
AcDbVertex
100
AcDbPolygonMeshVertex
 10
73.65299480084974
 20
117.4702251726453
 30
0.0
 70
    64
  0
VERTEX
  5
415
330
3B4
100
AcDbEntity
  8
BASE
  6
Continuous
100
AcDbVertex
100
AcDbPolygonMeshVertex
 10
73.67239584067977
 20
117.4567538565986
 30
0.0
 70
    64
  0
VERTEX
  5
416
330
3B4
100
AcDbEntity
  8
BASE
  6
Continuous
100
AcDbVertex
100
AcDbPolygonMeshVertex
 10
73.69179688050985
 20
117.4432825405518
 30
0.0
 70
    64
  0
VERTEX
  5
417
330
3B4
100
AcDbEntity
  8
BASE
  6
Continuous
100
AcDbVertex
100
AcDbPolygonMeshVertex
 10
73.71119792033988
 20
117.429811224505
 30
0.0
 70
    64
  0
VERTEX
  5
418
330
3B4
100
AcDbEntity
  8
BASE
  6
Continuous
100
AcDbVertex
100
AcDbPolygonMeshVertex
 10
73.73059896016994
 20
117.4163399084582
 30
0.0
 70
    64
  0
VERTEX
  5
419
330
3B4
100
AcDbEntity
  8
BASE
  6
Continuous
100
AcDbVertex
100
AcDbPolygonMeshVertex
 10
73.75
 20
117.4028685924114
 30
0.0
 70
    64
  0
VERTEX
  5
41A
330
3B4
100
AcDbEntity
  8
BASE
  6
Continuous
100
AcDbVertex
100
AcDbPolygonMeshVertex
 10
71.8098960169946
 20
118.7500001970903
 30
0.0
 70
    64
  0
VERTEX
  5
41B
330
3B4
100
AcDbEntity
  8
BASE
  6
Continuous
100
AcDbVertex
100
AcDbPolygonMeshVertex
 10
71.82929705682465
 20
118.7636017279671
 30
0.0
 70
    64
  0
VERTEX
  5
41C
330
3B4
100
AcDbEntity
  8
BASE
  6
Continuous
100
AcDbVertex
100
AcDbPolygonMeshVertex
 10
71.84869809665468
 20
118.7772032588438
 30
0.0
 70
    64
  0
VERTEX
  5
41D
330
3B4
100
AcDbEntity
  8
BASE
  6
Continuous
100
AcDbVertex
100
AcDbPolygonMeshVertex
 10
71.86809913648474
 20
118.7908047897206
 30
0.0
 70
    64
  0
VERTEX
  5
41E
330
3B4
100
AcDbEntity
  8
BASE
  6
Continuous
100
AcDbVertex
100
AcDbPolygonMeshVertex
 10
71.88750017631483
 20
118.8044063205973
 30
0.0
 70
    64
  0
VERTEX
  5
41F
330
3B4
100
AcDbEntity
  8
BASE
  6
Continuous
100
AcDbVertex
100
AcDbPolygonMeshVertex
 10
71.90690121614489
 20
118.8180078514742
 30
0.0
 70
    64
  0
VERTEX
  5
420
330
3B4
100
AcDbEntity
  8
BASE
  6
Continuous
100
AcDbVertex
100
AcDbPolygonMeshVertex
 10
71.92630225597492
 20
118.8316093823509
 30
0.0
 70
    64
  0
VERTEX
  5
421
330
3B4
100
AcDbEntity
  8
BASE
  6
Continuous
100
AcDbVertex
100
AcDbPolygonMeshVertex
 10
71.94570329580497
 20
118.8452109132277
 30
0.0
 70
    64
  0
VERTEX
  5
422
330
3B4
100
AcDbEntity
  8
BASE
  6
Continuous
100
AcDbVertex
100
AcDbPolygonMeshVertex
 10
71.96510433563503
 20
118.8588124441045
 30
0.0
 70
    64
  0
VERTEX
  5
423
330
3B4
100
AcDbEntity
  8
BASE
  6
Continuous
100
AcDbVertex
100
AcDbPolygonMeshVertex
 10
71.98450537546506
 20
118.8724139749812
 30
0.0
 70
    64
  0
VERTEX
  5
424
330
3B4
100
AcDbEntity
  8
BASE
  6
Continuous
100
AcDbVertex
100
AcDbPolygonMeshVertex
 10
72.00390641529515
 20
118.886015505858
 30
0.0
 70
    64
  0
VERTEX
  5
425
330
3B4
100
AcDbEntity
  8
BASE
  6
Continuous
100
AcDbVertex
100
AcDbPolygonMeshVertex
 10
72.0233074551252
 20
118.8996170367348
 30
0.0
 70
    64
  0
VERTEX
  5
426
330
3B4
100
AcDbEntity
  8
BASE
  6
Continuous
100
AcDbVertex
100
AcDbPolygonMeshVertex
 10
72.04270849495526
 20
118.9132185676115
 30
0.0
 70
    64
  0
VERTEX
  5
427
330
3B4
100
AcDbEntity
  8
BASE
  6
Continuous
100
AcDbVertex
100
AcDbPolygonMeshVertex
 10
72.06210953478529
 20
118.9268200984883
 30
0.0
 70
    64
  0
VERTEX
  5
428
330
3B4
100
AcDbEntity
  8
BASE
  6
Continuous
100
AcDbVertex
100
AcDbPolygonMeshVertex
 10
72.08151057461535
 20
118.9404216293651
 30
0.0
 70
    64
  0
VERTEX
  5
429
330
3B4
100
AcDbEntity
  8
BASE
  6
Continuous
100
AcDbVertex
100
AcDbPolygonMeshVertex
 10
72.10091161444541
 20
118.9540231602418
 30
0.0
 70
    64
  0
VERTEX
  5
42A
330
3B4
100
AcDbEntity
  8
BASE
  6
Continuous
100
AcDbVertex
100
AcDbPolygonMeshVertex
 10
72.12031265427547
 20
118.9676246911186
 30
0.0
 70
    64
  0
VERTEX
  5
42B
330
3B4
100
AcDbEntity
  8
BASE
  6
Continuous
100
AcDbVertex
100
AcDbPolygonMeshVertex
 10
72.13971369410552
 20
118.9812262219953
 30
0.0
 70
    64
  0
VERTEX
  5
42C
330
3B4
100
AcDbEntity
  8
BASE
  6
Continuous
100
AcDbVertex
100
AcDbPolygonMeshVertex
 10
72.15911473393558
 20
118.9948277528721
 30
0.0
 70
    64
  0
VERTEX
  5
42D
330
3B4
100
AcDbEntity
  8
BASE
  6
Continuous
100
AcDbVertex
100
AcDbPolygonMeshVertex
 10
72.17851577376563
 20
119.0084292837489
 30
0.0
 70
    64
  0
VERTEX
  5
42E
330
3B4
100
AcDbEntity
  8
BASE
  6
Continuous
100
AcDbVertex
100
AcDbPolygonMeshVertex
 10
72.19791681359566
 20
119.0220308146256
 30
0.0
 70
    64
  0
VERTEX
  5
42F
330
3B4
100
AcDbEntity
  8
BASE
  6
Continuous
100
AcDbVertex
100
AcDbPolygonMeshVertex
 10
72.21731785342573
 20
119.0356323455024
 30
0.0
 70
    64
  0
VERTEX
  5
430
330
3B4
100
AcDbEntity
  8
BASE
  6
Continuous
100
AcDbVertex
100
AcDbPolygonMeshVertex
 10
72.23671889325578
 20
119.0492338763792
 30
0.0
 70
    64
  0
VERTEX
  5
431
330
3B4
100
AcDbEntity
  8
BASE
  6
Continuous
100
AcDbVertex
100
AcDbPolygonMeshVertex
 10
72.25611993308584
 20
119.0628354072559
 30
0.0
 70
    64
  0
VERTEX
  5
432
330
3B4
100
AcDbEntity
  8
BASE
  6
Continuous
100
AcDbVertex
100
AcDbPolygonMeshVertex
 10
72.2755209729159
 20
119.0764369381327
 30
0.0
 70
    64
  0
VERTEX
  5
433
330
3B4
100
AcDbEntity
  8
BASE
  6
Continuous
100
AcDbVertex
100
AcDbPolygonMeshVertex
 10
72.29492201274595
 20
119.0900384690095
 30
0.0
 70
    64
  0
VERTEX
  5
434
330
3B4
100
AcDbEntity
  8
BASE
  6
Continuous
100
AcDbVertex
100
AcDbPolygonMeshVertex
 10
72.31432305257602
 20
119.1036399998862
 30
0.0
 70
    64
  0
VERTEX
  5
435
330
3B4
100
AcDbEntity
  8
BASE
  6
Continuous
100
AcDbVertex
100
AcDbPolygonMeshVertex
 10
72.33372409240605
 20
119.117241530763
 30
0.0
 70
    64
  0
VERTEX
  5
436
330
3B4
100
AcDbEntity
  8
BASE
  6
Continuous
100
AcDbVertex
100
AcDbPolygonMeshVertex
 10
72.3531251322361
 20
119.1308430616398
 30
0.0
 70
    64
  0
VERTEX
  5
437
330
3B4
100
AcDbEntity
  8
BASE
  6
Continuous
100
AcDbVertex
100
AcDbPolygonMeshVertex
 10
72.37252617206616
 20
119.1444445925166
 30
0.0
 70
    64
  0
VERTEX
  5
438
330
3B4
100
AcDbEntity
  8
BASE
  6
Continuous
100
AcDbVertex
100
AcDbPolygonMeshVertex
 10
72.39192721189621
 20
119.1580461233933
 30
0.0
 70
    64
  0
VERTEX
  5
439
330
3B4
100
AcDbEntity
  8
BASE
  6
Continuous
100
AcDbVertex
100
AcDbPolygonMeshVertex
 10
72.41132825172627
 20
119.1716476542701
 30
0.0
 70
    64
  0
VERTEX
  5
43A
330
3B4
100
AcDbEntity
  8
BASE
  6
Continuous
100
AcDbVertex
100
AcDbPolygonMeshVertex
 10
72.43072929155633
 20
119.1852491851469
 30
0.0
 70
    64
  0
VERTEX
  5
43B
330
3B4
100
AcDbEntity
  8
BASE
  6
Continuous
100
AcDbVertex
100
AcDbPolygonMeshVertex
 10
72.45013033138639
 20
119.1988507160236
 30
0.0
 70
    64
  0
VERTEX
  5
43C
330
3B4
100
AcDbEntity
  8
BASE
  6
Continuous
100
AcDbVertex
100
AcDbPolygonMeshVertex
 10
72.46953137121642
 20
119.2124522469004
 30
0.0
 70
    64
  0
VERTEX
  5
43D
330
3B4
100
AcDbEntity
  8
BASE
  6
Continuous
100
AcDbVertex
100
AcDbPolygonMeshVertex
 10
72.4889324110465
 20
119.2260537777771
 30
0.0
 70
    64
  0
VERTEX
  5
43E
330
3B4
100
AcDbEntity
  8
BASE
  6
Continuous
100
AcDbVertex
100
AcDbPolygonMeshVertex
 10
72.50833345087653
 20
119.2396553086539
 30
0.0
 70
    64
  0
VERTEX
  5
43F
330
3B4
100
AcDbEntity
  8
BASE
  6
Continuous
100
AcDbVertex
100
AcDbPolygonMeshVertex
 10
72.52773449070659
 20
119.2532568395307
 30
0.0
 70
    64
  0
VERTEX
  5
440
330
3B4
100
AcDbEntity
  8
BASE
  6
Continuous
100
AcDbVertex
100
AcDbPolygonMeshVertex
 10
72.54713553053665
 20
119.2668583704074
 30
0.0
 70
    64
  0
VERTEX
  5
441
330
3B4
100
AcDbEntity
  8
BASE
  6
Continuous
100
AcDbVertex
100
AcDbPolygonMeshVertex
 10
72.56653657036671
 20
119.2804599012842
 30
0.0
 70
    64
  0
VERTEX
  5
442
330
3B4
100
AcDbEntity
  8
BASE
  6
Continuous
100
AcDbVertex
100
AcDbPolygonMeshVertex
 10
72.58593761019676
 20
119.294061432161
 30
0.0
 70
    64
  0
VERTEX
  5
443
330
3B4
100
AcDbEntity
  8
BASE
  6
Continuous
100
AcDbVertex
100
AcDbPolygonMeshVertex
 10
72.60533865002682
 20
119.3076629630377
 30
0.0
 70
    64
  0
VERTEX
  5
444
330
3B4
100
AcDbEntity
  8
BASE
  6
Continuous
100
AcDbVertex
100
AcDbPolygonMeshVertex
 10
72.62473968985688
 20
119.3212644939145
 30
0.0
 70
    64
  0
VERTEX
  5
445
330
3B4
100
AcDbEntity
  8
BASE
  6
Continuous
100
AcDbVertex
100
AcDbPolygonMeshVertex
 10
72.64414072968691
 20
119.3348660247913
 30
0.0
 70
    64
  0
VERTEX
  5
446
330
3B4
100
AcDbEntity
  8
BASE
  6
Continuous
100
AcDbVertex
100
AcDbPolygonMeshVertex
 10
72.66354176951697
 20
119.3484675556681
 30
0.0
 70
    64
  0
VERTEX
  5
447
330
3B4
100
AcDbEntity
  8
BASE
  6
Continuous
100
AcDbVertex
100
AcDbPolygonMeshVertex
 10
72.68294280934703
 20
119.3620690865448
 30
0.0
 70
    64
  0
VERTEX
  5
448
330
3B4
100
AcDbEntity
  8
BASE
  6
Continuous
100
AcDbVertex
100
AcDbPolygonMeshVertex
 10
72.70234384917708
 20
119.3756706174216
 30
0.0
 70
    64
  0
VERTEX
  5
449
330
3B4
100
AcDbEntity
  8
BASE
  6
Continuous
100
AcDbVertex
100
AcDbPolygonMeshVertex
 10
72.72174488900714
 20
119.3892721482983
 30
0.0
 70
    64
  0
VERTEX
  5
44A
330
3B4
100
AcDbEntity
  8
BASE
  6
Continuous
100
AcDbVertex
100
AcDbPolygonMeshVertex
 10
72.74114592883719
 20
119.4028736791751
 30
0.0
 70
    64
  0
VERTEX
  5
44B
330
3B4
100
AcDbEntity
  8
BASE
  6
Continuous
100
AcDbVertex
100
AcDbPolygonMeshVertex
 10
72.76054696866726
 20
119.4164752100519
 30
0.0
 70
    64
  0
VERTEX
  5
44C
330
3B4
100
AcDbEntity
  8
BASE
  6
Continuous
100
AcDbVertex
100
AcDbPolygonMeshVertex
 10
72.77994800849729
 20
119.4300767409286
 30
0.0
 70
    64
  0
VERTEX
  5
44D
330
3B4
100
AcDbEntity
  8
BASE
  6
Continuous
100
AcDbVertex
100
AcDbPolygonMeshVertex
 10
72.79934904832734
 20
119.4436782718054
 30
0.0
 70
    64
  0
VERTEX
  5
44E
330
3B4
100
AcDbEntity
  8
BASE
  6
Continuous
100
AcDbVertex
100
AcDbPolygonMeshVertex
 10
72.8187500881574
 20
119.4572798026822
 30
0.0
 70
    64
  0
VERTEX
  5
44F
330
3B4
100
AcDbEntity
  8
BASE
  6
Continuous
100
AcDbVertex
100
AcDbPolygonMeshVertex
 10
72.83815112798746
 20
119.4708813335589
 30
0.0
 70
    64
  0
VERTEX
  5
450
330
3B4
100
AcDbEntity
  8
BASE
  6
Continuous
100
AcDbVertex
100
AcDbPolygonMeshVertex
 10
72.85755216781751
 20
119.4844828644358
 30
0.0
 70
    64
  0
VERTEX
  5
451
330
3B4
100
AcDbEntity
  8
BASE
  6
Continuous
100
AcDbVertex
100
AcDbPolygonMeshVertex
 10
72.87695320764758
 20
119.4980843953125
 30
0.0
 70
    64
  0
VERTEX
  5
452
330
3B4
100
AcDbEntity
  8
BASE
  6
Continuous
100
AcDbVertex
100
AcDbPolygonMeshVertex
 10
72.89635424747763
 20
119.5116859261893
 30
0.0
 70
    64
  0
VERTEX
  5
453
330
3B4
100
AcDbEntity
  8
BASE
  6
Continuous
100
AcDbVertex
100
AcDbPolygonMeshVertex
 10
72.91575528730766
 20
119.525287457066
 30
0.0
 70
    64
  0
VERTEX
  5
454
330
3B4
100
AcDbEntity
  8
BASE
  6
Continuous
100
AcDbVertex
100
AcDbPolygonMeshVertex
 10
72.93515632713772
 20
119.5388889879428
 30
0.0
 70
    64
  0
VERTEX
  5
455
330
3B4
100
AcDbEntity
  8
BASE
  6
Continuous
100
AcDbVertex
100
AcDbPolygonMeshVertex
 10
72.95455736696777
 20
119.5524905188196
 30
0.0
 70
    64
  0
VERTEX
  5
456
330
3B4
100
AcDbEntity
  8
BASE
  6
Continuous
100
AcDbVertex
100
AcDbPolygonMeshVertex
 10
72.97395840679786
 20
119.5660920496964
 30
0.0
 70
    64
  0
VERTEX
  5
457
330
3B4
100
AcDbEntity
  8
BASE
  6
Continuous
100
AcDbVertex
100
AcDbPolygonMeshVertex
 10
72.99335944662789
 20
119.5796935805731
 30
0.0
 70
    64
  0
VERTEX
  5
458
330
3B4
100
AcDbEntity
  8
BASE
  6
Continuous
100
AcDbVertex
100
AcDbPolygonMeshVertex
 10
73.01276048645795
 20
119.5932951114499
 30
0.0
 70
    64
  0
VERTEX
  5
459
330
3B4
100
AcDbEntity
  8
BASE
  6
Continuous
100
AcDbVertex
100
AcDbPolygonMeshVertex
 10
73.03216152628801
 20
119.6068966423266
 30
0.0
 70
    64
  0
VERTEX
  5
45A
330
3B4
100
AcDbEntity
  8
BASE
  6
Continuous
100
AcDbVertex
100
AcDbPolygonMeshVertex
 10
73.05156256611804
 20
119.6204981732034
 30
0.0
 70
    64
  0
VERTEX
  5
45B
330
3B4
100
AcDbEntity
  8
BASE
  6
Continuous
100
AcDbVertex
100
AcDbPolygonMeshVertex
 10
73.07096360594809
 20
119.6340997040802
 30
0.0
 70
    64
  0
VERTEX
  5
45C
330
3B4
100
AcDbEntity
  8
BASE
  6
Continuous
100
AcDbVertex
100
AcDbPolygonMeshVertex
 10
73.09036464577818
 20
119.6477012349569
 30
0.0
 70
    64
  0
VERTEX
  5
45D
330
3B4
100
AcDbEntity
  8
BASE
  6
Continuous
100
AcDbVertex
100
AcDbPolygonMeshVertex
 10
73.10976568560824
 20
119.6613027658337
 30
0.0
 70
    64
  0
VERTEX
  5
45E
330
3B4
100
AcDbEntity
  8
BASE
  6
Continuous
100
AcDbVertex
100
AcDbPolygonMeshVertex
 10
73.12916672543827
 20
119.6749042967105
 30
0.0
 70
    64
  0
VERTEX
  5
45F
330
3B4
100
AcDbEntity
  8
BASE
  6
Continuous
100
AcDbVertex
100
AcDbPolygonMeshVertex
 10
73.14856776526832
 20
119.6885058275872
 30
0.0
 70
    64
  0
VERTEX
  5
460
330
3B4
100
AcDbEntity
  8
BASE
  6
Continuous
100
AcDbVertex
100
AcDbPolygonMeshVertex
 10
73.16796880509838
 20
119.702107358464
 30
0.0
 70
    64
  0
VERTEX
  5
461
330
3B4
100
AcDbEntity
  8
BASE
  6
Continuous
100
AcDbVertex
100
AcDbPolygonMeshVertex
 10
73.18736984492841
 20
119.7157088893408
 30
0.0
 70
    64
  0
VERTEX
  5
462
330
3B4
100
AcDbEntity
  8
BASE
  6
Continuous
100
AcDbVertex
100
AcDbPolygonMeshVertex
 10
73.20677088475846
 20
119.7293104202175
 30
0.0
 70
    64
  0
VERTEX
  5
463
330
3B4
100
AcDbEntity
  8
BASE
  6
Continuous
100
AcDbVertex
100
AcDbPolygonMeshVertex
 10
73.22617192458856
 20
119.7429119510943
 30
0.0
 70
    64
  0
VERTEX
  5
464
330
3B4
100
AcDbEntity
  8
BASE
  6
Continuous
100
AcDbVertex
100
AcDbPolygonMeshVertex
 10
73.24557296441861
 20
119.7565134819711
 30
0.0
 70
    64
  0
VERTEX
  5
465
330
3B4
100
AcDbEntity
  8
BASE
  6
Continuous
100
AcDbVertex
100
AcDbPolygonMeshVertex
 10
73.26497400424864
 20
119.7701150128478
 30
0.0
 70
    64
  0
VERTEX
  5
466
330
3B4
100
AcDbEntity
  8
BASE
  6
Continuous
100
AcDbVertex
100
AcDbPolygonMeshVertex
 10
73.2843750440787
 20
119.7837165437246
 30
0.0
 70
    64
  0
VERTEX
  5
467
330
3B4
100
AcDbEntity
  8
BASE
  6
Continuous
100
AcDbVertex
100
AcDbPolygonMeshVertex
 10
73.30377608390875
 20
119.7973180746014
 30
0.0
 70
    64
  0
VERTEX
  5
468
330
3B4
100
AcDbEntity
  8
BASE
  6
Continuous
100
AcDbVertex
100
AcDbPolygonMeshVertex
 10
73.32317712373878
 20
119.8109196054782
 30
0.0
 70
    64
  0
VERTEX
  5
469
330
3B4
100
AcDbEntity
  8
BASE
  6
Continuous
100
AcDbVertex
100
AcDbPolygonMeshVertex
 10
73.34257816356887
 20
119.8245211363549
 30
0.0
 70
    64
  0
VERTEX
  5
46A
330
3B4
100
AcDbEntity
  8
BASE
  6
Continuous
100
AcDbVertex
100
AcDbPolygonMeshVertex
 10
73.36197920339893
 20
119.8381226672317
 30
0.0
 70
    64
  0
VERTEX
  5
46B
330
3B4
100
AcDbEntity
  8
BASE
  6
Continuous
100
AcDbVertex
100
AcDbPolygonMeshVertex
 10
73.38138024322899
 20
119.8517241981084
 30
0.0
 70
    64
  0
VERTEX
  5
46C
330
3B4
100
AcDbEntity
  8
BASE
  6
Continuous
100
AcDbVertex
100
AcDbPolygonMeshVertex
 10
73.40078128305902
 20
119.8653257289852
 30
0.0
 70
    64
  0
VERTEX
  5
46D
330
3B4
100
AcDbEntity
  8
BASE
  6
Continuous
100
AcDbVertex
100
AcDbPolygonMeshVertex
 10
73.42018232288907
 20
119.878927259862
 30
0.0
 70
    64
  0
VERTEX
  5
46E
330
3B4
100
AcDbEntity
  8
BASE
  6
Continuous
100
AcDbVertex
100
AcDbPolygonMeshVertex
 10
73.43958336271914
 20
119.8925287907387
 30
0.0
 70
    64
  0
VERTEX
  5
46F
330
3B4
100
AcDbEntity
  8
BASE
  6
Continuous
100
AcDbVertex
100
AcDbPolygonMeshVertex
 10
73.45898440254919
 20
119.9061303216155
 30
0.0
 70
    64
  0
VERTEX
  5
470
330
3B4
100
AcDbEntity
  8
BASE
  6
Continuous
100
AcDbVertex
100
AcDbPolygonMeshVertex
 10
73.47838544237925
 20
119.9197318524923
 30
0.0
 70
    64
  0
VERTEX
  5
471
330
3B4
100
AcDbEntity
  8
BASE
  6
Continuous
100
AcDbVertex
100
AcDbPolygonMeshVertex
 10
73.4977864822093
 20
119.933333383369
 30
0.0
 70
    64
  0
VERTEX
  5
472
330
3B4
100
AcDbEntity
  8
BASE
  6
Continuous
100
AcDbVertex
100
AcDbPolygonMeshVertex
 10
73.51718752203936
 20
119.9469349142458
 30
0.0
 70
    64
  0
VERTEX
  5
473
330
3B4
100
AcDbEntity
  8
BASE
  6
Continuous
100
AcDbVertex
100
AcDbPolygonMeshVertex
 10
73.53658856186939
 20
119.9605364451226
 30
0.0
 70
    64
  0
VERTEX
  5
474
330
3B4
100
AcDbEntity
  8
BASE
  6
Continuous
100
AcDbVertex
100
AcDbPolygonMeshVertex
 10
73.55598960169945
 20
119.9741379759993
 30
0.0
 70
    64
  0
VERTEX
  5
475
330
3B4
100
AcDbEntity
  8
BASE
  6
Continuous
100
AcDbVertex
100
AcDbPolygonMeshVertex
 10
73.57539064152951
 20
119.9877395068761
 30
0.0
 70
    64
  0
VERTEX
  5
476
330
3B4
100
AcDbEntity
  8
BASE
  6
Continuous
100
AcDbVertex
100
AcDbPolygonMeshVertex
 10
73.59479168135957
 20
120.0013410377529
 30
0.0
 70
    64
  0
VERTEX
  5
477
330
3B4
100
AcDbEntity
  8
BASE
  6
Continuous
100
AcDbVertex
100
AcDbPolygonMeshVertex
 10
73.61419272118962
 20
120.0149425686297
 30
0.0
 70
    64
  0
VERTEX
  5
478
330
3B4
100
AcDbEntity
  8
BASE
  6
Continuous
100
AcDbVertex
100
AcDbPolygonMeshVertex
 10
73.63359376101968
 20
120.0285440995064
 30
0.0
 70
    64
  0
VERTEX
  5
479
330
3B4
100
AcDbEntity
  8
BASE
  6
Continuous
100
AcDbVertex
100
AcDbPolygonMeshVertex
 10
73.65299480084974
 20
120.0421456303832
 30
0.0
 70
    64
  0
VERTEX
  5
47A
330
3B4
100
AcDbEntity
  8
BASE
  6
Continuous
100
AcDbVertex
100
AcDbPolygonMeshVertex
 10
73.67239584067977
 20
120.0557471612599
 30
0.0
 70
    64
  0
VERTEX
  5
47B
330
3B4
100
AcDbEntity
  8
BASE
  6
Continuous
100
AcDbVertex
100
AcDbPolygonMeshVertex
 10
73.69179688050983
 20
120.0693486921367
 30
0.0
 70
    64
  0
VERTEX
  5
47C
330
3B4
100
AcDbEntity
  8
BASE
  6
Continuous
100
AcDbVertex
100
AcDbPolygonMeshVertex
 10
73.71119792033988
 20
120.0829502230135
 30
0.0
 70
    64
  0
VERTEX
  5
47D
330
3B4
100
AcDbEntity
  8
BASE
  6
Continuous
100
AcDbVertex
100
AcDbPolygonMeshVertex
 10
73.73059896016994
 20
120.0965517538902
 30
0.0
 70
    64
  0
VERTEX
  5
47E
330
3B4
100
AcDbEntity
  8
BASE
  6
Continuous
100
AcDbVertex
100
AcDbPolygonMeshVertex
 10
73.75
 20
120.110153284767
 30
0.0
 70
    64
  0
SEQEND
  5
47F
330
3B4
100
AcDbEntity
  8
BASE
  6
Continuous
  0
POLYLINE
  5
480
330
1E
100
AcDbEntity
  8
BASE
  6
Continuous
100
AcDbPolygonMesh
 66
     1
 10
0.0
 20
0.0
 30
0.0
 70
    16
 71
     2
 72
   101
  0
VERTEX
  5
481
330
480
100
AcDbEntity
  8
BASE
  6
Continuous
100
AcDbVertex
100
AcDbPolygonMeshVertex
 10
75.5598960169946
 20
118.7500001970903
 30
0.0
 70
    64
  0
VERTEX
  5
482
330
480
100
AcDbEntity
  8
BASE
  6
Continuous
100
AcDbVertex
100
AcDbPolygonMeshVertex
 10
75.57929705682463
 20
118.7365288810435
 30
0.0
 70
    64
  0
VERTEX
  5
483
330
480
100
AcDbEntity
  8
BASE
  6
Continuous
100
AcDbVertex
100
AcDbPolygonMeshVertex
 10
75.59869809665468
 20
118.7230575649967
 30
0.0
 70
    64
  0
VERTEX
  5
484
330
480
100
AcDbEntity
  8
BASE
  6
Continuous
100
AcDbVertex
100
AcDbPolygonMeshVertex
 10
75.61809913648477
 20
118.7095862489499
 30
0.0
 70
    64
  0
VERTEX
  5
485
330
480
100
AcDbEntity
  8
BASE
  6
Continuous
100
AcDbVertex
100
AcDbPolygonMeshVertex
 10
75.6375001763148
 20
118.6961149329031
 30
0.0
 70
    64
  0
VERTEX
  5
486
330
480
100
AcDbEntity
  8
BASE
  6
Continuous
100
AcDbVertex
100
AcDbPolygonMeshVertex
 10
75.65690121614489
 20
118.6826436168564
 30
0.0
 70
    64
  0
VERTEX
  5
487
330
480
100
AcDbEntity
  8
BASE
  6
Continuous
100
AcDbVertex
100
AcDbPolygonMeshVertex
 10
75.67630225597494
 20
118.6691723008095
 30
0.0
 70
    64
  0
VERTEX
  5
488
330
480
100
AcDbEntity
  8
BASE
  6
Continuous
100
AcDbVertex
100
AcDbPolygonMeshVertex
 10
75.69570329580497
 20
118.6557009847628
 30
0.0
 70
    64
  0
VERTEX
  5
489
330
480
100
AcDbEntity
  8
BASE
  6
Continuous
100
AcDbVertex
100
AcDbPolygonMeshVertex
 10
75.715104335635
 20
118.642229668716
 30
0.0
 70
    64
  0
VERTEX
  5
48A
330
480
100
AcDbEntity
  8
BASE
  6
Continuous
100
AcDbVertex
100
AcDbPolygonMeshVertex
 10
75.73450537546506
 20
118.6287583526692
 30
0.0
 70
    64
  0
VERTEX
  5
48B
330
480
100
AcDbEntity
  8
BASE
  6
Continuous
100
AcDbVertex
100
AcDbPolygonMeshVertex
 10
75.75390641529515
 20
118.6152870366224
 30
0.0
 70
    64
  0
VERTEX
  5
48C
330
480
100
AcDbEntity
  8
BASE
  6
Continuous
100
AcDbVertex
100
AcDbPolygonMeshVertex
 10
75.77330745512518
 20
118.6018157205756
 30
0.0
 70
    64
  0
VERTEX
  5
48D
330
480
100
AcDbEntity
  8
BASE
  6
Continuous
100
AcDbVertex
100
AcDbPolygonMeshVertex
 10
75.79270849495526
 20
118.5883444045288
 30
0.0
 70
    64
  0
VERTEX
  5
48E
330
480
100
AcDbEntity
  8
BASE
  6
Continuous
100
AcDbVertex
100
AcDbPolygonMeshVertex
 10
75.81210953478532
 20
118.574873088482
 30
0.0
 70
    64
  0
VERTEX
  5
48F
330
480
100
AcDbEntity
  8
BASE
  6
Continuous
100
AcDbVertex
100
AcDbPolygonMeshVertex
 10
75.83151057461535
 20
118.5614017724353
 30
0.0
 70
    64
  0
VERTEX
  5
490
330
480
100
AcDbEntity
  8
BASE
  6
Continuous
100
AcDbVertex
100
AcDbPolygonMeshVertex
 10
75.85091161444537
 20
118.5479304563884
 30
0.0
 70
    64
  0
VERTEX
  5
491
330
480
100
AcDbEntity
  8
BASE
  6
Continuous
100
AcDbVertex
100
AcDbPolygonMeshVertex
 10
75.87031265427544
 20
118.5344591403417
 30
0.0
 70
    64
  0
VERTEX
  5
492
330
480
100
AcDbEntity
  8
BASE
  6
Continuous
100
AcDbVertex
100
AcDbPolygonMeshVertex
 10
75.88971369410552
 20
118.5209878242949
 30
0.0
 70
    64
  0
VERTEX
  5
493
330
480
100
AcDbEntity
  8
BASE
  6
Continuous
100
AcDbVertex
100
AcDbPolygonMeshVertex
 10
75.90911473393555
 20
118.5075165082481
 30
0.0
 70
    64
  0
VERTEX
  5
494
330
480
100
AcDbEntity
  8
BASE
  6
Continuous
100
AcDbVertex
100
AcDbPolygonMeshVertex
 10
75.92851577376563
 20
118.4940451922013
 30
0.0
 70
    64
  0
VERTEX
  5
495
330
480
100
AcDbEntity
  8
BASE
  6
Continuous
100
AcDbVertex
100
AcDbPolygonMeshVertex
 10
75.9479168135957
 20
118.4805738761545
 30
0.0
 70
    64
  0
VERTEX
  5
496
330
480
100
AcDbEntity
  8
BASE
  6
Continuous
100
AcDbVertex
100
AcDbPolygonMeshVertex
 10
75.96731785342573
 20
118.4671025601077
 30
0.0
 70
    64
  0
VERTEX
  5
497
330
480
100
AcDbEntity
  8
BASE
  6
Continuous
100
AcDbVertex
100
AcDbPolygonMeshVertex
 10
75.98671889325576
 20
118.453631244061
 30
0.0
 70
    64
  0
VERTEX
  5
498
330
480
100
AcDbEntity
  8
BASE
  6
Continuous
100
AcDbVertex
100
AcDbPolygonMeshVertex
 10
76.00611993308587
 20
118.4401599280142
 30
0.0
 70
    64
  0
VERTEX
  5
499
330
480
100
AcDbEntity
  8
BASE
  6
Continuous
100
AcDbVertex
100
AcDbPolygonMeshVertex
 10
76.0255209729159
 20
118.4266886119673
 30
0.0
 70
    64
  0
VERTEX
  5
49A
330
480
100
AcDbEntity
  8
BASE
  6
Continuous
100
AcDbVertex
100
AcDbPolygonMeshVertex
 10
76.04492201274593
 20
118.4132172959206
 30
0.0
 70
    64
  0
VERTEX
  5
49B
330
480
100
AcDbEntity
  8
BASE
  6
Continuous
100
AcDbVertex
100
AcDbPolygonMeshVertex
 10
76.06432305257602
 20
118.3997459798738
 30
0.0
 70
    64
  0
VERTEX
  5
49C
330
480
100
AcDbEntity
  8
BASE
  6
Continuous
100
AcDbVertex
100
AcDbPolygonMeshVertex
 10
76.08372409240607
 20
118.386274663827
 30
0.0
 70
    64
  0
VERTEX
  5
49D
330
480
100
AcDbEntity
  8
BASE
  6
Continuous
100
AcDbVertex
100
AcDbPolygonMeshVertex
 10
76.1031251322361
 20
118.3728033477802
 30
0.0
 70
    64
  0
VERTEX
  5
49E
330
480
100
AcDbEntity
  8
BASE
  6
Continuous
100
AcDbVertex
100
AcDbPolygonMeshVertex
 10
76.12252617206616
 20
118.3593320317334
 30
0.0
 70
    64
  0
VERTEX
  5
49F
330
480
100
AcDbEntity
  8
BASE
  6
Continuous
100
AcDbVertex
100
AcDbPolygonMeshVertex
 10
76.14192721189624
 20
118.3458607156866
 30
0.0
 70
    64
  0
VERTEX
  5
4A0
330
480
100
AcDbEntity
  8
BASE
  6
Continuous
100
AcDbVertex
100
AcDbPolygonMeshVertex
 10
76.16132825172627
 20
118.3323893996399
 30
0.0
 70
    64
  0
VERTEX
  5
4A1
330
480
100
AcDbEntity
  8
BASE
  6
Continuous
100
AcDbVertex
100
AcDbPolygonMeshVertex
 10
76.1807292915563
 20
118.318918083593
 30
0.0
 70
    64
  0
VERTEX
  5
4A2
330
480
100
AcDbEntity
  8
BASE
  6
Continuous
100
AcDbVertex
100
AcDbPolygonMeshVertex
 10
76.20013033138639
 20
118.3054467675463
 30
0.0
 70
    64
  0
VERTEX
  5
4A3
330
480
100
AcDbEntity
  8
BASE
  6
Continuous
100
AcDbVertex
100
AcDbPolygonMeshVertex
 10
76.21953137121645
 20
118.2919754514995
 30
0.0
 70
    64
  0
VERTEX
  5
4A4
330
480
100
AcDbEntity
  8
BASE
  6
Continuous
100
AcDbVertex
100
AcDbPolygonMeshVertex
 10
76.23893241104648
 20
118.2785041354527
 30
0.0
 70
    64
  0
VERTEX
  5
4A5
330
480
100
AcDbEntity
  8
BASE
  6
Continuous
100
AcDbVertex
100
AcDbPolygonMeshVertex
 10
76.25833345087653
 20
118.2650328194059
 30
0.0
 70
    64
  0
VERTEX
  5
4A6
330
480
100
AcDbEntity
  8
BASE
  6
Continuous
100
AcDbVertex
100
AcDbPolygonMeshVertex
 10
76.27773449070662
 20
118.2515615033591
 30
0.0
 70
    64
  0
VERTEX
  5
4A7
330
480
100
AcDbEntity
  8
BASE
  6
Continuous
100
AcDbVertex
100
AcDbPolygonMeshVertex
 10
76.29713553053665
 20
118.2380901873123
 30
0.0
 70
    64
  0
VERTEX
  5
4A8
330
480
100
AcDbEntity
  8
BASE
  6
Continuous
100
AcDbVertex
100
AcDbPolygonMeshVertex
 10
76.31653657036668
 20
118.2246188712655
 30
0.0
 70
    64
  0
VERTEX
  5
4A9
330
480
100
AcDbEntity
  8
BASE
  6
Continuous
100
AcDbVertex
100
AcDbPolygonMeshVertex
 10
76.33593761019676
 20
118.2111475552187
 30
0.0
 70
    64
  0
VERTEX
  5
4AA
330
480
100
AcDbEntity
  8
BASE
  6
Continuous
100
AcDbVertex
100
AcDbPolygonMeshVertex
 10
76.35533865002682
 20
118.1976762391719
 30
0.0
 70
    64
  0
VERTEX
  5
4AB
330
480
100
AcDbEntity
  8
BASE
  6
Continuous
100
AcDbVertex
100
AcDbPolygonMeshVertex
 10
76.37473968985685
 20
118.1842049231252
 30
0.0
 70
    64
  0
VERTEX
  5
4AC
330
480
100
AcDbEntity
  8
BASE
  6
Continuous
100
AcDbVertex
100
AcDbPolygonMeshVertex
 10
76.39414072968691
 20
118.1707336070784
 30
0.0
 70
    64
  0
VERTEX
  5
4AD
330
480
100
AcDbEntity
  8
BASE
  6
Continuous
100
AcDbVertex
100
AcDbPolygonMeshVertex
 10
76.413541769517
 20
118.1572622910316
 30
0.0
 70
    64
  0
VERTEX
  5
4AE
330
480
100
AcDbEntity
  8
BASE
  6
Continuous
100
AcDbVertex
100
AcDbPolygonMeshVertex
 10
76.43294280934703
 20
118.1437909749848
 30
0.0
 70
    64
  0
VERTEX
  5
4AF
330
480
100
AcDbEntity
  8
BASE
  6
Continuous
100
AcDbVertex
100
AcDbPolygonMeshVertex
 10
76.45234384917706
 20
118.130319658938
 30
0.0
 70
    64
  0
VERTEX
  5
4B0
330
480
100
AcDbEntity
  8
BASE
  6
Continuous
100
AcDbVertex
100
AcDbPolygonMeshVertex
 10
76.47174488900714
 20
118.1168483428912
 30
0.0
 70
    64
  0
VERTEX
  5
4B1
330
480
100
AcDbEntity
  8
BASE
  6
Continuous
100
AcDbVertex
100
AcDbPolygonMeshVertex
 10
76.49114592883719
 20
118.1033770268445
 30
0.0
 70
    64
  0
VERTEX
  5
4B2
330
480
100
AcDbEntity
  8
BASE
  6
Continuous
100
AcDbVertex
100
AcDbPolygonMeshVertex
 10
76.51054696866722
 20
118.0899057107976
 30
0.0
 70
    64
  0
VERTEX
  5
4B3
330
480
100
AcDbEntity
  8
BASE
  6
Continuous
100
AcDbVertex
100
AcDbPolygonMeshVertex
 10
76.52994800849729
 20
118.0764343947509
 30
0.0
 70
    64
  0
VERTEX
  5
4B4
330
480
100
AcDbEntity
  8
BASE
  6
Continuous
100
AcDbVertex
100
AcDbPolygonMeshVertex
 10
76.54934904832737
 20
118.0629630787041
 30
0.0
 70
    64
  0
VERTEX
  5
4B5
330
480
100
AcDbEntity
  8
BASE
  6
Continuous
100
AcDbVertex
100
AcDbPolygonMeshVertex
 10
76.5687500881574
 20
118.0494917626573
 30
0.0
 70
    64
  0
VERTEX
  5
4B6
330
480
100
AcDbEntity
  8
BASE
  6
Continuous
100
AcDbVertex
100
AcDbPolygonMeshVertex
 10
76.58815112798743
 20
118.0360204466105
 30
0.0
 70
    64
  0
VERTEX
  5
4B7
330
480
100
AcDbEntity
  8
BASE
  6
Continuous
100
AcDbVertex
100
AcDbPolygonMeshVertex
 10
76.60755216781755
 20
118.0225491305637
 30
0.0
 70
    64
  0
VERTEX
  5
4B8
330
480
100
AcDbEntity
  8
BASE
  6
Continuous
100
AcDbVertex
100
AcDbPolygonMeshVertex
 10
76.62695320764758
 20
118.0090778145169
 30
0.0
 70
    64
  0
VERTEX
  5
4B9
330
480
100
AcDbEntity
  8
BASE
  6
Continuous
100
AcDbVertex
100
AcDbPolygonMeshVertex
 10
76.64635424747761
 20
117.9956064984701
 30
0.0
 70
    64
  0
VERTEX
  5
4BA
330
480
100
AcDbEntity
  8
BASE
  6
Continuous
100
AcDbVertex
100
AcDbPolygonMeshVertex
 10
76.66575528730766
 20
117.9821351824233
 30
0.0
 70
    64
  0
VERTEX
  5
4BB
330
480
100
AcDbEntity
  8
BASE
  6
Continuous
100
AcDbVertex
100
AcDbPolygonMeshVertex
 10
76.68515632713774
 20
117.9686638663765
 30
0.0
 70
    64
  0
VERTEX
  5
4BC
330
480
100
AcDbEntity
  8
BASE
  6
Continuous
100
AcDbVertex
100
AcDbPolygonMeshVertex
 10
76.70455736696777
 20
117.9551925503298
 30
0.0
 70
    64
  0
VERTEX
  5
4BD
330
480
100
AcDbEntity
  8
BASE
  6
Continuous
100
AcDbVertex
100
AcDbPolygonMeshVertex
 10
76.72395840679786
 20
117.941721234283
 30
0.0
 70
    64
  0
VERTEX
  5
4BE
330
480
100
AcDbEntity
  8
BASE
  6
Continuous
100
AcDbVertex
100
AcDbPolygonMeshVertex
 10
76.74335944662792
 20
117.9282499182361
 30
0.0
 70
    64
  0
VERTEX
  5
4BF
330
480
100
AcDbEntity
  8
BASE
  6
Continuous
100
AcDbVertex
100
AcDbPolygonMeshVertex
 10
76.76276048645795
 20
117.9147786021894
 30
0.0
 70
    64
  0
VERTEX
  5
4C0
330
480
100
AcDbEntity
  8
BASE
  6
Continuous
100
AcDbVertex
100
AcDbPolygonMeshVertex
 10
76.78216152628798
 20
117.9013072861426
 30
0.0
 70
    64
  0
VERTEX
  5
4C1
330
480
100
AcDbEntity
  8
BASE
  6
Continuous
100
AcDbVertex
100
AcDbPolygonMeshVertex
 10
76.80156256611804
 20
117.8878359700958
 30
0.0
 70
    64
  0
VERTEX
  5
4C2
330
480
100
AcDbEntity
  8
BASE
  6
Continuous
100
AcDbVertex
100
AcDbPolygonMeshVertex
 10
76.82096360594812
 20
117.8743646540491
 30
0.0
 70
    64
  0
VERTEX
  5
4C3
330
480
100
AcDbEntity
  8
BASE
  6
Continuous
100
AcDbVertex
100
AcDbPolygonMeshVertex
 10
76.84036464577815
 20
117.8608933380022
 30
0.0
 70
    64
  0
VERTEX
  5
4C4
330
480
100
AcDbEntity
  8
BASE
  6
Continuous
100
AcDbVertex
100
AcDbPolygonMeshVertex
 10
76.85976568560824
 20
117.8474220219554
 30
0.0
 70
    64
  0
VERTEX
  5
4C5
330
480
100
AcDbEntity
  8
BASE
  6
Continuous
100
AcDbVertex
100
AcDbPolygonMeshVertex
 10
76.87916672543829
 20
117.8339507059087
 30
0.0
 70
    64
  0
VERTEX
  5
4C6
330
480
100
AcDbEntity
  8
BASE
  6
Continuous
100
AcDbVertex
100
AcDbPolygonMeshVertex
 10
76.89856776526832
 20
117.8204793898619
 30
0.0
 70
    64
  0
VERTEX
  5
4C7
330
480
100
AcDbEntity
  8
BASE
  6
Continuous
100
AcDbVertex
100
AcDbPolygonMeshVertex
 10
76.91796880509835
 20
117.8070080738151
 30
0.0
 70
    64
  0
VERTEX
  5
4C8
330
480
100
AcDbEntity
  8
BASE
  6
Continuous
100
AcDbVertex
100
AcDbPolygonMeshVertex
 10
76.93736984492841
 20
117.7935367577683
 30
0.0
 70
    64
  0
VERTEX
  5
4C9
330
480
100
AcDbEntity
  8
BASE
  6
Continuous
100
AcDbVertex
100
AcDbPolygonMeshVertex
 10
76.9567708847585
 20
117.7800654417215
 30
0.0
 70
    64
  0
VERTEX
  5
4CA
330
480
100
AcDbEntity
  8
BASE
  6
Continuous
100
AcDbVertex
100
AcDbPolygonMeshVertex
 10
76.97617192458853
 20
117.7665941256747
 30
0.0
 70
    64
  0
VERTEX
  5
4CB
330
480
100
AcDbEntity
  8
BASE
  6
Continuous
100
AcDbVertex
100
AcDbPolygonMeshVertex
 10
76.99557296441861
 20
117.7531228096279
 30
0.0
 70
    64
  0
VERTEX
  5
4CC
330
480
100
AcDbEntity
  8
BASE
  6
Continuous
100
AcDbVertex
100
AcDbPolygonMeshVertex
 10
77.01497400424867
 20
117.7396514935811
 30
0.0
 70
    64
  0
VERTEX
  5
4CD
330
480
100
AcDbEntity
  8
BASE
  6
Continuous
100
AcDbVertex
100
AcDbPolygonMeshVertex
 10
77.0343750440787
 20
117.7261801775344
 30
0.0
 70
    64
  0
VERTEX
  5
4CE
330
480
100
AcDbEntity
  8
BASE
  6
Continuous
100
AcDbVertex
100
AcDbPolygonMeshVertex
 10
77.05377608390873
 20
117.7127088614876
 30
0.0
 70
    64
  0
VERTEX
  5
4CF
330
480
100
AcDbEntity
  8
BASE
  6
Continuous
100
AcDbVertex
100
AcDbPolygonMeshVertex
 10
77.07317712373878
 20
117.6992375454407
 30
0.0
 70
    64
  0
VERTEX
  5
4D0
330
480
100
AcDbEntity
  8
BASE
  6
Continuous
100
AcDbVertex
100
AcDbPolygonMeshVertex
 10
77.09257816356887
 20
117.685766229394
 30
0.0
 70
    64
  0
VERTEX
  5
4D1
330
480
100
AcDbEntity
  8
BASE
  6
Continuous
100
AcDbVertex
100
AcDbPolygonMeshVertex
 10
77.1119792033989
 20
117.6722949133472
 30
0.0
 70
    64
  0
VERTEX
  5
4D2
330
480
100
AcDbEntity
  8
BASE
  6
Continuous
100
AcDbVertex
100
AcDbPolygonMeshVertex
 10
77.13138024322899
 20
117.6588235973004
 30
0.0
 70
    64
  0
VERTEX
  5
4D3
330
480
100
AcDbEntity
  8
BASE
  6
Continuous
100
AcDbVertex
100
AcDbPolygonMeshVertex
 10
77.15078128305904
 20
117.6453522812536
 30
0.0
 70
    64
  0
VERTEX
  5
4D4
330
480
100
AcDbEntity
  8
BASE
  6
Continuous
100
AcDbVertex
100
AcDbPolygonMeshVertex
 10
77.17018232288907
 20
117.6318809652068
 30
0.0
 70
    64
  0
VERTEX
  5
4D5
330
480
100
AcDbEntity
  8
BASE
  6
Continuous
100
AcDbVertex
100
AcDbPolygonMeshVertex
 10
77.1895833627191
 20
117.61840964916
 30
0.0
 70
    64
  0
VERTEX
  5
4D6
330
480
100
AcDbEntity
  8
BASE
  6
Continuous
100
AcDbVertex
100
AcDbPolygonMeshVertex
 10
77.20898440254922
 20
117.6049383331132
 30
0.0
 70
    64
  0
VERTEX
  5
4D7
330
480
100
AcDbEntity
  8
BASE
  6
Continuous
100
AcDbVertex
100
AcDbPolygonMeshVertex
 10
77.22838544237925
 20
117.5914670170664
 30
0.0
 70
    64
  0
VERTEX
  5
4D8
330
480
100
AcDbEntity
  8
BASE
  6
Continuous
100
AcDbVertex
100
AcDbPolygonMeshVertex
 10
77.24778648220928
 20
117.5779957010196
 30
0.0
 70
    64
  0
VERTEX
  5
4D9
330
480
100
AcDbEntity
  8
BASE
  6
Continuous
100
AcDbVertex
100
AcDbPolygonMeshVertex
 10
77.26718752203936
 20
117.5645243849729
 30
0.0
 70
    64
  0
VERTEX
  5
4DA
330
480
100
AcDbEntity
  8
BASE
  6
Continuous
100
AcDbVertex
100
AcDbPolygonMeshVertex
 10
77.28658856186942
 20
117.5510530689261
 30
0.0
 70
    64
  0
VERTEX
  5
4DB
330
480
100
AcDbEntity
  8
BASE
  6
Continuous
100
AcDbVertex
100
AcDbPolygonMeshVertex
 10
77.30598960169945
 20
117.5375817528793
 30
0.0
 70
    64
  0
VERTEX
  5
4DC
330
480
100
AcDbEntity
  8
BASE
  6
Continuous
100
AcDbVertex
100
AcDbPolygonMeshVertex
 10
77.32539064152951
 20
117.5241104368325
 30
0.0
 70
    64
  0
VERTEX
  5
4DD
330
480
100
AcDbEntity
  8
BASE
  6
Continuous
100
AcDbVertex
100
AcDbPolygonMeshVertex
 10
77.34479168135959
 20
117.5106391207857
 30
0.0
 70
    64
  0
VERTEX
  5
4DE
330
480
100
AcDbEntity
  8
BASE
  6
Continuous
100
AcDbVertex
100
AcDbPolygonMeshVertex
 10
77.36419272118962
 20
117.4971678047389
 30
0.0
 70
    64
  0
VERTEX
  5
4DF
330
480
100
AcDbEntity
  8
BASE
  6
Continuous
100
AcDbVertex
100
AcDbPolygonMeshVertex
 10
77.38359376101965
 20
117.4836964886922
 30
0.0
 70
    64
  0
VERTEX
  5
4E0
330
480
100
AcDbEntity
  8
BASE
  6
Continuous
100
AcDbVertex
100
AcDbPolygonMeshVertex
 10
77.40299480084974
 20
117.4702251726453
 30
0.0
 70
    64
  0
VERTEX
  5
4E1
330
480
100
AcDbEntity
  8
BASE
  6
Continuous
100
AcDbVertex
100
AcDbPolygonMeshVertex
 10
77.4223958406798
 20
117.4567538565986
 30
0.0
 70
    64
  0
VERTEX
  5
4E2
330
480
100
AcDbEntity
  8
BASE
  6
Continuous
100
AcDbVertex
100
AcDbPolygonMeshVertex
 10
77.44179688050983
 20
117.4432825405518
 30
0.0
 70
    64
  0
VERTEX
  5
4E3
330
480
100
AcDbEntity
  8
BASE
  6
Continuous
100
AcDbVertex
100
AcDbPolygonMeshVertex
 10
77.46119792033988
 20
117.429811224505
 30
0.0
 70
    64
  0
VERTEX
  5
4E4
330
480
100
AcDbEntity
  8
BASE
  6
Continuous
100
AcDbVertex
100
AcDbPolygonMeshVertex
 10
77.48059896016997
 20
117.4163399084582
 30
0.0
 70
    64
  0
VERTEX
  5
4E5
330
480
100
AcDbEntity
  8
BASE
  6
Continuous
100
AcDbVertex
100
AcDbPolygonMeshVertex
 10
77.5
 20
117.4028685924114
 30
0.0
 70
    64
  0
VERTEX
  5
4E6
330
480
100
AcDbEntity
  8
BASE
  6
Continuous
100
AcDbVertex
100
AcDbPolygonMeshVertex
 10
75.5598960169946
 20
118.7500001970903
 30
0.0
 70
    64
  0
VERTEX
  5
4E7
330
480
100
AcDbEntity
  8
BASE
  6
Continuous
100
AcDbVertex
100
AcDbPolygonMeshVertex
 10
75.57929705682463
 20
118.7636017279671
 30
0.0
 70
    64
  0
VERTEX
  5
4E8
330
480
100
AcDbEntity
  8
BASE
  6
Continuous
100
AcDbVertex
100
AcDbPolygonMeshVertex
 10
75.59869809665468
 20
118.7772032588438
 30
0.0
 70
    64
  0
VERTEX
  5
4E9
330
480
100
AcDbEntity
  8
BASE
  6
Continuous
100
AcDbVertex
100
AcDbPolygonMeshVertex
 10
75.61809913648477
 20
118.7908047897206
 30
0.0
 70
    64
  0
VERTEX
  5
4EA
330
480
100
AcDbEntity
  8
BASE
  6
Continuous
100
AcDbVertex
100
AcDbPolygonMeshVertex
 10
75.6375001763148
 20
118.8044063205973
 30
0.0
 70
    64
  0
VERTEX
  5
4EB
330
480
100
AcDbEntity
  8
BASE
  6
Continuous
100
AcDbVertex
100
AcDbPolygonMeshVertex
 10
75.65690121614489
 20
118.8180078514742
 30
0.0
 70
    64
  0
VERTEX
  5
4EC
330
480
100
AcDbEntity
  8
BASE
  6
Continuous
100
AcDbVertex
100
AcDbPolygonMeshVertex
 10
75.67630225597494
 20
118.8316093823509
 30
0.0
 70
    64
  0
VERTEX
  5
4ED
330
480
100
AcDbEntity
  8
BASE
  6
Continuous
100
AcDbVertex
100
AcDbPolygonMeshVertex
 10
75.69570329580497
 20
118.8452109132277
 30
0.0
 70
    64
  0
VERTEX
  5
4EE
330
480
100
AcDbEntity
  8
BASE
  6
Continuous
100
AcDbVertex
100
AcDbPolygonMeshVertex
 10
75.715104335635
 20
118.8588124441045
 30
0.0
 70
    64
  0
VERTEX
  5
4EF
330
480
100
AcDbEntity
  8
BASE
  6
Continuous
100
AcDbVertex
100
AcDbPolygonMeshVertex
 10
75.73450537546506
 20
118.8724139749812
 30
0.0
 70
    64
  0
VERTEX
  5
4F0
330
480
100
AcDbEntity
  8
BASE
  6
Continuous
100
AcDbVertex
100
AcDbPolygonMeshVertex
 10
75.75390641529515
 20
118.886015505858
 30
0.0
 70
    64
  0
VERTEX
  5
4F1
330
480
100
AcDbEntity
  8
BASE
  6
Continuous
100
AcDbVertex
100
AcDbPolygonMeshVertex
 10
75.77330745512518
 20
118.8996170367348
 30
0.0
 70
    64
  0
VERTEX
  5
4F2
330
480
100
AcDbEntity
  8
BASE
  6
Continuous
100
AcDbVertex
100
AcDbPolygonMeshVertex
 10
75.79270849495526
 20
118.9132185676115
 30
0.0
 70
    64
  0
VERTEX
  5
4F3
330
480
100
AcDbEntity
  8
BASE
  6
Continuous
100
AcDbVertex
100
AcDbPolygonMeshVertex
 10
75.81210953478532
 20
118.9268200984883
 30
0.0
 70
    64
  0
VERTEX
  5
4F4
330
480
100
AcDbEntity
  8
BASE
  6
Continuous
100
AcDbVertex
100
AcDbPolygonMeshVertex
 10
75.83151057461535
 20
118.9404216293651
 30
0.0
 70
    64
  0
VERTEX
  5
4F5
330
480
100
AcDbEntity
  8
BASE
  6
Continuous
100
AcDbVertex
100
AcDbPolygonMeshVertex
 10
75.85091161444537
 20
118.9540231602418
 30
0.0
 70
    64
  0
VERTEX
  5
4F6
330
480
100
AcDbEntity
  8
BASE
  6
Continuous
100
AcDbVertex
100
AcDbPolygonMeshVertex
 10
75.87031265427549
 20
118.9676246911186
 30
0.0
 70
    64
  0
VERTEX
  5
4F7
330
480
100
AcDbEntity
  8
BASE
  6
Continuous
100
AcDbVertex
100
AcDbPolygonMeshVertex
 10
75.88971369410552
 20
118.9812262219953
 30
0.0
 70
    64
  0
VERTEX
  5
4F8
330
480
100
AcDbEntity
  8
BASE
  6
Continuous
100
AcDbVertex
100
AcDbPolygonMeshVertex
 10
75.90911473393555
 20
118.9948277528721
 30
0.0
 70
    64
  0
VERTEX
  5
4F9
330
480
100
AcDbEntity
  8
BASE
  6
Continuous
100
AcDbVertex
100
AcDbPolygonMeshVertex
 10
75.92851577376563
 20
119.0084292837489
 30
0.0
 70
    64
  0
VERTEX
  5
4FA
330
480
100
AcDbEntity
  8
BASE
  6
Continuous
100
AcDbVertex
100
AcDbPolygonMeshVertex
 10
75.9479168135957
 20
119.0220308146256
 30
0.0
 70
    64
  0
VERTEX
  5
4FB
330
480
100
AcDbEntity
  8
BASE
  6
Continuous
100
AcDbVertex
100
AcDbPolygonMeshVertex
 10
75.96731785342573
 20
119.0356323455024
 30
0.0
 70
    64
  0
VERTEX
  5
4FC
330
480
100
AcDbEntity
  8
BASE
  6
Continuous
100
AcDbVertex
100
AcDbPolygonMeshVertex
 10
75.98671889325578
 20
119.0492338763792
 30
0.0
 70
    64
  0
VERTEX
  5
4FD
330
480
100
AcDbEntity
  8
BASE
  6
Continuous
100
AcDbVertex
100
AcDbPolygonMeshVertex
 10
76.00611993308587
 20
119.0628354072559
 30
0.0
 70
    64
  0
VERTEX
  5
4FE
330
480
100
AcDbEntity
  8
BASE
  6
Continuous
100
AcDbVertex
100
AcDbPolygonMeshVertex
 10
76.0255209729159
 20
119.0764369381327
 30
0.0
 70
    64
  0
VERTEX
  5
4FF
330
480
100
AcDbEntity
  8
BASE
  6
Continuous
100
AcDbVertex
100
AcDbPolygonMeshVertex
 10
76.04492201274593
 20
119.0900384690095
 30
0.0
 70
    64
  0
VERTEX
  5
500
330
480
100
AcDbEntity
  8
BASE
  6
Continuous
100
AcDbVertex
100
AcDbPolygonMeshVertex
 10
76.06432305257602
 20
119.1036399998862
 30
0.0
 70
    64
  0
VERTEX
  5
501
330
480
100
AcDbEntity
  8
BASE
  6
Continuous
100
AcDbVertex
100
AcDbPolygonMeshVertex
 10
76.08372409240607
 20
119.117241530763
 30
0.0
 70
    64
  0
VERTEX
  5
502
330
480
100
AcDbEntity
  8
BASE
  6
Continuous
100
AcDbVertex
100
AcDbPolygonMeshVertex
 10
76.1031251322361
 20
119.1308430616398
 30
0.0
 70
    64
  0
VERTEX
  5
503
330
480
100
AcDbEntity
  8
BASE
  6
Continuous
100
AcDbVertex
100
AcDbPolygonMeshVertex
 10
76.12252617206616
 20
119.1444445925166
 30
0.0
 70
    64
  0
VERTEX
  5
504
330
480
100
AcDbEntity
  8
BASE
  6
Continuous
100
AcDbVertex
100
AcDbPolygonMeshVertex
 10
76.14192721189624
 20
119.1580461233933
 30
0.0
 70
    64
  0
VERTEX
  5
505
330
480
100
AcDbEntity
  8
BASE
  6
Continuous
100
AcDbVertex
100
AcDbPolygonMeshVertex
 10
76.16132825172627
 20
119.1716476542701
 30
0.0
 70
    64
  0
VERTEX
  5
506
330
480
100
AcDbEntity
  8
BASE
  6
Continuous
100
AcDbVertex
100
AcDbPolygonMeshVertex
 10
76.1807292915563
 20
119.1852491851469
 30
0.0
 70
    64
  0
VERTEX
  5
507
330
480
100
AcDbEntity
  8
BASE
  6
Continuous
100
AcDbVertex
100
AcDbPolygonMeshVertex
 10
76.20013033138639
 20
119.1988507160236
 30
0.0
 70
    64
  0
VERTEX
  5
508
330
480
100
AcDbEntity
  8
BASE
  6
Continuous
100
AcDbVertex
100
AcDbPolygonMeshVertex
 10
76.21953137121645
 20
119.2124522469004
 30
0.0
 70
    64
  0
VERTEX
  5
509
330
480
100
AcDbEntity
  8
BASE
  6
Continuous
100
AcDbVertex
100
AcDbPolygonMeshVertex
 10
76.23893241104648
 20
119.2260537777771
 30
0.0
 70
    64
  0
VERTEX
  5
50A
330
480
100
AcDbEntity
  8
BASE
  6
Continuous
100
AcDbVertex
100
AcDbPolygonMeshVertex
 10
76.25833345087653
 20
119.2396553086539
 30
0.0
 70
    64
  0
VERTEX
  5
50B
330
480
100
AcDbEntity
  8
BASE
  6
Continuous
100
AcDbVertex
100
AcDbPolygonMeshVertex
 10
76.27773449070662
 20
119.2532568395307
 30
0.0
 70
    64
  0
VERTEX
  5
50C
330
480
100
AcDbEntity
  8
BASE
  6
Continuous
100
AcDbVertex
100
AcDbPolygonMeshVertex
 10
76.29713553053665
 20
119.2668583704074
 30
0.0
 70
    64
  0
VERTEX
  5
50D
330
480
100
AcDbEntity
  8
BASE
  6
Continuous
100
AcDbVertex
100
AcDbPolygonMeshVertex
 10
76.31653657036668
 20
119.2804599012842
 30
0.0
 70
    64
  0
VERTEX
  5
50E
330
480
100
AcDbEntity
  8
BASE
  6
Continuous
100
AcDbVertex
100
AcDbPolygonMeshVertex
 10
76.33593761019676
 20
119.294061432161
 30
0.0
 70
    64
  0
VERTEX
  5
50F
330
480
100
AcDbEntity
  8
BASE
  6
Continuous
100
AcDbVertex
100
AcDbPolygonMeshVertex
 10
76.35533865002682
 20
119.3076629630377
 30
0.0
 70
    64
  0
VERTEX
  5
510
330
480
100
AcDbEntity
  8
BASE
  6
Continuous
100
AcDbVertex
100
AcDbPolygonMeshVertex
 10
76.37473968985685
 20
119.3212644939145
 30
0.0
 70
    64
  0
VERTEX
  5
511
330
480
100
AcDbEntity
  8
BASE
  6
Continuous
100
AcDbVertex
100
AcDbPolygonMeshVertex
 10
76.39414072968691
 20
119.3348660247913
 30
0.0
 70
    64
  0
VERTEX
  5
512
330
480
100
AcDbEntity
  8
BASE
  6
Continuous
100
AcDbVertex
100
AcDbPolygonMeshVertex
 10
76.413541769517
 20
119.3484675556681
 30
0.0
 70
    64
  0
VERTEX
  5
513
330
480
100
AcDbEntity
  8
BASE
  6
Continuous
100
AcDbVertex
100
AcDbPolygonMeshVertex
 10
76.43294280934703
 20
119.3620690865448
 30
0.0
 70
    64
  0
VERTEX
  5
514
330
480
100
AcDbEntity
  8
BASE
  6
Continuous
100
AcDbVertex
100
AcDbPolygonMeshVertex
 10
76.45234384917706
 20
119.3756706174216
 30
0.0
 70
    64
  0
VERTEX
  5
515
330
480
100
AcDbEntity
  8
BASE
  6
Continuous
100
AcDbVertex
100
AcDbPolygonMeshVertex
 10
76.47174488900716
 20
119.3892721482983
 30
0.0
 70
    64
  0
VERTEX
  5
516
330
480
100
AcDbEntity
  8
BASE
  6
Continuous
100
AcDbVertex
100
AcDbPolygonMeshVertex
 10
76.49114592883719
 20
119.4028736791751
 30
0.0
 70
    64
  0
VERTEX
  5
517
330
480
100
AcDbEntity
  8
BASE
  6
Continuous
100
AcDbVertex
100
AcDbPolygonMeshVertex
 10
76.51054696866722
 20
119.4164752100519
 30
0.0
 70
    64
  0
VERTEX
  5
518
330
480
100
AcDbEntity
  8
BASE
  6
Continuous
100
AcDbVertex
100
AcDbPolygonMeshVertex
 10
76.52994800849729
 20
119.4300767409286
 30
0.0
 70
    64
  0
VERTEX
  5
519
330
480
100
AcDbEntity
  8
BASE
  6
Continuous
100
AcDbVertex
100
AcDbPolygonMeshVertex
 10
76.54934904832737
 20
119.4436782718054
 30
0.0
 70
    64
  0
VERTEX
  5
51A
330
480
100
AcDbEntity
  8
BASE
  6
Continuous
100
AcDbVertex
100
AcDbPolygonMeshVertex
 10
76.5687500881574
 20
119.4572798026822
 30
0.0
 70
    64
  0
VERTEX
  5
51B
330
480
100
AcDbEntity
  8
BASE
  6
Continuous
100
AcDbVertex
100
AcDbPolygonMeshVertex
 10
76.58815112798743
 20
119.4708813335589
 30
0.0
 70
    64
  0
VERTEX
  5
51C
330
480
100
AcDbEntity
  8
BASE
  6
Continuous
100
AcDbVertex
100
AcDbPolygonMeshVertex
 10
76.60755216781755
 20
119.4844828644358
 30
0.0
 70
    64
  0
VERTEX
  5
51D
330
480
100
AcDbEntity
  8
BASE
  6
Continuous
100
AcDbVertex
100
AcDbPolygonMeshVertex
 10
76.62695320764758
 20
119.4980843953125
 30
0.0
 70
    64
  0
VERTEX
  5
51E
330
480
100
AcDbEntity
  8
BASE
  6
Continuous
100
AcDbVertex
100
AcDbPolygonMeshVertex
 10
76.64635424747761
 20
119.5116859261893
 30
0.0
 70
    64
  0
VERTEX
  5
51F
330
480
100
AcDbEntity
  8
BASE
  6
Continuous
100
AcDbVertex
100
AcDbPolygonMeshVertex
 10
76.66575528730766
 20
119.525287457066
 30
0.0
 70
    64
  0
VERTEX
  5
520
330
480
100
AcDbEntity
  8
BASE
  6
Continuous
100
AcDbVertex
100
AcDbPolygonMeshVertex
 10
76.68515632713774
 20
119.5388889879428
 30
0.0
 70
    64
  0
VERTEX
  5
521
330
480
100
AcDbEntity
  8
BASE
  6
Continuous
100
AcDbVertex
100
AcDbPolygonMeshVertex
 10
76.70455736696777
 20
119.5524905188196
 30
0.0
 70
    64
  0
VERTEX
  5
522
330
480
100
AcDbEntity
  8
BASE
  6
Continuous
100
AcDbVertex
100
AcDbPolygonMeshVertex
 10
76.72395840679786
 20
119.5660920496964
 30
0.0
 70
    64
  0
VERTEX
  5
523
330
480
100
AcDbEntity
  8
BASE
  6
Continuous
100
AcDbVertex
100
AcDbPolygonMeshVertex
 10
76.74335944662792
 20
119.5796935805731
 30
0.0
 70
    64
  0
VERTEX
  5
524
330
480
100
AcDbEntity
  8
BASE
  6
Continuous
100
AcDbVertex
100
AcDbPolygonMeshVertex
 10
76.76276048645795
 20
119.5932951114499
 30
0.0
 70
    64
  0
VERTEX
  5
525
330
480
100
AcDbEntity
  8
BASE
  6
Continuous
100
AcDbVertex
100
AcDbPolygonMeshVertex
 10
76.78216152628798
 20
119.6068966423266
 30
0.0
 70
    64
  0
VERTEX
  5
526
330
480
100
AcDbEntity
  8
BASE
  6
Continuous
100
AcDbVertex
100
AcDbPolygonMeshVertex
 10
76.80156256611804
 20
119.6204981732034
 30
0.0
 70
    64
  0
VERTEX
  5
527
330
480
100
AcDbEntity
  8
BASE
  6
Continuous
100
AcDbVertex
100
AcDbPolygonMeshVertex
 10
76.82096360594812
 20
119.6340997040802
 30
0.0
 70
    64
  0
VERTEX
  5
528
330
480
100
AcDbEntity
  8
BASE
  6
Continuous
100
AcDbVertex
100
AcDbPolygonMeshVertex
 10
76.84036464577815
 20
119.6477012349569
 30
0.0
 70
    64
  0
VERTEX
  5
529
330
480
100
AcDbEntity
  8
BASE
  6
Continuous
100
AcDbVertex
100
AcDbPolygonMeshVertex
 10
76.85976568560824
 20
119.6613027658337
 30
0.0
 70
    64
  0
VERTEX
  5
52A
330
480
100
AcDbEntity
  8
BASE
  6
Continuous
100
AcDbVertex
100
AcDbPolygonMeshVertex
 10
76.87916672543829
 20
119.6749042967105
 30
0.0
 70
    64
  0
VERTEX
  5
52B
330
480
100
AcDbEntity
  8
BASE
  6
Continuous
100
AcDbVertex
100
AcDbPolygonMeshVertex
 10
76.89856776526832
 20
119.6885058275872
 30
0.0
 70
    64
  0
VERTEX
  5
52C
330
480
100
AcDbEntity
  8
BASE
  6
Continuous
100
AcDbVertex
100
AcDbPolygonMeshVertex
 10
76.91796880509835
 20
119.702107358464
 30
0.0
 70
    64
  0
VERTEX
  5
52D
330
480
100
AcDbEntity
  8
BASE
  6
Continuous
100
AcDbVertex
100
AcDbPolygonMeshVertex
 10
76.93736984492841
 20
119.7157088893408
 30
0.0
 70
    64
  0
VERTEX
  5
52E
330
480
100
AcDbEntity
  8
BASE
  6
Continuous
100
AcDbVertex
100
AcDbPolygonMeshVertex
 10
76.9567708847585
 20
119.7293104202175
 30
0.0
 70
    64
  0
VERTEX
  5
52F
330
480
100
AcDbEntity
  8
BASE
  6
Continuous
100
AcDbVertex
100
AcDbPolygonMeshVertex
 10
76.97617192458853
 20
119.7429119510943
 30
0.0
 70
    64
  0
VERTEX
  5
530
330
480
100
AcDbEntity
  8
BASE
  6
Continuous
100
AcDbVertex
100
AcDbPolygonMeshVertex
 10
76.99557296441861
 20
119.7565134819711
 30
0.0
 70
    64
  0
VERTEX
  5
531
330
480
100
AcDbEntity
  8
BASE
  6
Continuous
100
AcDbVertex
100
AcDbPolygonMeshVertex
 10
77.01497400424867
 20
119.7701150128478
 30
0.0
 70
    64
  0
VERTEX
  5
532
330
480
100
AcDbEntity
  8
BASE
  6
Continuous
100
AcDbVertex
100
AcDbPolygonMeshVertex
 10
77.0343750440787
 20
119.7837165437246
 30
0.0
 70
    64
  0
VERTEX
  5
533
330
480
100
AcDbEntity
  8
BASE
  6
Continuous
100
AcDbVertex
100
AcDbPolygonMeshVertex
 10
77.05377608390873
 20
119.7973180746014
 30
0.0
 70
    64
  0
VERTEX
  5
534
330
480
100
AcDbEntity
  8
BASE
  6
Continuous
100
AcDbVertex
100
AcDbPolygonMeshVertex
 10
77.07317712373878
 20
119.8109196054782
 30
0.0
 70
    64
  0
VERTEX
  5
535
330
480
100
AcDbEntity
  8
BASE
  6
Continuous
100
AcDbVertex
100
AcDbPolygonMeshVertex
 10
77.09257816356887
 20
119.8245211363549
 30
0.0
 70
    64
  0
VERTEX
  5
536
330
480
100
AcDbEntity
  8
BASE
  6
Continuous
100
AcDbVertex
100
AcDbPolygonMeshVertex
 10
77.1119792033989
 20
119.8381226672317
 30
0.0
 70
    64
  0
VERTEX
  5
537
330
480
100
AcDbEntity
  8
BASE
  6
Continuous
100
AcDbVertex
100
AcDbPolygonMeshVertex
 10
77.13138024322899
 20
119.8517241981084
 30
0.0
 70
    64
  0
VERTEX
  5
538
330
480
100
AcDbEntity
  8
BASE
  6
Continuous
100
AcDbVertex
100
AcDbPolygonMeshVertex
 10
77.15078128305904
 20
119.8653257289852
 30
0.0
 70
    64
  0
VERTEX
  5
539
330
480
100
AcDbEntity
  8
BASE
  6
Continuous
100
AcDbVertex
100
AcDbPolygonMeshVertex
 10
77.17018232288907
 20
119.878927259862
 30
0.0
 70
    64
  0
VERTEX
  5
53A
330
480
100
AcDbEntity
  8
BASE
  6
Continuous
100
AcDbVertex
100
AcDbPolygonMeshVertex
 10
77.1895833627191
 20
119.8925287907387
 30
0.0
 70
    64
  0
VERTEX
  5
53B
330
480
100
AcDbEntity
  8
BASE
  6
Continuous
100
AcDbVertex
100
AcDbPolygonMeshVertex
 10
77.20898440254922
 20
119.9061303216155
 30
0.0
 70
    64
  0
VERTEX
  5
53C
330
480
100
AcDbEntity
  8
BASE
  6
Continuous
100
AcDbVertex
100
AcDbPolygonMeshVertex
 10
77.22838544237925
 20
119.9197318524923
 30
0.0
 70
    64
  0
VERTEX
  5
53D
330
480
100
AcDbEntity
  8
BASE
  6
Continuous
100
AcDbVertex
100
AcDbPolygonMeshVertex
 10
77.24778648220928
 20
119.933333383369
 30
0.0
 70
    64
  0
VERTEX
  5
53E
330
480
100
AcDbEntity
  8
BASE
  6
Continuous
100
AcDbVertex
100
AcDbPolygonMeshVertex
 10
77.26718752203936
 20
119.9469349142458
 30
0.0
 70
    64
  0
VERTEX
  5
53F
330
480
100
AcDbEntity
  8
BASE
  6
Continuous
100
AcDbVertex
100
AcDbPolygonMeshVertex
 10
77.28658856186942
 20
119.9605364451226
 30
0.0
 70
    64
  0
VERTEX
  5
540
330
480
100
AcDbEntity
  8
BASE
  6
Continuous
100
AcDbVertex
100
AcDbPolygonMeshVertex
 10
77.30598960169945
 20
119.9741379759993
 30
0.0
 70
    64
  0
VERTEX
  5
541
330
480
100
AcDbEntity
  8
BASE
  6
Continuous
100
AcDbVertex
100
AcDbPolygonMeshVertex
 10
77.32539064152948
 20
119.9877395068761
 30
0.0
 70
    64
  0
VERTEX
  5
542
330
480
100
AcDbEntity
  8
BASE
  6
Continuous
100
AcDbVertex
100
AcDbPolygonMeshVertex
 10
77.34479168135959
 20
120.0013410377529
 30
0.0
 70
    64
  0
VERTEX
  5
543
330
480
100
AcDbEntity
  8
BASE
  6
Continuous
100
AcDbVertex
100
AcDbPolygonMeshVertex
 10
77.36419272118962
 20
120.0149425686297
 30
0.0
 70
    64
  0
VERTEX
  5
544
330
480
100
AcDbEntity
  8
BASE
  6
Continuous
100
AcDbVertex
100
AcDbPolygonMeshVertex
 10
77.38359376101965
 20
120.0285440995064
 30
0.0
 70
    64
  0
VERTEX
  5
545
330
480
100
AcDbEntity
  8
BASE
  6
Continuous
100
AcDbVertex
100
AcDbPolygonMeshVertex
 10
77.40299480084974
 20
120.0421456303832
 30
0.0
 70
    64
  0
VERTEX
  5
546
330
480
100
AcDbEntity
  8
BASE
  6
Continuous
100
AcDbVertex
100
AcDbPolygonMeshVertex
 10
77.4223958406798
 20
120.0557471612599
 30
0.0
 70
    64
  0
VERTEX
  5
547
330
480
100
AcDbEntity
  8
BASE
  6
Continuous
100
AcDbVertex
100
AcDbPolygonMeshVertex
 10
77.44179688050983
 20
120.0693486921367
 30
0.0
 70
    64
  0
VERTEX
  5
548
330
480
100
AcDbEntity
  8
BASE
  6
Continuous
100
AcDbVertex
100
AcDbPolygonMeshVertex
 10
77.46119792033988
 20
120.0829502230135
 30
0.0
 70
    64
  0
VERTEX
  5
549
330
480
100
AcDbEntity
  8
BASE
  6
Continuous
100
AcDbVertex
100
AcDbPolygonMeshVertex
 10
77.48059896016997
 20
120.0965517538902
 30
0.0
 70
    64
  0
VERTEX
  5
54A
330
480
100
AcDbEntity
  8
BASE
  6
Continuous
100
AcDbVertex
100
AcDbPolygonMeshVertex
 10
77.5
 20
120.110153284767
 30
0.0
 70
    64
  0
SEQEND
  5
54B
330
480
100
AcDbEntity
  8
BASE
  6
Continuous
  0
POLYLINE
  5
54C
330
1E
100
AcDbEntity
  8
BASE
  6
Continuous
100
AcDbPolygonMesh
 66
     1
 10
0.0
 20
0.0
 30
0.0
 70
    16
 71
     2
 72
   101
  0
VERTEX
  5
54D
330
54C
100
AcDbEntity
  8
BASE
  6
Continuous
100
AcDbVertex
100
AcDbPolygonMeshVertex
 10
79.3098960169946
 20
118.7500001970903
 30
0.0
 70
    64
  0
VERTEX
  5
54E
330
54C
100
AcDbEntity
  8
BASE
  6
Continuous
100
AcDbVertex
100
AcDbPolygonMeshVertex
 10
79.32929705682463
 20
118.7365288810435
 30
0.0
 70
    64
  0
VERTEX
  5
54F
330
54C
100
AcDbEntity
  8
BASE
  6
Continuous
100
AcDbVertex
100
AcDbPolygonMeshVertex
 10
79.34869809665468
 20
118.7230575649967
 30
0.0
 70
    64
  0
VERTEX
  5
550
330
54C
100
AcDbEntity
  8
BASE
  6
Continuous
100
AcDbVertex
100
AcDbPolygonMeshVertex
 10
79.36809913648477
 20
118.7095862489499
 30
0.0
 70
    64
  0
VERTEX
  5
551
330
54C
100
AcDbEntity
  8
BASE
  6
Continuous
100
AcDbVertex
100
AcDbPolygonMeshVertex
 10
79.3875001763148
 20
118.6961149329031
 30
0.0
 70
    64
  0
VERTEX
  5
552
330
54C
100
AcDbEntity
  8
BASE
  6
Continuous
100
AcDbVertex
100
AcDbPolygonMeshVertex
 10
79.40690121614489
 20
118.6826436168564
 30
0.0
 70
    64
  0
VERTEX
  5
553
330
54C
100
AcDbEntity
  8
BASE
  6
Continuous
100
AcDbVertex
100
AcDbPolygonMeshVertex
 10
79.42630225597494
 20
118.6691723008095
 30
0.0
 70
    64
  0
VERTEX
  5
554
330
54C
100
AcDbEntity
  8
BASE
  6
Continuous
100
AcDbVertex
100
AcDbPolygonMeshVertex
 10
79.44570329580497
 20
118.6557009847628
 30
0.0
 70
    64
  0
VERTEX
  5
555
330
54C
100
AcDbEntity
  8
BASE
  6
Continuous
100
AcDbVertex
100
AcDbPolygonMeshVertex
 10
79.465104335635
 20
118.642229668716
 30
0.0
 70
    64
  0
VERTEX
  5
556
330
54C
100
AcDbEntity
  8
BASE
  6
Continuous
100
AcDbVertex
100
AcDbPolygonMeshVertex
 10
79.48450537546506
 20
118.6287583526692
 30
0.0
 70
    64
  0
VERTEX
  5
557
330
54C
100
AcDbEntity
  8
BASE
  6
Continuous
100
AcDbVertex
100
AcDbPolygonMeshVertex
 10
79.50390641529515
 20
118.6152870366224
 30
0.0
 70
    64
  0
VERTEX
  5
558
330
54C
100
AcDbEntity
  8
BASE
  6
Continuous
100
AcDbVertex
100
AcDbPolygonMeshVertex
 10
79.52330745512518
 20
118.6018157205756
 30
0.0
 70
    64
  0
VERTEX
  5
559
330
54C
100
AcDbEntity
  8
BASE
  6
Continuous
100
AcDbVertex
100
AcDbPolygonMeshVertex
 10
79.54270849495526
 20
118.5883444045288
 30
0.0
 70
    64
  0
VERTEX
  5
55A
330
54C
100
AcDbEntity
  8
BASE
  6
Continuous
100
AcDbVertex
100
AcDbPolygonMeshVertex
 10
79.56210953478532
 20
118.574873088482
 30
0.0
 70
    64
  0
VERTEX
  5
55B
330
54C
100
AcDbEntity
  8
BASE
  6
Continuous
100
AcDbVertex
100
AcDbPolygonMeshVertex
 10
79.58151057461535
 20
118.5614017724353
 30
0.0
 70
    64
  0
VERTEX
  5
55C
330
54C
100
AcDbEntity
  8
BASE
  6
Continuous
100
AcDbVertex
100
AcDbPolygonMeshVertex
 10
79.60091161444537
 20
118.5479304563884
 30
0.0
 70
    64
  0
VERTEX
  5
55D
330
54C
100
AcDbEntity
  8
BASE
  6
Continuous
100
AcDbVertex
100
AcDbPolygonMeshVertex
 10
79.62031265427544
 20
118.5344591403417
 30
0.0
 70
    64
  0
VERTEX
  5
55E
330
54C
100
AcDbEntity
  8
BASE
  6
Continuous
100
AcDbVertex
100
AcDbPolygonMeshVertex
 10
79.63971369410552
 20
118.5209878242949
 30
0.0
 70
    64
  0
VERTEX
  5
55F
330
54C
100
AcDbEntity
  8
BASE
  6
Continuous
100
AcDbVertex
100
AcDbPolygonMeshVertex
 10
79.65911473393555
 20
118.5075165082481
 30
0.0
 70
    64
  0
VERTEX
  5
560
330
54C
100
AcDbEntity
  8
BASE
  6
Continuous
100
AcDbVertex
100
AcDbPolygonMeshVertex
 10
79.67851577376563
 20
118.4940451922013
 30
0.0
 70
    64
  0
VERTEX
  5
561
330
54C
100
AcDbEntity
  8
BASE
  6
Continuous
100
AcDbVertex
100
AcDbPolygonMeshVertex
 10
79.6979168135957
 20
118.4805738761545
 30
0.0
 70
    64
  0
VERTEX
  5
562
330
54C
100
AcDbEntity
  8
BASE
  6
Continuous
100
AcDbVertex
100
AcDbPolygonMeshVertex
 10
79.71731785342573
 20
118.4671025601077
 30
0.0
 70
    64
  0
VERTEX
  5
563
330
54C
100
AcDbEntity
  8
BASE
  6
Continuous
100
AcDbVertex
100
AcDbPolygonMeshVertex
 10
79.73671889325576
 20
118.453631244061
 30
0.0
 70
    64
  0
VERTEX
  5
564
330
54C
100
AcDbEntity
  8
BASE
  6
Continuous
100
AcDbVertex
100
AcDbPolygonMeshVertex
 10
79.75611993308587
 20
118.4401599280142
 30
0.0
 70
    64
  0
VERTEX
  5
565
330
54C
100
AcDbEntity
  8
BASE
  6
Continuous
100
AcDbVertex
100
AcDbPolygonMeshVertex
 10
79.7755209729159
 20
118.4266886119673
 30
0.0
 70
    64
  0
VERTEX
  5
566
330
54C
100
AcDbEntity
  8
BASE
  6
Continuous
100
AcDbVertex
100
AcDbPolygonMeshVertex
 10
79.79492201274593
 20
118.4132172959206
 30
0.0
 70
    64
  0
VERTEX
  5
567
330
54C
100
AcDbEntity
  8
BASE
  6
Continuous
100
AcDbVertex
100
AcDbPolygonMeshVertex
 10
79.81432305257602
 20
118.3997459798738
 30
0.0
 70
    64
  0
VERTEX
  5
568
330
54C
100
AcDbEntity
  8
BASE
  6
Continuous
100
AcDbVertex
100
AcDbPolygonMeshVertex
 10
79.83372409240607
 20
118.386274663827
 30
0.0
 70
    64
  0
VERTEX
  5
569
330
54C
100
AcDbEntity
  8
BASE
  6
Continuous
100
AcDbVertex
100
AcDbPolygonMeshVertex
 10
79.8531251322361
 20
118.3728033477802
 30
0.0
 70
    64
  0
VERTEX
  5
56A
330
54C
100
AcDbEntity
  8
BASE
  6
Continuous
100
AcDbVertex
100
AcDbPolygonMeshVertex
 10
79.87252617206616
 20
118.3593320317334
 30
0.0
 70
    64
  0
VERTEX
  5
56B
330
54C
100
AcDbEntity
  8
BASE
  6
Continuous
100
AcDbVertex
100
AcDbPolygonMeshVertex
 10
79.89192721189624
 20
118.3458607156866
 30
0.0
 70
    64
  0
VERTEX
  5
56C
330
54C
100
AcDbEntity
  8
BASE
  6
Continuous
100
AcDbVertex
100
AcDbPolygonMeshVertex
 10
79.91132825172627
 20
118.3323893996399
 30
0.0
 70
    64
  0
VERTEX
  5
56D
330
54C
100
AcDbEntity
  8
BASE
  6
Continuous
100
AcDbVertex
100
AcDbPolygonMeshVertex
 10
79.9307292915563
 20
118.318918083593
 30
0.0
 70
    64
  0
VERTEX
  5
56E
330
54C
100
AcDbEntity
  8
BASE
  6
Continuous
100
AcDbVertex
100
AcDbPolygonMeshVertex
 10
79.95013033138639
 20
118.3054467675463
 30
0.0
 70
    64
  0
VERTEX
  5
56F
330
54C
100
AcDbEntity
  8
BASE
  6
Continuous
100
AcDbVertex
100
AcDbPolygonMeshVertex
 10
79.96953137121645
 20
118.2919754514995
 30
0.0
 70
    64
  0
VERTEX
  5
570
330
54C
100
AcDbEntity
  8
BASE
  6
Continuous
100
AcDbVertex
100
AcDbPolygonMeshVertex
 10
79.98893241104648
 20
118.2785041354527
 30
0.0
 70
    64
  0
VERTEX
  5
571
330
54C
100
AcDbEntity
  8
BASE
  6
Continuous
100
AcDbVertex
100
AcDbPolygonMeshVertex
 10
80.00833345087654
 20
118.2650328194059
 30
0.0
 70
    64
  0
VERTEX
  5
572
330
54C
100
AcDbEntity
  8
BASE
  6
Continuous
100
AcDbVertex
100
AcDbPolygonMeshVertex
 10
80.02773449070662
 20
118.2515615033591
 30
0.0
 70
    64
  0
VERTEX
  5
573
330
54C
100
AcDbEntity
  8
BASE
  6
Continuous
100
AcDbVertex
100
AcDbPolygonMeshVertex
 10
80.04713553053665
 20
118.2380901873123
 30
0.0
 70
    64
  0
VERTEX
  5
574
330
54C
100
AcDbEntity
  8
BASE
  6
Continuous
100
AcDbVertex
100
AcDbPolygonMeshVertex
 10
80.06653657036668
 20
118.2246188712655
 30
0.0
 70
    64
  0
VERTEX
  5
575
330
54C
100
AcDbEntity
  8
BASE
  6
Continuous
100
AcDbVertex
100
AcDbPolygonMeshVertex
 10
80.08593761019676
 20
118.2111475552187
 30
0.0
 70
    64
  0
VERTEX
  5
576
330
54C
100
AcDbEntity
  8
BASE
  6
Continuous
100
AcDbVertex
100
AcDbPolygonMeshVertex
 10
80.10533865002683
 20
118.1976762391719
 30
0.0
 70
    64
  0
VERTEX
  5
577
330
54C
100
AcDbEntity
  8
BASE
  6
Continuous
100
AcDbVertex
100
AcDbPolygonMeshVertex
 10
80.12473968985686
 20
118.1842049231252
 30
0.0
 70
    64
  0
VERTEX
  5
578
330
54C
100
AcDbEntity
  8
BASE
  6
Continuous
100
AcDbVertex
100
AcDbPolygonMeshVertex
 10
80.14414072968691
 20
118.1707336070784
 30
0.0
 70
    64
  0
VERTEX
  5
579
330
54C
100
AcDbEntity
  8
BASE
  6
Continuous
100
AcDbVertex
100
AcDbPolygonMeshVertex
 10
80.16354176951699
 20
118.1572622910316
 30
0.0
 70
    64
  0
VERTEX
  5
57A
330
54C
100
AcDbEntity
  8
BASE
  6
Continuous
100
AcDbVertex
100
AcDbPolygonMeshVertex
 10
80.18294280934702
 20
118.1437909749848
 30
0.0
 70
    64
  0
VERTEX
  5
57B
330
54C
100
AcDbEntity
  8
BASE
  6
Continuous
100
AcDbVertex
100
AcDbPolygonMeshVertex
 10
80.20234384917705
 20
118.130319658938
 30
0.0
 70
    64
  0
VERTEX
  5
57C
330
54C
100
AcDbEntity
  8
BASE
  6
Continuous
100
AcDbVertex
100
AcDbPolygonMeshVertex
 10
80.22174488900715
 20
118.1168483428912
 30
0.0
 70
    64
  0
VERTEX
  5
57D
330
54C
100
AcDbEntity
  8
BASE
  6
Continuous
100
AcDbVertex
100
AcDbPolygonMeshVertex
 10
80.24114592883719
 20
118.1033770268445
 30
0.0
 70
    64
  0
VERTEX
  5
57E
330
54C
100
AcDbEntity
  8
BASE
  6
Continuous
100
AcDbVertex
100
AcDbPolygonMeshVertex
 10
80.26054696866722
 20
118.0899057107976
 30
0.0
 70
    64
  0
VERTEX
  5
57F
330
54C
100
AcDbEntity
  8
BASE
  6
Continuous
100
AcDbVertex
100
AcDbPolygonMeshVertex
 10
80.27994800849729
 20
118.0764343947509
 30
0.0
 70
    64
  0
VERTEX
  5
580
330
54C
100
AcDbEntity
  8
BASE
  6
Continuous
100
AcDbVertex
100
AcDbPolygonMeshVertex
 10
80.29934904832737
 20
118.0629630787041
 30
0.0
 70
    64
  0
VERTEX
  5
581
330
54C
100
AcDbEntity
  8
BASE
  6
Continuous
100
AcDbVertex
100
AcDbPolygonMeshVertex
 10
80.3187500881574
 20
118.0494917626573
 30
0.0
 70
    64
  0
VERTEX
  5
582
330
54C
100
AcDbEntity
  8
BASE
  6
Continuous
100
AcDbVertex
100
AcDbPolygonMeshVertex
 10
80.33815112798743
 20
118.0360204466105
 30
0.0
 70
    64
  0
VERTEX
  5
583
330
54C
100
AcDbEntity
  8
BASE
  6
Continuous
100
AcDbVertex
100
AcDbPolygonMeshVertex
 10
80.35755216781755
 20
118.0225491305637
 30
0.0
 70
    64
  0
VERTEX
  5
584
330
54C
100
AcDbEntity
  8
BASE
  6
Continuous
100
AcDbVertex
100
AcDbPolygonMeshVertex
 10
80.37695320764758
 20
118.0090778145169
 30
0.0
 70
    64
  0
VERTEX
  5
585
330
54C
100
AcDbEntity
  8
BASE
  6
Continuous
100
AcDbVertex
100
AcDbPolygonMeshVertex
 10
80.39635424747761
 20
117.9956064984701
 30
0.0
 70
    64
  0
VERTEX
  5
586
330
54C
100
AcDbEntity
  8
BASE
  6
Continuous
100
AcDbVertex
100
AcDbPolygonMeshVertex
 10
80.41575528730765
 20
117.9821351824233
 30
0.0
 70
    64
  0
VERTEX
  5
587
330
54C
100
AcDbEntity
  8
BASE
  6
Continuous
100
AcDbVertex
100
AcDbPolygonMeshVertex
 10
80.43515632713775
 20
117.9686638663765
 30
0.0
 70
    64
  0
VERTEX
  5
588
330
54C
100
AcDbEntity
  8
BASE
  6
Continuous
100
AcDbVertex
100
AcDbPolygonMeshVertex
 10
80.45455736696778
 20
117.9551925503298
 30
0.0
 70
    64
  0
VERTEX
  5
589
330
54C
100
AcDbEntity
  8
BASE
  6
Continuous
100
AcDbVertex
100
AcDbPolygonMeshVertex
 10
80.47395840679786
 20
117.941721234283
 30
0.0
 70
    64
  0
VERTEX
  5
58A
330
54C
100
AcDbEntity
  8
BASE
  6
Continuous
100
AcDbVertex
100
AcDbPolygonMeshVertex
 10
80.49335944662791
 20
117.9282499182361
 30
0.0
 70
    64
  0
VERTEX
  5
58B
330
54C
100
AcDbEntity
  8
BASE
  6
Continuous
100
AcDbVertex
100
AcDbPolygonMeshVertex
 10
80.51276048645794
 20
117.9147786021894
 30
0.0
 70
    64
  0
VERTEX
  5
58C
330
54C
100
AcDbEntity
  8
BASE
  6
Continuous
100
AcDbVertex
100
AcDbPolygonMeshVertex
 10
80.53216152628797
 20
117.9013072861426
 30
0.0
 70
    64
  0
VERTEX
  5
58D
330
54C
100
AcDbEntity
  8
BASE
  6
Continuous
100
AcDbVertex
100
AcDbPolygonMeshVertex
 10
80.55156256611804
 20
117.8878359700958
 30
0.0
 70
    64
  0
VERTEX
  5
58E
330
54C
100
AcDbEntity
  8
BASE
  6
Continuous
100
AcDbVertex
100
AcDbPolygonMeshVertex
 10
80.57096360594812
 20
117.8743646540491
 30
0.0
 70
    64
  0
VERTEX
  5
58F
330
54C
100
AcDbEntity
  8
BASE
  6
Continuous
100
AcDbVertex
100
AcDbPolygonMeshVertex
 10
80.59036464577815
 20
117.8608933380022
 30
0.0
 70
    64
  0
VERTEX
  5
590
330
54C
100
AcDbEntity
  8
BASE
  6
Continuous
100
AcDbVertex
100
AcDbPolygonMeshVertex
 10
80.60976568560823
 20
117.8474220219554
 30
0.0
 70
    64
  0
VERTEX
  5
591
330
54C
100
AcDbEntity
  8
BASE
  6
Continuous
100
AcDbVertex
100
AcDbPolygonMeshVertex
 10
80.62916672543829
 20
117.8339507059087
 30
0.0
 70
    64
  0
VERTEX
  5
592
330
54C
100
AcDbEntity
  8
BASE
  6
Continuous
100
AcDbVertex
100
AcDbPolygonMeshVertex
 10
80.64856776526832
 20
117.8204793898619
 30
0.0
 70
    64
  0
VERTEX
  5
593
330
54C
100
AcDbEntity
  8
BASE
  6
Continuous
100
AcDbVertex
100
AcDbPolygonMeshVertex
 10
80.66796880509835
 20
117.8070080738151
 30
0.0
 70
    64
  0
VERTEX
  5
594
330
54C
100
AcDbEntity
  8
BASE
  6
Continuous
100
AcDbVertex
100
AcDbPolygonMeshVertex
 10
80.68736984492842
 20
117.7935367577683
 30
0.0
 70
    64
  0
VERTEX
  5
595
330
54C
100
AcDbEntity
  8
BASE
  6
Continuous
100
AcDbVertex
100
AcDbPolygonMeshVertex
 10
80.7067708847585
 20
117.7800654417215
 30
0.0
 70
    64
  0
VERTEX
  5
596
330
54C
100
AcDbEntity
  8
BASE
  6
Continuous
100
AcDbVertex
100
AcDbPolygonMeshVertex
 10
80.72617192458853
 20
117.7665941256747
 30
0.0
 70
    64
  0
VERTEX
  5
597
330
54C
100
AcDbEntity
  8
BASE
  6
Continuous
100
AcDbVertex
100
AcDbPolygonMeshVertex
 10
80.74557296441861
 20
117.7531228096279
 30
0.0
 70
    64
  0
VERTEX
  5
598
330
54C
100
AcDbEntity
  8
BASE
  6
Continuous
100
AcDbVertex
100
AcDbPolygonMeshVertex
 10
80.76497400424868
 20
117.7396514935811
 30
0.0
 70
    64
  0
VERTEX
  5
599
330
54C
100
AcDbEntity
  8
BASE
  6
Continuous
100
AcDbVertex
100
AcDbPolygonMeshVertex
 10
80.78437504407871
 20
117.7261801775344
 30
0.0
 70
    64
  0
VERTEX
  5
59A
330
54C
100
AcDbEntity
  8
BASE
  6
Continuous
100
AcDbVertex
100
AcDbPolygonMeshVertex
 10
80.80377608390874
 20
117.7127088614876
 30
0.0
 70
    64
  0
VERTEX
  5
59B
330
54C
100
AcDbEntity
  8
BASE
  6
Continuous
100
AcDbVertex
100
AcDbPolygonMeshVertex
 10
80.82317712373878
 20
117.6992375454407
 30
0.0
 70
    64
  0
VERTEX
  5
59C
330
54C
100
AcDbEntity
  8
BASE
  6
Continuous
100
AcDbVertex
100
AcDbPolygonMeshVertex
 10
80.84257816356887
 20
117.685766229394
 30
0.0
 70
    64
  0
VERTEX
  5
59D
330
54C
100
AcDbEntity
  8
BASE
  6
Continuous
100
AcDbVertex
100
AcDbPolygonMeshVertex
 10
80.86197920339889
 20
117.6722949133472
 30
0.0
 70
    64
  0
VERTEX
  5
59E
330
54C
100
AcDbEntity
  8
BASE
  6
Continuous
100
AcDbVertex
100
AcDbPolygonMeshVertex
 10
80.88138024322899
 20
117.6588235973004
 30
0.0
 70
    64
  0
VERTEX
  5
59F
330
54C
100
AcDbEntity
  8
BASE
  6
Continuous
100
AcDbVertex
100
AcDbPolygonMeshVertex
 10
80.90078128305904
 20
117.6453522812536
 30
0.0
 70
    64
  0
VERTEX
  5
5A0
330
54C
100
AcDbEntity
  8
BASE
  6
Continuous
100
AcDbVertex
100
AcDbPolygonMeshVertex
 10
80.92018232288907
 20
117.6318809652068
 30
0.0
 70
    64
  0
VERTEX
  5
5A1
330
54C
100
AcDbEntity
  8
BASE
  6
Continuous
100
AcDbVertex
100
AcDbPolygonMeshVertex
 10
80.9395833627191
 20
117.61840964916
 30
0.0
 70
    64
  0
VERTEX
  5
5A2
330
54C
100
AcDbEntity
  8
BASE
  6
Continuous
100
AcDbVertex
100
AcDbPolygonMeshVertex
 10
80.95898440254922
 20
117.6049383331132
 30
0.0
 70
    64
  0
VERTEX
  5
5A3
330
54C
100
AcDbEntity
  8
BASE
  6
Continuous
100
AcDbVertex
100
AcDbPolygonMeshVertex
 10
80.97838544237925
 20
117.5914670170664
 30
0.0
 70
    64
  0
VERTEX
  5
5A4
330
54C
100
AcDbEntity
  8
BASE
  6
Continuous
100
AcDbVertex
100
AcDbPolygonMeshVertex
 10
80.99778648220928
 20
117.5779957010196
 30
0.0
 70
    64
  0
VERTEX
  5
5A5
330
54C
100
AcDbEntity
  8
BASE
  6
Continuous
100
AcDbVertex
100
AcDbPolygonMeshVertex
 10
81.01718752203936
 20
117.5645243849729
 30
0.0
 70
    64
  0
VERTEX
  5
5A6
330
54C
100
AcDbEntity
  8
BASE
  6
Continuous
100
AcDbVertex
100
AcDbPolygonMeshVertex
 10
81.03658856186942
 20
117.5510530689261
 30
0.0
 70
    64
  0
VERTEX
  5
5A7
330
54C
100
AcDbEntity
  8
BASE
  6
Continuous
100
AcDbVertex
100
AcDbPolygonMeshVertex
 10
81.05598960169945
 20
117.5375817528793
 30
0.0
 70
    64
  0
VERTEX
  5
5A8
330
54C
100
AcDbEntity
  8
BASE
  6
Continuous
100
AcDbVertex
100
AcDbPolygonMeshVertex
 10
81.0753906415295
 20
117.5241104368325
 30
0.0
 70
    64
  0
VERTEX
  5
5A9
330
54C
100
AcDbEntity
  8
BASE
  6
Continuous
100
AcDbVertex
100
AcDbPolygonMeshVertex
 10
81.0947916813596
 20
117.5106391207857
 30
0.0
 70
    64
  0
VERTEX
  5
5AA
330
54C
100
AcDbEntity
  8
BASE
  6
Continuous
100
AcDbVertex
100
AcDbPolygonMeshVertex
 10
81.11419272118963
 20
117.4971678047389
 30
0.0
 70
    64
  0
VERTEX
  5
5AB
330
54C
100
AcDbEntity
  8
BASE
  6
Continuous
100
AcDbVertex
100
AcDbPolygonMeshVertex
 10
81.13359376101966
 20
117.4836964886922
 30
0.0
 70
    64
  0
VERTEX
  5
5AC
330
54C
100
AcDbEntity
  8
BASE
  6
Continuous
100
AcDbVertex
100
AcDbPolygonMeshVertex
 10
81.15299480084974
 20
117.4702251726453
 30
0.0
 70
    64
  0
VERTEX
  5
5AD
330
54C
100
AcDbEntity
  8
BASE
  6
Continuous
100
AcDbVertex
100
AcDbPolygonMeshVertex
 10
81.17239584067979
 20
117.4567538565986
 30
0.0
 70
    64
  0
VERTEX
  5
5AE
330
54C
100
AcDbEntity
  8
BASE
  6
Continuous
100
AcDbVertex
100
AcDbPolygonMeshVertex
 10
81.19179688050982
 20
117.4432825405518
 30
0.0
 70
    64
  0
VERTEX
  5
5AF
330
54C
100
AcDbEntity
  8
BASE
  6
Continuous
100
AcDbVertex
100
AcDbPolygonMeshVertex
 10
81.21119792033988
 20
117.429811224505
 30
0.0
 70
    64
  0
VERTEX
  5
5B0
330
54C
100
AcDbEntity
  8
BASE
  6
Continuous
100
AcDbVertex
100
AcDbPolygonMeshVertex
 10
81.23059896016997
 20
117.4163399084582
 30
0.0
 70
    64
  0
VERTEX
  5
5B1
330
54C
100
AcDbEntity
  8
BASE
  6
Continuous
100
AcDbVertex
100
AcDbPolygonMeshVertex
 10
81.25
 20
117.4028685924114
 30
0.0
 70
    64
  0
VERTEX
  5
5B2
330
54C
100
AcDbEntity
  8
BASE
  6
Continuous
100
AcDbVertex
100
AcDbPolygonMeshVertex
 10
79.3098960169946
 20
118.7500001970903
 30
0.0
 70
    64
  0
VERTEX
  5
5B3
330
54C
100
AcDbEntity
  8
BASE
  6
Continuous
100
AcDbVertex
100
AcDbPolygonMeshVertex
 10
79.32929705682463
 20
118.7636017279671
 30
0.0
 70
    64
  0
VERTEX
  5
5B4
330
54C
100
AcDbEntity
  8
BASE
  6
Continuous
100
AcDbVertex
100
AcDbPolygonMeshVertex
 10
79.34869809665468
 20
118.7772032588438
 30
0.0
 70
    64
  0
VERTEX
  5
5B5
330
54C
100
AcDbEntity
  8
BASE
  6
Continuous
100
AcDbVertex
100
AcDbPolygonMeshVertex
 10
79.36809913648477
 20
118.7908047897206
 30
0.0
 70
    64
  0
VERTEX
  5
5B6
330
54C
100
AcDbEntity
  8
BASE
  6
Continuous
100
AcDbVertex
100
AcDbPolygonMeshVertex
 10
79.3875001763148
 20
118.8044063205973
 30
0.0
 70
    64
  0
VERTEX
  5
5B7
330
54C
100
AcDbEntity
  8
BASE
  6
Continuous
100
AcDbVertex
100
AcDbPolygonMeshVertex
 10
79.40690121614489
 20
118.8180078514742
 30
0.0
 70
    64
  0
VERTEX
  5
5B8
330
54C
100
AcDbEntity
  8
BASE
  6
Continuous
100
AcDbVertex
100
AcDbPolygonMeshVertex
 10
79.42630225597494
 20
118.8316093823509
 30
0.0
 70
    64
  0
VERTEX
  5
5B9
330
54C
100
AcDbEntity
  8
BASE
  6
Continuous
100
AcDbVertex
100
AcDbPolygonMeshVertex
 10
79.44570329580497
 20
118.8452109132277
 30
0.0
 70
    64
  0
VERTEX
  5
5BA
330
54C
100
AcDbEntity
  8
BASE
  6
Continuous
100
AcDbVertex
100
AcDbPolygonMeshVertex
 10
79.465104335635
 20
118.8588124441045
 30
0.0
 70
    64
  0
VERTEX
  5
5BB
330
54C
100
AcDbEntity
  8
BASE
  6
Continuous
100
AcDbVertex
100
AcDbPolygonMeshVertex
 10
79.48450537546506
 20
118.8724139749812
 30
0.0
 70
    64
  0
VERTEX
  5
5BC
330
54C
100
AcDbEntity
  8
BASE
  6
Continuous
100
AcDbVertex
100
AcDbPolygonMeshVertex
 10
79.50390641529515
 20
118.886015505858
 30
0.0
 70
    64
  0
VERTEX
  5
5BD
330
54C
100
AcDbEntity
  8
BASE
  6
Continuous
100
AcDbVertex
100
AcDbPolygonMeshVertex
 10
79.52330745512518
 20
118.8996170367348
 30
0.0
 70
    64
  0
VERTEX
  5
5BE
330
54C
100
AcDbEntity
  8
BASE
  6
Continuous
100
AcDbVertex
100
AcDbPolygonMeshVertex
 10
79.54270849495526
 20
118.9132185676115
 30
0.0
 70
    64
  0
VERTEX
  5
5BF
330
54C
100
AcDbEntity
  8
BASE
  6
Continuous
100
AcDbVertex
100
AcDbPolygonMeshVertex
 10
79.56210953478532
 20
118.9268200984883
 30
0.0
 70
    64
  0
VERTEX
  5
5C0
330
54C
100
AcDbEntity
  8
BASE
  6
Continuous
100
AcDbVertex
100
AcDbPolygonMeshVertex
 10
79.58151057461535
 20
118.9404216293651
 30
0.0
 70
    64
  0
VERTEX
  5
5C1
330
54C
100
AcDbEntity
  8
BASE
  6
Continuous
100
AcDbVertex
100
AcDbPolygonMeshVertex
 10
79.60091161444537
 20
118.9540231602418
 30
0.0
 70
    64
  0
VERTEX
  5
5C2
330
54C
100
AcDbEntity
  8
BASE
  6
Continuous
100
AcDbVertex
100
AcDbPolygonMeshVertex
 10
79.62031265427549
 20
118.9676246911186
 30
0.0
 70
    64
  0
VERTEX
  5
5C3
330
54C
100
AcDbEntity
  8
BASE
  6
Continuous
100
AcDbVertex
100
AcDbPolygonMeshVertex
 10
79.63971369410552
 20
118.9812262219953
 30
0.0
 70
    64
  0
VERTEX
  5
5C4
330
54C
100
AcDbEntity
  8
BASE
  6
Continuous
100
AcDbVertex
100
AcDbPolygonMeshVertex
 10
79.65911473393555
 20
118.9948277528721
 30
0.0
 70
    64
  0
VERTEX
  5
5C5
330
54C
100
AcDbEntity
  8
BASE
  6
Continuous
100
AcDbVertex
100
AcDbPolygonMeshVertex
 10
79.67851577376563
 20
119.0084292837489
 30
0.0
 70
    64
  0
VERTEX
  5
5C6
330
54C
100
AcDbEntity
  8
BASE
  6
Continuous
100
AcDbVertex
100
AcDbPolygonMeshVertex
 10
79.6979168135957
 20
119.0220308146256
 30
0.0
 70
    64
  0
VERTEX
  5
5C7
330
54C
100
AcDbEntity
  8
BASE
  6
Continuous
100
AcDbVertex
100
AcDbPolygonMeshVertex
 10
79.71731785342573
 20
119.0356323455024
 30
0.0
 70
    64
  0
VERTEX
  5
5C8
330
54C
100
AcDbEntity
  8
BASE
  6
Continuous
100
AcDbVertex
100
AcDbPolygonMeshVertex
 10
79.73671889325578
 20
119.0492338763792
 30
0.0
 70
    64
  0
VERTEX
  5
5C9
330
54C
100
AcDbEntity
  8
BASE
  6
Continuous
100
AcDbVertex
100
AcDbPolygonMeshVertex
 10
79.75611993308587
 20
119.0628354072559
 30
0.0
 70
    64
  0
VERTEX
  5
5CA
330
54C
100
AcDbEntity
  8
BASE
  6
Continuous
100
AcDbVertex
100
AcDbPolygonMeshVertex
 10
79.7755209729159
 20
119.0764369381327
 30
0.0
 70
    64
  0
VERTEX
  5
5CB
330
54C
100
AcDbEntity
  8
BASE
  6
Continuous
100
AcDbVertex
100
AcDbPolygonMeshVertex
 10
79.79492201274593
 20
119.0900384690095
 30
0.0
 70
    64
  0
VERTEX
  5
5CC
330
54C
100
AcDbEntity
  8
BASE
  6
Continuous
100
AcDbVertex
100
AcDbPolygonMeshVertex
 10
79.81432305257602
 20
119.1036399998862
 30
0.0
 70
    64
  0
VERTEX
  5
5CD
330
54C
100
AcDbEntity
  8
BASE
  6
Continuous
100
AcDbVertex
100
AcDbPolygonMeshVertex
 10
79.83372409240607
 20
119.117241530763
 30
0.0
 70
    64
  0
VERTEX
  5
5CE
330
54C
100
AcDbEntity
  8
BASE
  6
Continuous
100
AcDbVertex
100
AcDbPolygonMeshVertex
 10
79.8531251322361
 20
119.1308430616398
 30
0.0
 70
    64
  0
VERTEX
  5
5CF
330
54C
100
AcDbEntity
  8
BASE
  6
Continuous
100
AcDbVertex
100
AcDbPolygonMeshVertex
 10
79.87252617206616
 20
119.1444445925166
 30
0.0
 70
    64
  0
VERTEX
  5
5D0
330
54C
100
AcDbEntity
  8
BASE
  6
Continuous
100
AcDbVertex
100
AcDbPolygonMeshVertex
 10
79.89192721189624
 20
119.1580461233933
 30
0.0
 70
    64
  0
VERTEX
  5
5D1
330
54C
100
AcDbEntity
  8
BASE
  6
Continuous
100
AcDbVertex
100
AcDbPolygonMeshVertex
 10
79.91132825172627
 20
119.1716476542701
 30
0.0
 70
    64
  0
VERTEX
  5
5D2
330
54C
100
AcDbEntity
  8
BASE
  6
Continuous
100
AcDbVertex
100
AcDbPolygonMeshVertex
 10
79.9307292915563
 20
119.1852491851469
 30
0.0
 70
    64
  0
VERTEX
  5
5D3
330
54C
100
AcDbEntity
  8
BASE
  6
Continuous
100
AcDbVertex
100
AcDbPolygonMeshVertex
 10
79.95013033138639
 20
119.1988507160236
 30
0.0
 70
    64
  0
VERTEX
  5
5D4
330
54C
100
AcDbEntity
  8
BASE
  6
Continuous
100
AcDbVertex
100
AcDbPolygonMeshVertex
 10
79.96953137121645
 20
119.2124522469004
 30
0.0
 70
    64
  0
VERTEX
  5
5D5
330
54C
100
AcDbEntity
  8
BASE
  6
Continuous
100
AcDbVertex
100
AcDbPolygonMeshVertex
 10
79.98893241104648
 20
119.2260537777771
 30
0.0
 70
    64
  0
VERTEX
  5
5D6
330
54C
100
AcDbEntity
  8
BASE
  6
Continuous
100
AcDbVertex
100
AcDbPolygonMeshVertex
 10
80.00833345087654
 20
119.2396553086539
 30
0.0
 70
    64
  0
VERTEX
  5
5D7
330
54C
100
AcDbEntity
  8
BASE
  6
Continuous
100
AcDbVertex
100
AcDbPolygonMeshVertex
 10
80.02773449070662
 20
119.2532568395307
 30
0.0
 70
    64
  0
VERTEX
  5
5D8
330
54C
100
AcDbEntity
  8
BASE
  6
Continuous
100
AcDbVertex
100
AcDbPolygonMeshVertex
 10
80.04713553053665
 20
119.2668583704074
 30
0.0
 70
    64
  0
VERTEX
  5
5D9
330
54C
100
AcDbEntity
  8
BASE
  6
Continuous
100
AcDbVertex
100
AcDbPolygonMeshVertex
 10
80.06653657036668
 20
119.2804599012842
 30
0.0
 70
    64
  0
VERTEX
  5
5DA
330
54C
100
AcDbEntity
  8
BASE
  6
Continuous
100
AcDbVertex
100
AcDbPolygonMeshVertex
 10
80.08593761019676
 20
119.294061432161
 30
0.0
 70
    64
  0
VERTEX
  5
5DB
330
54C
100
AcDbEntity
  8
BASE
  6
Continuous
100
AcDbVertex
100
AcDbPolygonMeshVertex
 10
80.10533865002683
 20
119.3076629630377
 30
0.0
 70
    64
  0
VERTEX
  5
5DC
330
54C
100
AcDbEntity
  8
BASE
  6
Continuous
100
AcDbVertex
100
AcDbPolygonMeshVertex
 10
80.12473968985686
 20
119.3212644939145
 30
0.0
 70
    64
  0
VERTEX
  5
5DD
330
54C
100
AcDbEntity
  8
BASE
  6
Continuous
100
AcDbVertex
100
AcDbPolygonMeshVertex
 10
80.14414072968691
 20
119.3348660247913
 30
0.0
 70
    64
  0
VERTEX
  5
5DE
330
54C
100
AcDbEntity
  8
BASE
  6
Continuous
100
AcDbVertex
100
AcDbPolygonMeshVertex
 10
80.16354176951699
 20
119.3484675556681
 30
0.0
 70
    64
  0
VERTEX
  5
5DF
330
54C
100
AcDbEntity
  8
BASE
  6
Continuous
100
AcDbVertex
100
AcDbPolygonMeshVertex
 10
80.18294280934702
 20
119.3620690865448
 30
0.0
 70
    64
  0
VERTEX
  5
5E0
330
54C
100
AcDbEntity
  8
BASE
  6
Continuous
100
AcDbVertex
100
AcDbPolygonMeshVertex
 10
80.20234384917705
 20
119.3756706174216
 30
0.0
 70
    64
  0
VERTEX
  5
5E1
330
54C
100
AcDbEntity
  8
BASE
  6
Continuous
100
AcDbVertex
100
AcDbPolygonMeshVertex
 10
80.22174488900716
 20
119.3892721482983
 30
0.0
 70
    64
  0
VERTEX
  5
5E2
330
54C
100
AcDbEntity
  8
BASE
  6
Continuous
100
AcDbVertex
100
AcDbPolygonMeshVertex
 10
80.24114592883719
 20
119.4028736791751
 30
0.0
 70
    64
  0
VERTEX
  5
5E3
330
54C
100
AcDbEntity
  8
BASE
  6
Continuous
100
AcDbVertex
100
AcDbPolygonMeshVertex
 10
80.26054696866722
 20
119.4164752100519
 30
0.0
 70
    64
  0
VERTEX
  5
5E4
330
54C
100
AcDbEntity
  8
BASE
  6
Continuous
100
AcDbVertex
100
AcDbPolygonMeshVertex
 10
80.27994800849729
 20
119.4300767409286
 30
0.0
 70
    64
  0
VERTEX
  5
5E5
330
54C
100
AcDbEntity
  8
BASE
  6
Continuous
100
AcDbVertex
100
AcDbPolygonMeshVertex
 10
80.29934904832737
 20
119.4436782718054
 30
0.0
 70
    64
  0
VERTEX
  5
5E6
330
54C
100
AcDbEntity
  8
BASE
  6
Continuous
100
AcDbVertex
100
AcDbPolygonMeshVertex
 10
80.3187500881574
 20
119.4572798026822
 30
0.0
 70
    64
  0
VERTEX
  5
5E7
330
54C
100
AcDbEntity
  8
BASE
  6
Continuous
100
AcDbVertex
100
AcDbPolygonMeshVertex
 10
80.33815112798743
 20
119.4708813335589
 30
0.0
 70
    64
  0
VERTEX
  5
5E8
330
54C
100
AcDbEntity
  8
BASE
  6
Continuous
100
AcDbVertex
100
AcDbPolygonMeshVertex
 10
80.35755216781755
 20
119.4844828644358
 30
0.0
 70
    64
  0
VERTEX
  5
5E9
330
54C
100
AcDbEntity
  8
BASE
  6
Continuous
100
AcDbVertex
100
AcDbPolygonMeshVertex
 10
80.37695320764758
 20
119.4980843953125
 30
0.0
 70
    64
  0
VERTEX
  5
5EA
330
54C
100
AcDbEntity
  8
BASE
  6
Continuous
100
AcDbVertex
100
AcDbPolygonMeshVertex
 10
80.39635424747761
 20
119.5116859261893
 30
0.0
 70
    64
  0
VERTEX
  5
5EB
330
54C
100
AcDbEntity
  8
BASE
  6
Continuous
100
AcDbVertex
100
AcDbPolygonMeshVertex
 10
80.41575528730765
 20
119.525287457066
 30
0.0
 70
    64
  0
VERTEX
  5
5EC
330
54C
100
AcDbEntity
  8
BASE
  6
Continuous
100
AcDbVertex
100
AcDbPolygonMeshVertex
 10
80.43515632713775
 20
119.5388889879428
 30
0.0
 70
    64
  0
VERTEX
  5
5ED
330
54C
100
AcDbEntity
  8
BASE
  6
Continuous
100
AcDbVertex
100
AcDbPolygonMeshVertex
 10
80.45455736696778
 20
119.5524905188196
 30
0.0
 70
    64
  0
VERTEX
  5
5EE
330
54C
100
AcDbEntity
  8
BASE
  6
Continuous
100
AcDbVertex
100
AcDbPolygonMeshVertex
 10
80.47395840679786
 20
119.5660920496964
 30
0.0
 70
    64
  0
VERTEX
  5
5EF
330
54C
100
AcDbEntity
  8
BASE
  6
Continuous
100
AcDbVertex
100
AcDbPolygonMeshVertex
 10
80.49335944662791
 20
119.5796935805731
 30
0.0
 70
    64
  0
VERTEX
  5
5F0
330
54C
100
AcDbEntity
  8
BASE
  6
Continuous
100
AcDbVertex
100
AcDbPolygonMeshVertex
 10
80.51276048645794
 20
119.5932951114499
 30
0.0
 70
    64
  0
VERTEX
  5
5F1
330
54C
100
AcDbEntity
  8
BASE
  6
Continuous
100
AcDbVertex
100
AcDbPolygonMeshVertex
 10
80.53216152628797
 20
119.6068966423266
 30
0.0
 70
    64
  0
VERTEX
  5
5F2
330
54C
100
AcDbEntity
  8
BASE
  6
Continuous
100
AcDbVertex
100
AcDbPolygonMeshVertex
 10
80.55156256611804
 20
119.6204981732034
 30
0.0
 70
    64
  0
VERTEX
  5
5F3
330
54C
100
AcDbEntity
  8
BASE
  6
Continuous
100
AcDbVertex
100
AcDbPolygonMeshVertex
 10
80.57096360594812
 20
119.6340997040802
 30
0.0
 70
    64
  0
VERTEX
  5
5F4
330
54C
100
AcDbEntity
  8
BASE
  6
Continuous
100
AcDbVertex
100
AcDbPolygonMeshVertex
 10
80.59036464577815
 20
119.6477012349569
 30
0.0
 70
    64
  0
VERTEX
  5
5F5
330
54C
100
AcDbEntity
  8
BASE
  6
Continuous
100
AcDbVertex
100
AcDbPolygonMeshVertex
 10
80.60976568560823
 20
119.6613027658337
 30
0.0
 70
    64
  0
VERTEX
  5
5F6
330
54C
100
AcDbEntity
  8
BASE
  6
Continuous
100
AcDbVertex
100
AcDbPolygonMeshVertex
 10
80.62916672543829
 20
119.6749042967105
 30
0.0
 70
    64
  0
VERTEX
  5
5F7
330
54C
100
AcDbEntity
  8
BASE
  6
Continuous
100
AcDbVertex
100
AcDbPolygonMeshVertex
 10
80.64856776526832
 20
119.6885058275872
 30
0.0
 70
    64
  0
VERTEX
  5
5F8
330
54C
100
AcDbEntity
  8
BASE
  6
Continuous
100
AcDbVertex
100
AcDbPolygonMeshVertex
 10
80.66796880509835
 20
119.702107358464
 30
0.0
 70
    64
  0
VERTEX
  5
5F9
330
54C
100
AcDbEntity
  8
BASE
  6
Continuous
100
AcDbVertex
100
AcDbPolygonMeshVertex
 10
80.68736984492842
 20
119.7157088893408
 30
0.0
 70
    64
  0
VERTEX
  5
5FA
330
54C
100
AcDbEntity
  8
BASE
  6
Continuous
100
AcDbVertex
100
AcDbPolygonMeshVertex
 10
80.7067708847585
 20
119.7293104202175
 30
0.0
 70
    64
  0
VERTEX
  5
5FB
330
54C
100
AcDbEntity
  8
BASE
  6
Continuous
100
AcDbVertex
100
AcDbPolygonMeshVertex
 10
80.72617192458853
 20
119.7429119510943
 30
0.0
 70
    64
  0
VERTEX
  5
5FC
330
54C
100
AcDbEntity
  8
BASE
  6
Continuous
100
AcDbVertex
100
AcDbPolygonMeshVertex
 10
80.74557296441861
 20
119.7565134819711
 30
0.0
 70
    64
  0
VERTEX
  5
5FD
330
54C
100
AcDbEntity
  8
BASE
  6
Continuous
100
AcDbVertex
100
AcDbPolygonMeshVertex
 10
80.76497400424868
 20
119.7701150128478
 30
0.0
 70
    64
  0
VERTEX
  5
5FE
330
54C
100
AcDbEntity
  8
BASE
  6
Continuous
100
AcDbVertex
100
AcDbPolygonMeshVertex
 10
80.78437504407871
 20
119.7837165437246
 30
0.0
 70
    64
  0
VERTEX
  5
5FF
330
54C
100
AcDbEntity
  8
BASE
  6
Continuous
100
AcDbVertex
100
AcDbPolygonMeshVertex
 10
80.80377608390874
 20
119.7973180746014
 30
0.0
 70
    64
  0
VERTEX
  5
600
330
54C
100
AcDbEntity
  8
BASE
  6
Continuous
100
AcDbVertex
100
AcDbPolygonMeshVertex
 10
80.82317712373878
 20
119.8109196054782
 30
0.0
 70
    64
  0
VERTEX
  5
601
330
54C
100
AcDbEntity
  8
BASE
  6
Continuous
100
AcDbVertex
100
AcDbPolygonMeshVertex
 10
80.84257816356887
 20
119.8245211363549
 30
0.0
 70
    64
  0
VERTEX
  5
602
330
54C
100
AcDbEntity
  8
BASE
  6
Continuous
100
AcDbVertex
100
AcDbPolygonMeshVertex
 10
80.86197920339889
 20
119.8381226672317
 30
0.0
 70
    64
  0
VERTEX
  5
603
330
54C
100
AcDbEntity
  8
BASE
  6
Continuous
100
AcDbVertex
100
AcDbPolygonMeshVertex
 10
80.88138024322899
 20
119.8517241981084
 30
0.0
 70
    64
  0
VERTEX
  5
604
330
54C
100
AcDbEntity
  8
BASE
  6
Continuous
100
AcDbVertex
100
AcDbPolygonMeshVertex
 10
80.90078128305904
 20
119.8653257289852
 30
0.0
 70
    64
  0
VERTEX
  5
605
330
54C
100
AcDbEntity
  8
BASE
  6
Continuous
100
AcDbVertex
100
AcDbPolygonMeshVertex
 10
80.92018232288907
 20
119.878927259862
 30
0.0
 70
    64
  0
VERTEX
  5
606
330
54C
100
AcDbEntity
  8
BASE
  6
Continuous
100
AcDbVertex
100
AcDbPolygonMeshVertex
 10
80.9395833627191
 20
119.8925287907387
 30
0.0
 70
    64
  0
VERTEX
  5
607
330
54C
100
AcDbEntity
  8
BASE
  6
Continuous
100
AcDbVertex
100
AcDbPolygonMeshVertex
 10
80.95898440254922
 20
119.9061303216155
 30
0.0
 70
    64
  0
VERTEX
  5
608
330
54C
100
AcDbEntity
  8
BASE
  6
Continuous
100
AcDbVertex
100
AcDbPolygonMeshVertex
 10
80.97838544237925
 20
119.9197318524923
 30
0.0
 70
    64
  0
VERTEX
  5
609
330
54C
100
AcDbEntity
  8
BASE
  6
Continuous
100
AcDbVertex
100
AcDbPolygonMeshVertex
 10
80.99778648220928
 20
119.933333383369
 30
0.0
 70
    64
  0
VERTEX
  5
60A
330
54C
100
AcDbEntity
  8
BASE
  6
Continuous
100
AcDbVertex
100
AcDbPolygonMeshVertex
 10
81.01718752203936
 20
119.9469349142458
 30
0.0
 70
    64
  0
VERTEX
  5
60B
330
54C
100
AcDbEntity
  8
BASE
  6
Continuous
100
AcDbVertex
100
AcDbPolygonMeshVertex
 10
81.03658856186942
 20
119.9605364451226
 30
0.0
 70
    64
  0
VERTEX
  5
60C
330
54C
100
AcDbEntity
  8
BASE
  6
Continuous
100
AcDbVertex
100
AcDbPolygonMeshVertex
 10
81.05598960169945
 20
119.9741379759993
 30
0.0
 70
    64
  0
VERTEX
  5
60D
330
54C
100
AcDbEntity
  8
BASE
  6
Continuous
100
AcDbVertex
100
AcDbPolygonMeshVertex
 10
81.07539064152948
 20
119.9877395068761
 30
0.0
 70
    64
  0
VERTEX
  5
60E
330
54C
100
AcDbEntity
  8
BASE
  6
Continuous
100
AcDbVertex
100
AcDbPolygonMeshVertex
 10
81.0947916813596
 20
120.0013410377529
 30
0.0
 70
    64
  0
VERTEX
  5
60F
330
54C
100
AcDbEntity
  8
BASE
  6
Continuous
100
AcDbVertex
100
AcDbPolygonMeshVertex
 10
81.11419272118963
 20
120.0149425686297
 30
0.0
 70
    64
  0
VERTEX
  5
610
330
54C
100
AcDbEntity
  8
BASE
  6
Continuous
100
AcDbVertex
100
AcDbPolygonMeshVertex
 10
81.13359376101966
 20
120.0285440995064
 30
0.0
 70
    64
  0
VERTEX
  5
611
330
54C
100
AcDbEntity
  8
BASE
  6
Continuous
100
AcDbVertex
100
AcDbPolygonMeshVertex
 10
81.15299480084974
 20
120.0421456303832
 30
0.0
 70
    64
  0
VERTEX
  5
612
330
54C
100
AcDbEntity
  8
BASE
  6
Continuous
100
AcDbVertex
100
AcDbPolygonMeshVertex
 10
81.17239584067979
 20
120.0557471612599
 30
0.0
 70
    64
  0
VERTEX
  5
613
330
54C
100
AcDbEntity
  8
BASE
  6
Continuous
100
AcDbVertex
100
AcDbPolygonMeshVertex
 10
81.19179688050982
 20
120.0693486921367
 30
0.0
 70
    64
  0
VERTEX
  5
614
330
54C
100
AcDbEntity
  8
BASE
  6
Continuous
100
AcDbVertex
100
AcDbPolygonMeshVertex
 10
81.21119792033988
 20
120.0829502230135
 30
0.0
 70
    64
  0
VERTEX
  5
615
330
54C
100
AcDbEntity
  8
BASE
  6
Continuous
100
AcDbVertex
100
AcDbPolygonMeshVertex
 10
81.23059896016997
 20
120.0965517538902
 30
0.0
 70
    64
  0
VERTEX
  5
616
330
54C
100
AcDbEntity
  8
BASE
  6
Continuous
100
AcDbVertex
100
AcDbPolygonMeshVertex
 10
81.25
 20
120.110153284767
 30
0.0
 70
    64
  0
SEQEND
  5
617
330
54C
100
AcDbEntity
  8
BASE
  6
Continuous
  0
POLYLINE
  5
618
330
1E
100
AcDbEntity
  8
BASE
  6
Continuous
100
AcDbPolygonMesh
 66
     1
 10
0.0
 20
0.0
 30
0.0
 70
    16
 71
     2
 72
   101
  0
VERTEX
  5
619
330
618
100
AcDbEntity
  8
BASE
  6
Continuous
100
AcDbVertex
100
AcDbPolygonMeshVertex
 10
83.0598960169946
 20
118.7500001970903
 30
0.0
 70
    64
  0
VERTEX
  5
61A
330
618
100
AcDbEntity
  8
BASE
  6
Continuous
100
AcDbVertex
100
AcDbPolygonMeshVertex
 10
83.07929705682463
 20
118.7365288810435
 30
0.0
 70
    64
  0
VERTEX
  5
61B
330
618
100
AcDbEntity
  8
BASE
  6
Continuous
100
AcDbVertex
100
AcDbPolygonMeshVertex
 10
83.09869809665469
 20
118.7230575649967
 30
0.0
 70
    64
  0
VERTEX
  5
61C
330
618
100
AcDbEntity
  8
BASE
  6
Continuous
100
AcDbVertex
100
AcDbPolygonMeshVertex
 10
83.11809913648477
 20
118.7095862489499
 30
0.0
 70
    64
  0
VERTEX
  5
61D
330
618
100
AcDbEntity
  8
BASE
  6
Continuous
100
AcDbVertex
100
AcDbPolygonMeshVertex
 10
83.1375001763148
 20
118.6961149329031
 30
0.0
 70
    64
  0
VERTEX
  5
61E
330
618
100
AcDbEntity
  8
BASE
  6
Continuous
100
AcDbVertex
100
AcDbPolygonMeshVertex
 10
83.15690121614489
 20
118.6826436168564
 30
0.0
 70
    64
  0
VERTEX
  5
61F
330
618
100
AcDbEntity
  8
BASE
  6
Continuous
100
AcDbVertex
100
AcDbPolygonMeshVertex
 10
83.17630225597495
 20
118.6691723008095
 30
0.0
 70
    64
  0
VERTEX
  5
620
330
618
100
AcDbEntity
  8
BASE
  6
Continuous
100
AcDbVertex
100
AcDbPolygonMeshVertex
 10
83.19570329580498
 20
118.6557009847628
 30
0.0
 70
    64
  0
VERTEX
  5
621
330
618
100
AcDbEntity
  8
BASE
  6
Continuous
100
AcDbVertex
100
AcDbPolygonMeshVertex
 10
83.21510433563501
 20
118.642229668716
 30
0.0
 70
    64
  0
VERTEX
  5
622
330
618
100
AcDbEntity
  8
BASE
  6
Continuous
100
AcDbVertex
100
AcDbPolygonMeshVertex
 10
83.23450537546506
 20
118.6287583526692
 30
0.0
 70
    64
  0
VERTEX
  5
623
330
618
100
AcDbEntity
  8
BASE
  6
Continuous
100
AcDbVertex
100
AcDbPolygonMeshVertex
 10
83.25390641529514
 20
118.6152870366224
 30
0.0
 70
    64
  0
VERTEX
  5
624
330
618
100
AcDbEntity
  8
BASE
  6
Continuous
100
AcDbVertex
100
AcDbPolygonMeshVertex
 10
83.27330745512517
 20
118.6018157205756
 30
0.0
 70
    64
  0
VERTEX
  5
625
330
618
100
AcDbEntity
  8
BASE
  6
Continuous
100
AcDbVertex
100
AcDbPolygonMeshVertex
 10
83.29270849495527
 20
118.5883444045288
 30
0.0
 70
    64
  0
VERTEX
  5
626
330
618
100
AcDbEntity
  8
BASE
  6
Continuous
100
AcDbVertex
100
AcDbPolygonMeshVertex
 10
83.31210953478532
 20
118.574873088482
 30
0.0
 70
    64
  0
VERTEX
  5
627
330
618
100
AcDbEntity
  8
BASE
  6
Continuous
100
AcDbVertex
100
AcDbPolygonMeshVertex
 10
83.33151057461535
 20
118.5614017724353
 30
0.0
 70
    64
  0
VERTEX
  5
628
330
618
100
AcDbEntity
  8
BASE
  6
Continuous
100
AcDbVertex
100
AcDbPolygonMeshVertex
 10
83.35091161444537
 20
118.5479304563884
 30
0.0
 70
    64
  0
VERTEX
  5
629
330
618
100
AcDbEntity
  8
BASE
  6
Continuous
100
AcDbVertex
100
AcDbPolygonMeshVertex
 10
83.37031265427544
 20
118.5344591403417
 30
0.0
 70
    64
  0
VERTEX
  5
62A
330
618
100
AcDbEntity
  8
BASE
  6
Continuous
100
AcDbVertex
100
AcDbPolygonMeshVertex
 10
83.38971369410552
 20
118.5209878242949
 30
0.0
 70
    64
  0
VERTEX
  5
62B
330
618
100
AcDbEntity
  8
BASE
  6
Continuous
100
AcDbVertex
100
AcDbPolygonMeshVertex
 10
83.40911473393555
 20
118.5075165082481
 30
0.0
 70
    64
  0
VERTEX
  5
62C
330
618
100
AcDbEntity
  8
BASE
  6
Continuous
100
AcDbVertex
100
AcDbPolygonMeshVertex
 10
83.42851577376563
 20
118.4940451922013
 30
0.0
 70
    64
  0
VERTEX
  5
62D
330
618
100
AcDbEntity
  8
BASE
  6
Continuous
100
AcDbVertex
100
AcDbPolygonMeshVertex
 10
83.4479168135957
 20
118.4805738761545
 30
0.0
 70
    64
  0
VERTEX
  5
62E
330
618
100
AcDbEntity
  8
BASE
  6
Continuous
100
AcDbVertex
100
AcDbPolygonMeshVertex
 10
83.46731785342573
 20
118.4671025601077
 30
0.0
 70
    64
  0
VERTEX
  5
62F
330
618
100
AcDbEntity
  8
BASE
  6
Continuous
100
AcDbVertex
100
AcDbPolygonMeshVertex
 10
83.48671889325576
 20
118.453631244061
 30
0.0
 70
    64
  0
VERTEX
  5
630
330
618
100
AcDbEntity
  8
BASE
  6
Continuous
100
AcDbVertex
100
AcDbPolygonMeshVertex
 10
83.50611993308588
 20
118.4401599280142
 30
0.0
 70
    64
  0
VERTEX
  5
631
330
618
100
AcDbEntity
  8
BASE
  6
Continuous
100
AcDbVertex
100
AcDbPolygonMeshVertex
 10
83.5255209729159
 20
118.4266886119673
 30
0.0
 70
    64
  0
VERTEX
  5
632
330
618
100
AcDbEntity
  8
BASE
  6
Continuous
100
AcDbVertex
100
AcDbPolygonMeshVertex
 10
83.54492201274593
 20
118.4132172959206
 30
0.0
 70
    64
  0
VERTEX
  5
633
330
618
100
AcDbEntity
  8
BASE
  6
Continuous
100
AcDbVertex
100
AcDbPolygonMeshVertex
 10
83.56432305257602
 20
118.3997459798738
 30
0.0
 70
    64
  0
VERTEX
  5
634
330
618
100
AcDbEntity
  8
BASE
  6
Continuous
100
AcDbVertex
100
AcDbPolygonMeshVertex
 10
83.58372409240606
 20
118.386274663827
 30
0.0
 70
    64
  0
VERTEX
  5
635
330
618
100
AcDbEntity
  8
BASE
  6
Continuous
100
AcDbVertex
100
AcDbPolygonMeshVertex
 10
83.60312513223609
 20
118.3728033477802
 30
0.0
 70
    64
  0
VERTEX
  5
636
330
618
100
AcDbEntity
  8
BASE
  6
Continuous
100
AcDbVertex
100
AcDbPolygonMeshVertex
 10
83.62252617206616
 20
118.3593320317334
 30
0.0
 70
    64
  0
VERTEX
  5
637
330
618
100
AcDbEntity
  8
BASE
  6
Continuous
100
AcDbVertex
100
AcDbPolygonMeshVertex
 10
83.64192721189624
 20
118.3458607156866
 30
0.0
 70
    64
  0
VERTEX
  5
638
330
618
100
AcDbEntity
  8
BASE
  6
Continuous
100
AcDbVertex
100
AcDbPolygonMeshVertex
 10
83.66132825172627
 20
118.3323893996399
 30
0.0
 70
    64
  0
VERTEX
  5
639
330
618
100
AcDbEntity
  8
BASE
  6
Continuous
100
AcDbVertex
100
AcDbPolygonMeshVertex
 10
83.6807292915563
 20
118.318918083593
 30
0.0
 70
    64
  0
VERTEX
  5
63A
330
618
100
AcDbEntity
  8
BASE
  6
Continuous
100
AcDbVertex
100
AcDbPolygonMeshVertex
 10
83.70013033138638
 20
118.3054467675463
 30
0.0
 70
    64
  0
VERTEX
  5
63B
330
618
100
AcDbEntity
  8
BASE
  6
Continuous
100
AcDbVertex
100
AcDbPolygonMeshVertex
 10
83.71953137121645
 20
118.2919754514995
 30
0.0
 70
    64
  0
VERTEX
  5
63C
330
618
100
AcDbEntity
  8
BASE
  6
Continuous
100
AcDbVertex
100
AcDbPolygonMeshVertex
 10
83.73893241104648
 20
118.2785041354527
 30
0.0
 70
    64
  0
VERTEX
  5
63D
330
618
100
AcDbEntity
  8
BASE
  6
Continuous
100
AcDbVertex
100
AcDbPolygonMeshVertex
 10
83.75833345087654
 20
118.2650328194059
 30
0.0
 70
    64
  0
VERTEX
  5
63E
330
618
100
AcDbEntity
  8
BASE
  6
Continuous
100
AcDbVertex
100
AcDbPolygonMeshVertex
 10
83.77773449070662
 20
118.2515615033591
 30
0.0
 70
    64
  0
VERTEX
  5
63F
330
618
100
AcDbEntity
  8
BASE
  6
Continuous
100
AcDbVertex
100
AcDbPolygonMeshVertex
 10
83.79713553053665
 20
118.2380901873123
 30
0.0
 70
    64
  0
VERTEX
  5
640
330
618
100
AcDbEntity
  8
BASE
  6
Continuous
100
AcDbVertex
100
AcDbPolygonMeshVertex
 10
83.81653657036668
 20
118.2246188712655
 30
0.0
 70
    64
  0
VERTEX
  5
641
330
618
100
AcDbEntity
  8
BASE
  6
Continuous
100
AcDbVertex
100
AcDbPolygonMeshVertex
 10
83.83593761019676
 20
118.2111475552187
 30
0.0
 70
    64
  0
VERTEX
  5
642
330
618
100
AcDbEntity
  8
BASE
  6
Continuous
100
AcDbVertex
100
AcDbPolygonMeshVertex
 10
83.85533865002683
 20
118.1976762391719
 30
0.0
 70
    64
  0
VERTEX
  5
643
330
618
100
AcDbEntity
  8
BASE
  6
Continuous
100
AcDbVertex
100
AcDbPolygonMeshVertex
 10
83.87473968985686
 20
118.1842049231252
 30
0.0
 70
    64
  0
VERTEX
  5
644
330
618
100
AcDbEntity
  8
BASE
  6
Continuous
100
AcDbVertex
100
AcDbPolygonMeshVertex
 10
83.89414072968691
 20
118.1707336070784
 30
0.0
 70
    64
  0
VERTEX
  5
645
330
618
100
AcDbEntity
  8
BASE
  6
Continuous
100
AcDbVertex
100
AcDbPolygonMeshVertex
 10
83.91354176951699
 20
118.1572622910316
 30
0.0
 70
    64
  0
VERTEX
  5
646
330
618
100
AcDbEntity
  8
BASE
  6
Continuous
100
AcDbVertex
100
AcDbPolygonMeshVertex
 10
83.93294280934702
 20
118.1437909749848
 30
0.0
 70
    64
  0
VERTEX
  5
647
330
618
100
AcDbEntity
  8
BASE
  6
Continuous
100
AcDbVertex
100
AcDbPolygonMeshVertex
 10
83.95234384917705
 20
118.130319658938
 30
0.0
 70
    64
  0
VERTEX
  5
648
330
618
100
AcDbEntity
  8
BASE
  6
Continuous
100
AcDbVertex
100
AcDbPolygonMeshVertex
 10
83.97174488900715
 20
118.1168483428912
 30
0.0
 70
    64
  0
VERTEX
  5
649
330
618
100
AcDbEntity
  8
BASE
  6
Continuous
100
AcDbVertex
100
AcDbPolygonMeshVertex
 10
83.99114592883719
 20
118.1033770268445
 30
0.0
 70
    64
  0
VERTEX
  5
64A
330
618
100
AcDbEntity
  8
BASE
  6
Continuous
100
AcDbVertex
100
AcDbPolygonMeshVertex
 10
84.01054696866722
 20
118.0899057107976
 30
0.0
 70
    64
  0
VERTEX
  5
64B
330
618
100
AcDbEntity
  8
BASE
  6
Continuous
100
AcDbVertex
100
AcDbPolygonMeshVertex
 10
84.02994800849729
 20
118.0764343947509
 30
0.0
 70
    64
  0
VERTEX
  5
64C
330
618
100
AcDbEntity
  8
BASE
  6
Continuous
100
AcDbVertex
100
AcDbPolygonMeshVertex
 10
84.04934904832737
 20
118.0629630787041
 30
0.0
 70
    64
  0
VERTEX
  5
64D
330
618
100
AcDbEntity
  8
BASE
  6
Continuous
100
AcDbVertex
100
AcDbPolygonMeshVertex
 10
84.0687500881574
 20
118.0494917626573
 30
0.0
 70
    64
  0
VERTEX
  5
64E
330
618
100
AcDbEntity
  8
BASE
  6
Continuous
100
AcDbVertex
100
AcDbPolygonMeshVertex
 10
84.08815112798743
 20
118.0360204466105
 30
0.0
 70
    64
  0
VERTEX
  5
64F
330
618
100
AcDbEntity
  8
BASE
  6
Continuous
100
AcDbVertex
100
AcDbPolygonMeshVertex
 10
84.10755216781755
 20
118.0225491305637
 30
0.0
 70
    64
  0
VERTEX
  5
650
330
618
100
AcDbEntity
  8
BASE
  6
Continuous
100
AcDbVertex
100
AcDbPolygonMeshVertex
 10
84.12695320764758
 20
118.0090778145169
 30
0.0
 70
    64
  0
VERTEX
  5
651
330
618
100
AcDbEntity
  8
BASE
  6
Continuous
100
AcDbVertex
100
AcDbPolygonMeshVertex
 10
84.14635424747761
 20
117.9956064984701
 30
0.0
 70
    64
  0
VERTEX
  5
652
330
618
100
AcDbEntity
  8
BASE
  6
Continuous
100
AcDbVertex
100
AcDbPolygonMeshVertex
 10
84.16575528730765
 20
117.9821351824233
 30
0.0
 70
    64
  0
VERTEX
  5
653
330
618
100
AcDbEntity
  8
BASE
  6
Continuous
100
AcDbVertex
100
AcDbPolygonMeshVertex
 10
84.18515632713775
 20
117.9686638663765
 30
0.0
 70
    64
  0
VERTEX
  5
654
330
618
100
AcDbEntity
  8
BASE
  6
Continuous
100
AcDbVertex
100
AcDbPolygonMeshVertex
 10
84.20455736696778
 20
117.9551925503298
 30
0.0
 70
    64
  0
VERTEX
  5
655
330
618
100
AcDbEntity
  8
BASE
  6
Continuous
100
AcDbVertex
100
AcDbPolygonMeshVertex
 10
84.22395840679786
 20
117.941721234283
 30
0.0
 70
    64
  0
VERTEX
  5
656
330
618
100
AcDbEntity
  8
BASE
  6
Continuous
100
AcDbVertex
100
AcDbPolygonMeshVertex
 10
84.24335944662791
 20
117.9282499182361
 30
0.0
 70
    64
  0
VERTEX
  5
657
330
618
100
AcDbEntity
  8
BASE
  6
Continuous
100
AcDbVertex
100
AcDbPolygonMeshVertex
 10
84.26276048645794
 20
117.9147786021894
 30
0.0
 70
    64
  0
VERTEX
  5
658
330
618
100
AcDbEntity
  8
BASE
  6
Continuous
100
AcDbVertex
100
AcDbPolygonMeshVertex
 10
84.28216152628797
 20
117.9013072861426
 30
0.0
 70
    64
  0
VERTEX
  5
659
330
618
100
AcDbEntity
  8
BASE
  6
Continuous
100
AcDbVertex
100
AcDbPolygonMeshVertex
 10
84.30156256611804
 20
117.8878359700958
 30
0.0
 70
    64
  0
VERTEX
  5
65A
330
618
100
AcDbEntity
  8
BASE
  6
Continuous
100
AcDbVertex
100
AcDbPolygonMeshVertex
 10
84.32096360594812
 20
117.8743646540491
 30
0.0
 70
    64
  0
VERTEX
  5
65B
330
618
100
AcDbEntity
  8
BASE
  6
Continuous
100
AcDbVertex
100
AcDbPolygonMeshVertex
 10
84.34036464577815
 20
117.8608933380022
 30
0.0
 70
    64
  0
VERTEX
  5
65C
330
618
100
AcDbEntity
  8
BASE
  6
Continuous
100
AcDbVertex
100
AcDbPolygonMeshVertex
 10
84.35976568560823
 20
117.8474220219554
 30
0.0
 70
    64
  0
VERTEX
  5
65D
330
618
100
AcDbEntity
  8
BASE
  6
Continuous
100
AcDbVertex
100
AcDbPolygonMeshVertex
 10
84.37916672543829
 20
117.8339507059087
 30
0.0
 70
    64
  0
VERTEX
  5
65E
330
618
100
AcDbEntity
  8
BASE
  6
Continuous
100
AcDbVertex
100
AcDbPolygonMeshVertex
 10
84.39856776526832
 20
117.8204793898619
 30
0.0
 70
    64
  0
VERTEX
  5
65F
330
618
100
AcDbEntity
  8
BASE
  6
Continuous
100
AcDbVertex
100
AcDbPolygonMeshVertex
 10
84.41796880509835
 20
117.8070080738151
 30
0.0
 70
    64
  0
VERTEX
  5
660
330
618
100
AcDbEntity
  8
BASE
  6
Continuous
100
AcDbVertex
100
AcDbPolygonMeshVertex
 10
84.43736984492842
 20
117.7935367577683
 30
0.0
 70
    64
  0
VERTEX
  5
661
330
618
100
AcDbEntity
  8
BASE
  6
Continuous
100
AcDbVertex
100
AcDbPolygonMeshVertex
 10
84.4567708847585
 20
117.7800654417215
 30
0.0
 70
    64
  0
VERTEX
  5
662
330
618
100
AcDbEntity
  8
BASE
  6
Continuous
100
AcDbVertex
100
AcDbPolygonMeshVertex
 10
84.47617192458853
 20
117.7665941256747
 30
0.0
 70
    64
  0
VERTEX
  5
663
330
618
100
AcDbEntity
  8
BASE
  6
Continuous
100
AcDbVertex
100
AcDbPolygonMeshVertex
 10
84.49557296441861
 20
117.7531228096279
 30
0.0
 70
    64
  0
VERTEX
  5
664
330
618
100
AcDbEntity
  8
BASE
  6
Continuous
100
AcDbVertex
100
AcDbPolygonMeshVertex
 10
84.51497400424868
 20
117.7396514935811
 30
0.0
 70
    64
  0
VERTEX
  5
665
330
618
100
AcDbEntity
  8
BASE
  6
Continuous
100
AcDbVertex
100
AcDbPolygonMeshVertex
 10
84.53437504407871
 20
117.7261801775344
 30
0.0
 70
    64
  0
VERTEX
  5
666
330
618
100
AcDbEntity
  8
BASE
  6
Continuous
100
AcDbVertex
100
AcDbPolygonMeshVertex
 10
84.55377608390874
 20
117.7127088614876
 30
0.0
 70
    64
  0
VERTEX
  5
667
330
618
100
AcDbEntity
  8
BASE
  6
Continuous
100
AcDbVertex
100
AcDbPolygonMeshVertex
 10
84.57317712373878
 20
117.6992375454407
 30
0.0
 70
    64
  0
VERTEX
  5
668
330
618
100
AcDbEntity
  8
BASE
  6
Continuous
100
AcDbVertex
100
AcDbPolygonMeshVertex
 10
84.59257816356887
 20
117.685766229394
 30
0.0
 70
    64
  0
VERTEX
  5
669
330
618
100
AcDbEntity
  8
BASE
  6
Continuous
100
AcDbVertex
100
AcDbPolygonMeshVertex
 10
84.61197920339889
 20
117.6722949133472
 30
0.0
 70
    64
  0
VERTEX
  5
66A
330
618
100
AcDbEntity
  8
BASE
  6
Continuous
100
AcDbVertex
100
AcDbPolygonMeshVertex
 10
84.63138024322899
 20
117.6588235973004
 30
0.0
 70
    64
  0
VERTEX
  5
66B
330
618
100
AcDbEntity
  8
BASE
  6
Continuous
100
AcDbVertex
100
AcDbPolygonMeshVertex
 10
84.65078128305904
 20
117.6453522812536
 30
0.0
 70
    64
  0
VERTEX
  5
66C
330
618
100
AcDbEntity
  8
BASE
  6
Continuous
100
AcDbVertex
100
AcDbPolygonMeshVertex
 10
84.67018232288907
 20
117.6318809652068
 30
0.0
 70
    64
  0
VERTEX
  5
66D
330
618
100
AcDbEntity
  8
BASE
  6
Continuous
100
AcDbVertex
100
AcDbPolygonMeshVertex
 10
84.6895833627191
 20
117.61840964916
 30
0.0
 70
    64
  0
VERTEX
  5
66E
330
618
100
AcDbEntity
  8
BASE
  6
Continuous
100
AcDbVertex
100
AcDbPolygonMeshVertex
 10
84.70898440254922
 20
117.6049383331132
 30
0.0
 70
    64
  0
VERTEX
  5
66F
330
618
100
AcDbEntity
  8
BASE
  6
Continuous
100
AcDbVertex
100
AcDbPolygonMeshVertex
 10
84.72838544237925
 20
117.5914670170664
 30
0.0
 70
    64
  0
VERTEX
  5
670
330
618
100
AcDbEntity
  8
BASE
  6
Continuous
100
AcDbVertex
100
AcDbPolygonMeshVertex
 10
84.74778648220928
 20
117.5779957010196
 30
0.0
 70
    64
  0
VERTEX
  5
671
330
618
100
AcDbEntity
  8
BASE
  6
Continuous
100
AcDbVertex
100
AcDbPolygonMeshVertex
 10
84.76718752203936
 20
117.5645243849729
 30
0.0
 70
    64
  0
VERTEX
  5
672
330
618
100
AcDbEntity
  8
BASE
  6
Continuous
100
AcDbVertex
100
AcDbPolygonMeshVertex
 10
84.78658856186942
 20
117.5510530689261
 30
0.0
 70
    64
  0
VERTEX
  5
673
330
618
100
AcDbEntity
  8
BASE
  6
Continuous
100
AcDbVertex
100
AcDbPolygonMeshVertex
 10
84.80598960169945
 20
117.5375817528793
 30
0.0
 70
    64
  0
VERTEX
  5
674
330
618
100
AcDbEntity
  8
BASE
  6
Continuous
100
AcDbVertex
100
AcDbPolygonMeshVertex
 10
84.8253906415295
 20
117.5241104368325
 30
0.0
 70
    64
  0
VERTEX
  5
675
330
618
100
AcDbEntity
  8
BASE
  6
Continuous
100
AcDbVertex
100
AcDbPolygonMeshVertex
 10
84.8447916813596
 20
117.5106391207857
 30
0.0
 70
    64
  0
VERTEX
  5
676
330
618
100
AcDbEntity
  8
BASE
  6
Continuous
100
AcDbVertex
100
AcDbPolygonMeshVertex
 10
84.86419272118963
 20
117.4971678047389
 30
0.0
 70
    64
  0
VERTEX
  5
677
330
618
100
AcDbEntity
  8
BASE
  6
Continuous
100
AcDbVertex
100
AcDbPolygonMeshVertex
 10
84.88359376101966
 20
117.4836964886922
 30
0.0
 70
    64
  0
VERTEX
  5
678
330
618
100
AcDbEntity
  8
BASE
  6
Continuous
100
AcDbVertex
100
AcDbPolygonMeshVertex
 10
84.90299480084974
 20
117.4702251726453
 30
0.0
 70
    64
  0
VERTEX
  5
679
330
618
100
AcDbEntity
  8
BASE
  6
Continuous
100
AcDbVertex
100
AcDbPolygonMeshVertex
 10
84.92239584067979
 20
117.4567538565986
 30
0.0
 70
    64
  0
VERTEX
  5
67A
330
618
100
AcDbEntity
  8
BASE
  6
Continuous
100
AcDbVertex
100
AcDbPolygonMeshVertex
 10
84.94179688050982
 20
117.4432825405518
 30
0.0
 70
    64
  0
VERTEX
  5
67B
330
618
100
AcDbEntity
  8
BASE
  6
Continuous
100
AcDbVertex
100
AcDbPolygonMeshVertex
 10
84.96119792033988
 20
117.429811224505
 30
0.0
 70
    64
  0
VERTEX
  5
67C
330
618
100
AcDbEntity
  8
BASE
  6
Continuous
100
AcDbVertex
100
AcDbPolygonMeshVertex
 10
84.98059896016997
 20
117.4163399084582
 30
0.0
 70
    64
  0
VERTEX
  5
67D
330
618
100
AcDbEntity
  8
BASE
  6
Continuous
100
AcDbVertex
100
AcDbPolygonMeshVertex
 10
85.0
 20
117.4028685924114
 30
0.0
 70
    64
  0
VERTEX
  5
67E
330
618
100
AcDbEntity
  8
BASE
  6
Continuous
100
AcDbVertex
100
AcDbPolygonMeshVertex
 10
83.0598960169946
 20
118.7500001970903
 30
0.0
 70
    64
  0
VERTEX
  5
67F
330
618
100
AcDbEntity
  8
BASE
  6
Continuous
100
AcDbVertex
100
AcDbPolygonMeshVertex
 10
83.07929705682463
 20
118.7636017279671
 30
0.0
 70
    64
  0
VERTEX
  5
680
330
618
100
AcDbEntity
  8
BASE
  6
Continuous
100
AcDbVertex
100
AcDbPolygonMeshVertex
 10
83.09869809665469
 20
118.7772032588438
 30
0.0
 70
    64
  0
VERTEX
  5
681
330
618
100
AcDbEntity
  8
BASE
  6
Continuous
100
AcDbVertex
100
AcDbPolygonMeshVertex
 10
83.11809913648477
 20
118.7908047897206
 30
0.0
 70
    64
  0
VERTEX
  5
682
330
618
100
AcDbEntity
  8
BASE
  6
Continuous
100
AcDbVertex
100
AcDbPolygonMeshVertex
 10
83.1375001763148
 20
118.8044063205973
 30
0.0
 70
    64
  0
VERTEX
  5
683
330
618
100
AcDbEntity
  8
BASE
  6
Continuous
100
AcDbVertex
100
AcDbPolygonMeshVertex
 10
83.15690121614489
 20
118.8180078514742
 30
0.0
 70
    64
  0
VERTEX
  5
684
330
618
100
AcDbEntity
  8
BASE
  6
Continuous
100
AcDbVertex
100
AcDbPolygonMeshVertex
 10
83.17630225597495
 20
118.8316093823509
 30
0.0
 70
    64
  0
VERTEX
  5
685
330
618
100
AcDbEntity
  8
BASE
  6
Continuous
100
AcDbVertex
100
AcDbPolygonMeshVertex
 10
83.19570329580498
 20
118.8452109132277
 30
0.0
 70
    64
  0
VERTEX
  5
686
330
618
100
AcDbEntity
  8
BASE
  6
Continuous
100
AcDbVertex
100
AcDbPolygonMeshVertex
 10
83.21510433563501
 20
118.8588124441045
 30
0.0
 70
    64
  0
VERTEX
  5
687
330
618
100
AcDbEntity
  8
BASE
  6
Continuous
100
AcDbVertex
100
AcDbPolygonMeshVertex
 10
83.23450537546506
 20
118.8724139749812
 30
0.0
 70
    64
  0
VERTEX
  5
688
330
618
100
AcDbEntity
  8
BASE
  6
Continuous
100
AcDbVertex
100
AcDbPolygonMeshVertex
 10
83.25390641529514
 20
118.886015505858
 30
0.0
 70
    64
  0
VERTEX
  5
689
330
618
100
AcDbEntity
  8
BASE
  6
Continuous
100
AcDbVertex
100
AcDbPolygonMeshVertex
 10
83.27330745512517
 20
118.8996170367348
 30
0.0
 70
    64
  0
VERTEX
  5
68A
330
618
100
AcDbEntity
  8
BASE
  6
Continuous
100
AcDbVertex
100
AcDbPolygonMeshVertex
 10
83.29270849495527
 20
118.9132185676115
 30
0.0
 70
    64
  0
VERTEX
  5
68B
330
618
100
AcDbEntity
  8
BASE
  6
Continuous
100
AcDbVertex
100
AcDbPolygonMeshVertex
 10
83.31210953478532
 20
118.9268200984883
 30
0.0
 70
    64
  0
VERTEX
  5
68C
330
618
100
AcDbEntity
  8
BASE
  6
Continuous
100
AcDbVertex
100
AcDbPolygonMeshVertex
 10
83.33151057461535
 20
118.9404216293651
 30
0.0
 70
    64
  0
VERTEX
  5
68D
330
618
100
AcDbEntity
  8
BASE
  6
Continuous
100
AcDbVertex
100
AcDbPolygonMeshVertex
 10
83.35091161444537
 20
118.9540231602418
 30
0.0
 70
    64
  0
VERTEX
  5
68E
330
618
100
AcDbEntity
  8
BASE
  6
Continuous
100
AcDbVertex
100
AcDbPolygonMeshVertex
 10
83.37031265427549
 20
118.9676246911186
 30
0.0
 70
    64
  0
VERTEX
  5
68F
330
618
100
AcDbEntity
  8
BASE
  6
Continuous
100
AcDbVertex
100
AcDbPolygonMeshVertex
 10
83.38971369410552
 20
118.9812262219953
 30
0.0
 70
    64
  0
VERTEX
  5
690
330
618
100
AcDbEntity
  8
BASE
  6
Continuous
100
AcDbVertex
100
AcDbPolygonMeshVertex
 10
83.40911473393555
 20
118.9948277528721
 30
0.0
 70
    64
  0
VERTEX
  5
691
330
618
100
AcDbEntity
  8
BASE
  6
Continuous
100
AcDbVertex
100
AcDbPolygonMeshVertex
 10
83.42851577376563
 20
119.0084292837489
 30
0.0
 70
    64
  0
VERTEX
  5
692
330
618
100
AcDbEntity
  8
BASE
  6
Continuous
100
AcDbVertex
100
AcDbPolygonMeshVertex
 10
83.4479168135957
 20
119.0220308146256
 30
0.0
 70
    64
  0
VERTEX
  5
693
330
618
100
AcDbEntity
  8
BASE
  6
Continuous
100
AcDbVertex
100
AcDbPolygonMeshVertex
 10
83.46731785342573
 20
119.0356323455024
 30
0.0
 70
    64
  0
VERTEX
  5
694
330
618
100
AcDbEntity
  8
BASE
  6
Continuous
100
AcDbVertex
100
AcDbPolygonMeshVertex
 10
83.48671889325578
 20
119.0492338763792
 30
0.0
 70
    64
  0
VERTEX
  5
695
330
618
100
AcDbEntity
  8
BASE
  6
Continuous
100
AcDbVertex
100
AcDbPolygonMeshVertex
 10
83.50611993308588
 20
119.0628354072559
 30
0.0
 70
    64
  0
VERTEX
  5
696
330
618
100
AcDbEntity
  8
BASE
  6
Continuous
100
AcDbVertex
100
AcDbPolygonMeshVertex
 10
83.5255209729159
 20
119.0764369381327
 30
0.0
 70
    64
  0
VERTEX
  5
697
330
618
100
AcDbEntity
  8
BASE
  6
Continuous
100
AcDbVertex
100
AcDbPolygonMeshVertex
 10
83.54492201274593
 20
119.0900384690095
 30
0.0
 70
    64
  0
VERTEX
  5
698
330
618
100
AcDbEntity
  8
BASE
  6
Continuous
100
AcDbVertex
100
AcDbPolygonMeshVertex
 10
83.56432305257602
 20
119.1036399998862
 30
0.0
 70
    64
  0
VERTEX
  5
699
330
618
100
AcDbEntity
  8
BASE
  6
Continuous
100
AcDbVertex
100
AcDbPolygonMeshVertex
 10
83.58372409240606
 20
119.117241530763
 30
0.0
 70
    64
  0
VERTEX
  5
69A
330
618
100
AcDbEntity
  8
BASE
  6
Continuous
100
AcDbVertex
100
AcDbPolygonMeshVertex
 10
83.60312513223609
 20
119.1308430616398
 30
0.0
 70
    64
  0
VERTEX
  5
69B
330
618
100
AcDbEntity
  8
BASE
  6
Continuous
100
AcDbVertex
100
AcDbPolygonMeshVertex
 10
83.62252617206616
 20
119.1444445925166
 30
0.0
 70
    64
  0
VERTEX
  5
69C
330
618
100
AcDbEntity
  8
BASE
  6
Continuous
100
AcDbVertex
100
AcDbPolygonMeshVertex
 10
83.64192721189624
 20
119.1580461233933
 30
0.0
 70
    64
  0
VERTEX
  5
69D
330
618
100
AcDbEntity
  8
BASE
  6
Continuous
100
AcDbVertex
100
AcDbPolygonMeshVertex
 10
83.66132825172627
 20
119.1716476542701
 30
0.0
 70
    64
  0
VERTEX
  5
69E
330
618
100
AcDbEntity
  8
BASE
  6
Continuous
100
AcDbVertex
100
AcDbPolygonMeshVertex
 10
83.6807292915563
 20
119.1852491851469
 30
0.0
 70
    64
  0
VERTEX
  5
69F
330
618
100
AcDbEntity
  8
BASE
  6
Continuous
100
AcDbVertex
100
AcDbPolygonMeshVertex
 10
83.70013033138638
 20
119.1988507160236
 30
0.0
 70
    64
  0
VERTEX
  5
6A0
330
618
100
AcDbEntity
  8
BASE
  6
Continuous
100
AcDbVertex
100
AcDbPolygonMeshVertex
 10
83.71953137121645
 20
119.2124522469004
 30
0.0
 70
    64
  0
VERTEX
  5
6A1
330
618
100
AcDbEntity
  8
BASE
  6
Continuous
100
AcDbVertex
100
AcDbPolygonMeshVertex
 10
83.73893241104648
 20
119.2260537777771
 30
0.0
 70
    64
  0
VERTEX
  5
6A2
330
618
100
AcDbEntity
  8
BASE
  6
Continuous
100
AcDbVertex
100
AcDbPolygonMeshVertex
 10
83.75833345087654
 20
119.2396553086539
 30
0.0
 70
    64
  0
VERTEX
  5
6A3
330
618
100
AcDbEntity
  8
BASE
  6
Continuous
100
AcDbVertex
100
AcDbPolygonMeshVertex
 10
83.77773449070662
 20
119.2532568395307
 30
0.0
 70
    64
  0
VERTEX
  5
6A4
330
618
100
AcDbEntity
  8
BASE
  6
Continuous
100
AcDbVertex
100
AcDbPolygonMeshVertex
 10
83.79713553053665
 20
119.2668583704074
 30
0.0
 70
    64
  0
VERTEX
  5
6A5
330
618
100
AcDbEntity
  8
BASE
  6
Continuous
100
AcDbVertex
100
AcDbPolygonMeshVertex
 10
83.81653657036668
 20
119.2804599012842
 30
0.0
 70
    64
  0
VERTEX
  5
6A6
330
618
100
AcDbEntity
  8
BASE
  6
Continuous
100
AcDbVertex
100
AcDbPolygonMeshVertex
 10
83.83593761019676
 20
119.294061432161
 30
0.0
 70
    64
  0
VERTEX
  5
6A7
330
618
100
AcDbEntity
  8
BASE
  6
Continuous
100
AcDbVertex
100
AcDbPolygonMeshVertex
 10
83.85533865002683
 20
119.3076629630377
 30
0.0
 70
    64
  0
VERTEX
  5
6A8
330
618
100
AcDbEntity
  8
BASE
  6
Continuous
100
AcDbVertex
100
AcDbPolygonMeshVertex
 10
83.87473968985686
 20
119.3212644939145
 30
0.0
 70
    64
  0
VERTEX
  5
6A9
330
618
100
AcDbEntity
  8
BASE
  6
Continuous
100
AcDbVertex
100
AcDbPolygonMeshVertex
 10
83.89414072968691
 20
119.3348660247913
 30
0.0
 70
    64
  0
VERTEX
  5
6AA
330
618
100
AcDbEntity
  8
BASE
  6
Continuous
100
AcDbVertex
100
AcDbPolygonMeshVertex
 10
83.91354176951699
 20
119.3484675556681
 30
0.0
 70
    64
  0
VERTEX
  5
6AB
330
618
100
AcDbEntity
  8
BASE
  6
Continuous
100
AcDbVertex
100
AcDbPolygonMeshVertex
 10
83.93294280934702
 20
119.3620690865448
 30
0.0
 70
    64
  0
VERTEX
  5
6AC
330
618
100
AcDbEntity
  8
BASE
  6
Continuous
100
AcDbVertex
100
AcDbPolygonMeshVertex
 10
83.95234384917705
 20
119.3756706174216
 30
0.0
 70
    64
  0
VERTEX
  5
6AD
330
618
100
AcDbEntity
  8
BASE
  6
Continuous
100
AcDbVertex
100
AcDbPolygonMeshVertex
 10
83.97174488900716
 20
119.3892721482983
 30
0.0
 70
    64
  0
VERTEX
  5
6AE
330
618
100
AcDbEntity
  8
BASE
  6
Continuous
100
AcDbVertex
100
AcDbPolygonMeshVertex
 10
83.99114592883719
 20
119.4028736791751
 30
0.0
 70
    64
  0
VERTEX
  5
6AF
330
618
100
AcDbEntity
  8
BASE
  6
Continuous
100
AcDbVertex
100
AcDbPolygonMeshVertex
 10
84.01054696866722
 20
119.4164752100519
 30
0.0
 70
    64
  0
VERTEX
  5
6B0
330
618
100
AcDbEntity
  8
BASE
  6
Continuous
100
AcDbVertex
100
AcDbPolygonMeshVertex
 10
84.02994800849729
 20
119.4300767409286
 30
0.0
 70
    64
  0
VERTEX
  5
6B1
330
618
100
AcDbEntity
  8
BASE
  6
Continuous
100
AcDbVertex
100
AcDbPolygonMeshVertex
 10
84.04934904832737
 20
119.4436782718054
 30
0.0
 70
    64
  0
VERTEX
  5
6B2
330
618
100
AcDbEntity
  8
BASE
  6
Continuous
100
AcDbVertex
100
AcDbPolygonMeshVertex
 10
84.0687500881574
 20
119.4572798026822
 30
0.0
 70
    64
  0
VERTEX
  5
6B3
330
618
100
AcDbEntity
  8
BASE
  6
Continuous
100
AcDbVertex
100
AcDbPolygonMeshVertex
 10
84.08815112798743
 20
119.4708813335589
 30
0.0
 70
    64
  0
VERTEX
  5
6B4
330
618
100
AcDbEntity
  8
BASE
  6
Continuous
100
AcDbVertex
100
AcDbPolygonMeshVertex
 10
84.10755216781755
 20
119.4844828644358
 30
0.0
 70
    64
  0
VERTEX
  5
6B5
330
618
100
AcDbEntity
  8
BASE
  6
Continuous
100
AcDbVertex
100
AcDbPolygonMeshVertex
 10
84.12695320764758
 20
119.4980843953125
 30
0.0
 70
    64
  0
VERTEX
  5
6B6
330
618
100
AcDbEntity
  8
BASE
  6
Continuous
100
AcDbVertex
100
AcDbPolygonMeshVertex
 10
84.14635424747761
 20
119.5116859261893
 30
0.0
 70
    64
  0
VERTEX
  5
6B7
330
618
100
AcDbEntity
  8
BASE
  6
Continuous
100
AcDbVertex
100
AcDbPolygonMeshVertex
 10
84.16575528730765
 20
119.525287457066
 30
0.0
 70
    64
  0
VERTEX
  5
6B8
330
618
100
AcDbEntity
  8
BASE
  6
Continuous
100
AcDbVertex
100
AcDbPolygonMeshVertex
 10
84.18515632713775
 20
119.5388889879428
 30
0.0
 70
    64
  0
VERTEX
  5
6B9
330
618
100
AcDbEntity
  8
BASE
  6
Continuous
100
AcDbVertex
100
AcDbPolygonMeshVertex
 10
84.20455736696778
 20
119.5524905188196
 30
0.0
 70
    64
  0
VERTEX
  5
6BA
330
618
100
AcDbEntity
  8
BASE
  6
Continuous
100
AcDbVertex
100
AcDbPolygonMeshVertex
 10
84.22395840679786
 20
119.5660920496964
 30
0.0
 70
    64
  0
VERTEX
  5
6BB
330
618
100
AcDbEntity
  8
BASE
  6
Continuous
100
AcDbVertex
100
AcDbPolygonMeshVertex
 10
84.24335944662791
 20
119.5796935805731
 30
0.0
 70
    64
  0
VERTEX
  5
6BC
330
618
100
AcDbEntity
  8
BASE
  6
Continuous
100
AcDbVertex
100
AcDbPolygonMeshVertex
 10
84.26276048645794
 20
119.5932951114499
 30
0.0
 70
    64
  0
VERTEX
  5
6BD
330
618
100
AcDbEntity
  8
BASE
  6
Continuous
100
AcDbVertex
100
AcDbPolygonMeshVertex
 10
84.28216152628797
 20
119.6068966423266
 30
0.0
 70
    64
  0
VERTEX
  5
6BE
330
618
100
AcDbEntity
  8
BASE
  6
Continuous
100
AcDbVertex
100
AcDbPolygonMeshVertex
 10
84.30156256611804
 20
119.6204981732034
 30
0.0
 70
    64
  0
VERTEX
  5
6BF
330
618
100
AcDbEntity
  8
BASE
  6
Continuous
100
AcDbVertex
100
AcDbPolygonMeshVertex
 10
84.32096360594812
 20
119.6340997040802
 30
0.0
 70
    64
  0
VERTEX
  5
6C0
330
618
100
AcDbEntity
  8
BASE
  6
Continuous
100
AcDbVertex
100
AcDbPolygonMeshVertex
 10
84.34036464577815
 20
119.6477012349569
 30
0.0
 70
    64
  0
VERTEX
  5
6C1
330
618
100
AcDbEntity
  8
BASE
  6
Continuous
100
AcDbVertex
100
AcDbPolygonMeshVertex
 10
84.35976568560823
 20
119.6613027658337
 30
0.0
 70
    64
  0
VERTEX
  5
6C2
330
618
100
AcDbEntity
  8
BASE
  6
Continuous
100
AcDbVertex
100
AcDbPolygonMeshVertex
 10
84.37916672543829
 20
119.6749042967105
 30
0.0
 70
    64
  0
VERTEX
  5
6C3
330
618
100
AcDbEntity
  8
BASE
  6
Continuous
100
AcDbVertex
100
AcDbPolygonMeshVertex
 10
84.39856776526832
 20
119.6885058275872
 30
0.0
 70
    64
  0
VERTEX
  5
6C4
330
618
100
AcDbEntity
  8
BASE
  6
Continuous
100
AcDbVertex
100
AcDbPolygonMeshVertex
 10
84.41796880509835
 20
119.702107358464
 30
0.0
 70
    64
  0
VERTEX
  5
6C5
330
618
100
AcDbEntity
  8
BASE
  6
Continuous
100
AcDbVertex
100
AcDbPolygonMeshVertex
 10
84.43736984492842
 20
119.7157088893408
 30
0.0
 70
    64
  0
VERTEX
  5
6C6
330
618
100
AcDbEntity
  8
BASE
  6
Continuous
100
AcDbVertex
100
AcDbPolygonMeshVertex
 10
84.4567708847585
 20
119.7293104202175
 30
0.0
 70
    64
  0
VERTEX
  5
6C7
330
618
100
AcDbEntity
  8
BASE
  6
Continuous
100
AcDbVertex
100
AcDbPolygonMeshVertex
 10
84.47617192458853
 20
119.7429119510943
 30
0.0
 70
    64
  0
VERTEX
  5
6C8
330
618
100
AcDbEntity
  8
BASE
  6
Continuous
100
AcDbVertex
100
AcDbPolygonMeshVertex
 10
84.49557296441861
 20
119.7565134819711
 30
0.0
 70
    64
  0
VERTEX
  5
6C9
330
618
100
AcDbEntity
  8
BASE
  6
Continuous
100
AcDbVertex
100
AcDbPolygonMeshVertex
 10
84.51497400424868
 20
119.7701150128478
 30
0.0
 70
    64
  0
VERTEX
  5
6CA
330
618
100
AcDbEntity
  8
BASE
  6
Continuous
100
AcDbVertex
100
AcDbPolygonMeshVertex
 10
84.53437504407871
 20
119.7837165437246
 30
0.0
 70
    64
  0
VERTEX
  5
6CB
330
618
100
AcDbEntity
  8
BASE
  6
Continuous
100
AcDbVertex
100
AcDbPolygonMeshVertex
 10
84.55377608390874
 20
119.7973180746014
 30
0.0
 70
    64
  0
VERTEX
  5
6CC
330
618
100
AcDbEntity
  8
BASE
  6
Continuous
100
AcDbVertex
100
AcDbPolygonMeshVertex
 10
84.57317712373878
 20
119.8109196054782
 30
0.0
 70
    64
  0
VERTEX
  5
6CD
330
618
100
AcDbEntity
  8
BASE
  6
Continuous
100
AcDbVertex
100
AcDbPolygonMeshVertex
 10
84.59257816356887
 20
119.8245211363549
 30
0.0
 70
    64
  0
VERTEX
  5
6CE
330
618
100
AcDbEntity
  8
BASE
  6
Continuous
100
AcDbVertex
100
AcDbPolygonMeshVertex
 10
84.61197920339889
 20
119.8381226672317
 30
0.0
 70
    64
  0
VERTEX
  5
6CF
330
618
100
AcDbEntity
  8
BASE
  6
Continuous
100
AcDbVertex
100
AcDbPolygonMeshVertex
 10
84.63138024322899
 20
119.8517241981084
 30
0.0
 70
    64
  0
VERTEX
  5
6D0
330
618
100
AcDbEntity
  8
BASE
  6
Continuous
100
AcDbVertex
100
AcDbPolygonMeshVertex
 10
84.65078128305904
 20
119.8653257289852
 30
0.0
 70
    64
  0
VERTEX
  5
6D1
330
618
100
AcDbEntity
  8
BASE
  6
Continuous
100
AcDbVertex
100
AcDbPolygonMeshVertex
 10
84.67018232288907
 20
119.878927259862
 30
0.0
 70
    64
  0
VERTEX
  5
6D2
330
618
100
AcDbEntity
  8
BASE
  6
Continuous
100
AcDbVertex
100
AcDbPolygonMeshVertex
 10
84.6895833627191
 20
119.8925287907387
 30
0.0
 70
    64
  0
VERTEX
  5
6D3
330
618
100
AcDbEntity
  8
BASE
  6
Continuous
100
AcDbVertex
100
AcDbPolygonMeshVertex
 10
84.70898440254922
 20
119.9061303216155
 30
0.0
 70
    64
  0
VERTEX
  5
6D4
330
618
100
AcDbEntity
  8
BASE
  6
Continuous
100
AcDbVertex
100
AcDbPolygonMeshVertex
 10
84.72838544237925
 20
119.9197318524923
 30
0.0
 70
    64
  0
VERTEX
  5
6D5
330
618
100
AcDbEntity
  8
BASE
  6
Continuous
100
AcDbVertex
100
AcDbPolygonMeshVertex
 10
84.74778648220928
 20
119.933333383369
 30
0.0
 70
    64
  0
VERTEX
  5
6D6
330
618
100
AcDbEntity
  8
BASE
  6
Continuous
100
AcDbVertex
100
AcDbPolygonMeshVertex
 10
84.76718752203936
 20
119.9469349142458
 30
0.0
 70
    64
  0
VERTEX
  5
6D7
330
618
100
AcDbEntity
  8
BASE
  6
Continuous
100
AcDbVertex
100
AcDbPolygonMeshVertex
 10
84.78658856186942
 20
119.9605364451226
 30
0.0
 70
    64
  0
VERTEX
  5
6D8
330
618
100
AcDbEntity
  8
BASE
  6
Continuous
100
AcDbVertex
100
AcDbPolygonMeshVertex
 10
84.80598960169945
 20
119.9741379759993
 30
0.0
 70
    64
  0
VERTEX
  5
6D9
330
618
100
AcDbEntity
  8
BASE
  6
Continuous
100
AcDbVertex
100
AcDbPolygonMeshVertex
 10
84.82539064152948
 20
119.9877395068761
 30
0.0
 70
    64
  0
VERTEX
  5
6DA
330
618
100
AcDbEntity
  8
BASE
  6
Continuous
100
AcDbVertex
100
AcDbPolygonMeshVertex
 10
84.8447916813596
 20
120.0013410377529
 30
0.0
 70
    64
  0
VERTEX
  5
6DB
330
618
100
AcDbEntity
  8
BASE
  6
Continuous
100
AcDbVertex
100
AcDbPolygonMeshVertex
 10
84.86419272118963
 20
120.0149425686297
 30
0.0
 70
    64
  0
VERTEX
  5
6DC
330
618
100
AcDbEntity
  8
BASE
  6
Continuous
100
AcDbVertex
100
AcDbPolygonMeshVertex
 10
84.88359376101966
 20
120.0285440995064
 30
0.0
 70
    64
  0
VERTEX
  5
6DD
330
618
100
AcDbEntity
  8
BASE
  6
Continuous
100
AcDbVertex
100
AcDbPolygonMeshVertex
 10
84.90299480084974
 20
120.0421456303832
 30
0.0
 70
    64
  0
VERTEX
  5
6DE
330
618
100
AcDbEntity
  8
BASE
  6
Continuous
100
AcDbVertex
100
AcDbPolygonMeshVertex
 10
84.92239584067979
 20
120.0557471612599
 30
0.0
 70
    64
  0
VERTEX
  5
6DF
330
618
100
AcDbEntity
  8
BASE
  6
Continuous
100
AcDbVertex
100
AcDbPolygonMeshVertex
 10
84.94179688050982
 20
120.0693486921367
 30
0.0
 70
    64
  0
VERTEX
  5
6E0
330
618
100
AcDbEntity
  8
BASE
  6
Continuous
100
AcDbVertex
100
AcDbPolygonMeshVertex
 10
84.96119792033988
 20
120.0829502230135
 30
0.0
 70
    64
  0
VERTEX
  5
6E1
330
618
100
AcDbEntity
  8
BASE
  6
Continuous
100
AcDbVertex
100
AcDbPolygonMeshVertex
 10
84.98059896016997
 20
120.0965517538902
 30
0.0
 70
    64
  0
VERTEX
  5
6E2
330
618
100
AcDbEntity
  8
BASE
  6
Continuous
100
AcDbVertex
100
AcDbPolygonMeshVertex
 10
85.0
 20
120.110153284767
 30
0.0
 70
    64
  0
SEQEND
  5
6E3
330
618
100
AcDbEntity
  8
BASE
  6
Continuous
  0
LINE
  5
6E4
330
1E
100
AcDbEntity
  8
BASE
  6
Continuous
100
AcDbLine
 10
247.5
 20
205.0
 30
0.0
 11
73.75
 21
205.0
 31
0.0
  0
LINE
  5
6E5
330
1E
100
AcDbEntity
  8
BASE
  6
Continuous
100
AcDbLine
 10
247.5
 20
197.5
 30
0.0
 11
96.25
 21
197.4999999999999
 31
0.0
  0
LINE
  5
6E6
330
1E
100
AcDbEntity
  8
BASE
  6
Continuous
100
AcDbLine
 10
247.5
 20
190.0
 30
0.0
 11
77.5
 21
190.0
 31
0.0
  0
LINE
  5
6E7
330
1E
100
AcDbEntity
  8
BASE
  6
Continuous
100
AcDbLine
 10
247.5
 20
182.5
 30
0.0
 11
152.5
 21
182.5
 31
0.0
  0
LINE
  5
6E8
330
1E
100
AcDbEntity
  8
BASE
  6
Continuous
100
AcDbLine
 10
247.5
 20
175.0
 30
0.0
 11
81.25
 21
175.0
 31
0.0
  0
LINE
  5
6E9
330
1E
100
AcDbEntity
  8
BASE
  6
Continuous
100
AcDbLine
 10
235.0
 20
167.5
 30
0.0
 11
156.25
 21
167.5
 31
0.0
  0
LINE
  5
6EA
330
1E
100
AcDbEntity
  8
BASE
  6
Continuous
100
AcDbLine
 10
235.0
 20
160.0
 30
0.0
 11
85.0
 21
160.0
 31
0.0
  0
LINE
  5
6EB
330
1E
100
AcDbEntity
  8
BASE
  6
Continuous
100
AcDbLine
 10
111.25
 20
96.25
 30
0.0
 11
111.25
 21
100.0
 31
0.0
  0
LINE
  5
6EC
330
1E
100
AcDbEntity
  8
BASE
  6
Continuous
100
AcDbLine
 10
111.25
 20
100.0
 30
0.0
 11
108.6733156111356
 21
107.5224483772417
 31
0.0
  0
LINE
  5
6ED
330
1E
100
AcDbEntity
  8
BASE
  6
Continuous
100
AcDbLine
 10
111.25
 20
107.4999999999999
 30
0.0
 11
111.25
 21
160.0
 31
0.0
  0
LINE
  5
6EE
330
1E
100
AcDbEntity
  8
BASE
  6
Continuous
100
AcDbLine
 10
259.2998330941513
 20
159.8291522314481
 30
0.0
 11
255.7811848258129
 21
158.0442735083315
 31
0.0
  0
LINE
  5
6EF
330
1E
100
AcDbEntity
  8
BASE
  6
Continuous
100
AcDbLine
 10
255.7811848258129
 20
161.8321827985012
 30
0.0
 11
259.2998330941513
 21
159.8291522314481
 31
0.0
  0
LINE
  5
6F0
330
1E
100
AcDbEntity
  8
BASE
  6
Continuous
100
AcDbLine
 10
258.3170351169481
 20
161.8321827985012
 30
0.0
 11
261.8356833852865
 21
159.8291522314481
 31
0.0
  0
LINE
  5
6F1
330
1E
100
AcDbEntity
  8
BASE
  6
Continuous
100
AcDbLine
 10
261.8356833852865
 20
159.8291522314481
 30
0.0
 11
258.3170351169481
 21
158.0442735083315
 31
0.0
  0
TEXT
  5
6F2
330
1E
100
AcDbEntity
  8
BASE
  6
Continuous
100
AcDbText
 10
249.8073226925022
 20
158.7508383143011
 30
0.0
 40
3.75
  1
I
 11
249.8073226925022
 21
157.5008383143011
 31
0.0
100
AcDbText
 73
     1
  0
LINE
  5
6F3
330
1E
100
AcDbEntity
  8
BASE
  6
Continuous
100
AcDbLine
 10
275.5053162216835
 20
161.0911693749365
 30
0.0
 11
275.5053162216835
 21
158.4089722560507
 31
0.0
  0
LINE
  5
6F4
330
1E
100
AcDbEntity
  8
BASE
  6
Continuous
100
AcDbLine
 10
271.0390190532348
 20
163.2940469039722
 30
0.0
 11
272.3900342109507
 21
161.6084233314045
 31
0.0
  0
LINE
  5
6F5
330
1E
100
AcDbEntity
  8
BASE
  6
Continuous
100
AcDbLine
 10
267.40603711652
 20
158.0718475415372
 30
0.0
 11
271.7202031663688
 21
162.3146854120003
 31
0.0
  0
LINE
  5
6F6
330
1E
100
AcDbEntity
  8
BASE
  6
Continuous
100
AcDbLine
 10
263.8298205225664
 20
159.8232515462051
 30
0.0
 11
275.5121280628149
 21
159.8232515462051
 31
0.0
  0
LINE
  5
6F7
330
1E
100
AcDbEntity
  8
BASE
  6
Continuous
100
AcDbLine
 10
263.7832729415021
 20
161.0911693749365
 30
0.0
 11
263.7832729415021
 21
158.4089722560507
 31
0.0
  0
LINE
  5
6F8
330
1E
100
AcDbEntity
  8
BASE
  6
Continuous
100
AcDbLine
 10
60.87886458580107
 20
152.1135763325573
 30
0.0
 11
60.87886458580107
 21
149.4313792136715
 31
0.0
  0
LINE
  5
6F9
330
1E
100
AcDbEntity
  8
BASE
  6
Continuous
100
AcDbLine
 10
56.41256741735219
 20
154.1429026628484
 30
0.0
 11
57.76358257506808
 21
152.4572790902808
 31
0.0
  0
LINE
  5
6FA
330
1E
100
AcDbEntity
  8
BASE
  6
Continuous
100
AcDbLine
 10
52.77958548063742
 20
149.094254499158
 30
0.0
 11
57.09375153048632
 21
153.337092369621
 31
0.0
  0
LINE
  5
6FB
330
1E
100
AcDbEntity
  8
BASE
  6
Continuous
100
AcDbLine
 10
49.20336888668379
 20
150.8456585038259
 30
0.0
 11
60.88567642693226
 21
150.8456585038259
 31
0.0
  0
LINE
  5
6FC
330
1E
100
AcDbEntity
  8
BASE
  6
Continuous
100
AcDbLine
 10
49.15682130561965
 20
152.1135763325573
 30
0.0
 11
49.15682130561965
 21
149.4313792136715
 31
0.0
  0
TEXT
  5
6FD
330
1E
100
AcDbEntity
  8
BASE
  6
Continuous
100
AcDbText
 10
53.71512791981382
 20
177.3708375572887
 30
0.0
 40
2.25
  1
U1/SGF/4
 50
90.0
  7
ROMANS
100
AcDbText
  0
TEXT
  5
6FE
330
1E
100
AcDbEntity
  8
BASE
  6
Continuous
100
AcDbText
 10
43.87749910556924
 20
106.6531133522733
 30
0.0
 40
2.25
  1
U1/SGB/6
  7
ROMANS
100
AcDbText
  0
TEXT
  5
6FF
330
1E
100
AcDbEntity
  8
BASE
  6
Continuous
100
AcDbText
 10
43.87749910556924
 20
101.3988326363649
 30
0.0
 40
2.25
  1
U1/SGB/7
  7
ROMANS
100
AcDbText
  0
TEXT
  5
700
330
1E
100
AcDbEntity
  8
BASE
  6
Continuous
100
AcDbText
 10
95.8848140976182
 20
111.25
 30
0.0
 40
2.25
  1
U1/SGF2/7
 50
90.0
  7
ROMANS
100
AcDbText
  0
TEXT
  5
701
330
1E
100
AcDbEntity
  8
BASE
  6
Continuous
100
AcDbText
 10
99.6348140976182
 20
111.25
 30
0.0
 40
2.25
  1
U1/SGR2/2
 50
90.0
  7
ROMANS
100
AcDbText
  0
TEXT
  5
702
330
1E
100
AcDbEntity
  8
BASE
  6
Continuous
100
AcDbText
 10
103.3848140976182
 20
111.25
 30
0.0
 40
2.25
  1
U1/SGR2/4
 50
90.0
  7
ROMANS
100
AcDbText
  0
TEXT
  5
703
330
1E
100
AcDbEntity
  8
BASE
  6
Continuous
100
AcDbText
 10
107.1348140976182
 20
111.25
 30
0.0
 40
2.25
  1
U1/SGR2/6
 50
90.0
  7
ROMANS
100
AcDbText
  0
TEXT
  5
704
330
1E
100
AcDbEntity
  8
BASE
  6
Continuous
100
AcDbText
 10
110.8848140976182
 20
111.25
 30
0.0
 40
2.25
  1
U1/SGR2/8
 50
90.0
  7
ROMANS
100
AcDbText
  0
LINE
  5
705
330
1E
100
AcDbEntity
  8
BASE
  6
Continuous
100
AcDbLine
 10
32.5
 20
242.5
 30
0.0
 11
32.5
 21
77.5
 31
0.0
  0
LINE
  5
706
330
1E
100
AcDbEntity
  8
BASE
  6
Continuous
100
AcDbLine
 10
32.5
 20
77.5
 30
0.0
 11
290.0
 21
77.5
 31
0.0
  0
LINE
  5
707
330
1E
100
AcDbEntity
  8
BASE
  6
Continuous
100
AcDbLine
 10
290.0
 20
77.5
 30
0.0
 11
290.0
 21
242.5
 31
0.0
  0
LINE
  5
708
330
1E
100
AcDbEntity
  8
BASE
  6
Continuous
100
AcDbLine
 10
290.0
 20
242.5
 30
0.0
 11
32.5
 21
242.5
 31
0.0
  0
LINE
  5
709
330
1E
100
AcDbEntity
  8
BASE
  6
Continuous
100
AcDbLine
 10
80.0
 20
212.5
 30
0.0
 11
71.38411392232526
 21
207.6779450422257
 31
0.0
  0
LINE
  5
70A
330
1E
100
AcDbEntity
  8
BASE
  6
Continuous
100
AcDbLine
 10
80.0
 20
212.5
 30
0.0
 11
87.5
 21
212.5
 31
0.0
  0
LINE
  5
70B
330
1E
100
AcDbEntity
  8
BASE
  6
Continuous
100
AcDbLine
 10
220.0
 20
111.25
 30
0.0
 11
220.0
 21
167.5
 31
0.0
  0
LINE
  5
70C
330
1E
100
AcDbEntity
  8
BASE
  6
Continuous
100
AcDbLine
 10
216.25
 20
111.25
 30
0.0
 11
216.25
 21
182.5
 31
0.0
  0
LINE
  5
70D
330
1E
100
AcDbEntity
  8
BASE
  6
Continuous
100
AcDbLine
 10
220.0
 20
107.4999999999999
 30
0.0
 11
220.0
 21
111.25
 31
0.0
  0
LINE
  5
70E
330
1E
100
AcDbEntity
  8
BASE
  6
Continuous
100
AcDbLine
 10
216.25
 20
107.4999999999999
 30
0.0
 11
216.25
 21
111.25
 31
0.0
  0
LINE
  5
70F
330
1E
100
AcDbEntity
  8
BASE
  6
Continuous
100
AcDbLine
 10
220.0
 20
77.5
 30
0.0
 11
220.0
 21
100.0
 31
0.0
  0
TEXT
  5
710
330
1E
100
AcDbEntity
  8
BASE
  6
Continuous
100
AcDbText
 10
219.3609246708319
 20
111.25
 30
0.0
 40
2.25
  1
U1/SGF2/8
 50
90.0
  7
ROMANS
100
AcDbText
  0
LINE
  5
711
330
1E
100
AcDbEntity
  8
0
  6
Continuous
100
AcDbLine
 10
77.5
 20
77.5
 30
0.0
 11
77.5
 21
66.25
 31
0.0
  0
LINE
  5
712
330
1E
100
AcDbEntity
  8
0
  6
Continuous
100
AcDbLine
 10
127.5
 20
77.56089569790862
 30
0.0
 11
127.5
 21
66.31089569790862
 31
0.0
  0
LINE
  5
713
330
1E
100
AcDbEntity
  8
0
  6
Continuous
100
AcDbLine
 10
150.0
 20
77.5
 30
0.0
 11
150.0
 21
66.25
 31
0.0
  0
LINE
  5
714
330
1E
100
AcDbEntity
  8
0
  6
Continuous
100
AcDbLine
 10
182.5
 20
77.5
 30
0.0
 11
182.5
 21
66.25
 31
0.0
  0
LINE
  5
715
330
1E
100
AcDbEntity
  8
BASE
  6
Continuous
100
AcDbLine
 10
235.0
 20
212.5
 30
0.0
 11
247.5
 21
212.5
 31
0.0
  0
LINE
  5
716
330
1E
100
AcDbEntity
  8
BASE
  6
Continuous
100
AcDbLine
 10
235.0
 20
205.0
 30
0.0
 11
242.5
 21
205.0
 31
0.0
  0
LINE
  5
717
330
1E
100
AcDbEntity
  8
BASE
  6
Continuous
100
AcDbLine
 10
235.0
 20
197.5
 30
0.0
 11
242.5
 21
197.5
 31
0.0
  0
LINE
  5
718
330
1E
100
AcDbEntity
  8
BASE
  6
Continuous
100
AcDbLine
 10
235.0
 20
190.0
 30
0.0
 11
242.5
 21
190.0
 31
0.0
  0
LINE
  5
719
330
1E
100
AcDbEntity
  8
BASE
  6
Continuous
100
AcDbLine
 10
235.0
 20
182.5
 30
0.0
 11
242.5
 21
182.5
 31
0.0
  0
LINE
  5
71A
330
1E
100
AcDbEntity
  8
BASE
  6
Continuous
100
AcDbLine
 10
235.0
 20
175.0
 30
0.0
 11
242.5
 21
175.0
 31
0.0
  0
LINE
  5
71B
330
1E
100
AcDbEntity
  8
BASE
  6
Continuous
100
AcDbLine
 10
235.0
 20
167.5
 30
0.0
 11
247.5
 21
167.5
 31
0.0
  0
LINE
  5
71C
330
1E
100
AcDbEntity
  8
BASE
  6
Continuous
100
AcDbLine
 10
235.0
 20
160.0
 30
0.0
 11
247.5
 21
160.0
 31
0.0
  0
LINE
  5
71D
330
1E
100
AcDbEntity
  8
BASE
  6
Continuous
100
AcDbLine
 10
50.0
 20
242.5
 30
0.0
 11
50.0
 21
210.0
 31
0.0
  0
LINE
  5
71E
330
1E
100
AcDbEntity
  8
BASE
  6
Continuous
100
AcDbLine
 10
102.4999999999999
 20
88.75
 30
0.0
 11
102.4999999999999
 21
77.5
 31
0.0
  0
LINE
  5
71F
330
1E
100
AcDbEntity
  8
BASE
  6
Continuous
100
AcDbLine
 10
127.5
 20
88.75
 30
0.0
 11
127.5
 21
77.5
 31
0.0
  0
LINE
  5
720
330
1E
100
AcDbEntity
  8
BASE
  6
Continuous
100
AcDbLine
 10
150.0
 20
88.75
 30
0.0
 11
150.0
 21
77.5
 31
0.0
  0
LINE
  5
721
330
1E
100
AcDbEntity
  8
BASE
  6
Continuous
100
AcDbLine
 10
220.0
 20
100.0
 30
0.0
 11
215.817260268009
 21
108.9248731153114
 31
0.0
  0
ARC
  5
722
330
1E
100
AcDbEntity
  8
BASE
  6
HIDDEN
100
AcDbCircle
 10
274.2821831834865
 20
180.9789390027996
 30
0.0
 40
7.497293977925679
100
AcDbArc
 50
206.402921519098
 51
282.2111496748031
  0
LINE
  5
723
330
1E
100
AcDbEntity
  8
BASE
  6
Continuous
100
AcDbLine
 10
275.9153770996785
 20
176.3540405329164
 30
0.0
 11
275.9153770996785
 21
173.6718434140307
 31
0.0
  0
LINE
  5
724
330
1E
100
AcDbEntity
  8
BASE
  6
Continuous
100
AcDbLine
 10
271.484208855935
 20
178.3833668632077
 30
0.0
 11
272.8352240136507
 21
176.69774329064
 31
0.0
  0
LINE
  5
725
330
1E
100
AcDbEntity
  8
BASE
  6
Continuous
100
AcDbLine
 10
267.816097994515
 20
173.3347186995172
 30
0.0
 11
272.1302640443639
 21
177.5775565699801
 31
0.0
  0
LINE
  5
726
330
1E
100
AcDbEntity
  8
BASE
  6
Continuous
100
AcDbLine
 10
264.2398814005614
 20
175.086122704185
 30
0.0
 11
275.9221889408099
 21
175.086122704185
 31
0.0
  0
LINE
  5
727
330
1E
100
AcDbEntity
  8
BASE
  6
Continuous
100
AcDbLine
 10
264.1933338194973
 20
176.3540405329164
 30
0.0
 11
264.1933338194973
 21
173.6718434140307
 31
0.0
  0
LINE
  5
728
330
1E
100
AcDbEntity
  8
BASE
  6
Continuous
100
AcDbLine
 10
247.5
 20
217.5
 30
0.0
 11
277.4999999999999
 21
217.5
 31
0.0
  0
LINE
  5
729
330
1E
100
AcDbEntity
  8
BASE
  6
Continuous
100
AcDbLine
 10
277.4999999999999
 20
217.5
 30
0.0
 11
277.4999999999999
 21
157.5
 31
0.0
  0
LINE
  5
72A
330
1E
100
AcDbEntity
  8
BASE
  6
Continuous
100
AcDbLine
 10
277.4999999999999
 20
157.5
 30
0.0
 11
247.5
 21
157.5
 31
0.0
  0
LINE
  5
72B
330
1E
100
AcDbEntity
  8
BASE
  6
Continuous
100
AcDbLine
 10
247.5
 20
157.5
 30
0.0
 11
247.5
 21
217.5
 31
0.0
  0
CIRCLE
  5
72C
330
1E
100
AcDbEntity
  8
BASE
  6
Continuous
100
AcDbCircle
 10
246.7019807144594
 20
207.5
 30
0.0
 40
0.7980192855404964
  0
LINE
  5
72D
330
1E
100
AcDbEntity
  8
BASE
  6
HIDDEN
100
AcDbLine
 10
247.5
 20
210.0
 30
0.0
 11
277.4999999999999
 21
210.0
 31
0.0
  0
LINE
  5
72E
330
1E
100
AcDbEntity
  8
BASE
  6
HIDDEN
100
AcDbLine
 10
247.5
 20
202.4999999999999
 30
0.0
 11
277.4999999999999
 21
202.4999999999999
 31
0.0
  0
TEXT
  5
72F
330
1E
100
AcDbEntity
  8
BASE
  6
HIDDEN
100
AcDbText
 10
248.0710097906296
 20
207.8557799574261
 30
0.0
 40
1.5
  1
EN
100
AcDbText
  0
LINE
  5
730
330
1E
100
AcDbEntity
  8
BASE
  6
HIDDEN
100
AcDbLine
 10
247.5
 20
195.0
 30
0.0
 11
277.4999999999999
 21
195.0
 31
0.0
  0
LINE
  5
731
330
1E
100
AcDbEntity
  8
BASE
  6
HIDDEN
100
AcDbLine
 10
247.5
 20
187.5
 30
0.0
 11
277.4999999999999
 21
187.5
 31
0.0
  0
LINE
  5
732
330
1E
100
AcDbEntity
  8
BASE
  6
HIDDEN
100
AcDbLine
 10
247.5
 20
180.0
 30
0.0
 11
277.4999999999999
 21
180.0
 31
0.0
  0
LINE
  5
733
330
1E
100
AcDbEntity
  8
BASE
  6
HIDDEN
100
AcDbLine
 10
247.5
 20
172.5
 30
0.0
 11
277.4999999999999
 21
172.5
 31
0.0
  0
LINE
  5
734
330
1E
100
AcDbEntity
  8
BASE
  6
HIDDEN
100
AcDbLine
 10
247.5
 20
165.0
 30
0.0
 11
277.4999999999999
 21
165.0
 31
0.0
  0
LINE
  5
735
330
1E
100
AcDbEntity
  8
BASE
  6
HIDDEN
100
AcDbLine
 10
247.5
 20
165.0
 30
0.0
 11
277.4999999999999
 21
165.0
 31
0.0
  0
TEXT
  5
736
330
1E
100
AcDbEntity
  8
BASE
  6
HIDDEN
100
AcDbText
 10
248.0710097906296
 20
192.8557799574261
 30
0.0
 40
1.5
  1
EN
100
AcDbText
  0
TEXT
  5
737
330
1E
100
AcDbEntity
  8
BASE
  6
HIDDEN
100
AcDbText
 10
248.0710097906296
 20
178.0536324366532
 30
0.0
 40
1.5
  1
EN
100
AcDbText
  0
TEXT
  5
738
330
1E
100
AcDbEntity
  8
BASE
  6
HIDDEN
100
AcDbText
 10
248.0710097906296
 20
163.0503781583164
 30
0.0
 40
1.5
  1
EN
100
AcDbText
  0
CIRCLE
  5
739
330
1E
100
AcDbEntity
  8
BASE
  6
Continuous
100
AcDbCircle
 10
246.7019807144594
 20
177.5
 30
0.0
 40
0.7980192855404964
  0
CIRCLE
  5
73A
330
1E
100
AcDbEntity
  8
BASE
  6
Continuous
100
AcDbCircle
 10
246.7019807144594
 20
192.5
 30
0.0
 40
0.7980192855404964
  0
CIRCLE
  5
73B
330
1E
100
AcDbEntity
  8
BASE
  6
Continuous
100
AcDbCircle
 10
246.7019807144594
 20
162.5
 30
0.0
 40
0.7980192855404964
  0
LINE
  5
73C
330
1E
100
AcDbEntity
  8
BASE
  6
Continuous
100
AcDbLine
 10
80.0
 20
237.5
 30
0.0
 11
240.0
 21
237.5
 31
0.0
  0
LINE
  5
73D
330
1E
100
AcDbEntity
  8
BASE
  6
Continuous
100
AcDbLine
 10
80.0
 20
237.5
 30
0.0
 11
71.38411392232526
 21
232.6779450422257
 31
0.0
  0
LINE
  5
73E
330
1E
100
AcDbEntity
  8
BASE
  6
Continuous
100
AcDbLine
 10
80.0
 20
232.5
 30
0.0
 11
71.38411392232526
 21
227.6779450422258
 31
0.0
  0
LINE
  5
73F
330
1E
100
AcDbEntity
  8
BASE
  6
Continuous
100
AcDbLine
 10
80.0
 20
232.5
 30
0.0
 11
237.5
 21
232.5
 31
0.0
  0
LINE
  5
740
330
1E
100
AcDbEntity
  8
BASE
  6
Continuous
100
AcDbLine
 10
80.0
 20
227.4999999999999
 30
0.0
 11
71.38411392232526
 21
222.6779450422257
 31
0.0
  0
LINE
  5
741
330
1E
100
AcDbEntity
  8
BASE
  6
Continuous
100
AcDbLine
 10
80.0
 20
227.4999999999999
 30
0.0
 11
235.0
 21
227.4999999999999
 31
0.0
  0
LINE
  5
742
330
1E
100
AcDbEntity
  8
BASE
  6
Continuous
100
AcDbLine
 10
80.0
 20
222.5
 30
0.0
 11
232.5
 21
222.5
 31
0.0
  0
LINE
  5
743
330
1E
100
AcDbEntity
  8
BASE
  6
Continuous
100
AcDbLine
 10
80.0
 20
222.5
 30
0.0
 11
71.38411392232526
 21
217.6779450422257
 31
0.0
  0
LINE
  5
744
330
1E
100
AcDbEntity
  8
BASE
  6
Continuous
100
AcDbLine
 10
72.5
 20
230.0
 30
0.0
 11
50.0
 21
230.0
 31
0.0
  0
LINE
  5
745
330
1E
100
AcDbEntity
  8
BASE
  6
Continuous
100
AcDbLine
 10
80.0
 20
217.5
 30
0.0
 11
71.38411392232526
 21
212.6779450422257
 31
0.0
  0
LINE
  5
746
330
1E
100
AcDbEntity
  8
BASE
  6
Continuous
100
AcDbLine
 10
80.0
 20
217.5
 30
0.0
 11
87.5
 21
217.5
 31
0.0
  0
LINE
  5
747
330
1E
100
AcDbEntity
  8
BASE
  6
Continuous
100
AcDbLine
 10
72.5
 20
220.0
 30
0.0
 11
50.0
 21
220.0
 31
0.0
  0
LINE
  5
748
330
1E
100
AcDbEntity
  8
BASE
  6
Continuous
100
AcDbLine
 10
72.5
 20
225.0
 30
0.0
 11
50.0
 21
225.0
 31
0.0
  0
LINE
  5
749
330
1E
100
AcDbEntity
  8
BASE
  6
Continuous
100
AcDbLine
 10
72.5
 20
235.0
 30
0.0
 11
50.0
 21
235.0
 31
0.0
  0
LINE
  5
74A
330
1E
100
AcDbEntity
  8
BASE
  6
Continuous
100
AcDbLine
 10
50.0
 20
210.0
 30
0.0
 11
72.5
 21
210.0
 31
0.0
  0
LINE
  5
74B
330
1E
100
AcDbEntity
  8
BASE
  6
Continuous
100
AcDbLine
 10
240.0
 20
207.5
 30
0.0
 11
240.0
 21
237.5
 31
0.0
  0
LINE
  5
74C
330
1E
100
AcDbEntity
  8
BASE
  6
Continuous
100
AcDbLine
 10
237.5
 20
232.5
 30
0.0
 11
237.5
 21
192.5
 31
0.0
  0
LINE
  5
74D
330
1E
100
AcDbEntity
  8
BASE
  6
Continuous
100
AcDbLine
 10
235.0
 20
227.4999999999999
 30
0.0
 11
235.0
 21
177.5
 31
0.0
  0
LINE
  5
74E
330
1E
100
AcDbEntity
  8
BASE
  6
Continuous
100
AcDbLine
 10
232.5
 20
222.5
 30
0.0
 11
232.5
 21
162.5
 31
0.0
  0
LINE
  5
74F
330
1E
100
AcDbEntity
  8
BASE
  6
Continuous
100
AcDbLine
 10
232.5
 20
162.5
 30
0.0
 11
245.9039614289202
 21
162.5
 31
0.0
  0
LINE
  5
750
330
1E
100
AcDbEntity
  8
BASE
  6
Continuous
100
AcDbLine
 10
235.0
 20
177.5
 30
0.0
 11
245.9039614289202
 21
177.5
 31
0.0
  0
LINE
  5
751
330
1E
100
AcDbEntity
  8
BASE
  6
Continuous
100
AcDbLine
 10
237.5
 20
192.5
 30
0.0
 11
245.9039614289202
 21
192.5
 31
0.0
  0
LINE
  5
752
330
1E
100
AcDbEntity
  8
BASE
  6
Continuous
100
AcDbLine
 10
240.0
 20
207.5
 30
0.0
 11
245.9039614289202
 21
207.5
 31
0.0
  0
LINE
  5
753
330
1E
100
AcDbEntity
  8
BASE
  6
Continuous
100
AcDbLine
 10
102.4999999999999
 20
82.5
 30
0.0
 11
110.0
 21
82.5
 31
0.0
  0
LINE
  5
754
330
1E
100
AcDbEntity
  8
BASE
  6
Continuous
100
AcDbLine
 10
110.0
 20
82.5
 30
0.0
 11
110.0
 21
77.5
 31
0.0
  0
LINE
  5
755
330
1E
100
AcDbEntity
  8
BASE
  6
Continuous
100
AcDbLine
 10
150.0
 20
82.5
 30
0.0
 11
157.5
 21
82.5
 31
0.0
  0
LINE
  5
756
330
1E
100
AcDbEntity
  8
BASE
  6
Continuous
100
AcDbLine
 10
157.5
 20
82.5
 30
0.0
 11
157.5
 21
77.5
 31
0.0
  0
LINE
  5
757
330
1E
100
AcDbEntity
  8
0
  6
Continuous
100
AcDbLine
 10
110.0
 20
77.5
 30
0.0
 11
110.0
 21
75.0
 31
0.0
  0
LINE
  5
758
330
1E
100
AcDbEntity
  8
0
  6
Continuous
100
AcDbLine
 10
157.5
 20
77.5
 30
0.0
 11
157.5
 21
75.0
 31
0.0
  0
TEXT
  5
759
330
1E
100
AcDbEntity
  8
0
  6
Continuous
100
AcDbText
 10
102.4999999999999
 20
55.0
 30
0.0
 40
2.0
  1
SS3
 50
90.0
  7
ROMANS
100
AcDbText
  0
TEXT
  5
75A
330
1E
100
AcDbEntity
  8
0
  6
Continuous
100
AcDbText
 10
127.5
 20
55.0
 30
0.0
 40
2.0
  1
SS2
 50
90.0
  7
ROMANS
100
AcDbText
  0
TEXT
  5
75B
330
1E
100
AcDbEntity
  8
0
  6
Continuous
100
AcDbText
 10
150.0
 20
55.0
 30
0.0
 40
2.0
  1
SS1
 50
90.0
  7
ROMANS
100
AcDbText
  0
TEXT
  5
75C
330
1E
100
AcDbEntity
  8
0
  6
Continuous
100
AcDbText
 10
182.5
 20
55.0
 30
0.0
 40
2.0
  1
TS1
 50
90.0
  7
ROMANS
100
AcDbText
  0
TEXT
  5
75D
330
1E
100
AcDbEntity
  8
0
  6
Continuous
100
AcDbText
 10
105.0
 20
55.0
 30
0.0
 40
1.5
  1
(NOT USED)
 50
90.0
  7
ROMANS
100
AcDbText
  0
TEXT
  5
75E
330
1E
100
AcDbEntity
  8
0
  6
Continuous
100
AcDbText
 10
110.0
 20
55.0
 30
0.0
 40
2.0
  1
AR1
 50
90.0
  7
ROMANS
100
AcDbText
  0
LINE
  5
75F
330
1E
100
AcDbEntity
  8
0
  6
Continuous
100
AcDbLine
 10
220.0
 20
77.5
 30
0.0
 11
220.0
 21
75.0
 31
0.0
  0
TEXT
  5
760
330
1E
100
AcDbEntity
  8
0
  6
Continuous
100
AcDbText
 10
220.0
 20
55.0
 30
0.0
 40
2.0
  1
AR3
 50
90.0
  7
ROMANS
100
AcDbText
  0
TEXT
  5
761
330
1E
100
AcDbEntity
  8
0
  6
Continuous
100
AcDbText
 10
213.306607189134
 20
28.09643725427252
 30
0.0
 40
2.0
  1
97/02/02 Marko Rännäli
  7
ROMANS
100
AcDbText
  0
TEXT
  5
762
330
1E
100
AcDbEntity
  8
0
  6
Continuous
100
AcDbText
 10
317.5
 20
27.5
 30
0.0
 40
2.0
  1
CIRCUIT DIAGRAM;PROGRAMMING OF U1/
  7
ROMANS
100
AcDbText
  0
TEXT
  5
763
330
1E
100
AcDbEntity
  8
0
  6
Continuous
100
AcDbText
 10
317.5
 20
24.16666666666666
 30
0.0
 40
2.0
  1
KRETSSCHEMA;PROGRAMMERING AV U1
  7
ROMANS
100
AcDbText
  0
TEXT
  5
764
330
1E
100
AcDbEntity
  8
0
  6
Continuous
100
AcDbText
 10
317.5
 20
20.83333333333333
 30
0.0
 40
2.0
  1
SPAC 534 C /E223
  7
ROMANS
100
AcDbText
  0
TEXT
  5
765
330
1E
100
AcDbEntity
  8
0
  6
Continuous
100
AcDbText
 10
367.5
 20
12.5
 30
0.0
 40
2.0
  1
3/3
  7
ROMANS
100
AcDbText
  0
TEXT
  5
766
330
1E
100
AcDbEntity
  8
0
  6
Continuous
100
AcDbText
 10
322.5
 20
2.5
 30
0.0
 40
2.5
  1
1MRS10239-AA
  7
ROMANS
100
AcDbText
  0
LINE
  5
767
330
1E
100
AcDbEntity
  8
0
  6
Continuous
100
AcDbLine
 10
50.0
 20
242.5
 30
0.0
 11
50.0
 21
250.0
 31
0.0
  0
TEXT
  5
768
330
1E
100
AcDbEntity
  8
0
  6
Continuous
100
AcDbText
 10
42.5
 20
247.5
 30
0.0
 40
1.5
  1
BS1
  7
ROMANS
100
AcDbText
  0
TEXT
  5
769
330
1E
100
AcDbEntity
  8
BASE
  6
Continuous
100
AcDbText
 10
282.5
 20
237.5
 30
0.0
 40
2.0
  1
U1
  7
ROMANS
100
AcDbText
  0
TEXT
  5
76A
330
1E
100
AcDbEntity
  8
BASE
  6
Continuous
100
AcDbText
 10
52.5
 20
231.7103420457126
 30
0.0
 40
2.0
  1
U1/SGB/1
  7
ROMANS
100
AcDbText
  0
TEXT
  5
76B
330
1E
100
AcDbEntity
  8
BASE
  6
Continuous
100
AcDbText
 10
52.5
 20
226.6935620845579
 30
0.0
 40
2.0
  1
U1/SGB/2
  7
ROMANS
100
AcDbText
  0
TEXT
  5
76C
330
1E
100
AcDbEntity
  8
BASE
  6
Continuous
100
AcDbText
 10
52.5
 20
221.668104563466
 30
0.0
 40
2.0
  1
U1/SGB/3
  7
ROMANS
100
AcDbText
  0
TEXT
  5
76D
330
1E
100
AcDbEntity
  8
BASE
  6
Continuous
100
AcDbText
 10
52.5
 20
216.7467777616208
 30
0.0
 40
2.0
  1
U1/SGB/4
  7
ROMANS
100
AcDbText
  0
TEXT
  5
76E
330
1E
100
AcDbEntity
  8
BASE
  6
Continuous
100
AcDbText
 10
52.5
 20
211.5304139219099
 30
0.0
 40
2.0
  1
U1/SGB/5
  7
ROMANS
100
AcDbText
  0
TEXT
  5
76F
330
1E
100
AcDbEntity
  8
BASE
  6
Continuous
100
AcDbText
 10
52.5
 20
206.7218953992486
 30
0.0
 40
2.0
  1
U1/SGB/8
  7
ROMANS
100
AcDbText
  0
TEXT
  5
770
330
1E
100
AcDbEntity
  8
BASE
  6
Continuous
100
AcDbText
 10
90.0
 20
216.5107581671565
 30
0.0
 40
2.0
  1
REMOTE SETTINGS
  7
ROMANS
100
AcDbText
  0
TEXT
  5
771
330
1E
100
AcDbEntity
  8
BASE
  6
Continuous
100
AcDbText
 10
90.0
 20
211.5286884457507
 30
0.0
 40
2.0
  1
RELAY RESET
  7
ROMANS
100
AcDbText
  0
TEXT
  5
772
330
1E
100
AcDbEntity
  8
0
  6
Continuous
100
AcDbText
 10
77.5
 20
55.0
 30
0.0
 40
2.0
  1
TS 2
 50
90.0
  7
ROMANS
100
AcDbText
  0
TEXT
  5
773
330
1E
100
AcDbEntity
  8
0
  6
Continuous
100
AcDbText
 10
157.5
 20
55.0
 30
0.0
 40
2.0
  1
AR2
 50
90.0
  7
ROMANS
100
AcDbText
  0
LWPOLYLINE
  5
774
330
1E
100
AcDbEntity
  8
BASE
  6
Continuous
100
AcDbPolyline
 90
        2
 70
     1
 43
0.5
 10
49.5
 20
235.0
 42
1.0
 10
50.5
 20
235.0
 42
1.0
  0
LWPOLYLINE
  5
778
330
1E
100
AcDbEntity
  8
BASE
  6
Continuous
100
AcDbPolyline
 90
        2
 70
     1
 43
0.5
 10
49.5
 20
230.0
 42
1.0
 10
50.5
 20
230.0
 42
1.0
  0
LWPOLYLINE
  5
77C
330
1E
100
AcDbEntity
  8
BASE
  6
Continuous
100
AcDbPolyline
 90
        2
 70
     1
 43
0.5
 10
49.5
 20
225.0
 42
1.0
 10
50.5
 20
225.0
 42
1.0
  0
LWPOLYLINE
  5
780
330
1E
100
AcDbEntity
  8
BASE
  6
Continuous
100
AcDbPolyline
 90
        2
 70
     1
 43
0.5
 10
49.5
 20
220.0
 42
1.0
 10
50.5
 20
220.0
 42
1.0
  0
LWPOLYLINE
  5
784
330
1E
100
AcDbEntity
  8
BASE
  6
Continuous
100
AcDbPolyline
 90
        2
 70
     1
 43
0.5
 10
49.5
 20
215.0
 42
1.0
 10
50.5
 20
215.0
 42
1.0
  0
LWPOLYLINE
  5
788
330
1E
100
AcDbEntity
  8
BASE
  6
Continuous
100
AcDbPolyline
 90
        2
 70
     1
 43
0.5
 10
99.50000000000001
 20
205.0
 42
1.0
 10
100.5
 20
205.0
 42
1.0
  0
LWPOLYLINE
  5
78C
330
1E
100
AcDbEntity
  8
BASE
  6
Continuous
100
AcDbPolyline
 90
        2
 70
     1
 43
0.5
 10
122.0
 20
205.0
 42
1.0
 10
123.0
 20
205.0
 42
1.0
  0
LWPOLYLINE
  5
790
330
1E
100
AcDbEntity
  8
BASE
  6
Continuous
100
AcDbPolyline
 90
        2
 70
     1
 43
0.5
 10
129.4999999999999
 20
175.0
 42
1.0
 10
130.4999999999999
 20
175.0
 42
1.0
  0
LWPOLYLINE
  5
794
330
1E
100
AcDbEntity
  8
BASE
  6
Continuous
100
AcDbPolyline
 90
        2
 70
     1
 43
0.5
 10
107.0
 20
175.0
 42
1.0
 10
108.0
 20
175.0
 42
1.0
  0
LWPOLYLINE
  5
798
330
1E
100
AcDbEntity
  8
BASE
  6
Continuous
100
AcDbPolyline
 90
        2
 70
     1
 43
0.5
 10
148.2499999999999
 20
197.4999999999999
 42
1.0
 10
149.2499999999999
 20
197.4999999999999
 42
1.0
  0
LWPOLYLINE
  5
79C
330
1E
100
AcDbEntity
  8
BASE
  6
Continuous
100
AcDbPolyline
 90
        2
 70
     1
 43
0.5
 10
125.75
 20
189.9999999999999
 42
1.0
 10
126.75
 20
189.9999999999999
 42
1.0
  0
LWPOLYLINE
  5
7A0
330
1E
100
AcDbEntity
  8
BASE
  6
Continuous
100
AcDbPolyline
 90
        2
 70
     1
 43
0.5
 10
103.2499999999999
 20
190.0
 42
1.0
 10
104.2499999999999
 20
190.0
 42
1.0
  0
LWPOLYLINE
  5
7A4
330
1E
100
AcDbEntity
  8
BASE
  6
Continuous
100
AcDbPolyline
 90
        2
 70
     1
 43
0.5
 10
110.7499999999999
 20
160.0
 42
1.0
 10
111.7499999999999
 20
160.0
 42
1.0
  0
LWPOLYLINE
  5
7A8
330
1E
100
AcDbEntity
  8
BASE
  6
Continuous
100
AcDbPolyline
 90
        2
 70
     1
 43
0.5
 10
133.25
 20
160.0
 42
1.0
 10
134.25
 20
160.0
 42
1.0
  0
LWPOLYLINE
  5
7AC
330
1E
100
AcDbEntity
  8
BASE
  6
Continuous
100
AcDbPolyline
 90
        2
 70
     1
 43
0.5
 10
174.5
 20
205.0
 42
1.0
 10
175.5
 20
205.0
 42
1.0
  0
LWPOLYLINE
  5
7B0
330
1E
100
AcDbEntity
  8
BASE
  6
Continuous
100
AcDbPolyline
 90
        2
 70
     1
 43
0.5
 10
170.75
 20
212.5
 42
1.0
 10
171.75
 20
212.5
 42
1.0
  0
LWPOLYLINE
  5
7B4
330
1E
100
AcDbEntity
  8
BASE
  6
Continuous
100
AcDbPolyline
 90
        2
 70
     1
 43
0.5
 10
178.2499999999999
 20
197.4999999999999
 42
1.0
 10
179.2499999999999
 20
197.4999999999999
 42
1.0
  0
LWPOLYLINE
  5
7B8
330
1E
100
AcDbEntity
  8
BASE
  6
Continuous
100
AcDbPolyline
 90
        2
 70
     1
 43
0.5
 10
181.9999999999999
 20
189.9999999999999
 42
1.0
 10
182.9999999999999
 20
189.9999999999999
 42
1.0
  0
LWPOLYLINE
  5
7BC
330
1E
100
AcDbEntity
  8
BASE
  6
Continuous
100
AcDbPolyline
 90
        2
 70
     1
 43
0.5
 10
185.7499999999999
 20
182.5
 42
1.0
 10
186.7499999999999
 20
182.5
 42
1.0
  0
LWPOLYLINE
  5
7C0
330
1E
100
AcDbEntity
  8
BASE
  6
Continuous
100
AcDbPolyline
 90
        2
 70
     1
 43
0.5
 10
189.4999999999999
 20
174.9999999999999
 42
1.0
 10
190.5
 20
174.9999999999999
 42
1.0
  0
LWPOLYLINE
  5
7C4
330
1E
100
AcDbEntity
  8
BASE
  6
Continuous
100
AcDbPolyline
 90
        2
 70
     1
 43
0.5
 10
193.25
 20
167.5
 42
1.0
 10
194.25
 20
167.5
 42
1.0
  0
LWPOLYLINE
  5
7C8
330
1E
100
AcDbEntity
  8
BASE
  6
Continuous
100
AcDbPolyline
 90
        2
 70
     1
 43
0.5
 10
197.0
 20
160.0
 42
1.0
 10
198.0
 20
160.0
 42
1.0
  0
LWPOLYLINE
  5
7CC
330
1E
100
AcDbEntity
  8
BASE
  6
Continuous
100
AcDbPolyline
 90
        2
 70
     1
 43
0.5
 10
215.75
 20
182.5
 42
1.0
 10
216.7499999999999
 20
182.5
 42
1.0
  0
LWPOLYLINE
  5
7D0
330
1E
100
AcDbEntity
  8
BASE
  6
Continuous
100
AcDbPolyline
 90
        2
 70
     1
 43
0.5
 10
219.5
 20
167.5
 42
1.0
 10
220.5
 20
167.5
 42
1.0
  0
TEXT
  5
7D4
330
1E
100
AcDbEntity
  8
0
  6
Continuous
100
AcDbText
 10
380.0
 20
2.5
 30
0.0
 40
2.5
  1
A
  7
ROMANS
100
AcDbText
  0
LWPOLYLINE
  5
7D5
330
1E
100
AcDbEntity
  8
0
  6
Continuous
100
AcDbPolyline
 90
        2
 70
     1
 43
0.5
 10
102.0
 20
82.5
 42
1.0
 10
103.0
 20
82.5
 42
1.0
  0
LWPOLYLINE
  5
7D9
330
1E
100
AcDbEntity
  8
0
  6
Continuous
100
AcDbPolyline
 90
        2
 70
     1
 43
0.5
 10
149.5
 20
82.5
 42
1.0
 10
150.5
 20
82.5
 42
1.0
  0
INSERT
  5
7DD
330
1E
100
AcDbEntity
  8
0
  6
Continuous
100
AcDbBlockReference
  2
MAA
 10
253.6023060039498
 20
183.4219231730583
 30
0.0
  0
INSERT
  5
7DE
330
1E
100
AcDbEntity
  8
0
  6
Continuous
100
AcDbBlockReference
  2
MAA
 10
253.7700442830255
 20
176.2108708652257
 30
0.0
  0
INSERT
  5
7DF
330
1E
100
AcDbEntity
  8
0
  6
Continuous
100
AcDbBlockReference
  2
MAA
 10
253.7700442830255
 20
168.8262673586485
 30
0.0
  0
INSERT
  5
7E0
330
1E
100
AcDbEntity
  8
0
  6
Continuous
100
AcDbBlockReference
  2
MAA
 10
253.6023060039498
 20
161.2681126533268
 30
0.0
  0
TEXT
  5
7E1
330
1E
100
AcDbEntity
  8
RAAMI
  6
DASHED
100
AcDbText
 10
292.5595560456154
 20
12.15451134101524
 30
0.0
 40
3.0
  1
A3
  7
GREEKS
100
AcDbText
  0
TEXT
  5
7E2
330
1E
100
AcDbEntity
  8
RAAMI
  6
DASHED
100
AcDbText
 10
352.1609385301785
 20
16.0336821248964
 30
0.0
 40
1.399999999999999
  1
LEHTI SHEET
  7
GREEKS
100
AcDbText
  0
LINE
  5
7E3
330
1E
100
AcDbEntity
  8
PAKSU
100
AcDbLine
 10
0.5794608709704362
 20
263.0791515336964
 30
0.0
 11
392.5794608709704
 21
263.0791515336964
 31
0.0
  0
LINE
  5
7E4
330
1E
100
AcDbEntity
  8
RAAMI
100
AcDbLine
 10
18.57946087097043
 20
0.5791515336964367
 30
0.0
 11
0.5794608709704362
 21
0.5791515336964367
 31
0.0
  0
LINE
  5
7E5
330
1E
100
AcDbEntity
  8
PAKSU
100
AcDbLine
 10
209.5794608709704
 20
0.5791515336964367
 30
0.0
 11
392.5794608709704
 21
0.5791515336964367
 31
0.0
  0
LINE
  5
7E6
330
1E
100
AcDbEntity
  8
PAKSU
100
AcDbLine
 10
209.5794608709704
 20
0.5791515336964367
 30
0.0
 11
209.5794608709704
 21
35.57915153369644
 31
0.0
  0
LINE
  5
7E7
330
1E
100
AcDbEntity
  8
PAKSU
100
AcDbLine
 10
392.5794608709704
 20
0.5791515336964367
 30
0.0
 11
392.5794608709704
 21
35.57915153369644
 31
0.0
  0
LINE
  5
7E8
330
1E
100
AcDbEntity
  8
OHUT
100
AcDbLine
 10
209.5794608709704
 20
18.57915153369643
 30
0.0
 11
392.5794608709704
 21
18.57915153369643
 31
0.0
  0
LINE
  5
7E9
330
1E
100
AcDbEntity
  8
OHUT
100
AcDbLine
 10
209.5794608709704
 20
10.07915153369643
 30
0.0
 11
392.5794608709704
 21
10.07915153369643
 31
0.0
  0
LINE
  5
7EA
330
1E
100
AcDbEntity
  8
OHUT
100
AcDbLine
 10
209.5794608709704
 20
27.07915153369643
 30
0.0
 11
307.5794608709704
 21
27.07915153369643
 31
0.0
  0
LINE
  5
7EB
330
1E
100
AcDbEntity
  8
PAKSU
100
AcDbLine
 10
209.5794608709704
 20
35.57915153369644
 30
0.0
 11
392.5794608709704
 21
35.57915153369644
 31
0.0
  0
TEXT
  5
7EC
330
1E
100
AcDbEntity
  8
RAAMI
100
AcDbText
 10
210.5794608709704
 20
24.31248486702977
 30
0.0
 40
1.399999999999999
  1
TARKASTI  CHECKED
  7
ROMANS
100
AcDbText
  0
TEXT
  5
7ED
330
1E
100
AcDbEntity
  8
RAAMI
100
AcDbText
 10
210.3222955968368
 20
16.0458182003631
 30
0.0
 40
1.399999999999999
  1
HYVÄKSYI  APPROVED
  7
ROMANS
100
AcDbText
  0
LINE
  5
7EE
330
1E
100
AcDbEntity
  8
OHUT
100
AcDbLine
 10
307.5794608709704
 20
0.5791515336964367
 30
0.0
 11
307.5794608709704
 21
35.57915153369644
 31
0.0
  0
TEXT
  5
7EF
330
1E
100
AcDbEntity
  8
RAAMI
100
AcDbText
 10
259.5794608709704
 20
33.07915153369644
 30
0.0
 40
1.399999999999999
  1
LIITTYY  CONCERNING
  7
ROMANS
100
AcDbText
  0
TEXT
  5
7F0
330
1E
100
AcDbEntity
  8
RAAMI
100
AcDbText
 10
259.5794608709704
 20
24.07915153369643
 30
0.0
 40
1.399999999999999
  1
TOLERANSSIT  TOLERANCES
  7
ROMANS
100
AcDbText
  0
TEXT
  5
7F1
330
1E
100
AcDbEntity
  8
RAAMI
100
AcDbText
 10
259.5794608709704
 20
16.07915153369643
 30
0.0
 40
1.399999999999999
  1
SUHDE  SCALE
  7
ROMANS
100
AcDbText
  0
TEXT
  5
7F2
330
1E
100
AcDbEntity
  8
RAAMI
100
AcDbText
 10
309.5794608709704
 20
33.07915153369644
 30
0.0
 40
1.399999999999999
  1
NIMITYS  NAME
  7
ROMANS
100
AcDbText
  0
TEXT
  5
7F3
330
1E
100
AcDbEntity
  8
RAAMI
100
AcDbText
 10
309.5794608709704
 20
16.07915153369643
 30
0.0
 40
1.399999999999999
  1
KOODI  CODE
  7
ROMANS
100
AcDbText
  0
TEXT
  5
7F4
330
1E
100
AcDbEntity
  8
RAAMI
100
AcDbText
 10
309.5794608709704
 20
7.579151533696436
 30
0.0
 40
1.399999999999999
  1
PIIRUSTUS NO  DRAWING NR
  7
ROMANS
100
AcDbText
  0
LINE
  5
7F5
330
1E
100
AcDbEntity
  8
OHUT
100
AcDbLine
 10
350.0794608709704
 20
10.07915153369643
 30
0.0
 11
350.0794608709704
 21
18.57915153369643
 31
0.0
  0
TEXT
  5
7F6
330
1E
100
AcDbEntity
  8
RAAMI
100
AcDbText
 10
371.5794608709704
 20
7.579151533696436
 30
0.0
 40
1.399999999999999
  1
PAINOS  REVISION
  7
ROMANS
100
AcDbText
  0
LINE
  5
7F7
330
1E
100
AcDbEntity
  8
OHUT
100
AcDbLine
 10
370.0794608709704
 20
10.07915153369643
 30
0.0
 11
370.0794608709704
 21
0.5791515336964367
 31
0.0
  0
LINE
  5
7F8
330
1E
100
AcDbEntity
  8
RAAMI
100
AcDbLine
 10
210.5294608709704
 20
2.079151533696436
 30
0.0
 11
212.2794608709704
 21
2.079151533696436
 31
0.0
  0
LINE
  5
7F9
330
1E
100
AcDbEntity
  8
RAAMI
100
AcDbLine
 10
215.7794608709704
 20
2.079151533696436
 30
0.0
 11
217.5294608709704
 21
2.079151533696436
 31
0.0
  0
LINE
  5
7FA
330
1E
100
AcDbEntity
  8
RAAMI
100
AcDbLine
 10
212.9794608709704
 20
9.079151533696435
 30
0.0
 11
211.8019330313268
 21
5.714786277571715
 31
0.0
  0
LINE
  5
7FB
330
1E
100
AcDbEntity
  8
RAAMI
100
AcDbLine
 10
212.7682475690676
 20
3.479151533696435
 30
0.0
 11
213.8894608709704
 21
3.479151533696435
 31
0.0
  0
LINE
  5
7FC
330
1E
100
AcDbEntity
  8
RAAMI
100
AcDbLine
 10
212.7682507659331
 20
3.475694090732745
 30
0.0
 11
212.2794608709704
 21
2.079151533696436
 31
0.0
  0
LINE
  5
7FD
330
1E
100
AcDbEntity
  8
RAAMI
100
AcDbLine
 10
215.0794608709704
 20
9.079151533696435
 30
0.0
 11
216.255813796195
 21
5.718143175911966
 31
0.0
  0
LINE
  5
7FE
330
1E
100
AcDbEntity
  8
RAAMI
100
AcDbLine
 10
215.290558574256
 20
3.476015238594844
 30
0.0
 11
215.7794608709704
 21
2.079151533696436
 31
0.0
  0
LINE
  5
7FF
330
1E
100
AcDbEntity
  8
RAAMI
100
AcDbLine
 10
215.0794608709704
 20
9.079151533696435
 30
0.0
 11
214.1694608709704
 21
9.079151533696435
 31
0.0
  0
LINE
  5
800
330
1E
100
AcDbEntity
  8
RAAMI
100
AcDbLine
 10
213.8894608709704
 20
9.079151533696435
 30
0.0
 11
213.8894608709704
 21
5.719151533696437
 31
0.0
  0
LINE
  5
801
330
1E
100
AcDbEntity
  8
RAAMI
100
AcDbLine
 10
214.1694608709704
 20
9.079151533696435
 30
0.0
 11
214.1694608709704
 21
5.719151533696437
 31
0.0
  0
LINE
  5
802
330
1E
100
AcDbEntity
  8
RAAMI
100
AcDbLine
 10
214.1694608709704
 20
3.479151533696435
 30
0.0
 11
215.2893542643972
 21
3.479151533696435
 31
0.0
  0
LINE
  5
803
330
1E
100
AcDbEntity
  8
RAAMI
100
AcDbLine
 10
213.8894608709704
 20
9.079151533696435
 30
0.0
 11
212.9794608709704
 21
9.079151533696435
 31
0.0
  0
LINE
  5
804
330
1E
100
AcDbEntity
  8
RAAMI
100
AcDbLine
 10
211.80140158461
 20
5.719151533696437
 30
0.0
 11
213.8894608709704
 21
5.719151533696437
 31
0.0
  0
LINE
  5
805
330
1E
100
AcDbEntity
  8
RAAMI
100
AcDbLine
 10
211.7024433604406
 20
5.439151533696436
 30
0.0
 11
213.8894608709704
 21
5.439151533696436
 31
0.0
  0
LINE
  5
806
330
1E
100
AcDbEntity
  8
RAAMI
100
AcDbLine
 10
216.3539527846987
 20
5.437746065901284
 30
0.0
 11
217.5294608709704
 21
2.079151533696436
 31
0.0
  0
LINE
  5
807
330
1E
100
AcDbEntity
  8
RAAMI
100
AcDbLine
 10
214.1694608709704
 20
5.719151533696437
 30
0.0
 11
216.2545745183976
 21
5.719151533696437
 31
0.0
  0
LINE
  5
808
330
1E
100
AcDbEntity
  8
RAAMI
100
AcDbLine
 10
214.1694608709704
 20
5.439151533696436
 30
0.0
 11
216.3527174016903
 21
5.439151533696436
 31
0.0
  0
LINE
  5
809
330
1E
100
AcDbEntity
  8
RAAMI
100
AcDbLine
 10
214.1694608709704
 20
5.439151533696436
 30
0.0
 11
214.1694608709704
 21
3.479151533696435
 31
0.0
  0
LINE
  5
80A
330
1E
100
AcDbEntity
  8
RAAMI
100
AcDbLine
 10
213.8894608709704
 20
5.439151533696436
 30
0.0
 11
213.8894608709704
 21
3.479151533696435
 31
0.0
  0
LINE
  5
80B
330
1E
100
AcDbEntity
  8
RAAMI
100
AcDbLine
 10
211.6993495123958
 20
5.42169050919755
 30
0.0
 11
210.5294608709704
 21
2.079151533696436
 31
0.0
  0
INSERT
  5
80C
330
1E
100
AcDbEntity
  8
RAAMI
100
AcDbBlockReference
  2
*X15
 10
210.5294608709704
 20
2.079151533696436
 30
0.0
 41
0.7
 42
0.7
 43
0.7
  0
INSERT
  5
80D
330
1E
100
AcDbEntity
  8
RAAMI
100
AcDbBlockReference
  2
*X16
 10
210.5294608709704
 20
2.079151533696436
 30
0.0
 41
0.7
 42
0.7
 43
0.7
  0
INSERT
  5
80E
330
1E
100
AcDbEntity
  8
RAAMI
100
AcDbBlockReference
  2
*X17
 10
210.5294608709704
 20
2.079151533696436
 30
0.0
 41
0.7
 42
0.7
 43
0.7
  0
INSERT
  5
80F
330
1E
100
AcDbEntity
  8
RAAMI
100
AcDbBlockReference
  2
*X18
 10
210.5294608709704
 20
2.079151533696436
 30
0.0
 41
0.7
 42
0.7
 43
0.7
  0
LINE
  5
810
330
1E
100
AcDbEntity
  8
RAAMI
100
AcDbLine
 10
218.0194608709704
 20
2.079151533696436
 30
0.0
 11
218.0194608709704
 21
5.439151533696436
 31
0.0
  0
LINE
  5
811
330
1E
100
AcDbEntity
  8
RAAMI
100
AcDbLine
 10
218.0194608709704
 20
9.079151533696435
 30
0.0
 11
219.9794608709704
 21
9.079151533696435
 31
0.0
  0
LINE
  5
812
330
1E
100
AcDbEntity
  8
RAAMI
100
AcDbLine
 10
219.9794608709704
 20
9.079151533696435
 30
0.0
 11
219.9794608709704
 21
5.719151533696437
 31
0.0
  0
LINE
  5
813
330
1E
100
AcDbEntity
  8
RAAMI
100
AcDbLine
 10
219.9794608709704
 20
5.719151533696437
 30
0.0
 11
218.0194608709704
 21
5.719151533696437
 31
0.0
  0
LINE
  5
814
330
1E
100
AcDbEntity
  8
RAAMI
100
AcDbLine
 10
218.0194608709704
 20
5.439151533696436
 30
0.0
 11
219.9794608709704
 21
5.439151533696436
 31
0.0
  0
LINE
  5
815
330
1E
100
AcDbEntity
  8
RAAMI
100
AcDbLine
 10
219.9794608709704
 20
5.439151533696436
 30
0.0
 11
219.9794608709704
 21
2.079151533696436
 31
0.0
  0
LINE
  5
816
330
1E
100
AcDbEntity
  8
RAAMI
100
AcDbLine
 10
219.9794608709704
 20
2.079151533696436
 30
0.0
 11
218.0194608709704
 21
2.079151533696436
 31
0.0
  0
LINE
  5
817
330
1E
100
AcDbEntity
  8
RAAMI
100
AcDbLine
 10
218.0194608709704
 20
5.719151533696437
 30
0.0
 11
218.0194608709704
 21
9.079151533696435
 31
0.0
  0
ARC
  5
818
330
1E
100
AcDbEntity
  8
RAAMI
100
AcDbCircle
 10
220.8194608709704
 20
7.504151533696433
 30
0.0
 40
1.574999999999998
100
AcDbArc
 50
298.4558593394117
 51
90.0524369955635
  0
LINE
  5
819
330
1E
100
AcDbEntity
  8
RAAMI
100
AcDbLine
 10
220.2594608709704
 20
9.079151533696435
 30
0.0
 11
220.8180194339713
 21
9.079150874096097
 31
0.0
  0
LINE
  5
81A
330
1E
100
AcDbEntity
  8
RAAMI
100
AcDbLine
 10
220.2594608709704
 20
9.079151533696435
 30
0.0
 11
220.2594608709704
 21
5.719151533696437
 31
0.0
  0
LINE
  5
81B
330
1E
100
AcDbEntity
  8
RAAMI
100
AcDbLine
 10
220.2594608709704
 20
5.719151533696437
 30
0.0
 11
222.2439036375075
 21
5.719151533696437
 31
0.0
  0
LINE
  5
81C
330
1E
100
AcDbEntity
  8
RAAMI
100
AcDbLine
 10
222.4994608709704
 20
5.439151533696436
 30
0.0
 11
220.2594608709704
 21
5.439151533696436
 31
0.0
  0
LINE
  5
81D
330
1E
100
AcDbEntity
  8
RAAMI
100
AcDbLine
 10
220.2594608709704
 20
5.439151533696436
 30
0.0
 11
220.2594608709704
 21
2.079151533696436
 31
0.0
  0
ARC
  5
81E
330
1E
100
AcDbEntity
  8
RAAMI
100
AcDbCircle
 10
220.8194608709704
 20
4.179151533696438
 30
0.0
 40
2.099999999999998
100
AcDbArc
 50
269.9377244294032
 51
37.05655321680703
  0
LINE
  5
81F
330
1E
100
AcDbEntity
  8
RAAMI
100
AcDbLine
 10
220.2594608709704
 20
2.079151533696436
 30
0.0
 11
220.8171783525438
 21
2.079152774146892
 31
0.0
  0
ARC
  5
820
330
1E
100
AcDbEntity
  8
RAAMI
100
AcDbCircle
 10
220.8194608709704
 20
4.179151533696438
 30
0.0
 40
2.099999999999998
100
AcDbArc
 50
47.28621969132301
 51
68.78799932186918
  0
INSERT
  5
821
330
1E
100
AcDbEntity
  8
RAAMI
100
AcDbBlockReference
  2
*X19
 10
210.5294608709704
 20
2.079151533696436
 30
0.0
 41
0.7
 42
0.7
 43
0.7
  0
INSERT
  5
822
330
1E
100
AcDbEntity
  8
RAAMI
100
AcDbBlockReference
  2
*X20
 10
210.5294608709704
 20
2.079151533696436
 30
0.0
 41
0.7
 42
0.7
 43
0.7
  0
INSERT
  5
823
330
1E
100
AcDbEntity
  8
RAAMI
100
AcDbBlockReference
  2
*X21
 10
210.5294608709704
 20
2.079151533696436
 30
0.0
 41
0.7
 42
0.7
 43
0.7
  0
INSERT
  5
824
330
1E
100
AcDbEntity
  8
RAAMI
100
AcDbBlockReference
  2
*X22
 10
210.5294608709704
 20
2.079151533696436
 30
0.0
 41
0.7
 42
0.7
 43
0.7
  0
INSERT
  5
825
330
1E
100
AcDbEntity
  8
RAAMI
100
AcDbBlockReference
  2
*X22
 10
215.9894608709704
 20
2.079151533696436
 30
0.0
 41
0.7
 42
0.7
 43
0.7
  0
INSERT
  5
826
330
1E
100
AcDbEntity
  8
RAAMI
100
AcDbBlockReference
  2
*X21
 10
215.9894608709704
 20
2.079151533696436
 30
0.0
 41
0.7
 42
0.7
 43
0.7
  0
INSERT
  5
827
330
1E
100
AcDbEntity
  8
RAAMI
100
AcDbBlockReference
  2
*X20
 10
215.9894608709704
 20
2.079151533696436
 30
0.0
 41
0.7
 42
0.7
 43
0.7
  0
INSERT
  5
828
330
1E
100
AcDbEntity
  8
RAAMI
100
AcDbBlockReference
  2
*X19
 10
215.9894608709704
 20
2.079151533696436
 30
0.0
 41
0.7
 42
0.7
 43
0.7
  0
ARC
  5
829
330
1E
100
AcDbEntity
  8
RAAMI
100
AcDbCircle
 10
226.2794608709704
 20
4.179151533696438
 30
0.0
 40
2.099999999999998
100
AcDbArc
 50
47.28621969132301
 51
68.78799932186918
  0
LINE
  5
82A
330
1E
100
AcDbEntity
  8
RAAMI
100
AcDbLine
 10
225.7194608709704
 20
2.079151533696436
 30
0.0
 11
226.2771783525438
 21
2.079152774146892
 31
0.0
  0
ARC
  5
82B
330
1E
100
AcDbEntity
  8
RAAMI
100
AcDbCircle
 10
226.2794608709704
 20
4.179151533696438
 30
0.0
 40
2.099999999999998
100
AcDbArc
 50
269.9377244294032
 51
37.05655321680703
  0
LINE
  5
82C
330
1E
100
AcDbEntity
  8
RAAMI
100
AcDbLine
 10
225.7194608709704
 20
5.439151533696436
 30
0.0
 11
225.7194608709704
 21
2.079151533696436
 31
0.0
  0
LINE
  5
82D
330
1E
100
AcDbEntity
  8
RAAMI
100
AcDbLine
 10
227.9594608709704
 20
5.439151533696436
 30
0.0
 11
225.7194608709704
 21
5.439151533696436
 31
0.0
  0
LINE
  5
82E
330
1E
100
AcDbEntity
  8
RAAMI
100
AcDbLine
 10
225.7194608709704
 20
5.719151533696437
 30
0.0
 11
227.7039036375075
 21
5.719151533696437
 31
0.0
  0
LINE
  5
82F
330
1E
100
AcDbEntity
  8
RAAMI
100
AcDbLine
 10
225.7194608709704
 20
9.079151533696435
 30
0.0
 11
225.7194608709704
 21
5.719151533696437
 31
0.0
  0
LINE
  5
830
330
1E
100
AcDbEntity
  8
RAAMI
100
AcDbLine
 10
225.7194608709704
 20
9.079151533696435
 30
0.0
 11
226.2780194339713
 21
9.079150874096097
 31
0.0
  0
ARC
  5
831
330
1E
100
AcDbEntity
  8
RAAMI
100
AcDbCircle
 10
226.2794608709704
 20
7.504151533696433
 30
0.0
 40
1.574999999999998
100
AcDbArc
 50
298.4558593394117
 51
90.0524369955635
  0
LINE
  5
832
330
1E
100
AcDbEntity
  8
RAAMI
100
AcDbLine
 10
223.4794608709704
 20
5.719151533696437
 30
0.0
 11
223.4794608709704
 21
9.079151533696435
 31
0.0
  0
LINE
  5
833
330
1E
100
AcDbEntity
  8
RAAMI
100
AcDbLine
 10
225.4394608709704
 20
2.079151533696436
 30
0.0
 11
223.4794608709704
 21
2.079151533696436
 31
0.0
  0
LINE
  5
834
330
1E
100
AcDbEntity
  8
RAAMI
100
AcDbLine
 10
225.4394608709704
 20
5.439151533696436
 30
0.0
 11
225.4394608709704
 21
2.079151533696436
 31
0.0
  0
LINE
  5
835
330
1E
100
AcDbEntity
  8
RAAMI
100
AcDbLine
 10
223.4794608709704
 20
5.439151533696436
 30
0.0
 11
225.4394608709704
 21
5.439151533696436
 31
0.0
  0
LINE
  5
836
330
1E
100
AcDbEntity
  8
RAAMI
100
AcDbLine
 10
225.4394608709704
 20
5.719151533696437
 30
0.0
 11
223.4794608709704
 21
5.719151533696437
 31
0.0
  0
LINE
  5
837
330
1E
100
AcDbEntity
  8
RAAMI
100
AcDbLine
 10
225.4394608709704
 20
9.079151533696435
 30
0.0
 11
225.4394608709704
 21
5.719151533696437
 31
0.0
  0
LINE
  5
838
330
1E
100
AcDbEntity
  8
RAAMI
100
AcDbLine
 10
223.4794608709704
 20
9.079151533696435
 30
0.0
 11
225.4394608709704
 21
9.079151533696435
 31
0.0
  0
LINE
  5
839
330
1E
100
AcDbEntity
  8
RAAMI
100
AcDbLine
 10
223.4794608709704
 20
2.079151533696436
 30
0.0
 11
223.4794608709704
 21
5.439151533696436
 31
0.0
  0
TEXT
  5
83A
330
1E
100
AcDbEntity
  8
RAAMI
100
AcDbText
 10
230.0794608709704
 20
2.079151533696436
 30
0.0
 40
3.0
  1
ABB Transmit Oy
 41
0.8
  7
ROMANS
100
AcDbText
  0
LINE
  5
83B
330
1E
100
AcDbEntity
  8
OHUT
100
AcDbLine
 10
282.5794608709704
 20
10.07915153369643
 30
0.0
 11
282.5794608709704
 21
18.57915153369643
 31
0.0
  0
TEXT
  5
83C
330
1E
100
AcDbEntity
  8
RAAMI
100
AcDbText
 10
28.07946087097043
 20
5.079151533696436
 30
0.0
 40
1.399999999999999
  1
MUUTOS
  7
ROMANS
100
AcDbText
  0
TEXT
  5
83D
330
1E
100
AcDbEntity
  8
RAAMI
100
AcDbText
 10
28.07946087097043
 20
2.812484867029771
 30
0.0
 40
1.399999999999999
  1
REVISION
  7
ROMANS
100
AcDbText
  0
LINE
  5
83E
330
1E
100
AcDbEntity
  8
OHUT
100
AcDbLine
 10
47.07946087097043
 20
9.579151533696435
 30
0.0
 11
209.5794608709704
 21
9.579151533696435
 31
0.0
  0
LINE
  5
83F
330
1E
100
AcDbEntity
  8
OHUT
100
AcDbLine
 10
47.07946087097043
 20
0.5791515336964367
 30
0.0
 11
47.07946087097043
 21
9.579151533696435
 31
0.0
  0
LINE
  5
840
330
1E
100
AcDbEntity
  8
OHUT
100
AcDbLine
 10
41.07946087097043
 20
5.079151533696436
 30
0.0
 11
209.5794608709704
 21
5.079151533696436
 31
0.0
  0
LINE
  5
841
330
1E
100
AcDbEntity
  8
OHUT
100
AcDbLine
 10
257.5794608709704
 20
10.07915153369643
 30
0.0
 11
257.5794608709704
 21
35.57915153369644
 31
0.0
  0
LINE
  5
842
330
1E
100
AcDbEntity
  8
OHUT
100
AcDbLine
 10
271.5794608709704
 20
10.07915153369643
 30
0.0
 11
271.5794608709704
 21
0.5791515336964367
 31
0.0
  0
TEXT
  5
843
330
1E
100
AcDbEntity
  8
RAAMI
100
AcDbText
 10
210.5794608709704
 20
32.57915153369644
 30
0.0
 40
1.399999999999999
  1
TEKI  PREPARED
  7
ROMANS
100
AcDbText
  0
TEXT
  5
844
330
1E
100
AcDbEntity
  8
RAAMI
100
AcDbText
 10
273.5794608709704
 20
7.579151533696436
 30
0.0
 40
1.399999999999999
  1
VAST.OSASTO RESP.DEPT.
  7
ROMANS
100
AcDbText
  0
TEXT
  5
845
330
1E
100
AcDbEntity
  8
RAAMI
100
AcDbText
 10
42.57946087097043
 20
1.536444345838026
 30
0.0
 40
2.5
  1
C
  7
ROMANS
100
AcDbText
  0
TEXT
  5
846
330
1E
100
AcDbEntity
  8
RAAMI
100
AcDbText
 10
42.57946087097043
 20
5.928660732579046
 30
0.0
 40
2.5
  1
B
  7
ROMANS
100
AcDbText
  0
LINE
  5
847
330
1E
100
AcDbEntity
  8
PAKSU
100
AcDbLine
 10
0.5794608709704362
 20
0.5791515336964367
 30
0.0
 11
392.5794608709704
 21
0.5791515336964367
 31
0.0
  0
LINE
  5
848
330
1E
100
AcDbEntity
  8
PAKSU
100
AcDbLine
 10
392.5794608709704
 20
263.0791515336964
 30
0.0
 11
392.5794608709704
 21
0.5791515336964367
 31
0.0
  0
LINE
  5
849
330
1E
100
AcDbEntity
  8
PAKSU
100
AcDbLine
 10
0.5794608709704362
 20
0.5791515336964367
 30
0.0
 11
0.5794608709704362
 21
263.0791515336964
 31
0.0
  0
TEXT
  5
84A
330
1E
100
AcDbEntity
  8
0
  6
Continuous
100
AcDbText
 10
213.306607189134
 20
19.7449422263173
 30
0.0
 40
2.0
  1
Markku Niemi
  7
ROMANS
100
AcDbText
  0
TEXT
  5
84B
330
1E
100
AcDbEntity
  8
0
  6
Continuous
100
AcDbText
 10
213.306607189134
 20
11.1897525892369
 30
0.0
 40
2.0
  1
Timo Kasi
  7
ROMANS
100
AcDbText
  0
TEXT
  5
84C
330
1E
100
AcDbEntity
  8
0
  6
Continuous
100
AcDbText
 10
281.5353816307289
 20
2.5
 30
0.0
 40
2.5
  1
RSG
  7
ROMANS
100
AcDbText
  0
ENDSEC
  0
SECTION
  2
OBJECTS
  0
DICTIONARY
  5
C
330
0
100
AcDbDictionary
281
     1
  3
ACAD_GROUP
350
D
  3
ACAD_LAYOUT
350
19
  3
ACAD_MLINESTYLE
350
16
  3
ACAD_PLOTSETTINGS
350
18
  3
ACAD_PLOTSTYLENAME
350
E
  3
AcDbVariableDictionary
350
84F
  0
DICTIONARY
  5
D
102
{ACAD_REACTORS
330
C
102
}
330
C
100
AcDbDictionary
281
     1
  0
DICTIONARY
  5
19
102
{ACAD_REACTORS
330
C
102
}
330
C
100
AcDbDictionary
281
     1
  3
Layout1
350
1D
  3
Model
350
21
  0
DICTIONARY
  5
16
102
{ACAD_REACTORS
330
C
102
}
330
C
100
AcDbDictionary
281
     1
  3
Standard
350
17
  0
DICTIONARY
  5
18
102
{ACAD_REACTORS
330
C
102
}
330
C
100
AcDbDictionary
281
     1
  0
ACDBDICTIONARYWDFLT
  5
E
102
{ACAD_REACTORS
330
C
102
}
330
C
100
AcDbDictionary
281
     1
  3
Normal
350
F
100
AcDbDictionaryWithDefault
340
F
  0
DICTIONARY
  5
84F
102
{ACAD_REACTORS
330
C
102
}
330
C
100
AcDbDictionary
281
     1
  3
DIMASSOC
350
851
  3
HIDETEXT
350
850
  0
LAYOUT
  5
1D
102
{ACAD_REACTORS
330
19
102
}
330
19
100
AcDbPlotSettings
  1

  2
\\FIVAA-S-IGS2002\FIVAA-P-234
  4

  6

 40
0.0
 41
0.0
 42
0.0
 43
0.0
 44
0.0
 45
0.0
 46
0.0
 47
0.0
 48
0.0
 49
0.0
140
0.0
141
0.0
142
1.0
143
1.0
 70
   688
 72
     0
 73
     0
 74
     5
  7

 75
    16
147
1.0
148
0.0
149
0.0
100
AcDbLayout
  1
Layout1
 70
     0
 71
     1
 10
0.0
 20
0.0
 11
12.0
 21
9.0
 12
0.0
 22
0.0
 32
0.0
 14
1.000000000000000E+20
 24
1.000000000000000E+20
 34
1.000000000000000E+20
 15
-1.000000000000000E+20
 25
-1.000000000000000E+20
 35
-1.000000000000000E+20
146
0.0
 13
0.0
 23
0.0
 33
0.0
 16
1.0
 26
0.0
 36
0.0
 17
0.0
 27
1.0
 37
0.0
 76
     0
330
1A
  0
LAYOUT
  5
21
102
{ACAD_REACTORS
330
19
102
}
330
19
100
AcDbPlotSettings
  1

  2
\\FIVAA-S-IGS2002\FIVAA-P-234
  4

  6

 40
0.0
 41
0.0
 42
0.0
 43
0.0
 44
0.0
 45
0.0
 46
0.0
 47
0.0
 48
0.0
 49
0.0
140
0.0
141
0.0
142
1.0
143
1.0
 70
  1712
 72
     0
 73
     0
 74
     0
  7

 75
     0
147
1.0
148
0.0
149
0.0
100
AcDbLayout
  1
Model
 70
     1
 71
     0
 10
0.0
 20
0.0
 11
12.0
 21
9.0
 12
0.0
 22
0.0
 32
0.0
 14
0.0
 24
0.0
 34
0.0
 15
0.0
 25
0.0
 35
0.0
146
0.0
 13
0.0
 23
0.0
 33
0.0
 16
1.0
 26
0.0
 36
0.0
 17
0.0
 27
1.0
 37
0.0
 76
     0
330
1E
  0
MLINESTYLE
  5
17
102
{ACAD_REACTORS
330
16
102
}
330
16
100
AcDbMlineStyle
  2
STANDARD
 70
     0
  3

 62
   256
 51
90.0
 52
90.0
 71
     2
 49
0.5
 62
   256
  6
BYLAYER
 49
-0.5
 62
   256
  6
BYLAYER
  0
ACDBPLACEHOLDER
  5
F
102
{ACAD_REACTORS
330
E
102
}
330
E
  0
DICTIONARYVAR
  5
851
102
{ACAD_REACTORS
330
84F
102
}
330
84F
100
DictionaryVariables
280
     0
  1
2
  0
DICTIONARYVAR
  5
850
102
{ACAD_REACTORS
330
84F
102
}
330
84F
100
DictionaryVariables
280
     0
  1
1
  0
ENDSEC
  0
EOF
