  0
SECTION
  2
HEADER
  9
$ACADVER
  1
AC1009
  9
$DWGCODEPAGE
  3
iso8859-1
  9
$INSBASE
 10
0.0
 20
0.0
 30
0.0
  9
$EXTMIN
 10
1.0E20
 20
1.0E20
  9
$EXTMAX
 10
-1.0E20
 20
-1.0E20
  9
$LIMMIN
 10
0.0
 20
0.0
  9
$LIMMAX
 10
12.0
 20
9.0
  9
$ORTHOMODE
 70
     0
  9
$REGENMODE
 70
     1
  9
$FILLMODE
 70
     1
  9
$QTEXTMODE
 70
     0
  9
$MIRRTEXT
 70
     1
  9
$DRAGMODE
 70
     2
  9
$LTSCALE
 40
15.0
  9
$OSMODE
 70
     0
  9
$ATTMODE
 70
     1
  9
$TEXTSIZE
 40
0.2
  9
$TRACEWID
 40
0.05
  9
$TEXTSTYLE
  7
STANDARD
  9
$CLAYER
  8
0
  9
$CELTYPE
  6
DASHED
  9
$CECOLOR
 62
   256
  9
$DIMSCALE
 40
1.0
  9
$DIMASZ
 40
0.18
  9
$DIMEXO
 40
0.0625
  9
$DIMDLI
 40
0.38
  9
$DIMRND
 40
0.0
  9
$DIMDLE
 40
0.0
  9
$DIMEXE
 40
0.18
  9
$DIMTP
 40
0.0
  9
$DIMTM
 40
0.0
  9
$DIMTXT
 40
0.18
  9
$DIMCEN
 40
0.09
  9
$DIMTSZ
 40
0.0
  9
$DIMTOL
 70
     0
  9
$DIMLIM
 70
     0
  9
$DIMTIH
 70
     1
  9
$DIMTOH
 70
     1
  9
$DIMSE1
 70
     0
  9
$DIMSE2
 70
     0
  9
$DIMTAD
 70
     0
  9
$DIMZIN
 70
     0
  9
$DIMBLK
  1

  9
$DIMASO
 70
     1
  9
$DIMSHO
 70
     1
  9
$DIMPOST
  1

  9
$DIMAPOST
  1

  9
$DIMALT
 70
     0
  9
$DIMALTD
 70
     2
  9
$DIMALTF
 40
25.4
  9
$DIMLFAC
 40
1.0
  9
$DIMTOFL
 70
     0
  9
$DIMTVP
 40
0.0
  9
$DIMTIX
 70
     0
  9
$DIMSOXD
 70
     0
  9
$DIMSAH
 70
     0
  9
$DIMBLK1
  1

  9
$DIMBLK2
  1

  9
$DIMSTYLE
  2
STANDARD
  9
$DIMCLRD
 70
     0
  9
$DIMCLRE
 70
     0
  9
$DIMCLRT
 70
     0
  9
$DIMTFAC
 40
1.0
  9
$DIMGAP
 40
0.09
  9
$LUNITS
 70
     2
  9
$LUPREC
 70
     4
  9
$AXISMODE
 70
     0
  9
$AXISUNIT
 10
0.0
 20
0.0
  9
$SKETCHINC
 40
0.1
  9
$FILLETRAD
 40
0.0
  9
$AUNITS
 70
     0
  9
$AUPREC
 70
     0
  9
$MENU
  1
acad
  9
$ELEVATION
 40
0.0
  9
$PELEVATION
 40
0.0
  9
$THICKNESS
 40
0.0
  9
$LIMCHECK
 70
     0
  9
$BLIPMODE
 70
     1
  9
$CHAMFERA
 40
0.0
  9
$CHAMFERB
 40
0.0
  9
$SKPOLY
 70
     0
  9
$TDCREATE
 40
0.000000000
  9
$TDUPDATE
 40
0.000000000
  9
$TDINDWG
 40
0.0
  9
$TDUSRTIMER
 40
0.0
  9
$USRTIMER
 70
     1
  9
$ANGBASE
 50
0.0
  9
$ANGDIR
 70
     0
  9
$PDMODE
 70
     0
  9
$PDSIZE
 40
0.0
  9
$PLINEWID
 40
0.0
  9
$COORDS
 70
     1
  9
$SPLFRAME
 70
     0
  9
$SPLINETYPE
 70
     6
  9
$SPLINESEGS
 70
     8
  9
$ATTDIA
 70
     0
  9
$ATTREQ
 70
     1
  9
$HANDLING
 70
     1
  9
$HANDSEED
  5
   449
  9
$SURFTAB1
 70
     6
  9
$SURFTAB2
 70
     6
  9
$SURFTYPE
 70
     6
  9
$SURFU
 70
     6
  9
$SURFV
 70
     6
  9
$UCSNAME
  2

  9
$UCSORG
 10
0.0
 20
0.0
 30
0.0
  9
$UCSXDIR
 10
1.0
 20
0.0
 30
0.0
  9
$UCSYDIR
 10
0.0
 20
1.0
 30
0.0
  9
$PUCSNAME
  2

  9
$PUCSORG
 10
0.0
 20
0.0
 30
0.0
  9
$PUCSXDIR
 10
1.0
 20
0.0
 30
0.0
  9
$PUCSYDIR
 10
0.0
 20
1.0
 30
0.0
  9
$USERI1
 70
     0
  9
$USERI2
 70
     0
  9
$USERI3
 70
     0
  9
$USERI4
 70
     0
  9
$USERI5
 70
     0
  9
$USERR1
 40
0.0
  9
$USERR2
 40
0.0
  9
$USERR3
 40
0.0
  9
$USERR4
 40
0.0
  9
$USERR5
 40
0.0
  9
$WORLDVIEW
 70
     1
  9
$SHADEDGE
 70
     3
  9
$SHADEDIF
 70
    70
  9
$TILEMODE
 70
     1
  9
$MAXACTVP
 70
    16
  9
$PINSBASE
 10
0.0
 20
0.0
 30
0.0
  9
$PLIMCHECK
 70
     0
  9
$PEXTMIN
 10
1.0E20
 20
1.0E20
 30
1.0E20
  9
$PEXTMAX
 10
-1.0E20
 20
-1.0E20
 30
-1.0E20
  9
$PLIMMIN
 10
0.0
 20
0.0
  9
$PLIMMAX
 10
12.0
 20
9.0
  9
$UNITMODE
 70
     0
  9
$VISRETAIN
 70
     0
  0
ENDSEC
  0
SECTION
  2
TABLES
  0
TABLE
  2
VPORT
 70
     1
  0
VPORT
  2
*ACTIVE
 70
     0
 10
0.0
 20
0.0
 11
1.0
 21
1.0
 12
6.801242
 22
4.5
 13
0.0
 23
0.0
 14
1.0
 24
1.0
 15
0.0
 25
0.0
 16
0.0
 26
0.0
 36
1.0
 17
0.0
 27
0.0
 37
0.0
 40
9.0
 41
1.511387
 42
50.0
 43
0.0
 44
0.0
 50
0.0
 51
0.0
 71
     0
 72
   100
 73
     1
 74
     1
 75
     0
 76
     0
 77
     0
 78
     0
  0
ENDTAB
  0
TABLE
  2
LTYPE
 70
    41
  0
LTYPE
  2
BYBLOCK
 70
     0
  3

 72
    65
 73
     0
 40
0.0
  0
LTYPE
  2
BYLAYER
 70
     0
  3

 72
    65
 73
     0
 40
0.0
  0
LTYPE
  2
CONTINUOUS
 70
     0
  3
Solid line
 72
    65
 73
     0
 40
0.0
  0
LTYPE
  2
BORDER
 70
    64
  3
__ __ . __ __ . __ __ . __ __ . __ __ . __ __ .
 72
    65
 73
     6
 40
1.75
 49
0.5
 49
-0.25
 49
0.5
 49
-0.25
 49
0.0
 49
-0.25
  0
LTYPE
  2
BORDER2
 70
    64
  3
__.__.__.__.__.__.__.__.__.__.__.__.__.__.__.__
 72
    65
 73
     6
 40
0.875
 49
0.25
 49
-0.125
 49
0.25
 49
-0.125
 49
0.0
 49
-0.125
  0
LTYPE
  2
BORDERX2
 70
    64
  3
____  ____  .  ____  ____  .  ____  ____  .  __
 72
    65
 73
     6
 40
3.5
 49
1.0
 49
-0.5
 49
1.0
 49
-0.5
 49
0.0
 49
-0.5
  0
LTYPE
  2
CENTER
 70
    64
  3
____ _ ____ _ ____ _ ____ _ ____ _ ____ _ ____
 72
    65
 73
     4
 40
2.0
 49
1.25
 49
-0.25
 49
0.25
 49
-0.25
  0
LTYPE
  2
CENTER2
 70
    64
  3
___ _ ___ _ ___ _ ___ _ ___ _ ___ _ ___ _ ___ _
 72
    65
 73
     4
 40
1.125
 49
0.75
 49
-0.125
 49
0.125
 49
-0.125
  0
LTYPE
  2
CENTERX2
 70
    64
  3
________  __  ________  __  ________  __  _____
 72
    65
 73
     4
 40
4.0
 49
2.5
 49
-0.5
 49
0.5
 49
-0.5
  0
LTYPE
  2
DASHDOT
 70
    64
  3
__ . __ . __ . __ . __ . __ . __ . __ . __ . __
 72
    65
 73
     4
 40
1.0
 49
0.5
 49
-0.25
 49
0.0
 49
-0.25
  0
LTYPE
  2
DASHDOT2
 70
    64
  3
_._._._._._._._._._._._._._._._._._._._._._._._
 72
    65
 73
     4
 40
0.5
 49
0.25
 49
-0.125
 49
0.0
 49
-0.125
  0
LTYPE
  2
DASHDOTX2
 70
    64
  3
____  .  ____  .  ____  .  ____  .  ____  .  __
 72
    65
 73
     4
 40
2.0
 49
1.0
 49
-0.5
 49
0.0
 49
-0.5
  0
LTYPE
  2
DASHED
 70
    64
  3
__ __ __ __ __ __ __ __ __ __ __ __ __ __ __ __
 72
    65
 73
     2
 40
0.75
 49
0.5
 49
-0.25
  0
LTYPE
  2
DASHED2
 70
    64
  3
_ _ _ _ _ _ _ _ _ _ _ _ _ _ _ _ _ _ _ _ _ _ _ _
 72
    65
 73
     2
 40
0.375
 49
0.25
 49
-0.125
  0
LTYPE
  2
DASHEDX2
 70
    64
  3
____  ____  ____  ____  ____  ____  ____  ____
 72
    65
 73
     2
 40
1.5
 49
1.0
 49
-0.5
  0
LTYPE
  2
DIVIDE
 70
    64
  3
____ . . ____ . . ____ . . ____ . . ____ . . __
 72
    65
 73
     6
 40
1.25
 49
0.5
 49
-0.25
 49
0.0
 49
-0.25
 49
0.0
 49
-0.25
  0
LTYPE
  2
DIVIDE2
 70
    64
  3
__..__..__..__..__..__..__..__..__..__..__..__.
 72
    65
 73
     6
 40
0.625
 49
0.25
 49
-0.125
 49
0.0
 49
-0.125
 49
0.0
 49
-0.125
  0
LTYPE
  2
DIVIDEX2
 70
    64
  3
________  .  .  ________  .  .  ________  .  .
 72
    65
 73
     6
 40
2.5
 49
1.0
 49
-0.5
 49
0.0
 49
-0.5
 49
0.0
 49
-0.5
  0
LTYPE
  2
DOT
 70
    64
  3
. . . . . . . . . . . . . . . . . . . . . . . .
 72
    65
 73
     2
 40
0.25
 49
0.0
 49
-0.25
  0
LTYPE
  2
DOT2
 70
    64
  3
...............................................
 72
    65
 73
     2
 40
0.125
 49
0.0
 49
-0.125
  0
LTYPE
  2
DOTX2
 70
    64
  3
.  .  .  .  .  .  .  .  .  .  .  .  .  .  .  .
 72
    65
 73
     2
 40
0.5
 49
0.0
 49
-0.5
  0
LTYPE
  2
HIDDEN
 70
    64
  3
__ __ __ __ __ __ __ __ __ __ __ __ __ __ __ __
 72
    65
 73
     2
 40
0.375
 49
0.25
 49
-0.125
  0
LTYPE
  2
HIDDEN2
 70
    64
  3
_ _ _ _ _ _ _ _ _ _ _ _ _ _ _ _ _ _ _ _ _ _ _ _
 72
    65
 73
     2
 40
0.1875
 49
0.125
 49
-0.0625
  0
LTYPE
  2
HIDDENX2
 70
    64
  3
____ ____ ____ ____ ____ ____ ____ ____ ____ __
 72
    65
 73
     2
 40
0.75
 49
0.5
 49
-0.25
  0
LTYPE
  2
PHANTOM
 70
    64
  3
______  __  __  ______  __  __  ______  __  __
 72
    65
 73
     6
 40
2.5
 49
1.25
 49
-0.25
 49
0.25
 49
-0.25
 49
0.25
 49
-0.25
  0
LTYPE
  2
PHANTOM2
 70
    64
  3
___ _ _ ___ _ _ ___ _ _ ___ _ _ ___ _ _ ___ _ _
 72
    65
 73
     6
 40
1.25
 49
0.625
 49
-0.125
 49
0.125
 49
-0.125
 49
0.125
 49
-0.125
  0
LTYPE
  2
PHANTOMX2
 70
    64
  3
____________    ____    ____    ____________
 72
    65
 73
     6
 40
5.0
 49
2.5
 49
-0.5
 49
0.5
 49
-0.5
 49
0.5
 49
-0.5
  0
LTYPE
  2
ACAD_ISO02W100
 70
    64
  3
__ __ __ __ __ __ __ __ __ __ __ __ __ __ __ __
 72
    65
 73
     2
 40
15.0
 49
12.0
 49
-3.0
  0
LTYPE
  2
ACAD_ISO03W100
 70
    64
  3
__    __    __    __    __    __    __    __
 72
    65
 73
     2
 40
30.0
 49
12.0
 49
-18.0
  0
LTYPE
  2
ACAD_ISO04W100
 70
    64
  3
____ . ____ . ____ . ____ . ____ . ____ . ____
 72
    65
 73
     4
 40
30.5
 49
24.0
 49
-3.0
 49
0.5
 49
-3.0
  0
LTYPE
  2
ACAD_ISO05W100
 70
    64
  3
____ .. ____ .. ____ .. ____ .. ____ .. ____ ..
 72
    65
 73
     6
 40
34.0
 49
24.0
 49
-3.0
 49
0.5
 49
-3.0
 49
0.5
 49
-3.0
  0
LTYPE
  2
ACAD_ISO06W100
 70
    64
  3
____ ... ____ ... ____ ... ____ ... ____ ... __
 72
    65
 73
     8
 40
37.5
 49
24.0
 49
-3.0
 49
0.5
 49
-3.0
 49
0.5
 49
-3.0
 49
0.5
 49
-3.0
  0
LTYPE
  2
ACAD_ISO07W100
 70
    64
  3
. . . . . . . . . . . . . . . . . . . . . . . .
 72
    65
 73
     2
 40
3.5
 49
0.5
 49
-3.0
  0
LTYPE
  2
ACAD_ISO08W100
 70
    64
  3
____ __ ____ __ ____ __ ____ ____ __ __ ____ __
 72
    65
 73
     4
 40
36.0
 49
24.0
 49
-3.0
 49
6.0
 49
-3.0
  0
LTYPE
  2
ACAD_ISO09W100
 70
    64
  3
____ __ __ ____ __ __ ____ __ __ ____ __ __ ___
 72
    65
 73
     6
 40
45.0
 49
24.0
 49
-3.0
 49
6.0
 49
-3.0
 49
6.0
 49
-3.0
  0
LTYPE
  2
ACAD_ISO10W100
 70
    64
  3
__ . __ . __ . __ . __ . __ . __ . __ . __ . __
 72
    65
 73
     4
 40
18.5
 49
12.0
 49
-3.0
 49
0.5
 49
-3.0
  0
LTYPE
  2
ACAD_ISO11W100
 70
    64
  3
__ __ . __ __ . __ __ . __ __ . __ __ . __ __ .
 72
    65
 73
     6
 40
33.5
 49
12.0
 49
-3.0
 49
12.0
 49
-3.0
 49
0.5
 49
-3.0
  0
LTYPE
  2
ACAD_ISO12W100
 70
    64
  3
__ . . __ . . __ . . __ . . __ . . __ . . __ .
 72
    65
 73
     6
 40
22.0
 49
12.0
 49
-3.0
 49
0.5
 49
-3.0
 49
0.5
 49
-3.0
  0
LTYPE
  2
ACAD_ISO13W100
 70
    64
  3
__ __ . . __ __ . . __ __ . . __ __ . . __ __ .
 72
    65
 73
     8
 40
37.0
 49
12.0
 49
-3.0
 49
12.0
 49
-3.0
 49
0.5
 49
-3.0
 49
0.5
 49
-3.0
  0
LTYPE
  2
ACAD_ISO14W100
 70
    64
  3
__ . . . __ . . . __ . . . __ . . . __ . . . __
 72
    65
 73
     8
 40
25.5
 49
12.0
 49
-3.0
 49
0.5
 49
-3.0
 49
0.5
 49
-3.0
 49
0.5
 49
-3.0
  0
LTYPE
  2
ACAD_ISO15W100
 70
    64
  3
__ __ . . . __ __ . . . __ __ . . . __ __ . . .
 72
    65
 73
    10
 40
40.5
 49
12.0
 49
-3.0
 49
12.0
 49
-3.0
 49
0.5
 49
-3.0
 49
0.5
 49
-3.0
 49
0.5
 49
-3.0
  0
ENDTAB
  0
TABLE
  2
STYLE
 70
     4
  0
STYLE
  2
STANDARD
 70
    64
 40
0.0
 41
1.0
 50
0.0
 71
     0
 42
0.2
  3
txt
  4

  0
STYLE
  2
TOLERANCE
 70
    64
 40
0.0
 41
1.0
 50
0.0
 71
     0
 42
0.2
  3
../igesfont/iges1003.shx
  4

  0
STYLE
  2
ROMANS
 70
    64
 40
0.0
 41
1.0
 50
0.0
 71
     0
 42
0.2
  3
romans.shx
  4

  0
STYLE
  2
ROMANC
 70
    64
 40
0.0
 41
1.0
 50
0.0
 71
     0
 42
0.2
  3
romanc.shx
  4

  0
ENDTAB
  0
TABLE
  2
DIMSTYLE
 70
     2
  0
DIMSTYLE
  2
UNNAMED
 70
     0
  3

  4

  5

  6

  7

 40
1.0
 41
0.18
 42
0.0625
 43
0.38
 44
0.18
 45
0.0
 46
0.0
 47
0.0
 48
0.0
140
0.18
141
0.09
142
0.0
143
25.4
144
1.0
145
0.0
146
1.0
147
0.09
 71
     0
 72
     0
 73
     1
 74
     1
 75
     0
 76
     0
 77
     0
 78
     0
170
     0
171
     2
172
     0
173
     0
174
     0
175
     0
176
     0
177
     0
178
     0
  0
DIMSTYLE
  2
STANDARD
 70
     0
  3

  4

  5

  6

  7

 40
1.0
 41
0.18
 42
0.0625
 43
0.38
 44
0.18
 45
0.0
 46
0.0
 47
0.0
 48
0.0
140
0.18
141
0.09
142
0.0
143
25.4
144
1.0
145
0.0
146
1.0
147
0.09
 71
     0
 72
     0
 73
     1
 74
     1
 75
     0
 76
     0
 77
     0
 78
     0
170
     0
171
     2
172
     0
173
     0
174
     0
175
     0
176
     0
177
     0
178
     0
  0
ENDTAB
  0
TABLE
  2
LAYER
 70
     2
  0
LAYER
  2
0
 70
     0
 62
     7
  6
CONTINUOUS
  0
LAYER
  2
255
 70
     0
 62
     7
  6
CONTINUOUS
  0
ENDTAB
  0
ENDSEC
  0
SECTION
  2
BLOCKS
  0
BLOCK
  5
     B
  8
0
  6
CONTINUOUS
 62
     7
  2
*UDIM2210
 70
    65
 10
0.0
 20
0.0
 30
0.0
  3
*UDIM2210
  0
TEXT
  5
     C
  8
0
  6
CONTINUOUS
 62
     7
 10
-669.539697659206
 20
-120.534158400426
 30
0.0
 40
3.00000002980232
  1
65,75
 50
449.999999896069
 41
0.933333333333333
 72
     1
 11
-671.039697661996
 21
-113.834158331156
 31
0.0
 73
     2
  0
LINE
  5
     D
  8
0
  6
CONTINUOUS
 62
     7
 10
-662.782318376244
 20
-105.914588928223
 30
0.0
 11
-670.539697647095
 21
-105.914588928223
 31
0.0
  0
LINE
  5
     E
  8
0
  6
CONTINUOUS
 62
     7
 10
-668.539697647095
 20
-105.914588928223
 30
0.0
 11
-668.539697647095
 21
-122.352088928223
 31
0.0
  0
LINE
  5
     F
  8
0
  6
CONTINUOUS
 62
     7
 10
-668.018753217143
 20
-108.86901220543
 30
0.0
 11
-668.539697647095
 21
-105.914588928223
 31
0.0
  0
LINE
  5
    10
  8
0
  6
CONTINUOUS
 62
     7
 10
-668.539697647095
 20
-105.914588928223
 30
0.0
 11
-669.060642077046
 21
-108.86901220543
 31
0.0
  0
LINE
  5
    11
  8
0
  6
CONTINUOUS
 62
     7
 10
-669.060642077046
 20
-119.397665651016
 30
0.0
 11
-668.539697647095
 21
-122.352088928223
 31
0.0
  0
LINE
  5
    12
  8
0
  6
CONTINUOUS
 62
     7
 10
-668.539697647095
 20
-122.352088928223
 30
0.0
 11
-668.018753217143
 21
-119.397665651016
 31
0.0
  0
ENDBLK
  5
    13
  8
0
  6
CONTINUOUS
 62
     7
  0
BLOCK
  5
    14
  8
0
  6
CONTINUOUS
 62
     7
  2
*UDIM2211
 70
    65
 10
0.0
 20
0.0
 30
0.0
  3
*UDIM2211
  0
TEXT
  5
    15
  8
0
  6
CONTINUOUS
 62
     7
 10
-680.015237491144
 20
-153.541559530732
 30
0.0
 40
3.00000002980232
  1
5
 50
395.275203288638
 41
0.933333333333334
 72
     1
 11
-679.98346766755
 21
-151.681723315617
 31
0.0
 73
     2
  0
TEXT
  5
    16
  8
0
  6
CONTINUOUS
 62
     7
 10
-682.586858440121
 20
-155.360698271281
 30
0.0
 40
3.00000002980232
  1
Ø
 50
395.275203288638
 41
0.933333333333334
 72
     1
 11
-682.555088616527
 21
-153.500862056167
 31
0.0
 73
     2
  0
TEXT
  5
    17
  8
0
  6
CONTINUOUS
 62
     7
 10
-677.770171568662
 20
-151.953422512249
 30
0.0
 40
3.00000002980232
  1
 (M4)
 50
395.275203288638
 41
0.933333333333333
 72
     1
 11
-673.166631132261
 21
-146.859561855831
 31
0.0
 73
     2
  0
LINE
  5
    18
  8
0
  6
CONTINUOUS
 62
     7
 10
-658.156261656078
 20
-139.303648703061
 30
0.0
 11
-682.0093540765
 21
-156.177085871614
 31
0.0
  0
LINE
  5
    19
  8
0
  6
CONTINUOUS
 62
     7
 10
-656.045154806351
 20
-137.172163805382
 30
0.0
 11
-658.156261656078
 21
-139.303648703061
 31
0.0
  0
LINE
  5
    1A
  8
0
  6
CONTINUOUS
 62
     7
 10
-658.156261656078
 20
-139.303648703061
 30
0.0
 11
-655.443459446853
 21
-138.022748951472
 31
0.0
  0
LINE
  5
    1B
  8
0
  6
CONTINUOUS
 62
     7
 10
-661.287853006149
 20
-142.157014051063
 30
0.0
 11
-659.176746156422
 21
-140.025529153384
 31
0.0
  0
LINE
  5
    1C
  8
0
  6
CONTINUOUS
 62
     7
 10
-659.176746156422
 20
-140.025529153384
 30
0.0
 11
-661.889548365647
 21
-141.306428904973
 31
0.0
  0
ENDBLK
  5
    1D
  8
0
  6
CONTINUOUS
 62
     7
  0
BLOCK
  5
    1E
  8
0
  6
CONTINUOUS
 62
     7
  2
*UDIM2212
 70
    65
 10
0.0
 20
0.0
 30
0.0
  3
*UDIM2212
  0
TEXT
  5
    1F
  8
0
  6
CONTINUOUS
 62
     7
 10
-651.191505847108
 20
-97.6544227554875
 30
0.0
 40
3.00000002980232
  1
82
 50
359.999999896069
 41
0.933333333333333
 72
     1
 11
-648.691505819559
 21
-96.1544227451086
 31
0.0
 73
     2
  0
LINE
  5
    20
  8
0
  6
CONTINUOUS
 62
     7
 10
-638.16650390625
 20
-100.369665396834
 30
0.0
 11
-638.16650390625
 21
-96.6544227600098
 31
0.0
  0
LINE
  5
    21
  8
0
  6
CONTINUOUS
 62
     7
 10
-658.66650390625
 20
-100.369665396834
 30
0.0
 11
-658.66650390625
 21
-96.6544227600098
 31
0.0
  0
LINE
  5
    22
  8
0
  6
CONTINUOUS
 62
     7
 10
-638.16650390625
 20
-98.6544227600098
 30
0.0
 11
-658.66650390625
 21
-98.6544227600098
 31
0.0
  0
LINE
  5
    23
  8
0
  6
CONTINUOUS
 62
     7
 10
-641.120927183457
 20
-99.1753671899614
 30
0.0
 11
-638.16650390625
 21
-98.6544227600098
 31
0.0
  0
LINE
  5
    24
  8
0
  6
CONTINUOUS
 62
     7
 10
-638.16650390625
 20
-98.6544227600098
 30
0.0
 11
-641.120927183457
 21
-98.1334783300581
 31
0.0
  0
LINE
  5
    25
  8
0
  6
CONTINUOUS
 62
     7
 10
-655.712080629043
 20
-98.1334783300581
 30
0.0
 11
-658.66650390625
 21
-98.6544227600098
 31
0.0
  0
LINE
  5
    26
  8
0
  6
CONTINUOUS
 62
     7
 10
-658.66650390625
 20
-98.6544227600098
 30
0.0
 11
-655.712080629043
 21
-99.1753671899614
 31
0.0
  0
ENDBLK
  5
    27
  8
0
  6
CONTINUOUS
 62
     7
  0
BLOCK
  5
    28
  8
0
  6
CONTINUOUS
 62
     7
  2
*UDIM2213
 70
    65
 10
0.0
 20
0.0
 30
0.0
  3
*UDIM2213
  0
TEXT
  5
    29
  8
0
  6
CONTINUOUS
 62
     7
 10
-678.530723578827
 20
-126.964590401157
 30
0.0
 40
3.00000002980232
  1
135
 50
449.999999896069
 41
0.933333333333333
 72
     1
 11
-680.030723586679
 21
-123.064590359703
 31
0.0
 73
     2
  0
LINE
  5
    2A
  8
0
  6
CONTINUOUS
 62
     7
 10
-662.782318376244
 20
-105.914588614306
 30
0.0
 11
-679.530723571777
 21
-105.914583356706
 31
0.0
  0
LINE
  5
    2B
  8
0
  6
CONTINUOUS
 62
     7
 10
-662.918080517778
 20
-139.664588614306
 30
0.0
 11
-679.530723571777
 21
-139.664583399324
 31
0.0
  0
LINE
  5
    2C
  8
0
  6
CONTINUOUS
 62
     7
 10
-677.530723571777
 20
-105.914583984539
 30
0.0
 11
-677.530723571777
 21
-139.664584027157
 31
0.0
  0
LINE
  5
    2D
  8
0
  6
CONTINUOUS
 62
     7
 10
-677.009779141826
 20
-108.869007261746
 30
0.0
 11
-677.530723571777
 21
-105.914583984539
 31
0.0
  0
LINE
  5
    2E
  8
0
  6
CONTINUOUS
 62
     7
 10
-677.530723571777
 20
-105.914583984539
 30
0.0
 11
-678.051668001729
 21
-108.869007261746
 31
0.0
  0
LINE
  5
    2F
  8
0
  6
CONTINUOUS
 62
     7
 10
-678.051668001729
 20
-136.71016074995
 30
0.0
 11
-677.530723571777
 21
-139.664584027157
 31
0.0
  0
LINE
  5
    30
  8
0
  6
CONTINUOUS
 62
     7
 10
-677.530723571777
 20
-139.664584027157
 30
0.0
 11
-677.009779141826
 21
-136.71016074995
 31
0.0
  0
ENDBLK
  5
    31
  8
0
  6
CONTINUOUS
 62
     7
  0
BLOCK
  5
    32
  8
0
  6
CONTINUOUS
 62
     7
  2
*HATCH1296
 70
    65
 10
0.0
 20
0.0
 30
0.0
  3
*HATCH1296
  0
LINE
  5
    33
  8
0
  6
CONTINUOUS
 62
    52
 10
-48.547779083252
 20
-4.00005149841309
 30
0.0
 11
-50.547779083252
 21
-6.00005149841309
 31
0.0
  0
LINE
  5
    34
  8
0
  6
CONTINUOUS
 62
    52
 10
-44.3051414489746
 20
-4.00005149841309
 30
0.0
 11
-46.3051414489746
 21
-6.00005149841309
 31
0.0
  0
LINE
  5
    35
  8
0
  6
CONTINUOUS
 62
    52
 10
-40.0625038146973
 20
-4.00005149841309
 30
0.0
 11
-42.0625038146973
 21
-6.00005149841309
 31
0.0
  0
LINE
  5
    36
  8
0
  6
CONTINUOUS
 62
    52
 10
-35.8198661804199
 20
-4.00005149841309
 30
0.0
 11
-37.8198661804199
 21
-6.00005149841309
 31
0.0
  0
LINE
  5
    37
  8
0
  6
CONTINUOUS
 62
    52
 10
-31.5772266387939
 20
-4.00005149841309
 30
0.0
 11
-33.5772285461426
 21
-6.00005149841309
 31
0.0
  0
LINE
  5
    38
  8
0
  6
CONTINUOUS
 62
    52
 10
-27.3345851898193
 20
-4.00005149841309
 30
0.0
 11
-29.334587097168
 21
-6.00005149841309
 31
0.0
  0
LINE
  5
    39
  8
0
  6
CONTINUOUS
 62
    52
 10
-23.0919437408447
 20
-4.00005149841309
 30
0.0
 11
-25.0919456481934
 21
-6.00005149841309
 31
0.0
  0
LINE
  5
    3A
  8
0
  6
CONTINUOUS
 62
    52
 10
-18.8493022918701
 20
-4.00005149841309
 30
0.0
 11
-20.8493041992188
 21
-6.00005149841309
 31
0.0
  0
LINE
  5
    3B
  8
0
  6
CONTINUOUS
 62
    52
 10
-14.6066608428955
 20
-4.00005149841309
 30
0.0
 11
-16.6066627502441
 21
-6.00005149841309
 31
0.0
  0
LINE
  5
    3C
  8
0
  6
CONTINUOUS
 62
    52
 10
-10.3640193939209
 20
-4.00005149841309
 30
0.0
 11
-12.3640213012695
 21
-6.00005149841309
 31
0.0
  0
LINE
  5
    3D
  8
0
  6
CONTINUOUS
 62
    52
 10
-6.12137794494629
 20
-4.00005149841309
 30
0.0
 11
-8.12137985229492
 21
-6.00005149841309
 31
0.0
  0
LINE
  5
    3E
  8
0
  6
CONTINUOUS
 62
    52
 10
-1.87873673439026
 20
-4.00005149841309
 30
0.0
 11
-3.87873864173889
 21
-6.00005149841309
 31
0.0
  0
LINE
  5
    3F
  8
0
  6
CONTINUOUS
 62
    52
 10
2.36390423774719
 20
-4.00005149841309
 30
0.0
 11
0.36390233039856
 21
-6.00005149841309
 31
0.0
  0
LINE
  5
    40
  8
0
  6
CONTINUOUS
 62
    52
 10
6.60654544830322
 20
-4.00005149841309
 30
0.0
 11
4.60654354095459
 21
-6.00005149841309
 31
0.0
  0
LINE
  5
    41
  8
0
  6
CONTINUOUS
 62
    52
 10
10.8491868972778
 20
-4.00005149841309
 30
0.0
 11
8.8491849899292
 21
-6.00005149841309
 31
0.0
  0
LINE
  5
    42
  8
0
  6
CONTINUOUS
 62
    52
 10
15.0918283462524
 20
-4.00005149841309
 30
0.0
 11
13.0918264389038
 21
-6.00005149841309
 31
0.0
  0
LINE
  5
    43
  8
0
  6
CONTINUOUS
 62
    52
 10
19.3344688415527
 20
-4.00005149841309
 30
0.0
 11
17.3344669342041
 21
-6.00005149841309
 31
0.0
  0
LINE
  5
    44
  8
0
  6
CONTINUOUS
 62
    52
 10
23.5771102905273
 20
-4.00005149841309
 30
0.0
 11
21.5771083831787
 21
-6.00005149841309
 31
0.0
  0
LINE
  5
    45
  8
0
  6
CONTINUOUS
 62
    52
 10
27.819751739502
 20
-4.00005149841309
 30
0.0
 11
25.8197498321533
 21
-6.00005149841309
 31
0.0
  0
LINE
  5
    46
  8
0
  6
CONTINUOUS
 62
    52
 10
32.0623931884766
 20
-4.00005149841309
 30
0.0
 11
30.0623912811279
 21
-6.00005149841309
 31
0.0
  0
LINE
  5
    47
  8
0
  6
CONTINUOUS
 62
    52
 10
35.4806251525879
 20
-4.82446241378784
 30
0.0
 11
34.3050346374512
 21
-6.00005149841309
 31
0.0
  0
ENDBLK
  5
    48
  8
0
  6
CONTINUOUS
 62
     7
  0
BLOCK
  5
    49
  8
0
  6
CONTINUOUS
 62
     7
  2
*HATCH1297
 70
    65
 10
0.0
 20
0.0
 30
0.0
  3
*HATCH1297
  0
LINE
  5
    4A
  8
0
  6
CONTINUOUS
 62
    52
 10
44.7903175354004
 20
-4.00005149841309
 30
0.0
 11
42.7903175354004
 21
-6.00005149841309
 31
0.0
  0
LINE
  5
    4B
  8
0
  6
CONTINUOUS
 62
    52
 10
49.0329551696777
 20
-4.00005149841309
 30
0.0
 11
47.0329551696777
 21
-6.00005149841309
 31
0.0
  0
LINE
  5
    4C
  8
0
  6
CONTINUOUS
 62
    52
 10
53.2755928039551
 20
-4.00005149841309
 30
0.0
 11
51.2755928039551
 21
-6.00005149841309
 31
0.0
  0
ENDBLK
  5
    4D
  8
0
  6
CONTINUOUS
 62
     7
  0
BLOCK
  5
    4E
  8
0
  6
CONTINUOUS
 62
     7
  2
*HATCH1298
 70
    65
 10
0.0
 20
0.0
 30
0.0
  3
*HATCH1298
  0
LINE
  5
    4F
  8
0
  6
CONTINUOUS
 62
    52
 10
169.948226928711
 20
-4.00005149841309
 30
0.0
 11
167.948226928711
 21
-6.00005149841309
 31
0.0
  0
LINE
  5
    50
  8
0
  6
CONTINUOUS
 62
    52
 10
174.190872192383
 20
-4.00005149841309
 30
0.0
 11
172.190872192383
 21
-6.00005149841309
 31
0.0
  0
LINE
  5
    51
  8
0
  6
CONTINUOUS
 62
    52
 10
177.480621337891
 20
-4.95293474197388
 30
0.0
 11
176.433502197266
 21
-6.00005149841309
 31
0.0
  0
ENDBLK
  5
    52
  8
0
  6
CONTINUOUS
 62
     7
  0
BLOCK
  5
    53
  8
0
  6
CONTINUOUS
 62
     7
  2
*HATCH1299
 70
    65
 10
0.0
 20
0.0
 30
0.0
  3
*HATCH1299
  0
LINE
  5
    54
  8
0
  6
CONTINUOUS
 62
    52
 10
186.918792724609
 20
-4.00005149841309
 30
0.0
 11
184.918792724609
 21
-6.00005149841309
 31
0.0
  0
LINE
  5
    55
  8
0
  6
CONTINUOUS
 62
    52
 10
191.161437988281
 20
-4.00005149841309
 30
0.0
 11
189.161437988281
 21
-6.00005149841309
 31
0.0
  0
LINE
  5
    56
  8
0
  6
CONTINUOUS
 62
    52
 10
195.404083251953
 20
-4.00005149841309
 30
0.0
 11
193.404083251953
 21
-6.00005149841309
 31
0.0
  0
LINE
  5
    57
  8
0
  6
CONTINUOUS
 62
    52
 10
199.646728515625
 20
-4.00005149841309
 30
0.0
 11
197.646728515625
 21
-6.00005149841309
 31
0.0
  0
LINE
  5
    58
  8
0
  6
CONTINUOUS
 62
    52
 10
203.889373779297
 20
-4.00005149841309
 30
0.0
 11
201.889373779297
 21
-6.00005149841309
 31
0.0
  0
LINE
  5
    59
  8
0
  6
CONTINUOUS
 62
    52
 10
208.132019042969
 20
-4.00005149841309
 30
0.0
 11
206.132019042969
 21
-6.00005149841309
 31
0.0
  0
LINE
  5
    5A
  8
0
  6
CONTINUOUS
 62
    52
 10
212.374664306641
 20
-4.00005149841309
 30
0.0
 11
210.374664306641
 21
-6.00005149841309
 31
0.0
  0
LINE
  5
    5B
  8
0
  6
CONTINUOUS
 62
    52
 10
216.617309570313
 20
-4.00005149841309
 30
0.0
 11
214.617309570313
 21
-6.00005149841309
 31
0.0
  0
LINE
  5
    5C
  8
0
  6
CONTINUOUS
 62
    52
 10
220.859954833984
 20
-4.00005149841309
 30
0.0
 11
218.859954833984
 21
-6.00005149841309
 31
0.0
  0
LINE
  5
    5D
  8
0
  6
CONTINUOUS
 62
    52
 10
225.102600097656
 20
-4.00005149841309
 30
0.0
 11
223.102600097656
 21
-6.00005149841309
 31
0.0
  0
LINE
  5
    5E
  8
0
  6
CONTINUOUS
 62
    52
 10
229.345245361328
 20
-4.00005149841309
 30
0.0
 11
227.345245361328
 21
-6.00005149841309
 31
0.0
  0
LINE
  5
    5F
  8
0
  6
CONTINUOUS
 62
    52
 10
233.587890625
 20
-4.00005149841309
 30
0.0
 11
231.587890625
 21
-6.00005149841309
 31
0.0
  0
LINE
  5
    60
  8
0
  6
CONTINUOUS
 62
    52
 10
235.840072631836
 20
-5.99046421051025
 30
0.0
 11
235.830474853516
 21
-6.00005149841309
 31
0.0
  0
ENDBLK
  5
    61
  8
0
  6
CONTINUOUS
 62
     7
  0
BLOCK
  5
    62
  8
0
  6
CONTINUOUS
 62
     7
  2
*UDIM2214
 70
    65
 10
0.0
 20
0.0
 30
0.0
  3
*UDIM2214
  0
TEXT
  5
    63
  8
0
  6
CONTINUOUS
 62
     7
 10
-504.000218499066
 20
-93.0107612599942
 30
0.0
 40
3.00000002980232
  1
2
 50
359.999999948034
 41
0.933333333333334
 72
     1
 11
-502.900218486786
 21
-91.5107612460852
 31
0.0
 73
     2
  0
LINE
  5
    64
  8
0
  6
CONTINUOUS
 62
     7
 10
-507.000218391418
 20
-67.8525339538454
 30
0.0
 11
-507.000218391418
 21
-96.0107612609863
 31
0.0
  0
LINE
  5
    65
  8
0
  6
CONTINUOUS
 62
     7
 10
-508.000218391419
 20
-68.5968459798476
 30
0.0
 11
-508.000218391419
 21
-96.0107612609863
 31
0.0
  0
LINE
  5
    66
  8
0
  6
CONTINUOUS
 62
     7
 10
-501.800218475858
 20
-94.0107612609863
 30
0.0
 11
-508.000218391419
 21
-94.0107612609863
 31
0.0
  0
LINE
  5
    67
  8
0
  6
CONTINUOUS
 62
     7
 10
-504.045795114212
 20
-93.4898168310347
 30
0.0
 11
-507.000218391418
 21
-94.0107612609863
 31
0.0
  0
LINE
  5
    68
  8
0
  6
CONTINUOUS
 62
     7
 10
-507.000218391418
 20
-94.0107612609863
 30
0.0
 11
-504.045795114212
 21
-94.531705690938
 31
0.0
  0
LINE
  5
    69
  8
0
  6
CONTINUOUS
 62
     7
 10
-510.954641668625
 20
-94.531705690938
 30
0.0
 11
-508.000218391419
 21
-94.0107612609863
 31
0.0
  0
LINE
  5
    6A
  8
0
  6
CONTINUOUS
 62
     7
 10
-508.000218391419
 20
-94.0107612609863
 30
0.0
 11
-510.954641668625
 21
-93.4898168310347
 31
0.0
  0
ENDBLK
  5
    6B
  8
0
  6
CONTINUOUS
 62
     7
  0
BLOCK
  5
    6C
  8
0
  6
CONTINUOUS
 62
     7
  2
*UDIM2215
 70
    65
 10
0.0
 20
0.0
 30
0.0
  3
*UDIM2215
  0
TEXT
  5
    6D
  8
0
  6
CONTINUOUS
 62
     7
 10
-554.100225141011
 20
-93.0107612549433
 30
0.0
 40
3.00000002980232
  1
156,5
 50
359.999999948034
 41
0.933333333333333
 72
     1
 11
-547.400225073099
 21
-91.5107612460852
 31
0.0
 73
     2
  0
LINE
  5
    6E
  8
0
  6
CONTINUOUS
 62
     7
 10
-586.250236511231
 20
-69.1536073572157
 30
0.0
 11
-586.250236511231
 21
-96.0107612609863
 31
0.0
  0
LINE
  5
    6F
  8
0
  6
CONTINUOUS
 62
     7
 10
-508.000218391419
 20
-94.0107612609863
 30
0.0
 11
-586.250236511231
 21
-94.0107612609863
 31
0.0
  0
LINE
  5
    70
  8
0
  6
CONTINUOUS
 62
     7
 10
-510.954641668625
 20
-94.531705690938
 30
0.0
 11
-508.000218391419
 21
-94.0107612609863
 31
0.0
  0
LINE
  5
    71
  8
0
  6
CONTINUOUS
 62
     7
 10
-508.000218391419
 20
-94.0107612609863
 30
0.0
 11
-510.954641668625
 21
-93.4898168310347
 31
0.0
  0
LINE
  5
    72
  8
0
  6
CONTINUOUS
 62
     7
 10
-583.295813234024
 20
-93.4898168310347
 30
0.0
 11
-586.250236511231
 21
-94.0107612609863
 31
0.0
  0
LINE
  5
    73
  8
0
  6
CONTINUOUS
 62
     7
 10
-586.250236511231
 20
-94.0107612609863
 30
0.0
 11
-583.295813234024
 21
-94.531705690938
 31
0.0
  0
ENDBLK
  5
    74
  8
0
  6
CONTINUOUS
 62
     7
  0
BLOCK
  5
    75
  8
0
  6
CONTINUOUS
 62
     7
  2
*UDIM2216
 70
    65
 10
0.0
 20
0.0
 30
0.0
  3
*UDIM2216
  0
TEXT
  5
    76
  8
0
  6
CONTINUOUS
 62
     7
 10
-547.089212101932
 20
-101.708049768127
 30
0.0
 40
3.00000002980232
  1
184,5
 50
359.999999948034
 41
0.933333333333333
 72
     1
 11
-540.389212034021
 21
-100.208049759269
 31
0.0
 73
     2
  0
LINE
  5
    77
  8
0
  6
CONTINUOUS
 62
     7
 10
-493.97818032258
 20
7.40895645139842
 30
0.0
 11
-493.978222383215
 21
-104.70804977417
 31
0.0
  0
LINE
  5
    78
  8
0
  6
CONTINUOUS
 62
     7
 10
-586.250237218628
 20
-69.1536073572155
 30
0.0
 11
-586.250262369762
 21
-104.708049774169
 31
0.0
  0
LINE
  5
    79
  8
0
  6
CONTINUOUS
 62
     7
 10
-493.978221632916
 20
-102.70804977417
 30
0.0
 11
-586.250260954966
 21
-102.70804977417
 31
0.0
  0
LINE
  5
    7A
  8
0
  6
CONTINUOUS
 62
     7
 10
-496.932644910123
 20
-103.228994204122
 30
0.0
 11
-493.978221632916
 21
-102.70804977417
 31
0.0
  0
LINE
  5
    7B
  8
0
  6
CONTINUOUS
 62
     7
 10
-493.978221632916
 20
-102.70804977417
 30
0.0
 11
-496.932644910123
 21
-102.187105344218
 31
0.0
  0
LINE
  5
    7C
  8
0
  6
CONTINUOUS
 62
     7
 10
-583.295837677759
 20
-102.187105344218
 30
0.0
 11
-586.250260954966
 21
-102.70804977417
 31
0.0
  0
LINE
  5
    7D
  8
0
  6
CONTINUOUS
 62
     7
 10
-586.250260954966
 20
-102.70804977417
 30
0.0
 11
-583.295837677759
 21
-103.228994204122
 31
0.0
  0
ENDBLK
  5
    7E
  8
0
  6
CONTINUOUS
 62
     7
  0
BLOCK
  5
    7F
  8
0
  6
CONTINUOUS
 62
     7
  2
*UDIM2217
 70
    65
 10
0.0
 20
0.0
 30
0.0
  3
*UDIM2217
  0
TEXT
  5
    80
  8
0
  6
CONTINUOUS
 62
     7
 10
-552.175228936105
 20
-83.2163734400859
 30
0.0
 40
3.00000002980232
  1
153
 50
359.999999948034
 41
0.933333333333333
 72
     1
 11
-548.275228896009
 21
-81.7163734287024
 31
0.0
 73
     2
  0
LINE
  5
    81
  8
0
  6
CONTINUOUS
 62
     7
 10
-509.750221566358
 20
-13.7160435486016
 30
0.0
 11
-509.750244325406
 21
-86.2163734436034
 31
0.0
  0
LINE
  5
    82
  8
0
  6
CONTINUOUS
 62
     7
 10
-586.250237671609
 20
-69.1536073572151
 30
0.0
 11
-586.250257470882
 21
-86.2163734436022
 31
0.0
  0
LINE
  5
    83
  8
0
  6
CONTINUOUS
 62
     7
 10
-509.750243697573
 20
-84.2163734436035
 30
0.0
 11
-586.250255150124
 21
-84.2163734436035
 31
0.0
  0
LINE
  5
    84
  8
0
  6
CONTINUOUS
 62
     7
 10
-512.70466697478
 20
-84.7373178735552
 30
0.0
 11
-509.750243697573
 21
-84.2163734436035
 31
0.0
  0
LINE
  5
    85
  8
0
  6
CONTINUOUS
 62
     7
 10
-509.750243697573
 20
-84.2163734436035
 30
0.0
 11
-512.70466697478
 21
-83.6954290136518
 31
0.0
  0
LINE
  5
    86
  8
0
  6
CONTINUOUS
 62
     7
 10
-583.295831872917
 20
-83.6954290136518
 30
0.0
 11
-586.250255150124
 21
-84.2163734436035
 31
0.0
  0
LINE
  5
    87
  8
0
  6
CONTINUOUS
 62
     7
 10
-586.250255150124
 20
-84.2163734436035
 30
0.0
 11
-583.295831872917
 21
-84.7373178735552
 31
0.0
  0
ENDBLK
  5
    88
  8
0
  6
CONTINUOUS
 62
     7
  0
BLOCK
  5
    89
  8
0
  6
CONTINUOUS
 62
     7
  2
*UDIM2218
 70
    65
 10
0.0
 20
0.0
 30
0.0
  3
*UDIM2218
  0
TEXT
  5
    8A
  8
0
  6
CONTINUOUS
 62
     7
 10
-565.250213577734
 20
96.4721641550449
 30
0.0
 40
3.00000002980232
  1
5
 50
359.999999948034
 41
0.933333333333334
 72
     1
 11
-564.150213565454
 21
97.9721641689539
 31
0.0
 73
     2
  0
LINE
  5
    8B
  8
0
  6
CONTINUOUS
 62
     7
 10
-568.25021330913
 20
89.9089241027831
 30
0.0
 11
-568.250210934905
 21
97.4721641540527
 31
0.0
  0
LINE
  5
    8C
  8
0
  6
CONTINUOUS
 62
     7
 10
-570.75021330913
 20
89.9089241027831
 30
0.0
 11
-570.750210934905
 21
97.4721641540527
 31
0.0
  0
LINE
  5
    8D
  8
0
  6
CONTINUOUS
 62
     7
 10
-563.050213554526
 20
95.4721641540527
 30
0.0
 11
-570.750211562738
 21
95.4721641540527
 31
0.0
  0
LINE
  5
    8E
  8
0
  6
CONTINUOUS
 62
     7
 10
-565.295788285531
 20
95.9931085840044
 30
0.0
 11
-568.250211562738
 21
95.4721641540527
 31
0.0
  0
LINE
  5
    8F
  8
0
  6
CONTINUOUS
 62
     7
 10
-568.250211562738
 20
95.4721641540527
 30
0.0
 11
-565.295788285531
 21
94.9512197241011
 31
0.0
  0
LINE
  5
    90
  8
0
  6
CONTINUOUS
 62
     7
 10
-573.704634839945
 20
94.9512197241011
 30
0.0
 11
-570.750211562738
 21
95.4721641540527
 31
0.0
  0
LINE
  5
    91
  8
0
  6
CONTINUOUS
 62
     7
 10
-570.750211562738
 20
95.4721641540527
 30
0.0
 11
-573.704634839945
 21
95.9931085840044
 31
0.0
  0
ENDBLK
  5
    92
  8
0
  6
CONTINUOUS
 62
     7
  0
BLOCK
  5
    93
  8
0
  6
CONTINUOUS
 62
     7
  2
*UDIM2219
 70
    65
 10
0.0
 20
0.0
 30
0.0
  3
*UDIM2219
  0
TEXT
  5
    94
  8
0
  6
CONTINUOUS
 62
     7
 10
-581.275221277829
 20
96.4721641563076
 30
0.0
 40
3.00000002980232
  1
31
 50
359.999999948034
 41
0.933333333333333
 72
     1
 11
-578.775221251641
 21
97.9721641689539
 31
0.0
 73
     2
  0
LINE
  5
    95
  8
0
  6
CONTINUOUS
 62
     7
 10
-586.250236197314
 20
84.7644040579366
 30
0.0
 11
-586.250232208139
 21
97.4721641540527
 31
0.0
  0
LINE
  5
    96
  8
0
  6
CONTINUOUS
 62
     7
 10
-570.750211562738
 20
95.4721641540527
 30
0.0
 11
-586.250232835972
 21
95.4721641540527
 31
0.0
  0
LINE
  5
    97
  8
0
  6
CONTINUOUS
 62
     7
 10
-573.704634839945
 20
94.9512197241011
 30
0.0
 11
-570.750211562738
 21
95.4721641540527
 31
0.0
  0
LINE
  5
    98
  8
0
  6
CONTINUOUS
 62
     7
 10
-570.750211562738
 20
95.4721641540527
 30
0.0
 11
-573.704634839945
 21
95.9931085840044
 31
0.0
  0
LINE
  5
    99
  8
0
  6
CONTINUOUS
 62
     7
 10
-583.295809558765
 20
95.9931085840044
 30
0.0
 11
-586.250232835972
 21
95.4721641540527
 31
0.0
  0
LINE
  5
    9A
  8
0
  6
CONTINUOUS
 62
     7
 10
-586.250232835972
 20
95.4721641540527
 30
0.0
 11
-583.295809558765
 21
94.9512197241011
 31
0.0
  0
ENDBLK
  5
    9B
  8
0
  6
CONTINUOUS
 62
     7
  0
BLOCK
  5
    9C
  8
0
  6
CONTINUOUS
 62
     7
  2
*UDIM2220
 70
    65
 10
0.0
 20
0.0
 30
0.0
  3
*UDIM2220
  0
TEXT
  5
    9D
  8
0
  6
CONTINUOUS
 62
     7
 10
-593.500236535226
 20
96.4721641550449
 30
0.0
 40
3.00000002980232
  1
3
 50
359.999999948034
 41
0.933333333333334
 72
     1
 11
-592.400236522946
 21
97.9721641689539
 31
0.0
 73
     2
  0
TEXT
  5
    9E
  8
0
  6
CONTINUOUS
 62
     7
 10
-596.250236569002
 20
96.4721641550449
 30
0.0
 40
3.00000002980232
  1
_
 50
359.999999948034
 41
0.933333333333334
 72
     1
 11
-595.150236556722
 21
97.9721641689539
 31
0.0
 73
     2
  0
LINE
  5
    9F
  8
0
  6
CONTINUOUS
 62
     7
 10
-587.750231910804
 20
85.4185182082604
 30
0.0
 11
-587.750176458896
 21
97.4721641540316
 31
0.0
  0
LINE
  5
    A0
  8
0
  6
CONTINUOUS
 62
     7
 10
-586.250232835972
 20
95.4721641540527
 30
0.0
 11
-596.250236567649
 21
95.4721641540527
 31
0.0
  0
LINE
  5
    A1
  8
0
  6
CONTINUOUS
 62
     7
 10
-583.295809558765
 20
95.9931085840044
 30
0.0
 11
-586.250232835972
 21
95.4721641540527
 31
0.0
  0
LINE
  5
    A2
  8
0
  6
CONTINUOUS
 62
     7
 10
-586.250232835972
 20
95.4721641540527
 30
0.0
 11
-583.295809558765
 21
94.9512197241011
 31
0.0
  0
LINE
  5
    A3
  8
0
  6
CONTINUOUS
 62
     7
 10
-590.704608936955
 20
94.9512197241011
 30
0.0
 11
-587.750185659748
 21
95.4721641540527
 31
0.0
  0
LINE
  5
    A4
  8
0
  6
CONTINUOUS
 62
     7
 10
-587.750185659748
 20
95.4721641540527
 30
0.0
 11
-590.704608936955
 21
95.9931085840044
 31
0.0
  0
ENDBLK
  5
    A5
  8
0
  6
CONTINUOUS
 62
     7
  0
BLOCK
  5
    A6
  8
0
  6
CONTINUOUS
 62
     7
  2
*UDIM2221
 70
    65
 10
0.0
 20
0.0
 30
0.0
  3
*UDIM2221
  0
TEXT
  5
    A7
  8
0
  6
CONTINUOUS
 62
     7
 10
-472.584007266716
 20
9.35894695800011
 30
0.0
 40
3.00000002980232
  1
105
 50
89.9999999480344
 41
0.933333333333333
 72
     1
 11
-474.084007278085
 21
13.2589469981017
 31
0.0
 73
     2
  0
LINE
  5
    A8
  8
0
  6
CONTINUOUS
 62
     7
 10
-507.000218391418
 20
-12.7160435486016
 30
0.0
 11
-469.584007263184
 21
-12.7160435486016
 31
0.0
  0
LINE
  5
    A9
  8
0
  6
CONTINUOUS
 62
     7
 10
-507.000218391418
 20
39.7839411926093
 30
0.0
 11
-469.584007263184
 21
39.7839411926093
 31
0.0
  0
LINE
  5
    AA
  8
0
  6
CONTINUOUS
 62
     7
 10
-471.584007263184
 20
-12.7160435486016
 30
0.0
 11
-471.584007263184
 21
39.7839411926093
 31
0.0
  0
LINE
  5
    AB
  8
0
  6
CONTINUOUS
 62
     7
 10
-472.104951693135
 20
-9.76162027139467
 30
0.0
 11
-471.584007263184
 21
-12.7160435486016
 31
0.0
  0
LINE
  5
    AC
  8
0
  6
CONTINUOUS
 62
     7
 10
-471.584007263184
 20
-12.7160435486016
 30
0.0
 11
-471.063062833232
 21
-9.76162027139467
 31
0.0
  0
LINE
  5
    AD
  8
0
  6
CONTINUOUS
 62
     7
 10
-471.063062833232
 20
36.8295179154023
 30
0.0
 11
-471.584007263184
 21
39.7839411926093
 31
0.0
  0
LINE
  5
    AE
  8
0
  6
CONTINUOUS
 62
     7
 10
-471.584007263184
 20
39.7839411926093
 30
0.0
 11
-472.104951693135
 21
36.8295179154023
 31
0.0
  0
ENDBLK
  5
    AF
  8
0
  6
CONTINUOUS
 62
     7
  0
BLOCK
  5
    B0
  8
0
  6
CONTINUOUS
 62
     0
  2
ON-OFF
 70
    64
 10
0.0
 20
0.0
 30
0.0
  3
ON-OFF
  0
LINE
  5
    B1
  8
0
  6
CONTINUOUS
 62
     0
 10
5.09999999999999
 20
-29.65
 30
0.0
 11
5.54999999999999
 21
-29.65
 31
0.0
  0
LINE
  5
    B2
  8
0
  6
CONTINUOUS
 62
     0
 10
3.79999999999999
 20
-37.35
 30
0.0
 11
4.59999999999999
 21
-37.35
 31
0.0
  0
LINE
  5
    B3
  8
0
  6
CONTINUOUS
 62
     0
 10
-2.6
 20
-34.75
 30
0.0
 11
-2.6
 21
-34.25
 31
0.0
  0
LINE
  5
    B4
  8
0
  6
CONTINUOUS
 62
     0
 10
2.6
 20
-34.75
 30
0.0
 11
2.6
 21
-34.25
 31
0.0
  0
ARC
  5
    B5
  8
0
  6
CONTINUOUS
 62
     0
 10
-3.5527136788005E-15
 20
-34.25
 30
0.0
 40
2.6
 50
0.0
 51
180.0
  0
ARC
  5
    B6
  8
0
  6
CONTINUOUS
 62
     0
 10
-3.5527136788005E-15
 20
-34.75
 30
0.0
 40
2.6
 50
180.0
 51
360.0
  0
ARC
  5
    B7
  8
0
  6
CONTINUOUS
 62
     0
 10
-3.5527136788005E-15
 20
-34.25
 30
0.0
 40
1.8
 50
0.0
 51
180.0
  0
ARC
  5
    B8
  8
0
  6
CONTINUOUS
 62
     0
 10
-3.5527136788005E-15
 20
-34.75
 30
0.0
 40
1.8
 50
180.0
 51
360.0
  0
LINE
  5
    B9
  8
0
  6
CONTINUOUS
 62
     0
 10
-1.8
 20
-34.75
 30
0.0
 11
-1.8
 21
-34.25
 31
0.0
  0
LINE
  5
    BA
  8
0
  6
CONTINUOUS
 62
     0
 10
1.8
 20
-34.75
 30
0.0
 11
1.8
 21
-34.25
 31
0.0
  0
LINE
  5
    BB
  8
0
  6
CONTINUOUS
 62
     0
 10
2.84999999999999
 20
-32.85
 30
0.0
 11
2.84999999999999
 21
-32.05
 31
0.0
  0
LINE
  5
    BC
  8
0
  6
CONTINUOUS
 62
     0
 10
2.84999999999999
 20
-32.85
 30
0.0
 11
3.79999999999999
 21
-32.85
 31
0.0
  0
LINE
  5
    BD
  8
0
  6
CONTINUOUS
 62
     0
 10
5.54999999999999
 20
-32.85
 30
0.0
 11
5.54999999999999
 21
-32.05
 31
0.0
  0
LINE
  5
    BE
  8
0
  6
CONTINUOUS
 62
     0
 10
2.84999999999999
 20
-32.05
 30
0.0
 11
3.79999999999999
 21
-32.05
 31
0.0
  0
LINE
  5
    BF
  8
0
  6
CONTINUOUS
 62
     0
 10
3.79999999999999
 20
-37.35
 30
0.0
 11
3.79999999999999
 21
-32.85
 31
0.0
  0
LINE
  5
    C0
  8
0
  6
CONTINUOUS
 62
     0
 10
4.59999999999999
 20
-37.35
 30
0.0
 11
4.59999999999999
 21
-32.85
 31
0.0
  0
LINE
  5
    C1
  8
0
  6
CONTINUOUS
 62
     0
 10
4.59999999999999
 20
-32.85
 30
0.0
 11
5.54999999999999
 21
-32.85
 31
0.0
  0
LINE
  5
    C2
  8
0
  6
CONTINUOUS
 62
     0
 10
4.59999999999999
 20
-32.05
 30
0.0
 11
5.54999999999999
 21
-32.05
 31
0.0
  0
LINE
  5
    C3
  8
0
  6
CONTINUOUS
 62
     0
 10
3.79999999999999
 20
-32.05
 30
0.0
 11
3.79999999999999
 21
-30.95
 31
0.0
  0
LINE
  5
    C4
  8
0
  6
CONTINUOUS
 62
     0
 10
4.59999999999999
 20
-32.05
 30
0.0
 11
4.59999999999999
 21
-30.95
 31
0.0
  0
ARC
  5
    C5
  8
0
  6
CONTINUOUS
 62
     0
 10
5.09999999999999
 20
-30.95
 30
0.0
 40
1.3
 50
89.9999999999999
 51
180.0
  0
ARC
  5
    C6
  8
0
  6
CONTINUOUS
 62
     0
 10
5.09999999999999
 20
-30.95
 30
0.0
 40
0.5
 50
89.9999999999999
 51
180.0
  0
LINE
  5
    C7
  8
0
  6
CONTINUOUS
 62
     0
 10
5.54999999999999
 20
-30.45
 30
0.0
 11
5.54999999999999
 21
-29.65
 31
0.0
  0
LINE
  5
    C8
  8
0
  6
CONTINUOUS
 62
     0
 10
5.09999999999999
 20
-30.45
 30
0.0
 11
5.54999999999999
 21
-30.45
 31
0.0
  0
LINE
  5
    C9
  8
0
  6
CONTINUOUS
 62
     0
 10
8.29999999999998
 20
-29.65
 30
0.0
 11
8.74999999999999
 21
-29.65
 31
0.0
  0
LINE
  5
    CA
  8
0
  6
CONTINUOUS
 62
     0
 10
6.99999999999999
 20
-37.35
 30
0.0
 11
7.79999999999999
 21
-37.35
 31
0.0
  0
LINE
  5
    CB
  8
0
  6
CONTINUOUS
 62
     0
 10
6.04999999999999
 20
-32.85
 30
0.0
 11
6.04999999999999
 21
-32.05
 31
0.0
  0
LINE
  5
    CC
  8
0
  6
CONTINUOUS
 62
     0
 10
6.04999999999999
 20
-32.85
 30
0.0
 11
6.99999999999999
 21
-32.85
 31
0.0
  0
LINE
  5
    CD
  8
0
  6
CONTINUOUS
 62
     0
 10
8.74999999999999
 20
-32.85
 30
0.0
 11
8.74999999999999
 21
-32.05
 31
0.0
  0
LINE
  5
    CE
  8
0
  6
CONTINUOUS
 62
     0
 10
6.04999999999999
 20
-32.05
 30
0.0
 11
6.99999999999999
 21
-32.05
 31
0.0
  0
LINE
  5
    CF
  8
0
  6
CONTINUOUS
 62
     0
 10
6.99999999999999
 20
-37.35
 30
0.0
 11
6.99999999999999
 21
-32.85
 31
0.0
  0
LINE
  5
    D0
  8
0
  6
CONTINUOUS
 62
     0
 10
7.79999999999999
 20
-37.35
 30
0.0
 11
7.79999999999999
 21
-32.85
 31
0.0
  0
LINE
  5
    D1
  8
0
  6
CONTINUOUS
 62
     0
 10
7.79999999999999
 20
-32.85
 30
0.0
 11
8.74999999999999
 21
-32.85
 31
0.0
  0
LINE
  5
    D2
  8
0
  6
CONTINUOUS
 62
     0
 10
7.79999999999999
 20
-32.05
 30
0.0
 11
8.74999999999999
 21
-32.05
 31
0.0
  0
LINE
  5
    D3
  8
0
  6
CONTINUOUS
 62
     0
 10
6.99999999999999
 20
-32.05
 30
0.0
 11
6.99999999999999
 21
-30.95
 31
0.0
  0
LINE
  5
    D4
  8
0
  6
CONTINUOUS
 62
     0
 10
7.79999999999999
 20
-32.05
 30
0.0
 11
7.79999999999999
 21
-30.95
 31
0.0
  0
ARC
  5
    D5
  8
0
  6
CONTINUOUS
 62
     0
 10
8.29999999999998
 20
-30.95
 30
0.0
 40
1.3
 50
89.9999999999999
 51
180.0
  0
ARC
  5
    D6
  8
0
  6
CONTINUOUS
 62
     0
 10
8.29999999999998
 20
-30.95
 30
0.0
 40
0.5
 50
89.9999999999999
 51
180.0
  0
LINE
  5
    D7
  8
0
  6
CONTINUOUS
 62
     0
 10
8.74999999999999
 20
-30.45
 30
0.0
 11
8.74999999999999
 21
-29.65
 31
0.0
  0
LINE
  5
    D8
  8
0
  6
CONTINUOUS
 62
     0
 10
8.29999999999998
 20
-30.45
 30
0.0
 11
8.74999999999999
 21
-30.45
 31
0.0
  0
LINE
  5
    D9
  8
0
  6
CONTINUOUS
 62
     0
 10
3.4
 20
-2.85000000000002
 30
0.0
 11
4.19999999999999
 21
-2.85000000000002
 31
0.0
  0
ARC
  5
    DA
  8
0
  6
CONTINUOUS
 62
     0
 10
-3.5527136788005E-15
 20
0.249999999999979
 30
0.0
 40
2.6
 50
0.0
 51
180.0
  0
ARC
  5
    DB
  8
0
  6
CONTINUOUS
 62
     0
 10
-3.5527136788005E-15
 20
0.249999999999979
 30
0.0
 40
1.8
 50
0.0
 51
180.0
  0
ARC
  5
    DC
  8
0
  6
CONTINUOUS
 62
     0
 10
-3.5527136788005E-15
 20
-0.250000000000018
 30
0.0
 40
2.6
 50
180.0
 51
360.0
  0
ARC
  5
    DD
  8
0
  6
CONTINUOUS
 62
     0
 10
-3.5527136788005E-15
 20
-0.250000000000018
 30
0.0
 40
1.8
 50
180.0
 51
360.0
  0
LINE
  5
    DE
  8
0
  6
CONTINUOUS
 62
     0
 10
1.8
 20
-0.250000000000018
 30
0.0
 11
1.8
 21
0.249999999999979
 31
0.0
  0
LINE
  5
    DF
  8
0
  6
CONTINUOUS
 62
     0
 10
2.6
 20
-0.250000000000018
 30
0.0
 11
2.6
 21
0.249999999999979
 31
0.0
  0
LINE
  5
    E0
  8
0
  6
CONTINUOUS
 62
     0
 10
-1.8
 20
-0.250000000000032
 30
0.0
 11
-1.8
 21
0.249999999999964
 31
0.0
  0
LINE
  5
    E1
  8
0
  6
CONTINUOUS
 62
     0
 10
-2.6
 20
-0.250000000000018
 30
0.0
 11
-2.6
 21
0.249999999999979
 31
0.0
  0
LINE
  5
    E2
  8
0
  6
CONTINUOUS
 62
     0
 10
3.4
 20
-2.85000000000002
 30
0.0
 11
3.4
 21
2.84999999999998
 31
0.0
  0
LINE
  5
    E3
  8
0
  6
CONTINUOUS
 62
     0
 10
4.19999999999999
 20
-2.85000000000002
 30
0.0
 11
4.19999999999999
 21
0.649999999999981
 31
0.0
  0
LINE
  5
    E4
  8
0
  6
CONTINUOUS
 62
     0
 10
6.99999999999999
 20
-2.85000000000002
 30
0.0
 11
6.99999999999999
 21
0.649999999999981
 31
0.0
  0
LINE
  5
    E5
  8
0
  6
CONTINUOUS
 62
     0
 10
7.79999999999999
 20
-2.85000000000002
 30
0.0
 11
7.79999999999999
 21
0.84999999999998
 31
0.0
  0
LINE
  5
    E6
  8
0
  6
CONTINUOUS
 62
     0
 10
3.4
 20
2.84999999999998
 30
0.0
 11
4.19999999999999
 21
2.84999999999998
 31
0.0
  0
ARC
  5
    E7
  8
0
  6
CONTINUOUS
 62
     0
 10
5.59999999999999
 20
0.649999999999981
 30
0.0
 40
1.4
 50
0.0
 51
180.0
  0
LINE
  5
    E8
  8
0
  6
CONTINUOUS
 62
     0
 10
4.19999999999999
 20
2.05
 30
0.0
 11
4.19999999999999
 21
2.84999999999998
 31
0.0
  0
ARC
  5
    E9
  8
0
  6
CONTINUOUS
 62
     0
 10
5.79999999999999
 20
0.84999999999998
 30
0.0
 40
2.0
 50
0.0
 51
143.130102354155
  0
LINE
  5
    EA
  8
0
  6
CONTINUOUS
 62
     0
 10
6.99999999999999
 20
-2.85000000000002
 30
0.0
 11
7.79999999999999
 21
-2.85000000000002
 31
0.0
  0
ENDBLK
  5
    EB
  8
0
  6
CONTINUOUS
 62
     0
  0
BLOCK
  5
    EC
  8
0
  6
CONTINUOUS
 62
     7
  2
*UDIM2222
 70
    65
 10
0.0
 20
0.0
 30
0.0
  3
*UDIM2222
  0
TEXT
  5
    ED
  8
0
  6
CONTINUOUS
 62
     7
 10
-607.635017398552
 20
9.35892405671921
 30
0.0
 40
3.00000002980232
  1
161
 50
89.9999999480344
 41
0.933333333333333
 72
     1
 11
-609.135017409921
 21
13.2589240968208
 31
0.0
 73
     2
  0
LINE
  5
    EE
  8
0
  6
CONTINUOUS
 62
     7
 10
-618.791568112211
 20
-26.7160778045674
 30
0.0
 11
-604.63501739502
 21
-26.7160778045674
 31
0.0
  0
LINE
  5
    EF
  8
0
  6
CONTINUOUS
 62
     7
 10
-618.791568112211
 20
53.783920288084
 30
0.0
 11
-604.63501739502
 21
53.783920288084
 31
0.0
  0
LINE
  5
    F0
  8
0
  6
CONTINUOUS
 62
     7
 10
-606.63501739502
 20
-26.7160778045674
 30
0.0
 11
-606.63501739502
 21
53.783920288084
 31
0.0
  0
LINE
  5
    F1
  8
0
  6
CONTINUOUS
 62
     7
 10
-607.155961824971
 20
-23.7616545273604
 30
0.0
 11
-606.63501739502
 21
-26.7160778045674
 31
0.0
  0
LINE
  5
    F2
  8
0
  6
CONTINUOUS
 62
     7
 10
-606.63501739502
 20
-26.7160778045674
 30
0.0
 11
-606.114072965068
 21
-23.7616545273604
 31
0.0
  0
LINE
  5
    F3
  8
0
  6
CONTINUOUS
 62
     7
 10
-606.114072965068
 20
50.829497010877
 30
0.0
 11
-606.63501739502
 21
53.783920288084
 31
0.0
  0
LINE
  5
    F4
  8
0
  6
CONTINUOUS
 62
     7
 10
-606.63501739502
 20
53.783920288084
 30
0.0
 11
-607.155961824971
 21
50.829497010877
 31
0.0
  0
ENDBLK
  5
    F5
  8
0
  6
CONTINUOUS
 62
     7
  0
BLOCK
  5
    F6
  8
0
  6
CONTINUOUS
 62
     7
  2
*UDIM2223
 70
    65
 10
0.0
 20
0.0
 30
0.0
  3
*UDIM2223
  0
TEXT
  5
    F7
  8
0
  6
CONTINUOUS
 62
     7
 10
-652.591564969419
 20
102.73332596177
 30
0.0
 40
3.00000002980232
  1
117
 50
359.999999948034
 41
0.933333333333333
 72
     1
 11
-648.691564929323
 21
104.233325973153
 31
0.0
 73
     2
  0
LINE
  5
    F8
  8
0
  6
CONTINUOUS
 62
     7
 10
-619.166568112211
 20
54.158920288084
 30
0.0
 11
-619.166568112211
 21
103.733325958252
 31
0.0
  0
LINE
  5
    F9
  8
0
  6
CONTINUOUS
 62
     7
 10
-677.666568112211
 20
54.158920288084
 30
0.0
 11
-677.666568112211
 21
103.733325958252
 31
0.0
  0
LINE
  5
    FA
  8
0
  6
CONTINUOUS
 62
     7
 10
-619.166568112211
 20
101.733325958252
 30
0.0
 11
-677.666568112211
 21
101.733325958252
 31
0.0
  0
LINE
  5
    FB
  8
0
  6
CONTINUOUS
 62
     7
 10
-622.120991389418
 20
101.2123815283
 30
0.0
 11
-619.166568112211
 21
101.733325958252
 31
0.0
  0
LINE
  5
    FC
  8
0
  6
CONTINUOUS
 62
     7
 10
-619.166568112211
 20
101.733325958252
 30
0.0
 11
-622.120991389418
 21
102.254270388204
 31
0.0
  0
LINE
  5
    FD
  8
0
  6
CONTINUOUS
 62
     7
 10
-674.712144835004
 20
102.254270388204
 30
0.0
 11
-677.666568112211
 21
101.733325958252
 31
0.0
  0
LINE
  5
    FE
  8
0
  6
CONTINUOUS
 62
     7
 10
-677.666568112211
 20
101.733325958252
 30
0.0
 11
-674.712144835004
 21
101.2123815283
 31
0.0
  0
ENDBLK
  5
    FF
  8
0
  6
CONTINUOUS
 62
     7
  0
BLOCK
  5
   100
  8
0
  6
CONTINUOUS
 62
     7
  2
*UDIM2224
 70
    65
 10
0.0
 20
0.0
 30
0.0
  3
*UDIM2224
  0
TEXT
  5
   101
  8
0
  6
CONTINUOUS
 62
     7
 10
-700.062264926617
 20
40.3465918627236
 30
0.0
 40
3.00000002980232
  1
140,75
 50
89.9999999480344
 41
0.933333333333333
 72
     1
 11
-701.562264934182
 21
48.4465919445485
 31
0.0
 73
     2
  0
LINE
  5
   102
  8
0
  6
CONTINUOUS
 62
     7
 10
-684.704710976468
 20
13.5339393615723
 30
0.0
 11
-701.062264919281
 21
13.5339393615723
 31
0.0
  0
LINE
  5
   103
  8
0
  6
CONTINUOUS
 62
     7
 10
-669.967343542231
 20
83.9092355391443
 30
0.0
 11
-701.062264919281
 21
83.9092355391443
 31
0.0
  0
LINE
  5
   104
  8
0
  6
CONTINUOUS
 62
     7
 10
-699.062264919281
 20
13.5339393615723
 30
0.0
 11
-699.062264919281
 21
83.9092355391443
 31
0.0
  0
LINE
  5
   105
  8
0
  6
CONTINUOUS
 62
     7
 10
-699.583209349233
 20
16.4883626387792
 30
0.0
 11
-699.062264919281
 21
13.5339393615723
 31
0.0
  0
LINE
  5
   106
  8
0
  6
CONTINUOUS
 62
     7
 10
-699.062264919281
 20
13.5339393615723
 30
0.0
 11
-698.541320489329
 21
16.4883626387792
 31
0.0
  0
LINE
  5
   107
  8
0
  6
CONTINUOUS
 62
     7
 10
-698.541320489329
 20
80.9548122619373
 30
0.0
 11
-699.062264919281
 21
83.9092355391443
 31
0.0
  0
LINE
  5
   108
  8
0
  6
CONTINUOUS
 62
     7
 10
-699.062264919281
 20
83.9092355391443
 30
0.0
 11
-699.583209349233
 21
80.9548122619373
 31
0.0
  0
ENDBLK
  5
   109
  8
0
  6
CONTINUOUS
 62
     7
  0
BLOCK
  5
   10A
  8
0
  6
CONTINUOUS
 62
     7
  2
*UDIM2225
 70
    65
 10
0.0
 20
0.0
 30
0.0
  3
*UDIM2225
  0
TEXT
  5
   10B
  8
0
  6
CONTINUOUS
 62
     7
 10
-682.802476890271
 20
37.0964087562087
 30
0.0
 40
3.00000002980232
  1
127,75
 50
89.9999999480344
 41
0.933333333333333
 72
     1
 11
-684.302476897836
 21
45.1964088380336
 31
0.0
 73
     2
  0
LINE
  5
   10C
  8
0
  6
CONTINUOUS
 62
     7
 10
-675.041568634486
 20
77.4088783264158
 30
0.0
 11
-683.802476882935
 21
77.4088783264158
 31
0.0
  0
LINE
  5
   10D
  8
0
  6
CONTINUOUS
 62
     7
 10
-681.802476882935
 20
13.5339393615723
 30
0.0
 11
-681.802476882935
 21
77.4088783264158
 31
0.0
  0
LINE
  5
   10E
  8
0
  6
CONTINUOUS
 62
     7
 10
-682.323421312886
 20
16.4883626387792
 30
0.0
 11
-681.802476882935
 21
13.5339393615723
 31
0.0
  0
LINE
  5
   10F
  8
0
  6
CONTINUOUS
 62
     7
 10
-681.802476882935
 20
13.5339393615723
 30
0.0
 11
-681.281532452983
 21
16.4883626387792
 31
0.0
  0
LINE
  5
   110
  8
0
  6
CONTINUOUS
 62
     7
 10
-681.281532452983
 20
74.4544550492088
 30
0.0
 11
-681.802476882935
 21
77.4088783264158
 31
0.0
  0
LINE
  5
   111
  8
0
  6
CONTINUOUS
 62
     7
 10
-681.802476882935
 20
77.4088783264158
 30
0.0
 11
-682.323421312886
 21
74.4544550492088
 31
0.0
  0
ENDBLK
  5
   112
  8
0
  6
CONTINUOUS
 62
     7
  0
BLOCK
  5
   113
  8
0
  6
CONTINUOUS
 62
     7
  2
*UDIM2226
 70
    65
 10
0.0
 20
0.0
 30
0.0
  3
*UDIM2226
  0
TEXT
  5
   114
  8
0
  6
CONTINUOUS
 62
     7
 10
-615.460484513957
 20
-54.8725854598151
 30
0.0
 40
3.00000002980232
  1
8,2
 50
369.920880361246
 41
0.933333333333333
 72
     1
 11
-611.877234860992
 21
-52.7230919679829
 31
0.0
 73
     2
  0
TEXT
  5
   115
  8
0
  6
CONTINUOUS
 62
     7
 10
-618.563381326792
 20
-55.4152929606706
 30
0.0
 40
3.00000002980232
  1
Ø
 50
369.920880361246
 41
0.933333333333334
 72
     1
 11
-617.738262193648
 21
-53.7482061348383
 31
0.0
 73
     2
  0
LINE
  5
   116
  8
0
  6
CONTINUOUS
 62
     7
 10
-632.935946026234
 20
-58.9442851589931
 30
0.0
 11
-607.604832828125
 21
-54.5137849193988
 31
0.0
  0
LINE
  5
   117
  8
0
  6
CONTINUOUS
 62
     7
 10
-635.756438120046
 20
-59.9664516565573
 30
0.0
 11
-632.935946026234
 21
-58.9442851589931
 31
0.0
  0
LINE
  5
   118
  8
0
  6
CONTINUOUS
 62
     7
 10
-632.935946026234
 20
-58.9442851589931
 30
0.0
 11
-635.935943166063
 21
-58.9401425730716
 31
0.0
  0
LINE
  5
   119
  8
0
  6
CONTINUOUS
 62
     7
 10
-626.076713208116
 20
-57.2157287919133
 30
0.0
 11
-628.897205301928
 21
-58.2378952894775
 31
0.0
  0
LINE
  5
   11A
  8
0
  6
CONTINUOUS
 62
     7
 10
-628.897205301928
 20
-58.2378952894775
 30
0.0
 11
-625.897208162099
 21
-58.242037875399
 31
0.0
  0
ENDBLK
  5
   11B
  8
0
  6
CONTINUOUS
 62
     7
  0
BLOCK
  5
   11C
  8
0
  6
CONTINUOUS
 62
     7
  2
*UDIM2227
 70
    65
 10
0.0
 20
0.0
 30
0.0
  3
*UDIM2227
  0
TEXT
  5
   11D
  8
0
  6
CONTINUOUS
 62
     7
 10
-680.249098625246
 20
-71.7876701332432
 30
0.0
 40
3.00000002980232
  1
20
 50
359.999999948034
 41
0.933333333333333
 72
     1
 11
-677.749098599057
 21
-70.2876701205969
 31
0.0
 73
     2
  0
LINE
  5
   11E
  8
0
  6
CONTINUOUS
 62
     7
 10
-660.916572909247
 20
-54.5910835266113
 30
0.0
 11
-660.916579744699
 21
-74.7876701354979
 31
0.0
  0
LINE
  5
   11F
  8
0
  6
CONTINUOUS
 62
     7
 10
-670.916572909247
 20
-54.5910835266113
 30
0.0
 11
-670.916579744699
 21
-74.7876701354979
 31
0.0
  0
LINE
  5
   120
  8
0
  6
CONTINUOUS
 62
     7
 10
-660.916579067808
 20
-72.7876701354981
 30
0.0
 11
-680.249098623893
 21
-72.7876701354981
 31
0.0
  0
LINE
  5
   121
  8
0
  6
CONTINUOUS
 62
     7
 10
-663.871002345014
 20
-73.3086145654497
 30
0.0
 11
-660.916579067808
 21
-72.7876701354981
 31
0.0
  0
LINE
  5
   122
  8
0
  6
CONTINUOUS
 62
     7
 10
-660.916579067808
 20
-72.7876701354981
 30
0.0
 11
-663.871002345014
 21
-72.2667257055464
 31
0.0
  0
LINE
  5
   123
  8
0
  6
CONTINUOUS
 62
     7
 10
-667.9621557906
 20
-72.2667257055464
 30
0.0
 11
-670.916579067808
 21
-72.7876701354981
 31
0.0
  0
LINE
  5
   124
  8
0
  6
CONTINUOUS
 62
     7
 10
-670.916579067808
 20
-72.7876701354981
 30
0.0
 11
-667.9621557906
 21
-73.3086145654497
 31
0.0
  0
ENDBLK
  5
   125
  8
0
  6
CONTINUOUS
 62
     7
  0
BLOCK
  5
   126
  8
0
  6
CONTINUOUS
 62
     7
  2
*UDIM2228
 70
    65
 10
0.0
 20
0.0
 30
0.0
  3
*UDIM2228
  0
TEXT
  5
   127
  8
0
  6
CONTINUOUS
 62
     7
 10
-642.44158785249
 20
-79.0251045204502
 30
0.0
 40
3.00000002980232
  1
35
 50
359.999999948034
 41
0.933333333333333
 72
     1
 11
-639.941587826302
 21
-77.5251045078039
 31
0.0
 73
     2
  0
LINE
  5
   128
  8
0
  6
CONTINUOUS
 62
     7
 10
-630.916576082159
 20
-62.6411154244408
 30
0.0
 11
-630.916584186181
 21
-82.0251045227049
 31
0.0
  0
LINE
  5
   129
  8
0
  6
CONTINUOUS
 62
     7
 10
-648.416577154982
 20
-62.6411015290052
 30
0.0
 11
-648.416585259001
 21
-82.0251045227049
 31
0.0
  0
LINE
  5
   12A
  8
0
  6
CONTINUOUS
 62
     7
 10
-630.916583350024
 20
-80.0251045227051
 30
0.0
 11
-648.416584422845
 21
-80.0251045227051
 31
0.0
  0
LINE
  5
   12B
  8
0
  6
CONTINUOUS
 62
     7
 10
-633.871006627231
 20
-80.5460489526567
 30
0.0
 11
-630.916583350024
 21
-80.0251045227051
 31
0.0
  0
LINE
  5
   12C
  8
0
  6
CONTINUOUS
 62
     7
 10
-630.916583350024
 20
-80.0251045227051
 30
0.0
 11
-633.871006627231
 21
-79.5041600927534
 31
0.0
  0
LINE
  5
   12D
  8
0
  6
CONTINUOUS
 62
     7
 10
-645.462161145639
 20
-79.5041600927534
 30
0.0
 11
-648.416584422845
 21
-80.0251045227051
 31
0.0
  0
LINE
  5
   12E
  8
0
  6
CONTINUOUS
 62
     7
 10
-648.416584422845
 20
-80.0251045227051
 30
0.0
 11
-645.462161145639
 21
-80.5460489526567
 31
0.0
  0
ENDBLK
  5
   12F
  8
0
  6
CONTINUOUS
 62
     7
  0
BLOCK
  5
   130
  8
0
  6
CONTINUOUS
 62
     7
  2
*UDIM2229
 70
    65
 10
0.0
 20
0.0
 30
0.0
  3
*UDIM2229
  0
TEXT
  5
   131
  8
0
  6
CONTINUOUS
 62
     7
 10
-659.941584028692
 20
-79.0251045204502
 30
0.0
 40
3.00000002980232
  1
35
 50
359.999999948034
 41
0.933333333333333
 72
     1
 11
-657.441584002504
 21
-77.5251045078039
 31
0.0
 73
     2
  0
LINE
  5
   132
  8
0
  6
CONTINUOUS
 62
     7
 10
-665.916570552949
 20
-62.6410644706222
 30
0.0
 11
-665.916581345981
 21
-82.0251045227048
 31
0.0
  0
LINE
  5
   133
  8
0
  6
CONTINUOUS
 62
     7
 10
-648.416584422845
 20
-80.0251045227051
 30
0.0
 11
-665.916580232381
 21
-80.0251045227051
 31
0.0
  0
LINE
  5
   134
  8
0
  6
CONTINUOUS
 62
     7
 10
-651.371007700052
 20
-80.5460489526567
 30
0.0
 11
-648.416584422845
 21
-80.0251045227051
 31
0.0
  0
LINE
  5
   135
  8
0
  6
CONTINUOUS
 62
     7
 10
-648.416584422845
 20
-80.0251045227051
 30
0.0
 11
-651.371007700052
 21
-79.5041600927534
 31
0.0
  0
LINE
  5
   136
  8
0
  6
CONTINUOUS
 62
     7
 10
-662.962156955174
 20
-79.5041600927534
 30
0.0
 11
-665.916580232381
 21
-80.0251045227051
 31
0.0
  0
LINE
  5
   137
  8
0
  6
CONTINUOUS
 62
     7
 10
-665.916580232381
 20
-80.0251045227051
 30
0.0
 11
-662.962156955174
 21
-80.5460489526567
 31
0.0
  0
ENDBLK
  5
   138
  8
0
  6
CONTINUOUS
 62
     7
  0
BLOCK
  5
   139
  8
0
  6
CONTINUOUS
 62
     7
  2
*UDIM2230
 70
    65
 10
0.0
 20
0.0
 30
0.0
  3
*UDIM2230
  0
TEXT
  5
   13A
  8
0
  6
CONTINUOUS
 62
     7
 10
-690.497880939201
 20
3.02643113894505
 30
0.0
 40
3.00000002980232
  1
259
 50
89.9999999480344
 41
0.933333333333333
 72
     1
 11
-691.99788095057
 21
6.92643117904665
 31
0.0
 73
     2
  0
LINE
  5
   13B
  8
0
  6
CONTINUOUS
 62
     7
 10
-675.041568634486
 20
-52.0910606384275
 30
0.0
 11
-691.497880935669
 21
-52.0910606384275
 31
0.0
  0
LINE
  5
   13C
  8
0
  6
CONTINUOUS
 62
     7
 10
-675.041568634486
 20
77.4088783264158
 30
0.0
 11
-691.497880935669
 21
77.4088783264158
 31
0.0
  0
LINE
  5
   13D
  8
0
  6
CONTINUOUS
 62
     7
 10
-689.497880935669
 20
-52.0910606384275
 30
0.0
 11
-689.497880935669
 21
77.4088783264158
 31
0.0
  0
LINE
  5
   13E
  8
0
  6
CONTINUOUS
 62
     7
 10
-690.018825365621
 20
-49.1366373612205
 30
0.0
 11
-689.497880935669
 21
-52.0910606384275
 31
0.0
  0
LINE
  5
   13F
  8
0
  6
CONTINUOUS
 62
     7
 10
-689.497880935669
 20
-52.0910606384275
 30
0.0
 11
-688.976936505717
 21
-49.1366373612205
 31
0.0
  0
LINE
  5
   140
  8
0
  6
CONTINUOUS
 62
     7
 10
-688.976936505717
 20
74.4544550492088
 30
0.0
 11
-689.497880935669
 21
77.4088783264158
 31
0.0
  0
LINE
  5
   141
  8
0
  6
CONTINUOUS
 62
     7
 10
-689.497880935669
 20
77.4088783264158
 30
0.0
 11
-690.018825365621
 21
74.4544550492088
 31
0.0
  0
ENDBLK
  5
   142
  8
0
  6
CONTINUOUS
 62
     7
  0
BLOCK
  5
   143
  8
0
  6
CONTINUOUS
 62
     7
  2
*UDIM2231
 70
    65
 10
0.0
 20
0.0
 30
0.0
  3
*UDIM2231
  0
TEXT
  5
   144
  8
0
  6
CONTINUOUS
 62
     7
 10
-708.269809963583
 20
-63.619182994482
 30
0.0
 40
3.00000002980232
  1
10
 50
89.9999999480344
 41
0.933333333333333
 72
     1
 11
-709.76980997622
 21
-61.1191829682882
 31
0.0
 73
     2
  0
LINE
  5
   145
  8
0
  6
CONTINUOUS
 62
     7
 10
-636.291572570801
 20
-63.5910835266113
 30
0.0
 11
-709.269809961319
 21
-63.5910835266113
 31
0.0
  0
LINE
  5
   146
  8
0
  6
CONTINUOUS
 62
     7
 10
-634.966600864287
 20
-58.5910902242353
 30
0.0
 11
-709.269809961319
 21
-58.5910902242353
 31
0.0
  0
LINE
  5
   147
  8
0
  6
CONTINUOUS
 62
     7
 10
-707.269809961319
 20
-63.6191829931235
 30
0.0
 11
-707.269809961319
 21
-58.5910902242353
 31
0.0
  0
LINE
  5
   148
  8
0
  6
CONTINUOUS
 62
     7
 10
-706.748865531367
 20
-66.5455068038183
 30
0.0
 11
-707.269809961319
 21
-63.5910835266113
 31
0.0
  0
LINE
  5
   149
  8
0
  6
CONTINUOUS
 62
     7
 10
-707.269809961319
 20
-63.5910835266113
 30
0.0
 11
-707.790754391271
 21
-66.5455068038183
 31
0.0
  0
LINE
  5
   14A
  8
0
  6
CONTINUOUS
 62
     7
 10
-707.790754391271
 20
-55.6366669470284
 30
0.0
 11
-707.269809961319
 21
-58.5910902242353
 31
0.0
  0
LINE
  5
   14B
  8
0
  6
CONTINUOUS
 62
     7
 10
-707.269809961319
 20
-58.5910902242353
 30
0.0
 11
-706.748865531367
 21
-55.6366669470284
 31
0.0
  0
ENDBLK
  5
   14C
  8
0
  6
CONTINUOUS
 62
     7
  0
BLOCK
  5
   14D
  8
0
  6
CONTINUOUS
 62
     7
  2
*UDIM2232
 70
    65
 10
0.0
 20
0.0
 30
0.0
  3
*UDIM2232
  0
TEXT
  5
   14E
  8
0
  6
CONTINUOUS
 62
     7
 10
-708.269809964851
 20
8.48390880756056
 30
0.0
 40
3.00000002980232
  1
285
 50
89.9999999480344
 41
0.933333333333333
 72
     1
 11
-709.76980997622
 21
12.3839088476621
 31
0.0
 73
     2
  0
LINE
  5
   14F
  8
0
  6
CONTINUOUS
 62
     7
 10
-634.966545335016
 20
83.9089687878229
 30
0.0
 11
-709.269809961319
 21
83.9089687878229
 31
0.0
  0
LINE
  5
   150
  8
0
  6
CONTINUOUS
 62
     7
 10
-707.269809961319
 20
-58.5910902242353
 30
0.0
 11
-707.269809961319
 21
83.9089687878229
 31
0.0
  0
LINE
  5
   151
  8
0
  6
CONTINUOUS
 62
     7
 10
-707.790754391271
 20
-55.6366669470284
 30
0.0
 11
-707.269809961319
 21
-58.5910902242353
 31
0.0
  0
LINE
  5
   152
  8
0
  6
CONTINUOUS
 62
     7
 10
-707.269809961319
 20
-58.5910902242353
 30
0.0
 11
-706.748865531367
 21
-55.6366669470284
 31
0.0
  0
LINE
  5
   153
  8
0
  6
CONTINUOUS
 62
     7
 10
-706.748865531367
 20
80.9545455106159
 30
0.0
 11
-707.269809961319
 21
83.9089687878229
 31
0.0
  0
LINE
  5
   154
  8
0
  6
CONTINUOUS
 62
     7
 10
-707.269809961319
 20
83.9089687878229
 30
0.0
 11
-707.790754391271
 21
80.9545455106159
 31
0.0
  0
ENDBLK
  5
   155
  8
0
  6
CONTINUOUS
 62
     7
  0
BLOCK
  5
   156
  8
0
  6
CONTINUOUS
 62
     7
  2
*UDIM2233
 70
    65
 10
0.0
 20
0.0
 30
0.0
  3
*UDIM2233
  0
TEXT
  5
   157
  8
0
  6
CONTINUOUS
 62
     7
 10
-708.269809963583
 20
82.8898978475226
 30
0.0
 40
3.00000002980232
  1
10
 50
89.9999999480344
 41
0.933333333333333
 72
     1
 11
-709.76980997622
 21
85.3898978737164
 31
0.0
 73
     2
  0
LINE
  5
   158
  8
0
  6
CONTINUOUS
 62
     7
 10
-636.291572570801
 20
88.9089241027832
 30
0.0
 11
-709.269809961319
 21
88.9089241027832
 31
0.0
  0
LINE
  5
   159
  8
0
  6
CONTINUOUS
 62
     7
 10
-707.269809961319
 20
82.8898978488811
 30
0.0
 11
-707.269809961319
 21
88.9089241027832
 31
0.0
  0
LINE
  5
   15A
  8
0
  6
CONTINUOUS
 62
     7
 10
-706.748865531367
 20
80.9545455106159
 30
0.0
 11
-707.269809961319
 21
83.9089687878229
 31
0.0
  0
LINE
  5
   15B
  8
0
  6
CONTINUOUS
 62
     7
 10
-707.269809961319
 20
83.9089687878229
 30
0.0
 11
-707.790754391271
 21
80.9545455106159
 31
0.0
  0
LINE
  5
   15C
  8
0
  6
CONTINUOUS
 62
     7
 10
-707.790754391271
 20
91.8633473799902
 30
0.0
 11
-707.269809961319
 21
88.9089241027832
 31
0.0
  0
LINE
  5
   15D
  8
0
  6
CONTINUOUS
 62
     7
 10
-707.269809961319
 20
88.9089241027832
 30
0.0
 11
-706.748865531367
 21
91.8633473799902
 31
0.0
  0
ENDBLK
  5
   15E
  8
0
  6
CONTINUOUS
 62
     7
  0
BLOCK
  5
   15F
  8
0
  6
CONTINUOUS
 62
     7
  2
*UDIM2234
 70
    65
 10
0.0
 20
0.0
 30
0.0
  3
*UDIM2234
  0
TEXT
  5
   160
  8
0
  6
CONTINUOUS
 62
     7
 10
-652.591542085259
 20
95.5034980809102
 30
0.0
 40
3.00000002980232
  1
105
 50
359.999999948034
 41
0.933333333333333
 72
     1
 11
-648.691542045163
 21
97.0034980922937
 31
0.0
 73
     2
  0
LINE
  5
   161
  8
0
  6
CONTINUOUS
 62
     7
 10
-622.166553365665
 20
64.9089241027831
 30
0.0
 11
-622.166543447607
 21
96.5034980773925
 31
0.0
  0
LINE
  5
   162
  8
0
  6
CONTINUOUS
 62
     7
 10
-674.666522744199
 20
64.9089241027831
 30
0.0
 11
-674.666509543848
 21
96.5034980773924
 31
0.0
  0
LINE
  5
   163
  8
0
  6
CONTINUOUS
 62
     7
 10
-622.16654407544
 20
94.5034980773926
 30
0.0
 11
-674.666510379456
 21
94.5034980773926
 31
0.0
  0
LINE
  5
   164
  8
0
  6
CONTINUOUS
 62
     7
 10
-625.120967352647
 20
93.9825536474409
 30
0.0
 11
-622.16654407544
 21
94.5034980773926
 31
0.0
  0
LINE
  5
   165
  8
0
  6
CONTINUOUS
 62
     7
 10
-622.16654407544
 20
94.5034980773926
 30
0.0
 11
-625.120967352647
 21
95.0244425073443
 31
0.0
  0
LINE
  5
   166
  8
0
  6
CONTINUOUS
 62
     7
 10
-671.712087102249
 20
95.0244425073443
 30
0.0
 11
-674.666510379456
 21
94.5034980773926
 31
0.0
  0
LINE
  5
   167
  8
0
  6
CONTINUOUS
 62
     7
 10
-674.666510379456
 20
94.5034980773926
 30
0.0
 11
-671.712087102249
 21
93.9825536474409
 31
0.0
  0
ENDBLK
  5
   168
  8
0
  6
CONTINUOUS
 62
     7
  0
BLOCK
  5
   169
  8
0
  6
CONTINUOUS
 62
     7
  2
MOSTRINA
 70
    64
 10
0.0
 20
0.0
 30
0.0
  3
MOSTRINA
  0
LINE
  5
   16A
  8
0
  6
CONTINUOUS
 62
     3
 10
173.338256835938
 20
30.7306251525879
 30
0.0
 11
173.338256835938
 21
189.230621337891
 31
0.0
  0
LINE
  5
   16B
  8
0
  6
CONTINUOUS
 62
     3
 10
57.5882568359375
 20
29.4806251525879
 30
0.0
 11
172.088256835938
 21
29.4806251525879
 31
0.0
  0
LINE
  5
   16C
  8
0
  6
CONTINUOUS
 62
     3
 10
56.3382568359375
 20
30.7306251525879
 30
0.0
 11
56.3382568359375
 21
189.230621337891
 31
0.0
  0
LINE
  5
   16D
  8
0
  6
CONTINUOUS
 62
     3
 10
57.5882568359375
 20
190.480621337891
 30
0.0
 11
172.088256835938
 21
190.480621337891
 31
0.0
  0
LINE
  5
   16E
  8
0
  6
CONTINUOUS
 62
     3
 10
167.838256835938
 20
56.9806251525879
 30
0.0
 11
167.838256835938
 21
162.980625152588
 31
0.0
  0
LINE
  5
   16F
  8
0
  6
CONTINUOUS
 62
     3
 10
61.8382568359375
 20
56.9806251525879
 30
0.0
 11
167.838256835938
 21
56.9806251525879
 31
0.0
  0
LINE
  5
   170
  8
0
  6
CONTINUOUS
 62
     3
 10
61.8382568359375
 20
56.9806251525879
 30
0.0
 11
61.8382568359375
 21
162.980625152588
 31
0.0
  0
LINE
  5
   171
  8
0
  6
CONTINUOUS
 62
     3
 10
61.8382568359375
 20
162.980621337891
 30
0.0
 11
167.838256835938
 21
162.980621337891
 31
0.0
  0
LINE
  5
   172
  8
0
  6
CONTINUOUS
 62
     3
 10
168.838256835938
 20
48.4806251525879
 30
0.0
 11
168.838256835938
 21
49.4806251525879
 31
0.0
  0
LINE
  5
   173
  8
0
  6
CONTINUOUS
 62
     3
 10
61.8382568359375
 20
50.4806251525879
 30
0.0
 11
167.838256835938
 21
50.4806251525879
 31
0.0
  0
LINE
  5
   174
  8
0
  6
CONTINUOUS
 62
     3
 10
60.8382568359375
 20
48.4806251525879
 30
0.0
 11
60.8382568359375
 21
49.4806251525879
 31
0.0
  0
LINE
  5
   175
  8
0
  6
CONTINUOUS
 62
     3
 10
61.8382568359375
 20
49.4806251525879
 30
0.0
 11
167.838256835938
 21
49.4806251525879
 31
0.0
  0
LINE
  5
   176
  8
0
  6
CONTINUOUS
 62
     3
 10
60.8382568359375
 20
29.4806251525879
 30
0.0
 11
60.8382568359375
 21
48.4806251525879
 31
0.0
  0
LINE
  5
   177
  8
0
  6
CONTINUOUS
 62
     3
 10
60.8382568359375
 20
49.4806213378906
 30
0.0
 11
60.8382568359375
 21
190.480621337891
 31
0.0
  0
LINE
  5
   178
  8
0
  6
CONTINUOUS
 62
     3
 10
61.8382568359375
 20
29.4806251525879
 30
0.0
 11
61.8382568359375
 21
49.4806251525879
 31
0.0
  0
LINE
  5
   179
  8
0
  6
CONTINUOUS
 62
     3
 10
61.8382568359375
 20
162.980621337891
 30
0.0
 11
61.8382568359375
 21
169.480621337891
 31
0.0
  0
LINE
  5
   17A
  8
0
  6
CONTINUOUS
 62
     3
 10
61.8382568359375
 20
50.4806251525879
 30
0.0
 11
61.8382568359375
 21
56.9806251525879
 31
0.0
  0
LINE
  5
   17B
  8
0
  6
CONTINUOUS
 62
     3
 10
168.838256835938
 20
29.4806251525879
 30
0.0
 11
168.838256835938
 21
48.4806251525879
 31
0.0
  0
LINE
  5
   17C
  8
0
  6
CONTINUOUS
 62
     3
 10
168.838256835938
 20
49.4806251525879
 30
0.0
 11
168.838256835938
 21
190.480621337891
 31
0.0
  0
LINE
  5
   17D
  8
0
  6
CONTINUOUS
 62
     3
 10
167.838256835938
 20
50.4806251525879
 30
0.0
 11
167.838256835938
 21
56.9806251525879
 31
0.0
  0
LINE
  5
   17E
  8
0
  6
CONTINUOUS
 62
     3
 10
167.838256835938
 20
162.980621337891
 30
0.0
 11
167.838256835938
 21
169.480621337891
 31
0.0
  0
LINE
  5
   17F
  8
0
  6
CONTINUOUS
 62
     3
 10
167.838256835938
 20
29.4806251525879
 30
0.0
 11
167.838256835938
 21
49.4806251525879
 31
0.0
  0
LINE
  5
   180
  8
0
  6
CONTINUOUS
 62
     3
 10
60.8382568359375
 20
170.480621337891
 30
0.0
 11
168.838256835938
 21
170.480621337891
 31
0.0
  0
LINE
  5
   181
  8
0
  6
CONTINUOUS
 62
     3
 10
61.8382568359375
 20
169.480621337891
 30
0.0
 11
167.838256835938
 21
169.480621337891
 31
0.0
  0
ARC
  5
   182
  8
0
  6
CONTINUOUS
 62
     3
 10
57.5882568359375
 20
30.7306251525879
 30
0.0
 40
1.25
 50
180.0
 51
270.0
  0
ARC
  5
   183
  8
0
  6
CONTINUOUS
 62
     3
 10
172.088256835938
 20
30.7306251525879
 30
0.0
 40
1.25
 50
270.0
 51
360.0
  0
ARC
  5
   184
  8
0
  6
CONTINUOUS
 62
     3
 10
172.088256835938
 20
189.230621337891
 30
0.0
 40
1.25
 50
0.0
 51
90.0
  0
ARC
  5
   185
  8
0
  6
CONTINUOUS
 62
     3
 10
57.5882568359375
 20
189.230621337891
 30
0.0
 40
1.25
 50
90.0
 51
180.0
  0
LINE
  5
   186
  8
0
  6
DOT
 62
     3
 10
60.3382577409677
 20
179.7306252571
 30
0.0
 11
60.8382568359375
 21
179.7306252571
 31
0.0
  0
LINE
  5
   187
  8
0
  6
DOT
 62
     3
 10
60.3382577409676
 20
181.2306252571
 30
0.0
 11
60.8382568359375
 21
181.2306252571
 31
0.0
  0
LINE
  5
   188
  8
0
  6
CONTINUOUS
 62
     3
 10
168.338257745313
 20
179.730625257273
 30
0.0
 11
168.838256835938
 21
179.730625257273
 31
0.0
  0
LINE
  5
   189
  8
0
  6
CONTINUOUS
 62
     3
 10
168.338257745314
 20
181.230625257273
 30
0.0
 11
168.838256835938
 21
181.230625257273
 31
0.0
  0
ARC
  5
   18A
  8
0
  6
DOT
 62
     3
 10
60.3382577401871
 20
180.480625257147
 30
0.0
 40
0.749999999345164
 50
90.0
 51
270.0
  0
ARC
  5
   18B
  8
0
  6
CONTINUOUS
 62
     3
 10
61.338257740822
 20
180.480625256974
 30
0.0
 40
0.750000000009701
 50
270.0
 51
450.0
  0
LINE
  5
   18C
  8
0
  6
CONTINUOUS
 62
     3
 10
60.8382568359375
 20
181.2306252571
 30
0.0
 11
61.3382577409688
 21
181.2306252571
 31
0.0
  0
LINE
  5
   18D
  8
0
  6
CONTINUOUS
 62
     3
 10
60.8382568359375
 20
179.7306252571
 30
0.0
 11
61.3382577409689
 21
179.7306252571
 31
0.0
  0
ARC
  5
   18E
  8
0
  6
CONTINUOUS
 62
     3
 10
168.338257745503
 20
180.480625256952
 30
0.0
 40
0.750000000048506
 50
90.0000000038822
 51
269.999999996024
  0
ARC
  5
   18F
  8
0
  6
DOT
 62
     3
 10
169.338257745421
 20
180.480625256965
 30
0.0
 40
0.750000000029104
 50
270.000000002449
 51
449.999999997486
  0
LINE
  5
   190
  8
0
  6
DOT
 62
     3
 10
168.838256835938
 20
181.230625257273
 30
0.0
 11
169.338257745315
 21
181.230625257273
 31
0.0
  0
LINE
  5
   191
  8
0
  6
DOT
 62
     3
 10
168.838256835938
 20
179.730625257273
 30
0.0
 11
169.338257745315
 21
179.730625257273
 31
0.0
  0
POINT
  5
   192
  8
0
  6
CONTINUOUS
 62
     3
 10
114.838256835938
 20
109.980621337891
 30
0.0
  0
ENDBLK
  5
   193
  8
0
  6
CONTINUOUS
 62
     7
  0
BLOCK
  5
   194
  8
0
  6
CONTINUOUS
 62
     7
  2
*UDIM2235
 70
    65
 10
0.0
 20
0.0
 30
0.0
  3
*UDIM2235
  0
TEXT
  5
   195
  8
0
  6
CONTINUOUS
 62
     7
 10
-428.198443236465
 20
11.5912841527927
 30
0.0
 40
3.00000002980232
  1
7
 50
404.893139787217
 41
0.933333333333334
 72
     1
 11
-428.477856586003
 21
13.4302861236575
 31
0.0
 73
     2
  0
TEXT
  5
   196
  8
0
  6
CONTINUOUS
 62
     7
 10
-430.42997993674
 20
9.36805586538898
 30
0.0
 40
3.00000002980232
  1
Ø
 50
404.893139787217
 41
0.933333333333334
 72
     1
 11
-430.709393286277
 21
11.2070578362537
 31
0.0
 73
     2
  0
LINE
  5
   197
  8
0
  6
CONTINUOUS
 62
     7
 10
-413.72604544437
 20
24.5982152666889
 30
0.0
 11
-429.724193176067
 21
8.65963151908826
 31
0.0
  0
LINE
  5
   198
  8
0
  6
CONTINUOUS
 62
     7
 10
-412.000735742383
 20
27.0524578040573
 30
0.0
 11
-413.72604544437
 21
24.5982152666889
 31
0.0
  0
LINE
  5
   199
  8
0
  6
CONTINUOUS
 62
     7
 10
-413.72604544437
 20
24.5982152666889
 30
0.0
 11
-411.265384384172
 21
26.3143583687719
 31
0.0
  0
LINE
  5
   19A
  8
0
  6
CONTINUOUS
 62
     7
 10
-416.691097753711
 20
20.9088459068802
 30
0.0
 11
-414.965788051724
 21
23.3630884442486
 31
0.0
  0
LINE
  5
   19B
  8
0
  6
CONTINUOUS
 62
     7
 10
-414.965788051724
 20
23.3630884442486
 30
0.0
 11
-417.426449111922
 21
21.6469453421656
 31
0.0
  0
ENDBLK
  5
   19C
  8
0
  6
CONTINUOUS
 62
     7
  0
BLOCK
  5
   19D
  8
0
  6
CONTINUOUS
 62
     7
  2
*UDIM2236
 70
    65
 10
0.0
 20
0.0
 30
0.0
  3
*UDIM2236
  0
TEXT
  5
   19E
  8
0
  6
CONTINUOUS
 62
     7
 10
-407.120916782916
 20
72.2668304511257
 30
0.0
 40
3.00000002980232
  1
80
 50
359.999999844103
 41
0.933333333333333
 72
     1
 11
-404.620916754007
 21
73.7668304592371
 31
0.0
 73
     2
  0
LINE
  5
   19F
  8
0
  6
CONTINUOUS
 62
     7
 10
-414.345916748047
 20
62.1056518554688
 30
0.0
 11
-414.345916748047
 21
73.2668304443359
 31
0.0
  0
LINE
  5
   1A0
  8
0
  6
CONTINUOUS
 62
     7
 10
-394.345916748047
 20
62.1056518554688
 30
0.0
 11
-394.345916748047
 21
73.2668304443359
 31
0.0
  0
LINE
  5
   1A1
  8
0
  6
CONTINUOUS
 62
     7
 10
-414.345916748047
 20
71.2668304443359
 30
0.0
 11
-394.345916748047
 21
71.2668304443359
 31
0.0
  0
LINE
  5
   1A2
  8
0
  6
CONTINUOUS
 62
     7
 10
-411.39149347084
 20
71.7877748742876
 30
0.0
 11
-414.345916748047
 21
71.2668304443359
 31
0.0
  0
LINE
  5
   1A3
  8
0
  6
CONTINUOUS
 62
     7
 10
-414.345916748047
 20
71.2668304443359
 30
0.0
 11
-411.39149347084
 21
70.7458860143843
 31
0.0
  0
LINE
  5
   1A4
  8
0
  6
CONTINUOUS
 62
     7
 10
-397.300340025254
 20
70.7458860143843
 30
0.0
 11
-394.345916748047
 21
71.2668304443359
 31
0.0
  0
LINE
  5
   1A5
  8
0
  6
CONTINUOUS
 62
     7
 10
-394.345916748047
 20
71.2668304443359
 30
0.0
 11
-397.300340025254
 21
71.7877748742876
 31
0.0
  0
ENDBLK
  5
   1A6
  8
0
  6
CONTINUOUS
 62
     7
  0
BLOCK
  5
   1A7
  8
0
  6
CONTINUOUS
 62
     7
  2
*UDIM2237
 70
    65
 10
0.0
 20
0.0
 30
0.0
  3
*UDIM2237
  0
TEXT
  5
   1A8
  8
0
  6
CONTINUOUS
 62
     7
 10
-408.520916796824
 20
78.7064895735802
 30
0.0
 40
3.00000002980232
  1
112
 50
359.999999844103
 41
0.933333333333333
 72
     1
 11
-404.620916754007
 21
80.2064895778894
 31
0.0
 73
     2
  0
LINE
  5
   1A9
  8
0
  6
CONTINUOUS
 62
     7
 10
-418.345916748047
 20
56.7306518554688
 30
0.0
 11
-418.345916748047
 21
79.7064895629883
 31
0.0
  0
LINE
  5
   1AA
  8
0
  6
CONTINUOUS
 62
     7
 10
-390.345916748047
 20
56.7306518554688
 30
0.0
 11
-390.345916748047
 21
79.7064895629883
 31
0.0
  0
LINE
  5
   1AB
  8
0
  6
CONTINUOUS
 62
     7
 10
-418.345916748047
 20
77.7064895629883
 30
0.0
 11
-390.345916748047
 21
77.7064895629883
 31
0.0
  0
LINE
  5
   1AC
  8
0
  6
CONTINUOUS
 62
     7
 10
-415.39149347084
 20
78.22743399294
 30
0.0
 11
-418.345916748047
 21
77.7064895629883
 31
0.0
  0
LINE
  5
   1AD
  8
0
  6
CONTINUOUS
 62
     7
 10
-418.345916748047
 20
77.7064895629883
 30
0.0
 11
-415.39149347084
 21
77.1855451330366
 31
0.0
  0
LINE
  5
   1AE
  8
0
  6
CONTINUOUS
 62
     7
 10
-393.300340025254
 20
77.1855451330366
 30
0.0
 11
-390.345916748047
 21
77.7064895629883
 31
0.0
  0
LINE
  5
   1AF
  8
0
  6
CONTINUOUS
 62
     7
 10
-390.345916748047
 20
77.7064895629883
 30
0.0
 11
-393.300340025254
 21
78.22743399294
 31
0.0
  0
ENDBLK
  5
   1B0
  8
0
  6
CONTINUOUS
 62
     7
  0
BLOCK
  5
   1B1
  8
0
  6
CONTINUOUS
 62
     7
  2
*UDIM2238
 70
    65
 10
0.0
 20
0.0
 30
0.0
  3
*UDIM2238
  0
TEXT
  5
   1B2
  8
0
  6
CONTINUOUS
 62
     7
 10
-430.753292094327
 20
37.5556518066933
 30
0.0
 40
3.00000002980232
  1
112
 50
449.999999844103
 41
0.933333333333333
 72
     1
 11
-432.253292098641
 21
41.4556518495083
 31
0.0
 73
     2
  0
LINE
  5
   1B3
  8
0
  6
CONTINUOUS
 62
     7
 10
-419.345916748047
 20
55.7306518554688
 30
0.0
 11
-431.75329208374
 21
55.7306518554688
 31
0.0
  0
LINE
  5
   1B4
  8
0
  6
CONTINUOUS
 62
     7
 10
-419.345916748047
 20
27.7306518554688
 30
0.0
 11
-431.75329208374
 21
27.7306518554688
 31
0.0
  0
LINE
  5
   1B5
  8
0
  6
CONTINUOUS
 62
     7
 10
-429.75329208374
 20
55.7306518554688
 30
0.0
 11
-429.75329208374
 21
27.7306518554688
 31
0.0
  0
LINE
  5
   1B6
  8
0
  6
CONTINUOUS
 62
     7
 10
-429.232347653789
 20
52.7762285782618
 30
0.0
 11
-429.75329208374
 21
55.7306518554688
 31
0.0
  0
LINE
  5
   1B7
  8
0
  6
CONTINUOUS
 62
     7
 10
-429.75329208374
 20
55.7306518554688
 30
0.0
 11
-430.274236513692
 21
52.7762285782618
 31
0.0
  0
LINE
  5
   1B8
  8
0
  6
CONTINUOUS
 62
     7
 10
-430.274236513692
 20
30.6850751326757
 30
0.0
 11
-429.75329208374
 21
27.7306518554688
 31
0.0
  0
LINE
  5
   1B9
  8
0
  6
CONTINUOUS
 62
     7
 10
-429.75329208374
 20
27.7306518554688
 30
0.0
 11
-429.232347653789
 21
30.6850751326757
 31
0.0
  0
ENDBLK
  5
   1BA
  8
0
  6
CONTINUOUS
 62
     7
  0
BLOCK
  5
   1BB
  8
0
  6
CONTINUOUS
 62
     7
  2
*UDIM2239
 70
    65
 10
0.0
 20
0.0
 30
0.0
  3
*UDIM2239
  0
TEXT
  5
   1BC
  8
0
  6
CONTINUOUS
 62
     7
 10
-440.251029978849
 20
37.5556518066933
 30
0.0
 40
3.00000002980232
  1
142
 50
449.999999844103
 41
0.933333333333333
 72
     1
 11
-441.751029983163
 21
41.4556518495083
 31
0.0
 73
     2
  0
LINE
  5
   1BD
  8
0
  6
CONTINUOUS
 62
     7
 10
-416.970916748047
 20
59.4806518554688
 30
0.0
 11
-441.251029968262
 21
59.4806518554688
 31
0.0
  0
LINE
  5
   1BE
  8
0
  6
CONTINUOUS
 62
     7
 10
-416.970916748047
 20
23.9806518554688
 30
0.0
 11
-441.251029968262
 21
23.9806518554688
 31
0.0
  0
LINE
  5
   1BF
  8
0
  6
CONTINUOUS
 62
     7
 10
-439.251029968262
 20
59.4806518554688
 30
0.0
 11
-439.251029968262
 21
23.9806518554688
 31
0.0
  0
LINE
  5
   1C0
  8
0
  6
CONTINUOUS
 62
     7
 10
-438.73008553831
 20
56.5262285782618
 30
0.0
 11
-439.251029968262
 21
59.4806518554688
 31
0.0
  0
LINE
  5
   1C1
  8
0
  6
CONTINUOUS
 62
     7
 10
-439.251029968262
 20
59.4806518554688
 30
0.0
 11
-439.771974398213
 21
56.5262285782618
 31
0.0
  0
LINE
  5
   1C2
  8
0
  6
CONTINUOUS
 62
     7
 10
-439.771974398213
 20
26.9350751326757
 30
0.0
 11
-439.251029968262
 21
23.9806518554688
 31
0.0
  0
LINE
  5
   1C3
  8
0
  6
CONTINUOUS
 62
     7
 10
-439.251029968262
 20
23.9806518554688
 30
0.0
 11
-438.73008553831
 21
26.9350751326757
 31
0.0
  0
ENDBLK
  5
   1C4
  8
0
  6
CONTINUOUS
 62
     7
  0
ENDSEC
  0
SECTION
  2
ENTITIES
  0
LINE
  5
   1C5
  8
0
  6
DASHDOT
 62
     3
 10
-648.41650390625
 20
-89.2249423185313
 30
0.0
 11
-648.41650390625
 21
-156.571347144336
 31
0.0
  0
LINE
  5
   1C6
  8
0
  6
CONTINUOUS
 62
     7
 10
-634.66650390625
 20
-90.0065374420419
 30
0.0
 11
-634.66650390625
 21
-156.137146436046
 31
0.0
  0
LINE
  5
   1C7
  8
0
  6
CONTINUOUS
 62
     7
 10
-662.16650390625
 20
-89.7242991239453
 30
0.0
 11
-662.16650390625
 21
-155.572669799853
 31
0.0
  0
LINE
  5
   1C8
  8
0
  6
CONTINUOUS
 62
     7
 10
-633.651583131565
 20
-154.539588928223
 30
0.0
 11
-664.328717244673
 21
-154.539588928223
 31
0.0
  0
LINE
  5
   1C9
  8
0
  6
CONTINUOUS
 62
     7
 10
-632.804868177275
 20
-91.0395889282227
 30
0.0
 11
-663.894504447602
 21
-91.0395889282227
 31
0.0
  0
CIRCLE
  5
   1CA
  8
0
  6
CONTINUOUS
 62
     7
 10
-659.710254412057
 20
-94.1340890981259
 30
0.0
 40
0.2
  0
LINE
  5
   1CB
  8
0
  6
DASHDOT
 62
     3
 10
-658.66650390625
 20
-101.369665396834
 30
0.0
 11
-658.66650390625
 21
-143.99897783868
 31
0.0
  0
LINE
  5
   1CC
  8
0
  6
DASHDOT
 62
     3
 10
-638.16650390625
 20
-101.369665396834
 30
0.0
 11
-638.16650390625
 21
-144.406264263284
 31
0.0
  0
LINE
  5
   1CD
  8
0
  6
DASHDOT
 62
     3
 10
-635.444462918543
 20
-105.914588928223
 30
0.0
 11
-661.782318376244
 21
-105.914588928223
 31
0.0
  0
LINE
  5
   1CE
  8
0
  6
DASHDOT
 62
     3
 10
-635.580225060077
 20
-139.664588928223
 30
0.0
 11
-661.918080517778
 21
-139.664588928223
 31
0.0
  0
CIRCLE
  5
   1CF
  8
0
  6
CONTINUOUS
 62
     7
 10
-658.66650390625
 20
-105.914588928223
 30
0.0
 40
0.625
  0
CIRCLE
  5
   1D0
  8
0
  6
CONTINUOUS
 62
     7
 10
-638.16650390625
 20
-105.914588928223
 30
0.0
 40
0.625
  0
CIRCLE
  5
   1D1
  8
0
  6
CONTINUOUS
 62
     7
 10
-638.16650390625
 20
-139.664588928223
 30
0.0
 40
0.625
  0
CIRCLE
  5
   1D2
  8
0
  6
CONTINUOUS
 62
     7
 10
-658.66650390625
 20
-139.664588928223
 30
0.0
 40
0.625
  0
LINE
  5
   1D3
  8
0
  6
DASHDOT
 62
     3
 10
-628.295185797686
 20
-122.352088928223
 30
0.0
 11
-671.834570636487
 21
-122.352088928223
 31
0.0
  0
INSERT
  5
   1D4
  8
0
  6
CONTINUOUS
 62
     7
  2
*UDIM2210
 10
0.0
 20
0.0
 30
0.0
  0
TEXT
  5
   1D5
  8
0
  6
CONTINUOUS
 62
     7
 10
-654.586921694608
 20
-103.012046831828
 30
0.0
 40
3.00000002980232
  1
=   =
 50
359.999999896069
 41
0.916666604744064
 72
     2
 11
-641.386922459534
 21
-103.012046855706
 31
0.0
  0
INSERT
  5
   1D6
  8
0
  6
CONTINUOUS
 62
     7
  2
*UDIM2211
 10
0.0
 20
0.0
 30
0.0
  0
INSERT
  5
   1D7
  8
0
  6
CONTINUOUS
 62
     7
  2
*UDIM2212
 10
0.0
 20
0.0
 30
0.0
  0
INSERT
  5
   1D8
  8
0
  6
CONTINUOUS
 62
     7
  2
*UDIM2213
 10
0.0
 20
0.0
 30
0.0
  0
TEXT
  5
   1D9
  8
0
  6
CONTINUOUS
 62
     7
 10
-650.284831598138
 20
-84.7943448177991
 30
0.0
 40
3.00000002980232
  1
Y
 50
359.999999896069
 41
0.916666604744064
 72
     2
 11
-648.084831729268
 21
-84.7943448217787
 31
0.0
  0
TEXT
  5
   1DA
  8
0
  6
CONTINUOUS
 62
     7
 10
-686.386726382108
 20
-124.226425675548
 30
0.0
 40
3.00000002980232
  1
X
 50
359.999999896069
 41
0.916666604744064
 72
     2
 11
-684.186726513238
 21
-124.226425679528
 31
0.0
  0
TEXT
  5
   1DB
  8
0
  6
CONTINUOUS
 62
     7
 10
-626.421943667264
 20
-124.400110749401
 30
0.0
 40
3.00000002980232
  1
X
 50
359.999999896069
 41
0.916666604744064
 72
     2
 11
-624.221943798394
 21
-124.40011075338
 31
0.0
  0
TEXT
  5
   1DC
  8
0
  6
CONTINUOUS
 62
     7
 10
-649.413507464261
 20
-162.154911069072
 30
0.0
 40
3.00000002980232
  1
Y
 50
359.999999896069
 41
0.916666604744064
 72
     2
 11
-647.213507595391
 21
-162.154911073052
 31
0.0
  0
LINE
  5
   1DD
  8
0
  6
CONTINUOUS
 62
     7
 10
-560.500228881836
 20
27.4089317321777
 30
0.0
 11
-560.500228881836
 21
27.6589164733887
 31
0.0
  0
LINE
  5
   1DE
  8
0
  6
CONTINUOUS
 62
     7
 10
-560.500228881836
 20
35.1589164733887
 30
0.0
 11
-560.500228881836
 21
45.1589012145996
 31
0.0
  0
LINE
  5
   1DF
  8
0
  6
CONTINUOUS
 62
     7
 10
-559.250213623047
 20
27.6589164733887
 30
0.0
 11
-559.250213623047
 21
35.1589164733887
 31
0.0
  0
LINE
  5
   1E0
  8
0
  6
CONTINUOUS
 62
     7
 10
-559.250213623047
 20
27.6589164733887
 30
0.0
 11
-560.500228881836
 21
27.6589164733887
 31
0.0
  0
LINE
  5
   1E1
  8
0
  6
CONTINUOUS
 62
     7
 10
-559.250213623047
 20
35.1589164733887
 30
0.0
 11
-560.500228881836
 21
35.1589164733887
 31
0.0
  0
LINE
  5
   1E2
  8
0
  6
CONTINUOUS
 62
     7
 10
-559.250213623047
 20
45.1589012145996
 30
0.0
 11
-559.250213623047
 21
52.6589012145996
 31
0.0
  0
LINE
  5
   1E3
  8
0
  6
CONTINUOUS
 62
     7
 10
-559.250213623047
 20
45.1589012145996
 30
0.0
 11
-560.500228881836
 21
45.1589012145996
 31
0.0
  0
LINE
  5
   1E4
  8
0
  6
CONTINUOUS
 62
     7
 10
-559.250213623047
 20
52.6589012145996
 30
0.0
 11
-560.500228881836
 21
52.6589012145996
 31
0.0
  0
LINE
  5
   1E5
  8
0
  6
CONTINUOUS
 62
     7
 10
-526.250236511231
 20
27.4089164733887
 30
0.0
 11
-526.250236511231
 21
54.9089012145996
 31
0.0
  0
LINE
  5
   1E6
  8
0
  6
CONTINUOUS
 62
     2
 10
-560.500259399646
 20
54.6589012145996
 30
0.0
 11
-560.500259399646
 21
64.9662132263184
 31
0.0
  0
LINE
  5
   1E7
  8
0
  6
CONTINUOUS
 62
     7
 10
-524.500228881836
 20
63.6589012145996
 30
0.0
 11
-526.250228881836
 21
63.6589012145996
 31
0.0
  0
LINE
  5
   1E8
  8
0
  6
CONTINUOUS
 62
     7
 10
-526.250282287953
 20
54.9088968549929
 30
0.0
 11
-526.250282287953
 21
63.6588968549929
 31
0.0
  0
LINE
  5
   1E9
  8
0
  6
CONTINUOUS
 62
     7
 10
-558.500228881836
 20
55.9089012145996
 30
0.0
 11
-560.500228881836
 21
55.9089012145996
 31
0.0
  0
LINE
  5
   1EA
  8
0
  6
CONTINUOUS
 62
     7
 10
-558.500227610453
 20
55.9088948663633
 30
0.0
 11
-558.500179672361
 21
74.7589244079413
 31
0.0
  0
LINE
  5
   1EB
  8
0
  6
CONTINUOUS
 62
     7
 10
-526.250236511231
 20
22.6589241027832
 30
0.0
 11
-526.250236511231
 21
27.4089317321777
 31
0.0
  0
LINE
  5
   1EC
  8
0
  6
CONTINUOUS
 62
     7
 10
-560.500223782175
 20
-7.84106317859223
 30
0.0
 11
-560.500208523386
 21
-7.69394562342362
 31
0.0
  0
LINE
  5
   1ED
  8
0
  6
CONTINUOUS
 62
     7
 10
-560.500213623187
 20
1.18174819415344E-2
 30
0.0
 11
-560.500213623187
 21
27.4089274672931
 31
0.0
  0
LINE
  5
   1EE
  8
0
  6
CONTINUOUS
 62
     7
 10
-525.000228881836
 20
-1.09106826782227
 30
0.0
 11
-559.000245666505
 21
-1.09106826782227
 31
0.0
  0
LINE
  5
   1EF
  8
0
  6
CONTINUOUS
 62
     7
 10
-525.000228881836
 20
-6.59106826782227
 30
0.0
 11
-559.000245666505
 21
-6.59106826782227
 31
0.0
  0
LINE
  5
   1F0
  8
0
  6
CONTINUOUS
 62
     7
 10
-556.384199383711
 20
-1.09106318321089
 30
0.0
 11
-560.500211780716
 21
1.18225298575325E-2
 31
0.0
  0
LINE
  5
   1F1
  8
0
  6
CONTINUOUS
 62
     7
 10
-560.500209473725
 20
-7.69394989785863
 30
0.0
 11
-556.384196981947
 21
-6.59106773346246
 31
0.0
  0
LINE
  5
   1F2
  8
0
  6
CONTINUOUS
 62
     7
 10
-524.500236511231
 20
0.408931732177734
 30
0.0
 11
-528.500236511231
 21
0.408931732177734
 31
0.0
  0
LINE
  5
   1F3
  8
0
  6
CONTINUOUS
 62
     7
 10
-528.500236511231
 20
0.408931732177734
 30
0.0
 11
-528.500236511231
 21
21.6589241027832
 31
0.0
  0
LINE
  5
   1F4
  8
0
  6
CONTINUOUS
 62
     7
 10
-560.000213623047
 20
-3.59106826782227
 30
0.0
 11
-560.000213623047
 21
-0.122158050537109
 31
0.0
  0
LINE
  5
   1F5
  8
0
  6
CONTINUOUS
 62
     7
 10
-560.000220665547
 20
-7.55997351444158
 30
0.0
 11
-560.000213036159
 21
-7.09106329536866
 31
0.0
  0
LINE
  5
   1F6
  8
0
  6
CONTINUOUS
 62
     2
 10
-560.500213623047
 20
0.408931732177734
 30
0.0
 11
-561.500213623047
 21
0.408931732177734
 31
0.0
  0
LINE
  5
   1F7
  8
0
  6
CONTINUOUS
 62
     2
 10
-560.500213623047
 20
3.15893173217773
 30
0.0
 11
-561.500213623047
 21
3.15893173217773
 31
0.0
  0
LINE
  5
   1F8
  8
0
  6
CONTINUOUS
 62
     7
 10
-524.500247316229
 20
-7.0910487547256
 30
0.0
 11
-525.000239670537
 21
-6.59105640041805
 31
0.0
  0
LINE
  5
   1F9
  8
0
  6
CONTINUOUS
 62
     7
 10
-525.000235200099
 20
-1.09106756684395
 30
0.0
 11
-524.500235217213
 21
-0.59106758395825
 31
0.0
  0
LINE
  5
   1FA
  8
0
  6
CONTINUOUS
 62
     7
 10
-526.250236511231
 20
21.6589241027832
 30
0.0
 11
-526.250236511231
 21
22.6589241027832
 31
0.0
  0
LINE
  5
   1FB
  8
0
  6
CONTINUOUS
 62
     2
 10
-559.500213623047
 20
-16.8410530090326
 30
0.0
 11
-561.500213623047
 21
-16.8410530090326
 31
0.0
  0
LINE
  5
   1FC
  8
0
  6
CONTINUOUS
 62
     7
 10
-560.500228881836
 20
-9.84106826782227
 30
0.0
 11
-560.500228881836
 21
-7.84106826782227
 31
0.0
  0
LINE
  5
   1FD
  8
0
  6
CONTINUOUS
 62
     7
 10
-524.500236511231
 20
-14.3410530090332
 30
0.0
 11
-529.500228881836
 21
-14.3410530090332
 31
0.0
  0
LINE
  5
   1FE
  8
0
  6
CONTINUOUS
 62
     7
 10
-529.500228881836
 20
-16.8410530090332
 30
0.0
 11
-529.500228881836
 21
-14.3410530090332
 31
0.0
  0
LINE
  5
   1FF
  8
0
  6
CONTINUOUS
 62
     7
 10
-560.500228881836
 20
-15.5910435486019
 30
0.0
 11
-560.500228881836
 21
-9.84106826782227
 31
0.0
  0
LINE
  5
   200
  8
0
  6
CONTINUOUS
 62
     2
 10
-560.500228881836
 20
54.6589012145996
 30
0.0
 11
-560.750213623047
 21
54.6589012145996
 31
0.0
  0
LINE
  5
   201
  8
0
  6
CONTINUOUS
 62
     7
 10
-560.500221252441
 20
19.4089317321777
 30
0.0
 11
-560.750213623047
 21
19.4089317321777
 31
0.0
  0
LINE
  5
   202
  8
0
  6
CONTINUOUS
 62
     7
 10
-560.500213623047
 20
3.40893363952637
 30
0.0
 11
-560.750213623047
 21
3.40893363952637
 31
0.0
  0
LINE
  5
   203
  8
0
  6
CONTINUOUS
 62
     7
 10
-560.000213623047
 20
-0.341067790985107
 30
0.0
 11
-560.750213623047
 21
-0.341067790985107
 31
0.0
  0
LINE
  5
   204
  8
0
  6
CONTINUOUS
 62
     7
 10
-560.500228881836
 20
-8.34106063842773
 30
0.0
 11
-560.750213623047
 21
-8.34106063842773
 31
0.0
  0
LINE
  5
   205
  8
0
  6
CONTINUOUS
 62
     2
 10
-560.750213623047
 20
-15.141048233577
 30
0.0
 11
-560.750213623047
 21
0.408924102783203
 31
0.0
  0
LINE
  5
   206
  8
0
  6
CONTINUOUS
 62
     2
 10
-560.750213623047
 20
3.1589241027832
 30
0.0
 11
-560.750213623047
 21
54.6588935852051
 31
0.0
  0
LINE
  5
   207
  8
0
  6
CONTINUOUS
 62
     7
 10
-560.000213623047
 20
45.1589241027832
 30
0.0
 11
-560.000213623047
 21
52.6589012145996
 31
0.0
  0
LINE
  5
   208
  8
0
  6
CONTINUOUS
 62
     7
 10
-560.000213623047
 20
27.6589469909668
 30
0.0
 11
-560.000213623047
 21
35.1589393615723
 31
0.0
  0
LINE
  5
   209
  8
0
  6
CONTINUOUS
 62
     7
 10
-560.000213623047
 20
-7.09103012084961
 30
0.0
 11
-560.000213623047
 21
-3.59103012084961
 31
0.0
  0
LINE
  5
   20A
  8
0
  6
CONTINUOUS
 62
     2
 10
-560.550217527563
 20
-15.3410443290609
 30
0.0
 11
-560.7502144735
 21
-15.141047383124
 31
0.0
  0
LINE
  5
   20B
  8
0
  6
CONTINUOUS
 62
     2
 10
-560.500213623047
 20
62.6589012145996
 30
0.0
 11
-561.500213623047
 21
62.6589012145996
 31
0.0
  0
LINE
  5
   20C
  8
0
  6
CONTINUOUS
 62
     2
 10
-560.500213623047
 20
68.1589012145996
 30
0.0
 11
-561.500213623047
 21
68.1589012145996
 31
0.0
  0
LINE
  5
   20D
  8
0
  6
CONTINUOUS
 62
     2
 10
-560.500213623047
 20
66.8147239685059
 30
0.0
 11
-561.500213623047
 21
66.8147239685059
 31
0.0
  0
LINE
  5
   20E
  8
0
  6
CONTINUOUS
 62
     2
 10
-560.500213623047
 20
64.9662132263184
 30
0.0
 11
-561.500213623047
 21
64.9662132263184
 31
0.0
  0
LINE
  5
   20F
  8
0
  6
CONTINUOUS
 62
     7
 10
-526.000244140626
 20
28.9088991259575
 30
0.0
 11
-526.000244140626
 21
56.1589220141411
 31
0.0
  0
LINE
  5
   210
  8
0
  6
CONTINUOUS
 62
     7
 10
-524.500228881836
 20
63.4089106750312
 30
0.0
 11
-524.500228881836
 21
63.9089183044257
 31
0.0
  0
LINE
  5
   211
  8
0
  6
CONTINUOUS
 62
     7
 10
-513.250228881836
 20
63.9089183044257
 30
0.0
 11
-513.400230407715
 21
63.9089183044257
 31
0.0
  0
LINE
  5
   212
  8
0
  6
CONTINUOUS
 62
     7
 10
-524.500228881836
 20
63.4089259338202
 30
0.0
 11
-526.000228881836
 21
63.4089259338202
 31
0.0
  0
LINE
  5
   213
  8
0
  6
CONTINUOUS
 62
     7
 10
-526.000228881836
 20
56.1589259338202
 30
0.0
 11
-526.000228881836
 21
63.4089259338202
 31
0.0
  0
LINE
  5
   214
  8
0
  6
CONTINUOUS
 62
     7
 10
-524.50025177002
 20
-13.8410664367852
 30
0.0
 11
-524.50025177002
 21
-10.2027607727227
 31
0.0
  0
LINE
  5
   215
  8
0
  6
CONTINUOUS
 62
     7
 10
-526.000236511231
 20
22.9089183044257
 30
0.0
 11
-526.000236511231
 21
28.9089030456366
 31
0.0
  0
LINE
  5
   216
  8
0
  6
CONTINUOUS
 62
     7
 10
-526.000236511231
 20
21.6589030456366
 30
0.0
 11
-526.500236511231
 21
21.6589030456366
 31
0.0
  0
LINE
  5
   217
  8
0
  6
CONTINUOUS
 62
     7
 10
-513.400246044522
 20
-15.3410511779855
 30
0.0
 11
-524.500252148038
 21
-15.3410511779855
 31
0.0
  0
LINE
  5
   218
  8
0
  6
CONTINUOUS
 62
     7
 10
-524.50025177002
 20
-15.3410664367852
 30
0.0
 11
-524.50025177002
 21
-13.8410664367852
 31
0.0
  0
LINE
  5
   219
  8
0
  6
CONTINUOUS
 62
     7
 10
-524.500244140625
 20
-10.2027607727227
 30
0.0
 11
-524.500244140625
 21
-6.71606183164349
 31
0.0
  0
LINE
  5
   21A
  8
0
  6
CONTINUOUS
 62
     7
 10
-513.25025177002
 20
-16.8410740661798
 30
0.0
 11
-513.25025177002
 21
-15.3410740661798
 31
0.0
  0
LINE
  5
   21B
  8
0
  6
CONTINUOUS
 62
     7
 10
-513.25025177002
 20
-15.3410740661798
 30
0.0
 11
-513.400245636702
 21
-15.3410740661798
 31
0.0
  0
LINE
  5
   21C
  8
0
  6
CONTINUOUS
 62
     7
 10
-526.500236511231
 20
21.6589030456366
 30
0.0
 11
-528.500236511231
 21
21.6589030456366
 31
0.0
  0
LINE
  5
   21D
  8
0
  6
CONTINUOUS
 62
     7
 10
-526.000236511231
 20
21.6589030456366
 30
0.0
 11
-526.000236511231
 21
22.9089183044257
 31
0.0
  0
LINE
  5
   21E
  8
0
  6
CONTINUOUS
 62
     7
 10
-513.400247745681
 20
-6.71605117798757
 30
0.0
 11
-524.500246219802
 21
-6.71605117798757
 31
0.0
  0
LINE
  5
   21F
  8
0
  6
CONTINUOUS
 62
     7
 10
-513.400251422912
 20
-0.966051177988938
 30
0.0
 11
-524.500249897033
 21
-0.966051177988938
 31
0.0
  0
LINE
  5
   220
  8
0
  6
CONTINUOUS
 62
     7
 10
-523.850731416964
 20
-13.4660578784557
 30
0.0
 11
-523.75025230673
 21
-13.0910578836328
 31
0.0
  0
LINE
  5
   221
  8
0
  6
CONTINUOUS
 62
     7
 10
-524.125247099079
 20
-13.7405824111852
 30
0.0
 11
-523.850733872579
 21
-13.4660615484661
 31
0.0
  0
LINE
  5
   222
  8
0
  6
CONTINUOUS
 62
     7
 10
-524.500260412718
 20
-13.8410547189453
 30
0.0
 11
-524.125252798445
 21
-13.7405756010639
 31
0.0
  0
LINE
  5
   223
  8
0
  6
CONTINUOUS
 62
     7
 10
-524.125248620561
 20
-7.94154447453823
 30
0.0
 11
-524.500248617812
 21
-7.84105772801097
 31
0.0
  0
LINE
  5
   224
  8
0
  6
CONTINUOUS
 62
     7
 10
-523.85073603022
 20
-8.21606190324729
 30
0.0
 11
-524.12524926054
 21
-7.94154867292725
 31
0.0
  0
LINE
  5
   225
  8
0
  6
CONTINUOUS
 62
     7
 10
-523.750257496651
 20
-8.59106120808114
 30
0.0
 11
-523.850744243179
 21
-8.21606121083074
 31
0.0
  0
LINE
  5
   226
  8
0
  6
CONTINUOUS
 62
     7
 10
-523.750256008555
 20
-13.0910634684677
 30
0.0
 11
-523.750248379161
 21
-8.59106346846771
 31
0.0
  0
LINE
  5
   227
  8
0
  6
CONTINUOUS
 62
     7
 10
-513.400245666505
 20
-15.3410740661798
 30
0.0
 11
-513.400245666505
 21
63.9089120480331
 31
0.0
  0
LINE
  5
   228
  8
0
  6
CONTINUOUS
 62
     2
 10
-513.40022277832
 20
74.7589244079413
 30
0.0
 11
-560.500259399646
 21
74.7589244079413
 31
0.0
  0
LINE
  5
   229
  8
0
  6
CONTINUOUS
 62
     2
 10
-513.400276184089
 20
63.9089148589427
 30
0.0
 11
-513.400276184089
 21
74.7589209624583
 31
0.0
  0
LINE
  5
   22A
  8
0
  6
CONTINUOUS
 62
     7
 10
-524.500228881836
 20
63.9089259338202
 30
0.0
 11
-524.500228881836
 21
74.7589244079413
 31
0.0
  0
LINE
  5
   22B
  8
0
  6
CONTINUOUS
 62
     7
 10
-505.250221252441
 20
38.6589411926093
 30
0.0
 11
-505.250221252441
 21
38.7839411926093
 31
0.0
  0
LINE
  5
   22C
  8
0
  6
CONTINUOUS
 62
     7
 10
-508.000218391419
 20
39.7839411926093
 30
0.0
 11
-509.750221252441
 21
39.7839411926093
 31
0.0
  0
LINE
  5
   22D
  8
0
  6
CONTINUOUS
 62
     7
 10
-508.000218391419
 20
-12.7160435486016
 30
0.0
 11
-509.750221252441
 21
-12.7160435486016
 31
0.0
  0
LINE
  5
   22E
  8
0
  6
CONTINUOUS
 62
     7
 10
-513.250221252441
 20
-20.8410435486016
 30
0.0
 11
-513.250221252441
 21
-15.3410740661798
 31
0.0
  0
LINE
  5
   22F
  8
0
  6
CONTINUOUS
 62
     7
 10
-510.750221252442
 20
-20.8410435486016
 30
0.0
 11
-510.750221252442
 21
-12.7160435486016
 31
0.0
  0
LINE
  5
   230
  8
0
  6
CONTINUOUS
 62
     7
 10
-510.750221252442
 20
39.7839411926093
 30
0.0
 11
-510.750221252442
 21
63.9089411926093
 31
0.0
  0
LINE
  5
   231
  8
0
  6
CONTINUOUS
 62
     7
 10
-510.750221252442
 20
63.9089411926093
 30
0.0
 11
-513.250221252441
 21
63.9089411926093
 31
0.0
  0
LINE
  5
   232
  8
0
  6
CONTINUOUS
 62
     7
 10
-510.750221252442
 20
-20.8410435486016
 30
0.0
 11
-513.250221252441
 21
-20.8410435486016
 31
0.0
  0
LINE
  5
   233
  8
0
  6
CONTINUOUS
 62
     7
 10
-509.750221252441
 20
-12.7160435486016
 30
0.0
 11
-509.750221252441
 21
39.7839411926093
 31
0.0
  0
LINE
  5
   234
  8
0
  6
CONTINUOUS
 62
     7
 10
-509.750221252441
 20
-12.7160435486016
 30
0.0
 11
-510.750221252442
 21
-12.7160435486016
 31
0.0
  0
LINE
  5
   235
  8
0
  6
CONTINUOUS
 62
     7
 10
-509.750221252441
 20
39.7839411926093
 30
0.0
 11
-510.750221252442
 21
39.7839411926093
 31
0.0
  0
LINE
  5
   236
  8
0
  6
CONTINUOUS
 62
     7
 10
-513.400257246619
 20
-0.691081743971125
 30
0.0
 11
-513.250255727696
 21
-0.677959186983728
 31
0.0
  0
LINE
  5
   237
  8
0
  6
CONTINUOUS
 62
     7
 10
-513.25022994166
 20
-7.00419445952651
 30
0.0
 11
-513.400231464778
 21
-6.99106427312014
 31
0.0
  0
LINE
  5
   238
  8
0
  6
CONTINUOUS
 62
     7
 10
-524.500244140625
 20
-0.966061831642129
 30
0.0
 11
-524.500244140625
 21
0.408918304425704
 31
0.0
  0
LINE
  5
   239
  8
0
  6
CONTINUOUS
 62
   218
 10
-513.400223255158
 20
-49.4410439300716
 30
0.0
 11
-560.500214099884
 21
-49.4410439300716
 31
0.0
  0
LINE
  5
   23A
  8
0
  6
CONTINUOUS
 62
     2
 10
-559.500213623047
 20
-15.5910435486019
 30
0.0
 11
-561.500213623047
 21
-15.5910435486019
 31
0.0
  0
LINE
  5
   23B
  8
0
  6
CONTINUOUS
 62
     7
 10
-513.400215148926
 20
-15.5910435486019
 30
0.0
 11
-522.000221252441
 21
-15.5910435486019
 31
0.0
  0
LINE
  5
   23C
  8
0
  6
CONTINUOUS
 62
     2
 10
-559.500213623047
 20
-16.8410435486019
 30
0.0
 11
-559.500213623047
 21
-15.5910435486019
 31
0.0
  0
LINE
  5
   23D
  8
0
  6
CONTINUOUS
 62
   218
 10
-513.400219250295
 20
-36.8410511784442
 30
0.0
 11
-513.250221252831
 21
-36.8410494178424
 31
0.0
  0
LINE
  5
   23E
  8
0
  6
CONTINUOUS
 62
   218
 10
-511.250221252442
 20
-38.8410511779964
 30
0.0
 11
-513.400215148926
 21
-38.8410511779964
 31
0.0
  0
LINE
  5
   23F
  8
0
  6
CONTINUOUS
 62
   218
 10
-513.400215148926
 20
-49.441042022723
 30
0.0
 11
-513.400215148926
 21
-36.8410435486019
 31
0.0
  0
LINE
  5
   240
  8
0
  6
CONTINUOUS
 62
   218
 10
-513.400215148926
 20
-36.8410435486019
 30
0.0
 11
-513.400215148926
 21
-15.5910435486019
 31
0.0
  0
LINE
  5
   241
  8
0
  6
CONTINUOUS
 62
     7
 10
-513.250221252441
 20
-21.3410435486019
 30
0.0
 11
-513.400215148926
 21
-21.3410435486019
 31
0.0
  0
LINE
  5
   242
  8
0
  6
CONTINUOUS
 62
   218
 10
-561.500213623089
 20
-33.8410511775016
 30
0.0
 11
-560.500214099949
 21
-33.8410435481071
 31
0.0
  0
LINE
  5
   243
  8
0
  6
CONTINUOUS
 62
   218
 10
-560.500214099884
 20
-52.0910435486016
 30
0.0
 11
-560.500214099884
 21
-33.8410511779962
 31
0.0
  0
LINE
  5
   244
  8
0
  6
CONTINUOUS
 62
   218
 10
-560.500213623047
 20
-39.2160511779964
 30
0.0
 11
-561.500213623047
 21
-39.2160511779964
 31
0.0
  0
LINE
  5
   245
  8
0
  6
CONTINUOUS
 62
     7
 10
-524.500226973411
 20
-15.5910435458809
 30
0.0
 11
-524.500219344016
 21
-14.5910435458581
 31
0.0
  0
LINE
  5
   246
  8
0
  6
CONTINUOUS
 62
     7
 10
-524.500213623047
 20
-14.5910435486019
 30
0.0
 11
-529.500213623047
 21
-14.5910435486019
 31
0.0
  0
LINE
  5
   247
  8
0
  6
CONTINUOUS
 62
     7
 10
-522.000221252441
 20
-15.5910435486019
 30
0.0
 11
-524.500221252442
 21
-15.5910435486019
 31
0.0
  0
LINE
  5
   248
  8
0
  6
CONTINUOUS
 62
   218
 10
-560.500213623047
 20
-43.5748468208492
 30
0.0
 11
-561.500213623047
 21
-43.5748468208492
 31
0.0
  0
LINE
  5
   249
  8
0
  6
CONTINUOUS
 62
   218
 10
-560.500213623047
 20
-42.3483525085628
 30
0.0
 11
-561.500213623047
 21
-42.3483525085628
 31
0.0
  0
LINE
  5
   24A
  8
0
  6
CONTINUOUS
 62
     7
 10
-510.750221252442
 20
-21.0910435486016
 30
0.0
 11
-513.250221252441
 21
-21.0910435486016
 31
0.0
  0
LINE
  5
   24B
  8
0
  6
CONTINUOUS
 62
     7
 10
-510.750221252442
 20
-38.5910435486016
 30
0.0
 11
-513.250221252441
 21
-38.5910435486016
 31
0.0
  0
LINE
  5
   24C
  8
0
  6
CONTINUOUS
 62
     7
 10
-510.750221252442
 20
-38.5910435486016
 30
0.0
 11
-510.750221252442
 21
-21.0910435486016
 31
0.0
  0
LINE
  5
   24D
  8
0
  6
CONTINUOUS
 62
     7
 10
-511.750221252441
 20
-38.5910435486016
 30
0.0
 11
-511.750221252441
 21
-21.0910435486016
 31
0.0
  0
LINE
  5
   24E
  8
0
  6
CONTINUOUS
 62
     7
 10
-513.250221252441
 20
-38.5910435486016
 30
0.0
 11
-513.250221252441
 21
-21.0910435486016
 31
0.0
  0
ARC
  5
   24F
  8
0
  6
CONTINUOUS
 62
     7
 10
-494.912694867185
 20
2.51201571886689
 30
0.0
 40
0.499999897877905
 50
348.623573369035
 51
436.688788706936
  0
ARC
  5
   250
  8
0
  6
CONTINUOUS
 62
     7
 10
-495.511067067103
 20
-0.461893265131962
 30
0.0
 40
0.50000037262337
 50
260.593992196011
 51
348.623573369035
  0
LINE
  5
   251
  8
0
  6
DASHDOT
 62
     7
 10
-487.512402541411
 20
-0.542314919030346
 30
0.0
 11
-512.570745775865
 21
4.49960524886789
 31
0.0
  0
LINE
  5
   252
  8
0
  6
CONTINUOUS
 62
     7
 10
-494.797574894838
 20
2.99858218856559
 30
0.0
 11
-505.250221252442
 21
5.47164277653744
 31
0.0
  0
LINE
  5
   253
  8
0
  6
CONTINUOUS
 62
     7
 10
-495.020890622223
 20
-0.560520316415463
 30
0.0
 11
-494.422518586598
 21
2.41338870064023
 31
0.0
  0
LINE
  5
   254
  8
0
  6
CONTINUOUS
 62
     7
 10
-495.592781805697
 20
-0.955170988003346
 30
0.0
 11
-505.250221252442
 21
0.64464814689795
 31
0.0
  0
LINE
  5
   255
  8
0
  6
CONTINUOUS
 62
     7
 10
-559.000245666505
 20
-6.59106826782227
 30
0.0
 11
-559.000245666505
 21
-1.09106826782227
 31
0.0
  0
LINE
  5
   256
  8
0
  6
CONTINUOUS
 62
     2
 10
-560.500259399646
 20
66.8147239685058
 30
0.0
 11
-560.500259399646
 21
77.4089241027832
 31
0.0
  0
ARC
  5
   257
  8
0
  6
CONTINUOUS
 62
     7
 10
-532.000221252441
 20
8.40895645139836
 30
0.0
 40
38.0220413050115
 50
333.082565820193
 51
379.93594827737
  0
LINE
  5
   258
  8
0
  6
CONTINUOUS
 62
     7
 10
-493.97817994743
 20
8.40895645139835
 30
0.0
 11
-493.97817994743
 21
30.0835959668306
 31
0.0
  0
LINE
  5
   259
  8
0
  6
CONTINUOUS
 62
     7
 10
-529.500228881836
 20
-16.8410530090326
 30
0.0
 11
-559.500213623047
 21
-16.8410530090326
 31
0.0
  0
LINE
  5
   25A
  8
0
  6
CONTINUOUS
 62
     7
 10
-561.500213623047
 20
62.6589012145996
 30
0.0
 11
-561.500213623047
 21
68.1589012145996
 31
0.0
  0
LINE
  5
   25B
  8
0
  6
CONTINUOUS
 62
     7
 10
-561.500213623047
 20
0.408931732177727
 30
0.0
 11
-561.500213623047
 21
3.15893173217773
 31
0.0
  0
LINE
  5
   25C
  8
0
  6
CONTINUOUS
 62
     7
 10
-561.500213623046
 20
-16.8410530090303
 30
0.0
 11
-561.500213623046
 21
-15.5910435485995
 31
0.0
  0
LINE
  5
   25D
  8
0
  6
CONTINUOUS
 62
     7
 10
-561.500213623108
 20
-33.8410511776317
 30
0.0
 11
-561.500213623108
 21
-16.8410530091604
 31
0.0
  0
LINE
  5
   25E
  8
0
  6
CONTINUOUS
 62
     7
 10
-561.500213623047
 20
-43.5748468208499
 30
0.0
 11
-561.500213623047
 21
-39.2160511779971
 31
0.0
  0
LINE
  5
   25F
  8
0
  6
CONTINUOUS
 62
     7
 10
-585.500236511231
 20
60.9089241027832
 30
0.0
 11
-585.500236511231
 21
73.4089241027832
 31
0.0
  0
LINE
  5
   260
  8
0
  6
CONTINUOUS
 62
     7
 10
-585.500236511231
 20
-48.0910677909851
 30
0.0
 11
-585.500236511231
 21
-35.5910754203796
 31
0.0
  0
LINE
  5
   261
  8
0
  6
CONTINUOUS
 62
     7
 10
-580.000232642323
 20
-50.841089506366
 30
0.0
 11
-561.50020975414
 21
-50.8410818769718
 31
0.0
  0
LINE
  5
   262
  8
0
  6
CONTINUOUS
 62
     7
 10
-561.500213623047
 20
76.1589241027832
 30
0.0
 11
-580.000236511231
 21
76.1589241027832
 31
0.0
  0
LINE
  5
   263
  8
0
  6
CONTINUOUS
 62
     7
 10
-561.500213623047
 20
-41.8410835266113
 30
0.0
 11
-561.500213623047
 21
-30.3410758972168
 31
0.0
  0
LINE
  5
   264
  8
0
  6
CONTINUOUS
 62
     7
 10
-561.500213623047
 20
-50.8410835266113
 30
0.0
 11
-561.500213623047
 21
-49.4410591125488
 31
0.0
  0
LINE
  5
   265
  8
0
  6
CONTINUOUS
 62
     7
 10
-561.500213623047
 20
74.7589378356934
 30
0.0
 11
-561.500213623047
 21
76.1589241027832
 31
0.0
  0
LINE
  5
   266
  8
0
  6
CONTINUOUS
 62
     7
 10
-561.500213623047
 20
55.6589241027832
 30
0.0
 11
-561.500213623047
 21
67.1589393615723
 31
0.0
  0
LINE
  5
   267
  8
0
  6
CONTINUOUS
 62
     7
 10
-561.500213623047
 20
22.6589241027832
 30
0.0
 11
-561.500213623047
 21
55.6589241027832
 31
0.0
  0
LINE
  5
   268
  8
0
  6
CONTINUOUS
 62
     7
 10
-561.500213623047
 20
2.65893173217773
 30
0.0
 11
-561.500213623047
 21
22.6589241027832
 31
0.0
  0
LINE
  5
   269
  8
0
  6
CONTINUOUS
 62
     7
 10
-561.500213623047
 20
-30.3410682678223
 30
0.0
 11
-561.500213623047
 21
2.65893173217773
 31
0.0
  0
LINE
  5
   26A
  8
0
  6
CONTINUOUS
 62
     7
 10
-580.000236511231
 20
30.6589241027832
 30
0.0
 11
-580.000236511231
 21
42.6589241027832
 31
0.0
  0
LINE
  5
   26B
  8
0
  6
CONTINUOUS
 62
     7
 10
-580.000236511231
 20
74.7589149475098
 30
0.0
 11
-580.000236511231
 21
76.1589241027832
 31
0.0
  0
LINE
  5
   26C
  8
0
  6
CONTINUOUS
 62
     7
 10
-580.000236511231
 20
30.6589241027832
 30
0.0
 11
-583.25023651123
 21
30.6589241027832
 31
0.0
  0
LINE
  5
   26D
  8
0
  6
CONTINUOUS
 62
     7
 10
-583.250244115518
 20
-5.3410985204985
 30
0.0
 11
-583.250243797627
 21
-3.84109878540039
 31
0.0
  0
LINE
  5
   26E
  8
0
  6
CONTINUOUS
 62
     7
 10
-580.000236511231
 20
-50.8410911560059
 30
0.0
 11
-580.000236511231
 21
-49.4410700798035
 31
0.0
  0
LINE
  5
   26F
  8
0
  6
CONTINUOUS
 62
     7
 10
-580.000236511231
 20
-41.8410987854004
 30
0.0
 11
-580.000236511231
 21
-35.5910682678223
 31
0.0
  0
LINE
  5
   270
  8
0
  6
CONTINUOUS
 62
     7
 10
-586.250236511231
 20
42.6589241027832
 30
0.0
 11
-586.250236511231
 21
50.1589241027832
 31
0.0
  0
LINE
  5
   271
  8
0
  6
CONTINUOUS
 62
     7
 10
-586.250236511231
 20
-24.8410453796387
 30
0.0
 11
-586.250236511231
 21
-17.3410453796387
 31
0.0
  0
LINE
  5
   272
  8
0
  6
CONTINUOUS
 62
     7
 10
-580.000244140625
 20
-8.84109878540039
 30
0.0
 11
-583.250244140625
 21
-8.84109878540039
 31
0.0
  0
LINE
  5
   273
  8
0
  6
CONTINUOUS
 62
     7
 10
-583.250244140625
 20
-8.84109878540039
 30
0.0
 11
-583.250244140625
 21
-5.34109878540039
 31
0.0
  0
LINE
  5
   274
  8
0
  6
CONTINUOUS
 62
     7
 10
-583.25023651123
 20
-3.84109878540039
 30
0.0
 11
-585.250236511231
 21
-3.84109878540039
 31
0.0
  0
LINE
  5
   275
  8
0
  6
CONTINUOUS
 62
     7
 10
-583.25023651123
 20
-0.341106414794922
 30
0.0
 11
-585.250236511231
 21
-0.341106414794922
 31
0.0
  0
LINE
  5
   276
  8
0
  6
CONTINUOUS
 62
     7
 10
-562.000191500172
 20
-1.09108774527651
 30
0.0
 11
-583.25023727654
 21
-1.0910801158829
 31
0.0
  0
LINE
  5
   277
  8
0
  6
CONTINUOUS
 62
     7
 10
-562.000193850912
 20
-1.09108872837647
 30
0.0
 11
-561.500209125097
 21
-0.591081116999227
 31
0.0
  0
LINE
  5
   278
  8
0
  6
CONTINUOUS
 62
     7
 10
-562.000198364258
 20
-6.59106826782227
 30
0.0
 11
-583.250244140625
 21
-6.59106826782227
 31
0.0
  0
LINE
  5
   279
  8
0
  6
CONTINUOUS
 62
     7
 10
-561.500204778465
 20
-7.09108282336877
 30
0.0
 11
-562.000189504279
 21
-6.59107521199152
 31
0.0
  0
LINE
  5
   27A
  8
0
  6
CONTINUOUS
 62
     7
 10
-561.500213623047
 20
74.7589302062988
 30
0.0
 11
-580.000236511231
 21
74.7589302062988
 31
0.0
  0
LINE
  5
   27B
  8
0
  6
CONTINUOUS
 62
     7
 10
-561.500213623047
 20
67.1589241027832
 30
0.0
 11
-561.500213623047
 21
74.7589302062988
 31
0.0
  0
LINE
  5
   27C
  8
0
  6
CONTINUOUS
 62
     7
 10
-580.000236511231
 20
67.1589317321777
 30
0.0
 11
-580.000236511231
 21
73.4089241027832
 31
0.0
  0
LINE
  5
   27D
  8
0
  6
CONTINUOUS
 62
     7
 10
-561.500213623047
 20
-49.4410681724548
 30
0.0
 11
-580.000236511231
 21
-49.4410681724548
 31
0.0
  0
LINE
  5
   27E
  8
0
  6
CONTINUOUS
 62
     7
 10
-561.500213623047
 20
-49.4410681724548
 30
0.0
 11
-561.500213623047
 21
-41.8410911560059
 31
0.0
  0
LINE
  5
   27F
  8
0
  6
CONTINUOUS
 62
     7
 10
-580.000236511231
 20
-49.4410681724548
 30
0.0
 11
-580.000236511231
 21
-48.0910677909851
 31
0.0
  0
LINE
  5
   280
  8
0
  6
CONTINUOUS
 62
     3
 10
-585.250236511231
 20
-16.8410835266113
 30
0.0
 11
-586.000236511231
 21
-16.8410835266113
 31
0.0
  0
LINE
  5
   281
  8
0
  6
CONTINUOUS
 62
     3
 10
-585.250236511231
 20
-25.3410835266113
 30
0.0
 11
-586.000236511231
 21
-25.3410835266113
 31
0.0
  0
LINE
  5
   282
  8
0
  6
CONTINUOUS
 62
     3
 10
-585.250236511231
 20
-30.8410835266113
 30
0.0
 11
-586.000236511231
 21
-30.8410835266113
 31
0.0
  0
LINE
  5
   283
  8
0
  6
CONTINUOUS
 62
     3
 10
-585.250236511231
 20
56.1589164733887
 30
0.0
 11
-586.000236511231
 21
56.1589164733887
 31
0.0
  0
LINE
  5
   284
  8
0
  6
CONTINUOUS
 62
     3
 10
-585.250236511231
 20
50.6589164733887
 30
0.0
 11
-586.000236511231
 21
50.6589164733887
 31
0.0
  0
LINE
  5
   285
  8
0
  6
CONTINUOUS
 62
     3
 10
-585.250236511231
 20
42.1589164733887
 30
0.0
 11
-586.000236511231
 21
42.1589164733887
 31
0.0
  0
LINE
  5
   286
  8
0
  6
CONTINUOUS
 62
     3
 10
-585.250236511231
 20
50.1589241027832
 30
0.0
 11
-585.250236511231
 21
56.1589164733887
 31
0.0
  0
LINE
  5
   287
  8
0
  6
CONTINUOUS
 62
     3
 10
-585.250236511231
 20
-17.341007232666
 30
0.0
 11
-585.250236511231
 21
42.6589393615723
 31
0.0
  0
LINE
  5
   288
  8
0
  6
CONTINUOUS
 62
     3
 10
-585.250236511231
 20
-30.8410835266113
 30
0.0
 11
-585.250236511231
 21
-24.841007232666
 31
0.0
  0
LINE
  5
   289
  8
0
  6
CONTINUOUS
 62
     3
 10
-586.000236511231
 20
-30.8410835266113
 30
0.0
 11
-586.000236511231
 21
-24.8410530090332
 31
0.0
  0
LINE
  5
   28A
  8
0
  6
CONTINUOUS
 62
     3
 10
-586.000236511231
 20
-17.3410606384277
 30
0.0
 11
-586.000236511231
 21
42.6588706970215
 31
0.0
  0
LINE
  5
   28B
  8
0
  6
CONTINUOUS
 62
     3
 10
-586.000236511231
 20
50.1588859558106
 30
0.0
 11
-586.000236511231
 21
56.1589164733887
 31
0.0
  0
LINE
  5
   28C
  8
0
  6
CONTINUOUS
 62
     3
 10
-586.000236511231
 20
60.6588935852051
 30
0.0
 11
-586.000236511231
 21
73.6588935852051
 31
0.0
  0
LINE
  5
   28D
  8
0
  6
CONTINUOUS
 62
     3
 10
-582.000228881836
 20
73.4089241027832
 30
0.0
 11
-582.000228881836
 21
74.1588935852051
 31
0.0
  0
LINE
  5
   28E
  8
0
  6
CONTINUOUS
 62
     3
 10
-582.000228881836
 20
60.1588935852051
 30
0.0
 11
-582.000228881836
 21
60.9089393615723
 31
0.0
  0
LINE
  5
   28F
  8
0
  6
CONTINUOUS
 62
     3
 10
-568.250213623047
 20
-53.5910758972168
 30
0.0
 11
-570.750213623047
 21
-53.5910758972168
 31
0.0
  0
LINE
  5
   290
  8
0
  6
CONTINUOUS
 62
     3
 10
-568.250213623047
 20
-63.5910758972168
 30
0.0
 11
-570.750213623047
 21
-63.5910758972168
 31
0.0
  0
LINE
  5
   291
  8
0
  6
CONTINUOUS
 62
     3
 10
-568.250213623047
 20
-63.5910758972168
 30
0.0
 11
-568.250213623047
 21
-50.8410682678223
 31
0.0
  0
LINE
  5
   292
  8
0
  6
CONTINUOUS
 62
     3
 10
-570.750213623047
 20
-63.5910758972168
 30
0.0
 11
-570.750213623047
 21
-50.8410758972168
 31
0.0
  0
LINE
  5
   293
  8
0
  6
CONTINUOUS
 62
     7
 10
-580.000236511231
 20
73.4089241027832
 30
0.0
 11
-582.000228881836
 21
73.4089241027832
 31
0.0
  0
LINE
  5
   294
  8
0
  6
CONTINUOUS
 62
     7
 10
-580.000236511231
 20
60.9089241027832
 30
0.0
 11
-580.500213623047
 21
60.9089241027832
 31
0.0
  0
LINE
  5
   295
  8
0
  6
CONTINUOUS
 62
     7
 10
-580.500213623047
 20
60.9089241027832
 30
0.0
 11
-582.000228881836
 21
60.9089241027832
 31
0.0
  0
LINE
  5
   296
  8
0
  6
CONTINUOUS
 62
     7
 10
-580.000236511231
 20
-48.0910677909851
 30
0.0
 11
-582.000228881836
 21
-48.0910677909851
 31
0.0
  0
LINE
  5
   297
  8
0
  6
CONTINUOUS
 62
     7
 10
-580.500213623047
 20
-35.5910682678223
 30
0.0
 11
-582.000228881836
 21
-35.5910682678223
 31
0.0
  0
LINE
  5
   298
  8
0
  6
CONTINUOUS
 62
     7
 10
-580.000236511231
 20
-35.5910682678223
 30
0.0
 11
-580.500213623047
 21
-35.5910682678223
 31
0.0
  0
LINE
  5
   299
  8
0
  6
CONTINUOUS
 62
     7
 10
-580.000236511231
 20
50.1589241027832
 30
0.0
 11
-586.250236511231
 21
50.1589241027832
 31
0.0
  0
LINE
  5
   29A
  8
0
  6
CONTINUOUS
 62
     7
 10
-580.000236511231
 20
42.6589241027832
 30
0.0
 11
-586.250236511231
 21
42.6589241027832
 31
0.0
  0
LINE
  5
   29B
  8
0
  6
CONTINUOUS
 62
     7
 10
-580.000236511231
 20
-17.3410453796387
 30
0.0
 11
-586.250236511231
 21
-17.3410453796387
 31
0.0
  0
LINE
  5
   29C
  8
0
  6
CONTINUOUS
 62
     7
 10
-580.000236511231
 20
-24.8410453796387
 30
0.0
 11
-586.250236511231
 21
-24.8410453796387
 31
0.0
  0
LINE
  5
   29D
  8
0
  6
CONTINUOUS
 62
     3
 10
-586.000181245978
 20
73.6588595899301
 30
0.0
 11
-585.500181263092
 21
74.1588595728158
 31
0.0
  0
LINE
  5
   29E
  8
0
  6
CONTINUOUS
 62
     3
 10
-585.500271609294
 20
60.1589374968428
 30
0.0
 11
-586.000271592179
 21
60.6589374797285
 31
0.0
  0
LINE
  5
   29F
  8
0
  6
CONTINUOUS
 62
     3
 10
-582.000228881836
 20
74.1588935852051
 30
0.0
 11
-585.500236511231
 21
74.1588935852051
 31
0.0
  0
LINE
  5
   2A0
  8
0
  6
CONTINUOUS
 62
     3
 10
-582.000228881836
 20
60.1588935852051
 30
0.0
 11
-585.500236511231
 21
60.1588935852051
 31
0.0
  0
LINE
  5
   2A1
  8
0
  6
CONTINUOUS
 62
     3
 10
-568.250213623047
 20
76.1589164733887
 30
0.0
 11
-568.250213623047
 21
88.9089241027832
 31
0.0
  0
LINE
  5
   2A2
  8
0
  6
CONTINUOUS
 62
     3
 10
-570.750213623047
 20
76.1589241027832
 30
0.0
 11
-570.750213623047
 21
88.9089241027832
 31
0.0
  0
LINE
  5
   2A3
  8
0
  6
CONTINUOUS
 62
     3
 10
-568.250213623047
 20
88.9089241027832
 30
0.0
 11
-570.750213623047
 21
88.9089241027832
 31
0.0
  0
LINE
  5
   2A4
  8
0
  6
CONTINUOUS
 62
     3
 10
-568.250213623047
 20
78.9089241027832
 30
0.0
 11
-570.750213623047
 21
78.9089241027832
 31
0.0
  0
LINE
  5
   2A5
  8
0
  6
CONTINUOUS
 62
     7
 10
-582.000228881836
 20
-48.8410453796387
 30
0.0
 11
-582.000228881836
 21
-48.0910758972168
 31
0.0
  0
LINE
  5
   2A6
  8
0
  6
CONTINUOUS
 62
     3
 10
-582.000228881836
 20
-48.8410453796387
 30
0.0
 11
-585.500236511231
 21
-48.8410453796387
 31
0.0
  0
LINE
  5
   2A7
  8
0
  6
CONTINUOUS
 62
     3
 10
-585.500181263092
 20
-48.8410113672494
 30
0.0
 11
-586.000181245978
 21
-48.3410113843637
 31
0.0
  0
LINE
  5
   2A8
  8
0
  6
CONTINUOUS
 62
     3
 10
-586.000236511231
 20
-48.3410453796387
 30
0.0
 11
-586.000236511231
 21
-35.3410453796387
 31
0.0
  0
LINE
  5
   2A9
  8
0
  6
CONTINUOUS
 62
     3
 10
-586.000271592179
 20
-35.3410892741621
 30
0.0
 11
-585.500271609294
 21
-34.8410892912764
 31
0.0
  0
LINE
  5
   2AA
  8
0
  6
CONTINUOUS
 62
     3
 10
-582.000228881836
 20
-34.8410453796387
 30
0.0
 11
-585.500236511231
 21
-34.8410453796387
 31
0.0
  0
LINE
  5
   2AB
  8
0
  6
CONTINUOUS
 62
     3
 10
-582.000228881836
 20
-35.5910911560059
 30
0.0
 11
-582.000228881836
 21
-34.8410453796387
 31
0.0
  0
LINE
  5
   2AC
  8
0
  6
DASHDOT
 62
     7
 10
-586.250236511231
 20
-17.3410453796387
 30
0.0
 11
-586.250236511231
 21
42.6589241027832
 31
0.0
  0
LINE
  5
   2AD
  8
0
  6
DASHDOT
 62
     7
 10
-586.250236511231
 20
-68.1536073572157
 30
0.0
 11
-586.250236511231
 21
-24.8410453796387
 31
0.0
  0
LINE
  5
   2AE
  8
0
  6
DASHDOT
 62
     7
 10
-586.250236511231
 20
50.1589241027832
 30
0.0
 11
-586.250236511231
 21
83.7644040579367
 31
0.0
  0
LINE
  5
   2AF
  8
0
  6
DASHDOT
 62
     7
 10
-587.750236511231
 20
-66.5183219813799
 30
0.0
 11
-587.750236511231
 21
84.418518208271
 31
0.0
  0
LINE
  5
   2B0
  8
0
  6
CONTINUOUS
 62
     7
 10
-582.242004653651
 20
83.9891233515425
 30
0.0
 11
-591.846400560007
 21
85.3810647872463
 31
0.0
  0
LINE
  5
   2B1
  8
0
  6
CONTINUOUS
 62
     7
 10
-581.82442222294
 20
-69.054837504087
 30
0.0
 11
-590.872041555014
 21
-64.6006249098349
 31
0.0
  0
LINE
  5
   2B2
  8
0
  6
CONTINUOUS
 62
     7
 10
-582.000228881836
 20
73.4089241027832
 30
0.0
 11
-585.500236511231
 21
73.4089241027832
 31
0.0
  0
LINE
  5
   2B3
  8
0
  6
CONTINUOUS
 62
     7
 10
-580.000236511231
 20
73.4089241027832
 30
0.0
 11
-580.000236511231
 21
74.7589302062988
 31
0.0
  0
LINE
  5
   2B4
  8
0
  6
CONTINUOUS
 62
     7
 10
-580.000236511231
 20
60.9089241027832
 30
0.0
 11
-580.000236511231
 21
67.1588935852051
 31
0.0
  0
LINE
  5
   2B5
  8
0
  6
CONTINUOUS
 62
     7
 10
-582.000228881836
 20
60.9089241027832
 30
0.0
 11
-585.500236511231
 21
60.9089241027832
 31
0.0
  0
LINE
  5
   2B6
  8
0
  6
CONTINUOUS
 62
     7
 10
-580.000236511231
 20
50.1589241027832
 30
0.0
 11
-580.000236511231
 21
60.9089241027832
 31
0.0
  0
LINE
  5
   2B7
  8
0
  6
CONTINUOUS
 62
     7
 10
-580.000236511231
 20
42.6589241027832
 30
0.0
 11
-580.000236511231
 21
50.1589241027832
 31
0.0
  0
LINE
  5
   2B8
  8
0
  6
CONTINUOUS
 62
     7
 10
-583.250243055882
 20
-0.341106414794922
 30
0.0
 11
-583.250236486125
 21
30.6589167382906
 31
0.0
  0
LINE
  5
   2B9
  8
0
  6
CONTINUOUS
 62
     7
 10
-583.250243797627
 20
-3.84109878540039
 30
0.0
 11
-583.250243055882
 21
-0.341106414794922
 31
0.0
  0
LINE
  5
   2BA
  8
0
  6
CONTINUOUS
 62
     7
 10
-580.000236511231
 20
-8.84109878540039
 30
0.0
 11
-580.000236511231
 21
-7.09108352661133
 31
0.0
  0
LINE
  5
   2BB
  8
0
  6
CONTINUOUS
 62
     7
 10
-580.000236511231
 20
-17.3410453796387
 30
0.0
 11
-580.000236511231
 21
-8.84109878540039
 31
0.0
  0
LINE
  5
   2BC
  8
0
  6
CONTINUOUS
 62
     7
 10
-580.000236511231
 20
-24.8410453796387
 30
0.0
 11
-580.000236511231
 21
-17.3410453796387
 31
0.0
  0
LINE
  5
   2BD
  8
0
  6
CONTINUOUS
 62
     7
 10
-580.000236511231
 20
-35.5910682678223
 30
0.0
 11
-580.000236511231
 21
-24.8410453796387
 31
0.0
  0
LINE
  5
   2BE
  8
0
  6
CONTINUOUS
 62
     7
 10
-582.000228881836
 20
-35.5910682678223
 30
0.0
 11
-585.500236511231
 21
-35.5910682678223
 31
0.0
  0
LINE
  5
   2BF
  8
0
  6
CONTINUOUS
 62
     7
 10
-582.000228881836
 20
-48.0910677909851
 30
0.0
 11
-585.500236511231
 21
-48.0910677909851
 31
0.0
  0
LINE
  5
   2C0
  8
0
  6
CONTINUOUS
 62
     7
 10
-580.000236511231
 20
-48.0910677909851
 30
0.0
 11
-580.000236511231
 21
-41.8410911560059
 31
0.0
  0
LINE
  5
   2C1
  8
0
  6
DASHDOT
 62
     7
 10
-577.285499153522
 20
46.4089241027832
 30
0.0
 11
-594.275930611487
 21
46.4089241027832
 31
0.0
  0
LINE
  5
   2C2
  8
0
  6
DASHDOT
 62
     7
 10
-576.157496297582
 20
-21.0910758972168
 30
0.0
 11
-594.666731778593
 21
-21.0910758972168
 31
0.0
  0
CIRCLE
  5
   2C3
  8
0
  6
CONTINUOUS
 62
     7
 10
-582.966454489631
 20
65.1881509309074
 30
0.0
 40
0.1
  0
CIRCLE
  5
   2C4
  8
0
  6
CONTINUOUS
 62
     7
 10
-569.687581161052
 20
83.3383532141782
 30
0.0
 40
0.1
  0
CIRCLE
  5
   2C5
  8
0
  6
CONTINUOUS
 62
     7
 10
-519.399608244419
 20
67.6443846065696
 30
0.0
 40
0.1
  0
LINE
  5
   2C6
  8
0
  6
DASHDOT
 62
     7
 10
-563.697654605225
 20
-58.5910758972168
 30
0.0
 11
-576.038346666025
 21
-58.5910758972168
 31
0.0
  0
LINE
  5
   2C7
  8
0
  6
DASHDOT
 62
     7
 10
-562.398634388299
 20
83.9089241027832
 30
0.0
 11
-576.110514455854
 21
83.9089241027832
 31
0.0
  0
LINE
  5
   2C8
  8
0
  6
CONTINUOUS
 62
     1
 10
-508.000218391419
 20
-13.9692859649658
 30
0.0
 11
-508.000218391419
 21
-12.9692859649658
 31
0.0
  0
LINE
  5
   2C9
  8
0
  6
CONTINUOUS
 62
     1
 10
-507.000218391418
 20
-13.9692859649658
 30
0.0
 11
-508.000218391419
 21
-13.9692859649658
 31
0.0
  0
LINE
  5
   2CA
  8
0
  6
CONTINUOUS
 62
     1
 10
-508.000218391419
 20
40.0307121276856
 30
0.0
 11
-508.000218391419
 21
41.0307121276855
 31
0.0
  0
LINE
  5
   2CB
  8
0
  6
CONTINUOUS
 62
     1
 10
-507.000218391418
 20
41.0307121276855
 30
0.0
 11
-508.000218391419
 21
41.0307121276855
 31
0.0
  0
LINE
  5
   2CC
  8
0
  6
CONTINUOUS
 62
     1
 10
-508.000218391419
 20
-12.9692859649658
 30
0.0
 11
-508.000218391419
 21
40.0307140350342
 31
0.0
  0
LINE
  5
   2CD
  8
0
  6
CONTINUOUS
 62
     1
 10
-510.250218302012
 20
47.8193855285645
 30
0.0
 11
-510.250218302012
 21
50.2420387268066
 31
0.0
  0
LINE
  5
   2CE
  8
0
  6
CONTINUOUS
 62
     1
 10
-510.250218302012
 20
-23.1806106567383
 30
0.0
 11
-510.250218302012
 21
-20.7579612731934
 31
0.0
  0
LINE
  5
   2CF
  8
0
  6
CONTINUOUS
 62
     1
 10
-507.000218391418
 20
-27.2192859649658
 30
0.0
 11
-507.000218391418
 21
54.2807140350342
 31
0.0
  0
LINE
  5
   2D0
  8
0
  6
CONTINUOUS
 62
     1
 10
-505.250218391419
 20
-27.2192859649658
 30
0.0
 11
-507.000218391418
 21
-27.2192859649658
 31
0.0
  0
LINE
  5
   2D1
  8
0
  6
CONTINUOUS
 62
     1
 10
-505.250218391419
 20
-27.2192878723145
 30
0.0
 11
-505.250218391419
 21
54.2807121276855
 31
0.0
  0
LINE
  5
   2D2
  8
0
  6
CONTINUOUS
 62
     1
 10
-505.250218391419
 20
54.2807121276855
 30
0.0
 11
-505.750218391418
 21
54.2807121276855
 31
0.0
  0
LINE
  5
   2D3
  8
0
  6
CONTINUOUS
 62
     1
 10
-506.250218391419
 20
54.2807121276855
 30
0.0
 11
-507.000218391418
 21
54.2807121276855
 31
0.0
  0
LINE
  5
   2D4
  8
0
  6
CONTINUOUS
 62
     1
 10
-507.000218391418
 20
47.5307121276856
 30
0.0
 11
-509.750218308862
 21
47.5307121276856
 31
0.0
  0
LINE
  5
   2D5
  8
0
  6
CONTINUOUS
 62
     1
 10
-507.000218391418
 20
50.5307121276855
 30
0.0
 11
-509.750216663748
 21
50.5307121276855
 31
0.0
  0
LINE
  5
   2D6
  8
0
  6
CONTINUOUS
 62
     1
 10
-509.750218308862
 20
47.5307121276856
 30
0.0
 11
-509.750218308862
 21
47.6448936462402
 31
0.0
  0
LINE
  5
   2D7
  8
0
  6
CONTINUOUS
 62
     1
 10
-509.750217911
 20
47.5307109791548
 30
0.0
 11
-510.250217927463
 21
47.819384383653
 31
0.0
  0
LINE
  5
   2D8
  8
0
  6
CONTINUOUS
 62
     1
 10
-509.750218308862
 20
47.5307121276856
 30
0.0
 11
-509.750218308862
 21
47.9700508117676
 31
0.0
  0
LINE
  5
   2D9
  8
0
  6
CONTINUOUS
 62
     1
 10
-509.750218308862
 20
47.9700508117676
 30
0.0
 11
-509.750218308862
 21
48.4566917419434
 31
0.0
  0
LINE
  5
   2DA
  8
0
  6
CONTINUOUS
 62
     1
 10
-509.750218308862
 20
48.4566917419434
 30
0.0
 11
-509.750218308862
 21
49.0307121276856
 31
0.0
  0
LINE
  5
   2DB
  8
0
  6
CONTINUOUS
 62
     1
 10
-509.750218308862
 20
49.0307121276856
 30
0.0
 11
-509.750218308862
 21
49.6047401428223
 31
0.0
  0
LINE
  5
   2DC
  8
0
  6
CONTINUOUS
 62
     1
 10
-509.750218308862
 20
49.6047401428223
 30
0.0
 11
-509.750218308862
 21
50.0913734436035
 31
0.0
  0
LINE
  5
   2DD
  8
0
  6
CONTINUOUS
 62
     1
 10
-509.750218308862
 20
50.0913734436035
 30
0.0
 11
-509.750218308862
 21
50.4165306091309
 31
0.0
  0
LINE
  5
   2DE
  8
0
  6
CONTINUOUS
 62
     1
 10
-509.750218308862
 20
50.4165306091309
 30
0.0
 11
-509.750218308862
 21
50.5307121276855
 31
0.0
  0
LINE
  5
   2DF
  8
0
  6
CONTINUOUS
 62
     1
 10
-510.250218736601
 20
50.2420375359376
 30
0.0
 11
-509.750218720137
 21
50.5307109404358
 31
0.0
  0
LINE
  5
   2E0
  8
0
  6
CONTINUOUS
 62
     1
 10
-507.000218391418
 20
-20.4692859649658
 30
0.0
 11
-509.750217306306
 21
-20.4692859649658
 31
0.0
  0
LINE
  5
   2E1
  8
0
  6
CONTINUOUS
 62
     1
 10
-507.000218391418
 20
-23.4692859649658
 30
0.0
 11
-509.750219148087
 21
-23.4692859649658
 31
0.0
  0
LINE
  5
   2E2
  8
0
  6
CONTINUOUS
 62
     1
 10
-510.250218563086
 20
-20.7579619733192
 30
0.0
 11
-509.750218546622
 21
-20.4692866810627
 31
0.0
  0
LINE
  5
   2E3
  8
0
  6
CONTINUOUS
 62
     1
 10
-509.750218292204
 20
-20.5834674835205
 30
0.0
 11
-509.750218292204
 21
-20.4692859649658
 31
0.0
  0
LINE
  5
   2E4
  8
0
  6
CONTINUOUS
 62
     1
 10
-509.750218292216
 20
-20.9086265563965
 30
0.0
 11
-509.750218292216
 21
-20.5834674835205
 31
0.0
  0
LINE
  5
   2E5
  8
0
  6
CONTINUOUS
 62
     1
 10
-509.750218292202
 20
-21.3952598571777
 30
0.0
 11
-509.750218292202
 21
-20.9086265563965
 31
0.0
  0
LINE
  5
   2E6
  8
0
  6
CONTINUOUS
 62
     1
 10
-509.750218292237
 20
-21.9692859649658
 30
0.0
 11
-509.750218292237
 21
-21.3952598571777
 31
0.0
  0
LINE
  5
   2E7
  8
0
  6
CONTINUOUS
 62
     1
 10
-509.750218292175
 20
-22.5433101654053
 30
0.0
 11
-509.750218292175
 21
-21.9692859649658
 31
0.0
  0
LINE
  5
   2E8
  8
0
  6
CONTINUOUS
 62
     1
 10
-509.750218292202
 20
-23.0299453735352
 30
0.0
 11
-509.750218292202
 21
-22.5433101654053
 31
0.0
  0
LINE
  5
   2E9
  8
0
  6
CONTINUOUS
 62
     1
 10
-509.750218292215
 20
-23.3551044464111
 30
0.0
 11
-509.750218292215
 21
-23.0299453735352
 31
0.0
  0
LINE
  5
   2EA
  8
0
  6
CONTINUOUS
 62
     1
 10
-509.750218085042
 20
-23.4692865787153
 30
0.0
 11
-510.250218101506
 21
-23.1806112864588
 31
0.0
  0
LINE
  5
   2EB
  8
0
  6
CONTINUOUS
 62
     1
 10
-509.750218292204
 20
-23.4692859649658
 30
0.0
 11
-509.750218292204
 21
-23.3551044464111
 31
0.0
  0
LINE
  5
   2EC
  8
0
  6
CONTINUOUS
 62
     1
 10
-505.750218391418
 20
54.2807121276855
 30
0.0
 11
-506.250218391419
 21
54.2807121276855
 31
0.0
  0
LINE
  5
   2ED
  8
0
  6
CONTINUOUS
 62
     7
 10
-508.000218391419
 20
41.0307121276855
 30
0.0
 11
-508.000218391419
 21
47.5307121276856
 31
0.0
  0
LINE
  5
   2EE
  8
0
  6
CONTINUOUS
 62
     7
 10
-507.000218391418
 20
54.2807140350342
 30
0.0
 11
-507.000218391418
 21
76.464660691161
 31
0.0
  0
LINE
  5
   2EF
  8
0
  6
CONTINUOUS
 62
     7
 10
-507.000218391418
 20
-66.8525339538454
 30
0.0
 11
-507.000218391418
 21
-27.2192859649658
 31
0.0
  0
LINE
  5
   2F0
  8
0
  6
CONTINUOUS
 62
     7
 10
-508.000218391419
 20
-67.5968459798476
 30
0.0
 11
-508.000218391419
 21
-23.4692859649658
 31
0.0
  0
LINE
  5
   2F1
  8
0
  6
CONTINUOUS
 62
     7
 10
-510.936805047842
 20
-69.7825827436213
 30
0.0
 11
-504.476109488294
 21
-64.9738093423107
 31
0.0
  0
LINE
  5
   2F2
  8
0
  6
CONTINUOUS
 62
     7
 10
-511.546725251624
 20
72.4552760367657
 30
0.0
 11
-502.257214046932
 21
80.6473287084381
 31
0.0
  0
LINE
  5
   2F3
  8
0
  6
CONTINUOUS
 62
     7
 10
-508.000218391419
 20
50.5307121276855
 30
0.0
 11
-508.000218391419
 21
75.5828002260447
 31
0.0
  0
LINE
  5
   2F4
  8
0
  6
CONTINUOUS
 62
     7
 10
-508.000218391419
 20
-20.4692859649658
 30
0.0
 11
-508.000218391419
 21
-13.9692859649658
 31
0.0
  0
LINE
  5
   2F5
  8
0
  6
CONTINUOUS
 62
     7
 10
-507.000218391418
 20
-20.2192859649658
 30
0.0
 11
-508.000218391419
 21
-20.2192859649658
 31
0.0
  0
LINE
  5
   2F6
  8
0
  6
CONTINUOUS
 62
     7
 10
-507.000218391418
 20
-23.7192859649658
 30
0.0
 11
-508.000218391419
 21
-23.7192859649658
 31
0.0
  0
LINE
  5
   2F7
  8
0
  6
CONTINUOUS
 62
     7
 10
-507.000218391418
 20
-14.4692859649658
 30
0.0
 11
-508.000218391419
 21
-14.4692859649658
 31
0.0
  0
LINE
  5
   2F8
  8
0
  6
CONTINUOUS
 62
     7
 10
-507.000218391418
 20
41.5307121276855
 30
0.0
 11
-508.000218391419
 21
41.5307121276855
 31
0.0
  0
LINE
  5
   2F9
  8
0
  6
CONTINUOUS
 62
     7
 10
-507.000218391418
 20
47.2807121276855
 30
0.0
 11
-508.000218391419
 21
47.2807121276855
 31
0.0
  0
LINE
  5
   2FA
  8
0
  6
CONTINUOUS
 62
     7
 10
-507.000218391418
 20
50.7807121276856
 30
0.0
 11
-508.000218391419
 21
50.7807121276856
 31
0.0
  0
INSERT
  5
   2FB
  8
0
  6
CONTINUOUS
 62
     7
  2
*HATCH1296
 10
-510.000244140625
 20
-41.4595985412598
 30
0.0
 41
0.5
 42
0.5
 50
89.9999999480344
 43
0.5
  0
INSERT
  5
   2FC
  8
0
  6
CONTINUOUS
 62
     7
  2
*HATCH1297
 10
-510.000244140625
 20
-41.4595985412598
 30
0.0
 41
0.5
 42
0.5
 50
89.9999999480344
 43
0.5
  0
INSERT
  5
   2FD
  8
0
  6
CONTINUOUS
 62
     7
  2
*HATCH1298
 10
-510.000244140625
 20
-41.4595985412598
 30
0.0
 41
0.5
 42
0.5
 50
89.9999999480344
 43
0.5
  0
INSERT
  5
   2FE
  8
0
  6
CONTINUOUS
 62
     7
  2
*HATCH1299
 10
-510.000244140625
 20
-41.4595985412598
 30
0.0
 41
0.5
 42
0.5
 50
89.9999999480344
 43
0.5
  0
CIRCLE
  5
   2FF
  8
0
  6
CONTINUOUS
 62
     7
 10
-508.528918512106
 20
49.4008011051627
 30
0.0
 40
0.125
  0
LINE
  5
   300
  8
0
  6
DASHDOT
 62
     7
 10
-482.287802307951
 20
13.5339411926093
 30
0.0
 11
-593.126368271109
 21
13.5339411926093
 31
0.0
  0
LINE
  5
   301
  8
0
  6
CONTINUOUS
 62
     7
 10
-511.250221252442
 20
77.4089241027832
 30
0.0
 11
-560.500259399646
 21
77.4089241027832
 31
0.0
  0
LINE
  5
   302
  8
0
  6
CONTINUOUS
 62
     7
 10
-511.250221252442
 20
-52.0910435486016
 30
0.0
 11
-560.500214099884
 21
-52.0910435486016
 31
0.0
  0
LINE
  5
   303
  8
0
  6
CONTINUOUS
 62
     7
 10
-510.750221252442
 20
-51.5910435486016
 30
0.0
 11
-510.750221252442
 21
-39.3410511779964
 31
0.0
  0
LINE
  5
   304
  8
0
  6
CONTINUOUS
 62
     7
 10
-510.750221252442
 20
64.4089411926093
 30
0.0
 11
-510.750221252442
 21
76.9089241027832
 31
0.0
  0
ARC
  5
   305
  8
0
  6
CONTINUOUS
 62
     7
 10
-511.250221252442
 20
76.9089241027832
 30
0.0
 40
0.5
 50
359.999999948034
 51
449.999999948034
  0
ARC
  5
   306
  8
0
  6
CONTINUOUS
 62
     7
 10
-511.250221252442
 20
-51.5910435486016
 30
0.0
 40
0.5
 50
269.999999948034
 51
359.999999948034
  0
LINE
  5
   307
  8
0
  6
CONTINUOUS
 62
     7
 10
-510.750221252442
 20
-39.3410511779964
 30
0.0
 11
-511.250221252442
 21
-39.3410511779964
 31
0.0
  0
LINE
  5
   308
  8
0
  6
CONTINUOUS
 62
     7
 10
-511.250221252442
 20
-39.3410511779964
 30
0.0
 11
-511.250221252442
 21
-38.8410511779964
 31
0.0
  0
LINE
  5
   309
  8
0
  6
CONTINUOUS
 62
     7
 10
-511.250221252442
 20
63.9089411926093
 30
0.0
 11
-511.250221252442
 21
64.4089411926093
 31
0.0
  0
LINE
  5
   30A
  8
0
  6
CONTINUOUS
 62
     7
 10
-510.750221252442
 20
64.4089411926093
 30
0.0
 11
-511.250221252442
 21
64.4089411926093
 31
0.0
  0
LINE
  5
   30B
  8
0
  6
CONTINUOUS
 62
     7
 10
-589.350236511231
 20
44.4589241027832
 30
0.0
 11
-589.350236511231
 21
48.3589241027832
 31
0.0
  0
LINE
  5
   30C
  8
0
  6
CONTINUOUS
 62
     7
 10
-590.95023651123
 20
45.4089241027832
 30
0.0
 11
-590.95023651123
 21
47.4089241027832
 31
0.0
  0
LINE
  5
   30D
  8
0
  6
CONTINUOUS
 62
     7
 10
-587.750236511231
 20
48.3589241027832
 30
0.0
 11
-589.350236511231
 21
48.3589241027832
 31
0.0
  0
LINE
  5
   30E
  8
0
  6
CONTINUOUS
 62
     7
 10
-587.750236511231
 20
44.4589241027832
 30
0.0
 11
-589.350236511231
 21
44.4589241027832
 31
0.0
  0
LINE
  5
   30F
  8
0
  6
CONTINUOUS
 62
     7
 10
-587.750236511231
 20
47.4089241027832
 30
0.0
 11
-590.95023651123
 21
47.4089241027832
 31
0.0
  0
LINE
  5
   310
  8
0
  6
CONTINUOUS
 62
     7
 10
-587.750236511231
 20
45.4089241027832
 30
0.0
 11
-590.95023651123
 21
45.4089241027832
 31
0.0
  0
LINE
  5
   311
  8
0
  6
CONTINUOUS
 62
     7
 10
-587.750236511231
 20
-19.1410758972168
 30
0.0
 11
-589.350236511231
 21
-19.1410758972168
 31
0.0
  0
LINE
  5
   312
  8
0
  6
CONTINUOUS
 62
     7
 10
-587.750236511231
 20
-20.0910758972168
 30
0.0
 11
-590.95023651123
 21
-20.0910758972168
 31
0.0
  0
LINE
  5
   313
  8
0
  6
CONTINUOUS
 62
     7
 10
-587.750236511231
 20
-22.0910758972168
 30
0.0
 11
-590.95023651123
 21
-22.0910758972168
 31
0.0
  0
LINE
  5
   314
  8
0
  6
CONTINUOUS
 62
     7
 10
-587.750236511231
 20
-23.0410758972168
 30
0.0
 11
-589.350236511231
 21
-23.0410758972168
 31
0.0
  0
LINE
  5
   315
  8
0
  6
CONTINUOUS
 62
     7
 10
-589.350236511231
 20
-23.0410758972168
 30
0.0
 11
-589.350236511231
 21
-19.1410758972168
 31
0.0
  0
LINE
  5
   316
  8
0
  6
CONTINUOUS
 62
     7
 10
-590.95023651123
 20
-22.0910758972168
 30
0.0
 11
-590.95023651123
 21
-20.0910758972168
 31
0.0
  0
CIRCLE
  5
   317
  8
0
  6
CONTINUOUS
 62
     7
 10
-588.902414563778
 20
-21.1736399078486
 30
0.0
 40
0.1
  0
TEXT
  5
   318
  8
0
  6
CONTINUOUS
 62
     1
 10
-504.406128359743
 20
-149.013042486432
 30
0.0
 40
2.00000008940697
  1
M 3076 95-01-16
 50
359.999999948034
 41
0.749999995529652
 72
     1
 11
-493.306127935648
 21
-148.01304245174
 31
0.0
 73
     2
  0
TEXT
  5
   319
  8
0
  6
CONTINUOUS
 62
     7
 10
-604.143661513719
 20
-2.00168036109962
 30
0.0
 40
3.00000002980232
  1
=          =
 50
89.9999999480344
 41
0.916666604744064
 72
     2
 11
-604.143661484328
 21
30.448317764831
 31
0.0
  0
TEXT
  5
   31A
  8
0
  6
CONTINUOUS
 62
     1
 10
-516.281204180823
 20
-134.525592230854
 30
0.0
 40
2.00000008940697
  1
93-04-05  FERRARI M.
 50
359.999999948034
 41
0.749999995529652
 72
     2
 11
-486.581203043865
 21
-134.525592257642
 31
0.0
  0
TEXT
  5
   31B
  8
0
  6
CONTINUOUS
 62
     7
 10
-468.244224563035
 20
-3.93033026344337
 30
0.0
 40
3.00000002980232
  1
=          =
 50
89.9999999480344
 41
0.916666604744064
 72
     2
 11
-468.244224533645
 21
28.5196678624873
 31
0.0
  0
INSERT
  5
   31C
  8
0
  6
CONTINUOUS
 62
     7
  2
*UDIM2214
 10
0.0
 20
0.0
 30
0.0
  0
INSERT
  5
   31D
  8
0
  6
CONTINUOUS
 62
     7
  2
*UDIM2215
 10
0.0
 20
0.0
 30
0.0
  0
INSERT
  5
   31E
  8
0
  6
CONTINUOUS
 62
     7
  2
*UDIM2216
 10
0.0
 20
0.0
 30
0.0
  0
INSERT
  5
   31F
  8
0
  6
CONTINUOUS
 62
     7
  2
*UDIM2217
 10
0.0
 20
0.0
 30
0.0
  0
INSERT
  5
   320
  8
0
  6
CONTINUOUS
 62
     7
  2
*UDIM2218
 10
0.0
 20
0.0
 30
0.0
  0
INSERT
  5
   321
  8
0
  6
CONTINUOUS
 62
     7
  2
*UDIM2219
 10
0.0
 20
0.0
 30
0.0
  0
INSERT
  5
   322
  8
0
  6
CONTINUOUS
 62
     7
  2
*UDIM2220
 10
0.0
 20
0.0
 30
0.0
  0
TEXT
  5
   323
  8
0
  6
CONTINUOUS
 62
     1
 10
-409.308593664381
 20
-160.425845458897
 30
0.0
 40
4.00000017881393
  1
601812/201
 50
359.999999948034
 41
0.937499973922969
 72
     2
 11
-372.558593064609
 21
-160.425845492044
 31
0.0
  0
TEXT
  5
   324
  8
0
  6
CONTINUOUS
 62
     1
 10
-398.222900326411
 20
-151.444263132263
 30
0.0
 40
3.00000002980232
  1
    S4
 50
359.999999948034
 41
0.916666604744064
 72
     2
 11
-382.272901249786
 21
-151.444263146649
 31
0.0
  0
TEXT
  5
   325
  8
0
  6
CONTINUOUS
 62
     1
 10
-419.757320181439
 20
-133.133991266469
 30
0.0
 40
2.00000008940697
  1
3POLE LOW VOLTAGE M.C.C.B SERIES ISOMAX
 50
359.999999948034
 41
0.749999861419206
 72
     1
 11
-390.657324260475
 21
-132.133991248012
 31
0.0
 73
     2
  0
TEXT
  5
   326
  8
0
  6
CONTINUOUS
 62
     1
 10
-413.757320890731
 20
-136.13399127188
 30
0.0
 40
2.00000008940697
  1
PLUG-IN VERSION FRONT TERMINALS
 50
359.999999948034
 41
0.749999861419206
 72
     1
 11
-390.657324129341
 21
-135.133991248012
 31
0.0
 73
     2
  0
TEXT
  5
   327
  8
0
  6
CONTINUOUS
 62
     1
 10
-416.554928548793
 20
-141.20425799619
 30
0.0
 40
2.00000008940697
  1
INTERR.AUTOMATICO SERIE ISOMAX
 50
359.999999948034
 41
0.749999861419206
 72
     1
 11
-394.20493168235
 21
-140.204257971645
 31
0.0
 73
     2
  0
TEXT
  5
   328
  8
0
  6
CONTINUOUS
 62
     1
 10
-427.804926841861
 20
-144.204257986043
 30
0.0
 40
2.00000008940697
  1
TRIPOL.ESECUZIONE RIMOVIBILE TERMIN.ANTERIORI
 50
359.999999948034
 41
0.749999861419206
 72
     1
 11
-394.204931551216
 21
-143.204257971645
 31
0.0
 73
     2
  0
INSERT
  5
   329
  8
0
  6
CONTINUOUS
 62
     7
  2
*UDIM2221
 10
0.0
 20
0.0
 30
0.0
  0
TEXT
  5
   32A
  8
0
  6
CONTINUOUS
 62
     7
 10
-465.880508334796
 20
11.1370819158331
 30
0.0
 40
3.00000002980232
  1
X
 50
359.999999948034
 41
0.916666604744064
 72
     1
 11
-464.780508399009
 21
12.6370819297421
 31
0.0
 73
     2
  0
LINE
  5
   32B
  8
0
  6
CONTINUOUS
 62
     7
 10
-662.166523162003
 20
-12.7160606384277
 30
0.0
 11
-667.166523162003
 21
-12.7160606384277
 31
0.0
  0
LINE
  5
   32C
  8
0
  6
CONTINUOUS
 62
     7
 10
-648.416538420792
 20
-12.7160606384277
 30
0.0
 11
-662.166523162003
 21
-12.7160606384277
 31
0.0
  0
LINE
  5
   32D
  8
0
  6
CONTINUOUS
 62
    52
 10
-629.666553679581
 20
-12.7160606384277
 30
0.0
 11
-634.666553679581
 21
-12.7160606384277
 31
0.0
  0
LINE
  5
   32E
  8
0
  6
CONTINUOUS
 62
    52
 10
-634.666553679581
 20
-12.7160606384277
 30
0.0
 11
-648.416538420792
 21
-12.7160606384277
 31
0.0
  0
LINE
  5
   32F
  8
0
  6
CONTINUOUS
 62
     7
 10
-674.666523162003
 20
53.783920288084
 30
0.0
 11
-674.666523162003
 21
63.9089241027832
 31
0.0
  0
LINE
  5
   330
  8
0
  6
CONTINUOUS
 62
     7
 10
-622.166553679581
 20
53.783920288084
 30
0.0
 11
-622.166553679581
 21
63.9089241027832
 31
0.0
  0
LINE
  5
   331
  8
0
  6
DASHDOT
 62
     3
 10
-654.291529249291
 20
-12.5910521039597
 30
0.0
 11
-660.041516613794
 21
-12.5910521039597
 31
0.0
  0
LINE
  5
   332
  8
0
  6
DASHDOT
 62
     3
 10
-636.791326162537
 20
-12.5912732269715
 30
0.0
 11
-642.541683739816
 21
-12.5912732269715
 31
0.0
  0
LINE
  5
   333
  8
0
  6
CONTINUOUS
 62
     7
 10
-662.166530791398
 20
-12.7160606384277
 30
0.0
 11
-667.166523162003
 21
-12.7160606384277
 31
0.0
  0
LINE
  5
   334
  8
0
  6
CONTINUOUS
 62
     7
 10
-629.666538420792
 20
-12.7160606384277
 30
0.0
 11
-634.666538420792
 21
-12.7160606384277
 31
0.0
  0
LINE
  5
   335
  8
0
  6
CONTINUOUS
 62
     7
 10
-622.166523162003
 20
-12.4660606384277
 30
0.0
 11
-622.166523162003
 21
-3.46606826782227
 31
0.0
  0
LINE
  5
   336
  8
0
  6
CONTINUOUS
 62
     7
 10
-674.666523162003
 20
-12.4660606384277
 30
0.0
 11
-674.666523162003
 21
-3.46606826782227
 31
0.0
  0
LINE
  5
   337
  8
0
  6
CONTINUOUS
 62
     7
 10
-622.416523162003
 20
39.7839393615723
 30
0.0
 11
-674.416523161989
 21
39.7839393615723
 31
0.0
  0
LINE
  5
   338
  8
0
  6
CONTINUOUS
 62
     7
 10
-667.166523162003
 20
-12.7160606384277
 30
0.0
 11
-674.416523162003
 21
-12.7160606384277
 31
0.0
  0
LINE
  5
   339
  8
0
  6
CONTINUOUS
 62
     7
 10
-634.666538420792
 20
-12.7160606384277
 30
0.0
 11
-662.166530791398
 21
-12.7160606384277
 31
0.0
  0
LINE
  5
   33A
  8
0
  6
CONTINUOUS
 62
     7
 10
-622.416523162003
 20
-12.7160606384277
 30
0.0
 11
-629.666538420792
 21
-12.7160606384277
 31
0.0
  0
LINE
  5
   33B
  8
0
  6
CONTINUOUS
 62
     7
 10
-643.041523162003
 20
-1.59106826782227
 30
0.0
 11
-643.041523162003
 21
18.4089241027832
 31
0.0
  0
LINE
  5
   33C
  8
0
  6
CONTINUOUS
 62
     7
 10
-653.791523162003
 20
-1.59106826782227
 30
0.0
 11
-653.791523162003
 21
18.4089241027832
 31
0.0
  0
LINE
  5
   33D
  8
0
  6
CONTINUOUS
 62
     7
 10
-622.166523162003
 20
33.7839241027832
 30
0.0
 11
-674.666523162003
 21
33.7839241027832
 31
0.0
  0
LINE
  5
   33E
  8
0
  6
CONTINUOUS
 62
     7
 10
-622.166523162003
 20
38.7839241027832
 30
0.0
 11
-674.666523162003
 21
38.7839241027832
 31
0.0
  0
LINE
  5
   33F
  8
0
  6
CONTINUOUS
 62
     7
 10
-643.041523162003
 20
18.2766914367676
 30
0.0
 11
-653.791523162003
 21
18.2766914367676
 31
0.0
  0
LINE
  5
   340
  8
0
  6
CONTINUOUS
 62
     7
 10
-643.041523162003
 20
18.4089241027832
 30
0.0
 11
-653.791523162003
 21
18.4089241027832
 31
0.0
  0
LINE
  5
   341
  8
0
  6
CONTINUOUS
 62
     7
 10
-643.041523162003
 20
-1.59106826782227
 30
0.0
 11
-653.791523162003
 21
-1.59106826782227
 31
0.0
  0
LINE
  5
   342
  8
0
  6
CONTINUOUS
 62
     7
 10
-643.041523162003
 20
-1.45882034301759
 30
0.0
 11
-653.791523162003
 21
-1.45882034301759
 31
0.0
  0
LINE
  5
   343
  8
0
  6
CONTINUOUS
 62
     7
 10
-622.166530791397
 20
-2.96606826782227
 30
0.0
 11
-622.166530791397
 21
3.03392775555848
 31
0.0
  0
LINE
  5
   344
  8
0
  6
CONTINUOUS
 62
     7
 10
-622.166530791397
 20
20.2839317321777
 30
0.0
 11
-622.166530791397
 21
39.5339393615723
 31
0.0
  0
LINE
  5
   345
  8
0
  6
CONTINUOUS
 62
     7
 10
-622.166530791397
 20
3.53392775555851
 30
0.0
 11
-622.166530791397
 21
13.2839317321777
 31
0.0
  0
LINE
  5
   346
  8
0
  6
CONTINUOUS
 62
     7
 10
-622.166530791397
 20
13.7839317321777
 30
0.0
 11
-622.166530791397
 21
19.7839317321777
 31
0.0
  0
LINE
  5
   347
  8
0
  6
CONTINUOUS
 62
     7
 10
-674.666523162006
 20
-2.96606826782227
 30
0.0
 11
-674.666523162006
 21
3.03393173217882
 31
0.0
  0
LINE
  5
   348
  8
0
  6
CONTINUOUS
 62
     7
 10
-674.666523162015
 20
3.53393173217885
 30
0.0
 11
-674.666523162015
 21
13.2839317321777
 31
0.0
  0
LINE
  5
   349
  8
0
  6
CONTINUOUS
 62
     7
 10
-674.666523162
 20
13.7839317321777
 30
0.0
 11
-674.666523162
 21
19.7839317321777
 31
0.0
  0
LINE
  5
   34A
  8
0
  6
CONTINUOUS
 62
     7
 10
-674.666523161989
 20
20.2839317321777
 30
0.0
 11
-674.666523161989
 21
39.5339393615723
 31
0.0
  0
LINE
  5
   34B
  8
0
  6
CONTINUOUS
 62
     7
 10
-653.791527148865
 20
3.0339317321767
 30
0.0
 11
-674.166523191805
 21
3.0339317321767
 31
0.0
  0
LINE
  5
   34C
  8
0
  6
CONTINUOUS
 62
     7
 10
-622.166530791397
 20
3.03394699096577
 30
0.0
 11
-622.666530791398
 21
3.03394699096577
 31
0.0
  0
LINE
  5
   34D
  8
0
  6
CONTINUOUS
 62
     7
 10
-653.791536928409
 20
3.53393173217667
 30
0.0
 11
-674.166523191805
 21
3.53393173217667
 31
0.0
  0
LINE
  5
   34E
  8
0
  6
CONTINUOUS
 62
     7
 10
-622.166530791397
 20
3.53394699096573
 30
0.0
 11
-622.666530791398
 21
3.53394699096573
 31
0.0
  0
LINE
  5
   34F
  8
0
  6
CONTINUOUS
 62
     7
 10
-674.166523191805
 20
3.03393173217773
 30
0.0
 11
-674.166523191805
 21
3.53393173217773
 31
0.0
  0
LINE
  5
   350
  8
0
  6
CONTINUOUS
 62
     7
 10
-622.666530791398
 20
3.03393173217773
 30
0.0
 11
-622.666530791398
 21
3.53393173217773
 31
0.0
  0
LINE
  5
   351
  8
0
  6
CONTINUOUS
 62
     7
 10
-622.166523162003
 20
-3.46606826782227
 30
0.0
 11
-622.666530791398
 21
-3.46606826782227
 31
0.0
  0
LINE
  5
   352
  8
0
  6
CONTINUOUS
 62
     7
 10
-622.166530791397
 20
-2.96606826782227
 30
0.0
 11
-622.666530791398
 21
-2.96606826782227
 31
0.0
  0
LINE
  5
   353
  8
0
  6
CONTINUOUS
 62
     7
 10
-674.166523191805
 20
-3.46606826782227
 30
0.0
 11
-674.166523191805
 21
-2.96606826782227
 31
0.0
  0
LINE
  5
   354
  8
0
  6
CONTINUOUS
 62
     7
 10
-622.666530791398
 20
-3.46606826782227
 30
0.0
 11
-622.666530791398
 21
-2.96606826782227
 31
0.0
  0
LINE
  5
   355
  8
0
  6
CONTINUOUS
 62
     7
 10
-622.166530791397
 20
19.7839317321777
 30
0.0
 11
-622.666530791398
 21
19.7839317321777
 31
0.0
  0
LINE
  5
   356
  8
0
  6
CONTINUOUS
 62
     7
 10
-622.166530791397
 20
20.2839317321777
 30
0.0
 11
-622.666530791398
 21
20.2839317321777
 31
0.0
  0
LINE
  5
   357
  8
0
  6
CONTINUOUS
 62
     7
 10
-674.166523191805
 20
19.7839317321777
 30
0.0
 11
-674.166523191805
 21
20.2839317321777
 31
0.0
  0
LINE
  5
   358
  8
0
  6
CONTINUOUS
 62
     7
 10
-622.666530791398
 20
19.7839317321777
 30
0.0
 11
-622.666530791398
 21
20.2839317321777
 31
0.0
  0
LINE
  5
   359
  8
0
  6
CONTINUOUS
 62
     7
 10
-653.791527125712
 20
13.2839317321777
 30
0.0
 11
-674.166523191805
 21
13.2839317321777
 31
0.0
  0
LINE
  5
   35A
  8
0
  6
CONTINUOUS
 62
     7
 10
-622.166530791397
 20
13.2839317321777
 30
0.0
 11
-622.666530791398
 21
13.2839317321777
 31
0.0
  0
LINE
  5
   35B
  8
0
  6
CONTINUOUS
 62
     7
 10
-653.791523162003
 20
13.7839317321777
 30
0.0
 11
-674.166523191805
 21
13.7839317321777
 31
0.0
  0
LINE
  5
   35C
  8
0
  6
CONTINUOUS
 62
     7
 10
-622.166530791397
 20
13.7839317321777
 30
0.0
 11
-622.666530791398
 21
13.7839317321777
 31
0.0
  0
LINE
  5
   35D
  8
0
  6
CONTINUOUS
 62
     7
 10
-674.166523191805
 20
13.2839317321777
 30
0.0
 11
-674.166523191805
 21
13.7839317321777
 31
0.0
  0
LINE
  5
   35E
  8
0
  6
CONTINUOUS
 62
     7
 10
-622.666530791398
 20
13.2839317321777
 30
0.0
 11
-622.666530791398
 21
13.7839317321777
 31
0.0
  0
ARC
  5
   35F
  8
0
  6
CONTINUOUS
 62
     7
 10
-674.416523162003
 20
-12.4660606384277
 30
0.0
 40
0.25
 50
179.999999948034
 51
269.999999948034
  0
ARC
  5
   360
  8
0
  6
CONTINUOUS
 62
     7
 10
-622.416523162003
 20
-12.4660606384277
 30
0.0
 40
0.25
 50
269.999999948034
 51
359.999999948034
  0
ARC
  5
   361
  8
0
  6
CONTINUOUS
 62
     7
 10
-622.416523162003
 20
39.5339393615723
 30
0.0
 40
0.25
 50
359.999999948034
 51
449.999999948034
  0
ARC
  5
   362
  8
0
  6
CONTINUOUS
 62
     7
 10
-674.416523161989
 20
39.5339393615723
 30
0.0
 40
0.25
 50
449.999999948034
 51
539.999999948034
  0
INSERT
  5
   363
  8
255
  6
CONTINUOUS
 62
     7
  2
ON-OFF
 10
-638.416528044815
 20
16.7839317321777
 30
0.0
 41
0.5
 42
0.5
 50
359.999999792137
 43
0.5
  0
LINE
  5
   364
  8
0
  6
CONTINUOUS
 62
     7
 10
-659.666523162003
 20
19.0339317321777
 30
0.0
 11
-660.416523162003
 21
19.0339317321777
 31
0.0
  0
LINE
  5
   365
  8
0
  6
CONTINUOUS
 62
     7
 10
-659.666523162003
 20
14.5339317321777
 30
0.0
 11
-660.416523162003
 21
14.5339317321777
 31
0.0
  0
CIRCLE
  5
   366
  8
0
  6
CONTINUOUS
 62
     7
 10
-660.041523162003
 20
3.39317321777486E-2
 30
0.0
 40
2.25
  0
CIRCLE
  5
   367
  8
0
  6
CONTINUOUS
 62
     7
 10
-660.041523162003
 20
3.39317321777486E-2
 30
0.0
 40
1.5
  0
LINE
  5
   368
  8
0
  6
CONTINUOUS
 62
     7
 10
-660.416523162003
 20
14.5339317321777
 30
0.0
 11
-660.416523162003
 21
19.0339317321777
 31
0.0
  0
LINE
  5
   369
  8
0
  6
CONTINUOUS
 62
     7
 10
-659.666523162003
 20
14.5339317321777
 30
0.0
 11
-659.666523162003
 21
19.0339317321777
 31
0.0
  0
LINE
  5
   36A
  8
0
  6
CONTINUOUS
 62
     7
 10
-655.166523162003
 20
-2.96606826782227
 30
0.0
 11
-655.166523162003
 21
3.03393887676049
 31
0.0
  0
LINE
  5
   36B
  8
0
  6
CONTINUOUS
 62
     7
 10
-641.666523162003
 20
-2.96606826782227
 30
0.0
 11
-641.666523162003
 21
3.03393490013736
 31
0.0
  0
LINE
  5
   36C
  8
0
  6
CONTINUOUS
 62
     7
 10
-641.666523162003
 20
13.7839317321777
 30
0.0
 11
-641.666523162003
 21
19.7839317321777
 31
0.0
  0
LINE
  5
   36D
  8
0
  6
CONTINUOUS
 62
     7
 10
-655.166523162003
 20
13.7839317321777
 30
0.0
 11
-655.166523162003
 21
19.7839317321777
 31
0.0
  0
LINE
  5
   36E
  8
0
  6
CONTINUOUS
 62
     7
 10
-643.041523162003
 20
2.99857490989812
 30
0.0
 11
-653.791523162003
 21
2.99857490989812
 31
0.0
  0
LINE
  5
   36F
  8
0
  6
CONTINUOUS
 62
     7
 10
-643.041523162003
 20
-0.961901267149862
 30
0.0
 11
-653.791523162003
 21
-0.961901267149862
 31
0.0
  0
LINE
  5
   370
  8
0
  6
CONTINUOUS
 62
     7
 10
-643.041523162003
 20
2.99857455917104
 30
0.0
 11
-653.791523162003
 21
2.99857455917104
 31
0.0
  0
LINE
  5
   371
  8
0
  6
CONTINUOUS
 62
     7
 10
-643.041523162003
 20
5.47163514714288
 30
0.0
 11
-653.791523162003
 21
5.47163514714288
 31
0.0
  0
LINE
  5
   372
  8
0
  6
CONTINUOUS
 62
     7
 10
-673.916551716795
 20
53.783920288084
 30
0.0
 11
-673.916553746127
 21
61.4089241027832
 31
0.0
  0
LINE
  5
   373
  8
0
  6
CONTINUOUS
 62
     7
 10
-622.916551716793
 20
53.783920288084
 30
0.0
 11
-622.916553746126
 21
61.4089241027832
 31
0.0
  0
LINE
  5
   374
  8
0
  6
CONTINUOUS
 62
     7
 10
-674.166523191805
 20
20.2839317321777
 30
0.0
 11
-674.666523161989
 21
20.2839317321777
 31
0.0
  0
LINE
  5
   375
  8
0
  6
CONTINUOUS
 62
     7
 10
-674.166523191805
 20
19.7839317321777
 30
0.0
 11
-674.666523162
 21
19.7839317321777
 31
0.0
  0
LINE
  5
   376
  8
0
  6
CONTINUOUS
 62
     7
 10
-674.166523191805
 20
13.7839317321777
 30
0.0
 11
-674.666523162
 21
13.7839317321777
 31
0.0
  0
LINE
  5
   377
  8
0
  6
CONTINUOUS
 62
     7
 10
-674.166523191805
 20
13.2839317321777
 30
0.0
 11
-674.666523162015
 21
13.2839317321777
 31
0.0
  0
LINE
  5
   378
  8
0
  6
CONTINUOUS
 62
     7
 10
-674.166523191805
 20
3.53393173217667
 30
0.0
 11
-674.666523162015
 21
3.53393173217667
 31
0.0
  0
LINE
  5
   379
  8
0
  6
CONTINUOUS
 62
     7
 10
-674.166523191805
 20
3.0339317321767
 30
0.0
 11
-674.666523162006
 21
3.0339317321767
 31
0.0
  0
LINE
  5
   37A
  8
0
  6
CONTINUOUS
 62
     7
 10
-674.166523191805
 20
-2.96606826782227
 30
0.0
 11
-674.666523162006
 21
-2.96606826782227
 31
0.0
  0
LINE
  5
   37B
  8
0
  6
CONTINUOUS
 62
     7
 10
-674.166523191805
 20
-3.46606826782227
 30
0.0
 11
-674.666523162003
 21
-3.46606826782227
 31
0.0
  0
LINE
  5
   37C
  8
0
  6
CONTINUOUS
 62
     7
 10
-622.666530791398
 20
-2.96606826782227
 30
0.0
 11
-674.166523191805
 21
-2.96606826782227
 31
0.0
  0
LINE
  5
   37D
  8
0
  6
CONTINUOUS
 62
     7
 10
-622.666530791398
 20
-3.46606826782227
 30
0.0
 11
-674.166523191805
 21
-3.46606826782227
 31
0.0
  0
LINE
  5
   37E
  8
0
  6
CONTINUOUS
 62
     7
 10
-622.666530791398
 20
3.53394699096573
 30
0.0
 11
-643.041524654382
 21
3.53394699096573
 31
0.0
  0
LINE
  5
   37F
  8
0
  6
CONTINUOUS
 62
     7
 10
-622.666530791398
 20
3.03394699096577
 30
0.0
 11
-643.041524837577
 21
3.03394699096577
 31
0.0
  0
LINE
  5
   380
  8
0
  6
CONTINUOUS
 62
     7
 10
-622.666530791398
 20
13.7839317321777
 30
0.0
 11
-643.041523162003
 21
13.7839317321777
 31
0.0
  0
LINE
  5
   381
  8
0
  6
CONTINUOUS
 62
     7
 10
-622.666530791398
 20
13.2839317321777
 30
0.0
 11
-643.041523162003
 21
13.2839317321777
 31
0.0
  0
LINE
  5
   382
  8
0
  6
CONTINUOUS
 62
     7
 10
-622.666530791398
 20
20.2839317321777
 30
0.0
 11
-674.166523191805
 21
20.2839317321777
 31
0.0
  0
LINE
  5
   383
  8
0
  6
CONTINUOUS
 62
     7
 10
-622.666530791398
 20
19.7839317321777
 30
0.0
 11
-674.166523191805
 21
19.7839317321777
 31
0.0
  0
LINE
  5
   384
  8
0
  6
CONTINUOUS
 62
   130
 10
-670.916572570801
 20
77.4088783264158
 30
0.0
 11
-670.916572570801
 21
78.9089393615723
 31
0.0
  0
LINE
  5
   385
  8
0
  6
CONTINUOUS
 62
   130
 10
-670.291572570801
 20
78.9089393615723
 30
0.0
 11
-670.916572570801
 21
78.9089393615723
 31
0.0
  0
LINE
  5
   386
  8
0
  6
CONTINUOUS
 62
   130
 10
-670.291572570801
 20
78.9089393615723
 30
0.0
 11
-670.291572570801
 21
88.9089241027832
 31
0.0
  0
LINE
  5
   387
  8
0
  6
CONTINUOUS
 62
   130
 10
-661.541572570801
 20
88.9089241027832
 30
0.0
 11
-670.291572570801
 21
88.9089241027832
 31
0.0
  0
LINE
  5
   388
  8
0
  6
CONTINUOUS
 62
   130
 10
-661.541572570801
 20
78.9089393615723
 30
0.0
 11
-661.541572570801
 21
88.9089241027832
 31
0.0
  0
LINE
  5
   389
  8
0
  6
CONTINUOUS
 62
   130
 10
-660.916572570801
 20
78.9089393615723
 30
0.0
 11
-661.541572570801
 21
78.9089393615723
 31
0.0
  0
LINE
  5
   38A
  8
0
  6
CONTINUOUS
 62
   130
 10
-660.916572570801
 20
77.4088783264158
 30
0.0
 11
-660.916572570801
 21
78.9089393615723
 31
0.0
  0
LINE
  5
   38B
  8
0
  6
CONTINUOUS
 62
   130
 10
-653.416572570801
 20
77.4088783264158
 30
0.0
 11
-653.416572570801
 21
78.9089393615723
 31
0.0
  0
LINE
  5
   38C
  8
0
  6
CONTINUOUS
 62
   130
 10
-652.791572570801
 20
78.9089393615723
 30
0.0
 11
-653.416572570801
 21
78.9089393615723
 31
0.0
  0
LINE
  5
   38D
  8
0
  6
CONTINUOUS
 62
   130
 10
-652.791572570801
 20
78.9089393615723
 30
0.0
 11
-652.791572570801
 21
88.9089241027832
 31
0.0
  0
LINE
  5
   38E
  8
0
  6
CONTINUOUS
 62
   130
 10
-644.041572570801
 20
88.9089241027832
 30
0.0
 11
-652.791572570801
 21
88.9089241027832
 31
0.0
  0
LINE
  5
   38F
  8
0
  6
CONTINUOUS
 62
   130
 10
-644.041572570801
 20
78.9089393615723
 30
0.0
 11
-644.041572570801
 21
88.9089241027832
 31
0.0
  0
LINE
  5
   390
  8
0
  6
CONTINUOUS
 62
   130
 10
-643.416572570801
 20
78.9089393615723
 30
0.0
 11
-644.041572570801
 21
78.9089393615723
 31
0.0
  0
LINE
  5
   391
  8
0
  6
CONTINUOUS
 62
   130
 10
-643.416572570801
 20
77.4088783264158
 30
0.0
 11
-643.416572570801
 21
78.9089393615723
 31
0.0
  0
LINE
  5
   392
  8
0
  6
CONTINUOUS
 62
   130
 10
-635.916572570801
 20
77.4088783264158
 30
0.0
 11
-635.916572570801
 21
78.9089393615723
 31
0.0
  0
LINE
  5
   393
  8
0
  6
CONTINUOUS
 62
   130
 10
-635.291572570801
 20
78.9089393615723
 30
0.0
 11
-635.916572570801
 21
78.9089393615723
 31
0.0
  0
LINE
  5
   394
  8
0
  6
CONTINUOUS
 62
   130
 10
-635.291572570801
 20
78.9089393615723
 30
0.0
 11
-635.291572570801
 21
88.9089241027832
 31
0.0
  0
LINE
  5
   395
  8
0
  6
CONTINUOUS
 62
   130
 10
-626.541572570801
 20
88.9089241027832
 30
0.0
 11
-635.291572570801
 21
88.9089241027832
 31
0.0
  0
LINE
  5
   396
  8
0
  6
CONTINUOUS
 62
   130
 10
-626.541572570801
 20
78.9089393615723
 30
0.0
 11
-626.541572570801
 21
88.9089241027832
 31
0.0
  0
LINE
  5
   397
  8
0
  6
CONTINUOUS
 62
   130
 10
-625.916572570801
 20
78.9089393615723
 30
0.0
 11
-626.541572570801
 21
78.9089393615723
 31
0.0
  0
LINE
  5
   398
  8
0
  6
CONTINUOUS
 62
   130
 10
-625.916572570801
 20
77.4088783264158
 30
0.0
 11
-625.916572570801
 21
78.9089393615723
 31
0.0
  0
LINE
  5
   399
  8
0
  6
CONTINUOUS
 62
   130
 10
-670.916572570801
 20
-53.5910835266113
 30
0.0
 11
-670.916572570801
 21
-52.0910606384275
 31
0.0
  0
LINE
  5
   39A
  8
0
  6
CONTINUOUS
 62
   130
 10
-670.291572570801
 20
-53.5910835266113
 30
0.0
 11
-670.916572570801
 21
-53.5910835266113
 31
0.0
  0
LINE
  5
   39B
  8
0
  6
CONTINUOUS
 62
   130
 10
-670.291572570801
 20
-63.5910835266113
 30
0.0
 11
-670.291572570801
 21
-53.5910835266113
 31
0.0
  0
LINE
  5
   39C
  8
0
  6
CONTINUOUS
 62
   130
 10
-661.541572570801
 20
-63.5910835266113
 30
0.0
 11
-670.291572570801
 21
-63.5910835266113
 31
0.0
  0
LINE
  5
   39D
  8
0
  6
CONTINUOUS
 62
   130
 10
-661.541572570801
 20
-63.5910835266113
 30
0.0
 11
-661.541572570801
 21
-53.5910835266113
 31
0.0
  0
LINE
  5
   39E
  8
0
  6
CONTINUOUS
 62
   130
 10
-660.916572570801
 20
-53.5910835266113
 30
0.0
 11
-661.541572570801
 21
-53.5910835266113
 31
0.0
  0
LINE
  5
   39F
  8
0
  6
CONTINUOUS
 62
   130
 10
-660.916572570801
 20
-53.5910835266113
 30
0.0
 11
-660.916572570801
 21
-52.0910606384275
 31
0.0
  0
LINE
  5
   3A0
  8
0
  6
CONTINUOUS
 62
   130
 10
-653.416572570801
 20
-53.5910835266113
 30
0.0
 11
-653.416572570801
 21
-52.0910606384275
 31
0.0
  0
LINE
  5
   3A1
  8
0
  6
CONTINUOUS
 62
   130
 10
-652.791572570801
 20
-53.5910835266113
 30
0.0
 11
-653.416572570801
 21
-53.5910835266113
 31
0.0
  0
LINE
  5
   3A2
  8
0
  6
CONTINUOUS
 62
   130
 10
-652.791572570801
 20
-63.5910835266113
 30
0.0
 11
-652.791572570801
 21
-53.5910835266113
 31
0.0
  0
LINE
  5
   3A3
  8
0
  6
CONTINUOUS
 62
   130
 10
-644.041572570801
 20
-63.5910835266113
 30
0.0
 11
-652.791572570801
 21
-63.5910835266113
 31
0.0
  0
LINE
  5
   3A4
  8
0
  6
CONTINUOUS
 62
   130
 10
-644.041572570801
 20
-63.5910835266113
 30
0.0
 11
-644.041572570801
 21
-53.5910835266113
 31
0.0
  0
LINE
  5
   3A5
  8
0
  6
CONTINUOUS
 62
   130
 10
-643.416572570801
 20
-53.5910835266113
 30
0.0
 11
-644.041572570801
 21
-53.5910835266113
 31
0.0
  0
LINE
  5
   3A6
  8
0
  6
CONTINUOUS
 62
   130
 10
-643.416572570801
 20
-53.5910835266113
 30
0.0
 11
-643.416572570801
 21
-52.0910606384275
 31
0.0
  0
LINE
  5
   3A7
  8
0
  6
CONTINUOUS
 62
   130
 10
-635.916572570801
 20
-53.5910835266113
 30
0.0
 11
-635.916572570801
 21
-52.0910606384275
 31
0.0
  0
LINE
  5
   3A8
  8
0
  6
CONTINUOUS
 62
   130
 10
-635.291572570801
 20
-53.5910835266113
 30
0.0
 11
-635.916572570801
 21
-53.5910835266113
 31
0.0
  0
LINE
  5
   3A9
  8
0
  6
CONTINUOUS
 62
   130
 10
-635.291572570801
 20
-63.5910835266113
 30
0.0
 11
-635.291572570801
 21
-53.5910835266113
 31
0.0
  0
LINE
  5
   3AA
  8
0
  6
CONTINUOUS
 62
   130
 10
-626.541572570801
 20
-63.5910835266113
 30
0.0
 11
-635.291572570801
 21
-63.5910835266113
 31
0.0
  0
LINE
  5
   3AB
  8
0
  6
CONTINUOUS
 62
   130
 10
-626.541572570801
 20
-63.5910835266113
 30
0.0
 11
-626.541572570801
 21
-53.5910835266113
 31
0.0
  0
LINE
  5
   3AC
  8
0
  6
CONTINUOUS
 62
   130
 10
-625.916572570801
 20
-53.5910835266113
 30
0.0
 11
-626.541572570801
 21
-53.5910835266113
 31
0.0
  0
LINE
  5
   3AD
  8
0
  6
CONTINUOUS
 62
   130
 10
-625.916572570801
 20
-53.5910835266113
 30
0.0
 11
-625.916572570801
 21
-52.0910606384275
 31
0.0
  0
CIRCLE
  5
   3AE
  8
0
  6
CONTINUOUS
 62
   130
 10
-665.916908546485
 20
83.9092355391443
 30
0.0
 40
2.05043499574583
  0
CIRCLE
  5
   3AF
  8
0
  6
CONTINUOUS
 62
   130
 10
-648.417111765268
 20
83.9080897385667
 30
0.0
 40
2.04916094646529
  0
CIRCLE
  5
   3B0
  8
0
  6
CONTINUOUS
 62
   130
 10
-630.916535589131
 20
83.9089687878229
 30
0.0
 40
2.05000974588478
  0
CIRCLE
  5
   3B1
  8
0
  6
CONTINUOUS
 62
   130
 10
-665.916569996149
 20
-58.5910753336821
 30
0.0
 40
2.04998913694028
  0
CIRCLE
  5
   3B2
  8
0
  6
CONTINUOUS
 62
   130
 10
-648.416576736904
 20
-58.5910866021488
 30
0.0
 40
2.0500149268564
  0
CIRCLE
  5
   3B3
  8
0
  6
CONTINUOUS
 62
   130
 10
-630.916575664081
 20
-58.5910902242353
 30
0.0
 40
2.05002520020557
  0
LINE
  5
   3B4
  8
0
  6
DASHDOT
 62
     7
 10
-665.916569996149
 20
-61.6410644706224
 30
0.0
 11
-665.916569996149
 21
-55.5410861967418
 31
0.0
  0
LINE
  5
   3B5
  8
0
  6
DASHDOT
 62
     7
 10
-662.866580859209
 20
-58.5910753336821
 30
0.0
 11
-668.96655913309
 21
-58.5910753336821
 31
0.0
  0
LINE
  5
   3B6
  8
0
  6
DASHDOT
 62
     7
 10
-648.416576736904
 20
-61.6411015290053
 30
0.0
 11
-648.416576736904
 21
-55.5410716752924
 31
0.0
  0
LINE
  5
   3B7
  8
0
  6
DASHDOT
 62
     7
 10
-645.366561810048
 20
-58.5910866021488
 30
0.0
 11
-651.466591663761
 21
-58.5910866021488
 31
0.0
  0
LINE
  5
   3B8
  8
0
  6
DASHDOT
 62
     7
 10
-630.916575664081
 20
-61.6411154244409
 30
0.0
 11
-630.916575664081
 21
-55.5410650240298
 31
0.0
  0
LINE
  5
   3B9
  8
0
  6
DASHDOT
 62
     7
 10
-627.866550463875
 20
-58.5910902242353
 30
0.0
 11
-633.966600864287
 21
-58.5910902242353
 31
0.0
  0
LINE
  5
   3BA
  8
0
  6
DASHDOT
 62
     7
 10
-665.916908546485
 20
80.8588005433984
 30
0.0
 11
-665.916908546485
 21
86.95967053489
 31
0.0
  0
LINE
  5
   3BB
  8
0
  6
DASHDOT
 62
     7
 10
-662.866473550739
 20
83.9092355391443
 30
0.0
 11
-668.96734354223
 21
83.9092355391443
 31
0.0
  0
LINE
  5
   3BC
  8
0
  6
DASHDOT
 62
     7
 10
-648.417111765268
 20
80.8589287921014
 30
0.0
 11
-648.417111765268
 21
86.9572506850319
 31
0.0
  0
LINE
  5
   3BD
  8
0
  6
DASHDOT
 62
     7
 10
-645.367950818802
 20
83.9080897385667
 30
0.0
 11
-651.466272711733
 21
83.9080897385667
 31
0.0
  0
LINE
  5
   3BE
  8
0
  6
DASHDOT
 62
     7
 10
-630.916535589131
 20
80.858959041938
 30
0.0
 11
-630.916535589131
 21
86.9589785337076
 31
0.0
  0
LINE
  5
   3BF
  8
0
  6
DASHDOT
 62
     7
 10
-627.866525843246
 20
83.9089687878229
 30
0.0
 11
-633.966545335016
 21
83.9089687878229
 31
0.0
  0
LINE
  5
   3C0
  8
0
  6
CONTINUOUS
 62
     7
 10
-622.916553746126
 20
61.4089241027832
 30
0.0
 11
-673.916553746127
 21
61.4089241027832
 31
0.0
  0
LINE
  5
   3C1
  8
0
  6
CONTINUOUS
 62
     7
 10
-674.666571375457
 20
-38.0910966398519
 30
0.0
 11
-674.666539582541
 21
-26.7160778045674
 31
0.0
  0
LINE
  5
   3C2
  8
0
  6
CONTINUOUS
 62
     7
 10
-622.16657626388
 20
-38.091068267822
 30
0.0
 11
-622.166561371354
 21
-26.7160778045674
 31
0.0
  0
LINE
  5
   3C3
  8
0
  6
DASHDOT
 62
   130
 10
-648.416576736904
 20
-54.1768575473529
 30
0.0
 11
-648.416576736904
 21
79.4946752353413
 31
0.0
  0
LINE
  5
   3C4
  8
0
  6
CONTINUOUS
 62
     7
 10
-622.66657626388
 20
62.9088879300271
 30
0.0
 11
-674.166568634486
 21
62.9088879300271
 31
0.0
  0
LINE
  5
   3C5
  8
0
  6
CONTINUOUS
 62
     3
 10
-622.79157626388
 20
77.4088783264158
 30
0.0
 11
-674.041568634486
 21
77.4088783264158
 31
0.0
  0
LINE
  5
   3C6
  8
0
  6
CONTINUOUS
 62
     3
 10
-622.166576263881
 20
63.4088859558104
 30
0.0
 11
-622.166576263881
 21
76.7838734543586
 31
0.0
  0
LINE
  5
   3C7
  8
0
  6
CONTINUOUS
 62
     3
 10
-674.666571488487
 20
63.4088892936711
 30
0.0
 11
-674.666571488487
 21
76.783889091486
 31
0.0
  0
LINE
  5
   3C8
  8
0
  6
CONTINUOUS
 62
     3
 10
-672.841570732569
 20
63.4088897705076
 30
0.0
 11
-672.841570732569
 21
77.4088783264158
 31
0.0
  0
LINE
  5
   3C9
  8
0
  6
CONTINUOUS
 62
     3
 10
-671.041570541835
 20
63.4088892936705
 30
0.0
 11
-671.041570541835
 21
77.4088783264158
 31
0.0
  0
LINE
  5
   3CA
  8
0
  6
CONTINUOUS
 62
     3
 10
-669.241570827937
 20
63.4088892936705
 30
0.0
 11
-669.241570827937
 21
77.4088783264158
 31
0.0
  0
LINE
  5
   3CB
  8
0
  6
CONTINUOUS
 62
     3
 10
-667.441570637202
 20
63.4088892936705
 30
0.0
 11
-667.441570637202
 21
77.4088783264158
 31
0.0
  0
LINE
  5
   3CC
  8
0
  6
CONTINUOUS
 62
     3
 10
-665.641574738002
 20
63.4088888168333
 30
0.0
 11
-665.641574738002
 21
77.4088783264158
 31
0.0
  0
LINE
  5
   3CD
  8
0
  6
CONTINUOUS
 62
     3
 10
-663.841571686244
 20
63.4088888168333
 30
0.0
 11
-663.841571686244
 21
77.4088783264158
 31
0.0
  0
LINE
  5
   3CE
  8
0
  6
CONTINUOUS
 62
     3
 10
-662.041576263881
 20
63.4088888168333
 30
0.0
 11
-662.041576263881
 21
77.4088783264158
 31
0.0
  0
LINE
  5
   3CF
  8
0
  6
CONTINUOUS
 62
     3
 10
-660.241573212123
 20
63.4088888168333
 30
0.0
 11
-660.241573212123
 21
77.4088783264158
 31
0.0
  0
LINE
  5
   3D0
  8
0
  6
CONTINUOUS
 62
     3
 10
-658.441577789759
 20
63.4088883399962
 30
0.0
 11
-658.441577789759
 21
77.4088783264158
 31
0.0
  0
LINE
  5
   3D1
  8
0
  6
CONTINUOUS
 62
     3
 10
-656.641574738002
 20
63.4088883399962
 30
0.0
 11
-656.641574738002
 21
77.4088783264158
 31
0.0
  0
LINE
  5
   3D2
  8
0
  6
CONTINUOUS
 62
     3
 10
-654.841571686244
 20
63.4088883399962
 30
0.0
 11
-654.841571686244
 21
77.4088783264158
 31
0.0
  0
LINE
  5
   3D3
  8
0
  6
CONTINUOUS
 62
     3
 10
-653.041576263881
 20
63.408887863159
 30
0.0
 11
-653.041576263881
 21
77.4088783264158
 31
0.0
  0
LINE
  5
   3D4
  8
0
  6
CONTINUOUS
 62
     3
 10
-651.241573212123
 20
63.408887863159
 30
0.0
 11
-651.241573212123
 21
77.4088783264158
 31
0.0
  0
LINE
  5
   3D5
  8
0
  6
CONTINUOUS
 62
     3
 10
-649.44157778976
 20
63.408887863159
 30
0.0
 11
-649.44157778976
 21
77.4088783264158
 31
0.0
  0
LINE
  5
   3D6
  8
0
  6
CONTINUOUS
 62
     3
 10
-647.641574738002
 20
63.408887863159
 30
0.0
 11
-647.641574738002
 21
77.4088783264158
 31
0.0
  0
LINE
  5
   3D7
  8
0
  6
CONTINUOUS
 62
     3
 10
-645.841571686244
 20
63.4088873863218
 30
0.0
 11
-645.841571686244
 21
77.4088783264158
 31
0.0
  0
LINE
  5
   3D8
  8
0
  6
CONTINUOUS
 62
     3
 10
-644.041576263881
 20
63.4088873863218
 30
0.0
 11
-644.041576263881
 21
77.4088783264158
 31
0.0
  0
LINE
  5
   3D9
  8
0
  6
CONTINUOUS
 62
     3
 10
-642.241573212123
 20
63.4088873863218
 30
0.0
 11
-642.241573212123
 21
77.4088783264158
 31
0.0
  0
LINE
  5
   3DA
  8
0
  6
CONTINUOUS
 62
     3
 10
-640.441577789759
 20
63.4088869094847
 30
0.0
 11
-640.441577789759
 21
77.4088783264158
 31
0.0
  0
LINE
  5
   3DB
  8
0
  6
CONTINUOUS
 62
     3
 10
-638.641574738002
 20
63.4088869094847
 30
0.0
 11
-638.641574738002
 21
77.4088783264158
 31
0.0
  0
LINE
  5
   3DC
  8
0
  6
CONTINUOUS
 62
     3
 10
-636.841571686244
 20
63.4088869094847
 30
0.0
 11
-636.841571686244
 21
77.4088783264158
 31
0.0
  0
LINE
  5
   3DD
  8
0
  6
CONTINUOUS
 62
     3
 10
-635.041576263881
 20
63.4088869094847
 30
0.0
 11
-635.041576263881
 21
77.4088783264158
 31
0.0
  0
LINE
  5
   3DE
  8
0
  6
CONTINUOUS
 62
     3
 10
-633.241573212123
 20
63.4088864326475
 30
0.0
 11
-633.241573212123
 21
77.4088783264158
 31
0.0
  0
LINE
  5
   3DF
  8
0
  6
CONTINUOUS
 62
     3
 10
-631.441577789759
 20
63.4088864326475
 30
0.0
 11
-631.441577789759
 21
77.4088783264158
 31
0.0
  0
LINE
  5
   3E0
  8
0
  6
CONTINUOUS
 62
     3
 10
-629.641574738002
 20
63.4088864326475
 30
0.0
 11
-629.641574738002
 21
77.4088783264158
 31
0.0
  0
LINE
  5
   3E1
  8
0
  6
CONTINUOUS
 62
     3
 10
-627.841571686244
 20
63.4088859558104
 30
0.0
 11
-627.841571686244
 21
77.4088783264158
 31
0.0
  0
LINE
  5
   3E2
  8
0
  6
CONTINUOUS
 62
     3
 10
-626.041576263881
 20
63.4088859558104
 30
0.0
 11
-626.041576263881
 21
77.4088783264158
 31
0.0
  0
LINE
  5
   3E3
  8
0
  6
CONTINUOUS
 62
     3
 10
-624.241573212123
 20
63.4088859558104
 30
0.0
 11
-624.241573212123
 21
77.4088783264158
 31
0.0
  0
LINE
  5
   3E4
  8
0
  6
CONTINUOUS
 62
     7
 10
-674.166575787044
 20
62.9088898845874
 30
0.0
 11
-674.166575787044
 21
63.4088897951804
 31
0.0
  0
LINE
  5
   3E5
  8
0
  6
CONTINUOUS
 62
     3
 10
-674.166575816002
 20
63.4089143278402
 30
0.0
 11
-674.666571375457
 21
63.4089143278402
 31
0.0
  0
LINE
  5
   3E6
  8
0
  6
CONTINUOUS
 62
     3
 10
-622.218356510615
 20
63.408887842901
 30
0.0
 11
-674.166575809931
 21
63.408887842901
 31
0.0
  0
LINE
  5
   3E7
  8
0
  6
CONTINUOUS
 62
     7
 10
-622.666576263881
 20
62.9088859754692
 30
0.0
 11
-622.666576263881
 21
63.4088859754692
 31
0.0
  0
LINE
  5
   3E8
  8
0
  6
CONTINUOUS
 62
     3
 10
-622.16657626388
 20
63.4088859558103
 30
0.0
 11
-622.349635956263
 21
63.4088859558103
 31
0.0
  0
ARC
  5
   3E9
  8
0
  6
CONTINUOUS
 62
     3
 10
-622.791584560908
 20
76.7838734543586
 30
0.0
 40
0.624999378846369
 50
360.000027285161
 51
450.00046185832
  0
ARC
  5
   3EA
  8
0
  6
CONTINUOUS
 62
     3
 10
-674.041585474632
 20
76.783889091486
 30
0.0
 40
0.624983634017216
 50
449.998225807986
 51
540.001187191324
  0
LINE
  5
   3EB
  8
0
  6
CONTINUOUS
 62
     7
 10
-622.66657626388
 20
-37.5910702420388
 30
0.0
 11
-674.166568634486
 21
-37.5910702420388
 31
0.0
  0
LINE
  5
   3EC
  8
0
  6
CONTINUOUS
 62
     3
 10
-622.79157626388
 20
-52.0910606384275
 30
0.0
 11
-674.041568634486
 21
-52.0910606384275
 31
0.0
  0
LINE
  5
   3ED
  8
0
  6
CONTINUOUS
 62
     3
 10
-622.16657626388
 20
-51.4660557663703
 30
0.0
 11
-622.16657626388
 21
-38.091068267822
 31
0.0
  0
LINE
  5
   3EE
  8
0
  6
CONTINUOUS
 62
     3
 10
-674.666571488487
 20
-51.4660714034977
 30
0.0
 11
-674.666571488487
 21
-38.0910716056828
 31
0.0
  0
LINE
  5
   3EF
  8
0
  6
CONTINUOUS
 62
     3
 10
-672.841570732569
 20
-52.0910606384275
 30
0.0
 11
-672.841570732569
 21
-38.0910720825193
 31
0.0
  0
LINE
  5
   3F0
  8
0
  6
CONTINUOUS
 62
     3
 10
-671.041570541835
 20
-52.0910606384275
 30
0.0
 11
-671.041570541835
 21
-38.0910716056821
 31
0.0
  0
LINE
  5
   3F1
  8
0
  6
CONTINUOUS
 62
     3
 10
-669.241570827937
 20
-52.0910606384275
 30
0.0
 11
-669.241570827937
 21
-38.0910716056821
 31
0.0
  0
LINE
  5
   3F2
  8
0
  6
CONTINUOUS
 62
     3
 10
-667.441570637202
 20
-52.0910606384275
 30
0.0
 11
-667.441570637202
 21
-38.0910716056821
 31
0.0
  0
LINE
  5
   3F3
  8
0
  6
CONTINUOUS
 62
     3
 10
-665.641574738002
 20
-52.0910606384275
 30
0.0
 11
-665.641574738002
 21
-38.091071128845
 31
0.0
  0
LINE
  5
   3F4
  8
0
  6
CONTINUOUS
 62
     3
 10
-663.841571686244
 20
-52.0910606384275
 30
0.0
 11
-663.841571686244
 21
-38.091071128845
 31
0.0
  0
LINE
  5
   3F5
  8
0
  6
CONTINUOUS
 62
     3
 10
-662.04157626388
 20
-52.0910606384275
 30
0.0
 11
-662.04157626388
 21
-38.091071128845
 31
0.0
  0
LINE
  5
   3F6
  8
0
  6
CONTINUOUS
 62
     3
 10
-660.241573212123
 20
-52.0910606384275
 30
0.0
 11
-660.241573212123
 21
-38.091071128845
 31
0.0
  0
LINE
  5
   3F7
  8
0
  6
CONTINUOUS
 62
     3
 10
-658.441577789759
 20
-52.0910606384275
 30
0.0
 11
-658.441577789759
 21
-38.0910706520078
 31
0.0
  0
LINE
  5
   3F8
  8
0
  6
CONTINUOUS
 62
     3
 10
-656.641574738002
 20
-52.0910606384275
 30
0.0
 11
-656.641574738002
 21
-38.0910706520078
 31
0.0
  0
LINE
  5
   3F9
  8
0
  6
CONTINUOUS
 62
     3
 10
-654.841571686244
 20
-52.0910606384275
 30
0.0
 11
-654.841571686244
 21
-38.0910706520078
 31
0.0
  0
LINE
  5
   3FA
  8
0
  6
CONTINUOUS
 62
     3
 10
-653.041576263881
 20
-52.0910606384275
 30
0.0
 11
-653.041576263881
 21
-38.0910701751707
 31
0.0
  0
LINE
  5
   3FB
  8
0
  6
CONTINUOUS
 62
     3
 10
-651.241573212123
 20
-52.0910606384275
 30
0.0
 11
-651.241573212123
 21
-38.0910701751707
 31
0.0
  0
LINE
  5
   3FC
  8
0
  6
CONTINUOUS
 62
     3
 10
-649.441577789759
 20
-52.0910606384275
 30
0.0
 11
-649.441577789759
 21
-38.0910701751707
 31
0.0
  0
LINE
  5
   3FD
  8
0
  6
CONTINUOUS
 62
     3
 10
-647.641574738002
 20
-52.0910606384275
 30
0.0
 11
-647.641574738002
 21
-38.0910701751707
 31
0.0
  0
LINE
  5
   3FE
  8
0
  6
CONTINUOUS
 62
     3
 10
-645.841571686244
 20
-52.0910606384275
 30
0.0
 11
-645.841571686244
 21
-38.0910696983335
 31
0.0
  0
LINE
  5
   3FF
  8
0
  6
CONTINUOUS
 62
     3
 10
-644.04157626388
 20
-52.0910606384275
 30
0.0
 11
-644.04157626388
 21
-38.0910696983335
 31
0.0
  0
LINE
  5
   400
  8
0
  6
CONTINUOUS
 62
     3
 10
-642.241573212123
 20
-52.0910606384275
 30
0.0
 11
-642.241573212123
 21
-38.0910696983335
 31
0.0
  0
LINE
  5
   401
  8
0
  6
CONTINUOUS
 62
     3
 10
-640.441577789759
 20
-52.0910606384275
 30
0.0
 11
-640.441577789759
 21
-38.0910692214963
 31
0.0
  0
LINE
  5
   402
  8
0
  6
CONTINUOUS
 62
     3
 10
-638.641574738002
 20
-52.0910606384275
 30
0.0
 11
-638.641574738002
 21
-38.0910692214963
 31
0.0
  0
LINE
  5
   403
  8
0
  6
CONTINUOUS
 62
     3
 10
-636.841571686244
 20
-52.0910606384275
 30
0.0
 11
-636.841571686244
 21
-38.0910692214963
 31
0.0
  0
LINE
  5
   404
  8
0
  6
CONTINUOUS
 62
     3
 10
-635.04157626388
 20
-52.0910606384275
 30
0.0
 11
-635.04157626388
 21
-38.0910692214963
 31
0.0
  0
LINE
  5
   405
  8
0
  6
CONTINUOUS
 62
     3
 10
-633.241573212123
 20
-52.0910606384275
 30
0.0
 11
-633.241573212123
 21
-38.0910687446592
 31
0.0
  0
LINE
  5
   406
  8
0
  6
CONTINUOUS
 62
     3
 10
-631.441577789759
 20
-52.0910606384275
 30
0.0
 11
-631.441577789759
 21
-38.0910687446592
 31
0.0
  0
LINE
  5
   407
  8
0
  6
CONTINUOUS
 62
     3
 10
-629.641574738002
 20
-52.0910606384275
 30
0.0
 11
-629.641574738002
 21
-38.0910687446592
 31
0.0
  0
LINE
  5
   408
  8
0
  6
CONTINUOUS
 62
     3
 10
-627.841571686244
 20
-52.0910606384275
 30
0.0
 11
-627.841571686244
 21
-38.091068267822
 31
0.0
  0
LINE
  5
   409
  8
0
  6
CONTINUOUS
 62
     3
 10
-626.04157626388
 20
-52.0910606384275
 30
0.0
 11
-626.04157626388
 21
-38.091068267822
 31
0.0
  0
LINE
  5
   40A
  8
0
  6
CONTINUOUS
 62
     3
 10
-624.241573212123
 20
-52.0910606384275
 30
0.0
 11
-624.241573212123
 21
-38.091068267822
 31
0.0
  0
LINE
  5
   40B
  8
0
  6
CONTINUOUS
 62
     7
 10
-674.166575787043
 20
-38.0910721071921
 30
0.0
 11
-674.166575787043
 21
-37.591072196599
 31
0.0
  0
LINE
  5
   40C
  8
0
  6
CONTINUOUS
 62
     3
 10
-674.166575816002
 20
-38.0910966398519
 30
0.0
 11
-674.666571375457
 21
-38.0910966398519
 31
0.0
  0
LINE
  5
   40D
  8
0
  6
CONTINUOUS
 62
     3
 10
-622.218356510615
 20
-38.0910701549127
 30
0.0
 11
-674.166575809931
 21
-38.0910701549127
 31
0.0
  0
LINE
  5
   40E
  8
0
  6
CONTINUOUS
 62
     7
 10
-622.666576263881
 20
-38.0910682874809
 30
0.0
 11
-622.666576263881
 21
-37.5910682874809
 31
0.0
  0
LINE
  5
   40F
  8
0
  6
CONTINUOUS
 62
     3
 10
-622.16657626388
 20
-38.091068267822
 30
0.0
 11
-622.349635956263
 21
-38.091068267822
 31
0.0
  0
ARC
  5
   410
  8
0
  6
CONTINUOUS
 62
     3
 10
-622.791584560908
 20
-51.4660557663703
 30
0.0
 40
0.624999378846369
 50
269.999538037749
 51
359.999972610908
  0
ARC
  5
   411
  8
0
  6
CONTINUOUS
 62
     3
 10
-674.041585474632
 20
-51.4660714034977
 30
0.0
 40
0.624983634017216
 50
179.998812704745
 51
270.001774088083
  0
LINE
  5
   412
  8
0
  6
DASHDOT
 62
   130
 10
-617.951234176623
 20
13.5339393615723
 30
0.0
 11
-683.704710976468
 21
13.5339393615723
 31
0.0
  0
CIRCLE
  5
   413
  8
0
  6
CONTINUOUS
 62
     7
 10
-620.655009391148
 20
50.4162488913999
 30
0.0
 40
0.1
  0
INSERT
  5
   414
  8
0
  6
CONTINUOUS
 62
     7
  2
*UDIM2222
 10
0.0
 20
0.0
 30
0.0
  0
INSERT
  5
   415
  8
0
  6
CONTINUOUS
 62
     7
  2
*UDIM2223
 10
0.0
 20
0.0
 30
0.0
  0
INSERT
  5
   416
  8
0
  6
CONTINUOUS
 62
     7
  2
*UDIM2224
 10
0.0
 20
0.0
 30
0.0
  0
INSERT
  5
   417
  8
0
  6
CONTINUOUS
 62
     7
  2
*UDIM2225
 10
0.0
 20
0.0
 30
0.0
  0
INSERT
  5
   418
  8
0
  6
CONTINUOUS
 62
     7
  2
*UDIM2226
 10
0.0
 20
0.0
 30
0.0
  0
INSERT
  5
   419
  8
0
  6
CONTINUOUS
 62
     7
  2
*UDIM2227
 10
0.0
 20
0.0
 30
0.0
  0
INSERT
  5
   41A
  8
0
  6
CONTINUOUS
 62
     7
  2
*UDIM2228
 10
0.0
 20
0.0
 30
0.0
  0
INSERT
  5
   41B
  8
0
  6
CONTINUOUS
 62
     7
  2
*UDIM2229
 10
0.0
 20
0.0
 30
0.0
  0
INSERT
  5
   41C
  8
0
  6
CONTINUOUS
 62
     7
  2
*UDIM2230
 10
0.0
 20
0.0
 30
0.0
  0
INSERT
  5
   41D
  8
0
  6
CONTINUOUS
 62
     7
  2
*UDIM2231
 10
0.0
 20
0.0
 30
0.0
  0
INSERT
  5
   41E
  8
0
  6
CONTINUOUS
 62
     7
  2
*UDIM2232
 10
0.0
 20
0.0
 30
0.0
  0
INSERT
  5
   41F
  8
0
  6
CONTINUOUS
 62
     7
  2
*UDIM2233
 10
0.0
 20
0.0
 30
0.0
  0
TEXT
  5
   420
  8
0
  6
CONTINUOUS
 62
     7
 10
-601.7083510472
 20
11.6924364633338
 30
0.0
 40
3.00000002980232
  1
X
 50
359.999999948034
 41
0.916666604744064
 72
     1
 11
-600.608351111412
 21
13.1924364772428
 31
0.0
 73
     2
  0
TEXT
  5
   421
  8
0
  6
CONTINUOUS
 62
     7
 10
-720.128753574055
 20
11.7079050607459
 30
0.0
 40
3.00000002980232
  1
X
 50
359.999999948034
 41
0.916666604744064
 72
     1
 11
-719.028753638267
 21
13.2079050746549
 31
0.0
 73
     2
  0
TEXT
  5
   422
  8
0
  6
CONTINUOUS
 62
     7
 10
-649.358875186604
 20
109.524601227738
 30
0.0
 40
3.00000002980232
  1
Y
 50
359.999999948034
 41
0.916666604744064
 72
     1
 11
-648.258875250816
 21
111.024601241647
 31
0.0
 73
     2
  0
INSERT
  5
   423
  8
0
  6
CONTINUOUS
 62
     7
  2
*UDIM2234
 10
0.0
 20
0.0
 30
0.0
  0
INSERT
  5
   424
  8
255
  6
CONTINUOUS
 62
     7
  2
MOSTRINA
 10
-705.835696530179
 20
-41.4563903808613
 30
0.0
 41
0.5
 42
0.5
 50
3.50835464724173E-15
 43
0.5
  0
LINE
  5
   425
  8
0
  6
CONTINUOUS
 62
     7
 10
-418.345916748047
 20
27.7306518554688
 30
0.0
 11
-390.345916748047
 21
27.7306518554688
 31
0.0
  0
LINE
  5
   426
  8
0
  6
CONTINUOUS
 62
     7
 10
-418.345916748047
 20
55.7306518554688
 30
0.0
 11
-390.345916748047
 21
55.7306518554688
 31
0.0
  0
LINE
  5
   427
  8
0
  6
CONTINUOUS
 62
     7
 10
-418.345916748047
 20
55.7306518554688
 30
0.0
 11
-418.345916748047
 21
27.7306518554688
 31
0.0
  0
LINE
  5
   428
  8
0
  6
CONTINUOUS
 62
     7
 10
-390.345916748047
 20
55.7306518554688
 30
0.0
 11
-390.345916748047
 21
27.7306518554688
 31
0.0
  0
CIRCLE
  5
   429
  8
0
  6
CONTINUOUS
 62
     7
 10
-414.345916748047
 20
59.4806518554688
 30
0.0
 40
0.875
  0
CIRCLE
  5
   42A
  8
0
  6
CONTINUOUS
 62
     7
 10
-394.345916748047
 20
59.4806518554688
 30
0.0
 40
0.875
  0
CIRCLE
  5
   42B
  8
0
  6
CONTINUOUS
 62
     7
 10
-414.345916748047
 20
23.9806518554688
 30
0.0
 40
0.875
  0
CIRCLE
  5
   42C
  8
0
  6
CONTINUOUS
 62
     7
 10
-394.345916748047
 20
23.9806518554688
 30
0.0
 40
0.875
  0
LINE
  5
   42D
  8
0
  6
DASHDOT
 62
     7
 10
-414.345916748047
 20
61.1056518554688
 30
0.0
 11
-414.345916748047
 21
57.8556518554688
 31
0.0
  0
LINE
  5
   42E
  8
0
  6
DASHDOT
 62
     7
 10
-415.970916748047
 20
59.4806518554688
 30
0.0
 11
-412.720916748047
 21
59.4806518554688
 31
0.0
  0
LINE
  5
   42F
  8
0
  6
DASHDOT
 62
     7
 10
-394.345916748047
 20
61.1056518554688
 30
0.0
 11
-394.345916748047
 21
57.8556518554688
 31
0.0
  0
LINE
  5
   430
  8
0
  6
DASHDOT
 62
     7
 10
-395.970916748047
 20
59.4806518554688
 30
0.0
 11
-392.720916748047
 21
59.4806518554688
 31
0.0
  0
LINE
  5
   431
  8
0
  6
DASHDOT
 62
     7
 10
-394.345916748047
 20
25.6056518554688
 30
0.0
 11
-394.345916748047
 21
22.3556518554688
 31
0.0
  0
LINE
  5
   432
  8
0
  6
DASHDOT
 62
     7
 10
-395.970916748047
 20
23.9806518554688
 30
0.0
 11
-392.720916748047
 21
23.9806518554688
 31
0.0
  0
LINE
  5
   433
  8
0
  6
DASHDOT
 62
     7
 10
-414.345916748047
 20
25.6056518554688
 30
0.0
 11
-414.345916748047
 21
22.3556518554688
 31
0.0
  0
LINE
  5
   434
  8
0
  6
DASHDOT
 62
     7
 10
-415.970916748047
 20
23.9806518554688
 30
0.0
 11
-412.720916748047
 21
23.9806518554688
 31
0.0
  0
LINE
  5
   435
  8
0
  6
DASHDOT
 62
     7
 10
-404.345916748047
 20
69.1007641408058
 30
0.0
 11
-404.345916748047
 21
12.6074010106477
 31
0.0
  0
LINE
  5
   436
  8
0
  6
CONTINUOUS
 62
     7
 10
-421.166493291713
 20
62.1318375106748
 30
0.0
 11
-387.211933068405
 21
62.1318375106748
 31
0.0
  0
LINE
  5
   437
  8
0
  6
CONTINUOUS
 62
     7
 10
-421.166493291713
 20
20.5667724097295
 30
0.0
 11
-387.211933068405
 21
20.5667724097295
 31
0.0
  0
LINE
  5
   438
  8
0
  6
CONTINUOUS
 62
     7
 10
-387.211933068405
 20
62.1318375106748
 30
0.0
 11
-387.211933068405
 21
20.5667724097295
 31
0.0
  0
LINE
  5
   439
  8
0
  6
CONTINUOUS
 62
     7
 10
-421.166493291713
 20
62.1318375106748
 30
0.0
 11
-421.166493291713
 21
20.5667724097295
 31
0.0
  0
CIRCLE
  5
   43A
  8
0
  6
CONTINUOUS
 62
     7
 10
-419.29313824491
 20
60.3170248090842
 30
0.0
 40
0.0625
  0
LINE
  5
   43B
  8
0
  6
DASHDOT
 62
     7
 10
-428.076569091638
 20
41.7306518554688
 30
0.0
 11
-382.01967179087
 21
41.7306518554688
 31
0.0
  0
TEXT
  5
   43C
  8
0
  6
CONTINUOUS
 62
     7
 10
-436.079899725096
 20
31.8136161018462
 30
0.0
 40
3.00000002980232
  1
=     =
 50
449.999999844103
 41
0.916666604744064
 72
     2
 11
-436.079899674332
 21
50.5136150200219
 31
0.0
  0
TEXT
  5
   43D
  8
0
  6
CONTINUOUS
 62
     7
 10
-426.566508230345
 20
31.3605979133696
 30
0.0
 40
3.00000002980232
  1
=     =
 50
449.999999844103
 41
0.916666604744064
 72
     2
 11
-426.566508179581
 21
50.0605968315453
 31
0.0
  0
INSERT
  5
   43E
  8
0
  6
CONTINUOUS
 62
     7
  2
*UDIM2235
 10
0.0
 20
0.0
 30
0.0
  0
TEXT
  5
   43F
  8
0
  6
CONTINUOUS
 62
     7
 10
-411.246458741131
 20
74.9549977217458
 30
0.0
 40
3.00000002980232
  1
=   =
 50
359.999999844103
 41
0.916666604744064
 72
     2
 11
-398.046459506058
 21
74.9549976858961
 31
0.0
  0
TEXT
  5
   440
  8
0
  6
CONTINUOUS
 62
     7
 10
-411.305000992718
 20
68.3982560072683
 30
0.0
 40
3.00000002980232
  1
=   =
 50
359.999999844103
 41
0.916666604744064
 72
     2
 11
-398.105001757644
 21
68.3982559714186
 31
0.0
  0
INSERT
  5
   441
  8
0
  6
CONTINUOUS
 62
     7
  2
*UDIM2236
 10
0.0
 20
0.0
 30
0.0
  0
INSERT
  5
   442
  8
0
  6
CONTINUOUS
 62
     7
  2
*UDIM2237
 10
0.0
 20
0.0
 30
0.0
  0
INSERT
  5
   443
  8
0
  6
CONTINUOUS
 62
     7
  2
*UDIM2238
 10
0.0
 20
0.0
 30
0.0
  0
INSERT
  5
   444
  8
0
  6
CONTINUOUS
 62
     7
  2
*UDIM2239
 10
0.0
 20
0.0
 30
0.0
  0
TEXT
  5
   445
  8
0
  6
CONTINUOUS
 62
     7
 10
-405.534196744465
 20
5.7555579447797
 30
0.0
 40
3.00000002980232
  1
Y
 50
359.999999844103
 41
0.916666604744064
 72
     2
 11
-403.334196875595
 21
5.75555793880475
 31
0.0
  0
TEXT
  5
   446
  8
0
  6
CONTINUOUS
 62
     7
 10
-404.597519288563
 20
84.4950141215375
 30
0.0
 40
3.00000002980232
  1
Y
 50
359.999999844103
 41
0.916666604744064
 72
     2
 11
-402.397519419693
 21
84.4950141155626
 31
0.0
  0
TEXT
  5
   447
  8
0
  6
CONTINUOUS
 62
     7
 10
-380.994516263508
 20
40.7951919937185
 30
0.0
 40
3.00000002980232
  1
X
 50
359.999999844103
 41
0.916666604744064
 72
     2
 11
-378.794516394638
 21
40.7951919877435
 31
0.0
  0
TEXT
  5
   448
  8
0
  6
CONTINUOUS
 62
     7
 10
-446.513839612507
 20
39.8272039198926
 30
0.0
 40
3.00000002980232
  1
X
 50
359.999999844103
 41
0.916666604744064
 72
     2
 11
-444.313839743637
 21
39.8272039139177
 31
0.0
  0
ENDSEC
  0
EOF
