  0
SECTION
  2
HEADER
  9
$ACADVER
  1
AC1009
  9
$DWGCODEPAGE
  3
iso8859-1
  9
$INSBASE
 10
0.0
 20
0.0
 30
0.0
  9
$EXTMIN
 10
1.0E20
 20
1.0E20
  9
$EXTMAX
 10
-1.0E20
 20
-1.0E20
  9
$LIMMIN
 10
0.0
 20
0.0
  9
$LIMMAX
 10
12.0
 20
9.0
  9
$ORTHOMODE
 70
     0
  9
$REGENMODE
 70
     1
  9
$FILLMODE
 70
     1
  9
$QTEXTMODE
 70
     0
  9
$MIRRTEXT
 70
     1
  9
$DRAGMODE
 70
     2
  9
$LTSCALE
 40
15.0
  9
$OSMODE
 70
     0
  9
$ATTMODE
 70
     1
  9
$TEXTSIZE
 40
0.2
  9
$TRACEWID
 40
0.05
  9
$TEXTSTYLE
  7
STANDARD
  9
$CLAYER
  8
0
  9
$CELTYPE
  6
DASHED
  9
$CECOLOR
 62
   256
  9
$DIMSCALE
 40
1.0
  9
$DIMASZ
 40
0.18
  9
$DIMEXO
 40
0.0625
  9
$DIMDLI
 40
0.38
  9
$DIMRND
 40
0.0
  9
$DIMDLE
 40
0.0
  9
$DIMEXE
 40
0.18
  9
$DIMTP
 40
0.0
  9
$DIMTM
 40
0.0
  9
$DIMTXT
 40
0.18
  9
$DIMCEN
 40
0.09
  9
$DIMTSZ
 40
0.0
  9
$DIMTOL
 70
     0
  9
$DIMLIM
 70
     0
  9
$DIMTIH
 70
     1
  9
$DIMTOH
 70
     1
  9
$DIMSE1
 70
     0
  9
$DIMSE2
 70
     0
  9
$DIMTAD
 70
     0
  9
$DIMZIN
 70
     0
  9
$DIMBLK
  1

  9
$DIMASO
 70
     1
  9
$DIMSHO
 70
     1
  9
$DIMPOST
  1

  9
$DIMAPOST
  1

  9
$DIMALT
 70
     0
  9
$DIMALTD
 70
     2
  9
$DIMALTF
 40
25.4
  9
$DIMLFAC
 40
1.0
  9
$DIMTOFL
 70
     0
  9
$DIMTVP
 40
0.0
  9
$DIMTIX
 70
     0
  9
$DIMSOXD
 70
     0
  9
$DIMSAH
 70
     0
  9
$DIMBLK1
  1

  9
$DIMBLK2
  1

  9
$DIMSTYLE
  2
STANDARD
  9
$DIMCLRD
 70
     0
  9
$DIMCLRE
 70
     0
  9
$DIMCLRT
 70
     0
  9
$DIMTFAC
 40
1.0
  9
$DIMGAP
 40
0.09
  9
$LUNITS
 70
     2
  9
$LUPREC
 70
     4
  9
$AXISMODE
 70
     0
  9
$AXISUNIT
 10
0.0
 20
0.0
  9
$SKETCHINC
 40
0.1
  9
$FILLETRAD
 40
0.0
  9
$AUNITS
 70
     0
  9
$AUPREC
 70
     0
  9
$MENU
  1
acad
  9
$ELEVATION
 40
0.0
  9
$PELEVATION
 40
0.0
  9
$THICKNESS
 40
0.0
  9
$LIMCHECK
 70
     0
  9
$BLIPMODE
 70
     1
  9
$CHAMFERA
 40
0.0
  9
$CHAMFERB
 40
0.0
  9
$SKPOLY
 70
     0
  9
$TDCREATE
 40
0.000000000
  9
$TDUPDATE
 40
0.000000000
  9
$TDINDWG
 40
0.0
  9
$TDUSRTIMER
 40
0.0
  9
$USRTIMER
 70
     1
  9
$ANGBASE
 50
0.0
  9
$ANGDIR
 70
     0
  9
$PDMODE
 70
     0
  9
$PDSIZE
 40
0.0
  9
$PLINEWID
 40
0.0
  9
$COORDS
 70
     1
  9
$SPLFRAME
 70
     0
  9
$SPLINETYPE
 70
     6
  9
$SPLINESEGS
 70
     8
  9
$ATTDIA
 70
     0
  9
$ATTREQ
 70
     1
  9
$HANDLING
 70
     1
  9
$HANDSEED
  5
   7B0
  9
$SURFTAB1
 70
     6
  9
$SURFTAB2
 70
     6
  9
$SURFTYPE
 70
     6
  9
$SURFU
 70
     6
  9
$SURFV
 70
     6
  9
$UCSNAME
  2

  9
$UCSORG
 10
0.0
 20
0.0
 30
0.0
  9
$UCSXDIR
 10
1.0
 20
0.0
 30
0.0
  9
$UCSYDIR
 10
0.0
 20
1.0
 30
0.0
  9
$PUCSNAME
  2

  9
$PUCSORG
 10
0.0
 20
0.0
 30
0.0
  9
$PUCSXDIR
 10
1.0
 20
0.0
 30
0.0
  9
$PUCSYDIR
 10
0.0
 20
1.0
 30
0.0
  9
$USERI1
 70
     0
  9
$USERI2
 70
     0
  9
$USERI3
 70
     0
  9
$USERI4
 70
     0
  9
$USERI5
 70
     0
  9
$USERR1
 40
0.0
  9
$USERR2
 40
0.0
  9
$USERR3
 40
0.0
  9
$USERR4
 40
0.0
  9
$USERR5
 40
0.0
  9
$WORLDVIEW
 70
     1
  9
$SHADEDGE
 70
     3
  9
$SHADEDIF
 70
    70
  9
$TILEMODE
 70
     1
  9
$MAXACTVP
 70
    16
  9
$PINSBASE
 10
0.0
 20
0.0
 30
0.0
  9
$PLIMCHECK
 70
     0
  9
$PEXTMIN
 10
1.0E20
 20
1.0E20
 30
1.0E20
  9
$PEXTMAX
 10
-1.0E20
 20
-1.0E20
 30
-1.0E20
  9
$PLIMMIN
 10
0.0
 20
0.0
  9
$PLIMMAX
 10
12.0
 20
9.0
  9
$UNITMODE
 70
     0
  9
$VISRETAIN
 70
     0
  0
ENDSEC
  0
SECTION
  2
TABLES
  0
TABLE
  2
VPORT
 70
     1
  0
VPORT
  2
*ACTIVE
 70
     0
 10
0.0
 20
0.0
 11
1.0
 21
1.0
 12
6.801242
 22
4.5
 13
0.0
 23
0.0
 14
1.0
 24
1.0
 15
0.0
 25
0.0
 16
0.0
 26
0.0
 36
1.0
 17
0.0
 27
0.0
 37
0.0
 40
9.0
 41
1.511387
 42
50.0
 43
0.0
 44
0.0
 50
0.0
 51
0.0
 71
     0
 72
   100
 73
     1
 74
     1
 75
     0
 76
     0
 77
     0
 78
     0
  0
ENDTAB
  0
TABLE
  2
LTYPE
 70
    41
  0
LTYPE
  2
BYBLOCK
 70
     0
  3

 72
    65
 73
     0
 40
0.0
  0
LTYPE
  2
BYLAYER
 70
     0
  3

 72
    65
 73
     0
 40
0.0
  0
LTYPE
  2
CONTINUOUS
 70
     0
  3
Solid line
 72
    65
 73
     0
 40
0.0
  0
LTYPE
  2
BORDER
 70
    64
  3
__ __ . __ __ . __ __ . __ __ . __ __ . __ __ .
 72
    65
 73
     6
 40
1.75
 49
0.5
 49
-0.25
 49
0.5
 49
-0.25
 49
0.0
 49
-0.25
  0
LTYPE
  2
BORDER2
 70
    64
  3
__.__.__.__.__.__.__.__.__.__.__.__.__.__.__.__
 72
    65
 73
     6
 40
0.875
 49
0.25
 49
-0.125
 49
0.25
 49
-0.125
 49
0.0
 49
-0.125
  0
LTYPE
  2
BORDERX2
 70
    64
  3
____  ____  .  ____  ____  .  ____  ____  .  __
 72
    65
 73
     6
 40
3.5
 49
1.0
 49
-0.5
 49
1.0
 49
-0.5
 49
0.0
 49
-0.5
  0
LTYPE
  2
CENTER
 70
    64
  3
____ _ ____ _ ____ _ ____ _ ____ _ ____ _ ____
 72
    65
 73
     4
 40
2.0
 49
1.25
 49
-0.25
 49
0.25
 49
-0.25
  0
LTYPE
  2
CENTER2
 70
    64
  3
___ _ ___ _ ___ _ ___ _ ___ _ ___ _ ___ _ ___ _
 72
    65
 73
     4
 40
1.125
 49
0.75
 49
-0.125
 49
0.125
 49
-0.125
  0
LTYPE
  2
CENTERX2
 70
    64
  3
________  __  ________  __  ________  __  _____
 72
    65
 73
     4
 40
4.0
 49
2.5
 49
-0.5
 49
0.5
 49
-0.5
  0
LTYPE
  2
DASHDOT
 70
    64
  3
__ . __ . __ . __ . __ . __ . __ . __ . __ . __
 72
    65
 73
     4
 40
1.0
 49
0.5
 49
-0.25
 49
0.0
 49
-0.25
  0
LTYPE
  2
DASHDOT2
 70
    64
  3
_._._._._._._._._._._._._._._._._._._._._._._._
 72
    65
 73
     4
 40
0.5
 49
0.25
 49
-0.125
 49
0.0
 49
-0.125
  0
LTYPE
  2
DASHDOTX2
 70
    64
  3
____  .  ____  .  ____  .  ____  .  ____  .  __
 72
    65
 73
     4
 40
2.0
 49
1.0
 49
-0.5
 49
0.0
 49
-0.5
  0
LTYPE
  2
DASHED
 70
    64
  3
__ __ __ __ __ __ __ __ __ __ __ __ __ __ __ __
 72
    65
 73
     2
 40
0.75
 49
0.5
 49
-0.25
  0
LTYPE
  2
DASHED2
 70
    64
  3
_ _ _ _ _ _ _ _ _ _ _ _ _ _ _ _ _ _ _ _ _ _ _ _
 72
    65
 73
     2
 40
0.375
 49
0.25
 49
-0.125
  0
LTYPE
  2
DASHEDX2
 70
    64
  3
____  ____  ____  ____  ____  ____  ____  ____
 72
    65
 73
     2
 40
1.5
 49
1.0
 49
-0.5
  0
LTYPE
  2
DIVIDE
 70
    64
  3
____ . . ____ . . ____ . . ____ . . ____ . . __
 72
    65
 73
     6
 40
1.25
 49
0.5
 49
-0.25
 49
0.0
 49
-0.25
 49
0.0
 49
-0.25
  0
LTYPE
  2
DIVIDE2
 70
    64
  3
__..__..__..__..__..__..__..__..__..__..__..__.
 72
    65
 73
     6
 40
0.625
 49
0.25
 49
-0.125
 49
0.0
 49
-0.125
 49
0.0
 49
-0.125
  0
LTYPE
  2
DIVIDEX2
 70
    64
  3
________  .  .  ________  .  .  ________  .  .
 72
    65
 73
     6
 40
2.5
 49
1.0
 49
-0.5
 49
0.0
 49
-0.5
 49
0.0
 49
-0.5
  0
LTYPE
  2
DOT
 70
    64
  3
. . . . . . . . . . . . . . . . . . . . . . . .
 72
    65
 73
     2
 40
0.25
 49
0.0
 49
-0.25
  0
LTYPE
  2
DOT2
 70
    64
  3
...............................................
 72
    65
 73
     2
 40
0.125
 49
0.0
 49
-0.125
  0
LTYPE
  2
DOTX2
 70
    64
  3
.  .  .  .  .  .  .  .  .  .  .  .  .  .  .  .
 72
    65
 73
     2
 40
0.5
 49
0.0
 49
-0.5
  0
LTYPE
  2
HIDDEN
 70
    64
  3
__ __ __ __ __ __ __ __ __ __ __ __ __ __ __ __
 72
    65
 73
     2
 40
0.375
 49
0.25
 49
-0.125
  0
LTYPE
  2
HIDDEN2
 70
    64
  3
_ _ _ _ _ _ _ _ _ _ _ _ _ _ _ _ _ _ _ _ _ _ _ _
 72
    65
 73
     2
 40
0.1875
 49
0.125
 49
-0.0625
  0
LTYPE
  2
HIDDENX2
 70
    64
  3
____ ____ ____ ____ ____ ____ ____ ____ ____ __
 72
    65
 73
     2
 40
0.75
 49
0.5
 49
-0.25
  0
LTYPE
  2
PHANTOM
 70
    64
  3
______  __  __  ______  __  __  ______  __  __
 72
    65
 73
     6
 40
2.5
 49
1.25
 49
-0.25
 49
0.25
 49
-0.25
 49
0.25
 49
-0.25
  0
LTYPE
  2
PHANTOM2
 70
    64
  3
___ _ _ ___ _ _ ___ _ _ ___ _ _ ___ _ _ ___ _ _
 72
    65
 73
     6
 40
1.25
 49
0.625
 49
-0.125
 49
0.125
 49
-0.125
 49
0.125
 49
-0.125
  0
LTYPE
  2
PHANTOMX2
 70
    64
  3
____________    ____    ____    ____________
 72
    65
 73
     6
 40
5.0
 49
2.5
 49
-0.5
 49
0.5
 49
-0.5
 49
0.5
 49
-0.5
  0
LTYPE
  2
ACAD_ISO02W100
 70
    64
  3
__ __ __ __ __ __ __ __ __ __ __ __ __ __ __ __
 72
    65
 73
     2
 40
15.0
 49
12.0
 49
-3.0
  0
LTYPE
  2
ACAD_ISO03W100
 70
    64
  3
__    __    __    __    __    __    __    __
 72
    65
 73
     2
 40
30.0
 49
12.0
 49
-18.0
  0
LTYPE
  2
ACAD_ISO04W100
 70
    64
  3
____ . ____ . ____ . ____ . ____ . ____ . ____
 72
    65
 73
     4
 40
30.5
 49
24.0
 49
-3.0
 49
0.5
 49
-3.0
  0
LTYPE
  2
ACAD_ISO05W100
 70
    64
  3
____ .. ____ .. ____ .. ____ .. ____ .. ____ ..
 72
    65
 73
     6
 40
34.0
 49
24.0
 49
-3.0
 49
0.5
 49
-3.0
 49
0.5
 49
-3.0
  0
LTYPE
  2
ACAD_ISO06W100
 70
    64
  3
____ ... ____ ... ____ ... ____ ... ____ ... __
 72
    65
 73
     8
 40
37.5
 49
24.0
 49
-3.0
 49
0.5
 49
-3.0
 49
0.5
 49
-3.0
 49
0.5
 49
-3.0
  0
LTYPE
  2
ACAD_ISO07W100
 70
    64
  3
. . . . . . . . . . . . . . . . . . . . . . . .
 72
    65
 73
     2
 40
3.5
 49
0.5
 49
-3.0
  0
LTYPE
  2
ACAD_ISO08W100
 70
    64
  3
____ __ ____ __ ____ __ ____ ____ __ __ ____ __
 72
    65
 73
     4
 40
36.0
 49
24.0
 49
-3.0
 49
6.0
 49
-3.0
  0
LTYPE
  2
ACAD_ISO09W100
 70
    64
  3
____ __ __ ____ __ __ ____ __ __ ____ __ __ ___
 72
    65
 73
     6
 40
45.0
 49
24.0
 49
-3.0
 49
6.0
 49
-3.0
 49
6.0
 49
-3.0
  0
LTYPE
  2
ACAD_ISO10W100
 70
    64
  3
__ . __ . __ . __ . __ . __ . __ . __ . __ . __
 72
    65
 73
     4
 40
18.5
 49
12.0
 49
-3.0
 49
0.5
 49
-3.0
  0
LTYPE
  2
ACAD_ISO11W100
 70
    64
  3
__ __ . __ __ . __ __ . __ __ . __ __ . __ __ .
 72
    65
 73
     6
 40
33.5
 49
12.0
 49
-3.0
 49
12.0
 49
-3.0
 49
0.5
 49
-3.0
  0
LTYPE
  2
ACAD_ISO12W100
 70
    64
  3
__ . . __ . . __ . . __ . . __ . . __ . . __ .
 72
    65
 73
     6
 40
22.0
 49
12.0
 49
-3.0
 49
0.5
 49
-3.0
 49
0.5
 49
-3.0
  0
LTYPE
  2
ACAD_ISO13W100
 70
    64
  3
__ __ . . __ __ . . __ __ . . __ __ . . __ __ .
 72
    65
 73
     8
 40
37.0
 49
12.0
 49
-3.0
 49
12.0
 49
-3.0
 49
0.5
 49
-3.0
 49
0.5
 49
-3.0
  0
LTYPE
  2
ACAD_ISO14W100
 70
    64
  3
__ . . . __ . . . __ . . . __ . . . __ . . . __
 72
    65
 73
     8
 40
25.5
 49
12.0
 49
-3.0
 49
0.5
 49
-3.0
 49
0.5
 49
-3.0
 49
0.5
 49
-3.0
  0
LTYPE
  2
ACAD_ISO15W100
 70
    64
  3
__ __ . . . __ __ . . . __ __ . . . __ __ . . .
 72
    65
 73
    10
 40
40.5
 49
12.0
 49
-3.0
 49
12.0
 49
-3.0
 49
0.5
 49
-3.0
 49
0.5
 49
-3.0
 49
0.5
 49
-3.0
  0
ENDTAB
  0
TABLE
  2
STYLE
 70
     4
  0
STYLE
  2
STANDARD
 70
    64
 40
0.0
 41
1.0
 50
0.0
 71
     0
 42
0.2
  3
txt
  4

  0
STYLE
  2
TOLERANCE
 70
    64
 40
0.0
 41
1.0
 50
0.0
 71
     0
 42
0.2
  3
../igesfont/iges1003.shx
  4

  0
STYLE
  2
ROMANS
 70
    64
 40
0.0
 41
1.0
 50
0.0
 71
     0
 42
0.2
  3
romans.shx
  4

  0
STYLE
  2
ROMANC
 70
    64
 40
0.0
 41
1.0
 50
0.0
 71
     0
 42
0.2
  3
romanc.shx
  4

  0
ENDTAB
  0
TABLE
  2
DIMSTYLE
 70
     2
  0
DIMSTYLE
  2
UNNAMED
 70
     0
  3

  4

  5

  6

  7

 40
1.0
 41
0.18
 42
0.0625
 43
0.38
 44
0.18
 45
0.0
 46
0.0
 47
0.0
 48
0.0
140
0.18
141
0.09
142
0.0
143
25.4
144
1.0
145
0.0
146
1.0
147
0.09
 71
     0
 72
     0
 73
     1
 74
     1
 75
     0
 76
     0
 77
     0
 78
     0
170
     0
171
     2
172
     0
173
     0
174
     0
175
     0
176
     0
177
     0
178
     0
  0
DIMSTYLE
  2
STANDARD
 70
     0
  3

  4

  5

  6

  7

 40
1.0
 41
0.18
 42
0.0625
 43
0.38
 44
0.18
 45
0.0
 46
0.0
 47
0.0
 48
0.0
140
0.18
141
0.09
142
0.0
143
25.4
144
1.0
145
0.0
146
1.0
147
0.09
 71
     0
 72
     0
 73
     1
 74
     1
 75
     0
 76
     0
 77
     0
 78
     0
170
     0
171
     2
172
     0
173
     0
174
     0
175
     0
176
     0
177
     0
178
     0
  0
ENDTAB
  0
TABLE
  2
LAYER
 70
     2
  0
LAYER
  2
0
 70
     0
 62
     7
  6
CONTINUOUS
  0
LAYER
  2
255
 70
     0
 62
     7
  6
CONTINUOUS
  0
ENDTAB
  0
ENDSEC
  0
SECTION
  2
BLOCKS
  0
BLOCK
  5
     B
  8
0
  6
CONTINUOUS
 62
     7
  2
*UDIM574
 70
    65
 10
0.0
 20
0.0
 30
0.0
  3
*UDIM574
  0
TEXT
  5
     C
  8
0
  6
CONTINUOUS
 62
     7
 10
110.696763339408
 20
-35.5583571093108
 30
0.0
 40
3.00000002980232
  1
7
 50
326.579758266481
 41
0.933333333333334
 72
     1
 11
112.441045492134
 21
-34.9122303102813
 31
0.0
 73
     2
  0
TEXT
  5
     D
  8
0
  6
CONTINUOUS
 62
     7
 10
107.358149970587
 20
-33.3552545216065
 30
0.0
 40
3.00000002980232
  1
Ø
 50
326.579758266481
 41
1.2
 72
     1
 11
109.436293460486
 21
-32.9294379827108
 31
0.0
 73
     2
  0
LINE
  5
     E
  8
0
  6
CONTINUOUS
 62
     7
 10
106.807374329148
 20
-34.1899078633876
 30
0.0
 11
128.872475678902
 21
-48.7503485262267
 31
0.0
  0
LINE
  5
     F
  8
0
  6
CONTINUOUS
 62
     7
 10
120.392272335313
 20
-44.0846602447697
 30
0.0
 11
123.238565659982
 21
-45.0326129387053
 31
0.0
  0
LINE
  5
    10
  8
0
  6
CONTINUOUS
 62
     7
 10
123.238565659982
 20
-45.0326129387053
 30
0.0
 11
121.247579713862
 21
-42.7885151328267
 31
0.0
  0
LINE
  5
    11
  8
0
  6
CONTINUOUS
 62
     7
 10
127.545502322891
 20
-46.9444230071834
 30
0.0
 11
124.699208998221
 21
-45.9964703132479
 31
0.0
  0
LINE
  5
    12
  8
0
  6
CONTINUOUS
 62
     7
 10
124.699208998221
 20
-45.9964703132479
 30
0.0
 11
126.690194944342
 21
-48.2405681191265
 31
0.0
  0
ENDBLK
  5
    13
  8
0
  6
CONTINUOUS
 62
     7
  0
BLOCK
  5
    14
  8
0
  6
CONTINUOUS
 62
     7
  2
*UDIM575
 70
    65
 10
0.0
 20
0.0
 30
0.0
  3
*UDIM575
  0
TEXT
  5
    15
  8
0
  6
CONTINUOUS
 62
     7
 10
168.86636284576
 20
-90.6620856534897
 30
0.0
 40
3.00000002980232
  1
7
 50
321.312868846426
 41
0.933333333333334
 72
     1
 11
170.662591794508
 21
-90.1788035077182
 31
0.0
 73
     2
  0
TEXT
  5
    16
  8
0
  6
CONTINUOUS
 62
     7
 10
165.744079538406
 20
-88.1618162305994
 30
0.0
 40
3.00000002980232
  1
Ø
 50
321.312868846426
 41
1.2
 72
     1
 11
167.852536818054
 21
-87.9285610285011
 31
0.0
 73
     2
  0
LINE
  5
    17
  8
0
  6
CONTINUOUS
 62
     7
 10
150.633033754596
 20
-77.3422709397127
 30
0.0
 11
169.958551319902
 21
-92.8178046650999
 31
0.0
  0
LINE
  5
    18
  8
0
  6
CONTINUOUS
 62
     7
 10
151.788629300848
 20
-79.2623814056438
 30
0.0
 11
154.535887860558
 21
-80.4676076939799
 31
0.0
  0
LINE
  5
    19
  8
0
  6
CONTINUOUS
 62
     7
 10
154.535887860558
 20
-80.4676076939799
 30
0.0
 11
152.759305336475
 21
-78.050221805231
 31
0.0
  0
LINE
  5
    1A
  8
0
  6
CONTINUOUS
 62
     7
 10
158.649145357356
 20
-82.7667018463093
 30
0.0
 11
155.901886797645
 21
-81.5614755579733
 31
0.0
  0
LINE
  5
    1B
  8
0
  6
CONTINUOUS
 62
     7
 10
155.901886797645
 20
-81.5614755579733
 30
0.0
 11
157.678469321728
 21
-83.9788614467221
 31
0.0
  0
ENDBLK
  5
    1C
  8
0
  6
CONTINUOUS
 62
     7
  0
BLOCK
  5
    1D
  8
0
  6
CONTINUOUS
 62
     7
  2
*UDIM576
 70
    65
 10
0.0
 20
0.0
 30
0.0
  3
*UDIM576
  0
TEXT
  5
    1E
  8
0
  6
CONTINUOUS
 62
     7
 10
176.750627520417
 20
-21.576512418032
 30
0.0
 40
3.00000002980232
  1
8
 50
406.249477420785
 41
0.933333333333334
 72
     1
 11
176.427762643471
 21
-19.7446395130578
 31
0.0
 73
     2
  0
TEXT
  5
    1F
  8
0
  6
CONTINUOUS
 62
     7
 10
174.572340640387
 20
-23.8519390441559
 30
0.0
 40
3.00000002980232
  1
Ø
 50
406.249477420785
 41
0.933333333333334
 72
     1
 11
174.249475763441
 21
-22.0200661391817
 31
0.0
 73
     2
  0
TEXT
  5
    20
  8
0
  6
CONTINUOUS
 62
     7
 10
162.98938649905
 20
-35.9514299074227
 30
0.0
 40
3.00000002980232
  1
3 fori
 50
406.249477420785
 41
0.933333333333333
 72
     1
 11
167.507159179834
 21
-29.0630533676982
 31
0.0
 73
     2
  0
LINE
  5
    21
  8
0
  6
CONTINUOUS
 62
     7
 10
178.994328410315
 20
-20.6788451986619
 30
0.0
 11
154.527367686828
 21
-46.2368992827854
 31
0.0
  0
LINE
  5
    22
  8
0
  6
CONTINUOUS
 62
     7
 10
157.577140501405
 20
-42.2977903875786
 30
0.0
 11
155.910406971375
 21
-44.7921839691677
 31
0.0
  0
LINE
  5
    23
  8
0
  6
CONTINUOUS
 62
     7
 10
155.910406971375
 20
-44.7921839691677
 30
0.0
 11
158.3297568969
 21
-43.0182769992673
 31
0.0
  0
LINE
  5
    24
  8
0
  6
CONTINUOUS
 62
     7
 10
152.860634156798
 20
-48.7312928643746
 30
0.0
 11
154.527367686828
 21
-46.2368992827854
 31
0.0
  0
LINE
  5
    25
  8
0
  6
CONTINUOUS
 62
     7
 10
154.527367686828
 20
-46.2368992827854
 30
0.0
 11
152.108017761303
 21
-48.0108062526858
 31
0.0
  0
ENDBLK
  5
    26
  8
0
  6
CONTINUOUS
 62
     7
  0
BLOCK
  5
    27
  8
0
  6
CONTINUOUS
 62
     7
  2
*UDIM577
 70
    65
 10
0.0
 20
0.0
 30
0.0
  3
*UDIM577
  0
TEXT
  5
    28
  8
0
  6
CONTINUOUS
 62
     7
 10
136.821906250257
 20
-7.62560268876258
 30
0.0
 40
3.00000002980232
  1
R min.200
 50
359.999999844103
 41
0.933333333333333
 72
     1
 11
149.121906376521
 21
-6.12560270726681
 31
0.0
 73
     2
  0
LINE
  5
    29
  8
0
  6
CONTINUOUS
 62
     7
 10
134.968887329102
 20
-36.6370504651215
 30
0.0
 11
134.968887329102
 21
-6.62560272216797
 31
0.0
  0
LINE
  5
    2A
  8
0
  6
CONTINUOUS
 62
     7
 10
163.149035154064
 20
-39.1594200277436
 30
0.0
 11
163.149035154064
 21
-6.62560272216797
 31
0.0
  0
LINE
  5
    2B
  8
0
  6
CONTINUOUS
 62
     7
 10
134.968887329102
 20
-8.62560272216797
 30
0.0
 11
163.149035154064
 21
-8.62560272216797
 31
0.0
  0
LINE
  5
    2C
  8
0
  6
CONTINUOUS
 62
     7
 10
132.014464051895
 20
-9.14654715211963
 30
0.0
 11
134.968887329102
 21
-8.62560272216797
 31
0.0
  0
LINE
  5
    2D
  8
0
  6
CONTINUOUS
 62
     7
 10
134.968887329102
 20
-8.62560272216797
 30
0.0
 11
132.014464051895
 21
-8.10465829221631
 31
0.0
  0
LINE
  5
    2E
  8
0
  6
CONTINUOUS
 62
     7
 10
166.103458431271
 20
-8.10465829221631
 30
0.0
 11
163.149035154064
 21
-8.62560272216797
 31
0.0
  0
LINE
  5
    2F
  8
0
  6
CONTINUOUS
 62
     7
 10
163.149035154064
 20
-8.62560272216797
 30
0.0
 11
166.103458431271
 21
-9.14654715211963
 31
0.0
  0
ENDBLK
  5
    30
  8
0
  6
CONTINUOUS
 62
     7
  0
BLOCK
  5
    31
  8
0
  6
CONTINUOUS
 62
     7
  2
*UDIM578
 70
    65
 10
0.0
 20
0.0
 30
0.0
  3
*UDIM578
  0
TEXT
  5
    32
  8
0
  6
CONTINUOUS
 62
     7
 10
100.567203507341
 20
-59.7770416886597
 30
0.0
 40
3.00000002980232
  1
72,5
 50
449.999999844103
 41
0.933333333333333
 72
     1
 11
99.0672035068274
 21
-54.477041631937
 31
0.0
 73
     2
  0
LINE
  5
    33
  8
0
  6
CONTINUOUS
 62
     7
 10
126.673887329102
 20
-45.1395416259766
 30
0.0
 11
99.5672035217285
 21
-45.1395416259766
 31
0.0
  0
LINE
  5
    34
  8
0
  6
CONTINUOUS
 62
     7
 10
106.508162565958
 20
-63.2645416259766
 30
0.0
 11
99.5672035217285
 21
-63.2645416259766
 31
0.0
  0
LINE
  5
    35
  8
0
  6
CONTINUOUS
 62
     7
 10
101.567203521729
 20
-45.1395416259766
 30
0.0
 11
101.567203521729
 21
-63.2645416259766
 31
0.0
  0
LINE
  5
    36
  8
0
  6
CONTINUOUS
 62
     7
 10
102.08814795168
 20
-48.0939649031835
 30
0.0
 11
101.567203521729
 21
-45.1395416259766
 31
0.0
  0
LINE
  5
    37
  8
0
  6
CONTINUOUS
 62
     7
 10
101.567203521729
 20
-45.1395416259766
 30
0.0
 11
101.046259091777
 21
-48.0939649031835
 31
0.0
  0
LINE
  5
    38
  8
0
  6
CONTINUOUS
 62
     7
 10
101.046259091777
 20
-60.3101183487696
 30
0.0
 11
101.567203521729
 21
-63.2645416259766
 31
0.0
  0
LINE
  5
    39
  8
0
  6
CONTINUOUS
 62
     7
 10
101.567203521729
 20
-63.2645416259766
 30
0.0
 11
102.08814795168
 21
-60.3101183487696
 31
0.0
  0
ENDBLK
  5
    3A
  8
0
  6
CONTINUOUS
 62
     7
  0
BLOCK
  5
    3B
  8
0
  6
CONTINUOUS
 62
     7
  2
*UDIM579
 70
    65
 10
0.0
 20
0.0
 30
0.0
  3
*UDIM579
  0
TEXT
  5
    3C
  8
0
  6
CONTINUOUS
 62
     7
 10
120.818887681662
 20
-34.4069843224339
 30
0.0
 40
3.00000002980232
  1
45
 50
359.999999844103
 41
0.933333333333333
 72
     1
 11
123.318887710571
 21
-32.9069843143225
 31
0.0
 73
     2
  0
LINE
  5
    3D
  8
0
  6
CONTINUOUS
 62
     7
 10
129.343887329102
 20
-42.4695416259766
 30
0.0
 11
129.343887329102
 21
-33.4069843292236
 31
0.0
  0
LINE
  5
    3E
  8
0
  6
CONTINUOUS
 62
     7
 10
140.593887329102
 20
-42.4695416259766
 30
0.0
 11
140.593887329102
 21
-33.4069843292236
 31
0.0
  0
LINE
  5
    3F
  8
0
  6
CONTINUOUS
 62
     7
 10
120.818887685736
 20
-35.4069843292236
 30
0.0
 11
140.593887329102
 21
-35.4069843292236
 31
0.0
  0
LINE
  5
    40
  8
0
  6
CONTINUOUS
 62
     7
 10
126.389464051895
 20
-35.9279287591753
 30
0.0
 11
129.343887329102
 21
-35.4069843292236
 31
0.0
  0
LINE
  5
    41
  8
0
  6
CONTINUOUS
 62
     7
 10
129.343887329102
 20
-35.4069843292236
 30
0.0
 11
126.389464051895
 21
-34.886039899272
 31
0.0
  0
LINE
  5
    42
  8
0
  6
CONTINUOUS
 62
     7
 10
143.548310606309
 20
-34.886039899272
 30
0.0
 11
140.593887329102
 21
-35.4069843292236
 31
0.0
  0
LINE
  5
    43
  8
0
  6
CONTINUOUS
 62
     7
 10
140.593887329102
 20
-35.4069843292236
 30
0.0
 11
143.548310606309
 21
-35.9279287591753
 31
0.0
  0
ENDBLK
  5
    44
  8
0
  6
CONTINUOUS
 62
     7
  0
BLOCK
  5
    45
  8
0
  6
CONTINUOUS
 62
     7
  2
*UDIM580
 70
    65
 10
0.0
 20
0.0
 30
0.0
  3
*UDIM580
  0
TEXT
  5
    46
  8
0
  6
CONTINUOUS
 62
     7
 10
171.161586743287
 20
-60.3645413151373
 30
0.0
 40
3.00000002980232
  1
27,25
 50
449.999999844103
 41
0.933333333333333
 72
     1
 11
169.661586746573
 21
-53.6645412445068
 31
0.0
 73
     2
  0
LINE
  5
    47
  8
0
  6
CONTINUOUS
 62
     7
 10
163.961615629238
 20
-63.2645416259766
 30
0.0
 11
174.161586761475
 21
-63.2645416259766
 31
0.0
  0
LINE
  5
    48
  8
0
  6
CONTINUOUS
 62
     7
 10
161.224193728543
 20
-70.0770416259766
 30
0.0
 11
174.161586761475
 21
-70.0770416259766
 31
0.0
  0
LINE
  5
    49
  8
0
  6
CONTINUOUS
 62
     7
 10
172.161586761475
 20
-46.9645411779483
 30
0.0
 11
172.161586761475
 21
-70.0770416259766
 31
0.0
  0
LINE
  5
    4A
  8
0
  6
CONTINUOUS
 62
     7
 10
171.640642331523
 20
-60.3101183487696
 30
0.0
 11
172.161586761475
 21
-63.2645416259766
 31
0.0
  0
LINE
  5
    4B
  8
0
  6
CONTINUOUS
 62
     7
 10
172.161586761475
 20
-63.2645416259766
 30
0.0
 11
172.682531191426
 21
-60.3101183487696
 31
0.0
  0
LINE
  5
    4C
  8
0
  6
CONTINUOUS
 62
     7
 10
172.682531191426
 20
-73.0314649031835
 30
0.0
 11
172.161586761475
 21
-70.0770416259766
 31
0.0
  0
LINE
  5
    4D
  8
0
  6
CONTINUOUS
 62
     7
 10
172.161586761475
 20
-70.0770416259766
 30
0.0
 11
171.640642331523
 21
-73.0314649031835
 31
0.0
  0
ENDBLK
  5
    4E
  8
0
  6
CONTINUOUS
 62
     7
  0
BLOCK
  5
    4F
  8
0
  6
CONTINUOUS
 62
     7
  2
*UDIM581
 70
    65
 10
0.0
 20
0.0
 30
0.0
  3
*UDIM581
  0
TEXT
  5
    50
  8
0
  6
CONTINUOUS
 62
     7
 10
176.312751767033
 20
-54.831275931099
 30
0.0
 40
3.00000002980232
  1
=
 50
449.999999844103
 41
0.933333333333334
 72
     1
 11
174.812751755118
 21
-53.7312759160996
 31
0.0
 73
     2
  0
LINE
  5
    51
  8
0
  6
CONTINUOUS
 62
     7
 10
157.843887329102
 20
-45.5145416259766
 30
0.0
 11
179.31275177002
 21
-45.5145416259766
 31
0.0
  0
LINE
  5
    52
  8
0
  6
CONTINUOUS
 62
     7
 10
157.843887329102
 20
-63.2645416259766
 30
0.0
 11
179.31275177002
 21
-63.2645416259766
 31
0.0
  0
LINE
  5
    53
  8
0
  6
CONTINUOUS
 62
     7
 10
177.31275177002
 20
-45.5145416259766
 30
0.0
 11
177.31275177002
 21
-63.2645416259766
 31
0.0
  0
LINE
  5
    54
  8
0
  6
CONTINUOUS
 62
     7
 10
177.833696199971
 20
-48.4689649031835
 30
0.0
 11
177.31275177002
 21
-45.5145416259766
 31
0.0
  0
LINE
  5
    55
  8
0
  6
CONTINUOUS
 62
     7
 10
177.31275177002
 20
-45.5145416259766
 30
0.0
 11
176.791807340068
 21
-48.4689649031835
 31
0.0
  0
LINE
  5
    56
  8
0
  6
CONTINUOUS
 62
     7
 10
176.791807340068
 20
-60.3101183487696
 30
0.0
 11
177.31275177002
 21
-63.2645416259766
 31
0.0
  0
LINE
  5
    57
  8
0
  6
CONTINUOUS
 62
     7
 10
177.31275177002
 20
-63.2645416259766
 30
0.0
 11
177.833696199971
 21
-60.3101183487696
 31
0.0
  0
ENDBLK
  5
    58
  8
0
  6
CONTINUOUS
 62
     7
  0
BLOCK
  5
    59
  8
0
  6
CONTINUOUS
 62
     7
  2
*UDIM582
 70
    65
 10
0.0
 20
0.0
 30
0.0
  3
*UDIM582
  0
TEXT
  5
    5A
  8
0
  6
CONTINUOUS
 62
     7
 10
176.312751767033
 20
-72.581275931099
 30
0.0
 40
3.00000002980232
  1
=
 50
449.999999844103
 41
0.933333333333334
 72
     1
 11
174.812751755118
 21
-71.4812759160996
 31
0.0
 73
     2
  0
LINE
  5
    5B
  8
0
  6
CONTINUOUS
 62
     7
 10
157.843887329102
 20
-81.0145416259766
 30
0.0
 11
179.31275177002
 21
-81.0145416259766
 31
0.0
  0
LINE
  5
    5C
  8
0
  6
CONTINUOUS
 62
     7
 10
177.31275177002
 20
-63.2645416259766
 30
0.0
 11
177.31275177002
 21
-81.0145416259766
 31
0.0
  0
LINE
  5
    5D
  8
0
  6
CONTINUOUS
 62
     7
 10
177.833696199971
 20
-66.2189649031835
 30
0.0
 11
177.31275177002
 21
-63.2645416259766
 31
0.0
  0
LINE
  5
    5E
  8
0
  6
CONTINUOUS
 62
     7
 10
177.31275177002
 20
-63.2645416259766
 30
0.0
 11
176.791807340068
 21
-66.2189649031835
 31
0.0
  0
LINE
  5
    5F
  8
0
  6
CONTINUOUS
 62
     7
 10
176.791807340068
 20
-78.0601183487696
 30
0.0
 11
177.31275177002
 21
-81.0145416259766
 31
0.0
  0
LINE
  5
    60
  8
0
  6
CONTINUOUS
 62
     7
 10
177.31275177002
 20
-81.0145416259766
 30
0.0
 11
177.833696199971
 21
-78.0601183487696
 31
0.0
  0
ENDBLK
  5
    61
  8
0
  6
CONTINUOUS
 62
     7
  0
BLOCK
  5
    62
  8
0
  6
CONTINUOUS
 62
     7
  2
*UDIM583
 70
    65
 10
0.0
 20
0.0
 30
0.0
  3
*UDIM583
  0
TEXT
  5
    63
  8
0
  6
CONTINUOUS
 62
     7
 10
107.006160725497
 20
-67.439541674752
 30
0.0
 40
3.00000002980232
  1
126
 50
449.999999844103
 41
0.933333333333333
 72
     1
 11
105.506160721183
 21
-63.539541631937
 31
0.0
 73
     2
  0
LINE
  5
    64
  8
0
  6
CONTINUOUS
 62
     7
 10
115.968887329102
 20
-47.5145416259766
 30
0.0
 11
106.006160736084
 21
-47.5145416259766
 31
0.0
  0
LINE
  5
    65
  8
0
  6
CONTINUOUS
 62
     7
 10
115.968887329102
 20
-79.0145416259766
 30
0.0
 11
106.006160736084
 21
-79.0145416259766
 31
0.0
  0
LINE
  5
    66
  8
0
  6
CONTINUOUS
 62
     7
 10
108.006160736084
 20
-47.5145416259766
 30
0.0
 11
108.006160736084
 21
-79.0145416259766
 31
0.0
  0
LINE
  5
    67
  8
0
  6
CONTINUOUS
 62
     7
 10
108.527105166036
 20
-50.4689649031835
 30
0.0
 11
108.006160736084
 21
-47.5145416259766
 31
0.0
  0
LINE
  5
    68
  8
0
  6
CONTINUOUS
 62
     7
 10
108.006160736084
 20
-47.5145416259766
 30
0.0
 11
107.485216306132
 21
-50.4689649031835
 31
0.0
  0
LINE
  5
    69
  8
0
  6
CONTINUOUS
 62
     7
 10
107.485216306132
 20
-76.0601183487696
 30
0.0
 11
108.006160736084
 21
-79.0145416259766
 31
0.0
  0
LINE
  5
    6A
  8
0
  6
CONTINUOUS
 62
     7
 10
108.006160736084
 20
-79.0145416259766
 30
0.0
 11
108.527105166036
 21
-76.0601183487696
 31
0.0
  0
ENDBLK
  5
    6B
  8
0
  6
CONTINUOUS
 62
     7
  0
BLOCK
  5
    6C
  8
0
  6
CONTINUOUS
 62
     7
  2
*UDIM584
 70
    65
 10
0.0
 20
0.0
 30
0.0
  3
*UDIM584
  0
TEXT
  5
    6D
  8
0
  6
CONTINUOUS
 62
     7
 10
182.634635914706
 20
-67.439541674752
 30
0.0
 40
3.00000002980232
  1
142
 50
449.999999844103
 41
0.933333333333333
 72
     1
 11
181.134635910392
 21
-63.539541631937
 31
0.0
 73
     2
  0
LINE
  5
    6E
  8
0
  6
CONTINUOUS
 62
     7
 10
126.593887329102
 20
-45.5145416259766
 30
0.0
 11
185.634635925293
 21
-45.5145416259766
 31
0.0
  0
LINE
  5
    6F
  8
0
  6
CONTINUOUS
 62
     7
 10
157.843887329102
 20
-81.0145416259766
 30
0.0
 11
185.634635925293
 21
-81.0145416259766
 31
0.0
  0
LINE
  5
    70
  8
0
  6
CONTINUOUS
 62
     7
 10
183.634635925293
 20
-45.5145416259766
 30
0.0
 11
183.634635925293
 21
-81.0145416259766
 31
0.0
  0
LINE
  5
    71
  8
0
  6
CONTINUOUS
 62
     7
 10
184.155580355245
 20
-48.4689649031835
 30
0.0
 11
183.634635925293
 21
-45.5145416259766
 31
0.0
  0
LINE
  5
    72
  8
0
  6
CONTINUOUS
 62
     7
 10
183.634635925293
 20
-45.5145416259766
 30
0.0
 11
183.113691495341
 21
-48.4689649031835
 31
0.0
  0
LINE
  5
    73
  8
0
  6
CONTINUOUS
 62
     7
 10
183.113691495341
 20
-78.0601183487696
 30
0.0
 11
183.634635925293
 21
-81.0145416259766
 31
0.0
  0
LINE
  5
    74
  8
0
  6
CONTINUOUS
 62
     7
 10
183.634635925293
 20
-81.0145416259766
 30
0.0
 11
184.155580355245
 21
-78.0601183487696
 31
0.0
  0
ENDBLK
  5
    75
  8
0
  6
CONTINUOUS
 62
     7
  0
BLOCK
  5
    76
  8
0
  6
CONTINUOUS
 62
     7
  2
*UDIM585
 70
    65
 10
0.0
 20
0.0
 30
0.0
  3
*UDIM585
  0
TEXT
  5
    77
  8
0
  6
CONTINUOUS
 62
     7
 10
141.986356728443
 20
-72.7667793622603
 30
0.0
 40
3.00000002980232
  1
16
 50
449.999999844103
 41
0.933333333333333
 72
     1
 11
140.486356720328
 21
-70.266779333353
 31
0.0
 73
     2
  0
LINE
  5
    78
  8
0
  6
CONTINUOUS
 62
     7
 10
149.718887329102
 20
-68.0770416259766
 30
0.0
 11
140.98635673523
 21
-68.0770416259766
 31
0.0
  0
LINE
  5
    79
  8
0
  6
CONTINUOUS
 62
     7
 10
149.718887329102
 20
-72.0770416259766
 30
0.0
 11
140.98635673523
 21
-72.0770416259766
 31
0.0
  0
LINE
  5
    7A
  8
0
  6
CONTINUOUS
 62
     7
 10
142.98635673523
 20
-67.7667793085178
 30
0.0
 11
142.98635673523
 21
-72.7667793581883
 31
0.0
  0
LINE
  5
    7B
  8
0
  6
CONTINUOUS
 62
     7
 10
142.465412305278
 20
-65.1226183487696
 30
0.0
 11
142.98635673523
 21
-68.0770416259766
 31
0.0
  0
LINE
  5
    7C
  8
0
  6
CONTINUOUS
 62
     7
 10
142.98635673523
 20
-68.0770416259766
 30
0.0
 11
143.507301165181
 21
-65.1226183487696
 31
0.0
  0
LINE
  5
    7D
  8
0
  6
CONTINUOUS
 62
     7
 10
143.507301165181
 20
-75.0314649031835
 30
0.0
 11
142.98635673523
 21
-72.0770416259766
 31
0.0
  0
LINE
  5
    7E
  8
0
  6
CONTINUOUS
 62
     7
 10
142.98635673523
 20
-72.0770416259766
 30
0.0
 11
142.465412305278
 21
-75.0314649031835
 31
0.0
  0
ENDBLK
  5
    7F
  8
0
  6
CONTINUOUS
 62
     7
  0
BLOCK
  5
    80
  8
0
  6
CONTINUOUS
 62
     7
  2
*UDIM586
 70
    65
 10
0.0
 20
0.0
 30
0.0
  3
*UDIM586
  0
TEXT
  5
    81
  8
0
  6
CONTINUOUS
 62
     7
 10
143.943887294232
 20
-58.7159602574162
 30
0.0
 40
3.00000002980232
  1
94
 50
359.999999844103
 41
0.933333333333333
 72
     1
 11
146.443887323141
 21
-57.2159602493048
 31
0.0
 73
     2
  0
LINE
  5
    82
  8
0
  6
CONTINUOUS
 62
     7
 10
158.468887329102
 20
-69.2020416259766
 30
0.0
 11
158.468887329102
 21
-57.7159602642059
 31
0.0
  0
LINE
  5
    83
  8
0
  6
CONTINUOUS
 62
     7
 10
134.968887329102
 20
-59.7159602642059
 30
0.0
 11
158.468887329102
 21
-59.7159602642059
 31
0.0
  0
LINE
  5
    84
  8
0
  6
CONTINUOUS
 62
     7
 10
137.923310606309
 20
-59.1950158342543
 30
0.0
 11
134.968887329102
 21
-59.7159602642059
 31
0.0
  0
LINE
  5
    85
  8
0
  6
CONTINUOUS
 62
     7
 10
134.968887329102
 20
-59.7159602642059
 30
0.0
 11
137.923310606309
 21
-60.2369046941576
 31
0.0
  0
LINE
  5
    86
  8
0
  6
CONTINUOUS
 62
     7
 10
155.514464051895
 20
-60.2369046941576
 30
0.0
 11
158.468887329102
 21
-59.7159602642059
 31
0.0
  0
LINE
  5
    87
  8
0
  6
CONTINUOUS
 62
     7
 10
158.468887329102
 20
-59.7159602642059
 30
0.0
 11
155.514464051895
 21
-59.1950158342543
 31
0.0
  0
ENDBLK
  5
    88
  8
0
  6
CONTINUOUS
 62
     7
  0
BLOCK
  5
    89
  8
0
  6
CONTINUOUS
 62
     7
  2
*UDIM587
 70
    65
 10
0.0
 20
0.0
 30
0.0
  3
*UDIM587
  0
TEXT
  5
    8A
  8
0
  6
CONTINUOUS
 62
     7
 10
135.418887250522
 20
-94.3227233780799
 30
0.0
 40
3.00000002980232
  1
125
 50
359.999999844103
 41
0.933333333333333
 72
     1
 11
139.318887293339
 21
-92.8227233737707
 31
0.0
 73
     2
  0
LINE
  5
    8B
  8
0
  6
CONTINUOUS
 62
     7
 10
123.968887329102
 20
-83.6395416259766
 30
0.0
 11
123.968887329102
 21
-97.3227233886719
 31
0.0
  0
LINE
  5
    8C
  8
0
  6
CONTINUOUS
 62
     7
 10
155.218887329102
 20
-83.6395416259766
 30
0.0
 11
155.218887329102
 21
-97.3227233886719
 31
0.0
  0
LINE
  5
    8D
  8
0
  6
CONTINUOUS
 62
     7
 10
123.968887329102
 20
-95.3227233886719
 30
0.0
 11
155.218887329102
 21
-95.3227233886719
 31
0.0
  0
LINE
  5
    8E
  8
0
  6
CONTINUOUS
 62
     7
 10
126.923310606309
 20
-94.8017789587202
 30
0.0
 11
123.968887329102
 21
-95.3227233886719
 31
0.0
  0
LINE
  5
    8F
  8
0
  6
CONTINUOUS
 62
     7
 10
123.968887329102
 20
-95.3227233886719
 30
0.0
 11
126.923310606309
 21
-95.8436678186236
 31
0.0
  0
LINE
  5
    90
  8
0
  6
CONTINUOUS
 62
     7
 10
152.264464051895
 20
-95.8436678186236
 30
0.0
 11
155.218887329102
 21
-95.3227233886719
 31
0.0
  0
LINE
  5
    91
  8
0
  6
CONTINUOUS
 62
     7
 10
155.218887329102
 20
-95.3227233886719
 30
0.0
 11
152.264464051895
 21
-94.8017789587202
 31
0.0
  0
ENDBLK
  5
    92
  8
0
  6
CONTINUOUS
 62
     7
  0
BLOCK
  5
    93
  8
0
  6
CONTINUOUS
 62
     7
  2
*UDIM588
 70
    65
 10
0.0
 20
0.0
 30
0.0
  3
*UDIM588
  0
TEXT
  5
    94
  8
0
  6
CONTINUOUS
 62
     7
 10
142.318887294232
 20
-87.2194690636448
 30
0.0
 40
3.00000002980232
  1
81
 50
359.999999844103
 41
0.933333333333333
 72
     1
 11
144.818887323141
 21
-85.7194690555334
 31
0.0
 73
     2
  0
LINE
  5
    95
  8
0
  6
CONTINUOUS
 62
     7
 10
134.968887329102
 20
-87.409722943528
 30
0.0
 11
134.968887329102
 21
-90.2194690704346
 31
0.0
  0
LINE
  5
    96
  8
0
  6
CONTINUOUS
 62
     7
 10
155.218887329102
 20
-83.6395416259766
 30
0.0
 11
155.218887329102
 21
-90.2194690704346
 31
0.0
  0
LINE
  5
    97
  8
0
  6
CONTINUOUS
 62
     7
 10
134.968887329102
 20
-88.2194690704346
 30
0.0
 11
155.218887329102
 21
-88.2194690704346
 31
0.0
  0
LINE
  5
    98
  8
0
  6
CONTINUOUS
 62
     7
 10
137.923310606309
 20
-87.6985246404829
 30
0.0
 11
134.968887329102
 21
-88.2194690704346
 31
0.0
  0
LINE
  5
    99
  8
0
  6
CONTINUOUS
 62
     7
 10
134.968887329102
 20
-88.2194690704346
 30
0.0
 11
137.923310606309
 21
-88.7404135003862
 31
0.0
  0
LINE
  5
    9A
  8
0
  6
CONTINUOUS
 62
     7
 10
152.264464051895
 20
-88.7404135003862
 30
0.0
 11
155.218887329102
 21
-88.2194690704346
 31
0.0
  0
LINE
  5
    9B
  8
0
  6
CONTINUOUS
 62
     7
 10
155.218887329102
 20
-88.2194690704346
 30
0.0
 11
152.264464051895
 21
-87.6985246404829
 31
0.0
  0
ENDBLK
  5
    9C
  8
0
  6
CONTINUOUS
 62
     7
  0
BLOCK
  5
    9D
  8
0
  6
CONTINUOUS
 62
     7
  2
*UDIM589
 70
    65
 10
0.0
 20
0.0
 30
0.0
  3
*UDIM589
  0
TEXT
  5
    9E
  8
0
  6
CONTINUOUS
 62
     7
 10
129.668887280324
 20
-18.7312774552284
 30
0.0
 40
3.00000002980232
  1
135
 50
359.999999844103
 41
0.933333333333333
 72
     1
 11
133.568887323141
 21
-17.2312774509192
 31
0.0
 73
     2
  0
LINE
  5
    9F
  8
0
  6
CONTINUOUS
 62
     7
 10
116.968887329102
 20
-46.5145416259766
 30
0.0
 11
116.968887329102
 21
-17.7312774658203
 31
0.0
  0
LINE
  5
    A0
  8
0
  6
CONTINUOUS
 62
     7
 10
150.718887329102
 20
-46.5145416259766
 30
0.0
 11
150.718887329102
 21
-17.7312774658203
 31
0.0
  0
LINE
  5
    A1
  8
0
  6
CONTINUOUS
 62
     7
 10
116.968887329102
 20
-19.7312774658203
 30
0.0
 11
150.718887329102
 21
-19.7312774658203
 31
0.0
  0
LINE
  5
    A2
  8
0
  6
CONTINUOUS
 62
     7
 10
119.923310606309
 20
-19.2103330358687
 30
0.0
 11
116.968887329102
 21
-19.7312774658203
 31
0.0
  0
LINE
  5
    A3
  8
0
  6
CONTINUOUS
 62
     7
 10
116.968887329102
 20
-19.7312774658203
 30
0.0
 11
119.923310606309
 21
-20.252221895772
 31
0.0
  0
LINE
  5
    A4
  8
0
  6
CONTINUOUS
 62
     7
 10
147.764464051895
 20
-20.252221895772
 30
0.0
 11
150.718887329102
 21
-19.7312774658203
 31
0.0
  0
LINE
  5
    A5
  8
0
  6
CONTINUOUS
 62
     7
 10
150.718887329102
 20
-19.7312774658203
 30
0.0
 11
147.764464051895
 21
-19.2103330358687
 31
0.0
  0
ENDBLK
  5
    A6
  8
0
  6
CONTINUOUS
 62
     7
  0
BLOCK
  5
    A7
  8
0
  6
CONTINUOUS
 62
     7
  2
*UDIM590
 70
    65
 10
0.0
 20
0.0
 30
0.0
  3
*UDIM590
  0
TEXT
  5
    A8
  8
0
  6
CONTINUOUS
 62
     7
 10
140.068886817395
 20
-26.9683761528783
 30
0.0
 40
3.00000002980232
  1
63
 50
359.999999844103
 41
0.933333333333333
 72
     1
 11
142.568886846304
 21
-25.4683761447668
 31
0.0
 73
     2
  0
LINE
  5
    A9
  8
0
  6
CONTINUOUS
 62
     7
 10
134.968887329102
 20
-36.6370504651215
 30
0.0
 11
134.968887329102
 21
-25.968376159668
 31
0.0
  0
LINE
  5
    AA
  8
0
  6
CONTINUOUS
 62
     7
 10
150.718887329102
 20
-46.5145416259766
 30
0.0
 11
150.718887329102
 21
-25.968376159668
 31
0.0
  0
LINE
  5
    AB
  8
0
  6
CONTINUOUS
 62
     7
 10
134.968887329102
 20
-27.968376159668
 30
0.0
 11
150.718887329102
 21
-27.968376159668
 31
0.0
  0
LINE
  5
    AC
  8
0
  6
CONTINUOUS
 62
     7
 10
137.923310606309
 20
-27.4474317297163
 30
0.0
 11
134.968887329102
 21
-27.968376159668
 31
0.0
  0
LINE
  5
    AD
  8
0
  6
CONTINUOUS
 62
     7
 10
134.968887329102
 20
-27.968376159668
 30
0.0
 11
137.923310606309
 21
-28.4893205896196
 31
0.0
  0
LINE
  5
    AE
  8
0
  6
CONTINUOUS
 62
     7
 10
147.764464051895
 20
-28.4893205896196
 30
0.0
 11
150.718887329102
 21
-27.968376159668
 31
0.0
  0
LINE
  5
    AF
  8
0
  6
CONTINUOUS
 62
     7
 10
150.718887329102
 20
-27.968376159668
 30
0.0
 11
147.764464051895
 21
-27.4474317297163
 31
0.0
  0
ENDBLK
  5
    B0
  8
0
  6
CONTINUOUS
 62
     7
  0
BLOCK
  5
    B1
  8
0
  6
CONTINUOUS
 62
     7
  2
*HATCH107
 70
    65
 10
0.0
 20
0.0
 30
0.0
  3
*HATCH107
  0
LINE
  5
    B2
  8
0
  6
CONTINUOUS
 62
    52
 10
-11.7279224395752
 20
1.0
 30
0.0
 11
-11.9763488769531
 21
0.75157368183136
 31
0.0
  0
LINE
  5
    B3
  8
0
  6
CONTINUOUS
 62
    52
 10
-9.60660171508789
 20
1.0
 30
0.0
 11
-11.6066026687622
 21
-1.0
 31
0.0
  0
LINE
  5
    B4
  8
0
  6
CONTINUOUS
 62
    52
 10
-7.48528146743774
 20
1.0
 30
0.0
 11
-9.48528289794922
 21
-1.0
 31
0.0
  0
LINE
  5
    B5
  8
0
  6
CONTINUOUS
 62
    52
 10
-5.3639612197876
 20
1.0
 30
0.0
 11
-7.36396265029907
 21
-1.0
 31
0.0
  0
LINE
  5
    B6
  8
0
  6
CONTINUOUS
 62
    52
 10
-3.47947335243225
 20
0.763167560100555
 30
0.0
 11
-5.24264097213745
 21
-1.0
 31
0.0
  0
LINE
  5
    B7
  8
0
  6
CONTINUOUS
 62
    52
 10
-2.51160907745361
 20
-0.390288293361664
 30
0.0
 11
-3.1213207244873
 21
-1.0
 31
0.0
  0
ENDBLK
  5
    B8
  8
0
  6
CONTINUOUS
 62
     7
  0
BLOCK
  5
    B9
  8
0
  6
CONTINUOUS
 62
     7
  2
*HATCH108
 70
    65
 10
0.0
 20
0.0
 30
0.0
  3
*HATCH108
  0
LINE
  5
    BA
  8
0
  6
CONTINUOUS
 62
    52
 10
5.24264097213745
 20
1.0
 30
0.0
 11
3.24264073371887
 21
-1.0
 31
0.0
  0
LINE
  5
    BB
  8
0
  6
CONTINUOUS
 62
    52
 10
7.3639612197876
 20
1.0
 30
0.0
 11
5.3639612197876
 21
-1.0
 31
0.0
  0
LINE
  5
    BC
  8
0
  6
CONTINUOUS
 62
    52
 10
9.48528099060059
 20
1.0
 30
0.0
 11
7.4852819442749
 21
-1.0
 31
0.0
  0
ENDBLK
  5
    BD
  8
0
  6
CONTINUOUS
 62
     7
  0
BLOCK
  5
    BE
  8
0
  6
CONTINUOUS
 62
     7
  2
*UDIM591
 70
    65
 10
0.0
 20
0.0
 30
0.0
  3
*UDIM591
  0
TEXT
  5
    BF
  8
0
  6
CONTINUOUS
 62
     7
 10
84.8146438619129
 20
-67.1610999097969
 30
0.0
 40
3.00000002980232
  1
80
 50
449.160629333818
 41
0.933333333333333
 72
     1
 11
83.3514279509669
 21
-64.6393942634467
 31
0.0
 73
     2
  0
TEXT
  5
    C0
  8
0
  6
CONTINUOUS
 62
     7
 10
84.2879545193439
 20
-62.1528468375449
 30
0.0
 40
3.00000002980232
  1
°
 50
449.160629333818
 41
0.933333333333334
 72
     1
 11
82.8042296473362
 21
-61.0309909765138
 31
0.0
 73
     2
  0
LINE
  5
    C1
  8
0
  6
CONTINUOUS
 62
     7
 10
69.7488248996619
 20
-67.5855284980177
 30
0.0
 11
82.4253442846974
 21
-78.2223912386126
 31
0.0
  0
LINE
  5
    C2
  8
0
  6
CONTINUOUS
 62
     7
 10
69.7488248996619
 20
-58.9435547539355
 30
0.0
 11
82.4253442846974
 21
-48.3066920133406
 31
0.0
  0
ARC
  5
    C3
  8
0
  6
CONTINUOUS
 62
     7
 10
64.5992732713546
 20
-63.2645416259766
 30
0.0
 40
21.2702830409726
 50
319.999999815233
 51
399.999999769042
  0
LINE
  5
    C4
  8
0
  6
CONTINUOUS
 62
     7
 10
82.3932554890794
 20
-74.3387398602056
 30
0.0
 11
80.8932553984595
 21
-76.9368160192395
 31
0.0
  0
LINE
  5
    C5
  8
0
  6
CONTINUOUS
 62
     7
 10
80.8932553984595
 20
-76.9368160192395
 30
0.0
 11
83.1913886605559
 21
-75.0084531100219
 31
0.0
  0
LINE
  5
    C6
  8
0
  6
CONTINUOUS
 62
     7
 10
83.1913886605559
 20
-51.5206301419312
 30
0.0
 11
80.8932553984595
 21
-49.5922672327136
 31
0.0
  0
LINE
  5
    C7
  8
0
  6
CONTINUOUS
 62
     7
 10
80.8932553984595
 20
-49.5922672327136
 30
0.0
 11
82.3932554890794
 21
-52.1903433917475
 31
0.0
  0
ENDBLK
  5
    C8
  8
0
  6
CONTINUOUS
 62
     7
  0
BLOCK
  5
    C9
  8
0
  6
CONTINUOUS
 62
     7
  2
*UDIM592
 70
    65
 10
0.0
 20
0.0
 30
0.0
  3
*UDIM592
  0
TEXT
  5
    CA
  8
0
  6
CONTINUOUS
 62
     7
 10
46.5371131829107
 20
-57.3794746687998
 30
0.0
 40
3.00000002980232
  1
Ø4
 50
449.999999844103
 41
0.933333333333333
 72
     1
 11
45.0371131747961
 21
-54.8794746398926
 31
0.0
 73
     2
  0
LINE
  5
    CB
  8
0
  6
CONTINUOUS
 62
     7
 10
65.982780456543
 20
-61.2645416259766
 30
0.0
 11
45.5371131896973
 21
-61.2645416259766
 31
0.0
  0
LINE
  5
    CC
  8
0
  6
CONTINUOUS
 62
     7
 10
65.982780456543
 20
-65.2645416259766
 30
0.0
 11
45.5371131896973
 21
-65.2645416259766
 31
0.0
  0
LINE
  5
    CD
  8
0
  6
CONTINUOUS
 62
     7
 10
47.5371131896973
 20
-52.3794746150573
 30
0.0
 11
47.5371131896973
 21
-65.2645416259766
 31
0.0
  0
LINE
  5
    CE
  8
0
  6
CONTINUOUS
 62
     7
 10
47.0161687597456
 20
-58.3101183487696
 30
0.0
 11
47.5371131896973
 21
-61.2645416259766
 31
0.0
  0
LINE
  5
    CF
  8
0
  6
CONTINUOUS
 62
     7
 10
47.5371131896973
 20
-61.2645416259766
 30
0.0
 11
48.0580576196489
 21
-58.3101183487696
 31
0.0
  0
LINE
  5
    D0
  8
0
  6
CONTINUOUS
 62
     7
 10
48.0580576196489
 20
-68.2189649031835
 30
0.0
 11
47.5371131896973
 21
-65.2645416259766
 31
0.0
  0
LINE
  5
    D1
  8
0
  6
CONTINUOUS
 62
     7
 10
47.5371131896973
 20
-65.2645416259766
 30
0.0
 11
47.0161687597456
 21
-68.2189649031835
 31
0.0
  0
ENDBLK
  5
    D2
  8
0
  6
CONTINUOUS
 62
     7
  0
BLOCK
  5
    D3
  8
0
  6
CONTINUOUS
 62
     7
  2
*HATCH109
 70
    65
 10
0.0
 20
0.0
 30
0.0
  3
*HATCH109
  0
LINE
  5
    D4
  8
0
  6
CONTINUOUS
 62
    52
 10
187.992431640625
 20
39.5
 30
0.0
 11
185.992431640625
 21
37.5
 31
0.0
  0
LINE
  5
    D5
  8
0
  6
CONTINUOUS
 62
    52
 10
192.235076904297
 20
39.5
 30
0.0
 11
190.235076904297
 21
37.5
 31
0.0
  0
LINE
  5
    D6
  8
0
  6
CONTINUOUS
 62
    52
 10
196.477722167969
 20
39.5
 30
0.0
 11
194.477722167969
 21
37.5
 31
0.0
  0
LINE
  5
    D7
  8
0
  6
CONTINUOUS
 62
    52
 10
200.720367431641
 20
39.5
 30
0.0
 11
198.720367431641
 21
37.5
 31
0.0
  0
LINE
  5
    D8
  8
0
  6
CONTINUOUS
 62
    52
 10
204.963012695313
 20
39.5
 30
0.0
 11
202.963012695313
 21
37.5
 31
0.0
  0
LINE
  5
    D9
  8
0
  6
CONTINUOUS
 62
    52
 10
209.205657958984
 20
39.5
 30
0.0
 11
207.205657958984
 21
37.5
 31
0.0
  0
LINE
  5
    DA
  8
0
  6
CONTINUOUS
 62
    52
 10
213.448303222656
 20
39.5
 30
0.0
 11
211.448303222656
 21
37.5
 31
0.0
  0
LINE
  5
    DB
  8
0
  6
CONTINUOUS
 62
    52
 10
217.690948486328
 20
39.5
 30
0.0
 11
215.690948486328
 21
37.5
 31
0.0
  0
LINE
  5
    DC
  8
0
  6
CONTINUOUS
 62
    52
 10
221.93359375
 20
39.5
 30
0.0
 11
219.93359375
 21
37.5
 31
0.0
  0
LINE
  5
    DD
  8
0
  6
CONTINUOUS
 62
    52
 10
226.176239013672
 20
39.5
 30
0.0
 11
224.176239013672
 21
37.5
 31
0.0
  0
LINE
  5
    DE
  8
0
  6
CONTINUOUS
 62
    52
 10
229.369522094727
 20
38.4506874084473
 30
0.0
 11
228.418838500977
 21
37.5
 31
0.0
  0
ENDBLK
  5
    DF
  8
0
  6
CONTINUOUS
 62
     7
  0
BLOCK
  5
    E0
  8
0
  6
CONTINUOUS
 62
     7
  2
*HATCH110
 70
    65
 10
0.0
 20
0.0
 30
0.0
  3
*HATCH110
  0
LINE
  5
    E1
  8
0
  6
CONTINUOUS
 62
    52
 10
115.867530822754
 20
39.4999961853027
 30
0.0
 11
113.867530822754
 21
37.4999961853027
 31
0.0
  0
LINE
  5
    E2
  8
0
  6
CONTINUOUS
 62
    52
 10
120.110176086426
 20
39.4999961853027
 30
0.0
 11
118.110176086426
 21
37.4999961853027
 31
0.0
  0
LINE
  5
    E3
  8
0
  6
CONTINUOUS
 62
    52
 10
124.352821350098
 20
39.4999961853027
 30
0.0
 11
122.352821350098
 21
37.4999961853027
 31
0.0
  0
LINE
  5
    E4
  8
0
  6
CONTINUOUS
 62
    52
 10
128.595458984375
 20
39.4999961853027
 30
0.0
 11
126.59546661377
 21
37.4999961853027
 31
0.0
  0
LINE
  5
    E5
  8
0
  6
CONTINUOUS
 62
    52
 10
132.838104248047
 20
39.4999961853027
 30
0.0
 11
130.838104248047
 21
37.4999961853027
 31
0.0
  0
LINE
  5
    E6
  8
0
  6
CONTINUOUS
 62
    52
 10
137.080749511719
 20
39.4999961853027
 30
0.0
 11
135.080749511719
 21
37.4999961853027
 31
0.0
  0
LINE
  5
    E7
  8
0
  6
CONTINUOUS
 62
    52
 10
141.323394775391
 20
39.4999961853027
 30
0.0
 11
139.323394775391
 21
37.4999961853027
 31
0.0
  0
LINE
  5
    E8
  8
0
  6
CONTINUOUS
 62
    52
 10
145.566040039063
 20
39.4999961853027
 30
0.0
 11
143.566040039063
 21
37.4999961853027
 31
0.0
  0
LINE
  5
    E9
  8
0
  6
CONTINUOUS
 62
    52
 10
149.808685302734
 20
39.4999961853027
 30
0.0
 11
147.808685302734
 21
37.4999961853027
 31
0.0
  0
LINE
  5
    EA
  8
0
  6
CONTINUOUS
 62
    52
 10
154.051330566406
 20
39.4999961853027
 30
0.0
 11
152.051330566406
 21
37.4999961853027
 31
0.0
  0
LINE
  5
    EB
  8
0
  6
CONTINUOUS
 62
    52
 10
158.293975830078
 20
39.4999961853027
 30
0.0
 11
156.293975830078
 21
37.4999961853027
 31
0.0
  0
LINE
  5
    EC
  8
0
  6
CONTINUOUS
 62
    52
 10
162.53662109375
 20
39.4999961853027
 30
0.0
 11
160.53662109375
 21
37.4999961853027
 31
0.0
  0
LINE
  5
    ED
  8
0
  6
CONTINUOUS
 62
    52
 10
166.779266357422
 20
39.4999961853027
 30
0.0
 11
164.779266357422
 21
37.4999961853027
 31
0.0
  0
LINE
  5
    EE
  8
0
  6
CONTINUOUS
 62
    52
 10
171.021911621094
 20
39.4999961853027
 30
0.0
 11
169.021911621094
 21
37.4999961853027
 31
0.0
  0
LINE
  5
    EF
  8
0
  6
CONTINUOUS
 62
    52
 10
175.264556884766
 20
39.4999961853027
 30
0.0
 11
173.264556884766
 21
37.4999961853027
 31
0.0
  0
ENDBLK
  5
    F0
  8
0
  6
CONTINUOUS
 62
     7
  0
BLOCK
  5
    F1
  8
0
  6
CONTINUOUS
 62
     7
  2
*HATCH111
 70
    65
 10
0.0
 20
0.0
 30
0.0
  3
*HATCH111
  0
LINE
  5
    F2
  8
0
  6
CONTINUOUS
 62
    52
 10
92.5330123901367
 20
39.4999961853027
 30
0.0
 11
90.5330123901367
 21
37.4999961853027
 31
0.0
  0
LINE
  5
    F3
  8
0
  6
CONTINUOUS
 62
    52
 10
96.7756576538086
 20
39.4999961853027
 30
0.0
 11
94.7756576538086
 21
37.4999961853027
 31
0.0
  0
LINE
  5
    F4
  8
0
  6
CONTINUOUS
 62
    52
 10
101.01830291748
 20
39.4999961853027
 30
0.0
 11
99.0183029174805
 21
37.4999961853027
 31
0.0
  0
LINE
  5
    F5
  8
0
  6
CONTINUOUS
 62
    52
 10
105.260948181152
 20
39.4999961853027
 30
0.0
 11
103.260948181152
 21
37.4999961853027
 31
0.0
  0
ENDBLK
  5
    F6
  8
0
  6
CONTINUOUS
 62
     7
  0
BLOCK
  5
    F7
  8
0
  6
CONTINUOUS
 62
     7
  2
*HATCH112
 70
    65
 10
0.0
 20
0.0
 30
0.0
  3
*HATCH112
  0
LINE
  5
    F8
  8
0
  6
CONTINUOUS
 62
    52
 10
45.8639602661133
 20
39.4999961853027
 30
0.0
 11
43.8639640808105
 21
37.5
 31
0.0
  0
LINE
  5
    F9
  8
0
  6
CONTINUOUS
 62
    52
 10
50.1065979003906
 20
39.4999961853027
 30
0.0
 11
48.1066017150879
 21
37.5
 31
0.0
  0
LINE
  5
    FA
  8
0
  6
CONTINUOUS
 62
    52
 10
54.349235534668
 20
39.4999961853027
 30
0.0
 11
52.3492393493652
 21
37.5
 31
0.0
  0
LINE
  5
    FB
  8
0
  6
CONTINUOUS
 62
    52
 10
58.5918731689453
 20
39.4999961853027
 30
0.0
 11
56.5918769836426
 21
37.5
 31
0.0
  0
LINE
  5
    FC
  8
0
  6
CONTINUOUS
 62
    52
 10
62.8345108032227
 20
39.4999961853027
 30
0.0
 11
60.8345146179199
 21
37.5
 31
0.0
  0
LINE
  5
    FD
  8
0
  6
CONTINUOUS
 62
    52
 10
67.0771560668945
 20
39.4999961853027
 30
0.0
 11
65.0771560668945
 21
37.5
 31
0.0
  0
LINE
  5
    FE
  8
0
  6
CONTINUOUS
 62
    52
 10
71.3198013305664
 20
39.4999961853027
 30
0.0
 11
69.3198013305664
 21
37.5
 31
0.0
  0
LINE
  5
    FF
  8
0
  6
CONTINUOUS
 62
    52
 10
75.2370758056641
 20
39.1746253967285
 30
0.0
 11
73.5624465942383
 21
37.4999961853027
 31
0.0
  0
ENDBLK
  5
   100
  8
0
  6
CONTINUOUS
 62
     7
  0
BLOCK
  5
   101
  8
0
  6
CONTINUOUS
 62
     7
  2
*HATCH113
 70
    65
 10
0.0
 20
0.0
 30
0.0
  3
*HATCH113
  0
LINE
  5
   102
  8
0
  6
CONTINUOUS
 62
    52
 10
-34.7462120056152
 20
39.5
 30
0.0
 11
-36.7462120056152
 21
37.5
 31
0.0
  0
LINE
  5
   103
  8
0
  6
CONTINUOUS
 62
    52
 10
-30.5035724639893
 20
39.5
 30
0.0
 11
-32.5035743713379
 21
37.5
 31
0.0
  0
LINE
  5
   104
  8
0
  6
CONTINUOUS
 62
    52
 10
-26.2609310150147
 20
39.5
 30
0.0
 11
-28.2609329223633
 21
37.5
 31
0.0
  0
LINE
  5
   105
  8
0
  6
CONTINUOUS
 62
    52
 10
-22.01828956604
 20
39.5
 30
0.0
 11
-24.0182914733887
 21
37.5
 31
0.0
  0
LINE
  5
   106
  8
0
  6
CONTINUOUS
 62
    52
 10
-17.7756481170654
 20
39.5
 30
0.0
 11
-19.7756500244141
 21
37.5
 31
0.0
  0
LINE
  5
   107
  8
0
  6
CONTINUOUS
 62
    52
 10
-13.5330066680908
 20
39.5
 30
0.0
 11
-15.5330085754395
 21
37.5
 31
0.0
  0
LINE
  5
   108
  8
0
  6
CONTINUOUS
 62
    52
 10
-9.29036521911621
 20
39.5
 30
0.0
 11
-11.2903671264648
 21
37.5
 31
0.0
  0
LINE
  5
   109
  8
0
  6
CONTINUOUS
 62
    52
 10
-5.0477237701416
 20
39.5
 30
0.0
 11
-7.04772567749023
 21
37.5
 31
0.0
  0
LINE
  5
   10A
  8
0
  6
CONTINUOUS
 62
    52
 10
-0.80508279800415
 20
39.5
 30
0.0
 11
-2.8050844669342
 21
37.5
 31
0.0
  0
LINE
  5
   10B
  8
0
  6
CONTINUOUS
 62
    52
 10
3.4375581741333
 20
39.5
 30
0.0
 11
1.43755650520325
 21
37.5
 31
0.0
  0
LINE
  5
   10C
  8
0
  6
CONTINUOUS
 62
    52
 10
7.68019962310791
 20
39.5
 30
0.0
 11
5.68019771575928
 21
37.5
 31
0.0
  0
LINE
  5
   10D
  8
0
  6
CONTINUOUS
 62
    52
 10
11.9228410720825
 20
39.5
 30
0.0
 11
9.92283916473389
 21
37.5
 31
0.0
  0
LINE
  5
   10E
  8
0
  6
CONTINUOUS
 62
    52
 10
16.1654815673828
 20
39.5
 30
0.0
 11
14.1654806137085
 21
37.5
 31
0.0
  0
LINE
  5
   10F
  8
0
  6
CONTINUOUS
 62
    52
 10
20.4081230163574
 20
39.5
 30
0.0
 11
18.4081211090088
 21
37.5
 31
0.0
  0
LINE
  5
   110
  8
0
  6
CONTINUOUS
 62
    52
 10
24.650764465332
 20
39.5
 30
0.0
 11
22.6507625579834
 21
37.5
 31
0.0
  0
LINE
  5
   111
  8
0
  6
CONTINUOUS
 62
    52
 10
28.8934059143066
 20
39.5
 30
0.0
 11
26.893404006958
 21
37.5
 31
0.0
  0
LINE
  5
   112
  8
0
  6
CONTINUOUS
 62
    52
 10
33.1360473632813
 20
39.5
 30
0.0
 11
31.1360454559326
 21
37.5
 31
0.0
  0
LINE
  5
   113
  8
0
  6
CONTINUOUS
 62
    52
 10
35.486873626709
 20
37.6081924438477
 30
0.0
 11
35.3786811828613
 21
37.5
 31
0.0
  0
ENDBLK
  5
   114
  8
0
  6
CONTINUOUS
 62
     7
  0
BLOCK
  5
   115
  8
0
  6
CONTINUOUS
 62
     7
  2
*HATCH114
 70
    65
 10
0.0
 20
0.0
 30
0.0
  3
*HATCH114
  0
LINE
  5
   116
  8
0
  6
CONTINUOUS
 62
    52
 10
166.264526367187
 20
30.5000076293945
 30
0.0
 11
163.987060546875
 21
28.2225513458252
 31
0.0
  0
LINE
  5
   117
  8
0
  6
CONTINUOUS
 62
    52
 10
170.50715637207
 20
30.5000076293945
 30
0.0
 11
168.00715637207
 21
28.0000019073486
 31
0.0
  0
LINE
  5
   118
  8
0
  6
CONTINUOUS
 62
    52
 10
172.987060546875
 20
28.7372703552246
 30
0.0
 11
172.249786376953
 21
28.0000019073486
 31
0.0
  0
ENDBLK
  5
   119
  8
0
  6
CONTINUOUS
 62
     7
  0
BLOCK
  5
   11A
  8
0
  6
CONTINUOUS
 62
     7
  2
S4L
 70
    64
 10
0.0
 20
0.0
 30
0.0
  3
S4L
  0
POINT
  5
   11B
  8
0
  6
CONTINUOUS
 62
     7
 10
-152.499938964844
 20
109.987079467738
 30
0.0
  0
LINE
  5
   11C
  8
0
  6
DASHDOT
 62
     7
 10
-111.15248958829
 20
304.738810768127
 30
0.0
 11
-87.7804343830625
 21
304.738810768127
 31
0.0
  0
LINE
  5
   11D
  8
0
  6
CONTINUOUS
 62
   130
 10
-100.999938964895
 20
285.937058448792
 30
0.0
 11
-96.9999389648953
 21
285.937058448792
 31
0.0
  0
LINE
  5
   11E
  8
0
  6
CONTINUOUS
 62
   130
 10
-100.999938964895
 20
307.937058448792
 30
0.0
 11
-96.9999389648953
 21
307.937058448792
 31
0.0
  0
LINE
  5
   11F
  8
0
  6
CONTINUOUS
 62
   130
 10
-96.9999389648953
 20
285.937058448792
 30
0.0
 11
-96.9999389648953
 21
307.937058448792
 31
0.0
  0
LINE
  5
   120
  8
0
  6
CONTINUOUS
 62
   130
 10
-102.999938964844
 20
300.300563087463
 30
0.0
 11
-102.999938964844
 21
309.177058448792
 31
0.0
  0
LINE
  5
   121
  8
0
  6
CONTINUOUS
 62
   130
 10
-102.999938964844
 20
309.177058448792
 30
0.0
 11
-100.999938964895
 21
309.177058448792
 31
0.0
  0
LINE
  5
   122
  8
0
  6
CONTINUOUS
 62
   130
 10
-102.999938964895
 20
300.300563087463
 30
0.0
 11
-100.999938964895
 21
300.300563087463
 31
0.0
  0
LINE
  5
   123
  8
0
  6
CONTINUOUS
 62
     7
 10
-98.4999389648438
 20
185.237079467738
 30
0.0
 11
-98.4999389648438
 21
188.236999511719
 31
0.0
  0
LINE
  5
   124
  8
0
  6
CONTINUOUS
 62
     7
 10
-100.999969482422
 20
188.236999511719
 30
0.0
 11
-98.4999389648438
 21
188.236999511719
 31
0.0
  0
LINE
  5
   125
  8
0
  6
CONTINUOUS
 62
     7
 10
-32.4999847412109
 20
185.237079467738
 30
0.0
 11
-32.4999847412109
 21
192.736999511719
 31
0.0
  0
LINE
  5
   126
  8
0
  6
CONTINUOUS
 62
     2
 10
-101.000030518042
 20
192.236999511719
 30
0.0
 11
-101.000030518042
 21
212.851623535156
 31
0.0
  0
LINE
  5
   127
  8
0
  6
CONTINUOUS
 62
     7
 10
-32.4999694824219
 20
210.236999511719
 30
0.0
 11
-28.9999694824219
 21
210.236999511719
 31
0.0
  0
LINE
  5
   128
  8
0
  6
CONTINUOUS
 62
     7
 10
-32.5000762946555
 20
192.736990792505
 30
0.0
 11
-32.5000762946555
 21
210.236990792505
 31
0.0
  0
LINE
  5
   129
  8
0
  6
CONTINUOUS
 62
     7
 10
-100.999969482422
 20
194.736999511719
 30
0.0
 11
-96.9999694824219
 21
194.736999511719
 31
0.0
  0
LINE
  5
   12A
  8
0
  6
CONTINUOUS
 62
     7
 10
-96.9999669396566
 20
194.736986814046
 30
0.0
 11
-96.9999287926608
 21
209.736999509477
 31
0.0
  0
LINE
  5
   12B
  8
0
  6
CONTINUOUS
 62
     2
 10
-101.499938964844
 20
192.236999511719
 30
0.0
 11
-100.999969482422
 21
192.236999511719
 31
0.0
  0
LINE
  5
   12C
  8
0
  6
CONTINUOUS
 62
     2
 10
-101.499938964844
 20
185.237079467738
 30
0.0
 11
-101.499938964844
 21
192.23698425293
 31
0.0
  0
LINE
  5
   12D
  8
0
  6
CONTINUOUS
 62
     7
 10
-99.9999389648438
 20
185.237079467738
 30
0.0
 11
-99.9999389648438
 21
188.236999511719
 31
0.0
  0
LINE
  5
   12E
  8
0
  6
CONTINUOUS
 62
     2
 10
-102.999938964844
 20
208.236999511719
 30
0.0
 11
-100.999938964844
 21
208.236999511719
 31
0.0
  0
LINE
  5
   12F
  8
0
  6
CONTINUOUS
 62
     2
 10
-102.999938964844
 20
219.236999511719
 30
0.0
 11
-100.999938964844
 21
219.236999511719
 31
0.0
  0
LINE
  5
   130
  8
0
  6
CONTINUOUS
 62
     2
 10
-102.999938964844
 20
216.548645019531
 30
0.0
 11
-100.999938964844
 21
216.548645019531
 31
0.0
  0
LINE
  5
   131
  8
0
  6
CONTINUOUS
 62
     2
 10
-102.999938964844
 20
212.851623535156
 30
0.0
 11
-100.999938964844
 21
212.851623535156
 31
0.0
  0
LINE
  5
   132
  8
0
  6
CONTINUOUS
 62
     7
 10
-32.0000000000011
 20
185.237079467738
 30
0.0
 11
-32.0000000000011
 21
195.237041110802
 31
0.0
  0
LINE
  5
   133
  8
0
  6
CONTINUOUS
 62
     7
 10
-4.49996948242188
 20
210.737033691371
 30
0.0
 11
-4.49996948242188
 21
211.237033691371
 31
0.0
  0
LINE
  5
   134
  8
0
  6
CONTINUOUS
 62
     7
 10
-28.9999694824219
 20
209.737018432582
 30
0.0
 11
-28.9999694824219
 21
210.737033691371
 31
0.0
  0
LINE
  5
   135
  8
0
  6
CONTINUOUS
 62
     7
 10
-6.79997253417969
 20
210.737033691371
 30
0.0
 11
-6.49996948242188
 21
210.737033691371
 31
0.0
  0
LINE
  5
   136
  8
0
  6
CONTINUOUS
 62
     7
 10
-31.9999694824219
 20
209.73704895016
 30
0.0
 11
-28.9999694824219
 21
209.73704895016
 31
0.0
  0
LINE
  5
   137
  8
0
  6
CONTINUOUS
 62
     7
 10
-31.9999694824219
 20
195.23704895016
 30
0.0
 11
-31.9999694824219
 21
209.73704895016
 31
0.0
  0
LINE
  5
   138
  8
0
  6
CONTINUOUS
 62
     7
 10
-6.80000305175929
 20
185.237079467738
 30
0.0
 11
-6.80000305175929
 21
210.737021178586
 31
0.0
  0
LINE
  5
   139
  8
0
  6
CONTINUOUS
 62
     7
 10
-101.000030518042
 20
232.437045898402
 30
0.0
 11
-6.79995727539063
 21
232.437045898402
 31
0.0
  0
LINE
  5
   13A
  8
0
  6
CONTINUOUS
 62
     7
 10
-6.80006408692725
 20
210.737026800405
 30
0.0
 11
-6.80006408692725
 21
232.437039007436
 31
0.0
  0
LINE
  5
   13B
  8
0
  6
CONTINUOUS
 62
     7
 10
-28.9999694824219
 20
210.73704895016
 30
0.0
 11
-28.9999694824219
 21
235.237045288086
 31
0.0
  0
LINE
  5
   13C
  8
0
  6
CONTINUOUS
 62
     7
 10
-6.49995422363281
 20
41.2371099853163
 30
0.0
 11
-6.49995422363281
 21
45.2370794677381
 31
0.0
  0
LINE
  5
   13D
  8
0
  6
CONTINUOUS
 62
     7
 10
-1.49995422363281
 20
41.2371099853163
 30
0.0
 11
-1.49995422363281
 21
45.2370794677381
 31
0.0
  0
LINE
  5
   13E
  8
0
  6
CONTINUOUS
 62
     7
 10
-1.49995422363281
 20
185.237079467738
 30
0.0
 11
-1.49995422363281
 21
210.737079467738
 31
0.0
  0
LINE
  5
   13F
  8
0
  6
CONTINUOUS
 62
     7
 10
-6.49995422363281
 20
210.737079467738
 30
0.0
 11
-1.49995422363281
 21
210.737079467738
 31
0.0
  0
LINE
  5
   140
  8
0
  6
CONTINUOUS
 62
     7
 10
-6.49995422363281
 20
41.2371099853163
 30
0.0
 11
-1.49995422363281
 21
41.2371099853163
 31
0.0
  0
LINE
  5
   141
  8
0
  6
CONTINUOUS
 62
   218
 10
-6.79995021933915
 20
9.23709472563121
 30
0.0
 11
-6.49995422441275
 21
9.23709824683482
 31
0.0
  0
LINE
  5
   142
  8
0
  6
CONTINUOUS
 62
   218
 10
-6.79994201660156
 20
9.23710998531578
 30
0.0
 11
-6.79994201660156
 21
45.2370794677381
 31
0.0
  0
LINE
  5
   143
  8
0
  6
CONTINUOUS
 62
     7
 10
-6.79994201660168
 20
40.2371099853158
 30
0.0
 11
-6.49995422363281
 21
40.2371099853158
 31
0.0
  0
LINE
  5
   144
  8
0
  6
CONTINUOUS
 62
   218
 10
-102.999938964927
 20
15.2370947275163
 30
0.0
 11
-100.999939918647
 21
15.2371099863053
 31
0.0
  0
LINE
  5
   145
  8
0
  6
CONTINUOUS
 62
     7
 10
-6.49995422363281
 20
40.7371099853163
 30
0.0
 11
-1.49995422363281
 21
40.7371099853163
 31
0.0
  0
LINE
  5
   146
  8
0
  6
CONTINUOUS
 62
     7
 10
-6.49995422363293
 20
5.73710998531627
 30
0.0
 11
-1.49995422363281
 21
5.73710998531627
 31
0.0
  0
LINE
  5
   147
  8
0
  6
CONTINUOUS
 62
     7
 10
-1.49995422363281
 20
5.73710998531627
 30
0.0
 11
-1.49995422363281
 21
40.7371099853163
 31
0.0
  0
LINE
  5
   148
  8
0
  6
CONTINUOUS
 62
     7
 10
-3.49995422363281
 20
5.73710998531627
 30
0.0
 11
-3.49995422363281
 21
40.7371099853163
 31
0.0
  0
LINE
  5
   149
  8
0
  6
CONTINUOUS
 62
     7
 10
-6.49995422363281
 20
5.73710998531627
 30
0.0
 11
-6.49995422363281
 21
40.7371099853163
 31
0.0
  0
LINE
  5
   14A
  8
0
  6
CONTINUOUS
 62
     2
 10
-101.000030518042
 20
216.548645019531
 30
0.0
 11
-101.000030518042
 21
235.237044211007
 31
0.0
  0
LINE
  5
   14B
  8
0
  6
CONTINUOUS
 62
     7
 10
-100.999969482422
 20
209.736999511719
 30
0.0
 11
-96.9999694824219
 21
209.736999511719
 31
0.0
  0
LINE
  5
   14C
  8
0
  6
CONTINUOUS
 62
   130
 10
-28.9999389648953
 20
303.437045077064
 30
0.0
 11
-28.9999389648953
 21
317.737058659814
 31
0.0
  0
LINE
  5
   14D
  8
0
  6
CONTINUOUS
 62
   130
 10
-28.9999389648953
 20
232.737045288086
 30
0.0
 11
-28.9999389648953
 21
236.437304476478
 31
0.0
  0
LINE
  5
   14E
  8
0
  6
CONTINUOUS
 62
   130
 10
-100.999938964895
 20
232.737045288086
 30
0.0
 11
-100.999938964895
 21
322.737058659814
 31
0.0
  0
LINE
  5
   14F
  8
0
  6
CONTINUOUS
 62
   130
 10
-32.4999389648953
 20
296.437045077064
 30
0.0
 11
-32.3999404907742
 21
296.437045077064
 31
0.0
  0
LINE
  5
   150
  8
0
  6
CONTINUOUS
 62
   130
 10
-32.4999389648953
 20
303.437045077064
 30
0.0
 11
-28.9999389648953
 21
303.437045077064
 31
0.0
  0
LINE
  5
   151
  8
0
  6
CONTINUOUS
 62
   130
 10
-32.4999389648953
 20
236.437136629798
 30
0.0
 11
-28.9999389648953
 21
236.437136629798
 31
0.0
  0
LINE
  5
   152
  8
0
  6
CONTINUOUS
 62
   130
 10
-32.4999389648953
 20
243.437136629798
 30
0.0
 11
-32.3999404907742
 21
243.437136629798
 31
0.0
  0
LINE
  5
   153
  8
0
  6
CONTINUOUS
 62
   130
 10
-32.4999389648953
 20
236.437136629798
 30
0.0
 11
-32.4999389648953
 21
303.437045077064
 31
0.0
  0
LINE
  5
   154
  8
0
  6
CONTINUOUS
 62
   210
 10
-28.5533816501893
 20
317.137042025306
 30
0.0
 11
-6.79994201665312
 21
317.137042025306
 31
0.0
  0
LINE
  5
   155
  8
0
  6
CONTINUOUS
 62
   210
 10
-28.9999389648953
 20
236.437136629798
 30
0.0
 11
-28.9999389648953
 21
236.687045077064
 31
0.0
  0
LINE
  5
   156
  8
0
  6
CONTINUOUS
 62
   210
 10
-28.9999389648953
 20
303.187045077064
 30
0.0
 11
-28.9999389648953
 21
303.437045077064
 31
0.0
  0
LINE
  5
   157
  8
0
  6
CONTINUOUS
 62
   210
 10
-6.79994201665312
 20
243.687045077064
 30
0.0
 11
-6.49993896489531
 21
243.687045077064
 31
0.0
  0
LINE
  5
   158
  8
0
  6
CONTINUOUS
 62
   210
 10
-6.79994201665312
 20
236.187045077064
 30
0.0
 11
-6.49993896489531
 21
236.187045077064
 31
0.0
  0
LINE
  5
   159
  8
0
  6
CONTINUOUS
 62
   210
 10
-6.79994201665312
 20
234.937045077064
 30
0.0
 11
-6.49993896489531
 21
234.937045077064
 31
0.0
  0
LINE
  5
   15A
  8
0
  6
CONTINUOUS
 62
   210
 10
-6.7999420166531
 20
235.237045288086
 30
0.0
 11
-6.7999420166531
 21
317.137042025306
 31
0.0
  0
LINE
  5
   15B
  8
0
  6
CONTINUOUS
 62
   210
 10
-31.8999404907742
 20
236.687045077064
 30
0.0
 11
-28.9999389648953
 21
236.687045077064
 31
0.0
  0
LINE
  5
   15C
  8
0
  6
CONTINUOUS
 62
   210
 10
-32.2534924875965
 20
236.833503275768
 30
0.0
 11
-31.8999387088201
 21
236.687049417587
 31
0.0
  0
LINE
  5
   15D
  8
0
  6
CONTINUOUS
 62
   210
 10
-32.3999415113775
 20
237.18703008755
 30
0.0
 11
-32.253495283134
 21
236.833483953951
 31
0.0
  0
LINE
  5
   15E
  8
0
  6
CONTINUOUS
 62
   210
 10
-32.3999404907742
 20
237.187045077064
 30
0.0
 11
-32.3999404907742
 21
242.687045077064
 31
0.0
  0
LINE
  5
   15F
  8
0
  6
CONTINUOUS
 62
   210
 10
-32.3999404907742
 20
297.187045077064
 30
0.0
 11
-32.3999404907742
 21
302.687045077064
 31
0.0
  0
LINE
  5
   160
  8
0
  6
CONTINUOUS
 62
   210
 10
-32.3999489093436
 20
302.687021334588
 30
0.0
 11
-32.2535026811001
 21
303.040567468187
 31
0.0
  0
LINE
  5
   161
  8
0
  6
CONTINUOUS
 62
   210
 10
-32.2534888300057
 20
303.040598738332
 30
0.0
 11
-31.8999350512293
 21
303.187052596513
 31
0.0
  0
LINE
  5
   162
  8
0
  6
CONTINUOUS
 62
   210
 10
-31.8999404907742
 20
303.187045077064
 30
0.0
 11
-28.9999389648953
 21
303.187045077064
 31
0.0
  0
LINE
  5
   163
  8
0
  6
CONTINUOUS
 62
   210
 10
-32.3999404907742
 20
242.687045077064
 30
0.0
 11
-32.3999404907742
 21
297.187045077064
 31
0.0
  0
LINE
  5
   164
  8
0
  6
CONTINUOUS
 62
     7
 10
-6.49993896489528
 20
211.237045077064
 30
0.0
 11
-6.49993896489528
 21
295.737045077064
 31
0.0
  0
LINE
  5
   165
  8
0
  6
CONTINUOUS
 62
     2
 10
-1.49993896489528
 20
212.237045077064
 30
0.0
 11
-1.49993896489528
 21
282.237045077064
 31
0.0
  0
LINE
  5
   166
  8
0
  6
CONTINUOUS
 62
     2
 10
-1.49993896489528
 20
283.237045077064
 30
0.0
 11
-1.49993896489528
 21
295.737045077064
 31
0.0
  0
LINE
  5
   167
  8
0
  6
CONTINUOUS
 62
     7
 10
-6.49993896489531
 20
295.737045077064
 30
0.0
 11
-2.49993896489527
 21
295.737045077064
 31
0.0
  0
LINE
  5
   168
  8
0
  6
CONTINUOUS
 62
     2
 10
-4.49996948242188
 20
211.237045077064
 30
0.0
 11
-2.49993896489531
 21
211.237045077064
 31
0.0
  0
LINE
  5
   169
  8
0
  6
CONTINUOUS
 62
     2
 10
-2.49993896489531
 20
283.237045077064
 30
0.0
 11
-1.49993896489531
 21
283.237045077064
 31
0.0
  0
LINE
  5
   16A
  8
0
  6
CONTINUOUS
 62
     2
 10
-2.49993896489531
 20
282.237045077064
 30
0.0
 11
-1.49993896489531
 21
282.237045077064
 31
0.0
  0
LINE
  5
   16B
  8
0
  6
CONTINUOUS
 62
     2
 10
-2.49993896489528
 20
282.237045077064
 30
0.0
 11
-2.49993896489528
 21
283.237045077064
 31
0.0
  0
LINE
  5
   16C
  8
0
  6
CONTINUOUS
 62
     2
 10
-2.49993896489528
 20
211.237045077064
 30
0.0
 11
-2.49993896489528
 21
212.237045077064
 31
0.0
  0
LINE
  5
   16D
  8
0
  6
CONTINUOUS
 62
     7
 10
-5.99993896489531
 20
212.237045077064
 30
0.0
 11
-2.49993896489531
 21
212.237045077064
 31
0.0
  0
LINE
  5
   16E
  8
0
  6
CONTINUOUS
 62
     7
 10
-5.99993896489528
 20
212.237045077064
 30
0.0
 11
-5.99993896489528
 21
295.737045077064
 31
0.0
  0
LINE
  5
   16F
  8
0
  6
CONTINUOUS
 62
   210
 10
-6.79994423895562
 20
246.687041520393
 30
0.0
 11
-6.49994881351378
 21
246.55508351021
 31
0.0
  0
LINE
  5
   170
  8
0
  6
CONTINUOUS
 62
     7
 10
-6.79993790098638
 20
293.187049820178
 30
0.0
 11
-6.49993484182269
 21
293.319007825213
 31
0.0
  0
LINE
  5
   171
  8
0
  6
CONTINUOUS
 62
     2
 10
-2.49993896489531
 20
212.237045077064
 30
0.0
 11
-1.49993896489531
 21
212.237045077064
 31
0.0
  0
LINE
  5
   172
  8
0
  6
CONTINUOUS
 62
     2
 10
-2.49993896489527
 20
295.737045077064
 30
0.0
 11
-1.49993896489531
 21
295.737045077064
 31
0.0
  0
LINE
  5
   173
  8
0
  6
CONTINUOUS
 62
   130
 10
-100.999938964895
 20
232.737045288086
 30
0.0
 11
-6.49993896489529
 21
232.737045288086
 31
0.0
  0
LINE
  5
   174
  8
0
  6
CONTINUOUS
 62
     7
 10
-6.49993896489531
 20
211.237045077064
 30
0.0
 11
-4.49996948242188
 21
211.237045077064
 31
0.0
  0
LINE
  5
   175
  8
0
  6
CONTINUOUS
 62
     7
 10
-102.999938965292
 20
15.2370947275163
 30
0.0
 11
-100.999939918779
 21
15.2371099863053
 31
0.0
  0
LINE
  5
   176
  8
0
  6
CONTINUOUS
 62
     7
 10
-100.999939918518
 20
-21.2629413401864
 30
0.0
 11
-100.999939918518
 21
15.2371099863053
 31
0.0
  0
LINE
  5
   177
  8
0
  6
CONTINUOUS
 62
   130
 10
-100.999938964895
 20
317.137055397034
 30
0.0
 11
-28.9999389648953
 21
317.137055397034
 31
0.0
  0
LINE
  5
   178
  8
0
  6
CONTINUOUS
 62
   130
 10
-32.4999389648953
 20
296.437058448792
 30
0.0
 11
-32.3999404907742
 21
296.437058448792
 31
0.0
  0
LINE
  5
   179
  8
0
  6
CONTINUOUS
 62
   210
 10
-28.9999389648953
 20
303.187058448792
 30
0.0
 11
-28.9999389648953
 21
303.437058448792
 31
0.0
  0
LINE
  5
   17A
  8
0
  6
CONTINUOUS
 62
   210
 10
-32.3999489093435
 20
302.687034706316
 30
0.0
 11
-32.2535026811001
 21
303.040580839915
 31
0.0
  0
LINE
  5
   17B
  8
0
  6
CONTINUOUS
 62
   210
 10
-32.2534888300057
 20
303.04061211006
 30
0.0
 11
-31.8999350512294
 21
303.187065968241
 31
0.0
  0
LINE
  5
   17C
  8
0
  6
CONTINUOUS
 62
     7
 10
-1.49993896489526
 20
296.737058448792
 30
0.0
 11
-1.49993896489526
 21
321.487058659814
 31
0.0
  0
ARC
  5
   17D
  8
0
  6
CONTINUOUS
 62
     7
 10
-2.74993896489526
 20
321.487058659814
 30
0.0
 40
1.25
 50
0.0
 51
90.0
  0
LINE
  5
   17E
  8
0
  6
CONTINUOUS
 62
     7
 10
-6.49993896489526
 20
295.737058448792
 30
0.0
 11
-6.49993896489526
 21
317.737058659814
 31
0.0
  0
LINE
  5
   17F
  8
0
  6
CONTINUOUS
 62
     7
 10
-100.999938964895
 20
317.737058659814
 30
0.0
 11
-6.49993896489528
 21
317.737058659814
 31
0.0
  0
LINE
  5
   180
  8
0
  6
CONTINUOUS
 62
     7
 10
-100.999938964895
 20
318.237058659814
 30
0.0
 11
-5.99993896489528
 21
318.237058659814
 31
0.0
  0
LINE
  5
   181
  8
0
  6
CONTINUOUS
 62
     7
 10
-5.99993896489526
 20
296.737058448792
 30
0.0
 11
-5.99993896489526
 21
318.237058659814
 31
0.0
  0
LINE
  5
   182
  8
0
  6
CONTINUOUS
 62
     7
 10
-5.99993896489528
 20
296.737058448792
 30
0.0
 11
-2.49993896489528
 21
296.737058448792
 31
0.0
  0
LINE
  5
   183
  8
0
  6
CONTINUOUS
 62
     7
 10
-2.49993896489526
 20
295.743301349477
 30
0.0
 11
-2.49993896489526
 21
296.737058448792
 31
0.0
  0
LINE
  5
   184
  8
0
  6
CONTINUOUS
 62
     7
 10
-100.999938964895
 20
322.737058659814
 30
0.0
 11
-2.74993896489528
 21
322.737058659814
 31
0.0
  0
LINE
  5
   185
  8
0
  6
CONTINUOUS
 62
     7
 10
-2.49993896489528
 20
296.737058448792
 30
0.0
 11
-1.49993896489528
 21
296.737058448792
 31
0.0
  0
LINE
  5
   186
  8
0
  6
CONTINUOUS
 62
     7
 10
-100.999938964895
 20
-21.2629413401864
 30
0.0
 11
-2.74993896489528
 21
-21.2629413401864
 31
0.0
  0
LINE
  5
   187
  8
0
  6
CONTINUOUS
 62
   210
 10
-100.999939918518
 20
-15.662924705679
 30
0.0
 11
-6.79994201665312
 21
-15.662924705679
 31
0.0
  0
LINE
  5
   188
  8
0
  6
CONTINUOUS
 62
     7
 10
-100.999939918518
 20
-16.2629413401864
 30
0.0
 11
-6.49993896489528
 21
-16.2629413401864
 31
0.0
  0
LINE
  5
   189
  8
0
  6
CONTINUOUS
 62
     7
 10
-100.999939918518
 20
-16.7629413401864
 30
0.0
 11
-5.99993896489528
 21
-16.7629413401864
 31
0.0
  0
ARC
  5
   18A
  8
0
  6
CONTINUOUS
 62
     7
 10
-2.74993896489528
 20
-20.0129413401864
 30
0.0
 40
1.25
 50
270.0
 51
360.0
  0
LINE
  5
   18B
  8
0
  6
CONTINUOUS
 62
     7
 10
-1.49993896489526
 20
-20.0129413401864
 30
0.0
 11
-1.49993896489526
 21
4.7370588708356
 31
0.0
  0
LINE
  5
   18C
  8
0
  6
CONTINUOUS
 62
     7
 10
-5.99993896489526
 20
-16.7629413401864
 30
0.0
 11
-5.99993896489526
 21
4.7370588708356
 31
0.0
  0
LINE
  5
   18D
  8
0
  6
CONTINUOUS
 62
     7
 10
-6.49993896489526
 20
-16.2629413401864
 30
0.0
 11
-6.49993896489526
 21
5.7370588708356
 31
0.0
  0
LINE
  5
   18E
  8
0
  6
CONTINUOUS
 62
   210
 10
-6.7999420166531
 20
-15.662924705679
 30
0.0
 11
-6.7999420166531
 21
45.2370794677381
 31
0.0
  0
LINE
  5
   18F
  8
0
  6
CONTINUOUS
 62
     7
 10
-2.49993896489528
 20
4.7370588708356
 30
0.0
 11
-1.49993896489528
 21
4.7370588708356
 31
0.0
  0
LINE
  5
   190
  8
0
  6
CONTINUOUS
 62
     7
 10
-2.49993896489526
 20
4.7370588708356
 30
0.0
 11
-2.49993896489526
 21
5.73081597014993
 31
0.0
  0
LINE
  5
   191
  8
0
  6
CONTINUOUS
 62
     7
 10
-6.49993896489531
 20
5.73707224256322
 30
0.0
 11
-2.49993896489527
 21
5.73707224256322
 31
0.0
  0
LINE
  5
   192
  8
0
  6
CONTINUOUS
 62
     7
 10
-5.99993896489528
 20
4.7370588708356
 30
0.0
 11
-2.49993896489528
 21
4.7370588708356
 31
0.0
  0
LINE
  5
   193
  8
0
  6
CONTINUOUS
 62
     7
 10
-102.999938965292
 20
15.2370947275163
 30
0.0
 11
-102.999938965292
 21
45.2370794677381
 31
0.0
  0
ENDBLK
  5
   194
  8
0
  6
CONTINUOUS
 62
     7
  0
BLOCK
  5
   195
  8
0
  6
CONTINUOUS
 62
     7
  2
SBARRA
 70
    64
 10
0.0
 20
0.0
 30
0.0
  3
SBARRA
  0
LINE
  5
   196
  8
0
  6
CONTINUOUS
 62
     7
 10
26.5001059159648
 20
107.500000002179
 30
0.0
 11
26.5001852131506
 21
175.058668808326
 31
0.0
  0
LINE
  5
   197
  8
0
  6
CONTINUOUS
 62
     7
 10
20.5001059159613
 20
107.5
 30
0.0
 11
20.5001871954688
 21
176.747543585899
 31
0.0
  0
LINE
  5
   198
  8
0
  6
CONTINUOUS
 62
     7
 10
20.5001076765838
 20
108.999994130421
 30
0.0
 11
20.5001276303837
 21
125.999994127583
 31
0.0
  0
LINE
  5
   199
  8
0
  6
CONTINUOUS
 62
     7
 10
20.5001059159613
 20
107.5
 30
0.0
 11
26.5001059159647
 21
107.5
 31
0.0
  0
LINE
  5
   19A
  8
0
  6
CONTINUOUS
 62
     7
 10
18.5001157280214
 20
125.999994131249
 30
0.0
 11
20.5001276303837
 21
125.999994131249
 31
0.0
  0
LINE
  5
   19B
  8
0
  6
CONTINUOUS
 62
     7
 10
18.5001157280214
 20
108.999994131249
 30
0.0
 11
20.5001076765838
 21
108.999994131249
 31
0.0
  0
LINE
  5
   19C
  8
0
  6
CONTINUOUS
 62
     7
 10
18.5001157280214
 20
108.999994131249
 30
0.0
 11
18.5001157280214
 21
125.999994131249
 31
0.0
  0
LINE
  5
   19D
  8
0
  6
CONTINUOUS
 62
     7
 10
31.500127630398
 20
126.000003393245
 30
0.0
 11
33.5001276303966
 21
126.000001045739
 31
0.0
  0
LINE
  5
   19E
  8
0
  6
CONTINUOUS
 62
     7
 10
31.5001076765981
 20
109.000003393257
 30
0.0
 11
33.5001076765968
 21
109.000001045751
 31
0.0
  0
LINE
  5
   19F
  8
0
  6
CONTINUOUS
 62
     7
 10
33.5001076765968
 20
109.00000102933
 30
0.0
 11
33.5001276303966
 21
126.000001032607
 31
0.0
  0
LINE
  5
   1A0
  8
0
  6
CONTINUOUS
 62
     7
 10
26.5001076765981
 20
109.000003385442
 30
0.0
 11
26.500127630398
 21
126.00000338543
 31
0.0
  0
LINE
  5
   1A1
  8
0
  6
CONTINUOUS
 62
     1
 10
18.1001157280214
 20
110.309994131249
 30
0.0
 11
18.1001157280214
 21
124.689994131249
 31
0.0
  0
ARC
  5
   1A2
  8
0
  6
CONTINUOUS
 62
     1
 10
15.7464513489096
 20
112.107494131249
 30
0.0
 40
2.74633562088826
 50
139.1176078909
 51
220.8823921091
  0
ARC
  5
   1A3
  8
0
  6
CONTINUOUS
 62
     1
 10
15.7464513489096
 20
122.892494131249
 30
0.0
 40
2.74633562088826
 50
139.1176078909
 51
220.8823921091
  0
LINE
  5
   1A4
  8
0
  6
CONTINUOUS
 62
     1
 10
13.6169202145588
 20
113.904994131249
 30
0.0
 11
18.1001157280214
 21
113.904994131249
 31
0.0
  0
ARC
  5
   1A5
  8
0
  6
CONTINUOUS
 62
     1
 10
23.7851157280214
 20
117.499994131249
 30
0.0
 40
10.785
 50
160.528779365509
 51
199.471220634491
  0
LINE
  5
   1A6
  8
0
  6
CONTINUOUS
 62
     1
 10
13.6169202145588
 20
121.094994131249
 30
0.0
 11
18.1001157280214
 21
121.094994131249
 31
0.0
  0
LINE
  5
   1A7
  8
0
  6
CONTINUOUS
 62
     1
 10
13.6700715444038
 20
110.309994131249
 30
0.0
 11
18.1001157280214
 21
110.309994131249
 31
0.0
  0
LINE
  5
   1A8
  8
0
  6
CONTINUOUS
 62
     1
 10
13.6700715444038
 20
124.689994131249
 30
0.0
 11
18.1001157280214
 21
124.689994131249
 31
0.0
  0
LINE
  5
   1A9
  8
0
  6
CONTINUOUS
 62
     1
 10
18.1001157280214
 20
111.399994131249
 30
0.0
 11
18.5001157280214
 21
111.399994131249
 31
0.0
  0
LINE
  5
   1AA
  8
0
  6
CONTINUOUS
 62
     1
 10
18.1001157280214
 20
123.599994131249
 30
0.0
 11
18.5001157280214
 21
123.599994131249
 31
0.0
  0
LINE
  5
   1AB
  8
0
  6
CONTINUOUS
 62
     7
 10
40.0001138585073
 20
114.2667875
 30
0.0
 11
43.5001274655542
 21
114.2667875
 31
0.0
  0
LINE
  5
   1AC
  8
0
  6
CONTINUOUS
 62
     7
 10
40.0001214484926
 20
120.7332125
 30
0.0
 11
43.5001274655542
 21
120.7332125
 31
0.0
  0
LINE
  5
   1AD
  8
0
  6
CONTINUOUS
 62
     1
 10
40.0001223485117
 20
121.5
 30
0.0
 11
43.5001274655542
 21
121.5
 31
0.0
  0
LINE
  5
   1AE
  8
0
  6
CONTINUOUS
 62
     1
 10
40.0001129584882
 20
113.5
 30
0.0
 11
43.5001274655542
 21
113.5
 31
0.0
  0
LINE
  5
   1AF
  8
0
  6
CONTINUOUS
 62
     1
 10
13.0001157280214
 20
112.107494131249
 30
0.0
 11
13.0001157280214
 21
122.892494131249
 31
0.0
  0
LINE
  5
   1B0
  8
0
  6
CONTINUOUS
 62
     7
 10
17.1163056989868
 20
177.700035923916
 30
0.0
 11
30.5776098850749
 21
173.910958478093
 31
0.0
  0
LINE
  5
   1B1
  8
0
  6
CONTINUOUS
 62
     1
 10
43.5001274655542
 20
113.5
 30
0.0
 11
43.5001274655542
 21
121.5
 31
0.0
  0
POINT
  5
   1B2
  8
0
  6
CONTINUOUS
 62
     7
 10
20.5001176534907
 20
117.5
 30
0.0
  0
LINE
  5
   1B3
  8
0
  6
CONTINUOUS
 62
     1
 10
40.0001110462431
 20
111.870828277965
 30
0.0
 11
40.0001242607413
 21
123.129158527663
 31
0.0
  0
LINE
  5
   1B4
  8
0
  6
CONTINUOUS
 62
     1
 10
33.5001110462476
 20
111.870835906792
 30
0.0
 11
33.5001242607458
 21
123.129166162543
 31
0.0
  0
LINE
  5
   1B5
  8
0
  6
CONTINUOUS
 62
     1
 10
34.0806830467625
 20
125.005553863775
 30
0.0
 11
39.4195698795573
 21
125.005547597241
 31
0.0
  0
LINE
  5
   1B6
  8
0
  6
CONTINUOUS
 62
     1
 10
34.0806786419298
 20
121.252777114045
 30
0.0
 11
39.4195654747246
 21
121.252770847511
 31
0.0
  0
LINE
  5
   1B7
  8
0
  6
CONTINUOUS
 62
     1
 10
34.0806698322643
 20
113.747223614585
 30
0.0
 11
39.4195566650591
 21
113.747217348051
 31
0.0
  0
ARC
  5
   1B8
  8
0
  6
CONTINUOUS
 62
     1
 10
36.8226938336936
 20
123.129162270464
 30
0.0
 40
3.32256957295006
 50
145.615685280868
 51
214.384180216953
  0
ARC
  5
   1B9
  8
0
  6
CONTINUOUS
 62
     1
 10
45.9195610698871
 20
117.499986468387
 30
0.0
 40
12.419443416399
 50
162.411978974917
 51
197.587886522905
  0
ARC
  5
   1BA
  8
0
  6
CONTINUOUS
 62
     1
 10
36.8226806191954
 20
111.870832021274
 30
0.0
 40
3.32256957295006
 50
145.615685280868
 51
214.384180216953
  0
LINE
  5
   1BB
  8
0
  6
CONTINUOUS
 62
     1
 10
34.0806654274316
 20
109.994446864855
 30
0.0
 11
39.4195522602264
 21
109.994440598321
 31
0.0
  0
LINE
  5
   1BC
  8
0
  6
DASHDOT
 62
     7
 10
8.02747321816309
 20
117.500030944336
 30
0.0
 11
46.8626391108652
 21
117.499985361446
 31
0.0
  0
ARC
  5
   1BD
  8
0
  6
CONTINUOUS
 62
     1
 10
36.6775546877935
 20
123.129162440821
 30
0.0
 40
3.32256957295006
 50
325.615685280868
 51
394.384180216953
  0
ARC
  5
   1BE
  8
0
  6
CONTINUOUS
 62
     1
 10
27.5806742371018
 20
117.500007993709
 30
0.0
 40
12.419443416399
 50
342.411978974916
 51
377.587886522905
  0
ARC
  5
   1BF
  8
0
  6
CONTINUOUS
 62
     1
 10
36.6775414732954
 20
111.870832191632
 30
0.0
 40
3.32256957295006
 50
325.615685280868
 51
394.384180216953
  0
ENDBLK
  5
   1C0
  8
0
  6
CONTINUOUS
 62
     7
  0
BLOCK
  5
   1C1
  8
0
  6
CONTINUOUS
 62
     7
  2
*UDIM593
 70
    65
 10
0.0
 20
0.0
 30
0.0
  3
*UDIM593
  0
TEXT
  5
   1C2
  8
0
  6
CONTINUOUS
 62
     7
 10
135.836479229395
 20
173.970207574691
 30
0.0
 40
2.99999997871263
  1
6x20
 50
359.999999948034
 41
0.933333333333333
 72
     1
 11
141.13647919314
 21
175.470207559267
 31
0.0
 73
     2
  0
LINE
  5
   1C3
  8
0
  6
CONTINUOUS
 62
     7
 10
130.12134476006
 20
168.943101664463
 30
0.0
 11
130.12134476006
 21
174.970207569911
 31
0.0
  0
LINE
  5
   1C4
  8
0
  6
CONTINUOUS
 62
     7
 10
128.021344795823
 20
168.35199796726
 30
0.0
 11
128.021344795823
 21
174.970207569911
 31
0.0
  0
LINE
  5
   1C5
  8
0
  6
CONTINUOUS
 62
     7
 10
146.436479155532
 20
172.970207569911
 30
0.0
 11
128.021344795823
 21
172.970207569911
 31
0.0
  0
LINE
  5
   1C6
  8
0
  6
CONTINUOUS
 62
     7
 10
133.075768037267
 20
173.491151999862
 30
0.0
 11
130.12134476006
 21
172.970207569911
 31
0.0
  0
LINE
  5
   1C7
  8
0
  6
CONTINUOUS
 62
     7
 10
130.12134476006
 20
172.970207569911
 30
0.0
 11
133.075768037267
 21
172.449263139959
 31
0.0
  0
LINE
  5
   1C8
  8
0
  6
CONTINUOUS
 62
     7
 10
125.066921518616
 20
172.449263139959
 30
0.0
 11
128.021344795823
 21
172.970207569911
 31
0.0
  0
LINE
  5
   1C9
  8
0
  6
CONTINUOUS
 62
     7
 10
128.021344795823
 20
172.970207569911
 30
0.0
 11
125.066921518616
 21
173.491151999862
 31
0.0
  0
ENDBLK
  5
   1CA
  8
0
  6
CONTINUOUS
 62
     7
  0
BLOCK
  5
   1CB
  8
0
  6
CONTINUOUS
 62
     7
  2
*UDIM594
 70
    65
 10
0.0
 20
0.0
 30
0.0
  3
*UDIM594
  0
TEXT
  5
   1CC
  8
0
  6
CONTINUOUS
 62
     7
 10
170.508133756352
 20
35.4314696325391
 30
0.0
 40
2.99999997871263
  1
10
 50
89.9999999480344
 41
0.933333333333333
 72
     1
 11
169.00813376926
 21
37.9314696161582
 31
0.0
 73
     2
  0
LINE
  5
   1CD
  8
0
  6
CONTINUOUS
 62
     7
 10
129.021344795823
 20
43.9564692274507
 30
0.0
 11
173.508133758617
 21
43.9564692274507
 31
0.0
  0
LINE
  5
   1CE
  8
0
  6
CONTINUOUS
 62
     7
 10
131.029647004067
 20
47.4564691678461
 30
0.0
 11
173.508133758617
 21
47.4564691678461
 31
0.0
  0
LINE
  5
   1CF
  8
0
  6
CONTINUOUS
 62
     7
 10
171.508133758617
 20
35.4314696338976
 30
0.0
 11
171.508133758617
 21
47.4564691678461
 31
0.0
  0
LINE
  5
   1D0
  8
0
  6
CONTINUOUS
 62
     7
 10
172.029078188568
 20
41.0020459502438
 30
0.0
 11
171.508133758617
 21
43.9564692274507
 31
0.0
  0
LINE
  5
   1D1
  8
0
  6
CONTINUOUS
 62
     7
 10
171.508133758617
 20
43.9564692274507
 30
0.0
 11
170.987189328665
 21
41.0020459502438
 31
0.0
  0
LINE
  5
   1D2
  8
0
  6
CONTINUOUS
 62
     7
 10
170.987189328665
 20
50.410892445053
 30
0.0
 11
171.508133758617
 21
47.4564691678461
 31
0.0
  0
LINE
  5
   1D3
  8
0
  6
CONTINUOUS
 62
     7
 10
171.508133758617
 20
47.4564691678461
 30
0.0
 11
172.029078188568
 21
50.410892445053
 31
0.0
  0
ENDBLK
  5
   1D4
  8
0
  6
CONTINUOUS
 62
     7
  0
BLOCK
  5
   1D5
  8
0
  6
CONTINUOUS
 62
     7
  2
*UDIM595
 70
    65
 10
0.0
 20
0.0
 30
0.0
  3
*UDIM595
  0
TEXT
  5
   1D6
  8
0
  6
CONTINUOUS
 62
     7
 10
170.508133755084
 20
93.1564661232447
 30
0.0
 40
2.99999997871263
  1
285
 50
89.9999999480344
 41
0.933333333333333
 72
     1
 11
169.00813376926
 21
97.0564660969297
 31
0.0
 73
     2
  0
LINE
  5
   1D7
  8
0
  6
CONTINUOUS
 62
     7
 10
131.029647004067
 20
147.206467469114
 30
0.0
 11
173.508133758617
 21
147.206467469114
 31
0.0
  0
LINE
  5
   1D8
  8
0
  6
CONTINUOUS
 62
     7
 10
171.508133758617
 20
47.4564691678461
 30
0.0
 11
171.508133758617
 21
147.206467469114
 31
0.0
  0
LINE
  5
   1D9
  8
0
  6
CONTINUOUS
 62
     7
 10
170.987189328665
 20
50.410892445053
 30
0.0
 11
171.508133758617
 21
47.4564691678461
 31
0.0
  0
LINE
  5
   1DA
  8
0
  6
CONTINUOUS
 62
     7
 10
171.508133758617
 20
47.4564691678461
 30
0.0
 11
172.029078188568
 21
50.410892445053
 31
0.0
  0
LINE
  5
   1DB
  8
0
  6
CONTINUOUS
 62
     7
 10
172.029078188568
 20
144.252044191907
 30
0.0
 11
171.508133758617
 21
147.206467469114
 31
0.0
  0
LINE
  5
   1DC
  8
0
  6
CONTINUOUS
 62
     7
 10
171.508133758617
 20
147.206467469114
 30
0.0
 11
170.987189328665
 21
144.252044191907
 31
0.0
  0
ENDBLK
  5
   1DD
  8
0
  6
CONTINUOUS
 62
     7
  0
BLOCK
  5
   1DE
  8
0
  6
CONTINUOUS
 62
     7
  2
*UDIM596
 70
    65
 10
0.0
 20
0.0
 30
0.0
  3
*UDIM596
  0
TEXT
  5
   1DF
  8
0
  6
CONTINUOUS
 62
     7
 10
170.508133756352
 20
153.68147181492
 30
0.0
 40
2.99999997871263
  1
10
 50
89.9999999480344
 41
0.933333333333333
 72
     1
 11
169.00813376926
 21
156.18147179854
 31
0.0
 73
     2
  0
LINE
  5
   1E0
  8
0
  6
CONTINUOUS
 62
     7
 10
129.021344795823
 20
150.706467409509
 30
0.0
 11
173.508133758617
 21
150.706467409509
 31
0.0
  0
LINE
  5
   1E1
  8
0
  6
CONTINUOUS
 62
     7
 10
171.508133758617
 20
147.206467469114
 30
0.0
 11
171.508133758617
 21
158.6814717808
 31
0.0
  0
LINE
  5
   1E2
  8
0
  6
CONTINUOUS
 62
     7
 10
172.029078188568
 20
144.252044191907
 30
0.0
 11
171.508133758617
 21
147.206467469114
 31
0.0
  0
LINE
  5
   1E3
  8
0
  6
CONTINUOUS
 62
     7
 10
171.508133758617
 20
147.206467469114
 30
0.0
 11
170.987189328665
 21
144.252044191907
 31
0.0
  0
LINE
  5
   1E4
  8
0
  6
CONTINUOUS
 62
     7
 10
170.987189328665
 20
153.660890686716
 30
0.0
 11
171.508133758617
 21
150.706467409509
 31
0.0
  0
LINE
  5
   1E5
  8
0
  6
CONTINUOUS
 62
     7
 10
171.508133758617
 20
150.706467409509
 30
0.0
 11
172.029078188568
 21
153.660890686716
 31
0.0
  0
ENDBLK
  5
   1E6
  8
0
  6
CONTINUOUS
 62
     7
  0
BLOCK
  5
   1E7
  8
0
  6
CONTINUOUS
 62
     7
  2
*UDIM597
 70
    65
 10
0.0
 20
0.0
 30
0.0
  3
*UDIM597
  0
TEXT
  5
   1E8
  8
0
  6
CONTINUOUS
 62
     7
 10
162.339503671885
 20
64.3252197017585
 30
0.0
 40
2.99999997871263
  1
144,25
 50
89.9999999480344
 41
0.933333333333333
 72
     1
 11
160.839503689865
 21
72.4252196456412
 31
0.0
 73
     2
  0
LINE
  5
   1E9
  8
0
  6
CONTINUOUS
 62
     7
 10
131.029647004067
 20
47.4564691678461
 30
0.0
 11
165.339503679222
 21
47.4564691678461
 31
0.0
  0
LINE
  5
   1EA
  8
0
  6
CONTINUOUS
 62
     7
 10
163.339503679222
 20
47.4564691678461
 30
0.0
 11
163.339503679222
 21
97.9439683080491
 31
0.0
  0
LINE
  5
   1EB
  8
0
  6
CONTINUOUS
 62
     7
 10
162.81855924927
 20
50.410892445053
 30
0.0
 11
163.339503679222
 21
47.4564691678461
 31
0.0
  0
LINE
  5
   1EC
  8
0
  6
CONTINUOUS
 62
     7
 10
163.339503679222
 20
47.4564691678461
 30
0.0
 11
163.860448109173
 21
50.410892445053
 31
0.0
  0
LINE
  5
   1ED
  8
0
  6
CONTINUOUS
 62
     7
 10
163.860448109173
 20
94.9895450308421
 30
0.0
 11
163.339503679222
 21
97.9439683080491
 31
0.0
  0
LINE
  5
   1EE
  8
0
  6
CONTINUOUS
 62
     7
 10
163.339503679222
 20
97.9439683080491
 30
0.0
 11
162.81855924927
 21
94.9895450308421
 31
0.0
  0
ENDBLK
  5
   1EF
  8
0
  6
CONTINUOUS
 62
     7
  0
BLOCK
  5
   1F0
  8
0
  6
CONTINUOUS
 62
     7
  2
*UDIM598
 70
    65
 10
0.0
 20
0.0
 30
0.0
  3
*UDIM598
  0
TEXT
  5
   1F1
  8
0
  6
CONTINUOUS
 62
     7
 10
131.130312357686
 20
34.7404492010467
 30
0.0
 40
2.99999997871263
  1
31
 50
359.999999948034
 41
0.933333333333333
 72
     1
 11
133.630312341299
 21
36.2404491881481
 31
0.0
 73
     2
  0
LINE
  5
   1F2
  8
0
  6
CONTINUOUS
 62
     7
 10
138.871344611049
 20
39.7626812381128
 30
0.0
 11
138.871344611049
 21
31.7404491987918
 31
0.0
  0
LINE
  5
   1F3
  8
0
  6
CONTINUOUS
 62
     7
 10
128.021344795823
 20
42.9564692274507
 30
0.0
 11
128.021344795823
 21
31.7404491987918
 31
0.0
  0
LINE
  5
   1F4
  8
0
  6
CONTINUOUS
 62
     7
 10
138.871344611049
 20
33.7404491987918
 30
0.0
 11
128.021344795823
 21
33.7404491987918
 31
0.0
  0
LINE
  5
   1F5
  8
0
  6
CONTINUOUS
 62
     7
 10
135.916921333842
 20
33.2195047688401
 30
0.0
 11
138.871344611049
 21
33.7404491987918
 31
0.0
  0
LINE
  5
   1F6
  8
0
  6
CONTINUOUS
 62
     7
 10
138.871344611049
 20
33.7404491987918
 30
0.0
 11
135.916921333842
 21
34.2613936287435
 31
0.0
  0
LINE
  5
   1F7
  8
0
  6
CONTINUOUS
 62
     7
 10
130.97576807303
 20
34.2613936287435
 30
0.0
 11
128.021344795823
 21
33.7404491987918
 31
0.0
  0
LINE
  5
   1F8
  8
0
  6
CONTINUOUS
 62
     7
 10
128.021344795823
 20
33.7404491987918
 30
0.0
 11
130.97576807303
 21
33.2195047688401
 31
0.0
  0
ENDBLK
  5
   1F9
  8
0
  6
CONTINUOUS
 62
     7
  0
BLOCK
  5
   1FA
  8
0
  6
CONTINUOUS
 62
     7
  2
*UDIM599
 70
    65
 10
0.0
 20
0.0
 30
0.0
  3
*UDIM599
  0
TEXT
  5
   1FB
  8
0
  6
CONTINUOUS
 62
     7
 10
120.521344291379
 20
34.7404491997839
 30
0.0
 40
2.99999997871263
  1
5
 50
359.999999948034
 41
0.933333333333333
 72
     1
 11
121.621344284926
 21
36.2404491881481
 31
0.0
 73
     2
  0
LINE
  5
   1FC
  8
0
  6
CONTINUOUS
 62
     7
 10
126.271344825625
 20
42.9564692274507
 30
0.0
 11
126.271344825625
 21
31.7404491987918
 31
0.0
  0
LINE
  5
   1FD
  8
0
  6
CONTINUOUS
 62
     7
 10
128.021344795823
 20
33.7404491987918
 30
0.0
 11
120.521344292732
 21
33.7404491987918
 31
0.0
  0
LINE
  5
   1FE
  8
0
  6
CONTINUOUS
 62
     7
 10
130.97576807303
 20
34.2613936287435
 30
0.0
 11
128.021344795823
 21
33.7404491987918
 31
0.0
  0
LINE
  5
   1FF
  8
0
  6
CONTINUOUS
 62
     7
 10
128.021344795823
 20
33.7404491987918
 30
0.0
 11
130.97576807303
 21
33.2195047688401
 31
0.0
  0
LINE
  5
   200
  8
0
  6
CONTINUOUS
 62
     7
 10
123.316921548418
 20
33.2195047688401
 30
0.0
 11
126.271344825625
 21
33.7404491987918
 31
0.0
  0
LINE
  5
   201
  8
0
  6
CONTINUOUS
 62
     7
 10
126.271344825625
 20
33.7404491987918
 30
0.0
 11
123.316921548418
 21
34.2613936287435
 31
0.0
  0
ENDBLK
  5
   202
  8
0
  6
CONTINUOUS
 62
     7
  0
BLOCK
  5
   203
  8
0
  6
CONTINUOUS
 62
     7
  2
*UDIM600
 70
    65
 10
0.0
 20
0.0
 30
0.0
  3
*UDIM600
  0
TEXT
  5
   204
  8
0
  6
CONTINUOUS
 62
     7
 10
52.0177041781157
 20
93.7689607722378
 30
0.0
 40
2.99999997871263
  1
105
 50
89.9999999480344
 41
0.933333333333333
 72
     1
 11
50.5177041922917
 21
97.6689607459228
 31
0.0
 73
     2
  0
LINE
  5
   205
  8
0
  6
CONTINUOUS
 62
     7
 10
59.8213472753763
 20
79.5689512641012
 30
0.0
 11
51.017704181648
 21
79.5689512641012
 31
0.0
  0
LINE
  5
   206
  8
0
  6
CONTINUOUS
 62
     7
 10
59.8213472753763
 20
116.318967995125
 30
0.0
 11
51.017704181648
 21
116.318967995125
 31
0.0
  0
LINE
  5
   207
  8
0
  6
CONTINUOUS
 62
     7
 10
53.017704181648
 20
79.5689512641012
 30
0.0
 11
53.017704181648
 21
116.318967995125
 31
0.0
  0
LINE
  5
   208
  8
0
  6
CONTINUOUS
 62
     7
 10
52.4967597516963
 20
82.5233745413082
 30
0.0
 11
53.017704181648
 21
79.5689512641012
 31
0.0
  0
LINE
  5
   209
  8
0
  6
CONTINUOUS
 62
     7
 10
53.017704181648
 20
79.5689512641012
 30
0.0
 11
53.5386486115997
 21
82.5233745413082
 31
0.0
  0
LINE
  5
   20A
  8
0
  6
CONTINUOUS
 62
     7
 10
53.5386486115997
 20
113.364544717918
 30
0.0
 11
53.017704181648
 21
116.318967995125
 31
0.0
  0
LINE
  5
   20B
  8
0
  6
CONTINUOUS
 62
     7
 10
53.017704181648
 20
116.318967995125
 30
0.0
 11
52.4967597516963
 21
113.364544717918
 31
0.0
  0
ENDBLK
  5
   20C
  8
0
  6
CONTINUOUS
 62
     7
  0
BLOCK
  5
   20D
  8
0
  6
CONTINUOUS
 62
     7
  2
*UDIM601
 70
    65
 10
0.0
 20
0.0
 30
0.0
  3
*UDIM601
  0
TEXT
  5
   20E
  8
0
  6
CONTINUOUS
 62
     7
 10
45.4317974651445
 20
177.493770136755
 30
0.0
 40
2.99999997871263
  1
27,5
 50
359.999999948034
 41
0.933333333333333
 72
     1
 11
50.7317974288898
 21
178.993770121331
 31
0.0
 73
     2
  0
LINE
  5
   20F
  8
0
  6
CONTINUOUS
 62
     7
 10
70.4463471114635
 20
127.118903741319
 30
0.0
 11
70.4463471114635
 21
178.493770131975
 31
0.0
  0
LINE
  5
   210
  8
0
  6
CONTINUOUS
 62
     7
 10
60.8213472753763
 20
117.318967995125
 30
0.0
 11
60.8213472753763
 21
178.493770131975
 31
0.0
  0
LINE
  5
   211
  8
0
  6
CONTINUOUS
 62
     7
 10
70.4463471114635
 20
176.493770131975
 30
0.0
 11
45.4317974664974
 21
176.493770131975
 31
0.0
  0
LINE
  5
   212
  8
0
  6
CONTINUOUS
 62
     7
 10
73.4007703886705
 20
177.014714561927
 30
0.0
 11
70.4463471114635
 21
176.493770131975
 31
0.0
  0
LINE
  5
   213
  8
0
  6
CONTINUOUS
 62
     7
 10
70.4463471114635
 20
176.493770131975
 30
0.0
 11
73.4007703886705
 21
175.972825702023
 31
0.0
  0
LINE
  5
   214
  8
0
  6
CONTINUOUS
 62
     7
 10
57.8669239981693
 20
175.972825702023
 30
0.0
 11
60.8213472753763
 21
176.493770131975
 31
0.0
  0
LINE
  5
   215
  8
0
  6
CONTINUOUS
 62
     7
 10
60.8213472753763
 20
176.493770131975
 30
0.0
 11
57.8669239981693
 21
177.014714561927
 31
0.0
  0
ENDBLK
  5
   216
  8
0
  6
CONTINUOUS
 62
     7
  0
BLOCK
  5
   217
  8
0
  6
CONTINUOUS
 62
     7
  2
*UDIM602
 70
    65
 10
0.0
 20
0.0
 30
0.0
  3
*UDIM602
  0
TEXT
  5
   218
  8
0
  6
CONTINUOUS
 62
     7
 10
97.6838415371474
 20
11.7775261644946
 30
0.0
 40
2.99999997871263
  1
195,5
 50
359.999999948034
 41
0.933333333333333
 72
     1
 11
104.383841490958
 21
13.2775261478079
 31
0.0
 73
     2
  0
LINE
  5
   219
  8
0
  6
CONTINUOUS
 62
     7
 10
138.871344611049
 20
39.7626812381128
 30
0.0
 11
138.871344611049
 21
8.77752615845157
 31
0.0
  0
LINE
  5
   21A
  8
0
  6
CONTINUOUS
 62
     7
 10
70.4463471114635
 20
68.7689026982375
 30
0.0
 11
70.4463471114635
 21
8.77752615845157
 31
0.0
  0
LINE
  5
   21B
  8
0
  6
CONTINUOUS
 62
     7
 10
138.871344611049
 20
10.7775261584516
 30
0.0
 11
70.4463471114635
 21
10.7775261584516
 31
0.0
  0
LINE
  5
   21C
  8
0
  6
CONTINUOUS
 62
     7
 10
135.916921333842
 20
10.2565817284999
 30
0.0
 11
138.871344611049
 21
10.7775261584516
 31
0.0
  0
LINE
  5
   21D
  8
0
  6
CONTINUOUS
 62
     7
 10
138.871344611049
 20
10.7775261584516
 30
0.0
 11
135.916921333842
 21
11.2984705884032
 31
0.0
  0
LINE
  5
   21E
  8
0
  6
CONTINUOUS
 62
     7
 10
73.4007703886705
 20
11.2984705884032
 30
0.0
 11
70.4463471114635
 21
10.7775261584516
 31
0.0
  0
LINE
  5
   21F
  8
0
  6
CONTINUOUS
 62
     7
 10
70.4463471114635
 20
10.7775261584516
 30
0.0
 11
73.4007703886705
 21
10.2565817284999
 31
0.0
  0
ENDBLK
  5
   220
  8
0
  6
CONTINUOUS
 62
     7
  0
BLOCK
  5
   221
  8
0
  6
CONTINUOUS
 62
     7
  2
*UDIM603
 70
    65
 10
0.0
 20
0.0
 30
0.0
  3
*UDIM603
  0
TEXT
  5
   222
  8
0
  6
CONTINUOUS
 62
     7
 10
101.446345652351
 20
19.4015803686801
 30
0.0
 40
2.99999997871263
  1
190
 50
359.999999948034
 41
0.933333333333333
 72
     1
 11
105.346345626031
 21
20.9015803545189
 31
0.0
 73
     2
  0
LINE
  5
   223
  8
0
  6
CONTINUOUS
 62
     7
 10
138.871344611049
 20
39.7626812381128
 30
0.0
 11
138.871344611049
 21
16.4015803651625
 31
0.0
  0
LINE
  5
   224
  8
0
  6
CONTINUOUS
 62
     7
 10
72.371345743537
 20
44.9798542778318
 30
0.0
 11
72.371345743537
 21
16.4015803651625
 31
0.0
  0
LINE
  5
   225
  8
0
  6
CONTINUOUS
 62
     7
 10
138.871344611049
 20
18.4015803651625
 30
0.0
 11
72.371345743537
 21
18.4015803651625
 31
0.0
  0
LINE
  5
   226
  8
0
  6
CONTINUOUS
 62
     7
 10
135.916921333842
 20
17.8806359352109
 30
0.0
 11
138.871344611049
 21
18.4015803651625
 31
0.0
  0
LINE
  5
   227
  8
0
  6
CONTINUOUS
 62
     7
 10
138.871344611049
 20
18.4015803651625
 30
0.0
 11
135.916921333842
 21
18.9225247951142
 31
0.0
  0
LINE
  5
   228
  8
0
  6
CONTINUOUS
 62
     7
 10
75.3257690207439
 20
18.9225247951142
 30
0.0
 11
72.371345743537
 21
18.4015803651625
 31
0.0
  0
LINE
  5
   229
  8
0
  6
CONTINUOUS
 62
     7
 10
72.371345743537
 20
18.4015803651625
 30
0.0
 11
75.3257690207439
 21
17.8806359352109
 31
0.0
  0
ENDBLK
  5
   22A
  8
0
  6
CONTINUOUS
 62
     7
  0
BLOCK
  5
   22B
  8
0
  6
CONTINUOUS
 62
     7
  2
*UDIM604
 70
    65
 10
0.0
 20
0.0
 30
0.0
  3
*UDIM604
  0
TEXT
  5
   22C
  8
0
  6
CONTINUOUS
 62
     7
 10
65.9213452212111
 20
19.4015803661547
 30
0.0
 40
2.99999997871263
  1
2
 50
359.999999948034
 41
0.933333333333333
 72
     1
 11
67.0213452147586
 21
20.9015803545189
 31
0.0
 73
     2
  0
LINE
  5
   22D
  8
0
  6
CONTINUOUS
 62
     7
 10
71.6713457554579
 20
44.861876751751
 30
0.0
 11
71.6713457554579
 21
16.4015803651625
 31
0.0
  0
LINE
  5
   22E
  8
0
  6
CONTINUOUS
 62
     7
 10
72.371345743537
 20
18.4015803651625
 30
0.0
 11
65.921345222564
 21
18.4015803651625
 31
0.0
  0
LINE
  5
   22F
  8
0
  6
CONTINUOUS
 62
     7
 10
75.3257690207439
 20
18.9225247951142
 30
0.0
 11
72.371345743537
 21
18.4015803651625
 31
0.0
  0
LINE
  5
   230
  8
0
  6
CONTINUOUS
 62
     7
 10
72.371345743537
 20
18.4015803651625
 30
0.0
 11
75.3257690207439
 21
17.8806359352109
 31
0.0
  0
LINE
  5
   231
  8
0
  6
CONTINUOUS
 62
     7
 10
68.7169224782509
 20
17.8806359352109
 30
0.0
 11
71.6713457554579
 21
18.4015803651625
 31
0.0
  0
LINE
  5
   232
  8
0
  6
CONTINUOUS
 62
     7
 10
71.6713457554579
 20
18.4015803651625
 30
0.0
 11
68.7169224782509
 21
18.9225247951142
 31
0.0
  0
ENDBLK
  5
   233
  8
0
  6
CONTINUOUS
 62
     7
  0
BLOCK
  5
   234
  8
0
  6
CONTINUOUS
 62
     7
  2
*UDIM605
 70
    65
 10
0.0
 20
0.0
 30
0.0
  3
*UDIM605
  0
TEXT
  5
   235
  8
0
  6
CONTINUOUS
 62
     7
 10
147.973507186374
 20
26.6625848811724
 30
0.0
 40
2.99999997871263
  1
3
 50
359.999999948034
 41
0.933333333333333
 72
     1
 11
149.073507179922
 21
28.1625848695366
 31
0.0
 73
     2
  0
TEXT
  5
   236
  8
0
  6
CONTINUOUS
 62
     7
 10
145.223507190064
 20
26.6625848811724
 30
0.0
 40
2.99999997871263
  1
_
 50
359.999999948034
 41
0.933333333333333
 72
     1
 11
146.323507183611
 21
28.1625848695366
 31
0.0
 73
     2
  0
LINE
  5
   237
  8
0
  6
CONTINUOUS
 62
     7
 10
139.921344593167
 20
40.9073809817038
 30
0.0
 11
139.921344593167
 21
23.6625848801802
 31
0.0
  0
LINE
  5
   238
  8
0
  6
CONTINUOUS
 62
     7
 10
138.871344611049
 20
39.7626812381128
 30
0.0
 11
138.871344611049
 21
23.6625848801802
 31
0.0
  0
LINE
  5
   239
  8
0
  6
CONTINUOUS
 62
     7
 10
150.173507172116
 20
25.6625848801803
 30
0.0
 11
138.871344611049
 21
25.6625848801803
 31
0.0
  0
LINE
  5
   23A
  8
0
  6
CONTINUOUS
 62
     7
 10
142.875767870374
 20
26.1835293101319
 30
0.0
 11
139.921344593167
 21
25.6625848801803
 31
0.0
  0
LINE
  5
   23B
  8
0
  6
CONTINUOUS
 62
     7
 10
139.921344593167
 20
25.6625848801803
 30
0.0
 11
142.875767870374
 21
25.1416404502286
 31
0.0
  0
LINE
  5
   23C
  8
0
  6
CONTINUOUS
 62
     7
 10
135.916921333842
 20
25.1416404502286
 30
0.0
 11
138.871344611049
 21
25.6625848801803
 31
0.0
  0
LINE
  5
   23D
  8
0
  6
CONTINUOUS
 62
     7
 10
138.871344611049
 20
25.6625848801803
 30
0.0
 11
135.916921333842
 21
26.1835293101319
 31
0.0
  0
ENDBLK
  5
   23E
  8
0
  6
CONTINUOUS
 62
     7
  0
BLOCK
  5
   23F
  8
0
  6
CONTINUOUS
 62
     7
  2
*UDIM606
 70
    65
 10
0.0
 20
0.0
 30
0.0
  3
*UDIM606
  0
TEXT
  5
   240
  8
0
  6
CONTINUOUS
 62
     7
 10
105.471334897847
 20
26.6625848836978
 30
0.0
 40
2.99999997871263
  1
167
 50
359.999999948034
 41
0.933333333333333
 72
     1
 11
109.371334871526
 21
28.1625848695366
 31
0.0
 73
     2
  0
LINE
  5
   241
  8
0
  6
CONTINUOUS
 62
     7
 10
80.4213219397491
 20
92.4814334045459
 30
0.0
 11
80.4213219397491
 21
23.6625848801802
 31
0.0
  0
LINE
  5
   242
  8
0
  6
CONTINUOUS
 62
     7
 10
138.871344611049
 20
25.6625848801803
 30
0.0
 11
80.4213219397491
 21
25.6625848801803
 31
0.0
  0
LINE
  5
   243
  8
0
  6
CONTINUOUS
 62
     7
 10
135.916921333842
 20
25.1416404502286
 30
0.0
 11
138.871344611049
 21
25.6625848801803
 31
0.0
  0
LINE
  5
   244
  8
0
  6
CONTINUOUS
 62
     7
 10
138.871344611049
 20
25.6625848801803
 30
0.0
 11
135.916921333842
 21
26.1835293101319
 31
0.0
  0
LINE
  5
   245
  8
0
  6
CONTINUOUS
 62
     7
 10
83.3757452169561
 20
26.1835293101319
 30
0.0
 11
80.4213219397491
 21
25.6625848801803
 31
0.0
  0
LINE
  5
   246
  8
0
  6
CONTINUOUS
 62
     7
 10
80.4213219397491
 20
25.6625848801803
 30
0.0
 11
83.3757452169561
 21
25.1416404502286
 31
0.0
  0
ENDBLK
  5
   247
  8
0
  6
CONTINUOUS
 62
     7
  0
BLOCK
  5
   248
  8
0
  6
CONTINUOUS
 62
     7
  2
*UDIM607
 70
    65
 10
0.0
 20
0.0
 30
0.0
  3
*UDIM607
  0
TEXT
  5
   249
  8
0
  6
CONTINUOUS
 62
     7
 10
234.27101435688
 20
-32.4366626668954
 30
0.0
 40
3.00000002980232
  1
117
 50
359.999999896069
 41
0.933333333333333
 72
     1
 11
238.171014398336
 21
-30.936662659049
 31
0.0
 73
     2
  0
LINE
  5
   24A
  8
0
  6
CONTINUOUS
 62
     7
 10
253.071014404297
 20
-41.6816560064167
 30
0.0
 11
253.071014404297
 21
-31.4366626739502
 31
0.0
  0
LINE
  5
   24B
  8
0
  6
CONTINUOUS
 62
     7
 10
223.821014404297
 20
-41.3739980657488
 30
0.0
 11
223.821014404297
 21
-31.4366626739502
 31
0.0
  0
LINE
  5
   24C
  8
0
  6
CONTINUOUS
 62
     7
 10
253.071014404297
 20
-33.4366626739502
 30
0.0
 11
223.821014404297
 21
-33.4366626739502
 31
0.0
  0
LINE
  5
   24D
  8
0
  6
CONTINUOUS
 62
     7
 10
250.11659112709
 20
-33.9576071039019
 30
0.0
 11
253.071014404297
 21
-33.4366626739502
 31
0.0
  0
LINE
  5
   24E
  8
0
  6
CONTINUOUS
 62
     7
 10
253.071014404297
 20
-33.4366626739502
 30
0.0
 11
250.11659112709
 21
-32.9157182439985
 31
0.0
  0
LINE
  5
   24F
  8
0
  6
CONTINUOUS
 62
     7
 10
226.775437681504
 20
-32.9157182439985
 30
0.0
 11
223.821014404297
 21
-33.4366626739502
 31
0.0
  0
LINE
  5
   250
  8
0
  6
CONTINUOUS
 62
     7
 10
223.821014404297
 20
-33.4366626739502
 30
0.0
 11
226.775437681504
 21
-33.9576071039019
 31
0.0
  0
ENDBLK
  5
   251
  8
0
  6
CONTINUOUS
 62
     7
  0
BLOCK
  5
   252
  8
0
  6
CONTINUOUS
 62
     7
  2
*UDIM608
 70
    65
 10
0.0
 20
0.0
 30
0.0
  3
*UDIM608
  0
TEXT
  5
   253
  8
0
  6
CONTINUOUS
 62
     7
 10
245.373470852543
 20
-94.3367195084172
 30
0.0
 40
3.00000002980232
  1
41
 50
359.999999896069
 41
0.933333333333333
 72
     1
 11
247.873470880091
 21
-92.8367194980383
 31
0.0
 73
     2
  0
LINE
  5
   254
  8
0
  6
CONTINUOUS
 62
     7
 10
253.071014404297
 20
-86.907596670256
 30
0.0
 11
253.071014404297
 21
-97.3367195129395
 31
0.0
  0
LINE
  5
   255
  8
0
  6
CONTINUOUS
 62
     7
 10
242.821014404297
 20
-92.6154558271575
 30
0.0
 11
242.821014404297
 21
-97.3367195129395
 31
0.0
  0
LINE
  5
   256
  8
0
  6
CONTINUOUS
 62
     7
 10
253.071014404297
 20
-95.3367195129394
 30
0.0
 11
242.821014404297
 21
-95.3367195129394
 31
0.0
  0
LINE
  5
   257
  8
0
  6
CONTINUOUS
 62
     7
 10
256.025437681504
 20
-94.8157750829878
 30
0.0
 11
253.071014404297
 21
-95.3367195129394
 31
0.0
  0
LINE
  5
   258
  8
0
  6
CONTINUOUS
 62
     7
 10
253.071014404297
 20
-95.3367195129394
 30
0.0
 11
256.025437681504
 21
-95.8576639428911
 31
0.0
  0
LINE
  5
   259
  8
0
  6
CONTINUOUS
 62
     7
 10
239.86659112709
 20
-95.8576639428911
 30
0.0
 11
242.821014404297
 21
-95.3367195129394
 31
0.0
  0
LINE
  5
   25A
  8
0
  6
CONTINUOUS
 62
     7
 10
242.821014404297
 20
-95.3367195129394
 30
0.0
 11
239.86659112709
 21
-94.8157750829878
 31
0.0
  0
ENDBLK
  5
   25B
  8
0
  6
CONTINUOUS
 62
     7
  0
BLOCK
  5
   25C
  8
0
  6
CONTINUOUS
 62
     7
  2
*UDIM609
 70
    65
 10
0.0
 20
0.0
 30
0.0
  3
*UDIM609
  0
TEXT
  5
   25D
  8
0
  6
CONTINUOUS
 62
     7
 10
210.494791018772
 20
-78.8155361927842
 30
0.0
 40
3.00000002980232
  1
69,25
 50
449.999999896069
 41
0.933333333333333
 72
     1
 11
208.994791015983
 21
-72.1155361235142
 31
0.0
 73
     2
  0
LINE
  5
   25E
  8
0
  6
CONTINUOUS
 62
     7
 10
223.014788766495
 20
-80.5770416259766
 30
0.0
 11
209.494791030884
 21
-80.5770416259766
 31
0.0
  0
LINE
  5
   25F
  8
0
  6
CONTINUOUS
 62
     7
 10
211.494791030884
 20
-63.2645416259766
 30
0.0
 11
211.494791030884
 21
-80.5770416259766
 31
0.0
  0
LINE
  5
   260
  8
0
  6
CONTINUOUS
 62
     7
 10
210.973846600932
 20
-60.3101183487696
 30
0.0
 11
211.494791030884
 21
-63.2645416259766
 31
0.0
  0
LINE
  5
   261
  8
0
  6
CONTINUOUS
 62
     7
 10
211.494791030884
 20
-63.2645416259766
 30
0.0
 11
212.015735460835
 21
-60.3101183487696
 31
0.0
  0
LINE
  5
   262
  8
0
  6
CONTINUOUS
 62
     7
 10
212.015735460835
 20
-83.5314649031835
 30
0.0
 11
211.494791030884
 21
-80.5770416259766
 31
0.0
  0
LINE
  5
   263
  8
0
  6
CONTINUOUS
 62
     7
 10
211.494791030884
 20
-80.5770416259766
 30
0.0
 11
210.973846600932
 21
-83.5314649031835
 31
0.0
  0
ENDBLK
  5
   264
  8
0
  6
CONTINUOUS
 62
     7
  0
BLOCK
  5
   265
  8
0
  6
CONTINUOUS
 62
     7
  2
*UDIM610
 70
    65
 10
0.0
 20
0.0
 30
0.0
  3
*UDIM610
  0
TEXT
  5
   266
  8
0
  6
CONTINUOUS
 62
     7
 10
200.078441612823
 20
-67.8770412050777
 30
0.0
 40
3.00000002980232
  1
135
 50
449.999999896069
 41
0.933333333333333
 72
     1
 11
198.578441604972
 21
-63.9770411636231
 31
0.0
 73
     2
  0
LINE
  5
   267
  8
0
  6
CONTINUOUS
 62
     7
 10
222.39947288516
 20
-46.8270407811972
 30
0.0
 11
199.078441619874
 21
-46.827021080071
 31
0.0
  0
LINE
  5
   268
  8
0
  6
CONTINUOUS
 62
     7
 10
223.014788766495
 20
-80.5770408038602
 30
0.0
 11
199.078441619874
 21
-80.577021125397
 31
0.0
  0
LINE
  5
   269
  8
0
  6
CONTINUOUS
 62
     7
 10
201.078441619873
 20
-46.8270227696298
 30
0.0
 11
201.078441619873
 21
-80.5770227696298
 31
0.0
  0
LINE
  5
   26A
  8
0
  6
CONTINUOUS
 62
     7
 10
201.599386049825
 20
-49.7814460468367
 30
0.0
 11
201.078441619873
 21
-46.8270227696298
 31
0.0
  0
LINE
  5
   26B
  8
0
  6
CONTINUOUS
 62
     7
 10
201.078441619873
 20
-46.8270227696298
 30
0.0
 11
200.557497189921
 21
-49.7814460468367
 31
0.0
  0
LINE
  5
   26C
  8
0
  6
CONTINUOUS
 62
     7
 10
200.557497189921
 20
-77.6225994924228
 30
0.0
 11
201.078441619873
 21
-80.5770227696298
 31
0.0
  0
LINE
  5
   26D
  8
0
  6
CONTINUOUS
 62
     7
 10
201.078441619873
 20
-80.5770227696298
 30
0.0
 11
201.599386049825
 21
-77.6225994924228
 31
0.0
  0
ENDBLK
  5
   26E
  8
0
  6
CONTINUOUS
 62
     7
  0
BLOCK
  5
   26F
  8
0
  6
CONTINUOUS
 62
     7
  2
*UDIM611
 70
    65
 10
0.0
 20
0.0
 30
0.0
  3
*UDIM611
  0
TEXT
  5
   270
  8
0
  6
CONTINUOUS
 62
     7
 10
200.458796850106
 20
-102.721729313536
 30
0.0
 40
3.00000002980232
  1
5
 50
405.24765093927
 41
0.933333333333334
 72
     1
 11
200.16801030506
 21
-100.88449137196
 31
0.0
 73
     2
  0
TEXT
  5
   271
  8
0
  6
CONTINUOUS
 62
     7
 10
198.241058749142
 20
-104.958722335008
 30
0.0
 40
3.00000002980232
  1
Ø
 50
405.24765093927
 41
0.933333333333334
 72
     1
 11
197.950272204096
 21
-103.121484393433
 31
0.0
 73
     2
  0
TEXT
  5
   272
  8
0
  6
CONTINUOUS
 62
     7
 10
202.394917424922
 20
-100.768798873008
 30
0.0
 40
3.00000002980232
  1
 (M4)
 50
405.24765093927
 41
0.933333333333333
 72
     1
 11
206.046776426626
 21
-94.9546844289788
 31
0.0
 73
     2
  0
LINE
  5
   273
  8
0
  6
CONTINUOUS
 62
     7
 10
224.261041803894
 20
-80.1331938056556
 30
0.0
 11
198.951215264978
 21
-105.662766173838
 31
0.0
  0
LINE
  5
   274
  8
0
  6
CONTINUOUS
 62
     7
 10
225.971133231472
 20
-77.6683231580713
 30
0.0
 11
224.261041803894
 21
-80.1331938056556
 31
0.0
  0
LINE
  5
   275
  8
0
  6
CONTINUOUS
 62
     7
 10
224.261041803894
 20
-80.1331938056556
 30
0.0
 11
226.711037390648
 21
-78.4018585911794
 31
0.0
  0
LINE
  5
   276
  8
0
  6
CONTINUOUS
 62
     7
 10
221.670895577121
 20
-83.4857600938819
 30
0.0
 11
223.3809870047
 21
-81.0208894462975
 31
0.0
  0
LINE
  5
   277
  8
0
  6
CONTINUOUS
 62
     7
 10
223.3809870047
 20
-81.0208894462975
 30
0.0
 11
220.930991417946
 21
-82.7522246607738
 31
0.0
  0
ENDBLK
  5
   278
  8
0
  6
CONTINUOUS
 62
     7
  0
BLOCK
  5
   279
  8
0
  6
CONTINUOUS
 62
     7
  2
$1FRTESTR
 70
    64
 10
0.0
 20
0.0
 30
0.0
  3
$1FRTESTR
  0
LINE
  5
   27A
  8
0
  6
CONTINUOUS
 62
     3
 10
62.838135984871
 20
162.986807662348
 30
0.0
 11
166.838120726082
 21
162.986807662348
 31
0.0
  0
ARC
  5
   27B
  8
0
  6
CONTINUOUS
 62
     3
 10
62.838135984871
 20
162.486807662348
 30
0.0
 40
0.5
 50
89.9999999999999
 51
180.0
  0
ARC
  5
   27C
  8
0
  6
CONTINUOUS
 62
     3
 10
166.838120726082
 20
162.486807662348
 30
0.0
 40
0.5
 50
360.0
 51
450.0
  0
ARC
  5
   27D
  8
0
  6
CONTINUOUS
 62
     7
 10
114.838050281203
 20
56.7370206601576
 30
0.0
 40
2.74979860740193
 50
152.967149341799
 51
387.032850658201
  0
LINE
  5
   27E
  8
0
  6
DASHDOT
 62
     7
 10
111.196317561829
 20
56.7370206601576
 30
0.0
 11
118.8519954582
 21
56.7370206601576
 31
0.0
  0
LINE
  5
   27F
  8
0
  6
DASHDOT
 62
     7
 10
113.458222394848
 20
53.2367940082024
 30
0.0
 11
116.381299409826
 21
53.2367940082024
 31
0.0
  0
LINE
  5
   280
  8
0
  6
CONTINUOUS
 62
     7
 10
62.338135984871
 20
162.986807662348
 30
0.0
 11
166.838135984871
 21
162.986807662348
 31
0.0
  0
LINE
  5
   281
  8
0
  6
CONTINUOUS
 62
     7
 10
125.588135984871
 20
80.2367924035587
 30
0.0
 11
125.588135984871
 21
120.23677714477
 31
0.0
  0
LINE
  5
   282
  8
0
  6
CONTINUOUS
 62
     7
 10
104.088135984871
 20
80.2367924035587
 30
0.0
 11
104.088135984871
 21
120.23677714477
 31
0.0
  0
LINE
  5
   283
  8
0
  6
CONTINUOUS
 62
     7
 10
104.088135984871
 20
80.2367924035587
 30
0.0
 11
125.588135984871
 21
80.2367924035587
 31
0.0
  0
LINE
  5
   284
  8
0
  6
CONTINUOUS
 62
     7
 10
104.088135984871
 20
80.501288253168
 30
0.0
 11
125.588135984871
 21
80.501288253168
 31
0.0
  0
LINE
  5
   285
  8
0
  6
CONTINUOUS
 62
     7
 10
167.338120726082
 20
123.986792403559
 30
0.0
 11
167.338120726082
 21
162.486807662348
 31
0.0
  0
LINE
  5
   286
  8
0
  6
CONTINUOUS
 62
     7
 10
62.3381359848988
 20
123.986792403559
 30
0.0
 11
62.3381359848988
 21
162.486807662348
 31
0.0
  0
ARC
  5
   287
  8
0
  6
CONTINUOUS
 62
     7
 10
166.838135984871
 20
162.486807662348
 30
0.0
 40
0.5
 50
360.0
 51
450.0
  0
ARC
  5
   288
  8
0
  6
CONTINUOUS
 62
     7
 10
62.8381359848988
 20
162.486807662348
 30
0.0
 40
0.5
 50
89.9999999999999
 51
180.0
  0
LINE
  5
   289
  8
0
  6
CONTINUOUS
 62
     7
 10
104.088135984871
 20
94.3621131129781
 30
0.0
 11
125.588135984871
 21
94.3621131129781
 31
0.0
  0
LINE
  5
   28A
  8
0
  6
CONTINUOUS
 62
     7
 10
104.088135984871
 20
88.2456476073611
 30
0.0
 11
125.588135984871
 21
88.2456476073611
 31
0.0
  0
LINE
  5
   28B
  8
0
  6
CONTINUOUS
 62
     7
 10
104.088135984871
 20
82.2978289811495
 30
0.0
 11
125.588135984871
 21
82.2978289811495
 31
0.0
  0
LINE
  5
   28C
  8
0
  6
CONTINUOUS
 62
     7
 10
104.088135984871
 20
81.4950818534312
 30
0.0
 11
125.588135984871
 21
81.4950818534312
 31
0.0
  0
LINE
  5
   28D
  8
0
  6
CONTINUOUS
 62
   130
 10
167.338287353516
 20
60.2370452880859
 30
0.0
 11
167.338287353516
 21
69.2370071411133
 31
0.0
  0
LINE
  5
   28E
  8
0
  6
CONTINUOUS
 62
     3
 10
175.338287353516
 20
49.2370338439941
 30
0.0
 11
175.338287353516
 21
53.7370376586914
 31
0.0
  0
LINE
  5
   28F
  8
0
  6
CONTINUOUS
 62
     3
 10
167.338272094727
 20
181.237045288086
 30
0.0
 11
167.338272094727
 21
185.237060546875
 31
0.0
  0
LINE
  5
   290
  8
0
  6
DOT
 62
   130
 10
167.338136930918
 20
185.237045288086
 30
0.0
 11
197.838287353516
 21
185.237045288086
 31
0.0
  0
LINE
  5
   291
  8
0
  6
CONTINUOUS
 62
   130
 10
175.338195800781
 20
77.4869995117187
 30
0.0
 11
175.338195800781
 21
87.9869995117187
 31
0.0
  0
LINE
  5
   292
  8
0
  6
CONTINUOUS
 62
   130
 10
175.338195800781
 20
129.237014770508
 30
0.0
 11
175.338195800781
 21
153.237060546875
 31
0.0
  0
LINE
  5
   293
  8
0
  6
DOT
 62
   130
 10
167.338136930918
 20
40.4870300292969
 30
0.0
 11
197.838303130013
 21
40.4870300292969
 31
0.0
  0
LINE
  5
   294
  8
0
  6
CONTINUOUS
 62
     3
 10
175.338302612305
 20
164.737060546875
 30
0.0
 11
175.338302612305
 21
171.987060546875
 31
0.0
  0
LINE
  5
   295
  8
0
  6
DOT
 62
   130
 10
197.838307542746
 20
40.4870300292969
 30
0.0
 11
197.838307542746
 21
185.237045288088
 31
0.0
  0
LINE
  5
   296
  8
0
  6
DOT
 62
   130
 10
198.838287353516
 20
98.2369995117188
 30
0.0
 11
198.838287353516
 21
118.236999511719
 31
0.0
  0
LINE
  5
   297
  8
0
  6
CONTINUOUS
 62
   130
 10
174.338302612305
 20
87.9869995117187
 30
0.0
 11
174.338302612305
 21
123.237014770508
 31
0.0
  0
LINE
  5
   298
  8
0
  6
CONTINUOUS
 62
     3
 10
174.338302612305
 20
64.2370452880859
 30
0.0
 11
174.338302612305
 21
69.2370071411133
 31
0.0
  0
LINE
  5
   299
  8
0
  6
DOT
 62
   130
 10
197.838302612305
 20
118.236999511719
 30
0.0
 11
198.838287353516
 21
118.236999511719
 31
0.0
  0
LINE
  5
   29A
  8
0
  6
DOT
 62
   130
 10
197.838287353516
 20
98.2369995117188
 30
0.0
 11
198.838287353516
 21
98.2369995117188
 31
0.0
  0
LINE
  5
   29B
  8
0
  6
CONTINUOUS
 62
   130
 10
167.338272094727
 20
157.237045288086
 30
0.0
 11
167.338272094727
 21
160.237045288086
 31
0.0
  0
LINE
  5
   29C
  8
0
  6
CONTINUOUS
 62
     5
 10
62.3382185799735
 20
58.4870643615723
 30
0.0
 11
62.3382185799735
 21
58.9870948791504
 31
0.0
  0
LINE
  5
   29D
  8
0
  6
CONTINUOUS
 62
     5
 10
62.3382338387626
 20
150.987030029297
 30
0.0
 11
62.3382338387626
 21
162.487106323242
 31
0.0
  0
LINE
  5
   29E
  8
0
  6
CONTINUOUS
 62
     5
 10
62.3382178023051
 20
58.4870630690152
 30
0.0
 11
62.484679290483
 21
58.1335093063481
 31
0.0
  0
LINE
  5
   29F
  8
0
  6
CONTINUOUS
 62
     5
 10
62.4846836936359
 20
58.1335122424914
 30
0.0
 11
62.8382183999341
 21
57.9871270481104
 31
0.0
  0
LINE
  5
   2A0
  8
0
  6
CONTINUOUS
 62
     5
 10
136.338287244618
 20
57.987178118298
 30
0.0
 11
166.838287244618
 21
57.987178118298
 31
0.0
  0
LINE
  5
   2A1
  8
0
  6
CONTINUOUS
 62
     5
 10
62.8382147652763
 20
57.9871253967285
 30
0.0
 11
63.3382338387626
 21
57.9871253967285
 31
0.0
  0
LINE
  5
   2A2
  8
0
  6
CONTINUOUS
 62
     5
 10
166.83829354392
 20
57.9870553064633
 30
0.0
 11
167.191854934977
 21
58.1335053439705
 31
0.0
  0
LINE
  5
   2A3
  8
0
  6
CONTINUOUS
 62
     5
 10
167.191853996356
 20
58.1335071470874
 30
0.0
 11
167.338307854537
 21
58.4870609258639
 31
0.0
  0
LINE
  5
   2A4
  8
0
  6
CONTINUOUS
 62
     5
 10
167.338311084478
 20
58.4870605468785
 30
0.0
 11
167.338311084478
 21
162.487106323246
 31
0.0
  0
LINE
  5
   2A5
  8
0
  6
CONTINUOUS
 62
     3
 10
140.038223266602
 20
67.9176025390625
 30
0.0
 11
140.038223266602
 21
76.056396484375
 31
0.0
  0
LINE
  5
   2A6
  8
0
  6
CONTINUOUS
 62
     3
 10
140.038211794698
 20
67.9176002147033
 30
0.0
 11
141.43608466842
 21
66.3108649975533
 31
0.0
  0
LINE
  5
   2A7
  8
0
  6
CONTINUOUS
 62
     3
 10
141.436107419561
 20
66.3108682693334
 30
0.0
 11
143.229335601333
 21
65.1617746794285
 31
0.0
  0
LINE
  5
   2A8
  8
0
  6
CONTINUOUS
 62
     3
 10
143.22932433555
 20
65.1617736600489
 30
0.0
 11
145.273269688406
 21
64.5630798380709
 31
0.0
  0
LINE
  5
   2A9
  8
0
  6
CONTINUOUS
 62
     3
 10
145.27326965332
 20
64.5630798339844
 30
0.0
 11
147.403076171875
 21
64.5630798339844
 31
0.0
  0
LINE
  5
   2AA
  8
0
  6
CONTINUOUS
 62
     3
 10
147.403074283542
 20
64.563079134326
 30
0.0
 11
149.447019608307
 21
65.1617653710307
 31
0.0
  0
LINE
  5
   2AB
  8
0
  6
CONTINUOUS
 62
     3
 10
149.447042282035
 20
65.1617771509729
 30
0.0
 11
151.240285746951
 21
66.3108708319512
 31
0.0
  0
LINE
  5
   2AC
  8
0
  6
CONTINUOUS
 62
     3
 10
151.240253901365
 20
66.3108517885461
 30
0.0
 11
152.638172653596
 21
67.9176862071619
 31
0.0
  0
LINE
  5
   2AD
  8
0
  6
CONTINUOUS
 62
     3
 10
152.638183596164
 20
67.9176940877189
 30
0.0
 11
152.63822937253
 21
76.0564422583719
 31
0.0
  0
LINE
  5
   2AE
  8
0
  6
CONTINUOUS
 62
     3
 10
151.240307779916
 20
77.6632378465591
 30
0.0
 11
152.63822651189
 21
76.0564415686793
 31
0.0
  0
LINE
  5
   2AF
  8
0
  6
CONTINUOUS
 62
     3
 10
149.447083332064
 20
78.8123344875852
 30
0.0
 11
151.24032679698
 21
77.6632408066069
 31
0.0
  0
LINE
  5
   2B0
  8
0
  6
CONTINUOUS
 62
     3
 10
147.403143527072
 20
79.4110194142927
 30
0.0
 11
149.447073523386
 21
78.8123332069935
 31
0.0
  0
LINE
  5
   2B1
  8
0
  6
CONTINUOUS
 62
     3
 10
145.273315429688
 20
79.411018371582
 30
0.0
 11
147.403137207031
 21
79.411018371582
 31
0.0
  0
LINE
  5
   2B2
  8
0
  6
CONTINUOUS
 62
     3
 10
143.22939251271
 20
78.8123351062617
 30
0.0
 11
145.273322509023
 21
79.4110213135609
 31
0.0
  0
LINE
  5
   2B3
  8
0
  6
CONTINUOUS
 62
     3
 10
141.436162186518
 20
77.663250527544
 30
0.0
 11
143.229405651434
 21
78.8123442085223
 31
0.0
  0
LINE
  5
   2B4
  8
0
  6
CONTINUOUS
 62
     3
 10
140.038211705132
 20
76.0563873192687
 30
0.0
 11
141.436130404666
 21
77.6632293554993
 31
0.0
  0
LINE
  5
   2B5
  8
0
  6
CONTINUOUS
 62
     3
 10
136.338287354044
 20
150.487045288378
 30
0.0
 11
167.338287354044
 21
150.487106323532
 31
0.0
  0
LINE
  5
   2B6
  8
0
  6
CONTINUOUS
 62
     3
 10
62.3382263183594
 20
160.487106323242
 30
0.0
 11
167.338287353516
 21
160.487106323242
 31
0.0
  0
LINE
  5
   2B7
  8
0
  6
CONTINUOUS
 62
     3
 10
155.72851166259
 20
143.811012476882
 30
0.0
 11
155.84269317683
 21
143.23697683701
 31
0.0
  0
LINE
  5
   2B8
  8
0
  6
CONTINUOUS
 62
     3
 10
155.403367873258
 20
144.297655442636
 30
0.0
 11
155.728517425709
 21
143.811022143048
 31
0.0
  0
LINE
  5
   2B9
  8
0
  6
CONTINUOUS
 62
     3
 10
154.916713924944
 20
144.622800575332
 30
0.0
 11
155.403362490285
 21
144.297651051305
 31
0.0
  0
LINE
  5
   2BA
  8
0
  6
CONTINUOUS
 62
     3
 10
154.342683491923
 20
144.73697829243
 30
0.0
 11
154.916703865453
 21
144.622796775275
 31
0.0
  0
LINE
  5
   2BB
  8
0
  6
CONTINUOUS
 62
     3
 10
153.768660423449
 20
144.622793844053
 30
0.0
 11
154.342680796978
 21
144.736975361209
 31
0.0
  0
LINE
  5
   2BC
  8
0
  6
CONTINUOUS
 62
     3
 10
153.282047743402
 20
144.297656594134
 30
0.0
 11
153.76868104299
 21
144.622806146584
 31
0.0
  0
LINE
  5
   2BD
  8
0
  6
CONTINUOUS
 62
     3
 10
152.956879375141
 20
143.811020736964
 30
0.0
 11
153.282044165037
 21
144.297654027286
 31
0.0
  0
LINE
  5
   2BE
  8
0
  6
CONTINUOUS
 62
     3
 10
152.842691650575
 20
143.236975093355
 30
0.0
 11
152.956873164815
 21
143.811010733227
 31
0.0
  0
LINE
  5
   2BF
  8
0
  6
CONTINUOUS
 62
     3
 10
152.842697143555
 20
140.23698425293
 30
0.0
 11
152.842697143555
 21
143.23698425293
 31
0.0
  0
LINE
  5
   2C0
  8
0
  6
CONTINUOUS
 62
     3
 10
152.842690613609
 20
140.23697213591
 30
0.0
 11
152.956872130765
 21
139.662951762381
 31
0.0
  0
LINE
  5
   2C1
  8
0
  6
CONTINUOUS
 62
     3
 10
152.956879031682
 20
139.662964296916
 30
0.0
 11
153.282043821577
 21
139.176331006594
 31
0.0
  0
LINE
  5
   2C2
  8
0
  6
CONTINUOUS
 62
     3
 10
153.282043991515
 20
139.176330857389
 30
0.0
 11
153.768677281837
 21
138.851166067493
 31
0.0
  0
LINE
  5
   2C3
  8
0
  6
CONTINUOUS
 62
     3
 10
153.76866310618
 20
138.851160107741
 30
0.0
 11
154.342683479709
 21
138.736978590586
 31
0.0
  0
LINE
  5
   2C4
  8
0
  6
CONTINUOUS
 62
     3
 10
154.342680809192
 20
138.736975659364
 30
0.0
 11
154.916701182722
 21
138.85115717652
 31
0.0
  0
LINE
  5
   2C5
  8
0
  6
CONTINUOUS
 62
     3
 10
154.916718848766
 20
138.851166791318
 30
0.0
 11
155.403367404756
 21
139.176331587802
 31
0.0
  0
LINE
  5
   2C6
  8
0
  6
CONTINUOUS
 62
     3
 10
155.403369597655
 20
139.176334593321
 30
0.0
 11
155.728519150106
 21
139.662967892909
 31
0.0
  0
LINE
  5
   2C7
  8
0
  6
CONTINUOUS
 62
     3
 10
155.728506307879
 20
139.662948841054
 30
0.0
 11
155.842687825035
 21
140.236969214584
 31
0.0
  0
LINE
  5
   2C8
  8
0
  6
CONTINUOUS
 62
     3
 10
155.842697143555
 20
140.23698425293
 30
0.0
 11
155.842697143555
 21
143.23698425293
 31
0.0
  0
LINE
  5
   2C9
  8
0
  6
CONTINUOUS
 62
     3
 10
152.838287353516
 20
118.737007141113
 30
0.0
 11
155.838287353516
 21
118.737007141113
 31
0.0
  0
LINE
  5
   2CA
  8
0
  6
CONTINUOUS
 62
     3
 10
152.838287353516
 20
91.7370071411133
 30
0.0
 11
152.838287353516
 21
118.737007141113
 31
0.0
  0
LINE
  5
   2CB
  8
0
  6
CONTINUOUS
 62
     3
 10
152.838287353516
 20
91.7370071411133
 30
0.0
 11
155.838287353516
 21
91.7370071411133
 31
0.0
  0
LINE
  5
   2CC
  8
0
  6
CONTINUOUS
 62
     3
 10
155.838287353516
 20
91.7370071411133
 30
0.0
 11
155.838287353516
 21
118.737007141113
 31
0.0
  0
LINE
  5
   2CD
  8
0
  6
CONTINUOUS
 62
     5
 10
134.338287244524
 20
61.4870338439941
 30
0.0
 11
134.338287244524
 21
147.987033843994
 31
0.0
  0
LINE
  5
   2CE
  8
0
  6
CONTINUOUS
 62
     3
 10
65.8382034301758
 20
150.487030029297
 30
0.0
 11
136.338287353516
 21
150.487030029297
 31
0.0
  0
LINE
  5
   2CF
  8
0
  6
CONTINUOUS
 62
     5
 10
65.8382033211845
 20
148.987030029297
 30
0.0
 11
133.338287244524
 21
148.987030029297
 31
0.0
  0
LINE
  5
   2D0
  8
0
  6
CONTINUOUS
 62
     5
 10
133.338285092167
 20
148.98702735842
 30
0.0
 11
134.338285057938
 21
147.987027392648
 31
0.0
  0
LINE
  5
   2D1
  8
0
  6
CONTINUOUS
 62
     5
 10
64.8382046972593
 20
147.987033253019
 30
0.0
 11
65.1310971538255
 21
148.694140797088
 31
0.0
  0
LINE
  5
   2D2
  8
0
  6
CONTINUOUS
 62
     5
 10
65.131097676024
 20
148.694139678108
 30
0.0
 11
65.8382052200932
 21
148.987032134674
 31
0.0
  0
LINE
  5
   2D3
  8
0
  6
CONTINUOUS
 62
     3
 10
62.3382301342415
 20
150.487045289516
 30
0.0
 11
65.8382034313606
 21
150.487030030727
 31
0.0
  0
LINE
  5
   2D4
  8
0
  6
CONTINUOUS
 62
     5
 10
62.3382237635199
 20
58.9870948791505
 30
0.0
 11
62.3382237635199
 21
150.987049102783
 31
0.0
  0
LINE
  5
   2D5
  8
0
  6
CONTINUOUS
 62
     5
 10
63.3382262094482
 20
57.9871025090021
 30
0.0
 11
135.338287245638
 21
57.9868125920188
 31
0.0
  0
LINE
  5
   2D6
  8
0
  6
CONTINUOUS
 62
     5
 10
135.33828727611
 20
57.9868125982448
 30
0.0
 11
136.33828727611
 21
57.9867973394558
 31
0.0
  0
LINE
  5
   2D7
  8
0
  6
CONTINUOUS
 62
     5
 10
134.045396692332
 20
60.7799280313143
 30
0.0
 11
134.338289148898
 21
61.4870355753836
 31
0.0
  0
LINE
  5
   2D8
  8
0
  6
CONTINUOUS
 62
     5
 10
133.338290179516
 20
60.4870351109956
 30
0.0
 11
134.045397723585
 21
60.7799275675618
 31
0.0
  0
LINE
  5
   2D9
  8
0
  6
CONTINUOUS
 62
     5
 10
65.8382033211845
 20
60.4870338439941
 30
0.0
 11
133.338287244524
 21
60.4870338439941
 31
0.0
  0
LINE
  5
   2DA
  8
0
  6
CONTINUOUS
 62
     5
 10
65.1310968740999
 20
60.7799267955402
 30
0.0
 11
65.8382044181691
 21
60.4870343389739
 31
0.0
  0
LINE
  5
   2DB
  8
0
  6
CONTINUOUS
 62
     5
 10
64.8382039011968
 20
61.4870348092238
 30
0.0
 11
65.131096357763
 21
60.7799272651545
 31
0.0
  0
LINE
  5
   2DC
  8
0
  6
CONTINUOUS
 62
     5
 10
64.8382033211845
 20
61.4870338439941
 30
0.0
 11
64.8382033211845
 21
147.987033843994
 31
0.0
  0
LINE
  5
   2DD
  8
0
  6
CONTINUOUS
 62
     5
 10
104.088264356341
 20
79.1651916503906
 30
0.0
 11
104.088264356341
 21
120.942314147949
 31
0.0
  0
LINE
  5
   2DE
  8
0
  6
CONTINUOUS
 62
     5
 10
125.588264356341
 20
79.1651916503906
 30
0.0
 11
125.588264356341
 21
120.942314147949
 31
0.0
  0
LINE
  5
   2DF
  8
0
  6
CONTINUOUS
 62
     3
 10
160.338302612305
 20
84.4074249267578
 30
0.0
 11
162.338302612305
 21
84.4074249267578
 31
0.0
  0
LINE
  5
   2E0
  8
0
  6
CONTINUOUS
 62
     3
 10
159.984764993481
 20
84.260989862226
 30
0.0
 11
160.338326403992
 21
84.4074360904498
 31
0.0
  0
LINE
  5
   2E1
  8
0
  6
CONTINUOUS
 62
     3
 10
159.838301945385
 20
83.9074242625673
 30
0.0
 11
159.98474054387
 21
84.2609780278191
 31
0.0
  0
LINE
  5
   2E2
  8
0
  6
CONTINUOUS
 62
     3
 10
159.838302612305
 20
72.9074249267578
 30
0.0
 11
159.838302612305
 21
83.9074249267578
 31
0.0
  0
LINE
  5
   2E3
  8
0
  6
CONTINUOUS
 62
     3
 10
159.838302118278
 20
72.9074246759504
 30
0.0
 11
159.984740716763
 21
72.5538709106986
 31
0.0
  0
LINE
  5
   2E4
  8
0
  6
CONTINUOUS
 62
     3
 10
159.984760960179
 20
72.5538730699971
 30
0.0
 11
160.338322370691
 21
72.4074268417733
 31
0.0
  0
LINE
  5
   2E5
  8
0
  6
CONTINUOUS
 62
     3
 10
160.338302612305
 20
72.4074249267578
 30
0.0
 11
162.338302612305
 21
72.4074249267578
 31
0.0
  0
LINE
  5
   2E6
  8
0
  6
CONTINUOUS
 62
     3
 10
162.338302612305
 20
72.4074249267578
 30
0.0
 11
163.838302612305
 21
72.4074249267578
 31
0.0
  0
LINE
  5
   2E7
  8
0
  6
CONTINUOUS
 62
     3
 10
163.838285814719
 20
72.4074177335751
 30
0.0
 11
164.191831948319
 21
72.5538639618185
 31
0.0
  0
LINE
  5
   2E8
  8
0
  6
CONTINUOUS
 62
     3
 10
164.191854151671
 20
72.5538760126922
 30
0.0
 11
164.338308009852
 21
72.9074297914687
 31
0.0
  0
LINE
  5
   2E9
  8
0
  6
CONTINUOUS
 62
     3
 10
164.338302612305
 20
72.9074249267578
 30
0.0
 11
164.338302612305
 21
83.9074249267578
 31
0.0
  0
LINE
  5
   2EA
  8
0
  6
CONTINUOUS
 62
     3
 10
164.191852759365
 20
84.260981163616
 30
0.0
 11
164.338306617545
 21
83.9074273848396
 31
0.0
  0
LINE
  5
   2EB
  8
0
  6
CONTINUOUS
 62
     3
 10
163.83828863847
 20
84.4074229636115
 30
0.0
 11
164.191834772069
 21
84.260976735368
 31
0.0
  0
LINE
  5
   2EC
  8
0
  6
CONTINUOUS
 62
     5
 10
134.338241468157
 20
123.98705291748
 30
0.0
 11
134.338241468157
 21
124.98705291748
 31
0.0
  0
LINE
  5
   2ED
  8
0
  6
CONTINUOUS
 62
     3
 10
64.8381958007813
 20
124.487052917481
 30
0.0
 11
134.338241577148
 21
124.487052917481
 31
0.0
  0
LINE
  5
   2EE
  8
0
  6
CONTINUOUS
 62
     3
 10
64.8381958007813
 20
123.48705291748
 30
0.0
 11
134.338241577148
 21
123.48705291748
 31
0.0
  0
LINE
  5
   2EF
  8
0
  6
CONTINUOUS
 62
     5
 10
134.338241468157
 20
74.9870529174805
 30
0.0
 11
134.338241468157
 21
75.9870529174805
 31
0.0
  0
LINE
  5
   2F0
  8
0
  6
CONTINUOUS
 62
     3
 10
64.8381958007813
 20
75.4870529174805
 30
0.0
 11
134.338241577148
 21
75.4870529174805
 31
0.0
  0
LINE
  5
   2F1
  8
0
  6
CONTINUOUS
 62
     3
 10
64.8381958007813
 20
74.4870529174805
 30
0.0
 11
134.338241577148
 21
74.4870529174805
 31
0.0
  0
LINE
  5
   2F2
  8
0
  6
CONTINUOUS
 62
     3
 10
64.8381958007813
 20
111.48705291748
 30
0.0
 11
104.088233947754
 21
111.48705291748
 31
0.0
  0
LINE
  5
   2F3
  8
0
  6
CONTINUOUS
 62
     3
 10
64.8381958007813
 20
110.48705291748
 30
0.0
 11
104.088233947754
 21
110.48705291748
 31
0.0
  0
LINE
  5
   2F4
  8
0
  6
CONTINUOUS
 62
     3
 10
64.8381958007813
 20
88.4870529174805
 30
0.0
 11
104.088226318359
 21
88.4870529174805
 31
0.0
  0
LINE
  5
   2F5
  8
0
  6
CONTINUOUS
 62
     3
 10
64.8381958007813
 20
87.4870529174805
 30
0.0
 11
104.088226318359
 21
87.4870529174805
 31
0.0
  0
LINE
  5
   2F6
  8
0
  6
CONTINUOUS
 62
     5
 10
134.338241468157
 20
110.98705291748
 30
0.0
 11
134.338241468157
 21
111.98705291748
 31
0.0
  0
LINE
  5
   2F7
  8
0
  6
CONTINUOUS
 62
     3
 10
125.588264465332
 20
111.48705291748
 30
0.0
 11
134.338241577148
 21
111.48705291748
 31
0.0
  0
LINE
  5
   2F8
  8
0
  6
CONTINUOUS
 62
     3
 10
125.588264465332
 20
110.48705291748
 30
0.0
 11
134.338241577148
 21
110.48705291748
 31
0.0
  0
LINE
  5
   2F9
  8
0
  6
CONTINUOUS
 62
     5
 10
134.338241468157
 20
87.9870529174805
 30
0.0
 11
134.338241468157
 21
88.9870529174805
 31
0.0
  0
LINE
  5
   2FA
  8
0
  6
CONTINUOUS
 62
     3
 10
125.588256835938
 20
88.4870529174805
 30
0.0
 11
134.338241577148
 21
88.4870529174805
 31
0.0
  0
LINE
  5
   2FB
  8
0
  6
CONTINUOUS
 62
     3
 10
125.588256835938
 20
87.4870529174805
 30
0.0
 11
134.338241577148
 21
87.4870529174805
 31
0.0
  0
LINE
  5
   2FC
  8
0
  6
CONTINUOUS
 62
     5
 10
62.8346823948867
 20
57.9885749986729
 30
0.0
 11
135.338283468946
 21
57.9868126084805
 31
0.0
  0
LINE
  5
   2FD
  8
0
  6
CONTINUOUS
 62
     3
 10
166.088317871094
 20
58.487178118298
 30
0.0
 11
166.088317871094
 21
150.487102508545
 31
0.0
  0
LINE
  5
   2FE
  8
0
  6
CONTINUOUS
 62
     3
 10
63.5882225036621
 20
57.9885520935059
 30
0.0
 11
63.5882225036621
 21
150.4870262146
 31
0.0
  0
LINE
  5
   2FF
  8
0
  6
CONTINUOUS
 62
     5
 10
62.7028633895192
 20
58.0431651004869
 30
0.0
 11
62.7043396773642
 21
58.0446413883319
 31
0.0
  0
LINE
  5
   300
  8
0
  6
CONTINUOUS
 62
     5
 10
104.088264356341
 20
120.501495361328
 30
0.0
 11
125.588264356341
 21
120.501495361328
 31
0.0
  0
LINE
  5
   301
  8
0
  6
CONTINUOUS
 62
     5
 10
104.088264356341
 20
120.942314147949
 30
0.0
 11
125.588264356341
 21
120.942314147949
 31
0.0
  0
LINE
  5
   302
  8
0
  6
CONTINUOUS
 62
     5
 10
104.088264356341
 20
79.1651916503906
 30
0.0
 11
125.588264356341
 21
79.1651916503906
 31
0.0
  0
LINE
  5
   303
  8
0
  6
CONTINUOUS
 62
     5
 10
104.088264356341
 20
79.8350677490234
 30
0.0
 11
125.588264356341
 21
79.8350677490234
 31
0.0
  0
LINE
  5
   304
  8
0
  6
CONTINUOUS
 62
   130
 10
174.338302612305
 20
69.2370071411133
 30
0.0
 11
174.338302612305
 21
77.4869995117187
 31
0.0
  0
CIRCLE
  5
   305
  8
0
  6
CONTINUOUS
 62
   130
 10
184.338333544337
 20
82.7370112096181
 30
0.0
 40
5.24998094314796
  0
LINE
  5
   306
  8
0
  6
DASHDOT
 62
     7
 10
184.338333544337
 20
74.4870302664702
 30
0.0
 11
184.338333544337
 21
90.9869921527661
 31
0.0
  0
LINE
  5
   307
  8
0
  6
DASHDOT
 62
     7
 10
176.088352601189
 20
82.7370112096182
 30
0.0
 11
192.588314487485
 21
82.7370112096182
 31
0.0
  0
LINE
  5
   308
  8
0
  6
DOT
 62
   130
 10
167.338136930918
 20
29.9868076623477
 30
0.0
 11
167.338136930918
 21
57.9868245183649
 31
0.0
  0
LINE
  5
   309
  8
0
  6
DOT
 62
   130
 10
167.338136930918
 20
162.986807484462
 30
0.0
 11
167.338136930918
 21
190.980505782465
 31
0.0
  0
LINE
  5
   30A
  8
0
  6
CONTINUOUS
 62
     2
 10
175.33813789222
 20
75.7368076623477
 30
0.0
 11
210.83813789222
 21
75.7368076623477
 31
0.0
  0
LINE
  5
   30B
  8
0
  6
CONTINUOUS
 62
     2
 10
175.33813789222
 20
90.7368076623477
 30
0.0
 11
210.83813789222
 21
90.7368076623477
 31
0.0
  0
LINE
  5
   30C
  8
0
  6
CONTINUOUS
 62
     2
 10
210.83813789222
 20
74.7368076623478
 30
0.0
 11
210.83813789222
 21
91.7368076623477
 31
0.0
  0
LINE
  5
   30D
  8
0
  6
CONTINUOUS
 62
     2
 10
175.33813789222
 20
75.7368076623477
 30
0.0
 11
175.33813789222
 21
90.7368076623477
 31
0.0
  0
LINE
  5
   30E
  8
0
  6
CONTINUOUS
 62
     2
 10
210.83813789222
 20
91.7368076623477
 30
0.0
 11
210.83813789222
 21
190.980505782465
 31
0.0
  0
LINE
  5
   30F
  8
0
  6
CONTINUOUS
 62
     2
 10
210.83813789222
 20
29.9868076623477
 30
0.0
 11
210.83813789222
 21
74.7368038476505
 31
0.0
  0
LINE
  5
   310
  8
0
  6
CONTINUOUS
 62
     2
 10
36.3381340775223
 20
29.9868076623477
 30
0.0
 11
210.83813789222
 21
29.9868076623477
 31
0.0
  0
LINE
  5
   311
  8
0
  6
CONTINUOUS
 62
     2
 10
36.3381340775223
 20
29.9868076623477
 30
0.0
 11
36.3381340775223
 21
190.980505782465
 31
0.0
  0
LINE
  5
   312
  8
0
  6
CONTINUOUS
 62
     2
 10
175.33813789222
 20
169.986807662348
 30
0.0
 11
175.33813789222
 21
170.986807662348
 31
0.0
  0
LINE
  5
   313
  8
0
  6
CONTINUOUS
 62
     2
 10
45.3381340775223
 20
169.986807662348
 30
0.0
 11
45.3381340775223
 21
170.986807662348
 31
0.0
  0
LINE
  5
   314
  8
0
  6
CONTINUOUS
 62
     2
 10
175.33813789222
 20
49.9868076623477
 30
0.0
 11
175.33813789222
 21
50.9868076623478
 31
0.0
  0
LINE
  5
   315
  8
0
  6
CONTINUOUS
 62
     2
 10
46.3381340775223
 20
49.9868076623477
 30
0.0
 11
174.338134077522
 21
49.9868076623477
 31
0.0
  0
LINE
  5
   316
  8
0
  6
CONTINUOUS
 62
     2
 10
45.3381340775223
 20
49.9868076623477
 30
0.0
 11
45.3381340775223
 21
50.9868076623477
 31
0.0
  0
LINE
  5
   317
  8
0
  6
CONTINUOUS
 62
     2
 10
174.33813789222
 20
29.9868076623477
 30
0.0
 11
174.33813789222
 21
49.9868076623477
 31
0.0
  0
LINE
  5
   318
  8
0
  6
CONTINUOUS
 62
     2
 10
175.33813789222
 20
170.986807662348
 30
0.0
 11
175.33813789222
 21
190.986807662348
 31
0.0
  0
LINE
  5
   319
  8
0
  6
CONTINUOUS
 62
     2
 10
175.33813789222
 20
50.9868076623478
 30
0.0
 11
175.33813789222
 21
74.7368076623478
 31
0.0
  0
LINE
  5
   31A
  8
0
  6
CONTINUOUS
 62
     2
 10
175.33813789222
 20
91.7368076623477
 30
0.0
 11
175.33813789222
 21
169.986807662348
 31
0.0
  0
LINE
  5
   31B
  8
0
  6
CONTINUOUS
 62
     2
 10
175.33813789222
 20
29.9868076623477
 30
0.0
 11
175.33813789222
 21
49.9868076623477
 31
0.0
  0
LINE
  5
   31C
  8
0
  6
CONTINUOUS
 62
     2
 10
45.3381340775223
 20
170.986807662348
 30
0.0
 11
45.3381340775223
 21
190.986807662348
 31
0.0
  0
LINE
  5
   31D
  8
0
  6
CONTINUOUS
 62
     2
 10
45.3381340775223
 20
50.9868076623477
 30
0.0
 11
45.3381340775223
 21
169.986807662348
 31
0.0
  0
LINE
  5
   31E
  8
0
  6
CONTINUOUS
 62
     2
 10
45.3381340775223
 20
29.9868076623477
 30
0.0
 11
45.3381340775223
 21
49.9868076623477
 31
0.0
  0
LINE
  5
   31F
  8
0
  6
CONTINUOUS
 62
     2
 10
46.3381340775223
 20
29.9868076623477
 30
0.0
 11
46.3381340775223
 21
49.9868076623477
 31
0.0
  0
LINE
  5
   320
  8
0
  6
CONTINUOUS
 62
     2
 10
175.33813789222
 20
74.7368076623477
 30
0.0
 11
210.83813789222
 21
74.7368076623477
 31
0.0
  0
LINE
  5
   321
  8
0
  6
CONTINUOUS
 62
     2
 10
175.33813789222
 20
91.7368076623477
 30
0.0
 11
210.83813789222
 21
91.7368076623477
 31
0.0
  0
LINE
  5
   322
  8
0
  6
CONTINUOUS
 62
     2
 10
175.388140943977
 20
90.7368076623477
 30
0.0
 11
175.388140943977
 21
91.7368076623477
 31
0.0
  0
LINE
  5
   323
  8
0
  6
CONTINUOUS
 62
     2
 10
175.388140943977
 20
74.7368076623478
 30
0.0
 11
175.388140943977
 21
75.7368076623477
 31
0.0
  0
LINE
  5
   324
  8
0
  6
CONTINUOUS
 62
     2
 10
46.3381340775223
 20
169.986807662348
 30
0.0
 11
174.338134077522
 21
169.986807662348
 31
0.0
  0
LINE
  5
   325
  8
0
  6
CONTINUOUS
 62
     2
 10
46.3381340775223
 20
50.9868076623477
 30
0.0
 11
174.338134077522
 21
50.9868076623477
 31
0.0
  0
LINE
  5
   326
  8
0
  6
CONTINUOUS
 62
     2
 10
174.33813789222
 20
50.9868076623478
 30
0.0
 11
174.33813789222
 21
169.986807662348
 31
0.0
  0
LINE
  5
   327
  8
0
  6
CONTINUOUS
 62
     2
 10
46.3381340775223
 20
50.9868076623477
 30
0.0
 11
46.3381340775223
 21
169.986807662348
 31
0.0
  0
LINE
  5
   328
  8
0
  6
CONTINUOUS
 62
     2
 10
167.338135984871
 20
162.986806538415
 30
0.0
 11
174.338132316581
 21
169.986802870125
 31
0.0
  0
LINE
  5
   329
  8
0
  6
CONTINUOUS
 62
     2
 10
46.3381356602671
 20
169.986809526682
 30
0.0
 11
62.338135984871
 21
162.457400151209
 31
0.0
  0
LINE
  5
   32A
  8
0
  6
CONTINUOUS
 62
     2
 10
167.338135984871
 20
57.9868254644128
 30
0.0
 11
174.338155138938
 21
50.9868027700006
 31
0.0
  0
LINE
  5
   32B
  8
0
  6
CONTINUOUS
 62
     2
 10
46.3381386778443
 20
50.986809283945
 30
0.0
 11
62.338135984871
 21
58.5162208973637
 31
0.0
  0
LINE
  5
   32C
  8
0
  6
CONTINUOUS
 62
     2
 10
174.338076857063
 20
170.980505782465
 30
0.0
 11
174.338076857063
 21
190.980505782465
 31
0.0
  0
LINE
  5
   32D
  8
0
  6
CONTINUOUS
 62
     2
 10
45.3381340775223
 20
170.980505782465
 30
0.0
 11
175.33813789222
 21
170.980505782465
 31
0.0
  0
LINE
  5
   32E
  8
0
  6
CONTINUOUS
 62
     2
 10
36.3381340775223
 20
190.980505782465
 30
0.0
 11
45.3381340775223
 21
190.980505782465
 31
0.0
  0
LINE
  5
   32F
  8
0
  6
CONTINUOUS
 62
     2
 10
115.343405041228
 20
190.980505782465
 30
0.0
 11
175.33813789222
 21
190.980505782465
 31
0.0
  0
ARC
  5
   330
  8
0
  6
CONTINUOUS
 62
     2
 10
110.338105467293
 20
195.127691142981
 30
0.0
 40
6.50016693934245
 50
219.643748317915
 51
320.356251682085
  0
LINE
  5
   331
  8
0
  6
CONTINUOUS
 62
     2
 10
105.332805893357
 20
190.980505782465
 30
0.0
 11
115.343405041228
 21
190.980505782465
 31
0.0
  0
LINE
  5
   332
  8
0
  6
CONTINUOUS
 62
     2
 10
46.3381340775223
 20
170.986807662348
 30
0.0
 11
46.3381340775223
 21
190.986807662348
 31
0.0
  0
LINE
  5
   333
  8
0
  6
CONTINUOUS
 62
     2
 10
45.3381340775223
 20
190.980505782465
 30
0.0
 11
105.332805893357
 21
190.980505782465
 31
0.0
  0
LINE
  5
   334
  8
0
  6
CONTINUOUS
 62
     2
 10
175.33813789222
 20
190.980505782465
 30
0.0
 11
210.83813789222
 21
190.980505782465
 31
0.0
  0
POINT
  5
   335
  8
0
  6
CONTINUOUS
 62
     2
 10
114.838135984871
 20
110.486807662348
 30
0.0
  0
ENDBLK
  5
   336
  8
0
  6
CONTINUOUS
 62
     7
  0
BLOCK
  5
   337
  8
0
  6
CONTINUOUS
 62
     7
  2
$1TERM_ANT_
 70
    64
 10
0.0
 20
0.0
 30
0.0
  3
$1TERM_ANT_
  0
LINE
  5
   338
  8
0
  6
CONTINUOUS
 62
     3
 10
104.83820302152
 20
17.736790496214
 30
0.0
 11
104.83820302152
 21
25.2368000329572
 31
0.0
  0
LINE
  5
   339
  8
0
  6
CONTINUOUS
 62
     3
 10
104.83820302152
 20
17.736790496214
 30
0.0
 11
106.08820302152
 21
17.736790496214
 31
0.0
  0
LINE
  5
   33A
  8
0
  6
CONTINUOUS
 62
     3
 10
106.08820302152
 20
-2.26319996704281
 30
0.0
 11
106.08820302152
 21
17.7367847741681
 31
0.0
  0
LINE
  5
   33B
  8
0
  6
CONTINUOUS
 62
     3
 10
106.08820302152
 20
-2.2631999670428
 30
0.0
 11
123.58820302152
 21
-2.2631999670428
 31
0.0
  0
LINE
  5
   33C
  8
0
  6
CONTINUOUS
 62
     3
 10
123.58820302152
 20
-2.26319996704281
 30
0.0
 11
123.58820302152
 21
17.7367847741681
 31
0.0
  0
LINE
  5
   33D
  8
0
  6
CONTINUOUS
 62
     3
 10
123.58820302152
 20
17.736790496214
 30
0.0
 11
124.83820302152
 21
17.736790496214
 31
0.0
  0
LINE
  5
   33E
  8
0
  6
CONTINUOUS
 62
     3
 10
124.83820302152
 20
17.736790496214
 30
0.0
 11
124.83820302152
 21
25.2368000329572
 31
0.0
  0
CIRCLE
  5
   33F
  8
0
  6
CONTINUOUS
 62
     3
 10
114.838135984871
 20
7.73682142327932
 30
0.0
 40
4.1000570117577
  0
LINE
  5
   340
  8
0
  6
CONTINUOUS
 62
     7
 10
69.8382030215199
 20
17.736790496214
 30
0.0
 11
69.8382030215199
 21
25.2368000329572
 31
0.0
  0
LINE
  5
   341
  8
0
  6
CONTINUOUS
 62
     7
 10
89.8382030215199
 20
17.736790496214
 30
0.0
 11
89.8382030215199
 21
25.2368000329572
 31
0.0
  0
CIRCLE
  5
   342
  8
0
  6
CONTINUOUS
 62
     7
 10
79.838135984871
 20
7.73682142327933
 30
0.0
 40
4.1000570117577
  0
LINE
  5
   343
  8
0
  6
CONTINUOUS
 62
     7
 10
71.0882030215199
 20
-2.26319996704281
 30
0.0
 11
71.0882030215199
 21
17.7367847741681
 31
0.0
  0
LINE
  5
   344
  8
0
  6
CONTINUOUS
 62
     7
 10
88.5882030215199
 20
-2.26319996704281
 30
0.0
 11
88.5882030215199
 21
17.7367847741681
 31
0.0
  0
LINE
  5
   345
  8
0
  6
CONTINUOUS
 62
     7
 10
71.0882030215199
 20
-2.2631999670428
 30
0.0
 11
88.5882030215199
 21
-2.2631999670428
 31
0.0
  0
LINE
  5
   346
  8
0
  6
CONTINUOUS
 62
     7
 10
69.8382030215199
 20
17.736790496214
 30
0.0
 11
71.0882030215199
 21
17.736790496214
 31
0.0
  0
LINE
  5
   347
  8
0
  6
CONTINUOUS
 62
     7
 10
88.5882030215199
 20
17.736790496214
 30
0.0
 11
89.8382030215199
 21
17.736790496214
 31
0.0
  0
LINE
  5
   348
  8
0
  6
CONTINUOUS
 62
     7
 10
139.838068948222
 20
17.736790496214
 30
0.0
 11
139.838068948222
 21
25.2368000329572
 31
0.0
  0
LINE
  5
   349
  8
0
  6
CONTINUOUS
 62
     7
 10
159.838068948222
 20
17.736790496214
 30
0.0
 11
159.838068948222
 21
25.2368000329572
 31
0.0
  0
LINE
  5
   34A
  8
0
  6
CONTINUOUS
 62
     7
 10
158.588068948222
 20
-2.26319996704281
 30
0.0
 11
158.588068948222
 21
17.7367847741681
 31
0.0
  0
LINE
  5
   34B
  8
0
  6
CONTINUOUS
 62
     7
 10
141.088068948222
 20
-2.26319996704281
 30
0.0
 11
141.088068948222
 21
17.7367847741681
 31
0.0
  0
LINE
  5
   34C
  8
0
  6
CONTINUOUS
 62
     7
 10
141.088068948222
 20
-2.2631999670428
 30
0.0
 11
158.588068948222
 21
-2.2631999670428
 31
0.0
  0
CIRCLE
  5
   34D
  8
0
  6
CONTINUOUS
 62
     7
 10
149.838135984871
 20
7.73682142327932
 30
0.0
 40
4.1000570117577
  0
LINE
  5
   34E
  8
0
  6
CONTINUOUS
 62
     7
 10
139.838068948222
 20
17.736790496214
 30
0.0
 11
141.088068948222
 21
17.736790496214
 31
0.0
  0
LINE
  5
   34F
  8
0
  6
CONTINUOUS
 62
     7
 10
158.588068948222
 20
17.736790496214
 30
0.0
 11
159.838068948222
 21
17.736790496214
 31
0.0
  0
POINT
  5
   350
  8
0
  6
CONTINUOUS
 62
     7
 10
114.838135984871
 20
25.2368000329572
 30
0.0
  0
LINE
  5
   351
  8
0
  6
DASHDOT
 62
     7
 10
149.838135984871
 20
0.636764411521626
 30
0.0
 11
149.838135984871
 21
14.836878435037
 31
0.0
  0
LINE
  5
   352
  8
0
  6
DASHDOT
 62
     7
 10
142.738078973113
 20
7.73682142327932
 30
0.0
 11
156.938192996629
 21
7.73682142327932
 31
0.0
  0
LINE
  5
   353
  8
0
  6
DASHDOT
 62
     7
 10
114.838135984871
 20
0.636764411521628
 30
0.0
 11
114.838135984871
 21
14.836878435037
 31
0.0
  0
LINE
  5
   354
  8
0
  6
DASHDOT
 62
     7
 10
107.738078973113
 20
7.73682142327932
 30
0.0
 11
121.938192996629
 21
7.73682142327932
 31
0.0
  0
LINE
  5
   355
  8
0
  6
DASHDOT
 62
     7
 10
79.838135984871
 20
0.63676441152163
 30
0.0
 11
79.838135984871
 21
14.836878435037
 31
0.0
  0
LINE
  5
   356
  8
0
  6
DASHDOT
 62
     7
 10
72.7380789731133
 20
7.73682142327933
 30
0.0
 11
86.9381929966287
 21
7.73682142327933
 31
0.0
  0
LINE
  5
   357
  8
0
  6
DASHDOT
 62
     7
 10
37.7380789731133
 20
7.73682142327933
 30
0.0
 11
51.9381929966287
 21
7.73682142327933
 31
0.0
  0
LINE
  5
   358
  8
0
  6
DASHDOT
 62
     7
 10
44.838135984871
 20
0.63676441152163
 30
0.0
 11
44.838135984871
 21
14.836878435037
 31
0.0
  0
LINE
  5
   359
  8
0
  6
CONTINUOUS
 62
     7
 10
53.5882030215199
 20
17.736790496214
 30
0.0
 11
54.8382030215199
 21
17.736790496214
 31
0.0
  0
LINE
  5
   35A
  8
0
  6
CONTINUOUS
 62
     7
 10
34.8382030215199
 20
17.736790496214
 30
0.0
 11
36.0882030215199
 21
17.736790496214
 31
0.0
  0
LINE
  5
   35B
  8
0
  6
CONTINUOUS
 62
     7
 10
36.0882030215199
 20
-2.2631999670428
 30
0.0
 11
53.5882030215199
 21
-2.2631999670428
 31
0.0
  0
LINE
  5
   35C
  8
0
  6
CONTINUOUS
 62
     7
 10
53.5882030215199
 20
-2.26319996704281
 30
0.0
 11
53.5882030215199
 21
17.7367847741681
 31
0.0
  0
LINE
  5
   35D
  8
0
  6
CONTINUOUS
 62
     7
 10
36.0882030215199
 20
-2.26319996704281
 30
0.0
 11
36.0882030215199
 21
17.7367847741681
 31
0.0
  0
CIRCLE
  5
   35E
  8
0
  6
CONTINUOUS
 62
     7
 10
44.838135984871
 20
7.73682142327933
 30
0.0
 40
4.1000570117577
  0
LINE
  5
   35F
  8
0
  6
CONTINUOUS
 62
     7
 10
54.8382030215199
 20
17.736790496214
 30
0.0
 11
54.8382030215199
 21
25.2368000329572
 31
0.0
  0
LINE
  5
   360
  8
0
  6
CONTINUOUS
 62
     7
 10
34.8382030215199
 20
17.736790496214
 30
0.0
 11
34.8382030215199
 21
25.2368000329572
 31
0.0
  0
ENDBLK
  5
   361
  8
0
  6
CONTINUOUS
 62
     7
  0
BLOCK
  5
   362
  8
0
  6
CONTINUOUS
 62
     7
  2
*UDIM612
 70
    65
 10
0.0
 20
0.0
 30
0.0
  3
*UDIM612
  0
TEXT
  5
   363
  8
0
  6
CONTINUOUS
 62
     7
 10
279.620036388203
 20
42.733283716199
 30
0.0
 40
2.99999997871263
  1
8,2
 50
350.376540109527
 41
0.933333333333333
 72
     1
 11
283.715912951004
 21
43.5602026569106
 31
0.0
 73
     2
  0
TEXT
  5
   364
  8
0
  6
CONTINUOUS
 62
     7
 10
276.514364252156
 20
43.2598769272575
 30
0.0
 40
2.99999997871263
  1
Ø
 50
350.376540109527
 41
0.933333333333333
 72
     1
 11
277.849643356952
 21
44.5548787277169
 31
0.0
 73
     2
  0
LINE
  5
   365
  8
0
  6
CONTINUOUS
 62
     7
 10
287.143099715792
 20
40.4434109394238
 30
0.0
 11
253.656188338977
 21
46.1214025314735
 31
0.0
  0
LINE
  5
   366
  8
0
  6
CONTINUOUS
 62
     7
 10
259.485775269179
 20
45.6613262861926
 30
0.0
 11
256.485840052384
 21
45.6416109359942
 31
0.0
  0
LINE
  5
   367
  8
0
  6
CONTINUOUS
 62
     7
 10
256.485840052384
 20
45.6416109359942
 30
0.0
 11
259.311600155626
 21
44.6340992293987
 31
0.0
  0
LINE
  5
   368
  8
0
  6
CONTINUOUS
 62
     7
 10
250.656253122182
 20
46.1016871812751
 30
0.0
 11
253.656188338977
 21
46.1214025314735
 31
0.0
  0
LINE
  5
   369
  8
0
  6
CONTINUOUS
 62
     7
 10
253.656188338977
 20
46.1214025314735
 30
0.0
 11
250.830428235735
 21
47.128914238069
 31
0.0
  0
ENDBLK
  5
   36A
  8
0
  6
CONTINUOUS
 62
     7
  0
BLOCK
  5
   36B
  8
0
  6
CONTINUOUS
 62
     7
  2
*UDIM613
 70
    65
 10
0.0
 20
0.0
 30
0.0
  3
*UDIM613
  0
TEXT
  5
   36C
  8
0
  6
CONTINUOUS
 62
     7
 10
275.018489423619
 20
34.6291064161583
 30
0.0
 40
2.99999997871263
  1
17,5
 50
359.999999948034
 41
0.933333333333333
 72
     1
 11
280.318489387364
 21
36.1291064007343
 31
0.0
 73
     2
  0
LINE
  5
   36D
  8
0
  6
CONTINUOUS
 62
     7
 10
258.1334906807
 20
41.3814993067259
 30
0.0
 11
258.1334906807
 21
31.629106411378
 31
0.0
  0
LINE
  5
   36E
  8
0
  6
CONTINUOUS
 62
     7
 10
252.008490785008
 20
41.3814993067259
 30
0.0
 11
252.008490785008
 21
31.629106411378
 31
0.0
  0
LINE
  5
   36F
  8
0
  6
CONTINUOUS
 62
     7
 10
285.618489349757
 20
33.629106411378
 30
0.0
 11
252.008490785008
 21
33.629106411378
 31
0.0
  0
LINE
  5
   370
  8
0
  6
CONTINUOUS
 62
     7
 10
261.087913957907
 20
34.1500508413296
 30
0.0
 11
258.1334906807
 21
33.629106411378
 31
0.0
  0
LINE
  5
   371
  8
0
  6
CONTINUOUS
 62
     7
 10
258.1334906807
 20
33.629106411378
 30
0.0
 11
261.087913957907
 21
33.1081619814263
 31
0.0
  0
LINE
  5
   372
  8
0
  6
CONTINUOUS
 62
     7
 10
249.054067507801
 20
33.1081619814263
 30
0.0
 11
252.008490785008
 21
33.629106411378
 31
0.0
  0
LINE
  5
   373
  8
0
  6
CONTINUOUS
 62
     7
 10
252.008490785008
 20
33.629106411378
 30
0.0
 11
249.054067507801
 21
34.1500508413296
 31
0.0
  0
ENDBLK
  5
   374
  8
0
  6
CONTINUOUS
 62
     7
  0
BLOCK
  5
   375
  8
0
  6
CONTINUOUS
 62
     7
  2
*UDIM614
 70
    65
 10
0.0
 20
0.0
 30
0.0
  3
*UDIM614
  0
TEXT
  5
   376
  8
0
  6
CONTINUOUS
 62
     7
 10
205.034739541866
 20
34.6291064136328
 30
0.0
 40
2.99999997871263
  1
20
 50
359.999999948034
 41
0.933333333333333
 72
     1
 11
207.53473952548
 21
36.1291064007343
 31
0.0
 73
     2
  0
LINE
  5
   377
  8
0
  6
CONTINUOUS
 62
     7
 10
221.821038224751
 20
48.3814958496565
 30
0.0
 11
221.821038224751
 21
31.629106411378
 31
0.0
  0
LINE
  5
   378
  8
0
  6
CONTINUOUS
 62
     7
 10
214.821038343961
 20
48.3814958496565
 30
0.0
 11
214.821038343961
 21
31.629106411378
 31
0.0
  0
LINE
  5
   379
  8
0
  6
CONTINUOUS
 62
     7
 10
221.821038224751
 20
33.629106411378
 30
0.0
 11
205.034739543219
 21
33.629106411378
 31
0.0
  0
LINE
  5
   37A
  8
0
  6
CONTINUOUS
 62
     7
 10
224.775461501958
 20
34.1500508413296
 30
0.0
 11
221.821038224751
 21
33.629106411378
 31
0.0
  0
LINE
  5
   37B
  8
0
  6
CONTINUOUS
 62
     7
 10
221.821038224751
 20
33.629106411378
 30
0.0
 11
224.775461501958
 21
33.1081619814263
 31
0.0
  0
LINE
  5
   37C
  8
0
  6
CONTINUOUS
 62
     7
 10
211.866615066754
 20
33.1081619814263
 30
0.0
 11
214.821038343961
 21
33.629106411378
 31
0.0
  0
LINE
  5
   37D
  8
0
  6
CONTINUOUS
 62
     7
 10
214.821038343961
 20
33.629106411378
 30
0.0
 11
211.866615066754
 21
34.1500508413296
 31
0.0
  0
ENDBLK
  5
   37E
  8
0
  6
CONTINUOUS
 62
     7
  0
BLOCK
  5
   37F
  8
0
  6
CONTINUOUS
 62
     7
  2
*UDIM615
 70
    65
 10
0.0
 20
0.0
 30
0.0
  3
*UDIM615
  0
TEXT
  5
   380
  8
0
  6
CONTINUOUS
 62
     7
 10
256.846013999193
 20
153.637323533663
 30
0.0
 40
2.99999997871263
  1
96
 50
359.999999948034
 41
0.933333333333333
 72
     1
 11
259.346013982807
 21
155.137323520765
 31
0.0
 73
     2
  0
LINE
  5
   381
  8
0
  6
CONTINUOUS
 62
     7
 10
276.421014499664
 20
127.116763071005
 30
0.0
 11
276.421014499664
 21
154.637323531409
 31
0.0
  0
LINE
  5
   382
  8
0
  6
CONTINUOUS
 62
     7
 10
276.421014499664
 20
152.637323531409
 30
0.0
 11
242.821014404297
 21
152.637323531409
 31
0.0
  0
LINE
  5
   383
  8
0
  6
CONTINUOUS
 62
     7
 10
273.466591222457
 20
152.116379101457
 30
0.0
 11
276.421014499664
 21
152.637323531409
 31
0.0
  0
LINE
  5
   384
  8
0
  6
CONTINUOUS
 62
     7
 10
276.421014499664
 20
152.637323531409
 30
0.0
 11
273.466591222457
 21
153.15826796136
 31
0.0
  0
LINE
  5
   385
  8
0
  6
CONTINUOUS
 62
     7
 10
245.775437681504
 20
153.15826796136
 30
0.0
 11
242.821014404297
 21
152.637323531409
 31
0.0
  0
LINE
  5
   386
  8
0
  6
CONTINUOUS
 62
     7
 10
242.821014404297
 20
152.637323531409
 30
0.0
 11
245.775437681504
 21
152.116379101457
 31
0.0
  0
ENDBLK
  5
   387
  8
0
  6
CONTINUOUS
 62
     7
  0
BLOCK
  5
   388
  8
0
  6
CONTINUOUS
 62
     7
  2
*UDIM616
 70
    65
 10
0.0
 20
0.0
 30
0.0
  3
*UDIM616
  0
TEXT
  5
   389
  8
0
  6
CONTINUOUS
 62
     7
 10
223.508517063369
 20
153.637323536189
 30
0.0
 40
2.99999997871263
  1
78,5
 50
359.999999948034
 41
0.933333333333333
 72
     1
 11
228.808517027114
 21
155.137323520765
 31
0.0
 73
     2
  0
LINE
  5
   38A
  8
0
  6
CONTINUOUS
 62
     7
 10
215.346014204621
 20
127.116763071005
 30
0.0
 11
215.346014204621
 21
154.637323531409
 31
0.0
  0
LINE
  5
   38B
  8
0
  6
CONTINUOUS
 62
     7
 10
242.821014404297
 20
152.637323531409
 30
0.0
 11
215.346014204621
 21
152.637323531409
 31
0.0
  0
LINE
  5
   38C
  8
0
  6
CONTINUOUS
 62
     7
 10
239.86659112709
 20
152.116379101457
 30
0.0
 11
242.821014404297
 21
152.637323531409
 31
0.0
  0
LINE
  5
   38D
  8
0
  6
CONTINUOUS
 62
     7
 10
242.821014404297
 20
152.637323531409
 30
0.0
 11
239.86659112709
 21
153.15826796136
 31
0.0
  0
LINE
  5
   38E
  8
0
  6
CONTINUOUS
 62
     7
 10
218.300437481828
 20
153.15826796136
 30
0.0
 11
215.346014204621
 21
152.637323531409
 31
0.0
  0
LINE
  5
   38F
  8
0
  6
CONTINUOUS
 62
     7
 10
215.346014204621
 20
152.637323531409
 30
0.0
 11
218.300437481828
 21
152.116379101457
 31
0.0
  0
ENDBLK
  5
   390
  8
0
  6
CONTINUOUS
 62
     7
  0
BLOCK
  5
   391
  8
0
  6
CONTINUOUS
 62
     7
  2
*UDIM617
 70
    65
 10
0.0
 20
0.0
 30
0.0
  3
*UDIM617
  0
TEXT
  5
   392
  8
0
  6
CONTINUOUS
 62
     7
 10
232.521001640905
 20
184.005249043154
 30
0.0
 40
2.99999997871263
  1
140
 50
359.999999948034
 41
0.933333333333333
 72
     1
 11
236.421001614585
 21
185.505249028993
 31
0.0
 73
     2
  0
LINE
  5
   393
  8
0
  6
CONTINUOUS
 62
     7
 10
261.195989858758
 20
172.968997099869
 30
0.0
 11
261.195989858758
 21
185.005249039637
 31
0.0
  0
LINE
  5
   394
  8
0
  6
CONTINUOUS
 62
     7
 10
212.196009427138
 20
172.968997099864
 30
0.0
 11
212.196009427138
 21
185.005249039637
 31
0.0
  0
LINE
  5
   395
  8
0
  6
CONTINUOUS
 62
     7
 10
261.195989858758
 20
183.005249039637
 30
0.0
 11
212.196009427138
 21
183.005249039637
 31
0.0
  0
LINE
  5
   396
  8
0
  6
CONTINUOUS
 62
     7
 10
258.241566581551
 20
182.484304609685
 30
0.0
 11
261.195989858758
 21
183.005249039637
 31
0.0
  0
LINE
  5
   397
  8
0
  6
CONTINUOUS
 62
     7
 10
261.195989858758
 20
183.005249039637
 30
0.0
 11
258.241566581551
 21
183.526193469588
 31
0.0
  0
LINE
  5
   398
  8
0
  6
CONTINUOUS
 62
     7
 10
215.150432704345
 20
183.526193469588
 30
0.0
 11
212.196009427138
 21
183.005249039637
 31
0.0
  0
LINE
  5
   399
  8
0
  6
CONTINUOUS
 62
     7
 10
212.196009427138
 20
183.005249039637
 30
0.0
 11
215.150432704345
 21
182.484304609685
 31
0.0
  0
ENDBLK
  5
   39A
  8
0
  6
CONTINUOUS
 62
     7
  0
BLOCK
  5
   39B
  8
0
  6
CONTINUOUS
 62
     7
  2
*UDIM618
 70
    65
 10
0.0
 20
0.0
 30
0.0
  3
*UDIM618
  0
TEXT
  5
   39C
  8
0
  6
CONTINUOUS
 62
     7
 10
238.646020221265
 20
177.453964364683
 30
0.0
 40
2.99999997871263
  1
105
 50
359.999999948034
 41
0.933333333333333
 72
     1
 11
242.546020194944
 21
178.953964350521
 31
0.0
 73
     2
  0
LINE
  5
   39D
  8
0
  6
CONTINUOUS
 62
     7
 10
261.195989858758
 20
172.968997099869
 30
0.0
 11
261.195989858758
 21
178.453964361165
 31
0.0
  0
LINE
  5
   39E
  8
0
  6
CONTINUOUS
 62
     7
 10
224.446048966083
 20
117.144073430111
 30
0.0
 11
224.446048966083
 21
178.453964361165
 31
0.0
  0
LINE
  5
   39F
  8
0
  6
CONTINUOUS
 62
     7
 10
261.195989858758
 20
176.453964361165
 30
0.0
 11
224.446048966083
 21
176.453964361165
 31
0.0
  0
LINE
  5
   3A0
  8
0
  6
CONTINUOUS
 62
     7
 10
258.241566581551
 20
175.933019931214
 30
0.0
 11
261.195989858758
 21
176.453964361165
 31
0.0
  0
LINE
  5
   3A1
  8
0
  6
CONTINUOUS
 62
     7
 10
261.195989858758
 20
176.453964361165
 30
0.0
 11
258.241566581551
 21
176.974908791117
 31
0.0
  0
LINE
  5
   3A2
  8
0
  6
CONTINUOUS
 62
     7
 10
227.40047224329
 20
176.974908791117
 30
0.0
 11
224.446048966083
 21
176.453964361165
 31
0.0
  0
LINE
  5
   3A3
  8
0
  6
CONTINUOUS
 62
     7
 10
224.446048966083
 20
176.453964361165
 30
0.0
 11
227.40047224329
 21
175.933019931214
 31
0.0
  0
ENDBLK
  5
   3A4
  8
0
  6
CONTINUOUS
 62
     7
  0
BLOCK
  5
   3A5
  8
0
  6
CONTINUOUS
 62
     7
  2
*UDIM619
 70
    65
 10
0.0
 20
0.0
 30
0.0
  3
*UDIM619
  0
TEXT
  5
   3A6
  8
0
  6
CONTINUOUS
 62
     7
 10
254.746043403373
 20
14.828034057972
 30
0.0
 40
2.99999997871263
  1
84
 50
359.999999948034
 41
0.933333333333333
 72
     1
 11
257.246043386986
 21
16.3280340450734
 31
0.0
 73
     2
  0
LINE
  5
   3A7
  8
0
  6
CONTINUOUS
 62
     7
 10
272.221066882643
 20
92.6565364290385
 30
0.0
 11
272.221066882643
 21
11.8280340557171
 31
0.0
  0
LINE
  5
   3A8
  8
0
  6
CONTINUOUS
 62
     7
 10
242.821014404297
 20
49.7687798338578
 30
0.0
 11
242.821014404297
 21
11.8280340557171
 31
0.0
  0
LINE
  5
   3A9
  8
0
  6
CONTINUOUS
 62
     7
 10
272.221066882643
 20
13.8280340557171
 30
0.0
 11
242.821014404297
 21
13.8280340557171
 31
0.0
  0
LINE
  5
   3AA
  8
0
  6
CONTINUOUS
 62
     7
 10
269.266643605436
 20
13.3070896257655
 30
0.0
 11
272.221066882643
 21
13.8280340557171
 31
0.0
  0
LINE
  5
   3AB
  8
0
  6
CONTINUOUS
 62
     7
 10
272.221066882643
 20
13.8280340557171
 30
0.0
 11
269.266643605436
 21
14.3489784856688
 31
0.0
  0
LINE
  5
   3AC
  8
0
  6
CONTINUOUS
 62
     7
 10
245.775437681504
 20
14.3489784856688
 30
0.0
 11
242.821014404297
 21
13.8280340557171
 31
0.0
  0
LINE
  5
   3AD
  8
0
  6
CONTINUOUS
 62
     7
 10
242.821014404297
 20
13.8280340557171
 30
0.0
 11
245.775437681504
 21
13.3070896257655
 31
0.0
  0
ENDBLK
  5
   3AE
  8
0
  6
CONTINUOUS
 62
     7
  0
BLOCK
  5
   3AF
  8
0
  6
CONTINUOUS
 62
     7
  2
*UDIM620
 70
    65
 10
0.0
 20
0.0
 30
0.0
  3
*UDIM620
  0
TEXT
  5
   3B0
  8
0
  6
CONTINUOUS
 62
     7
 10
246.433503304954
 20
23.7621342501475
 30
0.0
 40
2.99999997871263
  1
52,5
 50
359.999999948034
 41
0.933333333333333
 72
     1
 11
251.733503268699
 21
25.2621342347235
 31
0.0
 73
     2
  0
LINE
  5
   3B1
  8
0
  6
CONTINUOUS
 62
     7
 10
261.195989858758
 20
51.4439991353574
 30
0.0
 11
261.195989858758
 21
20.7621342453672
 31
0.0
  0
LINE
  5
   3B2
  8
0
  6
CONTINUOUS
 62
     7
 10
242.821014404297
 20
49.7687798338578
 30
0.0
 11
242.821014404297
 21
20.7621342453672
 31
0.0
  0
LINE
  5
   3B3
  8
0
  6
CONTINUOUS
 62
     7
 10
261.195989858758
 20
22.7621342453672
 30
0.0
 11
242.821014404297
 21
22.7621342453672
 31
0.0
  0
LINE
  5
   3B4
  8
0
  6
CONTINUOUS
 62
     7
 10
258.241566581551
 20
22.2411898154155
 30
0.0
 11
261.195989858758
 21
22.7621342453672
 31
0.0
  0
LINE
  5
   3B5
  8
0
  6
CONTINUOUS
 62
     7
 10
261.195989858758
 20
22.7621342453672
 30
0.0
 11
258.241566581551
 21
23.2830786753188
 31
0.0
  0
LINE
  5
   3B6
  8
0
  6
CONTINUOUS
 62
     7
 10
245.775437681504
 20
23.2830786753188
 30
0.0
 11
242.821014404297
 21
22.7621342453672
 31
0.0
  0
LINE
  5
   3B7
  8
0
  6
CONTINUOUS
 62
     7
 10
242.821014404297
 20
22.7621342453672
 30
0.0
 11
245.775437681504
 21
22.2411898154155
 31
0.0
  0
ENDBLK
  5
   3B8
  8
0
  6
CONTINUOUS
 62
     7
  0
BLOCK
  5
   3B9
  8
0
  6
CONTINUOUS
 62
     7
  2
*UDIM621
 70
    65
 10
0.0
 20
0.0
 30
0.0
  3
*UDIM621
  0
TEXT
  5
   3BA
  8
0
  6
CONTINUOUS
 62
     7
 10
194.836030612291
 20
108.031495463422
 30
0.0
 40
2.99999997871263
  1
344
 50
89.9999999480344
 41
0.933333333333333
 72
     1
 11
193.336030626467
 21
111.931495437107
 31
0.0
 73
     2
  0
LINE
  5
   3BB
  8
0
  6
CONTINUOUS
 62
     7
 10
211.633514760264
 20
52.0064991428131
 30
0.0
 11
193.836030615823
 21
52.0064991428131
 31
0.0
  0
LINE
  5
   3BC
  8
0
  6
CONTINUOUS
 62
     7
 10
211.633509419688
 20
172.406497092413
 30
0.0
 11
193.836030615823
 21
172.406497092413
 31
0.0
  0
LINE
  5
   3BD
  8
0
  6
CONTINUOUS
 62
     7
 10
195.836030615823
 20
52.0064991428131
 30
0.0
 11
195.836030615823
 21
172.406497092413
 31
0.0
  0
LINE
  5
   3BE
  8
0
  6
CONTINUOUS
 62
     7
 10
195.315086185872
 20
54.9609224200201
 30
0.0
 11
195.836030615823
 21
52.0064991428131
 31
0.0
  0
LINE
  5
   3BF
  8
0
  6
CONTINUOUS
 62
     7
 10
195.836030615823
 20
52.0064991428131
 30
0.0
 11
196.356975045775
 21
54.9609224200201
 31
0.0
  0
LINE
  5
   3C0
  8
0
  6
CONTINUOUS
 62
     7
 10
196.356975045775
 20
169.452073815206
 30
0.0
 11
195.836030615823
 21
172.406497092413
 31
0.0
  0
LINE
  5
   3C1
  8
0
  6
CONTINUOUS
 62
     7
 10
195.836030615823
 20
172.406497092413
 30
0.0
 11
195.315086185872
 21
169.452073815206
 31
0.0
  0
ENDBLK
  5
   3C2
  8
0
  6
CONTINUOUS
 62
     7
  0
BLOCK
  5
   3C3
  8
0
  6
CONTINUOUS
 62
     7
  2
*UDIM622
 70
    65
 10
0.0
 20
0.0
 30
0.0
  3
*UDIM622
  0
TEXT
  5
   3C4
  8
0
  6
CONTINUOUS
 62
     7
 10
202.615679832832
 20
93.7678661664026
 30
0.0
 40
2.99999997871263
  1
161
 50
89.9999999480344
 41
0.933333333333333
 72
     1
 11
201.115679847008
 21
97.6678661400876
 31
0.0
 73
     2
  0
LINE
  5
   3C5
  8
0
  6
CONTINUOUS
 62
     7
 10
214.346014204621
 20
69.7689696885615
 30
0.0
 11
201.615679836364
 21
69.7689696885615
 31
0.0
  0
LINE
  5
   3C6
  8
0
  6
CONTINUOUS
 62
     7
 10
214.346014204621
 20
126.116763071005
 30
0.0
 11
201.615679836364
 21
126.116763071005
 31
0.0
  0
LINE
  5
   3C7
  8
0
  6
CONTINUOUS
 62
     7
 10
203.615679836364
 20
69.7689696885615
 30
0.0
 11
203.615679836364
 21
126.116763071005
 31
0.0
  0
LINE
  5
   3C8
  8
0
  6
CONTINUOUS
 62
     7
 10
203.094735406412
 20
72.7233929657685
 30
0.0
 11
203.615679836364
 21
69.7689696885615
 31
0.0
  0
LINE
  5
   3C9
  8
0
  6
CONTINUOUS
 62
     7
 10
203.615679836364
 20
69.7689696885615
 30
0.0
 11
204.136624266316
 21
72.7233929657685
 31
0.0
  0
LINE
  5
   3CA
  8
0
  6
CONTINUOUS
 62
     7
 10
204.136624266316
 20
123.162339793798
 30
0.0
 11
203.615679836364
 21
126.116763071005
 31
0.0
  0
LINE
  5
   3CB
  8
0
  6
CONTINUOUS
 62
     7
 10
203.615679836364
 20
126.116763071005
 30
0.0
 11
203.094735406412
 21
123.162339793798
 31
0.0
  0
ENDBLK
  5
   3CC
  8
0
  6
CONTINUOUS
 62
     7
  0
BLOCK
  5
   3CD
  8
0
  6
CONTINUOUS
 62
     7
  2
*UDIM623
 70
    65
 10
0.0
 20
0.0
 30
0.0
  3
*UDIM623
  0
TEXT
  5
   3CE
  8
0
  6
CONTINUOUS
 62
     7
 10
282.834774837416
 20
66.600235890608
 30
0.0
 40
2.99999997871263
  1
131,25
 50
89.9999999480344
 41
0.933333333333333
 72
     1
 11
281.334774855396
 21
74.7002358344907
 31
0.0
 73
     2
  0
LINE
  5
   3CF
  8
0
  6
CONTINUOUS
 62
     7
 10
261.758471009022
 20
52.0064991428131
 30
0.0
 11
285.834774844753
 21
52.0064991428131
 31
0.0
  0
LINE
  5
   3D0
  8
0
  6
CONTINUOUS
 62
     7
 10
282.21567859573
 20
97.9439692087441
 30
0.0
 11
285.834774844753
 21
97.9439692087441
 31
0.0
  0
LINE
  5
   3D1
  8
0
  6
CONTINUOUS
 62
     7
 10
283.834774844753
 20
52.0064991428131
 30
0.0
 11
283.834774844753
 21
97.9439692087441
 31
0.0
  0
LINE
  5
   3D2
  8
0
  6
CONTINUOUS
 62
     7
 10
283.313830414801
 20
54.9609224200201
 30
0.0
 11
283.834774844753
 21
52.0064991428131
 31
0.0
  0
LINE
  5
   3D3
  8
0
  6
CONTINUOUS
 62
     7
 10
283.834774844753
 20
52.0064991428131
 30
0.0
 11
284.355719274704
 21
54.9609224200201
 31
0.0
  0
LINE
  5
   3D4
  8
0
  6
CONTINUOUS
 62
     7
 10
284.355719274704
 20
94.9895459315371
 30
0.0
 11
283.834774844753
 21
97.9439692087441
 31
0.0
  0
LINE
  5
   3D5
  8
0
  6
CONTINUOUS
 62
     7
 10
283.834774844753
 20
97.9439692087441
 30
0.0
 11
283.313830414801
 21
94.9895459315371
 31
0.0
  0
ENDBLK
  5
   3D6
  8
0
  6
CONTINUOUS
 62
     7
  0
BLOCK
  5
   3D7
  8
0
  6
CONTINUOUS
 62
     7
  2
*UDIM624
 70
    65
 10
0.0
 20
0.0
 30
0.0
  3
*UDIM624
  0
TEXT
  5
   3D8
  8
0
  6
CONTINUOUS
 62
     7
 10
246.171012151763
 20
5.41291726240439
 30
0.0
 40
2.99999997871263
  1
35
 50
359.999999896069
 41
0.933333333333333
 72
     1
 11
248.671012136737
 21
6.91291724723841
 31
0.0
 73
     2
  0
LINE
  5
   3D9
  8
0
  6
CONTINUOUS
 62
     7
 10
255.071011291628
 20
1.19967674314295
 30
0.0
 11
255.071011291628
 21
6.4129172578821
 31
0.0
  0
LINE
  5
   3DA
  8
0
  6
CONTINUOUS
 62
     7
 10
242.821011500245
 20
1.60577226755813
 30
0.0
 11
242.821011500245
 21
6.4129172578821
 31
0.0
  0
LINE
  5
   3DB
  8
0
  6
CONTINUOUS
 62
     7
 10
255.071011291628
 20
4.4129172578821
 30
0.0
 11
242.821011500245
 21
4.4129172578821
 31
0.0
  0
LINE
  5
   3DC
  8
0
  6
CONTINUOUS
 62
     7
 10
252.116588014421
 20
3.89197282793043
 30
0.0
 11
255.071011291628
 21
4.4129172578821
 31
0.0
  0
LINE
  5
   3DD
  8
0
  6
CONTINUOUS
 62
     7
 10
255.071011291628
 20
4.4129172578821
 30
0.0
 11
252.116588014421
 21
4.93386168783377
 31
0.0
  0
LINE
  5
   3DE
  8
0
  6
CONTINUOUS
 62
     7
 10
245.775434777452
 20
4.93386168783376
 30
0.0
 11
242.821011500245
 21
4.4129172578821
 31
0.0
  0
LINE
  5
   3DF
  8
0
  6
CONTINUOUS
 62
     7
 10
242.821011500245
 20
4.4129172578821
 30
0.0
 11
245.775434777452
 21
3.89197282793043
 31
0.0
  0
ENDBLK
  5
   3E0
  8
0
  6
CONTINUOUS
 62
     7
  0
BLOCK
  5
   3E1
  8
0
  6
CONTINUOUS
 62
     7
  2
*UDIM625
 70
    65
 10
0.0
 20
0.0
 30
0.0
  3
*UDIM625
  0
TEXT
  5
   3E2
  8
0
  6
CONTINUOUS
 62
     7
 10
233.921012360379
 20
5.41291726240439
 30
0.0
 40
2.99999997871263
  1
35
 50
359.999999896069
 41
0.933333333333333
 72
     1
 11
236.421012345353
 21
6.91291724723841
 31
0.0
 73
     2
  0
LINE
  5
   3E3
  8
0
  6
CONTINUOUS
 62
     7
 10
230.571011708861
 20
3.53472600853026
 30
0.0
 11
230.571011708861
 21
6.4129172578821
 31
0.0
  0
LINE
  5
   3E4
  8
0
  6
CONTINUOUS
 62
     7
 10
242.821011500245
 20
4.4129172578821
 30
0.0
 11
230.571011708861
 21
4.4129172578821
 31
0.0
  0
LINE
  5
   3E5
  8
0
  6
CONTINUOUS
 62
     7
 10
239.866588223038
 20
3.89197282793043
 30
0.0
 11
242.821011500245
 21
4.4129172578821
 31
0.0
  0
LINE
  5
   3E6
  8
0
  6
CONTINUOUS
 62
     7
 10
242.821011500245
 20
4.4129172578821
 30
0.0
 11
239.866588223038
 21
4.93386168783377
 31
0.0
  0
LINE
  5
   3E7
  8
0
  6
CONTINUOUS
 62
     7
 10
233.525434986068
 20
4.93386168783376
 30
0.0
 11
230.571011708861
 21
4.4129172578821
 31
0.0
  0
LINE
  5
   3E8
  8
0
  6
CONTINUOUS
 62
     7
 10
230.571011708861
 20
4.4129172578821
 30
0.0
 11
233.525434986068
 21
3.89197282793043
 31
0.0
  0
ENDBLK
  5
   3E9
  8
0
  6
CONTINUOUS
 62
     7
  0
BLOCK
  5
   3EA
  8
0
  6
CONTINUOUS
 62
     7
  2
*UDIM626
 70
    65
 10
0.0
 20
0.0
 30
0.0
  3
*UDIM626
  0
TEXT
  5
   3EB
  8
0
  6
CONTINUOUS
 62
     7
 10
221.671015239284
 20
5.41291726240439
 30
0.0
 40
2.99999997871263
  1
35
 50
359.999999896069
 41
0.933333333333333
 72
     1
 11
224.171015224258
 21
6.91291724723841
 31
0.0
 73
     2
  0
LINE
  5
   3EC
  8
0
  6
CONTINUOUS
 62
     7
 10
218.321011917477
 20
3.7631547410138
 30
0.0
 11
218.321011917477
 21
6.4129172578821
 31
0.0
  0
LINE
  5
   3ED
  8
0
  6
CONTINUOUS
 62
     7
 10
230.571011708861
 20
4.4129172578821
 30
0.0
 11
218.321011917477
 21
4.4129172578821
 31
0.0
  0
LINE
  5
   3EE
  8
0
  6
CONTINUOUS
 62
     7
 10
227.616588431654
 20
3.89197282793043
 30
0.0
 11
230.571011708861
 21
4.4129172578821
 31
0.0
  0
LINE
  5
   3EF
  8
0
  6
CONTINUOUS
 62
     7
 10
230.571011708861
 20
4.4129172578821
 30
0.0
 11
227.616588431654
 21
4.93386168783377
 31
0.0
  0
LINE
  5
   3F0
  8
0
  6
CONTINUOUS
 62
     7
 10
221.275435194684
 20
4.93386168783376
 30
0.0
 11
218.321011917477
 21
4.4129172578821
 31
0.0
  0
LINE
  5
   3F1
  8
0
  6
CONTINUOUS
 62
     7
 10
218.321011917477
 20
4.4129172578821
 30
0.0
 11
221.275435194684
 21
3.89197282793043
 31
0.0
  0
ENDBLK
  5
   3F2
  8
0
  6
CONTINUOUS
 62
     7
  0
ENDSEC
  0
SECTION
  2
ENTITIES
  0
LINE
  5
   3F3
  8
0
  6
CONTINUOUS
 62
     7
 10
116.968887329102
 20
-79.0145416259766
 30
0.0
 11
150.718887329102
 21
-79.0145416259766
 31
0.0
  0
LINE
  5
   3F4
  8
0
  6
CONTINUOUS
 62
     7
 10
116.968887329102
 20
-47.5145416259766
 30
0.0
 11
150.718887329102
 21
-47.5145416259766
 31
0.0
  0
LINE
  5
   3F5
  8
0
  6
CONTINUOUS
 62
     7
 10
150.718887329102
 20
-47.5145416259766
 30
0.0
 11
150.718887329102
 21
-68.0770416259766
 31
0.0
  0
LINE
  5
   3F6
  8
0
  6
CONTINUOUS
 62
     7
 10
116.968887329102
 20
-47.5145416259766
 30
0.0
 11
116.968887329102
 21
-79.0145416259766
 31
0.0
  0
LINE
  5
   3F7
  8
0
  6
DASHDOT
 62
     7
 10
146.243900782507
 20
-70.0770416259766
 30
0.0
 11
160.224193728543
 21
-70.0770416259766
 31
0.0
  0
LINE
  5
   3F8
  8
0
  6
CONTINUOUS
 62
     7
 10
150.718887329102
 20
-68.0770416259766
 30
0.0
 11
156.468887329102
 21
-68.0770416259766
 31
0.0
  0
LINE
  5
   3F9
  8
0
  6
CONTINUOUS
 62
     7
 10
150.718887329102
 20
-72.0770416259766
 30
0.0
 11
156.468887329102
 21
-72.0770416259766
 31
0.0
  0
ARC
  5
   3FA
  8
0
  6
CONTINUOUS
 62
     7
 10
156.468887329102
 20
-70.0770416259766
 30
0.0
 40
2.0
 50
269.999999844103
 51
449.999999844103
  0
LINE
  5
   3FB
  8
0
  6
CONTINUOUS
 62
     7
 10
150.718887329102
 20
-72.0770416259766
 30
0.0
 11
150.718887329102
 21
-79.0145416259766
 31
0.0
  0
LINE
  5
   3FC
  8
0
  6
DASHDOT
 62
     7
 10
134.968887329102
 20
-37.6370504651215
 30
0.0
 11
134.968887329102
 21
-86.409722943528
 31
0.0
  0
CIRCLE
  5
   3FD
  8
0
  6
CONTINUOUS
 62
     7
 10
123.968887329102
 20
-45.5145416259766
 30
0.0
 40
0.875
  0
CIRCLE
  5
   3FE
  8
0
  6
CONTINUOUS
 62
     7
 10
155.218887329102
 20
-45.5145416259766
 30
0.0
 40
1.0
  0
CIRCLE
  5
   3FF
  8
0
  6
CONTINUOUS
 62
     7
 10
155.218887329102
 20
-63.2645416259766
 30
0.0
 40
1.0
  0
CIRCLE
  5
   400
  8
0
  6
CONTINUOUS
 62
     7
 10
155.218887329102
 20
-81.0145416259766
 30
0.0
 40
0.875
  0
CIRCLE
  5
   401
  8
0
  6
CONTINUOUS
 62
     7
 10
123.968887329102
 20
-81.0145416259766
 30
0.0
 40
1.0
  0
LINE
  5
   402
  8
0
  6
DASHDOT
 62
     7
 10
123.968887329102
 20
-43.8895416259766
 30
0.0
 11
123.968887329102
 21
-47.1395416259766
 31
0.0
  0
LINE
  5
   403
  8
0
  6
DASHDOT
 62
     7
 10
122.343887329102
 20
-45.5145416259766
 30
0.0
 11
125.593887329102
 21
-45.5145416259766
 31
0.0
  0
LINE
  5
   404
  8
0
  6
DASHDOT
 62
     7
 10
155.218887329102
 20
-43.8895416259766
 30
0.0
 11
155.218887329102
 21
-47.1395416259766
 31
0.0
  0
LINE
  5
   405
  8
0
  6
DASHDOT
 62
     7
 10
153.593887329102
 20
-45.5145416259766
 30
0.0
 11
156.843887329102
 21
-45.5145416259766
 31
0.0
  0
LINE
  5
   406
  8
0
  6
DASHDOT
 62
     7
 10
155.218887329102
 20
-61.6395416259766
 30
0.0
 11
155.218887329102
 21
-64.8895416259766
 31
0.0
  0
LINE
  5
   407
  8
0
  6
DASHDOT
 62
     7
 10
153.593887329102
 20
-63.2645416259766
 30
0.0
 11
156.843887329102
 21
-63.2645416259766
 31
0.0
  0
LINE
  5
   408
  8
0
  6
DASHDOT
 62
     7
 10
155.218887329102
 20
-79.3895416259766
 30
0.0
 11
155.218887329102
 21
-82.6395416259766
 31
0.0
  0
LINE
  5
   409
  8
0
  6
DASHDOT
 62
     7
 10
153.593887329102
 20
-81.0145416259766
 30
0.0
 11
156.843887329102
 21
-81.0145416259766
 31
0.0
  0
LINE
  5
   40A
  8
0
  6
DASHDOT
 62
     7
 10
123.968887329102
 20
-79.3895416259766
 30
0.0
 11
123.968887329102
 21
-82.6395416259766
 31
0.0
  0
LINE
  5
   40B
  8
0
  6
DASHDOT
 62
     7
 10
122.343887329102
 20
-81.0145416259766
 30
0.0
 11
125.593887329102
 21
-81.0145416259766
 31
0.0
  0
LINE
  5
   40C
  8
0
  6
CONTINUOUS
 62
     7
 10
111.044328251708
 20
-42.5145416259766
 30
0.0
 11
161.824618485494
 21
-42.5145416259766
 31
0.0
  0
LINE
  5
   40D
  8
0
  6
CONTINUOUS
 62
     7
 10
110.41091692082
 20
-84.0145416259766
 30
0.0
 11
161.824618485494
 21
-84.0145416259766
 31
0.0
  0
LINE
  5
   40E
  8
0
  6
CONTINUOUS
 62
     7
 10
111.968887329102
 20
-41.6844965783798
 30
0.0
 11
111.968887329102
 21
-85.5256094091552
 31
0.0
  0
POINT
  5
   40F
  8
0
  6
CONTINUOUS
 62
     7
 10
158.468887329102
 20
-70.2020416259766
 30
0.0
  0
LINE
  5
   410
  8
0
  6
DASHDOT
 62
     7
 10
107.508162565958
 20
-63.2645416259766
 30
0.0
 11
162.961615629238
 21
-63.2645416259766
 31
0.0
  0
CIRCLE
  5
   411
  8
0
  6
CONTINUOUS
 62
     7
 10
140.593887329102
 20
-45.1395416259766
 30
0.0
 40
0.5
  0
CIRCLE
  5
   412
  8
0
  6
CONTINUOUS
 62
     7
 10
129.343887329102
 20
-45.1395416259766
 30
0.0
 40
0.5
  0
CIRCLE
  5
   413
  8
0
  6
CONTINUOUS
 62
     7
 10
140.593887329102
 20
-45.1395416259766
 30
0.0
 40
0.92
  0
CIRCLE
  5
   414
  8
0
  6
CONTINUOUS
 62
     7
 10
129.343887329102
 20
-45.1395416259766
 30
0.0
 40
0.92
  0
LINE
  5
   415
  8
0
  6
DASHDOT
 62
     7
 10
140.593887329102
 20
-43.4695416259766
 30
0.0
 11
140.593887329102
 21
-46.8095416259766
 31
0.0
  0
LINE
  5
   416
  8
0
  6
DASHDOT
 62
     7
 10
138.923887329102
 20
-45.1395416259766
 30
0.0
 11
142.263887329102
 21
-45.1395416259766
 31
0.0
  0
LINE
  5
   417
  8
0
  6
DASHDOT
 62
     7
 10
129.343887329102
 20
-43.4695416259766
 30
0.0
 11
129.343887329102
 21
-46.8095416259766
 31
0.0
  0
LINE
  5
   418
  8
0
  6
DASHDOT
 62
     7
 10
127.673887329102
 20
-45.1395416259766
 30
0.0
 11
131.013887329102
 21
-45.1395416259766
 31
0.0
  0
LINE
  5
   419
  8
0
  6
CONTINUOUS
 62
     7
 10
161.824618485494
 20
-42.5145416259766
 30
0.0
 11
161.824618485494
 21
-84.0145416259766
 31
0.0
  0
LINE
  5
   41A
  8
0
  6
CONTINUOUS
 62
     7
 10
164.473451822635
 20
-47.4779542101267
 30
0.0
 11
164.473451822635
 21
-54.7020451296043
 31
0.0
  0
LINE
  5
   41B
  8
0
  6
CONTINUOUS
 62
     7
 10
161.824618485494
 20
-47.4779542101267
 30
0.0
 11
164.473451822635
 21
-47.4779542101267
 31
0.0
  0
LINE
  5
   41C
  8
0
  6
CONTINUOUS
 62
     7
 10
161.824618485494
 20
-54.7020451296043
 30
0.0
 11
164.473451822635
 21
-54.7020451296043
 31
0.0
  0
LINE
  5
   41D
  8
0
  6
CONTINUOUS
 62
     7
 10
164.473451822635
 20
-71.8270381223488
 30
0.0
 11
164.473451822635
 21
-79.0511290418264
 31
0.0
  0
LINE
  5
   41E
  8
0
  6
CONTINUOUS
 62
     7
 10
161.824618485494
 20
-79.0511290418264
 30
0.0
 11
164.473451822635
 21
-79.0511290418264
 31
0.0
  0
LINE
  5
   41F
  8
0
  6
CONTINUOUS
 62
     7
 10
161.824618485494
 20
-71.8270381223488
 30
0.0
 11
164.473451822635
 21
-71.8270381223488
 31
0.0
  0
LINE
  5
   420
  8
0
  6
DASHDOT
 62
     7
 10
163.149035154064
 20
-40.1594200277436
 30
0.0
 11
163.149035154064
 21
-86.6156351894219
 31
0.0
  0
LINE
  5
   421
  8
0
  6
CONTINUOUS
 62
     7
 10
108.626847388133
 20
-25.1940300071819
 30
0.0
 11
127.737301423712
 21
-43.931762421499
 31
0.0
  0
LINE
  5
   422
  8
0
  6
CONTINUOUS
 62
     7
 10
73.9508015429333
 20
-25.194030007182
 30
0.0
 11
108.626847388133
 21
-25.194030007182
 31
0.0
  0
LINE
  5
   423
  8
0
  6
CONTINUOUS
 62
     7
 10
123.978626020495
 20
-41.8107640939849
 30
0.0
 11
127.737301423712
 21
-43.9317624214991
 31
0.0
  0
LINE
  5
   424
  8
0
  6
CONTINUOUS
 62
     7
 10
125.615972257923
 20
-40.3396728833219
 30
0.0
 11
127.737301423712
 21
-43.931762421499
 31
0.0
  0
INSERT
  5
   425
  8
0
  6
CONTINUOUS
 62
     7
  2
*UDIM574
 10
0.0
 20
0.0
 30
0.0
  0
INSERT
  5
   426
  8
0
  6
CONTINUOUS
 62
     7
  2
*UDIM575
 10
0.0
 20
0.0
 30
0.0
  0
INSERT
  5
   427
  8
0
  6
CONTINUOUS
 62
     7
  2
*UDIM576
 10
0.0
 20
0.0
 30
0.0
  0
TEXT
  5
   428
  8
0
  6
CONTINUOUS
 62
     7
 10
78.5357035404888
 20
-23.5974960926697
 30
0.0
 40
4.00000017881393
  1
PART. Z
 50
359.999999844103
 41
0.915624995566905
 72
     1
 11
90.9882040321827
 21
-21.5974960370823
 31
0.0
 73
     2
  0
INSERT
  5
   429
  8
0
  6
CONTINUOUS
 62
     7
  2
*UDIM577
 10
0.0
 20
0.0
 30
0.0
  0
INSERT
  5
   42A
  8
0
  6
CONTINUOUS
 62
     7
  2
*UDIM578
 10
0.0
 20
0.0
 30
0.0
  0
INSERT
  5
   42B
  8
0
  6
CONTINUOUS
 62
     7
  2
*UDIM579
 10
0.0
 20
0.0
 30
0.0
  0
TEXT
  5
   42C
  8
0
  6
CONTINUOUS
 62
     7
 10
110.64027887903
 20
-73.8219506095796
 30
0.0
 40
3.00000002980232
  1
=     =
 50
449.999999844103
 41
0.916666604744064
 72
     2
 11
110.640278929794
 21
-55.1219516914039
 31
0.0
  0
INSERT
  5
   42D
  8
0
  6
CONTINUOUS
 62
     7
  2
*UDIM580
 10
0.0
 20
0.0
 30
0.0
  0
INSERT
  5
   42E
  8
0
  6
CONTINUOUS
 62
     7
  2
*UDIM581
 10
0.0
 20
0.0
 30
0.0
  0
INSERT
  5
   42F
  8
0
  6
CONTINUOUS
 62
     7
  2
*UDIM582
 10
0.0
 20
0.0
 30
0.0
  0
INSERT
  5
   430
  8
0
  6
CONTINUOUS
 62
     7
  2
*UDIM583
 10
0.0
 20
0.0
 30
0.0
  0
INSERT
  5
   431
  8
0
  6
CONTINUOUS
 62
     7
  2
*UDIM584
 10
0.0
 20
0.0
 30
0.0
  0
INSERT
  5
   432
  8
0
  6
CONTINUOUS
 62
     7
  2
*UDIM585
 10
0.0
 20
0.0
 30
0.0
  0
INSERT
  5
   433
  8
0
  6
CONTINUOUS
 62
     7
  2
*UDIM586
 10
0.0
 20
0.0
 30
0.0
  0
INSERT
  5
   434
  8
0
  6
CONTINUOUS
 62
     7
  2
*UDIM587
 10
0.0
 20
0.0
 30
0.0
  0
INSERT
  5
   435
  8
0
  6
CONTINUOUS
 62
     7
  2
*UDIM588
 10
0.0
 20
0.0
 30
0.0
  0
INSERT
  5
   436
  8
0
  6
CONTINUOUS
 62
     7
  2
*UDIM589
 10
0.0
 20
0.0
 30
0.0
  0
INSERT
  5
   437
  8
0
  6
CONTINUOUS
 62
     7
  2
*UDIM590
 10
0.0
 20
0.0
 30
0.0
  0
TEXT
  5
   438
  8
0
  6
CONTINUOUS
 62
     7
 10
134.190612544514
 20
-99.9966011738726
 30
0.0
 40
3.00000002980232
  1
Y
 50
359.999999844103
 41
0.916666604744064
 72
     2
 11
136.390612413384
 21
-99.9966011798476
 31
0.0
  0
TEXT
  5
   439
  8
0
  6
CONTINUOUS
 62
     7
 10
133.337904085613
 20
-0.836441109175378
 30
0.0
 40
3.00000002980232
  1
Y
 50
359.999999844103
 41
0.916666604744064
 72
     2
 11
135.537903954483
 21
-0.836441115150326
 31
0.0
  0
TEXT
  5
   43A
  8
0
  6
CONTINUOUS
 62
     7
 10
89.5125504631769
 20
-63.7302158570239
 30
0.0
 40
3.00000002980232
  1
X
 50
359.999999844103
 41
0.916666604744064
 72
     2
 11
91.7125503320467
 21
-63.7302158629988
 31
0.0
  0
LINE
  5
   43B
  8
0
  6
CONTINUOUS
 62
     7
 10
68.982780456543
 20
-51.3062808828752
 30
0.0
 11
68.982780456543
 21
-75.222802369078
 31
0.0
  0
LINE
  5
   43C
  8
0
  6
CONTINUOUS
 62
     7
 10
66.982780456543
 20
-51.3062808828752
 30
0.0
 11
66.982780456543
 21
-75.222802369078
 31
0.0
  0
LINE
  5
   43D
  8
0
  6
DASHDOT
 62
     7
 10
63.780177354146
 20
-63.2645416259766
 30
0.0
 11
72.2063965465833
 21
-63.2645416259766
 31
0.0
  0
POINT
  5
   43E
  8
0
  6
CONTINUOUS
 62
     7
 10
66.982780456543
 20
-61.2645416259766
 30
0.0
  0
POINT
  5
   43F
  8
0
  6
CONTINUOUS
 62
     7
 10
66.982780456543
 20
-65.2645416259766
 30
0.0
  0
LINE
  5
   440
  8
0
  6
CONTINUOUS
 62
     7
 10
68.982780456543
 20
-59.586342363622
 30
0.0
 11
66.982780456543
 21
-61.2645416259766
 31
0.0
  0
LINE
  5
   441
  8
0
  6
CONTINUOUS
 62
     7
 10
66.982780456543
 20
-65.2645416259766
 30
0.0
 11
68.982780456543
 21
-66.9427408883311
 31
0.0
  0
LINE
  5
   442
  8
0
  6
CONTINUOUS
 62
     7
 10
66.982780456543
 20
-72.7645416259766
 30
0.0
 11
68.982780456543
 21
-72.7645416259766
 31
0.0
  0
CIRCLE
  5
   443
  8
0
  6
CONTINUOUS
 62
     7
 10
67.982780456543
 20
-63.2645416259766
 30
0.0
 40
12.0
  0
LINE
  5
   444
  8
0
  6
CONTINUOUS
 62
     7
 10
60.9827880859375
 20
-67.7645416259766
 30
0.0
 11
63.4827880859375
 21
-67.7645416259766
 31
0.0
  0
LINE
  5
   445
  8
0
  6
CONTINUOUS
 62
     7
 10
64.4827880859375
 20
-58.7645416259766
 30
0.0
 11
64.4827880859375
 21
-66.7645416259766
 31
0.0
  0
LINE
  5
   446
  8
0
  6
CONTINUOUS
 62
     7
 10
64.4827880859375
 20
-58.7645416259766
 30
0.0
 11
66.982780456543
 21
-58.7645416259766
 31
0.0
  0
LINE
  5
   447
  8
0
  6
CONTINUOUS
 62
     7
 10
60.9827880859375
 20
-70.2645416259766
 30
0.0
 11
63.4827880859375
 21
-70.2645416259766
 31
0.0
  0
LINE
  5
   448
  8
0
  6
CONTINUOUS
 62
     7
 10
59.9827880859375
 20
-71.2645416259766
 30
0.0
 11
59.9827880859375
 21
-72.2088203599078
 31
0.0
  0
ARC
  5
   449
  8
0
  6
CONTINUOUS
 62
     7
 10
63.4827922332175
 20
-66.7645422973153
 30
0.0
 40
0.999996977799109
 50
629.999840735313
 51
720.000252836193
  0
ARC
  5
   44A
  8
0
  6
CONTINUOUS
 62
     7
 10
60.9828027394442
 20
-71.264554312281
 30
0.0
 40
3.50001845311552
 50
450.000186734275
 51
513.408761128067
  0
ARC
  5
   44B
  8
0
  6
CONTINUOUS
 62
     7
 10
60.9827438377876
 20
-71.2645007311942
 30
0.0
 40
0.999949821243504
 50
449.997764042825
 51
540.001169660043
  0
ARC
  5
   44C
  8
0
  6
CONTINUOUS
 62
     7
 10
63.4828074383192
 20
-66.7645736729108
 30
0.0
 40
3.49997105594423
 50
629.999653243441
 51
720.000420168909
  0
INSERT
  5
   44D
  8
0
  6
CONTINUOUS
 62
     7
  2
*HATCH107
 10
67.982780456543
 20
-63.2645416259766
 30
0.0
 50
269.999999844103
  0
INSERT
  5
   44E
  8
0
  6
CONTINUOUS
 62
     7
  2
*HATCH108
 10
67.982780456543
 20
-63.2645416259766
 30
0.0
 50
269.999999844103
  0
TEXT
  5
   44F
  8
0
  6
CONTINUOUS
 62
     7
 10
54.5695627934185
 20
-43.2173233631775
 30
0.0
 40
4.00000017881393
  1
PART. Z
 50
359.999999844103
 41
0.915624995566905
 72
     1
 11
67.0220632851124
 21
-41.2173233075902
 31
0.0
 73
     2
  0
INSERT
  5
   450
  8
0
  6
CONTINUOUS
 62
     7
  2
*UDIM591
 10
0.0
 20
0.0
 30
0.0
  0
INSERT
  5
   451
  8
0
  6
CONTINUOUS
 62
     7
  2
*UDIM592
 10
0.0
 20
0.0
 30
0.0
  0
LINE
  5
   452
  8
0
  6
CONTINUOUS
 62
     7
 10
87.8763305258754
 20
73.5314753460933
 30
0.0
 11
87.7713348001244
 21
73.5314753460933
 31
0.0
  0
LINE
  5
   453
  8
0
  6
CONTINUOUS
 62
     7
 10
121.546328884363
 20
132.331435678977
 30
0.0
 11
121.546328884363
 21
136.181435613412
 31
0.0
  0
LINE
  5
   454
  8
0
  6
CONTINUOUS
 62
     7
 10
121.546328884363
 20
57.9678133205673
 30
0.0
 11
121.546328884363
 21
61.0189702186034
 31
0.0
  0
LINE
  5
   455
  8
0
  6
CONTINUOUS
 62
     7
 10
138.346344619989
 20
131.106451721567
 30
0.0
 11
138.346344619989
 21
139.856451572555
 31
0.0
  0
LINE
  5
   456
  8
0
  6
CONTINUOUS
 62
     7
 10
138.346344619989
 20
54.8064586953102
 30
0.0
 11
138.346344619989
 21
63.5564532057225
 31
0.0
  0
LINE
  5
   457
  8
0
  6
CONTINUOUS
 62
     7
 10
134.496341977319
 20
52.8814637348834
 30
0.0
 11
121.546326176128
 21
52.8814637348834
 31
0.0
  0
LINE
  5
   458
  8
0
  6
CONTINUOUS
 62
     7
 10
134.496344685555
 20
141.781451539773
 30
0.0
 11
121.546328884363
 21
141.781451539773
 31
0.0
  0
LINE
  5
   459
  8
0
  6
CONTINUOUS
 62
     7
 10
121.546328884363
 20
59.1814476058662
 30
0.0
 11
121.546328884363
 21
73.6189393491329
 31
0.0
  0
LINE
  5
   45A
  8
0
  6
CONTINUOUS
 62
     7
 10
121.546328884363
 20
52.8814477131546
 30
0.0
 11
121.546328884363
 21
53.8614647863087
 31
0.0
  0
LINE
  5
   45B
  8
0
  6
CONTINUOUS
 62
     7
 10
121.546328884363
 20
140.801461169499
 30
0.0
 11
121.546328884363
 21
141.781451539773
 31
0.0
  0
LINE
  5
   45C
  8
0
  6
CONTINUOUS
 62
     7
 10
121.546328884363
 20
124.28144649722
 30
0.0
 11
121.546328884363
 21
135.481462328213
 31
0.0
  0
LINE
  5
   45D
  8
0
  6
CONTINUOUS
 62
     7
 10
134.496344685555
 20
140.801445147771
 30
0.0
 11
134.496344685555
 21
141.781451539773
 31
0.0
  0
LINE
  5
   45E
  8
0
  6
CONTINUOUS
 62
     7
 10
134.496344685555
 20
52.8814423725785
 30
0.0
 11
134.496344685555
 21
53.8614571092306
 31
0.0
  0
LINE
  5
   45F
  8
0
  6
CONTINUOUS
 62
     7
 10
134.496344685555
 20
59.181436924714
 30
0.0
 11
134.496344685555
 21
63.5564582125126
 31
0.0
  0
LINE
  5
   460
  8
0
  6
CONTINUOUS
 62
     7
 10
138.871344611049
 20
118.331451939124
 30
0.0
 11
138.871344611049
 21
123.581451849717
 31
0.0
  0
LINE
  5
   461
  8
0
  6
CONTINUOUS
 62
     7
 10
138.871344611049
 20
71.0814741060908
 30
0.0
 11
138.871344611049
 21
76.3314740166838
 31
0.0
  0
LINE
  5
   462
  8
0
  6
CONTINUOUS
 62
     7
 10
138.17134462297
 20
85.7814364717187
 30
0.0
 11
137.471343848294
 21
85.7814364717187
 31
0.0
  0
LINE
  5
   463
  8
0
  6
CONTINUOUS
 62
     7
 10
138.17134462297
 20
88.2314310894194
 30
0.0
 11
137.471343558496
 21
88.2314310894194
 31
0.0
  0
LINE
  5
   464
  8
0
  6
CONTINUOUS
 62
     7
 10
134.496344685555
 20
140.801455828923
 30
0.0
 11
121.546328884363
 21
140.801455828923
 31
0.0
  0
LINE
  5
   465
  8
0
  6
CONTINUOUS
 62
     7
 10
121.546328884363
 20
135.481451647061
 30
0.0
 11
121.546328884363
 21
140.801455828923
 31
0.0
  0
LINE
  5
   466
  8
0
  6
CONTINUOUS
 62
     7
 10
134.496344685555
 20
135.481456987637
 30
0.0
 11
134.496344685555
 21
139.856451572555
 31
0.0
  0
LINE
  5
   467
  8
0
  6
CONTINUOUS
 62
     7
 10
134.496344685555
 20
53.8614584443746
 30
0.0
 11
121.546328884363
 21
53.8614584443746
 31
0.0
  0
LINE
  5
   468
  8
0
  6
CONTINUOUS
 62
     7
 10
121.546328884363
 20
53.8614584443746
 30
0.0
 11
121.546328884363
 21
59.1814422652901
 31
0.0
  0
LINE
  5
   469
  8
0
  6
CONTINUOUS
 62
     7
 10
134.496344685555
 20
53.8614584443746
 30
0.0
 11
134.496344685555
 21
54.8064586953102
 31
0.0
  0
LINE
  5
   46A
  8
0
  6
CONTINUOUS
 62
     3
 10
138.696344614029
 20
76.681447307843
 30
0.0
 11
138.17134462297
 21
76.681447307843
 31
0.0
  0
LINE
  5
   46B
  8
0
  6
CONTINUOUS
 62
     3
 10
138.696344614029
 20
70.7314474091709
 30
0.0
 11
138.17134462297
 21
70.7314474091709
 31
0.0
  0
LINE
  5
   46C
  8
0
  6
CONTINUOUS
 62
     3
 10
138.696344614029
 20
66.881447474736
 30
0.0
 11
138.17134462297
 21
66.881447474736
 31
0.0
  0
LINE
  5
   46D
  8
0
  6
CONTINUOUS
 62
     3
 10
138.696344614029
 20
127.781446437615
 30
0.0
 11
138.17134462297
 21
127.781446437615
 31
0.0
  0
LINE
  5
   46E
  8
0
  6
CONTINUOUS
 62
     3
 10
138.696344614029
 20
123.93144650318
 30
0.0
 11
138.17134462297
 21
123.93144650318
 31
0.0
  0
LINE
  5
   46F
  8
0
  6
CONTINUOUS
 62
     3
 10
138.696344614029
 20
117.981446604508
 30
0.0
 11
138.17134462297
 21
117.981446604508
 31
0.0
  0
LINE
  5
   470
  8
0
  6
CONTINUOUS
 62
     3
 10
138.17134462297
 20
123.581451849717
 30
0.0
 11
138.17134462297
 21
127.781446437615
 31
0.0
  0
LINE
  5
   471
  8
0
  6
CONTINUOUS
 62
     3
 10
138.17134462297
 20
76.3315007195643
 30
0.0
 11
138.17134462297
 21
118.331462620276
 31
0.0
  0
LINE
  5
   472
  8
0
  6
CONTINUOUS
 62
     3
 10
138.17134462297
 20
66.881447474736
 30
0.0
 11
138.17134462297
 21
71.0815008089712
 31
0.0
  0
LINE
  5
   473
  8
0
  6
CONTINUOUS
 62
     3
 10
138.696344614029
 20
66.881447474736
 30
0.0
 11
138.696344614029
 21
71.0814687655147
 31
0.0
  0
LINE
  5
   474
  8
0
  6
CONTINUOUS
 62
     3
 10
138.696344614029
 20
76.3314633355317
 30
0.0
 11
138.696344614029
 21
118.331414555091
 31
0.0
  0
LINE
  5
   475
  8
0
  6
CONTINUOUS
 62
     3
 10
138.696344614029
 20
123.581425146836
 30
0.0
 11
138.696344614029
 21
127.781446437615
 31
0.0
  0
LINE
  5
   476
  8
0
  6
CONTINUOUS
 62
     7
 10
135.896339321137
 20
139.856451572555
 30
0.0
 11
134.496344685555
 21
139.856451572555
 31
0.0
  0
LINE
  5
   477
  8
0
  6
CONTINUOUS
 62
     7
 10
134.846328657866
 20
131.106451721567
 30
0.0
 11
134.496344685555
 21
131.106451721567
 31
0.0
  0
LINE
  5
   478
  8
0
  6
CONTINUOUS
 62
     7
 10
135.896339321137
 20
131.106451721567
 30
0.0
 11
134.846328657866
 21
131.106451721567
 31
0.0
  0
LINE
  5
   479
  8
0
  6
CONTINUOUS
 62
     7
 10
135.896339321137
 20
54.8064586953102
 30
0.0
 11
134.496344685555
 21
54.8064586953102
 31
0.0
  0
LINE
  5
   47A
  8
0
  6
CONTINUOUS
 62
     7
 10
135.896339321137
 20
63.5564582125126
 30
0.0
 11
134.846328657866
 21
63.5564582125126
 31
0.0
  0
LINE
  5
   47B
  8
0
  6
CONTINUOUS
 62
     7
 10
134.846328657866
 20
63.5564582125126
 30
0.0
 11
134.496344685555
 21
63.5564582125126
 31
0.0
  0
LINE
  5
   47C
  8
0
  6
CONTINUOUS
 62
     7
 10
138.871344611049
 20
123.581451849717
 30
0.0
 11
137.471339377114
 21
123.581451849717
 31
0.0
  0
LINE
  5
   47D
  8
0
  6
CONTINUOUS
 62
     7
 10
138.871344611049
 20
118.331451939124
 30
0.0
 11
137.471339998111
 21
118.331451939124
 31
0.0
  0
LINE
  5
   47E
  8
0
  6
CONTINUOUS
 62
     7
 10
138.871344611049
 20
76.3314740166838
 30
0.0
 11
137.471340751027
 21
76.3314740166838
 31
0.0
  0
LINE
  5
   47F
  8
0
  6
CONTINUOUS
 62
     7
 10
138.871344611049
 20
71.0814741060908
 30
0.0
 11
134.496344685555
 21
71.0814741060908
 31
0.0
  0
LINE
  5
   480
  8
0
  6
DASHDOT
 62
     7
 10
138.871344611049
 20
76.3314740166838
 30
0.0
 11
138.871344611049
 21
118.331451939124
 31
0.0
  0
LINE
  5
   481
  8
0
  6
DASHDOT
 62
     7
 10
138.871344611049
 20
40.7626812381128
 30
0.0
 11
138.871344611049
 21
71.0814741060908
 31
0.0
  0
LINE
  5
   482
  8
0
  6
DASHDOT
 62
     7
 10
138.871344611049
 20
123.581451849717
 30
0.0
 11
138.871344611049
 21
142.612313742275
 31
0.0
  0
LINE
  5
   483
  8
0
  6
DASHDOT
 62
     7
 10
139.921344593167
 20
41.9073809817038
 30
0.0
 11
139.921344593167
 21
142.764487652727
 31
0.0
  0
LINE
  5
   484
  8
0
  6
CONTINUOUS
 62
     7
 10
135.773274662005
 20
40.1318201460464
 30
0.0
 11
142.106608086601
 21
43.2497689089246
 31
0.0
  0
LINE
  5
   485
  8
0
  6
CONTINUOUS
 62
     7
 10
138.346344619989
 20
139.856451572555
 30
0.0
 11
135.896339321137
 21
139.856451572555
 31
0.0
  0
LINE
  5
   486
  8
0
  6
CONTINUOUS
 62
     7
 10
134.496344685555
 20
139.856451572555
 30
0.0
 11
134.496344685555
 21
140.801455828923
 31
0.0
  0
LINE
  5
   487
  8
0
  6
CONTINUOUS
 62
     7
 10
134.496344685555
 20
131.106451721567
 30
0.0
 11
134.496344685555
 21
135.481430284757
 31
0.0
  0
LINE
  5
   488
  8
0
  6
CONTINUOUS
 62
     7
 10
138.346344619989
 20
131.106451721567
 30
0.0
 11
135.896339321137
 21
131.106451721567
 31
0.0
  0
LINE
  5
   489
  8
0
  6
CONTINUOUS
 62
     7
 10
134.496344685555
 20
124.28144649722
 30
0.0
 11
134.496344685555
 21
131.106451721567
 31
0.0
  0
LINE
  5
   48A
  8
0
  6
CONTINUOUS
 62
     7
 10
134.496344685555
 20
71.0814741060908
 30
0.0
 11
134.496344685555
 21
75.281359810737
 31
0.0
  0
LINE
  5
   48B
  8
0
  6
CONTINUOUS
 62
     7
 10
134.496344685555
 20
63.5564582125126
 30
0.0
 11
134.496344685555
 21
71.0814741060908
 31
0.0
  0
LINE
  5
   48C
  8
0
  6
CONTINUOUS
 62
     7
 10
138.346344619989
 20
63.5564582125126
 30
0.0
 11
135.896339321137
 21
63.5564582125126
 31
0.0
  0
LINE
  5
   48D
  8
0
  6
CONTINUOUS
 62
     7
 10
138.346344619989
 20
54.8064586953102
 30
0.0
 11
135.896339321137
 21
54.8064586953102
 31
0.0
  0
LINE
  5
   48E
  8
0
  6
CONTINUOUS
 62
     7
 10
134.496344685555
 20
54.8064586953102
 30
0.0
 11
134.496344685555
 21
59.1814422652901
 31
0.0
  0
LINE
  5
   48F
  8
0
  6
DASHDOT
 62
     7
 10
143.354355622827
 20
120.95645189442
 30
0.0
 11
132.59602856752
 21
120.95645189442
 31
0.0
  0
LINE
  5
   490
  8
0
  6
DASHDOT
 62
     7
 10
143.1569551264
 20
73.706452699083
 30
0.0
 11
131.80642658181
 21
73.706452699083
 31
0.0
  0
LINE
  5
   491
  8
0
  6
CONTINUOUS
 62
   130
 10
76.2213690422235
 20
79.1314352530861
 30
0.0
 11
76.2213510177786
 21
80.5314445752524
 31
0.0
  0
LINE
  5
   492
  8
0
  6
CONTINUOUS
 62
   130
 10
76.2213510178351
 20
75.2814366529663
 30
0.0
 11
76.2213683747074
 21
76.6814312885483
 31
0.0
  0
LINE
  5
   493
  8
0
  6
CONTINUOUS
 62
   130
 10
122.246329018035
 20
75.2813952924265
 30
0.0
 11
121.546329029956
 21
75.2814393521792
 31
0.0
  0
LINE
  5
   494
  8
0
  6
CONTINUOUS
 62
   130
 10
119.79632357359
 20
75.2814393208207
 30
0.0
 11
77.9713509887456
 21
75.2814393208207
 31
0.0
  0
LINE
  5
   495
  8
0
  6
CONTINUOUS
 62
   130
 10
137.471339294314
 20
124.28144649722
 30
0.0
 11
122.246323531866
 21
124.28144649722
 31
0.0
  0
LINE
  5
   496
  8
0
  6
CONTINUOUS
 62
   130
 10
137.47133929475
 20
75.2813512013817
 30
0.0
 11
122.246328872878
 21
75.2813952611335
 31
0.0
  0
LINE
  5
   497
  8
0
  6
CONTINUOUS
 62
   130
 10
137.471339294365
 20
75.2813512013458
 30
0.0
 11
137.47134463494
 21
79.1314272389899
 31
0.0
  0
LINE
  5
   498
  8
0
  6
CONTINUOUS
 62
     7
 10
107.89634513855
 20
113.081452028531
 30
0.0
 11
76.2213510185479
 21
113.081452028531
 31
0.0
  0
LINE
  5
   499
  8
0
  6
CONTINUOUS
 62
     7
 10
107.89634513855
 20
102.581433515328
 30
0.0
 11
76.2213510185479
 21
102.581433515328
 31
0.0
  0
LINE
  5
   49A
  8
0
  6
CONTINUOUS
 62
   130
 10
76.2213683754198
 20
76.681431286116
 30
0.0
 11
76.2213690429919
 21
79.1314352498248
 31
0.0
  0
LINE
  5
   49B
  8
0
  6
CONTINUOUS
 62
   130
 10
122.246323531866
 20
124.28144649722
 30
0.0
 11
76.2213510185479
 21
124.28144649722
 31
0.0
  0
LINE
  5
   49C
  8
0
  6
CONTINUOUS
 62
   130
 10
76.2213510185479
 20
113.081452028531
 30
0.0
 11
76.2213510185479
 21
124.28144649722
 31
0.0
  0
LINE
  5
   49D
  8
0
  6
CONTINUOUS
 62
     7
 10
112.008823706326
 20
76.6814526484475
 30
0.0
 11
120.846328896401
 21
76.6814686701756
 31
0.0
  0
LINE
  5
   49E
  8
0
  6
CONTINUOUS
 62
     7
 10
97.702595312158
 20
76.6814446375586
 30
0.0
 11
110.608823730062
 21
76.6814526484224
 31
0.0
  0
LINE
  5
   49F
  8
0
  6
CONTINUOUS
 62
     7
 10
77.6213890463151
 20
76.6814326212626
 30
0.0
 11
96.3025960035667
 21
76.6814446375585
 31
0.0
  0
LINE
  5
   4A0
  8
0
  6
CONTINUOUS
 62
     7
 10
77.6213923841752
 20
78.2564352647284
 30
0.0
 11
96.3025966711387
 21
78.2564472810248
 31
0.0
  0
LINE
  5
   4A1
  8
0
  6
CONTINUOUS
 62
     7
 10
97.702596647302
 20
78.2564486161688
 30
0.0
 11
110.60882640035
 21
78.2564566270327
 31
0.0
  0
LINE
  5
   4A2
  8
0
  6
CONTINUOUS
 62
     7
 10
112.008826376511
 20
78.2564579621765
 30
0.0
 11
120.846328896297
 21
78.2564633027526
 31
0.0
  0
LINE
  5
   4A3
  8
0
  6
CONTINUOUS
 62
     7
 10
77.6213890462993
 20
76.6814326213083
 30
0.0
 11
77.6213917165874
 21
78.2564352647742
 31
0.0
  0
LINE
  5
   4A4
  8
0
  6
CONTINUOUS
 62
     7
 10
120.846328896284
 20
76.6814686701473
 30
0.0
 11
120.846328896284
 21
78.2564633027491
 31
0.0
  0
LINE
  5
   4A5
  8
0
  6
CONTINUOUS
 62
     7
 10
112.008823706248
 20
76.6814526484731
 30
0.0
 11
112.008826376536
 21
78.2564659730912
 31
0.0
  0
LINE
  5
   4A6
  8
0
  6
CONTINUOUS
 62
     7
 10
110.608823730088
 20
76.6814526484686
 30
0.0
 11
110.608826400376
 21
78.2564646379427
 31
0.0
  0
LINE
  5
   4A7
  8
0
  6
CONTINUOUS
 62
     7
 10
97.7025953121527
 20
76.6814446375685
 30
0.0
 11
97.7025966472968
 21
78.2564566270425
 31
0.0
  0
LINE
  5
   4A8
  8
0
  6
CONTINUOUS
 62
     7
 10
96.3025960035661
 20
76.6814446375673
 30
0.0
 11
96.3025973387101
 21
78.2564552918974
 31
0.0
  0
LINE
  5
   4A9
  8
0
  6
CONTINUOUS
 62
   130
 10
87.421350327134
 20
73.8814406798066
 30
0.0
 11
87.421350327134
 21
75.2814406559647
 31
0.0
  0
LINE
  5
   4AA
  8
0
  6
CONTINUOUS
 62
   130
 10
88.8213504701852
 20
73.8814406798066
 30
0.0
 11
88.8213504701852
 21
75.2814406559647
 31
0.0
  0
LINE
  5
   4AB
  8
0
  6
CONTINUOUS
 62
   130
 10
88.8213504701852
 20
73.8814406798066
 30
0.0
 11
87.421350327134
 21
73.8814406798066
 31
0.0
  0
LINE
  5
   4AC
  8
0
  6
CONTINUOUS
 62
   130
 10
116.733850328624
 20
73.8814593718229
 30
0.0
 11
116.733850328624
 21
75.2814339802446
 31
0.0
  0
LINE
  5
   4AD
  8
0
  6
CONTINUOUS
 62
   130
 10
118.133850304782
 20
73.8814593718229
 30
0.0
 11
118.133850304782
 21
75.2814339802446
 31
0.0
  0
LINE
  5
   4AE
  8
0
  6
CONTINUOUS
 62
   130
 10
118.133850304782
 20
73.8814593718229
 30
0.0
 11
116.733850328624
 21
73.8814593718229
 31
0.0
  0
LINE
  5
   4AF
  8
0
  6
CONTINUOUS
 62
   130
 10
77.9713509887456
 20
73.6189393491329
 30
0.0
 11
77.9713509887456
 21
74.4939393342318
 31
0.0
  0
LINE
  5
   4B0
  8
0
  6
CONTINUOUS
 62
   130
 10
76.2213510185479
 20
73.6189393491329
 30
0.0
 11
76.2213510185479
 21
75.2814366505327
 31
0.0
  0
LINE
  5
   4B1
  8
0
  6
CONTINUOUS
 62
   130
 10
77.9713509887456
 20
73.6189393491329
 30
0.0
 11
76.2213510185479
 21
73.6189393491329
 31
0.0
  0
LINE
  5
   4B2
  8
0
  6
CONTINUOUS
 62
   130
 10
77.9713509887456
 20
74.4939393342318
 30
0.0
 11
77.9713509887456
 21
75.2814393208207
 31
0.0
  0
LINE
  5
   4B3
  8
0
  6
CONTINUOUS
 62
   130
 10
119.796318233014
 20
73.6189393491329
 30
0.0
 11
119.796318233014
 21
74.4939393342318
 31
0.0
  0
LINE
  5
   4B4
  8
0
  6
CONTINUOUS
 62
   130
 10
121.546318203211
 20
73.6189393491329
 30
0.0
 11
119.796318233014
 21
73.6189393491329
 31
0.0
  0
LINE
  5
   4B5
  8
0
  6
CONTINUOUS
 62
   130
 10
121.546318203955
 20
73.6189393497178
 30
0.0
 11
121.546328885108
 21
75.2814393214056
 31
0.0
  0
LINE
  5
   4B6
  8
0
  6
CONTINUOUS
 62
   130
 10
119.796318233802
 20
74.4939393349237
 30
0.0
 11
119.796323574378
 21
75.2814339809366
 31
0.0
  0
LINE
  5
   4B7
  8
0
  6
CONTINUOUS
 62
     7
 10
78.6713483523616
 20
117.106457999378
 30
0.0
 11
77.6213483471773
 21
118.156458004562
 31
0.0
  0
LINE
  5
   4B8
  8
0
  6
CONTINUOUS
 62
   130
 10
76.2213510185479
 20
80.5314445719898
 30
0.0
 11
76.2213510185479
 21
102.581441526193
 31
0.0
  0
LINE
  5
   4B9
  8
0
  6
CONTINUOUS
 62
     7
 10
107.89634513855
 20
102.581433515328
 30
0.0
 11
107.89634513855
 21
113.081452028531
 31
0.0
  0
LINE
  5
   4BA
  8
0
  6
CONTINUOUS
 62
     7
 10
81.6463505923747
 20
112.906452031511
 30
0.0
 11
81.6463505923747
 21
113.081452028531
 31
0.0
  0
LINE
  5
   4BB
  8
0
  6
CONTINUOUS
 62
     7
 10
112.008823706223
 20
119.643946576207
 30
0.0
 11
120.846328896297
 21
119.643951916783
 31
0.0
  0
LINE
  5
   4BC
  8
0
  6
CONTINUOUS
 62
     7
 10
112.00882370621
 20
117.106446619409
 30
0.0
 11
112.00882370621
 21
119.643946576196
 31
0.0
  0
LINE
  5
   4BD
  8
0
  6
CONTINUOUS
 62
     7
 10
112.008823706223
 20
117.10644661942
 30
0.0
 11
120.846328896297
 21
117.106451959996
 31
0.0
  0
LINE
  5
   4BE
  8
0
  6
CONTINUOUS
 62
     7
 10
120.846328896284
 20
117.106451959985
 30
0.0
 11
120.846328896284
 21
119.643951916772
 31
0.0
  0
LINE
  5
   4BF
  8
0
  6
CONTINUOUS
 62
     7
 10
96.3025960035622
 20
117.106451959985
 30
0.0
 11
96.3025960035622
 21
119.643951916772
 31
0.0
  0
LINE
  5
   4C0
  8
0
  6
CONTINUOUS
 62
     7
 10
110.608823730052
 20
117.106451959985
 30
0.0
 11
96.3025953359902
 21
117.106451959985
 31
0.0
  0
LINE
  5
   4C1
  8
0
  6
CONTINUOUS
 62
     7
 10
110.608823730052
 20
117.106451959985
 30
0.0
 11
110.608823730052
 21
119.643951916772
 31
0.0
  0
LINE
  5
   4C2
  8
0
  6
CONTINUOUS
 62
     7
 10
110.608823730052
 20
119.643951916772
 30
0.0
 11
96.3025953359902
 21
119.643951916772
 31
0.0
  0
LINE
  5
   4C3
  8
0
  6
CONTINUOUS
 62
     7
 10
94.9025960274041
 20
117.106451959985
 30
0.0
 11
77.6213516622781
 21
117.106451959985
 31
0.0
  0
LINE
  5
   4C4
  8
0
  6
CONTINUOUS
 62
     7
 10
94.9025960274041
 20
117.106451959985
 30
0.0
 11
94.9025960274041
 21
119.643951916772
 31
0.0
  0
LINE
  5
   4C5
  8
0
  6
CONTINUOUS
 62
     7
 10
94.9025960274041
 20
119.643951916772
 30
0.0
 11
77.6213516622781
 21
119.643951916772
 31
0.0
  0
LINE
  5
   4C6
  8
0
  6
CONTINUOUS
 62
     7
 10
77.6213509947061
 20
117.106451959985
 30
0.0
 11
77.6213509947061
 21
119.643951916772
 31
0.0
  0
LINE
  5
   4C7
  8
0
  6
CONTINUOUS
 62
     7
 10
81.1213506013154
 20
76.6814352915468
 30
0.0
 11
81.1213506013154
 21
78.2564459458769
 31
0.0
  0
LINE
  5
   4C8
  8
0
  6
CONTINUOUS
 62
     7
 10
82.5213515788316
 20
76.6814366266908
 30
0.0
 11
82.5213515788316
 21
78.2564459458769
 31
0.0
  0
LINE
  5
   4C9
  8
0
  6
CONTINUOUS
 62
     7
 10
77.6214878469674
 20
76.6814246103977
 30
0.0
 11
77.6214885145395
 21
78.2564352647278
 31
0.0
  0
LINE
  5
   4CA
  8
0
  6
CONTINUOUS
 62
   130
 10
76.2213510184804
 20
75.2814206290348
 30
0.0
 11
76.2213523536245
 21
75.6314459908107
 31
0.0
  0
LINE
  5
   4CB
  8
0
  6
CONTINUOUS
 62
   130
 10
122.246326210711
 20
75.2813979331992
 30
0.0
 11
121.54632889292
 21
75.2814086143514
 31
0.0
  0
LINE
  5
   4CC
  8
0
  6
CONTINUOUS
 62
   130
 10
137.471344634891
 20
79.1314272389597
 30
0.0
 11
137.471339294315
 21
124.281447832364
 31
0.0
  0
LINE
  5
   4CD
  8
0
  6
CONTINUOUS
 62
     7
 10
112.027045751798
 20
76.681447307843
 30
0.0
 11
112.027045751798
 21
78.2564579621731
 31
0.0
  0
LINE
  5
   4CE
  8
0
  6
CONTINUOUS
 62
     7
 10
110.608399154253
 20
76.6814312861147
 30
0.0
 11
110.608399154253
 21
78.256456627029
 31
0.0
  0
LINE
  5
   4CF
  8
0
  6
CONTINUOUS
 62
     7
 10
102.821350565553
 20
112.906452031511
 30
0.0
 11
76.2213510185479
 21
112.906452031511
 31
0.0
  0
LINE
  5
   4D0
  8
0
  6
CONTINUOUS
 62
     7
 10
102.821350565553
 20
102.581433515328
 30
0.0
 11
102.821350565553
 21
112.906452031511
 31
0.0
  0
LINE
  5
   4D1
  8
0
  6
CONTINUOUS
 62
     7
 10
76.2213510185479
 20
102.581441526193
 30
0.0
 11
76.2213510185479
 21
112.906452031511
 31
0.0
  0
LINE
  5
   4D2
  8
0
  6
CONTINUOUS
 62
   150
 10
76.2213637024161
 20
79.5689512641012
 30
0.0
 11
72.371347078681
 21
79.5689512641012
 31
0.0
  0
LINE
  5
   4D3
  8
0
  6
CONTINUOUS
 62
   150
 10
76.2213510185479
 20
116.318967995125
 30
0.0
 11
72.371347078681
 21
116.318967995125
 31
0.0
  0
LINE
  5
   4D4
  8
0
  6
CONTINUOUS
 62
   150
 10
70.4462454879402
 20
79.7437607984433
 30
0.0
 11
70.4463456237451
 21
79.7444857816585
 31
0.0
  0
LINE
  5
   4D5
  8
0
  6
CONTINUOUS
 62
     7
 10
78.6713923662887
 20
76.6814419672703
 30
0.0
 11
78.6713916987167
 21
78.2564446107362
 31
0.0
  0
LINE
  5
   4D6
  8
0
  6
CONTINUOUS
 62
     7
 10
120.846328896284
 20
117.631451951045
 30
0.0
 11
112.008829046786
 21
117.631451951045
 31
0.0
  0
LINE
  5
   4D7
  8
0
  6
CONTINUOUS
 62
     7
 10
110.60882640034
 20
117.631451951045
 30
0.0
 11
96.3025993414223
 21
117.631451951045
 31
0.0
  0
LINE
  5
   4D8
  8
0
  6
CONTINUOUS
 62
     7
 10
94.9025993652641
 20
117.631451951045
 30
0.0
 11
78.6713509768247
 21
117.631451951045
 31
0.0
  0
LINE
  5
   4D9
  8
0
  6
CONTINUOUS
 62
     7
 10
78.4088522421287
 20
117.368957583545
 30
0.0
 11
78.6713522434247
 21
117.631457584841
 31
0.0
  0
LINE
  5
   4DA
  8
0
  6
CONTINUOUS
 62
     7
 10
78.6713509768247
 20
117.631451951045
 30
0.0
 11
78.6713509768247
 21
119.643951916772
 31
0.0
  0
CIRCLE
  5
   4DB
  8
0
  6
CONTINUOUS
 62
   130
 10
80.4213219397491
 20
97.3314303583177
 30
0.0
 40
3.49999695973229
  0
CIRCLE
  5
   4DC
  8
0
  6
CONTINUOUS
 62
   130
 10
80.4213249826296
 20
97.3314282619044
 30
0.0
 40
0.962501397983491
  0
CIRCLE
  5
   4DD
  8
0
  6
CONTINUOUS
 62
   130
 10
130.296341851139
 20
116.231424345826
 30
0.0
 40
2.10002360565626
  0
CIRCLE
  5
   4DE
  8
0
  6
CONTINUOUS
 62
   130
 10
130.296328206717
 20
116.231439936473
 30
0.0
 40
1.13750330518346
  0
CIRCLE
  5
   4DF
  8
0
  6
CONTINUOUS
 62
   130
 10
130.296327384987
 20
81.2314423439757
 30
0.0
 40
2.10000079410038
  0
CIRCLE
  5
   4E0
  8
0
  6
CONTINUOUS
 62
   130
 10
130.296330781156
 20
81.2314453267906
 30
0.0
 40
1.1375029235037
  0
LINE
  5
   4E1
  8
0
  6
DASHDOT
 62
     7
 10
130.296341851139
 20
113.78140074613
 30
0.0
 11
130.296341851139
 21
118.681447945522
 31
0.0
  0
LINE
  5
   4E2
  8
0
  6
DASHDOT
 62
     7
 10
132.746365450835
 20
116.231424345826
 30
0.0
 11
127.846318251443
 21
116.231424345826
 31
0.0
  0
LINE
  5
   4E3
  8
0
  6
DASHDOT
 62
     7
 10
130.296327384987
 20
78.7814415558358
 30
0.0
 11
130.296327384987
 21
83.6814431321156
 31
0.0
  0
LINE
  5
   4E4
  8
0
  6
DASHDOT
 62
     7
 10
132.746328173127
 20
81.2314423439757
 30
0.0
 11
127.846326596847
 21
81.2314423439757
 31
0.0
  0
LINE
  5
   4E5
  8
0
  6
CONTINUOUS
 62
     7
 10
72.371345743537
 20
45.9798542778318
 30
0.0
 11
72.371345743537
 21
72.0439033270665
 31
0.0
  0
LINE
  5
   4E6
  8
0
  6
CONTINUOUS
 62
     7
 10
71.6713457554579
 20
45.861876751751
 30
0.0
 11
71.6713457554579
 21
79.5689512641012
 31
0.0
  0
LINE
  5
   4E7
  8
0
  6
CONTINUOUS
 62
     7
 10
69.8526074058334
 20
45.5553478164211
 30
0.0
 11
74.3917595519468
 21
46.3203734590244
 31
0.0
  0
LINE
  5
   4E8
  8
0
  6
CONTINUOUS
 62
     7
 10
73.9837458758916
 20
139.194486471075
 30
0.0
 11
70.8216398864643
 21
140.061515532693
 31
0.0
  0
LINE
  5
   4E9
  8
0
  6
CONTINUOUS
 62
     7
 10
71.6713457554579
 20
116.318967995125
 30
0.0
 11
71.6713457554579
 21
139.828531665388
 31
0.0
  0
LINE
  5
   4EA
  8
0
  6
DASHDOT
 62
     7
 10
80.4213219397491
 20
93.4814334045459
 30
0.0
 11
80.4213219397491
 21
101.18142731209
 31
0.0
  0
LINE
  5
   4EB
  8
0
  6
DASHDOT
 62
     7
 10
84.2713188935209
 20
97.3314303583177
 30
0.0
 11
76.5713249859773
 21
97.3314303583177
 31
0.0
  0
LINE
  5
   4EC
  8
0
  6
CONTINUOUS
 62
     7
 10
75.1713470309973
 20
86.1314738497908
 30
0.0
 11
75.1713470309973
 21
90.6814016745277
 31
0.0
  0
LINE
  5
   4ED
  8
0
  6
CONTINUOUS
 62
     1
 10
71.6713470906019
 20
69.7689026982375
 30
0.0
 11
71.6713470906019
 21
126.118901738603
 31
0.0
  0
LINE
  5
   4EE
  8
0
  6
CONTINUOUS
 62
     1
 10
71.6713470906019
 20
69.7689026982375
 30
0.0
 11
70.4463471114635
 21
69.7689026982375
 31
0.0
  0
LINE
  5
   4EF
  8
0
  6
CONTINUOUS
 62
     1
 10
70.4463471114635
 20
69.7689026982375
 30
0.0
 11
70.4463471114635
 21
85.4314024315067
 31
0.0
  0
LINE
  5
   4F0
  8
0
  6
CONTINUOUS
 62
     1
 10
70.4463471114635
 20
91.3814016626068
 30
0.0
 11
70.4463471114635
 21
126.118903741319
 31
0.0
  0
LINE
  5
   4F1
  8
0
  6
CONTINUOUS
 62
     1
 10
71.6713470906019
 20
126.118903741319
 30
0.0
 11
70.4463471114635
 21
126.118903741319
 31
0.0
  0
LINE
  5
   4F2
  8
0
  6
CONTINUOUS
 62
     1
 10
72.371347078681
 20
98.9939042032547
 30
0.0
 11
72.371347078681
 21
121.743903815825
 31
0.0
  0
LINE
  5
   4F3
  8
0
  6
CONTINUOUS
 62
     1
 10
72.371347078681
 20
90.6814043448158
 30
0.0
 11
72.371347078681
 21
96.8939069093055
 31
0.0
  0
LINE
  5
   4F4
  8
0
  6
CONTINUOUS
 62
     7
 10
73.9463470518589
 20
72.2459760393845
 30
0.0
 11
73.9463470518589
 21
73.9418305789857
 31
0.0
  0
LINE
  5
   4F5
  8
0
  6
CONTINUOUS
 62
     7
 10
73.9463470518589
 20
121.945975192999
 30
0.0
 11
73.9463470518589
 21
123.641832402888
 31
0.0
  0
LINE
  5
   4F6
  8
0
  6
CONTINUOUS
 62
     7
 10
73.9463470518589
 20
97.0959756161915
 30
0.0
 11
73.9463470518589
 21
98.7918301557927
 31
0.0
  0
LINE
  5
   4F7
  8
0
  6
CONTINUOUS
 62
     1
 10
70.7963471055031
 20
85.4314017639347
 30
0.0
 11
70.4463471114635
 21
85.4314017639347
 31
0.0
  0
LINE
  5
   4F8
  8
0
  6
CONTINUOUS
 62
     1
 10
70.7963471055031
 20
91.3814016626068
 30
0.0
 11
70.4463471114635
 21
91.3814016626068
 31
0.0
  0
LINE
  5
   4F9
  8
0
  6
CONTINUOUS
 62
     3
 10
70.4463471114635
 20
85.7814017579742
 30
0.0
 11
70.4463471114635
 21
91.0314016685672
 31
0.0
  0
LINE
  5
   4FA
  8
0
  6
CONTINUOUS
 62
     7
 10
70.7963471055031
 20
85.7814017579742
 30
0.0
 11
70.4463471114635
 21
85.7814017579742
 31
0.0
  0
LINE
  5
   4FB
  8
0
  6
CONTINUOUS
 62
     7
 10
70.7963471055031
 20
84.3814017818161
 30
0.0
 11
70.7963471055031
 21
85.7814017579742
 31
0.0
  0
LINE
  5
   4FC
  8
0
  6
CONTINUOUS
 62
     7
 10
71.1463470995426
 20
84.3814017818161
 30
0.0
 11
70.7963471055031
 21
84.3814017818161
 31
0.0
  0
LINE
  5
   4FD
  8
0
  6
CONTINUOUS
 62
     7
 10
71.1463470995426
 20
84.3814017818161
 30
0.0
 11
71.1463470995426
 21
92.4314016447254
 31
0.0
  0
LINE
  5
   4FE
  8
0
  6
CONTINUOUS
 62
     7
 10
71.1463470995426
 20
92.4314016447254
 30
0.0
 11
70.7963471055031
 21
92.4314016447254
 31
0.0
  0
LINE
  5
   4FF
  8
0
  6
CONTINUOUS
 62
     7
 10
70.7963471055031
 20
91.0314016685672
 30
0.0
 11
70.7963471055031
 21
92.4314016447254
 31
0.0
  0
LINE
  5
   500
  8
0
  6
CONTINUOUS
 62
     7
 10
70.7963471055031
 20
91.0314016685672
 30
0.0
 11
70.4463471114635
 21
91.0314016685672
 31
0.0
  0
LINE
  5
   501
  8
0
  6
CONTINUOUS
 62
     7
 10
75.1713470309973
 20
86.1314738497908
 30
0.0
 11
71.6713470906019
 21
86.1314738497908
 31
0.0
  0
LINE
  5
   502
  8
0
  6
CONTINUOUS
 62
     7
 10
75.1713470309973
 20
90.6814016745277
 30
0.0
 11
71.6713470906019
 21
90.6814016745277
 31
0.0
  0
LINE
  5
   503
  8
0
  6
CONTINUOUS
 62
     1
 10
70.4463471114635
 20
85.4314044342227
 30
0.0
 11
70.4463471114635
 21
85.7814017579742
 31
0.0
  0
LINE
  5
   504
  8
0
  6
CONTINUOUS
 62
     1
 10
70.4463471114635
 20
91.0314016685672
 30
0.0
 11
70.4463471114635
 21
91.3814043328948
 31
0.0
  0
LINE
  5
   505
  8
0
  6
CONTINUOUS
 62
     7
 10
73.5963470578193
 20
72.0439033270665
 30
0.0
 11
71.6713470906019
 21
72.0439033270665
 31
0.0
  0
LINE
  5
   506
  8
0
  6
CONTINUOUS
 62
     7
 10
73.5963470578193
 20
74.1439032913037
 30
0.0
 11
71.6713470906019
 21
74.1439032913037
 31
0.0
  0
LINE
  5
   507
  8
0
  6
CONTINUOUS
 62
     7
 10
73.5963470578193
 20
74.0639775648206
 30
0.0
 11
73.5963470578193
 21
74.1439032913037
 31
0.0
  0
LINE
  5
   508
  8
0
  6
CONTINUOUS
 62
     7
 10
73.5963470578193
 20
73.8363662176836
 30
0.0
 11
73.5963470578193
 21
74.0639775648206
 31
0.0
  0
LINE
  5
   509
  8
0
  6
CONTINUOUS
 62
     7
 10
73.5963470578193
 20
73.4957215777938
 30
0.0
 11
73.5963470578193
 21
73.8363662176836
 31
0.0
  0
LINE
  5
   50A
  8
0
  6
CONTINUOUS
 62
     7
 10
73.5963470578193
 20
73.0939033091851
 30
0.0
 11
73.5963470578193
 21
73.4957215777938
 31
0.0
  0
LINE
  5
   50B
  8
0
  6
CONTINUOUS
 62
     7
 10
73.5963470578193
 20
72.6920863757204
 30
0.0
 11
73.5963470578193
 21
73.0939033091851
 31
0.0
  0
LINE
  5
   50C
  8
0
  6
CONTINUOUS
 62
     7
 10
73.5963470578193
 20
72.3514417358306
 30
0.0
 11
73.5963470578193
 21
72.6920863757204
 31
0.0
  0
LINE
  5
   50D
  8
0
  6
CONTINUOUS
 62
     7
 10
73.5963470578193
 20
72.1238303886936
 30
0.0
 11
73.5963470578193
 21
72.3514417358306
 31
0.0
  0
LINE
  5
   50E
  8
0
  6
CONTINUOUS
 62
     7
 10
73.5963470578193
 20
72.0439033270665
 30
0.0
 11
73.5963470578193
 21
72.1238303886936
 31
0.0
  0
LINE
  5
   50F
  8
0
  6
CONTINUOUS
 62
     7
 10
73.5963474773323
 20
72.043903038001
 30
0.0
 11
73.946347482897
 21
72.2459757391392
 31
0.0
  0
LINE
  5
   510
  8
0
  6
CONTINUOUS
 62
     7
 10
73.9463478054193
 20
73.9418299481892
 30
0.0
 11
73.5963477998546
 21
74.1439026493275
 31
0.0
  0
LINE
  5
   511
  8
0
  6
CONTINUOUS
 62
     7
 10
73.5963470578193
 20
121.743903815825
 30
0.0
 11
71.6713470906019
 21
121.743903815825
 31
0.0
  0
LINE
  5
   512
  8
0
  6
CONTINUOUS
 62
     7
 10
73.5963470578193
 20
123.843903780062
 30
0.0
 11
71.6713470906019
 21
123.843903780062
 31
0.0
  0
LINE
  5
   513
  8
0
  6
CONTINUOUS
 62
     7
 10
73.5963470578193
 20
123.763976718435
 30
0.0
 11
73.5963470578193
 21
123.843903780062
 31
0.0
  0
LINE
  5
   514
  8
0
  6
CONTINUOUS
 62
     7
 10
73.5963470578193
 20
123.536366706442
 30
0.0
 11
73.5963470578193
 21
123.763976718435
 31
0.0
  0
LINE
  5
   515
  8
0
  6
CONTINUOUS
 62
     7
 10
73.5963470578193
 20
123.19571806112
 30
0.0
 11
73.5963470578193
 21
123.536366706442
 31
0.0
  0
LINE
  5
   516
  8
0
  6
CONTINUOUS
 62
     7
 10
73.5963470578193
 20
122.793903797943
 30
0.0
 11
73.5963470578193
 21
123.19571806112
 31
0.0
  0
LINE
  5
   517
  8
0
  6
CONTINUOUS
 62
     7
 10
73.5963470578193
 20
122.39208419419
 30
0.0
 11
73.5963470578193
 21
122.793903797943
 31
0.0
  0
LINE
  5
   518
  8
0
  6
CONTINUOUS
 62
     7
 10
73.5963470578193
 20
122.051440889445
 30
0.0
 11
73.5963470578193
 21
122.39208419419
 31
0.0
  0
LINE
  5
   519
  8
0
  6
CONTINUOUS
 62
     7
 10
73.5963470578193
 20
121.823830877452
 30
0.0
 11
73.5963470578193
 21
122.051440889445
 31
0.0
  0
LINE
  5
   51A
  8
0
  6
CONTINUOUS
 62
     7
 10
73.5963470578193
 20
121.743903815825
 30
0.0
 11
73.5963470578193
 21
121.823830877452
 31
0.0
  0
LINE
  5
   51B
  8
0
  6
CONTINUOUS
 62
     7
 10
73.5963469943247
 20
121.743903065028
 30
0.0
 11
73.9463469998886
 21
121.945974444735
 31
0.0
  0
LINE
  5
   51C
  8
0
  6
CONTINUOUS
 62
     7
 10
73.9463475663041
 20
123.641831516048
 30
0.0
 11
73.5963475607402
 21
123.843902895756
 31
0.0
  0
LINE
  5
   51D
  8
0
  6
CONTINUOUS
 62
     7
 10
73.5963470578193
 20
96.8939042390175
 30
0.0
 11
71.6713470906019
 21
96.8939042390175
 31
0.0
  0
LINE
  5
   51E
  8
0
  6
CONTINUOUS
 62
     7
 10
73.5963470578193
 20
98.9939042032547
 30
0.0
 11
71.6713470906019
 21
98.9939042032547
 31
0.0
  0
LINE
  5
   51F
  8
0
  6
CONTINUOUS
 62
     7
 10
73.5963470578193
 20
98.9139771416276
 30
0.0
 11
73.5963470578193
 21
98.9939042032547
 31
0.0
  0
LINE
  5
   520
  8
0
  6
CONTINUOUS
 62
     7
 10
73.5963470578193
 20
98.6863644593466
 30
0.0
 11
73.5963470578193
 21
98.9139771416276
 31
0.0
  0
LINE
  5
   521
  8
0
  6
CONTINUOUS
 62
     7
 10
73.5963470578193
 20
98.3457211546008
 30
0.0
 11
73.5963470578193
 21
98.6863644593466
 31
0.0
  0
LINE
  5
   522
  8
0
  6
CONTINUOUS
 62
     7
 10
73.5963470578193
 20
97.9439042211361
 30
0.0
 11
73.5963470578193
 21
98.3457211546008
 31
0.0
  0
LINE
  5
   523
  8
0
  6
CONTINUOUS
 62
     7
 10
73.5963470578193
 20
97.5420846173834
 30
0.0
 11
73.5963470578193
 21
97.9439042211361
 31
0.0
  0
LINE
  5
   524
  8
0
  6
CONTINUOUS
 62
     7
 10
73.5963470578193
 20
97.2014413126376
 30
0.0
 11
73.5963470578193
 21
97.5420846173834
 31
0.0
  0
LINE
  5
   525
  8
0
  6
CONTINUOUS
 62
     7
 10
73.5963470578193
 20
96.9738286303566
 30
0.0
 11
73.5963470578193
 21
97.2014413126376
 31
0.0
  0
LINE
  5
   526
  8
0
  6
CONTINUOUS
 62
     7
 10
73.5963470578193
 20
96.8939042390175
 30
0.0
 11
73.5963470578193
 21
96.9738286303566
 31
0.0
  0
LINE
  5
   527
  8
0
  6
CONTINUOUS
 62
     7
 10
73.5963471054253
 20
96.893903808941
 30
0.0
 11
73.9463471109892
 21
97.0959751886485
 31
0.0
  0
LINE
  5
   528
  8
0
  6
CONTINUOUS
 62
     7
 10
73.9463476117185
 20
98.791829367877
 30
0.0
 11
73.5963476061549
 21
98.9939034145384
 31
0.0
  0
LINE
  5
   529
  8
0
  6
CONTINUOUS
 62
     7
 10
72.371345743537
 20
74.3189032883234
 30
0.0
 11
71.6713470906019
 21
74.3189032883234
 31
0.0
  0
LINE
  5
   52A
  8
0
  6
CONTINUOUS
 62
     7
 10
72.371345743537
 20
71.8689033300467
 30
0.0
 11
71.6713470906019
 21
71.8689033300467
 31
0.0
  0
LINE
  5
   52B
  8
0
  6
CONTINUOUS
 62
     7
 10
72.371345743537
 20
74.1439032913037
 30
0.0
 11
72.371345743537
 21
86.1314070925898
 31
0.0
  0
LINE
  5
   52C
  8
0
  6
CONTINUOUS
 62
     7
 10
72.371347078681
 20
85.7814738557513
 30
0.0
 11
71.6713470906019
 21
85.7814738557513
 31
0.0
  0
LINE
  5
   52D
  8
0
  6
CONTINUOUS
 62
     7
 10
72.371347078681
 20
91.0314016685672
 30
0.0
 11
71.6713470906019
 21
91.0314016685672
 31
0.0
  0
LINE
  5
   52E
  8
0
  6
CONTINUOUS
 62
     7
 10
72.371347078681
 20
99.1689042002745
 30
0.0
 11
71.6713470906019
 21
99.1689042002745
 31
0.0
  0
LINE
  5
   52F
  8
0
  6
CONTINUOUS
 62
     7
 10
72.371347078681
 20
96.7189042419977
 30
0.0
 11
71.6713470906019
 21
96.7189042419977
 31
0.0
  0
LINE
  5
   530
  8
0
  6
CONTINUOUS
 62
     7
 10
72.371345743537
 20
123.843903780062
 30
0.0
 11
72.371345743537
 21
139.636596184786
 31
0.0
  0
LINE
  5
   531
  8
0
  6
CONTINUOUS
 62
     7
 10
72.371345743537
 20
124.018903777082
 30
0.0
 11
71.6713470906019
 21
124.018903777082
 31
0.0
  0
LINE
  5
   532
  8
0
  6
CONTINUOUS
 62
     7
 10
72.371345743537
 20
121.568903818805
 30
0.0
 11
71.6713470906019
 21
121.568903818805
 31
0.0
  0
INSERT
  5
   533
  8
0
  6
CONTINUOUS
 62
     7
  2
*HATCH109
 10
85.4963455200195
 20
59.4484977722168
 30
0.0
 41
0.349999994039536
 42
0.349999994039536
 50
89.9999999480344
 43
0.349999994039536
  0
INSERT
  5
   534
  8
0
  6
CONTINUOUS
 62
     7
  2
*HATCH110
 10
85.4963455200195
 20
59.4484977722168
 30
0.0
 41
0.349999994039536
 42
0.349999994039536
 50
89.9999999480344
 43
0.349999994039536
  0
INSERT
  5
   535
  8
0
  6
CONTINUOUS
 62
     7
  2
*HATCH111
 10
85.4963455200195
 20
59.4484977722168
 30
0.0
 41
0.349999994039536
 42
0.349999994039536
 50
89.9999999480344
 43
0.349999994039536
  0
INSERT
  5
   536
  8
0
  6
CONTINUOUS
 62
     7
  2
*HATCH112
 10
85.4963455200195
 20
59.4484977722168
 30
0.0
 41
0.349999994039536
 42
0.349999994039536
 50
89.9999999480344
 43
0.349999994039536
  0
INSERT
  5
   537
  8
0
  6
CONTINUOUS
 62
     7
  2
*HATCH113
 10
85.4963455200195
 20
59.4484977722168
 30
0.0
 41
0.349999994039536
 42
0.349999994039536
 50
89.9999999480344
 43
0.349999994039536
  0
CIRCLE
  5
   538
  8
0
  6
CONTINUOUS
 62
     7
 10
71.8125305206633
 20
47.6574303879018
 30
0.0
 40
8.74999985098839E-2
  0
LINE
  5
   539
  8
0
  6
DASHDOT
 62
     7
 10
163.552079309639
 20
97.9439683080491
 30
0.0
 11
55.5832145935053
 21
97.9439683080491
 31
0.0
  0
LINE
  5
   53A
  8
0
  6
CONTINUOUS
 62
     7
 10
75.6963450193405
 20
116.843967986184
 30
0.0
 11
74.8213430315257
 21
116.843967986184
 31
0.0
  0
LINE
  5
   53B
  8
0
  6
CONTINUOUS
 62
     7
 10
75.6963450193405
 20
116.843967986184
 30
0.0
 11
75.6963450193405
 21
120.518967923599
 31
0.0
  0
LINE
  5
   53C
  8
0
  6
CONTINUOUS
 62
     7
 10
74.4713430374861
 20
121.743967902738
 30
0.0
 11
73.5963430523873
 21
121.743967902738
 31
0.0
  0
LINE
  5
   53D
  8
0
  6
CONTINUOUS
 62
     7
 10
73.2463430583477
 20
123.843903780062
 30
0.0
 11
73.2463430583477
 21
124.893967849093
 31
0.0
  0
LINE
  5
   53E
  8
0
  6
CONTINUOUS
 62
     7
 10
73.2463430583477
 20
124.893967849093
 30
0.0
 11
72.371345743537
 21
124.893967849093
 31
0.0
  0
LINE
  5
   53F
  8
0
  6
CONTINUOUS
 62
     7
 10
74.4713430374861
 20
120.868967917639
 30
0.0
 11
73.5963430523873
 21
120.868967917639
 31
0.0
  0
LINE
  5
   540
  8
0
  6
CONTINUOUS
 62
     7
 10
74.8213430315257
 20
116.843967986184
 30
0.0
 11
74.8213430315257
 21
120.518967923599
 31
0.0
  0
ARC
  5
   541
  8
0
  6
CONTINUOUS
 62
     7
 10
74.4713379087589
 20
120.518963483393
 30
0.0
 40
1.2250064377287
 50
360.000319242658
 51
449.999813057862
  0
ARC
  5
   542
  8
0
  6
CONTINUOUS
 62
     7
 10
74.4713585243383
 20
120.518982236773
 30
0.0
 40
0.349982431475061
 50
359.998830132094
 51
450.002235749312
  0
ARC
  5
   543
  8
0
  6
CONTINUOUS
 62
     7
 10
73.5963362790538
 20
122.09395668035
 30
0.0
 40
1.22498984871903
 50
196.604271282219
 51
270.000346548696
  0
LINE
  5
   544
  8
0
  6
CONTINUOUS
 62
     7
 10
75.6963450193405
 20
119.99396793254
 30
0.0
 11
74.8213430315257
 21
119.99396793254
 31
0.0
  0
INSERT
  5
   545
  8
0
  6
CONTINUOUS
 62
     7
  2
*HATCH114
 10
85.4963455200195
 20
59.4484977722168
 30
0.0
 41
0.349999994039536
 42
0.349999994039536
 50
89.9999999480344
 43
0.349999994039536
  0
LINE
  5
   546
  8
0
  6
CONTINUOUS
 62
     7
 10
74.2963470458984
 20
118.768967953401
 30
0.0
 11
73.5963470578193
 21
118.768967953401
 31
0.0
  0
LINE
  5
   547
  8
0
  6
CONTINUOUS
 62
     7
 10
73.5963470578193
 20
116.318967995125
 30
0.0
 11
73.5963470578193
 21
118.768967953401
 31
0.0
  0
LINE
  5
   548
  8
0
  6
CONTINUOUS
 62
     7
 10
74.2963470458984
 20
116.318967995125
 30
0.0
 11
74.2963470458984
 21
118.768967953401
 31
0.0
  0
LINE
  5
   549
  8
0
  6
DOT
 62
     7
 10
60.8213472753763
 20
79.5689512641012
 30
0.0
 11
60.8213472753763
 21
116.318967995125
 31
0.0
  0
LINE
  5
   54A
  8
0
  6
DOT
 62
     7
 10
68.4191232735589
 20
116.318967995125
 30
0.0
 11
60.8213472753763
 21
116.318967995125
 31
0.0
  0
LINE
  5
   54B
  8
0
  6
DOT
 62
     7
 10
67.4454040981171
 20
79.5689512641012
 30
0.0
 11
60.8213472753763
 21
79.5689512641012
 31
0.0
  0
LINE
  5
   54C
  8
0
  6
CONTINUOUS
 62
     7
 10
141.041344574094
 20
119.591451917666
 30
0.0
 11
141.041344574094
 21
122.321451871174
 31
0.0
  0
LINE
  5
   54D
  8
0
  6
CONTINUOUS
 62
     7
 10
142.16134455502
 20
120.256451906341
 30
0.0
 11
142.16134455502
 21
121.656451882499
 31
0.0
  0
LINE
  5
   54E
  8
0
  6
CONTINUOUS
 62
     7
 10
141.041344574094
 20
122.321451871174
 30
0.0
 11
139.921344593167
 21
122.321451871174
 31
0.0
  0
LINE
  5
   54F
  8
0
  6
CONTINUOUS
 62
     7
 10
141.041344574094
 20
119.591451917666
 30
0.0
 11
139.921344593167
 21
119.591451917666
 31
0.0
  0
LINE
  5
   550
  8
0
  6
CONTINUOUS
 62
     7
 10
142.16134455502
 20
120.256451906341
 30
0.0
 11
139.921344593167
 21
120.256451906341
 31
0.0
  0
LINE
  5
   551
  8
0
  6
CONTINUOUS
 62
     7
 10
142.16134455502
 20
121.656451882499
 30
0.0
 11
139.921344593167
 21
121.656451882499
 31
0.0
  0
LINE
  5
   552
  8
0
  6
CONTINUOUS
 62
     7
 10
141.041344574094
 20
75.0714526758372
 30
0.0
 11
139.921344593167
 21
75.0714526758372
 31
0.0
  0
LINE
  5
   553
  8
0
  6
CONTINUOUS
 62
     7
 10
142.16134455502
 20
74.4064526871621
 30
0.0
 11
139.921344593167
 21
74.4064526871621
 31
0.0
  0
LINE
  5
   554
  8
0
  6
CONTINUOUS
 62
     7
 10
142.16134455502
 20
73.0064527110039
 30
0.0
 11
139.921344593167
 21
73.0064527110039
 31
0.0
  0
LINE
  5
   555
  8
0
  6
CONTINUOUS
 62
     7
 10
141.041344574094
 20
72.3414527223288
 30
0.0
 11
139.921344593167
 21
72.3414527223288
 31
0.0
  0
LINE
  5
   556
  8
0
  6
CONTINUOUS
 62
     7
 10
141.041344574094
 20
72.3414527223288
 30
0.0
 11
141.041344574094
 21
75.0714526758372
 31
0.0
  0
LINE
  5
   557
  8
0
  6
CONTINUOUS
 62
     7
 10
142.16134455502
 20
73.0064527110039
 30
0.0
 11
142.16134455502
 21
74.4064526871621
 31
0.0
  0
POINT
  5
   558
  8
0
  6
CONTINUOUS
 62
     7
 10
138.871344611049
 20
97.9439683080491
 30
0.0
  0
INSERT
  5
   559
  8
255
  6
CONTINUOUS
 62
     7
  2
S4L
 10
85.4963668823239
 20
59.4484911499148
 30
0.0
 41
0.349999994039536
 42
-0.349999994039536
 50
180.000000207862
 43
0.349999994039536
  0
LINE
  5
   55A
  8
0
  6
CONTINUOUS
 62
   130
 10
119.515708290026
 20
176.545084180642
 30
0.0
 11
70.7710301104958
 21
176.545084180642
 31
0.0
  0
POINT
  5
   55B
  8
0
  6
CONTINUOUS
 62
     7
 10
74.9367764220147
 20
121.054027456748
 30
0.0
  0
LINE
  5
   55C
  8
0
  6
CONTINUOUS
 62
     7
 10
128.021344795823
 20
141.781451539773
 30
0.0
 11
128.021344795823
 21
150.706467409509
 31
0.0
  0
LINE
  5
   55D
  8
0
  6
CONTINUOUS
 62
     7
 10
126.271344825625
 20
141.781451539773
 30
0.0
 11
126.271344825625
 21
150.706467409509
 31
0.0
  0
LINE
  5
   55E
  8
0
  6
DASHDOT
 62
     7
 10
130.029647004067
 20
147.206467469114
 30
0.0
 11
124.130080961508
 21
147.206467469114
 31
0.0
  0
LINE
  5
   55F
  8
0
  6
CONTINUOUS
 62
     7
 10
128.021344795823
 20
150.706467409509
 30
0.0
 11
126.271344825625
 21
150.706467409509
 31
0.0
  0
LINE
  5
   560
  8
0
  6
CONTINUOUS
 62
     7
 10
128.021344795823
 20
143.706467528718
 30
0.0
 11
126.271344825625
 21
143.706467528718
 31
0.0
  0
LINE
  5
   561
  8
0
  6
DASHDOT
 62
     7
 10
130.029647004067
 20
47.4564691678461
 30
0.0
 11
124.130080961508
 21
47.4564691678461
 31
0.0
  0
LINE
  5
   562
  8
0
  6
CONTINUOUS
 62
     7
 10
128.021344795823
 20
43.9564692274507
 30
0.0
 11
126.271344825625
 21
43.9564692274507
 31
0.0
  0
LINE
  5
   563
  8
0
  6
CONTINUOUS
 62
     7
 10
128.021344795823
 20
50.9564691082414
 30
0.0
 11
126.271344825625
 21
50.9564691082414
 31
0.0
  0
LINE
  5
   564
  8
0
  6
CONTINUOUS
 62
     7
 10
128.021344795823
 20
43.9564692274507
 30
0.0
 11
128.021344795823
 21
52.8814637348834
 31
0.0
  0
LINE
  5
   565
  8
0
  6
CONTINUOUS
 62
     7
 10
126.271344825625
 20
43.9564692274507
 30
0.0
 11
126.271344825625
 21
52.8814637348834
 31
0.0
  0
INSERT
  5
   566
  8
255
  6
CONTINUOUS
 62
     7
  2
SBARRA
 10
137.296337545998
 20
106.081454041185
 30
0.0
 41
-0.349999994039536
 42
0.349999994039536
 50
359.999932748911
 43
0.349999994039536
  0
LINE
  5
   567
  8
0
  6
CONTINUOUS
 62
     7
 10
137.29065136414
 20
142.383227764462
 30
0.0
 11
144.013728384096
 21
143.357586752861
 31
0.0
  0
INSERT
  5
   568
  8
0
  6
CONTINUOUS
 62
     7
  2
*UDIM593
 10
0.0
 20
0.0
 30
0.0
  0
INSERT
  5
   569
  8
0
  6
CONTINUOUS
 62
     7
  2
*UDIM594
 10
0.0
 20
0.0
 30
0.0
  0
INSERT
  5
   56A
  8
0
  6
CONTINUOUS
 62
     7
  2
*UDIM595
 10
0.0
 20
0.0
 30
0.0
  0
INSERT
  5
   56B
  8
0
  6
CONTINUOUS
 62
     7
  2
*UDIM596
 10
0.0
 20
0.0
 30
0.0
  0
INSERT
  5
   56C
  8
0
  6
CONTINUOUS
 62
     7
  2
*UDIM597
 10
0.0
 20
0.0
 30
0.0
  0
INSERT
  5
   56D
  8
0
  6
CONTINUOUS
 62
     7
  2
*UDIM598
 10
0.0
 20
0.0
 30
0.0
  0
INSERT
  5
   56E
  8
0
  6
CONTINUOUS
 62
     7
  2
*UDIM599
 10
0.0
 20
0.0
 30
0.0
  0
TEXT
  5
   56F
  8
0
  6
CONTINUOUS
 62
     7
 10
41.7911490491587
 20
96.1813268109098
 30
0.0
 40
2.99999997871263
  1
X
 50
359.999999948034
 41
0.916666703091727
 72
     1
 11
42.8911490913833
 21
97.6813267992739
 31
0.0
 73
     2
  0
TEXT
  5
   570
  8
0
  6
CONTINUOUS
 62
     7
 10
56.0057008120248
 20
89.6365675237361
 30
0.0
 40
2.99999997871263
  1
=    =
 50
89.9999999480344
 41
0.916666703091727
 72
     1
 11
54.5057008298916
 21
97.6115677903708
 31
0.0
 73
     2
  0
INSERT
  5
   571
  8
0
  6
CONTINUOUS
 62
     7
  2
*UDIM600
 10
0.0
 20
0.0
 30
0.0
  0
TEXT
  5
   572
  8
0
  6
CONTINUOUS
 62
     7
 10
74.8022227804251
 20
182.573480497801
 30
0.0
 40
2.4999999335834
  1
CORSA DI SEZIONAMENTO
 50
359.999999948034
 41
0.899999947857856
 72
     1
 11
98.2022208008476
 21
183.823480443487
 31
0.0
 73
     2
  0
TEXT
  5
   573
  8
0
  6
CONTINUOUS
 62
     7
 10
78.1772222985284
 20
178.073480494756
 30
0.0
 40
2.4999999335834
  1
ISOLATING DISTANCE
 50
359.999999948034
 41
0.899999947857856
 72
     1
 11
98.2022206041464
 21
179.323480443487
 31
0.0
 73
     2
  0
INSERT
  5
   574
  8
0
  6
CONTINUOUS
 62
     7
  2
*UDIM601
 10
0.0
 20
0.0
 30
0.0
  0
INSERT
  5
   575
  8
0
  6
CONTINUOUS
 62
     7
  2
*UDIM602
 10
0.0
 20
0.0
 30
0.0
  0
INSERT
  5
   576
  8
0
  6
CONTINUOUS
 62
     7
  2
*UDIM603
 10
0.0
 20
0.0
 30
0.0
  0
INSERT
  5
   577
  8
0
  6
CONTINUOUS
 62
     7
  2
*UDIM604
 10
0.0
 20
0.0
 30
0.0
  0
INSERT
  5
   578
  8
0
  6
CONTINUOUS
 62
     7
  2
*UDIM605
 10
0.0
 20
0.0
 30
0.0
  0
INSERT
  5
   579
  8
0
  6
CONTINUOUS
 62
     7
  2
*UDIM606
 10
0.0
 20
0.0
 30
0.0
  0
LINE
  5
   57A
  8
0
  6
DASHDOT
 62
     3
 10
242.821014404297
 20
-38.1563153815688
 30
0.0
 11
242.821014404297
 21
-91.6154558271574
 31
0.0
  0
LINE
  5
   57B
  8
0
  6
CONTINUOUS
 62
     7
 10
264.071014404297
 20
-39.4520416259766
 30
0.0
 11
264.071014404297
 21
-87.9520416259766
 31
0.0
  0
LINE
  5
   57C
  8
0
  6
CONTINUOUS
 62
     7
 10
218.506948573304
 20
-39.4520416259766
 30
0.0
 11
218.506948573304
 21
-87.9520416259766
 31
0.0
  0
CIRCLE
  5
   57D
  8
0
  6
CONTINUOUS
 62
     7
 10
224.987029154781
 20
-44.3866478456692
 30
0.0
 40
0.05
  0
LINE
  5
   57E
  8
0
  6
DASHDOT
 62
     3
 10
223.821014404297
 20
-42.3739980657488
 30
0.0
 11
223.821014404297
 21
-85.4461097592541
 31
0.0
  0
LINE
  5
   57F
  8
0
  6
DASHDOT
 62
     3
 10
253.071014404297
 20
-42.6816560064167
 30
0.0
 11
253.071014404297
 21
-85.907596670256
 31
0.0
  0
LINE
  5
   580
  8
0
  6
DASHDOT
 62
     3
 10
261.146480114969
 20
-46.8270416259766
 30
0.0
 11
223.399472885159
 21
-46.8270416259766
 31
0.0
  0
LINE
  5
   581
  8
0
  6
DASHDOT
 62
     3
 10
261.146480114969
 20
-80.5770416259766
 30
0.0
 11
224.014788766495
 21
-80.5770416259766
 31
0.0
  0
CIRCLE
  5
   582
  8
0
  6
CONTINUOUS
 62
     7
 10
223.821014404297
 20
-46.8270416259766
 30
0.0
 40
0.625
  0
CIRCLE
  5
   583
  8
0
  6
CONTINUOUS
 62
     7
 10
253.071014404297
 20
-46.8270416259766
 30
0.0
 40
0.625
  0
CIRCLE
  5
   584
  8
0
  6
CONTINUOUS
 62
     7
 10
223.821014404297
 20
-80.5770416259766
 30
0.0
 40
0.625
  0
CIRCLE
  5
   585
  8
0
  6
CONTINUOUS
 62
     7
 10
253.071014404297
 20
-80.5770416259766
 30
0.0
 40
0.625
  0
LINE
  5
   586
  8
0
  6
DASHDOT
 62
     3
 10
261.146480114969
 20
-63.2645416259766
 30
0.0
 11
212.422436377449
 21
-63.2645416259766
 31
0.0
  0
LINE
  5
   587
  8
0
  6
CONTINUOUS
 62
     7
 10
264.071014404297
 20
-87.9520416259766
 30
0.0
 11
218.506948573304
 21
-87.9520416259766
 31
0.0
  0
LINE
  5
   588
  8
0
  6
CONTINUOUS
 62
     7
 10
264.071014404297
 20
-39.4520416259766
 30
0.0
 11
218.506948573304
 21
-39.4520416259766
 31
0.0
  0
TEXT
  5
   589
  8
0
  6
CONTINUOUS
 62
     1
 10
163.136889700767
 20
-193.480718893192
 30
0.0
 40
2.00000008940697
  1
M4504 98-11-17
 50
359.999999896069
 41
0.749999861419206
 72
     2
 11
183.83688679355
 21
-193.480718930637
 31
0.0
  0
TEXT
  5
   58A
  8
0
  6
CONTINUOUS
 62
     1
 10
130.442901609519
 20
-186.930141523729
 30
0.0
 40
2.00000008940697
  1
SCARPELLINI
 50
359.999999896069
 41
0.749999861419206
 72
     2
 11
146.642899332622
 21
-186.930141553034
 31
0.0
  0
TEXT
  5
   58B
  8
0
  6
CONTINUOUS
 62
     1
 10
138.296893362876
 20
-193.480726522587
 30
0.0
 40
2.00000008940697
  1
M4352 96-12-17
 50
359.999999896069
 41
0.749999861419206
 72
     2
 11
158.99689045566
 21
-193.480726560031
 31
0.0
  0
TEXT
  5
   58C
  8
0
  6
CONTINUOUS
 62
     1
 10
130.442901609519
 20
-178.463394231654
 30
0.0
 40
2.00000008940697
  1
96-11-19 BARCELLA
 50
359.999999896069
 41
0.749999861419206
 72
     2
 11
155.642898071984
 21
-178.463394277238
 31
0.0
  0
TEXT
  5
   58D
  8
0
  6
CONTINUOUS
 62
     1
 10
231.973709102828
 20
-204.68986525788
 30
0.0
 40
4.00000017881393
  1
605032/231
 50
359.999999896069
 41
0.937499973922969
 72
     2
 11
268.723709702599
 21
-204.689865324357
 31
0.0
  0
TEXT
  5
   58E
  8
0
  6
CONTINUOUS
 62
     1
 10
250.059402463107
 20
-195.708282493541
 30
0.0
 40
3.00000002980232
  1
S4X
 50
359.999999896069
 41
0.916666604744064
 72
     2
 11
257.759402015079
 21
-195.70828250747
 31
0.0
  0
TEXT
  5
   58F
  8
0
  6
CONTINUOUS
 62
     1
 10
226.399977551827
 20
-177.398010254744
 30
0.0
 40
2.00000008940697
  1
4POLE LOW VOLTAGE M.C.C.B SERIES ISOMAX
 50
359.999999896069
 41
0.625
 72
     1
 11
250.649978637695
 21
-176.398010253906
 31
0.0
 73
     2
  0
TEXT
  5
   590
  8
0
  6
CONTINUOUS
 62
     1
 10
219.52497724449
 20
-180.398010242307
 30
0.0
 40
2.00000008940697
  1
SUPERLIMITING WITHDRAWABLE VERSION FRONT TERMINALS
 50
359.999999896069
 41
0.625
 72
     1
 11
250.649978637695
 21
-179.398010253906
 31
0.0
 73
     2
  0
TEXT
  5
   591
  8
0
  6
CONTINUOUS
 62
     1
 10
215.602369909228
 20
-185.468276965284
 30
0.0
 40
2.00000008940697
  1
INTERR.AUTOMATICO SERIE ISOMAX SUPERLIMITATORE
 50
359.999999896069
 41
0.687499997764826
 72
     1
 11
247.08987121284
 21
-184.468276977539
 31
0.0
 73
     2
  0
TEXT
  5
   592
  8
0
  6
CONTINUOUS
 62
     1
 10
213.539869823733
 20
-188.468276961553
 30
0.0
 40
2.00000008940697
  1
TETRAP. ESECUZIONE ESTRAIBILE TERMINALI ANTERIORI
 50
359.999999896069
 41
0.687499997764826
 72
     1
 11
247.08987121284
 21
-187.468276977539
 31
0.0
 73
     2
  0
INSERT
  5
   593
  8
0
  6
CONTINUOUS
 62
     7
  2
*UDIM607
 10
0.0
 20
0.0
 30
0.0
  0
INSERT
  5
   594
  8
0
  6
CONTINUOUS
 62
     7
  2
*UDIM608
 10
0.0
 20
0.0
 30
0.0
  0
INSERT
  5
   595
  8
0
  6
CONTINUOUS
 62
     7
  2
*UDIM609
 10
0.0
 20
0.0
 30
0.0
  0
INSERT
  5
   596
  8
0
  6
CONTINUOUS
 62
     7
  2
*UDIM610
 10
0.0
 20
0.0
 30
0.0
  0
INSERT
  5
   597
  8
0
  6
CONTINUOUS
 62
     7
  2
*UDIM611
 10
0.0
 20
0.0
 30
0.0
  0
TEXT
  5
   598
  8
0
  6
CONTINUOUS
 62
     7
 10
241.355015513568
 20
-26.3582344333301
 30
0.0
 40
3.00000002980232
  1
Y
 50
359.999999896069
 41
0.916666604744064
 72
     2
 11
243.555015382438
 21
-26.3582344373097
 31
0.0
  0
TEXT
  5
   599
  8
0
  6
CONTINUOUS
 62
     7
 10
189.080333707003
 20
-65.0144924203525
 30
0.0
 40
3.00000002980232
  1
X
 50
359.999999896069
 41
0.916666604744064
 72
     2
 11
191.280333575873
 21
-65.0144924243321
 31
0.0
  0
TEXT
  5
   59A
  8
0
  6
CONTINUOUS
 62
     7
 10
279.394008633761
 20
-64.2043314258228
 30
0.0
 40
3.00000002980232
  1
X
 50
359.999999896069
 41
0.916666604744064
 72
     2
 11
281.594008502631
 21
-64.2043314298024
 31
0.0
  0
TEXT
  5
   59B
  8
0
  6
CONTINUOUS
 62
     7
 10
241.842161891131
 20
-102.562976864971
 30
0.0
 40
3.00000002980232
  1
Y
 50
359.999999896069
 41
0.916666604744064
 72
     2
 11
244.042161760001
 21
-102.56297686895
 31
0.0
  0
LINE
  5
   59C
  8
0
  6
DASHDOT
 62
     7
 10
242.821014404297
 20
50.7687798338578
 30
0.0
 11
242.821014404297
 21
175.516182487075
 31
0.0
  0
LINE
  5
   59D
  8
0
  6
DASHDOT
 62
     7
 10
281.21567859573
 20
97.9439692087441
 30
0.0
 11
205.185258274443
 21
97.9439692087441
 31
0.0
  0
POINT
  5
   59E
  8
0
  6
CONTINUOUS
 62
     7
 10
242.821014404297
 20
97.9439692087441
 30
0.0
  0
INSERT
  5
   59F
  8
255
  6
CONTINUOUS
 62
     7
  2
$1FRTESTR
 10
202.627667494081
 20
59.2735871854751
 30
0.0
 41
0.349999994039536
 42
0.349999994039536
 50
3.50835464724173E-15
 43
0.349999994039536
  0
LINE
  5
   5A0
  8
0
  6
CONTINUOUS
 62
     7
 10
212.196014767714
 20
116.318947533515
 30
0.0
 11
212.196014767714
 21
133.206457927075
 31
0.0
  0
LINE
  5
   5A1
  8
0
  6
CONTINUOUS
 62
     7
 10
242.821003565022
 20
133.206457927075
 30
0.0
 11
212.196009427138
 21
133.206457927075
 31
0.0
  0
LINE
  5
   5A2
  8
0
  6
CONTINUOUS
 62
     2
 10
261.195992570945
 20
126.118955377485
 30
0.0
 11
261.195992570945
 21
133.381467321218
 31
0.0
  0
LINE
  5
   5A3
  8
0
  6
CONTINUOUS
 62
     7
 10
261.195992570945
 20
133.206457927075
 30
0.0
 11
242.821003565022
 21
133.206457927075
 31
0.0
  0
LINE
  5
   5A4
  8
0
  6
CONTINUOUS
 62
     3
 10
212.196014767714
 20
61.4564698301225
 30
0.0
 11
212.196014767714
 21
79.5689695216695
 31
0.0
  0
LINE
  5
   5A5
  8
0
  6
CONTINUOUS
 62
     3
 10
261.196013933249
 20
61.4564698301225
 30
0.0
 11
261.196013933249
 21
69.768957672264
 31
0.0
  0
LINE
  5
   5A6
  8
0
  6
CONTINUOUS
 62
     7
 10
261.195992570945
 20
61.4564698301225
 30
0.0
 11
212.196014767714
 21
61.4564698301225
 31
0.0
  0
LINE
  5
   5A7
  8
0
  6
CONTINUOUS
 62
     7
 10
260.670992533305
 20
131.456457956878
 30
0.0
 11
224.970993141271
 21
131.456457956878
 31
0.0
  0
LINE
  5
   5A8
  8
0
  6
CONTINUOUS
 62
     7
 10
224.971012305604
 20
126.118955377485
 30
0.0
 11
224.971012305604
 21
131.456457956877
 31
0.0
  0
LINE
  5
   5A9
  8
0
  6
CONTINUOUS
 62
     7
 10
260.671011697635
 20
126.118955377485
 30
0.0
 11
260.671011697635
 21
131.456457956877
 31
0.0
  0
LINE
  5
   5AA
  8
0
  6
CONTINUOUS
 62
     7
 10
218.846012409912
 20
111.593967936111
 30
0.0
 11
218.846012409912
 21
113.343967906309
 31
0.0
  0
LINE
  5
   5AB
  8
0
  6
CONTINUOUS
 62
     7
 10
218.846012409912
 20
78.868968493416
 30
0.0
 11
218.846012409912
 21
82.0189684397717
 31
0.0
  0
LINE
  5
   5AC
  8
0
  6
CONTINUOUS
 62
     7
 10
215.346014204621
 20
79.5689695216698
 30
0.0
 11
212.371007165282
 21
79.5689695216698
 31
0.0
  0
LINE
  5
   5AD
  8
0
  6
CONTINUOUS
 62
     2
 10
212.196012523161
 20
79.5689613710757
 30
0.0
 11
212.196012523161
 21
116.318960745226
 31
0.0
  0
LINE
  5
   5AE
  8
0
  6
CONTINUOUS
 62
     2
 10
212.196012523161
 20
116.318960745226
 30
0.0
 11
212.196012523161
 21
133.381467321218
 31
0.0
  0
LINE
  5
   5AF
  8
0
  6
CONTINUOUS
 62
     7
 10
216.13351212232
 20
61.4564698301225
 30
0.0
 11
216.13351212232
 21
69.7689696885615
 31
0.0
  0
LINE
  5
   5B0
  8
0
  6
CONTINUOUS
 62
     7
 10
214.873512344049
 20
61.4564698301225
 30
0.0
 11
214.873512344049
 21
116.31896145782
 31
0.0
  0
LINE
  5
   5B1
  8
0
  6
CONTINUOUS
 62
     7
 10
213.788512229012
 20
79.5689671354826
 30
0.0
 11
213.788512229012
 21
116.318961169056
 31
0.0
  0
LINE
  5
   5B2
  8
0
  6
CONTINUOUS
 62
     7
 10
212.983512175964
 20
79.5689669212384
 30
0.0
 11
212.983512175964
 21
116.318960954812
 31
0.0
  0
LINE
  5
   5B3
  8
0
  6
CONTINUOUS
 62
     7
 10
223.693509123014
 20
61.4564698301225
 30
0.0
 11
223.693509123014
 21
69.768957672264
 31
0.0
  0
LINE
  5
   5B4
  8
0
  6
CONTINUOUS
 62
     7
 10
222.433507008241
 20
61.4564698301225
 30
0.0
 11
222.433507008241
 21
69.768957672264
 31
0.0
  0
LINE
  5
   5B5
  8
0
  6
CONTINUOUS
 62
     7
 10
218.653511345075
 20
61.4564698301225
 30
0.0
 11
218.653511345075
 21
69.7689696885615
 31
0.0
  0
LINE
  5
   5B6
  8
0
  6
CONTINUOUS
 62
     7
 10
217.393512234377
 20
61.4564698301225
 30
0.0
 11
217.393512234377
 21
69.7689696885615
 31
0.0
  0
LINE
  5
   5B7
  8
0
  6
CONTINUOUS
 62
     7
 10
221.173510234045
 20
61.4564698301225
 30
0.0
 11
221.173510234045
 21
69.7689696885615
 31
0.0
  0
LINE
  5
   5B8
  8
0
  6
CONTINUOUS
 62
     7
 10
219.913508119272
 20
61.4564698301225
 30
0.0
 11
219.913508119272
 21
69.7689696885615
 31
0.0
  0
LINE
  5
   5B9
  8
0
  6
CONTINUOUS
 62
     7
 10
213.788512229012
 20
61.4564698301225
 30
0.0
 11
213.788512229012
 21
79.568967448407
 31
0.0
  0
LINE
  5
   5BA
  8
0
  6
CONTINUOUS
 62
     7
 10
212.983511842178
 20
61.4564698301225
 30
0.0
 11
212.983511842178
 21
79.5689672057772
 31
0.0
  0
LINE
  5
   5BB
  8
0
  6
CONTINUOUS
 62
     7
 10
213.788512229012
 20
116.318961169056
 30
0.0
 11
213.788512229012
 21
133.206460881463
 31
0.0
  0
LINE
  5
   5BC
  8
0
  6
CONTINUOUS
 62
     7
 10
212.983512175964
 20
116.318960954812
 30
0.0
 11
212.983512175964
 21
133.206460667219
 31
0.0
  0
LINE
  5
   5BD
  8
0
  6
CONTINUOUS
 62
     7
 10
223.693509123014
 20
126.118955377485
 30
0.0
 11
223.693509123014
 21
133.206463517598
 31
0.0
  0
LINE
  5
   5BE
  8
0
  6
CONTINUOUS
 62
     7
 10
222.433507008241
 20
126.118955377485
 30
0.0
 11
222.433507008241
 21
133.206463182258
 31
0.0
  0
LINE
  5
   5BF
  8
0
  6
CONTINUOUS
 62
     7
 10
221.173510234045
 20
126.116763071005
 30
0.0
 11
221.173510234045
 21
133.20646284692
 31
0.0
  0
LINE
  5
   5C0
  8
0
  6
CONTINUOUS
 62
     7
 10
219.913508119272
 20
126.116763071005
 30
0.0
 11
219.913508119272
 21
133.206462511581
 31
0.0
  0
LINE
  5
   5C1
  8
0
  6
CONTINUOUS
 62
     7
 10
218.653511345075
 20
126.116763071005
 30
0.0
 11
218.653511345075
 21
133.206462176243
 31
0.0
  0
LINE
  5
   5C2
  8
0
  6
CONTINUOUS
 62
     7
 10
217.393512234377
 20
126.116763071005
 30
0.0
 11
217.393512234377
 21
133.206461840905
 31
0.0
  0
LINE
  5
   5C3
  8
0
  6
CONTINUOUS
 62
     7
 10
216.13351212232
 20
126.116763071005
 30
0.0
 11
216.13351212232
 21
133.206461505566
 31
0.0
  0
LINE
  5
   5C4
  8
0
  6
CONTINUOUS
 62
     7
 10
214.873512344049
 20
116.31896145782
 30
0.0
 11
214.873512344049
 21
133.206461170227
 31
0.0
  0
ARC
  5
   5C5
  8
0
  6
CONTINUOUS
 62
     7
 10
212.370997431143
 20
116.143960794781
 30
0.0
 40
0.174999997019768
 50
90.0000151968393
 51
180.000015196839
  0
ARC
  5
   5C6
  8
0
  6
CONTINUOUS
 62
     7
 10
212.371007118707
 20
79.7439614146703
 30
0.0
 40
0.174999997019768
 50
180.000015196839
 51
270.000015196839
  0
LINE
  5
   5C7
  8
0
  6
CONTINUOUS
 62
     7
 10
215.346014204621
 20
116.3189607918
 30
0.0
 11
212.370997431143
 21
116.3189607918
 31
0.0
  0
LINE
  5
   5C8
  8
0
  6
CONTINUOUS
 62
     7
 10
215.346014204621
 20
73.881469618526
 30
0.0
 11
212.196014767714
 21
73.881469618526
 31
0.0
  0
LINE
  5
   5C9
  8
0
  6
CONTINUOUS
 62
     2
 10
261.195977284393
 20
133.731467315258
 30
0.0
 11
261.195977284393
 21
162.956466817559
 31
0.0
  0
LINE
  5
   5CA
  8
0
  6
CONTINUOUS
 62
     2
 10
261.195977284393
 20
162.956466817559
 30
0.0
 11
212.195963914691
 21
162.956466817559
 31
0.0
  0
LINE
  5
   5CB
  8
0
  6
CONTINUOUS
 62
     2
 10
261.195977284393
 20
158.581466892065
 30
0.0
 11
212.195963914691
 21
158.581466892065
 31
0.0
  0
LINE
  5
   5CC
  8
0
  6
CONTINUOUS
 62
     2
 10
261.195977284393
 20
158.231466898025
 30
0.0
 11
212.195963914691
 21
158.231466898025
 31
0.0
  0
LINE
  5
   5CD
  8
0
  6
CONTINUOUS
 62
     2
 10
260.845977290353
 20
133.381467321218
 30
0.0
 11
212.545963908731
 21
133.381467321218
 31
0.0
  0
LINE
  5
   5CE
  8
0
  6
CONTINUOUS
 62
     2
 10
212.195963914691
 20
133.731467315258
 30
0.0
 11
212.195963914691
 21
162.956466817559
 31
0.0
  0
LINE
  5
   5CF
  8
0
  6
CONTINUOUS
 62
     2
 10
212.545963908731
 20
133.381467321218
 30
0.0
 11
212.545963908731
 21
133.731467315258
 31
0.0
  0
LINE
  5
   5D0
  8
0
  6
CONTINUOUS
 62
     7
 10
224.498477909348
 20
133.731467315258
 30
0.0
 11
224.498477909348
 21
158.231466898025
 31
0.0
  0
LINE
  5
   5D1
  8
0
  6
CONTINUOUS
 62
     7
 10
213.105978103371
 20
133.731467315258
 30
0.0
 11
213.105978103371
 21
158.231466898025
 31
0.0
  0
LINE
  5
   5D2
  8
0
  6
CONTINUOUS
 62
     7
 10
214.365978081913
 20
133.731467315258
 30
0.0
 11
214.365978081913
 21
158.231466898025
 31
0.0
  0
LINE
  5
   5D3
  8
0
  6
CONTINUOUS
 62
     7
 10
215.625978060455
 20
133.731467315258
 30
0.0
 11
215.625978060455
 21
158.231466898025
 31
0.0
  0
LINE
  5
   5D4
  8
0
  6
CONTINUOUS
 62
     7
 10
216.885978038998
 20
133.731467315258
 30
0.0
 11
216.885978038998
 21
158.231466898025
 31
0.0
  0
LINE
  5
   5D5
  8
0
  6
CONTINUOUS
 62
     7
 10
218.14597801754
 20
133.731467315258
 30
0.0
 11
218.14597801754
 21
158.231466898025
 31
0.0
  0
LINE
  5
   5D6
  8
0
  6
CONTINUOUS
 62
     7
 10
219.405977996082
 20
133.731467315258
 30
0.0
 11
219.405977996082
 21
158.231466898025
 31
0.0
  0
LINE
  5
   5D7
  8
0
  6
CONTINUOUS
 62
     7
 10
220.665977974625
 20
133.731467315258
 30
0.0
 11
220.665977974625
 21
158.231466898025
 31
0.0
  0
LINE
  5
   5D8
  8
0
  6
CONTINUOUS
 62
     7
 10
221.925977953167
 20
133.731467315258
 30
0.0
 11
221.925977953167
 21
158.231466898025
 31
0.0
  0
LINE
  5
   5D9
  8
0
  6
CONTINUOUS
 62
     7
 10
223.185977931709
 20
133.731467315258
 30
0.0
 11
223.185977931709
 21
158.231466898025
 31
0.0
  0
LINE
  5
   5DA
  8
0
  6
CONTINUOUS
 62
     7
 10
224.498477909348
 20
158.581466892065
 30
0.0
 11
224.498477909348
 21
162.956466817559
 31
0.0
  0
LINE
  5
   5DB
  8
0
  6
CONTINUOUS
 62
     7
 10
223.185977931709
 20
158.581466892065
 30
0.0
 11
223.185977931709
 21
162.956466817559
 31
0.0
  0
LINE
  5
   5DC
  8
0
  6
CONTINUOUS
 62
     7
 10
221.925977953167
 20
158.581466892065
 30
0.0
 11
221.925977953167
 21
162.956466817559
 31
0.0
  0
LINE
  5
   5DD
  8
0
  6
CONTINUOUS
 62
     7
 10
220.665977974625
 20
158.581466892065
 30
0.0
 11
220.665977974625
 21
162.956466817559
 31
0.0
  0
LINE
  5
   5DE
  8
0
  6
CONTINUOUS
 62
     7
 10
219.405977996082
 20
158.581466892065
 30
0.0
 11
219.405977996082
 21
162.956466817559
 31
0.0
  0
LINE
  5
   5DF
  8
0
  6
CONTINUOUS
 62
     7
 10
218.14597801754
 20
158.581466892065
 30
0.0
 11
218.14597801754
 21
162.956466817559
 31
0.0
  0
LINE
  5
   5E0
  8
0
  6
CONTINUOUS
 62
     7
 10
216.885978038998
 20
158.581466892065
 30
0.0
 11
216.885978038998
 21
162.956466817559
 31
0.0
  0
LINE
  5
   5E1
  8
0
  6
CONTINUOUS
 62
     7
 10
215.625978060455
 20
158.581466892065
 30
0.0
 11
215.625978060455
 21
162.956466817559
 31
0.0
  0
LINE
  5
   5E2
  8
0
  6
CONTINUOUS
 62
     7
 10
214.365978081913
 20
158.581466892065
 30
0.0
 11
214.365978081913
 21
162.956466817559
 31
0.0
  0
LINE
  5
   5E3
  8
0
  6
CONTINUOUS
 62
     7
 10
213.105978103371
 20
158.581466892065
 30
0.0
 11
213.105978103371
 21
162.956466817559
 31
0.0
  0
LINE
  5
   5E4
  8
0
  6
CONTINUOUS
 62
     7
 10
212.545963908731
 20
133.381467321218
 30
0.0
 11
212.195963914691
 21
133.381467321218
 31
0.0
  0
LINE
  5
   5E5
  8
0
  6
CONTINUOUS
 62
     2
 10
260.845977290353
 20
133.381467321218
 30
0.0
 11
260.845977290353
 21
133.731467315258
 31
0.0
  0
LINE
  5
   5E6
  8
0
  6
CONTINUOUS
 62
     2
 10
261.195977284393
 20
133.381467321218
 30
0.0
 11
260.845977290353
 21
133.381467321218
 31
0.0
  0
LINE
  5
   5E7
  8
0
  6
CONTINUOUS
 62
     3
 10
212.196014767714
 20
52.4439991353625
 30
0.0
 11
212.196014767714
 21
61.4564698301225
 31
0.0
  0
LINE
  5
   5E8
  8
0
  6
CONTINUOUS
 62
     7
 10
247.108514173158
 20
59.8814698569446
 30
0.0
 11
247.108514173158
 21
60.9315022005088
 31
0.0
  0
LINE
  5
   5E9
  8
0
  6
DOT
 62
     7
 10
250.783514110573
 20
59.8814698569446
 30
0.0
 11
250.783514110573
 21
60.9315022005088
 31
0.0
  0
LINE
  5
   5EA
  8
0
  6
DOT
 62
     7
 10
237.571014335581
 20
57.6064698956877
 30
0.0
 11
237.571014335581
 21
58.2656913197276
 31
0.0
  0
LINE
  5
   5EB
  8
0
  6
DOT
 62
     7
 10
235.821014365383
 20
57.6064698956877
 30
0.0
 11
235.821014365383
 21
58.265691830296
 31
0.0
  0
LINE
  5
   5EC
  8
0
  6
DOT
 62
     7
 10
237.571014335581
 20
57.6064698956877
 30
0.0
 11
235.821014365383
 21
57.6064698956877
 31
0.0
  0
LINE
  5
   5ED
  8
0
  6
DOT
 62
     7
 10
248.071014156767
 20
57.6064698956877
 30
0.0
 11
248.071014156767
 21
58.2986472749522
 31
0.0
  0
LINE
  5
   5EE
  8
0
  6
CONTINUOUS
 62
     7
 10
212.808514757284
 20
60.9314698390632
 30
0.0
 11
212.808514757284
 21
61.4564698301225
 31
0.0
  0
ARC
  5
   5EF
  8
0
  6
DOT
 62
     7
 10
230.571014501878
 20
59.1814684420218
 30
0.0
 40
1.92499852271199
 50
359.999999948034
 51
425.382530583917
  0
CIRCLE
  5
   5F0
  8
0
  6
DOT
 62
     7
 10
236.696014958835
 20
59.8814717312818
 30
0.0
 40
0.96249829047196
  0
ARC
  5
   5F1
  8
0
  6
DOT
 62
     7
 10
236.696014821893
 20
59.881475990128
 30
0.0
 40
1.83749401361082
 50
298.436973936778
 51
394.851030400612
  0
ARC
  5
   5F2
  8
0
  6
DOT
 62
     7
 10
242.821014404297
 20
59.1814710403811
 30
0.0
 40
1.92499882604943
 50
359.999999948034
 51
425.382325221581
  0
ARC
  5
   5F3
  8
0
  6
DOT
 62
     7
 10
248.946015092395
 20
59.8814751872318
 30
0.0
 40
1.83749475538989
 50
298.436944421718
 51
394.85104480168
  0
CIRCLE
  5
   5F4
  8
0
  6
DOT
 62
     7
 10
255.071014306716
 20
59.1814708543101
 30
0.0
 40
1.92499899795655
  0
CIRCLE
  5
   5F5
  8
0
  6
DOT
 62
     7
 10
255.071013878111
 20
54.2814708132185
 30
0.0
 40
0.48999910342635
  0
CIRCLE
  5
   5F6
  8
0
  6
DOT
 62
     7
 10
242.821012916689
 20
54.2814703514928
 30
0.0
 40
0.489999750772785
  0
CIRCLE
  5
   5F7
  8
0
  6
DOT
 62
     7
 10
230.571014015982
 20
54.2814692434804
 30
0.0
 40
0.490000710339291
  0
LINE
  5
   5F8
  8
0
  6
DASHDOT
 62
     3
 10
230.571014501878
 20
56.5564699312308
 30
0.0
 11
230.571014501878
 21
61.8064669528129
 31
0.0
  0
LINE
  5
   5F9
  8
0
  6
DASHDOT
 62
     3
 10
233.196013012669
 20
59.1814684420218
 30
0.0
 11
227.946015991087
 21
59.1814684420218
 31
0.0
  0
LINE
  5
   5FA
  8
0
  6
DASHDOT
 62
     3
 10
236.696014821893
 20
51.7654116318571
 30
0.0
 11
236.696014821893
 21
67.6663877240433
 31
0.0
  0
LINE
  5
   5FB
  8
0
  6
DASHDOT
 62
     3
 10
239.233508823582
 20
59.881475990128
 30
0.0
 11
234.158520820203
 21
59.881475990128
 31
0.0
  0
LINE
  5
   5FC
  8
0
  6
DASHDOT
 62
     3
 10
245.446013218425
 20
59.1814710403811
 30
0.0
 11
240.196015590168
 21
59.1814710403811
 31
0.0
  0
LINE
  5
   5FD
  8
0
  6
DASHDOT
 62
     3
 10
248.946015092395
 20
52.7294387165686
 30
0.0
 11
248.946015092395
 21
66.942024667915
 31
0.0
  0
LINE
  5
   5FE
  8
0
  6
DASHDOT
 62
     3
 10
251.483509835864
 20
59.8814751872318
 30
0.0
 11
246.408520348926
 21
59.8814751872318
 31
0.0
  0
LINE
  5
   5FF
  8
0
  6
DASHDOT
 62
     3
 10
255.071014306716
 20
56.5564718682745
 30
0.0
 11
255.071014306716
 21
61.8064698403457
 31
0.0
  0
LINE
  5
   600
  8
0
  6
DASHDOT
 62
     3
 10
257.696013292752
 20
59.1814708543101
 30
0.0
 11
252.44601532068
 21
59.1814708543101
 31
0.0
  0
LINE
  5
   601
  8
0
  6
DASHDOT
 62
     3
 10
255.071013878111
 20
53.0914717217131
 30
0.0
 11
255.071013878111
 21
55.4714699047239
 31
0.0
  0
LINE
  5
   602
  8
0
  6
DASHDOT
 62
     3
 10
256.261012969617
 20
54.2814708132185
 30
0.0
 11
253.881014786606
 21
54.2814708132185
 31
0.0
  0
LINE
  5
   603
  8
0
  6
DASHDOT
 62
     3
 10
244.011012655541
 20
54.2814703514928
 30
0.0
 11
241.631013177837
 21
54.2814703514928
 31
0.0
  0
LINE
  5
   604
  8
0
  6
DASHDOT
 62
     3
 10
230.571014015982
 20
53.091468545062
 30
0.0
 11
230.571014015982
 21
55.4714699418988
 31
0.0
  0
LINE
  5
   605
  8
0
  6
DASHDOT
 62
     3
 10
231.761014714401
 20
54.2814692434804
 30
0.0
 11
229.381013317564
 21
54.2814692434804
 31
0.0
  0
LINE
  5
   606
  8
0
  6
CONTINUOUS
 62
     3
 10
261.196013933249
 20
53.8614710275798
 30
0.0
 11
261.196013933249
 21
61.4564698301225
 31
0.0
  0
LINE
  5
   607
  8
0
  6
CONTINUOUS
 62
     7
 10
214.471014728971
 20
60.9314698390632
 30
0.0
 11
212.808514757284
 21
60.9314698390632
 31
0.0
  0
LINE
  5
   608
  8
0
  6
DOT
 62
     7
 10
234.858514381774
 20
59.8814698569446
 30
0.0
 11
234.858514381774
 21
60.9315022005088
 31
0.0
  0
LINE
  5
   609
  8
0
  6
DOT
 62
     7
 10
238.53351431919
 20
59.8814698569446
 30
0.0
 11
238.53351431919
 21
60.9315022005088
 31
0.0
  0
LINE
  5
   60A
  8
0
  6
DOT
 62
     7
 10
249.821014126965
 20
57.6064698956877
 30
0.0
 11
249.821014126965
 21
58.2656894138115
 31
0.0
  0
LINE
  5
   60B
  8
0
  6
DOT
 62
     7
 10
249.821014126965
 20
57.6064698956877
 30
0.0
 11
248.071014156767
 21
57.6064698956877
 31
0.0
  0
LINE
  5
   60C
  8
0
  6
CONTINUOUS
 62
     7
 10
229.346014475652
 20
61.2814698331028
 30
0.0
 11
229.346014475652
 21
61.4564698301225
 31
0.0
  0
LINE
  5
   60D
  8
0
  6
CONTINUOUS
 62
     7
 10
214.471014728971
 20
60.9314698390632
 30
0.0
 11
214.471014728971
 21
61.4564698301225
 31
0.0
  0
CIRCLE
  5
   60E
  8
0
  6
DOT
 62
     7
 10
248.946015363015
 20
59.8814709689527
 30
0.0
 40
0.962498950668041
  0
LINE
  5
   60F
  8
0
  6
DASHDOT
 62
     3
 10
239.233508823582
 20
59.881475990128
 30
0.0
 11
234.158520820203
 21
59.881475990128
 31
0.0
  0
LINE
  5
   610
  8
0
  6
DASHDOT
 62
     3
 10
245.446013218425
 20
59.1814710403811
 30
0.0
 11
240.196015590168
 21
59.1814710403811
 31
0.0
  0
LINE
  5
   611
  8
0
  6
DASHDOT
 62
     3
 10
248.946015092395
 20
52.7294387165686
 30
0.0
 11
248.946015092395
 21
67.5065507149489
 31
0.0
  0
LINE
  5
   612
  8
0
  6
DASHDOT
 62
     3
 10
251.483509835864
 20
59.8814751872318
 30
0.0
 11
246.408520348926
 21
59.8814751872318
 31
0.0
  0
ARC
  5
   613
  8
0
  6
DOT
 62
     7
 10
236.696014821893
 20
59.881475990128
 30
0.0
 40
1.83749401361082
 50
121.002781363519
 51
145.148969495457
  0
ARC
  5
   614
  8
0
  6
DOT
 62
     7
 10
248.946015092395
 20
59.8814751872318
 30
0.0
 40
1.83749475538989
 50
121.002771248608
 51
145.148955094388
  0
CIRCLE
  5
   615
  8
0
  6
DOT
 62
     7
 10
218.321014224599
 20
54.2814692434804
 30
0.0
 40
0.490000710339291
  0
CIRCLE
  5
   616
  8
0
  6
DOT
 62
     7
 10
218.321014710494
 20
59.1814684420218
 30
0.0
 40
1.92499852271199
  0
LINE
  5
   617
  8
0
  6
DOT
 62
     7
 10
222.608514590391
 20
59.8814698569446
 30
0.0
 11
222.608514590391
 21
60.9315022005088
 31
0.0
  0
ARC
  5
   618
  8
0
  6
DOT
 62
     7
 10
224.446015030509
 20
59.881475990128
 30
0.0
 40
1.83749401361082
 50
121.002781363519
 51
145.148969495456
  0
CIRCLE
  5
   619
  8
0
  6
DOT
 62
     7
 10
224.446015167451
 20
59.8814717312818
 30
0.0
 40
0.96249829047196
  0
LINE
  5
   61A
  8
0
  6
DOT
 62
     7
 10
225.321014544197
 20
57.6064698956877
 30
0.0
 11
223.571014573999
 21
57.6064698956877
 31
0.0
  0
LINE
  5
   61B
  8
0
  6
DOT
 62
     7
 10
225.321014544197
 20
57.6064698956877
 30
0.0
 11
225.321014544197
 21
58.2656913197276
 31
0.0
  0
LINE
  5
   61C
  8
0
  6
CONTINUOUS
 62
     7
 10
223.571014573999
 20
57.6064698956877
 30
0.0
 11
223.571014573999
 21
58.265691830296
 31
0.0
  0
LINE
  5
   61D
  8
0
  6
DOT
 62
     7
 10
226.283514527806
 20
59.8814698569446
 30
0.0
 11
226.283514527806
 21
60.9315022005088
 31
0.0
  0
ARC
  5
   61E
  8
0
  6
DOT
 62
     7
 10
224.446015030509
 20
59.881475990128
 30
0.0
 40
1.83749401361082
 50
298.436973936778
 51
394.851030400612
  0
LINE
  5
   61F
  8
0
  6
DOT
 62
     7
 10
222.608514590391
 20
61.2814698331028
 30
0.0
 11
219.244263594462
 21
61.2814698331028
 31
0.0
  0
LINE
  5
   620
  8
0
  6
CONTINUOUS
 62
     7
 10
217.096014684268
 20
61.2814698331028
 30
0.0
 11
217.096014684268
 21
61.4564698301225
 31
0.0
  0
LINE
  5
   621
  8
0
  6
DASHDOT
 62
     7
 10
218.321014710494
 20
53.7564699789145
 30
0.0
 11
218.321014710494
 21
64.6064669051292
 31
0.0
  0
LINE
  5
   622
  8
0
  6
DASHDOT
 62
     7
 10
223.746013173601
 20
59.1814684420218
 30
0.0
 11
212.896016247387
 21
59.1814684420218
 31
0.0
  0
LINE
  5
   623
  8
0
  6
DASHDOT
 62
     7
 10
224.446015167451
 20
55.4189735004145
 30
0.0
 11
224.446015167451
 21
64.3439699621491
 31
0.0
  0
LINE
  5
   624
  8
0
  6
DASHDOT
 62
     7
 10
228.908513398319
 20
59.8814717312818
 30
0.0
 11
219.983516936584
 21
59.8814717312818
 31
0.0
  0
LINE
  5
   625
  8
0
  6
DASHDOT
 62
     7
 10
218.321014224599
 20
50.2914685927458
 30
0.0
 11
218.321014224599
 21
58.2714698942151
 31
0.0
  0
LINE
  5
   626
  8
0
  6
DASHDOT
 62
     7
 10
222.311014875333
 20
54.2814692434804
 30
0.0
 11
214.331013573864
 21
54.2814692434804
 31
0.0
  0
LINE
  5
   627
  8
0
  6
CONTINUOUS
 62
     3
 10
212.196009427138
 20
162.956457977997
 30
0.0
 11
212.196009427138
 21
171.968997099864
 31
0.0
  0
LINE
  5
   628
  8
0
  6
CONTINUOUS
 62
     3
 10
260.758471009022
 20
172.406497092413
 30
0.0
 11
212.633509419688
 21
172.406497092413
 31
0.0
  0
LINE
  5
   629
  8
0
  6
CONTINUOUS
 62
     3
 10
261.195989858758
 20
162.956466817559
 30
0.0
 11
261.195989858758
 21
171.968997099869
 31
0.0
  0
LINE
  5
   62A
  8
0
  6
CONTINUOUS
 62
     3
 10
261.067831140289
 20
172.278357624706
 30
0.0
 11
260.758472928234
 21
172.406499409489
 31
0.0
  0
LINE
  5
   62B
  8
0
  6
CONTINUOUS
 62
     3
 10
261.195971865281
 20
171.969001146203
 30
0.0
 11
261.067830080498
 21
172.278359358259
 31
0.0
  0
LINE
  5
   62C
  8
0
  6
CONTINUOUS
 62
     3
 10
259.743473162538
 20
163.481497244405
 30
0.0
 11
259.743473162538
 21
172.297768303982
 31
0.0
  0
LINE
  5
   62D
  8
0
  6
CONTINUOUS
 62
     3
 10
258.483471047765
 20
163.481497244405
 30
0.0
 11
258.483471047765
 21
172.297768303982
 31
0.0
  0
LINE
  5
   62E
  8
0
  6
CONTINUOUS
 62
     3
 10
257.22347160328
 20
163.481497244405
 30
0.0
 11
257.22347160328
 21
172.297768303982
 31
0.0
  0
LINE
  5
   62F
  8
0
  6
CONTINUOUS
 62
     3
 10
255.963472158795
 20
163.481497244405
 30
0.0
 11
255.963472158795
 21
172.297768303982
 31
0.0
  0
LINE
  5
   630
  8
0
  6
CONTINUOUS
 62
     3
 10
254.703472714311
 20
163.481497244405
 30
0.0
 11
254.703472714311
 21
172.297768303982
 31
0.0
  0
LINE
  5
   631
  8
0
  6
CONTINUOUS
 62
     3
 10
253.443473269826
 20
163.481497244405
 30
0.0
 11
253.443473269826
 21
172.297768303982
 31
0.0
  0
LINE
  5
   632
  8
0
  6
CONTINUOUS
 62
     3
 10
252.183471155053
 20
163.481497244405
 30
0.0
 11
252.183471155053
 21
172.297768303982
 31
0.0
  0
LINE
  5
   633
  8
0
  6
CONTINUOUS
 62
     3
 10
250.923471710569
 20
163.481497244405
 30
0.0
 11
250.923471710569
 21
172.297768303982
 31
0.0
  0
LINE
  5
   634
  8
0
  6
CONTINUOUS
 62
     3
 10
249.663472266084
 20
163.481497244405
 30
0.0
 11
249.663472266084
 21
172.297768303982
 31
0.0
  0
LINE
  5
   635
  8
0
  6
CONTINUOUS
 62
     3
 10
248.403472821599
 20
163.481497244405
 30
0.0
 11
248.403472821599
 21
172.297768303982
 31
0.0
  0
LINE
  5
   636
  8
0
  6
CONTINUOUS
 62
     3
 10
247.143473377114
 20
163.481497244405
 30
0.0
 11
247.143473377114
 21
172.297768303982
 31
0.0
  0
LINE
  5
   637
  8
0
  6
CONTINUOUS
 62
     3
 10
245.883472597486
 20
163.481497244405
 30
0.0
 11
245.883472597486
 21
172.297768303982
 31
0.0
  0
LINE
  5
   638
  8
0
  6
CONTINUOUS
 62
     3
 10
244.623473153001
 20
163.481497244405
 30
0.0
 11
244.623473153001
 21
172.297768303982
 31
0.0
  0
LINE
  5
   639
  8
0
  6
CONTINUOUS
 62
     3
 10
243.363472373372
 20
163.481497244405
 30
0.0
 11
243.363472373372
 21
172.297768303982
 31
0.0
  0
LINE
  5
   63A
  8
0
  6
CONTINUOUS
 62
     3
 10
242.103472928888
 20
163.481497244405
 30
0.0
 11
242.103472928888
 21
172.297768303982
 31
0.0
  0
LINE
  5
   63B
  8
0
  6
CONTINUOUS
 62
     3
 10
240.843472149259
 20
163.481497244405
 30
0.0
 11
240.843472149259
 21
172.297768303982
 31
0.0
  0
LINE
  5
   63C
  8
0
  6
CONTINUOUS
 62
     3
 10
239.583472704774
 20
163.481497244405
 30
0.0
 11
239.583472704774
 21
172.297768303982
 31
0.0
  0
LINE
  5
   63D
  8
0
  6
CONTINUOUS
 62
     3
 10
231.953473101741
 20
163.481497244405
 30
0.0
 11
231.953473101741
 21
172.297768303982
 31
0.0
  0
LINE
  5
   63E
  8
0
  6
CONTINUOUS
 62
     3
 10
224.323473498708
 20
163.481497244405
 30
0.0
 11
224.323473498708
 21
172.406497092413
 31
0.0
  0
LINE
  5
   63F
  8
0
  6
CONTINUOUS
 62
     3
 10
223.063472719079
 20
163.481497244405
 30
0.0
 11
223.063472719079
 21
172.406497092413
 31
0.0
  0
LINE
  5
   640
  8
0
  6
CONTINUOUS
 62
     3
 10
221.803473274594
 20
163.481497244405
 30
0.0
 11
221.803473274594
 21
172.406497092413
 31
0.0
  0
LINE
  5
   641
  8
0
  6
CONTINUOUS
 62
     3
 10
220.543473162538
 20
163.481497244405
 30
0.0
 11
220.543473162538
 21
172.406497092413
 31
0.0
  0
LINE
  5
   642
  8
0
  6
CONTINUOUS
 62
     3
 10
260.845976348108
 20
162.956466817559
 30
0.0
 11
260.845976348108
 21
163.481502584981
 31
0.0
  0
LINE
  5
   643
  8
0
  6
CONTINUOUS
 62
     3
 10
261.195973680801
 20
163.481497250395
 30
0.0
 11
260.845976357029
 21
163.481502590971
 31
0.0
  0
LINE
  5
   644
  8
0
  6
CONTINUOUS
 62
     3
 10
260.845976348109
 20
163.481494034718
 30
0.0
 11
212.546009421178
 21
163.481494034718
 31
0.0
  0
LINE
  5
   645
  8
0
  6
CONTINUOUS
 62
     3
 10
233.213472546226
 20
163.481497244405
 30
0.0
 11
233.213472546226
 21
172.297768303982
 31
0.0
  0
LINE
  5
   646
  8
0
  6
CONTINUOUS
 62
     3
 10
234.473473325854
 20
163.481497244405
 30
0.0
 11
234.473473325854
 21
172.297768303982
 31
0.0
  0
LINE
  5
   647
  8
0
  6
CONTINUOUS
 62
     3
 10
235.733472770339
 20
163.481497244405
 30
0.0
 11
235.733472770339
 21
172.297768303982
 31
0.0
  0
LINE
  5
   648
  8
0
  6
CONTINUOUS
 62
     3
 10
236.993472748882
 20
163.481497244405
 30
0.0
 11
236.993472748882
 21
172.297768303982
 31
0.0
  0
LINE
  5
   649
  8
0
  6
CONTINUOUS
 62
     3
 10
238.253472727424
 20
163.481497244405
 30
0.0
 11
238.253472727424
 21
172.297768303982
 31
0.0
  0
LINE
  5
   64A
  8
0
  6
CONTINUOUS
 62
     3
 10
230.693473123199
 20
163.481497244405
 30
0.0
 11
230.693473123199
 21
172.297768303982
 31
0.0
  0
LINE
  5
   64B
  8
0
  6
CONTINUOUS
 62
     3
 10
229.433473144656
 20
163.481497244405
 30
0.0
 11
229.433473144656
 21
172.297768303982
 31
0.0
  0
LINE
  5
   64C
  8
0
  6
CONTINUOUS
 62
     3
 10
228.173473166114
 20
163.481497244405
 30
0.0
 11
228.173473166114
 21
172.297768303982
 31
0.0
  0
LINE
  5
   64D
  8
0
  6
CONTINUOUS
 62
     3
 10
226.913473187572
 20
163.481497244405
 30
0.0
 11
226.913473187572
 21
172.297768303982
 31
0.0
  0
LINE
  5
   64E
  8
0
  6
CONTINUOUS
 62
     3
 10
225.653473209029
 20
163.481497244405
 30
0.0
 11
225.653473209029
 21
172.406497092413
 31
0.0
  0
LINE
  5
   64F
  8
0
  6
CONTINUOUS
 62
     3
 10
260.758471009022
 20
52.0064991428131
 30
0.0
 11
212.633514760264
 21
52.0064991428131
 31
0.0
  0
LINE
  5
   650
  8
0
  6
CONTINUOUS
 62
     3
 10
260.758472928234
 20
52.0064968257375
 30
0.0
 11
261.067831140289
 21
52.1346386105204
 31
0.0
  0
LINE
  5
   651
  8
0
  6
CONTINUOUS
 62
     3
 10
261.067830080498
 20
52.1346368769677
 30
0.0
 11
261.195971865281
 21
52.443995089023
 31
0.0
  0
LINE
  5
   652
  8
0
  6
CONTINUOUS
 62
     3
 10
261.195989858758
 20
52.4439991353574
 30
0.0
 11
261.195989858758
 21
60.9314989908162
 31
0.0
  0
LINE
  5
   653
  8
0
  6
CONTINUOUS
 62
     3
 10
260.845976357511
 20
60.9314936442556
 30
0.0
 11
261.195973681283
 21
60.9314989848317
 31
0.0
  0
LINE
  5
   654
  8
0
  6
CONTINUOUS
 62
     3
 10
260.845976348108
 20
60.9314936502452
 30
0.0
 11
260.845976348108
 21
61.4565294176676
 31
0.0
  0
LINE
  5
   655
  8
0
  6
CONTINUOUS
 62
     3
 10
220.543473162538
 20
52.0064991428131
 30
0.0
 11
220.543473162538
 21
60.9314989908213
 31
0.0
  0
LINE
  5
   656
  8
0
  6
CONTINUOUS
 62
     3
 10
221.803473274594
 20
52.0064991428131
 30
0.0
 11
221.803473274594
 21
60.9314989908213
 31
0.0
  0
LINE
  5
   657
  8
0
  6
CONTINUOUS
 62
     3
 10
223.063472719079
 20
52.0064991428131
 30
0.0
 11
223.063472719079
 21
60.9314989908213
 31
0.0
  0
LINE
  5
   658
  8
0
  6
CONTINUOUS
 62
     3
 10
224.323473498708
 20
52.0064991428131
 30
0.0
 11
224.323473498708
 21
60.9314989908213
 31
0.0
  0
LINE
  5
   659
  8
0
  6
CONTINUOUS
 62
     3
 10
225.653473209029
 20
52.0064991428131
 30
0.0
 11
225.653473209029
 21
60.9314989908213
 31
0.0
  0
LINE
  5
   65A
  8
0
  6
CONTINUOUS
 62
     3
 10
226.913473187572
 20
52.1152279312447
 30
0.0
 11
226.913473187572
 21
60.9314989908213
 31
0.0
  0
LINE
  5
   65B
  8
0
  6
CONTINUOUS
 62
     3
 10
228.173473166114
 20
52.1152279312447
 30
0.0
 11
228.173473166114
 21
60.9314989908213
 31
0.0
  0
LINE
  5
   65C
  8
0
  6
CONTINUOUS
 62
     3
 10
229.433473144656
 20
52.1152279312447
 30
0.0
 11
229.433473144656
 21
60.9314989908213
 31
0.0
  0
LINE
  5
   65D
  8
0
  6
CONTINUOUS
 62
     3
 10
230.693473123199
 20
52.1152279312447
 30
0.0
 11
230.693473123199
 21
60.9314989908213
 31
0.0
  0
LINE
  5
   65E
  8
0
  6
CONTINUOUS
 62
     3
 10
231.953473101741
 20
52.1152279312447
 30
0.0
 11
231.953473101741
 21
60.9314989908213
 31
0.0
  0
LINE
  5
   65F
  8
0
  6
CONTINUOUS
 62
     3
 10
233.213472546226
 20
52.1152279312447
 30
0.0
 11
233.213472546226
 21
60.9314989908213
 31
0.0
  0
LINE
  5
   660
  8
0
  6
CONTINUOUS
 62
     3
 10
234.473473325854
 20
52.1152279312447
 30
0.0
 11
234.473473325854
 21
60.9314989908213
 31
0.0
  0
LINE
  5
   661
  8
0
  6
CONTINUOUS
 62
     3
 10
235.733472770339
 20
52.1152279312447
 30
0.0
 11
235.733472770339
 21
60.9314989908213
 31
0.0
  0
LINE
  5
   662
  8
0
  6
CONTINUOUS
 62
     3
 10
236.993472748882
 20
52.1152279312447
 30
0.0
 11
236.993472748882
 21
60.9314989908213
 31
0.0
  0
LINE
  5
   663
  8
0
  6
CONTINUOUS
 62
     3
 10
238.253472727424
 20
52.1152279312447
 30
0.0
 11
238.253472727424
 21
60.9314989908213
 31
0.0
  0
LINE
  5
   664
  8
0
  6
CONTINUOUS
 62
     3
 10
239.583472704774
 20
52.1152279312447
 30
0.0
 11
239.583472704774
 21
60.9314989908213
 31
0.0
  0
LINE
  5
   665
  8
0
  6
CONTINUOUS
 62
     3
 10
240.843472149259
 20
52.1152279312447
 30
0.0
 11
240.843472149259
 21
60.9314989908213
 31
0.0
  0
LINE
  5
   666
  8
0
  6
CONTINUOUS
 62
     3
 10
242.103472928888
 20
52.1152279312447
 30
0.0
 11
242.103472928888
 21
60.9314989908213
 31
0.0
  0
LINE
  5
   667
  8
0
  6
CONTINUOUS
 62
     3
 10
243.363472373372
 20
52.1152279312447
 30
0.0
 11
243.363472373372
 21
60.9314989908213
 31
0.0
  0
LINE
  5
   668
  8
0
  6
CONTINUOUS
 62
     3
 10
244.623473153001
 20
52.1152279312447
 30
0.0
 11
244.623473153001
 21
60.9314989908213
 31
0.0
  0
LINE
  5
   669
  8
0
  6
CONTINUOUS
 62
     3
 10
245.883472597486
 20
52.1152279312447
 30
0.0
 11
245.883472597486
 21
60.9314989908213
 31
0.0
  0
LINE
  5
   66A
  8
0
  6
CONTINUOUS
 62
     3
 10
247.143473377114
 20
52.1152279312447
 30
0.0
 11
247.143473377114
 21
60.9314989908213
 31
0.0
  0
LINE
  5
   66B
  8
0
  6
CONTINUOUS
 62
     3
 10
248.403472821599
 20
52.1152279312447
 30
0.0
 11
248.403472821599
 21
60.9314989908213
 31
0.0
  0
LINE
  5
   66C
  8
0
  6
CONTINUOUS
 62
     3
 10
249.663472266084
 20
52.1152279312447
 30
0.0
 11
249.663472266084
 21
60.9314989908213
 31
0.0
  0
LINE
  5
   66D
  8
0
  6
CONTINUOUS
 62
     3
 10
250.923471710569
 20
52.1152279312447
 30
0.0
 11
250.923471710569
 21
60.9314989908213
 31
0.0
  0
LINE
  5
   66E
  8
0
  6
CONTINUOUS
 62
     3
 10
252.183471155053
 20
52.1152279312447
 30
0.0
 11
252.183471155053
 21
60.9314989908213
 31
0.0
  0
LINE
  5
   66F
  8
0
  6
CONTINUOUS
 62
     3
 10
253.443473269826
 20
52.1152279312447
 30
0.0
 11
253.443473269826
 21
60.9314989908213
 31
0.0
  0
LINE
  5
   670
  8
0
  6
CONTINUOUS
 62
     3
 10
254.703472714311
 20
52.1152279312447
 30
0.0
 11
254.703472714311
 21
60.9314989908213
 31
0.0
  0
LINE
  5
   671
  8
0
  6
CONTINUOUS
 62
     3
 10
255.963472158795
 20
52.1152279312447
 30
0.0
 11
255.963472158795
 21
60.9314989908213
 31
0.0
  0
LINE
  5
   672
  8
0
  6
CONTINUOUS
 62
     3
 10
257.22347160328
 20
52.1152279312447
 30
0.0
 11
257.22347160328
 21
60.9314989908213
 31
0.0
  0
LINE
  5
   673
  8
0
  6
CONTINUOUS
 62
     3
 10
258.483471047765
 20
52.1152279312447
 30
0.0
 11
258.483471047765
 21
60.9314989908213
 31
0.0
  0
LINE
  5
   674
  8
0
  6
CONTINUOUS
 62
     3
 10
259.743473162538
 20
52.1152279312447
 30
0.0
 11
259.743473162538
 21
60.9314989908213
 31
0.0
  0
LINE
  5
   675
  8
0
  6
CONTINUOUS
 62
     3
 10
260.845976348109
 20
60.9315022005088
 30
0.0
 11
212.196014767714
 21
60.9315022005088
 31
0.0
  0
LINE
  5
   676
  8
0
  6
DOT
 62
     7
 10
222.608514590391
 20
60.9315022005088
 30
0.0
 11
222.608514590391
 21
61.2814698331028
 31
0.0
  0
ARC
  5
   677
  8
0
  6
DOT
 62
     7
 10
224.446015030509
 20
59.881475990128
 30
0.0
 40
1.83749401361082
 50
145.148969495457
 51
241.56299252681
  0
ARC
  5
   678
  8
0
  6
DOT
 62
     7
 10
224.446015030509
 20
59.881475990128
 30
0.0
 40
1.83749401361082
 50
394.851030400612
 51
418.997218532549
  0
LINE
  5
   679
  8
0
  6
DOT
 62
     7
 10
226.283514527806
 20
60.9315022005088
 30
0.0
 11
226.283514527806
 21
61.2814698331028
 31
0.0
  0
ARC
  5
   67A
  8
0
  6
DOT
 62
     7
 10
230.571014501878
 20
59.1814684420218
 30
0.0
 40
1.92499852271199
 50
425.382530583917
 51
474.617469312152
  0
ARC
  5
   67B
  8
0
  6
DOT
 62
     7
 10
230.571014501878
 20
59.1814684420218
 30
0.0
 40
1.92499852271199
 50
114.617469312152
 51
359.999999948034
  0
LINE
  5
   67C
  8
0
  6
DOT
 62
     7
 10
234.858514381774
 20
60.9315022005088
 30
0.0
 11
234.858514381774
 21
61.2814698331028
 31
0.0
  0
LINE
  5
   67D
  8
0
  6
DOT
 62
     7
 10
238.53351431919
 20
60.9315022005088
 30
0.0
 11
238.53351431919
 21
61.2814698331028
 31
0.0
  0
ARC
  5
   67E
  8
0
  6
CONTINUOUS
 62
     7
 10
236.696014821893
 20
59.881475990128
 30
0.0
 40
1.83749401361082
 50
394.851030400612
 51
418.997218532549
  0
ARC
  5
   67F
  8
0
  6
DOT
 62
     7
 10
236.696014821893
 20
59.881475990128
 30
0.0
 40
1.83749401361082
 50
145.148969495457
 51
241.56299252681
  0
ARC
  5
   680
  8
0
  6
DOT
 62
     7
 10
242.821014404297
 20
59.1814710403811
 30
0.0
 40
1.92499882604943
 50
425.382325221581
 51
474.617674674487
  0
ARC
  5
   681
  8
0
  6
DOT
 62
     7
 10
242.821014404297
 20
59.1814710403811
 30
0.0
 40
1.92499882604943
 50
114.617674674488
 51
359.999999948034
  0
LINE
  5
   682
  8
0
  6
CONTINUOUS
 62
     7
 10
247.108514173158
 20
60.9315022005088
 30
0.0
 11
247.108514173158
 21
61.2814698331028
 31
0.0
  0
ARC
  5
   683
  8
0
  6
DOT
 62
     7
 10
248.946015092395
 20
59.8814751872318
 30
0.0
 40
1.83749475538989
 50
145.148955094388
 51
241.562988062779
  0
ARC
  5
   684
  8
0
  6
DOT
 62
     7
 10
248.946015092395
 20
59.8814751872318
 30
0.0
 40
1.83749475538989
 50
394.85104480168
 51
418.99722864746
  0
LINE
  5
   685
  8
0
  6
DOT
 62
     7
 10
250.783514110573
 20
60.9315022005088
 30
0.0
 11
250.783514110573
 21
61.2814698331028
 31
0.0
  0
LINE
  5
   686
  8
0
  6
CONTINUOUS
 62
     7
 10
219.244263594462
 20
61.2814698331028
 30
0.0
 11
214.471014728971
 21
61.2814698331028
 31
0.0
  0
ARC
  5
   687
  8
0
  6
CONTINUOUS
 62
     3
 10
212.633509419688
 20
171.968997099864
 30
0.0
 40
0.437499992549419
 50
89.9999999480344
 51
179.999999948034
  0
LINE
  5
   688
  8
0
  6
CONTINUOUS
 62
     3
 10
212.546009421178
 20
162.956457977997
 30
0.0
 11
212.546009421178
 21
163.481494034718
 31
0.0
  0
LINE
  5
   689
  8
0
  6
CONTINUOUS
 62
     3
 10
212.546009421178
 20
163.481494034718
 30
0.0
 11
212.196009427138
 21
163.481494034718
 31
0.0
  0
LINE
  5
   68A
  8
0
  6
CONTINUOUS
 62
     3
 10
219.283473050481
 20
163.481497244405
 30
0.0
 11
219.283473050481
 21
172.406497092413
 31
0.0
  0
LINE
  5
   68B
  8
0
  6
CONTINUOUS
 62
     3
 10
218.023472938424
 20
163.481497244405
 30
0.0
 11
218.023472938424
 21
172.406497092413
 31
0.0
  0
LINE
  5
   68C
  8
0
  6
CONTINUOUS
 62
     3
 10
216.763472826368
 20
163.481497244405
 30
0.0
 11
216.763472826368
 21
172.406497092413
 31
0.0
  0
LINE
  5
   68D
  8
0
  6
CONTINUOUS
 62
     3
 10
215.503472714311
 20
163.481497244405
 30
0.0
 11
215.503472714311
 21
172.406497092413
 31
0.0
  0
LINE
  5
   68E
  8
0
  6
CONTINUOUS
 62
     3
 10
214.243472602254
 20
163.481497244405
 30
0.0
 11
214.243472602254
 21
172.406497092413
 31
0.0
  0
LINE
  5
   68F
  8
0
  6
CONTINUOUS
 62
     3
 10
212.983472490197
 20
163.481497244405
 30
0.0
 11
212.983472490197
 21
172.406497092413
 31
0.0
  0
ARC
  5
   690
  8
0
  6
CONTINUOUS
 62
     3
 10
212.633514760264
 20
52.4439991353625
 30
0.0
 40
0.437499992549419
 50
179.999999948034
 51
269.999999948034
  0
LINE
  5
   691
  8
0
  6
CONTINUOUS
 62
     3
 10
219.283473050481
 20
52.0064991428131
 30
0.0
 11
219.283473050481
 21
60.9314989908213
 31
0.0
  0
LINE
  5
   692
  8
0
  6
CONTINUOUS
 62
     3
 10
218.023472938424
 20
52.0064991428131
 30
0.0
 11
218.023472938424
 21
60.9314989908213
 31
0.0
  0
LINE
  5
   693
  8
0
  6
CONTINUOUS
 62
     3
 10
216.763472826368
 20
52.0064991428131
 30
0.0
 11
216.763472826368
 21
60.9314989908213
 31
0.0
  0
LINE
  5
   694
  8
0
  6
CONTINUOUS
 62
     3
 10
215.503472714311
 20
52.0064991428131
 30
0.0
 11
215.503472714311
 21
60.9314989908213
 31
0.0
  0
LINE
  5
   695
  8
0
  6
CONTINUOUS
 62
     3
 10
214.243472602254
 20
52.0064991428131
 30
0.0
 11
214.243472602254
 21
60.9314989908213
 31
0.0
  0
LINE
  5
   696
  8
0
  6
CONTINUOUS
 62
     3
 10
212.983472490197
 20
52.0064991428131
 30
0.0
 11
212.983472490197
 21
60.9314989908213
 31
0.0
  0
LINE
  5
   697
  8
0
  6
CONTINUOUS
 62
     2
 10
261.195977284393
 20
133.731467315258
 30
0.0
 11
212.195963914691
 21
133.731467315258
 31
0.0
  0
POINT
  5
   698
  8
0
  6
CONTINUOUS
 62
     7
 10
242.821014404297
 20
97.9439692087441
 30
0.0
  0
POINT
  5
   699
  8
0
  6
CONTINUOUS
 62
     7
 10
242.821014404297
 20
52.0064991428131
 30
0.0
  0
INSERT
  5
   69A
  8
255
  6
CONTINUOUS
 62
     7
  2
$1TERM_ANT_
 10
202.627667494081
 20
43.1736192817011
 30
0.0
 41
0.349999994039536
 42
0.349999994039536
 50
3.50835464724173E-15
 43
0.349999994039536
  0
INSERT
  5
   69B
  8
0
  6
CONTINUOUS
 62
     7
  2
*UDIM612
 10
0.0
 20
0.0
 30
0.0
  0
INSERT
  5
   69C
  8
0
  6
CONTINUOUS
 62
     7
  2
*UDIM613
 10
0.0
 20
0.0
 30
0.0
  0
INSERT
  5
   69D
  8
0
  6
CONTINUOUS
 62
     7
  2
*UDIM614
 10
0.0
 20
0.0
 30
0.0
  0
TEXT
  5
   69E
  8
0
  6
CONTINUOUS
 62
     7
 10
234.400406821099
 20
173.589116086629
 30
0.0
 40
2.99999997871263
  1
=    =
 50
359.999999948034
 41
0.916666703091727
 72
     1
 11
242.375407087728
 21
175.089116068792
 31
0.0
 73
     2
  0
INSERT
  5
   69F
  8
0
  6
CONTINUOUS
 62
     7
  2
*UDIM615
 10
0.0
 20
0.0
 30
0.0
  0
INSERT
  5
   6A0
  8
0
  6
CONTINUOUS
 62
     7
  2
*UDIM616
 10
0.0
 20
0.0
 30
0.0
  0
INSERT
  5
   6A1
  8
0
  6
CONTINUOUS
 62
     7
  2
*UDIM617
 10
0.0
 20
0.0
 30
0.0
  0
INSERT
  5
   6A2
  8
0
  6
CONTINUOUS
 62
     7
  2
*UDIM618
 10
0.0
 20
0.0
 30
0.0
  0
INSERT
  5
   6A3
  8
0
  6
CONTINUOUS
 62
     7
  2
*UDIM619
 10
0.0
 20
0.0
 30
0.0
  0
INSERT
  5
   6A4
  8
0
  6
CONTINUOUS
 62
     7
  2
*UDIM620
 10
0.0
 20
0.0
 30
0.0
  0
TEXT
  5
   6A5
  8
0
  6
CONTINUOUS
 62
     7
 10
207.299441377988
 20
89.6568135268823
 30
0.0
 40
2.99999997871263
  1
=    =
 50
89.9999999480344
 41
0.916666703091727
 72
     1
 11
205.799441395855
 21
97.631813793517
 31
0.0
 73
     2
  0
INSERT
  5
   6A6
  8
0
  6
CONTINUOUS
 62
     7
  2
*UDIM621
 10
0.0
 20
0.0
 30
0.0
  0
INSERT
  5
   6A7
  8
0
  6
CONTINUOUS
 62
     7
  2
*UDIM622
 10
0.0
 20
0.0
 30
0.0
  0
INSERT
  5
   6A8
  8
0
  6
CONTINUOUS
 62
     7
  2
*UDIM623
 10
0.0
 20
0.0
 30
0.0
  0
TEXT
  5
   6A9
  8
0
  6
CONTINUOUS
 62
     7
 10
241.731492345414
 20
187.888478741831
 30
0.0
 40
2.99999997871263
  1
Y
 50
359.999999948034
 41
0.91666663951344
 72
     2
 11
243.931492281126
 21
187.888478739846
 31
0.0
  0
TEXT
  5
   6AA
  8
0
  6
CONTINUOUS
 62
     7
 10
290.910184778597
 20
96.8314784419258
 30
0.0
 40
2.99999997871263
  1
X
 50
359.999999948034
 41
0.91666663951344
 72
     2
 11
293.110184714309
 21
96.8314784399415
 31
0.0
  0
TEXT
  5
   6AB
  8
0
  6
CONTINUOUS
 62
     7
 10
185.811839858206
 20
97.0807613461202
 30
0.0
 40
2.99999997871263
  1
X
 50
359.999999948034
 41
0.91666663951344
 72
     2
 11
188.011839793918
 21
97.0807613441359
 31
0.0
  0
LINE
  5
   6AC
  8
0
  6
CONTINUOUS
 62
     7
 10
259.44600053597
 20
-4.06495353890273
 30
0.0
 11
259.271011220103
 21
-4.06495353890273
 31
0.0
  0
LINE
  5
   6AD
  8
0
  6
CONTINUOUS
 62
     7
 10
247.196011425739
 20
-4.06495353890273
 30
0.0
 11
238.44601157475
 21
-4.06495353890273
 31
0.0
  0
LINE
  5
   6AE
  8
0
  6
CONTINUOUS
 62
     7
 10
234.946016974931
 20
-4.06495353890273
 30
0.0
 11
226.196017123943
 21
-4.06495353890273
 31
0.0
  0
LINE
  5
   6AF
  8
0
  6
CONTINUOUS
 62
   210
 10
212.196026708369
 20
-5.63995351208064
 30
0.0
 11
212.196026708369
 21
-20.8649692745287
 31
0.0
  0
LINE
  5
   6B0
  8
0
  6
CONTINUOUS
 62
   210
 10
261.19602720921
 20
-5.63995351510851
 30
0.0
 11
261.196021868634
 21
-7.91495347642483
 31
0.0
  0
LINE
  5
   6B1
  8
0
  6
CONTINUOUS
 62
   210
 10
261.196016527896
 20
-7.91495347333762
 30
0.0
 11
261.196016527896
 21
-20.8649692745287
 31
0.0
  0
LINE
  5
   6B2
  8
0
  6
CONTINUOUS
 62
   210
 10
261.196016527896
 20
-20.8649692745287
 30
0.0
 11
259.446016261577
 21
-20.8649692745287
 31
0.0
  0
LINE
  5
   6B3
  8
0
  6
CONTINUOUS
 62
   210
 10
250.696016466523
 20
-20.8649692745287
 30
0.0
 11
248.946011395936
 21
-20.8649692745287
 31
0.0
  0
LINE
  5
   6B4
  8
0
  6
CONTINUOUS
 62
   210
 10
238.446016737776
 20
-20.8649692745287
 30
0.0
 11
236.696011604553
 21
-20.8649692745287
 31
0.0
  0
LINE
  5
   6B5
  8
0
  6
CONTINUOUS
 62
   210
 10
213.946017217646
 20
-20.8649692745287
 30
0.0
 11
212.196026708369
 21
-20.8649692745287
 31
0.0
  0
LINE
  5
   6B6
  8
0
  6
CONTINUOUS
 62
     7
 10
261.196015192752
 20
-7.91495347333762
 30
0.0
 11
248.946011395936
 21
-7.91495347333762
 31
0.0
  0
LINE
  5
   6B7
  8
0
  6
CONTINUOUS
 62
   210
 10
213.596017338519
 20
-5.63995351208064
 30
0.0
 11
212.196026708369
 21
-5.63995351208064
 31
0.0
  0
LINE
  5
   6B8
  8
0
  6
CONTINUOUS
 62
     7
 10
238.44601157475
 20
-5.63995351208064
 30
0.0
 11
234.946016974931
 21
-5.63995351208064
 31
0.0
  0
LINE
  5
   6B9
  8
0
  6
CONTINUOUS
 62
     7
 10
248.070984707957
 20
-5.63995351208064
 30
0.0
 11
247.196011425739
 21
-5.63995351208064
 31
0.0
  0
LINE
  5
   6BA
  8
0
  6
CONTINUOUS
 62
   210
 10
261.196027209048
 20
-5.63995351208064
 30
0.0
 11
259.446005876546
 21
-5.63995351208064
 31
0.0
  0
LINE
  5
   6BB
  8
0
  6
CONTINUOUS
 62
   210
 10
214.121011989003
 20
-3.53995354784342
 30
0.0
 11
212.5459839778
 21
-3.53995354784342
 31
0.0
  0
LINE
  5
   6BC
  8
0
  6
CONTINUOUS
 62
   210
 10
246.32101144064
 20
-14.3899693847973
 30
0.0
 11
239.321011559849
 21
-14.3899693847973
 31
0.0
  0
LINE
  5
   6BD
  8
0
  6
CONTINUOUS
 62
     7
 10
239.233511561339
 20
-14.3899693847973
 30
0.0
 11
239.233511561339
 21
-17.0149693400938
 31
0.0
  0
LINE
  5
   6BE
  8
0
  6
CONTINUOUS
 62
     7
 10
246.40851143915
 20
-14.3899693847973
 30
0.0
 11
246.40851143915
 21
-17.0149693400938
 31
0.0
  0
LINE
  5
   6BF
  8
0
  6
CONTINUOUS
 62
   210
 10
234.071011649256
 20
-14.3899693847973
 30
0.0
 11
227.071011768466
 21
-14.3899693847973
 31
0.0
  0
LINE
  5
   6C0
  8
0
  6
CONTINUOUS
 62
     7
 10
226.983511769956
 20
-14.3899693847973
 30
0.0
 11
226.983511769956
 21
-17.0149693400938
 31
0.0
  0
LINE
  5
   6C1
  8
0
  6
CONTINUOUS
 62
     7
 10
234.158511647766
 20
-14.3899693847973
 30
0.0
 11
234.158511647766
 21
-17.0149693400938
 31
0.0
  0
LINE
  5
   6C2
  8
0
  6
CONTINUOUS
 62
   210
 10
258.571011232024
 20
-14.3899693847973
 30
0.0
 11
251.571011351233
 21
-14.3899693847973
 31
0.0
  0
LINE
  5
   6C3
  8
0
  6
CONTINUOUS
 62
     7
 10
251.483511352723
 20
-14.3899693847973
 30
0.0
 11
251.483511352723
 21
-17.0149693400938
 31
0.0
  0
LINE
  5
   6C4
  8
0
  6
CONTINUOUS
 62
     7
 10
258.658511230534
 20
-14.3899693847973
 30
0.0
 11
258.658511230534
 21
-17.0149693400938
 31
0.0
  0
LINE
  5
   6C5
  8
0
  6
CONTINUOUS
 62
     7
 10
260.321016542797
 20
-7.91495347333762
 30
0.0
 11
260.321016542797
 21
-20.8649692745287
 31
0.0
  0
LINE
  5
   6C6
  8
0
  6
CONTINUOUS
 62
     7
 10
213.07101734746
 20
-7.91495347333762
 30
0.0
 11
213.07101734746
 21
-20.8649692745287
 31
0.0
  0
LINE
  5
   6C7
  8
0
  6
CONTINUOUS
 62
   210
 10
238.446008904462
 20
-4.2399535359225
 30
0.0
 11
234.946014304643
 21
-4.2399535359225
 31
0.0
  0
LINE
  5
   6C8
  8
0
  6
CONTINUOUS
 62
     3
 10
238.621006231194
 20
-3.71495354486319
 30
0.0
 11
234.771011637335
 21
-3.71495354486319
 31
0.0
  0
LINE
  5
   6C9
  8
0
  6
CONTINUOUS
 62
     3
 10
250.871011363154
 20
-3.71495354486319
 30
0.0
 11
247.021006088143
 21
-3.71495354486319
 31
0.0
  0
LINE
  5
   6CA
  8
0
  6
CONTINUOUS
 62
     7
 10
250.696000684982
 20
-5.63995351208064
 30
0.0
 11
250.696000684982
 21
-7.91495347333762
 31
0.0
  0
LINE
  5
   6CB
  8
0
  6
CONTINUOUS
 62
     7
 10
259.44600053597
 20
-5.63995885265672
 30
0.0
 11
259.44600053597
 21
-7.91495347333762
 31
0.0
  0
LINE
  5
   6CC
  8
0
  6
CONTINUOUS
 62
     7
 10
238.44601157475
 20
-5.63995351208064
 30
0.0
 11
238.44601157475
 21
-7.91495347333762
 31
0.0
  0
LINE
  5
   6CD
  8
0
  6
CONTINUOUS
 62
     7
 10
247.196011425739
 20
-5.63995351208064
 30
0.0
 11
247.196011425739
 21
-7.91495347333762
 31
0.0
  0
LINE
  5
   6CE
  8
0
  6
CONTINUOUS
 62
     7
 10
213.946017332559
 20
-4.06495353890273
 30
0.0
 11
213.946017332559
 21
-7.91495347333762
 31
0.0
  0
LINE
  5
   6CF
  8
0
  6
CONTINUOUS
 62
     7
 10
234.946016974931
 20
-5.63995351208064
 30
0.0
 11
234.946016974931
 21
-7.91495347333762
 31
0.0
  0
LINE
  5
   6D0
  8
0
  6
CONTINUOUS
 62
     7
 10
213.596017338519
 20
-5.63995351208064
 30
0.0
 11
213.596017338519
 21
-7.91495347333762
 31
0.0
  0
LINE
  5
   6D1
  8
0
  6
CONTINUOUS
 62
     7
 10
259.971016548758
 20
-7.91495347333762
 30
0.0
 11
259.971016548758
 21
-20.8649692745287
 31
0.0
  0
LINE
  5
   6D2
  8
0
  6
CONTINUOUS
 62
     7
 10
213.4210173415
 20
-7.91495347333762
 30
0.0
 11
213.4210173415
 21
-20.8649692745287
 31
0.0
  0
LINE
  5
   6D3
  8
0
  6
CONTINUOUS
 62
     7
 10
248.946011395936
 20
-7.91495347333762
 30
0.0
 11
236.696011604553
 21
-7.91495347333762
 31
0.0
  0
LINE
  5
   6D4
  8
0
  6
CONTINUOUS
 62
     7
 10
236.696011604553
 20
-7.91495347333762
 30
0.0
 11
224.446026499753
 21
-7.91495347333762
 31
0.0
  0
LINE
  5
   6D5
  8
0
  6
CONTINUOUS
 62
   210
 10
236.696011604553
 20
-20.8649692745287
 30
0.0
 11
234.946016804084
 21
-20.8649692745287
 31
0.0
  0
LINE
  5
   6D6
  8
0
  6
CONTINUOUS
 62
   210
 10
248.946011395936
 20
-20.8649692745287
 30
0.0
 11
247.196016532831
 21
-20.8649692745287
 31
0.0
  0
LINE
  5
   6D7
  8
0
  6
CONTINUOUS
 62
     7
 10
250.696000684982
 20
-4.23995887649858
 30
0.0
 11
250.696000684982
 21
-5.63995351208064
 31
0.0
  0
LINE
  5
   6D8
  8
0
  6
CONTINUOUS
 62
     7
 10
247.196011425739
 20
-4.23995887649858
 30
0.0
 11
247.196011425739
 21
-5.63995351208064
 31
0.0
  0
LINE
  5
   6D9
  8
0
  6
CONTINUOUS
 62
     7
 10
238.44601157475
 20
-4.2399535359225
 30
0.0
 11
238.44601157475
 21
-5.63995351208064
 31
0.0
  0
LINE
  5
   6DA
  8
0
  6
CONTINUOUS
 62
     7
 10
234.946016974931
 20
-4.2399535359225
 30
0.0
 11
234.946016974931
 21
-5.63995351208064
 31
0.0
  0
LINE
  5
   6DB
  8
0
  6
CONTINUOUS
 62
   210
 10
213.596017338519
 20
-3.53995354784342
 30
0.0
 11
213.596017338519
 21
-5.63995351208064
 31
0.0
  0
LINE
  5
   6DC
  8
0
  6
CONTINUOUS
 62
     2
 10
239.583506214803
 20
-16.6649693460543
 30
0.0
 11
239.583506214803
 21
-17.0149693400938
 31
0.0
  0
LINE
  5
   6DD
  8
0
  6
CONTINUOUS
 62
     2
 10
246.058506104534
 20
-16.6649693460543
 30
0.0
 11
246.058506104534
 21
-17.0149693400938
 31
0.0
  0
LINE
  5
   6DE
  8
0
  6
CONTINUOUS
 62
     2
 10
239.583513615722
 20
-17.0149693400726
 30
0.0
 11
239.583513615722
 21
-20.514969280468
 31
0.0
  0
LINE
  5
   6DF
  8
0
  6
CONTINUOUS
 62
     2
 10
246.058513505451
 20
-17.0149693400706
 30
0.0
 11
246.058513505451
 21
-20.5149692804659
 31
0.0
  0
LINE
  5
   6E0
  8
0
  6
CONTINUOUS
 62
     7
 10
239.583514225667
 20
-17.0149693400938
 30
0.0
 11
238.271016918307
 21
-17.0149693400938
 31
0.0
  0
LINE
  5
   6E1
  8
0
  6
CONTINUOUS
 62
     7
 10
247.371016763335
 20
-17.0149693400938
 30
0.0
 11
246.058516785686
 21
-17.0149693400938
 31
0.0
  0
LINE
  5
   6E2
  8
0
  6
CONTINUOUS
 62
     2
 10
247.371016763335
 20
-20.8649692745287
 30
0.0
 11
246.321016781216
 21
-20.8649692745287
 31
0.0
  0
LINE
  5
   6E3
  8
0
  6
CONTINUOUS
 62
     2
 10
239.321016900425
 20
-20.8649692745287
 30
0.0
 11
238.271016918307
 21
-20.8649692745287
 31
0.0
  0
LINE
  5
   6E4
  8
0
  6
CONTINUOUS
 62
     2
 10
239.321016900425
 20
-20.5149692804891
 30
0.0
 11
239.321016900425
 21
-20.8649692745287
 31
0.0
  0
LINE
  5
   6E5
  8
0
  6
CONTINUOUS
 62
     2
 10
246.321016781216
 20
-20.5149692804891
 30
0.0
 11
246.321016781216
 21
-20.8649692745287
 31
0.0
  0
LINE
  5
   6E6
  8
0
  6
CONTINUOUS
 62
     2
 10
246.321016781216
 20
-20.8649692745287
 30
0.0
 11
239.321016900425
 21
-20.8649692745287
 31
0.0
  0
LINE
  5
   6E7
  8
0
  6
CONTINUOUS
 62
     2
 10
246.321016781216
 20
-20.5149692804891
 30
0.0
 11
246.058506104534
 21
-20.5149692804891
 31
0.0
  0
LINE
  5
   6E8
  8
0
  6
CONTINUOUS
 62
     2
 10
239.583506214803
 20
-20.5149692804891
 30
0.0
 11
239.321016900425
 21
-20.5149692804891
 31
0.0
  0
LINE
  5
   6E9
  8
0
  6
CONTINUOUS
 62
     2
 10
239.583506214803
 20
-18.3211861299828
 30
0.0
 11
239.233522242492
 21
-18.3211861299828
 31
0.0
  0
LINE
  5
   6EA
  8
0
  6
CONTINUOUS
 62
     2
 10
239.583513634107
 20
-17.0149704122208
 30
0.0
 11
239.233521638442
 21
-18.3211871686879
 31
0.0
  0
LINE
  5
   6EB
  8
0
  6
CONTINUOUS
 62
     2
 10
246.40852479059
 20
-18.3211861299828
 30
0.0
 11
246.058524796551
 21
-18.3211861299828
 31
0.0
  0
LINE
  5
   6EC
  8
0
  6
CONTINUOUS
 62
     2
 10
246.408523414663
 20
-18.3211884930353
 30
0.0
 11
246.058515427552
 21
-17.0149717365658
 31
0.0
  0
LINE
  5
   6ED
  8
0
  6
CONTINUOUS
 62
     2
 10
251.833506006187
 20
-16.6649693460543
 30
0.0
 11
251.833506006187
 21
-17.0149693400938
 31
0.0
  0
LINE
  5
   6EE
  8
0
  6
CONTINUOUS
 62
     2
 10
258.308505895918
 20
-16.6649693460543
 30
0.0
 11
258.308505895918
 21
-17.0149693400938
 31
0.0
  0
LINE
  5
   6EF
  8
0
  6
CONTINUOUS
 62
     2
 10
251.833506006187
 20
-17.0149693400938
 30
0.0
 11
251.833506006187
 21
-20.5149692804891
 31
0.0
  0
LINE
  5
   6F0
  8
0
  6
CONTINUOUS
 62
     2
 10
258.308505895918
 20
-17.0149693400938
 30
0.0
 11
258.308505895918
 21
-20.5149692804891
 31
0.0
  0
LINE
  5
   6F1
  8
0
  6
CONTINUOUS
 62
     7
 10
251.833516687339
 20
-17.0149693400938
 30
0.0
 11
250.52101670969
 21
-17.0149693400938
 31
0.0
  0
LINE
  5
   6F2
  8
0
  6
CONTINUOUS
 62
     7
 10
259.621016554718
 20
-17.0149693400938
 30
0.0
 11
258.30851657707
 21
-17.0149693400938
 31
0.0
  0
LINE
  5
   6F3
  8
0
  6
CONTINUOUS
 62
     2
 10
259.621016554718
 20
-20.8649692745287
 30
0.0
 11
258.5710165726
 21
-20.8649692745287
 31
0.0
  0
LINE
  5
   6F4
  8
0
  6
CONTINUOUS
 62
     2
 10
251.571016691809
 20
-20.8649692745287
 30
0.0
 11
250.52101670969
 21
-20.8649692745287
 31
0.0
  0
LINE
  5
   6F5
  8
0
  6
CONTINUOUS
 62
     2
 10
251.571016691809
 20
-20.5149692804891
 30
0.0
 11
251.571016691809
 21
-20.8649692745287
 31
0.0
  0
LINE
  5
   6F6
  8
0
  6
CONTINUOUS
 62
     2
 10
258.5710165726
 20
-20.5149692804891
 30
0.0
 11
258.5710165726
 21
-20.8649692745287
 31
0.0
  0
LINE
  5
   6F7
  8
0
  6
CONTINUOUS
 62
     2
 10
258.5710165726
 20
-20.8649692745287
 30
0.0
 11
251.571016691809
 21
-20.8649692745287
 31
0.0
  0
LINE
  5
   6F8
  8
0
  6
CONTINUOUS
 62
     2
 10
258.5710165726
 20
-20.5149692804891
 30
0.0
 11
258.308505895918
 21
-20.5149692804891
 31
0.0
  0
LINE
  5
   6F9
  8
0
  6
CONTINUOUS
 62
     2
 10
251.833506006187
 20
-20.5149692804891
 30
0.0
 11
251.571016691809
 21
-20.5149692804891
 31
0.0
  0
LINE
  5
   6FA
  8
0
  6
CONTINUOUS
 62
     2
 10
251.833506006187
 20
-18.3211861299828
 30
0.0
 11
251.483522033875
 21
-18.3211861299828
 31
0.0
  0
LINE
  5
   6FB
  8
0
  6
CONTINUOUS
 62
     2
 10
251.833517024188
 20
-17.014968919345
 30
0.0
 11
251.483522357054
 21
-18.3211856758142
 31
0.0
  0
LINE
  5
   6FC
  8
0
  6
CONTINUOUS
 62
     2
 10
258.658521911686
 20
-18.3211861299828
 30
0.0
 11
258.308521917646
 21
-18.3211861299828
 31
0.0
  0
LINE
  5
   6FD
  8
0
  6
CONTINUOUS
 62
     2
 10
258.658519165584
 20
-18.3211894489283
 30
0.0
 11
258.308513849954
 21
-17.0149726924575
 31
0.0
  0
LINE
  5
   6FE
  8
0
  6
CONTINUOUS
 62
     2
 10
227.333506423419
 20
-16.6649693460543
 30
0.0
 11
227.333506423419
 21
-17.0149693400938
 31
0.0
  0
LINE
  5
   6FF
  8
0
  6
CONTINUOUS
 62
     2
 10
233.80850631315
 20
-16.6649693460543
 30
0.0
 11
233.80850631315
 21
-17.0149693400938
 31
0.0
  0
LINE
  5
   700
  8
0
  6
CONTINUOUS
 62
     2
 10
227.333513824336
 20
-17.0149693400726
 30
0.0
 11
227.333513824336
 21
-20.514971950756
 31
0.0
  0
LINE
  5
   701
  8
0
  6
CONTINUOUS
 62
     2
 10
233.808513714077
 20
-17.0149693400706
 30
0.0
 11
233.808513714077
 21
-20.5149666101779
 31
0.0
  0
LINE
  5
   702
  8
0
  6
CONTINUOUS
 62
     7
 10
227.333514434283
 20
-17.0149693400938
 30
0.0
 11
226.021017126923
 21
-17.0149693400938
 31
0.0
  0
LINE
  5
   703
  8
0
  6
CONTINUOUS
 62
     7
 10
235.121016971951
 20
-17.0149693400938
 30
0.0
 11
233.808516994303
 21
-17.0149693400938
 31
0.0
  0
LINE
  5
   704
  8
0
  6
CONTINUOUS
 62
     2
 10
235.121016971951
 20
-20.8649692745287
 30
0.0
 11
234.071016989832
 21
-20.8649692745287
 31
0.0
  0
LINE
  5
   705
  8
0
  6
CONTINUOUS
 62
     2
 10
227.071017109042
 20
-20.8649692745287
 30
0.0
 11
226.021017126923
 21
-20.8649692745287
 31
0.0
  0
LINE
  5
   706
  8
0
  6
CONTINUOUS
 62
     2
 10
227.071017109042
 20
-20.5149692804891
 30
0.0
 11
227.071017109042
 21
-20.8649692745287
 31
0.0
  0
LINE
  5
   707
  8
0
  6
CONTINUOUS
 62
     2
 10
234.071016989832
 20
-20.5149692804891
 30
0.0
 11
234.071016989832
 21
-20.8649692745287
 31
0.0
  0
LINE
  5
   708
  8
0
  6
CONTINUOUS
 62
     2
 10
234.071016989832
 20
-20.8649692745287
 30
0.0
 11
227.071017109042
 21
-20.8649692745287
 31
0.0
  0
LINE
  5
   709
  8
0
  6
CONTINUOUS
 62
     2
 10
234.071016989832
 20
-20.5149692804891
 30
0.0
 11
233.80850631315
 21
-20.5149692804891
 31
0.0
  0
LINE
  5
   70A
  8
0
  6
CONTINUOUS
 62
     2
 10
227.333506423419
 20
-20.5149692804891
 30
0.0
 11
227.071017109042
 21
-20.5149692804891
 31
0.0
  0
LINE
  5
   70B
  8
0
  6
CONTINUOUS
 62
     2
 10
227.333506423419
 20
-18.3211861299828
 30
0.0
 11
226.983522451108
 21
-18.3211861299828
 31
0.0
  0
LINE
  5
   70C
  8
0
  6
CONTINUOUS
 62
     2
 10
227.333514004823
 20
-17.0149703742407
 30
0.0
 11
226.983522009158
 21
-18.3211871307078
 31
0.0
  0
LINE
  5
   70D
  8
0
  6
CONTINUOUS
 62
     2
 10
234.158524999206
 20
-18.3211861299828
 30
0.0
 11
233.808525005167
 21
-18.3211861299828
 31
0.0
  0
LINE
  5
   70E
  8
0
  6
CONTINUOUS
 62
     2
 10
234.158524108485
 20
-18.3211886067233
 30
0.0
 11
233.808516121374
 21
-17.0149718502537
 31
0.0
  0
LINE
  5
   70F
  8
0
  6
CONTINUOUS
 62
     7
 10
238.271016918307
 20
-17.0149693400938
 30
0.0
 11
238.271016918307
 21
-20.8649692745287
 31
0.0
  0
LINE
  5
   710
  8
0
  6
CONTINUOUS
 62
     7
 10
247.371016763335
 20
-17.0149693400938
 30
0.0
 11
247.371016763335
 21
-20.8649692745287
 31
0.0
  0
LINE
  5
   711
  8
0
  6
CONTINUOUS
 62
     2
 10
247.196016524457
 20
-20.8649695257346
 30
0.0
 11
247.17268320146
 21
-21.5649692626079
 31
0.0
  0
LINE
  5
   712
  8
0
  6
CONTINUOUS
 62
     2
 10
238.469350069147
 20
-21.5649692626075
 30
0.0
 11
238.446016745694
 21
-20.8649695120483
 31
0.0
  0
LINE
  5
   713
  8
0
  6
CONTINUOUS
 62
     7
 10
250.52101670969
 20
-17.0149693400938
 30
0.0
 11
250.52101670969
 21
-20.8649692745287
 31
0.0
  0
LINE
  5
   714
  8
0
  6
CONTINUOUS
 62
     7
 10
259.621016554718
 20
-17.0149693400938
 30
0.0
 11
259.621016554718
 21
-20.8649692745287
 31
0.0
  0
LINE
  5
   715
  8
0
  6
CONTINUOUS
 62
     2
 10
259.446016253134
 20
-20.86496952782
 30
0.0
 11
259.422682930207
 21
-21.5649692626076
 31
0.0
  0
LINE
  5
   716
  8
0
  6
CONTINUOUS
 62
     2
 10
250.719349797894
 20
-21.564969262608
 30
0.0
 11
250.696016474371
 21
-20.8649695099631
 31
0.0
  0
LINE
  5
   717
  8
0
  6
CONTINUOUS
 62
     7
 10
226.021017126923
 20
-17.0149693400938
 30
0.0
 11
226.021017126923
 21
-20.8649692745287
 31
0.0
  0
LINE
  5
   718
  8
0
  6
CONTINUOUS
 62
     7
 10
235.121016971951
 20
-17.0149693400938
 30
0.0
 11
235.121016971951
 21
-20.8649692745287
 31
0.0
  0
LINE
  5
   719
  8
0
  6
CONTINUOUS
 62
     2
 10
234.94601679578
 20
-20.8649695236489
 30
0.0
 11
234.922683472713
 21
-21.5649692626077
 31
0.0
  0
LINE
  5
   71A
  8
0
  6
CONTINUOUS
 62
     2
 10
226.2193503404
 20
-21.5649692626078
 30
0.0
 11
226.196017017016
 21
-20.8649695141341
 31
0.0
  0
LINE
  5
   71B
  8
0
  6
CONTINUOUS
 62
   210
 10
221.821011857872
 20
-14.3899693847973
 30
0.0
 11
214.821011977082
 21
-14.3899693847973
 31
0.0
  0
LINE
  5
   71C
  8
0
  6
CONTINUOUS
 62
     7
 10
214.733511978572
 20
-14.3899693847973
 30
0.0
 11
214.733511978572
 21
-17.0149693400938
 31
0.0
  0
LINE
  5
   71D
  8
0
  6
CONTINUOUS
 62
     7
 10
221.908511856382
 20
-14.3899693847973
 30
0.0
 11
221.908511856382
 21
-17.0149693400938
 31
0.0
  0
LINE
  5
   71E
  8
0
  6
CONTINUOUS
 62
   210
 10
224.446011813169
 20
-20.8649692745287
 30
0.0
 11
222.6960170127
 21
-20.8649692745287
 31
0.0
  0
LINE
  5
   71F
  8
0
  6
CONTINUOUS
 62
     2
 10
215.083506632035
 20
-16.6649693460543
 30
0.0
 11
215.083506632035
 21
-17.0149693400938
 31
0.0
  0
LINE
  5
   720
  8
0
  6
CONTINUOUS
 62
     2
 10
221.558506521767
 20
-16.6649693460543
 30
0.0
 11
221.558506521767
 21
-17.0149693400938
 31
0.0
  0
LINE
  5
   721
  8
0
  6
CONTINUOUS
 62
     2
 10
215.083514032959
 20
-17.0149693400726
 30
0.0
 11
215.083514032959
 21
-20.514971950756
 31
0.0
  0
LINE
  5
   722
  8
0
  6
CONTINUOUS
 62
     2
 10
221.5585139227
 20
-17.0149693400706
 30
0.0
 11
221.5585139227
 21
-20.5149666101779
 31
0.0
  0
LINE
  5
   723
  8
0
  6
CONTINUOUS
 62
     2
 10
215.083514642899
 20
-17.0149693400938
 30
0.0
 11
213.771017335539
 21
-17.0149693400938
 31
0.0
  0
LINE
  5
   724
  8
0
  6
CONTINUOUS
 62
     2
 10
222.871017180567
 20
-17.0149693400938
 30
0.0
 11
221.558517202919
 21
-17.0149693400938
 31
0.0
  0
LINE
  5
   725
  8
0
  6
CONTINUOUS
 62
     2
 10
222.871017180567
 20
-20.8649692745287
 30
0.0
 11
221.821017198449
 21
-20.8649692745287
 31
0.0
  0
LINE
  5
   726
  8
0
  6
CONTINUOUS
 62
     2
 10
214.821017317658
 20
-20.8649692745287
 30
0.0
 11
213.771017335539
 21
-20.8649692745287
 31
0.0
  0
LINE
  5
   727
  8
0
  6
CONTINUOUS
 62
     2
 10
214.821017317658
 20
-20.5149692804891
 30
0.0
 11
214.821017317658
 21
-20.8649692745287
 31
0.0
  0
LINE
  5
   728
  8
0
  6
CONTINUOUS
 62
     2
 10
221.821017198449
 20
-20.5149692804891
 30
0.0
 11
221.821017198449
 21
-20.8649692745287
 31
0.0
  0
LINE
  5
   729
  8
0
  6
CONTINUOUS
 62
     2
 10
221.821017198449
 20
-20.8649692745287
 30
0.0
 11
214.821017317658
 21
-20.8649692745287
 31
0.0
  0
LINE
  5
   72A
  8
0
  6
CONTINUOUS
 62
     2
 10
221.821017198449
 20
-20.5149692804891
 30
0.0
 11
221.558506521767
 21
-20.5149692804891
 31
0.0
  0
LINE
  5
   72B
  8
0
  6
CONTINUOUS
 62
     2
 10
215.083506632035
 20
-20.5149692804891
 30
0.0
 11
214.821017317658
 21
-20.5149692804891
 31
0.0
  0
LINE
  5
   72C
  8
0
  6
CONTINUOUS
 62
     2
 10
215.083506632035
 20
-18.3211861299828
 30
0.0
 11
214.733522659724
 21
-18.3211861299828
 31
0.0
  0
LINE
  5
   72D
  8
0
  6
CONTINUOUS
 62
     2
 10
215.083514213439
 20
-17.0149703742407
 30
0.0
 11
214.733522217774
 21
-18.3211871307078
 31
0.0
  0
LINE
  5
   72E
  8
0
  6
CONTINUOUS
 62
     2
 10
221.908525207823
 20
-18.3211861299828
 30
0.0
 11
221.558525213783
 21
-18.3211861299828
 31
0.0
  0
LINE
  5
   72F
  8
0
  6
CONTINUOUS
 62
     2
 10
221.908524317102
 20
-18.3211886067233
 30
0.0
 11
221.55851632999
 21
-17.0149718502537
 31
0.0
  0
LINE
  5
   730
  8
0
  6
CONTINUOUS
 62
     2
 10
213.771017335539
 20
-17.0149693400938
 30
0.0
 11
213.771017335539
 21
-20.8649692745287
 31
0.0
  0
LINE
  5
   731
  8
0
  6
CONTINUOUS
 62
     2
 10
222.871017180567
 20
-17.0149693400938
 30
0.0
 11
222.871017180567
 21
-20.8649692745287
 31
0.0
  0
LINE
  5
   732
  8
0
  6
CONTINUOUS
 62
     2
 10
222.696017004396
 20
-20.864969523649
 30
0.0
 11
222.672683681329
 21
-21.5649692626078
 31
0.0
  0
LINE
  5
   733
  8
0
  6
CONTINUOUS
 62
     2
 10
213.969350549016
 20
-21.5649692626078
 30
0.0
 11
213.946017225633
 21
-20.8649695141342
 31
0.0
  0
LINE
  5
   734
  8
0
  6
CONTINUOUS
 62
   210
 10
226.196016946393
 20
-20.8649692745287
 30
0.0
 11
224.446011813169
 21
-20.8649692745287
 31
0.0
  0
LINE
  5
   735
  8
0
  6
CONTINUOUS
 62
     7
 10
224.446011813169
 20
-7.91495347333762
 30
0.0
 11
212.196026708369
 21
-7.91495347333762
 31
0.0
  0
LINE
  5
   736
  8
0
  6
CONTINUOUS
 62
     3
 10
226.371011780386
 20
-3.71495354486319
 30
0.0
 11
222.521006505375
 21
-3.71495354486319
 31
0.0
  0
LINE
  5
   737
  8
0
  6
CONTINUOUS
 62
   210
 10
226.196001102214
 20
-4.2399535359225
 30
0.0
 11
222.696011842971
 21
-4.2399535359225
 31
0.0
  0
LINE
  5
   738
  8
0
  6
CONTINUOUS
 62
     7
 10
222.696011842971
 20
-4.2399535359225
 30
0.0
 11
222.696011842971
 21
-7.91495347333762
 31
0.0
  0
LINE
  5
   739
  8
0
  6
CONTINUOUS
 62
     7
 10
226.196001102214
 20
-4.2399535359225
 30
0.0
 11
226.196001102214
 21
-7.91495347333762
 31
0.0
  0
LINE
  5
   73A
  8
0
  6
CONTINUOUS
 62
     7
 10
226.196001102214
 20
-5.63995351208064
 30
0.0
 11
222.696011842971
 21
-5.63995351208064
 31
0.0
  0
LINE
  5
   73B
  8
0
  6
CONTINUOUS
 62
   210
 10
222.696011842971
 20
-4.06495353890273
 30
0.0
 11
214.121006648427
 21
-4.06495353890273
 31
0.0
  0
LINE
  5
   73C
  8
0
  6
DASHDOT
 62
     7
 10
255.071011291628
 20
0.199676743142952
 30
0.0
 11
255.071011291628
 21
-23.1051755819825
 31
0.0
  0
LINE
  5
   73D
  8
0
  6
DASHDOT
 62
     7
 10
242.821011500245
 20
0.605772267558134
 30
0.0
 11
242.821011500245
 21
-23.1051755819825
 31
0.0
  0
LINE
  5
   73E
  8
0
  6
DASHDOT
 62
     7
 10
230.571011708861
 20
2.53472600853026
 30
0.0
 11
230.571011708861
 21
-23.1867325442253
 31
0.0
  0
LINE
  5
   73F
  8
0
  6
DASHDOT
 62
     7
 10
218.321011917477
 20
2.76315474101381
 30
0.0
 11
218.321011917477
 21
-23.1051755819825
 31
0.0
  0
LINE
  5
   740
  8
0
  6
CONTINUOUS
 62
   210
 10
234.946008964067
 20
-4.06495887947881
 30
0.0
 11
226.196009113079
 21
-4.06495887947881
 31
0.0
  0
LINE
  5
   741
  8
0
  6
CONTINUOUS
 62
   210
 10
247.196008755451
 20
-4.06495887947881
 30
0.0
 11
238.446008904462
 21
-4.06495887947881
 31
0.0
  0
LINE
  5
   742
  8
0
  6
CONTINUOUS
 62
     7
 10
249.558484682625
 20
-7.9149588139137
 30
0.0
 11
249.558484682625
 21
-20.8649746151048
 31
0.0
  0
LINE
  5
   743
  8
0
  6
CONTINUOUS
 62
     7
 10
248.333484703487
 20
-7.9149588139137
 30
0.0
 11
248.333484703487
 21
-20.8649746151048
 31
0.0
  0
LINE
  5
   744
  8
0
  6
CONTINUOUS
 62
     7
 10
237.308484891242
 20
-7.9149588139137
 30
0.0
 11
237.308484891242
 21
-20.8649746151048
 31
0.0
  0
LINE
  5
   745
  8
0
  6
CONTINUOUS
 62
     7
 10
236.083484912103
 20
-7.9149588139137
 30
0.0
 11
236.083484912103
 21
-20.8649746151048
 31
0.0
  0
LINE
  5
   746
  8
0
  6
CONTINUOUS
 62
   210
 10
250.871011363154
 20
-3.53995888841951
 30
0.0
 11
249.295984687096
 21
-3.53995888841951
 31
0.0
  0
LINE
  5
   747
  8
0
  6
CONTINUOUS
 62
     3
 10
250.696000684982
 20
-4.23995887649858
 30
0.0
 11
249.435224186677
 21
-4.23995887649858
 31
0.0
  0
LINE
  5
   748
  8
0
  6
CONTINUOUS
 62
     7
 10
214.121009318715
 20
-14.3899747253734
 30
0.0
 11
214.121009318715
 21
-17.0149693400938
 31
0.0
  0
LINE
  5
   749
  8
0
  6
CONTINUOUS
 62
     7
 10
234.771008967047
 20
-14.3899747253734
 30
0.0
 11
234.771008967047
 21
-17.0149693400938
 31
0.0
  0
LINE
  5
   74A
  8
0
  6
CONTINUOUS
 62
     7
 10
214.733509308284
 20
-14.3899747253734
 30
0.0
 11
214.121009318715
 21
-14.3899747253734
 31
0.0
  0
LINE
  5
   74B
  8
0
  6
CONTINUOUS
 62
     7
 10
234.771008967047
 20
-14.3899747253734
 30
0.0
 11
234.158508977478
 21
-14.3899747253734
 31
0.0
  0
LINE
  5
   74C
  8
0
  6
CONTINUOUS
 62
     7
 10
214.121009318715
 20
-8.96497481776055
 30
0.0
 11
214.121009318715
 21
-14.3899747253734
 31
0.0
  0
LINE
  5
   74D
  8
0
  6
CONTINUOUS
 62
     7
 10
214.733509308284
 20
-8.96497481776055
 30
0.0
 11
214.733509308284
 21
-14.3899747253734
 31
0.0
  0
LINE
  5
   74E
  8
0
  6
CONTINUOUS
 62
     7
 10
234.771008967047
 20
-12.1149747641164
 30
0.0
 11
234.771008967047
 21
-14.3899747253734
 31
0.0
  0
LINE
  5
   74F
  8
0
  6
CONTINUOUS
 62
     7
 10
234.158508977478
 20
-12.1149747641164
 30
0.0
 11
234.158508977478
 21
-14.3899747253734
 31
0.0
  0
LINE
  5
   750
  8
0
  6
CONTINUOUS
 62
     7
 10
238.621008901482
 20
-14.3899747253734
 30
0.0
 11
238.621008901482
 21
-17.0149693400938
 31
0.0
  0
LINE
  5
   751
  8
0
  6
CONTINUOUS
 62
     7
 10
247.021008758431
 20
-14.3899747253734
 30
0.0
 11
247.021008758431
 21
-17.0149693400938
 31
0.0
  0
LINE
  5
   752
  8
0
  6
CONTINUOUS
 62
     7
 10
239.233508891051
 20
-14.3899747253734
 30
0.0
 11
238.621008901482
 21
-14.3899747253734
 31
0.0
  0
LINE
  5
   753
  8
0
  6
CONTINUOUS
 62
     7
 10
247.021008758431
 20
-14.3899747253734
 30
0.0
 11
246.408508768862
 21
-14.3899747253734
 31
0.0
  0
LINE
  5
   754
  8
0
  6
CONTINUOUS
 62
     7
 10
238.621008901482
 20
-12.1149747641164
 30
0.0
 11
238.621008901482
 21
-14.3899747253734
 31
0.0
  0
LINE
  5
   755
  8
0
  6
CONTINUOUS
 62
     7
 10
239.233508891051
 20
-12.1149747641164
 30
0.0
 11
239.233508891051
 21
-14.3899747253734
 31
0.0
  0
LINE
  5
   756
  8
0
  6
CONTINUOUS
 62
     7
 10
247.021008758431
 20
-12.1149747641164
 30
0.0
 11
247.021008758431
 21
-14.3899747253734
 31
0.0
  0
LINE
  5
   757
  8
0
  6
CONTINUOUS
 62
     7
 10
246.408508768862
 20
-12.1149747641164
 30
0.0
 11
246.408508768862
 21
-14.3899747253734
 31
0.0
  0
LINE
  5
   758
  8
0
  6
CONTINUOUS
 62
     7
 10
250.871011363154
 20
-14.3899747253734
 30
0.0
 11
250.871011363154
 21
-17.0149693400938
 31
0.0
  0
LINE
  5
   759
  8
0
  6
CONTINUOUS
 62
     7
 10
259.271011220103
 20
-14.3899747253733
 30
0.0
 11
259.271011220103
 21
-17.0149693400938
 31
0.0
  0
LINE
  5
   75A
  8
0
  6
CONTINUOUS
 62
     7
 10
251.483511352723
 20
-14.3899747253734
 30
0.0
 11
250.871011363154
 21
-14.3899747253734
 31
0.0
  0
LINE
  5
   75B
  8
0
  6
CONTINUOUS
 62
     7
 10
259.271011220103
 20
-14.3899747253734
 30
0.0
 11
258.658511230534
 21
-14.3899747253734
 31
0.0
  0
LINE
  5
   75C
  8
0
  6
CONTINUOUS
 62
     7
 10
250.871011363154
 20
-12.1149747641164
 30
0.0
 11
250.871011363154
 21
-14.3899747253734
 31
0.0
  0
LINE
  5
   75D
  8
0
  6
CONTINUOUS
 62
     7
 10
251.483511352723
 20
-12.1149747641164
 30
0.0
 11
251.483511352723
 21
-14.3899747253734
 31
0.0
  0
LINE
  5
   75E
  8
0
  6
CONTINUOUS
 62
     7
 10
259.271011220103
 20
-8.96497481776055
 30
0.0
 11
259.271011220103
 21
-14.3899747253733
 31
0.0
  0
LINE
  5
   75F
  8
0
  6
CONTINUOUS
 62
     7
 10
258.658511230534
 20
-8.96497481776055
 30
0.0
 11
258.658511230534
 21
-14.3899747253733
 31
0.0
  0
LINE
  5
   760
  8
0
  6
CONTINUOUS
 62
     7
 10
231.271009026652
 20
-13.5149747402745
 30
0.0
 11
231.271009026652
 21
-14.3899747253734
 31
0.0
  0
LINE
  5
   761
  8
0
  6
CONTINUOUS
 62
     7
 10
229.871009050494
 20
-13.5149747402745
 30
0.0
 11
229.871009050494
 21
-14.3899747253734
 31
0.0
  0
LINE
  5
   762
  8
0
  6
CONTINUOUS
 62
     7
 10
231.271009026652
 20
-13.5149747402745
 30
0.0
 11
229.871009050494
 21
-13.5149747402745
 31
0.0
  0
LINE
  5
   763
  8
0
  6
CONTINUOUS
 62
     7
 10
243.521008818036
 20
-13.5149747402745
 30
0.0
 11
243.521008818036
 21
-14.3899747253734
 31
0.0
  0
LINE
  5
   764
  8
0
  6
CONTINUOUS
 62
     7
 10
242.121008841877
 20
-13.5149747402745
 30
0.0
 11
242.121008841877
 21
-14.3899747253734
 31
0.0
  0
LINE
  5
   765
  8
0
  6
CONTINUOUS
 62
     7
 10
243.521008818036
 20
-13.5149747402745
 30
0.0
 11
242.121008841877
 21
-13.5149747402745
 31
0.0
  0
LINE
  5
   766
  8
0
  6
CONTINUOUS
 62
     7
 10
255.771011279707
 20
-13.5149747402745
 30
0.0
 11
255.771011279707
 21
-14.3899747253734
 31
0.0
  0
LINE
  5
   767
  8
0
  6
CONTINUOUS
 62
     7
 10
254.371011303549
 20
-13.5149747402745
 30
0.0
 11
254.371011303549
 21
-14.3899747253734
 31
0.0
  0
LINE
  5
   768
  8
0
  6
CONTINUOUS
 62
     7
 10
255.771011279707
 20
-13.5149747402745
 30
0.0
 11
254.371011303549
 21
-13.5149747402745
 31
0.0
  0
LINE
  5
   769
  8
0
  6
CONTINUOUS
 62
     7
 10
212.5459839778
 20
-5.63995351208064
 30
0.0
 11
212.5459839778
 21
-7.91495347333762
 31
0.0
  0
LINE
  5
   76A
  8
0
  6
CONTINUOUS
 62
   210
 10
249.295984687096
 20
-3.53995888841951
 30
0.0
 11
249.295984687096
 21
-3.71495354486319
 31
0.0
  0
LINE
  5
   76B
  8
0
  6
CONTINUOUS
 62
     7
 10
249.435224186677
 20
-4.23995887649858
 30
0.0
 11
249.435224186677
 21
-7.91496415448978
 31
0.0
  0
LINE
  5
   76C
  8
0
  6
CONTINUOUS
 62
     7
 10
214.733509308284
 20
-8.96497481776055
 30
0.0
 11
214.121009318715
 21
-8.96497481776055
 31
0.0
  0
LINE
  5
   76D
  8
0
  6
CONTINUOUS
 62
     7
 10
234.771008967047
 20
-12.1149747641164
 30
0.0
 11
234.158508977478
 21
-12.1149747641164
 31
0.0
  0
LINE
  5
   76E
  8
0
  6
CONTINUOUS
 62
     7
 10
239.233508891051
 20
-12.1149747641164
 30
0.0
 11
238.621008901482
 21
-12.1149747641164
 31
0.0
  0
LINE
  5
   76F
  8
0
  6
CONTINUOUS
 62
     7
 10
247.021008758431
 20
-12.1149747641164
 30
0.0
 11
246.408508768862
 21
-12.1149747641164
 31
0.0
  0
LINE
  5
   770
  8
0
  6
CONTINUOUS
 62
     7
 10
251.483511352723
 20
-12.1149747641164
 30
0.0
 11
250.871011363154
 21
-12.1149747641164
 31
0.0
  0
LINE
  5
   771
  8
0
  6
CONTINUOUS
 62
     7
 10
259.271011220103
 20
-8.96497481776055
 30
0.0
 11
258.658511230534
 21
-8.96497481776055
 31
0.0
  0
LINE
  5
   772
  8
0
  6
CONTINUOUS
 62
   210
 10
250.696000684982
 20
-4.06495353890273
 30
0.0
 11
250.696000684982
 21
-4.23995887649858
 31
0.0
  0
LINE
  5
   773
  8
0
  6
CONTINUOUS
 62
   210
 10
247.196011425739
 20
-4.06495353890273
 30
0.0
 11
247.196011425739
 21
-4.23995887649858
 31
0.0
  0
LINE
  5
   774
  8
0
  6
CONTINUOUS
 62
   210
 10
226.196001102214
 20
-4.06495353890273
 30
0.0
 11
226.196001102214
 21
-4.2399535359225
 31
0.0
  0
LINE
  5
   775
  8
0
  6
CONTINUOUS
 62
   210
 10
222.696011842971
 20
-4.06495353890273
 30
0.0
 11
222.696011842971
 21
-4.2399535359225
 31
0.0
  0
LINE
  5
   776
  8
0
  6
CONTINUOUS
 62
   210
 10
234.946016974931
 20
-4.06495353890273
 30
0.0
 11
234.946016974931
 21
-4.2399535359225
 31
0.0
  0
LINE
  5
   777
  8
0
  6
CONTINUOUS
 62
   210
 10
238.44601157475
 20
-4.06495353890273
 30
0.0
 11
238.44601157475
 21
-4.2399535359225
 31
0.0
  0
LINE
  5
   778
  8
0
  6
CONTINUOUS
 62
     7
 10
225.058485099858
 20
-7.9149588139137
 30
0.0
 11
225.058485099858
 21
-20.8649746151048
 31
0.0
  0
LINE
  5
   779
  8
0
  6
CONTINUOUS
 62
     7
 10
223.833485120719
 20
-7.9149588139137
 30
0.0
 11
223.833485120719
 21
-20.8649746151048
 31
0.0
  0
LINE
  5
   77A
  8
0
  6
CONTINUOUS
 62
     7
 10
226.371009110098
 20
-12.1149747641164
 30
0.0
 11
226.371009110098
 21
-14.3899747253734
 31
0.0
  0
LINE
  5
   77B
  8
0
  6
CONTINUOUS
 62
     7
 10
226.371009110098
 20
-14.3899747253734
 30
0.0
 11
226.371009110098
 21
-17.0149693400938
 31
0.0
  0
LINE
  5
   77C
  8
0
  6
CONTINUOUS
 62
     7
 10
226.983509099668
 20
-14.3899747253734
 30
0.0
 11
226.371009110098
 21
-14.3899747253734
 31
0.0
  0
LINE
  5
   77D
  8
0
  6
CONTINUOUS
 62
     7
 10
226.983509099668
 20
-12.1149747641164
 30
0.0
 11
226.983509099668
 21
-14.3899747253734
 31
0.0
  0
LINE
  5
   77E
  8
0
  6
CONTINUOUS
 62
     7
 10
226.983509099668
 20
-12.1149747641164
 30
0.0
 11
226.371009110098
 21
-12.1149747641164
 31
0.0
  0
LINE
  5
   77F
  8
0
  6
CONTINUOUS
 62
     7
 10
219.021009235268
 20
-13.5149747402745
 30
0.0
 11
219.021009235268
 21
-14.3899747253734
 31
0.0
  0
LINE
  5
   780
  8
0
  6
CONTINUOUS
 62
     7
 10
217.62100925911
 20
-13.5149747402745
 30
0.0
 11
217.62100925911
 21
-14.3899747253734
 31
0.0
  0
LINE
  5
   781
  8
0
  6
CONTINUOUS
 62
     7
 10
219.021009235268
 20
-13.5149747402745
 30
0.0
 11
217.62100925911
 21
-13.5149747402745
 31
0.0
  0
LINE
  5
   782
  8
0
  6
CONTINUOUS
 62
     7
 10
221.908509186094
 20
-12.1149747641164
 30
0.0
 11
221.908509186094
 21
-14.3899747253734
 31
0.0
  0
LINE
  5
   783
  8
0
  6
CONTINUOUS
 62
     7
 10
222.521009175663
 20
-12.1149747641164
 30
0.0
 11
221.908509186094
 21
-12.1149747641164
 31
0.0
  0
LINE
  5
   784
  8
0
  6
CONTINUOUS
 62
     7
 10
222.521009175663
 20
-12.1149747641164
 30
0.0
 11
222.521009175663
 21
-14.3899747253734
 31
0.0
  0
LINE
  5
   785
  8
0
  6
CONTINUOUS
 62
     7
 10
222.521009175663
 20
-14.3899747253734
 30
0.0
 11
222.521009175663
 21
-17.0149693400938
 31
0.0
  0
LINE
  5
   786
  8
0
  6
CONTINUOUS
 62
     7
 10
222.521009175663
 20
-14.3899747253734
 30
0.0
 11
221.908509186094
 21
-14.3899747253734
 31
0.0
  0
LINE
  5
   787
  8
0
  6
CONTINUOUS
 62
     7
 10
214.121006648427
 20
-4.06495353890273
 30
0.0
 11
213.946011991983
 21
-4.06495353890273
 31
0.0
  0
LINE
  5
   788
  8
0
  6
CONTINUOUS
 62
   210
 10
259.271011220103
 20
-4.06495353890273
 30
0.0
 11
250.696000684982
 21
-4.06495353890273
 31
0.0
  0
LINE
  5
   789
  8
0
  6
CONTINUOUS
 62
   210
 10
212.5459839778
 20
-3.53995888841951
 30
0.0
 11
212.5459839778
 21
-5.63995351208064
 31
0.0
  0
LINE
  5
   78A
  8
0
  6
CONTINUOUS
 62
     7
 10
248.070984707957
 20
-4.23995887649858
 30
0.0
 11
248.070984707957
 21
-7.91495347333762
 31
0.0
  0
LINE
  5
   78B
  8
0
  6
CONTINUOUS
 62
   210
 10
249.435224186677
 20
-4.23995887649858
 30
0.0
 11
247.196008755451
 21
-4.23995887649858
 31
0.0
  0
LINE
  5
   78C
  8
0
  6
CONTINUOUS
 62
   210
 10
259.44600053597
 20
-4.06495353890273
 30
0.0
 11
259.44600053597
 21
-5.63995885265672
 31
0.0
  0
LINE
  5
   78D
  8
0
  6
CONTINUOUS
 62
     3
 10
275.999263739603
 20
-21.5649692626077
 30
0.0
 11
211.220968671065
 21
-21.5649692626077
 31
0.0
  0
LINE
  5
   78E
  8
0
  6
CONTINUOUS
 62
   130
 10
271.871023906242
 20
-4.7649535269818
 30
0.0
 11
259.271011220103
 21
-4.7649535269818
 31
0.0
  0
LINE
  5
   78F
  8
0
  6
CONTINUOUS
 62
   130
 10
271.871023906242
 20
-4.7649535269818
 30
0.0
 11
271.871023906242
 21
-21.5649692626077
 31
0.0
  0
LINE
  5
   790
  8
0
  6
DASHDOT
 62
     7
 10
273.893392770081
 20
-3.53996956957167
 30
0.0
 11
205.554043286699
 21
-3.53996956957167
 31
0.0
  0
LINE
  5
   791
  8
0
  6
DASHDOT
 62
     7
 10
273.893392770081
 20
-2.48996958745306
 30
0.0
 11
205.554043286699
 21
-2.48996958745306
 31
0.0
  0
LINE
  5
   792
  8
0
  6
CONTINUOUS
 62
     3
 10
273.893392770081
 20
8.81475404775749E-2
 30
0.0
 11
273.893392770081
 21
-5.61560032985111
 31
0.0
  0
LINE
  5
   793
  8
0
  6
CONTINUOUS
 62
     3
 10
205.554043286699
 20
-0.65122718345393
 30
0.0
 11
205.554043286699
 21
-5.8268502509744
 31
0.0
  0
LINE
  5
   794
  8
0
  6
CONTINUOUS
 62
   210
 10
221.821011857872
 20
-16.1399693549949
 30
0.0
 11
214.821011977082
 21
-16.1399693549949
 31
0.0
  0
LINE
  5
   795
  8
0
  6
CONTINUOUS
 62
     2
 10
221.558506521767
 20
-16.6649693460543
 30
0.0
 11
215.083506632035
 21
-16.6649693460543
 31
0.0
  0
LINE
  5
   796
  8
0
  6
CONTINUOUS
 62
   210
 10
221.821011857872
 20
-14.3899693847973
 30
0.0
 11
221.821011857872
 21
-16.1399693549949
 31
0.0
  0
LINE
  5
   797
  8
0
  6
CONTINUOUS
 62
   210
 10
214.821011977082
 20
-14.3899693847973
 30
0.0
 11
214.821011977082
 21
-16.1399693549949
 31
0.0
  0
LINE
  5
   798
  8
0
  6
CONTINUOUS
 62
   210
 10
221.383511865323
 20
-14.3899693847973
 30
0.0
 11
221.383511865323
 21
-16.1399693549949
 31
0.0
  0
LINE
  5
   799
  8
0
  6
CONTINUOUS
 62
   210
 10
215.258511969631
 20
-14.3899693847973
 30
0.0
 11
215.258511969631
 21
-16.1399693549949
 31
0.0
  0
LINE
  5
   79A
  8
0
  6
CONTINUOUS
 62
   210
 10
227.071011768466
 20
-14.3899693847973
 30
0.0
 11
227.071011768466
 21
-16.1399693549949
 31
0.0
  0
LINE
  5
   79B
  8
0
  6
CONTINUOUS
 62
   210
 10
239.321011559849
 20
-14.3899693847973
 30
0.0
 11
239.321011559849
 21
-16.1399693549949
 31
0.0
  0
LINE
  5
   79C
  8
0
  6
CONTINUOUS
 62
   210
 10
251.571011351233
 20
-14.3899693847973
 30
0.0
 11
251.571011351233
 21
-16.1399693549949
 31
0.0
  0
LINE
  5
   79D
  8
0
  6
CONTINUOUS
 62
   210
 10
227.508511761015
 20
-14.3899693847973
 30
0.0
 11
227.508511761015
 21
-16.1399693549949
 31
0.0
  0
LINE
  5
   79E
  8
0
  6
CONTINUOUS
 62
   210
 10
239.758511552399
 20
-14.3899693847973
 30
0.0
 11
239.758511552399
 21
-16.1399693549949
 31
0.0
  0
LINE
  5
   79F
  8
0
  6
CONTINUOUS
 62
   210
 10
252.008511343782
 20
-14.3899693847973
 30
0.0
 11
252.008511343782
 21
-16.1399693549949
 31
0.0
  0
LINE
  5
   7A0
  8
0
  6
CONTINUOUS
 62
   210
 10
233.633511656707
 20
-14.3899693847973
 30
0.0
 11
233.633511656707
 21
-16.1399693549949
 31
0.0
  0
LINE
  5
   7A1
  8
0
  6
CONTINUOUS
 62
   210
 10
245.883511448091
 20
-14.3899693847973
 30
0.0
 11
245.883511448091
 21
-16.1399693549949
 31
0.0
  0
LINE
  5
   7A2
  8
0
  6
CONTINUOUS
 62
   210
 10
258.133511239474
 20
-14.3899693847973
 30
0.0
 11
258.133511239474
 21
-16.1399693549949
 31
0.0
  0
LINE
  5
   7A3
  8
0
  6
CONTINUOUS
 62
   210
 10
234.071011649256
 20
-14.3899693847973
 30
0.0
 11
234.071011649256
 21
-16.1399693549949
 31
0.0
  0
LINE
  5
   7A4
  8
0
  6
CONTINUOUS
 62
   210
 10
246.32101144064
 20
-14.3899693847973
 30
0.0
 11
246.32101144064
 21
-16.1399693549949
 31
0.0
  0
LINE
  5
   7A5
  8
0
  6
CONTINUOUS
 62
   210
 10
258.571011232024
 20
-14.3899693847973
 30
0.0
 11
258.571011232024
 21
-16.1399693549949
 31
0.0
  0
LINE
  5
   7A6
  8
0
  6
CONTINUOUS
 62
   210
 10
234.071011649256
 20
-16.1399693549949
 30
0.0
 11
227.071011768466
 21
-16.1399693549949
 31
0.0
  0
LINE
  5
   7A7
  8
0
  6
CONTINUOUS
 62
   210
 10
246.32101144064
 20
-16.1399693549949
 30
0.0
 11
239.321011559849
 21
-16.1399693549949
 31
0.0
  0
LINE
  5
   7A8
  8
0
  6
CONTINUOUS
 62
   210
 10
258.571011232024
 20
-16.1399693549949
 30
0.0
 11
251.571011351233
 21
-16.1399693549949
 31
0.0
  0
LINE
  5
   7A9
  8
0
  6
CONTINUOUS
 62
     2
 10
233.80850631315
 20
-16.6649693460543
 30
0.0
 11
227.333506423419
 21
-16.6649693460543
 31
0.0
  0
LINE
  5
   7AA
  8
0
  6
CONTINUOUS
 62
     2
 10
246.058506104534
 20
-16.6649693460543
 30
0.0
 11
239.583506214803
 21
-16.6649693460543
 31
0.0
  0
LINE
  5
   7AB
  8
0
  6
CONTINUOUS
 62
     2
 10
258.308505895918
 20
-16.6649693460543
 30
0.0
 11
251.833506006187
 21
-16.6649693460543
 31
0.0
  0
INSERT
  5
   7AC
  8
0
  6
CONTINUOUS
 62
     7
  2
*UDIM624
 10
0.0
 20
0.0
 30
0.0
  0
INSERT
  5
   7AD
  8
0
  6
CONTINUOUS
 62
     7
  2
*UDIM625
 10
0.0
 20
0.0
 30
0.0
  0
INSERT
  5
   7AE
  8
0
  6
CONTINUOUS
 62
     7
  2
*UDIM626
 10
0.0
 20
0.0
 30
0.0
  0
TEXT
  5
   7AF
  8
0
  6
CONTINUOUS
 62
     7
 10
241.858686354072
 20
8.04098702922347
 30
0.0
 40
2.99999997871263
  1
Y
 50
359.999999896069
 41
0.91666663951344
 72
     2
 11
244.058686289785
 21
8.04098702524386
 31
0.0
  0
ENDSEC
  0
EOF
