  0
SECTION
  2
HEADER
  9
$ACADVER
  1
AC1009
  9
$INSBASE
 10
0.0
 20
0.0
 30
0.0
  9
$EXTMIN
 10
0.237099
 20
0.083288
 30
0.0
  9
$EXTMAX
 10
392.237099
 20
262.737999
 30
0.0
  9
$LIMMIN
 10
0.0
 20
0.0
  9
$LIMMAX
 10
12.0
 20
9.0
  9
$ORTHOMODE
 70
     0
  9
$REGENMODE
 70
     1
  9
$FILLMODE
 70
     1
  9
$QTEXTMODE
 70
     0
  9
$MIRRTEXT
 70
     1
  9
$DRAGMODE
 70
     2
  9
$LTSCALE
 40
5.0
  9
$OSMODE
 70
     0
  9
$ATTMODE
 70
     1
  9
$TEXTSIZE
 40
2.0
  9
$TRACEWID
 40
0.05
  9
$TEXTSTYLE
  7
ROMANS
  9
$CLAYER
  8
0
  9
$CELTYPE
  6
DASHED
  9
$CECOLOR
 62
   256
  9
$DIMSCALE
 40
1.0
  9
$DIMASZ
 40
0.18
  9
$DIMEXO
 40
0.0625
  9
$DIMDLI
 40
0.38
  9
$DIMRND
 40
0.0
  9
$DIMDLE
 40
0.0
  9
$DIMEXE
 40
0.18
  9
$DIMTP
 40
0.0
  9
$DIMTM
 40
0.0
  9
$DIMTXT
 40
0.18
  9
$DIMCEN
 40
0.09
  9
$DIMTSZ
 40
0.0
  9
$DIMTOL
 70
     0
  9
$DIMLIM
 70
     0
  9
$DIMTIH
 70
     1
  9
$DIMTOH
 70
     1
  9
$DIMSE1
 70
     0
  9
$DIMSE2
 70
     0
  9
$DIMTAD
 70
     0
  9
$DIMZIN
 70
     0
  9
$DIMBLK
  1

  9
$DIMASO
 70
     1
  9
$DIMSHO
 70
     1
  9
$DIMPOST
  1

  9
$DIMAPOST
  1

  9
$DIMALT
 70
     0
  9
$DIMALTD
 70
     2
  9
$DIMALTF
 40
25.4
  9
$DIMLFAC
 40
1.0
  9
$DIMTOFL
 70
     0
  9
$DIMTVP
 40
0.0
  9
$DIMTIX
 70
     0
  9
$DIMSOXD
 70
     0
  9
$DIMSAH
 70
     0
  9
$DIMBLK1
  1

  9
$DIMBLK2
  1

  9
$DIMSTYLE
  2
*UNNAMED
  9
$DIMCLRD
 70
     0
  9
$DIMCLRE
 70
     0
  9
$DIMCLRT
 70
     0
  9
$DIMTFAC
 40
1.0
  9
$DIMGAP
 40
0.09
  9
$LUNITS
 70
     2
  9
$LUPREC
 70
     4
  9
$SKETCHINC
 40
0.1
  9
$FILLETRAD
 40
2.0
  9
$AUNITS
 70
     0
  9
$AUPREC
 70
     0
  9
$MENU
  1
acad
  9
$ELEVATION
 40
0.0
  9
$PELEVATION
 40
0.0
  9
$THICKNESS
 40
0.0
  9
$LIMCHECK
 70
     0
  9
$BLIPMODE
 70
     1
  9
$CHAMFERA
 40
0.0
  9
$CHAMFERB
 40
0.0
  9
$SKPOLY
 70
     0
  9
$TDCREATE
 40
2450137.378299305
  9
$TDUPDATE
 40
2450137.378299305
  9
$TDINDWG
 40
0.0000000000
  9
$TDUSRTIMER
 40
0.0000000000
  9
$USRTIMER
 70
     1
  9
$ANGBASE
 50
0.0
  9
$ANGDIR
 70
     0
  9
$PDMODE
 70
     0
  9
$PDSIZE
 40
0.0
  9
$PLINEWID
 40
0.0
  9
$COORDS
 70
     0
  9
$SPLFRAME
 70
     0
  9
$SPLINETYPE
 70
     6
  9
$SPLINESEGS
 70
     8
  9
$ATTDIA
 70
     0
  9
$ATTREQ
 70
     1
  9
$HANDLING
 70
     0
  9
$HANDSEED
  5
0
  9
$SURFTAB1
 70
   250
  9
$SURFTAB2
 70
   250
  9
$SURFTYPE
 70
     6
  9
$SURFU
 70
     6
  9
$SURFV
 70
     6
  9
$UCSNAME
  2

  9
$UCSORG
 10
0.0
 20
0.0
 30
0.0
  9
$UCSXDIR
 10
1.0
 20
0.0
 30
0.0
  9
$UCSYDIR
 10
0.0
 20
1.0
 30
0.0
  9
$PUCSNAME
  2

  9
$PUCSORG
 10
0.0
 20
0.0
 30
0.0
  9
$PUCSXDIR
 10
1.0
 20
0.0
 30
0.0
  9
$PUCSYDIR
 10
0.0
 20
1.0
 30
0.0
  9
$USERI1
 70
     0
  9
$USERI2
 70
     0
  9
$USERI3
 70
     0
  9
$USERI4
 70
     0
  9
$USERI5
 70
     0
  9
$USERR1
 40
0.0
  9
$USERR2
 40
0.0
  9
$USERR3
 40
0.0
  9
$USERR4
 40
0.0
  9
$USERR5
 40
0.0
  9
$WORLDVIEW
 70
     1
  9
$SHADEDGE
 70
     3
  9
$SHADEDIF
 70
    70
  9
$TILEMODE
 70
     1
  9
$MAXACTVP
 70
    16
  9
$PINSBASE
 10
0.0
 20
0.0
 30
0.0
  9
$PLIMCHECK
 70
     0
  9
$PEXTMIN
 10
1.000000E+20
 20
1.000000E+20
 30
1.000000E+20
  9
$PEXTMAX
 10
-1.000000E+20
 20
-1.000000E+20
 30
-1.000000E+20
  9
$PLIMMIN
 10
0.0
 20
0.0
  9
$PLIMMAX
 10
12.0
 20
9.0
  9
$UNITMODE
 70
     0
  9
$VISRETAIN
 70
     0
  9
$PLINEGEN
 70
     0
  9
$PSLTSCALE
 70
     0
  9
$TREEDEPTH
 70
  3020
  9
$DWGCODEPAGE
  3
undefined
  0
ENDSEC
  0
SECTION
  2
TABLES
  0
TABLE
  2
VPORT
 70
     2
  0
VPORT
  2
*ACTIVE
 70
     0
 10
0.0
 20
0.0
 11
1.0
 21
1.0
 12
250.65841
 22
159.931886
 13
0.0
 23
0.0
 14
2.5
 24
2.5
 15
0.0
 25
0.0
 16
0.0
 26
0.0
 36
1.0
 17
0.0
 27
0.0
 37
0.0
 40
319.697197
 41
1.566616
 42
50.0
 43
0.0
 44
0.0
 50
0.0
 51
0.0
 71
     0
 72
   100
 73
     1
 74
     1
 75
     1
 76
     0
 77
     0
 78
     0
  0
ENDTAB
  0
TABLE
  2
LTYPE
 70
     7
  0
LTYPE
  2
CONTINUOUS
 70
    64
  3
Solid line
 72
    65
 73
     0
 40
0.0
  0
LTYPE
  2
DASHED
 70
    64
  3
__ __ __ __ __ __ __ __ __ __ __ __ __ __ __ __
 72
    65
 73
     2
 40
0.75
 49
0.5
 49
-0.25
  0
LTYPE
  2
CENTER
 70
    64
  3
____ _ ____ _ ____ _ ____ _ ____ _ ____ _ ____ 
 72
    65
 73
     4
 40
2.0
 49
1.25
 49
-0.25
 49
0.25
 49
-0.25
  0
LTYPE
  2
HIDDEN
 70
    64
  3
__ __ __ __ __ __ __ __ __ __ __ __ __ __ __ __
 72
    65
 73
     2
 40
0.375
 49
0.25
 49
-0.125
  0
LTYPE
  2
DOT
 70
     0
  3
. . . . . . . . . . . . . . . . . . . . . . . .
 72
    65
 73
     2
 40
0.25
 49
0.0
 49
-0.25
  0
LTYPE
  2
DASHDOT
 70
     0
  3
__ . __ . __ . __ . __ . __ . __ . __ . __ . __
 72
    65
 73
     4
 40
1.0
 49
0.5
 49
-0.25
 49
0.0
 49
-0.25
  0
LTYPE
  2
PHANTOM
 70
     0
  3
______  __  __  ______  __  __  ______  __  __ 
 72
    65
 73
     6
 40
2.5
 49
1.25
 49
-0.25
 49
0.25
 49
-0.25
 49
0.25
 49
-0.25
  0
ENDTAB
  0
TABLE
  2
LAYER
 70
    13
  0
LAYER
  2
0
 70
    64
 62
     7
  6
CONTINUOUS
  0
LAYER
  2
RAAMI
 70
    64
 62
    -4
  6
CONTINUOUS
  0
LAYER
  2
PAKSU
 70
    64
 62
    -3
  6
CONTINUOUS
  0
LAYER
  2
OHUT
 70
    64
 62
    -6
  6
CONTINUOUS
  0
LAYER
  2
SWEDEN
 70
    64
 62
    -7
  6
CONTINUOUS
  0
LAYER
  2
SWEDEN2
 70
    64
 62
    -5
  6
CONTINUOUS
  0
LAYER
  2
BASE
 70
    64
 62
    -7
  6
CONTINUOUS
  0
LAYER
  2
21
 70
    64
 62
    -2
  6
CONTINUOUS
  0
LAYER
  2
HEL035
 70
    64
 62
    -7
  6
CONTINUOUS
  0
LAYER
  2
MUO
 70
    64
 62
    -7
  6
CONTINUOUS
  0
LAYER
  2
1
 70
    64
 62
    -2
  6
CONTINUOUS
  0
LAYER
  2
BASE1
 70
    64
 62
    -5
  6
CONTINUOUS
  0
LAYER
  2
TEKS
 70
    64
 62
    -5
  6
CONTINUOUS
  0
ENDTAB
  0
TABLE
  2
STYLE
 70
     4
  0
STYLE
  2
STANDARD
 70
    64
 40
0.0
 41
1.0
 50
0.0
 71
     0
 42
2.5
  3
txt
  4

  0
STYLE
  2
ROMANS
 70
    64
 40
0.0
 41
1.0
 50
0.0
 71
     0
 42
2.0
  3
romans
  4

  0
STYLE
  2
GREEKC
 70
     0
 40
0.0
 41
1.0
 50
0.0
 71
     0
 42
1.5
  3
GREEKC
  4

  0
STYLE
  2
GREEKS
 70
    64
 40
0.0
 41
1.0
 50
0.0
 71
     0
 42
2.0
  3
TXT
  4

  0
ENDTAB
  0
TABLE
  2
VIEW
 70
     0
  0
ENDTAB
  0
TABLE
  2
UCS
 70
     0
  0
ENDTAB
  0
TABLE
  2
APPID
 70
     1
  0
APPID
  2
ACAD
 70
    64
  0
ENDTAB
  0
TABLE
  2
DIMSTYLE
 70
     0
  0
ENDTAB
  0
ENDSEC
  0
SECTION
  2
BLOCKS
  0
BLOCK
  8
0
  2
1
 70
    64
 10
0.0
 20
0.0
 30
0.0
  3
1
  0
ENDBLK
  8
0
  0
BLOCK
  8
0
  2
BLC27
 70
    64
 10
0.0
 20
0.0
 30
0.0
  3
BLC27
  0
INSERT
  8
SWEDEN2
  6
CENTER
  2
BLC26
 10
0.08063
 20
0.037985
 30
0.0
 41
1.006225
 42
1.006225
 43
1.006225
  0
ENDBLK
  8
0
  0
BLOCK
  8
0
  2
BLC26
 70
    64
 10
0.0
 20
0.0
 30
0.0
  3
BLC26
  0
ARC
  8
0
  6
CONTINUOUS
 10
-0.180576
 20
1.17922
 30
0.0
 40
1.196859
 50
90.0
 51
265.706237
  0
LINE
  8
0
  6
CONTINUOUS
 10
-0.186638
 20
-0.01092
 30
0.0
 11
0.458942
 21
-0.01092
 31
0.0
  0
LINE
  8
0
  6
CONTINUOUS
 10
-0.186638
 20
2.375671
 30
0.0
 11
0.45288
 21
2.375671
 31
0.0
  0
LINE
  8
0
  6
CONTINUOUS
 10
-0.185509
 20
-2.404629
 30
0.0
 11
0.460071
 21
-2.404629
 31
0.0
  0
ARC
  8
0
  6
CONTINUOUS
 10
-0.180576
 20
-1.207779
 30
0.0
 40
1.196859
 50
90.0
 51
270.0
  0
LINE
  8
0
  6
CONTINUOUS
 10
0.451525
 20
-2.404586
 30
0.0
 11
1.401805
 21
-2.404586
 31
0.0
  0
LINE
  8
0
  6
CONTINUOUS
 10
0.446785
 20
2.375674
 30
0.0
 11
1.418544
 21
2.375674
 31
0.0
  0
LINE
  8
0
  6
CONTINUOUS
 10
0.456627
 20
-0.010911
 30
0.0
 11
1.422749
 21
-0.010911
 31
0.0
  0
ENDBLK
  8
0
  0
BLOCK
  8
0
  2
BLC29
 70
    64
 10
0.0
 20
0.0
 30
0.0
  3
BLC29
  0
LINE
  8
0
  6
CONTINUOUS
 10
0.004865
 20
1.206889
 30
0.0
 11
2.350631
 21
-0.128465
 31
0.0
  0
LINE
  8
0
  6
CONTINUOUS
 10
2.350631
 20
-0.128465
 30
0.0
 11
0.004865
 21
-1.318384
 31
0.0
  0
ENDBLK
  8
0
  0
BLOCK
  8
0
  2
WKU130
 70
    64
 10
190.0
 20
250.0
 30
0.0
  3
WKU130
  0
ARC
  8
21
 10
191.083333
 20
249.916667
 30
0.0
 40
1.086534
 50
32.471192
 51
175.601295
  0
ARC
  8
21
 10
192.916667
 20
251.083333
 30
0.0
 40
1.086534
 50
212.471192
 51
355.601295
  0
ENDBLK
  8
0
  0
BLOCK
  8
0
  2
*X5
 70
    65
 10
0.0
 20
0.0
 30
0.0
  3
*X
  0
LINE
  8
0
 62
     0
 10
2.284499
 20
6.52714
 30
0.0
 11
4.8
 21
9.042641
 31
0.0
  0
LINE
  8
0
 62
     0
 10
2.379686
 20
6.799104
 30
0.0
 11
4.8
 21
9.219417
 31
0.0
  0
LINE
  8
0
 62
     0
 10
2.474874
 20
7.071068
 30
0.0
 11
4.8
 21
9.396194
 31
0.0
  0
LINE
  8
0
 62
     0
 10
2.570061
 20
7.343032
 30
0.0
 11
4.8
 21
9.572971
 31
0.0
  0
LINE
  8
0
 62
     0
 10
2.665249
 20
7.614996
 30
0.0
 11
4.8
 21
9.749747
 31
0.0
  0
LINE
  8
0
 62
     0
 10
2.760436
 20
7.88696
 30
0.0
 11
4.8
 21
9.926524
 31
0.0
  0
LINE
  8
0
 62
     0
 10
2.855624
 20
8.158924
 30
0.0
 11
4.696699
 21
10.0
 31
0.0
  0
LINE
  8
0
 62
     0
 10
2.950811
 20
8.430889
 30
0.0
 11
4.519922
 21
10.0
 31
0.0
  0
LINE
  8
0
 62
     0
 10
3.045998
 20
8.702853
 30
0.0
 11
4.343146
 21
10.0
 31
0.0
  0
LINE
  8
0
 62
     0
 10
3.141186
 20
8.974817
 30
0.0
 11
4.166369
 21
10.0
 31
0.0
  0
LINE
  8
0
 62
     0
 10
3.236373
 20
9.246781
 30
0.0
 11
3.989592
 21
10.0
 31
0.0
  0
LINE
  8
0
 62
     0
 10
3.331561
 20
9.518745
 30
0.0
 11
3.812816
 21
10.0
 31
0.0
  0
LINE
  8
0
 62
     0
 10
3.426748
 20
9.790709
 30
0.0
 11
3.636039
 21
10.0
 31
0.0
  0
LINE
  8
0
 62
     0
 10
2.189311
 20
6.255175
 30
0.0
 11
4.8
 21
8.865864
 31
0.0
  0
LINE
  8
0
 62
     0
 10
2.094124
 20
5.983211
 30
0.0
 11
4.8
 21
8.689087
 31
0.0
  0
LINE
  8
0
 62
     0
 10
1.998936
 20
5.711247
 30
0.0
 11
4.8
 21
8.512311
 31
0.0
  0
LINE
  8
0
 62
     0
 10
1.903749
 20
5.439283
 30
0.0
 11
4.8
 21
8.335534
 31
0.0
  0
LINE
  8
0
 62
     0
 10
1.841243
 20
5.2
 30
0.0
 11
4.8
 21
8.158757
 31
0.0
  0
LINE
  8
0
 62
     0
 10
2.018019
 20
5.2
 30
0.0
 11
4.8
 21
7.981981
 31
0.0
  0
LINE
  8
0
 62
     0
 10
2.194796
 20
5.2
 30
0.0
 11
4.8
 21
7.805204
 31
0.0
  0
LINE
  8
0
 62
     0
 10
2.371573
 20
5.2
 30
0.0
 11
4.8
 21
7.628427
 31
0.0
  0
LINE
  8
0
 62
     0
 10
2.54835
 20
5.2
 30
0.0
 11
4.8
 21
7.45165
 31
0.0
  0
LINE
  8
0
 62
     0
 10
2.725126
 20
5.2
 30
0.0
 11
4.8
 21
7.274874
 31
0.0
  0
LINE
  8
0
 62
     0
 10
2.901903
 20
5.2
 30
0.0
 11
4.8
 21
7.098097
 31
0.0
  0
LINE
  8
0
 62
     0
 10
3.07868
 20
5.2
 30
0.0
 11
4.8
 21
6.92132
 31
0.0
  0
LINE
  8
0
 62
     0
 10
3.255456
 20
5.2
 30
0.0
 11
4.8
 21
6.744544
 31
0.0
  0
LINE
  8
0
 62
     0
 10
3.432233
 20
5.2
 30
0.0
 11
4.8
 21
6.567767
 31
0.0
  0
LINE
  8
0
 62
     0
 10
3.60901
 20
5.2
 30
0.0
 11
4.8
 21
6.39099
 31
0.0
  0
LINE
  8
0
 62
     0
 10
3.785786
 20
5.2
 30
0.0
 11
4.8
 21
6.214214
 31
0.0
  0
LINE
  8
0
 62
     0
 10
3.962563
 20
5.2
 30
0.0
 11
4.8
 21
6.037437
 31
0.0
  0
LINE
  8
0
 62
     0
 10
4.13934
 20
5.2
 30
0.0
 11
4.8
 21
5.86066
 31
0.0
  0
LINE
  8
0
 62
     0
 10
4.316117
 20
5.2
 30
0.0
 11
4.8
 21
5.683883
 31
0.0
  0
LINE
  8
0
 62
     0
 10
4.492893
 20
5.2
 30
0.0
 11
4.8
 21
5.507107
 31
0.0
  0
LINE
  8
0
 62
     0
 10
4.66967
 20
5.2
 30
0.0
 11
4.8
 21
5.33033
 31
0.0
  0
ENDBLK
  8
0
  0
BLOCK
  8
0
  2
*X6
 70
    65
 10
0.0
 20
0.0
 30
0.0
  3
*X
  0
LINE
  8
0
 62
     0
 10
5.2
 20
6.083883
 30
0.0
 11
7.178252
 21
8.062136
 31
0.0
  0
LINE
  8
0
 62
     0
 10
5.2
 20
6.26066
 30
0.0
 11
7.132421
 21
8.193082
 31
0.0
  0
LINE
  8
0
 62
     0
 10
5.2
 20
6.437437
 30
0.0
 11
7.08659
 21
8.324027
 31
0.0
  0
LINE
  8
0
 62
     0
 10
5.2
 20
6.614214
 30
0.0
 11
7.040759
 21
8.454973
 31
0.0
  0
LINE
  8
0
 62
     0
 10
5.2
 20
6.79099
 30
0.0
 11
6.994928
 21
8.585919
 31
0.0
  0
LINE
  8
0
 62
     0
 10
5.2
 20
6.967767
 30
0.0
 11
6.949097
 21
8.716864
 31
0.0
  0
LINE
  8
0
 62
     0
 10
5.2
 20
7.144544
 30
0.0
 11
6.903266
 21
8.84781
 31
0.0
  0
LINE
  8
0
 62
     0
 10
5.2
 20
7.32132
 30
0.0
 11
6.857435
 21
8.978756
 31
0.0
  0
LINE
  8
0
 62
     0
 10
5.2
 20
7.498097
 30
0.0
 11
6.811604
 21
9.109702
 31
0.0
  0
LINE
  8
0
 62
     0
 10
5.2
 20
7.674874
 30
0.0
 11
6.765773
 21
9.240647
 31
0.0
  0
LINE
  8
0
 62
     0
 10
5.2
 20
7.85165
 30
0.0
 11
6.719942
 21
9.371593
 31
0.0
  0
LINE
  8
0
 62
     0
 10
5.2
 20
8.028427
 30
0.0
 11
6.674111
 21
9.502539
 31
0.0
  0
LINE
  8
0
 62
     0
 10
5.2
 20
8.205204
 30
0.0
 11
6.62828
 21
9.633484
 31
0.0
  0
LINE
  8
0
 62
     0
 10
5.2
 20
8.381981
 30
0.0
 11
6.582449
 21
9.76443
 31
0.0
  0
LINE
  8
0
 62
     0
 10
5.2
 20
8.558757
 30
0.0
 11
6.536619
 21
9.895376
 31
0.0
  0
LINE
  8
0
 62
     0
 10
5.2
 20
8.735534
 30
0.0
 11
6.464466
 21
10.0
 31
0.0
  0
LINE
  8
0
 62
     0
 10
5.2
 20
8.912311
 30
0.0
 11
6.287689
 21
10.0
 31
0.0
  0
LINE
  8
0
 62
     0
 10
5.2
 20
9.089087
 30
0.0
 11
6.110913
 21
10.0
 31
0.0
  0
LINE
  8
0
 62
     0
 10
5.2
 20
9.265864
 30
0.0
 11
5.934136
 21
10.0
 31
0.0
  0
LINE
  8
0
 62
     0
 10
5.2
 20
9.442641
 30
0.0
 11
5.757359
 21
10.0
 31
0.0
  0
LINE
  8
0
 62
     0
 10
5.2
 20
9.619417
 30
0.0
 11
5.580583
 21
10.0
 31
0.0
  0
LINE
  8
0
 62
     0
 10
5.2
 20
9.796194
 30
0.0
 11
5.403806
 21
10.0
 31
0.0
  0
LINE
  8
0
 62
     0
 10
5.2
 20
9.972971
 30
0.0
 11
5.227029
 21
10.0
 31
0.0
  0
LINE
  8
0
 62
     0
 10
5.2
 20
5.907107
 30
0.0
 11
7.224083
 21
7.93119
 31
0.0
  0
LINE
  8
0
 62
     0
 10
5.2
 20
5.73033
 30
0.0
 11
7.269914
 21
7.800245
 31
0.0
  0
LINE
  8
0
 62
     0
 10
5.2
 20
5.553553
 30
0.0
 11
7.315745
 21
7.669299
 31
0.0
  0
LINE
  8
0
 62
     0
 10
5.2
 20
5.376777
 30
0.0
 11
7.361576
 21
7.538353
 31
0.0
  0
LINE
  8
0
 62
     0
 10
5.2
 20
5.2
 30
0.0
 11
7.407407
 21
7.407407
 31
0.0
  0
LINE
  8
0
 62
     0
 10
5.376777
 20
5.2
 30
0.0
 11
7.453238
 21
7.276462
 31
0.0
  0
LINE
  8
0
 62
     0
 10
5.553553
 20
5.2
 30
0.0
 11
7.499069
 21
7.145516
 31
0.0
  0
LINE
  8
0
 62
     0
 10
5.73033
 20
5.2
 30
0.0
 11
7.5449
 21
7.01457
 31
0.0
  0
LINE
  8
0
 62
     0
 10
5.907107
 20
5.2
 30
0.0
 11
7.590731
 21
6.883625
 31
0.0
  0
LINE
  8
0
 62
     0
 10
6.083883
 20
5.2
 30
0.0
 11
7.636562
 21
6.752679
 31
0.0
  0
LINE
  8
0
 62
     0
 10
6.26066
 20
5.2
 30
0.0
 11
7.682393
 21
6.621733
 31
0.0
  0
LINE
  8
0
 62
     0
 10
6.437437
 20
5.2
 30
0.0
 11
7.728224
 21
6.490788
 31
0.0
  0
LINE
  8
0
 62
     0
 10
6.614214
 20
5.2
 30
0.0
 11
7.774055
 21
6.359842
 31
0.0
  0
LINE
  8
0
 62
     0
 10
6.79099
 20
5.2
 30
0.0
 11
7.819886
 21
6.228896
 31
0.0
  0
LINE
  8
0
 62
     0
 10
6.967767
 20
5.2
 30
0.0
 11
7.865717
 21
6.09795
 31
0.0
  0
LINE
  8
0
 62
     0
 10
7.144544
 20
5.2
 30
0.0
 11
7.911548
 21
5.967005
 31
0.0
  0
LINE
  8
0
 62
     0
 10
7.32132
 20
5.2
 30
0.0
 11
7.957379
 21
5.836059
 31
0.0
  0
LINE
  8
0
 62
     0
 10
7.498097
 20
5.2
 30
0.0
 11
8.00321
 21
5.705113
 31
0.0
  0
LINE
  8
0
 62
     0
 10
7.674874
 20
5.2
 30
0.0
 11
8.049041
 21
5.574168
 31
0.0
  0
LINE
  8
0
 62
     0
 10
7.85165
 20
5.2
 30
0.0
 11
8.094872
 21
5.443222
 31
0.0
  0
LINE
  8
0
 62
     0
 10
8.028427
 20
5.2
 30
0.0
 11
8.140703
 21
5.312276
 31
0.0
  0
ENDBLK
  8
0
  0
BLOCK
  8
0
  2
*X7
 70
    65
 10
0.0
 20
0.0
 30
0.0
  3
*X
  0
LINE
  8
0
 62
     0
 10
0.0
 20
0.0
 30
0.0
 11
4.8
 21
4.8
 31
0.0
  0
LINE
  8
0
 62
     0
 10
0.095187
 20
0.271964
 30
0.0
 11
4.623223
 21
4.8
 31
0.0
  0
LINE
  8
0
 62
     0
 10
0.190375
 20
0.543928
 30
0.0
 11
4.446447
 21
4.8
 31
0.0
  0
LINE
  8
0
 62
     0
 10
0.285562
 20
0.815892
 30
0.0
 11
4.26967
 21
4.8
 31
0.0
  0
LINE
  8
0
 62
     0
 10
0.38075
 20
1.087857
 30
0.0
 11
4.092893
 21
4.8
 31
0.0
  0
LINE
  8
0
 62
     0
 10
0.475937
 20
1.359821
 30
0.0
 11
3.916117
 21
4.8
 31
0.0
  0
LINE
  8
0
 62
     0
 10
0.571125
 20
1.631785
 30
0.0
 11
3.73934
 21
4.8
 31
0.0
  0
LINE
  8
0
 62
     0
 10
0.666312
 20
1.903749
 30
0.0
 11
3.562563
 21
4.8
 31
0.0
  0
LINE
  8
0
 62
     0
 10
0.7615
 20
2.175713
 30
0.0
 11
3.385786
 21
4.8
 31
0.0
  0
LINE
  8
0
 62
     0
 10
0.856687
 20
2.447677
 30
0.0
 11
3.20901
 21
4.8
 31
0.0
  0
LINE
  8
0
 62
     0
 10
0.951875
 20
2.719641
 30
0.0
 11
3.032233
 21
4.8
 31
0.0
  0
LINE
  8
0
 62
     0
 10
1.047062
 20
2.991606
 30
0.0
 11
2.855456
 21
4.8
 31
0.0
  0
LINE
  8
0
 62
     0
 10
1.142249
 20
3.26357
 30
0.0
 11
2.67868
 21
4.8
 31
0.0
  0
LINE
  8
0
 62
     0
 10
1.237437
 20
3.535534
 30
0.0
 11
2.501903
 21
4.8
 31
0.0
  0
LINE
  8
0
 62
     0
 10
1.332624
 20
3.807498
 30
0.0
 11
2.325126
 21
4.8
 31
0.0
  0
LINE
  8
0
 62
     0
 10
1.427812
 20
4.079462
 30
0.0
 11
2.14835
 21
4.8
 31
0.0
  0
LINE
  8
0
 62
     0
 10
1.522999
 20
4.351426
 30
0.0
 11
1.971573
 21
4.8
 31
0.0
  0
LINE
  8
0
 62
     0
 10
1.618187
 20
4.62339
 30
0.0
 11
1.794796
 21
4.8
 31
0.0
  0
LINE
  8
0
 62
     0
 10
0.176777
 20
0.0
 30
0.0
 11
4.8
 21
4.623223
 31
0.0
  0
LINE
  8
0
 62
     0
 10
0.353553
 20
0.0
 30
0.0
 11
4.8
 21
4.446447
 31
0.0
  0
LINE
  8
0
 62
     0
 10
0.53033
 20
0.0
 30
0.0
 11
4.8
 21
4.26967
 31
0.0
  0
LINE
  8
0
 62
     0
 10
0.707107
 20
0.0
 30
0.0
 11
4.8
 21
4.092893
 31
0.0
  0
LINE
  8
0
 62
     0
 10
0.883883
 20
0.0
 30
0.0
 11
4.8
 21
3.916117
 31
0.0
  0
LINE
  8
0
 62
     0
 10
1.06066
 20
0.0
 30
0.0
 11
4.8
 21
3.73934
 31
0.0
  0
LINE
  8
0
 62
     0
 10
1.237437
 20
0.0
 30
0.0
 11
3.179842
 21
1.942405
 31
0.0
  0
LINE
  8
0
 62
     0
 10
3.237437
 20
2.0
 30
0.0
 11
4.8
 21
3.562563
 31
0.0
  0
LINE
  8
0
 62
     0
 10
1.414214
 20
0.0
 30
0.0
 11
3.084654
 21
1.670441
 31
0.0
  0
LINE
  8
0
 62
     0
 10
3.414214
 20
2.0
 30
0.0
 11
4.8
 21
3.385786
 31
0.0
  0
LINE
  8
0
 62
     0
 10
1.59099
 20
0.0
 30
0.0
 11
2.989467
 21
1.398477
 31
0.0
  0
LINE
  8
0
 62
     0
 10
3.59099
 20
2.0
 30
0.0
 11
4.8
 21
3.20901
 31
0.0
  0
LINE
  8
0
 62
     0
 10
1.767767
 20
0.0
 30
0.0
 11
2.894279
 21
1.126512
 31
0.0
  0
LINE
  8
0
 62
     0
 10
3.767767
 20
2.0
 30
0.0
 11
4.8
 21
3.032233
 31
0.0
  0
LINE
  8
0
 62
     0
 10
1.944544
 20
0.0
 30
0.0
 11
2.799092
 21
0.854548
 31
0.0
  0
LINE
  8
0
 62
     0
 10
3.944544
 20
2.0
 30
0.0
 11
4.8
 21
2.855456
 31
0.0
  0
LINE
  8
0
 62
     0
 10
2.12132
 20
0.0
 30
0.0
 11
2.703904
 21
0.582584
 31
0.0
  0
LINE
  8
0
 62
     0
 10
4.12132
 20
2.0
 30
0.0
 11
4.8
 21
2.67868
 31
0.0
  0
LINE
  8
0
 62
     0
 10
2.298097
 20
0.0
 30
0.0
 11
2.608717
 21
0.31062
 31
0.0
  0
LINE
  8
0
 62
     0
 10
4.298097
 20
2.0
 30
0.0
 11
4.8
 21
2.501903
 31
0.0
  0
LINE
  8
0
 62
     0
 10
2.474874
 20
0.0
 30
0.0
 11
2.51353
 21
0.038656
 31
0.0
  0
LINE
  8
0
 62
     0
 10
4.474874
 20
2.0
 30
0.0
 11
4.8
 21
2.325126
 31
0.0
  0
LINE
  8
0
 62
     0
 10
4.65165
 20
2.0
 30
0.0
 11
4.8
 21
2.14835
 31
0.0
  0
ENDBLK
  8
0
  0
BLOCK
  8
0
  2
*X8
 70
    65
 10
0.0
 20
0.0
 30
0.0
  3
*X
  0
LINE
  8
0
 62
     0
 10
6.884654
 20
1.75813
 30
0.0
 11
8.736506
 21
3.609982
 31
0.0
  0
LINE
  8
0
 62
     0
 10
6.838823
 20
1.889076
 30
0.0
 11
8.690675
 21
3.740928
 31
0.0
  0
LINE
  8
0
 62
     0
 10
6.772971
 20
2.0
 30
0.0
 11
8.644844
 21
3.871874
 31
0.0
  0
LINE
  8
0
 62
     0
 10
6.596194
 20
2.0
 30
0.0
 11
8.599013
 21
4.002819
 31
0.0
  0
LINE
  8
0
 62
     0
 10
6.419417
 20
2.0
 30
0.0
 11
8.553182
 21
4.133765
 31
0.0
  0
LINE
  8
0
 62
     0
 10
6.242641
 20
2.0
 30
0.0
 11
8.507351
 21
4.264711
 31
0.0
  0
LINE
  8
0
 62
     0
 10
6.065864
 20
2.0
 30
0.0
 11
8.46152
 21
4.395656
 31
0.0
  0
LINE
  8
0
 62
     0
 10
5.889087
 20
2.0
 30
0.0
 11
8.415689
 21
4.526602
 31
0.0
  0
LINE
  8
0
 62
     0
 10
5.712311
 20
2.0
 30
0.0
 11
8.369858
 21
4.657548
 31
0.0
  0
LINE
  8
0
 62
     0
 10
5.535534
 20
2.0
 30
0.0
 11
8.324027
 21
4.788493
 31
0.0
  0
LINE
  8
0
 62
     0
 10
5.358757
 20
2.0
 30
0.0
 11
8.158757
 21
4.8
 31
0.0
  0
LINE
  8
0
 62
     0
 10
5.2
 20
2.018019
 30
0.0
 11
7.981981
 21
4.8
 31
0.0
  0
LINE
  8
0
 62
     0
 10
5.2
 20
2.194796
 30
0.0
 11
7.805204
 21
4.8
 31
0.0
  0
LINE
  8
0
 62
     0
 10
5.2
 20
2.371573
 30
0.0
 11
7.628427
 21
4.8
 31
0.0
  0
LINE
  8
0
 62
     0
 10
5.2
 20
2.54835
 30
0.0
 11
7.45165
 21
4.8
 31
0.0
  0
LINE
  8
0
 62
     0
 10
5.2
 20
2.725126
 30
0.0
 11
7.274874
 21
4.8
 31
0.0
  0
LINE
  8
0
 62
     0
 10
5.2
 20
2.901903
 30
0.0
 11
7.098097
 21
4.8
 31
0.0
  0
LINE
  8
0
 62
     0
 10
5.2
 20
3.07868
 30
0.0
 11
6.92132
 21
4.8
 31
0.0
  0
LINE
  8
0
 62
     0
 10
5.2
 20
3.255456
 30
0.0
 11
6.744544
 21
4.8
 31
0.0
  0
LINE
  8
0
 62
     0
 10
5.2
 20
3.432233
 30
0.0
 11
6.567767
 21
4.8
 31
0.0
  0
LINE
  8
0
 62
     0
 10
5.2
 20
3.60901
 30
0.0
 11
6.39099
 21
4.8
 31
0.0
  0
LINE
  8
0
 62
     0
 10
5.2
 20
3.785786
 30
0.0
 11
6.214214
 21
4.8
 31
0.0
  0
LINE
  8
0
 62
     0
 10
5.2
 20
3.962563
 30
0.0
 11
6.037437
 21
4.8
 31
0.0
  0
LINE
  8
0
 62
     0
 10
5.2
 20
4.13934
 30
0.0
 11
5.86066
 21
4.8
 31
0.0
  0
LINE
  8
0
 62
     0
 10
5.2
 20
4.316117
 30
0.0
 11
5.683883
 21
4.8
 31
0.0
  0
LINE
  8
0
 62
     0
 10
5.2
 20
4.492893
 30
0.0
 11
5.507107
 21
4.8
 31
0.0
  0
LINE
  8
0
 62
     0
 10
5.2
 20
4.66967
 30
0.0
 11
5.33033
 21
4.8
 31
0.0
  0
LINE
  8
0
 62
     0
 10
6.930485
 20
1.627185
 30
0.0
 11
8.782337
 21
3.479036
 31
0.0
  0
LINE
  8
0
 62
     0
 10
6.976316
 20
1.496239
 30
0.0
 11
8.828168
 21
3.348091
 31
0.0
  0
LINE
  8
0
 62
     0
 10
7.022147
 20
1.365293
 30
0.0
 11
8.873999
 21
3.217145
 31
0.0
  0
LINE
  8
0
 62
     0
 10
7.067978
 20
1.234347
 30
0.0
 11
8.91983
 21
3.086199
 31
0.0
  0
LINE
  8
0
 62
     0
 10
7.113809
 20
1.103402
 30
0.0
 11
8.965661
 21
2.955254
 31
0.0
  0
LINE
  8
0
 62
     0
 10
7.15964
 20
0.972456
 30
0.0
 11
9.011492
 21
2.824308
 31
0.0
  0
LINE
  8
0
 62
     0
 10
7.205471
 20
0.84151
 30
0.0
 11
9.057323
 21
2.693362
 31
0.0
  0
LINE
  8
0
 62
     0
 10
7.251302
 20
0.710565
 30
0.0
 11
9.103154
 21
2.562416
 31
0.0
  0
LINE
  8
0
 62
     0
 10
7.297133
 20
0.579619
 30
0.0
 11
9.148985
 21
2.431471
 31
0.0
  0
LINE
  8
0
 62
     0
 10
7.342964
 20
0.448673
 30
0.0
 11
9.194816
 21
2.300525
 31
0.0
  0
LINE
  8
0
 62
     0
 10
7.388795
 20
0.317728
 30
0.0
 11
9.240647
 21
2.169579
 31
0.0
  0
LINE
  8
0
 62
     0
 10
7.434626
 20
0.186782
 30
0.0
 11
9.286478
 21
2.038634
 31
0.0
  0
LINE
  8
0
 62
     0
 10
7.480457
 20
0.055836
 30
0.0
 11
9.332309
 21
1.907688
 31
0.0
  0
LINE
  8
0
 62
     0
 10
7.601398
 20
0.0
 30
0.0
 11
9.37814
 21
1.776742
 31
0.0
  0
LINE
  8
0
 62
     0
 10
7.778175
 20
0.0
 30
0.0
 11
9.423971
 21
1.645797
 31
0.0
  0
LINE
  8
0
 62
     0
 10
7.954951
 20
0.0
 30
0.0
 11
9.469802
 21
1.514851
 31
0.0
  0
LINE
  8
0
 62
     0
 10
8.131728
 20
0.0
 30
0.0
 11
9.515633
 21
1.383905
 31
0.0
  0
LINE
  8
0
 62
     0
 10
8.308505
 20
0.0
 30
0.0
 11
9.561464
 21
1.252959
 31
0.0
  0
LINE
  8
0
 62
     0
 10
8.485281
 20
0.0
 30
0.0
 11
9.607295
 21
1.122014
 31
0.0
  0
LINE
  8
0
 62
     0
 10
8.662058
 20
0.0
 30
0.0
 11
9.653126
 21
0.991068
 31
0.0
  0
LINE
  8
0
 62
     0
 10
8.838835
 20
0.0
 30
0.0
 11
9.698957
 21
0.860122
 31
0.0
  0
LINE
  8
0
 62
     0
 10
9.015611
 20
0.0
 30
0.0
 11
9.744788
 21
0.729177
 31
0.0
  0
LINE
  8
0
 62
     0
 10
9.192388
 20
0.0
 30
0.0
 11
9.790619
 21
0.598231
 31
0.0
  0
LINE
  8
0
 62
     0
 10
9.369165
 20
0.0
 30
0.0
 11
9.83645
 21
0.467285
 31
0.0
  0
LINE
  8
0
 62
     0
 10
9.545942
 20
0.0
 30
0.0
 11
9.882281
 21
0.33634
 31
0.0
  0
LINE
  8
0
 62
     0
 10
9.722718
 20
0.0
 30
0.0
 11
9.928112
 21
0.205394
 31
0.0
  0
LINE
  8
0
 62
     0
 10
9.899495
 20
0.0
 30
0.0
 11
9.973943
 21
0.074448
 31
0.0
  0
ENDBLK
  8
0
  0
BLOCK
  8
0
  2
*X9
 70
    65
 10
0.0
 20
0.0
 30
0.0
  3
*X
  0
LINE
  8
0
 62
     0
 10
10.7
 20
6.280583
 30
0.0
 11
13.5
 21
9.080583
 31
0.0
  0
LINE
  8
0
 62
     0
 10
10.7
 20
6.457359
 30
0.0
 11
13.5
 21
9.257359
 31
0.0
  0
LINE
  8
0
 62
     0
 10
10.7
 20
6.634136
 30
0.0
 11
13.5
 21
9.434136
 31
0.0
  0
LINE
  8
0
 62
     0
 10
10.7
 20
6.810913
 30
0.0
 11
13.5
 21
9.610913
 31
0.0
  0
LINE
  8
0
 62
     0
 10
10.7
 20
6.987689
 30
0.0
 11
13.5
 21
9.787689
 31
0.0
  0
LINE
  8
0
 62
     0
 10
10.7
 20
7.164466
 30
0.0
 11
13.5
 21
9.964466
 31
0.0
  0
LINE
  8
0
 62
     0
 10
10.7
 20
7.341243
 30
0.0
 11
13.358757
 21
10.0
 31
0.0
  0
LINE
  8
0
 62
     0
 10
10.7
 20
7.518019
 30
0.0
 11
13.181981
 21
10.0
 31
0.0
  0
LINE
  8
0
 62
     0
 10
10.7
 20
7.694796
 30
0.0
 11
13.005204
 21
10.0
 31
0.0
  0
LINE
  8
0
 62
     0
 10
10.7
 20
7.871573
 30
0.0
 11
12.828427
 21
10.0
 31
0.0
  0
LINE
  8
0
 62
     0
 10
10.7
 20
8.04835
 30
0.0
 11
12.65165
 21
10.0
 31
0.0
  0
LINE
  8
0
 62
     0
 10
10.7
 20
8.225126
 30
0.0
 11
12.474874
 21
10.0
 31
0.0
  0
LINE
  8
0
 62
     0
 10
10.7
 20
8.401903
 30
0.0
 11
12.298097
 21
10.0
 31
0.0
  0
LINE
  8
0
 62
     0
 10
10.7
 20
8.57868
 30
0.0
 11
12.12132
 21
10.0
 31
0.0
  0
LINE
  8
0
 62
     0
 10
10.7
 20
8.755456
 30
0.0
 11
11.944544
 21
10.0
 31
0.0
  0
LINE
  8
0
 62
     0
 10
10.7
 20
8.932233
 30
0.0
 11
11.767767
 21
10.0
 31
0.0
  0
LINE
  8
0
 62
     0
 10
10.7
 20
9.10901
 30
0.0
 11
11.59099
 21
10.0
 31
0.0
  0
LINE
  8
0
 62
     0
 10
10.7
 20
9.285786
 30
0.0
 11
11.414214
 21
10.0
 31
0.0
  0
LINE
  8
0
 62
     0
 10
10.7
 20
9.462563
 30
0.0
 11
11.237437
 21
10.0
 31
0.0
  0
LINE
  8
0
 62
     0
 10
10.7
 20
9.63934
 30
0.0
 11
11.06066
 21
10.0
 31
0.0
  0
LINE
  8
0
 62
     0
 10
10.7
 20
9.816117
 30
0.0
 11
10.883883
 21
10.0
 31
0.0
  0
LINE
  8
0
 62
     0
 10
10.7
 20
9.992893
 30
0.0
 11
10.707107
 21
10.0
 31
0.0
  0
LINE
  8
0
 62
     0
 10
10.7
 20
6.103806
 30
0.0
 11
13.5
 21
8.903806
 31
0.0
  0
LINE
  8
0
 62
     0
 10
10.7
 20
5.927029
 30
0.0
 11
13.5
 21
8.727029
 31
0.0
  0
LINE
  8
0
 62
     0
 10
10.7
 20
5.750253
 30
0.0
 11
13.5
 21
8.550253
 31
0.0
  0
LINE
  8
0
 62
     0
 10
10.7
 20
5.573476
 30
0.0
 11
13.5
 21
8.373476
 31
0.0
  0
LINE
  8
0
 62
     0
 10
10.7
 20
5.396699
 30
0.0
 11
13.5
 21
8.196699
 31
0.0
  0
LINE
  8
0
 62
     0
 10
10.7
 20
5.219922
 30
0.0
 11
13.5
 21
8.019922
 31
0.0
  0
LINE
  8
0
 62
     0
 10
10.856854
 20
5.2
 30
0.0
 11
13.5
 21
7.843146
 31
0.0
  0
LINE
  8
0
 62
     0
 10
11.033631
 20
5.2
 30
0.0
 11
13.5
 21
7.666369
 31
0.0
  0
LINE
  8
0
 62
     0
 10
11.210408
 20
5.2
 30
0.0
 11
13.5
 21
7.489592
 31
0.0
  0
LINE
  8
0
 62
     0
 10
11.387184
 20
5.2
 30
0.0
 11
13.5
 21
7.312816
 31
0.0
  0
LINE
  8
0
 62
     0
 10
11.563961
 20
5.2
 30
0.0
 11
13.5
 21
7.136039
 31
0.0
  0
LINE
  8
0
 62
     0
 10
11.740738
 20
5.2
 30
0.0
 11
13.5
 21
6.959262
 31
0.0
  0
LINE
  8
0
 62
     0
 10
11.917514
 20
5.2
 30
0.0
 11
13.5
 21
6.782486
 31
0.0
  0
LINE
  8
0
 62
     0
 10
12.094291
 20
5.2
 30
0.0
 11
13.5
 21
6.605709
 31
0.0
  0
LINE
  8
0
 62
     0
 10
12.271068
 20
5.2
 30
0.0
 11
13.5
 21
6.428932
 31
0.0
  0
LINE
  8
0
 62
     0
 10
12.447845
 20
5.2
 30
0.0
 11
13.5
 21
6.252155
 31
0.0
  0
LINE
  8
0
 62
     0
 10
12.624621
 20
5.2
 30
0.0
 11
13.5
 21
6.075379
 31
0.0
  0
LINE
  8
0
 62
     0
 10
12.801398
 20
5.2
 30
0.0
 11
13.5
 21
5.898602
 31
0.0
  0
LINE
  8
0
 62
     0
 10
12.978175
 20
5.2
 30
0.0
 11
13.5
 21
5.721825
 31
0.0
  0
LINE
  8
0
 62
     0
 10
13.154951
 20
5.2
 30
0.0
 11
13.5
 21
5.545049
 31
0.0
  0
LINE
  8
0
 62
     0
 10
13.331728
 20
5.2
 30
0.0
 11
13.5
 21
5.368272
 31
0.0
  0
ENDBLK
  8
0
  0
BLOCK
  8
0
  2
*X10
 70
    65
 10
0.0
 20
0.0
 30
0.0
  3
*X
  0
LINE
  8
0
 62
     0
 10
10.7
 20
1.154058
 30
0.0
 11
13.5
 21
3.954058
 31
0.0
  0
LINE
  8
0
 62
     0
 10
10.7
 20
1.330835
 30
0.0
 11
13.5
 21
4.130835
 31
0.0
  0
LINE
  8
0
 62
     0
 10
10.7
 20
1.507612
 30
0.0
 11
13.5
 21
4.307612
 31
0.0
  0
LINE
  8
0
 62
     0
 10
10.7
 20
1.684389
 30
0.0
 11
13.5
 21
4.484389
 31
0.0
  0
LINE
  8
0
 62
     0
 10
10.7
 20
1.861165
 30
0.0
 11
13.5
 21
4.661165
 31
0.0
  0
LINE
  8
0
 62
     0
 10
10.7
 20
2.037942
 30
0.0
 11
13.462058
 21
4.8
 31
0.0
  0
LINE
  8
0
 62
     0
 10
10.7
 20
2.214719
 30
0.0
 11
13.285281
 21
4.8
 31
0.0
  0
LINE
  8
0
 62
     0
 10
10.7
 20
2.391495
 30
0.0
 11
13.108505
 21
4.8
 31
0.0
  0
LINE
  8
0
 62
     0
 10
10.7
 20
2.568272
 30
0.0
 11
12.931728
 21
4.8
 31
0.0
  0
LINE
  8
0
 62
     0
 10
10.7
 20
2.745049
 30
0.0
 11
12.754951
 21
4.8
 31
0.0
  0
LINE
  8
0
 62
     0
 10
10.7
 20
2.921825
 30
0.0
 11
12.578175
 21
4.8
 31
0.0
  0
LINE
  8
0
 62
     0
 10
10.7
 20
3.098602
 30
0.0
 11
12.401398
 21
4.8
 31
0.0
  0
LINE
  8
0
 62
     0
 10
10.7
 20
3.275379
 30
0.0
 11
12.224621
 21
4.8
 31
0.0
  0
LINE
  8
0
 62
     0
 10
10.7
 20
3.452155
 30
0.0
 11
12.047845
 21
4.8
 31
0.0
  0
LINE
  8
0
 62
     0
 10
10.7
 20
3.628932
 30
0.0
 11
11.871068
 21
4.8
 31
0.0
  0
LINE
  8
0
 62
     0
 10
10.7
 20
3.805709
 30
0.0
 11
11.694291
 21
4.8
 31
0.0
  0
LINE
  8
0
 62
     0
 10
10.7
 20
3.982486
 30
0.0
 11
11.517514
 21
4.8
 31
0.0
  0
LINE
  8
0
 62
     0
 10
10.7
 20
4.159262
 30
0.0
 11
11.340738
 21
4.8
 31
0.0
  0
LINE
  8
0
 62
     0
 10
10.7
 20
4.336039
 30
0.0
 11
11.163961
 21
4.8
 31
0.0
  0
LINE
  8
0
 62
     0
 10
10.7
 20
4.512816
 30
0.0
 11
10.987184
 21
4.8
 31
0.0
  0
LINE
  8
0
 62
     0
 10
10.7
 20
4.689592
 30
0.0
 11
10.810408
 21
4.8
 31
0.0
  0
LINE
  8
0
 62
     0
 10
10.7
 20
0.977282
 30
0.0
 11
13.5
 21
3.777282
 31
0.0
  0
LINE
  8
0
 62
     0
 10
10.7
 20
0.800505
 30
0.0
 11
13.5
 21
3.600505
 31
0.0
  0
LINE
  8
0
 62
     0
 10
10.7
 20
0.623728
 30
0.0
 11
13.5
 21
3.423728
 31
0.0
  0
LINE
  8
0
 62
     0
 10
10.7
 20
0.446952
 30
0.0
 11
13.5
 21
3.246952
 31
0.0
  0
LINE
  8
0
 62
     0
 10
10.7
 20
0.270175
 30
0.0
 11
13.5
 21
3.070175
 31
0.0
  0
LINE
  8
0
 62
     0
 10
10.7
 20
0.093398
 30
0.0
 11
13.5
 21
2.893398
 31
0.0
  0
LINE
  8
0
 62
     0
 10
10.783378
 20
0.0
 30
0.0
 11
13.5
 21
2.716622
 31
0.0
  0
LINE
  8
0
 62
     0
 10
10.960155
 20
0.0
 30
0.0
 11
13.5
 21
2.539845
 31
0.0
  0
LINE
  8
0
 62
     0
 10
11.136932
 20
0.0
 30
0.0
 11
13.5
 21
2.363068
 31
0.0
  0
LINE
  8
0
 62
     0
 10
11.313708
 20
0.0
 30
0.0
 11
13.5
 21
2.186292
 31
0.0
  0
LINE
  8
0
 62
     0
 10
11.490485
 20
0.0
 30
0.0
 11
13.5
 21
2.009515
 31
0.0
  0
LINE
  8
0
 62
     0
 10
11.667262
 20
0.0
 30
0.0
 11
13.5
 21
1.832738
 31
0.0
  0
LINE
  8
0
 62
     0
 10
11.844039
 20
0.0
 30
0.0
 11
13.5
 21
1.655961
 31
0.0
  0
LINE
  8
0
 62
     0
 10
12.020815
 20
0.0
 30
0.0
 11
13.5
 21
1.479185
 31
0.0
  0
LINE
  8
0
 62
     0
 10
12.197592
 20
0.0
 30
0.0
 11
13.5
 21
1.302408
 31
0.0
  0
LINE
  8
0
 62
     0
 10
12.374369
 20
0.0
 30
0.0
 11
13.5
 21
1.125631
 31
0.0
  0
LINE
  8
0
 62
     0
 10
12.551145
 20
0.0
 30
0.0
 11
13.5
 21
0.948855
 31
0.0
  0
LINE
  8
0
 62
     0
 10
12.727922
 20
0.0
 30
0.0
 11
13.5
 21
0.772078
 31
0.0
  0
LINE
  8
0
 62
     0
 10
12.904699
 20
0.0
 30
0.0
 11
13.5
 21
0.595301
 31
0.0
  0
LINE
  8
0
 62
     0
 10
13.081475
 20
0.0
 30
0.0
 11
13.5
 21
0.418525
 31
0.0
  0
LINE
  8
0
 62
     0
 10
13.258252
 20
0.0
 30
0.0
 11
13.5
 21
0.241748
 31
0.0
  0
LINE
  8
0
 62
     0
 10
13.435029
 20
0.0
 30
0.0
 11
13.5
 21
0.064971
 31
0.0
  0
ENDBLK
  8
0
  0
BLOCK
  8
0
  2
*X11
 70
    65
 10
0.0
 20
0.0
 30
0.0
  3
*X
  0
LINE
  8
0
 62
     0
 10
13.9
 20
6.298602
 30
0.0
 11
16.582995
 21
8.981597
 31
0.0
  0
LINE
  8
0
 62
     0
 10
13.9
 20
6.475379
 30
0.0
 11
16.510503
 21
9.085882
 31
0.0
  0
LINE
  8
0
 62
     0
 10
13.9
 20
6.652155
 30
0.0
 11
16.432927
 21
9.185083
 31
0.0
  0
LINE
  8
0
 62
     0
 10
13.9
 20
6.828932
 30
0.0
 11
16.350372
 21
9.279304
 31
0.0
  0
LINE
  8
0
 62
     0
 10
13.9
 20
7.005709
 30
0.0
 11
16.262892
 21
9.368601
 31
0.0
  0
LINE
  8
0
 62
     0
 10
13.9
 20
7.182486
 30
0.0
 11
16.170495
 21
9.452981
 31
0.0
  0
LINE
  8
0
 62
     0
 10
13.9
 20
7.359262
 30
0.0
 11
16.073145
 21
9.532407
 31
0.0
  0
LINE
  8
0
 62
     0
 10
13.9
 20
7.536039
 30
0.0
 11
15.970755
 21
9.606794
 31
0.0
  0
LINE
  8
0
 62
     0
 10
13.9
 20
7.712816
 30
0.0
 11
15.863189
 21
9.676004
 31
0.0
  0
LINE
  8
0
 62
     0
 10
13.9
 20
7.889592
 30
0.0
 11
15.75025
 21
9.739843
 31
0.0
  0
LINE
  8
0
 62
     0
 10
13.9
 20
8.066369
 30
0.0
 11
15.631675
 21
9.798044
 31
0.0
  0
LINE
  8
0
 62
     0
 10
13.9
 20
8.243146
 30
0.0
 11
15.50711
 21
9.850256
 31
0.0
  0
LINE
  8
0
 62
     0
 10
13.9
 20
8.419922
 30
0.0
 11
15.376096
 21
9.896018
 31
0.0
  0
LINE
  8
0
 62
     0
 10
13.9
 20
8.596699
 30
0.0
 11
15.238027
 21
9.934726
 31
0.0
  0
LINE
  8
0
 62
     0
 10
13.9
 20
8.773476
 30
0.0
 11
15.092096
 21
9.965572
 31
0.0
  0
LINE
  8
0
 62
     0
 10
13.9
 20
8.950253
 30
0.0
 11
14.937209
 21
9.987461
 31
0.0
  0
LINE
  8
0
 62
     0
 10
13.9
 20
9.127029
 30
0.0
 11
14.771824
 21
9.998853
 31
0.0
  0
LINE
  8
0
 62
     0
 10
13.9
 20
9.303806
 30
0.0
 11
14.596193
 21
9.999999
 31
0.0
  0
LINE
  8
0
 62
     0
 10
13.9
 20
9.480583
 30
0.0
 11
14.419417
 21
9.999999
 31
0.0
  0
LINE
  8
0
 62
     0
 10
13.9
 20
9.657359
 30
0.0
 11
14.24264
 21
10.0
 31
0.0
  0
LINE
  8
0
 62
     0
 10
13.9
 20
9.834136
 30
0.0
 11
14.065864
 21
10.0
 31
0.0
  0
LINE
  8
0
 62
     0
 10
13.9
 20
6.121825
 30
0.0
 11
16.650245
 21
8.872071
 31
0.0
  0
LINE
  8
0
 62
     0
 10
13.9
 20
5.945049
 30
0.0
 11
16.712035
 21
8.757083
 31
0.0
  0
LINE
  8
0
 62
     0
 10
13.9
 20
5.768272
 30
0.0
 11
16.768067
 21
8.636339
 31
0.0
  0
LINE
  8
0
 62
     0
 10
13.9
 20
5.591495
 30
0.0
 11
16.817955
 21
8.509451
 31
0.0
  0
LINE
  8
0
 62
     0
 10
13.9
 20
5.414719
 30
0.0
 11
16.861189
 21
8.375908
 31
0.0
  0
LINE
  8
0
 62
     0
 10
13.9
 20
5.237942
 30
0.0
 11
16.897097
 21
8.235039
 31
0.0
  0
LINE
  8
0
 62
     0
 10
14.038835
 20
5.2
 30
0.0
 11
16.924779
 21
8.085944
 31
0.0
  0
LINE
  8
0
 62
     0
 10
14.215611
 20
5.2
 30
0.0
 11
16.942997
 21
7.927385
 31
0.0
  0
LINE
  8
0
 62
     0
 10
14.392388
 20
5.2
 30
0.0
 11
16.949987
 21
7.757599
 31
0.0
  0
LINE
  8
0
 62
     0
 10
14.569165
 20
5.2
 30
0.0
 11
16.943101
 21
7.573936
 31
0.0
  0
LINE
  8
0
 62
     0
 10
14.745942
 20
5.2
 30
0.0
 11
16.918037
 21
7.372095
 31
0.0
  0
LINE
  8
0
 62
     0
 10
14.922718
 20
5.2
 30
0.0
 11
16.866909
 21
7.144191
 31
0.0
  0
LINE
  8
0
 62
     0
 10
15.099495
 20
5.2
 30
0.0
 11
16.771715
 21
6.87222
 31
0.0
  0
LINE
  8
0
 62
     0
 10
15.276272
 20
5.2
 30
0.0
 11
15.847951
 21
5.77168
 31
0.0
  0
LINE
  8
0
 62
     0
 10
15.96673
 20
5.890458
 30
0.0
 11
16.559542
 21
6.48327
 31
0.0
  0
LINE
  8
0
 62
     0
 10
15.453048
 20
5.2
 30
0.0
 11
15.970661
 21
5.717613
 31
0.0
  0
LINE
  8
0
 62
     0
 10
15.629825
 20
5.2
 30
0.0
 11
16.088934
 21
5.659109
 31
0.0
  0
LINE
  8
0
 62
     0
 10
15.806602
 20
5.2
 30
0.0
 11
16.202964
 21
5.596363
 31
0.0
  0
LINE
  8
0
 62
     0
 10
15.983378
 20
5.2
 30
0.0
 11
16.312909
 21
5.529531
 31
0.0
  0
LINE
  8
0
 62
     0
 10
16.160155
 20
5.2
 30
0.0
 11
16.418895
 21
5.45874
 31
0.0
  0
LINE
  8
0
 62
     0
 10
16.336932
 20
5.2
 30
0.0
 11
16.521021
 21
5.384089
 31
0.0
  0
LINE
  8
0
 62
     0
 10
16.513708
 20
5.2
 30
0.0
 11
16.619363
 21
5.305655
 31
0.0
  0
LINE
  8
0
 62
     0
 10
16.690485
 20
5.2
 30
0.0
 11
16.713975
 21
5.22349
 31
0.0
  0
ENDBLK
  8
0
  0
BLOCK
  8
0
  2
*X12
 70
    65
 10
0.0
 20
0.0
 30
0.0
  3
*X
  0
LINE
  8
0
 62
     0
 10
13.9
 20
0.818525
 30
0.0
 11
17.39645
 21
4.314974
 31
0.0
  0
LINE
  8
0
 62
     0
 10
13.9
 20
0.995301
 30
0.0
 11
17.336354
 21
4.431655
 31
0.0
  0
LINE
  8
0
 62
     0
 10
13.9
 20
1.172078
 30
0.0
 11
17.272078
 21
4.544156
 31
0.0
  0
LINE
  8
0
 62
     0
 10
13.9
 20
1.348855
 30
0.0
 11
17.203766
 21
4.652621
 31
0.0
  0
LINE
  8
0
 62
     0
 10
13.9
 20
1.525631
 30
0.0
 11
17.131535
 21
4.757167
 31
0.0
  0
LINE
  8
0
 62
     0
 10
13.9
 20
1.702408
 30
0.0
 11
16.997592
 21
4.8
 31
0.0
  0
LINE
  8
0
 62
     0
 10
13.9
 20
1.879185
 30
0.0
 11
16.820815
 21
4.8
 31
0.0
  0
LINE
  8
0
 62
     0
 10
13.9
 20
2.055961
 30
0.0
 11
16.644039
 21
4.8
 31
0.0
  0
LINE
  8
0
 62
     0
 10
13.9
 20
2.232738
 30
0.0
 11
16.467262
 21
4.8
 31
0.0
  0
LINE
  8
0
 62
     0
 10
13.9
 20
2.409515
 30
0.0
 11
16.290485
 21
4.8
 31
0.0
  0
LINE
  8
0
 62
     0
 10
13.9
 20
2.586292
 30
0.0
 11
16.113708
 21
4.8
 31
0.0
  0
LINE
  8
0
 62
     0
 10
13.9
 20
2.763068
 30
0.0
 11
15.936932
 21
4.8
 31
0.0
  0
LINE
  8
0
 62
     0
 10
13.9
 20
2.939845
 30
0.0
 11
15.760155
 21
4.8
 31
0.0
  0
LINE
  8
0
 62
     0
 10
13.9
 20
3.116622
 30
0.0
 11
15.583378
 21
4.8
 31
0.0
  0
LINE
  8
0
 62
     0
 10
13.9
 20
3.293398
 30
0.0
 11
15.406602
 21
4.8
 31
0.0
  0
LINE
  8
0
 62
     0
 10
13.9
 20
3.470175
 30
0.0
 11
15.229825
 21
4.8
 31
0.0
  0
LINE
  8
0
 62
     0
 10
13.9
 20
3.646952
 30
0.0
 11
15.053048
 21
4.8
 31
0.0
  0
LINE
  8
0
 62
     0
 10
13.9
 20
3.823728
 30
0.0
 11
14.876272
 21
4.8
 31
0.0
  0
LINE
  8
0
 62
     0
 10
13.9
 20
4.000505
 30
0.0
 11
14.699495
 21
4.8
 31
0.0
  0
LINE
  8
0
 62
     0
 10
13.9
 20
4.177282
 30
0.0
 11
14.522718
 21
4.8
 31
0.0
  0
LINE
  8
0
 62
     0
 10
13.9
 20
4.354058
 30
0.0
 11
14.345942
 21
4.8
 31
0.0
  0
LINE
  8
0
 62
     0
 10
13.9
 20
4.530835
 30
0.0
 11
14.169165
 21
4.8
 31
0.0
  0
LINE
  8
0
 62
     0
 10
13.9
 20
4.707612
 30
0.0
 11
13.992388
 21
4.8
 31
0.0
  0
LINE
  8
0
 62
     0
 10
13.9
 20
0.641748
 30
0.0
 11
17.452185
 21
4.193933
 31
0.0
  0
LINE
  8
0
 62
     0
 10
13.9
 20
0.464971
 30
0.0
 11
17.503339
 21
4.068311
 31
0.0
  0
LINE
  8
0
 62
     0
 10
13.9
 20
0.288194
 30
0.0
 11
17.549642
 21
3.937837
 31
0.0
  0
LINE
  8
0
 62
     0
 10
13.9
 20
0.111418
 30
0.0
 11
17.590762
 21
3.80218
 31
0.0
  0
LINE
  8
0
 62
     0
 10
13.965359
 20
0.0
 30
0.0
 11
17.62629
 21
3.660931
 31
0.0
  0
LINE
  8
0
 62
     0
 10
14.142136
 20
0.000001
 30
0.0
 11
17.655713
 21
3.513577
 31
0.0
  0
LINE
  8
0
 62
     0
 10
14.318913
 20
0.000001
 30
0.0
 11
17.678385
 21
3.359473
 31
0.0
  0
LINE
  8
0
 62
     0
 10
14.49569
 20
0.000001
 30
0.0
 11
17.693473
 21
3.197784
 31
0.0
  0
LINE
  8
0
 62
     0
 10
14.672467
 20
0.000002
 30
0.0
 11
17.699875
 21
3.027409
 31
0.0
  0
LINE
  8
0
 62
     0
 10
14.853154
 20
0.003912
 30
0.0
 11
17.696088
 21
2.846846
 31
0.0
  0
LINE
  8
0
 62
     0
 10
15.046044
 20
0.020025
 30
0.0
 11
17.679975
 21
2.653956
 31
0.0
  0
LINE
  8
0
 62
     0
 10
15.254483
 20
0.051687
 30
0.0
 11
17.648313
 21
2.445517
 31
0.0
  0
LINE
  8
0
 62
     0
 10
15.483762
 20
0.10419
 30
0.0
 11
17.59581
 21
2.216238
 31
0.0
  0
LINE
  8
0
 62
     0
 10
15.743786
 20
0.187437
 30
0.0
 11
17.512563
 21
1.956214
 31
0.0
  0
LINE
  8
0
 62
     0
 10
16.058176
 20
0.32505
 30
0.0
 11
17.37495
 21
1.641824
 31
0.0
  0
LINE
  8
0
 62
     0
 10
16.54193
 20
0.632028
 30
0.0
 11
17.067972
 21
1.15807
 31
0.0
  0
ENDBLK
  8
0
  0
BLOCK
  8
0
  2
BLC15
 70
    64
 10
0.0
 20
0.0
 30
0.0
  3
BLC15
  0
LINE
  8
0
  6
CONTINUOUS
 10
0.142084
 20
3.490022
 30
0.0
 11
0.142084
 21
0.844365
 31
0.0
  0
LINE
  8
0
  6
CONTINUOUS
 10
-0.461611
 20
-0.937188
 30
0.0
 11
0.745779
 21
-0.937188
 31
0.0
  0
LINE
  8
0
  6
CONTINUOUS
 10
-0.894108
 20
-0.049675
 30
0.0
 11
1.169267
 21
-0.049675
 31
0.0
  0
LINE
  8
0
  6
CONTINUOUS
 10
-1.389679
 20
0.844365
 30
0.0
 11
1.673848
 21
0.844365
 31
0.0
  0
ENDBLK
  8
0
  0
BLOCK
  8
0
  2
BLC55
 70
    64
 10
0.0
 20
0.0
 30
0.0
  3
BLC55
  0
INSERT
  8
SWEDEN
  6
CENTER
  2
BLC5
 10
0.087066
 20
-0.756831
 30
0.0
 41
0.6
 42
0.6
 43
0.6
  0
ENDBLK
  8
0
  0
BLOCK
  8
0
  2
BLC5
 70
    64
 10
0.0
 20
0.0
 30
0.0
  3
BLC5
  0
TEXT
  8
0
 10
-3.043704
 20
-6.645912
 30
0.0
 40
3.2
  1
PE
  0
LINE
  8
0
 10
-2.946392
 20
1.181176
 30
0.0
 11
2.135458
 21
1.181176
 31
0.0
  0
LINE
  8
0
 10
-0.48656
 20
2.238362
 30
0.0
 11
-0.48656
 21
6.930438
 31
0.0
  0
LINE
  8
0
 10
-1.973271
 20
0.065258
 30
0.0
 11
1.225411
 21
0.065258
 31
0.0
  0
LINE
  8
0
 10
2.685091
 20
2.238362
 30
0.0
 11
1.68494
 21
2.238362
 31
0.0
  0
LINE
  8
0
 10
-3.505035
 20
2.238362
 30
0.0
 11
2.649049
 21
2.238362
 31
0.0
  0
CIRCLE
  8
0
 10
-0.47755
 20
1.422632
 30
0.0
 40
3.804563
  0
ENDBLK
  8
0
  0
BLOCK
  8
0
  2
BLC43
 70
    64
 10
0.0
 20
0.0
 30
0.0
  3
BLC43
  0
TEXT
  8
SWEDEN2
  6
CONTINUOUS
 10
-0.646672
 20
-0.986365
 30
0.0
 40
2.0
  1
+
  0
ENDBLK
  8
0
  0
BLOCK
  8
0
  2
BLC42
 70
    64
 10
0.0
 20
0.0
 30
0.0
  3
BLC42
  0
TEXT
  8
SWEDEN2
  6
CONTINUOUS
 10
-0.655237
 20
-0.99442
 30
0.0
 40
2.0
  1
-
  0
ENDBLK
  8
0
  0
BLOCK
  8
0
  2
BLC44
 70
    64
 10
0.0
 20
0.0
 30
0.0
  3
BLC44
  0
LINE
  8
HEL035
 10
-2.520993
 20
1.697877
 30
0.0
 11
1.479007
 21
1.697877
 31
0.0
  0
INSERT
  8
HEL035
  2
WKU130
 10
-2.181043
 20
-0.027675
 30
0.0
 41
0.8
 42
0.8
 43
0.8
  0
ENDBLK
  8
0
  0
BLOCK
  8
0
  2
B39
 70
    64
 10
0.0
 20
0.0
 30
0.0
  3
B39
  0
LINE
  8
0
 10
-10.0
 20
2.5
 30
0.0
 11
-11.519867
 21
2.5
 31
0.0
  0
ARC
  8
0
 10
-9.934151
 20
3.75
 30
0.0
 40
1.251733
 50
266.984476
 51
93.015524
  0
LINE
  8
0
 10
-10.0
 20
5.0
 30
0.0
 11
-11.519867
 21
5.0
 31
0.0
  0
LINE
  8
0
 10
-10.0
 20
7.5
 30
0.0
 11
-11.519867
 21
7.5
 31
0.0
  0
ARC
  8
0
 10
-9.934151
 20
6.25
 30
0.0
 40
1.251733
 50
266.984476
 51
93.015524
  0
LINE
  8
0
 10
-5.0
 20
0.0
 30
0.0
 11
-2.5
 21
0.0
 31
0.0
  0
ARC
  8
0
 10
-5.065849
 20
1.25
 30
0.0
 40
1.251733
 50
86.984476
 51
273.015524
  0
ARC
  8
0
 10
-5.065849
 20
3.75
 30
0.0
 40
1.251733
 50
86.984476
 51
273.015524
  0
LINE
  8
0
 10
-5.0
 20
2.5
 30
0.0
 11
-2.5
 21
2.5
 31
0.0
  0
LINE
  8
0
 10
-5.0
 20
5.0
 30
0.0
 11
-2.5
 21
5.0
 31
0.0
  0
LINE
  8
0
 10
-2.5
 20
5.0
 30
0.0
 11
0.0
 21
5.0
 31
0.0
  0
LINE
  8
0
 10
-2.5
 20
0.0
 30
0.0
 11
0.0
 21
0.0
 31
0.0
  0
LINE
  8
0
 10
-2.5
 20
5.0
 30
0.0
 11
0.0
 21
5.0
 31
0.0
  0
LINE
  8
0
 10
-2.5
 20
10.0
 30
0.0
 11
0.0
 21
10.0
 31
0.0
  0
LINE
  8
0
 10
-5.0
 20
10.0
 30
0.0
 11
-2.5
 21
10.0
 31
0.0
  0
LINE
  8
0
 10
-5.0
 20
7.5
 30
0.0
 11
-2.5
 21
7.5
 31
0.0
  0
ARC
  8
0
 10
-5.065849
 20
8.75
 30
0.0
 40
1.251733
 50
86.984476
 51
273.015524
  0
ARC
  8
0
 10
-5.065849
 20
6.25
 30
0.0
 40
1.251733
 50
86.984476
 51
273.015524
  0
LINE
  8
0
 10
-5.0
 20
5.0
 30
0.0
 11
-2.5
 21
5.0
 31
0.0
  0
ENDBLK
  8
0
  0
BLOCK
  8
0
  2
MAA
 70
     0
 10
0.0
 20
0.0
 30
0.0
  3
MAA
  0
LINE
  8
0
  6
CONTINUOUS
 10
-0.500718
 20
-2.587966
 30
0.0
 11
0.386169
 21
-2.587966
 31
0.0
  0
LINE
  8
0
  6
CONTINUOUS
 10
-0.831823
 20
-1.976333
 30
0.0
 11
0.752749
 21
-1.976333
 31
0.0
  0
LINE
  8
0
  6
CONTINUOUS
 10
-0.015887
 20
-1.35427
 30
0.0
 11
1.178454
 21
-1.35427
 31
0.0
  0
LINE
  8
0
  6
CONTINUOUS
 10
-1.210228
 20
-1.35427
 30
0.0
 11
-0.015887
 21
-1.35427
 31
0.0
  0
LINE
  8
0
  6
CONTINUOUS
 10
0.0
 20
0.0
 30
0.0
 11
0.0
 21
-1.35427
 31
0.0
  0
ENDBLK
  8
0
  0
BLOCK
  8
0
  2
B601
 70
     0
 10
0.0
 20
0.0
 30
0.0
  3
B601
  0
TEXT
  8
0
  6
CONTINUOUS
 10
59.534832
 20
-5.235531
 30
0.0
 40
2.0
  1
:
  7
ROMANS
  0
TEXT
  8
0
  6
CONTINUOUS
 10
47.202831
 20
-68.668405
 30
0.0
 40
2.0
  1
1,2,3
  7
ROMANS
  0
TEXT
  8
0
  6
CONTINUOUS
 10
32.935125
 20
-68.668405
 30
0.0
 40
2.0
  1
1
  7
ROMANS
  0
TEXT
  8
0
  6
CONTINUOUS
 10
5.316239
 20
-68.668405
 30
0.0
 40
2.0
  1
U31
  7
ROMANS
  0
TEXT
  8
0
  6
CONTINUOUS
 10
47.202831
 20
-63.694849
 30
0.0
 40
2.0
  1
4,5,6
  7
ROMANS
  0
TEXT
  8
0
  6
CONTINUOUS
 10
32.935125
 20
-63.694849
 30
0.0
 40
2.0
  1
2
  7
ROMANS
  0
TEXT
  8
0
  6
CONTINUOUS
 10
5.316239
 20
-63.694849
 30
0.0
 40
2.0
  1
U23
  7
ROMANS
  0
TEXT
  8
0
  6
CONTINUOUS
 10
47.202831
 20
-58.424068
 30
0.0
 40
2.0
  1
7,8,9
  7
ROMANS
  0
TEXT
  8
0
  6
CONTINUOUS
 10
5.316239
 20
-58.424068
 30
0.0
 40
2.0
  1
U12
  7
ROMANS
  0
TEXT
  8
0
  6
CONTINUOUS
 10
32.935125
 20
-58.424068
 30
0.0
 40
2.0
  1
3
  7
ROMANS
  0
TEXT
  8
0
  6
CONTINUOUS
 10
46.901883
 20
-52.529116
 30
0.0
 40
2.0
  1
S2
  7
ROMANS
  0
TEXT
  8
0
  6
CONTINUOUS
 10
32.935125
 20
-52.529116
 30
0.0
 40
2.0
  1
S1
  7
ROMANS
  0
LINE
  8
0
  6
CONTINUOUS
 10
42.161359
 20
-70.0
 30
0.0
 11
42.161359
 21
-43.567582
 31
0.0
  0
LINE
  8
0
  6
CONTINUOUS
 10
26.511436
 20
-43.567582
 30
0.0
 11
26.511436
 21
-70.0
 31
0.0
  0
LINE
  8
0
  6
CONTINUOUS
 10
-0.988564
 20
-70.0
 30
0.0
 11
60.940538
 21
-70.0
 31
0.0
  0
LINE
  8
0
  6
CONTINUOUS
 10
-0.988564
 20
-65.0
 30
0.0
 11
-0.988564
 21
-70.0
 31
0.0
  0
LINE
  8
0
  6
CONTINUOUS
 10
60.940538
 20
-65.0
 30
0.0
 11
-0.988564
 21
-65.0
 31
0.0
  0
LINE
  8
0
  6
CONTINUOUS
 10
60.940538
 20
-43.567582
 30
0.0
 11
60.940538
 21
-70.0
 31
0.0
  0
LINE
  8
0
  6
CONTINUOUS
 10
-0.988564
 20
-60.0
 30
0.0
 11
60.940538
 21
-60.0
 31
0.0
  0
LINE
  8
0
  6
CONTINUOUS
 10
-0.988564
 20
-43.567582
 30
0.0
 11
-0.988564
 21
-70.0
 31
0.0
  0
LINE
  8
0
  6
CONTINUOUS
 10
60.940538
 20
-55.0
 30
0.0
 11
-0.988564
 21
-55.0
 31
0.0
  0
LINE
  8
0
  6
CONTINUOUS
 10
-0.988564
 20
-43.567582
 30
0.0
 11
60.940538
 21
-43.567582
 31
0.0
  0
TEXT
  8
0
  6
CENTER
 10
1.776436
 20
-53.768986
 30
0.0
 40
2.0
  1
SPÄNNINGDVAL
  7
ROMANS
  0
TEXT
  8
0
  6
CENTER
 10
1.776436
 20
-49.906719
 30
0.0
 40
2.0
  1
SELECTION
  7
ROMANS
  0
TEXT
  8
0
  6
CENTER
 10
1.776436
 20
-46.668624
 30
0.0
 40
2.0
  1
VOLTAGE
  7
ROMANS
  0
TEXT
  8
0
  6
CENTER
 10
-0.71888
 20
-33.597351
 30
0.0
 40
2.0
  1
I POSITION 1, ÖVRIGA SWITCHAR I POSITION 0.
  7
ROMANS
  0
TEXT
  8
0
  6
CENTER
 10
-0.71888
 20
-30.359256
 30
0.0
 40
2.0
  1
DE SWITCHAR SOM FINNS I TABELLEN SKALL VARA
  7
ROMANS
  0
TEXT
  8
0
  6
CENTER
 10
-0.71888
 20
-27.12116
 30
0.0
 40
2.0
  1
INSTÄLLNING AV SWITCHARNA S1 OCH S2:
  7
ROMANS
  0
TEXT
  8
0
  6
CENTER
 10
-0.640127
 20
-21.840472
 30
0.0
 40
2.0
  1
SPTM 6A3:
  7
ROMANS
  0
TEXT
  8
0
  6
CENTER
 10
-0.723312
 20
-11.870242
 30
0.0
 40
2.0
  1
POSITION 1, OTHER SWITCHES IN POSITION 0.
  7
ROMANS
  0
TEXT
  8
0
  6
CENTER
 10
-0.723312
 20
-8.632146
 30
0.0
 40
2.0
  1
SWITCHES MENTIONED IN THE TABLE SHOULD BE IN
  7
ROMANS
  0
TEXT
  8
0
  6
CENTER
 10
-0.723312
 20
-5.394051
 30
0.0
 40
2.0
  1
SETTING OF DIP SWITCHES S1 AND S2
  7
ROMANS
  0
TEXT
  8
0
  6
CENTER
 10
-0.453278
 20
0.595946
 30
0.0
 40
2.0
  1
SPTM 6A3:
  7
ROMANS
  0
ENDBLK
  8
0
  0
BLOCK
  8
0
  2
B650
 70
     0
 10
0.0
 20
0.0
 30
0.0
  3
B650
  0
LINE
  8
BASE1
  6
CONTINUOUS
 10
-0.345908
 20
0.860077
 30
0.0
 11
-0.345908
 21
-0.928054
 31
0.0
  0
LINE
  8
BASE1
  6
CONTINUOUS
 10
-0.306612
 20
-0.016496
 30
0.0
 11
7.236974
 21
-0.016496
 31
0.0
  0
INSERT
  8
BASE1
  6
CONTINUOUS
  2
BLC29
 10
2.460828
 20
0.051887
 30
0.0
 41
0.53231
 42
0.53231
 43
0.53231
  0
ENDBLK
  8
0
  0
BLOCK
  8
0
  2
B507
 70
    64
 10
0.0
 20
0.0
 30
0.0
  3
B507
  0
LINE
  8
0
  6
CONTINUOUS
 10
0.079622
 20
0.147754
 30
0.0
 11
0.079622
 21
-9.002074
 31
0.0
  0
INSERT
  8
0
  6
CONTINUOUS
  2
BLC29
 10
0.212369
 20
-6.641509
 30
0.0
 50
270.0
  0
ENDBLK
  8
0
  0
BLOCK
  8
0
  2
*X24
 70
    65
 10
0.0
 20
0.0
 30
0.0
  3
*X
  0
LINE
  8
0
  6
CONTINUOUS
 62
     0
 10
188.953992
 20
166.805669
 30
0.0
 11
190.802125
 21
167.131545
 31
0.0
  0
LINE
  8
0
  6
CONTINUOUS
 62
     0
 10
188.953992
 20
166.836132
 30
0.0
 11
190.730712
 21
167.149416
 31
0.0
  0
LINE
  8
0
  6
CONTINUOUS
 62
     0
 10
188.953992
 20
166.866595
 30
0.0
 11
190.6593
 21
167.167287
 31
0.0
  0
LINE
  8
0
  6
CONTINUOUS
 62
     0
 10
188.953992
 20
166.897058
 30
0.0
 11
190.587888
 21
167.185158
 31
0.0
  0
LINE
  8
0
  6
CONTINUOUS
 62
     0
 10
188.953992
 20
166.92752
 30
0.0
 11
190.516476
 21
167.203029
 31
0.0
  0
LINE
  8
0
  6
CONTINUOUS
 62
     0
 10
188.953992
 20
166.957983
 30
0.0
 11
190.445064
 21
167.2209
 31
0.0
  0
LINE
  8
0
  6
CONTINUOUS
 62
     0
 10
188.953992
 20
166.988446
 30
0.0
 11
190.373652
 21
167.23877
 31
0.0
  0
LINE
  8
0
  6
CONTINUOUS
 62
     0
 10
188.953992
 20
167.018909
 30
0.0
 11
190.30224
 21
167.256641
 31
0.0
  0
LINE
  8
0
  6
CONTINUOUS
 62
     0
 10
188.953992
 20
167.049372
 30
0.0
 11
190.230828
 21
167.274512
 31
0.0
  0
LINE
  8
0
  6
CONTINUOUS
 62
     0
 10
188.953992
 20
167.079834
 30
0.0
 11
190.159416
 21
167.292383
 31
0.0
  0
LINE
  8
0
  6
CONTINUOUS
 62
     0
 10
188.953992
 20
167.110297
 30
0.0
 11
190.088003
 21
167.310254
 31
0.0
  0
LINE
  8
0
  6
CONTINUOUS
 62
     0
 10
188.953992
 20
167.14076
 30
0.0
 11
190.016591
 21
167.328125
 31
0.0
  0
LINE
  8
0
  6
CONTINUOUS
 62
     0
 10
188.953992
 20
167.171223
 30
0.0
 11
189.945179
 21
167.345996
 31
0.0
  0
LINE
  8
0
  6
CONTINUOUS
 62
     0
 10
188.953992
 20
167.201686
 30
0.0
 11
189.873767
 21
167.363867
 31
0.0
  0
LINE
  8
0
  6
CONTINUOUS
 62
     0
 10
188.953992
 20
167.232148
 30
0.0
 11
189.802355
 21
167.381738
 31
0.0
  0
LINE
  8
0
  6
CONTINUOUS
 62
     0
 10
188.953992
 20
167.262611
 30
0.0
 11
189.730943
 21
167.399609
 31
0.0
  0
LINE
  8
0
  6
CONTINUOUS
 62
     0
 10
188.953992
 20
167.293074
 30
0.0
 11
189.659531
 21
167.41748
 31
0.0
  0
LINE
  8
0
  6
CONTINUOUS
 62
     0
 10
188.953992
 20
167.323537
 30
0.0
 11
189.588119
 21
167.435351
 31
0.0
  0
LINE
  8
0
  6
CONTINUOUS
 62
     0
 10
188.953992
 20
167.354
 30
0.0
 11
189.516707
 21
167.453221
 31
0.0
  0
LINE
  8
0
  6
CONTINUOUS
 62
     0
 10
188.953992
 20
167.384462
 30
0.0
 11
189.445295
 21
167.471092
 31
0.0
  0
LINE
  8
0
  6
CONTINUOUS
 62
     0
 10
188.953992
 20
167.414925
 30
0.0
 11
189.373882
 21
167.488963
 31
0.0
  0
LINE
  8
0
  6
CONTINUOUS
 62
     0
 10
188.953992
 20
167.445388
 30
0.0
 11
189.30247
 21
167.506834
 31
0.0
  0
LINE
  8
0
  6
CONTINUOUS
 62
     0
 10
188.953992
 20
167.475851
 30
0.0
 11
189.231058
 21
167.524705
 31
0.0
  0
LINE
  8
0
  6
CONTINUOUS
 62
     0
 10
188.953992
 20
167.506314
 30
0.0
 11
189.159646
 21
167.542576
 31
0.0
  0
LINE
  8
0
  6
CONTINUOUS
 62
     0
 10
188.953992
 20
167.536776
 30
0.0
 11
189.088234
 21
167.560447
 31
0.0
  0
LINE
  8
0
  6
CONTINUOUS
 62
     0
 10
188.953992
 20
167.567239
 30
0.0
 11
189.016822
 21
167.578318
 31
0.0
  0
LINE
  8
0
  6
CONTINUOUS
 62
     0
 10
188.953992
 20
166.775206
 30
0.0
 11
190.873537
 21
167.113674
 31
0.0
  0
LINE
  8
0
  6
CONTINUOUS
 62
     0
 10
188.953992
 20
166.744744
 30
0.0
 11
190.944949
 21
167.095803
 31
0.0
  0
LINE
  8
0
  6
CONTINUOUS
 62
     0
 10
188.953992
 20
166.714281
 30
0.0
 11
191.016361
 21
167.077932
 31
0.0
  0
LINE
  8
0
  6
CONTINUOUS
 62
     0
 10
188.953992
 20
166.683818
 30
0.0
 11
191.087773
 21
167.060061
 31
0.0
  0
LINE
  8
0
  6
CONTINUOUS
 62
     0
 10
188.953992
 20
166.653355
 30
0.0
 11
191.159185
 21
167.04219
 31
0.0
  0
LINE
  8
0
  6
CONTINUOUS
 62
     0
 10
188.953992
 20
166.622892
 30
0.0
 11
191.193385
 21
167.017758
 31
0.0
  0
LINE
  8
0
  6
CONTINUOUS
 62
     0
 10
188.953992
 20
166.59243
 30
0.0
 11
190.7813
 21
166.914633
 31
0.0
  0
LINE
  8
0
  6
CONTINUOUS
 62
     0
 10
188.953992
 20
166.561967
 30
0.0
 11
190.369215
 21
166.811509
 31
0.0
  0
LINE
  8
0
  6
CONTINUOUS
 62
     0
 10
188.953992
 20
166.531504
 30
0.0
 11
189.957129
 21
166.708384
 31
0.0
  0
LINE
  8
0
  6
CONTINUOUS
 62
     0
 10
188.953992
 20
166.501041
 30
0.0
 11
189.545044
 21
166.60526
 31
0.0
  0
LINE
  8
0
  6
CONTINUOUS
 62
     0
 10
188.953992
 20
166.470578
 30
0.0
 11
189.132959
 21
166.502135
 31
0.0
  0
ENDBLK
  8
0
  0
BLOCK
  8
0
  2
B72
 70
     0
 10
0.0
 20
0.0
 30
0.0
  3
B72
  0
TEXT
  8
0
  6
CONTINUOUS
 10
0.368306
 20
-79.326509
 30
0.0
 40
2.0
  1
9)
  0
TEXT
  8
0
  6
CONTINUOUS
 10
0.368306
 20
-59.268761
 30
0.0
 40
2.0
  1
9)
  0
TEXT
  8
0
  6
CONTINUOUS
 10
0.368306
 20
-39.436432
 30
0.0
 40
2.0
  1
9)
  0
TEXT
  8
0
  6
CONTINUOUS
 10
0.368306
 20
-19.248633
 30
0.0
 40
2.0
  1
9)
  0
TEXT
  8
0
  6
CONTINUOUS
 10
0.368306
 20
0.791776
 30
0.0
 40
2.0
  1
9)
  0
LINE
  8
0
  6
CONTINUOUS
 10
0.0
 20
-79.6532
 30
0.0
 11
0.0
 21
-85.33813
 31
0.0
  0
LINE
  8
0
  6
CONTINUOUS
 10
0.0
 20
-85.33813
 30
0.0
 11
-1.0
 21
-86.33813
 31
0.0
  0
LINE
  8
0
  6
CONTINUOUS
 10
0.0
 20
-79.6532
 30
0.0
 11
-1.0
 21
-78.6532
 31
0.0
  0
LINE
  8
0
  6
CONTINUOUS
 10
0.0
 20
-59.6532
 30
0.0
 11
-1.0
 21
-58.6532
 31
0.0
  0
LINE
  8
0
  6
CONTINUOUS
 10
0.0
 20
-65.33813
 30
0.0
 11
-1.0
 21
-66.33813
 31
0.0
  0
LINE
  8
0
  6
CONTINUOUS
 10
0.0
 20
-59.6532
 30
0.0
 11
0.0
 21
-65.33813
 31
0.0
  0
LINE
  8
0
  6
CONTINUOUS
 10
0.0
 20
-39.6532
 30
0.0
 11
0.0
 21
-45.33813
 31
0.0
  0
LINE
  8
0
  6
CONTINUOUS
 10
0.0
 20
-45.33813
 30
0.0
 11
-1.0
 21
-46.33813
 31
0.0
  0
LINE
  8
0
  6
CONTINUOUS
 10
0.0
 20
-39.6532
 30
0.0
 11
-1.0
 21
-38.6532
 31
0.0
  0
LINE
  8
0
  6
CONTINUOUS
 10
0.0
 20
-19.6532
 30
0.0
 11
-1.0
 21
-18.6532
 31
0.0
  0
LINE
  8
0
  6
CONTINUOUS
 10
0.0
 20
-25.33813
 30
0.0
 11
-1.0
 21
-26.33813
 31
0.0
  0
LINE
  8
0
  6
CONTINUOUS
 10
0.0
 20
-19.6532
 30
0.0
 11
0.0
 21
-25.33813
 31
0.0
  0
LINE
  8
0
  6
CONTINUOUS
 10
0.0
 20
0.3468
 30
0.0
 11
0.0
 21
-5.33813
 31
0.0
  0
LINE
  8
0
  6
CONTINUOUS
 10
0.0
 20
-5.33813
 30
0.0
 11
-1.0
 21
-6.33813
 31
0.0
  0
LINE
  8
0
  6
CONTINUOUS
 10
0.0
 20
0.3468
 30
0.0
 11
-1.0
 21
1.3468
 31
0.0
  0
LINE
  8
0
  6
DASHED
 10
30.0
 20
-77.5
 30
0.0
 11
30.0
 21
-102.5
 31
0.0
  0
LINE
  8
0
  6
DASHED
 10
52.5
 20
-90.0
 30
0.0
 11
52.5
 21
0.0
 31
0.0
  0
LINE
  8
0
  6
DASHED
 10
60.0
 20
-80.0
 30
0.0
 11
60.0
 21
-12.5
 31
0.0
  0
LINE
  8
0
  6
DASHED
 10
0.0
 20
-80.0
 30
0.0
 11
60.0
 21
-80.0
 31
0.0
  0
LINE
  8
0
  6
CONTINUOUS
 10
57.5
 20
0.0
 30
0.0
 11
52.5
 21
7.5
 31
0.0
  0
LINE
  8
0
  6
CONTINUOUS
 10
60.0
 20
0.0
 30
0.0
 11
57.5
 21
0.0
 31
0.0
  0
LINE
  8
0
  6
CONTINUOUS
 10
51.506031
 20
5.098556
 30
0.0
 11
52.478167
 21
5.098556
 31
0.0
  0
LINE
  8
0
  6
CONTINUOUS
 10
51.496128
 20
7.499996
 30
0.0
 11
52.473936
 21
7.499996
 31
0.0
  0
LINE
  8
0
  6
CONTINUOUS
 10
51.500897
 20
2.68998
 30
0.0
 11
52.5
 21
2.68998
 31
0.0
  0
ARC
  8
0
  6
CONTINUOUS
 10
50.864862
 20
3.894238
 30
0.0
 40
1.204309
 50
90.0
 51
270.0
  0
LINE
  8
0
  6
CONTINUOUS
 10
50.859898
 20
2.689937
 30
0.0
 11
51.509496
 21
2.689937
 31
0.0
  0
LINE
  8
0
  6
CONTINUOUS
 10
50.858762
 20
7.499993
 30
0.0
 11
51.502261
 21
7.499993
 31
0.0
  0
LINE
  8
0
  6
CONTINUOUS
 10
50.858762
 20
5.098547
 30
0.0
 11
51.50836
 21
5.098547
 31
0.0
  0
ARC
  8
0
  6
CONTINUOUS
 10
50.864862
 20
6.296095
 30
0.0
 40
1.204309
 50
90.0
 51
265.706237
  0
LINE
  8
0
  6
CONTINUOUS
 10
59.006031
 20
5.098556
 30
0.0
 11
59.978167
 21
5.098556
 31
0.0
  0
LINE
  8
0
  6
CONTINUOUS
 10
58.996128
 20
7.499996
 30
0.0
 11
59.973936
 21
7.499996
 31
0.0
  0
LINE
  8
0
  6
CONTINUOUS
 10
59.000897
 20
2.68998
 30
0.0
 11
60.0
 21
2.68998
 31
0.0
  0
ARC
  8
0
  6
CONTINUOUS
 10
58.364862
 20
3.894238
 30
0.0
 40
1.204309
 50
90.0
 51
270.0
  0
LINE
  8
0
  6
CONTINUOUS
 10
58.359898
 20
2.689937
 30
0.0
 11
59.009496
 21
2.689937
 31
0.0
  0
LINE
  8
0
  6
CONTINUOUS
 10
58.358762
 20
7.499993
 30
0.0
 11
59.002261
 21
7.499993
 31
0.0
  0
LINE
  8
0
  6
CONTINUOUS
 10
58.358762
 20
5.098547
 30
0.0
 11
59.00836
 21
5.098547
 31
0.0
  0
ARC
  8
0
  6
CONTINUOUS
 10
58.364862
 20
6.296095
 30
0.0
 40
1.204309
 50
90.0
 51
265.706237
  0
LINE
  8
0
  6
CONTINUOUS
 10
60.0
 20
2.68998
 30
0.0
 11
60.0
 21
0.0
 31
0.0
  0
LINE
  8
0
  6
CONTINUOUS
 10
52.5
 20
2.68998
 30
0.0
 11
52.5
 21
0.0
 31
0.0
  0
POLYLINE
  8
0
  6
DASHED
 66
     1
 10
0.0
 20
0.0
 30
0.0
 70
     1
 40
0.25
 41
0.25
 71
     2
 72
   151
  0
VERTEX
  8
0
  6
DASHED
 10
59.625
 20
35.0
 30
0.0
 42
1.0
  0
VERTEX
  8
0
  6
DASHED
 10
60.375
 20
35.0
 30
0.0
 42
1.0
  0
SEQEND
  8
0
  6
DASHED
  0
POLYLINE
  8
0
  6
DASHED
 66
     1
 10
0.0
 20
0.0
 30
0.0
 70
     1
 40
0.25
 41
0.25
 71
     2
 72
   151
  0
VERTEX
  8
0
  6
DASHED
 10
52.125
 20
40.0
 30
0.0
 42
1.0
  0
VERTEX
  8
0
  6
DASHED
 10
52.875
 20
40.0
 30
0.0
 42
1.0
  0
SEQEND
  8
0
  6
DASHED
  0
LINE
  8
0
  6
DASHED
 10
60.0
 20
17.5
 30
0.0
 11
60.0
 21
35.0
 31
0.0
  0
LINE
  8
0
  6
DASHED
 10
52.5
 20
17.5
 30
0.0
 11
52.5
 21
40.0
 31
0.0
  0
INSERT
  8
0
  6
CONTINUOUS
  2
BLC27
 10
58.465932
 20
15.071549
 30
0.0
  0
INSERT
  8
0
  6
CONTINUOUS
  2
BLC27
 10
50.965932
 20
15.071549
 30
0.0
  0
POLYLINE
  8
0
  6
DASHED
 66
     1
 10
0.0
 20
0.0
 30
0.0
 70
     1
 40
0.25
 41
0.25
 71
     2
 72
   151
  0
VERTEX
  8
0
  6
DASHED
 10
19.623777
 20
-50.00007
 30
0.0
 42
1.0
  0
VERTEX
  8
0
  6
DASHED
 10
20.373777
 20
-50.00007
 30
0.0
 42
1.0
  0
SEQEND
  8
0
  6
DASHED
  0
POLYLINE
  8
0
  6
DASHED
 66
     1
 10
0.0
 20
0.0
 30
0.0
 70
     1
 40
0.25
 41
0.25
 71
     2
 72
   151
  0
VERTEX
  8
0
  6
DASHED
 10
19.624033
 20
-44.810354
 30
0.0
 42
1.0
  0
VERTEX
  8
0
  6
DASHED
 10
20.374033
 20
-44.810354
 30
0.0
 42
1.0
  0
SEQEND
  8
0
  6
DASHED
  0
POLYLINE
  8
0
  6
DASHED
 66
     1
 10
0.0
 20
0.0
 30
0.0
 70
     1
 40
0.25
 41
0.25
 71
     2
 72
   151
  0
VERTEX
  8
0
  6
DASHED
 10
19.624166
 20
-24.809666
 30
0.0
 42
1.0
  0
VERTEX
  8
0
  6
DASHED
 10
20.374166
 20
-24.809666
 30
0.0
 42
1.0
  0
SEQEND
  8
0
  6
DASHED
  0
LINE
  8
0
  6
DASHED
 10
35.0
 20
-40.0
 30
0.0
 11
0.0
 21
-40.0
 31
0.0
  0
LINE
  8
0
  6
DASHED
 10
30.0
 20
-20.0
 30
0.0
 11
0.0
 21
-20.0
 31
0.0
  0
LINE
  8
0
  6
DASHED
 10
25.0
 20
0.0
 30
0.0
 11
0.0
 21
0.0
 31
0.0
  0
LINE
  8
0
  6
DASHED
 10
27.5
 20
-70.0
 30
0.0
 11
30.0
 21
-70.0
 31
0.0
  0
LINE
  8
0
  6
DASHED
 10
30.0
 20
-70.0
 30
0.0
 11
30.0
 21
-70.0
 31
0.0
  0
LINE
  8
0
  6
DASHED
 10
17.5
 20
-65.189984
 30
0.0
 11
30.0
 21
-65.189984
 31
0.0
  0
LINE
  8
0
  6
CONTINUOUS
 10
27.5
 20
-67.59856
 30
0.0
 11
30.0
 21
-67.59856
 31
0.0
  0
INSERT
  8
0
  6
CONTINUOUS
  2
BLC27
 10
31.49116
 20
-67.571554
 30
0.0
 50
180.0
  0
LINE
  8
0
  6
DASHED
 10
17.5
 20
-75.0
 30
0.0
 11
17.5
 21
-70.0
 31
0.0
  0
INSERT
  8
0
  6
CONTINUOUS
  2
BLC15
 10
17.357916
 20
-77.5
 30
0.0
  0
POLYLINE
  8
0
  6
DASHED
 66
     1
 10
0.0
 20
0.0
 30
0.0
 70
     1
 40
0.25
 41
0.25
 71
     2
 72
   151
  0
VERTEX
  8
0
  6
DASHED
 10
27.125
 20
-52.5
 30
0.0
 42
1.0
  0
VERTEX
  8
0
  6
DASHED
 10
27.875
 20
-52.5
 30
0.0
 42
1.0
  0
SEQEND
  8
0
  6
DASHED
  0
LINE
  8
0
  6
DASHED
 10
27.5
 20
-52.5
 30
0.0
 11
27.5
 21
-75.0
 31
0.0
  0
LINE
  8
0
  6
CONTINUOUS
 10
30.0
 20
-57.5
 30
0.0
 11
30.0
 21
-77.5
 31
0.0
  0
LINE
  8
0
  6
CONTINUOUS
 10
30.0
 20
-57.5
 30
0.0
 11
32.5
 21
-52.5
 31
0.0
  0
LINE
  8
0
  6
CONTINUOUS
 10
27.5
 20
-52.5
 30
0.0
 11
30.0
 21
-57.5
 31
0.0
  0
LINE
  8
0
  6
CONTINUOUS
 10
25.0
 20
-52.5
 30
0.0
 11
35.0
 21
-52.5
 31
0.0
  0
LINE
  8
0
  6
DASHED
 10
20.0
 20
-4.810008
 30
0.0
 11
20.0
 21
-52.5
 31
0.0
  0
POLYLINE
  8
0
  6
DASHED
 66
     1
 10
0.0
 20
0.0
 30
0.0
 70
     1
 40
0.25
 41
0.25
 71
     2
 72
   251
  0
VERTEX
  8
0
  6
DASHED
 10
17.125
 20
-70.0
 30
0.0
 42
1.0
  0
VERTEX
  8
0
  6
DASHED
 10
17.875
 20
-70.0
 30
0.0
 42
1.0
  0
SEQEND
  8
0
  6
DASHED
  0
INSERT
  8
0
  6
CONTINUOUS
  2
BLC15
 10
27.357916
 20
-77.5
 30
0.0
  0
LINE
  8
0
  6
DASHED
 10
17.5
 20
-60.0
 30
0.0
 11
17.5
 21
-65.189984
 31
0.0
  0
LINE
  8
0
  6
DASHED
 10
0.0
 20
-60.0
 30
0.0
 11
17.5
 21
-60.0
 31
0.0
  0
LINE
  8
0
  6
DASHED
 10
5.0
 20
-10.0
 30
0.0
 11
5.0
 21
-50.0
 31
0.0
  0
LINE
  8
0
  6
DASHED
 10
35.006921
 20
-44.810016
 30
0.0
 11
20.0
 21
-44.810016
 31
0.0
  0
LINE
  8
0
  6
DASHED
 10
30.069797
 20
-24.810016
 30
0.0
 11
20.0
 21
-24.810016
 31
0.0
  0
POLYLINE
  8
0
  6
DASHED
 66
     1
 10
0.0
 20
0.0
 30
0.0
 70
     1
 40
0.25
 41
0.25
 71
     2
 72
   151
  0
VERTEX
  8
0
  6
DASHED
 10
4.625
 20
-50.0
 30
0.0
 42
1.0
  0
VERTEX
  8
0
  6
DASHED
 10
5.375
 20
-50.0
 30
0.0
 42
1.0
  0
SEQEND
  8
0
  6
DASHED
  0
POLYLINE
  8
0
  6
DASHED
 66
     1
 10
0.0
 20
0.0
 30
0.0
 70
     1
 40
0.25
 41
0.25
 71
     2
 72
   151
  0
VERTEX
  8
0
  6
DASHED
 10
4.625
 20
-30.0
 30
0.0
 42
1.0
  0
VERTEX
  8
0
  6
DASHED
 10
5.375
 20
-30.0
 30
0.0
 42
1.0
  0
SEQEND
  8
0
  6
DASHED
  0
LINE
  8
0
  6
DASHED
 10
25.0
 20
-27.5
 30
0.0
 11
25.0
 21
-52.5
 31
0.0
  0
LINE
  8
0
  6
DASHED
 10
30.0
 20
-27.5
 30
0.0
 11
30.0
 21
-52.5
 31
0.0
  0
LINE
  8
0
  6
DASHED
 10
35.0
 20
-27.5
 30
0.0
 11
35.0
 21
-52.5
 31
0.0
  0
INSERT
  8
0
  6
CONTINUOUS
  2
BLC15
 10
19.857916
 20
-55.0
 30
0.0
  0
INSERT
  8
0
  6
CONTINUOUS
  2
BLC27
 10
26.491154
 20
-2.381567
 30
0.0
 50
180.0
  0
LINE
  8
0
  6
DASHED
 10
25.0
 20
5.0
 30
0.0
 11
25.0
 21
-27.5
 31
0.0
  0
LINE
  8
0
  6
DASHED
 10
25.0
 20
12.5
 30
0.0
 11
25.0
 21
25.0
 31
0.0
  0
LINE
  8
0
  6
DASHED
 10
30.0
 20
35.0
 30
0.0
 11
30.0
 21
12.5
 31
0.0
  0
LINE
  8
0
  6
DASHED
 10
30.0
 20
5.0
 30
0.0
 11
30.0
 21
-27.5
 31
0.0
  0
LINE
  8
0
  6
DASHED
 10
35.0
 20
30.0
 30
0.0
 11
35.0
 21
12.5
 31
0.0
  0
LINE
  8
0
  6
DASHED
 10
35.0
 20
5.0
 30
0.0
 11
35.0
 21
-27.5
 31
0.0
  0
LINE
  8
0
  6
DASHED
 10
30.0
 20
25.0
 30
0.0
 11
30.0
 21
32.5
 31
0.0
  0
LINE
  8
0
  6
DASHED
 10
25.0
 20
25.0
 30
0.0
 11
25.0
 21
40.0
 31
0.0
  0
INSERT
  8
0
  6
CONTINUOUS
  2
BLC27
 10
31.51227
 20
-22.38157
 30
0.0
 50
180.0
  0
LINE
  8
0
  6
CONTINUOUS
 10
25.0
 20
5.0
 30
0.0
 11
22.5
 21
12.5
 31
0.0
  0
LINE
  8
0
  6
CONTINUOUS
 10
30.0
 20
5.0
 30
0.0
 11
27.5
 21
12.5
 31
0.0
  0
LINE
  8
0
  6
CONTINUOUS
 10
35.0
 20
5.0
 30
0.0
 11
32.5
 21
12.5
 31
0.0
  0
LINE
  8
0
  6
CONTINUOUS
 10
25.0
 20
12.5
 30
0.0
 11
24.5
 21
13.0
 31
0.0
  0
LINE
  8
0
  6
CONTINUOUS
 10
25.0
 20
12.5
 30
0.0
 11
25.5
 21
12.0
 31
0.0
  0
LINE
  8
0
  6
CONTINUOUS
 10
25.0
 20
12.5
 30
0.0
 11
25.5
 21
13.0
 31
0.0
  0
LINE
  8
0
  6
CONTINUOUS
 10
25.0
 20
12.5
 30
0.0
 11
24.5
 21
12.0
 31
0.0
  0
LINE
  8
0
  6
CONTINUOUS
 10
30.0
 20
12.5
 30
0.0
 11
30.5
 21
13.0
 31
0.0
  0
LINE
  8
0
  6
CONTINUOUS
 10
30.0
 20
12.5
 30
0.0
 11
30.5
 21
12.0
 31
0.0
  0
LINE
  8
0
  6
CONTINUOUS
 10
30.0
 20
12.5
 30
0.0
 11
29.5
 21
12.0
 31
0.0
  0
LINE
  8
0
  6
CONTINUOUS
 10
30.0
 20
12.5
 30
0.0
 11
29.5
 21
13.0
 31
0.0
  0
LINE
  8
0
  6
CONTINUOUS
 10
35.0
 20
12.5
 30
0.0
 11
35.5
 21
12.0
 31
0.0
  0
LINE
  8
0
  6
CONTINUOUS
 10
35.0
 20
12.5
 30
0.0
 11
35.5
 21
13.0
 31
0.0
  0
LINE
  8
0
  6
CONTINUOUS
 10
35.0
 20
12.5
 30
0.0
 11
34.5
 21
13.0
 31
0.0
  0
LINE
  8
0
  6
CONTINUOUS
 10
35.0
 20
12.5
 30
0.0
 11
34.5
 21
12.0
 31
0.0
  0
POLYLINE
  8
0
  6
CONTINUOUS
 66
     1
 10
0.0
 20
0.0
 30
0.0
 70
     1
 40
0.25
 41
0.25
 71
     2
 72
   151
  0
VERTEX
  8
0
  6
CONTINUOUS
 10
34.625
 20
30.0
 30
0.0
 42
1.0
  0
VERTEX
  8
0
  6
CONTINUOUS
 10
35.375
 20
30.0
 30
0.0
 42
1.0
  0
SEQEND
  8
0
  6
CONTINUOUS
  0
POLYLINE
  8
0
  6
CONTINUOUS
 66
     1
 10
0.0
 20
0.0
 30
0.0
 70
     1
 40
0.25
 41
0.25
 71
     2
 72
   151
  0
VERTEX
  8
0
  6
CONTINUOUS
 10
29.625
 20
35.0
 30
0.0
 42
1.0
  0
VERTEX
  8
0
  6
CONTINUOUS
 10
30.375
 20
35.0
 30
0.0
 42
1.0
  0
SEQEND
  8
0
  6
CONTINUOUS
  0
POLYLINE
  8
0
  6
CONTINUOUS
 66
     1
 10
0.0
 20
0.0
 30
0.0
 70
     1
 40
0.25
 41
0.25
 71
     2
 72
   151
  0
VERTEX
  8
0
  6
CONTINUOUS
 10
24.625
 20
40.0
 30
0.0
 42
1.0
  0
VERTEX
  8
0
  6
CONTINUOUS
 10
25.375
 20
40.0
 30
0.0
 42
1.0
  0
SEQEND
  8
0
  6
CONTINUOUS
  0
INSERT
  8
0
  6
CONTINUOUS
  2
BLC27
 10
36.491155
 20
-42.381569
 30
0.0
 50
180.0
  0
LINE
  8
0
  6
DASHED
 10
25.0
 20
-4.810008
 30
0.0
 11
20.0
 21
-4.810008
 31
0.0
  0
TEXT
  8
0
  6
CONTINUOUS
 10
8.732328
 20
38.985054
 30
0.0
 40
2.0
  1
L1(R)
 11
8.732328
 21
38.318387
 31
0.0
 73
     1
  0
TEXT
  8
0
  6
CONTINUOUS
 10
8.732328
 20
33.928359
 30
0.0
 40
2.0
  1
L2(S)
 11
8.732328
 21
33.261693
 31
0.0
 73
     1
  0
TEXT
  8
0
  6
CONTINUOUS
 10
8.732328
 20
29.006967
 30
0.0
 40
2.0
  1
L3(T)
 11
8.732328
 21
28.3403
 31
0.0
 73
     1
  0
LINE
  8
0
  6
DASHED
 10
-5.0
 20
-90.0
 30
0.0
 11
52.5
 21
-90.0
 31
0.0
  0
LINE
  8
0
  6
CONTINUOUS
 10
-5.0
 20
-85.0
 30
0.0
 11
-2.5
 21
-85.0
 31
0.0
  0
LINE
  8
0
  6
CONTINUOUS
 10
-5.0
 20
-80.0
 30
0.0
 11
-2.5
 21
-80.0
 31
0.0
  0
LINE
  8
0
  6
DASHED
 10
-5.0
 20
-70.0
 30
0.0
 11
27.5
 21
-70.0
 31
0.0
  0
LINE
  8
0
  6
CONTINUOUS
 10
-5.0
 20
-65.0
 30
0.0
 11
-2.5
 21
-65.0
 31
0.0
  0
LINE
  8
0
  6
CONTINUOUS
 10
-5.0
 20
-60.0
 30
0.0
 11
-2.5
 21
-60.0
 31
0.0
  0
LINE
  8
0
  6
DASHED
 10
-5.0
 20
-50.0
 30
0.0
 11
20.0
 21
-50.0
 31
0.0
  0
LINE
  8
0
  6
CONTINUOUS
 10
-5.0
 20
-45.0
 30
0.0
 11
-2.5
 21
-45.0
 31
0.0
  0
LINE
  8
0
  6
CONTINUOUS
 10
-5.0
 20
-40.0
 30
0.0
 11
-2.5
 21
-40.0
 31
0.0
  0
LINE
  8
0
  6
DASHED
 10
-5.0
 20
-30.0
 30
0.0
 11
5.0
 21
-30.0
 31
0.0
  0
LINE
  8
0
  6
CONTINUOUS
 10
-5.0
 20
-25.0
 30
0.0
 11
-2.5
 21
-25.0
 31
0.0
  0
LINE
  8
0
  6
CONTINUOUS
 10
-5.0
 20
-20.0
 30
0.0
 11
-2.5
 21
-20.0
 31
0.0
  0
LINE
  8
0
  6
DASHED
 10
-5.0
 20
-10.0
 30
0.0
 11
5.0
 21
-10.0
 31
0.0
  0
LINE
  8
0
  6
CONTINUOUS
 10
-5.0
 20
-5.0
 30
0.0
 11
-2.5
 21
-5.0
 31
0.0
  0
LINE
  8
0
  6
CONTINUOUS
 10
-5.0
 20
0.0
 30
0.0
 11
-2.5
 21
0.0
 31
0.0
  0
POLYLINE
  8
0
  6
DASHED
 66
     1
 10
0.0
 20
0.0
 30
0.0
 70
     1
 40
0.25
 41
0.25
 71
     2
 72
   151
  0
VERTEX
  8
0
  6
DASHED
 10
77.125
 20
7.5
 30
0.0
 42
1.0
  0
VERTEX
  8
0
  6
DASHED
 10
77.875
 20
7.5
 30
0.0
 42
1.0
  0
SEQEND
  8
0
  6
DASHED
  0
LINE
  8
0
  6
DASHED
 10
77.5
 20
-12.5
 30
0.0
 11
77.5
 21
7.5
 31
0.0
  0
LINE
  8
0
  6
DASHED
 10
60.0
 20
-12.5
 30
0.0
 11
77.5
 21
-12.5
 31
0.0
  0
LINE
  8
0
  6
DASHED
 10
72.5
 20
12.68998
 30
0.0
 11
81.663362
 21
12.68998
 31
0.0
  0
LINE
  8
0
  6
DASHED
 10
72.5
 20
7.5
 30
0.0
 11
81.84682
 21
7.5
 31
0.0
  0
INSERT
  8
0
  6
CONTINUOUS
  2
BLC15
 10
85.0
 20
12.547896
 30
0.0
 50
90.0
  0
INSERT
  8
0
  6
CONTINUOUS
  2
BLC15
 10
85.0
 20
7.357916
 30
0.0
 50
90.0
  0
LINE
  8
0
  6
CONTINUOUS
 10
67.5
 20
7.5
 30
0.0
 11
72.5
 21
7.5
 31
0.0
  0
LINE
  8
0
  6
CONTINUOUS
 10
65.0
 20
0.0
 30
0.0
 11
60.0
 21
7.5
 31
0.0
  0
LINE
  8
0
  6
CONTINUOUS
 10
67.5
 20
0.0
 30
0.0
 11
65.0
 21
0.0
 31
0.0
  0
LINE
  8
0
  6
CONTINUOUS
 10
66.506031
 20
5.098556
 30
0.0
 11
67.478167
 21
5.098556
 31
0.0
  0
LINE
  8
0
  6
CONTINUOUS
 10
66.496128
 20
7.499996
 30
0.0
 11
67.473936
 21
7.499996
 31
0.0
  0
LINE
  8
0
  6
CONTINUOUS
 10
66.500897
 20
2.68998
 30
0.0
 11
67.5
 21
2.68998
 31
0.0
  0
ARC
  8
0
  6
CONTINUOUS
 10
65.864862
 20
3.894238
 30
0.0
 40
1.204309
 50
90.0
 51
270.0
  0
LINE
  8
0
  6
CONTINUOUS
 10
65.859898
 20
2.689937
 30
0.0
 11
66.509496
 21
2.689937
 31
0.0
  0
LINE
  8
0
  6
CONTINUOUS
 10
65.858762
 20
7.499993
 30
0.0
 11
66.502261
 21
7.499993
 31
0.0
  0
LINE
  8
0
  6
CONTINUOUS
 10
65.858762
 20
5.098547
 30
0.0
 11
66.50836
 21
5.098547
 31
0.0
  0
ARC
  8
0
  6
CONTINUOUS
 10
65.864862
 20
6.296095
 30
0.0
 40
1.204309
 50
90.0
 51
265.706237
  0
LINE
  8
0
  6
CONTINUOUS
 10
67.5
 20
2.68998
 30
0.0
 11
67.5
 21
0.0
 31
0.0
  0
LINE
  8
0
  6
CONTINUOUS
 10
52.5
 20
12.68998
 30
0.0
 11
72.5
 21
12.68998
 31
0.0
  0
POLYLINE
  8
0
  6
DASHED
 66
     1
 10
0.0
 20
0.0
 30
0.0
 70
     1
 40
0.25
 41
0.25
 71
     2
 72
   151
  0
VERTEX
  8
0
  6
DASHED
 10
67.125
 20
30.0
 30
0.0
 42
1.0
  0
VERTEX
  8
0
  6
DASHED
 10
67.875
 20
30.0
 30
0.0
 42
1.0
  0
SEQEND
  8
0
  6
DASHED
  0
LINE
  8
0
  6
DASHED
 10
67.5
 20
17.5
 30
0.0
 11
67.5
 21
30.0
 31
0.0
  0
INSERT
  8
0
  6
CONTINUOUS
  2
BLC27
 10
65.965932
 20
15.071549
 30
0.0
  0
LINE
  8
0
  6
DASHED
 10
103.595465
 20
30.0
 30
0.0
 11
17.5
 21
30.0
 31
0.0
  0
LINE
  8
0
  6
DASHED
 10
103.595465
 20
35.0
 30
0.0
 11
17.5
 21
35.0
 31
0.0
  0
LINE
  8
0
  6
DASHED
 10
103.595465
 20
40.0
 30
0.0
 11
17.5
 21
40.0
 31
0.0
  0
ENDBLK
  8
0
  0
BLOCK
  8
0
  2
B146
 70
     0
 10
0.0
 20
0.0
 30
0.0
  3
B146
  0
LINE
  8
0
 10
17.5
 20
-4.828202
 30
0.0
 11
62.5
 21
-4.828202
 31
0.0
  0
LINE
  8
0
  6
CONTINUOUS
 10
17.5
 20
-10.0
 30
0.0
 11
62.5
 21
-10.0
 31
0.0
  0
LINE
  8
0
  6
CONTINUOUS
 10
5.0
 20
0.0
 30
0.0
 11
62.5
 21
0.0
 31
0.0
  0
LINE
  8
0
  6
CONTINUOUS
 10
5.0
 20
-25.0
 30
0.0
 11
62.5
 21
-25.0
 31
0.0
  0
TEXT
  8
0
  6
CENTER
 10
20.0
 20
-21.666667
 30
0.0
 40
2.0
  1
25-28
  0
TEXT
  8
0
  6
CENTER
 10
19.998602
 20
-8.389298
 30
0.0
 40
2.0
  1
In=0,2A
  0
LINE
  8
0
  6
CONTINUOUS
 10
17.5
 20
-25.0
 30
0.0
 11
17.5
 21
0.0
 31
0.0
  0
LINE
  8
0
  6
CONTINUOUS
 10
12.616787
 20
-20.534894
 30
0.0
 11
12.616787
 21
-21.889164
 31
0.0
  0
LINE
  8
0
  6
CONTINUOUS
 10
11.406559
 20
-21.889164
 30
0.0
 11
12.6009
 21
-21.889164
 31
0.0
  0
LINE
  8
0
  6
CONTINUOUS
 10
12.6009
 20
-21.889164
 30
0.0
 11
13.795241
 21
-21.889164
 31
0.0
  0
LINE
  8
0
  6
CONTINUOUS
 10
11.784965
 20
-22.368774
 30
0.0
 11
13.369536
 21
-22.368774
 31
0.0
  0
LINE
  8
0
  6
CONTINUOUS
 10
12.116069
 20
-22.856949
 30
0.0
 11
13.002956
 21
-22.856949
 31
0.0
  0
TEXT
  8
0
  6
CENTER
 10
10.0
 20
-21.666667
 30
0.0
 40
2.0
  1
I
  0
TEXT
  8
0
  6
CENTER
 10
10.0
 20
-18.333333
 30
0.0
 40
2.0
  1
L3
  0
TEXT
  8
0
  6
CENTER
 10
10.0
 20
-15.0
 30
0.0
 40
2.0
  1
L1
  0
TEXT
  8
0
  6
CENTER
 10
50.0
 20
-21.666667
 30
0.0
 40
2.0
  1
25-26
  0
TEXT
  8
0
  6
CENTER
 10
50.0
 20
-18.333333
 30
0.0
 40
2.0
  1
7-8
  0
TEXT
  8
0
  6
CENTER
 10
50.0
 20
-15.0
 30
0.0
 40
2.0
  1
1-2
  0
TEXT
  8
0
  6
CENTER
 10
35.0
 20
-21.666667
 30
0.0
 40
2.0
  1
25-27
  0
TEXT
  8
0
  6
CENTER
 10
35.0
 20
-18.333333
 30
0.0
 40
2.0
  1
7-9
  0
TEXT
  8
0
  6
CENTER
 10
35.0
 20
-15.0
 30
0.0
 40
2.0
  1
1-3
  0
LINE
  8
0
 10
5.0
 20
0.0
 30
0.0
 11
5.0
 21
-25.0
 31
0.0
  0
LINE
  8
0
 10
62.5
 20
-25.0
 30
0.0
 11
62.5
 21
0.0
 31
0.0
  0
LINE
  8
0
 10
32.5
 20
-4.828202
 30
0.0
 11
32.5
 21
-25.0
 31
0.0
  0
LINE
  8
0
 10
47.5
 20
-4.828202
 30
0.0
 11
47.5
 21
-25.0
 31
0.0
  0
TEXT
  8
0
 10
23.041221
 20
-4.161535
 30
0.0
 40
2.0
  1
TERMINALS / UTTAG
 11
23.041221
 21
-4.828202
 31
0.0
 73
     1
  0
TEXT
  8
0
 10
35.120167
 20
-8.449983
 30
0.0
 40
2.0
  1
In=1A 
 11
35.120167
 21
-9.11665
 31
0.0
 73
     1
  0
TEXT
  8
0
 10
49.969965
 20
-8.449983
 30
0.0
 40
2.0
  1
In=5A
 11
49.969965
 21
-9.11665
 31
0.0
 73
     1
  0
TEXT
  8
0
  6
CONTINUOUS
 10
1.50882
 20
1.838465
 30
0.0
 40
2.0
  1
1)
 11
1.50882
 21
1.171798
 31
0.0
 73
     1
  0
ENDBLK
  8
0
  0
BLOCK
  8
0
  2
B155
 70
     0
 10
0.0
 20
0.0
 30
0.0
  3
B155
  0
LINE
  8
0
  6
CONTINUOUS
 10
0.0
 20
0.0
 30
0.0
 11
0.0
 21
-1.35427
 31
0.0
  0
LINE
  8
0
  6
CONTINUOUS
 10
-1.210228
 20
-1.35427
 30
0.0
 11
-0.015887
 21
-1.35427
 31
0.0
  0
LINE
  8
0
  6
CONTINUOUS
 10
-0.015887
 20
-1.35427
 30
0.0
 11
1.178454
 21
-1.35427
 31
0.0
  0
LINE
  8
0
  6
CONTINUOUS
 10
-0.831823
 20
-1.976333
 30
0.0
 11
0.752749
 21
-1.976333
 31
0.0
  0
LINE
  8
0
  6
CONTINUOUS
 10
-0.500718
 20
-2.587966
 30
0.0
 11
0.386169
 21
-2.587966
 31
0.0
  0
ENDBLK
  8
0
  0
BLOCK
  8
0
  2
B73
 70
     0
 10
0.0
 20
0.0
 30
0.0
  3
B73
  0
INSERT
  8
BASE1
  6
CONTINUOUS
  2
BLC29
 10
-1.512794
 20
1.285397
 30
0.0
 41
0.53231
 42
0.53231
 50
180.0
 43
0.53231
  0
INSERT
  8
BASE1
  6
CONTINUOUS
  2
BLC29
 10
2.106391
 20
1.435478
 30
0.0
 41
0.53231
 42
0.53231
 43
0.53231
  0
LINE
  8
BASE1
  6
CONTINUOUS
 10
-3.513924
 20
1.367095
 30
0.0
 11
4.029662
 21
1.367095
 31
0.0
  0
ENDBLK
  8
0
  0
BLOCK
  8
0
  2
B700
 70
     0
 10
0.0
 20
0.0
 30
0.0
  3
B700
  0
LINE
  8
BASE
  6
CONTINUOUS
 10
2.58236
 20
-0.393113
 30
0.0
 11
5.45847
 21
2.435445
 31
0.0
  0
LINE
  8
BASE
  6
CONTINUOUS
 10
5.027767
 20
2.972652
 30
0.0
 11
5.928444
 21
1.848903
 31
0.0
  0
LINE
  8
BASE
  6
CONTINUOUS
 10
-0.01697
 20
0.774489
 30
0.0
 11
8.70777
 21
0.774489
 31
0.0
  0
LINE
  8
BASE
  6
CONTINUOUS
 10
-0.01697
 20
1.583815
 30
0.0
 11
-0.01697
 21
-0.031378
 31
0.0
  0
LINE
  8
BASE
  6
CONTINUOUS
 10
8.712546
 20
1.583815
 30
0.0
 11
8.712546
 21
-0.031378
 31
0.0
  0
ARC
  8
BASE
  6
CONTINUOUS
 10
6.110874
 20
2.567876
 30
0.0
 40
2.922744
 50
193.105513
 51
283.105513
  0
ENDBLK
  8
0
  0
BLOCK
  8
0
  2
B93
 70
     0
 10
0.0
 20
0.0
 30
0.0
  3
B93
  0
LINE
  8
0
  6
DASHED
 10
0.16385
 20
10.810102
 30
0.0
 11
0.16385
 21
0.0
 31
0.0
  0
CIRCLE
  8
0
  6
CONTINUOUS
 10
0.166598
 20
15.208687
 30
0.0
 40
4.398585
  0
CIRCLE
  8
0
  6
CONTINUOUS
 10
7.166803
 20
15.208687
 30
0.0
 40
4.398585
  0
CIRCLE
  8
0
  6
CONTINUOUS
 10
3.691658
 20
21.328362
 30
0.0
 40
4.398585
  0
LINE
  8
0
  6
CONTINUOUS
 10
-2.151915
 20
16.942673
 30
0.0
 11
0.181486
 21
14.609271
 31
0.0
  0
LINE
  8
0
  6
CONTINUOUS
 10
0.181486
 20
14.609271
 30
0.0
 11
2.514888
 21
16.942673
 31
0.0
  0
LINE
  8
0
  6
CONTINUOUS
 10
0.181486
 20
14.609271
 30
0.0
 11
0.181486
 21
12.275869
 31
0.0
  0
LINE
  8
0
  6
CONTINUOUS
 10
7.276533
 20
17.852906
 30
0.0
 11
4.943131
 21
13.186103
 31
0.0
  0
LINE
  8
0
  6
CONTINUOUS
 10
4.943131
 20
13.186103
 30
0.0
 11
9.609934
 21
13.186103
 31
0.0
  0
LINE
  8
0
  6
CONTINUOUS
 10
9.609934
 20
13.186103
 30
0.0
 11
7.276533
 21
17.852906
 31
0.0
  0
LINE
  8
0
  6
CONTINUOUS
 10
3.723922
 20
21.155814
 30
0.0
 11
3.723922
 21
18.822412
 31
0.0
  0
LINE
  8
0
  6
CONTINUOUS
 10
1.750876
 20
23.12886
 30
0.0
 11
3.723922
 21
21.155814
 31
0.0
  0
LINE
  8
0
  6
CONTINUOUS
 10
3.723922
 20
21.155814
 30
0.0
 11
6.057324
 21
23.489215
 31
0.0
  0
LINE
  8
0
  6
DASHED
 10
-17.5
 20
37.708687
 30
0.0
 11
25.0
 21
37.708687
 31
0.0
  0
LINE
  8
0
  6
DASHED
 10
3.69296
 20
25.726913
 30
0.0
 11
3.69296
 21
37.708687
 31
0.0
  0
POLYLINE
  8
0
  6
DASHED
 66
     1
 10
0.0
 20
0.0
 30
0.0
 70
     1
 40
0.25
 41
0.25
 71
     2
 72
   151
  0
VERTEX
  8
0
  6
DASHED
 10
3.692796
 20
37.334147
 30
0.0
 42
1.0
  0
VERTEX
  8
0
  6
DASHED
 10
3.692796
 20
38.084147
 30
0.0
 42
1.0
  0
SEQEND
  8
0
  6
DASHED
  0
LINE
  8
0
  6
DASHED
 10
7.172143
 20
10.810106
 30
0.0
 11
7.172143
 21
-40.0
 31
0.0
  0
ENDBLK
  8
0
  0
BLOCK
  8
0
  2
KIRJOITU
 70
     0
 10
0.0
 20
0.0
 30
0.0
  3
KIRJOITU
  0
TEXT
  8
BASE
  6
HIDDEN
 10
51.102905
 20
10.0
 30
0.0
 40
2.0
  1
SS1
 50
90.0
  7
ROMANS
  0
TEXT
  8
BASE
  6
HIDDEN
 10
43.720468
 20
10.0
 30
0.0
 40
2.0
  1
SS2
 50
90.0
  7
ROMANS
  0
TEXT
  8
BASE
  6
HIDDEN
 10
36.304544
 20
10.0
 30
0.0
 40
2.0
  1
SS3
 50
90.0
  7
ROMANS
  0
TEXT
  8
BASE
  6
HIDDEN
 10
28.385843
 20
10.0
 30
0.0
 40
2.0
  1
SS4
 50
90.0
  7
ROMANS
  0
TEXT
  8
BASE
  6
HIDDEN
 10
21.102905
 20
10.0
 30
0.0
 40
2.0
  1
TS1
 50
90.0
  7
ROMANS
  0
TEXT
  8
BASE
  6
HIDDEN
 10
13.720468
 20
10.0
 30
0.0
 40
2.0
  1
TS2
 50
90.0
  7
ROMANS
  0
TEXT
  8
BASE
  6
HIDDEN
 10
6.304544
 20
10.0
 30
0.0
 40
2.0
  1
TS3
 50
90.0
  7
ROMANS
  0
TEXT
  8
BASE
  6
HIDDEN
 10
-1.614157
 20
10.0
 30
0.0
 40
2.0
  1
CBCS
 50
90.0
  7
ROMANS
  0
ENDBLK
  8
0
  0
BLOCK
  8
0
  2
SUUNTA
 70
    64
 10
0.0
 20
0.0
 30
0.0
  3
SUUNTA
  0
INSERT
  8
0
  6
CONTINUOUS
  2
B507
 10
0.0
 20
0.0
 30
0.0
  0
TEXT
  8
BASE
  6
CONTINUOUS
 10
-2.893491
 20
2.68489
 30
0.0
 40
2.0
  1
P/Q
  7
ROMANS
  0
ENDBLK
  8
0
  0
ENDSEC
  0
SECTION
  2
ENTITIES
  0
INSERT
  8
0
  2
1
 10
65.405438
 20
98.713066
 30
0.0
  0
INSERT
  8
0
  2
1
 10
72.541652
 20
49.71056
 30
0.0
  0
INSERT
  8
0
  2
1
 10
85.390443
 20
73.497234
 30
0.0
  0
LINE
  8
0
  6
CENTER
 62
   249
 10
252.5
 20
237.5
 30
0.0
 11
252.5
 21
87.5
 31
0.0
  0
LINE
  8
0
  6
CENTER
 62
   249
 10
252.5
 20
87.5
 30
0.0
 11
252.5
 21
52.5
 31
0.0
  0
LINE
  8
0
  6
CONTINUOUS
 62
   249
 10
227.5
 20
65.0
 30
0.0
 11
237.5
 21
65.0
 31
0.0
  0
LINE
  8
0
  6
CONTINUOUS
 62
   249
 10
227.5
 20
65.0
 30
0.0
 11
230.0
 21
67.5
 31
0.0
  0
LINE
  8
0
  6
CONTINUOUS
 62
   249
 10
232.5
 20
65.0
 30
0.0
 11
235.0
 21
67.5
 31
0.0
  0
LINE
  8
0
  6
CONTINUOUS
 62
   249
 10
237.5
 20
65.0
 30
0.0
 11
240.0
 21
67.5
 31
0.0
  0
LINE
  8
0
  6
CONTINUOUS
 62
   249
 10
232.5
 20
65.0
 30
0.0
 11
232.5
 21
52.5
 31
0.0
  0
LINE
  8
0
  6
CONTINUOUS
 62
   249
 10
217.5
 20
70.0
 30
0.0
 11
217.5
 21
52.5
 31
0.0
  0
LINE
  8
0
  6
CONTINUOUS
 62
   249
 10
212.5
 20
70.0
 30
0.0
 11
212.5
 21
52.5
 31
0.0
  0
LINE
  8
0
  6
DASHED
 62
   249
 10
217.5
 20
52.5
 30
0.0
 11
217.5
 21
45.0
 31
0.0
  0
LINE
  8
0
  6
DASHED
 62
   249
 10
232.5
 20
52.5
 30
0.0
 11
232.5
 21
45.0
 31
0.0
  0
LINE
  8
0
  6
DASHED
 62
   249
 10
212.5
 20
52.5
 30
0.0
 11
212.5
 21
45.0
 31
0.0
  0
LINE
  8
0
  6
DASHED
 62
   249
 10
160.0
 20
52.5
 30
0.0
 11
160.0
 21
45.0
 31
0.0
  0
LINE
  8
0
  6
DASHED
 62
   249
 10
155.0
 20
52.5
 30
0.0
 11
155.0
 21
45.0
 31
0.0
  0
LINE
  8
0
  6
DASHED
 62
   249
 10
150.0
 20
52.5
 30
0.0
 11
150.0
 21
45.0
 31
0.0
  0
LINE
  8
0
  6
CONTINUOUS
 62
   249
 10
170.0
 20
125.232891
 30
0.0
 11
200.450615
 21
125.232891
 31
0.0
  0
TEXT
  8
0
  6
CONTINUOUS
 62
   249
 10
181.908766
 20
121.295815
 30
0.0
 40
2.5
  1
IRF
 11
181.908766
 21
120.462481
 31
0.0
 73
     1
  0
LINE
  8
0
  6
CONTINUOUS
 62
   249
 10
200.450615
 20
120.0
 30
0.0
 11
170.0
 21
120.0
 31
0.0
  0
LINE
  8
0
  6
CONTINUOUS
 62
   249
 10
200.450615
 20
200.0
 30
0.0
 11
200.450615
 21
120.0
 31
0.0
  0
LINE
  8
0
  6
CONTINUOUS
 62
   249
 10
170.0
 20
132.5
 30
0.0
 11
200.450615
 21
132.5
 31
0.0
  0
TEXT
  8
0
  6
CONTINUOUS
 62
   249
 10
173.730324
 20
127.307235
 30
0.0
 40
2.5
  1
SERIAL I/O
  0
CIRCLE
  8
0
  6
CONTINUOUS
 62
   249
 10
169.0
 20
122.49752
 30
0.0
 40
1.0
  0
LINE
  8
0
  6
CONTINUOUS
 62
   249
 10
170.0
 20
200.0
 30
0.0
 11
200.450615
 21
200.0
 31
0.0
  0
LINE
  8
0
  6
CONTINUOUS
 62
   249
 10
190.0
 20
132.5
 30
0.0
 11
190.0
 21
200.0
 31
0.0
  0
LINE
  8
0
  6
CONTINUOUS
 62
   249
 10
170.0
 20
200.0
 30
0.0
 11
170.0
 21
120.0
 31
0.0
  0
LINE
  8
0
  6
CENTER
 62
   249
 10
35.0
 20
237.5
 30
0.0
 11
35.0
 21
52.5
 31
0.0
  0
LINE
  8
0
  6
CENTER
 62
   249
 10
35.0
 20
52.5
 30
0.0
 11
252.5
 21
52.5
 31
0.0
  0
LINE
  8
0
  6
CONTINUOUS
 62
   249
 10
142.5
 20
67.5
 30
0.0
 11
145.0
 21
67.5
 31
0.0
  0
LINE
  8
0
  6
CONTINUOUS
 62
   249
 10
145.0
 20
67.5
 30
0.0
 11
145.0
 21
52.5
 31
0.0
  0
LINE
  8
0
  6
CONTINUOUS
 62
   249
 10
150.0
 20
72.5
 30
0.0
 11
150.0
 21
52.5
 31
0.0
  0
LINE
  8
0
  6
CONTINUOUS
 62
   249
 10
232.5
 20
170.0
 30
0.0
 11
233.5
 21
169.0
 31
0.0
  0
LINE
  8
0
  6
CONTINUOUS
 62
   249
 10
232.5
 20
210.0
 30
0.0
 11
233.5
 21
211.0
 31
0.0
  0
LINE
  8
0
  6
CONTINUOUS
 62
   249
 10
232.5
 20
210.0
 30
0.0
 11
232.5
 21
185.0
 31
0.0
  0
LINE
  8
0
  6
CONTINUOUS
 62
   249
 10
217.5
 20
128.934542
 30
0.0
 11
200.450615
 21
128.934542
 31
0.0
  0
LINE
  8
0
  6
CONTINUOUS
 62
   249
 10
232.5
 20
185.0
 30
0.0
 11
232.5
 21
170.0
 31
0.0
  0
LINE
  8
0
  6
CENTER
 62
   249
 10
252.5
 20
237.5
 30
0.0
 11
35.0
 21
237.5
 31
0.0
  0
LINE
  8
0
  6
CONTINUOUS
 62
   249
 10
243.838166
 20
127.527361
 30
0.0
 11
245.757416
 21
130.215438
 31
0.0
  0
TEXT
  8
0
  6
CONTINUOUS
 62
   249
 10
247.137977
 20
130.641889
 30
0.0
 40
2.0
  1
9
  7
ROMANS
  0
TEXT
  8
0
  6
CONTINUOUS
 62
   249
 10
229.196317
 20
125.076627
 30
0.0
 40
2.0
  1
SERIAL PORT
  7
ROMANS
  0
ARC
  8
0
  6
CONTINUOUS
 62
   249
 10
255.0
 20
128.934542
 30
0.0
 40
2.5
 50
90.0
 51
270.0
  0
LINE
  8
0
  6
CONTINUOUS
 62
   249
 10
254.319436
 20
129.424542
 30
0.0
 11
254.319436
 21
128.444542
 31
0.0
  0
LINE
  8
0
  6
CONTINUOUS
 62
   249
 10
254.319436
 20
128.444542
 30
0.0
 11
257.749436
 21
128.444542
 31
0.0
  0
LINE
  8
0
  6
CONTINUOUS
 62
   249
 10
257.749436
 20
128.444542
 30
0.0
 11
257.749436
 21
129.424542
 31
0.0
  0
LINE
  8
0
  6
CONTINUOUS
 62
   249
 10
257.749436
 20
129.424542
 30
0.0
 11
254.319436
 21
129.424542
 31
0.0
  0
LINE
  8
0
  6
DASHED
 62
   249
 10
35.0
 20
97.5
 30
0.0
 11
30.0
 21
97.5
 31
0.0
  0
LINE
  8
0
  6
DASHED
 62
   249
 10
35.0
 20
92.5
 30
0.0
 11
30.0
 21
92.5
 31
0.0
  0
LINE
  8
0
  6
DASHED
 62
   249
 10
35.0
 20
62.5
 30
0.0
 11
30.0
 21
62.5
 31
0.0
  0
TEXT
  8
0
  6
CONTINUOUS
 62
   249
 10
20.0
 20
61.500038
 30
0.0
 40
2.0
  1
4)
  7
ROMANS
  0
LINE
  8
0
  6
CONTINUOUS
 62
   249
 10
170.0
 20
155.0
 30
0.0
 11
200.450615
 21
155.0
 31
0.0
  0
LINE
  8
0
  6
CONTINUOUS
 62
   249
 10
362.5
 20
252.5
 30
0.0
 11
380.0
 21
252.5
 31
0.0
  0
LINE
  8
0
  6
CONTINUOUS
 62
   249
 10
380.0
 20
252.5
 30
0.0
 11
380.0
 21
232.5
 31
0.0
  0
LINE
  8
0
  6
CONTINUOUS
 62
   249
 10
380.0
 20
232.5
 30
0.0
 11
362.5
 21
232.5
 31
0.0
  0
LINE
  8
0
  6
CONTINUOUS
 62
   249
 10
362.5
 20
232.5
 30
0.0
 11
362.5
 21
252.5
 31
0.0
  0
TEXT
  8
0
  6
CONTINUOUS
 62
   249
 10
147.945572
 20
52.877099
 30
0.0
 40
2.0
  1
16
 50
90.0
  7
ROMANS
  0
TEXT
  8
0
  6
CONTINUOUS
 62
   249
 10
163.023885
 20
52.877099
 30
0.0
 40
2.0
  1
11
 50
90.0
  7
ROMANS
  0
TEXT
  8
0
  6
CONTINUOUS
 62
   249
 10
172.928239
 20
53.561614
 30
0.0
 40
2.0
  1
6
 50
90.0
  7
ROMANS
  0
LINE
  8
0
  6
CONTINUOUS
 62
   249
 10
217.5
 20
128.934542
 30
0.0
 11
252.5
 21
128.934542
 31
0.0
  0
LINE
  8
0
  6
CONTINUOUS
 62
   249
 10
217.5
 20
72.929605
 30
0.0
 11
217.5
 21
70.0
 31
0.0
  0
LINE
  8
0
  6
CONTINUOUS
 62
   249
 10
212.5
 20
72.929605
 30
0.0
 11
212.5
 21
70.0
 31
0.0
  0
LINE
  8
0
  6
CONTINUOUS
 62
   249
 10
217.5
 20
87.5
 30
0.0
 11
217.5
 21
82.252154
 31
0.0
  0
LINE
  8
0
  6
CONTINUOUS
 62
   249
 10
212.5
 20
87.5
 30
0.0
 11
212.5
 21
82.252154
 31
0.0
  0
LINE
  8
0
 62
   249
 10
214.966311
 20
75.22844
 30
0.0
 11
218.966311
 21
75.22844
 31
0.0
  0
LINE
  8
0
 62
   249
 10
211.209901
 20
80.174464
 30
0.0
 11
215.209901
 21
80.174464
 31
0.0
  0
LINE
  8
0
 62
   249
 10
210.295103
 20
73.886207
 30
0.0
 11
218.658613
 21
82.252154
 31
0.0
  0
LINE
  8
0
 62
   249
 10
211.279395
 20
72.929605
 30
0.0
 11
219.619756
 21
81.267352
 31
0.0
  0
LINE
  8
0
 62
   249
 10
210.295103
 20
72.929605
 30
0.0
 11
210.295103
 21
82.252154
 31
0.0
  0
LINE
  8
0
 62
   249
 10
219.619756
 20
72.929605
 30
0.0
 11
210.295103
 21
72.929605
 31
0.0
  0
LINE
  8
0
 62
   249
 10
219.619756
 20
82.252154
 30
0.0
 11
219.619756
 21
72.929605
 31
0.0
  0
LINE
  8
0
 62
   249
 10
210.295103
 20
82.252154
 30
0.0
 11
219.619756
 21
82.252154
 31
0.0
  0
TEXT
  8
0
  6
CONTINUOUS
 62
   249
 10
211.866734
 20
88.05315
 30
0.0
 40
2.0
  1
+
  0
TEXT
  8
0
  6
CONTINUOUS
 62
   249
 10
216.797086
 20
88.077719
 30
0.0
 40
2.0
  1
-
  0
LINE
  8
0
  6
CONTINUOUS
 62
   249
 10
132.5
 20
62.5
 30
0.0
 11
132.5
 21
65.0
 31
0.0
  0
LINE
  8
0
  6
CONTINUOUS
 62
   249
 10
137.5
 20
67.5
 30
0.0
 11
131.756076
 21
64.285297
 31
0.0
  0
LINE
  8
0
  6
CONTINUOUS
 62
   249
 10
137.5
 20
67.5
 30
0.0
 11
142.5
 21
67.5
 31
0.0
  0
TEXT
  8
0
  6
CONTINUOUS
 62
   249
 10
35.0
 20
46.453065
 30
0.0
 40
2.0
  1
DIM. 177 X 217
  7
ROMANS
  0
LINE
  8
0
  6
CONTINUOUS
 62
   249
 10
170.0
 20
177.5
 30
0.0
 11
200.450615
 21
177.5
 31
0.0
  0
TEXT
  8
0
  6
CONTINUOUS
 62
   249
 10
194.12812
 20
195.541623
 30
0.0
 40
2.5
  1
U1
  7
ROMANS
  0
TEXT
  8
0
  6
CONTINUOUS
 62
   249
 10
194.12812
 20
173.86521
 30
0.0
 40
2.5
  1
U2
  7
ROMANS
  0
LINE
  8
0
  6
CONTINUOUS
 62
   249
 10
168.000003
 20
122.5
 30
0.0
 11
135.0
 21
122.5
 31
0.0
  0
LINE
  8
0
  6
CONTINUOUS
 62
   249
 10
247.5
 20
212.5
 30
0.0
 11
252.5
 21
212.5
 31
0.0
  0
LINE
  8
0
  6
CONTINUOUS
 62
   249
 10
247.5
 20
207.5
 30
0.0
 11
252.5
 21
207.5
 31
0.0
  0
LINE
  8
0
  6
CONTINUOUS
 62
   249
 10
247.5
 20
202.5
 30
0.0
 11
252.5
 21
202.5
 31
0.0
  0
LINE
  8
0
  6
CONTINUOUS
 62
   249
 10
247.5
 20
157.5
 30
0.0
 11
252.5
 21
157.5
 31
0.0
  0
LINE
  8
0
  6
CONTINUOUS
 62
   249
 10
247.5
 20
147.5
 30
0.0
 11
252.5
 21
147.5
 31
0.0
  0
TEXT
  8
0
  6
CONTINUOUS
 62
   249
 10
102.5
 20
232.5
 30
0.0
 40
2.0
  1
1MRS 10222-AB  SPAU 341 C1
  7
ROMANS
  0
TEXT
  8
0
  6
CONTINUOUS
 62
   249
 10
249.159655
 20
209.128984
 30
0.0
 40
2.0
  1
3
  7
ROMANS
  0
TEXT
  8
0
  6
CONTINUOUS
 62
   249
 10
249.159655
 20
204.318921
 30
0.0
 40
2.0
  1
2
  7
ROMANS
  0
TEXT
  8
0
  6
CONTINUOUS
 62
   249
 10
249.524841
 20
199.354573
 30
0.0
 40
2.0
  1
1
  7
ROMANS
  0
TEXT
  8
0
  6
CONTINUOUS
 62
   249
 10
249.159655
 20
191.711958
 30
0.0
 40
2.0
  1
6
  7
ROMANS
  0
TEXT
  8
0
  6
CONTINUOUS
 62
   249
 10
249.159655
 20
186.73659
 30
0.0
 40
2.0
  1
5
  7
ROMANS
  0
TEXT
  8
0
  6
CONTINUOUS
 62
   249
 10
249.159655
 20
181.628977
 30
0.0
 40
2.0
  1
4
  7
ROMANS
  0
TEXT
  8
0
  6
CONTINUOUS
 62
   249
 10
249.079058
 20
174.260563
 30
0.0
 40
2.0
  1
9
  7
ROMANS
  0
TEXT
  8
0
  6
CONTINUOUS
 62
   249
 10
249.079058
 20
169.296215
 30
0.0
 40
2.0
  1
8
  7
ROMANS
  0
TEXT
  8
0
  6
CONTINUOUS
 62
   249
 10
249.079058
 20
164.034316
 30
0.0
 40
2.0
  1
7
  7
ROMANS
  0
TEXT
  8
0
  6
CONTINUOUS
 62
   249
 10
248.003505
 20
154.306763
 30
0.0
 40
2.0
  1
13
  7
ROMANS
  0
TEXT
  8
0
  6
CONTINUOUS
 62
   249
 10
248.003505
 20
144.212761
 30
0.0
 40
2.0
  1
14
  7
ROMANS
  0
LINE
  8
0
  6
DASHED
 62
   249
 10
257.5
 20
128.934542
 30
0.0
 11
275.0
 21
128.934542
 31
0.0
  0
TEXT
  8
0
  6
DASHED
 62
   249
 10
277.732804
 20
127.920668
 30
0.0
 40
2.0
  1
5)
  7
ROMANS
  0
TEXT
  8
0
  6
DASHED
 62
   249
 10
355.009126
 20
206.733334
 30
0.0
 40
2.0
  1
VOLTAGE REGULATOR
  7
ROMANS
  0
TEXT
  8
0
  6
DASHED
 62
   249
 10
355.009126
 20
202.713891
 30
0.0
 40
2.0
  1
SPÄNNINGSREGULATOR
  7
ROMANS
  0
TEXT
  8
0
  6
DASHED
 62
   249
 10
34.639763
 20
43.116187
 30
0.0
 40
2.0
  1
1MRS 10222-AAB
  7
ROMANS
  0
LINE
  8
0
  6
DASHED
 62
   249
 10
165.0
 20
52.5
 30
0.0
 11
165.0
 21
45.0
 31
0.0
  0
LINE
  8
0
  6
DASHED
 62
   249
 10
170.0
 20
52.5
 30
0.0
 11
170.0
 21
45.0
 31
0.0
  0
TEXT
  8
0
  6
DASHED
 62
   249
 10
324.01156
 20
121.645631
 30
0.0
 40
2.0
  1
3) CONTROL OUTPUTS
  7
ROMANS
  0
TEXT
  8
0
  6
DASHED
 62
   249
 10
329.03558
 20
118.312297
 30
0.0
 40
2.0
  1
KONTROLL UTGÅNGAR
  7
ROMANS
  0
TEXT
  8
0
  6
DASHED
 62
   249
 10
324.01156
 20
112.478964
 30
0.0
 40
2.0
  1
4) INTERNAL RELAY FAULT
  7
ROMANS
  0
TEXT
  8
0
  6
DASHED
 62
   249
 10
329.241258
 20
109.145631
 30
0.0
 40
2.0
  1
INTERNT RELÄFEL
  7
ROMANS
  0
TEXT
  8
0
  6
DASHED
 62
   249
 10
324.01156
 20
103.312297
 30
0.0
 40
2.0
  1
5) BUS CONNECTION MODULE
  7
ROMANS
  0
TEXT
  8
0
  6
DASHED
 62
   249
 10
210.704658
 20
27.85902
 30
0.0
 40
2.0
  1
95-10-25  JR / AD-ELECT.
  7
ROMANS
  0
TEXT
  8
0
  6
DASHED
 62
   249
 10
317.5
 20
27.5
 30
0.0
 40
2.0
  1
TERMINAL DIAGRAM / UTTAGSSCHEMA
  7
ROMANS
  0
TEXT
  8
0
  6
DASHED
 62
   249
 10
317.5
 20
24.166667
 30
0.0
 40
2.0
  1
SPAU 341 C1
  7
ROMANS
  0
LINE
  8
0
 62
   249
 10
0.237099
 20
0.237999
 30
0.0
 11
0.237099
 21
262.737999
 31
0.0
  0
LINE
  8
0
 62
   249
 10
392.237099
 20
262.737999
 30
0.0
 11
392.237099
 21
0.237999
 31
0.0
  0
LINE
  8
0
 62
   249
 10
0.237099
 20
0.237999
 30
0.0
 11
392.237099
 21
0.237999
 31
0.0
  0
TEXT
  8
0
 62
   249
 10
42.237099
 20
5.587508
 30
0.0
 40
2.5
  1
C
  7
ROMANS
  0
TEXT
  8
0
 62
   249
 10
42.237099
 20
1.195292
 30
0.0
 40
2.5
  1
B
  7
ROMANS
  0
TEXT
  8
0
 62
   249
 10
273.237099
 20
7.237999
 30
0.0
 40
1.4
  1
VAST.OSASTO RESP.DEPT.
  7
ROMANS
  0
TEXT
  8
0
 62
   249
 10
210.237099
 20
32.237999
 30
0.0
 40
1.4
  1
TEKI  PREPARED
  7
ROMANS
  0
LINE
  8
0
 62
   249
 10
271.237099
 20
9.737999
 30
0.0
 11
271.237099
 21
0.237999
 31
0.0
  0
LINE
  8
0
 62
   249
 10
257.237099
 20
9.737999
 30
0.0
 11
257.237099
 21
35.237999
 31
0.0
  0
LINE
  8
0
 62
   249
 10
40.737099
 20
4.737999
 30
0.0
 11
209.237099
 21
4.737999
 31
0.0
  0
LINE
  8
0
 62
   249
 10
46.737099
 20
0.237999
 30
0.0
 11
46.737099
 21
9.237999
 31
0.0
  0
LINE
  8
0
 62
   249
 10
46.737099
 20
9.237999
 30
0.0
 11
209.237099
 21
9.237999
 31
0.0
  0
TEXT
  8
0
 62
   249
 10
27.737099
 20
2.471333
 30
0.0
 40
1.4
  1
REVISION
  7
ROMANS
  0
TEXT
  8
0
 62
   249
 10
27.737099
 20
4.737999
 30
0.0
 40
1.4
  1
MUUTOS
  7
ROMANS
  0
LINE
  8
0
 62
   249
 10
282.237099
 20
9.737999
 30
0.0
 11
282.237099
 21
18.237999
 31
0.0
  0
TEXT
  8
0
 62
   249
 10
237.737099
 20
1.737999
 30
0.0
 40
3.0
  1
Transmit Oy
 41
0.8
  7
ROMANS
  0
TEXT
  8
0
 62
   249
 10
229.737099
 20
1.737999
 30
0.0
 40
3.0
  1
ABB 
 41
0.8
  7
ROMANS
  0
LINE
  8
0
 62
   249
 10
223.137099
 20
1.737999
 30
0.0
 11
223.137099
 21
5.097999
 31
0.0
  0
LINE
  8
0
 62
   249
 10
223.137099
 20
8.737999
 30
0.0
 11
225.097099
 21
8.737999
 31
0.0
  0
LINE
  8
0
 62
   249
 10
225.097099
 20
8.737999
 30
0.0
 11
225.097099
 21
5.377999
 31
0.0
  0
LINE
  8
0
 62
   249
 10
225.097099
 20
5.377999
 30
0.0
 11
223.137099
 21
5.377999
 31
0.0
  0
LINE
  8
0
 62
   249
 10
223.137099
 20
5.097999
 30
0.0
 11
225.097099
 21
5.097999
 31
0.0
  0
LINE
  8
0
 62
   249
 10
225.097099
 20
5.097999
 30
0.0
 11
225.097099
 21
1.737999
 31
0.0
  0
LINE
  8
0
 62
   249
 10
225.097099
 20
1.737999
 30
0.0
 11
223.137099
 21
1.737999
 31
0.0
  0
LINE
  8
0
 62
   249
 10
223.137099
 20
5.377999
 30
0.0
 11
223.137099
 21
8.737999
 31
0.0
  0
ARC
  8
0
 62
   249
 10
225.937099
 20
7.162999
 30
0.0
 40
1.575
 50
298.455859
 51
90.052437
  0
LINE
  8
0
 62
   249
 10
225.377099
 20
8.737999
 30
0.0
 11
225.935658
 21
8.737999
 31
0.0
  0
LINE
  8
0
 62
   249
 10
225.377099
 20
8.737999
 30
0.0
 11
225.377099
 21
5.377999
 31
0.0
  0
LINE
  8
0
 62
   249
 10
225.377099
 20
5.377999
 30
0.0
 11
227.361542
 21
5.377999
 31
0.0
  0
LINE
  8
0
 62
   249
 10
227.617099
 20
5.097999
 30
0.0
 11
225.377099
 21
5.097999
 31
0.0
  0
LINE
  8
0
 62
   249
 10
225.377099
 20
5.097999
 30
0.0
 11
225.377099
 21
1.737999
 31
0.0
  0
ARC
  8
0
 62
   249
 10
225.937099
 20
3.837999
 30
0.0
 40
2.1
 50
269.937724
 51
37.056553
  0
LINE
  8
0
 62
   249
 10
225.377099
 20
1.737999
 30
0.0
 11
225.934817
 21
1.738
 31
0.0
  0
ARC
  8
0
 62
   249
 10
225.937099
 20
3.837999
 30
0.0
 40
2.1
 50
47.28622
 51
68.787999
  0
ARC
  8
0
 62
   249
 10
220.477099
 20
3.837999
 30
0.0
 40
2.1
 50
47.28622
 51
68.787999
  0
LINE
  8
0
 62
   249
 10
219.917099
 20
1.737999
 30
0.0
 11
220.474817
 21
1.738
 31
0.0
  0
ARC
  8
0
 62
   249
 10
220.477099
 20
3.837999
 30
0.0
 40
2.1
 50
269.937724
 51
37.056553
  0
LINE
  8
0
 62
   249
 10
219.917099
 20
5.097999
 30
0.0
 11
219.917099
 21
1.737999
 31
0.0
  0
LINE
  8
0
 62
   249
 10
222.157099
 20
5.097999
 30
0.0
 11
219.917099
 21
5.097999
 31
0.0
  0
LINE
  8
0
 62
   249
 10
219.917099
 20
5.377999
 30
0.0
 11
221.901542
 21
5.377999
 31
0.0
  0
LINE
  8
0
 62
   249
 10
219.917099
 20
8.737999
 30
0.0
 11
219.917099
 21
5.377999
 31
0.0
  0
LINE
  8
0
 62
   249
 10
219.917099
 20
8.737999
 30
0.0
 11
220.475658
 21
8.737999
 31
0.0
  0
ARC
  8
0
 62
   249
 10
220.477099
 20
7.162999
 30
0.0
 40
1.575
 50
298.455859
 51
90.052437
  0
LINE
  8
0
 62
   249
 10
217.677099
 20
5.377999
 30
0.0
 11
217.677099
 21
8.737999
 31
0.0
  0
LINE
  8
0
 62
   249
 10
219.637099
 20
1.737999
 30
0.0
 11
217.677099
 21
1.737999
 31
0.0
  0
LINE
  8
0
 62
   249
 10
219.637099
 20
5.097999
 30
0.0
 11
219.637099
 21
1.737999
 31
0.0
  0
LINE
  8
0
 62
   249
 10
217.677099
 20
5.097999
 30
0.0
 11
219.637099
 21
5.097999
 31
0.0
  0
LINE
  8
0
 62
   249
 10
219.637099
 20
5.377999
 30
0.0
 11
217.677099
 21
5.377999
 31
0.0
  0
LINE
  8
0
 62
   249
 10
219.637099
 20
8.737999
 30
0.0
 11
219.637099
 21
5.377999
 31
0.0
  0
LINE
  8
0
 62
   249
 10
217.677099
 20
8.737999
 30
0.0
 11
219.637099
 21
8.737999
 31
0.0
  0
LINE
  8
0
 62
   249
 10
217.677099
 20
1.737999
 30
0.0
 11
217.677099
 21
5.097999
 31
0.0
  0
LINE
  8
0
 62
   249
 10
211.356988
 20
5.080538
 30
0.0
 11
210.187099
 21
1.737999
 31
0.0
  0
LINE
  8
0
 62
   249
 10
213.547099
 20
5.097999
 30
0.0
 11
213.547099
 21
3.137999
 31
0.0
  0
LINE
  8
0
 62
   249
 10
213.827099
 20
5.097999
 30
0.0
 11
213.827099
 21
3.137999
 31
0.0
  0
LINE
  8
0
 62
   249
 10
213.827099
 20
5.097999
 30
0.0
 11
216.010356
 21
5.097999
 31
0.0
  0
LINE
  8
0
 62
   249
 10
213.827099
 20
5.377999
 30
0.0
 11
215.912213
 21
5.377999
 31
0.0
  0
LINE
  8
0
 62
   249
 10
216.011591
 20
5.096594
 30
0.0
 11
217.187099
 21
1.737999
 31
0.0
  0
LINE
  8
0
 62
   249
 10
211.360082
 20
5.097999
 30
0.0
 11
213.547099
 21
5.097999
 31
0.0
  0
LINE
  8
0
 62
   249
 10
211.45904
 20
5.377999
 30
0.0
 11
213.547099
 21
5.377999
 31
0.0
  0
LINE
  8
0
 62
   249
 10
213.547099
 20
8.737999
 30
0.0
 11
212.637099
 21
8.737999
 31
0.0
  0
LINE
  8
0
 62
   249
 10
213.827099
 20
3.137999
 30
0.0
 11
214.946992
 21
3.137999
 31
0.0
  0
LINE
  8
0
 62
   249
 10
213.827099
 20
8.737999
 30
0.0
 11
213.827099
 21
5.377999
 31
0.0
  0
LINE
  8
0
 62
   249
 10
213.547099
 20
8.737999
 30
0.0
 11
213.547099
 21
5.377999
 31
0.0
  0
LINE
  8
0
 62
   249
 10
214.737099
 20
8.737999
 30
0.0
 11
213.827099
 21
8.737999
 31
0.0
  0
LINE
  8
0
 62
   249
 10
214.948197
 20
3.134863
 30
0.0
 11
215.437099
 21
1.737999
 31
0.0
  0
LINE
  8
0
 62
   249
 10
214.737099
 20
8.737999
 30
0.0
 11
215.913452
 21
5.376991
 31
0.0
  0
LINE
  8
0
 62
   249
 10
212.425889
 20
3.134542
 30
0.0
 11
211.937099
 21
1.737999
 31
0.0
  0
LINE
  8
0
 62
   249
 10
212.425886
 20
3.137999
 30
0.0
 11
213.547099
 21
3.137999
 31
0.0
  0
LINE
  8
0
 62
   249
 10
212.637099
 20
8.737999
 30
0.0
 11
211.459571
 21
5.373634
 31
0.0
  0
LINE
  8
0
 62
   249
 10
215.437099
 20
1.737999
 30
0.0
 11
217.187099
 21
1.737999
 31
0.0
  0
LINE
  8
0
 62
   249
 10
210.187099
 20
1.737999
 30
0.0
 11
211.937099
 21
1.737999
 31
0.0
  0
LINE
  8
0
 62
   249
 10
369.737099
 20
9.737999
 30
0.0
 11
369.737099
 21
0.237999
 31
0.0
  0
TEXT
  8
0
 62
   249
 10
371.237099
 20
7.237999
 30
0.0
 40
1.4
  1
PAINOS  REVISION
  7
ROMANS
  0
LINE
  8
0
 62
   249
 10
349.737099
 20
9.737999
 30
0.0
 11
349.737099
 21
18.237999
 31
0.0
  0
TEXT
  8
0
 62
   249
 10
309.237099
 20
7.237999
 30
0.0
 40
1.4
  1
PIIRUSTUS NO  DRAWING NR
  7
ROMANS
  0
TEXT
  8
0
 62
   249
 10
309.237099
 20
15.737999
 30
0.0
 40
1.4
  1
KOODI  CODE
  7
ROMANS
  0
TEXT
  8
0
 62
   249
 10
309.237099
 20
32.737999
 30
0.0
 40
1.4
  1
NIMITYS  NAME
  7
ROMANS
  0
TEXT
  8
0
 62
   249
 10
259.237099
 20
15.737999
 30
0.0
 40
1.4
  1
SUHDE  SCALE
  7
ROMANS
  0
TEXT
  8
0
 62
   249
 10
259.237099
 20
23.737999
 30
0.0
 40
1.4
  1
TOLERANSSIT  TOLERANCES
  7
ROMANS
  0
TEXT
  8
0
 62
   249
 10
259.237099
 20
32.737999
 30
0.0
 40
1.4
  1
LIITTYY  CONCERNING
  7
ROMANS
  0
LINE
  8
0
 62
   249
 10
307.237099
 20
0.237999
 30
0.0
 11
307.237099
 21
35.237999
 31
0.0
  0
TEXT
  8
0
 62
   249
 10
209.979934
 20
15.704666
 30
0.0
 40
1.4
  1
HYVÄKSYI  APPROVED
  7
ROMANS
  0
TEXT
  8
0
 62
   249
 10
210.237099
 20
23.971333
 30
0.0
 40
1.4
  1
TARKASTI  CHECKED
  7
ROMANS
  0
LINE
  8
0
 62
   249
 10
209.237099
 20
35.237999
 30
0.0
 11
392.237099
 21
35.237999
 31
0.0
  0
LINE
  8
0
 62
   249
 10
209.237099
 20
26.737999
 30
0.0
 11
307.237099
 21
26.737999
 31
0.0
  0
LINE
  8
0
 62
   249
 10
209.237099
 20
9.737999
 30
0.0
 11
392.237099
 21
9.737999
 31
0.0
  0
LINE
  8
0
 62
   249
 10
209.237099
 20
18.237999
 30
0.0
 11
392.237099
 21
18.237999
 31
0.0
  0
LINE
  8
0
 62
   249
 10
392.237099
 20
0.237999
 30
0.0
 11
392.237099
 21
35.237999
 31
0.0
  0
LINE
  8
0
 62
   249
 10
209.237099
 20
0.237999
 30
0.0
 11
209.237099
 21
35.237999
 31
0.0
  0
LINE
  8
0
 62
   249
 10
209.237099
 20
0.237999
 30
0.0
 11
392.237099
 21
0.237999
 31
0.0
  0
LINE
  8
0
 62
   249
 10
18.237099
 20
0.237999
 30
0.0
 11
0.237099
 21
0.237999
 31
0.0
  0
LINE
  8
0
 62
   249
 10
0.237099
 20
262.737999
 30
0.0
 11
392.237099
 21
262.737999
 31
0.0
  0
TEXT
  8
0
  6
DASHED
 62
   249
 10
351.818577
 20
15.69253
 30
0.0
 40
1.4
  1
LEHTI SHEET
  7
GREEKS
  0
TEXT
  8
0
  6
DASHED
 62
   249
 10
372.740686
 20
12.507642
 30
0.0
 40
2.0
  1
1
  7
ROMANS
  0
TEXT
  8
0
  6
DASHED
 62
   249
 10
322.5
 20
2.5
 30
0.0
 40
2.5
  1
1MRS10222-AAB
  7
ROMANS
  0
TEXT
  8
0
  6
DASHED
 62
   249
 10
292.217194
 20
11.813359
 30
0.0
 40
3.0
  1
A3
  7
GREEKS
  0
TEXT
  8
0
  6
CONTINUOUS
 62
   249
 10
380.0
 20
2.5
 30
0.0
 40
2.5
  1
C
  7
ROMANS
  0
LINE
  8
0
  6
CONTINUOUS
 62
   249
 10
247.5
 20
185.0
 30
0.0
 11
252.5
 21
185.0
 31
0.0
  0
LINE
  8
0
  6
CONTINUOUS
 62
   249
 10
247.5
 20
190.0
 30
0.0
 11
252.5
 21
190.0
 31
0.0
  0
LINE
  8
0
  6
CONTINUOUS
 62
   249
 10
247.5
 20
195.0
 30
0.0
 11
252.5
 21
195.0
 31
0.0
  0
LINE
  8
0
  6
CONTINUOUS
 62
   249
 10
247.5
 20
177.5
 30
0.0
 11
252.5
 21
177.5
 31
0.0
  0
LINE
  8
0
  6
CONTINUOUS
 62
   249
 10
247.5
 20
172.5
 30
0.0
 11
252.5
 21
172.5
 31
0.0
  0
LINE
  8
0
  6
CONTINUOUS
 62
   249
 10
247.5
 20
167.5
 30
0.0
 11
252.5
 21
167.5
 31
0.0
  0
LINE
  8
0
  6
CONTINUOUS
 62
   249
 10
107.5
 20
92.5
 30
0.0
 11
101.756076
 21
89.285297
 31
0.0
  0
LINE
  8
0
  6
CONTINUOUS
 62
   249
 10
107.5
 20
92.5
 30
0.0
 11
165.0
 21
92.5
 31
0.0
  0
LINE
  8
0
  6
CONTINUOUS
 62
   249
 10
132.5
 20
62.5
 30
0.0
 11
35.0
 21
62.5
 31
0.0
  0
LINE
  8
0
  6
CONTINUOUS
 62
   249
 10
35.0
 20
67.5
 30
0.0
 11
82.5
 21
67.5
 31
0.0
  0
LINE
  8
0
  6
CONTINUOUS
 62
   249
 10
132.5
 20
67.5
 30
0.0
 11
82.5
 21
67.5
 31
0.0
  0
LINE
  8
0
  6
CONTINUOUS
 62
   249
 10
102.5
 20
92.5
 30
0.0
 11
35.0
 21
92.5
 31
0.0
  0
LINE
  8
0
  6
DASHED
 62
   249
 10
135.0
 20
66.100824
 30
0.0
 11
135.0
 21
122.5
 31
0.0
  0
LINE
  8
0
  6
CONTINUOUS
 62
   249
 10
50.377948
 20
146.433648
 30
0.0
 11
43.254927
 21
146.433648
 31
0.0
  0
LINE
  8
0
  6
CONTINUOUS
 62
   249
 10
50.377948
 20
143.528148
 30
0.0
 11
50.377948
 21
146.433648
 31
0.0
  0
LINE
  8
0
  6
CONTINUOUS
 62
   249
 10
43.254927
 20
143.528148
 30
0.0
 11
50.377948
 21
143.528148
 31
0.0
  0
LINE
  8
0
  6
CONTINUOUS
 62
   249
 10
43.254927
 20
146.433648
 30
0.0
 11
43.254927
 21
143.528148
 31
0.0
  0
LINE
  8
0
  6
DASHED
 62
   249
 10
50.377948
 20
144.980898
 30
0.0
 11
58.888485
 21
144.980898
 31
0.0
  0
LINE
  8
0
  6
CONTINUOUS
 62
   249
 10
46.816438
 20
146.433648
 30
0.0
 11
46.816438
 21
147.5
 31
0.0
  0
LINE
  8
0
  6
CONTINUOUS
 62
   249
 10
46.816438
 20
147.5
 30
0.0
 11
35.0
 21
147.5
 31
0.0
  0
LINE
  8
0
  6
CONTINUOUS
 62
   249
 10
46.816438
 20
143.528148
 30
0.0
 11
46.816438
 21
142.5
 31
0.0
  0
LINE
  8
0
  6
CONTINUOUS
 62
   249
 10
46.816438
 20
142.5
 30
0.0
 11
35.0
 21
142.5
 31
0.0
  0
LINE
  8
0
  6
CONTINUOUS
 62
   249
 10
57.5
 20
142.5
 30
0.0
 11
60.714703
 21
148.243924
 31
0.0
  0
LINE
  8
0
  6
CONTINUOUS
 62
   249
 10
57.5
 20
142.5
 30
0.0
 11
57.5
 21
140.0
 31
0.0
  0
LINE
  8
0
  6
CONTINUOUS
 62
   249
 10
57.5
 20
147.5
 30
0.0
 11
57.5
 21
150.0
 31
0.0
  0
LINE
  8
0
  6
CONTINUOUS
 62
   249
 10
57.5
 20
150.0
 30
0.0
 11
70.0
 21
150.0
 31
0.0
  0
LINE
  8
0
  6
CONTINUOUS
 62
   249
 10
57.5
 20
162.5
 30
0.0
 11
57.5
 21
165.0
 31
0.0
  0
LINE
  8
0
  6
CONTINUOUS
 62
   249
 10
57.5
 20
157.5
 30
0.0
 11
57.5
 21
155.0
 31
0.0
  0
LINE
  8
0
  6
CONTINUOUS
 62
   249
 10
57.5
 20
157.5
 30
0.0
 11
60.714703
 21
163.243924
 31
0.0
  0
LINE
  8
0
  6
CONTINUOUS
 62
   249
 10
46.816438
 20
157.5
 30
0.0
 11
35.0
 21
157.5
 31
0.0
  0
LINE
  8
0
  6
CONTINUOUS
 62
   249
 10
46.816438
 20
158.528148
 30
0.0
 11
46.816438
 21
157.5
 31
0.0
  0
LINE
  8
0
  6
CONTINUOUS
 62
   249
 10
46.816438
 20
162.5
 30
0.0
 11
35.0
 21
162.5
 31
0.0
  0
LINE
  8
0
  6
CONTINUOUS
 62
   249
 10
46.816438
 20
161.433648
 30
0.0
 11
46.816438
 21
162.5
 31
0.0
  0
LINE
  8
0
  6
DASHED
 62
   249
 10
50.377948
 20
159.980898
 30
0.0
 11
58.888485
 21
159.980898
 31
0.0
  0
LINE
  8
0
  6
CONTINUOUS
 62
   249
 10
43.254927
 20
161.433648
 30
0.0
 11
43.254927
 21
158.528148
 31
0.0
  0
LINE
  8
0
  6
CONTINUOUS
 62
   249
 10
43.254927
 20
158.528148
 30
0.0
 11
50.377948
 21
158.528148
 31
0.0
  0
LINE
  8
0
  6
CONTINUOUS
 62
   249
 10
50.377948
 20
158.528148
 30
0.0
 11
50.377948
 21
161.433648
 31
0.0
  0
LINE
  8
0
  6
CONTINUOUS
 62
   249
 10
50.377948
 20
161.433648
 30
0.0
 11
43.254927
 21
161.433648
 31
0.0
  0
LINE
  8
0
  6
CONTINUOUS
 62
   249
 10
57.5
 20
165.0
 30
0.0
 11
70.0
 21
165.0
 31
0.0
  0
LINE
  8
0
  6
CONTINUOUS
 62
   249
 10
57.5
 20
180.0
 30
0.0
 11
70.0
 21
180.0
 31
0.0
  0
LINE
  8
0
  6
CONTINUOUS
 62
   249
 10
50.377948
 20
176.433648
 30
0.0
 11
43.254927
 21
176.433648
 31
0.0
  0
LINE
  8
0
  6
CONTINUOUS
 62
   249
 10
50.377948
 20
173.528148
 30
0.0
 11
50.377948
 21
176.433648
 31
0.0
  0
LINE
  8
0
  6
CONTINUOUS
 62
   249
 10
43.254927
 20
173.528148
 30
0.0
 11
50.377948
 21
173.528148
 31
0.0
  0
LINE
  8
0
  6
CONTINUOUS
 62
   249
 10
43.254927
 20
176.433648
 30
0.0
 11
43.254927
 21
173.528148
 31
0.0
  0
LINE
  8
0
  6
DASHED
 62
   249
 10
50.377948
 20
174.980898
 30
0.0
 11
58.888485
 21
174.980898
 31
0.0
  0
LINE
  8
0
  6
CONTINUOUS
 62
   249
 10
46.816438
 20
176.433648
 30
0.0
 11
46.816438
 21
177.5
 31
0.0
  0
LINE
  8
0
  6
CONTINUOUS
 62
   249
 10
46.816438
 20
177.5
 30
0.0
 11
35.0
 21
177.5
 31
0.0
  0
LINE
  8
0
  6
CONTINUOUS
 62
   249
 10
46.816438
 20
173.528148
 30
0.0
 11
46.816438
 21
172.5
 31
0.0
  0
LINE
  8
0
  6
CONTINUOUS
 62
   249
 10
46.816438
 20
172.5
 30
0.0
 11
35.0
 21
172.5
 31
0.0
  0
LINE
  8
0
  6
CONTINUOUS
 62
   249
 10
57.5
 20
172.5
 30
0.0
 11
60.714703
 21
178.243924
 31
0.0
  0
LINE
  8
0
  6
CONTINUOUS
 62
   249
 10
57.5
 20
172.5
 30
0.0
 11
57.5
 21
170.0
 31
0.0
  0
LINE
  8
0
  6
CONTINUOUS
 62
   249
 10
57.5
 20
177.5
 30
0.0
 11
57.5
 21
180.0
 31
0.0
  0
LINE
  8
0
  6
CONTINUOUS
 62
   249
 10
57.5
 20
192.5
 30
0.0
 11
57.5
 21
195.0
 31
0.0
  0
LINE
  8
0
  6
CONTINUOUS
 62
   249
 10
57.5
 20
187.5
 30
0.0
 11
57.5
 21
185.0
 31
0.0
  0
LINE
  8
0
  6
CONTINUOUS
 62
   249
 10
57.5
 20
187.5
 30
0.0
 11
60.714703
 21
193.243924
 31
0.0
  0
LINE
  8
0
  6
CONTINUOUS
 62
   249
 10
46.816438
 20
187.5
 30
0.0
 11
35.0
 21
187.5
 31
0.0
  0
LINE
  8
0
  6
CONTINUOUS
 62
   249
 10
46.816438
 20
188.528148
 30
0.0
 11
46.816438
 21
187.5
 31
0.0
  0
LINE
  8
0
  6
CONTINUOUS
 62
   249
 10
46.816438
 20
192.5
 30
0.0
 11
35.0
 21
192.5
 31
0.0
  0
LINE
  8
0
  6
CONTINUOUS
 62
   249
 10
46.816438
 20
191.433648
 30
0.0
 11
46.816438
 21
192.5
 31
0.0
  0
LINE
  8
0
  6
DASHED
 62
   249
 10
50.377948
 20
189.980898
 30
0.0
 11
58.888485
 21
189.980898
 31
0.0
  0
LINE
  8
0
  6
CONTINUOUS
 62
   249
 10
43.254927
 20
191.433648
 30
0.0
 11
43.254927
 21
188.528148
 31
0.0
  0
LINE
  8
0
  6
CONTINUOUS
 62
   249
 10
43.254927
 20
188.528148
 30
0.0
 11
50.377948
 21
188.528148
 31
0.0
  0
LINE
  8
0
  6
CONTINUOUS
 62
   249
 10
50.377948
 20
188.528148
 30
0.0
 11
50.377948
 21
191.433648
 31
0.0
  0
LINE
  8
0
  6
CONTINUOUS
 62
   249
 10
50.377948
 20
191.433648
 30
0.0
 11
43.254927
 21
191.433648
 31
0.0
  0
LINE
  8
0
  6
CONTINUOUS
 62
   249
 10
57.5
 20
195.0
 30
0.0
 11
70.0
 21
195.0
 31
0.0
  0
LINE
  8
0
  6
CONTINUOUS
 62
   249
 10
57.5
 20
210.0
 30
0.0
 11
70.0
 21
210.0
 31
0.0
  0
LINE
  8
0
  6
CONTINUOUS
 62
   249
 10
50.377948
 20
206.433648
 30
0.0
 11
43.254927
 21
206.433648
 31
0.0
  0
LINE
  8
0
  6
CONTINUOUS
 62
   249
 10
50.377948
 20
203.528148
 30
0.0
 11
50.377948
 21
206.433648
 31
0.0
  0
LINE
  8
0
  6
CONTINUOUS
 62
   249
 10
43.254927
 20
203.528148
 30
0.0
 11
50.377948
 21
203.528148
 31
0.0
  0
LINE
  8
0
  6
CONTINUOUS
 62
   249
 10
43.254927
 20
206.433648
 30
0.0
 11
43.254927
 21
203.528148
 31
0.0
  0
LINE
  8
0
  6
DASHED
 62
   249
 10
50.377948
 20
204.980898
 30
0.0
 11
58.888485
 21
204.980898
 31
0.0
  0
LINE
  8
0
  6
CONTINUOUS
 62
   249
 10
46.816438
 20
206.433648
 30
0.0
 11
46.816438
 21
207.5
 31
0.0
  0
LINE
  8
0
  6
CONTINUOUS
 62
   249
 10
46.816438
 20
207.5
 30
0.0
 11
35.0
 21
207.5
 31
0.0
  0
LINE
  8
0
  6
CONTINUOUS
 62
   249
 10
46.816438
 20
203.528148
 30
0.0
 11
46.816438
 21
202.5
 31
0.0
  0
LINE
  8
0
  6
CONTINUOUS
 62
   249
 10
46.816438
 20
202.5
 30
0.0
 11
35.0
 21
202.5
 31
0.0
  0
LINE
  8
0
  6
CONTINUOUS
 62
   249
 10
57.5
 20
202.5
 30
0.0
 11
60.714703
 21
208.243924
 31
0.0
  0
LINE
  8
0
  6
CONTINUOUS
 62
   249
 10
57.5
 20
202.5
 30
0.0
 11
57.5
 21
200.0
 31
0.0
  0
LINE
  8
0
  6
CONTINUOUS
 62
   249
 10
57.5
 20
207.5
 30
0.0
 11
57.5
 21
210.0
 31
0.0
  0
LINE
  8
0
  6
HIDDEN
 62
   249
 10
252.5
 20
142.5
 30
0.0
 11
247.5
 21
142.5
 31
0.0
  0
LINE
  8
0
  6
HIDDEN
 62
   249
 10
247.5
 20
142.5
 30
0.0
 11
247.5
 21
217.5
 31
0.0
  0
LINE
  8
0
  6
HIDDEN
 62
   249
 10
252.5
 20
217.5
 30
0.0
 11
247.5
 21
217.5
 31
0.0
  0
TEXT
  8
0
  6
CONTINUOUS
 62
   249
 10
248.321449
 20
214.242446
 30
0.0
 40
2.0
  1
X0
  7
ROMANS
  0
LINE
  8
0
  6
HIDDEN
 62
   249
 10
140.0
 20
52.5
 30
0.0
 11
140.0
 21
57.5
 31
0.0
  0
LINE
  8
0
  6
HIDDEN
 62
   249
 10
140.0
 20
57.5
 30
0.0
 11
173.971129
 21
57.5
 31
0.0
  0
LINE
  8
0
  6
HIDDEN
 62
   249
 10
173.971129
 20
57.5
 30
0.0
 11
173.971129
 21
52.5
 31
0.0
  0
TEXT
  8
0
  6
CONTINUOUS
 62
   249
 10
143.507068
 20
52.877099
 30
0.0
 40
2.0
  1
X2
 50
90.0
  7
ROMANS
  0
TEXT
  8
0
  6
CONTINUOUS
 62
   249
 10
153.340325
 20
53.561614
 30
0.0
 40
2.0
  1
4
 50
90.0
  7
ROMANS
  0
TEXT
  8
0
  6
CONTINUOUS
 62
   249
 10
158.181062
 20
53.561614
 30
0.0
 40
2.0
  1
2
 50
90.0
  7
ROMANS
  0
LINE
  8
0
  6
HIDDEN
 62
   249
 10
207.5
 20
52.5
 30
0.0
 11
207.5
 21
57.5
 31
0.0
  0
LINE
  8
0
  6
HIDDEN
 62
   249
 10
207.5
 20
57.5
 30
0.0
 11
237.5
 21
57.5
 31
0.0
  0
TEXT
  8
0
  6
CONTINUOUS
 62
   249
 10
210.638441
 20
52.877099
 30
0.0
 40
2.0
  1
X0
 50
90.0
  7
ROMANS
  0
LINE
  8
0
  6
HIDDEN
 62
   249
 10
35.0
 20
102.5
 30
0.0
 11
40.0
 21
102.5
 31
0.0
  0
LINE
  8
0
  6
HIDDEN
 62
   249
 10
40.0
 20
102.5
 30
0.0
 11
40.0
 21
58.717083
 31
0.0
  0
LINE
  8
0
  6
HIDDEN
 62
   249
 10
40.0
 20
58.717083
 30
0.0
 11
35.0
 21
58.717083
 31
0.0
  0
TEXT
  8
0
  6
CONTINUOUS
 62
   249
 10
36.476696
 20
89.432006
 30
0.0
 40
2.0
  1
7
  7
ROMANS
  0
TEXT
  8
0
  6
CONTINUOUS
 62
   249
 10
36.476696
 20
94.432006
 30
0.0
 40
2.0
  1
5
  7
ROMANS
  0
TEXT
  8
0
  6
CONTINUOUS
 62
   249
 10
36.476696
 20
69.432006
 30
0.0
 40
2.0
  1
3
  7
ROMANS
  0
TEXT
  8
0
  6
CONTINUOUS
 62
   249
 10
36.476696
 20
74.432006
 30
0.0
 40
2.0
  1
1
  7
ROMANS
  0
TEXT
  8
0
  6
CONTINUOUS
 62
   249
 10
35.806147
 20
99.136967
 30
0.0
 40
2.0
  1
X2
  7
ROMANS
  0
TEXT
  8
0
  6
CONTINUOUS
 62
   249
 10
35.507057
 20
64.124627
 30
0.0
 40
2.0
  1
14
  7
ROMANS
  0
TEXT
  8
0
  6
CONTINUOUS
 62
   249
 10
35.507057
 20
84.432006
 30
0.0
 40
2.0
  1
10
  7
ROMANS
  0
TEXT
  8
0
  6
CONTINUOUS
 62
   249
 10
35.507057
 20
59.505995
 30
0.0
 40
2.0
  1
15
  7
ROMANS
  0
LINE
  8
0
  6
HIDDEN
 62
   249
 10
35.0
 20
227.5
 30
0.0
 11
40.0
 21
227.5
 31
0.0
  0
LINE
  8
0
  6
HIDDEN
 62
   249
 10
40.0
 20
227.5
 30
0.0
 11
40.0
 21
107.5
 31
0.0
  0
TEXT
  8
0
  6
CONTINUOUS
 62
   249
 10
35.806147
 20
224.136967
 30
0.0
 40
2.0
  1
X1
  7
ROMANS
  0
TEXT
  8
0
  6
CONTINUOUS
 62
   249
 10
36.476696
 20
199.432006
 30
0.0
 40
2.0
  1
2
  7
ROMANS
  0
TEXT
  8
0
  6
CONTINUOUS
 62
   249
 10
36.476696
 20
204.432006
 30
0.0
 40
2.0
  1
1
  7
ROMANS
  0
TEXT
  8
0
  6
CONTINUOUS
 62
   249
 10
36.476696
 20
184.432006
 30
0.0
 40
2.0
  1
4
  7
ROMANS
  0
TEXT
  8
0
  6
CONTINUOUS
 62
   249
 10
36.476696
 20
189.432006
 30
0.0
 40
2.0
  1
3
  7
ROMANS
  0
TEXT
  8
0
  6
CONTINUOUS
 62
   249
 10
36.476696
 20
169.432006
 30
0.0
 40
2.0
  1
6
  7
ROMANS
  0
TEXT
  8
0
  6
CONTINUOUS
 62
   249
 10
36.476696
 20
174.432006
 30
0.0
 40
2.0
  1
5
  7
ROMANS
  0
TEXT
  8
0
  6
CONTINUOUS
 62
   249
 10
36.476696
 20
154.432006
 30
0.0
 40
2.0
  1
8
  7
ROMANS
  0
TEXT
  8
0
  6
CONTINUOUS
 62
   249
 10
36.476696
 20
159.432006
 30
0.0
 40
2.0
  1
7
  7
ROMANS
  0
TEXT
  8
0
  6
CONTINUOUS
 62
   249
 10
36.476696
 20
144.432006
 30
0.0
 40
2.0
  1
9
  7
ROMANS
  0
TEXT
  8
0
  6
CONTINUOUS
 62
   249
 10
35.507057
 20
139.432006
 30
0.0
 40
2.0
  1
10
  7
ROMANS
  0
TEXT
  8
0
  6
HIDDEN
 62
   249
 10
57.914748
 20
211.193637
 30
0.0
 40
2.0
  1
MAN`
  7
ROMANS
  0
TEXT
  8
0
  6
HIDDEN
 62
   249
 10
57.914748
 20
196.193637
 30
0.0
 40
2.0
  1
AUTO`
  7
ROMANS
  0
TEXT
  8
0
  6
DASHED
 62
   249
 10
20.53868
 20
171.900458
 30
0.0
 40
2.0
  1
1)
  7
ROMANS
  0
LINE
  8
0
  6
CONTINUOUS
 62
   249
 10
27.5
 20
222.5
 30
0.0
 11
28.5
 21
223.5
 31
0.0
  0
LINE
  8
0
  6
CONTINUOUS
 62
   249
 10
27.5
 20
222.5
 30
0.0
 11
27.5
 21
112.499655
 31
0.0
  0
LINE
  8
0
  6
DASHED
 62
   249
 10
35.0
 20
222.5
 30
0.0
 11
30.0
 21
222.5
 31
0.0
  0
LINE
  8
0
  6
DASHED
 62
   249
 10
35.0
 20
217.5
 30
0.0
 11
30.0
 21
217.5
 31
0.0
  0
LINE
  8
0
  6
DASHED
 62
   249
 10
35.0
 20
202.5
 30
0.0
 11
30.0
 21
202.5
 31
0.0
  0
LINE
  8
0
  6
DASHED
 62
   249
 10
35.0
 20
207.5
 30
0.0
 11
30.0
 21
207.5
 31
0.0
  0
LINE
  8
0
  6
DASHED
 62
   249
 10
35.0
 20
172.5
 30
0.0
 11
30.0
 21
172.5
 31
0.0
  0
LINE
  8
0
  6
DASHED
 62
   249
 10
35.0
 20
177.5
 30
0.0
 11
30.0
 21
177.5
 31
0.0
  0
LINE
  8
0
  6
DASHED
 62
   249
 10
35.0
 20
187.5
 30
0.0
 11
30.0
 21
187.5
 31
0.0
  0
LINE
  8
0
  6
DASHED
 62
   249
 10
35.0
 20
192.5
 30
0.0
 11
30.0
 21
192.5
 31
0.0
  0
LINE
  8
0
  6
DASHED
 62
   249
 10
35.0
 20
157.5
 30
0.0
 11
30.0
 21
157.5
 31
0.0
  0
LINE
  8
0
  6
DASHED
 62
   249
 10
35.0
 20
162.5
 30
0.0
 11
30.0
 21
162.5
 31
0.0
  0
LINE
  8
0
  6
DASHED
 62
   249
 10
35.0
 20
82.5
 30
0.0
 11
30.0
 21
82.5
 31
0.0
  0
LINE
  8
0
  6
DASHED
 62
   249
 10
35.0
 20
87.5
 30
0.0
 11
30.0
 21
87.5
 31
0.0
  0
LINE
  8
0
  6
DASHED
 62
   249
 10
35.0
 20
77.5
 30
0.0
 11
30.0
 21
77.5
 31
0.0
  0
LINE
  8
0
  6
CONTINUOUS
 62
   249
 10
27.5
 20
97.5
 30
0.0
 11
28.5
 21
98.5
 31
0.0
  0
LINE
  8
0
  6
CONTINUOUS
 62
   249
 10
27.5
 20
97.5
 30
0.0
 11
27.5
 21
82.499655
 31
0.0
  0
LINE
  8
0
  6
CONTINUOUS
 62
   249
 10
27.5
 20
82.499655
 30
0.0
 11
28.5
 21
81.499655
 31
0.0
  0
TEXT
  8
0
  6
DASHED
 62
   249
 10
20.53868
 20
89.585319
 30
0.0
 40
2.0
  1
2)
  7
ROMANS
  0
LINE
  8
0
  6
DASHED
 62
   249
 10
145.0
 20
52.5
 30
0.0
 11
145.0
 21
45.0
 31
0.0
  0
TEXT
  8
0
  6
DASHED
 62
   249
 10
329.234502
 20
128.312297
 30
0.0
 40
2.0
  1
SIGNALUTGÅNGAR
  7
ROMANS
  0
TEXT
  8
0
  6
DASHED
 62
   249
 10
324.01156
 20
131.645631
 30
0.0
 40
2.0
  1
2) SIGNAL OUTPUTS
  7
ROMANS
  0
TEXT
  8
0
  6
DASHED
 62
   249
 10
329.751316
 20
138.312297
 30
0.0
 40
2.0
  1
KONTROLL INGÅNGAR
  7
ROMANS
  0
TEXT
  8
0
  6
DASHED
 62
   249
 10
324.01156
 20
141.645631
 30
0.0
 40
2.0
  1
1) CONTROL INPUTS
  7
ROMANS
  0
TEXT
  8
0
  6
DASHED
 62
   249
 10
325.242062
 20
99.840526
 30
0.0
 40
2.0
  1
  BUSSANSLUTNINGSMODUL
  7
ROMANS
  0
LINE
  8
0
  6
CONTINUOUS
 62
   249
 10
380.0
 20
212.5
 30
0.0
 11
362.5
 21
212.5
 31
0.0
  0
LINE
  8
0
  6
CONTINUOUS
 62
   249
 10
362.5
 20
212.5
 30
0.0
 11
362.5
 21
232.5
 31
0.0
  0
LINE
  8
0
  6
CONTINUOUS
 62
   249
 10
380.0
 20
232.5
 30
0.0
 11
380.0
 21
212.5
 31
0.0
  0
LINE
  8
0
  6
CONTINUOUS
 62
   249
 10
178.514612
 20
163.879515
 30
0.0
 11
184.431382
 21
163.879515
 31
0.0
  0
LINE
  8
0
  6
CONTINUOUS
 62
   249
 10
70.0
 20
120.0
 30
0.0
 11
70.0
 21
210.0
 31
0.0
  0
TEXT
  8
0
  6
CONTINUOUS
 62
   249
 10
257.868306
 20
178.063568
 30
0.0
 40
2.0
  1
6)
  7
ROMANS
  0
TEXT
  8
0
  6
CONTINUOUS
 62
   249
 10
257.868306
 20
195.751367
 30
0.0
 40
2.0
  1
6)
  7
ROMANS
  0
TEXT
  8
0
  6
CONTINUOUS
 62
   249
 10
257.868306
 20
213.291776
 30
0.0
 40
2.0
  1
6)
  7
ROMANS
  0
LINE
  8
0
  6
CONTINUOUS
 62
   249
 10
257.5
 20
177.8468
 30
0.0
 11
257.5
 21
172.16187
 31
0.0
  0
LINE
  8
0
  6
CONTINUOUS
 62
   249
 10
257.5
 20
172.16187
 30
0.0
 11
256.5
 21
171.16187
 31
0.0
  0
LINE
  8
0
  6
CONTINUOUS
 62
   249
 10
257.5
 20
177.8468
 30
0.0
 11
256.5
 21
178.8468
 31
0.0
  0
LINE
  8
0
  6
CONTINUOUS
 62
   249
 10
257.5
 20
195.3468
 30
0.0
 11
256.5
 21
196.3468
 31
0.0
  0
LINE
  8
0
  6
CONTINUOUS
 62
   249
 10
257.5
 20
189.66187
 30
0.0
 11
256.5
 21
188.66187
 31
0.0
  0
LINE
  8
0
  6
CONTINUOUS
 62
   249
 10
257.5
 20
195.3468
 30
0.0
 11
257.5
 21
189.66187
 31
0.0
  0
LINE
  8
0
  6
CONTINUOUS
 62
   249
 10
257.5
 20
212.8468
 30
0.0
 11
257.5
 21
207.16187
 31
0.0
  0
LINE
  8
0
  6
CONTINUOUS
 62
   249
 10
257.5
 20
207.16187
 30
0.0
 11
256.5
 21
206.16187
 31
0.0
  0
LINE
  8
0
  6
CONTINUOUS
 62
   249
 10
257.5
 20
212.8468
 30
0.0
 11
256.5
 21
213.8468
 31
0.0
  0
LINE
  8
0
  6
DASHED
 62
   249
 10
310.0
 20
177.5
 30
0.0
 11
257.5
 21
177.5
 31
0.0
  0
LINE
  8
0
  6
DASHED
 62
   249
 10
305.0
 20
195.0
 30
0.0
 11
257.5
 21
195.0
 31
0.0
  0
LINE
  8
0
  6
DASHED
 62
   249
 10
300.0
 20
212.5
 30
0.0
 11
257.5
 21
212.5
 31
0.0
  0
LINE
  8
0
  6
DASHED
 62
   249
 10
290.0
 20
207.689992
 30
0.0
 11
290.0
 21
167.5
 31
0.0
  0
LINE
  8
0
  6
DASHED
 62
   249
 10
265.0
 20
202.5
 30
0.0
 11
265.0
 21
167.5
 31
0.0
  0
LINE
  8
0
  6
DASHED
 62
   249
 10
310.006921
 20
172.689984
 30
0.0
 11
265.0
 21
172.689984
 31
0.0
  0
LINE
  8
0
  6
DASHED
 62
   249
 10
305.069797
 20
190.189984
 30
0.0
 11
290.0
 21
190.189984
 31
0.0
  0
LINE
  8
0
  6
DASHED
 62
   249
 10
300.0
 20
222.5
 30
0.0
 11
300.0
 21
135.0
 31
0.0
  0
LINE
  8
0
  6
DASHED
 62
   249
 10
305.0
 20
222.5
 30
0.0
 11
305.0
 21
135.0
 31
0.0
  0
LINE
  8
0
  6
DASHED
 62
   249
 10
310.0
 20
222.5
 30
0.0
 11
310.0
 21
135.0
 31
0.0
  0
LINE
  8
0
  6
DASHED
 62
   249
 10
300.0
 20
207.689992
 30
0.0
 11
290.0
 21
207.689992
 31
0.0
  0
TEXT
  8
0
  6
CONTINUOUS
 62
   249
 10
299.045479
 20
226.485054
 30
0.0
 40
2.0
  1
L1
  7
ROMANS
 11
299.045479
 21
225.818387
 31
0.0
 73
     1
  0
TEXT
  8
0
  6
CONTINUOUS
 62
   249
 10
304.045479
 20
226.428359
 30
0.0
 40
2.0
  1
L2
  7
ROMANS
 11
304.045479
 21
225.761693
 31
0.0
 73
     1
  0
TEXT
  8
0
  6
CONTINUOUS
 62
   249
 10
309.045479
 20
226.506967
 30
0.0
 40
2.0
  1
L3
  7
ROMANS
 11
309.045479
 21
225.8403
 31
0.0
 73
     1
  0
LINE
  8
0
  6
DASHED
 62
   249
 10
252.5
 20
167.5
 30
0.0
 11
265.0
 21
167.5
 31
0.0
  0
LINE
  8
0
  6
CONTINUOUS
 62
   249
 10
252.5
 20
172.5
 30
0.0
 11
255.0
 21
172.5
 31
0.0
  0
LINE
  8
0
  6
CONTINUOUS
 62
   249
 10
252.5
 20
177.5
 30
0.0
 11
255.0
 21
177.5
 31
0.0
  0
LINE
  8
0
  6
DASHED
 62
   249
 10
252.5
 20
185.0
 30
0.0
 11
265.0
 21
185.0
 31
0.0
  0
LINE
  8
0
  6
CONTINUOUS
 62
   249
 10
252.5
 20
190.0
 30
0.0
 11
255.0
 21
190.0
 31
0.0
  0
LINE
  8
0
  6
CONTINUOUS
 62
   249
 10
252.5
 20
195.0
 30
0.0
 11
255.0
 21
195.0
 31
0.0
  0
LINE
  8
0
  6
DASHED
 62
   249
 10
252.5
 20
202.5
 30
0.0
 11
265.0
 21
202.5
 31
0.0
  0
LINE
  8
0
  6
CONTINUOUS
 62
   249
 10
252.5
 20
207.5
 30
0.0
 11
255.0
 21
207.5
 31
0.0
  0
LINE
  8
0
  6
CONTINUOUS
 62
   249
 10
252.5
 20
212.5
 30
0.0
 11
255.0
 21
212.5
 31
0.0
  0
LINE
  8
0
 62
   249
 10
237.5
 20
150.0
 30
0.0
 11
235.980133
 21
150.0
 31
0.0
  0
ARC
  8
0
 62
   249
 10
237.565849
 20
151.25
 30
0.0
 40
1.251733
 50
266.984476
 51
93.015524
  0
LINE
  8
0
 62
   249
 10
237.5
 20
152.5
 30
0.0
 11
235.980133
 21
152.5
 31
0.0
  0
LINE
  8
0
 62
   249
 10
237.5
 20
155.0
 30
0.0
 11
235.980133
 21
155.0
 31
0.0
  0
ARC
  8
0
 62
   249
 10
237.565849
 20
153.75
 30
0.0
 40
1.251733
 50
266.984476
 51
93.015524
  0
LINE
  8
0
 62
   249
 10
242.5
 20
147.5
 30
0.0
 11
245.0
 21
147.5
 31
0.0
  0
ARC
  8
0
 62
   249
 10
242.434151
 20
148.75
 30
0.0
 40
1.251733
 50
86.984476
 51
273.015524
  0
ARC
  8
0
 62
   249
 10
242.434151
 20
151.25
 30
0.0
 40
1.251733
 50
86.984476
 51
273.015524
  0
LINE
  8
0
 62
   249
 10
242.5
 20
150.0
 30
0.0
 11
245.0
 21
150.0
 31
0.0
  0
LINE
  8
0
 62
   249
 10
242.5
 20
152.5
 30
0.0
 11
245.0
 21
152.5
 31
0.0
  0
LINE
  8
0
 62
   249
 10
245.0
 20
147.5
 30
0.0
 11
247.5
 21
147.5
 31
0.0
  0
LINE
  8
0
 62
   249
 10
245.0
 20
157.5
 30
0.0
 11
247.5
 21
157.5
 31
0.0
  0
LINE
  8
0
 62
   249
 10
242.5
 20
157.5
 30
0.0
 11
245.0
 21
157.5
 31
0.0
  0
LINE
  8
0
 62
   249
 10
242.5
 20
155.0
 30
0.0
 11
245.0
 21
155.0
 31
0.0
  0
ARC
  8
0
 62
   249
 10
242.434151
 20
156.25
 30
0.0
 40
1.251733
 50
86.984476
 51
273.015524
  0
ARC
  8
0
 62
   249
 10
242.434151
 20
153.75
 30
0.0
 40
1.251733
 50
86.984476
 51
273.015524
  0
LINE
  8
0
 62
   249
 10
242.5
 20
152.5
 30
0.0
 11
245.0
 21
152.5
 31
0.0
  0
LINE
  8
0
  6
CONTINUOUS
 62
   249
 10
232.5
 20
190.0
 30
0.0
 11
200.450615
 21
190.0
 31
0.0
  0
LINE
  8
0
  6
CONTINUOUS
 62
   249
 10
235.0
 20
152.5
 30
0.0
 11
222.5
 21
152.5
 31
0.0
  0
TEXT
  8
0
  6
CONTINUOUS
 62
   249
 10
36.476696
 20
79.432006
 30
0.0
 40
2.0
  1
9
  7
ROMANS
  0
LINE
  8
0
  6
CONTINUOUS
 62
   249
 10
200.450615
 20
167.572402
 30
0.0
 11
217.5
 21
167.572402
 31
0.0
  0
TEXT
  8
0
  6
CONTINUOUS
 62
   249
 10
167.928239
 20
53.561614
 30
0.0
 40
2.0
  1
8
 50
90.0
  7
ROMANS
  0
TEXT
  8
0
  6
CONTINUOUS
 62
   249
 10
215.638441
 20
52.877099
 30
0.0
 40
2.0
  1
61
 50
90.0
  7
ROMANS
  0
TEXT
  8
0
  6
CONTINUOUS
 62
   249
 10
220.59138
 20
52.877099
 30
0.0
 40
2.0
  1
62
 50
90.0
  7
ROMANS
  0
LINE
  8
0
  6
HIDDEN
 62
   249
 10
237.5
 20
57.5
 30
0.0
 11
237.5
 21
52.5
 31
0.0
  0
TEXT
  8
0
  6
CONTINUOUS
 62
   249
 10
235.59138
 20
52.877099
 30
0.0
 40
2.0
  1
63
 50
90.0
  7
ROMANS
  0
LINE
  8
0
 62
   249
 10
340.0
 20
85.534762
 30
0.0
 11
372.5
 21
85.534762
 31
0.0
  0
LINE
  8
0
  6
CONTINUOUS
 62
   249
 10
340.0
 20
80.362964
 30
0.0
 11
372.5
 21
80.362964
 31
0.0
  0
LINE
  8
0
  6
CONTINUOUS
 62
   249
 10
327.5
 20
90.362964
 30
0.0
 11
372.5
 21
90.362964
 31
0.0
  0
LINE
  8
0
  6
CONTINUOUS
 62
   249
 10
327.5
 20
63.043681
 30
0.0
 11
372.5
 21
63.043681
 31
0.0
  0
LINE
  8
0
  6
CONTINUOUS
 62
   249
 10
340.0
 20
53.043681
 30
0.0
 11
340.0
 21
90.362964
 31
0.0
  0
TEXT
  8
0
  6
CENTER
 62
   249
 10
332.5
 20
67.029631
 30
0.0
 40
2.0
  1
L3
  7
ROMANS
  0
TEXT
  8
0
  6
CENTER
 62
   249
 10
332.5
 20
75.362964
 30
0.0
 40
2.0
  1
L1
  7
ROMANS
  0
TEXT
  8
0
  6
CENTER
 62
   249
 10
360.275657
 20
66.877114
 30
0.0
 40
2.0
  1
7-8
  7
ROMANS
  0
TEXT
  8
0
  6
CENTER
 62
   249
 10
360.275657
 20
75.210447
 30
0.0
 40
2.0
  1
1-2
  7
ROMANS
  0
TEXT
  8
0
  6
CENTER
 62
   249
 10
344.577764
 20
67.029631
 30
0.0
 40
2.0
  1
7-9
  7
ROMANS
  0
TEXT
  8
0
  6
CENTER
 62
   249
 10
344.577764
 20
75.362964
 30
0.0
 40
2.0
  1
1-3
  7
ROMANS
  0
LINE
  8
0
 62
   249
 10
327.5
 20
90.362964
 30
0.0
 11
327.5
 21
53.043681
 31
0.0
  0
LINE
  8
0
 62
   249
 10
372.5
 20
53.043681
 30
0.0
 11
372.5
 21
90.362964
 31
0.0
  0
LINE
  8
0
 62
   249
 10
355.0
 20
85.534762
 30
0.0
 11
355.0
 21
63.043681
 31
0.0
  0
TEXT
  8
0
 62
   249
 10
341.057055
 20
86.717872
 30
0.0
 40
2.0
  1
TERMINALS / UTTAG
  7
ROMANS
 11
341.057055
 21
86.051205
 31
0.0
 73
     1
  0
TEXT
  8
0
 62
   249
 10
343.469776
 20
81.912981
 30
0.0
 40
2.0
  1
In=1A 
  7
ROMANS
 11
343.469776
 21
81.246314
 31
0.0
 73
     1
  0
TEXT
  8
0
 62
   249
 10
359.366414
 20
81.912981
 30
0.0
 40
2.0
  1
In=5A
  7
ROMANS
 11
359.366414
 21
81.246314
 31
0.0
 73
     1
  0
TEXT
  8
0
  6
CONTINUOUS
 62
   249
 10
324.00882
 20
92.201429
 30
0.0
 40
2.0
  1
6)
  7
ROMANS
 11
324.00882
 21
91.534762
 31
0.0
 73
     1
  0
TEXT
  8
0
  6
CENTER
 62
   249
 10
332.5
 20
71.346675
 30
0.0
 40
2.0
  1
L2
  7
ROMANS
  0
TEXT
  8
0
  6
CENTER
 62
   249
 10
344.577764
 20
71.346675
 30
0.0
 40
2.0
  1
4-6
  7
ROMANS
  0
TEXT
  8
0
  6
CENTER
 62
   249
 10
360.275657
 20
71.194158
 30
0.0
 40
2.0
  1
4-5
  7
ROMANS
  0
LINE
  8
0
  6
CONTINUOUS
 62
   249
 10
158.262593
 20
162.490398
 30
0.0
 11
161.001724
 21
161.804929
 31
0.0
  0
LINE
  8
0
  6
CONTINUOUS
 62
   249
 10
158.262593
 20
162.490398
 30
0.0
 11
161.001724
 21
163.175867
 31
0.0
  0
LINE
  8
0
  6
CONTINUOUS
 62
   249
 10
161.010069
 20
161.801333
 30
0.0
 11
161.010069
 21
163.172271
 31
0.0
  0
LINE
  8
0
  6
CONTINUOUS
 62
   249
 10
158.262593
 20
169.990398
 30
0.0
 11
161.001724
 21
169.304929
 31
0.0
  0
LINE
  8
0
  6
CONTINUOUS
 62
   249
 10
158.262593
 20
169.990398
 30
0.0
 11
161.001724
 21
170.675867
 31
0.0
  0
LINE
  8
0
  6
CONTINUOUS
 62
   249
 10
161.010069
 20
169.301333
 30
0.0
 11
161.010069
 21
170.672271
 31
0.0
  0
LINE
  8
0
  6
CONTINUOUS
 62
   249
 10
158.285172
 20
198.791829
 30
0.0
 11
161.024304
 21
198.10636
 31
0.0
  0
LINE
  8
0
  6
CONTINUOUS
 62
   249
 10
158.285172
 20
198.791829
 30
0.0
 11
161.024304
 21
199.477298
 31
0.0
  0
LINE
  8
0
  6
CONTINUOUS
 62
   249
 10
161.032648
 20
198.102763
 30
0.0
 11
161.032648
 21
199.473702
 31
0.0
  0
LINE
  8
0
  6
CONTINUOUS
 62
   249
 10
340.0
 20
58.043681
 30
0.0
 11
372.5
 21
58.043681
 31
0.0
  0
LINE
  8
0
  6
CONTINUOUS
 62
   249
 10
327.5
 20
53.043681
 30
0.0
 11
372.5
 21
53.043681
 31
0.0
  0
TEXT
  8
0
  6
HIDDEN
 62
   249
 10
330.968101
 20
54.485347
 30
0.0
 40
2.0
  1
U12
  7
ROMANS
  0
TEXT
  8
0
  6
CENTER
 62
   249
 10
350.752854
 20
54.48819
 30
0.0
 40
2.0
  1
13-14
  7
ROMANS
  0
TEXT
  8
0
 62
   249
 10
340.423741
 20
59.896618
 30
0.0
 40
2.0
  1
Un=100/110/120V
  7
ROMANS
 11
340.423741
 21
59.229951
 31
0.0
 73
     1
  0
LINE
  8
0
  6
CONTINUOUS
 62
   249
 10
175.706281
 20
192.5
 30
0.0
 11
185.706281
 21
192.5
 31
0.0
  0
LINE
  8
0
  6
CONTINUOUS
 62
   249
 10
185.706281
 20
192.5
 30
0.0
 11
185.706281
 21
182.5
 31
0.0
  0
LINE
  8
0
  6
CONTINUOUS
 62
   249
 10
185.706281
 20
182.5
 30
0.0
 11
175.706281
 21
182.5
 31
0.0
  0
LINE
  8
0
  6
CONTINUOUS
 62
   249
 10
175.706281
 20
182.5
 30
0.0
 11
175.706281
 21
192.5
 31
0.0
  0
TEXT
  8
0
  6
HIDDEN
 62
   249
 10
178.550322
 20
185.191266
 30
0.0
 40
4.219727
  1
U
  7
ROMANS
  0
LINE
  8
0
  6
CONTINUOUS
 62
   249
 10
173.452783
 20
189.842252
 30
0.0
 11
178.398035
 21
194.705742
 31
0.0
  0
LINE
  8
0
  6
CONTINUOUS
 62
   249
 10
177.657474
 20
195.629428
 30
0.0
 11
179.206119
 21
193.697228
 31
0.0
  0
LINE
  8
0
  6
CONTINUOUS
 62
   249
 10
185.706281
 20
160.629867
 30
0.0
 11
175.706281
 21
160.629867
 31
0.0
  0
LINE
  8
0
  6
CONTINUOUS
 62
   249
 10
185.706281
 20
170.629867
 30
0.0
 11
185.706281
 21
160.629867
 31
0.0
  0
LINE
  8
0
  6
CONTINUOUS
 62
   249
 10
175.706281
 20
170.629867
 30
0.0
 11
185.706281
 21
170.629867
 31
0.0
  0
LINE
  8
0
  6
CONTINUOUS
 62
   249
 10
175.706281
 20
160.629867
 30
0.0
 11
175.706281
 21
170.629867
 31
0.0
  0
LINE
  8
0
  6
CONTINUOUS
 62
   249
 10
180.138746
 20
166.815634
 30
0.0
 11
180.138746
 21
167.948874
 31
0.0
  0
LINE
  8
0
  6
CONTINUOUS
 62
   249
 10
177.867637
 20
167.385227
 30
0.0
 11
180.131848
 21
167.951847
 31
0.0
  0
LINE
  8
0
  6
CONTINUOUS
 62
   249
 10
177.867637
 20
167.385227
 30
0.0
 11
180.131848
 21
166.818607
 31
0.0
  0
LINE
  8
0
  6
CONTINUOUS
 62
   249
 10
183.784406
 20
167.385227
 30
0.0
 11
177.867637
 21
167.385227
 31
0.0
  0
LINE
  8
0
  6
CONTINUOUS
 62
   249
 10
115.0
 20
87.5
 30
0.0
 11
109.256076
 21
84.285297
 31
0.0
  0
LINE
  8
0
  6
CONTINUOUS
 62
   249
 10
110.0
 20
82.5
 30
0.0
 11
110.0
 21
85.0
 31
0.0
  0
LINE
  8
0
  6
CONTINUOUS
 62
   249
 10
110.0
 20
82.5
 30
0.0
 11
35.0
 21
82.5
 31
0.0
  0
LINE
  8
0
  6
CONTINUOUS
 62
   249
 10
110.0
 20
87.5
 30
0.0
 11
35.0
 21
87.5
 31
0.0
  0
LINE
  8
0
  6
CONTINUOUS
 62
   249
 10
115.0
 20
87.5
 30
0.0
 11
160.0
 21
87.5
 31
0.0
  0
LINE
  8
0
  6
CONTINUOUS
 62
   249
 10
155.0
 20
52.5
 30
0.0
 11
155.0
 21
77.5
 31
0.0
  0
LINE
  8
0
  6
CONTINUOUS
 62
   249
 10
100.0
 20
97.5
 30
0.0
 11
94.256076
 21
94.285297
 31
0.0
  0
LINE
  8
0
  6
CONTINUOUS
 62
   249
 10
95.0
 20
97.5
 30
0.0
 11
35.0
 21
97.5
 31
0.0
  0
LINE
  8
0
  6
CONTINUOUS
 62
   249
 10
100.0
 20
97.5
 30
0.0
 11
170.0
 21
97.5
 31
0.0
  0
LINE
  8
0
  6
CONTINUOUS
 62
   249
 10
130.0
 20
72.5
 30
0.0
 11
124.256076
 21
69.285297
 31
0.0
  0
LINE
  8
0
  6
CONTINUOUS
 62
   249
 10
125.0
 20
72.5
 30
0.0
 11
35.0
 21
72.5
 31
0.0
  0
LINE
  8
0
  6
CONTINUOUS
 62
   249
 10
130.0
 20
72.5
 30
0.0
 11
150.0
 21
72.5
 31
0.0
  0
LINE
  8
0
  6
CONTINUOUS
 62
   249
 10
117.5
 20
77.5
 30
0.0
 11
35.0
 21
77.5
 31
0.0
  0
LINE
  8
0
  6
CONTINUOUS
 62
   249
 10
122.5
 20
77.5
 30
0.0
 11
116.756076
 21
74.285297
 31
0.0
  0
LINE
  8
0
  6
CONTINUOUS
 62
   249
 10
122.5
 20
77.5
 30
0.0
 11
155.0
 21
77.5
 31
0.0
  0
LINE
  8
0
  6
CONTINUOUS
 62
   249
 10
160.0
 20
52.5
 30
0.0
 11
160.0
 21
87.5
 31
0.0
  0
LINE
  8
0
  6
CONTINUOUS
 62
   249
 10
165.0
 20
52.5
 30
0.0
 11
165.0
 21
92.5
 31
0.0
  0
LINE
  8
0
  6
CONTINUOUS
 62
   249
 10
170.0
 20
52.5
 30
0.0
 11
170.0
 21
97.5
 31
0.0
  0
TEXT
  8
0
  6
CONTINUOUS
 62
   249
 10
35.507057
 20
124.432006
 30
0.0
 40
2.0
  1
12
  7
ROMANS
  0
TEXT
  8
0
  6
CONTINUOUS
 62
   249
 10
35.512311
 20
129.432006
 30
0.0
 40
2.0
  1
11
  7
ROMANS
  0
LINE
  8
0
  6
CONTINUOUS
 62
   249
 10
46.816438
 20
127.5
 30
0.0
 11
35.0
 21
127.5
 31
0.0
  0
LINE
  8
0
  6
CONTINUOUS
 62
   249
 10
46.816438
 20
132.5
 30
0.0
 11
35.0
 21
132.5
 31
0.0
  0
LINE
  8
0
  6
CONTINUOUS
 62
   249
 10
46.816438
 20
128.528148
 30
0.0
 11
46.816438
 21
127.5
 31
0.0
  0
LINE
  8
0
  6
CONTINUOUS
 62
   249
 10
46.816438
 20
131.433648
 30
0.0
 11
46.816438
 21
132.5
 31
0.0
  0
LINE
  8
0
  6
CONTINUOUS
 62
   249
 10
43.254927
 20
131.433648
 30
0.0
 11
43.254927
 21
128.528148
 31
0.0
  0
LINE
  8
0
  6
CONTINUOUS
 62
   249
 10
43.254927
 20
128.528148
 30
0.0
 11
50.377948
 21
128.528148
 31
0.0
  0
LINE
  8
0
  6
CONTINUOUS
 62
   249
 10
50.377948
 20
128.528148
 30
0.0
 11
50.377948
 21
131.433648
 31
0.0
  0
LINE
  8
0
  6
CONTINUOUS
 62
   249
 10
50.377948
 20
131.433648
 30
0.0
 11
43.254927
 21
131.433648
 31
0.0
  0
LINE
  8
0
  6
CONTINUOUS
 62
   249
 10
57.5
 20
132.5
 30
0.0
 11
57.5
 21
135.0
 31
0.0
  0
LINE
  8
0
  6
CONTINUOUS
 62
   249
 10
57.5
 20
135.0
 30
0.0
 11
70.0
 21
135.0
 31
0.0
  0
LINE
  8
0
  6
CONTINUOUS
 62
   249
 10
57.5
 20
127.5
 30
0.0
 11
57.5
 21
125.0
 31
0.0
  0
LINE
  8
0
  6
CONTINUOUS
 62
   249
 10
57.5
 20
127.5
 30
0.0
 11
60.714703
 21
133.243924
 31
0.0
  0
LINE
  8
0
  6
DASHED
 62
   249
 10
50.377948
 20
129.980898
 30
0.0
 11
58.888485
 21
129.980898
 31
0.0
  0
TEXT
  8
0
  6
HIDDEN
 62
   249
 10
57.914748
 20
181.193637
 30
0.0
 40
2.0
  1
LOWER`
  7
ROMANS
  0
TEXT
  8
0
  6
HIDDEN
 62
   249
 10
57.914748
 20
166.193637
 30
0.0
 40
2.0
  1
RAISE`
  7
ROMANS
  0
TEXT
  8
0
  6
HIDDEN
 62
   249
 10
57.914748
 20
151.193637
 30
0.0
 40
2.0
  1
TCO
  7
ROMANS
  0
LINE
  8
0
  6
DASHED
 62
   249
 10
50.377948
 20
114.980898
 30
0.0
 11
58.888485
 21
114.980898
 31
0.0
  0
LINE
  8
0
  6
CONTINUOUS
 62
   249
 10
57.5
 20
112.5
 30
0.0
 11
60.714703
 21
118.243924
 31
0.0
  0
LINE
  8
0
  6
CONTINUOUS
 62
   249
 10
57.5
 20
112.5
 30
0.0
 11
57.5
 21
110.0
 31
0.0
  0
LINE
  8
0
  6
CONTINUOUS
 62
   249
 10
57.5
 20
117.5
 30
0.0
 11
57.5
 21
120.0
 31
0.0
  0
LINE
  8
0
  6
CONTINUOUS
 62
   249
 10
50.377948
 20
116.433648
 30
0.0
 11
43.254927
 21
116.433648
 31
0.0
  0
LINE
  8
0
  6
CONTINUOUS
 62
   249
 10
50.377948
 20
113.528148
 30
0.0
 11
50.377948
 21
116.433648
 31
0.0
  0
LINE
  8
0
  6
CONTINUOUS
 62
   249
 10
43.254927
 20
113.528148
 30
0.0
 11
50.377948
 21
113.528148
 31
0.0
  0
LINE
  8
0
  6
CONTINUOUS
 62
   249
 10
43.254927
 20
116.433648
 30
0.0
 11
43.254927
 21
113.528148
 31
0.0
  0
LINE
  8
0
  6
CONTINUOUS
 62
   249
 10
46.816438
 20
116.433648
 30
0.0
 11
46.816438
 21
117.5
 31
0.0
  0
LINE
  8
0
  6
CONTINUOUS
 62
   249
 10
46.816438
 20
113.528148
 30
0.0
 11
46.816438
 21
112.5
 31
0.0
  0
LINE
  8
0
  6
CONTINUOUS
 62
   249
 10
46.816438
 20
117.5
 30
0.0
 11
35.0
 21
117.5
 31
0.0
  0
LINE
  8
0
  6
CONTINUOUS
 62
   249
 10
46.816438
 20
112.5
 30
0.0
 11
35.0
 21
112.5
 31
0.0
  0
TEXT
  8
0
  6
CONTINUOUS
 62
   249
 10
35.512311
 20
114.432006
 30
0.0
 40
2.0
  1
13
  7
ROMANS
  0
TEXT
  8
0
  6
CONTINUOUS
 62
   249
 10
35.507057
 20
109.432006
 30
0.0
 40
2.0
  1
14
  7
ROMANS
  0
LINE
  8
0
  6
CONTINUOUS
 62
   249
 10
57.5
 20
120.0
 30
0.0
 11
70.0
 21
120.0
 31
0.0
  0
TEXT
  8
0
  6
HIDDEN
 62
   249
 10
57.914748
 20
136.193637
 30
0.0
 40
2.0
  1
BLOCK
  7
ROMANS
  0
TEXT
  8
0
  6
HIDDEN
 62
   249
 10
57.914748
 20
121.193637
 30
0.0
 40
2.0
  1
RSV
  7
ROMANS
  0
LINE
  8
0
  6
CONTINUOUS
 62
   249
 10
43.240586
 20
217.5
 30
0.0
 11
35.0
 21
217.5
 31
0.0
  0
LINE
  8
0
  6
CONTINUOUS
 62
   249
 10
43.240586
 20
222.5
 30
0.0
 11
35.0
 21
222.5
 31
0.0
  0
LINE
  8
0
  6
CONTINUOUS
 62
   249
 10
49.726651
 20
220.190368
 30
0.0
 11
45.751081
 21
222.178153
 31
0.0
  0
LINE
  8
0
  6
CONTINUOUS
 62
   249
 10
45.751081
 20
222.178153
 30
0.0
 11
45.751081
 21
218.202583
 31
0.0
  0
LINE
  8
0
  6
CONTINUOUS
 62
   249
 10
45.751081
 20
218.202583
 30
0.0
 11
49.726651
 21
220.190368
 31
0.0
  0
LINE
  8
0
  6
CONTINUOUS
 62
   249
 10
43.240586
 20
215.740586
 30
0.0
 11
43.240586
 21
224.259414
 31
0.0
  0
LINE
  8
0
  6
CONTINUOUS
 62
   249
 10
43.240586
 20
224.259414
 30
0.0
 11
51.759414
 21
224.259414
 31
0.0
  0
LINE
  8
0
  6
CONTINUOUS
 62
   249
 10
51.759414
 20
224.259414
 30
0.0
 11
51.759414
 21
215.740586
 31
0.0
  0
LINE
  8
0
  6
CONTINUOUS
 62
   249
 10
51.759414
 20
215.740586
 30
0.0
 11
43.240586
 21
215.740586
 31
0.0
  0
LINE
  8
0
  6
HIDDEN
 62
   249
 10
40.0
 20
107.5
 30
0.0
 11
35.0
 21
107.5
 31
0.0
  0
LINE
  8
0
  6
CONTINUOUS
 62
   249
 10
52.5
 20
220.0
 30
0.0
 11
217.5
 21
220.0
 31
0.0
  0
TEXT
  8
0
  6
CONTINUOUS
 62
   249
 10
35.507057
 20
214.432006
 30
0.0
 40
2.0
  1
16
  7
ROMANS
  0
TEXT
  8
0
  6
CONTINUOUS
 62
   249
 10
35.512311
 20
219.432006
 30
0.0
 40
2.0
  1
15
  7
ROMANS
  0
LINE
  8
0
  6
CONTINUOUS
 62
   249
 10
70.0
 20
210.0
 30
0.0
 11
212.5
 21
210.0
 31
0.0
  0
LINE
  8
0
  6
DASHED
 62
   249
 10
35.0
 20
142.5
 30
0.0
 11
30.0
 21
142.5
 31
0.0
  0
LINE
  8
0
  6
DASHED
 62
   249
 10
35.0
 20
147.5
 30
0.0
 11
30.0
 21
147.5
 31
0.0
  0
LINE
  8
0
  6
DASHED
 62
   249
 10
35.0
 20
127.5
 30
0.0
 11
30.0
 21
127.5
 31
0.0
  0
LINE
  8
0
  6
DASHED
 62
   249
 10
35.0
 20
132.5
 30
0.0
 11
30.0
 21
132.5
 31
0.0
  0
LINE
  8
0
  6
DASHED
 62
   249
 10
35.0
 20
112.5
 30
0.0
 11
30.0
 21
112.5
 31
0.0
  0
LINE
  8
0
  6
DASHED
 62
   249
 10
35.0
 20
117.5
 30
0.0
 11
30.0
 21
117.5
 31
0.0
  0
LINE
  8
0
  6
CONTINUOUS
 62
   249
 10
27.5
 20
112.499655
 30
0.0
 11
28.5
 21
111.499655
 31
0.0
  0
TEXT
  8
0
  6
HIDDEN
 62
   249
 10
57.914748
 20
221.193637
 30
0.0
 40
2.0
  1
TAP POS
  7
ROMANS
  0
LINE
  8
0
  6
DASHED
 62
   249
 10
97.5
 20
96.100824
 30
0.0
 11
97.5
 21
122.5
 31
0.0
  0
LINE
  8
0
  6
CONTINUOUS
 62
   249
 10
97.5
 20
122.5
 30
0.0
 11
97.5
 21
198.791829
 31
0.0
  0
LINE
  8
0
  6
DASHED
 62
   249
 10
105.0
 20
91.100824
 30
0.0
 11
105.0
 21
122.5
 31
0.0
  0
LINE
  8
0
  6
DASHED
 62
   249
 10
112.5
 20
86.100824
 30
0.0
 11
112.5
 21
122.5
 31
0.0
  0
LINE
  8
0
  6
DASHED
 62
   249
 10
120.0
 20
76.100824
 30
0.0
 11
120.0
 21
122.5
 31
0.0
  0
LINE
  8
0
  6
DASHED
 62
   249
 10
127.5
 20
71.100824
 30
0.0
 11
127.5
 21
122.5
 31
0.0
  0
LINE
  8
0
  6
CONTINUOUS
 62
   249
 10
105.0
 20
122.5
 30
0.0
 11
105.0
 21
193.791829
 31
0.0
  0
LINE
  8
0
  6
CONTINUOUS
 62
   249
 10
112.5
 20
122.5
 30
0.0
 11
112.5
 21
188.791829
 31
0.0
  0
LINE
  8
0
  6
CONTINUOUS
 62
   249
 10
120.0
 20
122.5
 30
0.0
 11
120.0
 21
183.791829
 31
0.0
  0
LINE
  8
0
  6
CONTINUOUS
 62
   249
 10
120.0
 20
170.0
 30
0.0
 11
170.0
 21
170.0
 31
0.0
  0
LINE
  8
0
  6
CONTINUOUS
 62
   249
 10
127.5
 20
122.5
 30
0.0
 11
127.5
 21
178.791829
 31
0.0
  0
LINE
  8
0
  6
CONTINUOUS
 62
   249
 10
127.5
 20
162.5
 30
0.0
 11
170.0
 21
162.5
 31
0.0
  0
LINE
  8
0
  6
CONTINUOUS
 62
   249
 10
200.450615
 20
185.0
 30
0.0
 11
222.5
 21
185.0
 31
0.0
  0
LINE
  8
0
  6
CONTINUOUS
 62
   249
 10
212.5
 20
195.0
 30
0.0
 11
212.5
 21
210.0
 31
0.0
  0
LINE
  8
0
  6
CONTINUOUS
 62
   249
 10
217.5
 20
220.0
 30
0.0
 11
217.5
 21
167.572402
 31
0.0
  0
LINE
  8
0
  6
CONTINUOUS
 62
   249
 10
222.5
 20
185.0
 30
0.0
 11
222.5
 21
152.5
 31
0.0
  0
LINE
  8
0
  6
DASHED
 62
   249
 10
35.0
 20
72.5
 30
0.0
 11
30.0
 21
72.5
 31
0.0
  0
LINE
  8
0
  6
DASHED
 62
   249
 10
35.0
 20
77.5
 30
0.0
 11
30.0
 21
77.5
 31
0.0
  0
LINE
  8
0
  6
CONTINUOUS
 62
   249
 10
368.882963
 20
220.279227
 30
0.0
 11
374.799733
 21
220.279227
 31
0.0
  0
LINE
  8
0
  6
CONTINUOUS
 62
   249
 10
376.074632
 20
217.029579
 30
0.0
 11
366.074632
 21
217.029579
 31
0.0
  0
LINE
  8
0
  6
CONTINUOUS
 62
   249
 10
376.074632
 20
227.029579
 30
0.0
 11
376.074632
 21
217.029579
 31
0.0
  0
LINE
  8
0
  6
CONTINUOUS
 62
   249
 10
366.074632
 20
227.029579
 30
0.0
 11
376.074632
 21
227.029579
 31
0.0
  0
LINE
  8
0
  6
CONTINUOUS
 62
   249
 10
366.074632
 20
217.029579
 30
0.0
 11
366.074632
 21
227.029579
 31
0.0
  0
LINE
  8
0
  6
CONTINUOUS
 62
   249
 10
370.507098
 20
223.215346
 30
0.0
 11
370.507098
 21
224.348586
 31
0.0
  0
LINE
  8
0
  6
CONTINUOUS
 62
   249
 10
368.235988
 20
223.784939
 30
0.0
 11
370.5002
 21
224.351559
 31
0.0
  0
LINE
  8
0
  6
CONTINUOUS
 62
   249
 10
368.235988
 20
223.784939
 30
0.0
 11
370.5002
 21
223.218319
 31
0.0
  0
LINE
  8
0
  6
CONTINUOUS
 62
   249
 10
374.152758
 20
223.784939
 30
0.0
 11
368.235988
 21
223.784939
 31
0.0
  0
LINE
  8
0
  6
CONTINUOUS
 62
   249
 10
366.094362
 20
247.291257
 30
0.0
 11
376.094362
 21
247.291257
 31
0.0
  0
LINE
  8
0
  6
CONTINUOUS
 62
   249
 10
376.094362
 20
247.291257
 30
0.0
 11
376.094362
 21
237.291257
 31
0.0
  0
LINE
  8
0
  6
CONTINUOUS
 62
   249
 10
376.094362
 20
237.291257
 30
0.0
 11
366.094362
 21
237.291257
 31
0.0
  0
LINE
  8
0
  6
CONTINUOUS
 62
   249
 10
366.094362
 20
237.291257
 30
0.0
 11
366.094362
 21
247.291257
 31
0.0
  0
TEXT
  8
0
  6
HIDDEN
 62
   249
 10
368.938404
 20
239.982523
 30
0.0
 40
4.219727
  1
U
  7
ROMANS
  0
LINE
  8
0
  6
CONTINUOUS
 62
   249
 10
363.840864
 20
244.633508
 30
0.0
 11
368.786117
 21
249.496999
 31
0.0
  0
LINE
  8
0
  6
CONTINUOUS
 62
   249
 10
368.045556
 20
250.420685
 30
0.0
 11
369.5942
 21
248.488484
 31
0.0
  0
TEXT
  8
0
  6
HIDDEN
 62
   249
 10
125.885843
 20
123.262046
 30
0.0
 40
2.0
  1
LOWER
 50
90.0
  7
ROMANS
  0
TEXT
  8
0
  6
HIDDEN
 62
   249
 10
118.602905
 20
123.262046
 30
0.0
 40
2.0
  1
RAISE
 50
90.0
  7
ROMANS
  0
TEXT
  8
0
  6
HIDDEN
 62
   249
 10
111.220468
 20
123.262046
 30
0.0
 40
2.0
  1
AUT MAN
 50
90.0
  7
ROMANS
  0
TEXT
  8
0
  6
HIDDEN
 62
   249
 10
103.804544
 20
123.262046
 30
0.0
 40
2.0
  1
I>
 50
90.0
  7
ROMANS
  0
TEXT
  8
0
  6
HIDDEN
 62
   249
 10
95.885843
 20
123.262046
 30
0.0
 40
2.0
  1
U<
 50
90.0
  7
ROMANS
  0
LINE
  8
0
  6
CONTINUOUS
 62
   249
 10
27.5
 20
77.5
 30
0.0
 11
28.5
 21
78.5
 31
0.0
  0
LINE
  8
0
  6
CONTINUOUS
 62
   249
 10
27.5
 20
72.499655
 30
0.0
 11
28.5
 21
71.499655
 31
0.0
  0
LINE
  8
0
  6
CONTINUOUS
 62
   249
 10
27.5
 20
72.5
 30
0.0
 11
27.5
 21
77.5
 31
0.0
  0
TEXT
  8
0
  6
CONTINUOUS
 62
   249
 10
20.0
 20
74.000038
 30
0.0
 40
2.0
  1
3)
  7
ROMANS
  0
LINE
  8
0
  6
CONTINUOUS
 62
   249
 10
170.0
 20
198.791829
 30
0.0
 11
97.5
 21
198.791829
 31
0.0
  0
LINE
  8
0
  6
CONTINUOUS
 62
   249
 10
170.0
 20
193.791829
 30
0.0
 11
105.0
 21
193.791829
 31
0.0
  0
LINE
  8
0
  6
CONTINUOUS
 62
   249
 10
161.032648
 20
193.102763
 30
0.0
 11
161.032648
 21
194.473702
 31
0.0
  0
LINE
  8
0
  6
CONTINUOUS
 62
   249
 10
158.285172
 20
193.791829
 30
0.0
 11
161.024304
 21
194.477298
 31
0.0
  0
LINE
  8
0
  6
CONTINUOUS
 62
   249
 10
158.285172
 20
193.791829
 30
0.0
 11
161.024304
 21
193.10636
 31
0.0
  0
LINE
  8
0
  6
CONTINUOUS
 62
   249
 10
158.285172
 20
188.791829
 30
0.0
 11
161.024304
 21
188.10636
 31
0.0
  0
LINE
  8
0
  6
CONTINUOUS
 62
   249
 10
158.285172
 20
188.791829
 30
0.0
 11
161.024304
 21
189.477298
 31
0.0
  0
LINE
  8
0
  6
CONTINUOUS
 62
   249
 10
161.032648
 20
188.102763
 30
0.0
 11
161.032648
 21
189.473702
 31
0.0
  0
LINE
  8
0
  6
CONTINUOUS
 62
   249
 10
170.0
 20
188.791829
 30
0.0
 11
112.5
 21
188.791829
 31
0.0
  0
LINE
  8
0
  6
CONTINUOUS
 62
   249
 10
161.032648
 20
183.102763
 30
0.0
 11
161.032648
 21
184.473702
 31
0.0
  0
LINE
  8
0
  6
CONTINUOUS
 62
   249
 10
158.285172
 20
183.791829
 30
0.0
 11
161.024304
 21
184.477298
 31
0.0
  0
LINE
  8
0
  6
CONTINUOUS
 62
   249
 10
158.285172
 20
183.791829
 30
0.0
 11
161.024304
 21
183.10636
 31
0.0
  0
LINE
  8
0
  6
CONTINUOUS
 62
   249
 10
170.0
 20
183.791829
 30
0.0
 11
120.0
 21
183.791829
 31
0.0
  0
LINE
  8
0
  6
CONTINUOUS
 62
   249
 10
170.0
 20
178.791829
 30
0.0
 11
127.5
 21
178.791829
 31
0.0
  0
LINE
  8
0
  6
CONTINUOUS
 62
   249
 10
158.285172
 20
178.791829
 30
0.0
 11
161.024304
 21
178.10636
 31
0.0
  0
LINE
  8
0
  6
CONTINUOUS
 62
   249
 10
158.285172
 20
178.791829
 30
0.0
 11
161.024304
 21
179.477298
 31
0.0
  0
LINE
  8
0
  6
CONTINUOUS
 62
   249
 10
161.032648
 20
178.102763
 30
0.0
 11
161.032648
 21
179.473702
 31
0.0
  0
ARC
  8
0
 62
   249
 10
290.712657
 20
148.75
 30
0.0
 40
1.251733
 50
86.984476
 51
273.015524
  0
LINE
  8
0
 62
   249
 10
290.778507
 20
147.5
 30
0.0
 11
293.278507
 21
147.5
 31
0.0
  0
LINE
  8
0
 62
   249
 10
290.778507
 20
150.0
 30
0.0
 11
293.278507
 21
150.0
 31
0.0
  0
LINE
  8
0
 62
   249
 10
293.278507
 20
147.5
 30
0.0
 11
295.778507
 21
147.5
 31
0.0
  0
LINE
  8
0
 62
   249
 10
293.278507
 20
155.0
 30
0.0
 11
295.778507
 21
155.0
 31
0.0
  0
LINE
  8
0
 62
   249
 10
290.778507
 20
155.0
 30
0.0
 11
293.278507
 21
155.0
 31
0.0
  0
LINE
  8
0
 62
   249
 10
290.778507
 20
152.5
 30
0.0
 11
293.278507
 21
152.5
 31
0.0
  0
ARC
  8
0
 62
   249
 10
290.712657
 20
153.75
 30
0.0
 40
1.251733
 50
86.984476
 51
273.015524
  0
ARC
  8
0
 62
   249
 10
290.712657
 20
151.25
 30
0.0
 40
1.251733
 50
86.984476
 51
273.015524
  0
LINE
  8
0
 62
   249
 10
290.778507
 20
150.0
 30
0.0
 11
293.278507
 21
150.0
 31
0.0
  0
LINE
  8
0
 62
   249
 10
285.827141
 20
152.5
 30
0.0
 11
283.327141
 21
152.5
 31
0.0
  0
ARC
  8
0
 62
   249
 10
285.89299
 20
151.25
 30
0.0
 40
1.251733
 50
266.984476
 51
93.015524
  0
ARC
  8
0
 62
   249
 10
285.89299
 20
148.75
 30
0.0
 40
1.251733
 50
266.984476
 51
93.015524
  0
LINE
  8
0
 62
   249
 10
285.827141
 20
150.0
 30
0.0
 11
283.327141
 21
150.0
 31
0.0
  0
LINE
  8
0
 62
   249
 10
285.827141
 20
147.5
 30
0.0
 11
283.327141
 21
147.5
 31
0.0
  0
LINE
  8
0
 62
   249
 10
283.327141
 20
147.5
 30
0.0
 11
280.827141
 21
147.5
 31
0.0
  0
LINE
  8
0
 62
   249
 10
283.327141
 20
155.0
 30
0.0
 11
280.827141
 21
155.0
 31
0.0
  0
LINE
  8
0
 62
   249
 10
285.827141
 20
152.5
 30
0.0
 11
283.327141
 21
152.5
 31
0.0
  0
LINE
  8
0
 62
   249
 10
285.827141
 20
155.0
 30
0.0
 11
283.327141
 21
155.0
 31
0.0
  0
ARC
  8
0
 62
   249
 10
285.89299
 20
153.75
 30
0.0
 40
1.251733
 50
266.984476
 51
93.015524
  0
LINE
  8
0
  6
CONTINUOUS
 62
   249
 10
288.173336
 20
155.0
 30
0.0
 11
288.173336
 21
147.5
 31
0.0
  0
TEXT
  8
0
  6
CONTINUOUS
 62
   249
 10
257.868306
 20
158.063568
 30
0.0
 40
2.0
  1
6)
  7
ROMANS
  0
TEXT
  8
0
  6
DASHED
 62
   249
 10
192.353715
 20
183.929553
 30
0.0
 40
2.5
  1
U<
  7
ROMANS
  0
TEXT
  8
0
  6
DASHED
 62
   249
 10
193.2635
 20
188.942076
 30
0.0
 40
2.5
  1
I>
  7
ROMANS
  0
LINE
  8
0
  6
CONTINUOUS
 62
   249
 10
200.450615
 20
195.0
 30
0.0
 11
212.5
 21
195.0
 31
0.0
  0
LINE
  8
0
  6
DASHED
 62
   249
 10
280.0
 20
155.0
 30
0.0
 11
280.0
 21
157.5
 31
0.0
  0
LINE
  8
0
  6
DASHED
 62
   249
 10
280.0
 20
142.5
 30
0.0
 11
280.0
 21
147.5
 31
0.0
  0
TEXT
  8
0
  6
DASHED
 62
   249
 10
49.565333
 20
0.749954
 30
0.0
 40
2.0
  1
REVISION HAS BEEN CHANGED  95-11-13 JR / AD-ELECTRONICS
  7
ROMANS
  0
TEXT
  8
0
  6
DASHED
 62
   249
 10
49.565333
 20
5.749954
 30
0.0
 40
2.0
  1
CONNECTION OF VOLTAGE TRANSFORMER HAS BEEN CHANGED  96-02-23  KL / VTOL
  7
ROMANS
  0
LINE
  8
0
  6
DASHED
 62
   249
 10
252.5
 20
147.5
 30
0.0
 11
282.5
 21
147.5
 31
0.0
  0
LINE
  8
0
  6
DASHED
 62
   249
 10
295.0
 20
155.0
 30
0.0
 11
305.0
 21
155.0
 31
0.0
  0
LINE
  8
0
  6
DASHED
 62
   249
 10
295.0
 20
147.5
 30
0.0
 11
300.0
 21
147.5
 31
0.0
  0
LINE
  8
0
  6
DASHED
 62
   249
 10
252.5
 20
157.5
 30
0.0
 11
280.0
 21
157.5
 31
0.0
  0
LINE
  8
0
  6
DASHED
 62
   249
 10
280.0
 20
155.0
 30
0.0
 11
282.5
 21
155.0
 31
0.0
  0
LINE
  8
0
  6
CONTINUOUS
 62
   249
 10
163.94017
 20
121.164649
 30
0.0
 11
161.594404
 21
122.500003
 31
0.0
  0
LINE
  8
0
  6
CONTINUOUS
 62
   249
 10
161.594404
 20
122.500003
 30
0.0
 11
163.94017
 21
123.689922
 31
0.0
  0
ARC
  8
0
  6
CONTINUOUS
 62
   249
 10
70.0
 20
135.0
 30
0.0
 40
0.5
 50
180.0
 51
0.0
  0
ARC
  8
0
  6
CONTINUOUS
 62
   249
 10
70.0
 20
135.0
 30
0.0
 40
0.5
 50
0.0
 51
180.0
  0
ARC
  8
0
  6
CONTINUOUS
 62
   249
 10
70.0
 20
150.0
 30
0.0
 40
0.5
 50
180.0
 51
0.0
  0
ARC
  8
0
  6
CONTINUOUS
 62
   249
 10
70.0
 20
150.0
 30
0.0
 40
0.5
 50
0.0
 51
180.0
  0
ARC
  8
0
  6
CONTINUOUS
 62
   249
 10
70.0
 20
165.0
 30
0.0
 40
0.5
 50
180.0
 51
0.0
  0
ARC
  8
0
  6
CONTINUOUS
 62
   249
 10
70.0
 20
165.0
 30
0.0
 40
0.5
 50
0.0
 51
180.0
  0
ARC
  8
0
  6
CONTINUOUS
 62
   249
 10
70.0
 20
180.0
 30
0.0
 40
0.5
 50
180.0
 51
0.0
  0
ARC
  8
0
  6
CONTINUOUS
 62
   249
 10
70.0
 20
180.0
 30
0.0
 40
0.5
 50
0.0
 51
180.0
  0
ARC
  8
0
  6
CONTINUOUS
 62
   249
 10
70.0
 20
195.0
 30
0.0
 40
0.5
 50
180.0
 51
0.0
  0
ARC
  8
0
  6
CONTINUOUS
 62
   249
 10
70.0
 20
195.0
 30
0.0
 40
0.5
 50
0.0
 51
180.0
  0
ARC
  8
0
  6
CONTINUOUS
 62
   249
 10
70.0
 20
210.0
 30
0.0
 40
0.5
 50
180.0
 51
0.0
  0
ARC
  8
0
  6
CONTINUOUS
 62
   249
 10
70.0
 20
210.0
 30
0.0
 40
0.5
 50
0.0
 51
180.0
  0
ARC
  8
0
  6
CONTINUOUS
 62
   249
 10
120.0
 20
170.0
 30
0.0
 40
0.5
 50
180.0
 51
0.0
  0
ARC
  8
0
  6
CONTINUOUS
 62
   249
 10
120.0
 20
170.0
 30
0.0
 40
0.5
 50
0.0
 51
180.0
  0
ARC
  8
0
  6
CONTINUOUS
 62
   249
 10
127.5
 20
162.5
 30
0.0
 40
0.5
 50
180.0
 51
0.0
  0
ARC
  8
0
  6
CONTINUOUS
 62
   249
 10
127.5
 20
162.5
 30
0.0
 40
0.5
 50
0.0
 51
180.0
  0
LINE
  8
0
  6
CONTINUOUS
 62
   249
 10
161.010069
 20
162.756574
 30
0.0
 11
158.774289
 21
162.362346
 31
0.0
  0
LINE
  8
0
  6
CONTINUOUS
 62
   249
 10
161.010069
 20
162.719722
 30
0.0
 11
158.86068
 21
162.340727
 31
0.0
  0
LINE
  8
0
  6
CONTINUOUS
 62
   249
 10
161.010069
 20
162.68287
 30
0.0
 11
158.947071
 21
162.319107
 31
0.0
  0
LINE
  8
0
  6
CONTINUOUS
 62
   249
 10
161.010069
 20
162.646017
 30
0.0
 11
159.033461
 21
162.297488
 31
0.0
  0
LINE
  8
0
  6
CONTINUOUS
 62
   249
 10
161.010069
 20
162.609165
 30
0.0
 11
159.119852
 21
162.275869
 31
0.0
  0
LINE
  8
0
  6
CONTINUOUS
 62
   249
 10
161.010069
 20
162.572312
 30
0.0
 11
159.206243
 21
162.254249
 31
0.0
  0
LINE
  8
0
  6
CONTINUOUS
 62
   249
 10
161.010069
 20
162.53546
 30
0.0
 11
159.292634
 21
162.23263
 31
0.0
  0
LINE
  8
0
  6
CONTINUOUS
 62
   249
 10
161.010069
 20
162.498608
 30
0.0
 11
159.379025
 21
162.211011
 31
0.0
  0
LINE
  8
0
  6
CONTINUOUS
 62
   249
 10
161.010069
 20
162.461755
 30
0.0
 11
159.465416
 21
162.189391
 31
0.0
  0
LINE
  8
0
  6
CONTINUOUS
 62
   249
 10
161.010069
 20
162.424903
 30
0.0
 11
159.551806
 21
162.167772
 31
0.0
  0
LINE
  8
0
  6
CONTINUOUS
 62
   249
 10
161.010069
 20
162.388051
 30
0.0
 11
159.638197
 21
162.146153
 31
0.0
  0
LINE
  8
0
  6
CONTINUOUS
 62
   249
 10
161.010069
 20
162.351198
 30
0.0
 11
159.724588
 21
162.124533
 31
0.0
  0
LINE
  8
0
  6
CONTINUOUS
 62
   249
 10
161.010069
 20
162.314346
 30
0.0
 11
159.810979
 21
162.102914
 31
0.0
  0
LINE
  8
0
  6
CONTINUOUS
 62
   249
 10
161.010069
 20
162.277493
 30
0.0
 11
159.89737
 21
162.081295
 31
0.0
  0
LINE
  8
0
  6
CONTINUOUS
 62
   249
 10
161.010069
 20
162.240641
 30
0.0
 11
159.983761
 21
162.059675
 31
0.0
  0
LINE
  8
0
  6
CONTINUOUS
 62
   249
 10
161.010069
 20
162.203789
 30
0.0
 11
160.070151
 21
162.038056
 31
0.0
  0
LINE
  8
0
  6
CONTINUOUS
 62
   249
 10
161.010069
 20
162.166936
 30
0.0
 11
160.156542
 21
162.016436
 31
0.0
  0
LINE
  8
0
  6
CONTINUOUS
 62
   249
 10
161.010069
 20
162.130084
 30
0.0
 11
160.242933
 21
161.994817
 31
0.0
  0
LINE
  8
0
  6
CONTINUOUS
 62
   249
 10
161.010069
 20
162.093231
 30
0.0
 11
160.329324
 21
161.973198
 31
0.0
  0
LINE
  8
0
  6
CONTINUOUS
 62
   249
 10
161.010069
 20
162.056379
 30
0.0
 11
160.415715
 21
161.951578
 31
0.0
  0
LINE
  8
0
  6
CONTINUOUS
 62
   249
 10
161.010069
 20
162.019527
 30
0.0
 11
160.502106
 21
161.929959
 31
0.0
  0
LINE
  8
0
  6
CONTINUOUS
 62
   249
 10
161.010069
 20
161.982674
 30
0.0
 11
160.588496
 21
161.90834
 31
0.0
  0
LINE
  8
0
  6
CONTINUOUS
 62
   249
 10
161.010069
 20
161.945822
 30
0.0
 11
160.674887
 21
161.88672
 31
0.0
  0
LINE
  8
0
  6
CONTINUOUS
 62
   249
 10
161.010069
 20
161.908969
 30
0.0
 11
160.761278
 21
161.865101
 31
0.0
  0
LINE
  8
0
  6
CONTINUOUS
 62
   249
 10
161.010069
 20
161.872117
 30
0.0
 11
160.847669
 21
161.843482
 31
0.0
  0
LINE
  8
0
  6
CONTINUOUS
 62
   249
 10
161.010069
 20
161.835265
 30
0.0
 11
160.93406
 21
161.821862
 31
0.0
  0
LINE
  8
0
  6
CONTINUOUS
 62
   249
 10
161.010069
 20
162.793427
 30
0.0
 11
158.687898
 21
162.383965
 31
0.0
  0
LINE
  8
0
  6
CONTINUOUS
 62
   249
 10
161.010069
 20
162.830279
 30
0.0
 11
158.601507
 21
162.405585
 31
0.0
  0
LINE
  8
0
  6
CONTINUOUS
 62
   249
 10
161.010069
 20
162.867132
 30
0.0
 11
158.515116
 21
162.427204
 31
0.0
  0
LINE
  8
0
  6
CONTINUOUS
 62
   249
 10
161.010069
 20
162.903984
 30
0.0
 11
158.428726
 21
162.448823
 31
0.0
  0
LINE
  8
0
  6
CONTINUOUS
 62
   249
 10
161.010069
 20
162.940836
 30
0.0
 11
158.342335
 21
162.470443
 31
0.0
  0
LINE
  8
0
  6
CONTINUOUS
 62
   249
 10
161.010069
 20
162.977689
 30
0.0
 11
158.300961
 21
162.5
 31
0.0
  0
LINE
  8
0
  6
CONTINUOUS
 62
   249
 10
161.010069
 20
163.014541
 30
0.0
 11
158.799482
 21
162.624755
 31
0.0
  0
LINE
  8
0
  6
CONTINUOUS
 62
   249
 10
161.010069
 20
163.051393
 30
0.0
 11
159.298002
 21
162.74951
 31
0.0
  0
LINE
  8
0
  6
CONTINUOUS
 62
   249
 10
161.010069
 20
163.088246
 30
0.0
 11
159.796522
 21
162.874265
 31
0.0
  0
LINE
  8
0
  6
CONTINUOUS
 62
   249
 10
161.010069
 20
163.125098
 30
0.0
 11
160.295042
 21
162.99902
 31
0.0
  0
LINE
  8
0
  6
CONTINUOUS
 62
   249
 10
161.010069
 20
163.161951
 30
0.0
 11
160.793563
 21
163.123775
 31
0.0
  0
LINE
  8
0
  6
CONTINUOUS
 62
   249
 10
161.010069
 20
170.256574
 30
0.0
 11
158.774289
 21
169.862346
 31
0.0
  0
LINE
  8
0
  6
CONTINUOUS
 62
   249
 10
161.010069
 20
170.219722
 30
0.0
 11
158.86068
 21
169.840727
 31
0.0
  0
LINE
  8
0
  6
CONTINUOUS
 62
   249
 10
161.010069
 20
170.18287
 30
0.0
 11
158.947071
 21
169.819107
 31
0.0
  0
LINE
  8
0
  6
CONTINUOUS
 62
   249
 10
161.010069
 20
170.146017
 30
0.0
 11
159.033461
 21
169.797488
 31
0.0
  0
LINE
  8
0
  6
CONTINUOUS
 62
   249
 10
161.010069
 20
170.109165
 30
0.0
 11
159.119852
 21
169.775869
 31
0.0
  0
LINE
  8
0
  6
CONTINUOUS
 62
   249
 10
161.010069
 20
170.072312
 30
0.0
 11
159.206243
 21
169.754249
 31
0.0
  0
LINE
  8
0
  6
CONTINUOUS
 62
   249
 10
161.010069
 20
170.03546
 30
0.0
 11
159.292634
 21
169.73263
 31
0.0
  0
LINE
  8
0
  6
CONTINUOUS
 62
   249
 10
161.010069
 20
169.998608
 30
0.0
 11
159.379025
 21
169.711011
 31
0.0
  0
LINE
  8
0
  6
CONTINUOUS
 62
   249
 10
161.010069
 20
169.961755
 30
0.0
 11
159.465416
 21
169.689391
 31
0.0
  0
LINE
  8
0
  6
CONTINUOUS
 62
   249
 10
161.010069
 20
169.924903
 30
0.0
 11
159.551806
 21
169.667772
 31
0.0
  0
LINE
  8
0
  6
CONTINUOUS
 62
   249
 10
161.010069
 20
169.888051
 30
0.0
 11
159.638197
 21
169.646153
 31
0.0
  0
LINE
  8
0
  6
CONTINUOUS
 62
   249
 10
161.010069
 20
169.851198
 30
0.0
 11
159.724588
 21
169.624533
 31
0.0
  0
LINE
  8
0
  6
CONTINUOUS
 62
   249
 10
161.010069
 20
169.814346
 30
0.0
 11
159.810979
 21
169.602914
 31
0.0
  0
LINE
  8
0
  6
CONTINUOUS
 62
   249
 10
161.010069
 20
169.777493
 30
0.0
 11
159.89737
 21
169.581295
 31
0.0
  0
LINE
  8
0
  6
CONTINUOUS
 62
   249
 10
161.010069
 20
169.740641
 30
0.0
 11
159.983761
 21
169.559675
 31
0.0
  0
LINE
  8
0
  6
CONTINUOUS
 62
   249
 10
161.010069
 20
169.703789
 30
0.0
 11
160.070151
 21
169.538056
 31
0.0
  0
LINE
  8
0
  6
CONTINUOUS
 62
   249
 10
161.010069
 20
169.666936
 30
0.0
 11
160.156542
 21
169.516436
 31
0.0
  0
LINE
  8
0
  6
CONTINUOUS
 62
   249
 10
161.010069
 20
169.630084
 30
0.0
 11
160.242933
 21
169.494817
 31
0.0
  0
LINE
  8
0
  6
CONTINUOUS
 62
   249
 10
161.010069
 20
169.593231
 30
0.0
 11
160.329324
 21
169.473198
 31
0.0
  0
LINE
  8
0
  6
CONTINUOUS
 62
   249
 10
161.010069
 20
169.556379
 30
0.0
 11
160.415715
 21
169.451578
 31
0.0
  0
LINE
  8
0
  6
CONTINUOUS
 62
   249
 10
161.010069
 20
169.519527
 30
0.0
 11
160.502106
 21
169.429959
 31
0.0
  0
LINE
  8
0
  6
CONTINUOUS
 62
   249
 10
161.010069
 20
169.482674
 30
0.0
 11
160.588496
 21
169.40834
 31
0.0
  0
LINE
  8
0
  6
CONTINUOUS
 62
   249
 10
161.010069
 20
169.445822
 30
0.0
 11
160.674887
 21
169.38672
 31
0.0
  0
LINE
  8
0
  6
CONTINUOUS
 62
   249
 10
161.010069
 20
169.408969
 30
0.0
 11
160.761278
 21
169.365101
 31
0.0
  0
LINE
  8
0
  6
CONTINUOUS
 62
   249
 10
161.010069
 20
169.372117
 30
0.0
 11
160.847669
 21
169.343482
 31
0.0
  0
LINE
  8
0
  6
CONTINUOUS
 62
   249
 10
161.010069
 20
169.335265
 30
0.0
 11
160.93406
 21
169.321862
 31
0.0
  0
LINE
  8
0
  6
CONTINUOUS
 62
   249
 10
161.010069
 20
170.293427
 30
0.0
 11
158.687898
 21
169.883965
 31
0.0
  0
LINE
  8
0
  6
CONTINUOUS
 62
   249
 10
161.010069
 20
170.330279
 30
0.0
 11
158.601507
 21
169.905585
 31
0.0
  0
LINE
  8
0
  6
CONTINUOUS
 62
   249
 10
161.010069
 20
170.367132
 30
0.0
 11
158.515116
 21
169.927204
 31
0.0
  0
LINE
  8
0
  6
CONTINUOUS
 62
   249
 10
161.010069
 20
170.403984
 30
0.0
 11
158.428726
 21
169.948823
 31
0.0
  0
LINE
  8
0
  6
CONTINUOUS
 62
   249
 10
161.010069
 20
170.440836
 30
0.0
 11
158.342335
 21
169.970443
 31
0.0
  0
LINE
  8
0
  6
CONTINUOUS
 62
   249
 10
161.010069
 20
170.477689
 30
0.0
 11
158.300961
 21
170.0
 31
0.0
  0
LINE
  8
0
  6
CONTINUOUS
 62
   249
 10
161.010069
 20
170.514541
 30
0.0
 11
158.799482
 21
170.124755
 31
0.0
  0
LINE
  8
0
  6
CONTINUOUS
 62
   249
 10
161.010069
 20
170.551393
 30
0.0
 11
159.298002
 21
170.24951
 31
0.0
  0
LINE
  8
0
  6
CONTINUOUS
 62
   249
 10
161.010069
 20
170.588246
 30
0.0
 11
159.796522
 21
170.374265
 31
0.0
  0
LINE
  8
0
  6
CONTINUOUS
 62
   249
 10
161.010069
 20
170.625098
 30
0.0
 11
160.295042
 21
170.49902
 31
0.0
  0
LINE
  8
0
  6
CONTINUOUS
 62
   249
 10
161.010069
 20
170.661951
 30
0.0
 11
160.793563
 21
170.623775
 31
0.0
  0
LINE
  8
0
  6
CONTINUOUS
 62
   249
 10
180.138746
 20
167.605253
 30
0.0
 11
178.290613
 21
167.279377
 31
0.0
  0
LINE
  8
0
  6
CONTINUOUS
 62
   249
 10
180.138746
 20
167.57479
 30
0.0
 11
178.362025
 21
167.261506
 31
0.0
  0
LINE
  8
0
  6
CONTINUOUS
 62
   249
 10
180.138746
 20
167.544327
 30
0.0
 11
178.433437
 21
167.243635
 31
0.0
  0
LINE
  8
0
  6
CONTINUOUS
 62
   249
 10
180.138746
 20
167.513864
 30
0.0
 11
178.50485
 21
167.225764
 31
0.0
  0
LINE
  8
0
  6
CONTINUOUS
 62
   249
 10
180.138746
 20
167.483401
 30
0.0
 11
178.576262
 21
167.207893
 31
0.0
  0
LINE
  8
0
  6
CONTINUOUS
 62
   249
 10
180.138746
 20
167.452939
 30
0.0
 11
178.647674
 21
167.190022
 31
0.0
  0
LINE
  8
0
  6
CONTINUOUS
 62
   249
 10
180.138746
 20
167.422476
 30
0.0
 11
178.719086
 21
167.172151
 31
0.0
  0
LINE
  8
0
  6
CONTINUOUS
 62
   249
 10
180.138746
 20
167.392013
 30
0.0
 11
178.790498
 21
167.15428
 31
0.0
  0
LINE
  8
0
  6
CONTINUOUS
 62
   249
 10
180.138746
 20
167.36155
 30
0.0
 11
178.86191
 21
167.136409
 31
0.0
  0
LINE
  8
0
  6
CONTINUOUS
 62
   249
 10
180.138746
 20
167.331087
 30
0.0
 11
178.933322
 21
167.118539
 31
0.0
  0
LINE
  8
0
  6
CONTINUOUS
 62
   249
 10
180.138746
 20
167.300625
 30
0.0
 11
179.004734
 21
167.100668
 31
0.0
  0
LINE
  8
0
  6
CONTINUOUS
 62
   249
 10
180.138746
 20
167.270162
 30
0.0
 11
179.076146
 21
167.082797
 31
0.0
  0
LINE
  8
0
  6
CONTINUOUS
 62
   249
 10
180.138746
 20
167.239699
 30
0.0
 11
179.147558
 21
167.064926
 31
0.0
  0
LINE
  8
0
  6
CONTINUOUS
 62
   249
 10
180.138746
 20
167.209236
 30
0.0
 11
179.218971
 21
167.047055
 31
0.0
  0
LINE
  8
0
  6
CONTINUOUS
 62
   249
 10
180.138746
 20
167.178773
 30
0.0
 11
179.290383
 21
167.029184
 31
0.0
  0
LINE
  8
0
  6
CONTINUOUS
 62
   249
 10
180.138746
 20
167.148311
 30
0.0
 11
179.361795
 21
167.011313
 31
0.0
  0
LINE
  8
0
  6
CONTINUOUS
 62
   249
 10
180.138746
 20
167.117848
 30
0.0
 11
179.433207
 21
166.993442
 31
0.0
  0
LINE
  8
0
  6
CONTINUOUS
 62
   249
 10
180.138746
 20
167.087385
 30
0.0
 11
179.504619
 21
166.975571
 31
0.0
  0
LINE
  8
0
  6
CONTINUOUS
 62
   249
 10
180.138746
 20
167.056922
 30
0.0
 11
179.576031
 21
166.9577
 31
0.0
  0
LINE
  8
0
  6
CONTINUOUS
 62
   249
 10
180.138746
 20
167.026459
 30
0.0
 11
179.647443
 21
166.939829
 31
0.0
  0
LINE
  8
0
  6
CONTINUOUS
 62
   249
 10
180.138746
 20
166.995997
 30
0.0
 11
179.718855
 21
166.921958
 31
0.0
  0
LINE
  8
0
  6
CONTINUOUS
 62
   249
 10
180.138746
 20
166.965534
 30
0.0
 11
179.790267
 21
166.904088
 31
0.0
  0
LINE
  8
0
  6
CONTINUOUS
 62
   249
 10
180.138746
 20
166.935071
 30
0.0
 11
179.86168
 21
166.886217
 31
0.0
  0
LINE
  8
0
  6
CONTINUOUS
 62
   249
 10
180.138746
 20
166.904608
 30
0.0
 11
179.933092
 21
166.868346
 31
0.0
  0
LINE
  8
0
  6
CONTINUOUS
 62
   249
 10
180.138746
 20
166.874145
 30
0.0
 11
180.004504
 21
166.850475
 31
0.0
  0
LINE
  8
0
  6
CONTINUOUS
 62
   249
 10
180.138746
 20
166.843683
 30
0.0
 11
180.075916
 21
166.832604
 31
0.0
  0
LINE
  8
0
  6
CONTINUOUS
 62
   249
 10
180.138746
 20
167.635715
 30
0.0
 11
178.219201
 21
167.297248
 31
0.0
  0
LINE
  8
0
  6
CONTINUOUS
 62
   249
 10
180.138746
 20
167.666178
 30
0.0
 11
178.147789
 21
167.315119
 31
0.0
  0
LINE
  8
0
  6
CONTINUOUS
 62
   249
 10
180.138746
 20
167.696641
 30
0.0
 11
178.076377
 21
167.33299
 31
0.0
  0
LINE
  8
0
  6
CONTINUOUS
 62
   249
 10
180.138746
 20
167.727104
 30
0.0
 11
178.004965
 21
167.35086
 31
0.0
  0
LINE
  8
0
  6
CONTINUOUS
 62
   249
 10
180.138746
 20
167.757566
 30
0.0
 11
177.933553
 21
167.368731
 31
0.0
  0
LINE
  8
0
  6
CONTINUOUS
 62
   249
 10
180.138746
 20
167.788029
 30
0.0
 11
177.899353
 21
167.393164
 31
0.0
  0
LINE
  8
0
  6
CONTINUOUS
 62
   249
 10
180.138746
 20
167.818492
 30
0.0
 11
178.311438
 21
167.496288
 31
0.0
  0
LINE
  8
0
  6
CONTINUOUS
 62
   249
 10
180.138746
 20
167.848955
 30
0.0
 11
178.723523
 21
167.599413
 31
0.0
  0
LINE
  8
0
  6
CONTINUOUS
 62
   249
 10
180.138746
 20
167.879418
 30
0.0
 11
179.135608
 21
167.702537
 31
0.0
  0
LINE
  8
0
  6
CONTINUOUS
 62
   249
 10
180.138746
 20
167.90988
 30
0.0
 11
179.547694
 21
167.805662
 31
0.0
  0
LINE
  8
0
  6
CONTINUOUS
 62
   249
 10
180.138746
 20
167.940343
 30
0.0
 11
179.959779
 21
167.908787
 31
0.0
  0
LINE
  8
0
  6
CONTINUOUS
 62
   249
 10
182.160272
 20
163.659489
 30
0.0
 11
184.008405
 21
163.985365
 31
0.0
  0
LINE
  8
0
  6
CONTINUOUS
 62
   249
 10
182.160272
 20
163.689952
 30
0.0
 11
183.936993
 21
164.003236
 31
0.0
  0
LINE
  8
0
  6
CONTINUOUS
 62
   249
 10
182.160272
 20
163.720415
 30
0.0
 11
183.865581
 21
164.021107
 31
0.0
  0
LINE
  8
0
  6
CONTINUOUS
 62
   249
 10
182.160272
 20
163.750877
 30
0.0
 11
183.794169
 21
164.038977
 31
0.0
  0
LINE
  8
0
  6
CONTINUOUS
 62
   249
 10
182.160272
 20
163.78134
 30
0.0
 11
183.722757
 21
164.056848
 31
0.0
  0
LINE
  8
0
  6
CONTINUOUS
 62
   249
 10
182.160272
 20
163.811803
 30
0.0
 11
183.651345
 21
164.074719
 31
0.0
  0
LINE
  8
0
  6
CONTINUOUS
 62
   249
 10
182.160272
 20
163.842266
 30
0.0
 11
183.579932
 21
164.09259
 31
0.0
  0
LINE
  8
0
  6
CONTINUOUS
 62
   249
 10
182.160272
 20
163.872729
 30
0.0
 11
183.50852
 21
164.110461
 31
0.0
  0
LINE
  8
0
  6
CONTINUOUS
 62
   249
 10
182.160272
 20
163.903191
 30
0.0
 11
183.437108
 21
164.128332
 31
0.0
  0
LINE
  8
0
  6
CONTINUOUS
 62
   249
 10
182.160272
 20
163.933654
 30
0.0
 11
183.365696
 21
164.146203
 31
0.0
  0
LINE
  8
0
  6
CONTINUOUS
 62
   249
 10
182.160272
 20
163.964117
 30
0.0
 11
183.294284
 21
164.164074
 31
0.0
  0
LINE
  8
0
  6
CONTINUOUS
 62
   249
 10
182.160272
 20
163.99458
 30
0.0
 11
183.222872
 21
164.181945
 31
0.0
  0
LINE
  8
0
  6
CONTINUOUS
 62
   249
 10
182.160272
 20
164.025043
 30
0.0
 11
183.15146
 21
164.199816
 31
0.0
  0
LINE
  8
0
  6
CONTINUOUS
 62
   249
 10
182.160272
 20
164.055505
 30
0.0
 11
183.080048
 21
164.217687
 31
0.0
  0
LINE
  8
0
  6
CONTINUOUS
 62
   249
 10
182.160272
 20
164.085968
 30
0.0
 11
183.008636
 21
164.235558
 31
0.0
  0
LINE
  8
0
  6
CONTINUOUS
 62
   249
 10
182.160272
 20
164.116431
 30
0.0
 11
182.937223
 21
164.253428
 31
0.0
  0
LINE
  8
0
  6
CONTINUOUS
 62
   249
 10
182.160272
 20
164.146894
 30
0.0
 11
182.865811
 21
164.271299
 31
0.0
  0
LINE
  8
0
  6
CONTINUOUS
 62
   249
 10
182.160272
 20
164.177357
 30
0.0
 11
182.794399
 21
164.28917
 31
0.0
  0
LINE
  8
0
  6
CONTINUOUS
 62
   249
 10
182.160272
 20
164.207819
 30
0.0
 11
182.722987
 21
164.307041
 31
0.0
  0
LINE
  8
0
  6
CONTINUOUS
 62
   249
 10
182.160272
 20
164.238282
 30
0.0
 11
182.651575
 21
164.324912
 31
0.0
  0
LINE
  8
0
  6
CONTINUOUS
 62
   249
 10
182.160272
 20
164.268745
 30
0.0
 11
182.580163
 21
164.342783
 31
0.0
  0
LINE
  8
0
  6
CONTINUOUS
 62
   249
 10
182.160272
 20
164.299208
 30
0.0
 11
182.508751
 21
164.360654
 31
0.0
  0
LINE
  8
0
  6
CONTINUOUS
 62
   249
 10
182.160272
 20
164.329671
 30
0.0
 11
182.437339
 21
164.378525
 31
0.0
  0
LINE
  8
0
  6
CONTINUOUS
 62
   249
 10
182.160272
 20
164.360133
 30
0.0
 11
182.365927
 21
164.396396
 31
0.0
  0
LINE
  8
0
  6
CONTINUOUS
 62
   249
 10
182.160272
 20
164.390596
 30
0.0
 11
182.294515
 21
164.414267
 31
0.0
  0
LINE
  8
0
  6
CONTINUOUS
 62
   249
 10
182.160272
 20
164.421059
 30
0.0
 11
182.223102
 21
164.432138
 31
0.0
  0
LINE
  8
0
  6
CONTINUOUS
 62
   249
 10
182.160272
 20
163.629026
 30
0.0
 11
184.079817
 21
163.967494
 31
0.0
  0
LINE
  8
0
  6
CONTINUOUS
 62
   249
 10
182.160272
 20
163.598563
 30
0.0
 11
184.151229
 21
163.949623
 31
0.0
  0
LINE
  8
0
  6
CONTINUOUS
 62
   249
 10
182.160272
 20
163.568101
 30
0.0
 11
184.222641
 21
163.931752
 31
0.0
  0
LINE
  8
0
  6
CONTINUOUS
 62
   249
 10
182.160272
 20
163.537638
 30
0.0
 11
184.294054
 21
163.913881
 31
0.0
  0
LINE
  8
0
  6
CONTINUOUS
 62
   249
 10
182.160272
 20
163.507175
 30
0.0
 11
184.365466
 21
163.89601
 31
0.0
  0
LINE
  8
0
  6
CONTINUOUS
 62
   249
 10
182.160272
 20
163.476712
 30
0.0
 11
184.399665
 21
163.871578
 31
0.0
  0
LINE
  8
0
  6
CONTINUOUS
 62
   249
 10
182.160272
 20
163.446249
 30
0.0
 11
183.98758
 21
163.768453
 31
0.0
  0
LINE
  8
0
  6
CONTINUOUS
 62
   249
 10
182.160272
 20
163.415787
 30
0.0
 11
183.575495
 21
163.665329
 31
0.0
  0
LINE
  8
0
  6
CONTINUOUS
 62
   249
 10
182.160272
 20
163.385324
 30
0.0
 11
183.16341
 21
163.562204
 31
0.0
  0
LINE
  8
0
  6
CONTINUOUS
 62
   249
 10
182.160272
 20
163.354861
 30
0.0
 11
182.751325
 21
163.45908
 31
0.0
  0
LINE
  8
0
  6
CONTINUOUS
 62
   249
 10
182.160272
 20
163.324398
 30
0.0
 11
182.33924
 21
163.355955
 31
0.0
  0
LINE
  8
0
  6
CONTINUOUS
 62
   249
 10
161.032648
 20
179.058005
 30
0.0
 11
158.796868
 21
178.663777
 31
0.0
  0
LINE
  8
0
  6
CONTINUOUS
 62
   249
 10
161.032648
 20
179.021153
 30
0.0
 11
158.883259
 21
178.642157
 31
0.0
  0
LINE
  8
0
  6
CONTINUOUS
 62
   249
 10
161.032648
 20
178.9843
 30
0.0
 11
158.96965
 21
178.620538
 31
0.0
  0
LINE
  8
0
  6
CONTINUOUS
 62
   249
 10
161.032648
 20
178.947448
 30
0.0
 11
159.056041
 21
178.598919
 31
0.0
  0
LINE
  8
0
  6
CONTINUOUS
 62
   249
 10
161.032648
 20
178.910595
 30
0.0
 11
159.142432
 21
178.577299
 31
0.0
  0
LINE
  8
0
  6
CONTINUOUS
 62
   249
 10
161.032648
 20
178.873743
 30
0.0
 11
159.228822
 21
178.55568
 31
0.0
  0
LINE
  8
0
  6
CONTINUOUS
 62
   249
 10
161.032648
 20
178.836891
 30
0.0
 11
159.315213
 21
178.534061
 31
0.0
  0
LINE
  8
0
  6
CONTINUOUS
 62
   249
 10
161.032648
 20
178.800038
 30
0.0
 11
159.401604
 21
178.512441
 31
0.0
  0
LINE
  8
0
  6
CONTINUOUS
 62
   249
 10
161.032648
 20
178.763186
 30
0.0
 11
159.487995
 21
178.490822
 31
0.0
  0
LINE
  8
0
  6
CONTINUOUS
 62
   249
 10
161.032648
 20
178.726333
 30
0.0
 11
159.574386
 21
178.469203
 31
0.0
  0
LINE
  8
0
  6
CONTINUOUS
 62
   249
 10
161.032648
 20
178.689481
 30
0.0
 11
159.660777
 21
178.447583
 31
0.0
  0
LINE
  8
0
  6
CONTINUOUS
 62
   249
 10
161.032648
 20
178.652629
 30
0.0
 11
159.747168
 21
178.425964
 31
0.0
  0
LINE
  8
0
  6
CONTINUOUS
 62
   249
 10
161.032648
 20
178.615776
 30
0.0
 11
159.833558
 21
178.404344
 31
0.0
  0
LINE
  8
0
  6
CONTINUOUS
 62
   249
 10
161.032648
 20
178.578924
 30
0.0
 11
159.919949
 21
178.382725
 31
0.0
  0
LINE
  8
0
  6
CONTINUOUS
 62
   249
 10
161.032648
 20
178.542072
 30
0.0
 11
160.00634
 21
178.361106
 31
0.0
  0
LINE
  8
0
  6
CONTINUOUS
 62
   249
 10
161.032648
 20
178.505219
 30
0.0
 11
160.092731
 21
178.339486
 31
0.0
  0
LINE
  8
0
  6
CONTINUOUS
 62
   249
 10
161.032648
 20
178.468367
 30
0.0
 11
160.179122
 21
178.317867
 31
0.0
  0
LINE
  8
0
  6
CONTINUOUS
 62
   249
 10
161.032648
 20
178.431514
 30
0.0
 11
160.265513
 21
178.296248
 31
0.0
  0
LINE
  8
0
  6
CONTINUOUS
 62
   249
 10
161.032648
 20
178.394662
 30
0.0
 11
160.351903
 21
178.274628
 31
0.0
  0
LINE
  8
0
  6
CONTINUOUS
 62
   249
 10
161.032648
 20
178.35781
 30
0.0
 11
160.438294
 21
178.253009
 31
0.0
  0
LINE
  8
0
  6
CONTINUOUS
 62
   249
 10
161.032648
 20
178.320957
 30
0.0
 11
160.524685
 21
178.23139
 31
0.0
  0
LINE
  8
0
  6
CONTINUOUS
 62
   249
 10
161.032648
 20
178.284105
 30
0.0
 11
160.611076
 21
178.20977
 31
0.0
  0
LINE
  8
0
  6
CONTINUOUS
 62
   249
 10
161.032648
 20
178.247252
 30
0.0
 11
160.697467
 21
178.188151
 31
0.0
  0
LINE
  8
0
  6
CONTINUOUS
 62
   249
 10
161.032648
 20
178.2104
 30
0.0
 11
160.783858
 21
178.166532
 31
0.0
  0
LINE
  8
0
  6
CONTINUOUS
 62
   249
 10
161.032648
 20
178.173548
 30
0.0
 11
160.870248
 21
178.144912
 31
0.0
  0
LINE
  8
0
  6
CONTINUOUS
 62
   249
 10
161.032648
 20
178.136695
 30
0.0
 11
160.956639
 21
178.123293
 31
0.0
  0
LINE
  8
0
  6
CONTINUOUS
 62
   249
 10
161.032648
 20
179.094857
 30
0.0
 11
158.710477
 21
178.685396
 31
0.0
  0
LINE
  8
0
  6
CONTINUOUS
 62
   249
 10
161.032648
 20
179.13171
 30
0.0
 11
158.624087
 21
178.707015
 31
0.0
  0
LINE
  8
0
  6
CONTINUOUS
 62
   249
 10
161.032648
 20
179.168562
 30
0.0
 11
158.537696
 21
178.728635
 31
0.0
  0
LINE
  8
0
  6
CONTINUOUS
 62
   249
 10
161.032648
 20
179.205415
 30
0.0
 11
158.451305
 21
178.750254
 31
0.0
  0
LINE
  8
0
  6
CONTINUOUS
 62
   249
 10
161.032648
 20
179.242267
 30
0.0
 11
158.364914
 21
178.771873
 31
0.0
  0
LINE
  8
0
  6
CONTINUOUS
 62
   249
 10
161.032648
 20
179.279119
 30
0.0
 11
158.323541
 21
178.801431
 31
0.0
  0
LINE
  8
0
  6
CONTINUOUS
 62
   249
 10
161.032648
 20
179.315972
 30
0.0
 11
158.822061
 21
178.926186
 31
0.0
  0
LINE
  8
0
  6
CONTINUOUS
 62
   249
 10
161.032648
 20
179.352824
 30
0.0
 11
159.320581
 21
179.050941
 31
0.0
  0
LINE
  8
0
  6
CONTINUOUS
 62
   249
 10
161.032648
 20
179.389676
 30
0.0
 11
159.819102
 21
179.175695
 31
0.0
  0
LINE
  8
0
  6
CONTINUOUS
 62
   249
 10
161.032648
 20
179.426529
 30
0.0
 11
160.317622
 21
179.30045
 31
0.0
  0
LINE
  8
0
  6
CONTINUOUS
 62
   249
 10
161.032648
 20
179.463381
 30
0.0
 11
160.816142
 21
179.425205
 31
0.0
  0
LINE
  8
0
  6
CONTINUOUS
 62
   249
 10
161.032648
 20
184.058005
 30
0.0
 11
158.796868
 21
183.663777
 31
0.0
  0
LINE
  8
0
  6
CONTINUOUS
 62
   249
 10
161.032648
 20
184.021153
 30
0.0
 11
158.883259
 21
183.642157
 31
0.0
  0
LINE
  8
0
  6
CONTINUOUS
 62
   249
 10
161.032648
 20
183.9843
 30
0.0
 11
158.96965
 21
183.620538
 31
0.0
  0
LINE
  8
0
  6
CONTINUOUS
 62
   249
 10
161.032648
 20
183.947448
 30
0.0
 11
159.056041
 21
183.598919
 31
0.0
  0
LINE
  8
0
  6
CONTINUOUS
 62
   249
 10
161.032648
 20
183.910595
 30
0.0
 11
159.142432
 21
183.577299
 31
0.0
  0
LINE
  8
0
  6
CONTINUOUS
 62
   249
 10
161.032648
 20
183.873743
 30
0.0
 11
159.228822
 21
183.55568
 31
0.0
  0
LINE
  8
0
  6
CONTINUOUS
 62
   249
 10
161.032648
 20
183.836891
 30
0.0
 11
159.315213
 21
183.534061
 31
0.0
  0
LINE
  8
0
  6
CONTINUOUS
 62
   249
 10
161.032648
 20
183.800038
 30
0.0
 11
159.401604
 21
183.512441
 31
0.0
  0
LINE
  8
0
  6
CONTINUOUS
 62
   249
 10
161.032648
 20
183.763186
 30
0.0
 11
159.487995
 21
183.490822
 31
0.0
  0
LINE
  8
0
  6
CONTINUOUS
 62
   249
 10
161.032648
 20
183.726333
 30
0.0
 11
159.574386
 21
183.469203
 31
0.0
  0
LINE
  8
0
  6
CONTINUOUS
 62
   249
 10
161.032648
 20
183.689481
 30
0.0
 11
159.660777
 21
183.447583
 31
0.0
  0
LINE
  8
0
  6
CONTINUOUS
 62
   249
 10
161.032648
 20
183.652629
 30
0.0
 11
159.747168
 21
183.425964
 31
0.0
  0
LINE
  8
0
  6
CONTINUOUS
 62
   249
 10
161.032648
 20
183.615776
 30
0.0
 11
159.833558
 21
183.404344
 31
0.0
  0
LINE
  8
0
  6
CONTINUOUS
 62
   249
 10
161.032648
 20
183.578924
 30
0.0
 11
159.919949
 21
183.382725
 31
0.0
  0
LINE
  8
0
  6
CONTINUOUS
 62
   249
 10
161.032648
 20
183.542072
 30
0.0
 11
160.00634
 21
183.361106
 31
0.0
  0
LINE
  8
0
  6
CONTINUOUS
 62
   249
 10
161.032648
 20
183.505219
 30
0.0
 11
160.092731
 21
183.339486
 31
0.0
  0
LINE
  8
0
  6
CONTINUOUS
 62
   249
 10
161.032648
 20
183.468367
 30
0.0
 11
160.179122
 21
183.317867
 31
0.0
  0
LINE
  8
0
  6
CONTINUOUS
 62
   249
 10
161.032648
 20
183.431514
 30
0.0
 11
160.265513
 21
183.296248
 31
0.0
  0
LINE
  8
0
  6
CONTINUOUS
 62
   249
 10
161.032648
 20
183.394662
 30
0.0
 11
160.351903
 21
183.274628
 31
0.0
  0
LINE
  8
0
  6
CONTINUOUS
 62
   249
 10
161.032648
 20
183.35781
 30
0.0
 11
160.438294
 21
183.253009
 31
0.0
  0
LINE
  8
0
  6
CONTINUOUS
 62
   249
 10
161.032648
 20
183.320957
 30
0.0
 11
160.524685
 21
183.23139
 31
0.0
  0
LINE
  8
0
  6
CONTINUOUS
 62
   249
 10
161.032648
 20
183.284105
 30
0.0
 11
160.611076
 21
183.20977
 31
0.0
  0
LINE
  8
0
  6
CONTINUOUS
 62
   249
 10
161.032648
 20
183.247252
 30
0.0
 11
160.697467
 21
183.188151
 31
0.0
  0
LINE
  8
0
  6
CONTINUOUS
 62
   249
 10
161.032648
 20
183.2104
 30
0.0
 11
160.783858
 21
183.166532
 31
0.0
  0
LINE
  8
0
  6
CONTINUOUS
 62
   249
 10
161.032648
 20
183.173548
 30
0.0
 11
160.870248
 21
183.144912
 31
0.0
  0
LINE
  8
0
  6
CONTINUOUS
 62
   249
 10
161.032648
 20
183.136695
 30
0.0
 11
160.956639
 21
183.123293
 31
0.0
  0
LINE
  8
0
  6
CONTINUOUS
 62
   249
 10
161.032648
 20
184.094857
 30
0.0
 11
158.710477
 21
183.685396
 31
0.0
  0
LINE
  8
0
  6
CONTINUOUS
 62
   249
 10
161.032648
 20
184.13171
 30
0.0
 11
158.624087
 21
183.707015
 31
0.0
  0
LINE
  8
0
  6
CONTINUOUS
 62
   249
 10
161.032648
 20
184.168562
 30
0.0
 11
158.537696
 21
183.728635
 31
0.0
  0
LINE
  8
0
  6
CONTINUOUS
 62
   249
 10
161.032648
 20
184.205415
 30
0.0
 11
158.451305
 21
183.750254
 31
0.0
  0
LINE
  8
0
  6
CONTINUOUS
 62
   249
 10
161.032648
 20
184.242267
 30
0.0
 11
158.364914
 21
183.771873
 31
0.0
  0
LINE
  8
0
  6
CONTINUOUS
 62
   249
 10
161.032648
 20
184.279119
 30
0.0
 11
158.323541
 21
183.801431
 31
0.0
  0
LINE
  8
0
  6
CONTINUOUS
 62
   249
 10
161.032648
 20
184.315972
 30
0.0
 11
158.822061
 21
183.926186
 31
0.0
  0
LINE
  8
0
  6
CONTINUOUS
 62
   249
 10
161.032648
 20
184.352824
 30
0.0
 11
159.320581
 21
184.050941
 31
0.0
  0
LINE
  8
0
  6
CONTINUOUS
 62
   249
 10
161.032648
 20
184.389676
 30
0.0
 11
159.819102
 21
184.175695
 31
0.0
  0
LINE
  8
0
  6
CONTINUOUS
 62
   249
 10
161.032648
 20
184.426529
 30
0.0
 11
160.317622
 21
184.30045
 31
0.0
  0
LINE
  8
0
  6
CONTINUOUS
 62
   249
 10
161.032648
 20
184.463381
 30
0.0
 11
160.816142
 21
184.425205
 31
0.0
  0
LINE
  8
0
  6
CONTINUOUS
 62
   249
 10
161.032648
 20
189.058005
 30
0.0
 11
158.796868
 21
188.663777
 31
0.0
  0
LINE
  8
0
  6
CONTINUOUS
 62
   249
 10
161.032648
 20
189.021153
 30
0.0
 11
158.883259
 21
188.642157
 31
0.0
  0
LINE
  8
0
  6
CONTINUOUS
 62
   249
 10
161.032648
 20
188.9843
 30
0.0
 11
158.96965
 21
188.620538
 31
0.0
  0
LINE
  8
0
  6
CONTINUOUS
 62
   249
 10
161.032648
 20
188.947448
 30
0.0
 11
159.056041
 21
188.598919
 31
0.0
  0
LINE
  8
0
  6
CONTINUOUS
 62
   249
 10
161.032648
 20
188.910595
 30
0.0
 11
159.142432
 21
188.577299
 31
0.0
  0
LINE
  8
0
  6
CONTINUOUS
 62
   249
 10
161.032648
 20
188.873743
 30
0.0
 11
159.228822
 21
188.55568
 31
0.0
  0
LINE
  8
0
  6
CONTINUOUS
 62
   249
 10
161.032648
 20
188.836891
 30
0.0
 11
159.315213
 21
188.534061
 31
0.0
  0
LINE
  8
0
  6
CONTINUOUS
 62
   249
 10
161.032648
 20
188.800038
 30
0.0
 11
159.401604
 21
188.512441
 31
0.0
  0
LINE
  8
0
  6
CONTINUOUS
 62
   249
 10
161.032648
 20
188.763186
 30
0.0
 11
159.487995
 21
188.490822
 31
0.0
  0
LINE
  8
0
  6
CONTINUOUS
 62
   249
 10
161.032648
 20
188.726333
 30
0.0
 11
159.574386
 21
188.469203
 31
0.0
  0
LINE
  8
0
  6
CONTINUOUS
 62
   249
 10
161.032648
 20
188.689481
 30
0.0
 11
159.660777
 21
188.447583
 31
0.0
  0
LINE
  8
0
  6
CONTINUOUS
 62
   249
 10
161.032648
 20
188.652629
 30
0.0
 11
159.747168
 21
188.425964
 31
0.0
  0
LINE
  8
0
  6
CONTINUOUS
 62
   249
 10
161.032648
 20
188.615776
 30
0.0
 11
159.833558
 21
188.404344
 31
0.0
  0
LINE
  8
0
  6
CONTINUOUS
 62
   249
 10
161.032648
 20
188.578924
 30
0.0
 11
159.919949
 21
188.382725
 31
0.0
  0
LINE
  8
0
  6
CONTINUOUS
 62
   249
 10
161.032648
 20
188.542072
 30
0.0
 11
160.00634
 21
188.361106
 31
0.0
  0
LINE
  8
0
  6
CONTINUOUS
 62
   249
 10
161.032648
 20
188.505219
 30
0.0
 11
160.092731
 21
188.339486
 31
0.0
  0
LINE
  8
0
  6
CONTINUOUS
 62
   249
 10
161.032648
 20
188.468367
 30
0.0
 11
160.179122
 21
188.317867
 31
0.0
  0
LINE
  8
0
  6
CONTINUOUS
 62
   249
 10
161.032648
 20
188.431514
 30
0.0
 11
160.265513
 21
188.296248
 31
0.0
  0
LINE
  8
0
  6
CONTINUOUS
 62
   249
 10
161.032648
 20
188.394662
 30
0.0
 11
160.351903
 21
188.274628
 31
0.0
  0
LINE
  8
0
  6
CONTINUOUS
 62
   249
 10
161.032648
 20
188.35781
 30
0.0
 11
160.438294
 21
188.253009
 31
0.0
  0
LINE
  8
0
  6
CONTINUOUS
 62
   249
 10
161.032648
 20
188.320957
 30
0.0
 11
160.524685
 21
188.23139
 31
0.0
  0
LINE
  8
0
  6
CONTINUOUS
 62
   249
 10
161.032648
 20
188.284105
 30
0.0
 11
160.611076
 21
188.20977
 31
0.0
  0
LINE
  8
0
  6
CONTINUOUS
 62
   249
 10
161.032648
 20
188.247252
 30
0.0
 11
160.697467
 21
188.188151
 31
0.0
  0
LINE
  8
0
  6
CONTINUOUS
 62
   249
 10
161.032648
 20
188.2104
 30
0.0
 11
160.783858
 21
188.166532
 31
0.0
  0
LINE
  8
0
  6
CONTINUOUS
 62
   249
 10
161.032648
 20
188.173548
 30
0.0
 11
160.870248
 21
188.144912
 31
0.0
  0
LINE
  8
0
  6
CONTINUOUS
 62
   249
 10
161.032648
 20
188.136695
 30
0.0
 11
160.956639
 21
188.123293
 31
0.0
  0
LINE
  8
0
  6
CONTINUOUS
 62
   249
 10
161.032648
 20
189.094857
 30
0.0
 11
158.710477
 21
188.685396
 31
0.0
  0
LINE
  8
0
  6
CONTINUOUS
 62
   249
 10
161.032648
 20
189.13171
 30
0.0
 11
158.624087
 21
188.707015
 31
0.0
  0
LINE
  8
0
  6
CONTINUOUS
 62
   249
 10
161.032648
 20
189.168562
 30
0.0
 11
158.537696
 21
188.728635
 31
0.0
  0
LINE
  8
0
  6
CONTINUOUS
 62
   249
 10
161.032648
 20
189.205415
 30
0.0
 11
158.451305
 21
188.750254
 31
0.0
  0
LINE
  8
0
  6
CONTINUOUS
 62
   249
 10
161.032648
 20
189.242267
 30
0.0
 11
158.364914
 21
188.771873
 31
0.0
  0
LINE
  8
0
  6
CONTINUOUS
 62
   249
 10
161.032648
 20
189.279119
 30
0.0
 11
158.323541
 21
188.801431
 31
0.0
  0
LINE
  8
0
  6
CONTINUOUS
 62
   249
 10
161.032648
 20
189.315972
 30
0.0
 11
158.822061
 21
188.926186
 31
0.0
  0
LINE
  8
0
  6
CONTINUOUS
 62
   249
 10
161.032648
 20
189.352824
 30
0.0
 11
159.320581
 21
189.050941
 31
0.0
  0
LINE
  8
0
  6
CONTINUOUS
 62
   249
 10
161.032648
 20
189.389676
 30
0.0
 11
159.819102
 21
189.175695
 31
0.0
  0
LINE
  8
0
  6
CONTINUOUS
 62
   249
 10
161.032648
 20
189.426529
 30
0.0
 11
160.317622
 21
189.30045
 31
0.0
  0
LINE
  8
0
  6
CONTINUOUS
 62
   249
 10
161.032648
 20
189.463381
 30
0.0
 11
160.816142
 21
189.425205
 31
0.0
  0
LINE
  8
0
  6
CONTINUOUS
 62
   249
 10
161.032648
 20
194.058005
 30
0.0
 11
158.796868
 21
193.663777
 31
0.0
  0
LINE
  8
0
  6
CONTINUOUS
 62
   249
 10
161.032648
 20
194.021153
 30
0.0
 11
158.883259
 21
193.642157
 31
0.0
  0
LINE
  8
0
  6
CONTINUOUS
 62
   249
 10
161.032648
 20
193.9843
 30
0.0
 11
158.96965
 21
193.620538
 31
0.0
  0
LINE
  8
0
  6
CONTINUOUS
 62
   249
 10
161.032648
 20
193.947448
 30
0.0
 11
159.056041
 21
193.598919
 31
0.0
  0
LINE
  8
0
  6
CONTINUOUS
 62
   249
 10
161.032648
 20
193.910595
 30
0.0
 11
159.142432
 21
193.577299
 31
0.0
  0
LINE
  8
0
  6
CONTINUOUS
 62
   249
 10
161.032648
 20
193.873743
 30
0.0
 11
159.228822
 21
193.55568
 31
0.0
  0
LINE
  8
0
  6
CONTINUOUS
 62
   249
 10
161.032648
 20
193.836891
 30
0.0
 11
159.315213
 21
193.534061
 31
0.0
  0
LINE
  8
0
  6
CONTINUOUS
 62
   249
 10
161.032648
 20
193.800038
 30
0.0
 11
159.401604
 21
193.512441
 31
0.0
  0
LINE
  8
0
  6
CONTINUOUS
 62
   249
 10
161.032648
 20
193.763186
 30
0.0
 11
159.487995
 21
193.490822
 31
0.0
  0
LINE
  8
0
  6
CONTINUOUS
 62
   249
 10
161.032648
 20
193.726333
 30
0.0
 11
159.574386
 21
193.469203
 31
0.0
  0
LINE
  8
0
  6
CONTINUOUS
 62
   249
 10
161.032648
 20
193.689481
 30
0.0
 11
159.660777
 21
193.447583
 31
0.0
  0
LINE
  8
0
  6
CONTINUOUS
 62
   249
 10
161.032648
 20
193.652629
 30
0.0
 11
159.747168
 21
193.425964
 31
0.0
  0
LINE
  8
0
  6
CONTINUOUS
 62
   249
 10
161.032648
 20
193.615776
 30
0.0
 11
159.833558
 21
193.404344
 31
0.0
  0
LINE
  8
0
  6
CONTINUOUS
 62
   249
 10
161.032648
 20
193.578924
 30
0.0
 11
159.919949
 21
193.382725
 31
0.0
  0
LINE
  8
0
  6
CONTINUOUS
 62
   249
 10
161.032648
 20
193.542072
 30
0.0
 11
160.00634
 21
193.361106
 31
0.0
  0
LINE
  8
0
  6
CONTINUOUS
 62
   249
 10
161.032648
 20
193.505219
 30
0.0
 11
160.092731
 21
193.339486
 31
0.0
  0
LINE
  8
0
  6
CONTINUOUS
 62
   249
 10
161.032648
 20
193.468367
 30
0.0
 11
160.179122
 21
193.317867
 31
0.0
  0
LINE
  8
0
  6
CONTINUOUS
 62
   249
 10
161.032648
 20
193.431514
 30
0.0
 11
160.265513
 21
193.296248
 31
0.0
  0
LINE
  8
0
  6
CONTINUOUS
 62
   249
 10
161.032648
 20
193.394662
 30
0.0
 11
160.351903
 21
193.274628
 31
0.0
  0
LINE
  8
0
  6
CONTINUOUS
 62
   249
 10
161.032648
 20
193.35781
 30
0.0
 11
160.438294
 21
193.253009
 31
0.0
  0
LINE
  8
0
  6
CONTINUOUS
 62
   249
 10
161.032648
 20
193.320957
 30
0.0
 11
160.524685
 21
193.23139
 31
0.0
  0
LINE
  8
0
  6
CONTINUOUS
 62
   249
 10
161.032648
 20
193.284105
 30
0.0
 11
160.611076
 21
193.20977
 31
0.0
  0
LINE
  8
0
  6
CONTINUOUS
 62
   249
 10
161.032648
 20
193.247252
 30
0.0
 11
160.697467
 21
193.188151
 31
0.0
  0
LINE
  8
0
  6
CONTINUOUS
 62
   249
 10
161.032648
 20
193.2104
 30
0.0
 11
160.783858
 21
193.166532
 31
0.0
  0
LINE
  8
0
  6
CONTINUOUS
 62
   249
 10
161.032648
 20
193.173548
 30
0.0
 11
160.870248
 21
193.144912
 31
0.0
  0
LINE
  8
0
  6
CONTINUOUS
 62
   249
 10
161.032648
 20
193.136695
 30
0.0
 11
160.956639
 21
193.123293
 31
0.0
  0
LINE
  8
0
  6
CONTINUOUS
 62
   249
 10
161.032648
 20
194.094857
 30
0.0
 11
158.710477
 21
193.685396
 31
0.0
  0
LINE
  8
0
  6
CONTINUOUS
 62
   249
 10
161.032648
 20
194.13171
 30
0.0
 11
158.624087
 21
193.707015
 31
0.0
  0
LINE
  8
0
  6
CONTINUOUS
 62
   249
 10
161.032648
 20
194.168562
 30
0.0
 11
158.537696
 21
193.728635
 31
0.0
  0
LINE
  8
0
  6
CONTINUOUS
 62
   249
 10
161.032648
 20
194.205415
 30
0.0
 11
158.451305
 21
193.750254
 31
0.0
  0
LINE
  8
0
  6
CONTINUOUS
 62
   249
 10
161.032648
 20
194.242267
 30
0.0
 11
158.364914
 21
193.771873
 31
0.0
  0
LINE
  8
0
  6
CONTINUOUS
 62
   249
 10
161.032648
 20
194.279119
 30
0.0
 11
158.323541
 21
193.801431
 31
0.0
  0
LINE
  8
0
  6
CONTINUOUS
 62
   249
 10
161.032648
 20
194.315972
 30
0.0
 11
158.822061
 21
193.926186
 31
0.0
  0
LINE
  8
0
  6
CONTINUOUS
 62
   249
 10
161.032648
 20
194.352824
 30
0.0
 11
159.320581
 21
194.050941
 31
0.0
  0
LINE
  8
0
  6
CONTINUOUS
 62
   249
 10
161.032648
 20
194.389676
 30
0.0
 11
159.819102
 21
194.175695
 31
0.0
  0
LINE
  8
0
  6
CONTINUOUS
 62
   249
 10
161.032648
 20
194.426529
 30
0.0
 11
160.317622
 21
194.30045
 31
0.0
  0
LINE
  8
0
  6
CONTINUOUS
 62
   249
 10
161.032648
 20
194.463381
 30
0.0
 11
160.816142
 21
194.425205
 31
0.0
  0
LINE
  8
0
  6
CONTINUOUS
 62
   249
 10
161.032648
 20
199.058005
 30
0.0
 11
158.796868
 21
198.663777
 31
0.0
  0
LINE
  8
0
  6
CONTINUOUS
 62
   249
 10
161.032648
 20
199.021153
 30
0.0
 11
158.883259
 21
198.642157
 31
0.0
  0
LINE
  8
0
  6
CONTINUOUS
 62
   249
 10
161.032648
 20
198.9843
 30
0.0
 11
158.96965
 21
198.620538
 31
0.0
  0
LINE
  8
0
  6
CONTINUOUS
 62
   249
 10
161.032648
 20
198.947448
 30
0.0
 11
159.056041
 21
198.598919
 31
0.0
  0
LINE
  8
0
  6
CONTINUOUS
 62
   249
 10
161.032648
 20
198.910595
 30
0.0
 11
159.142432
 21
198.577299
 31
0.0
  0
LINE
  8
0
  6
CONTINUOUS
 62
   249
 10
161.032648
 20
198.873743
 30
0.0
 11
159.228822
 21
198.55568
 31
0.0
  0
LINE
  8
0
  6
CONTINUOUS
 62
   249
 10
161.032648
 20
198.836891
 30
0.0
 11
159.315213
 21
198.534061
 31
0.0
  0
LINE
  8
0
  6
CONTINUOUS
 62
   249
 10
161.032648
 20
198.800038
 30
0.0
 11
159.401604
 21
198.512441
 31
0.0
  0
LINE
  8
0
  6
CONTINUOUS
 62
   249
 10
161.032648
 20
198.763186
 30
0.0
 11
159.487995
 21
198.490822
 31
0.0
  0
LINE
  8
0
  6
CONTINUOUS
 62
   249
 10
161.032648
 20
198.726333
 30
0.0
 11
159.574386
 21
198.469203
 31
0.0
  0
LINE
  8
0
  6
CONTINUOUS
 62
   249
 10
161.032648
 20
198.689481
 30
0.0
 11
159.660777
 21
198.447583
 31
0.0
  0
LINE
  8
0
  6
CONTINUOUS
 62
   249
 10
161.032648
 20
198.652629
 30
0.0
 11
159.747168
 21
198.425964
 31
0.0
  0
LINE
  8
0
  6
CONTINUOUS
 62
   249
 10
161.032648
 20
198.615776
 30
0.0
 11
159.833558
 21
198.404344
 31
0.0
  0
LINE
  8
0
  6
CONTINUOUS
 62
   249
 10
161.032648
 20
198.578924
 30
0.0
 11
159.919949
 21
198.382725
 31
0.0
  0
LINE
  8
0
  6
CONTINUOUS
 62
   249
 10
161.032648
 20
198.542072
 30
0.0
 11
160.00634
 21
198.361106
 31
0.0
  0
LINE
  8
0
  6
CONTINUOUS
 62
   249
 10
161.032648
 20
198.505219
 30
0.0
 11
160.092731
 21
198.339486
 31
0.0
  0
LINE
  8
0
  6
CONTINUOUS
 62
   249
 10
161.032648
 20
198.468367
 30
0.0
 11
160.179122
 21
198.317867
 31
0.0
  0
LINE
  8
0
  6
CONTINUOUS
 62
   249
 10
161.032648
 20
198.431514
 30
0.0
 11
160.265513
 21
198.296248
 31
0.0
  0
LINE
  8
0
  6
CONTINUOUS
 62
   249
 10
161.032648
 20
198.394662
 30
0.0
 11
160.351903
 21
198.274628
 31
0.0
  0
LINE
  8
0
  6
CONTINUOUS
 62
   249
 10
161.032648
 20
198.35781
 30
0.0
 11
160.438294
 21
198.253009
 31
0.0
  0
LINE
  8
0
  6
CONTINUOUS
 62
   249
 10
161.032648
 20
198.320957
 30
0.0
 11
160.524685
 21
198.23139
 31
0.0
  0
LINE
  8
0
  6
CONTINUOUS
 62
   249
 10
161.032648
 20
198.284105
 30
0.0
 11
160.611076
 21
198.20977
 31
0.0
  0
LINE
  8
0
  6
CONTINUOUS
 62
   249
 10
161.032648
 20
198.247252
 30
0.0
 11
160.697467
 21
198.188151
 31
0.0
  0
LINE
  8
0
  6
CONTINUOUS
 62
   249
 10
161.032648
 20
198.2104
 30
0.0
 11
160.783858
 21
198.166532
 31
0.0
  0
LINE
  8
0
  6
CONTINUOUS
 62
   249
 10
161.032648
 20
198.173548
 30
0.0
 11
160.870248
 21
198.144912
 31
0.0
  0
LINE
  8
0
  6
CONTINUOUS
 62
   249
 10
161.032648
 20
198.136695
 30
0.0
 11
160.956639
 21
198.123293
 31
0.0
  0
LINE
  8
0
  6
CONTINUOUS
 62
   249
 10
161.032648
 20
199.094857
 30
0.0
 11
158.710477
 21
198.685396
 31
0.0
  0
LINE
  8
0
  6
CONTINUOUS
 62
   249
 10
161.032648
 20
199.13171
 30
0.0
 11
158.624087
 21
198.707015
 31
0.0
  0
LINE
  8
0
  6
CONTINUOUS
 62
   249
 10
161.032648
 20
199.168562
 30
0.0
 11
158.537696
 21
198.728635
 31
0.0
  0
LINE
  8
0
  6
CONTINUOUS
 62
   249
 10
161.032648
 20
199.205415
 30
0.0
 11
158.451305
 21
198.750254
 31
0.0
  0
LINE
  8
0
  6
CONTINUOUS
 62
   249
 10
161.032648
 20
199.242267
 30
0.0
 11
158.364914
 21
198.771873
 31
0.0
  0
LINE
  8
0
  6
CONTINUOUS
 62
   249
 10
161.032648
 20
199.279119
 30
0.0
 11
158.323541
 21
198.801431
 31
0.0
  0
LINE
  8
0
  6
CONTINUOUS
 62
   249
 10
161.032648
 20
199.315972
 30
0.0
 11
158.822061
 21
198.926186
 31
0.0
  0
LINE
  8
0
  6
CONTINUOUS
 62
   249
 10
161.032648
 20
199.352824
 30
0.0
 11
159.320581
 21
199.050941
 31
0.0
  0
LINE
  8
0
  6
CONTINUOUS
 62
   249
 10
161.032648
 20
199.389676
 30
0.0
 11
159.819102
 21
199.175695
 31
0.0
  0
LINE
  8
0
  6
CONTINUOUS
 62
   249
 10
161.032648
 20
199.426529
 30
0.0
 11
160.317622
 21
199.30045
 31
0.0
  0
LINE
  8
0
  6
CONTINUOUS
 62
   249
 10
161.032648
 20
199.463381
 30
0.0
 11
160.816142
 21
199.425205
 31
0.0
  0
LINE
  8
0
 62
   249
 10
211.786248
 20
6.306997
 30
0.0
 11
213.547099
 21
8.067848
 31
0.0
  0
LINE
  8
0
 62
   249
 10
211.852879
 20
6.497372
 30
0.0
 11
213.547099
 21
8.191591
 31
0.0
  0
LINE
  8
0
 62
   249
 10
211.919511
 20
6.687747
 30
0.0
 11
213.547099
 21
8.315335
 31
0.0
  0
LINE
  8
0
 62
   249
 10
211.986142
 20
6.878122
 30
0.0
 11
213.547099
 21
8.439079
 31
0.0
  0
LINE
  8
0
 62
   249
 10
212.052773
 20
7.068497
 30
0.0
 11
213.547099
 21
8.562822
 31
0.0
  0
LINE
  8
0
 62
   249
 10
212.119404
 20
7.258871
 30
0.0
 11
213.547099
 21
8.686566
 31
0.0
  0
LINE
  8
0
 62
   249
 10
212.186036
 20
7.449246
 30
0.0
 11
213.474788
 21
8.737999
 31
0.0
  0
LINE
  8
0
 62
   249
 10
212.252667
 20
7.639621
 30
0.0
 11
213.351045
 21
8.737999
 31
0.0
  0
LINE
  8
0
 62
   249
 10
212.319298
 20
7.829996
 30
0.0
 11
213.227301
 21
8.737999
 31
0.0
  0
LINE
  8
0
 62
   249
 10
212.385929
 20
8.020371
 30
0.0
 11
213.103557
 21
8.737999
 31
0.0
  0
LINE
  8
0
 62
   249
 10
212.45256
 20
8.210746
 30
0.0
 11
212.979814
 21
8.737999
 31
0.0
  0
LINE
  8
0
 62
   249
 10
212.519192
 20
8.401121
 30
0.0
 11
212.85607
 21
8.737999
 31
0.0
  0
LINE
  8
0
 62
   249
 10
212.585823
 20
8.591496
 30
0.0
 11
212.732326
 21
8.737999
 31
0.0
  0
LINE
  8
0
 62
   249
 10
211.719617
 20
6.116622
 30
0.0
 11
213.547099
 21
7.944104
 31
0.0
  0
LINE
  8
0
 62
   249
 10
211.652986
 20
5.926247
 30
0.0
 11
213.547099
 21
7.82036
 31
0.0
  0
LINE
  8
0
 62
   249
 10
211.586355
 20
5.735872
 30
0.0
 11
213.547099
 21
7.696617
 31
0.0
  0
LINE
  8
0
 62
   249
 10
211.519723
 20
5.545497
 30
0.0
 11
213.547099
 21
7.572873
 31
0.0
  0
LINE
  8
0
 62
   249
 10
211.475969
 20
5.377999
 30
0.0
 11
213.547099
 21
7.449129
 31
0.0
  0
LINE
  8
0
 62
   249
 10
211.599713
 20
5.377999
 30
0.0
 11
213.547099
 21
7.325386
 31
0.0
  0
LINE
  8
0
 62
   249
 10
211.723456
 20
5.377999
 30
0.0
 11
213.547099
 21
7.201642
 31
0.0
  0
LINE
  8
0
 62
   249
 10
211.8472
 20
5.377999
 30
0.0
 11
213.547099
 21
7.077898
 31
0.0
  0
LINE
  8
0
 62
   249
 10
211.970944
 20
5.377999
 30
0.0
 11
213.547099
 21
6.954155
 31
0.0
  0
LINE
  8
0
 62
   249
 10
212.094687
 20
5.377999
 30
0.0
 11
213.547099
 21
6.830411
 31
0.0
  0
LINE
  8
0
 62
   249
 10
212.218431
 20
5.377999
 30
0.0
 11
213.547099
 21
6.706667
 31
0.0
  0
LINE
  8
0
 62
   249
 10
212.342175
 20
5.377999
 30
0.0
 11
213.547099
 21
6.582923
 31
0.0
  0
LINE
  8
0
 62
   249
 10
212.465919
 20
5.377999
 30
0.0
 11
213.547099
 21
6.45918
 31
0.0
  0
LINE
  8
0
 62
   249
 10
212.589662
 20
5.377999
 30
0.0
 11
213.547099
 21
6.335436
 31
0.0
  0
LINE
  8
0
 62
   249
 10
212.713406
 20
5.377999
 30
0.0
 11
213.547099
 21
6.211692
 31
0.0
  0
LINE
  8
0
 62
   249
 10
212.83715
 20
5.377999
 30
0.0
 11
213.547099
 21
6.087949
 31
0.0
  0
LINE
  8
0
 62
   249
 10
212.960893
 20
5.377999
 30
0.0
 11
213.547099
 21
5.964205
 31
0.0
  0
LINE
  8
0
 62
   249
 10
213.084637
 20
5.377999
 30
0.0
 11
213.547099
 21
5.840461
 31
0.0
  0
LINE
  8
0
 62
   249
 10
213.208381
 20
5.377999
 30
0.0
 11
213.547099
 21
5.716718
 31
0.0
  0
LINE
  8
0
 62
   249
 10
213.332124
 20
5.377999
 30
0.0
 11
213.547099
 21
5.592974
 31
0.0
  0
LINE
  8
0
 62
   249
 10
213.455868
 20
5.377999
 30
0.0
 11
213.547099
 21
5.46923
 31
0.0
  0
LINE
  8
0
 62
   249
 10
213.827099
 20
5.996718
 30
0.0
 11
215.211876
 21
7.381494
 31
0.0
  0
LINE
  8
0
 62
   249
 10
213.827099
 20
6.120461
 30
0.0
 11
215.179794
 21
7.473156
 31
0.0
  0
LINE
  8
0
 62
   249
 10
213.827099
 20
6.244205
 30
0.0
 11
215.147712
 21
7.564818
 31
0.0
  0
LINE
  8
0
 62
   249
 10
213.827099
 20
6.367949
 30
0.0
 11
215.115631
 21
7.65648
 31
0.0
  0
LINE
  8
0
 62
   249
 10
213.827099
 20
6.491692
 30
0.0
 11
215.083549
 21
7.748142
 31
0.0
  0
LINE
  8
0
 62
   249
 10
213.827099
 20
6.615436
 30
0.0
 11
215.051467
 21
7.839804
 31
0.0
  0
LINE
  8
0
 62
   249
 10
213.827099
 20
6.73918
 30
0.0
 11
215.019386
 21
7.931466
 31
0.0
  0
LINE
  8
0
 62
   249
 10
213.827099
 20
6.862923
 30
0.0
 11
214.987304
 21
8.023128
 31
0.0
  0
LINE
  8
0
 62
   249
 10
213.827099
 20
6.986667
 30
0.0
 11
214.955222
 21
8.11479
 31
0.0
  0
LINE
  8
0
 62
   249
 10
213.827099
 20
7.110411
 30
0.0
 11
214.923141
 21
8.206452
 31
0.0
  0
LINE
  8
0
 62
   249
 10
213.827099
 20
7.234155
 30
0.0
 11
214.891059
 21
8.298114
 31
0.0
  0
LINE
  8
0
 62
   249
 10
213.827099
 20
7.357898
 30
0.0
 11
214.858977
 21
8.389776
 31
0.0
  0
LINE
  8
0
 62
   249
 10
213.827099
 20
7.481642
 30
0.0
 11
214.826895
 21
8.481438
 31
0.0
  0
LINE
  8
0
 62
   249
 10
213.827099
 20
7.605386
 30
0.0
 11
214.794814
 21
8.5731
 31
0.0
  0
LINE
  8
0
 62
   249
 10
213.827099
 20
7.729129
 30
0.0
 11
214.762732
 21
8.664762
 31
0.0
  0
LINE
  8
0
 62
   249
 10
213.827099
 20
7.852873
 30
0.0
 11
214.712225
 21
8.737999
 31
0.0
  0
LINE
  8
0
 62
   249
 10
213.827099
 20
7.976617
 30
0.0
 11
214.588482
 21
8.737999
 31
0.0
  0
LINE
  8
0
 62
   249
 10
213.827099
 20
8.10036
 30
0.0
 11
214.464738
 21
8.737999
 31
0.0
  0
LINE
  8
0
 62
   249
 10
213.827099
 20
8.224104
 30
0.0
 11
214.340994
 21
8.737999
 31
0.0
  0
LINE
  8
0
 62
   249
 10
213.827099
 20
8.347848
 30
0.0
 11
214.217251
 21
8.737999
 31
0.0
  0
LINE
  8
0
 62
   249
 10
213.827099
 20
8.471591
 30
0.0
 11
214.093507
 21
8.737999
 31
0.0
  0
LINE
  8
0
 62
   249
 10
213.827099
 20
8.595335
 30
0.0
 11
213.969763
 21
8.737999
 31
0.0
  0
LINE
  8
0
 62
   249
 10
213.827099
 20
8.719079
 30
0.0
 11
213.84602
 21
8.737999
 31
0.0
  0
LINE
  8
0
 62
   249
 10
213.827099
 20
5.872974
 30
0.0
 11
215.243957
 21
7.289832
 31
0.0
  0
LINE
  8
0
 62
   249
 10
213.827099
 20
5.74923
 30
0.0
 11
215.276039
 21
7.19817
 31
0.0
  0
LINE
  8
0
 62
   249
 10
213.827099
 20
5.625487
 30
0.0
 11
215.308121
 21
7.106508
 31
0.0
  0
LINE
  8
0
 62
   249
 10
213.827099
 20
5.501743
 30
0.0
 11
215.340203
 21
7.014846
 31
0.0
  0
LINE
  8
0
 62
   249
 10
213.827099
 20
5.377999
 30
0.0
 11
215.372284
 21
6.923184
 31
0.0
  0
LINE
  8
0
 62
   249
 10
213.950843
 20
5.377999
 30
0.0
 11
215.404366
 21
6.831522
 31
0.0
  0
LINE
  8
0
 62
   249
 10
214.074586
 20
5.377999
 30
0.0
 11
215.436448
 21
6.73986
 31
0.0
  0
LINE
  8
0
 62
   249
 10
214.19833
 20
5.377999
 30
0.0
 11
215.468529
 21
6.648198
 31
0.0
  0
LINE
  8
0
 62
   249
 10
214.322074
 20
5.377999
 30
0.0
 11
215.500611
 21
6.556536
 31
0.0
  0
LINE
  8
0
 62
   249
 10
214.445818
 20
5.377999
 30
0.0
 11
215.532693
 21
6.464874
 31
0.0
  0
LINE
  8
0
 62
   249
 10
214.569561
 20
5.377999
 30
0.0
 11
215.564774
 21
6.373212
 31
0.0
  0
LINE
  8
0
 62
   249
 10
214.693305
 20
5.377999
 30
0.0
 11
215.596856
 21
6.281551
 31
0.0
  0
LINE
  8
0
 62
   249
 10
214.817049
 20
5.377999
 30
0.0
 11
215.628938
 21
6.189889
 31
0.0
  0
LINE
  8
0
 62
   249
 10
214.940792
 20
5.377999
 30
0.0
 11
215.66102
 21
6.098227
 31
0.0
  0
LINE
  8
0
 62
   249
 10
215.064536
 20
5.377999
 30
0.0
 11
215.693101
 21
6.006565
 31
0.0
  0
LINE
  8
0
 62
   249
 10
215.18828
 20
5.377999
 30
0.0
 11
215.725183
 21
5.914903
 31
0.0
  0
LINE
  8
0
 62
   249
 10
215.312023
 20
5.377999
 30
0.0
 11
215.757265
 21
5.823241
 31
0.0
  0
LINE
  8
0
 62
   249
 10
215.435767
 20
5.377999
 30
0.0
 11
215.789346
 21
5.731579
 31
0.0
  0
LINE
  8
0
 62
   249
 10
215.559511
 20
5.377999
 30
0.0
 11
215.821428
 21
5.639917
 31
0.0
  0
LINE
  8
0
 62
   249
 10
215.683254
 20
5.377999
 30
0.0
 11
215.85351
 21
5.548255
 31
0.0
  0
LINE
  8
0
 62
   249
 10
215.806998
 20
5.377999
 30
0.0
 11
215.885591
 21
5.456593
 31
0.0
  0
LINE
  8
0
 62
   249
 10
217.677099
 20
6.134407
 30
0.0
 11
219.637099
 21
8.094407
 31
0.0
  0
LINE
  8
0
 62
   249
 10
217.677099
 20
6.258151
 30
0.0
 11
219.637099
 21
8.218151
 31
0.0
  0
LINE
  8
0
 62
   249
 10
217.677099
 20
6.381894
 30
0.0
 11
219.637099
 21
8.341894
 31
0.0
  0
LINE
  8
0
 62
   249
 10
217.677099
 20
6.505638
 30
0.0
 11
219.637099
 21
8.465638
 31
0.0
  0
LINE
  8
0
 62
   249
 10
217.677099
 20
6.629382
 30
0.0
 11
219.637099
 21
8.589382
 31
0.0
  0
LINE
  8
0
 62
   249
 10
217.677099
 20
6.753126
 30
0.0
 11
219.637099
 21
8.713126
 31
0.0
  0
LINE
  8
0
 62
   249
 10
217.677099
 20
6.876869
 30
0.0
 11
219.538229
 21
8.737999
 31
0.0
  0
LINE
  8
0
 62
   249
 10
217.677099
 20
7.000613
 30
0.0
 11
219.414485
 21
8.737999
 31
0.0
  0
LINE
  8
0
 62
   249
 10
217.677099
 20
7.124357
 30
0.0
 11
219.290742
 21
8.737999
 31
0.0
  0
LINE
  8
0
 62
   249
 10
217.677099
 20
7.2481
 30
0.0
 11
219.166998
 21
8.737999
 31
0.0
  0
LINE
  8
0
 62
   249
 10
217.677099
 20
7.371844
 30
0.0
 11
219.043254
 21
8.737999
 31
0.0
  0
LINE
  8
0
 62
   249
 10
217.677099
 20
7.495588
 30
0.0
 11
218.919511
 21
8.737999
 31
0.0
  0
LINE
  8
0
 62
   249
 10
217.677099
 20
7.619331
 30
0.0
 11
218.795767
 21
8.737999
 31
0.0
  0
LINE
  8
0
 62
   249
 10
217.677099
 20
7.743075
 30
0.0
 11
218.672023
 21
8.737999
 31
0.0
  0
LINE
  8
0
 62
   249
 10
217.677099
 20
7.866819
 30
0.0
 11
218.54828
 21
8.737999
 31
0.0
  0
LINE
  8
0
 62
   249
 10
217.677099
 20
7.990562
 30
0.0
 11
218.424536
 21
8.737999
 31
0.0
  0
LINE
  8
0
 62
   249
 10
217.677099
 20
8.114306
 30
0.0
 11
218.300792
 21
8.737999
 31
0.0
  0
LINE
  8
0
 62
   249
 10
217.677099
 20
8.23805
 30
0.0
 11
218.177049
 21
8.737999
 31
0.0
  0
LINE
  8
0
 62
   249
 10
217.677099
 20
8.361793
 30
0.0
 11
218.053305
 21
8.737999
 31
0.0
  0
LINE
  8
0
 62
   249
 10
217.677099
 20
8.485537
 30
0.0
 11
217.929561
 21
8.737999
 31
0.0
  0
LINE
  8
0
 62
   249
 10
217.677099
 20
8.609281
 30
0.0
 11
217.805818
 21
8.737999
 31
0.0
  0
LINE
  8
0
 62
   249
 10
217.677099
 20
8.733025
 30
0.0
 11
217.682074
 21
8.737999
 31
0.0
  0
LINE
  8
0
 62
   249
 10
217.677099
 20
6.010663
 30
0.0
 11
219.637099
 21
7.970663
 31
0.0
  0
LINE
  8
0
 62
   249
 10
217.677099
 20
5.88692
 30
0.0
 11
219.637099
 21
7.84692
 31
0.0
  0
LINE
  8
0
 62
   249
 10
217.677099
 20
5.763176
 30
0.0
 11
219.637099
 21
7.723176
 31
0.0
  0
LINE
  8
0
 62
   249
 10
217.677099
 20
5.639432
 30
0.0
 11
219.637099
 21
7.599432
 31
0.0
  0
LINE
  8
0
 62
   249
 10
217.677099
 20
5.515689
 30
0.0
 11
219.637099
 21
7.475689
 31
0.0
  0
LINE
  8
0
 62
   249
 10
217.677099
 20
5.391945
 30
0.0
 11
219.637099
 21
7.351945
 31
0.0
  0
LINE
  8
0
 62
   249
 10
217.786897
 20
5.377999
 30
0.0
 11
219.637099
 21
7.228201
 31
0.0
  0
LINE
  8
0
 62
   249
 10
217.910641
 20
5.377999
 30
0.0
 11
219.637099
 21
7.104458
 31
0.0
  0
LINE
  8
0
 62
   249
 10
218.034384
 20
5.377999
 30
0.0
 11
219.637099
 21
6.980714
 31
0.0
  0
LINE
  8
0
 62
   249
 10
218.158128
 20
5.377999
 30
0.0
 11
219.637099
 21
6.85697
 31
0.0
  0
LINE
  8
0
 62
   249
 10
218.281872
 20
5.377999
 30
0.0
 11
219.637099
 21
6.733227
 31
0.0
  0
LINE
  8
0
 62
   249
 10
218.405615
 20
5.377999
 30
0.0
 11
219.637099
 21
6.609483
 31
0.0
  0
LINE
  8
0
 62
   249
 10
218.529359
 20
5.377999
 30
0.0
 11
219.637099
 21
6.485739
 31
0.0
  0
LINE
  8
0
 62
   249
 10
218.653103
 20
5.377999
 30
0.0
 11
219.637099
 21
6.361995
 31
0.0
  0
LINE
  8
0
 62
   249
 10
218.776847
 20
5.377999
 30
0.0
 11
219.637099
 21
6.238252
 31
0.0
  0
LINE
  8
0
 62
   249
 10
218.90059
 20
5.377999
 30
0.0
 11
219.637099
 21
6.114508
 31
0.0
  0
LINE
  8
0
 62
   249
 10
219.024334
 20
5.377999
 30
0.0
 11
219.637099
 21
5.990764
 31
0.0
  0
LINE
  8
0
 62
   249
 10
219.148078
 20
5.377999
 30
0.0
 11
219.637099
 21
5.867021
 31
0.0
  0
LINE
  8
0
 62
   249
 10
219.271821
 20
5.377999
 30
0.0
 11
219.637099
 21
5.743277
 31
0.0
  0
LINE
  8
0
 62
   249
 10
219.395565
 20
5.377999
 30
0.0
 11
219.637099
 21
5.619533
 31
0.0
  0
LINE
  8
0
 62
   249
 10
219.519309
 20
5.377999
 30
0.0
 11
219.637099
 21
5.49579
 31
0.0
  0
LINE
  8
0
 62
   249
 10
219.917099
 20
6.147021
 30
0.0
 11
221.795195
 21
8.025117
 31
0.0
  0
LINE
  8
0
 62
   249
 10
219.917099
 20
6.270764
 30
0.0
 11
221.744451
 21
8.098116
 31
0.0
  0
LINE
  8
0
 62
   249
 10
219.917099
 20
6.394508
 30
0.0
 11
221.690148
 21
8.167557
 31
0.0
  0
LINE
  8
0
 62
   249
 10
219.917099
 20
6.518252
 30
0.0
 11
221.63236
 21
8.233512
 31
0.0
  0
LINE
  8
0
 62
   249
 10
219.917099
 20
6.641995
 30
0.0
 11
221.571123
 21
8.29602
 31
0.0
  0
LINE
  8
0
 62
   249
 10
219.917099
 20
6.765739
 30
0.0
 11
221.506446
 21
8.355086
 31
0.0
  0
LINE
  8
0
 62
   249
 10
219.917099
 20
6.889483
 30
0.0
 11
221.4383
 21
8.410684
 31
0.0
  0
LINE
  8
0
 62
   249
 10
219.917099
 20
7.013227
 30
0.0
 11
221.366627
 21
8.462755
 31
0.0
  0
LINE
  8
0
 62
   249
 10
219.917099
 20
7.13697
 30
0.0
 11
221.291331
 21
8.511202
 31
0.0
  0
LINE
  8
0
 62
   249
 10
219.917099
 20
7.260714
 30
0.0
 11
221.212274
 21
8.555889
 31
0.0
  0
LINE
  8
0
 62
   249
 10
219.917099
 20
7.384458
 30
0.0
 11
221.129271
 21
8.59663
 31
0.0
  0
LINE
  8
0
 62
   249
 10
219.917099
 20
7.508201
 30
0.0
 11
221.042076
 21
8.633178
 31
0.0
  0
LINE
  8
0
 62
   249
 10
219.917099
 20
7.631945
 30
0.0
 11
220.950366
 21
8.665212
 31
0.0
  0
LINE
  8
0
 62
   249
 10
219.917099
 20
7.755689
 30
0.0
 11
220.853718
 21
8.692307
 31
0.0
  0
LINE
  8
0
 62
   249
 10
219.917099
 20
7.879432
 30
0.0
 11
220.751567
 21
8.7139
 31
0.0
  0
LINE
  8
0
 62
   249
 10
219.917099
 20
8.003176
 30
0.0
 11
220.643145
 21
8.729222
 31
0.0
  0
LINE
  8
0
 62
   249
 10
219.917099
 20
8.12692
 30
0.0
 11
220.527376
 21
8.737197
 31
0.0
  0
LINE
  8
0
 62
   249
 10
219.917099
 20
8.250663
 30
0.0
 11
220.404434
 21
8.737999
 31
0.0
  0
LINE
  8
0
 62
   249
 10
219.917099
 20
8.374407
 30
0.0
 11
220.280691
 21
8.737999
 31
0.0
  0
LINE
  8
0
 62
   249
 10
219.917099
 20
8.498151
 30
0.0
 11
220.156947
 21
8.737999
 31
0.0
  0
LINE
  8
0
 62
   249
 10
219.917099
 20
8.621894
 30
0.0
 11
220.033204
 21
8.737999
 31
0.0
  0
LINE
  8
0
 62
   249
 10
219.917099
 20
6.023277
 30
0.0
 11
221.842271
 21
7.948449
 31
0.0
  0
LINE
  8
0
 62
   249
 10
219.917099
 20
5.899533
 30
0.0
 11
221.885523
 21
7.867958
 31
0.0
  0
LINE
  8
0
 62
   249
 10
219.917099
 20
5.77579
 30
0.0
 11
221.924746
 21
7.783437
 31
0.0
  0
LINE
  8
0
 62
   249
 10
219.917099
 20
5.652046
 30
0.0
 11
221.959668
 21
7.694615
 31
0.0
  0
LINE
  8
0
 62
   249
 10
219.917099
 20
5.528302
 30
0.0
 11
221.989932
 21
7.601135
 31
0.0
  0
LINE
  8
0
 62
   249
 10
219.917099
 20
5.404559
 30
0.0
 11
222.015067
 21
7.502527
 31
0.0
  0
LINE
  8
0
 62
   249
 10
220.014283
 20
5.377999
 30
0.0
 11
222.034444
 21
7.39816
 31
0.0
  0
LINE
  8
0
 62
   249
 10
220.138027
 20
5.377999
 30
0.0
 11
222.047197
 21
7.287169
 31
0.0
  0
LINE
  8
0
 62
   249
 10
220.261771
 20
5.377999
 30
0.0
 11
222.05209
 21
7.168319
 31
0.0
  0
LINE
  8
0
 62
   249
 10
220.385514
 20
5.377999
 30
0.0
 11
222.04727
 21
7.039754
 31
0.0
  0
LINE
  8
0
 62
   249
 10
220.509258
 20
5.377999
 30
0.0
 11
222.029725
 21
6.898466
 31
0.0
  0
LINE
  8
0
 62
   249
 10
220.633002
 20
5.377999
 30
0.0
 11
221.993936
 21
6.738933
 31
0.0
  0
LINE
  8
0
 62
   249
 10
220.756746
 20
5.377999
 30
0.0
 11
221.927299
 21
6.548553
 31
0.0
  0
LINE
  8
0
 62
   249
 10
220.880489
 20
5.377999
 30
0.0
 11
221.280665
 21
5.778175
 31
0.0
  0
LINE
  8
0
 62
   249
 10
221.36381
 20
5.86132
 30
0.0
 11
221.778778
 21
6.276288
 31
0.0
  0
LINE
  8
0
 62
   249
 10
221.004233
 20
5.377999
 30
0.0
 11
221.366562
 21
5.740328
 31
0.0
  0
LINE
  8
0
 62
   249
 10
221.127977
 20
5.377999
 30
0.0
 11
221.449353
 21
5.699376
 31
0.0
  0
LINE
  8
0
 62
   249
 10
221.25172
 20
5.377999
 30
0.0
 11
221.529174
 21
5.655453
 31
0.0
  0
LINE
  8
0
 62
   249
 10
221.375464
 20
5.377999
 30
0.0
 11
221.606135
 21
5.608671
 31
0.0
  0
LINE
  8
0
 62
   249
 10
221.499208
 20
5.377999
 30
0.0
 11
221.680325
 21
5.559117
 31
0.0
  0
LINE
  8
0
 62
   249
 10
221.622951
 20
5.377999
 30
0.0
 11
221.751814
 21
5.506862
 31
0.0
  0
LINE
  8
0
 62
   249
 10
221.746695
 20
5.377999
 30
0.0
 11
221.820653
 21
5.451958
 31
0.0
  0
LINE
  8
0
 62
   249
 10
221.870439
 20
5.377999
 30
0.0
 11
221.886881
 21
5.394442
 31
0.0
  0
LINE
  8
0
 62
   249
 10
225.377099
 20
6.147021
 30
0.0
 11
227.255195
 21
8.025117
 31
0.0
  0
LINE
  8
0
 62
   249
 10
225.377099
 20
6.270764
 30
0.0
 11
227.204451
 21
8.098116
 31
0.0
  0
LINE
  8
0
 62
   249
 10
225.377099
 20
6.394508
 30
0.0
 11
227.150148
 21
8.167557
 31
0.0
  0
LINE
  8
0
 62
   249
 10
225.377099
 20
6.518252
 30
0.0
 11
227.09236
 21
8.233512
 31
0.0
  0
LINE
  8
0
 62
   249
 10
225.377099
 20
6.641995
 30
0.0
 11
227.031123
 21
8.29602
 31
0.0
  0
LINE
  8
0
 62
   249
 10
225.377099
 20
6.765739
 30
0.0
 11
226.966446
 21
8.355086
 31
0.0
  0
LINE
  8
0
 62
   249
 10
225.377099
 20
6.889483
 30
0.0
 11
226.8983
 21
8.410684
 31
0.0
  0
LINE
  8
0
 62
   249
 10
225.377099
 20
7.013227
 30
0.0
 11
226.826627
 21
8.462755
 31
0.0
  0
LINE
  8
0
 62
   249
 10
225.377099
 20
7.13697
 30
0.0
 11
226.751331
 21
8.511202
 31
0.0
  0
LINE
  8
0
 62
   249
 10
225.377099
 20
7.260714
 30
0.0
 11
226.672274
 21
8.555889
 31
0.0
  0
LINE
  8
0
 62
   249
 10
225.377099
 20
7.384458
 30
0.0
 11
226.589271
 21
8.59663
 31
0.0
  0
LINE
  8
0
 62
   249
 10
225.377099
 20
7.508201
 30
0.0
 11
226.502076
 21
8.633178
 31
0.0
  0
LINE
  8
0
 62
   249
 10
225.377099
 20
7.631945
 30
0.0
 11
226.410366
 21
8.665212
 31
0.0
  0
LINE
  8
0
 62
   249
 10
225.377099
 20
7.755689
 30
0.0
 11
226.313718
 21
8.692307
 31
0.0
  0
LINE
  8
0
 62
   249
 10
225.377099
 20
7.879432
 30
0.0
 11
226.211567
 21
8.7139
 31
0.0
  0
LINE
  8
0
 62
   249
 10
225.377099
 20
8.003176
 30
0.0
 11
226.103145
 21
8.729222
 31
0.0
  0
LINE
  8
0
 62
   249
 10
225.377099
 20
8.12692
 30
0.0
 11
225.987376
 21
8.737197
 31
0.0
  0
LINE
  8
0
 62
   249
 10
225.377099
 20
8.250663
 30
0.0
 11
225.864434
 21
8.737999
 31
0.0
  0
LINE
  8
0
 62
   249
 10
225.377099
 20
8.374407
 30
0.0
 11
225.740691
 21
8.737999
 31
0.0
  0
LINE
  8
0
 62
   249
 10
225.377099
 20
8.498151
 30
0.0
 11
225.616947
 21
8.737999
 31
0.0
  0
LINE
  8
0
 62
   249
 10
225.377099
 20
8.621894
 30
0.0
 11
225.493204
 21
8.737999
 31
0.0
  0
LINE
  8
0
 62
   249
 10
225.377099
 20
6.023277
 30
0.0
 11
227.302271
 21
7.948449
 31
0.0
  0
LINE
  8
0
 62
   249
 10
225.377099
 20
5.899533
 30
0.0
 11
227.345523
 21
7.867958
 31
0.0
  0
LINE
  8
0
 62
   249
 10
225.377099
 20
5.77579
 30
0.0
 11
227.384746
 21
7.783437
 31
0.0
  0
LINE
  8
0
 62
   249
 10
225.377099
 20
5.652046
 30
0.0
 11
227.419668
 21
7.694615
 31
0.0
  0
LINE
  8
0
 62
   249
 10
225.377099
 20
5.528302
 30
0.0
 11
227.449932
 21
7.601135
 31
0.0
  0
LINE
  8
0
 62
   249
 10
225.377099
 20
5.404559
 30
0.0
 11
227.475067
 21
7.502527
 31
0.0
  0
LINE
  8
0
 62
   249
 10
225.474283
 20
5.377999
 30
0.0
 11
227.494444
 21
7.39816
 31
0.0
  0
LINE
  8
0
 62
   249
 10
225.598027
 20
5.377999
 30
0.0
 11
227.507197
 21
7.287169
 31
0.0
  0
LINE
  8
0
 62
   249
 10
225.721771
 20
5.377999
 30
0.0
 11
227.51209
 21
7.168319
 31
0.0
  0
LINE
  8
0
 62
   249
 10
225.845514
 20
5.377999
 30
0.0
 11
227.50727
 21
7.039754
 31
0.0
  0
LINE
  8
0
 62
   249
 10
225.969258
 20
5.377999
 30
0.0
 11
227.489725
 21
6.898466
 31
0.0
  0
LINE
  8
0
 62
   249
 10
226.093002
 20
5.377999
 30
0.0
 11
227.453936
 21
6.738933
 31
0.0
  0
LINE
  8
0
 62
   249
 10
226.216746
 20
5.377999
 30
0.0
 11
227.387299
 21
6.548553
 31
0.0
  0
LINE
  8
0
 62
   249
 10
226.340489
 20
5.377999
 30
0.0
 11
226.740665
 21
5.778175
 31
0.0
  0
LINE
  8
0
 62
   249
 10
226.82381
 20
5.86132
 30
0.0
 11
227.238778
 21
6.276288
 31
0.0
  0
LINE
  8
0
 62
   249
 10
226.464233
 20
5.377999
 30
0.0
 11
226.826562
 21
5.740328
 31
0.0
  0
LINE
  8
0
 62
   249
 10
226.587977
 20
5.377999
 30
0.0
 11
226.909353
 21
5.699376
 31
0.0
  0
LINE
  8
0
 62
   249
 10
226.71172
 20
5.377999
 30
0.0
 11
226.989174
 21
5.655453
 31
0.0
  0
LINE
  8
0
 62
   249
 10
226.835464
 20
5.377999
 30
0.0
 11
227.066135
 21
5.608671
 31
0.0
  0
LINE
  8
0
 62
   249
 10
226.959208
 20
5.377999
 30
0.0
 11
227.140325
 21
5.559117
 31
0.0
  0
LINE
  8
0
 62
   249
 10
227.082951
 20
5.377999
 30
0.0
 11
227.211814
 21
5.506862
 31
0.0
  0
LINE
  8
0
 62
   249
 10
227.206695
 20
5.377999
 30
0.0
 11
227.280653
 21
5.451958
 31
0.0
  0
LINE
  8
0
 62
   249
 10
227.330439
 20
5.377999
 30
0.0
 11
227.346881
 21
5.394442
 31
0.0
  0
LINE
  8
0
 62
   249
 10
223.137099
 20
6.134407
 30
0.0
 11
225.097099
 21
8.094407
 31
0.0
  0
LINE
  8
0
 62
   249
 10
223.137099
 20
6.258151
 30
0.0
 11
225.097099
 21
8.218151
 31
0.0
  0
LINE
  8
0
 62
   249
 10
223.137099
 20
6.381894
 30
0.0
 11
225.097099
 21
8.341894
 31
0.0
  0
LINE
  8
0
 62
   249
 10
223.137099
 20
6.505638
 30
0.0
 11
225.097099
 21
8.465638
 31
0.0
  0
LINE
  8
0
 62
   249
 10
223.137099
 20
6.629382
 30
0.0
 11
225.097099
 21
8.589382
 31
0.0
  0
LINE
  8
0
 62
   249
 10
223.137099
 20
6.753126
 30
0.0
 11
225.097099
 21
8.713126
 31
0.0
  0
LINE
  8
0
 62
   249
 10
223.137099
 20
6.876869
 30
0.0
 11
224.998229
 21
8.737999
 31
0.0
  0
LINE
  8
0
 62
   249
 10
223.137099
 20
7.000613
 30
0.0
 11
224.874485
 21
8.737999
 31
0.0
  0
LINE
  8
0
 62
   249
 10
223.137099
 20
7.124357
 30
0.0
 11
224.750742
 21
8.737999
 31
0.0
  0
LINE
  8
0
 62
   249
 10
223.137099
 20
7.2481
 30
0.0
 11
224.626998
 21
8.737999
 31
0.0
  0
LINE
  8
0
 62
   249
 10
223.137099
 20
7.371844
 30
0.0
 11
224.503254
 21
8.737999
 31
0.0
  0
LINE
  8
0
 62
   249
 10
223.137099
 20
7.495588
 30
0.0
 11
224.379511
 21
8.737999
 31
0.0
  0
LINE
  8
0
 62
   249
 10
223.137099
 20
7.619331
 30
0.0
 11
224.255767
 21
8.737999
 31
0.0
  0
LINE
  8
0
 62
   249
 10
223.137099
 20
7.743075
 30
0.0
 11
224.132023
 21
8.737999
 31
0.0
  0
LINE
  8
0
 62
   249
 10
223.137099
 20
7.866819
 30
0.0
 11
224.00828
 21
8.737999
 31
0.0
  0
LINE
  8
0
 62
   249
 10
223.137099
 20
7.990562
 30
0.0
 11
223.884536
 21
8.737999
 31
0.0
  0
LINE
  8
0
 62
   249
 10
223.137099
 20
8.114306
 30
0.0
 11
223.760792
 21
8.737999
 31
0.0
  0
LINE
  8
0
 62
   249
 10
223.137099
 20
8.23805
 30
0.0
 11
223.637049
 21
8.737999
 31
0.0
  0
LINE
  8
0
 62
   249
 10
223.137099
 20
8.361793
 30
0.0
 11
223.513305
 21
8.737999
 31
0.0
  0
LINE
  8
0
 62
   249
 10
223.137099
 20
8.485537
 30
0.0
 11
223.389561
 21
8.737999
 31
0.0
  0
LINE
  8
0
 62
   249
 10
223.137099
 20
8.609281
 30
0.0
 11
223.265818
 21
8.737999
 31
0.0
  0
LINE
  8
0
 62
   249
 10
223.137099
 20
8.733025
 30
0.0
 11
223.142074
 21
8.737999
 31
0.0
  0
LINE
  8
0
 62
   249
 10
223.137099
 20
6.010663
 30
0.0
 11
225.097099
 21
7.970663
 31
0.0
  0
LINE
  8
0
 62
   249
 10
223.137099
 20
5.88692
 30
0.0
 11
225.097099
 21
7.84692
 31
0.0
  0
LINE
  8
0
 62
   249
 10
223.137099
 20
5.763176
 30
0.0
 11
225.097099
 21
7.723176
 31
0.0
  0
LINE
  8
0
 62
   249
 10
223.137099
 20
5.639432
 30
0.0
 11
225.097099
 21
7.599432
 31
0.0
  0
LINE
  8
0
 62
   249
 10
223.137099
 20
5.515689
 30
0.0
 11
225.097099
 21
7.475689
 31
0.0
  0
LINE
  8
0
 62
   249
 10
223.137099
 20
5.391945
 30
0.0
 11
225.097099
 21
7.351945
 31
0.0
  0
LINE
  8
0
 62
   249
 10
223.246897
 20
5.377999
 30
0.0
 11
225.097099
 21
7.228201
 31
0.0
  0
LINE
  8
0
 62
   249
 10
223.370641
 20
5.377999
 30
0.0
 11
225.097099
 21
7.104458
 31
0.0
  0
LINE
  8
0
 62
   249
 10
223.494384
 20
5.377999
 30
0.0
 11
225.097099
 21
6.980714
 31
0.0
  0
LINE
  8
0
 62
   249
 10
223.618128
 20
5.377999
 30
0.0
 11
225.097099
 21
6.85697
 31
0.0
  0
LINE
  8
0
 62
   249
 10
223.741872
 20
5.377999
 30
0.0
 11
225.097099
 21
6.733227
 31
0.0
  0
LINE
  8
0
 62
   249
 10
223.865615
 20
5.377999
 30
0.0
 11
225.097099
 21
6.609483
 31
0.0
  0
LINE
  8
0
 62
   249
 10
223.989359
 20
5.377999
 30
0.0
 11
225.097099
 21
6.485739
 31
0.0
  0
LINE
  8
0
 62
   249
 10
224.113103
 20
5.377999
 30
0.0
 11
225.097099
 21
6.361995
 31
0.0
  0
LINE
  8
0
 62
   249
 10
224.236847
 20
5.377999
 30
0.0
 11
225.097099
 21
6.238252
 31
0.0
  0
LINE
  8
0
 62
   249
 10
224.36059
 20
5.377999
 30
0.0
 11
225.097099
 21
6.114508
 31
0.0
  0
LINE
  8
0
 62
   249
 10
224.484334
 20
5.377999
 30
0.0
 11
225.097099
 21
5.990764
 31
0.0
  0
LINE
  8
0
 62
   249
 10
224.608078
 20
5.377999
 30
0.0
 11
225.097099
 21
5.867021
 31
0.0
  0
LINE
  8
0
 62
   249
 10
224.731821
 20
5.377999
 30
0.0
 11
225.097099
 21
5.743277
 31
0.0
  0
LINE
  8
0
 62
   249
 10
224.855565
 20
5.377999
 30
0.0
 11
225.097099
 21
5.619533
 31
0.0
  0
LINE
  8
0
 62
   249
 10
224.979309
 20
5.377999
 30
0.0
 11
225.097099
 21
5.49579
 31
0.0
  0
LINE
  8
0
 62
   249
 10
225.377099
 20
2.310966
 30
0.0
 11
227.824614
 21
4.758481
 31
0.0
  0
LINE
  8
0
 62
   249
 10
225.377099
 20
2.43471
 30
0.0
 11
227.782547
 21
4.840158
 31
0.0
  0
LINE
  8
0
 62
   249
 10
225.377099
 20
2.558454
 30
0.0
 11
227.737553
 21
4.918908
 31
0.0
  0
LINE
  8
0
 62
   249
 10
225.377099
 20
2.682197
 30
0.0
 11
227.689735
 21
4.994834
 31
0.0
  0
LINE
  8
0
 62
   249
 10
225.377099
 20
2.805941
 30
0.0
 11
227.639174
 21
5.068016
 31
0.0
  0
LINE
  8
0
 62
   249
 10
225.377099
 20
2.929685
 30
0.0
 11
227.545413
 21
5.097999
 31
0.0
  0
LINE
  8
0
 62
   249
 10
225.377099
 20
3.053429
 30
0.0
 11
227.42167
 21
5.097999
 31
0.0
  0
LINE
  8
0
 62
   249
 10
225.377099
 20
3.177172
 30
0.0
 11
227.297926
 21
5.097999
 31
0.0
  0
LINE
  8
0
 62
   249
 10
225.377099
 20
3.300916
 30
0.0
 11
227.174182
 21
5.097999
 31
0.0
  0
LINE
  8
0
 62
   249
 10
225.377099
 20
3.42466
 30
0.0
 11
227.050439
 21
5.097999
 31
0.0
  0
LINE
  8
0
 62
   249
 10
225.377099
 20
3.548403
 30
0.0
 11
226.926695
 21
5.097999
 31
0.0
  0
LINE
  8
0
 62
   249
 10
225.377099
 20
3.672147
 30
0.0
 11
226.802951
 21
5.097999
 31
0.0
  0
LINE
  8
0
 62
   249
 10
225.377099
 20
3.795891
 30
0.0
 11
226.679208
 21
5.097999
 31
0.0
  0
LINE
  8
0
 62
   249
 10
225.377099
 20
3.919634
 30
0.0
 11
226.555464
 21
5.097999
 31
0.0
  0
LINE
  8
0
 62
   249
 10
225.377099
 20
4.043378
 30
0.0
 11
226.43172
 21
5.097999
 31
0.0
  0
LINE
  8
0
 62
   249
 10
225.377099
 20
4.167122
 30
0.0
 11
226.307977
 21
5.097999
 31
0.0
  0
LINE
  8
0
 62
   249
 10
225.377099
 20
4.290865
 30
0.0
 11
226.184233
 21
5.097999
 31
0.0
  0
LINE
  8
0
 62
   249
 10
225.377099
 20
4.414609
 30
0.0
 11
226.060489
 21
5.097999
 31
0.0
  0
LINE
  8
0
 62
   249
 10
225.377099
 20
4.538353
 30
0.0
 11
225.936746
 21
5.097999
 31
0.0
  0
LINE
  8
0
 62
   249
 10
225.377099
 20
4.662096
 30
0.0
 11
225.813002
 21
5.097999
 31
0.0
  0
LINE
  8
0
 62
   249
 10
225.377099
 20
4.78584
 30
0.0
 11
225.689258
 21
5.097999
 31
0.0
  0
LINE
  8
0
 62
   249
 10
225.377099
 20
4.909584
 30
0.0
 11
225.565514
 21
5.097999
 31
0.0
  0
LINE
  8
0
 62
   249
 10
225.377099
 20
5.033328
 30
0.0
 11
225.441771
 21
5.097999
 31
0.0
  0
LINE
  8
0
 62
   249
 10
225.377099
 20
2.187223
 30
0.0
 11
227.863629
 21
4.673752
 31
0.0
  0
LINE
  8
0
 62
   249
 10
225.377099
 20
2.063479
 30
0.0
 11
227.899437
 21
4.585817
 31
0.0
  0
LINE
  8
0
 62
   249
 10
225.377099
 20
1.939735
 30
0.0
 11
227.931849
 21
4.494485
 31
0.0
  0
LINE
  8
0
 62
   249
 10
225.377099
 20
1.815992
 30
0.0
 11
227.960633
 21
4.399525
 31
0.0
  0
LINE
  8
0
 62
   249
 10
225.42285
 20
1.737999
 30
0.0
 11
227.985502
 21
4.300651
 31
0.0
  0
LINE
  8
0
 62
   249
 10
225.546594
 20
1.738
 30
0.0
 11
228.006098
 21
4.197503
 31
0.0
  0
LINE
  8
0
 62
   249
 10
225.670338
 20
1.738
 30
0.0
 11
228.021969
 21
4.08963
 31
0.0
  0
LINE
  8
0
 62
   249
 10
225.794082
 20
1.738
 30
0.0
 11
228.03253
 21
3.976448
 31
0.0
  0
LINE
  8
0
 62
   249
 10
225.917826
 20
1.738
 30
0.0
 11
228.037011
 21
3.857186
 31
0.0
  0
LINE
  8
0
 62
   249
 10
226.044307
 20
1.740738
 30
0.0
 11
228.034361
 21
3.730791
 31
0.0
  0
LINE
  8
0
 62
   249
 10
226.17933
 20
1.752016
 30
0.0
 11
228.023082
 21
3.595769
 31
0.0
  0
LINE
  8
0
 62
   249
 10
226.325237
 20
1.77418
 30
0.0
 11
228.000918
 21
3.449861
 31
0.0
  0
LINE
  8
0
 62
   249
 10
226.485733
 20
1.810932
 30
0.0
 11
227.964166
 21
3.289366
 31
0.0
  0
LINE
  8
0
 62
   249
 10
226.667749
 20
1.869205
 30
0.0
 11
227.905893
 21
3.107349
 31
0.0
  0
LINE
  8
0
 62
   249
 10
226.887822
 20
1.965534
 30
0.0
 11
227.809564
 21
2.887276
 31
0.0
  0
LINE
  8
0
 62
   249
 10
227.22645
 20
2.180419
 30
0.0
 11
227.59468
 21
2.548648
 31
0.0
  0
LINE
  8
0
 62
   249
 10
210.187099
 20
1.737999
 30
0.0
 11
213.547099
 21
5.097999
 31
0.0
  0
LINE
  8
0
 62
   249
 10
210.25373
 20
1.928374
 30
0.0
 11
213.423355
 21
5.097999
 31
0.0
  0
LINE
  8
0
 62
   249
 10
210.320362
 20
2.118749
 30
0.0
 11
213.299612
 21
5.097999
 31
0.0
  0
LINE
  8
0
 62
   249
 10
210.386993
 20
2.309124
 30
0.0
 11
213.175868
 21
5.097999
 31
0.0
  0
LINE
  8
0
 62
   249
 10
210.453624
 20
2.499499
 30
0.0
 11
213.052124
 21
5.097999
 31
0.0
  0
LINE
  8
0
 62
   249
 10
210.520255
 20
2.689874
 30
0.0
 11
212.928381
 21
5.097999
 31
0.0
  0
LINE
  8
0
 62
   249
 10
210.586886
 20
2.880249
 30
0.0
 11
212.804637
 21
5.097999
 31
0.0
  0
LINE
  8
0
 62
   249
 10
210.653518
 20
3.070624
 30
0.0
 11
212.680893
 21
5.097999
 31
0.0
  0
LINE
  8
0
 62
   249
 10
210.720149
 20
3.260998
 30
0.0
 11
212.55715
 21
5.097999
 31
0.0
  0
LINE
  8
0
 62
   249
 10
210.78678
 20
3.451373
 30
0.0
 11
212.433406
 21
5.097999
 31
0.0
  0
LINE
  8
0
 62
   249
 10
210.853411
 20
3.641748
 30
0.0
 11
212.309662
 21
5.097999
 31
0.0
  0
LINE
  8
0
 62
   249
 10
210.920042
 20
3.832123
 30
0.0
 11
212.185919
 21
5.097999
 31
0.0
  0
LINE
  8
0
 62
   249
 10
210.986674
 20
4.022498
 30
0.0
 11
212.062175
 21
5.097999
 31
0.0
  0
LINE
  8
0
 62
   249
 10
211.053305
 20
4.212873
 30
0.0
 11
211.938431
 21
5.097999
 31
0.0
  0
LINE
  8
0
 62
   249
 10
211.119936
 20
4.403248
 30
0.0
 11
211.814687
 21
5.097999
 31
0.0
  0
LINE
  8
0
 62
   249
 10
211.186567
 20
4.593623
 30
0.0
 11
211.690944
 21
5.097999
 31
0.0
  0
LINE
  8
0
 62
   249
 10
211.253199
 20
4.783998
 30
0.0
 11
211.5672
 21
5.097999
 31
0.0
  0
LINE
  8
0
 62
   249
 10
211.31983
 20
4.974373
 30
0.0
 11
211.443456
 21
5.097999
 31
0.0
  0
LINE
  8
0
 62
   249
 10
210.310843
 20
1.737999
 30
0.0
 11
213.547099
 21
4.974256
 31
0.0
  0
LINE
  8
0
 62
   249
 10
210.434586
 20
1.737999
 30
0.0
 11
213.547099
 21
4.850512
 31
0.0
  0
LINE
  8
0
 62
   249
 10
210.55833
 20
1.737999
 30
0.0
 11
213.547099
 21
4.726768
 31
0.0
  0
LINE
  8
0
 62
   249
 10
210.682074
 20
1.737999
 30
0.0
 11
213.547099
 21
4.603025
 31
0.0
  0
LINE
  8
0
 62
   249
 10
210.805818
 20
1.737999
 30
0.0
 11
213.547099
 21
4.479281
 31
0.0
  0
LINE
  8
0
 62
   249
 10
210.929561
 20
1.737999
 30
0.0
 11
213.547099
 21
4.355537
 31
0.0
  0
LINE
  8
0
 62
   249
 10
211.053305
 20
1.737999
 30
0.0
 11
212.412988
 21
3.097683
 31
0.0
  0
LINE
  8
0
 62
   249
 10
212.453305
 20
3.137999
 30
0.0
 11
213.547099
 21
4.231793
 31
0.0
  0
LINE
  8
0
 62
   249
 10
211.177049
 20
1.737999
 30
0.0
 11
212.346357
 21
2.907308
 31
0.0
  0
LINE
  8
0
 62
   249
 10
212.577049
 20
3.137999
 30
0.0
 11
213.547099
 21
4.10805
 31
0.0
  0
LINE
  8
0
 62
   249
 10
211.300792
 20
1.737999
 30
0.0
 11
212.279726
 21
2.716933
 31
0.0
  0
LINE
  8
0
 62
   249
 10
212.700792
 20
3.137999
 30
0.0
 11
213.547099
 21
3.984306
 31
0.0
  0
LINE
  8
0
 62
   249
 10
211.424536
 20
1.737999
 30
0.0
 11
212.213095
 21
2.526558
 31
0.0
  0
LINE
  8
0
 62
   249
 10
212.824536
 20
3.137999
 30
0.0
 11
213.547099
 21
3.860562
 31
0.0
  0
LINE
  8
0
 62
   249
 10
211.54828
 20
1.737999
 30
0.0
 11
212.146463
 21
2.336183
 31
0.0
  0
LINE
  8
0
 62
   249
 10
212.94828
 20
3.137999
 30
0.0
 11
213.547099
 21
3.736819
 31
0.0
  0
LINE
  8
0
 62
   249
 10
211.672023
 20
1.737999
 30
0.0
 11
212.079832
 21
2.145808
 31
0.0
  0
LINE
  8
0
 62
   249
 10
213.072023
 20
3.137999
 30
0.0
 11
213.547099
 21
3.613075
 31
0.0
  0
LINE
  8
0
 62
   249
 10
211.795767
 20
1.737999
 30
0.0
 11
212.013201
 21
1.955433
 31
0.0
  0
LINE
  8
0
 62
   249
 10
213.195767
 20
3.137999
 30
0.0
 11
213.547099
 21
3.489331
 31
0.0
  0
LINE
  8
0
 62
   249
 10
211.919511
 20
1.737999
 30
0.0
 11
211.94657
 21
1.765058
 31
0.0
  0
LINE
  8
0
 62
   249
 10
213.319511
 20
3.137999
 30
0.0
 11
213.547099
 21
3.365588
 31
0.0
  0
LINE
  8
0
 62
   249
 10
213.443254
 20
3.137999
 30
0.0
 11
213.547099
 21
3.241844
 31
0.0
  0
LINE
  8
0
 62
   249
 10
217.677099
 20
2.54584
 30
0.0
 11
219.637099
 21
4.50584
 31
0.0
  0
LINE
  8
0
 62
   249
 10
217.677099
 20
2.669584
 30
0.0
 11
219.637099
 21
4.629584
 31
0.0
  0
LINE
  8
0
 62
   249
 10
217.677099
 20
2.793328
 30
0.0
 11
219.637099
 21
4.753328
 31
0.0
  0
LINE
  8
0
 62
   249
 10
217.677099
 20
2.917071
 30
0.0
 11
219.637099
 21
4.877071
 31
0.0
  0
LINE
  8
0
 62
   249
 10
217.677099
 20
3.040815
 30
0.0
 11
219.637099
 21
5.000815
 31
0.0
  0
LINE
  8
0
 62
   249
 10
217.677099
 20
3.164559
 30
0.0
 11
219.61054
 21
5.097999
 31
0.0
  0
LINE
  8
0
 62
   249
 10
217.677099
 20
3.288302
 30
0.0
 11
219.486796
 21
5.097999
 31
0.0
  0
LINE
  8
0
 62
   249
 10
217.677099
 20
3.412046
 30
0.0
 11
219.363052
 21
5.097999
 31
0.0
  0
LINE
  8
0
 62
   249
 10
217.677099
 20
3.53579
 30
0.0
 11
219.239309
 21
5.097999
 31
0.0
  0
LINE
  8
0
 62
   249
 10
217.677099
 20
3.659533
 30
0.0
 11
219.115565
 21
5.097999
 31
0.0
  0
LINE
  8
0
 62
   249
 10
217.677099
 20
3.783277
 30
0.0
 11
218.991821
 21
5.097999
 31
0.0
  0
LINE
  8
0
 62
   249
 10
217.677099
 20
3.907021
 30
0.0
 11
218.868078
 21
5.097999
 31
0.0
  0
LINE
  8
0
 62
   249
 10
217.677099
 20
4.030764
 30
0.0
 11
218.744334
 21
5.097999
 31
0.0
  0
LINE
  8
0
 62
   249
 10
217.677099
 20
4.154508
 30
0.0
 11
218.62059
 21
5.097999
 31
0.0
  0
LINE
  8
0
 62
   249
 10
217.677099
 20
4.278252
 30
0.0
 11
218.496847
 21
5.097999
 31
0.0
  0
LINE
  8
0
 62
   249
 10
217.677099
 20
4.401995
 30
0.0
 11
218.373103
 21
5.097999
 31
0.0
  0
LINE
  8
0
 62
   249
 10
217.677099
 20
4.525739
 30
0.0
 11
218.249359
 21
5.097999
 31
0.0
  0
LINE
  8
0
 62
   249
 10
217.677099
 20
4.649483
 30
0.0
 11
218.125615
 21
5.097999
 31
0.0
  0
LINE
  8
0
 62
   249
 10
217.677099
 20
4.773227
 30
0.0
 11
218.001872
 21
5.097999
 31
0.0
  0
LINE
  8
0
 62
   249
 10
217.677099
 20
4.89697
 30
0.0
 11
217.878128
 21
5.097999
 31
0.0
  0
LINE
  8
0
 62
   249
 10
217.677099
 20
5.020714
 30
0.0
 11
217.754384
 21
5.097999
 31
0.0
  0
LINE
  8
0
 62
   249
 10
217.677099
 20
2.422096
 30
0.0
 11
219.637099
 21
4.382096
 31
0.0
  0
LINE
  8
0
 62
   249
 10
217.677099
 20
2.298353
 30
0.0
 11
219.637099
 21
4.258353
 31
0.0
  0
LINE
  8
0
 62
   249
 10
217.677099
 20
2.174609
 30
0.0
 11
219.637099
 21
4.134609
 31
0.0
  0
LINE
  8
0
 62
   249
 10
217.677099
 20
2.050865
 30
0.0
 11
219.637099
 21
4.010865
 31
0.0
  0
LINE
  8
0
 62
   249
 10
217.677099
 20
1.927122
 30
0.0
 11
219.637099
 21
3.887122
 31
0.0
  0
LINE
  8
0
 62
   249
 10
217.677099
 20
1.803378
 30
0.0
 11
219.637099
 21
3.763378
 31
0.0
  0
LINE
  8
0
 62
   249
 10
217.735464
 20
1.737999
 30
0.0
 11
219.637099
 21
3.639634
 31
0.0
  0
LINE
  8
0
 62
   249
 10
217.859208
 20
1.737999
 30
0.0
 11
219.637099
 21
3.515891
 31
0.0
  0
LINE
  8
0
 62
   249
 10
217.982951
 20
1.737999
 30
0.0
 11
219.637099
 21
3.392147
 31
0.0
  0
LINE
  8
0
 62
   249
 10
218.106695
 20
1.737999
 30
0.0
 11
219.637099
 21
3.268403
 31
0.0
  0
LINE
  8
0
 62
   249
 10
218.230439
 20
1.737999
 30
0.0
 11
219.637099
 21
3.14466
 31
0.0
  0
LINE
  8
0
 62
   249
 10
218.354182
 20
1.737999
 30
0.0
 11
219.637099
 21
3.020916
 31
0.0
  0
LINE
  8
0
 62
   249
 10
218.477926
 20
1.737999
 30
0.0
 11
219.637099
 21
2.897172
 31
0.0
  0
LINE
  8
0
 62
   249
 10
218.60167
 20
1.737999
 30
0.0
 11
219.637099
 21
2.773429
 31
0.0
  0
LINE
  8
0
 62
   249
 10
218.725413
 20
1.737999
 30
0.0
 11
219.637099
 21
2.649685
 31
0.0
  0
LINE
  8
0
 62
   249
 10
218.849157
 20
1.737999
 30
0.0
 11
219.637099
 21
2.525941
 31
0.0
  0
LINE
  8
0
 62
   249
 10
218.972901
 20
1.737999
 30
0.0
 11
219.637099
 21
2.402197
 31
0.0
  0
LINE
  8
0
 62
   249
 10
219.096645
 20
1.737999
 30
0.0
 11
219.637099
 21
2.278454
 31
0.0
  0
LINE
  8
0
 62
   249
 10
219.220388
 20
1.737999
 30
0.0
 11
219.637099
 21
2.15471
 31
0.0
  0
LINE
  8
0
 62
   249
 10
219.344132
 20
1.737999
 30
0.0
 11
219.637099
 21
2.030966
 31
0.0
  0
LINE
  8
0
 62
   249
 10
219.467876
 20
1.737999
 30
0.0
 11
219.637099
 21
1.907223
 31
0.0
  0
LINE
  8
0
 62
   249
 10
219.591619
 20
1.737999
 30
0.0
 11
219.637099
 21
1.783479
 31
0.0
  0
LINE
  8
0
 62
   249
 10
215.006357
 20
2.96869
 30
0.0
 11
216.302653
 21
4.264987
 31
0.0
  0
LINE
  8
0
 62
   249
 10
214.974275
 20
3.060352
 30
0.0
 11
216.270572
 21
4.356649
 31
0.0
  0
LINE
  8
0
 62
   249
 10
214.928179
 20
3.137999
 30
0.0
 11
216.23849
 21
4.448311
 31
0.0
  0
LINE
  8
0
 62
   249
 10
214.804435
 20
3.137999
 30
0.0
 11
216.206408
 21
4.539973
 31
0.0
  0
LINE
  8
0
 62
   249
 10
214.680691
 20
3.137999
 30
0.0
 11
216.174327
 21
4.631635
 31
0.0
  0
LINE
  8
0
 62
   249
 10
214.556948
 20
3.137999
 30
0.0
 11
216.142245
 21
4.723297
 31
0.0
  0
LINE
  8
0
 62
   249
 10
214.433204
 20
3.137999
 30
0.0
 11
216.110163
 21
4.814959
 31
0.0
  0
LINE
  8
0
 62
   249
 10
214.30946
 20
3.137999
 30
0.0
 11
216.078082
 21
4.906621
 31
0.0
  0
LINE
  8
0
 62
   249
 10
214.185717
 20
3.137999
 30
0.0
 11
216.046
 21
4.998283
 31
0.0
  0
LINE
  8
0
 62
   249
 10
214.061973
 20
3.137999
 30
0.0
 11
216.013918
 21
5.089945
 31
0.0
  0
LINE
  8
0
 62
   249
 10
213.938229
 20
3.137999
 30
0.0
 11
215.898229
 21
5.097999
 31
0.0
  0
LINE
  8
0
 62
   249
 10
213.827099
 20
3.150613
 30
0.0
 11
215.774485
 21
5.097999
 31
0.0
  0
LINE
  8
0
 62
   249
 10
213.827099
 20
3.274357
 30
0.0
 11
215.650742
 21
5.097999
 31
0.0
  0
LINE
  8
0
 62
   249
 10
213.827099
 20
3.3981
 30
0.0
 11
215.526998
 21
5.097999
 31
0.0
  0
LINE
  8
0
 62
   249
 10
213.827099
 20
3.521844
 30
0.0
 11
215.403254
 21
5.097999
 31
0.0
  0
LINE
  8
0
 62
   249
 10
213.827099
 20
3.645588
 30
0.0
 11
215.279511
 21
5.097999
 31
0.0
  0
LINE
  8
0
 62
   249
 10
213.827099
 20
3.769331
 30
0.0
 11
215.155767
 21
5.097999
 31
0.0
  0
LINE
  8
0
 62
   249
 10
213.827099
 20
3.893075
 30
0.0
 11
215.032023
 21
5.097999
 31
0.0
  0
LINE
  8
0
 62
   249
 10
213.827099
 20
4.016819
 30
0.0
 11
214.90828
 21
5.097999
 31
0.0
  0
LINE
  8
0
 62
   249
 10
213.827099
 20
4.140562
 30
0.0
 11
214.784536
 21
5.097999
 31
0.0
  0
LINE
  8
0
 62
   249
 10
213.827099
 20
4.264306
 30
0.0
 11
214.660792
 21
5.097999
 31
0.0
  0
LINE
  8
0
 62
   249
 10
213.827099
 20
4.38805
 30
0.0
 11
214.537049
 21
5.097999
 31
0.0
  0
LINE
  8
0
 62
   249
 10
213.827099
 20
4.511793
 30
0.0
 11
214.413305
 21
5.097999
 31
0.0
  0
LINE
  8
0
 62
   249
 10
213.827099
 20
4.635537
 30
0.0
 11
214.289561
 21
5.097999
 31
0.0
  0
LINE
  8
0
 62
   249
 10
213.827099
 20
4.759281
 30
0.0
 11
214.165818
 21
5.097999
 31
0.0
  0
LINE
  8
0
 62
   249
 10
213.827099
 20
4.883025
 30
0.0
 11
214.042074
 21
5.097999
 31
0.0
  0
LINE
  8
0
 62
   249
 10
213.827099
 20
5.006768
 30
0.0
 11
213.91833
 21
5.097999
 31
0.0
  0
LINE
  8
0
 62
   249
 10
215.038439
 20
2.877028
 30
0.0
 11
216.334735
 21
4.173325
 31
0.0
  0
LINE
  8
0
 62
   249
 10
215.070521
 20
2.785366
 30
0.0
 11
216.366817
 21
4.081663
 31
0.0
  0
LINE
  8
0
 62
   249
 10
215.102602
 20
2.693704
 30
0.0
 11
216.398899
 21
3.990001
 31
0.0
  0
LINE
  8
0
 62
   249
 10
215.134684
 20
2.602042
 30
0.0
 11
216.43098
 21
3.898339
 31
0.0
  0
LINE
  8
0
 62
   249
 10
215.166766
 20
2.51038
 30
0.0
 11
216.463062
 21
3.806677
 31
0.0
  0
LINE
  8
0
 62
   249
 10
215.198847
 20
2.418718
 30
0.0
 11
216.495144
 21
3.715015
 31
0.0
  0
LINE
  8
0
 62
   249
 10
215.230929
 20
2.327056
 30
0.0
 11
216.527225
 21
3.623353
 31
0.0
  0
LINE
  8
0
 62
   249
 10
215.263011
 20
2.235395
 30
0.0
 11
216.559307
 21
3.531691
 31
0.0
  0
LINE
  8
0
 62
   249
 10
215.295092
 20
2.143733
 30
0.0
 11
216.591389
 21
3.440029
 31
0.0
  0
LINE
  8
0
 62
   249
 10
215.327174
 20
2.052071
 30
0.0
 11
216.62347
 21
3.348367
 31
0.0
  0
LINE
  8
0
 62
   249
 10
215.359256
 20
1.960409
 30
0.0
 11
216.655552
 21
3.256705
 31
0.0
  0
LINE
  8
0
 62
   249
 10
215.391338
 20
1.868747
 30
0.0
 11
216.687634
 21
3.165043
 31
0.0
  0
LINE
  8
0
 62
   249
 10
215.423419
 20
1.777085
 30
0.0
 11
216.719716
 21
3.073381
 31
0.0
  0
LINE
  8
0
 62
   249
 10
215.508078
 20
1.737999
 30
0.0
 11
216.751797
 21
2.981719
 31
0.0
  0
LINE
  8
0
 62
   249
 10
215.631821
 20
1.737999
 30
0.0
 11
216.783879
 21
2.890057
 31
0.0
  0
LINE
  8
0
 62
   249
 10
215.755565
 20
1.737999
 30
0.0
 11
216.815961
 21
2.798395
 31
0.0
  0
LINE
  8
0
 62
   249
 10
215.879309
 20
1.737999
 30
0.0
 11
216.848042
 21
2.706733
 31
0.0
  0
LINE
  8
0
 62
   249
 10
216.003052
 20
1.737999
 30
0.0
 11
216.880124
 21
2.615071
 31
0.0
  0
LINE
  8
0
 62
   249
 10
216.126796
 20
1.737999
 30
0.0
 11
216.912206
 21
2.523409
 31
0.0
  0
LINE
  8
0
 62
   249
 10
216.25054
 20
1.737999
 30
0.0
 11
216.944287
 21
2.431747
 31
0.0
  0
LINE
  8
0
 62
   249
 10
216.374283
 20
1.737999
 30
0.0
 11
216.976369
 21
2.340085
 31
0.0
  0
LINE
  8
0
 62
   249
 10
216.498027
 20
1.737999
 30
0.0
 11
217.008451
 21
2.248423
 31
0.0
  0
LINE
  8
0
 62
   249
 10
216.621771
 20
1.737999
 30
0.0
 11
217.040532
 21
2.156761
 31
0.0
  0
LINE
  8
0
 62
   249
 10
216.745514
 20
1.737999
 30
0.0
 11
217.072614
 21
2.065099
 31
0.0
  0
LINE
  8
0
 62
   249
 10
216.869258
 20
1.737999
 30
0.0
 11
217.104696
 21
1.973437
 31
0.0
  0
LINE
  8
0
 62
   249
 10
216.993002
 20
1.737999
 30
0.0
 11
217.136778
 21
1.881775
 31
0.0
  0
LINE
  8
0
 62
   249
 10
217.116746
 20
1.737999
 30
0.0
 11
217.168859
 21
1.790113
 31
0.0
  0
LINE
  8
0
 62
   249
 10
219.917099
 20
2.310966
 30
0.0
 11
222.364614
 21
4.758481
 31
0.0
  0
LINE
  8
0
 62
   249
 10
219.917099
 20
2.43471
 30
0.0
 11
222.322547
 21
4.840158
 31
0.0
  0
LINE
  8
0
 62
   249
 10
219.917099
 20
2.558454
 30
0.0
 11
222.277553
 21
4.918908
 31
0.0
  0
LINE
  8
0
 62
   249
 10
219.917099
 20
2.682197
 30
0.0
 11
222.229735
 21
4.994834
 31
0.0
  0
LINE
  8
0
 62
   249
 10
219.917099
 20
2.805941
 30
0.0
 11
222.179174
 21
5.068016
 31
0.0
  0
LINE
  8
0
 62
   249
 10
219.917099
 20
2.929685
 30
0.0
 11
222.085413
 21
5.097999
 31
0.0
  0
LINE
  8
0
 62
   249
 10
219.917099
 20
3.053429
 30
0.0
 11
221.96167
 21
5.097999
 31
0.0
  0
LINE
  8
0
 62
   249
 10
219.917099
 20
3.177172
 30
0.0
 11
221.837926
 21
5.097999
 31
0.0
  0
LINE
  8
0
 62
   249
 10
219.917099
 20
3.300916
 30
0.0
 11
221.714182
 21
5.097999
 31
0.0
  0
LINE
  8
0
 62
   249
 10
219.917099
 20
3.42466
 30
0.0
 11
221.590439
 21
5.097999
 31
0.0
  0
LINE
  8
0
 62
   249
 10
219.917099
 20
3.548403
 30
0.0
 11
221.466695
 21
5.097999
 31
0.0
  0
LINE
  8
0
 62
   249
 10
219.917099
 20
3.672147
 30
0.0
 11
221.342951
 21
5.097999
 31
0.0
  0
LINE
  8
0
 62
   249
 10
219.917099
 20
3.795891
 30
0.0
 11
221.219208
 21
5.097999
 31
0.0
  0
LINE
  8
0
 62
   249
 10
219.917099
 20
3.919634
 30
0.0
 11
221.095464
 21
5.097999
 31
0.0
  0
LINE
  8
0
 62
   249
 10
219.917099
 20
4.043378
 30
0.0
 11
220.97172
 21
5.097999
 31
0.0
  0
LINE
  8
0
 62
   249
 10
219.917099
 20
4.167122
 30
0.0
 11
220.847977
 21
5.097999
 31
0.0
  0
LINE
  8
0
 62
   249
 10
219.917099
 20
4.290865
 30
0.0
 11
220.724233
 21
5.097999
 31
0.0
  0
LINE
  8
0
 62
   249
 10
219.917099
 20
4.414609
 30
0.0
 11
220.600489
 21
5.097999
 31
0.0
  0
LINE
  8
0
 62
   249
 10
219.917099
 20
4.538353
 30
0.0
 11
220.476746
 21
5.097999
 31
0.0
  0
LINE
  8
0
 62
   249
 10
219.917099
 20
4.662096
 30
0.0
 11
220.353002
 21
5.097999
 31
0.0
  0
LINE
  8
0
 62
   249
 10
219.917099
 20
4.78584
 30
0.0
 11
220.229258
 21
5.097999
 31
0.0
  0
LINE
  8
0
 62
   249
 10
219.917099
 20
4.909584
 30
0.0
 11
220.105514
 21
5.097999
 31
0.0
  0
LINE
  8
0
 62
   249
 10
219.917099
 20
5.033328
 30
0.0
 11
219.981771
 21
5.097999
 31
0.0
  0
LINE
  8
0
 62
   249
 10
219.917099
 20
2.187223
 30
0.0
 11
222.403629
 21
4.673752
 31
0.0
  0
LINE
  8
0
 62
   249
 10
219.917099
 20
2.063479
 30
0.0
 11
222.439437
 21
4.585817
 31
0.0
  0
LINE
  8
0
 62
   249
 10
219.917099
 20
1.939735
 30
0.0
 11
222.471849
 21
4.494485
 31
0.0
  0
LINE
  8
0
 62
   249
 10
219.917099
 20
1.815992
 30
0.0
 11
222.500633
 21
4.399525
 31
0.0
  0
LINE
  8
0
 62
   249
 10
219.96285
 20
1.737999
 30
0.0
 11
222.525502
 21
4.300651
 31
0.0
  0
LINE
  8
0
 62
   249
 10
220.086594
 20
1.738
 30
0.0
 11
222.546098
 21
4.197503
 31
0.0
  0
LINE
  8
0
 62
   249
 10
220.210338
 20
1.738
 30
0.0
 11
222.561969
 21
4.08963
 31
0.0
  0
LINE
  8
0
 62
   249
 10
220.334082
 20
1.738
 30
0.0
 11
222.57253
 21
3.976448
 31
0.0
  0
LINE
  8
0
 62
   249
 10
220.457826
 20
1.738
 30
0.0
 11
222.577011
 21
3.857186
 31
0.0
  0
LINE
  8
0
 62
   249
 10
220.584307
 20
1.740738
 30
0.0
 11
222.574361
 21
3.730791
 31
0.0
  0
LINE
  8
0
 62
   249
 10
220.71933
 20
1.752016
 30
0.0
 11
222.563082
 21
3.595769
 31
0.0
  0
LINE
  8
0
 62
   249
 10
220.865237
 20
1.77418
 30
0.0
 11
222.540918
 21
3.449861
 31
0.0
  0
LINE
  8
0
 62
   249
 10
221.025733
 20
1.810932
 30
0.0
 11
222.504166
 21
3.289366
 31
0.0
  0
LINE
  8
0
 62
   249
 10
221.207749
 20
1.869205
 30
0.0
 11
222.445893
 21
3.107349
 31
0.0
  0
LINE
  8
0
 62
   249
 10
221.427822
 20
1.965534
 30
0.0
 11
222.349564
 21
2.887276
 31
0.0
  0
LINE
  8
0
 62
   249
 10
221.76645
 20
2.180419
 30
0.0
 11
222.13468
 21
2.548648
 31
0.0
  0
LINE
  8
0
 62
   249
 10
223.137099
 20
2.54584
 30
0.0
 11
225.097099
 21
4.50584
 31
0.0
  0
LINE
  8
0
 62
   249
 10
223.137099
 20
2.669584
 30
0.0
 11
225.097099
 21
4.629584
 31
0.0
  0
LINE
  8
0
 62
   249
 10
223.137099
 20
2.793328
 30
0.0
 11
225.097099
 21
4.753328
 31
0.0
  0
LINE
  8
0
 62
   249
 10
223.137099
 20
2.917071
 30
0.0
 11
225.097099
 21
4.877071
 31
0.0
  0
LINE
  8
0
 62
   249
 10
223.137099
 20
3.040815
 30
0.0
 11
225.097099
 21
5.000815
 31
0.0
  0
LINE
  8
0
 62
   249
 10
223.137099
 20
3.164559
 30
0.0
 11
225.07054
 21
5.097999
 31
0.0
  0
LINE
  8
0
 62
   249
 10
223.137099
 20
3.288302
 30
0.0
 11
224.946796
 21
5.097999
 31
0.0
  0
LINE
  8
0
 62
   249
 10
223.137099
 20
3.412046
 30
0.0
 11
224.823052
 21
5.097999
 31
0.0
  0
LINE
  8
0
 62
   249
 10
223.137099
 20
3.53579
 30
0.0
 11
224.699309
 21
5.097999
 31
0.0
  0
LINE
  8
0
 62
   249
 10
223.137099
 20
3.659533
 30
0.0
 11
224.575565
 21
5.097999
 31
0.0
  0
LINE
  8
0
 62
   249
 10
223.137099
 20
3.783277
 30
0.0
 11
224.451821
 21
5.097999
 31
0.0
  0
LINE
  8
0
 62
   249
 10
223.137099
 20
3.907021
 30
0.0
 11
224.328078
 21
5.097999
 31
0.0
  0
LINE
  8
0
 62
   249
 10
223.137099
 20
4.030764
 30
0.0
 11
224.204334
 21
5.097999
 31
0.0
  0
LINE
  8
0
 62
   249
 10
223.137099
 20
4.154508
 30
0.0
 11
224.08059
 21
5.097999
 31
0.0
  0
LINE
  8
0
 62
   249
 10
223.137099
 20
4.278252
 30
0.0
 11
223.956847
 21
5.097999
 31
0.0
  0
LINE
  8
0
 62
   249
 10
223.137099
 20
4.401995
 30
0.0
 11
223.833103
 21
5.097999
 31
0.0
  0
LINE
  8
0
 62
   249
 10
223.137099
 20
4.525739
 30
0.0
 11
223.709359
 21
5.097999
 31
0.0
  0
LINE
  8
0
 62
   249
 10
223.137099
 20
4.649483
 30
0.0
 11
223.585615
 21
5.097999
 31
0.0
  0
LINE
  8
0
 62
   249
 10
223.137099
 20
4.773227
 30
0.0
 11
223.461872
 21
5.097999
 31
0.0
  0
LINE
  8
0
 62
   249
 10
223.137099
 20
4.89697
 30
0.0
 11
223.338128
 21
5.097999
 31
0.0
  0
LINE
  8
0
 62
   249
 10
223.137099
 20
5.020714
 30
0.0
 11
223.214384
 21
5.097999
 31
0.0
  0
LINE
  8
0
 62
   249
 10
223.137099
 20
2.422096
 30
0.0
 11
225.097099
 21
4.382096
 31
0.0
  0
LINE
  8
0
 62
   249
 10
223.137099
 20
2.298353
 30
0.0
 11
225.097099
 21
4.258353
 31
0.0
  0
LINE
  8
0
 62
   249
 10
223.137099
 20
2.174609
 30
0.0
 11
225.097099
 21
4.134609
 31
0.0
  0
LINE
  8
0
 62
   249
 10
223.137099
 20
2.050865
 30
0.0
 11
225.097099
 21
4.010865
 31
0.0
  0
LINE
  8
0
 62
   249
 10
223.137099
 20
1.927122
 30
0.0
 11
225.097099
 21
3.887122
 31
0.0
  0
LINE
  8
0
 62
   249
 10
223.137099
 20
1.803378
 30
0.0
 11
225.097099
 21
3.763378
 31
0.0
  0
LINE
  8
0
 62
   249
 10
223.195464
 20
1.737999
 30
0.0
 11
225.097099
 21
3.639634
 31
0.0
  0
LINE
  8
0
 62
   249
 10
223.319208
 20
1.737999
 30
0.0
 11
225.097099
 21
3.515891
 31
0.0
  0
LINE
  8
0
 62
   249
 10
223.442951
 20
1.737999
 30
0.0
 11
225.097099
 21
3.392147
 31
0.0
  0
LINE
  8
0
 62
   249
 10
223.566695
 20
1.737999
 30
0.0
 11
225.097099
 21
3.268403
 31
0.0
  0
LINE
  8
0
 62
   249
 10
223.690439
 20
1.737999
 30
0.0
 11
225.097099
 21
3.14466
 31
0.0
  0
LINE
  8
0
 62
   249
 10
223.814182
 20
1.737999
 30
0.0
 11
225.097099
 21
3.020916
 31
0.0
  0
LINE
  8
0
 62
   249
 10
223.937926
 20
1.737999
 30
0.0
 11
225.097099
 21
2.897172
 31
0.0
  0
LINE
  8
0
 62
   249
 10
224.06167
 20
1.737999
 30
0.0
 11
225.097099
 21
2.773429
 31
0.0
  0
LINE
  8
0
 62
   249
 10
224.185413
 20
1.737999
 30
0.0
 11
225.097099
 21
2.649685
 31
0.0
  0
LINE
  8
0
 62
   249
 10
224.309157
 20
1.737999
 30
0.0
 11
225.097099
 21
2.525941
 31
0.0
  0
LINE
  8
0
 62
   249
 10
224.432901
 20
1.737999
 30
0.0
 11
225.097099
 21
2.402197
 31
0.0
  0
LINE
  8
0
 62
   249
 10
224.556645
 20
1.737999
 30
0.0
 11
225.097099
 21
2.278454
 31
0.0
  0
LINE
  8
0
 62
   249
 10
224.680388
 20
1.737999
 30
0.0
 11
225.097099
 21
2.15471
 31
0.0
  0
LINE
  8
0
 62
   249
 10
224.804132
 20
1.737999
 30
0.0
 11
225.097099
 21
2.030966
 31
0.0
  0
LINE
  8
0
 62
   249
 10
224.927876
 20
1.737999
 30
0.0
 11
225.097099
 21
1.907223
 31
0.0
  0
LINE
  8
0
 62
   249
 10
225.051619
 20
1.737999
 30
0.0
 11
225.097099
 21
1.783479
 31
0.0
  0
LINE
  8
0
 62
   249
 10
213.331108
 20
40.783527
 30
0.0
 11
217.331108
 21
40.783527
 31
0.0
  0
INSERT
  8
0
 62
   249
  2
WKU130
 10
213.671057
 20
39.057974
 30
0.0
 41
0.8
 42
0.8
 43
0.8
  0
TEXT
  8
0
  6
CONTINUOUS
 62
   249
 10
211.853328
 20
41.513635
 30
0.0
 40
2.0
  1
+
  0
TEXT
  8
0
  6
CONTINUOUS
 62
   249
 10
216.844763
 20
41.50558
 30
0.0
 40
2.0
  1
-
  0
INSERT
  8
0
  6
CENTER
 62
   249
  2
BLC5
 10
232.791926
 20
40.842005
 30
0.0
 41
0.6
 42
0.6
 43
0.6
  0
3DFACE
  8
0
  6
CONTINUOUS
 62
   249
 10
254.319436
 20
128.444542
 30
0.0
 11
254.333156
 21
128.444542
 31
0.0
 12
254.333156
 22
129.424542
 32
0.0
 13
254.319436
 23
129.424542
 33
0.0
  0
3DFACE
  8
0
  6
CONTINUOUS
 62
   249
 10
254.333156
 20
128.444542
 30
0.0
 11
254.346876
 21
128.444542
 31
0.0
 12
254.346876
 22
129.424542
 32
0.0
 13
254.333156
 23
129.424542
 33
0.0
  0
3DFACE
  8
0
  6
CONTINUOUS
 62
   249
 10
254.346876
 20
128.444542
 30
0.0
 11
254.360596
 21
128.444542
 31
0.0
 12
254.360596
 22
129.424542
 32
0.0
 13
254.346876
 23
129.424542
 33
0.0
  0
3DFACE
  8
0
  6
CONTINUOUS
 62
   249
 10
254.360596
 20
128.444542
 30
0.0
 11
254.374316
 21
128.444542
 31
0.0
 12
254.374316
 22
129.424542
 32
0.0
 13
254.360596
 23
129.424542
 33
0.0
  0
3DFACE
  8
0
  6
CONTINUOUS
 62
   249
 10
254.374316
 20
128.444542
 30
0.0
 11
254.388036
 21
128.444542
 31
0.0
 12
254.388036
 22
129.424542
 32
0.0
 13
254.374316
 23
129.424542
 33
0.0
  0
3DFACE
  8
0
  6
CONTINUOUS
 62
   249
 10
254.388036
 20
128.444542
 30
0.0
 11
254.401756
 21
128.444542
 31
0.0
 12
254.401756
 22
129.424542
 32
0.0
 13
254.388036
 23
129.424542
 33
0.0
  0
3DFACE
  8
0
  6
CONTINUOUS
 62
   249
 10
254.401756
 20
128.444542
 30
0.0
 11
254.415476
 21
128.444542
 31
0.0
 12
254.415476
 22
129.424542
 32
0.0
 13
254.401756
 23
129.424542
 33
0.0
  0
3DFACE
  8
0
  6
CONTINUOUS
 62
   249
 10
254.415476
 20
128.444542
 30
0.0
 11
254.429196
 21
128.444542
 31
0.0
 12
254.429196
 22
129.424542
 32
0.0
 13
254.415476
 23
129.424542
 33
0.0
  0
3DFACE
  8
0
  6
CONTINUOUS
 62
   249
 10
254.429196
 20
128.444542
 30
0.0
 11
254.442916
 21
128.444542
 31
0.0
 12
254.442916
 22
129.424542
 32
0.0
 13
254.429196
 23
129.424542
 33
0.0
  0
3DFACE
  8
0
  6
CONTINUOUS
 62
   249
 10
254.442916
 20
128.444542
 30
0.0
 11
254.456636
 21
128.444542
 31
0.0
 12
254.456636
 22
129.424542
 32
0.0
 13
254.442916
 23
129.424542
 33
0.0
  0
3DFACE
  8
0
  6
CONTINUOUS
 62
   249
 10
254.456636
 20
128.444542
 30
0.0
 11
254.470356
 21
128.444542
 31
0.0
 12
254.470356
 22
129.424542
 32
0.0
 13
254.456636
 23
129.424542
 33
0.0
  0
3DFACE
  8
0
  6
CONTINUOUS
 62
   249
 10
254.470356
 20
128.444542
 30
0.0
 11
254.484076
 21
128.444542
 31
0.0
 12
254.484076
 22
129.424542
 32
0.0
 13
254.470356
 23
129.424542
 33
0.0
  0
3DFACE
  8
0
  6
CONTINUOUS
 62
   249
 10
254.484076
 20
128.444542
 30
0.0
 11
254.497796
 21
128.444542
 31
0.0
 12
254.497796
 22
129.424542
 32
0.0
 13
254.484076
 23
129.424542
 33
0.0
  0
3DFACE
  8
0
  6
CONTINUOUS
 62
   249
 10
254.497796
 20
128.444542
 30
0.0
 11
254.511516
 21
128.444542
 31
0.0
 12
254.511516
 22
129.424542
 32
0.0
 13
254.497796
 23
129.424542
 33
0.0
  0
3DFACE
  8
0
  6
CONTINUOUS
 62
   249
 10
254.511516
 20
128.444542
 30
0.0
 11
254.525236
 21
128.444542
 31
0.0
 12
254.525236
 22
129.424542
 32
0.0
 13
254.511516
 23
129.424542
 33
0.0
  0
3DFACE
  8
0
  6
CONTINUOUS
 62
   249
 10
254.525236
 20
128.444542
 30
0.0
 11
254.538956
 21
128.444542
 31
0.0
 12
254.538956
 22
129.424542
 32
0.0
 13
254.525236
 23
129.424542
 33
0.0
  0
3DFACE
  8
0
  6
CONTINUOUS
 62
   249
 10
254.538956
 20
128.444542
 30
0.0
 11
254.552676
 21
128.444542
 31
0.0
 12
254.552676
 22
129.424542
 32
0.0
 13
254.538956
 23
129.424542
 33
0.0
  0
3DFACE
  8
0
  6
CONTINUOUS
 62
   249
 10
254.552676
 20
128.444542
 30
0.0
 11
254.566396
 21
128.444542
 31
0.0
 12
254.566396
 22
129.424542
 32
0.0
 13
254.552676
 23
129.424542
 33
0.0
  0
3DFACE
  8
0
  6
CONTINUOUS
 62
   249
 10
254.566396
 20
128.444542
 30
0.0
 11
254.580116
 21
128.444542
 31
0.0
 12
254.580116
 22
129.424542
 32
0.0
 13
254.566396
 23
129.424542
 33
0.0
  0
3DFACE
  8
0
  6
CONTINUOUS
 62
   249
 10
254.580116
 20
128.444542
 30
0.0
 11
254.593836
 21
128.444542
 31
0.0
 12
254.593836
 22
129.424542
 32
0.0
 13
254.580116
 23
129.424542
 33
0.0
  0
3DFACE
  8
0
  6
CONTINUOUS
 62
   249
 10
254.593836
 20
128.444542
 30
0.0
 11
254.607556
 21
128.444542
 31
0.0
 12
254.607556
 22
129.424542
 32
0.0
 13
254.593836
 23
129.424542
 33
0.0
  0
3DFACE
  8
0
  6
CONTINUOUS
 62
   249
 10
254.607556
 20
128.444542
 30
0.0
 11
254.621276
 21
128.444542
 31
0.0
 12
254.621276
 22
129.424542
 32
0.0
 13
254.607556
 23
129.424542
 33
0.0
  0
3DFACE
  8
0
  6
CONTINUOUS
 62
   249
 10
254.621276
 20
128.444542
 30
0.0
 11
254.634996
 21
128.444542
 31
0.0
 12
254.634996
 22
129.424542
 32
0.0
 13
254.621276
 23
129.424542
 33
0.0
  0
3DFACE
  8
0
  6
CONTINUOUS
 62
   249
 10
254.634996
 20
128.444542
 30
0.0
 11
254.648716
 21
128.444542
 31
0.0
 12
254.648716
 22
129.424542
 32
0.0
 13
254.634996
 23
129.424542
 33
0.0
  0
3DFACE
  8
0
  6
CONTINUOUS
 62
   249
 10
254.648716
 20
128.444542
 30
0.0
 11
254.662436
 21
128.444542
 31
0.0
 12
254.662436
 22
129.424542
 32
0.0
 13
254.648716
 23
129.424542
 33
0.0
  0
3DFACE
  8
0
  6
CONTINUOUS
 62
   249
 10
254.662436
 20
128.444542
 30
0.0
 11
254.676156
 21
128.444542
 31
0.0
 12
254.676156
 22
129.424542
 32
0.0
 13
254.662436
 23
129.424542
 33
0.0
  0
3DFACE
  8
0
  6
CONTINUOUS
 62
   249
 10
254.676156
 20
128.444542
 30
0.0
 11
254.689876
 21
128.444542
 31
0.0
 12
254.689876
 22
129.424542
 32
0.0
 13
254.676156
 23
129.424542
 33
0.0
  0
3DFACE
  8
0
  6
CONTINUOUS
 62
   249
 10
254.689876
 20
128.444542
 30
0.0
 11
254.703596
 21
128.444542
 31
0.0
 12
254.703596
 22
129.424542
 32
0.0
 13
254.689876
 23
129.424542
 33
0.0
  0
3DFACE
  8
0
  6
CONTINUOUS
 62
   249
 10
254.703596
 20
128.444542
 30
0.0
 11
254.717316
 21
128.444542
 31
0.0
 12
254.717316
 22
129.424542
 32
0.0
 13
254.703596
 23
129.424542
 33
0.0
  0
3DFACE
  8
0
  6
CONTINUOUS
 62
   249
 10
254.717316
 20
128.444542
 30
0.0
 11
254.731036
 21
128.444542
 31
0.0
 12
254.731036
 22
129.424542
 32
0.0
 13
254.717316
 23
129.424542
 33
0.0
  0
3DFACE
  8
0
  6
CONTINUOUS
 62
   249
 10
254.731036
 20
128.444542
 30
0.0
 11
254.744756
 21
128.444542
 31
0.0
 12
254.744756
 22
129.424542
 32
0.0
 13
254.731036
 23
129.424542
 33
0.0
  0
3DFACE
  8
0
  6
CONTINUOUS
 62
   249
 10
254.744756
 20
128.444542
 30
0.0
 11
254.758476
 21
128.444542
 31
0.0
 12
254.758476
 22
129.424542
 32
0.0
 13
254.744756
 23
129.424542
 33
0.0
  0
3DFACE
  8
0
  6
CONTINUOUS
 62
   249
 10
254.758476
 20
128.444542
 30
0.0
 11
254.772196
 21
128.444542
 31
0.0
 12
254.772196
 22
129.424542
 32
0.0
 13
254.758476
 23
129.424542
 33
0.0
  0
3DFACE
  8
0
  6
CONTINUOUS
 62
   249
 10
254.772196
 20
128.444542
 30
0.0
 11
254.785916
 21
128.444542
 31
0.0
 12
254.785916
 22
129.424542
 32
0.0
 13
254.772196
 23
129.424542
 33
0.0
  0
3DFACE
  8
0
  6
CONTINUOUS
 62
   249
 10
254.785916
 20
128.444542
 30
0.0
 11
254.799636
 21
128.444542
 31
0.0
 12
254.799636
 22
129.424542
 32
0.0
 13
254.785916
 23
129.424542
 33
0.0
  0
3DFACE
  8
0
  6
CONTINUOUS
 62
   249
 10
254.799636
 20
128.444542
 30
0.0
 11
254.813356
 21
128.444542
 31
0.0
 12
254.813356
 22
129.424542
 32
0.0
 13
254.799636
 23
129.424542
 33
0.0
  0
3DFACE
  8
0
  6
CONTINUOUS
 62
   249
 10
254.813356
 20
128.444542
 30
0.0
 11
254.827076
 21
128.444542
 31
0.0
 12
254.827076
 22
129.424542
 32
0.0
 13
254.813356
 23
129.424542
 33
0.0
  0
3DFACE
  8
0
  6
CONTINUOUS
 62
   249
 10
254.827076
 20
128.444542
 30
0.0
 11
254.840796
 21
128.444542
 31
0.0
 12
254.840796
 22
129.424542
 32
0.0
 13
254.827076
 23
129.424542
 33
0.0
  0
3DFACE
  8
0
  6
CONTINUOUS
 62
   249
 10
254.840796
 20
128.444542
 30
0.0
 11
254.854516
 21
128.444542
 31
0.0
 12
254.854516
 22
129.424542
 32
0.0
 13
254.840796
 23
129.424542
 33
0.0
  0
3DFACE
  8
0
  6
CONTINUOUS
 62
   249
 10
254.854516
 20
128.444542
 30
0.0
 11
254.868236
 21
128.444542
 31
0.0
 12
254.868236
 22
129.424542
 32
0.0
 13
254.854516
 23
129.424542
 33
0.0
  0
3DFACE
  8
0
  6
CONTINUOUS
 62
   249
 10
254.868236
 20
128.444542
 30
0.0
 11
254.881956
 21
128.444542
 31
0.0
 12
254.881956
 22
129.424542
 32
0.0
 13
254.868236
 23
129.424542
 33
0.0
  0
3DFACE
  8
0
  6
CONTINUOUS
 62
   249
 10
254.881956
 20
128.444542
 30
0.0
 11
254.895676
 21
128.444542
 31
0.0
 12
254.895676
 22
129.424542
 32
0.0
 13
254.881956
 23
129.424542
 33
0.0
  0
3DFACE
  8
0
  6
CONTINUOUS
 62
   249
 10
254.895676
 20
128.444542
 30
0.0
 11
254.909396
 21
128.444542
 31
0.0
 12
254.909396
 22
129.424542
 32
0.0
 13
254.895676
 23
129.424542
 33
0.0
  0
3DFACE
  8
0
  6
CONTINUOUS
 62
   249
 10
254.909396
 20
128.444542
 30
0.0
 11
254.923116
 21
128.444542
 31
0.0
 12
254.923116
 22
129.424542
 32
0.0
 13
254.909396
 23
129.424542
 33
0.0
  0
3DFACE
  8
0
  6
CONTINUOUS
 62
   249
 10
254.923116
 20
128.444542
 30
0.0
 11
254.936836
 21
128.444542
 31
0.0
 12
254.936836
 22
129.424542
 32
0.0
 13
254.923116
 23
129.424542
 33
0.0
  0
3DFACE
  8
0
  6
CONTINUOUS
 62
   249
 10
254.936836
 20
128.444542
 30
0.0
 11
254.950556
 21
128.444542
 31
0.0
 12
254.950556
 22
129.424542
 32
0.0
 13
254.936836
 23
129.424542
 33
0.0
  0
3DFACE
  8
0
  6
CONTINUOUS
 62
   249
 10
254.950556
 20
128.444542
 30
0.0
 11
254.964276
 21
128.444542
 31
0.0
 12
254.964276
 22
129.424542
 32
0.0
 13
254.950556
 23
129.424542
 33
0.0
  0
3DFACE
  8
0
  6
CONTINUOUS
 62
   249
 10
254.964276
 20
128.444542
 30
0.0
 11
254.977996
 21
128.444542
 31
0.0
 12
254.977996
 22
129.424542
 32
0.0
 13
254.964276
 23
129.424542
 33
0.0
  0
3DFACE
  8
0
  6
CONTINUOUS
 62
   249
 10
254.977996
 20
128.444542
 30
0.0
 11
254.991716
 21
128.444542
 31
0.0
 12
254.991716
 22
129.424542
 32
0.0
 13
254.977996
 23
129.424542
 33
0.0
  0
3DFACE
  8
0
  6
CONTINUOUS
 62
   249
 10
254.991716
 20
128.444542
 30
0.0
 11
255.005436
 21
128.444542
 31
0.0
 12
255.005436
 22
129.424542
 32
0.0
 13
254.991716
 23
129.424542
 33
0.0
  0
3DFACE
  8
0
  6
CONTINUOUS
 62
   249
 10
255.005436
 20
128.444542
 30
0.0
 11
255.019156
 21
128.444542
 31
0.0
 12
255.019156
 22
129.424542
 32
0.0
 13
255.005436
 23
129.424542
 33
0.0
  0
3DFACE
  8
0
  6
CONTINUOUS
 62
   249
 10
255.019156
 20
128.444542
 30
0.0
 11
255.032876
 21
128.444542
 31
0.0
 12
255.032876
 22
129.424542
 32
0.0
 13
255.019156
 23
129.424542
 33
0.0
  0
3DFACE
  8
0
  6
CONTINUOUS
 62
   249
 10
255.032876
 20
128.444542
 30
0.0
 11
255.046596
 21
128.444542
 31
0.0
 12
255.046596
 22
129.424542
 32
0.0
 13
255.032876
 23
129.424542
 33
0.0
  0
3DFACE
  8
0
  6
CONTINUOUS
 62
   249
 10
255.046596
 20
128.444542
 30
0.0
 11
255.060316
 21
128.444542
 31
0.0
 12
255.060316
 22
129.424542
 32
0.0
 13
255.046596
 23
129.424542
 33
0.0
  0
3DFACE
  8
0
  6
CONTINUOUS
 62
   249
 10
255.060316
 20
128.444542
 30
0.0
 11
255.074036
 21
128.444542
 31
0.0
 12
255.074036
 22
129.424542
 32
0.0
 13
255.060316
 23
129.424542
 33
0.0
  0
3DFACE
  8
0
  6
CONTINUOUS
 62
   249
 10
255.074036
 20
128.444542
 30
0.0
 11
255.087756
 21
128.444542
 31
0.0
 12
255.087756
 22
129.424542
 32
0.0
 13
255.074036
 23
129.424542
 33
0.0
  0
3DFACE
  8
0
  6
CONTINUOUS
 62
   249
 10
255.087756
 20
128.444542
 30
0.0
 11
255.101476
 21
128.444542
 31
0.0
 12
255.101476
 22
129.424542
 32
0.0
 13
255.087756
 23
129.424542
 33
0.0
  0
3DFACE
  8
0
  6
CONTINUOUS
 62
   249
 10
255.101476
 20
128.444542
 30
0.0
 11
255.115196
 21
128.444542
 31
0.0
 12
255.115196
 22
129.424542
 32
0.0
 13
255.101476
 23
129.424542
 33
0.0
  0
3DFACE
  8
0
  6
CONTINUOUS
 62
   249
 10
255.115196
 20
128.444542
 30
0.0
 11
255.128916
 21
128.444542
 31
0.0
 12
255.128916
 22
129.424542
 32
0.0
 13
255.115196
 23
129.424542
 33
0.0
  0
3DFACE
  8
0
  6
CONTINUOUS
 62
   249
 10
255.128916
 20
128.444542
 30
0.0
 11
255.142636
 21
128.444542
 31
0.0
 12
255.142636
 22
129.424542
 32
0.0
 13
255.128916
 23
129.424542
 33
0.0
  0
3DFACE
  8
0
  6
CONTINUOUS
 62
   249
 10
255.142636
 20
128.444542
 30
0.0
 11
255.156356
 21
128.444542
 31
0.0
 12
255.156356
 22
129.424542
 32
0.0
 13
255.142636
 23
129.424542
 33
0.0
  0
3DFACE
  8
0
  6
CONTINUOUS
 62
   249
 10
255.156356
 20
128.444542
 30
0.0
 11
255.170076
 21
128.444542
 31
0.0
 12
255.170076
 22
129.424542
 32
0.0
 13
255.156356
 23
129.424542
 33
0.0
  0
3DFACE
  8
0
  6
CONTINUOUS
 62
   249
 10
255.170076
 20
128.444542
 30
0.0
 11
255.183796
 21
128.444542
 31
0.0
 12
255.183796
 22
129.424542
 32
0.0
 13
255.170076
 23
129.424542
 33
0.0
  0
3DFACE
  8
0
  6
CONTINUOUS
 62
   249
 10
255.183796
 20
128.444542
 30
0.0
 11
255.197516
 21
128.444542
 31
0.0
 12
255.197516
 22
129.424542
 32
0.0
 13
255.183796
 23
129.424542
 33
0.0
  0
3DFACE
  8
0
  6
CONTINUOUS
 62
   249
 10
255.197516
 20
128.444542
 30
0.0
 11
255.211236
 21
128.444542
 31
0.0
 12
255.211236
 22
129.424542
 32
0.0
 13
255.197516
 23
129.424542
 33
0.0
  0
3DFACE
  8
0
  6
CONTINUOUS
 62
   249
 10
255.211236
 20
128.444542
 30
0.0
 11
255.224956
 21
128.444542
 31
0.0
 12
255.224956
 22
129.424542
 32
0.0
 13
255.211236
 23
129.424542
 33
0.0
  0
3DFACE
  8
0
  6
CONTINUOUS
 62
   249
 10
255.224956
 20
128.444542
 30
0.0
 11
255.238676
 21
128.444542
 31
0.0
 12
255.238676
 22
129.424542
 32
0.0
 13
255.224956
 23
129.424542
 33
0.0
  0
3DFACE
  8
0
  6
CONTINUOUS
 62
   249
 10
255.238676
 20
128.444542
 30
0.0
 11
255.252396
 21
128.444542
 31
0.0
 12
255.252396
 22
129.424542
 32
0.0
 13
255.238676
 23
129.424542
 33
0.0
  0
3DFACE
  8
0
  6
CONTINUOUS
 62
   249
 10
255.252396
 20
128.444542
 30
0.0
 11
255.266116
 21
128.444542
 31
0.0
 12
255.266116
 22
129.424542
 32
0.0
 13
255.252396
 23
129.424542
 33
0.0
  0
3DFACE
  8
0
  6
CONTINUOUS
 62
   249
 10
255.266116
 20
128.444542
 30
0.0
 11
255.279836
 21
128.444542
 31
0.0
 12
255.279836
 22
129.424542
 32
0.0
 13
255.266116
 23
129.424542
 33
0.0
  0
3DFACE
  8
0
  6
CONTINUOUS
 62
   249
 10
255.279836
 20
128.444542
 30
0.0
 11
255.293556
 21
128.444542
 31
0.0
 12
255.293556
 22
129.424542
 32
0.0
 13
255.279836
 23
129.424542
 33
0.0
  0
3DFACE
  8
0
  6
CONTINUOUS
 62
   249
 10
255.293556
 20
128.444542
 30
0.0
 11
255.307276
 21
128.444542
 31
0.0
 12
255.307276
 22
129.424542
 32
0.0
 13
255.293556
 23
129.424542
 33
0.0
  0
3DFACE
  8
0
  6
CONTINUOUS
 62
   249
 10
255.307276
 20
128.444542
 30
0.0
 11
255.320996
 21
128.444542
 31
0.0
 12
255.320996
 22
129.424542
 32
0.0
 13
255.307276
 23
129.424542
 33
0.0
  0
3DFACE
  8
0
  6
CONTINUOUS
 62
   249
 10
255.320996
 20
128.444542
 30
0.0
 11
255.334716
 21
128.444542
 31
0.0
 12
255.334716
 22
129.424542
 32
0.0
 13
255.320996
 23
129.424542
 33
0.0
  0
3DFACE
  8
0
  6
CONTINUOUS
 62
   249
 10
255.334716
 20
128.444542
 30
0.0
 11
255.348436
 21
128.444542
 31
0.0
 12
255.348436
 22
129.424542
 32
0.0
 13
255.334716
 23
129.424542
 33
0.0
  0
3DFACE
  8
0
  6
CONTINUOUS
 62
   249
 10
255.348436
 20
128.444542
 30
0.0
 11
255.362156
 21
128.444542
 31
0.0
 12
255.362156
 22
129.424542
 32
0.0
 13
255.348436
 23
129.424542
 33
0.0
  0
3DFACE
  8
0
  6
CONTINUOUS
 62
   249
 10
255.362156
 20
128.444542
 30
0.0
 11
255.375876
 21
128.444542
 31
0.0
 12
255.375876
 22
129.424542
 32
0.0
 13
255.362156
 23
129.424542
 33
0.0
  0
3DFACE
  8
0
  6
CONTINUOUS
 62
   249
 10
255.375876
 20
128.444542
 30
0.0
 11
255.389596
 21
128.444542
 31
0.0
 12
255.389596
 22
129.424542
 32
0.0
 13
255.375876
 23
129.424542
 33
0.0
  0
3DFACE
  8
0
  6
CONTINUOUS
 62
   249
 10
255.389596
 20
128.444542
 30
0.0
 11
255.403316
 21
128.444542
 31
0.0
 12
255.403316
 22
129.424542
 32
0.0
 13
255.389596
 23
129.424542
 33
0.0
  0
3DFACE
  8
0
  6
CONTINUOUS
 62
   249
 10
255.403316
 20
128.444542
 30
0.0
 11
255.417036
 21
128.444542
 31
0.0
 12
255.417036
 22
129.424542
 32
0.0
 13
255.403316
 23
129.424542
 33
0.0
  0
3DFACE
  8
0
  6
CONTINUOUS
 62
   249
 10
255.417036
 20
128.444542
 30
0.0
 11
255.430756
 21
128.444542
 31
0.0
 12
255.430756
 22
129.424542
 32
0.0
 13
255.417036
 23
129.424542
 33
0.0
  0
3DFACE
  8
0
  6
CONTINUOUS
 62
   249
 10
255.430756
 20
128.444542
 30
0.0
 11
255.444476
 21
128.444542
 31
0.0
 12
255.444476
 22
129.424542
 32
0.0
 13
255.430756
 23
129.424542
 33
0.0
  0
3DFACE
  8
0
  6
CONTINUOUS
 62
   249
 10
255.444476
 20
128.444542
 30
0.0
 11
255.458196
 21
128.444542
 31
0.0
 12
255.458196
 22
129.424542
 32
0.0
 13
255.444476
 23
129.424542
 33
0.0
  0
3DFACE
  8
0
  6
CONTINUOUS
 62
   249
 10
255.458196
 20
128.444542
 30
0.0
 11
255.471916
 21
128.444542
 31
0.0
 12
255.471916
 22
129.424542
 32
0.0
 13
255.458196
 23
129.424542
 33
0.0
  0
3DFACE
  8
0
  6
CONTINUOUS
 62
   249
 10
255.471916
 20
128.444542
 30
0.0
 11
255.485636
 21
128.444542
 31
0.0
 12
255.485636
 22
129.424542
 32
0.0
 13
255.471916
 23
129.424542
 33
0.0
  0
3DFACE
  8
0
  6
CONTINUOUS
 62
   249
 10
255.485636
 20
128.444542
 30
0.0
 11
255.499356
 21
128.444542
 31
0.0
 12
255.499356
 22
129.424542
 32
0.0
 13
255.485636
 23
129.424542
 33
0.0
  0
3DFACE
  8
0
  6
CONTINUOUS
 62
   249
 10
255.499356
 20
128.444542
 30
0.0
 11
255.513076
 21
128.444542
 31
0.0
 12
255.513076
 22
129.424542
 32
0.0
 13
255.499356
 23
129.424542
 33
0.0
  0
3DFACE
  8
0
  6
CONTINUOUS
 62
   249
 10
255.513076
 20
128.444542
 30
0.0
 11
255.526796
 21
128.444542
 31
0.0
 12
255.526796
 22
129.424542
 32
0.0
 13
255.513076
 23
129.424542
 33
0.0
  0
3DFACE
  8
0
  6
CONTINUOUS
 62
   249
 10
255.526796
 20
128.444542
 30
0.0
 11
255.540516
 21
128.444542
 31
0.0
 12
255.540516
 22
129.424542
 32
0.0
 13
255.526796
 23
129.424542
 33
0.0
  0
3DFACE
  8
0
  6
CONTINUOUS
 62
   249
 10
255.540516
 20
128.444542
 30
0.0
 11
255.554236
 21
128.444542
 31
0.0
 12
255.554236
 22
129.424542
 32
0.0
 13
255.540516
 23
129.424542
 33
0.0
  0
3DFACE
  8
0
  6
CONTINUOUS
 62
   249
 10
255.554236
 20
128.444542
 30
0.0
 11
255.567956
 21
128.444542
 31
0.0
 12
255.567956
 22
129.424542
 32
0.0
 13
255.554236
 23
129.424542
 33
0.0
  0
3DFACE
  8
0
  6
CONTINUOUS
 62
   249
 10
255.567956
 20
128.444542
 30
0.0
 11
255.581676
 21
128.444542
 31
0.0
 12
255.581676
 22
129.424542
 32
0.0
 13
255.567956
 23
129.424542
 33
0.0
  0
3DFACE
  8
0
  6
CONTINUOUS
 62
   249
 10
255.581676
 20
128.444542
 30
0.0
 11
255.595396
 21
128.444542
 31
0.0
 12
255.595396
 22
129.424542
 32
0.0
 13
255.581676
 23
129.424542
 33
0.0
  0
3DFACE
  8
0
  6
CONTINUOUS
 62
   249
 10
255.595396
 20
128.444542
 30
0.0
 11
255.609116
 21
128.444542
 31
0.0
 12
255.609116
 22
129.424542
 32
0.0
 13
255.595396
 23
129.424542
 33
0.0
  0
3DFACE
  8
0
  6
CONTINUOUS
 62
   249
 10
255.609116
 20
128.444542
 30
0.0
 11
255.622836
 21
128.444542
 31
0.0
 12
255.622836
 22
129.424542
 32
0.0
 13
255.609116
 23
129.424542
 33
0.0
  0
3DFACE
  8
0
  6
CONTINUOUS
 62
   249
 10
255.622836
 20
128.444542
 30
0.0
 11
255.636556
 21
128.444542
 31
0.0
 12
255.636556
 22
129.424542
 32
0.0
 13
255.622836
 23
129.424542
 33
0.0
  0
3DFACE
  8
0
  6
CONTINUOUS
 62
   249
 10
255.636556
 20
128.444542
 30
0.0
 11
255.650276
 21
128.444542
 31
0.0
 12
255.650276
 22
129.424542
 32
0.0
 13
255.636556
 23
129.424542
 33
0.0
  0
3DFACE
  8
0
  6
CONTINUOUS
 62
   249
 10
255.650276
 20
128.444542
 30
0.0
 11
255.663996
 21
128.444542
 31
0.0
 12
255.663996
 22
129.424542
 32
0.0
 13
255.650276
 23
129.424542
 33
0.0
  0
3DFACE
  8
0
  6
CONTINUOUS
 62
   249
 10
255.663996
 20
128.444542
 30
0.0
 11
255.677716
 21
128.444542
 31
0.0
 12
255.677716
 22
129.424542
 32
0.0
 13
255.663996
 23
129.424542
 33
0.0
  0
3DFACE
  8
0
  6
CONTINUOUS
 62
   249
 10
255.677716
 20
128.444542
 30
0.0
 11
255.691436
 21
128.444542
 31
0.0
 12
255.691436
 22
129.424542
 32
0.0
 13
255.677716
 23
129.424542
 33
0.0
  0
3DFACE
  8
0
  6
CONTINUOUS
 62
   249
 10
255.691436
 20
128.444542
 30
0.0
 11
255.705156
 21
128.444542
 31
0.0
 12
255.705156
 22
129.424542
 32
0.0
 13
255.691436
 23
129.424542
 33
0.0
  0
3DFACE
  8
0
  6
CONTINUOUS
 62
   249
 10
255.705156
 20
128.444542
 30
0.0
 11
255.718876
 21
128.444542
 31
0.0
 12
255.718876
 22
129.424542
 32
0.0
 13
255.705156
 23
129.424542
 33
0.0
  0
3DFACE
  8
0
  6
CONTINUOUS
 62
   249
 10
255.718876
 20
128.444542
 30
0.0
 11
255.732596
 21
128.444542
 31
0.0
 12
255.732596
 22
129.424542
 32
0.0
 13
255.718876
 23
129.424542
 33
0.0
  0
3DFACE
  8
0
  6
CONTINUOUS
 62
   249
 10
255.732596
 20
128.444542
 30
0.0
 11
255.746316
 21
128.444542
 31
0.0
 12
255.746316
 22
129.424542
 32
0.0
 13
255.732596
 23
129.424542
 33
0.0
  0
3DFACE
  8
0
  6
CONTINUOUS
 62
   249
 10
255.746316
 20
128.444542
 30
0.0
 11
255.760036
 21
128.444542
 31
0.0
 12
255.760036
 22
129.424542
 32
0.0
 13
255.746316
 23
129.424542
 33
0.0
  0
3DFACE
  8
0
  6
CONTINUOUS
 62
   249
 10
255.760036
 20
128.444542
 30
0.0
 11
255.773756
 21
128.444542
 31
0.0
 12
255.773756
 22
129.424542
 32
0.0
 13
255.760036
 23
129.424542
 33
0.0
  0
3DFACE
  8
0
  6
CONTINUOUS
 62
   249
 10
255.773756
 20
128.444542
 30
0.0
 11
255.787476
 21
128.444542
 31
0.0
 12
255.787476
 22
129.424542
 32
0.0
 13
255.773756
 23
129.424542
 33
0.0
  0
3DFACE
  8
0
  6
CONTINUOUS
 62
   249
 10
255.787476
 20
128.444542
 30
0.0
 11
255.801196
 21
128.444542
 31
0.0
 12
255.801196
 22
129.424542
 32
0.0
 13
255.787476
 23
129.424542
 33
0.0
  0
3DFACE
  8
0
  6
CONTINUOUS
 62
   249
 10
255.801196
 20
128.444542
 30
0.0
 11
255.814916
 21
128.444542
 31
0.0
 12
255.814916
 22
129.424542
 32
0.0
 13
255.801196
 23
129.424542
 33
0.0
  0
3DFACE
  8
0
  6
CONTINUOUS
 62
   249
 10
255.814916
 20
128.444542
 30
0.0
 11
255.828636
 21
128.444542
 31
0.0
 12
255.828636
 22
129.424542
 32
0.0
 13
255.814916
 23
129.424542
 33
0.0
  0
3DFACE
  8
0
  6
CONTINUOUS
 62
   249
 10
255.828636
 20
128.444542
 30
0.0
 11
255.842356
 21
128.444542
 31
0.0
 12
255.842356
 22
129.424542
 32
0.0
 13
255.828636
 23
129.424542
 33
0.0
  0
3DFACE
  8
0
  6
CONTINUOUS
 62
   249
 10
255.842356
 20
128.444542
 30
0.0
 11
255.856076
 21
128.444542
 31
0.0
 12
255.856076
 22
129.424542
 32
0.0
 13
255.842356
 23
129.424542
 33
0.0
  0
3DFACE
  8
0
  6
CONTINUOUS
 62
   249
 10
255.856076
 20
128.444542
 30
0.0
 11
255.869796
 21
128.444542
 31
0.0
 12
255.869796
 22
129.424542
 32
0.0
 13
255.856076
 23
129.424542
 33
0.0
  0
3DFACE
  8
0
  6
CONTINUOUS
 62
   249
 10
255.869796
 20
128.444542
 30
0.0
 11
255.883516
 21
128.444542
 31
0.0
 12
255.883516
 22
129.424542
 32
0.0
 13
255.869796
 23
129.424542
 33
0.0
  0
3DFACE
  8
0
  6
CONTINUOUS
 62
   249
 10
255.883516
 20
128.444542
 30
0.0
 11
255.897236
 21
128.444542
 31
0.0
 12
255.897236
 22
129.424542
 32
0.0
 13
255.883516
 23
129.424542
 33
0.0
  0
3DFACE
  8
0
  6
CONTINUOUS
 62
   249
 10
255.897236
 20
128.444542
 30
0.0
 11
255.910956
 21
128.444542
 31
0.0
 12
255.910956
 22
129.424542
 32
0.0
 13
255.897236
 23
129.424542
 33
0.0
  0
3DFACE
  8
0
  6
CONTINUOUS
 62
   249
 10
255.910956
 20
128.444542
 30
0.0
 11
255.924676
 21
128.444542
 31
0.0
 12
255.924676
 22
129.424542
 32
0.0
 13
255.910956
 23
129.424542
 33
0.0
  0
3DFACE
  8
0
  6
CONTINUOUS
 62
   249
 10
255.924676
 20
128.444542
 30
0.0
 11
255.938396
 21
128.444542
 31
0.0
 12
255.938396
 22
129.424542
 32
0.0
 13
255.924676
 23
129.424542
 33
0.0
  0
3DFACE
  8
0
  6
CONTINUOUS
 62
   249
 10
255.938396
 20
128.444542
 30
0.0
 11
255.952116
 21
128.444542
 31
0.0
 12
255.952116
 22
129.424542
 32
0.0
 13
255.938396
 23
129.424542
 33
0.0
  0
3DFACE
  8
0
  6
CONTINUOUS
 62
   249
 10
255.952116
 20
128.444542
 30
0.0
 11
255.965836
 21
128.444542
 31
0.0
 12
255.965836
 22
129.424542
 32
0.0
 13
255.952116
 23
129.424542
 33
0.0
  0
3DFACE
  8
0
  6
CONTINUOUS
 62
   249
 10
255.965836
 20
128.444542
 30
0.0
 11
255.979556
 21
128.444542
 31
0.0
 12
255.979556
 22
129.424542
 32
0.0
 13
255.965836
 23
129.424542
 33
0.0
  0
3DFACE
  8
0
  6
CONTINUOUS
 62
   249
 10
255.979556
 20
128.444542
 30
0.0
 11
255.993276
 21
128.444542
 31
0.0
 12
255.993276
 22
129.424542
 32
0.0
 13
255.979556
 23
129.424542
 33
0.0
  0
3DFACE
  8
0
  6
CONTINUOUS
 62
   249
 10
255.993276
 20
128.444542
 30
0.0
 11
256.006996
 21
128.444542
 31
0.0
 12
256.006996
 22
129.424542
 32
0.0
 13
255.993276
 23
129.424542
 33
0.0
  0
3DFACE
  8
0
  6
CONTINUOUS
 62
   249
 10
256.006996
 20
128.444542
 30
0.0
 11
256.020716
 21
128.444542
 31
0.0
 12
256.020716
 22
129.424542
 32
0.0
 13
256.006996
 23
129.424542
 33
0.0
  0
3DFACE
  8
0
  6
CONTINUOUS
 62
   249
 10
256.020716
 20
128.444542
 30
0.0
 11
256.034436
 21
128.444542
 31
0.0
 12
256.034436
 22
129.424542
 32
0.0
 13
256.020716
 23
129.424542
 33
0.0
  0
3DFACE
  8
0
  6
CONTINUOUS
 62
   249
 10
256.034436
 20
128.444542
 30
0.0
 11
256.048156
 21
128.444542
 31
0.0
 12
256.048156
 22
129.424542
 32
0.0
 13
256.034436
 23
129.424542
 33
0.0
  0
3DFACE
  8
0
  6
CONTINUOUS
 62
   249
 10
256.048156
 20
128.444542
 30
0.0
 11
256.061876
 21
128.444542
 31
0.0
 12
256.061876
 22
129.424542
 32
0.0
 13
256.048156
 23
129.424542
 33
0.0
  0
3DFACE
  8
0
  6
CONTINUOUS
 62
   249
 10
256.061876
 20
128.444542
 30
0.0
 11
256.075596
 21
128.444542
 31
0.0
 12
256.075596
 22
129.424542
 32
0.0
 13
256.061876
 23
129.424542
 33
0.0
  0
3DFACE
  8
0
  6
CONTINUOUS
 62
   249
 10
256.075596
 20
128.444542
 30
0.0
 11
256.089316
 21
128.444542
 31
0.0
 12
256.089316
 22
129.424542
 32
0.0
 13
256.075596
 23
129.424542
 33
0.0
  0
3DFACE
  8
0
  6
CONTINUOUS
 62
   249
 10
256.089316
 20
128.444542
 30
0.0
 11
256.103036
 21
128.444542
 31
0.0
 12
256.103036
 22
129.424542
 32
0.0
 13
256.089316
 23
129.424542
 33
0.0
  0
3DFACE
  8
0
  6
CONTINUOUS
 62
   249
 10
256.103036
 20
128.444542
 30
0.0
 11
256.116756
 21
128.444542
 31
0.0
 12
256.116756
 22
129.424542
 32
0.0
 13
256.103036
 23
129.424542
 33
0.0
  0
3DFACE
  8
0
  6
CONTINUOUS
 62
   249
 10
256.116756
 20
128.444542
 30
0.0
 11
256.130476
 21
128.444542
 31
0.0
 12
256.130476
 22
129.424542
 32
0.0
 13
256.116756
 23
129.424542
 33
0.0
  0
3DFACE
  8
0
  6
CONTINUOUS
 62
   249
 10
256.130476
 20
128.444542
 30
0.0
 11
256.144196
 21
128.444542
 31
0.0
 12
256.144196
 22
129.424542
 32
0.0
 13
256.130476
 23
129.424542
 33
0.0
  0
3DFACE
  8
0
  6
CONTINUOUS
 62
   249
 10
256.144196
 20
128.444542
 30
0.0
 11
256.157916
 21
128.444542
 31
0.0
 12
256.157916
 22
129.424542
 32
0.0
 13
256.144196
 23
129.424542
 33
0.0
  0
3DFACE
  8
0
  6
CONTINUOUS
 62
   249
 10
256.157916
 20
128.444542
 30
0.0
 11
256.171636
 21
128.444542
 31
0.0
 12
256.171636
 22
129.424542
 32
0.0
 13
256.157916
 23
129.424542
 33
0.0
  0
3DFACE
  8
0
  6
CONTINUOUS
 62
   249
 10
256.171636
 20
128.444542
 30
0.0
 11
256.185356
 21
128.444542
 31
0.0
 12
256.185356
 22
129.424542
 32
0.0
 13
256.171636
 23
129.424542
 33
0.0
  0
3DFACE
  8
0
  6
CONTINUOUS
 62
   249
 10
256.185356
 20
128.444542
 30
0.0
 11
256.199076
 21
128.444542
 31
0.0
 12
256.199076
 22
129.424542
 32
0.0
 13
256.185356
 23
129.424542
 33
0.0
  0
3DFACE
  8
0
  6
CONTINUOUS
 62
   249
 10
256.199076
 20
128.444542
 30
0.0
 11
256.212796
 21
128.444542
 31
0.0
 12
256.212796
 22
129.424542
 32
0.0
 13
256.199076
 23
129.424542
 33
0.0
  0
3DFACE
  8
0
  6
CONTINUOUS
 62
   249
 10
256.212796
 20
128.444542
 30
0.0
 11
256.226516
 21
128.444542
 31
0.0
 12
256.226516
 22
129.424542
 32
0.0
 13
256.212796
 23
129.424542
 33
0.0
  0
3DFACE
  8
0
  6
CONTINUOUS
 62
   249
 10
256.226516
 20
128.444542
 30
0.0
 11
256.240236
 21
128.444542
 31
0.0
 12
256.240236
 22
129.424542
 32
0.0
 13
256.226516
 23
129.424542
 33
0.0
  0
3DFACE
  8
0
  6
CONTINUOUS
 62
   249
 10
256.240236
 20
128.444542
 30
0.0
 11
256.253956
 21
128.444542
 31
0.0
 12
256.253956
 22
129.424542
 32
0.0
 13
256.240236
 23
129.424542
 33
0.0
  0
3DFACE
  8
0
  6
CONTINUOUS
 62
   249
 10
256.253956
 20
128.444542
 30
0.0
 11
256.267676
 21
128.444542
 31
0.0
 12
256.267676
 22
129.424542
 32
0.0
 13
256.253956
 23
129.424542
 33
0.0
  0
3DFACE
  8
0
  6
CONTINUOUS
 62
   249
 10
256.267676
 20
128.444542
 30
0.0
 11
256.281396
 21
128.444542
 31
0.0
 12
256.281396
 22
129.424542
 32
0.0
 13
256.267676
 23
129.424542
 33
0.0
  0
3DFACE
  8
0
  6
CONTINUOUS
 62
   249
 10
256.281396
 20
128.444542
 30
0.0
 11
256.295116
 21
128.444542
 31
0.0
 12
256.295116
 22
129.424542
 32
0.0
 13
256.281396
 23
129.424542
 33
0.0
  0
3DFACE
  8
0
  6
CONTINUOUS
 62
   249
 10
256.295116
 20
128.444542
 30
0.0
 11
256.308836
 21
128.444542
 31
0.0
 12
256.308836
 22
129.424542
 32
0.0
 13
256.295116
 23
129.424542
 33
0.0
  0
3DFACE
  8
0
  6
CONTINUOUS
 62
   249
 10
256.308836
 20
128.444542
 30
0.0
 11
256.322556
 21
128.444542
 31
0.0
 12
256.322556
 22
129.424542
 32
0.0
 13
256.308836
 23
129.424542
 33
0.0
  0
3DFACE
  8
0
  6
CONTINUOUS
 62
   249
 10
256.322556
 20
128.444542
 30
0.0
 11
256.336276
 21
128.444542
 31
0.0
 12
256.336276
 22
129.424542
 32
0.0
 13
256.322556
 23
129.424542
 33
0.0
  0
3DFACE
  8
0
  6
CONTINUOUS
 62
   249
 10
256.336276
 20
128.444542
 30
0.0
 11
256.349996
 21
128.444542
 31
0.0
 12
256.349996
 22
129.424542
 32
0.0
 13
256.336276
 23
129.424542
 33
0.0
  0
3DFACE
  8
0
  6
CONTINUOUS
 62
   249
 10
256.349996
 20
128.444542
 30
0.0
 11
256.363716
 21
128.444542
 31
0.0
 12
256.363716
 22
129.424542
 32
0.0
 13
256.349996
 23
129.424542
 33
0.0
  0
3DFACE
  8
0
  6
CONTINUOUS
 62
   249
 10
256.363716
 20
128.444542
 30
0.0
 11
256.377436
 21
128.444542
 31
0.0
 12
256.377436
 22
129.424542
 32
0.0
 13
256.363716
 23
129.424542
 33
0.0
  0
3DFACE
  8
0
  6
CONTINUOUS
 62
   249
 10
256.377436
 20
128.444542
 30
0.0
 11
256.391156
 21
128.444542
 31
0.0
 12
256.391156
 22
129.424542
 32
0.0
 13
256.377436
 23
129.424542
 33
0.0
  0
3DFACE
  8
0
  6
CONTINUOUS
 62
   249
 10
256.391156
 20
128.444542
 30
0.0
 11
256.404876
 21
128.444542
 31
0.0
 12
256.404876
 22
129.424542
 32
0.0
 13
256.391156
 23
129.424542
 33
0.0
  0
3DFACE
  8
0
  6
CONTINUOUS
 62
   249
 10
256.404876
 20
128.444542
 30
0.0
 11
256.418596
 21
128.444542
 31
0.0
 12
256.418596
 22
129.424542
 32
0.0
 13
256.404876
 23
129.424542
 33
0.0
  0
3DFACE
  8
0
  6
CONTINUOUS
 62
   249
 10
256.418596
 20
128.444542
 30
0.0
 11
256.432316
 21
128.444542
 31
0.0
 12
256.432316
 22
129.424542
 32
0.0
 13
256.418596
 23
129.424542
 33
0.0
  0
3DFACE
  8
0
  6
CONTINUOUS
 62
   249
 10
256.432316
 20
128.444542
 30
0.0
 11
256.446036
 21
128.444542
 31
0.0
 12
256.446036
 22
129.424542
 32
0.0
 13
256.432316
 23
129.424542
 33
0.0
  0
3DFACE
  8
0
  6
CONTINUOUS
 62
   249
 10
256.446036
 20
128.444542
 30
0.0
 11
256.459756
 21
128.444542
 31
0.0
 12
256.459756
 22
129.424542
 32
0.0
 13
256.446036
 23
129.424542
 33
0.0
  0
3DFACE
  8
0
  6
CONTINUOUS
 62
   249
 10
256.459756
 20
128.444542
 30
0.0
 11
256.473476
 21
128.444542
 31
0.0
 12
256.473476
 22
129.424542
 32
0.0
 13
256.459756
 23
129.424542
 33
0.0
  0
3DFACE
  8
0
  6
CONTINUOUS
 62
   249
 10
256.473476
 20
128.444542
 30
0.0
 11
256.487196
 21
128.444542
 31
0.0
 12
256.487196
 22
129.424542
 32
0.0
 13
256.473476
 23
129.424542
 33
0.0
  0
3DFACE
  8
0
  6
CONTINUOUS
 62
   249
 10
256.487196
 20
128.444542
 30
0.0
 11
256.500916
 21
128.444542
 31
0.0
 12
256.500916
 22
129.424542
 32
0.0
 13
256.487196
 23
129.424542
 33
0.0
  0
3DFACE
  8
0
  6
CONTINUOUS
 62
   249
 10
256.500916
 20
128.444542
 30
0.0
 11
256.514636
 21
128.444542
 31
0.0
 12
256.514636
 22
129.424542
 32
0.0
 13
256.500916
 23
129.424542
 33
0.0
  0
3DFACE
  8
0
  6
CONTINUOUS
 62
   249
 10
256.514636
 20
128.444542
 30
0.0
 11
256.528356
 21
128.444542
 31
0.0
 12
256.528356
 22
129.424542
 32
0.0
 13
256.514636
 23
129.424542
 33
0.0
  0
3DFACE
  8
0
  6
CONTINUOUS
 62
   249
 10
256.528356
 20
128.444542
 30
0.0
 11
256.542076
 21
128.444542
 31
0.0
 12
256.542076
 22
129.424542
 32
0.0
 13
256.528356
 23
129.424542
 33
0.0
  0
3DFACE
  8
0
  6
CONTINUOUS
 62
   249
 10
256.542076
 20
128.444542
 30
0.0
 11
256.555796
 21
128.444542
 31
0.0
 12
256.555796
 22
129.424542
 32
0.0
 13
256.542076
 23
129.424542
 33
0.0
  0
3DFACE
  8
0
  6
CONTINUOUS
 62
   249
 10
256.555796
 20
128.444542
 30
0.0
 11
256.569516
 21
128.444542
 31
0.0
 12
256.569516
 22
129.424542
 32
0.0
 13
256.555796
 23
129.424542
 33
0.0
  0
3DFACE
  8
0
  6
CONTINUOUS
 62
   249
 10
256.569516
 20
128.444542
 30
0.0
 11
256.583236
 21
128.444542
 31
0.0
 12
256.583236
 22
129.424542
 32
0.0
 13
256.569516
 23
129.424542
 33
0.0
  0
3DFACE
  8
0
  6
CONTINUOUS
 62
   249
 10
256.583236
 20
128.444542
 30
0.0
 11
256.596956
 21
128.444542
 31
0.0
 12
256.596956
 22
129.424542
 32
0.0
 13
256.583236
 23
129.424542
 33
0.0
  0
3DFACE
  8
0
  6
CONTINUOUS
 62
   249
 10
256.596956
 20
128.444542
 30
0.0
 11
256.610676
 21
128.444542
 31
0.0
 12
256.610676
 22
129.424542
 32
0.0
 13
256.596956
 23
129.424542
 33
0.0
  0
3DFACE
  8
0
  6
CONTINUOUS
 62
   249
 10
256.610676
 20
128.444542
 30
0.0
 11
256.624396
 21
128.444542
 31
0.0
 12
256.624396
 22
129.424542
 32
0.0
 13
256.610676
 23
129.424542
 33
0.0
  0
3DFACE
  8
0
  6
CONTINUOUS
 62
   249
 10
256.624396
 20
128.444542
 30
0.0
 11
256.638116
 21
128.444542
 31
0.0
 12
256.638116
 22
129.424542
 32
0.0
 13
256.624396
 23
129.424542
 33
0.0
  0
3DFACE
  8
0
  6
CONTINUOUS
 62
   249
 10
256.638116
 20
128.444542
 30
0.0
 11
256.651836
 21
128.444542
 31
0.0
 12
256.651836
 22
129.424542
 32
0.0
 13
256.638116
 23
129.424542
 33
0.0
  0
3DFACE
  8
0
  6
CONTINUOUS
 62
   249
 10
256.651836
 20
128.444542
 30
0.0
 11
256.665556
 21
128.444542
 31
0.0
 12
256.665556
 22
129.424542
 32
0.0
 13
256.651836
 23
129.424542
 33
0.0
  0
3DFACE
  8
0
  6
CONTINUOUS
 62
   249
 10
256.665556
 20
128.444542
 30
0.0
 11
256.679276
 21
128.444542
 31
0.0
 12
256.679276
 22
129.424542
 32
0.0
 13
256.665556
 23
129.424542
 33
0.0
  0
3DFACE
  8
0
  6
CONTINUOUS
 62
   249
 10
256.679276
 20
128.444542
 30
0.0
 11
256.692996
 21
128.444542
 31
0.0
 12
256.692996
 22
129.424542
 32
0.0
 13
256.679276
 23
129.424542
 33
0.0
  0
3DFACE
  8
0
  6
CONTINUOUS
 62
   249
 10
256.692996
 20
128.444542
 30
0.0
 11
256.706716
 21
128.444542
 31
0.0
 12
256.706716
 22
129.424542
 32
0.0
 13
256.692996
 23
129.424542
 33
0.0
  0
3DFACE
  8
0
  6
CONTINUOUS
 62
   249
 10
256.706716
 20
128.444542
 30
0.0
 11
256.720436
 21
128.444542
 31
0.0
 12
256.720436
 22
129.424542
 32
0.0
 13
256.706716
 23
129.424542
 33
0.0
  0
3DFACE
  8
0
  6
CONTINUOUS
 62
   249
 10
256.720436
 20
128.444542
 30
0.0
 11
256.734156
 21
128.444542
 31
0.0
 12
256.734156
 22
129.424542
 32
0.0
 13
256.720436
 23
129.424542
 33
0.0
  0
3DFACE
  8
0
  6
CONTINUOUS
 62
   249
 10
256.734156
 20
128.444542
 30
0.0
 11
256.747876
 21
128.444542
 31
0.0
 12
256.747876
 22
129.424542
 32
0.0
 13
256.734156
 23
129.424542
 33
0.0
  0
3DFACE
  8
0
  6
CONTINUOUS
 62
   249
 10
256.747876
 20
128.444542
 30
0.0
 11
256.761596
 21
128.444542
 31
0.0
 12
256.761596
 22
129.424542
 32
0.0
 13
256.747876
 23
129.424542
 33
0.0
  0
3DFACE
  8
0
  6
CONTINUOUS
 62
   249
 10
256.761596
 20
128.444542
 30
0.0
 11
256.775316
 21
128.444542
 31
0.0
 12
256.775316
 22
129.424542
 32
0.0
 13
256.761596
 23
129.424542
 33
0.0
  0
3DFACE
  8
0
  6
CONTINUOUS
 62
   249
 10
256.775316
 20
128.444542
 30
0.0
 11
256.789036
 21
128.444542
 31
0.0
 12
256.789036
 22
129.424542
 32
0.0
 13
256.775316
 23
129.424542
 33
0.0
  0
3DFACE
  8
0
  6
CONTINUOUS
 62
   249
 10
256.789036
 20
128.444542
 30
0.0
 11
256.802756
 21
128.444542
 31
0.0
 12
256.802756
 22
129.424542
 32
0.0
 13
256.789036
 23
129.424542
 33
0.0
  0
3DFACE
  8
0
  6
CONTINUOUS
 62
   249
 10
256.802756
 20
128.444542
 30
0.0
 11
256.816476
 21
128.444542
 31
0.0
 12
256.816476
 22
129.424542
 32
0.0
 13
256.802756
 23
129.424542
 33
0.0
  0
3DFACE
  8
0
  6
CONTINUOUS
 62
   249
 10
256.816476
 20
128.444542
 30
0.0
 11
256.830196
 21
128.444542
 31
0.0
 12
256.830196
 22
129.424542
 32
0.0
 13
256.816476
 23
129.424542
 33
0.0
  0
3DFACE
  8
0
  6
CONTINUOUS
 62
   249
 10
256.830196
 20
128.444542
 30
0.0
 11
256.843916
 21
128.444542
 31
0.0
 12
256.843916
 22
129.424542
 32
0.0
 13
256.830196
 23
129.424542
 33
0.0
  0
3DFACE
  8
0
  6
CONTINUOUS
 62
   249
 10
256.843916
 20
128.444542
 30
0.0
 11
256.857636
 21
128.444542
 31
0.0
 12
256.857636
 22
129.424542
 32
0.0
 13
256.843916
 23
129.424542
 33
0.0
  0
3DFACE
  8
0
  6
CONTINUOUS
 62
   249
 10
256.857636
 20
128.444542
 30
0.0
 11
256.871356
 21
128.444542
 31
0.0
 12
256.871356
 22
129.424542
 32
0.0
 13
256.857636
 23
129.424542
 33
0.0
  0
3DFACE
  8
0
  6
CONTINUOUS
 62
   249
 10
256.871356
 20
128.444542
 30
0.0
 11
256.885076
 21
128.444542
 31
0.0
 12
256.885076
 22
129.424542
 32
0.0
 13
256.871356
 23
129.424542
 33
0.0
  0
3DFACE
  8
0
  6
CONTINUOUS
 62
   249
 10
256.885076
 20
128.444542
 30
0.0
 11
256.898796
 21
128.444542
 31
0.0
 12
256.898796
 22
129.424542
 32
0.0
 13
256.885076
 23
129.424542
 33
0.0
  0
3DFACE
  8
0
  6
CONTINUOUS
 62
   249
 10
256.898796
 20
128.444542
 30
0.0
 11
256.912516
 21
128.444542
 31
0.0
 12
256.912516
 22
129.424542
 32
0.0
 13
256.898796
 23
129.424542
 33
0.0
  0
3DFACE
  8
0
  6
CONTINUOUS
 62
   249
 10
256.912516
 20
128.444542
 30
0.0
 11
256.926236
 21
128.444542
 31
0.0
 12
256.926236
 22
129.424542
 32
0.0
 13
256.912516
 23
129.424542
 33
0.0
  0
3DFACE
  8
0
  6
CONTINUOUS
 62
   249
 10
256.926236
 20
128.444542
 30
0.0
 11
256.939956
 21
128.444542
 31
0.0
 12
256.939956
 22
129.424542
 32
0.0
 13
256.926236
 23
129.424542
 33
0.0
  0
3DFACE
  8
0
  6
CONTINUOUS
 62
   249
 10
256.939956
 20
128.444542
 30
0.0
 11
256.953676
 21
128.444542
 31
0.0
 12
256.953676
 22
129.424542
 32
0.0
 13
256.939956
 23
129.424542
 33
0.0
  0
3DFACE
  8
0
  6
CONTINUOUS
 62
   249
 10
256.953676
 20
128.444542
 30
0.0
 11
256.967396
 21
128.444542
 31
0.0
 12
256.967396
 22
129.424542
 32
0.0
 13
256.953676
 23
129.424542
 33
0.0
  0
3DFACE
  8
0
  6
CONTINUOUS
 62
   249
 10
256.967396
 20
128.444542
 30
0.0
 11
256.981116
 21
128.444542
 31
0.0
 12
256.981116
 22
129.424542
 32
0.0
 13
256.967396
 23
129.424542
 33
0.0
  0
3DFACE
  8
0
  6
CONTINUOUS
 62
   249
 10
256.981116
 20
128.444542
 30
0.0
 11
256.994836
 21
128.444542
 31
0.0
 12
256.994836
 22
129.424542
 32
0.0
 13
256.981116
 23
129.424542
 33
0.0
  0
3DFACE
  8
0
  6
CONTINUOUS
 62
   249
 10
256.994836
 20
128.444542
 30
0.0
 11
257.008556
 21
128.444542
 31
0.0
 12
257.008556
 22
129.424542
 32
0.0
 13
256.994836
 23
129.424542
 33
0.0
  0
3DFACE
  8
0
  6
CONTINUOUS
 62
   249
 10
257.008556
 20
128.444542
 30
0.0
 11
257.022276
 21
128.444542
 31
0.0
 12
257.022276
 22
129.424542
 32
0.0
 13
257.008556
 23
129.424542
 33
0.0
  0
3DFACE
  8
0
  6
CONTINUOUS
 62
   249
 10
257.022276
 20
128.444542
 30
0.0
 11
257.035996
 21
128.444542
 31
0.0
 12
257.035996
 22
129.424542
 32
0.0
 13
257.022276
 23
129.424542
 33
0.0
  0
3DFACE
  8
0
  6
CONTINUOUS
 62
   249
 10
257.035996
 20
128.444542
 30
0.0
 11
257.049716
 21
128.444542
 31
0.0
 12
257.049716
 22
129.424542
 32
0.0
 13
257.035996
 23
129.424542
 33
0.0
  0
3DFACE
  8
0
  6
CONTINUOUS
 62
   249
 10
257.049716
 20
128.444542
 30
0.0
 11
257.063436
 21
128.444542
 31
0.0
 12
257.063436
 22
129.424542
 32
0.0
 13
257.049716
 23
129.424542
 33
0.0
  0
3DFACE
  8
0
  6
CONTINUOUS
 62
   249
 10
257.063436
 20
128.444542
 30
0.0
 11
257.077156
 21
128.444542
 31
0.0
 12
257.077156
 22
129.424542
 32
0.0
 13
257.063436
 23
129.424542
 33
0.0
  0
3DFACE
  8
0
  6
CONTINUOUS
 62
   249
 10
257.077156
 20
128.444542
 30
0.0
 11
257.090876
 21
128.444542
 31
0.0
 12
257.090876
 22
129.424542
 32
0.0
 13
257.077156
 23
129.424542
 33
0.0
  0
3DFACE
  8
0
  6
CONTINUOUS
 62
   249
 10
257.090876
 20
128.444542
 30
0.0
 11
257.104596
 21
128.444542
 31
0.0
 12
257.104596
 22
129.424542
 32
0.0
 13
257.090876
 23
129.424542
 33
0.0
  0
3DFACE
  8
0
  6
CONTINUOUS
 62
   249
 10
257.104596
 20
128.444542
 30
0.0
 11
257.118316
 21
128.444542
 31
0.0
 12
257.118316
 22
129.424542
 32
0.0
 13
257.104596
 23
129.424542
 33
0.0
  0
3DFACE
  8
0
  6
CONTINUOUS
 62
   249
 10
257.118316
 20
128.444542
 30
0.0
 11
257.132036
 21
128.444542
 31
0.0
 12
257.132036
 22
129.424542
 32
0.0
 13
257.118316
 23
129.424542
 33
0.0
  0
3DFACE
  8
0
  6
CONTINUOUS
 62
   249
 10
257.132036
 20
128.444542
 30
0.0
 11
257.145756
 21
128.444542
 31
0.0
 12
257.145756
 22
129.424542
 32
0.0
 13
257.132036
 23
129.424542
 33
0.0
  0
3DFACE
  8
0
  6
CONTINUOUS
 62
   249
 10
257.145756
 20
128.444542
 30
0.0
 11
257.159476
 21
128.444542
 31
0.0
 12
257.159476
 22
129.424542
 32
0.0
 13
257.145756
 23
129.424542
 33
0.0
  0
3DFACE
  8
0
  6
CONTINUOUS
 62
   249
 10
257.159476
 20
128.444542
 30
0.0
 11
257.173196
 21
128.444542
 31
0.0
 12
257.173196
 22
129.424542
 32
0.0
 13
257.159476
 23
129.424542
 33
0.0
  0
3DFACE
  8
0
  6
CONTINUOUS
 62
   249
 10
257.173196
 20
128.444542
 30
0.0
 11
257.186916
 21
128.444542
 31
0.0
 12
257.186916
 22
129.424542
 32
0.0
 13
257.173196
 23
129.424542
 33
0.0
  0
3DFACE
  8
0
  6
CONTINUOUS
 62
   249
 10
257.186916
 20
128.444542
 30
0.0
 11
257.200636
 21
128.444542
 31
0.0
 12
257.200636
 22
129.424542
 32
0.0
 13
257.186916
 23
129.424542
 33
0.0
  0
3DFACE
  8
0
  6
CONTINUOUS
 62
   249
 10
257.200636
 20
128.444542
 30
0.0
 11
257.214356
 21
128.444542
 31
0.0
 12
257.214356
 22
129.424542
 32
0.0
 13
257.200636
 23
129.424542
 33
0.0
  0
3DFACE
  8
0
  6
CONTINUOUS
 62
   249
 10
257.214356
 20
128.444542
 30
0.0
 11
257.228076
 21
128.444542
 31
0.0
 12
257.228076
 22
129.424542
 32
0.0
 13
257.214356
 23
129.424542
 33
0.0
  0
3DFACE
  8
0
  6
CONTINUOUS
 62
   249
 10
257.228076
 20
128.444542
 30
0.0
 11
257.241796
 21
128.444542
 31
0.0
 12
257.241796
 22
129.424542
 32
0.0
 13
257.228076
 23
129.424542
 33
0.0
  0
3DFACE
  8
0
  6
CONTINUOUS
 62
   249
 10
257.241796
 20
128.444542
 30
0.0
 11
257.255516
 21
128.444542
 31
0.0
 12
257.255516
 22
129.424542
 32
0.0
 13
257.241796
 23
129.424542
 33
0.0
  0
3DFACE
  8
0
  6
CONTINUOUS
 62
   249
 10
257.255516
 20
128.444542
 30
0.0
 11
257.269236
 21
128.444542
 31
0.0
 12
257.269236
 22
129.424542
 32
0.0
 13
257.255516
 23
129.424542
 33
0.0
  0
3DFACE
  8
0
  6
CONTINUOUS
 62
   249
 10
257.269236
 20
128.444542
 30
0.0
 11
257.282956
 21
128.444542
 31
0.0
 12
257.282956
 22
129.424542
 32
0.0
 13
257.269236
 23
129.424542
 33
0.0
  0
3DFACE
  8
0
  6
CONTINUOUS
 62
   249
 10
257.282956
 20
128.444542
 30
0.0
 11
257.296676
 21
128.444542
 31
0.0
 12
257.296676
 22
129.424542
 32
0.0
 13
257.282956
 23
129.424542
 33
0.0
  0
3DFACE
  8
0
  6
CONTINUOUS
 62
   249
 10
257.296676
 20
128.444542
 30
0.0
 11
257.310396
 21
128.444542
 31
0.0
 12
257.310396
 22
129.424542
 32
0.0
 13
257.296676
 23
129.424542
 33
0.0
  0
3DFACE
  8
0
  6
CONTINUOUS
 62
   249
 10
257.310396
 20
128.444542
 30
0.0
 11
257.324116
 21
128.444542
 31
0.0
 12
257.324116
 22
129.424542
 32
0.0
 13
257.310396
 23
129.424542
 33
0.0
  0
3DFACE
  8
0
  6
CONTINUOUS
 62
   249
 10
257.324116
 20
128.444542
 30
0.0
 11
257.337836
 21
128.444542
 31
0.0
 12
257.337836
 22
129.424542
 32
0.0
 13
257.324116
 23
129.424542
 33
0.0
  0
3DFACE
  8
0
  6
CONTINUOUS
 62
   249
 10
257.337836
 20
128.444542
 30
0.0
 11
257.351556
 21
128.444542
 31
0.0
 12
257.351556
 22
129.424542
 32
0.0
 13
257.337836
 23
129.424542
 33
0.0
  0
3DFACE
  8
0
  6
CONTINUOUS
 62
   249
 10
257.351556
 20
128.444542
 30
0.0
 11
257.365276
 21
128.444542
 31
0.0
 12
257.365276
 22
129.424542
 32
0.0
 13
257.351556
 23
129.424542
 33
0.0
  0
3DFACE
  8
0
  6
CONTINUOUS
 62
   249
 10
257.365276
 20
128.444542
 30
0.0
 11
257.378996
 21
128.444542
 31
0.0
 12
257.378996
 22
129.424542
 32
0.0
 13
257.365276
 23
129.424542
 33
0.0
  0
3DFACE
  8
0
  6
CONTINUOUS
 62
   249
 10
257.378996
 20
128.444542
 30
0.0
 11
257.392716
 21
128.444542
 31
0.0
 12
257.392716
 22
129.424542
 32
0.0
 13
257.378996
 23
129.424542
 33
0.0
  0
3DFACE
  8
0
  6
CONTINUOUS
 62
   249
 10
257.392716
 20
128.444542
 30
0.0
 11
257.406436
 21
128.444542
 31
0.0
 12
257.406436
 22
129.424542
 32
0.0
 13
257.392716
 23
129.424542
 33
0.0
  0
3DFACE
  8
0
  6
CONTINUOUS
 62
   249
 10
257.406436
 20
128.444542
 30
0.0
 11
257.420156
 21
128.444542
 31
0.0
 12
257.420156
 22
129.424542
 32
0.0
 13
257.406436
 23
129.424542
 33
0.0
  0
3DFACE
  8
0
  6
CONTINUOUS
 62
   249
 10
257.420156
 20
128.444542
 30
0.0
 11
257.433876
 21
128.444542
 31
0.0
 12
257.433876
 22
129.424542
 32
0.0
 13
257.420156
 23
129.424542
 33
0.0
  0
3DFACE
  8
0
  6
CONTINUOUS
 62
   249
 10
257.433876
 20
128.444542
 30
0.0
 11
257.447596
 21
128.444542
 31
0.0
 12
257.447596
 22
129.424542
 32
0.0
 13
257.433876
 23
129.424542
 33
0.0
  0
3DFACE
  8
0
  6
CONTINUOUS
 62
   249
 10
257.447596
 20
128.444542
 30
0.0
 11
257.461316
 21
128.444542
 31
0.0
 12
257.461316
 22
129.424542
 32
0.0
 13
257.447596
 23
129.424542
 33
0.0
  0
3DFACE
  8
0
  6
CONTINUOUS
 62
   249
 10
257.461316
 20
128.444542
 30
0.0
 11
257.475036
 21
128.444542
 31
0.0
 12
257.475036
 22
129.424542
 32
0.0
 13
257.461316
 23
129.424542
 33
0.0
  0
3DFACE
  8
0
  6
CONTINUOUS
 62
   249
 10
257.475036
 20
128.444542
 30
0.0
 11
257.488756
 21
128.444542
 31
0.0
 12
257.488756
 22
129.424542
 32
0.0
 13
257.475036
 23
129.424542
 33
0.0
  0
3DFACE
  8
0
  6
CONTINUOUS
 62
   249
 10
257.488756
 20
128.444542
 30
0.0
 11
257.502476
 21
128.444542
 31
0.0
 12
257.502476
 22
129.424542
 32
0.0
 13
257.488756
 23
129.424542
 33
0.0
  0
3DFACE
  8
0
  6
CONTINUOUS
 62
   249
 10
257.502476
 20
128.444542
 30
0.0
 11
257.516196
 21
128.444542
 31
0.0
 12
257.516196
 22
129.424542
 32
0.0
 13
257.502476
 23
129.424542
 33
0.0
  0
3DFACE
  8
0
  6
CONTINUOUS
 62
   249
 10
257.516196
 20
128.444542
 30
0.0
 11
257.529916
 21
128.444542
 31
0.0
 12
257.529916
 22
129.424542
 32
0.0
 13
257.516196
 23
129.424542
 33
0.0
  0
3DFACE
  8
0
  6
CONTINUOUS
 62
   249
 10
257.529916
 20
128.444542
 30
0.0
 11
257.543636
 21
128.444542
 31
0.0
 12
257.543636
 22
129.424542
 32
0.0
 13
257.529916
 23
129.424542
 33
0.0
  0
3DFACE
  8
0
  6
CONTINUOUS
 62
   249
 10
257.543636
 20
128.444542
 30
0.0
 11
257.557356
 21
128.444542
 31
0.0
 12
257.557356
 22
129.424542
 32
0.0
 13
257.543636
 23
129.424542
 33
0.0
  0
3DFACE
  8
0
  6
CONTINUOUS
 62
   249
 10
257.557356
 20
128.444542
 30
0.0
 11
257.571076
 21
128.444542
 31
0.0
 12
257.571076
 22
129.424542
 32
0.0
 13
257.557356
 23
129.424542
 33
0.0
  0
3DFACE
  8
0
  6
CONTINUOUS
 62
   249
 10
257.571076
 20
128.444542
 30
0.0
 11
257.584796
 21
128.444542
 31
0.0
 12
257.584796
 22
129.424542
 32
0.0
 13
257.571076
 23
129.424542
 33
0.0
  0
3DFACE
  8
0
  6
CONTINUOUS
 62
   249
 10
257.584796
 20
128.444542
 30
0.0
 11
257.598516
 21
128.444542
 31
0.0
 12
257.598516
 22
129.424542
 32
0.0
 13
257.584796
 23
129.424542
 33
0.0
  0
3DFACE
  8
0
  6
CONTINUOUS
 62
   249
 10
257.598516
 20
128.444542
 30
0.0
 11
257.612236
 21
128.444542
 31
0.0
 12
257.612236
 22
129.424542
 32
0.0
 13
257.598516
 23
129.424542
 33
0.0
  0
3DFACE
  8
0
  6
CONTINUOUS
 62
   249
 10
257.612236
 20
128.444542
 30
0.0
 11
257.625956
 21
128.444542
 31
0.0
 12
257.625956
 22
129.424542
 32
0.0
 13
257.612236
 23
129.424542
 33
0.0
  0
3DFACE
  8
0
  6
CONTINUOUS
 62
   249
 10
257.625956
 20
128.444542
 30
0.0
 11
257.639676
 21
128.444542
 31
0.0
 12
257.639676
 22
129.424542
 32
0.0
 13
257.625956
 23
129.424542
 33
0.0
  0
3DFACE
  8
0
  6
CONTINUOUS
 62
   249
 10
257.639676
 20
128.444542
 30
0.0
 11
257.653396
 21
128.444542
 31
0.0
 12
257.653396
 22
129.424542
 32
0.0
 13
257.639676
 23
129.424542
 33
0.0
  0
3DFACE
  8
0
  6
CONTINUOUS
 62
   249
 10
257.653396
 20
128.444542
 30
0.0
 11
257.667116
 21
128.444542
 31
0.0
 12
257.667116
 22
129.424542
 32
0.0
 13
257.653396
 23
129.424542
 33
0.0
  0
3DFACE
  8
0
  6
CONTINUOUS
 62
   249
 10
257.667116
 20
128.444542
 30
0.0
 11
257.680836
 21
128.444542
 31
0.0
 12
257.680836
 22
129.424542
 32
0.0
 13
257.667116
 23
129.424542
 33
0.0
  0
3DFACE
  8
0
  6
CONTINUOUS
 62
   249
 10
257.680836
 20
128.444542
 30
0.0
 11
257.694556
 21
128.444542
 31
0.0
 12
257.694556
 22
129.424542
 32
0.0
 13
257.680836
 23
129.424542
 33
0.0
  0
3DFACE
  8
0
  6
CONTINUOUS
 62
   249
 10
257.694556
 20
128.444542
 30
0.0
 11
257.708276
 21
128.444542
 31
0.0
 12
257.708276
 22
129.424542
 32
0.0
 13
257.694556
 23
129.424542
 33
0.0
  0
3DFACE
  8
0
  6
CONTINUOUS
 62
   249
 10
257.708276
 20
128.444542
 30
0.0
 11
257.721996
 21
128.444542
 31
0.0
 12
257.721996
 22
129.424542
 32
0.0
 13
257.708276
 23
129.424542
 33
0.0
  0
3DFACE
  8
0
  6
CONTINUOUS
 62
   249
 10
257.721996
 20
128.444542
 30
0.0
 11
257.735716
 21
128.444542
 31
0.0
 12
257.735716
 22
129.424542
 32
0.0
 13
257.721996
 23
129.424542
 33
0.0
  0
3DFACE
  8
0
  6
CONTINUOUS
 62
   249
 10
257.735716
 20
128.444542
 30
0.0
 11
257.749436
 21
128.444542
 31
0.0
 12
257.749436
 22
129.424542
 32
0.0
 13
257.735716
 23
129.424542
 33
0.0
  0
ARC
  8
0
 62
   249
 10
216.172927
 20
73.436221
 30
0.0
 40
0.869227
 50
32.471192
 51
175.601295
  0
ARC
  8
0
 62
   249
 10
217.639595
 20
74.369554
 30
0.0
 40
0.869227
 50
212.471192
 51
355.601295
  0
LINE
  8
0
  6
CONTINUOUS
 62
   249
 10
210.296597
 20
130.26989
 30
0.0
 11
212.642363
 21
128.934537
 31
0.0
  0
LINE
  8
0
  6
CONTINUOUS
 62
   249
 10
212.642363
 20
128.934537
 30
0.0
 11
210.296597
 21
127.744618
 31
0.0
  0
LINE
  8
0
  6
CONTINUOUS
 62
   249
 10
207.281367
 20
127.599188
 30
0.0
 11
204.935602
 21
128.934542
 31
0.0
  0
LINE
  8
0
  6
CONTINUOUS
 62
   249
 10
204.935602
 20
128.934542
 30
0.0
 11
207.281367
 21
130.124461
 31
0.0
  0
INSERT
  8
0
  6
CONTINUOUS
 62
   249
  2
B507
 10
320.394811
 20
191.709642
 30
0.0
  0
TEXT
  8
0
  6
CONTINUOUS
 62
   249
 10
317.50132
 20
194.394532
 30
0.0
 40
2.0
  1
P/Q
  7
ROMANS
  0
LINE
  8
0
 62
   249
 10
237.5
 20
170.0
 30
0.0
 11
235.980133
 21
170.0
 31
0.0
  0
ARC
  8
0
 62
   249
 10
237.565849
 20
171.25
 30
0.0
 40
1.251733
 50
266.984476
 51
93.015524
  0
LINE
  8
0
 62
   249
 10
237.5
 20
172.5
 30
0.0
 11
235.980133
 21
172.5
 31
0.0
  0
LINE
  8
0
 62
   249
 10
237.5
 20
175.0
 30
0.0
 11
235.980133
 21
175.0
 31
0.0
  0
ARC
  8
0
 62
   249
 10
237.565849
 20
173.75
 30
0.0
 40
1.251733
 50
266.984476
 51
93.015524
  0
LINE
  8
0
 62
   249
 10
242.5
 20
167.5
 30
0.0
 11
245.0
 21
167.5
 31
0.0
  0
ARC
  8
0
 62
   249
 10
242.434151
 20
168.75
 30
0.0
 40
1.251733
 50
86.984476
 51
273.015524
  0
ARC
  8
0
 62
   249
 10
242.434151
 20
171.25
 30
0.0
 40
1.251733
 50
86.984476
 51
273.015524
  0
LINE
  8
0
 62
   249
 10
242.5
 20
170.0
 30
0.0
 11
245.0
 21
170.0
 31
0.0
  0
LINE
  8
0
 62
   249
 10
242.5
 20
172.5
 30
0.0
 11
245.0
 21
172.5
 31
0.0
  0
LINE
  8
0
 62
   249
 10
245.0
 20
172.5
 30
0.0
 11
247.5
 21
172.5
 31
0.0
  0
LINE
  8
0
 62
   249
 10
245.0
 20
167.5
 30
0.0
 11
247.5
 21
167.5
 31
0.0
  0
LINE
  8
0
 62
   249
 10
245.0
 20
172.5
 30
0.0
 11
247.5
 21
172.5
 31
0.0
  0
LINE
  8
0
 62
   249
 10
245.0
 20
177.5
 30
0.0
 11
247.5
 21
177.5
 31
0.0
  0
LINE
  8
0
 62
   249
 10
242.5
 20
177.5
 30
0.0
 11
245.0
 21
177.5
 31
0.0
  0
LINE
  8
0
 62
   249
 10
242.5
 20
175.0
 30
0.0
 11
245.0
 21
175.0
 31
0.0
  0
ARC
  8
0
 62
   249
 10
242.434151
 20
176.25
 30
0.0
 40
1.251733
 50
86.984476
 51
273.015524
  0
ARC
  8
0
 62
   249
 10
242.434151
 20
173.75
 30
0.0
 40
1.251733
 50
86.984476
 51
273.015524
  0
LINE
  8
0
 62
   249
 10
242.5
 20
172.5
 30
0.0
 11
245.0
 21
172.5
 31
0.0
  0
LINE
  8
0
  6
CONTINUOUS
 62
   249
 10
207.433855
 20
166.237037
 30
0.0
 11
205.088089
 21
167.572391
 31
0.0
  0
LINE
  8
0
  6
CONTINUOUS
 62
   249
 10
205.088089
 20
167.572391
 30
0.0
 11
207.433855
 21
168.76231
 31
0.0
  0
LINE
  8
0
  6
CONTINUOUS
 62
   249
 10
229.933855
 20
151.164635
 30
0.0
 11
227.588089
 21
152.499989
 31
0.0
  0
LINE
  8
0
  6
CONTINUOUS
 62
   249
 10
227.588089
 20
152.499989
 30
0.0
 11
229.933855
 21
153.689908
 31
0.0
  0
LINE
  8
0
  6
CONTINUOUS
 62
   249
 10
207.345766
 20
183.664635
 30
0.0
 11
205.0
 21
184.999989
 31
0.0
  0
LINE
  8
0
  6
CONTINUOUS
 62
   249
 10
205.0
 20
184.999989
 30
0.0
 11
207.345766
 21
186.189908
 31
0.0
  0
LINE
  8
0
  6
CONTINUOUS
 62
   249
 10
207.345766
 20
188.664635
 30
0.0
 11
205.0
 21
189.999989
 31
0.0
  0
LINE
  8
0
  6
CONTINUOUS
 62
   249
 10
205.0
 20
189.999989
 30
0.0
 11
207.345766
 21
191.189908
 31
0.0
  0
LINE
  8
0
  6
CONTINUOUS
 62
   249
 10
207.345766
 20
193.664635
 30
0.0
 11
205.0
 21
194.999989
 31
0.0
  0
LINE
  8
0
  6
CONTINUOUS
 62
   249
 10
205.0
 20
194.999989
 30
0.0
 11
207.345766
 21
196.189908
 31
0.0
  0
LINE
  8
0
 62
   249
 10
237.5
 20
187.5
 30
0.0
 11
235.980133
 21
187.5
 31
0.0
  0
ARC
  8
0
 62
   249
 10
237.565849
 20
188.75
 30
0.0
 40
1.251733
 50
266.984476
 51
93.015524
  0
LINE
  8
0
 62
   249
 10
237.5
 20
190.0
 30
0.0
 11
235.980133
 21
190.0
 31
0.0
  0
LINE
  8
0
 62
   249
 10
237.5
 20
192.5
 30
0.0
 11
235.980133
 21
192.5
 31
0.0
  0
ARC
  8
0
 62
   249
 10
237.565849
 20
191.25
 30
0.0
 40
1.251733
 50
266.984476
 51
93.015524
  0
LINE
  8
0
 62
   249
 10
242.5
 20
185.0
 30
0.0
 11
245.0
 21
185.0
 31
0.0
  0
ARC
  8
0
 62
   249
 10
242.434151
 20
186.25
 30
0.0
 40
1.251733
 50
86.984476
 51
273.015524
  0
ARC
  8
0
 62
   249
 10
242.434151
 20
188.75
 30
0.0
 40
1.251733
 50
86.984476
 51
273.015524
  0
LINE
  8
0
 62
   249
 10
242.5
 20
187.5
 30
0.0
 11
245.0
 21
187.5
 31
0.0
  0
LINE
  8
0
 62
   249
 10
242.5
 20
190.0
 30
0.0
 11
245.0
 21
190.0
 31
0.0
  0
LINE
  8
0
 62
   249
 10
245.0
 20
190.0
 30
0.0
 11
247.5
 21
190.0
 31
0.0
  0
LINE
  8
0
 62
   249
 10
245.0
 20
185.0
 30
0.0
 11
247.5
 21
185.0
 31
0.0
  0
LINE
  8
0
 62
   249
 10
245.0
 20
190.0
 30
0.0
 11
247.5
 21
190.0
 31
0.0
  0
LINE
  8
0
 62
   249
 10
245.0
 20
195.0
 30
0.0
 11
247.5
 21
195.0
 31
0.0
  0
LINE
  8
0
 62
   249
 10
242.5
 20
195.0
 30
0.0
 11
245.0
 21
195.0
 31
0.0
  0
LINE
  8
0
 62
   249
 10
242.5
 20
192.5
 30
0.0
 11
245.0
 21
192.5
 31
0.0
  0
ARC
  8
0
 62
   249
 10
242.434151
 20
193.75
 30
0.0
 40
1.251733
 50
86.984476
 51
273.015524
  0
ARC
  8
0
 62
   249
 10
242.434151
 20
191.25
 30
0.0
 40
1.251733
 50
86.984476
 51
273.015524
  0
LINE
  8
0
 62
   249
 10
242.5
 20
190.0
 30
0.0
 11
245.0
 21
190.0
 31
0.0
  0
LINE
  8
0
 62
   249
 10
237.5
 20
205.0
 30
0.0
 11
235.980133
 21
205.0
 31
0.0
  0
ARC
  8
0
 62
   249
 10
237.565849
 20
206.25
 30
0.0
 40
1.251733
 50
266.984476
 51
93.015524
  0
LINE
  8
0
 62
   249
 10
237.5
 20
207.5
 30
0.0
 11
235.980133
 21
207.5
 31
0.0
  0
LINE
  8
0
 62
   249
 10
237.5
 20
210.0
 30
0.0
 11
235.980133
 21
210.0
 31
0.0
  0
ARC
  8
0
 62
   249
 10
237.565849
 20
208.75
 30
0.0
 40
1.251733
 50
266.984476
 51
93.015524
  0
LINE
  8
0
 62
   249
 10
242.5
 20
202.5
 30
0.0
 11
245.0
 21
202.5
 31
0.0
  0
ARC
  8
0
 62
   249
 10
242.434151
 20
203.75
 30
0.0
 40
1.251733
 50
86.984476
 51
273.015524
  0
ARC
  8
0
 62
   249
 10
242.434151
 20
206.25
 30
0.0
 40
1.251733
 50
86.984476
 51
273.015524
  0
LINE
  8
0
 62
   249
 10
242.5
 20
205.0
 30
0.0
 11
245.0
 21
205.0
 31
0.0
  0
LINE
  8
0
 62
   249
 10
242.5
 20
207.5
 30
0.0
 11
245.0
 21
207.5
 31
0.0
  0
LINE
  8
0
 62
   249
 10
245.0
 20
207.5
 30
0.0
 11
247.5
 21
207.5
 31
0.0
  0
LINE
  8
0
 62
   249
 10
245.0
 20
202.5
 30
0.0
 11
247.5
 21
202.5
 31
0.0
  0
LINE
  8
0
 62
   249
 10
245.0
 20
207.5
 30
0.0
 11
247.5
 21
207.5
 31
0.0
  0
LINE
  8
0
 62
   249
 10
245.0
 20
212.5
 30
0.0
 11
247.5
 21
212.5
 31
0.0
  0
LINE
  8
0
 62
   249
 10
242.5
 20
212.5
 30
0.0
 11
245.0
 21
212.5
 31
0.0
  0
LINE
  8
0
 62
   249
 10
242.5
 20
210.0
 30
0.0
 11
245.0
 21
210.0
 31
0.0
  0
ARC
  8
0
 62
   249
 10
242.434151
 20
211.25
 30
0.0
 40
1.251733
 50
86.984476
 51
273.015524
  0
ARC
  8
0
 62
   249
 10
242.434151
 20
208.75
 30
0.0
 40
1.251733
 50
86.984476
 51
273.015524
  0
LINE
  8
0
 62
   249
 10
242.5
 20
207.5
 30
0.0
 11
245.0
 21
207.5
 31
0.0
  0
ARC
  8
0
  6
CONTINUOUS
 62
   249
 10
265.0
 20
172.689984
 30
0.0
 40
0.5
 50
180.0
 51
0.0
  0
ARC
  8
0
  6
CONTINUOUS
 62
   249
 10
265.0
 20
172.689984
 30
0.0
 40
0.5
 50
0.0
 51
180.0
  0
ARC
  8
0
  6
CONTINUOUS
 62
   249
 10
290.0
 20
172.689984
 30
0.0
 40
0.5
 50
180.0
 51
0.0
  0
ARC
  8
0
  6
CONTINUOUS
 62
   249
 10
290.0
 20
172.689984
 30
0.0
 40
0.5
 50
0.0
 51
180.0
  0
LINE
  8
0
  6
CONTINUOUS
 62
   249
 10
280.0
 20
142.507271
 30
0.0
 11
280.0
 21
139.861614
 31
0.0
  0
LINE
  8
0
  6
CONTINUOUS
 62
   249
 10
279.396305
 20
138.08006
 30
0.0
 11
280.603695
 21
138.08006
 31
0.0
  0
LINE
  8
0
  6
CONTINUOUS
 62
   249
 10
278.963807
 20
138.967574
 30
0.0
 11
281.027182
 21
138.967574
 31
0.0
  0
LINE
  8
0
  6
CONTINUOUS
 62
   249
 10
278.468237
 20
139.861614
 30
0.0
 11
281.531763
 21
139.861614
 31
0.0
  0
ARC
  8
0
  6
CONTINUOUS
 62
   249
 10
280.0
 20
147.689984
 30
0.0
 40
0.5
 50
180.0
 51
0.0
  0
ARC
  8
0
  6
CONTINUOUS
 62
   249
 10
280.0
 20
147.689984
 30
0.0
 40
0.5
 50
0.0
 51
180.0
  0
ARC
  8
0
  6
CONTINUOUS
 62
   249
 10
300.0
 20
147.689984
 30
0.0
 40
0.5
 50
180.0
 51
0.0
  0
ARC
  8
0
  6
CONTINUOUS
 62
   249
 10
300.0
 20
147.689984
 30
0.0
 40
0.5
 50
0.0
 51
180.0
  0
LINE
  8
0
  6
CONTINUOUS
 62
   249
 10
290.0
 20
167.507271
 30
0.0
 11
290.0
 21
164.861614
 31
0.0
  0
LINE
  8
0
  6
CONTINUOUS
 62
   249
 10
289.396305
 20
163.08006
 30
0.0
 11
290.603695
 21
163.08006
 31
0.0
  0
LINE
  8
0
  6
CONTINUOUS
 62
   249
 10
288.963807
 20
163.967574
 30
0.0
 11
291.027182
 21
163.967574
 31
0.0
  0
LINE
  8
0
  6
CONTINUOUS
 62
   249
 10
288.468237
 20
164.861614
 30
0.0
 11
291.531763
 21
164.861614
 31
0.0
  0
ARC
  8
0
  6
CONTINUOUS
 62
   249
 10
305.0
 20
155.189984
 30
0.0
 40
0.5
 50
180.0
 51
0.0
  0
ARC
  8
0
  6
CONTINUOUS
 62
   249
 10
305.0
 20
155.189984
 30
0.0
 40
0.5
 50
0.0
 51
180.0
  0
ARC
  8
0
  6
CONTINUOUS
 62
   249
 10
265.0
 20
185.0
 30
0.0
 40
0.5
 50
180.0
 51
0.0
  0
ARC
  8
0
  6
CONTINUOUS
 62
   249
 10
265.0
 20
185.0
 30
0.0
 40
0.5
 50
0.0
 51
180.0
  0
INSERT
  8
0
  6
CENTER
 62
   249
  2
BLC26
 10
306.43164
 20
192.580445
 30
0.0
 41
1.006225
 42
1.006225
 50
180.0
 43
1.006225
  0
ARC
  8
0
  6
CONTINUOUS
 62
   249
 10
290.0
 20
190.189984
 30
0.0
 40
0.5
 50
180.0
 51
0.0
  0
ARC
  8
0
  6
CONTINUOUS
 62
   249
 10
290.0
 20
190.189984
 30
0.0
 40
0.5
 50
0.0
 51
180.0
  0
INSERT
  8
0
  6
CENTER
 62
   249
  2
BLC26
 10
311.410526
 20
175.080446
 30
0.0
 41
1.006225
 42
1.006225
 50
180.0
 43
1.006225
  0
INSERT
  8
0
  6
CENTER
 62
   249
  2
BLC26
 10
301.410524
 20
210.080448
 30
0.0
 41
1.006225
 42
1.006225
 50
180.0
 43
1.006225
  0
LINE
  8
0
  6
CONTINUOUS
 62
   249
 10
370.507098
 20
224.004965
 30
0.0
 11
368.658965
 21
223.679089
 31
0.0
  0
LINE
  8
0
  6
CONTINUOUS
 62
   249
 10
370.507098
 20
223.974502
 30
0.0
 11
368.730377
 21
223.661218
 31
0.0
  0
LINE
  8
0
  6
CONTINUOUS
 62
   249
 10
370.507098
 20
223.944039
 30
0.0
 11
368.801789
 21
223.643347
 31
0.0
  0
LINE
  8
0
  6
CONTINUOUS
 62
   249
 10
370.507098
 20
223.913576
 30
0.0
 11
368.873201
 21
223.625476
 31
0.0
  0
LINE
  8
0
  6
CONTINUOUS
 62
   249
 10
370.507098
 20
223.883113
 30
0.0
 11
368.944613
 21
223.607605
 31
0.0
  0
LINE
  8
0
  6
CONTINUOUS
 62
   249
 10
370.507098
 20
223.852651
 30
0.0
 11
369.016025
 21
223.589734
 31
0.0
  0
LINE
  8
0
  6
CONTINUOUS
 62
   249
 10
370.507098
 20
223.822188
 30
0.0
 11
369.087437
 21
223.571863
 31
0.0
  0
LINE
  8
0
  6
CONTINUOUS
 62
   249
 10
370.507098
 20
223.791725
 30
0.0
 11
369.158849
 21
223.553993
 31
0.0
  0
LINE
  8
0
  6
CONTINUOUS
 62
   249
 10
370.507098
 20
223.761262
 30
0.0
 11
369.230261
 21
223.536122
 31
0.0
  0
LINE
  8
0
  6
CONTINUOUS
 62
   249
 10
370.507098
 20
223.730799
 30
0.0
 11
369.301674
 21
223.518251
 31
0.0
  0
LINE
  8
0
  6
CONTINUOUS
 62
   249
 10
370.507098
 20
223.700337
 30
0.0
 11
369.373086
 21
223.50038
 31
0.0
  0
LINE
  8
0
  6
CONTINUOUS
 62
   249
 10
370.507098
 20
223.669874
 30
0.0
 11
369.444498
 21
223.482509
 31
0.0
  0
LINE
  8
0
  6
CONTINUOUS
 62
   249
 10
370.507098
 20
223.639411
 30
0.0
 11
369.51591
 21
223.464638
 31
0.0
  0
LINE
  8
0
  6
CONTINUOUS
 62
   249
 10
370.507098
 20
223.608948
 30
0.0
 11
369.587322
 21
223.446767
 31
0.0
  0
LINE
  8
0
  6
CONTINUOUS
 62
   249
 10
370.507098
 20
223.578485
 30
0.0
 11
369.658734
 21
223.428896
 31
0.0
  0
LINE
  8
0
  6
CONTINUOUS
 62
   249
 10
370.507098
 20
223.548023
 30
0.0
 11
369.730146
 21
223.411025
 31
0.0
  0
LINE
  8
0
  6
CONTINUOUS
 62
   249
 10
370.507098
 20
223.51756
 30
0.0
 11
369.801558
 21
223.393154
 31
0.0
  0
LINE
  8
0
  6
CONTINUOUS
 62
   249
 10
370.507098
 20
223.487097
 30
0.0
 11
369.87297
 21
223.375283
 31
0.0
  0
LINE
  8
0
  6
CONTINUOUS
 62
   249
 10
370.507098
 20
223.456634
 30
0.0
 11
369.944383
 21
223.357412
 31
0.0
  0
LINE
  8
0
  6
CONTINUOUS
 62
   249
 10
370.507098
 20
223.426171
 30
0.0
 11
370.015795
 21
223.339542
 31
0.0
  0
LINE
  8
0
  6
CONTINUOUS
 62
   249
 10
370.507098
 20
223.395709
 30
0.0
 11
370.087207
 21
223.321671
 31
0.0
  0
LINE
  8
0
  6
CONTINUOUS
 62
   249
 10
370.507098
 20
223.365246
 30
0.0
 11
370.158619
 21
223.3038
 31
0.0
  0
LINE
  8
0
  6
CONTINUOUS
 62
   249
 10
370.507098
 20
223.334783
 30
0.0
 11
370.230031
 21
223.285929
 31
0.0
  0
LINE
  8
0
  6
CONTINUOUS
 62
   249
 10
370.507098
 20
223.30432
 30
0.0
 11
370.301443
 21
223.268058
 31
0.0
  0
LINE
  8
0
  6
CONTINUOUS
 62
   249
 10
370.507098
 20
223.273857
 30
0.0
 11
370.372855
 21
223.250187
 31
0.0
  0
LINE
  8
0
  6
CONTINUOUS
 62
   249
 10
370.507098
 20
223.243395
 30
0.0
 11
370.444267
 21
223.232316
 31
0.0
  0
LINE
  8
0
  6
CONTINUOUS
 62
   249
 10
370.507098
 20
224.035427
 30
0.0
 11
368.587553
 21
223.69696
 31
0.0
  0
LINE
  8
0
  6
CONTINUOUS
 62
   249
 10
370.507098
 20
224.06589
 30
0.0
 11
368.51614
 21
223.714831
 31
0.0
  0
LINE
  8
0
  6
CONTINUOUS
 62
   249
 10
370.507098
 20
224.096353
 30
0.0
 11
368.444728
 21
223.732702
 31
0.0
  0
LINE
  8
0
  6
CONTINUOUS
 62
   249
 10
370.507098
 20
224.126816
 30
0.0
 11
368.373316
 21
223.750573
 31
0.0
  0
LINE
  8
0
  6
CONTINUOUS
 62
   249
 10
370.507098
 20
224.157279
 30
0.0
 11
368.301904
 21
223.768444
 31
0.0
  0
LINE
  8
0
  6
CONTINUOUS
 62
   249
 10
370.507098
 20
224.187741
 30
0.0
 11
368.267704
 21
223.792876
 31
0.0
  0
LINE
  8
0
  6
CONTINUOUS
 62
   249
 10
370.507098
 20
224.218204
 30
0.0
 11
368.679789
 21
223.896
 31
0.0
  0
LINE
  8
0
  6
CONTINUOUS
 62
   249
 10
370.507098
 20
224.248667
 30
0.0
 11
369.091875
 21
223.999125
 31
0.0
  0
LINE
  8
0
  6
CONTINUOUS
 62
   249
 10
370.507098
 20
224.27913
 30
0.0
 11
369.50396
 21
224.10225
 31
0.0
  0
LINE
  8
0
  6
CONTINUOUS
 62
   249
 10
370.507098
 20
224.309593
 30
0.0
 11
369.916045
 21
224.205374
 31
0.0
  0
LINE
  8
0
  6
CONTINUOUS
 62
   249
 10
370.507098
 20
224.340055
 30
0.0
 11
370.32813
 21
224.308499
 31
0.0
  0
LINE
  8
0
  6
CONTINUOUS
 62
   249
 10
372.528624
 20
220.059201
 30
0.0
 11
374.376757
 21
220.385077
 31
0.0
  0
LINE
  8
0
  6
CONTINUOUS
 62
   249
 10
372.528624
 20
220.089664
 30
0.0
 11
374.305344
 21
220.402948
 31
0.0
  0
LINE
  8
0
  6
CONTINUOUS
 62
   249
 10
372.528624
 20
220.120127
 30
0.0
 11
374.233932
 21
220.420819
 31
0.0
  0
LINE
  8
0
  6
CONTINUOUS
 62
   249
 10
372.528624
 20
220.15059
 30
0.0
 11
374.16252
 21
220.43869
 31
0.0
  0
LINE
  8
0
  6
CONTINUOUS
 62
   249
 10
372.528624
 20
220.181052
 30
0.0
 11
374.091108
 21
220.456561
 31
0.0
  0
LINE
  8
0
  6
CONTINUOUS
 62
   249
 10
372.528624
 20
220.211515
 30
0.0
 11
374.019696
 21
220.474431
 31
0.0
  0
LINE
  8
0
  6
CONTINUOUS
 62
   249
 10
372.528624
 20
220.241978
 30
0.0
 11
373.948284
 21
220.492302
 31
0.0
  0
LINE
  8
0
  6
CONTINUOUS
 62
   249
 10
372.528624
 20
220.272441
 30
0.0
 11
373.876872
 21
220.510173
 31
0.0
  0
LINE
  8
0
  6
CONTINUOUS
 62
   249
 10
372.528624
 20
220.302904
 30
0.0
 11
373.80546
 21
220.528044
 31
0.0
  0
LINE
  8
0
  6
CONTINUOUS
 62
   249
 10
372.528624
 20
220.333366
 30
0.0
 11
373.734048
 21
220.545915
 31
0.0
  0
LINE
  8
0
  6
CONTINUOUS
 62
   249
 10
372.528624
 20
220.363829
 30
0.0
 11
373.662635
 21
220.563786
 31
0.0
  0
LINE
  8
0
  6
CONTINUOUS
 62
   249
 10
372.528624
 20
220.394292
 30
0.0
 11
373.591223
 21
220.581657
 31
0.0
  0
LINE
  8
0
  6
CONTINUOUS
 62
   249
 10
372.528624
 20
220.424755
 30
0.0
 11
373.519811
 21
220.599528
 31
0.0
  0
LINE
  8
0
  6
CONTINUOUS
 62
   249
 10
372.528624
 20
220.455218
 30
0.0
 11
373.448399
 21
220.617399
 31
0.0
  0
LINE
  8
0
  6
CONTINUOUS
 62
   249
 10
372.528624
 20
220.48568
 30
0.0
 11
373.376987
 21
220.63527
 31
0.0
  0
LINE
  8
0
  6
CONTINUOUS
 62
   249
 10
372.528624
 20
220.516143
 30
0.0
 11
373.305575
 21
220.653141
 31
0.0
  0
LINE
  8
0
  6
CONTINUOUS
 62
   249
 10
372.528624
 20
220.546606
 30
0.0
 11
373.234163
 21
220.671012
 31
0.0
  0
LINE
  8
0
  6
CONTINUOUS
 62
   249
 10
372.528624
 20
220.577069
 30
0.0
 11
373.162751
 21
220.688882
 31
0.0
  0
LINE
  8
0
  6
CONTINUOUS
 62
   249
 10
372.528624
 20
220.607532
 30
0.0
 11
373.091339
 21
220.706753
 31
0.0
  0
LINE
  8
0
  6
CONTINUOUS
 62
   249
 10
372.528624
 20
220.637994
 30
0.0
 11
373.019927
 21
220.724624
 31
0.0
  0
LINE
  8
0
  6
CONTINUOUS
 62
   249
 10
372.528624
 20
220.668457
 30
0.0
 11
372.948514
 21
220.742495
 31
0.0
  0
LINE
  8
0
  6
CONTINUOUS
 62
   249
 10
372.528624
 20
220.69892
 30
0.0
 11
372.877102
 21
220.760366
 31
0.0
  0
LINE
  8
0
  6
CONTINUOUS
 62
   249
 10
372.528624
 20
220.729383
 30
0.0
 11
372.80569
 21
220.778237
 31
0.0
  0
LINE
  8
0
  6
CONTINUOUS
 62
   249
 10
372.528624
 20
220.759846
 30
0.0
 11
372.734278
 21
220.796108
 31
0.0
  0
LINE
  8
0
  6
CONTINUOUS
 62
   249
 10
372.528624
 20
220.790308
 30
0.0
 11
372.662866
 21
220.813979
 31
0.0
  0
LINE
  8
0
  6
CONTINUOUS
 62
   249
 10
372.528624
 20
220.820771
 30
0.0
 11
372.591454
 21
220.83185
 31
0.0
  0
LINE
  8
0
  6
CONTINUOUS
 62
   249
 10
372.528624
 20
220.028738
 30
0.0
 11
374.448169
 21
220.367206
 31
0.0
  0
LINE
  8
0
  6
CONTINUOUS
 62
   249
 10
372.528624
 20
219.998276
 30
0.0
 11
374.519581
 21
220.349335
 31
0.0
  0
LINE
  8
0
  6
CONTINUOUS
 62
   249
 10
372.528624
 20
219.967813
 30
0.0
 11
374.590993
 21
220.331464
 31
0.0
  0
LINE
  8
0
  6
CONTINUOUS
 62
   249
 10
372.528624
 20
219.93735
 30
0.0
 11
374.662405
 21
220.313593
 31
0.0
  0
LINE
  8
0
  6
CONTINUOUS
 62
   249
 10
372.528624
 20
219.906887
 30
0.0
 11
374.733817
 21
220.295722
 31
0.0
  0
LINE
  8
0
  6
CONTINUOUS
 62
   249
 10
372.528624
 20
219.876424
 30
0.0
 11
374.768017
 21
220.27129
 31
0.0
  0
LINE
  8
0
  6
CONTINUOUS
 62
   249
 10
372.528624
 20
219.845962
 30
0.0
 11
374.355932
 21
220.168165
 31
0.0
  0
LINE
  8
0
  6
CONTINUOUS
 62
   249
 10
372.528624
 20
219.815499
 30
0.0
 11
373.943847
 21
220.065041
 31
0.0
  0
LINE
  8
0
  6
CONTINUOUS
 62
   249
 10
372.528624
 20
219.785036
 30
0.0
 11
373.531761
 21
219.961916
 31
0.0
  0
LINE
  8
0
  6
CONTINUOUS
 62
   249
 10
372.528624
 20
219.754573
 30
0.0
 11
373.119676
 21
219.858792
 31
0.0
  0
LINE
  8
0
  6
CONTINUOUS
 62
   249
 10
372.528624
 20
219.72411
 30
0.0
 11
372.707591
 21
219.755667
 31
0.0
  0
ENDSEC
  0
EOF
