  0
SECTION
  2
HEADER
  9
$ACADVER
  1
AC1009
  9
$DWGCODEPAGE
  3
iso8859-1
  9
$INSBASE
 10
0.0
 20
0.0
 30
0.0
  9
$EXTMIN
 10
1.0E20
 20
1.0E20
  9
$EXTMAX
 10
-1.0E20
 20
-1.0E20
  9
$LIMMIN
 10
0.0
 20
0.0
  9
$LIMMAX
 10
12.0
 20
9.0
  9
$ORTHOMODE
 70
     0
  9
$REGENMODE
 70
     1
  9
$FILLMODE
 70
     1
  9
$QTEXTMODE
 70
     0
  9
$MIRRTEXT
 70
     1
  9
$DRAGMODE
 70
     2
  9
$LTSCALE
 40
15.0
  9
$OSMODE
 70
     0
  9
$ATTMODE
 70
     1
  9
$TEXTSIZE
 40
0.2
  9
$TRACEWID
 40
0.05
  9
$TEXTSTYLE
  7
STANDARD
  9
$CLAYER
  8
0
  9
$CELTYPE
  6
DASHED
  9
$CECOLOR
 62
   256
  9
$DIMSCALE
 40
1.0
  9
$DIMASZ
 40
0.18
  9
$DIMEXO
 40
0.0625
  9
$DIMDLI
 40
0.38
  9
$DIMRND
 40
0.0
  9
$DIMDLE
 40
0.0
  9
$DIMEXE
 40
0.18
  9
$DIMTP
 40
0.0
  9
$DIMTM
 40
0.0
  9
$DIMTXT
 40
0.18
  9
$DIMCEN
 40
0.09
  9
$DIMTSZ
 40
0.0
  9
$DIMTOL
 70
     0
  9
$DIMLIM
 70
     0
  9
$DIMTIH
 70
     1
  9
$DIMTOH
 70
     1
  9
$DIMSE1
 70
     0
  9
$DIMSE2
 70
     0
  9
$DIMTAD
 70
     0
  9
$DIMZIN
 70
     0
  9
$DIMBLK
  1

  9
$DIMASO
 70
     1
  9
$DIMSHO
 70
     1
  9
$DIMPOST
  1

  9
$DIMAPOST
  1

  9
$DIMALT
 70
     0
  9
$DIMALTD
 70
     2
  9
$DIMALTF
 40
25.4
  9
$DIMLFAC
 40
1.0
  9
$DIMTOFL
 70
     0
  9
$DIMTVP
 40
0.0
  9
$DIMTIX
 70
     0
  9
$DIMSOXD
 70
     0
  9
$DIMSAH
 70
     0
  9
$DIMBLK1
  1

  9
$DIMBLK2
  1

  9
$DIMSTYLE
  2
STANDARD
  9
$DIMCLRD
 70
     0
  9
$DIMCLRE
 70
     0
  9
$DIMCLRT
 70
     0
  9
$DIMTFAC
 40
1.0
  9
$DIMGAP
 40
0.09
  9
$LUNITS
 70
     2
  9
$LUPREC
 70
     4
  9
$AXISMODE
 70
     0
  9
$AXISUNIT
 10
0.0
 20
0.0
  9
$SKETCHINC
 40
0.1
  9
$FILLETRAD
 40
0.0
  9
$AUNITS
 70
     0
  9
$AUPREC
 70
     0
  9
$MENU
  1
acad
  9
$ELEVATION
 40
0.0
  9
$PELEVATION
 40
0.0
  9
$THICKNESS
 40
0.0
  9
$LIMCHECK
 70
     0
  9
$BLIPMODE
 70
     1
  9
$CHAMFERA
 40
0.0
  9
$CHAMFERB
 40
0.0
  9
$SKPOLY
 70
     0
  9
$TDCREATE
 40
0.000000000
  9
$TDUPDATE
 40
0.000000000
  9
$TDINDWG
 40
0.0
  9
$TDUSRTIMER
 40
0.0
  9
$USRTIMER
 70
     1
  9
$ANGBASE
 50
0.0
  9
$ANGDIR
 70
     0
  9
$PDMODE
 70
     0
  9
$PDSIZE
 40
0.0
  9
$PLINEWID
 40
0.0
  9
$COORDS
 70
     1
  9
$SPLFRAME
 70
     0
  9
$SPLINETYPE
 70
     6
  9
$SPLINESEGS
 70
     8
  9
$ATTDIA
 70
     0
  9
$ATTREQ
 70
     1
  9
$HANDLING
 70
     1
  9
$HANDSEED
  5
   7EB
  9
$SURFTAB1
 70
     6
  9
$SURFTAB2
 70
     6
  9
$SURFTYPE
 70
     6
  9
$SURFU
 70
     6
  9
$SURFV
 70
     6
  9
$UCSNAME
  2

  9
$UCSORG
 10
0.0
 20
0.0
 30
0.0
  9
$UCSXDIR
 10
1.0
 20
0.0
 30
0.0
  9
$UCSYDIR
 10
0.0
 20
1.0
 30
0.0
  9
$PUCSNAME
  2

  9
$PUCSORG
 10
0.0
 20
0.0
 30
0.0
  9
$PUCSXDIR
 10
1.0
 20
0.0
 30
0.0
  9
$PUCSYDIR
 10
0.0
 20
1.0
 30
0.0
  9
$USERI1
 70
     0
  9
$USERI2
 70
     0
  9
$USERI3
 70
     0
  9
$USERI4
 70
     0
  9
$USERI5
 70
     0
  9
$USERR1
 40
0.0
  9
$USERR2
 40
0.0
  9
$USERR3
 40
0.0
  9
$USERR4
 40
0.0
  9
$USERR5
 40
0.0
  9
$WORLDVIEW
 70
     1
  9
$SHADEDGE
 70
     3
  9
$SHADEDIF
 70
    70
  9
$TILEMODE
 70
     1
  9
$MAXACTVP
 70
    16
  9
$PINSBASE
 10
0.0
 20
0.0
 30
0.0
  9
$PLIMCHECK
 70
     0
  9
$PEXTMIN
 10
1.0E20
 20
1.0E20
 30
1.0E20
  9
$PEXTMAX
 10
-1.0E20
 20
-1.0E20
 30
-1.0E20
  9
$PLIMMIN
 10
0.0
 20
0.0
  9
$PLIMMAX
 10
12.0
 20
9.0
  9
$UNITMODE
 70
     0
  9
$VISRETAIN
 70
     0
  0
ENDSEC
  0
SECTION
  2
TABLES
  0
TABLE
  2
VPORT
 70
     1
  0
VPORT
  2
*ACTIVE
 70
     0
 10
0.0
 20
0.0
 11
1.0
 21
1.0
 12
6.801242
 22
4.5
 13
0.0
 23
0.0
 14
1.0
 24
1.0
 15
0.0
 25
0.0
 16
0.0
 26
0.0
 36
1.0
 17
0.0
 27
0.0
 37
0.0
 40
9.0
 41
1.511387
 42
50.0
 43
0.0
 44
0.0
 50
0.0
 51
0.0
 71
     0
 72
   100
 73
     1
 74
     1
 75
     0
 76
     0
 77
     0
 78
     0
  0
ENDTAB
  0
TABLE
  2
LTYPE
 70
    41
  0
LTYPE
  2
BYBLOCK
 70
     0
  3

 72
    65
 73
     0
 40
0.0
  0
LTYPE
  2
BYLAYER
 70
     0
  3

 72
    65
 73
     0
 40
0.0
  0
LTYPE
  2
CONTINUOUS
 70
     0
  3
Solid line
 72
    65
 73
     0
 40
0.0
  0
LTYPE
  2
BORDER
 70
    64
  3
__ __ . __ __ . __ __ . __ __ . __ __ . __ __ .
 72
    65
 73
     6
 40
1.75
 49
0.5
 49
-0.25
 49
0.5
 49
-0.25
 49
0.0
 49
-0.25
  0
LTYPE
  2
BORDER2
 70
    64
  3
__.__.__.__.__.__.__.__.__.__.__.__.__.__.__.__
 72
    65
 73
     6
 40
0.875
 49
0.25
 49
-0.125
 49
0.25
 49
-0.125
 49
0.0
 49
-0.125
  0
LTYPE
  2
BORDERX2
 70
    64
  3
____  ____  .  ____  ____  .  ____  ____  .  __
 72
    65
 73
     6
 40
3.5
 49
1.0
 49
-0.5
 49
1.0
 49
-0.5
 49
0.0
 49
-0.5
  0
LTYPE
  2
CENTER
 70
    64
  3
____ _ ____ _ ____ _ ____ _ ____ _ ____ _ ____
 72
    65
 73
     4
 40
2.0
 49
1.25
 49
-0.25
 49
0.25
 49
-0.25
  0
LTYPE
  2
CENTER2
 70
    64
  3
___ _ ___ _ ___ _ ___ _ ___ _ ___ _ ___ _ ___ _
 72
    65
 73
     4
 40
1.125
 49
0.75
 49
-0.125
 49
0.125
 49
-0.125
  0
LTYPE
  2
CENTERX2
 70
    64
  3
________  __  ________  __  ________  __  _____
 72
    65
 73
     4
 40
4.0
 49
2.5
 49
-0.5
 49
0.5
 49
-0.5
  0
LTYPE
  2
DASHDOT
 70
    64
  3
__ . __ . __ . __ . __ . __ . __ . __ . __ . __
 72
    65
 73
     4
 40
1.0
 49
0.5
 49
-0.25
 49
0.0
 49
-0.25
  0
LTYPE
  2
DASHDOT2
 70
    64
  3
_._._._._._._._._._._._._._._._._._._._._._._._
 72
    65
 73
     4
 40
0.5
 49
0.25
 49
-0.125
 49
0.0
 49
-0.125
  0
LTYPE
  2
DASHDOTX2
 70
    64
  3
____  .  ____  .  ____  .  ____  .  ____  .  __
 72
    65
 73
     4
 40
2.0
 49
1.0
 49
-0.5
 49
0.0
 49
-0.5
  0
LTYPE
  2
DASHED
 70
    64
  3
__ __ __ __ __ __ __ __ __ __ __ __ __ __ __ __
 72
    65
 73
     2
 40
0.75
 49
0.5
 49
-0.25
  0
LTYPE
  2
DASHED2
 70
    64
  3
_ _ _ _ _ _ _ _ _ _ _ _ _ _ _ _ _ _ _ _ _ _ _ _
 72
    65
 73
     2
 40
0.375
 49
0.25
 49
-0.125
  0
LTYPE
  2
DASHEDX2
 70
    64
  3
____  ____  ____  ____  ____  ____  ____  ____
 72
    65
 73
     2
 40
1.5
 49
1.0
 49
-0.5
  0
LTYPE
  2
DIVIDE
 70
    64
  3
____ . . ____ . . ____ . . ____ . . ____ . . __
 72
    65
 73
     6
 40
1.25
 49
0.5
 49
-0.25
 49
0.0
 49
-0.25
 49
0.0
 49
-0.25
  0
LTYPE
  2
DIVIDE2
 70
    64
  3
__..__..__..__..__..__..__..__..__..__..__..__.
 72
    65
 73
     6
 40
0.625
 49
0.25
 49
-0.125
 49
0.0
 49
-0.125
 49
0.0
 49
-0.125
  0
LTYPE
  2
DIVIDEX2
 70
    64
  3
________  .  .  ________  .  .  ________  .  .
 72
    65
 73
     6
 40
2.5
 49
1.0
 49
-0.5
 49
0.0
 49
-0.5
 49
0.0
 49
-0.5
  0
LTYPE
  2
DOT
 70
    64
  3
. . . . . . . . . . . . . . . . . . . . . . . .
 72
    65
 73
     2
 40
0.25
 49
0.0
 49
-0.25
  0
LTYPE
  2
DOT2
 70
    64
  3
...............................................
 72
    65
 73
     2
 40
0.125
 49
0.0
 49
-0.125
  0
LTYPE
  2
DOTX2
 70
    64
  3
.  .  .  .  .  .  .  .  .  .  .  .  .  .  .  .
 72
    65
 73
     2
 40
0.5
 49
0.0
 49
-0.5
  0
LTYPE
  2
HIDDEN
 70
    64
  3
__ __ __ __ __ __ __ __ __ __ __ __ __ __ __ __
 72
    65
 73
     2
 40
0.375
 49
0.25
 49
-0.125
  0
LTYPE
  2
HIDDEN2
 70
    64
  3
_ _ _ _ _ _ _ _ _ _ _ _ _ _ _ _ _ _ _ _ _ _ _ _
 72
    65
 73
     2
 40
0.1875
 49
0.125
 49
-0.0625
  0
LTYPE
  2
HIDDENX2
 70
    64
  3
____ ____ ____ ____ ____ ____ ____ ____ ____ __
 72
    65
 73
     2
 40
0.75
 49
0.5
 49
-0.25
  0
LTYPE
  2
PHANTOM
 70
    64
  3
______  __  __  ______  __  __  ______  __  __
 72
    65
 73
     6
 40
2.5
 49
1.25
 49
-0.25
 49
0.25
 49
-0.25
 49
0.25
 49
-0.25
  0
LTYPE
  2
PHANTOM2
 70
    64
  3
___ _ _ ___ _ _ ___ _ _ ___ _ _ ___ _ _ ___ _ _
 72
    65
 73
     6
 40
1.25
 49
0.625
 49
-0.125
 49
0.125
 49
-0.125
 49
0.125
 49
-0.125
  0
LTYPE
  2
PHANTOMX2
 70
    64
  3
____________    ____    ____    ____________
 72
    65
 73
     6
 40
5.0
 49
2.5
 49
-0.5
 49
0.5
 49
-0.5
 49
0.5
 49
-0.5
  0
LTYPE
  2
ACAD_ISO02W100
 70
    64
  3
__ __ __ __ __ __ __ __ __ __ __ __ __ __ __ __
 72
    65
 73
     2
 40
15.0
 49
12.0
 49
-3.0
  0
LTYPE
  2
ACAD_ISO03W100
 70
    64
  3
__    __    __    __    __    __    __    __
 72
    65
 73
     2
 40
30.0
 49
12.0
 49
-18.0
  0
LTYPE
  2
ACAD_ISO04W100
 70
    64
  3
____ . ____ . ____ . ____ . ____ . ____ . ____
 72
    65
 73
     4
 40
30.5
 49
24.0
 49
-3.0
 49
0.5
 49
-3.0
  0
LTYPE
  2
ACAD_ISO05W100
 70
    64
  3
____ .. ____ .. ____ .. ____ .. ____ .. ____ ..
 72
    65
 73
     6
 40
34.0
 49
24.0
 49
-3.0
 49
0.5
 49
-3.0
 49
0.5
 49
-3.0
  0
LTYPE
  2
ACAD_ISO06W100
 70
    64
  3
____ ... ____ ... ____ ... ____ ... ____ ... __
 72
    65
 73
     8
 40
37.5
 49
24.0
 49
-3.0
 49
0.5
 49
-3.0
 49
0.5
 49
-3.0
 49
0.5
 49
-3.0
  0
LTYPE
  2
ACAD_ISO07W100
 70
    64
  3
. . . . . . . . . . . . . . . . . . . . . . . .
 72
    65
 73
     2
 40
3.5
 49
0.5
 49
-3.0
  0
LTYPE
  2
ACAD_ISO08W100
 70
    64
  3
____ __ ____ __ ____ __ ____ ____ __ __ ____ __
 72
    65
 73
     4
 40
36.0
 49
24.0
 49
-3.0
 49
6.0
 49
-3.0
  0
LTYPE
  2
ACAD_ISO09W100
 70
    64
  3
____ __ __ ____ __ __ ____ __ __ ____ __ __ ___
 72
    65
 73
     6
 40
45.0
 49
24.0
 49
-3.0
 49
6.0
 49
-3.0
 49
6.0
 49
-3.0
  0
LTYPE
  2
ACAD_ISO10W100
 70
    64
  3
__ . __ . __ . __ . __ . __ . __ . __ . __ . __
 72
    65
 73
     4
 40
18.5
 49
12.0
 49
-3.0
 49
0.5
 49
-3.0
  0
LTYPE
  2
ACAD_ISO11W100
 70
    64
  3
__ __ . __ __ . __ __ . __ __ . __ __ . __ __ .
 72
    65
 73
     6
 40
33.5
 49
12.0
 49
-3.0
 49
12.0
 49
-3.0
 49
0.5
 49
-3.0
  0
LTYPE
  2
ACAD_ISO12W100
 70
    64
  3
__ . . __ . . __ . . __ . . __ . . __ . . __ .
 72
    65
 73
     6
 40
22.0
 49
12.0
 49
-3.0
 49
0.5
 49
-3.0
 49
0.5
 49
-3.0
  0
LTYPE
  2
ACAD_ISO13W100
 70
    64
  3
__ __ . . __ __ . . __ __ . . __ __ . . __ __ .
 72
    65
 73
     8
 40
37.0
 49
12.0
 49
-3.0
 49
12.0
 49
-3.0
 49
0.5
 49
-3.0
 49
0.5
 49
-3.0
  0
LTYPE
  2
ACAD_ISO14W100
 70
    64
  3
__ . . . __ . . . __ . . . __ . . . __ . . . __
 72
    65
 73
     8
 40
25.5
 49
12.0
 49
-3.0
 49
0.5
 49
-3.0
 49
0.5
 49
-3.0
 49
0.5
 49
-3.0
  0
LTYPE
  2
ACAD_ISO15W100
 70
    64
  3
__ __ . . . __ __ . . . __ __ . . . __ __ . . .
 72
    65
 73
    10
 40
40.5
 49
12.0
 49
-3.0
 49
12.0
 49
-3.0
 49
0.5
 49
-3.0
 49
0.5
 49
-3.0
 49
0.5
 49
-3.0
  0
ENDTAB
  0
TABLE
  2
STYLE
 70
     4
  0
STYLE
  2
STANDARD
 70
    64
 40
0.0
 41
1.0
 50
0.0
 71
     0
 42
0.2
  3
txt
  4

  0
STYLE
  2
TOLERANCE
 70
    64
 40
0.0
 41
1.0
 50
0.0
 71
     0
 42
0.2
  3
../igesfont/iges1003.shx
  4

  0
STYLE
  2
ROMANS
 70
    64
 40
0.0
 41
1.0
 50
0.0
 71
     0
 42
0.2
  3
romans.shx
  4

  0
STYLE
  2
ROMANC
 70
    64
 40
0.0
 41
1.0
 50
0.0
 71
     0
 42
0.2
  3
romanc.shx
  4

  0
ENDTAB
  0
TABLE
  2
DIMSTYLE
 70
     2
  0
DIMSTYLE
  2
UNNAMED
 70
     0
  3

  4

  5

  6

  7

 40
1.0
 41
0.18
 42
0.0625
 43
0.38
 44
0.18
 45
0.0
 46
0.0
 47
0.0
 48
0.0
140
0.18
141
0.09
142
0.0
143
25.4
144
1.0
145
0.0
146
1.0
147
0.09
 71
     0
 72
     0
 73
     1
 74
     1
 75
     0
 76
     0
 77
     0
 78
     0
170
     0
171
     2
172
     0
173
     0
174
     0
175
     0
176
     0
177
     0
178
     0
  0
DIMSTYLE
  2
STANDARD
 70
     0
  3

  4

  5

  6

  7

 40
1.0
 41
0.18
 42
0.0625
 43
0.38
 44
0.18
 45
0.0
 46
0.0
 47
0.0
 48
0.0
140
0.18
141
0.09
142
0.0
143
25.4
144
1.0
145
0.0
146
1.0
147
0.09
 71
     0
 72
     0
 73
     1
 74
     1
 75
     0
 76
     0
 77
     0
 78
     0
170
     0
171
     2
172
     0
173
     0
174
     0
175
     0
176
     0
177
     0
178
     0
  0
ENDTAB
  0
TABLE
  2
LAYER
 70
     1
  0
LAYER
  2
0
 70
     0
 62
     7
  6
CONTINUOUS
  0
ENDTAB
  0
ENDSEC
  0
SECTION
  2
BLOCKS
  0
BLOCK
  5
     B
  8
0
  6
CONTINUOUS
 62
     7
  2
*UDIM572
 70
    65
 10
0.0
 20
0.0
 30
0.0
  3
*UDIM572
  0
TEXT
  5
     C
  8
0
  6
CONTINUOUS
 62
     7
 10
247.839450506457
 20
-114.847412098783
 30
0.0
 40
3.00000002980232
  1
147
 50
359.999999844103
 41
0.933333333333333
 72
     1
 11
251.739450549274
 21
-113.347412094474
 31
0.0
 73
     2
  0
LINE
  5
     D
  8
0
  6
CONTINUOUS
 62
     7
 10
233.639449180295
 20
-101.667449951171
 30
0.0
 11
233.639434732447
 21
-117.847412109374
 31
0.0
  0
LINE
  5
     E
  8
0
  6
CONTINUOUS
 62
     7
 10
270.389449180295
 20
-101.667449951171
 30
0.0
 11
270.389434732447
 21
-117.847412109374
 31
0.0
  0
LINE
  5
     F
  8
0
  6
CONTINUOUS
 62
     7
 10
233.639436518341
 20
-115.847412109375
 30
0.0
 11
270.389436518341
 21
-115.847412109375
 31
0.0
  0
LINE
  5
    10
  8
0
  6
CONTINUOUS
 62
     7
 10
236.593859795548
 20
-115.326467679423
 30
0.0
 11
233.639436518341
 21
-115.847412109375
 31
0.0
  0
LINE
  5
    11
  8
0
  6
CONTINUOUS
 62
     7
 10
233.639436518341
 20
-115.847412109375
 30
0.0
 11
236.593859795548
 21
-116.368356539327
 31
0.0
  0
LINE
  5
    12
  8
0
  6
CONTINUOUS
 62
     7
 10
267.435013241134
 20
-116.368356539327
 30
0.0
 11
270.389436518341
 21
-115.847412109375
 31
0.0
  0
LINE
  5
    13
  8
0
  6
CONTINUOUS
 62
     7
 10
270.389436518341
 20
-115.847412109375
 30
0.0
 11
267.435013241134
 21
-115.326467679423
 31
0.0
  0
ENDBLK
  5
    14
  8
0
  6
CONTINUOUS
 62
     7
  0
BLOCK
  5
    15
  8
0
  6
CONTINUOUS
 62
     7
  2
*UDIM573
 70
    65
 10
0.0
 20
0.0
 30
0.0
  3
*UDIM573
  0
TEXT
  5
    16
  8
0
  6
CONTINUOUS
 62
     7
 10
247.839450505105
 20
-59.6094245804725
 30
0.0
 40
3.00000002980232
  1
115
 50
359.999999844103
 41
0.933333333333333
 72
     1
 11
251.739450547922
 21
-58.1094245761633
 31
0.0
 73
     2
  0
LINE
  5
    17
  8
0
  6
CONTINUOUS
 62
     7
 10
237.639450387159
 20
-65.7924499511719
 30
0.0
 11
237.639452642029
 21
-58.6094245910646
 31
0.0
  0
LINE
  5
    18
  8
0
  6
CONTINUOUS
 62
     7
 10
266.389450387159
 20
-65.7924499511719
 30
0.0
 11
266.389452642029
 21
-58.6094245910646
 31
0.0
  0
LINE
  5
    19
  8
0
  6
CONTINUOUS
 62
     7
 10
237.639452014196
 20
-60.6094245910645
 30
0.0
 11
266.389452014196
 21
-60.6094245910645
 31
0.0
  0
LINE
  5
    1A
  8
0
  6
CONTINUOUS
 62
     7
 10
240.593875291403
 20
-60.0884801611128
 30
0.0
 11
237.639452014196
 21
-60.6094245910645
 31
0.0
  0
LINE
  5
    1B
  8
0
  6
CONTINUOUS
 62
     7
 10
237.639452014196
 20
-60.6094245910645
 30
0.0
 11
240.593875291403
 21
-61.1303690210161
 31
0.0
  0
LINE
  5
    1C
  8
0
  6
CONTINUOUS
 62
     7
 10
263.435028736989
 20
-61.1303690210161
 30
0.0
 11
266.389452014196
 21
-60.6094245910645
 31
0.0
  0
LINE
  5
    1D
  8
0
  6
CONTINUOUS
 62
     7
 10
266.389452014196
 20
-60.6094245910645
 30
0.0
 11
263.435028736989
 21
-60.0884801611128
 31
0.0
  0
ENDBLK
  5
    1E
  8
0
  6
CONTINUOUS
 62
     7
  0
BLOCK
  5
    1F
  8
0
  6
CONTINUOUS
 62
     7
  2
*UDIM574
 70
    65
 10
0.0
 20
0.0
 30
0.0
  3
*UDIM574
  0
TEXT
  5
    20
  8
0
  6
CONTINUOUS
 62
     7
 10
212.525627125643
 20
-90.8424499999473
 30
0.0
 40
3.00000002980232
  1
142
 50
449.999999844103
 41
0.933333333333333
 72
     1
 11
211.025627121329
 21
-86.9424499571323
 31
0.0
 73
     2
  0
LINE
  5
    21
  8
0
  6
CONTINUOUS
 62
     7
 10
234.514450073242
 20
-68.9174499511719
 30
0.0
 11
211.525627136231
 21
-68.9174499511719
 31
0.0
  0
LINE
  5
    22
  8
0
  6
CONTINUOUS
 62
     7
 10
234.514450073242
 20
-104.417449951172
 30
0.0
 11
211.525627136231
 21
-104.417449951172
 31
0.0
  0
LINE
  5
    23
  8
0
  6
CONTINUOUS
 62
     7
 10
213.52562713623
 20
-68.9174499511719
 30
0.0
 11
213.52562713623
 21
-104.417449951172
 31
0.0
  0
LINE
  5
    24
  8
0
  6
CONTINUOUS
 62
     7
 10
214.046571566182
 20
-71.8718732283788
 30
0.0
 11
213.52562713623
 21
-68.9174499511719
 31
0.0
  0
LINE
  5
    25
  8
0
  6
CONTINUOUS
 62
     7
 10
213.52562713623
 20
-68.9174499511719
 30
0.0
 11
213.004682706279
 21
-71.8718732283788
 31
0.0
  0
LINE
  5
    26
  8
0
  6
CONTINUOUS
 62
     7
 10
213.004682706279
 20
-101.463026673965
 30
0.0
 11
213.52562713623
 21
-104.417449951172
 31
0.0
  0
LINE
  5
    27
  8
0
  6
CONTINUOUS
 62
     7
 10
213.52562713623
 20
-104.417449951172
 30
0.0
 11
214.046571566182
 21
-101.463026673965
 31
0.0
  0
ENDBLK
  5
    28
  8
0
  6
CONTINUOUS
 62
     7
  0
BLOCK
  5
    29
  8
0
  6
CONTINUOUS
 62
     7
  2
*UDIM575
 70
    65
 10
0.0
 20
0.0
 30
0.0
  3
*UDIM575
  0
TEXT
  5
    2A
  8
0
  6
CONTINUOUS
 62
     7
 10
220.651153553866
 20
-90.8424499999473
 30
0.0
 40
3.00000002980232
  1
112
 50
449.999999844103
 41
0.933333333333333
 72
     1
 11
219.151153549552
 21
-86.9424499571323
 31
0.0
 73
     2
  0
LINE
  5
    2B
  8
0
  6
CONTINUOUS
 62
     7
 10
232.639450073242
 20
-72.6674499511719
 30
0.0
 11
219.651153564453
 21
-72.6674499511719
 31
0.0
  0
LINE
  5
    2C
  8
0
  6
CONTINUOUS
 62
     7
 10
232.639450073242
 20
-100.667449951172
 30
0.0
 11
219.651153564453
 21
-100.667449951172
 31
0.0
  0
LINE
  5
    2D
  8
0
  6
CONTINUOUS
 62
     7
 10
221.651153564453
 20
-72.6674499511719
 30
0.0
 11
221.651153564453
 21
-100.667449951172
 31
0.0
  0
LINE
  5
    2E
  8
0
  6
CONTINUOUS
 62
     7
 10
222.172097994405
 20
-75.6218732283788
 30
0.0
 11
221.651153564453
 21
-72.6674499511719
 31
0.0
  0
LINE
  5
    2F
  8
0
  6
CONTINUOUS
 62
     7
 10
221.651153564453
 20
-72.6674499511719
 30
0.0
 11
221.130209134501
 21
-75.6218732283788
 31
0.0
  0
LINE
  5
    30
  8
0
  6
CONTINUOUS
 62
     7
 10
221.130209134501
 20
-97.7130266739649
 30
0.0
 11
221.651153564453
 21
-100.667449951172
 31
0.0
  0
LINE
  5
    31
  8
0
  6
CONTINUOUS
 62
     7
 10
221.651153564453
 20
-100.667449951172
 30
0.0
 11
222.172097994405
 21
-97.7130266739649
 31
0.0
  0
ENDBLK
  5
    32
  8
0
  6
CONTINUOUS
 62
     7
  0
BLOCK
  5
    33
  8
0
  6
CONTINUOUS
 62
     7
  2
*UDIM576
 70
    65
 10
0.0
 20
0.0
 30
0.0
  3
*UDIM576
  0
TEXT
  5
    34
  8
0
  6
CONTINUOUS
 62
     7
 10
278.304203533209
 20
-55.6463222629151
 30
0.0
 40
3.00000002980232
  1
7
 50
404.868411918951
 41
0.933333333333334
 72
     1
 11
278.025583891139
 21
-53.8071998733508
 31
0.0
 73
     2
  0
TEXT
  5
    35
  8
0
  6
CONTINUOUS
 62
     7
 10
276.071707533884
 20
-57.8685872506205
 30
0.0
 40
3.00000002980232
  1
Ø
 50
404.868411918951
 41
0.933333333333334
 72
     1
 11
275.793087891814
 21
-56.0294648610562
 31
0.0
 73
     2
  0
LINE
  5
    36
  8
0
  6
CONTINUOUS
 62
     7
 10
280.568888050112
 20
-54.8029930514231
 30
0.0
 11
265.769312297608
 21
-69.5347457791433
 31
0.0
  0
LINE
  5
    37
  8
0
  6
CONTINUOUS
 62
     7
 10
268.735956598815
 20
-65.846656428228
 30
0.0
 11
267.009587848877
 21
-68.3001541232005
 31
0.0
  0
LINE
  5
    38
  8
0
  6
CONTINUOUS
 62
     7
 10
267.009587848877
 20
-68.3001541232005
 30
0.0
 11
269.470989337591
 21
-66.5850731597011
 31
0.0
  0
LINE
  5
    39
  8
0
  6
CONTINUOUS
 62
     7
 10
264.042943547669
 20
-71.9882434741158
 30
0.0
 11
265.769312297608
 21
-69.5347457791433
 31
0.0
  0
LINE
  5
    3A
  8
0
  6
CONTINUOUS
 62
     7
 10
265.769312297608
 20
-69.5347457791433
 30
0.0
 11
263.307910808894
 21
-71.2498267426427
 31
0.0
  0
ENDBLK
  5
    3B
  8
0
  6
CONTINUOUS
 62
     7
  0
BLOCK
  5
    3C
  8
0
  6
CONTINUOUS
 62
     7
  2
*UDIM577
 70
    65
 10
0.0
 20
0.0
 30
0.0
  3
*UDIM577
  0
TEXT
  5
    3D
  8
0
  6
CONTINUOUS
 62
     7
 10
46.6285921864591
 20
93.6265239926602
 30
0.0
 40
2.99999994039535
  1
217
 50
89.9999999480344
 41
0.933333333333333
 72
     1
 11
45.1285922197937
 21
97.5265239165328
 31
0.0
 73
     2
  0
LINE
  5
    3E
  8
0
  6
CONTINUOUS
 62
     7
 10
36.1355347635426
 20
64.9766014170003
 30
0.0
 11
49.6286409238729
 21
64.9766216189463
 31
0.0
  0
LINE
  5
    3F
  8
0
  6
CONTINUOUS
 62
     7
 10
58.811731698236
 20
130.076453438079
 30
0.0
 11
45.6285434561043
 21
130.076433700144
 31
0.0
  0
LINE
  5
    40
  8
0
  6
CONTINUOUS
 62
     7
 10
47.6286409238751
 20
64.9766186245363
 30
0.0
 11
47.6285434561021
 21
130.076436694554
 31
0.0
  0
LINE
  5
    41
  8
0
  6
CONTINUOUS
 62
     7
 10
46.8521794288905
 20
67.8743949352281
 30
0.0
 11
47.6286409238751
 21
64.9766186245363
 31
0.0
  0
LINE
  5
    42
  8
0
  6
CONTINUOUS
 62
     7
 10
47.6286409238751
 20
64.9766186245363
 30
0.0
 11
48.4050937417259
 21
67.8743972602592
 31
0.0
  0
LINE
  5
    43
  8
0
  6
CONTINUOUS
 62
     7
 10
48.4050049510866
 20
127.178660383862
 30
0.0
 11
47.6285434561021
 21
130.076436694554
 31
0.0
  0
LINE
  5
    44
  8
0
  6
CONTINUOUS
 62
     7
 10
47.6285434561021
 20
130.076436694554
 30
0.0
 11
46.8520906382513
 21
127.178658058831
 31
0.0
  0
ENDBLK
  5
    45
  8
0
  6
CONTINUOUS
 62
     7
  0
BLOCK
  5
    46
  8
0
  6
CONTINUOUS
 62
     7
  2
*UDIM578
 70
    65
 10
0.0
 20
0.0
 30
0.0
  3
*UDIM578
  0
TEXT
  5
    47
  8
0
  6
CONTINUOUS
 62
     7
 10
150.616543892173
 20
61.0765999959227
 30
0.0
 40
2.99999994039535
  1
161
 50
89.9999999480344
 41
0.933333333333333
 72
     1
 11
149.116543925508
 21
64.9765999197953
 31
0.0
 73
     2
  0
LINE
  5
    48
  8
0
  6
CONTINUOUS
 62
     7
 10
135.286832556129
 20
40.8265995323651
 30
0.0
 11
153.616543895705
 21
40.8265995323651
 31
0.0
  0
LINE
  5
    49
  8
0
  6
CONTINUOUS
 62
     7
 10
135.286832556129
 20
89.1266003072254
 30
0.0
 11
153.616543895705
 21
89.1266003072254
 31
0.0
  0
LINE
  5
    4A
  8
0
  6
CONTINUOUS
 62
     7
 10
151.616543895705
 20
40.8265995323651
 30
0.0
 11
151.616543895705
 21
89.1266003072254
 31
0.0
  0
LINE
  5
    4B
  8
0
  6
CONTINUOUS
 62
     7
 10
150.840086739287
 20
43.7243770055756
 30
0.0
 11
151.616543895705
 21
40.8265995323651
 31
0.0
  0
LINE
  5
    4C
  8
0
  6
CONTINUOUS
 62
     7
 10
151.616543895705
 20
40.8265995323651
 30
0.0
 11
152.393001052124
 21
43.7243770055756
 31
0.0
  0
LINE
  5
    4D
  8
0
  6
CONTINUOUS
 62
     7
 10
152.393001052124
 20
86.2288228340149
 30
0.0
 11
151.616543895705
 21
89.1266003072254
 31
0.0
  0
LINE
  5
    4E
  8
0
  6
CONTINUOUS
 62
     7
 10
151.616543895705
 20
89.1266003072254
 30
0.0
 11
150.840086739287
 21
86.2288228340149
 31
0.0
  0
ENDBLK
  5
    4F
  8
0
  6
CONTINUOUS
 62
     7
  0
BLOCK
  5
    50
  8
0
  6
CONTINUOUS
 62
     7
  2
*UDIM579
 70
    65
 10
0.0
 20
0.0
 30
0.0
  3
*UDIM579
  0
TEXT
  5
    51
  8
0
  6
CONTINUOUS
 62
     7
 10
77.8618304616592
 20
-29.8969314226103
 30
0.0
 40
2.99999994039535
  1
70
 50
359.999999948034
 41
0.933333333333333
 72
     1
 11
80.3618304133415
 21
-28.3969314546675
 31
0.0
 73
     2
  0
LINE
  5
    52
  8
0
  6
CONTINUOUS
 62
     7
 10
90.861830830574
 20
0.898269010176264
 30
0.0
 11
90.861830830574
 21
-32.8969314248652
 31
0.0
  0
LINE
  5
    53
  8
0
  6
CONTINUOUS
 62
     7
 10
69.861829996109
 20
1.62675308002194
 30
0.0
 11
69.861829996109
 21
-32.8969314248652
 31
0.0
  0
LINE
  5
    54
  8
0
  6
CONTINUOUS
 62
     7
 10
90.861830830574
 20
-30.8969314248652
 30
0.0
 11
69.861829996109
 21
-30.8969314248652
 31
0.0
  0
LINE
  5
    55
  8
0
  6
CONTINUOUS
 62
     7
 10
87.9640533573635
 20
-31.6733885812837
 30
0.0
 11
90.861830830574
 21
-30.8969314248652
 31
0.0
  0
LINE
  5
    56
  8
0
  6
CONTINUOUS
 62
     7
 10
90.861830830574
 20
-30.8969314248652
 30
0.0
 11
87.9640533573635
 21
-30.1204742684466
 31
0.0
  0
LINE
  5
    57
  8
0
  6
CONTINUOUS
 62
     7
 10
72.7596074693195
 20
-30.1204742684466
 30
0.0
 11
69.861829996109
 21
-30.8969314248652
 31
0.0
  0
LINE
  5
    58
  8
0
  6
CONTINUOUS
 62
     7
 10
69.861829996109
 20
-30.8969314248652
 30
0.0
 11
72.7596074693195
 21
-31.6733885812837
 31
0.0
  0
ENDBLK
  5
    59
  8
0
  6
CONTINUOUS
 62
     7
  0
BLOCK
  5
    5A
  8
0
  6
CONTINUOUS
 62
     7
  2
*UDIM580
 70
    65
 10
0.0
 20
0.0
 30
0.0
  3
*UDIM580
  0
TEXT
  5
    5B
  8
0
  6
CONTINUOUS
 62
     7
 10
98.8618312961242
 20
-29.8969314226103
 30
0.0
 40
2.99999994039535
  1
70
 50
359.999999948034
 41
0.933333333333333
 72
     1
 11
101.361831247807
 21
-28.3969314546675
 31
0.0
 73
     2
  0
LINE
  5
    5C
  8
0
  6
CONTINUOUS
 62
     7
 10
111.861831665039
 20
-8.53501646488833
 30
0.0
 11
111.861831665039
 21
-32.8969314248652
 31
0.0
  0
LINE
  5
    5D
  8
0
  6
CONTINUOUS
 62
     7
 10
111.861831665039
 20
-30.8969314248652
 30
0.0
 11
90.861830830574
 21
-30.8969314248652
 31
0.0
  0
LINE
  5
    5E
  8
0
  6
CONTINUOUS
 62
     7
 10
108.964054191829
 20
-31.6733885812837
 30
0.0
 11
111.861831665039
 21
-30.8969314248652
 31
0.0
  0
LINE
  5
    5F
  8
0
  6
CONTINUOUS
 62
     7
 10
111.861831665039
 20
-30.8969314248652
 30
0.0
 11
108.964054191829
 21
-30.1204742684466
 31
0.0
  0
LINE
  5
    60
  8
0
  6
CONTINUOUS
 62
     7
 10
93.7596083037846
 20
-30.1204742684466
 30
0.0
 11
90.861830830574
 21
-30.8969314248652
 31
0.0
  0
LINE
  5
    61
  8
0
  6
CONTINUOUS
 62
     7
 10
90.861830830574
 20
-30.8969314248652
 30
0.0
 11
93.7596083037846
 21
-31.6733885812837
 31
0.0
  0
ENDBLK
  5
    62
  8
0
  6
CONTINUOUS
 62
     7
  0
BLOCK
  5
    63
  8
0
  6
CONTINUOUS
 62
     7
  2
*UDIM581
 70
    65
 10
0.0
 20
0.0
 30
0.0
  3
*UDIM581
  0
TEXT
  5
    64
  8
0
  6
CONTINUOUS
 62
     7
 10
119.861832130589
 20
-29.8969314226103
 30
0.0
 40
2.99999994039535
  1
70
 50
359.999999948034
 41
0.933333333333333
 72
     1
 11
122.361832082272
 21
-28.3969314546675
 31
0.0
 73
     2
  0
LINE
  5
    65
  8
0
  6
CONTINUOUS
 62
     7
 10
132.861832499504
 20
129.076564306271
 30
0.0
 11
132.861832499504
 21
-32.8969314248652
 31
0.0
  0
LINE
  5
    66
  8
0
  6
CONTINUOUS
 62
     7
 10
132.861832499504
 20
-30.8969314248652
 30
0.0
 11
111.861831665039
 21
-30.8969314248652
 31
0.0
  0
LINE
  5
    67
  8
0
  6
CONTINUOUS
 62
     7
 10
129.964055026294
 20
-31.6733885812837
 30
0.0
 11
132.861832499504
 21
-30.8969314248652
 31
0.0
  0
LINE
  5
    68
  8
0
  6
CONTINUOUS
 62
     7
 10
132.861832499504
 20
-30.8969314248652
 30
0.0
 11
129.964055026294
 21
-30.1204742684466
 31
0.0
  0
LINE
  5
    69
  8
0
  6
CONTINUOUS
 62
     7
 10
114.75960913825
 20
-30.1204742684466
 30
0.0
 11
111.861831665039
 21
-30.8969314248652
 31
0.0
  0
LINE
  5
    6A
  8
0
  6
CONTINUOUS
 62
     7
 10
111.861831665039
 20
-30.8969314248652
 30
0.0
 11
114.75960913825
 21
-31.6733885812837
 31
0.0
  0
ENDBLK
  5
    6B
  8
0
  6
CONTINUOUS
 62
     7
  0
BLOCK
  5
    6C
  8
0
  6
CONTINUOUS
 62
     7
  2
*UDIM582
 70
    65
 10
0.0
 20
0.0
 30
0.0
  3
*UDIM582
  0
TEXT
  5
    6D
  8
0
  6
CONTINUOUS
 62
     7
 10
107.961831741172
 20
34.7409556729407
 30
0.0
 40
2.99999994039535
  1
140
 50
359.999999948034
 41
0.933333333333333
 72
     1
 11
111.861831665039
 21
36.2409556396208
 31
0.0
 73
     2
  0
LINE
  5
    6E
  8
0
  6
CONTINUOUS
 62
     7
 10
132.861832499504
 20
129.076564306271
 30
0.0
 11
132.861832499504
 21
31.7409556694231
 31
0.0
  0
LINE
  5
    6F
  8
0
  6
CONTINUOUS
 62
     7
 10
132.861832499504
 20
33.7409556694231
 30
0.0
 11
90.861830830574
 21
33.7409556694231
 31
0.0
  0
LINE
  5
    70
  8
0
  6
CONTINUOUS
 62
     7
 10
129.964055026294
 20
32.9644985130046
 30
0.0
 11
132.861832499504
 21
33.7409556694231
 31
0.0
  0
LINE
  5
    71
  8
0
  6
CONTINUOUS
 62
     7
 10
132.861832499504
 20
33.7409556694231
 30
0.0
 11
129.964055026294
 21
34.5174128258417
 31
0.0
  0
LINE
  5
    72
  8
0
  6
CONTINUOUS
 62
     7
 10
93.7596083037846
 20
34.5174128258417
 30
0.0
 11
90.861830830574
 21
33.7409556694231
 31
0.0
  0
LINE
  5
    73
  8
0
  6
CONTINUOUS
 62
     7
 10
90.861830830574
 20
33.7409556694231
 30
0.0
 11
93.7596083037846
 21
32.9644985130046
 31
0.0
  0
ENDBLK
  5
    74
  8
0
  6
CONTINUOUS
 62
     7
  0
BLOCK
  5
    75
  8
0
  6
CONTINUOUS
 62
     7
  2
*UDIM583
 70
    65
 10
0.0
 20
0.0
 30
0.0
  3
*UDIM583
  0
TEXT
  5
    76
  8
0
  6
CONTINUOUS
 62
     7
 10
107.961831741172
 20
95.6124173165933
 30
0.0
 40
2.99999994039535
  1
152
 50
359.999999948034
 41
0.933333333333333
 72
     1
 11
111.861831665039
 21
97.1124172832734
 31
0.0
 73
     2
  0
LINE
  5
    77
  8
0
  6
CONTINUOUS
 62
     7
 10
134.66183257103
 20
89.7516002923243
 30
0.0
 11
134.66183257103
 21
96.6124173130757
 31
0.0
  0
LINE
  5
    78
  8
0
  6
CONTINUOUS
 62
     7
 10
89.0618307590485
 20
89.7516002923243
 30
0.0
 11
89.0618307590485
 21
96.6124173130757
 31
0.0
  0
LINE
  5
    79
  8
0
  6
CONTINUOUS
 62
     7
 10
134.66183257103
 20
94.6124173130757
 30
0.0
 11
89.0618307590485
 21
94.6124173130757
 31
0.0
  0
LINE
  5
    7A
  8
0
  6
CONTINUOUS
 62
     7
 10
131.764055097819
 20
93.8359601566572
 30
0.0
 11
134.66183257103
 21
94.6124173130757
 31
0.0
  0
LINE
  5
    7B
  8
0
  6
CONTINUOUS
 62
     7
 10
134.66183257103
 20
94.6124173130757
 30
0.0
 11
131.764055097819
 21
95.3888744694943
 31
0.0
  0
LINE
  5
    7C
  8
0
  6
CONTINUOUS
 62
     7
 10
91.959608232259
 20
95.3888744694943
 30
0.0
 11
89.0618307590485
 21
94.6124173130757
 31
0.0
  0
LINE
  5
    7D
  8
0
  6
CONTINUOUS
 62
     7
 10
89.0618307590485
 20
94.6124173130757
 30
0.0
 11
91.959608232259
 21
93.8359601566572
 31
0.0
  0
ENDBLK
  5
    7E
  8
0
  6
CONTINUOUS
 62
     7
  0
BLOCK
  5
    7F
  8
0
  6
CONTINUOUS
 62
     7
  2
*UDIM584
 70
    65
 10
0.0
 20
0.0
 30
0.0
  3
*UDIM584
  0
TEXT
  5
    80
  8
0
  6
CONTINUOUS
 62
     7
 10
112.65346690715
 20
143.557118539093
 30
0.0
 40
2.99999994039535
  1
23
 50
359.999999948034
 41
0.933333333333333
 72
     1
 11
115.153466858832
 21
145.057118507036
 31
0.0
 73
     2
  0
LINE
  5
    81
  8
0
  6
CONTINUOUS
 62
     7
 10
118.7617225343
 20
151.126502675314
 30
0.0
 11
118.7617225343
 21
140.557118536838
 31
0.0
  0
LINE
  5
    82
  8
0
  6
CONTINUOUS
 62
     7
 10
123.7617225343
 20
142.557118536838
 30
0.0
 11
106.861831665039
 21
142.557118536838
 31
0.0
  0
LINE
  5
    83
  8
0
  6
CONTINUOUS
 62
     7
 10
121.65950000751
 20
143.333575693257
 30
0.0
 11
118.7617225343
 21
142.557118536838
 31
0.0
  0
LINE
  5
    84
  8
0
  6
CONTINUOUS
 62
     7
 10
118.7617225343
 20
142.557118536838
 30
0.0
 11
121.65950000751
 21
141.78066138042
 31
0.0
  0
LINE
  5
    85
  8
0
  6
CONTINUOUS
 62
     7
 10
108.964054191829
 20
141.78066138042
 30
0.0
 11
111.861831665039
 21
142.557118536838
 31
0.0
  0
LINE
  5
    86
  8
0
  6
CONTINUOUS
 62
     7
 10
111.861831665039
 20
142.557118536838
 30
0.0
 11
108.964054191829
 21
143.333575693257
 31
0.0
  0
ENDBLK
  5
    87
  8
0
  6
CONTINUOUS
 62
     7
  0
BLOCK
  5
    88
  8
0
  6
CONTINUOUS
 62
     7
  2
*UDIM585
 70
    65
 10
0.0
 20
0.0
 30
0.0
  3
*UDIM585
  0
TEXT
  5
    89
  8
0
  6
CONTINUOUS
 62
     7
 10
98.2168273068879
 20
176.026944178152
 30
0.0
 40
2.99999994039535
  1
22,5
 50
359.999999948034
 41
0.933333333333333
 72
     1
 11
103.516827202939
 21
177.526944143569
 31
0.0
 73
     2
  0
LINE
  5
    8A
  8
0
  6
CONTINUOUS
 62
     7
 10
118.7617225343
 20
158.22650287747
 30
0.0
 11
118.7617225343
 21
177.026944173372
 31
0.0
  0
LINE
  5
    8B
  8
0
  6
CONTINUOUS
 62
     7
 10
112.011705611544
 20
158.226481128595
 30
0.0
 11
112.011705611544
 21
177.026944173372
 31
0.0
  0
LINE
  5
    8C
  8
0
  6
CONTINUOUS
 62
     7
 10
118.7617225343
 20
175.026944173372
 30
0.0
 11
98.2168273082408
 21
175.026944173372
 31
0.0
  0
LINE
  5
    8D
  8
0
  6
CONTINUOUS
 62
     7
 10
121.65950000751
 20
175.80340132979
 30
0.0
 11
118.7617225343
 21
175.026944173372
 31
0.0
  0
LINE
  5
    8E
  8
0
  6
CONTINUOUS
 62
     7
 10
118.7617225343
 20
175.026944173372
 30
0.0
 11
121.65950000751
 21
174.250487016953
 31
0.0
  0
LINE
  5
    8F
  8
0
  6
CONTINUOUS
 62
     7
 10
109.113928138333
 20
174.250487016953
 30
0.0
 11
112.011705611544
 21
175.026944173372
 31
0.0
  0
LINE
  5
    90
  8
0
  6
CONTINUOUS
 62
     7
 10
112.011705611544
 20
175.026944173372
 30
0.0
 11
109.113928138333
 21
175.80340132979
 31
0.0
  0
ENDBLK
  5
    91
  8
0
  6
CONTINUOUS
 62
     7
  0
BLOCK
  5
    92
  8
0
  6
CONTINUOUS
 62
     7
  2
*UDIM586
 70
    65
 10
0.0
 20
0.0
 30
0.0
  3
*UDIM586
  0
TEXT
  5
    93
  8
0
  6
CONTINUOUS
 62
     7
 10
128.109112587981
 20
176.026944178152
 30
0.0
 40
2.99999994039535
  1
22,5
 50
359.999999948034
 41
0.933333333333333
 72
     1
 11
133.409112484032
 21
177.526944143569
 31
0.0
 73
     2
  0
LINE
  5
    94
  8
0
  6
CONTINUOUS
 62
     7
 10
125.511732250807
 20
158.226512032774
 30
0.0
 11
125.511732250807
 21
177.026944173372
 31
0.0
  0
LINE
  5
    95
  8
0
  6
CONTINUOUS
 62
     7
 10
138.709112378731
 20
175.026944173372
 30
0.0
 11
118.7617225343
 21
175.026944173372
 31
0.0
  0
LINE
  5
    96
  8
0
  6
CONTINUOUS
 62
     7
 10
128.409509724017
 20
175.80340132979
 30
0.0
 11
125.511732250807
 21
175.026944173372
 31
0.0
  0
LINE
  5
    97
  8
0
  6
CONTINUOUS
 62
     7
 10
125.511732250807
 20
175.026944173372
 30
0.0
 11
128.409509724017
 21
174.250487016953
 31
0.0
  0
CIRCLE
  5
    98
  8
0
  6
CONTINUOUS
 62
     7
 10
118.7617225343
 20
175.026944173372
 30
0.0
 40
0.5
  0
ENDBLK
  5
    99
  8
0
  6
CONTINUOUS
 62
     7
  0
BLOCK
  5
    9A
  8
0
  6
CONTINUOUS
 62
     7
  2
*UDIM587
 70
    65
 10
0.0
 20
0.0
 30
0.0
  3
*UDIM587
  0
TEXT
  5
    9B
  8
0
  6
CONTINUOUS
 62
     7
 10
151.061745938868
 20
169.569200782637
 30
0.0
 40
2.99999994039535
  1
90
 50
359.999999948034
 41
0.933333333333333
 72
     1
 11
153.56174589055
 21
171.069200750579
 31
0.0
 73
     2
  0
LINE
  5
    9C
  8
0
  6
CONTINUOUS
 62
     7
 10
140.061700380144
 20
161.676512172521
 30
0.0
 11
140.061683103384
 21
170.569174552314
 31
0.0
  0
LINE
  5
    9D
  8
0
  6
CONTINUOUS
 62
     7
 10
167.061849190501
 20
150.716559952096
 30
0.0
 11
167.061810620527
 21
170.569227008451
 31
0.0
  0
LINE
  5
    9E
  8
0
  6
CONTINUOUS
 62
     7
 10
140.061686989006
 20
168.569174552318
 30
0.0
 11
167.061814506148
 21
168.569227008455
 31
0.0
  0
LINE
  5
    9F
  8
0
  6
CONTINUOUS
 62
     7
 10
142.959462953702
 20
169.345637338568
 30
0.0
 11
140.061686989006
 21
168.569174552318
 31
0.0
  0
LINE
  5
    A0
  8
0
  6
CONTINUOUS
 62
     7
 10
140.061686989006
 20
168.569174552318
 30
0.0
 11
142.95946597072
 21
167.792723025734
 31
0.0
  0
LINE
  5
    A1
  8
0
  6
CONTINUOUS
 62
     7
 10
164.164038541453
 20
167.792764222205
 30
0.0
 11
167.061814506148
 21
168.569227008455
 31
0.0
  0
LINE
  5
    A2
  8
0
  6
CONTINUOUS
 62
     7
 10
167.061814506148
 20
168.569227008455
 30
0.0
 11
164.164035524434
 21
169.345678535039
 31
0.0
  0
ENDBLK
  5
    A3
  8
0
  6
CONTINUOUS
 62
     7
  0
BLOCK
  5
    A4
  8
0
  6
CONTINUOUS
 62
     7
  2
*UDIM588
 70
    65
 10
0.0
 20
0.0
 30
0.0
  3
*UDIM588
  0
TEXT
  5
    A5
  8
0
  6
CONTINUOUS
 62
     7
 10
157.811789076074
 20
183.872812823859
 30
0.0
 40
2.99999994039535
  1
45
 50
359.999999948034
 41
0.933333333333333
 72
     1
 11
160.311789027757
 21
185.372812791802
 31
0.0
 73
     2
  0
LINE
  5
    A6
  8
0
  6
CONTINUOUS
 62
     7
 10
167.061851133312
 20
161.676539635655
 30
0.0
 11
167.061851133312
 21
184.872812821605
 31
0.0
  0
LINE
  5
    A7
  8
0
  6
CONTINUOUS
 62
     7
 10
153.561726922201
 20
158.226548653842
 30
0.0
 11
153.561726922201
 21
184.872812821605
 31
0.0
  0
LINE
  5
    A8
  8
0
  6
CONTINUOUS
 62
     7
 10
172.061851133312
 20
182.872812821605
 30
0.0
 11
153.561726922201
 21
182.872812821605
 31
0.0
  0
LINE
  5
    A9
  8
0
  6
CONTINUOUS
 62
     7
 10
169.959628606523
 20
183.649269978023
 30
0.0
 11
167.061851133312
 21
182.872812821605
 31
0.0
  0
LINE
  5
    AA
  8
0
  6
CONTINUOUS
 62
     7
 10
167.061851133312
 20
182.872812821605
 30
0.0
 11
169.959628606523
 21
182.096355665186
 31
0.0
  0
LINE
  5
    AB
  8
0
  6
CONTINUOUS
 62
     7
 10
150.663949448991
 20
182.096355665186
 30
0.0
 11
153.561726922201
 21
182.872812821605
 31
0.0
  0
LINE
  5
    AC
  8
0
  6
CONTINUOUS
 62
     7
 10
153.561726922201
 20
182.872812821605
 30
0.0
 11
150.663949448991
 21
183.649269978023
 31
0.0
  0
ENDBLK
  5
    AD
  8
0
  6
CONTINUOUS
 62
     7
  0
BLOCK
  5
    AE
  8
0
  6
CONTINUOUS
 62
     7
  2
*UDIM589
 70
    65
 10
0.0
 20
0.0
 30
0.0
  3
*UDIM589
  0
TEXT
  5
    AF
  8
0
  6
CONTINUOUS
 62
     7
 10
132.261724804384
 20
183.872812825122
 30
0.0
 40
2.99999994039535
  1
116
 50
359.999999948034
 41
0.933333333333333
 72
     1
 11
136.16172472825
 21
185.372812791802
 31
0.0
 73
     2
  0
LINE
  5
    B0
  8
0
  6
CONTINUOUS
 62
     7
 10
118.7617225343
 20
158.22650287747
 30
0.0
 11
118.7617225343
 21
184.872812821605
 31
0.0
  0
LINE
  5
    B1
  8
0
  6
CONTINUOUS
 62
     7
 10
153.561726922201
 20
182.872812821605
 30
0.0
 11
118.7617225343
 21
182.872812821605
 31
0.0
  0
LINE
  5
    B2
  8
0
  6
CONTINUOUS
 62
     7
 10
150.663949448991
 20
182.096355665186
 30
0.0
 11
153.561726922201
 21
182.872812821605
 31
0.0
  0
LINE
  5
    B3
  8
0
  6
CONTINUOUS
 62
     7
 10
153.561726922201
 20
182.872812821605
 30
0.0
 11
150.663949448991
 21
183.649269978023
 31
0.0
  0
LINE
  5
    B4
  8
0
  6
CONTINUOUS
 62
     7
 10
121.65950000751
 20
183.649269978023
 30
0.0
 11
118.7617225343
 21
182.872812821605
 31
0.0
  0
LINE
  5
    B5
  8
0
  6
CONTINUOUS
 62
     7
 10
118.7617225343
 20
182.872812821605
 30
0.0
 11
121.65950000751
 21
182.096355665186
 31
0.0
  0
ENDBLK
  5
    B6
  8
0
  6
CONTINUOUS
 62
     7
  0
BLOCK
  5
    B7
  8
0
  6
CONTINUOUS
 62
     7
  2
*UDIM590
 70
    65
 10
0.0
 20
0.0
 30
0.0
  3
*UDIM590
  0
TEXT
  5
    B8
  8
0
  6
CONTINUOUS
 62
     7
 10
97.4617743326611
 20
183.872812825122
 30
0.0
 40
2.99999994039535
  1
116
 50
359.999999948034
 41
0.933333333333333
 72
     1
 11
101.361774256528
 21
185.372812791802
 31
0.0
 73
     2
  0
LINE
  5
    B9
  8
0
  6
CONTINUOUS
 62
     7
 10
83.9618259787563
 20
158.226475411647
 30
0.0
 11
83.9618259787563
 21
184.872812821605
 31
0.0
  0
LINE
  5
    BA
  8
0
  6
CONTINUOUS
 62
     7
 10
118.7617225343
 20
182.872812821605
 30
0.0
 11
83.9618259787563
 21
182.872812821605
 31
0.0
  0
LINE
  5
    BB
  8
0
  6
CONTINUOUS
 62
     7
 10
115.863945061089
 20
182.096355665186
 30
0.0
 11
118.7617225343
 21
182.872812821605
 31
0.0
  0
LINE
  5
    BC
  8
0
  6
CONTINUOUS
 62
     7
 10
118.7617225343
 20
182.872812821605
 30
0.0
 11
115.863945061089
 21
183.649269978023
 31
0.0
  0
LINE
  5
    BD
  8
0
  6
CONTINUOUS
 62
     7
 10
86.8596034519669
 20
183.649269978023
 30
0.0
 11
83.9618259787563
 21
182.872812821605
 31
0.0
  0
LINE
  5
    BE
  8
0
  6
CONTINUOUS
 62
     7
 10
83.9618259787563
 20
182.872812821605
 30
0.0
 11
86.8596034519669
 21
182.096355665186
 31
0.0
  0
ENDBLK
  5
    BF
  8
0
  6
CONTINUOUS
 62
     7
  0
BLOCK
  5
    C0
  8
0
  6
CONTINUOUS
 62
     7
  2
*UDIM591
 70
    65
 10
0.0
 20
0.0
 30
0.0
  3
*UDIM591
  0
TEXT
  5
    C1
  8
0
  6
CONTINUOUS
 62
     7
 10
62.6618236317552
 20
183.872812825122
 30
0.0
 40
2.99999994039535
  1
116
 50
359.999999948034
 41
0.933333333333333
 72
     1
 11
66.5618235556221
 21
185.372812791802
 31
0.0
 73
     2
  0
LINE
  5
    C2
  8
0
  6
CONTINUOUS
 62
     7
 10
49.1618211324879
 20
158.226450949349
 30
0.0
 11
49.1618211324879
 21
184.872812821605
 31
0.0
  0
LINE
  5
    C3
  8
0
  6
CONTINUOUS
 62
     7
 10
83.9618259787563
 20
182.872812821605
 30
0.0
 11
49.1618211324879
 21
182.872812821605
 31
0.0
  0
LINE
  5
    C4
  8
0
  6
CONTINUOUS
 62
     7
 10
81.0640485055458
 20
182.096355665186
 30
0.0
 11
83.9618259787563
 21
182.872812821605
 31
0.0
  0
LINE
  5
    C5
  8
0
  6
CONTINUOUS
 62
     7
 10
83.9618259787563
 20
182.872812821605
 30
0.0
 11
81.0640485055458
 21
183.649269978023
 31
0.0
  0
LINE
  5
    C6
  8
0
  6
CONTINUOUS
 62
     7
 10
52.0595986056984
 20
183.649269978023
 30
0.0
 11
49.1618211324879
 21
182.872812821605
 31
0.0
  0
LINE
  5
    C7
  8
0
  6
CONTINUOUS
 62
     7
 10
49.1618211324879
 20
182.872812821605
 30
0.0
 11
52.0595986056984
 21
182.096355665186
 31
0.0
  0
ENDBLK
  5
    C8
  8
0
  6
CONTINUOUS
 62
     7
  0
BLOCK
  5
    C9
  8
0
  6
CONTINUOUS
 62
     7
  2
*UDIM592
 70
    65
 10
0.0
 20
0.0
 30
0.0
  3
*UDIM592
  0
TEXT
  5
    CA
  8
0
  6
CONTINUOUS
 62
     7
 10
39.9118349738937
 20
183.872812823859
 30
0.0
 40
2.99999994039535
  1
45
 50
359.999999948034
 41
0.933333333333333
 72
     1
 11
42.411834925576
 21
185.372812791802
 31
0.0
 73
     2
  0
LINE
  5
    CB
  8
0
  6
CONTINUOUS
 62
     7
 10
35.6618487186642
 20
161.676448082917
 30
0.0
 11
35.6618487186642
 21
184.872812821605
 31
0.0
  0
LINE
  5
    CC
  8
0
  6
CONTINUOUS
 62
     7
 10
49.1618211324879
 20
182.872812821605
 30
0.0
 11
30.6618487186642
 21
182.872812821605
 31
0.0
  0
LINE
  5
    CD
  8
0
  6
CONTINUOUS
 62
     7
 10
52.0595986056984
 20
183.649269978023
 30
0.0
 11
49.1618211324879
 21
182.872812821605
 31
0.0
  0
LINE
  5
    CE
  8
0
  6
CONTINUOUS
 62
     7
 10
49.1618211324879
 20
182.872812821605
 30
0.0
 11
52.0595986056984
 21
182.096355665186
 31
0.0
  0
LINE
  5
    CF
  8
0
  6
CONTINUOUS
 62
     7
 10
32.7640712454537
 20
182.096355665186
 30
0.0
 11
35.6618487186642
 21
182.872812821605
 31
0.0
  0
LINE
  5
    D0
  8
0
  6
CONTINUOUS
 62
     7
 10
35.6618487186642
 20
182.872812821605
 30
0.0
 11
32.7640712454537
 21
183.649269978023
 31
0.0
  0
ENDBLK
  5
    D1
  8
0
  6
CONTINUOUS
 62
     7
  0
BLOCK
  5
    D2
  8
0
  6
CONTINUOUS
 62
     7
  2
*UDIM593
 70
    65
 10
0.0
 20
0.0
 30
0.0
  3
*UDIM593
  0
TEXT
  5
    D3
  8
0
  6
CONTINUOUS
 62
     7
 10
45.0118463483262
 20
-42.8080733596765
 30
0.0
 40
2.99999994039535
  1
79
 50
359.999999948034
 41
0.933333333333333
 72
     1
 11
47.5118463000086
 21
-41.3080733917337
 31
0.0
 73
     2
  0
LINE
  5
    D4
  8
0
  6
CONTINUOUS
 62
     7
 10
59.361843881353
 20
7.27662010891174
 30
0.0
 11
59.361843881353
 21
-45.8080733619313
 31
0.0
  0
LINE
  5
    D5
  8
0
  6
CONTINUOUS
 62
     7
 10
35.6618487186642
 20
-23.323295109051
 30
0.0
 11
35.6618487186642
 21
-45.8080733619313
 31
0.0
  0
LINE
  5
    D6
  8
0
  6
CONTINUOUS
 62
     7
 10
59.361843881353
 20
-43.8080733619313
 30
0.0
 11
35.6618487186642
 21
-43.8080733619313
 31
0.0
  0
LINE
  5
    D7
  8
0
  6
CONTINUOUS
 62
     7
 10
56.4640664081425
 20
-44.5845305183499
 30
0.0
 11
59.361843881353
 21
-43.8080733619313
 31
0.0
  0
LINE
  5
    D8
  8
0
  6
CONTINUOUS
 62
     7
 10
59.361843881353
 20
-43.8080733619313
 30
0.0
 11
56.4640664081425
 21
-43.0316162055128
 31
0.0
  0
LINE
  5
    D9
  8
0
  6
CONTINUOUS
 62
     7
 10
38.5596261918747
 20
-43.0316162055128
 30
0.0
 11
35.6618487186642
 21
-43.8080733619313
 31
0.0
  0
LINE
  5
    DA
  8
0
  6
CONTINUOUS
 62
     7
 10
35.6618487186642
 20
-43.8080733619313
 30
0.0
 11
38.5596261918747
 21
-44.5845305183499
 31
0.0
  0
ENDBLK
  5
    DB
  8
0
  6
CONTINUOUS
 62
     7
  0
BLOCK
  5
    DC
  8
0
  6
CONTINUOUS
 62
     7
  2
*UDIM594
 70
    65
 10
0.0
 20
0.0
 30
0.0
  3
*UDIM594
  0
TEXT
  5
    DD
  8
0
  6
CONTINUOUS
 62
     7
 10
97.4618313239397
 20
-42.8080733584137
 30
0.0
 40
2.99999994039535
  1
280
 50
359.999999948034
 41
0.933333333333333
 72
     1
 11
101.361831247807
 21
-41.3080733917337
 31
0.0
 73
     2
  0
LINE
  5
    DE
  8
0
  6
CONTINUOUS
 62
     7
 10
143.36181861426
 20
7.27662010891174
 30
0.0
 11
143.36181861426
 21
-45.8080733619313
 31
0.0
  0
LINE
  5
    DF
  8
0
  6
CONTINUOUS
 62
     7
 10
143.36181861426
 20
-43.8080733619313
 30
0.0
 11
59.361843881353
 21
-43.8080733619313
 31
0.0
  0
LINE
  5
    E0
  8
0
  6
CONTINUOUS
 62
     7
 10
140.46404114105
 20
-44.5845305183499
 30
0.0
 11
143.36181861426
 21
-43.8080733619313
 31
0.0
  0
LINE
  5
    E1
  8
0
  6
CONTINUOUS
 62
     7
 10
143.36181861426
 20
-43.8080733619313
 30
0.0
 11
140.46404114105
 21
-43.0316162055128
 31
0.0
  0
LINE
  5
    E2
  8
0
  6
CONTINUOUS
 62
     7
 10
62.2596213545635
 20
-43.0316162055128
 30
0.0
 11
59.361843881353
 21
-43.8080733619313
 31
0.0
  0
LINE
  5
    E3
  8
0
  6
CONTINUOUS
 62
     7
 10
59.361843881353
 20
-43.8080733619313
 30
0.0
 11
62.2596213545635
 21
-44.5845305183499
 31
0.0
  0
ENDBLK
  5
    E4
  8
0
  6
CONTINUOUS
 62
     7
  0
BLOCK
  5
    E5
  8
0
  6
CONTINUOUS
 62
     7
  2
*UDIM595
 70
    65
 10
0.0
 20
0.0
 30
0.0
  3
*UDIM595
  0
TEXT
  5
    E6
  8
0
  6
CONTINUOUS
 62
     7
 10
152.711834922104
 20
-42.8080733596765
 30
0.0
 40
2.99999994039535
  1
79
 50
359.999999948034
 41
0.933333333333333
 72
     1
 11
155.211834873786
 21
-41.3080733917337
 31
0.0
 73
     2
  0
LINE
  5
    E7
  8
0
  6
CONTINUOUS
 62
     7
 10
167.061851133312
 20
-23.3233866617889
 30
0.0
 11
167.061851133312
 21
-45.8080733619313
 31
0.0
  0
LINE
  5
    E8
  8
0
  6
CONTINUOUS
 62
     7
 10
167.061851133312
 20
-43.8080733619313
 30
0.0
 11
143.36181861426
 21
-43.8080733619313
 31
0.0
  0
LINE
  5
    E9
  8
0
  6
CONTINUOUS
 62
     7
 10
164.164073660101
 20
-44.5845305183499
 30
0.0
 11
167.061851133312
 21
-43.8080733619313
 31
0.0
  0
LINE
  5
    EA
  8
0
  6
CONTINUOUS
 62
     7
 10
167.061851133312
 20
-43.8080733619313
 30
0.0
 11
164.164073660101
 21
-43.0316162055128
 31
0.0
  0
LINE
  5
    EB
  8
0
  6
CONTINUOUS
 62
     7
 10
146.259596087471
 20
-43.0316162055128
 30
0.0
 11
143.36181861426
 21
-43.8080733619313
 31
0.0
  0
LINE
  5
    EC
  8
0
  6
CONTINUOUS
 62
     7
 10
143.36181861426
 20
-43.8080733619313
 30
0.0
 11
146.259596087471
 21
-44.5845305183499
 31
0.0
  0
ENDBLK
  5
    ED
  8
0
  6
CONTINUOUS
 62
     7
  0
BLOCK
  5
    EE
  8
0
  6
CONTINUOUS
 62
     7
  2
*UDIM596
 70
    65
 10
0.0
 20
0.0
 30
0.0
  3
*UDIM596
  0
TEXT
  5
    EF
  8
0
  6
CONTINUOUS
 62
     7
 10
123.711825215783
 20
-38.16526991987
 30
0.0
 40
2.99999994039535
  1
105
 50
359.999999948034
 41
0.933333333333333
 72
     1
 11
127.61182513965
 21
-36.6652699531899
 31
0.0
 73
     2
  0
LINE
  5
    F0
  8
0
  6
CONTINUOUS
 62
     7
 10
143.36181861426
 20
7.27662010891174
 30
0.0
 11
143.36181861426
 21
-41.1652699233875
 31
0.0
  0
LINE
  5
    F1
  8
0
  6
CONTINUOUS
 62
     7
 10
111.861831665039
 20
-8.53501646488833
 30
0.0
 11
111.861831665039
 21
-41.1652699233875
 31
0.0
  0
LINE
  5
    F2
  8
0
  6
CONTINUOUS
 62
     7
 10
143.36181861426
 20
-39.1652699233875
 30
0.0
 11
111.861831665039
 21
-39.1652699233875
 31
0.0
  0
LINE
  5
    F3
  8
0
  6
CONTINUOUS
 62
     7
 10
140.46404114105
 20
-39.9417270798061
 30
0.0
 11
143.36181861426
 21
-39.1652699233875
 31
0.0
  0
LINE
  5
    F4
  8
0
  6
CONTINUOUS
 62
     7
 10
143.36181861426
 20
-39.1652699233875
 30
0.0
 11
140.46404114105
 21
-38.388812766969
 31
0.0
  0
LINE
  5
    F5
  8
0
  6
CONTINUOUS
 62
     7
 10
114.75960913825
 20
-38.388812766969
 30
0.0
 11
111.861831665039
 21
-39.1652699233875
 31
0.0
  0
LINE
  5
    F6
  8
0
  6
CONTINUOUS
 62
     7
 10
111.861831665039
 20
-39.1652699233875
 30
0.0
 11
114.75960913825
 21
-39.9417270798061
 31
0.0
  0
ENDBLK
  5
    F7
  8
0
  6
CONTINUOUS
 62
     7
  0
BLOCK
  5
    F8
  8
0
  6
CONTINUOUS
 62
     7
  2
*UDIM597
 70
    65
 10
0.0
 20
0.0
 30
0.0
  3
*UDIM597
  0
TEXT
  5
    F9
  8
0
  6
CONTINUOUS
 62
     7
 10
37.6840221717942
 20
135.639476776952
 30
0.0
 40
2.99999994039535
  1
102
 50
89.9999999480344
 41
0.933333333333333
 72
     1
 11
36.1840222051288
 21
139.539476700824
 31
0.0
 73
     2
  0
LINE
  5
    FA
  8
0
  6
CONTINUOUS
 62
     7
 10
58.8117316982349
 20
130.076454935284
 30
0.0
 11
36.6840221753265
 21
130.076454935284
 31
0.0
  0
LINE
  5
    FB
  8
0
  6
CONTINUOUS
 62
     7
 10
38.6840221753265
 20
130.076454935284
 30
0.0
 11
38.6840221753265
 21
160.676473921091
 31
0.0
  0
LINE
  5
    FC
  8
0
  6
CONTINUOUS
 62
     7
 10
37.907565018908
 20
132.974232408495
 30
0.0
 11
38.6840221753265
 21
130.076454935284
 31
0.0
  0
LINE
  5
    FD
  8
0
  6
CONTINUOUS
 62
     7
 10
38.6840221753265
 20
130.076454935284
 30
0.0
 11
39.460479331745
 21
132.974232408495
 31
0.0
  0
LINE
  5
    FE
  8
0
  6
CONTINUOUS
 62
     7
 10
39.460479331745
 20
157.778696447881
 30
0.0
 11
38.6840221753265
 21
160.676473921091
 31
0.0
  0
LINE
  5
    FF
  8
0
  6
CONTINUOUS
 62
     7
 10
38.6840221753265
 20
160.676473921091
 30
0.0
 11
37.907565018908
 21
157.778696447881
 31
0.0
  0
ENDBLK
  5
   100
  8
0
  6
CONTINUOUS
 62
     7
  0
BLOCK
  5
   101
  8
0
  6
CONTINUOUS
 62
     7
  2
*UDIM598
 70
    65
 10
0.0
 20
0.0
 30
0.0
  3
*UDIM598
  0
TEXT
  5
   102
  8
0
  6
CONTINUOUS
 62
     7
 10
37.6840221717942
 20
65.2765375982256
 30
0.0
 40
2.99999994039535
  1
406
 50
89.9999999480344
 41
0.933333333333333
 72
     1
 11
36.1840222051288
 21
69.1765375220981
 31
0.0
 73
     2
  0
LINE
  5
   103
  8
0
  6
CONTINUOUS
 62
     7
 10
58.361843881353
 20
8.27662010891175
 30
0.0
 11
36.6840221753265
 21
8.27662010891175
 31
0.0
  0
LINE
  5
   104
  8
0
  6
CONTINUOUS
 62
     7
 10
38.6840221753265
 20
8.27662010891175
 30
0.0
 11
38.6840221753265
 21
130.076454935284
 31
0.0
  0
LINE
  5
   105
  8
0
  6
CONTINUOUS
 62
     7
 10
37.907565018908
 20
11.1743975821223
 30
0.0
 11
38.6840221753265
 21
8.27662010891175
 31
0.0
  0
LINE
  5
   106
  8
0
  6
CONTINUOUS
 62
     7
 10
38.6840221753265
 20
8.27662010891175
 30
0.0
 11
39.460479331745
 21
11.1743975821223
 31
0.0
  0
LINE
  5
   107
  8
0
  6
CONTINUOUS
 62
     7
 10
39.460479331745
 20
127.178677462074
 30
0.0
 11
38.6840221753265
 21
130.076454935284
 31
0.0
  0
LINE
  5
   108
  8
0
  6
CONTINUOUS
 62
     7
 10
38.6840221753265
 20
130.076454935284
 30
0.0
 11
37.907565018908
 21
127.178677462074
 31
0.0
  0
ENDBLK
  5
   109
  8
0
  6
CONTINUOUS
 62
     7
  0
BLOCK
  5
   10A
  8
0
  6
CONTINUOUS
 62
     7
  2
*UDIM599
 70
    65
 10
0.0
 20
0.0
 30
0.0
  3
*UDIM599
  0
TEXT
  5
   10B
  8
0
  6
CONTINUOUS
 62
     7
 10
37.6840221717942
 20
-6.66309416940838
 30
0.0
 40
2.99999994039535
  1
102
 50
89.9999999480344
 41
0.933333333333333
 72
     1
 11
36.1840222051288
 21
-2.76309424553585
 31
0.0
 73
     2
  0
LINE
  5
   10C
  8
0
  6
CONTINUOUS
 62
     7
 10
38.6840221753265
 20
-22.3233209472252
 30
0.0
 11
38.6840221753265
 21
8.27662010891175
 31
0.0
  0
LINE
  5
   10D
  8
0
  6
CONTINUOUS
 62
     7
 10
37.907565018908
 20
-19.4255434740146
 30
0.0
 11
38.6840221753265
 21
-22.3233209472252
 31
0.0
  0
LINE
  5
   10E
  8
0
  6
CONTINUOUS
 62
     7
 10
38.6840221753265
 20
-22.3233209472252
 30
0.0
 11
39.460479331745
 21
-19.4255434740146
 31
0.0
  0
LINE
  5
   10F
  8
0
  6
CONTINUOUS
 62
     7
 10
39.460479331745
 20
5.37884263570121
 30
0.0
 11
38.6840221753265
 21
8.27662010891175
 31
0.0
  0
LINE
  5
   110
  8
0
  6
CONTINUOUS
 62
     7
 10
38.6840221753265
 20
8.27662010891175
 30
0.0
 11
37.907565018908
 21
5.37884263570121
 31
0.0
  0
ENDBLK
  5
   111
  8
0
  6
CONTINUOUS
 62
     7
  0
BLOCK
  5
   112
  8
0
  6
CONTINUOUS
 62
     7
  2
*UDIM600
 70
    65
 10
0.0
 20
0.0
 30
0.0
  3
*UDIM600
  0
TEXT
  5
   113
  8
0
  6
CONTINUOUS
 62
     7
 10
173.587164945411
 20
105.926580427856
 30
0.0
 40
2.99999994039535
  1
299
 50
89.9999999480344
 41
0.933333333333333
 72
     1
 11
172.087164978745
 21
109.826580351729
 31
0.0
 73
     2
  0
LINE
  5
   114
  8
0
  6
CONTINUOUS
 62
     7
 10
163.946185392037
 20
64.9765999197953
 30
0.0
 11
176.587164948943
 21
64.9765999197953
 31
0.0
  0
LINE
  5
   115
  8
0
  6
CONTINUOUS
 62
     7
 10
163.86170813372
 20
154.676560783663
 30
0.0
 11
176.587164948943
 21
154.676560783663
 31
0.0
  0
LINE
  5
   116
  8
0
  6
CONTINUOUS
 62
     7
 10
174.587164948943
 20
64.9765999197953
 30
0.0
 11
174.587164948943
 21
154.676560783663
 31
0.0
  0
LINE
  5
   117
  8
0
  6
CONTINUOUS
 62
     7
 10
173.810707792525
 20
67.8743773930058
 30
0.0
 11
174.587164948943
 21
64.9765999197953
 31
0.0
  0
LINE
  5
   118
  8
0
  6
CONTINUOUS
 62
     7
 10
174.587164948943
 20
64.9765999197953
 30
0.0
 11
175.363622105362
 21
67.8743773930058
 31
0.0
  0
LINE
  5
   119
  8
0
  6
CONTINUOUS
 62
     7
 10
175.363622105362
 20
151.778783310452
 30
0.0
 11
174.587164948943
 21
154.676560783663
 31
0.0
  0
LINE
  5
   11A
  8
0
  6
CONTINUOUS
 62
     7
 10
174.587164948943
 20
154.676560783663
 30
0.0
 11
173.810707792525
 21
151.778783310452
 31
0.0
  0
ENDBLK
  5
   11B
  8
0
  6
CONTINUOUS
 62
     7
  0
BLOCK
  5
   11C
  8
0
  6
CONTINUOUS
 62
     7
  2
*UDIM601
 70
    65
 10
0.0
 20
0.0
 30
0.0
  3
*UDIM601
  0
TEXT
  5
   11D
  8
0
  6
CONTINUOUS
 62
     7
 10
182.661522802223
 20
168.724716003006
 30
0.0
 40
2.99999994039535
  1
20
 50
89.9999999480344
 41
0.933333333333333
 72
     1
 11
181.16152283429
 21
171.224715954694
 31
0.0
 73
     2
  0
LINE
  5
   11E
  8
0
  6
CONTINUOUS
 62
     7
 10
163.861708133719
 20
154.676561800914
 30
0.0
 11
185.661539638096
 21
154.676583976813
 31
0.0
  0
LINE
  5
   11F
  8
0
  6
CONTINUOUS
 62
     7
 10
168.061746784567
 20
160.676540652906
 30
0.0
 11
185.661533534616
 21
160.676558556306
 31
0.0
  0
LINE
  5
   120
  8
0
  6
CONTINUOUS
 62
     7
 10
183.661539638099
 20
154.676581942311
 30
0.0
 11
183.661520261358
 21
173.724718448151
 31
0.0
  0
LINE
  5
   121
  8
0
  6
CONTINUOUS
 62
     7
 10
184.437999742284
 20
151.778805258954
 30
0.0
 11
183.661539638099
 21
154.676581942311
 31
0.0
  0
LINE
  5
   122
  8
0
  6
CONTINUOUS
 62
     7
 10
183.661539638099
 20
154.676581942311
 30
0.0
 11
182.885085429448
 21
151.77880367925
 31
0.0
  0
LINE
  5
   123
  8
0
  6
CONTINUOUS
 62
     7
 10
182.885073430431
 20
163.574333205161
 30
0.0
 11
183.661533534617
 21
160.676556521804
 31
0.0
  0
LINE
  5
   124
  8
0
  6
CONTINUOUS
 62
     7
 10
183.661533534617
 20
160.676556521804
 30
0.0
 11
184.437987743267
 21
163.574334784865
 31
0.0
  0
ENDBLK
  5
   125
  8
0
  6
CONTINUOUS
 62
     7
  0
BLOCK
  5
   126
  8
0
  6
CONTINUOUS
 62
     7
  2
*UDIM602
 70
    65
 10
0.0
 20
0.0
 30
0.0
  3
*UDIM602
  0
TEXT
  5
   127
  8
0
  6
CONTINUOUS
 62
     7
 10
182.661626609509
 20
65.27659517867
 30
0.0
 40
2.99999994039535
  1
570
 50
89.9999999480344
 41
0.933333333333333
 72
     1
 11
181.161626642843
 21
69.1765951025425
 31
0.0
 73
     2
  0
LINE
  5
   128
  8
0
  6
CONTINUOUS
 62
     7
 10
163.861708133719
 20
-16.3234067925456
 30
0.0
 11
185.661713587978
 21
-16.3233846164693
 31
0.0
  0
LINE
  5
   129
  8
0
  6
CONTINUOUS
 62
     7
 10
183.66171358798
 20
-16.3233866509712
 30
0.0
 11
183.661539638099
 21
154.676581942311
 31
0.0
  0
LINE
  5
   12A
  8
0
  6
CONTINUOUS
 62
     7
 10
182.885253483795
 20
-13.4256099676139
 30
0.0
 11
183.66171358798
 21
-16.3233866509712
 31
0.0
  0
LINE
  5
   12B
  8
0
  6
CONTINUOUS
 62
     7
 10
183.66171358798
 20
-16.3233866509712
 30
0.0
 11
184.438167796632
 21
-13.4256083879104
 31
0.0
  0
LINE
  5
   12C
  8
0
  6
CONTINUOUS
 62
     7
 10
184.437999742284
 20
151.778805258954
 30
0.0
 11
183.661539638099
 21
154.676581942311
 31
0.0
  0
LINE
  5
   12D
  8
0
  6
CONTINUOUS
 62
     7
 10
183.661539638099
 20
154.676581942311
 30
0.0
 11
182.885085429447
 21
151.77880367925
 31
0.0
  0
ENDBLK
  5
   12E
  8
0
  6
CONTINUOUS
 62
     7
  0
BLOCK
  5
   12F
  8
0
  6
CONTINUOUS
 62
     7
  2
*UDIM603
 70
    65
 10
0.0
 20
0.0
 30
0.0
  3
*UDIM603
  0
TEXT
  5
   130
  8
0
  6
CONTINUOUS
 62
     7
 10
182.661728287878
 20
-33.2762242569876
 30
0.0
 40
2.99999994039535
  1
20
 50
89.9999999480344
 41
0.933333333333333
 72
     1
 11
181.161728319944
 21
-30.7762243052996
 31
0.0
 73
     2
  0
LINE
  5
   131
  8
0
  6
CONTINUOUS
 62
     7
 10
168.06174685114
 20
-22.3233856445381
 30
0.0
 11
185.661719691468
 21
-22.323367740949
 31
0.0
  0
LINE
  5
   132
  8
0
  6
CONTINUOUS
 62
     7
 10
183.661730833268
 20
-33.2762217125004
 30
0.0
 11
183.66171358798
 21
-16.3233866509712
 31
0.0
  0
LINE
  5
   133
  8
0
  6
CONTINUOUS
 62
     7
 10
184.438179795654
 20
-25.2211464588081
 30
0.0
 11
183.661719691469
 21
-22.3233697754509
 31
0.0
  0
LINE
  5
   134
  8
0
  6
CONTINUOUS
 62
     7
 10
183.661719691469
 20
-22.3233697754509
 30
0.0
 11
182.885265482818
 21
-25.2211480385117
 31
0.0
  0
LINE
  5
   135
  8
0
  6
CONTINUOUS
 62
     7
 10
182.885253483795
 20
-13.4256099676139
 30
0.0
 11
183.66171358798
 21
-16.3233866509712
 31
0.0
  0
LINE
  5
   136
  8
0
  6
CONTINUOUS
 62
     7
 10
183.66171358798
 20
-16.3233866509712
 30
0.0
 11
184.438167796632
 21
-13.4256083879104
 31
0.0
  0
ENDBLK
  5
   137
  8
0
  6
CONTINUOUS
 62
     7
  0
BLOCK
  5
   138
  8
0
  6
CONTINUOUS
 62
     7
  2
*UDIM604
 70
    65
 10
0.0
 20
0.0
 30
0.0
  3
*UDIM604
  0
TEXT
  5
   139
  8
0
  6
CONTINUOUS
 62
     7
 10
102.218371955431
 20
-95.8875007188205
 30
0.0
 40
3.00000005960463
  1
35
 50
359.999999896069
 41
0.933333333333334
 72
     1
 11
104.718372007815
 21
-94.3875006935405
 31
0.0
 73
     2
  0
LINE
  5
   13A
  8
0
  6
CONTINUOUS
 62
     7
 10
118.861831247807
 20
-96.8875007233428
 30
0.0
 11
102.218371958144
 21
-96.8875007233428
 31
0.0
  0
LINE
  5
   13B
  8
0
  6
CONTINUOUS
 62
     7
 10
121.816254525014
 20
-96.3665562933911
 30
0.0
 11
118.861831247807
 21
-96.8875007233428
 31
0.0
  0
LINE
  5
   13C
  8
0
  6
CONTINUOUS
 62
     7
 10
118.861831247807
 20
-96.8875007233428
 30
0.0
 11
121.816254525014
 21
-97.4084451532945
 31
0.0
  0
LINE
  5
   13D
  8
0
  6
CONTINUOUS
 62
     7
 10
108.907408387832
 20
-97.4084451532945
 30
0.0
 11
111.861831665039
 21
-96.8875007233428
 31
0.0
  0
LINE
  5
   13E
  8
0
  6
CONTINUOUS
 62
     7
 10
111.861831665039
 20
-96.8875007233428
 30
0.0
 11
108.907408387832
 21
-96.3665562933911
 31
0.0
  0
ENDBLK
  5
   13F
  8
0
  6
CONTINUOUS
 62
     7
  0
BLOCK
  5
   140
  8
0
  6
CONTINUOUS
 62
     7
  2
*UDIM605
 70
    65
 10
0.0
 20
0.0
 30
0.0
  3
*UDIM605
  0
TEXT
  5
   141
  8
0
  6
CONTINUOUS
 62
     7
 10
80.6271990606998
 20
-77.355870435312
 30
0.0
 40
3.00000005960463
  1
203
 50
449.999999896069
 41
0.933333333333334
 72
     1
 11
79.1271990379473
 21
-73.4558703551145
 31
0.0
 73
     2
  0
LINE
  5
   142
  8
0
  6
CONTINUOUS
 62
     7
 10
97.5378848619153
 20
-57.7808702313421
 30
0.0
 11
79.6271990677496
 21
-57.7808702313421
 31
0.0
  0
LINE
  5
   143
  8
0
  6
CONTINUOUS
 62
     7
 10
89.1780985872034
 20
-83.4231796264648
 30
0.0
 11
79.6271990677496
 21
-83.4231796264648
 31
0.0
  0
LINE
  5
   144
  8
0
  6
CONTINUOUS
 62
     7
 10
81.6271990677497
 20
-57.7808702313421
 30
0.0
 11
81.6271990677497
 21
-83.4231796264648
 31
0.0
  0
LINE
  5
   145
  8
0
  6
CONTINUOUS
 62
     7
 10
82.1481434977013
 20
-60.7352935085491
 30
0.0
 11
81.6271990677497
 21
-57.7808702313421
 31
0.0
  0
LINE
  5
   146
  8
0
  6
CONTINUOUS
 62
     7
 10
81.6271990677497
 20
-57.7808702313421
 30
0.0
 11
81.106254637798
 21
-60.7352935085491
 31
0.0
  0
LINE
  5
   147
  8
0
  6
CONTINUOUS
 62
     7
 10
81.106254637798
 20
-80.4687563492579
 30
0.0
 11
81.6271990677497
 21
-83.4231796264648
 31
0.0
  0
LINE
  5
   148
  8
0
  6
CONTINUOUS
 62
     7
 10
81.6271990677497
 20
-83.4231796264648
 30
0.0
 11
82.1481434977013
 21
-80.4687563492579
 31
0.0
  0
ENDBLK
  5
   149
  8
0
  6
CONTINUOUS
 62
     7
  0
BLOCK
  5
   14A
  8
0
  6
CONTINUOUS
 62
     7
  2
*UDIM606
 70
    65
 10
0.0
 20
0.0
 30
0.0
  3
*UDIM606
  0
TEXT
  5
   14B
  8
0
  6
CONTINUOUS
 62
     7
 10
73.1604850282116
 20
-92.7558694984351
 30
0.0
 40
3.00000005960463
  1
378
 50
449.999999896069
 41
0.933333333333334
 72
     1
 11
71.6604850054591
 21
-88.8558694182376
 31
0.0
 73
     2
  0
LINE
  5
   14C
  8
0
  6
CONTINUOUS
 62
     7
 10
97.5378848619153
 20
-57.7808699174257
 30
0.0
 11
72.1604850352615
 21
-57.7808619510418
 31
0.0
  0
LINE
  5
   14D
  8
0
  6
CONTINUOUS
 62
     7
 10
95.8641515673519
 20
-109.510243890832
 30
0.0
 11
72.1604850352615
 21
-109.510236449861
 31
0.0
  0
LINE
  5
   14E
  8
0
  6
CONTINUOUS
 62
     7
 10
74.1604850352615
 20
-57.7808625788748
 30
0.0
 11
74.1604850352615
 21
-109.510237077694
 31
0.0
  0
LINE
  5
   14F
  8
0
  6
CONTINUOUS
 62
     7
 10
74.6814294652131
 20
-60.7352858560817
 30
0.0
 11
74.1604850352615
 21
-57.7808625788748
 31
0.0
  0
LINE
  5
   150
  8
0
  6
CONTINUOUS
 62
     7
 10
74.1604850352615
 20
-57.7808625788748
 30
0.0
 11
73.6395406053098
 21
-60.7352858560817
 31
0.0
  0
LINE
  5
   151
  8
0
  6
CONTINUOUS
 62
     7
 10
73.6395406053098
 20
-106.555813800487
 30
0.0
 11
74.1604850352615
 21
-109.510237077694
 31
0.0
  0
LINE
  5
   152
  8
0
  6
CONTINUOUS
 62
     7
 10
74.1604850352615
 20
-109.510237077694
 30
0.0
 11
74.6814294652131
 21
-106.555813800487
 31
0.0
  0
ENDBLK
  5
   153
  8
0
  6
CONTINUOUS
 62
     7
  0
BLOCK
  5
   154
  8
0
  6
CONTINUOUS
 62
     7
  2
*UDIM607
 70
    65
 10
0.0
 20
0.0
 30
0.0
  3
*UDIM607
  0
TEXT
  5
   155
  8
0
  6
CONTINUOUS
 62
     7
 10
134.573105756231
 20
-99.8497113787298
 30
0.0
 40
3.00000005960463
  1
5,5
 50
388.478437992164
 41
0.933333333333334
 72
     1
 11
137.285950618374
 21
-96.6715871760371
 31
0.0
 73
     2
  0
TEXT
  5
   156
  8
0
  6
CONTINUOUS
 62
     7
 10
131.804266384699
 20
-101.351719612705
 30
0.0
 40
3.00000005960463
  1
Ø
 50
388.478437992164
 41
0.933333333333334
 72
     1
 11
132.055920665748
 21
-99.5087138448581
 31
0.0
 73
     2
  0
TEXT
  5
   157
  8
0
  6
CONTINUOUS
 62
     7
 10
141.912727658968
 20
-95.868197456617
 30
0.0
 40
3.00000005960463
  1
 - M5
 50
388.478437992164
 41
0.933333333333333
 72
     1
 11
147.086763102206
 21
-91.3549548190788
 31
0.0
 73
     2
  0
LINE
  5
   158
  8
0
  6
CONTINUOUS
 62
     7
 10
154.168110583945
 20
-90.3576986956909
 30
0.0
 11
118.378383136844
 21
-109.772499591625
 31
0.0
  0
LINE
  5
   159
  8
0
  6
CONTINUOUS
 62
     7
 10
121.6938065339
 20
-107.381328669995
 30
0.0
 11
119.345279358769
 21
-109.247988817872
 31
0.0
  0
LINE
  5
   15A
  8
0
  6
CONTINUOUS
 62
     7
 10
119.345279358769
 20
-109.247988817872
 30
0.0
 11
122.190608319942
 21
-108.297145453951
 31
0.0
  0
LINE
  5
   15B
  8
0
  6
CONTINUOUS
 62
     7
 10
116.029855961713
 20
-111.639159739502
 30
0.0
 11
118.378383136844
 21
-109.772499591625
 31
0.0
  0
LINE
  5
   15C
  8
0
  6
CONTINUOUS
 62
     7
 10
118.378383136844
 20
-109.772499591625
 30
0.0
 11
115.533054175671
 21
-110.723342955546
 31
0.0
  0
ENDBLK
  5
   15D
  8
0
  6
CONTINUOUS
 62
     7
  0
BLOCK
  5
   15E
  8
0
  6
CONTINUOUS
 62
     7
  2
*UDIM608
 70
    65
 10
0.0
 20
0.0
 30
0.0
  3
*UDIM608
  0
TEXT
  5
   15F
  8
0
  6
CONTINUOUS
 62
     7
 10
100.686832256882
 20
-67.9157219880282
 30
0.0
 40
3.00000005960463
  1
140
 50
359.999999896069
 41
0.933333333333334
 72
     1
 11
104.586832337081
 21
-66.4157219652807
 31
0.0
 73
     2
  0
LINE
  5
   160
  8
0
  6
CONTINUOUS
 62
     7
 10
118.861831247807
 20
-68.915721995083
 30
0.0
 11
90.8618329167366
 21
-68.915721995083
 31
0.0
  0
LINE
  5
   161
  8
0
  6
CONTINUOUS
 62
     7
 10
115.9074079706
 20
-69.4366664250347
 30
0.0
 11
118.861831247807
 21
-68.915721995083
 31
0.0
  0
LINE
  5
   162
  8
0
  6
CONTINUOUS
 62
     7
 10
118.861831247807
 20
-68.915721995083
 30
0.0
 11
115.9074079706
 21
-68.3947775651313
 31
0.0
  0
LINE
  5
   163
  8
0
  6
CONTINUOUS
 62
     7
 10
93.8162561939436
 20
-68.3947775651313
 30
0.0
 11
90.8618329167366
 21
-68.915721995083
 31
0.0
  0
LINE
  5
   164
  8
0
  6
CONTINUOUS
 62
     7
 10
90.8618329167366
 20
-68.915721995083
 30
0.0
 11
93.8162561939436
 21
-69.4366664250347
 31
0.0
  0
ENDBLK
  5
   165
  8
0
  6
CONTINUOUS
 62
     7
  0
BLOCK
  5
   166
  8
0
  6
CONTINUOUS
 62
     1
  2
*HATCH141
 70
    65
 10
0.0
 20
0.0
 30
0.0
  3
*HATCH141
  0
LINE
  5
   167
  8
0
  6
CONTINUOUS
 62
     3
 10
4.41387701034546
 20
206.999954223633
 30
0.0
 11
1.50000178813934
 21
204.08610534668
 31
0.0
  0
LINE
  5
   168
  8
0
  6
CONTINUOUS
 62
     3
 10
7.59585857391357
 20
206.999954223633
 30
0.0
 11
1.50000178813934
 21
200.904144287109
 31
0.0
  0
LINE
  5
   169
  8
0
  6
CONTINUOUS
 62
     3
 10
9.0
 20
205.222122192383
 30
0.0
 11
2.37348818778992
 21
198.595611572266
 31
0.0
  0
LINE
  5
   16A
  8
0
  6
CONTINUOUS
 62
     3
 10
9.0
 20
202.040161132813
 30
0.0
 11
5.55546903610229
 21
198.595611572266
 31
0.0
  0
LINE
  5
   16B
  8
0
  6
CONTINUOUS
 62
     3
 10
9.0
 20
198.858200073242
 30
0.0
 11
8.73744964599609
 21
198.595611572266
 31
0.0
  0
ENDBLK
  5
   16C
  8
0
  6
CONTINUOUS
 62
     1
  0
BLOCK
  5
   16D
  8
0
  6
CONTINUOUS
 62
     7
  2
*HATCH142
 70
    65
 10
0.0
 20
0.0
 30
0.0
  3
*HATCH142
  0
LINE
  5
   16E
  8
0
  6
CONTINUOUS
 62
     3
 10
36.3696670532227
 20
213.499908447266
 30
0.0
 11
33.75
 21
210.880249023438
 31
0.0
  0
LINE
  5
   16F
  8
0
  6
CONTINUOUS
 62
     3
 10
39.5516395568848
 20
213.499908447266
 30
0.0
 11
33.75
 21
207.698287963867
 31
0.0
  0
LINE
  5
   170
  8
0
  6
CONTINUOUS
 62
     3
 10
42.7336120605469
 20
213.499893188477
 30
0.0
 11
36.7336959838867
 21
207.499969482422
 31
0.0
  0
LINE
  5
   171
  8
0
  6
CONTINUOUS
 62
     3
 10
45.915584564209
 20
213.499893188477
 30
0.0
 11
39.9156799316406
 21
207.499969482422
 31
0.0
  0
LINE
  5
   172
  8
0
  6
CONTINUOUS
 62
     3
 10
49.0975570678711
 20
213.499893188477
 30
0.0
 11
43.0976638793945
 21
207.499969482422
 31
0.0
  0
ENDBLK
  5
   173
  8
0
  6
CONTINUOUS
 62
     7
  0
BLOCK
  5
   174
  8
0
  6
CONTINUOUS
 62
     7
  2
*HATCH143
 70
    65
 10
0.0
 20
0.0
 30
0.0
  3
*HATCH143
  0
LINE
  5
   175
  8
0
  6
CONTINUOUS
 62
    52
 10
148.5
 20
226.988845825195
 30
0.0
 11
146.5
 21
224.988845825195
 31
0.0
  0
LINE
  5
   176
  8
0
  6
CONTINUOUS
 62
    52
 10
148.5
 20
220.624877929688
 30
0.0
 11
146.5
 21
218.624877929688
 31
0.0
  0
LINE
  5
   177
  8
0
  6
CONTINUOUS
 62
    52
 10
148.5
 20
214.26091003418
 30
0.0
 11
146.5
 21
212.26091003418
 31
0.0
  0
LINE
  5
   178
  8
0
  6
CONTINUOUS
 62
    52
 10
148.5
 20
207.896942138672
 30
0.0
 11
146.5
 21
205.896942138672
 31
0.0
  0
LINE
  5
   179
  8
0
  6
CONTINUOUS
 62
    52
 10
148.5
 20
201.532974243164
 30
0.0
 11
146.5
 21
199.532974243164
 31
0.0
  0
LINE
  5
   17A
  8
0
  6
CONTINUOUS
 62
    52
 10
148.5
 20
195.169006347656
 30
0.0
 11
146.5
 21
193.169006347656
 31
0.0
  0
LINE
  5
   17B
  8
0
  6
CONTINUOUS
 62
    52
 10
148.5
 20
188.805038452148
 30
0.0
 11
146.5
 21
186.805038452148
 31
0.0
  0
LINE
  5
   17C
  8
0
  6
CONTINUOUS
 62
    52
 10
148.5
 20
182.441070556641
 30
0.0
 11
146.5
 21
180.441070556641
 31
0.0
  0
LINE
  5
   17D
  8
0
  6
CONTINUOUS
 62
    52
 10
148.5
 20
176.077102661133
 30
0.0
 11
146.5
 21
174.077102661133
 31
0.0
  0
LINE
  5
   17E
  8
0
  6
CONTINUOUS
 62
    52
 10
148.5
 20
169.713134765625
 30
0.0
 11
146.5
 21
167.713134765625
 31
0.0
  0
LINE
  5
   17F
  8
0
  6
CONTINUOUS
 62
    52
 10
148.5
 20
163.349166870117
 30
0.0
 11
146.5
 21
161.349166870117
 31
0.0
  0
LINE
  5
   180
  8
0
  6
CONTINUOUS
 62
    52
 10
148.5
 20
156.985198974609
 30
0.0
 11
146.5
 21
154.985198974609
 31
0.0
  0
LINE
  5
   181
  8
0
  6
CONTINUOUS
 62
    52
 10
148.5
 20
150.621307373047
 30
0.0
 11
147.62858581543
 21
149.749893188477
 31
0.0
  0
ENDBLK
  5
   182
  8
0
  6
CONTINUOUS
 62
     7
  0
BLOCK
  5
   183
  8
0
  6
CONTINUOUS
 62
     7
  2
*HATCH144
 70
    65
 10
0.0
 20
0.0
 30
0.0
  3
*HATCH144
  0
LINE
  5
   184
  8
0
  6
CONTINUOUS
 62
    52
 10
148.5
 20
140.014709472656
 30
0.0
 11
146.5
 21
138.014709472656
 31
0.0
  0
LINE
  5
   185
  8
0
  6
CONTINUOUS
 62
    52
 10
148.5
 20
133.650741577148
 30
0.0
 11
146.5
 21
131.650741577148
 31
0.0
  0
ENDBLK
  5
   186
  8
0
  6
CONTINUOUS
 62
     7
  0
BLOCK
  5
   187
  8
0
  6
CONTINUOUS
 62
     7
  2
*HATCH145
 70
    65
 10
0.0
 20
0.0
 30
0.0
  3
*HATCH145
  0
LINE
  5
   188
  8
0
  6
CONTINUOUS
 62
    52
 10
148.5
 20
16.9781322479248
 30
0.0
 11
146.5
 21
14.9781322479248
 31
0.0
  0
LINE
  5
   189
  8
0
  6
CONTINUOUS
 62
    52
 10
148.5
 20
10.6141700744629
 30
0.0
 11
146.5
 21
8.61417007446289
 31
0.0
  0
ENDBLK
  5
   18A
  8
0
  6
CONTINUOUS
 62
     7
  0
BLOCK
  5
   18B
  8
0
  6
CONTINUOUS
 62
     7
  2
*HATCH146
 70
    65
 10
0.0
 20
0.0
 30
0.0
  3
*HATCH146
  0
LINE
  5
   18C
  8
0
  6
CONTINUOUS
 62
    52
 10
148.5
 20
-2.11374998092651
 30
0.0
 11
146.5
 21
-4.11374950408936
 31
0.0
  0
LINE
  5
   18D
  8
0
  6
CONTINUOUS
 62
    52
 10
148.5
 20
-8.47771072387695
 30
0.0
 11
146.5
 21
-10.477710723877
 31
0.0
  0
LINE
  5
   18E
  8
0
  6
CONTINUOUS
 62
    52
 10
148.5
 20
-14.8416728973389
 30
0.0
 11
146.5
 21
-16.8416728973389
 31
0.0
  0
LINE
  5
   18F
  8
0
  6
CONTINUOUS
 62
    52
 10
148.5
 20
-21.2056350708008
 30
0.0
 11
146.5
 21
-23.2056350708008
 31
0.0
  0
LINE
  5
   190
  8
0
  6
CONTINUOUS
 62
    52
 10
148.5
 20
-27.5695972442627
 30
0.0
 11
146.5
 21
-29.5695972442627
 31
0.0
  0
LINE
  5
   191
  8
0
  6
CONTINUOUS
 62
    52
 10
148.5
 20
-33.9335594177246
 30
0.0
 11
146.5
 21
-35.9335556030273
 31
0.0
  0
LINE
  5
   192
  8
0
  6
CONTINUOUS
 62
    52
 10
148.5
 20
-40.2975158691406
 30
0.0
 11
146.5
 21
-42.2975120544434
 31
0.0
  0
LINE
  5
   193
  8
0
  6
CONTINUOUS
 62
    52
 10
148.5
 20
-46.6614723205566
 30
0.0
 11
146.5
 21
-48.6614685058594
 31
0.0
  0
LINE
  5
   194
  8
0
  6
CONTINUOUS
 62
    52
 10
148.5
 20
-53.0254287719727
 30
0.0
 11
146.5
 21
-55.0254249572754
 31
0.0
  0
LINE
  5
   195
  8
0
  6
CONTINUOUS
 62
    52
 10
148.5
 20
-59.3893852233887
 30
0.0
 11
146.5
 21
-61.3893814086914
 31
0.0
  0
LINE
  5
   196
  8
0
  6
CONTINUOUS
 62
    52
 10
148.5
 20
-65.7533416748047
 30
0.0
 11
146.5
 21
-67.7533416748047
 31
0.0
  0
LINE
  5
   197
  8
0
  6
CONTINUOUS
 62
    52
 10
148.5
 20
-72.1173095703125
 30
0.0
 11
146.5
 21
-74.1173095703125
 31
0.0
  0
LINE
  5
   198
  8
0
  6
CONTINUOUS
 62
    52
 10
148.5
 20
-78.4812774658203
 30
0.0
 11
146.5
 21
-80.4812774658203
 31
0.0
  0
LINE
  5
   199
  8
0
  6
CONTINUOUS
 62
    52
 10
148.5
 20
-84.8452453613281
 30
0.0
 11
146.5
 21
-86.8452453613281
 31
0.0
  0
LINE
  5
   19A
  8
0
  6
CONTINUOUS
 62
    52
 10
148.5
 20
-91.2092132568359
 30
0.0
 11
146.5
 21
-93.2092132568359
 31
0.0
  0
LINE
  5
   19B
  8
0
  6
CONTINUOUS
 62
    52
 10
148.5
 20
-97.5731811523438
 30
0.0
 11
146.5
 21
-99.5731811523438
 31
0.0
  0
ENDBLK
  5
   19C
  8
0
  6
CONTINUOUS
 62
     7
  0
BLOCK
  5
   19D
  8
0
  6
CONTINUOUS
 62
     7
  2
*UDIM609
 70
    65
 10
0.0
 20
0.0
 30
0.0
  3
*UDIM609
  0
TEXT
  5
   19E
  8
0
  6
CONTINUOUS
 62
     7
 10
226.243404584132
 20
181.027577508742
 30
0.0
 40
2.99999994039535
  1
138,5
 41
0.933333333333333
 72
     1
 11
232.943404451015
 21
182.527577478939
 31
0.0
 73
     2
  0
LINE
  5
   19F
  8
0
  6
CONTINUOUS
 62
     7
 10
212.168334960938
 20
136.397996951397
 30
0.0
 11
212.168334960938
 21
182.027577508742
 31
0.0
  0
LINE
  5
   1A0
  8
0
  6
CONTINUOUS
 62
     7
 10
253.718473941093
 20
130.70138886871
 30
0.0
 11
253.718473941093
 21
182.027577508742
 31
0.0
  0
LINE
  5
   1A1
  8
0
  6
CONTINUOUS
 62
     7
 10
212.168334960938
 20
180.027577508742
 30
0.0
 11
253.718473941093
 21
180.027577508742
 31
0.0
  0
LINE
  5
   1A2
  8
0
  6
CONTINUOUS
 62
     7
 10
215.066112434148
 20
180.80403466516
 30
0.0
 11
212.168334960938
 21
180.027577508742
 31
0.0
  0
LINE
  5
   1A3
  8
0
  6
CONTINUOUS
 62
     7
 10
212.168334960938
 20
180.027577508742
 30
0.0
 11
215.066112434148
 21
179.251120352323
 31
0.0
  0
LINE
  5
   1A4
  8
0
  6
CONTINUOUS
 62
     7
 10
250.820696467883
 20
179.251120352323
 30
0.0
 11
253.718473941093
 21
180.027577508742
 31
0.0
  0
LINE
  5
   1A5
  8
0
  6
CONTINUOUS
 62
     7
 10
253.718473941093
 20
180.027577508742
 30
0.0
 11
250.820696467883
 21
180.80403466516
 31
0.0
  0
ENDBLK
  5
   1A6
  8
0
  6
CONTINUOUS
 62
     7
  0
BLOCK
  5
   1A7
  8
0
  6
CONTINUOUS
 62
     7
  2
*UDIM610
 70
    65
 10
0.0
 20
0.0
 30
0.0
  3
*UDIM610
  0
TEXT
  5
   1A8
  8
0
  6
CONTINUOUS
 62
     7
 10
227.443335967263
 20
186.532306929464
 30
0.0
 40
2.99999994039535
  1
146,5
 41
0.933333333333333
 72
     1
 11
234.143335834146
 21
188.032306899662
 31
0.0
 73
     2
  0
LINE
  5
   1A9
  8
0
  6
CONTINUOUS
 62
     7
 10
212.168334960938
 20
136.397996951397
 30
0.0
 11
212.168334960938
 21
187.532306929464
 31
0.0
  0
LINE
  5
   1AA
  8
0
  6
CONTINUOUS
 62
     7
 10
256.118336707354
 20
114.794053557219
 30
0.0
 11
256.118336707354
 21
187.532306929464
 31
0.0
  0
LINE
  5
   1AB
  8
0
  6
CONTINUOUS
 62
     7
 10
212.168334960938
 20
185.532306929464
 30
0.0
 11
256.118336707354
 21
185.532306929464
 31
0.0
  0
LINE
  5
   1AC
  8
0
  6
CONTINUOUS
 62
     7
 10
215.066112434148
 20
186.308764085883
 30
0.0
 11
212.168334960938
 21
185.532306929464
 31
0.0
  0
LINE
  5
   1AD
  8
0
  6
CONTINUOUS
 62
     7
 10
212.168334960938
 20
185.532306929464
 30
0.0
 11
215.066112434148
 21
184.755849773046
 31
0.0
  0
LINE
  5
   1AE
  8
0
  6
CONTINUOUS
 62
     7
 10
253.220559234143
 20
184.755849773046
 30
0.0
 11
256.118336707354
 21
185.532306929464
 31
0.0
  0
LINE
  5
   1AF
  8
0
  6
CONTINUOUS
 62
     7
 10
256.118336707354
 20
185.532306929464
 30
0.0
 11
253.220559234143
 21
186.308764085883
 31
0.0
  0
ENDBLK
  5
   1B0
  8
0
  6
CONTINUOUS
 62
     7
  0
BLOCK
  5
   1B1
  8
0
  6
CONTINUOUS
 62
     7
  2
*UDIM611
 70
    65
 10
0.0
 20
0.0
 30
0.0
  3
*UDIM611
  0
TEXT
  5
   1B2
  8
0
  6
CONTINUOUS
 62
     7
 10
262.084058903286
 20
186.532306929464
 30
0.0
 40
2.99999994039535
  1
2
 41
0.933333333333333
 72
     1
 11
263.184058881431
 21
188.032306899662
 31
0.0
 73
     2
  0
LINE
  5
   1B3
  8
0
  6
CONTINUOUS
 62
     7
 10
256.718336731196
 20
114.41155354202
 30
0.0
 11
256.718336731196
 21
187.532306929464
 31
0.0
  0
LINE
  5
   1B4
  8
0
  6
CONTINUOUS
 62
     7
 10
256.118336707354
 20
185.532306929464
 30
0.0
 11
264.284058859576
 21
185.532306929464
 31
0.0
  0
LINE
  5
   1B5
  8
0
  6
CONTINUOUS
 62
     7
 10
253.220559234143
 20
184.755849773046
 30
0.0
 11
256.118336707354
 21
185.532306929464
 31
0.0
  0
LINE
  5
   1B6
  8
0
  6
CONTINUOUS
 62
     7
 10
256.118336707354
 20
185.532306929464
 30
0.0
 11
253.220559234143
 21
186.308764085883
 31
0.0
  0
LINE
  5
   1B7
  8
0
  6
CONTINUOUS
 62
     7
 10
259.616114204406
 20
186.308764085883
 30
0.0
 11
256.718336731196
 21
185.532306929464
 31
0.0
  0
LINE
  5
   1B8
  8
0
  6
CONTINUOUS
 62
     7
 10
256.718336731196
 20
185.532306929464
 30
0.0
 11
259.616114204406
 21
184.755849773046
 31
0.0
  0
ENDBLK
  5
   1B9
  8
0
  6
CONTINUOUS
 62
     7
  0
BLOCK
  5
   1BA
  8
0
  6
CONTINUOUS
 62
     7
  2
*UDIM612
 70
    65
 10
0.0
 20
0.0
 30
0.0
  3
*UDIM612
  0
TEXT
  5
   1BB
  8
0
  6
CONTINUOUS
 62
     7
 10
202.444291366178
 20
-37.503399752225
 30
0.0
 40
2.99999994039535
  1
3
 41
0.933333333333333
 72
     1
 11
203.544291344323
 21
-36.0033997820273
 31
0.0
 73
     2
  0
TEXT
  5
   1BC
  8
0
  6
CONTINUOUS
 62
     7
 10
198.877624658715
 20
-37.7533998098428
 30
0.0
 40
3.500000055631
  1
_
 41
0.933333333333333
 72
     1
 11
200.160958012447
 21
-36.0033997820273
 31
0.0
 73
     2
  0
LINE
  5
   1BD
  8
0
  6
CONTINUOUS
 62
     7
 10
211.268334925175
 20
1.23373689404031
 30
0.0
 11
211.268334925175
 21
-40.503399752225
 31
0.0
  0
LINE
  5
   1BE
  8
0
  6
CONTINUOUS
 62
     7
 10
212.168334960938
 20
1.23373689404031
 30
0.0
 11
212.168334960938
 21
-40.503399752225
 31
0.0
  0
LINE
  5
   1BF
  8
0
  6
CONTINUOUS
 62
     7
 10
198.877624658715
 20
-38.503399752225
 30
0.0
 11
212.168334960938
 21
-38.503399752225
 31
0.0
  0
LINE
  5
   1C0
  8
0
  6
CONTINUOUS
 62
     7
 10
208.370557451964
 20
-39.2798569086435
 30
0.0
 11
211.268334925175
 21
-38.503399752225
 31
0.0
  0
LINE
  5
   1C1
  8
0
  6
CONTINUOUS
 62
     7
 10
211.268334925175
 20
-38.503399752225
 30
0.0
 11
208.370557451964
 21
-37.7269425958064
 31
0.0
  0
LINE
  5
   1C2
  8
0
  6
CONTINUOUS
 62
     7
 10
215.066112434148
 20
-37.7269425958064
 30
0.0
 11
212.168334960938
 21
-38.503399752225
 31
0.0
  0
LINE
  5
   1C3
  8
0
  6
CONTINUOUS
 62
     7
 10
212.168334960938
 20
-38.503399752225
 30
0.0
 11
215.066112434148
 21
-39.2798569086435
 31
0.0
  0
ENDBLK
  5
   1C4
  8
0
  6
CONTINUOUS
 62
     7
  0
BLOCK
  5
   1C5
  8
0
  6
CONTINUOUS
 62
     7
  2
*UDIM613
 70
    65
 10
0.0
 20
0.0
 30
0.0
  3
*UDIM613
  0
TEXT
  5
   1C6
  8
0
  6
CONTINUOUS
 62
     7
 10
226.543333642681
 20
-37.503399752225
 30
0.0
 40
2.99999994039535
  1
140,5
 41
0.933333333333333
 72
     1
 11
233.243333509564
 21
-36.0033997820273
 31
0.0
 73
     2
  0
LINE
  5
   1C7
  8
0
  6
CONTINUOUS
 62
     7
 10
254.318332058191
 20
48.3014909595249
 30
0.0
 11
254.318332058191
 21
-40.503399752225
 31
0.0
  0
LINE
  5
   1C8
  8
0
  6
CONTINUOUS
 62
     7
 10
212.168334960938
 20
-38.503399752225
 30
0.0
 11
254.318332058191
 21
-38.503399752225
 31
0.0
  0
LINE
  5
   1C9
  8
0
  6
CONTINUOUS
 62
     7
 10
215.066112434148
 20
-37.7269425958064
 30
0.0
 11
212.168334960938
 21
-38.503399752225
 31
0.0
  0
LINE
  5
   1CA
  8
0
  6
CONTINUOUS
 62
     7
 10
212.168334960938
 20
-38.503399752225
 30
0.0
 11
215.066112434148
 21
-39.2798569086435
 31
0.0
  0
LINE
  5
   1CB
  8
0
  6
CONTINUOUS
 62
     7
 10
251.420554584981
 20
-39.2798569086435
 30
0.0
 11
254.318332058191
 21
-38.503399752225
 31
0.0
  0
LINE
  5
   1CC
  8
0
  6
CONTINUOUS
 62
     7
 10
254.318332058191
 20
-38.503399752225
 30
0.0
 11
251.420554584981
 21
-37.7269425958064
 31
0.0
  0
ENDBLK
  5
   1CD
  8
0
  6
CONTINUOUS
 62
     7
  0
BLOCK
  5
   1CE
  8
0
  6
CONTINUOUS
 62
     7
  2
*UDIM614
 70
    65
 10
0.0
 20
0.0
 30
0.0
  3
*UDIM614
  0
TEXT
  5
   1CF
  8
0
  6
CONTINUOUS
 62
     7
 10
237.6438394523
 20
-44.3766061398016
 30
0.0
 40
2.99999994039535
  1
214,5
 41
0.933333333333333
 72
     1
 11
244.343839319183
 21
-42.8766061696039
 31
0.0
 73
     2
  0
LINE
  5
   1D0
  8
0
  6
CONTINUOUS
 62
     7
 10
212.168334960938
 20
1.23373689404031
 30
0.0
 11
212.168334960938
 21
-47.3766061398016
 31
0.0
  0
LINE
  5
   1D1
  8
0
  6
CONTINUOUS
 62
     7
 10
276.519343677428
 20
60.5377161060357
 30
0.0
 11
276.519343677428
 21
-47.3766061398016
 31
0.0
  0
LINE
  5
   1D2
  8
0
  6
CONTINUOUS
 62
     7
 10
212.168334960938
 20
-45.3766061398016
 30
0.0
 11
276.519343677428
 21
-45.3766061398016
 31
0.0
  0
LINE
  5
   1D3
  8
0
  6
CONTINUOUS
 62
     7
 10
215.066112434148
 20
-44.600148983383
 30
0.0
 11
212.168334960938
 21
-45.3766061398016
 31
0.0
  0
LINE
  5
   1D4
  8
0
  6
CONTINUOUS
 62
     7
 10
212.168334960938
 20
-45.3766061398016
 30
0.0
 11
215.066112434148
 21
-46.1530632962201
 31
0.0
  0
LINE
  5
   1D5
  8
0
  6
CONTINUOUS
 62
     7
 10
273.621566204217
 20
-46.1530632962201
 30
0.0
 11
276.519343677428
 21
-45.3766061398016
 31
0.0
  0
LINE
  5
   1D6
  8
0
  6
CONTINUOUS
 62
     7
 10
276.519343677428
 20
-45.3766061398016
 30
0.0
 11
273.621566204217
 21
-44.600148983383
 31
0.0
  0
ENDBLK
  5
   1D7
  8
0
  6
CONTINUOUS
 62
     7
  0
BLOCK
  5
   1D8
  8
0
  6
CONTINUOUS
 62
     7
  2
*UDIM615
 70
    65
 10
0.0
 20
0.0
 30
0.0
  3
*UDIM615
  0
TEXT
  5
   1D9
  8
0
  6
CONTINUOUS
 62
     7
 10
286.101379973222
 20
61.076403964424
 30
0.0
 40
2.99999994039535
  1
105
 50
90.0
 41
0.933333333333333
 72
     1
 11
284.601380003019
 21
64.9764038869361
 31
0.0
 73
     2
  0
LINE
  5
   1DA
  8
0
  6
CONTINUOUS
 62
     7
 10
255.318332058187
 20
49.2264878961134
 30
0.0
 11
289.101336277526
 21
49.2263941709449
 31
0.0
  0
LINE
  5
   1DB
  8
0
  6
CONTINUOUS
 62
     7
 10
257.11833670735
 20
80.7264773655722
 30
0.0
 11
289.101423668874
 21
80.7263886339664
 31
0.0
  0
LINE
  5
   1DC
  8
0
  6
CONTINUOUS
 62
     7
 10
287.101336277533
 20
49.2263997196029
 30
0.0
 11
287.101423668882
 21
80.7263941826244
 31
0.0
  0
LINE
  5
   1DD
  8
0
  6
CONTINUOUS
 62
     7
 10
286.324887160506
 20
52.1241793469499
 30
0.0
 11
287.101336277533
 21
49.2263997196029
 31
0.0
  0
LINE
  5
   1DE
  8
0
  6
CONTINUOUS
 62
     7
 10
287.101336277533
 20
49.2263997196029
 30
0.0
 11
287.877801473337
 21
52.1241750386547
 31
0.0
  0
LINE
  5
   1DF
  8
0
  6
CONTINUOUS
 62
     7
 10
287.877872785909
 20
77.8286145552774
 30
0.0
 11
287.101423668882
 21
80.7263941826244
 31
0.0
  0
LINE
  5
   1E0
  8
0
  6
CONTINUOUS
 62
     7
 10
287.101423668882
 20
80.7263941826244
 30
0.0
 11
286.324958473078
 21
77.8286188635726
 31
0.0
  0
ENDBLK
  5
   1E1
  8
0
  6
CONTINUOUS
 62
     7
  0
BLOCK
  5
   1E2
  8
0
  6
CONTINUOUS
 62
     2
  2
*HATCH147
 70
    65
 10
0.0
 20
0.0
 30
0.0
  3
*HATCH147
  0
LINE
  5
   1E3
  8
0
  6
CONTINUOUS
 62
   210
 10
7.01461982727051
 20
272.999816894531
 30
0.0
 11
9.76456928253174
 21
270.249877929688
 31
0.0
  0
LINE
  5
   1E4
  8
0
  6
CONTINUOUS
 62
   210
 10
13.378662109375
 20
272.999725341797
 30
0.0
 11
16.1285266876221
 21
270.249877929688
 31
0.0
  0
ENDBLK
  5
   1E5
  8
0
  6
CONTINUOUS
 62
     2
  0
BLOCK
  5
   1E6
  8
0
  6
CONTINUOUS
 62
     2
  2
*HATCH148
 70
    65
 10
0.0
 20
0.0
 30
0.0
  3
*HATCH148
  0
LINE
  5
   1E7
  8
0
  6
CONTINUOUS
 62
   210
 10
5.53664445877075
 20
261.749877929688
 30
0.0
 11
8.28664112091064
 21
258.999877929688
 31
0.0
  0
LINE
  5
   1E8
  8
0
  6
CONTINUOUS
 62
   210
 10
11.9006013870239
 20
261.749877929688
 30
0.0
 11
14.6505975723267
 21
258.999877929688
 31
0.0
  0
LINE
  5
   1E9
  8
0
  6
CONTINUOUS
 62
   210
 10
18.2645587921143
 20
261.749877929688
 30
0.0
 11
19.4999923706055
 21
260.514434814453
 31
0.0
  0
ENDBLK
  5
   1EA
  8
0
  6
CONTINUOUS
 62
     2
  0
BLOCK
  5
   1EB
  8
0
  6
CONTINUOUS
 62
     7
  2
*HATCH149
 70
    65
 10
0.0
 20
0.0
 30
0.0
  3
*HATCH149
  0
LINE
  5
   1EC
  8
0
  6
CONTINUOUS
 62
     7
 10
3.49999189376831
 20
270.786346435547
 30
0.0
 11
1.99999177455902
 21
269.286346435547
 31
0.0
  0
LINE
  5
   1ED
  8
0
  6
CONTINUOUS
 62
     7
 10
18.1985626220703
 20
276.999633789063
 30
0.0
 11
14.8988075256348
 21
273.699890136719
 31
0.0
  0
LINE
  5
   1EE
  8
0
  6
CONTINUOUS
 62
     7
 10
7.9840874671936
 20
258.299865722656
 30
0.0
 11
1.99999177455902
 21
252.315765380859
 31
0.0
  0
LINE
  5
   1EF
  8
0
  6
CONTINUOUS
 62
     7
 10
5.99999189376831
 20
247.830505371094
 30
0.0
 11
1.99999177455902
 21
243.830505371094
 31
0.0
  0
LINE
  5
   1F0
  8
0
  6
CONTINUOUS
 62
     7
 10
19.4999961853027
 20
252.845230102539
 30
0.0
 11
15.8715810775757
 21
249.216812133789
 31
0.0
  0
LINE
  5
   1F1
  8
0
  6
CONTINUOUS
 62
     7
 10
16.8971538543701
 20
245.999740600586
 30
0.0
 11
12.8971529006958
 21
241.999740600586
 31
0.0
  0
LINE
  5
   1F2
  8
0
  6
CONTINUOUS
 62
     7
 10
18.9999923706055
 20
243.859939575195
 30
0.0
 11
17.1397933959961
 21
241.999740600586
 31
0.0
  0
LINE
  5
   1F3
  8
0
  6
CONTINUOUS
 62
     7
 10
18.88063621521
 20
239.497940063477
 30
0.0
 11
14.882571220398
 21
235.499877929688
 31
0.0
  0
LINE
  5
   1F4
  8
0
  6
CONTINUOUS
 62
     7
 10
5.36785221099854
 20
217.499877929688
 30
0.0
 11
3.36785173416138
 21
215.499877929688
 31
0.0
  0
LINE
  5
   1F5
  8
0
  6
CONTINUOUS
 62
     7
 10
8.99999141693115
 20
212.646743774414
 30
0.0
 11
5.99993562698364
 21
209.646682739258
 31
0.0
  0
ENDBLK
  5
   1F6
  8
0
  6
CONTINUOUS
 62
     7
  0
BLOCK
  5
   1F7
  8
0
  6
CONTINUOUS
 62
     7
  2
*HATCH150
 70
    65
 10
0.0
 20
0.0
 30
0.0
  3
*HATCH150
  0
LINE
  5
   1F8
  8
0
  6
CONTINUOUS
 62
    92
 10
19.4999923706055
 20
243.543869018555
 30
0.0
 11
30.0439701080322
 21
232.999877929688
 31
0.0
  0
LINE
  5
   1F9
  8
0
  6
CONTINUOUS
 62
    92
 10
27.0219039916992
 20
248.749877929688
 30
0.0
 11
33.4999885559082
 21
242.271789550781
 31
0.0
  0
ENDBLK
  5
   1FA
  8
0
  6
CONTINUOUS
 62
     7
  0
BLOCK
  5
   1FB
  8
0
  6
CONTINUOUS
 62
     7
  2
*HATCH151
 70
    65
 10
0.0
 20
0.0
 30
0.0
  3
*HATCH151
  0
LINE
  5
   1FC
  8
0
  6
CONTINUOUS
 62
    92
 10
19.4999961853027
 20
264.757080078125
 30
0.0
 11
28.0071887969971
 21
256.249877929688
 31
0.0
  0
LINE
  5
   1FD
  8
0
  6
CONTINUOUS
 62
    92
 10
19.4999980926514
 20
277.485015869141
 30
0.0
 11
33.4999847412109
 21
263.485015869141
 31
0.0
  0
LINE
  5
   1FE
  8
0
  6
CONTINUOUS
 62
    92
 10
29.7130470275879
 20
279.999877929688
 30
0.0
 11
33.4999847412109
 21
276.212951660156
 31
0.0
  0
ENDBLK
  5
   1FF
  8
0
  6
CONTINUOUS
 62
     7
  0
BLOCK
  5
   200
  8
0
  6
CONTINUOUS
 62
     2
  2
*HATCH152
 70
    65
 10
0.0
 20
0.0
 30
0.0
  3
*HATCH152
  0
LINE
  5
   201
  8
0
  6
CONTINUOUS
 62
    92
 10
46.0519142150879
 20
220.00016784668
 30
0.0
 11
40.5518646240234
 21
214.500122070313
 31
0.0
  0
ENDBLK
  5
   202
  8
0
  6
CONTINUOUS
 62
     2
  0
BLOCK
  5
   203
  8
0
  6
CONTINUOUS
 62
     2
  2
*HATCH153
 70
    65
 10
0.0
 20
0.0
 30
0.0
  3
*HATCH153
  0
LINE
  5
   204
  8
0
  6
CONTINUOUS
 62
    92
 10
62.5147399902344
 20
359.499572753906
 30
0.0
 11
50.0000152587891
 21
346.984832763672
 31
0.0
  0
LINE
  5
   205
  8
0
  6
CONTINUOUS
 62
    92
 10
64.9999923706055
 20
349.256896972656
 30
0.0
 11
50.0000152587891
 21
334.256927490234
 31
0.0
  0
LINE
  5
   206
  8
0
  6
CONTINUOUS
 62
    92
 10
64.9999923706055
 20
336.528961181641
 30
0.0
 11
50.0000152587891
 21
321.528991699219
 31
0.0
  0
LINE
  5
   207
  8
0
  6
CONTINUOUS
 62
    92
 10
64.9999923706055
 20
323.801025390625
 30
0.0
 11
50.0000152587891
 21
308.801055908203
 31
0.0
  0
LINE
  5
   208
  8
0
  6
CONTINUOUS
 62
    92
 10
64.9999923706055
 20
311.073089599609
 30
0.0
 11
50.0000152587891
 21
296.073120117188
 31
0.0
  0
LINE
  5
   209
  8
0
  6
CONTINUOUS
 62
    92
 10
64.9999923706055
 20
298.345153808594
 30
0.0
 11
50.0000152587891
 21
283.345184326172
 31
0.0
  0
LINE
  5
   20A
  8
0
  6
CONTINUOUS
 62
    92
 10
65.0
 20
285.617309570313
 30
0.0
 11
33.5871887207031
 21
254.204498291016
 31
0.0
  0
LINE
  5
   20B
  8
0
  6
CONTINUOUS
 62
    92
 10
63.2408714294434
 20
271.130249023438
 30
0.0
 11
33.4999694824219
 21
241.389358520508
 31
0.0
  0
LINE
  5
   20C
  8
0
  6
CONTINUOUS
 62
    92
 10
48.4999198913574
 20
243.661376953125
 30
0.0
 11
37.8386726379395
 21
233.000137329102
 31
0.0
  0
ENDBLK
  5
   20D
  8
0
  6
CONTINUOUS
 62
     2
  0
BLOCK
  5
   20E
  8
0
  6
CONTINUOUS
 62
     2
  2
*HATCH154
 70
    65
 10
0.0
 20
0.0
 30
0.0
  3
*HATCH154
  0
LINE
  5
   20F
  8
0
  6
CONTINUOUS
 62
    92
 10
59.3161964416504
 20
385.99951171875
 30
0.0
 11
50.0000152587891
 21
376.683319091797
 31
0.0
  0
LINE
  5
   210
  8
0
  6
CONTINUOUS
 62
    92
 10
64.9999923706055
 20
378.955383300781
 30
0.0
 11
58.5441360473633
 21
372.499542236328
 31
0.0
  0
ENDBLK
  5
   211
  8
0
  6
CONTINUOUS
 62
     2
  0
BLOCK
  5
   212
  8
0
  6
CONTINUOUS
 62
     7
  2
*HATCH155
 70
    65
 10
0.0
 20
0.0
 30
0.0
  3
*HATCH155
  0
LINE
  5
   213
  8
0
  6
CONTINUOUS
 62
   210
 10
5.40803098678589
 20
221.573379516602
 30
0.0
 11
8.48151397705078
 21
218.499893188477
 31
0.0
  0
LINE
  5
   214
  8
0
  6
CONTINUOUS
 62
   210
 10
10.7238874435425
 20
220.50016784668
 30
0.0
 11
12.7241525650024
 21
218.499893188477
 31
0.0
  0
LINE
  5
   215
  8
0
  6
CONTINUOUS
 62
   210
 10
17.0878448486328
 20
220.50016784668
 30
0.0
 11
19.0881099700928
 21
218.499893188477
 31
0.0
  0
ENDBLK
  5
   216
  8
0
  6
CONTINUOUS
 62
     7
  0
BLOCK
  5
   217
  8
0
  6
CONTINUOUS
 62
     7
  2
*HATCH156
 70
    65
 10
0.0
 20
0.0
 30
0.0
  3
*HATCH156
  0
LINE
  5
   218
  8
0
  6
CONTINUOUS
 62
   210
 10
5.20944833755493
 20
234.499893188477
 30
0.0
 11
8.28296184539795
 21
231.426376342773
 31
0.0
  0
LINE
  5
   219
  8
0
  6
CONTINUOUS
 62
   210
 10
11.5734052658081
 20
234.499893188477
 30
0.0
 11
13.5731353759766
 21
232.50016784668
 31
0.0
  0
LINE
  5
   21A
  8
0
  6
CONTINUOUS
 62
   210
 10
17.9373626708984
 20
234.499893188477
 30
0.0
 11
19.4999523162842
 21
232.937301635742
 31
0.0
  0
ENDBLK
  5
   21B
  8
0
  6
CONTINUOUS
 62
     7
  0
BLOCK
  5
   21C
  8
0
  6
CONTINUOUS
 62
     7
  2
*HATCH157
 70
    65
 10
0.0
 20
0.0
 30
0.0
  3
*HATCH157
  0
LINE
  5
   21D
  8
0
  6
CONTINUOUS
 62
    92
 10
11.396782875061
 20
204.978012084961
 30
0.0
 11
17.7791748046875
 21
198.595611572266
 31
0.0
  0
LINE
  5
   21E
  8
0
  6
CONTINUOUS
 62
    92
 10
17.5513648986816
 20
211.551361083984
 30
0.0
 11
27.4508819580078
 21
201.651824951172
 31
0.0
  0
LINE
  5
   21F
  8
0
  6
CONTINUOUS
 62
    92
 10
21.8307647705078
 20
219.999877929688
 30
0.0
 11
32.7685394287109
 21
209.062088012695
 31
0.0
  0
ENDBLK
  5
   220
  8
0
  6
CONTINUOUS
 62
     7
  0
BLOCK
  5
   221
  8
0
  6
CONTINUOUS
 62
     7
  2
*UDIM616
 70
    65
 10
0.0
 20
0.0
 30
0.0
  3
*UDIM616
  0
TEXT
  5
   222
  8
0
  6
CONTINUOUS
 62
     7
 10
217.16833759745
 20
171.262763881326
 30
0.0
 40
2.99999994039535
  1
50
 41
0.933333333333333
 72
     1
 11
219.668337547779
 21
172.762763851524
 31
0.0
 73
     2
  0
LINE
  5
   223
  8
0
  6
CONTINUOUS
 62
     7
 10
212.168334960938
 20
136.397996951397
 30
0.0
 11
212.168334960938
 21
172.262763881326
 31
0.0
  0
LINE
  5
   224
  8
0
  6
CONTINUOUS
 62
     7
 10
227.168340134621
 20
161.676353478426
 30
0.0
 11
227.168340134621
 21
172.262763881326
 31
0.0
  0
LINE
  5
   225
  8
0
  6
CONTINUOUS
 62
     7
 10
212.168334960938
 20
170.262763881326
 30
0.0
 11
227.168340134621
 21
170.262763881326
 31
0.0
  0
LINE
  5
   226
  8
0
  6
CONTINUOUS
 62
     7
 10
215.066112434148
 20
171.039221037745
 30
0.0
 11
212.168334960938
 21
170.262763881326
 31
0.0
  0
LINE
  5
   227
  8
0
  6
CONTINUOUS
 62
     7
 10
212.168334960938
 20
170.262763881326
 30
0.0
 11
215.066112434148
 21
169.486306724908
 31
0.0
  0
LINE
  5
   228
  8
0
  6
CONTINUOUS
 62
     7
 10
224.27056266141
 20
169.486306724908
 30
0.0
 11
227.168340134621
 21
170.262763881326
 31
0.0
  0
LINE
  5
   229
  8
0
  6
CONTINUOUS
 62
     7
 10
227.168340134621
 20
170.262763881326
 30
0.0
 11
224.27056266141
 21
171.039221037745
 31
0.0
  0
ENDBLK
  5
   22A
  8
0
  6
CONTINUOUS
 62
     7
  0
BLOCK
  5
   22B
  8
0
  6
CONTINUOUS
 62
     7
  2
*UDIM617
 70
    65
 10
0.0
 20
0.0
 30
0.0
  3
*UDIM617
  0
TEXT
  5
   22C
  8
0
  6
CONTINUOUS
 62
     7
 10
237.936589841773
 20
171.262763881326
 30
0.0
 40
2.99999994039535
  1
15
 41
0.933333333333333
 72
     1
 11
240.436589792103
 21
172.762763851524
 31
0.0
 73
     2
  0
LINE
  5
   22D
  8
0
  6
CONTINUOUS
 62
     7
 10
231.668333446979
 20
161.676353478426
 30
0.0
 11
231.668333446979
 21
172.262763881326
 31
0.0
  0
LINE
  5
   22E
  8
0
  6
CONTINUOUS
 62
     7
 10
227.168340134621
 20
170.262763881326
 30
0.0
 11
242.936589742432
 21
170.262763881326
 31
0.0
  0
LINE
  5
   22F
  8
0
  6
CONTINUOUS
 62
     7
 10
224.27056266141
 20
169.486306724908
 30
0.0
 11
227.168340134621
 21
170.262763881326
 31
0.0
  0
LINE
  5
   230
  8
0
  6
CONTINUOUS
 62
     7
 10
227.168340134621
 20
170.262763881326
 30
0.0
 11
224.27056266141
 21
171.039221037745
 31
0.0
  0
LINE
  5
   231
  8
0
  6
CONTINUOUS
 62
     7
 10
234.56611092019
 20
171.039221037745
 30
0.0
 11
231.668333446979
 21
170.262763881326
 31
0.0
  0
LINE
  5
   232
  8
0
  6
CONTINUOUS
 62
     7
 10
231.668333446979
 20
170.262763881326
 30
0.0
 11
234.56611092019
 21
169.486306724908
 31
0.0
  0
ENDBLK
  5
   233
  8
0
  6
CONTINUOUS
 62
     7
  0
BLOCK
  5
   234
  8
0
  6
CONTINUOUS
 62
     7
  2
*UDIM618
 70
    65
 10
0.0
 20
0.0
 30
0.0
  3
*UDIM618
  0
TEXT
  5
   235
  8
0
  6
CONTINUOUS
 62
     7
 10
238.542950359764
 20
145.077004629904
 30
0.0
 40
2.99999994039535
  1
13
 50
90.0
 41
0.933333333333333
 72
     1
 11
237.042950389563
 21
147.577004580231
 31
0.0
 73
     2
  0
TEXT
  5
   236
  8
0
  6
CONTINUOUS
 62
     7
 10
238.542950359763
 20
141.077004689508
 30
0.0
 40
2.99999994039535
  1
Ø
 50
90.0
 41
1.2
 72
     1
 11
237.042950389563
 21
142.577004659704
 31
0.0
 73
     2
  0
LINE
  5
   237
  8
0
  6
CONTINUOUS
 62
     7
 10
232.668328115868
 20
152.726375482486
 30
0.0
 11
241.542950359761
 21
152.726375482486
 31
0.0
  0
LINE
  5
   238
  8
0
  6
CONTINUOUS
 62
     7
 10
232.668327584998
 20
156.626363403604
 30
0.0
 11
241.542950359761
 21
156.626363403604
 31
0.0
  0
LINE
  5
   239
  8
0
  6
CONTINUOUS
 62
     7
 10
239.542950359761
 20
141.077004689506
 30
0.0
 11
239.542950359761
 21
161.626363403604
 31
0.0
  0
LINE
  5
   23A
  8
0
  6
CONTINUOUS
 62
     7
 10
240.319407516179
 20
149.828598009276
 30
0.0
 11
239.542950359761
 21
152.726375482486
 31
0.0
  0
LINE
  5
   23B
  8
0
  6
CONTINUOUS
 62
     7
 10
239.542950359761
 20
152.726375482486
 30
0.0
 11
238.766493203342
 21
149.828598009276
 31
0.0
  0
LINE
  5
   23C
  8
0
  6
CONTINUOUS
 62
     7
 10
238.766493203342
 20
159.524140876815
 30
0.0
 11
239.542950359761
 21
156.626363403604
 31
0.0
  0
LINE
  5
   23D
  8
0
  6
CONTINUOUS
 62
     7
 10
239.542950359761
 20
156.626363403604
 30
0.0
 11
240.319407516179
 21
159.524140876815
 31
0.0
  0
ENDBLK
  5
   23E
  8
0
  6
CONTINUOUS
 62
     7
  0
BLOCK
  5
   23F
  8
0
  6
CONTINUOUS
 62
     2
  2
*HATCH158
 70
    65
 10
0.0
 20
0.0
 30
0.0
  3
*HATCH158
  0
LINE
  5
   240
  8
0
  6
CONTINUOUS
 62
   210
 10
6.4272985458374
 20
-108.250747680664
 30
0.0
 11
9.17721939086914
 21
-111.000671386719
 31
0.0
  0
LINE
  5
   241
  8
0
  6
CONTINUOUS
 62
   210
 10
12.7912549972534
 20
-108.250747680664
 30
0.0
 11
15.5410900115967
 21
-111.000579833984
 31
0.0
  0
LINE
  5
   242
  8
0
  6
CONTINUOUS
 62
   210
 10
19.1552124023438
 20
-108.250747680664
 30
0.0
 11
19.4999923706055
 21
-108.595527648926
 31
0.0
  0
ENDBLK
  5
   243
  8
0
  6
CONTINUOUS
 62
     2
  0
BLOCK
  5
   244
  8
0
  6
CONTINUOUS
 62
     2
  2
*HATCH159
 70
    65
 10
0.0
 20
0.0
 30
0.0
  3
*HATCH159
  0
LINE
  5
   245
  8
0
  6
CONTINUOUS
 62
   210
 10
5.78390789031982
 20
-97.0007476806641
 30
0.0
 11
8.53390407562256
 21
-99.7507476806641
 31
0.0
  0
LINE
  5
   246
  8
0
  6
CONTINUOUS
 62
   210
 10
12.1478643417358
 20
-97.0007476806641
 30
0.0
 11
14.8978605270386
 21
-99.7507476806641
 31
0.0
  0
LINE
  5
   247
  8
0
  6
CONTINUOUS
 62
   210
 10
18.5118217468262
 20
-97.0007476806641
 30
0.0
 11
19.4999923706055
 21
-97.9889144897461
 31
0.0
  0
ENDBLK
  5
   248
  8
0
  6
CONTINUOUS
 62
     2
  0
BLOCK
  5
   249
  8
0
  6
CONTINUOUS
 62
     7
  2
*HATCH160
 70
    65
 10
0.0
 20
0.0
 30
0.0
  3
*HATCH160
  0
LINE
  5
   24A
  8
0
  6
CONTINUOUS
 62
     7
 10
5.89622116088867
 20
-53.5007476806641
 30
0.0
 11
3.89622116088867
 21
-55.5007476806641
 31
0.0
  0
LINE
  5
   24B
  8
0
  6
CONTINUOUS
 62
     7
 10
3.49999189376831
 20
-60.1396179199219
 30
0.0
 11
1.99999177455902
 21
-61.6396179199219
 31
0.0
  0
LINE
  5
   24C
  8
0
  6
CONTINUOUS
 62
     7
 10
18.6241455078125
 20
-53.5007476806641
 30
0.0
 11
16.6241436004639
 21
-55.5007476806641
 31
0.0
  0
LINE
  5
   24D
  8
0
  6
CONTINUOUS
 62
     7
 10
7.10942411422729
 20
-73.5007476806641
 30
0.0
 11
1.99999177455902
 21
-78.6101760864258
 31
0.0
  0
LINE
  5
   24E
  8
0
  6
CONTINUOUS
 62
     7
 10
15.594705581665
 20
-73.5007476806641
 30
0.0
 11
11.6076183319092
 21
-77.4878311157227
 31
0.0
  0
LINE
  5
   24F
  8
0
  6
CONTINUOUS
 62
     7
 10
13.3374834060669
 20
-80.0006103515625
 30
0.0
 11
9.33748340606689
 21
-84.0006103515625
 31
0.0
  0
LINE
  5
   250
  8
0
  6
CONTINUOUS
 62
     7
 10
10.3630619049072
 20
-87.2176742553711
 30
0.0
 11
1.99999177455902
 21
-95.5807418823242
 31
0.0
  0
LINE
  5
   251
  8
0
  6
CONTINUOUS
 62
     7
 10
3.49999189376831
 20
-98.3233795166016
 30
0.0
 11
1.99999177455902
 21
-99.8233795166016
 31
0.0
  0
LINE
  5
   252
  8
0
  6
CONTINUOUS
 62
     7
 10
19.4999961853027
 20
-90.8086624145508
 30
0.0
 11
14.0079078674316
 21
-96.3007431030274
 31
0.0
  0
LINE
  5
   253
  8
0
  6
CONTINUOUS
 62
     7
 10
3.49999189376831
 20
-111.051300048828
 30
0.0
 11
1.99999177455902
 21
-112.551300048828
 31
0.0
  0
LINE
  5
   254
  8
0
  6
CONTINUOUS
 62
     7
 10
15.5784702301025
 20
-111.700744628906
 30
0.0
 11
12.2787141799927
 21
-115.000503540039
 31
0.0
  0
ENDBLK
  5
   255
  8
0
  6
CONTINUOUS
 62
     7
  0
BLOCK
  5
   256
  8
0
  6
CONTINUOUS
 62
     7
  2
*HATCH161
 70
    65
 10
0.0
 20
0.0
 30
0.0
  3
*HATCH161
  0
LINE
  5
   257
  8
0
  6
CONTINUOUS
 62
    92
 10
19.4999942779541
 20
-74.6543807983398
 30
0.0
 11
31.5963439941406
 21
-86.7507476806641
 31
0.0
  0
LINE
  5
   258
  8
0
  6
CONTINUOUS
 62
    92
 10
28.574275970459
 20
-71.0007476806641
 30
0.0
 11
33.4999847412109
 21
-75.9264678955078
 31
0.0
  0
ENDBLK
  5
   259
  8
0
  6
CONTINUOUS
 62
     7
  0
BLOCK
  5
   25A
  8
0
  6
CONTINUOUS
 62
     7
  2
*HATCH162
 70
    65
 10
0.0
 20
0.0
 30
0.0
  3
*HATCH162
  0
LINE
  5
   25B
  8
0
  6
CONTINUOUS
 62
    92
 10
19.5
 20
-108.595527648926
 30
0.0
 11
28.9051990509033
 21
-118.000747680664
 31
0.0
  0
LINE
  5
   25C
  8
0
  6
CONTINUOUS
 62
    92
 10
19.4999961853027
 20
-95.8675994873047
 30
0.0
 11
33.4999847412109
 21
-109.867607116699
 31
0.0
  0
LINE
  5
   25D
  8
0
  6
CONTINUOUS
 62
    92
 10
30.6110572814941
 20
-94.2507476806641
 30
0.0
 11
33.4999847412109
 21
-97.1396713256836
 31
0.0
  0
ENDBLK
  5
   25E
  8
0
  6
CONTINUOUS
 62
     7
  0
BLOCK
  5
   25F
  8
0
  6
CONTINUOUS
 62
     2
  2
*HATCH163
 70
    65
 10
0.0
 20
0.0
 30
0.0
  3
*HATCH163
  0
LINE
  5
   260
  8
0
  6
CONTINUOUS
 62
    92
 10
45.0797462463379
 20
-52.5009918212891
 30
0.0
 11
39.5796928405762
 21
-58.0010414123535
 31
0.0
  0
ENDBLK
  5
   261
  8
0
  6
CONTINUOUS
 62
     2
  0
BLOCK
  5
   262
  8
0
  6
CONTINUOUS
 62
     2
  2
*HATCH164
 70
    65
 10
0.0
 20
0.0
 30
0.0
  3
*HATCH164
  0
LINE
  5
   263
  8
0
  6
CONTINUOUS
 62
    92
 10
43.5502967834473
 20
-71.0009994506836
 30
0.0
 11
33.4999694824219
 21
-81.0513305664063
 31
0.0
  0
LINE
  5
   264
  8
0
  6
CONTINUOUS
 62
    92
 10
48.499885559082
 20
-78.7793350219727
 30
0.0
 11
33.763256072998
 21
-93.5159606933594
 31
0.0
  0
LINE
  5
   265
  8
0
  6
CONTINUOUS
 62
    92
 10
48.6067657470703
 20
-91.4003753662109
 30
0.0
 11
37.5498809814453
 21
-102.457260131836
 31
0.0
  0
LINE
  5
   266
  8
0
  6
CONTINUOUS
 62
    92
 10
54.3670196533203
 20
-98.3680419921875
 30
0.0
 11
43.7604179382324
 21
-108.974647521973
 31
0.0
  0
LINE
  5
   267
  8
0
  6
CONTINUOUS
 62
    92
 10
60.6328201293945
 20
-104.83016204834
 30
0.0
 11
49.7457695007324
 21
-115.717216491699
 31
0.0
  0
LINE
  5
   268
  8
0
  6
CONTINUOUS
 62
    92
 10
64.6404724121094
 20
-113.550437927246
 30
0.0
 11
50.0000152587891
 21
-128.190887451172
 31
0.0
  0
LINE
  5
   269
  8
0
  6
CONTINUOUS
 62
    92
 10
65.0
 20
-125.918823242188
 30
0.0
 11
50.0000152587891
 21
-140.918823242188
 31
0.0
  0
LINE
  5
   26A
  8
0
  6
CONTINUOUS
 62
    92
 10
65.0
 20
-138.646759033203
 30
0.0
 11
50.0000152587891
 21
-153.646759033203
 31
0.0
  0
LINE
  5
   26B
  8
0
  6
CONTINUOUS
 62
    92
 10
65.0
 20
-151.374694824219
 30
0.0
 11
50.0000152587891
 21
-166.374694824219
 31
0.0
  0
LINE
  5
   26C
  8
0
  6
CONTINUOUS
 62
    92
 10
65.0
 20
-164.102630615234
 30
0.0
 11
50.0000152587891
 21
-179.102630615234
 31
0.0
  0
LINE
  5
   26D
  8
0
  6
CONTINUOUS
 62
    92
 10
65.0
 20
-176.83056640625
 30
0.0
 11
50.0000152587891
 21
-191.83056640625
 31
0.0
  0
LINE
  5
   26E
  8
0
  6
CONTINUOUS
 62
    92
 10
64.9999923706055
 20
-189.558441162109
 30
0.0
 11
57.0579948425293
 21
-197.500442504883
 31
0.0
  0
ENDBLK
  5
   26F
  8
0
  6
CONTINUOUS
 62
     2
  0
BLOCK
  5
   270
  8
0
  6
CONTINUOUS
 62
     2
  2
*HATCH165
 70
    65
 10
0.0
 20
0.0
 30
0.0
  3
*HATCH165
  0
LINE
  5
   271
  8
0
  6
CONTINUOUS
 62
    92
 10
61.0285987854004
 20
-210.500396728516
 30
0.0
 11
50.0000152587891
 21
-221.528991699219
 31
0.0
  0
LINE
  5
   272
  8
0
  6
CONTINUOUS
 62
    92
 10
64.9999923706055
 20
-219.256942749023
 30
0.0
 11
60.2565422058106
 21
-224.000381469727
 31
0.0
  0
ENDBLK
  5
   273
  8
0
  6
CONTINUOUS
 62
     2
  0
BLOCK
  5
   274
  8
0
  6
CONTINUOUS
 62
     7
  2
*HATCH166
 70
    65
 10
0.0
 20
0.0
 30
0.0
  3
*HATCH166
  0
LINE
  5
   275
  8
0
  6
CONTINUOUS
 62
   210
 10
5.58903503417969
 20
-56.5007629394531
 30
0.0
 11
8.66251850128174
 21
-59.5742492675781
 31
0.0
  0
LINE
  5
   276
  8
0
  6
CONTINUOUS
 62
   210
 10
11.9529914855957
 20
-56.5007629394531
 30
0.0
 11
13.9532566070557
 21
-58.5010299682617
 31
0.0
  0
LINE
  5
   277
  8
0
  6
CONTINUOUS
 62
   210
 10
18.3169498443604
 20
-56.5007629394531
 30
0.0
 11
19.4999523162842
 21
-57.683765411377
 31
0.0
  0
ENDBLK
  5
   278
  8
0
  6
CONTINUOUS
 62
     7
  0
BLOCK
  5
   279
  8
0
  6
CONTINUOUS
 62
     7
  2
*HATCH167
 70
    65
 10
0.0
 20
0.0
 30
0.0
  3
*HATCH167
  0
LINE
  5
   27A
  8
0
  6
CONTINUOUS
 62
   210
 10
5.78758716583252
 20
-69.42724609375
 30
0.0
 11
8.8611011505127
 21
-72.5007629394531
 31
0.0
  0
LINE
  5
   27B
  8
0
  6
CONTINUOUS
 62
   210
 10
13.2253274917603
 20
-70.5010299682617
 30
0.0
 11
15.2250576019287
 21
-72.5007629394531
 31
0.0
  0
ENDBLK
  5
   27C
  8
0
  6
CONTINUOUS
 62
     7
  0
BLOCK
  5
   27D
  8
0
  6
CONTINUOUS
 62
     7
  2
*HATCH168
 70
    65
 10
0.0
 20
0.0
 30
0.0
  3
*HATCH168
  0
LINE
  5
   27E
  8
0
  6
CONTINUOUS
 62
    92
 10
19.4999523162842
 20
-49.1984786987305
 30
0.0
 11
28.3022079467773
 21
-58.0007476806641
 31
0.0
  0
LINE
  5
   27F
  8
0
  6
CONTINUOUS
 62
    92
 10
24.0918827056885
 20
-41.0624847412109
 30
0.0
 11
33.5000038146973
 21
-50.4706153869629
 31
0.0
  0
ENDBLK
  5
   280
  8
0
  6
CONTINUOUS
 62
     7
  0
BLOCK
  5
   281
  8
0
  6
CONTINUOUS
 62
     7
  2
*UDIM619
 70
    65
 10
0.0
 20
0.0
 30
0.0
  3
*UDIM619
  0
TEXT
  5
   282
  8
0
  6
CONTINUOUS
 62
     7
 10
217.16833759745
 20
-29.4522664521228
 30
0.0
 40
2.99999994039535
  1
50
 41
0.933333333333333
 72
     1
 11
219.668337547779
 21
-27.9522664819252
 31
0.0
 73
     2
  0
LINE
  5
   283
  8
0
  6
CONTINUOUS
 62
     7
 10
212.168334960938
 20
1.23373689404031
 30
0.0
 11
212.168334960938
 21
-32.4522664521228
 31
0.0
  0
LINE
  5
   284
  8
0
  6
CONTINUOUS
 62
     7
 10
227.168340134621
 20
-23.3236213872649
 30
0.0
 11
227.168340134621
 21
-32.4522664521228
 31
0.0
  0
LINE
  5
   285
  8
0
  6
CONTINUOUS
 62
     7
 10
212.168334960938
 20
-30.4522664521228
 30
0.0
 11
227.168340134621
 21
-30.4522664521228
 31
0.0
  0
LINE
  5
   286
  8
0
  6
CONTINUOUS
 62
     7
 10
215.066112434148
 20
-29.6758092957043
 30
0.0
 11
212.168334960938
 21
-30.4522664521228
 31
0.0
  0
LINE
  5
   287
  8
0
  6
CONTINUOUS
 62
     7
 10
212.168334960938
 20
-30.4522664521228
 30
0.0
 11
215.066112434148
 21
-31.2287236085414
 31
0.0
  0
LINE
  5
   288
  8
0
  6
CONTINUOUS
 62
     7
 10
224.27056266141
 20
-31.2287236085414
 30
0.0
 11
227.168340134621
 21
-30.4522664521228
 31
0.0
  0
LINE
  5
   289
  8
0
  6
CONTINUOUS
 62
     7
 10
227.168340134621
 20
-30.4522664521228
 30
0.0
 11
224.27056266141
 21
-29.6758092957043
 31
0.0
  0
ENDBLK
  5
   28A
  8
0
  6
CONTINUOUS
 62
     7
  0
BLOCK
  5
   28B
  8
0
  6
CONTINUOUS
 62
     7
  2
*UDIM620
 70
    65
 10
0.0
 20
0.0
 30
0.0
  3
*UDIM620
  0
TEXT
  5
   28C
  8
0
  6
CONTINUOUS
 62
     7
 10
236.601811575233
 20
-29.4522664521229
 30
0.0
 40
2.99999994039535
  1
15
 41
0.933333333333333
 72
     1
 11
239.101811525562
 21
-27.9522664819252
 31
0.0
 73
     2
  0
LINE
  5
   28D
  8
0
  6
CONTINUOUS
 62
     7
 10
231.668333446979
 20
-23.3236213872649
 30
0.0
 11
231.668333446979
 21
-32.4522664521229
 31
0.0
  0
LINE
  5
   28E
  8
0
  6
CONTINUOUS
 62
     7
 10
227.168340134621
 20
-30.4522664521228
 30
0.0
 11
241.601811475892
 21
-30.4522664521229
 31
0.0
  0
LINE
  5
   28F
  8
0
  6
CONTINUOUS
 62
     7
 10
224.27056266141
 20
-31.2287236085414
 30
0.0
 11
227.168340134621
 21
-30.4522664521228
 31
0.0
  0
LINE
  5
   290
  8
0
  6
CONTINUOUS
 62
     7
 10
227.168340134621
 20
-30.4522664521228
 30
0.0
 11
224.27056266141
 21
-29.6758092957043
 31
0.0
  0
LINE
  5
   291
  8
0
  6
CONTINUOUS
 62
     7
 10
234.56611092019
 20
-29.6758092957043
 30
0.0
 11
231.668333446979
 21
-30.4522664521228
 31
0.0
  0
LINE
  5
   292
  8
0
  6
CONTINUOUS
 62
     7
 10
231.668333446979
 20
-30.4522664521228
 30
0.0
 11
234.56611092019
 21
-31.2287236085414
 31
0.0
  0
ENDBLK
  5
   293
  8
0
  6
CONTINUOUS
 62
     7
  0
ENDSEC
  0
SECTION
  2
ENTITIES
  0
LINE
  5
   294
  8
0
  6
CONTINUOUS
 62
     7
 10
233.639450073242
 20
-100.667449951172
 30
0.0
 11
270.389450073242
 21
-100.667449951172
 31
0.0
  0
LINE
  5
   295
  8
0
  6
CONTINUOUS
 62
     7
 10
233.639450073242
 20
-72.6674499511719
 30
0.0
 11
270.389450073242
 21
-72.6674499511719
 31
0.0
  0
LINE
  5
   296
  8
0
  6
CONTINUOUS
 62
     7
 10
233.639450073242
 20
-72.6674499511719
 30
0.0
 11
233.639450073242
 21
-100.667449951172
 31
0.0
  0
LINE
  5
   297
  8
0
  6
CONTINUOUS
 62
     7
 10
270.389450073242
 20
-72.6674499511719
 30
0.0
 11
270.389450073242
 21
-100.667449951172
 31
0.0
  0
LINE
  5
   298
  8
0
  6
DASHDOT
 62
     2
 10
252.014450073242
 20
-62.559000723583
 30
0.0
 11
252.014450073242
 21
-112.505282609889
 31
0.0
  0
CIRCLE
  5
   299
  8
0
  6
CONTINUOUS
 62
     7
 10
237.639450073242
 20
-68.9174499511719
 30
0.0
 40
0.875
  0
CIRCLE
  5
   29A
  8
0
  6
CONTINUOUS
 62
     7
 10
266.389450073242
 20
-68.9174499511719
 30
0.0
 40
0.875
  0
CIRCLE
  5
   29B
  8
0
  6
CONTINUOUS
 62
     7
 10
266.389450073242
 20
-104.417449951172
 30
0.0
 40
0.875
  0
CIRCLE
  5
   29C
  8
0
  6
CONTINUOUS
 62
     7
 10
237.639450073242
 20
-104.417449951172
 30
0.0
 40
0.875
  0
LINE
  5
   29D
  8
0
  6
DASHDOT
 62
     7
 10
266.389450073242
 20
-66.7924499511719
 30
0.0
 11
266.389450073242
 21
-71.0424499511719
 31
0.0
  0
LINE
  5
   29E
  8
0
  6
DASHDOT
 62
     7
 10
264.264450073242
 20
-68.9174499511719
 30
0.0
 11
268.514450073242
 21
-68.9174499511719
 31
0.0
  0
LINE
  5
   29F
  8
0
  6
DASHDOT
 62
     7
 10
237.639450073242
 20
-66.7924499511719
 30
0.0
 11
237.639450073242
 21
-71.0424499511719
 31
0.0
  0
LINE
  5
   2A0
  8
0
  6
DASHDOT
 62
     7
 10
235.514450073242
 20
-68.9174499511719
 30
0.0
 11
239.764450073242
 21
-68.9174499511719
 31
0.0
  0
LINE
  5
   2A1
  8
0
  6
DASHDOT
 62
     7
 10
237.639450073242
 20
-102.292449951172
 30
0.0
 11
237.639450073242
 21
-106.542449951172
 31
0.0
  0
LINE
  5
   2A2
  8
0
  6
DASHDOT
 62
     7
 10
235.514450073242
 20
-104.417449951172
 30
0.0
 11
239.764450073242
 21
-104.417449951172
 31
0.0
  0
LINE
  5
   2A3
  8
0
  6
DASHDOT
 62
     7
 10
266.389450073242
 20
-102.292449951172
 30
0.0
 11
266.389450073242
 21
-106.542449951172
 31
0.0
  0
LINE
  5
   2A4
  8
0
  6
DASHDOT
 62
     7
 10
264.264450073242
 20
-104.417449951172
 30
0.0
 11
268.514450073242
 21
-104.417449951172
 31
0.0
  0
LINE
  5
   2A5
  8
0
  6
CONTINUOUS
 62
     7
 10
230.914551081858
 20
-65.8082941548483
 30
0.0
 11
272.876854822769
 21
-65.8082941548483
 31
0.0
  0
LINE
  5
   2A6
  8
0
  6
CONTINUOUS
 62
     7
 10
230.914551081858
 20
-108.141945716476
 30
0.0
 11
272.876854822769
 21
-108.141945716476
 31
0.0
  0
LINE
  5
   2A7
  8
0
  6
CONTINUOUS
 62
     7
 10
272.876854822769
 20
-65.8082941548483
 30
0.0
 11
272.876854822769
 21
-108.141945716476
 31
0.0
  0
LINE
  5
   2A8
  8
0
  6
CONTINUOUS
 62
     7
 10
230.914551081858
 20
-65.8082941548483
 30
0.0
 11
230.914551081858
 21
-108.141945716476
 31
0.0
  0
LINE
  5
   2A9
  8
0
  6
DASHDOT
 62
     2
 10
223.113745038158
 20
-86.6674499511719
 30
0.0
 11
281.780019878576
 21
-86.6674499511719
 31
0.0
  0
TEXT
  5
   2AA
  8
0
  6
CONTINUOUS
 62
     1
 10
221.524982738759
 20
-177.398010219578
 30
0.0
 40
2.00000008940697
  1
4POLE LOW VOLTAGE M.C.C.B SERIES ISOMAX
 50
359.999999844103
 41
0.749999861419206
 72
     1
 11
250.624978661537
 21
-176.398010253906
 31
0.0
 73
     2
  0
TEXT
  5
   2AB
  8
0
  6
CONTINUOUS
 62
     1
 10
220.774982843812
 20
-180.398010217541
 30
0.0
 40
2.00000008940697
  1
FIXED VERS.SPREADED EXTENDED FRONT TERM.
 50
359.999999844103
 41
0.749999861419206
 72
     1
 11
250.624978661537
 21
-179.398010253906
 31
0.0
 73
     2
  0
TEXT
  5
   2AC
  8
0
  6
CONTINUOUS
 62
     1
 10
224.727374371406
 20
-185.468276961543
 30
0.0
 40
2.00000008940697
  1
INTERR.AUTOMATICO SERIE ISOMAX
 50
359.999999844103
 41
0.749999861419206
 72
     1
 11
247.077371239662
 21
-184.468276977539
 31
0.0
 73
     2
  0
TEXT
  5
   2AD
  8
0
  6
CONTINUOUS
 62
     1
 10
212.727376052257
 20
-188.468276928952
 30
0.0
 40
2.00000008940697
  1
TETRAP.ESECUZIONE FISSA TERM.ANT.PROL.DIVARIC.
 50
359.999999844103
 41
0.749999861419206
 72
     1
 11
247.077371239662
 21
-187.468276977539
 31
0.0
 73
     2
  0
TEXT
  5
   2AE
  8
0
  6
CONTINUOUS
 62
     1
 10
233.059402461747
 20
-195.708282475112
 30
0.0
 40
3.00000002980232
  1
     S7
 50
359.999999844103
 41
0.916666604744064
 72
     2
 11
251.759401379922
 21
-195.708282525899
 31
0.0
  0
TEXT
  5
   2AF
  8
0
  6
CONTINUOUS
 62
     1
 10
231.973709101014
 20
-204.689865241214
 30
0.0
 40
4.00000017881393
  1
601840/461
 50
359.999999844103
 41
0.937499973922969
 72
     2
 11
268.723709700785
 21
-204.689865341023
 31
0.0
  0
TEXT
  5
   2B0
  8
0
  6
CONTINUOUS
 62
     1
 10
162.305714975711
 20
-193.704193131828
 30
0.0
 40
2.00000008940697
  1
N0022 99-11-11
 50
359.999999844103
 41
0.749999861419206
 72
     1
 11
172.655713524818
 21
-192.704193115234
 31
0.0
 73
     2
  0
TEXT
  5
   2B1
  8
0
  6
CONTINUOUS
 62
     7
 10
226.363963501118
 20
-98.7268749630379
 30
0.0
 40
3.00000002980232
  1
=      =
 50
449.999999844103
 41
0.916666604744064
 72
     2
 11
226.363963559347
 21
-77.2768762033112
 31
0.0
  0
TEXT
  5
   2B2
  8
0
  6
CONTINUOUS
 62
     7
 10
217.425887481831
 20
-98.7268749630379
 30
0.0
 40
3.00000002980232
  1
=      =
 50
449.999999844103
 41
0.916666604744064
 72
     2
 11
217.42588754006
 21
-77.2768762033112
 31
0.0
  0
TEXT
  5
   2B3
  8
0
  6
CONTINUOUS
 62
     7
 10
251.373790432907
 20
-121.881816343064
 30
0.0
 40
3.00000002980232
  1
Y
 50
359.999999844103
 41
0.916666604744064
 72
     2
 11
253.573790301777
 21
-121.881816349039
 31
0.0
  0
TEXT
  5
   2B4
  8
0
  6
CONTINUOUS
 62
     7
 10
250.631094862915
 20
-53.5538172280739
 30
0.0
 40
3.00000002980232
  1
Y
 50
359.999999844103
 41
0.916666604744064
 72
     2
 11
252.831094731785
 21
-53.5538172340488
 31
0.0
  0
TEXT
  5
   2B5
  8
0
  6
CONTINUOUS
 62
     7
 10
205.698010136582
 20
-88.8318585312317
 30
0.0
 40
3.00000002980232
  1
X
 50
359.999999844103
 41
0.916666604744064
 72
     2
 11
207.898010005451
 21
-88.8318585372066
 31
0.0
  0
TEXT
  5
   2B6
  8
0
  6
CONTINUOUS
 62
     7
 10
283.417801548935
 20
-88.1026038682411
 30
0.0
 40
3.00000002980232
  1
X
 50
359.999999844103
 41
0.916666604744064
 72
     2
 11
285.617801417805
 21
-88.1026038742161
 31
0.0
  0
TEXT
  5
   2B7
  8
0
  6
CONTINUOUS
 62
     7
 10
242.150182571409
 20
-119.282375581855
 30
0.0
 40
3.00000002980232
  1
=      =
 50
359.999999844103
 41
0.916666604744064
 72
     2
 11
263.600181331136
 21
-119.28237564011
 31
0.0
  0
TEXT
  5
   2B8
  8
0
  6
CONTINUOUS
 62
     7
 10
241.407483901975
 20
-63.6730425435247
 30
0.0
 40
3.00000002980232
  1
=      =
 50
359.999999844103
 41
0.916666604744064
 72
     2
 11
262.857482661702
 21
-63.6730426017804
 31
0.0
  0
INSERT
  5
   2B9
  8
0
  6
CONTINUOUS
 62
     7
  2
*UDIM572
 10
0.0
 20
0.0
 30
0.0
  0
INSERT
  5
   2BA
  8
0
  6
CONTINUOUS
 62
     7
  2
*UDIM573
 10
0.0
 20
0.0
 30
0.0
  0
INSERT
  5
   2BB
  8
0
  6
CONTINUOUS
 62
     7
  2
*UDIM574
 10
0.0
 20
0.0
 30
0.0
  0
INSERT
  5
   2BC
  8
0
  6
CONTINUOUS
 62
     7
  2
*UDIM575
 10
0.0
 20
0.0
 30
0.0
  0
INSERT
  5
   2BD
  8
0
  6
CONTINUOUS
 62
     7
  2
*UDIM576
 10
0.0
 20
0.0
 30
0.0
  0
LINE
  5
   2BE
  8
0
  6
CONTINUOUS
 62
   130
 10
91.1618491530426
 20
51.2516268402342
 30
0.0
 11
91.1618491530426
 21
51.5516268521551
 31
0.0
  0
LINE
  5
   2BF
  8
0
  6
CONTINUOUS
 62
   130
 10
90.9715933902964
 20
51.2516268402342
 30
0.0
 11
90.8618216753002
 21
51.2516268402342
 31
0.0
  0
LINE
  5
   2C0
  8
0
  6
CONTINUOUS
 62
   130
 10
91.1618491530426
 20
51.2516268402342
 30
0.0
 11
90.9715934081778
 21
51.2516268402342
 31
0.0
  0
LINE
  5
   2C1
  8
0
  6
CONTINUOUS
 62
   130
 10
91.1618491530426
 20
51.5516268521551
 30
0.0
 11
90.8618216753002
 21
51.5516268521551
 31
0.0
  0
LINE
  5
   2C2
  8
0
  6
CONTINUOUS
 62
   130
 10
132.561814177036
 20
51.2516222625973
 30
0.0
 11
132.561814177036
 21
51.5516222745182
 31
0.0
  0
LINE
  5
   2C3
  8
0
  6
CONTINUOUS
 62
   130
 10
132.861841654778
 20
51.2516222625973
 30
0.0
 11
132.561814177036
 21
51.2516222625973
 31
0.0
  0
LINE
  5
   2C4
  8
0
  6
CONTINUOUS
 62
   130
 10
132.861841654778
 20
51.5516222745182
 30
0.0
 11
132.752060766627
 21
51.5516222745182
 31
0.0
  0
LINE
  5
   2C5
  8
0
  6
CONTINUOUS
 62
   130
 10
132.752060766627
 20
51.5516222745182
 30
0.0
 11
132.561814177036
 21
51.5516222745182
 31
0.0
  0
LINE
  5
   2C6
  8
0
  6
CONTINUOUS
 62
     1
 10
132.561814815584
 20
50.6516199499371
 30
0.0
 11
118.161831915379
 21
50.651621542158
 31
0.0
  0
LINE
  5
   2C7
  8
0
  6
CONTINUOUS
 62
   130
 10
91.1618491530426
 20
56.9516270667318
 30
0.0
 11
91.1618491530426
 21
57.2516270786527
 31
0.0
  0
LINE
  5
   2C8
  8
0
  6
CONTINUOUS
 62
   130
 10
90.9715933902964
 20
56.9516270667318
 30
0.0
 11
90.8618216753002
 21
56.9516270667318
 31
0.0
  0
LINE
  5
   2C9
  8
0
  6
CONTINUOUS
 62
   130
 10
91.1618491530426
 20
56.9516270667318
 30
0.0
 11
90.9715934081778
 21
56.9516270667318
 31
0.0
  0
LINE
  5
   2CA
  8
0
  6
CONTINUOUS
 62
   130
 10
91.1618491530426
 20
57.2516270786527
 30
0.0
 11
90.8618216753002
 21
57.2516270786527
 31
0.0
  0
LINE
  5
   2CB
  8
0
  6
CONTINUOUS
 62
   130
 10
132.561814177036
 20
56.951617911458
 30
0.0
 11
132.561814177036
 21
57.2516179233789
 31
0.0
  0
LINE
  5
   2CC
  8
0
  6
CONTINUOUS
 62
   130
 10
132.861832499504
 20
56.951617911458
 30
0.0
 11
132.561814177036
 21
56.951617911458
 31
0.0
  0
LINE
  5
   2CD
  8
0
  6
CONTINUOUS
 62
   130
 10
132.861832499504
 20
57.2516179233789
 30
0.0
 11
132.561814177036
 21
57.2516179233789
 31
0.0
  0
LINE
  5
   2CE
  8
0
  6
CONTINUOUS
 62
     1
 10
132.561814177036
 20
56.3516178876162
 30
0.0
 11
118.161831915379
 21
56.3516178876162
 31
0.0
  0
LINE
  5
   2CF
  8
0
  6
CONTINUOUS
 62
     1
 10
105.561838710312
 20
56.3516173154129
 30
0.0
 11
91.1618518710183
 21
56.3516264706865
 31
0.0
  0
LINE
  5
   2D0
  8
0
  6
CONTINUOUS
 62
   130
 10
91.1618399977688
 20
70.3016184419394
 30
0.0
 11
91.1618399977688
 21
70.6016184538603
 31
0.0
  0
LINE
  5
   2D1
  8
0
  6
CONTINUOUS
 62
   130
 10
90.9715933902964
 20
70.3016184419394
 30
0.0
 11
90.861830830574
 21
70.3016184419394
 31
0.0
  0
LINE
  5
   2D2
  8
0
  6
CONTINUOUS
 62
   130
 10
91.1618399977688
 20
70.3016184419394
 30
0.0
 11
90.9715979858147
 21
70.3016184419394
 31
0.0
  0
LINE
  5
   2D3
  8
0
  6
CONTINUOUS
 62
   130
 10
91.1618399977688
 20
70.6016184538603
 30
0.0
 11
90.9715979858147
 21
70.6016184538603
 31
0.0
  0
LINE
  5
   2D4
  8
0
  6
CONTINUOUS
 62
   130
 10
90.9715979858147
 20
70.6016184538603
 30
0.0
 11
90.861830830574
 21
70.6016184538603
 31
0.0
  0
LINE
  5
   2D5
  8
0
  6
CONTINUOUS
 62
   130
 10
132.561823332309
 20
70.3016275972132
 30
0.0
 11
132.561823332309
 21
70.6016276091341
 31
0.0
  0
LINE
  5
   2D6
  8
0
  6
CONTINUOUS
 62
   130
 10
132.75205618899
 20
70.3016275972132
 30
0.0
 11
132.561823332309
 21
70.3016275972132
 31
0.0
  0
LINE
  5
   2D7
  8
0
  6
CONTINUOUS
 62
   130
 10
132.861832481623
 20
70.3016275972132
 30
0.0
 11
132.75205618899
 21
70.3016275972132
 31
0.0
  0
LINE
  5
   2D8
  8
0
  6
CONTINUOUS
 62
   130
 10
132.861832499504
 20
70.6016276091341
 30
0.0
 11
132.752060784508
 21
70.6016276091341
 31
0.0
  0
LINE
  5
   2D9
  8
0
  6
CONTINUOUS
 62
   130
 10
132.75205618899
 20
70.6016276091341
 30
0.0
 11
132.561823332309
 21
70.6016276091341
 31
0.0
  0
LINE
  5
   2DA
  8
0
  6
CONTINUOUS
 62
     1
 10
132.561823332309
 20
69.7016275733713
 30
0.0
 11
118.161831915379
 21
69.7016275733713
 31
0.0
  0
LINE
  5
   2DB
  8
0
  6
CONTINUOUS
 62
     1
 10
91.1618425249953
 20
69.7016144126737
 30
0.0
 11
105.561838519563
 21
69.7016235679474
 31
0.0
  0
LINE
  5
   2DC
  8
0
  6
CONTINUOUS
 62
   130
 10
91.1618399977688
 20
76.001618668437
 30
0.0
 11
91.1618399977688
 21
76.3016186803579
 31
0.0
  0
LINE
  5
   2DD
  8
0
  6
CONTINUOUS
 62
   130
 10
91.1618399977688
 20
76.001618668437
 30
0.0
 11
90.8618216753002
 21
76.001618668437
 31
0.0
  0
LINE
  5
   2DE
  8
0
  6
CONTINUOUS
 62
   130
 10
91.1618399977688
 20
76.3016186803579
 30
0.0
 11
90.8618216753002
 21
76.3016186803579
 31
0.0
  0
LINE
  5
   2DF
  8
0
  6
CONTINUOUS
 62
   130
 10
132.561823332309
 20
76.0016278237108
 30
0.0
 11
132.561823332309
 21
76.3016278356317
 31
0.0
  0
LINE
  5
   2E0
  8
0
  6
CONTINUOUS
 62
   130
 10
132.752065344263
 20
76.0016278237108
 30
0.0
 11
132.561823332309
 21
76.0016278237108
 31
0.0
  0
LINE
  5
   2E1
  8
0
  6
CONTINUOUS
 62
   130
 10
132.861832499504
 20
76.0016278237108
 30
0.0
 11
132.752065344263
 21
76.0016278237108
 31
0.0
  0
LINE
  5
   2E2
  8
0
  6
CONTINUOUS
 62
   130
 10
132.861832499504
 20
76.3016278356317
 30
0.0
 11
132.561823332309
 21
76.3016278356317
 31
0.0
  0
LINE
  5
   2E3
  8
0
  6
CONTINUOUS
 62
     1
 10
91.1618424026821
 20
75.401618644596
 30
0.0
 11
132.561821159586
 21
75.4016277998696
 31
0.0
  0
LINE
  5
   2E4
  8
0
  6
CONTINUOUS
 62
     1
 10
81.3013299212654
 20
42.0266178837336
 30
0.0
 11
59.7368479043253
 21
42.0266943925887
 31
0.0
  0
LINE
  5
   2E5
  8
0
  6
CONTINUOUS
 62
     1
 10
142.422333408813
 20
42.0266178837336
 30
0.0
 11
142.986810970306
 21
42.0266198864496
 31
0.0
  0
LINE
  5
   2E6
  8
0
  6
CONTINUOUS
 62
     1
 10
143.361832241692
 20
105.176619827747
 30
0.0
 11
59.3618302539211
 21
105.176619827747
 31
0.0
  0
LINE
  5
   2E7
  8
0
  6
CONTINUOUS
 62
     1
 10
142.422332452158
 20
42.0266176044941
 30
0.0
 11
134.66183257103
 21
42.0266176044941
 31
0.0
  0
LINE
  5
   2E8
  8
0
  6
CONTINUOUS
 62
     1
 10
143.286823758483
 20
42.326617616415
 30
0.0
 11
134.66183257103
 21
42.326617616415
 31
0.0
  0
LINE
  5
   2E9
  8
0
  6
CONTINUOUS
 62
     1
 10
89.0618307590485
 20
80.726600545644
 30
0.0
 11
59.3618336924245
 21
80.726600545644
 31
0.0
  0
LINE
  5
   2EA
  8
0
  6
CONTINUOUS
 62
     1
 10
143.286823758483
 20
80.726600545644
 30
0.0
 11
134.66183257103
 21
80.726600545644
 31
0.0
  0
LINE
  5
   2EB
  8
0
  6
CONTINUOUS
 62
     1
 10
143.286823758483
 20
49.2266127407549
 30
0.0
 11
134.66183257103
 21
49.2266127407549
 31
0.0
  0
LINE
  5
   2EC
  8
0
  6
CONTINUOUS
 62
     1
 10
89.0618307590485
 20
49.2266127407549
 30
0.0
 11
59.3618381223929
 21
49.2266127407549
 31
0.0
  0
LINE
  5
   2ED
  8
0
  6
CONTINUOUS
 62
     1
 10
81.0068377631906
 20
80.726600545644
 30
0.0
 11
81.0068377631906
 21
105.17661525011
 31
0.0
  0
LINE
  5
   2EE
  8
0
  6
CONTINUOUS
 62
     1
 10
82.0868487924345
 20
80.726600545644
 30
0.0
 11
82.0868487924345
 21
105.17661525011
 31
0.0
  0
LINE
  5
   2EF
  8
0
  6
CONTINUOUS
 62
     1
 10
83.1668415111308
 20
80.726600545644
 30
0.0
 11
83.1668415111308
 21
105.17661525011
 31
0.0
  0
LINE
  5
   2F0
  8
0
  6
CONTINUOUS
 62
     1
 10
84.2468342298271
 20
80.726600545644
 30
0.0
 11
84.2468342298271
 21
105.17661525011
 31
0.0
  0
LINE
  5
   2F1
  8
0
  6
CONTINUOUS
 62
     1
 10
85.326845259071
 20
80.726600545644
 30
0.0
 11
85.326845259071
 21
105.17661525011
 31
0.0
  0
LINE
  5
   2F2
  8
0
  6
CONTINUOUS
 62
     1
 10
86.4068379777673
 20
80.726600545644
 30
0.0
 11
86.4068379777673
 21
105.17661525011
 31
0.0
  0
LINE
  5
   2F3
  8
0
  6
CONTINUOUS
 62
     1
 10
87.4868490070112
 20
80.726600545644
 30
0.0
 11
87.4868490070112
 21
105.17661525011
 31
0.0
  0
LINE
  5
   2F4
  8
0
  6
CONTINUOUS
 62
     1
 10
88.5668417257075
 20
80.726600545644
 30
0.0
 11
88.5668417257075
 21
105.17661525011
 31
0.0
  0
LINE
  5
   2F5
  8
0
  6
CONTINUOUS
 62
     1
 10
89.6468344444038
 20
89.1266003072254
 30
0.0
 11
89.6468344444038
 21
105.17661525011
 31
0.0
  0
LINE
  5
   2F6
  8
0
  6
CONTINUOUS
 62
     1
 10
90.7268454736477
 20
89.1266003072254
 30
0.0
 11
90.7268454736477
 21
105.17661525011
 31
0.0
  0
LINE
  5
   2F7
  8
0
  6
CONTINUOUS
 62
     1
 10
81.0068377631906
 20
49.226622182131
 30
0.0
 11
81.0068377631906
 21
80.726600545644
 31
0.0
  0
LINE
  5
   2F8
  8
0
  6
CONTINUOUS
 62
     1
 10
82.0868487924345
 20
49.226622182131
 30
0.0
 11
82.0868487924345
 21
80.726600545644
 31
0.0
  0
LINE
  5
   2F9
  8
0
  6
CONTINUOUS
 62
     1
 10
83.1668415111308
 20
49.226622182131
 30
0.0
 11
83.1668415111308
 21
80.726600545644
 31
0.0
  0
LINE
  5
   2FA
  8
0
  6
CONTINUOUS
 62
     1
 10
84.2468342298271
 20
49.226622182131
 30
0.0
 11
84.2468342298271
 21
80.726600545644
 31
0.0
  0
LINE
  5
   2FB
  8
0
  6
CONTINUOUS
 62
     1
 10
85.326845259071
 20
49.226622182131
 30
0.0
 11
85.326845259071
 21
80.726600545644
 31
0.0
  0
LINE
  5
   2FC
  8
0
  6
CONTINUOUS
 62
     1
 10
86.4068379777673
 20
49.226622182131
 30
0.0
 11
86.4068379777673
 21
80.726600545644
 31
0.0
  0
LINE
  5
   2FD
  8
0
  6
CONTINUOUS
 62
     1
 10
87.4868490070112
 20
49.226622182131
 30
0.0
 11
87.4868490070112
 21
80.726600545644
 31
0.0
  0
LINE
  5
   2FE
  8
0
  6
CONTINUOUS
 62
     1
 10
88.5668417257075
 20
49.226622182131
 30
0.0
 11
88.5668417257075
 21
80.726600545644
 31
0.0
  0
LINE
  5
   2FF
  8
0
  6
CONTINUOUS
 62
     1
 10
90.7268454736477
 20
49.226622182131
 30
0.0
 11
90.7268454736477
 21
80.726600545644
 31
0.0
  0
LINE
  5
   300
  8
0
  6
CONTINUOUS
 62
     2
 10
81.0068377631906
 20
8.27662010891175
 30
0.0
 11
81.0068377631906
 21
20.589839452623
 31
0.0
  0
LINE
  5
   301
  8
0
  6
CONTINUOUS
 62
     2
 10
82.0868487924345
 20
8.27662010891175
 30
0.0
 11
82.0868487924345
 21
29.7266209612582
 31
0.0
  0
LINE
  5
   302
  8
0
  6
CONTINUOUS
 62
     2
 10
83.1668415111308
 20
8.27662010891175
 30
0.0
 11
83.1668415111308
 21
29.7266209612582
 31
0.0
  0
LINE
  5
   303
  8
0
  6
CONTINUOUS
 62
     2
 10
84.2468342298271
 20
8.27662010891175
 30
0.0
 11
84.2468342298271
 21
29.7266209612582
 31
0.0
  0
LINE
  5
   304
  8
0
  6
CONTINUOUS
 62
     2
 10
85.326845259071
 20
8.27662010891175
 30
0.0
 11
85.326845259071
 21
29.7266209612582
 31
0.0
  0
LINE
  5
   305
  8
0
  6
CONTINUOUS
 62
     2
 10
86.4068379777673
 20
8.27662010891175
 30
0.0
 11
86.4068379777673
 21
29.7266209612582
 31
0.0
  0
LINE
  5
   306
  8
0
  6
CONTINUOUS
 62
     2
 10
87.4868490070112
 20
8.27662010891175
 30
0.0
 11
87.4868490070112
 21
29.7266209612582
 31
0.0
  0
LINE
  5
   307
  8
0
  6
CONTINUOUS
 62
     2
 10
88.5668417257075
 20
8.27662010891175
 30
0.0
 11
88.5668417257075
 21
29.7266209612582
 31
0.0
  0
LINE
  5
   308
  8
0
  6
CONTINUOUS
 62
     2
 10
89.6468344444038
 20
8.27662010891175
 30
0.0
 11
89.6468344444038
 21
29.7266209612582
 31
0.0
  0
LINE
  5
   309
  8
0
  6
CONTINUOUS
 62
     2
 10
90.7268454736477
 20
30.1766191363336
 30
0.0
 11
90.7268454736477
 21
40.8265995323651
 31
0.0
  0
LINE
  5
   30A
  8
0
  6
CONTINUOUS
 62
     1
 10
142.716825566888
 20
80.726600545644
 30
0.0
 11
142.716825566888
 21
105.17661525011
 31
0.0
  0
LINE
  5
   30B
  8
0
  6
CONTINUOUS
 62
     1
 10
141.636814537644
 20
80.726600545644
 30
0.0
 11
141.636814537644
 21
105.17661525011
 31
0.0
  0
LINE
  5
   30C
  8
0
  6
CONTINUOUS
 62
     1
 10
140.556821818947
 20
80.726600545644
 30
0.0
 11
140.556821818947
 21
105.17661525011
 31
0.0
  0
LINE
  5
   30D
  8
0
  6
CONTINUOUS
 62
     1
 10
139.476829100251
 20
80.726600545644
 30
0.0
 11
139.476829100251
 21
105.17661525011
 31
0.0
  0
LINE
  5
   30E
  8
0
  6
CONTINUOUS
 62
     1
 10
138.396818071007
 20
80.726600545644
 30
0.0
 11
138.396818071007
 21
105.17661525011
 31
0.0
  0
LINE
  5
   30F
  8
0
  6
CONTINUOUS
 62
     1
 10
137.316825352311
 20
80.726600545644
 30
0.0
 11
137.316825352311
 21
105.17661525011
 31
0.0
  0
LINE
  5
   310
  8
0
  6
CONTINUOUS
 62
     1
 10
136.236814323067
 20
80.726600545644
 30
0.0
 11
136.236814323067
 21
105.17661525011
 31
0.0
  0
LINE
  5
   311
  8
0
  6
CONTINUOUS
 62
     1
 10
135.156821604371
 20
80.726600545644
 30
0.0
 11
135.156821604371
 21
105.17661525011
 31
0.0
  0
LINE
  5
   312
  8
0
  6
CONTINUOUS
 62
     1
 10
134.076828885674
 20
89.1266003072254
 30
0.0
 11
134.076828885674
 21
105.17661525011
 31
0.0
  0
LINE
  5
   313
  8
0
  6
CONTINUOUS
 62
     1
 10
132.99681785643
 20
89.1266003072254
 30
0.0
 11
132.99681785643
 21
105.17661525011
 31
0.0
  0
LINE
  5
   314
  8
0
  6
CONTINUOUS
 62
     1
 10
142.716825566888
 20
49.2266150295733
 30
0.0
 11
142.716825566888
 21
80.7265933930864
 31
0.0
  0
LINE
  5
   315
  8
0
  6
CONTINUOUS
 62
     1
 10
141.636814537644
 20
49.2266150295733
 30
0.0
 11
141.636814537644
 21
80.7265933930864
 31
0.0
  0
LINE
  5
   316
  8
0
  6
CONTINUOUS
 62
     1
 10
140.556821818947
 20
49.2266150295733
 30
0.0
 11
140.556821818947
 21
80.7265933930864
 31
0.0
  0
LINE
  5
   317
  8
0
  6
CONTINUOUS
 62
     1
 10
139.476829100251
 20
49.2266150295733
 30
0.0
 11
139.476829100251
 21
80.7265933930864
 31
0.0
  0
LINE
  5
   318
  8
0
  6
CONTINUOUS
 62
     1
 10
138.396818071007
 20
49.2266150295733
 30
0.0
 11
138.396818071007
 21
80.7265933930864
 31
0.0
  0
LINE
  5
   319
  8
0
  6
CONTINUOUS
 62
     1
 10
137.316825352311
 20
49.2266150295733
 30
0.0
 11
137.316825352311
 21
80.7265933930864
 31
0.0
  0
LINE
  5
   31A
  8
0
  6
CONTINUOUS
 62
     1
 10
136.236814323067
 20
49.2266150295733
 30
0.0
 11
136.236814323067
 21
80.7265933930864
 31
0.0
  0
LINE
  5
   31B
  8
0
  6
CONTINUOUS
 62
     1
 10
135.156821604371
 20
49.2266150295733
 30
0.0
 11
135.156821604371
 21
80.7265933930864
 31
0.0
  0
LINE
  5
   31C
  8
0
  6
CONTINUOUS
 62
     1
 10
132.99681785643
 20
49.2266150295733
 30
0.0
 11
132.99681785643
 21
80.7265933930864
 31
0.0
  0
LINE
  5
   31D
  8
0
  6
CONTINUOUS
 62
     1
 10
142.716825566888
 20
42.326617616415
 30
0.0
 11
142.716825566888
 21
49.2266133129595
 31
0.0
  0
LINE
  5
   31E
  8
0
  6
CONTINUOUS
 62
     1
 10
141.636814537644
 20
42.326617616415
 30
0.0
 11
141.636814537644
 21
49.2266133129595
 31
0.0
  0
LINE
  5
   31F
  8
0
  6
CONTINUOUS
 62
     1
 10
140.556821818947
 20
42.326617616415
 30
0.0
 11
140.556821818947
 21
49.2266133129595
 31
0.0
  0
LINE
  5
   320
  8
0
  6
CONTINUOUS
 62
     1
 10
139.476829100251
 20
42.326617616415
 30
0.0
 11
139.476829100251
 21
49.2266133129595
 31
0.0
  0
LINE
  5
   321
  8
0
  6
CONTINUOUS
 62
     1
 10
138.396818071007
 20
42.326617616415
 30
0.0
 11
138.396818071007
 21
49.2266133129595
 31
0.0
  0
LINE
  5
   322
  8
0
  6
CONTINUOUS
 62
     1
 10
137.316825352311
 20
42.326617616415
 30
0.0
 11
137.316825352311
 21
49.2266133129595
 31
0.0
  0
LINE
  5
   323
  8
0
  6
CONTINUOUS
 62
     1
 10
136.236814323067
 20
42.326617616415
 30
0.0
 11
136.236814323067
 21
49.2266133129595
 31
0.0
  0
LINE
  5
   324
  8
0
  6
CONTINUOUS
 62
     1
 10
135.156821604371
 20
42.326617616415
 30
0.0
 11
135.156821604371
 21
49.2266133129595
 31
0.0
  0
LINE
  5
   325
  8
0
  6
CONTINUOUS
 62
     1
 10
132.99681785643
 20
42.326617616415
 30
0.0
 11
132.99681785643
 21
49.2266133129595
 31
0.0
  0
LINE
  5
   326
  8
0
  6
CONTINUOUS
 62
     1
 10
132.411828562226
 20
89.1266003072255
 30
0.0
 11
132.411822757898
 21
103.67661881073
 31
0.0
  0
LINE
  5
   327
  8
0
  6
CONTINUOUS
 62
     1
 10
91.311840661966
 20
89.1266003072254
 30
0.0
 11
91.3118348576388
 21
103.676616147935
 31
0.0
  0
LINE
  5
   328
  8
0
  6
CONTINUOUS
 62
     1
 10
132.411823326349
 20
103.676619768143
 30
0.0
 11
91.3118354260923
 21
103.676619768143
 31
0.0
  0
LINE
  5
   329
  8
0
  6
CONTINUOUS
 62
     1
 10
142.986814591288
 20
42.0266196072103
 30
0.0
 11
142.986814591288
 21
42.326617616415
 31
0.0
  0
LINE
  5
   32A
  8
0
  6
CONTINUOUS
 62
     1
 10
59.7368479043253
 20
42.0266196072103
 30
0.0
 11
59.7368479043253
 21
42.326617616415
 31
0.0
  0
LINE
  5
   32B
  8
0
  6
CONTINUOUS
 62
     1
 10
112.32691632441
 20
8.27662010891175
 30
0.0
 11
112.326902970568
 21
29.7266209612582
 31
0.0
  0
LINE
  5
   32C
  8
0
  6
CONTINUOUS
 62
     1
 10
113.406914907441
 20
8.27662010891175
 30
0.0
 11
113.406901805558
 21
29.7266209612582
 31
0.0
  0
LINE
  5
   32D
  8
0
  6
CONTINUOUS
 62
     1
 10
114.636916358981
 20
8.27662010891176
 30
0.0
 11
114.636903005139
 21
29.7266209612582
 31
0.0
  0
LINE
  5
   32E
  8
0
  6
CONTINUOUS
 62
     1
 10
115.716916230236
 20
8.27662010891176
 30
0.0
 11
115.716902876393
 21
29.7266209612582
 31
0.0
  0
LINE
  5
   32F
  8
0
  6
CONTINUOUS
 62
     1
 10
116.796901935611
 20
8.27662010891176
 30
0.0
 11
116.796889841564
 21
29.7266209612582
 31
0.0
  0
LINE
  5
   330
  8
0
  6
CONTINUOUS
 62
     1
 10
117.876903809581
 20
8.27662010891176
 30
0.0
 11
117.876891715534
 21
29.7266209612582
 31
0.0
  0
LINE
  5
   331
  8
0
  6
CONTINUOUS
 62
     1
 10
118.956921717489
 20
8.27662010891176
 30
0.0
 11
118.956905592094
 21
29.7266209612582
 31
0.0
  0
LINE
  5
   332
  8
0
  6
CONTINUOUS
 62
     1
 10
120.036902979884
 20
8.27662010891175
 30
0.0
 11
120.036890885838
 21
29.7266209612582
 31
0.0
  0
LINE
  5
   333
  8
0
  6
CONTINUOUS
 62
     1
 10
123.276737620533
 20
105.626644839885
 30
0.0
 11
123.276707806799
 21
115.583108447634
 31
0.0
  0
LINE
  5
   334
  8
0
  6
CONTINUOUS
 62
     1
 10
124.356789827345
 20
105.626638680592
 30
0.0
 11
124.356734995074
 21
130.0764781961
 31
0.0
  0
LINE
  5
   335
  8
0
  6
CONTINUOUS
 62
     1
 10
125.436791701312
 20
105.626641102651
 30
0.0
 11
125.436736869039
 21
130.076481430068
 31
0.0
  0
LINE
  5
   336
  8
0
  6
CONTINUOUS
 62
     1
 10
126.516793575279
 20
105.62664352471
 30
0.0
 11
126.516738743005
 21
130.076484664036
 31
0.0
  0
LINE
  5
   337
  8
0
  6
CONTINUOUS
 62
     1
 10
127.596758838729
 20
105.626651861239
 30
0.0
 11
127.596694816181
 21
130.076487897868
 31
0.0
  0
LINE
  5
   338
  8
0
  6
CONTINUOUS
 62
     1
 10
128.67678816794
 20
105.626648368807
 30
0.0
 11
128.676733335662
 21
130.076491131946
 31
0.0
  0
LINE
  5
   339
  8
0
  6
CONTINUOUS
 62
     1
 10
129.756790041908
 20
105.626650790866
 30
0.0
 11
129.756735209628
 21
130.076494365914
 31
0.0
  0
LINE
  5
   33A
  8
0
  6
CONTINUOUS
 62
     1
 10
130.836791915875
 20
105.626653212925
 30
0.0
 11
130.836737083593
 21
130.076497599883
 31
0.0
  0
LINE
  5
   33B
  8
0
  6
CONTINUOUS
 62
     1
 10
131.916784634569
 20
105.626655634964
 30
0.0
 11
131.916729802285
 21
130.076500833824
 31
0.0
  0
LINE
  5
   33C
  8
0
  6
CONTINUOUS
 62
     1
 10
143.361832304977
 20
105.626615267992
 30
0.0
 11
111.861831665039
 21
105.626615267992
 31
0.0
  0
LINE
  5
   33D
  8
0
  6
CONTINUOUS
 62
     1
 10
111.246743996396
 20
8.27662010891174
 30
0.0
 11
111.24675709828
 21
29.7266209612582
 31
0.0
  0
LINE
  5
   33E
  8
0
  6
CONTINUOUS
 62
     1
 10
110.166739258351
 20
8.27662010891174
 30
0.0
 11
110.166753368071
 21
29.7266209612582
 31
0.0
  0
LINE
  5
   33F
  8
0
  6
CONTINUOUS
 62
     1
 10
109.08674239346
 20
8.27662010891176
 30
0.0
 11
109.086755747302
 21
29.7266209612582
 31
0.0
  0
LINE
  5
   340
  8
0
  6
CONTINUOUS
 62
     1
 10
108.006742522206
 20
8.27662010891176
 30
0.0
 11
108.006755876048
 21
29.7266209612582
 31
0.0
  0
LINE
  5
   341
  8
0
  6
CONTINUOUS
 62
     1
 10
106.926756816893
 20
8.27662010891176
 30
0.0
 11
106.926768910903
 21
29.7266209612582
 31
0.0
  0
LINE
  5
   342
  8
0
  6
CONTINUOUS
 62
     1
 10
105.846754942923
 20
8.27662010891176
 30
0.0
 11
105.846767036933
 21
29.7266209612582
 31
0.0
  0
LINE
  5
   343
  8
0
  6
CONTINUOUS
 62
     1
 10
104.766737035034
 20
8.27662010891176
 30
0.0
 11
104.76675316038
 21
29.7266209612582
 31
0.0
  0
LINE
  5
   344
  8
0
  6
CONTINUOUS
 62
     1
 10
103.686755772619
 20
8.27662010891176
 30
0.0
 11
103.686767866629
 21
29.7266209612582
 31
0.0
  0
LINE
  5
   345
  8
0
  6
CONTINUOUS
 62
     1
 10
102.606806578039
 20
8.27662010891175
 30
0.0
 11
102.606806578039
 21
21.2528233124433
 31
0.0
  0
LINE
  5
   346
  8
0
  6
CONTINUOUS
 62
     1
 10
102.606808251349
 20
117.071517153352
 30
0.0
 11
102.606826693993
 21
130.076474332804
 31
0.0
  0
LINE
  5
   347
  8
0
  6
CONTINUOUS
 62
     1
 10
101.676809838868
 20
117.877339167743
 30
0.0
 11
101.676828290211
 21
130.076474332804
 31
0.0
  0
LINE
  5
   348
  8
0
  6
CONTINUOUS
 62
     1
 10
101.52681843698
 20
8.27662010891175
 30
0.0
 11
101.52681843698
 21
20.4359939212457
 31
0.0
  0
LINE
  5
   349
  8
0
  6
CONTINUOUS
 62
     1
 10
100.59681967407
 20
117.683971995411
 30
0.0
 11
100.596838123206
 21
130.076474332804
 31
0.0
  0
LINE
  5
   34A
  8
0
  6
CONTINUOUS
 62
     1
 10
100.44681656301
 20
8.27662010891175
 30
0.0
 11
100.44681656301
 21
20.783098515756
 31
0.0
  0
LINE
  5
   34B
  8
0
  6
CONTINUOUS
 62
     1
 10
99.3667459757209
 20
8.27662010891176
 30
0.0
 11
99.3667621010726
 21
29.7266209612582
 31
0.0
  0
LINE
  5
   34C
  8
0
  6
CONTINUOUS
 62
     1
 10
98.2867441017505
 20
8.27662010891176
 30
0.0
 11
98.2867602271022
 21
29.7266209612582
 31
0.0
  0
LINE
  5
   34D
  8
0
  6
CONTINUOUS
 62
     1
 10
97.2067422277801
 20
8.27662010891176
 30
0.0
 11
97.2067583531318
 21
29.7266209612582
 31
0.0
  0
LINE
  5
   34E
  8
0
  6
CONTINUOUS
 62
     1
 10
96.1267403538097
 20
8.27662010891176
 30
0.0
 11
96.1267564791614
 21
29.7266209612582
 31
0.0
  0
LINE
  5
   34F
  8
0
  6
CONTINUOUS
 62
     1
 10
95.0467476351131
 20
8.27662010891176
 30
0.0
 11
95.0467637604648
 21
29.7266209612582
 31
0.0
  0
LINE
  5
   350
  8
0
  6
CONTINUOUS
 62
     1
 10
93.9667457611427
 20
8.27662010891176
 30
0.0
 11
93.9667618864943
 21
29.7266209612582
 31
0.0
  0
LINE
  5
   351
  8
0
  6
CONTINUOUS
 62
     1
 10
92.886743887166
 20
8.27662010891176
 30
0.0
 11
92.8867600125214
 21
29.7266209612582
 31
0.0
  0
LINE
  5
   352
  8
0
  6
CONTINUOUS
 62
     1
 10
91.8067420131956
 20
8.27662010891176
 30
0.0
 11
91.8067581385509
 21
29.7266209612582
 31
0.0
  0
LINE
  5
   353
  8
0
  6
CONTINUOUS
 62
     1
 10
90.7268180078263
 20
105.626633578539
 30
0.0
 11
90.7268180078263
 21
130.076474332804
 31
0.0
  0
LINE
  5
   354
  8
0
  6
CONTINUOUS
 62
     1
 10
89.6468206581441
 20
105.626568686589
 30
0.0
 11
89.6468298484332
 21
130.076474332804
 31
0.0
  0
LINE
  5
   355
  8
0
  6
CONTINUOUS
 62
     1
 10
88.5668187308285
 20
105.626577848754
 30
0.0
 11
88.5668371113997
 21
130.076474332804
 31
0.0
  0
LINE
  5
   356
  8
0
  6
CONTINUOUS
 62
     1
 10
87.4868215411898
 20
105.626633578539
 30
0.0
 11
87.4868215411898
 21
130.076474332804
 31
0.0
  0
LINE
  5
   357
  8
0
  6
CONTINUOUS
 62
     1
 10
86.4068241915078
 20
105.626569904447
 30
0.0
 11
86.4068333817964
 21
130.076474332804
 31
0.0
  0
LINE
  5
   358
  8
0
  6
CONTINUOUS
 62
     1
 10
85.3268177932496
 20
105.626633578539
 30
0.0
 11
85.3268177932496
 21
130.076474332804
 31
0.0
  0
LINE
  5
   359
  8
0
  6
CONTINUOUS
 62
     1
 10
84.2468204435678
 20
105.626570716354
 30
0.0
 11
84.2468296338806
 21
130.076539472638
 31
0.0
  0
LINE
  5
   35A
  8
0
  6
CONTINUOUS
 62
     1
 10
83.1668277248715
 20
105.626571122304
 30
0.0
 11
83.1668369151872
 21
130.076547574994
 31
0.0
  0
LINE
  5
   35B
  8
0
  6
CONTINUOUS
 62
     1
 10
82.0868213266131
 20
105.626633578539
 30
0.0
 11
82.0868213266131
 21
130.076528551547
 31
0.0
  0
LINE
  5
   35C
  8
0
  6
CONTINUOUS
 62
     1
 10
81.0068239769418
 20
105.626581089489
 30
0.0
 11
81.0068276468296
 21
115.389971870374
 31
0.0
  0
LINE
  5
   35D
  8
0
  6
CONTINUOUS
 62
     1
 10
111.861829814364
 20
105.626615268009
 30
0.0
 11
59.3618301906311
 21
105.626653543882
 31
0.0
  0
LINE
  5
   35E
  8
0
  6
CONTINUOUS
 62
     3
 10
143.361832916737
 20
107.126615327596
 30
0.0
 11
143.361832916737
 21
129.626547557113
 31
0.0
  0
LINE
  5
   35F
  8
0
  6
CONTINUOUS
 62
     3
 10
143.136816461755
 20
130.016207247989
 30
0.0
 11
142.911466386593
 21
130.076579352623
 31
0.0
  0
LINE
  5
   360
  8
0
  6
CONTINUOUS
 62
     3
 10
143.301499336839
 20
129.851508125208
 30
0.0
 11
143.136791385284
 21
130.016229808454
 31
0.0
  0
LINE
  5
   361
  8
0
  6
CONTINUOUS
 62
     3
 10
143.361845650985
 20
129.626493163235
 30
0.0
 11
143.301553600673
 21
129.851493170526
 31
0.0
  0
LINE
  5
   362
  8
0
  6
CONTINUOUS
 62
     3
 10
59.3618295788765
 20
107.126615327596
 30
0.0
 11
59.3618295788765
 21
129.626547557113
 31
0.0
  0
LINE
  5
   363
  8
0
  6
CONTINUOUS
 62
     3
 10
59.5868490565097
 20
130.016208057769
 30
0.0
 11
59.8118490593964
 21
130.076486376766
 31
0.0
  0
LINE
  5
   364
  8
0
  6
CONTINUOUS
 62
     3
 10
59.4221631587738
 20
129.851508125208
 30
0.0
 11
59.5868711103288
 21
130.016229808454
 31
0.0
  0
LINE
  5
   365
  8
0
  6
CONTINUOUS
 62
     3
 10
59.3618168446281
 20
129.626493163235
 30
0.0
 11
59.4221088949403
 21
129.851493170526
 31
0.0
  0
LINE
  5
   366
  8
0
  6
CONTINUOUS
 62
     3
 10
143.361821694144
 20
30.1766191363336
 30
0.0
 11
143.361832515927
 21
107.126610897627
 31
0.0
  0
LINE
  5
   367
  8
0
  6
CONTINUOUS
 62
     3
 10
59.3618408014691
 20
30.1766191363336
 30
0.0
 11
59.3618299796862
 21
107.126610897627
 31
0.0
  0
LINE
  5
   368
  8
0
  6
CONTINUOUS
 62
   130
 10
132.861852031789
 20
49.8266127645967
 30
0.0
 11
90.8618009195952
 21
49.8266127645967
 31
0.0
  0
LINE
  5
   369
  8
0
  6
CONTINUOUS
 62
     1
 10
132.48689657152
 20
77.1266004025929
 30
0.0
 11
91.236748448011
 21
77.1266004025929
 31
0.0
  0
LINE
  5
   36A
  8
0
  6
CONTINUOUS
 62
   130
 10
132.48689657152
 20
80.726600545644
 30
0.0
 11
91.236748448011
 21
80.726600545644
 31
0.0
  0
LINE
  5
   36B
  8
0
  6
CONTINUOUS
 62
   130
 10
132.861832499504
 20
77.7266004264347
 30
0.0
 11
132.861832499504
 21
80.726600545644
 31
0.0
  0
LINE
  5
   36C
  8
0
  6
CONTINUOUS
 62
   130
 10
90.861830830574
 20
77.7266004264347
 30
0.0
 11
90.861830830574
 21
80.726600545644
 31
0.0
  0
LINE
  5
   36D
  8
0
  6
CONTINUOUS
 62
   130
 10
118.161831915379
 20
74.9700115717806
 30
0.0
 11
105.5618314147
 21
74.9700115717806
 31
0.0
  0
LINE
  5
   36E
  8
0
  6
CONTINUOUS
 62
   130
 10
118.161831915379
 20
75.1766003251069
 30
0.0
 11
105.5618314147
 21
75.1766003251069
 31
0.0
  0
LINE
  5
   36F
  8
0
  6
CONTINUOUS
 62
   130
 10
105.561838318536
 20
70.6016258831393
 30
0.0
 11
105.561833740903
 21
75.1765985991121
 31
0.0
  0
LINE
  5
   370
  8
0
  6
CONTINUOUS
 62
   130
 10
105.561835992336
 20
57.9287613574277
 30
0.0
 11
105.561835992336
 21
70.3016275972132
 31
0.0
  0
LINE
  5
   371
  8
0
  6
CONTINUOUS
 62
   130
 10
105.561835992336
 20
54.1766132235525
 30
0.0
 11
105.561835992336
 21
56.951617911458
 31
0.0
  0
LINE
  5
   372
  8
0
  6
CONTINUOUS
 62
   130
 10
105.561835229299
 20
52.3766062855626
 30
0.0
 11
105.561839806935
 21
54.1766109347251
 31
0.0
  0
LINE
  5
   373
  8
0
  6
CONTINUOUS
 62
   130
 10
118.161831915379
 20
52.3766085743901
 30
0.0
 11
118.161831915379
 21
54.1766132235525
 31
0.0
  0
LINE
  5
   374
  8
0
  6
CONTINUOUS
 62
   130
 10
118.161831915379
 20
54.1766132235525
 30
0.0
 11
118.161831915379
 21
56.951617911458
 31
0.0
  0
LINE
  5
   375
  8
0
  6
CONTINUOUS
 62
   130
 10
118.161831915379
 20
57.9287613574277
 30
0.0
 11
118.161831915379
 21
70.3016275972132
 31
0.0
  0
LINE
  5
   376
  8
0
  6
CONTINUOUS
 62
   130
 10
118.161831915379
 20
70.6016276091341
 30
0.0
 11
118.161831915379
 21
75.1766003251069
 31
0.0
  0
LINE
  5
   377
  8
0
  6
CONTINUOUS
 62
     1
 10
91.236748448011
 20
77.1266004025929
 30
0.0
 11
90.9715934081778
 21
77.1266004025929
 31
0.0
  0
LINE
  5
   378
  8
0
  6
CONTINUOUS
 62
   130
 10
91.236748448011
 20
49.8266127645967
 30
0.0
 11
91.1618399977688
 21
49.8266127645967
 31
0.0
  0
LINE
  5
   379
  8
0
  6
CONTINUOUS
 62
   130
 10
91.2367524607149
 20
80.7265985980063
 30
0.0
 11
90.9715974209589
 21
80.7266077532791
 31
0.0
  0
LINE
  5
   37A
  8
0
  6
CONTINUOUS
 62
   130
 10
90.8618009195952
 20
49.8266127645967
 30
0.0
 11
90.8618241128671
 21
51.2516253116956
 31
0.0
  0
LINE
  5
   37B
  8
0
  6
CONTINUOUS
 62
   130
 10
90.8618216753002
 20
51.5516268521551
 30
0.0
 11
90.8618216753002
 21
56.9516270667318
 31
0.0
  0
LINE
  5
   37C
  8
0
  6
CONTINUOUS
 62
   130
 10
90.8618253584604
 20
57.2516235007488
 30
0.0
 11
90.8618345137337
 21
70.3016148640354
 31
0.0
  0
LINE
  5
   37D
  8
0
  6
CONTINUOUS
 62
   130
 10
90.8618340094669
 20
70.6016148935558
 30
0.0
 11
90.8618248541937
 21
76.0016151081325
 31
0.0
  0
LINE
  5
   37E
  8
0
  6
CONTINUOUS
 62
     1
 10
90.9715933902964
 20
77.1266004025929
 30
0.0
 11
90.8617942094788
 21
77.1266004025929
 31
0.0
  0
LINE
  5
   37F
  8
0
  6
CONTINUOUS
 62
   130
 10
90.8618226275476
 20
76.3016167590467
 30
0.0
 11
90.8617951617277
 21
77.7265985051235
 31
0.0
  0
LINE
  5
   380
  8
0
  6
CONTINUOUS
 62
   130
 10
90.861798270879
 20
80.7265983011311
 30
0.0
 11
90.9715974516859
 21
80.7266074564041
 31
0.0
  0
LINE
  5
   381
  8
0
  6
CONTINUOUS
 62
   130
 10
132.486892642466
 20
80.726598548152
 30
0.0
 11
132.752065992878
 21
80.7266077034243
 31
0.0
  0
LINE
  5
   382
  8
0
  6
CONTINUOUS
 62
     1
 10
132.486895511539
 20
77.1265984034119
 30
0.0
 11
132.75206886192
 21
77.1266075586841
 31
0.0
  0
LINE
  5
   383
  8
0
  6
CONTINUOUS
 62
   130
 10
132.561823332309
 20
49.8266127645967
 30
0.0
 11
132.48689657152
 21
49.8266127645967
 31
0.0
  0
LINE
  5
   384
  8
0
  6
CONTINUOUS
 62
   130
 10
132.861852031789
 20
49.8266127645967
 30
0.0
 11
132.861840435154
 21
51.2516192098437
 31
0.0
  0
LINE
  5
   385
  8
0
  6
CONTINUOUS
 62
   130
 10
132.861840510388
 20
51.5516212573136
 30
0.0
 11
132.861831355117
 21
56.9516168942534
 31
0.0
  0
LINE
  5
   386
  8
0
  6
CONTINUOUS
 62
   130
 10
132.861832499504
 20
57.2516179233789
 30
0.0
 11
132.861832499504
 21
70.3016275972132
 31
0.0
  0
LINE
  5
   387
  8
0
  6
CONTINUOUS
 62
   130
 10
132.861832499504
 20
70.6016276091341
 30
0.0
 11
132.861832499504
 21
76.0016278237108
 31
0.0
  0
LINE
  5
   388
  8
0
  6
CONTINUOUS
 62
   130
 10
132.861831551022
 20
76.3016259120523
 30
0.0
 11
132.861859016831
 21
77.7265985028553
 31
0.0
  0
LINE
  5
   389
  8
0
  6
CONTINUOUS
 62
   130
 10
132.861857751991
 20
77.7265980263542
 30
0.0
 11
132.752067708578
 21
77.7266071816274
 31
0.0
  0
LINE
  5
   38A
  8
0
  6
CONTINUOUS
 62
   130
 10
132.861856148764
 20
80.7265981561277
 30
0.0
 11
132.752066105351
 21
80.726607311401
 31
0.0
  0
LINE
  5
   38B
  8
0
  6
CONTINUOUS
 62
   130
 10
118.161827337742
 20
56.951617911458
 30
0.0
 11
118.161827337742
 21
57.2516179233789
 31
0.0
  0
LINE
  5
   38C
  8
0
  6
CONTINUOUS
 62
   130
 10
105.5618314147
 20
56.951617911458
 30
0.0
 11
105.5618314147
 21
57.2516179233789
 31
0.0
  0
LINE
  5
   38D
  8
0
  6
CONTINUOUS
 62
   130
 10
118.161827337742
 20
70.3016275972132
 30
0.0
 11
118.161827337742
 21
70.6016276091341
 31
0.0
  0
LINE
  5
   38E
  8
0
  6
CONTINUOUS
 62
   130
 10
105.561835992336
 20
70.3016275972132
 30
0.0
 11
105.561835992336
 21
70.6016276091341
 31
0.0
  0
LINE
  5
   38F
  8
0
  6
CONTINUOUS
 62
   210
 10
118.161831915379
 20
55.2470316746548
 30
0.0
 11
105.561835992336
 21
55.2470316746548
 31
0.0
  0
LINE
  5
   390
  8
0
  6
CONTINUOUS
 62
   210
 10
118.161831915379
 20
57.3287613335858
 30
0.0
 11
105.561835992336
 21
57.3287613335858
 31
0.0
  0
LINE
  5
   391
  8
0
  6
CONTINUOUS
 62
   210
 10
118.161831915379
 20
52.572738038864
 30
0.0
 11
105.561835992336
 21
52.572738038864
 31
0.0
  0
LINE
  5
   392
  8
0
  6
CONTINUOUS
 62
   210
 10
118.161831915379
 20
50.2435490312219
 30
0.0
 11
105.561835992336
 21
50.2435490312219
 31
0.0
  0
LINE
  5
   393
  8
0
  6
CONTINUOUS
 62
   210
 10
105.561835992336
 20
50.2435490312219
 30
0.0
 11
105.561835992336
 21
57.3287613335858
 31
0.0
  0
LINE
  5
   394
  8
0
  6
CONTINUOUS
 62
   210
 10
118.161831915379
 20
50.2435490312219
 30
0.0
 11
118.161831915379
 21
57.3287613335858
 31
0.0
  0
LINE
  5
   395
  8
0
  6
CONTINUOUS
 62
     1
 10
105.561835992336
 20
50.6516229353524
 30
0.0
 11
91.1618497915908
 21
50.6516245275736
 31
0.0
  0
CIRCLE
  5
   396
  8
0
  6
CONTINUOUS
 62
     1
 10
101.361860142731
 20
116.57661411319
 30
0.0
 40
1.35059393238156
  0
LINE
  5
   397
  8
0
  6
DASHDOT
 62
     7
 10
101.361860142731
 20
113.840217713266
 30
0.0
 11
101.361860142731
 21
119.32415488546
 31
0.0
  0
LINE
  5
   398
  8
0
  6
DASHDOT
 62
     7
 10
103.605444794277
 20
116.57661411319
 30
0.0
 11
99.4608190106713
 21
116.57661411319
 31
0.0
  0
LINE
  5
   399
  8
0
  6
CONTINUOUS
 62
     1
 10
143.36181861426
 20
8.27662010891175
 30
0.0
 11
59.361843881353
 21
8.27662010891175
 31
0.0
  0
LINE
  5
   39A
  8
0
  6
CONTINUOUS
 62
     1
 10
143.361821630859
 20
29.7266209612582
 30
0.0
 11
59.3618408647542
 21
29.7266209612582
 31
0.0
  0
LINE
  5
   39B
  8
0
  6
CONTINUOUS
 62
     1
 10
143.061821661128
 20
30.0266209731791
 30
0.0
 11
59.6618408344849
 21
30.0266209731791
 31
0.0
  0
LINE
  5
   39C
  8
0
  6
CONTINUOUS
 62
     1
 10
143.361821694144
 20
30.1766191363336
 30
0.0
 11
59.3618408014691
 21
30.1766191363336
 31
0.0
  0
LINE
  5
   39D
  8
0
  6
CONTINUOUS
 62
     1
 10
143.361823339562
 20
41.8766196012498
 30
0.0
 11
134.66183257103
 21
41.8766196012498
 31
0.0
  0
LINE
  5
   39E
  8
0
  6
CONTINUOUS
 62
     1
 10
143.36181861426
 20
8.27662010891174
 30
0.0
 11
143.361821630859
 21
29.7266209612582
 31
0.0
  0
LINE
  5
   39F
  8
0
  6
CONTINUOUS
 62
     1
 10
59.361843881353
 20
8.27662010891174
 30
0.0
 11
59.3618408647542
 21
29.7266209612582
 31
0.0
  0
LINE
  5
   3A0
  8
0
  6
CONTINUOUS
 62
     1
 10
59.6618408766751
 20
29.7266209612582
 30
0.0
 11
59.6618408344849
 21
30.0266209731791
 31
0.0
  0
LINE
  5
   3A1
  8
0
  6
CONTINUOUS
 62
     1
 10
143.061821618938
 20
29.7266209612582
 30
0.0
 11
143.061821661128
 21
30.0266209731791
 31
0.0
  0
LINE
  5
   3A2
  8
0
  6
CONTINUOUS
 62
     1
 10
90.861830830574
 20
30.1766191363336
 30
0.0
 11
90.861830830574
 21
40.8265995323651
 31
0.0
  0
LINE
  5
   3A3
  8
0
  6
CONTINUOUS
 62
     1
 10
132.861832499504
 20
30.1766191363336
 30
0.0
 11
132.861832499504
 21
40.8265995323651
 31
0.0
  0
LINE
  5
   3A4
  8
0
  6
CONTINUOUS
 62
     2
 10
81.0068377631906
 20
30.1766191363336
 30
0.0
 11
81.0068377631906
 21
41.8766196012498
 31
0.0
  0
LINE
  5
   3A5
  8
0
  6
CONTINUOUS
 62
     2
 10
82.0868487924345
 20
30.1766191363336
 30
0.0
 11
82.0868487924345
 21
41.8766196012498
 31
0.0
  0
LINE
  5
   3A6
  8
0
  6
CONTINUOUS
 62
     2
 10
83.1668415111308
 20
30.1766191363336
 30
0.0
 11
83.1668415111308
 21
41.8766196012498
 31
0.0
  0
LINE
  5
   3A7
  8
0
  6
CONTINUOUS
 62
     2
 10
84.2468342298271
 20
30.1766191363336
 30
0.0
 11
84.2468342298271
 21
41.8766196012498
 31
0.0
  0
LINE
  5
   3A8
  8
0
  6
CONTINUOUS
 62
     2
 10
85.326845259071
 20
30.1766191363336
 30
0.0
 11
85.326845259071
 21
41.8766196012498
 31
0.0
  0
LINE
  5
   3A9
  8
0
  6
CONTINUOUS
 62
     2
 10
86.4068379777673
 20
30.1766191363336
 30
0.0
 11
86.4068379777673
 21
41.8766196012498
 31
0.0
  0
LINE
  5
   3AA
  8
0
  6
CONTINUOUS
 62
     2
 10
87.4868490070112
 20
30.1766191363336
 30
0.0
 11
87.4868490070112
 21
41.8766196012498
 31
0.0
  0
LINE
  5
   3AB
  8
0
  6
CONTINUOUS
 62
     2
 10
88.5668417257075
 20
30.1766191363336
 30
0.0
 11
88.5668417257075
 21
41.8766196012498
 31
0.0
  0
LINE
  5
   3AC
  8
0
  6
CONTINUOUS
 62
     2
 10
89.6468344444038
 20
30.1766191363336
 30
0.0
 11
89.6468344444038
 21
40.8265995323651
 31
0.0
  0
LINE
  5
   3AD
  8
0
  6
CONTINUOUS
 62
     1
 10
90.7268454736477
 20
42.326617616415
 30
0.0
 11
90.7268454736477
 21
49.2266133129595
 31
0.0
  0
LINE
  5
   3AE
  8
0
  6
CONTINUOUS
 62
     1
 10
81.0068377631906
 20
42.326617616415
 30
0.0
 11
81.0068377631906
 21
49.2266133129595
 31
0.0
  0
LINE
  5
   3AF
  8
0
  6
CONTINUOUS
 62
     1
 10
82.0868487924345
 20
42.326617616415
 30
0.0
 11
82.0868487924345
 21
49.2266133129595
 31
0.0
  0
LINE
  5
   3B0
  8
0
  6
CONTINUOUS
 62
     1
 10
83.1668415111308
 20
42.326617616415
 30
0.0
 11
83.1668415111308
 21
49.2266133129595
 31
0.0
  0
LINE
  5
   3B1
  8
0
  6
CONTINUOUS
 62
     1
 10
84.2468342298271
 20
42.326617616415
 30
0.0
 11
84.2468342298271
 21
49.2266133129595
 31
0.0
  0
LINE
  5
   3B2
  8
0
  6
CONTINUOUS
 62
     1
 10
85.326845259071
 20
42.326617616415
 30
0.0
 11
85.326845259071
 21
49.2266133129595
 31
0.0
  0
LINE
  5
   3B3
  8
0
  6
CONTINUOUS
 62
     1
 10
86.4068379777673
 20
42.326617616415
 30
0.0
 11
86.4068379777673
 21
49.2266133129595
 31
0.0
  0
LINE
  5
   3B4
  8
0
  6
CONTINUOUS
 62
     1
 10
87.4868490070112
 20
42.326617616415
 30
0.0
 11
87.4868490070112
 21
49.2266133129595
 31
0.0
  0
LINE
  5
   3B5
  8
0
  6
CONTINUOUS
 62
     1
 10
88.5668417257075
 20
42.326617616415
 30
0.0
 11
88.5668417257075
 21
49.2266133129595
 31
0.0
  0
LINE
  5
   3B6
  8
0
  6
CONTINUOUS
 62
     2
 10
90.7268344873191
 20
8.27662010891175
 30
0.0
 11
90.7268344873191
 21
29.7266209612582
 31
0.0
  0
LINE
  5
   3B7
  8
0
  6
CONTINUOUS
 62
     1
 10
142.716825566888
 20
8.27662010891175
 30
0.0
 11
142.716825566888
 21
29.7266209612582
 31
0.0
  0
LINE
  5
   3B8
  8
0
  6
CONTINUOUS
 62
     1
 10
141.636814537644
 20
8.27662010891175
 30
0.0
 11
141.636814537644
 21
29.7266209612582
 31
0.0
  0
LINE
  5
   3B9
  8
0
  6
CONTINUOUS
 62
     1
 10
140.556821818947
 20
8.27662010891175
 30
0.0
 11
140.556821818947
 21
29.7266209612582
 31
0.0
  0
LINE
  5
   3BA
  8
0
  6
CONTINUOUS
 62
     1
 10
139.476829100251
 20
8.27662010891175
 30
0.0
 11
139.476829100251
 21
29.7266209612582
 31
0.0
  0
LINE
  5
   3BB
  8
0
  6
CONTINUOUS
 62
     1
 10
138.396818071007
 20
8.27662010891175
 30
0.0
 11
138.396818071007
 21
29.7266209612582
 31
0.0
  0
LINE
  5
   3BC
  8
0
  6
CONTINUOUS
 62
     1
 10
137.316825352311
 20
8.27662010891175
 30
0.0
 11
137.316825352311
 21
29.7266209612582
 31
0.0
  0
LINE
  5
   3BD
  8
0
  6
CONTINUOUS
 62
     1
 10
136.236814323067
 20
8.27662010891175
 30
0.0
 11
136.236814323067
 21
29.7266209612582
 31
0.0
  0
LINE
  5
   3BE
  8
0
  6
CONTINUOUS
 62
     1
 10
135.156821604371
 20
8.27662010891175
 30
0.0
 11
135.156821604371
 21
29.7266209612582
 31
0.0
  0
LINE
  5
   3BF
  8
0
  6
CONTINUOUS
 62
     1
 10
134.076828885674
 20
8.27662010891175
 30
0.0
 11
134.076828885674
 21
29.7266209612582
 31
0.0
  0
LINE
  5
   3C0
  8
0
  6
CONTINUOUS
 62
     1
 10
132.99681785643
 20
8.27662010891175
 30
0.0
 11
132.99681785643
 21
29.7266209612582
 31
0.0
  0
LINE
  5
   3C1
  8
0
  6
CONTINUOUS
 62
     1
 10
142.716716420265
 20
105.62670305115
 30
0.0
 11
142.716643207449
 21
130.076533173192
 31
0.0
  0
LINE
  5
   3C2
  8
0
  6
CONTINUOUS
 62
     1
 10
141.636705391026
 20
105.626699817154
 30
0.0
 11
141.63663217821
 21
130.076529939197
 31
0.0
  0
LINE
  5
   3C3
  8
0
  6
CONTINUOUS
 62
     1
 10
140.556712672334
 20
105.626696583213
 30
0.0
 11
140.556639459518
 21
130.076526705256
 31
0.0
  0
LINE
  5
   3C4
  8
0
  6
CONTINUOUS
 62
     1
 10
139.476719953643
 20
105.626693349273
 30
0.0
 11
139.476646740827
 21
130.076523471315
 31
0.0
  0
LINE
  5
   3C5
  8
0
  6
CONTINUOUS
 62
     1
 10
138.396708924404
 20
105.626690115277
 30
0.0
 11
138.396635711588
 21
130.076520237319
 31
0.0
  0
LINE
  5
   3C6
  8
0
  6
CONTINUOUS
 62
     1
 10
137.316716205712
 20
105.626686881336
 30
0.0
 11
137.316642992896
 21
130.076517003378
 31
0.0
  0
LINE
  5
   3C7
  8
0
  6
CONTINUOUS
 62
     1
 10
136.236705176473
 20
105.62668364734
 30
0.0
 11
136.236631963657
 21
130.076513769382
 31
0.0
  0
LINE
  5
   3C8
  8
0
  6
CONTINUOUS
 62
     1
 10
135.156712457782
 20
105.626680413399
 30
0.0
 11
135.156639244966
 21
130.076510535441
 31
0.0
  0
LINE
  5
   3C9
  8
0
  6
CONTINUOUS
 62
     1
 10
134.07671973909
 20
105.626677179458
 30
0.0
 11
134.076646526274
 21
130.0765073015
 31
0.0
  0
LINE
  5
   3CA
  8
0
  6
CONTINUOUS
 62
     1
 10
132.99671969618
 20
105.626673945496
 30
0.0
 11
132.996646483364
 21
130.076504067537
 31
0.0
  0
CIRCLE
  5
   3CB
  8
0
  6
CONTINUOUS
 62
     1
 10
101.361860142731
 20
21.7764761969005
 30
0.0
 40
1.35059393238156
  0
LINE
  5
   3CC
  8
0
  6
DASHDOT
 62
     1
 10
101.361860142731
 20
17.4258821453096
 30
0.0
 11
101.361860142731
 21
29.7266209612582
 31
0.0
  0
LINE
  5
   3CD
  8
0
  6
DASHDOT
 62
     1
 10
105.712454194322
 20
21.7764761969005
 30
0.0
 11
97.0112660911405
 21
21.7764761969005
 31
0.0
  0
LINE
  5
   3CE
  8
0
  6
CONTINUOUS
 62
     1
 10
112.326855718515
 20
105.626615267992
 30
0.0
 11
112.32684049709
 21
130.076474332804
 31
0.0
  0
LINE
  5
   3CF
  8
0
  6
CONTINUOUS
 62
     1
 10
113.406855445053
 20
105.626615267992
 30
0.0
 11
113.406840510825
 21
130.076474332804
 31
0.0
  0
LINE
  5
   3D0
  8
0
  6
CONTINUOUS
 62
     1
 10
114.636855753086
 20
105.626615267992
 30
0.0
 11
114.636840531661
 21
130.076474332804
 31
0.0
  0
LINE
  5
   3D1
  8
0
  6
CONTINUOUS
 62
     1
 10
115.71685562434
 20
105.626615267992
 30
0.0
 11
115.716840402915
 21
130.076474332804
 31
0.0
  0
LINE
  5
   3D2
  8
0
  6
CONTINUOUS
 62
     1
 10
116.796847047251
 20
105.626615267992
 30
0.0
 11
116.79683326181
 21
130.076474332804
 31
0.0
  0
LINE
  5
   3D3
  8
0
  6
CONTINUOUS
 62
     1
 10
117.876848921221
 20
105.626615267992
 30
0.0
 11
117.87683513578
 21
130.076474332804
 31
0.0
  0
LINE
  5
   3D4
  8
0
  6
CONTINUOUS
 62
     1
 10
118.956848533013
 20
105.626615267992
 30
0.0
 11
118.956830152426
 21
130.076474332804
 31
0.0
  0
LINE
  5
   3D5
  8
0
  6
CONTINUOUS
 62
     1
 10
120.036848091525
 20
105.626615267992
 30
0.0
 11
120.036834306084
 21
130.076474332804
 31
0.0
  0
LINE
  5
   3D6
  8
0
  6
CONTINUOUS
 62
     1
 10
111.246803458785
 20
105.626615267992
 30
0.0
 11
111.246818393012
 21
130.076474332804
 31
0.0
  0
LINE
  5
   3D7
  8
0
  6
CONTINUOUS
 62
     1
 10
110.166803294768
 20
105.626615267992
 30
0.0
 11
110.166819377783
 21
130.076474332804
 31
0.0
  0
LINE
  5
   3D8
  8
0
  6
CONTINUOUS
 62
     1
 10
109.086802999356
 20
105.626615267992
 30
0.0
 11
109.08681822078
 21
130.076474332804
 31
0.0
  0
LINE
  5
   3D9
  8
0
  6
CONTINUOUS
 62
     1
 10
108.006803128101
 20
105.626615267992
 30
0.0
 11
108.006818349526
 21
130.076474332804
 31
0.0
  0
LINE
  5
   3DA
  8
0
  6
CONTINUOUS
 62
     1
 10
106.926811705086
 20
105.626615267992
 30
0.0
 11
106.926825490486
 21
130.076474332804
 31
0.0
  0
LINE
  5
   3DB
  8
0
  6
CONTINUOUS
 62
     1
 10
105.846809831116
 20
105.626615267992
 30
0.0
 11
105.846823616516
 21
130.076474332804
 31
0.0
  0
LINE
  5
   3DC
  8
0
  6
CONTINUOUS
 62
     1
 10
104.766810219293
 20
105.626615267992
 30
0.0
 11
104.766828599827
 21
130.076474332804
 31
0.0
  0
LINE
  5
   3DD
  8
0
  6
CONTINUOUS
 62
     1
 10
103.686810660813
 20
105.626615267992
 30
0.0
 11
103.686824446212
 21
130.076474332804
 31
0.0
  0
LINE
  5
   3DE
  8
0
  6
CONTINUOUS
 62
     1
 10
102.606806578039
 20
105.626615267992
 30
0.0
 11
102.606806578039
 21
116.081677023771
 31
0.0
  0
LINE
  5
   3DF
  8
0
  6
CONTINUOUS
 62
     1
 10
101.52681843698
 20
105.626615267992
 30
0.0
 11
101.52681843698
 21
115.25215428573
 31
0.0
  0
LINE
  5
   3E0
  8
0
  6
CONTINUOUS
 62
     1
 10
100.44681656301
 20
105.626615267992
 30
0.0
 11
100.44681656301
 21
115.605135867139
 31
0.0
  0
LINE
  5
   3E1
  8
0
  6
CONTINUOUS
 62
     1
 10
99.3668191600027
 20
105.626615267992
 30
0.0
 11
99.3668375405417
 21
130.076474332804
 31
0.0
  0
LINE
  5
   3E2
  8
0
  6
CONTINUOUS
 62
     1
 10
98.2868172860323
 20
105.626615267992
 30
0.0
 11
98.2868356665713
 21
130.076474332804
 31
0.0
  0
LINE
  5
   3E3
  8
0
  6
CONTINUOUS
 62
     1
 10
97.2068154120619
 20
105.626615267992
 30
0.0
 11
97.2068337926009
 21
130.076474332804
 31
0.0
  0
LINE
  5
   3E4
  8
0
  6
CONTINUOUS
 62
     1
 10
96.1268135380915
 20
105.626615267992
 30
0.0
 11
96.1268319186305
 21
130.076474332804
 31
0.0
  0
LINE
  5
   3E5
  8
0
  6
CONTINUOUS
 62
     1
 10
95.0468208193949
 20
105.626615267992
 30
0.0
 11
95.0468391999338
 21
130.076474332804
 31
0.0
  0
LINE
  5
   3E6
  8
0
  6
CONTINUOUS
 62
     1
 10
93.9668189454245
 20
105.626615267992
 30
0.0
 11
93.9668373259634
 21
130.076474332804
 31
0.0
  0
LINE
  5
   3E7
  8
0
  6
CONTINUOUS
 62
     1
 10
92.8868170714644
 20
105.626615267992
 30
0.0
 11
92.8868354520075
 21
130.076474332804
 31
0.0
  0
LINE
  5
   3E8
  8
0
  6
CONTINUOUS
 62
     1
 10
91.806815197494
 20
105.626615267992
 30
0.0
 11
91.8068335780371
 21
130.076474332804
 31
0.0
  0
LINE
  5
   3E9
  8
0
  6
CONTINUOUS
 62
     1
 10
121.116852174402
 20
8.27662010891175
 30
0.0
 11
121.116852174402
 21
29.7266209612582
 31
0.0
  0
LINE
  5
   3EA
  8
0
  6
CONTINUOUS
 62
     1
 10
102.606806578039
 20
22.3001290813577
 30
0.0
 11
102.606806578039
 21
29.7266209612582
 31
0.0
  0
LINE
  5
   3EB
  8
0
  6
CONTINUOUS
 62
     1
 10
101.52681843698
 20
23.1169584725553
 30
0.0
 11
101.52681843698
 21
29.7266209612582
 31
0.0
  0
LINE
  5
   3EC
  8
0
  6
CONTINUOUS
 62
     1
 10
100.44681656301
 20
22.769853878045
 30
0.0
 11
100.44681656301
 21
29.7266209612582
 31
0.0
  0
LINE
  5
   3ED
  8
0
  6
DASHDOT
 62
     7
 10
111.861831665039
 20
-7.53501646488833
 30
0.0
 11
111.861831665039
 21
186.979224865546
 31
0.0
  0
LINE
  5
   3EE
  8
0
  6
DASHDOT
 62
     7
 10
132.861832499504
 20
130.076564306271
 30
0.0
 11
132.861832499504
 21
135.61604208068
 31
0.0
  0
LINE
  5
   3EF
  8
0
  6
DASHDOT
 62
     7
 10
90.861830830574
 20
1.89826901017626
 30
0.0
 11
90.861830830574
 21
135.61604208068
 31
0.0
  0
LINE
  5
   3F0
  8
0
  6
CONTINUOUS
 62
     5
 10
59.8117316982349
 20
130.076454935284
 30
0.0
 11
142.911466386593
 21
130.076579352623
 31
0.0
  0
LINE
  5
   3F1
  8
0
  6
CONTINUOUS
 62
     1
 10
121.11684813444
 20
105.626615876923
 30
0.0
 11
121.116842255787
 21
116.052995693848
 31
0.0
  0
LINE
  5
   3F2
  8
0
  6
CONTINUOUS
 62
     1
 10
122.196848177355
 20
105.626616485854
 30
0.0
 11
122.19684275927
 21
115.236132100124
 31
0.0
  0
LINE
  5
   3F3
  8
0
  6
DASHDOT
 62
     7
 10
162.946185392038
 20
64.9765999197953
 30
0.0
 11
35.1355347635438
 21
64.9765999197953
 31
0.0
  0
CIRCLE
  5
   3F4
  8
0
  6
CONTINUOUS
 62
     1
 10
122.361803187347
 20
116.57661411319
 30
0.0
 40
1.35059393238156
  0
LINE
  5
   3F5
  8
0
  6
DASHDOT
 62
     7
 10
122.361803187347
 20
113.460142859748
 30
0.0
 11
122.361803187347
 21
119.812822554269
 31
0.0
  0
LINE
  5
   3F6
  8
0
  6
DASHDOT
 62
     7
 10
124.889636591306
 20
116.57661411319
 30
0.0
 11
119.604786247146
 21
116.57661411319
 31
0.0
  0
LINE
  5
   3F7
  8
0
  6
CONTINUOUS
 62
     1
 10
123.276701856856
 20
117.570125257928
 30
0.0
 11
123.276664407717
 21
130.076474961926
 31
0.0
  0
LINE
  5
   3F8
  8
0
  6
CONTINUOUS
 62
     1
 10
122.196841247676
 20
117.917095940238
 30
0.0
 11
122.19683439193
 21
130.076446608001
 31
0.0
  0
LINE
  5
   3F9
  8
0
  6
CONTINUOUS
 62
     1
 10
121.116841665329
 20
117.100231128652
 30
0.0
 11
121.116834348958
 21
130.076546721591
 31
0.0
  0
LINE
  5
   3FA
  8
0
  6
CONTINUOUS
 62
     1
 10
60.0068231424768
 20
105.626581089489
 30
0.0
 11
60.0068323327671
 21
130.076482696318
 31
0.0
  0
LINE
  5
   3FB
  8
0
  6
CONTINUOUS
 62
     1
 10
61.086820492148
 20
105.626633578539
 30
0.0
 11
61.086820492148
 21
130.076528551547
 31
0.0
  0
LINE
  5
   3FC
  8
0
  6
CONTINUOUS
 62
     1
 10
62.1668268904065
 20
105.626571122304
 30
0.0
 11
62.1668360807222
 21
130.076547574994
 31
0.0
  0
LINE
  5
   3FD
  8
0
  6
CONTINUOUS
 62
     1
 10
63.2468196091028
 20
105.626570716354
 30
0.0
 11
63.2468287994155
 21
130.076539472638
 31
0.0
  0
LINE
  5
   3FE
  8
0
  6
CONTINUOUS
 62
     1
 10
64.3268169587845
 20
105.626633578539
 30
0.0
 11
64.3268169587845
 21
130.076474332804
 31
0.0
  0
LINE
  5
   3FF
  8
0
  6
CONTINUOUS
 62
     1
 10
65.4068233570428
 20
105.626569904447
 30
0.0
 11
65.4068325473314
 21
130.076474332804
 31
0.0
  0
LINE
  5
   400
  8
0
  6
CONTINUOUS
 62
     1
 10
66.4868207067248
 20
105.626633578539
 30
0.0
 11
66.4868207067248
 21
130.076474332804
 31
0.0
  0
LINE
  5
   401
  8
0
  6
CONTINUOUS
 62
     1
 10
67.5668178963634
 20
105.626577848754
 30
0.0
 11
67.5668362769347
 21
130.076474332804
 31
0.0
  0
LINE
  5
   402
  8
0
  6
CONTINUOUS
 62
     1
 10
68.6468198236791
 20
105.626568686589
 30
0.0
 11
68.6468290139681
 21
130.076474332804
 31
0.0
  0
LINE
  5
   403
  8
0
  6
CONTINUOUS
 62
     1
 10
69.7268171733613
 20
105.626633578539
 30
0.0
 11
69.7268171733613
 21
130.076474332804
 31
0.0
  0
LINE
  5
   404
  8
0
  6
DASHDOT
 62
     7
 10
69.861829996109
 20
2.62675308002193
 30
0.0
 11
69.861829996109
 21
135.61604208068
 31
0.0
  0
LINE
  5
   405
  8
0
  6
CONTINUOUS
 62
     1
 10
70.806814363029
 20
105.626615267992
 30
0.0
 11
70.8068327435721
 21
130.076474332804
 31
0.0
  0
LINE
  5
   406
  8
0
  6
CONTINUOUS
 62
     1
 10
71.8868162369994
 20
105.626615267992
 30
0.0
 11
71.8868346175425
 21
130.076474332804
 31
0.0
  0
LINE
  5
   407
  8
0
  6
CONTINUOUS
 62
     1
 10
72.9668181109595
 20
105.626615267992
 30
0.0
 11
72.9668364914984
 21
130.076474332804
 31
0.0
  0
LINE
  5
   408
  8
0
  6
CONTINUOUS
 62
     1
 10
74.0468199849299
 20
105.626615267992
 30
0.0
 11
74.0468383654688
 21
130.076474332804
 31
0.0
  0
LINE
  5
   409
  8
0
  6
CONTINUOUS
 62
     1
 10
75.1268127036265
 20
105.626615267992
 30
0.0
 11
75.1268310841654
 21
130.076474332804
 31
0.0
  0
LINE
  5
   40A
  8
0
  6
CONTINUOUS
 62
     1
 10
76.2068145775969
 20
105.626615267992
 30
0.0
 11
76.2068329581358
 21
130.076474332804
 31
0.0
  0
LINE
  5
   40B
  8
0
  6
CONTINUOUS
 62
     1
 10
77.2868164515673
 20
105.626615267992
 30
0.0
 11
77.2868348321062
 21
130.076474332804
 31
0.0
  0
LINE
  5
   40C
  8
0
  6
CONTINUOUS
 62
     1
 10
78.3668183255377
 20
105.626615267992
 30
0.0
 11
78.3668367060766
 21
130.076474332804
 31
0.0
  0
LINE
  5
   40D
  8
0
  6
CONTINUOUS
 62
     1
 10
79.7468188455658
 20
117.683971995411
 30
0.0
 11
79.7468372947015
 21
130.076474332804
 31
0.0
  0
CIRCLE
  5
   40E
  8
0
  6
CONTINUOUS
 62
     1
 10
80.3618593082663
 20
116.57661411319
 30
0.0
 40
1.35059393238156
  0
LINE
  5
   40F
  8
0
  6
DASHDOT
 62
     7
 10
82.6054439598115
 20
116.57661411319
 30
0.0
 11
78.4608181762063
 21
116.57661411319
 31
0.0
  0
LINE
  5
   410
  8
0
  6
DASHDOT
 62
     7
 10
80.3618593082663
 20
113.840217713266
 30
0.0
 11
80.3618593082663
 21
119.32415488546
 31
0.0
  0
LINE
  5
   411
  8
0
  6
CONTINUOUS
 62
     1
 10
79.5968157345051
 20
105.626615267992
 30
0.0
 11
79.5968157345051
 21
115.605135867139
 31
0.0
  0
LINE
  5
   412
  8
0
  6
CONTINUOUS
 62
     1
 10
81.0068285389056
 20
117.763255871142
 30
0.0
 11
81.0068331672322
 21
130.076482696318
 31
0.0
  0
LINE
  5
   413
  8
0
  6
CONTINUOUS
 62
     1
 10
60.0068369287255
 20
80.726600545644
 30
0.0
 11
60.0068369287255
 21
105.17661525011
 31
0.0
  0
LINE
  5
   414
  8
0
  6
CONTINUOUS
 62
     1
 10
61.0868479579694
 20
80.726600545644
 30
0.0
 11
61.0868479579694
 21
105.17661525011
 31
0.0
  0
LINE
  5
   415
  8
0
  6
CONTINUOUS
 62
     1
 10
62.1668406766657
 20
80.726600545644
 30
0.0
 11
62.1668406766657
 21
105.17661525011
 31
0.0
  0
LINE
  5
   416
  8
0
  6
CONTINUOUS
 62
     1
 10
63.246833395362
 20
80.726600545644
 30
0.0
 11
63.246833395362
 21
105.17661525011
 31
0.0
  0
LINE
  5
   417
  8
0
  6
CONTINUOUS
 62
     1
 10
64.326844424606
 20
80.726600545644
 30
0.0
 11
64.326844424606
 21
105.17661525011
 31
0.0
  0
LINE
  5
   418
  8
0
  6
CONTINUOUS
 62
     1
 10
65.4068371433023
 20
80.726600545644
 30
0.0
 11
65.4068371433023
 21
105.17661525011
 31
0.0
  0
LINE
  5
   419
  8
0
  6
CONTINUOUS
 62
     1
 10
66.4868481725462
 20
80.726600545644
 30
0.0
 11
66.4868481725462
 21
105.17661525011
 31
0.0
  0
LINE
  5
   41A
  8
0
  6
CONTINUOUS
 62
     1
 10
67.5668408912425
 20
80.726600545644
 30
0.0
 11
67.5668408912425
 21
105.17661525011
 31
0.0
  0
LINE
  5
   41B
  8
0
  6
CONTINUOUS
 62
     1
 10
68.6468336099388
 20
80.726600545644
 30
0.0
 11
68.6468336099388
 21
105.17661525011
 31
0.0
  0
LINE
  5
   41C
  8
0
  6
CONTINUOUS
 62
     1
 10
69.7268446391827
 20
80.726600545644
 30
0.0
 11
69.7268446391827
 21
105.17661525011
 31
0.0
  0
LINE
  5
   41D
  8
0
  6
CONTINUOUS
 62
     1
 10
60.0068369287255
 20
49.226622182131
 30
0.0
 11
60.0068369287255
 21
80.726600545644
 31
0.0
  0
LINE
  5
   41E
  8
0
  6
CONTINUOUS
 62
     1
 10
61.0868479579694
 20
49.226622182131
 30
0.0
 11
61.0868479579694
 21
80.726600545644
 31
0.0
  0
LINE
  5
   41F
  8
0
  6
CONTINUOUS
 62
     1
 10
62.1668406766657
 20
49.226622182131
 30
0.0
 11
62.1668406766657
 21
80.726600545644
 31
0.0
  0
LINE
  5
   420
  8
0
  6
CONTINUOUS
 62
     1
 10
63.246833395362
 20
49.226622182131
 30
0.0
 11
63.246833395362
 21
80.726600545644
 31
0.0
  0
LINE
  5
   421
  8
0
  6
CONTINUOUS
 62
     1
 10
64.326844424606
 20
49.226622182131
 30
0.0
 11
64.326844424606
 21
80.726600545644
 31
0.0
  0
LINE
  5
   422
  8
0
  6
CONTINUOUS
 62
     1
 10
65.4068371433023
 20
49.226622182131
 30
0.0
 11
65.4068371433023
 21
80.726600545644
 31
0.0
  0
LINE
  5
   423
  8
0
  6
CONTINUOUS
 62
     1
 10
66.4868481725462
 20
49.226622182131
 30
0.0
 11
66.4868481725462
 21
80.726600545644
 31
0.0
  0
LINE
  5
   424
  8
0
  6
CONTINUOUS
 62
     1
 10
67.5668408912425
 20
49.226622182131
 30
0.0
 11
67.5668408912425
 21
80.726600545644
 31
0.0
  0
LINE
  5
   425
  8
0
  6
CONTINUOUS
 62
     1
 10
68.6468336099388
 20
49.226622182131
 30
0.0
 11
68.6468336099388
 21
80.726600545644
 31
0.0
  0
LINE
  5
   426
  8
0
  6
CONTINUOUS
 62
     1
 10
60.0068369287255
 20
42.326617616415
 30
0.0
 11
60.0068369287255
 21
49.2266133129595
 31
0.0
  0
LINE
  5
   427
  8
0
  6
CONTINUOUS
 62
     1
 10
61.0868479579694
 20
42.326617616415
 30
0.0
 11
61.0868479579694
 21
49.2266133129595
 31
0.0
  0
LINE
  5
   428
  8
0
  6
CONTINUOUS
 62
     1
 10
62.1668406766657
 20
42.326617616415
 30
0.0
 11
62.1668406766657
 21
49.2266133129595
 31
0.0
  0
LINE
  5
   429
  8
0
  6
CONTINUOUS
 62
     1
 10
63.246833395362
 20
42.326617616415
 30
0.0
 11
63.246833395362
 21
49.2266133129595
 31
0.0
  0
LINE
  5
   42A
  8
0
  6
CONTINUOUS
 62
     1
 10
64.326844424606
 20
42.326617616415
 30
0.0
 11
64.326844424606
 21
49.2266133129595
 31
0.0
  0
LINE
  5
   42B
  8
0
  6
CONTINUOUS
 62
     1
 10
65.4068371433023
 20
42.326617616415
 30
0.0
 11
65.4068371433023
 21
49.2266133129595
 31
0.0
  0
LINE
  5
   42C
  8
0
  6
CONTINUOUS
 62
     1
 10
66.4868481725462
 20
42.326617616415
 30
0.0
 11
66.4868481725462
 21
49.2266133129595
 31
0.0
  0
LINE
  5
   42D
  8
0
  6
CONTINUOUS
 62
     1
 10
67.5668408912425
 20
42.326617616415
 30
0.0
 11
67.5668408912425
 21
49.2266133129595
 31
0.0
  0
LINE
  5
   42E
  8
0
  6
CONTINUOUS
 62
     1
 10
68.6468336099388
 20
42.326617616415
 30
0.0
 11
68.6468336099388
 21
49.2266133129595
 31
0.0
  0
LINE
  5
   42F
  8
0
  6
CONTINUOUS
 62
     1
 10
69.7268446391827
 20
42.326617616415
 30
0.0
 11
69.7268446391827
 21
49.2266133129595
 31
0.0
  0
LINE
  5
   430
  8
0
  6
CONTINUOUS
 62
     1
 10
69.7268446391827
 20
49.226622182131
 30
0.0
 11
69.7268446391827
 21
80.726600545644
 31
0.0
  0
LINE
  5
   431
  8
0
  6
CONTINUOUS
 62
     2
 10
60.0068369287255
 20
30.1766191363336
 30
0.0
 11
60.0068369287255
 21
41.8766196012498
 31
0.0
  0
LINE
  5
   432
  8
0
  6
CONTINUOUS
 62
     2
 10
61.0868479579694
 20
30.1766191363336
 30
0.0
 11
61.0868479579694
 21
41.8766196012498
 31
0.0
  0
LINE
  5
   433
  8
0
  6
CONTINUOUS
 62
     2
 10
62.1668406766657
 20
30.1766191363336
 30
0.0
 11
62.1668406766657
 21
41.8766196012498
 31
0.0
  0
LINE
  5
   434
  8
0
  6
CONTINUOUS
 62
     2
 10
63.246833395362
 20
30.1766191363336
 30
0.0
 11
63.246833395362
 21
41.8766196012498
 31
0.0
  0
LINE
  5
   435
  8
0
  6
CONTINUOUS
 62
     2
 10
64.326844424606
 20
30.1766191363336
 30
0.0
 11
64.326844424606
 21
41.8766196012498
 31
0.0
  0
LINE
  5
   436
  8
0
  6
CONTINUOUS
 62
     2
 10
65.4068371433023
 20
30.1766191363336
 30
0.0
 11
65.4068371433023
 21
41.8766196012498
 31
0.0
  0
LINE
  5
   437
  8
0
  6
CONTINUOUS
 62
     2
 10
66.4868481725462
 20
30.1766191363336
 30
0.0
 11
66.4868481725462
 21
41.8766196012498
 31
0.0
  0
LINE
  5
   438
  8
0
  6
CONTINUOUS
 62
     2
 10
67.5668408912425
 20
30.1766191363336
 30
0.0
 11
67.5668408912425
 21
41.8766196012498
 31
0.0
  0
LINE
  5
   439
  8
0
  6
CONTINUOUS
 62
     2
 10
68.6468336099388
 20
30.1766191363336
 30
0.0
 11
68.6468336099388
 21
41.8766196012498
 31
0.0
  0
LINE
  5
   43A
  8
0
  6
CONTINUOUS
 62
     2
 10
69.7268446391827
 20
30.1766191363336
 30
0.0
 11
69.7268446391827
 21
41.8766196012498
 31
0.0
  0
LINE
  5
   43B
  8
0
  6
CONTINUOUS
 62
     2
 10
60.0068369287255
 20
8.27662010891175
 30
0.0
 11
60.0068369287255
 21
29.7266209612582
 31
0.0
  0
LINE
  5
   43C
  8
0
  6
CONTINUOUS
 62
     2
 10
61.0868479579694
 20
8.27662010891175
 30
0.0
 11
61.0868479579694
 21
29.7266209612582
 31
0.0
  0
LINE
  5
   43D
  8
0
  6
CONTINUOUS
 62
     2
 10
62.1668406766657
 20
8.27662010891175
 30
0.0
 11
62.1668406766657
 21
29.7266209612582
 31
0.0
  0
LINE
  5
   43E
  8
0
  6
CONTINUOUS
 62
     2
 10
63.246833395362
 20
8.27662010891175
 30
0.0
 11
63.246833395362
 21
29.7266209612582
 31
0.0
  0
LINE
  5
   43F
  8
0
  6
CONTINUOUS
 62
     2
 10
64.326844424606
 20
8.27662010891175
 30
0.0
 11
64.326844424606
 21
29.7266209612582
 31
0.0
  0
LINE
  5
   440
  8
0
  6
CONTINUOUS
 62
     2
 10
65.4068371433023
 20
8.27662010891175
 30
0.0
 11
65.4068371433023
 21
29.7266209612582
 31
0.0
  0
LINE
  5
   441
  8
0
  6
CONTINUOUS
 62
     2
 10
66.4868481725462
 20
8.27662010891175
 30
0.0
 11
66.4868481725462
 21
29.7266209612582
 31
0.0
  0
LINE
  5
   442
  8
0
  6
CONTINUOUS
 62
     2
 10
67.5668408912425
 20
8.27662010891175
 30
0.0
 11
67.5668408912425
 21
29.7266209612582
 31
0.0
  0
LINE
  5
   443
  8
0
  6
CONTINUOUS
 62
     2
 10
68.6468336099388
 20
8.27662010891175
 30
0.0
 11
68.6468336099388
 21
29.7266209612582
 31
0.0
  0
LINE
  5
   444
  8
0
  6
CONTINUOUS
 62
     2
 10
69.7268336528541
 20
8.27662010891175
 30
0.0
 11
69.7268336528541
 21
29.7266209612582
 31
0.0
  0
LINE
  5
   445
  8
0
  6
CONTINUOUS
 62
     1
 10
70.8067411787306
 20
8.27662010891176
 30
0.0
 11
70.8067573040859
 21
29.7266209612582
 31
0.0
  0
LINE
  5
   446
  8
0
  6
CONTINUOUS
 62
     1
 10
71.886743052701
 20
8.27662010891176
 30
0.0
 11
71.8867591780563
 21
29.7266209612582
 31
0.0
  0
LINE
  5
   447
  8
0
  6
CONTINUOUS
 62
     1
 10
72.9667449266777
 20
8.27662010891176
 30
0.0
 11
72.9667610520293
 21
29.7266209612582
 31
0.0
  0
LINE
  5
   448
  8
0
  6
CONTINUOUS
 62
     1
 10
74.0467468006481
 20
8.27662010891176
 30
0.0
 11
74.0467629259997
 21
29.7266209612582
 31
0.0
  0
LINE
  5
   449
  8
0
  6
CONTINUOUS
 62
     1
 10
75.1267395193447
 20
8.27662010891176
 30
0.0
 11
75.1267556446964
 21
29.7266209612582
 31
0.0
  0
LINE
  5
   44A
  8
0
  6
CONTINUOUS
 62
     1
 10
79.5968157345051
 20
22.769853878045
 30
0.0
 11
79.5968157345051
 21
29.7266209612582
 31
0.0
  0
LINE
  5
   44B
  8
0
  6
CONTINUOUS
 62
     1
 10
78.3667451412559
 20
8.27662010891176
 30
0.0
 11
78.3667612666076
 21
29.7266209612582
 31
0.0
  0
LINE
  5
   44C
  8
0
  6
CONTINUOUS
 62
     1
 10
77.2867432672855
 20
8.27662010891176
 30
0.0
 11
77.2867593926372
 21
29.7266209612582
 31
0.0
  0
LINE
  5
   44D
  8
0
  6
CONTINUOUS
 62
     1
 10
76.2067413933151
 20
8.27662010891176
 30
0.0
 11
76.2067575186668
 21
29.7266209612582
 31
0.0
  0
CIRCLE
  5
   44E
  8
0
  6
CONTINUOUS
 62
     1
 10
80.3618593082663
 20
21.7764761969005
 30
0.0
 40
1.35059393238156
  0
LINE
  5
   44F
  8
0
  6
DASHDOT
 62
     1
 10
80.3618593082663
 20
17.4258821453096
 30
0.0
 11
80.3618593082663
 21
29.7266209612582
 31
0.0
  0
LINE
  5
   450
  8
0
  6
DASHDOT
 62
     1
 10
84.7124533598572
 20
21.7764761969005
 30
0.0
 11
76.0112652566755
 21
21.7764761969005
 31
0.0
  0
LINE
  5
   451
  8
0
  6
CONTINUOUS
 62
     1
 10
79.5968157345051
 20
8.27662010891175
 30
0.0
 11
79.5968157345051
 21
20.783098515756
 31
0.0
  0
LINE
  5
   452
  8
0
  6
CONTINUOUS
 62
     2
 10
81.0068377631906
 20
22.9631129411779
 30
0.0
 11
81.0068377631906
 21
29.7266209612582
 31
0.0
  0
LINE
  5
   453
  8
0
  6
CONTINUOUS
 62
     1
 10
79.5968157345051
 20
30.1766191363336
 30
0.0
 11
79.5968157345051
 21
41.8766196012498
 31
0.0
  0
LINE
  5
   454
  8
0
  6
CONTINUOUS
 62
     1
 10
78.3667616049009
 20
30.17661994828
 30
0.0
 11
78.3667704005473
 21
41.8766204131896
 31
0.0
  0
LINE
  5
   455
  8
0
  6
CONTINUOUS
 62
     1
 10
77.2867597309311
 20
30.1766207601872
 30
0.0
 11
77.2867685265775
 21
41.8766212250968
 31
0.0
  0
LINE
  5
   456
  8
0
  6
CONTINUOUS
 62
     1
 10
76.2067578569613
 20
30.1766215720944
 30
0.0
 11
76.2067666526077
 21
41.876622037004
 31
0.0
  0
LINE
  5
   457
  8
0
  6
CONTINUOUS
 62
     1
 10
75.1267559829915
 20
30.1766223840016
 30
0.0
 11
75.1267647786379
 21
41.8766228489112
 31
0.0
  0
LINE
  5
   458
  8
0
  6
CONTINUOUS
 62
     1
 10
74.0467632642955
 20
30.1766231959019
 30
0.0
 11
74.0467720599419
 21
41.8766236608116
 31
0.0
  0
LINE
  5
   459
  8
0
  6
CONTINUOUS
 62
     1
 10
72.9667613903257
 20
30.1766240078091
 30
0.0
 11
72.9667701859721
 21
41.8766244727188
 31
0.0
  0
LINE
  5
   45A
  8
0
  6
CONTINUOUS
 62
     1
 10
71.8867595163534
 20
30.1766248197165
 30
0.0
 11
71.8867683120018
 21
41.8766252846261
 31
0.0
  0
LINE
  5
   45B
  8
0
  6
CONTINUOUS
 62
     1
 10
70.8067576423836
 20
30.1766256316239
 30
0.0
 11
70.8067664380319
 21
41.8766260965335
 31
0.0
  0
LINE
  5
   45C
  8
0
  6
CONTINUOUS
 62
     1
 10
79.5968157345051
 20
42.326617616415
 30
0.0
 11
79.5968157345051
 21
49.2266133129595
 31
0.0
  0
LINE
  5
   45D
  8
0
  6
CONTINUOUS
 62
     1
 10
78.3667707388398
 20
42.3266184283546
 30
0.0
 11
78.3667759260125
 21
49.2266141248952
 31
0.0
  0
LINE
  5
   45E
  8
0
  6
CONTINUOUS
 62
     1
 10
77.28676886487
 20
42.3266192402618
 30
0.0
 11
77.2867740520427
 21
49.2266149368024
 31
0.0
  0
LINE
  5
   45F
  8
0
  6
CONTINUOUS
 62
     1
 10
76.2067669909002
 20
42.326620052169
 30
0.0
 11
76.2067721780728
 21
49.2266157487096
 31
0.0
  0
LINE
  5
   460
  8
0
  6
CONTINUOUS
 62
     1
 10
75.1267651169304
 20
42.3266208640762
 30
0.0
 11
75.1267703041031
 21
49.2266165606168
 31
0.0
  0
LINE
  5
   461
  8
0
  6
CONTINUOUS
 62
     1
 10
74.0467723982344
 20
42.3266216759765
 30
0.0
 11
74.0467775854071
 21
49.2266173725171
 31
0.0
  0
LINE
  5
   462
  8
0
  6
CONTINUOUS
 62
     1
 10
72.9667705242646
 20
42.3266224878837
 30
0.0
 11
72.9667757114373
 21
49.2266181844243
 31
0.0
  0
LINE
  5
   463
  8
0
  6
CONTINUOUS
 62
     1
 10
71.8867686502944
 20
42.3266232997911
 30
0.0
 11
71.8867738374682
 21
49.2266189963317
 31
0.0
  0
LINE
  5
   464
  8
0
  6
CONTINUOUS
 62
     1
 10
70.8067667763246
 20
42.3266241116985
 30
0.0
 11
70.8067719634984
 21
49.2266198082391
 31
0.0
  0
LINE
  5
   465
  8
0
  6
CONTINUOUS
 62
     1
 10
79.5968157345051
 20
49.226622182131
 30
0.0
 11
79.5968157345051
 21
80.726600545644
 31
0.0
  0
LINE
  5
   466
  8
0
  6
CONTINUOUS
 62
     1
 10
78.3667759260191
 20
49.2266229940667
 30
0.0
 11
78.3667996065883
 21
80.7266013575619
 31
0.0
  0
LINE
  5
   467
  8
0
  6
CONTINUOUS
 62
     1
 10
77.2867740520493
 20
49.2266238059739
 30
0.0
 11
77.2867977326185
 21
80.7266021694691
 31
0.0
  0
LINE
  5
   468
  8
0
  6
CONTINUOUS
 62
     1
 10
76.2067721780795
 20
49.2266246178811
 30
0.0
 11
76.2067958586487
 21
80.7266029813763
 31
0.0
  0
LINE
  5
   469
  8
0
  6
CONTINUOUS
 62
     1
 10
75.1267703041097
 20
49.2266254297883
 30
0.0
 11
75.1267939846789
 21
80.7266037932835
 31
0.0
  0
LINE
  5
   46A
  8
0
  6
CONTINUOUS
 62
     1
 10
74.0467775854137
 20
49.2266262416886
 30
0.0
 11
74.0468012659829
 21
80.7266046051838
 31
0.0
  0
LINE
  5
   46B
  8
0
  6
CONTINUOUS
 62
     1
 10
72.9667757114439
 20
49.2266270535958
 30
0.0
 11
72.9667993920131
 21
80.726605417091
 31
0.0
  0
LINE
  5
   46C
  8
0
  6
CONTINUOUS
 62
     1
 10
71.8867738374749
 20
49.2266278655032
 30
0.0
 11
71.8867975180494
 21
80.7266062289984
 31
0.0
  0
LINE
  5
   46D
  8
0
  6
CONTINUOUS
 62
     1
 10
70.8067719635051
 20
49.2266286774106
 30
0.0
 11
70.8067956440796
 21
80.7266070409058
 31
0.0
  0
LINE
  5
   46E
  8
0
  6
CONTINUOUS
 62
     1
 10
79.5968157345051
 20
80.726600545644
 30
0.0
 11
79.5968157345051
 21
105.17661525011
 31
0.0
  0
LINE
  5
   46F
  8
0
  6
CONTINUOUS
 62
     1
 10
78.3667996065883
 20
80.7266013575619
 30
0.0
 11
78.3668179872442
 21
105.176616062015
 31
0.0
  0
LINE
  5
   470
  8
0
  6
CONTINUOUS
 62
     1
 10
77.2867977326185
 20
80.7266021694691
 30
0.0
 11
77.2868161132744
 21
105.176616873922
 31
0.0
  0
LINE
  5
   471
  8
0
  6
CONTINUOUS
 62
     1
 10
76.2067958586487
 20
80.7266029813763
 30
0.0
 11
76.2068142393046
 21
105.176617685829
 31
0.0
  0
LINE
  5
   472
  8
0
  6
CONTINUOUS
 62
     1
 10
75.1267939846789
 20
80.7266037932835
 30
0.0
 11
75.1268123653348
 21
105.176618497736
 31
0.0
  0
LINE
  5
   473
  8
0
  6
CONTINUOUS
 62
     1
 10
74.0468012659829
 20
80.7266046051838
 30
0.0
 11
74.0468196466388
 21
105.176619309636
 31
0.0
  0
LINE
  5
   474
  8
0
  6
CONTINUOUS
 62
     1
 10
72.966799392013
 20
80.726605417091
 30
0.0
 11
72.966817772669
 21
105.176620121544
 31
0.0
  0
LINE
  5
   475
  8
0
  6
CONTINUOUS
 62
     1
 10
71.8867975180494
 20
80.7266062289984
 30
0.0
 11
71.8868158987096
 21
105.176620933451
 31
0.0
  0
LINE
  5
   476
  8
0
  6
CONTINUOUS
 62
     1
 10
70.8067956440796
 20
80.7266070409058
 30
0.0
 11
70.8068140247397
 21
105.176621745358
 31
0.0
  0
LINE
  5
   477
  8
0
  6
CONTINUOUS
 62
     1
 10
89.0618307590485
 20
42.326617616415
 30
0.0
 11
59.3618390927666
 21
42.326617616415
 31
0.0
  0
LINE
  5
   478
  8
0
  6
CONTINUOUS
 62
     1
 10
89.0618307590485
 20
42.0266176044941
 30
0.0
 11
81.3013354555569
 21
42.0266176044941
 31
0.0
  0
LINE
  5
   479
  8
0
  6
CONTINUOUS
 62
     1
 10
89.0618307590485
 20
41.8766196012498
 30
0.0
 11
59.3618391560516
 21
41.8766196012498
 31
0.0
  0
LINE
  5
   47A
  8
0
  6
CONTINUOUS
 62
     1
 10
132.99681785643
 20
30.1766191363336
 30
0.0
 11
132.99681785643
 21
40.8265995323651
 31
0.0
  0
LINE
  5
   47B
  8
0
  6
CONTINUOUS
 62
     1
 10
134.076828885674
 20
30.1766191363336
 30
0.0
 11
134.076828885674
 21
40.8265995323651
 31
0.0
  0
LINE
  5
   47C
  8
0
  6
CONTINUOUS
 62
     1
 10
135.156821604371
 20
30.1766191363336
 30
0.0
 11
135.156821604371
 21
41.8766196012498
 31
0.0
  0
LINE
  5
   47D
  8
0
  6
CONTINUOUS
 62
     1
 10
136.236814323067
 20
30.1766191363336
 30
0.0
 11
136.236814323067
 21
41.8766196012498
 31
0.0
  0
LINE
  5
   47E
  8
0
  6
CONTINUOUS
 62
     1
 10
137.316825352311
 20
30.1766191363336
 30
0.0
 11
137.316825352311
 21
41.8766196012498
 31
0.0
  0
LINE
  5
   47F
  8
0
  6
CONTINUOUS
 62
     1
 10
138.396818071007
 20
30.1766191363336
 30
0.0
 11
138.396818071007
 21
41.8766196012498
 31
0.0
  0
LINE
  5
   480
  8
0
  6
CONTINUOUS
 62
     1
 10
139.476829100251
 20
30.1766191363336
 30
0.0
 11
139.476829100251
 21
41.8766196012498
 31
0.0
  0
LINE
  5
   481
  8
0
  6
CONTINUOUS
 62
     1
 10
140.556821818947
 20
30.1766191363336
 30
0.0
 11
140.556821818947
 21
41.8766196012498
 31
0.0
  0
LINE
  5
   482
  8
0
  6
CONTINUOUS
 62
     1
 10
141.636814537644
 20
30.1766191363336
 30
0.0
 11
141.636814537644
 21
41.8766196012498
 31
0.0
  0
LINE
  5
   483
  8
0
  6
CONTINUOUS
 62
     1
 10
142.716825566888
 20
30.1766191363336
 30
0.0
 11
142.716825566888
 21
41.8766196012498
 31
0.0
  0
LINE
  5
   484
  8
0
  6
CONTINUOUS
 62
     1
 10
122.196813462966
 20
8.27662010891175
 30
0.0
 11
122.196813462966
 21
29.7266209612582
 31
0.0
  0
LINE
  5
   485
  8
0
  6
CONTINUOUS
 62
     1
 10
123.27677475153
 20
8.27662010891175
 30
0.0
 11
123.27677475153
 21
29.7266209612582
 31
0.0
  0
LINE
  5
   486
  8
0
  6
CONTINUOUS
 62
     1
 10
124.356736040094
 20
8.27662010891175
 30
0.0
 11
124.356736040094
 21
29.7266209612582
 31
0.0
  0
LINE
  5
   487
  8
0
  6
CONTINUOUS
 62
     1
 10
125.436697328658
 20
8.27662010891175
 30
0.0
 11
125.436697328658
 21
29.7266209612582
 31
0.0
  0
LINE
  5
   488
  8
0
  6
CONTINUOUS
 62
     1
 10
126.516658617222
 20
8.27662010891175
 30
0.0
 11
126.516658617222
 21
29.7266209612582
 31
0.0
  0
LINE
  5
   489
  8
0
  6
CONTINUOUS
 62
     1
 10
127.596619905786
 20
8.27662010891175
 30
0.0
 11
127.596619905786
 21
29.7266209612582
 31
0.0
  0
LINE
  5
   48A
  8
0
  6
CONTINUOUS
 62
     1
 10
128.67658119435
 20
8.27662010891175
 30
0.0
 11
128.67658119435
 21
29.7266209612582
 31
0.0
  0
LINE
  5
   48B
  8
0
  6
CONTINUOUS
 62
     1
 10
129.756542482914
 20
8.27662010891175
 30
0.0
 11
129.756542482914
 21
29.7266209612582
 31
0.0
  0
LINE
  5
   48C
  8
0
  6
CONTINUOUS
 62
     1
 10
130.836503771478
 20
8.27662010891175
 30
0.0
 11
130.836503771478
 21
29.7266209612582
 31
0.0
  0
LINE
  5
   48D
  8
0
  6
CONTINUOUS
 62
     1
 10
131.916465060042
 20
8.27662010891175
 30
0.0
 11
131.916465060042
 21
29.7266209612582
 31
0.0
  0
TEXT
  5
   48E
  8
0
  6
CONTINUOUS
 62
     7
 10
110.609659209535
 20
188.125929612921
 30
0.0
 40
2.99999994039535
  1
Y
 50
359.999999948034
 41
0.916666655739148
 72
     2
 11
112.809659165825
 21
188.125929610937
 31
0.0
  0
INSERT
  5
   48F
  8
0
  6
CONTINUOUS
 62
     7
  2
*UDIM577
 10
0.0
 20
0.0
 30
0.0
  0
INSERT
  5
   490
  8
0
  6
CONTINUOUS
 62
     7
  2
*UDIM578
 10
0.0
 20
0.0
 30
0.0
  0
INSERT
  5
   491
  8
0
  6
CONTINUOUS
 62
     7
  2
*UDIM579
 10
0.0
 20
0.0
 30
0.0
  0
INSERT
  5
   492
  8
0
  6
CONTINUOUS
 62
     7
  2
*UDIM580
 10
0.0
 20
0.0
 30
0.0
  0
INSERT
  5
   493
  8
0
  6
CONTINUOUS
 62
     7
  2
*UDIM581
 10
0.0
 20
0.0
 30
0.0
  0
INSERT
  5
   494
  8
0
  6
CONTINUOUS
 62
     7
  2
*UDIM582
 10
0.0
 20
0.0
 30
0.0
  0
INSERT
  5
   495
  8
0
  6
CONTINUOUS
 62
     7
  2
*UDIM583
 10
0.0
 20
0.0
 30
0.0
  0
POINT
  5
   496
  8
0
  6
CONTINUOUS
 62
     7
 10
111.861831665039
 20
8.27662010891175
 30
0.0
  0
INSERT
  5
   497
  8
0
  6
CONTINUOUS
 62
     7
  2
*UDIM584
 10
0.0
 20
0.0
 30
0.0
  0
INSERT
  5
   498
  8
0
  6
CONTINUOUS
 62
     7
  2
*UDIM585
 10
0.0
 20
0.0
 30
0.0
  0
INSERT
  5
   499
  8
0
  6
CONTINUOUS
 62
     7
  2
*UDIM586
 10
0.0
 20
0.0
 30
0.0
  0
INSERT
  5
   49A
  8
0
  6
CONTINUOUS
 62
     7
  2
*UDIM587
 10
0.0
 20
0.0
 30
0.0
  0
INSERT
  5
   49B
  8
0
  6
CONTINUOUS
 62
     7
  2
*UDIM588
 10
0.0
 20
0.0
 30
0.0
  0
INSERT
  5
   49C
  8
0
  6
CONTINUOUS
 62
     7
  2
*UDIM589
 10
0.0
 20
0.0
 30
0.0
  0
INSERT
  5
   49D
  8
0
  6
CONTINUOUS
 62
     7
  2
*UDIM590
 10
0.0
 20
0.0
 30
0.0
  0
INSERT
  5
   49E
  8
0
  6
CONTINUOUS
 62
     7
  2
*UDIM591
 10
0.0
 20
0.0
 30
0.0
  0
INSERT
  5
   49F
  8
0
  6
CONTINUOUS
 62
     7
  2
*UDIM592
 10
0.0
 20
0.0
 30
0.0
  0
INSERT
  5
   4A0
  8
0
  6
CONTINUOUS
 62
     7
  2
*UDIM593
 10
0.0
 20
0.0
 30
0.0
  0
INSERT
  5
   4A1
  8
0
  6
CONTINUOUS
 62
     7
  2
*UDIM594
 10
0.0
 20
0.0
 30
0.0
  0
INSERT
  5
   4A2
  8
0
  6
CONTINUOUS
 62
     7
  2
*UDIM595
 10
0.0
 20
0.0
 30
0.0
  0
INSERT
  5
   4A3
  8
0
  6
CONTINUOUS
 62
     7
  2
*UDIM596
 10
0.0
 20
0.0
 30
0.0
  0
INSERT
  5
   4A4
  8
0
  6
CONTINUOUS
 62
     7
  2
*UDIM597
 10
0.0
 20
0.0
 30
0.0
  0
INSERT
  5
   4A5
  8
0
  6
CONTINUOUS
 62
     7
  2
*UDIM598
 10
0.0
 20
0.0
 30
0.0
  0
INSERT
  5
   4A6
  8
0
  6
CONTINUOUS
 62
     7
  2
*UDIM599
 10
0.0
 20
0.0
 30
0.0
  0
INSERT
  5
   4A7
  8
0
  6
CONTINUOUS
 62
     7
  2
*UDIM600
 10
0.0
 20
0.0
 30
0.0
  0
INSERT
  5
   4A8
  8
0
  6
CONTINUOUS
 62
     7
  2
*UDIM601
 10
0.0
 20
0.0
 30
0.0
  0
INSERT
  5
   4A9
  8
0
  6
CONTINUOUS
 62
     7
  2
*UDIM602
 10
0.0
 20
0.0
 30
0.0
  0
INSERT
  5
   4AA
  8
0
  6
CONTINUOUS
 62
     7
  2
*UDIM603
 10
0.0
 20
0.0
 30
0.0
  0
LINE
  5
   4AB
  8
0
  6
CONTINUOUS
 62
     3
 10
134.66183257103
 20
41.2015995472663
 30
0.0
 11
134.66183257103
 21
88.7516002923243
 31
0.0
  0
LINE
  5
   4AC
  8
0
  6
CONTINUOUS
 62
     3
 10
134.286832556129
 20
40.8265995323651
 30
0.0
 11
89.4368307739496
 21
40.8265995323651
 31
0.0
  0
LINE
  5
   4AD
  8
0
  6
CONTINUOUS
 62
     3
 10
89.0618307590485
 20
41.2015995472663
 30
0.0
 11
89.0618307590485
 21
88.7516002923243
 31
0.0
  0
LINE
  5
   4AE
  8
0
  6
CONTINUOUS
 62
     3
 10
134.286832556129
 20
89.1266003072254
 30
0.0
 11
89.4368307739496
 21
89.1266003072254
 31
0.0
  0
LINE
  5
   4AF
  8
0
  6
CONTINUOUS
 62
     3
 10
133.011832505465
 20
49.0765998601906
 30
0.0
 11
133.011832505465
 21
80.8766011238091
 31
0.0
  0
LINE
  5
   4B0
  8
0
  6
CONTINUOUS
 62
     3
 10
133.011832505465
 20
49.0765998601907
 30
0.0
 11
90.7118308246136
 21
49.0765998601907
 31
0.0
  0
LINE
  5
   4B1
  8
0
  6
CONTINUOUS
 62
     3
 10
90.7118308246136
 20
49.0765998601906
 30
0.0
 11
90.7118308246136
 21
80.8766011238091
 31
0.0
  0
LINE
  5
   4B2
  8
0
  6
CONTINUOUS
 62
     3
 10
133.011832505465
 20
80.8765999793999
 30
0.0
 11
90.7118308246136
 21
80.8765999793999
 31
0.0
  0
LINE
  5
   4B3
  8
0
  6
CONTINUOUS
 62
     3
 10
133.311832517385
 20
46.5265997588627
 30
0.0
 11
133.311832517385
 21
46.8265997707837
 31
0.0
  0
LINE
  5
   4B4
  8
0
  6
CONTINUOUS
 62
     3
 10
133.011832505465
 20
47.1265997827046
 30
0.0
 11
90.7118308246136
 21
47.1265997827046
 31
0.0
  0
LINE
  5
   4B5
  8
0
  6
CONTINUOUS
 62
     3
 10
90.4118308126927
 20
46.5265997588627
 30
0.0
 11
90.4118308126927
 21
46.8265997707837
 31
0.0
  0
LINE
  5
   4B6
  8
0
  6
CONTINUOUS
 62
     3
 10
133.011832505465
 20
46.8265997707837
 30
0.0
 11
90.7118308246136
 21
46.8265997707837
 31
0.0
  0
LINE
  5
   4B7
  8
0
  6
CONTINUOUS
 62
     3
 10
90.4118308126927
 20
40.8265995323651
 30
0.0
 11
90.4118308126927
 21
46.5265997588627
 31
0.0
  0
LINE
  5
   4B8
  8
0
  6
CONTINUOUS
 62
     3
 10
90.4118308126927
 20
46.8265986263745
 30
0.0
 11
90.4118308126927
 21
89.1266003072254
 31
0.0
  0
LINE
  5
   4B9
  8
0
  6
CONTINUOUS
 62
     3
 10
90.7118308246136
 20
40.8265995323651
 30
0.0
 11
90.7118308246136
 21
46.8265997707837
 31
0.0
  0
LINE
  5
   4BA
  8
0
  6
CONTINUOUS
 62
     3
 10
90.7118308246136
 20
80.8765999793999
 30
0.0
 11
90.7118308246136
 21
82.8266000568859
 31
0.0
  0
LINE
  5
   4BB
  8
0
  6
CONTINUOUS
 62
     3
 10
90.7118308246136
 20
47.1265997827046
 30
0.0
 11
90.7118308246136
 21
49.0765998601906
 31
0.0
  0
LINE
  5
   4BC
  8
0
  6
CONTINUOUS
 62
     3
 10
133.311832517385
 20
40.8265995323651
 30
0.0
 11
133.311832517385
 21
46.5265997588627
 31
0.0
  0
LINE
  5
   4BD
  8
0
  6
CONTINUOUS
 62
     3
 10
133.311832517385
 20
46.8265997707837
 30
0.0
 11
133.311832517385
 21
89.1266003072254
 31
0.0
  0
LINE
  5
   4BE
  8
0
  6
CONTINUOUS
 62
     3
 10
133.011832505465
 20
47.1265997827046
 30
0.0
 11
133.011832505465
 21
49.0765998601906
 31
0.0
  0
LINE
  5
   4BF
  8
0
  6
CONTINUOUS
 62
     3
 10
133.011832505465
 20
80.8765999793999
 30
0.0
 11
133.011832505465
 21
82.8266000568859
 31
0.0
  0
LINE
  5
   4C0
  8
0
  6
CONTINUOUS
 62
     3
 10
133.011832505465
 20
40.8265995323651
 30
0.0
 11
133.011832505465
 21
46.8265997707837
 31
0.0
  0
LINE
  5
   4C1
  8
0
  6
CONTINUOUS
 62
     3
 10
133.311832517385
 20
83.1266000688069
 30
0.0
 11
90.4118308126927
 21
83.1266000688069
 31
0.0
  0
LINE
  5
   4C2
  8
0
  6
CONTINUOUS
 62
     3
 10
133.011832505465
 20
82.8266000568859
 30
0.0
 11
90.7118308246136
 21
82.8266000568859
 31
0.0
  0
ARC
  5
   4C3
  8
0
  6
CONTINUOUS
 62
     3
 10
89.4368307739496
 20
41.2015995472663
 30
0.0
 40
0.375000014901161
 50
179.999999948034
 51
269.999999948034
  0
ARC
  5
   4C4
  8
0
  6
CONTINUOUS
 62
     3
 10
134.286832556129
 20
41.2015995472663
 30
0.0
 40
0.375000014901161
 50
269.999999948034
 51
359.999999948034
  0
ARC
  5
   4C5
  8
0
  6
CONTINUOUS
 62
     3
 10
134.286832556129
 20
88.7516002923243
 30
0.0
 40
0.375000014901161
 50
359.999999948034
 51
449.999999948034
  0
ARC
  5
   4C6
  8
0
  6
CONTINUOUS
 62
     3
 10
89.4368307739496
 20
88.7516002923243
 30
0.0
 40
0.375000014901161
 50
89.9999999480344
 51
179.999999948034
  0
LINE
  5
   4C7
  8
0
  6
DOT
 62
     3
 10
90.4118308126927
 20
85.9016013548384
 30
0.0
 11
90.2618310782412
 21
85.9016013548384
 31
0.0
  0
LINE
  5
   4C8
  8
0
  6
DOT
 62
     3
 10
90.4118308126927
 20
86.3516013727196
 30
0.0
 11
90.2618310782412
 21
86.3516013727196
 31
0.0
  0
LINE
  5
   4C9
  8
0
  6
CONTINUOUS
 62
     3
 10
133.311832517385
 20
85.9016013548903
 30
0.0
 11
133.161832784238
 21
85.9016013548903
 31
0.0
  0
LINE
  5
   4CA
  8
0
  6
CONTINUOUS
 62
     3
 10
133.311832517385
 20
86.3516013727715
 30
0.0
 11
133.161832784238
 21
86.3516013727715
 31
0.0
  0
ARC
  5
   4CB
  8
0
  6
DOT
 62
     3
 10
90.2618310780071
 20
86.126601363793
 30
0.0
 40
0.225000008744246
 50
89.9999999480344
 51
269.999999948034
  0
ARC
  5
   4CC
  8
0
  6
CONTINUOUS
 62
     3
 10
90.5618310901185
 20
86.1266013637411
 30
0.0
 40
0.225000008943607
 50
269.999999948034
 51
449.999999948034
  0
LINE
  5
   4CD
  8
0
  6
CONTINUOUS
 62
     3
 10
90.5618310901625
 20
86.3516013727196
 30
0.0
 11
90.4118308126927
 21
86.3516013727196
 31
0.0
  0
LINE
  5
   4CE
  8
0
  6
CONTINUOUS
 62
     3
 10
90.5618310901625
 20
85.9016013548384
 30
0.0
 11
90.4118308126927
 21
85.9016013548384
 31
0.0
  0
ARC
  5
   4CF
  8
0
  6
CONTINUOUS
 62
     3
 10
133.161832784295
 20
86.1266013637346
 30
0.0
 40
0.225000008955249
 50
89.9999999519166
 51
269.999999944059
  0
ARC
  5
   4D0
  8
0
  6
DOT
 62
     3
 10
133.461832796191
 20
86.1266013637386
 30
0.0
 40
0.225000008949428
 50
269.999999950484
 51
449.99999994552
  0
LINE
  5
   4D1
  8
0
  6
DOT
 62
     3
 10
133.461832796159
 20
86.3516013727715
 30
0.0
 11
133.311832517385
 21
86.3516013727715
 31
0.0
  0
LINE
  5
   4D2
  8
0
  6
DOT
 62
     3
 10
133.461832796159
 20
85.9016013548903
 30
0.0
 11
133.311832517385
 21
85.9016013548903
 31
0.0
  0
POINT
  5
   4D3
  8
0
  6
CONTINUOUS
 62
     7
 10
111.861831665039
 20
64.9765999197953
 30
0.0
  0
LINE
  5
   4D4
  8
0
  6
CONTINUOUS
 62
    50
 10
76.4618096590034
 20
7.22649549386314
 30
0.0
 11
76.4618096590034
 21
8.27662010891176
 31
0.0
  0
LINE
  5
   4D5
  8
0
  6
CONTINUOUS
 62
    50
 10
76.407042811124
 20
6.08101510166603
 30
0.0
 11
76.4618096590034
 21
7.22649549386303
 31
0.0
  0
LINE
  5
   4D6
  8
0
  6
CONTINUOUS
 62
    50
 10
71.3830977567541
 20
-2.57637659976955
 30
0.0
 11
72.2872451315488
 21
-1.87092613228434
 31
0.0
  0
LINE
  5
   4D7
  8
0
  6
CONTINUOUS
 62
    50
 10
72.2872451315488
 20
-1.87092613228434
 30
0.0
 11
73.1199218614138
 21
-1.08239155505235
 31
0.0
  0
LINE
  5
   4D8
  8
0
  6
CONTINUOUS
 62
    50
 10
73.1199218614138
 20
-1.08239155505233
 30
0.0
 11
73.8735267802754
 21
-0.217978068555198
 31
0.0
  0
LINE
  5
   4D9
  8
0
  6
CONTINUOUS
 62
    50
 10
73.8735267802754
 20
-0.217978068555233
 30
0.0
 11
74.541175122235
 21
0.714431636464148
 31
0.0
  0
LINE
  5
   4DA
  8
0
  6
CONTINUOUS
 62
    50
 10
74.541175122235
 20
0.714431636464148
 30
0.0
 11
75.1167694749411
 21
1.70630484482296
 31
0.0
  0
LINE
  5
   4DB
  8
0
  6
CONTINUOUS
 62
    50
 10
75.1167694749411
 20
1.70630484482296
 30
0.0
 11
75.5950547112316
 21
2.74860530127932
 31
0.0
  0
LINE
  5
   4DC
  8
0
  6
CONTINUOUS
 62
    50
 10
75.5950547112316
 20
2.74860530127932
 30
0.0
 11
75.9716614766849
 21
3.83179321053228
 31
0.0
  0
LINE
  5
   4DD
  8
0
  6
CONTINUOUS
 62
    50
 10
75.9716614766849
 20
3.8317932105323
 30
0.0
 11
76.2431519659885
 21
4.94599003215026
 31
0.0
  0
LINE
  5
   4DE
  8
0
  6
CONTINUOUS
 62
    50
 10
76.2431519659885
 20
4.94599003215025
 30
0.0
 11
76.407042811124
 21
6.08101510166612
 31
0.0
  0
LINE
  5
   4DF
  8
0
  6
CONTINUOUS
 62
    50
 10
70.4157377939983
 20
-3.19228848947805
 30
0.0
 11
71.3830977567541
 21
-2.57637659976955
 31
0.0
  0
LINE
  5
   4E0
  8
0
  6
CONTINUOUS
 62
    50
 10
64.1733562593272
 20
-6.75954937341579
 30
0.0
 11
70.4157377939982
 21
-3.19228848947809
 31
0.0
  0
LINE
  5
   4E1
  8
0
  6
CONTINUOUS
 62
    50
 10
63.7419689130838
 20
-7.05900922418242
 30
0.0
 11
64.1733562593272
 21
-6.75954937341575
 31
0.0
  0
LINE
  5
   4E2
  8
0
  6
CONTINUOUS
 62
    50
 10
63.3694042010139
 20
-7.42910201232608
 30
0.0
 11
63.7419689130839
 21
-7.05900922418242
 31
0.0
  0
LINE
  5
   4E3
  8
0
  6
CONTINUOUS
 62
    50
 10
63.0670833271843
 20
-7.8584935088808
 30
0.0
 11
63.3694042010138
 21
-7.4291020123261
 31
0.0
  0
LINE
  5
   4E4
  8
0
  6
CONTINUOUS
 62
    50
 10
62.8442714286821
 20
-8.33402758539395
 30
0.0
 11
63.0670833271843
 21
-7.85849350888077
 31
0.0
  0
LINE
  5
   4E5
  8
0
  6
CONTINUOUS
 62
    50
 10
62.7077937621261
 20
-8.84111989070024
 30
0.0
 11
62.8442714286821
 21
-8.33402758539395
 31
0.0
  0
LINE
  5
   4E6
  8
0
  6
CONTINUOUS
 62
    50
 10
62.6618342876436
 20
-9.36424308043265
 30
0.0
 11
62.7077937621261
 21
-8.84111989070019
 31
0.0
  0
LINE
  5
   4E7
  8
0
  6
CONTINUOUS
 62
    50
 10
62.6617947812017
 20
-22.3233042643247
 30
0.0
 11
62.6617947812017
 21
-9.36424308043262
 31
0.0
  0
LINE
  5
   4E8
  8
0
  6
CONTINUOUS
 62
    50
 10
62.6618388652805
 20
-22.3233209472252
 30
0.0
 11
35.6617965936648
 21
-22.3233209472252
 31
0.0
  0
LINE
  5
   4E9
  8
0
  6
CONTINUOUS
 62
    50
 10
35.6618487186642
 20
-22.323295109051
 30
0.0
 11
35.6618487186642
 21
-11.3633245807674
 31
0.0
  0
LINE
  5
   4EA
  8
0
  6
CONTINUOUS
 62
    50
 10
36.3048676031049
 20
-9.50733085467309
 30
0.0
 11
36.6456406268999
 21
-9.1418523245253
 31
0.0
  0
LINE
  5
   4EB
  8
0
  6
CONTINUOUS
 62
    50
 10
35.6618011713017
 20
-11.3633245807674
 30
0.0
 11
35.7034530894607
 21
-10.865360083441
 31
0.0
  0
LINE
  5
   4EC
  8
0
  6
CONTINUOUS
 62
    50
 10
35.7034530894607
 20
-10.865360083441
 30
0.0
 11
35.82714999379
 21
-10.3812108942807
 31
0.0
  0
LINE
  5
   4ED
  8
0
  6
CONTINUOUS
 62
    50
 10
35.82714999379
 20
-10.3812108942808
 30
0.0
 11
36.0294952777094
 21
-9.92430779995324
 31
0.0
  0
LINE
  5
   4EE
  8
0
  6
CONTINUOUS
 62
    50
 10
36.0294952777094
 20
-9.92430779995323
 30
0.0
 11
36.3048676031049
 21
-9.50733085467312
 31
0.0
  0
LINE
  5
   4EF
  8
0
  6
CONTINUOUS
 62
    50
 10
36.6456406268999
 20
-9.14185232452527
 30
0.0
 11
37.0423477959839
 21
-8.83799794233401
 31
0.0
  0
LINE
  5
   4F0
  8
0
  6
CONTINUOUS
 62
    50
 10
37.0423477959839
 20
-8.83799794233407
 30
0.0
 11
63.2618388891224
 21
7.97660538695104
 31
0.0
  0
LINE
  5
   4F1
  8
0
  6
CONTINUOUS
 62
    50
 10
63.2618388891224
 20
7.97660538695108
 30
0.0
 11
63.2618388891224
 21
8.27662010891176
 31
0.0
  0
LINE
  5
   4F2
  8
0
  6
CONTINUOUS
 62
    50
 10
97.4618419075721
 20
-22.3233225748723
 30
0.0
 11
97.4618419075721
 21
8.27662010891176
 31
0.0
  0
LINE
  5
   4F3
  8
0
  6
CONTINUOUS
 62
    50
 10
97.4618001937854
 20
-22.3233274576809
 30
0.0
 11
70.4617979764926
 21
-22.3233274576809
 31
0.0
  0
LINE
  5
   4F4
  8
0
  6
CONTINUOUS
 62
    50
 10
70.4618682556343
 20
-22.3233134195985
 30
0.0
 11
70.4618682556343
 21
-14.1944648299856
 31
0.0
  0
LINE
  5
   4F5
  8
0
  6
CONTINUOUS
 62
    50
 10
70.4618025541295
 20
-14.1944648299856
 30
0.0
 11
70.5091170091346
 21
-13.6639533342956
 31
0.0
  0
LINE
  5
   4F6
  8
0
  6
CONTINUOUS
 62
    50
 10
71.5709456646091
 20
-11.8653997960306
 30
0.0
 11
72.0126052280575
 21
-11.5677252236552
 31
0.0
  0
LINE
  5
   4F7
  8
0
  6
CONTINUOUS
 62
    50
 10
70.5091170091346
 20
-13.6639533342955
 30
0.0
 11
70.6494673565085
 21
-13.1501593685667
 31
0.0
  0
LINE
  5
   4F8
  8
0
  6
CONTINUOUS
 62
    50
 10
71.1888823559703
 20
-12.2364905090186
 30
0.0
 11
71.5709456646091
 21
-11.8653997960306
 31
0.0
  0
LINE
  5
   4F9
  8
0
  6
CONTINUOUS
 62
    50
 10
70.8784590648266
 20
-12.6692877674273
 30
0.0
 11
71.1888823559703
 21
-12.2364905090186
 31
0.0
  0
LINE
  5
   4FA
  8
0
  6
CONTINUOUS
 62
    50
 10
70.6494673565085
 20
-13.1501593685667
 30
0.0
 11
70.8784590648265
 21
-12.6692877674273
 31
0.0
  0
LINE
  5
   4FB
  8
0
  6
CONTINUOUS
 62
    50
 10
72.0126052280575
 20
-11.5677252236552
 30
0.0
 11
78.362323192775
 21
-8.06443223776719
 31
0.0
  0
LINE
  5
   4FC
  8
0
  6
CONTINUOUS
 62
    50
 10
78.8483675236121
 20
-7.73001755162714
 30
0.0
 11
79.2595652023051
 21
-7.30694319399537
 31
0.0
  0
LINE
  5
   4FD
  8
0
  6
CONTINUOUS
 62
    50
 10
79.2595652023051
 20
-7.30694319399535
 30
0.0
 11
79.5800135182612
 21
-6.81156963915474
 31
0.0
  0
LINE
  5
   4FE
  8
0
  6
CONTINUOUS
 62
    50
 10
78.362323192775
 20
-8.06443223776717
 30
0.0
 11
78.8483675236121
 21
-7.73001755162714
 31
0.0
  0
LINE
  5
   4FF
  8
0
  6
CONTINUOUS
 62
    50
 10
79.5800135182612
 20
-6.81156963915474
 30
0.0
 11
84.2618397235874
 21
2.2766784026438
 31
0.0
  0
LINE
  5
   500
  8
0
  6
CONTINUOUS
 62
    50
 10
84.2618397235874
 20
2.27667840264384
 30
0.0
 11
84.2618397235874
 21
8.27662010891176
 31
0.0
  0
LINE
  5
   501
  8
0
  6
CONTINUOUS
 62
    50
 10
126.261857758376
 20
7.22645887276795
 30
0.0
 11
126.261857758376
 21
8.27662010891176
 31
0.0
  0
LINE
  5
   502
  8
0
  6
CONTINUOUS
 62
    50
 10
126.316537287025
 20
6.08097848057093
 30
0.0
 11
126.261771583555
 21
7.22645887276794
 31
0.0
  0
LINE
  5
   503
  8
0
  6
CONTINUOUS
 62
    50
 10
131.340470897303
 20
-2.57641322086481
 30
0.0
 11
130.436325811326
 21
-1.87096275337959
 31
0.0
  0
LINE
  5
   504
  8
0
  6
CONTINUOUS
 62
    50
 10
130.436325811326
 20
-1.87096275337957
 30
0.0
 11
129.603649081461
 21
-1.08242817614755
 31
0.0
  0
LINE
  5
   505
  8
0
  6
CONTINUOUS
 62
    50
 10
129.603649081461
 20
-1.08242817614759
 30
0.0
 11
128.850045307009
 21
-0.218014689650445
 31
0.0
  0
LINE
  5
   506
  8
0
  6
CONTINUOUS
 62
    50
 10
128.850045307009
 20
-0.218014689650431
 30
0.0
 11
128.182398109459
 21
0.714395015368972
 31
0.0
  0
LINE
  5
   507
  8
0
  6
CONTINUOUS
 62
    50
 10
128.182398109459
 20
0.714395015368943
 30
0.0
 11
127.606803756752
 21
1.70627737900156
 31
0.0
  0
LINE
  5
   508
  8
0
  6
CONTINUOUS
 62
    50
 10
127.606803756752
 20
1.70627737900158
 30
0.0
 11
127.128519664871
 21
2.74856868018411
 31
0.0
  0
LINE
  5
   509
  8
0
  6
CONTINUOUS
 62
    50
 10
127.128519664871
 20
2.74856868018411
 30
0.0
 11
126.751914043827
 21
3.83176574471089
 31
0.0
  0
LINE
  5
   50A
  8
0
  6
CONTINUOUS
 62
    50
 10
126.751914043827
 20
3.83176574471087
 30
0.0
 11
126.480426987751
 21
4.94595341105501
 31
0.0
  0
LINE
  5
   50B
  8
0
  6
CONTINUOUS
 62
    50
 10
126.480426987751
 20
4.94595341105502
 30
0.0
 11
126.316537287025
 21
6.08097848057093
 31
0.0
  0
LINE
  5
   50C
  8
0
  6
CONTINUOUS
 62
    50
 10
132.30782857124
 20
-3.19233426584709
 30
0.0
 11
131.340470897303
 21
-2.57641322086477
 31
0.0
  0
LINE
  5
   50D
  8
0
  6
CONTINUOUS
 62
    50
 10
138.550205528274
 20
-6.75959514978479
 30
0.0
 11
132.30782857124
 21
-3.19233426584707
 31
0.0
  0
LINE
  5
   50E
  8
0
  6
CONTINUOUS
 62
    50
 10
138.981595163336
 20
-7.05905500055145
 30
0.0
 11
138.550205528274
 21
-6.75959514978479
 31
0.0
  0
LINE
  5
   50F
  8
0
  6
CONTINUOUS
 62
    50
 10
139.354157586587
 20
-7.42915694396893
 30
0.0
 11
138.981595163336
 21
-7.05905500055146
 31
0.0
  0
LINE
  5
   510
  8
0
  6
CONTINUOUS
 62
    50
 10
139.656476171599
 20
-7.85854844052358
 30
0.0
 11
139.354157586587
 21
-7.42915694396891
 31
0.0
  0
LINE
  5
   511
  8
0
  6
CONTINUOUS
 62
    50
 10
139.879288070101
 20
-8.33407336176296
 30
0.0
 11
139.656476171599
 21
-7.85854844052355
 31
0.0
  0
LINE
  5
   512
  8
0
  6
CONTINUOUS
 62
    50
 10
140.015765736657
 20
-8.84117482234305
 30
0.0
 11
139.879288070101
 21
-8.33407336176296
 31
0.0
  0
LINE
  5
   513
  8
0
  6
CONTINUOUS
 62
    50
 10
140.061727499958
 20
-9.36429801207544
 30
0.0
 11
140.015765736657
 21
-8.84117482234308
 31
0.0
  0
LINE
  5
   514
  8
0
  6
CONTINUOUS
 62
    50
 10
140.061702322955
 20
-22.3233591986572
 30
0.0
 11
140.061727499958
 21
-9.36429801435664
 31
0.0
  0
LINE
  5
   515
  8
0
  6
CONTINUOUS
 62
    50
 10
167.061746851141
 20
-22.323386661789
 30
0.0
 11
140.061702290707
 21
-22.3233591959676
 31
0.0
  0
LINE
  5
   516
  8
0
  6
CONTINUOUS
 62
    50
 10
167.061851133312
 20
-22.3233866617889
 30
0.0
 11
167.061851133312
 21
-11.3634069782316
 31
0.0
  0
LINE
  5
   517
  8
0
  6
CONTINUOUS
 62
    50
 10
166.41868960686
 20
-9.50741325213735
 30
0.0
 11
166.077921160701
 21
-9.14193472198954
 31
0.0
  0
LINE
  5
   518
  8
0
  6
CONTINUOUS
 62
    50
 10
167.061756038663
 20
-11.3634069782316
 30
0.0
 11
167.020104120504
 21
-10.8654424809053
 31
0.0
  0
LINE
  5
   519
  8
0
  6
CONTINUOUS
 62
    50
 10
167.020104120504
 20
-10.8654424809053
 30
0.0
 11
166.896407216174
 21
-10.381293291745
 31
0.0
  0
LINE
  5
   51A
  8
0
  6
CONTINUOUS
 62
    50
 10
166.896407216174
 20
-10.381293291745
 30
0.0
 11
166.694066509892
 21
-9.92439019741746
 31
0.0
  0
LINE
  5
   51B
  8
0
  6
CONTINUOUS
 62
    50
 10
166.694066509892
 20
-9.92439019741744
 30
0.0
 11
166.41868960686
 21
-9.50741325213735
 31
0.0
  0
LINE
  5
   51C
  8
0
  6
CONTINUOUS
 62
    50
 10
166.077921160701
 20
-9.14193472198951
 30
0.0
 11
165.681213991617
 21
-8.83808033979822
 31
0.0
  0
LINE
  5
   51D
  8
0
  6
CONTINUOUS
 62
    50
 10
165.681213991617
 20
-8.83808033979825
 30
0.0
 11
139.461743497845
 21
7.97655045530825
 31
0.0
  0
LINE
  5
   51E
  8
0
  6
CONTINUOUS
 62
    50
 10
139.461743497845
 20
7.97655045530827
 30
0.0
 11
139.461743497845
 21
8.27662010891176
 31
0.0
  0
LINE
  5
   51F
  8
0
  6
CONTINUOUS
 62
    50
 10
105.261864962825
 20
-22.3233225748723
 30
0.0
 11
105.261864962825
 21
8.27662010891176
 31
0.0
  0
LINE
  5
   520
  8
0
  6
CONTINUOUS
 62
    50
 10
132.261743174616
 20
-22.3233500406938
 30
0.0
 11
105.261742101732
 21
-22.3233225748724
 31
0.0
  0
LINE
  5
   521
  8
0
  6
CONTINUOUS
 62
    50
 10
132.261743211743
 20
-22.3233500395454
 30
0.0
 11
132.261752367016
 21
-14.1945014494905
 31
0.0
  0
LINE
  5
   522
  8
0
  6
CONTINUOUS
 62
    50
 10
132.261752367016
 20
-14.1945014510807
 30
0.0
 11
132.214435623193
 21
-13.6639899553907
 31
0.0
  0
LINE
  5
   523
  8
0
  6
CONTINUOUS
 62
    50
 10
131.152611545355
 20
-11.8654364171258
 30
0.0
 11
130.710948548679
 21
-11.5677618447504
 31
0.0
  0
LINE
  5
   524
  8
0
  6
CONTINUOUS
 62
    50
 10
132.214435623193
 20
-13.6639899553908
 30
0.0
 11
132.074087564637
 21
-13.1502051449357
 31
0.0
  0
LINE
  5
   525
  8
0
  6
CONTINUOUS
 62
    50
 10
131.534674853994
 20
-12.2365271301138
 30
0.0
 11
131.152611545355
 21
-11.8654364171258
 31
0.0
  0
LINE
  5
   526
  8
0
  6
CONTINUOUS
 62
    50
 10
131.845093567501
 20
-12.6693243885226
 30
0.0
 11
131.534674853994
 21
-12.2365271301138
 31
0.0
  0
LINE
  5
   527
  8
0
  6
CONTINUOUS
 62
    50
 10
132.074087564637
 20
-13.1502051449357
 30
0.0
 11
131.845093567501
 21
-12.6693243885226
 31
0.0
  0
LINE
  5
   528
  8
0
  6
CONTINUOUS
 62
    50
 10
130.710948548679
 20
-11.5677618447504
 30
0.0
 11
124.361238594826
 21
-8.06446885886236
 31
0.0
  0
LINE
  5
   529
  8
0
  6
CONTINUOUS
 62
    50
 10
123.87519311958
 20
-7.7300450174486
 30
0.0
 11
123.463995440887
 21
-7.30697065981683
 31
0.0
  0
LINE
  5
   52A
  8
0
  6
CONTINUOUS
 62
    50
 10
123.463995440887
 20
-7.30697065981679
 30
0.0
 11
123.14354826934
 21
-6.81159710497617
 31
0.0
  0
LINE
  5
   52B
  8
0
  6
CONTINUOUS
 62
    50
 10
124.361238594826
 20
-8.0644688588624
 30
0.0
 11
123.87519311958
 21
-7.73004501744857
 31
0.0
  0
LINE
  5
   52C
  8
0
  6
CONTINUOUS
 62
    50
 10
123.14354826934
 20
-6.81159710497617
 30
0.0
 11
118.461734080311
 21
2.27665093682241
 31
0.0
  0
LINE
  5
   52D
  8
0
  6
CONTINUOUS
 62
    50
 10
118.461734080311
 20
2.27665093751533
 30
0.0
 11
118.461741814326
 21
8.27662010891174
 31
0.0
  0
CIRCLE
  5
   52E
  8
0
  6
CONTINUOUS
 62
    50
 10
160.311720263541
 20
-16.3234078097965
 30
0.0
 40
1.949987846337
  0
CIRCLE
  5
   52F
  8
0
  6
CONTINUOUS
 62
    50
 10
153.561726922201
 20
-16.3234078097903
 30
0.0
 40
1.94998784634372
  0
CIRCLE
  5
   530
  8
0
  6
CONTINUOUS
 62
    50
 10
146.811753792489
 20
-16.3233385170042
 30
0.0
 40
1.95004798409219
  0
CIRCLE
  5
   531
  8
0
  6
CONTINUOUS
 62
    50
 10
125.511732250807
 20
-16.3234093343445
 30
0.0
 40
1.94994970072147
  0
CIRCLE
  5
   532
  8
0
  6
CONTINUOUS
 62
    50
 10
118.7617225343
 20
-16.3233498025262
 30
0.0
 40
1.95000007723619
  0
CIRCLE
  5
   533
  8
0
  6
CONTINUOUS
 62
    50
 10
112.011705611544
 20
-16.323337857476
 30
0.0
 40
1.94999027341147
  0
CIRCLE
  5
   534
  8
0
  6
CONTINUOUS
 62
    50
 10
90.7118274631831
 20
-16.3233232699603
 30
0.0
 40
1.94999914398019
  0
CIRCLE
  5
   535
  8
0
  6
CONTINUOUS
 62
    50
 10
83.9618259787563
 20
-16.3233171556595
 30
0.0
 40
1.95000525827998
  0
CIRCLE
  5
   536
  8
0
  6
CONTINUOUS
 62
    50
 10
77.2118270594013
 20
-16.3233207360089
 30
0.0
 40
1.94999847704217
  0
CIRCLE
  5
   537
  8
0
  6
CONTINUOUS
 62
    50
 10
55.9118260803556
 20
-16.3233214029512
 30
0.0
 40
1.94999914398355
  0
CIRCLE
  5
   538
  8
0
  6
CONTINUOUS
 62
    50
 10
49.1618211324879
 20
-16.3233101053029
 30
0.0
 40
1.94998784633834
  0
CIRCLE
  5
   539
  8
0
  6
CONTINUOUS
 62
    50
 10
42.4118243277066
 20
-16.3233152886865
 30
0.0
 40
1.94999396056341
  0
LINE
  5
   53A
  8
0
  6
DASHDOT
 62
     7
 10
42.4118243277066
 20
-18.8733092730917
 30
0.0
 11
42.4118243277066
 21
-13.7733213042812
 31
0.0
  0
LINE
  5
   53B
  8
0
  6
DASHDOT
 62
     7
 10
44.9618183121118
 20
-16.3233152886865
 30
0.0
 11
39.8618303433013
 21
-16.3233152886865
 31
0.0
  0
LINE
  5
   53C
  8
0
  6
DASHDOT
 62
     7
 10
49.1618211324879
 20
-18.8732979754831
 30
0.0
 11
49.1618211324879
 21
-13.7733222351227
 31
0.0
  0
LINE
  5
   53D
  8
0
  6
DASHDOT
 62
     7
 10
51.711809002668
 20
-16.3233101053029
 30
0.0
 11
46.6118332623076
 21
-16.3233101053029
 31
0.0
  0
LINE
  5
   53E
  8
0
  6
DASHDOT
 62
     7
 10
55.9118260803556
 20
-18.8733205707766
 30
0.0
 11
55.9118260803556
 21
-13.7733222351258
 31
0.0
  0
LINE
  5
   53F
  8
0
  6
DASHDOT
 62
     7
 10
58.461825248181
 20
-16.3233214029512
 30
0.0
 11
53.3618269125302
 21
-16.3233214029512
 31
0.0
  0
LINE
  5
   540
  8
0
  6
DASHDOT
 62
     7
 10
77.2118270594012
 20
-18.8733192368929
 30
0.0
 11
77.2118270594012
 21
-13.7733222351249
 31
0.0
  0
LINE
  5
   541
  8
0
  6
DASHDOT
 62
     7
 10
79.7618255602853
 20
-16.3233207360089
 30
0.0
 11
74.6618285585172
 21
-16.3233207360089
 31
0.0
  0
LINE
  5
   542
  8
0
  6
DASHDOT
 62
     7
 10
83.9618259787563
 20
-18.8733224377813
 30
0.0
 11
83.9618259787563
 21
-13.7733118735377
 31
0.0
  0
LINE
  5
   543
  8
0
  6
DASHDOT
 62
     7
 10
86.5118312608782
 20
-16.3233171556595
 30
0.0
 11
81.4118206966345
 21
-16.3233171556595
 31
0.0
  0
LINE
  5
   544
  8
0
  6
DASHDOT
 62
     7
 10
90.7118274631831
 20
-18.8733224377824
 30
0.0
 11
90.7118274631831
 21
-13.7733241021383
 31
0.0
  0
LINE
  5
   545
  8
0
  6
DASHDOT
 62
     7
 10
93.2618266310051
 20
-16.3233232699603
 30
0.0
 11
88.161828295361
 21
-16.3233232699603
 31
0.0
  0
LINE
  5
   546
  8
0
  6
DASHDOT
 62
     7
 10
112.011705611544
 20
-18.8733281547293
 30
0.0
 11
112.011705611544
 21
-13.7733475602227
 31
0.0
  0
LINE
  5
   547
  8
0
  6
DASHDOT
 62
     7
 10
114.561695908797
 20
-16.323337857476
 30
0.0
 11
109.46171531429
 21
-16.323337857476
 31
0.0
  0
LINE
  5
   548
  8
0
  6
DASHDOT
 62
     7
 10
118.7617225343
 20
-18.8733499036043
 30
0.0
 11
118.7617225343
 21
-13.7733497014482
 31
0.0
  0
LINE
  5
   549
  8
0
  6
DASHDOT
 62
     7
 10
121.311722635378
 20
-16.3233498025262
 30
0.0
 11
116.211722433222
 21
-16.3233498025262
 31
0.0
  0
LINE
  5
   54A
  8
0
  6
DASHDOT
 62
     7
 10
125.511732250807
 20
-18.8733590589078
 30
0.0
 11
125.511732250807
 21
-13.7734596097811
 31
0.0
  0
LINE
  5
   54B
  8
0
  6
DASHDOT
 62
     7
 10
128.06168197537
 20
-16.3234093343445
 30
0.0
 11
122.961782526243
 21
-16.3234093343445
 31
0.0
  0
LINE
  5
   54C
  8
0
  6
DASHDOT
 62
     7
 10
146.811753792489
 20
-18.8733865249383
 30
0.0
 11
146.811753792489
 21
-13.7732905090702
 31
0.0
  0
LINE
  5
   54D
  8
0
  6
DASHDOT
 62
     7
 10
149.361801800423
 20
-16.3233385170042
 30
0.0
 11
144.261705784555
 21
-16.3233385170042
 31
0.0
  0
LINE
  5
   54E
  8
0
  6
DASHDOT
 62
     7
 10
153.561726922201
 20
-18.8733956799759
 30
0.0
 11
153.561726922201
 21
-13.7734199396047
 31
0.0
  0
LINE
  5
   54F
  8
0
  6
DASHDOT
 62
     7
 10
156.111714792387
 20
-16.3234078097903
 30
0.0
 11
151.011739052016
 21
-16.3234078097903
 31
0.0
  0
LINE
  5
   550
  8
0
  6
DASHDOT
 62
     7
 10
160.311720263541
 20
-18.8733956799754
 30
0.0
 11
160.311720263541
 21
-13.7734199396177
 31
0.0
  0
LINE
  5
   551
  8
0
  6
DASHDOT
 62
     7
 10
162.86170813372
 20
-16.3234078097965
 30
0.0
 11
157.761732393362
 21
-16.3234078097965
 31
0.0
  0
POINT
  5
   552
  8
0
  6
CONTINUOUS
 62
     7
 10
111.861831665039
 20
8.27662010891176
 30
0.0
  0
LINE
  5
   553
  8
0
  6
CONTINUOUS
 62
    50
 10
76.4618096590034
 20
130.076479863874
 30
0.0
 11
76.4618096590034
 21
131.126657480003
 31
0.0
  0
LINE
  5
   554
  8
0
  6
CONTINUOUS
 62
    50
 10
76.4618096590034
 20
131.126657480003
 30
0.0
 11
76.407042811124
 21
132.2721378722
 31
0.0
  0
LINE
  5
   555
  8
0
  6
CONTINUOUS
 62
    50
 10
72.2872451315488
 20
140.22407910615
 30
0.0
 11
71.3830977567541
 21
140.929529573636
 31
0.0
  0
LINE
  5
   556
  8
0
  6
CONTINUOUS
 62
    50
 10
73.1199218614138
 20
139.435544528918
 30
0.0
 11
72.2872451315488
 21
140.22407910615
 31
0.0
  0
LINE
  5
   557
  8
0
  6
CONTINUOUS
 62
    50
 10
73.8735267802754
 20
138.571131042421
 30
0.0
 11
73.1199218614138
 21
139.435544528918
 31
0.0
  0
LINE
  5
   558
  8
0
  6
CONTINUOUS
 62
    50
 10
74.541175122235
 20
137.638721337402
 30
0.0
 11
73.8735267802754
 21
138.571131042421
 31
0.0
  0
LINE
  5
   559
  8
0
  6
CONTINUOUS
 62
    50
 10
75.1167694749411
 20
136.646848129043
 30
0.0
 11
74.541175122235
 21
137.638721337402
 31
0.0
  0
LINE
  5
   55A
  8
0
  6
CONTINUOUS
 62
    50
 10
75.5950547112316
 20
135.604547672587
 30
0.0
 11
75.1167694749411
 21
136.646848129043
 31
0.0
  0
LINE
  5
   55B
  8
0
  6
CONTINUOUS
 62
    50
 10
75.9716614766849
 20
134.521359763334
 30
0.0
 11
75.5950547112316
 21
135.604547672587
 31
0.0
  0
LINE
  5
   55C
  8
0
  6
CONTINUOUS
 62
    50
 10
76.2431519659885
 20
133.407162941716
 30
0.0
 11
75.9716614766849
 21
134.521359763334
 31
0.0
  0
LINE
  5
   55D
  8
0
  6
CONTINUOUS
 62
    50
 10
76.407042811124
 20
132.2721378722
 30
0.0
 11
76.2431519659885
 21
133.407162941716
 31
0.0
  0
LINE
  5
   55E
  8
0
  6
CONTINUOUS
 62
    50
 10
71.3830977567541
 20
140.929529573636
 30
0.0
 11
70.4157377939983
 21
141.545441463344
 31
0.0
  0
LINE
  5
   55F
  8
0
  6
CONTINUOUS
 62
    50
 10
70.4157377939982
 20
141.545441463344
 30
0.0
 11
64.1733562593272
 21
145.112702347282
 31
0.0
  0
LINE
  5
   560
  8
0
  6
CONTINUOUS
 62
    50
 10
64.1733562593272
 20
145.112702347282
 30
0.0
 11
63.7419689130838
 21
145.412162198048
 31
0.0
  0
LINE
  5
   561
  8
0
  6
CONTINUOUS
 62
    50
 10
63.7419689130839
 20
145.412162198048
 30
0.0
 11
63.3694042010139
 21
145.782254986192
 31
0.0
  0
LINE
  5
   562
  8
0
  6
CONTINUOUS
 62
    50
 10
63.3694042010138
 20
145.782254986192
 30
0.0
 11
63.0670833271843
 21
146.211646482747
 31
0.0
  0
LINE
  5
   563
  8
0
  6
CONTINUOUS
 62
    50
 10
63.0670833271843
 20
146.211646482747
 30
0.0
 11
62.8442714286821
 21
146.68718055926
 31
0.0
  0
LINE
  5
   564
  8
0
  6
CONTINUOUS
 62
    50
 10
62.8442714286821
 20
146.68718055926
 30
0.0
 11
62.7077937621261
 21
147.194272864566
 31
0.0
  0
LINE
  5
   565
  8
0
  6
CONTINUOUS
 62
    50
 10
62.7077937621261
 20
147.194272864566
 30
0.0
 11
62.6618342876436
 21
147.717396054299
 31
0.0
  0
LINE
  5
   566
  8
0
  6
CONTINUOUS
 62
    50
 10
62.6617947812017
 20
147.717396054299
 30
0.0
 11
62.6617947812017
 21
160.676457238191
 31
0.0
  0
LINE
  5
   567
  8
0
  6
CONTINUOUS
 62
    50
 10
62.6618388652805
 20
160.676473921091
 30
0.0
 11
35.6617965936648
 21
160.676473921091
 31
0.0
  0
LINE
  5
   568
  8
0
  6
CONTINUOUS
 62
    50
 10
35.6618487186642
 20
149.716477554633
 30
0.0
 11
35.6618487186642
 21
160.676448082917
 31
0.0
  0
LINE
  5
   569
  8
0
  6
CONTINUOUS
 62
    50
 10
36.6456406268999
 20
147.495005298391
 30
0.0
 11
36.3048676031049
 21
147.860483828539
 31
0.0
  0
LINE
  5
   56A
  8
0
  6
CONTINUOUS
 62
    50
 10
35.7034530894607
 20
149.218513057307
 30
0.0
 11
35.6618011713017
 21
149.716477554633
 31
0.0
  0
LINE
  5
   56B
  8
0
  6
CONTINUOUS
 62
    50
 10
35.82714999379
 20
148.734363868147
 30
0.0
 11
35.7034530894607
 21
149.218513057307
 31
0.0
  0
LINE
  5
   56C
  8
0
  6
CONTINUOUS
 62
    50
 10
36.0294952777094
 20
148.277460773819
 30
0.0
 11
35.82714999379
 21
148.734363868147
 31
0.0
  0
LINE
  5
   56D
  8
0
  6
CONTINUOUS
 62
    50
 10
36.3048676031049
 20
147.860483828539
 30
0.0
 11
36.0294952777094
 21
148.277460773819
 31
0.0
  0
LINE
  5
   56E
  8
0
  6
CONTINUOUS
 62
    50
 10
37.0423477959839
 20
147.1911509162
 30
0.0
 11
36.6456406268999
 21
147.495005298391
 31
0.0
  0
LINE
  5
   56F
  8
0
  6
CONTINUOUS
 62
    50
 10
63.2618388891224
 20
130.376547586915
 30
0.0
 11
37.0423477959839
 21
147.1911509162
 31
0.0
  0
LINE
  5
   570
  8
0
  6
CONTINUOUS
 62
    50
 10
63.2618388891224
 20
130.076460100812
 30
0.0
 11
63.2618388891224
 21
130.376547586915
 31
0.0
  0
LINE
  5
   571
  8
0
  6
CONTINUOUS
 62
    50
 10
97.4618419075721
 20
130.076511305228
 30
0.0
 11
97.4618419075721
 21
160.676475548738
 31
0.0
  0
LINE
  5
   572
  8
0
  6
CONTINUOUS
 62
    50
 10
97.4618001937854
 20
160.676480431547
 30
0.0
 11
70.4617979764926
 21
160.676480431547
 31
0.0
  0
LINE
  5
   573
  8
0
  6
CONTINUOUS
 62
    50
 10
70.4618682556343
 20
152.547617803852
 30
0.0
 11
70.4618682556343
 21
160.676466393465
 31
0.0
  0
LINE
  5
   574
  8
0
  6
CONTINUOUS
 62
    50
 10
70.5091170091346
 20
152.017106308162
 30
0.0
 11
70.4618025541295
 21
152.547617803852
 31
0.0
  0
LINE
  5
   575
  8
0
  6
CONTINUOUS
 62
    50
 10
72.0126052280576
 20
149.920878197521
 30
0.0
 11
71.5709456646092
 21
150.218552769897
 31
0.0
  0
LINE
  5
   576
  8
0
  6
CONTINUOUS
 62
    50
 10
70.6494673565085
 20
151.503312342433
 30
0.0
 11
70.5091170091346
 21
152.017106308162
 31
0.0
  0
LINE
  5
   577
  8
0
  6
CONTINUOUS
 62
    50
 10
71.5709456646091
 20
150.218552769897
 30
0.0
 11
71.1888823559703
 21
150.589643482885
 31
0.0
  0
LINE
  5
   578
  8
0
  6
CONTINUOUS
 62
    50
 10
71.1888823559702
 20
150.589643482885
 30
0.0
 11
70.8784590648265
 21
151.022440741293
 31
0.0
  0
LINE
  5
   579
  8
0
  6
CONTINUOUS
 62
    50
 10
70.8784590648265
 20
151.022440741293
 30
0.0
 11
70.6494673565085
 21
151.503312342433
 31
0.0
  0
LINE
  5
   57A
  8
0
  6
CONTINUOUS
 62
    50
 10
78.3623231927749
 20
146.417585211633
 30
0.0
 11
72.0126052280575
 21
149.920878197521
 31
0.0
  0
LINE
  5
   57B
  8
0
  6
CONTINUOUS
 62
    50
 10
79.2595652023052
 20
145.660096167861
 30
0.0
 11
78.8483675236122
 21
146.083170525493
 31
0.0
  0
LINE
  5
   57C
  8
0
  6
CONTINUOUS
 62
    50
 10
79.5800135182612
 20
145.164722613021
 30
0.0
 11
79.2595652023051
 21
145.660096167861
 31
0.0
  0
LINE
  5
   57D
  8
0
  6
CONTINUOUS
 62
    50
 10
78.8483675236121
 20
146.083170525493
 30
0.0
 11
78.362323192775
 21
146.417585211633
 31
0.0
  0
LINE
  5
   57E
  8
0
  6
CONTINUOUS
 62
    50
 10
84.2618397235874
 20
136.076474571222
 30
0.0
 11
79.5800135182612
 21
145.164722613021
 31
0.0
  0
LINE
  5
   57F
  8
0
  6
CONTINUOUS
 62
    50
 10
84.2618397235874
 20
130.076491542118
 30
0.0
 11
84.2618397235874
 21
136.076474571222
 31
0.0
  0
LINE
  5
   580
  8
0
  6
CONTINUOUS
 62
    50
 10
126.261857758376
 20
130.076554424755
 30
0.0
 11
126.261857758376
 21
131.126694101098
 31
0.0
  0
LINE
  5
   581
  8
0
  6
CONTINUOUS
 62
    50
 10
126.261771583555
 20
131.126694101098
 30
0.0
 11
126.316537287025
 21
132.272174493295
 31
0.0
  0
LINE
  5
   582
  8
0
  6
CONTINUOUS
 62
    50
 10
130.436325811326
 20
140.224115727246
 30
0.0
 11
131.340470897303
 21
140.929566194731
 31
0.0
  0
LINE
  5
   583
  8
0
  6
CONTINUOUS
 62
    50
 10
129.603649081461
 20
139.435581150014
 30
0.0
 11
130.436325811326
 21
140.224115727246
 31
0.0
  0
LINE
  5
   584
  8
0
  6
CONTINUOUS
 62
    50
 10
128.850045307009
 20
138.571167663516
 30
0.0
 11
129.603649081461
 21
139.435581150014
 31
0.0
  0
LINE
  5
   585
  8
0
  6
CONTINUOUS
 62
    50
 10
128.182398109459
 20
137.638757958497
 30
0.0
 11
128.850045307009
 21
138.571167663516
 31
0.0
  0
LINE
  5
   586
  8
0
  6
CONTINUOUS
 62
    50
 10
127.606803756752
 20
136.646875594864
 30
0.0
 11
128.182398109459
 21
137.638757958497
 31
0.0
  0
LINE
  5
   587
  8
0
  6
CONTINUOUS
 62
    50
 10
127.128519664871
 20
135.604584293682
 30
0.0
 11
127.606803756752
 21
136.646875594864
 31
0.0
  0
LINE
  5
   588
  8
0
  6
CONTINUOUS
 62
    50
 10
126.751914043827
 20
134.521387229155
 30
0.0
 11
127.128519664871
 21
135.604584293682
 31
0.0
  0
LINE
  5
   589
  8
0
  6
CONTINUOUS
 62
    50
 10
126.480426987751
 20
133.407199562811
 30
0.0
 11
126.751914043827
 21
134.521387229155
 31
0.0
  0
LINE
  5
   58A
  8
0
  6
CONTINUOUS
 62
    50
 10
126.316537287025
 20
132.272174493295
 30
0.0
 11
126.480426987751
 21
133.407199562811
 31
0.0
  0
LINE
  5
   58B
  8
0
  6
CONTINUOUS
 62
    50
 10
131.340470897303
 20
140.929566194731
 30
0.0
 11
132.30782857124
 21
141.545487239713
 31
0.0
  0
LINE
  5
   58C
  8
0
  6
CONTINUOUS
 62
    50
 10
132.30782857124
 20
141.545487239713
 30
0.0
 11
138.550205528274
 21
145.112748123651
 31
0.0
  0
LINE
  5
   58D
  8
0
  6
CONTINUOUS
 62
    50
 10
138.550205528274
 20
145.112748123651
 30
0.0
 11
138.981595163336
 21
145.412207974417
 31
0.0
  0
LINE
  5
   58E
  8
0
  6
CONTINUOUS
 62
    50
 10
138.981595163336
 20
145.412207974417
 30
0.0
 11
139.354157586587
 21
145.782309917835
 31
0.0
  0
LINE
  5
   58F
  8
0
  6
CONTINUOUS
 62
    50
 10
139.354157586587
 20
145.782309917835
 30
0.0
 11
139.656476171599
 21
146.21170141439
 31
0.0
  0
LINE
  5
   590
  8
0
  6
CONTINUOUS
 62
    50
 10
139.656476171599
 20
146.21170141439
 30
0.0
 11
139.879288070101
 21
146.687226335629
 31
0.0
  0
LINE
  5
   591
  8
0
  6
CONTINUOUS
 62
    50
 10
139.879288070101
 20
146.687226335629
 30
0.0
 11
140.015765736657
 21
147.194327796209
 31
0.0
  0
LINE
  5
   592
  8
0
  6
CONTINUOUS
 62
    50
 10
140.015765736657
 20
147.194327796209
 30
0.0
 11
140.061727499958
 21
147.717450985941
 31
0.0
  0
LINE
  5
   593
  8
0
  6
CONTINUOUS
 62
    50
 10
140.061727499958
 20
147.717450988223
 30
0.0
 11
140.061702322955
 21
160.676512172523
 31
0.0
  0
LINE
  5
   594
  8
0
  6
CONTINUOUS
 62
    50
 10
140.061702224133
 20
160.676512169834
 30
0.0
 11
167.061746784568
 21
160.676539635655
 31
0.0
  0
LINE
  5
   595
  8
0
  6
CONTINUOUS
 62
    50
 10
167.061851133312
 20
149.716559952098
 30
0.0
 11
167.061851133312
 21
160.676539635655
 31
0.0
  0
LINE
  5
   596
  8
0
  6
CONTINUOUS
 62
    50
 10
166.077921160701
 20
147.495087695856
 30
0.0
 11
166.41868960686
 21
147.860566226003
 31
0.0
  0
LINE
  5
   597
  8
0
  6
CONTINUOUS
 62
    50
 10
167.020104120504
 20
149.218595454771
 30
0.0
 11
167.061756038663
 21
149.716559952098
 31
0.0
  0
LINE
  5
   598
  8
0
  6
CONTINUOUS
 62
    50
 10
166.896407216174
 20
148.734446265611
 30
0.0
 11
167.020104120504
 21
149.218595454771
 31
0.0
  0
LINE
  5
   599
  8
0
  6
CONTINUOUS
 62
    50
 10
166.694066509892
 20
148.277543171283
 30
0.0
 11
166.896407216174
 21
148.734446265611
 31
0.0
  0
LINE
  5
   59A
  8
0
  6
CONTINUOUS
 62
    50
 10
166.41868960686
 20
147.860566226003
 30
0.0
 11
166.694066509892
 21
148.277543171284
 31
0.0
  0
LINE
  5
   59B
  8
0
  6
CONTINUOUS
 62
    50
 10
165.681213991617
 20
147.191233313664
 30
0.0
 11
166.077921160701
 21
147.495087695856
 31
0.0
  0
LINE
  5
   59C
  8
0
  6
CONTINUOUS
 62
    50
 10
139.461743497845
 20
130.376602518558
 30
0.0
 11
165.681213991617
 21
147.191233313664
 31
0.0
  0
LINE
  5
   59D
  8
0
  6
CONTINUOUS
 62
    50
 10
139.461743497845
 20
130.07657418769
 30
0.0
 11
139.461743497845
 21
130.376602518558
 31
0.0
  0
LINE
  5
   59E
  8
0
  6
CONTINUOUS
 62
    50
 10
105.261864962825
 20
130.076522983461
 30
0.0
 11
105.261864962825
 21
160.676475548738
 31
0.0
  0
LINE
  5
   59F
  8
0
  6
CONTINUOUS
 62
    50
 10
105.261742035
 20
160.676475548738
 30
0.0
 11
132.261743107884
 21
160.67650301456
 31
0.0
  0
LINE
  5
   5A0
  8
0
  6
CONTINUOUS
 62
    50
 10
132.261752367016
 20
152.547654423357
 30
0.0
 11
132.261743211743
 21
160.676503013411
 31
0.0
  0
LINE
  5
   5A1
  8
0
  6
CONTINUOUS
 62
    50
 10
132.214435623193
 20
152.017142929257
 30
0.0
 11
132.261752367016
 21
152.547654424947
 31
0.0
  0
LINE
  5
   5A2
  8
0
  6
CONTINUOUS
 62
    50
 10
130.710948548679
 20
149.920914818616
 30
0.0
 11
131.152611545355
 21
150.218589390992
 31
0.0
  0
LINE
  5
   5A3
  8
0
  6
CONTINUOUS
 62
    50
 10
132.074087564637
 20
151.503358118802
 30
0.0
 11
132.214435623193
 21
152.017142929257
 31
0.0
  0
LINE
  5
   5A4
  8
0
  6
CONTINUOUS
 62
    50
 10
131.152611545355
 20
150.218589390992
 30
0.0
 11
131.534674853994
 21
150.58968010398
 31
0.0
  0
LINE
  5
   5A5
  8
0
  6
CONTINUOUS
 62
    50
 10
131.534674853994
 20
150.58968010398
 30
0.0
 11
131.845093567501
 21
151.022477362389
 31
0.0
  0
LINE
  5
   5A6
  8
0
  6
CONTINUOUS
 62
    50
 10
131.845093567501
 20
151.022477362389
 30
0.0
 11
132.074087564637
 21
151.503358118802
 31
0.0
  0
LINE
  5
   5A7
  8
0
  6
CONTINUOUS
 62
    50
 10
124.361238594826
 20
146.417621832728
 30
0.0
 11
130.710948548679
 21
149.920914818616
 31
0.0
  0
LINE
  5
   5A8
  8
0
  6
CONTINUOUS
 62
    50
 10
123.463995440887
 20
145.660123633683
 30
0.0
 11
123.87519311958
 21
146.083197991315
 31
0.0
  0
LINE
  5
   5A9
  8
0
  6
CONTINUOUS
 62
    50
 10
123.14354826934
 20
145.164750078842
 30
0.0
 11
123.463995440887
 21
145.660123633683
 31
0.0
  0
LINE
  5
   5AA
  8
0
  6
CONTINUOUS
 62
    50
 10
123.87519311958
 20
146.083197991315
 30
0.0
 11
124.361238594826
 21
146.417621832728
 31
0.0
  0
LINE
  5
   5AB
  8
0
  6
CONTINUOUS
 62
    50
 10
118.461734080311
 20
136.076502037044
 30
0.0
 11
123.14354826934
 21
145.164750078842
 31
0.0
  0
LINE
  5
   5AC
  8
0
  6
CONTINUOUS
 62
    50
 10
118.461741814313
 20
130.076542746383
 30
0.0
 11
118.461734080311
 21
136.076502036351
 31
0.0
  0
CIRCLE
  5
   5AD
  8
0
  6
CONTINUOUS
 62
    50
 10
160.311720263541
 20
154.676560783663
 30
0.0
 40
1.949987846337
  0
CIRCLE
  5
   5AE
  8
0
  6
CONTINUOUS
 62
    50
 10
153.561726922201
 20
154.676560783656
 30
0.0
 40
1.94998784634372
  0
CIRCLE
  5
   5AF
  8
0
  6
CONTINUOUS
 62
    50
 10
146.811753792489
 20
154.67649149087
 30
0.0
 40
1.95004798409219
  0
CIRCLE
  5
   5B0
  8
0
  6
CONTINUOUS
 62
    50
 10
125.511732250807
 20
154.676562308211
 30
0.0
 40
1.94994970072147
  0
CIRCLE
  5
   5B1
  8
0
  6
CONTINUOUS
 62
    50
 10
118.7617225343
 20
154.676502776392
 30
0.0
 40
1.95000007723619
  0
CIRCLE
  5
   5B2
  8
0
  6
CONTINUOUS
 62
    50
 10
112.011705611544
 20
154.676490831342
 30
0.0
 40
1.94999027341147
  0
CIRCLE
  5
   5B3
  8
0
  6
CONTINUOUS
 62
    50
 10
90.7118274631831
 20
154.676476243826
 30
0.0
 40
1.94999914398019
  0
CIRCLE
  5
   5B4
  8
0
  6
CONTINUOUS
 62
    50
 10
83.9618259787563
 20
154.676470129526
 30
0.0
 40
1.95000525827998
  0
CIRCLE
  5
   5B5
  8
0
  6
CONTINUOUS
 62
    50
 10
77.2118270594013
 20
154.676473709875
 30
0.0
 40
1.94999847704217
  0
CIRCLE
  5
   5B6
  8
0
  6
CONTINUOUS
 62
    50
 10
55.9118260803556
 20
154.676474376817
 30
0.0
 40
1.94999914398355
  0
CIRCLE
  5
   5B7
  8
0
  6
CONTINUOUS
 62
    50
 10
49.1618211324879
 20
154.676463079169
 30
0.0
 40
1.94998784633834
  0
CIRCLE
  5
   5B8
  8
0
  6
CONTINUOUS
 62
    50
 10
42.4118243277066
 20
154.676468262553
 30
0.0
 40
1.94999396056341
  0
LINE
  5
   5B9
  8
0
  6
DASHDOT
 62
     7
 10
42.4118243277066
 20
152.126474278147
 30
0.0
 11
42.4118243277066
 21
157.226462246958
 31
0.0
  0
LINE
  5
   5BA
  8
0
  6
DASHDOT
 62
     7
 10
44.9618183121118
 20
154.676468262553
 30
0.0
 11
39.8618303433013
 21
154.676468262553
 31
0.0
  0
LINE
  5
   5BB
  8
0
  6
DASHDOT
 62
     7
 10
49.1618211324879
 20
152.126475208989
 30
0.0
 11
49.1618211324879
 21
157.226450949349
 31
0.0
  0
LINE
  5
   5BC
  8
0
  6
DASHDOT
 62
     7
 10
51.711809002668
 20
154.676463079169
 30
0.0
 11
46.6118332623076
 21
154.676463079169
 31
0.0
  0
LINE
  5
   5BD
  8
0
  6
DASHDOT
 62
     7
 10
55.9118260803556
 20
152.126475208992
 30
0.0
 11
55.9118260803556
 21
157.226473544643
 31
0.0
  0
LINE
  5
   5BE
  8
0
  6
DASHDOT
 62
     7
 10
58.461825248181
 20
154.676474376817
 30
0.0
 11
53.3618269125302
 21
154.676474376817
 31
0.0
  0
LINE
  5
   5BF
  8
0
  6
DASHDOT
 62
     7
 10
77.2118270594013
 20
152.126475208991
 30
0.0
 11
77.2118270594013
 21
157.226472210759
 31
0.0
  0
LINE
  5
   5C0
  8
0
  6
DASHDOT
 62
     7
 10
79.7618255602853
 20
154.676473709875
 30
0.0
 11
74.6618285585172
 21
154.676473709875
 31
0.0
  0
LINE
  5
   5C1
  8
0
  6
DASHDOT
 62
     7
 10
83.9618259787563
 20
152.126464847404
 30
0.0
 11
83.9618259787563
 21
157.226475411647
 31
0.0
  0
LINE
  5
   5C2
  8
0
  6
DASHDOT
 62
     7
 10
86.5118312608782
 20
154.676470129526
 30
0.0
 11
81.4118206966345
 21
154.676470129526
 31
0.0
  0
LINE
  5
   5C3
  8
0
  6
DASHDOT
 62
     7
 10
90.7118274631831
 20
152.126477076004
 30
0.0
 11
90.7118274631831
 21
157.226475411648
 31
0.0
  0
LINE
  5
   5C4
  8
0
  6
DASHDOT
 62
     7
 10
93.2618266310051
 20
154.676476243826
 30
0.0
 11
88.161828295361
 21
154.676476243826
 31
0.0
  0
LINE
  5
   5C5
  8
0
  6
DASHDOT
 62
     7
 10
112.011705611544
 20
152.126500534089
 30
0.0
 11
112.011705611544
 21
157.226481128595
 31
0.0
  0
LINE
  5
   5C6
  8
0
  6
DASHDOT
 62
     7
 10
114.561695908797
 20
154.676490831342
 30
0.0
 11
109.46171531429
 21
154.676490831342
 31
0.0
  0
LINE
  5
   5C7
  8
0
  6
DASHDOT
 62
     7
 10
118.7617225343
 20
152.126502675314
 30
0.0
 11
118.7617225343
 21
157.22650287747
 31
0.0
  0
LINE
  5
   5C8
  8
0
  6
DASHDOT
 62
     7
 10
121.311722635378
 20
154.676502776392
 30
0.0
 11
116.211722433222
 21
154.676502776392
 31
0.0
  0
LINE
  5
   5C9
  8
0
  6
DASHDOT
 62
     7
 10
125.511732250807
 20
152.126612583647
 30
0.0
 11
125.511732250807
 21
157.226512032774
 31
0.0
  0
LINE
  5
   5CA
  8
0
  6
DASHDOT
 62
     7
 10
128.06168197537
 20
154.676562308211
 30
0.0
 11
122.961782526243
 21
154.676562308211
 31
0.0
  0
LINE
  5
   5CB
  8
0
  6
DASHDOT
 62
     7
 10
146.811753792489
 20
152.126443482936
 30
0.0
 11
146.811753792489
 21
157.226539498804
 31
0.0
  0
LINE
  5
   5CC
  8
0
  6
DASHDOT
 62
     7
 10
149.361801800423
 20
154.67649149087
 30
0.0
 11
144.261705784555
 21
154.67649149087
 31
0.0
  0
LINE
  5
   5CD
  8
0
  6
DASHDOT
 62
     7
 10
153.561726922201
 20
152.126572913471
 30
0.0
 11
153.561726922201
 21
157.226548653842
 31
0.0
  0
LINE
  5
   5CE
  8
0
  6
DASHDOT
 62
     7
 10
156.111714792387
 20
154.676560783656
 30
0.0
 11
151.011739052016
 21
154.676560783656
 31
0.0
  0
LINE
  5
   5CF
  8
0
  6
DASHDOT
 62
     7
 10
160.311720263541
 20
152.126572913484
 30
0.0
 11
160.311720263541
 21
157.226548653841
 31
0.0
  0
LINE
  5
   5D0
  8
0
  6
DASHDOT
 62
     7
 10
162.86170813372
 20
154.676560783663
 30
0.0
 11
157.761732393362
 21
154.676560783663
 31
0.0
  0
TEXT
  5
   5D1
  8
0
  6
CONTINUOUS
 62
     7
 10
155.520214951088
 20
50.8868593598824
 30
0.0
 40
2.99999994039535
  1
=        =
 50
89.9999999480344
 41
0.91666667064031
 72
     1
 11
154.020214993095
 21
64.3618591471609
 31
0.0
 73
     2
  0
TEXT
  5
   5D2
  8
0
  6
CONTINUOUS
 62
     7
 10
28.3767462365121
 20
64.3107605125086
 30
0.0
 40
2.99999994039535
  1
X
 50
359.999999948034
 41
0.916666655739148
 72
     2
 11
30.576746192802
 21
64.3107605105243
 31
0.0
  0
LINE
  5
   5D3
  8
0
  6
DASHDOT
 62
     7
 10
127.802857921403
 20
-57.7808702313421
 30
0.0
 11
98.5378848619153
 21
-57.7808702313421
 31
0.0
  0
LINE
  5
   5D4
  8
0
  6
DASHDOT
 62
     7
 10
130.795290175319
 20
-109.510244204749
 30
0.0
 11
96.8641515673519
 21
-109.510244204749
 31
0.0
  0
LINE
  5
   5D5
  8
0
  6
DASHDOT
 62
     7
 10
90.8618329167366
 20
-51.2584885655574
 30
0.0
 11
90.8618329167366
 21
-117.202313012445
 31
0.0
  0
LINE
  5
   5D6
  8
0
  6
DASHDOT
 62
     7
 10
118.861831247807
 20
-51.4885393840795
 30
0.0
 11
118.861831247807
 21
-117.616404485784
 31
0.0
  0
LINE
  5
   5D7
  8
0
  6
CONTINUOUS
 62
     1
 10
122.861831009388
 20
-53.7808704697607
 30
0.0
 11
122.861831009388
 21
-82.3613592297397
 31
0.0
  0
LINE
  5
   5D8
  8
0
  6
CONTINUOUS
 62
     1
 10
122.861831009388
 20
-53.7808704697607
 30
0.0
 11
86.8618331551552
 21
-53.7808704697607
 31
0.0
  0
LINE
  5
   5D9
  8
0
  6
CONTINUOUS
 62
     1
 10
86.8618331551552
 20
-53.7808704697607
 30
0.0
 11
86.8618331551552
 21
-82.4231796860695
 31
0.0
  0
LINE
  5
   5DA
  8
0
  6
CONTINUOUS
 62
     1
 10
122.861831009388
 20
-113.51024396633
 30
0.0
 11
86.8618331551552
 21
-113.51024396633
 31
0.0
  0
LINE
  5
   5DB
  8
0
  6
DASHDOT
 62
     7
 10
130.613999704565
 20
-83.4231796264648
 30
0.0
 11
90.1780985872034
 21
-83.4231796264648
 31
0.0
  0
LINE
  5
   5DC
  8
0
  6
DASHDOT
 62
     7
 10
111.861831665039
 20
-51.0744479107397
 30
0.0
 11
111.861831665039
 21
-121.39191713948
 31
0.0
  0
CIRCLE
  5
   5DD
  8
0
  6
CONTINUOUS
 62
     7
 10
90.8618329167366
 20
-57.7808702313421
 30
0.0
 40
0.549999967217445
  0
CIRCLE
  5
   5DE
  8
0
  6
CONTINUOUS
 62
     7
 10
118.861831247807
 20
-57.7808702313421
 30
0.0
 40
0.549999967217445
  0
CIRCLE
  5
   5DF
  8
0
  6
CONTINUOUS
 62
     7
 10
90.8618329167366
 20
-109.510244204749
 30
0.0
 40
0.549999967217445
  0
CIRCLE
  5
   5E0
  8
0
  6
CONTINUOUS
 62
     7
 10
118.861831247807
 20
-109.510244204749
 30
0.0
 40
0.549999967217445
  0
LINE
  5
   5E1
  8
0
  6
CONTINUOUS
 62
     1
 10
86.8618331551552
 20
-84.4231795668602
 30
0.0
 11
86.8618331551552
 21
-113.51024396633
 31
0.0
  0
LINE
  5
   5E2
  8
0
  6
CONTINUOUS
 62
     1
 10
122.861831009388
 20
-84.4778267601426
 30
0.0
 11
122.861831009388
 21
-113.51024396633
 31
0.0
  0
LINE
  5
   5E3
  8
0
  6
CONTINUOUS
 62
     1
 10
126.414115410735
 20
-84.4231795668602
 30
0.0
 11
83.5786530019273
 21
-84.4231795668602
 31
0.0
  0
LINE
  5
   5E4
  8
0
  6
CONTINUOUS
 62
     1
 10
125.493912136646
 20
-82.4231796860695
 30
0.0
 11
84.3608257849023
 21
-82.4231796860695
 31
0.0
  0
INSERT
  5
   5E5
  8
0
  6
CONTINUOUS
 62
     7
  2
*UDIM604
 10
0.0
 20
0.0
 30
0.0
  0
INSERT
  5
   5E6
  8
0
  6
CONTINUOUS
 62
     7
  2
*UDIM605
 10
0.0
 20
0.0
 30
0.0
  0
TEXT
  5
   5E7
  8
0
  6
CONTINUOUS
 62
     7
 10
110.729863231566
 20
-121.603078710241
 30
0.0
 40
3.00000005960463
  1
Y
 50
359.999999896069
 41
0.916666581564485
 72
     2
 11
112.929863052752
 21
-121.603078714221
 31
0.0
  0
TEXT
  5
   5E8
  8
0
  6
CONTINUOUS
 62
     7
 10
110.526605110747
 20
-50.0434272138101
 30
0.0
 40
3.00000005960463
  1
Y
 50
359.999999896069
 41
0.916666581564485
 72
     2
 11
112.726604931933
 21
-50.0434272177898
 31
0.0
  0
TEXT
  5
   5E9
  8
0
  6
CONTINUOUS
 62
     7
 10
136.181764294776
 20
-86.2527195892976
 30
0.0
 40
3.00000005960463
  1
X
 50
359.999999896069
 41
0.916666581564485
 72
     2
 11
138.381764115962
 21
-86.2527195932772
 31
0.0
  0
TEXT
  5
   5EA
  8
0
  6
CONTINUOUS
 62
     7
 10
64.5134549679075
 20
-84.8132489786474
 30
0.0
 40
3.00000005960463
  1
X
 50
359.999999896069
 41
0.916666581564485
 72
     2
 11
66.7134547890935
 21
-84.813248982627
 31
0.0
  0
INSERT
  5
   5EB
  8
0
  6
CONTINUOUS
 62
     7
  2
*UDIM606
 10
0.0
 20
0.0
 30
0.0
  0
INSERT
  5
   5EC
  8
0
  6
CONTINUOUS
 62
     7
  2
*UDIM607
 10
0.0
 20
0.0
 30
0.0
  0
INSERT
  5
   5ED
  8
0
  6
CONTINUOUS
 62
     7
  2
*UDIM608
 10
0.0
 20
0.0
 30
0.0
  0
LINE
  5
   5EE
  8
0
  6
CONTINUOUS
 62
     3
 10
212.168334960938
 20
124.076425266263
 30
0.0
 11
212.168334960938
 21
127.676425409314
 31
0.0
  0
LINE
  5
   5EF
  8
0
  6
CONTINUOUS
 62
   130
 10
240.968318423205
 20
107.126476023809
 30
0.0
 11
240.968332156126
 21
130.076424734117
 31
0.0
  0
LINE
  5
   5F0
  8
0
  6
CONTINUOUS
 62
     3
 10
213.518329221807
 20
72.7764932742499
 30
0.0
 11
213.743329514492
 21
72.8367807427848
 31
0.0
  0
LINE
  5
   5F1
  8
0
  6
CONTINUOUS
 62
   130
 10
212.168334960938
 20
44.8764833856355
 30
0.0
 11
242.168317842488
 21
44.8764953613308
 31
0.0
  0
LINE
  5
   5F2
  8
0
  6
CONTINUOUS
 62
   130
 10
242.168308687313
 20
76.3765103461405
 30
0.0
 11
242.168313264949
 21
74.8765102865358
 31
0.0
  0
LINE
  5
   5F3
  8
0
  6
CONTINUOUS
 62
   130
 10
242.168308687211
 20
70.9765199706373
 30
0.0
 11
242.168313264847
 21
44.8764914676951
 31
0.0
  0
LINE
  5
   5F4
  8
0
  6
CONTINUOUS
 62
     3
 10
212.618336981535
 20
75.2382397318579
 30
0.0
 11
212.618336981535
 21
107.126488679647
 31
0.0
  0
LINE
  5
   5F5
  8
0
  6
CONTINUOUS
 62
     3
 10
212.618335264921
 20
58.3764958977699
 30
0.0
 11
212.618335264921
 21
70.6147898411073
 31
0.0
  0
LINE
  5
   5F6
  8
0
  6
CONTINUOUS
 62
     3
 10
212.61833640933
 20
45.6264936745166
 30
0.0
 11
212.61833640933
 21
53.8764940023422
 31
0.0
  0
LINE
  5
   5F7
  8
0
  6
CONTINUOUS
 62
     3
 10
212.61833640933
 20
45.6264939606189
 30
0.0
 11
212.918334418535
 21
45.6264939606189
 31
0.0
  0
LINE
  5
   5F8
  8
0
  6
CONTINUOUS
 62
     3
 10
212.918334704638
 20
44.8764836850266
 30
0.0
 11
212.918334704638
 21
45.6264948728189
 31
0.0
  0
LINE
  5
   5F9
  8
0
  6
CONTINUOUS
 62
     3
 10
212.918334704638
 20
70.6951685674458
 30
0.0
 11
212.918334704638
 21
72.7764918923376
 31
0.0
  0
LINE
  5
   5FA
  8
0
  6
CONTINUOUS
 62
     3
 10
212.918334704638
 20
74.7264965474606
 30
0.0
 11
212.918334704638
 21
75.1578381173349
 31
0.0
  0
LINE
  5
   5FB
  8
0
  6
CONTINUOUS
 62
     3
 10
212.168334960938
 20
58.3764958977699
 30
0.0
 11
212.618335837126
 21
58.3764958977699
 31
0.0
  0
LINE
  5
   5FC
  8
0
  6
CONTINUOUS
 62
     3
 10
212.168334960938
 20
53.876495718956
 30
0.0
 11
212.618335551024
 21
53.876495718956
 31
0.0
  0
LINE
  5
   5FD
  8
0
  6
CONTINUOUS
 62
     3
 10
212.168334960938
 20
53.876495718956
 30
0.0
 11
212.168334960938
 21
58.3764958977699
 31
0.0
  0
LINE
  5
   5FE
  8
0
  6
CONTINUOUS
 62
     3
 10
213.518329221807
 20
72.7764932742499
 30
0.0
 11
213.743329514492
 21
72.8367807427848
 31
0.0
  0
LINE
  5
   5FF
  8
0
  6
CONTINUOUS
 62
     3
 10
213.743332088981
 20
72.8367732947964
 30
0.0
 11
213.908043472632
 21
73.0014858169501
 31
0.0
  0
LINE
  5
   600
  8
0
  6
CONTINUOUS
 62
     3
 10
213.90804663636
 20
73.0014882906197
 30
0.0
 11
213.968320665792
 21
73.2264745592947
 31
0.0
  0
LINE
  5
   601
  8
0
  6
CONTINUOUS
 62
     3
 10
213.968304419516
 20
73.2264964878601
 30
0.0
 11
213.968304419516
 21
74.2764965295835
 31
0.0
  0
LINE
  5
   602
  8
0
  6
CONTINUOUS
 62
     3
 10
213.908040101214
 20
74.5014896013684
 30
0.0
 11
213.968318702517
 21
74.2764895988123
 31
0.0
  0
LINE
  5
   603
  8
0
  6
CONTINUOUS
 62
     3
 10
213.743328236871
 20
74.6661998519114
 30
0.0
 11
213.908039622814
 21
74.5014919091974
 31
0.0
  0
LINE
  5
   604
  8
0
  6
CONTINUOUS
 62
     3
 10
213.518330212957
 20
74.7264900857242
 30
0.0
 11
213.743330220248
 21
74.666198035412
 31
0.0
  0
LINE
  5
   605
  8
0
  6
CONTINUOUS
 62
     3
 10
212.918334704638
 20
74.7264965474606
 30
0.0
 11
213.518330436945
 21
74.7264965474606
 31
0.0
  0
LINE
  5
   606
  8
0
  6
CONTINUOUS
 62
     3
 10
212.918334704638
 20
72.7764964699745
 30
0.0
 11
213.518330436945
 21
72.7764964699745
 31
0.0
  0
LINE
  5
   607
  8
0
  6
CONTINUOUS
 62
   130
 10
240.968317906446
 20
76.3764831704083
 30
0.0
 11
240.968322484082
 21
107.126484392304
 31
0.0
  0
LINE
  5
   608
  8
0
  6
CONTINUOUS
 62
   130
 10
240.968317794799
 20
76.3764874577519
 30
0.0
 11
242.168308687209
 21
76.3764874577519
 31
0.0
  0
LINE
  5
   609
  8
0
  6
CONTINUOUS
 62
   130
 10
240.968311098905
 20
91.0549747736034
 30
0.0
 11
241.118315677967
 21
91.0951664223291
 31
0.0
  0
LINE
  5
   60A
  8
0
  6
CONTINUOUS
 62
   130
 10
240.968307567468
 20
88.6980568792608
 30
0.0
 11
241.11831672763
 21
88.6578606578947
 31
0.0
  0
LINE
  5
   60B
  8
0
  6
CONTINUOUS
 62
   130
 10
212.918334185025
 20
45.6264939080267
 30
0.0
 11
233.318334995648
 21
45.6264924775161
 31
0.0
  0
LINE
  5
   60C
  8
0
  6
CONTINUOUS
 62
   130
 10
233.318335801363
 20
44.8764969760265
 30
0.0
 11
233.318335801363
 21
45.626492428192
 31
0.0
  0
LINE
  5
   60D
  8
0
  6
CONTINUOUS
 62
   130
 10
215.087926020489
 20
74.5765128558432
 30
0.0
 11
241.868310385427
 21
74.5764945452961
 31
0.0
  0
LINE
  5
   60E
  8
0
  6
CONTINUOUS
 62
   130
 10
215.087923478078
 20
71.2765127247139
 30
0.0
 11
241.868307843016
 21
71.2764944141669
 31
0.0
  0
LINE
  5
   60F
  8
0
  6
CONTINUOUS
 62
     3
 10
212.618337674558
 20
75.2382362848156
 30
0.0
 11
212.918334704638
 21
75.1578522851764
 31
0.0
  0
LINE
  5
   610
  8
0
  6
CONTINUOUS
 62
     3
 10
212.6183315204
 20
70.6147860292689
 30
0.0
 11
212.918334704638
 21
70.6951717334477
 31
0.0
  0
LINE
  5
   611
  8
0
  6
CONTINUOUS
 62
   130
 10
241.868331130681
 20
74.5765109269976
 30
0.0
 11
242.168321978089
 21
74.876506351447
 31
0.0
  0
LINE
  5
   612
  8
0
  6
CONTINUOUS
 62
   130
 10
241.86831030382
 20
71.2764986041144
 30
0.0
 11
242.168310305472
 21
70.9764986024621
 31
0.0
  0
LINE
  5
   613
  8
0
  6
CONTINUOUS
 62
   130
 10
241.11839104295
 20
105.326506918669
 30
0.0
 11
241.11839104295
 21
130.076424348481
 31
0.0
  0
LINE
  5
   614
  8
0
  6
CONTINUOUS
 62
     2
 10
253.418409842256
 20
105.626493197679
 30
0.0
 11
253.568277096746
 21
105.626493197679
 31
0.0
  0
LINE
  5
   615
  8
0
  6
CONTINUOUS
 62
     2
 10
249.818400543931
 20
130.076425504682
 30
0.0
 11
250.718409734967
 21
130.076425504682
 31
0.0
  0
LINE
  5
   616
  8
0
  6
CONTINUOUS
 62
     2
 10
253.718473941093
 20
105.626484042423
 30
0.0
 11
253.718473941093
 21
129.70138886871
 31
0.0
  0
LINE
  5
   617
  8
0
  6
CONTINUOUS
 62
     2
 10
252.818336576223
 20
105.326502204727
 30
0.0
 11
253.41840554688
 21
105.326520514951
 31
0.0
  0
LINE
  5
   618
  8
0
  6
CONTINUOUS
 62
   130
 10
251.828326466083
 20
105.326506918669
 30
0.0
 11
252.818336576223
 21
105.326506918669
 31
0.0
  0
LINE
  5
   619
  8
0
  6
CONTINUOUS
 62
     2
 10
250.718409734967
 20
130.076425504682
 30
0.0
 11
252.968354892731
 21
130.076425504682
 31
0.0
  0
LINE
  5
   61A
  8
0
  6
CONTINUOUS
 62
     2
 10
241.418409365419
 20
130.076425504682
 30
0.0
 11
249.818400543931
 21
130.076425504682
 31
0.0
  0
LINE
  5
   61B
  8
0
  6
CONTINUOUS
 62
     2
 10
253.418409842256
 20
105.626516085864
 30
0.0
 11
253.718428164724
 21
105.626516085864
 31
0.0
  0
LINE
  5
   61C
  8
0
  6
CONTINUOUS
 62
     2
 10
253.418409842256
 20
105.32652065158
 30
0.0
 11
253.418409842256
 21
105.626516085864
 31
0.0
  0
LINE
  5
   61D
  8
0
  6
CONTINUOUS
 62
     2
 10
253.343366368519
 20
130.076321066606
 30
0.0
 11
253.608530561951
 21
129.966457791927
 31
0.0
  0
LINE
  5
   61E
  8
0
  6
CONTINUOUS
 62
     2
 10
253.608587431942
 20
129.966519221844
 30
0.0
 11
253.718423251028
 21
129.701382504189
 31
0.0
  0
LINE
  5
   61F
  8
0
  6
CONTINUOUS
 62
   130
 10
241.418409365419
 20
105.626520663501
 30
0.0
 11
241.418409365419
 21
130.076423577465
 31
0.0
  0
LINE
  5
   620
  8
0
  6
CONTINUOUS
 62
   130
 10
241.418405073895
 20
105.626518660763
 30
0.0
 11
253.418405550732
 21
105.626514083127
 31
0.0
  0
LINE
  5
   621
  8
0
  6
CONTINUOUS
 62
     2
 10
253.418332022428
 20
42.0264975368978
 30
0.0
 11
253.418332022428
 21
42.3264955461025
 31
0.0
  0
LINE
  5
   622
  8
0
  6
CONTINUOUS
 62
     2
 10
252.218331974745
 20
42.3264926850795
 30
0.0
 11
252.218331974745
 21
105.176490604877
 31
0.0
  0
LINE
  5
   623
  8
0
  6
CONTINUOUS
 62
   130
 10
251.918327591782
 20
105.176495489002
 30
0.0
 11
251.918332169415
 21
42.0264975572829
 31
0.0
  0
LINE
  5
   624
  8
0
  6
CONTINUOUS
 62
   130
 10
251.918327385187
 20
105.176497757435
 30
0.0
 11
252.218327582838
 21
105.176497757435
 31
0.0
  0
LINE
  5
   625
  8
0
  6
CONTINUOUS
 62
   130
 10
251.918331962824
 20
42.0264975368978
 30
0.0
 11
252.518336564302
 21
42.0264975368978
 31
0.0
  0
LINE
  5
   626
  8
0
  6
CONTINUOUS
 62
     2
 10
252.218327582838
 20
105.176497757435
 30
0.0
 11
253.718332034349
 21
105.176497757435
 31
0.0
  0
LINE
  5
   627
  8
0
  6
CONTINUOUS
 62
     2
 10
253.718332034349
 20
42.3264955461025
 30
0.0
 11
253.718332034349
 21
49.2264866650101
 31
0.0
  0
LINE
  5
   628
  8
0
  6
CONTINUOUS
 62
     2
 10
253.718332034349
 20
80.7264784753315
 30
0.0
 11
253.718332034349
 21
105.176493179798
 31
0.0
  0
LINE
  5
   629
  8
0
  6
CONTINUOUS
 62
     2
 10
254.243328935244
 20
80.7264714553193
 30
0.0
 11
254.318324358579
 21
80.6514714549756
 31
0.0
  0
LINE
  5
   62A
  8
0
  6
CONTINUOUS
 62
     2
 10
254.24332222199
 20
49.22648801818
 30
0.0
 11
254.318322222403
 21
49.3014883030846
 31
0.0
  0
LINE
  5
   62B
  8
0
  6
CONTINUOUS
 62
     2
 10
254.318332058191
 20
49.3014909595249
 30
0.0
 11
254.318332058191
 21
80.6514738947144
 31
0.0
  0
LINE
  5
   62C
  8
0
  6
CONTINUOUS
 62
     2
 10
252.218331974745
 20
42.3264955461025
 30
0.0
 11
253.418332022428
 21
42.3264955461025
 31
0.0
  0
LINE
  5
   62D
  8
0
  6
CONTINUOUS
 62
   130
 10
242.168317842483
 20
70.9764735102644
 30
0.0
 11
242.168317842483
 21
74.8764645099627
 31
0.0
  0
LINE
  5
   62E
  8
0
  6
CONTINUOUS
 62
   130
 10
242.168317842483
 20
76.3764599919305
 30
0.0
 11
242.168317842483
 21
76.6764645814883
 31
0.0
  0
LINE
  5
   62F
  8
0
  6
CONTINUOUS
 62
   130
 10
242.168317842483
 20
44.8764953613284
 30
0.0
 11
251.918331962824
 21
44.8764953613284
 31
0.0
  0
LINE
  5
   630
  8
0
  6
CONTINUOUS
 62
     7
 10
252.818336576223
 20
105.176497757435
 30
0.0
 11
252.818336576223
 21
105.326493185758
 31
0.0
  0
LINE
  5
   631
  8
0
  6
CONTINUOUS
 62
   130
 10
241.11831780076
 20
76.6764966249466
 30
0.0
 11
241.11831780076
 21
105.326497763395
 31
0.0
  0
LINE
  5
   632
  8
0
  6
CONTINUOUS
 62
   130
 10
241.11831780076
 20
76.6764966249466
 30
0.0
 11
242.168317842483
 21
76.6764966249466
 31
0.0
  0
LINE
  5
   633
  8
0
  6
CONTINUOUS
 62
   130
 10
241.11831780076
 20
105.326497763395
 30
0.0
 11
242.168317842483
 21
105.326497763395
 31
0.0
  0
LINE
  5
   634
  8
0
  6
CONTINUOUS
 62
   130
 10
242.168314444762
 20
105.32649728008
 30
0.0
 11
251.828327645999
 21
105.326492702443
 31
0.0
  0
LINE
  5
   635
  8
0
  6
CONTINUOUS
 62
   130
 10
251.82833104372
 20
91.6015017956497
 30
0.0
 11
251.82833104372
 21
105.326493185758
 31
0.0
  0
LINE
  5
   636
  8
0
  6
CONTINUOUS
 62
   130
 10
251.82831731081
 20
44.8764919308858
 30
0.0
 11
251.82833104372
 21
88.1514982281167
 31
0.0
  0
LINE
  5
   637
  8
0
  6
CONTINUOUS
 62
   130
 10
251.828326466083
 20
97.5264974534512
 30
0.0
 11
251.918327385187
 21
97.5264974534512
 31
0.0
  0
LINE
  5
   638
  8
0
  6
CONTINUOUS
 62
   130
 10
251.828326466083
 20
96.3264974057675
 30
0.0
 11
251.918327385187
 21
96.3264974057675
 31
0.0
  0
LINE
  5
   639
  8
0
  6
CONTINUOUS
 62
   130
 10
242.168317842483
 20
45.6264953911305
 30
0.0
 11
251.82833104372
 21
45.6264953911305
 31
0.0
  0
LINE
  5
   63A
  8
0
  6
CONTINUOUS
 62
   130
 10
250.418318170308
 20
91.6015017956497
 30
0.0
 11
251.918331962824
 21
91.6015017956497
 31
0.0
  0
LINE
  5
   63B
  8
0
  6
CONTINUOUS
 62
   130
 10
250.418318170308
 20
88.151501658559
 30
0.0
 11
250.418318170308
 21
91.6015017956497
 31
0.0
  0
LINE
  5
   63C
  8
0
  6
CONTINUOUS
 62
   130
 10
250.418318170308
 20
88.151501658559
 30
0.0
 11
251.918327385187
 21
88.151501658559
 31
0.0
  0
LINE
  5
   63D
  8
0
  6
CONTINUOUS
 62
   130
 10
254.318332058191
 20
49.2264906704424
 30
0.0
 11
254.318332058191
 21
49.3014906734226
 31
0.0
  0
LINE
  5
   63E
  8
0
  6
CONTINUOUS
 62
   130
 10
254.318331601382
 20
80.6514609234115
 30
0.0
 11
254.318336179019
 21
80.7264792369394
 31
0.0
  0
LINE
  5
   63F
  8
0
  6
CONTINUOUS
 62
   130
 10
254.318332058191
 20
49.2264906704424
 30
0.0
 11
256.118336707354
 21
49.2264906704424
 31
0.0
  0
LINE
  5
   640
  8
0
  6
CONTINUOUS
 62
   130
 10
257.768336772919
 20
50.9515047580007
 30
0.0
 11
257.768336772919
 21
53.5764911293982
 31
0.0
  0
LINE
  5
   641
  8
0
  6
CONTINUOUS
 62
   130
 10
257.768336772919
 20
80.1264784514897
 30
0.0
 11
257.768336772919
 21
80.5764784693711
 31
0.0
  0
LINE
  5
   642
  8
0
  6
CONTINUOUS
 62
   130
 10
254.318335387807
 20
80.7264851336971
 30
0.0
 11
256.118336707354
 21
80.7264801399012
 31
0.0
  0
LINE
  5
   643
  8
0
  6
CONTINUOUS
 62
   130
 10
254.243327477574
 20
49.2264906704424
 30
0.0
 11
254.318332058191
 21
49.2264906704424
 31
0.0
  0
LINE
  5
   644
  8
0
  6
CONTINUOUS
 62
     3
 10
212.168334960938
 20
124.076425266263
 30
0.0
 11
212.618334978819
 21
124.076425266263
 31
0.0
  0
LINE
  5
   645
  8
0
  6
CONTINUOUS
 62
     3
 10
212.168334960938
 20
127.676425409314
 30
0.0
 11
212.618334978819
 21
127.676425409314
 31
0.0
  0
LINE
  5
   646
  8
0
  6
CONTINUOUS
 62
   130
 10
213.968313629583
 20
71.426508788115
 30
0.0
 11
214.808023585663
 21
71.2015042367526
 31
0.0
  0
LINE
  5
   647
  8
0
  6
CONTINUOUS
 62
   130
 10
213.968307711623
 20
71.4265118670994
 30
0.0
 11
213.968319727919
 21
73.2264936280773
 31
0.0
  0
LINE
  5
   648
  8
0
  6
CONTINUOUS
 62
   130
 10
213.968310664332
 20
74.4265126656813
 30
0.0
 11
213.96832039181
 21
74.2764943491733
 31
0.0
  0
LINE
  5
   649
  8
0
  6
CONTINUOUS
 62
   130
 10
213.968302751777
 20
74.4265021205078
 30
0.0
 11
214.808014435066
 21
74.6514975077419
 31
0.0
  0
LINE
  5
   64A
  8
0
  6
CONTINUOUS
 62
     2
 10
252.968354892731
 20
130.076425504682
 30
0.0
 11
253.343409839275
 21
130.076425504682
 31
0.0
  0
LINE
  5
   64B
  8
0
  6
CONTINUOUS
 62
     2
 10
253.418332022428
 20
42.3264955461025
 30
0.0
 11
253.718332034349
 21
42.3264955461025
 31
0.0
  0
LINE
  5
   64C
  8
0
  6
CONTINUOUS
 62
     2
 10
253.718332034349
 20
80.7264784753315
 30
0.0
 11
254.243336632848
 21
80.7264784753315
 31
0.0
  0
LINE
  5
   64D
  8
0
  6
CONTINUOUS
 62
     2
 10
253.718332034349
 20
49.2264906704424
 30
0.0
 11
254.243332055211
 21
49.2264906704424
 31
0.0
  0
LINE
  5
   64E
  8
0
  6
CONTINUOUS
 62
   210
 10
274.552575190079
 20
48.7549851803522
 30
0.0
 11
275.220460722721
 21
51.0841741879943
 31
0.0
  0
LINE
  5
   64F
  8
0
  6
CONTINUOUS
 62
   210
 10
257.768336772919
 20
52.9556058061387
 30
0.0
 11
267.036840867172
 21
50.2979114371348
 31
0.0
  0
LINE
  5
   650
  8
0
  6
CONTINUOUS
 62
   210
 10
267.036688219464
 20
50.2979488021001
 30
0.0
 11
274.192832188118
 21
48.5462744689101
 31
0.0
  0
LINE
  5
   651
  8
0
  6
CONTINUOUS
 62
   210
 10
274.192848060554
 20
48.5462696793761
 30
0.0
 11
274.414731404812
 21
48.5781790912924
 31
0.0
  0
LINE
  5
   652
  8
0
  6
CONTINUOUS
 62
   210
 10
274.414742634634
 20
48.5781789352223
 30
0.0
 11
274.552572421195
 21
48.7549802220812
 31
0.0
  0
LINE
  5
   653
  8
0
  6
CONTINUOUS
 62
   210
 10
275.197259223689
 20
51.3071344841437
 30
0.0
 11
275.220452388211
 21
51.0841678079835
 31
0.0
  0
LINE
  5
   654
  8
0
  6
CONTINUOUS
 62
   210
 10
275.026001763361
 20
51.4517821356252
 30
0.0
 11
275.197260138971
 21
51.3071376057683
 31
0.0
  0
LINE
  5
   655
  8
0
  6
CONTINUOUS
 62
   210
 10
268.028981740212
 20
53.7584777912144
 30
0.0
 11
275.025977423818
 21
51.4517898887384
 31
0.0
  0
LINE
  5
   656
  8
0
  6
CONTINUOUS
 62
   210
 10
257.768336772919
 20
56.7006668435081
 30
0.0
 11
268.029064376357
 21
53.7584505486943
 31
0.0
  0
LINE
  5
   657
  8
0
  6
CONTINUOUS
 62
   130
 10
267.036716969171
 20
50.2979452201861
 30
0.0
 11
268.029012632876
 21
53.7584697783666
 31
0.0
  0
LINE
  5
   658
  8
0
  6
CONTINUOUS
 62
     5
 10
212.618334978819
 20
8.27648211091478
 30
0.0
 11
227.168340134621
 21
8.27648791913236
 31
0.0
  0
LINE
  5
   659
  8
0
  6
CONTINUOUS
 62
     5
 10
212.168334960938
 20
23.1264825213664
 30
0.0
 11
212.618334978819
 21
23.1264827010019
 31
0.0
  0
LINE
  5
   65A
  8
0
  6
CONTINUOUS
 62
     5
 10
212.168334960938
 20
10.6764820266469
 30
0.0
 11
212.168334960938
 21
14.2764821696983
 31
0.0
  0
LINE
  5
   65B
  8
0
  6
CONTINUOUS
 62
     5
 10
212.168334960938
 20
23.1264825213664
 30
0.0
 11
212.168334960938
 21
44.8764953613281
 31
0.0
  0
LINE
  5
   65C
  8
0
  6
CONTINUOUS
 62
     5
 10
212.618334978819
 20
8.27648211091477
 30
0.0
 11
212.618334978819
 21
23.1264827010019
 31
0.0
  0
LINE
  5
   65D
  8
0
  6
CONTINUOUS
 62
     5
 10
212.168334960938
 20
14.2764821696983
 30
0.0
 11
212.618332583678
 21
14.2764823493329
 31
0.0
  0
LINE
  5
   65E
  8
0
  6
CONTINUOUS
 62
     5
 10
212.168334960938
 20
10.6764820266469
 30
0.0
 11
212.618334020763
 21
10.676482206282
 31
0.0
  0
LINE
  5
   65F
  8
0
  6
CONTINUOUS
 62
     5
 10
252.518336564302
 20
30.0264989028666
 30
0.0
 11
252.518336564302
 21
30.1764970660211
 31
0.0
  0
LINE
  5
   660
  8
0
  6
CONTINUOUS
 62
     1
 10
253.718336611986
 20
8.27649803859924
 30
0.0
 11
253.718336611986
 21
29.7264988909457
 31
0.0
  0
LINE
  5
   661
  8
0
  6
CONTINUOUS
 62
     1
 10
252.518336564302
 20
8.27649803859924
 30
0.0
 11
253.718336611986
 21
8.27649803859924
 31
0.0
  0
LINE
  5
   662
  8
0
  6
CONTINUOUS
 62
   130
 10
242.318336158991
 20
30.0264989028666
 30
0.0
 11
252.518336564302
 21
30.0264989028666
 31
0.0
  0
LINE
  5
   663
  8
0
  6
CONTINUOUS
 62
     1
 10
253.718336611986
 20
30.1764970660211
 30
0.0
 11
253.718336611986
 21
41.8764975309373
 31
0.0
  0
LINE
  5
   664
  8
0
  6
CONTINUOUS
 62
   130
 10
242.318336158991
 20
8.27649396686035
 30
0.0
 11
242.318336158991
 21
30.0264989028666
 31
0.0
  0
LINE
  5
   665
  8
0
  6
CONTINUOUS
 62
   130
 10
242.318336158991
 20
29.7264988909457
 30
0.0
 11
253.718336611986
 21
29.7264988909457
 31
0.0
  0
LINE
  5
   666
  8
0
  6
CONTINUOUS
 62
     1
 10
253.418336600065
 20
29.7264988909457
 30
0.0
 11
253.418336600065
 21
30.0264989028666
 31
0.0
  0
LINE
  5
   667
  8
0
  6
CONTINUOUS
 62
   130
 10
251.918331962824
 20
41.8764975309373
 30
0.0
 11
252.218331974745
 21
41.8764975309373
 31
0.0
  0
LINE
  5
   668
  8
0
  6
CONTINUOUS
 62
   130
 10
251.918331962824
 20
30.1764970660211
 30
0.0
 11
252.218331974745
 21
30.1764970660211
 31
0.0
  0
LINE
  5
   669
  8
0
  6
CONTINUOUS
 62
   130
 10
251.918331962824
 20
30.1764970660211
 30
0.0
 11
251.918331962824
 21
41.8764975309373
 31
0.0
  0
LINE
  5
   66A
  8
0
  6
CONTINUOUS
 62
     1
 10
252.218331974745
 20
30.1764970660211
 30
0.0
 11
252.218331974745
 21
41.8764975309373
 31
0.0
  0
LINE
  5
   66B
  8
0
  6
CONTINUOUS
 62
     5
 10
252.518336564302
 20
41.8764975309373
 30
0.0
 11
252.518336564302
 21
42.0264975368978
 31
0.0
  0
LINE
  5
   66C
  8
0
  6
CONTINUOUS
 62
   130
 10
242.468336164951
 20
8.27649396686035
 30
0.0
 11
242.468336164951
 21
29.7264988909457
 31
0.0
  0
LINE
  5
   66D
  8
0
  6
CONTINUOUS
 62
     1
 10
222.218326205015
 20
108.926472079212
 30
0.0
 11
227.022210172163
 21
108.926459733724
 31
0.0
  0
LINE
  5
   66E
  8
0
  6
CONTINUOUS
 62
     1
 10
221.804770628009
 20
107.126489706003
 30
0.0
 11
225.254558114114
 21
107.126491083124
 31
0.0
  0
LINE
  5
   66F
  8
0
  6
CONTINUOUS
 62
     1
 10
212.618335517365
 20
106.976486032908
 30
0.0
 11
216.072741872689
 21
106.976487411873
 31
0.0
  0
LINE
  5
   670
  8
0
  6
CONTINUOUS
 62
     1
 10
222.293335363269
 20
107.126489901033
 30
0.0
 11
222.293335363269
 21
108.926471886446
 31
0.0
  0
LINE
  5
   671
  8
0
  6
CONTINUOUS
 62
     1
 10
214.868335068226
 20
104.455181449564
 30
0.0
 11
214.868335068226
 21
106.976486931086
 31
0.0
  0
LINE
  5
   672
  8
0
  6
CONTINUOUS
 62
     1
 10
211.762831634732
 20
104.455181449564
 30
0.0
 11
222.631209107522
 21
104.455181449564
 31
0.0
  0
INSERT
  5
   673
  8
0
  6
CONTINUOUS
 62
     1
  2
*HATCH141
 10
212.168334960938
 20
44.8764953613281
 30
0.0
 41
0.300000011920929
 42
0.300000011920929
 43
0.300000011920929
  0
LINE
  5
   674
  8
0
  6
DASHDOT
 62
     7
 10
212.168334960938
 20
2.23373689404031
 30
0.0
 11
212.168334960938
 21
135.397996951397
 31
0.0
  0
LINE
  5
   675
  8
0
  6
DASHDOT
 62
     7
 10
211.268334925175
 20
2.23373689404031
 30
0.0
 11
211.268334925175
 21
135.574671280264
 31
0.0
  0
LINE
  5
   676
  8
0
  6
CONTINUOUS
 62
     1
 10
252.518336564302
 20
30.0264989028666
 30
0.0
 11
253.418336600065
 21
30.0264989028666
 31
0.0
  0
LINE
  5
   677
  8
0
  6
CONTINUOUS
 62
     2
 10
252.518336564302
 20
42.0264975368978
 30
0.0
 11
253.418332022428
 21
42.0264975368978
 31
0.0
  0
LINE
  5
   678
  8
0
  6
CONTINUOUS
 62
     1
 10
252.218331974745
 20
41.8764975309373
 30
0.0
 11
253.718336611986
 21
41.8764975309373
 31
0.0
  0
LINE
  5
   679
  8
0
  6
CONTINUOUS
 62
     1
 10
252.218331974745
 20
30.1764970660211
 30
0.0
 11
253.718336611986
 21
30.1764970660211
 31
0.0
  0
LINE
  5
   67A
  8
0
  6
CONTINUOUS
 62
   130
 10
212.918334704638
 20
75.1578522851764
 30
0.0
 11
215.087927152381
 21
74.576511468267
 31
0.0
  0
LINE
  5
   67B
  8
0
  6
CONTINUOUS
 62
   130
 10
212.918334704638
 20
70.6951717334477
 30
0.0
 11
215.087919063748
 21
71.2765107846507
 31
0.0
  0
LINE
  5
   67C
  8
0
  6
CONTINUOUS
 62
     5
 10
231.66833195961
 20
8.27648971548442
 30
0.0
 11
252.518336564302
 21
8.27649803859924
 31
0.0
  0
LINE
  5
   67D
  8
0
  6
CONTINUOUS
 62
     3
 10
212.618334493611
 20
130.076497590701
 30
0.0
 11
227.168340134621
 21
130.07646019868
 31
0.0
  0
LINE
  5
   67E
  8
0
  6
CONTINUOUS
 62
     1
 10
209.972751788061
 20
32.5577491064093
 30
0.0
 11
223.946964097886
 21
32.5577491064093
 31
0.0
  0
ARC
  5
   67F
  8
0
  6
CONTINUOUS
 62
   130
 10
234.369342002537
 20
61.5377161060357
 30
0.0
 40
42.1500016748905
 50
333.054582767096
 51
360.0
  0
LINE
  5
   680
  8
0
  6
CONTINUOUS
 62
   130
 10
276.519343677428
 20
61.5377161060357
 30
0.0
 11
276.519343677428
 21
66.5144630984367
 31
0.0
  0
LINE
  5
   681
  8
0
  6
CONTINUOUS
 62
     1
 10
209.921060757003
 20
135.839147669155
 30
0.0
 11
213.404852356156
 21
135.155262648896
 31
0.0
  0
LINE
  5
   682
  8
0
  6
CONTINUOUS
 62
     1
 10
210.452251576136
 20
2.23373689404031
 30
0.0
 11
213.075110857486
 21
2.23373689404031
 31
0.0
  0
LINE
  5
   683
  8
0
  6
DASHDOT
 62
     2
 10
192.760025943286
 20
64.9766552907911
 30
0.0
 11
282.780469939794
 21
64.9764055444623
 31
0.0
  0
LINE
  5
   684
  8
0
  6
CONTINUOUS
 62
     1
 10
232.028326594829
 20
5.91104851393993
 30
0.0
 11
232.028326594829
 21
24.3285568076929
 31
0.0
  0
LINE
  5
   685
  8
0
  6
CONTINUOUS
 62
     1
 10
223.946964097886
 20
32.5577491064093
 30
0.0
 11
232.028326594829
 21
24.3285568076929
 31
0.0
  0
LINE
  5
   686
  8
0
  6
CONTINUOUS
 62
     1
 10
222.631209107522
 20
104.455181449564
 30
0.0
 11
232.028557103767
 21
114.024333769443
 31
0.0
  0
LINE
  5
   687
  8
0
  6
CONTINUOUS
 62
     1
 10
232.028557103767
 20
114.024333768599
 30
0.0
 11
232.028651765978
 21
132.441842061964
 31
0.0
  0
INSERT
  5
   688
  8
0
  6
CONTINUOUS
 62
     7
  2
*HATCH142
 10
212.168334960938
 20
44.8764953613281
 30
0.0
 41
0.300000011920929
 42
0.300000011920929
 43
0.300000011920929
  0
LINE
  5
   689
  8
0
  6
CONTINUOUS
 62
     3
 10
231.668331959059
 20
130.076448634163
 30
0.0
 11
241.418409365419
 21
130.076423577465
 31
0.0
  0
LINE
  5
   68A
  8
0
  6
CONTINUOUS
 62
   130
 10
250.568336161448
 20
130.226425510642
 30
0.0
 11
250.568336161448
 21
131.801401095355
 31
0.0
  0
ARC
  5
   68B
  8
0
  6
CONTINUOUS
 62
   130
 10
250.193336146547
 20
131.801401095355
 30
0.0
 40
0.375000014901161
 50
0.0
 51
89.999852755729
  0
ARC
  5
   68C
  8
0
  6
CONTINUOUS
 62
   130
 10
250.418336155488
 20
130.226425510642
 30
0.0
 40
0.150000005960464
 50
270.0
 51
360.0
  0
LINE
  5
   68D
  8
0
  6
CONTINUOUS
 62
     3
 10
212.618337839842
 20
107.126493257284
 30
0.0
 11
212.618337839842
 21
130.076497573871
 31
0.0
  0
LINE
  5
   68E
  8
0
  6
CONTINUOUS
 62
     1
 10
256.118336707354
 20
50.9514651493953
 30
0.0
 11
256.118336707354
 21
51.5514651732371
 31
0.0
  0
LINE
  5
   68F
  8
0
  6
CONTINUOUS
 62
     1
 10
256.118336707354
 20
50.9514651493953
 30
0.0
 11
256.718336731196
 21
50.9514651493953
 31
0.0
  0
LINE
  5
   690
  8
0
  6
CONTINUOUS
 62
     1
 10
256.118336707354
 20
83.3514652924464
 30
0.0
 11
256.118336707354
 21
83.9514653162882
 31
0.0
  0
LINE
  5
   691
  8
0
  6
CONTINUOUS
 62
     1
 10
256.118336707354
 20
83.9514653162882
 30
0.0
 11
256.718336731196
 21
83.9514653162882
 31
0.0
  0
LINE
  5
   692
  8
0
  6
CONTINUOUS
 62
     1
 10
256.118336707354
 20
51.5514651732371
 30
0.0
 11
256.118336707354
 21
83.3514664368556
 31
0.0
  0
LINE
  5
   693
  8
0
  6
CONTINUOUS
 62
     1
 10
254.768336653709
 20
88.0246695186702
 30
0.0
 11
254.768336653709
 21
89.478261495376
 31
0.0
  0
LINE
  5
   694
  8
0
  6
CONTINUOUS
 62
     1
 10
254.768336653709
 20
45.4246701147167
 30
0.0
 11
254.768336653709
 21
46.8782598026041
 31
0.0
  0
LINE
  5
   695
  8
0
  6
CONTINUOUS
 62
     1
 10
256.718336731196
 20
43.3014637010023
 30
0.0
 11
256.718336731196
 21
91.6014656202719
 31
0.0
  0
LINE
  5
   696
  8
0
  6
CONTINUOUS
 62
     1
 10
256.718336731196
 20
43.3014648454116
 30
0.0
 11
257.768336772919
 21
43.3014648454116
 31
0.0
  0
LINE
  5
   697
  8
0
  6
CONTINUOUS
 62
     1
 10
257.768336772919
 20
43.3014648454116
 30
0.0
 11
257.768336772919
 21
91.6014667646811
 31
0.0
  0
LINE
  5
   698
  8
0
  6
CONTINUOUS
 62
     1
 10
256.718336731196
 20
91.6014656202719
 30
0.0
 11
257.168336749077
 21
91.6014656202719
 31
0.0
  0
LINE
  5
   699
  8
0
  6
CONTINUOUS
 62
     1
 10
257.468336760998
 20
91.6014656202719
 30
0.0
 11
257.768336772919
 21
91.6014656202719
 31
0.0
  0
LINE
  5
   69A
  8
0
  6
CONTINUOUS
 62
     1
 10
254.76833671432
 20
88.0246688715777
 30
0.0
 11
255.068336736119
 21
87.8514648219963
 31
0.0
  0
LINE
  5
   69B
  8
0
  6
CONTINUOUS
 62
     1
 10
254.768336228837
 20
89.4782607410002
 30
0.0
 11
255.068336250636
 21
89.6514647905816
 31
0.0
  0
LINE
  5
   69C
  8
0
  6
CONTINUOUS
 62
     1
 10
255.06833666563
 20
87.8514654712603
 30
0.0
 11
255.06833666563
 21
87.8740332211805
 31
0.0
  0
LINE
  5
   69D
  8
0
  6
CONTINUOUS
 62
     1
 10
255.06833666563
 20
87.8514654712603
 30
0.0
 11
256.718336731196
 21
87.8514654712603
 31
0.0
  0
LINE
  5
   69E
  8
0
  6
CONTINUOUS
 62
     1
 10
255.06833666563
 20
87.8740332211805
 30
0.0
 11
255.06833666563
 21
87.9405966393528
 31
0.0
  0
LINE
  5
   69F
  8
0
  6
CONTINUOUS
 62
     1
 10
255.06833666563
 20
87.9405966393528
 30
0.0
 11
255.06833666563
 21
88.0478186284767
 31
0.0
  0
LINE
  5
   6A0
  8
0
  6
CONTINUOUS
 62
     1
 10
255.06833666563
 20
88.0478186284767
 30
0.0
 11
255.06833666563
 21
88.1903250428308
 31
0.0
  0
LINE
  5
   6A1
  8
0
  6
CONTINUOUS
 62
     1
 10
255.06833666563
 20
88.1903250428308
 30
0.0
 11
255.06833666563
 21
88.3609701912132
 31
0.0
  0
LINE
  5
   6A2
  8
0
  6
CONTINUOUS
 62
     1
 10
255.06833666563
 20
88.3609701912132
 30
0.0
 11
255.06833666563
 21
88.5511984702566
 31
0.0
  0
LINE
  5
   6A3
  8
0
  6
CONTINUOUS
 62
     1
 10
255.06833666563
 20
88.5511984702566
 30
0.0
 11
255.06833666563
 21
88.7514655070231
 31
0.0
  0
LINE
  5
   6A4
  8
0
  6
CONTINUOUS
 62
     1
 10
255.06833666563
 20
88.7514655070231
 30
0.0
 11
255.06833666563
 21
88.9517371214265
 31
0.0
  0
LINE
  5
   6A5
  8
0
  6
CONTINUOUS
 62
     1
 10
255.06833666563
 20
88.9517371214265
 30
0.0
 11
255.06833666563
 21
89.141960822833
 31
0.0
  0
LINE
  5
   6A6
  8
0
  6
CONTINUOUS
 62
     1
 10
255.06833666563
 20
89.141960822833
 30
0.0
 11
255.06833666563
 21
89.3126059712153
 31
0.0
  0
LINE
  5
   6A7
  8
0
  6
CONTINUOUS
 62
     1
 10
255.06833666563
 20
89.3126059712153
 30
0.0
 11
255.06833666563
 21
89.4551169632063
 31
0.0
  0
LINE
  5
   6A8
  8
0
  6
CONTINUOUS
 62
     1
 10
255.06833666563
 20
89.4551169632063
 30
0.0
 11
255.06833666563
 21
89.5623389523302
 31
0.0
  0
LINE
  5
   6A9
  8
0
  6
CONTINUOUS
 62
     1
 10
255.06833666563
 20
89.5623389523302
 30
0.0
 11
255.06833666563
 21
89.6289023705026
 31
0.0
  0
LINE
  5
   6AA
  8
0
  6
CONTINUOUS
 62
     1
 10
255.06833666563
 20
89.6514655427859
 30
0.0
 11
256.718336731196
 21
89.6514655427859
 31
0.0
  0
LINE
  5
   6AB
  8
0
  6
CONTINUOUS
 62
     1
 10
255.06833666563
 20
89.6289023705026
 30
0.0
 11
255.06833666563
 21
89.6514655427859
 31
0.0
  0
LINE
  5
   6AC
  8
0
  6
CONTINUOUS
 62
     1
 10
254.768336310479
 20
45.424669857556
 30
0.0
 11
255.068336332279
 21
45.2514646753195
 31
0.0
  0
LINE
  5
   6AD
  8
0
  6
CONTINUOUS
 62
     1
 10
254.768336034076
 20
46.8782592618569
 30
0.0
 11
255.068336055876
 21
47.0514644440934
 31
0.0
  0
LINE
  5
   6AE
  8
0
  6
CONTINUOUS
 62
     1
 10
255.06833666563
 20
45.2514649228976
 30
0.0
 11
256.718336731196
 21
45.2514649228976
 31
0.0
  0
LINE
  5
   6AF
  8
0
  6
CONTINUOUS
 62
     1
 10
255.06833666563
 20
45.3405926577625
 30
0.0
 11
255.06833666563
 21
45.4478169357048
 31
0.0
  0
LINE
  5
   6B0
  8
0
  6
CONTINUOUS
 62
     1
 10
255.06833666563
 20
45.4478169357048
 30
0.0
 11
255.06833666563
 21
45.5903244944682
 31
0.0
  0
LINE
  5
   6B1
  8
0
  6
CONTINUOUS
 62
     1
 10
255.06833666563
 20
45.5903244944682
 30
0.0
 11
255.06833666563
 21
45.7609696428505
 31
0.0
  0
LINE
  5
   6B2
  8
0
  6
CONTINUOUS
 62
     1
 10
255.06833666563
 20
45.7609696428505
 30
0.0
 11
255.06833666563
 21
45.9511956330755
 31
0.0
  0
LINE
  5
   6B3
  8
0
  6
CONTINUOUS
 62
     1
 10
255.06833666563
 20
45.9511956330755
 30
0.0
 11
255.06833666563
 21
46.1514649586604
 31
0.0
  0
LINE
  5
   6B4
  8
0
  6
CONTINUOUS
 62
     1
 10
255.06833666563
 20
46.1514649586604
 30
0.0
 11
255.06833666563
 21
46.3517342842453
 31
0.0
  0
LINE
  5
   6B5
  8
0
  6
CONTINUOUS
 62
     1
 10
255.06833666563
 20
46.3517342842453
 30
0.0
 11
255.06833666563
 21
46.5419602744703
 31
0.0
  0
LINE
  5
   6B6
  8
0
  6
CONTINUOUS
 62
     1
 10
255.06833666563
 20
46.5419602744703
 30
0.0
 11
255.06833666563
 21
46.7126054228526
 31
0.0
  0
LINE
  5
   6B7
  8
0
  6
CONTINUOUS
 62
     1
 10
255.06833666563
 20
46.7126054228526
 30
0.0
 11
255.06833666563
 21
46.855112981616
 31
0.0
  0
LINE
  5
   6B8
  8
0
  6
CONTINUOUS
 62
     1
 10
255.06833666563
 20
46.855112981616
 30
0.0
 11
255.06833666563
 21
46.9623372595583
 31
0.0
  0
LINE
  5
   6B9
  8
0
  6
CONTINUOUS
 62
     1
 10
255.06833666563
 20
46.9623372595583
 30
0.0
 11
255.06833666563
 21
47.0289006777307
 31
0.0
  0
LINE
  5
   6BA
  8
0
  6
CONTINUOUS
 62
     1
 10
255.06833666563
 20
47.0514649944232
 30
0.0
 11
256.718336731196
 21
47.0514649944232
 31
0.0
  0
LINE
  5
   6BB
  8
0
  6
CONTINUOUS
 62
     1
 10
257.168336749077
 20
91.6014656202719
 30
0.0
 11
257.468336760998
 21
91.6014656202719
 31
0.0
  0
LINE
  5
   6BC
  8
0
  6
CONTINUOUS
 62
     7
 10
256.718336731196
 20
91.6014656202719
 30
0.0
 11
256.718336731196
 21
113.41155354202
 31
0.0
  0
LINE
  5
   6BD
  8
0
  6
CONTINUOUS
 62
     7
 10
256.118336707354
 20
83.9514653162882
 30
0.0
 11
256.118336707354
 21
87.8514654712603
 31
0.0
  0
LINE
  5
   6BE
  8
0
  6
CONTINUOUS
 62
     7
 10
256.718336731196
 20
14.3672609119706
 30
0.0
 11
256.718336731196
 21
43.3014648454116
 31
0.0
  0
LINE
  5
   6BF
  8
0
  6
CONTINUOUS
 62
     7
 10
256.118336707354
 20
14.1928423003886
 30
0.0
 11
256.118336707354
 21
45.2514649228976
 31
0.0
  0
LINE
  5
   6C0
  8
0
  6
CONTINUOUS
 62
     7
 10
254.023362022769
 20
13.5838380316141
 30
0.0
 11
258.813749100359
 21
14.9763924146343
 31
0.0
  0
LINE
  5
   6C1
  8
0
  6
CONTINUOUS
 62
     7
 10
254.636085951298
 20
114.738988414205
 30
0.0
 11
259.092259976963
 21
111.898177472844
 31
0.0
  0
LINE
  5
   6C2
  8
0
  6
CONTINUOUS
 62
     7
 10
256.118336707354
 20
89.8014655487463
 30
0.0
 11
256.718336731196
 21
89.8014655487463
 31
0.0
  0
LINE
  5
   6C3
  8
0
  6
CONTINUOUS
 62
     7
 10
256.118336707354
 20
87.7014654652998
 30
0.0
 11
256.718336731196
 21
87.7014654652998
 31
0.0
  0
LINE
  5
   6C4
  8
0
  6
CONTINUOUS
 62
     7
 10
256.118336707354
 20
47.2014650003837
 30
0.0
 11
256.718336731196
 21
47.2014650003837
 31
0.0
  0
LINE
  5
   6C5
  8
0
  6
CONTINUOUS
 62
     7
 10
256.118336707354
 20
45.1014649169371
 30
0.0
 11
256.718336731196
 21
45.1014649169371
 31
0.0
  0
LINE
  5
   6C6
  8
0
  6
CONTINUOUS
 62
     7
 10
256.118336707354
 20
50.6514651374743
 30
0.0
 11
256.718336731196
 21
50.6514651374743
 31
0.0
  0
LINE
  5
   6C7
  8
0
  6
CONTINUOUS
 62
     7
 10
256.118336707354
 20
84.2514653282092
 30
0.0
 11
256.718336731196
 21
84.2514653282092
 31
0.0
  0
LINE
  5
   6C8
  8
0
  6
CONTINUOUS
 62
     7
 10
256.118336707354
 20
89.6514655427859
 30
0.0
 11
256.118336707354
 21
113.794053557219
 31
0.0
  0
LINE
  5
   6C9
  8
0
  6
CONTINUOUS
 62
     7
 10
256.118336707354
 20
47.0514649944232
 30
0.0
 11
256.118336707354
 21
50.9514651493953
 31
0.0
  0
INSERT
  5
   6CA
  8
0
  6
CONTINUOUS
 62
     7
  2
*HATCH143
 10
212.168334960938
 20
44.8764953613281
 30
0.0
 41
0.300000011920929
 42
0.300000011920929
 43
0.300000011920929
  0
INSERT
  5
   6CB
  8
0
  6
CONTINUOUS
 62
     7
  2
*HATCH144
 10
212.168334960938
 20
44.8764953613281
 30
0.0
 41
0.300000011920929
 42
0.300000011920929
 43
0.300000011920929
  0
INSERT
  5
   6CC
  8
0
  6
CONTINUOUS
 62
     7
  2
*HATCH145
 10
212.168334960938
 20
44.8764953613281
 30
0.0
 41
0.300000011920929
 42
0.300000011920929
 43
0.300000011920929
  0
INSERT
  5
   6CD
  8
0
  6
CONTINUOUS
 62
     7
  2
*HATCH146
 10
212.168334960938
 20
44.8764953613281
 30
0.0
 41
0.300000011920929
 42
0.300000011920929
 43
0.300000011920929
  0
LINE
  5
   6CE
  8
0
  6
DASHDOT
 62
     7
 10
206.337994292252
 20
12.4766155346751
 30
0.0
 11
214.149258040208
 21
12.4765938636595
 31
0.0
  0
LINE
  5
   6CF
  8
0
  6
CONTINUOUS
 62
     7
 10
210.068334877491
 20
11.2766051377946
 30
0.0
 11
210.068334877491
 21
13.6766052331713
 31
0.0
  0
LINE
  5
   6D0
  8
0
  6
CONTINUOUS
 62
     7
 10
208.868334829807
 20
11.7266084848727
 30
0.0
 11
208.868334829807
 21
13.2266085444831
 31
0.0
  0
LINE
  5
   6D1
  8
0
  6
CONTINUOUS
 62
     7
 10
210.068334877491
 20
13.6766052331713
 30
0.0
 11
211.268334925175
 21
13.6766019039764
 31
0.0
  0
LINE
  5
   6D2
  8
0
  6
CONTINUOUS
 62
     7
 10
210.068334877491
 20
11.2766051377946
 30
0.0
 11
211.268334925175
 21
11.2766018085997
 31
0.0
  0
LINE
  5
   6D3
  8
0
  6
CONTINUOUS
 62
     7
 10
208.868334829807
 20
13.2266085444831
 30
0.0
 11
211.268334925175
 21
13.2266018860932
 31
0.0
  0
LINE
  5
   6D4
  8
0
  6
CONTINUOUS
 62
     7
 10
208.868334829807
 20
11.7266084848727
 30
0.0
 11
211.268334925175
 21
11.7266018264828
 31
0.0
  0
LINE
  5
   6D5
  8
0
  6
CONTINUOUS
 62
     7
 10
210.068334877491
 20
127.076609739719
 30
0.0
 11
211.268334925175
 21
127.076606410524
 31
0.0
  0
LINE
  5
   6D6
  8
0
  6
CONTINUOUS
 62
     7
 10
208.868334829807
 20
126.626613051031
 30
0.0
 11
211.268334925175
 21
126.626606392641
 31
0.0
  0
LINE
  5
   6D7
  8
0
  6
DASHDOT
 62
     7
 10
206.337994292252
 20
125.876620041223
 30
0.0
 11
214.149258040208
 21
125.876598370207
 31
0.0
  0
LINE
  5
   6D8
  8
0
  6
CONTINUOUS
 62
     7
 10
208.868334829807
 20
125.12661299142
 30
0.0
 11
211.268334925175
 21
125.12660633303
 31
0.0
  0
LINE
  5
   6D9
  8
0
  6
CONTINUOUS
 62
     7
 10
210.068334877491
 20
124.676609644342
 30
0.0
 11
211.268334925175
 21
124.676606315147
 31
0.0
  0
LINE
  5
   6DA
  8
0
  6
CONTINUOUS
 62
     7
 10
210.068334877491
 20
124.676609644342
 30
0.0
 11
210.068334877491
 21
127.076609739719
 31
0.0
  0
LINE
  5
   6DB
  8
0
  6
CONTINUOUS
 62
     7
 10
208.868334829807
 20
125.12661299142
 30
0.0
 11
208.868334829807
 21
126.626613051031
 31
0.0
  0
TEXT
  5
   6DC
  8
0
  6
CONTINUOUS
 62
     7
 10
268.419482560211
 20
63.840657439347
 30
0.0
 40
2.99999994039535
  1
X
 41
0.916666655739148
 72
     2
 11
270.619482516501
 21
63.840657439347
 31
0.0
  0
INSERT
  5
   6DD
  8
0
  6
CONTINUOUS
 62
     7
  2
*UDIM609
 10
0.0
 20
0.0
 30
0.0
  0
INSERT
  5
   6DE
  8
0
  6
CONTINUOUS
 62
     7
  2
*UDIM610
 10
0.0
 20
0.0
 30
0.0
  0
INSERT
  5
   6DF
  8
0
  6
CONTINUOUS
 62
     7
  2
*UDIM611
 10
0.0
 20
0.0
 30
0.0
  0
INSERT
  5
   6E0
  8
0
  6
CONTINUOUS
 62
     7
  2
*UDIM612
 10
0.0
 20
0.0
 30
0.0
  0
INSERT
  5
   6E1
  8
0
  6
CONTINUOUS
 62
     7
  2
*UDIM613
 10
0.0
 20
0.0
 30
0.0
  0
INSERT
  5
   6E2
  8
0
  6
CONTINUOUS
 62
     7
  2
*UDIM614
 10
0.0
 20
0.0
 30
0.0
  0
INSERT
  5
   6E3
  8
0
  6
CONTINUOUS
 62
     7
  2
*UDIM615
 10
0.0
 20
0.0
 30
0.0
  0
POINT
  5
   6E4
  8
0
  6
CONTINUOUS
 62
     7
 10
212.618337839842
 20
130.076497590692
 30
0.0
  0
LINE
  5
   6E5
  8
0
  6
CONTINUOUS
 62
     7
 10
219.486725832841
 20
104.455181449564
 30
0.0
 11
220.988189161791
 21
105.956626933111
 31
0.0
  0
LINE
  5
   6E6
  8
0
  6
CONTINUOUS
 62
     7
 10
220.988192095216
 20
105.956633619165
 30
0.0
 11
221.416199444691
 21
106.457784159134
 31
0.0
  0
LINE
  5
   6E7
  8
0
  6
CONTINUOUS
 62
     7
 10
221.416200546455
 20
106.457787526656
 30
0.0
 11
221.760557875222
 21
107.019729082147
 31
0.0
  0
LINE
  5
   6E8
  8
0
  6
CONTINUOUS
 62
     7
 10
221.76055754197
 20
107.019729155041
 30
0.0
 11
222.012768735061
 21
107.62861437778
 31
0.0
  0
LINE
  5
   6E9
  8
0
  6
CONTINUOUS
 62
     7
 10
222.012767509342
 20
107.628610115224
 30
0.0
 11
222.166621886606
 21
108.269460982132
 31
0.0
  0
LINE
  5
   6EA
  8
0
  6
CONTINUOUS
 62
     7
 10
222.166622087028
 20
108.269462993168
 30
0.0
 11
222.218333362256
 21
108.926486644357
 31
0.0
  0
LINE
  5
   6EB
  8
0
  6
CONTINUOUS
 62
     7
 10
222.218340419789
 20
120.618787301715
 30
0.0
 11
222.218340419789
 21
128.876462078094
 31
0.0
  0
LINE
  5
   6EC
  8
0
  6
CONTINUOUS
 62
     7
 10
218.018335193396
 20
128.876462078093
 30
0.0
 11
222.218330782652
 21
128.876462078093
 31
0.0
  0
LINE
  5
   6ED
  8
0
  6
CONTINUOUS
 62
     7
 10
218.018320737686
 20
122.576461827754
 30
0.0
 11
218.018320737686
 21
128.876462078096
 31
0.0
  0
LINE
  5
   6EE
  8
0
  6
CONTINUOUS
 62
     7
 10
216.0985029544
 20
107.006662260609
 30
0.0
 11
218.018332624226
 21
108.926491121287
 31
0.0
  0
LINE
  5
   6EF
  8
0
  6
CONTINUOUS
 62
     7
 10
215.670467707381
 20
106.505504522906
 30
0.0
 11
216.098501944862
 21
107.00665964602
 31
0.0
  0
LINE
  5
   6F0
  8
0
  6
CONTINUOUS
 62
     7
 10
215.3261095977
 20
105.943566749927
 30
0.0
 11
215.670467493406
 21
106.505503724105
 31
0.0
  0
LINE
  5
   6F1
  8
0
  6
CONTINUOUS
 62
     7
 10
215.073899733105
 20
105.334682604642
 30
0.0
 11
215.326110930539
 21
105.943572393965
 31
0.0
  0
LINE
  5
   6F2
  8
0
  6
CONTINUOUS
 62
     7
 10
214.920043725577
 20
104.693827364968
 30
0.0
 11
215.073898098782
 21
105.334673644838
 31
0.0
  0
LINE
  5
   6F3
  8
0
  6
CONTINUOUS
 62
     7
 10
214.901262191936
 20
104.455181449564
 30
0.0
 11
214.920044168719
 21
104.693828962538
 31
0.0
  0
LINE
  5
   6F4
  8
0
  6
CONTINUOUS
 62
     7
 10
222.293326207995
 20
121.55093243665
 30
0.0
 11
222.293326207995
 21
130.076498746872
 31
0.0
  0
LINE
  5
   6F5
  8
0
  6
CONTINUOUS
 62
     7
 10
217.943335190415
 20
126.776461994647
 30
0.0
 11
217.943335190415
 21
130.076498746872
 31
0.0
  0
LINE
  5
   6F6
  8
0
  6
CONTINUOUS
 62
     7
 10
218.018332766901
 20
114.776461517809
 30
0.0
 11
222.218332400315
 21
114.776461517809
 31
0.0
  0
LINE
  5
   6F7
  8
0
  6
CONTINUOUS
 62
     7
 10
218.018332766901
 20
110.876461362837
 30
0.0
 11
222.218332400315
 21
110.876461362837
 31
0.0
  0
LINE
  5
   6F8
  8
0
  6
CONTINUOUS
 62
     7
 10
222.218340419789
 20
108.926484173537
 30
0.0
 11
222.218340419789
 21
109.076461291312
 31
0.0
  0
LINE
  5
   6F9
  8
0
  6
CONTINUOUS
 62
     7
 10
213.218332550352
 20
114.304410749052
 30
0.0
 11
215.078275656662
 21
114.304410749052
 31
0.0
  0
LINE
  5
   6FA
  8
0
  6
CONTINUOUS
 62
     7
 10
213.218332550352
 20
111.348512131595
 30
0.0
 11
215.078275656662
 21
111.348512131595
 31
0.0
  0
LINE
  5
   6FB
  8
0
  6
CONTINUOUS
 62
     7
 10
217.943335190415
 20
108.851493719085
 30
0.0
 11
217.943335190415
 21
110.426465922593
 31
0.0
  0
LINE
  5
   6FC
  8
0
  6
CONTINUOUS
 62
     7
 10
218.018320737686
 20
121.526697150784
 30
0.0
 11
218.018320737686
 21
122.576461827754
 31
0.0
  0
LINE
  5
   6FD
  8
0
  6
CONTINUOUS
 62
     7
 10
218.018320737686
 20
119.726231113803
 30
0.0
 11
218.018320737686
 21
121.526697150784
 31
0.0
  0
LINE
  5
   6FE
  8
0
  6
CONTINUOUS
 62
     7
 10
218.018320737686
 20
114.62654637944
 30
0.0
 11
218.018320737686
 21
119.726231113803
 31
0.0
  0
LINE
  5
   6FF
  8
0
  6
CONTINUOUS
 62
     7
 10
212.768332532471
 20
109.526461309193
 30
0.0
 11
213.968332866257
 21
109.526461309193
 31
0.0
  0
LINE
  5
   700
  8
0
  6
CONTINUOUS
 62
     7
 10
214.868332615917
 20
109.526461309193
 30
0.0
 11
217.868339601582
 21
109.526461309193
 31
0.0
  0
LINE
  5
   701
  8
0
  6
CONTINUOUS
 62
     7
 10
212.768332532471
 20
127.97638880014
 30
0.0
 11
217.868332735126
 21
127.97638880014
 31
0.0
  0
LINE
  5
   702
  8
0
  6
CONTINUOUS
 62
     7
 10
212.768332532471
 20
109.526461309193
 30
0.0
 11
212.768332532471
 21
127.97638880014
 31
0.0
  0
LINE
  5
   703
  8
0
  6
CONTINUOUS
 62
     7
 10
217.868372360563
 20
126.776397907749
 30
0.0
 11
217.868372360563
 21
127.976388800159
 31
0.0
  0
LINE
  5
   704
  8
0
  6
CONTINUOUS
 62
     7
 10
217.868335023945
 20
121.628950498599
 30
0.0
 11
217.868335023945
 21
122.576397740837
 31
0.0
  0
LINE
  5
   705
  8
0
  6
CONTINUOUS
 62
     7
 10
217.868364158665
 20
115.226466113338
 30
0.0
 11
217.868364158665
 21
116.725935167062
 31
0.0
  0
LINE
  5
   706
  8
0
  6
CONTINUOUS
 62
     7
 10
217.868380704737
 20
109.52646130922
 30
0.0
 11
217.868380704737
 21
110.426465922619
 31
0.0
  0
LINE
  5
   707
  8
0
  6
CONTINUOUS
 62
     7
 10
213.968309459512
 20
107.126461213834
 30
0.0
 11
213.968309459512
 21
109.526461309201
 31
0.0
  0
LINE
  5
   708
  8
0
  6
CONTINUOUS
 62
     7
 10
214.868331838421
 20
107.126459245912
 30
0.0
 11
217.868338838263
 21
109.526459395731
 31
0.0
  0
LINE
  5
   709
  8
0
  6
CONTINUOUS
 62
     7
 10
213.968331721847
 20
107.126461213826
 30
0.0
 11
214.868332615917
 21
107.126461213826
 31
0.0
  0
LINE
  5
   70A
  8
0
  6
CONTINUOUS
 62
     7
 10
214.868332615917
 20
107.126461213826
 30
0.0
 11
214.868332615917
 21
109.526461309193
 31
0.0
  0
LINE
  5
   70B
  8
0
  6
CONTINUOUS
 62
     7
 10
213.218332550352
 20
110.126461333035
 30
0.0
 11
213.218332550352
 21
115.526461547612
 31
0.0
  0
LINE
  5
   70C
  8
0
  6
CONTINUOUS
 62
     7
 10
213.218332550352
 20
122.366461819409
 30
0.0
 11
213.218332550352
 21
126.986462002991
 31
0.0
  0
LINE
  5
   70D
  8
0
  6
CONTINUOUS
 62
     7
 10
213.968332580154
 20
118.676420474049
 30
0.0
 11
213.968332580154
 21
119.641537394724
 31
0.0
  0
LINE
  5
   70E
  8
0
  6
CONTINUOUS
 62
     7
 10
213.968332580154
 20
116.720052903635
 30
0.0
 11
213.968332580154
 21
117.476420426366
 31
0.0
  0
LINE
  5
   70F
  8
0
  6
CONTINUOUS
 62
     3
 10
217.868332735126
 20
119.623973001936
 30
0.0
 11
217.868332735126
 21
119.641541972361
 31
0.0
  0
LINE
  5
   710
  8
0
  6
CONTINUOUS
 62
     7
 10
213.968332580154
 20
118.676420474049
 30
0.0
 11
217.868332735126
 21
118.676420474049
 31
0.0
  0
LINE
  5
   711
  8
0
  6
CONTINUOUS
 62
     7
 10
213.968332580154
 20
117.476420426366
 30
0.0
 11
217.868332735126
 21
117.476420426366
 31
0.0
  0
LINE
  5
   712
  8
0
  6
CONTINUOUS
 62
     7
 10
217.868332735126
 20
116.725935167052
 30
0.0
 11
217.868332735126
 21
119.623973001936
 31
0.0
  0
LINE
  5
   713
  8
0
  6
CONTINUOUS
 62
     7
 10
213.218332550352
 20
115.226466113328
 30
0.0
 11
218.018332741087
 21
115.226466113328
 31
0.0
  0
LINE
  5
   714
  8
0
  6
CONTINUOUS
 62
     7
 10
213.218332550352
 20
110.426465922593
 30
0.0
 11
218.018332741087
 21
110.426465922593
 31
0.0
  0
LINE
  5
   715
  8
0
  6
CONTINUOUS
 62
     7
 10
217.868333879536
 20
115.976461565493
 30
0.0
 11
218.018332741087
 21
115.976461565493
 31
0.0
  0
LINE
  5
   716
  8
0
  6
CONTINUOUS
 62
     7
 10
213.968332580154
 20
116.725935167052
 30
0.0
 11
217.868332735126
 21
116.725935167052
 31
0.0
  0
LINE
  5
   717
  8
0
  6
CONTINUOUS
 62
     7
 10
213.218332550352
 20
110.126461333035
 30
0.0
 11
217.868335596149
 21
110.126461333035
 31
0.0
  0
LINE
  5
   718
  8
0
  6
CONTINUOUS
 62
     7
 10
213.218332550352
 20
115.526461547612
 30
0.0
 11
217.86833445174
 21
115.526461547612
 31
0.0
  0
LINE
  5
   719
  8
0
  6
CONTINUOUS
 62
     7
 10
213.968332580154
 20
119.641541972361
 30
0.0
 11
217.868332735126
 21
119.641541972361
 31
0.0
  0
LINE
  5
   71A
  8
0
  6
CONTINUOUS
 62
     7
 10
217.868333070658
 20
119.623973764874
 30
0.0
 11
218.018333618328
 21
119.72397749692
 31
0.0
  0
LINE
  5
   71B
  8
0
  6
CONTINUOUS
 62
     7
 10
217.868332538766
 20
121.628951239445
 30
0.0
 11
218.018333928948
 21
121.528946945705
 31
0.0
  0
LINE
  5
   71C
  8
0
  6
CONTINUOUS
 62
     7
 10
213.218332550352
 20
111.026461368798
 30
0.0
 11
215.078275656662
 21
111.026461368798
 31
0.0
  0
LINE
  5
   71D
  8
0
  6
CONTINUOUS
 62
     7
 10
213.218332550352
 20
114.626461511849
 30
0.0
 11
215.078275656662
 21
114.626461511849
 31
0.0
  0
LINE
  5
   71E
  8
0
  6
CONTINUOUS
 62
     7
 10
217.868332735126
 20
118.076466226577
 30
0.0
 11
218.018332741087
 21
118.076466226577
 31
0.0
  0
LINE
  5
   71F
  8
0
  6
DASHDOT
 62
     7
 10
211.338718147364
 20
124.6764619112
 30
0.0
 11
218.893801694001
 21
124.6764619112
 31
0.0
  0
LINE
  5
   720
  8
0
  6
CONTINUOUS
 62
     7
 10
213.218332550352
 20
126.986462002991
 30
0.0
 11
217.868333207165
 21
126.986462002991
 31
0.0
  0
LINE
  5
   721
  8
0
  6
CONTINUOUS
 62
     7
 10
213.218332550352
 20
122.366461819409
 30
0.0
 11
217.868333207165
 21
122.366461819409
 31
0.0
  0
LINE
  5
   722
  8
0
  6
CONTINUOUS
 62
     7
 10
213.218332550352
 20
126.776461994647
 30
0.0
 11
218.018332741087
 21
126.776461994647
 31
0.0
  0
LINE
  5
   723
  8
0
  6
CONTINUOUS
 62
     7
 10
213.218332550352
 20
122.576461827754
 30
0.0
 11
218.018332741087
 21
122.576461827754
 31
0.0
  0
LINE
  5
   724
  8
0
  6
CONTINUOUS
 62
     7
 10
213.218332550352
 20
126.176461970805
 30
0.0
 11
218.018332741087
 21
126.176461970805
 31
0.0
  0
LINE
  5
   725
  8
0
  6
CONTINUOUS
 62
     7
 10
213.218332550352
 20
123.176461851595
 30
0.0
 11
218.018332741087
 21
123.176461851595
 31
0.0
  0
LINE
  5
   726
  8
0
  6
CONTINUOUS
 62
     7
 10
213.218332550352
 20
125.951461961864
 30
0.0
 11
218.018332741087
 21
125.951461961864
 31
0.0
  0
LINE
  5
   727
  8
0
  6
CONTINUOUS
 62
     7
 10
213.218332550352
 20
123.401461860536
 30
0.0
 11
218.018332741087
 21
123.401461860536
 31
0.0
  0
INSERT
  5
   728
  8
0
  6
CONTINUOUS
 62
     2
  2
*HATCH147
 10
212.168334960938
 20
44.8764953613281
 30
0.0
 41
0.300000011920929
 42
0.300000011920929
 43
0.300000011920929
  0
INSERT
  5
   729
  8
0
  6
CONTINUOUS
 62
     2
  2
*HATCH148
 10
212.168334960938
 20
44.8764953613281
 30
0.0
 41
0.300000011920929
 42
0.300000011920929
 43
0.300000011920929
  0
INSERT
  5
   72A
  8
0
  6
CONTINUOUS
 62
     7
  2
*HATCH149
 10
212.168334960938
 20
44.8764953613281
 30
0.0
 41
0.300000011920929
 42
0.300000011920929
 43
0.300000011920929
  0
LINE
  5
   72B
  8
0
  6
DASHDOT
 62
     7
 10
217.619680844866
 20
120.626461750267
 30
0.0
 11
223.00867473339
 21
120.626461750267
 31
0.0
  0
LINE
  5
   72C
  8
0
  6
CONTINUOUS
 62
     7
 10
218.018335193396
 20
121.751461794971
 30
0.0
 11
222.218330782652
 21
121.751461794971
 31
0.0
  0
LINE
  5
   72D
  8
0
  6
CONTINUOUS
 62
     7
 10
218.018335193396
 20
119.501461705564
 30
0.0
 11
222.218330782652
 21
119.501461705564
 31
0.0
  0
INSERT
  5
   72E
  8
0
  6
CONTINUOUS
 62
     7
  2
*HATCH150
 10
212.168334960938
 20
44.8764953613281
 30
0.0
 41
0.300000011920929
 42
0.300000011920929
 43
0.300000011920929
  0
INSERT
  5
   72F
  8
0
  6
CONTINUOUS
 62
     7
  2
*HATCH151
 10
212.168334960938
 20
44.8764953613281
 30
0.0
 41
0.300000011920929
 42
0.300000011920929
 43
0.300000011920929
  0
LINE
  5
   730
  8
0
  6
CONTINUOUS
 62
     2
 10
227.168340134621
 20
160.676353478426
 30
0.0
 11
231.668333446979
 21
160.676353478426
 31
0.0
  0
LINE
  5
   731
  8
0
  6
CONTINUOUS
 62
     2
 10
222.21833307147
 20
109.226534539463
 30
0.0
 11
226.718329817056
 21
109.226534539463
 31
0.0
  0
LINE
  5
   732
  8
0
  6
CONTINUOUS
 62
     2
 10
222.218321627378
 20
118.826534920977
 30
0.0
 11
222.218326634154
 21
114.626546378778
 31
0.0
  0
LINE
  5
   733
  8
0
  6
CONTINUOUS
 62
     2
 10
222.218321627378
 20
118.826534920877
 30
0.0
 11
222.218325060599
 21
120.605222793916
 31
0.0
  0
LINE
  5
   734
  8
0
  6
CONTINUOUS
 62
     2
 10
231.668331158161
 20
130.376434675944
 30
0.0
 11
231.668335735755
 21
128.661841864399
 31
0.0
  0
LINE
  5
   735
  8
0
  6
CONTINUOUS
 62
     2
 10
231.668342796487
 20
130.376432017519
 30
0.0
 11
231.668342796487
 21
147.191035346804
 31
0.0
  0
LINE
  5
   736
  8
0
  6
CONTINUOUS
 62
     2
 10
231.668328869343
 20
147.494883228079
 30
0.0
 11
231.668328869343
 21
147.860361758227
 31
0.0
  0
LINE
  5
   737
  8
0
  6
CONTINUOUS
 62
     2
 10
231.668328869343
 20
147.860361758227
 30
0.0
 11
231.668328869343
 21
148.277338703507
 31
0.0
  0
LINE
  5
   738
  8
0
  6
CONTINUOUS
 62
     2
 10
231.668328869343
 20
147.191038001161
 30
0.0
 11
231.668328869343
 21
147.494883228079
 31
0.0
  0
LINE
  5
   739
  8
0
  6
CONTINUOUS
 62
     2
 10
231.668328869343
 20
149.218390988504
 30
0.0
 11
231.668333446979
 21
149.716355485831
 31
0.0
  0
LINE
  5
   73A
  8
0
  6
CONTINUOUS
 62
     2
 10
231.668328869343
 20
148.734241797834
 30
0.0
 11
231.668328869343
 21
149.218390986995
 31
0.0
  0
LINE
  5
   73B
  8
0
  6
CONTINUOUS
 62
     2
 10
231.668328869343
 20
148.277338703507
 30
0.0
 11
231.668328869343
 21
148.734241797834
 31
0.0
  0
LINE
  5
   73C
  8
0
  6
CONTINUOUS
 62
     2
 10
231.668333446979
 20
149.716355484321
 30
0.0
 11
231.668333446979
 21
160.676353478426
 31
0.0
  0
LINE
  5
   73D
  8
0
  6
CONTINUOUS
 62
     2
 10
227.168340134621
 20
128.661829272865
 30
0.0
 11
227.168340134621
 21
130.376434671876
 31
0.0
  0
LINE
  5
   73E
  8
0
  6
CONTINUOUS
 62
     2
 10
227.168340134621
 20
130.376434671876
 30
0.0
 11
227.168340134621
 21
147.191028845888
 31
0.0
  0
LINE
  5
   73F
  8
0
  6
CONTINUOUS
 62
     2
 10
227.168340134621
 20
149.218390986995
 30
0.0
 11
227.168340134621
 21
149.716355484321
 31
0.0
  0
LINE
  5
   740
  8
0
  6
CONTINUOUS
 62
     2
 10
227.168340134621
 20
148.277338703507
 30
0.0
 11
227.168340134621
 21
148.734241797834
 31
0.0
  0
LINE
  5
   741
  8
0
  6
CONTINUOUS
 62
     2
 10
227.168340134621
 20
147.191028845888
 30
0.0
 11
227.168340134621
 21
147.494883228079
 31
0.0
  0
LINE
  5
   742
  8
0
  6
CONTINUOUS
 62
     2
 10
227.168340134621
 20
147.494883228079
 30
0.0
 11
227.168340134621
 21
147.860361758227
 31
0.0
  0
LINE
  5
   743
  8
0
  6
CONTINUOUS
 62
     2
 10
227.168340134621
 20
147.860361758227
 30
0.0
 11
227.168340134621
 21
148.277338703507
 31
0.0
  0
LINE
  5
   744
  8
0
  6
CONTINUOUS
 62
     2
 10
227.168340134621
 20
148.734241797834
 30
0.0
 11
227.168340134621
 21
149.218390986995
 31
0.0
  0
LINE
  5
   745
  8
0
  6
CONTINUOUS
 62
     2
 10
227.168340134621
 20
149.716355484321
 30
0.0
 11
227.168340134621
 21
160.676353478426
 31
0.0
  0
LINE
  5
   746
  8
0
  6
CONTINUOUS
 62
     2
 10
223.975683561574
 20
124.847851187153
 30
0.0
 11
226.729000509374
 21
127.60116927937
 31
0.0
  0
LINE
  5
   747
  8
0
  6
CONTINUOUS
 62
     2
 10
226.718276119194
 20
109.226546680902
 30
0.0
 11
226.718276119194
 21
118.826547062375
 31
0.0
  0
LINE
  5
   748
  8
0
  6
CONTINUOUS
 62
     2
 10
226.718337827921
 20
118.826534911784
 30
0.0
 11
226.718340116743
 21
120.605229156409
 31
0.0
  0
LINE
  5
   749
  8
0
  6
CONTINUOUS
 62
     2
 10
227.157679741989
 20
121.66588723005
 30
0.0
 11
229.910977234791
 21
124.41918586726
 31
0.0
  0
ARC
  5
   74A
  8
0
  6
CONTINUOUS
 62
     2
 10
225.668335497358
 20
128.661825841241
 30
0.0
 40
6.00000023841858
 50
315.000011907489
 51
360.0
  0
ARC
  5
   74B
  8
0
  6
CONTINUOUS
 62
     2
 10
225.668340075016
 20
128.661829272865
 30
0.0
 40
1.50000005960464
 50
315.000011907489
 51
360.0
  0
ARC
  5
   74C
  8
0
  6
CONTINUOUS
 62
     2
 10
228.218340176347
 20
120.605227236555
 30
0.0
 40
1.50000005960464
 50
135.000011907489
 51
179.999926271834
  0
ARC
  5
   74D
  8
0
  6
CONTINUOUS
 62
     2
 10
228.218325299007
 20
120.605211213173
 30
0.0
 40
6.00000023841858
 50
135.000011907489
 51
179.999889407752
  0
LINE
  5
   74E
  8
0
  6
CONTINUOUS
 62
     2
 10
227.168340134621
 20
156.626363403604
 30
0.0
 11
231.668327584998
 21
156.626363403604
 31
0.0
  0
LINE
  5
   74F
  8
0
  6
DASHDOT
 62
     2
 10
225.830708135603
 20
154.676369443045
 30
0.0
 11
233.078476744005
 21
154.676369443045
 31
0.0
  0
LINE
  5
   750
  8
0
  6
CONTINUOUS
 62
     2
 10
227.168340134621
 20
152.726375482486
 30
0.0
 11
231.668328115868
 21
152.726375482486
 31
0.0
  0
LINE
  5
   751
  8
0
  6
CONTINUOUS
 62
     2
 10
222.218326455351
 20
114.776540268475
 30
0.0
 11
226.718334448339
 21
114.776540268475
 31
0.0
  0
LINE
  5
   752
  8
0
  6
DASHDOT
 62
     2
 10
212.104032300197
 20
112.826546307914
 30
0.0
 11
231.727337468289
 21
112.826546307914
 31
0.0
  0
LINE
  5
   753
  8
0
  6
CONTINUOUS
 62
     2
 10
222.218331104498
 20
110.876552347354
 30
0.0
 11
226.718331193936
 21
110.876552347354
 31
0.0
  0
INSERT
  5
   754
  8
0
  6
CONTINUOUS
 62
     2
  2
*HATCH152
 10
212.168334960938
 20
44.8764953613281
 30
0.0
 41
0.300000011920929
 42
0.300000011920929
 43
0.300000011920929
  0
INSERT
  5
   755
  8
0
  6
CONTINUOUS
 62
     2
  2
*HATCH153
 10
212.168334960938
 20
44.8764953613281
 30
0.0
 41
0.300000011920929
 42
0.300000011920929
 43
0.300000011920929
  0
INSERT
  5
   756
  8
0
  6
CONTINUOUS
 62
     2
  2
*HATCH154
 10
212.168334960938
 20
44.8764953613281
 30
0.0
 41
0.300000011920929
 42
0.300000011920929
 43
0.300000011920929
  0
LINE
  5
   757
  8
0
  6
CONTINUOUS
 62
     7
 10
227.078276133499
 20
109.226534539463
 30
0.0
 11
227.078276133499
 21
116.426546450966
 31
0.0
  0
LINE
  5
   758
  8
0
  6
CONTINUOUS
 62
     7
 10
226.718276119194
 20
116.426546450966
 30
0.0
 11
227.078276133499
 21
116.426546450966
 31
0.0
  0
LINE
  5
   759
  8
0
  6
CONTINUOUS
 62
     7
 10
226.718276119194
 20
109.226546164863
 30
0.0
 11
227.078276133499
 21
109.226546164863
 31
0.0
  0
LINE
  5
   75A
  8
0
  6
CONTINUOUS
 62
     7
 10
222.218340419789
 20
108.926482949751
 30
0.0
 11
222.218340419789
 21
109.226534539463
 31
0.0
  0
LINE
  5
   75B
  8
0
  6
CONTINUOUS
 62
     1
 10
230.67827627655
 20
112.649366819681
 30
0.0
 11
230.67827627655
 21
115.526546415203
 31
0.0
  0
LINE
  5
   75C
  8
0
  6
CONTINUOUS
 62
     1
 10
227.078276133499
 20
110.126546200626
 30
0.0
 11
227.078276133499
 21
115.526546415203
 31
0.0
  0
LINE
  5
   75D
  8
0
  6
CONTINUOUS
 62
     1
 10
225.503276070914
 20
111.026546236389
 30
0.0
 11
225.503276070914
 21
114.62654637944
 31
0.0
  0
LINE
  5
   75E
  8
0
  6
CONTINUOUS
 62
     1
 10
215.078275656662
 20
111.026546236389
 30
0.0
 11
215.078275656662
 21
114.62654637944
 31
0.0
  0
LINE
  5
   75F
  8
0
  6
CONTINUOUS
 62
     1
 10
215.078275656662
 20
114.62654637944
 30
0.0
 11
227.078276133499
 21
114.62654637944
 31
0.0
  0
LINE
  5
   760
  8
0
  6
CONTINUOUS
 62
     1
 10
215.078275656662
 20
111.026546236389
 30
0.0
 11
227.078276133499
 21
111.026546236389
 31
0.0
  0
LINE
  5
   761
  8
0
  6
CONTINUOUS
 62
     1
 10
227.078276133499
 20
115.526546415203
 30
0.0
 11
230.678276276551
 21
115.526546415203
 31
0.0
  0
LINE
  5
   762
  8
0
  6
CONTINUOUS
 62
     1
 10
227.078276133499
 20
110.126546200626
 30
0.0
 11
228.200750316376
 21
110.126546200626
 31
0.0
  0
LINE
  5
   763
  8
0
  6
CONTINUOUS
 62
     7
 10
215.078275656662
 20
114.304495616643
 30
0.0
 11
225.503276070914
 21
114.304495616643
 31
0.0
  0
LINE
  5
   764
  8
0
  6
CONTINUOUS
 62
     7
 10
215.078275656662
 20
111.348596999186
 30
0.0
 11
225.503276070914
 21
111.348596999186
 31
0.0
  0
LINE
  5
   765
  8
0
  6
CONTINUOUS
 62
     7
 10
218.018320737686
 20
108.92649025723
 30
0.0
 11
218.018320737686
 21
111.026546236389
 31
0.0
  0
LINE
  5
   766
  8
0
  6
CONTINUOUS
 62
     2
 10
222.218330925689
 20
111.026546235727
 30
0.0
 11
222.21833307147
 21
109.226534539507
 31
0.0
  0
INSERT
  5
   767
  8
0
  6
CONTINUOUS
 62
     7
  2
*HATCH155
 10
212.168334960938
 20
44.8764953613281
 30
0.0
 41
0.300000011920929
 42
0.300000011920929
 43
0.300000011920929
  0
INSERT
  5
   768
  8
0
  6
CONTINUOUS
 62
     7
  2
*HATCH156
 10
212.168334960938
 20
44.8764953613281
 30
0.0
 41
0.300000011920929
 42
0.300000011920929
 43
0.300000011920929
  0
POINT
  5
   769
  8
0
  6
CONTINUOUS
 62
     7
 10
212.618334978819
 20
130.076498746872
 30
0.0
  0
INSERT
  5
   76A
  8
0
  6
CONTINUOUS
 62
     7
  2
*HATCH157
 10
212.168334960938
 20
44.8764953613281
 30
0.0
 41
0.300000011920929
 42
0.300000011920929
 43
0.300000011920929
  0
INSERT
  5
   76B
  8
0
  6
CONTINUOUS
 62
     7
  2
*UDIM616
 10
0.0
 20
0.0
 30
0.0
  0
INSERT
  5
   76C
  8
0
  6
CONTINUOUS
 62
     7
  2
*UDIM617
 10
0.0
 20
0.0
 30
0.0
  0
INSERT
  5
   76D
  8
0
  6
CONTINUOUS
 62
     7
  2
*UDIM618
 10
0.0
 20
0.0
 30
0.0
  0
LINE
  5
   76E
  8
0
  6
CONTINUOUS
 62
     7
 10
222.218340419789
 20
9.47627001306684
 30
0.0
 11
222.218340419789
 21
17.7339447894458
 31
0.0
  0
LINE
  5
   76F
  8
0
  6
CONTINUOUS
 62
     7
 10
218.018335193396
 20
9.47627001306795
 30
0.0
 11
222.218330782652
 21
9.47627001306795
 31
0.0
  0
LINE
  5
   770
  8
0
  6
CONTINUOUS
 62
     7
 10
218.018320737686
 20
9.47627001306546
 30
0.0
 11
218.018320737686
 21
15.7762702634074
 31
0.0
  0
LINE
  5
   771
  8
0
  6
CONTINUOUS
 62
     7
 10
222.293326207995
 20
8.27623334428903
 30
0.0
 11
222.293326207995
 21
16.8017996545105
 31
0.0
  0
LINE
  5
   772
  8
0
  6
CONTINUOUS
 62
     7
 10
217.943335190415
 20
8.27623334428903
 30
0.0
 11
217.943335190415
 21
11.5762700965144
 31
0.0
  0
LINE
  5
   773
  8
0
  6
CONTINUOUS
 62
     7
 10
218.018332766901
 20
23.5762705733516
 30
0.0
 11
222.218332400315
 21
23.5762705733516
 31
0.0
  0
LINE
  5
   774
  8
0
  6
CONTINUOUS
 62
     7
 10
218.018332766901
 20
27.4762707283237
 30
0.0
 11
222.218332400315
 21
27.4762707283237
 31
0.0
  0
LINE
  5
   775
  8
0
  6
CONTINUOUS
 62
     7
 10
222.218340419789
 20
29.2762707998492
 30
0.0
 11
222.218340419789
 21
29.4262479176241
 31
0.0
  0
LINE
  5
   776
  8
0
  6
CONTINUOUS
 62
     7
 10
213.218332550352
 20
24.0483213421092
 30
0.0
 11
215.078275656662
 21
24.0483213421092
 31
0.0
  0
LINE
  5
   777
  8
0
  6
CONTINUOUS
 62
     7
 10
213.218332550352
 20
27.0042199595661
 30
0.0
 11
215.078275656662
 21
27.0042199595661
 31
0.0
  0
LINE
  5
   778
  8
0
  6
CONTINUOUS
 62
     7
 10
217.943335190415
 20
27.9262661685682
 30
0.0
 11
217.943335190415
 21
32.5577491064093
 31
0.0
  0
LINE
  5
   779
  8
0
  6
CONTINUOUS
 62
     7
 10
218.018320737686
 20
15.7762702634074
 30
0.0
 11
218.018320737686
 21
16.8260349403769
 31
0.0
  0
LINE
  5
   77A
  8
0
  6
CONTINUOUS
 62
     7
 10
218.018320737686
 20
16.8260349403769
 30
0.0
 11
218.018320737686
 21
18.6265009773578
 31
0.0
  0
LINE
  5
   77B
  8
0
  6
CONTINUOUS
 62
     7
 10
218.018320737686
 20
18.6265009773578
 30
0.0
 11
218.018320737686
 21
23.726185711721
 31
0.0
  0
LINE
  5
   77C
  8
0
  6
CONTINUOUS
 62
     7
 10
212.768332532471
 20
28.8262707819679
 30
0.0
 11
213.968332866257
 21
28.8262707819679
 31
0.0
  0
LINE
  5
   77D
  8
0
  6
CONTINUOUS
 62
     7
 10
214.868332615917
 20
28.8262707819679
 30
0.0
 11
217.868339601582
 21
28.8262707819679
 31
0.0
  0
LINE
  5
   77E
  8
0
  6
CONTINUOUS
 62
     7
 10
212.768332532471
 20
10.3763432910211
 30
0.0
 11
217.868332735126
 21
10.3763432910211
 31
0.0
  0
LINE
  5
   77F
  8
0
  6
CONTINUOUS
 62
     7
 10
212.768332532471
 20
10.3763432910211
 30
0.0
 11
212.768332532471
 21
28.8262707819679
 31
0.0
  0
LINE
  5
   780
  8
0
  6
CONTINUOUS
 62
     7
 10
217.868372360563
 20
10.3763432910023
 30
0.0
 11
217.868372360563
 21
11.5763341834122
 31
0.0
  0
LINE
  5
   781
  8
0
  6
CONTINUOUS
 62
     7
 10
217.868335023945
 20
15.7763343503241
 30
0.0
 11
217.868335023945
 21
16.7237815925621
 31
0.0
  0
LINE
  5
   782
  8
0
  6
CONTINUOUS
 62
     7
 10
217.868364158665
 20
21.6267969240987
 30
0.0
 11
217.868364158665
 21
23.1262659778229
 31
0.0
  0
LINE
  5
   783
  8
0
  6
CONTINUOUS
 62
     7
 10
217.868380704737
 20
27.9262661685417
 30
0.0
 11
217.868380704737
 21
28.8262707819414
 31
0.0
  0
LINE
  5
   784
  8
0
  6
CONTINUOUS
 62
     7
 10
213.968309459512
 20
28.8262707819596
 30
0.0
 11
213.968309459512
 21
31.226270877327
 31
0.0
  0
LINE
  5
   785
  8
0
  6
CONTINUOUS
 62
     7
 10
214.868331838421
 20
31.2262728452488
 30
0.0
 11
217.868338838263
 21
28.8262726954302
 31
0.0
  0
LINE
  5
   786
  8
0
  6
CONTINUOUS
 62
     7
 10
213.968331721847
 20
31.2262708773353
 30
0.0
 11
214.868332615917
 21
31.2262708773353
 31
0.0
  0
LINE
  5
   787
  8
0
  6
CONTINUOUS
 62
     7
 10
214.868332615917
 20
28.8262707819679
 30
0.0
 11
214.868332615917
 21
31.2262708773353
 31
0.0
  0
LINE
  5
   788
  8
0
  6
CONTINUOUS
 62
     7
 10
213.218332550352
 20
22.8262705435493
 30
0.0
 11
213.218332550352
 21
28.226270758126
 31
0.0
  0
LINE
  5
   789
  8
0
  6
CONTINUOUS
 62
     7
 10
213.218332550352
 20
11.3662700881698
 30
0.0
 11
213.218332550352
 21
15.9862702717521
 31
0.0
  0
LINE
  5
   78A
  8
0
  6
CONTINUOUS
 62
     7
 10
213.968332580154
 20
18.7111946964371
 30
0.0
 11
213.968332580154
 21
19.6763116171116
 31
0.0
  0
LINE
  5
   78B
  8
0
  6
CONTINUOUS
 62
     7
 10
213.968332580154
 20
20.8763116647954
 30
0.0
 11
213.968332580154
 21
21.6326791875265
 31
0.0
  0
LINE
  5
   78C
  8
0
  6
CONTINUOUS
 62
     3
 10
217.868332735126
 20
18.7111901188002
 30
0.0
 11
217.868332735126
 21
18.7287590892249
 31
0.0
  0
LINE
  5
   78D
  8
0
  6
CONTINUOUS
 62
     7
 10
213.968332580154
 20
19.6763116171116
 30
0.0
 11
217.868332735126
 21
19.6763116171116
 31
0.0
  0
LINE
  5
   78E
  8
0
  6
CONTINUOUS
 62
     7
 10
213.968332580154
 20
20.8763116647954
 30
0.0
 11
217.868332735126
 21
20.8763116647954
 31
0.0
  0
LINE
  5
   78F
  8
0
  6
CONTINUOUS
 62
     7
 10
217.868332735126
 20
18.7287590892249
 30
0.0
 11
217.868332735126
 21
21.6267969241091
 31
0.0
  0
LINE
  5
   790
  8
0
  6
CONTINUOUS
 62
     7
 10
213.218332550352
 20
23.1262659778333
 30
0.0
 11
218.018332741087
 21
23.1262659778333
 31
0.0
  0
LINE
  5
   791
  8
0
  6
CONTINUOUS
 62
     7
 10
213.218332550352
 20
27.9262661685682
 30
0.0
 11
218.018332741087
 21
27.9262661685682
 31
0.0
  0
LINE
  5
   792
  8
0
  6
CONTINUOUS
 62
     7
 10
217.868333879536
 20
22.3762705256679
 30
0.0
 11
218.018332741087
 21
22.3762705256679
 31
0.0
  0
LINE
  5
   793
  8
0
  6
CONTINUOUS
 62
     7
 10
213.968332580154
 20
21.6267969241091
 30
0.0
 11
217.868332735126
 21
21.6267969241091
 31
0.0
  0
LINE
  5
   794
  8
0
  6
CONTINUOUS
 62
     7
 10
213.218332550352
 20
28.226270758126
 30
0.0
 11
217.868335596149
 21
28.226270758126
 31
0.0
  0
LINE
  5
   795
  8
0
  6
CONTINUOUS
 62
     7
 10
213.218332550352
 20
22.8262705435493
 30
0.0
 11
217.86833445174
 21
22.8262705435493
 31
0.0
  0
LINE
  5
   796
  8
0
  6
CONTINUOUS
 62
     7
 10
213.968332580154
 20
18.7111901188002
 30
0.0
 11
217.868332735126
 21
18.7111901188002
 31
0.0
  0
LINE
  5
   797
  8
0
  6
CONTINUOUS
 62
     7
 10
217.868333070658
 20
18.7287583262872
 30
0.0
 11
218.018333618328
 21
18.6287545942409
 31
0.0
  0
LINE
  5
   798
  8
0
  6
CONTINUOUS
 62
     7
 10
217.868332538766
 20
16.7237808517156
 30
0.0
 11
218.018333928948
 21
16.8237851454558
 31
0.0
  0
LINE
  5
   799
  8
0
  6
CONTINUOUS
 62
     7
 10
213.218332550352
 20
27.3262707223632
 30
0.0
 11
215.078275656662
 21
27.3262707223632
 31
0.0
  0
LINE
  5
   79A
  8
0
  6
CONTINUOUS
 62
     7
 10
213.218332550352
 20
23.7262705793121
 30
0.0
 11
215.078275656662
 21
23.7262705793121
 31
0.0
  0
LINE
  5
   79B
  8
0
  6
CONTINUOUS
 62
     7
 10
217.868332735126
 20
20.2762658645845
 30
0.0
 11
218.018332741087
 21
20.2762658645845
 31
0.0
  0
LINE
  5
   79C
  8
0
  6
DASHDOT
 62
     7
 10
211.338718147364
 20
13.676270179961
 30
0.0
 11
218.893801694001
 21
13.676270179961
 31
0.0
  0
LINE
  5
   79D
  8
0
  6
CONTINUOUS
 62
     7
 10
213.218332550352
 20
11.3662700881698
 30
0.0
 11
217.868333207165
 21
11.3662700881698
 31
0.0
  0
LINE
  5
   79E
  8
0
  6
CONTINUOUS
 62
     7
 10
213.218332550352
 20
15.9862702717521
 30
0.0
 11
217.868333207165
 21
15.9862702717521
 31
0.0
  0
LINE
  5
   79F
  8
0
  6
CONTINUOUS
 62
     7
 10
213.218332550352
 20
11.5762700965144
 30
0.0
 11
218.018332741087
 21
11.5762700965144
 31
0.0
  0
LINE
  5
   7A0
  8
0
  6
CONTINUOUS
 62
     7
 10
213.218332550352
 20
15.7762702634075
 30
0.0
 11
218.018332741087
 21
15.7762702634075
 31
0.0
  0
LINE
  5
   7A1
  8
0
  6
CONTINUOUS
 62
     7
 10
213.218332550352
 20
12.1762701203563
 30
0.0
 11
218.018332741087
 21
12.1762701203563
 31
0.0
  0
LINE
  5
   7A2
  8
0
  6
CONTINUOUS
 62
     7
 10
213.218332550352
 20
15.1762702395656
 30
0.0
 11
218.018332741087
 21
15.1762702395656
 31
0.0
  0
LINE
  5
   7A3
  8
0
  6
CONTINUOUS
 62
     7
 10
213.218332550352
 20
12.401270129297
 30
0.0
 11
218.018332741087
 21
12.401270129297
 31
0.0
  0
LINE
  5
   7A4
  8
0
  6
CONTINUOUS
 62
     7
 10
213.218332550352
 20
14.9512702306249
 30
0.0
 11
218.018332741087
 21
14.9512702306249
 31
0.0
  0
INSERT
  5
   7A5
  8
0
  6
CONTINUOUS
 62
     2
  2
*HATCH158
 10
212.168334960938
 20
44.8764953613281
 30
0.0
 41
0.300000011920929
 42
0.300000011920929
 43
0.300000011920929
  0
INSERT
  5
   7A6
  8
0
  6
CONTINUOUS
 62
     2
  2
*HATCH159
 10
212.168334960938
 20
44.8764953613281
 30
0.0
 41
0.300000011920929
 42
0.300000011920929
 43
0.300000011920929
  0
INSERT
  5
   7A7
  8
0
  6
CONTINUOUS
 62
     7
  2
*HATCH160
 10
212.168334960938
 20
44.8764953613281
 30
0.0
 41
0.300000011920929
 42
0.300000011920929
 43
0.300000011920929
  0
LINE
  5
   7A8
  8
0
  6
DASHDOT
 62
     7
 10
217.619680844866
 20
17.7262703408935
 30
0.0
 11
223.00867473339
 21
17.7262703408935
 31
0.0
  0
LINE
  5
   7A9
  8
0
  6
CONTINUOUS
 62
     7
 10
218.018335193396
 20
16.60127029619
 30
0.0
 11
222.218330782652
 21
16.60127029619
 31
0.0
  0
LINE
  5
   7AA
  8
0
  6
CONTINUOUS
 62
     7
 10
218.018335193396
 20
18.851270385597
 30
0.0
 11
222.218330782652
 21
18.851270385597
 31
0.0
  0
INSERT
  5
   7AB
  8
0
  6
CONTINUOUS
 62
     7
  2
*HATCH161
 10
212.168334960938
 20
44.8764953613281
 30
0.0
 41
0.300000011920929
 42
0.300000011920929
 43
0.300000011920929
  0
INSERT
  5
   7AC
  8
0
  6
CONTINUOUS
 62
     7
  2
*HATCH162
 10
212.168334960938
 20
44.8764953613281
 30
0.0
 41
0.300000011920929
 42
0.300000011920929
 43
0.300000011920929
  0
LINE
  5
   7AD
  8
0
  6
CONTINUOUS
 62
     2
 10
227.168340134621
 20
-22.3236213872649
 30
0.0
 11
231.668333446979
 21
-22.3236213872649
 31
0.0
  0
LINE
  5
   7AE
  8
0
  6
CONTINUOUS
 62
     2
 10
222.21833307147
 20
29.1261975516984
 30
0.0
 11
226.718329817056
 21
29.1261975516984
 31
0.0
  0
LINE
  5
   7AF
  8
0
  6
CONTINUOUS
 62
     2
 10
222.218321627378
 20
19.5261971714097
 30
0.0
 11
222.218326634154
 21
23.7261857131769
 31
0.0
  0
LINE
  5
   7B0
  8
0
  6
CONTINUOUS
 62
     2
 10
222.218321627378
 20
19.5261971706422
 30
0.0
 11
222.218325060599
 21
17.7475092974902
 31
0.0
  0
LINE
  5
   7B1
  8
0
  6
CONTINUOUS
 62
     2
 10
231.668331158161
 20
7.97629741606999
 30
0.0
 11
231.668335735755
 21
9.6908902275369
 31
0.0
  0
LINE
  5
   7B2
  8
0
  6
CONTINUOUS
 62
     2
 10
231.668342796487
 20
-8.83830325564329
 30
0.0
 11
231.668342796487
 21
7.97630007364196
 31
0.0
  0
LINE
  5
   7B3
  8
0
  6
CONTINUOUS
 62
     2
 10
231.668328869343
 20
-9.50762966706567
 30
0.0
 11
231.668328869343
 21
-9.14215113691786
 31
0.0
  0
LINE
  5
   7B4
  8
0
  6
CONTINUOUS
 62
     2
 10
231.668328869343
 20
-9.92460661234578
 30
0.0
 11
231.668328869343
 21
-9.50762966706567
 31
0.0
  0
LINE
  5
   7B5
  8
0
  6
CONTINUOUS
 62
     2
 10
231.668328869343
 20
-9.14215113691786
 30
0.0
 11
231.668328869343
 21
-8.83830591000039
 31
0.0
  0
LINE
  5
   7B6
  8
0
  6
CONTINUOUS
 62
     2
 10
231.668328869343
 20
-10.8656588970028
 30
0.0
 11
231.668333446979
 21
-11.3636233943358
 31
0.0
  0
LINE
  5
   7B7
  8
0
  6
CONTINUOUS
 62
     2
 10
231.668328869343
 20
-10.8656588958336
 30
0.0
 11
231.668328869343
 21
-10.3815097066734
 31
0.0
  0
LINE
  5
   7B8
  8
0
  6
CONTINUOUS
 62
     2
 10
231.668328869343
 20
-10.3815097066734
 30
0.0
 11
231.668328869343
 21
-9.92460661234578
 31
0.0
  0
LINE
  5
   7B9
  8
0
  6
CONTINUOUS
 62
     2
 10
231.668333446979
 20
-22.3236213872649
 30
0.0
 11
231.668333446979
 21
-11.36362339316
 31
0.0
  0
LINE
  5
   7BA
  8
0
  6
CONTINUOUS
 62
     2
 10
227.168340134621
 20
7.97629741928471
 30
0.0
 11
227.168340134621
 21
9.6909028182958
 31
0.0
  0
LINE
  5
   7BB
  8
0
  6
CONTINUOUS
 62
     2
 10
227.168340134621
 20
-8.83829675472658
 30
0.0
 11
227.168340134621
 21
7.97629741928471
 31
0.0
  0
LINE
  5
   7BC
  8
0
  6
CONTINUOUS
 62
     2
 10
227.168340134621
 20
-11.36362339316
 30
0.0
 11
227.168340134621
 21
-10.8656588958336
 31
0.0
  0
LINE
  5
   7BD
  8
0
  6
CONTINUOUS
 62
     2
 10
227.168340134621
 20
-10.3815097066734
 30
0.0
 11
227.168340134621
 21
-9.92460661234578
 31
0.0
  0
LINE
  5
   7BE
  8
0
  6
CONTINUOUS
 62
     2
 10
227.168340134621
 20
-9.14215113691786
 30
0.0
 11
227.168340134621
 21
-8.83829675472658
 31
0.0
  0
LINE
  5
   7BF
  8
0
  6
CONTINUOUS
 62
     2
 10
227.168340134621
 20
-9.50762966706567
 30
0.0
 11
227.168340134621
 21
-9.14215113691786
 31
0.0
  0
LINE
  5
   7C0
  8
0
  6
CONTINUOUS
 62
     2
 10
227.168340134621
 20
-9.92460661234578
 30
0.0
 11
227.168340134621
 21
-9.50762966706567
 31
0.0
  0
LINE
  5
   7C1
  8
0
  6
CONTINUOUS
 62
     2
 10
227.168340134621
 20
-10.8656588958336
 30
0.0
 11
227.168340134621
 21
-10.3815097066734
 31
0.0
  0
LINE
  5
   7C2
  8
0
  6
CONTINUOUS
 62
     2
 10
227.168340134621
 20
-22.3236213872649
 30
0.0
 11
227.168340134621
 21
-11.36362339316
 31
0.0
  0
LINE
  5
   7C3
  8
0
  6
CONTINUOUS
 62
     2
 10
223.975683561574
 20
13.5048809040075
 30
0.0
 11
226.729000509374
 21
10.7515628117908
 31
0.0
  0
LINE
  5
   7C4
  8
0
  6
CONTINUOUS
 62
     2
 10
226.718276119194
 20
19.5261850287859
 30
0.0
 11
226.718276119194
 21
29.1261854102589
 31
0.0
  0
LINE
  5
   7C5
  8
0
  6
CONTINUOUS
 62
     2
 10
226.718337827921
 20
19.5261971788812
 30
0.0
 11
226.718340116743
 21
17.747502934086
 31
0.0
  0
LINE
  5
   7C6
  8
0
  6
CONTINUOUS
 62
     2
 10
227.157679741989
 20
16.6868448611107
 30
0.0
 11
229.910977234791
 21
13.9335462239006
 31
0.0
  0
ARC
  5
   7C7
  8
0
  6
CONTINUOUS
 62
     2
 10
225.668335497358
 20
9.69090624992042
 30
0.0
 40
6.00000023841858
 50
7.01670929853487E-15
 51
44.9999880925105
  0
ARC
  5
   7C8
  8
0
  6
CONTINUOUS
 62
     2
 10
225.668340075016
 20
9.6909028182958
 30
0.0
 40
1.50000005960464
 50
7.01670929853487E-15
 51
44.9999880925105
  0
ARC
  5
   7C9
  8
0
  6
CONTINUOUS
 62
     2
 10
228.218340176347
 20
17.7475048546058
 30
0.0
 40
1.50000005960464
 50
180.000073728166
 51
224.999988092511
  0
ARC
  5
   7CA
  8
0
  6
CONTINUOUS
 62
     2
 10
228.218325299007
 20
17.7475208779877
 30
0.0
 40
6.00000023841858
 50
180.000110592248
 51
224.999988092511
  0
LINE
  5
   7CB
  8
0
  6
CONTINUOUS
 62
     2
 10
227.168340134621
 20
-18.273631312443
 30
0.0
 11
231.668327584998
 21
-18.273631312443
 31
0.0
  0
LINE
  5
   7CC
  8
0
  6
DASHDOT
 62
     2
 10
225.830708135603
 20
-16.3236373518843
 30
0.0
 11
233.078476744005
 21
-16.3236373518843
 31
0.0
  0
LINE
  5
   7CD
  8
0
  6
CONTINUOUS
 62
     2
 10
227.168340134621
 20
-14.3736433913255
 30
0.0
 11
231.668328115868
 21
-14.3736433913255
 31
0.0
  0
LINE
  5
   7CE
  8
0
  6
CONTINUOUS
 62
     2
 10
222.218326455351
 20
23.5761918226861
 30
0.0
 11
226.718334448339
 21
23.5761918226861
 31
0.0
  0
LINE
  5
   7CF
  8
0
  6
DASHDOT
 62
     2
 10
212.104032300197
 20
25.5261857832466
 30
0.0
 11
231.727337468289
 21
25.5261857832466
 31
0.0
  0
LINE
  5
   7D0
  8
0
  6
CONTINUOUS
 62
     2
 10
222.218331104499
 20
27.476179743807
 30
0.0
 11
226.718331193936
 21
27.476179743807
 31
0.0
  0
INSERT
  5
   7D1
  8
0
  6
CONTINUOUS
 62
     2
  2
*HATCH163
 10
212.168334960938
 20
44.8764953613281
 30
0.0
 41
0.300000011920929
 42
0.300000011920929
 43
0.300000011920929
  0
INSERT
  5
   7D2
  8
0
  6
CONTINUOUS
 62
     2
  2
*HATCH164
 10
212.168334960938
 20
44.8764953613281
 30
0.0
 41
0.300000011920929
 42
0.300000011920929
 43
0.300000011920929
  0
INSERT
  5
   7D3
  8
0
  6
CONTINUOUS
 62
     2
  2
*HATCH165
 10
212.168334960938
 20
44.8764953613281
 30
0.0
 41
0.300000011920929
 42
0.300000011920929
 43
0.300000011920929
  0
LINE
  5
   7D4
  8
0
  6
CONTINUOUS
 62
     7
 10
227.078276133499
 20
21.9261856401954
 30
0.0
 11
227.078276133499
 21
29.1261975516984
 31
0.0
  0
LINE
  5
   7D5
  8
0
  6
CONTINUOUS
 62
     7
 10
226.718276119194
 20
21.9261856401954
 30
0.0
 11
227.078276133499
 21
21.9261856401954
 31
0.0
  0
LINE
  5
   7D6
  8
0
  6
CONTINUOUS
 62
     7
 10
226.718276119194
 20
29.1261859262977
 30
0.0
 11
227.078276133499
 21
29.1261859262977
 31
0.0
  0
LINE
  5
   7D7
  8
0
  6
CONTINUOUS
 62
     7
 10
222.218340419789
 20
29.1261975516984
 30
0.0
 11
222.218340419789
 21
32.5577491064093
 31
0.0
  0
LINE
  5
   7D8
  8
0
  6
CONTINUOUS
 62
     1
 10
230.67827627655
 20
22.8261856759582
 30
0.0
 11
230.67827627655
 21
25.7033031683792
 31
0.0
  0
LINE
  5
   7D9
  8
0
  6
CONTINUOUS
 62
     1
 10
227.078276133499
 20
22.8261856759582
 30
0.0
 11
227.078276133499
 21
28.2261858905349
 31
0.0
  0
LINE
  5
   7DA
  8
0
  6
CONTINUOUS
 62
     1
 10
225.503276070914
 20
23.726185711721
 30
0.0
 11
225.503276070914
 21
27.3261858547721
 31
0.0
  0
LINE
  5
   7DB
  8
0
  6
CONTINUOUS
 62
     1
 10
215.078275656662
 20
23.726185711721
 30
0.0
 11
215.078275656662
 21
27.3261858547721
 31
0.0
  0
LINE
  5
   7DC
  8
0
  6
CONTINUOUS
 62
     1
 10
215.078275656662
 20
23.726185711721
 30
0.0
 11
227.078276133499
 21
23.726185711721
 31
0.0
  0
LINE
  5
   7DD
  8
0
  6
CONTINUOUS
 62
     1
 10
215.078275656662
 20
27.3261858547721
 30
0.0
 11
227.078276133499
 21
27.3261858547721
 31
0.0
  0
LINE
  5
   7DE
  8
0
  6
CONTINUOUS
 62
     1
 10
227.078276133499
 20
22.8261856759582
 30
0.0
 11
230.678276276551
 21
22.8261856759582
 31
0.0
  0
LINE
  5
   7DF
  8
0
  6
CONTINUOUS
 62
     1
 10
227.078276133499
 20
28.2261858905349
 30
0.0
 11
228.200714800901
 21
28.2261858905349
 31
0.0
  0
LINE
  5
   7E0
  8
0
  6
CONTINUOUS
 62
     7
 10
215.078275656662
 20
24.0482364745181
 30
0.0
 11
225.503276070914
 21
24.0482364745181
 31
0.0
  0
LINE
  5
   7E1
  8
0
  6
CONTINUOUS
 62
     7
 10
215.078275656662
 20
27.004135091975
 30
0.0
 11
225.503276070914
 21
27.004135091975
 31
0.0
  0
LINE
  5
   7E2
  8
0
  6
CONTINUOUS
 62
     7
 10
218.018320737686
 20
27.3261858547721
 30
0.0
 11
218.018320737686
 21
32.5577491064093
 31
0.0
  0
LINE
  5
   7E3
  8
0
  6
CONTINUOUS
 62
     2
 10
222.218330925689
 20
27.3261858558582
 30
0.0
 11
222.21833307147
 21
29.1261975518932
 31
0.0
  0
INSERT
  5
   7E4
  8
0
  6
CONTINUOUS
 62
     7
  2
*HATCH166
 10
212.168334960938
 20
44.8764953613281
 30
0.0
 41
0.300000011920929
 42
0.300000011920929
 43
0.300000011920929
  0
INSERT
  5
   7E5
  8
0
  6
CONTINUOUS
 62
     7
  2
*HATCH167
 10
212.168334960938
 20
44.8764953613281
 30
0.0
 41
0.300000011920929
 42
0.300000011920929
 43
0.300000011920929
  0
INSERT
  5
   7E6
  8
0
  6
CONTINUOUS
 62
     7
  2
*HATCH168
 10
212.168334960938
 20
44.8764953613281
 30
0.0
 41
0.300000011920929
 42
0.300000011920929
 43
0.300000011920929
  0
INSERT
  5
   7E7
  8
0
  6
CONTINUOUS
 62
     7
  2
*UDIM619
 10
0.0
 20
0.0
 30
0.0
  0
INSERT
  5
   7E8
  8
0
  6
CONTINUOUS
 62
     7
  2
*UDIM620
 10
0.0
 20
0.0
 30
0.0
  0
TEXT
  5
   7E9
  8
0
  6
CONTINUOUS
 62
     7
 10
292.24989082008
 20
50.4710193870275
 30
0.0
 40
2.99999994039535
  1
=       =
 50
90.0
 41
0.916666655739148
 72
     2
 11
292.24989082005
 21
74.6710186439562
 31
0.0
  0
TEXT
  5
   7EA
  8
0
  6
CONTINUOUS
 62
     7
 10
189.456304229815
 20
63.4361077761467
 30
0.0
 40
2.99999994039535
  1
X
 41
0.916666655739148
 72
     2
 11
191.656304186105
 21
63.4361077761467
 31
0.0
  0
ENDSEC
  0
EOF
