  0
SECTION
  2
HEADER
  9
$ACADVER
  1
AC1009
  9
$INSBASE
 10
0.0
 20
0.0
 30
0.0
  9
$EXTMIN
 10
0.237099
 20
0.237999
 30
0.0
  9
$EXTMAX
 10
392.237099
 20
262.737999
 30
0.0
  9
$LIMMIN
 10
0.0
 20
0.0
  9
$LIMMAX
 10
12.0
 20
9.0
  9
$ORTHOMODE
 70
     1
  9
$REGENMODE
 70
     1
  9
$FILLMODE
 70
     1
  9
$QTEXTMODE
 70
     0
  9
$MIRRTEXT
 70
     1
  9
$DRAGMODE
 70
     2
  9
$LTSCALE
 40
5.0
  9
$OSMODE
 70
     0
  9
$ATTMODE
 70
     1
  9
$TEXTSIZE
 40
2.0
  9
$TRACEWID
 40
0.05
  9
$TEXTSTYLE
  7
ROMANS
  9
$CLAYER
  8
0
  9
$CELTYPE
  6
CONTINUOUS
  9
$CECOLOR
 62
   256
  9
$DIMSCALE
 40
1.0
  9
$DIMASZ
 40
0.18
  9
$DIMEXO
 40
0.0625
  9
$DIMDLI
 40
0.38
  9
$DIMRND
 40
0.0
  9
$DIMDLE
 40
0.0
  9
$DIMEXE
 40
0.18
  9
$DIMTP
 40
0.0
  9
$DIMTM
 40
0.0
  9
$DIMTXT
 40
0.18
  9
$DIMCEN
 40
0.09
  9
$DIMTSZ
 40
0.0
  9
$DIMTOL
 70
     0
  9
$DIMLIM
 70
     0
  9
$DIMTIH
 70
     1
  9
$DIMTOH
 70
     1
  9
$DIMSE1
 70
     0
  9
$DIMSE2
 70
     0
  9
$DIMTAD
 70
     0
  9
$DIMZIN
 70
     0
  9
$DIMBLK
  1

  9
$DIMASO
 70
     1
  9
$DIMSHO
 70
     1
  9
$DIMPOST
  1

  9
$DIMAPOST
  1

  9
$DIMALT
 70
     0
  9
$DIMALTD
 70
     2
  9
$DIMALTF
 40
25.4
  9
$DIMLFAC
 40
1.0
  9
$DIMTOFL
 70
     0
  9
$DIMTVP
 40
0.0
  9
$DIMTIX
 70
     0
  9
$DIMSOXD
 70
     0
  9
$DIMSAH
 70
     0
  9
$DIMBLK1
  1

  9
$DIMBLK2
  1

  9
$DIMSTYLE
  2
*UNNAMED
  9
$DIMCLRD
 70
     0
  9
$DIMCLRE
 70
     0
  9
$DIMCLRT
 70
     0
  9
$DIMTFAC
 40
1.0
  9
$DIMGAP
 40
0.09
  9
$LUNITS
 70
     2
  9
$LUPREC
 70
     4
  9
$SKETCHINC
 40
0.1
  9
$FILLETRAD
 40
0.0
  9
$AUNITS
 70
     0
  9
$AUPREC
 70
     0
  9
$MENU
  1
acad
  9
$ELEVATION
 40
0.0
  9
$PELEVATION
 40
0.0
  9
$THICKNESS
 40
0.0
  9
$LIMCHECK
 70
     0
  9
$BLIPMODE
 70
     1
  9
$CHAMFERA
 40
0.0
  9
$CHAMFERB
 40
0.0
  9
$SKPOLY
 70
     0
  9
$TDCREATE
 40
2448665.047041319
  9
$TDUPDATE
 40
2449120.459806366
  9
$TDINDWG
 40
0.0266718750
  9
$TDUSRTIMER
 40
0.0266718750
  9
$USRTIMER
 70
     1
  9
$ANGBASE
 50
0.0
  9
$ANGDIR
 70
     0
  9
$PDMODE
 70
     0
  9
$PDSIZE
 40
0.0
  9
$PLINEWID
 40
0.0
  9
$COORDS
 70
     2
  9
$SPLFRAME
 70
     0
  9
$SPLINETYPE
 70
     6
  9
$SPLINESEGS
 70
     8
  9
$ATTDIA
 70
     0
  9
$ATTREQ
 70
     1
  9
$HANDLING
 70
     0
  9
$HANDSEED
  5
0
  9
$SURFTAB1
 70
   250
  9
$SURFTAB2
 70
   250
  9
$SURFTYPE
 70
     6
  9
$SURFU
 70
     6
  9
$SURFV
 70
     6
  9
$UCSNAME
  2

  9
$UCSORG
 10
0.0
 20
0.0
 30
0.0
  9
$UCSXDIR
 10
1.0
 20
0.0
 30
0.0
  9
$UCSYDIR
 10
0.0
 20
1.0
 30
0.0
  9
$PUCSNAME
  2

  9
$PUCSORG
 10
0.0
 20
0.0
 30
0.0
  9
$PUCSXDIR
 10
1.0
 20
0.0
 30
0.0
  9
$PUCSYDIR
 10
0.0
 20
1.0
 30
0.0
  9
$USERI1
 70
     0
  9
$USERI2
 70
     0
  9
$USERI3
 70
     0
  9
$USERI4
 70
     0
  9
$USERI5
 70
     0
  9
$USERR1
 40
0.0
  9
$USERR2
 40
0.0
  9
$USERR3
 40
0.0
  9
$USERR4
 40
0.0
  9
$USERR5
 40
0.0
  9
$WORLDVIEW
 70
     1
  9
$SHADEDGE
 70
     3
  9
$SHADEDIF
 70
    70
  9
$TILEMODE
 70
     1
  9
$MAXACTVP
 70
    16
  9
$PINSBASE
 10
0.0
 20
0.0
 30
0.0
  9
$PLIMCHECK
 70
     0
  9
$PEXTMIN
 10
1.000000E+20
 20
1.000000E+20
 30
1.000000E+20
  9
$PEXTMAX
 10
-1.000000E+20
 20
-1.000000E+20
 30
-1.000000E+20
  9
$PLIMMIN
 10
0.0
 20
0.0
  9
$PLIMMAX
 10
12.0
 20
9.0
  9
$UNITMODE
 70
     0
  9
$VISRETAIN
 70
     0
  9
$PLINEGEN
 70
     0
  9
$PSLTSCALE
 70
     0
  9
$TREEDEPTH
 70
  3020
  9
$DWGCODEPAGE
  3
undefined
  0
ENDSEC
  0
SECTION
  2
TABLES
  0
TABLE
  2
VPORT
 70
     2
  0
VPORT
  2
*ACTIVE
 70
     0
 10
0.0
 20
0.0
 11
1.0
 21
1.0
 12
222.522843
 22
142.040485
 13
0.0
 23
0.0
 14
2.5
 24
2.5
 15
0.0
 25
0.0
 16
0.0
 26
0.0
 36
1.0
 17
0.0
 27
0.0
 37
0.0
 40
284.080971
 41
1.566616
 42
50.0
 43
0.0
 44
0.0
 50
0.0
 51
0.0
 71
     0
 72
   100
 73
     1
 74
     1
 75
     1
 76
     0
 77
     0
 78
     0
  0
ENDTAB
  0
TABLE
  2
LTYPE
 70
     7
  0
LTYPE
  2
CONTINUOUS
 70
    64
  3
Solid line
 72
    65
 73
     0
 40
0.0
  0
LTYPE
  2
DASHED
 70
    64
  3
__ __ __ __ __ __ __ __ __ __ __ __ __ __ __ __
 72
    65
 73
     2
 40
0.75
 49
0.5
 49
-0.25
  0
LTYPE
  2
CENTER
 70
    64
  3
____ _ ____ _ ____ _ ____ _ ____ _ ____ _ ____ 
 72
    65
 73
     4
 40
2.0
 49
1.25
 49
-0.25
 49
0.25
 49
-0.25
  0
LTYPE
  2
HIDDEN
 70
    64
  3
__ __ __ __ __ __ __ __ __ __ __ __ __ __ __ __
 72
    65
 73
     2
 40
0.375
 49
0.25
 49
-0.125
  0
LTYPE
  2
DOT
 70
     0
  3
. . . . . . . . . . . . . . . . . . . . . . . .
 72
    65
 73
     2
 40
0.25
 49
0.0
 49
-0.25
  0
LTYPE
  2
DASHDOT
 70
     0
  3
__ . __ . __ . __ . __ . __ . __ . __ . __ . __
 72
    65
 73
     4
 40
1.0
 49
0.5
 49
-0.25
 49
0.0
 49
-0.25
  0
LTYPE
  2
PHANTOM
 70
     0
  3
______  __  __  ______  __  __  ______  __  __ 
 72
    65
 73
     6
 40
2.5
 49
1.25
 49
-0.25
 49
0.25
 49
-0.25
 49
0.25
 49
-0.25
  0
ENDTAB
  0
TABLE
  2
LAYER
 70
    13
  0
LAYER
  2
0
 70
    64
 62
     7
  6
CONTINUOUS
  0
LAYER
  2
RAAMI
 70
    64
 62
    -4
  6
CONTINUOUS
  0
LAYER
  2
PAKSU
 70
    64
 62
    -3
  6
CONTINUOUS
  0
LAYER
  2
OHUT
 70
    64
 62
    -6
  6
CONTINUOUS
  0
LAYER
  2
SWEDEN
 70
    64
 62
    -7
  6
CONTINUOUS
  0
LAYER
  2
SWEDEN2
 70
    64
 62
    -5
  6
CONTINUOUS
  0
LAYER
  2
BASE
 70
    64
 62
    -7
  6
CONTINUOUS
  0
LAYER
  2
21
 70
    64
 62
    -2
  6
CONTINUOUS
  0
LAYER
  2
HEL035
 70
    64
 62
    -7
  6
CONTINUOUS
  0
LAYER
  2
MUO
 70
    64
 62
    -7
  6
CONTINUOUS
  0
LAYER
  2
1
 70
    64
 62
    -2
  6
CONTINUOUS
  0
LAYER
  2
BASE1
 70
    64
 62
    -1
  6
CONTINUOUS
  0
LAYER
  2
TEKS
 70
    64
 62
    -5
  6
CONTINUOUS
  0
ENDTAB
  0
TABLE
  2
STYLE
 70
     4
  0
STYLE
  2
STANDARD
 70
    64
 40
0.0
 41
1.0
 50
0.0
 71
     0
 42
2.5
  3
txt
  4

  0
STYLE
  2
ROMANS
 70
    64
 40
0.0
 41
1.0
 50
0.0
 71
     0
 42
2.0
  3
romans
  4

  0
STYLE
  2
GREEKC
 70
    64
 40
0.0
 41
1.0
 50
0.0
 71
     0
 42
1.5
  3
GREEKC
  4

  0
STYLE
  2
GREEKS
 70
    64
 40
0.0
 41
1.0
 50
0.0
 71
     0
 42
2.5
  3
TXT
  4

  0
ENDTAB
  0
TABLE
  2
VIEW
 70
     0
  0
ENDTAB
  0
TABLE
  2
UCS
 70
     0
  0
ENDTAB
  0
TABLE
  2
APPID
 70
     1
  0
APPID
  2
ACAD
 70
    64
  0
ENDTAB
  0
TABLE
  2
DIMSTYLE
 70
     0
  0
ENDTAB
  0
ENDSEC
  0
SECTION
  2
BLOCKS
  0
BLOCK
  8
0
  2
1
 70
    64
 10
0.0
 20
0.0
 30
0.0
  3
1
  0
ENDBLK
  8
0
  0
BLOCK
  8
0
  2
BLC16
 70
     0
 10
0.0
 20
0.0
 30
0.0
  3
BLC16
  0
LINE
  8
0
  6
CONTINUOUS
 10
0.007689
 20
38.054928
 30
0.0
 11
19.983683
 21
38.054928
 31
0.0
  0
LINE
  8
0
  6
CONTINUOUS
 10
19.983683
 20
38.054928
 30
0.0
 11
19.983683
 21
-0.003751
 31
0.0
  0
LINE
  8
0
  6
CONTINUOUS
 10
19.983683
 20
-0.003751
 30
0.0
 11
0.007689
 21
-0.003751
 31
0.0
  0
LINE
  8
0
  6
CONTINUOUS
 10
0.007689
 20
-0.003751
 30
0.0
 11
0.007689
 21
38.054928
 31
0.0
  0
LINE
  8
0
  6
CONTINUOUS
 10
14.152643
 20
36.919738
 30
0.0
 11
14.152643
 21
33.528469
 31
0.0
  0
LINE
  8
0
  6
CONTINUOUS
 10
14.152643
 20
33.528469
 30
0.0
 11
11.560435
 21
33.528469
 31
0.0
  0
LINE
  8
0
  6
CONTINUOUS
 10
11.560435
 20
33.528469
 30
0.0
 11
11.560435
 21
30.778433
 31
0.0
  0
LINE
  8
0
  6
CONTINUOUS
 10
11.560435
 20
30.778433
 30
0.0
 11
14.152643
 21
30.778433
 31
0.0
  0
LINE
  8
0
  6
CONTINUOUS
 10
14.152643
 20
30.778433
 30
0.0
 11
14.152643
 21
27.387164
 31
0.0
  0
TEXT
  8
0
  6
CONTINUOUS
 10
6.558569
 20
30.805266
 30
0.0
 40
2.5
  1
2
 11
6.558569
 21
29.971932
 31
0.0
 73
     1
  0
TEXT
  8
0
  6
CONTINUOUS
 10
6.553289
 20
23.854078
 30
0.0
 40
2.5
  1
2 I
 11
6.553289
 21
23.020744
 31
0.0
 73
     1
  0
LINE
  8
0
  6
CONTINUOUS
 10
12.942534
 20
26.359129
 30
0.0
 11
15.288299
 21
25.023775
 31
0.0
  0
LINE
  8
0
  6
CONTINUOUS
 10
15.288299
 20
25.023775
 30
0.0
 11
12.942534
 21
23.833856
 31
0.0
  0
LINE
  8
0
  6
CONTINUOUS
 10
14.169823
 20
26.359129
 30
0.0
 11
16.515589
 21
25.023775
 31
0.0
  0
LINE
  8
0
  6
CONTINUOUS
 10
16.515589
 20
25.023775
 30
0.0
 11
14.169823
 21
23.833856
 31
0.0
  0
TEXT
  8
0
  6
CONTINUOUS
 10
11.566446
 20
19.235679
 30
0.0
 40
2.5
  1
I
 11
11.566446
 21
18.402346
 31
0.0
 73
     1
  0
TEXT
  8
0
  6
CONTINUOUS
 10
13.018181
 20
18.902346
 30
0.0
 40
1.5
  1
2
 11
13.018181
 21
18.402346
 31
0.0
 73
     1
  0
LINE
  8
0
  6
CONTINUOUS
 10
10.65733
 20
12.773825
 30
0.0
 11
13.003095
 21
13.963744
 31
0.0
  0
LINE
  8
0
  6
CONTINUOUS
 10
13.003095
 20
11.438471
 30
0.0
 11
10.65733
 21
12.773825
 31
0.0
  0
LINE
  8
0
  6
CONTINUOUS
 10
6.557002
 20
16.714658
 30
0.0
 11
15.281743
 21
16.714658
 31
0.0
  0
LINE
  8
0
  6
CONTINUOUS
 10
6.557002
 20
17.523984
 30
0.0
 11
6.557002
 21
15.908791
 31
0.0
  0
LINE
  8
0
  6
CONTINUOUS
 10
15.286518
 20
17.523984
 30
0.0
 11
15.286518
 21
15.908791
 31
0.0
  0
ARC
  8
0
  6
CONTINUOUS
 10
12.684846
 20
18.508045
 30
0.0
 40
2.922744
 50
193.105513
 51
283.105513
  0
TEXT
  8
0
  6
CONTINUOUS
 10
6.557002
 20
11.567974
 30
0.0
 40
2.5
  1
2I
 11
6.557002
 21
10.734641
 31
0.0
 73
     1
  0
LINE
  8
0
  6
CONTINUOUS
 10
6.557002
 20
9.441103
 30
0.0
 11
15.281743
 21
9.441103
 31
0.0
  0
LINE
  8
0
  6
CONTINUOUS
 10
15.286518
 20
10.250429
 30
0.0
 11
15.286518
 21
8.635236
 31
0.0
  0
LINE
  8
0
  6
CONTINUOUS
 10
6.557002
 20
10.250429
 30
0.0
 11
6.557002
 21
8.635236
 31
0.0
  0
TEXT
  8
0
  6
CONTINUOUS
 10
6.557002
 20
4.778631
 30
0.0
 40
2.5
  1
I
 11
6.557002
 21
3.945298
 31
0.0
 73
     1
  0
LINE
  8
0
  6
CONTINUOUS
 10
9.509029
 20
6.822462
 30
0.0
 11
9.509029
 21
5.477736
 31
0.0
  0
LINE
  8
0
  6
CONTINUOUS
 10
8.615065
 20
5.477736
 30
0.0
 11
9.52622
 21
5.477736
 31
0.0
  0
LINE
  8
0
  6
CONTINUOUS
 10
9.509029
 20
5.477736
 30
0.0
 11
10.402992
 21
5.477736
 31
0.0
  0
LINE
  8
0
  6
CONTINUOUS
 10
8.901592
 20
5.082328
 30
0.0
 11
9.509029
 21
5.082328
 31
0.0
  0
LINE
  8
0
  6
CONTINUOUS
 10
9.509029
 20
5.082328
 30
0.0
 11
10.150849
 21
5.082328
 31
0.0
  0
LINE
  8
0
  6
CONTINUOUS
 10
9.981861
 20
4.719969
 30
0.0
 11
9.072041
 21
4.719969
 31
0.0
  0
LINE
  8
0
  6
CONTINUOUS
 10
15.286518
 20
2.797924
 30
0.0
 11
15.286518
 21
1.182731
 31
0.0
  0
LINE
  8
0
  6
CONTINUOUS
 10
6.557002
 20
1.988598
 30
0.0
 11
15.281743
 21
1.988598
 31
0.0
  0
LINE
  8
0
  6
CONTINUOUS
 10
6.557002
 20
2.797924
 30
0.0
 11
6.557002
 21
1.182731
 31
0.0
  0
ENDBLK
  8
0
  0
BLOCK
  8
0
  2
BLC27
 70
    64
 10
0.0
 20
0.0
 30
0.0
  3
BLC27
  0
INSERT
  8
SWEDEN2
  6
CENTER
  2
BLC26
 10
0.08063
 20
0.037985
 30
0.0
 41
1.006225
 42
1.006225
 43
1.006225
  0
ENDBLK
  8
0
  0
BLOCK
  8
0
  2
BLC26
 70
    64
 10
0.0
 20
0.0
 30
0.0
  3
BLC26
  0
ARC
  8
0
  6
CONTINUOUS
 10
-0.180576
 20
1.17922
 30
0.0
 40
1.196859
 50
90.0
 51
265.706237
  0
LINE
  8
0
  6
CONTINUOUS
 10
-0.186638
 20
-0.01092
 30
0.0
 11
0.458942
 21
-0.01092
 31
0.0
  0
LINE
  8
0
  6
CONTINUOUS
 10
-0.186638
 20
2.375671
 30
0.0
 11
0.45288
 21
2.375671
 31
0.0
  0
LINE
  8
0
  6
CONTINUOUS
 10
-0.185509
 20
-2.404629
 30
0.0
 11
0.460071
 21
-2.404629
 31
0.0
  0
ARC
  8
0
  6
CONTINUOUS
 10
-0.180576
 20
-1.207779
 30
0.0
 40
1.196859
 50
90.0
 51
270.0
  0
LINE
  8
0
  6
CONTINUOUS
 10
0.451525
 20
-2.404586
 30
0.0
 11
1.401805
 21
-2.404586
 31
0.0
  0
LINE
  8
0
  6
CONTINUOUS
 10
0.446785
 20
2.375674
 30
0.0
 11
1.418544
 21
2.375674
 31
0.0
  0
LINE
  8
0
  6
CONTINUOUS
 10
0.456627
 20
-0.010911
 30
0.0
 11
1.422749
 21
-0.010911
 31
0.0
  0
ENDBLK
  8
0
  0
BLOCK
  8
0
  2
BLC22
 70
    64
 10
0.0
 20
0.0
 30
0.0
  3
BLC22
  0
LINE
  8
HEL035
 10
0.0
 20
-0.00155
 30
0.0
 11
0.0
 21
9.99845
 31
0.0
  0
LINE
  8
21
 10
2.5
 20
10.0
 30
0.0
 11
5.0
 21
10.0
 31
0.0
  0
LINE
  8
HEL035
 10
0.0
 20
9.99845
 30
0.0
 11
2.5
 21
9.99845
 31
0.0
  0
LINE
  8
HEL035
 10
-2.5
 20
5.0
 30
0.0
 11
2.5
 21
5.0
 31
0.0
  0
LINE
  8
21
 10
2.5
 20
5.0
 30
0.0
 11
5.0
 21
5.0
 31
0.0
  0
LINE
  8
21
 10
5.0
 20
5.0
 30
0.0
 11
5.0
 21
7.9
 31
0.0
  0
LINE
  8
HEL035
 10
3.88095
 20
6.944425
 30
0.0
 11
4.560313
 21
6.008681
 31
0.0
  0
LINE
  8
21
 10
10.0
 20
10.0
 30
0.0
 11
4.2
 21
6.5
 31
0.0
  0
LINE
  8
HEL035
 10
2.5
 20
-0.00155
 30
0.0
 11
0.0
 21
-0.00155
 31
0.0
  0
LINE
  8
21
 10
2.5
 20
0.0
 30
0.0
 11
5.0
 21
0.0
 31
0.0
  0
ENDBLK
  8
0
  0
BLOCK
  8
0
  2
BLC18
 70
     0
 10
0.0
 20
0.0
 30
0.0
  3
BLC18
  0
LINE
  8
MUO
 10
-0.056268
 20
0.849555
 30
0.0
 11
8.307242
 21
9.215502
 31
0.0
  0
LINE
  8
MUO
 10
0.928025
 20
-0.107047
 30
0.0
 11
9.268386
 21
8.2307
 31
0.0
  0
LINE
  8
MUO
 10
-0.056268
 20
-0.107047
 30
0.0
 11
-0.056268
 21
9.215502
 31
0.0
  0
LINE
  8
MUO
 10
9.268386
 20
-0.107047
 30
0.0
 11
-0.056268
 21
-0.107047
 31
0.0
  0
LINE
  8
MUO
 10
9.268386
 20
9.215502
 30
0.0
 11
9.268386
 21
-0.107047
 31
0.0
  0
LINE
  8
MUO
 10
-0.056268
 20
9.215502
 30
0.0
 11
9.268386
 21
9.215502
 31
0.0
  0
ENDBLK
  8
0
  0
BLOCK
  8
0
  2
BLC29
 70
    64
 10
0.0
 20
0.0
 30
0.0
  3
BLC29
  0
LINE
  8
0
  6
CONTINUOUS
 10
0.004865
 20
1.206889
 30
0.0
 11
2.350631
 21
-0.128465
 31
0.0
  0
LINE
  8
0
  6
CONTINUOUS
 10
2.350631
 20
-0.128465
 30
0.0
 11
0.004865
 21
-1.318384
 31
0.0
  0
ENDBLK
  8
0
  0
BLOCK
  8
0
  2
WKU130
 70
    64
 10
190.0
 20
250.0
 30
0.0
  3
WKU130
  0
ARC
  8
21
 10
191.083333
 20
249.916667
 30
0.0
 40
1.086534
 50
32.471192
 51
175.601295
  0
ARC
  8
21
 10
192.916667
 20
251.083333
 30
0.0
 40
1.086534
 50
212.471192
 51
355.601295
  0
ENDBLK
  8
0
  0
BLOCK
  8
0
  2
BLC38
 70
    64
 10
0.0
 20
0.0
 30
0.0
  3
BLC38
  0
LINE
  8
BASE
  6
CONTINUOUS
 10
5.0
 20
0.429605
 30
0.0
 11
5.0
 21
-2.5
 31
0.0
  0
LINE
  8
BASE
  6
CONTINUOUS
 10
0.0
 20
0.429605
 30
0.0
 11
0.0
 21
-2.5
 31
0.0
  0
LINE
  8
BASE
  6
CONTINUOUS
 10
5.0
 20
15.0
 30
0.0
 11
5.0
 21
9.752154
 31
0.0
  0
LINE
  8
BASE
  6
CONTINUOUS
 10
0.0
 20
15.0
 30
0.0
 11
0.0
 21
9.752154
 31
0.0
  0
INSERT
  8
HEL035
  2
WKU130
 10
2.806261
 20
1.002888
 30
0.0
 41
0.8
 42
0.8
 43
0.8
  0
LINE
  8
HEL035
 10
2.466311
 20
2.72844
 30
0.0
 11
6.466311
 21
2.72844
 31
0.0
  0
LINE
  8
HEL035
 10
-1.290099
 20
7.674464
 30
0.0
 11
2.709901
 21
7.674464
 31
0.0
  0
LINE
  8
MUO
 10
-2.204897
 20
1.386207
 30
0.0
 11
6.158613
 21
9.752154
 31
0.0
  0
LINE
  8
MUO
 10
-1.220605
 20
0.429605
 30
0.0
 11
7.119756
 21
8.767352
 31
0.0
  0
LINE
  8
MUO
 10
-2.204897
 20
0.429605
 30
0.0
 11
-2.204897
 21
9.752154
 31
0.0
  0
LINE
  8
MUO
 10
7.119756
 20
0.429605
 30
0.0
 11
-2.204897
 21
0.429605
 31
0.0
  0
LINE
  8
MUO
 10
7.119756
 20
9.752154
 30
0.0
 11
7.119756
 21
0.429605
 31
0.0
  0
LINE
  8
MUO
 10
-2.204897
 20
9.752154
 30
0.0
 11
7.119756
 21
9.752154
 31
0.0
  0
TEXT
  8
SWEDEN2
  6
CONTINUOUS
 10
-0.633266
 20
15.55315
 30
0.0
 40
2.0
  1
+
  0
TEXT
  8
SWEDEN2
  6
CONTINUOUS
 10
4.297086
 20
15.577719
 30
0.0
 40
2.0
  1
-
  0
ENDBLK
  8
0
  0
BLOCK
  8
0
  2
ABBA3
 70
     0
 10
0.0
 20
0.0
 30
0.0
  3
ABBA3
  0
LINE
  8
PAKSU
 10
0.0
 20
0.0
 30
0.0
 11
0.0
 21
262.5
 31
0.0
  0
LINE
  8
PAKSU
 10
392.0
 20
262.5
 30
0.0
 11
392.0
 21
0.0
 31
0.0
  0
LINE
  8
PAKSU
 10
0.0
 20
0.0
 30
0.0
 11
392.0
 21
0.0
 31
0.0
  0
TEXT
  8
RAAMI
 10
42.0
 20
0.952381
 30
0.0
 40
2.5
  1
C
  7
ROMANS
  0
TEXT
  8
RAAMI
 10
42.0
 20
5.354421
 30
0.0
 40
2.5
  1
B
  7
ROMANS
  0
TEXT
  8
RAAMI
 10
257.169907
 20
1.503784
 30
0.0
 40
3.0
  1
Power
 41
0.8
  7
ROMANS
  0
TEXT
  8
RAAMI
 10
273.0
 20
7.0
 30
0.0
 40
1.4
  1
VAST.OSASTO RESP.DEPT.
  7
ROMANS
  0
TEXT
  8
RAAMI
 10
210.0
 20
32.0
 30
0.0
 40
1.4
  1
TEKI  PREPARED
  7
ROMANS
  0
LINE
  8
OHUT
 10
271.0
 20
9.5
 30
0.0
 11
271.0
 21
0.0
 31
0.0
  0
LINE
  8
OHUT
 10
257.0
 20
9.5
 30
0.0
 11
257.0
 21
35.0
 31
0.0
  0
LINE
  8
OHUT
 10
40.5
 20
4.5
 30
0.0
 11
209.0
 21
4.5
 31
0.0
  0
LINE
  8
OHUT
 10
46.5
 20
0.0
 30
0.0
 11
46.5
 21
9.0
 31
0.0
  0
LINE
  8
OHUT
 10
46.5
 20
9.0
 30
0.0
 11
209.0
 21
9.0
 31
0.0
  0
TEXT
  8
RAAMI
 10
27.5
 20
2.233333
 30
0.0
 40
1.4
  1
REVISION
  7
ROMANS
  0
TEXT
  8
RAAMI
 10
27.5
 20
4.5
 30
0.0
 40
1.4
  1
MUUTOS
  7
ROMANS
  0
LINE
  8
OHUT
 10
282.0
 20
9.5
 30
0.0
 11
282.0
 21
18.0
 31
0.0
  0
TEXT
  8
RAAMI
 10
237.5
 20
1.5
 30
0.0
 40
3.0
  1
Strömberg
 41
0.8
  7
ROMANS
  0
TEXT
  8
RAAMI
 10
229.5
 20
1.5
 30
0.0
 40
3.0
  1
ABB 
 41
0.8
  7
ROMANS
  0
LINE
  8
RAAMI
 10
222.9
 20
1.5
 30
0.0
 11
222.9
 21
4.86
 31
0.0
  0
LINE
  8
RAAMI
 10
222.9
 20
8.5
 30
0.0
 11
224.86
 21
8.5
 31
0.0
  0
LINE
  8
RAAMI
 10
224.86
 20
8.5
 30
0.0
 11
224.86
 21
5.14
 31
0.0
  0
LINE
  8
RAAMI
 10
224.86
 20
5.14
 30
0.0
 11
222.9
 21
5.14
 31
0.0
  0
LINE
  8
RAAMI
 10
222.9
 20
4.86
 30
0.0
 11
224.86
 21
4.86
 31
0.0
  0
LINE
  8
RAAMI
 10
224.86
 20
4.86
 30
0.0
 11
224.86
 21
1.5
 31
0.0
  0
LINE
  8
RAAMI
 10
224.86
 20
1.5
 30
0.0
 11
222.9
 21
1.5
 31
0.0
  0
LINE
  8
RAAMI
 10
222.9
 20
5.14
 30
0.0
 11
222.9
 21
8.5
 31
0.0
  0
ARC
  8
RAAMI
 10
225.7
 20
6.925
 30
0.0
 40
1.575
 50
298.455859
 51
90.052437
  0
LINE
  8
RAAMI
 10
225.14
 20
8.5
 30
0.0
 11
225.698559
 21
8.499999
 31
0.0
  0
LINE
  8
RAAMI
 10
225.14
 20
8.5
 30
0.0
 11
225.14
 21
5.14
 31
0.0
  0
LINE
  8
RAAMI
 10
225.14
 20
5.14
 30
0.0
 11
227.124443
 21
5.14
 31
0.0
  0
LINE
  8
RAAMI
 10
227.38
 20
4.86
 30
0.0
 11
225.14
 21
4.86
 31
0.0
  0
LINE
  8
RAAMI
 10
225.14
 20
4.86
 30
0.0
 11
225.14
 21
1.5
 31
0.0
  0
ARC
  8
RAAMI
 10
225.7
 20
3.6
 30
0.0
 40
2.1
 50
269.937724
 51
37.056553
  0
LINE
  8
RAAMI
 10
225.14
 20
1.5
 30
0.0
 11
225.697717
 21
1.500001
 31
0.0
  0
ARC
  8
RAAMI
 10
225.7
 20
3.6
 30
0.0
 40
2.1
 50
47.28622
 51
68.787999
  0
INSERT
  8
RAAMI
  2
*X14
 10
215.41
 20
1.5
 30
0.0
 41
0.7
 42
0.7
 43
0.7
  0
INSERT
  8
RAAMI
  2
*X15
 10
215.41
 20
1.5
 30
0.0
 41
0.7
 42
0.7
 43
0.7
  0
INSERT
  8
RAAMI
  2
*X16
 10
215.41
 20
1.5
 30
0.0
 41
0.7
 42
0.7
 43
0.7
  0
INSERT
  8
RAAMI
  2
*X17
 10
215.41
 20
1.5
 30
0.0
 41
0.7
 42
0.7
 43
0.7
  0
INSERT
  8
RAAMI
  2
*X17
 10
209.95
 20
1.5
 30
0.0
 41
0.7
 42
0.7
 43
0.7
  0
INSERT
  8
RAAMI
  2
*X16
 10
209.95
 20
1.5
 30
0.0
 41
0.7
 42
0.7
 43
0.7
  0
INSERT
  8
RAAMI
  2
*X15
 10
209.95
 20
1.5
 30
0.0
 41
0.7
 42
0.7
 43
0.7
  0
INSERT
  8
RAAMI
  2
*X14
 10
209.95
 20
1.5
 30
0.0
 41
0.7
 42
0.7
 43
0.7
  0
ARC
  8
RAAMI
 10
220.24
 20
3.6
 30
0.0
 40
2.1
 50
47.28622
 51
68.787999
  0
LINE
  8
RAAMI
 10
219.68
 20
1.5
 30
0.0
 11
220.237717
 21
1.500001
 31
0.0
  0
ARC
  8
RAAMI
 10
220.24
 20
3.6
 30
0.0
 40
2.1
 50
269.937724
 51
37.056553
  0
LINE
  8
RAAMI
 10
219.68
 20
4.86
 30
0.0
 11
219.68
 21
1.5
 31
0.0
  0
LINE
  8
RAAMI
 10
221.92
 20
4.86
 30
0.0
 11
219.68
 21
4.86
 31
0.0
  0
LINE
  8
RAAMI
 10
219.68
 20
5.14
 30
0.0
 11
221.664443
 21
5.14
 31
0.0
  0
LINE
  8
RAAMI
 10
219.68
 20
8.5
 30
0.0
 11
219.68
 21
5.14
 31
0.0
  0
LINE
  8
RAAMI
 10
219.68
 20
8.5
 30
0.0
 11
220.238559
 21
8.499999
 31
0.0
  0
ARC
  8
RAAMI
 10
220.24
 20
6.925
 30
0.0
 40
1.575
 50
298.455859
 51
90.052437
  0
LINE
  8
RAAMI
 10
217.44
 20
5.14
 30
0.0
 11
217.44
 21
8.5
 31
0.0
  0
LINE
  8
RAAMI
 10
219.4
 20
1.5
 30
0.0
 11
217.44
 21
1.5
 31
0.0
  0
LINE
  8
RAAMI
 10
219.4
 20
4.86
 30
0.0
 11
219.4
 21
1.5
 31
0.0
  0
LINE
  8
RAAMI
 10
217.44
 20
4.86
 30
0.0
 11
219.4
 21
4.86
 31
0.0
  0
LINE
  8
RAAMI
 10
219.4
 20
5.14
 30
0.0
 11
217.44
 21
5.14
 31
0.0
  0
LINE
  8
RAAMI
 10
219.4
 20
8.5
 30
0.0
 11
219.4
 21
5.14
 31
0.0
  0
LINE
  8
RAAMI
 10
217.44
 20
8.5
 30
0.0
 11
219.4
 21
8.5
 31
0.0
  0
LINE
  8
RAAMI
 10
217.44
 20
1.5
 30
0.0
 11
217.44
 21
4.86
 31
0.0
  0
INSERT
  8
RAAMI
  2
*X13
 10
209.95
 20
1.5
 30
0.0
 41
0.7
 42
0.7
 43
0.7
  0
INSERT
  8
RAAMI
  2
*X12
 10
209.95
 20
1.5
 30
0.0
 41
0.7
 42
0.7
 43
0.7
  0
INSERT
  8
RAAMI
  2
*X11
 10
209.95
 20
1.5
 30
0.0
 41
0.7
 42
0.7
 43
0.7
  0
INSERT
  8
RAAMI
  2
*X10
 10
209.95
 20
1.5
 30
0.0
 41
0.7
 42
0.7
 43
0.7
  0
LINE
  8
RAAMI
 10
211.119889
 20
4.842539
 30
0.0
 11
209.95
 21
1.5
 31
0.0
  0
LINE
  8
RAAMI
 10
213.31
 20
4.86
 30
0.0
 11
213.31
 21
2.9
 31
0.0
  0
LINE
  8
RAAMI
 10
213.59
 20
4.86
 30
0.0
 11
213.59
 21
2.9
 31
0.0
  0
LINE
  8
RAAMI
 10
213.59
 20
4.86
 30
0.0
 11
215.773257
 21
4.86
 31
0.0
  0
LINE
  8
RAAMI
 10
213.59
 20
5.14
 30
0.0
 11
215.675114
 21
5.14
 31
0.0
  0
LINE
  8
RAAMI
 10
215.774492
 20
4.858595
 30
0.0
 11
216.95
 21
1.5
 31
0.0
  0
LINE
  8
RAAMI
 10
211.122982
 20
4.86
 30
0.0
 11
213.31
 21
4.86
 31
0.0
  0
LINE
  8
RAAMI
 10
211.221941
 20
5.14
 30
0.0
 11
213.31
 21
5.14
 31
0.0
  0
LINE
  8
RAAMI
 10
213.31
 20
8.5
 30
0.0
 11
212.4
 21
8.5
 31
0.0
  0
LINE
  8
RAAMI
 10
213.59
 20
2.9
 30
0.0
 11
214.709893
 21
2.9
 31
0.0
  0
LINE
  8
RAAMI
 10
213.59
 20
8.5
 30
0.0
 11
213.59
 21
5.14
 31
0.0
  0
LINE
  8
RAAMI
 10
213.31
 20
8.5
 30
0.0
 11
213.31
 21
5.14
 31
0.0
  0
LINE
  8
RAAMI
 10
214.5
 20
8.5
 30
0.0
 11
213.59
 21
8.5
 31
0.0
  0
LINE
  8
RAAMI
 10
214.711098
 20
2.896864
 30
0.0
 11
215.2
 21
1.5
 31
0.0
  0
LINE
  8
RAAMI
 10
214.5
 20
8.5
 30
0.0
 11
215.676353
 21
5.138992
 31
0.0
  0
LINE
  8
RAAMI
 10
212.18879
 20
2.896543
 30
0.0
 11
211.7
 21
1.5
 31
0.0
  0
LINE
  8
RAAMI
 10
212.188787
 20
2.9
 30
0.0
 11
213.31
 21
2.9
 31
0.0
  0
LINE
  8
RAAMI
 10
212.4
 20
8.5
 30
0.0
 11
211.222472
 21
5.135635
 31
0.0
  0
LINE
  8
RAAMI
 10
215.2
 20
1.5
 30
0.0
 11
216.95
 21
1.5
 31
0.0
  0
LINE
  8
RAAMI
 10
209.95
 20
1.5
 30
0.0
 11
211.7
 21
1.5
 31
0.0
  0
LINE
  8
OHUT
 10
369.5
 20
9.5
 30
0.0
 11
369.5
 21
0.0
 31
0.0
  0
TEXT
  8
RAAMI
 10
371.0
 20
7.0
 30
0.0
 40
1.4
  1
PAINOS  REVISION
  7
ROMANS
  0
LINE
  8
OHUT
 10
349.5
 20
9.5
 30
0.0
 11
349.5
 21
18.0
 31
0.0
  0
TEXT
  8
RAAMI
 10
309.0
 20
7.0
 30
0.0
 40
1.4
  1
PIIRUSTUS NO  DRAWING NR
  7
ROMANS
  0
TEXT
  8
RAAMI
 10
351.5
 20
15.5
 30
0.0
 40
1.4
  1
JAKELU  DISTRIBUTION
  7
ROMANS
  0
TEXT
  8
RAAMI
 10
309.0
 20
15.5
 30
0.0
 40
1.4
  1
KOODI  CODE
  7
ROMANS
  0
TEXT
  8
RAAMI
 10
309.0
 20
32.5
 30
0.0
 40
1.4
  1
NIMITYS  NAME
  7
ROMANS
  0
TEXT
  8
RAAMI
 10
283.5
 20
15.0
 30
0.0
 40
1.4
  1
PROJ
  7
ROMANS
  0
TEXT
  8
RAAMI
 10
259.0
 20
15.5
 30
0.0
 40
1.4
  1
SUHDE  SCALE
  7
ROMANS
  0
TEXT
  8
RAAMI
 10
259.0
 20
23.5
 30
0.0
 40
1.4
  1
TOLERANSSIT  TOLERANCES
  7
ROMANS
  0
TEXT
  8
RAAMI
 10
259.0
 20
32.5
 30
0.0
 40
1.4
  1
LIITTYY  CONCERNING
  7
ROMANS
  0
LINE
  8
OHUT
 10
307.0
 20
0.0
 30
0.0
 11
307.0
 21
35.0
 31
0.0
  0
TEXT
  8
RAAMI
 10
209.742835
 20
15.466667
 30
0.0
 40
1.4
  1
HYVÄKSYI  APPROVED
  7
ROMANS
  0
TEXT
  8
RAAMI
 10
210.0
 20
23.733333
 30
0.0
 40
1.4
  1
TARKASTI  CHECKED
  7
ROMANS
  0
LINE
  8
PAKSU
 10
209.0
 20
35.0
 30
0.0
 11
392.0
 21
35.0
 31
0.0
  0
LINE
  8
OHUT
 10
209.0
 20
26.5
 30
0.0
 11
307.0
 21
26.5
 31
0.0
  0
LINE
  8
OHUT
 10
209.0
 20
9.5
 30
0.0
 11
392.0
 21
9.5
 31
0.0
  0
LINE
  8
OHUT
 10
209.0
 20
18.0
 30
0.0
 11
392.0
 21
18.0
 31
0.0
  0
LINE
  8
PAKSU
 10
392.0
 20
0.0
 30
0.0
 11
392.0
 21
35.0
 31
0.0
  0
LINE
  8
PAKSU
 10
209.0
 20
0.0
 30
0.0
 11
209.0
 21
35.0
 31
0.0
  0
LINE
  8
RAAMI
 10
291.043267
 20
12.19521
 30
0.0
 11
296.053761
 21
11.040875
 31
0.0
  0
LINE
  8
RAAMI
 10
296.053761
 20
15.658214
 30
0.0
 11
291.043267
 21
14.388446
 31
0.0
  0
LINE
  8
RAAMI
 10
296.053761
 20
11.040875
 30
0.0
 11
296.053761
 21
15.658214
 31
0.0
  0
LINE
  8
RAAMI
 10
291.043267
 20
14.388446
 30
0.0
 11
291.043267
 21
12.19521
 31
0.0
  0
CIRCLE
  8
RAAMI
 10
301.462194
 20
13.405639
 30
0.0
 40
1.114665
  0
CIRCLE
  8
RAAMI
 10
301.462194
 20
13.405639
 30
0.0
 40
2.343654
  0
LINE
  8
PAKSU
 10
209.0
 20
0.0
 30
0.0
 11
392.0
 21
0.0
 31
0.0
  0
LINE
  8
RAAMI
 10
18.0
 20
0.0
 30
0.0
 11
0.0
 21
0.0
 31
0.0
  0
LINE
  8
PAKSU
 10
0.0
 20
262.5
 30
0.0
 11
392.0
 21
262.5
 31
0.0
  0
ENDBLK
  8
0
  0
BLOCK
  8
0
  2
*X10
 70
    65
 10
0.0
 20
0.0
 30
0.0
  3
*X
  0
LINE
  8
0
 62
     0
 10
2.284499
 20
6.52714
 30
0.0
 11
4.8
 21
9.042641
 31
0.0
  0
LINE
  8
0
 62
     0
 10
2.379686
 20
6.799104
 30
0.0
 11
4.8
 21
9.219417
 31
0.0
  0
LINE
  8
0
 62
     0
 10
2.474874
 20
7.071068
 30
0.0
 11
4.8
 21
9.396194
 31
0.0
  0
LINE
  8
0
 62
     0
 10
2.570061
 20
7.343032
 30
0.0
 11
4.8
 21
9.572971
 31
0.0
  0
LINE
  8
0
 62
     0
 10
2.665249
 20
7.614996
 30
0.0
 11
4.8
 21
9.749747
 31
0.0
  0
LINE
  8
0
 62
     0
 10
2.760436
 20
7.88696
 30
0.0
 11
4.8
 21
9.926524
 31
0.0
  0
LINE
  8
0
 62
     0
 10
2.855624
 20
8.158924
 30
0.0
 11
4.696699
 21
10.0
 31
0.0
  0
LINE
  8
0
 62
     0
 10
2.950811
 20
8.430889
 30
0.0
 11
4.519922
 21
10.0
 31
0.0
  0
LINE
  8
0
 62
     0
 10
3.045998
 20
8.702853
 30
0.0
 11
4.343146
 21
10.0
 31
0.0
  0
LINE
  8
0
 62
     0
 10
3.141186
 20
8.974817
 30
0.0
 11
4.166369
 21
10.0
 31
0.0
  0
LINE
  8
0
 62
     0
 10
3.236373
 20
9.246781
 30
0.0
 11
3.989592
 21
10.0
 31
0.0
  0
LINE
  8
0
 62
     0
 10
3.331561
 20
9.518745
 30
0.0
 11
3.812816
 21
10.0
 31
0.0
  0
LINE
  8
0
 62
     0
 10
3.426748
 20
9.790709
 30
0.0
 11
3.636039
 21
10.0
 31
0.0
  0
LINE
  8
0
 62
     0
 10
2.189311
 20
6.255175
 30
0.0
 11
4.8
 21
8.865864
 31
0.0
  0
LINE
  8
0
 62
     0
 10
2.094124
 20
5.983211
 30
0.0
 11
4.8
 21
8.689087
 31
0.0
  0
LINE
  8
0
 62
     0
 10
1.998936
 20
5.711247
 30
0.0
 11
4.8
 21
8.512311
 31
0.0
  0
LINE
  8
0
 62
     0
 10
1.903749
 20
5.439283
 30
0.0
 11
4.8
 21
8.335534
 31
0.0
  0
LINE
  8
0
 62
     0
 10
1.841243
 20
5.2
 30
0.0
 11
4.8
 21
8.158757
 31
0.0
  0
LINE
  8
0
 62
     0
 10
2.018019
 20
5.2
 30
0.0
 11
4.8
 21
7.981981
 31
0.0
  0
LINE
  8
0
 62
     0
 10
2.194796
 20
5.2
 30
0.0
 11
4.8
 21
7.805204
 31
0.0
  0
LINE
  8
0
 62
     0
 10
2.371573
 20
5.2
 30
0.0
 11
4.8
 21
7.628427
 31
0.0
  0
LINE
  8
0
 62
     0
 10
2.54835
 20
5.2
 30
0.0
 11
4.8
 21
7.45165
 31
0.0
  0
LINE
  8
0
 62
     0
 10
2.725126
 20
5.2
 30
0.0
 11
4.8
 21
7.274874
 31
0.0
  0
LINE
  8
0
 62
     0
 10
2.901903
 20
5.2
 30
0.0
 11
4.8
 21
7.098097
 31
0.0
  0
LINE
  8
0
 62
     0
 10
3.07868
 20
5.2
 30
0.0
 11
4.8
 21
6.92132
 31
0.0
  0
LINE
  8
0
 62
     0
 10
3.255456
 20
5.2
 30
0.0
 11
4.8
 21
6.744544
 31
0.0
  0
LINE
  8
0
 62
     0
 10
3.432233
 20
5.2
 30
0.0
 11
4.8
 21
6.567767
 31
0.0
  0
LINE
  8
0
 62
     0
 10
3.60901
 20
5.2
 30
0.0
 11
4.8
 21
6.39099
 31
0.0
  0
LINE
  8
0
 62
     0
 10
3.785786
 20
5.2
 30
0.0
 11
4.8
 21
6.214214
 31
0.0
  0
LINE
  8
0
 62
     0
 10
3.962563
 20
5.2
 30
0.0
 11
4.8
 21
6.037437
 31
0.0
  0
LINE
  8
0
 62
     0
 10
4.13934
 20
5.2
 30
0.0
 11
4.8
 21
5.86066
 31
0.0
  0
LINE
  8
0
 62
     0
 10
4.316117
 20
5.2
 30
0.0
 11
4.8
 21
5.683883
 31
0.0
  0
LINE
  8
0
 62
     0
 10
4.492893
 20
5.2
 30
0.0
 11
4.8
 21
5.507107
 31
0.0
  0
LINE
  8
0
 62
     0
 10
4.66967
 20
5.2
 30
0.0
 11
4.8
 21
5.33033
 31
0.0
  0
ENDBLK
  8
0
  0
BLOCK
  8
0
  2
*X11
 70
    65
 10
0.0
 20
0.0
 30
0.0
  3
*X
  0
LINE
  8
0
 62
     0
 10
5.2
 20
6.083883
 30
0.0
 11
7.178252
 21
8.062136
 31
0.0
  0
LINE
  8
0
 62
     0
 10
5.2
 20
6.26066
 30
0.0
 11
7.132421
 21
8.193082
 31
0.0
  0
LINE
  8
0
 62
     0
 10
5.2
 20
6.437437
 30
0.0
 11
7.08659
 21
8.324027
 31
0.0
  0
LINE
  8
0
 62
     0
 10
5.2
 20
6.614214
 30
0.0
 11
7.040759
 21
8.454973
 31
0.0
  0
LINE
  8
0
 62
     0
 10
5.2
 20
6.79099
 30
0.0
 11
6.994928
 21
8.585919
 31
0.0
  0
LINE
  8
0
 62
     0
 10
5.2
 20
6.967767
 30
0.0
 11
6.949097
 21
8.716864
 31
0.0
  0
LINE
  8
0
 62
     0
 10
5.2
 20
7.144544
 30
0.0
 11
6.903266
 21
8.84781
 31
0.0
  0
LINE
  8
0
 62
     0
 10
5.2
 20
7.32132
 30
0.0
 11
6.857435
 21
8.978756
 31
0.0
  0
LINE
  8
0
 62
     0
 10
5.2
 20
7.498097
 30
0.0
 11
6.811604
 21
9.109702
 31
0.0
  0
LINE
  8
0
 62
     0
 10
5.2
 20
7.674874
 30
0.0
 11
6.765773
 21
9.240647
 31
0.0
  0
LINE
  8
0
 62
     0
 10
5.2
 20
7.85165
 30
0.0
 11
6.719942
 21
9.371593
 31
0.0
  0
LINE
  8
0
 62
     0
 10
5.2
 20
8.028427
 30
0.0
 11
6.674111
 21
9.502539
 31
0.0
  0
LINE
  8
0
 62
     0
 10
5.2
 20
8.205204
 30
0.0
 11
6.62828
 21
9.633484
 31
0.0
  0
LINE
  8
0
 62
     0
 10
5.2
 20
8.381981
 30
0.0
 11
6.582449
 21
9.76443
 31
0.0
  0
LINE
  8
0
 62
     0
 10
5.2
 20
8.558757
 30
0.0
 11
6.536619
 21
9.895376
 31
0.0
  0
LINE
  8
0
 62
     0
 10
5.2
 20
8.735534
 30
0.0
 11
6.464466
 21
10.0
 31
0.0
  0
LINE
  8
0
 62
     0
 10
5.2
 20
8.912311
 30
0.0
 11
6.287689
 21
10.0
 31
0.0
  0
LINE
  8
0
 62
     0
 10
5.2
 20
9.089087
 30
0.0
 11
6.110913
 21
10.0
 31
0.0
  0
LINE
  8
0
 62
     0
 10
5.2
 20
9.265864
 30
0.0
 11
5.934136
 21
10.0
 31
0.0
  0
LINE
  8
0
 62
     0
 10
5.2
 20
9.442641
 30
0.0
 11
5.757359
 21
10.0
 31
0.0
  0
LINE
  8
0
 62
     0
 10
5.2
 20
9.619417
 30
0.0
 11
5.580583
 21
10.0
 31
0.0
  0
LINE
  8
0
 62
     0
 10
5.2
 20
9.796194
 30
0.0
 11
5.403806
 21
10.0
 31
0.0
  0
LINE
  8
0
 62
     0
 10
5.2
 20
9.972971
 30
0.0
 11
5.227029
 21
10.0
 31
0.0
  0
LINE
  8
0
 62
     0
 10
5.2
 20
5.907107
 30
0.0
 11
7.224083
 21
7.93119
 31
0.0
  0
LINE
  8
0
 62
     0
 10
5.2
 20
5.73033
 30
0.0
 11
7.269914
 21
7.800245
 31
0.0
  0
LINE
  8
0
 62
     0
 10
5.2
 20
5.553553
 30
0.0
 11
7.315745
 21
7.669299
 31
0.0
  0
LINE
  8
0
 62
     0
 10
5.2
 20
5.376777
 30
0.0
 11
7.361576
 21
7.538353
 31
0.0
  0
LINE
  8
0
 62
     0
 10
5.2
 20
5.2
 30
0.0
 11
7.407407
 21
7.407407
 31
0.0
  0
LINE
  8
0
 62
     0
 10
5.376777
 20
5.2
 30
0.0
 11
7.453238
 21
7.276462
 31
0.0
  0
LINE
  8
0
 62
     0
 10
5.553553
 20
5.2
 30
0.0
 11
7.499069
 21
7.145516
 31
0.0
  0
LINE
  8
0
 62
     0
 10
5.73033
 20
5.2
 30
0.0
 11
7.5449
 21
7.01457
 31
0.0
  0
LINE
  8
0
 62
     0
 10
5.907107
 20
5.2
 30
0.0
 11
7.590731
 21
6.883625
 31
0.0
  0
LINE
  8
0
 62
     0
 10
6.083883
 20
5.2
 30
0.0
 11
7.636562
 21
6.752679
 31
0.0
  0
LINE
  8
0
 62
     0
 10
6.26066
 20
5.2
 30
0.0
 11
7.682393
 21
6.621733
 31
0.0
  0
LINE
  8
0
 62
     0
 10
6.437437
 20
5.2
 30
0.0
 11
7.728224
 21
6.490788
 31
0.0
  0
LINE
  8
0
 62
     0
 10
6.614214
 20
5.2
 30
0.0
 11
7.774055
 21
6.359842
 31
0.0
  0
LINE
  8
0
 62
     0
 10
6.79099
 20
5.2
 30
0.0
 11
7.819886
 21
6.228896
 31
0.0
  0
LINE
  8
0
 62
     0
 10
6.967767
 20
5.2
 30
0.0
 11
7.865717
 21
6.09795
 31
0.0
  0
LINE
  8
0
 62
     0
 10
7.144544
 20
5.2
 30
0.0
 11
7.911548
 21
5.967005
 31
0.0
  0
LINE
  8
0
 62
     0
 10
7.32132
 20
5.2
 30
0.0
 11
7.957379
 21
5.836059
 31
0.0
  0
LINE
  8
0
 62
     0
 10
7.498097
 20
5.2
 30
0.0
 11
8.00321
 21
5.705113
 31
0.0
  0
LINE
  8
0
 62
     0
 10
7.674874
 20
5.2
 30
0.0
 11
8.049041
 21
5.574168
 31
0.0
  0
LINE
  8
0
 62
     0
 10
7.85165
 20
5.2
 30
0.0
 11
8.094872
 21
5.443222
 31
0.0
  0
LINE
  8
0
 62
     0
 10
8.028427
 20
5.2
 30
0.0
 11
8.140703
 21
5.312276
 31
0.0
  0
ENDBLK
  8
0
  0
BLOCK
  8
0
  2
*X12
 70
    65
 10
0.0
 20
0.0
 30
0.0
  3
*X
  0
LINE
  8
0
 62
     0
 10
0.0
 20
0.0
 30
0.0
 11
4.8
 21
4.8
 31
0.0
  0
LINE
  8
0
 62
     0
 10
0.095187
 20
0.271964
 30
0.0
 11
4.623223
 21
4.8
 31
0.0
  0
LINE
  8
0
 62
     0
 10
0.190375
 20
0.543928
 30
0.0
 11
4.446447
 21
4.8
 31
0.0
  0
LINE
  8
0
 62
     0
 10
0.285562
 20
0.815892
 30
0.0
 11
4.26967
 21
4.8
 31
0.0
  0
LINE
  8
0
 62
     0
 10
0.38075
 20
1.087857
 30
0.0
 11
4.092893
 21
4.8
 31
0.0
  0
LINE
  8
0
 62
     0
 10
0.475937
 20
1.359821
 30
0.0
 11
3.916117
 21
4.8
 31
0.0
  0
LINE
  8
0
 62
     0
 10
0.571125
 20
1.631785
 30
0.0
 11
3.73934
 21
4.8
 31
0.0
  0
LINE
  8
0
 62
     0
 10
0.666312
 20
1.903749
 30
0.0
 11
3.562563
 21
4.8
 31
0.0
  0
LINE
  8
0
 62
     0
 10
0.7615
 20
2.175713
 30
0.0
 11
3.385786
 21
4.8
 31
0.0
  0
LINE
  8
0
 62
     0
 10
0.856687
 20
2.447677
 30
0.0
 11
3.20901
 21
4.8
 31
0.0
  0
LINE
  8
0
 62
     0
 10
0.951875
 20
2.719641
 30
0.0
 11
3.032233
 21
4.8
 31
0.0
  0
LINE
  8
0
 62
     0
 10
1.047062
 20
2.991606
 30
0.0
 11
2.855456
 21
4.8
 31
0.0
  0
LINE
  8
0
 62
     0
 10
1.142249
 20
3.26357
 30
0.0
 11
2.67868
 21
4.8
 31
0.0
  0
LINE
  8
0
 62
     0
 10
1.237437
 20
3.535534
 30
0.0
 11
2.501903
 21
4.8
 31
0.0
  0
LINE
  8
0
 62
     0
 10
1.332624
 20
3.807498
 30
0.0
 11
2.325126
 21
4.8
 31
0.0
  0
LINE
  8
0
 62
     0
 10
1.427812
 20
4.079462
 30
0.0
 11
2.14835
 21
4.8
 31
0.0
  0
LINE
  8
0
 62
     0
 10
1.522999
 20
4.351426
 30
0.0
 11
1.971573
 21
4.8
 31
0.0
  0
LINE
  8
0
 62
     0
 10
1.618187
 20
4.62339
 30
0.0
 11
1.794796
 21
4.8
 31
0.0
  0
LINE
  8
0
 62
     0
 10
0.176777
 20
0.0
 30
0.0
 11
4.8
 21
4.623223
 31
0.0
  0
LINE
  8
0
 62
     0
 10
0.353553
 20
0.0
 30
0.0
 11
4.8
 21
4.446447
 31
0.0
  0
LINE
  8
0
 62
     0
 10
0.53033
 20
0.0
 30
0.0
 11
4.8
 21
4.26967
 31
0.0
  0
LINE
  8
0
 62
     0
 10
0.707107
 20
0.0
 30
0.0
 11
4.8
 21
4.092893
 31
0.0
  0
LINE
  8
0
 62
     0
 10
0.883883
 20
0.0
 30
0.0
 11
4.8
 21
3.916117
 31
0.0
  0
LINE
  8
0
 62
     0
 10
1.06066
 20
0.0
 30
0.0
 11
4.8
 21
3.73934
 31
0.0
  0
LINE
  8
0
 62
     0
 10
1.237437
 20
0.0
 30
0.0
 11
3.179842
 21
1.942405
 31
0.0
  0
LINE
  8
0
 62
     0
 10
3.237437
 20
2.0
 30
0.0
 11
4.8
 21
3.562563
 31
0.0
  0
LINE
  8
0
 62
     0
 10
1.414214
 20
0.0
 30
0.0
 11
3.084654
 21
1.670441
 31
0.0
  0
LINE
  8
0
 62
     0
 10
3.414214
 20
2.0
 30
0.0
 11
4.8
 21
3.385786
 31
0.0
  0
LINE
  8
0
 62
     0
 10
1.59099
 20
0.0
 30
0.0
 11
2.989467
 21
1.398477
 31
0.0
  0
LINE
  8
0
 62
     0
 10
3.59099
 20
2.0
 30
0.0
 11
4.8
 21
3.20901
 31
0.0
  0
LINE
  8
0
 62
     0
 10
1.767767
 20
0.0
 30
0.0
 11
2.894279
 21
1.126512
 31
0.0
  0
LINE
  8
0
 62
     0
 10
3.767767
 20
2.0
 30
0.0
 11
4.8
 21
3.032233
 31
0.0
  0
LINE
  8
0
 62
     0
 10
1.944544
 20
0.0
 30
0.0
 11
2.799092
 21
0.854548
 31
0.0
  0
LINE
  8
0
 62
     0
 10
3.944544
 20
2.0
 30
0.0
 11
4.8
 21
2.855456
 31
0.0
  0
LINE
  8
0
 62
     0
 10
2.12132
 20
0.0
 30
0.0
 11
2.703904
 21
0.582584
 31
0.0
  0
LINE
  8
0
 62
     0
 10
4.12132
 20
2.0
 30
0.0
 11
4.8
 21
2.67868
 31
0.0
  0
LINE
  8
0
 62
     0
 10
2.298097
 20
0.0
 30
0.0
 11
2.608717
 21
0.31062
 31
0.0
  0
LINE
  8
0
 62
     0
 10
4.298097
 20
2.0
 30
0.0
 11
4.8
 21
2.501903
 31
0.0
  0
LINE
  8
0
 62
     0
 10
2.474874
 20
0.0
 30
0.0
 11
2.51353
 21
0.038656
 31
0.0
  0
LINE
  8
0
 62
     0
 10
4.474874
 20
2.0
 30
0.0
 11
4.8
 21
2.325126
 31
0.0
  0
LINE
  8
0
 62
     0
 10
4.65165
 20
2.0
 30
0.0
 11
4.8
 21
2.14835
 31
0.0
  0
ENDBLK
  8
0
  0
BLOCK
  8
0
  2
*X13
 70
    65
 10
0.0
 20
0.0
 30
0.0
  3
*X
  0
LINE
  8
0
 62
     0
 10
6.884654
 20
1.75813
 30
0.0
 11
8.736506
 21
3.609982
 31
0.0
  0
LINE
  8
0
 62
     0
 10
6.838823
 20
1.889076
 30
0.0
 11
8.690675
 21
3.740928
 31
0.0
  0
LINE
  8
0
 62
     0
 10
6.772971
 20
2.0
 30
0.0
 11
8.644844
 21
3.871874
 31
0.0
  0
LINE
  8
0
 62
     0
 10
6.596194
 20
2.0
 30
0.0
 11
8.599013
 21
4.002819
 31
0.0
  0
LINE
  8
0
 62
     0
 10
6.419417
 20
2.0
 30
0.0
 11
8.553182
 21
4.133765
 31
0.0
  0
LINE
  8
0
 62
     0
 10
6.242641
 20
2.0
 30
0.0
 11
8.507351
 21
4.264711
 31
0.0
  0
LINE
  8
0
 62
     0
 10
6.065864
 20
2.0
 30
0.0
 11
8.46152
 21
4.395656
 31
0.0
  0
LINE
  8
0
 62
     0
 10
5.889087
 20
2.0
 30
0.0
 11
8.415689
 21
4.526602
 31
0.0
  0
LINE
  8
0
 62
     0
 10
5.712311
 20
2.0
 30
0.0
 11
8.369858
 21
4.657548
 31
0.0
  0
LINE
  8
0
 62
     0
 10
5.535534
 20
2.0
 30
0.0
 11
8.324027
 21
4.788493
 31
0.0
  0
LINE
  8
0
 62
     0
 10
5.358757
 20
2.0
 30
0.0
 11
8.158757
 21
4.8
 31
0.0
  0
LINE
  8
0
 62
     0
 10
5.2
 20
2.018019
 30
0.0
 11
7.981981
 21
4.8
 31
0.0
  0
LINE
  8
0
 62
     0
 10
5.2
 20
2.194796
 30
0.0
 11
7.805204
 21
4.8
 31
0.0
  0
LINE
  8
0
 62
     0
 10
5.2
 20
2.371573
 30
0.0
 11
7.628427
 21
4.8
 31
0.0
  0
LINE
  8
0
 62
     0
 10
5.2
 20
2.54835
 30
0.0
 11
7.45165
 21
4.8
 31
0.0
  0
LINE
  8
0
 62
     0
 10
5.2
 20
2.725126
 30
0.0
 11
7.274874
 21
4.8
 31
0.0
  0
LINE
  8
0
 62
     0
 10
5.2
 20
2.901903
 30
0.0
 11
7.098097
 21
4.8
 31
0.0
  0
LINE
  8
0
 62
     0
 10
5.2
 20
3.07868
 30
0.0
 11
6.92132
 21
4.8
 31
0.0
  0
LINE
  8
0
 62
     0
 10
5.2
 20
3.255456
 30
0.0
 11
6.744544
 21
4.8
 31
0.0
  0
LINE
  8
0
 62
     0
 10
5.2
 20
3.432233
 30
0.0
 11
6.567767
 21
4.8
 31
0.0
  0
LINE
  8
0
 62
     0
 10
5.2
 20
3.60901
 30
0.0
 11
6.39099
 21
4.8
 31
0.0
  0
LINE
  8
0
 62
     0
 10
5.2
 20
3.785786
 30
0.0
 11
6.214214
 21
4.8
 31
0.0
  0
LINE
  8
0
 62
     0
 10
5.2
 20
3.962563
 30
0.0
 11
6.037437
 21
4.8
 31
0.0
  0
LINE
  8
0
 62
     0
 10
5.2
 20
4.13934
 30
0.0
 11
5.86066
 21
4.8
 31
0.0
  0
LINE
  8
0
 62
     0
 10
5.2
 20
4.316117
 30
0.0
 11
5.683883
 21
4.8
 31
0.0
  0
LINE
  8
0
 62
     0
 10
5.2
 20
4.492893
 30
0.0
 11
5.507107
 21
4.8
 31
0.0
  0
LINE
  8
0
 62
     0
 10
5.2
 20
4.66967
 30
0.0
 11
5.33033
 21
4.8
 31
0.0
  0
LINE
  8
0
 62
     0
 10
6.930485
 20
1.627185
 30
0.0
 11
8.782337
 21
3.479036
 31
0.0
  0
LINE
  8
0
 62
     0
 10
6.976316
 20
1.496239
 30
0.0
 11
8.828168
 21
3.348091
 31
0.0
  0
LINE
  8
0
 62
     0
 10
7.022147
 20
1.365293
 30
0.0
 11
8.873999
 21
3.217145
 31
0.0
  0
LINE
  8
0
 62
     0
 10
7.067978
 20
1.234347
 30
0.0
 11
8.91983
 21
3.086199
 31
0.0
  0
LINE
  8
0
 62
     0
 10
7.113809
 20
1.103402
 30
0.0
 11
8.965661
 21
2.955254
 31
0.0
  0
LINE
  8
0
 62
     0
 10
7.15964
 20
0.972456
 30
0.0
 11
9.011492
 21
2.824308
 31
0.0
  0
LINE
  8
0
 62
     0
 10
7.205471
 20
0.84151
 30
0.0
 11
9.057323
 21
2.693362
 31
0.0
  0
LINE
  8
0
 62
     0
 10
7.251302
 20
0.710565
 30
0.0
 11
9.103154
 21
2.562416
 31
0.0
  0
LINE
  8
0
 62
     0
 10
7.297133
 20
0.579619
 30
0.0
 11
9.148985
 21
2.431471
 31
0.0
  0
LINE
  8
0
 62
     0
 10
7.342964
 20
0.448673
 30
0.0
 11
9.194816
 21
2.300525
 31
0.0
  0
LINE
  8
0
 62
     0
 10
7.388795
 20
0.317728
 30
0.0
 11
9.240647
 21
2.169579
 31
0.0
  0
LINE
  8
0
 62
     0
 10
7.434626
 20
0.186782
 30
0.0
 11
9.286478
 21
2.038634
 31
0.0
  0
LINE
  8
0
 62
     0
 10
7.480457
 20
0.055836
 30
0.0
 11
9.332309
 21
1.907688
 31
0.0
  0
LINE
  8
0
 62
     0
 10
7.601398
 20
0.0
 30
0.0
 11
9.37814
 21
1.776742
 31
0.0
  0
LINE
  8
0
 62
     0
 10
7.778175
 20
0.0
 30
0.0
 11
9.423971
 21
1.645797
 31
0.0
  0
LINE
  8
0
 62
     0
 10
7.954951
 20
0.0
 30
0.0
 11
9.469802
 21
1.514851
 31
0.0
  0
LINE
  8
0
 62
     0
 10
8.131728
 20
0.0
 30
0.0
 11
9.515633
 21
1.383905
 31
0.0
  0
LINE
  8
0
 62
     0
 10
8.308505
 20
0.0
 30
0.0
 11
9.561464
 21
1.252959
 31
0.0
  0
LINE
  8
0
 62
     0
 10
8.485281
 20
0.0
 30
0.0
 11
9.607295
 21
1.122014
 31
0.0
  0
LINE
  8
0
 62
     0
 10
8.662058
 20
0.0
 30
0.0
 11
9.653126
 21
0.991068
 31
0.0
  0
LINE
  8
0
 62
     0
 10
8.838835
 20
0.0
 30
0.0
 11
9.698957
 21
0.860122
 31
0.0
  0
LINE
  8
0
 62
     0
 10
9.015611
 20
0.0
 30
0.0
 11
9.744788
 21
0.729177
 31
0.0
  0
LINE
  8
0
 62
     0
 10
9.192388
 20
0.0
 30
0.0
 11
9.790619
 21
0.598231
 31
0.0
  0
LINE
  8
0
 62
     0
 10
9.369165
 20
0.0
 30
0.0
 11
9.83645
 21
0.467285
 31
0.0
  0
LINE
  8
0
 62
     0
 10
9.545942
 20
0.0
 30
0.0
 11
9.882281
 21
0.33634
 31
0.0
  0
LINE
  8
0
 62
     0
 10
9.722718
 20
0.0
 30
0.0
 11
9.928112
 21
0.205394
 31
0.0
  0
LINE
  8
0
 62
     0
 10
9.899495
 20
0.0
 30
0.0
 11
9.973943
 21
0.074448
 31
0.0
  0
ENDBLK
  8
0
  0
BLOCK
  8
0
  2
*X14
 70
    65
 10
0.0
 20
0.0
 30
0.0
  3
*X
  0
LINE
  8
0
 62
     0
 10
10.7
 20
6.280583
 30
0.0
 11
13.5
 21
9.080583
 31
0.0
  0
LINE
  8
0
 62
     0
 10
10.7
 20
6.457359
 30
0.0
 11
13.5
 21
9.257359
 31
0.0
  0
LINE
  8
0
 62
     0
 10
10.7
 20
6.634136
 30
0.0
 11
13.5
 21
9.434136
 31
0.0
  0
LINE
  8
0
 62
     0
 10
10.7
 20
6.810913
 30
0.0
 11
13.5
 21
9.610913
 31
0.0
  0
LINE
  8
0
 62
     0
 10
10.7
 20
6.987689
 30
0.0
 11
13.5
 21
9.787689
 31
0.0
  0
LINE
  8
0
 62
     0
 10
10.7
 20
7.164466
 30
0.0
 11
13.5
 21
9.964466
 31
0.0
  0
LINE
  8
0
 62
     0
 10
10.7
 20
7.341243
 30
0.0
 11
13.358757
 21
10.0
 31
0.0
  0
LINE
  8
0
 62
     0
 10
10.7
 20
7.518019
 30
0.0
 11
13.181981
 21
10.0
 31
0.0
  0
LINE
  8
0
 62
     0
 10
10.7
 20
7.694796
 30
0.0
 11
13.005204
 21
10.0
 31
0.0
  0
LINE
  8
0
 62
     0
 10
10.7
 20
7.871573
 30
0.0
 11
12.828427
 21
10.0
 31
0.0
  0
LINE
  8
0
 62
     0
 10
10.7
 20
8.04835
 30
0.0
 11
12.65165
 21
10.0
 31
0.0
  0
LINE
  8
0
 62
     0
 10
10.7
 20
8.225126
 30
0.0
 11
12.474874
 21
10.0
 31
0.0
  0
LINE
  8
0
 62
     0
 10
10.7
 20
8.401903
 30
0.0
 11
12.298097
 21
10.0
 31
0.0
  0
LINE
  8
0
 62
     0
 10
10.7
 20
8.57868
 30
0.0
 11
12.12132
 21
10.0
 31
0.0
  0
LINE
  8
0
 62
     0
 10
10.7
 20
8.755456
 30
0.0
 11
11.944544
 21
10.0
 31
0.0
  0
LINE
  8
0
 62
     0
 10
10.7
 20
8.932233
 30
0.0
 11
11.767767
 21
10.0
 31
0.0
  0
LINE
  8
0
 62
     0
 10
10.7
 20
9.10901
 30
0.0
 11
11.59099
 21
10.0
 31
0.0
  0
LINE
  8
0
 62
     0
 10
10.7
 20
9.285786
 30
0.0
 11
11.414214
 21
10.0
 31
0.0
  0
LINE
  8
0
 62
     0
 10
10.7
 20
9.462563
 30
0.0
 11
11.237437
 21
10.0
 31
0.0
  0
LINE
  8
0
 62
     0
 10
10.7
 20
9.63934
 30
0.0
 11
11.06066
 21
10.0
 31
0.0
  0
LINE
  8
0
 62
     0
 10
10.7
 20
9.816117
 30
0.0
 11
10.883883
 21
10.0
 31
0.0
  0
LINE
  8
0
 62
     0
 10
10.7
 20
9.992893
 30
0.0
 11
10.707107
 21
10.0
 31
0.0
  0
LINE
  8
0
 62
     0
 10
10.7
 20
6.103806
 30
0.0
 11
13.5
 21
8.903806
 31
0.0
  0
LINE
  8
0
 62
     0
 10
10.7
 20
5.927029
 30
0.0
 11
13.5
 21
8.727029
 31
0.0
  0
LINE
  8
0
 62
     0
 10
10.7
 20
5.750253
 30
0.0
 11
13.5
 21
8.550253
 31
0.0
  0
LINE
  8
0
 62
     0
 10
10.7
 20
5.573476
 30
0.0
 11
13.5
 21
8.373476
 31
0.0
  0
LINE
  8
0
 62
     0
 10
10.7
 20
5.396699
 30
0.0
 11
13.5
 21
8.196699
 31
0.0
  0
LINE
  8
0
 62
     0
 10
10.7
 20
5.219922
 30
0.0
 11
13.5
 21
8.019922
 31
0.0
  0
LINE
  8
0
 62
     0
 10
10.856854
 20
5.2
 30
0.0
 11
13.5
 21
7.843146
 31
0.0
  0
LINE
  8
0
 62
     0
 10
11.033631
 20
5.2
 30
0.0
 11
13.5
 21
7.666369
 31
0.0
  0
LINE
  8
0
 62
     0
 10
11.210408
 20
5.2
 30
0.0
 11
13.5
 21
7.489592
 31
0.0
  0
LINE
  8
0
 62
     0
 10
11.387184
 20
5.2
 30
0.0
 11
13.5
 21
7.312816
 31
0.0
  0
LINE
  8
0
 62
     0
 10
11.563961
 20
5.2
 30
0.0
 11
13.5
 21
7.136039
 31
0.0
  0
LINE
  8
0
 62
     0
 10
11.740738
 20
5.2
 30
0.0
 11
13.5
 21
6.959262
 31
0.0
  0
LINE
  8
0
 62
     0
 10
11.917514
 20
5.2
 30
0.0
 11
13.5
 21
6.782486
 31
0.0
  0
LINE
  8
0
 62
     0
 10
12.094291
 20
5.2
 30
0.0
 11
13.5
 21
6.605709
 31
0.0
  0
LINE
  8
0
 62
     0
 10
12.271068
 20
5.2
 30
0.0
 11
13.5
 21
6.428932
 31
0.0
  0
LINE
  8
0
 62
     0
 10
12.447845
 20
5.2
 30
0.0
 11
13.5
 21
6.252155
 31
0.0
  0
LINE
  8
0
 62
     0
 10
12.624621
 20
5.2
 30
0.0
 11
13.5
 21
6.075379
 31
0.0
  0
LINE
  8
0
 62
     0
 10
12.801398
 20
5.2
 30
0.0
 11
13.5
 21
5.898602
 31
0.0
  0
LINE
  8
0
 62
     0
 10
12.978175
 20
5.2
 30
0.0
 11
13.5
 21
5.721825
 31
0.0
  0
LINE
  8
0
 62
     0
 10
13.154951
 20
5.2
 30
0.0
 11
13.5
 21
5.545049
 31
0.0
  0
LINE
  8
0
 62
     0
 10
13.331728
 20
5.2
 30
0.0
 11
13.5
 21
5.368272
 31
0.0
  0
ENDBLK
  8
0
  0
BLOCK
  8
0
  2
*X15
 70
    65
 10
0.0
 20
0.0
 30
0.0
  3
*X
  0
LINE
  8
0
 62
     0
 10
10.7
 20
1.154058
 30
0.0
 11
13.5
 21
3.954058
 31
0.0
  0
LINE
  8
0
 62
     0
 10
10.7
 20
1.330835
 30
0.0
 11
13.5
 21
4.130835
 31
0.0
  0
LINE
  8
0
 62
     0
 10
10.7
 20
1.507612
 30
0.0
 11
13.5
 21
4.307612
 31
0.0
  0
LINE
  8
0
 62
     0
 10
10.7
 20
1.684389
 30
0.0
 11
13.5
 21
4.484389
 31
0.0
  0
LINE
  8
0
 62
     0
 10
10.7
 20
1.861165
 30
0.0
 11
13.5
 21
4.661165
 31
0.0
  0
LINE
  8
0
 62
     0
 10
10.7
 20
2.037942
 30
0.0
 11
13.462058
 21
4.8
 31
0.0
  0
LINE
  8
0
 62
     0
 10
10.7
 20
2.214719
 30
0.0
 11
13.285281
 21
4.8
 31
0.0
  0
LINE
  8
0
 62
     0
 10
10.7
 20
2.391495
 30
0.0
 11
13.108505
 21
4.8
 31
0.0
  0
LINE
  8
0
 62
     0
 10
10.7
 20
2.568272
 30
0.0
 11
12.931728
 21
4.8
 31
0.0
  0
LINE
  8
0
 62
     0
 10
10.7
 20
2.745049
 30
0.0
 11
12.754951
 21
4.8
 31
0.0
  0
LINE
  8
0
 62
     0
 10
10.7
 20
2.921825
 30
0.0
 11
12.578175
 21
4.8
 31
0.0
  0
LINE
  8
0
 62
     0
 10
10.7
 20
3.098602
 30
0.0
 11
12.401398
 21
4.8
 31
0.0
  0
LINE
  8
0
 62
     0
 10
10.7
 20
3.275379
 30
0.0
 11
12.224621
 21
4.8
 31
0.0
  0
LINE
  8
0
 62
     0
 10
10.7
 20
3.452155
 30
0.0
 11
12.047845
 21
4.8
 31
0.0
  0
LINE
  8
0
 62
     0
 10
10.7
 20
3.628932
 30
0.0
 11
11.871068
 21
4.8
 31
0.0
  0
LINE
  8
0
 62
     0
 10
10.7
 20
3.805709
 30
0.0
 11
11.694291
 21
4.8
 31
0.0
  0
LINE
  8
0
 62
     0
 10
10.7
 20
3.982486
 30
0.0
 11
11.517514
 21
4.8
 31
0.0
  0
LINE
  8
0
 62
     0
 10
10.7
 20
4.159262
 30
0.0
 11
11.340738
 21
4.8
 31
0.0
  0
LINE
  8
0
 62
     0
 10
10.7
 20
4.336039
 30
0.0
 11
11.163961
 21
4.8
 31
0.0
  0
LINE
  8
0
 62
     0
 10
10.7
 20
4.512816
 30
0.0
 11
10.987184
 21
4.8
 31
0.0
  0
LINE
  8
0
 62
     0
 10
10.7
 20
4.689592
 30
0.0
 11
10.810408
 21
4.8
 31
0.0
  0
LINE
  8
0
 62
     0
 10
10.7
 20
0.977282
 30
0.0
 11
13.5
 21
3.777282
 31
0.0
  0
LINE
  8
0
 62
     0
 10
10.7
 20
0.800505
 30
0.0
 11
13.5
 21
3.600505
 31
0.0
  0
LINE
  8
0
 62
     0
 10
10.7
 20
0.623728
 30
0.0
 11
13.5
 21
3.423728
 31
0.0
  0
LINE
  8
0
 62
     0
 10
10.7
 20
0.446952
 30
0.0
 11
13.5
 21
3.246952
 31
0.0
  0
LINE
  8
0
 62
     0
 10
10.7
 20
0.270175
 30
0.0
 11
13.5
 21
3.070175
 31
0.0
  0
LINE
  8
0
 62
     0
 10
10.7
 20
0.093398
 30
0.0
 11
13.5
 21
2.893398
 31
0.0
  0
LINE
  8
0
 62
     0
 10
10.783378
 20
0.0
 30
0.0
 11
13.5
 21
2.716622
 31
0.0
  0
LINE
  8
0
 62
     0
 10
10.960155
 20
0.0
 30
0.0
 11
13.5
 21
2.539845
 31
0.0
  0
LINE
  8
0
 62
     0
 10
11.136932
 20
0.0
 30
0.0
 11
13.5
 21
2.363068
 31
0.0
  0
LINE
  8
0
 62
     0
 10
11.313708
 20
0.0
 30
0.0
 11
13.5
 21
2.186292
 31
0.0
  0
LINE
  8
0
 62
     0
 10
11.490485
 20
0.0
 30
0.0
 11
13.5
 21
2.009515
 31
0.0
  0
LINE
  8
0
 62
     0
 10
11.667262
 20
0.0
 30
0.0
 11
13.5
 21
1.832738
 31
0.0
  0
LINE
  8
0
 62
     0
 10
11.844039
 20
0.0
 30
0.0
 11
13.5
 21
1.655961
 31
0.0
  0
LINE
  8
0
 62
     0
 10
12.020815
 20
0.0
 30
0.0
 11
13.5
 21
1.479185
 31
0.0
  0
LINE
  8
0
 62
     0
 10
12.197592
 20
0.0
 30
0.0
 11
13.5
 21
1.302408
 31
0.0
  0
LINE
  8
0
 62
     0
 10
12.374369
 20
0.0
 30
0.0
 11
13.5
 21
1.125631
 31
0.0
  0
LINE
  8
0
 62
     0
 10
12.551145
 20
0.0
 30
0.0
 11
13.5
 21
0.948855
 31
0.0
  0
LINE
  8
0
 62
     0
 10
12.727922
 20
0.0
 30
0.0
 11
13.5
 21
0.772078
 31
0.0
  0
LINE
  8
0
 62
     0
 10
12.904699
 20
0.0
 30
0.0
 11
13.5
 21
0.595301
 31
0.0
  0
LINE
  8
0
 62
     0
 10
13.081475
 20
0.0
 30
0.0
 11
13.5
 21
0.418525
 31
0.0
  0
LINE
  8
0
 62
     0
 10
13.258252
 20
0.0
 30
0.0
 11
13.5
 21
0.241748
 31
0.0
  0
LINE
  8
0
 62
     0
 10
13.435029
 20
0.0
 30
0.0
 11
13.5
 21
0.064971
 31
0.0
  0
ENDBLK
  8
0
  0
BLOCK
  8
0
  2
*X16
 70
    65
 10
0.0
 20
0.0
 30
0.0
  3
*X
  0
LINE
  8
0
 62
     0
 10
13.9
 20
6.298602
 30
0.0
 11
16.582995
 21
8.981597
 31
0.0
  0
LINE
  8
0
 62
     0
 10
13.9
 20
6.475379
 30
0.0
 11
16.510503
 21
9.085882
 31
0.0
  0
LINE
  8
0
 62
     0
 10
13.9
 20
6.652155
 30
0.0
 11
16.432927
 21
9.185083
 31
0.0
  0
LINE
  8
0
 62
     0
 10
13.9
 20
6.828932
 30
0.0
 11
16.350372
 21
9.279304
 31
0.0
  0
LINE
  8
0
 62
     0
 10
13.9
 20
7.005709
 30
0.0
 11
16.262892
 21
9.368601
 31
0.0
  0
LINE
  8
0
 62
     0
 10
13.9
 20
7.182486
 30
0.0
 11
16.170495
 21
9.452981
 31
0.0
  0
LINE
  8
0
 62
     0
 10
13.9
 20
7.359262
 30
0.0
 11
16.073145
 21
9.532407
 31
0.0
  0
LINE
  8
0
 62
     0
 10
13.9
 20
7.536039
 30
0.0
 11
15.970755
 21
9.606794
 31
0.0
  0
LINE
  8
0
 62
     0
 10
13.9
 20
7.712816
 30
0.0
 11
15.863189
 21
9.676004
 31
0.0
  0
LINE
  8
0
 62
     0
 10
13.9
 20
7.889592
 30
0.0
 11
15.75025
 21
9.739843
 31
0.0
  0
LINE
  8
0
 62
     0
 10
13.9
 20
8.066369
 30
0.0
 11
15.631675
 21
9.798044
 31
0.0
  0
LINE
  8
0
 62
     0
 10
13.9
 20
8.243146
 30
0.0
 11
15.50711
 21
9.850256
 31
0.0
  0
LINE
  8
0
 62
     0
 10
13.9
 20
8.419922
 30
0.0
 11
15.376096
 21
9.896018
 31
0.0
  0
LINE
  8
0
 62
     0
 10
13.9
 20
8.596699
 30
0.0
 11
15.238027
 21
9.934726
 31
0.0
  0
LINE
  8
0
 62
     0
 10
13.9
 20
8.773476
 30
0.0
 11
15.092096
 21
9.965572
 31
0.0
  0
LINE
  8
0
 62
     0
 10
13.9
 20
8.950253
 30
0.0
 11
14.937209
 21
9.987461
 31
0.0
  0
LINE
  8
0
 62
     0
 10
13.9
 20
9.127029
 30
0.0
 11
14.771824
 21
9.998853
 31
0.0
  0
LINE
  8
0
 62
     0
 10
13.9
 20
9.303806
 30
0.0
 11
14.596193
 21
9.999999
 31
0.0
  0
LINE
  8
0
 62
     0
 10
13.9
 20
9.480583
 30
0.0
 11
14.419417
 21
9.999999
 31
0.0
  0
LINE
  8
0
 62
     0
 10
13.9
 20
9.657359
 30
0.0
 11
14.24264
 21
10.0
 31
0.0
  0
LINE
  8
0
 62
     0
 10
13.9
 20
9.834136
 30
0.0
 11
14.065864
 21
10.0
 31
0.0
  0
LINE
  8
0
 62
     0
 10
13.9
 20
6.121825
 30
0.0
 11
16.650245
 21
8.872071
 31
0.0
  0
LINE
  8
0
 62
     0
 10
13.9
 20
5.945049
 30
0.0
 11
16.712035
 21
8.757083
 31
0.0
  0
LINE
  8
0
 62
     0
 10
13.9
 20
5.768272
 30
0.0
 11
16.768067
 21
8.636339
 31
0.0
  0
LINE
  8
0
 62
     0
 10
13.9
 20
5.591495
 30
0.0
 11
16.817955
 21
8.509451
 31
0.0
  0
LINE
  8
0
 62
     0
 10
13.9
 20
5.414719
 30
0.0
 11
16.861189
 21
8.375908
 31
0.0
  0
LINE
  8
0
 62
     0
 10
13.9
 20
5.237942
 30
0.0
 11
16.897097
 21
8.235039
 31
0.0
  0
LINE
  8
0
 62
     0
 10
14.038835
 20
5.2
 30
0.0
 11
16.924779
 21
8.085944
 31
0.0
  0
LINE
  8
0
 62
     0
 10
14.215611
 20
5.2
 30
0.0
 11
16.942997
 21
7.927385
 31
0.0
  0
LINE
  8
0
 62
     0
 10
14.392388
 20
5.2
 30
0.0
 11
16.949987
 21
7.757599
 31
0.0
  0
LINE
  8
0
 62
     0
 10
14.569165
 20
5.2
 30
0.0
 11
16.943101
 21
7.573936
 31
0.0
  0
LINE
  8
0
 62
     0
 10
14.745942
 20
5.2
 30
0.0
 11
16.918037
 21
7.372095
 31
0.0
  0
LINE
  8
0
 62
     0
 10
14.922718
 20
5.2
 30
0.0
 11
16.866909
 21
7.144191
 31
0.0
  0
LINE
  8
0
 62
     0
 10
15.099495
 20
5.2
 30
0.0
 11
16.771715
 21
6.87222
 31
0.0
  0
LINE
  8
0
 62
     0
 10
15.276272
 20
5.2
 30
0.0
 11
15.847951
 21
5.77168
 31
0.0
  0
LINE
  8
0
 62
     0
 10
15.96673
 20
5.890458
 30
0.0
 11
16.559542
 21
6.48327
 31
0.0
  0
LINE
  8
0
 62
     0
 10
15.453048
 20
5.2
 30
0.0
 11
15.970661
 21
5.717613
 31
0.0
  0
LINE
  8
0
 62
     0
 10
15.629825
 20
5.2
 30
0.0
 11
16.088934
 21
5.659109
 31
0.0
  0
LINE
  8
0
 62
     0
 10
15.806602
 20
5.2
 30
0.0
 11
16.202964
 21
5.596363
 31
0.0
  0
LINE
  8
0
 62
     0
 10
15.983378
 20
5.2
 30
0.0
 11
16.312909
 21
5.529531
 31
0.0
  0
LINE
  8
0
 62
     0
 10
16.160155
 20
5.2
 30
0.0
 11
16.418895
 21
5.45874
 31
0.0
  0
LINE
  8
0
 62
     0
 10
16.336932
 20
5.2
 30
0.0
 11
16.521021
 21
5.384089
 31
0.0
  0
LINE
  8
0
 62
     0
 10
16.513708
 20
5.2
 30
0.0
 11
16.619363
 21
5.305655
 31
0.0
  0
LINE
  8
0
 62
     0
 10
16.690485
 20
5.2
 30
0.0
 11
16.713975
 21
5.22349
 31
0.0
  0
ENDBLK
  8
0
  0
BLOCK
  8
0
  2
*X17
 70
    65
 10
0.0
 20
0.0
 30
0.0
  3
*X
  0
LINE
  8
0
 62
     0
 10
13.9
 20
0.818525
 30
0.0
 11
17.39645
 21
4.314974
 31
0.0
  0
LINE
  8
0
 62
     0
 10
13.9
 20
0.995301
 30
0.0
 11
17.336354
 21
4.431655
 31
0.0
  0
LINE
  8
0
 62
     0
 10
13.9
 20
1.172078
 30
0.0
 11
17.272078
 21
4.544156
 31
0.0
  0
LINE
  8
0
 62
     0
 10
13.9
 20
1.348855
 30
0.0
 11
17.203766
 21
4.652621
 31
0.0
  0
LINE
  8
0
 62
     0
 10
13.9
 20
1.525631
 30
0.0
 11
17.131535
 21
4.757167
 31
0.0
  0
LINE
  8
0
 62
     0
 10
13.9
 20
1.702408
 30
0.0
 11
16.997592
 21
4.8
 31
0.0
  0
LINE
  8
0
 62
     0
 10
13.9
 20
1.879185
 30
0.0
 11
16.820815
 21
4.8
 31
0.0
  0
LINE
  8
0
 62
     0
 10
13.9
 20
2.055961
 30
0.0
 11
16.644039
 21
4.8
 31
0.0
  0
LINE
  8
0
 62
     0
 10
13.9
 20
2.232738
 30
0.0
 11
16.467262
 21
4.8
 31
0.0
  0
LINE
  8
0
 62
     0
 10
13.9
 20
2.409515
 30
0.0
 11
16.290485
 21
4.8
 31
0.0
  0
LINE
  8
0
 62
     0
 10
13.9
 20
2.586292
 30
0.0
 11
16.113708
 21
4.8
 31
0.0
  0
LINE
  8
0
 62
     0
 10
13.9
 20
2.763068
 30
0.0
 11
15.936932
 21
4.8
 31
0.0
  0
LINE
  8
0
 62
     0
 10
13.9
 20
2.939845
 30
0.0
 11
15.760155
 21
4.8
 31
0.0
  0
LINE
  8
0
 62
     0
 10
13.9
 20
3.116622
 30
0.0
 11
15.583378
 21
4.8
 31
0.0
  0
LINE
  8
0
 62
     0
 10
13.9
 20
3.293398
 30
0.0
 11
15.406602
 21
4.8
 31
0.0
  0
LINE
  8
0
 62
     0
 10
13.9
 20
3.470175
 30
0.0
 11
15.229825
 21
4.8
 31
0.0
  0
LINE
  8
0
 62
     0
 10
13.9
 20
3.646952
 30
0.0
 11
15.053048
 21
4.8
 31
0.0
  0
LINE
  8
0
 62
     0
 10
13.9
 20
3.823728
 30
0.0
 11
14.876272
 21
4.8
 31
0.0
  0
LINE
  8
0
 62
     0
 10
13.9
 20
4.000505
 30
0.0
 11
14.699495
 21
4.8
 31
0.0
  0
LINE
  8
0
 62
     0
 10
13.9
 20
4.177282
 30
0.0
 11
14.522718
 21
4.8
 31
0.0
  0
LINE
  8
0
 62
     0
 10
13.9
 20
4.354058
 30
0.0
 11
14.345942
 21
4.8
 31
0.0
  0
LINE
  8
0
 62
     0
 10
13.9
 20
4.530835
 30
0.0
 11
14.169165
 21
4.8
 31
0.0
  0
LINE
  8
0
 62
     0
 10
13.9
 20
4.707612
 30
0.0
 11
13.992388
 21
4.8
 31
0.0
  0
LINE
  8
0
 62
     0
 10
13.9
 20
0.641748
 30
0.0
 11
17.452185
 21
4.193933
 31
0.0
  0
LINE
  8
0
 62
     0
 10
13.9
 20
0.464971
 30
0.0
 11
17.503339
 21
4.068311
 31
0.0
  0
LINE
  8
0
 62
     0
 10
13.9
 20
0.288194
 30
0.0
 11
17.549642
 21
3.937837
 31
0.0
  0
LINE
  8
0
 62
     0
 10
13.9
 20
0.111418
 30
0.0
 11
17.590762
 21
3.80218
 31
0.0
  0
LINE
  8
0
 62
     0
 10
13.965359
 20
0.0
 30
0.0
 11
17.62629
 21
3.660931
 31
0.0
  0
LINE
  8
0
 62
     0
 10
14.142136
 20
0.000001
 30
0.0
 11
17.655713
 21
3.513577
 31
0.0
  0
LINE
  8
0
 62
     0
 10
14.318913
 20
0.000001
 30
0.0
 11
17.678385
 21
3.359473
 31
0.0
  0
LINE
  8
0
 62
     0
 10
14.49569
 20
0.000001
 30
0.0
 11
17.693473
 21
3.197784
 31
0.0
  0
LINE
  8
0
 62
     0
 10
14.672467
 20
0.000002
 30
0.0
 11
17.699875
 21
3.027409
 31
0.0
  0
LINE
  8
0
 62
     0
 10
14.853154
 20
0.003912
 30
0.0
 11
17.696088
 21
2.846846
 31
0.0
  0
LINE
  8
0
 62
     0
 10
15.046044
 20
0.020025
 30
0.0
 11
17.679975
 21
2.653956
 31
0.0
  0
LINE
  8
0
 62
     0
 10
15.254483
 20
0.051687
 30
0.0
 11
17.648313
 21
2.445517
 31
0.0
  0
LINE
  8
0
 62
     0
 10
15.483762
 20
0.10419
 30
0.0
 11
17.59581
 21
2.216238
 31
0.0
  0
LINE
  8
0
 62
     0
 10
15.743786
 20
0.187437
 30
0.0
 11
17.512563
 21
1.956214
 31
0.0
  0
LINE
  8
0
 62
     0
 10
16.058176
 20
0.32505
 30
0.0
 11
17.37495
 21
1.641824
 31
0.0
  0
LINE
  8
0
 62
     0
 10
16.54193
 20
0.632028
 30
0.0
 11
17.067972
 21
1.15807
 31
0.0
  0
ENDBLK
  8
0
  0
BLOCK
  8
0
  2
BLC15
 70
    64
 10
0.0
 20
0.0
 30
0.0
  3
BLC15
  0
LINE
  8
0
  6
CONTINUOUS
 10
0.142084
 20
3.490022
 30
0.0
 11
0.142084
 21
0.844365
 31
0.0
  0
LINE
  8
0
  6
CONTINUOUS
 10
-0.461611
 20
-0.937188
 30
0.0
 11
0.745779
 21
-0.937188
 31
0.0
  0
LINE
  8
0
  6
CONTINUOUS
 10
-0.894108
 20
-0.049675
 30
0.0
 11
1.169267
 21
-0.049675
 31
0.0
  0
LINE
  8
0
  6
CONTINUOUS
 10
-1.389679
 20
0.844365
 30
0.0
 11
1.673848
 21
0.844365
 31
0.0
  0
ENDBLK
  8
0
  0
BLOCK
  8
0
  2
BLC55
 70
    64
 10
0.0
 20
0.0
 30
0.0
  3
BLC55
  0
INSERT
  8
SWEDEN
  6
CENTER
  2
BLC5
 10
0.087066
 20
-0.756831
 30
0.0
 41
0.6
 42
0.6
 43
0.6
  0
ENDBLK
  8
0
  0
BLOCK
  8
0
  2
BLC5
 70
    64
 10
0.0
 20
0.0
 30
0.0
  3
BLC5
  0
TEXT
  8
0
 10
-3.043704
 20
-6.645912
 30
0.0
 40
3.2
  1
PE
  0
LINE
  8
0
 10
-2.946392
 20
1.181176
 30
0.0
 11
2.135458
 21
1.181176
 31
0.0
  0
LINE
  8
0
 10
-0.48656
 20
2.238362
 30
0.0
 11
-0.48656
 21
6.930438
 31
0.0
  0
LINE
  8
0
 10
-1.973271
 20
0.065258
 30
0.0
 11
1.225411
 21
0.065258
 31
0.0
  0
LINE
  8
0
 10
2.685091
 20
2.238362
 30
0.0
 11
1.68494
 21
2.238362
 31
0.0
  0
LINE
  8
0
 10
-3.505035
 20
2.238362
 30
0.0
 11
2.649049
 21
2.238362
 31
0.0
  0
CIRCLE
  8
0
 10
-0.47755
 20
1.422632
 30
0.0
 40
3.804563
  0
ENDBLK
  8
0
  0
BLOCK
  8
0
  2
BLC43
 70
    64
 10
0.0
 20
0.0
 30
0.0
  3
BLC43
  0
TEXT
  8
SWEDEN2
  6
CONTINUOUS
 10
-0.646672
 20
-0.986365
 30
0.0
 40
2.0
  1
+
  0
ENDBLK
  8
0
  0
BLOCK
  8
0
  2
BLC42
 70
    64
 10
0.0
 20
0.0
 30
0.0
  3
BLC42
  0
TEXT
  8
SWEDEN2
  6
CONTINUOUS
 10
-0.655237
 20
-0.99442
 30
0.0
 40
2.0
  1
-
  0
ENDBLK
  8
0
  0
BLOCK
  8
0
  2
BLC44
 70
    64
 10
0.0
 20
0.0
 30
0.0
  3
BLC44
  0
LINE
  8
HEL035
 10
-2.520993
 20
1.697877
 30
0.0
 11
1.479007
 21
1.697877
 31
0.0
  0
INSERT
  8
HEL035
  2
WKU130
 10
-2.181043
 20
-0.027675
 30
0.0
 41
0.8
 42
0.8
 43
0.8
  0
ENDBLK
  8
0
  0
BLOCK
  8
0
  2
B24
 70
     0
 10
0.0
 20
0.0
 30
0.0
  3
B24
  0
LINE
  8
BASE
  6
CONTINUOUS
 10
10.0
 20
0.0
 30
0.0
 11
0.0
 21
0.0
 31
0.0
  0
LINE
  8
BASE
  6
CONTINUOUS
 10
12.798812
 20
0.0
 30
0.0
 11
8.098812
 21
0.0
 31
0.0
  0
LINE
  8
BASE
  6
CONTINUOUS
 10
2.5
 20
5.0
 30
0.0
 11
0.0
 21
5.0
 31
0.0
  0
LINE
  8
BASE
  6
CONTINUOUS
 10
2.5
 20
5.0
 30
0.0
 11
2.5
 21
6.686532
 31
0.0
  0
LINE
  8
BASE
  6
CONTINUOUS
 10
2.347355
 20
6.475523
 30
0.0
 11
1.954974
 21
5.510233
 31
0.0
  0
LINE
  8
BASE
  6
CONTINUOUS
 10
7.5
 20
5.0
 30
0.0
 11
2.347355
 21
6.475523
 31
0.0
  0
LINE
  8
BASE
  6
CONTINUOUS
 10
10.0
 20
5.0
 30
0.0
 11
7.5
 21
5.0
 31
0.0
  0
LINE
  8
BASE
  6
CONTINUOUS
 10
12.798812
 20
5.0
 30
0.0
 11
8.098812
 21
5.0
 31
0.0
  0
TEXT
  8
BASE
  6
CONTINUOUS
 10
0.988929
 20
-2.458581
 30
0.0
 40
2.0
  1
108:11
  0
TEXT
  8
BASE
  6
CONTINUOUS
 10
0.988929
 20
2.654891
 30
0.0
 40
2.0
  1
14A
  0
TEXT
  8
BASE
  6
CONTINUOUS
 10
2.505198
 20
7.263196
 30
0.0
 40
2.0
  1
101
  0
LINE
  8
BASE
 10
12.798812
 20
6.589925
 30
0.0
 11
12.798812
 21
-1.6
 31
0.0
  0
LINE
  8
BASE
 10
17.004853
 20
6.59384
 30
0.0
 11
15.09105
 21
4.315018
 31
0.0
  0
LINE
  8
BASE
 10
18.496971
 20
6.59384
 30
0.0
 11
16.642636
 21
4.315018
 31
0.0
  0
LINE
  8
BASE
 10
20.221556
 20
6.589925
 30
0.0
 11
12.798812
 21
6.589925
 31
0.0
  0
LINE
  8
BASE
 10
12.798812
 20
-1.6
 30
0.0
 11
20.221556
 21
-1.6
 31
0.0
  0
LINE
  8
BASE
 10
20.221556
 20
-1.6
 30
0.0
 11
20.221556
 21
6.589925
 31
0.0
  0
LINE
  8
BASE
  6
CONTINUOUS
 10
20.221556
 20
2.5
 30
0.0
 11
23.098812
 21
2.5
 31
0.0
  0
ENDBLK
  8
0
  0
BLOCK
  8
0
  2
BLC25
 70
     0
 10
0.0
 20
0.0
 30
0.0
  3
BLC25
  0
TEXT
  8
0
  6
CONTINUOUS
 10
2.0
 20
30.666667
 30
0.0
 40
2.0
  1
1)
 11
2.0
 21
30.0
 31
0.0
 73
     1
  0
TEXT
  8
0
 10
6.0
 20
2.0
 30
0.0
 40
2.0
  1
7B    27     26
 11
6.0
 21
1.333333
 31
0.0
 73
     1
  0
TEXT
  8
0
 10
6.0
 20
5.333333
 30
0.0
 40
2.0
  1
5B     9      8
 11
6.0
 21
4.666667
 31
0.0
 73
     1
  0
TEXT
  8
0
 10
6.0
 20
8.666667
 30
0.0
 40
2.0
  1
3B     3      2
 11
6.0
 21
8.0
 31
0.0
 73
     1
  0
TEXT
  8
0
 10
32.0
 20
12.666667
 30
0.0
 40
2.0
  1
In=5A
 11
32.0
 21
12.0
 31
0.0
 73
     1
  0
TEXT
  8
0
 10
16.0
 20
12.666667
 30
0.0
 40
2.0
  1
In=1A 
 11
16.0
 21
12.0
 31
0.0
 73
     1
  0
TEXT
  8
0
 10
26.0
 20
18.666667
 30
0.0
 40
2.0
  1
108:
 11
26.0
 21
18.0
 31
0.0
 73
     1
  0
TEXT
  8
0
 10
6.0
 20
18.666667
 30
0.0
 40
2.0
  1
101:       
 11
6.0
 21
18.0
 31
0.0
 73
     1
  0
TEXT
  8
0
 10
6.0
 20
24.666667
 30
0.0
 40
2.0
  1
TERMINALS / UTTAG
 11
6.0
 21
24.0
 31
0.0
 73
     1
  0
LINE
  8
0
 10
0.0
 20
12.0
 30
0.0
 11
44.0
 21
12.0
 31
0.0
  0
LINE
  8
0
 10
28.0
 20
18.0
 30
0.0
 11
28.0
 21
0.0
 31
0.0
  0
LINE
  8
0
 10
14.0
 20
18.0
 30
0.0
 11
44.0
 21
18.0
 31
0.0
  0
LINE
  8
0
 10
14.0
 20
24.0
 30
0.0
 11
14.0
 21
0.0
 31
0.0
  0
LINE
  8
0
 10
0.0
 20
24.0
 30
0.0
 11
44.0
 21
24.0
 31
0.0
  0
LINE
  8
0
 10
44.0
 20
0.0
 30
0.0
 11
44.0
 21
30.0
 31
0.0
  0
LINE
  8
0
 10
0.0
 20
0.0
 30
0.0
 11
44.0
 21
0.0
 31
0.0
  0
LINE
  8
0
 10
0.0
 20
30.0
 30
0.0
 11
0.0
 21
0.0
 31
0.0
  0
LINE
  8
0
 10
44.0
 20
30.0
 30
0.0
 11
0.0
 21
30.0
 31
0.0
  0
ENDBLK
  8
0
  0
BLOCK
  8
0
  2
B67
 70
     0
 10
0.0
 20
0.0
 30
0.0
  3
B67
  0
LINE
  8
BASE
  6
CONTINUOUS
 10
-1.897097
 20
-3.556254
 30
0.0
 11
-2.963522
 21
-2.489829
 31
0.0
  0
LINE
  8
BASE
  6
CONTINUOUS
 10
-2.963522
 20
-2.489829
 30
0.0
 11
-1.897097
 21
-1.423405
 31
0.0
  0
LINE
  8
BASE
  6
CONTINUOUS
 10
-1.897097
 20
-1.423405
 30
0.0
 11
-0.830672
 21
-2.489829
 31
0.0
  0
LINE
  8
BASE
  6
CONTINUOUS
 10
-0.830672
 20
-2.489829
 30
0.0
 11
-1.897097
 21
-3.556254
 31
0.0
  0
LINE
  8
BASE
  6
DASHED
 10
0.0
 20
0.0
 30
0.0
 11
-5.000117
 21
0.0
 31
0.0
  0
TEXT
  8
BASE
  6
DASHED
 10
-8.422045
 20
-3.481615
 30
0.0
 40
2.0
  1
14B
  0
LINE
  8
BASE
  6
DASHED
 10
-12.5
 20
0.0
 30
0.0
 11
-30.0
 21
0.0
 31
0.0
  0
TEXT
  8
BASE
  6
DASHED
 10
-12.5
 20
3.402046
 30
0.0
 40
2.0
  1
101
  0
TEXT
  8
BASE
  6
DASHED
 10
-18.160336
 20
-3.602839
 30
0.0
 40
2.0
  1
14A 
  0
INSERT
  8
0
  6
CONTINUOUS
  2
B37
 10
-12.5
 20
0.0
 30
0.0
 50
90.0
  0
ENDBLK
  8
0
  0
BLOCK
  8
0
  2
B37
 70
    64
 10
0.0
 20
0.0
 30
0.0
  3
B37
  0
LINE
  8
BASE
  6
CONTINUOUS
 10
-0.006589
 20
-6.018035
 30
0.0
 11
2.434804
 21
0.662841
 31
0.0
  0
LINE
  8
BASE
  6
CONTINUOUS
 10
0.0
 20
0.0
 30
0.0
 11
2.765661
 21
0.0
 31
0.0
  0
LINE
  8
BASE
  6
CONTINUOUS
 10
2.434804
 20
0.662841
 30
0.0
 11
1.549106
 21
1.107734
 31
0.0
  0
CIRCLE
  8
BASE
  6
CONTINUOUS
 10
0.0
 20
-6.758945
 30
0.0
 40
0.740939
  0
ENDBLK
  8
0
  0
BLOCK
  8
0
  2
ABBA3V
 70
    64
 10
0.0
 20
0.0
 30
0.0
  3
ABBA3V
  0
TEXT
  8
RAAMI
  6
DASHED
 10
292.217194
 20
11.813359
 30
0.0
 40
3.0
  1
A3
  7
GREEKS
  0
TEXT
  8
RAAMI
  6
DASHED
 10
351.818577
 20
15.69253
 30
0.0
 40
1.4
  1
LEHTI SHEET
  7
GREEKS
  0
LINE
  8
PAKSU
 10
0.237099
 20
262.737999
 30
0.0
 11
392.237099
 21
262.737999
 31
0.0
  0
LINE
  8
RAAMI
 10
18.237099
 20
0.237999
 30
0.0
 11
0.237099
 21
0.237999
 31
0.0
  0
LINE
  8
PAKSU
 10
209.237099
 20
0.237999
 30
0.0
 11
392.237099
 21
0.237999
 31
0.0
  0
LINE
  8
PAKSU
 10
209.237099
 20
0.237999
 30
0.0
 11
209.237099
 21
35.237999
 31
0.0
  0
LINE
  8
PAKSU
 10
392.237099
 20
0.237999
 30
0.0
 11
392.237099
 21
35.237999
 31
0.0
  0
LINE
  8
OHUT
 10
209.237099
 20
18.237999
 30
0.0
 11
392.237099
 21
18.237999
 31
0.0
  0
LINE
  8
OHUT
 10
209.237099
 20
9.737999
 30
0.0
 11
392.237099
 21
9.737999
 31
0.0
  0
LINE
  8
OHUT
 10
209.237099
 20
26.737999
 30
0.0
 11
307.237099
 21
26.737999
 31
0.0
  0
LINE
  8
PAKSU
 10
209.237099
 20
35.237999
 30
0.0
 11
392.237099
 21
35.237999
 31
0.0
  0
TEXT
  8
RAAMI
 10
210.237099
 20
23.971333
 30
0.0
 40
1.4
  1
TARKASTI  CHECKED
  7
ROMANS
  0
TEXT
  8
RAAMI
 10
209.979934
 20
15.704666
 30
0.0
 40
1.4
  1
HYVÄKSYI  APPROVED
  7
ROMANS
  0
LINE
  8
OHUT
 10
307.237099
 20
0.237999
 30
0.0
 11
307.237099
 21
35.237999
 31
0.0
  0
TEXT
  8
RAAMI
 10
259.237099
 20
32.737999
 30
0.0
 40
1.4
  1
LIITTYY  CONCERNING
  7
ROMANS
  0
TEXT
  8
RAAMI
 10
259.237099
 20
23.737999
 30
0.0
 40
1.4
  1
TOLERANSSIT  TOLERANCES
  7
ROMANS
  0
TEXT
  8
RAAMI
 10
259.237099
 20
15.737999
 30
0.0
 40
1.4
  1
SUHDE  SCALE
  7
ROMANS
  0
TEXT
  8
RAAMI
 10
309.237099
 20
32.737999
 30
0.0
 40
1.4
  1
NIMITYS  NAME
  7
ROMANS
  0
TEXT
  8
RAAMI
 10
309.237099
 20
15.737999
 30
0.0
 40
1.4
  1
KOODI  CODE
  7
ROMANS
  0
TEXT
  8
RAAMI
 10
309.237099
 20
7.237999
 30
0.0
 40
1.4
  1
PIIRUSTUS NO  DRAWING NR
  7
ROMANS
  0
LINE
  8
OHUT
 10
349.737099
 20
9.737999
 30
0.0
 11
349.737099
 21
18.237999
 31
0.0
  0
TEXT
  8
RAAMI
 10
371.237099
 20
7.237999
 30
0.0
 40
1.4
  1
PAINOS  REVISION
  7
ROMANS
  0
LINE
  8
OHUT
 10
369.737099
 20
9.737999
 30
0.0
 11
369.737099
 21
0.237999
 31
0.0
  0
LINE
  8
RAAMI
 10
210.187099
 20
1.737999
 30
0.0
 11
211.937099
 21
1.737999
 31
0.0
  0
LINE
  8
RAAMI
 10
215.437099
 20
1.737999
 30
0.0
 11
217.187099
 21
1.737999
 31
0.0
  0
LINE
  8
RAAMI
 10
212.637099
 20
8.737999
 30
0.0
 11
211.459571
 21
5.373634
 31
0.0
  0
LINE
  8
RAAMI
 10
212.425886
 20
3.137999
 30
0.0
 11
213.547099
 21
3.137999
 31
0.0
  0
LINE
  8
RAAMI
 10
212.425889
 20
3.134542
 30
0.0
 11
211.937099
 21
1.737999
 31
0.0
  0
LINE
  8
RAAMI
 10
214.737099
 20
8.737999
 30
0.0
 11
215.913452
 21
5.376991
 31
0.0
  0
LINE
  8
RAAMI
 10
214.948197
 20
3.134863
 30
0.0
 11
215.437099
 21
1.737999
 31
0.0
  0
LINE
  8
RAAMI
 10
214.737099
 20
8.737999
 30
0.0
 11
213.827099
 21
8.737999
 31
0.0
  0
LINE
  8
RAAMI
 10
213.547099
 20
8.737999
 30
0.0
 11
213.547099
 21
5.377999
 31
0.0
  0
LINE
  8
RAAMI
 10
213.827099
 20
8.737999
 30
0.0
 11
213.827099
 21
5.377999
 31
0.0
  0
LINE
  8
RAAMI
 10
213.827099
 20
3.137999
 30
0.0
 11
214.946992
 21
3.137999
 31
0.0
  0
LINE
  8
RAAMI
 10
213.547099
 20
8.737999
 30
0.0
 11
212.637099
 21
8.737999
 31
0.0
  0
LINE
  8
RAAMI
 10
211.45904
 20
5.377999
 30
0.0
 11
213.547099
 21
5.377999
 31
0.0
  0
LINE
  8
RAAMI
 10
211.360082
 20
5.097999
 30
0.0
 11
213.547099
 21
5.097999
 31
0.0
  0
LINE
  8
RAAMI
 10
216.011591
 20
5.096594
 30
0.0
 11
217.187099
 21
1.737999
 31
0.0
  0
LINE
  8
RAAMI
 10
213.827099
 20
5.377999
 30
0.0
 11
215.912213
 21
5.377999
 31
0.0
  0
LINE
  8
RAAMI
 10
213.827099
 20
5.097999
 30
0.0
 11
216.010356
 21
5.097999
 31
0.0
  0
LINE
  8
RAAMI
 10
213.827099
 20
5.097999
 30
0.0
 11
213.827099
 21
3.137999
 31
0.0
  0
LINE
  8
RAAMI
 10
213.547099
 20
5.097999
 30
0.0
 11
213.547099
 21
3.137999
 31
0.0
  0
LINE
  8
RAAMI
 10
211.356988
 20
5.080538
 30
0.0
 11
210.187099
 21
1.737999
 31
0.0
  0
INSERT
  8
RAAMI
  2
*X29
 10
210.187099
 20
1.737999
 30
0.0
 41
0.7
 42
0.7
 43
0.7
  0
INSERT
  8
RAAMI
  2
*X30
 10
210.187099
 20
1.737999
 30
0.0
 41
0.7
 42
0.7
 43
0.7
  0
INSERT
  8
RAAMI
  2
*X31
 10
210.187099
 20
1.737999
 30
0.0
 41
0.7
 42
0.7
 43
0.7
  0
INSERT
  8
RAAMI
  2
*X32
 10
210.187099
 20
1.737999
 30
0.0
 41
0.7
 42
0.7
 43
0.7
  0
LINE
  8
RAAMI
 10
217.677099
 20
1.737999
 30
0.0
 11
217.677099
 21
5.097999
 31
0.0
  0
LINE
  8
RAAMI
 10
217.677099
 20
8.737999
 30
0.0
 11
219.637099
 21
8.737999
 31
0.0
  0
LINE
  8
RAAMI
 10
219.637099
 20
8.737999
 30
0.0
 11
219.637099
 21
5.377999
 31
0.0
  0
LINE
  8
RAAMI
 10
219.637099
 20
5.377999
 30
0.0
 11
217.677099
 21
5.377999
 31
0.0
  0
LINE
  8
RAAMI
 10
217.677099
 20
5.097999
 30
0.0
 11
219.637099
 21
5.097999
 31
0.0
  0
LINE
  8
RAAMI
 10
219.637099
 20
5.097999
 30
0.0
 11
219.637099
 21
1.737999
 31
0.0
  0
LINE
  8
RAAMI
 10
219.637099
 20
1.737999
 30
0.0
 11
217.677099
 21
1.737999
 31
0.0
  0
LINE
  8
RAAMI
 10
217.677099
 20
5.377999
 30
0.0
 11
217.677099
 21
8.737999
 31
0.0
  0
ARC
  8
RAAMI
 10
220.477099
 20
7.162999
 30
0.0
 40
1.575
 50
298.455859
 51
90.052437
  0
LINE
  8
RAAMI
 10
219.917099
 20
8.737999
 30
0.0
 11
220.475658
 21
8.737999
 31
0.0
  0
LINE
  8
RAAMI
 10
219.917099
 20
8.737999
 30
0.0
 11
219.917099
 21
5.377999
 31
0.0
  0
LINE
  8
RAAMI
 10
219.917099
 20
5.377999
 30
0.0
 11
221.901542
 21
5.377999
 31
0.0
  0
LINE
  8
RAAMI
 10
222.157099
 20
5.097999
 30
0.0
 11
219.917099
 21
5.097999
 31
0.0
  0
LINE
  8
RAAMI
 10
219.917099
 20
5.097999
 30
0.0
 11
219.917099
 21
1.737999
 31
0.0
  0
ARC
  8
RAAMI
 10
220.477099
 20
3.837999
 30
0.0
 40
2.1
 50
269.937724
 51
37.056553
  0
LINE
  8
RAAMI
 10
219.917099
 20
1.737999
 30
0.0
 11
220.474817
 21
1.738
 31
0.0
  0
ARC
  8
RAAMI
 10
220.477099
 20
3.837999
 30
0.0
 40
2.1
 50
47.28622
 51
68.787999
  0
INSERT
  8
RAAMI
  2
*X33
 10
210.187099
 20
1.737999
 30
0.0
 41
0.7
 42
0.7
 43
0.7
  0
INSERT
  8
RAAMI
  2
*X34
 10
210.187099
 20
1.737999
 30
0.0
 41
0.7
 42
0.7
 43
0.7
  0
INSERT
  8
RAAMI
  2
*X35
 10
210.187099
 20
1.737999
 30
0.0
 41
0.7
 42
0.7
 43
0.7
  0
INSERT
  8
RAAMI
  2
*X36
 10
210.187099
 20
1.737999
 30
0.0
 41
0.7
 42
0.7
 43
0.7
  0
INSERT
  8
RAAMI
  2
*X36
 10
215.647099
 20
1.737999
 30
0.0
 41
0.7
 42
0.7
 43
0.7
  0
INSERT
  8
RAAMI
  2
*X35
 10
215.647099
 20
1.737999
 30
0.0
 41
0.7
 42
0.7
 43
0.7
  0
INSERT
  8
RAAMI
  2
*X34
 10
215.647099
 20
1.737999
 30
0.0
 41
0.7
 42
0.7
 43
0.7
  0
INSERT
  8
RAAMI
  2
*X33
 10
215.647099
 20
1.737999
 30
0.0
 41
0.7
 42
0.7
 43
0.7
  0
ARC
  8
RAAMI
 10
225.937099
 20
3.837999
 30
0.0
 40
2.1
 50
47.28622
 51
68.787999
  0
LINE
  8
RAAMI
 10
225.377099
 20
1.737999
 30
0.0
 11
225.934817
 21
1.738
 31
0.0
  0
ARC
  8
RAAMI
 10
225.937099
 20
3.837999
 30
0.0
 40
2.1
 50
269.937724
 51
37.056553
  0
LINE
  8
RAAMI
 10
225.377099
 20
5.097999
 30
0.0
 11
225.377099
 21
1.737999
 31
0.0
  0
LINE
  8
RAAMI
 10
227.617099
 20
5.097999
 30
0.0
 11
225.377099
 21
5.097999
 31
0.0
  0
LINE
  8
RAAMI
 10
225.377099
 20
5.377999
 30
0.0
 11
227.361542
 21
5.377999
 31
0.0
  0
LINE
  8
RAAMI
 10
225.377099
 20
8.737999
 30
0.0
 11
225.377099
 21
5.377999
 31
0.0
  0
LINE
  8
RAAMI
 10
225.377099
 20
8.737999
 30
0.0
 11
225.935658
 21
8.737999
 31
0.0
  0
ARC
  8
RAAMI
 10
225.937099
 20
7.162999
 30
0.0
 40
1.575
 50
298.455859
 51
90.052437
  0
LINE
  8
RAAMI
 10
223.137099
 20
5.377999
 30
0.0
 11
223.137099
 21
8.737999
 31
0.0
  0
LINE
  8
RAAMI
 10
225.097099
 20
1.737999
 30
0.0
 11
223.137099
 21
1.737999
 31
0.0
  0
LINE
  8
RAAMI
 10
225.097099
 20
5.097999
 30
0.0
 11
225.097099
 21
1.737999
 31
0.0
  0
LINE
  8
RAAMI
 10
223.137099
 20
5.097999
 30
0.0
 11
225.097099
 21
5.097999
 31
0.0
  0
LINE
  8
RAAMI
 10
225.097099
 20
5.377999
 30
0.0
 11
223.137099
 21
5.377999
 31
0.0
  0
LINE
  8
RAAMI
 10
225.097099
 20
8.737999
 30
0.0
 11
225.097099
 21
5.377999
 31
0.0
  0
LINE
  8
RAAMI
 10
223.137099
 20
8.737999
 30
0.0
 11
225.097099
 21
8.737999
 31
0.0
  0
LINE
  8
RAAMI
 10
223.137099
 20
1.737999
 30
0.0
 11
223.137099
 21
5.097999
 31
0.0
  0
TEXT
  8
RAAMI
 10
229.737099
 20
1.737999
 30
0.0
 40
3.0
  1
ABB 
 41
0.8
  7
ROMANS
  0
TEXT
  8
RAAMI
 10
237.737099
 20
1.737999
 30
0.0
 40
3.0
  1
Strömberg
 41
0.8
  7
ROMANS
  0
LINE
  8
OHUT
 10
282.237099
 20
9.737999
 30
0.0
 11
282.237099
 21
18.237999
 31
0.0
  0
TEXT
  8
RAAMI
 10
27.737099
 20
4.737999
 30
0.0
 40
1.4
  1
MUUTOS
  7
ROMANS
  0
TEXT
  8
RAAMI
 10
27.737099
 20
2.471333
 30
0.0
 40
1.4
  1
REVISION
  7
ROMANS
  0
LINE
  8
OHUT
 10
46.737099
 20
9.237999
 30
0.0
 11
209.237099
 21
9.237999
 31
0.0
  0
LINE
  8
OHUT
 10
46.737099
 20
0.237999
 30
0.0
 11
46.737099
 21
9.237999
 31
0.0
  0
LINE
  8
OHUT
 10
40.737099
 20
4.737999
 30
0.0
 11
209.237099
 21
4.737999
 31
0.0
  0
LINE
  8
OHUT
 10
257.237099
 20
9.737999
 30
0.0
 11
257.237099
 21
35.237999
 31
0.0
  0
LINE
  8
OHUT
 10
271.237099
 20
9.737999
 30
0.0
 11
271.237099
 21
0.237999
 31
0.0
  0
TEXT
  8
RAAMI
 10
210.237099
 20
32.237999
 30
0.0
 40
1.4
  1
TEKI  PREPARED
  7
ROMANS
  0
TEXT
  8
RAAMI
 10
273.237099
 20
7.237999
 30
0.0
 40
1.4
  1
VAST.OSASTO RESP.DEPT.
  7
ROMANS
  0
TEXT
  8
RAAMI
 10
257.407006
 20
1.741783
 30
0.0
 40
3.0
  1
Power
 41
0.8
  7
ROMANS
  0
TEXT
  8
RAAMI
 10
42.237099
 20
1.195292
 30
0.0
 40
2.5
  1
B
  7
ROMANS
  0
TEXT
  8
RAAMI
 10
42.237099
 20
5.587508
 30
0.0
 40
2.5
  1
C
  7
ROMANS
  0
LINE
  8
PAKSU
 10
0.237099
 20
0.237999
 30
0.0
 11
392.237099
 21
0.237999
 31
0.0
  0
LINE
  8
PAKSU
 10
392.237099
 20
262.737999
 30
0.0
 11
392.237099
 21
0.237999
 31
0.0
  0
LINE
  8
PAKSU
 10
0.237099
 20
0.237999
 30
0.0
 11
0.237099
 21
262.737999
 31
0.0
  0
ENDBLK
  8
0
  0
BLOCK
  8
0
  2
*X29
 70
    65
 10
0.0
 20
0.0
 30
0.0
  3
*X
  0
LINE
  8
0
 62
     0
 10
2.284499
 20
6.52714
 30
0.0
 11
4.8
 21
9.042641
 31
0.0
  0
LINE
  8
0
 62
     0
 10
2.379686
 20
6.799104
 30
0.0
 11
4.8
 21
9.219417
 31
0.0
  0
LINE
  8
0
 62
     0
 10
2.474874
 20
7.071068
 30
0.0
 11
4.8
 21
9.396194
 31
0.0
  0
LINE
  8
0
 62
     0
 10
2.570061
 20
7.343032
 30
0.0
 11
4.8
 21
9.572971
 31
0.0
  0
LINE
  8
0
 62
     0
 10
2.665249
 20
7.614996
 30
0.0
 11
4.8
 21
9.749747
 31
0.0
  0
LINE
  8
0
 62
     0
 10
2.760436
 20
7.88696
 30
0.0
 11
4.8
 21
9.926524
 31
0.0
  0
LINE
  8
0
 62
     0
 10
2.855624
 20
8.158924
 30
0.0
 11
4.696699
 21
10.0
 31
0.0
  0
LINE
  8
0
 62
     0
 10
2.950811
 20
8.430889
 30
0.0
 11
4.519922
 21
10.0
 31
0.0
  0
LINE
  8
0
 62
     0
 10
3.045998
 20
8.702853
 30
0.0
 11
4.343146
 21
10.0
 31
0.0
  0
LINE
  8
0
 62
     0
 10
3.141186
 20
8.974817
 30
0.0
 11
4.166369
 21
10.0
 31
0.0
  0
LINE
  8
0
 62
     0
 10
3.236373
 20
9.246781
 30
0.0
 11
3.989592
 21
10.0
 31
0.0
  0
LINE
  8
0
 62
     0
 10
3.331561
 20
9.518745
 30
0.0
 11
3.812816
 21
10.0
 31
0.0
  0
LINE
  8
0
 62
     0
 10
3.426748
 20
9.790709
 30
0.0
 11
3.636039
 21
10.0
 31
0.0
  0
LINE
  8
0
 62
     0
 10
2.189311
 20
6.255175
 30
0.0
 11
4.8
 21
8.865864
 31
0.0
  0
LINE
  8
0
 62
     0
 10
2.094124
 20
5.983211
 30
0.0
 11
4.8
 21
8.689087
 31
0.0
  0
LINE
  8
0
 62
     0
 10
1.998936
 20
5.711247
 30
0.0
 11
4.8
 21
8.512311
 31
0.0
  0
LINE
  8
0
 62
     0
 10
1.903749
 20
5.439283
 30
0.0
 11
4.8
 21
8.335534
 31
0.0
  0
LINE
  8
0
 62
     0
 10
1.841243
 20
5.2
 30
0.0
 11
4.8
 21
8.158757
 31
0.0
  0
LINE
  8
0
 62
     0
 10
2.018019
 20
5.2
 30
0.0
 11
4.8
 21
7.981981
 31
0.0
  0
LINE
  8
0
 62
     0
 10
2.194796
 20
5.2
 30
0.0
 11
4.8
 21
7.805204
 31
0.0
  0
LINE
  8
0
 62
     0
 10
2.371573
 20
5.2
 30
0.0
 11
4.8
 21
7.628427
 31
0.0
  0
LINE
  8
0
 62
     0
 10
2.54835
 20
5.2
 30
0.0
 11
4.8
 21
7.45165
 31
0.0
  0
LINE
  8
0
 62
     0
 10
2.725126
 20
5.2
 30
0.0
 11
4.8
 21
7.274874
 31
0.0
  0
LINE
  8
0
 62
     0
 10
2.901903
 20
5.2
 30
0.0
 11
4.8
 21
7.098097
 31
0.0
  0
LINE
  8
0
 62
     0
 10
3.07868
 20
5.2
 30
0.0
 11
4.8
 21
6.92132
 31
0.0
  0
LINE
  8
0
 62
     0
 10
3.255456
 20
5.2
 30
0.0
 11
4.8
 21
6.744544
 31
0.0
  0
LINE
  8
0
 62
     0
 10
3.432233
 20
5.2
 30
0.0
 11
4.8
 21
6.567767
 31
0.0
  0
LINE
  8
0
 62
     0
 10
3.60901
 20
5.2
 30
0.0
 11
4.8
 21
6.39099
 31
0.0
  0
LINE
  8
0
 62
     0
 10
3.785786
 20
5.2
 30
0.0
 11
4.8
 21
6.214214
 31
0.0
  0
LINE
  8
0
 62
     0
 10
3.962563
 20
5.2
 30
0.0
 11
4.8
 21
6.037437
 31
0.0
  0
LINE
  8
0
 62
     0
 10
4.13934
 20
5.2
 30
0.0
 11
4.8
 21
5.86066
 31
0.0
  0
LINE
  8
0
 62
     0
 10
4.316117
 20
5.2
 30
0.0
 11
4.8
 21
5.683883
 31
0.0
  0
LINE
  8
0
 62
     0
 10
4.492893
 20
5.2
 30
0.0
 11
4.8
 21
5.507107
 31
0.0
  0
LINE
  8
0
 62
     0
 10
4.66967
 20
5.2
 30
0.0
 11
4.8
 21
5.33033
 31
0.0
  0
ENDBLK
  8
0
  0
BLOCK
  8
0
  2
*X30
 70
    65
 10
0.0
 20
0.0
 30
0.0
  3
*X
  0
LINE
  8
0
 62
     0
 10
5.2
 20
6.083883
 30
0.0
 11
7.178252
 21
8.062136
 31
0.0
  0
LINE
  8
0
 62
     0
 10
5.2
 20
6.26066
 30
0.0
 11
7.132421
 21
8.193082
 31
0.0
  0
LINE
  8
0
 62
     0
 10
5.2
 20
6.437437
 30
0.0
 11
7.08659
 21
8.324027
 31
0.0
  0
LINE
  8
0
 62
     0
 10
5.2
 20
6.614214
 30
0.0
 11
7.040759
 21
8.454973
 31
0.0
  0
LINE
  8
0
 62
     0
 10
5.2
 20
6.79099
 30
0.0
 11
6.994928
 21
8.585919
 31
0.0
  0
LINE
  8
0
 62
     0
 10
5.2
 20
6.967767
 30
0.0
 11
6.949097
 21
8.716864
 31
0.0
  0
LINE
  8
0
 62
     0
 10
5.2
 20
7.144544
 30
0.0
 11
6.903266
 21
8.84781
 31
0.0
  0
LINE
  8
0
 62
     0
 10
5.2
 20
7.32132
 30
0.0
 11
6.857435
 21
8.978756
 31
0.0
  0
LINE
  8
0
 62
     0
 10
5.2
 20
7.498097
 30
0.0
 11
6.811604
 21
9.109702
 31
0.0
  0
LINE
  8
0
 62
     0
 10
5.2
 20
7.674874
 30
0.0
 11
6.765773
 21
9.240647
 31
0.0
  0
LINE
  8
0
 62
     0
 10
5.2
 20
7.85165
 30
0.0
 11
6.719942
 21
9.371593
 31
0.0
  0
LINE
  8
0
 62
     0
 10
5.2
 20
8.028427
 30
0.0
 11
6.674111
 21
9.502539
 31
0.0
  0
LINE
  8
0
 62
     0
 10
5.2
 20
8.205204
 30
0.0
 11
6.62828
 21
9.633484
 31
0.0
  0
LINE
  8
0
 62
     0
 10
5.2
 20
8.381981
 30
0.0
 11
6.582449
 21
9.76443
 31
0.0
  0
LINE
  8
0
 62
     0
 10
5.2
 20
8.558757
 30
0.0
 11
6.536619
 21
9.895376
 31
0.0
  0
LINE
  8
0
 62
     0
 10
5.2
 20
8.735534
 30
0.0
 11
6.464466
 21
10.0
 31
0.0
  0
LINE
  8
0
 62
     0
 10
5.2
 20
8.912311
 30
0.0
 11
6.287689
 21
10.0
 31
0.0
  0
LINE
  8
0
 62
     0
 10
5.2
 20
9.089087
 30
0.0
 11
6.110913
 21
10.0
 31
0.0
  0
LINE
  8
0
 62
     0
 10
5.2
 20
9.265864
 30
0.0
 11
5.934136
 21
10.0
 31
0.0
  0
LINE
  8
0
 62
     0
 10
5.2
 20
9.442641
 30
0.0
 11
5.757359
 21
10.0
 31
0.0
  0
LINE
  8
0
 62
     0
 10
5.2
 20
9.619417
 30
0.0
 11
5.580583
 21
10.0
 31
0.0
  0
LINE
  8
0
 62
     0
 10
5.2
 20
9.796194
 30
0.0
 11
5.403806
 21
10.0
 31
0.0
  0
LINE
  8
0
 62
     0
 10
5.2
 20
9.972971
 30
0.0
 11
5.227029
 21
10.0
 31
0.0
  0
LINE
  8
0
 62
     0
 10
5.2
 20
5.907107
 30
0.0
 11
7.224083
 21
7.93119
 31
0.0
  0
LINE
  8
0
 62
     0
 10
5.2
 20
5.73033
 30
0.0
 11
7.269914
 21
7.800245
 31
0.0
  0
LINE
  8
0
 62
     0
 10
5.2
 20
5.553553
 30
0.0
 11
7.315745
 21
7.669299
 31
0.0
  0
LINE
  8
0
 62
     0
 10
5.2
 20
5.376777
 30
0.0
 11
7.361576
 21
7.538353
 31
0.0
  0
LINE
  8
0
 62
     0
 10
5.2
 20
5.2
 30
0.0
 11
7.407407
 21
7.407407
 31
0.0
  0
LINE
  8
0
 62
     0
 10
5.376777
 20
5.2
 30
0.0
 11
7.453238
 21
7.276462
 31
0.0
  0
LINE
  8
0
 62
     0
 10
5.553553
 20
5.2
 30
0.0
 11
7.499069
 21
7.145516
 31
0.0
  0
LINE
  8
0
 62
     0
 10
5.73033
 20
5.2
 30
0.0
 11
7.5449
 21
7.01457
 31
0.0
  0
LINE
  8
0
 62
     0
 10
5.907107
 20
5.2
 30
0.0
 11
7.590731
 21
6.883625
 31
0.0
  0
LINE
  8
0
 62
     0
 10
6.083883
 20
5.2
 30
0.0
 11
7.636562
 21
6.752679
 31
0.0
  0
LINE
  8
0
 62
     0
 10
6.26066
 20
5.2
 30
0.0
 11
7.682393
 21
6.621733
 31
0.0
  0
LINE
  8
0
 62
     0
 10
6.437437
 20
5.2
 30
0.0
 11
7.728224
 21
6.490788
 31
0.0
  0
LINE
  8
0
 62
     0
 10
6.614214
 20
5.2
 30
0.0
 11
7.774055
 21
6.359842
 31
0.0
  0
LINE
  8
0
 62
     0
 10
6.79099
 20
5.2
 30
0.0
 11
7.819886
 21
6.228896
 31
0.0
  0
LINE
  8
0
 62
     0
 10
6.967767
 20
5.2
 30
0.0
 11
7.865717
 21
6.09795
 31
0.0
  0
LINE
  8
0
 62
     0
 10
7.144544
 20
5.2
 30
0.0
 11
7.911548
 21
5.967005
 31
0.0
  0
LINE
  8
0
 62
     0
 10
7.32132
 20
5.2
 30
0.0
 11
7.957379
 21
5.836059
 31
0.0
  0
LINE
  8
0
 62
     0
 10
7.498097
 20
5.2
 30
0.0
 11
8.00321
 21
5.705113
 31
0.0
  0
LINE
  8
0
 62
     0
 10
7.674874
 20
5.2
 30
0.0
 11
8.049041
 21
5.574168
 31
0.0
  0
LINE
  8
0
 62
     0
 10
7.85165
 20
5.2
 30
0.0
 11
8.094872
 21
5.443222
 31
0.0
  0
LINE
  8
0
 62
     0
 10
8.028427
 20
5.2
 30
0.0
 11
8.140703
 21
5.312276
 31
0.0
  0
ENDBLK
  8
0
  0
BLOCK
  8
0
  2
*X31
 70
    65
 10
0.0
 20
0.0
 30
0.0
  3
*X
  0
LINE
  8
0
 62
     0
 10
0.0
 20
0.0
 30
0.0
 11
4.8
 21
4.8
 31
0.0
  0
LINE
  8
0
 62
     0
 10
0.095187
 20
0.271964
 30
0.0
 11
4.623223
 21
4.8
 31
0.0
  0
LINE
  8
0
 62
     0
 10
0.190375
 20
0.543928
 30
0.0
 11
4.446447
 21
4.8
 31
0.0
  0
LINE
  8
0
 62
     0
 10
0.285562
 20
0.815892
 30
0.0
 11
4.26967
 21
4.8
 31
0.0
  0
LINE
  8
0
 62
     0
 10
0.38075
 20
1.087857
 30
0.0
 11
4.092893
 21
4.8
 31
0.0
  0
LINE
  8
0
 62
     0
 10
0.475937
 20
1.359821
 30
0.0
 11
3.916117
 21
4.8
 31
0.0
  0
LINE
  8
0
 62
     0
 10
0.571125
 20
1.631785
 30
0.0
 11
3.73934
 21
4.8
 31
0.0
  0
LINE
  8
0
 62
     0
 10
0.666312
 20
1.903749
 30
0.0
 11
3.562563
 21
4.8
 31
0.0
  0
LINE
  8
0
 62
     0
 10
0.7615
 20
2.175713
 30
0.0
 11
3.385786
 21
4.8
 31
0.0
  0
LINE
  8
0
 62
     0
 10
0.856687
 20
2.447677
 30
0.0
 11
3.20901
 21
4.8
 31
0.0
  0
LINE
  8
0
 62
     0
 10
0.951875
 20
2.719641
 30
0.0
 11
3.032233
 21
4.8
 31
0.0
  0
LINE
  8
0
 62
     0
 10
1.047062
 20
2.991606
 30
0.0
 11
2.855456
 21
4.8
 31
0.0
  0
LINE
  8
0
 62
     0
 10
1.142249
 20
3.26357
 30
0.0
 11
2.67868
 21
4.8
 31
0.0
  0
LINE
  8
0
 62
     0
 10
1.237437
 20
3.535534
 30
0.0
 11
2.501903
 21
4.8
 31
0.0
  0
LINE
  8
0
 62
     0
 10
1.332624
 20
3.807498
 30
0.0
 11
2.325126
 21
4.8
 31
0.0
  0
LINE
  8
0
 62
     0
 10
1.427812
 20
4.079462
 30
0.0
 11
2.14835
 21
4.8
 31
0.0
  0
LINE
  8
0
 62
     0
 10
1.522999
 20
4.351426
 30
0.0
 11
1.971573
 21
4.8
 31
0.0
  0
LINE
  8
0
 62
     0
 10
1.618187
 20
4.62339
 30
0.0
 11
1.794796
 21
4.8
 31
0.0
  0
LINE
  8
0
 62
     0
 10
0.176777
 20
0.0
 30
0.0
 11
4.8
 21
4.623223
 31
0.0
  0
LINE
  8
0
 62
     0
 10
0.353553
 20
0.0
 30
0.0
 11
4.8
 21
4.446447
 31
0.0
  0
LINE
  8
0
 62
     0
 10
0.53033
 20
0.0
 30
0.0
 11
4.8
 21
4.26967
 31
0.0
  0
LINE
  8
0
 62
     0
 10
0.707107
 20
0.0
 30
0.0
 11
4.8
 21
4.092893
 31
0.0
  0
LINE
  8
0
 62
     0
 10
0.883883
 20
0.0
 30
0.0
 11
4.8
 21
3.916117
 31
0.0
  0
LINE
  8
0
 62
     0
 10
1.06066
 20
0.0
 30
0.0
 11
4.8
 21
3.73934
 31
0.0
  0
LINE
  8
0
 62
     0
 10
1.237437
 20
0.0
 30
0.0
 11
3.179842
 21
1.942405
 31
0.0
  0
LINE
  8
0
 62
     0
 10
3.237437
 20
2.0
 30
0.0
 11
4.8
 21
3.562563
 31
0.0
  0
LINE
  8
0
 62
     0
 10
1.414214
 20
0.0
 30
0.0
 11
3.084654
 21
1.670441
 31
0.0
  0
LINE
  8
0
 62
     0
 10
3.414214
 20
2.0
 30
0.0
 11
4.8
 21
3.385786
 31
0.0
  0
LINE
  8
0
 62
     0
 10
1.59099
 20
0.0
 30
0.0
 11
2.989467
 21
1.398477
 31
0.0
  0
LINE
  8
0
 62
     0
 10
3.59099
 20
2.0
 30
0.0
 11
4.8
 21
3.20901
 31
0.0
  0
LINE
  8
0
 62
     0
 10
1.767767
 20
0.0
 30
0.0
 11
2.894279
 21
1.126512
 31
0.0
  0
LINE
  8
0
 62
     0
 10
3.767767
 20
2.0
 30
0.0
 11
4.8
 21
3.032233
 31
0.0
  0
LINE
  8
0
 62
     0
 10
1.944544
 20
0.0
 30
0.0
 11
2.799092
 21
0.854548
 31
0.0
  0
LINE
  8
0
 62
     0
 10
3.944544
 20
2.0
 30
0.0
 11
4.8
 21
2.855456
 31
0.0
  0
LINE
  8
0
 62
     0
 10
2.12132
 20
0.0
 30
0.0
 11
2.703904
 21
0.582584
 31
0.0
  0
LINE
  8
0
 62
     0
 10
4.12132
 20
2.0
 30
0.0
 11
4.8
 21
2.67868
 31
0.0
  0
LINE
  8
0
 62
     0
 10
2.298097
 20
0.0
 30
0.0
 11
2.608717
 21
0.31062
 31
0.0
  0
LINE
  8
0
 62
     0
 10
4.298097
 20
2.0
 30
0.0
 11
4.8
 21
2.501903
 31
0.0
  0
LINE
  8
0
 62
     0
 10
2.474874
 20
0.0
 30
0.0
 11
2.51353
 21
0.038656
 31
0.0
  0
LINE
  8
0
 62
     0
 10
4.474874
 20
2.0
 30
0.0
 11
4.8
 21
2.325126
 31
0.0
  0
LINE
  8
0
 62
     0
 10
4.65165
 20
2.0
 30
0.0
 11
4.8
 21
2.14835
 31
0.0
  0
ENDBLK
  8
0
  0
BLOCK
  8
0
  2
*X32
 70
    65
 10
0.0
 20
0.0
 30
0.0
  3
*X
  0
LINE
  8
0
 62
     0
 10
6.884654
 20
1.75813
 30
0.0
 11
8.736506
 21
3.609982
 31
0.0
  0
LINE
  8
0
 62
     0
 10
6.838823
 20
1.889076
 30
0.0
 11
8.690675
 21
3.740928
 31
0.0
  0
LINE
  8
0
 62
     0
 10
6.772971
 20
2.0
 30
0.0
 11
8.644844
 21
3.871874
 31
0.0
  0
LINE
  8
0
 62
     0
 10
6.596194
 20
2.0
 30
0.0
 11
8.599013
 21
4.002819
 31
0.0
  0
LINE
  8
0
 62
     0
 10
6.419417
 20
2.0
 30
0.0
 11
8.553182
 21
4.133765
 31
0.0
  0
LINE
  8
0
 62
     0
 10
6.242641
 20
2.0
 30
0.0
 11
8.507351
 21
4.264711
 31
0.0
  0
LINE
  8
0
 62
     0
 10
6.065864
 20
2.0
 30
0.0
 11
8.46152
 21
4.395656
 31
0.0
  0
LINE
  8
0
 62
     0
 10
5.889087
 20
2.0
 30
0.0
 11
8.415689
 21
4.526602
 31
0.0
  0
LINE
  8
0
 62
     0
 10
5.712311
 20
2.0
 30
0.0
 11
8.369858
 21
4.657548
 31
0.0
  0
LINE
  8
0
 62
     0
 10
5.535534
 20
2.0
 30
0.0
 11
8.324027
 21
4.788493
 31
0.0
  0
LINE
  8
0
 62
     0
 10
5.358757
 20
2.0
 30
0.0
 11
8.158757
 21
4.8
 31
0.0
  0
LINE
  8
0
 62
     0
 10
5.2
 20
2.018019
 30
0.0
 11
7.981981
 21
4.8
 31
0.0
  0
LINE
  8
0
 62
     0
 10
5.2
 20
2.194796
 30
0.0
 11
7.805204
 21
4.8
 31
0.0
  0
LINE
  8
0
 62
     0
 10
5.2
 20
2.371573
 30
0.0
 11
7.628427
 21
4.8
 31
0.0
  0
LINE
  8
0
 62
     0
 10
5.2
 20
2.54835
 30
0.0
 11
7.45165
 21
4.8
 31
0.0
  0
LINE
  8
0
 62
     0
 10
5.2
 20
2.725126
 30
0.0
 11
7.274874
 21
4.8
 31
0.0
  0
LINE
  8
0
 62
     0
 10
5.2
 20
2.901903
 30
0.0
 11
7.098097
 21
4.8
 31
0.0
  0
LINE
  8
0
 62
     0
 10
5.2
 20
3.07868
 30
0.0
 11
6.92132
 21
4.8
 31
0.0
  0
LINE
  8
0
 62
     0
 10
5.2
 20
3.255456
 30
0.0
 11
6.744544
 21
4.8
 31
0.0
  0
LINE
  8
0
 62
     0
 10
5.2
 20
3.432233
 30
0.0
 11
6.567767
 21
4.8
 31
0.0
  0
LINE
  8
0
 62
     0
 10
5.2
 20
3.60901
 30
0.0
 11
6.39099
 21
4.8
 31
0.0
  0
LINE
  8
0
 62
     0
 10
5.2
 20
3.785786
 30
0.0
 11
6.214214
 21
4.8
 31
0.0
  0
LINE
  8
0
 62
     0
 10
5.2
 20
3.962563
 30
0.0
 11
6.037437
 21
4.8
 31
0.0
  0
LINE
  8
0
 62
     0
 10
5.2
 20
4.13934
 30
0.0
 11
5.86066
 21
4.8
 31
0.0
  0
LINE
  8
0
 62
     0
 10
5.2
 20
4.316117
 30
0.0
 11
5.683883
 21
4.8
 31
0.0
  0
LINE
  8
0
 62
     0
 10
5.2
 20
4.492893
 30
0.0
 11
5.507107
 21
4.8
 31
0.0
  0
LINE
  8
0
 62
     0
 10
5.2
 20
4.66967
 30
0.0
 11
5.33033
 21
4.8
 31
0.0
  0
LINE
  8
0
 62
     0
 10
6.930485
 20
1.627185
 30
0.0
 11
8.782337
 21
3.479036
 31
0.0
  0
LINE
  8
0
 62
     0
 10
6.976316
 20
1.496239
 30
0.0
 11
8.828168
 21
3.348091
 31
0.0
  0
LINE
  8
0
 62
     0
 10
7.022147
 20
1.365293
 30
0.0
 11
8.873999
 21
3.217145
 31
0.0
  0
LINE
  8
0
 62
     0
 10
7.067978
 20
1.234347
 30
0.0
 11
8.91983
 21
3.086199
 31
0.0
  0
LINE
  8
0
 62
     0
 10
7.113809
 20
1.103402
 30
0.0
 11
8.965661
 21
2.955254
 31
0.0
  0
LINE
  8
0
 62
     0
 10
7.15964
 20
0.972456
 30
0.0
 11
9.011492
 21
2.824308
 31
0.0
  0
LINE
  8
0
 62
     0
 10
7.205471
 20
0.84151
 30
0.0
 11
9.057323
 21
2.693362
 31
0.0
  0
LINE
  8
0
 62
     0
 10
7.251302
 20
0.710565
 30
0.0
 11
9.103154
 21
2.562416
 31
0.0
  0
LINE
  8
0
 62
     0
 10
7.297133
 20
0.579619
 30
0.0
 11
9.148985
 21
2.431471
 31
0.0
  0
LINE
  8
0
 62
     0
 10
7.342964
 20
0.448673
 30
0.0
 11
9.194816
 21
2.300525
 31
0.0
  0
LINE
  8
0
 62
     0
 10
7.388795
 20
0.317728
 30
0.0
 11
9.240647
 21
2.169579
 31
0.0
  0
LINE
  8
0
 62
     0
 10
7.434626
 20
0.186782
 30
0.0
 11
9.286478
 21
2.038634
 31
0.0
  0
LINE
  8
0
 62
     0
 10
7.480457
 20
0.055836
 30
0.0
 11
9.332309
 21
1.907688
 31
0.0
  0
LINE
  8
0
 62
     0
 10
7.601398
 20
0.0
 30
0.0
 11
9.37814
 21
1.776742
 31
0.0
  0
LINE
  8
0
 62
     0
 10
7.778175
 20
0.0
 30
0.0
 11
9.423971
 21
1.645797
 31
0.0
  0
LINE
  8
0
 62
     0
 10
7.954951
 20
0.0
 30
0.0
 11
9.469802
 21
1.514851
 31
0.0
  0
LINE
  8
0
 62
     0
 10
8.131728
 20
0.0
 30
0.0
 11
9.515633
 21
1.383905
 31
0.0
  0
LINE
  8
0
 62
     0
 10
8.308505
 20
0.0
 30
0.0
 11
9.561464
 21
1.252959
 31
0.0
  0
LINE
  8
0
 62
     0
 10
8.485281
 20
0.0
 30
0.0
 11
9.607295
 21
1.122014
 31
0.0
  0
LINE
  8
0
 62
     0
 10
8.662058
 20
0.0
 30
0.0
 11
9.653126
 21
0.991068
 31
0.0
  0
LINE
  8
0
 62
     0
 10
8.838835
 20
0.0
 30
0.0
 11
9.698957
 21
0.860122
 31
0.0
  0
LINE
  8
0
 62
     0
 10
9.015611
 20
0.0
 30
0.0
 11
9.744788
 21
0.729177
 31
0.0
  0
LINE
  8
0
 62
     0
 10
9.192388
 20
0.0
 30
0.0
 11
9.790619
 21
0.598231
 31
0.0
  0
LINE
  8
0
 62
     0
 10
9.369165
 20
0.0
 30
0.0
 11
9.83645
 21
0.467285
 31
0.0
  0
LINE
  8
0
 62
     0
 10
9.545942
 20
0.0
 30
0.0
 11
9.882281
 21
0.33634
 31
0.0
  0
LINE
  8
0
 62
     0
 10
9.722718
 20
0.0
 30
0.0
 11
9.928112
 21
0.205394
 31
0.0
  0
LINE
  8
0
 62
     0
 10
9.899495
 20
0.0
 30
0.0
 11
9.973943
 21
0.074448
 31
0.0
  0
ENDBLK
  8
0
  0
BLOCK
  8
0
  2
*X33
 70
    65
 10
0.0
 20
0.0
 30
0.0
  3
*X
  0
LINE
  8
0
 62
     0
 10
10.7
 20
6.280583
 30
0.0
 11
13.5
 21
9.080583
 31
0.0
  0
LINE
  8
0
 62
     0
 10
10.7
 20
6.457359
 30
0.0
 11
13.5
 21
9.257359
 31
0.0
  0
LINE
  8
0
 62
     0
 10
10.7
 20
6.634136
 30
0.0
 11
13.5
 21
9.434136
 31
0.0
  0
LINE
  8
0
 62
     0
 10
10.7
 20
6.810913
 30
0.0
 11
13.5
 21
9.610913
 31
0.0
  0
LINE
  8
0
 62
     0
 10
10.7
 20
6.987689
 30
0.0
 11
13.5
 21
9.787689
 31
0.0
  0
LINE
  8
0
 62
     0
 10
10.7
 20
7.164466
 30
0.0
 11
13.5
 21
9.964466
 31
0.0
  0
LINE
  8
0
 62
     0
 10
10.7
 20
7.341243
 30
0.0
 11
13.358757
 21
10.0
 31
0.0
  0
LINE
  8
0
 62
     0
 10
10.7
 20
7.518019
 30
0.0
 11
13.181981
 21
10.0
 31
0.0
  0
LINE
  8
0
 62
     0
 10
10.7
 20
7.694796
 30
0.0
 11
13.005204
 21
10.0
 31
0.0
  0
LINE
  8
0
 62
     0
 10
10.7
 20
7.871573
 30
0.0
 11
12.828427
 21
10.0
 31
0.0
  0
LINE
  8
0
 62
     0
 10
10.7
 20
8.04835
 30
0.0
 11
12.65165
 21
10.0
 31
0.0
  0
LINE
  8
0
 62
     0
 10
10.7
 20
8.225126
 30
0.0
 11
12.474874
 21
10.0
 31
0.0
  0
LINE
  8
0
 62
     0
 10
10.7
 20
8.401903
 30
0.0
 11
12.298097
 21
10.0
 31
0.0
  0
LINE
  8
0
 62
     0
 10
10.7
 20
8.57868
 30
0.0
 11
12.12132
 21
10.0
 31
0.0
  0
LINE
  8
0
 62
     0
 10
10.7
 20
8.755456
 30
0.0
 11
11.944544
 21
10.0
 31
0.0
  0
LINE
  8
0
 62
     0
 10
10.7
 20
8.932233
 30
0.0
 11
11.767767
 21
10.0
 31
0.0
  0
LINE
  8
0
 62
     0
 10
10.7
 20
9.10901
 30
0.0
 11
11.59099
 21
10.0
 31
0.0
  0
LINE
  8
0
 62
     0
 10
10.7
 20
9.285786
 30
0.0
 11
11.414214
 21
10.0
 31
0.0
  0
LINE
  8
0
 62
     0
 10
10.7
 20
9.462563
 30
0.0
 11
11.237437
 21
10.0
 31
0.0
  0
LINE
  8
0
 62
     0
 10
10.7
 20
9.63934
 30
0.0
 11
11.06066
 21
10.0
 31
0.0
  0
LINE
  8
0
 62
     0
 10
10.7
 20
9.816117
 30
0.0
 11
10.883883
 21
10.0
 31
0.0
  0
LINE
  8
0
 62
     0
 10
10.7
 20
9.992893
 30
0.0
 11
10.707107
 21
10.0
 31
0.0
  0
LINE
  8
0
 62
     0
 10
10.7
 20
6.103806
 30
0.0
 11
13.5
 21
8.903806
 31
0.0
  0
LINE
  8
0
 62
     0
 10
10.7
 20
5.927029
 30
0.0
 11
13.5
 21
8.727029
 31
0.0
  0
LINE
  8
0
 62
     0
 10
10.7
 20
5.750253
 30
0.0
 11
13.5
 21
8.550253
 31
0.0
  0
LINE
  8
0
 62
     0
 10
10.7
 20
5.573476
 30
0.0
 11
13.5
 21
8.373476
 31
0.0
  0
LINE
  8
0
 62
     0
 10
10.7
 20
5.396699
 30
0.0
 11
13.5
 21
8.196699
 31
0.0
  0
LINE
  8
0
 62
     0
 10
10.7
 20
5.219922
 30
0.0
 11
13.5
 21
8.019922
 31
0.0
  0
LINE
  8
0
 62
     0
 10
10.856854
 20
5.2
 30
0.0
 11
13.5
 21
7.843146
 31
0.0
  0
LINE
  8
0
 62
     0
 10
11.033631
 20
5.2
 30
0.0
 11
13.5
 21
7.666369
 31
0.0
  0
LINE
  8
0
 62
     0
 10
11.210408
 20
5.2
 30
0.0
 11
13.5
 21
7.489592
 31
0.0
  0
LINE
  8
0
 62
     0
 10
11.387184
 20
5.2
 30
0.0
 11
13.5
 21
7.312816
 31
0.0
  0
LINE
  8
0
 62
     0
 10
11.563961
 20
5.2
 30
0.0
 11
13.5
 21
7.136039
 31
0.0
  0
LINE
  8
0
 62
     0
 10
11.740738
 20
5.2
 30
0.0
 11
13.5
 21
6.959262
 31
0.0
  0
LINE
  8
0
 62
     0
 10
11.917514
 20
5.2
 30
0.0
 11
13.5
 21
6.782486
 31
0.0
  0
LINE
  8
0
 62
     0
 10
12.094291
 20
5.2
 30
0.0
 11
13.5
 21
6.605709
 31
0.0
  0
LINE
  8
0
 62
     0
 10
12.271068
 20
5.2
 30
0.0
 11
13.5
 21
6.428932
 31
0.0
  0
LINE
  8
0
 62
     0
 10
12.447845
 20
5.2
 30
0.0
 11
13.5
 21
6.252155
 31
0.0
  0
LINE
  8
0
 62
     0
 10
12.624621
 20
5.2
 30
0.0
 11
13.5
 21
6.075379
 31
0.0
  0
LINE
  8
0
 62
     0
 10
12.801398
 20
5.2
 30
0.0
 11
13.5
 21
5.898602
 31
0.0
  0
LINE
  8
0
 62
     0
 10
12.978175
 20
5.2
 30
0.0
 11
13.5
 21
5.721825
 31
0.0
  0
LINE
  8
0
 62
     0
 10
13.154951
 20
5.2
 30
0.0
 11
13.5
 21
5.545049
 31
0.0
  0
LINE
  8
0
 62
     0
 10
13.331728
 20
5.2
 30
0.0
 11
13.5
 21
5.368272
 31
0.0
  0
ENDBLK
  8
0
  0
BLOCK
  8
0
  2
*X34
 70
    65
 10
0.0
 20
0.0
 30
0.0
  3
*X
  0
LINE
  8
0
 62
     0
 10
10.7
 20
1.154058
 30
0.0
 11
13.5
 21
3.954058
 31
0.0
  0
LINE
  8
0
 62
     0
 10
10.7
 20
1.330835
 30
0.0
 11
13.5
 21
4.130835
 31
0.0
  0
LINE
  8
0
 62
     0
 10
10.7
 20
1.507612
 30
0.0
 11
13.5
 21
4.307612
 31
0.0
  0
LINE
  8
0
 62
     0
 10
10.7
 20
1.684389
 30
0.0
 11
13.5
 21
4.484389
 31
0.0
  0
LINE
  8
0
 62
     0
 10
10.7
 20
1.861165
 30
0.0
 11
13.5
 21
4.661165
 31
0.0
  0
LINE
  8
0
 62
     0
 10
10.7
 20
2.037942
 30
0.0
 11
13.462058
 21
4.8
 31
0.0
  0
LINE
  8
0
 62
     0
 10
10.7
 20
2.214719
 30
0.0
 11
13.285281
 21
4.8
 31
0.0
  0
LINE
  8
0
 62
     0
 10
10.7
 20
2.391495
 30
0.0
 11
13.108505
 21
4.8
 31
0.0
  0
LINE
  8
0
 62
     0
 10
10.7
 20
2.568272
 30
0.0
 11
12.931728
 21
4.8
 31
0.0
  0
LINE
  8
0
 62
     0
 10
10.7
 20
2.745049
 30
0.0
 11
12.754951
 21
4.8
 31
0.0
  0
LINE
  8
0
 62
     0
 10
10.7
 20
2.921825
 30
0.0
 11
12.578175
 21
4.8
 31
0.0
  0
LINE
  8
0
 62
     0
 10
10.7
 20
3.098602
 30
0.0
 11
12.401398
 21
4.8
 31
0.0
  0
LINE
  8
0
 62
     0
 10
10.7
 20
3.275379
 30
0.0
 11
12.224621
 21
4.8
 31
0.0
  0
LINE
  8
0
 62
     0
 10
10.7
 20
3.452155
 30
0.0
 11
12.047845
 21
4.8
 31
0.0
  0
LINE
  8
0
 62
     0
 10
10.7
 20
3.628932
 30
0.0
 11
11.871068
 21
4.8
 31
0.0
  0
LINE
  8
0
 62
     0
 10
10.7
 20
3.805709
 30
0.0
 11
11.694291
 21
4.8
 31
0.0
  0
LINE
  8
0
 62
     0
 10
10.7
 20
3.982486
 30
0.0
 11
11.517514
 21
4.8
 31
0.0
  0
LINE
  8
0
 62
     0
 10
10.7
 20
4.159262
 30
0.0
 11
11.340738
 21
4.8
 31
0.0
  0
LINE
  8
0
 62
     0
 10
10.7
 20
4.336039
 30
0.0
 11
11.163961
 21
4.8
 31
0.0
  0
LINE
  8
0
 62
     0
 10
10.7
 20
4.512816
 30
0.0
 11
10.987184
 21
4.8
 31
0.0
  0
LINE
  8
0
 62
     0
 10
10.7
 20
4.689592
 30
0.0
 11
10.810408
 21
4.8
 31
0.0
  0
LINE
  8
0
 62
     0
 10
10.7
 20
0.977282
 30
0.0
 11
13.5
 21
3.777282
 31
0.0
  0
LINE
  8
0
 62
     0
 10
10.7
 20
0.800505
 30
0.0
 11
13.5
 21
3.600505
 31
0.0
  0
LINE
  8
0
 62
     0
 10
10.7
 20
0.623728
 30
0.0
 11
13.5
 21
3.423728
 31
0.0
  0
LINE
  8
0
 62
     0
 10
10.7
 20
0.446952
 30
0.0
 11
13.5
 21
3.246952
 31
0.0
  0
LINE
  8
0
 62
     0
 10
10.7
 20
0.270175
 30
0.0
 11
13.5
 21
3.070175
 31
0.0
  0
LINE
  8
0
 62
     0
 10
10.7
 20
0.093398
 30
0.0
 11
13.5
 21
2.893398
 31
0.0
  0
LINE
  8
0
 62
     0
 10
10.783378
 20
0.0
 30
0.0
 11
13.5
 21
2.716622
 31
0.0
  0
LINE
  8
0
 62
     0
 10
10.960155
 20
0.0
 30
0.0
 11
13.5
 21
2.539845
 31
0.0
  0
LINE
  8
0
 62
     0
 10
11.136932
 20
0.0
 30
0.0
 11
13.5
 21
2.363068
 31
0.0
  0
LINE
  8
0
 62
     0
 10
11.313708
 20
0.0
 30
0.0
 11
13.5
 21
2.186292
 31
0.0
  0
LINE
  8
0
 62
     0
 10
11.490485
 20
0.0
 30
0.0
 11
13.5
 21
2.009515
 31
0.0
  0
LINE
  8
0
 62
     0
 10
11.667262
 20
0.0
 30
0.0
 11
13.5
 21
1.832738
 31
0.0
  0
LINE
  8
0
 62
     0
 10
11.844039
 20
0.0
 30
0.0
 11
13.5
 21
1.655961
 31
0.0
  0
LINE
  8
0
 62
     0
 10
12.020815
 20
0.0
 30
0.0
 11
13.5
 21
1.479185
 31
0.0
  0
LINE
  8
0
 62
     0
 10
12.197592
 20
0.0
 30
0.0
 11
13.5
 21
1.302408
 31
0.0
  0
LINE
  8
0
 62
     0
 10
12.374369
 20
0.0
 30
0.0
 11
13.5
 21
1.125631
 31
0.0
  0
LINE
  8
0
 62
     0
 10
12.551145
 20
0.0
 30
0.0
 11
13.5
 21
0.948855
 31
0.0
  0
LINE
  8
0
 62
     0
 10
12.727922
 20
0.0
 30
0.0
 11
13.5
 21
0.772078
 31
0.0
  0
LINE
  8
0
 62
     0
 10
12.904699
 20
0.0
 30
0.0
 11
13.5
 21
0.595301
 31
0.0
  0
LINE
  8
0
 62
     0
 10
13.081475
 20
0.0
 30
0.0
 11
13.5
 21
0.418525
 31
0.0
  0
LINE
  8
0
 62
     0
 10
13.258252
 20
0.0
 30
0.0
 11
13.5
 21
0.241748
 31
0.0
  0
LINE
  8
0
 62
     0
 10
13.435029
 20
0.0
 30
0.0
 11
13.5
 21
0.064971
 31
0.0
  0
ENDBLK
  8
0
  0
BLOCK
  8
0
  2
*X35
 70
    65
 10
0.0
 20
0.0
 30
0.0
  3
*X
  0
LINE
  8
0
 62
     0
 10
13.9
 20
6.298602
 30
0.0
 11
16.582995
 21
8.981597
 31
0.0
  0
LINE
  8
0
 62
     0
 10
13.9
 20
6.475379
 30
0.0
 11
16.510503
 21
9.085882
 31
0.0
  0
LINE
  8
0
 62
     0
 10
13.9
 20
6.652155
 30
0.0
 11
16.432927
 21
9.185083
 31
0.0
  0
LINE
  8
0
 62
     0
 10
13.9
 20
6.828932
 30
0.0
 11
16.350372
 21
9.279304
 31
0.0
  0
LINE
  8
0
 62
     0
 10
13.9
 20
7.005709
 30
0.0
 11
16.262892
 21
9.368601
 31
0.0
  0
LINE
  8
0
 62
     0
 10
13.9
 20
7.182486
 30
0.0
 11
16.170495
 21
9.452981
 31
0.0
  0
LINE
  8
0
 62
     0
 10
13.9
 20
7.359262
 30
0.0
 11
16.073145
 21
9.532407
 31
0.0
  0
LINE
  8
0
 62
     0
 10
13.9
 20
7.536039
 30
0.0
 11
15.970755
 21
9.606794
 31
0.0
  0
LINE
  8
0
 62
     0
 10
13.9
 20
7.712816
 30
0.0
 11
15.863189
 21
9.676004
 31
0.0
  0
LINE
  8
0
 62
     0
 10
13.9
 20
7.889592
 30
0.0
 11
15.75025
 21
9.739843
 31
0.0
  0
LINE
  8
0
 62
     0
 10
13.9
 20
8.066369
 30
0.0
 11
15.631675
 21
9.798044
 31
0.0
  0
LINE
  8
0
 62
     0
 10
13.9
 20
8.243146
 30
0.0
 11
15.50711
 21
9.850256
 31
0.0
  0
LINE
  8
0
 62
     0
 10
13.9
 20
8.419922
 30
0.0
 11
15.376096
 21
9.896018
 31
0.0
  0
LINE
  8
0
 62
     0
 10
13.9
 20
8.596699
 30
0.0
 11
15.238027
 21
9.934726
 31
0.0
  0
LINE
  8
0
 62
     0
 10
13.9
 20
8.773476
 30
0.0
 11
15.092096
 21
9.965572
 31
0.0
  0
LINE
  8
0
 62
     0
 10
13.9
 20
8.950253
 30
0.0
 11
14.937209
 21
9.987461
 31
0.0
  0
LINE
  8
0
 62
     0
 10
13.9
 20
9.127029
 30
0.0
 11
14.771824
 21
9.998853
 31
0.0
  0
LINE
  8
0
 62
     0
 10
13.9
 20
9.303806
 30
0.0
 11
14.596193
 21
9.999999
 31
0.0
  0
LINE
  8
0
 62
     0
 10
13.9
 20
9.480583
 30
0.0
 11
14.419417
 21
9.999999
 31
0.0
  0
LINE
  8
0
 62
     0
 10
13.9
 20
9.657359
 30
0.0
 11
14.24264
 21
10.0
 31
0.0
  0
LINE
  8
0
 62
     0
 10
13.9
 20
9.834136
 30
0.0
 11
14.065864
 21
10.0
 31
0.0
  0
LINE
  8
0
 62
     0
 10
13.9
 20
6.121825
 30
0.0
 11
16.650245
 21
8.872071
 31
0.0
  0
LINE
  8
0
 62
     0
 10
13.9
 20
5.945049
 30
0.0
 11
16.712035
 21
8.757083
 31
0.0
  0
LINE
  8
0
 62
     0
 10
13.9
 20
5.768272
 30
0.0
 11
16.768067
 21
8.636339
 31
0.0
  0
LINE
  8
0
 62
     0
 10
13.9
 20
5.591495
 30
0.0
 11
16.817955
 21
8.509451
 31
0.0
  0
LINE
  8
0
 62
     0
 10
13.9
 20
5.414719
 30
0.0
 11
16.861189
 21
8.375908
 31
0.0
  0
LINE
  8
0
 62
     0
 10
13.9
 20
5.237942
 30
0.0
 11
16.897097
 21
8.235039
 31
0.0
  0
LINE
  8
0
 62
     0
 10
14.038835
 20
5.2
 30
0.0
 11
16.924779
 21
8.085944
 31
0.0
  0
LINE
  8
0
 62
     0
 10
14.215611
 20
5.2
 30
0.0
 11
16.942997
 21
7.927385
 31
0.0
  0
LINE
  8
0
 62
     0
 10
14.392388
 20
5.2
 30
0.0
 11
16.949987
 21
7.757599
 31
0.0
  0
LINE
  8
0
 62
     0
 10
14.569165
 20
5.2
 30
0.0
 11
16.943101
 21
7.573936
 31
0.0
  0
LINE
  8
0
 62
     0
 10
14.745942
 20
5.2
 30
0.0
 11
16.918037
 21
7.372095
 31
0.0
  0
LINE
  8
0
 62
     0
 10
14.922718
 20
5.2
 30
0.0
 11
16.866909
 21
7.144191
 31
0.0
  0
LINE
  8
0
 62
     0
 10
15.099495
 20
5.2
 30
0.0
 11
16.771715
 21
6.87222
 31
0.0
  0
LINE
  8
0
 62
     0
 10
15.276272
 20
5.2
 30
0.0
 11
15.847951
 21
5.77168
 31
0.0
  0
LINE
  8
0
 62
     0
 10
15.96673
 20
5.890458
 30
0.0
 11
16.559542
 21
6.48327
 31
0.0
  0
LINE
  8
0
 62
     0
 10
15.453048
 20
5.2
 30
0.0
 11
15.970661
 21
5.717613
 31
0.0
  0
LINE
  8
0
 62
     0
 10
15.629825
 20
5.2
 30
0.0
 11
16.088934
 21
5.659109
 31
0.0
  0
LINE
  8
0
 62
     0
 10
15.806602
 20
5.2
 30
0.0
 11
16.202964
 21
5.596363
 31
0.0
  0
LINE
  8
0
 62
     0
 10
15.983378
 20
5.2
 30
0.0
 11
16.312909
 21
5.529531
 31
0.0
  0
LINE
  8
0
 62
     0
 10
16.160155
 20
5.2
 30
0.0
 11
16.418895
 21
5.45874
 31
0.0
  0
LINE
  8
0
 62
     0
 10
16.336932
 20
5.2
 30
0.0
 11
16.521021
 21
5.384089
 31
0.0
  0
LINE
  8
0
 62
     0
 10
16.513708
 20
5.2
 30
0.0
 11
16.619363
 21
5.305655
 31
0.0
  0
LINE
  8
0
 62
     0
 10
16.690485
 20
5.2
 30
0.0
 11
16.713975
 21
5.22349
 31
0.0
  0
ENDBLK
  8
0
  0
BLOCK
  8
0
  2
*X36
 70
    65
 10
0.0
 20
0.0
 30
0.0
  3
*X
  0
LINE
  8
0
 62
     0
 10
13.9
 20
0.818525
 30
0.0
 11
17.39645
 21
4.314974
 31
0.0
  0
LINE
  8
0
 62
     0
 10
13.9
 20
0.995301
 30
0.0
 11
17.336354
 21
4.431655
 31
0.0
  0
LINE
  8
0
 62
     0
 10
13.9
 20
1.172078
 30
0.0
 11
17.272078
 21
4.544156
 31
0.0
  0
LINE
  8
0
 62
     0
 10
13.9
 20
1.348855
 30
0.0
 11
17.203766
 21
4.652621
 31
0.0
  0
LINE
  8
0
 62
     0
 10
13.9
 20
1.525631
 30
0.0
 11
17.131535
 21
4.757167
 31
0.0
  0
LINE
  8
0
 62
     0
 10
13.9
 20
1.702408
 30
0.0
 11
16.997592
 21
4.8
 31
0.0
  0
LINE
  8
0
 62
     0
 10
13.9
 20
1.879185
 30
0.0
 11
16.820815
 21
4.8
 31
0.0
  0
LINE
  8
0
 62
     0
 10
13.9
 20
2.055961
 30
0.0
 11
16.644039
 21
4.8
 31
0.0
  0
LINE
  8
0
 62
     0
 10
13.9
 20
2.232738
 30
0.0
 11
16.467262
 21
4.8
 31
0.0
  0
LINE
  8
0
 62
     0
 10
13.9
 20
2.409515
 30
0.0
 11
16.290485
 21
4.8
 31
0.0
  0
LINE
  8
0
 62
     0
 10
13.9
 20
2.586292
 30
0.0
 11
16.113708
 21
4.8
 31
0.0
  0
LINE
  8
0
 62
     0
 10
13.9
 20
2.763068
 30
0.0
 11
15.936932
 21
4.8
 31
0.0
  0
LINE
  8
0
 62
     0
 10
13.9
 20
2.939845
 30
0.0
 11
15.760155
 21
4.8
 31
0.0
  0
LINE
  8
0
 62
     0
 10
13.9
 20
3.116622
 30
0.0
 11
15.583378
 21
4.8
 31
0.0
  0
LINE
  8
0
 62
     0
 10
13.9
 20
3.293398
 30
0.0
 11
15.406602
 21
4.8
 31
0.0
  0
LINE
  8
0
 62
     0
 10
13.9
 20
3.470175
 30
0.0
 11
15.229825
 21
4.8
 31
0.0
  0
LINE
  8
0
 62
     0
 10
13.9
 20
3.646952
 30
0.0
 11
15.053048
 21
4.8
 31
0.0
  0
LINE
  8
0
 62
     0
 10
13.9
 20
3.823728
 30
0.0
 11
14.876272
 21
4.8
 31
0.0
  0
LINE
  8
0
 62
     0
 10
13.9
 20
4.000505
 30
0.0
 11
14.699495
 21
4.8
 31
0.0
  0
LINE
  8
0
 62
     0
 10
13.9
 20
4.177282
 30
0.0
 11
14.522718
 21
4.8
 31
0.0
  0
LINE
  8
0
 62
     0
 10
13.9
 20
4.354058
 30
0.0
 11
14.345942
 21
4.8
 31
0.0
  0
LINE
  8
0
 62
     0
 10
13.9
 20
4.530835
 30
0.0
 11
14.169165
 21
4.8
 31
0.0
  0
LINE
  8
0
 62
     0
 10
13.9
 20
4.707612
 30
0.0
 11
13.992388
 21
4.8
 31
0.0
  0
LINE
  8
0
 62
     0
 10
13.9
 20
0.641748
 30
0.0
 11
17.452185
 21
4.193933
 31
0.0
  0
LINE
  8
0
 62
     0
 10
13.9
 20
0.464971
 30
0.0
 11
17.503339
 21
4.068311
 31
0.0
  0
LINE
  8
0
 62
     0
 10
13.9
 20
0.288194
 30
0.0
 11
17.549642
 21
3.937837
 31
0.0
  0
LINE
  8
0
 62
     0
 10
13.9
 20
0.111418
 30
0.0
 11
17.590762
 21
3.80218
 31
0.0
  0
LINE
  8
0
 62
     0
 10
13.965359
 20
0.0
 30
0.0
 11
17.62629
 21
3.660931
 31
0.0
  0
LINE
  8
0
 62
     0
 10
14.142136
 20
0.000001
 30
0.0
 11
17.655713
 21
3.513577
 31
0.0
  0
LINE
  8
0
 62
     0
 10
14.318913
 20
0.000001
 30
0.0
 11
17.678385
 21
3.359473
 31
0.0
  0
LINE
  8
0
 62
     0
 10
14.49569
 20
0.000001
 30
0.0
 11
17.693473
 21
3.197784
 31
0.0
  0
LINE
  8
0
 62
     0
 10
14.672467
 20
0.000002
 30
0.0
 11
17.699875
 21
3.027409
 31
0.0
  0
LINE
  8
0
 62
     0
 10
14.853154
 20
0.003912
 30
0.0
 11
17.696088
 21
2.846846
 31
0.0
  0
LINE
  8
0
 62
     0
 10
15.046044
 20
0.020025
 30
0.0
 11
17.679975
 21
2.653956
 31
0.0
  0
LINE
  8
0
 62
     0
 10
15.254483
 20
0.051687
 30
0.0
 11
17.648313
 21
2.445517
 31
0.0
  0
LINE
  8
0
 62
     0
 10
15.483762
 20
0.10419
 30
0.0
 11
17.59581
 21
2.216238
 31
0.0
  0
LINE
  8
0
 62
     0
 10
15.743786
 20
0.187437
 30
0.0
 11
17.512563
 21
1.956214
 31
0.0
  0
LINE
  8
0
 62
     0
 10
16.058176
 20
0.32505
 30
0.0
 11
17.37495
 21
1.641824
 31
0.0
  0
LINE
  8
0
 62
     0
 10
16.54193
 20
0.632028
 30
0.0
 11
17.067972
 21
1.15807
 31
0.0
  0
ENDBLK
  8
0
  0
BLOCK
  8
0
  2
B137
 70
     0
 10
0.0
 20
0.0
 30
0.0
  3
B137
  0
LINE
  8
BASE
  6
CONTINUOUS
 10
0.0
 20
0.0
 30
0.0
 11
0.0
 21
-10.0
 31
0.0
  0
LINE
  8
BASE
  6
CONTINUOUS
 10
0.0
 20
-17.5
 30
0.0
 11
0.0
 21
-25.0
 31
0.0
  0
LINE
  8
BASE
  6
CONTINUOUS
 10
7.5
 20
-17.5
 30
0.0
 11
7.5
 21
-25.0
 31
0.0
  0
LINE
  8
BASE
  6
CONTINUOUS
 10
7.5
 20
0.0
 30
0.0
 11
7.5
 21
-10.0
 31
0.0
  0
TEXT
  8
BASE
  6
DASHED
 10
3.214777
 20
-8.15218
 30
0.0
 40
2.0
  1
2B
 50
90.0
  0
TEXT
  8
BASE
  6
DASHED
 10
10.545377
 20
-8.15218
 30
0.0
 40
2.0
  1
1B+
 50
90.0
  0
TEXT
  8
BASE
  6
DASHED
 10
18.218527
 20
-8.15218
 30
0.0
 40
2.0
  1
18B-
 50
90.0
  0
LINE
  8
BASE
  6
CONTINUOUS
 10
3.033279
 20
-4.186459
 30
0.0
 11
1.365905
 21
-4.186459
 31
0.0
  0
LINE
  8
BASE
  6
CONTINUOUS
 10
3.033279
 20
-2.499494
 30
0.0
 11
3.033279
 21
-4.186459
 31
0.0
  0
LINE
  8
BASE
  6
CONTINUOUS
 10
1.365905
 20
-2.499494
 30
0.0
 11
3.033279
 21
-2.499494
 31
0.0
  0
LINE
  8
BASE
  6
CONTINUOUS
 10
1.365905
 20
-4.186459
 30
0.0
 11
1.365905
 21
-2.499494
 31
0.0
  0
LINE
  8
BASE
  6
CONTINUOUS
 10
15.0
 20
-5.0
 30
0.0
 11
15.0
 21
-10.0
 31
0.0
  0
LINE
  8
BASE
  6
CONTINUOUS
 10
15.0
 20
-17.5
 30
0.0
 11
15.0
 21
-25.0
 31
0.0
  0
TEXT
  8
BASE
  6
CONTINUOUS
 10
3.078553
 20
-24.069736
 30
0.0
 40
2.0
  1
2A
 50
90.0
  0
TEXT
  8
BASE
  6
CONTINUOUS
 10
10.542942
 20
-24.069736
 30
0.0
 40
2.0
  1
1A
 50
90.0
  0
TEXT
  8
BASE
  6
CONTINUOUS
 10
18.210796
 20
-24.069736
 30
0.0
 40
2.0
  1
18A
 50
90.0
  0
LINE
  8
BASE
  6
CONTINUOUS
 10
14.993411
 20
-16.018035
 30
0.0
 11
17.434804
 21
-9.337159
 31
0.0
  0
LINE
  8
BASE
  6
CONTINUOUS
 10
15.0
 20
-10.0
 30
0.0
 11
17.765661
 21
-10.0
 31
0.0
  0
LINE
  8
BASE
  6
CONTINUOUS
 10
17.434804
 20
-9.337159
 30
0.0
 11
16.549106
 21
-8.892266
 31
0.0
  0
CIRCLE
  8
BASE
  6
CONTINUOUS
 10
15.0
 20
-16.758945
 30
0.0
 40
0.740939
  0
LINE
  8
BASE
  6
CONTINUOUS
 10
7.493411
 20
-16.018035
 30
0.0
 11
9.934804
 21
-9.337159
 31
0.0
  0
LINE
  8
BASE
  6
CONTINUOUS
 10
7.5
 20
-10.0
 30
0.0
 11
10.265661
 21
-10.0
 31
0.0
  0
LINE
  8
BASE
  6
CONTINUOUS
 10
9.934804
 20
-9.337159
 30
0.0
 11
9.049106
 21
-8.892266
 31
0.0
  0
CIRCLE
  8
BASE
  6
CONTINUOUS
 10
7.5
 20
-16.758945
 30
0.0
 40
0.740939
  0
LINE
  8
BASE
  6
CONTINUOUS
 10
-0.006589
 20
-16.018035
 30
0.0
 11
2.434804
 21
-9.337159
 31
0.0
  0
LINE
  8
BASE
  6
CONTINUOUS
 10
0.0
 20
-10.0
 30
0.0
 11
2.765661
 21
-10.0
 31
0.0
  0
LINE
  8
BASE
  6
CONTINUOUS
 10
2.434804
 20
-9.337159
 30
0.0
 11
1.549106
 21
-8.892266
 31
0.0
  0
CIRCLE
  8
BASE
  6
CONTINUOUS
 10
0.0
 20
-16.758945
 30
0.0
 40
0.740939
  0
ENDBLK
  8
0
  0
BLOCK
  8
0
  2
B68
 70
     0
 10
0.0
 20
0.0
 30
0.0
  3
B68
  0
TEXT
  8
BASE
  6
CONTINUOUS
 10
-25.0
 20
-3.800404
 30
0.0
 40
2.0
  1
17A    17B
  0
CIRCLE
  8
BASE
  6
CONTINUOUS
 10
-2.5
 20
-2.5
 30
0.0
 40
0.806201
  0
CIRCLE
  8
BASE
  6
CONTINUOUS
 10
-2.5
 20
-2.5
 30
0.0
 40
1.484482
  0
LINE
  8
BASE
  6
CONTINUOUS
 10
-10.0
 20
0.0
 30
0.0
 11
0.0
 21
0.0
 31
0.0
  0
TEXT
  8
BASE
  6
DASHED
 10
-17.440617
 20
3.559927
 30
0.0
 40
2.0
  1
101
  0
LINE
  8
BASE
  6
DASHED
 10
-27.5
 20
0.0
 30
0.0
 11
-17.5
 21
0.0
 31
0.0
  0
LINE
  8
BASE
  6
CONTINUOUS
 10
-11.481965
 20
-0.006589
 30
0.0
 11
-18.162841
 21
2.434804
 31
0.0
  0
LINE
  8
BASE
  6
CONTINUOUS
 10
-17.5
 20
0.0
 30
0.0
 11
-17.5
 21
2.765661
 31
0.0
  0
LINE
  8
BASE
  6
CONTINUOUS
 10
-18.162841
 20
2.434804
 30
0.0
 11
-18.607734
 21
1.549106
 31
0.0
  0
CIRCLE
  8
BASE
  6
CONTINUOUS
 10
-10.741055
 20
0.0
 30
0.0
 40
0.740939
  0
ENDBLK
  8
0
  0
ENDSEC
  0
SECTION
  2
ENTITIES
  0
INSERT
  8
0
  2
1
 10
65.405438
 20
98.713066
 30
0.0
  0
INSERT
  8
0
  2
1
 10
72.541652
 20
49.71056
 30
0.0
  0
INSERT
  8
0
  2
1
 10
85.390443
 20
73.497234
 30
0.0
  0
LINE
  8
0
  6
CENTER
 62
   249
 10
250.0
 20
190.0
 30
0.0
 11
250.0
 21
82.5
 31
0.0
  0
LINE
  8
0
  6
CONTINUOUS
 62
   249
 10
250.0
 20
177.5
 30
0.0
 11
250.0
 21
177.5
 31
0.0
  0
LINE
  8
0
  6
CONTINUOUS
 62
   249
 10
190.0
 20
56.499996
 30
0.0
 11
190.0
 21
52.5
 31
0.0
  0
LINE
  8
0
  6
CONTINUOUS
 62
   249
 10
200.0
 20
56.499996
 30
0.0
 11
200.0
 21
52.5
 31
0.0
  0
LINE
  8
0
  6
CONTINUOUS
 62
   249
 10
210.0
 20
56.499996
 30
0.0
 11
210.0
 21
52.5
 31
0.0
  0
LINE
  8
0
  6
CENTER
 62
   249
 10
250.0
 20
82.5
 30
0.0
 11
250.0
 21
52.5
 31
0.0
  0
LINE
  8
0
  6
CONTINUOUS
 62
   249
 10
190.0
 20
80.0
 30
0.0
 11
190.0
 21
73.249065
 31
0.0
  0
LINE
  8
0
  6
CONTINUOUS
 62
   249
 10
210.0
 20
62.5
 30
0.0
 11
210.0
 21
67.5
 31
0.0
  0
LINE
  8
0
  6
CONTINUOUS
 62
   249
 10
210.0
 20
68.698536
 30
0.0
 11
210.0
 21
71.198536
 31
0.0
  0
LINE
  8
0
  6
CONTINUOUS
 62
   249
 10
232.5
 20
67.5
 30
0.0
 11
242.5
 21
67.5
 31
0.0
  0
LINE
  8
0
  6
CONTINUOUS
 62
   249
 10
232.5
 20
67.5
 30
0.0
 11
235.0
 21
70.0
 31
0.0
  0
LINE
  8
0
  6
CONTINUOUS
 62
   249
 10
237.5
 20
67.5
 30
0.0
 11
240.0
 21
70.0
 31
0.0
  0
LINE
  8
0
  6
CONTINUOUS
 62
   249
 10
242.5
 20
67.5
 30
0.0
 11
245.0
 21
70.0
 31
0.0
  0
LINE
  8
0
  6
CONTINUOUS
 62
   249
 10
237.5
 20
67.5
 30
0.0
 11
237.5
 21
52.5
 31
0.0
  0
LINE
  8
0
  6
CONTINUOUS
 62
   249
 10
225.0
 20
70.0
 30
0.0
 11
225.0
 21
52.5
 31
0.0
  0
LINE
  8
0
  6
CONTINUOUS
 62
   249
 10
220.0
 20
70.0
 30
0.0
 11
220.0
 21
52.5
 31
0.0
  0
LINE
  8
0
  6
DASHED
 62
   249
 10
225.0
 20
52.5
 30
0.0
 11
225.0
 21
45.0
 31
0.0
  0
LINE
  8
0
  6
DASHED
 62
   249
 10
237.5
 20
52.5
 30
0.0
 11
237.5
 21
45.0
 31
0.0
  0
LINE
  8
0
  6
DASHED
 62
   249
 10
220.0
 20
52.5
 30
0.0
 11
220.0
 21
45.0
 31
0.0
  0
LINE
  8
0
  6
DASHED
 62
   249
 10
210.0
 20
52.5
 30
0.0
 11
210.0
 21
45.0
 31
0.0
  0
LINE
  8
0
  6
DASHED
 62
   249
 10
190.0
 20
52.5
 30
0.0
 11
190.0
 21
45.0
 31
0.0
  0
LINE
  8
0
  6
DASHED
 62
   249
 10
182.5
 20
52.5
 30
0.0
 11
182.5
 21
45.0
 31
0.0
  0
LINE
  8
0
  6
DASHED
 62
   249
 10
177.5
 20
52.5
 30
0.0
 11
177.5
 21
45.0
 31
0.0
  0
LINE
  8
0
  6
CONTINUOUS
 62
   249
 10
187.5
 20
132.732891
 30
0.0
 11
217.950615
 21
132.732891
 31
0.0
  0
TEXT
  8
0
  6
CONTINUOUS
 62
   249
 10
199.408766
 20
128.795815
 30
0.0
 40
2.5
  1
IRF
 11
199.408766
 21
127.962481
 31
0.0
 73
     1
  0
LINE
  8
0
  6
CONTINUOUS
 62
   249
 10
217.950615
 20
127.5
 30
0.0
 11
187.5
 21
127.5
 31
0.0
  0
LINE
  8
0
  6
CONTINUOUS
 62
   249
 10
217.950615
 20
182.209828
 30
0.0
 11
217.950615
 21
127.5
 31
0.0
  0
LINE
  8
0
  6
CONTINUOUS
 62
   249
 10
217.950615
 20
200.0
 30
0.0
 11
217.950615
 21
182.18832
 31
0.0
  0
LINE
  8
0
  6
CENTER
 62
   249
 10
250.0
 20
212.5
 30
0.0
 11
250.0
 21
190.0
 31
0.0
  0
LINE
  8
0
  6
CONTINUOUS
 62
   249
 10
200.0
 20
72.5
 30
0.0
 11
200.0
 21
62.5
 31
0.0
  0
LINE
  8
0
  6
CONTINUOUS
 62
   249
 10
190.0
 20
75.0
 30
0.0
 11
190.0
 21
62.5
 31
0.0
  0
LINE
  8
0
  6
CONTINUOUS
 62
   249
 10
187.5
 20
140.0
 30
0.0
 11
217.950615
 21
140.0
 31
0.0
  0
TEXT
  8
0
  6
CONTINUOUS
 62
   249
 10
191.230324
 20
134.807235
 30
0.0
 40
2.5
  1
SERIAL I/O
  0
LINE
  8
0
  6
CONTINUOUS
 62
   249
 10
187.5
 20
152.5
 30
0.0
 11
217.950615
 21
152.5
 31
0.0
  0
CIRCLE
  8
0
  6
CONTINUOUS
 62
   249
 10
186.512659
 20
129.998324
 30
0.0
 40
1.0
  0
CIRCLE
  8
0
  6
CONTINUOUS
 62
   249
 10
186.512659
 20
166.988901
 30
0.0
 40
1.0
  0
CIRCLE
  8
0
  6
CONTINUOUS
 62
   249
 10
186.512659
 20
197.514335
 30
0.0
 40
1.0
  0
LINE
  8
0
  6
CONTINUOUS
 62
   249
 10
187.5
 20
200.0
 30
0.0
 11
217.950615
 21
200.0
 31
0.0
  0
LINE
  8
0
  6
CONTINUOUS
 62
   249
 10
207.5
 20
160.0
 30
0.0
 11
207.5
 21
200.0
 31
0.0
  0
LINE
  8
0
  6
CONTINUOUS
 62
   249
 10
187.5
 20
195.0
 30
0.0
 11
187.5
 21
180.0
 31
0.0
  0
LINE
  8
0
  6
CONTINUOUS
 62
   249
 10
187.5
 20
195.0
 30
0.0
 11
187.5
 21
200.0
 31
0.0
  0
LINE
  8
0
  6
CONTINUOUS
 62
   249
 10
187.5
 20
180.0
 30
0.0
 11
187.5
 21
127.5
 31
0.0
  0
CIRCLE
  8
0
  6
CONTINUOUS
 62
   249
 10
186.512659
 20
182.692086
 30
0.0
 40
1.0
  0
TEXT
  8
0
  6
CONTINUOUS
 62
   249
 10
104.421886
 20
116.464455
 30
0.0
 40
2.5
  1
1
 11
104.421886
 21
115.631122
 31
0.0
 73
     1
  0
LINE
  8
0
  6
CONTINUOUS
 62
   249
 10
99.988024
 20
119.124549
 30
0.0
 11
102.333789
 21
117.789195
 31
0.0
  0
LINE
  8
0
  6
CONTINUOUS
 62
   249
 10
99.979982
 20
115.799262
 30
0.0
 11
102.363443
 21
116.987454
 31
0.0
  0
LINE
  8
0
  6
CONTINUOUS
 62
   249
 10
102.333789
 20
117.789195
 30
0.0
 11
99.988024
 21
116.599276
 31
0.0
  0
LINE
  8
0
  6
CONTINUOUS
 62
   249
 10
100.0
 20
122.5
 30
0.0
 11
98.28221
 21
127.514966
 31
0.0
  0
LINE
  8
0
  6
CONTINUOUS
 62
   249
 10
102.5
 20
122.5
 30
0.0
 11
100.78221
 21
127.514966
 31
0.0
  0
LINE
  8
0
  6
CONTINUOUS
 62
   249
 10
105.0
 20
122.5
 30
0.0
 11
103.28221
 21
127.514966
 31
0.0
  0
LINE
  8
0
  6
CONTINUOUS
 62
   249
 10
107.5
 20
122.5
 30
0.0
 11
105.78221
 21
127.514966
 31
0.0
  0
LINE
  8
0
  6
CONTINUOUS
 62
   249
 10
107.5
 20
120.0
 30
0.0
 11
107.5
 21
122.5
 31
0.0
  0
LINE
  8
0
  6
CONTINUOUS
 62
   249
 10
105.0
 20
120.0
 30
0.0
 11
105.0
 21
122.5
 31
0.0
  0
LINE
  8
0
  6
CONTINUOUS
 62
   249
 10
102.5
 20
120.0
 30
0.0
 11
102.5
 21
122.5
 31
0.0
  0
LINE
  8
0
  6
CONTINUOUS
 62
   249
 10
100.0
 20
120.0
 30
0.0
 11
100.0
 21
122.5
 31
0.0
  0
LINE
  8
0
  6
CONTINUOUS
 62
   249
 10
110.0
 20
120.0
 30
0.0
 11
95.0
 21
120.0
 31
0.0
  0
LINE
  8
0
  6
CONTINUOUS
 62
   249
 10
110.0
 20
115.0
 30
0.0
 11
110.0
 21
120.0
 31
0.0
  0
LINE
  8
0
  6
CONTINUOUS
 62
   249
 10
95.0
 20
115.0
 30
0.0
 11
110.0
 21
115.0
 31
0.0
  0
LINE
  8
0
  6
CONTINUOUS
 62
   249
 10
95.0
 20
120.0
 30
0.0
 11
95.0
 21
115.0
 31
0.0
  0
LINE
  8
0
  6
CONTINUOUS
 62
   249
 10
135.0
 20
120.0
 30
0.0
 11
135.0
 21
115.0
 31
0.0
  0
LINE
  8
0
  6
CONTINUOUS
 62
   249
 10
135.0
 20
115.0
 30
0.0
 11
147.5
 21
115.0
 31
0.0
  0
LINE
  8
0
  6
CONTINUOUS
 62
   249
 10
147.5
 20
115.0
 30
0.0
 11
147.5
 21
120.0
 31
0.0
  0
LINE
  8
0
  6
CONTINUOUS
 62
   249
 10
147.5
 20
120.0
 30
0.0
 11
135.0
 21
120.0
 31
0.0
  0
LINE
  8
0
  6
CONTINUOUS
 62
   249
 10
137.5
 20
120.0
 30
0.0
 11
137.5
 21
122.5
 31
0.0
  0
LINE
  8
0
  6
CONTINUOUS
 62
   249
 10
140.0
 20
120.0
 30
0.0
 11
140.0
 21
122.5
 31
0.0
  0
LINE
  8
0
  6
CONTINUOUS
 62
   249
 10
142.5
 20
120.0
 30
0.0
 11
142.5
 21
122.5
 31
0.0
  0
LINE
  8
0
  6
CONTINUOUS
 62
   249
 10
145.0
 20
120.0
 30
0.0
 11
145.0
 21
122.5
 31
0.0
  0
LINE
  8
0
  6
CONTINUOUS
 62
   249
 10
145.0
 20
122.5
 30
0.0
 11
143.28221
 21
127.514966
 31
0.0
  0
LINE
  8
0
  6
CONTINUOUS
 62
   249
 10
142.5
 20
122.5
 30
0.0
 11
140.78221
 21
127.514966
 31
0.0
  0
LINE
  8
0
  6
CONTINUOUS
 62
   249
 10
140.0
 20
122.5
 30
0.0
 11
138.28221
 21
127.514966
 31
0.0
  0
LINE
  8
0
  6
CONTINUOUS
 62
   249
 10
137.5
 20
122.5
 30
0.0
 11
135.78221
 21
127.514966
 31
0.0
  0
LINE
  8
0
  6
CONTINUOUS
 62
   249
 10
141.24635
 20
117.789195
 30
0.0
 11
138.900585
 21
116.599276
 31
0.0
  0
LINE
  8
0
  6
CONTINUOUS
 62
   249
 10
138.892543
 20
115.799262
 30
0.0
 11
141.276004
 21
116.987454
 31
0.0
  0
LINE
  8
0
  6
CONTINUOUS
 62
   249
 10
138.900585
 20
119.124549
 30
0.0
 11
141.24635
 21
117.789195
 31
0.0
  0
TEXT
  8
0
  6
CONTINUOUS
 62
   249
 10
143.334447
 20
116.464455
 30
0.0
 40
2.5
  1
1
 11
143.334447
 21
115.631122
 31
0.0
 73
     1
  0
TEXT
  8
0
  6
CONTINUOUS
 62
   249
 10
85.834447
 20
116.464455
 30
0.0
 40
2.5
  1
1
 11
85.834447
 21
115.631122
 31
0.0
 73
     1
  0
LINE
  8
0
  6
CONTINUOUS
 62
   249
 10
81.400585
 20
119.124549
 30
0.0
 11
83.74635
 21
117.789195
 31
0.0
  0
LINE
  8
0
  6
CONTINUOUS
 62
   249
 10
81.392543
 20
115.799262
 30
0.0
 11
83.776004
 21
116.987454
 31
0.0
  0
LINE
  8
0
  6
CONTINUOUS
 62
   249
 10
83.74635
 20
117.789195
 30
0.0
 11
81.400585
 21
116.599276
 31
0.0
  0
LINE
  8
0
  6
CONTINUOUS
 62
   249
 10
85.0
 20
115.0
 30
0.0
 11
85.0
 21
112.5
 31
0.0
  0
LINE
  8
0
  6
CONTINUOUS
 62
   249
 10
87.5
 20
120.0
 30
0.0
 11
87.5
 21
122.5
 31
0.0
  0
LINE
  8
0
  6
CONTINUOUS
 62
   249
 10
85.0
 20
120.0
 30
0.0
 11
85.0
 21
122.5
 31
0.0
  0
LINE
  8
0
  6
CONTINUOUS
 62
   249
 10
82.5
 20
120.0
 30
0.0
 11
82.5
 21
128.652485
 31
0.0
  0
LINE
  8
0
  6
CONTINUOUS
 62
   249
 10
92.5
 20
120.0
 30
0.0
 11
77.5
 21
120.0
 31
0.0
  0
LINE
  8
0
  6
CONTINUOUS
 62
   249
 10
92.5
 20
115.0
 30
0.0
 11
92.5
 21
120.0
 31
0.0
  0
LINE
  8
0
  6
CONTINUOUS
 62
   249
 10
77.5
 20
115.0
 30
0.0
 11
92.5
 21
115.0
 31
0.0
  0
LINE
  8
0
  6
CONTINUOUS
 62
   249
 10
77.5
 20
120.0
 30
0.0
 11
77.5
 21
115.0
 31
0.0
  0
LINE
  8
0
  6
CONTINUOUS
 62
   249
 10
80.0
 20
120.0
 30
0.0
 11
80.0
 21
128.652485
 31
0.0
  0
LINE
  8
0
  6
CONTINUOUS
 62
   249
 10
112.5
 20
120.0
 30
0.0
 11
112.5
 21
115.0
 31
0.0
  0
LINE
  8
0
  6
CONTINUOUS
 62
   249
 10
112.5
 20
115.0
 30
0.0
 11
132.5
 21
115.0
 31
0.0
  0
LINE
  8
0
  6
CONTINUOUS
 62
   249
 10
132.5
 20
115.0
 30
0.0
 11
132.5
 21
120.0
 31
0.0
  0
LINE
  8
0
  6
CONTINUOUS
 62
   249
 10
132.5
 20
120.0
 30
0.0
 11
112.5
 21
120.0
 31
0.0
  0
LINE
  8
0
  6
CONTINUOUS
 62
   249
 10
119.225435
 20
115.799262
 30
0.0
 11
121.608895
 21
116.987454
 31
0.0
  0
LINE
  8
0
  6
CONTINUOUS
 62
   249
 10
121.579242
 20
117.789195
 30
0.0
 11
119.233477
 21
116.599276
 31
0.0
  0
LINE
  8
0
  6
CONTINUOUS
 62
   249
 10
119.233477
 20
119.124549
 30
0.0
 11
121.579242
 21
117.789195
 31
0.0
  0
TEXT
  8
0
  6
CONTINUOUS
 62
   249
 10
123.667339
 20
116.464455
 30
0.0
 40
2.5
  1
1
 11
123.667339
 21
115.631122
 31
0.0
 73
     1
  0
LINE
  8
0
  6
CONTINUOUS
 62
   249
 10
115.0
 20
120.0
 30
0.0
 11
115.0
 21
122.5
 31
0.0
  0
LINE
  8
0
  6
CONTINUOUS
 62
   249
 10
117.5
 20
120.0
 30
0.0
 11
117.5
 21
122.5
 31
0.0
  0
LINE
  8
0
  6
CONTINUOUS
 62
   249
 10
120.0
 20
120.0
 30
0.0
 11
120.0
 21
122.5
 31
0.0
  0
LINE
  8
0
  6
CONTINUOUS
 62
   249
 10
122.5
 20
120.0
 30
0.0
 11
122.5
 21
122.5
 31
0.0
  0
LINE
  8
0
  6
CONTINUOUS
 62
   249
 10
125.0
 20
120.0
 30
0.0
 11
125.0
 21
122.5
 31
0.0
  0
LINE
  8
0
  6
CONTINUOUS
 62
   249
 10
127.5
 20
120.0
 30
0.0
 11
127.5
 21
122.5
 31
0.0
  0
LINE
  8
0
  6
CONTINUOUS
 62
   249
 10
130.0
 20
120.0
 30
0.0
 11
130.0
 21
122.5
 31
0.0
  0
LINE
  8
0
  6
CONTINUOUS
 62
   249
 10
115.0
 20
122.5
 30
0.0
 11
113.28221
 21
127.514966
 31
0.0
  0
LINE
  8
0
  6
CONTINUOUS
 62
   249
 10
117.5
 20
122.5
 30
0.0
 11
115.78221
 21
127.514966
 31
0.0
  0
LINE
  8
0
  6
CONTINUOUS
 62
   249
 10
120.0
 20
122.5
 30
0.0
 11
118.28221
 21
127.514966
 31
0.0
  0
LINE
  8
0
  6
CONTINUOUS
 62
   249
 10
122.5
 20
122.5
 30
0.0
 11
120.78221
 21
127.514966
 31
0.0
  0
LINE
  8
0
  6
CONTINUOUS
 62
   249
 10
125.0
 20
122.5
 30
0.0
 11
123.28221
 21
127.514966
 31
0.0
  0
LINE
  8
0
  6
CONTINUOUS
 62
   249
 10
127.5
 20
122.5
 30
0.0
 11
125.78221
 21
127.514966
 31
0.0
  0
LINE
  8
0
  6
CONTINUOUS
 62
   249
 10
130.0
 20
122.5
 30
0.0
 11
128.28221
 21
127.514966
 31
0.0
  0
LINE
  8
0
  6
CONTINUOUS
 62
   249
 10
187.5
 20
146.954176
 30
0.0
 11
90.0
 21
146.954176
 31
0.0
  0
LINE
  8
0
  6
CONTINUOUS
 62
   249
 10
187.5
 20
142.418928
 30
0.0
 11
182.5
 21
142.418928
 31
0.0
  0
LINE
  8
0
  6
CONTINUOUS
 62
   249
 10
177.5
 20
142.418928
 30
0.0
 11
172.5
 21
142.418928
 31
0.0
  0
LINE
  8
0
  6
CONTINUOUS
 62
   249
 10
172.5
 20
142.418928
 30
0.0
 11
172.5
 21
202.5
 31
0.0
  0
LINE
  8
0
  6
CONTINUOUS
 62
   249
 10
182.5
 20
142.418928
 30
0.0
 11
177.016258
 21
141.127692
 31
0.0
  0
TEXT
  8
0
  6
CONTINUOUS
 62
   249
 10
173.546992
 20
143.364592
 30
0.0
 40
1.5
  1
SGB/8
  7
ROMANS
  0
LINE
  8
0
  6
CONTINUOUS
 62
   249
 10
177.5
 20
150.453389
 30
0.0
 11
172.5
 21
150.453389
 31
0.0
  0
LINE
  8
0
  6
CONTINUOUS
 62
   249
 10
182.5
 20
150.453389
 30
0.0
 11
177.016258
 21
149.162153
 31
0.0
  0
LINE
  8
0
  6
CONTINUOUS
 62
   249
 10
187.5
 20
150.453389
 30
0.0
 11
182.5
 21
150.453389
 31
0.0
  0
TEXT
  8
0
  6
CONTINUOUS
 62
   249
 10
173.549471
 20
167.674834
 30
0.0
 40
1.5
  1
SGB/3
  7
ROMANS
  0
TEXT
  8
0
  6
CONTINUOUS
 62
   249
 10
173.549471
 20
183.564661
 30
0.0
 40
1.5
  1
SGB/2
  7
ROMANS
  0
TEXT
  8
0
  6
CONTINUOUS
 62
   249
 10
173.549471
 20
198.39836
 30
0.0
 40
1.5
  1
SGB/1
  7
ROMANS
  0
LINE
  8
0
  6
CONTINUOUS
 62
   249
 10
177.5
 20
157.901603
 30
0.0
 11
172.5
 21
157.901603
 31
0.0
  0
LINE
  8
0
  6
CONTINUOUS
 62
   249
 10
182.5
 20
157.901603
 30
0.0
 11
177.016258
 21
156.610367
 31
0.0
  0
LINE
  8
0
  6
CONTINUOUS
 62
   249
 10
187.5
 20
157.901603
 30
0.0
 11
182.5
 21
157.901603
 31
0.0
  0
LINE
  8
0
  6
CONTINUOUS
 62
   249
 10
187.5
 20
154.295145
 30
0.0
 11
155.0
 21
154.295145
 31
0.0
  0
LINE
  8
0
  6
CONTINUOUS
 62
   249
 10
187.5
 20
162.64644
 30
0.0
 11
87.5
 21
162.64644
 31
0.0
  0
LINE
  8
0
  6
CONTINUOUS
 62
   249
 10
177.5
 20
166.976975
 30
0.0
 11
172.5
 21
166.976975
 31
0.0
  0
LINE
  8
0
  6
CONTINUOUS
 62
   249
 10
182.5
 20
166.976975
 30
0.0
 11
177.016258
 21
165.685739
 31
0.0
  0
LINE
  8
0
  6
CONTINUOUS
 62
   249
 10
185.51273
 20
166.976975
 30
0.0
 11
182.5
 21
166.976975
 31
0.0
  0
LINE
  8
0
  6
CONTINUOUS
 62
   249
 10
187.5
 20
171.890723
 30
0.0
 11
85.0
 21
171.890723
 31
0.0
  0
LINE
  8
0
  6
CONTINUOUS
 62
   249
 10
187.5
 20
175.608011
 30
0.0
 11
125.0
 21
175.608011
 31
0.0
  0
LINE
  8
0
  6
CONTINUOUS
 62
   249
 10
177.5
 20
182.69839
 30
0.0
 11
172.5
 21
182.69839
 31
0.0
  0
LINE
  8
0
  6
CONTINUOUS
 62
   249
 10
182.5
 20
182.69839
 30
0.0
 11
177.016258
 21
181.407154
 31
0.0
  0
LINE
  8
0
  6
CONTINUOUS
 62
   249
 10
185.51273
 20
182.69839
 30
0.0
 11
182.5
 21
182.69839
 31
0.0
  0
LINE
  8
0
  6
CONTINUOUS
 62
   249
 10
187.5
 20
179.055659
 30
0.0
 11
122.5
 21
179.055659
 31
0.0
  0
LINE
  8
0
  6
CONTINUOUS
 62
   249
 10
187.5
 20
187.079083
 30
0.0
 11
82.5
 21
187.079083
 31
0.0
  0
LINE
  8
0
  6
CONTINUOUS
 62
   249
 10
177.5
 20
197.553684
 30
0.0
 11
172.5
 21
197.553684
 31
0.0
  0
LINE
  8
0
  6
CONTINUOUS
 62
   249
 10
182.5
 20
197.553684
 30
0.0
 11
177.016258
 21
196.262448
 31
0.0
  0
LINE
  8
0
  6
CONTINUOUS
 62
   249
 10
185.51273
 20
197.553684
 30
0.0
 11
182.5
 21
197.553684
 31
0.0
  0
LINE
  8
0
  6
CONTINUOUS
 62
   249
 10
187.5
 20
190.562026
 30
0.0
 11
117.5
 21
190.562026
 31
0.0
  0
LINE
  8
0
  6
CONTINUOUS
 62
   249
 10
87.5
 20
122.5
 30
0.0
 11
87.5
 21
125.0
 31
0.0
  0
LINE
  8
0
  6
CONTINUOUS
 62
   249
 10
85.0
 20
122.5
 30
0.0
 11
85.0
 21
125.0
 31
0.0
  0
CIRCLE
  8
0
  6
CONTINUOUS
 62
   249
 10
85.005242
 20
125.69998
 30
0.0
 40
0.7
  0
LINE
  8
0
  6
CONTINUOUS
 62
   249
 10
87.5
 20
137.5
 30
0.0
 11
87.5
 21
124.944507
 31
0.0
  0
LINE
  8
0
  6
CONTINUOUS
 62
   249
 10
85.0
 20
137.5
 30
0.0
 11
85.0
 21
126.399961
 31
0.0
  0
CIRCLE
  8
0
  6
CONTINUOUS
 62
   249
 10
82.505242
 20
129.352465
 30
0.0
 40
0.7
  0
LINE
  8
0
  6
CONTINUOUS
 62
   249
 10
82.5
 20
137.5
 30
0.0
 11
82.5
 21
130.052445
 31
0.0
  0
LINE
  8
0
  6
CONTINUOUS
 62
   249
 10
80.0
 20
137.5
 30
0.0
 11
80.0
 21
128.268202
 31
0.0
  0
LINE
  8
0
  6
CONTINUOUS
 62
   249
 10
77.719006
 20
129.351524
 30
0.0
 11
81.805243
 21
129.351524
 31
0.0
  0
LINE
  8
0
  6
CONTINUOUS
 62
   249
 10
87.5
 20
137.5
 30
0.0
 11
85.78221
 21
142.514966
 31
0.0
  0
LINE
  8
0
  6
CONTINUOUS
 62
   249
 10
80.0
 20
137.5
 30
0.0
 11
78.28221
 21
142.514966
 31
0.0
  0
LINE
  8
0
  6
CONTINUOUS
 62
   249
 10
84.305603
 20
125.6775
 30
0.0
 11
77.839749
 21
125.6775
 31
0.0
  0
LINE
  8
0
  6
CONTINUOUS
 62
   249
 10
73.790766
 20
125.630553
 30
0.0
 11
61.185404
 21
125.630553
 31
0.0
  0
LINE
  8
0
  6
CONTINUOUS
 62
   249
 10
73.790766
 20
129.354176
 30
0.0
 11
61.185404
 21
129.354176
 31
0.0
  0
LINE
  8
0
  6
CONTINUOUS
 62
   249
 10
77.839749
 20
125.6775
 30
0.0
 11
73.790766
 21
124.119972
 31
0.0
  0
LINE
  8
0
  6
CONTINUOUS
 62
   249
 10
77.719006
 20
129.351524
 30
0.0
 11
73.790766
 21
127.840443
 31
0.0
  0
TEXT
  8
0
  6
CONTINUOUS
 62
   249
 10
61.809475
 20
126.952165
 30
0.0
 40
1.5
  1
SGB/6
  7
ROMANS
  0
TEXT
  8
0
  6
CONTINUOUS
 62
   249
 10
61.809475
 20
123.343735
 30
0.0
 40
1.5
  1
SGB/7
  7
ROMANS
  0
LINE
  8
0
  6
CENTER
 62
   249
 10
57.5
 20
220.0
 30
0.0
 11
57.5
 21
52.5
 31
0.0
  0
LINE
  8
0
  6
CONTINUOUS
 62
   249
 10
73.500004
 20
102.5
 30
0.0
 11
80.0
 21
102.5
 31
0.0
  0
LINE
  8
0
  6
CONTINUOUS
 62
   249
 10
87.5
 20
102.5
 30
0.0
 11
81.756076
 21
99.285297
 31
0.0
  0
LINE
  8
0
  6
CONTINUOUS
 62
   249
 10
105.0
 20
95.0
 30
0.0
 11
99.256076
 21
91.785297
 31
0.0
  0
LINE
  8
0
  6
CONTINUOUS
 62
   249
 10
105.0
 20
95.0
 30
0.0
 11
110.0
 21
95.0
 31
0.0
  0
LINE
  8
0
  6
CONTINUOUS
 62
   249
 10
125.0
 20
87.5
 30
0.0
 11
132.5
 21
87.5
 31
0.0
  0
LINE
  8
0
  6
CONTINUOUS
 62
   249
 10
125.0
 20
87.5
 30
0.0
 11
119.256076
 21
84.285297
 31
0.0
  0
LINE
  8
0
  6
CONTINUOUS
 62
   249
 10
142.5
 20
80.0
 30
0.0
 11
136.756076
 21
76.785297
 31
0.0
  0
LINE
  8
0
  6
CONTINUOUS
 62
   249
 10
142.5
 20
80.0
 30
0.0
 11
147.5
 21
80.0
 31
0.0
  0
LINE
  8
0
  6
CONTINUOUS
 62
   249
 10
155.0
 20
72.5
 30
0.0
 11
149.256076
 21
69.285297
 31
0.0
  0
LINE
  8
0
  6
CONTINUOUS
 62
   249
 10
155.0
 20
72.5
 30
0.0
 11
160.0
 21
72.5
 31
0.0
  0
LINE
  8
0
  6
CONTINUOUS
 62
   249
 10
100.0
 20
95.0
 30
0.0
 11
57.5
 21
95.0
 31
0.0
  0
LINE
  8
0
  6
CONTINUOUS
 62
   249
 10
120.0
 20
87.5
 30
0.0
 11
57.5
 21
87.5
 31
0.0
  0
LINE
  8
0
  6
CONTINUOUS
 62
   249
 10
137.5
 20
80.0
 30
0.0
 11
57.5
 21
80.0
 31
0.0
  0
LINE
  8
0
  6
CONTINUOUS
 62
   249
 10
67.5
 20
72.5
 30
0.0
 11
57.5
 21
72.5
 31
0.0
  0
LINE
  8
0
  6
CONTINUOUS
 62
   249
 10
90.0
 20
72.5
 30
0.0
 11
73.500004
 21
72.5
 31
0.0
  0
LINE
  8
0
  6
CONTINUOUS
 62
   249
 10
90.0
 20
72.5
 30
0.0
 11
150.0
 21
72.5
 31
0.0
  0
LINE
  8
0
  6
CONTINUOUS
 62
   249
 10
155.0
 20
65.0
 30
0.0
 11
57.5
 21
65.0
 31
0.0
  0
LINE
  8
0
  6
CONTINUOUS
 62
   249
 10
155.0
 20
60.0
 30
0.0
 11
57.5
 21
60.0
 31
0.0
  0
LINE
  8
0
  6
CONTINUOUS
 62
   249
 10
85.0
 20
112.5
 30
0.0
 11
85.0
 21
107.5
 31
0.0
  0
LINE
  8
0
  6
CONTINUOUS
 62
   249
 10
102.5
 20
115.0
 30
0.0
 11
102.5
 21
107.5
 31
0.0
  0
LINE
  8
0
  6
CONTINUOUS
 62
   249
 10
122.5
 20
115.0
 30
0.0
 11
122.5
 21
107.5
 31
0.0
  0
LINE
  8
0
  6
CONTINUOUS
 62
   249
 10
140.0
 20
115.0
 30
0.0
 11
140.0
 21
107.5
 31
0.0
  0
LINE
  8
0
  6
CONTINUOUS
 62
   249
 10
152.5
 20
115.0
 30
0.0
 11
152.5
 21
114.999975
 31
0.0
  0
LINE
  8
0
  6
DASHED
 62
   249
 10
85.0
 20
107.5
 30
0.0
 11
85.0
 21
101.100824
 31
0.0
  0
LINE
  8
0
  6
DASHED
 62
   249
 10
102.5
 20
107.5
 30
0.0
 11
102.5
 21
93.600824
 31
0.0
  0
LINE
  8
0
  6
DASHED
 62
   249
 10
122.5
 20
107.5
 30
0.0
 11
122.5
 21
86.100824
 31
0.0
  0
LINE
  8
0
  6
DASHED
 62
   249
 10
140.0
 20
107.5
 30
0.0
 11
140.0
 21
78.600824
 31
0.0
  0
LINE
  8
0
  6
DASHED
 62
   249
 10
152.5
 20
107.5
 30
0.0
 11
152.5
 21
71.100824
 31
0.0
  0
TEXT
  8
0
  6
DASHED
 62
   249
 10
80.697373
 20
103.403492
 30
0.0
 40
2.0
  1
A
  7
ROMANS
  0
TEXT
  8
0
  6
DASHED
 62
   249
 10
99.143373
 20
96.274588
 30
0.0
 40
2.0
  1
B
  7
ROMANS
  0
TEXT
  8
0
  6
DASHED
 62
   249
 10
118.555109
 20
88.134364
 30
0.0
 40
2.0
  1
C
  7
ROMANS
  0
TEXT
  8
0
  6
DASHED
 62
   249
 10
135.984014
 20
80.755752
 30
0.0
 40
2.0
  1
D
  7
ROMANS
  0
TEXT
  8
0
  6
DASHED
 62
   249
 10
148.171573
 20
73.364654
 30
0.0
 40
2.0
  1
E
  7
ROMANS
  0
TEXT
  8
0
  6
DASHED
 62
   249
 10
158.566284
 20
65.736332
 30
0.0
 40
2.0
  1
F
  0
LINE
  8
0
  6
CENTER
 62
   249
 10
57.5
 20
52.5
 30
0.0
 11
250.0
 21
52.5
 31
0.0
  0
LINE
  8
0
  6
CONTINUOUS
 62
   249
 10
170.0
 20
65.0
 30
0.0
 11
177.5
 21
65.0
 31
0.0
  0
LINE
  8
0
  6
CONTINUOUS
 62
   249
 10
177.5
 20
65.0
 30
0.0
 11
177.5
 21
52.5
 31
0.0
  0
LINE
  8
0
  6
CONTINUOUS
 62
   249
 10
160.0
 20
72.5
 30
0.0
 11
182.5
 21
72.5
 31
0.0
  0
LINE
  8
0
  6
CONTINUOUS
 62
   249
 10
182.5
 20
72.5
 30
0.0
 11
182.5
 21
52.5
 31
0.0
  0
LINE
  8
0
  6
CONTINUOUS
 62
   249
 10
195.0
 20
56.499996
 30
0.0
 11
195.0
 21
52.5
 31
0.0
  0
LINE
  8
0
  6
CONTINUOUS
 62
   249
 10
195.0
 20
75.0
 30
0.0
 11
195.0
 21
62.5
 31
0.0
  0
LINE
  8
0
  6
CONTINUOUS
 62
   249
 10
195.0
 20
80.0
 30
0.0
 11
195.0
 21
73.249065
 31
0.0
  0
LINE
  8
0
  6
CONTINUOUS
 62
   249
 10
147.5
 20
80.0
 30
0.0
 11
190.0
 21
80.0
 31
0.0
  0
LINE
  8
0
  6
CONTINUOUS
 62
   249
 10
132.5
 20
87.5
 30
0.0
 11
195.0
 21
87.5
 31
0.0
  0
LINE
  8
0
  6
CONTINUOUS
 62
   249
 10
110.0
 20
95.0
 30
0.0
 11
195.0
 21
95.0
 31
0.0
  0
LINE
  8
0
  6
CONTINUOUS
 62
   249
 10
195.0
 20
95.0
 30
0.0
 11
195.0
 21
80.0
 31
0.0
  0
LINE
  8
0
  6
CONTINUOUS
 62
   249
 10
87.5
 20
102.5
 30
0.0
 11
200.0
 21
102.5
 31
0.0
  0
LINE
  8
0
  6
CONTINUOUS
 62
   249
 10
200.0
 20
102.5
 30
0.0
 11
200.0
 21
72.5
 31
0.0
  0
LINE
  8
0
  6
CONTINUOUS
 62
   249
 10
185.51266
 20
130.0
 30
0.0
 11
177.5
 21
130.0
 31
0.0
  0
LINE
  8
0
  6
CONTINUOUS
 62
   249
 10
177.5
 20
130.0
 30
0.0
 11
177.5
 21
110.0
 31
0.0
  0
LINE
  8
0
  6
CONTINUOUS
 62
   249
 10
177.5
 20
110.0
 30
0.0
 11
162.5
 21
110.0
 31
0.0
  0
LINE
  8
0
  6
CONTINUOUS
 62
   249
 10
162.5
 20
110.0
 30
0.0
 11
162.5
 21
105.0
 31
0.0
  0
LINE
  8
0
  6
DASHED
 62
   249
 10
162.5
 20
105.0
 30
0.0
 11
162.5
 21
63.600824
 31
0.0
  0
LINE
  8
0
  6
CONTINUOUS
 62
   249
 10
155.0
 20
65.0
 30
0.0
 11
160.0
 21
65.0
 31
0.0
  0
LINE
  8
0
  6
CONTINUOUS
 62
   249
 10
160.0
 20
60.0
 30
0.0
 11
155.0
 21
60.0
 31
0.0
  0
LINE
  8
0
  6
CONTINUOUS
 62
   249
 10
160.0
 20
60.0
 30
0.0
 11
160.0
 21
62.5
 31
0.0
  0
LINE
  8
0
  6
CONTINUOUS
 62
   249
 10
165.0
 20
65.0
 30
0.0
 11
170.0
 21
65.0
 31
0.0
  0
LINE
  8
0
  6
CONTINUOUS
 62
   249
 10
165.0
 20
65.0
 30
0.0
 11
159.256076
 21
61.785297
 31
0.0
  0
LINE
  8
0
  6
CONTINUOUS
 62
   249
 10
80.0
 20
202.5
 30
0.0
 11
172.5
 21
202.5
 31
0.0
  0
TEXT
  8
0
  6
CENTER
 62
   249
 10
60.0
 20
220.855667
 30
0.0
 40
2.0
  1
101
  7
ROMANS
  0
TEXT
  8
0
  6
CONTINUOUS
 62
   249
 10
245.420304
 20
162.152419
 30
0.0
 40
2.0
  1
8A
  7
ROMANS
  0
TEXT
  8
0
  6
CONTINUOUS
 62
   249
 10
245.420304
 20
171.962947
 30
0.0
 40
2.0
  1
7A
  7
ROMANS
  0
TEXT
  8
0
  6
CONTINUOUS
 62
   249
 10
245.420304
 20
182.07474
 30
0.0
 40
2.0
  1
6A
  7
ROMANS
  0
TEXT
  8
0
  6
CONTINUOUS
 62
   249
 10
245.420304
 20
192.186533
 30
0.0
 40
2.0
  1
5A
  7
ROMANS
  0
TEXT
  8
0
  6
CONTINUOUS
 62
   249
 10
245.420304
 20
202.448958
 30
0.0
 40
2.0
  1
4A
  7
ROMANS
  0
TEXT
  8
0
  6
CONTINUOUS
 62
   249
 10
245.420304
 20
211.958222
 30
0.0
 40
2.0
  1
3A
  7
ROMANS
  0
LINE
  8
0
  6
CONTINUOUS
 62
   249
 10
230.0
 20
160.0
 30
0.0
 11
232.5
 21
160.0
 31
0.0
  0
LINE
  8
0
  6
CONTINUOUS
 62
   249
 10
230.0
 20
170.0
 30
0.0
 11
232.5
 21
170.0
 31
0.0
  0
LINE
  8
0
  6
CONTINUOUS
 62
   249
 10
230.0
 20
180.0
 30
0.0
 11
232.5
 21
180.0
 31
0.0
  0
LINE
  8
0
  6
CONTINUOUS
 62
   249
 10
230.0
 20
190.0
 30
0.0
 11
232.5
 21
190.0
 31
0.0
  0
LINE
  8
0
  6
CONTINUOUS
 62
   249
 10
230.0
 20
200.0
 30
0.0
 11
232.5
 21
200.0
 31
0.0
  0
LINE
  8
0
  6
CONTINUOUS
 62
   249
 10
230.0
 20
210.0
 30
0.0
 11
232.5
 21
210.0
 31
0.0
  0
LINE
  8
0
  6
CONTINUOUS
 62
   249
 10
227.5
 20
150.0
 30
0.0
 11
228.5
 21
151.0
 31
0.0
  0
LINE
  8
0
  6
CONTINUOUS
 62
   249
 10
227.5
 20
140.0
 30
0.0
 11
228.5
 21
139.0
 31
0.0
  0
LINE
  8
0
  6
CONTINUOUS
 62
   249
 10
227.5
 20
150.0
 30
0.0
 11
227.5
 21
140.0
 31
0.0
  0
LINE
  8
0
  6
CONTINUOUS
 62
   249
 10
227.5
 20
160.0
 30
0.0
 11
228.5
 21
159.0
 31
0.0
  0
LINE
  8
0
  6
CONTINUOUS
 62
   249
 10
227.5
 20
210.0
 30
0.0
 11
228.5
 21
211.0
 31
0.0
  0
LINE
  8
0
  6
CONTINUOUS
 62
   249
 10
227.5
 20
210.0
 30
0.0
 11
227.5
 21
180.0
 31
0.0
  0
LINE
  8
0
 62
   249
 10
245.0
 20
165.0
 30
0.0
 11
239.2
 21
161.5
 31
0.0
  0
LINE
  8
0
 62
   249
 10
238.88095
 20
161.944425
 30
0.0
 11
239.560313
 21
161.008681
 31
0.0
  0
LINE
  8
0
 62
   249
 10
240.0
 20
160.0
 30
0.0
 11
240.0
 21
162.9
 31
0.0
  0
LINE
  8
0
 62
   249
 10
237.5
 20
160.0
 30
0.0
 11
240.0
 21
160.0
 31
0.0
  0
LINE
  8
0
 62
   249
 10
232.5
 20
160.0
 30
0.0
 11
237.5
 21
160.0
 31
0.0
  0
LINE
  8
0
 62
   249
 10
232.5
 20
180.0
 30
0.0
 11
237.5
 21
180.0
 31
0.0
  0
LINE
  8
0
 62
   249
 10
237.5
 20
180.0
 30
0.0
 11
240.0
 21
180.0
 31
0.0
  0
LINE
  8
0
 62
   249
 10
240.0
 20
180.0
 30
0.0
 11
240.0
 21
182.9
 31
0.0
  0
LINE
  8
0
 62
   249
 10
238.88095
 20
181.944425
 30
0.0
 11
239.560313
 21
181.008681
 31
0.0
  0
LINE
  8
0
 62
   249
 10
245.0
 20
185.0
 30
0.0
 11
239.2
 21
181.5
 31
0.0
  0
LINE
  8
0
 62
   249
 10
245.0
 20
205.0
 30
0.0
 11
239.2
 21
201.5
 31
0.0
  0
LINE
  8
0
 62
   249
 10
238.88095
 20
201.944425
 30
0.0
 11
239.560313
 21
201.008681
 31
0.0
  0
LINE
  8
0
 62
   249
 10
240.0
 20
200.0
 30
0.0
 11
240.0
 21
202.9
 31
0.0
  0
LINE
  8
0
 62
   249
 10
237.5
 20
200.0
 30
0.0
 11
240.0
 21
200.0
 31
0.0
  0
LINE
  8
0
 62
   249
 10
232.5
 20
200.0
 30
0.0
 11
237.5
 21
200.0
 31
0.0
  0
LINE
  8
0
  6
CONTINUOUS
 62
   249
 10
227.5
 20
135.0
 30
0.0
 11
217.950615
 21
135.0
 31
0.0
  0
LINE
  8
0
  6
CONTINUOUS
 62
   249
 10
245.0
 20
215.0
 30
0.0
 11
250.0
 21
215.0
 31
0.0
  0
LINE
  8
0
  6
CONTINUOUS
 62
   249
 10
245.0
 20
205.0
 30
0.0
 11
250.0
 21
205.0
 31
0.0
  0
LINE
  8
0
  6
CONTINUOUS
 62
   249
 10
245.0
 20
195.0
 30
0.0
 11
250.0
 21
195.0
 31
0.0
  0
LINE
  8
0
  6
CONTINUOUS
 62
   249
 10
245.0
 20
185.0
 30
0.0
 11
250.0
 21
185.0
 31
0.0
  0
LINE
  8
0
  6
CONTINUOUS
 62
   249
 10
245.0
 20
175.0
 30
0.0
 11
250.0
 21
175.0
 31
0.0
  0
LINE
  8
0
  6
CONTINUOUS
 62
   249
 10
245.0
 20
165.0
 30
0.0
 11
250.0
 21
165.0
 31
0.0
  0
LINE
  8
0
 62
   249
 10
232.5
 20
140.0
 30
0.0
 11
237.5
 21
140.0
 31
0.0
  0
LINE
  8
0
  6
CONTINUOUS
 62
   249
 10
230.0
 20
140.0
 30
0.0
 11
232.5
 21
140.0
 31
0.0
  0
LINE
  8
0
  6
CONTINUOUS
 62
   249
 10
230.0
 20
150.0
 30
0.0
 11
232.5
 21
150.0
 31
0.0
  0
LINE
  8
0
 62
   249
 10
237.5
 20
140.0
 30
0.0
 11
240.0
 21
140.0
 31
0.0
  0
LINE
  8
0
 62
   249
 10
240.0
 20
140.0
 30
0.0
 11
240.0
 21
142.9
 31
0.0
  0
LINE
  8
0
 62
   249
 10
245.0
 20
145.0
 30
0.0
 11
239.2
 21
141.5
 31
0.0
  0
LINE
  8
0
 62
   249
 10
238.88095
 20
141.944425
 30
0.0
 11
239.560313
 21
141.008681
 31
0.0
  0
LINE
  8
0
  6
CONTINUOUS
 62
   249
 10
245.0
 20
155.0
 30
0.0
 11
250.0
 21
155.0
 31
0.0
  0
LINE
  8
0
  6
CONTINUOUS
 62
   249
 10
245.0
 20
145.0
 30
0.0
 11
250.0
 21
145.0
 31
0.0
  0
LINE
  8
0
  6
CONTINUOUS
 62
   249
 10
227.5
 20
180.0
 30
0.0
 11
227.5
 21
160.0
 31
0.0
  0
LINE
  8
0
  6
CENTER
 62
   249
 10
250.0
 20
212.5
 30
0.0
 11
250.0
 21
220.0
 31
0.0
  0
LINE
  8
0
  6
CENTER
 62
   249
 10
250.0
 20
220.0
 30
0.0
 11
57.5
 21
220.0
 31
0.0
  0
TEXT
  8
0
  6
CENTER
 62
   249
 10
245.501084
 20
152.37135
 30
0.0
 40
2.0
  1
9A
  7
ROMANS
  0
TEXT
  8
0
  6
CENTER
 62
   249
 10
243.533022
 20
141.466682
 30
0.0
 40
2.0
  1
10A
  7
ROMANS
  0
LINE
  8
0
  6
CONTINUOUS
 62
   249
 10
227.5
 20
145.0
 30
0.0
 11
222.5
 21
145.0
 31
0.0
  0
LINE
  8
0
  6
CONTINUOUS
 62
   249
 10
227.5
 20
135.0
 30
0.0
 11
250.0
 21
135.0
 31
0.0
  0
LINE
  8
0
  6
CONTINUOUS
 62
   249
 10
243.838166
 20
133.592819
 30
0.0
 11
245.757416
 21
136.280896
 31
0.0
  0
TEXT
  8
0
  6
CONTINUOUS
 62
   249
 10
247.137977
 20
136.707347
 30
0.0
 40
2.0
  1
9
  7
ROMANS
  0
TEXT
  8
0
  6
CONTINUOUS
 62
   249
 10
228.196132
 20
131.142085
 30
0.0
 40
2.0
  1
SERIAL PORT
  7
ROMANS
  0
LINE
  8
0
  6
DASHED
 62
   249
 10
195.0
 20
52.5
 30
0.0
 11
195.0
 21
45.0
 31
0.0
  0
LINE
  8
0
  6
DASHED
 62
   249
 10
200.0
 20
52.5
 30
0.0
 11
200.0
 21
45.0
 31
0.0
  0
TEXT
  8
0
  6
CONTINUOUS
 62
   249
 10
263.732328
 20
244.006967
 30
0.0
 40
2.0
  1
L3(T)
  7
ROMANS
 11
263.732328
 21
243.3403
 31
0.0
 73
     1
  0
TEXT
  8
0
  6
CONTINUOUS
 62
   249
 10
263.732328
 20
248.928359
 30
0.0
 40
2.0
  1
L2(S)
  7
ROMANS
 11
263.732328
 21
248.261693
 31
0.0
 73
     1
  0
TEXT
  8
0
  6
CONTINUOUS
 62
   249
 10
263.732328
 20
253.985054
 30
0.0
 40
2.0
  1
L1(R)
  7
ROMANS
 11
263.732328
 21
253.318387
 31
0.0
 73
     1
  0
LINE
  8
0
  6
DASHED
 62
   249
 10
285.0
 20
210.189992
 30
0.0
 11
280.0
 21
210.189992
 31
0.0
  0
LINE
  8
0
  6
CONTINUOUS
 62
   249
 10
295.0
 20
227.5
 30
0.0
 11
294.5
 21
227.0
 31
0.0
  0
LINE
  8
0
  6
CONTINUOUS
 62
   249
 10
295.0
 20
227.5
 30
0.0
 11
294.5
 21
228.0
 31
0.0
  0
LINE
  8
0
  6
CONTINUOUS
 62
   249
 10
295.0
 20
227.5
 30
0.0
 11
295.5
 21
228.0
 31
0.0
  0
LINE
  8
0
  6
CONTINUOUS
 62
   249
 10
295.0
 20
227.5
 30
0.0
 11
295.5
 21
227.0
 31
0.0
  0
LINE
  8
0
  6
CONTINUOUS
 62
   249
 10
290.0
 20
227.5
 30
0.0
 11
289.5
 21
228.0
 31
0.0
  0
LINE
  8
0
  6
CONTINUOUS
 62
   249
 10
290.0
 20
227.5
 30
0.0
 11
289.5
 21
227.0
 31
0.0
  0
LINE
  8
0
  6
CONTINUOUS
 62
   249
 10
290.0
 20
227.5
 30
0.0
 11
290.5
 21
227.0
 31
0.0
  0
LINE
  8
0
  6
CONTINUOUS
 62
   249
 10
290.0
 20
227.5
 30
0.0
 11
290.5
 21
228.0
 31
0.0
  0
LINE
  8
0
  6
CONTINUOUS
 62
   249
 10
285.0
 20
227.5
 30
0.0
 11
284.5
 21
227.0
 31
0.0
  0
LINE
  8
0
  6
CONTINUOUS
 62
   249
 10
285.0
 20
227.5
 30
0.0
 11
285.5
 21
228.0
 31
0.0
  0
LINE
  8
0
  6
CONTINUOUS
 62
   249
 10
285.0
 20
227.5
 30
0.0
 11
285.5
 21
227.0
 31
0.0
  0
LINE
  8
0
  6
CONTINUOUS
 62
   249
 10
285.0
 20
227.5
 30
0.0
 11
284.5
 21
228.0
 31
0.0
  0
LINE
  8
0
  6
CONTINUOUS
 62
   249
 10
295.0
 20
220.0
 30
0.0
 11
292.5
 21
227.5
 31
0.0
  0
LINE
  8
0
  6
CONTINUOUS
 62
   249
 10
290.0
 20
220.0
 30
0.0
 11
287.5
 21
227.5
 31
0.0
  0
LINE
  8
0
  6
CONTINUOUS
 62
   249
 10
285.0
 20
220.0
 30
0.0
 11
282.5
 21
227.5
 31
0.0
  0
LINE
  8
0
  6
DASHED
 62
   249
 10
285.0
 20
240.0
 30
0.0
 11
285.0
 21
255.0
 31
0.0
  0
LINE
  8
0
  6
DASHED
 62
   249
 10
290.0
 20
240.0
 30
0.0
 11
290.0
 21
250.0
 31
0.0
  0
LINE
  8
0
  6
DASHED
 62
   249
 10
330.0
 20
255.0
 30
0.0
 11
272.5
 21
255.0
 31
0.0
  0
LINE
  8
0
  6
DASHED
 62
   249
 10
330.0
 20
250.0
 30
0.0
 11
272.5
 21
250.0
 31
0.0
  0
LINE
  8
0
  6
DASHED
 62
   249
 10
330.0
 20
245.0
 30
0.0
 11
272.5
 21
245.0
 31
0.0
  0
LINE
  8
0
  6
DASHED
 62
   249
 10
295.0
 20
220.0
 30
0.0
 11
295.0
 21
187.5
 31
0.0
  0
LINE
  8
0
  6
DASHED
 62
   249
 10
295.0
 20
245.0
 30
0.0
 11
295.0
 21
227.5
 31
0.0
  0
LINE
  8
0
  6
DASHED
 62
   249
 10
290.0
 20
220.0
 30
0.0
 11
290.0
 21
187.5
 31
0.0
  0
LINE
  8
0
  6
DASHED
 62
   249
 10
290.0
 20
240.0
 30
0.0
 11
290.0
 21
227.5
 31
0.0
  0
LINE
  8
0
  6
DASHED
 62
   249
 10
285.0
 20
227.5
 30
0.0
 11
285.0
 21
240.0
 31
0.0
  0
LINE
  8
0
  6
DASHED
 62
   249
 10
285.0
 20
220.0
 30
0.0
 11
285.0
 21
187.5
 31
0.0
  0
LINE
  8
0
  6
DASHED
 62
   249
 10
295.0
 20
187.5
 30
0.0
 11
295.0
 21
162.5
 31
0.0
  0
LINE
  8
0
  6
DASHED
 62
   249
 10
290.0
 20
187.5
 30
0.0
 11
290.0
 21
155.0
 31
0.0
  0
LINE
  8
0
  6
DASHED
 62
   249
 10
285.0
 20
187.5
 30
0.0
 11
285.0
 21
162.5
 31
0.0
  0
LINE
  8
0
  6
DASHED
 62
   249
 10
290.069797
 20
190.189984
 30
0.0
 11
280.0
 21
190.189984
 31
0.0
  0
LINE
  8
0
  6
DASHED
 62
   249
 10
295.006921
 20
170.189984
 30
0.0
 11
280.0
 21
170.189984
 31
0.0
  0
ARC
  8
0
  6
CONTINUOUS
 62
   249
 10
252.5
 20
135.0
 30
0.0
 40
2.5
 50
90.0
 51
270.0
  0
LINE
  8
0
  6
CONTINUOUS
 62
   249
 10
251.819436
 20
135.49
 30
0.0
 11
251.819436
 21
134.51
 31
0.0
  0
LINE
  8
0
  6
CONTINUOUS
 62
   249
 10
251.819436
 20
134.51
 30
0.0
 11
255.249436
 21
134.51
 31
0.0
  0
LINE
  8
0
  6
CONTINUOUS
 62
   249
 10
255.249436
 20
134.51
 30
0.0
 11
255.249436
 21
135.49
 31
0.0
  0
LINE
  8
0
  6
CONTINUOUS
 62
   249
 10
255.249436
 20
135.49
 30
0.0
 11
251.819436
 21
135.49
 31
0.0
  0
LINE
  8
0
  6
DASHED
 62
   249
 10
57.5
 20
205.0
 30
0.0
 11
52.5
 21
205.0
 31
0.0
  0
LINE
  8
0
  6
DASHED
 62
   249
 10
57.5
 20
200.0
 30
0.0
 11
52.5
 21
200.0
 31
0.0
  0
TEXT
  8
0
  6
DASHED
 62
   249
 10
42.5
 20
205.0
 30
0.0
 40
2.0
  1
1)
  7
ROMANS
  0
LINE
  8
0
  6
DASHED
 62
   249
 10
57.5
 20
102.5
 30
0.0
 11
52.5
 21
102.5
 31
0.0
  0
LINE
  8
0
  6
DASHED
 62
   249
 10
57.5
 20
95.0
 30
0.0
 11
52.5
 21
95.0
 31
0.0
  0
LINE
  8
0
  6
DASHED
 62
   249
 10
57.5
 20
87.5
 30
0.0
 11
52.5
 21
87.5
 31
0.0
  0
LINE
  8
0
  6
DASHED
 62
   249
 10
57.5
 20
80.0
 30
0.0
 11
52.5
 21
80.0
 31
0.0
  0
LINE
  8
0
  6
DASHED
 62
   249
 10
57.5
 20
72.5
 30
0.0
 11
52.5
 21
72.5
 31
0.0
  0
LINE
  8
0
  6
DASHED
 62
   249
 10
57.5
 20
60.0
 30
0.0
 11
52.5
 21
60.0
 31
0.0
  0
LINE
  8
0
  6
CONTINUOUS
 62
   249
 10
50.0
 20
95.0
 30
0.0
 11
50.0
 21
87.499655
 31
0.0
  0
LINE
  8
0
  6
CONTINUOUS
 62
   249
 10
50.0
 20
95.0
 30
0.0
 11
51.0
 21
96.0
 31
0.0
  0
LINE
  8
0
  6
CONTINUOUS
 62
   249
 10
50.0
 20
87.499655
 30
0.0
 11
51.0
 21
86.499655
 31
0.0
  0
TEXT
  8
0
  6
CONTINUOUS
 62
   249
 10
42.5
 20
101.363971
 30
0.0
 40
2.0
  1
3)
  7
ROMANS
  0
TEXT
  8
0
  6
CONTINUOUS
 62
   249
 10
42.5
 20
90.187933
 30
0.0
 40
2.0
  1
4)
  7
ROMANS
  0
TEXT
  8
0
  6
CONTINUOUS
 62
   249
 10
42.5
 20
79.04309
 30
0.0
 40
2.0
  1
5)
  7
ROMANS
  0
TEXT
  8
0
  6
CONTINUOUS
 62
   249
 10
42.5
 20
71.460295
 30
0.0
 40
2.0
  1
6)
  7
ROMANS
  0
LINE
  8
0
  6
CONTINUOUS
 62
   249
 10
67.5
 20
102.5
 30
0.0
 11
57.5
 21
102.5
 31
0.0
  0
LINE
  8
0
  6
CONTINUOUS
 62
   249
 10
82.5
 20
102.5
 30
0.0
 11
77.5
 21
102.5
 31
0.0
  0
TEXT
  8
0
  6
CONTINUOUS
 62
   249
 10
59.015563
 20
103.513871
 30
0.0
 40
2.0
  1
101
  7
ROMANS
  0
TEXT
  8
0
  6
CONTINUOUS
 62
   249
 10
59.015563
 20
99.860947
 30
0.0
 40
2.0
  1
17A
  7
ROMANS
  0
TEXT
  8
0
  6
CONTINUOUS
 62
   249
 10
59.015563
 20
92.450076
 30
0.0
 40
2.0
  1
108:68
  7
ROMANS
  0
TEXT
  8
0
  6
CONTINUOUS
 62
   249
 10
59.015563
 20
84.89594
 30
0.0
 40
2.0
  1
108:80
  7
ROMANS
  0
TEXT
  8
0
  6
CONTINUOUS
 62
   249
 10
59.015563
 20
77.319764
 30
0.0
 40
2.0
  1
108:77
  7
ROMANS
  0
TEXT
  8
0
  6
CONTINUOUS
 62
   249
 10
59.015563
 20
73.523575
 30
0.0
 40
2.0
  1
101
  7
ROMANS
  0
TEXT
  8
0
  6
CONTINUOUS
 62
   249
 10
59.015563
 20
62.16223
 30
0.0
 40
2.0
  1
108:70
  7
ROMANS
  0
TEXT
  8
0
  6
CONTINUOUS
 62
   249
 10
59.015563
 20
57.098698
 30
0.0
 40
2.0
  1
108:71
  7
ROMANS
  0
TEXT
  8
0
  6
CONTINUOUS
 62
   249
 10
180.363314
 20
53.37118
 30
0.0
 40
2.0
  1
108:72
 50
90.0
  7
ROMANS
  0
TEXT
  8
0
  6
CONTINUOUS
 62
   249
 10
185.598657
 20
53.37118
 30
0.0
 40
2.0
  1
108:75
 50
90.0
  7
ROMANS
  0
TEXT
  8
0
  6
CONTINUOUS
 62
   249
 10
189.153096
 20
53.393221
 30
0.0
 40
2.0
  1
101
 50
90.0
  7
ROMANS
  0
TEXT
  8
0
  6
CONTINUOUS
 62
   249
 10
193.143909
 20
53.37118
 30
0.0
 40
2.0
  1
13A
 50
90.0
  7
ROMANS
  0
TEXT
  8
0
  6
CONTINUOUS
 62
   249
 10
197.772199
 20
53.37118
 30
0.0
 40
2.0
  1
2A
 50
90.0
  7
ROMANS
  0
TEXT
  8
0
  6
CONTINUOUS
 62
   249
 10
202.960304
 20
53.37118
 30
0.0
 40
2.0
  1
1A
 50
90.0
  7
ROMANS
  0
TEXT
  8
0
  6
CONTINUOUS
 62
   249
 10
213.317376
 20
53.37118
 30
0.0
 40
2.0
  1
18A
 50
90.0
  7
ROMANS
  0
TEXT
  8
0
  6
CONTINUOUS
 62
   249
 10
222.603098
 20
53.69197
 30
0.0
 40
2.0
  1
108:61
 50
90.0
  7
ROMANS
  0
TEXT
  8
0
  6
CONTINUOUS
 62
   249
 10
227.887765
 20
53.37118
 30
0.0
 40
2.0
  1
108:62
 50
90.0
  7
ROMANS
  0
TEXT
  8
0
  6
CONTINUOUS
 62
   249
 10
240.149262
 20
53.69197
 30
0.0
 40
2.0
  1
108:63
 50
90.0
  7
ROMANS
  0
TEXT
  8
0
  6
CONTINUOUS
 62
   249
 10
240.649902
 20
216.704107
 30
0.0
 40
2.0
  1
101
  7
ROMANS
  0
TEXT
  8
0
  6
CONTINUOUS
 62
   249
 10
42.490901
 20
58.99157
 30
0.0
 40
2.0
  1
7)
  7
ROMANS
  0
TEXT
  8
0
  6
CONTINUOUS
 62
   249
 10
58.08282
 20
46.70548
 30
0.0
 40
2.0
  1
DIM. 168 X 193
  7
ROMANS
  0
LINE
  8
0
  6
DASHED
 62
   249
 10
250.0
 20
215.0
 30
0.0
 11
285.0
 21
215.0
 31
0.0
  0
LINE
  8
0
  6
DASHED
 62
   249
 10
250.0
 20
195.0
 30
0.0
 11
290.0
 21
195.0
 31
0.0
  0
LINE
  8
0
  6
DASHED
 62
   249
 10
250.0
 20
175.0
 30
0.0
 11
295.0
 21
175.0
 31
0.0
  0
LINE
  8
0
  6
DASHED
 62
   249
 10
250.0
 20
205.0
 30
0.0
 11
260.0
 21
205.0
 31
0.0
  0
LINE
  8
0
  6
DASHED
 62
   249
 10
260.0
 20
205.0
 30
0.0
 11
260.0
 21
165.0
 31
0.0
  0
LINE
  8
0
  6
DASHED
 62
   249
 10
280.0
 20
210.189992
 30
0.0
 11
280.0
 21
162.5
 31
0.0
  0
LINE
  8
0
  6
DASHED
 62
   249
 10
250.0
 20
165.0
 30
0.0
 11
280.0
 21
165.0
 31
0.0
  0
LINE
  8
0
  6
DASHED
 62
   249
 10
250.0
 20
185.0
 30
0.0
 11
260.0
 21
185.0
 31
0.0
  0
LINE
  8
0
  6
DASHED
 62
   249
 10
250.0
 20
145.0
 30
0.0
 11
293.743055
 21
145.0
 31
0.0
  0
LINE
  8
0
  6
DASHED
 62
   249
 10
255.0
 20
135.0
 30
0.0
 11
265.0
 21
135.0
 31
0.0
  0
TEXT
  8
0
  6
DASHED
 62
   249
 10
267.5
 20
134.008638
 30
0.0
 40
2.0
  1
2)
  7
ROMANS
  0
TEXT
  8
0
  6
DASHED
 62
   249
 10
312.439364
 20
156.543199
 30
0.0
 40
2.0
  1
1) EXTERNAL BLOCKING
  7
ROMANS
  0
TEXT
  8
0
  6
DASHED
 62
   249
 10
313.834402
 20
153.209865
 30
0.0
 40
2.0
  1
  EXTERN BLOCKERING
  7
ROMANS
  0
TEXT
  8
0
  6
DASHED
 62
   249
 10
312.439364
 20
144.876532
 30
0.0
 40
2.0
  1
2) BUS CONNECTION MODULE
  7
ROMANS
  0
TEXT
  8
0
  6
DASHED
 62
   249
 10
313.691315
 20
141.543199
 30
0.0
 40
2.0
  1
  BUSSANSLUTNINGSMODUL
  7
ROMANS
  0
TEXT
  8
0
  6
DASHED
 62
   249
 10
312.439364
 20
133.209865
 30
0.0
 40
2.0
  1
3) TRIP
  7
ROMANS
  0
TEXT
  8
0
  6
DASHED
 62
   249
 10
313.778379
 20
129.876532
 30
0.0
 40
2.0
  1
  UTLÖSNING
  7
ROMANS
  0
TEXT
  8
0
  6
DASHED
 62
   249
 10
312.439364
 20
121.543199
 30
0.0
 40
2.0
  1
4) ALARM ETC.
  7
ROMANS
  0
TEXT
  8
0
  6
DASHED
 62
   249
 10
313.778379
 20
118.209865
 30
0.0
 40
2.0
  1
  SIGNAL MM.
  7
ROMANS
  0
TEXT
  8
0
  6
DASHED
 62
   249
 10
312.439364
 20
109.876532
 30
0.0
 40
2.0
  1
5) START, BLOCKING ETC.
  7
ROMANS
  0
TEXT
  8
0
  6
DASHED
 62
   249
 10
313.778379
 20
106.543199
 30
0.0
 40
2.0
  1
  START, BLOCKERING MM.
  7
ROMANS
  0
TEXT
  8
0
  6
DASHED
 62
   249
 10
312.439364
 20
86.543199
 30
0.0
 40
2.0
  1
7) INTERNAL RELAY FAULT
  7
ROMANS
  0
TEXT
  8
0
  6
DASHED
 62
   249
 10
313.763163
 20
83.209865
 30
0.0
 40
2.0
  1
  INTERNT RELÄFEL
  7
ROMANS
  0
TEXT
  8
0
  6
DASHED
 62
   249
 10
87.5
 20
215.0
 30
0.0
 40
2.0
  1
RS 10150-AA SPAJ 160 C
  7
ROMANS
  0
LINE
  8
0
  6
HIDDEN
 62
   249
 10
187.5
 20
145.0
 30
0.0
 11
217.950615
 21
145.0
 31
0.0
  0
TEXT
  8
0
  6
HIDDEN
 62
   249
 10
188.621435
 20
141.141576
 30
0.0
 40
1.5
  1
RELAY RESET
  0
TEXT
  8
0
  6
HIDDEN
 62
   249
 10
188.621435
 20
149.91858
 30
0.0
 40
1.5
  1
EXTERNAL TRIP
  0
LINE
  8
0
  6
CONTINUOUS
 62
   249
 10
187.5
 20
160.0
 30
0.0
 11
217.950615
 21
160.0
 31
0.0
  0
TEXT
  8
0
  6
HIDDEN
 62
   249
 10
188.591017
 20
157.259417
 30
0.0
 40
1.5
  1
RECONNECTION INHIBIT
  0
LINE
  8
0
  6
CONTINUOUS
 62
   249
 10
200.951366
 20
172.524423
 30
0.0
 11
200.951366
 21
170.736291
 31
0.0
  0
LINE
  8
0
  6
CONTINUOUS
 62
   249
 10
195.551846
 20
170.511542
 30
0.0
 11
198.427957
 21
173.3401
 31
0.0
  0
ARC
  8
0
  6
CONTINUOUS
 62
   249
 10
199.86257
 20
175.607688
 30
0.0
 40
4.998196
 50
206.402922
 51
282.21115
  0
LINE
  8
0
  6
CONTINUOUS
 62
   249
 10
197.997253
 20
173.877307
 30
0.0
 11
198.89793
 21
172.753558
 31
0.0
  0
LINE
  8
0
  6
CONTINUOUS
 62
   249
 10
193.167702
 20
171.679144
 30
0.0
 11
200.955907
 21
171.679144
 31
0.0
  0
LINE
  8
0
  6
CONTINUOUS
 62
   249
 10
193.13667
 20
172.524423
 30
0.0
 11
193.13667
 21
170.736291
 31
0.0
  0
LINE
  8
0
  6
HIDDEN
 62
   249
 10
187.5
 20
170.0
 30
0.0
 11
217.950615
 21
170.0
 31
0.0
  0
LINE
  8
0
  6
CONTINUOUS
 62
   249
 10
193.13667
 20
163.426637
 30
0.0
 11
193.13667
 21
161.638506
 31
0.0
  0
LINE
  8
0
  6
CONTINUOUS
 62
   249
 10
193.167702
 20
162.581359
 30
0.0
 11
200.955907
 21
162.581359
 31
0.0
  0
LINE
  8
0
  6
CONTINUOUS
 62
   249
 10
197.997253
 20
164.779522
 30
0.0
 11
198.89793
 21
163.655773
 31
0.0
  0
LINE
  8
0
  6
CONTINUOUS
 62
   249
 10
195.551846
 20
161.413756
 30
0.0
 11
198.427957
 21
164.242315
 31
0.0
  0
LINE
  8
0
  6
CONTINUOUS
 62
   249
 10
200.951366
 20
163.426637
 30
0.0
 11
200.951366
 21
161.638506
 31
0.0
  0
TEXT
  8
0
  6
HIDDEN
 62
   249
 10
188.580478
 20
166.542977
 30
0.0
 40
1.5
  1
EN
  0
TEXT
  8
0
  6
HIDDEN
 62
   249
 10
196.279814
 20
166.563748
 30
0.0
 40
1.5
  1
3I
  0
TEXT
  8
0
  6
HIDDEN
 62
   249
 10
209.959504
 20
165.029585
 30
0.0
 40
2.5
  1
3 I
  0
LINE
  8
0
  6
HIDDEN
 62
   249
 10
187.5
 20
185.0
 30
0.0
 11
217.950615
 21
185.0
 31
0.0
  0
TEXT
  8
0
  6
HIDDEN
 62
   249
 10
193.898311
 20
174.993768
 30
0.0
 40
1.5
  1
D
  7
GREEKC
  0
TEXT
  8
0
  6
HIDDEN
 62
   249
 10
196.398311
 20
174.993768
 30
0.0
 40
1.5
  1
I2
  7
GREEKS
  0
LINE
  8
0
  6
CONTINUOUS
 62
   249
 10
193.13667
 20
179.928842
 30
0.0
 11
193.13667
 21
178.14071
 31
0.0
  0
LINE
  8
0
  6
CONTINUOUS
 62
   249
 10
193.167702
 20
179.083563
 30
0.0
 11
200.955907
 21
179.083563
 31
0.0
  0
LINE
  8
0
  6
CONTINUOUS
 62
   249
 10
197.997253
 20
181.281726
 30
0.0
 11
198.89793
 21
180.157977
 31
0.0
  0
LINE
  8
0
  6
CONTINUOUS
 62
   249
 10
195.551846
 20
177.91596
 30
0.0
 11
198.427957
 21
180.744519
 31
0.0
  0
LINE
  8
0
  6
CONTINUOUS
 62
   249
 10
200.951366
 20
179.928842
 30
0.0
 11
200.951366
 21
178.14071
 31
0.0
  0
TEXT
  8
0
  6
HIDDEN
 62
   249
 10
193.898311
 20
182.402127
 30
0.0
 40
1.5
  1
D
  7
GREEKC
  0
TEXT
  8
0
  6
HIDDEN
 62
   249
 10
196.37149
 20
182.385807
 30
0.0
 40
1.5
  1
I1
  7
GREEKS
  0
LINE
  8
0
  6
CONTINUOUS
 62
   249
 10
193.13667
 20
188.044742
 30
0.0
 11
193.13667
 21
186.256611
 31
0.0
  0
LINE
  8
0
  6
CONTINUOUS
 62
   249
 10
193.167702
 20
187.199463
 30
0.0
 11
200.955907
 21
187.199463
 31
0.0
  0
LINE
  8
0
  6
CONTINUOUS
 62
   249
 10
197.997253
 20
189.397626
 30
0.0
 11
198.89793
 21
188.273877
 31
0.0
  0
ARC
  8
0
  6
CONTINUOUS
 62
   249
 10
199.86257
 20
191.128008
 30
0.0
 40
4.998196
 50
206.402922
 51
282.21115
  0
LINE
  8
0
  6
CONTINUOUS
 62
   249
 10
195.551846
 20
186.031861
 30
0.0
 11
198.427957
 21
188.860419
 31
0.0
  0
LINE
  8
0
  6
CONTINUOUS
 62
   249
 10
200.951366
 20
188.044742
 30
0.0
 11
200.951366
 21
186.256611
 31
0.0
  0
TEXT
  8
0
  6
HIDDEN
 62
   249
 10
194.020574
 20
190.048757
 30
0.0
 40
1.5
  1
3Ib
  7
GREEKS
  0
LINE
  8
0
  6
CONTINUOUS
 62
   249
 10
200.951366
 20
195.06138
 30
0.0
 11
200.951366
 21
193.273249
 31
0.0
  0
LINE
  8
0
  6
CONTINUOUS
 62
   249
 10
195.551846
 20
193.048499
 30
0.0
 11
198.427957
 21
195.877058
 31
0.0
  0
LINE
  8
0
  6
CONTINUOUS
 62
   249
 10
197.997253
 20
196.414264
 30
0.0
 11
198.89793
 21
195.290515
 31
0.0
  0
LINE
  8
0
  6
CONTINUOUS
 62
   249
 10
193.167702
 20
194.216102
 30
0.0
 11
200.955907
 21
194.216102
 31
0.0
  0
LINE
  8
0
  6
CONTINUOUS
 62
   249
 10
193.13667
 20
195.06138
 30
0.0
 11
193.13667
 21
193.273249
 31
0.0
  0
TEXT
  8
0
  6
HIDDEN
 62
   249
 10
194.020574
 20
197.241637
 30
0.0
 40
1.5
  1
3Ia
  7
GREEKS
  0
TEXT
  8
0
  6
HIDDEN
 62
   249
 10
209.959504
 20
190.529612
 30
0.0
 40
2.5
  1
3 I
  0
TEXT
  8
0
  6
HIDDEN
 62
   249
 10
209.74993
 20
176.365252
 30
0.0
 40
2.339483
  1
D
  7
GREEKC
  0
TEXT
  8
0
  6
HIDDEN
 62
   249
 10
213.542477
 20
176.358415
 30
0.0
 40
2.5
  1
I
  7
GREEKS
  0
TEXT
  8
0
  6
HIDDEN
 62
   249
 10
188.580478
 20
196.84299
 30
0.0
 40
1.5
  1
EN
  0
LINE
  8
0
  6
CONTINUOUS
 62
   249
 10
157.5
 20
120.0
 30
0.0
 11
157.5
 21
115.0
 31
0.0
  0
LINE
  8
0
  6
CONTINUOUS
 62
   249
 10
157.5
 20
115.0
 30
0.0
 11
150.0
 21
115.0
 31
0.0
  0
LINE
  8
0
  6
CONTINUOUS
 62
   249
 10
150.0
 20
115.0
 30
0.0
 11
150.0
 21
120.0
 31
0.0
  0
LINE
  8
0
  6
CONTINUOUS
 62
   249
 10
150.0
 20
120.0
 30
0.0
 11
157.5
 21
120.0
 31
0.0
  0
TEXT
  8
0
  6
CONTINUOUS
 62
   249
 10
155.590828
 20
116.464455
 30
0.0
 40
2.5
  1
1
 11
155.590828
 21
115.631122
 31
0.0
 73
     1
  0
LINE
  8
0
  6
CONTINUOUS
 62
   249
 10
151.156967
 20
119.124549
 30
0.0
 11
153.502732
 21
117.789195
 31
0.0
  0
LINE
  8
0
  6
CONTINUOUS
 62
   249
 10
153.502732
 20
117.789195
 30
0.0
 11
151.156967
 21
116.599276
 31
0.0
  0
LINE
  8
0
  6
CONTINUOUS
 62
   249
 10
151.148925
 20
115.799262
 30
0.0
 11
153.532385
 21
116.987454
 31
0.0
  0
TEXT
  8
0
  6
CONTINUOUS
 62
   249
 10
173.523557
 20
158.587166
 30
0.0
 40
1.5
  1
SGB/4
  7
ROMANS
  0
LINE
  8
0
  6
CONTINUOUS
 62
   249
 10
155.0
 20
120.0
 30
0.0
 11
155.0
 21
154.295145
 31
0.0
  0
TEXT
  8
0
  6
CONTINUOUS
 62
   249
 10
173.499615
 20
151.139642
 30
0.0
 40
1.5
  1
SGB/5
  7
ROMANS
  0
LINE
  8
0
  6
CONTINUOUS
 62
   249
 10
97.5
 20
120.0
 30
0.0
 11
97.5
 21
122.5
 31
0.0
  0
LINE
  8
0
  6
CONTINUOUS
 62
   249
 10
97.5
 20
122.5
 30
0.0
 11
95.78221
 21
127.514966
 31
0.0
  0
LINE
  8
0
  6
CONTINUOUS
 62
   249
 10
90.0
 20
122.5
 30
0.0
 11
90.0
 21
146.954176
 31
0.0
  0
LINE
  8
0
  6
CONTINUOUS
 62
   249
 10
90.0
 20
120.0
 30
0.0
 11
90.0
 21
122.5
 31
0.0
  0
LINE
  8
0
  6
CONTINUOUS
 62
   249
 10
87.5
 20
142.5
 30
0.0
 11
87.5
 21
162.64644
 31
0.0
  0
LINE
  8
0
  6
CONTINUOUS
 62
   249
 10
85.0
 20
137.5
 30
0.0
 11
85.0
 21
171.890723
 31
0.0
  0
LINE
  8
0
  6
CONTINUOUS
 62
   249
 10
187.5
 20
194.176147
 30
0.0
 11
80.0
 21
194.176147
 31
0.0
  0
LINE
  8
0
  6
CONTINUOUS
 62
   249
 10
82.5
 20
137.5
 30
0.0
 11
82.5
 21
187.079083
 31
0.0
  0
LINE
  8
0
  6
CONTINUOUS
 62
   249
 10
80.0
 20
142.5
 30
0.0
 11
80.0
 21
194.176147
 31
0.0
  0
LINE
  8
0
  6
CONTINUOUS
 62
   249
 10
97.5
 20
127.5
 30
0.0
 11
97.5
 21
194.176147
 31
0.0
  0
LINE
  8
0
  6
CONTINUOUS
 62
   249
 10
100.0
 20
127.5
 30
0.0
 11
100.0
 21
187.079083
 31
0.0
  0
LINE
  8
0
  6
CONTINUOUS
 62
   249
 10
125.0
 20
127.5
 30
0.0
 11
125.0
 21
175.608011
 31
0.0
  0
LINE
  8
0
  6
CONTINUOUS
 62
   249
 10
102.5
 20
127.5
 30
0.0
 11
102.5
 21
171.890723
 31
0.0
  0
LINE
  8
0
  6
CONTINUOUS
 62
   249
 10
105.0
 20
127.5
 30
0.0
 11
105.0
 21
162.64644
 31
0.0
  0
LINE
  8
0
  6
CONTINUOUS
 62
   249
 10
107.5
 20
127.5
 30
0.0
 11
107.5
 21
146.954176
 31
0.0
  0
LINE
  8
0
  6
CONTINUOUS
 62
   249
 10
115.0
 20
127.5
 30
0.0
 11
115.0
 21
194.176147
 31
0.0
  0
LINE
  8
0
  6
CONTINUOUS
 62
   249
 10
117.5
 20
127.5
 30
0.0
 11
117.5
 21
190.562026
 31
0.0
  0
LINE
  8
0
  6
CONTINUOUS
 62
   249
 10
120.0
 20
127.5
 30
0.0
 11
120.0
 21
187.079083
 31
0.0
  0
LINE
  8
0
  6
CONTINUOUS
 62
   249
 10
122.5
 20
127.5
 30
0.0
 11
122.5
 21
179.055659
 31
0.0
  0
LINE
  8
0
  6
CONTINUOUS
 62
   249
 10
127.5
 20
127.5
 30
0.0
 11
127.5
 21
171.890723
 31
0.0
  0
LINE
  8
0
  6
CONTINUOUS
 62
   249
 10
130.0
 20
127.5
 30
0.0
 11
130.0
 21
162.64644
 31
0.0
  0
LINE
  8
0
  6
CONTINUOUS
 62
   249
 10
152.5
 20
120.0
 30
0.0
 11
152.5
 21
162.64644
 31
0.0
  0
LINE
  8
0
  6
CONTINUOUS
 62
   249
 10
145.0
 20
127.5
 30
0.0
 11
145.0
 21
175.608011
 31
0.0
  0
LINE
  8
0
  6
CONTINUOUS
 62
   249
 10
142.5
 20
127.5
 30
0.0
 11
142.5
 21
179.055659
 31
0.0
  0
LINE
  8
0
  6
CONTINUOUS
 62
   249
 10
140.0
 20
127.5
 30
0.0
 11
140.0
 21
190.562026
 31
0.0
  0
LINE
  8
0
  6
CONTINUOUS
 62
   249
 10
137.5
 20
127.5
 30
0.0
 11
137.5
 21
194.176147
 31
0.0
  0
TEXT
  8
0
  6
CONTINUOUS
 62
   249
 10
97.006088
 20
130.0
 30
0.0
 40
1.5
  1
SGR1/5
 50
90.0
  7
ROMANS
  0
TEXT
  8
0
  6
CONTINUOUS
 62
   249
 10
99.506088
 20
130.0
 30
0.0
 40
1.5
  1
SGR1/6
 50
90.0
  7
ROMANS
  0
TEXT
  8
0
  6
CONTINUOUS
 62
   249
 10
102.006088
 20
130.0
 30
0.0
 40
1.5
  1
SGR1/7
 50
90.0
  7
ROMANS
  0
TEXT
  8
0
  6
CONTINUOUS
 62
   249
 10
104.506088
 20
130.0
 30
0.0
 40
1.5
  1
SGR1/8
 50
90.0
  7
ROMANS
  0
TEXT
  8
0
  6
CONTINUOUS
 62
   249
 10
107.006088
 20
130.0
 30
0.0
 40
1.5
  1
SGR2/8
 50
90.0
  7
ROMANS
  0
TEXT
  8
0
  6
CONTINUOUS
 62
   249
 10
114.514055
 20
130.0
 30
0.0
 40
1.5
  1
SGR2/1
 50
90.0
  7
ROMANS
  0
TEXT
  8
0
  6
CONTINUOUS
 62
   249
 10
117.014055
 20
130.0
 30
0.0
 40
1.5
  1
SGR2/2
 50
90.0
  7
ROMANS
  0
TEXT
  8
0
  6
CONTINUOUS
 62
   249
 10
119.514055
 20
130.0
 30
0.0
 40
1.5
  1
SGR2/3
 50
90.0
  7
ROMANS
  0
TEXT
  8
0
  6
CONTINUOUS
 62
   249
 10
122.014055
 20
130.0
 30
0.0
 40
1.5
  1
SGR2/4
 50
90.0
  7
ROMANS
  0
TEXT
  8
0
  6
CONTINUOUS
 62
   249
 10
124.514055
 20
130.0
 30
0.0
 40
1.5
  1
SGR2/5
 50
90.0
  7
ROMANS
  0
TEXT
  8
0
  6
CONTINUOUS
 62
   249
 10
127.014055
 20
130.0
 30
0.0
 40
1.5
  1
SGR2/6
 50
90.0
  7
ROMANS
  0
TEXT
  8
0
  6
CONTINUOUS
 62
   249
 10
129.514055
 20
130.0
 30
0.0
 40
1.5
  1
SGR2/7
 50
90.0
  7
ROMANS
  0
TEXT
  8
0
  6
CONTINUOUS
 62
   249
 10
137.141516
 20
130.0
 30
0.0
 40
1.5
  1
SGR1/1
 50
90.0
  7
ROMANS
  0
TEXT
  8
0
  6
CONTINUOUS
 62
   249
 10
139.641516
 20
130.0
 30
0.0
 40
1.5
  1
SGR1/2
 50
90.0
  7
ROMANS
  0
TEXT
  8
0
  6
CONTINUOUS
 62
   249
 10
142.141516
 20
130.0
 30
0.0
 40
1.5
  1
SGR1/3
 50
90.0
  7
ROMANS
  0
TEXT
  8
0
  6
CONTINUOUS
 62
   249
 10
144.641516
 20
130.0
 30
0.0
 40
1.5
  1
SGR1/4
 50
90.0
  7
ROMANS
  0
TEXT
  8
0
  6
CONTINUOUS
 62
   249
 10
79.417989
 20
145.0
 30
0.0
 40
1.5
  1
SGF/1
 50
90.0
  7
ROMANS
  0
TEXT
  8
0
  6
CONTINUOUS
 62
   249
 10
86.917989
 20
145.0
 30
0.0
 40
1.5
  1
SGF/2
 50
90.0
  7
ROMANS
  0
TEXT
  8
0
  6
CONTINUOUS
 62
   249
 10
59.010339
 20
69.693734
 30
0.0
 40
2.0
  1
15A
  7
ROMANS
  0
CIRCLE
  8
0
  6
CONTINUOUS
 62
   249
 10
152.49809
 20
113.999976
 30
0.0
 40
1.0
  0
LINE
  8
0
  6
CONTINUOUS
 62
   249
 10
152.5
 20
112.999978
 30
0.0
 11
152.5
 21
107.5
 31
0.0
  0
TEXT
  8
0
  6
CONTINUOUS
 62
   249
 10
80.0
 20
112.5
 30
0.0
 40
1.5
  1
TS2
  7
ROMANS
  0
TEXT
  8
0
  6
CONTINUOUS
 62
   249
 10
97.5
 20
112.5
 30
0.0
 40
1.5
  1
SS3
  7
ROMANS
  0
TEXT
  8
0
  6
CONTINUOUS
 62
   249
 10
117.5
 20
112.5
 30
0.0
 40
1.5
  1
SS2
  7
ROMANS
  0
TEXT
  8
0
  6
CONTINUOUS
 62
   249
 10
135.0
 20
112.5
 30
0.0
 40
1.5
  1
SS1
  7
ROMANS
  0
TEXT
  8
0
  6
CONTINUOUS
 62
   249
 10
155.0
 20
112.5
 30
0.0
 40
1.5
  1
TS1
  7
ROMANS
  0
LINE
  8
0
  6
CONTINUOUS
 62
   249
 10
217.950615
 20
177.5
 30
0.0
 11
222.5
 21
177.5
 31
0.0
  0
LINE
  8
0
  6
CONTINUOUS
 62
   249
 10
222.5
 20
177.5
 30
0.0
 11
222.5
 21
145.0
 31
0.0
  0
LINE
  8
0
  6
CONTINUOUS
 62
   249
 10
217.950615
 20
165.0
 30
0.0
 11
220.0
 21
165.0
 31
0.0
  0
LINE
  8
0
  6
CONTINUOUS
 62
   249
 10
220.0
 20
165.0
 30
0.0
 11
220.0
 21
192.001316
 31
0.0
  0
LINE
  8
0
  6
CONTINUOUS
 62
   249
 10
220.0
 20
192.001316
 30
0.0
 11
217.950615
 21
192.001316
 31
0.0
  0
LINE
  8
0
  6
CONTINUOUS
 62
   249
 10
220.0
 20
185.0
 30
0.0
 11
227.5
 21
185.0
 31
0.0
  0
TEXT
  8
0
  6
CONTINUOUS
 62
   249
 10
58.078522
 20
43.342585
 30
0.0
 40
2.0
  1
RS 10150-AAA
  7
ROMANS
  0
LINE
  8
0
  6
CONTINUOUS
 62
   249
 10
285.0
 20
155.0
 30
0.0
 11
295.0
 21
155.0
 31
0.0
  0
LINE
  8
0
  6
CONTINUOUS
 62
   249
 10
295.0
 20
155.0
 30
0.0
 11
295.0
 21
154.1568
 31
0.0
  0
LINE
  8
0
  6
CONTINUOUS
 62
   249
 10
295.0
 20
150.0
 30
0.0
 11
285.0
 21
150.0
 31
0.0
  0
LINE
  8
0
  6
CONTINUOUS
 62
   249
 10
285.0
 20
150.0
 30
0.0
 11
285.0
 21
153.77532
 31
0.0
  0
LINE
  8
0
 62
   249
 10
288.743055
 20
150.026467
 30
0.0
 11
288.743055
 21
147.526467
 31
0.0
  0
ARC
  8
0
 62
   249
 10
289.993055
 20
150.092316
 30
0.0
 40
1.251733
 50
356.984476
 51
183.015524
  0
ARC
  8
0
 62
   249
 10
292.493055
 20
150.092316
 30
0.0
 40
1.251733
 50
356.984476
 51
183.015524
  0
LINE
  8
0
 62
   249
 10
291.243055
 20
150.026467
 30
0.0
 11
291.243055
 21
147.526467
 31
0.0
  0
LINE
  8
0
 62
   249
 10
293.743055
 20
150.026467
 30
0.0
 11
293.743055
 21
147.526467
 31
0.0
  0
LINE
  8
0
 62
   249
 10
293.743055
 20
147.526467
 30
0.0
 11
293.743055
 21
145.0
 31
0.0
  0
LINE
  8
0
 62
   249
 10
288.743055
 20
147.526467
 30
0.0
 11
288.743055
 21
147.5
 31
0.0
  0
LINE
  8
0
 62
   249
 10
288.743055
 20
147.526467
 30
0.0
 11
288.743055
 21
147.5
 31
0.0
  0
LINE
  8
0
 62
   249
 10
288.743055
 20
150.026467
 30
0.0
 11
288.743055
 21
147.526467
 31
0.0
  0
LINE
  8
0
 62
   249
 10
286.243055
 20
150.026467
 30
0.0
 11
286.243055
 21
147.5
 31
0.0
  0
ARC
  8
0
 62
   249
 10
287.493055
 20
150.092316
 30
0.0
 40
1.251733
 50
356.984476
 51
183.015524
  0
LINE
  8
0
  6
CONTINUOUS
 62
   249
 10
284.134275
 20
154.1568
 30
0.0
 11
285.798224
 21
154.1568
 31
0.0
  0
LINE
  8
0
  6
CONTINUOUS
 62
   249
 10
284.134275
 20
153.77532
 30
0.0
 11
285.798224
 21
153.77532
 31
0.0
  0
LINE
  8
0
  6
CONTINUOUS
 62
   249
 10
285.0
 20
154.1568
 30
0.0
 11
285.0
 21
155.0
 31
0.0
  0
LINE
  8
0
  6
CONTINUOUS
 62
   249
 10
294.134275
 20
154.1568
 30
0.0
 11
295.798224
 21
154.1568
 31
0.0
  0
LINE
  8
0
  6
CONTINUOUS
 62
   249
 10
294.134275
 20
153.77532
 30
0.0
 11
295.798224
 21
153.77532
 31
0.0
  0
LINE
  8
0
  6
CONTINUOUS
 62
   249
 10
295.0
 20
153.77532
 30
0.0
 11
295.0
 21
150.0
 31
0.0
  0
LINE
  8
0
  6
CONTINUOUS
 62
   249
 10
283.928175
 20
152.917681
 30
0.0
 11
284.178175
 21
152.667681
 31
0.0
  0
LINE
  8
0
  6
CONTINUOUS
 62
   249
 10
285.678175
 20
152.667681
 30
0.0
 11
285.928175
 21
152.917681
 31
0.0
  0
LINE
  8
0
  6
CONTINUOUS
 62
   249
 10
284.178175
 20
152.667681
 30
0.0
 11
285.678175
 21
152.667681
 31
0.0
  0
LINE
  8
0
  6
CONTINUOUS
 62
   249
 10
295.678175
 20
152.667681
 30
0.0
 11
295.928175
 21
152.917681
 31
0.0
  0
LINE
  8
0
  6
CONTINUOUS
 62
   249
 10
294.178175
 20
152.667681
 30
0.0
 11
295.678175
 21
152.667681
 31
0.0
  0
LINE
  8
0
  6
CONTINUOUS
 62
   249
 10
293.928175
 20
152.917681
 30
0.0
 11
294.178175
 21
152.667681
 31
0.0
  0
LINE
  8
0
  6
DASHED
 62
   249
 10
250.0
 20
155.0
 30
0.0
 11
275.0
 21
155.0
 31
0.0
  0
LINE
  8
0
  6
DASHED
 62
   249
 10
275.0
 20
155.0
 30
0.0
 11
275.0
 21
147.5
 31
0.0
  0
LINE
  8
0
  6
DASHED
 62
   249
 10
275.0
 20
147.5
 30
0.0
 11
286.243055
 21
147.5
 31
0.0
  0
TEXT
  8
0
  6
HIDDEN
 62
   249
 10
358.282404
 20
248.27706
 30
0.0
 40
1.5
  1
3Ia
  7
GREEKS
  0
LINE
  8
0
  6
CONTINUOUS
 62
   249
 10
357.3985
 20
246.096802
 30
0.0
 11
357.3985
 21
244.308671
 31
0.0
  0
LINE
  8
0
  6
CONTINUOUS
 62
   249
 10
357.429531
 20
245.251524
 30
0.0
 11
365.217736
 21
245.251524
 31
0.0
  0
LINE
  8
0
  6
CONTINUOUS
 62
   249
 10
362.259083
 20
247.449687
 30
0.0
 11
363.15976
 21
246.325938
 31
0.0
  0
LINE
  8
0
  6
CONTINUOUS
 62
   249
 10
359.813676
 20
244.083921
 30
0.0
 11
362.689787
 21
246.91248
 31
0.0
  0
LINE
  8
0
  6
CONTINUOUS
 62
   249
 10
365.213195
 20
246.096802
 30
0.0
 11
365.213195
 21
244.308671
 31
0.0
  0
TEXT
  8
0
  6
HIDDEN
 62
   249
 10
358.282404
 20
241.084179
 30
0.0
 40
1.5
  1
3Ib
  7
GREEKS
  0
LINE
  8
0
  6
CONTINUOUS
 62
   249
 10
365.213195
 20
239.080164
 30
0.0
 11
365.213195
 21
237.292033
 31
0.0
  0
LINE
  8
0
  6
CONTINUOUS
 62
   249
 10
359.813676
 20
237.067283
 30
0.0
 11
362.689787
 21
239.895842
 31
0.0
  0
ARC
  8
0
  6
CONTINUOUS
 62
   249
 10
364.124399
 20
242.16343
 30
0.0
 40
4.998196
 50
206.402922
 51
282.21115
  0
LINE
  8
0
  6
CONTINUOUS
 62
   249
 10
362.259083
 20
240.433048
 30
0.0
 11
363.15976
 21
239.309299
 31
0.0
  0
LINE
  8
0
  6
CONTINUOUS
 62
   249
 10
357.429531
 20
238.234886
 30
0.0
 11
365.217736
 21
238.234886
 31
0.0
  0
LINE
  8
0
  6
CONTINUOUS
 62
   249
 10
357.3985
 20
239.080164
 30
0.0
 11
357.3985
 21
237.292033
 31
0.0
  0
TEXT
  8
0
  6
HIDDEN
 62
   249
 10
360.534904
 20
232.385807
 30
0.0
 40
1.5
  1
I1
  7
GREEKS
  0
TEXT
  8
0
  6
HIDDEN
 62
   249
 10
358.061726
 20
232.402127
 30
0.0
 40
1.5
  1
D
  7
GREEKC
  0
LINE
  8
0
  6
CONTINUOUS
 62
   249
 10
365.11478
 20
229.928842
 30
0.0
 11
365.11478
 21
228.14071
 31
0.0
  0
LINE
  8
0
  6
CONTINUOUS
 62
   249
 10
359.71526
 20
227.91596
 30
0.0
 11
362.591371
 21
230.744519
 31
0.0
  0
LINE
  8
0
  6
CONTINUOUS
 62
   249
 10
362.160668
 20
231.281726
 30
0.0
 11
363.061344
 21
230.157977
 31
0.0
  0
LINE
  8
0
  6
CONTINUOUS
 62
   249
 10
357.331116
 20
229.083563
 30
0.0
 11
365.119321
 21
229.083563
 31
0.0
  0
LINE
  8
0
  6
CONTINUOUS
 62
   249
 10
357.300084
 20
229.928842
 30
0.0
 11
357.300084
 21
228.14071
 31
0.0
  0
TEXT
  8
0
  6
HIDDEN
 62
   249
 10
360.561726
 20
224.993768
 30
0.0
 40
1.5
  1
I2
  7
GREEKS
  0
TEXT
  8
0
  6
HIDDEN
 62
   249
 10
358.061726
 20
224.993768
 30
0.0
 40
1.5
  1
D
  7
GREEKC
  0
LINE
  8
0
  6
CONTINUOUS
 62
   249
 10
357.300084
 20
222.524423
 30
0.0
 11
357.300084
 21
220.736291
 31
0.0
  0
LINE
  8
0
  6
CONTINUOUS
 62
   249
 10
357.331116
 20
221.679144
 30
0.0
 11
365.119321
 21
221.679144
 31
0.0
  0
LINE
  8
0
  6
CONTINUOUS
 62
   249
 10
362.160668
 20
223.877307
 30
0.0
 11
363.061344
 21
222.753558
 31
0.0
  0
ARC
  8
0
  6
CONTINUOUS
 62
   249
 10
364.025984
 20
225.607688
 30
0.0
 40
4.998196
 50
206.402922
 51
282.21115
  0
LINE
  8
0
  6
CONTINUOUS
 62
   249
 10
359.71526
 20
220.511542
 30
0.0
 11
362.591371
 21
223.3401
 31
0.0
  0
LINE
  8
0
  6
CONTINUOUS
 62
   249
 10
365.11478
 20
222.524423
 30
0.0
 11
365.11478
 21
220.736291
 31
0.0
  0
TEXT
  8
0
  6
HIDDEN
 62
   249
 10
359.420312
 20
216.563748
 30
0.0
 40
1.5
  1
3I
  0
LINE
  8
0
  6
CONTINUOUS
 62
   249
 10
365.126064
 20
213.426637
 30
0.0
 11
365.126064
 21
211.638506
 31
0.0
  0
LINE
  8
0
  6
CONTINUOUS
 62
   249
 10
359.726545
 20
211.413756
 30
0.0
 11
362.602656
 21
214.242315
 31
0.0
  0
LINE
  8
0
  6
CONTINUOUS
 62
   249
 10
362.171952
 20
214.779522
 30
0.0
 11
363.072629
 21
213.655773
 31
0.0
  0
LINE
  8
0
  6
CONTINUOUS
 62
   249
 10
357.342401
 20
212.581359
 30
0.0
 11
365.130606
 21
212.581359
 31
0.0
  0
LINE
  8
0
  6
CONTINUOUS
 62
   249
 10
357.311369
 20
213.426637
 30
0.0
 11
357.311369
 21
211.638506
 31
0.0
  0
LINE
  8
0
  6
CONTINUOUS
 62
   249
 10
352.5
 20
252.5
 30
0.0
 11
370.0
 21
252.5
 31
0.0
  0
LINE
  8
0
  6
CONTINUOUS
 62
   249
 10
370.0
 20
252.5
 30
0.0
 11
370.0
 21
210.0
 31
0.0
  0
LINE
  8
0
  6
CONTINUOUS
 62
   249
 10
370.0
 20
210.0
 30
0.0
 11
352.5
 21
210.0
 31
0.0
  0
LINE
  8
0
  6
CONTINUOUS
 62
   249
 10
352.5
 20
210.0
 30
0.0
 11
352.5
 21
252.5
 31
0.0
  0
LINE
  8
0
  6
CONTINUOUS
 62
   249
 10
352.5
 20
220.0
 30
0.0
 11
370.0
 21
220.0
 31
0.0
  0
LINE
  8
0
  6
HIDDEN
 62
   249
 10
352.5
 20
235.0
 30
0.0
 11
370.0
 21
235.0
 31
0.0
  0
TEXT
  8
0
  6
HIDDEN
 62
   249
 10
342.5
 20
205.0
 30
0.0
 40
2.0
  1
CAPACITOR BANK OVERLOAD
  7
ROMANS
  0
TEXT
  8
0
  6
HIDDEN
 62
   249
 10
342.5
 20
201.666667
 30
0.0
 40
2.0
  1
AND UNBALANCE
  7
ROMANS
  0
TEXT
  8
0
  6
HIDDEN
 62
   249
 10
342.5
 20
198.333333
 30
0.0
 40
2.0
  1
PROTECTION RELAY
  7
ROMANS
  0
TEXT
  8
0
  6
HIDDEN
 62
   249
 10
342.5
 20
192.5
 30
0.0
 40
2.0
  1
KONDENSATOR BATTERI
  7
ROMANS
  0
TEXT
  8
0
  6
HIDDEN
 62
   249
 10
342.5
 20
189.166667
 30
0.0
 40
2.0
  1
ÖVERLAST OCH OBALANS
  7
ROMANS
  0
TEXT
  8
0
  6
HIDDEN
 62
   249
 10
342.5
 20
185.833333
 30
0.0
 40
2.0
  1
SKYDDSRELÄ
  7
ROMANS
  0
TEXT
  8
0
  6
HIDDEN
 62
   249
 10
312.408704
 20
100.0
 30
0.0
 40
2.0
  1
6) START INHIBIT
  7
ROMANS
  0
TEXT
  8
0
  6
HIDDEN
 62
   249
 10
313.732502
 20
96.666667
 30
0.0
 40
2.0
  1
  BLOCKERING AV START
  7
ROMANS
  0
TEXT
  8
0
 62
   249
 10
349.00882
 20
58.838465
 30
0.0
 40
2.0
  1
In=5A
  7
ROMANS
 11
349.00882
 21
58.171798
 31
0.0
 73
     1
  0
TEXT
  8
0
 62
   249
 10
333.00882
 20
58.838465
 30
0.0
 40
2.0
  1
In=1A 
  7
ROMANS
 11
333.00882
 21
58.171798
 31
0.0
 73
     1
  0
TEXT
  8
0
 62
   249
 10
343.00882
 20
64.838465
 30
0.0
 40
2.0
  1
108:
  7
ROMANS
 11
343.00882
 21
64.171798
 31
0.0
 73
     1
  0
TEXT
  8
0
 62
   249
 10
323.00882
 20
64.838465
 30
0.0
 40
2.0
  1
101:       
  7
ROMANS
 11
323.00882
 21
64.171798
 31
0.0
 73
     1
  0
TEXT
  8
0
 62
   249
 10
323.00882
 20
70.838465
 30
0.0
 40
2.0
  1
TERMINALS / UTTAG
  7
ROMANS
 11
323.00882
 21
70.171798
 31
0.0
 73
     1
  0
LINE
  8
0
 62
   249
 10
317.00882
 20
58.171798
 30
0.0
 11
361.00882
 21
58.171798
 31
0.0
  0
LINE
  8
0
 62
   249
 10
345.00882
 20
64.171798
 30
0.0
 11
345.00882
 21
42.5
 31
0.0
  0
LINE
  8
0
 62
   249
 10
331.00882
 20
64.171798
 30
0.0
 11
361.00882
 21
64.171798
 31
0.0
  0
LINE
  8
0
 62
   249
 10
331.00882
 20
70.171798
 30
0.0
 11
331.00882
 21
42.5
 31
0.0
  0
LINE
  8
0
 62
   249
 10
317.00882
 20
70.171798
 30
0.0
 11
361.00882
 21
70.171798
 31
0.0
  0
LINE
  8
0
 62
   249
 10
361.00882
 20
42.5
 30
0.0
 11
361.00882
 21
76.171798
 31
0.0
  0
LINE
  8
0
 62
   249
 10
317.00882
 20
76.171798
 30
0.0
 11
317.00882
 21
42.5
 31
0.0
  0
LINE
  8
0
 62
   249
 10
361.00882
 20
76.171798
 30
0.0
 11
317.00882
 21
76.171798
 31
0.0
  0
TEXT
  8
0
  6
HIDDEN
 62
   249
 10
322.953674
 20
54.936073
 30
0.0
 40
2.0
  1
3B     3       2
  7
ROMANS
  0
TEXT
  8
0
  6
HIDDEN
 62
   249
 10
322.953674
 20
51.60274
 30
0.0
 40
2.0
  1
5B     6       5
  7
ROMANS
  0
TEXT
  8
0
  6
HIDDEN
 62
   249
 10
322.953674
 20
48.269406
 30
0.0
 40
2.0
  1
7B     9       8
  7
ROMANS
  0
TEXT
  8
0
  6
HIDDEN
 62
   249
 10
322.953674
 20
44.936073
 30
0.0
 40
2.0
  1
9B    27      26
  7
ROMANS
  0
LINE
  8
0
  6
CONTINUOUS
 62
   249
 10
317.00882
 20
42.5
 30
0.0
 11
361.00882
 21
42.5
 31
0.0
  0
TEXT
  8
0
  6
HIDDEN
 62
   249
 10
312.439364
 20
75.367842
 30
0.0
 40
2.0
  1
8)
  7
ROMANS
  0
TEXT
  8
0
  6
HIDDEN
 62
   249
 10
213.397904
 20
27.792898
 30
0.0
 40
2.0
  1
1992-02-11 J RANTALA
  7
ROMANS
  0
TEXT
  8
0
  6
HIDDEN
 62
   249
 10
317.5
 20
27.5
 30
0.0
 40
2.0
  1
TERMINAL DIAGRAM / UTTAGSSCHEMA
  7
ROMANS
  0
TEXT
  8
0
  6
HIDDEN
 62
   249
 10
317.5
 20
24.166667
 30
0.0
 40
2.0
  1
SPAJ 160 C WITH TEST SWITCH
  7
ROMANS
  0
TEXT
  8
0
  6
HIDDEN
 62
   249
 10
317.5
 20
20.833333
 30
0.0
 40
2.0
  1
SPAJ 160 C MED PROVDON
  7
ROMANS
  0
TEXT
  8
0
  6
HIDDEN
 62
   249
 10
322.5
 20
2.5
 30
0.0
 40
2.5
  1
RS 10150-AAA
  7
ROMANS
  0
LINE
  8
0
  6
CONTINUOUS
 62
   249
 10
67.5
 20
200.0
 30
0.0
 11
57.5
 21
200.0
 31
0.0
  0
LINE
  8
0
  6
CONTINUOUS
 62
   249
 10
70.298812
 20
200.0
 30
0.0
 11
65.598812
 21
200.0
 31
0.0
  0
LINE
  8
0
  6
CONTINUOUS
 62
   249
 10
60.0
 20
205.0
 30
0.0
 11
57.5
 21
205.0
 31
0.0
  0
LINE
  8
0
  6
CONTINUOUS
 62
   249
 10
70.298812
 20
205.0
 30
0.0
 11
66.000004
 21
205.0
 31
0.0
  0
TEXT
  8
0
  6
CONTINUOUS
 62
   249
 10
58.488929
 20
197.220629
 30
0.0
 40
2.0
  1
108:11
  7
ROMANS
  0
TEXT
  8
0
  6
CONTINUOUS
 62
   249
 10
58.488929
 20
201.770552
 30
0.0
 40
2.0
  1
14A
  7
ROMANS
  0
TEXT
  8
0
  6
CONTINUOUS
 62
   249
 10
60.005198
 20
207.263196
 30
0.0
 40
2.0
  1
101
  7
ROMANS
  0
LINE
  8
0
 62
   249
 10
70.298812
 20
206.589925
 30
0.0
 11
70.298812
 21
198.4
 31
0.0
  0
LINE
  8
0
 62
   249
 10
74.504853
 20
206.59384
 30
0.0
 11
72.59105
 21
204.315018
 31
0.0
  0
LINE
  8
0
 62
   249
 10
75.996971
 20
206.59384
 30
0.0
 11
74.142636
 21
204.315018
 31
0.0
  0
LINE
  8
0
 62
   249
 10
77.721556
 20
206.589925
 30
0.0
 11
70.298812
 21
206.589925
 31
0.0
  0
LINE
  8
0
 62
   249
 10
70.298812
 20
198.4
 30
0.0
 11
77.721556
 21
198.4
 31
0.0
  0
LINE
  8
0
 62
   249
 10
77.721556
 20
198.4
 30
0.0
 11
77.721556
 21
206.589925
 31
0.0
  0
LINE
  8
0
  6
CONTINUOUS
 62
   249
 10
77.721556
 20
202.5
 30
0.0
 11
80.598812
 21
202.5
 31
0.0
  0
LINE
  8
0
  6
CONTINUOUS
 62
   249
 10
57.5
 20
215.0
 30
0.0
 11
57.5
 21
217.765661
 31
0.0
  0
LINE
  8
0
  6
CONTINUOUS
 62
   249
 10
60.0
 20
205.0
 30
0.0
 11
60.0
 21
207.765661
 31
0.0
  0
LINE
  8
0
  6
CONTINUOUS
 62
   249
 10
59.337159
 20
207.434804
 30
0.0
 11
58.892266
 21
206.549106
 31
0.0
  0
LINE
  8
0
  6
CONTINUOUS
 62
   249
 10
66.000004
 20
205.0
 30
0.0
 11
59.337159
 21
207.434804
 31
0.0
  0
TEXT
  8
0
  6
CONTINUOUS
 62
   249
 10
380.0
 20
2.5
 30
0.0
 40
2.5
  1
B
  7
ROMANS
  0
TEXT
  8
0
  6
CONTINUOUS
 62
   249
 10
375.0
 20
12.5
 30
0.0
 40
2.0
  1
1
  7
ROMANS
  0
TEXT
  8
0
  6
CONTINUOUS
 62
   249
 10
53.168561
 20
1.157444
 30
0.0
 40
2.0
  1
REDRAWN WITH AUTOCAD 1993-05-12  KM / RITU Power
  7
ROMANS
  0
LINE
  8
0
  6
CONTINUOUS
 62
   249
 10
250.0
 20
72.5
 30
0.0
 11
250.0
 21
62.5
 31
0.0
  0
LINE
  8
0
  6
CONTINUOUS
 62
   249
 10
210.0
 20
62.5
 30
0.0
 11
212.765661
 21
62.5
 31
0.0
  0
LINE
  8
0
  6
CONTINUOUS
 62
   249
 10
212.434804
 20
63.162841
 30
0.0
 11
211.549106
 21
63.607734
 31
0.0
  0
LINE
  8
0
  6
CONTINUOUS
 62
   249
 10
210.0
 20
56.499996
 30
0.0
 11
212.434804
 21
63.162841
 31
0.0
  0
LINE
  8
0
  6
CONTINUOUS
 62
   249
 10
200.0
 20
62.5
 30
0.0
 11
202.765661
 21
62.5
 31
0.0
  0
LINE
  8
0
  6
CONTINUOUS
 62
   249
 10
202.434804
 20
63.162841
 30
0.0
 11
201.549106
 21
63.607734
 31
0.0
  0
LINE
  8
0
  6
CONTINUOUS
 62
   249
 10
200.0
 20
56.499996
 30
0.0
 11
202.434804
 21
63.162841
 31
0.0
  0
LINE
  8
0
  6
CONTINUOUS
 62
   249
 10
190.0
 20
62.5
 30
0.0
 11
192.765661
 21
62.5
 31
0.0
  0
LINE
  8
0
  6
CONTINUOUS
 62
   249
 10
192.434804
 20
63.162841
 30
0.0
 11
191.549106
 21
63.607734
 31
0.0
  0
LINE
  8
0
  6
CONTINUOUS
 62
   249
 10
190.0
 20
56.499996
 30
0.0
 11
192.434804
 21
63.162841
 31
0.0
  0
LINE
  8
0
  6
CONTINUOUS
 62
   249
 10
195.0
 20
56.499996
 30
0.0
 11
197.434804
 21
63.162841
 31
0.0
  0
LINE
  8
0
  6
CONTINUOUS
 62
   249
 10
195.0
 20
62.5
 30
0.0
 11
197.765661
 21
62.5
 31
0.0
  0
LINE
  8
0
  6
CONTINUOUS
 62
   249
 10
67.5
 20
102.5
 30
0.0
 11
67.5
 21
105.265661
 31
0.0
  0
LINE
  8
0
  6
CONTINUOUS
 62
   249
 10
73.500004
 20
102.5
 30
0.0
 11
66.837159
 21
104.934804
 31
0.0
  0
LINE
  8
0
  6
CONTINUOUS
 62
   249
 10
67.5
 20
72.5
 30
0.0
 11
67.5
 21
75.265661
 31
0.0
  0
LINE
  8
0
  6
CONTINUOUS
 62
   249
 10
73.500004
 20
72.5
 30
0.0
 11
66.837159
 21
74.934804
 31
0.0
  0
TEXT
  8
0
  6
DASHED
 62
   249
 10
292.217194
 20
11.813359
 30
0.0
 40
3.0
  1
A3
  7
GREEKS
  0
TEXT
  8
0
  6
DASHED
 62
   249
 10
351.818577
 20
15.69253
 30
0.0
 40
1.4
  1
LEHTI SHEET
  7
GREEKS
  0
LINE
  8
0
 62
   249
 10
0.237099
 20
262.737999
 30
0.0
 11
392.237099
 21
262.737999
 31
0.0
  0
LINE
  8
0
 62
   249
 10
18.237099
 20
0.237999
 30
0.0
 11
0.237099
 21
0.237999
 31
0.0
  0
LINE
  8
0
 62
   249
 10
209.237099
 20
0.237999
 30
0.0
 11
392.237099
 21
0.237999
 31
0.0
  0
LINE
  8
0
 62
   249
 10
209.237099
 20
0.237999
 30
0.0
 11
209.237099
 21
35.237999
 31
0.0
  0
LINE
  8
0
 62
   249
 10
392.237099
 20
0.237999
 30
0.0
 11
392.237099
 21
35.237999
 31
0.0
  0
LINE
  8
0
 62
   249
 10
209.237099
 20
18.237999
 30
0.0
 11
392.237099
 21
18.237999
 31
0.0
  0
LINE
  8
0
 62
   249
 10
209.237099
 20
9.737999
 30
0.0
 11
392.237099
 21
9.737999
 31
0.0
  0
LINE
  8
0
 62
   249
 10
209.237099
 20
26.737999
 30
0.0
 11
307.237099
 21
26.737999
 31
0.0
  0
LINE
  8
0
 62
   249
 10
209.237099
 20
35.237999
 30
0.0
 11
392.237099
 21
35.237999
 31
0.0
  0
TEXT
  8
0
 62
   249
 10
210.237099
 20
23.971333
 30
0.0
 40
1.4
  1
TARKASTI  CHECKED
  7
ROMANS
  0
TEXT
  8
0
 62
   249
 10
209.979934
 20
15.704666
 30
0.0
 40
1.4
  1
HYVÄKSYI  APPROVED
  7
ROMANS
  0
LINE
  8
0
 62
   249
 10
307.237099
 20
0.237999
 30
0.0
 11
307.237099
 21
35.237999
 31
0.0
  0
TEXT
  8
0
 62
   249
 10
259.237099
 20
32.737999
 30
0.0
 40
1.4
  1
LIITTYY  CONCERNING
  7
ROMANS
  0
TEXT
  8
0
 62
   249
 10
259.237099
 20
23.737999
 30
0.0
 40
1.4
  1
TOLERANSSIT  TOLERANCES
  7
ROMANS
  0
TEXT
  8
0
 62
   249
 10
259.237099
 20
15.737999
 30
0.0
 40
1.4
  1
SUHDE  SCALE
  7
ROMANS
  0
TEXT
  8
0
 62
   249
 10
309.237099
 20
32.737999
 30
0.0
 40
1.4
  1
NIMITYS  NAME
  7
ROMANS
  0
TEXT
  8
0
 62
   249
 10
309.237099
 20
15.737999
 30
0.0
 40
1.4
  1
KOODI  CODE
  7
ROMANS
  0
TEXT
  8
0
 62
   249
 10
309.237099
 20
7.237999
 30
0.0
 40
1.4
  1
PIIRUSTUS NO  DRAWING NR
  7
ROMANS
  0
LINE
  8
0
 62
   249
 10
349.737099
 20
9.737999
 30
0.0
 11
349.737099
 21
18.237999
 31
0.0
  0
TEXT
  8
0
 62
   249
 10
371.237099
 20
7.237999
 30
0.0
 40
1.4
  1
PAINOS  REVISION
  7
ROMANS
  0
LINE
  8
0
 62
   249
 10
369.737099
 20
9.737999
 30
0.0
 11
369.737099
 21
0.237999
 31
0.0
  0
LINE
  8
0
 62
   249
 10
210.187099
 20
1.737999
 30
0.0
 11
211.937099
 21
1.737999
 31
0.0
  0
LINE
  8
0
 62
   249
 10
215.437099
 20
1.737999
 30
0.0
 11
217.187099
 21
1.737999
 31
0.0
  0
LINE
  8
0
 62
   249
 10
212.637099
 20
8.737999
 30
0.0
 11
211.459571
 21
5.373634
 31
0.0
  0
LINE
  8
0
 62
   249
 10
212.425886
 20
3.137999
 30
0.0
 11
213.547099
 21
3.137999
 31
0.0
  0
LINE
  8
0
 62
   249
 10
212.425889
 20
3.134542
 30
0.0
 11
211.937099
 21
1.737999
 31
0.0
  0
LINE
  8
0
 62
   249
 10
214.737099
 20
8.737999
 30
0.0
 11
215.913452
 21
5.376991
 31
0.0
  0
LINE
  8
0
 62
   249
 10
214.948197
 20
3.134863
 30
0.0
 11
215.437099
 21
1.737999
 31
0.0
  0
LINE
  8
0
 62
   249
 10
214.737099
 20
8.737999
 30
0.0
 11
213.827099
 21
8.737999
 31
0.0
  0
LINE
  8
0
 62
   249
 10
213.547099
 20
8.737999
 30
0.0
 11
213.547099
 21
5.377999
 31
0.0
  0
LINE
  8
0
 62
   249
 10
213.827099
 20
8.737999
 30
0.0
 11
213.827099
 21
5.377999
 31
0.0
  0
LINE
  8
0
 62
   249
 10
213.827099
 20
3.137999
 30
0.0
 11
214.946992
 21
3.137999
 31
0.0
  0
LINE
  8
0
 62
   249
 10
213.547099
 20
8.737999
 30
0.0
 11
212.637099
 21
8.737999
 31
0.0
  0
LINE
  8
0
 62
   249
 10
211.45904
 20
5.377999
 30
0.0
 11
213.547099
 21
5.377999
 31
0.0
  0
LINE
  8
0
 62
   249
 10
211.360082
 20
5.097999
 30
0.0
 11
213.547099
 21
5.097999
 31
0.0
  0
LINE
  8
0
 62
   249
 10
216.011591
 20
5.096594
 30
0.0
 11
217.187099
 21
1.737999
 31
0.0
  0
LINE
  8
0
 62
   249
 10
213.827099
 20
5.377999
 30
0.0
 11
215.912213
 21
5.377999
 31
0.0
  0
LINE
  8
0
 62
   249
 10
213.827099
 20
5.097999
 30
0.0
 11
216.010356
 21
5.097999
 31
0.0
  0
LINE
  8
0
 62
   249
 10
213.827099
 20
5.097999
 30
0.0
 11
213.827099
 21
3.137999
 31
0.0
  0
LINE
  8
0
 62
   249
 10
213.547099
 20
5.097999
 30
0.0
 11
213.547099
 21
3.137999
 31
0.0
  0
LINE
  8
0
 62
   249
 10
211.356988
 20
5.080538
 30
0.0
 11
210.187099
 21
1.737999
 31
0.0
  0
INSERT
  8
0
 62
   249
  2
*X29
 10
210.187099
 20
1.737999
 30
0.0
 41
0.7
 42
0.7
 43
0.7
  0
INSERT
  8
0
 62
   249
  2
*X30
 10
210.187099
 20
1.737999
 30
0.0
 41
0.7
 42
0.7
 43
0.7
  0
INSERT
  8
0
 62
   249
  2
*X31
 10
210.187099
 20
1.737999
 30
0.0
 41
0.7
 42
0.7
 43
0.7
  0
INSERT
  8
0
 62
   249
  2
*X32
 10
210.187099
 20
1.737999
 30
0.0
 41
0.7
 42
0.7
 43
0.7
  0
LINE
  8
0
 62
   249
 10
217.677099
 20
1.737999
 30
0.0
 11
217.677099
 21
5.097999
 31
0.0
  0
LINE
  8
0
 62
   249
 10
217.677099
 20
8.737999
 30
0.0
 11
219.637099
 21
8.737999
 31
0.0
  0
LINE
  8
0
 62
   249
 10
219.637099
 20
8.737999
 30
0.0
 11
219.637099
 21
5.377999
 31
0.0
  0
LINE
  8
0
 62
   249
 10
219.637099
 20
5.377999
 30
0.0
 11
217.677099
 21
5.377999
 31
0.0
  0
LINE
  8
0
 62
   249
 10
217.677099
 20
5.097999
 30
0.0
 11
219.637099
 21
5.097999
 31
0.0
  0
LINE
  8
0
 62
   249
 10
219.637099
 20
5.097999
 30
0.0
 11
219.637099
 21
1.737999
 31
0.0
  0
LINE
  8
0
 62
   249
 10
219.637099
 20
1.737999
 30
0.0
 11
217.677099
 21
1.737999
 31
0.0
  0
LINE
  8
0
 62
   249
 10
217.677099
 20
5.377999
 30
0.0
 11
217.677099
 21
8.737999
 31
0.0
  0
ARC
  8
0
 62
   249
 10
220.477099
 20
7.162999
 30
0.0
 40
1.575
 50
298.455859
 51
90.052437
  0
LINE
  8
0
 62
   249
 10
219.917099
 20
8.737999
 30
0.0
 11
220.475658
 21
8.737999
 31
0.0
  0
LINE
  8
0
 62
   249
 10
219.917099
 20
8.737999
 30
0.0
 11
219.917099
 21
5.377999
 31
0.0
  0
LINE
  8
0
 62
   249
 10
219.917099
 20
5.377999
 30
0.0
 11
221.901542
 21
5.377999
 31
0.0
  0
LINE
  8
0
 62
   249
 10
222.157099
 20
5.097999
 30
0.0
 11
219.917099
 21
5.097999
 31
0.0
  0
LINE
  8
0
 62
   249
 10
219.917099
 20
5.097999
 30
0.0
 11
219.917099
 21
1.737999
 31
0.0
  0
ARC
  8
0
 62
   249
 10
220.477099
 20
3.837999
 30
0.0
 40
2.1
 50
269.937724
 51
37.056553
  0
LINE
  8
0
 62
   249
 10
219.917099
 20
1.737999
 30
0.0
 11
220.474817
 21
1.738
 31
0.0
  0
ARC
  8
0
 62
   249
 10
220.477099
 20
3.837999
 30
0.0
 40
2.1
 50
47.28622
 51
68.787999
  0
INSERT
  8
0
 62
   249
  2
*X33
 10
210.187099
 20
1.737999
 30
0.0
 41
0.7
 42
0.7
 43
0.7
  0
INSERT
  8
0
 62
   249
  2
*X34
 10
210.187099
 20
1.737999
 30
0.0
 41
0.7
 42
0.7
 43
0.7
  0
INSERT
  8
0
 62
   249
  2
*X35
 10
210.187099
 20
1.737999
 30
0.0
 41
0.7
 42
0.7
 43
0.7
  0
INSERT
  8
0
 62
   249
  2
*X36
 10
210.187099
 20
1.737999
 30
0.0
 41
0.7
 42
0.7
 43
0.7
  0
INSERT
  8
0
 62
   249
  2
*X36
 10
215.647099
 20
1.737999
 30
0.0
 41
0.7
 42
0.7
 43
0.7
  0
INSERT
  8
0
 62
   249
  2
*X35
 10
215.647099
 20
1.737999
 30
0.0
 41
0.7
 42
0.7
 43
0.7
  0
INSERT
  8
0
 62
   249
  2
*X34
 10
215.647099
 20
1.737999
 30
0.0
 41
0.7
 42
0.7
 43
0.7
  0
INSERT
  8
0
 62
   249
  2
*X33
 10
215.647099
 20
1.737999
 30
0.0
 41
0.7
 42
0.7
 43
0.7
  0
ARC
  8
0
 62
   249
 10
225.937099
 20
3.837999
 30
0.0
 40
2.1
 50
47.28622
 51
68.787999
  0
LINE
  8
0
 62
   249
 10
225.377099
 20
1.737999
 30
0.0
 11
225.934817
 21
1.738
 31
0.0
  0
ARC
  8
0
 62
   249
 10
225.937099
 20
3.837999
 30
0.0
 40
2.1
 50
269.937724
 51
37.056553
  0
LINE
  8
0
 62
   249
 10
225.377099
 20
5.097999
 30
0.0
 11
225.377099
 21
1.737999
 31
0.0
  0
LINE
  8
0
 62
   249
 10
227.617099
 20
5.097999
 30
0.0
 11
225.377099
 21
5.097999
 31
0.0
  0
LINE
  8
0
 62
   249
 10
225.377099
 20
5.377999
 30
0.0
 11
227.361542
 21
5.377999
 31
0.0
  0
LINE
  8
0
 62
   249
 10
225.377099
 20
8.737999
 30
0.0
 11
225.377099
 21
5.377999
 31
0.0
  0
LINE
  8
0
 62
   249
 10
225.377099
 20
8.737999
 30
0.0
 11
225.935658
 21
8.737999
 31
0.0
  0
ARC
  8
0
 62
   249
 10
225.937099
 20
7.162999
 30
0.0
 40
1.575
 50
298.455859
 51
90.052437
  0
LINE
  8
0
 62
   249
 10
223.137099
 20
5.377999
 30
0.0
 11
223.137099
 21
8.737999
 31
0.0
  0
LINE
  8
0
 62
   249
 10
225.097099
 20
1.737999
 30
0.0
 11
223.137099
 21
1.737999
 31
0.0
  0
LINE
  8
0
 62
   249
 10
225.097099
 20
5.097999
 30
0.0
 11
225.097099
 21
1.737999
 31
0.0
  0
LINE
  8
0
 62
   249
 10
223.137099
 20
5.097999
 30
0.0
 11
225.097099
 21
5.097999
 31
0.0
  0
LINE
  8
0
 62
   249
 10
225.097099
 20
5.377999
 30
0.0
 11
223.137099
 21
5.377999
 31
0.0
  0
LINE
  8
0
 62
   249
 10
225.097099
 20
8.737999
 30
0.0
 11
225.097099
 21
5.377999
 31
0.0
  0
LINE
  8
0
 62
   249
 10
223.137099
 20
8.737999
 30
0.0
 11
225.097099
 21
8.737999
 31
0.0
  0
LINE
  8
0
 62
   249
 10
223.137099
 20
1.737999
 30
0.0
 11
223.137099
 21
5.097999
 31
0.0
  0
TEXT
  8
0
 62
   249
 10
229.737099
 20
1.737999
 30
0.0
 40
3.0
  1
ABB 
 41
0.8
  7
ROMANS
  0
TEXT
  8
0
 62
   249
 10
237.737099
 20
1.737999
 30
0.0
 40
3.0
  1
Strömberg
 41
0.8
  7
ROMANS
  0
LINE
  8
0
 62
   249
 10
282.237099
 20
9.737999
 30
0.0
 11
282.237099
 21
18.237999
 31
0.0
  0
TEXT
  8
0
 62
   249
 10
27.737099
 20
4.737999
 30
0.0
 40
1.4
  1
MUUTOS
  7
ROMANS
  0
TEXT
  8
0
 62
   249
 10
27.737099
 20
2.471333
 30
0.0
 40
1.4
  1
REVISION
  7
ROMANS
  0
LINE
  8
0
 62
   249
 10
46.737099
 20
9.237999
 30
0.0
 11
209.237099
 21
9.237999
 31
0.0
  0
LINE
  8
0
 62
   249
 10
46.737099
 20
0.237999
 30
0.0
 11
46.737099
 21
9.237999
 31
0.0
  0
LINE
  8
0
 62
   249
 10
40.737099
 20
4.737999
 30
0.0
 11
209.237099
 21
4.737999
 31
0.0
  0
LINE
  8
0
 62
   249
 10
257.237099
 20
9.737999
 30
0.0
 11
257.237099
 21
35.237999
 31
0.0
  0
LINE
  8
0
 62
   249
 10
271.237099
 20
9.737999
 30
0.0
 11
271.237099
 21
0.237999
 31
0.0
  0
TEXT
  8
0
 62
   249
 10
210.237099
 20
32.237999
 30
0.0
 40
1.4
  1
TEKI  PREPARED
  7
ROMANS
  0
TEXT
  8
0
 62
   249
 10
273.237099
 20
7.237999
 30
0.0
 40
1.4
  1
VAST.OSASTO RESP.DEPT.
  7
ROMANS
  0
TEXT
  8
0
 62
   249
 10
257.407006
 20
1.741783
 30
0.0
 40
3.0
  1
Power
 41
0.8
  7
ROMANS
  0
TEXT
  8
0
 62
   249
 10
42.237099
 20
1.195292
 30
0.0
 40
2.5
  1
B
  7
ROMANS
  0
TEXT
  8
0
 62
   249
 10
42.237099
 20
5.587508
 30
0.0
 40
2.5
  1
C
  7
ROMANS
  0
LINE
  8
0
 62
   249
 10
0.237099
 20
0.237999
 30
0.0
 11
392.237099
 21
0.237999
 31
0.0
  0
LINE
  8
0
 62
   249
 10
392.237099
 20
262.737999
 30
0.0
 11
392.237099
 21
0.237999
 31
0.0
  0
LINE
  8
0
 62
   249
 10
0.237099
 20
0.237999
 30
0.0
 11
0.237099
 21
262.737999
 31
0.0
  0
TEXT
  8
0
  6
CONTINUOUS
 62
   249
 10
176.853328
 20
39.013635
 30
0.0
 40
2.0
  1
+
  0
TEXT
  8
0
  6
CONTINUOUS
 62
   249
 10
181.853328
 20
39.013635
 30
0.0
 40
2.0
  1
+
  0
TEXT
  8
0
  6
CONTINUOUS
 62
   249
 10
189.353328
 20
39.013635
 30
0.0
 40
2.0
  1
+
  0
TEXT
  8
0
  6
CONTINUOUS
 62
   249
 10
194.353328
 20
39.013635
 30
0.0
 40
2.0
  1
+
  0
ARC
  8
0
  6
CONTINUOUS
 62
   249
 10
195.0
 20
87.5
 30
0.0
 40
0.5
 50
180.0
 51
0.0
  0
ARC
  8
0
  6
CONTINUOUS
 62
   249
 10
195.0
 20
87.5
 30
0.0
 40
0.5
 50
0.0
 51
180.0
  0
LINE
  8
0
  6
CONTINUOUS
 62
   249
 10
178.835331
 20
123.832288
 30
0.0
 11
177.499977
 21
121.486522
 31
0.0
  0
LINE
  8
0
  6
CONTINUOUS
 62
   249
 10
177.499977
 20
121.486522
 30
0.0
 11
176.310058
 21
123.832288
 31
0.0
  0
TEXT
  8
0
  6
CONTINUOUS
 62
   249
 10
49.344763
 20
199.00558
 30
0.0
 40
2.0
  1
-
  0
LINE
  8
0
 62
   249
 10
43.991073
 20
203.135937
 30
0.0
 11
47.991073
 21
203.135937
 31
0.0
  0
INSERT
  8
0
 62
   249
  2
WKU130
 10
44.331022
 20
201.410384
 30
0.0
 41
0.8
 42
0.8
 43
0.8
  0
TEXT
  8
0
  6
CONTINUOUS
 62
   249
 10
49.353328
 20
204.013635
 30
0.0
 40
2.0
  1
+
  0
ARC
  8
0
  6
CONTINUOUS
 62
   249
 10
127.5
 20
171.890723
 30
0.0
 40
0.5
 50
180.0
 51
0.0
  0
ARC
  8
0
  6
CONTINUOUS
 62
   249
 10
127.5
 20
171.890723
 30
0.0
 40
0.5
 50
0.0
 51
180.0
  0
ARC
  8
0
  6
CONTINUOUS
 62
   249
 10
102.5
 20
171.890723
 30
0.0
 40
0.5
 50
180.0
 51
0.0
  0
ARC
  8
0
  6
CONTINUOUS
 62
   249
 10
102.5
 20
171.890723
 30
0.0
 40
0.5
 50
0.0
 51
180.0
  0
ARC
  8
0
  6
CONTINUOUS
 62
   249
 10
107.5
 20
146.954176
 30
0.0
 40
0.5
 50
180.0
 51
0.0
  0
ARC
  8
0
  6
CONTINUOUS
 62
   249
 10
107.5
 20
146.954176
 30
0.0
 40
0.5
 50
0.0
 51
180.0
  0
ARC
  8
0
  6
CONTINUOUS
 62
   249
 10
105.0
 20
162.64644
 30
0.0
 40
0.5
 50
180.0
 51
0.0
  0
ARC
  8
0
  6
CONTINUOUS
 62
   249
 10
105.0
 20
162.64644
 30
0.0
 40
0.5
 50
0.0
 51
180.0
  0
ARC
  8
0
  6
CONTINUOUS
 62
   249
 10
130.0
 20
162.64644
 30
0.0
 40
0.5
 50
180.0
 51
0.0
  0
ARC
  8
0
  6
CONTINUOUS
 62
   249
 10
130.0
 20
162.64644
 30
0.0
 40
0.5
 50
0.0
 51
180.0
  0
ARC
  8
0
  6
CONTINUOUS
 62
   249
 10
100.0
 20
187.079083
 30
0.0
 40
0.5
 50
180.0
 51
0.0
  0
ARC
  8
0
  6
CONTINUOUS
 62
   249
 10
100.0
 20
187.079083
 30
0.0
 40
0.5
 50
0.0
 51
180.0
  0
ARC
  8
0
  6
CONTINUOUS
 62
   249
 10
97.5
 20
194.176147
 30
0.0
 40
0.5
 50
180.0
 51
0.0
  0
ARC
  8
0
  6
CONTINUOUS
 62
   249
 10
97.5
 20
194.176147
 30
0.0
 40
0.5
 50
0.0
 51
180.0
  0
ARC
  8
0
  6
CONTINUOUS
 62
   249
 10
120.0
 20
187.079083
 30
0.0
 40
0.5
 50
180.0
 51
0.0
  0
ARC
  8
0
  6
CONTINUOUS
 62
   249
 10
120.0
 20
187.079083
 30
0.0
 40
0.5
 50
0.0
 51
180.0
  0
ARC
  8
0
  6
CONTINUOUS
 62
   249
 10
115.0
 20
194.176147
 30
0.0
 40
0.5
 50
180.0
 51
0.0
  0
ARC
  8
0
  6
CONTINUOUS
 62
   249
 10
115.0
 20
194.176147
 30
0.0
 40
0.5
 50
0.0
 51
180.0
  0
LINE
  8
0
  6
CONTINUOUS
 62
   249
 10
185.266539
 20
170.555298
 30
0.0
 11
182.920774
 21
171.890652
 31
0.0
  0
LINE
  8
0
  6
CONTINUOUS
 62
   249
 10
182.920774
 20
171.890652
 30
0.0
 11
185.266539
 21
173.080571
 31
0.0
  0
ARC
  8
0
  6
CONTINUOUS
 62
   249
 10
152.5
 20
162.64644
 30
0.0
 40
0.5
 50
180.0
 51
0.0
  0
ARC
  8
0
  6
CONTINUOUS
 62
   249
 10
152.5
 20
162.64644
 30
0.0
 40
0.5
 50
0.0
 51
180.0
  0
ARC
  8
0
  6
CONTINUOUS
 62
   249
 10
172.5
 20
150.453389
 30
0.0
 40
0.5
 50
180.0
 51
0.0
  0
ARC
  8
0
  6
CONTINUOUS
 62
   249
 10
172.5
 20
150.453389
 30
0.0
 40
0.5
 50
0.0
 51
180.0
  0
LINE
  8
0
  6
CONTINUOUS
 62
   249
 10
185.266539
 20
145.618884
 30
0.0
 11
182.920774
 21
146.954237
 31
0.0
  0
LINE
  8
0
  6
CONTINUOUS
 62
   249
 10
182.920774
 20
146.954237
 30
0.0
 11
185.266539
 21
148.144156
 31
0.0
  0
ARC
  8
0
  6
CONTINUOUS
 62
   249
 10
172.5
 20
157.901603
 30
0.0
 40
0.5
 50
180.0
 51
0.0
  0
ARC
  8
0
  6
CONTINUOUS
 62
   249
 10
172.5
 20
157.901603
 30
0.0
 40
0.5
 50
0.0
 51
180.0
  0
ARC
  8
0
  6
CONTINUOUS
 62
   249
 10
172.5
 20
166.976975
 30
0.0
 40
0.5
 50
180.0
 51
0.0
  0
ARC
  8
0
  6
CONTINUOUS
 62
   249
 10
172.5
 20
166.976975
 30
0.0
 40
0.5
 50
0.0
 51
180.0
  0
LINE
  8
0
  6
CONTINUOUS
 62
   249
 10
185.266539
 20
161.311018
 30
0.0
 11
182.920774
 21
162.646371
 31
0.0
  0
LINE
  8
0
  6
CONTINUOUS
 62
   249
 10
182.920774
 20
162.646371
 30
0.0
 11
185.266539
 21
163.836291
 31
0.0
  0
LINE
  8
0
  6
CONTINUOUS
 62
   249
 10
185.266539
 20
152.959799
 30
0.0
 11
182.920774
 21
154.295153
 31
0.0
  0
LINE
  8
0
  6
CONTINUOUS
 62
   249
 10
182.920774
 20
154.295153
 30
0.0
 11
185.266539
 21
155.485072
 31
0.0
  0
ARC
  8
0
  6
CONTINUOUS
 62
   249
 10
142.5
 20
179.055659
 30
0.0
 40
0.5
 50
180.0
 51
0.0
  0
ARC
  8
0
  6
CONTINUOUS
 62
   249
 10
142.5
 20
179.055659
 30
0.0
 40
0.5
 50
0.0
 51
180.0
  0
ARC
  8
0
  6
CONTINUOUS
 62
   249
 10
145.0
 20
175.608011
 30
0.0
 40
0.5
 50
180.0
 51
0.0
  0
ARC
  8
0
  6
CONTINUOUS
 62
   249
 10
145.0
 20
175.608011
 30
0.0
 40
0.5
 50
0.0
 51
180.0
  0
ARC
  8
0
  6
CONTINUOUS
 62
   249
 10
140.0
 20
190.562026
 30
0.0
 40
0.5
 50
180.0
 51
0.0
  0
ARC
  8
0
  6
CONTINUOUS
 62
   249
 10
140.0
 20
190.562026
 30
0.0
 40
0.5
 50
0.0
 51
180.0
  0
ARC
  8
0
  6
CONTINUOUS
 62
   249
 10
137.5
 20
194.176147
 30
0.0
 40
0.5
 50
180.0
 51
0.0
  0
ARC
  8
0
  6
CONTINUOUS
 62
   249
 10
137.5
 20
194.176147
 30
0.0
 40
0.5
 50
0.0
 51
180.0
  0
LINE
  8
0
  6
CONTINUOUS
 62
   249
 10
185.266539
 20
192.840784
 30
0.0
 11
182.920774
 21
194.176138
 31
0.0
  0
LINE
  8
0
  6
CONTINUOUS
 62
   249
 10
182.920774
 20
194.176138
 30
0.0
 11
185.266539
 21
195.366057
 31
0.0
  0
ARC
  8
0
  6
CONTINUOUS
 62
   249
 10
172.5
 20
182.69839
 30
0.0
 40
0.5
 50
180.0
 51
0.0
  0
ARC
  8
0
  6
CONTINUOUS
 62
   249
 10
172.5
 20
182.69839
 30
0.0
 40
0.5
 50
0.0
 51
180.0
  0
LINE
  8
0
  6
CONTINUOUS
 62
   249
 10
185.266539
 20
174.272645
 30
0.0
 11
182.920774
 21
175.607998
 31
0.0
  0
LINE
  8
0
  6
CONTINUOUS
 62
   249
 10
182.920774
 20
175.607998
 30
0.0
 11
185.266539
 21
176.797918
 31
0.0
  0
LINE
  8
0
  6
CONTINUOUS
 62
   249
 10
185.266539
 20
177.720078
 30
0.0
 11
182.920774
 21
179.055432
 31
0.0
  0
LINE
  8
0
  6
CONTINUOUS
 62
   249
 10
182.920774
 20
179.055432
 30
0.0
 11
185.266539
 21
180.245351
 31
0.0
  0
LINE
  8
0
  6
CONTINUOUS
 62
   249
 10
185.266539
 20
185.744471
 30
0.0
 11
182.920774
 21
187.079825
 31
0.0
  0
LINE
  8
0
  6
CONTINUOUS
 62
   249
 10
182.920774
 20
187.079825
 30
0.0
 11
185.266539
 21
188.269744
 31
0.0
  0
LINE
  8
0
  6
CONTINUOUS
 62
   249
 10
185.266539
 20
189.226663
 30
0.0
 11
182.920774
 21
190.562017
 31
0.0
  0
LINE
  8
0
  6
CONTINUOUS
 62
   249
 10
182.920774
 20
190.562017
 30
0.0
 11
185.266539
 21
191.751936
 31
0.0
  0
ARC
  8
0
  6
CONTINUOUS
 62
   249
 10
172.5
 20
197.553684
 30
0.0
 40
0.5
 50
180.0
 51
0.0
  0
ARC
  8
0
  6
CONTINUOUS
 62
   249
 10
172.5
 20
197.553684
 30
0.0
 40
0.5
 50
0.0
 51
180.0
  0
TEXT
  8
0
  6
CONTINUOUS
 62
   249
 10
199.353328
 20
39.013635
 30
0.0
 40
2.0
  1
+
  0
TEXT
  8
0
  6
CONTINUOUS
 62
   249
 10
209.344763
 20
39.00558
 30
0.0
 40
2.0
  1
-
  0
LINE
  8
0
 62
   249
 10
219.979007
 20
38.283527
 30
0.0
 11
223.979007
 21
38.283527
 31
0.0
  0
INSERT
  8
0
 62
   249
  2
WKU130
 10
220.318957
 20
36.557974
 30
0.0
 41
0.8
 42
0.8
 43
0.8
  0
TEXT
  8
0
  6
CONTINUOUS
 62
   249
 10
219.353328
 20
39.013635
 30
0.0
 40
2.0
  1
+
  0
TEXT
  8
0
  6
CONTINUOUS
 62
   249
 10
224.344763
 20
39.00558
 30
0.0
 40
2.0
  1
-
  0
INSERT
  8
0
  6
CENTER
 62
   249
  2
BLC5
 10
237.791926
 20
40.842005
 30
0.0
 41
0.6
 42
0.6
 43
0.6
  0
LINE
  8
0
  6
CONTINUOUS
 62
   249
 10
225.0
 20
72.929605
 30
0.0
 11
225.0
 21
70.0
 31
0.0
  0
LINE
  8
0
  6
CONTINUOUS
 62
   249
 10
220.0
 20
72.929605
 30
0.0
 11
220.0
 21
70.0
 31
0.0
  0
LINE
  8
0
  6
CONTINUOUS
 62
   249
 10
225.0
 20
87.5
 30
0.0
 11
225.0
 21
82.252154
 31
0.0
  0
LINE
  8
0
  6
CONTINUOUS
 62
   249
 10
220.0
 20
87.5
 30
0.0
 11
220.0
 21
82.252154
 31
0.0
  0
INSERT
  8
0
 62
   249
  2
WKU130
 10
222.806261
 20
73.502888
 30
0.0
 41
0.8
 42
0.8
 43
0.8
  0
LINE
  8
0
 62
   249
 10
222.466311
 20
75.22844
 30
0.0
 11
226.466311
 21
75.22844
 31
0.0
  0
LINE
  8
0
 62
   249
 10
218.709901
 20
80.174464
 30
0.0
 11
222.709901
 21
80.174464
 31
0.0
  0
LINE
  8
0
 62
   249
 10
217.795103
 20
73.886207
 30
0.0
 11
226.158613
 21
82.252154
 31
0.0
  0
LINE
  8
0
 62
   249
 10
218.779395
 20
72.929605
 30
0.0
 11
227.119756
 21
81.267352
 31
0.0
  0
LINE
  8
0
 62
   249
 10
217.795103
 20
72.929605
 30
0.0
 11
217.795103
 21
82.252154
 31
0.0
  0
LINE
  8
0
 62
   249
 10
227.119756
 20
72.929605
 30
0.0
 11
217.795103
 21
72.929605
 31
0.0
  0
LINE
  8
0
 62
   249
 10
227.119756
 20
82.252154
 30
0.0
 11
227.119756
 21
72.929605
 31
0.0
  0
LINE
  8
0
 62
   249
 10
217.795103
 20
82.252154
 30
0.0
 11
227.119756
 21
82.252154
 31
0.0
  0
TEXT
  8
0
  6
CONTINUOUS
 62
   249
 10
219.366734
 20
88.05315
 30
0.0
 40
2.0
  1
+
  0
TEXT
  8
0
  6
CONTINUOUS
 62
   249
 10
224.297086
 20
88.077719
 30
0.0
 40
2.0
  1
-
  0
INSERT
  8
0
  6
CENTER
 62
   249
  2
BLC26
 10
286.410524
 20
212.580448
 30
0.0
 41
1.006225
 42
1.006225
 50
180.0
 43
1.006225
  0
LINE
  8
0
 62
   249
 10
235.0
 20
204.99845
 30
0.0
 11
235.0
 21
214.99845
 31
0.0
  0
LINE
  8
0
 62
   249
 10
237.5
 20
215.0
 30
0.0
 11
240.0
 21
215.0
 31
0.0
  0
LINE
  8
0
 62
   249
 10
235.0
 20
214.99845
 30
0.0
 11
237.5
 21
214.99845
 31
0.0
  0
LINE
  8
0
 62
   249
 10
232.5
 20
210.0
 30
0.0
 11
237.5
 21
210.0
 31
0.0
  0
LINE
  8
0
 62
   249
 10
237.5
 20
210.0
 30
0.0
 11
240.0
 21
210.0
 31
0.0
  0
LINE
  8
0
 62
   249
 10
240.0
 20
210.0
 30
0.0
 11
240.0
 21
212.9
 31
0.0
  0
LINE
  8
0
 62
   249
 10
238.88095
 20
211.944425
 30
0.0
 11
239.560313
 21
211.008681
 31
0.0
  0
LINE
  8
0
 62
   249
 10
245.0
 20
215.0
 30
0.0
 11
239.2
 21
211.5
 31
0.0
  0
LINE
  8
0
 62
   249
 10
237.5
 20
204.99845
 30
0.0
 11
235.0
 21
204.99845
 31
0.0
  0
LINE
  8
0
 62
   249
 10
237.5
 20
205.0
 30
0.0
 11
240.0
 21
205.0
 31
0.0
  0
LINE
  8
0
 62
   249
 10
235.0
 20
164.99845
 30
0.0
 11
235.0
 21
174.99845
 31
0.0
  0
LINE
  8
0
 62
   249
 10
237.5
 20
175.0
 30
0.0
 11
240.0
 21
175.0
 31
0.0
  0
LINE
  8
0
 62
   249
 10
235.0
 20
174.99845
 30
0.0
 11
237.5
 21
174.99845
 31
0.0
  0
LINE
  8
0
 62
   249
 10
232.5
 20
170.0
 30
0.0
 11
237.5
 21
170.0
 31
0.0
  0
LINE
  8
0
 62
   249
 10
237.5
 20
170.0
 30
0.0
 11
240.0
 21
170.0
 31
0.0
  0
LINE
  8
0
 62
   249
 10
240.0
 20
170.0
 30
0.0
 11
240.0
 21
172.9
 31
0.0
  0
LINE
  8
0
 62
   249
 10
238.88095
 20
171.944425
 30
0.0
 11
239.560313
 21
171.008681
 31
0.0
  0
LINE
  8
0
 62
   249
 10
245.0
 20
175.0
 30
0.0
 11
239.2
 21
171.5
 31
0.0
  0
LINE
  8
0
 62
   249
 10
237.5
 20
164.99845
 30
0.0
 11
235.0
 21
164.99845
 31
0.0
  0
LINE
  8
0
 62
   249
 10
237.5
 20
165.0
 30
0.0
 11
240.0
 21
165.0
 31
0.0
  0
LINE
  8
0
  6
CONTINUOUS
 62
   249
 10
224.489729
 20
133.664649
 30
0.0
 11
222.143963
 21
135.000003
 31
0.0
  0
LINE
  8
0
  6
CONTINUOUS
 62
   249
 10
222.143963
 20
135.000003
 30
0.0
 11
224.489729
 21
136.189922
 31
0.0
  0
LINE
  8
0
  6
CONTINUOUS
 62
   249
 10
225.806523
 20
143.664644
 30
0.0
 11
223.460757
 21
144.999998
 31
0.0
  0
LINE
  8
0
  6
CONTINUOUS
 62
   249
 10
223.460757
 20
144.999998
 30
0.0
 11
225.806523
 21
146.189917
 31
0.0
  0
LINE
  8
0
  6
CONTINUOUS
 62
   249
 10
199.616562
 20
166.637639
 30
0.0
 11
198.759921
 21
167.125292
 31
0.0
  0
LINE
  8
0
  6
CONTINUOUS
 62
   249
 10
198.759921
 20
167.125292
 30
0.0
 11
199.616562
 21
167.559833
 31
0.0
  0
LINE
  8
0
 62
   249
 10
235.0
 20
144.99845
 30
0.0
 11
235.0
 21
154.99845
 31
0.0
  0
LINE
  8
0
 62
   249
 10
237.5
 20
155.0
 30
0.0
 11
240.0
 21
155.0
 31
0.0
  0
LINE
  8
0
 62
   249
 10
235.0
 20
154.99845
 30
0.0
 11
237.5
 21
154.99845
 31
0.0
  0
LINE
  8
0
 62
   249
 10
232.5
 20
150.0
 30
0.0
 11
237.5
 21
150.0
 31
0.0
  0
LINE
  8
0
 62
   249
 10
237.5
 20
150.0
 30
0.0
 11
240.0
 21
150.0
 31
0.0
  0
LINE
  8
0
 62
   249
 10
240.0
 20
150.0
 30
0.0
 11
240.0
 21
152.9
 31
0.0
  0
LINE
  8
0
 62
   249
 10
238.88095
 20
151.944425
 30
0.0
 11
239.560313
 21
151.008681
 31
0.0
  0
LINE
  8
0
 62
   249
 10
245.0
 20
155.0
 30
0.0
 11
239.2
 21
151.5
 31
0.0
  0
LINE
  8
0
 62
   249
 10
237.5
 20
144.99845
 30
0.0
 11
235.0
 21
144.99845
 31
0.0
  0
LINE
  8
0
 62
   249
 10
237.5
 20
145.0
 30
0.0
 11
240.0
 21
145.0
 31
0.0
  0
LINE
  8
0
  6
CONTINUOUS
 62
   249
 10
228.133044
 20
136.335351
 30
0.0
 11
230.47881
 21
134.999997
 31
0.0
  0
LINE
  8
0
  6
CONTINUOUS
 62
   249
 10
230.47881
 20
134.999997
 30
0.0
 11
228.133044
 21
133.810078
 31
0.0
  0
3DFACE
  8
0
  6
CONTINUOUS
 62
   249
 10
251.819436
 20
134.51
 30
0.0
 11
251.833156
 21
134.51
 31
0.0
 12
251.833156
 22
135.49
 32
0.0
 13
251.819436
 23
135.49
 33
0.0
  0
3DFACE
  8
0
  6
CONTINUOUS
 62
   249
 10
251.833156
 20
134.51
 30
0.0
 11
251.846876
 21
134.51
 31
0.0
 12
251.846876
 22
135.49
 32
0.0
 13
251.833156
 23
135.49
 33
0.0
  0
3DFACE
  8
0
  6
CONTINUOUS
 62
   249
 10
251.846876
 20
134.51
 30
0.0
 11
251.860596
 21
134.51
 31
0.0
 12
251.860596
 22
135.49
 32
0.0
 13
251.846876
 23
135.49
 33
0.0
  0
3DFACE
  8
0
  6
CONTINUOUS
 62
   249
 10
251.860596
 20
134.51
 30
0.0
 11
251.874316
 21
134.51
 31
0.0
 12
251.874316
 22
135.49
 32
0.0
 13
251.860596
 23
135.49
 33
0.0
  0
3DFACE
  8
0
  6
CONTINUOUS
 62
   249
 10
251.874316
 20
134.51
 30
0.0
 11
251.888036
 21
134.51
 31
0.0
 12
251.888036
 22
135.49
 32
0.0
 13
251.874316
 23
135.49
 33
0.0
  0
3DFACE
  8
0
  6
CONTINUOUS
 62
   249
 10
251.888036
 20
134.51
 30
0.0
 11
251.901756
 21
134.51
 31
0.0
 12
251.901756
 22
135.49
 32
0.0
 13
251.888036
 23
135.49
 33
0.0
  0
3DFACE
  8
0
  6
CONTINUOUS
 62
   249
 10
251.901756
 20
134.51
 30
0.0
 11
251.915476
 21
134.51
 31
0.0
 12
251.915476
 22
135.49
 32
0.0
 13
251.901756
 23
135.49
 33
0.0
  0
3DFACE
  8
0
  6
CONTINUOUS
 62
   249
 10
251.915476
 20
134.51
 30
0.0
 11
251.929196
 21
134.51
 31
0.0
 12
251.929196
 22
135.49
 32
0.0
 13
251.915476
 23
135.49
 33
0.0
  0
3DFACE
  8
0
  6
CONTINUOUS
 62
   249
 10
251.929196
 20
134.51
 30
0.0
 11
251.942916
 21
134.51
 31
0.0
 12
251.942916
 22
135.49
 32
0.0
 13
251.929196
 23
135.49
 33
0.0
  0
3DFACE
  8
0
  6
CONTINUOUS
 62
   249
 10
251.942916
 20
134.51
 30
0.0
 11
251.956636
 21
134.51
 31
0.0
 12
251.956636
 22
135.49
 32
0.0
 13
251.942916
 23
135.49
 33
0.0
  0
3DFACE
  8
0
  6
CONTINUOUS
 62
   249
 10
251.956636
 20
134.51
 30
0.0
 11
251.970356
 21
134.51
 31
0.0
 12
251.970356
 22
135.49
 32
0.0
 13
251.956636
 23
135.49
 33
0.0
  0
3DFACE
  8
0
  6
CONTINUOUS
 62
   249
 10
251.970356
 20
134.51
 30
0.0
 11
251.984076
 21
134.51
 31
0.0
 12
251.984076
 22
135.49
 32
0.0
 13
251.970356
 23
135.49
 33
0.0
  0
3DFACE
  8
0
  6
CONTINUOUS
 62
   249
 10
251.984076
 20
134.51
 30
0.0
 11
251.997796
 21
134.51
 31
0.0
 12
251.997796
 22
135.49
 32
0.0
 13
251.984076
 23
135.49
 33
0.0
  0
3DFACE
  8
0
  6
CONTINUOUS
 62
   249
 10
251.997796
 20
134.51
 30
0.0
 11
252.011516
 21
134.51
 31
0.0
 12
252.011516
 22
135.49
 32
0.0
 13
251.997796
 23
135.49
 33
0.0
  0
3DFACE
  8
0
  6
CONTINUOUS
 62
   249
 10
252.011516
 20
134.51
 30
0.0
 11
252.025236
 21
134.51
 31
0.0
 12
252.025236
 22
135.49
 32
0.0
 13
252.011516
 23
135.49
 33
0.0
  0
3DFACE
  8
0
  6
CONTINUOUS
 62
   249
 10
252.025236
 20
134.51
 30
0.0
 11
252.038956
 21
134.51
 31
0.0
 12
252.038956
 22
135.49
 32
0.0
 13
252.025236
 23
135.49
 33
0.0
  0
3DFACE
  8
0
  6
CONTINUOUS
 62
   249
 10
252.038956
 20
134.51
 30
0.0
 11
252.052676
 21
134.51
 31
0.0
 12
252.052676
 22
135.49
 32
0.0
 13
252.038956
 23
135.49
 33
0.0
  0
3DFACE
  8
0
  6
CONTINUOUS
 62
   249
 10
252.052676
 20
134.51
 30
0.0
 11
252.066396
 21
134.51
 31
0.0
 12
252.066396
 22
135.49
 32
0.0
 13
252.052676
 23
135.49
 33
0.0
  0
3DFACE
  8
0
  6
CONTINUOUS
 62
   249
 10
252.066396
 20
134.51
 30
0.0
 11
252.080116
 21
134.51
 31
0.0
 12
252.080116
 22
135.49
 32
0.0
 13
252.066396
 23
135.49
 33
0.0
  0
3DFACE
  8
0
  6
CONTINUOUS
 62
   249
 10
252.080116
 20
134.51
 30
0.0
 11
252.093836
 21
134.51
 31
0.0
 12
252.093836
 22
135.49
 32
0.0
 13
252.080116
 23
135.49
 33
0.0
  0
3DFACE
  8
0
  6
CONTINUOUS
 62
   249
 10
252.093836
 20
134.51
 30
0.0
 11
252.107556
 21
134.51
 31
0.0
 12
252.107556
 22
135.49
 32
0.0
 13
252.093836
 23
135.49
 33
0.0
  0
3DFACE
  8
0
  6
CONTINUOUS
 62
   249
 10
252.107556
 20
134.51
 30
0.0
 11
252.121276
 21
134.51
 31
0.0
 12
252.121276
 22
135.49
 32
0.0
 13
252.107556
 23
135.49
 33
0.0
  0
3DFACE
  8
0
  6
CONTINUOUS
 62
   249
 10
252.121276
 20
134.51
 30
0.0
 11
252.134996
 21
134.51
 31
0.0
 12
252.134996
 22
135.49
 32
0.0
 13
252.121276
 23
135.49
 33
0.0
  0
3DFACE
  8
0
  6
CONTINUOUS
 62
   249
 10
252.134996
 20
134.51
 30
0.0
 11
252.148716
 21
134.51
 31
0.0
 12
252.148716
 22
135.49
 32
0.0
 13
252.134996
 23
135.49
 33
0.0
  0
3DFACE
  8
0
  6
CONTINUOUS
 62
   249
 10
252.148716
 20
134.51
 30
0.0
 11
252.162436
 21
134.51
 31
0.0
 12
252.162436
 22
135.49
 32
0.0
 13
252.148716
 23
135.49
 33
0.0
  0
3DFACE
  8
0
  6
CONTINUOUS
 62
   249
 10
252.162436
 20
134.51
 30
0.0
 11
252.176156
 21
134.51
 31
0.0
 12
252.176156
 22
135.49
 32
0.0
 13
252.162436
 23
135.49
 33
0.0
  0
3DFACE
  8
0
  6
CONTINUOUS
 62
   249
 10
252.176156
 20
134.51
 30
0.0
 11
252.189876
 21
134.51
 31
0.0
 12
252.189876
 22
135.49
 32
0.0
 13
252.176156
 23
135.49
 33
0.0
  0
3DFACE
  8
0
  6
CONTINUOUS
 62
   249
 10
252.189876
 20
134.51
 30
0.0
 11
252.203596
 21
134.51
 31
0.0
 12
252.203596
 22
135.49
 32
0.0
 13
252.189876
 23
135.49
 33
0.0
  0
3DFACE
  8
0
  6
CONTINUOUS
 62
   249
 10
252.203596
 20
134.51
 30
0.0
 11
252.217316
 21
134.51
 31
0.0
 12
252.217316
 22
135.49
 32
0.0
 13
252.203596
 23
135.49
 33
0.0
  0
3DFACE
  8
0
  6
CONTINUOUS
 62
   249
 10
252.217316
 20
134.51
 30
0.0
 11
252.231036
 21
134.51
 31
0.0
 12
252.231036
 22
135.49
 32
0.0
 13
252.217316
 23
135.49
 33
0.0
  0
3DFACE
  8
0
  6
CONTINUOUS
 62
   249
 10
252.231036
 20
134.51
 30
0.0
 11
252.244756
 21
134.51
 31
0.0
 12
252.244756
 22
135.49
 32
0.0
 13
252.231036
 23
135.49
 33
0.0
  0
3DFACE
  8
0
  6
CONTINUOUS
 62
   249
 10
252.244756
 20
134.51
 30
0.0
 11
252.258476
 21
134.51
 31
0.0
 12
252.258476
 22
135.49
 32
0.0
 13
252.244756
 23
135.49
 33
0.0
  0
3DFACE
  8
0
  6
CONTINUOUS
 62
   249
 10
252.258476
 20
134.51
 30
0.0
 11
252.272196
 21
134.51
 31
0.0
 12
252.272196
 22
135.49
 32
0.0
 13
252.258476
 23
135.49
 33
0.0
  0
3DFACE
  8
0
  6
CONTINUOUS
 62
   249
 10
252.272196
 20
134.51
 30
0.0
 11
252.285916
 21
134.51
 31
0.0
 12
252.285916
 22
135.49
 32
0.0
 13
252.272196
 23
135.49
 33
0.0
  0
3DFACE
  8
0
  6
CONTINUOUS
 62
   249
 10
252.285916
 20
134.51
 30
0.0
 11
252.299636
 21
134.51
 31
0.0
 12
252.299636
 22
135.49
 32
0.0
 13
252.285916
 23
135.49
 33
0.0
  0
3DFACE
  8
0
  6
CONTINUOUS
 62
   249
 10
252.299636
 20
134.51
 30
0.0
 11
252.313356
 21
134.51
 31
0.0
 12
252.313356
 22
135.49
 32
0.0
 13
252.299636
 23
135.49
 33
0.0
  0
3DFACE
  8
0
  6
CONTINUOUS
 62
   249
 10
252.313356
 20
134.51
 30
0.0
 11
252.327076
 21
134.51
 31
0.0
 12
252.327076
 22
135.49
 32
0.0
 13
252.313356
 23
135.49
 33
0.0
  0
3DFACE
  8
0
  6
CONTINUOUS
 62
   249
 10
252.327076
 20
134.51
 30
0.0
 11
252.340796
 21
134.51
 31
0.0
 12
252.340796
 22
135.49
 32
0.0
 13
252.327076
 23
135.49
 33
0.0
  0
3DFACE
  8
0
  6
CONTINUOUS
 62
   249
 10
252.340796
 20
134.51
 30
0.0
 11
252.354516
 21
134.51
 31
0.0
 12
252.354516
 22
135.49
 32
0.0
 13
252.340796
 23
135.49
 33
0.0
  0
3DFACE
  8
0
  6
CONTINUOUS
 62
   249
 10
252.354516
 20
134.51
 30
0.0
 11
252.368236
 21
134.51
 31
0.0
 12
252.368236
 22
135.49
 32
0.0
 13
252.354516
 23
135.49
 33
0.0
  0
3DFACE
  8
0
  6
CONTINUOUS
 62
   249
 10
252.368236
 20
134.51
 30
0.0
 11
252.381956
 21
134.51
 31
0.0
 12
252.381956
 22
135.49
 32
0.0
 13
252.368236
 23
135.49
 33
0.0
  0
3DFACE
  8
0
  6
CONTINUOUS
 62
   249
 10
252.381956
 20
134.51
 30
0.0
 11
252.395676
 21
134.51
 31
0.0
 12
252.395676
 22
135.49
 32
0.0
 13
252.381956
 23
135.49
 33
0.0
  0
3DFACE
  8
0
  6
CONTINUOUS
 62
   249
 10
252.395676
 20
134.51
 30
0.0
 11
252.409396
 21
134.51
 31
0.0
 12
252.409396
 22
135.49
 32
0.0
 13
252.395676
 23
135.49
 33
0.0
  0
3DFACE
  8
0
  6
CONTINUOUS
 62
   249
 10
252.409396
 20
134.51
 30
0.0
 11
252.423116
 21
134.51
 31
0.0
 12
252.423116
 22
135.49
 32
0.0
 13
252.409396
 23
135.49
 33
0.0
  0
3DFACE
  8
0
  6
CONTINUOUS
 62
   249
 10
252.423116
 20
134.51
 30
0.0
 11
252.436836
 21
134.51
 31
0.0
 12
252.436836
 22
135.49
 32
0.0
 13
252.423116
 23
135.49
 33
0.0
  0
3DFACE
  8
0
  6
CONTINUOUS
 62
   249
 10
252.436836
 20
134.51
 30
0.0
 11
252.450556
 21
134.51
 31
0.0
 12
252.450556
 22
135.49
 32
0.0
 13
252.436836
 23
135.49
 33
0.0
  0
3DFACE
  8
0
  6
CONTINUOUS
 62
   249
 10
252.450556
 20
134.51
 30
0.0
 11
252.464276
 21
134.51
 31
0.0
 12
252.464276
 22
135.49
 32
0.0
 13
252.450556
 23
135.49
 33
0.0
  0
3DFACE
  8
0
  6
CONTINUOUS
 62
   249
 10
252.464276
 20
134.51
 30
0.0
 11
252.477996
 21
134.51
 31
0.0
 12
252.477996
 22
135.49
 32
0.0
 13
252.464276
 23
135.49
 33
0.0
  0
3DFACE
  8
0
  6
CONTINUOUS
 62
   249
 10
252.477996
 20
134.51
 30
0.0
 11
252.491716
 21
134.51
 31
0.0
 12
252.491716
 22
135.49
 32
0.0
 13
252.477996
 23
135.49
 33
0.0
  0
3DFACE
  8
0
  6
CONTINUOUS
 62
   249
 10
252.491716
 20
134.51
 30
0.0
 11
252.505436
 21
134.51
 31
0.0
 12
252.505436
 22
135.49
 32
0.0
 13
252.491716
 23
135.49
 33
0.0
  0
3DFACE
  8
0
  6
CONTINUOUS
 62
   249
 10
252.505436
 20
134.51
 30
0.0
 11
252.519156
 21
134.51
 31
0.0
 12
252.519156
 22
135.49
 32
0.0
 13
252.505436
 23
135.49
 33
0.0
  0
3DFACE
  8
0
  6
CONTINUOUS
 62
   249
 10
252.519156
 20
134.51
 30
0.0
 11
252.532876
 21
134.51
 31
0.0
 12
252.532876
 22
135.49
 32
0.0
 13
252.519156
 23
135.49
 33
0.0
  0
3DFACE
  8
0
  6
CONTINUOUS
 62
   249
 10
252.532876
 20
134.51
 30
0.0
 11
252.546596
 21
134.51
 31
0.0
 12
252.546596
 22
135.49
 32
0.0
 13
252.532876
 23
135.49
 33
0.0
  0
3DFACE
  8
0
  6
CONTINUOUS
 62
   249
 10
252.546596
 20
134.51
 30
0.0
 11
252.560316
 21
134.51
 31
0.0
 12
252.560316
 22
135.49
 32
0.0
 13
252.546596
 23
135.49
 33
0.0
  0
3DFACE
  8
0
  6
CONTINUOUS
 62
   249
 10
252.560316
 20
134.51
 30
0.0
 11
252.574036
 21
134.51
 31
0.0
 12
252.574036
 22
135.49
 32
0.0
 13
252.560316
 23
135.49
 33
0.0
  0
3DFACE
  8
0
  6
CONTINUOUS
 62
   249
 10
252.574036
 20
134.51
 30
0.0
 11
252.587756
 21
134.51
 31
0.0
 12
252.587756
 22
135.49
 32
0.0
 13
252.574036
 23
135.49
 33
0.0
  0
3DFACE
  8
0
  6
CONTINUOUS
 62
   249
 10
252.587756
 20
134.51
 30
0.0
 11
252.601476
 21
134.51
 31
0.0
 12
252.601476
 22
135.49
 32
0.0
 13
252.587756
 23
135.49
 33
0.0
  0
3DFACE
  8
0
  6
CONTINUOUS
 62
   249
 10
252.601476
 20
134.51
 30
0.0
 11
252.615196
 21
134.51
 31
0.0
 12
252.615196
 22
135.49
 32
0.0
 13
252.601476
 23
135.49
 33
0.0
  0
3DFACE
  8
0
  6
CONTINUOUS
 62
   249
 10
252.615196
 20
134.51
 30
0.0
 11
252.628916
 21
134.51
 31
0.0
 12
252.628916
 22
135.49
 32
0.0
 13
252.615196
 23
135.49
 33
0.0
  0
3DFACE
  8
0
  6
CONTINUOUS
 62
   249
 10
252.628916
 20
134.51
 30
0.0
 11
252.642636
 21
134.51
 31
0.0
 12
252.642636
 22
135.49
 32
0.0
 13
252.628916
 23
135.49
 33
0.0
  0
3DFACE
  8
0
  6
CONTINUOUS
 62
   249
 10
252.642636
 20
134.51
 30
0.0
 11
252.656356
 21
134.51
 31
0.0
 12
252.656356
 22
135.49
 32
0.0
 13
252.642636
 23
135.49
 33
0.0
  0
3DFACE
  8
0
  6
CONTINUOUS
 62
   249
 10
252.656356
 20
134.51
 30
0.0
 11
252.670076
 21
134.51
 31
0.0
 12
252.670076
 22
135.49
 32
0.0
 13
252.656356
 23
135.49
 33
0.0
  0
3DFACE
  8
0
  6
CONTINUOUS
 62
   249
 10
252.670076
 20
134.51
 30
0.0
 11
252.683796
 21
134.51
 31
0.0
 12
252.683796
 22
135.49
 32
0.0
 13
252.670076
 23
135.49
 33
0.0
  0
3DFACE
  8
0
  6
CONTINUOUS
 62
   249
 10
252.683796
 20
134.51
 30
0.0
 11
252.697516
 21
134.51
 31
0.0
 12
252.697516
 22
135.49
 32
0.0
 13
252.683796
 23
135.49
 33
0.0
  0
3DFACE
  8
0
  6
CONTINUOUS
 62
   249
 10
252.697516
 20
134.51
 30
0.0
 11
252.711236
 21
134.51
 31
0.0
 12
252.711236
 22
135.49
 32
0.0
 13
252.697516
 23
135.49
 33
0.0
  0
3DFACE
  8
0
  6
CONTINUOUS
 62
   249
 10
252.711236
 20
134.51
 30
0.0
 11
252.724956
 21
134.51
 31
0.0
 12
252.724956
 22
135.49
 32
0.0
 13
252.711236
 23
135.49
 33
0.0
  0
3DFACE
  8
0
  6
CONTINUOUS
 62
   249
 10
252.724956
 20
134.51
 30
0.0
 11
252.738676
 21
134.51
 31
0.0
 12
252.738676
 22
135.49
 32
0.0
 13
252.724956
 23
135.49
 33
0.0
  0
3DFACE
  8
0
  6
CONTINUOUS
 62
   249
 10
252.738676
 20
134.51
 30
0.0
 11
252.752396
 21
134.51
 31
0.0
 12
252.752396
 22
135.49
 32
0.0
 13
252.738676
 23
135.49
 33
0.0
  0
3DFACE
  8
0
  6
CONTINUOUS
 62
   249
 10
252.752396
 20
134.51
 30
0.0
 11
252.766116
 21
134.51
 31
0.0
 12
252.766116
 22
135.49
 32
0.0
 13
252.752396
 23
135.49
 33
0.0
  0
3DFACE
  8
0
  6
CONTINUOUS
 62
   249
 10
252.766116
 20
134.51
 30
0.0
 11
252.779836
 21
134.51
 31
0.0
 12
252.779836
 22
135.49
 32
0.0
 13
252.766116
 23
135.49
 33
0.0
  0
3DFACE
  8
0
  6
CONTINUOUS
 62
   249
 10
252.779836
 20
134.51
 30
0.0
 11
252.793556
 21
134.51
 31
0.0
 12
252.793556
 22
135.49
 32
0.0
 13
252.779836
 23
135.49
 33
0.0
  0
3DFACE
  8
0
  6
CONTINUOUS
 62
   249
 10
252.793556
 20
134.51
 30
0.0
 11
252.807276
 21
134.51
 31
0.0
 12
252.807276
 22
135.49
 32
0.0
 13
252.793556
 23
135.49
 33
0.0
  0
3DFACE
  8
0
  6
CONTINUOUS
 62
   249
 10
252.807276
 20
134.51
 30
0.0
 11
252.820996
 21
134.51
 31
0.0
 12
252.820996
 22
135.49
 32
0.0
 13
252.807276
 23
135.49
 33
0.0
  0
3DFACE
  8
0
  6
CONTINUOUS
 62
   249
 10
252.820996
 20
134.51
 30
0.0
 11
252.834716
 21
134.51
 31
0.0
 12
252.834716
 22
135.49
 32
0.0
 13
252.820996
 23
135.49
 33
0.0
  0
3DFACE
  8
0
  6
CONTINUOUS
 62
   249
 10
252.834716
 20
134.51
 30
0.0
 11
252.848436
 21
134.51
 31
0.0
 12
252.848436
 22
135.49
 32
0.0
 13
252.834716
 23
135.49
 33
0.0
  0
3DFACE
  8
0
  6
CONTINUOUS
 62
   249
 10
252.848436
 20
134.51
 30
0.0
 11
252.862156
 21
134.51
 31
0.0
 12
252.862156
 22
135.49
 32
0.0
 13
252.848436
 23
135.49
 33
0.0
  0
3DFACE
  8
0
  6
CONTINUOUS
 62
   249
 10
252.862156
 20
134.51
 30
0.0
 11
252.875876
 21
134.51
 31
0.0
 12
252.875876
 22
135.49
 32
0.0
 13
252.862156
 23
135.49
 33
0.0
  0
3DFACE
  8
0
  6
CONTINUOUS
 62
   249
 10
252.875876
 20
134.51
 30
0.0
 11
252.889596
 21
134.51
 31
0.0
 12
252.889596
 22
135.49
 32
0.0
 13
252.875876
 23
135.49
 33
0.0
  0
3DFACE
  8
0
  6
CONTINUOUS
 62
   249
 10
252.889596
 20
134.51
 30
0.0
 11
252.903316
 21
134.51
 31
0.0
 12
252.903316
 22
135.49
 32
0.0
 13
252.889596
 23
135.49
 33
0.0
  0
3DFACE
  8
0
  6
CONTINUOUS
 62
   249
 10
252.903316
 20
134.51
 30
0.0
 11
252.917036
 21
134.51
 31
0.0
 12
252.917036
 22
135.49
 32
0.0
 13
252.903316
 23
135.49
 33
0.0
  0
3DFACE
  8
0
  6
CONTINUOUS
 62
   249
 10
252.917036
 20
134.51
 30
0.0
 11
252.930756
 21
134.51
 31
0.0
 12
252.930756
 22
135.49
 32
0.0
 13
252.917036
 23
135.49
 33
0.0
  0
3DFACE
  8
0
  6
CONTINUOUS
 62
   249
 10
252.930756
 20
134.51
 30
0.0
 11
252.944476
 21
134.51
 31
0.0
 12
252.944476
 22
135.49
 32
0.0
 13
252.930756
 23
135.49
 33
0.0
  0
3DFACE
  8
0
  6
CONTINUOUS
 62
   249
 10
252.944476
 20
134.51
 30
0.0
 11
252.958196
 21
134.51
 31
0.0
 12
252.958196
 22
135.49
 32
0.0
 13
252.944476
 23
135.49
 33
0.0
  0
3DFACE
  8
0
  6
CONTINUOUS
 62
   249
 10
252.958196
 20
134.51
 30
0.0
 11
252.971916
 21
134.51
 31
0.0
 12
252.971916
 22
135.49
 32
0.0
 13
252.958196
 23
135.49
 33
0.0
  0
3DFACE
  8
0
  6
CONTINUOUS
 62
   249
 10
252.971916
 20
134.51
 30
0.0
 11
252.985636
 21
134.51
 31
0.0
 12
252.985636
 22
135.49
 32
0.0
 13
252.971916
 23
135.49
 33
0.0
  0
3DFACE
  8
0
  6
CONTINUOUS
 62
   249
 10
252.985636
 20
134.51
 30
0.0
 11
252.999356
 21
134.51
 31
0.0
 12
252.999356
 22
135.49
 32
0.0
 13
252.985636
 23
135.49
 33
0.0
  0
3DFACE
  8
0
  6
CONTINUOUS
 62
   249
 10
252.999356
 20
134.51
 30
0.0
 11
253.013076
 21
134.51
 31
0.0
 12
253.013076
 22
135.49
 32
0.0
 13
252.999356
 23
135.49
 33
0.0
  0
3DFACE
  8
0
  6
CONTINUOUS
 62
   249
 10
253.013076
 20
134.51
 30
0.0
 11
253.026796
 21
134.51
 31
0.0
 12
253.026796
 22
135.49
 32
0.0
 13
253.013076
 23
135.49
 33
0.0
  0
3DFACE
  8
0
  6
CONTINUOUS
 62
   249
 10
253.026796
 20
134.51
 30
0.0
 11
253.040516
 21
134.51
 31
0.0
 12
253.040516
 22
135.49
 32
0.0
 13
253.026796
 23
135.49
 33
0.0
  0
3DFACE
  8
0
  6
CONTINUOUS
 62
   249
 10
253.040516
 20
134.51
 30
0.0
 11
253.054236
 21
134.51
 31
0.0
 12
253.054236
 22
135.49
 32
0.0
 13
253.040516
 23
135.49
 33
0.0
  0
3DFACE
  8
0
  6
CONTINUOUS
 62
   249
 10
253.054236
 20
134.51
 30
0.0
 11
253.067956
 21
134.51
 31
0.0
 12
253.067956
 22
135.49
 32
0.0
 13
253.054236
 23
135.49
 33
0.0
  0
3DFACE
  8
0
  6
CONTINUOUS
 62
   249
 10
253.067956
 20
134.51
 30
0.0
 11
253.081676
 21
134.51
 31
0.0
 12
253.081676
 22
135.49
 32
0.0
 13
253.067956
 23
135.49
 33
0.0
  0
3DFACE
  8
0
  6
CONTINUOUS
 62
   249
 10
253.081676
 20
134.51
 30
0.0
 11
253.095396
 21
134.51
 31
0.0
 12
253.095396
 22
135.49
 32
0.0
 13
253.081676
 23
135.49
 33
0.0
  0
3DFACE
  8
0
  6
CONTINUOUS
 62
   249
 10
253.095396
 20
134.51
 30
0.0
 11
253.109116
 21
134.51
 31
0.0
 12
253.109116
 22
135.49
 32
0.0
 13
253.095396
 23
135.49
 33
0.0
  0
3DFACE
  8
0
  6
CONTINUOUS
 62
   249
 10
253.109116
 20
134.51
 30
0.0
 11
253.122836
 21
134.51
 31
0.0
 12
253.122836
 22
135.49
 32
0.0
 13
253.109116
 23
135.49
 33
0.0
  0
3DFACE
  8
0
  6
CONTINUOUS
 62
   249
 10
253.122836
 20
134.51
 30
0.0
 11
253.136556
 21
134.51
 31
0.0
 12
253.136556
 22
135.49
 32
0.0
 13
253.122836
 23
135.49
 33
0.0
  0
3DFACE
  8
0
  6
CONTINUOUS
 62
   249
 10
253.136556
 20
134.51
 30
0.0
 11
253.150276
 21
134.51
 31
0.0
 12
253.150276
 22
135.49
 32
0.0
 13
253.136556
 23
135.49
 33
0.0
  0
3DFACE
  8
0
  6
CONTINUOUS
 62
   249
 10
253.150276
 20
134.51
 30
0.0
 11
253.163996
 21
134.51
 31
0.0
 12
253.163996
 22
135.49
 32
0.0
 13
253.150276
 23
135.49
 33
0.0
  0
3DFACE
  8
0
  6
CONTINUOUS
 62
   249
 10
253.163996
 20
134.51
 30
0.0
 11
253.177716
 21
134.51
 31
0.0
 12
253.177716
 22
135.49
 32
0.0
 13
253.163996
 23
135.49
 33
0.0
  0
3DFACE
  8
0
  6
CONTINUOUS
 62
   249
 10
253.177716
 20
134.51
 30
0.0
 11
253.191436
 21
134.51
 31
0.0
 12
253.191436
 22
135.49
 32
0.0
 13
253.177716
 23
135.49
 33
0.0
  0
3DFACE
  8
0
  6
CONTINUOUS
 62
   249
 10
253.191436
 20
134.51
 30
0.0
 11
253.205156
 21
134.51
 31
0.0
 12
253.205156
 22
135.49
 32
0.0
 13
253.191436
 23
135.49
 33
0.0
  0
3DFACE
  8
0
  6
CONTINUOUS
 62
   249
 10
253.205156
 20
134.51
 30
0.0
 11
253.218876
 21
134.51
 31
0.0
 12
253.218876
 22
135.49
 32
0.0
 13
253.205156
 23
135.49
 33
0.0
  0
3DFACE
  8
0
  6
CONTINUOUS
 62
   249
 10
253.218876
 20
134.51
 30
0.0
 11
253.232596
 21
134.51
 31
0.0
 12
253.232596
 22
135.49
 32
0.0
 13
253.218876
 23
135.49
 33
0.0
  0
3DFACE
  8
0
  6
CONTINUOUS
 62
   249
 10
253.232596
 20
134.51
 30
0.0
 11
253.246316
 21
134.51
 31
0.0
 12
253.246316
 22
135.49
 32
0.0
 13
253.232596
 23
135.49
 33
0.0
  0
3DFACE
  8
0
  6
CONTINUOUS
 62
   249
 10
253.246316
 20
134.51
 30
0.0
 11
253.260036
 21
134.51
 31
0.0
 12
253.260036
 22
135.49
 32
0.0
 13
253.246316
 23
135.49
 33
0.0
  0
3DFACE
  8
0
  6
CONTINUOUS
 62
   249
 10
253.260036
 20
134.51
 30
0.0
 11
253.273756
 21
134.51
 31
0.0
 12
253.273756
 22
135.49
 32
0.0
 13
253.260036
 23
135.49
 33
0.0
  0
3DFACE
  8
0
  6
CONTINUOUS
 62
   249
 10
253.273756
 20
134.51
 30
0.0
 11
253.287476
 21
134.51
 31
0.0
 12
253.287476
 22
135.49
 32
0.0
 13
253.273756
 23
135.49
 33
0.0
  0
3DFACE
  8
0
  6
CONTINUOUS
 62
   249
 10
253.287476
 20
134.51
 30
0.0
 11
253.301196
 21
134.51
 31
0.0
 12
253.301196
 22
135.49
 32
0.0
 13
253.287476
 23
135.49
 33
0.0
  0
3DFACE
  8
0
  6
CONTINUOUS
 62
   249
 10
253.301196
 20
134.51
 30
0.0
 11
253.314916
 21
134.51
 31
0.0
 12
253.314916
 22
135.49
 32
0.0
 13
253.301196
 23
135.49
 33
0.0
  0
3DFACE
  8
0
  6
CONTINUOUS
 62
   249
 10
253.314916
 20
134.51
 30
0.0
 11
253.328636
 21
134.51
 31
0.0
 12
253.328636
 22
135.49
 32
0.0
 13
253.314916
 23
135.49
 33
0.0
  0
3DFACE
  8
0
  6
CONTINUOUS
 62
   249
 10
253.328636
 20
134.51
 30
0.0
 11
253.342356
 21
134.51
 31
0.0
 12
253.342356
 22
135.49
 32
0.0
 13
253.328636
 23
135.49
 33
0.0
  0
3DFACE
  8
0
  6
CONTINUOUS
 62
   249
 10
253.342356
 20
134.51
 30
0.0
 11
253.356076
 21
134.51
 31
0.0
 12
253.356076
 22
135.49
 32
0.0
 13
253.342356
 23
135.49
 33
0.0
  0
3DFACE
  8
0
  6
CONTINUOUS
 62
   249
 10
253.356076
 20
134.51
 30
0.0
 11
253.369796
 21
134.51
 31
0.0
 12
253.369796
 22
135.49
 32
0.0
 13
253.356076
 23
135.49
 33
0.0
  0
3DFACE
  8
0
  6
CONTINUOUS
 62
   249
 10
253.369796
 20
134.51
 30
0.0
 11
253.383516
 21
134.51
 31
0.0
 12
253.383516
 22
135.49
 32
0.0
 13
253.369796
 23
135.49
 33
0.0
  0
3DFACE
  8
0
  6
CONTINUOUS
 62
   249
 10
253.383516
 20
134.51
 30
0.0
 11
253.397236
 21
134.51
 31
0.0
 12
253.397236
 22
135.49
 32
0.0
 13
253.383516
 23
135.49
 33
0.0
  0
3DFACE
  8
0
  6
CONTINUOUS
 62
   249
 10
253.397236
 20
134.51
 30
0.0
 11
253.410956
 21
134.51
 31
0.0
 12
253.410956
 22
135.49
 32
0.0
 13
253.397236
 23
135.49
 33
0.0
  0
3DFACE
  8
0
  6
CONTINUOUS
 62
   249
 10
253.410956
 20
134.51
 30
0.0
 11
253.424676
 21
134.51
 31
0.0
 12
253.424676
 22
135.49
 32
0.0
 13
253.410956
 23
135.49
 33
0.0
  0
3DFACE
  8
0
  6
CONTINUOUS
 62
   249
 10
253.424676
 20
134.51
 30
0.0
 11
253.438396
 21
134.51
 31
0.0
 12
253.438396
 22
135.49
 32
0.0
 13
253.424676
 23
135.49
 33
0.0
  0
3DFACE
  8
0
  6
CONTINUOUS
 62
   249
 10
253.438396
 20
134.51
 30
0.0
 11
253.452116
 21
134.51
 31
0.0
 12
253.452116
 22
135.49
 32
0.0
 13
253.438396
 23
135.49
 33
0.0
  0
3DFACE
  8
0
  6
CONTINUOUS
 62
   249
 10
253.452116
 20
134.51
 30
0.0
 11
253.465836
 21
134.51
 31
0.0
 12
253.465836
 22
135.49
 32
0.0
 13
253.452116
 23
135.49
 33
0.0
  0
3DFACE
  8
0
  6
CONTINUOUS
 62
   249
 10
253.465836
 20
134.51
 30
0.0
 11
253.479556
 21
134.51
 31
0.0
 12
253.479556
 22
135.49
 32
0.0
 13
253.465836
 23
135.49
 33
0.0
  0
3DFACE
  8
0
  6
CONTINUOUS
 62
   249
 10
253.479556
 20
134.51
 30
0.0
 11
253.493276
 21
134.51
 31
0.0
 12
253.493276
 22
135.49
 32
0.0
 13
253.479556
 23
135.49
 33
0.0
  0
3DFACE
  8
0
  6
CONTINUOUS
 62
   249
 10
253.493276
 20
134.51
 30
0.0
 11
253.506996
 21
134.51
 31
0.0
 12
253.506996
 22
135.49
 32
0.0
 13
253.493276
 23
135.49
 33
0.0
  0
3DFACE
  8
0
  6
CONTINUOUS
 62
   249
 10
253.506996
 20
134.51
 30
0.0
 11
253.520716
 21
134.51
 31
0.0
 12
253.520716
 22
135.49
 32
0.0
 13
253.506996
 23
135.49
 33
0.0
  0
3DFACE
  8
0
  6
CONTINUOUS
 62
   249
 10
253.520716
 20
134.51
 30
0.0
 11
253.534436
 21
134.51
 31
0.0
 12
253.534436
 22
135.49
 32
0.0
 13
253.520716
 23
135.49
 33
0.0
  0
3DFACE
  8
0
  6
CONTINUOUS
 62
   249
 10
253.534436
 20
134.51
 30
0.0
 11
253.548156
 21
134.51
 31
0.0
 12
253.548156
 22
135.49
 32
0.0
 13
253.534436
 23
135.49
 33
0.0
  0
3DFACE
  8
0
  6
CONTINUOUS
 62
   249
 10
253.548156
 20
134.51
 30
0.0
 11
253.561876
 21
134.51
 31
0.0
 12
253.561876
 22
135.49
 32
0.0
 13
253.548156
 23
135.49
 33
0.0
  0
3DFACE
  8
0
  6
CONTINUOUS
 62
   249
 10
253.561876
 20
134.51
 30
0.0
 11
253.575596
 21
134.51
 31
0.0
 12
253.575596
 22
135.49
 32
0.0
 13
253.561876
 23
135.49
 33
0.0
  0
3DFACE
  8
0
  6
CONTINUOUS
 62
   249
 10
253.575596
 20
134.51
 30
0.0
 11
253.589316
 21
134.51
 31
0.0
 12
253.589316
 22
135.49
 32
0.0
 13
253.575596
 23
135.49
 33
0.0
  0
3DFACE
  8
0
  6
CONTINUOUS
 62
   249
 10
253.589316
 20
134.51
 30
0.0
 11
253.603036
 21
134.51
 31
0.0
 12
253.603036
 22
135.49
 32
0.0
 13
253.589316
 23
135.49
 33
0.0
  0
3DFACE
  8
0
  6
CONTINUOUS
 62
   249
 10
253.603036
 20
134.51
 30
0.0
 11
253.616756
 21
134.51
 31
0.0
 12
253.616756
 22
135.49
 32
0.0
 13
253.603036
 23
135.49
 33
0.0
  0
3DFACE
  8
0
  6
CONTINUOUS
 62
   249
 10
253.616756
 20
134.51
 30
0.0
 11
253.630476
 21
134.51
 31
0.0
 12
253.630476
 22
135.49
 32
0.0
 13
253.616756
 23
135.49
 33
0.0
  0
3DFACE
  8
0
  6
CONTINUOUS
 62
   249
 10
253.630476
 20
134.51
 30
0.0
 11
253.644196
 21
134.51
 31
0.0
 12
253.644196
 22
135.49
 32
0.0
 13
253.630476
 23
135.49
 33
0.0
  0
3DFACE
  8
0
  6
CONTINUOUS
 62
   249
 10
253.644196
 20
134.51
 30
0.0
 11
253.657916
 21
134.51
 31
0.0
 12
253.657916
 22
135.49
 32
0.0
 13
253.644196
 23
135.49
 33
0.0
  0
3DFACE
  8
0
  6
CONTINUOUS
 62
   249
 10
253.657916
 20
134.51
 30
0.0
 11
253.671636
 21
134.51
 31
0.0
 12
253.671636
 22
135.49
 32
0.0
 13
253.657916
 23
135.49
 33
0.0
  0
3DFACE
  8
0
  6
CONTINUOUS
 62
   249
 10
253.671636
 20
134.51
 30
0.0
 11
253.685356
 21
134.51
 31
0.0
 12
253.685356
 22
135.49
 32
0.0
 13
253.671636
 23
135.49
 33
0.0
  0
3DFACE
  8
0
  6
CONTINUOUS
 62
   249
 10
253.685356
 20
134.51
 30
0.0
 11
253.699076
 21
134.51
 31
0.0
 12
253.699076
 22
135.49
 32
0.0
 13
253.685356
 23
135.49
 33
0.0
  0
3DFACE
  8
0
  6
CONTINUOUS
 62
   249
 10
253.699076
 20
134.51
 30
0.0
 11
253.712796
 21
134.51
 31
0.0
 12
253.712796
 22
135.49
 32
0.0
 13
253.699076
 23
135.49
 33
0.0
  0
3DFACE
  8
0
  6
CONTINUOUS
 62
   249
 10
253.712796
 20
134.51
 30
0.0
 11
253.726516
 21
134.51
 31
0.0
 12
253.726516
 22
135.49
 32
0.0
 13
253.712796
 23
135.49
 33
0.0
  0
3DFACE
  8
0
  6
CONTINUOUS
 62
   249
 10
253.726516
 20
134.51
 30
0.0
 11
253.740236
 21
134.51
 31
0.0
 12
253.740236
 22
135.49
 32
0.0
 13
253.726516
 23
135.49
 33
0.0
  0
3DFACE
  8
0
  6
CONTINUOUS
 62
   249
 10
253.740236
 20
134.51
 30
0.0
 11
253.753956
 21
134.51
 31
0.0
 12
253.753956
 22
135.49
 32
0.0
 13
253.740236
 23
135.49
 33
0.0
  0
3DFACE
  8
0
  6
CONTINUOUS
 62
   249
 10
253.753956
 20
134.51
 30
0.0
 11
253.767676
 21
134.51
 31
0.0
 12
253.767676
 22
135.49
 32
0.0
 13
253.753956
 23
135.49
 33
0.0
  0
3DFACE
  8
0
  6
CONTINUOUS
 62
   249
 10
253.767676
 20
134.51
 30
0.0
 11
253.781396
 21
134.51
 31
0.0
 12
253.781396
 22
135.49
 32
0.0
 13
253.767676
 23
135.49
 33
0.0
  0
3DFACE
  8
0
  6
CONTINUOUS
 62
   249
 10
253.781396
 20
134.51
 30
0.0
 11
253.795116
 21
134.51
 31
0.0
 12
253.795116
 22
135.49
 32
0.0
 13
253.781396
 23
135.49
 33
0.0
  0
3DFACE
  8
0
  6
CONTINUOUS
 62
   249
 10
253.795116
 20
134.51
 30
0.0
 11
253.808836
 21
134.51
 31
0.0
 12
253.808836
 22
135.49
 32
0.0
 13
253.795116
 23
135.49
 33
0.0
  0
3DFACE
  8
0
  6
CONTINUOUS
 62
   249
 10
253.808836
 20
134.51
 30
0.0
 11
253.822556
 21
134.51
 31
0.0
 12
253.822556
 22
135.49
 32
0.0
 13
253.808836
 23
135.49
 33
0.0
  0
3DFACE
  8
0
  6
CONTINUOUS
 62
   249
 10
253.822556
 20
134.51
 30
0.0
 11
253.836276
 21
134.51
 31
0.0
 12
253.836276
 22
135.49
 32
0.0
 13
253.822556
 23
135.49
 33
0.0
  0
3DFACE
  8
0
  6
CONTINUOUS
 62
   249
 10
253.836276
 20
134.51
 30
0.0
 11
253.849996
 21
134.51
 31
0.0
 12
253.849996
 22
135.49
 32
0.0
 13
253.836276
 23
135.49
 33
0.0
  0
3DFACE
  8
0
  6
CONTINUOUS
 62
   249
 10
253.849996
 20
134.51
 30
0.0
 11
253.863716
 21
134.51
 31
0.0
 12
253.863716
 22
135.49
 32
0.0
 13
253.849996
 23
135.49
 33
0.0
  0
3DFACE
  8
0
  6
CONTINUOUS
 62
   249
 10
253.863716
 20
134.51
 30
0.0
 11
253.877436
 21
134.51
 31
0.0
 12
253.877436
 22
135.49
 32
0.0
 13
253.863716
 23
135.49
 33
0.0
  0
3DFACE
  8
0
  6
CONTINUOUS
 62
   249
 10
253.877436
 20
134.51
 30
0.0
 11
253.891156
 21
134.51
 31
0.0
 12
253.891156
 22
135.49
 32
0.0
 13
253.877436
 23
135.49
 33
0.0
  0
3DFACE
  8
0
  6
CONTINUOUS
 62
   249
 10
253.891156
 20
134.51
 30
0.0
 11
253.904876
 21
134.51
 31
0.0
 12
253.904876
 22
135.49
 32
0.0
 13
253.891156
 23
135.49
 33
0.0
  0
3DFACE
  8
0
  6
CONTINUOUS
 62
   249
 10
253.904876
 20
134.51
 30
0.0
 11
253.918596
 21
134.51
 31
0.0
 12
253.918596
 22
135.49
 32
0.0
 13
253.904876
 23
135.49
 33
0.0
  0
3DFACE
  8
0
  6
CONTINUOUS
 62
   249
 10
253.918596
 20
134.51
 30
0.0
 11
253.932316
 21
134.51
 31
0.0
 12
253.932316
 22
135.49
 32
0.0
 13
253.918596
 23
135.49
 33
0.0
  0
3DFACE
  8
0
  6
CONTINUOUS
 62
   249
 10
253.932316
 20
134.51
 30
0.0
 11
253.946036
 21
134.51
 31
0.0
 12
253.946036
 22
135.49
 32
0.0
 13
253.932316
 23
135.49
 33
0.0
  0
3DFACE
  8
0
  6
CONTINUOUS
 62
   249
 10
253.946036
 20
134.51
 30
0.0
 11
253.959756
 21
134.51
 31
0.0
 12
253.959756
 22
135.49
 32
0.0
 13
253.946036
 23
135.49
 33
0.0
  0
3DFACE
  8
0
  6
CONTINUOUS
 62
   249
 10
253.959756
 20
134.51
 30
0.0
 11
253.973476
 21
134.51
 31
0.0
 12
253.973476
 22
135.49
 32
0.0
 13
253.959756
 23
135.49
 33
0.0
  0
3DFACE
  8
0
  6
CONTINUOUS
 62
   249
 10
253.973476
 20
134.51
 30
0.0
 11
253.987196
 21
134.51
 31
0.0
 12
253.987196
 22
135.49
 32
0.0
 13
253.973476
 23
135.49
 33
0.0
  0
3DFACE
  8
0
  6
CONTINUOUS
 62
   249
 10
253.987196
 20
134.51
 30
0.0
 11
254.000916
 21
134.51
 31
0.0
 12
254.000916
 22
135.49
 32
0.0
 13
253.987196
 23
135.49
 33
0.0
  0
3DFACE
  8
0
  6
CONTINUOUS
 62
   249
 10
254.000916
 20
134.51
 30
0.0
 11
254.014636
 21
134.51
 31
0.0
 12
254.014636
 22
135.49
 32
0.0
 13
254.000916
 23
135.49
 33
0.0
  0
3DFACE
  8
0
  6
CONTINUOUS
 62
   249
 10
254.014636
 20
134.51
 30
0.0
 11
254.028356
 21
134.51
 31
0.0
 12
254.028356
 22
135.49
 32
0.0
 13
254.014636
 23
135.49
 33
0.0
  0
3DFACE
  8
0
  6
CONTINUOUS
 62
   249
 10
254.028356
 20
134.51
 30
0.0
 11
254.042076
 21
134.51
 31
0.0
 12
254.042076
 22
135.49
 32
0.0
 13
254.028356
 23
135.49
 33
0.0
  0
3DFACE
  8
0
  6
CONTINUOUS
 62
   249
 10
254.042076
 20
134.51
 30
0.0
 11
254.055796
 21
134.51
 31
0.0
 12
254.055796
 22
135.49
 32
0.0
 13
254.042076
 23
135.49
 33
0.0
  0
3DFACE
  8
0
  6
CONTINUOUS
 62
   249
 10
254.055796
 20
134.51
 30
0.0
 11
254.069516
 21
134.51
 31
0.0
 12
254.069516
 22
135.49
 32
0.0
 13
254.055796
 23
135.49
 33
0.0
  0
3DFACE
  8
0
  6
CONTINUOUS
 62
   249
 10
254.069516
 20
134.51
 30
0.0
 11
254.083236
 21
134.51
 31
0.0
 12
254.083236
 22
135.49
 32
0.0
 13
254.069516
 23
135.49
 33
0.0
  0
3DFACE
  8
0
  6
CONTINUOUS
 62
   249
 10
254.083236
 20
134.51
 30
0.0
 11
254.096956
 21
134.51
 31
0.0
 12
254.096956
 22
135.49
 32
0.0
 13
254.083236
 23
135.49
 33
0.0
  0
3DFACE
  8
0
  6
CONTINUOUS
 62
   249
 10
254.096956
 20
134.51
 30
0.0
 11
254.110676
 21
134.51
 31
0.0
 12
254.110676
 22
135.49
 32
0.0
 13
254.096956
 23
135.49
 33
0.0
  0
3DFACE
  8
0
  6
CONTINUOUS
 62
   249
 10
254.110676
 20
134.51
 30
0.0
 11
254.124396
 21
134.51
 31
0.0
 12
254.124396
 22
135.49
 32
0.0
 13
254.110676
 23
135.49
 33
0.0
  0
3DFACE
  8
0
  6
CONTINUOUS
 62
   249
 10
254.124396
 20
134.51
 30
0.0
 11
254.138116
 21
134.51
 31
0.0
 12
254.138116
 22
135.49
 32
0.0
 13
254.124396
 23
135.49
 33
0.0
  0
3DFACE
  8
0
  6
CONTINUOUS
 62
   249
 10
254.138116
 20
134.51
 30
0.0
 11
254.151836
 21
134.51
 31
0.0
 12
254.151836
 22
135.49
 32
0.0
 13
254.138116
 23
135.49
 33
0.0
  0
3DFACE
  8
0
  6
CONTINUOUS
 62
   249
 10
254.151836
 20
134.51
 30
0.0
 11
254.165556
 21
134.51
 31
0.0
 12
254.165556
 22
135.49
 32
0.0
 13
254.151836
 23
135.49
 33
0.0
  0
3DFACE
  8
0
  6
CONTINUOUS
 62
   249
 10
254.165556
 20
134.51
 30
0.0
 11
254.179276
 21
134.51
 31
0.0
 12
254.179276
 22
135.49
 32
0.0
 13
254.165556
 23
135.49
 33
0.0
  0
3DFACE
  8
0
  6
CONTINUOUS
 62
   249
 10
254.179276
 20
134.51
 30
0.0
 11
254.192996
 21
134.51
 31
0.0
 12
254.192996
 22
135.49
 32
0.0
 13
254.179276
 23
135.49
 33
0.0
  0
3DFACE
  8
0
  6
CONTINUOUS
 62
   249
 10
254.192996
 20
134.51
 30
0.0
 11
254.206716
 21
134.51
 31
0.0
 12
254.206716
 22
135.49
 32
0.0
 13
254.192996
 23
135.49
 33
0.0
  0
3DFACE
  8
0
  6
CONTINUOUS
 62
   249
 10
254.206716
 20
134.51
 30
0.0
 11
254.220436
 21
134.51
 31
0.0
 12
254.220436
 22
135.49
 32
0.0
 13
254.206716
 23
135.49
 33
0.0
  0
3DFACE
  8
0
  6
CONTINUOUS
 62
   249
 10
254.220436
 20
134.51
 30
0.0
 11
254.234156
 21
134.51
 31
0.0
 12
254.234156
 22
135.49
 32
0.0
 13
254.220436
 23
135.49
 33
0.0
  0
3DFACE
  8
0
  6
CONTINUOUS
 62
   249
 10
254.234156
 20
134.51
 30
0.0
 11
254.247876
 21
134.51
 31
0.0
 12
254.247876
 22
135.49
 32
0.0
 13
254.234156
 23
135.49
 33
0.0
  0
3DFACE
  8
0
  6
CONTINUOUS
 62
   249
 10
254.247876
 20
134.51
 30
0.0
 11
254.261596
 21
134.51
 31
0.0
 12
254.261596
 22
135.49
 32
0.0
 13
254.247876
 23
135.49
 33
0.0
  0
3DFACE
  8
0
  6
CONTINUOUS
 62
   249
 10
254.261596
 20
134.51
 30
0.0
 11
254.275316
 21
134.51
 31
0.0
 12
254.275316
 22
135.49
 32
0.0
 13
254.261596
 23
135.49
 33
0.0
  0
3DFACE
  8
0
  6
CONTINUOUS
 62
   249
 10
254.275316
 20
134.51
 30
0.0
 11
254.289036
 21
134.51
 31
0.0
 12
254.289036
 22
135.49
 32
0.0
 13
254.275316
 23
135.49
 33
0.0
  0
3DFACE
  8
0
  6
CONTINUOUS
 62
   249
 10
254.289036
 20
134.51
 30
0.0
 11
254.302756
 21
134.51
 31
0.0
 12
254.302756
 22
135.49
 32
0.0
 13
254.289036
 23
135.49
 33
0.0
  0
3DFACE
  8
0
  6
CONTINUOUS
 62
   249
 10
254.302756
 20
134.51
 30
0.0
 11
254.316476
 21
134.51
 31
0.0
 12
254.316476
 22
135.49
 32
0.0
 13
254.302756
 23
135.49
 33
0.0
  0
3DFACE
  8
0
  6
CONTINUOUS
 62
   249
 10
254.316476
 20
134.51
 30
0.0
 11
254.330196
 21
134.51
 31
0.0
 12
254.330196
 22
135.49
 32
0.0
 13
254.316476
 23
135.49
 33
0.0
  0
3DFACE
  8
0
  6
CONTINUOUS
 62
   249
 10
254.330196
 20
134.51
 30
0.0
 11
254.343916
 21
134.51
 31
0.0
 12
254.343916
 22
135.49
 32
0.0
 13
254.330196
 23
135.49
 33
0.0
  0
3DFACE
  8
0
  6
CONTINUOUS
 62
   249
 10
254.343916
 20
134.51
 30
0.0
 11
254.357636
 21
134.51
 31
0.0
 12
254.357636
 22
135.49
 32
0.0
 13
254.343916
 23
135.49
 33
0.0
  0
3DFACE
  8
0
  6
CONTINUOUS
 62
   249
 10
254.357636
 20
134.51
 30
0.0
 11
254.371356
 21
134.51
 31
0.0
 12
254.371356
 22
135.49
 32
0.0
 13
254.357636
 23
135.49
 33
0.0
  0
3DFACE
  8
0
  6
CONTINUOUS
 62
   249
 10
254.371356
 20
134.51
 30
0.0
 11
254.385076
 21
134.51
 31
0.0
 12
254.385076
 22
135.49
 32
0.0
 13
254.371356
 23
135.49
 33
0.0
  0
3DFACE
  8
0
  6
CONTINUOUS
 62
   249
 10
254.385076
 20
134.51
 30
0.0
 11
254.398796
 21
134.51
 31
0.0
 12
254.398796
 22
135.49
 32
0.0
 13
254.385076
 23
135.49
 33
0.0
  0
3DFACE
  8
0
  6
CONTINUOUS
 62
   249
 10
254.398796
 20
134.51
 30
0.0
 11
254.412516
 21
134.51
 31
0.0
 12
254.412516
 22
135.49
 32
0.0
 13
254.398796
 23
135.49
 33
0.0
  0
3DFACE
  8
0
  6
CONTINUOUS
 62
   249
 10
254.412516
 20
134.51
 30
0.0
 11
254.426236
 21
134.51
 31
0.0
 12
254.426236
 22
135.49
 32
0.0
 13
254.412516
 23
135.49
 33
0.0
  0
3DFACE
  8
0
  6
CONTINUOUS
 62
   249
 10
254.426236
 20
134.51
 30
0.0
 11
254.439956
 21
134.51
 31
0.0
 12
254.439956
 22
135.49
 32
0.0
 13
254.426236
 23
135.49
 33
0.0
  0
3DFACE
  8
0
  6
CONTINUOUS
 62
   249
 10
254.439956
 20
134.51
 30
0.0
 11
254.453676
 21
134.51
 31
0.0
 12
254.453676
 22
135.49
 32
0.0
 13
254.439956
 23
135.49
 33
0.0
  0
3DFACE
  8
0
  6
CONTINUOUS
 62
   249
 10
254.453676
 20
134.51
 30
0.0
 11
254.467396
 21
134.51
 31
0.0
 12
254.467396
 22
135.49
 32
0.0
 13
254.453676
 23
135.49
 33
0.0
  0
3DFACE
  8
0
  6
CONTINUOUS
 62
   249
 10
254.467396
 20
134.51
 30
0.0
 11
254.481116
 21
134.51
 31
0.0
 12
254.481116
 22
135.49
 32
0.0
 13
254.467396
 23
135.49
 33
0.0
  0
3DFACE
  8
0
  6
CONTINUOUS
 62
   249
 10
254.481116
 20
134.51
 30
0.0
 11
254.494836
 21
134.51
 31
0.0
 12
254.494836
 22
135.49
 32
0.0
 13
254.481116
 23
135.49
 33
0.0
  0
3DFACE
  8
0
  6
CONTINUOUS
 62
   249
 10
254.494836
 20
134.51
 30
0.0
 11
254.508556
 21
134.51
 31
0.0
 12
254.508556
 22
135.49
 32
0.0
 13
254.494836
 23
135.49
 33
0.0
  0
3DFACE
  8
0
  6
CONTINUOUS
 62
   249
 10
254.508556
 20
134.51
 30
0.0
 11
254.522276
 21
134.51
 31
0.0
 12
254.522276
 22
135.49
 32
0.0
 13
254.508556
 23
135.49
 33
0.0
  0
3DFACE
  8
0
  6
CONTINUOUS
 62
   249
 10
254.522276
 20
134.51
 30
0.0
 11
254.535996
 21
134.51
 31
0.0
 12
254.535996
 22
135.49
 32
0.0
 13
254.522276
 23
135.49
 33
0.0
  0
3DFACE
  8
0
  6
CONTINUOUS
 62
   249
 10
254.535996
 20
134.51
 30
0.0
 11
254.549716
 21
134.51
 31
0.0
 12
254.549716
 22
135.49
 32
0.0
 13
254.535996
 23
135.49
 33
0.0
  0
3DFACE
  8
0
  6
CONTINUOUS
 62
   249
 10
254.549716
 20
134.51
 30
0.0
 11
254.563436
 21
134.51
 31
0.0
 12
254.563436
 22
135.49
 32
0.0
 13
254.549716
 23
135.49
 33
0.0
  0
3DFACE
  8
0
  6
CONTINUOUS
 62
   249
 10
254.563436
 20
134.51
 30
0.0
 11
254.577156
 21
134.51
 31
0.0
 12
254.577156
 22
135.49
 32
0.0
 13
254.563436
 23
135.49
 33
0.0
  0
3DFACE
  8
0
  6
CONTINUOUS
 62
   249
 10
254.577156
 20
134.51
 30
0.0
 11
254.590876
 21
134.51
 31
0.0
 12
254.590876
 22
135.49
 32
0.0
 13
254.577156
 23
135.49
 33
0.0
  0
3DFACE
  8
0
  6
CONTINUOUS
 62
   249
 10
254.590876
 20
134.51
 30
0.0
 11
254.604596
 21
134.51
 31
0.0
 12
254.604596
 22
135.49
 32
0.0
 13
254.590876
 23
135.49
 33
0.0
  0
3DFACE
  8
0
  6
CONTINUOUS
 62
   249
 10
254.604596
 20
134.51
 30
0.0
 11
254.618316
 21
134.51
 31
0.0
 12
254.618316
 22
135.49
 32
0.0
 13
254.604596
 23
135.49
 33
0.0
  0
3DFACE
  8
0
  6
CONTINUOUS
 62
   249
 10
254.618316
 20
134.51
 30
0.0
 11
254.632036
 21
134.51
 31
0.0
 12
254.632036
 22
135.49
 32
0.0
 13
254.618316
 23
135.49
 33
0.0
  0
3DFACE
  8
0
  6
CONTINUOUS
 62
   249
 10
254.632036
 20
134.51
 30
0.0
 11
254.645756
 21
134.51
 31
0.0
 12
254.645756
 22
135.49
 32
0.0
 13
254.632036
 23
135.49
 33
0.0
  0
3DFACE
  8
0
  6
CONTINUOUS
 62
   249
 10
254.645756
 20
134.51
 30
0.0
 11
254.659476
 21
134.51
 31
0.0
 12
254.659476
 22
135.49
 32
0.0
 13
254.645756
 23
135.49
 33
0.0
  0
3DFACE
  8
0
  6
CONTINUOUS
 62
   249
 10
254.659476
 20
134.51
 30
0.0
 11
254.673196
 21
134.51
 31
0.0
 12
254.673196
 22
135.49
 32
0.0
 13
254.659476
 23
135.49
 33
0.0
  0
3DFACE
  8
0
  6
CONTINUOUS
 62
   249
 10
254.673196
 20
134.51
 30
0.0
 11
254.686916
 21
134.51
 31
0.0
 12
254.686916
 22
135.49
 32
0.0
 13
254.673196
 23
135.49
 33
0.0
  0
3DFACE
  8
0
  6
CONTINUOUS
 62
   249
 10
254.686916
 20
134.51
 30
0.0
 11
254.700636
 21
134.51
 31
0.0
 12
254.700636
 22
135.49
 32
0.0
 13
254.686916
 23
135.49
 33
0.0
  0
3DFACE
  8
0
  6
CONTINUOUS
 62
   249
 10
254.700636
 20
134.51
 30
0.0
 11
254.714356
 21
134.51
 31
0.0
 12
254.714356
 22
135.49
 32
0.0
 13
254.700636
 23
135.49
 33
0.0
  0
3DFACE
  8
0
  6
CONTINUOUS
 62
   249
 10
254.714356
 20
134.51
 30
0.0
 11
254.728076
 21
134.51
 31
0.0
 12
254.728076
 22
135.49
 32
0.0
 13
254.714356
 23
135.49
 33
0.0
  0
3DFACE
  8
0
  6
CONTINUOUS
 62
   249
 10
254.728076
 20
134.51
 30
0.0
 11
254.741796
 21
134.51
 31
0.0
 12
254.741796
 22
135.49
 32
0.0
 13
254.728076
 23
135.49
 33
0.0
  0
3DFACE
  8
0
  6
CONTINUOUS
 62
   249
 10
254.741796
 20
134.51
 30
0.0
 11
254.755516
 21
134.51
 31
0.0
 12
254.755516
 22
135.49
 32
0.0
 13
254.741796
 23
135.49
 33
0.0
  0
3DFACE
  8
0
  6
CONTINUOUS
 62
   249
 10
254.755516
 20
134.51
 30
0.0
 11
254.769236
 21
134.51
 31
0.0
 12
254.769236
 22
135.49
 32
0.0
 13
254.755516
 23
135.49
 33
0.0
  0
3DFACE
  8
0
  6
CONTINUOUS
 62
   249
 10
254.769236
 20
134.51
 30
0.0
 11
254.782956
 21
134.51
 31
0.0
 12
254.782956
 22
135.49
 32
0.0
 13
254.769236
 23
135.49
 33
0.0
  0
3DFACE
  8
0
  6
CONTINUOUS
 62
   249
 10
254.782956
 20
134.51
 30
0.0
 11
254.796676
 21
134.51
 31
0.0
 12
254.796676
 22
135.49
 32
0.0
 13
254.782956
 23
135.49
 33
0.0
  0
3DFACE
  8
0
  6
CONTINUOUS
 62
   249
 10
254.796676
 20
134.51
 30
0.0
 11
254.810396
 21
134.51
 31
0.0
 12
254.810396
 22
135.49
 32
0.0
 13
254.796676
 23
135.49
 33
0.0
  0
3DFACE
  8
0
  6
CONTINUOUS
 62
   249
 10
254.810396
 20
134.51
 30
0.0
 11
254.824116
 21
134.51
 31
0.0
 12
254.824116
 22
135.49
 32
0.0
 13
254.810396
 23
135.49
 33
0.0
  0
3DFACE
  8
0
  6
CONTINUOUS
 62
   249
 10
254.824116
 20
134.51
 30
0.0
 11
254.837836
 21
134.51
 31
0.0
 12
254.837836
 22
135.49
 32
0.0
 13
254.824116
 23
135.49
 33
0.0
  0
3DFACE
  8
0
  6
CONTINUOUS
 62
   249
 10
254.837836
 20
134.51
 30
0.0
 11
254.851556
 21
134.51
 31
0.0
 12
254.851556
 22
135.49
 32
0.0
 13
254.837836
 23
135.49
 33
0.0
  0
3DFACE
  8
0
  6
CONTINUOUS
 62
   249
 10
254.851556
 20
134.51
 30
0.0
 11
254.865276
 21
134.51
 31
0.0
 12
254.865276
 22
135.49
 32
0.0
 13
254.851556
 23
135.49
 33
0.0
  0
3DFACE
  8
0
  6
CONTINUOUS
 62
   249
 10
254.865276
 20
134.51
 30
0.0
 11
254.878996
 21
134.51
 31
0.0
 12
254.878996
 22
135.49
 32
0.0
 13
254.865276
 23
135.49
 33
0.0
  0
3DFACE
  8
0
  6
CONTINUOUS
 62
   249
 10
254.878996
 20
134.51
 30
0.0
 11
254.892716
 21
134.51
 31
0.0
 12
254.892716
 22
135.49
 32
0.0
 13
254.878996
 23
135.49
 33
0.0
  0
3DFACE
  8
0
  6
CONTINUOUS
 62
   249
 10
254.892716
 20
134.51
 30
0.0
 11
254.906436
 21
134.51
 31
0.0
 12
254.906436
 22
135.49
 32
0.0
 13
254.892716
 23
135.49
 33
0.0
  0
3DFACE
  8
0
  6
CONTINUOUS
 62
   249
 10
254.906436
 20
134.51
 30
0.0
 11
254.920156
 21
134.51
 31
0.0
 12
254.920156
 22
135.49
 32
0.0
 13
254.906436
 23
135.49
 33
0.0
  0
3DFACE
  8
0
  6
CONTINUOUS
 62
   249
 10
254.920156
 20
134.51
 30
0.0
 11
254.933876
 21
134.51
 31
0.0
 12
254.933876
 22
135.49
 32
0.0
 13
254.920156
 23
135.49
 33
0.0
  0
3DFACE
  8
0
  6
CONTINUOUS
 62
   249
 10
254.933876
 20
134.51
 30
0.0
 11
254.947596
 21
134.51
 31
0.0
 12
254.947596
 22
135.49
 32
0.0
 13
254.933876
 23
135.49
 33
0.0
  0
3DFACE
  8
0
  6
CONTINUOUS
 62
   249
 10
254.947596
 20
134.51
 30
0.0
 11
254.961316
 21
134.51
 31
0.0
 12
254.961316
 22
135.49
 32
0.0
 13
254.947596
 23
135.49
 33
0.0
  0
3DFACE
  8
0
  6
CONTINUOUS
 62
   249
 10
254.961316
 20
134.51
 30
0.0
 11
254.975036
 21
134.51
 31
0.0
 12
254.975036
 22
135.49
 32
0.0
 13
254.961316
 23
135.49
 33
0.0
  0
3DFACE
  8
0
  6
CONTINUOUS
 62
   249
 10
254.975036
 20
134.51
 30
0.0
 11
254.988756
 21
134.51
 31
0.0
 12
254.988756
 22
135.49
 32
0.0
 13
254.975036
 23
135.49
 33
0.0
  0
3DFACE
  8
0
  6
CONTINUOUS
 62
   249
 10
254.988756
 20
134.51
 30
0.0
 11
255.002476
 21
134.51
 31
0.0
 12
255.002476
 22
135.49
 32
0.0
 13
254.988756
 23
135.49
 33
0.0
  0
3DFACE
  8
0
  6
CONTINUOUS
 62
   249
 10
255.002476
 20
134.51
 30
0.0
 11
255.016196
 21
134.51
 31
0.0
 12
255.016196
 22
135.49
 32
0.0
 13
255.002476
 23
135.49
 33
0.0
  0
3DFACE
  8
0
  6
CONTINUOUS
 62
   249
 10
255.016196
 20
134.51
 30
0.0
 11
255.029916
 21
134.51
 31
0.0
 12
255.029916
 22
135.49
 32
0.0
 13
255.016196
 23
135.49
 33
0.0
  0
3DFACE
  8
0
  6
CONTINUOUS
 62
   249
 10
255.029916
 20
134.51
 30
0.0
 11
255.043636
 21
134.51
 31
0.0
 12
255.043636
 22
135.49
 32
0.0
 13
255.029916
 23
135.49
 33
0.0
  0
3DFACE
  8
0
  6
CONTINUOUS
 62
   249
 10
255.043636
 20
134.51
 30
0.0
 11
255.057356
 21
134.51
 31
0.0
 12
255.057356
 22
135.49
 32
0.0
 13
255.043636
 23
135.49
 33
0.0
  0
3DFACE
  8
0
  6
CONTINUOUS
 62
   249
 10
255.057356
 20
134.51
 30
0.0
 11
255.071076
 21
134.51
 31
0.0
 12
255.071076
 22
135.49
 32
0.0
 13
255.057356
 23
135.49
 33
0.0
  0
3DFACE
  8
0
  6
CONTINUOUS
 62
   249
 10
255.071076
 20
134.51
 30
0.0
 11
255.084796
 21
134.51
 31
0.0
 12
255.084796
 22
135.49
 32
0.0
 13
255.071076
 23
135.49
 33
0.0
  0
3DFACE
  8
0
  6
CONTINUOUS
 62
   249
 10
255.084796
 20
134.51
 30
0.0
 11
255.098516
 21
134.51
 31
0.0
 12
255.098516
 22
135.49
 32
0.0
 13
255.084796
 23
135.49
 33
0.0
  0
3DFACE
  8
0
  6
CONTINUOUS
 62
   249
 10
255.098516
 20
134.51
 30
0.0
 11
255.112236
 21
134.51
 31
0.0
 12
255.112236
 22
135.49
 32
0.0
 13
255.098516
 23
135.49
 33
0.0
  0
3DFACE
  8
0
  6
CONTINUOUS
 62
   249
 10
255.112236
 20
134.51
 30
0.0
 11
255.125956
 21
134.51
 31
0.0
 12
255.125956
 22
135.49
 32
0.0
 13
255.112236
 23
135.49
 33
0.0
  0
3DFACE
  8
0
  6
CONTINUOUS
 62
   249
 10
255.125956
 20
134.51
 30
0.0
 11
255.139676
 21
134.51
 31
0.0
 12
255.139676
 22
135.49
 32
0.0
 13
255.125956
 23
135.49
 33
0.0
  0
3DFACE
  8
0
  6
CONTINUOUS
 62
   249
 10
255.139676
 20
134.51
 30
0.0
 11
255.153396
 21
134.51
 31
0.0
 12
255.153396
 22
135.49
 32
0.0
 13
255.139676
 23
135.49
 33
0.0
  0
3DFACE
  8
0
  6
CONTINUOUS
 62
   249
 10
255.153396
 20
134.51
 30
0.0
 11
255.167116
 21
134.51
 31
0.0
 12
255.167116
 22
135.49
 32
0.0
 13
255.153396
 23
135.49
 33
0.0
  0
3DFACE
  8
0
  6
CONTINUOUS
 62
   249
 10
255.167116
 20
134.51
 30
0.0
 11
255.180836
 21
134.51
 31
0.0
 12
255.180836
 22
135.49
 32
0.0
 13
255.167116
 23
135.49
 33
0.0
  0
3DFACE
  8
0
  6
CONTINUOUS
 62
   249
 10
255.180836
 20
134.51
 30
0.0
 11
255.194556
 21
134.51
 31
0.0
 12
255.194556
 22
135.49
 32
0.0
 13
255.180836
 23
135.49
 33
0.0
  0
3DFACE
  8
0
  6
CONTINUOUS
 62
   249
 10
255.194556
 20
134.51
 30
0.0
 11
255.208276
 21
134.51
 31
0.0
 12
255.208276
 22
135.49
 32
0.0
 13
255.194556
 23
135.49
 33
0.0
  0
3DFACE
  8
0
  6
CONTINUOUS
 62
   249
 10
255.208276
 20
134.51
 30
0.0
 11
255.221996
 21
134.51
 31
0.0
 12
255.221996
 22
135.49
 32
0.0
 13
255.208276
 23
135.49
 33
0.0
  0
3DFACE
  8
0
  6
CONTINUOUS
 62
   249
 10
255.221996
 20
134.51
 30
0.0
 11
255.235716
 21
134.51
 31
0.0
 12
255.235716
 22
135.49
 32
0.0
 13
255.221996
 23
135.49
 33
0.0
  0
3DFACE
  8
0
  6
CONTINUOUS
 62
   249
 10
255.235716
 20
134.51
 30
0.0
 11
255.249436
 21
134.51
 31
0.0
 12
255.249436
 22
135.49
 32
0.0
 13
255.235716
 23
135.49
 33
0.0
  0
LINE
  8
0
  6
CONTINUOUS
 62
   249
 10
198.364373
 20
183.304087
 30
0.0
 11
199.221014
 21
182.816434
 31
0.0
  0
LINE
  8
0
  6
CONTINUOUS
 62
   249
 10
199.221014
 20
182.816434
 30
0.0
 11
198.364373
 21
182.381893
 31
0.0
  0
LINE
  8
0
  6
CONTINUOUS
 62
   249
 10
199.305649
 20
175.943015
 30
0.0
 11
200.162289
 21
175.455362
 31
0.0
  0
LINE
  8
0
  6
CONTINUOUS
 62
   249
 10
200.162289
 20
175.455362
 30
0.0
 11
199.305649
 21
175.020821
 31
0.0
  0
LINE
  8
0
  6
CONTINUOUS
 62
   249
 10
198.364373
 20
190.970618
 30
0.0
 11
199.221014
 21
190.482965
 31
0.0
  0
LINE
  8
0
  6
CONTINUOUS
 62
   249
 10
199.221014
 20
190.482965
 30
0.0
 11
198.364373
 21
190.048424
 31
0.0
  0
LINE
  8
0
  6
CONTINUOUS
 62
   249
 10
224.489729
 20
183.664635
 30
0.0
 11
222.143963
 21
184.999989
 31
0.0
  0
LINE
  8
0
  6
CONTINUOUS
 62
   249
 10
222.143963
 20
184.999989
 30
0.0
 11
224.489729
 21
186.189908
 31
0.0
  0
ARC
  8
0
  6
CONTINUOUS
 62
   249
 10
220.0
 20
185.0
 30
0.0
 40
0.5
 50
180.0
 51
0.0
  0
ARC
  8
0
  6
CONTINUOUS
 62
   249
 10
220.0
 20
185.0
 30
0.0
 40
0.5
 50
0.0
 51
180.0
  0
LINE
  8
0
  6
CONTINUOUS
 62
   249
 10
198.364373
 20
198.163498
 30
0.0
 11
199.221014
 21
197.675846
 31
0.0
  0
LINE
  8
0
  6
CONTINUOUS
 62
   249
 10
199.221014
 20
197.675846
 30
0.0
 11
198.364373
 21
197.241304
 31
0.0
  0
LINE
  8
0
 62
   249
 10
235.0
 20
184.99845
 30
0.0
 11
235.0
 21
194.99845
 31
0.0
  0
LINE
  8
0
 62
   249
 10
237.5
 20
195.0
 30
0.0
 11
240.0
 21
195.0
 31
0.0
  0
LINE
  8
0
 62
   249
 10
235.0
 20
194.99845
 30
0.0
 11
237.5
 21
194.99845
 31
0.0
  0
LINE
  8
0
 62
   249
 10
232.5
 20
190.0
 30
0.0
 11
237.5
 21
190.0
 31
0.0
  0
LINE
  8
0
 62
   249
 10
237.5
 20
190.0
 30
0.0
 11
240.0
 21
190.0
 31
0.0
  0
LINE
  8
0
 62
   249
 10
240.0
 20
190.0
 30
0.0
 11
240.0
 21
192.9
 31
0.0
  0
LINE
  8
0
 62
   249
 10
238.88095
 20
191.944425
 30
0.0
 11
239.560313
 21
191.008681
 31
0.0
  0
LINE
  8
0
 62
   249
 10
245.0
 20
195.0
 30
0.0
 11
239.2
 21
191.5
 31
0.0
  0
LINE
  8
0
 62
   249
 10
237.5
 20
184.99845
 30
0.0
 11
235.0
 21
184.99845
 31
0.0
  0
LINE
  8
0
 62
   249
 10
237.5
 20
185.0
 30
0.0
 11
240.0
 21
185.0
 31
0.0
  0
INSERT
  8
0
  6
CENTER
 62
   249
  2
BLC26
 10
296.410526
 20
172.580446
 30
0.0
 41
1.006225
 42
1.006225
 50
180.0
 43
1.006225
  0
ARC
  8
0
  6
CONTINUOUS
 62
   249
 10
272.5
 20
145.0
 30
0.0
 40
0.5
 50
180.0
 51
0.0
  0
ARC
  8
0
  6
CONTINUOUS
 62
   249
 10
272.5
 20
145.0
 30
0.0
 40
0.5
 50
0.0
 51
180.0
  0
LINE
  8
0
  6
CONTINUOUS
 62
   249
 10
272.499997
 20
145.01011
 30
0.0
 11
272.499997
 21
142.364453
 31
0.0
  0
LINE
  8
0
  6
CONTINUOUS
 62
   249
 10
271.896302
 20
140.5829
 30
0.0
 11
273.103692
 21
140.5829
 31
0.0
  0
LINE
  8
0
  6
CONTINUOUS
 62
   249
 10
271.463805
 20
141.470413
 30
0.0
 11
273.52718
 21
141.470413
 31
0.0
  0
LINE
  8
0
  6
CONTINUOUS
 62
   249
 10
270.968234
 20
142.364453
 30
0.0
 11
274.03176
 21
142.364453
 31
0.0
  0
ARC
  8
0
  6
CONTINUOUS
 62
   249
 10
260.0
 20
165.0
 30
0.0
 40
0.5
 50
180.0
 51
0.0
  0
ARC
  8
0
  6
CONTINUOUS
 62
   249
 10
260.0
 20
165.0
 30
0.0
 40
0.5
 50
0.0
 51
180.0
  0
LINE
  8
0
  6
CONTINUOUS
 62
   249
 10
279.999997
 20
162.51011
 30
0.0
 11
279.999997
 21
159.864453
 31
0.0
  0
LINE
  8
0
  6
CONTINUOUS
 62
   249
 10
279.396302
 20
158.0829
 30
0.0
 11
280.603692
 21
158.0829
 31
0.0
  0
LINE
  8
0
  6
CONTINUOUS
 62
   249
 10
278.963805
 20
158.970413
 30
0.0
 11
281.02718
 21
158.970413
 31
0.0
  0
LINE
  8
0
  6
CONTINUOUS
 62
   249
 10
278.468234
 20
159.864453
 30
0.0
 11
281.53176
 21
159.864453
 31
0.0
  0
ARC
  8
0
  6
CONTINUOUS
 62
   249
 10
280.0
 20
170.189984
 30
0.0
 40
0.5
 50
180.0
 51
0.0
  0
ARC
  8
0
  6
CONTINUOUS
 62
   249
 10
280.0
 20
170.189984
 30
0.0
 40
0.5
 50
0.0
 51
180.0
  0
ARC
  8
0
  6
CONTINUOUS
 62
   249
 10
280.0
 20
165.0
 30
0.0
 40
0.5
 50
180.0
 51
0.0
  0
ARC
  8
0
  6
CONTINUOUS
 62
   249
 10
280.0
 20
165.0
 30
0.0
 40
0.5
 50
0.0
 51
180.0
  0
ARC
  8
0
  6
CONTINUOUS
 62
   249
 10
260.0
 20
185.0
 30
0.0
 40
0.5
 50
180.0
 51
0.0
  0
ARC
  8
0
  6
CONTINUOUS
 62
   249
 10
260.0
 20
185.0
 30
0.0
 40
0.5
 50
0.0
 51
180.0
  0
ARC
  8
0
  6
CONTINUOUS
 62
   249
 10
280.0
 20
190.189984
 30
0.0
 40
0.5
 50
180.0
 51
0.0
  0
ARC
  8
0
  6
CONTINUOUS
 62
   249
 10
280.0
 20
190.189984
 30
0.0
 40
0.5
 50
0.0
 51
180.0
  0
INSERT
  8
0
  6
CENTER
 62
   249
  2
BLC26
 10
291.410528
 20
192.580445
 30
0.0
 41
1.006225
 42
1.006225
 50
180.0
 43
1.006225
  0
ARC
  8
0
  6
CONTINUOUS
 62
   249
 10
285.0
 20
255.0
 30
0.0
 40
0.5
 50
180.0
 51
0.0
  0
ARC
  8
0
  6
CONTINUOUS
 62
   249
 10
285.0
 20
255.0
 30
0.0
 40
0.5
 50
0.0
 51
180.0
  0
ARC
  8
0
  6
CONTINUOUS
 62
   249
 10
295.0
 20
245.0
 30
0.0
 40
0.5
 50
180.0
 51
0.0
  0
ARC
  8
0
  6
CONTINUOUS
 62
   249
 10
295.0
 20
245.0
 30
0.0
 40
0.5
 50
0.0
 51
180.0
  0
ARC
  8
0
  6
CONTINUOUS
 62
   249
 10
290.0
 20
250.0
 30
0.0
 40
0.5
 50
180.0
 51
0.0
  0
ARC
  8
0
  6
CONTINUOUS
 62
   249
 10
290.0
 20
250.0
 30
0.0
 40
0.5
 50
0.0
 51
180.0
  0
LINE
  8
0
  6
CONTINUOUS
 62
   249
 10
362.757059
 20
216.637639
 30
0.0
 11
361.900419
 21
217.125292
 31
0.0
  0
LINE
  8
0
  6
CONTINUOUS
 62
   249
 10
361.900419
 20
217.125292
 30
0.0
 11
362.757059
 21
217.559833
 31
0.0
  0
LINE
  8
0
  6
CONTINUOUS
 62
   249
 10
363.469063
 20
225.943015
 30
0.0
 11
364.325704
 21
225.455362
 31
0.0
  0
LINE
  8
0
  6
CONTINUOUS
 62
   249
 10
364.325704
 20
225.455362
 30
0.0
 11
363.469063
 21
225.020821
 31
0.0
  0
LINE
  8
0
  6
CONTINUOUS
 62
   249
 10
362.527788
 20
233.304087
 30
0.0
 11
363.384428
 21
232.816434
 31
0.0
  0
LINE
  8
0
  6
CONTINUOUS
 62
   249
 10
363.384428
 20
232.816434
 30
0.0
 11
362.527788
 21
232.381893
 31
0.0
  0
LINE
  8
0
  6
CONTINUOUS
 62
   249
 10
362.626203
 20
242.00604
 30
0.0
 11
363.482843
 21
241.518388
 31
0.0
  0
LINE
  8
0
  6
CONTINUOUS
 62
   249
 10
363.482843
 20
241.518388
 30
0.0
 11
362.626203
 21
241.083846
 31
0.0
  0
LINE
  8
0
  6
CONTINUOUS
 62
   249
 10
362.626203
 20
249.19892
 30
0.0
 11
363.482843
 21
248.711268
 31
0.0
  0
LINE
  8
0
  6
CONTINUOUS
 62
   249
 10
363.482843
 20
248.711268
 30
0.0
 11
362.626203
 21
248.276726
 31
0.0
  0
ENDSEC
  0
EOF
