  0
SECTION
  2
HEADER
  9
$ACADVER
  1
AC1009
  9
$DWGCODEPAGE
  3
iso8859-1
  9
$INSBASE
 10
0.0
 20
0.0
 30
0.0
  9
$EXTMIN
 10
1.0E20
 20
1.0E20
  9
$EXTMAX
 10
-1.0E20
 20
-1.0E20
  9
$LIMMIN
 10
0.0
 20
0.0
  9
$LIMMAX
 10
12.0
 20
9.0
  9
$ORTHOMODE
 70
     0
  9
$REGENMODE
 70
     1
  9
$FILLMODE
 70
     1
  9
$QTEXTMODE
 70
     0
  9
$MIRRTEXT
 70
     1
  9
$DRAGMODE
 70
     2
  9
$LTSCALE
 40
15.0
  9
$OSMODE
 70
     0
  9
$ATTMODE
 70
     1
  9
$TEXTSIZE
 40
0.2
  9
$TRACEWID
 40
0.05
  9
$TEXTSTYLE
  7
STANDARD
  9
$CLAYER
  8
0
  9
$CELTYPE
  6
DASHED
  9
$CECOLOR
 62
   256
  9
$DIMSCALE
 40
1.0
  9
$DIMASZ
 40
0.18
  9
$DIMEXO
 40
0.0625
  9
$DIMDLI
 40
0.38
  9
$DIMRND
 40
0.0
  9
$DIMDLE
 40
0.0
  9
$DIMEXE
 40
0.18
  9
$DIMTP
 40
0.0
  9
$DIMTM
 40
0.0
  9
$DIMTXT
 40
0.18
  9
$DIMCEN
 40
0.09
  9
$DIMTSZ
 40
0.0
  9
$DIMTOL
 70
     0
  9
$DIMLIM
 70
     0
  9
$DIMTIH
 70
     1
  9
$DIMTOH
 70
     1
  9
$DIMSE1
 70
     0
  9
$DIMSE2
 70
     0
  9
$DIMTAD
 70
     0
  9
$DIMZIN
 70
     0
  9
$DIMBLK
  1

  9
$DIMASO
 70
     1
  9
$DIMSHO
 70
     1
  9
$DIMPOST
  1

  9
$DIMAPOST
  1

  9
$DIMALT
 70
     0
  9
$DIMALTD
 70
     2
  9
$DIMALTF
 40
25.4
  9
$DIMLFAC
 40
1.0
  9
$DIMTOFL
 70
     0
  9
$DIMTVP
 40
0.0
  9
$DIMTIX
 70
     0
  9
$DIMSOXD
 70
     0
  9
$DIMSAH
 70
     0
  9
$DIMBLK1
  1

  9
$DIMBLK2
  1

  9
$DIMSTYLE
  2
STANDARD
  9
$DIMCLRD
 70
     0
  9
$DIMCLRE
 70
     0
  9
$DIMCLRT
 70
     0
  9
$DIMTFAC
 40
1.0
  9
$DIMGAP
 40
0.09
  9
$LUNITS
 70
     2
  9
$LUPREC
 70
     4
  9
$AXISMODE
 70
     0
  9
$AXISUNIT
 10
0.0
 20
0.0
  9
$SKETCHINC
 40
0.1
  9
$FILLETRAD
 40
0.0
  9
$AUNITS
 70
     0
  9
$AUPREC
 70
     0
  9
$MENU
  1
acad
  9
$ELEVATION
 40
0.0
  9
$PELEVATION
 40
0.0
  9
$THICKNESS
 40
0.0
  9
$LIMCHECK
 70
     0
  9
$BLIPMODE
 70
     1
  9
$CHAMFERA
 40
0.0
  9
$CHAMFERB
 40
0.0
  9
$SKPOLY
 70
     0
  9
$TDCREATE
 40
0.000000000
  9
$TDUPDATE
 40
0.000000000
  9
$TDINDWG
 40
0.0
  9
$TDUSRTIMER
 40
0.0
  9
$USRTIMER
 70
     1
  9
$ANGBASE
 50
0.0
  9
$ANGDIR
 70
     0
  9
$PDMODE
 70
     0
  9
$PDSIZE
 40
0.0
  9
$PLINEWID
 40
0.0
  9
$COORDS
 70
     1
  9
$SPLFRAME
 70
     0
  9
$SPLINETYPE
 70
     6
  9
$SPLINESEGS
 70
     8
  9
$ATTDIA
 70
     0
  9
$ATTREQ
 70
     1
  9
$HANDLING
 70
     1
  9
$HANDSEED
  5
   7B4
  9
$SURFTAB1
 70
     6
  9
$SURFTAB2
 70
     6
  9
$SURFTYPE
 70
     6
  9
$SURFU
 70
     6
  9
$SURFV
 70
     6
  9
$UCSNAME
  2

  9
$UCSORG
 10
0.0
 20
0.0
 30
0.0
  9
$UCSXDIR
 10
1.0
 20
0.0
 30
0.0
  9
$UCSYDIR
 10
0.0
 20
1.0
 30
0.0
  9
$PUCSNAME
  2

  9
$PUCSORG
 10
0.0
 20
0.0
 30
0.0
  9
$PUCSXDIR
 10
1.0
 20
0.0
 30
0.0
  9
$PUCSYDIR
 10
0.0
 20
1.0
 30
0.0
  9
$USERI1
 70
     0
  9
$USERI2
 70
     0
  9
$USERI3
 70
     0
  9
$USERI4
 70
     0
  9
$USERI5
 70
     0
  9
$USERR1
 40
0.0
  9
$USERR2
 40
0.0
  9
$USERR3
 40
0.0
  9
$USERR4
 40
0.0
  9
$USERR5
 40
0.0
  9
$WORLDVIEW
 70
     1
  9
$SHADEDGE
 70
     3
  9
$SHADEDIF
 70
    70
  9
$TILEMODE
 70
     1
  9
$MAXACTVP
 70
    16
  9
$PINSBASE
 10
0.0
 20
0.0
 30
0.0
  9
$PLIMCHECK
 70
     0
  9
$PEXTMIN
 10
1.0E20
 20
1.0E20
 30
1.0E20
  9
$PEXTMAX
 10
-1.0E20
 20
-1.0E20
 30
-1.0E20
  9
$PLIMMIN
 10
0.0
 20
0.0
  9
$PLIMMAX
 10
12.0
 20
9.0
  9
$UNITMODE
 70
     0
  9
$VISRETAIN
 70
     0
  0
ENDSEC
  0
SECTION
  2
TABLES
  0
TABLE
  2
VPORT
 70
     1
  0
VPORT
  2
*ACTIVE
 70
     0
 10
0.0
 20
0.0
 11
1.0
 21
1.0
 12
6.801242
 22
4.5
 13
0.0
 23
0.0
 14
1.0
 24
1.0
 15
0.0
 25
0.0
 16
0.0
 26
0.0
 36
1.0
 17
0.0
 27
0.0
 37
0.0
 40
9.0
 41
1.511387
 42
50.0
 43
0.0
 44
0.0
 50
0.0
 51
0.0
 71
     0
 72
   100
 73
     1
 74
     1
 75
     0
 76
     0
 77
     0
 78
     0
  0
ENDTAB
  0
TABLE
  2
LTYPE
 70
    41
  0
LTYPE
  2
BYBLOCK
 70
     0
  3

 72
    65
 73
     0
 40
0.0
  0
LTYPE
  2
BYLAYER
 70
     0
  3

 72
    65
 73
     0
 40
0.0
  0
LTYPE
  2
CONTINUOUS
 70
     0
  3
Solid line
 72
    65
 73
     0
 40
0.0
  0
LTYPE
  2
BORDER
 70
    64
  3
__ __ . __ __ . __ __ . __ __ . __ __ . __ __ .
 72
    65
 73
     6
 40
1.75
 49
0.5
 49
-0.25
 49
0.5
 49
-0.25
 49
0.0
 49
-0.25
  0
LTYPE
  2
BORDER2
 70
    64
  3
__.__.__.__.__.__.__.__.__.__.__.__.__.__.__.__
 72
    65
 73
     6
 40
0.875
 49
0.25
 49
-0.125
 49
0.25
 49
-0.125
 49
0.0
 49
-0.125
  0
LTYPE
  2
BORDERX2
 70
    64
  3
____  ____  .  ____  ____  .  ____  ____  .  __
 72
    65
 73
     6
 40
3.5
 49
1.0
 49
-0.5
 49
1.0
 49
-0.5
 49
0.0
 49
-0.5
  0
LTYPE
  2
CENTER
 70
    64
  3
____ _ ____ _ ____ _ ____ _ ____ _ ____ _ ____
 72
    65
 73
     4
 40
2.0
 49
1.25
 49
-0.25
 49
0.25
 49
-0.25
  0
LTYPE
  2
CENTER2
 70
    64
  3
___ _ ___ _ ___ _ ___ _ ___ _ ___ _ ___ _ ___ _
 72
    65
 73
     4
 40
1.125
 49
0.75
 49
-0.125
 49
0.125
 49
-0.125
  0
LTYPE
  2
CENTERX2
 70
    64
  3
________  __  ________  __  ________  __  _____
 72
    65
 73
     4
 40
4.0
 49
2.5
 49
-0.5
 49
0.5
 49
-0.5
  0
LTYPE
  2
DASHDOT
 70
    64
  3
__ . __ . __ . __ . __ . __ . __ . __ . __ . __
 72
    65
 73
     4
 40
1.0
 49
0.5
 49
-0.25
 49
0.0
 49
-0.25
  0
LTYPE
  2
DASHDOT2
 70
    64
  3
_._._._._._._._._._._._._._._._._._._._._._._._
 72
    65
 73
     4
 40
0.5
 49
0.25
 49
-0.125
 49
0.0
 49
-0.125
  0
LTYPE
  2
DASHDOTX2
 70
    64
  3
____  .  ____  .  ____  .  ____  .  ____  .  __
 72
    65
 73
     4
 40
2.0
 49
1.0
 49
-0.5
 49
0.0
 49
-0.5
  0
LTYPE
  2
DASHED
 70
    64
  3
__ __ __ __ __ __ __ __ __ __ __ __ __ __ __ __
 72
    65
 73
     2
 40
0.75
 49
0.5
 49
-0.25
  0
LTYPE
  2
DASHED2
 70
    64
  3
_ _ _ _ _ _ _ _ _ _ _ _ _ _ _ _ _ _ _ _ _ _ _ _
 72
    65
 73
     2
 40
0.375
 49
0.25
 49
-0.125
  0
LTYPE
  2
DASHEDX2
 70
    64
  3
____  ____  ____  ____  ____  ____  ____  ____
 72
    65
 73
     2
 40
1.5
 49
1.0
 49
-0.5
  0
LTYPE
  2
DIVIDE
 70
    64
  3
____ . . ____ . . ____ . . ____ . . ____ . . __
 72
    65
 73
     6
 40
1.25
 49
0.5
 49
-0.25
 49
0.0
 49
-0.25
 49
0.0
 49
-0.25
  0
LTYPE
  2
DIVIDE2
 70
    64
  3
__..__..__..__..__..__..__..__..__..__..__..__.
 72
    65
 73
     6
 40
0.625
 49
0.25
 49
-0.125
 49
0.0
 49
-0.125
 49
0.0
 49
-0.125
  0
LTYPE
  2
DIVIDEX2
 70
    64
  3
________  .  .  ________  .  .  ________  .  .
 72
    65
 73
     6
 40
2.5
 49
1.0
 49
-0.5
 49
0.0
 49
-0.5
 49
0.0
 49
-0.5
  0
LTYPE
  2
DOT
 70
    64
  3
. . . . . . . . . . . . . . . . . . . . . . . .
 72
    65
 73
     2
 40
0.25
 49
0.0
 49
-0.25
  0
LTYPE
  2
DOT2
 70
    64
  3
...............................................
 72
    65
 73
     2
 40
0.125
 49
0.0
 49
-0.125
  0
LTYPE
  2
DOTX2
 70
    64
  3
.  .  .  .  .  .  .  .  .  .  .  .  .  .  .  .
 72
    65
 73
     2
 40
0.5
 49
0.0
 49
-0.5
  0
LTYPE
  2
HIDDEN
 70
    64
  3
__ __ __ __ __ __ __ __ __ __ __ __ __ __ __ __
 72
    65
 73
     2
 40
0.375
 49
0.25
 49
-0.125
  0
LTYPE
  2
HIDDEN2
 70
    64
  3
_ _ _ _ _ _ _ _ _ _ _ _ _ _ _ _ _ _ _ _ _ _ _ _
 72
    65
 73
     2
 40
0.1875
 49
0.125
 49
-0.0625
  0
LTYPE
  2
HIDDENX2
 70
    64
  3
____ ____ ____ ____ ____ ____ ____ ____ ____ __
 72
    65
 73
     2
 40
0.75
 49
0.5
 49
-0.25
  0
LTYPE
  2
PHANTOM
 70
    64
  3
______  __  __  ______  __  __  ______  __  __
 72
    65
 73
     6
 40
2.5
 49
1.25
 49
-0.25
 49
0.25
 49
-0.25
 49
0.25
 49
-0.25
  0
LTYPE
  2
PHANTOM2
 70
    64
  3
___ _ _ ___ _ _ ___ _ _ ___ _ _ ___ _ _ ___ _ _
 72
    65
 73
     6
 40
1.25
 49
0.625
 49
-0.125
 49
0.125
 49
-0.125
 49
0.125
 49
-0.125
  0
LTYPE
  2
PHANTOMX2
 70
    64
  3
____________    ____    ____    ____________
 72
    65
 73
     6
 40
5.0
 49
2.5
 49
-0.5
 49
0.5
 49
-0.5
 49
0.5
 49
-0.5
  0
LTYPE
  2
ACAD_ISO02W100
 70
    64
  3
__ __ __ __ __ __ __ __ __ __ __ __ __ __ __ __
 72
    65
 73
     2
 40
15.0
 49
12.0
 49
-3.0
  0
LTYPE
  2
ACAD_ISO03W100
 70
    64
  3
__    __    __    __    __    __    __    __
 72
    65
 73
     2
 40
30.0
 49
12.0
 49
-18.0
  0
LTYPE
  2
ACAD_ISO04W100
 70
    64
  3
____ . ____ . ____ . ____ . ____ . ____ . ____
 72
    65
 73
     4
 40
30.5
 49
24.0
 49
-3.0
 49
0.5
 49
-3.0
  0
LTYPE
  2
ACAD_ISO05W100
 70
    64
  3
____ .. ____ .. ____ .. ____ .. ____ .. ____ ..
 72
    65
 73
     6
 40
34.0
 49
24.0
 49
-3.0
 49
0.5
 49
-3.0
 49
0.5
 49
-3.0
  0
LTYPE
  2
ACAD_ISO06W100
 70
    64
  3
____ ... ____ ... ____ ... ____ ... ____ ... __
 72
    65
 73
     8
 40
37.5
 49
24.0
 49
-3.0
 49
0.5
 49
-3.0
 49
0.5
 49
-3.0
 49
0.5
 49
-3.0
  0
LTYPE
  2
ACAD_ISO07W100
 70
    64
  3
. . . . . . . . . . . . . . . . . . . . . . . .
 72
    65
 73
     2
 40
3.5
 49
0.5
 49
-3.0
  0
LTYPE
  2
ACAD_ISO08W100
 70
    64
  3
____ __ ____ __ ____ __ ____ ____ __ __ ____ __
 72
    65
 73
     4
 40
36.0
 49
24.0
 49
-3.0
 49
6.0
 49
-3.0
  0
LTYPE
  2
ACAD_ISO09W100
 70
    64
  3
____ __ __ ____ __ __ ____ __ __ ____ __ __ ___
 72
    65
 73
     6
 40
45.0
 49
24.0
 49
-3.0
 49
6.0
 49
-3.0
 49
6.0
 49
-3.0
  0
LTYPE
  2
ACAD_ISO10W100
 70
    64
  3
__ . __ . __ . __ . __ . __ . __ . __ . __ . __
 72
    65
 73
     4
 40
18.5
 49
12.0
 49
-3.0
 49
0.5
 49
-3.0
  0
LTYPE
  2
ACAD_ISO11W100
 70
    64
  3
__ __ . __ __ . __ __ . __ __ . __ __ . __ __ .
 72
    65
 73
     6
 40
33.5
 49
12.0
 49
-3.0
 49
12.0
 49
-3.0
 49
0.5
 49
-3.0
  0
LTYPE
  2
ACAD_ISO12W100
 70
    64
  3
__ . . __ . . __ . . __ . . __ . . __ . . __ .
 72
    65
 73
     6
 40
22.0
 49
12.0
 49
-3.0
 49
0.5
 49
-3.0
 49
0.5
 49
-3.0
  0
LTYPE
  2
ACAD_ISO13W100
 70
    64
  3
__ __ . . __ __ . . __ __ . . __ __ . . __ __ .
 72
    65
 73
     8
 40
37.0
 49
12.0
 49
-3.0
 49
12.0
 49
-3.0
 49
0.5
 49
-3.0
 49
0.5
 49
-3.0
  0
LTYPE
  2
ACAD_ISO14W100
 70
    64
  3
__ . . . __ . . . __ . . . __ . . . __ . . . __
 72
    65
 73
     8
 40
25.5
 49
12.0
 49
-3.0
 49
0.5
 49
-3.0
 49
0.5
 49
-3.0
 49
0.5
 49
-3.0
  0
LTYPE
  2
ACAD_ISO15W100
 70
    64
  3
__ __ . . . __ __ . . . __ __ . . . __ __ . . .
 72
    65
 73
    10
 40
40.5
 49
12.0
 49
-3.0
 49
12.0
 49
-3.0
 49
0.5
 49
-3.0
 49
0.5
 49
-3.0
 49
0.5
 49
-3.0
  0
ENDTAB
  0
TABLE
  2
STYLE
 70
     4
  0
STYLE
  2
STANDARD
 70
    64
 40
0.0
 41
1.0
 50
0.0
 71
     0
 42
0.2
  3
txt
  4

  0
STYLE
  2
TOLERANCE
 70
    64
 40
0.0
 41
1.0
 50
0.0
 71
     0
 42
0.2
  3
../igesfont/iges1003.shx
  4

  0
STYLE
  2
ROMANS
 70
    64
 40
0.0
 41
1.0
 50
0.0
 71
     0
 42
0.2
  3
romans.shx
  4

  0
STYLE
  2
ROMANC
 70
    64
 40
0.0
 41
1.0
 50
0.0
 71
     0
 42
0.2
  3
romanc.shx
  4

  0
ENDTAB
  0
TABLE
  2
DIMSTYLE
 70
     2
  0
DIMSTYLE
  2
UNNAMED
 70
     0
  3

  4

  5

  6

  7

 40
1.0
 41
0.18
 42
0.0625
 43
0.38
 44
0.18
 45
0.0
 46
0.0
 47
0.0
 48
0.0
140
0.18
141
0.09
142
0.0
143
25.4
144
1.0
145
0.0
146
1.0
147
0.09
 71
     0
 72
     0
 73
     1
 74
     1
 75
     0
 76
     0
 77
     0
 78
     0
170
     0
171
     2
172
     0
173
     0
174
     0
175
     0
176
     0
177
     0
178
     0
  0
DIMSTYLE
  2
STANDARD
 70
     0
  3

  4

  5

  6

  7

 40
1.0
 41
0.18
 42
0.0625
 43
0.38
 44
0.18
 45
0.0
 46
0.0
 47
0.0
 48
0.0
140
0.18
141
0.09
142
0.0
143
25.4
144
1.0
145
0.0
146
1.0
147
0.09
 71
     0
 72
     0
 73
     1
 74
     1
 75
     0
 76
     0
 77
     0
 78
     0
170
     0
171
     2
172
     0
173
     0
174
     0
175
     0
176
     0
177
     0
178
     0
  0
ENDTAB
  0
TABLE
  2
LAYER
 70
     2
  0
LAYER
  2
0
 70
     0
 62
     7
  6
CONTINUOUS
  0
LAYER
  2
255
 70
     0
 62
     7
  6
CONTINUOUS
  0
ENDTAB
  0
ENDSEC
  0
SECTION
  2
BLOCKS
  0
BLOCK
  5
     B
  8
0
  6
CONTINUOUS
 62
     7
  2
*UDIM1692
 70
    65
 10
0.0
 20
0.0
 30
0.0
  3
*UDIM1692
  0
TEXT
  5
     C
  8
0
  6
CONTINUOUS
 62
     7
 10
-40.442520558567
 20
-107.58791519249
 30
0.0
 40
2.99999994039535
  1
70
 50
359.999999896069
 41
0.933333333333333
 72
     1
 11
-37.9425206055242
 21
-106.087915226815
 31
0.0
 73
     2
  0
LINE
  5
     D
  8
0
  6
CONTINUOUS
 62
     7
 10
-27.1675208330153
 20
-104.207746260045
 30
0.0
 11
-27.1675208330153
 21
-110.587915197013
 31
0.0
  0
LINE
  5
     E
  8
0
  6
CONTINUOUS
 62
     7
 10
-48.1675216674803
 20
-104.207746260045
 30
0.0
 11
-48.1675216674803
 21
-110.587915197013
 31
0.0
  0
LINE
  5
     F
  8
0
  6
CONTINUOUS
 62
     7
 10
-27.1675208330153
 20
-108.587915197013
 30
0.0
 11
-48.1675216674803
 21
-108.587915197013
 31
0.0
  0
LINE
  5
    10
  8
0
  6
CONTINUOUS
 62
     7
 10
-30.1219441102222
 20
-109.108859626964
 30
0.0
 11
-27.1675208330153
 21
-108.587915197013
 31
0.0
  0
LINE
  5
    11
  8
0
  6
CONTINUOUS
 62
     7
 10
-27.1675208330153
 20
-108.587915197013
 30
0.0
 11
-30.1219441102222
 21
-108.066970767061
 31
0.0
  0
LINE
  5
    12
  8
0
  6
CONTINUOUS
 62
     7
 10
-45.2130983902733
 20
-108.066970767061
 30
0.0
 11
-48.1675216674803
 21
-108.587915197013
 31
0.0
  0
LINE
  5
    13
  8
0
  6
CONTINUOUS
 62
     7
 10
-48.1675216674803
 20
-108.587915197013
 30
0.0
 11
-45.2130983902733
 21
-109.108859626964
 31
0.0
  0
ENDBLK
  5
    14
  8
0
  6
CONTINUOUS
 62
     7
  0
BLOCK
  5
    15
  8
0
  6
CONTINUOUS
 62
     7
  2
*UDIM1693
 70
    65
 10
0.0
 20
0.0
 30
0.0
  3
*UDIM1693
  0
TEXT
  5
    16
  8
0
  6
CONTINUOUS
 62
     7
 10
-61.4425236818505
 20
-107.58791519249
 30
0.0
 40
2.99999994039535
  1
70
 50
359.999999896069
 41
0.933333333333333
 72
     1
 11
-58.9425237288077
 21
-106.087915226815
 31
0.0
 73
     2
  0
LINE
  5
    17
  8
0
  6
CONTINUOUS
 62
     7
 10
-69.1675225019453
 20
-104.207746260045
 30
0.0
 11
-69.1675225019453
 21
-110.587915197013
 31
0.0
  0
LINE
  5
    18
  8
0
  6
CONTINUOUS
 62
     7
 10
-48.1675216674803
 20
-108.587915197013
 30
0.0
 11
-69.1675225019453
 21
-108.587915197013
 31
0.0
  0
LINE
  5
    19
  8
0
  6
CONTINUOUS
 62
     7
 10
-51.1219449446873
 20
-109.108859626964
 30
0.0
 11
-48.1675216674803
 21
-108.587915197013
 31
0.0
  0
LINE
  5
    1A
  8
0
  6
CONTINUOUS
 62
     7
 10
-48.1675216674803
 20
-108.587915197013
 30
0.0
 11
-51.1219449446873
 21
-108.066970767061
 31
0.0
  0
LINE
  5
    1B
  8
0
  6
CONTINUOUS
 62
     7
 10
-66.2130992247384
 20
-108.066970767061
 30
0.0
 11
-69.1675225019453
 21
-108.587915197013
 31
0.0
  0
LINE
  5
    1C
  8
0
  6
CONTINUOUS
 62
     7
 10
-69.1675225019453
 20
-108.587915197013
 30
0.0
 11
-66.2130992247384
 21
-109.108859626964
 31
0.0
  0
ENDBLK
  5
    1D
  8
0
  6
CONTINUOUS
 62
     7
  0
BLOCK
  5
    1E
  8
0
  6
CONTINUOUS
 62
     7
  2
*UDIM1694
 70
    65
 10
0.0
 20
0.0
 30
0.0
  3
*UDIM1694
  0
TEXT
  5
    1F
  8
0
  6
CONTINUOUS
 62
     7
 10
-82.4425199386786
 20
-107.58791519249
 30
0.0
 40
2.99999994039535
  1
70
 50
359.999999896069
 41
0.933333333333333
 72
     1
 11
-79.9425199856358
 21
-106.087915226815
 31
0.0
 73
     2
  0
LINE
  5
    20
  8
0
  6
CONTINUOUS
 62
     7
 10
-90.1675233364104
 20
-105.01000152925
 30
0.0
 11
-90.1675233364104
 21
-110.587915197013
 31
0.0
  0
LINE
  5
    21
  8
0
  6
CONTINUOUS
 62
     7
 10
-69.1675225019453
 20
-108.587915197013
 30
0.0
 11
-90.1675233364104
 21
-108.587915197013
 31
0.0
  0
LINE
  5
    22
  8
0
  6
CONTINUOUS
 62
     7
 10
-72.1219457791523
 20
-109.108859626964
 30
0.0
 11
-69.1675225019453
 21
-108.587915197013
 31
0.0
  0
LINE
  5
    23
  8
0
  6
CONTINUOUS
 62
     7
 10
-69.1675225019453
 20
-108.587915197013
 30
0.0
 11
-72.1219457791523
 21
-108.066970767061
 31
0.0
  0
LINE
  5
    24
  8
0
  6
CONTINUOUS
 62
     7
 10
-87.2131000592034
 20
-108.066970767061
 30
0.0
 11
-90.1675233364104
 21
-108.587915197013
 31
0.0
  0
LINE
  5
    25
  8
0
  6
CONTINUOUS
 62
     7
 10
-90.1675233364104
 20
-108.587915197013
 30
0.0
 11
-87.2131000592034
 21
-109.108859626964
 31
0.0
  0
ENDBLK
  5
    26
  8
0
  6
CONTINUOUS
 62
     7
  0
BLOCK
  5
    27
  8
0
  6
CONTINUOUS
 62
     7
  2
*UDIM1695
 70
    65
 10
0.0
 20
0.0
 30
0.0
  3
*UDIM1695
  0
TEXT
  5
    28
  8
0
  6
CONTINUOUS
 62
     7
 10
-21.7925204731337
 20
-56.6176872607436
 30
0.0
 40
2.99999994039535
  1
16
 50
359.999999896069
 41
0.933333333333333
 72
     1
 11
-19.2925205200909
 21
-55.1176872950682
 31
0.0
 73
     2
  0
LINE
  5
    29
  8
0
  6
CONTINUOUS
 62
     7
 10
-24.7675207376478
 20
-61.6129648685455
 30
0.0
 11
-24.7675207376478
 21
-55.6176872652659
 31
0.0
  0
LINE
  5
    2A
  8
0
  6
CONTINUOUS
 62
     7
 10
-29.5675209283827
 20
-61.6129648685455
 30
0.0
 11
-29.5675209283827
 21
-55.6176872652659
 31
0.0
  0
LINE
  5
    2B
  8
0
  6
CONTINUOUS
 62
     7
 10
-16.7925205697614
 20
-57.6176872652659
 30
0.0
 11
-29.5675209283827
 21
-57.6176872652659
 31
0.0
  0
LINE
  5
    2C
  8
0
  6
CONTINUOUS
 62
     7
 10
-21.8130974604409
 20
-57.0967428353142
 30
0.0
 11
-24.7675207376478
 21
-57.6176872652659
 31
0.0
  0
LINE
  5
    2D
  8
0
  6
CONTINUOUS
 62
     7
 10
-24.7675207376478
 20
-57.6176872652659
 30
0.0
 11
-21.8130974604409
 21
-58.1386316952176
 31
0.0
  0
LINE
  5
    2E
  8
0
  6
CONTINUOUS
 62
     7
 10
-32.5219442055897
 20
-58.1386316952176
 30
0.0
 11
-29.5675209283827
 21
-57.6176872652659
 31
0.0
  0
LINE
  5
    2F
  8
0
  6
CONTINUOUS
 62
     7
 10
-29.5675209283827
 20
-57.6176872652659
 30
0.0
 11
-32.5219442055897
 21
-57.0967428353142
 31
0.0
  0
ENDBLK
  5
    30
  8
0
  6
CONTINUOUS
 62
     7
  0
BLOCK
  5
    31
  8
0
  6
CONTINUOUS
 62
     0
  2
$1FIANCATA
 70
    64
 10
0.0
 20
0.0
 30
0.0
  3
$1FIANCATA
  0
LINE
  5
    32
  8
0
  6
CONTINUOUS
 62
     0
 10
-16.4999618530273
 20
0.0
 30
0.0
 11
7.62939453125E-6
 21
0.0
 31
0.0
  0
LINE
  5
    33
  8
0
  6
CONTINUOUS
 62
     0
 10
-17.2070610469019
 20
-0.292902217944532
 30
0.0
 11
-16.8826439390779
 21
-7.61358696114147E-2
 31
0.0
  0
LINE
  5
    34
  8
0
  6
CONTINUOUS
 62
     0
 10
-17.4238394855521
 20
-0.617305997289576
 30
0.0
 11
-17.2070693104552
 21
-0.292888874313344
 31
0.0
  0
LINE
  5
    35
  8
0
  6
CONTINUOUS
 62
     0
 10
-16.8826439375328
 20
-7.61276888051592E-2
 30
0.0
 11
-16.4999611388804
 21
-1.59191401971626E-6
 31
0.0
  0
LINE
  5
    36
  8
0
  6
CONTINUOUS
 62
     0
 10
-17.4999809265137
 20
-1.0
 30
0.0
 11
-1.0
 21
-1.0
 31
0.0
  0
LINE
  5
    37
  8
0
  6
CONTINUOUS
 62
     0
 10
-17.4999808470354
 20
-1.00000102283533
 30
0.0
 11
-17.4238394874954
 21
-0.61731059266227
 31
0.0
  0
LINE
  5
    38
  8
0
  6
CONTINUOUS
 62
     0
 10
-1.0
 20
-13.2497711181641
 30
0.0
 11
-1.0
 21
0.0
 31
0.0
  0
LINE
  5
    39
  8
0
  6
CONTINUOUS
 62
     0
 10
-17.5000063905665
 20
-139.000133514403
 30
0.0
 11
-17.5000063905665
 21
-0.999996185301853
 31
0.0
  0
LINE
  5
    3A
  8
0
  6
CONTINUOUS
 62
     0
 10
-1.00000000993256
 20
-4.00001523769052
 30
0.0
 11
3.80476470240865E-6
 21
-3.99999997890146
 31
0.0
  0
LINE
  5
    3B
  8
0
  6
CONTINUOUS
 62
     0
 10
-8.26048155815329E-5
 20
-12.0001983642166
 30
0.0
 11
-8.26048155815329E-5
 21
-4.00010681148223
 31
0.0
  0
LINE
  5
    3C
  8
0
  6
CONTINUOUS
 62
     0
 10
7.62939453125E-6
 20
-4.00010681152344
 30
0.0
 11
7.62939453125E-6
 21
0.0
 31
0.0
  0
LINE
  5
    3D
  8
0
  6
CONTINUOUS
 62
     0
 10
-12.7500076293945
 20
-10.249755859375
 30
0.0
 11
-1.0
 21
-10.249755859375
 31
0.0
  0
LINE
  5
    3E
  8
0
  6
CONTINUOUS
 62
     0
 10
-15.75
 20
-10.249755859375
 30
0.0
 11
-12.7500076293945
 21
-10.249755859375
 31
0.0
  0
LINE
  5
    3F
  8
0
  6
CONTINUOUS
 62
     0
 10
-0.999996185302734
 20
-12.0001983642578
 30
0.0
 11
0.0
 21
-12.0001983642578
 31
0.0
  0
LINE
  5
    40
  8
0
  6
CONTINUOUS
 62
     0
 10
0.0
 20
-19.5001983642578
 30
0.0
 11
0.0
 21
-12.0001983642578
 31
0.0
  0
LINE
  5
    41
  8
0
  6
CONTINUOUS
 62
     0
 10
0.0
 20
-28.0001983642578
 30
0.0
 11
0.0
 21
-26.5001983642578
 31
0.0
  0
LINE
  5
    42
  8
0
  6
CONTINUOUS
 62
     0
 10
0.0
 20
-26.0001831054688
 30
0.0
 11
0.0
 21
-20.0001831054688
 31
0.0
  0
LINE
  5
    43
  8
0
  6
CONTINUOUS
 62
     0
 10
0.0
 20
-26.5001983642578
 30
0.0
 11
0.0
 21
-26.0001831054688
 31
0.0
  0
LINE
  5
    44
  8
0
  6
CONTINUOUS
 62
     0
 10
0.0
 20
-20.0001831054688
 30
0.0
 11
0.0
 21
-19.5001983642578
 31
0.0
  0
LINE
  5
    45
  8
0
  6
CONTINUOUS
 62
     0
 10
0.0
 20
-118.000198364258
 30
0.0
 11
0.0
 21
-28.0001983642578
 31
0.0
  0
LINE
  5
    46
  8
0
  6
CONTINUOUS
 62
     0
 10
-18.5
 20
-67.0002059936524
 30
0.0
 11
-17.5
 21
-67.0002059936524
 31
0.0
  0
LINE
  5
    47
  8
0
  6
CONTINUOUS
 62
     0
 10
-16.4999618543408
 20
-139.999942778846
 30
0.0
 11
7.62808107168667E-6
 21
-140.000034331579
 31
0.0
  0
LINE
  5
    48
  8
0
  6
CONTINUOUS
 62
     0
 10
-18.5
 20
-87.0002059936524
 30
0.0
 11
-17.5
 21
-87.0002059936524
 31
0.0
  0
LINE
  5
    49
  8
0
  6
CONTINUOUS
 62
     0
 10
-16.8826434644807
 20
-139.923760014085
 30
0.0
 11
-16.4999606589061
 21
-139.999943335591
 31
0.0
  0
LINE
  5
    4A
  8
0
  6
CONTINUOUS
 62
     0
 10
-17.207067522486
 20
-139.70699062553
 30
0.0
 11
-16.8826427725272
 21
-139.923760792348
 31
0.0
  0
LINE
  5
    4B
  8
0
  6
CONTINUOUS
 62
     0
 10
-17.4238389066516
 20
-139.382565244232
 30
0.0
 11
-17.2071030722885
 21
-139.707241750507
 31
0.0
  0
LINE
  5
    4C
  8
0
  6
CONTINUOUS
 62
     0
 10
-17.4999809548187
 20
-138.999881732886
 30
0.0
 11
-14.250000028305
 21
-138.999809253639
 31
0.0
  0
LINE
  5
    4D
  8
0
  6
CONTINUOUS
 62
     0
 10
-17.4999814369327
 20
-138.999881016927
 30
0.0
 11
-17.4238782240544
 21
-139.382815590198
 31
0.0
  0
LINE
  5
    4E
  8
0
  6
CONTINUOUS
 62
     0
 10
-3.75000000120068
 20
-125.000259398635
 30
0.0
 11
-1.20067511488742E-9
 21
-125.000278472122
 31
0.0
  0
LINE
  5
    4F
  8
0
  6
CONTINUOUS
 62
     0
 10
-3.75
 20
-129.0002784729
 30
0.0
 11
0.0
 21
-129.0002784729
 31
0.0
  0
LINE
  5
    50
  8
0
  6
CONTINUOUS
 62
     0
 10
-8.5
 20
-125.000232696533
 30
0.0
 11
-8.5
 21
-123.999771118164
 31
0.0
  0
LINE
  5
    51
  8
0
  6
CONTINUOUS
 62
     0
 10
-3.75
 20
-134.000186920166
 30
0.0
 11
0.0
 21
-134.000186920166
 31
0.0
  0
LINE
  5
    52
  8
0
  6
CONTINUOUS
 62
     0
 10
-5.0
 20
-118.000183105469
 30
0.0
 11
0.0
 21
-118.000183105469
 31
0.0
  0
LINE
  5
    53
  8
0
  6
CONTINUOUS
 62
     0
 10
-7.7500000001834
 20
-131.500053405664
 30
0.0
 11
-3.7500000001834
 21
-131.500061035059
 31
0.0
  0
LINE
  5
    54
  8
0
  6
CONTINUOUS
 62
     0
 10
-3.75
 20
-135.999771118164
 30
0.0
 11
-3.75
 21
-131.500061035156
 31
0.0
  0
LINE
  5
    55
  8
0
  6
CONTINUOUS
 62
     0
 10
-7.75
 20
-135.999771118164
 30
0.0
 11
-7.75
 21
-131.500053405762
 31
0.0
  0
LINE
  5
    56
  8
0
  6
CONTINUOUS
 62
     0
 10
-11.2500114444405
 20
-125.000148772999
 30
0.0
 11
-3.75000000034867
 21
-125.000129699512
 31
0.0
  0
LINE
  5
    57
  8
0
  6
CONTINUOUS
 62
     0
 10
-3.75
 20
-131.500129699707
 30
0.0
 11
-3.75
 21
-125.000129699707
 31
0.0
  0
LINE
  5
    58
  8
0
  6
CONTINUOUS
 62
     0
 10
-11.2500105770662
 20
-125.000149859739
 30
0.0
 11
-11.1736632270959
 21
-124.923802509768
 31
0.0
  0
LINE
  5
    59
  8
0
  6
CONTINUOUS
 62
     0
 10
-11.2500085637054
 20
-125.000011478497
 30
0.0
 11
-10.249745345394
 21
-123.999774987966
 31
0.0
  0
LINE
  5
    5A
  8
0
  6
CONTINUOUS
 62
     0
 10
-4.99999185108586
 20
-123.999771118161
 30
0.0
 11
-4.99999185108586
 21
-37.9999694824193
 31
0.0
  0
LINE
  5
    5B
  8
0
  6
CONTINUOUS
 62
     0
 10
-11.25
 20
-123.999771118164
 30
0.0
 11
-5.0
 21
-123.999771118164
 31
0.0
  0
LINE
  5
    5C
  8
0
  6
CONTINUOUS
 62
     0
 10
-11.25
 20
-135.999771118164
 30
0.0
 11
-1.0
 21
-135.999771118164
 31
0.0
  0
LINE
  5
    5D
  8
0
  6
CONTINUOUS
 62
     0
 10
-11.25
 20
-135.999771118164
 30
0.0
 11
-11.25
 21
-123.999771118164
 31
0.0
  0
LINE
  5
    5E
  8
0
  6
CONTINUOUS
 62
     0
 10
-8.5
 20
-124.000225067139
 30
0.0
 11
0.0
 21
-124.000225067139
 31
0.0
  0
LINE
  5
    5F
  8
0
  6
CONTINUOUS
 62
     0
 10
-3.75
 20
-130.000225067139
 30
0.0
 11
0.0
 21
-130.000225067139
 31
0.0
  0
LINE
  5
    60
  8
0
  6
CONTINUOUS
 62
     0
 10
-14.25
 20
-138.999809265137
 30
0.0
 11
-14.25
 21
-120.99976348877
 31
0.0
  0
LINE
  5
    61
  8
0
  6
CONTINUOUS
 62
     0
 10
-14.25
 20
-120.99976348877
 30
0.0
 11
-11.25
 21
-120.99976348877
 31
0.0
  0
LINE
  5
    62
  8
0
  6
CONTINUOUS
 62
     0
 10
-14.2499979894038
 20
-120.999765624734
 30
0.0
 11
-11.2499979235071
 21
-123.999773277073
 31
0.0
  0
LINE
  5
    63
  8
0
  6
CONTINUOUS
 62
     0
 10
-14.2500000007845
 20
-138.9998092648
 30
0.0
 11
-11.2500000007845
 21
-138.999797820709
 31
0.0
  0
LINE
  5
    64
  8
0
  6
CONTINUOUS
 62
     0
 10
-14.250001559504
 20
-138.999808240469
 30
0.0
 11
-11.2500014937232
 21
-135.9997699894
 31
0.0
  0
LINE
  5
    65
  8
0
  6
CONTINUOUS
 62
     0
 10
-4.75
 20
-135.999794006348
 30
0.0
 11
-4.75
 21
-131.500061035156
 31
0.0
  0
LINE
  5
    66
  8
0
  6
CONTINUOUS
 62
     0
 10
-11.25
 20
-120.99976348877
 30
0.0
 11
-5.0
 21
-120.99976348877
 31
0.0
  0
LINE
  5
    67
  8
0
  6
CONTINUOUS
 62
     0
 10
-11.2500000004898
 20
-138.999797820785
 30
0.0
 11
-1.00000000048984
 21
-138.99976348851
 31
0.0
  0
LINE
  5
    68
  8
0
  6
CONTINUOUS
 62
     0
 10
-1.0
 20
-139.999881744385
 30
0.0
 11
-1.0
 21
-136.000141143799
 31
0.0
  0
LINE
  5
    69
  8
0
  6
CONTINUOUS
 62
     0
 10
-1.00000000571825
 20
-136.000129696483
 30
0.0
 11
3.80897901663957E-6
 21
-136.000141140575
 31
0.0
  0
LINE
  5
    6A
  8
0
  6
CONTINUOUS
 62
     0
 10
0.0
 20
-134.000186920166
 30
0.0
 11
0.0
 21
-130.500225067139
 31
0.0
  0
LINE
  5
    6B
  8
0
  6
CONTINUOUS
 62
     0
 10
0.0
 20
-130.500225067139
 30
0.0
 11
0.0
 21
-130.000225067139
 31
0.0
  0
LINE
  5
    6C
  8
0
  6
CONTINUOUS
 62
     0
 10
0.0
 20
-129.999378204346
 30
0.0
 11
0.0
 21
-124.001041412354
 31
0.0
  0
LINE
  5
    6D
  8
0
  6
CONTINUOUS
 62
     0
 10
-7.76125830270757E-11
 20
-134.000198370265
 30
0.0
 11
3.81461965304197E-6
 21
-136.000141151443
 31
0.0
  0
LINE
  5
    6E
  8
0
  6
CONTINUOUS
 62
     0
 10
0.0
 20
-123.500225067139
 30
0.0
 11
0.0
 21
-118.000183105469
 31
0.0
  0
LINE
  5
    6F
  8
0
  6
CONTINUOUS
 62
     0
 10
7.62939453125E-6
 20
-140.000034332275
 30
0.0
 11
7.62939453125E-6
 21
-136.000160217285
 31
0.0
  0
LINE
  5
    70
  8
0
  6
CONTINUOUS
 62
     0
 10
0.0
 20
-124.000225067139
 30
0.0
 11
0.0
 21
-123.500225067139
 31
0.0
  0
LINE
  5
    71
  8
0
  6
CONTINUOUS
 62
     0
 10
-1.0
 20
-21.0001373291016
 30
0.0
 11
0.0
 21
-21.0001373291016
 31
0.0
  0
LINE
  5
    72
  8
0
  6
CONTINUOUS
 62
     0
 10
-1.0
 20
-25.0001373291016
 30
0.0
 11
0.0
 21
-25.0001373291016
 31
0.0
  0
LINE
  5
    73
  8
0
  6
CONTINUOUS
 62
     0
 10
-5.0
 20
-28.0001983642578
 30
0.0
 11
0.0
 21
-28.0001983642578
 31
0.0
  0
LINE
  5
    74
  8
0
  6
CONTINUOUS
 62
     0
 10
-12.7500267028809
 20
-13.2502136230469
 30
0.0
 11
-9.25
 21
-13.2502136230469
 31
0.0
  0
LINE
  5
    75
  8
0
  6
CONTINUOUS
 62
     0
 10
-12.7500267028809
 20
-13.2502136230469
 30
0.0
 11
-9.25
 21
-13.2502136230469
 31
0.0
  0
LINE
  5
    76
  8
0
  6
CONTINUOUS
 62
     0
 10
-5.0
 20
-27.0001220703125
 30
0.0
 11
-1.0
 21
-27.0001220703125
 31
0.0
  0
LINE
  5
    77
  8
0
  6
CONTINUOUS
 62
     0
 10
-1.0
 20
-27.0001220703125
 30
0.0
 11
-1.0
 21
-13.2502136230469
 31
0.0
  0
LINE
  5
    78
  8
0
  6
CONTINUOUS
 62
     0
 10
-7.00000381747164
 20
-31.9998779252276
 30
0.0
 11
-5.00002670565524
 21
-31.9998931840167
 31
0.0
  0
LINE
  5
    79
  8
0
  6
CONTINUOUS
 62
     0
 10
-5.00002670307592
 20
-31.9998931857682
 30
0.0
 11
-5.00001525898414
 21
-27.9999999994064
 31
0.0
  0
LINE
  5
    7A
  8
0
  6
CONTINUOUS
 62
     0
 10
-7.00000382626054
 20
-29.4998626527678
 30
0.0
 11
-5.00002289974687
 21
-29.499893170346
 31
0.0
  0
LINE
  5
    7B
  8
0
  6
CONTINUOUS
 62
     0
 10
-9.25
 20
-19.0002136230469
 30
0.0
 11
-9.25
 21
-13.2502136230469
 31
0.0
  0
LINE
  5
    7C
  8
0
  6
CONTINUOUS
 62
     0
 10
-9.25001064636107
 20
-19.0001952963912
 30
0.0
 11
-7.7500106134102
 21
-20.500195329342
 31
0.0
  0
LINE
  5
    7D
  8
0
  6
CONTINUOUS
 62
     0
 10
-7.75
 20
-20.5002136230469
 30
0.0
 11
-4.25
 21
-20.5002136230469
 31
0.0
  0
LINE
  5
    7E
  8
0
  6
CONTINUOUS
 62
     0
 10
-4.25
 20
-20.5002136230469
 30
0.0
 11
-4.25
 21
-13.2497711181641
 31
0.0
  0
LINE
  5
    7F
  8
0
  6
CONTINUOUS
 62
     0
 10
-9.25
 20
-13.2499847412109
 30
0.0
 11
-1.0
 21
-13.2499847412109
 31
0.0
  0
LINE
  5
    80
  8
0
  6
CONTINUOUS
 62
     0
 10
-5.0
 20
-37.9999694824219
 30
0.0
 11
-5.0
 21
-31.9999389648438
 31
0.0
  0
LINE
  5
    81
  8
0
  6
CONTINUOUS
 62
     0
 10
-5.0
 20
-28.0
 30
0.0
 11
-5.0
 21
-23.4997711181641
 31
0.0
  0
LINE
  5
    82
  8
0
  6
CONTINUOUS
 62
     0
 10
-12.7500076293945
 20
-23.4997711181641
 30
0.0
 11
-5.0
 21
-23.4997711181641
 31
0.0
  0
LINE
  5
    83
  8
0
  6
CONTINUOUS
 62
     0
 10
-12.7500076293945
 20
-23.4997711181641
 30
0.0
 11
-12.7500076293945
 21
-13.2497711181641
 31
0.0
  0
LINE
  5
    84
  8
0
  6
CONTINUOUS
 62
     0
 10
-6.0
 20
-28.0
 30
0.0
 11
-5.0
 21
-28.0
 31
0.0
  0
LINE
  5
    85
  8
0
  6
CONTINUOUS
 62
     0
 10
-6.38268221855326
 20
-28.0761274508566
 30
0.0
 11
-5.99999941990089
 21
-28.0000013539655
 31
0.0
  0
LINE
  5
    86
  8
0
  6
CONTINUOUS
 62
     0
 10
-6.70710710140417
 20
-28.2928997997314
 30
0.0
 11
-6.38268236658192
 21
-28.0761334364442
 31
0.0
  0
LINE
  5
    87
  8
0
  6
CONTINUOUS
 62
     0
 10
-6.92387762239532
 20
-28.6173065311374
 30
0.0
 11
-6.70710744729848
 21
-28.2928894081612
 31
0.0
  0
LINE
  5
    88
  8
0
  6
CONTINUOUS
 62
     0
 10
-6.99999998430753
 20
-29.000000215221
 30
0.0
 11
-6.92387770149458
 21
-28.6173097873719
 31
0.0
  0
LINE
  5
    89
  8
0
  6
CONTINUOUS
 62
     0
 10
-7.0
 20
-36.9999694824219
 30
0.0
 11
-7.0
 21
-29.0
 31
0.0
  0
LINE
  5
    8A
  8
0
  6
CONTINUOUS
 62
     0
 10
-6.99999994108155
 20
-36.9999697013245
 30
0.0
 11
-6.92387765826859
 21
-37.3826601291737
 31
0.0
  0
LINE
  5
    8B
  8
0
  6
CONTINUOUS
 62
     0
 10
-6.92387938634333
 20
-37.3826564832097
 30
0.0
 11
-6.70710921124649
 21
-37.707073606186
 31
0.0
  0
LINE
  5
    8C
  8
0
  6
CONTINUOUS
 62
     0
 10
-6.70710144431341
 20
-37.7070857090506
 30
0.0
 11
-6.38267670949118
 21
-37.9238520723378
 31
0.0
  0
LINE
  5
    8D
  8
0
  6
CONTINUOUS
 62
     0
 10
-6.38268170616414
 20
-37.9238448111811
 30
0.0
 11
-5.99999890751177
 21
-37.9999709080722
 31
0.0
  0
LINE
  5
    8E
  8
0
  6
CONTINUOUS
 62
     0
 10
-6.0
 20
-37.9999694824219
 30
0.0
 11
-5.0000114440918
 21
-37.9999694824219
 31
0.0
  0
LINE
  5
    8F
  8
0
  6
CONTINUOUS
 62
     0
 10
-1.0
 20
-20.0001831054688
 30
0.0
 11
0.0
 21
-20.0001831054688
 31
0.0
  0
LINE
  5
    90
  8
0
  6
CONTINUOUS
 62
     0
 10
-1.0
 20
-26.0001831054688
 30
0.0
 11
0.0
 21
-26.0001831054688
 31
0.0
  0
LINE
  5
    91
  8
0
  6
CONTINUOUS
 62
     0
 10
-8.50000010269963
 20
-19.7502174335287
 30
0.0
 11
-6.25000007434671
 21
-17.5002174051758
 31
0.0
  0
LINE
  5
    92
  8
0
  6
CONTINUOUS
 62
     0
 10
-15.75
 20
-26.499755859375
 30
0.0
 11
-15.75
 21
-10.249755859375
 31
0.0
  0
LINE
  5
    93
  8
0
  6
CONTINUOUS
 62
     0
 10
-15.7499970043624
 20
-10.2497608492948
 30
0.0
 11
-12.7500045249082
 21
-13.2497760880768
 31
0.0
  0
LINE
  5
    94
  8
0
  6
CONTINUOUS
 62
     0
 10
-15.7500005541712
 20
-26.4997418254346
 30
0.0
 11
-12.7500081590114
 21
-23.4997570166781
 31
0.0
  0
LINE
  5
    95
  8
0
  6
CONTINUOUS
 62
     0
 10
-6.25
 20
-17.5002136230469
 30
0.0
 11
-4.25
 21
-17.5002136230469
 31
0.0
  0
LINE
  5
    96
  8
0
  6
CONTINUOUS
 62
     0
 10
-6.25
 20
-17.5002136230469
 30
0.0
 11
-6.25
 21
-13.2499847412109
 31
0.0
  0
LINE
  5
    97
  8
0
  6
CONTINUOUS
 62
     0
 10
-15.75
 20
-26.499755859375
 30
0.0
 11
-5.0
 21
-26.499755859375
 31
0.0
  0
ENDBLK
  5
    98
  8
0
  6
CONTINUOUS
 62
     0
  0
BLOCK
  5
    99
  8
0
  6
CONTINUOUS
 62
     0
  2
$1MOSTRA
 70
    64
 10
0.0
 20
0.0
 30
0.0
  3
$1MOSTRA
  0
LINE
  5
    9A
  8
0
  6
CONTINUOUS
 62
     0
 10
131.0
 20
-24.0000152587891
 30
0.0
 11
131.0
 21
169.499984741211
 31
0.0
  0
LINE
  5
    9B
  8
0
  6
CONTINUOUS
 62
     0
 10
-94.7500023146612
 20
-25.250020980835
 30
0.0
 11
129.75
 21
-25.250020980835
 31
0.0
  0
LINE
  5
    9C
  8
0
  6
CONTINUOUS
 62
     0
 10
-96.0
 20
-24.000020980835
 30
0.0
 11
-96.0
 21
169.499979019165
 31
0.0
  0
LINE
  5
    9D
  8
0
  6
CONTINUOUS
 62
     0
 10
-87.0
 20
170.749984741211
 30
0.0
 11
129.75
 21
170.749984741211
 31
0.0
  0
LINE
  5
    9E
  8
0
  6
CONTINUOUS
 62
     0
 10
-94.7500138961029
 20
170.749984741211
 30
0.0
 11
-87.0
 21
170.749984741211
 31
0.0
  0
LINE
  5
    9F
  8
0
  6
CONTINUOUS
 62
     0
 10
78.0
 20
-5.25002145767212
 30
0.0
 11
78.0
 21
-4.2500216960907
 31
0.0
  0
LINE
  5
    A0
  8
0
  6
CONTINUOUS
 62
     0
 10
-87.0
 20
-5.25002145767211
 30
0.0
 11
-87.0
 21
-4.25002169609069
 31
0.0
  0
LINE
  5
    A1
  8
0
  6
CONTINUOUS
 62
     0
 10
-86.0
 20
-5.25002145767211
 30
0.0
 11
77.0
 21
-5.25002145767212
 31
0.0
  0
LINE
  5
    A2
  8
0
  6
CONTINUOUS
 62
     0
 10
78.0
 20
149.749984741211
 30
0.0
 11
78.0
 21
150.749984741211
 31
0.0
  0
LINE
  5
    A3
  8
0
  6
CONTINUOUS
 62
     0
 10
-87.0
 20
149.749984741211
 30
0.0
 11
-87.0
 21
150.749984741211
 31
0.0
  0
LINE
  5
    A4
  8
0
  6
CONTINUOUS
 62
     0
 10
-86.0
 20
-25.250020980835
 30
0.0
 11
-86.0
 21
-5.25002098083496
 31
0.0
  0
LINE
  5
    A5
  8
0
  6
CONTINUOUS
 62
     0
 10
-87.0
 20
-25.250020980835
 30
0.0
 11
-87.0
 21
-5.25002098083496
 31
0.0
  0
LINE
  5
    A6
  8
0
  6
CONTINUOUS
 62
     0
 10
-87.0
 20
-4.25002169609069
 30
0.0
 11
-87.0
 21
149.749978303909
 31
0.0
  0
LINE
  5
    A7
  8
0
  6
CONTINUOUS
 62
     0
 10
-87.0
 20
150.749984741211
 30
0.0
 11
-87.0
 21
170.749984741211
 31
0.0
  0
LINE
  5
    A8
  8
0
  6
CONTINUOUS
 62
     0
 10
78.0
 20
-25.250020980835
 30
0.0
 11
78.0
 21
-5.25002098083497
 31
0.0
  0
LINE
  5
    A9
  8
0
  6
CONTINUOUS
 62
     0
 10
78.0
 20
-4.2500216960907
 30
0.0
 11
78.0
 21
22.6249783039093
 31
0.0
  0
LINE
  5
    AA
  8
0
  6
CONTINUOUS
 62
     0
 10
78.0
 20
23.624979019165
 30
0.0
 11
78.0
 21
64.624979019165
 31
0.0
  0
LINE
  5
    AB
  8
0
  6
CONTINUOUS
 62
     0
 10
78.0
 20
65.6249771118164
 30
0.0
 11
78.0
 21
149.749984741211
 31
0.0
  0
LINE
  5
    AC
  8
0
  6
CONTINUOUS
 62
     0
 10
78.0
 20
150.749984741211
 30
0.0
 11
78.0
 21
170.749984741211
 31
0.0
  0
LINE
  5
    AD
  8
0
  6
CONTINUOUS
 62
     0
 10
77.0
 20
-25.250020980835
 30
0.0
 11
77.0
 21
-5.25002098083497
 31
0.0
  0
LINE
  5
    AE
  8
0
  6
CONTINUOUS
 62
     0
 10
112.0
 20
23.624979019165
 30
0.0
 11
112.0
 21
64.624979019165
 31
0.0
  0
LINE
  5
    AF
  8
0
  6
CONTINUOUS
 62
     0
 10
-86.0
 20
150.749984741211
 30
0.0
 11
77.0
 21
150.749984741211
 31
0.0
  0
LINE
  5
    B0
  8
0
  6
DOT
 62
     0
 10
78.0
 20
22.6249809265137
 30
0.0
 11
78.0
 21
23.6249809265137
 31
0.0
  0
LINE
  5
    B1
  8
0
  6
DOT
 62
     0
 10
78.0
 20
64.6249847412109
 30
0.0
 11
78.0
 21
65.6249847412109
 31
0.0
  0
LINE
  5
    B2
  8
0
  6
CONTINUOUS
 62
     0
 10
-95.2283575359481
 20
170.654833276614
 30
0.0
 11
-94.7500021275396
 21
170.749987082197
 31
0.0
  0
LINE
  5
    B3
  8
0
  6
CONTINUOUS
 62
     0
 10
-95.6338828572815
 20
170.383870758251
 30
0.0
 11
-95.2283576589463
 21
170.654836342308
 31
0.0
  0
LINE
  5
    B4
  8
0
  6
CONTINUOUS
 62
     0
 10
-95.9048442813714
 20
169.978321294716
 30
0.0
 11
-95.6338787006842
 21
170.38385412157
 31
0.0
  0
LINE
  5
    B5
  8
0
  6
CONTINUOUS
 62
     0
 10
-96.0000009070014
 20
169.49998927381
 30
0.0
 11
-95.9048471000262
 21
169.978337054874
 31
0.0
  0
LINE
  5
    B6
  8
0
  6
CONTINUOUS
 62
     0
 10
129.750003154688
 20
170.749986935154
 30
0.0
 11
130.228350935752
 21
170.654833128179
 31
0.0
  0
LINE
  5
    B7
  8
0
  6
CONTINUOUS
 62
     0
 10
130.228341409222
 20
170.654823450862
 30
0.0
 11
130.633874236076
 21
170.383857870175
 31
0.0
  0
LINE
  5
    B8
  8
0
  6
CONTINUOUS
 62
     0
 10
130.633876465973
 20
170.383854910394
 30
0.0
 11
130.90484204666
 21
169.97832208354
 31
0.0
  0
LINE
  5
    B9
  8
0
  6
CONTINUOUS
 62
     0
 10
130.90484765696
 20
169.978336952213
 30
0.0
 11
131.000001463935
 21
169.499989171149
 31
0.0
  0
LINE
  5
    BA
  8
0
  6
CONTINUOUS
 62
     0
 10
129.750001912704
 20
-25.2500209810903
 30
0.0
 11
130.228349689786
 21
-25.1548709896053
 31
0.0
  0
LINE
  5
    BB
  8
0
  6
CONTINUOUS
 62
     0
 10
130.228338306514
 20
-25.1548722950462
 30
0.0
 11
130.633871133368
 21
-24.8839067143591
 31
0.0
  0
LINE
  5
    BC
  8
0
  6
CONTINUOUS
 62
     0
 10
130.633879356188
 20
-24.8839055654524
 30
0.0
 11
130.904844938572
 21
-24.4783765528653
 31
0.0
  0
LINE
  5
    BD
  8
0
  6
CONTINUOUS
 62
     0
 10
130.904848088874
 20
-24.4783766972257
 30
0.0
 11
131.000001894457
 21
-24.0000212888173
 31
0.0
  0
LINE
  5
    BE
  8
0
  6
CONTINUOUS
 62
     0
 10
-95.2283572980338
 20
-25.1548710672825
 30
0.0
 11
-94.750001893597
 21
-25.2500210645891
 31
0.0
  0
LINE
  5
    BF
  8
0
  6
CONTINUOUS
 62
     0
 10
-95.6338848795916
 20
-24.8839050834456
 30
0.0
 11
-95.2283596812563
 21
-25.1548706675021
 31
0.0
  0
LINE
  5
    C0
  8
0
  6
CONTINUOUS
 62
     0
 10
-95.9048453281177
 20
-24.4783764153605
 30
0.0
 11
-95.6338797457343
 21
-24.8839054279476
 31
0.0
  0
LINE
  5
    C1
  8
0
  6
CONTINUOUS
 62
     0
 10
-96.0000013278323
 20
-24.0000213932639
 30
0.0
 11
-95.9048475222492
 21
-24.4783768016722
 31
0.0
  0
LINE
  5
    C2
  8
0
  6
CONTINUOUS
 62
     0
 10
71.0
 20
161.499984741211
 30
0.0
 11
71.5
 21
161.499984741211
 31
0.0
  0
LINE
  5
    C3
  8
0
  6
CONTINUOUS
 62
     0
 10
70.6249985834239
 20
161.39948892087
 30
0.0
 11
70.9999985887286
 21
161.499983299907
 31
0.0
  0
LINE
  5
    C4
  8
0
  6
CONTINUOUS
 62
     0
 10
70.3504841000321
 20
161.124991898345
 30
0.0
 11
70.6250049664647
 21
161.399497515692
 31
0.0
  0
LINE
  5
    C5
  8
0
  6
CONTINUOUS
 62
     0
 10
70.2500005005121
 20
160.74998610992
 30
0.0
 11
70.3504796223163
 21
161.124986104743
 31
0.0
  0
LINE
  5
    C6
  8
0
  6
CONTINUOUS
 62
     0
 10
70.2500001717027
 20
160.749985945318
 30
0.0
 11
70.3504792935069
 21
160.374985950495
 31
0.0
  0
LINE
  5
    C7
  8
0
  6
CONTINUOUS
 62
     0
 10
70.3504785443499
 20
160.374981262897
 30
0.0
 11
70.6249994243228
 21
160.100460382924
 31
0.0
  0
LINE
  5
    C8
  8
0
  6
CONTINUOUS
 62
     0
 10
70.6250004494111
 20
160.100464493128
 30
0.0
 11
71.000000444234
 21
159.999985371324
 31
0.0
  0
LINE
  5
    C9
  8
0
  6
CONTINUOUS
 62
     0
 10
71.0
 20
159.999984741211
 30
0.0
 11
71.5
 21
159.999984741211
 31
0.0
  0
LINE
  5
    CA
  8
0
  6
CONTINUOUS
 62
     0
 10
-71.0000005237262
 20
159.999985364975
 30
0.0
 11
-70.6250005289034
 21
160.100464486779
 31
0.0
  0
LINE
  5
    CB
  8
0
  6
CONTINUOUS
 62
     0
 10
-70.6249991572831
 20
160.100460461707
 30
0.0
 11
-70.3504782773103
 21
160.37498134168
 31
0.0
  0
LINE
  5
    CC
  8
0
  6
CONTINUOUS
 62
     0
 10
-70.3504793419514
 20
160.374985939145
 30
0.0
 11
-70.2500002201472
 21
160.749985933968
 31
0.0
  0
LINE
  5
    CD
  8
0
  6
CONTINUOUS
 62
     0
 10
-70.3504796707608
 20
161.124986116093
 30
0.0
 11
-70.2500005489566
 21
160.74998612127
 31
0.0
  0
LINE
  5
    CE
  8
0
  6
CONTINUOUS
 62
     0
 10
-70.625005364328
 20
161.399497643651
 30
0.0
 11
-70.3504844978953
 21
161.124992026304
 31
0.0
  0
LINE
  5
    CF
  8
0
  6
CONTINUOUS
 62
     0
 10
-70.9999984404592
 20
161.499983275092
 30
0.0
 11
-70.6249984351544
 21
161.399488896056
 31
0.0
  0
LINE
  5
    D0
  8
0
  6
CONTINUOUS
 62
     0
 10
-71.5
 20
161.499984741211
 30
0.0
 11
-71.0
 21
161.499984741211
 31
0.0
  0
LINE
  5
    D1
  8
0
  6
CONTINUOUS
 62
     0
 10
-71.5
 20
159.999984741211
 30
0.0
 11
-71.0
 21
159.999984741211
 31
0.0
  0
LINE
  5
    D2
  8
0
  6
DOT
 62
     0
 10
129.207102522664
 20
93.2070806462287
 30
0.0
 11
129.423868885951
 21
92.8826559114065
 31
0.0
  0
LINE
  5
    D3
  8
0
  6
CONTINUOUS
 62
     0
 10
78.0
 20
64.6249771118164
 30
0.0
 11
112.0
 21
64.6249771118164
 31
0.0
  0
LINE
  5
    D4
  8
0
  6
CONTINUOUS
 62
     0
 10
78.0
 20
23.624979019165
 30
0.0
 11
112.0
 21
23.624979019165
 31
0.0
  0
LINE
  5
    D5
  8
0
  6
CONTINUOUS
 62
     0
 10
78.0
 20
22.624979019165
 30
0.0
 11
131.0
 21
22.624979019165
 31
0.0
  0
LINE
  5
    D6
  8
0
  6
CONTINUOUS
 62
     0
 10
113.0
 20
22.6249771118164
 30
0.0
 11
113.0
 21
65.6249771118164
 31
0.0
  0
LINE
  5
    D7
  8
0
  6
CONTINUOUS
 62
     0
 10
121.443762073863
 20
22.6249762341869
 30
0.0
 11
121.469671496571
 21
22.655306892856
 31
0.0
  0
LINE
  5
    D8
  8
0
  6
CONTINUOUS
 62
     0
 10
122.530331822982
 20
22.6553070669901
 30
0.0
 11
122.556233618116
 21
22.6249802236221
 31
0.0
  0
LINE
  5
    D9
  8
0
  6
CONTINUOUS
 62
     0
 10
77.0
 20
-4.2500216960907
 30
0.0
 11
77.0
 21
149.749978303909
 31
0.0
  0
LINE
  5
    DA
  8
0
  6
CONTINUOUS
 62
     0
 10
-86.0
 20
149.749984741211
 30
0.0
 11
77.0
 21
149.749984741211
 31
0.0
  0
LINE
  5
    DB
  8
0
  6
CONTINUOUS
 62
     0
 10
-86.0
 20
-4.25002169609069
 30
0.0
 11
77.0
 21
-4.2500216960907
 31
0.0
  0
LINE
  5
    DC
  8
0
  6
CONTINUOUS
 62
     0
 10
-86.0
 20
-4.25002169609069
 30
0.0
 11
-86.0
 21
149.749978303909
 31
0.0
  0
LINE
  5
    DD
  8
0
  6
CONTINUOUS
 62
     0
 10
70.0000086006236
 20
142.749981641769
 30
0.0
 11
77.0000047406314
 21
149.749991353068
 31
0.0
  0
LINE
  5
    DE
  8
0
  6
CONTINUOUS
 62
     0
 10
70.0000002534282
 20
2.74998164176941
 30
0.0
 11
77.0000028943928
 21
-4.25002276936366
 31
0.0
  0
LINE
  5
    DF
  8
0
  6
CONTINUOUS
 62
     0
 10
-86.0000010794079
 20
149.749986269664
 30
0.0
 11
-70.0
 21
142.220568727026
 31
0.0
  0
LINE
  5
    E0
  8
0
  6
CONTINUOUS
 62
     0
 10
-86.0000042824209
 20
-4.25002269924179
 30
0.0
 11
-70.0
 21
3.27939166971828
 31
0.0
  0
LINE
  5
    E1
  8
0
  6
CONTINUOUS
 62
     0
 10
71.5
 20
150.749984741211
 30
0.0
 11
71.5
 21
170.749984741211
 31
0.0
  0
LINE
  5
    E2
  8
0
  6
CONTINUOUS
 62
     0
 10
77.0
 20
150.749984741211
 30
0.0
 11
77.0
 21
170.749984741211
 31
0.0
  0
LINE
  5
    E3
  8
0
  6
CONTINUOUS
 62
     0
 10
-71.5
 20
150.749984741211
 30
0.0
 11
-71.5
 21
170.749984741211
 31
0.0
  0
LINE
  5
    E4
  8
0
  6
CONTINUOUS
 62
     0
 10
-86.0
 20
150.749984741211
 30
0.0
 11
-86.0
 21
170.749984741211
 31
0.0
  0
LINE
  5
    E5
  8
0
  6
CONTINUOUS
 62
     0
 10
78.0
 20
65.6249771118164
 30
0.0
 11
131.0
 21
65.6249771118164
 31
0.0
  0
POINT
  5
    E6
  8
0
  6
CONTINUOUS
 62
     0
 10
4.30031180087553E-6
 20
72.749980198372
 30
0.0
  0
ENDBLK
  5
    E7
  8
0
  6
CONTINUOUS
 62
     0
  0
BLOCK
  5
    E8
  8
0
  6
CONTINUOUS
 62
     7
  2
*UDIM1696
 70
    65
 10
0.0
 20
0.0
 30
0.0
  3
*UDIM1696
  0
TEXT
  5
    E9
  8
0
  6
CONTINUOUS
 62
     7
 10
-0.548756769105953
 20
25.8899244552093
 30
0.0
 40
2.99999994039535
  1
196
 50
89.9999999480344
 41
0.933333333333333
 72
     1
 11
-2.04875673577134
 21
29.7899243790818
 31
0.0
 73
     2
  0
LINE
  5
    EA
  8
0
  6
CONTINUOUS
 62
     7
 10
-8.24252217377299
 20
0.664923013141985
 30
0.0
 11
2.45124323442633
 21
0.664923013141985
 31
0.0
  0
LINE
  5
    EB
  8
0
  6
CONTINUOUS
 62
     7
 10
-8.24252217377298
 20
59.4649270662579
 30
0.0
 11
2.45124323442633
 21
59.4649270662579
 31
0.0
  0
LINE
  5
    EC
  8
0
  6
CONTINUOUS
 62
     7
 10
0.451243234426329
 20
0.664923013141985
 30
0.0
 11
0.451243234426329
 21
59.4649270662579
 31
0.0
  0
LINE
  5
    ED
  8
0
  6
CONTINUOUS
 62
     7
 10
-0.069701195525333
 20
3.61934629034895
 30
0.0
 11
0.451243234426329
 21
0.664923013141985
 31
0.0
  0
LINE
  5
    EE
  8
0
  6
CONTINUOUS
 62
     7
 10
0.451243234426329
 20
0.664923013141985
 30
0.0
 11
0.972187664377991
 21
3.61934629034895
 31
0.0
  0
LINE
  5
    EF
  8
0
  6
CONTINUOUS
 62
     7
 10
0.972187664377991
 20
56.5105037890509
 30
0.0
 11
0.451243234426329
 21
59.4649270662579
 31
0.0
  0
LINE
  5
    F0
  8
0
  6
CONTINUOUS
 62
     7
 10
0.451243234426329
 20
59.4649270662579
 30
0.0
 11
-0.069701195525333
 21
56.5105037890509
 31
0.0
  0
ENDBLK
  5
    F1
  8
0
  6
CONTINUOUS
 62
     7
  0
BLOCK
  5
    F2
  8
0
  6
CONTINUOUS
 62
     7
  2
*UDIM1697
 70
    65
 10
0.0
 20
0.0
 30
0.0
  3
*UDIM1697
  0
TEXT
  5
    F3
  8
0
  6
CONTINUOUS
 62
     7
 10
-32.6925217347217
 20
-36.9855481361132
 30
0.0
 40
2.99999994039535
  1
131
 50
359.999999948034
 41
0.933333333333333
 72
     1
 11
-28.7925218108548
 21
-35.4855481694331
 31
0.0
 73
     2
  0
LINE
  5
    F4
  8
0
  6
CONTINUOUS
 62
     7
 10
-8.86752215887182
 20
3.99247446569735E-2
 30
0.0
 11
-8.86752215887182
 21
-39.9855481396307
 31
0.0
  0
LINE
  5
    F5
  8
0
  6
CONTINUOUS
 62
     7
 10
-48.1675224304199
 20
-35.8969738769801
 30
0.0
 11
-48.1675224304199
 21
-39.9855481396307
 31
0.0
  0
LINE
  5
    F6
  8
0
  6
CONTINUOUS
 62
     7
 10
-8.86752215887182
 20
-37.9855481396307
 30
0.0
 11
-48.1675224304199
 21
-37.9855481396307
 31
0.0
  0
LINE
  5
    F7
  8
0
  6
CONTINUOUS
 62
     7
 10
-11.8219454360788
 20
-38.5064925695824
 30
0.0
 11
-8.86752215887182
 21
-37.9855481396307
 31
0.0
  0
LINE
  5
    F8
  8
0
  6
CONTINUOUS
 62
     7
 10
-8.86752215887182
 20
-37.9855481396307
 30
0.0
 11
-11.8219454360788
 21
-37.4646037096791
 31
0.0
  0
LINE
  5
    F9
  8
0
  6
CONTINUOUS
 62
     7
 10
-45.213099153213
 20
-37.4646037096791
 30
0.0
 11
-48.1675224304199
 21
-37.9855481396307
 31
0.0
  0
LINE
  5
    FA
  8
0
  6
CONTINUOUS
 62
     7
 10
-48.1675224304199
 20
-37.9855481396307
 30
0.0
 11
-45.213099153213
 21
-38.5064925695824
 31
0.0
  0
ENDBLK
  5
    FB
  8
0
  6
CONTINUOUS
 62
     7
  0
BLOCK
  5
    FC
  8
0
  6
CONTINUOUS
 62
     7
  2
*UDIM1698
 70
    65
 10
0.0
 20
0.0
 30
0.0
  3
*UDIM1698
  0
TEXT
  5
    FD
  8
0
  6
CONTINUOUS
 62
     7
 10
-65.342524581837
 20
-36.9855481373759
 30
0.0
 40
2.99999994039535
  1
96
 50
359.999999948034
 41
0.933333333333333
 72
     1
 11
-62.8425246301546
 21
-35.4855481694331
 31
0.0
 73
     2
  0
LINE
  5
    FE
  8
0
  6
CONTINUOUS
 62
     7
 10
-76.9675248649227
 20
3.99230280431535E-2
 30
0.0
 11
-76.9675248649227
 21
-39.9855481396307
 31
0.0
  0
LINE
  5
    FF
  8
0
  6
CONTINUOUS
 62
     7
 10
-48.1675224304199
 20
-37.9855481396307
 30
0.0
 11
-76.9675248649227
 21
-37.9855481396307
 31
0.0
  0
LINE
  5
   100
  8
0
  6
CONTINUOUS
 62
     7
 10
-51.1219457076269
 20
-38.5064925695824
 30
0.0
 11
-48.1675224304199
 21
-37.9855481396307
 31
0.0
  0
LINE
  5
   101
  8
0
  6
CONTINUOUS
 62
     7
 10
-48.1675224304199
 20
-37.9855481396307
 30
0.0
 11
-51.1219457076269
 21
-37.4646037096791
 31
0.0
  0
LINE
  5
   102
  8
0
  6
CONTINUOUS
 62
     7
 10
-74.0131015877157
 20
-37.4646037096791
 30
0.0
 11
-76.9675248649227
 21
-37.9855481396307
 31
0.0
  0
LINE
  5
   103
  8
0
  6
CONTINUOUS
 62
     7
 10
-76.9675248649227
 20
-37.9855481396307
 30
0.0
 11
-74.0131015877157
 21
-38.5064925695824
 31
0.0
  0
ENDBLK
  5
   104
  8
0
  6
CONTINUOUS
 62
     7
  0
BLOCK
  5
   105
  8
0
  6
CONTINUOUS
 62
     7
  2
*UDIM1699
 70
    65
 10
0.0
 20
0.0
 30
0.0
  3
*UDIM1699
  0
TEXT
  5
   106
  8
0
  6
CONTINUOUS
 62
     7
 10
-34.6675232900798
 20
-45.7754029140175
 30
0.0
 40
2.99999994039535
  1
136,5
 50
359.999999948034
 41
0.933333333333333
 72
     1
 11
-27.9675234218439
 21
-44.2754029498628
 31
0.0
 73
     2
  0
LINE
  5
   107
  8
0
  6
CONTINUOUS
 62
     7
 10
-7.21752080321312
 20
28.5399176478381
 30
0.0
 11
-7.21752080321312
 21
-48.7754029200605
 31
0.0
  0
LINE
  5
   108
  8
0
  6
CONTINUOUS
 62
     7
 10
-48.1675224304199
 20
-35.8969738769801
 30
0.0
 11
-48.1675224304199
 21
-48.7754029200605
 31
0.0
  0
LINE
  5
   109
  8
0
  6
CONTINUOUS
 62
     7
 10
-7.21752080321312
 20
-46.7754029200605
 30
0.0
 11
-48.1675224304199
 21
-46.7754029200605
 31
0.0
  0
LINE
  5
   10A
  8
0
  6
CONTINUOUS
 62
     7
 10
-10.1719440804201
 20
-47.2963473500122
 30
0.0
 11
-7.21752080321312
 21
-46.7754029200605
 31
0.0
  0
LINE
  5
   10B
  8
0
  6
CONTINUOUS
 62
     7
 10
-7.21752080321312
 20
-46.7754029200605
 30
0.0
 11
-10.1719440804201
 21
-46.2544584901089
 31
0.0
  0
LINE
  5
   10C
  8
0
  6
CONTINUOUS
 62
     7
 10
-45.213099153213
 20
-46.2544584901089
 30
0.0
 11
-48.1675224304199
 21
-46.7754029200605
 31
0.0
  0
LINE
  5
   10D
  8
0
  6
CONTINUOUS
 62
     7
 10
-48.1675224304199
 20
-46.7754029200605
 30
0.0
 11
-45.213099153213
 21
-47.2963473500122
 31
0.0
  0
ENDBLK
  5
   10E
  8
0
  6
CONTINUOUS
 62
     7
  0
BLOCK
  5
   10F
  8
0
  6
CONTINUOUS
 62
     7
  2
*UDIM1700
 70
    65
 10
0.0
 20
0.0
 30
0.0
  3
*UDIM1700
  0
TEXT
  5
   110
  8
0
  6
CONTINUOUS
 62
     7
 10
-84.16752983467
 20
-45.7754029140175
 30
0.0
 40
2.99999994039535
  1
193,5
 50
359.999999948034
 41
0.933333333333333
 72
     1
 11
-77.4675299664341
 21
-44.2754029498628
 31
0.0
 73
     2
  0
LINE
  5
   111
  8
0
  6
CONTINUOUS
 62
     7
 10
-106.21752473712
 20
28.5398718714691
 30
0.0
 11
-106.21752473712
 21
-48.7754029200605
 31
0.0
  0
LINE
  5
   112
  8
0
  6
CONTINUOUS
 62
     7
 10
-48.1675224304199
 20
-46.7754029200605
 30
0.0
 11
-106.21752473712
 21
-46.7754029200605
 31
0.0
  0
LINE
  5
   113
  8
0
  6
CONTINUOUS
 62
     7
 10
-51.1219457076269
 20
-47.2963473500122
 30
0.0
 11
-48.1675224304199
 21
-46.7754029200605
 31
0.0
  0
LINE
  5
   114
  8
0
  6
CONTINUOUS
 62
     7
 10
-48.1675224304199
 20
-46.7754029200605
 30
0.0
 11
-51.1219457076269
 21
-46.2544584901089
 31
0.0
  0
LINE
  5
   115
  8
0
  6
CONTINUOUS
 62
     7
 10
-103.263101459913
 20
-46.2544584901089
 30
0.0
 11
-106.21752473712
 21
-46.7754029200605
 31
0.0
  0
LINE
  5
   116
  8
0
  6
CONTINUOUS
 62
     7
 10
-106.21752473712
 20
-46.7754029200605
 30
0.0
 11
-103.263101459913
 21
-47.2963473500122
 31
0.0
  0
ENDBLK
  5
   117
  8
0
  6
CONTINUOUS
 62
     7
  0
BLOCK
  5
   118
  8
0
  6
CONTINUOUS
 62
     7
  2
*UDIM1701
 70
    65
 10
0.0
 20
0.0
 30
0.0
  3
*UDIM1701
  0
TEXT
  5
   119
  8
0
  6
CONTINUOUS
 62
     7
 10
-62.8425229314584
 20
110.03182983718
 30
0.0
 40
2.99999994039535
  1
280
 50
359.999999948034
 41
0.933333333333333
 72
     1
 11
-58.9425230075916
 21
111.53182980386
 31
0.0
 73
     2
  0
LINE
  5
   11A
  8
0
  6
CONTINUOUS
 62
     7
 10
-16.6675211787224
 20
96.5399317145348
 30
0.0
 11
-16.6675211787224
 21
111.031829833662
 31
0.0
  0
LINE
  5
   11B
  8
0
  6
CONTINUOUS
 62
     7
 10
-100.667524516582
 20
96.5399317145348
 30
0.0
 11
-100.667524516582
 21
111.031829833662
 31
0.0
  0
LINE
  5
   11C
  8
0
  6
CONTINUOUS
 62
     7
 10
-16.6675211787224
 20
109.031829833662
 30
0.0
 11
-100.667524516582
 21
109.031829833662
 31
0.0
  0
LINE
  5
   11D
  8
0
  6
CONTINUOUS
 62
     7
 10
-19.6219444559293
 20
108.510885403711
 30
0.0
 11
-16.6675211787224
 21
109.031829833662
 31
0.0
  0
LINE
  5
   11E
  8
0
  6
CONTINUOUS
 62
     7
 10
-16.6675211787224
 20
109.031829833662
 30
0.0
 11
-19.6219444559293
 21
109.552774263614
 31
0.0
  0
LINE
  5
   11F
  8
0
  6
CONTINUOUS
 62
     7
 10
-97.7131012393755
 20
109.552774263614
 30
0.0
 11
-100.667524516582
 21
109.031829833662
 31
0.0
  0
LINE
  5
   120
  8
0
  6
CONTINUOUS
 62
     7
 10
-100.667524516582
 20
109.031829833662
 30
0.0
 11
-97.7131012393755
 21
108.510885403711
 31
0.0
  0
ENDBLK
  5
   121
  8
0
  6
CONTINUOUS
 62
     7
  0
BLOCK
  5
   122
  8
0
  6
CONTINUOUS
 62
     7
  2
*UDIM1702
 70
    65
 10
0.0
 20
0.0
 30
0.0
  3
*UDIM1702
  0
TEXT
  5
   123
  8
0
  6
CONTINUOUS
 62
     7
 10
-52.3425225142259
 20
103.368548322405
 30
0.0
 40
2.99999994039535
  1
140
 50
359.999999948034
 41
0.933333333333333
 72
     1
 11
-48.4425225903591
 21
104.868548289085
 31
0.0
 73
     2
  0
LINE
  5
   124
  8
0
  6
CONTINUOUS
 62
     7
 10
-27.1675215959549
 20
51.4649253457783
 30
0.0
 11
-27.1675215959549
 21
104.368548318887
 31
0.0
  0
LINE
  5
   125
  8
0
  6
CONTINUOUS
 62
     7
 10
-69.167523264885
 20
51.4649253457783
 30
0.0
 11
-69.167523264885
 21
104.368548318887
 31
0.0
  0
LINE
  5
   126
  8
0
  6
CONTINUOUS
 62
     7
 10
-27.1675215959549
 20
102.368548318887
 30
0.0
 11
-69.167523264885
 21
102.368548318887
 31
0.0
  0
LINE
  5
   127
  8
0
  6
CONTINUOUS
 62
     7
 10
-30.1219448731619
 20
101.847603888936
 30
0.0
 11
-27.1675215959549
 21
102.368548318887
 31
0.0
  0
LINE
  5
   128
  8
0
  6
CONTINUOUS
 62
     7
 10
-27.1675215959549
 20
102.368548318887
 30
0.0
 11
-30.1219448731619
 21
102.889492748839
 31
0.0
  0
LINE
  5
   129
  8
0
  6
CONTINUOUS
 62
     7
 10
-66.213099987678
 20
102.889492748839
 30
0.0
 11
-69.167523264885
 21
102.368548318887
 31
0.0
  0
LINE
  5
   12A
  8
0
  6
CONTINUOUS
 62
     7
 10
-69.167523264885
 20
102.368548318887
 30
0.0
 11
-66.213099987678
 21
101.847603888936
 31
0.0
  0
ENDBLK
  5
   12B
  8
0
  6
CONTINUOUS
 62
     7
  0
BLOCK
  5
   12C
  8
0
  6
CONTINUOUS
 62
     7
  2
*UDIM1703
 70
    65
 10
0.0
 20
0.0
 30
0.0
  3
*UDIM1703
  0
TEXT
  5
   12D
  8
0
  6
CONTINUOUS
 62
     7
 10
-110.416917571784
 20
53.3774302106425
 30
0.0
 40
2.99999994039535
  1
211,25
 50
89.9999999480344
 41
0.933333333333333
 72
     1
 11
-111.916917534645
 21
61.4774300510685
 31
0.0
 73
     2
  0
LINE
  5
   12E
  8
0
  6
CONTINUOUS
 62
     7
 10
-101.667524516582
 20
93.4399316310883
 30
0.0
 11
-111.416917564447
 21
93.4399316310883
 31
0.0
  0
LINE
  5
   12F
  8
0
  6
CONTINUOUS
 62
     7
 10
-109.416917564447
 20
30.0649245351551
 30
0.0
 11
-109.416917564447
 21
93.4399316310883
 31
0.0
  0
LINE
  5
   130
  8
0
  6
CONTINUOUS
 62
     7
 10
-109.937861994399
 20
33.0193478123621
 30
0.0
 11
-109.416917564447
 21
30.0649245351551
 31
0.0
  0
LINE
  5
   131
  8
0
  6
CONTINUOUS
 62
     7
 10
-109.416917564447
 20
30.0649245351551
 30
0.0
 11
-108.895973134496
 21
33.0193478123621
 31
0.0
  0
LINE
  5
   132
  8
0
  6
CONTINUOUS
 62
     7
 10
-108.895973134496
 20
90.4855083538813
 30
0.0
 11
-109.416917564447
 21
93.4399316310883
 31
0.0
  0
LINE
  5
   133
  8
0
  6
CONTINUOUS
 62
     7
 10
-109.416917564447
 20
93.4399316310883
 30
0.0
 11
-109.937861994399
 21
90.4855083538813
 31
0.0
  0
ENDBLK
  5
   134
  8
0
  6
CONTINUOUS
 62
     7
  0
BLOCK
  5
   135
  8
0
  6
CONTINUOUS
 62
     7
  2
*UDIM1704
 70
    65
 10
0.0
 20
0.0
 30
0.0
  3
*UDIM1704
  0
TEXT
  5
   136
  8
0
  6
CONTINUOUS
 62
     7
 10
-116.506200036509
 20
38.431330967236
 30
0.0
 40
2.99999994039535
  1
406
 50
89.9999999480344
 41
0.933333333333333
 72
     1
 11
-118.006200003174
 21
42.3313308911086
 31
0.0
 73
     2
  0
LINE
  5
   137
  8
0
  6
CONTINUOUS
 62
     7
 10
-101.667524516582
 20
-28.3600732088089
 30
0.0
 11
-117.506200032976
 21
-28.3600732088089
 31
0.0
  0
LINE
  5
   138
  8
0
  6
CONTINUOUS
 62
     7
 10
-101.667524516582
 20
93.4399316310883
 30
0.0
 11
-117.506200032976
 21
93.4399316310883
 31
0.0
  0
LINE
  5
   139
  8
0
  6
CONTINUOUS
 62
     7
 10
-115.506200032976
 20
-28.3600732088089
 30
0.0
 11
-115.506200032976
 21
93.4399316310883
 31
0.0
  0
LINE
  5
   13A
  8
0
  6
CONTINUOUS
 62
     7
 10
-116.027144462928
 20
-25.4056499316019
 30
0.0
 11
-115.506200032976
 21
-28.3600732088089
 31
0.0
  0
LINE
  5
   13B
  8
0
  6
CONTINUOUS
 62
     7
 10
-115.506200032976
 20
-28.3600732088089
 30
0.0
 11
-114.985255603025
 21
-25.4056499316019
 31
0.0
  0
LINE
  5
   13C
  8
0
  6
CONTINUOUS
 62
     7
 10
-114.985255603025
 20
90.4855083538813
 30
0.0
 11
-115.506200032976
 21
93.4399316310883
 31
0.0
  0
LINE
  5
   13D
  8
0
  6
CONTINUOUS
 62
     7
 10
-115.506200032976
 20
93.4399316310883
 30
0.0
 11
-116.027144462928
 21
90.4855083538813
 31
0.0
  0
ENDBLK
  5
   13E
  8
0
  6
CONTINUOUS
 62
     7
  0
BLOCK
  5
   13F
  8
0
  6
CONTINUOUS
 62
     7
  2
*HATCH327
 70
    65
 10
0.0
 20
0.0
 30
0.0
  3
*HATCH327
  0
LINE
  5
   140
  8
0
  6
CONTINUOUS
 62
    52
 10
-11.7279224395752
 20
1.0
 30
0.0
 11
-11.9763488769531
 21
0.75157368183136
 31
0.0
  0
LINE
  5
   141
  8
0
  6
CONTINUOUS
 62
    52
 10
-9.60660171508789
 20
1.0
 30
0.0
 11
-11.6066026687622
 21
-1.0
 31
0.0
  0
LINE
  5
   142
  8
0
  6
CONTINUOUS
 62
    52
 10
-7.48528146743774
 20
1.0
 30
0.0
 11
-9.48528289794922
 21
-1.0
 31
0.0
  0
LINE
  5
   143
  8
0
  6
CONTINUOUS
 62
    52
 10
-5.3639612197876
 20
1.0
 30
0.0
 11
-7.36396265029907
 21
-1.0
 31
0.0
  0
LINE
  5
   144
  8
0
  6
CONTINUOUS
 62
    52
 10
-3.47947335243225
 20
0.763167560100555
 30
0.0
 11
-5.24264097213745
 21
-1.0
 31
0.0
  0
LINE
  5
   145
  8
0
  6
CONTINUOUS
 62
    52
 10
-2.51160907745361
 20
-0.390288293361664
 30
0.0
 11
-3.1213207244873
 21
-1.0
 31
0.0
  0
ENDBLK
  5
   146
  8
0
  6
CONTINUOUS
 62
     7
  0
BLOCK
  5
   147
  8
0
  6
CONTINUOUS
 62
     7
  2
*HATCH328
 70
    65
 10
0.0
 20
0.0
 30
0.0
  3
*HATCH328
  0
LINE
  5
   148
  8
0
  6
CONTINUOUS
 62
    52
 10
5.24264097213745
 20
1.0
 30
0.0
 11
3.24264073371887
 21
-1.0
 31
0.0
  0
LINE
  5
   149
  8
0
  6
CONTINUOUS
 62
    52
 10
7.3639612197876
 20
1.0
 30
0.0
 11
5.3639612197876
 21
-1.0
 31
0.0
  0
LINE
  5
   14A
  8
0
  6
CONTINUOUS
 62
    52
 10
9.48528099060059
 20
1.0
 30
0.0
 11
7.4852819442749
 21
-1.0
 31
0.0
  0
ENDBLK
  5
   14B
  8
0
  6
CONTINUOUS
 62
     7
  0
BLOCK
  5
   14C
  8
0
  6
CONTINUOUS
 62
     7
  2
*UDIM1705
 70
    65
 10
0.0
 20
0.0
 30
0.0
  3
*UDIM1705
  0
TEXT
  5
   14D
  8
0
  6
CONTINUOUS
 62
     7
 10
-116.104112859799
 20
-102.820972515415
 30
0.0
 40
3.00000002980232
  1
80
 50
449.241125536518
 41
0.933333333333333
 72
     1
 11
-117.570870129734
 21
-100.30132506389
 31
0.0
 73
     2
  0
TEXT
  5
   14E
  8
0
  6
CONTINUOUS
 62
     7
 10
-116.637837894061
 20
-97.8134643439684
 30
0.0
 40
3.00000002980232
  1
°
 50
449.241125536518
 41
0.933333333333334
 72
     1
 11
-118.123137423223
 21
-96.6936941097615
 31
0.0
 73
     2
  0
LINE
  5
   14F
  8
0
  6
CONTINUOUS
 62
     7
 10
-133.166542226803
 20
-103.247431879365
 30
0.0
 11
-118.964575060572
 21
-115.164297290541
 31
0.0
  0
LINE
  5
   150
  8
0
  6
CONTINUOUS
 62
     7
 10
-133.166542226803
 20
-94.6054581352831
 30
0.0
 11
-118.964575060572
 21
-82.6885927241073
 31
0.0
  0
ARC
  5
   151
  8
0
  6
CONTINUOUS
 62
     7
 10
-138.31609385511
 20
-98.9264450073242
 30
0.0
 40
23.2616136940404
 50
319.999999815233
 51
399.999999769042
  0
LINE
  5
   152
  8
0
  6
CONTINUOUS
 62
     7
 10
-118.99666385619
 20
-111.280645912134
 30
0.0
 11
-120.49666394681
 21
-113.878722071168
 31
0.0
  0
LINE
  5
   153
  8
0
  6
CONTINUOUS
 62
     7
 10
-120.49666394681
 20
-113.878722071168
 30
0.0
 11
-118.198530684714
 21
-111.950359161951
 31
0.0
  0
LINE
  5
   154
  8
0
  6
CONTINUOUS
 62
     7
 10
-118.198530684714
 20
-85.902530852698
 30
0.0
 11
-120.49666394681
 21
-83.9741679434803
 31
0.0
  0
LINE
  5
   155
  8
0
  6
CONTINUOUS
 62
     7
 10
-120.49666394681
 20
-83.9741679434803
 30
0.0
 11
-118.99666385619
 21
-86.5722441025143
 31
0.0
  0
ENDBLK
  5
   156
  8
0
  6
CONTINUOUS
 62
     7
  0
BLOCK
  5
   157
  8
0
  6
CONTINUOUS
 62
     7
  2
*UDIM1706
 70
    65
 10
0.0
 20
0.0
 30
0.0
  3
*UDIM1706
  0
TEXT
  5
   158
  8
0
  6
CONTINUOUS
 62
     7
 10
-156.378253943554
 20
-93.0413780501475
 30
0.0
 40
3.00000002980232
  1
Ø4
 50
449.999999844103
 41
0.933333333333333
 72
     1
 11
-157.878253951669
 21
-90.5413780212402
 31
0.0
 73
     2
  0
LINE
  5
   159
  8
0
  6
CONTINUOUS
 62
     7
 10
-136.932586669922
 20
-96.9264450073242
 30
0.0
 11
-157.378253936768
 21
-96.9264450073242
 31
0.0
  0
LINE
  5
   15A
  8
0
  6
CONTINUOUS
 62
     7
 10
-136.932586669922
 20
-100.926445007324
 30
0.0
 11
-157.378253936768
 21
-100.926445007324
 31
0.0
  0
LINE
  5
   15B
  8
0
  6
CONTINUOUS
 62
     7
 10
-155.378253936768
 20
-88.041377996405
 30
0.0
 11
-155.378253936768
 21
-100.926445007324
 31
0.0
  0
LINE
  5
   15C
  8
0
  6
CONTINUOUS
 62
     7
 10
-155.899198366719
 20
-93.9720217301173
 30
0.0
 11
-155.378253936768
 21
-96.9264450073242
 31
0.0
  0
LINE
  5
   15D
  8
0
  6
CONTINUOUS
 62
     7
 10
-155.378253936768
 20
-96.9264450073242
 30
0.0
 11
-154.857309506816
 21
-93.9720217301173
 31
0.0
  0
LINE
  5
   15E
  8
0
  6
CONTINUOUS
 62
     7
 10
-154.857309506816
 20
-103.880868284531
 30
0.0
 11
-155.378253936768
 21
-100.926445007324
 31
0.0
  0
LINE
  5
   15F
  8
0
  6
CONTINUOUS
 62
     7
 10
-155.378253936768
 20
-100.926445007324
 30
0.0
 11
-155.899198366719
 21
-103.880868284531
 31
0.0
  0
ENDBLK
  5
   160
  8
0
  6
CONTINUOUS
 62
     7
  0
BLOCK
  5
   161
  8
0
  6
CONTINUOUS
 62
     7
  2
*UDIM1707
 70
    65
 10
0.0
 20
0.0
 30
0.0
  3
*UDIM1707
  0
TEXT
  5
   162
  8
0
  6
CONTINUOUS
 62
     7
 10
7.38421017546581
 20
96.7660619920545
 30
0.0
 40
3.00000002980232
  1
7
 50
330.84034468637
 41
0.933333333333334
 72
     1
 11
9.07566942528779
 21
97.5399907193516
 31
0.0
 73
     2
  0
TEXT
  5
   163
  8
0
  6
CONTINUOUS
 62
     7
 10
3.8911486004748
 20
98.7150414870056
 30
0.0
 40
3.00000002980232
  1
Ø
 50
330.84034468637
 41
1.2
 72
     1
 11
5.93191400818693
 21
99.2940722634696
 31
0.0
 73
     2
  0
LINE
  5
   164
  8
0
  6
CONTINUOUS
 62
     7
 10
3.4039037321773
 20
97.8417760940885
 30
0.0
 11
23.7821675492583
 21
86.4715733524026
 31
0.0
  0
LINE
  5
   165
  8
0
  6
CONTINUOUS
 62
     7
 10
14.9787726506803
 20
90.4943502723957
 30
0.0
 11
17.8876261844855
 21
89.7604762240271
 31
0.0
  0
LINE
  5
   166
  8
0
  6
CONTINUOUS
 62
     7
 10
17.8876261844855
 20
89.7604762240271
 30
0.0
 11
15.7354221829584
 21
91.8504565913537
 31
0.0
  0
LINE
  5
   167
  8
0
  6
CONTINUOUS
 62
     7
 10
22.3246941461947
 20
88.1739236533855
 30
0.0
 11
19.4158406123895
 21
88.9077977017541
 31
0.0
  0
LINE
  5
   168
  8
0
  6
CONTINUOUS
 62
     7
 10
19.4158406123895
 20
88.9077977017541
 30
0.0
 11
21.5680446139166
 21
86.8178173344276
 31
0.0
  0
ENDBLK
  5
   169
  8
0
  6
CONTINUOUS
 62
     7
  0
BLOCK
  5
   16A
  8
0
  6
CONTINUOUS
 62
     7
  2
*UDIM1708
 70
    65
 10
0.0
 20
0.0
 30
0.0
  3
*UDIM1708
  0
TEXT
  5
   16B
  8
0
  6
CONTINUOUS
 62
     7
 10
46.312129735505
 20
49.9192958904171
 30
0.0
 40
3.00000002980232
  1
7
 50
343.691370666029
 41
0.933333333333334
 72
     1
 11
47.789085954382
 21
51.0500480278303
 31
0.0
 73
     2
  0
TEXT
  5
   16C
  8
0
  6
CONTINUOUS
 62
     7
 10
42.4730776649705
 20
51.0425409385446
 30
0.0
 40
3.00000002980232
  1
Ø
 50
343.691370666029
 41
1.2
 72
     1
 11
44.3339390915798
 21
52.0609685699277
 31
0.0
 73
     2
  0
LINE
  5
   16D
  8
0
  6
CONTINUOUS
 62
     7
 10
42.1922664080576
 20
50.0827779229312
 30
0.0
 11
64.9153410854723
 21
43.4343708122766
 31
0.0
  0
LINE
  5
   16E
  8
0
  6
CONTINUOUS
 62
     7
 10
55.4377232203987
 20
45.398360499617
 30
0.0
 11
58.4369407641983
 21
45.3298468151097
 31
0.0
  0
LINE
  5
   16F
  8
0
  6
CONTINUOUS
 62
     7
 10
58.4369407641983
 20
45.3298468151097
 30
0.0
 11
55.87379904476
 21
46.8887902156458
 31
0.0
  0
LINE
  5
   170
  8
0
  6
CONTINUOUS
 62
     7
 10
63.1157435764763
 20
44.7699134261643
 30
0.0
 11
60.1165260326767
 21
44.8384271106715
 31
0.0
  0
LINE
  5
   171
  8
0
  6
CONTINUOUS
 62
     7
 10
60.1165260326767
 20
44.8384271106715
 30
0.0
 11
62.679667752115
 21
43.2794837101354
 31
0.0
  0
ENDBLK
  5
   172
  8
0
  6
CONTINUOUS
 62
     7
  0
BLOCK
  5
   173
  8
0
  6
CONTINUOUS
 62
     7
  2
*UDIM1709
 70
    65
 10
0.0
 20
0.0
 30
0.0
  3
*UDIM1709
  0
TEXT
  5
   174
  8
0
  6
CONTINUOUS
 62
     7
 10
65.5638927572624
 20
97.7938534676441
 30
0.0
 40
3.00000002980232
  1
8
 50
407.936580148673
 41
0.933333333333334
 72
     1
 11
65.1872352236396
 21
99.6154267357585
 31
0.0
 73
     2
  0
TEXT
  5
   175
  8
0
  6
CONTINUOUS
 62
     7
 10
63.4535415242109
 20
95.4552817377749
 30
0.0
 40
3.00000002980232
  1
Ø
 50
407.936580148673
 41
0.933333333333334
 72
     1
 11
63.0768839905881
 21
97.2768550058894
 31
0.0
 73
     2
  0
TEXT
  5
   176
  8
0
  6
CONTINUOUS
 62
     7
 10
67.4062628784183
 20
99.8354637444696
 30
0.0
 40
3.00000002980232
  1
(5 fori)
 50
407.936580148673
 41
0.933333333333333
 72
     1
 11
73.5951425785608
 21
108.932593537015
 31
0.0
 73
     2
  0
LINE
  5
   177
  8
0
  6
CONTINUOUS
 62
     7
 10
82.7536371618345
 20
115.34991224526
 30
0.0
 11
58.606780628153
 21
88.5917332414639
 31
0.0
  0
LINE
  5
   178
  8
0
  6
CONTINUOUS
 62
     7
 10
61.5392591444272
 20
92.6189236839957
 30
0.0
 11
59.946686168722
 21
90.0765406843173
 31
0.0
  0
LINE
  5
   179
  8
0
  6
CONTINUOUS
 62
     7
 10
59.946686168722
 20
90.0765406843173
 30
0.0
 11
62.3127613113324
 21
91.920907355975
 31
0.0
  0
LINE
  5
   17A
  8
0
  6
CONTINUOUS
 62
     7
 10
57.0142076524478
 20
86.0493502417855
 30
0.0
 11
58.606780628153
 21
88.5917332414639
 31
0.0
  0
LINE
  5
   17B
  8
0
  6
CONTINUOUS
 62
     7
 10
58.606780628153
 20
88.5917332414639
 30
0.0
 11
56.2407054855426
 21
86.7473665698063
 31
0.0
  0
ENDBLK
  5
   17C
  8
0
  6
CONTINUOUS
 62
     7
  0
BLOCK
  5
   17D
  8
0
  6
CONTINUOUS
 62
     7
  2
*UDIM1710
 70
    65
 10
0.0
 20
0.0
 30
0.0
  3
*UDIM1710
  0
TEXT
  5
   17E
  8
0
  6
CONTINUOUS
 62
     7
 10
43.054851212276
 20
10.3276710844308
 30
0.0
 40
3.00000002980232
  1
R min.200
 50
359.999999844103
 41
0.933333333333333
 72
     1
 11
55.3548513385393
 21
11.8276710659266
 31
0.0
 73
     2
  0
LINE
  5
   17F
  8
0
  6
CONTINUOUS
 62
     7
 10
34.0267333984375
 20
36.5379282883566
 30
0.0
 11
34.0267333984375
 21
7.32767105102539
 31
0.0
  0
LINE
  5
   180
  8
0
  6
CONTINUOUS
 62
     7
 10
76.8318279003576
 20
12.7635289957731
 30
0.0
 11
76.8318279003576
 21
7.32767105102539
 31
0.0
  0
LINE
  5
   181
  8
0
  6
CONTINUOUS
 62
     7
 10
34.0267333984375
 20
9.32767105102539
 30
0.0
 11
76.8318279003576
 21
9.32767105102539
 31
0.0
  0
LINE
  5
   182
  8
0
  6
CONTINUOUS
 62
     7
 10
36.9811566756445
 20
9.84861548097705
 30
0.0
 11
34.0267333984375
 21
9.32767105102539
 31
0.0
  0
LINE
  5
   183
  8
0
  6
CONTINUOUS
 62
     7
 10
34.0267333984375
 20
9.32767105102539
 30
0.0
 11
36.9811566756445
 21
8.80672662107373
 31
0.0
  0
LINE
  5
   184
  8
0
  6
CONTINUOUS
 62
     7
 10
73.8774046231507
 20
8.80672662107373
 30
0.0
 11
76.8318279003576
 21
9.32767105102539
 31
0.0
  0
LINE
  5
   185
  8
0
  6
CONTINUOUS
 62
     7
 10
76.8318279003576
 20
9.32767105102539
 30
0.0
 11
73.8774046231507
 21
9.84861548097705
 31
0.0
  0
ENDBLK
  5
   186
  8
0
  6
CONTINUOUS
 62
     7
  0
BLOCK
  5
   187
  8
0
  6
CONTINUOUS
 62
     7
  2
*UDIM1711
 70
    65
 10
0.0
 20
0.0
 30
0.0
  3
*UDIM1711
  0
TEXT
  5
   188
  8
0
  6
CONTINUOUS
 62
     7
 10
-2.2454032965815
 20
75.684136928023
 30
0.0
 40
3.00000002980232
  1
90
 50
449.999999844103
 41
0.933333333333333
 72
     1
 11
-3.74540330469608
 21
78.1841369569302
 31
0.0
 73
     2
  0
LINE
  5
   189
  8
0
  6
CONTINUOUS
 62
     7
 10
30.6692333984375
 20
89.7091369628906
 30
0.0
 11
-3.24540328979492
 21
89.7091369628906
 31
0.0
  0
LINE
  5
   18A
  8
0
  6
CONTINUOUS
 62
     7
 10
3.22070870790162
 20
67.2091369628906
 30
0.0
 11
-3.24540328979492
 21
67.2091369628906
 31
0.0
  0
LINE
  5
   18B
  8
0
  6
CONTINUOUS
 62
     7
 10
-1.24540328979492
 20
89.7091369628906
 30
0.0
 11
-1.24540328979492
 21
67.2091369628906
 31
0.0
  0
LINE
  5
   18C
  8
0
  6
CONTINUOUS
 62
     7
 10
-0.72445885984326
 20
86.7547136856837
 30
0.0
 11
-1.24540328979492
 21
89.7091369628906
 31
0.0
  0
LINE
  5
   18D
  8
0
  6
CONTINUOUS
 62
     7
 10
-1.24540328979492
 20
89.7091369628906
 30
0.0
 11
-1.76634771974658
 21
86.7547136856837
 31
0.0
  0
LINE
  5
   18E
  8
0
  6
CONTINUOUS
 62
     7
 10
-1.76634771974658
 20
70.1635602400976
 30
0.0
 11
-1.24540328979492
 21
67.2091369628906
 31
0.0
  0
LINE
  5
   18F
  8
0
  6
CONTINUOUS
 62
     7
 10
-1.24540328979492
 20
67.2091369628906
 30
0.0
 11
-0.72445885984326
 21
70.1635602400976
 31
0.0
  0
ENDBLK
  5
   190
  8
0
  6
CONTINUOUS
 62
     7
  0
BLOCK
  5
   191
  8
0
  6
CONTINUOUS
 62
     7
  2
*UDIM1712
 70
    65
 10
0.0
 20
0.0
 30
0.0
  3
*UDIM1712
  0
TEXT
  5
   192
  8
0
  6
CONTINUOUS
 62
     7
 10
4.00852202310435
 20
63.0341369141152
 30
0.0
 40
3.00000002980232
  1
161
 50
449.999999844103
 41
0.933333333333333
 72
     1
 11
2.50852201879025
 21
66.9341369569302
 31
0.0
 73
     2
  0
LINE
  5
   193
  8
0
  6
CONTINUOUS
 62
     7
 10
10.6517333984375
 20
87.3341369628906
 30
0.0
 11
3.00852203369141
 21
87.3341369628906
 31
0.0
  0
LINE
  5
   194
  8
0
  6
CONTINUOUS
 62
     7
 10
10.6517333984375
 20
47.0841369628906
 30
0.0
 11
3.00852203369141
 21
47.0841369628906
 31
0.0
  0
LINE
  5
   195
  8
0
  6
CONTINUOUS
 62
     7
 10
5.00852203369141
 20
87.3341369628906
 30
0.0
 11
5.00852203369141
 21
47.0841369628906
 31
0.0
  0
LINE
  5
   196
  8
0
  6
CONTINUOUS
 62
     7
 10
5.52946646364307
 20
84.3797136856837
 30
0.0
 11
5.00852203369141
 21
87.3341369628906
 31
0.0
  0
LINE
  5
   197
  8
0
  6
CONTINUOUS
 62
     7
 10
5.00852203369141
 20
87.3341369628906
 30
0.0
 11
4.48757760373974
 21
84.3797136856837
 31
0.0
  0
LINE
  5
   198
  8
0
  6
CONTINUOUS
 62
     7
 10
4.48757760373974
 20
50.0385602400976
 30
0.0
 11
5.00852203369141
 21
47.0841369628906
 31
0.0
  0
LINE
  5
   199
  8
0
  6
CONTINUOUS
 62
     7
 10
5.00852203369141
 20
47.0841369628906
 30
0.0
 11
5.52946646364307
 21
50.0385602400976
 31
0.0
  0
ENDBLK
  5
   19A
  8
0
  6
CONTINUOUS
 62
     7
  0
BLOCK
  5
   19B
  8
0
  6
CONTINUOUS
 62
     7
  2
*UDIM1713
 70
    65
 10
0.0
 20
0.0
 30
0.0
  3
*UDIM1713
  0
TEXT
  5
   19C
  8
0
  6
CONTINUOUS
 62
     7
 10
93.7600860489833
 20
63.0341369141152
 30
0.0
 40
3.00000002980232
  1
177
 50
449.999999844103
 41
0.933333333333333
 72
     1
 11
92.2600860446692
 21
66.9341369569302
 31
0.0
 73
     2
  0
LINE
  5
   19D
  8
0
  6
CONTINUOUS
 62
     7
 10
61.9017333984375
 20
89.3341369628906
 30
0.0
 11
96.7600860595703
 21
89.3341369628906
 31
0.0
  0
LINE
  5
   19E
  8
0
  6
CONTINUOUS
 62
     7
 10
61.9017333984375
 20
45.0841369628906
 30
0.0
 11
96.7600860595703
 21
45.0841369628906
 31
0.0
  0
LINE
  5
   19F
  8
0
  6
CONTINUOUS
 62
     7
 10
94.7600860595703
 20
89.3341369628906
 30
0.0
 11
94.7600860595703
 21
45.0841369628906
 31
0.0
  0
LINE
  5
   1A0
  8
0
  6
CONTINUOUS
 62
     7
 10
95.281030489522
 20
86.3797136856837
 30
0.0
 11
94.7600860595703
 21
89.3341369628906
 31
0.0
  0
LINE
  5
   1A1
  8
0
  6
CONTINUOUS
 62
     7
 10
94.7600860595703
 20
89.3341369628906
 30
0.0
 11
94.2391416296186
 21
86.3797136856837
 31
0.0
  0
LINE
  5
   1A2
  8
0
  6
CONTINUOUS
 62
     7
 10
94.2391416296186
 20
48.0385602400976
 30
0.0
 11
94.7600860595703
 21
45.0841369628906
 31
0.0
  0
LINE
  5
   1A3
  8
0
  6
CONTINUOUS
 62
     7
 10
94.7600860595703
 20
45.0841369628906
 30
0.0
 11
95.281030489522
 21
48.0385602400976
 31
0.0
  0
ENDBLK
  5
   1A4
  8
0
  6
CONTINUOUS
 62
     7
  0
BLOCK
  5
   1A5
  8
0
  6
CONTINUOUS
 62
     7
  2
*UDIM1714
 70
    65
 10
0.0
 20
0.0
 30
0.0
  3
*UDIM1714
  0
TEXT
  5
   1A6
  8
0
  6
CONTINUOUS
 62
     7
 10
85.8741149872483
 20
76.4579782574386
 30
0.0
 40
3.00000002980232
  1
=
 50
449.999999844103
 41
0.933333333333334
 72
     1
 11
84.3741149753332
 21
77.5579782724381
 31
0.0
 73
     2
  0
LINE
  5
   1A7
  8
0
  6
CONTINUOUS
 62
     7
 10
61.9017333984375
 20
89.3341369628906
 30
0.0
 11
88.8741149902344
 21
89.3341369628906
 31
0.0
  0
LINE
  5
   1A8
  8
0
  6
CONTINUOUS
 62
     7
 10
76.2342013910815
 20
67.2091369628906
 30
0.0
 11
88.8741149902344
 21
67.2091369628906
 31
0.0
  0
LINE
  5
   1A9
  8
0
  6
CONTINUOUS
 62
     7
 10
86.8741149902344
 20
89.3341369628906
 30
0.0
 11
86.8741149902344
 21
67.2091369628906
 31
0.0
  0
LINE
  5
   1AA
  8
0
  6
CONTINUOUS
 62
     7
 10
87.395059420186
 20
86.3797136856837
 30
0.0
 11
86.8741149902344
 21
89.3341369628906
 31
0.0
  0
LINE
  5
   1AB
  8
0
  6
CONTINUOUS
 62
     7
 10
86.8741149902344
 20
89.3341369628906
 30
0.0
 11
86.3531705602827
 21
86.3797136856837
 31
0.0
  0
LINE
  5
   1AC
  8
0
  6
CONTINUOUS
 62
     7
 10
86.3531705602827
 20
70.1635602400976
 30
0.0
 11
86.8741149902344
 21
67.2091369628906
 31
0.0
  0
LINE
  5
   1AD
  8
0
  6
CONTINUOUS
 62
     7
 10
86.8741149902344
 20
67.2091369628906
 30
0.0
 11
87.395059420186
 21
70.1635602400976
 31
0.0
  0
ENDBLK
  5
   1AE
  8
0
  6
CONTINUOUS
 62
     7
  0
BLOCK
  5
   1AF
  8
0
  6
CONTINUOUS
 62
     7
  2
*UDIM1715
 70
    65
 10
0.0
 20
0.0
 30
0.0
  3
*UDIM1715
  0
TEXT
  5
   1B0
  8
0
  6
CONTINUOUS
 62
     7
 10
85.8741149872483
 20
54.1582641689986
 30
0.0
 40
3.00000002980232
  1
=
 50
449.999999844103
 41
0.933333333333334
 72
     1
 11
84.3741149753332
 21
55.2582641839981
 31
0.0
 73
     2
  0
LINE
  5
   1B1
  8
0
  6
CONTINUOUS
 62
     7
 10
61.9017333984375
 20
45.0841369628906
 30
0.0
 11
88.8741149902344
 21
45.0841369628906
 31
0.0
  0
LINE
  5
   1B2
  8
0
  6
CONTINUOUS
 62
     7
 10
86.8741149902344
 20
67.2091369628906
 30
0.0
 11
86.8741149902344
 21
45.0841369628906
 31
0.0
  0
LINE
  5
   1B3
  8
0
  6
CONTINUOUS
 62
     7
 10
87.395059420186
 20
64.2547136856837
 30
0.0
 11
86.8741149902344
 21
67.2091369628906
 31
0.0
  0
LINE
  5
   1B4
  8
0
  6
CONTINUOUS
 62
     7
 10
86.8741149902344
 20
67.2091369628906
 30
0.0
 11
86.3531705602827
 21
64.2547136856837
 31
0.0
  0
LINE
  5
   1B5
  8
0
  6
CONTINUOUS
 62
     7
 10
86.3531705602827
 20
48.0385602400976
 30
0.0
 11
86.8741149902344
 21
45.0841369628906
 31
0.0
  0
LINE
  5
   1B6
  8
0
  6
CONTINUOUS
 62
     7
 10
86.8741149902344
 20
45.0841369628906
 30
0.0
 11
87.395059420186
 21
48.0385602400976
 31
0.0
  0
ENDBLK
  5
   1B7
  8
0
  6
CONTINUOUS
 62
     7
  0
BLOCK
  5
   1B8
  8
0
  6
CONTINUOUS
 62
     7
  2
*UDIM1716
 70
    65
 10
0.0
 20
0.0
 30
0.0
  3
*UDIM1716
  0
TEXT
  5
   1B9
  8
0
  6
CONTINUOUS
 62
     7
 10
43.6102514237107
 20
70.2091368525237
 30
0.0
 40
3.00000002980232
  1
9
 50
449.999999844103
 41
0.933333333333334
 72
     1
 11
42.1102514117956
 21
71.3091368675232
 31
0.0
 73
     2
  0
LINE
  5
   1BA
  8
0
  6
CONTINUOUS
 62
     7
 10
63.2767333984375
 20
64.9591369628906
 30
0.0
 11
42.6102514266968
 21
64.9591369628906
 31
0.0
  0
LINE
  5
   1BB
  8
0
  6
CONTINUOUS
 62
     7
 10
44.6102514266968
 20
72.4091368784507
 30
0.0
 11
44.6102514266968
 21
64.9591369628906
 31
0.0
  0
LINE
  5
   1BC
  8
0
  6
CONTINUOUS
 62
     7
 10
44.0893069967451
 20
70.1635602400976
 30
0.0
 11
44.6102514266968
 21
67.2091369628906
 31
0.0
  0
LINE
  5
   1BD
  8
0
  6
CONTINUOUS
 62
     7
 10
44.6102514266968
 20
67.2091369628906
 30
0.0
 11
45.1311958566484
 21
70.1635602400976
 31
0.0
  0
LINE
  5
   1BE
  8
0
  6
CONTINUOUS
 62
     7
 10
45.1311958566484
 20
62.0047136856837
 30
0.0
 11
44.6102514266968
 21
64.9591369628906
 31
0.0
  0
LINE
  5
   1BF
  8
0
  6
CONTINUOUS
 62
     7
 10
44.6102514266968
 20
64.9591369628906
 30
0.0
 11
44.0893069967451
 21
62.0047136856837
 31
0.0
  0
ENDBLK
  5
   1C0
  8
0
  6
CONTINUOUS
 62
     7
  0
BLOCK
  5
   1C1
  8
0
  6
CONTINUOUS
 62
     7
  2
*UDIM1717
 70
    65
 10
0.0
 20
0.0
 30
0.0
  3
*UDIM1717
  0
TEXT
  5
   1C2
  8
0
  6
CONTINUOUS
 62
     7
 10
43.6102514199102
 20
57.7930303224932
 30
0.0
 40
3.00000002980232
  1
39
 50
449.999999844103
 41
0.933333333333333
 72
     1
 11
42.1102514117956
 21
60.2930303514004
 31
0.0
 73
     2
  0
LINE
  5
   1C3
  8
0
  6
CONTINUOUS
 62
     7
 10
63.2767333984375
 20
55.2091369628906
 30
0.0
 11
42.6102514266968
 21
55.2091369628906
 31
0.0
  0
LINE
  5
   1C4
  8
0
  6
CONTINUOUS
 62
     7
 10
44.6102514266968
 20
64.9591369628906
 30
0.0
 11
44.6102514266968
 21
55.2091369628906
 31
0.0
  0
LINE
  5
   1C5
  8
0
  6
CONTINUOUS
 62
     7
 10
44.0893069967451
 20
67.9135602400976
 30
0.0
 11
44.6102514266968
 21
64.9591369628906
 31
0.0
  0
LINE
  5
   1C6
  8
0
  6
CONTINUOUS
 62
     7
 10
44.6102514266968
 20
64.9591369628906
 30
0.0
 11
45.1311958566484
 21
67.9135602400976
 31
0.0
  0
LINE
  5
   1C7
  8
0
  6
CONTINUOUS
 62
     7
 10
45.1311958566484
 20
52.2547136856837
 30
0.0
 11
44.6102514266968
 21
55.2091369628906
 31
0.0
  0
LINE
  5
   1C8
  8
0
  6
CONTINUOUS
 62
     7
 10
44.6102514266968
 20
55.2091369628906
 30
0.0
 11
44.0893069967451
 21
52.2547136856837
 31
0.0
  0
ENDBLK
  5
   1C9
  8
0
  6
CONTINUOUS
 62
     7
  0
BLOCK
  5
   1CA
  8
0
  6
CONTINUOUS
 62
     7
  2
*UDIM1718
 70
    65
 10
0.0
 20
0.0
 30
0.0
  3
*UDIM1718
  0
TEXT
  5
   1CB
  8
0
  6
CONTINUOUS
 62
     7
 10
44.9767333496602
 20
17.9317665206017
 30
0.0
 40
3.00000002980232
  1
121
 50
359.999999844103
 41
0.933333333333333
 72
     1
 11
48.876733392477
 21
19.4317665249109
 31
0.0
 73
     2
  0
LINE
  5
   1CC
  8
0
  6
CONTINUOUS
 62
     7
 10
34.0267333984375
 20
36.5379282883566
 30
0.0
 11
34.0267333984375
 21
14.9317665100098
 31
0.0
  0
LINE
  5
   1CD
  8
0
  6
CONTINUOUS
 62
     7
 10
64.2767333984375
 20
53.4591369628906
 30
0.0
 11
64.2767333984375
 21
14.9317665100098
 31
0.0
  0
LINE
  5
   1CE
  8
0
  6
CONTINUOUS
 62
     7
 10
34.0267333984375
 20
16.9317665100098
 30
0.0
 11
64.2767333984375
 21
16.9317665100098
 31
0.0
  0
LINE
  5
   1CF
  8
0
  6
CONTINUOUS
 62
     7
 10
36.9811566756445
 20
17.4527109399614
 30
0.0
 11
34.0267333984375
 21
16.9317665100098
 31
0.0
  0
LINE
  5
   1D0
  8
0
  6
CONTINUOUS
 62
     7
 10
34.0267333984375
 20
16.9317665100098
 30
0.0
 11
36.9811566756445
 21
16.4108220800581
 31
0.0
  0
LINE
  5
   1D1
  8
0
  6
CONTINUOUS
 62
     7
 10
61.3223101212305
 20
16.4108220800581
 30
0.0
 11
64.2767333984375
 21
16.9317665100098
 31
0.0
  0
LINE
  5
   1D2
  8
0
  6
CONTINUOUS
 62
     7
 10
64.2767333984375
 20
16.9317665100098
 30
0.0
 11
61.3223101212305
 21
17.4527109399614
 31
0.0
  0
ENDBLK
  5
   1D3
  8
0
  6
CONTINUOUS
 62
     7
  0
BLOCK
  5
   1D4
  8
0
  6
CONTINUOUS
 62
     7
  2
*UDIM1719
 70
    65
 10
0.0
 20
0.0
 30
0.0
  3
*UDIM1719
  0
TEXT
  5
   1D5
  8
0
  6
CONTINUOUS
 62
     7
 10
68.8529295632235
 20
36.6220722266383
 30
0.0
 40
3.00000002980232
  1
16
 50
359.999999844103
 41
0.933333333333333
 72
     1
 11
71.3529295921326
 21
38.1220722347498
 31
0.0
 73
     2
  0
LINE
  5
   1D6
  8
0
  6
CONTINUOUS
 62
     7
 10
62.2767333984375
 20
56.2091369628906
 30
0.0
 11
62.2767333984375
 21
33.6220722198486
 31
0.0
  0
LINE
  5
   1D7
  8
0
  6
CONTINUOUS
 62
     7
 10
66.2767333984375
 20
56.2091369628906
 30
0.0
 11
66.2767333984375
 21
33.6220722198486
 31
0.0
  0
LINE
  5
   1D8
  8
0
  6
CONTINUOUS
 62
     7
 10
62.2767333984375
 20
35.6220722198486
 30
0.0
 11
73.8529296169678
 21
35.6220722198486
 31
0.0
  0
LINE
  5
   1D9
  8
0
  6
CONTINUOUS
 62
     7
 10
59.3223101212305
 20
35.101127789897
 30
0.0
 11
62.2767333984375
 21
35.6220722198486
 31
0.0
  0
LINE
  5
   1DA
  8
0
  6
CONTINUOUS
 62
     7
 10
62.2767333984375
 20
35.6220722198486
 30
0.0
 11
59.3223101212305
 21
36.1430166498003
 31
0.0
  0
LINE
  5
   1DB
  8
0
  6
CONTINUOUS
 62
     7
 10
69.2311566756445
 20
36.1430166498003
 30
0.0
 11
66.2767333984375
 21
35.6220722198486
 31
0.0
  0
LINE
  5
   1DC
  8
0
  6
CONTINUOUS
 62
     7
 10
66.2767333984375
 20
35.6220722198486
 30
0.0
 11
69.2311566756445
 21
35.101127789897
 31
0.0
  0
ENDBLK
  5
   1DD
  8
0
  6
CONTINUOUS
 62
     7
  0
BLOCK
  5
   1DE
  8
0
  6
CONTINUOUS
 62
     7
  2
*UDIM1720
 70
    65
 10
0.0
 20
0.0
 30
0.0
  3
*UDIM1720
  0
TEXT
  5
   1DF
  8
0
  6
CONTINUOUS
 62
     7
 10
31.9892333218447
 20
23.8640632811359
 30
0.0
 40
3.00000002980232
  1
162,5
 50
359.999999844103
 41
0.933333333333333
 72
     1
 11
38.689233392477
 21
25.3640632778406
 31
0.0
 73
     2
  0
LINE
  5
   1E0
  8
0
  6
CONTINUOUS
 62
     7
 10
18.6517333984375
 20
42.4591369628906
 30
0.0
 11
18.6517333984375
 21
20.8640632629395
 31
0.0
  0
LINE
  5
   1E1
  8
0
  6
CONTINUOUS
 62
     7
 10
59.2767333984375
 20
42.4591369628906
 30
0.0
 11
59.2767333984375
 21
20.8640632629395
 31
0.0
  0
LINE
  5
   1E2
  8
0
  6
CONTINUOUS
 62
     7
 10
18.6517333984375
 20
22.8640632629395
 30
0.0
 11
59.2767333984375
 21
22.8640632629395
 31
0.0
  0
LINE
  5
   1E3
  8
0
  6
CONTINUOUS
 62
     7
 10
21.6061566756445
 20
23.3850076928911
 30
0.0
 11
18.6517333984375
 21
22.8640632629395
 31
0.0
  0
LINE
  5
   1E4
  8
0
  6
CONTINUOUS
 62
     7
 10
18.6517333984375
 20
22.8640632629395
 30
0.0
 11
21.6061566756445
 21
22.3431188329878
 31
0.0
  0
LINE
  5
   1E5
  8
0
  6
CONTINUOUS
 62
     7
 10
56.3223101212305
 20
22.3431188329878
 30
0.0
 11
59.2767333984375
 21
22.8640632629395
 31
0.0
  0
LINE
  5
   1E6
  8
0
  6
CONTINUOUS
 62
     7
 10
59.2767333984375
 20
22.8640632629395
 30
0.0
 11
56.3223101212305
 21
23.3850076928911
 31
0.0
  0
ENDBLK
  5
   1E7
  8
0
  6
CONTINUOUS
 62
     7
  0
BLOCK
  5
   1E8
  8
0
  6
CONTINUOUS
 62
     7
  2
*UDIM1721
 70
    65
 10
0.0
 20
0.0
 30
0.0
  3
*UDIM1721
  0
TEXT
  5
   1E9
  8
0
  6
CONTINUOUS
 62
     7
 10
42.4767333496602
 20
30.5110931502404
 30
0.0
 40
3.00000002980232
  1
101
 50
359.999999844103
 41
0.933333333333333
 72
     1
 11
46.376733392477
 21
32.0110931545496
 31
0.0
 73
     2
  0
LINE
  5
   1EA
  8
0
  6
CONTINUOUS
 62
     7
 10
34.0267333984375
 20
36.5379282883566
 30
0.0
 11
34.0267333984375
 21
27.5110931396484
 31
0.0
  0
LINE
  5
   1EB
  8
0
  6
CONTINUOUS
 62
     7
 10
59.2767333984375
 20
42.4591369628906
 30
0.0
 11
59.2767333984375
 21
27.5110931396484
 31
0.0
  0
LINE
  5
   1EC
  8
0
  6
CONTINUOUS
 62
     7
 10
34.0267333984375
 20
29.5110931396484
 30
0.0
 11
59.2767333984375
 21
29.5110931396484
 31
0.0
  0
LINE
  5
   1ED
  8
0
  6
CONTINUOUS
 62
     7
 10
36.9811566756445
 20
30.0320375696001
 30
0.0
 11
34.0267333984375
 21
29.5110931396484
 31
0.0
  0
LINE
  5
   1EE
  8
0
  6
CONTINUOUS
 62
     7
 10
34.0267333984375
 20
29.5110931396484
 30
0.0
 11
36.9811566756445
 21
28.9901487096968
 31
0.0
  0
LINE
  5
   1EF
  8
0
  6
CONTINUOUS
 62
     7
 10
56.3223101212305
 20
28.9901487096968
 30
0.0
 11
59.2767333984375
 21
29.5110931396484
 31
0.0
  0
LINE
  5
   1F0
  8
0
  6
CONTINUOUS
 62
     7
 10
59.2767333984375
 20
29.5110931396484
 30
0.0
 11
56.3223101212305
 21
30.0320375696001
 31
0.0
  0
ENDBLK
  5
   1F1
  8
0
  6
CONTINUOUS
 62
     7
  0
BLOCK
  5
   1F2
  8
0
  6
CONTINUOUS
 62
     7
  2
*UDIM1722
 70
    65
 10
0.0
 20
0.0
 30
0.0
  3
*UDIM1722
  0
TEXT
  5
   1F3
  8
0
  6
CONTINUOUS
 62
     7
 10
17.1767337092749
 20
37.30106927784
 30
0.0
 40
3.00000002980232
  1
19,75
 50
359.999999844103
 41
0.933333333333333
 72
     1
 11
23.8767337799072
 21
38.8010692745447
 31
0.0
 73
     2
  0
LINE
  5
   1F4
  8
0
  6
CONTINUOUS
 62
     7
 10
34.0267333984375
 20
36.5379282883566
 30
0.0
 11
34.0267333984375
 21
34.3010692596436
 31
0.0
  0
LINE
  5
   1F5
  8
0
  6
CONTINUOUS
 62
     7
 10
38.9642333984375
 20
42.4591369628906
 30
0.0
 11
38.9642333984375
 21
34.3010692596436
 31
0.0
  0
LINE
  5
   1F6
  8
0
  6
CONTINUOUS
 62
     7
 10
17.1767337133487
 20
36.3010692596436
 30
0.0
 11
38.9642333984375
 21
36.3010692596436
 31
0.0
  0
LINE
  5
   1F7
  8
0
  6
CONTINUOUS
 62
     7
 10
31.0723101212305
 20
35.7801248296919
 30
0.0
 11
34.0267333984375
 21
36.3010692596436
 31
0.0
  0
LINE
  5
   1F8
  8
0
  6
CONTINUOUS
 62
     7
 10
34.0267333984375
 20
36.3010692596436
 30
0.0
 11
31.0723101212305
 21
36.8220136895952
 31
0.0
  0
LINE
  5
   1F9
  8
0
  6
CONTINUOUS
 62
     7
 10
41.9186566756445
 20
36.8220136895952
 30
0.0
 11
38.9642333984375
 21
36.3010692596436
 31
0.0
  0
LINE
  5
   1FA
  8
0
  6
CONTINUOUS
 62
     7
 10
38.9642333984375
 20
36.3010692596436
 30
0.0
 11
41.9186566756445
 21
35.7801248296919
 31
0.0
  0
ENDBLK
  5
   1FB
  8
0
  6
CONTINUOUS
 62
     7
  0
BLOCK
  5
   1FC
  8
0
  6
CONTINUOUS
 62
     7
  2
*UDIM1723
 70
    65
 10
0.0
 20
0.0
 30
0.0
  3
*UDIM1723
  0
TEXT
  5
   1FD
  8
0
  6
CONTINUOUS
 62
     7
 10
28.7267333496602
 20
109.67536545859
 30
0.0
 40
3.00000002980232
  1
170
 50
359.999999844103
 41
0.933333333333333
 72
     1
 11
32.626733392477
 21
111.175365462899
 31
0.0
 73
     2
  0
LINE
  5
   1FE
  8
0
  6
CONTINUOUS
 62
     7
 10
11.6517333984375
 20
88.3341369628906
 30
0.0
 11
11.6517333984375
 21
110.675365447998
 31
0.0
  0
LINE
  5
   1FF
  8
0
  6
CONTINUOUS
 62
     7
 10
54.1517333984375
 20
88.3341369628906
 30
0.0
 11
54.1517333984375
 21
110.675365447998
 31
0.0
  0
LINE
  5
   200
  8
0
  6
CONTINUOUS
 62
     7
 10
11.6517333984375
 20
108.675365447998
 30
0.0
 11
54.1517333984375
 21
108.675365447998
 31
0.0
  0
LINE
  5
   201
  8
0
  6
CONTINUOUS
 62
     7
 10
14.6061566756445
 20
109.19630987795
 30
0.0
 11
11.6517333984375
 21
108.675365447998
 31
0.0
  0
LINE
  5
   202
  8
0
  6
CONTINUOUS
 62
     7
 10
11.6517333984375
 20
108.675365447998
 30
0.0
 11
14.6061566756445
 21
108.154421018046
 31
0.0
  0
LINE
  5
   203
  8
0
  6
CONTINUOUS
 62
     7
 10
51.1973101212305
 20
108.154421018046
 30
0.0
 11
54.1517333984375
 21
108.675365447998
 31
0.0
  0
LINE
  5
   204
  8
0
  6
CONTINUOUS
 62
     7
 10
54.1517333984375
 20
108.675365447998
 30
0.0
 11
51.1973101212305
 21
109.19630987795
 31
0.0
  0
ENDBLK
  5
   205
  8
0
  6
CONTINUOUS
 62
     7
  0
BLOCK
  5
   206
  8
0
  6
CONTINUOUS
 62
     7
  2
*UDIM1724
 70
    65
 10
0.0
 20
0.0
 30
0.0
  3
*UDIM1724
  0
TEXT
  5
   207
  8
0
  6
CONTINUOUS
 62
     7
 10
38.5142333357524
 20
104.064701094716
 30
0.0
 40
3.00000002980232
  1
80,5
 50
359.999999844103
 41
0.933333333333333
 72
     1
 11
43.814233392477
 21
105.564701095223
 31
0.0
 73
     2
  0
LINE
  5
   208
  8
0
  6
CONTINUOUS
 62
     7
 10
34.0267333984375
 20
99.2868348775104
 30
0.0
 11
34.0267333984375
 21
105.064701080322
 31
0.0
  0
LINE
  5
   209
  8
0
  6
CONTINUOUS
 62
     7
 10
54.1517333984375
 20
88.3341369628906
 30
0.0
 11
54.1517333984375
 21
105.064701080322
 31
0.0
  0
LINE
  5
   20A
  8
0
  6
CONTINUOUS
 62
     7
 10
34.0267333984375
 20
103.064701080322
 30
0.0
 11
54.1517333984375
 21
103.064701080322
 31
0.0
  0
LINE
  5
   20B
  8
0
  6
CONTINUOUS
 62
     7
 10
36.9811566756445
 20
103.585645510274
 30
0.0
 11
34.0267333984375
 21
103.064701080322
 31
0.0
  0
LINE
  5
   20C
  8
0
  6
CONTINUOUS
 62
     7
 10
34.0267333984375
 20
103.064701080322
 30
0.0
 11
36.9811566756445
 21
102.543756650371
 31
0.0
  0
LINE
  5
   20D
  8
0
  6
CONTINUOUS
 62
     7
 10
51.1973101212305
 20
102.543756650371
 30
0.0
 11
54.1517333984375
 21
103.064701080322
 31
0.0
  0
LINE
  5
   20E
  8
0
  6
CONTINUOUS
 62
     7
 10
54.1517333984375
 20
103.064701080322
 30
0.0
 11
51.1973101212305
 21
103.585645510274
 31
0.0
  0
ENDBLK
  5
   20F
  8
0
  6
CONTINUOUS
 62
     7
  0
BLOCK
  5
   210
  8
0
  6
CONTINUOUS
 62
     7
  2
*UDIM1725
 70
    65
 10
0.0
 20
0.0
 30
0.0
  3
*UDIM1725
  0
TEXT
  5
   211
  8
0
  6
CONTINUOUS
 62
     7
 10
36.8813536772123
 20
98.6684551306911
 30
0.0
 40
3.00000002980232
  1
45
 50
359.999999844103
 41
0.933333333333333
 72
     1
 11
39.3813537061214
 21
100.168455138803
 31
0.0
 73
     2
  0
LINE
  5
   212
  8
0
  6
CONTINUOUS
 62
     7
 10
33.3392333984375
 20
92.3791369628906
 30
0.0
 11
33.3392333984375
 21
99.6684551239014
 31
0.0
  0
LINE
  5
   213
  8
0
  6
CONTINUOUS
 62
     7
 10
44.5892333984375
 20
92.3791369628906
 30
0.0
 11
44.5892333984375
 21
99.6684551239014
 31
0.0
  0
LINE
  5
   214
  8
0
  6
CONTINUOUS
 62
     7
 10
33.3392333984375
 20
97.6684551239014
 30
0.0
 11
44.5892333984375
 21
97.6684551239014
 31
0.0
  0
LINE
  5
   215
  8
0
  6
CONTINUOUS
 62
     7
 10
30.3848101212305
 20
97.1475106939497
 30
0.0
 11
33.3392333984375
 21
97.6684551239014
 31
0.0
  0
LINE
  5
   216
  8
0
  6
CONTINUOUS
 62
     7
 10
33.3392333984375
 20
97.6684551239014
 30
0.0
 11
30.3848101212305
 21
98.189399553853
 31
0.0
  0
LINE
  5
   217
  8
0
  6
CONTINUOUS
 62
     7
 10
47.5436566756445
 20
98.189399553853
 30
0.0
 11
44.5892333984375
 21
97.6684551239014
 31
0.0
  0
LINE
  5
   218
  8
0
  6
CONTINUOUS
 62
     7
 10
44.5892333984375
 20
97.6684551239014
 30
0.0
 11
47.5436566756445
 21
97.1475106939497
 31
0.0
  0
ENDBLK
  5
   219
  8
0
  6
CONTINUOUS
 62
     7
  0
BLOCK
  5
   21A
  8
0
  6
CONTINUOUS
 62
     7
  2
*HATCH329
 70
    65
 10
0.0
 20
0.0
 30
0.0
  3
*HATCH329
  0
LINE
  5
   21B
  8
0
  6
CONTINUOUS
 62
    52
 10
45.8568267822266
 20
179.5
 30
0.0
 11
43.8568267822266
 21
177.5
 31
0.0
  0
LINE
  5
   21C
  8
0
  6
CONTINUOUS
 62
    52
 10
52.2207832336426
 20
179.5
 30
0.0
 11
50.2207832336426
 21
177.5
 31
0.0
  0
LINE
  5
   21D
  8
0
  6
CONTINUOUS
 62
    52
 10
58.5847396850586
 20
179.5
 30
0.0
 11
56.5847396850586
 21
177.5
 31
0.0
  0
LINE
  5
   21E
  8
0
  6
CONTINUOUS
 62
    52
 10
64.9486999511719
 20
179.5
 30
0.0
 11
62.9486961364746
 21
177.5
 31
0.0
  0
ENDBLK
  5
   21F
  8
0
  6
CONTINUOUS
 62
     7
  0
BLOCK
  5
   220
  8
0
  6
CONTINUOUS
 62
     7
  2
*HATCH330
 70
    65
 10
0.0
 20
0.0
 30
0.0
  3
*HATCH330
  0
LINE
  5
   221
  8
0
  6
CONTINUOUS
 62
    52
 10
-7.17618036270142
 20
179.5
 30
0.0
 11
-9.17617988586426
 21
177.5
 31
0.0
  0
LINE
  5
   222
  8
0
  6
CONTINUOUS
 62
    52
 10
-0.812219619750977
 20
179.5
 30
0.0
 11
-2.81221795082092
 21
177.5
 31
0.0
  0
LINE
  5
   223
  8
0
  6
CONTINUOUS
 62
    52
 10
5.55174112319946
 20
179.5
 30
0.0
 11
3.55174350738525
 21
177.5
 31
0.0
  0
LINE
  5
   224
  8
0
  6
CONTINUOUS
 62
    52
 10
11.9157028198242
 20
179.5
 30
0.0
 11
9.91570568084717
 21
177.5
 31
0.0
  0
LINE
  5
   225
  8
0
  6
CONTINUOUS
 62
    52
 10
18.2796649932861
 20
179.5
 30
0.0
 11
16.2796669006348
 21
177.5
 31
0.0
  0
LINE
  5
   226
  8
0
  6
CONTINUOUS
 62
    52
 10
24.643627166748
 20
179.5
 30
0.0
 11
22.6436290740967
 21
177.5
 31
0.0
  0
ENDBLK
  5
   227
  8
0
  6
CONTINUOUS
 62
     7
  0
BLOCK
  5
   228
  8
0
  6
CONTINUOUS
 62
     7
  2
*HATCH331
 70
    65
 10
0.0
 20
0.0
 30
0.0
  3
*HATCH331
  0
LINE
  5
   229
  8
0
  6
CONTINUOUS
 62
    52
 10
-70.815788269043
 20
179.5
 30
0.0
 11
-72.815788269043
 21
177.5
 31
0.0
  0
LINE
  5
   22A
  8
0
  6
CONTINUOUS
 62
    52
 10
-64.4518203735352
 20
179.5
 30
0.0
 11
-66.4518203735352
 21
177.5
 31
0.0
  0
LINE
  5
   22B
  8
0
  6
CONTINUOUS
 62
    52
 10
-58.0878639221191
 20
179.5
 30
0.0
 11
-60.0878601074219
 21
177.5
 31
0.0
  0
LINE
  5
   22C
  8
0
  6
CONTINUOUS
 62
    52
 10
-51.7239074707031
 20
179.5
 30
0.0
 11
-53.7239036560059
 21
177.5
 31
0.0
  0
LINE
  5
   22D
  8
0
  6
CONTINUOUS
 62
    52
 10
-45.3599510192871
 20
179.5
 30
0.0
 11
-47.3599472045898
 21
177.5
 31
0.0
  0
LINE
  5
   22E
  8
0
  6
CONTINUOUS
 62
    52
 10
-38.9959945678711
 20
179.5
 30
0.0
 11
-40.9959907531738
 21
177.5
 31
0.0
  0
LINE
  5
   22F
  8
0
  6
CONTINUOUS
 62
    52
 10
-32.6320381164551
 20
179.5
 30
0.0
 11
-34.6320343017578
 21
177.5
 31
0.0
  0
LINE
  5
   230
  8
0
  6
CONTINUOUS
 62
    52
 10
-26.2680759429932
 20
179.5
 30
0.0
 11
-28.2680740356445
 21
177.5
 31
0.0
  0
LINE
  5
   231
  8
0
  6
CONTINUOUS
 62
    52
 10
-19.9041137695313
 20
179.5
 30
0.0
 11
-21.9041118621826
 21
177.5
 31
0.0
  0
ENDBLK
  5
   232
  8
0
  6
CONTINUOUS
 62
     7
  0
BLOCK
  5
   233
  8
0
  6
CONTINUOUS
 62
     7
  2
*HATCH332
 70
    65
 10
0.0
 20
0.0
 30
0.0
  3
*HATCH332
  0
LINE
  5
   234
  8
0
  6
CONTINUOUS
 62
    52
 10
171.014739990234
 20
179.5
 30
0.0
 11
169.014739990234
 21
177.5
 31
0.0
  0
LINE
  5
   235
  8
0
  6
CONTINUOUS
 62
    52
 10
177.378707885742
 20
179.5
 30
0.0
 11
175.378707885742
 21
177.5
 31
0.0
  0
LINE
  5
   236
  8
0
  6
CONTINUOUS
 62
    52
 10
183.74267578125
 20
179.5
 30
0.0
 11
181.74267578125
 21
177.5
 31
0.0
  0
LINE
  5
   237
  8
0
  6
CONTINUOUS
 62
    52
 10
190.106643676758
 20
179.5
 30
0.0
 11
188.106643676758
 21
177.5
 31
0.0
  0
ENDBLK
  5
   238
  8
0
  6
CONTINUOUS
 62
     7
  0
BLOCK
  5
   239
  8
0
  6
CONTINUOUS
 62
     7
  2
*HATCH333
 70
    65
 10
0.0
 20
0.0
 30
0.0
  3
*HATCH333
  0
LINE
  5
   23A
  8
0
  6
CONTINUOUS
 62
    52
 10
81.9192733764648
 20
179.5
 30
0.0
 11
79.9192733764648
 21
177.5
 31
0.0
  0
LINE
  5
   23B
  8
0
  6
CONTINUOUS
 62
    52
 10
88.2832412719727
 20
179.5
 30
0.0
 11
86.2832412719727
 21
177.5
 31
0.0
  0
LINE
  5
   23C
  8
0
  6
CONTINUOUS
 62
    52
 10
94.6472091674805
 20
179.5
 30
0.0
 11
92.6472091674805
 21
177.5
 31
0.0
  0
LINE
  5
   23D
  8
0
  6
CONTINUOUS
 62
    52
 10
101.011177062988
 20
179.5
 30
0.0
 11
99.0111770629883
 21
177.5
 31
0.0
  0
LINE
  5
   23E
  8
0
  6
CONTINUOUS
 62
    52
 10
107.375144958496
 20
179.5
 30
0.0
 11
105.375144958496
 21
177.5
 31
0.0
  0
LINE
  5
   23F
  8
0
  6
CONTINUOUS
 62
    52
 10
113.739112854004
 20
179.5
 30
0.0
 11
111.739112854004
 21
177.5
 31
0.0
  0
LINE
  5
   240
  8
0
  6
CONTINUOUS
 62
    52
 10
120.103080749512
 20
179.5
 30
0.0
 11
118.103080749512
 21
177.5
 31
0.0
  0
LINE
  5
   241
  8
0
  6
CONTINUOUS
 62
    52
 10
126.46704864502
 20
179.5
 30
0.0
 11
124.46704864502
 21
177.5
 31
0.0
  0
LINE
  5
   242
  8
0
  6
CONTINUOUS
 62
    52
 10
132.831008911133
 20
179.5
 30
0.0
 11
130.831008911133
 21
177.5
 31
0.0
  0
LINE
  5
   243
  8
0
  6
CONTINUOUS
 62
    52
 10
139.194976806641
 20
179.5
 30
0.0
 11
137.194976806641
 21
177.5
 31
0.0
  0
LINE
  5
   244
  8
0
  6
CONTINUOUS
 62
    52
 10
145.558944702148
 20
179.5
 30
0.0
 11
143.558944702148
 21
177.5
 31
0.0
  0
LINE
  5
   245
  8
0
  6
CONTINUOUS
 62
    52
 10
151.922912597656
 20
179.5
 30
0.0
 11
149.922912597656
 21
177.5
 31
0.0
  0
LINE
  5
   246
  8
0
  6
CONTINUOUS
 62
    52
 10
157.749984741211
 20
178.963165283203
 30
0.0
 11
156.286804199219
 21
177.5
 31
0.0
  0
ENDBLK
  5
   247
  8
0
  6
CONTINUOUS
 62
     7
  0
BLOCK
  5
   248
  8
0
  6
CONTINUOUS
 62
     7
  2
*HATCH334
 70
    65
 10
0.0
 20
0.0
 30
0.0
  3
*HATCH334
  0
LINE
  5
   249
  8
0
  6
CONTINUOUS
 62
    52
 10
149.286819458008
 20
170.500015258789
 30
0.0
 11
146.786819458008
 21
168.0
 31
0.0
  0
LINE
  5
   24A
  8
0
  6
CONTINUOUS
 62
    52
 10
153.249984741211
 20
168.099212646484
 30
0.0
 11
153.150772094727
 21
168.0
 31
0.0
  0
ENDBLK
  5
   24B
  8
0
  6
CONTINUOUS
 62
     7
  0
BLOCK
  5
   24C
  8
0
  6
CONTINUOUS
 62
     7
  2
*UDIM1726
 70
    65
 10
0.0
 20
0.0
 30
0.0
  3
*UDIM1726
  0
TEXT
  5
   24D
  8
0
  6
CONTINUOUS
 62
     7
 10
-261.928166984288
 20
-5.09743919041197
 30
0.0
 40
2.99999994039535
  1
5,5
 50
359.999999948034
 41
0.933333333333333
 72
     1
 11
-258.028167060422
 21
-3.59743922373188
 31
0.0
 73
     2
  0
TEXT
  5
   24E
  8
0
  6
CONTINUOUS
 62
     7
 10
-265.078166928657
 20
-5.09743919293742
 30
0.0
 40
2.99999994039535
  1
Ø
 50
359.999999948034
 41
0.933333333333333
 72
     1
 11
-263.97816694916
 21
-3.59743922373188
 31
0.0
 73
     2
  0
LINE
  5
   24F
  8
0
  6
CONTINUOUS
 62
     7
 10
-239.485532932368
 20
31.539919806032
 30
0.0
 11
-239.485532932368
 21
-8.09743919392956
 31
0.0
  0
LINE
  5
   250
  8
0
  6
CONTINUOUS
 62
     7
 10
-241.135528908685
 20
31.539919806032
 30
0.0
 11
-241.135528908685
 21
-8.09743919392956
 31
0.0
  0
LINE
  5
   251
  8
0
  6
CONTINUOUS
 62
     7
 10
-239.485532932368
 20
-6.09743919392956
 30
0.0
 11
-265.078166927305
 21
-6.09743919392956
 31
0.0
  0
LINE
  5
   252
  8
0
  6
CONTINUOUS
 62
     7
 10
-236.531109655161
 20
-5.57649476397789
 30
0.0
 11
-239.485532932368
 21
-6.09743919392956
 31
0.0
  0
LINE
  5
   253
  8
0
  6
CONTINUOUS
 62
     7
 10
-239.485532932368
 20
-6.09743919392956
 30
0.0
 11
-236.531109655161
 21
-6.61838362388122
 31
0.0
  0
LINE
  5
   254
  8
0
  6
CONTINUOUS
 62
     7
 10
-244.089952185892
 20
-6.61838362388122
 30
0.0
 11
-241.135528908685
 21
-6.09743919392956
 31
0.0
  0
LINE
  5
   255
  8
0
  6
CONTINUOUS
 62
     7
 10
-241.135528908685
 20
-6.09743919392956
 30
0.0
 11
-244.089952185892
 21
-5.57649476397789
 31
0.0
  0
ENDBLK
  5
   256
  8
0
  6
CONTINUOUS
 62
     7
  0
BLOCK
  5
   257
  8
0
  6
CONTINUOUS
 62
     7
  2
*UDIM1727
 70
    65
 10
0.0
 20
0.0
 30
0.0
  3
*UDIM1727
  0
TEXT
  5
   258
  8
0
  6
CONTINUOUS
 62
     7
 10
-274.647546989563
 20
112.452193170093
 30
0.0
 40
2.99999994039535
  1
27,5
 50
359.999999948034
 41
0.933333333333333
 72
     1
 11
-269.347547093511
 21
113.95219313551
 31
0.0
 73
     2
  0
LINE
  5
   259
  8
0
  6
CONTINUOUS
 62
     7
 10
-248.860527694225
 20
60.4649253892527
 30
0.0
 11
-248.860527694225
 21
113.452193165313
 31
0.0
  0
LINE
  5
   25A
  8
0
  6
CONTINUOUS
 62
     7
 10
-257.110528022051
 20
52.064902638507
 30
0.0
 11
-257.110528022051
 21
113.452193165313
 31
0.0
  0
LINE
  5
   25B
  8
0
  6
CONTINUOUS
 62
     7
 10
-248.860527694225
 20
111.452193165313
 30
0.0
 11
-274.64754698821
 21
111.452193165313
 31
0.0
  0
LINE
  5
   25C
  8
0
  6
CONTINUOUS
 62
     7
 10
-245.906104417018
 20
111.973137595264
 30
0.0
 11
-248.860527694225
 21
111.452193165313
 31
0.0
  0
LINE
  5
   25D
  8
0
  6
CONTINUOUS
 62
     7
 10
-248.860527694225
 20
111.452193165313
 30
0.0
 11
-245.906104417018
 21
110.931248735361
 31
0.0
  0
LINE
  5
   25E
  8
0
  6
CONTINUOUS
 62
     7
 10
-260.064951299258
 20
110.931248735361
 30
0.0
 11
-257.110528022051
 21
111.452193165313
 31
0.0
  0
LINE
  5
   25F
  8
0
  6
CONTINUOUS
 62
     7
 10
-257.110528022051
 20
111.452193165313
 30
0.0
 11
-260.064951299258
 21
111.973137595264
 31
0.0
  0
ENDBLK
  5
   260
  8
0
  6
CONTINUOUS
 62
     7
  0
BLOCK
  5
   261
  8
0
  6
CONTINUOUS
 62
     7
  2
*UDIM1728
 70
    65
 10
0.0
 20
0.0
 30
0.0
  3
*UDIM1728
  0
TEXT
  5
   262
  8
0
  6
CONTINUOUS
 62
     7
 10
-136.993016802846
 20
84.0223689197797
 30
0.0
 40
2.99999994039535
  1
22
 50
89.9999999480344
 41
0.933333333333333
 72
     1
 11
-138.49301677078
 21
86.5223688714677
 31
0.0
 73
     2
  0
LINE
  5
   263
  8
0
  6
CONTINUOUS
 62
     7
 10
-149.647371412036
 20
69.7399280190466
 30
0.0
 11
-133.993016800582
 21
69.7399280190466
 31
0.0
  0
LINE
  5
   264
  8
0
  6
CONTINUOUS
 62
     7
 10
-143.282037198512
 20
76.339928281307
 30
0.0
 11
-133.993016800582
 21
76.339928281307
 31
0.0
  0
LINE
  5
   265
  8
0
  6
CONTINUOUS
 62
     7
 10
-135.993016800582
 20
69.7399280190466
 30
0.0
 11
-135.993016800582
 21
89.0223688217972
 31
0.0
  0
LINE
  5
   266
  8
0
  6
CONTINUOUS
 62
     7
 10
-135.472072370631
 20
66.7855047418396
 30
0.0
 11
-135.993016800582
 21
69.7399280190466
 31
0.0
  0
LINE
  5
   267
  8
0
  6
CONTINUOUS
 62
     7
 10
-135.993016800582
 20
69.7399280190466
 30
0.0
 11
-136.513961230534
 21
66.7855047418396
 31
0.0
  0
LINE
  5
   268
  8
0
  6
CONTINUOUS
 62
     7
 10
-136.513961230534
 20
79.294351558514
 30
0.0
 11
-135.993016800582
 21
76.339928281307
 31
0.0
  0
LINE
  5
   269
  8
0
  6
CONTINUOUS
 62
     7
 10
-135.993016800582
 20
76.339928281307
 30
0.0
 11
-135.472072370631
 21
79.294351558514
 31
0.0
  0
ENDBLK
  5
   26A
  8
0
  6
CONTINUOUS
 62
     7
  0
BLOCK
  5
   26B
  8
0
  6
CONTINUOUS
 62
     7
  2
*UDIM1729
 70
    65
 10
0.0
 20
0.0
 30
0.0
  3
*UDIM1729
  0
TEXT
  5
   26C
  8
0
  6
CONTINUOUS
 62
     7
 10
-139.385523196421
 20
107.235490689766
 30
0.0
 40
2.99999994039535
  1
14
 50
359.999999948034
 41
0.933333333333333
 72
     1
 11
-136.885523244739
 21
108.735490657709
 31
0.0
 73
     2
  0
LINE
  5
   26D
  8
0
  6
CONTINUOUS
 62
     7
 10
-142.360523462296
 20
81.5399284482
 30
0.0
 11
-142.360523462296
 21
108.235490687512
 31
0.0
  0
LINE
  5
   26E
  8
0
  6
CONTINUOUS
 62
     7
 10
-146.560523629189
 20
79.6864344583066
 30
0.0
 11
-146.560523629189
 21
108.235490687512
 31
0.0
  0
LINE
  5
   26F
  8
0
  6
CONTINUOUS
 62
     7
 10
-134.385523294409
 20
106.235490687512
 30
0.0
 11
-146.560523629189
 21
106.235490687512
 31
0.0
  0
LINE
  5
   270
  8
0
  6
CONTINUOUS
 62
     7
 10
-139.406100185089
 20
106.756435117463
 30
0.0
 11
-142.360523462296
 21
106.235490687512
 31
0.0
  0
LINE
  5
   271
  8
0
  6
CONTINUOUS
 62
     7
 10
-142.360523462296
 20
106.235490687512
 30
0.0
 11
-139.406100185089
 21
105.71454625756
 31
0.0
  0
LINE
  5
   272
  8
0
  6
CONTINUOUS
 62
     7
 10
-149.514946906396
 20
105.71454625756
 30
0.0
 11
-146.560523629189
 21
106.235490687512
 31
0.0
  0
LINE
  5
   273
  8
0
  6
CONTINUOUS
 62
     7
 10
-146.560523629189
 20
106.235490687512
 30
0.0
 11
-149.514946906396
 21
106.756435117463
 31
0.0
  0
ENDBLK
  5
   274
  8
0
  6
CONTINUOUS
 62
     7
  0
BLOCK
  5
   275
  8
0
  6
CONTINUOUS
 62
     7
  2
*UDIM1730
 70
    65
 10
0.0
 20
0.0
 30
0.0
  3
*UDIM1730
  0
TEXT
  5
   276
  8
0
  6
CONTINUOUS
 62
     7
 10
-161.685522556664
 20
107.235490689766
 30
0.0
 40
2.99999994039535
  1
22
 50
359.999999948034
 41
0.933333333333333
 72
     1
 11
-159.185522604982
 21
108.735490657709
 31
0.0
 73
     2
  0
LINE
  5
   277
  8
0
  6
CONTINUOUS
 62
     7
 10
-153.160523891449
 20
73.0752289661478
 30
0.0
 11
-153.160523891449
 21
108.235490687512
 31
0.0
  0
LINE
  5
   278
  8
0
  6
CONTINUOUS
 62
     7
 10
-146.560523629189
 20
106.235490687512
 30
0.0
 11
-161.685522555311
 21
106.235490687512
 31
0.0
  0
LINE
  5
   279
  8
0
  6
CONTINUOUS
 62
     7
 10
-149.514946906396
 20
105.71454625756
 30
0.0
 11
-146.560523629189
 21
106.235490687512
 31
0.0
  0
LINE
  5
   27A
  8
0
  6
CONTINUOUS
 62
     7
 10
-146.560523629189
 20
106.235490687512
 30
0.0
 11
-149.514946906396
 21
106.756435117463
 31
0.0
  0
LINE
  5
   27B
  8
0
  6
CONTINUOUS
 62
     7
 10
-150.206100614242
 20
106.756435117463
 30
0.0
 11
-153.160523891449
 21
106.235490687512
 31
0.0
  0
LINE
  5
   27C
  8
0
  6
CONTINUOUS
 62
     7
 10
-153.160523891449
 20
106.235490687512
 30
0.0
 11
-150.206100614242
 21
105.71454625756
 31
0.0
  0
ENDBLK
  5
   27D
  8
0
  6
CONTINUOUS
 62
     7
  0
BLOCK
  5
   27E
  8
0
  6
CONTINUOUS
 62
     7
  2
*UDIM1731
 70
    65
 10
0.0
 20
0.0
 30
0.0
  3
*UDIM1731
  0
TEXT
  5
   27F
  8
0
  6
CONTINUOUS
 62
     7
 10
-162.735524189832
 20
113.83862205693
 30
0.0
 40
2.99999994039535
  1
108
 50
359.999999948034
 41
0.933333333333333
 72
     1
 11
-158.835524265965
 21
115.33862202361
 31
0.0
 73
     2
  0
LINE
  5
   280
  8
0
  6
CONTINUOUS
 62
     7
 10
-142.360523462296
 20
81.5399284482
 30
0.0
 11
-142.360523462296
 21
114.838622053412
 31
0.0
  0
LINE
  5
   281
  8
0
  6
CONTINUOUS
 62
     7
 10
-174.760524749756
 20
59.4899321496487
 30
0.0
 11
-174.760524749756
 21
114.838622053412
 31
0.0
  0
LINE
  5
   282
  8
0
  6
CONTINUOUS
 62
     7
 10
-142.360523462296
 20
112.838622053412
 30
0.0
 11
-174.760524749756
 21
112.838622053412
 31
0.0
  0
LINE
  5
   283
  8
0
  6
CONTINUOUS
 62
     7
 10
-145.314946739502
 20
112.31767762346
 30
0.0
 11
-142.360523462296
 21
112.838622053412
 31
0.0
  0
LINE
  5
   284
  8
0
  6
CONTINUOUS
 62
     7
 10
-142.360523462296
 20
112.838622053412
 30
0.0
 11
-145.314946739502
 21
113.359566483364
 31
0.0
  0
LINE
  5
   285
  8
0
  6
CONTINUOUS
 62
     7
 10
-171.806101472549
 20
113.359566483364
 30
0.0
 11
-174.760524749756
 21
112.838622053412
 31
0.0
  0
LINE
  5
   286
  8
0
  6
CONTINUOUS
 62
     7
 10
-174.760524749756
 20
112.838622053412
 30
0.0
 11
-171.806101472549
 21
112.31767762346
 31
0.0
  0
ENDBLK
  5
   287
  8
0
  6
CONTINUOUS
 62
     7
  0
BLOCK
  5
   288
  8
0
  6
CONTINUOUS
 62
     7
  2
*UDIM1732
 70
    65
 10
0.0
 20
0.0
 30
0.0
  3
*UDIM1732
  0
TEXT
  5
   289
  8
0
  6
CONTINUOUS
 62
     7
 10
-166.229578950131
 20
101.219303926005
 30
0.0
 40
2.99999994039535
  1
3
 50
359.999999948034
 41
0.933333333333333
 72
     1
 11
-165.129578970633
 21
102.71930389521
 31
0.0
 73
     2
  0
TEXT
  5
   28A
  8
0
  6
CONTINUOUS
 62
     7
 10
-168.979578918342
 20
101.219303926005
 30
0.0
 40
2.99999994039535
  1
_
 50
359.999999948034
 41
0.933333333333333
 72
     1
 11
-167.879578938844
 21
102.71930389521
 31
0.0
 73
     2
  0
LINE
  5
   28B
  8
0
  6
CONTINUOUS
 62
     7
 10
-173.860524713993
 20
98.7333539758478
 30
0.0
 11
-173.860524713993
 21
102.219303925012
 31
0.0
  0
LINE
  5
   28C
  8
0
  6
CONTINUOUS
 62
     7
 10
-174.760524749756
 20
59.4899321496487
 30
0.0
 11
-174.760524749756
 21
102.219303925012
 31
0.0
  0
LINE
  5
   28D
  8
0
  6
CONTINUOUS
 62
     7
 10
-164.029578992488
 20
100.219303925012
 30
0.0
 11
-174.760524749756
 21
100.219303925012
 31
0.0
  0
LINE
  5
   28E
  8
0
  6
CONTINUOUS
 62
     7
 10
-170.906101436786
 20
100.740248354964
 30
0.0
 11
-173.860524713993
 21
100.219303925012
 31
0.0
  0
LINE
  5
   28F
  8
0
  6
CONTINUOUS
 62
     7
 10
-173.860524713993
 20
100.219303925012
 30
0.0
 11
-170.906101436786
 21
99.6983594950607
 31
0.0
  0
LINE
  5
   290
  8
0
  6
CONTINUOUS
 62
     7
 10
-177.714948026963
 20
99.6983594950607
 30
0.0
 11
-174.760524749756
 21
100.219303925012
 31
0.0
  0
LINE
  5
   291
  8
0
  6
CONTINUOUS
 62
     7
 10
-174.760524749756
 20
100.219303925012
 30
0.0
 11
-177.714948026963
 21
100.740248354964
 31
0.0
  0
ENDBLK
  5
   292
  8
0
  6
CONTINUOUS
 62
     7
  0
BLOCK
  5
   293
  8
0
  6
CONTINUOUS
 62
     7
  2
*UDIM1733
 70
    65
 10
0.0
 20
0.0
 30
0.0
  3
*UDIM1733
  0
TEXT
  5
   294
  8
0
  6
CONTINUOUS
 62
     7
 10
-138.231215634007
 20
-22.4896462804774
 30
0.0
 40
2.99999994039535
  1
11
 50
302.463920032049
 41
0.933333333333333
 72
     1
 11
-135.623700234502
 21
-23.7938177046334
 31
0.0
 73
     2
  0
TEXT
  5
   295
  8
0
  6
CONTINUOUS
 62
     7
 10
-139.922036087318
 20
-19.8318980147104
 30
0.0
 40
2.99999994039535
  1
Ø
 50
302.463920032049
 41
0.933333333333333
 72
     1
 11
-138.065996441641
 21
-19.9548479890421
 31
0.0
 73
     2
  0
LINE
  5
   296
  8
0
  6
CONTINUOUS
 62
     7
 10
-136.391103276714
 20
-27.2450627225131
 30
0.0
 11
-147.446191535961
 21
-9.86791211057249
 31
0.0
  0
LINE
  5
   297
  8
0
  6
CONTINUOUS
 62
     7
 10
-143.649478398612
 20
-14.8653279050136
 30
0.0
 11
-145.674855722416
 21
-12.6522199780883
 31
0.0
  0
LINE
  5
   298
  8
0
  6
CONTINUOUS
 62
     7
 10
-145.674855722416
 20
-12.6522199780883
 30
0.0
 11
-144.528550893894
 21
-15.4245809286336
 31
0.0
  0
LINE
  5
   299
  8
0
  6
CONTINUOUS
 62
     7
 10
-149.471568859766
 20
-7.6548041836472
 30
0.0
 11
-147.446191535961
 21
-9.86791211057249
 31
0.0
  0
LINE
  5
   29A
  8
0
  6
CONTINUOUS
 62
     7
 10
-147.446191535961
 20
-9.86791211057249
 30
0.0
 11
-148.592496364483
 21
-7.09555116002723
 31
0.0
  0
ENDBLK
  5
   29B
  8
0
  6
CONTINUOUS
 62
     7
  0
BLOCK
  5
   29C
  8
0
  6
CONTINUOUS
 62
     7
  2
*UDIM1734
 70
    65
 10
0.0
 20
0.0
 30
0.0
  3
*UDIM1734
  0
TEXT
  5
   29D
  8
0
  6
CONTINUOUS
 62
     7
 10
-134.985590270442
 20
-6.92315929123872
 30
0.0
 40
2.99999994039535
  1
50
 50
89.9999999480344
 41
0.933333333333333
 72
     1
 11
-136.485590238375
 21
-4.42315933955069
 31
0.0
 73
     2
  0
LINE
  5
   29E
  8
0
  6
CONTINUOUS
 62
     7
 10
-141.360523462296
 20
-15.4600662112234
 30
0.0
 11
-131.985590268177
 21
-15.4600662112234
 31
0.0
  0
LINE
  5
   29F
  8
0
  6
CONTINUOUS
 62
     7
 10
-141.360523462296
 20
-0.460065615176973
 30
0.0
 11
-131.985590268177
 21
-0.460065615176973
 31
0.0
  0
LINE
  5
   2A0
  8
0
  6
CONTINUOUS
 62
     7
 10
-133.985590268177
 20
-15.4600662112234
 30
0.0
 11
-133.985590268177
 21
-0.460065615176973
 31
0.0
  0
LINE
  5
   2A1
  8
0
  6
CONTINUOUS
 62
     7
 10
-134.506534698129
 20
-12.5056429340165
 30
0.0
 11
-133.985590268177
 21
-15.4600662112234
 31
0.0
  0
LINE
  5
   2A2
  8
0
  6
CONTINUOUS
 62
     7
 10
-133.985590268177
 20
-15.4600662112234
 30
0.0
 11
-133.464645838226
 21
-12.5056429340165
 31
0.0
  0
LINE
  5
   2A3
  8
0
  6
CONTINUOUS
 62
     7
 10
-133.464645838226
 20
-3.41448889238394
 30
0.0
 11
-133.985590268177
 21
-0.460065615176973
 31
0.0
  0
LINE
  5
   2A4
  8
0
  6
CONTINUOUS
 62
     7
 10
-133.985590268177
 20
-0.460065615176973
 30
0.0
 11
-134.506534698129
 21
-3.41448889238394
 31
0.0
  0
ENDBLK
  5
   2A5
  8
0
  6
CONTINUOUS
 62
     7
  0
BLOCK
  5
   2A6
  8
0
  6
CONTINUOUS
 62
     7
  2
*UDIM1735
 70
    65
 10
0.0
 20
0.0
 30
0.0
  3
*UDIM1735
  0
TEXT
  5
   2A7
  8
0
  6
CONTINUOUS
 62
     7
 10
-131.609674614023
 20
43.1774248441196
 30
0.0
 40
2.99999994039535
  1
143,25
 50
89.9999999480344
 41
0.933333333333333
 72
     1
 11
-133.109674576885
 21
51.2774246845456
 31
0.0
 73
     2
  0
LINE
  5
   2A8
  8
0
  6
CONTINUOUS
 62
     7
 10
-155.783993511207
 20
30.0649242210017
 30
0.0
 11
-128.609674606687
 21
30.0649242210017
 31
0.0
  0
LINE
  5
   2A9
  8
0
  6
CONTINUOUS
 62
     7
 10
-142.856214551558
 20
73.0399281501768
 30
0.0
 11
-128.609674606687
 21
73.0399281501768
 31
0.0
  0
LINE
  5
   2AA
  8
0
  6
CONTINUOUS
 62
     7
 10
-130.609674606687
 20
30.0649242210017
 30
0.0
 11
-130.609674606687
 21
73.0399281501768
 31
0.0
  0
LINE
  5
   2AB
  8
0
  6
CONTINUOUS
 62
     7
 10
-131.130619036639
 20
33.0193474982087
 30
0.0
 11
-130.609674606687
 21
30.0649242210017
 31
0.0
  0
LINE
  5
   2AC
  8
0
  6
CONTINUOUS
 62
     7
 10
-130.609674606687
 20
30.0649242210017
 30
0.0
 11
-130.088730176735
 21
33.0193474982087
 31
0.0
  0
LINE
  5
   2AD
  8
0
  6
CONTINUOUS
 62
     7
 10
-130.088730176735
 20
70.0855048729699
 30
0.0
 11
-130.609674606687
 21
73.0399281501768
 31
0.0
  0
LINE
  5
   2AE
  8
0
  6
CONTINUOUS
 62
     7
 10
-130.609674606687
 20
73.0399281501768
 30
0.0
 11
-131.130619036639
 21
70.0855048729699
 31
0.0
  0
ENDBLK
  5
   2AF
  8
0
  6
CONTINUOUS
 62
     7
  0
BLOCK
  5
   2B0
  8
0
  6
CONTINUOUS
 62
     7
  2
*UDIM1736
 70
    65
 10
0.0
 20
0.0
 30
0.0
  3
*UDIM1736
  0
TEXT
  5
   2B1
  8
0
  6
CONTINUOUS
 62
     7
 10
-123.621487647289
 20
28.3649310346767
 30
0.0
 40
2.99999994039535
  1
270
 50
89.9999999480344
 41
0.933333333333333
 72
     1
 11
-125.121487613955
 21
32.2649309585492
 31
0.0
 73
     2
  0
LINE
  5
   2B2
  8
0
  6
CONTINUOUS
 62
     7
 10
-159.366019398952
 20
-7.9600659132002
 30
0.0
 11
-120.621487643757
 21
-7.9600659132002
 31
0.0
  0
LINE
  5
   2B3
  8
0
  6
CONTINUOUS
 62
     7
 10
-142.856214551558
 20
73.0399281501768
 30
0.0
 11
-120.621487643757
 21
73.0399281501768
 31
0.0
  0
LINE
  5
   2B4
  8
0
  6
CONTINUOUS
 62
     7
 10
-122.621487643757
 20
-7.9600659132002
 30
0.0
 11
-122.621487643757
 21
73.0399281501768
 31
0.0
  0
LINE
  5
   2B5
  8
0
  6
CONTINUOUS
 62
     7
 10
-123.142432073709
 20
-5.00564263599323
 30
0.0
 11
-122.621487643757
 21
-7.9600659132002
 31
0.0
  0
LINE
  5
   2B6
  8
0
  6
CONTINUOUS
 62
     7
 10
-122.621487643757
 20
-7.9600659132002
 30
0.0
 11
-122.100543213805
 21
-5.00564263599323
 31
0.0
  0
LINE
  5
   2B7
  8
0
  6
CONTINUOUS
 62
     7
 10
-122.100543213805
 20
70.0855048729699
 30
0.0
 11
-122.621487643757
 21
73.0399281501768
 31
0.0
  0
LINE
  5
   2B8
  8
0
  6
CONTINUOUS
 62
     7
 10
-122.621487643757
 20
73.0399281501768
 30
0.0
 11
-123.142432073709
 21
70.0855048729699
 31
0.0
  0
ENDBLK
  5
   2B9
  8
0
  6
CONTINUOUS
 62
     7
  0
BLOCK
  5
   2BA
  8
0
  6
CONTINUOUS
 62
     7
  2
*UDIM1737
 70
    65
 10
0.0
 20
0.0
 30
0.0
  3
*UDIM1737
  0
TEXT
  5
   2BB
  8
0
  6
CONTINUOUS
 62
     7
 10
-152.601110686043
 20
21.6219377516833
 30
0.0
 40
2.99999994039535
  1
160
 50
89.9999999480344
 41
0.933333333333333
 72
     1
 11
-154.101110652709
 21
25.5219376755558
 31
0.0
 73
     2
  0
TEXT
  5
   2BC
  8
0
  6
CONTINUOUS
 62
     7
 10
-152.601110687311
 20
29.9719376086321
 30
0.0
 40
2.99999994039535
  1
 max
 50
89.9999999480344
 41
0.933333333333333
 72
     1
 11
-154.101110652709
 21
35.2719375046892
 31
0.0
 73
     2
  0
LINE
  5
   2BD
  8
0
  6
CONTINUOUS
 62
     7
 10
-167.760524511337
 20
8.539930164814
 30
0.0
 11
-149.601110682511
 21
8.539930164814
 31
0.0
  0
LINE
  5
   2BE
  8
0
  6
CONTINUOUS
 62
     7
 10
-167.760524511337
 20
56.5399320721626
 30
0.0
 11
-149.601110682511
 21
56.5399320721626
 31
0.0
  0
LINE
  5
   2BF
  8
0
  6
CONTINUOUS
 62
     7
 10
-151.601110682511
 20
8.539930164814
 30
0.0
 11
-151.601110682511
 21
56.5399320721626
 31
0.0
  0
LINE
  5
   2C0
  8
0
  6
CONTINUOUS
 62
     7
 10
-152.122055112462
 20
11.494353442021
 30
0.0
 11
-151.601110682511
 21
8.539930164814
 31
0.0
  0
LINE
  5
   2C1
  8
0
  6
CONTINUOUS
 62
     7
 10
-151.601110682511
 20
8.539930164814
 30
0.0
 11
-151.080166252559
 21
11.494353442021
 31
0.0
  0
LINE
  5
   2C2
  8
0
  6
CONTINUOUS
 62
     7
 10
-151.080166252559
 20
53.5855087949557
 30
0.0
 11
-151.601110682511
 21
56.5399320721626
 31
0.0
  0
LINE
  5
   2C3
  8
0
  6
CONTINUOUS
 62
     7
 10
-151.601110682511
 20
56.5399320721626
 30
0.0
 11
-152.122055112462
 21
53.5855087949557
 31
0.0
  0
ENDBLK
  5
   2C4
  8
0
  6
CONTINUOUS
 62
     7
  0
BLOCK
  5
   2C5
  8
0
  6
CONTINUOUS
 62
     7
  2
*UDIM1738
 70
    65
 10
0.0
 20
0.0
 30
0.0
  3
*UDIM1738
  0
TEXT
  5
   2C6
  8
0
  6
CONTINUOUS
 62
     7
 10
-215.985526305797
 20
-50.0285566957776
 30
0.0
 40
2.99999994039535
  1
247
 50
359.999999948034
 41
0.933333333333333
 72
     1
 11
-212.08552638193
 21
-48.5285567290976
 31
0.0
 73
     2
  0
LINE
  5
   2C7
  8
0
  6
CONTINUOUS
 62
     7
 10
-174.760524749756
 20
5.58993008732796
 30
0.0
 11
-174.760524749756
 21
-53.0285566992952
 31
0.0
  0
LINE
  5
   2C8
  8
0
  6
CONTINUOUS
 62
     7
 10
-248.860527694225
 20
-0.335076947249329
 30
0.0
 11
-248.860527694225
 21
-53.0285566992952
 31
0.0
  0
LINE
  5
   2C9
  8
0
  6
CONTINUOUS
 62
     7
 10
-174.760524749756
 20
-51.0285566992952
 30
0.0
 11
-248.860527694225
 21
-51.0285566992952
 31
0.0
  0
LINE
  5
   2CA
  8
0
  6
CONTINUOUS
 62
     7
 10
-177.714948026963
 20
-51.5495011292469
 30
0.0
 11
-174.760524749756
 21
-51.0285566992952
 31
0.0
  0
LINE
  5
   2CB
  8
0
  6
CONTINUOUS
 62
     7
 10
-174.760524749756
 20
-51.0285566992952
 30
0.0
 11
-177.714948026963
 21
-50.5076122693436
 31
0.0
  0
LINE
  5
   2CC
  8
0
  6
CONTINUOUS
 62
     7
 10
-245.906104417018
 20
-50.5076122693436
 30
0.0
 11
-248.860527694225
 21
-51.0285566992952
 31
0.0
  0
LINE
  5
   2CD
  8
0
  6
CONTINUOUS
 62
     7
 10
-248.860527694225
 20
-51.0285566992952
 30
0.0
 11
-245.906104417018
 21
-51.5495011292469
 31
0.0
  0
ENDBLK
  5
   2CE
  8
0
  6
CONTINUOUS
 62
     7
  0
BLOCK
  5
   2CF
  8
0
  6
CONTINUOUS
 62
     7
  2
*UDIM1739
 70
    65
 10
0.0
 20
0.0
 30
0.0
  3
*UDIM1739
  0
TEXT
  5
   2D0
  8
0
  6
CONTINUOUS
 62
     7
 10
-217.960527862471
 20
-43.5070537485641
 30
0.0
 40
2.99999994039535
  1
241,5
 50
359.999999948034
 41
0.933333333333333
 72
     1
 11
-211.260527994235
 21
-42.0070537844094
 31
0.0
 73
     2
  0
LINE
  5
   2D1
  8
0
  6
CONTINUOUS
 62
     7
 10
-174.760524749756
 20
5.58993008732796
 30
0.0
 11
-174.760524749756
 21
-46.5070537546071
 31
0.0
  0
LINE
  5
   2D2
  8
0
  6
CONTINUOUS
 62
     7
 10
-247.210528773069
 20
-15.3958432229393
 30
0.0
 11
-247.210528773069
 21
-46.5070537546071
 31
0.0
  0
LINE
  5
   2D3
  8
0
  6
CONTINUOUS
 62
     7
 10
-174.760524749756
 20
-44.5070537546071
 30
0.0
 11
-247.210528773069
 21
-44.5070537546071
 31
0.0
  0
LINE
  5
   2D4
  8
0
  6
CONTINUOUS
 62
     7
 10
-177.714948026963
 20
-45.0279981845588
 30
0.0
 11
-174.760524749756
 21
-44.5070537546071
 31
0.0
  0
LINE
  5
   2D5
  8
0
  6
CONTINUOUS
 62
     7
 10
-174.760524749756
 20
-44.5070537546071
 30
0.0
 11
-177.714948026963
 21
-43.9861093246555
 31
0.0
  0
LINE
  5
   2D6
  8
0
  6
CONTINUOUS
 62
     7
 10
-244.256105495863
 20
-43.9861093246555
 30
0.0
 11
-247.210528773069
 21
-44.5070537546071
 31
0.0
  0
LINE
  5
   2D7
  8
0
  6
CONTINUOUS
 62
     7
 10
-247.210528773069
 20
-44.5070537546071
 30
0.0
 11
-244.256105495863
 21
-45.0279981845588
 31
0.0
  0
ENDBLK
  5
   2D8
  8
0
  6
CONTINUOUS
 62
     7
  0
BLOCK
  5
   2D9
  8
0
  6
CONTINUOUS
 62
     7
  2
*UDIM1740
 70
    65
 10
0.0
 20
0.0
 30
0.0
  3
*UDIM1740
  0
TEXT
  5
   2DA
  8
0
  6
CONTINUOUS
 62
     7
 10
-253.560524955751
 20
-43.507053753615
 30
0.0
 40
2.99999994039535
  1
2
 50
359.999999948034
 41
0.933333333333333
 72
     1
 11
-252.460524976253
 21
-42.0070537844094
 31
0.0
 73
     2
  0
LINE
  5
   2DB
  8
0
  6
CONTINUOUS
 62
     7
 10
-247.810528796911
 20
-15.5208159650917
 30
0.0
 11
-247.810528796911
 21
-46.5070537546071
 31
0.0
  0
LINE
  5
   2DC
  8
0
  6
CONTINUOUS
 62
     7
 10
-247.210528773069
 20
-44.5070537546071
 30
0.0
 11
-253.560524954398
 21
-44.5070537546071
 31
0.0
  0
LINE
  5
   2DD
  8
0
  6
CONTINUOUS
 62
     7
 10
-244.256105495863
 20
-43.9861093246555
 30
0.0
 11
-247.210528773069
 21
-44.5070537546071
 31
0.0
  0
LINE
  5
   2DE
  8
0
  6
CONTINUOUS
 62
     7
 10
-247.210528773069
 20
-44.5070537546071
 30
0.0
 11
-244.256105495863
 21
-45.0279981845588
 31
0.0
  0
LINE
  5
   2DF
  8
0
  6
CONTINUOUS
 62
     7
 10
-250.764952074118
 20
-45.0279981845588
 30
0.0
 11
-247.810528796911
 21
-44.5070537546071
 31
0.0
  0
LINE
  5
   2E0
  8
0
  6
CONTINUOUS
 62
     7
 10
-247.810528796911
 20
-44.5070537546071
 30
0.0
 11
-250.764952074118
 21
-43.9861093246555
 31
0.0
  0
ENDBLK
  5
   2E1
  8
0
  6
CONTINUOUS
 62
     7
  0
BLOCK
  5
   2E2
  8
0
  6
CONTINUOUS
 62
     7
  2
*UDIM1741
 70
    65
 10
0.0
 20
0.0
 30
0.0
  3
*UDIM1741
  0
TEXT
  5
   2E3
  8
0
  6
CONTINUOUS
 62
     7
 10
-214.510527720147
 20
-37.1273202186891
 30
0.0
 40
2.99999994039535
  1
218,5
 50
359.999999948034
 41
0.933333333333333
 72
     1
 11
-207.810527851911
 21
-35.6273202545344
 31
0.0
 73
     2
  0
LINE
  5
   2E4
  8
0
  6
CONTINUOUS
 62
     7
 10
-174.760524749756
 20
5.58993008732796
 30
0.0
 11
-174.760524749756
 21
-40.1273202247321
 31
0.0
  0
LINE
  5
   2E5
  8
0
  6
CONTINUOUS
 62
     7
 10
-240.310529811643
 20
28.2399207686051
 30
0.0
 11
-240.310529811643
 21
-40.1273202247321
 31
0.0
  0
LINE
  5
   2E6
  8
0
  6
CONTINUOUS
 62
     7
 10
-174.760524749756
 20
-38.1273202247321
 30
0.0
 11
-240.310529811643
 21
-38.1273202247321
 31
0.0
  0
LINE
  5
   2E7
  8
0
  6
CONTINUOUS
 62
     7
 10
-177.714948026963
 20
-38.6482646546838
 30
0.0
 11
-174.760524749756
 21
-38.1273202247321
 31
0.0
  0
LINE
  5
   2E8
  8
0
  6
CONTINUOUS
 62
     7
 10
-174.760524749756
 20
-38.1273202247321
 30
0.0
 11
-177.714948026963
 21
-37.6063757947804
 31
0.0
  0
LINE
  5
   2E9
  8
0
  6
CONTINUOUS
 62
     7
 10
-237.356106534436
 20
-37.6063757947804
 30
0.0
 11
-240.310529811643
 21
-38.1273202247321
 31
0.0
  0
LINE
  5
   2EA
  8
0
  6
CONTINUOUS
 62
     7
 10
-240.310529811643
 20
-38.1273202247321
 30
0.0
 11
-237.356106534436
 21
-38.6482646546838
 31
0.0
  0
ENDBLK
  5
   2EB
  8
0
  6
CONTINUOUS
 62
     7
  0
BLOCK
  5
   2EC
  8
0
  6
CONTINUOUS
 62
     7
  2
*UDIM1742
 70
    65
 10
0.0
 20
0.0
 30
0.0
  3
*UDIM1742
  0
TEXT
  5
   2ED
  8
0
  6
CONTINUOUS
 62
     7
 10
-269.261266995332
 20
15.9899240084173
 30
0.0
 40
2.99999994039535
  1
8,25
 50
89.9999999480344
 41
0.933333333333333
 72
     1
 11
-270.76126696073
 21
21.2899239044743
 31
0.0
 73
     2
  0
LINE
  5
   2EE
  8
0
  6
CONTINUOUS
 62
     7
 10
-264.212397926939
 20
30.0649242210017
 30
0.0
 11
-270.261266990532
 21
30.0649242210017
 31
0.0
  0
LINE
  5
   2EF
  8
0
  6
CONTINUOUS
 62
     7
 10
-244.61052884907
 20
32.539919806032
 30
0.0
 11
-270.261266990532
 21
32.539919806032
 31
0.0
  0
LINE
  5
   2F0
  8
0
  6
CONTINUOUS
 62
     7
 10
-268.261266990532
 20
15.9899240097759
 30
0.0
 11
-268.261266990532
 21
32.539919806032
 31
0.0
  0
LINE
  5
   2F1
  8
0
  6
CONTINUOUS
 62
     7
 10
-267.74032256058
 20
27.1105009437947
 30
0.0
 11
-268.261266990532
 21
30.0649242210017
 31
0.0
  0
LINE
  5
   2F2
  8
0
  6
CONTINUOUS
 62
     7
 10
-268.261266990532
 20
30.0649242210017
 30
0.0
 11
-268.782211420484
 21
27.1105009437947
 31
0.0
  0
LINE
  5
   2F3
  8
0
  6
CONTINUOUS
 62
     7
 10
-268.782211420484
 20
35.494343083239
 30
0.0
 11
-268.261266990532
 21
32.539919806032
 31
0.0
  0
LINE
  5
   2F4
  8
0
  6
CONTINUOUS
 62
     7
 10
-268.261266990532
 20
32.539919806032
 30
0.0
 11
-267.74032256058
 21
35.494343083239
 31
0.0
  0
ENDBLK
  5
   2F5
  8
0
  6
CONTINUOUS
 62
     7
  0
BLOCK
  5
   2F6
  8
0
  6
CONTINUOUS
 62
     7
  2
*UDIM1743
 70
    65
 10
0.0
 20
0.0
 30
0.0
  3
*UDIM1743
  0
TEXT
  5
   2F7
  8
0
  6
CONTINUOUS
 62
     7
 10
-279.506979681466
 20
25.8899252058661
 30
0.0
 40
2.99999994039535
  1
140
 50
89.9999999480344
 41
0.933333333333333
 72
     1
 11
-281.006979648131
 21
29.7899251297387
 31
0.0
 73
     2
  0
LINE
  5
   2F8
  8
0
  6
CONTINUOUS
 62
     7
 10
-246.860527575016
 20
9.06492359270042
 30
0.0
 11
-280.506979677934
 21
9.06492359270042
 31
0.0
  0
LINE
  5
   2F9
  8
0
  6
CONTINUOUS
 62
     7
 10
-248.21052762866
 20
51.0649264891511
 30
0.0
 11
-280.506979677934
 21
51.0649249608208
 31
0.0
  0
LINE
  5
   2FA
  8
0
  6
CONTINUOUS
 62
     7
 10
-278.506979677934
 20
9.06492359270042
 30
0.0
 11
-278.506979677934
 21
51.0649250554646
 31
0.0
  0
LINE
  5
   2FB
  8
0
  6
CONTINUOUS
 62
     7
 10
-279.027924107885
 20
12.0193468699074
 30
0.0
 11
-278.506979677934
 21
9.06492359270042
 31
0.0
  0
LINE
  5
   2FC
  8
0
  6
CONTINUOUS
 62
     7
 10
-278.506979677934
 20
9.06492359270042
 30
0.0
 11
-277.986035247982
 21
12.0193468699074
 31
0.0
  0
LINE
  5
   2FD
  8
0
  6
CONTINUOUS
 62
     7
 10
-277.986035247982
 20
48.1105017782577
 30
0.0
 11
-278.506979677934
 21
51.0649250554646
 31
0.0
  0
LINE
  5
   2FE
  8
0
  6
CONTINUOUS
 62
     7
 10
-278.506979677934
 20
51.0649250554646
 30
0.0
 11
-279.027924107885
 21
48.1105017782577
 31
0.0
  0
ENDBLK
  5
   2FF
  8
0
  6
CONTINUOUS
 62
     7
  0
BLOCK
  5
   300
  8
0
  6
CONTINUOUS
 62
     7
  2
*UDIM1744
 70
    65
 10
0.0
 20
0.0
 30
0.0
  3
*UDIM1744
  0
TEXT
  5
   301
  8
0
  6
CONTINUOUS
 62
     7
 10
-276.00185480488
 20
-81.7224944408829
 30
0.0
 40
3.00000009059906
  1
120,5
 50
449.999999896069
 41
0.933333333333333
 72
     1
 11
-277.501854838068
 21
-75.0224942358335
 31
0.0
 73
     2
  0
LINE
  5
   302
  8
0
  6
CONTINUOUS
 62
     7
 10
-248.073486983776
 20
-63.9024938344955
 30
0.0
 11
-277.001854792768
 21
-63.9024938344955
 31
0.0
  0
LINE
  5
   303
  8
0
  6
CONTINUOUS
 62
     7
 10
-248.073486983776
 20
-85.5924946963787
 30
0.0
 11
-277.001854792768
 21
-85.5924946963787
 31
0.0
  0
LINE
  5
   304
  8
0
  6
CONTINUOUS
 62
     7
 10
-275.001854792768
 20
-63.9024938344955
 30
0.0
 11
-275.001854792768
 21
-85.5924946963787
 31
0.0
  0
LINE
  5
   305
  8
0
  6
CONTINUOUS
 62
     7
 10
-274.480910362817
 20
-66.8569171117025
 30
0.0
 11
-275.001854792768
 21
-63.9024938344955
 31
0.0
  0
LINE
  5
   306
  8
0
  6
CONTINUOUS
 62
     7
 10
-275.001854792768
 20
-63.9024938344955
 30
0.0
 11
-275.52279922272
 21
-66.8569171117025
 31
0.0
  0
LINE
  5
   307
  8
0
  6
CONTINUOUS
 62
     7
 10
-275.52279922272
 20
-82.6380714191717
 30
0.0
 11
-275.001854792768
 21
-85.5924946963787
 31
0.0
  0
LINE
  5
   308
  8
0
  6
CONTINUOUS
 62
     7
 10
-275.001854792768
 20
-85.5924946963787
 30
0.0
 11
-274.480910362817
 21
-82.6380714191717
 31
0.0
  0
ENDBLK
  5
   309
  8
0
  6
CONTINUOUS
 62
     7
  0
BLOCK
  5
   30A
  8
0
  6
CONTINUOUS
 62
     7
  2
*UDIM1745
 70
    65
 10
0.0
 20
0.0
 30
0.0
  3
*UDIM1745
  0
TEXT
  5
   30B
  8
0
  6
CONTINUOUS
 62
     7
 10
-276.001854802349
 20
-99.1900187309091
 30
0.0
 40
3.00000009059906
  1
92,5
 50
449.999999896069
 41
0.933333333333333
 72
     1
 11
-277.501854838068
 21
-93.8900185681392
 31
0.0
 73
     2
  0
LINE
  5
   30C
  8
0
  6
CONTINUOUS
 62
     7
 10
-270.205196567227
 20
-102.287495359778
 30
0.0
 11
-277.001854792768
 21
-102.287495359778
 31
0.0
  0
LINE
  5
   30D
  8
0
  6
CONTINUOUS
 62
     7
 10
-275.001854792768
 20
-85.5924946963787
 30
0.0
 11
-275.001854792768
 21
-102.287495359778
 31
0.0
  0
LINE
  5
   30E
  8
0
  6
CONTINUOUS
 62
     7
 10
-274.480910362817
 20
-88.5469179735857
 30
0.0
 11
-275.001854792768
 21
-85.5924946963787
 31
0.0
  0
LINE
  5
   30F
  8
0
  6
CONTINUOUS
 62
     7
 10
-275.001854792768
 20
-85.5924946963787
 30
0.0
 11
-275.52279922272
 21
-88.5469179735857
 31
0.0
  0
LINE
  5
   310
  8
0
  6
CONTINUOUS
 62
     7
 10
-275.52279922272
 20
-99.3330720825715
 30
0.0
 11
-275.001854792768
 21
-102.287495359778
 31
0.0
  0
LINE
  5
   311
  8
0
  6
CONTINUOUS
 62
     7
 10
-275.001854792768
 20
-102.287495359778
 30
0.0
 11
-274.480910362817
 21
-99.3330720825715
 31
0.0
  0
ENDBLK
  5
   312
  8
0
  6
CONTINUOUS
 62
     7
  0
BLOCK
  5
   313
  8
0
  6
CONTINUOUS
 62
     7
  2
*UDIM1746
 70
    65
 10
0.0
 20
0.0
 30
0.0
  3
*UDIM1746
  0
TEXT
  5
   314
  8
0
  6
CONTINUOUS
 62
     7
 10
-276.001854797288
 20
-112.86063779141
 30
0.0
 40
3.00000009059906
  1
76
 50
449.999999896069
 41
0.933333333333333
 72
     1
 11
-277.501854838068
 21
-110.3606377132
 31
0.0
 73
     2
  0
LINE
  5
   315
  8
0
  6
CONTINUOUS
 62
     7
 10
-248.073486983776
 20
-116.012495905161
 30
0.0
 11
-277.001854792768
 21
-116.012495905161
 31
0.0
  0
LINE
  5
   316
  8
0
  6
CONTINUOUS
 62
     7
 10
-275.001854792768
 20
-102.287495359778
 30
0.0
 11
-275.001854792768
 21
-116.012495905161
 31
0.0
  0
LINE
  5
   317
  8
0
  6
CONTINUOUS
 62
     7
 10
-274.480910362817
 20
-105.241918636985
 30
0.0
 11
-275.001854792768
 21
-102.287495359778
 31
0.0
  0
LINE
  5
   318
  8
0
  6
CONTINUOUS
 62
     7
 10
-275.001854792768
 20
-102.287495359778
 30
0.0
 11
-275.52279922272
 21
-105.241918636985
 31
0.0
  0
LINE
  5
   319
  8
0
  6
CONTINUOUS
 62
     7
 10
-275.52279922272
 20
-113.058072627954
 30
0.0
 11
-275.001854792768
 21
-116.012495905161
 31
0.0
  0
LINE
  5
   31A
  8
0
  6
CONTINUOUS
 62
     7
 10
-275.001854792768
 20
-116.012495905161
 30
0.0
 11
-274.480910362817
 21
-113.058072627954
 31
0.0
  0
ENDBLK
  5
   31B
  8
0
  6
CONTINUOUS
 62
     7
  0
BLOCK
  5
   31C
  8
0
  6
CONTINUOUS
 62
     7
  2
*UDIM1747
 70
    65
 10
0.0
 20
0.0
 30
0.0
  3
*UDIM1747
  0
TEXT
  5
   31D
  8
0
  6
CONTINUOUS
 62
     7
 10
-276.00185480488
 20
-133.832493764966
 30
0.0
 40
3.00000009059906
  1
120,5
 50
449.999999896069
 41
0.933333333333333
 72
     1
 11
-277.501854838068
 21
-127.132493559917
 31
0.0
 73
     2
  0
LINE
  5
   31E
  8
0
  6
CONTINUOUS
 62
     7
 10
-248.073486983776
 20
-137.702496767044
 30
0.0
 11
-277.001854792768
 21
-137.702496767044
 31
0.0
  0
LINE
  5
   31F
  8
0
  6
CONTINUOUS
 62
     7
 10
-275.001854792768
 20
-116.012495905161
 30
0.0
 11
-275.001854792768
 21
-137.702496767044
 31
0.0
  0
LINE
  5
   320
  8
0
  6
CONTINUOUS
 62
     7
 10
-274.480910362817
 20
-118.966919182368
 30
0.0
 11
-275.001854792768
 21
-116.012495905161
 31
0.0
  0
LINE
  5
   321
  8
0
  6
CONTINUOUS
 62
     7
 10
-275.001854792768
 20
-116.012495905161
 30
0.0
 11
-275.52279922272
 21
-118.966919182368
 31
0.0
  0
LINE
  5
   322
  8
0
  6
CONTINUOUS
 62
     7
 10
-275.52279922272
 20
-134.748073489837
 30
0.0
 11
-275.001854792768
 21
-137.702496767044
 31
0.0
  0
LINE
  5
   323
  8
0
  6
CONTINUOUS
 62
     7
 10
-275.001854792768
 20
-137.702496767044
 30
0.0
 11
-274.480910362817
 21
-134.748073489837
 31
0.0
  0
ENDBLK
  5
   324
  8
0
  6
CONTINUOUS
 62
     7
  0
BLOCK
  5
   325
  8
0
  6
CONTINUOUS
 62
     7
  2
*UDIM1748
 70
    65
 10
0.0
 20
0.0
 30
0.0
  3
*UDIM1748
  0
TEXT
  5
   326
  8
0
  6
CONTINUOUS
 62
     7
 10
-225.6884871748
 20
-73.004131802086
 30
0.0
 40
3.00000009059906
  1
284
 50
359.999999896069
 41
0.933333333333333
 72
     1
 11
-221.788487054308
 21
-71.5041317638412
 31
0.0
 73
     2
  0
LINE
  5
   327
  8
0
  6
CONTINUOUS
 62
     7
 10
-195.95348495245
 20
-74.0041318091408
 30
0.0
 11
-247.073486983776
 21
-74.0041318091408
 31
0.0
  0
LINE
  5
   328
  8
0
  6
CONTINUOUS
 62
     7
 10
-198.907908229657
 20
-74.5250762390924
 30
0.0
 11
-195.95348495245
 21
-74.0041318091408
 31
0.0
  0
LINE
  5
   329
  8
0
  6
CONTINUOUS
 62
     7
 10
-195.95348495245
 20
-74.0041318091408
 30
0.0
 11
-198.907908229657
 21
-73.4831873791891
 31
0.0
  0
LINE
  5
   32A
  8
0
  6
CONTINUOUS
 62
     7
 10
-244.119063706569
 20
-73.4831873791891
 30
0.0
 11
-247.073486983776
 21
-74.0041318091408
 31
0.0
  0
LINE
  5
   32B
  8
0
  6
CONTINUOUS
 62
     7
 10
-247.073486983776
 20
-74.0041318091408
 30
0.0
 11
-244.119063706569
 21
-74.5250762390924
 31
0.0
  0
ENDBLK
  5
   32C
  8
0
  6
CONTINUOUS
 62
     7
  0
BLOCK
  5
   32D
  8
0
  6
CONTINUOUS
 62
     7
  2
*UDIM1749
 70
    65
 10
0.0
 20
0.0
 30
0.0
  3
*UDIM1749
  0
TEXT
  5
   32E
  8
0
  6
CONTINUOUS
 62
     7
 10
-209.758486541799
 20
-79.4632635284754
 30
0.0
 40
3.00000009059906
  1
107
 50
359.999999896069
 41
0.933333333333333
 72
     1
 11
-205.858486421307
 21
-77.9632634902306
 31
0.0
 73
     2
  0
LINE
  5
   32F
  8
0
  6
CONTINUOUS
 62
     7
 10
-195.95348495245
 20
-80.4632635355301
 30
0.0
 11
-215.213485717773
 21
-80.4632635355301
 31
0.0
  0
LINE
  5
   330
  8
0
  6
CONTINUOUS
 62
     7
 10
-198.907908229657
 20
-80.9842079654818
 30
0.0
 11
-195.95348495245
 21
-80.4632635355301
 31
0.0
  0
LINE
  5
   331
  8
0
  6
CONTINUOUS
 62
     7
 10
-195.95348495245
 20
-80.4632635355301
 30
0.0
 11
-198.907908229657
 21
-79.9423191055785
 31
0.0
  0
LINE
  5
   332
  8
0
  6
CONTINUOUS
 62
     7
 10
-212.259062440567
 20
-79.9423191055785
 30
0.0
 11
-215.213485717773
 21
-80.4632635355301
 31
0.0
  0
LINE
  5
   333
  8
0
  6
CONTINUOUS
 62
     7
 10
-215.213485717773
 20
-80.4632635355301
 30
0.0
 11
-212.259062440567
 21
-80.9842079654818
 31
0.0
  0
ENDBLK
  5
   334
  8
0
  6
CONTINUOUS
 62
     7
  0
BLOCK
  5
   335
  8
0
  6
CONTINUOUS
 62
     7
  2
*UDIM1750
 70
    65
 10
0.0
 20
0.0
 30
0.0
  3
*UDIM1750
  0
TEXT
  5
   336
  8
0
  6
CONTINUOUS
 62
     7
 10
-211.68848581645
 20
-96.9281606941167
 30
0.0
 40
3.00000009059906
  1
70
 50
359.999999896069
 41
0.933333333333333
 72
     1
 11
-209.188485738238
 21
-95.4281606533394
 31
0.0
 73
     2
  0
LINE
  5
   337
  8
0
  6
CONTINUOUS
 62
     7
 10
-202.613485217094
 20
-97.928160698639
 30
0.0
 11
-215.213485717773
 21
-97.928160698639
 31
0.0
  0
LINE
  5
   338
  8
0
  6
CONTINUOUS
 62
     7
 10
-205.567908494301
 20
-98.4491051285907
 30
0.0
 11
-202.613485217094
 21
-97.928160698639
 31
0.0
  0
LINE
  5
   339
  8
0
  6
CONTINUOUS
 62
     7
 10
-202.613485217094
 20
-97.928160698639
 30
0.0
 11
-205.567908494301
 21
-97.4072162686873
 31
0.0
  0
LINE
  5
   33A
  8
0
  6
CONTINUOUS
 62
     7
 10
-212.259062440567
 20
-97.4072162686873
 30
0.0
 11
-215.213485717773
 21
-97.928160698639
 31
0.0
  0
LINE
  5
   33B
  8
0
  6
CONTINUOUS
 62
     7
 10
-215.213485717773
 20
-97.928160698639
 30
0.0
 11
-212.259062440567
 21
-98.4491051285907
 31
0.0
  0
ENDBLK
  5
   33C
  8
0
  6
CONTINUOUS
 62
     7
  0
BLOCK
  5
   33D
  8
0
  6
CONTINUOUS
 62
     7
  2
*UDIM1751
 70
    65
 10
0.0
 20
0.0
 30
0.0
  3
*UDIM1751
  0
TEXT
  5
   33E
  8
0
  6
CONTINUOUS
 62
     7
 10
-191.510261896813
 20
-109.437971235969
 30
0.0
 40
3.00000009059906
  1
8,5
 50
365.959648461357
 41
0.933333333333333
 72
     1
 11
-187.787082294447
 21
-107.541148971472
 31
0.0
 73
     2
  0
TEXT
  5
   33F
  8
0
  6
CONTINUOUS
 62
     7
 10
-194.643237033703
 20
-109.765029541321
 30
0.0
 40
3.00000009059906
  1
Ø
 50
365.959648461357
 41
0.933333333333333
 72
     1
 11
-193.704924256578
 21
-108.158925764703
 31
0.0
 73
     2
  0
TEXT
  5
   340
  8
0
  6
CONTINUOUS
 62
     7
 10
-183.20539119258
 20
-108.571007154328
 30
0.0
 40
3.00000009059906
  1
 - M8
 50
365.959648461357
 41
0.933333333333333
 72
     1
 11
-176.697344764971
 21
-106.383466401951
 31
0.0
 73
     2
  0
LINE
  5
   341
  8
0
  6
CONTINUOUS
 62
     7
 10
-169.773986211716
 20
-108.174306785933
 30
0.0
 11
-203.374350624675
 21
-111.681924176067
 31
0.0
  0
LINE
  5
   342
  8
0
  6
CONTINUOUS
 62
     7
 10
-198.968253042587
 20
-110.698186471876
 30
0.0
 11
-201.852619809514
 21
-111.52306728378
 31
0.0
  0
LINE
  5
   343
  8
0
  6
CONTINUOUS
 62
     7
 10
-201.852619809514
 20
-111.52306728378
 30
0.0
 11
-198.860075774733
 21
-111.734444198077
 31
0.0
  0
LINE
  5
   344
  8
0
  6
CONTINUOUS
 62
     7
 10
-206.258717391602
 20
-112.50680498797
 30
0.0
 11
-203.374350624675
 21
-111.681924176067
 31
0.0
  0
LINE
  5
   345
  8
0
  6
CONTINUOUS
 62
     7
 10
-203.374350624675
 20
-111.681924176067
 30
0.0
 11
-206.366894659456
 21
-111.47054726177
 31
0.0
  0
ENDBLK
  5
   346
  8
0
  6
CONTINUOUS
 62
     7
  0
BLOCK
  5
   347
  8
0
  6
CONTINUOUS
 62
     7
  2
*UDIM1752
 70
    65
 10
0.0
 20
0.0
 30
0.0
  3
*UDIM1752
  0
TEXT
  5
   348
  8
0
  6
CONTINUOUS
 62
     7
 10
-263.377585499347
 20
-104.977497966577
 30
0.0
 40
3.00000009059906
  1
120
 50
449.999999896069
 41
0.933333333333333
 72
     1
 11
-264.877585537596
 21
-101.077497846087
 31
0.0
 73
     2
  0
LINE
  5
   349
  8
0
  6
CONTINUOUS
 62
     7
 10
-243.978486821055
 20
-90.0024948716164
 30
0.0
 11
-264.377585492297
 21
-90.0024948716164
 31
0.0
  0
LINE
  5
   34A
  8
0
  6
CONTINUOUS
 62
     7
 10
-243.978486821055
 20
-111.602495729923
 30
0.0
 11
-264.377585492297
 21
-111.602495729923
 31
0.0
  0
LINE
  5
   34B
  8
0
  6
CONTINUOUS
 62
     7
 10
-262.377585492297
 20
-90.0024948716164
 30
0.0
 11
-262.377585492297
 21
-111.602495729923
 31
0.0
  0
LINE
  5
   34C
  8
0
  6
CONTINUOUS
 62
     7
 10
-261.856641062345
 20
-92.9569181488233
 30
0.0
 11
-262.377585492297
 21
-90.0024948716164
 31
0.0
  0
LINE
  5
   34D
  8
0
  6
CONTINUOUS
 62
     7
 10
-262.377585492297
 20
-90.0024948716164
 30
0.0
 11
-262.898529922249
 21
-92.9569181488233
 31
0.0
  0
LINE
  5
   34E
  8
0
  6
CONTINUOUS
 62
     7
 10
-262.898529922249
 20
-108.648072452716
 30
0.0
 11
-262.377585492297
 21
-111.602495729923
 31
0.0
  0
LINE
  5
   34F
  8
0
  6
CONTINUOUS
 62
     7
 10
-262.377585492297
 20
-111.602495729923
 30
0.0
 11
-261.856641062345
 21
-108.648072452716
 31
0.0
  0
ENDBLK
  5
   350
  8
0
  6
CONTINUOUS
 62
     7
  0
BLOCK
  5
   351
  8
0
  6
CONTINUOUS
 62
     7
  2
*UDIM1753
 70
    65
 10
0.0
 20
0.0
 30
0.0
  3
*UDIM1753
  0
TEXT
  5
   352
  8
0
  6
CONTINUOUS
 62
     7
 10
-257.461826602345
 20
-87.1024956107234
 30
0.0
 40
3.00000009059906
  1
68,25
 50
449.999999896069
 41
0.933333333333333
 72
     1
 11
-258.961826635533
 21
-80.402495405674
 31
0.0
 73
     2
  0
LINE
  5
   353
  8
0
  6
CONTINUOUS
 62
     7
 10
-206.178485319018
 20
-90.0024948716164
 30
0.0
 11
-258.461826590234
 21
-90.0024948716164
 31
0.0
  0
LINE
  5
   354
  8
0
  6
CONTINUOUS
 62
     7
 10
-256.461826590234
 20
-73.7024952033361
 30
0.0
 11
-256.461826590234
 21
-102.287495359778
 31
0.0
  0
LINE
  5
   355
  8
0
  6
CONTINUOUS
 62
     7
 10
-255.940882160282
 20
-92.9569181488233
 30
0.0
 11
-256.461826590234
 21
-90.0024948716164
 31
0.0
  0
LINE
  5
   356
  8
0
  6
CONTINUOUS
 62
     7
 10
-256.461826590234
 20
-90.0024948716164
 30
0.0
 11
-256.982771020185
 21
-92.9569181488233
 31
0.0
  0
LINE
  5
   357
  8
0
  6
CONTINUOUS
 62
     7
 10
-256.982771020185
 20
-99.3330720825715
 30
0.0
 11
-256.461826590234
 21
-102.287495359778
 31
0.0
  0
LINE
  5
   358
  8
0
  6
CONTINUOUS
 62
     7
 10
-256.461826590234
 20
-102.287495359778
 30
0.0
 11
-255.940882160282
 21
-99.3330720825715
 31
0.0
  0
ENDBLK
  5
   359
  8
0
  6
CONTINUOUS
 62
     7
  0
BLOCK
  5
   35A
  8
0
  6
CONTINUOUS
 62
     7
  2
*UDIM1754
 70
    65
 10
0.0
 20
0.0
 30
0.0
  3
*UDIM1754
  0
TEXT
  5
   35B
  8
0
  6
CONTINUOUS
 62
     7
 10
-225.6884871748
 20
-127.915455395199
 30
0.0
 40
3.00000009059906
  1
210
 50
359.999999896069
 41
0.933333333333333
 72
     1
 11
-221.788487054308
 21
-126.415455356954
 31
0.0
 73
     2
  0
LINE
  5
   35C
  8
0
  6
CONTINUOUS
 62
     7
 10
-202.613485217094
 20
-113.706627115753
 30
0.0
 11
-202.613485217094
 21
-130.915455402253
 31
0.0
  0
LINE
  5
   35D
  8
0
  6
CONTINUOUS
 62
     7
 10
-240.413486719132
 20
-97.662495136261
 30
0.0
 11
-240.413486719132
 21
-130.915455402253
 31
0.0
  0
LINE
  5
   35E
  8
0
  6
CONTINUOUS
 62
     7
 10
-202.613485217094
 20
-128.915455402253
 30
0.0
 11
-240.413486719132
 21
-128.915455402253
 31
0.0
  0
LINE
  5
   35F
  8
0
  6
CONTINUOUS
 62
     7
 10
-205.567908494301
 20
-129.436399832205
 30
0.0
 11
-202.613485217094
 21
-128.915455402253
 31
0.0
  0
LINE
  5
   360
  8
0
  6
CONTINUOUS
 62
     7
 10
-202.613485217094
 20
-128.915455402253
 30
0.0
 11
-205.567908494301
 21
-128.394510972302
 31
0.0
  0
LINE
  5
   361
  8
0
  6
CONTINUOUS
 62
     7
 10
-237.459063441925
 20
-128.394510972302
 30
0.0
 11
-240.413486719132
 21
-128.915455402253
 31
0.0
  0
LINE
  5
   362
  8
0
  6
CONTINUOUS
 62
     7
 10
-240.413486719132
 20
-128.915455402253
 30
0.0
 11
-237.459063441925
 21
-129.436399832205
 31
0.0
  0
ENDBLK
  5
   363
  8
0
  6
CONTINUOUS
 62
     7
  0
ENDSEC
  0
SECTION
  2
ENTITIES
  0
LINE
  5
   364
  8
0
  6
CONTINUOUS
 62
     7
 10
-16.6675204157827
 20
-91.8629660308361
 30
0.0
 11
-100.667523753643
 21
-91.8629660308361
 31
0.0
  0
LINE
  5
   365
  8
0
  6
CONTINUOUS
 62
     7
 10
-100.667523753643
 20
-91.8629660308361
 30
0.0
 11
-100.667523753643
 21
-98.8056564685061
 31
0.0
  0
LINE
  5
   366
  8
0
  6
CONTINUOUS
 62
     7
 10
-16.6675204157827
 20
-91.8629660308361
 30
0.0
 11
-16.6675204157827
 21
-98.8056564685061
 31
0.0
  0
LINE
  5
   367
  8
0
  6
CONTINUOUS
 62
     7
 10
-81.4675229907034
 20
-86.7629658281803
 30
0.0
 11
-81.4675229907034
 21
-91.8629660308361
 31
0.0
  0
LINE
  5
   368
  8
0
  6
CONTINUOUS
 62
     7
 10
-98.8675236821173
 20
-86.7629658281803
 30
0.0
 11
-98.8675236821173
 21
-91.8629660308361
 31
0.0
  0
LINE
  5
   369
  8
0
  6
CONTINUOUS
 62
     7
 10
-81.4675229907034
 20
-86.7629658281803
 30
0.0
 11
-98.8675236821173
 21
-86.7629658281803
 31
0.0
  0
LINE
  5
   36A
  8
0
  6
CONTINUOUS
 62
     7
 10
-39.4675213217733
 20
-86.7629658281803
 30
0.0
 11
-39.4675213217733
 21
-91.8629660308361
 31
0.0
  0
LINE
  5
   36B
  8
0
  6
CONTINUOUS
 62
     7
 10
-56.8675220131872
 20
-86.7629658281803
 30
0.0
 11
-56.8675220131872
 21
-91.8629660308361
 31
0.0
  0
LINE
  5
   36C
  8
0
  6
CONTINUOUS
 62
     7
 10
-39.4675213217733
 20
-86.7629658281803
 30
0.0
 11
-56.8675220131872
 21
-86.7629658281803
 31
0.0
  0
LINE
  5
   36D
  8
0
  6
CONTINUOUS
 62
     7
 10
-18.4675204873083
 20
-86.7629658281803
 30
0.0
 11
-18.4675204873083
 21
-91.8629660308361
 31
0.0
  0
LINE
  5
   36E
  8
0
  6
CONTINUOUS
 62
     7
 10
-35.8675211787222
 20
-86.7629658281803
 30
0.0
 11
-35.8675211787222
 21
-91.8629660308361
 31
0.0
  0
LINE
  5
   36F
  8
0
  6
CONTINUOUS
 62
     7
 10
-18.4675204873083
 20
-86.7629658281803
 30
0.0
 11
-35.8675211787222
 21
-86.7629658281803
 31
0.0
  0
LINE
  5
   370
  8
0
  6
CONTINUOUS
 62
     7
 10
-17.417525023222
 20
-91.8629660308361
 30
0.0
 11
-17.417525023222
 21
-98.8056564685061
 31
0.0
  0
LINE
  5
   371
  8
0
  6
CONTINUOUS
 62
     7
 10
-99.9175191462036
 20
-91.8629660308361
 30
0.0
 11
-99.9175191462036
 21
-98.8056564685061
 31
0.0
  0
LINE
  5
   372
  8
0
  6
CONTINUOUS
 62
   132
 10
-45.7675215721129
 20
-62.6129648685455
 30
0.0
 11
-50.5675217628477
 21
-62.6129648685455
 31
0.0
  0
LINE
  5
   373
  8
0
  6
DOT
 62
     7
 10
-55.6675219655035
 20
-62.6129648685454
 30
0.0
 11
-55.6675236821174
 21
-86.7629658281802
 31
0.0
  0
LINE
  5
   374
  8
0
  6
DOT
 62
     7
 10
-40.667521369457
 20
-62.6129648685453
 30
0.0
 11
-40.6675230860709
 21
-86.7629681169985
 31
0.0
  0
LINE
  5
   375
  8
0
  6
CONTINUOUS
 62
   253
 10
-7.51752425054209
 20
-96.2129662036896
 30
0.0
 11
-7.51752447660677
 21
-98.8056564685061
 31
0.0
  0
LINE
  5
   376
  8
0
  6
CONTINUOUS
 62
   253
 10
-7.21752461791039
 20
-146.462972778082
 30
0.0
 11
-7.51752462983131
 21
-146.462972778082
 31
0.0
  0
LINE
  5
   377
  8
0
  6
CONTINUOUS
 62
     7
 10
-5.46727416526156
 20
-98.8056564685061
 30
0.0
 11
-111.645724864735
 21
-98.8056564685061
 31
0.0
  0
LINE
  5
   378
  8
0
  6
CONTINUOUS
 62
     7
 10
-7.51752425054209
 20
-96.2129662036896
 30
0.0
 11
-16.6675204157827
 21
-96.2129662036896
 31
0.0
  0
LINE
  5
   379
  8
0
  6
DASHDOT
 62
     7
 10
-48.1675216674803
 20
-53.3213626750863
 30
0.0
 11
-48.1675216674803
 21
-62.6129648685457
 31
0.0
  0
LINE
  5
   37A
  8
0
  6
CONTINUOUS
 62
     7
 10
-50.5675217628477
 20
-62.6129648685455
 30
0.0
 11
-50.5675217628477
 21
-86.7629658281803
 31
0.0
  0
LINE
  5
   37B
  8
0
  6
CONTINUOUS
 62
     7
 10
-45.7675215721129
 20
-62.6129648685455
 30
0.0
 11
-45.7675215721129
 21
-86.7629658281803
 31
0.0
  0
LINE
  5
   37C
  8
0
  6
DOT
 62
     7
 10
-40.6675213694545
 20
-62.6129648685457
 30
0.0
 11
-45.7675215721103
 21
-62.6129648685457
 31
0.0
  0
LINE
  5
   37D
  8
0
  6
DOT
 62
     7
 10
-50.5675217628491
 20
-62.6129648685456
 30
0.0
 11
-55.6675219655049
 21
-62.6129648685456
 31
0.0
  0
LINE
  5
   37E
  8
0
  6
CONTINUOUS
 62
     7
 10
-48.1675216674803
 20
-62.6129648685457
 30
0.0
 11
-48.1675216674803
 21
-86.7629658281803
 31
0.0
  0
LINE
  5
   37F
  8
0
  6
DASHDOT
 62
     7
 10
-48.1675216674803
 20
-86.7629658281803
 30
0.0
 11
-48.1675216674803
 21
-103.207746260045
 31
0.0
  0
LINE
  5
   380
  8
0
  6
DASHDOT
 62
     7
 10
-40.6675213694545
 20
-66.8129650354387
 30
0.0
 11
-55.2108667943717
 21
-66.8129650354387
 31
0.0
  0
LINE
  5
   381
  8
0
  6
DASHDOT
 62
     7
 10
-40.6675213694545
 20
-73.4129652976991
 30
0.0
 11
-54.9907624022075
 21
-73.4129652976991
 31
0.0
  0
LINE
  5
   382
  8
0
  6
DOT
 62
     7
 10
-97.6675273022296
 20
-62.6129648685454
 30
0.0
 11
-97.6675273022296
 21
-86.7629658281802
 31
0.0
  0
LINE
  5
   383
  8
0
  6
DOT
 62
     7
 10
-92.5675234317792
 20
-62.6129648685456
 30
0.0
 11
-97.6675236344349
 21
-62.6129648685456
 31
0.0
  0
LINE
  5
   384
  8
0
  6
DOT
 62
     7
 10
-82.6675230383845
 20
-62.6129648685457
 30
0.0
 11
-87.7675232410403
 21
-62.6129648685457
 31
0.0
  0
LINE
  5
   385
  8
0
  6
DOT
 62
     7
 10
-82.6675267061829
 20
-62.6129648685453
 30
0.0
 11
-82.6675267061829
 21
-86.7629681169985
 31
0.0
  0
LINE
  5
   386
  8
0
  6
CONTINUOUS
 62
     7
 10
-87.7675232410429
 20
-62.6129648685455
 30
0.0
 11
-92.5675234317778
 21
-62.6129648685455
 31
0.0
  0
LINE
  5
   387
  8
0
  6
CONTINUOUS
 62
     7
 10
-92.5675234317778
 20
-62.6129648685455
 30
0.0
 11
-92.5675234317778
 21
-86.7629658281803
 31
0.0
  0
LINE
  5
   388
  8
0
  6
CONTINUOUS
 62
     7
 10
-90.1675233364104
 20
-62.6129648685457
 30
0.0
 11
-90.1675233364104
 21
-86.7629658281803
 31
0.0
  0
LINE
  5
   389
  8
0
  6
CONTINUOUS
 62
     7
 10
-87.7675232410429
 20
-62.6129648685455
 30
0.0
 11
-87.7675232410429
 21
-86.7629658281803
 31
0.0
  0
LINE
  5
   38A
  8
0
  6
DASHDOT
 62
     7
 10
-82.6675230383845
 20
-66.8129650354387
 30
0.0
 11
-97.2108684633018
 21
-66.8129650354387
 31
0.0
  0
LINE
  5
   38B
  8
0
  6
DASHDOT
 62
     7
 10
-82.6675230383845
 20
-73.4129652976991
 30
0.0
 11
-96.9907640711376
 21
-73.4129652976991
 31
0.0
  0
LINE
  5
   38C
  8
0
  6
DASHDOT
 62
     7
 10
-90.1675233364104
 20
-60.0672853958609
 30
0.0
 11
-90.1675233364104
 21
-104.01000152925
 31
0.0
  0
LINE
  5
   38D
  8
0
  6
DASHDOT
 62
     7
 10
-69.1675225019453
 20
-86.7629658281803
 30
0.0
 11
-69.1675225019453
 21
-103.207746260045
 31
0.0
  0
LINE
  5
   38E
  8
0
  6
DOT
 62
     7
 10
-29.5675209283853
 20
-62.6129648685457
 30
0.0
 11
-34.6675211310411
 21
-62.6129648685457
 31
0.0
  0
LINE
  5
   38F
  8
0
  6
CONTINUOUS
 62
     7
 10
-29.5675209283827
 20
-62.6129648685455
 30
0.0
 11
-29.5675209283827
 21
-86.7629658281803
 31
0.0
  0
LINE
  5
   390
  8
0
  6
CONTINUOUS
 62
     7
 10
-27.1675208330153
 20
-62.6129648685457
 30
0.0
 11
-27.1675208330153
 21
-86.7629658281803
 31
0.0
  0
LINE
  5
   391
  8
0
  6
CONTINUOUS
 62
     7
 10
-24.7675207376478
 20
-62.6129648685455
 30
0.0
 11
-24.7675207376478
 21
-86.7629658281803
 31
0.0
  0
LINE
  5
   392
  8
0
  6
DOT
 62
     7
 10
-19.6675205349907
 20
-62.6129648685456
 30
0.0
 11
-24.7675207376464
 21
-62.6129648685456
 31
0.0
  0
LINE
  5
   393
  8
0
  6
DOT
 62
     7
 10
-19.667516867196
 20
-62.6129648685454
 30
0.0
 11
-19.667516867196
 21
-86.7629658281802
 31
0.0
  0
LINE
  5
   394
  8
0
  6
DASHDOT
 62
     7
 10
-20.1241757061238
 20
-66.8129650354387
 30
0.0
 11
-34.6675211310411
 21
-66.8129650354387
 31
0.0
  0
LINE
  5
   395
  8
0
  6
DASHDOT
 62
     7
 10
-20.344280098288
 20
-73.4129652976991
 30
0.0
 11
-34.6675211310411
 21
-73.4129652976991
 31
0.0
  0
LINE
  5
   396
  8
0
  6
CONTINUOUS
 62
     7
 10
-24.7675207376478
 20
-62.6129648685455
 30
0.0
 11
-29.5675209283827
 21
-62.6129648685455
 31
0.0
  0
LINE
  5
   397
  8
0
  6
DASHDOT
 62
     7
 10
-27.1675208330153
 20
-60.0672853958609
 30
0.0
 11
-27.1675208330153
 21
-62.6129648685457
 31
0.0
  0
LINE
  5
   398
  8
0
  6
DOT
 62
     7
 10
-34.6675174632427
 20
-62.6129648685453
 30
0.0
 11
-34.6675174632427
 21
-86.7629681169985
 31
0.0
  0
LINE
  5
   399
  8
0
  6
DASHDOT
 62
     7
 10
-27.1675208330153
 20
-86.7629658281803
 30
0.0
 11
-27.1675208330153
 21
-103.207746260045
 31
0.0
  0
LINE
  5
   39A
  8
0
  6
CONTINUOUS
 62
     7
 10
-105.917530457066
 20
-96.2129662036896
 30
0.0
 11
-105.917530457066
 21
-98.8056564685061
 31
0.0
  0
LINE
  5
   39B
  8
0
  6
CONTINUOUS
 62
     7
 10
-99.9175191462036
 20
-96.2129662036896
 30
0.0
 11
-105.917530457066
 21
-96.2129662036896
 31
0.0
  0
LINE
  5
   39C
  8
0
  6
DOT
 62
     7
 10
-76.6675264677646
 20
-62.6129648685454
 30
0.0
 11
-76.6675264677646
 21
-86.7629658281802
 31
0.0
  0
LINE
  5
   39D
  8
0
  6
DOT
 62
     7
 10
-71.5675225973141
 20
-62.6129648685456
 30
0.0
 11
-76.6675227999699
 21
-62.6129648685456
 31
0.0
  0
LINE
  5
   39E
  8
0
  6
CONTINUOUS
 62
     7
 10
-66.7675224065779
 20
-62.6129648685455
 30
0.0
 11
-71.5675225973127
 21
-62.6129648685455
 31
0.0
  0
LINE
  5
   39F
  8
0
  6
DOT
 62
     7
 10
-61.6675222039195
 20
-62.6129648685457
 30
0.0
 11
-66.7675224065753
 21
-62.6129648685457
 31
0.0
  0
LINE
  5
   3A0
  8
0
  6
DOT
 62
     7
 10
-61.6675258717178
 20
-62.6129648685453
 30
0.0
 11
-61.6675258717178
 21
-86.7629681169985
 31
0.0
  0
LINE
  5
   3A1
  8
0
  6
DASHDOT
 62
     7
 10
-61.6675222039195
 20
-66.8129650354387
 30
0.0
 11
-76.2108676288368
 21
-66.8129650354387
 31
0.0
  0
LINE
  5
   3A2
  8
0
  6
DASHDOT
 62
     7
 10
-61.6675222039195
 20
-73.4129652976991
 30
0.0
 11
-75.9907632366725
 21
-73.4129652976991
 31
0.0
  0
LINE
  5
   3A3
  8
0
  6
CONTINUOUS
 62
     7
 10
-60.4675221562384
 20
-86.7629658281803
 30
0.0
 11
-77.8675228476523
 21
-86.7629658281803
 31
0.0
  0
LINE
  5
   3A4
  8
0
  6
CONTINUOUS
 62
     7
 10
-77.8675228476523
 20
-86.7629658281803
 30
0.0
 11
-77.8675228476523
 21
-91.8629660308361
 31
0.0
  0
LINE
  5
   3A5
  8
0
  6
CONTINUOUS
 62
     7
 10
-60.4675221562384
 20
-86.7629658281803
 30
0.0
 11
-60.4675221562384
 21
-91.8629660308361
 31
0.0
  0
LINE
  5
   3A6
  8
0
  6
CONTINUOUS
 62
     7
 10
-69.1675225019453
 20
-62.6129648685457
 30
0.0
 11
-69.1675225019453
 21
-86.7629658281803
 31
0.0
  0
LINE
  5
   3A7
  8
0
  6
CONTINUOUS
 62
     7
 10
-66.7675224065779
 20
-62.6129648685455
 30
0.0
 11
-66.7675224065779
 21
-86.7629658281803
 31
0.0
  0
LINE
  5
   3A8
  8
0
  6
CONTINUOUS
 62
     7
 10
-71.5675225973127
 20
-62.6129648685455
 30
0.0
 11
-71.5675225973127
 21
-86.7629658281803
 31
0.0
  0
INSERT
  5
   3A9
  8
0
  6
CONTINUOUS
 62
     7
  2
*UDIM1692
 10
0.0
 20
0.0
 30
0.0
  0
INSERT
  5
   3AA
  8
0
  6
CONTINUOUS
 62
     7
  2
*UDIM1693
 10
0.0
 20
0.0
 30
0.0
  0
INSERT
  5
   3AB
  8
0
  6
CONTINUOUS
 62
     7
  2
*UDIM1694
 10
0.0
 20
0.0
 30
0.0
  0
INSERT
  5
   3AC
  8
0
  6
CONTINUOUS
 62
     7
  2
*UDIM1695
 10
0.0
 20
0.0
 30
0.0
  0
LINE
  5
   3AD
  8
0
  6
DASHDOT
 62
     7
 10
-48.1675224304199
 20
-34.8969738769801
 30
0.0
 11
-48.1675224304199
 21
100.332014691846
 31
0.0
  0
LINE
  5
   3AE
  8
0
  6
CONTINUOUS
 62
     1
 10
-30.4675217270851
 20
26.9149221211669
 30
0.0
 11
-30.4675217270851
 21
33.2149223715064
 31
0.0
  0
LINE
  5
   3AF
  8
0
  6
CONTINUOUS
 62
     1
 10
-28.3675216436386
 20
26.9149221211669
 30
0.0
 11
-28.3675216436386
 21
33.2149223715064
 31
0.0
  0
LINE
  5
   3B0
  8
0
  6
CONTINUOUS
 62
     1
 10
-30.4675217270851
 20
33.2149223715064
 30
0.0
 11
-30.4675217270851
 21
33.5149223834273
 31
0.0
  0
LINE
  5
   3B1
  8
0
  6
CONTINUOUS
 62
     1
 10
-28.3675216413336
 20
33.2149223773213
 30
0.0
 11
-28.3675262189705
 21
33.5149223892423
 31
0.0
  0
LINE
  5
   3B2
  8
0
  6
CONTINUOUS
 62
     1
 10
-28.3675262044782
 20
33.514922433234
 30
0.0
 11
-28.4479117975397
 21
33.8149224428725
 31
0.0
  0
LINE
  5
   3B3
  8
0
  6
CONTINUOUS
 62
     1
 10
-28.4479121014508
 20
33.8149219075456
 30
0.0
 11
-28.6675265129379
 21
34.0345363190327
 31
0.0
  0
LINE
  5
   3B4
  8
0
  6
CONTINUOUS
 62
     1
 10
-28.6675250947718
 20
34.0345376396494
 30
0.0
 11
-28.9675205247416
 21
34.1149232326842
 31
0.0
  0
LINE
  5
   3B5
  8
0
  6
CONTINUOUS
 62
     1
 10
-28.9675216674805
 20
34.1149224072692
 30
0.0
 11
-29.8675239920617
 21
34.1149224072692
 31
0.0
  0
LINE
  5
   3B6
  8
0
  6
CONTINUOUS
 62
     1
 10
-30.1675269823957
 20
34.0345362828358
 30
0.0
 11
-29.8675246829195
 21
34.1149218758983
 31
0.0
  0
LINE
  5
   3B7
  8
0
  6
CONTINUOUS
 62
     1
 10
-30.3871425424694
 20
33.8149215791904
 30
0.0
 11
-30.1675269754788
 21
34.0345359984271
 31
0.0
  0
LINE
  5
   3B8
  8
0
  6
CONTINUOUS
 62
     1
 10
-30.4675221358392
 20
33.5149215193102
 30
0.0
 11
-30.3871422630239
 21
33.8149215380698
 31
0.0
  0
LINE
  5
   3B9
  8
0
  6
CONTINUOUS
 62
     1
 10
-30.4675217270851
 20
26.614922109246
 30
0.0
 11
-30.4675217270851
 21
26.9149221211669
 31
0.0
  0
LINE
  5
   3BA
  8
0
  6
CONTINUOUS
 62
     1
 10
-28.3675262189705
 20
26.6149221135243
 30
0.0
 11
-28.3675216413336
 21
26.9149221254452
 31
0.0
  0
LINE
  5
   3BB
  8
0
  6
CONTINUOUS
 62
     1
 10
-28.4479117850755
 20
26.3149221425514
 30
0.0
 11
-28.367526192014
 21
26.61492215219
 31
0.0
  0
LINE
  5
   3BC
  8
0
  6
CONTINUOUS
 62
     1
 10
-28.6675268864484
 20
26.0953059086759
 30
0.0
 11
-28.4479124672118
 21
26.3149214756665
 31
0.0
  0
LINE
  5
   3BD
  8
0
  6
CONTINUOUS
 62
     1
 10
-28.9675201271299
 20
26.0149218125339
 30
0.0
 11
-28.6675246971601
 21
26.0953074055686
 31
0.0
  0
LINE
  5
   3BE
  8
0
  6
CONTINUOUS
 62
     1
 10
-28.9675216674805
 20
26.0149209409949
 30
0.0
 11
-29.8675239920617
 21
26.0149209409949
 31
0.0
  0
LINE
  5
   3BF
  8
0
  6
CONTINUOUS
 62
     1
 10
-29.8675235389807
 20
26.014921151796
 30
0.0
 11
-30.1675258371252
 21
26.0953078926234
 31
0.0
  0
LINE
  5
   3C0
  8
0
  6
CONTINUOUS
 62
     1
 10
-30.1675266020345
 20
26.0953073739152
 30
0.0
 11
-30.3871421690251
 21
26.3149217931518
 31
0.0
  0
LINE
  5
   3C1
  8
0
  6
CONTINUOUS
 62
     1
 10
-30.3871420907307
 20
26.3149216027702
 30
0.0
 11
-30.467521963546
 21
26.6149216215298
 31
0.0
  0
LINE
  5
   3C2
  8
0
  6
CONTINUOUS
 62
     3
 10
-27.1675215959549
 20
51.0649253696201
 30
0.0
 11
-69.167523264885
 21
51.0649253696201
 31
0.0
  0
LINE
  5
   3C3
  8
0
  6
CONTINUOUS
 62
     3
 10
-27.1675215959549
 20
9.06492176949952
 30
0.0
 11
-69.167523264885
 21
9.06492176949952
 31
0.0
  0
LINE
  5
   3C4
  8
0
  6
CONTINUOUS
 62
     1
 10
-27.842521622777
 20
47.464925226569
 30
0.0
 11
-68.4925232380629
 21
47.464925226569
 31
0.0
  0
LINE
  5
   3C5
  8
0
  6
CONTINUOUS
 62
     1
 10
-27.842521622777
 20
50.4649253457783
 30
0.0
 11
-68.4925232380629
 21
50.4649253457783
 31
0.0
  0
LINE
  5
   3C6
  8
0
  6
CONTINUOUS
 62
     3
 10
-69.167523264885
 20
9.06492176949952
 30
0.0
 11
-69.167523264885
 21
47.4649278730153
 31
0.0
  0
LINE
  5
   3C7
  8
0
  6
CONTINUOUS
 62
     3
 10
-69.167523264885
 20
50.4649253457783
 30
0.0
 11
-69.167523264885
 21
51.0649253696201
 31
0.0
  0
LINE
  5
   3C8
  8
0
  6
CONTINUOUS
 62
     3
 10
-27.1675215959549
 20
50.4649253457783
 30
0.0
 11
-27.1675215959549
 21
51.0649253696201
 31
0.0
  0
LINE
  5
   3C9
  8
0
  6
CONTINUOUS
 62
     3
 10
-27.1675215959549
 20
9.06492370069009
 30
0.0
 11
-27.1675215959549
 21
47.464925226569
 31
0.0
  0
LINE
  5
   3CA
  8
0
  6
CONTINUOUS
 62
     3
 10
-37.8175265967848
 20
46.5649229019878
 30
0.0
 11
-68.1175255119802
 21
46.5649229019878
 31
0.0
  0
LINE
  5
   3CB
  8
0
  6
CONTINUOUS
 62
     3
 10
-37.8175265967848
 20
10.1149213105437
 30
0.0
 11
-68.1175255119802
 21
10.1149213105437
 31
0.0
  0
LINE
  5
   3CC
  8
0
  6
CONTINUOUS
 62
     3
 10
-68.1175255119802
 20
10.1149213105437
 30
0.0
 11
-68.1175255119802
 21
46.5649227589366
 31
0.0
  0
LINE
  5
   3CD
  8
0
  6
CONTINUOUS
 62
     3
 10
-37.8175265967848
 20
10.1149213105437
 30
0.0
 11
-37.8175265967848
 21
46.5649227589366
 31
0.0
  0
LINE
  5
   3CE
  8
0
  6
CONTINUOUS
 62
     1
 10
-27.842521622777
 20
47.464925226569
 30
0.0
 11
-27.842521622777
 21
50.4649253457783
 31
0.0
  0
LINE
  5
   3CF
  8
0
  6
CONTINUOUS
 62
     3
 10
-27.1675215959549
 20
47.464925226569
 30
0.0
 11
-27.1675215959549
 21
50.4649253457783
 31
0.0
  0
LINE
  5
   3D0
  8
0
  6
CONTINUOUS
 62
     1
 10
-68.4925232380629
 20
47.464925226569
 30
0.0
 11
-68.4925232380629
 21
50.4649253457783
 31
0.0
  0
LINE
  5
   3D1
  8
0
  6
CONTINUOUS
 62
     3
 10
-69.167523264885
 20
47.464925226569
 30
0.0
 11
-69.167523264885
 21
50.4649253457783
 31
0.0
  0
LINE
  5
   3D2
  8
0
  6
CONTINUOUS
 62
     1
 10
-28.8175308167938
 20
18.8899630010142
 30
0.0
 11
-28.8796539271725
 21
18.8899630010142
 31
0.0
  0
LINE
  5
   3D3
  8
0
  6
CONTINUOUS
 62
     1
 10
-29.9553894435512
 20
15.5899622976793
 30
0.0
 11
-30.0175297200683
 21
15.5899622976793
 31
0.0
  0
LINE
  5
   3D4
  8
0
  6
CONTINUOUS
 62
     1
 10
-28.367023864621
 20
10.5499213294511
 30
0.0
 11
-28.2625232804436
 21
10.9399212583847
 31
0.0
  0
LINE
  5
   3D5
  8
0
  6
CONTINUOUS
 62
     1
 10
-28.6525212575971
 20
10.2644218490744
 30
0.0
 11
-28.3670232094856
 21
10.5499216299206
 31
0.0
  0
LINE
  5
   3D6
  8
0
  6
CONTINUOUS
 62
     1
 10
-29.0425195834541
 20
10.1599222945857
 30
0.0
 11
-28.6525186434111
 21
10.2644224539079
 31
0.0
  0
LINE
  5
   3D7
  8
0
  6
CONTINUOUS
 62
     1
 10
-29.0425194988073
 20
10.1599217505121
 30
0.0
 11
-29.4325192957823
 21
10.2644218996532
 31
0.0
  0
LINE
  5
   3D8
  8
0
  6
CONTINUOUS
 62
     1
 10
-29.4325219206925
 20
10.2644221763229
 30
0.0
 11
-29.7180222619265
 21
10.5499219399763
 31
0.0
  0
LINE
  5
   3D9
  8
0
  6
CONTINUOUS
 62
     1
 10
-29.7180215145351
 20
10.549921840584
 30
0.0
 11
-29.8225209565113
 21
10.9399217714755
 31
0.0
  0
LINE
  5
   3DA
  8
0
  6
CONTINUOUS
 62
     1
 10
-29.8225214053808
 20
10.939921694183
 30
0.0
 11
-29.7180219624793
 21
11.3299217632514
 31
0.0
  0
LINE
  5
   3DB
  8
0
  6
CONTINUOUS
 62
     1
 10
-29.7180223081335
 20
11.3299216094133
 30
0.0
 11
-29.4325219668995
 21
11.6154213730668
 31
0.0
  0
LINE
  5
   3DC
  8
0
  6
CONTINUOUS
 62
     1
 10
-29.4325225373582
 20
11.6154213770173
 30
0.0
 11
-29.0425227434922
 21
11.7199216770325
 31
0.0
  0
LINE
  5
   3DD
  8
0
  6
CONTINUOUS
 62
     1
 10
-28.6525198348595
 20
11.6154215887049
 30
0.0
 11
-29.0425207613149
 21
11.7199218896456
 31
0.0
  0
LINE
  5
   3DE
  8
0
  6
CONTINUOUS
 62
     1
 10
-28.367023162951
 20
11.3299219352841
 30
0.0
 11
-28.6525212110624
 21
11.6154217161302
 31
0.0
  0
LINE
  5
   3DF
  8
0
  6
CONTINUOUS
 62
     1
 10
-28.2625211678327
 20
10.939921783456
 30
0.0
 11
-28.3670217557126
 21
11.3299218641538
 31
0.0
  0
LINE
  5
   3E0
  8
0
  6
CONTINUOUS
 62
     1
 10
-27.8125233603188
 20
10.9399220506447
 30
0.0
 11
-27.9773114139566
 21
11.5549221353083
 31
0.0
  0
LINE
  5
   3E1
  8
0
  6
CONTINUOUS
 62
     1
 10
-27.977309424683
 20
11.5549220120072
 30
0.0
 11
-28.4275200011265
 21
12.0051331576997
 31
0.0
  0
LINE
  5
   3E2
  8
0
  6
CONTINUOUS
 62
     1
 10
-28.4275199714742
 20
12.0051332829103
 30
0.0
 11
-29.0425209163372
 21
12.1699219187556
 31
0.0
  0
LINE
  5
   3E3
  8
0
  6
CONTINUOUS
 62
     1
 10
-29.6575228551243
 20
12.0051329643156
 30
0.0
 11
-29.0425230604374
 21
12.1699216071035
 31
0.0
  0
LINE
  5
   3E4
  8
0
  6
CONTINUOUS
 62
     1
 10
-30.1077349376192
 20
11.5549212730622
 30
0.0
 11
-29.6575232229617
 21
12.0051324184699
 31
0.0
  0
LINE
  5
   3E5
  8
0
  6
CONTINUOUS
 62
     1
 10
-30.2725224649432
 20
10.9399214685543
 30
0.0
 11
-30.1077344113054
 21
11.5549215532179
 31
0.0
  0
LINE
  5
   3E6
  8
0
  6
CONTINUOUS
 62
     1
 10
-30.10773434086
 20
10.324922006423
 30
0.0
 11
-30.2725223944978
 21
10.9399220910867
 31
0.0
  0
LINE
  5
   3E7
  8
0
  6
CONTINUOUS
 62
     1
 10
-29.6575207914455
 20
9.87471050219605
 30
0.0
 11
-30.1077325187293
 21
10.3249218120299
 31
0.0
  0
LINE
  5
   3E8
  8
0
  6
CONTINUOUS
 62
     1
 10
-29.042521034744
 20
9.70992183946352
 30
0.0
 11
-29.657520829431
 21
9.87471061507628
 31
0.0
  0
LINE
  5
   3E9
  8
0
  6
CONTINUOUS
 62
     1
 10
-29.042523537942
 20
9.70992158052212
 30
0.0
 11
-28.4275225998907
 21
9.87471034872971
 31
0.0
  0
LINE
  5
   3EA
  8
0
  6
CONTINUOUS
 62
     1
 10
-28.42751996881
 20
9.87471098094888
 30
0.0
 11
-27.977309367114
 21
10.3249223036938
 31
0.0
  0
LINE
  5
   3EB
  8
0
  6
CONTINUOUS
 62
     1
 10
-27.977311484402
 20
10.3249214243327
 30
0.0
 11
-27.8125234307642
 21
10.9399215089963
 31
0.0
  0
LINE
  5
   3EC
  8
0
  6
CONTINUOUS
 62
     1
 10
-30.9775302734729
 20
14.6357413655848
 30
0.0
 11
-31.3372009376385
 21
15.0643438011621
 31
0.0
  0
LINE
  5
   3ED
  8
0
  6
CONTINUOUS
 62
     1
 10
-31.3372017682201
 20
15.0643437244208
 30
0.0
 11
-31.7915070552678
 21
15.3909461054858
 31
0.0
  0
LINE
  5
   3EE
  8
0
  6
CONTINUOUS
 62
     1
 10
-31.7915079970257
 20
15.3909460166438
 30
0.0
 11
-32.3123537960178
 21
15.5953523808847
 31
0.0
  0
LINE
  5
   3EF
  8
0
  6
CONTINUOUS
 62
     1
 10
-32.312354378913
 20
15.5953521957155
 30
0.0
 11
-32.8675324620544
 21
15.6649219756269
 31
0.0
  0
LINE
  5
   3F0
  8
0
  6
CONTINUOUS
 62
     1
 10
-33.4227105894539
 20
15.5953520057212
 30
0.0
 11
-32.8675325063125
 21
15.6649217856326
 31
0.0
  0
LINE
  5
   3F1
  8
0
  6
CONTINUOUS
 62
     1
 10
-33.9435558578628
 20
15.3909456610697
 30
0.0
 11
-33.4227100588707
 21
15.5953520253106
 31
0.0
  0
LINE
  5
   3F2
  8
0
  6
CONTINUOUS
 62
     1
 10
-34.397860154114
 20
15.0643437301197
 30
0.0
 11
-33.9435548670662
 21
15.3909461111847
 31
0.0
  0
LINE
  5
   3F3
  8
0
  6
CONTINUOUS
 62
     1
 10
-34.757529927086
 20
14.6357419770473
 30
0.0
 11
-34.3978592629204
 21
15.0643444126246
 31
0.0
  0
LINE
  5
   3F4
  8
0
  6
CONTINUOUS
 62
     1
 10
-34.7575308239464
 20
12.1941024444172
 30
0.0
 11
-34.7575308239464
 21
14.6357412972376
 31
0.0
  0
LINE
  5
   3F5
  8
0
  6
CONTINUOUS
 62
     1
 10
-34.397859971968
 20
11.7655002908325
 30
0.0
 11
-34.7575306315995
 21
12.1941024286403
 31
0.0
  0
LINE
  5
   3F6
  8
0
  6
CONTINUOUS
 62
     1
 10
-33.9435553037555
 20
11.438897687936
 30
0.0
 11
-34.3978606025923
 21
11.7655003401281
 31
0.0
  0
LINE
  5
   3F7
  8
0
  6
CONTINUOUS
 62
     1
 10
-33.4227099429237
 20
11.2344913298938
 30
0.0
 11
-33.9435557419158
 21
11.4388976941347
 31
0.0
  0
LINE
  5
   3F8
  8
0
  6
CONTINUOUS
 62
     1
 10
-32.8675325317015
 20
11.164921725347
 30
0.0
 11
-33.4227106127076
 21
11.2344912215056
 31
0.0
  0
LINE
  5
   3F9
  8
0
  6
CONTINUOUS
 62
     1
 10
-32.8675326154709
 20
11.1649215215504
 30
0.0
 11
-32.3123545344647
 21
11.234491017709
 31
0.0
  0
LINE
  5
   3FA
  8
0
  6
CONTINUOUS
 62
     1
 10
-32.3123539119648
 20
11.2344909743198
 30
0.0
 11
-31.7915081129727
 21
11.4388973385607
 31
0.0
  0
LINE
  5
   3FB
  8
0
  6
CONTINUOUS
 62
     1
 10
-31.7915076445504
 20
11.4388974111939
 30
0.0
 11
-31.3372023457136
 21
11.765500063386
 31
0.0
  0
LINE
  5
   3FC
  8
0
  6
CONTINUOUS
 62
     1
 10
-31.337201498793
 20
11.7655004597149
 30
0.0
 11
-30.9775308391616
 21
12.1941025975227
 31
0.0
  0
LINE
  5
   3FD
  8
0
  6
CONTINUOUS
 62
     1
 10
-30.9775311315063
 20
12.1941024444172
 30
0.0
 11
-30.9775311315063
 21
14.6357412972376
 31
0.0
  0
LINE
  5
   3FE
  8
0
  6
CONTINUOUS
 62
     1
 10
-28.8175306164026
 20
18.8899631413568
 30
0.0
 11
-28.8614644866333
 21
18.9960292771819
 31
0.0
  0
LINE
  5
   3FF
  8
0
  6
CONTINUOUS
 62
     1
 10
-28.861464338985
 20
18.9960291967212
 30
0.0
 11
-28.9675304748101
 21
19.0399630669519
 31
0.0
  0
LINE
  5
   400
  8
0
  6
CONTINUOUS
 62
     1
 10
-28.9675308227543
 20
19.0399630069746
 30
0.0
 11
-29.1175216734409
 21
19.0399630069746
 31
0.0
  0
LINE
  5
   401
  8
0
  6
CONTINUOUS
 62
     1
 10
-29.7175216972828
 20
19.0399630069746
 30
0.0
 11
-29.8675308585171
 21
19.0399630069746
 31
0.0
  0
LINE
  5
   402
  8
0
  6
CONTINUOUS
 62
     1
 10
-29.9735965837496
 20
18.9960293418493
 30
0.0
 11
-29.8675304479245
 21
19.03996321208
 31
0.0
  0
LINE
  5
   403
  8
0
  6
CONTINUOUS
 62
     1
 10
-30.0175305971206
 20
18.8899632856057
 30
0.0
 11
-29.9735967268899
 21
18.9960294214307
 31
0.0
  0
LINE
  5
   404
  8
0
  6
CONTINUOUS
 62
     1
 10
-30.0175308644775
 20
18.1399629712118
 30
0.0
 11
-30.0175308644775
 21
18.8899630010142
 31
0.0
  0
LINE
  5
   405
  8
0
  6
CONTINUOUS
 62
     1
 10
-30.0175308644775
 20
17.5399623751654
 30
0.0
 11
-30.0175308644775
 21
18.1399629712118
 31
0.0
  0
LINE
  5
   406
  8
0
  6
CONTINUOUS
 62
     1
 10
-30.0175308644775
 20
16.9399623513235
 30
0.0
 11
-30.0175308644775
 21
17.5399623751654
 31
0.0
  0
LINE
  5
   407
  8
0
  6
CONTINUOUS
 62
     1
 10
-30.0175308644775
 20
16.3399623274817
 30
0.0
 11
-30.0175308644775
 21
16.9399623513235
 31
0.0
  0
LINE
  5
   408
  8
0
  6
CONTINUOUS
 62
     1
 10
-30.0175308644775
 20
15.5899622976793
 30
0.0
 11
-30.0175308644775
 21
16.3399623274817
 31
0.0
  0
LINE
  5
   409
  8
0
  6
CONTINUOUS
 62
     1
 10
-29.9735967952504
 20
15.4838962379736
 30
0.0
 11
-30.0175306654811
 21
15.5899623737987
 31
0.0
  0
LINE
  5
   40A
  8
0
  6
CONTINUOUS
 62
     1
 10
-29.8675305171643
 20
15.4399623111335
 30
0.0
 11
-29.9735966529894
 21
15.4838961813642
 31
0.0
  0
LINE
  5
   40B
  8
0
  6
CONTINUOUS
 62
     1
 10
-28.9675308227543
 20
15.4399622917189
 30
0.0
 11
-29.1175216734409
 21
15.4399622917189
 31
0.0
  0
LINE
  5
   40C
  8
0
  6
CONTINUOUS
 62
     1
 10
-29.7175216972828
 20
15.4399622917189
 30
0.0
 11
-29.8675308585171
 21
15.4399622917189
 31
0.0
  0
LINE
  5
   40D
  8
0
  6
CONTINUOUS
 62
     1
 10
-28.9675304055703
 20
15.4399624562617
 30
0.0
 11
-28.8614642697452
 21
15.4838963264924
 31
0.0
  0
LINE
  5
   40E
  8
0
  6
CONTINUOUS
 62
     1
 10
-28.8614644182728
 20
15.4838963822225
 30
0.0
 11
-28.8175305480421
 21
15.5899625180476
 31
0.0
  0
LINE
  5
   40F
  8
0
  6
CONTINUOUS
 62
     1
 10
-28.8175308167938
 20
15.5899622976793
 30
0.0
 11
-28.8175308167938
 21
16.3399623274817
 31
0.0
  0
LINE
  5
   410
  8
0
  6
CONTINUOUS
 62
     1
 10
-28.8175308167938
 20
16.3399623274817
 30
0.0
 11
-28.8175308167938
 21
16.9399623513235
 31
0.0
  0
LINE
  5
   411
  8
0
  6
CONTINUOUS
 62
     1
 10
-28.8175308167938
 20
16.9399623513235
 30
0.0
 11
-28.8175308167938
 21
17.5399623751654
 31
0.0
  0
LINE
  5
   412
  8
0
  6
CONTINUOUS
 62
     1
 10
-28.8175308167938
 20
17.5399623751654
 30
0.0
 11
-28.8175308167938
 21
18.1399618268026
 31
0.0
  0
LINE
  5
   413
  8
0
  6
CONTINUOUS
 62
     1
 10
-28.8175308167938
 20
18.1399618268026
 30
0.0
 11
-28.8175308167938
 21
18.8899630010142
 31
0.0
  0
LINE
  5
   414
  8
0
  6
CONTINUOUS
 62
     1
 10
-29.8675217032433
 20
44.5399228215215
 30
0.0
 11
-29.8675217032433
 21
45.4399228572843
 31
0.0
  0
LINE
  5
   415
  8
0
  6
CONTINUOUS
 62
     1
 10
-29.7815789731407
 20
44.2754193410217
 30
0.0
 11
-29.8675218199089
 21
44.5399220710233
 31
0.0
  0
LINE
  5
   416
  8
0
  6
CONTINUOUS
 62
     1
 10
-29.5565789451153
 20
44.1119478315041
 30
0.0
 11
-29.7815789520696
 21
44.2754198275713
 31
0.0
  0
LINE
  5
   417
  8
0
  6
CONTINUOUS
 62
     1
 10
-29.2784645204124
 20
44.1119481035876
 30
0.0
 11
-29.5565788503113
 21
44.1119481035876
 31
0.0
  0
LINE
  5
   418
  8
0
  6
CONTINUOUS
 62
     1
 10
-29.2784648550163
 20
44.1119477014434
 30
0.0
 11
-29.053464848062
 21
44.2754196975106
 31
0.0
  0
LINE
  5
   419
  8
0
  6
CONTINUOUS
 62
     1
 10
-29.053464887442
 20
44.2754192096042
 30
0.0
 11
-28.9675220406738
 21
44.5399219396058
 31
0.0
  0
LINE
  5
   41A
  8
0
  6
CONTINUOUS
 62
     1
 10
-28.9675216674805
 20
44.5399228215215
 30
0.0
 11
-28.9675216674805
 21
45.4399228572843
 31
0.0
  0
LINE
  5
   41B
  8
0
  6
CONTINUOUS
 62
     1
 10
-28.9675217879222
 20
45.4399220797665
 30
0.0
 11
-29.0534646346904
 21
45.7044248097682
 31
0.0
  0
LINE
  5
   41C
  8
0
  6
CONTINUOUS
 62
     1
 10
-29.0534646067944
 20
45.7044252986365
 30
0.0
 11
-29.2784646137487
 21
45.8678972947036
 31
0.0
  0
LINE
  5
   41D
  8
0
  6
CONTINUOUS
 62
     1
 10
-29.2784645204124
 20
45.8678975752182
 30
0.0
 11
-29.5565788503113
 21
45.8678975752182
 31
0.0
  0
LINE
  5
   41E
  8
0
  6
CONTINUOUS
 62
     1
 10
-29.7815791933372
 20
45.7044251685758
 30
0.0
 11
-29.5565791863829
 21
45.8678971646429
 31
0.0
  0
LINE
  5
   41F
  8
0
  6
CONTINUOUS
 62
     1
 10
-29.8675220726605
 20
45.4399219483491
 30
0.0
 11
-29.7815792258923
 21
45.7044246783507
 31
0.0
  0
LINE
  5
   420
  8
0
  6
CONTINUOUS
 62
     1
 10
-29.4175216853619
 20
15.4399617195143
 30
0.0
 11
-29.7175216972828
 21
15.4399617195143
 31
0.0
  0
LINE
  5
   421
  8
0
  6
CONTINUOUS
 62
     1
 10
-29.1175216734409
 20
15.4399617195143
 30
0.0
 11
-29.4175216853619
 21
15.4399617195143
 31
0.0
  0
LINE
  5
   422
  8
0
  6
CONTINUOUS
 62
     1
 10
-29.1175193418203
 20
15.4399626431239
 30
0.0
 11
-28.9053870635288
 21
15.5278309583905
 31
0.0
  0
LINE
  5
   423
  8
0
  6
CONTINUOUS
 62
     1
 10
-28.9053904832185
 20
15.5278291409987
 30
0.0
 11
-28.8175227427568
 21
15.7399608377606
 31
0.0
  0
LINE
  5
   424
  8
0
  6
CONTINUOUS
 62
     1
 10
-28.81752166152
 20
15.7399617314352
 30
0.0
 11
-28.81752166152
 21
16.9399617791189
 31
0.0
  0
LINE
  5
   425
  8
0
  6
CONTINUOUS
 62
     1
 10
-28.81752166152
 20
16.9399617791189
 30
0.0
 11
-28.81752166152
 21
17.5399618029608
 31
0.0
  0
LINE
  5
   426
  8
0
  6
CONTINUOUS
 62
     1
 10
-28.81752166152
 20
17.5399618029608
 30
0.0
 11
-28.81752166152
 21
18.7399618506445
 31
0.0
  0
LINE
  5
   427
  8
0
  6
CONTINUOUS
 62
     1
 10
-28.8175214605517
 20
18.739961987962
 30
0.0
 11
-28.9053892010131
 21
18.9520942596122
 31
0.0
  0
LINE
  5
   428
  8
0
  6
CONTINUOUS
 62
     1
 10
-28.905389054582
 20
18.9520941817789
 30
0.0
 11
-29.1175213262321
 21
19.0399619222403
 31
0.0
  0
LINE
  5
   429
  8
0
  6
CONTINUOUS
 62
     1
 10
-29.1175216734409
 20
19.0399618625654
 30
0.0
 11
-29.4175216853619
 21
19.0399618625654
 31
0.0
  0
LINE
  5
   42A
  8
0
  6
CONTINUOUS
 62
     1
 10
-29.4175216853619
 20
19.0399618625654
 30
0.0
 11
-29.7175216972828
 21
19.0399618625654
 31
0.0
  0
LINE
  5
   42B
  8
0
  6
CONTINUOUS
 62
     1
 10
-29.9296535553153
 20
18.9520943277864
 30
0.0
 11
-29.7175212836651
 21
19.0399620682478
 31
0.0
  0
LINE
  5
   42C
  8
0
  6
CONTINUOUS
 62
     1
 10
-30.0175214424237
 20
18.739962132211
 30
0.0
 11
-29.9296537019623
 21
18.9520944038611
 31
0.0
  0
LINE
  5
   42D
  8
0
  6
CONTINUOUS
 62
     1
 10
-30.0175217092037
 20
17.5399618029608
 30
0.0
 11
-30.0175217092037
 21
18.7399618506445
 31
0.0
  0
LINE
  5
   42E
  8
0
  6
CONTINUOUS
 62
     1
 10
-30.0175217092037
 20
16.9399617791189
 30
0.0
 11
-30.0175217092037
 21
17.5399618029608
 31
0.0
  0
LINE
  5
   42F
  8
0
  6
CONTINUOUS
 62
     1
 10
-30.0175217092037
 20
15.7399617314352
 30
0.0
 11
-30.0175217092037
 21
16.9399617791189
 31
0.0
  0
LINE
  5
   430
  8
0
  6
CONTINUOUS
 62
     1
 10
-29.9296547728052
 20
15.5278297224072
 30
0.0
 11
-30.0175225132669
 21
15.7399614191691
 31
0.0
  0
LINE
  5
   431
  8
0
  6
CONTINUOUS
 62
     1
 10
-29.717519763824
 20
15.4399618252742
 30
0.0
 11
-29.9296520421155
 21
15.5278301405408
 31
0.0
  0
LINE
  5
   432
  8
0
  6
CONTINUOUS
 62
     1
 10
-7.81752082705498
 20
37.0399293899536
 30
0.0
 11
-7.81752082705498
 21
45.8899366080764
 31
0.0
  0
LINE
  5
   433
  8
0
  6
CONTINUOUS
 62
     1
 10
-7.81752082683261
 20
37.039929390033
 30
0.0
 11
-8.86752215887181
 21
37.0399318549175
 31
0.0
  0
LINE
  5
   434
  8
0
  6
CONTINUOUS
 62
     1
 10
-37.8175265967848
 20
38.5566721565224
 30
0.0
 11
-68.1175255119802
 21
38.5566721565224
 31
0.0
  0
LINE
  5
   435
  8
0
  6
CONTINUOUS
 62
     1
 10
-37.8175265967848
 20
38.8566721684433
 30
0.0
 11
-68.1175255119802
 21
38.8566721684433
 31
0.0
  0
LINE
  5
   436
  8
0
  6
CONTINUOUS
 62
   132
 10
-54.4675226807594
 20
14.893967511417
 30
0.0
 11
-54.4675226807594
 21
37.7358743944146
 31
0.0
  0
LINE
  5
   437
  8
0
  6
CONTINUOUS
 62
   132
 10
-41.8675221800804
 20
14.893967511417
 30
0.0
 11
-41.8675221800804
 21
37.7358743944146
 31
0.0
  0
LINE
  5
   438
  8
0
  6
CONTINUOUS
 62
     1
 10
-54.4675226807594
 20
32.8566719300247
 30
0.0
 11
-68.1175255119802
 21
32.8566719300247
 31
0.0
  0
LINE
  5
   439
  8
0
  6
CONTINUOUS
 62
     1
 10
-37.8175265967848
 20
32.8566719300247
 30
0.0
 11
-41.8675221800804
 21
32.8566719300247
 31
0.0
  0
LINE
  5
   43A
  8
0
  6
CONTINUOUS
 62
     1
 10
-37.8175265967848
 20
33.1566719419457
 30
0.0
 11
-41.8675221800804
 21
33.1566719419457
 31
0.0
  0
LINE
  5
   43B
  8
0
  6
CONTINUOUS
 62
     1
 10
-54.4675226807594
 20
33.1566719419457
 30
0.0
 11
-68.1175255119802
 21
33.1566719419457
 31
0.0
  0
LINE
  5
   43C
  8
0
  6
CONTINUOUS
 62
     1
 10
-37.8175265967848
 20
19.7077544000874
 30
0.0
 11
-41.8675221800804
 21
19.7077544000874
 31
0.0
  0
LINE
  5
   43D
  8
0
  6
CONTINUOUS
 62
     1
 10
-54.4675226807594
 20
19.7077544000874
 30
0.0
 11
-68.1175255119802
 21
19.7077544000874
 31
0.0
  0
LINE
  5
   43E
  8
0
  6
CONTINUOUS
 62
     1
 10
-54.4675226807594
 20
19.4077543881665
 30
0.0
 11
-68.1175255119802
 21
19.4077543881665
 31
0.0
  0
LINE
  5
   43F
  8
0
  6
CONTINUOUS
 62
     1
 10
-37.8175265967848
 20
19.4077543881665
 30
0.0
 11
-41.8675221800804
 21
19.4077543881665
 31
0.0
  0
LINE
  5
   440
  8
0
  6
CONTINUOUS
 62
     1
 10
-37.8175265967848
 20
14.0077541735898
 30
0.0
 11
-68.1175255119802
 21
14.0077541735898
 31
0.0
  0
LINE
  5
   441
  8
0
  6
CONTINUOUS
 62
     1
 10
-37.8175265967848
 20
13.7077541616688
 30
0.0
 11
-68.1175255119802
 21
13.7077541616688
 31
0.0
  0
LINE
  5
   442
  8
0
  6
CONTINUOUS
 62
     7
 10
-42.2977817110324
 20
20.855179143558
 30
0.0
 11
-54.0372631498075
 21
20.855179143558
 31
0.0
  0
LINE
  5
   443
  8
0
  6
CONTINUOUS
 62
     7
 10
-54.1264356899032
 20
20.8257955709706
 30
0.0
 11
-54.0372633212973
 21
20.8551794235502
 31
0.0
  0
LINE
  5
   444
  8
0
  6
CONTINUOUS
 62
     7
 10
-54.1806714264509
 20
20.749157071087
 30
0.0
 11
-54.126435584284
 21
20.8257958669879
 31
0.0
  0
LINE
  5
   445
  8
0
  6
CONTINUOUS
 62
     7
 10
-54.3875755035361
 20
19.8374680291516
 30
0.0
 11
-54.1806714666679
 21
20.7491570697731
 31
0.0
  0
LINE
  5
   446
  8
0
  6
CONTINUOUS
 62
     7
 10
-54.457054676869
 20
18.9051787175196
 30
0.0
 11
-54.3875753032043
 21
19.8374671226496
 31
0.0
  0
LINE
  5
   447
  8
0
  6
CONTINUOUS
 62
     7
 10
-54.3875753261861
 20
17.9728916119568
 30
0.0
 11
-54.457054698383
 21
18.9051788758425
 31
0.0
  0
LINE
  5
   448
  8
0
  6
CONTINUOUS
 62
     7
 10
-54.1806713330489
 20
17.0612021513862
 30
0.0
 11
-54.3875753711801
 21
17.9728917500227
 31
0.0
  0
LINE
  5
   449
  8
0
  6
CONTINUOUS
 62
     7
 10
-54.12643491812
 20
16.984561978031
 30
0.0
 11
-54.1806707598021
 21
17.0612013454048
 31
0.0
  0
LINE
  5
   44A
  8
0
  6
CONTINUOUS
 62
     7
 10
-54.0372630941166
 20
16.9551795149848
 30
0.0
 11
-54.1264354607774
 21
16.9845627939533
 31
0.0
  0
LINE
  5
   44B
  8
0
  6
CONTINUOUS
 62
     7
 10
-42.2977817110324
 20
16.9551795607905
 30
0.0
 11
-54.0372631498075
 21
16.9551795607905
 31
0.0
  0
LINE
  5
   44C
  8
0
  6
CONTINUOUS
 62
     7
 10
-42.2977817672814
 20
16.955179514839
 30
0.0
 11
-42.2086094006206
 21
16.9845627938075
 31
0.0
  0
LINE
  5
   44D
  8
0
  6
CONTINUOUS
 62
     7
 10
-42.2086099427199
 20
16.984561978031
 30
0.0
 11
-42.1543741010378
 21
17.0612013454048
 31
0.0
  0
LINE
  5
   44E
  8
0
  6
CONTINUOUS
 62
     7
 10
-42.1543735277909
 20
17.0612021513862
 30
0.0
 11
-41.9474694896598
 21
17.9728917500227
 31
0.0
  0
LINE
  5
   44F
  8
0
  6
CONTINUOUS
 62
     7
 10
-41.9474695346537
 20
17.9728916119568
 30
0.0
 11
-41.8779901624568
 21
18.9051788758425
 31
0.0
  0
LINE
  5
   450
  8
0
  6
CONTINUOUS
 62
     7
 10
-41.8779901839708
 20
18.9051787175196
 30
0.0
 11
-41.9474695576355
 21
19.8374671226496
 31
0.0
  0
LINE
  5
   451
  8
0
  6
CONTINUOUS
 62
     7
 10
-41.9474693573038
 20
19.8374680291516
 30
0.0
 11
-42.154373394172
 21
20.7491570697731
 31
0.0
  0
LINE
  5
   452
  8
0
  6
CONTINUOUS
 62
     7
 10
-42.1543734343889
 20
20.749157071087
 30
0.0
 11
-42.2086092765559
 21
20.8257958669879
 31
0.0
  0
LINE
  5
   453
  8
0
  6
CONTINUOUS
 62
     7
 10
-42.2086091685931
 20
20.8257955709257
 30
0.0
 11
-42.297781537199
 21
20.8551794235053
 31
0.0
  0
LINE
  5
   454
  8
0
  6
CONTINUOUS
 62
     1
 10
-28.9675216674805
 20
45.0649228423831
 30
0.0
 11
-29.6553894316303
 21
45.0649228423831
 31
0.0
  0
LINE
  5
   455
  8
0
  6
CONTINUOUS
 62
     1
 10
-29.7614550524761
 20
45.0209895026906
 30
0.0
 11
-29.655388916651
 21
45.0649233729214
 31
0.0
  0
LINE
  5
   456
  8
0
  6
CONTINUOUS
 62
     1
 10
-29.8675224880608
 20
44.9149217371304
 30
0.0
 11
-29.7614563546869
 21
45.0209878705044
 31
0.0
  0
LINE
  5
   457
  8
0
  6
CONTINUOUS
 62
     1
 10
-29.9374718618827
 20
15.4689321944856
 30
0.0
 11
-29.884882824334
 21
15.5092852082938
 31
0.0
  0
LINE
  5
   458
  8
0
  6
CONTINUOUS
 62
   152
 10
-16.6675211787224
 20
93.4399316310883
 30
0.0
 11
-100.667524516582
 21
93.4399316310883
 31
0.0
  0
LINE
  5
   459
  8
0
  6
CONTINUOUS
 62
   152
 10
-16.6675211787224
 20
-28.3600732088089
 30
0.0
 11
-100.667524516582
 21
-28.3600732088089
 31
0.0
  0
LINE
  5
   45A
  8
0
  6
CONTINUOUS
 62
   152
 10
-76.9675248649227
 20
12.5899235546587
 30
0.0
 11
-100.667524516582
 21
12.5899235546587
 31
0.0
  0
LINE
  5
   45B
  8
0
  6
CONTINUOUS
 62
   152
 10
-76.9675248649227
 20
44.0899205148216
 30
0.0
 11
-100.667524516582
 21
44.0899205148216
 31
0.0
  0
LINE
  5
   45C
  8
0
  6
CONTINUOUS
 62
   152
 10
-100.667524516582
 20
-30.4600732922554
 30
0.0
 11
-100.667524516582
 21
95.5399317145348
 31
0.0
  0
LINE
  5
   45D
  8
0
  6
CONTINUOUS
 62
   152
 10
-16.6675211787224
 20
59.4649270662579
 30
0.0
 11
-16.6675211787224
 21
95.5399317145348
 31
0.0
  0
LINE
  5
   45E
  8
0
  6
CONTINUOUS
 62
   152
 10
-16.6675211787224
 20
-30.4600732922554
 30
0.0
 11
-16.6675211787224
 21
0.664923013141985
 31
0.0
  0
LINE
  5
   45F
  8
0
  6
CONTINUOUS
 62
   152
 10
-27.6175216138363
 20
67.0399305820465
 30
0.0
 11
-68.7175232470036
 21
67.0399305820465
 31
0.0
  0
LINE
  5
   460
  8
0
  6
CONTINUOUS
 62
     1
 10
-100.667524516582
 20
26.6899358451369
 30
0.0
 11
-100.817533677817
 21
26.6899358451369
 31
0.0
  0
LINE
  5
   461
  8
0
  6
CONTINUOUS
 62
     1
 10
-100.667524516582
 20
19.7899355709556
 30
0.0
 11
-100.817535966635
 21
19.7899355709556
 31
0.0
  0
LINE
  5
   462
  8
0
  6
CONTINUOUS
 62
     1
 10
-100.667524516582
 20
39.5899363577369
 30
0.0
 11
-100.817533677817
 21
39.5899363577369
 31
0.0
  0
LINE
  5
   463
  8
0
  6
CONTINUOUS
 62
     1
 10
-100.817534388839
 20
48.3649360391371
 30
0.0
 11
-100.843867244971
 21
48.598583209026
 31
0.0
  0
LINE
  5
   464
  8
0
  6
CONTINUOUS
 62
     1
 10
-100.84386568538
 20
48.5985800495375
 30
0.0
 11
-100.921523003221
 21
48.8205130400864
 31
0.0
  0
LINE
  5
   465
  8
0
  6
CONTINUOUS
 62
     1
 10
-100.921525437231
 20
48.8205168256731
 30
0.0
 11
-101.046620811397
 21
49.0196028360809
 31
0.0
  0
LINE
  5
   466
  8
0
  6
CONTINUOUS
 62
     1
 10
-101.046620936729
 20
49.0196025133801
 30
0.0
 11
-101.212878425817
 21
49.18586228684
 31
0.0
  0
LINE
  5
   467
  8
0
  6
CONTINUOUS
 62
     1
 10
-101.21287676661
 20
49.1858604041463
 30
0.0
 11
-101.411962770519
 21
49.3109534916927
 31
0.0
  0
LINE
  5
   468
  8
0
  6
CONTINUOUS
 62
     1
 10
-101.411960406396
 20
49.3109516952341
 30
0.0
 11
-101.633891113457
 21
49.3886113062897
 31
0.0
  0
LINE
  5
   469
  8
0
  6
CONTINUOUS
 62
     1
 10
-101.633895390963
 20
49.3886143378885
 30
0.0
 11
-101.867542556815
 21
49.4149357506026
 31
0.0
  0
LINE
  5
   46A
  8
0
  6
CONTINUOUS
 62
     1
 10
-101.867540584487
 20
49.4149344594267
 30
0.0
 11
-103.967533799265
 21
49.4149390370636
 31
0.0
  0
LINE
  5
   46B
  8
0
  6
CONTINUOUS
 62
     1
 10
-103.967533802987
 20
48.6649344295265
 30
0.0
 11
-103.967533802987
 21
49.4149390369657
 31
0.0
  0
LINE
  5
   46C
  8
0
  6
CONTINUOUS
 62
     1
 10
-103.967533806573
 20
48.6649344296227
 30
0.0
 11
-101.867542876126
 21
48.6649390072595
 31
0.0
  0
LINE
  5
   46D
  8
0
  6
CONTINUOUS
 62
     1
 10
-101.752737399942
 20
48.6421007529886
 30
0.0
 11
-101.8675422441
 21
48.6649385829634
 31
0.0
  0
LINE
  5
   46E
  8
0
  6
CONTINUOUS
 62
     1
 10
-101.655407643603
 20
48.5770685400408
 30
0.0
 11
-101.752735067917
 21
48.642098451611
 31
0.0
  0
LINE
  5
   46F
  8
0
  6
CONTINUOUS
 62
     1
 10
-101.590376288986
 20
48.4797386720742
 30
0.0
 11
-101.655408487149
 21
48.5770683866005
 31
0.0
  0
LINE
  5
   470
  8
0
  6
CONTINUOUS
 62
     1
 10
-101.567541830912
 20
48.3649368738031
 30
0.0
 11
-101.59037737244
 21
48.4797394273693
 31
0.0
  0
LINE
  5
   471
  8
0
  6
CONTINUOUS
 62
     1
 10
-101.567542862893
 20
19.7899355709556
 30
0.0
 11
-101.567542862893
 21
48.3649389952425
 31
0.0
  0
LINE
  5
   472
  8
0
  6
CONTINUOUS
 62
     1
 10
-100.817540542952
 20
19.7899344265598
 30
0.0
 11
-101.567542862418
 21
19.789935570969
 31
0.0
  0
LINE
  5
   473
  8
0
  6
CONTINUOUS
 62
     1
 10
-100.817540544273
 20
19.789934426547
 30
0.0
 11
-100.817533677818
 21
48.3649355620155
 31
0.0
  0
LINE
  5
   474
  8
0
  6
CONTINUOUS
 62
     1
 10
-7.51752539277095
 20
46.0399366140368
 30
0.0
 11
-7.81752082705498
 21
46.0399366140368
 31
0.0
  0
LINE
  5
   475
  8
0
  6
CONTINUOUS
 62
   253
 10
-7.51752539277095
 20
55.6399347066881
 30
0.0
 11
-7.81752082705498
 21
55.6399347066881
 31
0.0
  0
LINE
  5
   476
  8
0
  6
CONTINUOUS
 62
   253
 10
-7.81752082705498
 20
55.6399347066881
 30
0.0
 11
-8.86752215887181
 21
55.6399347066881
 31
0.0
  0
LINE
  5
   477
  8
0
  6
CONTINUOUS
 62
     1
 10
-7.81752082705498
 20
46.0399366140368
 30
0.0
 11
-8.86752215887181
 21
46.0399366140368
 31
0.0
  0
LINE
  5
   478
  8
0
  6
CONTINUOUS
 62
   253
 10
-7.51752081513405
 20
12.2149261146783
 30
0.0
 11
-8.86752215887182
 21
12.2149261146783
 31
0.0
  0
LINE
  5
   479
  8
0
  6
CONTINUOUS
 62
   253
 10
-7.51752081513405
 20
12.2149261146783
 30
0.0
 11
-7.51752081513405
 21
13.6399238824843
 31
0.0
  0
LINE
  5
   47A
  8
0
  6
CONTINUOUS
 62
     1
 10
-7.51752081513405
 20
37.0399293899536
 30
0.0
 11
-7.81752082705498
 21
37.0399293899536
 31
0.0
  0
LINE
  5
   47B
  8
0
  6
CONTINUOUS
 62
   253
 10
-7.51752081513367
 20
13.6399238824848
 30
0.0
 11
-7.5175253927707
 21
55.6399347066887
 31
0.0
  0
LINE
  5
   47C
  8
0
  6
CONTINUOUS
 62
   253
 10
-7.21752080321312
 20
29.5399176478381
 30
0.0
 11
-7.21752080321312
 21
35.5399178862567
 31
0.0
  0
LINE
  5
   47D
  8
0
  6
CONTINUOUS
 62
   132
 10
-41.8675221800804
 20
37.4083009866226
 30
0.0
 11
-54.4675226807594
 21
37.4083009866226
 31
0.0
  0
LINE
  5
   47E
  8
0
  6
CONTINUOUS
 62
   132
 10
-41.8675221800804
 20
37.7358743944146
 30
0.0
 11
-54.4675226807594
 21
37.7358743944146
 31
0.0
  0
LINE
  5
   47F
  8
0
  6
CONTINUOUS
 62
   132
 10
-41.8675221800804
 20
14.893967511417
 30
0.0
 11
-54.4675226807594
 21
14.893967511417
 31
0.0
  0
LINE
  5
   480
  8
0
  6
CONTINUOUS
 62
   132
 10
-41.8675221800804
 20
15.2215403470044
 30
0.0
 11
-54.4675226807594
 21
15.2215403470044
 31
0.0
  0
LINE
  5
   481
  8
0
  6
CONTINUOUS
 62
     1
 10
-100.817533027639
 20
43.6301209337874
 30
0.0
 11
-100.667526158879
 21
43.9182785993127
 31
0.0
  0
LINE
  5
   482
  8
0
  6
CONTINUOUS
 62
     1
 10
-100.667528264721
 20
47.5616015028334
 30
0.0
 11
-100.817535133481
 21
47.8497591683587
 31
0.0
  0
LINE
  5
   483
  8
0
  6
CONTINUOUS
 62
   253
 10
-7.21752080321312
 20
35.5399178862567
 30
0.0
 11
-7.51752081513405
 21
35.5399178862567
 31
0.0
  0
LINE
  5
   484
  8
0
  6
CONTINUOUS
 62
   253
 10
-7.21752080321312
 20
29.5399176478381
 30
0.0
 11
-7.51752081513405
 21
29.5399176478381
 31
0.0
  0
INSERT
  5
   485
  8
255
  6
CONTINUOUS
 62
     1
  2
$1FIANCATA
 10
-100.667524516582
 20
55.6399347066881
 30
0.0
 41
0.300000011920929
 42
0.300000011920929
 50
359.999999792138
 43
0.300000011920929
  0
LINE
  5
   486
  8
0
  6
CONTINUOUS
 62
     1
 10
-106.21752473712
 20
29.5398718714691
 30
0.0
 11
-106.21752473712
 21
35.5398721098877
 31
0.0
  0
LINE
  5
   487
  8
0
  6
DASHDOT
 62
     7
 10
-6.33964498717363
 20
30.0649245351551
 30
0.0
 11
-114.27996949736
 21
30.0649245351551
 31
0.0
  0
LINE
  5
   488
  8
0
  6
CONTINUOUS
 62
     1
 10
-99.7280250094279
 20
5.31519877523441
 30
0.0
 11
-100.292502570564
 21
5.31520077795036
 31
0.0
  0
LINE
  5
   489
  8
0
  6
CONTINUOUS
 62
     1
 10
-16.6675211787224
 20
68.4652007192481
 30
0.0
 11
-100.667523841538
 21
68.4652007192481
 31
0.0
  0
LINE
  5
   48A
  8
0
  6
CONTINUOUS
 62
     1
 10
-76.9675248649227
 20
5.31519849599491
 30
0.0
 11
-99.7280194743671
 21
5.31519849599491
 31
0.0
  0
LINE
  5
   48B
  8
0
  6
CONTINUOUS
 62
     1
 10
-76.9675248649227
 20
5.61519850791584
 30
0.0
 11
-100.592515358328
 21
5.61519850791584
 31
0.0
  0
LINE
  5
   48C
  8
0
  6
CONTINUOUS
 62
     1
 10
-100.022517166733
 20
44.0151814371448
 30
0.0
 11
-100.022517166733
 21
68.4651961416112
 31
0.0
  0
LINE
  5
   48D
  8
0
  6
CONTINUOUS
 62
     1
 10
-98.9425061374896
 20
44.0151814371448
 30
0.0
 11
-98.9425061374896
 21
68.4651961416112
 31
0.0
  0
LINE
  5
   48E
  8
0
  6
CONTINUOUS
 62
     1
 10
-97.8625134187932
 20
44.0151814371448
 30
0.0
 11
-97.8625134187932
 21
68.4651961416112
 31
0.0
  0
LINE
  5
   48F
  8
0
  6
CONTINUOUS
 62
     1
 10
-96.7825207000969
 20
44.0151814371448
 30
0.0
 11
-96.7825207000969
 21
68.4651961416112
 31
0.0
  0
LINE
  5
   490
  8
0
  6
CONTINUOUS
 62
     1
 10
-95.702509670853
 20
44.0151814371448
 30
0.0
 11
-95.702509670853
 21
68.4651961416112
 31
0.0
  0
LINE
  5
   491
  8
0
  6
CONTINUOUS
 62
     1
 10
-94.6225169521567
 20
44.0151814371448
 30
0.0
 11
-94.6225169521567
 21
68.4651961416112
 31
0.0
  0
LINE
  5
   492
  8
0
  6
CONTINUOUS
 62
     1
 10
-93.5425059229128
 20
44.0151814371448
 30
0.0
 11
-93.5425059229128
 21
68.4651961416112
 31
0.0
  0
LINE
  5
   493
  8
0
  6
CONTINUOUS
 62
     1
 10
-92.4625132042165
 20
44.0151814371448
 30
0.0
 11
-92.4625132042165
 21
68.4651961416112
 31
0.0
  0
LINE
  5
   494
  8
0
  6
CONTINUOUS
 62
     1
 10
-91.3825204855202
 20
44.0151814371448
 30
0.0
 11
-91.3825204855202
 21
68.4651961416112
 31
0.0
  0
LINE
  5
   495
  8
0
  6
CONTINUOUS
 62
     1
 10
-100.022517166733
 20
12.5152030736318
 30
0.0
 11
-100.022517166733
 21
44.0151814371448
 31
0.0
  0
LINE
  5
   496
  8
0
  6
CONTINUOUS
 62
     1
 10
-98.9425061374896
 20
12.5152030736318
 30
0.0
 11
-98.9425061374896
 21
44.0151814371448
 31
0.0
  0
LINE
  5
   497
  8
0
  6
CONTINUOUS
 62
     1
 10
-97.8625134187932
 20
12.5152030736318
 30
0.0
 11
-97.8625134187932
 21
44.0151814371448
 31
0.0
  0
LINE
  5
   498
  8
0
  6
CONTINUOUS
 62
     1
 10
-96.7825207000969
 20
12.5152030736318
 30
0.0
 11
-96.7825207000969
 21
44.0151814371448
 31
0.0
  0
LINE
  5
   499
  8
0
  6
CONTINUOUS
 62
     1
 10
-95.702509670853
 20
12.5152030736318
 30
0.0
 11
-95.702509670853
 21
44.0151814371448
 31
0.0
  0
LINE
  5
   49A
  8
0
  6
CONTINUOUS
 62
     1
 10
-94.6225169521567
 20
12.5152030736318
 30
0.0
 11
-94.6225169521567
 21
44.0151814371448
 31
0.0
  0
LINE
  5
   49B
  8
0
  6
CONTINUOUS
 62
     1
 10
-93.5425059229128
 20
12.5152030736318
 30
0.0
 11
-93.5425059229128
 21
44.0151814371448
 31
0.0
  0
LINE
  5
   49C
  8
0
  6
CONTINUOUS
 62
     1
 10
-92.4625132042165
 20
12.5152030736318
 30
0.0
 11
-92.4625132042165
 21
44.0151814371448
 31
0.0
  0
LINE
  5
   49D
  8
0
  6
CONTINUOUS
 62
     1
 10
-91.3825204855202
 20
12.5152030736318
 30
0.0
 11
-91.3825204855202
 21
44.0151814371448
 31
0.0
  0
LINE
  5
   49E
  8
0
  6
CONTINUOUS
 62
     2
 10
-100.022517166733
 20
-30.4600732922554
 30
0.0
 11
-100.022517166733
 21
-6.98479814724103
 31
0.0
  0
LINE
  5
   49F
  8
0
  6
CONTINUOUS
 62
     2
 10
-98.9425061374896
 20
-30.4600732922554
 30
0.0
 11
-98.9425061374896
 21
-6.98479814724103
 31
0.0
  0
LINE
  5
   4A0
  8
0
  6
CONTINUOUS
 62
     2
 10
-97.8625134187932
 20
-30.4600732922554
 30
0.0
 11
-97.8625134187932
 21
-6.98479814724103
 31
0.0
  0
LINE
  5
   4A1
  8
0
  6
CONTINUOUS
 62
     2
 10
-96.7825207000969
 20
-30.4600732922554
 30
0.0
 11
-96.7825207000969
 21
-6.98479814724103
 31
0.0
  0
LINE
  5
   4A2
  8
0
  6
CONTINUOUS
 62
     2
 10
-95.702509670853
 20
-30.4600732922554
 30
0.0
 11
-95.702509670853
 21
-6.98479814724103
 31
0.0
  0
LINE
  5
   4A3
  8
0
  6
CONTINUOUS
 62
     2
 10
-94.6225169521567
 20
-30.4600732922554
 30
0.0
 11
-94.6225169521567
 21
-6.98479814724103
 31
0.0
  0
LINE
  5
   4A4
  8
0
  6
CONTINUOUS
 62
     2
 10
-93.5425059229128
 20
-30.4600732922554
 30
0.0
 11
-93.5425059229128
 21
-6.98479814724103
 31
0.0
  0
LINE
  5
   4A5
  8
0
  6
CONTINUOUS
 62
     2
 10
-92.4625132042165
 20
-30.4600732922554
 30
0.0
 11
-92.4625132042165
 21
-6.98479814724103
 31
0.0
  0
LINE
  5
   4A6
  8
0
  6
CONTINUOUS
 62
     2
 10
-91.3825204855202
 20
-30.4600732922554
 30
0.0
 11
-91.3825204855202
 21
-6.98479814724103
 31
0.0
  0
LINE
  5
   4A7
  8
0
  6
CONTINUOUS
 62
     2
 10
-69.3025086218113
 20
-6.53479997216563
 30
0.0
 11
-69.3025086218113
 21
0.664923013141985
 31
0.0
  0
LINE
  5
   4A8
  8
0
  6
CONTINUOUS
 62
     1
 10
-17.3125285285714
 20
59.4649270662579
 30
0.0
 11
-17.3125285285714
 21
68.4651961416112
 31
0.0
  0
LINE
  5
   4A9
  8
0
  6
CONTINUOUS
 62
     1
 10
-18.3925395578153
 20
59.4649270662579
 30
0.0
 11
-18.3925395578153
 21
68.4651961416112
 31
0.0
  0
LINE
  5
   4AA
  8
0
  6
CONTINUOUS
 62
     1
 10
-19.4725322765116
 20
59.4649270662579
 30
0.0
 11
-19.4725322765116
 21
68.4651961416112
 31
0.0
  0
LINE
  5
   4AB
  8
0
  6
CONTINUOUS
 62
     1
 10
-20.5525249952079
 20
59.4649270662579
 30
0.0
 11
-20.5525249952079
 21
68.4651961416112
 31
0.0
  0
LINE
  5
   4AC
  8
0
  6
CONTINUOUS
 62
     1
 10
-21.6325360244518
 20
59.4649270662579
 30
0.0
 11
-21.6325360244518
 21
68.4651961416112
 31
0.0
  0
LINE
  5
   4AD
  8
0
  6
CONTINUOUS
 62
     1
 10
-22.7125287431481
 20
59.4649270662579
 30
0.0
 11
-22.7125287431481
 21
68.4651961416112
 31
0.0
  0
LINE
  5
   4AE
  8
0
  6
CONTINUOUS
 62
     1
 10
-23.792539772392
 20
59.4649270662579
 30
0.0
 11
-23.792539772392
 21
68.4651961416112
 31
0.0
  0
LINE
  5
   4AF
  8
0
  6
CONTINUOUS
 62
     1
 10
-24.8725324910884
 20
59.4649270662579
 30
0.0
 11
-24.8725324910884
 21
68.4651961416112
 31
0.0
  0
LINE
  5
   4B0
  8
0
  6
CONTINUOUS
 62
     1
 10
-25.9525252097847
 20
59.4649270662579
 30
0.0
 11
-25.9525252097847
 21
68.4651961416112
 31
0.0
  0
LINE
  5
   4B1
  8
0
  6
CONTINUOUS
 62
     1
 10
-27.0325362390286
 20
59.4649270662579
 30
0.0
 11
-27.0325362390286
 21
68.4651961416112
 31
0.0
  0
LINE
  5
   4B2
  8
0
  6
CONTINUOUS
 62
     1
 10
-27.6175078809272
 20
59.4649270662579
 30
0.0
 11
-27.6175078809272
 21
66.9651997022307
 31
0.0
  0
LINE
  5
   4B3
  8
0
  6
CONTINUOUS
 62
     1
 10
-68.7174957811805
 20
59.4649270662579
 30
0.0
 11
-68.7174957811805
 21
66.9651970394358
 31
0.0
  0
LINE
  5
   4B4
  8
0
  6
CONTINUOUS
 62
     1
 10
-27.6175307691101
 20
66.9652006596435
 30
0.0
 11
-68.7175186693667
 21
66.9652006596435
 31
0.0
  0
LINE
  5
   4B5
  8
0
  6
CONTINUOUS
 62
     1
 10
-100.292506191134
 20
5.31520049871105
 30
0.0
 11
-100.292506191134
 21
5.61519850791584
 31
0.0
  0
LINE
  5
   4B6
  8
0
  6
CONTINUOUS
 62
     1
 10
-47.7024605566239
 20
-30.4600732922554
 30
0.0
 11
-47.7024605566239
 21
-6.98479814724103
 31
0.0
  0
LINE
  5
   4B7
  8
0
  6
CONTINUOUS
 62
     1
 10
-46.6224615436771
 20
-30.4600732922554
 30
0.0
 11
-46.6224615436771
 21
-6.98479814724103
 31
0.0
  0
LINE
  5
   4B8
  8
0
  6
CONTINUOUS
 62
     1
 10
-45.3924605220537
 20
-30.4600732922554
 30
0.0
 11
-45.3924605220537
 21
-6.98479814724103
 31
0.0
  0
LINE
  5
   4B9
  8
0
  6
CONTINUOUS
 62
     1
 10
-44.3124606508
 20
-30.4600732922554
 30
0.0
 11
-44.3124606508
 21
-6.98479814724103
 31
0.0
  0
LINE
  5
   4BA
  8
0
  6
CONTINUOUS
 62
     1
 10
-43.2324727958429
 20
-30.4600732922554
 30
0.0
 11
-43.2324727958429
 21
-6.98479814724103
 31
0.0
  0
LINE
  5
   4BB
  8
0
  6
CONTINUOUS
 62
     1
 10
-42.152470921873
 20
-30.4600732922554
 30
0.0
 11
-42.152470921873
 21
-6.98479814724103
 31
0.0
  0
LINE
  5
   4BC
  8
0
  6
CONTINUOUS
 62
     1
 10
-41.0724598926301
 20
-30.4600732922554
 30
0.0
 11
-41.0724598926301
 21
-6.98479814724103
 31
0.0
  0
LINE
  5
   4BD
  8
0
  6
CONTINUOUS
 62
     1
 10
-39.99247175157
 20
-30.4600732922554
 30
0.0
 11
-39.99247175157
 21
-6.98479814724103
 31
0.0
  0
LINE
  5
   4BE
  8
0
  6
CONTINUOUS
 62
     1
 10
-38.9125019210569
 20
-30.4600732922554
 30
0.0
 11
-38.9125019210569
 21
-15.4585640721728
 31
0.0
  0
LINE
  5
   4BF
  8
0
  6
CONTINUOUS
 62
     1
 10
-37.8325092023606
 20
-30.4600732922554
 30
0.0
 11
-37.8325092023606
 21
-16.2754615809457
 31
0.0
  0
LINE
  5
   4C0
  8
0
  6
CONTINUOUS
 62
     1
 10
-36.7525073283905
 20
-30.4600732922554
 30
0.0
 11
-36.7525073283905
 21
-15.9285475455904
 31
0.0
  0
LINE
  5
   4C1
  8
0
  6
CONTINUOUS
 62
     1
 10
-35.6724642556918
 20
-30.4600732922554
 30
0.0
 11
-35.6724642556918
 21
-6.98479814724103
 31
0.0
  0
LINE
  5
   4C2
  8
0
  6
CONTINUOUS
 62
     1
 10
-34.592462381722
 20
-30.4600732922554
 30
0.0
 11
-34.592462381722
 21
-6.98479814724103
 31
0.0
  0
LINE
  5
   4C3
  8
0
  6
CONTINUOUS
 62
     1
 10
-33.5124605077522
 20
-30.4600732922554
 30
0.0
 11
-33.5124605077522
 21
-6.98479814724103
 31
0.0
  0
LINE
  5
   4C4
  8
0
  6
CONTINUOUS
 62
     1
 10
-32.4324906772374
 20
-30.4600732922554
 30
0.0
 11
-32.4324906772374
 21
-6.98479814724103
 31
0.0
  0
LINE
  5
   4C5
  8
0
  6
CONTINUOUS
 62
     1
 10
-31.3524659150864
 20
-30.4600732922554
 30
0.0
 11
-31.3524659150864
 21
-6.98479814724103
 31
0.0
  0
LINE
  5
   4C6
  8
0
  6
CONTINUOUS
 62
     1
 10
-30.2724640411166
 20
-30.4600732922554
 30
0.0
 11
-30.2724640411166
 21
-6.98479814724104
 31
0.0
  0
LINE
  5
   4C7
  8
0
  6
CONTINUOUS
 62
     1
 10
-29.1924621671468
 20
-30.4600732922554
 30
0.0
 11
-29.1924621671468
 21
-6.98479814724104
 31
0.0
  0
LINE
  5
   4C8
  8
0
  6
CONTINUOUS
 62
     1
 10
-28.1124694484508
 20
-30.4600732922554
 30
0.0
 11
-28.1124694484508
 21
-6.98479814724104
 31
0.0
  0
LINE
  5
   4C9
  8
0
  6
CONTINUOUS
 62
     1
 10
-48.782587743404
 20
-30.4600732922554
 30
0.0
 11
-48.782587743404
 21
-6.98479814724103
 31
0.0
  0
LINE
  5
   4CA
  8
0
  6
CONTINUOUS
 62
     1
 10
-49.8625907617831
 20
-30.4600732922554
 30
0.0
 11
-49.8625907617831
 21
-6.98479814724103
 31
0.0
  0
LINE
  5
   4CB
  8
0
  6
CONTINUOUS
 62
     1
 10
-50.942588916423
 20
-30.4600732922554
 30
0.0
 11
-50.942588916423
 21
-6.98479814724103
 31
0.0
  0
LINE
  5
   4CC
  8
0
  6
CONTINUOUS
 62
     1
 10
-52.0225887876768
 20
-30.4600732922554
 30
0.0
 11
-52.0225887876768
 21
-6.98479814724103
 31
0.0
  0
LINE
  5
   4CD
  8
0
  6
CONTINUOUS
 62
     1
 10
-53.1025766426339
 20
-30.4600732922554
 30
0.0
 11
-53.1025766426339
 21
-6.98479814724103
 31
0.0
  0
LINE
  5
   4CE
  8
0
  6
CONTINUOUS
 62
     1
 10
-54.1825785166038
 20
-30.4600732922554
 30
0.0
 11
-54.1825785166038
 21
-6.98479814724103
 31
0.0
  0
LINE
  5
   4CF
  8
0
  6
CONTINUOUS
 62
     1
 10
-55.2625895458466
 20
-30.4600732922554
 30
0.0
 11
-55.2625895458466
 21
-6.98479814724103
 31
0.0
  0
LINE
  5
   4D0
  8
0
  6
CONTINUOUS
 62
     1
 10
-56.3425776869067
 20
-30.4600732922554
 30
0.0
 11
-56.3425776869067
 21
-6.98479814724103
 31
0.0
  0
LINE
  5
   4D1
  8
0
  6
CONTINUOUS
 62
     1
 10
-57.4225475174199
 20
-30.4600732922554
 30
0.0
 11
-57.4225475174199
 21
-15.4585957960559
 31
0.0
  0
LINE
  5
   4D2
  8
0
  6
CONTINUOUS
 62
     1
 10
-57.4225458441097
 20
80.3600980443096
 30
0.0
 11
-57.4225243172209
 21
95.5399317145348
 31
0.0
  0
LINE
  5
   4D3
  8
0
  6
CONTINUOUS
 62
     1
 10
-58.3525442565911
 20
81.1659200640906
 30
0.0
 11
-58.3525225157199
 21
95.5399317145348
 31
0.0
  0
LINE
  5
   4D4
  8
0
  6
CONTINUOUS
 62
     1
 10
-58.5025356584793
 20
-30.4600732922554
 30
0.0
 11
-58.5025356584793
 21
-16.2754251872535
 31
0.0
  0
LINE
  5
   4D5
  8
0
  6
CONTINUOUS
 62
     1
 10
-59.4325344213887
 20
80.9725528899717
 30
0.0
 11
-59.4325127344411
 21
95.5399317145348
 31
0.0
  0
LINE
  5
   4D6
  8
0
  6
CONTINUOUS
 62
     1
 10
-59.5825375324494
 20
-30.4600732922554
 30
0.0
 11
-59.5825375324494
 21
-15.9283205927432
 31
0.0
  0
LINE
  5
   4D7
  8
0
  6
CONTINUOUS
 62
     1
 10
-60.662580605148
 20
-30.4600732922554
 30
0.0
 11
-60.662580605148
 21
-6.98479814724103
 31
0.0
  0
LINE
  5
   4D8
  8
0
  6
CONTINUOUS
 62
     1
 10
-61.7425824791178
 20
-30.4600732922554
 30
0.0
 11
-61.7425824791178
 21
-6.98479814724103
 31
0.0
  0
LINE
  5
   4D9
  8
0
  6
CONTINUOUS
 62
     1
 10
-62.8225843530876
 20
-30.4600732922554
 30
0.0
 11
-62.8225843530876
 21
-6.98479814724103
 31
0.0
  0
LINE
  5
   4DA
  8
0
  6
CONTINUOUS
 62
     1
 10
-63.9025862270574
 20
-30.4600732922554
 30
0.0
 11
-63.9025862270574
 21
-6.98479814724103
 31
0.0
  0
LINE
  5
   4DB
  8
0
  6
CONTINUOUS
 62
     1
 10
-64.9825789457534
 20
-30.4600732922554
 30
0.0
 11
-64.9825789457534
 21
-6.98479814724103
 31
0.0
  0
LINE
  5
   4DC
  8
0
  6
CONTINUOUS
 62
     1
 10
-66.0625808197232
 20
-30.4600732922554
 30
0.0
 11
-66.0625808197232
 21
-6.98479814724102
 31
0.0
  0
LINE
  5
   4DD
  8
0
  6
CONTINUOUS
 62
     1
 10
-67.142582693693
 20
-30.4600732922554
 30
0.0
 11
-67.142582693693
 21
-6.98479814724102
 31
0.0
  0
LINE
  5
   4DE
  8
0
  6
CONTINUOUS
 62
     1
 10
-68.2225845676628
 20
-30.4600732922554
 30
0.0
 11
-68.2225845676628
 21
-6.98479814724102
 31
0.0
  0
LINE
  5
   4DF
  8
0
  6
CONTINUOUS
 62
     1
 10
-69.3025360876327
 20
68.9152144700402
 30
0.0
 11
-69.3025360876327
 21
95.5399317145348
 31
0.0
  0
LINE
  5
   4E0
  8
0
  6
CONTINUOUS
 62
     1
 10
-91.3825571066139
 20
68.9151495780899
 30
0.0
 11
-91.3825571066139
 21
95.5399317145348
 31
0.0
  0
LINE
  5
   4E1
  8
0
  6
CONTINUOUS
 62
     1
 10
-92.4625818687634
 20
68.9151587402546
 30
0.0
 11
-92.4625818687634
 21
95.5399317145348
 31
0.0
  0
LINE
  5
   4E2
  8
0
  6
CONTINUOUS
 62
     1
 10
-93.5425333887342
 20
68.9152144700402
 30
0.0
 11
-93.5425333887342
 21
95.5399317145348
 31
0.0
  0
LINE
  5
   4E3
  8
0
  6
CONTINUOUS
 62
     1
 10
-94.6225535732501
 20
68.9151507959476
 30
0.0
 11
-94.6225535732501
 21
95.5399317145348
 31
0.0
  0
LINE
  5
   4E4
  8
0
  6
CONTINUOUS
 62
     1
 10
-95.7025371366744
 20
68.9152144700402
 30
0.0
 11
-95.7025371366744
 21
95.5399317145348
 31
0.0
  0
LINE
  5
   4E5
  8
0
  6
CONTINUOUS
 62
     1
 10
-96.7825573211902
 20
68.9151516078549
 30
0.0
 11
-96.7825573211902
 21
95.5399317145348
 31
0.0
  0
LINE
  5
   4E6
  8
0
  6
CONTINUOUS
 62
     1
 10
-97.8625500398864
 20
68.9151520138052
 30
0.0
 11
-97.8625500398864
 21
95.5399317145348
 31
0.0
  0
LINE
  5
   4E7
  8
0
  6
CONTINUOUS
 62
     1
 10
-98.942533603311
 20
68.9152144700402
 30
0.0
 11
-98.942533603311
 21
95.5399317145348
 31
0.0
  0
LINE
  5
   4E8
  8
0
  6
CONTINUOUS
 62
     1
 10
-100.022553787826
 20
68.9151619809899
 30
0.0
 11
-100.022553787826
 21
95.5399317145348
 31
0.0
  0
LINE
  5
   4E9
  8
0
  6
CONTINUOUS
 62
     1
 10
-16.6675217904824
 20
68.9151961594881
 30
0.0
 11
-100.667523904826
 21
68.9151961594881
 31
0.0
  0
CIRCLE
  5
   4EA
  8
0
  6
CONTINUOUS
 62
     1
 10
-58.6674939527276
 20
79.8651950046913
 30
0.0
 40
1.35059393238156
  0
LINE
  5
   4EB
  8
0
  6
DASHDOT
 62
     7
 10
-58.6674939527276
 20
75.5146009531004
 30
0.0
 11
-58.6674939527276
 21
93.3650552243044
 31
0.0
  0
LINE
  5
   4EC
  8
0
  6
DASHDOT
 62
     7
 10
-54.3168999011368
 20
79.8651950046913
 30
0.0
 11
-63.0180880043185
 21
79.8651950046913
 31
0.0
  0
LINE
  5
   4ED
  8
0
  6
CONTINUOUS
 62
     1
 10
-16.6675211787224
 20
-6.98479814724103
 30
0.0
 11
-100.667513230705
 21
-6.98479814724103
 31
0.0
  0
LINE
  5
   4EE
  8
0
  6
CONTINUOUS
 62
     1
 10
-16.6675211787224
 20
-6.68479813532011
 30
0.0
 11
-100.367513260974
 21
-6.68479813532011
 31
0.0
  0
LINE
  5
   4EF
  8
0
  6
CONTINUOUS
 62
     1
 10
-16.6675211787224
 20
-6.53479997216564
 30
0.0
 11
-100.66751329399
 21
-6.53479997216564
 31
0.0
  0
LINE
  5
   4F0
  8
0
  6
CONTINUOUS
 62
     1
 10
-76.9675248649227
 20
5.16520049275059
 30
0.0
 11
-100.667514939407
 21
5.16520049275059
 31
0.0
  0
LINE
  5
   4F1
  8
0
  6
CONTINUOUS
 62
     1
 10
-100.367515349387
 20
-6.98479814724103
 30
0.0
 11
-100.367515349387
 21
-6.6847981353201
 31
0.0
  0
LINE
  5
   4F2
  8
0
  6
CONTINUOUS
 62
     1
 10
-16.9675303459174
 20
-6.98479814724104
 30
0.0
 11
-16.9675303459174
 21
-6.68479813532011
 31
0.0
  0
LINE
  5
   4F3
  8
0
  6
CONTINUOUS
 62
     1
 10
-69.167523264885
 20
-6.53479997216563
 30
0.0
 11
-69.167523264885
 21
0.664923013141985
 31
0.0
  0
LINE
  5
   4F4
  8
0
  6
CONTINUOUS
 62
     1
 10
-27.1675215959549
 20
-6.53479997216564
 30
0.0
 11
-27.1675215959549
 21
0.664923013141985
 31
0.0
  0
LINE
  5
   4F5
  8
0
  6
CONTINUOUS
 62
     2
 10
-100.022517166733
 20
-6.53479997216563
 30
0.0
 11
-100.022517166733
 21
5.16520049275059
 31
0.0
  0
LINE
  5
   4F6
  8
0
  6
CONTINUOUS
 62
     2
 10
-98.9425061374896
 20
-6.53479997216563
 30
0.0
 11
-98.9425061374896
 21
5.16520049275059
 31
0.0
  0
LINE
  5
   4F7
  8
0
  6
CONTINUOUS
 62
     2
 10
-97.8625134187932
 20
-6.53479997216563
 30
0.0
 11
-97.8625134187932
 21
5.16520049275059
 31
0.0
  0
LINE
  5
   4F8
  8
0
  6
CONTINUOUS
 62
     2
 10
-96.7825207000969
 20
-6.53479997216563
 30
0.0
 11
-96.7825207000969
 21
5.16520049275059
 31
0.0
  0
LINE
  5
   4F9
  8
0
  6
CONTINUOUS
 62
     2
 10
-95.702509670853
 20
-6.53479997216563
 30
0.0
 11
-95.702509670853
 21
5.16520049275059
 31
0.0
  0
LINE
  5
   4FA
  8
0
  6
CONTINUOUS
 62
     2
 10
-94.6225169521567
 20
-6.53479997216563
 30
0.0
 11
-94.6225169521567
 21
5.16520049275059
 31
0.0
  0
LINE
  5
   4FB
  8
0
  6
CONTINUOUS
 62
     2
 10
-93.5425059229128
 20
-6.53479997216563
 30
0.0
 11
-93.5425059229128
 21
5.16520049275059
 31
0.0
  0
LINE
  5
   4FC
  8
0
  6
CONTINUOUS
 62
     2
 10
-92.4625132042165
 20
-6.53479997216563
 30
0.0
 11
-92.4625132042165
 21
5.16520049275059
 31
0.0
  0
LINE
  5
   4FD
  8
0
  6
CONTINUOUS
 62
     2
 10
-91.3825204855202
 20
-6.53479997216563
 30
0.0
 11
-91.3825204855202
 21
5.16520049275059
 31
0.0
  0
LINE
  5
   4FE
  8
0
  6
CONTINUOUS
 62
     1
 10
-69.3025086218113
 20
59.4649270662579
 30
0.0
 11
-69.3025086218113
 21
68.4651961416112
 31
0.0
  0
LINE
  5
   4FF
  8
0
  6
CONTINUOUS
 62
     1
 10
-100.022517166733
 20
5.61519850791584
 30
0.0
 11
-100.022517166733
 21
12.5151942044603
 31
0.0
  0
LINE
  5
   500
  8
0
  6
CONTINUOUS
 62
     1
 10
-98.9425061374896
 20
5.61519850791584
 30
0.0
 11
-98.9425061374896
 21
12.5151942044603
 31
0.0
  0
LINE
  5
   501
  8
0
  6
CONTINUOUS
 62
     1
 10
-97.8625134187932
 20
5.61519850791584
 30
0.0
 11
-97.8625134187932
 21
12.5151942044603
 31
0.0
  0
LINE
  5
   502
  8
0
  6
CONTINUOUS
 62
     1
 10
-96.7825207000969
 20
5.61519850791584
 30
0.0
 11
-96.7825207000969
 21
12.5151942044603
 31
0.0
  0
LINE
  5
   503
  8
0
  6
CONTINUOUS
 62
     1
 10
-95.702509670853
 20
5.61519850791584
 30
0.0
 11
-95.702509670853
 21
12.5151942044603
 31
0.0
  0
LINE
  5
   504
  8
0
  6
CONTINUOUS
 62
     1
 10
-94.6225169521567
 20
5.61519850791584
 30
0.0
 11
-94.6225169521567
 21
12.5151942044603
 31
0.0
  0
LINE
  5
   505
  8
0
  6
CONTINUOUS
 62
     1
 10
-93.5425059229128
 20
5.61519850791584
 30
0.0
 11
-93.5425059229128
 21
12.5151942044603
 31
0.0
  0
LINE
  5
   506
  8
0
  6
CONTINUOUS
 62
     1
 10
-92.4625132042165
 20
5.61519850791584
 30
0.0
 11
-92.4625132042165
 21
12.5151942044603
 31
0.0
  0
LINE
  5
   507
  8
0
  6
CONTINUOUS
 62
     1
 10
-91.3825204855202
 20
5.61519850791584
 30
0.0
 11
-91.3825204855202
 21
12.5151942044603
 31
0.0
  0
LINE
  5
   508
  8
0
  6
CONTINUOUS
 62
     2
 10
-69.3025196081398
 20
-30.4600732922554
 30
0.0
 11
-69.3025196081398
 21
-6.98479814724103
 31
0.0
  0
LINE
  5
   509
  8
0
  6
CONTINUOUS
 62
     1
 10
-17.3125285285714
 20
-6.53479997216565
 30
0.0
 11
-17.3125285285714
 21
0.664923013141985
 31
0.0
  0
LINE
  5
   50A
  8
0
  6
CONTINUOUS
 62
     1
 10
-18.3925395578153
 20
-6.53479997216565
 30
0.0
 11
-18.3925395578153
 21
0.664923013141985
 31
0.0
  0
LINE
  5
   50B
  8
0
  6
CONTINUOUS
 62
     1
 10
-19.4725322765116
 20
-6.53479997216565
 30
0.0
 11
-19.4725322765116
 21
0.664923013141985
 31
0.0
  0
LINE
  5
   50C
  8
0
  6
CONTINUOUS
 62
     1
 10
-20.5525249952079
 20
-6.53479997216565
 30
0.0
 11
-20.5525249952079
 21
0.664923013141985
 31
0.0
  0
LINE
  5
   50D
  8
0
  6
CONTINUOUS
 62
     1
 10
-21.6325360244518
 20
-6.53479997216565
 30
0.0
 11
-21.6325360244518
 21
0.664923013141985
 31
0.0
  0
LINE
  5
   50E
  8
0
  6
CONTINUOUS
 62
     1
 10
-22.7125287431481
 20
-6.53479997216565
 30
0.0
 11
-22.7125287431481
 21
0.664923013141985
 31
0.0
  0
LINE
  5
   50F
  8
0
  6
CONTINUOUS
 62
     1
 10
-23.792539772392
 20
-6.53479997216565
 30
0.0
 11
-23.792539772392
 21
0.664923013141985
 31
0.0
  0
LINE
  5
   510
  8
0
  6
CONTINUOUS
 62
     1
 10
-24.8725324910884
 20
-6.53479997216565
 30
0.0
 11
-24.8725324910884
 21
0.664923013141985
 31
0.0
  0
LINE
  5
   511
  8
0
  6
CONTINUOUS
 62
     1
 10
-25.9525252097847
 20
-6.53479997216565
 30
0.0
 11
-25.9525252097847
 21
0.664923013141985
 31
0.0
  0
LINE
  5
   512
  8
0
  6
CONTINUOUS
 62
     1
 10
-27.0325362390286
 20
-6.53479997216565
 30
0.0
 11
-27.0325362390286
 21
0.664923013141985
 31
0.0
  0
LINE
  5
   513
  8
0
  6
CONTINUOUS
 62
     1
 10
-17.3125285285714
 20
-30.4600732922554
 30
0.0
 11
-17.3125285285714
 21
-6.98479814724105
 31
0.0
  0
LINE
  5
   514
  8
0
  6
CONTINUOUS
 62
     1
 10
-18.3925395578153
 20
-30.4600732922554
 30
0.0
 11
-18.3925395578153
 21
-6.98479814724105
 31
0.0
  0
LINE
  5
   515
  8
0
  6
CONTINUOUS
 62
     1
 10
-19.4725322765116
 20
-30.4600732922554
 30
0.0
 11
-19.4725322765116
 21
-6.98479814724105
 31
0.0
  0
LINE
  5
   516
  8
0
  6
CONTINUOUS
 62
     1
 10
-20.5525249952079
 20
-30.4600732922554
 30
0.0
 11
-20.5525249952079
 21
-6.98479814724105
 31
0.0
  0
LINE
  5
   517
  8
0
  6
CONTINUOUS
 62
     1
 10
-21.6325360244518
 20
-30.4600732922554
 30
0.0
 11
-21.6325360244518
 21
-6.98479814724105
 31
0.0
  0
LINE
  5
   518
  8
0
  6
CONTINUOUS
 62
     1
 10
-22.7125287431481
 20
-30.4600732922554
 30
0.0
 11
-22.7125287431481
 21
-6.98479814724105
 31
0.0
  0
LINE
  5
   519
  8
0
  6
CONTINUOUS
 62
     1
 10
-23.792539772392
 20
-30.4600732922554
 30
0.0
 11
-23.792539772392
 21
-6.98479814724105
 31
0.0
  0
LINE
  5
   51A
  8
0
  6
CONTINUOUS
 62
     1
 10
-24.8725324910884
 20
-30.4600732922554
 30
0.0
 11
-24.8725324910884
 21
-6.98479814724105
 31
0.0
  0
LINE
  5
   51B
  8
0
  6
CONTINUOUS
 62
     1
 10
-25.9525252097847
 20
-30.4600732922554
 30
0.0
 11
-25.9525252097847
 21
-6.98479814724105
 31
0.0
  0
LINE
  5
   51C
  8
0
  6
CONTINUOUS
 62
     1
 10
-27.0325252527
 20
-30.4600732922554
 30
0.0
 11
-27.0325252527
 21
-6.98479814724105
 31
0.0
  0
CIRCLE
  5
   51D
  8
0
  6
CONTINUOUS
 62
     1
 10
-58.6674939527277
 20
-14.9349429115987
 30
0.0
 40
1.35059393238156
  0
CIRCLE
  5
   51E
  8
0
  6
CONTINUOUS
 62
     1
 10
-37.6674195963206
 20
-14.934842388412
 30
0.0
 40
1.35074586707197
  0
LINE
  5
   51F
  8
0
  6
DASHDOT
 62
     1
 10
-37.6674195963206
 20
-19.2855883746933
 30
0.0
 11
-37.6674195963206
 21
-6.98479814724103
 31
0.0
  0
LINE
  5
   520
  8
0
  6
DASHDOT
 62
     1
 10
-33.3166736100393
 20
-14.934842388412
 30
0.0
 11
-42.0181655826018
 21
-14.934842388412
 31
0.0
  0
LINE
  5
   521
  8
0
  6
DASHDOT
 62
     1
 10
-58.6674939527277
 20
-19.2855369631896
 30
0.0
 11
-58.6674939527277
 21
-6.98479814724103
 31
0.0
  0
LINE
  5
   522
  8
0
  6
DASHDOT
 62
     1
 10
-54.3168999011368
 20
-14.9349429115987
 30
0.0
 11
-63.0180880043185
 21
-14.9349429115987
 31
0.0
  0
LINE
  5
   523
  8
0
  6
CONTINUOUS
 62
     1
 10
-47.7024605566239
 20
68.9151961594926
 30
0.0
 11
-47.7024605566239
 21
95.5399317145348
 31
0.0
  0
LINE
  5
   524
  8
0
  6
CONTINUOUS
 62
     1
 10
-46.6224615436771
 20
68.9151961594926
 30
0.0
 11
-46.6224615436771
 21
95.5399317145348
 31
0.0
  0
LINE
  5
   525
  8
0
  6
CONTINUOUS
 62
     1
 10
-45.3924605220537
 20
68.9151961594926
 30
0.0
 11
-45.3924605220537
 21
95.5399317145348
 31
0.0
  0
LINE
  5
   526
  8
0
  6
CONTINUOUS
 62
     1
 10
-44.3124606508
 20
68.9151961594926
 30
0.0
 11
-44.3124606508
 21
95.5399317145348
 31
0.0
  0
LINE
  5
   527
  8
0
  6
CONTINUOUS
 62
     1
 10
-43.2324727958429
 20
68.9151961594926
 30
0.0
 11
-43.2324727958429
 21
95.5399317145348
 31
0.0
  0
LINE
  5
   528
  8
0
  6
CONTINUOUS
 62
     1
 10
-42.152470921873
 20
68.9151961594926
 30
0.0
 11
-42.152470921873
 21
95.5399317145348
 31
0.0
  0
LINE
  5
   529
  8
0
  6
CONTINUOUS
 62
     1
 10
-41.0724598926301
 20
68.9151961594926
 30
0.0
 11
-41.0724598926301
 21
95.5399317145348
 31
0.0
  0
LINE
  5
   52A
  8
0
  6
CONTINUOUS
 62
     1
 10
-39.99247175157
 20
68.9151961594926
 30
0.0
 11
-39.99247175157
 21
95.5399317145348
 31
0.0
  0
LINE
  5
   52B
  8
0
  6
CONTINUOUS
 62
     1
 10
-48.782587743404
 20
68.9151961594926
 30
0.0
 11
-48.782587743404
 21
95.5399317145348
 31
0.0
  0
LINE
  5
   52C
  8
0
  6
CONTINUOUS
 62
     1
 10
-49.8625907617831
 20
68.9151961594926
 30
0.0
 11
-49.8625907617831
 21
95.5399317145348
 31
0.0
  0
LINE
  5
   52D
  8
0
  6
CONTINUOUS
 62
     1
 10
-50.942588916423
 20
68.9151961594926
 30
0.0
 11
-50.942588916423
 21
95.5399317145348
 31
0.0
  0
LINE
  5
   52E
  8
0
  6
CONTINUOUS
 62
     1
 10
-52.0225887876768
 20
68.9151961594926
 30
0.0
 11
-52.0225887876768
 21
95.5399317145348
 31
0.0
  0
LINE
  5
   52F
  8
0
  6
CONTINUOUS
 62
     1
 10
-53.1025766426339
 20
68.9151961594926
 30
0.0
 11
-53.1025766426339
 21
95.5399317145348
 31
0.0
  0
LINE
  5
   530
  8
0
  6
CONTINUOUS
 62
     1
 10
-54.1825785166038
 20
68.9151961594926
 30
0.0
 11
-54.1825785166038
 21
95.5399317145348
 31
0.0
  0
LINE
  5
   531
  8
0
  6
CONTINUOUS
 62
     1
 10
-55.2625895458466
 20
68.9151961594926
 30
0.0
 11
-55.2625895458466
 21
95.5399317145348
 31
0.0
  0
LINE
  5
   532
  8
0
  6
CONTINUOUS
 62
     1
 10
-56.3425776869067
 20
68.9151961594926
 30
0.0
 11
-56.3425776869067
 21
95.5399317145348
 31
0.0
  0
LINE
  5
   533
  8
0
  6
CONTINUOUS
 62
     1
 10
-57.4225475174199
 20
68.9151961594926
 30
0.0
 11
-57.4225475174199
 21
79.3702579152715
 31
0.0
  0
LINE
  5
   534
  8
0
  6
CONTINUOUS
 62
     1
 10
-58.5025356584793
 20
68.9151961594926
 30
0.0
 11
-58.5025356584793
 21
78.5407351772311
 31
0.0
  0
LINE
  5
   535
  8
0
  6
CONTINUOUS
 62
     1
 10
-59.5825375324494
 20
68.9151961594926
 30
0.0
 11
-59.5825375324494
 21
78.8937167586401
 31
0.0
  0
LINE
  5
   536
  8
0
  6
CONTINUOUS
 62
     1
 10
-60.662580605148
 20
68.9151961594926
 30
0.0
 11
-60.662580605148
 21
95.5399317145348
 31
0.0
  0
LINE
  5
   537
  8
0
  6
CONTINUOUS
 62
     1
 10
-61.7425824791178
 20
68.9151961594926
 30
0.0
 11
-61.7425824791178
 21
95.5399317145348
 31
0.0
  0
LINE
  5
   538
  8
0
  6
CONTINUOUS
 62
     1
 10
-62.8225843530876
 20
68.9151961594926
 30
0.0
 11
-62.8225843530876
 21
95.5399317145348
 31
0.0
  0
LINE
  5
   539
  8
0
  6
CONTINUOUS
 62
     1
 10
-63.9025862270574
 20
68.9151961594926
 30
0.0
 11
-63.9025862270574
 21
95.5399317145348
 31
0.0
  0
LINE
  5
   53A
  8
0
  6
CONTINUOUS
 62
     1
 10
-64.9825789457534
 20
68.9151961594926
 30
0.0
 11
-64.9825789457534
 21
95.5399317145348
 31
0.0
  0
LINE
  5
   53B
  8
0
  6
CONTINUOUS
 62
     1
 10
-66.0625808197232
 20
68.9151961594926
 30
0.0
 11
-66.0625808197232
 21
95.5399317145348
 31
0.0
  0
LINE
  5
   53C
  8
0
  6
CONTINUOUS
 62
     1
 10
-67.142582693693
 20
68.9151961594926
 30
0.0
 11
-67.142582693693
 21
95.5399317145348
 31
0.0
  0
LINE
  5
   53D
  8
0
  6
CONTINUOUS
 62
     1
 10
-68.2225845676628
 20
68.9151961594926
 30
0.0
 11
-68.2225845676628
 21
95.5399317145348
 31
0.0
  0
LINE
  5
   53E
  8
0
  6
CONTINUOUS
 62
     1
 10
-37.8325092023606
 20
-13.5942231958783
 30
0.0
 11
-37.8325092023606
 21
-6.98479814724103
 31
0.0
  0
LINE
  5
   53F
  8
0
  6
CONTINUOUS
 62
     1
 10
-36.7525073283905
 20
-13.9411372312335
 30
0.0
 11
-36.7525073283905
 21
-6.98479814724103
 31
0.0
  0
LINE
  5
   540
  8
0
  6
CONTINUOUS
 62
     1
 10
-38.9125019210569
 20
-14.4111207046512
 30
0.0
 11
-38.9125019210569
 21
-6.98479814724103
 31
0.0
  0
LINE
  5
   541
  8
0
  6
CONTINUOUS
 62
     1
 10
-57.4225475174199
 20
-14.4112900271415
 30
0.0
 11
-57.4225475174199
 21
-6.98479814724103
 31
0.0
  0
LINE
  5
   542
  8
0
  6
CONTINUOUS
 62
     1
 10
-58.5025356584793
 20
-13.594460635944
 30
0.0
 11
-58.5025356584793
 21
-6.98479814724103
 31
0.0
  0
LINE
  5
   543
  8
0
  6
CONTINUOUS
 62
     1
 10
-59.5825375324494
 20
-13.9415652304542
 30
0.0
 11
-59.5825375324494
 21
-6.98479814724103
 31
0.0
  0
LINE
  5
   544
  8
0
  6
DASHDOT
 62
     7
 10
-27.1675215959549
 20
60.5150569621211
 30
0.0
 11
-27.1675215959549
 21
98.9046229721811
 31
0.0
  0
LINE
  5
   545
  8
0
  6
CONTINUOUS
 62
     1
 10
-38.9124717086548
 20
68.9151967684236
 30
0.0
 11
-38.9124717086548
 21
79.341481179628
 31
0.0
  0
LINE
  5
   546
  8
0
  6
CONTINUOUS
 62
     1
 10
-37.8324716657395
 20
68.9151973773546
 30
0.0
 11
-37.8324716657395
 21
78.5247081103541
 31
0.0
  0
LINE
  5
   547
  8
0
  6
CONTINUOUS
 62
     1
 10
-36.7524716228242
 20
68.9151979862856
 30
0.0
 11
-36.7524716228242
 21
78.8718502146899
 31
0.0
  0
LINE
  5
   548
  8
0
  6
CONTINUOUS
 62
     1
 10
-35.6724715799088
 20
68.9151985952167
 30
0.0
 11
-35.6724715799088
 21
95.5399317145348
 31
0.0
  0
LINE
  5
   549
  8
0
  6
CONTINUOUS
 62
     1
 10
-34.5924715369935
 20
68.9151992041477
 30
0.0
 11
-34.5924715369935
 21
95.5399317145348
 31
0.0
  0
LINE
  5
   54A
  8
0
  6
CONTINUOUS
 62
     1
 10
-33.5124714940783
 20
68.9151998130787
 30
0.0
 11
-33.5124714940783
 21
95.5399317145348
 31
0.0
  0
LINE
  5
   54B
  8
0
  6
CONTINUOUS
 62
     1
 10
-31.3524714082476
 20
68.9152010309407
 30
0.0
 11
-31.3524714082476
 21
95.5399317145348
 31
0.0
  0
LINE
  5
   54C
  8
0
  6
CONTINUOUS
 62
     1
 10
-30.2724713653322
 20
68.9152016398717
 30
0.0
 11
-30.2724713653322
 21
95.5399317145348
 31
0.0
  0
LINE
  5
   54D
  8
0
  6
CONTINUOUS
 62
     1
 10
-29.192471322417
 20
68.9152022488027
 30
0.0
 11
-29.192471322417
 21
95.5399317145348
 31
0.0
  0
LINE
  5
   54E
  8
0
  6
CONTINUOUS
 62
     1
 10
-28.1124712795016
 20
68.9152028577338
 30
0.0
 11
-28.1124712795016
 21
95.5399317145348
 31
0.0
  0
LINE
  5
   54F
  8
0
  6
CONTINUOUS
 62
     1
 10
-27.0324712365862
 20
68.9152034666648
 30
0.0
 11
-27.0324712365862
 21
70.6868419885367
 31
0.0
  0
LINE
  5
   550
  8
0
  6
CONTINUOUS
 62
     1
 10
-25.9524711936709
 20
68.9152040755959
 30
0.0
 11
-25.9524711936709
 21
95.5399317145348
 31
0.0
  0
LINE
  5
   551
  8
0
  6
CONTINUOUS
 62
     1
 10
-24.8724711507555
 20
68.9152046845269
 30
0.0
 11
-24.8724711507555
 21
95.5399317145348
 31
0.0
  0
LINE
  5
   552
  8
0
  6
CONTINUOUS
 62
     1
 10
-23.7924711078401
 20
68.9152052934579
 30
0.0
 11
-23.7924711078401
 21
95.5399317145348
 31
0.0
  0
LINE
  5
   553
  8
0
  6
CONTINUOUS
 62
     1
 10
-22.7124710649246
 20
68.915205902389
 30
0.0
 11
-22.7124710649246
 21
95.5399317145348
 31
0.0
  0
LINE
  5
   554
  8
0
  6
CONTINUOUS
 62
     1
 10
-21.6324710220092
 20
68.91520651132
 30
0.0
 11
-21.6324710220092
 21
95.5399317145348
 31
0.0
  0
LINE
  5
   555
  8
0
  6
CONTINUOUS
 62
     1
 10
-20.5524709790938
 20
68.9152071202511
 30
0.0
 11
-20.5524709790938
 21
95.5399317145348
 31
0.0
  0
LINE
  5
   556
  8
0
  6
CONTINUOUS
 62
     1
 10
-19.4724709361784
 20
68.9152077291821
 30
0.0
 11
-19.4724709361784
 21
95.5399317145348
 31
0.0
  0
LINE
  5
   557
  8
0
  6
CONTINUOUS
 62
     1
 10
-18.3924708932629
 20
68.9152083381132
 30
0.0
 11
-18.3924708932629
 21
95.5399317145348
 31
0.0
  0
LINE
  5
   558
  8
0
  6
CONTINUOUS
 62
     1
 10
-17.3124708503475
 20
68.9152089470443
 30
0.0
 11
-17.3124708503475
 21
95.5399317145348
 31
0.0
  0
LINE
  5
   559
  8
0
  6
CONTINUOUS
 62
     1
 10
-32.4324714511629
 20
68.9152010309407
 30
0.0
 11
-32.4324714511629
 21
95.5399317145348
 31
0.0
  0
CIRCLE
  5
   55A
  8
0
  6
CONTINUOUS
 62
     1
 10
-37.6675509081122
 20
79.8651950046913
 30
0.0
 40
1.35059393238156
  0
LINE
  5
   55B
  8
0
  6
DASHDOT
 62
     7
 10
-37.6675509081122
 20
78.2146010603888
 30
0.0
 11
-37.6675509081122
 21
81.5157889489937
 31
0.0
  0
LINE
  5
   55C
  8
0
  6
DASHDOT
 62
     7
 10
-36.0169569638097
 20
79.8651950046913
 30
0.0
 11
-39.3181448524147
 21
79.8651950046913
 31
0.0
  0
LINE
  5
   55D
  8
0
  6
CONTINUOUS
 62
     1
 10
-36.7524716228242
 20
80.8585397946926
 30
0.0
 11
-36.7524716228242
 21
95.5399317145348
 31
0.0
  0
LINE
  5
   55E
  8
0
  6
CONTINUOUS
 62
     1
 10
-38.9124717086548
 20
80.3889088297545
 30
0.0
 11
-38.9124717086548
 21
95.5399317145348
 31
0.0
  0
LINE
  5
   55F
  8
0
  6
CONTINUOUS
 62
     1
 10
-37.8324716657395
 20
81.2056818990284
 30
0.0
 11
-37.8324716657395
 21
95.5399317145348
 31
0.0
  0
LINE
  5
   560
  8
0
  6
CONTINUOUS
 62
     1
 10
-27.0325362390286
 20
26.4649221032855
 30
0.0
 11
-27.0325362390286
 21
44.0151742845872
 31
0.0
  0
LINE
  5
   561
  8
0
  6
CONTINUOUS
 62
     1
 10
-90.3025369220977
 20
68.9152144700402
 30
0.0
 11
-90.3025369220977
 21
95.5399317145348
 31
0.0
  0
LINE
  5
   562
  8
0
  6
CONTINUOUS
 62
     1
 10
-89.2225854021279
 20
68.9151961594926
 30
0.0
 11
-89.2225854021279
 21
95.5399317145348
 31
0.0
  0
LINE
  5
   563
  8
0
  6
CONTINUOUS
 62
     1
 10
-88.142583528158
 20
68.9151961594926
 30
0.0
 11
-88.142583528158
 21
95.5399317145348
 31
0.0
  0
LINE
  5
   564
  8
0
  6
CONTINUOUS
 62
     1
 10
-87.0625816541883
 20
68.9151961594926
 30
0.0
 11
-87.0625816541883
 21
95.5399317145348
 31
0.0
  0
LINE
  5
   565
  8
0
  6
CONTINUOUS
 62
     1
 10
-85.9825797802185
 20
68.9151961594926
 30
0.0
 11
-85.9825797802185
 21
95.5399317145348
 31
0.0
  0
LINE
  5
   566
  8
0
  6
CONTINUOUS
 62
     1
 10
-84.9025870615224
 20
68.9151961594926
 30
0.0
 11
-84.9025870615224
 21
95.5399317145348
 31
0.0
  0
LINE
  5
   567
  8
0
  6
CONTINUOUS
 62
     1
 10
-83.8225851875526
 20
68.9151961594926
 30
0.0
 11
-83.8225851875526
 21
95.5399317145348
 31
0.0
  0
LINE
  5
   568
  8
0
  6
CONTINUOUS
 62
     1
 10
-82.7425833135829
 20
68.9151961594926
 30
0.0
 11
-82.7425833135829
 21
95.5399317145348
 31
0.0
  0
LINE
  5
   569
  8
0
  6
CONTINUOUS
 62
     1
 10
-81.6625814396131
 20
68.9151961594926
 30
0.0
 11
-81.6625814396131
 21
95.5399317145348
 31
0.0
  0
LINE
  5
   56A
  8
0
  6
CONTINUOUS
 62
     1
 10
-80.4325352558537
 20
80.9725528899717
 30
0.0
 11
-80.4325135689061
 21
95.5399317145348
 31
0.0
  0
CIRCLE
  5
   56B
  8
0
  6
CONTINUOUS
 62
     1
 10
-79.6674947871927
 20
79.8651950046913
 30
0.0
 40
1.35059393238156
  0
LINE
  5
   56C
  8
0
  6
CONTINUOUS
 62
     1
 10
-80.5825383669144
 20
68.9151961594926
 30
0.0
 11
-80.5825383669144
 21
78.8937167586401
 31
0.0
  0
LINE
  5
   56D
  8
0
  6
CONTINUOUS
 62
     1
 10
-79.5025364929443
 20
68.9151961594926
 30
0.0
 11
-79.5025364929443
 21
78.5407351772311
 31
0.0
  0
LINE
  5
   56E
  8
0
  6
CONTINUOUS
 62
     1
 10
-79.3525450910561
 20
81.1659200640906
 30
0.0
 11
-79.3525233501849
 21
95.5399317145348
 31
0.0
  0
LINE
  5
   56F
  8
0
  6
CONTINUOUS
 62
     1
 10
-78.4225466785747
 20
80.3600980443096
 30
0.0
 11
-78.4225251516859
 21
95.5399317145348
 31
0.0
  0
LINE
  5
   570
  8
0
  6
CONTINUOUS
 62
     1
 10
-77.3425785213718
 20
68.9151961594926
 30
0.0
 11
-77.3425785213718
 21
95.5399317145348
 31
0.0
  0
LINE
  5
   571
  8
0
  6
CONTINUOUS
 62
     1
 10
-76.2625903803117
 20
68.9151961594926
 30
0.0
 11
-76.2625903803117
 21
95.5399317145348
 31
0.0
  0
LINE
  5
   572
  8
0
  6
CONTINUOUS
 62
     1
 10
-75.1825793510688
 20
68.9151961594926
 30
0.0
 11
-75.1825793510688
 21
95.5399317145348
 31
0.0
  0
LINE
  5
   573
  8
0
  6
CONTINUOUS
 62
     1
 10
-74.1025774770989
 20
68.9151961594926
 30
0.0
 11
-74.1025774770989
 21
95.5399317145348
 31
0.0
  0
LINE
  5
   574
  8
0
  6
CONTINUOUS
 62
     1
 10
-73.0225896221418
 20
68.9151961594926
 30
0.0
 11
-73.0225896221418
 21
95.5399317145348
 31
0.0
  0
LINE
  5
   575
  8
0
  6
CONTINUOUS
 62
     1
 10
-71.9425897508881
 20
68.9151961594926
 30
0.0
 11
-71.9425897508881
 21
93.3650552243044
 31
0.0
  0
LINE
  5
   576
  8
0
  6
CONTINUOUS
 62
     1
 10
-71.9425897508881
 20
68.9151961594926
 30
0.0
 11
-71.9425897508881
 21
95.5399317145348
 31
0.0
  0
LINE
  5
   577
  8
0
  6
CONTINUOUS
 62
     1
 10
-70.8625915962481
 20
68.9151961594926
 30
0.0
 11
-70.8625915962481
 21
95.5399317145348
 31
0.0
  0
LINE
  5
   578
  8
0
  6
CONTINUOUS
 62
     1
 10
-69.782588577869
 20
68.9151961594926
 30
0.0
 11
-69.782588577869
 21
95.5399317145348
 31
0.0
  0
LINE
  5
   579
  8
0
  6
CONTINUOUS
 62
     1
 10
-78.4225483518849
 20
68.9151961594926
 30
0.0
 11
-78.4225483518849
 21
79.3702579152715
 31
0.0
  0
LINE
  5
   57A
  8
0
  6
DASHDOT
 62
     7
 10
-75.3169007356018
 20
79.8651950046913
 30
0.0
 11
-84.0180888387835
 21
79.8651950046913
 31
0.0
  0
LINE
  5
   57B
  8
0
  6
CONTINUOUS
 62
     1
 10
-79.6674947871927
 20
75.5146009531004
 30
0.0
 11
-79.6674947871927
 21
93.3650552243044
 31
0.0
  0
LINE
  5
   57C
  8
0
  6
CONTINUOUS
 62
     1
 10
-90.3025204426049
 20
-30.4600732922554
 30
0.0
 11
-90.3025204426049
 21
-6.98479814724103
 31
0.0
  0
LINE
  5
   57D
  8
0
  6
CONTINUOUS
 62
     1
 10
-89.2225854021279
 20
-30.4600732922554
 30
0.0
 11
-89.2225854021279
 21
-6.98479814724102
 31
0.0
  0
LINE
  5
   57E
  8
0
  6
CONTINUOUS
 62
     1
 10
-88.142583528158
 20
-30.4600732922554
 30
0.0
 11
-88.142583528158
 21
-6.98479814724102
 31
0.0
  0
LINE
  5
   57F
  8
0
  6
CONTINUOUS
 62
     1
 10
-87.0625816541883
 20
-30.4600732922554
 30
0.0
 11
-87.0625816541883
 21
-6.98479814724102
 31
0.0
  0
LINE
  5
   580
  8
0
  6
CONTINUOUS
 62
     1
 10
-85.9825797802185
 20
-30.4600732922554
 30
0.0
 11
-85.9825797802185
 21
-6.98479814724103
 31
0.0
  0
LINE
  5
   581
  8
0
  6
CONTINUOUS
 62
     1
 10
-84.9025870615224
 20
-30.4600732922554
 30
0.0
 11
-84.9025870615224
 21
-6.98479814724103
 31
0.0
  0
LINE
  5
   582
  8
0
  6
CONTINUOUS
 62
     1
 10
-83.8225851875526
 20
-30.4600732922554
 30
0.0
 11
-83.8225851875526
 21
-6.98479814724103
 31
0.0
  0
LINE
  5
   583
  8
0
  6
CONTINUOUS
 62
     1
 10
-82.7425833135829
 20
-30.4600732922554
 30
0.0
 11
-82.7425833135829
 21
-6.98479814724103
 31
0.0
  0
LINE
  5
   584
  8
0
  6
CONTINUOUS
 62
     1
 10
-81.6625814396131
 20
-30.4600732922554
 30
0.0
 11
-81.6625814396131
 21
-6.98479814724103
 31
0.0
  0
LINE
  5
   585
  8
0
  6
CONTINUOUS
 62
     1
 10
-80.5825383669144
 20
-30.4600732922554
 30
0.0
 11
-80.5825383669144
 21
-15.9283205927432
 31
0.0
  0
LINE
  5
   586
  8
0
  6
CONTINUOUS
 62
     1
 10
-79.5025364929443
 20
-30.4600732922554
 30
0.0
 11
-79.5025364929443
 21
-16.2754251872535
 31
0.0
  0
LINE
  5
   587
  8
0
  6
CONTINUOUS
 62
     1
 10
-80.5825383669144
 20
-13.9415652304542
 30
0.0
 11
-80.5825383669144
 21
-6.98479814724103
 31
0.0
  0
LINE
  5
   588
  8
0
  6
CONTINUOUS
 62
     1
 10
-79.5025364929443
 20
-13.594460635944
 30
0.0
 11
-79.5025364929443
 21
-6.98479814724103
 31
0.0
  0
LINE
  5
   589
  8
0
  6
CONTINUOUS
 62
     1
 10
-79.6674947871927
 20
-19.2855369631896
 30
0.0
 11
-79.6674947871927
 21
-6.98479814724103
 31
0.0
  0
CIRCLE
  5
   58A
  8
0
  6
CONTINUOUS
 62
     1
 10
-79.6674947871927
 20
-14.9349429115987
 30
0.0
 40
1.35059393238156
  0
LINE
  5
   58B
  8
0
  6
CONTINUOUS
 62
     1
 10
-78.4225483518849
 20
-14.4112900271415
 30
0.0
 11
-78.4225483518849
 21
-6.98479814724103
 31
0.0
  0
LINE
  5
   58C
  8
0
  6
CONTINUOUS
 62
     1
 10
-78.4225483518849
 20
-30.4600732922554
 30
0.0
 11
-78.4225483518849
 21
-15.4585957960559
 31
0.0
  0
LINE
  5
   58D
  8
0
  6
DASHDOT
 62
     7
 10
-75.3169007356018
 20
-14.9349429115987
 30
0.0
 11
-84.0180888387835
 21
-14.9349429115987
 31
0.0
  0
LINE
  5
   58E
  8
0
  6
CONTINUOUS
 62
     1
 10
-77.3425785213718
 20
-30.4600732922554
 30
0.0
 11
-77.3425785213718
 21
-6.98479814724103
 31
0.0
  0
LINE
  5
   58F
  8
0
  6
CONTINUOUS
 62
     1
 10
-76.2625903803117
 20
-30.4600732922554
 30
0.0
 11
-76.2625903803117
 21
-6.98479814724103
 31
0.0
  0
LINE
  5
   590
  8
0
  6
CONTINUOUS
 62
     1
 10
-75.1825793510688
 20
-30.4600732922554
 30
0.0
 11
-75.1825793510688
 21
-6.98479814724103
 31
0.0
  0
LINE
  5
   591
  8
0
  6
CONTINUOUS
 62
     1
 10
-74.1025774770989
 20
-30.4600732922554
 30
0.0
 11
-74.1025774770989
 21
-6.98479814724103
 31
0.0
  0
LINE
  5
   592
  8
0
  6
CONTINUOUS
 62
     1
 10
-73.0225896221418
 20
-30.4600732922554
 30
0.0
 11
-73.0225896221418
 21
-6.98479814724103
 31
0.0
  0
LINE
  5
   593
  8
0
  6
CONTINUOUS
 62
     1
 10
-71.9425897508881
 20
-30.4600732922554
 30
0.0
 11
-71.9425897508881
 21
-6.98479814724103
 31
0.0
  0
LINE
  5
   594
  8
0
  6
CONTINUOUS
 62
     1
 10
-70.8625915962481
 20
-30.4600732922554
 30
0.0
 11
-70.8625915962481
 21
-6.98479814724103
 31
0.0
  0
LINE
  5
   595
  8
0
  6
CONTINUOUS
 62
     1
 10
-69.782588577869
 20
-30.4600732922554
 30
0.0
 11
-69.782588577869
 21
-6.98479814724103
 31
0.0
  0
LINE
  5
   596
  8
0
  6
CONTINUOUS
 62
     1
 10
-69.782588577869
 20
59.4649270662579
 30
0.0
 11
-69.782588577869
 21
68.4652007192481
 31
0.0
  0
LINE
  5
   597
  8
0
  6
CONTINUOUS
 62
     1
 10
-70.8625915962481
 20
59.4649270662579
 30
0.0
 11
-70.8625915962481
 21
68.4652007192481
 31
0.0
  0
LINE
  5
   598
  8
0
  6
CONTINUOUS
 62
     1
 10
-71.9425897508881
 20
59.4649270662579
 30
0.0
 11
-71.9425897508881
 21
68.4652007192481
 31
0.0
  0
LINE
  5
   599
  8
0
  6
CONTINUOUS
 62
     1
 10
-73.0225896221418
 20
59.4649270662579
 30
0.0
 11
-73.0225896221418
 21
68.4652007192481
 31
0.0
  0
LINE
  5
   59A
  8
0
  6
CONTINUOUS
 62
     1
 10
-74.1025774770989
 20
59.4649270662579
 30
0.0
 11
-74.1025774770989
 21
68.4652007192481
 31
0.0
  0
LINE
  5
   59B
  8
0
  6
CONTINUOUS
 62
     1
 10
-75.1825793510688
 20
59.4649270662579
 30
0.0
 11
-75.1825793510688
 21
68.4652007192481
 31
0.0
  0
LINE
  5
   59C
  8
0
  6
CONTINUOUS
 62
     1
 10
-76.2625903803117
 20
59.4649270662579
 30
0.0
 11
-76.2625903803117
 21
68.4652007192481
 31
0.0
  0
LINE
  5
   59D
  8
0
  6
CONTINUOUS
 62
     1
 10
-78.4225483518849
 20
-6.53479997216564
 30
0.0
 11
-78.4225483518849
 21
68.4652007192481
 31
0.0
  0
LINE
  5
   59E
  8
0
  6
CONTINUOUS
 62
     1
 10
-77.3425785213718
 20
-6.53479997216564
 30
0.0
 11
-77.3425785213718
 21
68.4652007192481
 31
0.0
  0
LINE
  5
   59F
  8
0
  6
CONTINUOUS
 62
     1
 10
-79.5025364929443
 20
-6.53479997216564
 30
0.0
 11
-79.5025364929443
 21
68.4652007192481
 31
0.0
  0
LINE
  5
   5A0
  8
0
  6
CONTINUOUS
 62
     1
 10
-80.5825383669144
 20
-6.53479997216564
 30
0.0
 11
-80.5825383669144
 21
68.4652007192481
 31
0.0
  0
LINE
  5
   5A1
  8
0
  6
CONTINUOUS
 62
     1
 10
-81.6625814396131
 20
-6.53479997216564
 30
0.0
 11
-81.6625814396131
 21
68.4652007192481
 31
0.0
  0
LINE
  5
   5A2
  8
0
  6
CONTINUOUS
 62
     1
 10
-82.7425833135829
 20
-6.53479997216564
 30
0.0
 11
-82.7425833135829
 21
68.4652007192481
 31
0.0
  0
LINE
  5
   5A3
  8
0
  6
CONTINUOUS
 62
     1
 10
-83.8225851875526
 20
-6.53479997216564
 30
0.0
 11
-83.8225851875526
 21
68.4652007192481
 31
0.0
  0
LINE
  5
   5A4
  8
0
  6
CONTINUOUS
 62
     1
 10
-84.9025870615224
 20
-6.53479997216564
 30
0.0
 11
-84.9025870615224
 21
68.4652007192481
 31
0.0
  0
LINE
  5
   5A5
  8
0
  6
CONTINUOUS
 62
     1
 10
-85.9825797802185
 20
-6.53479997216564
 30
0.0
 11
-85.9825797802185
 21
68.4652007192481
 31
0.0
  0
LINE
  5
   5A6
  8
0
  6
CONTINUOUS
 62
     1
 10
-87.0625816541883
 20
-6.53479997216564
 30
0.0
 11
-87.0625816541883
 21
68.4652007192481
 31
0.0
  0
LINE
  5
   5A7
  8
0
  6
CONTINUOUS
 62
     1
 10
-88.142583528158
 20
-6.53479997216564
 30
0.0
 11
-88.142583528158
 21
68.4652007192481
 31
0.0
  0
LINE
  5
   5A8
  8
0
  6
CONTINUOUS
 62
     1
 10
-89.2225854021279
 20
-6.53479997216564
 30
0.0
 11
-89.2225854021279
 21
68.4652007192481
 31
0.0
  0
LINE
  5
   5A9
  8
0
  6
CONTINUOUS
 62
     1
 10
-90.3025369220977
 20
-6.53479997216564
 30
0.0
 11
-90.3025369220977
 21
68.4652007192481
 31
0.0
  0
LINE
  5
   5AA
  8
0
  6
CONTINUOUS
 62
   152
 10
-16.6675211787224
 20
95.5399317145348
 30
0.0
 11
-100.667524516582
 21
95.5399317145348
 31
0.0
  0
LINE
  5
   5AB
  8
0
  6
CONTINUOUS
 62
   152
 10
-16.6675211787224
 20
-30.4600732922554
 30
0.0
 11
-100.667524516582
 21
-30.4600732922554
 31
0.0
  0
INSERT
  5
   5AC
  8
255
  6
CONTINUOUS
 62
     2
  2
$1MOSTRA
 10
-48.1675237205135
 20
8.23992960839618
 30
0.0
 41
0.300000011920929
 42
0.300000011920929
 50
359.999999792138
 43
0.300000011920929
  0
LINE
  5
   5AD
  8
0
  6
CONTINUOUS
 62
     1
 10
-75.1825793510688
 20
-6.53479997216564
 30
0.0
 11
-75.1825793510688
 21
0.664923013141985
 31
0.0
  0
LINE
  5
   5AE
  8
0
  6
CONTINUOUS
 62
     1
 10
-74.1025774770989
 20
-6.53479997216564
 30
0.0
 11
-74.1025774770989
 21
0.664923013141985
 31
0.0
  0
LINE
  5
   5AF
  8
0
  6
CONTINUOUS
 62
     1
 10
-73.0225896221418
 20
-6.53479997216564
 30
0.0
 11
-73.0225896221418
 21
0.664923013141985
 31
0.0
  0
LINE
  5
   5B0
  8
0
  6
CONTINUOUS
 62
     1
 10
-71.9425897508881
 20
-6.53479997216564
 30
0.0
 11
-71.9425897508881
 21
0.664923013141985
 31
0.0
  0
LINE
  5
   5B1
  8
0
  6
CONTINUOUS
 62
     1
 10
-70.8625915962481
 20
-6.53479997216564
 30
0.0
 11
-70.8625915962481
 21
0.664923013141985
 31
0.0
  0
LINE
  5
   5B2
  8
0
  6
CONTINUOUS
 62
     1
 10
-69.782588577869
 20
-6.53479997216564
 30
0.0
 11
-69.782588577869
 21
0.664923013141985
 31
0.0
  0
CIRCLE
  5
   5B3
  8
0
  6
CONTINUOUS
 62
     1
 10
-11.5675073757816
 20
24.8898999386024
 30
0.0
 40
1.57500678418911
  0
LINE
  5
   5B4
  8
0
  6
DOT
 62
     7
 10
-16.6675211787224
 20
0.664923013141985
 30
0.0
 11
-16.6675211787224
 21
59.4649270662579
 31
0.0
  0
LINE
  5
   5B5
  8
0
  6
DOT
 62
     7
 10
-8.86752215887181
 20
55.6399347066881
 30
0.0
 11
-16.6675211787224
 21
55.6399347066881
 31
0.0
  0
LINE
  5
   5B6
  8
0
  6
DOT
 62
     7
 10
-8.86752215887181
 20
46.0399366140368
 30
0.0
 11
-16.6675211787224
 21
46.0399366140368
 31
0.0
  0
LINE
  5
   5B7
  8
0
  6
DOT
 62
     7
 10
-8.86752215887181
 20
37.0399318549175
 30
0.0
 11
-16.6675211787224
 21
37.0399501654628
 31
0.0
  0
LINE
  5
   5B8
  8
0
  6
DOT
 62
     7
 10
-8.86752215887182
 20
12.2149261146783
 30
0.0
 11
-16.6675211787224
 21
12.2149261146783
 31
0.0
  0
LINE
  5
   5B9
  8
0
  6
DASHDOT
 62
     7
 10
-11.5675073757816
 20
22.4148931186505
 30
0.0
 11
-11.5675073757816
 21
27.3649067585542
 31
0.0
  0
LINE
  5
   5BA
  8
0
  6
DASHDOT
 62
     7
 10
-9.09250055582968
 20
24.8898999386024
 30
0.0
 11
-14.0425141957335
 21
24.8898999386024
 31
0.0
  0
LINE
  5
   5BB
  8
0
  6
CONTINUOUS
 62
     1
 10
-76.2625903803117
 20
-6.53479997216564
 30
0.0
 11
-76.2625903803117
 21
0.664923013141985
 31
0.0
  0
TEXT
  5
   5BC
  8
0
  6
CONTINUOUS
 62
     1
 10
-70.3849487313707
 20
-127.948707658694
 30
0.0
 40
2.00000008543332
  1
SCARPELLINI
 50
359.999999948034
 41
0.749999876022339
 72
     2
 11
-54.1849507191857
 21
-127.948707673306
 31
0.0
  0
TEXT
  5
   5BD
  8
0
  6
CONTINUOUS
 62
     1
 10
-31.9846177560169
 20
-134.937879572434
 30
0.0
 40
2.00000008543332
  1
M 4504 98-11-17
 50
359.999999948034
 41
0.749999876022339
 72
     1
 11
-20.8846191167831
 21
-133.937879539729
 31
0.0
 73
     2
  0
TEXT
  5
   5BE
  8
0
  6
CONTINUOUS
 62
     1
 10
-56.8246141816095
 20
-134.937875900502
 30
0.0
 40
2.00000008543332
  1
M 3076 95-01-16
 50
359.999999948034
 41
0.749999876022339
 72
     1
 11
-45.7246155423758
 21
-133.937875867796
 31
0.0
 73
     2
  0
TEXT
  5
   5BF
  8
0
  6
CONTINUOUS
 62
     7
 10
3.4451229539787
 20
19.4143793976411
 30
0.0
 40
2.99999994039535
  1
=      =
 50
89.9999999480344
 41
0.916666655739148
 72
     1
 11
1.94512299349481
 21
30.1393790711741
 31
0.0
 73
     2
  0
INSERT
  5
   5C0
  8
0
  6
CONTINUOUS
 62
     7
  2
*UDIM1696
 10
0.0
 20
0.0
 30
0.0
  0
TEXT
  5
   5C1
  8
0
  6
CONTINUOUS
 62
     7
 10
2.31913109252871
 20
29.1257529088642
 30
0.0
 40
4.00000017086665
  1
x
 50
359.999999948034
 41
0.91562505146116
 72
     1
 11
3.78413122168786
 21
31.1257529929762
 31
0.0
 73
     2
  0
INSERT
  5
   5C2
  8
0
  6
CONTINUOUS
 62
     7
  2
*UDIM1697
 10
0.0
 20
0.0
 30
0.0
  0
INSERT
  5
   5C3
  8
0
  6
CONTINUOUS
 62
     7
  2
*UDIM1698
 10
0.0
 20
0.0
 30
0.0
  0
INSERT
  5
   5C4
  8
0
  6
CONTINUOUS
 62
     7
  2
*UDIM1699
 10
0.0
 20
0.0
 30
0.0
  0
INSERT
  5
   5C5
  8
0
  6
CONTINUOUS
 62
     7
  2
*UDIM1700
 10
0.0
 20
0.0
 30
0.0
  0
TEXT
  5
   5C6
  8
0
  6
CONTINUOUS
 62
     7
 10
-50.1009338125609
 20
113.128015310535
 30
0.0
 40
4.00000017086665
  1
Y
 50
359.999999948034
 41
0.91562505146116
 72
     1
 11
-48.6359336834018
 21
115.128015394647
 31
0.0
 73
     2
  0
TEXT
  5
   5C7
  8
0
  6
CONTINUOUS
 62
     7
 10
-49.5338465509999
 20
-53.3121020820096
 30
0.0
 40
4.00000017086665
  1
Y
 50
359.999999948034
 41
0.91562505146116
 72
     1
 11
-48.0688464218407
 21
-51.3121019978977
 31
0.0
 73
     2
  0
INSERT
  5
   5C8
  8
0
  6
CONTINUOUS
 62
     7
  2
*UDIM1701
 10
0.0
 20
0.0
 30
0.0
  0
TEXT
  5
   5C9
  8
0
  6
CONTINUOUS
 62
     7
 10
-62.7779132607308
 20
98.5255184039549
 30
0.0
 40
4.00000017086665
  1
=      =
 50
359.999999948034
 41
0.91562505146116
 72
     1
 11
-48.4941618635412
 21
100.525518476505
 31
0.0
 73
     2
  0
INSERT
  5
   5CA
  8
0
  6
CONTINUOUS
 62
     7
  2
*UDIM1702
 10
0.0
 20
0.0
 30
0.0
  0
INSERT
  5
   5CB
  8
0
  6
CONTINUOUS
 62
     7
  2
*UDIM1703
 10
0.0
 20
0.0
 30
0.0
  0
INSERT
  5
   5CC
  8
0
  6
CONTINUOUS
 62
     7
  2
*UDIM1704
 10
0.0
 20
0.0
 30
0.0
  0
TEXT
  5
   5CD
  8
0
  6
CONTINUOUS
 62
     1
 10
-70.3849480446216
 20
-119.481957310095
 30
0.0
 40
2.00000008543332
  1
93-04-05 FERRARI M.
 50
359.999999948034
 41
0.749999876022339
 72
     2
 11
-42.1849515034793
 21
-119.48195733553
 31
0.0
  0
TEXT
  5
   5CE
  8
0
  6
CONTINUOUS
 62
     1
 10
37.5993023523287
 20
-146.016800098679
 30
0.0
 40
4.00000017086665
  1
601840/211
 50
359.999999948034
 41
0.937499953061342
 72
     2
 11
74.3493020446197
 21
-146.016800131825
 31
0.0
  0
TEXT
  5
   5CF
  8
0
  6
CONTINUOUS
 62
     1
 10
38.6849987851985
 20
-137.035214260324
 30
0.0
 40
2.99999994039535
  1
     S7
 50
359.999999948034
 41
0.916666655739148
 72
     2
 11
57.3849982169675
 21
-137.03521427719
 31
0.0
  0
TEXT
  5
   5D0
  8
0
  6
CONTINUOUS
 62
     1
 10
27.1505760706603
 20
-118.724948058302
 30
0.0
 40
2.00000008543332
  1
4POLE LOW VOLTAGE M.C.C.B SERIES ISOMAX
 50
359.999999948034
 41
0.749999876022339
 72
     1
 11
56.25057250333
 21
-117.724948041832
 31
0.0
 73
     2
  0
TEXT
  5
   5D1
  8
0
  6
CONTINUOUS
 62
     1
 10
30.1505758340337
 20
-121.724948061007
 30
0.0
 40
2.00000008543332
  1
WITHDRAWABLE VERSION REAR TERMINALS
 50
359.999999948034
 41
0.749999876022339
 72
     1
 11
56.2505726344641
 21
-120.724948041832
 31
0.0
 73
     2
  0
TEXT
  5
   5D2
  8
0
  6
CONTINUOUS
 62
     1
 10
30.3529707321124
 20
-126.795212056948
 30
0.0
 40
2.00000008543332
  1
INTERR.AUTOMATICO SERIE ISOMAX
 50
359.999999948034
 41
0.749999876022339
 72
     1
 11
52.7029679922436
 21
-125.79521203439
 31
0.0
 73
     2
  0
TEXT
  5
   5D3
  8
0
  6
CONTINUOUS
 62
     1
 10
18.3529723342893
 20
-129.795212046125
 30
0.0
 40
2.00000008543332
  1
TETRAP.ESECUZIONE ESTRAIBILE TERMIN.POSTERIORI
 50
359.999999948034
 41
0.749999876022339
 72
     1
 11
52.7029681233778
 21
-128.79521203439
 31
0.0
 73
     2
  0
LINE
  5
   5D4
  8
0
  6
CONTINUOUS
 62
     7
 10
-133.932586669922
 20
-86.9681842642228
 30
0.0
 11
-133.932586669922
 21
-110.884705750426
 31
0.0
  0
LINE
  5
   5D5
  8
0
  6
CONTINUOUS
 62
     7
 10
-135.932586669922
 20
-86.9681842642228
 30
0.0
 11
-135.932586669922
 21
-110.884705750426
 31
0.0
  0
LINE
  5
   5D6
  8
0
  6
DASHDOT
 62
     7
 10
-139.135189772319
 20
-98.9264450073242
 30
0.0
 11
-130.708970579882
 21
-98.9264450073242
 31
0.0
  0
POINT
  5
   5D7
  8
0
  6
CONTINUOUS
 62
     7
 10
-135.932586669922
 20
-96.9264450073242
 30
0.0
  0
POINT
  5
   5D8
  8
0
  6
CONTINUOUS
 62
     7
 10
-135.932586669922
 20
-100.926445007324
 30
0.0
  0
LINE
  5
   5D9
  8
0
  6
CONTINUOUS
 62
     7
 10
-133.932586669922
 20
-95.2482457449697
 30
0.0
 11
-135.932586669922
 21
-96.9264450073242
 31
0.0
  0
LINE
  5
   5DA
  8
0
  6
CONTINUOUS
 62
     7
 10
-135.932586669922
 20
-100.926445007324
 30
0.0
 11
-133.932586669922
 21
-102.604644269679
 31
0.0
  0
LINE
  5
   5DB
  8
0
  6
CONTINUOUS
 62
     7
 10
-135.932586669922
 20
-108.426445007324
 30
0.0
 11
-133.932586669922
 21
-108.426445007324
 31
0.0
  0
CIRCLE
  5
   5DC
  8
0
  6
CONTINUOUS
 62
     7
 10
-134.932586669922
 20
-98.9264450073242
 30
0.0
 40
12.0
  0
LINE
  5
   5DD
  8
0
  6
CONTINUOUS
 62
     7
 10
-141.932579040527
 20
-103.426445007324
 30
0.0
 11
-139.432579040527
 21
-103.426445007324
 31
0.0
  0
LINE
  5
   5DE
  8
0
  6
CONTINUOUS
 62
     7
 10
-138.432579040527
 20
-94.4264450073242
 30
0.0
 11
-138.432579040527
 21
-102.426445007324
 31
0.0
  0
LINE
  5
   5DF
  8
0
  6
CONTINUOUS
 62
     7
 10
-138.432579040527
 20
-94.4264450073242
 30
0.0
 11
-135.932586669922
 21
-94.4264450073242
 31
0.0
  0
LINE
  5
   5E0
  8
0
  6
CONTINUOUS
 62
     7
 10
-141.932579040527
 20
-105.926445007324
 30
0.0
 11
-139.432579040527
 21
-105.926445007324
 31
0.0
  0
LINE
  5
   5E1
  8
0
  6
CONTINUOUS
 62
     7
 10
-142.932579040527
 20
-106.926445007324
 30
0.0
 11
-142.932579040527
 21
-107.870723741255
 31
0.0
  0
ARC
  5
   5E2
  8
0
  6
CONTINUOUS
 62
     7
 10
-139.432574893247
 20
-102.426445678663
 30
0.0
 40
0.999996977799109
 50
629.999840735313
 51
720.000252836193
  0
ARC
  5
   5E3
  8
0
  6
CONTINUOUS
 62
     7
 10
-141.932564387021
 20
-106.926457693629
 30
0.0
 40
3.50001845311552
 50
450.000186734275
 51
513.408761128067
  0
ARC
  5
   5E4
  8
0
  6
CONTINUOUS
 62
     7
 10
-141.932623288677
 20
-106.926404112542
 30
0.0
 40
0.999949821243504
 50
449.997764042825
 51
540.001169660043
  0
ARC
  5
   5E5
  8
0
  6
CONTINUOUS
 62
     7
 10
-139.432559688146
 20
-102.426477054259
 30
0.0
 40
3.49997105594423
 50
629.999653243441
 51
720.000420168909
  0
INSERT
  5
   5E6
  8
0
  6
CONTINUOUS
 62
     7
  2
*HATCH327
 10
-134.932586669922
 20
-98.9264450073242
 30
0.0
 50
269.999999844103
  0
INSERT
  5
   5E7
  8
0
  6
CONTINUOUS
 62
     7
  2
*HATCH328
 10
-134.932586669922
 20
-98.9264450073242
 30
0.0
 50
269.999999844103
  0
LINE
  5
   5E8
  8
0
  6
CONTINUOUS
 62
     7
 10
-155.235802359185
 20
-86.9569903091069
 30
0.0
 11
-155.235802359185
 21
-111.539178095691
 31
0.0
  0
INSERT
  5
   5E9
  8
0
  6
CONTINUOUS
 62
     7
  2
*UDIM1705
 10
0.0
 20
0.0
 30
0.0
  0
INSERT
  5
   5EA
  8
0
  6
CONTINUOUS
 62
     7
  2
*UDIM1706
 10
0.0
 20
0.0
 30
0.0
  0
LINE
  5
   5EB
  8
0
  6
DASHDOT
 62
     2
 10
34.0267333984375
 20
98.2868348775104
 30
0.0
 11
34.0267333984375
 21
37.5379282883566
 31
0.0
  0
LINE
  5
   5EC
  8
0
  6
DASHDOT
 62
     2
 10
4.22070870790162
 20
67.2091369628906
 30
0.0
 11
75.2342013910815
 21
67.2091369628906
 31
0.0
  0
LINE
  5
   5ED
  8
0
  6
CONTINUOUS
 62
     7
 10
11.6517333984375
 20
87.3341369628906
 30
0.0
 11
54.1517333984375
 21
87.3341369628906
 31
0.0
  0
LINE
  5
   5EE
  8
0
  6
CONTINUOUS
 62
     7
 10
11.6517333984375
 20
47.0841369628906
 30
0.0
 11
54.1517333984375
 21
47.0841369628906
 31
0.0
  0
CIRCLE
  5
   5EF
  8
0
  6
CONTINUOUS
 62
     7
 10
59.2767333984375
 20
67.2091369628906
 30
0.0
 40
1.0
  0
CIRCLE
  5
   5F0
  8
0
  6
CONTINUOUS
 62
     7
 10
38.9642333984375
 20
89.3341369628906
 30
0.0
 40
0.875
  0
CIRCLE
  5
   5F1
  8
0
  6
CONTINUOUS
 62
     7
 10
18.6517333984375
 20
89.3341369628906
 30
0.0
 40
0.875
  0
CIRCLE
  5
   5F2
  8
0
  6
CONTINUOUS
 62
     7
 10
59.2767333984375
 20
45.0841369628906
 30
0.0
 40
0.875
  0
CIRCLE
  5
   5F3
  8
0
  6
CONTINUOUS
 62
     7
 10
38.9642333984375
 20
45.0841369628906
 30
0.0
 40
1.0
  0
CIRCLE
  5
   5F4
  8
0
  6
CONTINUOUS
 62
     7
 10
18.6517333984375
 20
45.0841369628906
 30
0.0
 40
1.0
  0
CIRCLE
  5
   5F5
  8
0
  6
CONTINUOUS
 62
     7
 10
59.2767333984375
 20
89.3341369628906
 30
0.0
 40
1.0
  0
LINE
  5
   5F6
  8
0
  6
DASHDOT
 62
     7
 10
59.2767333984375
 20
90.9591369628906
 30
0.0
 11
59.2767333984375
 21
68.6335861614353
 31
0.0
  0
LINE
  5
   5F7
  8
0
  6
DASHDOT
 62
     7
 10
57.6517333984375
 20
89.3341369628906
 30
0.0
 11
60.9017333984375
 21
89.3341369628906
 31
0.0
  0
LINE
  5
   5F8
  8
0
  6
DASHDOT
 62
     7
 10
38.9642333984375
 20
98.3555893089513
 30
0.0
 11
38.9642333984375
 21
87.7091369628906
 31
0.0
  0
LINE
  5
   5F9
  8
0
  6
DASHDOT
 62
     7
 10
37.3392333984375
 20
89.3341369628906
 30
0.0
 11
40.5892333984375
 21
89.3341369628906
 31
0.0
  0
LINE
  5
   5FA
  8
0
  6
DASHDOT
 62
     7
 10
18.6517333984375
 20
90.9591369628906
 30
0.0
 11
18.6517333984375
 21
87.7091369628906
 31
0.0
  0
LINE
  5
   5FB
  8
0
  6
DASHDOT
 62
     7
 10
17.0267333984375
 20
89.3341369628906
 30
0.0
 11
20.2767333984375
 21
89.3341369628906
 31
0.0
  0
LINE
  5
   5FC
  8
0
  6
DASHDOT
 62
     7
 10
38.9642333984375
 20
46.7091369628906
 30
0.0
 11
38.9642333984375
 21
43.4591369628906
 31
0.0
  0
LINE
  5
   5FD
  8
0
  6
DASHDOT
 62
     7
 10
37.3392333984375
 20
45.0841369628906
 30
0.0
 11
40.5892333984375
 21
45.0841369628906
 31
0.0
  0
LINE
  5
   5FE
  8
0
  6
DASHDOT
 62
     7
 10
59.2767333984375
 20
46.7091369628906
 30
0.0
 11
59.2767333984375
 21
43.4591369628906
 31
0.0
  0
LINE
  5
   5FF
  8
0
  6
DASHDOT
 62
     7
 10
57.6517333984375
 20
45.0841369628906
 30
0.0
 11
60.9017333984375
 21
45.0841369628906
 31
0.0
  0
LINE
  5
   600
  8
0
  6
DASHDOT
 62
     7
 10
18.6517333984375
 20
46.7091369628906
 30
0.0
 11
18.6517333984375
 21
43.4591369628906
 31
0.0
  0
LINE
  5
   601
  8
0
  6
DASHDOT
 62
     7
 10
17.0267333984375
 20
45.0841369628906
 30
0.0
 11
20.2767333984375
 21
45.0841369628906
 31
0.0
  0
LINE
  5
   602
  8
0
  6
DASHDOT
 62
     7
 10
59.2767333984375
 20
68.8341369628906
 30
0.0
 11
59.2767333984375
 21
46.9303600083804
 31
0.0
  0
ARC
  5
   603
  8
0
  6
CONTINUOUS
 62
     7
 10
64.2767333984375
 20
62.9591369628906
 30
0.0
 40
2.0
 50
359.999999844103
 51
539.999999844103
  0
ARC
  5
   604
  8
0
  6
CONTINUOUS
 62
     7
 10
64.2767333984375
 20
57.2091369628906
 30
0.0
 40
2.0
 50
539.999999844103
 51
719.999999844103
  0
LINE
  5
   605
  8
0
  6
CONTINUOUS
 62
     7
 10
66.2767333984375
 20
62.9591369628906
 30
0.0
 11
66.2767333984375
 21
57.2091369628906
 31
0.0
  0
LINE
  5
   606
  8
0
  6
CONTINUOUS
 62
     7
 10
62.2767333984375
 20
62.9591369628906
 30
0.0
 11
62.2767333984375
 21
57.2091369628906
 31
0.0
  0
LINE
  5
   607
  8
0
  6
DASHDOT
 62
     7
 10
64.2767333984375
 20
65.7091369628906
 30
0.0
 11
64.2767333984375
 21
60.2091369628906
 31
0.0
  0
LINE
  5
   608
  8
0
  6
DASHDOT
 62
     7
 10
61.5267333984375
 20
62.9591369628906
 30
0.0
 11
67.0267333984375
 21
62.9591369628906
 31
0.0
  0
LINE
  5
   609
  8
0
  6
DASHDOT
 62
     7
 10
64.2767333984375
 20
59.9591369628906
 30
0.0
 11
64.2767333984375
 21
54.4591369628906
 31
0.0
  0
LINE
  5
   60A
  8
0
  6
DASHDOT
 62
     7
 10
61.5267333984375
 20
57.2091369628906
 30
0.0
 11
67.0267333984375
 21
57.2091369628906
 31
0.0
  0
POINT
  5
   60B
  8
0
  6
CONTINUOUS
 62
     7
 10
64.2767333984375
 20
64.9591369628906
 30
0.0
  0
POINT
  5
   60C
  8
0
  6
CONTINUOUS
 62
     7
 10
64.2767333984375
 20
55.2091369628906
 30
0.0
  0
CIRCLE
  5
   60D
  8
0
  6
CONTINUOUS
 62
     7
 10
44.5892333984375
 20
89.7091369628906
 30
0.0
 40
0.5
  0
CIRCLE
  5
   60E
  8
0
  6
CONTINUOUS
 62
     7
 10
33.3392333984375
 20
89.7091369628906
 30
0.0
 40
0.5
  0
CIRCLE
  5
   60F
  8
0
  6
CONTINUOUS
 62
     7
 10
33.3392333984375
 20
89.7091369628906
 30
0.0
 40
0.92
  0
CIRCLE
  5
   610
  8
0
  6
CONTINUOUS
 62
     7
 10
44.5892333984375
 20
89.7091369628906
 30
0.0
 40
0.92
  0
LINE
  5
   611
  8
0
  6
DASHDOT
 62
     7
 10
44.5892333984375
 20
91.3791369628906
 30
0.0
 11
44.5892333984375
 21
88.0391369628906
 31
0.0
  0
LINE
  5
   612
  8
0
  6
DASHDOT
 62
     7
 10
42.9192333984375
 20
89.7091369628906
 30
0.0
 11
46.2592333984375
 21
89.7091369628906
 31
0.0
  0
LINE
  5
   613
  8
0
  6
DASHDOT
 62
     7
 10
33.3392333984375
 20
91.3791369628906
 30
0.0
 11
33.3392333984375
 21
88.0391369628906
 31
0.0
  0
LINE
  5
   614
  8
0
  6
DASHDOT
 62
     7
 10
31.6692333984375
 20
89.7091369628906
 30
0.0
 11
35.0092333984375
 21
89.7091369628906
 31
0.0
  0
LINE
  5
   615
  8
0
  6
CONTINUOUS
 62
     7
 10
9.01755776491382
 20
93.8254298104991
 30
0.0
 11
70.5715299300697
 21
93.8254298104991
 31
0.0
  0
LINE
  5
   616
  8
0
  6
CONTINUOUS
 62
     7
 10
9.01755776491382
 20
41.9657889563678
 30
0.0
 11
70.5715299300697
 21
41.9657889563678
 31
0.0
  0
LINE
  5
   617
  8
0
  6
CONTINUOUS
 62
     7
 10
9.01755776491382
 20
93.8254298104991
 30
0.0
 11
9.01755776491382
 21
41.9657889563678
 31
0.0
  0
LINE
  5
   618
  8
0
  6
CONTINUOUS
 62
     7
 10
70.5715299300697
 20
93.8254298104991
 30
0.0
 11
70.5715299300697
 21
41.9657889563678
 31
0.0
  0
LINE
  5
   619
  8
0
  6
CONTINUOUS
 62
     7
 10
54.1517333984375
 20
87.3341369628906
 30
0.0
 11
54.1517333984375
 21
47.0841369628906
 31
0.0
  0
LINE
  5
   61A
  8
0
  6
CONTINUOUS
 62
     7
 10
11.6517333984375
 20
87.3341369628906
 30
0.0
 11
11.6517333984375
 21
47.0841369628906
 31
0.0
  0
LINE
  5
   61B
  8
0
  6
CONTINUOUS
 62
     7
 10
78.9881475269501
 20
86.831959771165
 30
0.0
 11
78.9881475269501
 21
74.8797881266236
 31
0.0
  0
LINE
  5
   61C
  8
0
  6
CONTINUOUS
 62
     7
 10
74.6755082737652
 20
86.831959771165
 30
0.0
 11
74.6755082737652
 21
74.8797881266236
 31
0.0
  0
LINE
  5
   61D
  8
0
  6
CONTINUOUS
 62
     7
 10
74.6755082737652
 20
86.831959771165
 30
0.0
 11
78.9881475269501
 21
86.831959771165
 31
0.0
  0
LINE
  5
   61E
  8
0
  6
CONTINUOUS
 62
     7
 10
74.6755082737652
 20
74.8797881266236
 30
0.0
 11
78.9881475269501
 21
74.8797881266236
 31
0.0
  0
LINE
  5
   61F
  8
0
  6
CONTINUOUS
 62
     7
 10
74.6755082737652
 20
47.5863141546163
 30
0.0
 11
78.9881475269501
 21
47.5863141546163
 31
0.0
  0
LINE
  5
   620
  8
0
  6
CONTINUOUS
 62
     7
 10
74.6755082737652
 20
59.5384857991576
 30
0.0
 11
78.9881475269501
 21
59.5384857991576
 31
0.0
  0
LINE
  5
   621
  8
0
  6
CONTINUOUS
 62
     7
 10
74.6755082737652
 20
59.5384857991576
 30
0.0
 11
74.6755082737652
 21
47.5863141546163
 31
0.0
  0
LINE
  5
   622
  8
0
  6
CONTINUOUS
 62
     7
 10
78.9881475269501
 20
59.5384857991576
 30
0.0
 11
78.9881475269501
 21
47.5863141546163
 31
0.0
  0
LINE
  5
   623
  8
0
  6
DASHDOT
 62
     2
 10
76.8318279003576
 20
92.869654725624
 30
0.0
 11
76.8318279003576
 21
13.7635289957731
 31
0.0
  0
LINE
  5
   624
  8
0
  6
CONTINUOUS
 62
     2
 10
22.8561278341469
 20
110.706719121789
 30
0.0
 11
32.3555960394238
 21
91.507793906913
 31
0.0
  0
LINE
  5
   625
  8
0
  6
CONTINUOUS
 62
     2
 10
1.81799824964584
 20
110.706719121789
 30
0.0
 11
22.8561278341469
 21
110.706719121789
 31
0.0
  0
LINE
  5
   626
  8
0
  6
CONTINUOUS
 62
     7
 10
29.1376995025721
 20
95.167321137021
 30
0.0
 11
32.3555960394238
 21
91.507793906913
 31
0.0
  0
LINE
  5
   627
  8
0
  6
CONTINUOUS
 62
     7
 10
31.4100105145355
 20
96.2289129910257
 30
0.0
 11
32.3555960394238
 21
91.507793906913
 31
0.0
  0
INSERT
  5
   628
  8
0
  6
CONTINUOUS
 62
     7
  2
*UDIM1707
 10
0.0
 20
0.0
 30
0.0
  0
INSERT
  5
   629
  8
0
  6
CONTINUOUS
 62
     7
  2
*UDIM1708
 10
0.0
 20
0.0
 30
0.0
  0
INSERT
  5
   62A
  8
0
  6
CONTINUOUS
 62
     7
  2
*UDIM1709
 10
0.0
 20
0.0
 30
0.0
  0
TEXT
  5
   62B
  8
0
  6
CONTINUOUS
 62
     7
 10
-144.714126026234
 20
-125.0219421402
 30
0.0
 40
3.00000002980232
  1
PART. Z
 50
359.999999844103
 41
0.916666604744064
 72
     1
 11
-135.364126563072
 21
-123.521942150693
 31
0.0
 73
     2
  0
TEXT
  5
   62C
  8
0
  6
CONTINUOUS
 62
     7
 10
2.46048983375147
 20
111.720237730405
 30
0.0
 40
3.00000002980232
  1
PART. Z
 50
359.999999844103
 41
0.916666604744064
 72
     1
 11
11.8104892969131
 21
113.220237719913
 31
0.0
 73
     2
  0
TEXT
  5
   62D
  8
0
  6
CONTINUOUS
 62
     7
 10
-7.45039845056117
 20
65.4818294960655
 30
0.0
 40
4.00000017881393
  1
x
 50
359.999999844103
 41
0.915625062622128
 72
     1
 11
-5.9853982925415
 21
67.4818295814937
 31
0.0
 73
     2
  0
INSERT
  5
   62E
  8
0
  6
CONTINUOUS
 62
     7
  2
*UDIM1710
 10
0.0
 20
0.0
 30
0.0
  0
TEXT
  5
   62F
  8
0
  6
CONTINUOUS
 62
     7
 10
97.3084717888605
 20
65.6384182477048
 30
0.0
 40
3.00000002980232
  1
X
 50
359.999999844103
 41
0.916666604744064
 72
     2
 11
99.5084716577303
 21
65.6384182417299
 31
0.0
  0
TEXT
  5
   630
  8
0
  6
CONTINUOUS
 62
     7
 10
32.5275250572931
 20
114.107345511918
 30
0.0
 40
3.00000002980232
  1
Y
 50
359.999999844103
 41
0.916666604744064
 72
     2
 11
34.7275249261629
 21
114.107345505943
 31
0.0
  0
TEXT
  5
   631
  8
0
  6
CONTINUOUS
 62
     7
 10
33.4822899002802
 20
3.83416359663517
 30
0.0
 40
3.00000002980232
  1
Y
 50
359.999999844103
 41
0.916666604744064
 72
     2
 11
35.68228976915
 21
3.83416359066022
 31
0.0
  0
TEXT
  5
   632
  8
0
  6
CONTINUOUS
 62
     7
 10
7.47435527295418
 20
62.7950702674066
 30
0.0
 40
2.50000005960464
  1
=  =
 50
449.999999844103
 41
0.899999932169916
 72
     2
 11
7.47435529616426
 21
71.3450698123252
 31
0.0
  0
INSERT
  5
   633
  8
0
  6
CONTINUOUS
 62
     7
  2
*UDIM1711
 10
0.0
 20
0.0
 30
0.0
  0
INSERT
  5
   634
  8
0
  6
CONTINUOUS
 62
     7
  2
*UDIM1712
 10
0.0
 20
0.0
 30
0.0
  0
INSERT
  5
   635
  8
0
  6
CONTINUOUS
 62
     7
  2
*UDIM1713
 10
0.0
 20
0.0
 30
0.0
  0
INSERT
  5
   636
  8
0
  6
CONTINUOUS
 62
     7
  2
*UDIM1714
 10
0.0
 20
0.0
 30
0.0
  0
INSERT
  5
   637
  8
0
  6
CONTINUOUS
 62
     7
  2
*UDIM1715
 10
0.0
 20
0.0
 30
0.0
  0
INSERT
  5
   638
  8
0
  6
CONTINUOUS
 62
     7
  2
*UDIM1716
 10
0.0
 20
0.0
 30
0.0
  0
INSERT
  5
   639
  8
0
  6
CONTINUOUS
 62
     7
  2
*UDIM1717
 10
0.0
 20
0.0
 30
0.0
  0
INSERT
  5
   63A
  8
0
  6
CONTINUOUS
 62
     7
  2
*UDIM1718
 10
0.0
 20
0.0
 30
0.0
  0
INSERT
  5
   63B
  8
0
  6
CONTINUOUS
 62
     7
  2
*UDIM1719
 10
0.0
 20
0.0
 30
0.0
  0
INSERT
  5
   63C
  8
0
  6
CONTINUOUS
 62
     7
  2
*UDIM1720
 10
0.0
 20
0.0
 30
0.0
  0
INSERT
  5
   63D
  8
0
  6
CONTINUOUS
 62
     7
  2
*UDIM1721
 10
0.0
 20
0.0
 30
0.0
  0
INSERT
  5
   63E
  8
0
  6
CONTINUOUS
 62
     7
  2
*UDIM1722
 10
0.0
 20
0.0
 30
0.0
  0
INSERT
  5
   63F
  8
0
  6
CONTINUOUS
 62
     7
  2
*UDIM1723
 10
0.0
 20
0.0
 30
0.0
  0
INSERT
  5
   640
  8
0
  6
CONTINUOUS
 62
     7
  2
*UDIM1724
 10
0.0
 20
0.0
 30
0.0
  0
TEXT
  5
   641
  8
0
  6
CONTINUOUS
 62
     7
 10
34.8186020172447
 20
95.3813054996542
 30
0.0
 40
2.50000005960464
  1
=  =
 50
359.999999844103
 41
0.899999932169916
 72
     2
 11
43.3686015621632
 21
95.3813054764334
 31
0.0
  0
INSERT
  5
   642
  8
0
  6
CONTINUOUS
 62
     7
  2
*UDIM1725
 10
0.0
 20
0.0
 30
0.0
  0
LINE
  5
   643
  8
0
  6
CONTINUOUS
 62
   253
 10
-243.910495456616
 20
16.9399247776933
 30
0.0
 11
-243.910509189526
 21
18.1399328362416
 31
0.0
  0
LINE
  5
   644
  8
0
  6
CONTINUOUS
 62
   253
 10
-239.739593049543
 20
14.8399235499754
 30
0.0
 11
-239.71050903349
 21
14.83992412218
 31
0.0
  0
LINE
  5
   645
  8
0
  6
CONTINUOUS
 62
   253
 10
-243.910509189526
 20
13.6399257905401
 30
0.0
 11
-243.910495456616
 21
14.8399212605869
 31
0.0
  0
LINE
  5
   646
  8
0
  6
CONTINUOUS
 62
   253
 10
-193.360524556645
 20
13.6398903238435
 30
0.0
 11
-193.960525581845
 21
13.6399280893498
 31
0.0
  0
LINE
  5
   647
  8
0
  6
CONTINUOUS
 62
   253
 10
-206.560530591011
 20
13.6399281744181
 30
0.0
 11
-242.410511416196
 21
13.6399281744181
 31
0.0
  0
LINE
  5
   648
  8
0
  6
CONTINUOUS
 62
   253
 10
-175.96052479744
 20
55.6399366140367
 30
0.0
 11
-243.910508543252
 21
55.6399366140367
 31
0.0
  0
LINE
  5
   649
  8
0
  6
CONTINUOUS
 62
   253
 10
-175.96052479744
 20
13.6398399592025
 30
0.0
 11
-205.060535174189
 21
13.6399241719025
 31
0.0
  0
LINE
  5
   64A
  8
0
  6
CONTINUOUS
 62
   253
 10
-205.660512244701
 20
46.0399385213855
 30
0.0
 11
-243.910509186982
 21
46.0399385213855
 31
0.0
  0
LINE
  5
   64B
  8
0
  6
CONTINUOUS
 62
   253
 10
-205.660511100292
 20
37.0399244308469
 30
0.0
 11
-216.01051723361
 21
37.0399244308469
 31
0.0
  0
LINE
  5
   64C
  8
0
  6
CONTINUOUS
 62
   253
 10
-243.910495454072
 20
14.8399212598797
 30
0.0
 11
-243.910495454072
 21
16.9399247765539
 31
0.0
  0
LINE
  5
   64D
  8
0
  6
CONTINUOUS
 62
   253
 10
-243.910509186982
 20
46.0399385213855
 30
0.0
 11
-243.910509186982
 21
55.6399366140367
 31
0.0
  0
LINE
  5
   64E
  8
0
  6
CONTINUOUS
 62
   253
 10
-213.235530355325
 20
14.8399395704384
 30
0.0
 11
-205.660526048974
 21
14.8399533033489
 31
0.0
  0
LINE
  5
   64F
  8
0
  6
CONTINUOUS
 62
   253
 10
-214.435530331735
 20
14.8399448172633
 30
0.0
 11
-225.498012460771
 21
14.8399448172633
 31
0.0
  0
LINE
  5
   650
  8
0
  6
CONTINUOUS
 62
   253
 10
-226.698013080665
 20
14.8399460496274
 30
0.0
 11
-242.710477095849
 21
14.8399460496274
 31
0.0
  0
LINE
  5
   651
  8
0
  6
CONTINUOUS
 62
   253
 10
-226.698010791847
 20
16.1899489642928
 30
0.0
 11
-242.710474807031
 21
16.1899489642928
 31
0.0
  0
LINE
  5
   652
  8
0
  6
CONTINUOUS
 62
   253
 10
-214.43552975953
 20
16.1899488763402
 30
0.0
 11
-225.498010744157
 21
16.1899488763402
 31
0.0
  0
LINE
  5
   653
  8
0
  6
CONTINUOUS
 62
   253
 10
-205.660526049137
 20
16.1899491872515
 30
0.0
 11
-213.235529783369
 21
16.1899491872515
 31
0.0
  0
LINE
  5
   654
  8
0
  6
CONTINUOUS
 62
   253
 10
-242.710477095895
 20
14.8399218321033
 30
0.0
 11
-242.710474807076
 21
16.1899247467705
 31
0.0
  0
LINE
  5
   655
  8
0
  6
CONTINUOUS
 62
   253
 10
-205.660526049137
 20
14.839953303338
 30
0.0
 11
-205.660526049137
 21
16.1899487793453
 31
0.0
  0
LINE
  5
   656
  8
0
  6
CONTINUOUS
 62
   253
 10
-213.23553028405
 20
14.839939570433
 30
0.0
 11
-213.235529139641
 21
16.1899493515556
 31
0.0
  0
LINE
  5
   657
  8
0
  6
CONTINUOUS
 62
   253
 10
-214.435530331734
 20
14.8399389982274
 30
0.0
 11
-214.435529187325
 21
16.1899493515546
 31
0.0
  0
LINE
  5
   658
  8
0
  6
CONTINUOUS
 62
   253
 10
-225.498013033002
 20
14.8399321317902
 30
0.0
 11
-225.498010744183
 21
16.1899424851174
 31
0.0
  0
LINE
  5
   659
  8
0
  6
CONTINUOUS
 62
   253
 10
-226.698013080687
 20
14.8399321317863
 30
0.0
 11
-226.698010791869
 21
16.1899413407043
 31
0.0
  0
LINE
  5
   65A
  8
0
  6
CONTINUOUS
 62
   253
 10
-234.310508805513
 20
12.4399280309676
 30
0.0
 11
-234.310508805513
 21
13.6399280786513
 31
0.0
  0
LINE
  5
   65B
  8
0
  6
CONTINUOUS
 62
   253
 10
-233.110508757829
 20
12.4399280309676
 30
0.0
 11
-233.110508757829
 21
13.6399280786513
 31
0.0
  0
LINE
  5
   65C
  8
0
  6
CONTINUOUS
 62
   253
 10
-233.110508757829
 20
12.4399280309676
 30
0.0
 11
-234.310508805513
 21
12.4399280309676
 31
0.0
  0
LINE
  5
   65D
  8
0
  6
CONTINUOUS
 62
   253
 10
-209.185508093237
 20
12.4399440526968
 30
0.0
 11
-209.185508093237
 21
13.639924073219
 31
0.0
  0
LINE
  5
   65E
  8
0
  6
CONTINUOUS
 62
   253
 10
-207.985507759451
 20
12.4399440526968
 30
0.0
 11
-207.985507759451
 21
13.6399235010144
 31
0.0
  0
LINE
  5
   65F
  8
0
  6
CONTINUOUS
 62
   253
 10
-207.985507759451
 20
12.4399440526968
 30
0.0
 11
-209.185508093237
 21
12.4399440526968
 31
0.0
  0
LINE
  5
   660
  8
0
  6
CONTINUOUS
 62
   253
 10
-242.410509127378
 20
12.2149280220269
 30
0.0
 11
-242.410509127378
 21
12.9649280518292
 31
0.0
  0
LINE
  5
   661
  8
0
  6
CONTINUOUS
 62
   253
 10
-243.910509186982
 20
12.2149280220269
 30
0.0
 11
-243.910509186982
 21
13.6399257898329
 31
0.0
  0
LINE
  5
   662
  8
0
  6
CONTINUOUS
 62
   253
 10
-242.410509127378
 20
12.2149280220269
 30
0.0
 11
-243.910509186982
 21
12.2149280220269
 31
0.0
  0
LINE
  5
   663
  8
0
  6
CONTINUOUS
 62
   253
 10
-242.410509127378
 20
12.9649280518292
 30
0.0
 11
-242.410509127378
 21
13.6399280786513
 31
0.0
  0
LINE
  5
   664
  8
0
  6
CONTINUOUS
 62
   253
 10
-206.560535168648
 20
12.2149280220269
 30
0.0
 11
-206.560535168648
 21
12.9649280518292
 31
0.0
  0
LINE
  5
   665
  8
0
  6
CONTINUOUS
 62
   253
 10
-205.060535174189
 20
12.2149280220269
 30
0.0
 11
-206.560535233793
 21
12.2149280220269
 31
0.0
  0
LINE
  5
   666
  8
0
  6
CONTINUOUS
 62
   253
 10
-193.960534733114
 20
12.214928022191
 30
0.0
 11
-193.960525577841
 21
13.6399280788154
 31
0.0
  0
LINE
  5
   667
  8
0
  6
CONTINUOUS
 62
   253
 10
-206.560535168683
 20
12.9649280520466
 30
0.0
 11
-206.560530591046
 21
13.6399235012317
 31
0.0
  0
LINE
  5
   668
  8
0
  6
CONTINUOUS
 62
   253
 10
-243.910509186982
 20
18.1399328351022
 30
0.0
 11
-243.910509186982
 21
37.0399312973022
 31
0.0
  0
LINE
  5
   669
  8
0
  6
CONTINUOUS
 62
   253
 10
-216.010517233611
 20
37.039929008484
 30
0.0
 11
-232.810508745909
 21
37.0399312973025
 31
0.0
  0
LINE
  5
   66A
  8
0
  6
CONTINUOUS
 62
   253
 10
-205.660511100292
 20
37.0399244308474
 30
0.0
 11
-205.660512244701
 21
46.0399385213859
 31
0.0
  0
LINE
  5
   66B
  8
0
  6
CONTINUOUS
 62
   253
 10
-228.160508561134
 20
45.889938515425
 30
0.0
 11
-228.160508561134
 21
46.0399385213855
 31
0.0
  0
LINE
  5
   66C
  8
0
  6
CONTINUOUS
 62
   253
 10
-205.660525977612
 20
51.6649413962983
 30
0.0
 11
-213.235529711843
 21
51.6649413962983
 31
0.0
  0
LINE
  5
   66D
  8
0
  6
CONTINUOUS
 62
   253
 10
-213.235529711843
 20
49.4899363696577
 30
0.0
 11
-213.235529711843
 21
51.6649364560844
 31
0.0
  0
LINE
  5
   66E
  8
0
  6
CONTINUOUS
 62
   253
 10
-205.660526049137
 20
49.489941309872
 30
0.0
 11
-213.235529783368
 21
49.489941309872
 31
0.0
  0
LINE
  5
   66F
  8
0
  6
CONTINUOUS
 62
   253
 10
-205.660526049137
 20
49.4899409472946
 30
0.0
 11
-205.660525977612
 21
51.6649410337214
 31
0.0
  0
LINE
  5
   670
  8
0
  6
CONTINUOUS
 62
   253
 10
-226.698013080656
 20
49.4899363696577
 30
0.0
 11
-226.698013080656
 21
51.6649364560844
 31
0.0
  0
LINE
  5
   671
  8
0
  6
CONTINUOUS
 62
   253
 10
-214.435530331731
 20
49.4899363696577
 30
0.0
 11
-226.698012508451
 21
49.4899363696577
 31
0.0
  0
LINE
  5
   672
  8
0
  6
CONTINUOUS
 62
   253
 10
-214.435530331731
 20
49.4899363696577
 30
0.0
 11
-214.435530331731
 21
51.6649364560844
 31
0.0
  0
LINE
  5
   673
  8
0
  6
CONTINUOUS
 62
   253
 10
-214.435530331731
 20
51.6649364560844
 30
0.0
 11
-226.698012508451
 21
51.6649364560844
 31
0.0
  0
LINE
  5
   674
  8
0
  6
CONTINUOUS
 62
   253
 10
-227.89801312834
 20
49.4899409472946
 30
0.0
 11
-242.710509139299
 21
49.4899409472946
 31
0.0
  0
LINE
  5
   675
  8
0
  6
CONTINUOUS
 62
   253
 10
-227.89801312834
 20
49.4899409472946
 30
0.0
 11
-227.89801312834
 21
51.6649410337213
 31
0.0
  0
LINE
  5
   676
  8
0
  6
CONTINUOUS
 62
   253
 10
-227.89801312834
 20
51.6649410337213
 30
0.0
 11
-242.710509139299
 21
51.6649410337213
 31
0.0
  0
LINE
  5
   677
  8
0
  6
CONTINUOUS
 62
   253
 10
-242.710509139299
 20
49.4899409472946
 30
0.0
 11
-242.710509139299
 21
51.6649410337213
 31
0.0
  0
LINE
  5
   678
  8
0
  6
CONTINUOUS
 62
   253
 10
-242.710392409612
 20
14.8399138212387
 30
0.0
 11
-242.710390120793
 21
16.1899247467705
 31
0.0
  0
LINE
  5
   679
  8
0
  6
CONTINUOUS
 62
   253
 10
-243.910509186982
 20
13.6399257898329
 30
0.0
 11
-243.910509186982
 21
13.9399309515953
 31
0.0
  0
LINE
  5
   67A
  8
0
  6
CONTINUOUS
 62
   253
 10
-193.360528063617
 20
13.6398903138566
 30
0.0
 11
-193.960525584063
 21
13.6399000413348
 31
0.0
  0
LINE
  5
   67B
  8
0
  6
CONTINUOUS
 62
   253
 10
-213.219912531352
 20
14.8399338483812
 30
0.0
 11
-213.219912531352
 21
16.1899436295038
 31
0.0
  0
LINE
  5
   67C
  8
0
  6
CONTINUOUS
 62
   253
 10
-214.435895970478
 20
14.8399201154705
 30
0.0
 11
-214.435895970478
 21
16.1899430572992
 31
0.0
  0
LINE
  5
   67D
  8
0
  6
CONTINUOUS
 62
   253
 10
-230.410526961088
 20
26.4649194329973
 30
0.0
 11
-234.460508811473
 21
26.4649194329973
 31
0.0
  0
LINE
  5
   67E
  8
0
  6
CONTINUOUS
 62
   253
 10
-230.410526961088
 20
23.3149193078275
 30
0.0
 11
-234.460508811473
 21
23.3149193078275
 31
0.0
  0
LINE
  5
   67F
  8
0
  6
CONTINUOUS
 62
   253
 10
-234.460508811473
 20
23.3149193078275
 30
0.0
 11
-234.460508811473
 21
26.4649194329973
 31
0.0
  0
LINE
  5
   680
  8
0
  6
CONTINUOUS
 62
   253
 10
-230.410526961088
 20
23.3149193078275
 30
0.0
 11
-230.410526961088
 21
26.4649194329973
 31
0.0
  0
LINE
  5
   681
  8
0
  6
CONTINUOUS
 62
   132
 10
-221.110508280992
 20
45.889938515425
 30
0.0
 11
-243.910509186982
 21
45.889938515425
 31
0.0
  0
LINE
  5
   682
  8
0
  6
CONTINUOUS
 62
   132
 10
-232.81050874591
 20
37.0399290084844
 30
0.0
 11
-243.910509186984
 21
37.0399312973029
 31
0.0
  0
LINE
  5
   683
  8
0
  6
CONTINUOUS
 62
   132
 10
-221.110508280992
 20
37.0399244308469
 30
0.0
 11
-221.110508280992
 21
45.889938515425
 31
0.0
  0
LINE
  5
   684
  8
0
  6
CONTINUOUS
 62
   132
 10
-243.910509186982
 20
37.0399312973022
 30
0.0
 11
-243.910509186982
 21
45.889938515425
 31
0.0
  0
LINE
  5
   685
  8
0
  6
CONTINUOUS
 62
     7
 10
-171.610524624586
 20
93.4399335384369
 30
0.0
 11
-193.960525512695
 21
93.4399335384369
 31
0.0
  0
LINE
  5
   686
  8
0
  6
CONTINUOUS
 62
     7
 10
-171.610524624586
 20
58.4899321496487
 30
0.0
 11
-171.610524624586
 21
93.4399335384369
 31
0.0
  0
LINE
  5
   687
  8
0
  6
CONTINUOUS
 62
     7
 10
-171.610524624586
 20
58.4899321496487
 30
0.0
 11
-174.760524749756
 21
58.4899321496487
 31
0.0
  0
LINE
  5
   688
  8
0
  6
CONTINUOUS
 62
     7
 10
-171.610524624586
 20
6.58993008732796
 30
0.0
 11
-174.760524749756
 21
6.58993008732796
 31
0.0
  0
LINE
  5
   689
  8
0
  6
CONTINUOUS
 62
     7
 10
-171.610524624586
 20
-28.3600713014603
 30
0.0
 11
-171.610524624586
 21
6.58993008732796
 31
0.0
  0
LINE
  5
   68A
  8
0
  6
CONTINUOUS
 62
     7
 10
-171.610524624586
 20
-28.3600713014603
 30
0.0
 11
-193.960525512695
 21
-28.3600713014603
 31
0.0
  0
LINE
  5
   68B
  8
0
  6
CONTINUOUS
 62
     7
 10
-193.960525512695
 20
-28.3600713014603
 30
0.0
 11
-193.960525512695
 21
12.2149303108454
 31
0.0
  0
LINE
  5
   68C
  8
0
  6
CONTINUOUS
 62
     7
 10
-193.960525512695
 20
55.6399320363998
 30
0.0
 11
-193.960525512695
 21
93.4399335384369
 31
0.0
  0
LINE
  5
   68D
  8
0
  6
CONTINUOUS
 62
     7
 10
-166.51052442193
 20
64.3399323821068
 30
0.0
 11
-171.610524624586
 21
64.3399323821068
 31
0.0
  0
LINE
  5
   68E
  8
0
  6
CONTINUOUS
 62
     7
 10
-166.51052442193
 20
81.7399330735207
 30
0.0
 11
-171.610524624586
 21
81.7399330735207
 31
0.0
  0
LINE
  5
   68F
  8
0
  6
CONTINUOUS
 62
     7
 10
-166.51052442193
 20
64.3399323821068
 30
0.0
 11
-166.51052442193
 21
81.7399330735207
 31
0.0
  0
LINE
  5
   690
  8
0
  6
CONTINUOUS
 62
     7
 10
-166.51052442193
 20
0.739929854869843
 30
0.0
 11
-171.610524624586
 21
0.739929854869843
 31
0.0
  0
LINE
  5
   691
  8
0
  6
CONTINUOUS
 62
     7
 10
-166.51052442193
 20
-16.660070836544
 30
0.0
 11
-171.610524624586
 21
-16.660070836544
 31
0.0
  0
LINE
  5
   692
  8
0
  6
CONTINUOUS
 62
     7
 10
-166.51052442193
 20
-16.660070836544
 30
0.0
 11
-166.51052442193
 21
0.739929854869843
 31
0.0
  0
LINE
  5
   693
  8
0
  6
CONTINUOUS
 62
   152
 10
-235.510527163744
 20
55.6399366140367
 30
0.0
 11
-235.510527163744
 21
93.4399335384369
 31
0.0
  0
LINE
  5
   694
  8
0
  6
CONTINUOUS
 62
     1
 10
-194.410525530577
 20
93.4399335384369
 30
0.0
 11
-232.510527044535
 21
93.4399335384369
 31
0.0
  0
LINE
  5
   695
  8
0
  6
CONTINUOUS
 62
   152
 10
-194.410525530577
 20
55.6399320363998
 30
0.0
 11
-194.410525530577
 21
93.4399335384369
 31
0.0
  0
LINE
  5
   696
  8
0
  6
CONTINUOUS
 62
   152
 10
-194.410525530577
 20
9.04993012785911
 30
0.0
 11
-194.410525530577
 21
13.6398933517737
 31
0.0
  0
LINE
  5
   697
  8
0
  6
CONTINUOUS
 62
   152
 10
-193.960525512695
 20
9.04993019938469
 30
0.0
 11
-194.410525530577
 21
9.04993019938469
 31
0.0
  0
LINE
  5
   698
  8
0
  6
CONTINUOUS
 62
   152
 10
-193.960525512695
 20
-6.61007043719292
 30
0.0
 11
-194.410525530577
 21
-6.61007043719292
 31
0.0
  0
LINE
  5
   699
  8
0
  6
CONTINUOUS
 62
   152
 10
-194.410525530577
 20
-28.3600713014603
 30
0.0
 11
-194.410525530577
 21
-6.61007043719292
 31
0.0
  0
LINE
  5
   69A
  8
0
  6
CONTINUOUS
 62
     1
 10
-194.410525530577
 20
-28.3600713014603
 30
0.0
 11
-232.510527044535
 21
-28.3600713014603
 31
0.0
  0
LINE
  5
   69B
  8
0
  6
CONTINUOUS
 62
   152
 10
-235.510527163744
 20
-28.3600713014603
 30
0.0
 11
-235.510527163744
 21
5.38993232846269
 31
0.0
  0
LINE
  5
   69C
  8
0
  6
CONTINUOUS
 62
   152
 10
-235.510527163744
 20
5.68993005156517
 30
0.0
 11
-235.510527163744
 21
12.5899257481096
 31
0.0
  0
LINE
  5
   69D
  8
0
  6
CONTINUOUS
 62
   152
 10
-235.960527181642
 20
12.5899254620082
 30
0.0
 11
-235.510527163761
 21
12.5899257481105
 31
0.0
  0
LINE
  5
   69E
  8
0
  6
CONTINUOUS
 62
   152
 10
-235.960523138397
 20
12.5899244517234
 30
0.0
 11
-236.066586982692
 21
12.6338583219422
 31
0.0
  0
LINE
  5
   69F
  8
0
  6
CONTINUOUS
 62
   152
 10
-236.066592285804
 20
12.6338599132804
 30
0.0
 11
-236.110528445004
 21
12.739926051128
 31
0.0
  0
LINE
  5
   6A0
  8
0
  6
CONTINUOUS
 62
   152
 10
-235.210527151823
 20
5.68993005156517
 30
0.0
 11
-235.510527163744
 21
5.68993005156517
 31
0.0
  0
LINE
  5
   6A1
  8
0
  6
CONTINUOUS
 62
   152
 10
-235.210527151823
 20
5.38993232846269
 30
0.0
 11
-235.210527151823
 21
5.68993005156517
 31
0.0
  0
LINE
  5
   6A2
  8
0
  6
CONTINUOUS
 62
   152
 10
-235.210527151823
 20
5.38993232846269
 30
0.0
 11
-235.510527163744
 21
5.38993232846269
 31
0.0
  0
LINE
  5
   6A3
  8
0
  6
CONTINUOUS
 62
   152
 10
-194.050525510907
 20
59.3899367630486
 30
0.0
 11
-194.050525600314
 21
60.5899368107324
 31
0.0
  0
LINE
  5
   6A4
  8
0
  6
CONTINUOUS
 62
     3
 10
-243.910509186982
 20
51.0649250554646
 30
0.0
 11
-247.21052762866
 21
51.064926536473
 31
0.0
  0
LINE
  5
   6A5
  8
0
  6
CONTINUOUS
 62
     3
 10
-238.660527288914
 20
9.06492339074585
 30
0.0
 11
-245.860527575016
 21
9.06492359270042
 31
0.0
  0
LINE
  5
   6A6
  8
0
  6
CONTINUOUS
 62
     3
 10
-248.860527694225
 20
9.06492367684815
 30
0.0
 11
-248.860527694225
 21
59.4649253892528
 31
0.0
  0
LINE
  5
   6A7
  8
0
  6
CONTINUOUS
 62
     3
 10
-248.860527694225
 20
50.4649272531269
 30
0.0
 11
-248.860527694225
 21
51.0649272769688
 31
0.0
  0
LINE
  5
   6A8
  8
0
  6
CONTINUOUS
 62
     3
 10
-248.860527694225
 20
47.4649271339176
 30
0.0
 11
-248.860527694225
 21
50.4649272531269
 31
0.0
  0
LINE
  5
   6A9
  8
0
  6
CONTINUOUS
 62
   218
 10
-235.510527163744
 20
9.06492331922027
 30
0.0
 11
-238.660527288914
 21
9.06492331922027
 31
0.0
  0
LINE
  5
   6AA
  8
0
  6
CONTINUOUS
 62
   218
 10
-238.660527288914
 20
9.06492331922027
 30
0.0
 11
-238.660527288914
 21
13.6399281744181
 31
0.0
  0
LINE
  5
   6AB
  8
0
  6
CONTINUOUS
 62
   253
 10
-233.710508781671
 20
24.1024193391199
 30
0.0
 11
-233.710508781671
 21
24.4822796600004
 31
0.0
  0
LINE
  5
   6AC
  8
0
  6
CONTINUOUS
 62
   253
 10
-233.710508781671
 20
24.4822796600004
 30
0.0
 11
-233.710508781671
 21
24.8899193704124
 31
0.0
  0
LINE
  5
   6AD
  8
0
  6
CONTINUOUS
 62
   253
 10
-233.710508781671
 20
24.8899193704124
 30
0.0
 11
-233.710508781671
 21
25.2975590808244
 31
0.0
  0
LINE
  5
   6AE
  8
0
  6
CONTINUOUS
 62
   253
 10
-233.710508781671
 20
25.2975590808244
 30
0.0
 11
-233.710508781671
 21
25.6774194017048
 31
0.0
  0
LINE
  5
   6AF
  8
0
  6
CONTINUOUS
 62
   253
 10
-233.710508781671
 20
25.6774194017048
 30
0.0
 11
-233.710508781671
 21
26.0036126519713
 31
0.0
  0
LINE
  5
   6B0
  8
0
  6
CONTINUOUS
 62
   253
 10
-233.710508781671
 20
26.0036126519713
 30
0.0
 11
-233.710508781671
 21
26.2539098268342
 31
0.0
  0
LINE
  5
   6B1
  8
0
  6
CONTINUOUS
 62
   253
 10
-233.710508781671
 20
26.2539098268342
 30
0.0
 11
-233.710508781671
 21
26.4112523623833
 31
0.0
  0
LINE
  5
   6B2
  8
0
  6
CONTINUOUS
 62
   253
 10
-233.710508781671
 20
26.4112523623833
 30
0.0
 11
-233.710508781671
 21
26.4649194329973
 31
0.0
  0
LINE
  5
   6B3
  8
0
  6
CONTINUOUS
 62
   253
 10
-233.710508781671
 20
23.3149193078275
 30
0.0
 11
-233.710508781671
 21
23.3685863784415
 31
0.0
  0
LINE
  5
   6B4
  8
0
  6
CONTINUOUS
 62
   253
 10
-233.710508781671
 20
23.3685863784415
 30
0.0
 11
-233.710508781671
 21
23.5259289139906
 31
0.0
  0
LINE
  5
   6B5
  8
0
  6
CONTINUOUS
 62
   253
 10
-233.710508781671
 20
23.5259289139906
 30
0.0
 11
-233.710508781671
 21
23.7762260888535
 31
0.0
  0
LINE
  5
   6B6
  8
0
  6
CONTINUOUS
 62
   253
 10
-233.710508781671
 20
23.7762260888535
 30
0.0
 11
-233.710508781671
 21
24.1024193391199
 31
0.0
  0
LINE
  5
   6B7
  8
0
  6
CONTINUOUS
 62
   152
 10
-193.960525512695
 20
-22.3600710630417
 30
0.0
 11
-194.410525530577
 21
-22.3600710630417
 31
0.0
  0
LINE
  5
   6B8
  8
0
  6
CONTINUOUS
 62
   152
 10
-193.960525512695
 20
-25.9600712060928
 30
0.0
 11
-194.410525530577
 21
-25.9600712060928
 31
0.0
  0
LINE
  5
   6B9
  8
0
  6
CONTINUOUS
 62
   152
 10
-193.960525512695
 20
87.4399333000183
 30
0.0
 11
-194.410525530577
 21
87.4399333000183
 31
0.0
  0
LINE
  5
   6BA
  8
0
  6
CONTINUOUS
 62
   152
 10
-193.960525512695
 20
91.0399334430695
 30
0.0
 11
-194.410525530577
 21
91.0399334430695
 31
0.0
  0
LINE
  5
   6BB
  8
0
  6
CONTINUOUS
 62
   152
 10
-194.050525501967
 20
59.3899367630484
 30
0.0
 11
-194.410525530577
 21
59.3899367630484
 31
0.0
  0
LINE
  5
   6BC
  8
0
  6
CONTINUOUS
 62
   152
 10
-194.050525609255
 20
60.5899368107321
 30
0.0
 11
-194.410525602102
 21
60.5899368107321
 31
0.0
  0
LINE
  5
   6BD
  8
0
  6
CONTINUOUS
 62
     7
 10
-205.060535174189
 20
12.2149280220269
 30
0.0
 11
-205.060535174189
 21
13.6399281744181
 31
0.0
  0
LINE
  5
   6BE
  8
0
  6
CONTINUOUS
 62
     7
 10
-236.110528445004
 20
12.739926051128
 30
0.0
 11
-236.110528445004
 21
13.6399281744181
 31
0.0
  0
LINE
  5
   6BF
  8
0
  6
CONTINUOUS
 62
     7
 10
-174.760524749756
 20
6.58993008732796
 30
0.0
 11
-174.760524749756
 21
58.4899321496487
 31
0.0
  0
LINE
  5
   6C0
  8
0
  6
DASHDOT
 62
     7
 10
-143.856214551558
 20
73.0399281501768
 30
0.0
 11
-181.036350540518
 21
73.0399281501768
 31
0.0
  0
LINE
  5
   6C1
  8
0
  6
DASHDOT
 62
     7
 10
-160.366019398952
 20
-7.9600659132002
 30
0.0
 11
-181.036350540518
 21
-7.9600659132002
 31
0.0
  0
LINE
  5
   6C2
  8
0
  6
DASHDOT
 62
     7
 10
-156.783993511207
 20
30.0649242210017
 30
0.0
 11
-263.212397926939
 21
30.0649242210017
 31
0.0
  0
LINE
  5
   6C3
  8
0
  6
CONTINUOUS
 62
   253
 10
-175.96052479744
 20
13.6398399592025
 30
0.0
 11
-175.96052479744
 21
55.6399366140367
 31
0.0
  0
LINE
  5
   6C4
  8
0
  6
CONTINUOUS
 62
   132
 10
-250.608802811941
 20
20.3545325321022
 30
0.0
 11
-251.357072524111
 21
22.6689857107338
 31
0.0
  0
LINE
  5
   6C5
  8
0
  6
CONTINUOUS
 62
   132
 10
-250.467289724171
 20
20.1836128924648
 30
0.0
 11
-250.608798207667
 21
20.35453498265
 31
0.0
  0
LINE
  5
   6C6
  8
0
  6
CONTINUOUS
 62
   132
 10
-250.247033891651
 20
20.1566888463932
 30
0.0
 11
-250.467291470357
 21
20.1836122170216
 31
0.0
  0
LINE
  5
   6C7
  8
0
  6
CONTINUOUS
 62
   132
 10
-250.247034051595
 20
20.1566887740673
 30
0.0
 11
-248.860527694225
 21
20.521375622902
 31
0.0
  0
LINE
  5
   6C8
  8
0
  6
CONTINUOUS
 62
   132
 10
-251.179599402017
 20
23.041168008684
 30
0.0
 11
-248.860527694225
 21
23.9358365051659
 31
0.0
  0
LINE
  5
   6C9
  8
0
  6
CONTINUOUS
 62
   132
 10
-251.34241161117
 20
22.8903983363156
 30
0.0
 11
-251.179598793577
 21
23.0411673873631
 31
0.0
  0
LINE
  5
   6CA
  8
0
  6
CONTINUOUS
 62
   132
 10
-251.357070551875
 20
22.6689869898238
 30
0.0
 11
-251.34240838103
 21
22.8904004260015
 31
0.0
  0
LINE
  5
   6CB
  8
0
  6
DOT
 62
     7
 10
-173.860524713993
 20
-43.2754812112536
 30
0.0
 11
-173.860524713993
 21
97.7333539758478
 31
0.0
  0
LINE
  5
   6CC
  8
0
  6
DASHDOT
 62
     7
 10
-169.380660899621
 20
32.5399311184883
 30
0.0
 11
-180.155152268574
 21
32.5399311184883
 31
0.0
  0
LINE
  5
   6CD
  8
0
  6
DOT
 62
     7
 10
-168.760524511337
 20
56.5399320721626
 30
0.0
 11
-174.760524749756
 21
56.5399320721626
 31
0.0
  0
LINE
  5
   6CE
  8
0
  6
DOT
 62
     7
 10
-168.760524511337
 20
8.539930164814
 30
0.0
 11
-174.760524749756
 21
8.539930164814
 31
0.0
  0
LINE
  5
   6CF
  8
0
  6
DOT
 62
     7
 10
-168.760524511337
 20
55.6399320363998
 30
0.0
 11
-173.860524713993
 21
55.6399320363998
 31
0.0
  0
LINE
  5
   6D0
  8
0
  6
DOT
 62
     7
 10
-168.760524511337
 20
9.43993020057678
 30
0.0
 11
-173.860524713993
 21
9.43993020057678
 31
0.0
  0
LINE
  5
   6D1
  8
0
  6
DOT
 62
     7
 10
-168.760524511337
 20
8.539930164814
 30
0.0
 11
-168.760524511337
 21
9.43993020057678
 31
0.0
  0
LINE
  5
   6D2
  8
0
  6
DOT
 62
     7
 10
-168.760524511337
 20
55.6399320363998
 30
0.0
 11
-168.760524511337
 21
56.5399320721626
 31
0.0
  0
CIRCLE
  5
   6D3
  8
0
  6
CONTINUOUS
 62
   253
 10
-240.310529811643
 20
32.539919806032
 30
0.0
 40
2.99999902550602
  0
CIRCLE
  5
   6D4
  8
0
  6
CONTINUOUS
 62
   253
 10
-240.310530920527
 20
32.5399208673203
 30
0.0
 40
0.82499798815932
  0
LINE
  5
   6D5
  8
0
  6
DASHDOT
 62
     7
 10
-240.310529811643
 20
29.2399207686051
 30
0.0
 11
-240.310529811643
 21
35.839918843459
 31
0.0
  0
LINE
  5
   6D6
  8
0
  6
DASHDOT
 62
     7
 10
-237.010530774216
 20
32.539919806032
 30
0.0
 11
-243.61052884907
 21
32.539919806032
 31
0.0
  0
CIRCLE
  5
   6D7
  8
0
  6
CONTINUOUS
 62
   253
 10
-186.460526604716
 20
48.7399299558404
 30
0.0
 40
1.79999998852908
  0
CIRCLE
  5
   6D8
  8
0
  6
CONTINUOUS
 62
   253
 10
-186.460523128707
 20
48.7399295304385
 30
0.0
 40
0.97499897078265
  0
CIRCLE
  5
   6D9
  8
0
  6
CONTINUOUS
 62
   253
 10
-186.460524828772
 20
18.7399349256916
 30
0.0
 40
1.79999970215661
  0
CIRCLE
  5
   6DA
  8
0
  6
CONTINUOUS
 62
   253
 10
-186.460525794328
 20
18.7399316757417
 30
0.0
 40
0.975000005871059
  0
LINE
  5
   6DB
  8
0
  6
DASHDOT
 62
     7
 10
-186.460524828772
 20
16.6399352116141
 30
0.0
 11
-186.460524828772
 21
20.8399346397691
 31
0.0
  0
LINE
  5
   6DC
  8
0
  6
DASHDOT
 62
     7
 10
-184.360525114694
 20
18.7399349256916
 30
0.0
 11
-188.560524542849
 21
18.7399349256916
 31
0.0
  0
LINE
  5
   6DD
  8
0
  6
DASHDOT
 62
     7
 10
-186.460526604716
 20
46.6399299553904
 30
0.0
 11
-186.460526604716
 21
50.8399299562904
 31
0.0
  0
LINE
  5
   6DE
  8
0
  6
DASHDOT
 62
     7
 10
-184.360526604266
 20
48.7399299558404
 30
0.0
 11
-188.560526605166
 21
48.7399299558404
 31
0.0
  0
LINE
  5
   6DF
  8
0
  6
CONTINUOUS
 62
     7
 10
-245.828471438311
 20
65.4225687288493
 30
0.0
 11
-248.538848154535
 21
66.1657365381367
 31
0.0
  0
LINE
  5
   6E0
  8
0
  6
CONTINUOUS
 62
     7
 10
-247.810528796911
 20
55.7149252402411
 30
0.0
 11
-247.810528796911
 21
65.9660360691106
 31
0.0
  0
LINE
  5
   6E1
  8
0
  6
CONTINUOUS
 62
     7
 10
-247.210528773069
 20
57.5149253117667
 30
0.0
 11
-247.210528773069
 21
65.8015199335411
 31
0.0
  0
LINE
  5
   6E2
  8
0
  6
CONTINUOUS
 62
     7
 10
-247.210528773069
 20
57.6649253177272
 30
0.0
 11
-247.810527652502
 21
57.6649253177272
 31
0.0
  0
LINE
  5
   6E3
  8
0
  6
CONTINUOUS
 62
     1
 10
-247.810527652502
 20
5.91492211695769
 30
0.0
 11
-247.810527652502
 21
55.7149252402411
 31
0.0
  0
LINE
  5
   6E4
  8
0
  6
CONTINUOUS
 62
     7
 10
-246.160527586937
 20
57.5149253117667
 30
0.0
 11
-247.810527652502
 21
57.5149253117667
 31
0.0
  0
LINE
  5
   6E5
  8
0
  6
CONTINUOUS
 62
     7
 10
-245.860527134063
 20
57.3417205042086
 30
0.0
 11
-246.160527155862
 21
57.51492455379
 31
0.0
  0
LINE
  5
   6E6
  8
0
  6
CONTINUOUS
 62
     7
 10
-246.160527586937
 20
55.7149246281226
 30
0.0
 11
-246.160527586937
 21
57.5149248026698
 31
0.0
  0
LINE
  5
   6E7
  8
0
  6
CONTINUOUS
 62
     7
 10
-245.860527575016
 20
55.888129287651
 30
0.0
 11
-245.860527575016
 21
57.3417212643569
 31
0.0
  0
LINE
  5
   6E8
  8
0
  6
CONTINUOUS
 62
     7
 10
-247.210528773069
 20
55.5649252342807
 30
0.0
 11
-247.810527652502
 21
55.5649252342807
 31
0.0
  0
LINE
  5
   6E9
  8
0
  6
CONTINUOUS
 62
     1
 10
-247.21052762866
 20
30.9649248289691
 30
0.0
 11
-247.21052762866
 21
55.7149252402411
 31
0.0
  0
LINE
  5
   6EA
  8
0
  6
CONTINUOUS
 62
     7
 10
-246.160527586937
 20
55.7149252402411
 30
0.0
 11
-247.810527652502
 21
55.7149252402411
 31
0.0
  0
LINE
  5
   6EB
  8
0
  6
CONTINUOUS
 62
     7
 10
-246.160527641361
 20
55.7149245967011
 30
0.0
 11
-245.860527619562
 21
55.8881286462825
 31
0.0
  0
LINE
  5
   6EC
  8
0
  6
CONTINUOUS
 62
     7
 10
-247.21052762866
 20
31.1149248349296
 30
0.0
 11
-247.810527652502
 21
31.1149248349296
 31
0.0
  0
LINE
  5
   6ED
  8
0
  6
CONTINUOUS
 62
     7
 10
-246.160527586937
 20
30.9649248289691
 30
0.0
 11
-247.810527652502
 21
30.9649248289691
 31
0.0
  0
LINE
  5
   6EE
  8
0
  6
CONTINUOUS
 62
     7
 10
-247.21052762866
 20
29.0149247514831
 30
0.0
 11
-247.810527652502
 21
29.0149247514831
 31
0.0
  0
LINE
  5
   6EF
  8
0
  6
CONTINUOUS
 62
     7
 10
-246.160527586937
 20
29.1649247574435
 30
0.0
 11
-247.810527652502
 21
29.1649247574435
 31
0.0
  0
LINE
  5
   6F0
  8
0
  6
CONTINUOUS
 62
     7
 10
-246.160527546132
 20
29.1649243888065
 30
0.0
 11
-245.860527524333
 21
29.3381284383879
 31
0.0
  0
LINE
  5
   6F1
  8
0
  6
CONTINUOUS
 62
     7
 10
-245.860527575016
 20
29.3381288048534
 30
0.0
 11
-245.860527575016
 21
30.7917184927408
 31
0.0
  0
LINE
  5
   6F2
  8
0
  6
CONTINUOUS
 62
     7
 10
-246.160527586937
 20
29.1649247574435
 30
0.0
 11
-246.160527586937
 21
30.9649248289691
 31
0.0
  0
LINE
  5
   6F3
  8
0
  6
CONTINUOUS
 62
     7
 10
-245.860527095136
 20
30.7917178173845
 30
0.0
 11
-246.160527116935
 21
30.9649241529265
 31
0.0
  0
LINE
  5
   6F4
  8
0
  6
CONTINUOUS
 62
     1
 10
-247.21052762866
 20
20.0149221050368
 30
0.0
 11
-247.21052762866
 21
29.164927046262
 31
0.0
  0
INSERT
  5
   6F5
  8
0
  6
CONTINUOUS
 62
     7
  2
*HATCH329
 10
-193.960525512695
 20
8.23993015289307
 30
0.0
 41
0.300000011920929
 42
0.300000011920929
 50
89.9999999480344
 43
0.300000011920929
  0
LINE
  5
   6F6
  8
0
  6
CONTINUOUS
 62
     7
 10
-247.21052762866
 20
20.3149221169577
 30
0.0
 11
-247.810527652502
 21
20.3149221169577
 31
0.0
  0
LINE
  5
   6F7
  8
0
  6
CONTINUOUS
 62
     1
 10
-248.860527694225
 20
20.3149221169577
 30
0.0
 11
-248.860527694225
 21
24.4399245696889
 31
0.0
  0
LINE
  5
   6F8
  8
0
  6
CONTINUOUS
 62
     7
 10
-248.260527670383
 20
14.61492189046
 30
0.0
 11
-248.260527670383
 21
21.5149221646414
 31
0.0
  0
LINE
  5
   6F9
  8
0
  6
CONTINUOUS
 62
     7
 10
-248.560527682304
 20
20.3149221169577
 30
0.0
 11
-248.860527694225
 21
20.3149221169577
 31
0.0
  0
LINE
  5
   6FA
  8
0
  6
CONTINUOUS
 62
     7
 10
-248.560527682304
 20
20.3149221169577
 30
0.0
 11
-248.560527682304
 21
21.5149221646414
 31
0.0
  0
LINE
  5
   6FB
  8
0
  6
CONTINUOUS
 62
     7
 10
-248.260527670383
 20
21.5149221646414
 30
0.0
 11
-248.560527682304
 21
21.5149221646414
 31
0.0
  0
LINE
  5
   6FC
  8
0
  6
CONTINUOUS
 62
     7
 10
-244.810527533293
 20
20.0149221050367
 30
0.0
 11
-247.810527652502
 21
20.0149221050367
 31
0.0
  0
LINE
  5
   6FD
  8
0
  6
CONTINUOUS
 62
     7
 10
-248.560527682304
 20
14.61492189046
 30
0.0
 11
-248.560527682304
 21
15.8149219381437
 31
0.0
  0
LINE
  5
   6FE
  8
0
  6
CONTINUOUS
 62
     7
 10
-248.560527682304
 20
15.8149219381437
 30
0.0
 11
-248.860527694225
 21
15.8149219381437
 31
0.0
  0
LINE
  5
   6FF
  8
0
  6
CONTINUOUS
 62
     7
 10
-244.810527533293
 20
16.1149837481628
 30
0.0
 11
-247.810527652502
 21
16.1149837481628
 31
0.0
  0
LINE
  5
   700
  8
0
  6
CONTINUOUS
 62
     7
 10
-244.810527533293
 20
16.1149837481628
 30
0.0
 11
-244.810527533293
 21
20.0149221050367
 31
0.0
  0
LINE
  5
   701
  8
0
  6
CONTINUOUS
 62
     7
 10
-248.260527670383
 20
14.61492189046
 30
0.0
 11
-248.560527682304
 21
14.61492189046
 31
0.0
  0
LINE
  5
   702
  8
0
  6
CONTINUOUS
 62
     7
 10
-247.21052762866
 20
15.8149837362419
 30
0.0
 11
-247.810527652502
 21
15.8149837362419
 31
0.0
  0
LINE
  5
   703
  8
0
  6
CONTINUOUS
 62
     7
 10
-247.210528773069
 20
4.41492320176227
 30
0.0
 11
-247.210528773069
 21
16.1149837481628
 31
0.0
  0
LINE
  5
   704
  8
0
  6
CONTINUOUS
 62
     1
 10
-248.860527694225
 20
0.664923052750671
 30
0.0
 11
-248.860527694225
 21
15.8149219381437
 31
0.0
  0
LINE
  5
   705
  8
0
  6
CONTINUOUS
 62
     7
 10
-247.810528796911
 20
-14.5208159650917
 30
0.0
 11
-247.810528796911
 21
16.1149837481628
 31
0.0
  0
LINE
  5
   706
  8
0
  6
CONTINUOUS
 62
     7
 10
-247.210528773069
 20
-14.3958432229393
 30
0.0
 11
-247.210528773069
 21
2.6149231302367
 31
0.0
  0
LINE
  5
   707
  8
0
  6
CONTINUOUS
 62
     7
 10
-249.739651643596
 20
-14.9226289026238
 30
0.0
 11
-245.257314381646
 21
-13.9890123082591
 31
0.0
  0
LINE
  5
   708
  8
0
  6
CONTINUOUS
 62
     1
 10
-224.41052672267
 20
55.6399320363998
 30
0.0
 11
-224.41052672267
 21
93.4399335384369
 31
0.0
  0
LINE
  5
   709
  8
0
  6
CONTINUOUS
 62
     1
 10
-194.410525530577
 20
6.43993008136749
 30
0.0
 11
-235.510527163744
 21
6.43993008136749
 31
0.0
  0
LINE
  5
   70A
  8
0
  6
CONTINUOUS
 62
     1
 10
-224.41052672267
 20
6.43993008136749
 30
0.0
 11
-224.41052672267
 21
13.6399281744181
 31
0.0
  0
LINE
  5
   70B
  8
0
  6
CONTINUOUS
 62
   253
 10
-196.885522195696
 20
51.6649421263525
 30
0.0
 11
-204.460525929928
 21
51.6649421263525
 31
0.0
  0
LINE
  5
   70C
  8
0
  6
CONTINUOUS
 62
   253
 10
-196.885522267222
 20
49.4899420399262
 30
0.0
 11
-204.460526001453
 21
49.4899420399262
 31
0.0
  0
LINE
  5
   70D
  8
0
  6
CONTINUOUS
 62
   253
 10
-204.460526001453
 20
49.4899409078323
 30
0.0
 11
-204.460525929928
 21
51.664940994259
 31
0.0
  0
LINE
  5
   70E
  8
0
  6
CONTINUOUS
 62
   253
 10
-196.885522338748
 20
49.4899358319825
 30
0.0
 11
-196.885522195697
 21
51.6649359184092
 31
0.0
  0
LINE
  5
   70F
  8
0
  6
CONTINUOUS
 62
   253
 10
-196.885524457384
 20
16.1899499173058
 30
0.0
 11
-204.460528191615
 21
16.1899499173058
 31
0.0
  0
LINE
  5
   710
  8
0
  6
CONTINUOUS
 62
   253
 10
-204.460528280405
 20
14.8399532638757
 30
0.0
 11
-204.460528191615
 21
16.189948739883
 31
0.0
  0
LINE
  5
   711
  8
0
  6
CONTINUOUS
 62
   253
 10
-196.88552397464
 20
14.8399390327632
 30
0.0
 11
-204.460528280977
 21
14.8399532638865
 31
0.0
  0
LINE
  5
   712
  8
0
  6
CONTINUOUS
 62
   253
 10
-196.901141798192
 20
14.8399333117332
 30
0.0
 11
-196.901141709401
 21
16.1899430928557
 31
0.0
  0
LINE
  5
   713
  8
0
  6
DASHDOT
 62
     7
 10
-169.380660899621
 20
50.5399318337441
 30
0.0
 11
-180.360955026892
 21
50.5399318337441
 31
0.0
  0
LINE
  5
   714
  8
0
  6
DASHDOT
 62
     7
 10
-169.380660899621
 20
14.5399304032326
 30
0.0
 11
-180.155152268574
 21
14.5399304032326
 31
0.0
  0
LINE
  5
   715
  8
0
  6
CONTINUOUS
 62
     7
 10
-172.360524654388
 20
12.3829303175211
 30
0.0
 11
-173.860524713993
 21
12.3829303175211
 31
0.0
  0
LINE
  5
   716
  8
0
  6
CONTINUOUS
 62
     7
 10
-172.360524654388
 20
16.6969304889441
 30
0.0
 11
-173.860524713993
 21
16.6969304889441
 31
0.0
  0
LINE
  5
   717
  8
0
  6
CONTINUOUS
 62
     7
 10
-172.360524654388
 20
12.3829303175211
 30
0.0
 11
-172.360524654388
 21
16.6969304889441
 31
0.0
  0
LINE
  5
   718
  8
0
  6
CONTINUOUS
 62
     7
 10
-172.360524654388
 20
48.3829317480326
 30
0.0
 11
-172.360524654388
 21
52.6969319194555
 31
0.0
  0
LINE
  5
   719
  8
0
  6
CONTINUOUS
 62
     7
 10
-172.360524654388
 20
52.6969319194555
 30
0.0
 11
-173.860524713993
 21
52.6969319194555
 31
0.0
  0
LINE
  5
   71A
  8
0
  6
CONTINUOUS
 62
     7
 10
-172.360524654388
 20
48.3829317480326
 30
0.0
 11
-173.860524713993
 21
48.3829317480326
 31
0.0
  0
LINE
  5
   71B
  8
0
  6
DOT
 62
     7
 10
-142.360523462296
 20
75.4399282455443
 30
0.0
 11
-166.51052442193
 21
75.4399282455443
 31
0.0
  0
LINE
  5
   71C
  8
0
  6
DOT
 62
     7
 10
-142.360523462296
 20
70.6399280548094
 30
0.0
 11
-166.51052442193
 21
70.6399280548094
 31
0.0
  0
LINE
  5
   71D
  8
0
  6
CONTINUOUS
 62
   253
 10
-142.360523462296
 20
65.5399278521536
 30
0.0
 11
-142.360523462296
 21
80.5399284482001
 31
0.0
  0
LINE
  5
   71E
  8
0
  6
CONTINUOUS
 62
   253
 10
-142.360523462296
 20
80.5399284482001
 30
0.0
 11
-166.51052442193
 21
80.5399284482001
 31
0.0
  0
LINE
  5
   71F
  8
0
  6
CONTINUOUS
 62
   253
 10
-142.360523462296
 20
65.5399278521536
 30
0.0
 11
-166.51052442193
 21
65.5399278521536
 31
0.0
  0
CIRCLE
  5
   720
  8
0
  6
CONTINUOUS
 62
   253
 10
-146.560523629189
 20
76.339928281307
 30
0.0
 40
1.65000006556511
  0
CIRCLE
  5
   721
  8
0
  6
CONTINUOUS
 62
   253
 10
-153.160523891449
 20
69.7399280190466
 30
0.0
 40
1.65000006556511
  0
LINE
  5
   722
  8
0
  6
DASHDOT
 62
     7
 10
-146.560523629189
 20
73.9056040404232
 30
0.0
 11
-146.560523629189
 21
78.6864344583066
 31
0.0
  0
LINE
  5
   723
  8
0
  6
DASHDOT
 62
     7
 10
-144.282037198512
 20
76.339928281307
 30
0.0
 11
-148.926272461598
 21
76.339928281307
 31
0.0
  0
LINE
  5
   724
  8
0
  6
DASHDOT
 62
     7
 10
-153.160523891449
 20
67.3490366101831
 30
0.0
 11
-153.160523891449
 21
72.0752289661478
 31
0.0
  0
LINE
  5
   725
  8
0
  6
DASHDOT
 62
     7
 10
-150.647371412036
 20
69.7399280190466
 30
0.0
 11
-155.783349232391
 21
69.7399280190466
 31
0.0
  0
LINE
  5
   726
  8
0
  6
CONTINUOUS
 62
   253
 10
-142.360523462296
 20
-15.4600662112234
 30
0.0
 11
-166.51052442193
 21
-15.4600662112234
 31
0.0
  0
LINE
  5
   727
  8
0
  6
CONTINUOUS
 62
   253
 10
-142.360523462296
 20
-0.460065615176973
 30
0.0
 11
-166.51052442193
 21
-0.460065615176973
 31
0.0
  0
LINE
  5
   728
  8
0
  6
CONTINUOUS
 62
   253
 10
-142.360523462296
 20
-15.4600662112234
 30
0.0
 11
-142.360523462296
 21
-0.460065615176973
 31
0.0
  0
LINE
  5
   729
  8
0
  6
DOT
 62
     7
 10
-142.360523462296
 20
-5.56006581783276
 30
0.0
 11
-166.51052442193
 21
-5.56006581783276
 31
0.0
  0
LINE
  5
   72A
  8
0
  6
DOT
 62
     7
 10
-142.360523462296
 20
-10.3600660085676
 30
0.0
 11
-166.51052442193
 21
-10.3600660085676
 31
0.0
  0
CIRCLE
  5
   72B
  8
0
  6
CONTINUOUS
 62
   253
 10
-153.160523891449
 20
-4.66006578206998
 30
0.0
 40
1.65000006556511
  0
CIRCLE
  5
   72C
  8
0
  6
CONTINUOUS
 62
   253
 10
-146.560523629189
 20
-11.2600660443304
 30
0.0
 40
1.65000006556511
  0
LINE
  5
   72D
  8
0
  6
DASHDOT
 62
     7
 10
-153.160523891449
 20
-6.61006585955602
 30
0.0
 11
-153.160523891449
 21
-2.71006570458394
 31
0.0
  0
LINE
  5
   72E
  8
0
  6
DASHDOT
 62
     7
 10
-151.210523813963
 20
-4.66006578206998
 30
0.0
 11
-155.110523968935
 21
-4.66006578206998
 31
0.0
  0
LINE
  5
   72F
  8
0
  6
DASHDOT
 62
     7
 10
-146.560523629189
 20
-13.2100661218165
 30
0.0
 11
-146.560523629189
 21
-9.31006596684438
 31
0.0
  0
LINE
  5
   730
  8
0
  6
DASHDOT
 62
     7
 10
-144.610523551703
 20
-11.2600660443304
 30
0.0
 11
-148.510523706675
 21
-11.2600660443304
 31
0.0
  0
LINE
  5
   731
  8
0
  6
CONTINUOUS
 62
     7
 10
-247.810527652502
 20
59.4649253892528
 30
0.0
 11
-248.860527694225
 21
59.4649253892528
 31
0.0
  0
LINE
  5
   732
  8
0
  6
CONTINUOUS
 62
     7
 10
-247.810527652502
 20
0.664923052750671
 30
0.0
 11
-248.860527694225
 21
0.664923052750671
 31
0.0
  0
LINE
  5
   733
  8
0
  6
CONTINUOUS
 62
     7
 10
-247.210528773069
 20
2.46492312427624
 30
0.0
 11
-247.810527652502
 21
2.46492312427624
 31
0.0
  0
LINE
  5
   734
  8
0
  6
CONTINUOUS
 62
     7
 10
-246.160527586937
 20
2.6149231302367
 30
0.0
 11
-247.810527652502
 21
2.6149231302367
 31
0.0
  0
LINE
  5
   735
  8
0
  6
CONTINUOUS
 62
     7
 10
-246.160527586937
 20
4.41492320176227
 30
0.0
 11
-247.810527652502
 21
4.41492320176227
 31
0.0
  0
LINE
  5
   736
  8
0
  6
CONTINUOUS
 62
     7
 10
-247.210528773069
 20
4.56492320772274
 30
0.0
 11
-247.810527652502
 21
4.56492320772274
 31
0.0
  0
LINE
  5
   737
  8
0
  6
CONTINUOUS
 62
     7
 10
-246.160527586937
 20
2.61492363933361
 30
0.0
 11
-246.160527586937
 21
4.41492381388079
 31
0.0
  0
LINE
  5
   738
  8
0
  6
CONTINUOUS
 62
     7
 10
-245.860527575016
 20
2.78812717764656
 30
0.0
 11
-245.860527575016
 21
4.24171915435242
 31
0.0
  0
LINE
  5
   739
  8
0
  6
CONTINUOUS
 62
     7
 10
-245.860527619562
 20
4.24171979572094
 30
0.0
 11
-246.160527641361
 21
4.41492384530236
 31
0.0
  0
LINE
  5
   73A
  8
0
  6
CONTINUOUS
 62
     7
 10
-246.160527155862
 20
2.61492388821337
 30
0.0
 11
-245.860527134063
 21
2.78812793779479
 31
0.0
  0
INSERT
  5
   73B
  8
0
  6
CONTINUOUS
 62
     7
  2
*HATCH330
 10
-193.960525512695
 20
8.23993015289307
 30
0.0
 41
0.300000011920929
 42
0.300000011920929
 50
89.9999999480344
 43
0.300000011920929
  0
INSERT
  5
   73C
  8
0
  6
CONTINUOUS
 62
     7
  2
*HATCH331
 10
-193.960525512695
 20
8.23993015289307
 30
0.0
 41
0.300000011920929
 42
0.300000011920929
 50
89.9999999480344
 43
0.300000011920929
  0
INSERT
  5
   73D
  8
0
  6
CONTINUOUS
 62
     7
  2
*HATCH332
 10
-193.960525512695
 20
8.23993015289307
 30
0.0
 41
0.300000011920929
 42
0.300000011920929
 50
89.9999999480344
 43
0.300000011920929
  0
INSERT
  5
   73E
  8
0
  6
CONTINUOUS
 62
     7
  2
*HATCH333
 10
-193.960525512695
 20
8.23993015289307
 30
0.0
 41
0.300000011920929
 42
0.300000011920929
 50
89.9999999480344
 43
0.300000011920929
  0
LINE
  5
   73F
  8
0
  6
CONTINUOUS
 62
     7
 10
-244.360529232025
 20
51.5149250733481
 30
0.0
 11
-245.110530978441
 21
51.5149250733481
 31
0.0
  0
LINE
  5
   740
  8
0
  6
CONTINUOUS
 62
     7
 10
-244.360529232025
 20
51.5149250733481
 30
0.0
 11
-244.360529232025
 21
54.6649251985179
 31
0.0
  0
LINE
  5
   741
  8
0
  6
CONTINUOUS
 62
     7
 10
-245.410530990362
 20
55.7149252402411
 30
0.0
 11
-246.160531020165
 21
55.7149252402411
 31
0.0
  0
LINE
  5
   742
  8
0
  6
CONTINUOUS
 62
     7
 10
-246.460531032086
 20
57.5149253117667
 30
0.0
 11
-246.460531032086
 21
58.4149253475295
 31
0.0
  0
LINE
  5
   743
  8
0
  6
CONTINUOUS
 62
     7
 10
-246.460531032086
 20
58.4149253475295
 30
0.0
 11
-247.210528773069
 21
58.4149253475295
 31
0.0
  0
LINE
  5
   744
  8
0
  6
CONTINUOUS
 62
     7
 10
-245.410530990362
 20
54.9649252104388
 30
0.0
 11
-246.160531020165
 21
54.9649252104388
 31
0.0
  0
LINE
  5
   745
  8
0
  6
CONTINUOUS
 62
     7
 10
-245.110530978441
 20
51.5149250733481
 30
0.0
 11
-245.110530978441
 21
54.6649251985179
 31
0.0
  0
ARC
  5
   746
  8
0
  6
CONTINUOUS
 62
     7
 10
-245.410535386415
 20
54.6649213926264
 30
0.0
 40
1.05000557765813
 50
360.000319242658
 51
449.999813057862
  0
ARC
  5
   747
  8
0
  6
CONTINUOUS
 62
     7
 10
-245.410517715917
 20
54.6649374669531
 30
0.0
 40
0.299984958293382
 50
359.998830132094
 51
450.002235749312
  0
ARC
  5
   748
  8
0
  6
CONTINUOUS
 62
     7
 10
-246.160536825879
 20
56.0149156380814
 30
0.0
 40
1.04999135850618
 50
196.601143374767
 51
270.000346548696
  0
LINE
  5
   749
  8
0
  6
CONTINUOUS
 62
     7
 10
-244.360529232025
 20
54.2149251806365
 30
0.0
 11
-245.110530978441
 21
54.2149251806365
 31
0.0
  0
INSERT
  5
   74A
  8
0
  6
CONTINUOUS
 62
     7
  2
*HATCH334
 10
-193.960525512695
 20
8.23993015289307
 30
0.0
 41
0.300000011920929
 42
0.300000011920929
 50
89.9999999480344
 43
0.300000011920929
  0
LINE
  5
   74B
  8
0
  6
CONTINUOUS
 62
     7
 10
-246.160527586937
 20
51.0649260652457
 30
0.0
 11
-246.160527586937
 21
53.1649258794196
 31
0.0
  0
LINE
  5
   74C
  8
0
  6
CONTINUOUS
 62
     7
 10
-245.560527563095
 20
51.0649260652457
 30
0.0
 11
-245.560527563095
 21
53.1649258794196
 31
0.0
  0
LINE
  5
   74D
  8
0
  6
CONTINUOUS
 62
     7
 10
-245.560527563095
 20
53.1649258794196
 30
0.0
 11
-246.160527586937
 21
53.1649258794196
 31
0.0
  0
CIRCLE
  5
   74E
  8
0
  6
CONTINUOUS
 62
   253
 10
-153.160523891449
 20
76.339928281307
 30
0.0
 40
1.65000006556511
  0
LINE
  5
   74F
  8
0
  6
DASHDOT
 62
     7
 10
-150.882037460772
 20
76.339928281307
 30
0.0
 11
-155.526272723859
 21
76.339928281307
 31
0.0
  0
LINE
  5
   750
  8
0
  6
DASHDOT
 62
     7
 10
-153.160523891449
 20
73.9056040404232
 30
0.0
 11
-153.160523891449
 21
78.6864344583066
 31
0.0
  0
CIRCLE
  5
   751
  8
0
  6
CONTINUOUS
 62
   253
 10
-153.160523891449
 20
-11.2600660443304
 30
0.0
 40
1.65000006556511
  0
LINE
  5
   752
  8
0
  6
DASHDOT
 62
     7
 10
-151.210523813963
 20
-11.2600660443304
 30
0.0
 11
-155.110523968935
 21
-11.2600660443304
 31
0.0
  0
LINE
  5
   753
  8
0
  6
DASHDOT
 62
     7
 10
-153.160523891449
 20
-13.2100661218165
 30
0.0
 11
-153.160523891449
 21
-9.31006596684438
 31
0.0
  0
CIRCLE
  5
   754
  8
0
  6
CONTINUOUS
 62
   253
 10
-146.560523629189
 20
69.7399280190466
 30
0.0
 40
1.65000006556511
  0
LINE
  5
   755
  8
0
  6
DASHDOT
 62
     7
 10
-144.047371149776
 20
69.7399280190466
 30
0.0
 11
-149.183348970131
 21
69.7399280190466
 31
0.0
  0
LINE
  5
   756
  8
0
  6
DASHDOT
 62
     7
 10
-146.560523629189
 20
67.3490366101831
 30
0.0
 11
-146.560523629189
 21
72.0752289661478
 31
0.0
  0
LINE
  5
   757
  8
0
  6
DASHDOT
 62
     7
 10
-144.610523551703
 20
-4.66006578206998
 30
0.0
 11
-148.510523706675
 21
-4.66006578206998
 31
0.0
  0
LINE
  5
   758
  8
0
  6
DASHDOT
 62
     7
 10
-146.560523629189
 20
-6.61006585955602
 30
0.0
 11
-146.560523629189
 21
-2.71006570458394
 31
0.0
  0
CIRCLE
  5
   759
  8
0
  6
CONTINUOUS
 62
   253
 10
-146.560523629189
 20
-4.66006578206998
 30
0.0
 40
1.65000006556511
  0
LINE
  5
   75A
  8
0
  6
DOT
 62
     7
 10
-174.760524749756
 20
-43.7964498141616
 30
0.0
 11
-174.760524749756
 21
6.58993008732796
 31
0.0
  0
LINE
  5
   75B
  8
0
  6
DOT
 62
     7
 10
-174.760524749756
 20
58.4899321496487
 30
0.0
 11
-174.760524749756
 21
97.5596977748785
 31
0.0
  0
LINE
  5
   75C
  8
0
  6
CONTINUOUS
 62
   152
 10
-232.510527044535
 20
93.4399335384369
 30
0.0
 11
-232.510527044535
 21
95.5399336218834
 31
0.0
  0
LINE
  5
   75D
  8
0
  6
CONTINUOUS
 62
   152
 10
-232.510527044535
 20
-30.4600713849068
 30
0.0
 11
-232.510527044535
 21
-28.3600713014603
 31
0.0
  0
LINE
  5
   75E
  8
0
  6
CONTINUOUS
 62
   152
 10
-194.410525530577
 20
-30.4600713849068
 30
0.0
 11
-194.410525530577
 21
-28.3600713014603
 31
0.0
  0
LINE
  5
   75F
  8
0
  6
CONTINUOUS
 62
   152
 10
-194.410525530577
 20
93.4399335384369
 30
0.0
 11
-194.410525530577
 21
95.5399336218834
 31
0.0
  0
LINE
  5
   760
  8
0
  6
CONTINUOUS
 62
   152
 10
-194.410525530577
 20
95.5399336218834
 30
0.0
 11
-232.510527044535
 21
95.5399336218834
 31
0.0
  0
LINE
  5
   761
  8
0
  6
CONTINUOUS
 62
   152
 10
-194.410525530577
 20
-30.4600713849068
 30
0.0
 11
-232.510527044535
 21
-30.4600713849068
 31
0.0
  0
LINE
  5
   762
  8
0
  6
CONTINUOUS
 62
   152
 10
-232.510527044535
 20
-28.3600713014603
 30
0.0
 11
-235.510527163744
 21
-28.3600713014603
 31
0.0
  0
LINE
  5
   763
  8
0
  6
CONTINUOUS
 62
   152
 10
-232.510527044535
 20
93.4399335384369
 30
0.0
 11
-235.510527163744
 21
93.4399335384369
 31
0.0
  0
LINE
  5
   764
  8
0
  6
DOT
 62
     7
 10
-252.160509514808
 20
51.064902638507
 30
0.0
 11
-257.110528022051
 21
51.064902638507
 31
0.0
  0
LINE
  5
   765
  8
0
  6
DOT
 62
     7
 10
-257.110528022051
 20
9.06492367684815
 30
0.0
 11
-257.110528022051
 21
51.064902638507
 31
0.0
  0
LINE
  5
   766
  8
0
  6
DOT
 62
     7
 10
-252.284896272575
 20
9.06492213694456
 30
0.0
 11
-257.110528022051
 21
9.06492213694456
 31
0.0
  0
LINE
  5
   767
  8
0
  6
DOT
 62
     7
 10
-258.858803139766
 20
20.3545325321022
 30
0.0
 11
-259.607072851937
 21
22.6689857107338
 31
0.0
  0
LINE
  5
   768
  8
0
  6
DOT
 62
     7
 10
-258.717290051996
 20
20.1836128924648
 30
0.0
 11
-258.858798535493
 21
20.35453498265
 31
0.0
  0
LINE
  5
   769
  8
0
  6
DOT
 62
     7
 10
-258.497034219477
 20
20.1566888463932
 30
0.0
 11
-258.717291798182
 21
20.1836122170216
 31
0.0
  0
LINE
  5
   76A
  8
0
  6
DOT
 62
     7
 10
-258.497034379421
 20
20.1566887740673
 30
0.0
 11
-257.110528022051
 21
20.521375622902
 31
0.0
  0
LINE
  5
   76B
  8
0
  6
DOT
 62
     7
 10
-259.429599729843
 20
23.041168008684
 30
0.0
 11
-257.110528022051
 21
23.9358365051659
 31
0.0
  0
LINE
  5
   76C
  8
0
  6
DOT
 62
     7
 10
-259.592411938995
 20
22.8903983363156
 30
0.0
 11
-259.429599121402
 21
23.0411673873632
 31
0.0
  0
LINE
  5
   76D
  8
0
  6
DOT
 62
     7
 10
-259.6070708797
 20
22.6689869898238
 30
0.0
 11
-259.592408708855
 21
22.8904004260015
 31
0.0
  0
LINE
  5
   76E
  8
0
  6
CONTINUOUS
 62
   253
 10
-222.922272659242
 20
111.394970999649
 30
0.0
 11
-248.697044807822
 21
111.394970999649
 31
0.0
  0
LINE
  5
   76F
  8
0
  6
CONTINUOUS
 62
     7
 10
-171.160524606705
 20
51.7399318814278
 30
0.0
 11
-173.860524713993
 21
51.7399318814278
 31
0.0
  0
LINE
  5
   770
  8
0
  6
CONTINUOUS
 62
     7
 10
-171.160524606705
 20
49.3399317860603
 30
0.0
 11
-173.860524713993
 21
49.3399317860603
 31
0.0
  0
LINE
  5
   771
  8
0
  6
CONTINUOUS
 62
     7
 10
-171.160524606705
 20
13.3399303555489
 30
0.0
 11
-171.160524606705
 21
15.7399304509163
 31
0.0
  0
LINE
  5
   772
  8
0
  6
CONTINUOUS
 62
     7
 10
-171.160524606705
 20
15.7399304509163
 30
0.0
 11
-173.860524713993
 21
15.7399304509163
 31
0.0
  0
LINE
  5
   773
  8
0
  6
CONTINUOUS
 62
     7
 10
-171.160524606705
 20
13.3399303555489
 30
0.0
 11
-173.860524713993
 21
13.3399303555489
 31
0.0
  0
LINE
  5
   774
  8
0
  6
CONTINUOUS
 62
     7
 10
-171.160524606705
 20
49.3399317860603
 30
0.0
 11
-171.160524606705
 21
51.7399318814278
 31
0.0
  0
INSERT
  5
   775
  8
0
  6
CONTINUOUS
 62
     7
  2
*UDIM1726
 10
0.0
 20
0.0
 30
0.0
  0
TEXT
  5
   776
  8
0
  6
CONTINUOUS
 62
     1
 10
-245.616054255891
 20
112.576120700905
 30
0.0
 40
2.00000008543332
  1
ISOLATING DISTANCE - CORSA DI SEZIONAMENTO
 50
359.999999948034
 41
0.749999876022339
  0
INSERT
  5
   777
  8
0
  6
CONTINUOUS
 62
     7
  2
*UDIM1727
 10
0.0
 20
0.0
 30
0.0
  0
INSERT
  5
   778
  8
0
  6
CONTINUOUS
 62
     7
  2
*UDIM1728
 10
0.0
 20
0.0
 30
0.0
  0
TEXT
  5
   779
  8
0
  6
CONTINUOUS
 62
     7
 10
-118.837964028382
 20
28.7020601567624
 30
0.0
 40
4.00000017086665
  1
x
 50
359.999999948034
 41
0.91562505146116
 72
     1
 11
-117.372963899223
 21
30.7020602408744
 31
0.0
 73
     2
  0
INSERT
  5
   77A
  8
0
  6
CONTINUOUS
 62
     7
  2
*UDIM1729
 10
0.0
 20
0.0
 30
0.0
  0
INSERT
  5
   77B
  8
0
  6
CONTINUOUS
 62
     7
  2
*UDIM1730
 10
0.0
 20
0.0
 30
0.0
  0
INSERT
  5
   77C
  8
0
  6
CONTINUOUS
 62
     7
  2
*UDIM1731
 10
0.0
 20
0.0
 30
0.0
  0
INSERT
  5
   77D
  8
0
  6
CONTINUOUS
 62
     7
  2
*UDIM1732
 10
0.0
 20
0.0
 30
0.0
  0
INSERT
  5
   77E
  8
0
  6
CONTINUOUS
 62
     7
  2
*UDIM1733
 10
0.0
 20
0.0
 30
0.0
  0
INSERT
  5
   77F
  8
0
  6
CONTINUOUS
 62
     7
  2
*UDIM1734
 10
0.0
 20
0.0
 30
0.0
  0
INSERT
  5
   780
  8
0
  6
CONTINUOUS
 62
     7
  2
*UDIM1735
 10
0.0
 20
0.0
 30
0.0
  0
INSERT
  5
   781
  8
0
  6
CONTINUOUS
 62
     7
  2
*UDIM1736
 10
0.0
 20
0.0
 30
0.0
  0
INSERT
  5
   782
  8
0
  6
CONTINUOUS
 62
     7
  2
*UDIM1737
 10
0.0
 20
0.0
 30
0.0
  0
TEXT
  5
   783
  8
0
  6
CONTINUOUS
 62
     7
 10
-273.728482180577
 20
15.7047466434319
 30
0.0
 40
4.00000017086665
  1
=      =
 50
89.9999999480344
 41
0.91562505146116
 72
     1
 11
-275.728482253073
 21
29.9884980406291
 31
0.0
 73
     2
  0
INSERT
  5
   784
  8
0
  6
CONTINUOUS
 62
     7
  2
*UDIM1738
 10
0.0
 20
0.0
 30
0.0
  0
INSERT
  5
   785
  8
0
  6
CONTINUOUS
 62
     7
  2
*UDIM1739
 10
0.0
 20
0.0
 30
0.0
  0
INSERT
  5
   786
  8
0
  6
CONTINUOUS
 62
     7
  2
*UDIM1740
 10
0.0
 20
0.0
 30
0.0
  0
INSERT
  5
   787
  8
0
  6
CONTINUOUS
 62
     7
  2
*UDIM1741
 10
0.0
 20
0.0
 30
0.0
  0
INSERT
  5
   788
  8
0
  6
CONTINUOUS
 62
     7
  2
*UDIM1742
 10
0.0
 20
0.0
 30
0.0
  0
INSERT
  5
   789
  8
0
  6
CONTINUOUS
 62
     7
  2
*UDIM1743
 10
0.0
 20
0.0
 30
0.0
  0
TEXT
  5
   78A
  8
0
  6
CONTINUOUS
 62
     7
 10
-287.110825329202
 20
28.3547480106734
 30
0.0
 40
4.00000017086665
  1
x
 50
359.999999948034
 41
0.91562505146116
 72
     1
 11
-285.645825200043
 21
30.3547480947854
 31
0.0
 73
     2
  0
LINE
  5
   78B
  8
0
  6
DASHDOT
 62
     2
 10
-215.213485717773
 20
-57.6078732882828
 30
0.0
 11
-215.213485717773
 21
-142.57030122801
 31
0.0
  0
LINE
  5
   78C
  8
0
  6
DASHDOT
 62
     2
 10
-185.231880119599
 20
-102.287495359778
 30
0.0
 11
-269.205196567227
 21
-102.287495359778
 31
0.0
  0
CIRCLE
  5
   78D
  8
0
  6
CONTINUOUS
 62
     7
 10
-240.413486719132
 20
-90.0024948716164
 30
0.0
 40
0.765000030398369
  0
CIRCLE
  5
   78E
  8
0
  6
CONTINUOUS
 62
     7
 10
-202.613485217094
 20
-90.0024948716164
 30
0.0
 40
0.765000030398369
  0
CIRCLE
  5
   78F
  8
0
  6
CONTINUOUS
 62
     7
 10
-202.613485217094
 20
-111.602495729923
 30
0.0
 40
0.765000030398369
  0
CIRCLE
  5
   790
  8
0
  6
CONTINUOUS
 62
     7
 10
-240.413486719132
 20
-111.602495729923
 30
0.0
 40
0.765000030398369
  0
LINE
  5
   791
  8
0
  6
DASHDOT
 62
     7
 10
-240.413486719132
 20
-91.5324949324131
 30
0.0
 11
-240.413486719132
 21
-96.662495136261
 31
0.0
  0
LINE
  5
   792
  8
0
  6
DASHDOT
 62
     7
 10
-237.848486617208
 20
-90.0024948716164
 30
0.0
 11
-242.978486821055
 21
-90.0024948716164
 31
0.0
  0
LINE
  5
   793
  8
0
  6
DASHDOT
 62
     7
 10
-202.613485217094
 20
-88.5116101890737
 30
0.0
 11
-202.613485217094
 21
-112.706627115753
 31
0.0
  0
LINE
  5
   794
  8
0
  6
DASHDOT
 62
     7
 10
-200.048485115171
 20
-90.0024948716164
 30
0.0
 11
-205.178485319018
 21
-90.0024948716164
 31
0.0
  0
LINE
  5
   795
  8
0
  6
DASHDOT
 62
     7
 10
-202.613485217094
 20
-109.037495627999
 30
0.0
 11
-202.613485217094
 21
-114.167495831847
 31
0.0
  0
LINE
  5
   796
  8
0
  6
DASHDOT
 62
     7
 10
-200.048485115171
 20
-111.602495729923
 30
0.0
 11
-223.876001314836
 21
-111.602495729923
 31
0.0
  0
LINE
  5
   797
  8
0
  6
DASHDOT
 62
     7
 10
-240.413486719132
 20
-88.5116101890737
 30
0.0
 11
-240.413486719132
 21
-114.167495831847
 31
0.0
  0
LINE
  5
   798
  8
0
  6
DASHDOT
 62
     7
 10
-237.848486617208
 20
-111.602495729923
 30
0.0
 11
-242.978486821055
 21
-111.602495729923
 31
0.0
  0
LINE
  5
   799
  8
0
  6
CONTINUOUS
 62
     7
 10
-195.95348495245
 20
-63.9024938344955
 30
0.0
 11
-195.95348495245
 21
-85.5924946963787
 31
0.0
  0
LINE
  5
   79A
  8
0
  6
CONTINUOUS
 62
     7
 10
-247.073486983776
 20
-63.9024938344955
 30
0.0
 11
-247.073486983776
 21
-85.5924946963787
 31
0.0
  0
LINE
  5
   79B
  8
0
  6
CONTINUOUS
 62
     7
 10
-195.95348495245
 20
-85.5924946963787
 30
0.0
 11
-247.073486983776
 21
-85.5924946963787
 31
0.0
  0
LINE
  5
   79C
  8
0
  6
CONTINUOUS
 62
     7
 10
-195.95348495245
 20
-63.9024938344955
 30
0.0
 11
-247.073486983776
 21
-63.9024938344955
 31
0.0
  0
LINE
  5
   79D
  8
0
  6
CONTINUOUS
 62
     7
 10
-195.95348495245
 20
-137.702496767044
 30
0.0
 11
-247.073486983776
 21
-137.702496767044
 31
0.0
  0
LINE
  5
   79E
  8
0
  6
CONTINUOUS
 62
     7
 10
-195.95348495245
 20
-116.012495905161
 30
0.0
 11
-195.95348495245
 21
-137.702496767044
 31
0.0
  0
LINE
  5
   79F
  8
0
  6
CONTINUOUS
 62
     7
 10
-195.95348495245
 20
-116.012495905161
 30
0.0
 11
-247.073486983776
 21
-116.012495905161
 31
0.0
  0
LINE
  5
   7A0
  8
0
  6
CONTINUOUS
 62
     7
 10
-247.073486983776
 20
-116.012495905161
 30
0.0
 11
-247.073486983776
 21
-137.702496767044
 31
0.0
  0
LINE
  5
   7A1
  8
0
  6
CONTINUOUS
 62
     7
 10
-190.684977620297
 20
-61.55193053687
 30
0.0
 11
-251.209862575264
 21
-61.55193053687
 31
0.0
  0
LINE
  5
   7A2
  8
0
  6
CONTINUOUS
 62
     7
 10
-190.684977620297
 20
-140.770114969881
 30
0.0
 11
-251.209862575264
 21
-140.770114969881
 31
0.0
  0
LINE
  5
   7A3
  8
0
  6
CONTINUOUS
 62
     7
 10
-190.684977620297
 20
-61.55193053687
 30
0.0
 11
-190.684977620297
 21
-140.770114969881
 31
0.0
  0
LINE
  5
   7A4
  8
0
  6
CONTINUOUS
 62
     7
 10
-251.209862575264
 20
-61.55193053687
 30
0.0
 11
-251.209862575264
 21
-140.770114969881
 31
0.0
  0
INSERT
  5
   7A5
  8
0
  6
CONTINUOUS
 62
     7
  2
*UDIM1744
 10
0.0
 20
0.0
 30
0.0
  0
INSERT
  5
   7A6
  8
0
  6
CONTINUOUS
 62
     7
  2
*UDIM1745
 10
0.0
 20
0.0
 30
0.0
  0
INSERT
  5
   7A7
  8
0
  6
CONTINUOUS
 62
     7
  2
*UDIM1746
 10
0.0
 20
0.0
 30
0.0
  0
INSERT
  5
   7A8
  8
0
  6
CONTINUOUS
 62
     7
  2
*UDIM1747
 10
0.0
 20
0.0
 30
0.0
  0
INSERT
  5
   7A9
  8
0
  6
CONTINUOUS
 62
     7
  2
*UDIM1748
 10
0.0
 20
0.0
 30
0.0
  0
INSERT
  5
   7AA
  8
0
  6
CONTINUOUS
 62
     7
  2
*UDIM1749
 10
0.0
 20
0.0
 30
0.0
  0
INSERT
  5
   7AB
  8
0
  6
CONTINUOUS
 62
     7
  2
*UDIM1750
 10
0.0
 20
0.0
 30
0.0
  0
INSERT
  5
   7AC
  8
0
  6
CONTINUOUS
 62
     7
  2
*UDIM1751
 10
0.0
 20
0.0
 30
0.0
  0
INSERT
  5
   7AD
  8
0
  6
CONTINUOUS
 62
     7
  2
*UDIM1752
 10
0.0
 20
0.0
 30
0.0
  0
INSERT
  5
   7AE
  8
0
  6
CONTINUOUS
 62
     7
  2
*UDIM1753
 10
0.0
 20
0.0
 30
0.0
  0
INSERT
  5
   7AF
  8
0
  6
CONTINUOUS
 62
     7
  2
*UDIM1754
 10
0.0
 20
0.0
 30
0.0
  0
TEXT
  5
   7B0
  8
0
  6
CONTINUOUS
 62
     7
 10
-217.050445689569
 20
-146.51017500391
 30
0.0
 40
3.00000009059906
  1
Y
 50
359.999999896069
 41
0.916666568954785
 72
     2
 11
-214.850445883482
 21
-146.51017500789
 31
0.0
  0
TEXT
  5
   7B1
  8
0
  6
CONTINUOUS
 62
     7
 10
-216.041572081898
 20
-55.8049287848616
 30
0.0
 40
3.00000009059906
  1
Y
 50
359.999999896069
 41
0.916666568954785
 72
     2
 11
-213.841572275812
 21
-55.8049287888412
 31
0.0
  0
TEXT
  5
   7B2
  8
0
  6
CONTINUOUS
 62
     7
 10
-285.270215799213
 20
-103.337515512504
 30
0.0
 40
3.00000009059906
  1
X
 50
359.999999896069
 41
0.916666568954785
 72
     2
 11
-283.070215993127
 21
-103.337515516484
 31
0.0
  0
TEXT
  5
   7B3
  8
0
  6
CONTINUOUS
 62
     7
 10
-183.834784522437
 20
-104.310199724739
 30
0.0
 40
3.00000009059906
  1
X
 50
359.999999896069
 41
0.916666568954785
 72
     2
 11
-181.634784716351
 21
-104.310199728719
 31
0.0
  0
ENDSEC
  0
EOF
