  0
SECTION
  2
HEADER
  9
$ACADVER
  1
AC1009
  9
$INSBASE
 10
0.0
 20
0.0
 30
0.0
  9
$EXTMIN
 10
-270.1049448
 20
337.0841291968502
 30
0.0
  9
$EXTMAX
 10
909.47024499999986
 20
744.289222
 30
0.0
  9
$LIMMIN
 10
0.0
 20
0.0
  9
$LIMMAX
 10
420.0
 20
297.0
  9
$ORTHOMODE
 70
     0
  9
$REGENMODE
 70
     1
  9
$FILLMODE
 70
     1
  9
$QTEXTMODE
 70
     0
  9
$MIRRTEXT
 70
     1
  9
$DRAGMODE
 70
     2
  9
$LTSCALE
 40
1.0
  9
$OSMODE
 70
    47
  9
$ATTMODE
 70
     1
  9
$TEXTSIZE
 40
0.0
  9
$TRACEWID
 40
1.0
  9
$TEXTSTYLE
  7
STANDARD
  9
$CLAYER
  8
0
  9
$CELTYPE
  6
BYLAYER
  9
$CECOLOR
 62
   256
  9
$DIMSCALE
 40
1.0
  9
$DIMASZ
 40
2.5
  9
$DIMEXO
 40
0.625
  9
$DIMDLI
 40
3.75
  9
$DIMRND
 40
0.0
  9
$DIMDLE
 40
0.0
  9
$DIMEXE
 40
1.25
  9
$DIMTP
 40
0.0
  9
$DIMTM
 40
0.0
  9
$DIMTXT
 40
2.5
  9
$DIMCEN
 40
2.5
  9
$DIMTSZ
 40
0.0
  9
$DIMTOL
 70
     0
  9
$DIMLIM
 70
     0
  9
$DIMTIH
 70
     0
  9
$DIMTOH
 70
     0
  9
$DIMSE1
 70
     0
  9
$DIMSE2
 70
     0
  9
$DIMTAD
 70
     1
  9
$DIMZIN
 70
     8
  9
$DIMBLK
  1

  9
$DIMASO
 70
     1
  9
$DIMSHO
 70
     1
  9
$DIMPOST
  1

  9
$DIMAPOST
  1

  9
$DIMALT
 70
     0
  9
$DIMALTD
 70
     3
  9
$DIMALTF
 40
0.03937
  9
$DIMLFAC
 40
1.0
  9
$DIMTOFL
 70
     1
  9
$DIMTVP
 40
0.0
  9
$DIMTIX
 70
     0
  9
$DIMSOXD
 70
     0
  9
$DIMSAH
 70
     0
  9
$DIMBLK1
  1

  9
$DIMBLK2
  1

  9
$DIMSTYLE
  2
STANDARD
  9
$DIMCLRD
 70
     0
  9
$DIMCLRE
 70
     0
  9
$DIMCLRT
 70
     0
  9
$DIMTFAC
 40
1.0
  9
$DIMGAP
 40
0.625
  9
$LUNITS
 70
     2
  9
$LUPREC
 70
     4
  9
$SKETCHINC
 40
1.0
  9
$FILLETRAD
 40
2.5
  9
$AUNITS
 70
     0
  9
$AUPREC
 70
     0
  9
$MENU
  1
.
  9
$ELEVATION
 40
0.0
  9
$PELEVATION
 40
0.0
  9
$THICKNESS
 40
0.0
  9
$LIMCHECK
 70
     0
  9
$BLIPMODE
 70
     0
  9
$CHAMFERA
 40
2.5
  9
$CHAMFERB
 40
2.5
  9
$SKPOLY
 70
     0
  9
$TDCREATE
 40
2311942.6599061568
  9
$TDUPDATE
 40
2454455.386345949
  9
$TDINDWG
 40
0.000330544
  9
$TDUSRTIMER
 40
0.0003303704
  9
$USRTIMER
 70
     1
  9
$ANGBASE
 50
0.0
  9
$ANGDIR
 70
     0
  9
$PDMODE
 70
     0
  9
$PDSIZE
 40
0.0
  9
$PLINEWID
 40
0.0
  9
$COORDS
 70
     1
  9
$SPLFRAME
 70
     0
  9
$SPLINETYPE
 70
     6
  9
$SPLINESEGS
 70
     8
  9
$ATTDIA
 70
     0
  9
$ATTREQ
 70
     1
  9
$HANDLING
 70
 22529
  9
$HANDSEED
  5
71E
  9
$SURFTAB1
 70
     6
  9
$SURFTAB2
 70
     6
  9
$SURFTYPE
 70
     6
  9
$SURFU
 70
     6
  9
$SURFV
 70
     6
  9
$UCSNAME
  2

  9
$UCSORG
 10
0.0
 20
0.0
 30
0.0
  9
$UCSXDIR
 10
1.0
 20
0.0
 30
0.0
  9
$UCSYDIR
 10
0.0
 20
1.0
 30
0.0
  9
$PUCSNAME
  2

  9
$PUCSORG
 10
0.0
 20
0.0
 30
0.0
  9
$PUCSXDIR
 10
1.0
 20
0.0
 30
0.0
  9
$PUCSYDIR
 10
0.0
 20
1.0
 30
0.0
  9
$USERI1
 70
     0
  9
$USERI2
 70
     0
  9
$USERI3
 70
     0
  9
$USERI4
 70
     0
  9
$USERI5
 70
     0
  9
$USERR1
 40
0.0
  9
$USERR2
 40
0.0
  9
$USERR3
 40
0.0
  9
$USERR4
 40
0.0
  9
$USERR5
 40
0.0
  9
$WORLDVIEW
 70
     1
  9
$SHADEDGE
 70
     3
  9
$SHADEDIF
 70
    70
  9
$TILEMODE
 70
     1
  9
$MAXACTVP
 70
    48
  9
$PLIMCHECK
 70
     0
  9
$PEXTMIN
 10
0.0
 20
0.0
 30
0.0
  9
$PEXTMAX
 10
281.770691
 20
276.96829200000002
 30
2.0
  9
$PLIMMIN
 10
0.0
 20
0.0
  9
$PLIMMAX
 10
420.0
 20
297.0
  9
$UNITMODE
 70
     0
  9
$VISRETAIN
 70
     0
  9
$PLINEGEN
 70
     0
  9
$PSLTSCALE
 70
     1
  0
ENDSEC
  0
SECTION
  2
TABLES
  0
TABLE
  2
VPORT
 70
     2
  0
VPORT
  2
*ACTIVE
 70
     0
 10
0.0
 20
0.0
 11
1.0
 21
1.0
 12
319.68475452354738
 22
540.57389946337071
 13
0.0
 23
0.0
 14
1.0
 24
1.0
 15
0.0
 25
0.0
 16
0.0
 26
0.0
 36
1.0
 17
0.0
 27
0.0
 37
0.0
 40
764.53870106614852
 41
1.550724637681159
 42
50.0
 43
0.0
 44
0.0
 50
0.0
 51
0.0
 71
     0
 72
   100
 73
     1
 74
     1
 75
     0
 76
     0
 77
     0
 78
     0
  0
ENDTAB
  0
TABLE
  2
LTYPE
 70
     8
  0
LTYPE
  2
CONTINUOUS
 70
     0
  3
Solid line
 72
    65
 73
     0
 40
0.0
  0
LTYPE
  2
DASHED
 70
     0
  3
__ __ __ __ __ __ __ __ __ __ __ __ __ __ __ __
 72
    65
 73
     2
 40
15.0
 49
12.0
 49
-3.0
  0
LTYPE
  2
DASHDOT
 70
     0
  3
 __ . __ . __ . __ . __ . __ . __ . 
 72
    65
 73
     4
 40
18.5
 49
12.0
 49
-3.0
 49
0.5
 49
-3.0
  0
LTYPE
  2
DOT
 70
     0
  3
 . . . . . . . . . . . . . . . .
 72
    65
 73
     2
 40
3.5
 49
0.5
 49
-3.0
  0
LTYPE
  2
DASHSPACE
 70
     0
  3
__    __    __    __    __   
 72
    65
 73
     2
 40
30.0
 49
12.0
 49
-18.0
  0
LTYPE
  2
DASHDOT2
 70
     0
  3
__ . . __ . . __ . . __ 
 72
    65
 73
     6
 40
22.0
 49
12.0
 49
-3.0
 49
0.5
 49
-3.0
 49
0.5
 49
-3.0
  0
LTYPE
  2
PHANTOM
 70
     0
  3
____________    ____    ____   _
 72
    65
 73
     6
 40
20.0
 49
10.0
 49
-2.0
 49
2.0
 49
-2.0
 49
2.0
 49
-2.0
  0
LTYPE
  2
AXES
 70
     0
  3
________  __  ________  __  _____
 72
    65
 73
     4
 40
24.0
 49
15.0
 49
-3.0
 49
3.0
 49
-3.0
  0
ENDTAB
  0
TABLE
  2
LAYER
 70
     1
  0
LAYER
  2
0
 70
     0
 62
     7
  6
CONTINUOUS
  0
ENDTAB
  0
TABLE
  2
STYLE
 70
     2
  0
STYLE
  2
STANDARD
 70
     0
 40
0.0
 41
1.0
 50
0.0
 71
     0
 42
0.0
  3
isocp.shx
  4

  0
STYLE
  2
GDT
 70
     0
 40
0.0
 41
1.0
 50
0.0
 71
     0
 42
0.0
  3
amgdt.shx
  4

  0
ENDTAB
  0
TABLE
  2
VIEW
 70
     0
  0
ENDTAB
  0
TABLE
  2
UCS
 70
     0
  0
ENDTAB
  0
TABLE
  2
APPID
 70
     1
  0
APPID
  2
ACAD
 70
     0
  0
ENDTAB
  0
TABLE
  2
DIMSTYLE
 70
     1
  0
DIMSTYLE
  2
STANDARD
 70
     0
  3

  4

  5

  6

  7

 40
1.0
 41
2.5
 42
0.625
 43
3.75
 44
1.25
 45
0.0
 46
0.0
 47
0.0
 48
0.0
140
2.5
141
2.5
142
0.0
143
0.03937
144
1.0
145
0.0
146
1.0
147
0.625
 71
     0
 72
     0
 73
     0
 74
     0
 75
     0
 76
     0
 77
     1
 78
     8
170
     0
171
     3
172
     1
173
     0
174
     0
175
     0
176
     0
177
     0
178
     0
  0
ENDTAB
  0
ENDSEC
  0
SECTION
  2
BLOCKS
  0
BLOCK
  8
0
  2
$MODEL_SPACE
 70
     0
 10
0.0
 20
0.0
 30
0.0
  3
$MODEL_SPACE
  1

  0
ENDBLK
  5
E
  8
0
  0
BLOCK
 67
     1
  8
0
  2
$PAPER_SPACE
 70
     0
 10
0.0
 20
0.0
 30
0.0
  3
$PAPER_SPACE
  1

  0
ENDBLK
  5
10
 67
     1
  8
0
  0
BLOCK
  8
0
  2
BLOCK0
 70
     0
 10
0.0
 20
0.0
 30
0.0
  3
BLOCK0
  1

  0
TEXT
  5
47A
  8
0
 62
     1
 10
-560.0
 20
-58.0
 30
0.0
 40
3.0
  1
Ts3
 50
180.0
 41
1.225762527177944
 72
     5
 11
-567.69995099999994
 21
-58.0
 31
0.0
  0
ENDBLK
  5
47B
  8
0
  0
BLOCK
  8
0
  2
BLOCK1
 70
     0
 10
0.0
 20
0.0
 30
0.0
  3
BLOCK1
  1

  0
TEXT
  5
47D
  8
0
 62
     1
 10
-536.0
 20
-48.0
 30
0.0
 40
4.0
  1
1SDH000637R0.107
 50
180.0
 41
1.391145938967135
 72
     5
 11
-595.26281700000004
 21
-48.0
 31
0.0
  0
ENDBLK
  5
47E
  8
0
  0
BLOCK
  8
0
  2
BLOCK2
 70
     0
 10
0.0
 20
0.0
 30
0.0
  3
BLOCK2
  1

  0
TEXT
  5
480
  8
0
 62
     1
 10
-542.0
 20
-77.0
 30
0.0
 40
2.0
  1
INTERR.AUTOMATICO SERIE ISOMAX
 50
179.9999897438901
 41
1.076916072289172
 72
     5
 11
-586.69201699999985
 21
-76.999992000000006
 31
0.0
  0
ENDBLK
  5
481
  8
0
  0
BLOCK
  8
0
  2
BLOCK3
 70
     0
 10
0.0
 20
0.0
 30
0.0
  3
BLOCK3
  1

  0
TEXT
  5
483
  8
0
 62
     1
 10
-533.0
 20
-72.0
 30
0.0
 40
2.0
  1
TRIPOL.ESECUZIONE RIMOVIBILE TERMIN.ANTERIORI
 50
179.99999317785429
 41
1.136852588832497
 72
     5
 11
-600.18798800000002
 21
-71.999992000000006
 31
0.0
  0
ENDBLK
  5
484
  8
0
  0
BLOCK
  8
0
  2
BLOCK4
 70
     0
 10
0.0
 20
0.0
 30
0.0
  3
BLOCK4
  1

  0
TEXT
  5
486
  8
0
 62
     1
 10
-538.0
 20
-88.0
 30
0.0
 40
2.0
  1
3POLE LOW VOLTAGE M.C.C.B SERIES ISOMAX
 50
179.9999921228804
 41
1.0999919659735451
 72
     5
 11
-596.18957499999999
 21
-87.999992000000006
 31
0.0
  0
ENDBLK
  5
487
  8
0
  0
BLOCK
  8
0
  2
BLOCK5
 70
     0
 10
0.0
 20
0.0
 30
0.0
  3
BLOCK5
  1

  0
TEXT
  5
489
  8
0
 62
     1
 10
-543.0
 20
-84.0
 30
0.0
 40
2.0
  1
PLUG-IN VERSION FRONT TERMINALS
 50
179.99999007687251
 41
1.064835164889038
 72
     5
 11
-589.19171100000005
 21
-83.999992000000006
 31
0.0
  0
ENDBLK
  5
48A
  8
0
  0
BLOCK
  8
0
  2
BLOCK6
 70
     0
 10
0.0
 20
0.0
 30
0.0
  3
BLOCK6
  1

  0
TEXT
  5
48C
  8
0
 62
     1
 10
-504.15213
 20
-61.0
 30
0.0
 40
2.0
  1
N0204 2007-09-17
 50
180.0
 41
1.1017678659486889
 72
     5
 11
-527.84783900000002
 21
-61.0
 31
0.0
  0
ENDBLK
  5
48D
  8
0
  0
BLOCK
  8
0
  2
BLOCK7
 70
     0
 10
0.0
 20
0.0
 30
0.0
  3
BLOCK7
  1

  0
TEXT
  5
48F
  8
0
 62
     7
 10
-94.0
 20
4.0
 30
0.0
 40
3.0
  1
X
 50
180.0
 41
0.9777764444444425
 72
     5
 11
-96.19999700000001
 21
4.0
 31
0.0
  0
ENDBLK
  5
490
  8
0
  0
BLOCK
  8
0
  2
BLOCK8
 70
     0
 10
0.0
 20
0.0
 30
0.0
  3
BLOCK8
  1

  0
TEXT
  5
492
  8
0
 62
     7
 10
134.0
 20
-4.0
 30
0.0
 40
3.0
  1
X
 50
180.0
 41
0.9777764444444425
 72
     5
 11
131.800003
 21
-4.0
 31
0.0
  0
ENDBLK
  5
493
  8
0
  0
BLOCK
  8
0
  2
BLOCK9
 70
     0
 10
0.0
 20
0.0
 30
0.0
  3
BLOCK9
  1

  0
TEXT
  5
495
  8
0
 62
     7
 10
1.0
 20
-126.0
 30
0.0
 40
3.0
  1
Y
 50
180.0
 41
0.9777777777777778
 72
     5
 11
-1.1999999999999991
 21
-126.0
 31
0.0
  0
ENDBLK
  5
496
  8
0
  0
BLOCK
  8
0
  2
BLOCK10
 70
     0
 10
0.0
 20
0.0
 30
0.0
  3
BLOCK10
  1

  0
TEXT
  5
498
  8
0
 62
     7
 10
2.0
 20
194.0
 30
0.0
 40
3.0
  1
Y
 50
180.0
 41
0.9777777777777778
 72
     5
 11
-0.2
 21
194.0
 31
0.0
  0
ENDBLK
  5
499
  8
0
  0
BLOCK
  8
0
  2
BLOCK11
 70
     0
 10
0.0
 20
0.0
 30
0.0
  3
BLOCK11
  1

  0
TEXT
  5
49B
  8
0
 62
     7
 10
155.99047899999999
 20
91.979613999999998
 30
0.0
 40
3.0
  1
 5
 50
202.64963740432279
 41
1.664276198983822
 72
     5
 11
151.4222409999999
 21
90.073394999999977
 31
0.0
  0
ENDBLK
  5
49C
  8
0
  0
BLOCK
  8
0
  2
BLOCK12
 70
     0
 10
0.0
 20
0.0
 30
0.0
  3
BLOCK12
  1

  0
TEXT
  5
49E
  8
0
 62
     7
 10
157.46704099999991
 20
92.595764000000003
 30
0.0
 40
3.0
  1
%%c
 50
202.64971075636271
 41
0.9777805771022492
 72
     5
 11
155.43670700000001
 21
91.748549999999994
 31
0.0
  0
ENDBLK
  5
49F
  8
0
  0
BLOCK
  8
0
  2
BLOCK13
 70
     0
 10
0.0
 20
0.0
 30
0.0
  3
BLOCK13
  1

  0
TEXT
  5
4A1
  8
0
 62
     7
 10
135.68713399999999
 20
83.507477000000009
 30
0.0
 40
3.0
  1
 (M4)
 50
202.64966485087601
 41
1.6002244716596341
 72
     5
 11
123.505196
 21
78.424231999999975
 31
0.0
  0
ENDBLK
  5
4A2
  8
0
  0
BLOCK
  8
0
  2
BLOCK14
 70
     0
 10
0.0
 20
0.0
 30
0.0
  3
BLOCK14
  1

  0
TEXT
  5
4A4
  8
0
 62
     7
 10
-113.55444299999991
 20
16.5
 30
0.0
 40
3.0
  1
100
 50
269.99994047176273
 41
1.4660032381388619
 72
     5
 11
-113.554451
 21
8.8000199999999982
 31
0.0
  0
ENDBLK
  5
4A5
  8
0
  0
BLOCK
  8
0
  2
BLOCK15
 70
     0
 10
0.0
 20
0.0
 30
0.0
  3
BLOCK15
  1

  0
TEXT
  5
4A7
  8
0
 62
     7
 10
-37.0
 20
134.743469
 30
0.0
 40
3.0
  1
25
 50
180.0
 41
1.2776591662854091
 72
     5
 11
-41.949989000000002
 21
134.743469
 31
0.0
  0
ENDBLK
  5
4A8
  8
0
  0
BLOCK
  8
0
  2
BLOCK16
 70
     0
 10
0.0
 20
0.0
 30
0.0
  3
BLOCK16
  1

  0
TEXT
  5
4AA
  8
0
 62
     7
 10
-12.0
 20
171.426208
 30
0.0
 40
3.0
  1
45
 50
180.0
 41
1.185835136090813
 72
     5
 11
-16.949988999999999
 21
171.426208
 31
0.0
  0
ENDBLK
  5
4AB
  8
0
  0
BLOCK
  8
0
  2
BLOCK17
 70
     0
 10
0.0
 20
0.0
 30
0.0
  3
BLOCK17
  1

  0
TEXT
  5
4AD
  8
0
 62
     5
 10
114.65881299999999
 20
-2.1380619999999988
 30
0.0
 40
3.0
  1
52,25
 50
270.00003472482013
 41
1.4466876342681141
 72
     5
 11
114.6588209999999
 21
-15.338022
 31
0.0
  0
ENDBLK
  5
4AE
  8
0
  0
BLOCK
  8
0
  2
BLOCK18
 70
     0
 10
0.0
 20
0.0
 30
0.0
  3
BLOCK18
  1

  0
TEXT
  5
4B0
  8
0
 62
     7
 10
101.73704499999999
 20
-54.130980999999998
 30
0.0
 40
3.0
  1
105
 50
359.99997023588912
 41
1.4327509593041881
 72
     5
 11
109.4370269999999
 21
-54.130985000000003
 31
0.0
  0
ENDBLK
  5
4B1
  8
0
  0
BLOCK
  8
0
  2
BLOCK19
 70
     0
 10
0.0
 20
0.0
 30
0.0
  3
BLOCK19
  1

  0
TEXT
  5
4B3
  8
0
 62
     7
 10
110.0
 20
222.0
 30
0.0
 40
3.0
  1
X
 50
270.0
 41
0.9777764444444551
 72
     5
 11
110.0
 21
219.80000299999989
 31
0.0
  0
ENDBLK
  5
4B4
  8
0
  0
BLOCK
  8
0
  2
BLOCK20
 70
     0
 10
0.0
 20
0.0
 30
0.0
  3
BLOCK20
  1

  0
TEXT
  5
4B6
  8
0
 62
     7
 10
107.20961
 20
-79.023956000000013
 30
0.0
 40
3.0
  1
X
 50
270.0
 41
0.9777764444444425
 72
     5
 11
107.20961
 21
-81.223952999999995
 31
0.0
  0
ENDBLK
  5
4B7
  8
0
  0
BLOCK
  8
0
  2
BLOCK21
 70
     0
 10
0.0
 20
0.0
 30
0.0
  3
BLOCK21
  1

  0
TEXT
  5
4B9
  8
0
 62
     7
 10
-80.221534999999989
 20
76.727417000000003
 30
0.0
 40
3.0
  1
184,55
 50
269.99997485443947
 41
1.46004810023621
 72
     5
 11
-80.221542000000014
 21
60.777466000000011
 31
0.0
  0
ENDBLK
  5
4BA
  8
0
  0
BLOCK
  8
0
  2
BLOCK22
 70
     0
 10
0.0
 20
0.0
 30
0.0
  3
BLOCK22
  1

  0
TEXT
  5
4BC
  8
0
 62
     7
 10
-40.085456999999991
 20
84.249297999999996
 30
0.0
 40
3.0
  1
153
 50
269.99997023588912
 41
1.4327509593041849
 72
     5
 11
-40.085460999999988
 21
76.549316000000005
 31
0.0
  0
ENDBLK
  5
4BD
  8
0
  0
BLOCK
  8
0
  2
BLOCK23
 70
     0
 10
0.0
 20
0.0
 30
0.0
  3
BLOCK23
  1

  0
TEXT
  5
4BF
  8
0
 62
     7
 10
-62.802185000000001
 20
-12.000061000000001
 30
0.0
 40
3.0
  1
2
 50
270.0
 41
1.2020694180030751
 72
     5
 11
-62.802185000000001
 21
-14.200060999999989
 31
0.0
  0
ENDBLK
  5
4C0
  8
0
  0
BLOCK
  8
0
  2
BLOCK24
 70
     0
 10
0.0
 20
0.0
 30
0.0
  3
BLOCK24
  1

  0
TEXT
  5
4C2
  8
0
 62
     7
 10
-62.802188999999998
 20
87.999968999999993
 30
0.0
 40
3.0
  1
156,5
 50
270.00001736241262
 41
1.548515847655479
 72
     5
 11
-62.802185000000001
 21
74.800010999999984
 31
0.0
  0
ENDBLK
  5
4C3
  8
0
  0
BLOCK
  8
0
  2
BLOCK25
 70
     0
 10
0.0
 20
0.0
 30
0.0
  3
BLOCK25
  1

  0
TEXT
  5
4C5
  8
0
 62
     7
 10
266.24471999999997
 20
110.4999389999999
 30
0.0
 40
3.0
  1
5
 50
270.0
 41
1.2399490238209789
 72
     5
 11
266.24471999999997
 21
108.2999419999999
 31
0.0
  0
ENDBLK
  5
4C6
  8
0
  0
BLOCK
  8
0
  2
BLOCK26
 70
     0
 10
0.0
 20
0.0
 30
0.0
  3
BLOCK26
  1

  0
TEXT
  5
4C8
  8
0
 62
     7
 10
266.24471999999997
 20
142.49996899999991
 30
0.0
 40
3.0
  1
31
 50
270.0
 41
1.5714273015872999
 72
     5
 11
266.24471999999997
 21
137.54997299999999
 31
0.0
  0
ENDBLK
  5
4C9
  8
0
  0
BLOCK
  8
0
  2
BLOCK27
 70
     0
 10
0.0
 20
0.0
 30
0.0
  3
BLOCK27
  1

  0
TEXT
  5
4CB
  8
0
 62
     7
 10
266.24471999999997
 20
166.99996899999999
 30
0.0
 40
3.0
  1
3
 50
270.0
 41
1.2399484602070201
 72
     5
 11
266.24471999999997
 21
164.79997299999991
 31
0.0
  0
ENDBLK
  5
4CC
  8
0
  0
BLOCK
  8
0
  2
BLOCK28
 70
     0
 10
0.0
 20
0.0
 30
0.0
  3
BLOCK28
  1

  0
TEXT
  5
4CE
  8
0
 62
     7
 10
266.24471999999997
 20
172.49996899999991
 30
0.0
 40
3.0
  1
\U+2265
 50
270.0
 41
1.2422310047017231
 72
     5
 11
266.24471999999997
 21
170.29997299999991
 31
0.0
  0
ENDBLK
  5
4CF
  8
0
  0
BLOCK
  8
0
  2
BLOCK29
 70
     0
 10
0.0
 20
0.0
 30
0.0
  3
BLOCK29
  1

  0
LINE
  5
4D1
  8
0
 62
     2
 10
184.4806209999999
 20
-4.168404999999999
 30
0.0
 11
186.31227100000001
 21
-6.000051
 31
0.0
  0
LINE
  5
4D2
  8
0
 62
     2
 10
186.433594
 20
-4.000051
 30
0.0
 11
188.43359399999991
 21
-6.000051
 31
0.0
  0
LINE
  5
4D3
  8
0
 62
     2
 10
188.554901
 20
-4.000051
 30
0.0
 11
190.554901
 21
-6.000051
 31
0.0
  0
LINE
  5
4D4
  8
0
 62
     2
 10
190.67622399999991
 20
-4.000051
 30
0.0
 11
192.67622399999999
 21
-6.000051
 31
0.0
  0
LINE
  5
4D5
  8
0
 62
     2
 10
192.7975459999999
 20
-4.000051
 30
0.0
 11
194.7975459999999
 21
-6.000051
 31
0.0
  0
LINE
  5
4D6
  8
0
 62
     2
 10
194.91886899999989
 20
-4.000051
 30
0.0
 11
196.918869
 21
-6.000051
 31
0.0
  0
LINE
  5
4D7
  8
0
 62
     2
 10
197.04019199999999
 20
-4.000051
 30
0.0
 11
199.04019199999999
 21
-6.000051
 31
0.0
  0
LINE
  5
4D8
  8
0
 62
     2
 10
199.16151400000001
 20
-4.000051
 30
0.0
 11
201.1615139999999
 21
-6.000051
 31
0.0
  0
LINE
  5
4D9
  8
0
 62
     2
 10
201.282837
 20
-4.000051
 30
0.0
 11
203.28283699999989
 21
-6.000051
 31
0.0
  0
LINE
  5
4DA
  8
0
 62
     2
 10
203.404144
 20
-4.000051
 30
0.0
 11
205.404144
 21
-6.000051
 31
0.0
  0
LINE
  5
4DB
  8
0
 62
     2
 10
205.52546699999999
 20
-4.000051
 30
0.0
 11
207.52546699999999
 21
-6.000051
 31
0.0
  0
LINE
  5
4DC
  8
0
 62
     2
 10
207.6467899999999
 20
-4.000051
 30
0.0
 11
209.6467899999999
 21
-6.000051
 31
0.0
  0
LINE
  5
4DD
  8
0
 62
     2
 10
209.76811199999989
 20
-4.000051
 30
0.0
 11
211.76811199999989
 21
-6.000051
 31
0.0
  0
LINE
  5
4DE
  8
0
 62
     2
 10
211.88943499999999
 20
-4.000051
 30
0.0
 11
213.88943499999999
 21
-6.000051
 31
0.0
  0
LINE
  5
4DF
  8
0
 62
     2
 10
214.01075700000001
 20
-4.000051
 30
0.0
 11
216.01075700000001
 21
-6.000051
 31
0.0
  0
LINE
  5
4E0
  8
0
 62
     2
 10
216.1320649999999
 20
-4.000051
 30
0.0
 11
218.1320649999999
 21
-6.000051
 31
0.0
  0
LINE
  5
4E1
  8
0
 62
     2
 10
218.25338699999989
 20
-4.000051
 30
0.0
 11
220.25338699999989
 21
-6.000051
 31
0.0
  0
LINE
  5
4E2
  8
0
 62
     2
 10
220.37470999999999
 20
-4.000051
 30
0.0
 11
222.37470999999999
 21
-6.000051
 31
0.0
  0
LINE
  5
4E3
  8
0
 62
     2
 10
222.49603300000001
 20
-4.000051
 30
0.0
 11
224.49603300000001
 21
-6.000051
 31
0.0
  0
LINE
  5
4E4
  8
0
 62
     2
 10
224.61735499999989
 20
-4.000051
 30
0.0
 11
226.61735499999989
 21
-6.000051
 31
0.0
  0
LINE
  5
4E5
  8
0
 62
     2
 10
226.73867799999991
 20
-4.000051
 30
0.0
 11
228.73867799999991
 21
-6.000051
 31
0.0
  0
LINE
  5
4E6
  8
0
 62
     2
 10
228.85998499999999
 20
-4.000051
 30
0.0
 11
230.85998499999999
 21
-6.000051
 31
0.0
  0
LINE
  5
4E7
  8
0
 62
     2
 10
230.98130800000001
 20
-4.000051
 30
0.0
 11
232.98130800000001
 21
-6.000051
 31
0.0
  0
LINE
  5
4E8
  8
0
 62
     2
 10
233.10263099999989
 20
-4.000051
 30
0.0
 11
235.10263099999989
 21
-6.000051
 31
0.0
  0
LINE
  5
4E9
  8
0
 62
     2
 10
235.22395299999991
 20
-4.000051
 30
0.0
 11
235.93187
 21
-4.7079629999999986
 31
0.0
  0
ENDBLK
  5
4EA
  8
0
  0
BLOCK
  8
0
  2
BLOCK30
 70
     0
 10
0.0
 20
0.0
 30
0.0
  3
BLOCK30
  1

  0
LINE
  5
4EC
  8
0
 62
     2
 10
165.9806209999999
 20
-4.760286999999999
 30
0.0
 11
167.22038299999991
 21
-6.000051
 31
0.0
  0
LINE
  5
4ED
  8
0
 62
     2
 10
167.34170499999999
 20
-4.000051
 30
0.0
 11
169.34170499999999
 21
-6.000051
 31
0.0
  0
LINE
  5
4EE
  8
0
 62
     2
 10
169.46302800000001
 20
-4.000051
 30
0.0
 11
171.46302800000001
 21
-6.000051
 31
0.0
  0
LINE
  5
4EF
  8
0
 62
     2
 10
171.584351
 20
-4.000051
 30
0.0
 11
173.584351
 21
-6.000051
 31
0.0
  0
LINE
  5
4F0
  8
0
 62
     2
 10
173.7056729999999
 20
-4.000051
 30
0.0
 11
175.7056729999999
 21
-6.000051
 31
0.0
  0
LINE
  5
4F1
  8
0
 62
     2
 10
175.82698099999999
 20
-4.000051
 30
0.0
 11
177.4806209999999
 21
-5.6536860000000004
 31
0.0
  0
ENDBLK
  5
4F2
  8
0
  0
BLOCK
  8
0
  2
BLOCK31
 70
     0
 10
0.0
 20
0.0
 30
0.0
  3
BLOCK31
  1

  0
LINE
  5
4F4
  8
0
 62
     2
 10
42.480625000000003
 20
-4.2968619999999991
 30
0.0
 11
44.183815000000003
 21
-6.000051
 31
0.0
  0
LINE
  5
4F5
  8
0
 62
     2
 10
44.305134000000002
 20
-4.000051
 30
0.0
 11
46.305134000000002
 21
-6.000051
 31
0.0
  0
LINE
  5
4F6
  8
0
 62
     2
 10
46.426456000000002
 20
-4.000051
 30
0.0
 11
48.426456000000002
 21
-6.000051
 31
0.0
  0
LINE
  5
4F7
  8
0
 62
     2
 10
48.547775000000001
 20
-4.000051
 30
0.0
 11
50.547775000000001
 21
-6.000051
 31
0.0
  0
LINE
  5
4F8
  8
0
 62
     2
 10
50.669094000000001
 20
-4.000051
 30
0.0
 11
52.669093999999987
 21
-6.000051
 31
0.0
  0
LINE
  5
4F9
  8
0
 62
     2
 10
52.790416999999998
 20
-4.000051
 30
0.0
 11
53.980625000000003
 21
-5.1902609999999996
 31
0.0
  0
ENDBLK
  5
4FA
  8
0
  0
BLOCK
  8
0
  2
BLOCK32
 70
     0
 10
0.0
 20
0.0
 30
0.0
  3
BLOCK32
  1

  0
LINE
  5
4FC
  8
0
 62
     2
 10
-26.493057
 20
-5.3267470000000001
 30
0.0
 11
-25.819752000000001
 21
-6.000051
 31
0.0
  0
LINE
  5
4FD
  8
0
 62
     2
 10
-25.698430999999989
 20
-4.000051
 30
0.0
 11
-23.698432999999991
 21
-6.000051
 31
0.0
  0
LINE
  5
4FE
  8
0
 62
     2
 10
-23.577112
 20
-4.000051
 30
0.0
 11
-21.577112
 21
-6.000051
 31
0.0
  0
LINE
  5
4FF
  8
0
 62
     2
 10
-21.455791000000001
 20
-4.000051
 30
0.0
 11
-19.455791000000001
 21
-6.000051
 31
0.0
  0
LINE
  5
500
  8
0
 62
     2
 10
-19.334471000000001
 20
-4.000051
 30
0.0
 11
-17.334471000000001
 21
-6.000051
 31
0.0
  0
LINE
  5
501
  8
0
 62
     2
 10
-17.21315199999999
 20
-4.000051
 30
0.0
 11
-15.213151
 21
-6.000051
 31
0.0
  0
LINE
  5
502
  8
0
 62
     2
 10
-15.09183099999999
 20
-4.000051
 30
0.0
 11
-13.091831000000001
 21
-6.000051
 31
0.0
  0
LINE
  5
503
  8
0
 62
     2
 10
-12.970510000000001
 20
-4.000051
 30
0.0
 11
-10.970510000000001
 21
-6.000051
 31
0.0
  0
LINE
  5
504
  8
0
 62
     2
 10
-10.849190999999999
 20
-4.000051
 30
0.0
 11
-8.8491910000000011
 21
-6.000051
 31
0.0
  0
LINE
  5
505
  8
0
 62
     2
 10
-8.7278699999999994
 20
-4.000051
 30
0.0
 11
-6.7278699999999994
 21
-6.000051
 31
0.0
  0
LINE
  5
506
  8
0
 62
     2
 10
-6.6065500000000004
 20
-4.000051
 30
0.0
 11
-4.6065500000000004
 21
-6.000051
 31
0.0
  0
LINE
  5
507
  8
0
 62
     2
 10
-4.4852299999999996
 20
-4.000051
 30
0.0
 11
-2.4852300000000001
 21
-6.000051
 31
0.0
  0
LINE
  5
508
  8
0
 62
     2
 10
-2.3639099999999988
 20
-4.000051
 30
0.0
 11
-0.36391
 21
-6.000051
 31
0.0
  0
LINE
  5
509
  8
0
 62
     2
 10
-0.242589
 20
-4.000051
 30
0.0
 11
1.757409999999999
 21
-6.000051
 31
0.0
  0
LINE
  5
50A
  8
0
 62
     2
 10
1.8787309999999999
 20
-4.000051
 30
0.0
 11
3.8787309999999988
 21
-6.000051
 31
0.0
  0
LINE
  5
50B
  8
0
 62
     2
 10
4.000051
 20
-4.000051
 30
0.0
 11
6.000051
 21
-6.000051
 31
0.0
  0
LINE
  5
50C
  8
0
 62
     2
 10
6.121370999999999
 20
-4.000051
 30
0.0
 11
8.1213709999999981
 21
-6.000051
 31
0.0
  0
LINE
  5
50D
  8
0
 62
     2
 10
8.2426910000000007
 20
-4.000051
 30
0.0
 11
10.242691000000001
 21
-6.000051
 31
0.0
  0
LINE
  5
50E
  8
0
 62
     2
 10
10.364012000000001
 20
-4.000051
 30
0.0
 11
12.36401199999999
 21
-6.000051
 31
0.0
  0
LINE
  5
50F
  8
0
 62
     2
 10
12.485332
 20
-4.000051
 30
0.0
 11
14.485332
 21
-6.000051
 31
0.0
  0
LINE
  5
510
  8
0
 62
     2
 10
14.606652
 20
-4.000051
 30
0.0
 11
16.606650999999999
 21
-6.000051
 31
0.0
  0
LINE
  5
511
  8
0
 62
     2
 10
16.727972000000001
 20
-4.000051
 30
0.0
 11
18.727972000000001
 21
-6.000051
 31
0.0
  0
LINE
  5
512
  8
0
 62
     2
 10
18.849292999999989
 20
-4.000051
 30
0.0
 11
20.849292999999999
 21
-6.000051
 31
0.0
  0
LINE
  5
513
  8
0
 62
     2
 10
20.970613
 20
-4.000051
 30
0.0
 11
22.970611999999988
 21
-6.000051
 31
0.0
  0
LINE
  5
514
  8
0
 62
     2
 10
23.091932
 20
-4.000051
 30
0.0
 11
25.091932
 21
-6.000051
 31
0.0
  0
LINE
  5
515
  8
0
 62
     2
 10
25.213252999999991
 20
-4.000051
 30
0.0
 11
27.213253000000002
 21
-6.000051
 31
0.0
  0
LINE
  5
516
  8
0
 62
     2
 10
27.334574
 20
-4.000051
 30
0.0
 11
29.334573999999989
 21
-6.000051
 31
0.0
  0
LINE
  5
517
  8
0
 62
     2
 10
29.455892999999989
 20
-4.000051
 30
0.0
 11
31.455893
 21
-6.000051
 31
0.0
  0
LINE
  5
518
  8
0
 62
     2
 10
31.577213
 20
-4.000051
 30
0.0
 11
33.577213
 21
-6.000051
 31
0.0
  0
LINE
  5
519
  8
0
 62
     2
 10
33.698532
 20
-4.000051
 30
0.0
 11
35.480625000000003
 21
-5.7821429999999987
 31
0.0
  0
ENDBLK
  5
51A
  8
0
  0
BLOCK
  8
0
  2
BLOCK33
 70
     0
 10
0.0
 20
0.0
 30
0.0
  3
BLOCK33
  1

  0
LINE
  5
51C
  8
0
 62
     3
 10
31.236810999999999
 20
-173.33813499999999
 30
0.0
 11
189.73680100000001
 21
-173.33813499999999
 31
0.0
  0
LINE
  5
51D
  8
0
 62
     3
 10
29.986810999999999
 20
-57.588135000000001
 30
0.0
 11
29.986810999999999
 21
-172.08813499999999
 31
0.0
  0
LINE
  5
51E
  8
0
 62
     3
 10
31.236810999999999
 20
-56.338135000000001
 30
0.0
 11
189.73680100000001
 21
-56.338135000000001
 31
0.0
  0
LINE
  5
51F
  8
0
 62
     3
 10
190.98680100000001
 20
-57.588135000000001
 30
0.0
 11
190.98680100000001
 21
-172.08813499999999
 31
0.0
  0
LINE
  5
520
  8
0
 62
     3
 10
57.486812999999998
 20
-167.83813499999999
 30
0.0
 11
163.48680100000001
 21
-167.83813499999999
 31
0.0
  0
LINE
  5
521
  8
0
 62
     3
 10
57.486812999999998
 20
-61.838135000000001
 30
0.0
 11
57.486812999999998
 21
-167.83813499999999
 31
0.0
  0
LINE
  5
522
  8
0
 62
     3
 10
57.486812999999998
 20
-61.838135000000001
 30
0.0
 11
163.48680100000001
 21
-61.838135000000001
 31
0.0
  0
LINE
  5
523
  8
0
 62
     3
 10
163.48680100000001
 20
-61.838135000000001
 30
0.0
 11
163.48680100000001
 21
-167.83813499999999
 31
0.0
  0
LINE
  5
524
  8
0
 62
     3
 10
48.986812999999991
 20
-168.83813499999999
 30
0.0
 11
49.986812999999998
 21
-168.83813499999999
 31
0.0
  0
LINE
  5
525
  8
0
 62
     3
 10
50.986812999999991
 20
-61.838135000000001
 30
0.0
 11
50.986812999999991
 21
-167.83813499999999
 31
0.0
  0
LINE
  5
526
  8
0
 62
     3
 10
48.986812999999991
 20
-60.838135000000001
 30
0.0
 11
49.986812999999998
 21
-60.838135000000001
 31
0.0
  0
LINE
  5
527
  8
0
 62
     3
 10
49.986812999999998
 20
-61.838135000000001
 30
0.0
 11
49.986812999999998
 21
-167.83813499999999
 31
0.0
  0
LINE
  5
528
  8
0
 62
     3
 10
29.986810999999999
 20
-60.838135000000001
 30
0.0
 11
48.986812999999991
 21
-60.838135000000001
 31
0.0
  0
LINE
  5
529
  8
0
 62
     3
 10
49.986809000000001
 20
-60.838135000000001
 30
0.0
 11
190.98680100000001
 21
-60.838135000000001
 31
0.0
  0
LINE
  5
52A
  8
0
 62
     3
 10
29.986810999999999
 20
-61.838135000000001
 30
0.0
 11
49.986812999999998
 21
-61.838135000000001
 31
0.0
  0
LINE
  5
52B
  8
0
 62
     3
 10
163.48680100000001
 20
-61.838135000000001
 30
0.0
 11
169.98680100000001
 21
-61.838135000000001
 31
0.0
  0
LINE
  5
52C
  8
0
 62
     3
 10
50.986812999999991
 20
-61.838135000000001
 30
0.0
 11
57.486812999999998
 21
-61.838135000000001
 31
0.0
  0
LINE
  5
52D
  8
0
 62
     3
 10
29.986810999999999
 20
-168.83813499999999
 30
0.0
 11
48.986812999999991
 21
-168.83813499999999
 31
0.0
  0
LINE
  5
52E
  8
0
 62
     3
 10
49.986812999999998
 20
-168.83813499999999
 30
0.0
 11
190.98680100000001
 21
-168.83813499999999
 31
0.0
  0
LINE
  5
52F
  8
0
 62
     3
 10
50.986812999999991
 20
-167.83813499999999
 30
0.0
 11
57.486812999999998
 21
-167.83813499999999
 31
0.0
  0
LINE
  5
530
  8
0
 62
     3
 10
163.48680100000001
 20
-167.83813499999999
 30
0.0
 11
169.98680100000001
 21
-167.83813499999999
 31
0.0
  0
LINE
  5
531
  8
0
 62
     3
 10
29.986810999999999
 20
-167.83813499999999
 30
0.0
 11
49.986812999999998
 21
-167.83813499999999
 31
0.0
  0
LINE
  5
532
  8
0
 62
     3
 10
170.98680100000001
 20
-60.838135000000001
 30
0.0
 11
170.98680100000001
 21
-168.83813499999999
 31
0.0
  0
LINE
  5
533
  8
0
 62
     3
 10
169.98680100000001
 20
-61.838135000000001
 30
0.0
 11
169.98680100000001
 21
-167.83813499999999
 31
0.0
  0
ARC
  5
534
  8
0
 62
     3
 10
31.236810999999999
 20
-57.588135000000001
 30
0.0
 40
1.25
 50
90.000005000000002
 51
180.00000099999991
  0
ARC
  5
535
  8
0
 62
     3
 10
31.236810999999999
 20
-172.08813499999999
 30
0.0
 40
1.25
 50
180.00000099999991
 51
270.0
  0
ARC
  5
536
  8
0
 62
     3
 10
189.73680100000001
 20
-172.08813499999999
 30
0.0
 40
1.25
 50
270.0
 51
0.000003
  0
ARC
  5
537
  8
0
 62
     3
 10
189.73680100000001
 20
-57.588135000000001
 30
0.0
 40
1.25
 50
0.000003
 51
90.000005000000002
  0
LINE
  5
538
  8
0
  6
DASHSPACE
 62
     3
 10
180.23680100000001
 20
-60.338135000000001
 30
0.0
 11
180.23680100000001
 21
-60.838135000000001
 31
0.0
  0
LINE
  5
539
  8
0
  6
DASHSPACE
 62
     3
 10
181.73680100000001
 20
-60.338135000000001
 30
0.0
 11
181.73680100000001
 21
-60.838135000000001
 31
0.0
  0
LINE
  5
53A
  8
0
 62
     3
 10
180.23680100000001
 20
-168.33813499999999
 30
0.0
 11
180.23680100000001
 21
-168.83813499999999
 31
0.0
  0
LINE
  5
53B
  8
0
 62
     3
 10
181.73680100000001
 20
-168.33813499999999
 30
0.0
 11
181.73680100000001
 21
-168.83813499999999
 31
0.0
  0
ARC
  5
53C
  8
0
  6
DASHSPACE
 62
     3
 10
180.98680100000001
 20
-60.338135000000001
 30
0.0
 40
0.75
 50
0.000003
 51
180.00000099999991
  0
ARC
  5
53D
  8
0
 62
     3
 10
180.98680100000001
 20
-61.338135000000001
 30
0.0
 40
0.75
 50
180.00000099999991
 51
0.000003
  0
LINE
  5
53E
  8
0
 62
     3
 10
181.73680100000001
 20
-60.838135000000001
 30
0.0
 11
181.73680100000001
 21
-61.338135000000001
 31
0.0
  0
LINE
  5
53F
  8
0
 62
     3
 10
180.23680100000001
 20
-60.838135000000001
 30
0.0
 11
180.23680100000001
 21
-61.338135000000001
 31
0.0
  0
ARC
  5
540
  8
0
 62
     3
 10
180.98680100000001
 20
-168.33813499999999
 30
0.0
 40
0.75
 50
0.000003
 51
180.00000099999991
  0
ARC
  5
541
  8
0
  6
DASHSPACE
 62
     3
 10
180.98680100000001
 20
-169.33813499999999
 30
0.0
 40
0.75
 50
180.00000099999991
 51
0.000003
  0
LINE
  5
542
  8
0
  6
DASHSPACE
 62
     3
 10
181.73680100000001
 20
-168.83813499999999
 30
0.0
 11
181.73680100000001
 21
-169.33813499999999
 31
0.0
  0
LINE
  5
543
  8
0
  6
DASHSPACE
 62
     3
 10
180.23680100000001
 20
-168.83813499999999
 30
0.0
 11
180.23680100000001
 21
-169.33813499999999
 31
0.0
  0
POINT
  5
544
  8
0
 62
     3
 10
110.48680899999999
 20
-114.83813499999999
 30
0.0
  0
ENDBLK
  5
545
  8
0
  0
BLOCK
  8
0
  2
BLOCK34
 70
     0
 10
0.0
 20
0.0
 30
0.0
  3
BLOCK34
  1

  0
TEXT
  5
547
  8
0
 62
     7
 10
244.337616
 20
-106.58813499999999
 30
0.0
 40
3.0
  1
105
 50
270.0
 41
1.432750773232002
 72
     5
 11
244.337616
 21
-114.2881159999999
 31
0.0
  0
ENDBLK
  5
548
  8
0
  0
BLOCK
  8
0
  2
BLOCK35
 70
     0
 10
0.0
 20
0.0
 30
0.0
  3
BLOCK35
  1

  0
TEXT
  5
54A
  8
0
 62
     7
 10
-44.520882
 20
-126.83813499999999
 30
0.0
 40
3.0
  1
35
 50
269.99996527526412
 41
1.2776612311939379
 72
     5
 11
-44.520885
 21
-131.78813199999999
 31
0.0
  0
ENDBLK
  5
54B
  8
0
  0
BLOCK
  8
0
  2
BLOCK36
 70
     0
 10
0.0
 20
0.0
 30
0.0
  3
BLOCK36
  1

  0
TEXT
  5
54D
  8
0
 62
     7
 10
-44.520870000000002
 20
-91.838134999999994
 30
0.0
 40
3.0
  1
35
 50
269.99995370027727
 41
1.2776591662858261
 72
     5
 11
-44.520873999999992
 21
-96.788123999999996
 31
0.0
  0
ENDBLK
  5
54E
  8
0
  0
BLOCK
  8
0
  2
BLOCK37
 70
     0
 10
0.0
 20
0.0
 30
0.0
  3
BLOCK37
  1

  0
TEXT
  5
550
  8
0
 62
     7
 10
109.3633269999999
 20
31.445557000000001
 30
0.0
 40
3.0
  1
X
 50
270.0
 41
0.9777782222222221
 72
     5
 11
109.3633269999999
 21
29.245556000000001
 31
0.0
  0
ENDBLK
  5
551
  8
0
  0
BLOCK
  8
0
  2
BLOCK38
 70
     0
 10
0.0
 20
0.0
 30
0.0
  3
BLOCK38
  1

  0
TEXT
  5
553
  8
0
 62
     7
 10
277.4707029999999
 20
-114.082336
 30
0.0
 40
3.0
  1
Y
 50
270.0
 41
0.9777764444444427
 72
     5
 11
277.4707029999999
 21
-116.28233299999999
 31
0.0
  0
ENDBLK
  5
554
  8
0
  0
BLOCK
  8
0
  2
BLOCK39
 70
     0
 10
0.0
 20
0.0
 30
0.0
  3
BLOCK39
  1

  0
TEXT
  5
556
  8
0
 62
     7
 10
-19.263200999999999
 20
12.85553
 30
0.0
 40
3.0
  1
10
 50
359.99997685014802
 41
1.570248175346701
 72
     5
 11
-14.31321
 21
12.855528
 31
0.0
  0
ENDBLK
  5
557
  8
0
  0
BLOCK
  8
0
  2
BLOCK40
 70
     0
 10
0.0
 20
0.0
 30
0.0
  3
BLOCK40
  1

  0
TEXT
  5
559
  8
0
 62
     7
 10
113.22255699999999
 20
12.85553
 30
0.0
 40
3.0
  1
210
 50
359.99997767691679
 41
1.466003618919228
 72
     5
 11
120.9225389999999
 21
12.855527
 31
0.0
  0
ENDBLK
  5
55A
  8
0
  0
BLOCK
  8
0
  2
BLOCK41
 70
     0
 10
0.0
 20
0.0
 30
0.0
  3
BLOCK41
  1

  0
TEXT
  5
55C
  8
0
 62
     7
 10
233.736786
 20
12.85553
 30
0.0
 40
3.0
  1
10
 50
359.99997685017598
 41
1.5702500786812901
 72
     5
 11
238.68678299999999
 21
12.855528
 31
0.0
  0
ENDBLK
  5
55D
  8
0
  0
BLOCK
  8
0
  2
BLOCK42
 70
     0
 10
0.0
 20
0.0
 30
0.0
  3
BLOCK42
  1

  0
TEXT
  5
55F
  8
0
 62
     7
 10
-21.993563000000002
 20
-95.838195999999996
 30
0.0
 40
3.0
  1
20
 50
269.99997685013858
 41
1.3191660958977049
 72
     5
 11
-21.99356499999999
 21
-100.7881849999999
 31
0.0
  0
ENDBLK
  5
560
  8
0
  0
BLOCK
  8
0
  2
BLOCK43
 70
     0
 10
0.0
 20
0.0
 30
0.0
  3
BLOCK43
  1

  0
TEXT
  5
562
  8
0
 62
     7
 10
19.965954
 20
-180.89215100000001
 30
0.0
 40
3.0
  1
 8,2
 50
288.05908569223283
 41
1.6908859185238809
 72
     5
 11
23.205420999999991
 21
-190.82733200000001
 31
0.0
  0
ENDBLK
  5
563
  8
0
  0
BLOCK
  8
0
  2
BLOCK44
 70
     0
 10
0.0
 20
0.0
 30
0.0
  3
BLOCK44
  1

  0
TEXT
  5
565
  8
0
 62
     7
 10
19.717956999999998
 20
-180.131516
 30
0.0
 40
3.0
  1
%%c
 50
288.05903745402873
 41
0.9777807124871033
 72
     5
 11
20.399951999999988
 21
-182.2231449999999
 31
0.0
  0
ENDBLK
  5
566
  8
0
  0
BLOCK
  8
0
  2
BLOCK45
 70
     0
 10
0.0
 20
0.0
 30
0.0
  3
BLOCK45
  1

  0
TEXT
  5
568
  8
0
 62
     7
 10
110.171249
 20
-22.224487
 30
0.0
 40
3.0
  1
175
 50
359.9999851179445
 41
1.4327509593040431
 72
     5
 11
117.87123099999999
 21
-22.224488999999998
 31
0.0
  0
ENDBLK
  5
569
  8
0
  0
BLOCK
  8
0
  2
BLOCK46
 70
     0
 10
0.0
 20
0.0
 30
0.0
  3
BLOCK46
  1

  0
TEXT
  5
56B
  8
0
 62
     5
 10
141.61180100000001
 20
-39.591064000000003
 30
0.0
 40
3.0
  1
89,75
 50
359.99998263759909
 41
1.445028188850493
 72
     5
 11
154.811768
 21
-39.591068
 31
0.0
  0
ENDBLK
  5
56C
  8
0
  0
BLOCK
  8
0
  2
BLOCK47
 70
     0
 10
0.0
 20
0.0
 30
0.0
  3
BLOCK47
  1

  0
TEXT
  5
56E
  8
0
 62
     5
 10
147.611786
 20
-4.030945
 30
0.0
 40
3.0
  1
107,25
 50
359.99997844666251
 41
1.5012758433756499
 72
     5
 11
163.56173699999999
 21
-4.0309509999999991
 31
0.0
  0
ENDBLK
  5
56F
  8
0
  0
BLOCK
  8
0
  2
BLOCK48
 70
     0
 10
0.0
 20
0.0
 30
0.0
  3
BLOCK48
  1

  0
TEXT
  5
571
  8
0
 62
     7
 10
265.34078999999991
 20
-106.58813499999999
 30
0.0
 40
3.0
  1
117
 50
270.0
 41
1.655909892473113
 72
     5
 11
265.34078999999991
 21
-114.2881159999999
 31
0.0
  0
ENDBLK
  5
572
  8
0
  0
BLOCK
  8
0
  2
BLOCK49
 70
     0
 10
0.0
 20
0.0
 30
0.0
  3
BLOCK49
  1

  0
TEXT
  5
574
  8
0
 62
     7
 10
102.23680899999999
 20
-197.14080799999999
 30
0.0
 40
3.0
  1
161
 41
1.655909892473117
 72
     5
 11
109.9367899999999
 21
-197.14080799999999
 31
0.0
  0
ENDBLK
  5
575
  8
0
  0
BLOCK
  8
0
  2
BLOCK50
 70
     0
 10
0.0
 20
0.0
 30
0.0
  3
BLOCK50
  1

  0
TEXT
  5
577
  8
0
 62
     7
 10
-4.0
 20
-104.0
 30
0.0
 40
3.0
  1
X
 50
90.0
 41
0.9777764444444425
 72
     5
 11
-4.0
 21
-101.800003
 31
0.0
  0
ENDBLK
  5
578
  8
0
  0
BLOCK
  8
0
  2
BLOCK51
 70
     0
 10
0.0
 20
0.0
 30
0.0
  3
BLOCK51
  1

  0
TEXT
  5
57A
  8
0
 62
     7
 10
-5.0
 20
100.0
 30
0.0
 40
3.0
  1
X
 50
90.0
 41
0.9777764444444425
 72
     5
 11
-5.0
 21
102.1999969999999
 31
0.0
  0
ENDBLK
  5
57B
  8
0
  0
BLOCK
  8
0
  2
BLOCK52
 70
     0
 10
0.0
 20
0.0
 30
0.0
  3
BLOCK52
  1

  0
TEXT
  5
57D
  8
0
 62
     7
 10
-142.0
 20
0.0
 30
0.0
 40
3.0
  1
Y
 50
90.0
 41
0.9777777777777778
 72
     5
 11
-142.0
 21
2.2000000000000002
 31
0.0
  0
ENDBLK
  5
57E
  8
0
  0
BLOCK
  8
0
  2
BLOCK53
 70
     0
 10
0.0
 20
0.0
 30
0.0
  3
BLOCK53
  1

  0
TEXT
  5
580
  8
0
 62
     7
 10
111.0
 20
0.0
 30
0.0
 40
3.0
  1
Y
 50
90.0
 41
0.9777777777777778
 72
     5
 11
111.0
 21
2.2000000000000002
 31
0.0
  0
ENDBLK
  5
581
  8
0
  0
BLOCK
  8
0
  2
BLOCK54
 70
     0
 10
0.0
 20
0.0
 30
0.0
  3
BLOCK54
  1

  0
TEXT
  5
583
  8
0
 62
     7
 10
18.75
 20
-114.0482479999999
 30
0.0
 40
3.0
  1
112
 50
179.99994791279229
 41
1.594140284384026
 72
     5
 11
11.05002
 21
-114.0482409999999
 31
0.0
  0
ENDBLK
  5
584
  8
0
  0
BLOCK
  8
0
  2
BLOCK55
 70
     0
 10
0.0
 20
0.0
 30
0.0
  3
BLOCK55
  1

  0
TEXT
  5
586
  8
0
 62
     7
 10
18.75
 20
-139.67593400000001
 30
0.0
 40
3.0
  1
142
 50
180.0
 41
1.3437594995413831
 72
     5
 11
11.05002
 21
-139.67593400000001
 31
0.0
  0
ENDBLK
  5
587
  8
0
  0
BLOCK
  8
0
  2
BLOCK56
 70
     0
 10
0.0
 20
0.0
 30
0.0
  3
BLOCK56
  1

  0
TEXT
  5
589
  8
0
 62
     7
 10
-107.01321399999991
 20
-11.0
 30
0.0
 40
3.0
  1
80
 50
90.0
 41
1.3191663623963901
 72
     5
 11
-107.01321399999991
 21
-6.0500099999999994
 31
0.0
  0
ENDBLK
  5
58A
  8
0
  0
BLOCK
  8
0
  2
BLOCK57
 70
     0
 10
0.0
 20
0.0
 30
0.0
  3
BLOCK57
  1

  0
TEXT
  5
58C
  8
0
 62
     7
 10
-133.64590499999991
 20
-16.5
 30
0.0
 40
3.0
  1
112
 50
90.0
 41
1.594140284383367
 72
     5
 11
-133.64590499999991
 21
-8.8000199999999982
 31
0.0
  0
ENDBLK
  5
58D
  8
0
  0
BLOCK
  8
0
  2
BLOCK58
 70
     0
 10
0.0
 20
0.0
 30
0.0
  3
BLOCK58
  1

  0
TEXT
  5
58F
  8
0
 62
     7
 10
122.342247
 20
-111.270241
 30
0.0
 40
3.0
  1
 7
 50
127.208991815896
 41
1.736838417501279
 72
     5
 11
119.34886899999989
 21
-107.3278959999999
 31
0.0
  0
ENDBLK
  5
590
  8
0
  0
BLOCK
  8
0
  2
BLOCK59
 70
     0
 10
0.0
 20
0.0
 30
0.0
  3
BLOCK59
  1

  0
TEXT
  5
592
  8
0
 62
     7
 10
123.3097919999999
 20
-112.544533
 30
0.0
 40
3.0
  1
%%c
 50
127.20891870335301
 41
0.9777779165820099
 72
     5
 11
121.9794009999999
 21
-110.7923739999999
 31
0.0
  0
ENDBLK
  5
593
  8
0
  0
ENDSEC
  0
SECTION
  2
ENTITIES
  0
LINE
  5
25
  8
0
  6
DASHDOT
 62
     7
 10
783.91580199999999
 20
693.27630299999998
 30
0.0
 11
783.91580199999999
 21
450.39367399999998
 31
0.0
  0
POLYLINE
  5
26
  8
0
 62
     3
 66
     1
 10
0.0
 20
0.0
 30
0.0
  0
VERTEX
  5
5E3
  8
0
 62
     3
 10
716.41580199999999
 20
687.63606700000003
 30
0.0
  0
VERTEX
  5
5E4
  8
0
 62
     3
 10
716.41580199999999
 20
671.63606700000003
 30
0.0
  0
VERTEX
  5
5E5
  8
0
 62
     3
 10
718.41580199999987
 20
670.63606700000003
 30
0.0
  0
VERTEX
  5
5E6
  8
0
 62
     3
 10
714.41580199999987
 20
669.63606700000003
 30
0.0
  0
VERTEX
  5
5E7
  8
0
 62
     3
 10
716.41580199999999
 20
668.63606700000003
 30
0.0
  0
VERTEX
  5
5E8
  8
0
 62
     3
 10
716.41580199999999
 20
652.63606700000003
 30
0.0
  0
VERTEX
  5
5E9
  8
0
 62
     3
 10
718.41580199999987
 20
651.63606700000003
 30
0.0
  0
VERTEX
  5
5EA
  8
0
 62
     3
 10
714.41580199999987
 20
650.63606700000003
 30
0.0
  0
VERTEX
  5
5EB
  8
0
 62
     3
 10
716.41580199999999
 20
649.63606700000003
 30
0.0
  0
VERTEX
  5
5EC
  8
0
 62
     3
 10
716.41580199999999
 20
633.63606700000003
 30
0.0
  0
VERTEX
  5
5ED
  8
0
 62
     3
 10
718.41580199999987
 20
632.63606700000003
 30
0.0
  0
VERTEX
  5
5EE
  8
0
 62
     3
 10
714.41580199999987
 20
631.63606700000003
 30
0.0
  0
VERTEX
  5
5EF
  8
0
 62
     3
 10
716.41580199999999
 20
630.63606700000003
 30
0.0
  0
VERTEX
  5
5F0
  8
0
 62
     3
 10
716.41580199999999
 20
614.63606699999991
 30
0.0
  0
VERTEX
  5
5F1
  8
0
 62
     3
 10
718.41580199999987
 20
613.63606700000003
 30
0.0
  0
VERTEX
  5
5F2
  8
0
 62
     3
 10
714.41580199999987
 20
612.63606700000003
 30
0.0
  0
VERTEX
  5
5F3
  8
0
 62
     3
 10
716.41580199999999
 20
611.63606700000003
 30
0.0
  0
VERTEX
  5
5F4
  8
0
 62
     3
 10
716.41580199999999
 20
595.63606700000003
 30
0.0
  0
VERTEX
  5
5F5
  8
0
 62
     3
 10
718.41580199999987
 20
594.63606700000003
 30
0.0
  0
VERTEX
  5
5F6
  8
0
 62
     3
 10
714.41580199999987
 20
593.63606700000003
 30
0.0
  0
VERTEX
  5
5F7
  8
0
 62
     3
 10
716.41580199999999
 20
592.63606700000003
 30
0.0
  0
VERTEX
  5
5F8
  8
0
 62
     3
 10
716.41580199999999
 20
576.63606700000003
 30
0.0
  0
VERTEX
  5
5F9
  8
0
 62
     3
 10
718.41580199999987
 20
575.63606700000003
 30
0.0
  0
VERTEX
  5
5FA
  8
0
 62
     3
 10
714.41580199999987
 20
574.63606700000003
 30
0.0
  0
VERTEX
  5
5FB
  8
0
 62
     3
 10
716.41580199999999
 20
573.63606700000003
 30
0.0
  0
VERTEX
  5
5FC
  8
0
 62
     3
 10
716.41580199999999
 20
557.63606700000003
 30
0.0
  0
VERTEX
  5
5FD
  8
0
 62
     3
 10
718.41580199999987
 20
556.63606700000003
 30
0.0
  0
VERTEX
  5
5FE
  8
0
 62
     3
 10
714.41580199999987
 20
555.63606700000003
 30
0.0
  0
VERTEX
  5
5FF
  8
0
 62
     3
 10
716.41580199999999
 20
554.63606700000003
 30
0.0
  0
VERTEX
  5
600
  8
0
 62
     3
 10
716.41580199999999
 20
538.63606700000003
 30
0.0
  0
VERTEX
  5
601
  8
0
 62
     3
 10
718.41580199999987
 20
537.63606700000003
 30
0.0
  0
VERTEX
  5
602
  8
0
 62
     3
 10
714.41580199999987
 20
536.63606700000003
 30
0.0
  0
VERTEX
  5
603
  8
0
 62
     3
 10
716.41580199999999
 20
535.63606699999991
 30
0.0
  0
VERTEX
  5
604
  8
0
 62
     3
 10
716.41580199999999
 20
519.63606700000003
 30
0.0
  0
VERTEX
  5
605
  8
0
 62
     3
 10
718.41580199999987
 20
518.63606700000003
 30
0.0
  0
VERTEX
  5
606
  8
0
 62
     3
 10
714.41580199999987
 20
517.63606700000003
 30
0.0
  0
VERTEX
  5
607
  8
0
 62
     3
 10
716.41580199999999
 20
516.63606700000003
 30
0.0
  0
VERTEX
  5
608
  8
0
 62
     3
 10
716.41580199999999
 20
500.63606699999991
 30
0.0
  0
VERTEX
  5
609
  8
0
 62
     3
 10
718.41580199999987
 20
499.63606699999991
 30
0.0
  0
VERTEX
  5
60A
  8
0
 62
     3
 10
714.41580199999987
 20
498.63606699999991
 30
0.0
  0
VERTEX
  5
60B
  8
0
 62
     3
 10
716.41580199999999
 20
497.63606700000003
 30
0.0
  0
VERTEX
  5
60C
  8
0
 62
     3
 10
716.41580199999999
 20
481.63606699999991
 30
0.0
  0
VERTEX
  5
60D
  8
0
 62
     3
 10
718.41580199999987
 20
480.63606700000003
 30
0.0
  0
VERTEX
  5
60E
  8
0
 62
     3
 10
714.41580199999987
 20
479.63606699999991
 30
0.0
  0
VERTEX
  5
60F
  8
0
 62
     3
 10
716.41580199999999
 20
478.63606699999991
 30
0.0
  0
VERTEX
  5
610
  8
0
 62
     3
 10
716.41580199999999
 20
464.14174400000002
 30
0.0
  0
SEQEND
  5
611
  8
0
 62
     3
  0
POLYLINE
  5
56
  8
0
 62
     3
 66
     1
 10
0.0
 20
0.0
 30
0.0
  0
VERTEX
  5
612
  8
0
 62
     3
 10
831.41580199999999
 20
687.63606700000003
 30
0.0
  0
VERTEX
  5
613
  8
0
 62
     3
 10
831.41580199999999
 20
671.63606700000003
 30
0.0
  0
VERTEX
  5
614
  8
0
 62
     3
 10
833.41580199999999
 20
670.63606700000003
 30
0.0
  0
VERTEX
  5
615
  8
0
 62
     3
 10
829.41580199999987
 20
669.63606700000003
 30
0.0
  0
VERTEX
  5
616
  8
0
 62
     3
 10
831.41580199999999
 20
668.63606700000003
 30
0.0
  0
VERTEX
  5
617
  8
0
 62
     3
 10
831.41580199999999
 20
652.63606700000003
 30
0.0
  0
VERTEX
  5
618
  8
0
 62
     3
 10
833.41580199999999
 20
651.63606700000003
 30
0.0
  0
VERTEX
  5
619
  8
0
 62
     3
 10
829.41580199999987
 20
650.63606700000003
 30
0.0
  0
VERTEX
  5
61A
  8
0
 62
     3
 10
831.41580199999999
 20
649.63606700000003
 30
0.0
  0
VERTEX
  5
61B
  8
0
 62
     3
 10
831.41580199999999
 20
633.63606700000003
 30
0.0
  0
VERTEX
  5
61C
  8
0
 62
     3
 10
833.41580199999999
 20
632.63606700000003
 30
0.0
  0
VERTEX
  5
61D
  8
0
 62
     3
 10
829.41580199999987
 20
631.63606700000003
 30
0.0
  0
VERTEX
  5
61E
  8
0
 62
     3
 10
831.41580199999999
 20
630.63606700000003
 30
0.0
  0
VERTEX
  5
61F
  8
0
 62
     3
 10
831.41580199999999
 20
614.63606699999991
 30
0.0
  0
VERTEX
  5
620
  8
0
 62
     3
 10
833.41580199999999
 20
613.63606700000003
 30
0.0
  0
VERTEX
  5
621
  8
0
 62
     3
 10
829.41580199999987
 20
612.63606700000003
 30
0.0
  0
VERTEX
  5
622
  8
0
 62
     3
 10
831.41580199999999
 20
611.63606700000003
 30
0.0
  0
VERTEX
  5
623
  8
0
 62
     3
 10
831.41580199999999
 20
595.63606700000003
 30
0.0
  0
VERTEX
  5
624
  8
0
 62
     3
 10
833.41580199999999
 20
594.63606700000003
 30
0.0
  0
VERTEX
  5
625
  8
0
 62
     3
 10
829.41580199999987
 20
593.63606700000003
 30
0.0
  0
VERTEX
  5
626
  8
0
 62
     3
 10
831.41580199999999
 20
592.63606700000003
 30
0.0
  0
VERTEX
  5
627
  8
0
 62
     3
 10
831.41580199999999
 20
576.63606700000003
 30
0.0
  0
VERTEX
  5
628
  8
0
 62
     3
 10
833.41580199999999
 20
575.63606700000003
 30
0.0
  0
VERTEX
  5
629
  8
0
 62
     3
 10
829.41580199999987
 20
574.63606700000003
 30
0.0
  0
VERTEX
  5
62A
  8
0
 62
     3
 10
831.41580199999999
 20
573.63606700000003
 30
0.0
  0
VERTEX
  5
62B
  8
0
 62
     3
 10
831.41580199999999
 20
557.63606700000003
 30
0.0
  0
VERTEX
  5
62C
  8
0
 62
     3
 10
833.41580199999999
 20
556.63606700000003
 30
0.0
  0
VERTEX
  5
62D
  8
0
 62
     3
 10
829.41580199999987
 20
555.63606700000003
 30
0.0
  0
VERTEX
  5
62E
  8
0
 62
     3
 10
831.41580199999999
 20
554.63606700000003
 30
0.0
  0
VERTEX
  5
62F
  8
0
 62
     3
 10
831.41580199999999
 20
538.63606700000003
 30
0.0
  0
VERTEX
  5
630
  8
0
 62
     3
 10
833.41580199999999
 20
537.63606700000003
 30
0.0
  0
VERTEX
  5
631
  8
0
 62
     3
 10
829.41580199999987
 20
536.63606700000003
 30
0.0
  0
VERTEX
  5
632
  8
0
 62
     3
 10
831.41580199999999
 20
535.63606699999991
 30
0.0
  0
VERTEX
  5
633
  8
0
 62
     3
 10
831.41580199999999
 20
519.63606700000003
 30
0.0
  0
VERTEX
  5
634
  8
0
 62
     3
 10
833.41580199999999
 20
518.63606700000003
 30
0.0
  0
VERTEX
  5
635
  8
0
 62
     3
 10
829.41580199999987
 20
517.63606700000003
 30
0.0
  0
VERTEX
  5
636
  8
0
 62
     3
 10
831.41580199999999
 20
516.63606700000003
 30
0.0
  0
VERTEX
  5
637
  8
0
 62
     3
 10
831.41580199999999
 20
500.63606699999991
 30
0.0
  0
VERTEX
  5
638
  8
0
 62
     3
 10
833.41580199999999
 20
499.63606699999991
 30
0.0
  0
VERTEX
  5
639
  8
0
 62
     3
 10
829.41580199999987
 20
498.63606699999991
 30
0.0
  0
VERTEX
  5
63A
  8
0
 62
     3
 10
831.41580199999999
 20
497.63606700000003
 30
0.0
  0
VERTEX
  5
63B
  8
0
 62
     3
 10
831.41580199999999
 20
481.63606699999991
 30
0.0
  0
VERTEX
  5
63C
  8
0
 62
     3
 10
833.41580199999999
 20
480.63606700000003
 30
0.0
  0
VERTEX
  5
63D
  8
0
 62
     3
 10
829.41580199999987
 20
479.63606699999991
 30
0.0
  0
VERTEX
  5
63E
  8
0
 62
     3
 10
831.41580199999999
 20
478.63606699999991
 30
0.0
  0
VERTEX
  5
63F
  8
0
 62
     3
 10
831.41580199999999
 20
465.19929200000001
 30
0.0
  0
SEQEND
  5
640
  8
0
 62
     3
  0
POLYLINE
  5
86
  8
0
 62
     3
 66
     1
 10
0.0
 20
0.0
 30
0.0
  0
VERTEX
  5
641
  8
0
 62
     3
 10
848.76788299999998
 20
676.20532700000001
 30
0.0
  0
VERTEX
  5
642
  8
0
 62
     3
 10
832.76788299999987
 20
676.20532700000001
 30
0.0
  0
VERTEX
  5
643
  8
0
 62
     3
 10
831.76788299999998
 20
674.20532700000001
 30
0.0
  0
VERTEX
  5
644
  8
0
 62
     3
 10
830.76788299999998
 20
678.20532700000001
 30
0.0
  0
VERTEX
  5
645
  8
0
 62
     3
 10
829.76788299999998
 20
676.20532700000001
 30
0.0
  0
VERTEX
  5
646
  8
0
 62
     3
 10
813.76788299999998
 20
676.20532700000001
 30
0.0
  0
VERTEX
  5
647
  8
0
 62
     3
 10
812.76788299999998
 20
674.20532700000001
 30
0.0
  0
VERTEX
  5
648
  8
0
 62
     3
 10
811.76788299999987
 20
678.20532700000001
 30
0.0
  0
VERTEX
  5
649
  8
0
 62
     3
 10
810.76788299999987
 20
676.20532700000001
 30
0.0
  0
VERTEX
  5
64A
  8
0
 62
     3
 10
794.76788299999998
 20
676.20532700000001
 30
0.0
  0
VERTEX
  5
64B
  8
0
 62
     3
 10
793.76788299999998
 20
674.20532700000001
 30
0.0
  0
VERTEX
  5
64C
  8
0
 62
     3
 10
792.76788299999987
 20
678.20532700000001
 30
0.0
  0
VERTEX
  5
64D
  8
0
 62
     3
 10
791.76788299999987
 20
676.20532700000001
 30
0.0
  0
VERTEX
  5
64E
  8
0
 62
     3
 10
775.76788299999987
 20
676.20532700000001
 30
0.0
  0
VERTEX
  5
64F
  8
0
 62
     3
 10
774.76788299999987
 20
674.20532700000001
 30
0.0
  0
VERTEX
  5
650
  8
0
 62
     3
 10
773.76788299999998
 20
678.20532700000001
 30
0.0
  0
VERTEX
  5
651
  8
0
 62
     3
 10
772.76788299999998
 20
676.20532700000001
 30
0.0
  0
VERTEX
  5
652
  8
0
 62
     3
 10
756.76788299999998
 20
676.20532700000001
 30
0.0
  0
VERTEX
  5
653
  8
0
 62
     3
 10
755.76788299999998
 20
674.20532700000001
 30
0.0
  0
VERTEX
  5
654
  8
0
 62
     3
 10
754.76788299999987
 20
678.20532700000001
 30
0.0
  0
VERTEX
  5
655
  8
0
 62
     3
 10
753.76788299999987
 20
676.20532700000001
 30
0.0
  0
VERTEX
  5
656
  8
0
 62
     3
 10
737.76788299999987
 20
676.20532700000001
 30
0.0
  0
VERTEX
  5
657
  8
0
 62
     3
 10
736.76788299999998
 20
674.20532700000001
 30
0.0
  0
VERTEX
  5
658
  8
0
 62
     3
 10
735.76788299999998
 20
678.20532700000001
 30
0.0
  0
VERTEX
  5
659
  8
0
 62
     3
 10
734.76788299999987
 20
676.20532700000001
 30
0.0
  0
VERTEX
  5
65A
  8
0
 62
     3
 10
718.76788299999998
 20
676.20532700000001
 30
0.0
  0
VERTEX
  5
65B
  8
0
 62
     3
 10
717.76788299999987
 20
674.20532700000001
 30
0.0
  0
VERTEX
  5
65C
  8
0
 62
     3
 10
716.76788299999987
 20
678.20532700000001
 30
0.0
  0
VERTEX
  5
65D
  8
0
 62
     3
 10
715.76788299999998
 20
676.20532700000001
 30
0.0
  0
VERTEX
  5
65E
  8
0
 62
     3
 10
706.49890099999993
 20
676.20532700000001
 30
0.0
  0
SEQEND
  5
65F
  8
0
 62
     3
  0
POLYLINE
  5
A6
  8
0
 62
     3
 66
     1
 10
0.0
 20
0.0
 30
0.0
  0
VERTEX
  5
660
  8
0
 62
     3
 10
845.69235200000003
 20
477.2053269999999
 30
0.0
  0
VERTEX
  5
661
  8
0
 62
     3
 10
829.69235199999991
 20
477.2053269999999
 30
0.0
  0
VERTEX
  5
662
  8
0
 62
     3
 10
828.6923519999998
 20
475.2053269999999
 30
0.0
  0
VERTEX
  5
663
  8
0
 62
     3
 10
827.6923519999998
 20
479.2053269999999
 30
0.0
  0
VERTEX
  5
664
  8
0
 62
     3
 10
826.6923519999998
 20
477.2053269999999
 30
0.0
  0
VERTEX
  5
665
  8
0
 62
     3
 10
810.6923519999998
 20
477.2053269999999
 30
0.0
  0
VERTEX
  5
666
  8
0
 62
     3
 10
809.6923519999998
 20
475.2053269999999
 30
0.0
  0
VERTEX
  5
667
  8
0
 62
     3
 10
808.69235199999991
 20
479.2053269999999
 30
0.0
  0
VERTEX
  5
668
  8
0
 62
     3
 10
807.69235199999991
 20
477.2053269999999
 30
0.0
  0
VERTEX
  5
669
  8
0
 62
     3
 10
791.69235199999991
 20
477.2053269999999
 30
0.0
  0
VERTEX
  5
66A
  8
0
 62
     3
 10
790.69235199999991
 20
475.2053269999999
 30
0.0
  0
VERTEX
  5
66B
  8
0
 62
     3
 10
789.69235199999991
 20
479.2053269999999
 30
0.0
  0
VERTEX
  5
66C
  8
0
 62
     3
 10
788.6923519999998
 20
477.2053269999999
 30
0.0
  0
VERTEX
  5
66D
  8
0
 62
     3
 10
772.69235199999991
 20
477.2053269999999
 30
0.0
  0
VERTEX
  5
66E
  8
0
 62
     3
 10
771.69235199999991
 20
475.2053269999999
 30
0.0
  0
VERTEX
  5
66F
  8
0
 62
     3
 10
770.69235199999991
 20
479.2053269999999
 30
0.0
  0
VERTEX
  5
670
  8
0
 62
     3
 10
769.69235199999991
 20
477.2053269999999
 30
0.0
  0
VERTEX
  5
671
  8
0
 62
     3
 10
753.69235199999991
 20
477.2053269999999
 30
0.0
  0
VERTEX
  5
672
  8
0
 62
     3
 10
752.69235199999991
 20
475.2053269999999
 30
0.0
  0
VERTEX
  5
673
  8
0
 62
     3
 10
751.6923519999998
 20
479.2053269999999
 30
0.0
  0
VERTEX
  5
674
  8
0
 62
     3
 10
750.69235199999991
 20
477.2053269999999
 30
0.0
  0
VERTEX
  5
675
  8
0
 62
     3
 10
734.6923519999998
 20
477.2053269999999
 30
0.0
  0
VERTEX
  5
676
  8
0
 62
     3
 10
733.69235199999991
 20
475.2053269999999
 30
0.0
  0
VERTEX
  5
677
  8
0
 62
     3
 10
732.69235199999991
 20
479.2053269999999
 30
0.0
  0
VERTEX
  5
678
  8
0
 62
     3
 10
731.69235199999991
 20
477.2053269999999
 30
0.0
  0
VERTEX
  5
679
  8
0
 62
     3
 10
715.69235199999991
 20
477.2053269999999
 30
0.0
  0
VERTEX
  5
67A
  8
0
 62
     3
 10
714.69235199999991
 20
475.2053269999999
 30
0.0
  0
VERTEX
  5
67B
  8
0
 62
     3
 10
713.6923519999998
 20
479.2053269999999
 30
0.0
  0
VERTEX
  5
67C
  8
0
 62
     3
 10
712.69235199999991
 20
477.2053269999999
 30
0.0
  0
VERTEX
  5
67D
  8
0
 62
     3
 10
705.49389599999995
 20
477.2053269999999
 30
0.0
  0
SEQEND
  5
67E
  8
0
 62
     3
  0
LINE
  5
C6
  8
0
 62
     7
 10
808.91580199999987
 20
648.51079299999981
 30
0.0
 11
808.91580199999987
 21
503.287305
 31
0.0
  0
LINE
  5
C7
  8
0
  6
DASHDOT
 62
     7
 10
738.91580199999987
 20
652.53081999999995
 30
0.0
 11
738.91580199999987
 21
503.789807
 31
0.0
  0
LINE
  5
C8
  8
0
  6
DASHDOT
 62
     7
 10
823.0797
 20
626.7053269999999
 30
0.0
 11
723.58402299999989
 21
626.7053269999999
 31
0.0
  0
LINE
  5
C9
  8
0
  6
DASHDOT
 62
     7
 10
821.57218899999987
 20
526.7053269999999
 30
0.0
 11
725.09153000000003
 21
526.7053269999999
 31
0.0
  0
CIRCLE
  5
CA
  8
0
 62
     7
 10
738.91580199999987
 20
626.7053269999999
 30
0.0
 40
2.5
  0
CIRCLE
  5
CB
  8
0
 62
     7
 10
808.91580199999987
 20
626.7053269999999
 30
0.0
 40
2.5
  0
CIRCLE
  5
CC
  8
0
 62
     7
 10
808.91580199999987
 20
526.7053269999999
 30
0.0
 40
2.5
  0
CIRCLE
  5
CD
  8
0
 62
     7
 10
738.91580199999987
 20
526.7053269999999
 30
0.0
 40
2.5
  0
LINE
  5
CE
  8
0
  6
DASHDOT
 62
     7
 10
867.32160199999987
 20
574.4553269999999
 30
0.0
 11
648.99894699999993
 21
574.4553269999999
 31
0.0
  0
LINE
  5
CF
  8
0
 62
     7
 10
736.60867300000007
 20
525.74258899999995
 30
0.0
 11
724.89993300000003
 21
523.11472000000003
 31
0.0
  0
LINE
  5
D0
  8
0
 62
     7
 10
736.60867300000007
 20
525.74258899999995
 30
0.0
 11
726.50479099999995
 21
519.2685899999999
 31
0.0
  0
LINE
  5
D1
  8
0
 62
     7
 10
741.22293099999979
 20
527.66809599999999
 30
0.0
 11
752.93167100000005
 21
530.29596399999991
 31
0.0
  0
LINE
  5
D2
  8
0
 62
     7
 10
741.22293099999979
 20
527.66809599999999
 30
0.0
 11
751.32681300000002
 21
534.14209500000004
 31
0.0
  0
LINE
  5
D3
  8
0
 62
     7
 10
741.45376599999986
 20
527.76434800000004
 30
0.0
 11
626.92788700000006
 21
479.97519399999999
 31
0.0
  0
LINE
  5
D4
  8
0
 62
     7
 10
901.47024499999986
 20
626.7053269999999
 30
0.0
 11
899.38650500000006
 21
614.88763899999981
 31
0.0
  0
LINE
  5
D5
  8
0
 62
     7
 10
901.47024499999986
 20
626.7053269999999
 30
0.0
 11
903.55398599999978
 21
614.88763899999981
 31
0.0
  0
LINE
  5
D6
  8
0
 62
     7
 10
901.47024499999986
 20
526.7053269999999
 30
0.0
 11
903.55398599999978
 21
538.52304600000002
 31
0.0
  0
LINE
  5
D7
  8
0
 62
     7
 10
901.47024499999986
 20
526.7053269999999
 30
0.0
 11
899.38638300000002
 21
538.52304600000002
 31
0.0
  0
LINE
  5
D8
  8
0
 62
     7
 10
901.47024499999986
 20
626.7053269999999
 30
0.0
 11
901.47024499999986
 21
526.7053269999999
 31
0.0
  0
LINE
  5
D9
  8
0
 62
     7
 10
909.47024499999986
 20
626.7053269999999
 30
0.0
 11
823.07974200000001
 21
626.70534199999986
 31
0.0
  0
LINE
  5
DA
  8
0
 62
     7
 10
909.47024499999986
 20
526.7053269999999
 30
0.0
 11
821.57217400000013
 21
526.70535800000005
 31
0.0
  0
LINE
  5
DB
  8
0
 62
     7
 10
808.91580199999987
 20
437.96185799999989
 30
0.0
 11
820.73355100000003
 21
435.87808699999999
 31
0.0
  0
LINE
  5
DC
  8
0
 62
     7
 10
808.91580199999987
 20
437.96185799999989
 30
0.0
 11
820.73355100000003
 21
440.045659
 31
0.0
  0
LINE
  5
DD
  8
0
 62
     7
 10
783.91580199999999
 20
437.96185799999989
 30
0.0
 11
772.09817499999986
 21
440.045659
 31
0.0
  0
LINE
  5
DE
  8
0
 62
     7
 10
783.91580199999999
 20
437.96185799999989
 30
0.0
 11
772.09817499999986
 21
435.87808699999999
 31
0.0
  0
LINE
  5
DF
  8
0
 62
     7
 10
842.91580199999987
 20
437.96185799999989
 30
0.0
 11
783.91580199999999
 21
437.96185799999989
 31
0.0
  0
LINE
  5
E0
  8
0
 62
     7
 10
808.91580199999987
 20
429.96185799999989
 30
0.0
 11
808.91580199999987
 21
503.28729699999991
 31
0.0
  0
LINE
  5
E1
  8
0
 62
     7
 10
783.91580199999999
 20
429.96185799999989
 30
0.0
 11
783.91580199999999
 21
450.3936819999999
 31
0.0
  0
LINE
  5
E2
  8
0
 62
     7
 10
783.91580199999999
 20
401.27911899999992
 30
0.0
 11
772.09805300000005
 21
403.362889
 31
0.0
  0
LINE
  5
E3
  8
0
 62
     7
 10
783.91580199999999
 20
401.27911899999992
 30
0.0
 11
772.09805300000005
 21
399.19534800000002
 31
0.0
  0
LINE
  5
E4
  8
0
 62
     7
 10
738.91580199999987
 20
401.27911899999992
 30
0.0
 11
750.73355100000003
 21
399.19534800000002
 31
0.0
  0
LINE
  5
E5
  8
0
 62
     7
 10
738.91580199999987
 20
401.27911899999992
 30
0.0
 11
750.73355100000003
 21
403.362889
 31
0.0
  0
LINE
  5
E6
  8
0
 62
     7
 10
817.91580199999987
 20
401.27911899999992
 30
0.0
 11
738.91580199999987
 21
401.27911899999992
 31
0.0
  0
LINE
  5
E7
  8
0
 62
     7
 10
783.91580199999999
 20
393.27911899999998
 30
0.0
 11
783.91580199999999
 21
450.3936819999999
 31
0.0
  0
LINE
  5
E8
  8
0
 62
     7
 10
738.91580199999987
 20
393.27911899999998
 30
0.0
 11
738.91580199999987
 21
503.78980000000001
 31
0.0
  0
LINE
  5
E9
  8
0
 62
     5
 10
673.25698899999986
 20
626.7053269999999
 30
0.0
 11
671.17324800000006
 21
614.88763899999981
 31
0.0
  0
LINE
  5
EA
  8
0
 62
     5
 10
673.25698899999986
 20
626.7053269999999
 30
0.0
 11
675.34085099999993
 21
614.88763899999981
 31
0.0
  0
LINE
  5
EB
  8
0
 62
     5
 10
673.25698899999986
 20
574.4553269999999
 30
0.0
 11
675.34085099999993
 21
586.27301499999987
 31
0.0
  0
LINE
  5
EC
  8
0
 62
     5
 10
673.25698899999986
 20
574.4553269999999
 30
0.0
 11
671.17324800000006
 21
586.27301499999987
 31
0.0
  0
LINE
  5
ED
  8
0
 62
     5
 10
673.25698899999986
 20
633.843389
 30
0.0
 11
673.25698899999986
 21
574.4553269999999
 31
0.0
  0
LINE
  5
EE
  8
0
 62
     5
 10
665.25698899999986
 20
626.7053269999999
 30
0.0
 11
723.58401500000002
 21
626.7053269999999
 31
0.0
  0
LINE
  5
EF
  8
0
 62
     3
 10
182.76809199999991
 20
494.50534199999993
 30
0.0
 11
110.7680919999999
 21
494.50534199999993
 31
0.0
  0
LINE
  5
F0
  8
0
 62
     7
 10
110.7680919999999
 20
489.20533999999998
 30
0.0
 11
110.7680919999999
 21
531.99956199999986
 31
0.0
  0
LINE
  5
F1
  8
0
 62
     7
 10
110.7680919999999
 20
531.99953200000004
 30
0.0
 11
110.7680919999999
 21
664.2053269999999
 31
0.0
  0
LINE
  5
F2
  8
0
 62
     7
 10
108.7680919999999
 20
641.336949
 30
0.0
 11
108.7680919999999
 21
651.20529699999997
 31
0.0
  0
LINE
  5
F3
  8
0
 62
     7
 10
179.26808799999989
 20
590.70530399999996
 30
0.0
 11
179.268069
 21
598.95532700000001
 31
0.0
  0
LINE
  5
F4
  8
0
 62
     7
 10
181.76803299999989
 20
645.20532700000001
 30
0.0
 11
182.475155
 21
645.49821899999995
 31
0.0
  0
LINE
  5
F5
  8
0
 62
     7
 10
182.47516899999999
 20
645.49818899999991
 30
0.0
 11
182.76806099999999
 21
646.20529699999997
 31
0.0
  0
LINE
  5
F6
  8
0
 62
     7
 10
179.26807600000001
 20
638.20532700000001
 30
0.0
 11
179.268092
 21
645.20532700000001
 31
0.0
  0
LINE
  5
F7
  8
0
 62
     7
 10
181.76806099999999
 20
645.20532700000001
 30
0.0
 11
179.268092
 21
645.20532700000001
 31
0.0
  0
LINE
  5
F8
  8
0
 62
     7
 10
179.26807600000001
 20
598.95532700000001
 30
0.0
 11
179.26807600000001
 21
638.20532700000001
 31
0.0
  0
LINE
  5
F9
  8
0
 62
     7
 10
174.768092
 20
548.20532700000001
 30
0.0
 11
174.768092
 21
588.70532700000001
 31
0.0
  0
LINE
  5
FA
  8
0
 62
     7
 10
174.76812200000001
 20
588.70537999999999
 30
0.0
 11
175.036067
 21
589.70537999999999
 31
0.0
  0
LINE
  5
FB
  8
0
 62
     7
 10
175.03610099999989
 20
589.70541900000001
 30
0.0
 11
175.7681409999999
 21
590.43747399999995
 31
0.0
  0
LINE
  5
FC
  8
0
 62
     7
 10
175.76803799999999
 20
590.43736000000001
 30
0.0
 11
176.76805400000001
 21
590.70530399999996
 31
0.0
  0
LINE
  5
FD
  8
0
 62
     7
 10
182.76809199999991
 20
548.20532700000001
 30
0.0
 11
174.768092
 21
548.20532700000001
 31
0.0
  0
LINE
  5
FE
  8
0
 62
     7
 10
182.7680499999999
 20
533.20531200000005
 30
0.0
 11
181.76797300000001
 21
534.20531200000005
 31
0.0
  0
LINE
  5
FF
  8
0
 62
     7
 10
181.7679959999999
 20
545.20533499999988
 30
0.0
 11
182.76808799999989
 21
546.20533499999988
 31
0.0
  0
LINE
  5
100
  8
0
 62
     7
 10
181.76798299999999
 20
545.20529699999986
 30
0.0
 11
119.00017800000001
 21
545.20529699999986
 31
0.0
  0
LINE
  5
101
  8
0
 62
     7
 10
181.76799800000001
 20
534.20532700000001
 30
0.0
 11
119.00013199999999
 21
534.20532700000001
 31
0.0
  0
LINE
  5
102
  8
0
 62
     7
 10
119.00017
 20
545.20528100000001
 30
0.0
 11
115.268084
 21
546.20529699999997
 31
0.0
  0
LINE
  5
103
  8
0
 62
     7
 10
115.26812199999991
 20
546.20528899999988
 30
0.0
 11
111.768084
 21
547.14312500000005
 31
0.0
  0
LINE
  5
104
  8
0
 62
     7
 10
110.7680919999999
 20
531.99956199999986
 30
0.0
 11
119.00013199999999
 21
534.20532700000001
 31
0.0
  0
LINE
  5
105
  8
0
 62
     7
 10
110.7681069999999
 20
549.49963099999991
 30
0.0
 11
111.76809899999991
 21
549.76757499999985
 31
0.0
  0
LINE
  5
106
  8
0
 62
     7
 10
114.7680919999999
 20
525.70531200000005
 30
0.0
 11
110.7680919999999
 21
525.70531200000005
 31
0.0
  0
LINE
  5
107
  8
0
 62
     7
 10
114.7680919999999
 20
494.50534199999993
 30
0.0
 11
114.7680919999999
 21
525.70531200000005
 31
0.0
  0
LINE
  5
108
  8
0
 62
     7
 10
111.7680919999999
 20
532.26749099999995
 30
0.0
 11
111.7680919999999
 21
576.70531200000005
 31
0.0
  0
LINE
  5
109
  8
0
 62
     7
 10
115.2680919999999
 20
546.20532700000001
 30
0.0
 11
115.2680919999999
 21
571.20532700000001
 31
0.0
  0
LINE
  5
10A
  8
0
 62
     7
 10
113.7680919999999
 20
576.70531200000005
 30
0.0
 11
110.7680919999999
 21
576.70531200000005
 31
0.0
  0
LINE
  5
10B
  8
0
 62
     7
 10
114.51809899999991
 20
576.50434599999994
 30
0.0
 11
113.76809900000001
 21
576.70530399999996
 31
0.0
  0
LINE
  5
10C
  8
0
 62
     7
 10
114.51809899999991
 20
576.50434599999994
 30
0.0
 11
113.76809900000001
 21
576.70530399999996
 31
0.0
  0
LINE
  5
10D
  8
0
 62
     7
 10
115.067133
 20
575.95529699999986
 30
0.0
 11
114.518092
 21
576.50433799999985
 31
0.0
  0
LINE
  5
10E
  8
0
 62
     7
 10
115.26807599999999
 20
575.20528100000001
 30
0.0
 11
115.06711799999999
 21
575.95528100000001
 31
0.0
  0
LINE
  5
10F
  8
0
 62
     7
 10
115.268107
 20
571.20531200000005
 30
0.0
 11
115.268107
 21
575.20529699999997
 31
0.0
  0
LINE
  5
110
  8
0
 62
     7
 10
115.06714099999991
 20
570.45530399999996
 30
0.0
 11
115.1623639999999
 21
570.81068099999993
 31
0.0
  0
LINE
  5
111
  8
0
 62
     7
 10
115.1623559999999
 20
570.81067399999995
 30
0.0
 11
115.26809899999991
 21
571.20531200000005
 31
0.0
  0
LINE
  5
112
  8
0
 62
     7
 10
114.518092
 20
569.90623200000005
 30
0.0
 11
115.067133
 21
570.45527400000003
 31
0.0
  0
LINE
  5
113
  8
0
 62
     7
 10
113.76807599999999
 20
569.70528899999999
 30
0.0
 11
114.51807599999999
 21
569.90624700000001
 31
0.0
  0
LINE
  5
114
  8
0
 62
     7
 10
113.7680919999999
 20
569.70531200000005
 30
0.0
 11
111.7680919999999
 21
569.70531200000005
 31
0.0
  0
LINE
  5
115
  8
0
 62
     7
 10
110.7680919999999
 20
502.20531199999988
 30
0.0
 11
108.7680919999999
 21
502.20531199999988
 31
0.0
  0
LINE
  5
116
  8
0
 62
     7
 10
110.7680919999999
 20
651.20529699999997
 30
0.0
 11
108.7680919999999
 21
651.20529699999997
 31
0.0
  0
LINE
  5
117
  8
0
 62
     7
 10
110.7680919999999
 20
641.336949
 30
0.0
 11
108.7680919999999
 21
641.336949
 31
0.0
  0
LINE
  5
118
  8
0
 62
     7
 10
118.067103
 20
533.95531900000003
 30
0.0
 11
115.2680689999999
 21
534.70531900000003
 31
0.0
  0
LINE
  5
119
  8
0
 62
     7
 10
115.268061
 20
534.7053269999999
 30
0.0
 11
115.268061
 21
544.70532700000001
 31
0.0
  0
LINE
  5
11A
  8
0
 62
     7
 10
115.268061
 20
544.70531200000005
 30
0.0
 11
118.06711799999999
 21
545.45531200000005
 31
0.0
  0
LINE
  5
11B
  8
0
 62
     7
 10
110.7680919999999
 20
512.20531200000005
 30
0.0
 11
108.7680919999999
 21
512.20531200000005
 31
0.0
  0
LINE
  5
11C
  8
0
 62
     7
 10
115.06714099999991
 20
569.92601499999989
 30
0.0
 11
115.26809899999991
 21
570.8106889999998
 31
0.0
  0
LINE
  5
11D
  8
0
 62
     7
 10
115.2680919999999
 20
570.8106889999998
 30
0.0
 11
115.16234799999999
 21
570.8106889999998
 31
0.0
  0
LINE
  5
11E
  8
0
 62
     7
 10
115.134112
 20
556.70530399999996
 30
0.0
 11
115.268084
 21
556.80476099999987
 31
0.0
  0
LINE
  5
11F
  8
0
 62
     7
 10
115.13412700000001
 20
556.70526600000005
 30
0.0
 11
115.067133
 21
556.75499400000001
 31
0.0
  0
LINE
  5
120
  8
0
 62
     7
 10
115.2680919999999
 20
566.70532700000001
 30
0.0
 11
115.067133
 21
566.70532700000001
 31
0.0
  0
LINE
  5
121
  8
0
 62
     7
 10
115.0671259999999
 20
560.65553799999986
 30
0.0
 11
115.134112
 21
560.70526600000005
 31
0.0
  0
LINE
  5
122
  8
0
 62
     7
 10
115.2680919999999
 20
560.60584000000006
 30
0.0
 11
115.13412
 21
560.70529699999986
 31
0.0
  0
LINE
  5
123
  8
0
 62
     7
 10
115.1762949999999
 20
568.42739600000004
 30
0.0
 11
115.0671259999999
 21
569.03716799999995
 31
0.0
  0
LINE
  5
124
  8
0
 62
     7
 10
115.2680919999999
 20
566.70532700000001
 30
0.0
 11
115.17630200000001
 21
568.42740300000003
 31
0.0
  0
LINE
  5
125
  8
0
 62
     7
 10
115.0671259999999
 20
556.75502500000005
 30
0.0
 11
114.5517679999999
 21
556.85753299999988
 31
0.0
  0
LINE
  5
126
  8
0
 62
     7
 10
114.5517679999999
 20
556.85754099999997
 30
0.0
 11
114.518092
 21
556.88004799999999
 31
0.0
  0
LINE
  5
127
  8
0
 62
     7
 10
114.51807599999999
 20
560.53055300000005
 30
0.0
 11
114.55175300000001
 21
560.55305999999985
 31
0.0
  0
LINE
  5
128
  8
0
 62
     7
 10
114.55176
 20
560.55305199999998
 30
0.0
 11
115.06711799999999
 21
560.65555999999992
 31
0.0
  0
LINE
  5
129
  8
0
 62
     7
 10
115.067133
 20
566.70532700000001
 30
0.0
 11
114.518092
 21
566.70532700000001
 31
0.0
  0
LINE
  5
12A
  8
0
 62
     7
 10
114.518084
 20
556.88003300000003
 30
0.0
 11
113.768084
 21
557.01430999999991
 31
0.0
  0
LINE
  5
12B
  8
0
 62
     7
 10
113.768084
 20
560.39627599999994
 30
0.0
 11
114.518084
 21
560.53055300000005
 31
0.0
  0
LINE
  5
12C
  8
0
 62
     7
 10
114.518092
 20
566.70532700000001
 30
0.0
 11
113.7680919999999
 21
566.70532700000001
 31
0.0
  0
LINE
  5
12D
  8
0
 62
     7
 10
113.7680919999999
 20
560.39629099999991
 30
0.0
 11
111.7680919999999
 21
560.39629099999991
 31
0.0
  0
LINE
  5
12E
  8
0
 62
     7
 10
113.7680919999999
 20
566.70532700000001
 30
0.0
 11
111.7680919999999
 21
566.70532700000001
 31
0.0
  0
LINE
  5
12F
  8
0
 62
     7
 10
113.7680919999999
 20
557.01433299999985
 30
0.0
 11
111.7680919999999
 21
557.01433299999985
 31
0.0
  0
LINE
  5
130
  8
0
 62
     3
 10
204.96808899999991
 20
658.90533899999991
 30
0.0
 11
110.7680919999999
 21
658.90533899999991
 31
0.0
  0
LINE
  5
131
  8
0
 62
     3
 10
204.96808899999991
 20
494.50534199999993
 30
0.0
 11
182.76809199999991
 21
494.50534199999993
 31
0.0
  0
LINE
  5
132
  8
0
 62
     3
 10
182.76809199999991
 20
494.50534199999993
 30
0.0
 11
182.76809199999991
 21
533.95532700000001
 31
0.0
  0
LINE
  5
133
  8
0
 62
     3
 10
182.76809199999991
 20
545.45531200000005
 30
0.0
 11
182.76809199999991
 21
548.20538799999986
 31
0.0
  0
LINE
  5
134
  8
0
 62
     3
 10
182.76809199999991
 20
646.20537300000001
 30
0.0
 11
182.76809199999991
 21
658.90533899999991
 31
0.0
  0
LINE
  5
135
  8
0
 62
     3
 10
212.268092
 20
589.65419499999996
 30
0.0
 11
212.268092
 21
599.20500700000002
 31
0.0
  0
LINE
  5
136
  8
0
 62
     3
 10
212.26808299999999
 20
532.20502899999985
 30
0.0
 11
212.2680379999999
 21
538.75575000000003
 31
0.0
  0
LINE
  5
137
  8
0
 62
     3
 10
204.96808899999991
 20
494.50534499999998
 30
0.0
 11
204.96808899999991
 21
516.45534599999985
 31
0.0
  0
LINE
  5
138
  8
0
 62
     3
 10
204.968086
 20
545.4553269999999
 30
0.0
 11
182.76808799999989
 21
545.4553269999999
 31
0.0
  0
LINE
  5
139
  8
0
 62
     3
 10
204.968086
 20
533.95532700000001
 30
0.0
 11
182.76809
 21
533.95532700000001
 31
0.0
  0
LINE
  5
13A
  8
0
 62
     1
 10
210.268091
 20
637.4553269999999
 30
0.0
 11
204.96808899999991
 21
637.4553269999999
 31
0.0
  0
LINE
  5
13B
  8
0
 62
     1
 10
214.1948699999999
 20
522.02856499999996
 30
0.0
 11
214.225199
 21
522.10178899999994
 31
0.0
  0
LINE
  5
13C
  8
0
 62
     1
 10
214.1948699999999
 20
522.02856499999996
 30
0.0
 11
214.225199
 21
522.10178899999994
 31
0.0
  0
LINE
  5
13D
  8
0
 62
     1
 10
214.1948699999999
 20
522.02856499999996
 30
0.0
 11
214.225199
 21
522.10178899999994
 31
0.0
  0
LINE
  5
13E
  8
0
 62
     1
 10
207.768092
 20
516.45534199999986
 30
0.0
 11
207.26809199999991
 21
516.45534199999986
 31
0.0
  0
LINE
  5
13F
  8
0
 62
     1
 10
210.268091
 20
516.45536899999991
 30
0.0
 11
204.96808899999991
 21
516.45536899999991
 31
0.0
  0
LINE
  5
140
  8
0
 62
     2
 10
221.26940200000001
 20
522.45532700000001
 30
0.0
 11
221.26940200000001
 21
524.4553269999999
 31
0.0
  0
LINE
  5
141
  8
0
 62
     2
 10
212.2694019999999
 20
521.95532700000001
 30
0.0
 11
212.2694019999999
 21
626.95532700000001
 31
0.0
  0
LINE
  5
142
  8
0
 62
     2
 10
215.76806699999989
 20
626.95532700000001
 30
0.0
 11
210.268091
 21
626.95532700000001
 31
0.0
  0
LINE
  5
143
  8
0
 62
     2
 10
215.76806699999989
 20
521.95532700000001
 30
0.0
 11
210.268091
 21
521.95532700000001
 31
0.0
  0
LINE
  5
144
  8
0
 62
     2
 10
221.26934199999991
 20
541.45531200000005
 30
0.0
 11
221.26920699999999
 21
553.45531200000005
 31
0.0
  0
LINE
  5
145
  8
0
 62
     2
 10
221.26920000000001
 20
554.45530399999996
 30
0.0
 11
221.26925299999991
 21
573.95530399999996
 31
0.0
  0
LINE
  5
146
  8
0
 62
     7
 10
179.26808399999999
 20
590.70530399999996
 30
0.0
 11
176.76805400000001
 21
590.70530399999996
 31
0.0
  0
LINE
  5
147
  8
0
 62
     7
 10
210.268091
 20
626.95532700000001
 30
0.0
 11
210.268091
 21
637.4553269999999
 31
0.0
  0
LINE
  5
148
  8
0
 62
     7
 10
210.268091
 20
516.45534199999986
 30
0.0
 11
210.268091
 21
521.95532700000001
 31
0.0
  0
LINE
  5
149
  8
0
 62
     3
 10
204.96808899999991
 20
637.4553269999999
 30
0.0
 11
204.96808899999991
 21
658.90533899999991
 31
0.0
  0
LINE
  5
14A
  8
0
 62
     3
 10
204.96808899999991
 20
516.45534599999985
 30
0.0
 11
204.96808899999991
 21
637.4553269999999
 31
0.0
  0
ARC
  5
14B
  8
0
 62
     7
 10
241.944132
 20
552.41144299999996
 30
0.0
 40
1.0
 50
348.62360999999993
 51
76.688818000000012
  0
ARC
  5
14C
  8
0
 62
     7
 10
240.747389
 20
546.46362799999986
 30
0.0
 40
1.000000999999999
 50
260.59401500000001
 51
348.62360999999993
  0
LINE
  5
14D
  8
0
  6
DASHDOT
 62
     7
 10
256.74471899999992
 20
546.30279299999995
 30
0.0
 11
206.62802799999989
 21
556.38660900000002
 31
0.0
  0
LINE
  5
14E
  8
0
 62
     7
 10
242.1743699999999
 20
553.38458000000003
 30
0.0
 11
221.26920999999999
 21
558.33065499999987
 31
0.0
  0
LINE
  5
14F
  8
0
 62
     7
 10
241.72774399999989
 20
546.26637000000005
 30
0.0
 11
242.92448499999989
 21
552.21419200000003
 31
0.0
  0
LINE
  5
150
  8
0
 62
     7
 10
240.58396200000001
 20
545.47707100000002
 30
0.0
 11
221.26926099999989
 21
548.67667099999994
 31
0.0
  0
ARC
  5
151
  8
0
  6
DASHDOT
 62
     7
 10
167.76888899999989
 20
564.2053269999999
 30
0.0
 40
76.044273000000004
 50
337.49231500000002
 51
0.000001
  0
LINE
  5
152
  8
0
  6
DASHDOT
 62
     7
 10
243.8131589999999
 20
564.2053269999999
 30
0.0
 11
243.8131589999999
 21
569.95552499999985
 31
0.0
  0
LINE
  5
153
  8
0
 62
     7
 10
108.7680919999999
 20
502.20531199999988
 30
0.0
 11
108.7680919999999
 21
512.20531200000005
 31
0.0
  0
LINE
  5
154
  8
0
 62
     6
 10
61.268045999999991
 20
546.70530399999996
 30
0.0
 11
65.268045999999998
 21
546.70531900000003
 31
0.0
  0
LINE
  5
155
  8
0
 62
     6
 10
61.268045999999991
 20
539.70530399999996
 30
0.0
 11
65.268045999999998
 21
539.70531900000003
 31
0.0
  0
LINE
  5
156
  8
0
 62
     7
 10
60.768045999999998
 20
492.70532700000001
 30
0.0
 11
60.768045999999998
 21
517.70532700000001
 31
0.0
  0
LINE
  5
157
  8
0
 62
     3
 10
60.768045999999998
 20
635.70532700000001
 30
0.0
 11
60.768045999999998
 21
660.70532700000001
 31
0.0
  0
LINE
  5
158
  8
0
 62
     7
 10
108.7680919999999
 20
494.5053299999999
 30
0.0
 11
71.768045999999998
 21
494.5053299999999
 31
0.0
  0
LINE
  5
159
  8
0
 62
     6
 10
108.7680919999999
 20
491.7053269999999
 30
0.0
 11
71.768045999999998
 21
491.7053269999999
 31
0.0
  0
LINE
  5
15A
  8
0
 62
     6
 10
108.7680919999999
 20
661.70532700000001
 30
0.0
 11
71.768045999999998
 21
661.70532700000001
 31
0.0
  0
LINE
  5
15B
  8
0
 62
     3
 10
108.7680919999999
 20
658.90533899999991
 30
0.0
 11
71.768045999999998
 21
658.90533899999991
 31
0.0
  0
LINE
  5
15C
  8
0
 62
     6
 10
108.7680919999999
 20
491.7053269999999
 30
0.0
 11
108.7680919999999
 21
661.70532700000001
 31
0.0
  0
LINE
  5
15D
  8
0
 62
     6
 10
65.268045999999998
 20
536.70528100000001
 30
0.0
 11
65.268045999999998
 21
539.70531900000003
 31
0.0
  0
LINE
  5
15E
  8
0
 62
     6
 10
71.768045999999998
 20
491.7053269999999
 30
0.0
 11
71.768045999999998
 21
492.70532700000001
 31
0.0
  0
LINE
  5
15F
  8
0
 62
     3
 10
71.768045999999998
 20
608.70532700000001
 30
0.0
 11
65.268045999999998
 21
608.70532700000001
 31
0.0
  0
LINE
  5
160
  8
0
 62
     6
 10
71.768045999999998
 20
616.70532700000001
 30
0.0
 11
71.768045999999998
 21
633.20532700000001
 31
0.0
  0
LINE
  5
161
  8
0
 62
     7
 10
71.768045999999998
 20
529.70526600000005
 30
0.0
 11
65.268045999999998
 21
529.70526600000005
 31
0.0
  0
LINE
  5
162
  8
0
 62
     7
 10
65.268045999999998
 20
529.70526600000005
 30
0.0
 11
65.268045999999998
 21
533.20532700000001
 31
0.0
  0
LINE
  5
163
  8
0
 62
     7
 10
107.76812199999991
 20
545.20530399999996
 30
0.0
 11
65.268061000000003
 21
545.20530399999996
 31
0.0
  0
LINE
  5
164
  8
0
 62
     7
 10
107.7681149999999
 20
545.20530399999996
 30
0.0
 11
108.7680839999999
 21
546.20531900000003
 31
0.0
  0
LINE
  5
165
  8
0
 62
     7
 10
107.768107
 20
534.20534199999997
 30
0.0
 11
65.268045999999998
 21
534.20534199999997
 31
0.0
  0
LINE
  5
166
  8
0
 62
     7
 10
108.7680919999999
 20
533.20531200000005
 30
0.0
 11
107.76812199999991
 21
534.20532700000001
 31
0.0
  0
LINE
  5
167
  8
0
 62
     6
 10
59.268031000000001
 20
520.20532300000002
 30
0.0
 11
59.268045999999998
 21
533.20531900000003
 31
0.0
  0
LINE
  5
168
  8
0
 62
     6
 10
59.268045999999998
 20
620.20531200000005
 30
0.0
 11
59.268031000000001
 21
633.20531200000005
 31
0.0
  0
LINE
  5
169
  8
0
 62
     3
 10
65.268045999999998
 20
608.70532700000001
 30
0.0
 11
65.268045999999998
 21
612.70532700000001
 31
0.0
  0
LINE
  5
16A
  8
0
 62
     6
 10
108.7680919999999
 20
518.7053269999999
 30
0.0
 11
108.7680919999999
 21
519.70532700000001
 31
0.0
  0
LINE
  5
16B
  8
0
 62
     2
 10
61.268045999999991
 20
633.70532700000001
 30
0.0
 11
59.768045999999998
 21
633.70532700000001
 31
0.0
  0
LINE
  5
16C
  8
0
 62
     2
 10
61.268045999999991
 20
519.70532700000001
 30
0.0
 11
59.768045999999998
 21
519.70532700000001
 31
0.0
  0
LINE
  5
16D
  8
0
 62
     2
 10
61.268045999999991
 20
633.20532700000001
 30
0.0
 11
61.268045999999991
 21
633.70532700000001
 31
0.0
  0
LINE
  5
16E
  8
0
 62
     2
 10
61.268045999999991
 20
533.20543399999997
 30
0.0
 11
61.268045999999991
 21
620.20532700000001
 31
0.0
  0
LINE
  5
16F
  8
0
 62
     2
 10
61.268045999999991
 20
519.70532700000001
 30
0.0
 11
61.268045999999991
 21
520.20540300000005
 31
0.0
  0
LINE
  5
170
  8
0
 62
     2
 10
59.768045999999998
 20
519.70532700000001
 30
0.0
 11
59.768045999999998
 21
520.20531200000005
 31
0.0
  0
LINE
  5
171
  8
0
 62
     2
 10
59.768045999999998
 20
533.20531200000005
 30
0.0
 11
59.768045999999998
 21
620.20525099999986
 31
0.0
  0
LINE
  5
172
  8
0
 62
     2
 10
59.768045999999998
 20
633.20525099999986
 30
0.0
 11
59.768045999999998
 21
633.70532700000001
 31
0.0
  0
LINE
  5
173
  8
0
 62
     3
 10
59.768045999999998
 20
635.2053269999999
 30
0.0
 11
59.768045999999998
 21
661.20532700000001
 31
0.0
  0
LINE
  5
174
  8
0
 62
     3
 10
67.768061000000003
 20
660.70532700000001
 30
0.0
 11
67.768061000000003
 21
662.20532700000001
 31
0.0
  0
LINE
  5
175
  8
0
 62
     3
 10
67.768061000000003
 20
634.20532700000001
 30
0.0
 11
67.768061000000003
 21
635.70535800000005
 31
0.0
  0
LINE
  5
176
  8
0
 62
     6
 10
71.768045999999998
 20
517.70532700000001
 30
0.0
 11
67.768061000000003
 21
517.70532700000001
 31
0.0
  0
LINE
  5
177
  8
0
 62
     7
 10
70.768076000000008
 20
517.70532700000001
 30
0.0
 11
60.768045999999998
 21
517.70532700000001
 31
0.0
  0
LINE
  5
178
  8
0
 62
     7
 10
71.768045999999998
 20
492.70532700000001
 30
0.0
 11
60.768045999999998
 21
492.70532700000001
 31
0.0
  0
LINE
  5
179
  8
0
 62
     3
 10
70.768076000000008
 20
635.70532700000001
 30
0.0
 11
60.768045999999998
 21
635.70532700000001
 31
0.0
  0
LINE
  5
17A
  8
0
 62
     6
 10
71.768045999999998
 20
635.70532700000001
 30
0.0
 11
67.768061000000003
 21
635.70532700000001
 31
0.0
  0
LINE
  5
17B
  8
0
 62
     3
 10
67.768061000000003
 20
660.70532700000001
 30
0.0
 11
60.768045999999998
 21
660.70532700000001
 31
0.0
  0
LINE
  5
17C
  8
0
 62
     6
 10
71.768030999999993
 20
520.20532700000001
 30
0.0
 11
59.268031000000001
 21
520.20532700000001
 31
0.0
  0
LINE
  5
17D
  8
0
 62
     6
 10
65.268045999999998
 20
533.20532700000001
 30
0.0
 11
59.268045999999998
 21
533.20532700000001
 31
0.0
  0
LINE
  5
17E
  8
0
 62
     6
 10
71.768030999999993
 20
633.20532700000001
 30
0.0
 11
59.268031000000001
 21
633.20532700000001
 31
0.0
  0
LINE
  5
17F
  8
0
 62
     6
 10
71.768045999999998
 20
620.20532700000001
 30
0.0
 11
59.268045999999998
 21
620.20532700000001
 31
0.0
  0
LINE
  5
180
  8
0
 62
     6
 10
71.767893000000001
 20
616.70532700000001
 30
0.0
 11
61.268045999999991
 21
616.70532700000001
 31
0.0
  0
LINE
  5
181
  8
0
 62
     3
 10
71.767969999999991
 20
612.70532700000001
 30
0.0
 11
65.268045999999998
 21
612.70532700000001
 31
0.0
  0
LINE
  5
182
  8
0
 62
     6
 10
65.268045999999998
 20
608.70532700000001
 30
0.0
 11
61.268045999999991
 21
608.70532700000001
 31
0.0
  0
LINE
  5
183
  8
0
 62
     3
 10
59.768031000000008
 20
661.20535800000005
 30
0.0
 11
60.768031000000008
 21
662.20535800000005
 31
0.0
  0
LINE
  5
184
  8
0
 62
     3
 10
60.767984999999989
 20
634.20538799999986
 30
0.0
 11
59.767985000000003
 21
635.20538799999986
 31
0.0
  0
LINE
  5
185
  8
0
 62
     3
 10
67.768061000000003
 20
662.20532700000001
 30
0.0
 11
60.768045999999998
 21
662.20532700000001
 31
0.0
  0
LINE
  5
186
  8
0
 62
     3
 10
67.768061000000003
 20
634.20532700000001
 30
0.0
 11
60.768045999999998
 21
634.20532700000001
 31
0.0
  0
LINE
  5
187
  8
0
 62
     3
 10
95.268091999999996
 20
481.7053269999999
 30
0.0
 11
90.268091999999996
 21
481.7053269999999
 31
0.0
  0
LINE
  5
188
  8
0
 62
     3
 10
95.268091999999996
 20
461.70533699999987
 30
0.0
 11
90.268091999999996
 21
461.70533699999987
 31
0.0
  0
LINE
  5
189
  8
0
 62
     3
 10
95.268091999999996
 20
461.70534199999992
 30
0.0
 11
95.268091999999996
 21
491.7053269999999
 31
0.0
  0
LINE
  5
18A
  8
0
 62
     3
 10
90.268091999999996
 20
461.70533699999987
 30
0.0
 11
90.268091999999996
 21
491.7053269999999
 31
0.0
  0
LINE
  5
18B
  8
0
 62
     3
 10
95.268091999999996
 20
661.70532700000001
 30
0.0
 11
95.268091999999996
 21
691.70531200000005
 31
0.0
  0
LINE
  5
18C
  8
0
 62
     3
 10
90.268091999999996
 20
661.70532700000001
 30
0.0
 11
90.268091999999996
 21
691.70531200000005
 31
0.0
  0
LINE
  5
18D
  8
0
 62
     3
 10
95.268091999999996
 20
691.70531200000005
 30
0.0
 11
90.268091999999996
 21
691.70531200000005
 31
0.0
  0
LINE
  5
18E
  8
0
 62
     3
 10
95.268091999999996
 20
671.70532700000001
 30
0.0
 11
90.268091999999996
 21
671.70532700000001
 31
0.0
  0
LINE
  5
18F
  8
0
 62
     3
 10
67.768061000000003
 20
491.2053269999999
 30
0.0
 11
60.768045999999998
 21
491.2053269999999
 31
0.0
  0
LINE
  5
190
  8
0
 62
     3
 10
60.768031000000008
 20
491.20529099999987
 30
0.0
 11
59.768031000000008
 21
492.20529099999987
 31
0.0
  0
LINE
  5
191
  8
0
 62
     3
 10
59.768045999999998
 20
492.2053269999999
 30
0.0
 11
59.768045999999998
 21
518.2053269999999
 31
0.0
  0
LINE
  5
192
  8
0
 62
     3
 10
59.767985000000003
 20
518.20526600000005
 30
0.0
 11
60.767984999999989
 21
519.20526600000005
 31
0.0
  0
LINE
  5
193
  8
0
 62
     3
 10
67.768061000000003
 20
519.20532700000001
 30
0.0
 11
60.768045999999998
 21
519.20532700000001
 31
0.0
  0
LINE
  5
194
  8
0
 62
     3
 10
67.768061000000003
 20
517.70529699999997
 30
0.0
 11
67.768061000000003
 21
519.20532700000001
 31
0.0
  0
LINE
  5
195
  8
0
 62
     3
 10
67.768061000000003
 20
491.2053269999999
 30
0.0
 11
67.768061000000003
 21
492.70532700000001
 31
0.0
  0
LINE
  5
196
  8
0
  6
DASHDOT
 62
     7
 10
59.268031000000001
 20
633.20532700000001
 30
0.0
 11
59.268031000000001
 21
683.22340899999995
 31
0.0
  0
LINE
  5
197
  8
0
  6
DASHDOT
 62
     7
 10
59.268045999999998
 20
533.20531900000003
 30
0.0
 11
59.268045999999998
 21
620.20532700000001
 31
0.0
  0
LINE
  5
198
  8
0
  6
DASHDOT
 62
     7
 10
59.268031000000001
 20
467.65574600000002
 30
0.0
 11
59.268031000000001
 21
520.20532300000002
 31
0.0
  0
LINE
  5
199
  8
0
  6
DASHDOT
 62
     7
 10
56.268045999999991
 20
467.55952100000002
 30
0.0
 11
56.268045999999991
 21
683.22340899999995
 31
0.0
  0
POLYLINE
  5
19A
  8
0
 62
     7
 66
     1
 10
0.0
 20
0.0
 30
0.0
  0
VERTEX
  5
67F
  8
0
 62
     7
 10
65.446192000000011
 20
683.22340899999995
 30
0.0
  0
VERTEX
  5
680
  8
0
 62
     7
 10
49.446191999999989
 20
683.22340899999995
 30
0.0
  0
VERTEX
  5
681
  8
0
 62
     7
 10
48.446192000000003
 20
681.22340899999995
 30
0.0
  0
VERTEX
  5
682
  8
0
 62
     7
 10
47.446191999999989
 20
685.22340899999995
 30
0.0
  0
VERTEX
  5
683
  8
0
 62
     7
 10
46.446192000000003
 20
683.22340899999995
 30
0.0
  0
VERTEX
  5
684
  8
0
 62
     7
 10
45.166818999999997
 20
683.22340899999995
 30
0.0
  0
SEQEND
  5
685
  8
0
 62
     7
  0
POLYLINE
  5
1A2
  8
0
 62
     7
 66
     1
 10
0.0
 20
0.0
 30
0.0
  0
VERTEX
  5
686
  8
0
 62
     7
 10
50.842387000000002
 20
467.45446900000002
 30
0.0
  0
VERTEX
  5
687
  8
0
 62
     7
 10
61.965631999999992
 20
467.66983899999991
 30
0.0
  0
VERTEX
  5
688
  8
0
 62
     7
 10
62.926721999999998
 20
469.68882300000001
 30
0.0
  0
VERTEX
  5
689
  8
0
 62
     7
 10
64.003977000000006
 20
465.70893099999989
 30
0.0
  0
VERTEX
  5
68A
  8
0
 62
     7
 10
64.965067000000005
 20
467.727915
 30
0.0
  0
SEQEND
  5
68B
  8
0
 62
     7
  0
LINE
  5
1A9
  8
0
 62
     7
 10
71.768045999999998
 20
492.70532700000001
 30
0.0
 11
67.768061000000003
 21
492.70532700000001
 31
0.0
  0
LINE
  5
1AA
  8
0
 62
     7
 10
71.768045999999998
 20
520.20532700000001
 30
0.0
 11
71.768045999999998
 21
529.70523500000002
 31
0.0
  0
LINE
  5
1AB
  8
0
 62
     6
 10
71.768045999999998
 20
517.70532700000001
 30
0.0
 11
71.768045999999998
 21
520.20532700000001
 31
0.0
  0
LINE
  5
1AC
  8
0
 62
     3
 10
65.268045999999998
 20
539.70531900000003
 30
0.0
 11
65.268045999999998
 21
546.70531900000003
 31
0.0
  0
LINE
  5
1AD
  8
0
 62
     6
 10
65.268045999999998
 20
533.20532700000001
 30
0.0
 11
65.268045999999998
 21
536.70528100000001
 31
0.0
  0
LINE
  5
1AE
  8
0
 62
     6
 10
65.268045999999998
 20
546.70531900000003
 30
0.0
 11
65.268045999999998
 21
608.70531200000005
 31
0.0
  0
LINE
  5
1AF
  8
0
 62
     7
 10
71.768045999999998
 20
492.70532700000001
 30
0.0
 11
71.768045999999998
 21
517.70532700000001
 31
0.0
  0
LINE
  5
1B0
  8
0
 62
     6
 10
71.768045999999998
 20
660.70532700000001
 30
0.0
 11
71.768045999999998
 21
661.70532700000001
 31
0.0
  0
LINE
  5
1B1
  8
0
 62
     3
 10
71.768045999999998
 20
635.70532700000001
 30
0.0
 11
71.768045999999998
 21
660.70532700000001
 31
0.0
  0
LINE
  5
1B2
  8
0
 62
     6
 10
71.768045999999998
 20
633.20532700000001
 30
0.0
 11
71.768045999999998
 21
635.70532700000001
 31
0.0
  0
LINE
  5
1B3
  8
0
 62
     6
 10
71.768045999999998
 20
660.70532700000001
 30
0.0
 11
67.768061000000003
 21
660.70532700000001
 31
0.0
  0
LINE
  5
1B4
  8
0
 62
     3
 10
71.768045999999998
 20
608.70532700000001
 30
0.0
 11
71.768045999999998
 21
616.70532700000001
 31
0.0
  0
LINE
  5
1B5
  8
0
  6
DASHDOT
 62
     7
 10
88.627145999999996
 20
626.7053269999999
 30
0.0
 11
29.514002000000001
 21
626.7053269999999
 31
0.0
  0
LINE
  5
1B6
  8
0
  6
DASHDOT
 62
     7
 10
86.092425000000006
 20
526.7053269999999
 30
0.0
 11
28.228097999999989
 21
526.7053269999999
 31
0.0
  0
CIRCLE
  5
1B7
  8
0
 62
     7
 10
91.418505000000025
 20
666.90185999999994
 30
0.0
 40
0.2
  0
CIRCLE
  5
1B8
  8
0
 62
     7
 10
82.277032999999989
 20
640.14401699999985
 30
0.0
 40
0.2
  0
LINE
  5
1B9
  8
0
  6
DASHDOT
 62
     7
 10
100.559985
 20
681.70531200000005
 30
0.0
 11
82.848382999999998
 21
681.70531200000005
 31
0.0
  0
LINE
  5
1BA
  8
0
  6
DASHDOT
 62
     7
 10
100.75042999999999
 20
471.70533699999999
 30
0.0
 11
83.991061000000002
 21
471.70533699999999
 31
0.0
  0
LINE
  5
1BB
  8
0
 62
     1
 10
215.76806699999989
 20
519.44890700000008
 30
0.0
 11
215.76806699999989
 21
521.44890699999996
 31
0.0
  0
LINE
  5
1BC
  8
0
 62
     1
 10
217.76806699999989
 20
519.44890700000008
 30
0.0
 11
215.76806699999989
 21
519.44890700000008
 31
0.0
  0
LINE
  5
1BD
  8
0
 62
     1
 10
215.76806699999989
 20
626.95532700000001
 30
0.0
 11
215.76806699999989
 21
629.44890299999997
 31
0.0
  0
LINE
  5
1BE
  8
0
 62
     1
 10
217.76806699999989
 20
629.44890299999997
 30
0.0
 11
215.76806699999989
 21
629.44890299999997
 31
0.0
  0
LINE
  5
1BF
  8
0
 62
     1
 10
215.76806699999989
 20
521.44890699999996
 30
0.0
 11
215.76806699999989
 21
627.44890299999986
 31
0.0
  0
LINE
  5
1C0
  8
0
 62
     1
 10
211.268067
 20
643.02625
 30
0.0
 11
211.268067
 21
647.87155599999994
 31
0.0
  0
LINE
  5
1C1
  8
0
 62
     1
 10
211.268067
 20
501.02625799999998
 30
0.0
 11
211.268067
 21
505.87155599999988
 31
0.0
  0
LINE
  5
1C2
  8
0
 62
     1
 10
217.76806699999989
 20
492.94890700000002
 30
0.0
 11
217.76806699999989
 21
655.94890299999986
 31
0.0
  0
LINE
  5
1C3
  8
0
 62
     1
 10
221.268067
 20
492.94890700000002
 30
0.0
 11
217.76806699999989
 21
492.94890700000002
 31
0.0
  0
LINE
  5
1C4
  8
0
 62
     1
 10
221.268067
 20
492.94890299999997
 30
0.0
 11
221.268067
 21
655.94890299999986
 31
0.0
  0
LINE
  5
1C5
  8
0
 62
     1
 10
221.268067
 20
655.94890299999986
 30
0.0
 11
220.26806699999989
 21
655.94890299999986
 31
0.0
  0
LINE
  5
1C6
  8
0
 62
     1
 10
219.268067
 20
655.94890299999986
 30
0.0
 11
217.76806699999989
 21
655.94890299999986
 31
0.0
  0
LINE
  5
1C7
  8
0
 62
     1
 10
217.76806699999989
 20
642.44890299999997
 30
0.0
 11
212.26806400000001
 21
642.44890299999997
 31
0.0
  0
LINE
  5
1C8
  8
0
 62
     1
 10
217.76806699999989
 20
648.44890299999986
 30
0.0
 11
212.26806999999999
 21
648.44890299999986
 31
0.0
  0
LINE
  5
1C9
  8
0
 62
     1
 10
212.268067
 20
642.44890299999997
 30
0.0
 11
212.268067
 21
642.67726600000003
 31
0.0
  0
LINE
  5
1CA
  8
0
 62
     1
 10
212.268068
 20
642.44890299999997
 30
0.0
 11
211.268068
 21
643.02625
 31
0.0
  0
LINE
  5
1CB
  8
0
 62
     1
 10
212.268067
 20
642.67726600000003
 30
0.0
 11
212.268067
 21
643.32758000000001
 31
0.0
  0
LINE
  5
1CC
  8
0
 62
     1
 10
212.268067
 20
643.32758000000001
 30
0.0
 11
212.268067
 21
644.30086200000005
 31
0.0
  0
LINE
  5
1CD
  8
0
 62
     1
 10
212.268067
 20
644.30086200000005
 30
0.0
 11
212.268067
 21
645.44890299999986
 31
0.0
  0
LINE
  5
1CE
  8
0
 62
     1
 10
212.268067
 20
645.44890299999986
 30
0.0
 11
212.268067
 21
646.59695899999997
 31
0.0
  0
LINE
  5
1CF
  8
0
 62
     1
 10
212.268067
 20
646.59695899999997
 30
0.0
 11
212.268067
 21
647.57022599999993
 31
0.0
  0
LINE
  5
1D0
  8
0
 62
     1
 10
212.268067
 20
647.57022599999993
 30
0.0
 11
212.268067
 21
648.22054000000003
 31
0.0
  0
LINE
  5
1D1
  8
0
 62
     1
 10
212.268067
 20
648.22054000000003
 30
0.0
 11
212.268067
 21
648.44890299999986
 31
0.0
  0
LINE
  5
1D2
  8
0
 62
     1
 10
211.268066
 20
647.87155599999994
 30
0.0
 11
212.26806599999989
 21
648.44890299999986
 31
0.0
  0
LINE
  5
1D3
  8
0
 62
     1
 10
217.76806699999989
 20
506.44890700000002
 30
0.0
 11
212.268069
 21
506.44890700000002
 31
0.0
  0
LINE
  5
1D4
  8
0
 62
     1
 10
217.76806699999989
 20
500.44890699999991
 30
0.0
 11
212.26806499999989
 21
500.44890699999991
 31
0.0
  0
LINE
  5
1D5
  8
0
 62
     1
 10
211.268067
 20
505.87155599999988
 30
0.0
 11
212.268067
 21
506.44890700000002
 31
0.0
  0
LINE
  5
1D6
  8
0
 62
     1
 10
212.268067
 20
506.22054400000002
 30
0.0
 11
212.268067
 21
506.44890700000002
 31
0.0
  0
LINE
  5
1D7
  8
0
 62
     1
 10
212.268067
 20
505.57022599999999
 30
0.0
 11
212.268067
 21
506.22054400000002
 31
0.0
  0
LINE
  5
1D8
  8
0
 62
     1
 10
212.268067
 20
504.59695899999991
 30
0.0
 11
212.268067
 21
505.57022599999999
 31
0.0
  0
LINE
  5
1D9
  8
0
 62
     1
 10
212.268067
 20
503.44890700000002
 30
0.0
 11
212.268067
 21
504.59695899999991
 31
0.0
  0
LINE
  5
1DA
  8
0
 62
     1
 10
212.268067
 20
502.30085799999989
 30
0.0
 11
212.268067
 21
503.44890700000002
 31
0.0
  0
LINE
  5
1DB
  8
0
 62
     1
 10
212.268067
 20
501.32758799999999
 30
0.0
 11
212.268067
 21
502.30085799999989
 31
0.0
  0
LINE
  5
1DC
  8
0
 62
     1
 10
212.268067
 20
500.67726999999991
 30
0.0
 11
212.268067
 21
501.32758799999999
 31
0.0
  0
LINE
  5
1DD
  8
0
 62
     1
 10
212.268067
 20
500.44890699999991
 30
0.0
 11
211.268067
 21
501.02625799999998
 31
0.0
  0
LINE
  5
1DE
  8
0
 62
     1
 10
212.268067
 20
500.44890699999991
 30
0.0
 11
212.268067
 21
500.67726999999991
 31
0.0
  0
LINE
  5
1DF
  8
0
 62
     1
 10
220.26806699999989
 20
655.94890299999986
 30
0.0
 11
219.268067
 21
655.94890299999986
 31
0.0
  0
CIRCLE
  5
1E0
  8
0
 62
     7
 10
192.399134
 20
646.79880199999991
 30
0.0
 40
0.25
  0
LINE
  5
1E1
  8
0
 62
     7
 10
217.76806699999989
 20
655.94890299999986
 30
0.0
 11
217.76806699999989
 21
699.94791100000009
 31
0.0
  0
LINE
  5
1E2
  8
0
 62
     7
 10
215.76806699999989
 20
629.44890299999997
 30
0.0
 11
215.76806699999989
 21
642.44890299999997
 31
0.0
  0
LINE
  5
1E3
  8
0
 62
     7
 10
217.76806699999989
 20
437.66163200000011
 30
0.0
 11
217.76806699999989
 21
492.94890700000002
 31
0.0
  0
LINE
  5
1E4
  8
0
 62
     7
 10
215.76806699999989
 20
438.59313899999989
 30
0.0
 11
215.76806699999989
 21
500.44890699999991
 31
0.0
  0
POLYLINE
  5
1E5
  8
0
 62
     3
 66
     1
 10
0.0
 20
0.0
 30
0.0
  0
VERTEX
  5
68C
  8
0
 62
     3
 10
225.1588459999999
 20
434.21935000000002
 30
0.0
  0
VERTEX
  5
68D
  8
0
 62
     3
 10
210.65484499999999
 20
440.97463899999991
 30
0.0
  0
VERTEX
  5
68E
  8
0
 62
     3
 10
208.90393399999999
 20
439.583844
 30
0.0
  0
VERTEX
  5
68F
  8
0
 62
     3
 10
209.68625599999999
 20
443.63205099999988
 30
0.0
  0
VERTEX
  5
690
  8
0
 62
     3
 10
207.9353439999999
 20
442.24125599999991
 30
0.0
  0
VERTEX
  5
691
  8
0
 62
     3
 10
207.7029409999999
 20
442.34949799999998
 30
0.0
  0
SEQEND
  5
692
  8
0
 62
     3
  0
POLYLINE
  5
1ED
  8
0
 62
     3
 66
     1
 10
0.0
 20
0.0
 30
0.0
  0
VERTEX
  5
693
  8
0
 62
     3
 10
226.8326999999999
 20
696.77528899999993
 30
0.0
  0
VERTEX
  5
694
  8
0
 62
     3
 10
211.730966
 20
702.06090300000005
 30
0.0
  0
VERTEX
  5
695
  8
0
 62
     3
 10
210.12640699999989
 20
700.50352999999996
 30
0.0
  0
VERTEX
  5
696
  8
0
 62
     3
 10
210.50395
 20
704.60931900000003
 30
0.0
  0
VERTEX
  5
697
  8
0
 62
     3
 10
208.89939099999989
 20
703.05194600000004
 30
0.0
  0
VERTEX
  5
698
  8
0
 62
     3
 10
207.7029409999999
 20
703.47070799999995
 30
0.0
  0
SEQEND
  5
699
  8
0
 62
     3
  0
LINE
  5
1F5
  8
0
 62
     7
 10
217.76806699999989
 20
648.94890299999986
 30
0.0
 11
215.76806699999989
 21
648.94890299999986
 31
0.0
  0
LINE
  5
1F6
  8
0
 62
     7
 10
217.76806699999989
 20
641.94890299999997
 30
0.0
 11
215.76806699999989
 21
641.94890299999997
 31
0.0
  0
LINE
  5
1F7
  8
0
 62
     7
 10
217.76806699999989
 20
630.44890299999997
 30
0.0
 11
215.76806699999989
 21
630.44890299999997
 31
0.0
  0
LINE
  5
1F8
  8
0
 62
     7
 10
217.76806699999989
 20
518.44890699999996
 30
0.0
 11
215.76806699999989
 21
518.44890699999996
 31
0.0
  0
LINE
  5
1F9
  8
0
 62
     7
 10
217.76806699999989
 20
506.94890700000002
 30
0.0
 11
215.76806699999989
 21
506.94890700000002
 31
0.0
  0
LINE
  5
1FA
  8
0
 62
     7
 10
217.76806699999989
 20
499.94890700000002
 30
0.0
 11
215.76806699999989
 21
499.94890700000002
 31
0.0
  0
LINE
  5
1FB
  8
0
 62
     7
 10
215.76806699999989
 20
506.44890700000002
 30
0.0
 11
215.76806699999989
 21
519.44890700000008
 31
0.0
  0
LINE
  5
1FC
  8
0
 62
     7
 10
215.76806699999989
 20
648.44890299999986
 30
0.0
 11
215.76806699999989
 21
700.64790800000003
 31
0.0
  0
LINE
  5
1FD
  8
0
  6
DASHDOT
 62
     7
 10
273.68786899999992
 20
574.4553269999999
 30
0.0
 11
19.805078999999999
 21
574.4553269999999
 31
0.0
  0
LINE
  5
1FE
  8
0
 62
   150
 10
209.26809099999991
 20
664.2053269999999
 30
0.0
 11
110.7680919999999
 21
664.2053269999999
 31
0.0
  0
LINE
  5
1FF
  8
0
 62
   150
 10
209.26809099999991
 20
489.20533999999998
 30
0.0
 11
110.7680919999999
 21
489.20533999999998
 31
0.0
  0
LINE
  5
200
  8
0
 62
   150
 10
210.268091
 20
490.20533999999998
 30
0.0
 11
210.268091
 21
515.45536900000002
 31
0.0
  0
LINE
  5
201
  8
0
 62
   150
 10
210.268091
 20
638.45532700000001
 30
0.0
 11
210.268091
 21
663.20532700000001
 31
0.0
  0
ARC
  5
202
  8
0
 62
   150
 10
209.26809099999991
 20
663.20532700000001
 30
0.0
 40
1.0
 50
0.000001
 51
90.000010000000003
  0
ARC
  5
203
  8
0
 62
   150
 10
209.26809099999991
 20
490.20533999999998
 30
0.0
 40
1.0
 50
270.00000499999987
 51
0.000001
  0
LINE
  5
204
  8
0
 62
   150
 10
209.26809099999991
 20
637.4553269999999
 30
0.0
 11
209.26809099999991
 21
638.45532700000001
 31
0.0
  0
LINE
  5
205
  8
0
 62
   150
 10
210.268091
 20
638.45532700000001
 30
0.0
 11
209.26809099999991
 21
638.45532700000001
 31
0.0
  0
LINE
  5
206
  8
0
 62
   150
 10
210.268091
 20
515.45536900000002
 30
0.0
 11
209.26809099999991
 21
515.45536900000002
 31
0.0
  0
LINE
  5
207
  8
0
 62
   150
 10
209.26809099999991
 20
515.45536900000002
 30
0.0
 11
209.26809099999991
 21
516.45536899999991
 31
0.0
  0
CIRCLE
  5
208
  8
0
 62
     7
 10
-65.000294999999994
 20
649.83331799999985
 30
0.0
 40
0.2
  0
CIRCLE
  5
209
  8
0
 62
     7
 10
53.783044999999987
 20
526.53960099999995
 30
0.0
 40
0.2
  0
LINE
  5
20A
  8
0
 62
     7
 10
53.068049000000002
 20
622.80533300000002
 30
0.0
 11
53.068049000000002
 21
630.60532099999989
 31
0.0
  0
LINE
  5
20B
  8
0
 62
     7
 10
49.868051999999999
 20
624.70532700000001
 30
0.0
 11
49.868051999999999
 21
628.70532700000001
 31
0.0
  0
LINE
  5
20C
  8
0
 62
     7
 10
56.268045999999991
 20
630.60532099999989
 30
0.0
 11
53.068049000000002
 21
630.60532099999989
 31
0.0
  0
LINE
  5
20D
  8
0
 62
     7
 10
56.268045999999991
 20
622.80533300000002
 30
0.0
 11
53.068049000000002
 21
622.80533300000002
 31
0.0
  0
LINE
  5
20E
  8
0
 62
     7
 10
56.268045999999991
 20
628.70532700000001
 30
0.0
 11
49.868051999999999
 21
628.70532700000001
 31
0.0
  0
LINE
  5
20F
  8
0
 62
     7
 10
56.268045999999991
 20
624.70532700000001
 30
0.0
 11
49.868051999999999
 21
624.70532700000001
 31
0.0
  0
LINE
  5
210
  8
0
 62
     7
 10
56.268045999999991
 20
530.60532899999998
 30
0.0
 11
53.068049000000002
 21
530.60532899999998
 31
0.0
  0
LINE
  5
211
  8
0
 62
     7
 10
56.268045999999991
 20
528.70532700000001
 30
0.0
 11
49.868051999999999
 21
528.70532700000001
 31
0.0
  0
LINE
  5
212
  8
0
 62
     7
 10
56.268045999999991
 20
524.70532700000001
 30
0.0
 11
49.868051999999999
 21
524.70532700000001
 31
0.0
  0
LINE
  5
213
  8
0
 62
     7
 10
56.268045999999991
 20
522.80532599999992
 30
0.0
 11
53.068049000000002
 21
522.80532599999992
 31
0.0
  0
LINE
  5
214
  8
0
 62
     7
 10
53.068049000000002
 20
522.80532599999992
 30
0.0
 11
53.068049000000002
 21
530.60532899999998
 31
0.0
  0
LINE
  5
215
  8
0
 62
     7
 10
49.868051999999999
 20
524.70532700000001
 30
0.0
 11
49.868051999999999
 21
528.70532700000001
 31
0.0
  0
LINE
  5
216
  8
0
 62
     7
 10
267.89899699999989
 20
521.95532700000001
 30
0.0
 11
268.94089700000001
 21
527.86417500000005
 31
0.0
  0
LINE
  5
217
  8
0
 62
     7
 10
267.89899699999989
 20
521.95532700000001
 30
0.0
 11
266.85712699999999
 21
527.86417099999994
 31
0.0
  0
LINE
  5
218
  8
0
 62
     7
 10
267.89899699999989
 20
626.95532700000001
 30
0.0
 11
266.85712699999999
 21
621.046468
 31
0.0
  0
LINE
  5
219
  8
0
 62
     7
 10
267.89899699999989
 20
626.95532700000001
 30
0.0
 11
268.94089700000001
 21
621.046468
 31
0.0
  0
LINE
  5
21A
  8
0
 62
     7
 10
267.89899699999989
 20
521.95532700000001
 30
0.0
 11
267.89899699999989
 21
626.95532700000001
 31
0.0
  0
LINE
  5
21B
  8
0
 62
     7
 10
271.89899699999989
 20
521.955331
 30
0.0
 11
215.76807599999989
 21
521.95532700000001
 31
0.0
  0
LINE
  5
21C
  8
0
 62
     7
 10
271.89899699999989
 20
626.95532700000001
 30
0.0
 11
215.76807599999989
 21
626.95531200000005
 31
0.0
  0
LINE
  5
21D
  8
0
 62
     7
 10
243.81315099999989
 20
382.2467089999999
 30
0.0
 11
237.9043069999999
 21
383.28860200000003
 31
0.0
  0
LINE
  5
21E
  8
0
 62
     7
 10
243.81315099999989
 20
382.2467089999999
 30
0.0
 11
237.9043069999999
 21
381.20482299999992
 31
0.0
  0
LINE
  5
21F
  8
0
 62
     7
 10
59.268045999999998
 20
382.24677000000003
 30
0.0
 11
65.17689
 21
381.20488499999999
 31
0.0
  0
LINE
  5
220
  8
0
 62
     7
 10
59.268045999999998
 20
382.24677000000003
 30
0.0
 11
65.17689
 21
383.28866299999987
 31
0.0
  0
LINE
  5
221
  8
0
 62
     7
 10
243.81315099999989
 20
382.2467089999999
 30
0.0
 11
59.268045999999998
 21
382.24677000000003
 31
0.0
  0
LINE
  5
222
  8
0
 62
     7
 10
243.81315099999989
 20
378.24670900000001
 30
0.0
 11
243.81321199999999
 21
564.20531200000005
 31
0.0
  0
LINE
  5
223
  8
0
 62
     7
 10
59.268014999999998
 20
378.24677000000003
 30
0.0
 11
59.268045999999998
 21
467.65579699999989
 31
0.0
  0
LINE
  5
224
  8
0
 62
     7
 10
212.26941899999991
 20
422.38280200000003
 30
0.0
 11
206.36054499999989
 21
423.42468699999989
 31
0.0
  0
LINE
  5
225
  8
0
 62
     7
 10
212.26941899999991
 20
422.38280200000003
 30
0.0
 11
206.36054499999989
 21
421.3409089999999
 31
0.0
  0
LINE
  5
226
  8
0
 62
     7
 10
59.268045999999998
 20
422.3828519999999
 30
0.0
 11
65.17689
 21
421.340959
 31
0.0
  0
LINE
  5
227
  8
0
 62
     7
 10
59.268045999999998
 20
422.3828519999999
 30
0.0
 11
65.17689
 21
423.42473699999999
 31
0.0
  0
LINE
  5
228
  8
0
 62
     7
 10
212.26941899999991
 20
422.38280200000003
 30
0.0
 11
59.268045999999998
 21
422.38284799999991
 31
0.0
  0
LINE
  5
229
  8
0
 62
     7
 10
212.26941899999991
 20
418.38280199999991
 30
0.0
 11
212.26941899999991
 21
521.95532700000001
 31
0.0
  0
LINE
  5
22A
  8
0
 62
     7
 10
59.268045999999998
 20
418.38285200000001
 30
0.0
 11
59.268045999999998
 21
467.65578599999998
 31
0.0
  0
LINE
  5
22B
  8
0
 62
     7
 10
217.76807599999989
 20
399.66609699999998
 30
0.0
 11
223.67692
 21
398.624211
 31
0.0
  0
LINE
  5
22C
  8
0
 62
     7
 10
217.76807599999989
 20
399.66609699999998
 30
0.0
 11
223.67692
 21
400.70798999999988
 31
0.0
  0
LINE
  5
22D
  8
0
 62
     7
 10
215.76807599999989
 20
399.66609699999998
 30
0.0
 11
209.85923199999991
 21
400.70798600000001
 31
0.0
  0
LINE
  5
22E
  8
0
 62
     7
 10
215.76807599999989
 20
399.66609699999998
 30
0.0
 11
209.85923199999991
 21
398.624211
 31
0.0
  0
LINE
  5
22F
  8
0
 62
     7
 10
59.268045999999998
 20
399.666089
 30
0.0
 11
65.17689
 21
398.62420400000002
 31
0.0
  0
LINE
  5
230
  8
0
 62
     7
 10
59.268045999999998
 20
399.666089
 30
0.0
 11
65.17689
 21
400.70797799999991
 31
0.0
  0
LINE
  5
231
  8
0
 62
     7
 10
229.26807599999989
 20
399.66609699999998
 30
0.0
 11
59.268045999999998
 21
399.666089
 31
0.0
  0
LINE
  5
232
  8
0
 62
     7
 10
217.76807599999989
 20
395.66609699999998
 30
0.0
 11
217.76807599999989
 21
437.66163200000011
 31
0.0
  0
LINE
  5
233
  8
0
 62
     7
 10
215.76807599999989
 20
395.66609699999998
 30
0.0
 11
215.76807599999989
 21
438.5931349999999
 31
0.0
  0
LINE
  5
234
  8
0
 62
     7
 10
59.268045999999998
 20
395.666089
 30
0.0
 11
59.268014999999998
 21
467.65573599999999
 31
0.0
  0
LINE
  5
235
  8
0
 62
     7
 10
95.268107000000001
 20
728.71300199999985
 30
0.0
 11
101.176951
 21
727.67110199999991
 31
0.0
  0
LINE
  5
236
  8
0
 62
     7
 10
95.268107000000001
 20
728.71300199999985
 30
0.0
 11
101.176951
 21
729.75487199999986
 31
0.0
  0
LINE
  5
237
  8
0
 62
     7
 10
90.268107000000001
 20
728.71300199999985
 30
0.0
 11
84.359231999999992
 21
729.75487199999986
 31
0.0
  0
LINE
  5
238
  8
0
 62
     7
 10
90.268107000000001
 20
728.71300199999985
 30
0.0
 11
84.359231999999992
 21
727.67110199999991
 31
0.0
  0
LINE
  5
239
  8
0
 62
     7
 10
59.268045999999998
 20
728.71300199999985
 30
0.0
 11
65.17689
 21
727.67110199999991
 31
0.0
  0
LINE
  5
23A
  8
0
 62
     7
 10
59.268045999999998
 20
728.71300199999985
 30
0.0
 11
65.17689
 21
729.75487199999986
 31
0.0
  0
LINE
  5
23B
  8
0
 62
     7
 10
56.268045999999991
 20
728.71300199999985
 30
0.0
 11
50.359171000000003
 21
729.75487199999986
 31
0.0
  0
LINE
  5
23C
  8
0
 62
     7
 10
56.268045999999991
 20
728.71300199999985
 30
0.0
 11
50.359171000000003
 21
727.67110199999991
 31
0.0
  0
LINE
  5
23D
  8
0
 62
     7
 10
106.768107
 20
728.71300199999985
 30
0.0
 11
39.268045999999998
 21
728.71300199999985
 31
0.0
  0
LINE
  5
23E
  8
0
 62
     7
 10
95.268076000000008
 20
732.71300199999985
 30
0.0
 11
95.268107000000001
 21
691.70529699999997
 31
0.0
  0
LINE
  5
23F
  8
0
 62
     7
 10
90.268076000000008
 20
732.71300199999985
 30
0.0
 11
90.268107000000001
 21
691.70529699999997
 31
0.0
  0
LINE
  5
240
  8
0
 62
     7
 10
59.268014999999998
 20
732.71300199999985
 30
0.0
 11
59.268045999999998
 21
683.22339299999999
 31
0.0
  0
LINE
  5
241
  8
0
 62
     7
 10
56.268045999999991
 20
732.71300199999985
 30
0.0
 11
56.268045999999991
 21
683.22339299999999
 31
0.0
  0
LINE
  5
242
  8
0
  6
DASHDOT
 62
     7
 10
-159.26126899999991
 20
489.20531899999997
 30
0.0
 11
-159.26126899999991
 21
512.70532100000003
 31
0.0
  0
LINE
  5
243
  8
0
  6
DASHDOT
 62
     7
 10
-89.261207999999996
 20
495.70506699999999
 30
0.0
 11
-89.261207999999996
 21
512.70533199999988
 31
0.0
  0
LINE
  5
244
  8
0
  6
DASHDOT
 62
     7
 10
-89.261268999999984
 20
489.20531899999997
 30
0.0
 11
-89.261268999999984
 21
500.10531399999991
 31
0.0
  0
LINE
  5
245
  8
0
  6
DASHDOT
 62
     7
 10
-159.26126899999991
 20
489.20531899999997
 30
0.0
 11
-159.26126899999991
 21
500.1053179999999
 31
0.0
  0
LINE
  5
246
  8
0
 62
     3
 10
-72.261268999999999
 20
626.95532100000003
 30
0.0
 11
-176.26125400000001
 21
626.95532100000003
 31
0.0
  0
LINE
  5
247
  8
0
 62
     3
 10
-72.261268999999999
 20
521.95534299999986
 30
0.0
 11
-85.761268999999999
 21
521.95534299999986
 31
0.0
  0
LINE
  5
248
  8
0
 62
     3
 10
-97.261268999999999
 20
521.95534299999986
 30
0.0
 11
-121.81197399999991
 21
521.95534299999986
 31
0.0
  0
LINE
  5
249
  8
0
 62
     3
 10
-162.76125400000001
 20
521.95534299999986
 30
0.0
 11
-176.26125400000001
 21
521.95534299999986
 31
0.0
  0
LINE
  5
24A
  8
0
 62
     3
 10
-151.26125400000001
 20
521.95534299999986
 30
0.0
 11
-162.76125400000001
 21
521.95534299999986
 31
0.0
  0
LINE
  5
24B
  8
0
 62
     3
 10
-85.761268999999999
 20
521.95534299999986
 30
0.0
 11
-97.261268999999999
 21
521.95534299999986
 31
0.0
  0
LINE
  5
24C
  8
0
  6
DASHDOT
 62
     7
 10
-124.26125399999999
 20
503.83414699999992
 30
0.0
 11
-124.26125399999999
 21
607.12940800000001
 31
0.0
  0
ARC
  5
24D
  8
0
 62
     3
 10
-176.26125400000001
 20
522.45534299999986
 30
0.0
 40
0.5
 50
180.00000299999991
 51
270.00000499999987
  0
ARC
  5
24E
  8
0
 62
     3
 10
-176.26125400000001
 20
626.45532100000003
 30
0.0
 40
0.5
 50
90.0
 51
180.00000299999991
  0
ARC
  5
24F
  8
0
 62
     3
 10
-72.261268999999999
 20
626.45532100000003
 30
0.0
 40
0.5
 50
0.000001
 51
90.0
  0
ARC
  5
250
  8
0
 62
     3
 10
-72.261268999999999
 20
522.45534299999986
 30
0.0
 40
0.5
 50
270.00000499999987
 51
0.000001
  0
LINE
  5
251
  8
0
  6
DASHDOT
 62
     7
 10
-124.26125399999999
 20
612.90864399999998
 30
0.0
 11
-124.26125399999999
 21
641.81889200000001
 31
0.0
  0
LINE
  5
252
  8
0
 62
     3
 10
-126.7107009999999
 20
521.95534299999986
 30
0.0
 11
-151.26125400000001
 21
521.95534299999986
 31
0.0
  0
LINE
  5
253
  8
0
 62
     7
 10
-151.76126899999991
 20
521.95532800000001
 30
0.0
 11
-161.76125400000001
 21
521.95532800000001
 31
0.0
  0
LINE
  5
254
  8
0
 62
     7
 10
-86.761284000000003
 20
521.95532800000001
 30
0.0
 11
-96.761284000000003
 21
521.95532800000001
 31
0.0
  0
LINE
  5
255
  8
0
 62
     7
 10
-71.761253999999994
 20
522.45532800000001
 30
0.0
 11
-71.761253999999994
 21
540.45531299999993
 31
0.0
  0
LINE
  5
256
  8
0
 62
     7
 10
-176.76125400000001
 20
522.45532800000001
 30
0.0
 11
-176.76125400000001
 21
540.45531299999993
 31
0.0
  0
LINE
  5
257
  8
0
 62
     7
 10
-72.261253999999994
 20
626.95532100000003
 30
0.0
 11
-176.26125400000001
 21
626.95532100000003
 31
0.0
  0
LINE
  5
258
  8
0
 62
     7
 10
-161.76125400000001
 20
521.95532800000001
 30
0.0
 11
-176.26125400000001
 21
521.95532800000001
 31
0.0
  0
LINE
  5
259
  8
0
 62
     7
 10
-96.761284000000003
 20
521.95532800000001
 30
0.0
 11
-151.76126899999991
 21
521.95532800000001
 31
0.0
  0
LINE
  5
25A
  8
0
 62
     7
 10
-72.261253999999994
 20
521.95532800000001
 30
0.0
 11
-86.761284000000003
 21
521.95532800000001
 31
0.0
  0
LINE
  5
25B
  8
0
 62
     7
 10
-113.51125399999999
 20
544.20531299999993
 30
0.0
 11
-113.51125399999999
 21
584.20529799999997
 31
0.0
  0
LINE
  5
25C
  8
0
 62
     7
 10
-135.01125400000001
 20
544.20531299999993
 30
0.0
 11
-135.01125400000001
 21
584.20529799999997
 31
0.0
  0
LINE
  5
25D
  8
0
 62
     7
 10
-71.761253999999994
 20
614.95528999999988
 30
0.0
 11
-176.76125400000001
 21
614.95528999999988
 31
0.0
  0
LINE
  5
25E
  8
0
 62
     7
 10
-71.761253999999994
 20
624.95528999999999
 30
0.0
 11
-176.76125400000001
 21
624.95528999999999
 31
0.0
  0
LINE
  5
25F
  8
0
 62
     7
 10
-113.51125399999999
 20
583.940832
 30
0.0
 11
-135.01125400000001
 21
583.940832
 31
0.0
  0
LINE
  5
260
  8
0
 62
     7
 10
-113.51125399999999
 20
584.20529799999997
 30
0.0
 11
-135.01125400000001
 21
584.20529799999997
 31
0.0
  0
LINE
  5
261
  8
0
 62
     7
 10
-113.51125399999999
 20
544.20531299999993
 30
0.0
 11
-135.01125400000001
 21
544.20531299999993
 31
0.0
  0
LINE
  5
262
  8
0
 62
     7
 10
-113.51125399999999
 20
544.46980899999994
 30
0.0
 11
-135.01125400000001
 21
544.46980899999994
 31
0.0
  0
LINE
  5
263
  8
0
  6
DASHDOT
 62
     7
 10
-124.26125399999999
 20
414.57101999999998
 30
0.0
 11
-124.26125399999999
 21
605.15772800000002
 31
0.0
  0
LINE
  5
264
  8
0
  6
DASHDOT
 62
     7
 10
-124.26125399999999
 20
604.38499300000001
 30
0.0
 11
-124.26125399999999
 21
682.65844600000003
 31
0.0
  0
LINE
  5
265
  8
0
 62
     7
 10
-71.761268999999984
 20
541.45531299999993
 30
0.0
 11
-71.761268999999984
 21
553.45530499999995
 31
0.0
  0
LINE
  5
266
  8
0
 62
     7
 10
-71.761268999999984
 20
522.45142199999987
 30
0.0
 11
-71.761268999999984
 21
626.45532100000003
 31
0.0
  0
LINE
  5
267
  8
0
 62
     7
 10
-71.761268999999984
 20
554.45530499999995
 30
0.0
 11
-71.761268999999984
 21
573.95531299999993
 31
0.0
  0
LINE
  5
268
  8
0
 62
     7
 10
-71.761268999999984
 20
574.95531299999993
 30
0.0
 11
-71.761268999999984
 21
586.95531299999993
 31
0.0
  0
LINE
  5
269
  8
0
 62
     7
 10
-176.76125400000001
 20
541.45531299999993
 30
0.0
 11
-176.76125400000001
 21
553.45531299999993
 31
0.0
  0
LINE
  5
26A
  8
0
 62
     7
 10
-176.76125400000001
 20
554.45531299999993
 30
0.0
 11
-176.76125400000001
 21
573.95531299999993
 31
0.0
  0
LINE
  5
26B
  8
0
 62
     7
 10
-176.76125400000001
 20
574.95531299999993
 30
0.0
 11
-176.76125400000001
 21
586.95531299999993
 31
0.0
  0
LINE
  5
26C
  8
0
 62
     7
 10
-176.76125400000001
 20
522.45532800000001
 30
0.0
 11
-176.76125400000001
 21
626.45532100000003
 31
0.0
  0
ARC
  5
26D
  8
0
 62
     7
 10
-176.26125400000001
 20
522.45532800000001
 30
0.0
 40
0.5
 50
180.00000299999991
 51
270.00000499999987
  0
ARC
  5
26E
  8
0
 62
     7
 10
-72.261253999999994
 20
522.45532800000001
 30
0.0
 40
0.5
 50
270.00000499999987
 51
359.55237699999992
  0
ARC
  5
26F
  8
0
 62
     7
 10
-72.261253999999994
 20
626.45532100000003
 30
0.0
 40
0.5
 50
0.000001
 51
90.0
  0
ARC
  5
270
  8
0
 62
     7
 10
-176.26125400000001
 20
626.45532100000003
 30
0.0
 40
0.5
 50
90.0
 51
180.00000299999991
  0
LINE
  5
271
  8
0
 62
     7
 10
-146.76125400000001
 20
585.45531299999993
 30
0.0
 11
-148.26125400000001
 21
585.45531299999993
 31
0.0
  0
LINE
  5
272
  8
0
 62
     7
 10
-146.76125400000001
 20
576.45531299999993
 30
0.0
 11
-148.26125400000001
 21
576.45531299999993
 31
0.0
  0
CIRCLE
  5
273
  8
0
 62
     7
 10
-147.51125400000001
 20
547.45531299999993
 30
0.0
 40
4.5
  0
CIRCLE
  5
274
  8
0
 62
     7
 10
-147.51125400000001
 20
547.45531299999993
 30
0.0
 40
3.0
  0
LINE
  5
275
  8
0
 62
     7
 10
-148.26125400000001
 20
576.45531299999993
 30
0.0
 11
-148.26125400000001
 21
585.45531299999993
 31
0.0
  0
LINE
  5
276
  8
0
 62
     7
 10
-146.76125400000001
 20
576.45531299999993
 30
0.0
 11
-146.76125400000001
 21
585.45531299999993
 31
0.0
  0
LINE
  5
277
  8
0
 62
     7
 10
-98.711266000000009
 20
551.30531099999996
 30
0.0
 11
-99.161263000000005
 21
551.30531099999996
 31
0.0
  0
LINE
  5
278
  8
0
 62
     7
 10
-99.661263000000005
 20
543.60531400000002
 30
0.0
 11
-100.46126599999999
 21
543.60531400000002
 31
0.0
  0
LINE
  5
279
  8
0
 62
     7
 10
-106.86126
 20
546.20531299999993
 30
0.0
 11
-106.86126
 21
546.70531299999993
 31
0.0
  0
LINE
  5
27A
  8
0
 62
     7
 10
-101.66126300000001
 20
546.20531299999993
 30
0.0
 11
-101.66126300000001
 21
546.70531299999993
 31
0.0
  0
ARC
  5
27B
  8
0
 62
     7
 10
-104.2612689999999
 20
546.70531299999993
 30
0.0
 40
2.6000000000000001
 50
0.000001
 51
180.00000299999991
  0
ARC
  5
27C
  8
0
 62
     7
 10
-104.2612689999999
 20
546.20531299999993
 30
0.0
 40
2.6000000000000001
 50
180.00000299999991
 51
0.000001
  0
ARC
  5
27D
  8
0
 62
     7
 10
-104.2612689999999
 20
546.70531299999993
 30
0.0
 40
1.8
 50
0.000001
 51
180.00000299999991
  0
ARC
  5
27E
  8
0
 62
     7
 10
-104.2612689999999
 20
546.20531299999993
 30
0.0
 40
1.8
 50
180.00000299999991
 51
0.000001
  0
LINE
  5
27F
  8
0
 62
     7
 10
-106.061257
 20
546.20531299999993
 30
0.0
 11
-106.061257
 21
546.70531299999993
 31
0.0
  0
LINE
  5
280
  8
0
 62
     7
 10
-102.46126599999999
 20
546.20531299999993
 30
0.0
 11
-102.46126599999999
 21
546.70531299999993
 31
0.0
  0
LINE
  5
281
  8
0
 62
     7
 10
-101.41126300000001
 20
548.10531400000002
 30
0.0
 11
-101.41126300000001
 21
548.90530999999987
 31
0.0
  0
LINE
  5
282
  8
0
 62
     7
 10
-100.46126599999999
 20
548.10531400000002
 30
0.0
 11
-101.41126300000001
 21
548.10531400000002
 31
0.0
  0
LINE
  5
283
  8
0
 62
     7
 10
-98.711266000000009
 20
548.10531400000002
 30
0.0
 11
-98.711266000000009
 21
548.90530999999987
 31
0.0
  0
LINE
  5
284
  8
0
 62
     7
 10
-100.46126599999999
 20
548.90530999999987
 30
0.0
 11
-101.41126300000001
 21
548.90530999999987
 31
0.0
  0
LINE
  5
285
  8
0
 62
     7
 10
-100.46126599999999
 20
543.60531400000002
 30
0.0
 11
-100.46126599999999
 21
548.10531400000002
 31
0.0
  0
LINE
  5
286
  8
0
 62
     7
 10
-99.661263000000005
 20
543.60531400000002
 30
0.0
 11
-99.661263000000005
 21
548.10531400000002
 31
0.0
  0
LINE
  5
287
  8
0
 62
     7
 10
-98.711266000000009
 20
548.10531400000002
 30
0.0
 11
-99.661263000000005
 21
548.10531400000002
 31
0.0
  0
LINE
  5
288
  8
0
 62
     7
 10
-98.711266000000009
 20
548.90530999999987
 30
0.0
 11
-99.661263000000005
 21
548.90530999999987
 31
0.0
  0
LINE
  5
289
  8
0
 62
     7
 10
-100.46126599999999
 20
548.90530999999987
 30
0.0
 11
-100.46126599999999
 21
550.0053079999999
 31
0.0
  0
LINE
  5
28A
  8
0
 62
     7
 10
-99.661263000000005
 20
548.90530999999987
 30
0.0
 11
-99.661263000000005
 21
550.0053079999999
 31
0.0
  0
ARC
  5
28B
  8
0
 62
     7
 10
-99.161263000000005
 20
550.0053079999999
 30
0.0
 40
1.3
 50
90.0
 51
180.00000299999991
  0
ARC
  5
28C
  8
0
 62
     7
 10
-99.161263000000005
 20
550.0053079999999
 30
0.0
 40
0.5
 50
90.0
 51
180.00000299999991
  0
LINE
  5
28D
  8
0
 62
     7
 10
-98.711266000000009
 20
550.50530800000001
 30
0.0
 11
-98.711266000000009
 21
551.30531099999996
 31
0.0
  0
LINE
  5
28E
  8
0
 62
     7
 10
-98.711266000000009
 20
550.50530800000001
 30
0.0
 11
-99.161263000000005
 21
550.50530800000001
 31
0.0
  0
LINE
  5
28F
  8
0
 62
     7
 10
-95.511268999999984
 20
551.30531099999996
 30
0.0
 11
-95.961266000000009
 21
551.30531099999996
 31
0.0
  0
LINE
  5
290
  8
0
 62
     7
 10
-96.461266000000023
 20
543.60531400000002
 30
0.0
 11
-97.261268999999999
 21
543.60531400000002
 31
0.0
  0
LINE
  5
291
  8
0
 62
     7
 10
-98.211266000000009
 20
548.10531400000002
 30
0.0
 11
-98.211266000000009
 21
548.90530999999987
 31
0.0
  0
LINE
  5
292
  8
0
 62
     7
 10
-97.261268999999999
 20
548.10531400000002
 30
0.0
 11
-98.211266000000009
 21
548.10531400000002
 31
0.0
  0
LINE
  5
293
  8
0
 62
     7
 10
-95.511268999999984
 20
548.10531400000002
 30
0.0
 11
-95.511268999999984
 21
548.90530999999987
 31
0.0
  0
LINE
  5
294
  8
0
 62
     7
 10
-97.261268999999999
 20
548.90530999999987
 30
0.0
 11
-98.211266000000009
 21
548.90530999999987
 31
0.0
  0
LINE
  5
295
  8
0
 62
     7
 10
-97.261268999999999
 20
543.60531400000002
 30
0.0
 11
-97.261268999999999
 21
548.10531400000002
 31
0.0
  0
LINE
  5
296
  8
0
 62
     7
 10
-96.461266000000023
 20
543.60531400000002
 30
0.0
 11
-96.461266000000023
 21
548.10531400000002
 31
0.0
  0
LINE
  5
297
  8
0
 62
     7
 10
-95.511268999999984
 20
548.10531400000002
 30
0.0
 11
-96.461266000000023
 21
548.10531400000002
 31
0.0
  0
LINE
  5
298
  8
0
 62
     7
 10
-95.511268999999984
 20
548.90530999999987
 30
0.0
 11
-96.461266000000023
 21
548.90530999999987
 31
0.0
  0
LINE
  5
299
  8
0
 62
     7
 10
-97.261268999999999
 20
548.90530999999987
 30
0.0
 11
-97.261268999999999
 21
550.0053079999999
 31
0.0
  0
LINE
  5
29A
  8
0
 62
     7
 10
-96.461266000000023
 20
548.90530999999987
 30
0.0
 11
-96.461266000000023
 21
550.0053079999999
 31
0.0
  0
ARC
  5
29B
  8
0
 62
     7
 10
-95.961266000000009
 20
550.0053079999999
 30
0.0
 40
1.3
 50
90.0
 51
180.00000299999991
  0
ARC
  5
29C
  8
0
 62
     7
 10
-95.961266000000009
 20
550.0053079999999
 30
0.0
 40
0.5
 50
90.0
 51
180.00000299999991
  0
LINE
  5
29D
  8
0
 62
     7
 10
-95.511268999999984
 20
550.50530800000001
 30
0.0
 11
-95.511268999999984
 21
551.30531099999996
 31
0.0
  0
LINE
  5
29E
  8
0
 62
     7
 10
-95.511268999999984
 20
550.50530800000001
 30
0.0
 11
-95.961266000000009
 21
550.50530800000001
 31
0.0
  0
LINE
  5
29F
  8
0
 62
     7
 10
-100.0612569999999
 20
578.10531400000002
 30
0.0
 11
-100.8612599999999
 21
578.10531400000002
 31
0.0
  0
ARC
  5
2A0
  8
0
 62
     7
 10
-104.2612689999999
 20
581.20531299999993
 30
0.0
 40
2.6000000000000001
 50
0.000001
 51
180.00000299999991
  0
ARC
  5
2A1
  8
0
 62
     7
 10
-104.2612689999999
 20
581.20531299999993
 30
0.0
 40
1.8
 50
0.000001
 51
180.00000299999991
  0
ARC
  5
2A2
  8
0
 62
     7
 10
-104.2612689999999
 20
580.70531299999993
 30
0.0
 40
2.6000000000000001
 50
180.00000299999991
 51
0.000001
  0
ARC
  5
2A3
  8
0
 62
     7
 10
-104.2612689999999
 20
580.70531299999993
 30
0.0
 40
1.8
 50
180.00000299999991
 51
0.000001
  0
LINE
  5
2A4
  8
0
 62
     7
 10
-102.46126599999999
 20
580.70531299999993
 30
0.0
 11
-102.46126599999999
 21
581.20531299999993
 31
0.0
  0
LINE
  5
2A5
  8
0
 62
     7
 10
-101.66126300000001
 20
580.70531299999993
 30
0.0
 11
-101.66126300000001
 21
581.20531299999993
 31
0.0
  0
LINE
  5
2A6
  8
0
 62
     7
 10
-106.061257
 20
580.70531299999993
 30
0.0
 11
-106.061257
 21
581.20531299999993
 31
0.0
  0
LINE
  5
2A7
  8
0
 62
     7
 10
-106.86126
 20
580.70531299999993
 30
0.0
 11
-106.86126
 21
581.20531299999993
 31
0.0
  0
LINE
  5
2A8
  8
0
 62
     7
 10
-100.8612599999999
 20
578.10531400000002
 30
0.0
 11
-100.8612599999999
 21
583.80531099999996
 31
0.0
  0
LINE
  5
2A9
  8
0
 62
     7
 10
-100.0612569999999
 20
578.10531400000002
 30
0.0
 11
-100.0612569999999
 21
581.60531400000002
 31
0.0
  0
LINE
  5
2AA
  8
0
 62
     7
 10
-97.261268999999999
 20
578.10531400000002
 30
0.0
 11
-97.261268999999999
 21
581.60531400000002
 31
0.0
  0
LINE
  5
2AB
  8
0
 62
     7
 10
-96.461266000000023
 20
578.10531400000002
 30
0.0
 11
-96.461266000000023
 21
581.80531100000007
 31
0.0
  0
LINE
  5
2AC
  8
0
 62
     7
 10
-100.0612569999999
 20
583.80531099999996
 30
0.0
 11
-100.8612599999999
 21
583.80531099999996
 31
0.0
  0
ARC
  5
2AD
  8
0
 62
     7
 10
-98.661263000000005
 20
581.60531400000002
 30
0.0
 40
1.399999999999999
 50
0.000001
 51
180.00000299999991
  0
LINE
  5
2AE
  8
0
 62
     7
 10
-100.0612569999999
 20
583.0053079999999
 30
0.0
 11
-100.0612569999999
 21
583.80531099999996
 31
0.0
  0
ARC
  5
2AF
  8
0
 62
     7
 10
-98.461266000000009
 20
581.80531100000007
 30
0.0
 40
2.0
 50
0.000001
 51
143.13010199999999
  0
LINE
  5
2B0
  8
0
 62
     7
 10
-96.461266000000023
 20
578.10531400000002
 30
0.0
 11
-97.261268999999999
 21
578.10531400000002
 31
0.0
  0
LINE
  5
2B1
  8
0
 62
     7
 10
-113.51125399999999
 20
558.33063300000003
 30
0.0
 11
-135.01125400000001
 21
558.33063300000003
 31
0.0
  0
LINE
  5
2B2
  8
0
 62
     7
 10
-113.51125399999999
 20
552.21417099999985
 30
0.0
 11
-135.01125400000001
 21
552.21417099999985
 31
0.0
  0
LINE
  5
2B3
  8
0
 62
     7
 10
-113.51125399999999
 20
546.26634799999988
 30
0.0
 11
-135.01125400000001
 21
546.26634799999988
 31
0.0
  0
LINE
  5
2B4
  8
0
 62
     7
 10
-113.51125399999999
 20
545.46359800000005
 30
0.0
 11
-135.01125400000001
 21
545.46359800000005
 31
0.0
  0
LINE
  5
2B5
  8
0
 62
     3
 10
-134.26118500000001
 20
481.70530899999989
 30
0.0
 11
-134.26118500000001
 21
489.20531899999997
 31
0.0
  0
LINE
  5
2B6
  8
0
 62
     3
 10
-133.01118500000001
 20
481.70530899999989
 30
0.0
 11
-134.26118500000001
 21
481.70530899999989
 31
0.0
  0
LINE
  5
2B7
  8
0
 62
     3
 10
-133.01118500000001
 20
461.70531899999997
 30
0.0
 11
-133.01118500000001
 21
481.70530300000001
 31
0.0
  0
LINE
  5
2B8
  8
0
 62
     3
 10
-115.511185
 20
461.70531899999997
 30
0.0
 11
-133.01118500000001
 21
461.70531899999997
 31
0.0
  0
LINE
  5
2B9
  8
0
 62
     3
 10
-115.511185
 20
461.70531899999997
 30
0.0
 11
-115.511185
 21
481.70530300000001
 31
0.0
  0
LINE
  5
2BA
  8
0
 62
     3
 10
-114.261185
 20
481.70530899999989
 30
0.0
 11
-115.511185
 21
481.70530899999989
 31
0.0
  0
LINE
  5
2BB
  8
0
 62
     3
 10
-114.261185
 20
481.70530899999989
 30
0.0
 11
-114.261185
 21
489.20531899999997
 31
0.0
  0
CIRCLE
  5
2BC
  8
0
 62
     3
 10
-124.26125399999999
 20
471.70534099999998
 30
0.0
 40
4.1000569999999987
  0
LINE
  5
2BD
  8
0
  6
DASHDOT
 62
     7
 10
-118.16119399999999
 20
471.70534099999998
 30
0.0
 11
-130.361313
 21
471.70534099999998
 31
0.0
  0
LINE
  5
2BE
  8
0
 62
     7
 10
-169.26118500000001
 20
481.70530899999989
 30
0.0
 11
-169.26118500000001
 21
489.20531899999997
 31
0.0
  0
LINE
  5
2BF
  8
0
 62
     7
 10
-149.26118500000001
 20
481.70530899999989
 30
0.0
 11
-149.26118500000001
 21
489.20531899999997
 31
0.0
  0
CIRCLE
  5
2C0
  8
0
 62
     7
 10
-159.26125400000001
 20
471.70534099999998
 30
0.0
 40
4.1000569999999987
  0
LINE
  5
2C1
  8
0
 62
     7
 10
-168.01118500000001
 20
461.70531899999997
 30
0.0
 11
-168.01118500000001
 21
481.70530300000001
 31
0.0
  0
LINE
  5
2C2
  8
0
 62
     7
 10
-150.51118500000001
 20
461.70531899999997
 30
0.0
 11
-150.51118500000001
 21
481.70530300000001
 31
0.0
  0
LINE
  5
2C3
  8
0
 62
     7
 10
-150.51118500000001
 20
461.70531899999997
 30
0.0
 11
-168.01118500000001
 21
461.70531899999997
 31
0.0
  0
LINE
  5
2C4
  8
0
 62
     7
 10
-168.01118500000001
 20
481.70530899999989
 30
0.0
 11
-169.26118500000001
 21
481.70530899999989
 31
0.0
  0
LINE
  5
2C5
  8
0
 62
     7
 10
-149.26118500000001
 20
481.70530899999989
 30
0.0
 11
-150.51118500000001
 21
481.70530899999989
 31
0.0
  0
LINE
  5
2C6
  8
0
  6
DASHDOT
 62
     7
 10
-153.16119399999991
 20
471.70534099999998
 30
0.0
 11
-165.361313
 21
471.70534099999998
 31
0.0
  0
LINE
  5
2C7
  8
0
 62
     7
 10
-99.261314999999996
 20
481.70530899999989
 30
0.0
 11
-99.261314999999996
 21
489.20531899999997
 31
0.0
  0
LINE
  5
2C8
  8
0
 62
     7
 10
-79.261314999999996
 20
481.70530899999989
 30
0.0
 11
-79.261314999999996
 21
489.20531899999997
 31
0.0
  0
LINE
  5
2C9
  8
0
 62
     7
 10
-80.511314999999996
 20
461.70531899999997
 30
0.0
 11
-80.511314999999996
 21
481.70530300000001
 31
0.0
  0
LINE
  5
2CA
  8
0
 62
     7
 10
-98.011314999999996
 20
461.70531899999997
 30
0.0
 11
-98.011314999999996
 21
481.70530300000001
 31
0.0
  0
LINE
  5
2CB
  8
0
 62
     7
 10
-80.511314999999996
 20
461.70531899999997
 30
0.0
 11
-98.011314999999996
 21
461.70531899999997
 31
0.0
  0
LINE
  5
2CC
  8
0
  6
DASHDOT
 62
     7
 10
-83.161202000000003
 20
471.70534099999998
 30
0.0
 11
-95.361305000000002
 21
471.70534099999998
 31
0.0
  0
CIRCLE
  5
2CD
  8
0
 62
     7
 10
-89.261254000000008
 20
471.70534099999998
 30
0.0
 40
4.1000569999999987
  0
LINE
  5
2CE
  8
0
 62
     7
 10
-98.011314999999996
 20
481.70530899999989
 30
0.0
 11
-99.261314999999996
 21
481.70530899999989
 31
0.0
  0
LINE
  5
2CF
  8
0
 62
     7
 10
-79.261314999999996
 20
481.70530899999989
 30
0.0
 11
-80.511314999999996
 21
481.70530899999989
 31
0.0
  0
LINE
  5
2D0
  8
0
 62
     3
 10
-134.26118500000001
 20
664.20532100000003
 30
0.0
 11
-134.26118500000001
 21
671.70533599999999
 31
0.0
  0
LINE
  5
2D1
  8
0
 62
     3
 10
-114.261185
 20
664.20532100000003
 30
0.0
 11
-114.261185
 21
671.70533599999999
 31
0.0
  0
LINE
  5
2D2
  8
0
 62
     3
 10
-115.511185
 20
671.70533599999999
 30
0.0
 11
-115.511185
 21
691.70532100000003
 31
0.0
  0
LINE
  5
2D3
  8
0
 62
     3
 10
-133.01118500000001
 20
671.70533599999999
 30
0.0
 11
-133.01118500000001
 21
691.70532100000003
 31
0.0
  0
LINE
  5
2D4
  8
0
 62
     3
 10
-115.511185
 20
691.70532100000003
 30
0.0
 11
-133.01118500000001
 21
691.70532100000003
 31
0.0
  0
CIRCLE
  5
2D5
  8
0
 62
     3
 10
-124.26125399999999
 20
681.70530499999995
 30
0.0
 40
4.1000569999999987
  0
LINE
  5
2D6
  8
0
 62
     3
 10
-133.01118500000001
 20
671.70533599999999
 30
0.0
 11
-134.26118500000001
 21
671.70533599999999
 31
0.0
  0
LINE
  5
2D7
  8
0
 62
     3
 10
-114.261185
 20
671.70533599999999
 30
0.0
 11
-115.511185
 21
671.70533599999999
 31
0.0
  0
LINE
  5
2D8
  8
0
 62
     3
 10
-99.261314999999996
 20
664.20532100000003
 30
0.0
 11
-99.261314999999996
 21
671.70533599999999
 31
0.0
  0
LINE
  5
2D9
  8
0
 62
     3
 10
-79.261314999999996
 20
664.20532100000003
 30
0.0
 11
-79.261314999999996
 21
671.70533599999999
 31
0.0
  0
LINE
  5
2DA
  8
0
 62
     3
 10
-80.511314999999996
 20
671.70533599999999
 30
0.0
 11
-80.511314999999996
 21
691.70532100000003
 31
0.0
  0
LINE
  5
2DB
  8
0
 62
     3
 10
-98.011314999999996
 20
671.70533599999999
 30
0.0
 11
-98.011314999999996
 21
691.70532100000003
 31
0.0
  0
CIRCLE
  5
2DC
  8
0
 62
     3
 10
-89.261254000000008
 20
681.70530499999995
 30
0.0
 40
4.1000569999999987
  0
LINE
  5
2DD
  8
0
 62
     3
 10
-80.511314999999996
 20
691.70532100000003
 30
0.0
 11
-98.011314999999996
 21
691.70532100000003
 31
0.0
  0
LINE
  5
2DE
  8
0
 62
     3
 10
-98.011314999999996
 20
671.70533599999999
 30
0.0
 11
-99.261314999999996
 21
671.70533599999999
 31
0.0
  0
LINE
  5
2DF
  8
0
 62
     3
 10
-79.261314999999996
 20
671.70533599999999
 30
0.0
 11
-80.511314999999996
 21
671.70533599999999
 31
0.0
  0
LINE
  5
2E0
  8
0
 62
     3
 10
-149.26118500000001
 20
664.20532100000003
 30
0.0
 11
-149.26118500000001
 21
671.70533599999999
 31
0.0
  0
LINE
  5
2E1
  8
0
 62
     3
 10
-169.26118500000001
 20
664.20532100000003
 30
0.0
 11
-169.26118500000001
 21
671.70533599999999
 31
0.0
  0
LINE
  5
2E2
  8
0
 62
     3
 10
-150.51118500000001
 20
691.70532100000003
 30
0.0
 11
-168.01118500000001
 21
691.70532100000003
 31
0.0
  0
CIRCLE
  5
2E3
  8
0
 62
     3
 10
-159.26125400000001
 20
681.70530499999995
 30
0.0
 40
4.1000569999999987
  0
LINE
  5
2E4
  8
0
 62
     3
 10
-168.01118500000001
 20
671.70533599999999
 30
0.0
 11
-168.01118500000001
 21
691.70532100000003
 31
0.0
  0
LINE
  5
2E5
  8
0
 62
     3
 10
-150.51118500000001
 20
671.70533599999999
 30
0.0
 11
-150.51118500000001
 21
691.70532100000003
 31
0.0
  0
LINE
  5
2E6
  8
0
 62
     3
 10
-149.26118500000001
 20
671.70533599999999
 30
0.0
 11
-150.51118500000001
 21
671.70533599999999
 31
0.0
  0
LINE
  5
2E7
  8
0
 62
     3
 10
-168.01118500000001
 20
671.70533599999999
 30
0.0
 11
-169.26118500000001
 21
671.70533599999999
 31
0.0
  0
LINE
  5
2E8
  8
0
  6
DASHDOT
 62
     7
 10
-159.26125400000001
 20
675.60523799999987
 30
0.0
 11
-159.26125400000001
 21
687.80535699999996
 31
0.0
  0
LINE
  5
2E9
  8
0
  6
DASHDOT
 62
     7
 10
-153.16119399999991
 20
681.70530499999995
 30
0.0
 11
-165.361313
 21
681.70530499999995
 31
0.0
  0
LINE
  5
2EA
  8
0
  6
DASHDOT
 62
     7
 10
-124.26125399999999
 20
675.60523799999987
 30
0.0
 11
-124.26125399999999
 21
687.80535699999996
 31
0.0
  0
LINE
  5
2EB
  8
0
  6
DASHDOT
 62
     7
 10
-118.16119399999999
 20
681.70530499999995
 30
0.0
 11
-130.361313
 21
681.70530499999995
 31
0.0
  0
LINE
  5
2EC
  8
0
  6
DASHDOT
 62
     7
 10
-89.261254000000008
 20
675.60523799999987
 30
0.0
 11
-89.261254000000008
 21
687.80535699999996
 31
0.0
  0
LINE
  5
2ED
  8
0
  6
DASHDOT
 62
     7
 10
-83.161202000000003
 20
681.70530499999995
 30
0.0
 11
-95.361305000000002
 21
681.70530499999995
 31
0.0
  0
LINE
  5
2EE
  8
0
  6
DASHDOT
 62
     7
 10
-85.161202000000003
 20
471.70534099999998
 30
0.0
 11
-85.161202000000003
 21
475.77787699999988
 31
0.0
  0
LINE
  5
2EF
  8
0
  6
DASHDOT
 62
     7
 10
-93.361305000000016
 20
471.70534099999998
 30
0.0
 11
-93.361305000000016
 21
475.27093300000001
 31
0.0
  0
LINE
  5
2F0
  8
0
 62
     3
 10
-73.011253999999994
 20
664.20532100000003
 30
0.0
 11
-175.511235
 21
664.20532100000003
 31
0.0
  0
LINE
  5
2F1
  8
0
 62
     3
 10
-71.761253999999994
 20
654.95532100000003
 30
0.0
 11
-71.761253999999994
 21
662.95530499999995
 31
0.0
  0
LINE
  5
2F2
  8
0
 62
     3
 10
-176.7612419999999
 20
654.95532100000003
 30
0.0
 11
-176.7612419999999
 21
662.95533599999999
 31
0.0
  0
LINE
  5
2F3
  8
0
 62
     3
 10
-173.11123699999999
 20
654.95532100000003
 30
0.0
 11
-173.11123699999999
 21
664.20532100000003
 31
0.0
  0
LINE
  5
2F4
  8
0
 62
     3
 10
-169.51123799999991
 20
654.95532100000003
 30
0.0
 11
-169.51123799999991
 21
664.20532100000003
 31
0.0
  0
LINE
  5
2F5
  8
0
 62
     3
 10
-165.91123999999991
 20
654.95532100000003
 30
0.0
 11
-165.91123999999991
 21
664.20532100000003
 31
0.0
  0
LINE
  5
2F6
  8
0
 62
     3
 10
-162.311241
 20
654.95532100000003
 30
0.0
 11
-162.311241
 21
664.20532100000003
 31
0.0
  0
LINE
  5
2F7
  8
0
 62
     3
 10
-158.711251
 20
654.95532100000003
 30
0.0
 11
-158.711251
 21
664.20532100000003
 31
0.0
  0
LINE
  5
2F8
  8
0
 62
     3
 10
-155.11124399999991
 20
654.95532100000003
 30
0.0
 11
-155.11124399999991
 21
664.20532100000003
 31
0.0
  0
LINE
  5
2F9
  8
0
 62
     3
 10
-151.51125400000001
 20
654.95532100000003
 30
0.0
 11
-151.51125400000001
 21
664.20532100000003
 31
0.0
  0
LINE
  5
2FA
  8
0
 62
     3
 10
-147.911247
 20
654.95532100000003
 30
0.0
 11
-147.911247
 21
664.20532100000003
 31
0.0
  0
LINE
  5
2FB
  8
0
 62
     3
 10
-144.31125700000001
 20
654.95532100000003
 30
0.0
 11
-144.31125700000001
 21
664.20532100000003
 31
0.0
  0
LINE
  5
2FC
  8
0
 62
     3
 10
-140.711251
 20
654.95532100000003
 30
0.0
 11
-140.711251
 21
664.20532100000003
 31
0.0
  0
LINE
  5
2FD
  8
0
 62
     3
 10
-137.111244
 20
654.95532100000003
 30
0.0
 11
-137.111244
 21
664.20532100000003
 31
0.0
  0
LINE
  5
2FE
  8
0
 62
     3
 10
-133.51125400000001
 20
654.95532100000003
 30
0.0
 11
-133.51125400000001
 21
664.20532100000003
 31
0.0
  0
LINE
  5
2FF
  8
0
 62
     3
 10
-129.911247
 20
654.95532100000003
 30
0.0
 11
-129.911247
 21
664.20532100000003
 31
0.0
  0
LINE
  5
300
  8
0
 62
     3
 10
-126.311257
 20
654.95532100000003
 30
0.0
 11
-126.311257
 21
664.20532100000003
 31
0.0
  0
LINE
  5
301
  8
0
 62
     3
 10
-122.7112509999999
 20
654.95532100000003
 30
0.0
 11
-122.7112509999999
 21
664.20532100000003
 31
0.0
  0
LINE
  5
302
  8
0
 62
     3
 10
-119.1112439999999
 20
654.95532100000003
 30
0.0
 11
-119.1112439999999
 21
664.20532100000003
 31
0.0
  0
LINE
  5
303
  8
0
 62
     3
 10
-115.51125399999999
 20
654.95532100000003
 30
0.0
 11
-115.51125399999999
 21
664.20532100000003
 31
0.0
  0
LINE
  5
304
  8
0
 62
     3
 10
-111.911247
 20
654.95532100000003
 30
0.0
 11
-111.911247
 21
664.20532100000003
 31
0.0
  0
LINE
  5
305
  8
0
 62
     3
 10
-108.311257
 20
654.95532100000003
 30
0.0
 11
-108.311257
 21
664.20532100000003
 31
0.0
  0
LINE
  5
306
  8
0
 62
     3
 10
-104.711251
 20
654.95532100000003
 30
0.0
 11
-104.711251
 21
664.20532100000003
 31
0.0
  0
LINE
  5
307
  8
0
 62
     3
 10
-101.111244
 20
654.95532100000003
 30
0.0
 11
-101.111244
 21
664.20532100000003
 31
0.0
  0
LINE
  5
308
  8
0
 62
     3
 10
-97.511254000000008
 20
654.95532100000003
 30
0.0
 11
-97.511254000000008
 21
664.20532100000003
 31
0.0
  0
LINE
  5
309
  8
0
 62
     3
 10
-93.911247000000003
 20
654.95532100000003
 30
0.0
 11
-93.911247000000003
 21
664.20532100000003
 31
0.0
  0
LINE
  5
30A
  8
0
 62
     3
 10
-90.311256999999998
 20
654.95532100000003
 30
0.0
 11
-90.311256999999998
 21
664.20532100000003
 31
0.0
  0
LINE
  5
30B
  8
0
 62
     3
 10
-86.711251000000004
 20
654.95532100000003
 30
0.0
 11
-86.711251000000004
 21
664.20532100000003
 31
0.0
  0
LINE
  5
30C
  8
0
 62
     3
 10
-83.111243999999999
 20
654.95532100000003
 30
0.0
 11
-83.111243999999999
 21
664.20532100000003
 31
0.0
  0
LINE
  5
30D
  8
0
 62
     3
 10
-79.511254000000008
 20
654.95532100000003
 30
0.0
 11
-79.511254000000008
 21
664.20532100000003
 31
0.0
  0
LINE
  5
30E
  8
0
 62
     3
 10
-75.911247000000003
 20
654.95532100000003
 30
0.0
 11
-75.911247000000003
 21
664.20532100000003
 31
0.0
  0
ARC
  5
30F
  8
0
 62
     3
 10
-73.011268999999984
 20
662.95530499999995
 30
0.0
 40
1.2499990000000001
 50
0.000028
 51
90.000461999999985
  0
ARC
  5
310
  8
0
 62
     3
 10
-175.51126899999991
 20
662.95533599999999
 30
0.0
 40
1.2499670000000001
 50
89.998233999999997
 51
180.00118399999991
  0
LINE
  5
311
  8
0
 62
     3
 10
-73.011253999999994
 20
489.20531899999997
 30
0.0
 11
-175.511235
 21
489.20531899999997
 31
0.0
  0
LINE
  5
312
  8
0
 62
     3
 10
-71.761253999999994
 20
490.45532999999989
 30
0.0
 11
-71.761253999999994
 21
493.95533
 31
0.0
  0
LINE
  5
313
  8
0
 62
     3
 10
-176.7612419999999
 20
490.45529800000003
 30
0.0
 11
-176.7612419999999
 21
493.95533
 31
0.0
  0
LINE
  5
314
  8
0
 62
     3
 10
-173.11123699999999
 20
489.20531899999997
 30
0.0
 11
-173.11123699999999
 21
493.95533
 31
0.0
  0
LINE
  5
315
  8
0
 62
     3
 10
-169.51123799999991
 20
489.20531899999997
 30
0.0
 11
-169.51123799999991
 21
493.95533
 31
0.0
  0
LINE
  5
316
  8
0
 62
     3
 10
-165.91123999999991
 20
489.20531899999997
 30
0.0
 11
-165.91123999999991
 21
493.95533
 31
0.0
  0
LINE
  5
317
  8
0
 62
     3
 10
-162.311241
 20
489.20531899999997
 30
0.0
 11
-162.311241
 21
493.95533
 31
0.0
  0
LINE
  5
318
  8
0
 62
     3
 10
-158.711251
 20
489.20531899999997
 30
0.0
 11
-158.711251
 21
493.95533
 31
0.0
  0
LINE
  5
319
  8
0
 62
     3
 10
-155.11124399999991
 20
489.20531899999997
 30
0.0
 11
-155.11124399999991
 21
493.95533
 31
0.0
  0
LINE
  5
31A
  8
0
 62
     3
 10
-151.51125400000001
 20
489.20531899999997
 30
0.0
 11
-151.51125400000001
 21
493.95533
 31
0.0
  0
LINE
  5
31B
  8
0
 62
     3
 10
-147.911247
 20
489.20531899999997
 30
0.0
 11
-147.911247
 21
493.95533
 31
0.0
  0
LINE
  5
31C
  8
0
 62
     3
 10
-144.31125700000001
 20
489.20531899999997
 30
0.0
 11
-144.31125700000001
 21
493.95533
 31
0.0
  0
LINE
  5
31D
  8
0
 62
     3
 10
-140.711251
 20
489.20531899999997
 30
0.0
 11
-140.711251
 21
493.95533
 31
0.0
  0
LINE
  5
31E
  8
0
 62
     3
 10
-137.111244
 20
489.20531899999997
 30
0.0
 11
-137.111244
 21
493.95533
 31
0.0
  0
LINE
  5
31F
  8
0
 62
     3
 10
-133.51125400000001
 20
489.20531899999997
 30
0.0
 11
-133.51125400000001
 21
493.95533
 31
0.0
  0
LINE
  5
320
  8
0
 62
     3
 10
-129.911247
 20
489.20531899999997
 30
0.0
 11
-129.911247
 21
493.95533
 31
0.0
  0
LINE
  5
321
  8
0
 62
     3
 10
-126.311257
 20
489.20531899999997
 30
0.0
 11
-126.311257
 21
493.95533
 31
0.0
  0
LINE
  5
322
  8
0
 62
     3
 10
-122.7112509999999
 20
489.20531899999997
 30
0.0
 11
-122.7112509999999
 21
493.95533
 31
0.0
  0
LINE
  5
323
  8
0
 62
     3
 10
-119.1112439999999
 20
489.20531899999997
 30
0.0
 11
-119.1112439999999
 21
493.95533
 31
0.0
  0
LINE
  5
324
  8
0
 62
     3
 10
-115.51125399999999
 20
489.20531899999997
 30
0.0
 11
-115.51125399999999
 21
493.95533
 31
0.0
  0
LINE
  5
325
  8
0
 62
     3
 10
-111.911247
 20
489.20531899999997
 30
0.0
 11
-111.911247
 21
493.95533
 31
0.0
  0
LINE
  5
326
  8
0
 62
     3
 10
-108.311257
 20
489.20531899999997
 30
0.0
 11
-108.311257
 21
493.95533
 31
0.0
  0
LINE
  5
327
  8
0
 62
     3
 10
-104.711251
 20
489.20531899999997
 30
0.0
 11
-104.711251
 21
493.95533
 31
0.0
  0
LINE
  5
328
  8
0
 62
     3
 10
-101.111244
 20
489.20531899999997
 30
0.0
 11
-101.111244
 21
493.95533
 31
0.0
  0
LINE
  5
329
  8
0
 62
     3
 10
-97.511254000000008
 20
489.20531899999997
 30
0.0
 11
-97.511254000000008
 21
493.95533
 31
0.0
  0
LINE
  5
32A
  8
0
 62
     3
 10
-93.911247000000003
 20
489.20531899999997
 30
0.0
 11
-93.911247000000003
 21
493.95533
 31
0.0
  0
LINE
  5
32B
  8
0
 62
     3
 10
-90.311256999999998
 20
489.20531899999997
 30
0.0
 11
-90.311256999999998
 21
493.95533
 31
0.0
  0
LINE
  5
32C
  8
0
 62
     3
 10
-86.711251000000004
 20
489.20531899999997
 30
0.0
 11
-86.711251000000004
 21
493.95533
 31
0.0
  0
LINE
  5
32D
  8
0
 62
     3
 10
-83.111243999999999
 20
489.20531899999997
 30
0.0
 11
-83.111243999999999
 21
493.95533
 31
0.0
  0
LINE
  5
32E
  8
0
 62
     3
 10
-79.511254000000008
 20
489.20531899999997
 30
0.0
 11
-79.511254000000008
 21
493.95533
 31
0.0
  0
LINE
  5
32F
  8
0
 62
     3
 10
-75.911247000000003
 20
489.20531899999997
 30
0.0
 11
-75.911247000000003
 21
493.95533
 31
0.0
  0
ARC
  5
330
  8
0
 62
     3
 10
-73.011268999999984
 20
490.45532999999989
 30
0.0
 40
1.2499990000000001
 50
269.99954100000002
 51
359.99997300000001
  0
ARC
  5
331
  8
0
 62
     3
 10
-175.51126899999991
 20
490.45529800000003
 30
0.0
 40
1.2499670000000001
 50
179.9988139999999
 51
270.00178099999988
  0
LINE
  5
332
  8
0
  6
DASHDOT
 62
     7
 10
-50.031548000000001
 20
574.45532799999989
 30
0.0
 11
-203.29715400000001
 21
574.45532799999989
 31
0.0
  0
LINE
  5
333
  8
0
 62
     7
 10
-71.761253999999994
 20
706.30611999999985
 30
0.0
 11
-77.670128000000005
 21
707.34800499999994
 31
0.0
  0
LINE
  5
334
  8
0
 62
     7
 10
-71.761253999999994
 20
706.30611999999985
 30
0.0
 11
-77.670128000000005
 21
705.26421900000003
 31
0.0
  0
LINE
  5
335
  8
0
 62
     7
 10
-176.76125400000001
 20
706.30615099999989
 30
0.0
 11
-170.85237900000001
 21
705.26424999999995
 31
0.0
  0
LINE
  5
336
  8
0
 62
     7
 10
-176.76125400000001
 20
706.30615099999989
 30
0.0
 11
-170.85237900000001
 21
707.34803599999987
 31
0.0
  0
LINE
  5
337
  8
0
 62
     7
 10
-71.761253999999994
 20
706.30611999999985
 30
0.0
 11
-176.76125400000001
 21
706.30615099999989
 31
0.0
  0
LINE
  5
338
  8
0
 62
     7
 10
-71.761253999999994
 20
710.30611999999985
 30
0.0
 11
-71.761314999999996
 21
626.45532100000003
 31
0.0
  0
LINE
  5
339
  8
0
 62
     7
 10
-176.76125400000001
 20
710.30615099999989
 30
0.0
 11
-176.76125400000001
 21
626.45535099999995
 31
0.0
  0
LINE
  5
33A
  8
0
 62
     7
 10
-89.261193000000006
 20
417.44763
 30
0.0
 11
-95.170067000000003
 21
418.48951899999992
 31
0.0
  0
LINE
  5
33B
  8
0
 62
     7
 10
-89.261193000000006
 20
417.44763
 30
0.0
 11
-95.170067000000003
 21
416.40574099999998
 31
0.0
  0
LINE
  5
33C
  8
0
 62
     7
 10
-124.26125399999999
 20
417.44764500000002
 30
0.0
 11
-118.3523789999999
 21
416.40575200000001
 31
0.0
  0
LINE
  5
33D
  8
0
 62
     7
 10
-124.26125399999999
 20
417.44764500000002
 30
0.0
 11
-118.3523789999999
 21
418.48953099999989
 31
0.0
  0
LINE
  5
33E
  8
0
 62
     7
 10
-124.26125399999999
 20
417.44764500000002
 30
0.0
 11
-130.17012800000001
 21
418.48953099999989
 31
0.0
  0
LINE
  5
33F
  8
0
 62
     7
 10
-124.26125399999999
 20
417.44764500000002
 30
0.0
 11
-130.17012800000001
 21
416.40575200000001
 31
0.0
  0
LINE
  5
340
  8
0
 62
     7
 10
-159.26125400000001
 20
417.44765299999989
 30
0.0
 11
-153.35244
 21
416.40576399999998
 31
0.0
  0
LINE
  5
341
  8
0
 62
     7
 10
-159.26125400000001
 20
417.44765299999989
 30
0.0
 11
-153.35244
 21
418.48954199999997
 31
0.0
  0
LINE
  5
342
  8
0
 62
     7
 10
-89.261193000000006
 20
417.44763
 30
0.0
 11
-159.26125400000001
 21
417.44765299999989
 31
0.0
  0
LINE
  5
343
  8
0
 62
     7
 10
-89.261193000000006
 20
413.44763
 30
0.0
 11
-89.261193000000006
 21
495.70506899999998
 31
0.0
  0
LINE
  5
344
  8
0
 62
     7
 10
-159.26125400000001
 20
413.44765299999989
 30
0.0
 11
-159.26125400000001
 21
489.20534299999991
 31
0.0
  0
LINE
  5
345
  8
0
 62
     7
 10
-249.95491799999999
 20
461.70531999999992
 30
0.0
 11
-250.99678800000001
 21
455.79647300000011
 31
0.0
  0
LINE
  5
346
  8
0
 62
     7
 10
-249.95491799999999
 20
461.70531999999992
 30
0.0
 11
-248.91298699999999
 21
455.79647300000011
 31
0.0
  0
LINE
  5
347
  8
0
 62
     7
 10
-249.95491799999999
 20
471.70534099999998
 30
0.0
 11
-248.91298699999999
 21
477.61418700000002
 31
0.0
  0
LINE
  5
348
  8
0
 62
     7
 10
-249.95491799999999
 20
471.70534099999998
 30
0.0
 11
-250.99678800000001
 21
477.61418600000002
 31
0.0
  0
LINE
  5
349
  8
0
 62
     7
 10
-249.95491799999999
 20
681.70528999999999
 30
0.0
 11
-250.99678800000001
 21
675.79643099999998
 31
0.0
  0
LINE
  5
34A
  8
0
 62
     7
 10
-249.95491799999999
 20
681.70528999999999
 30
0.0
 11
-248.91298699999999
 21
675.79643099999998
 31
0.0
  0
LINE
  5
34B
  8
0
 62
     7
 10
-249.95491799999999
 20
691.70530499999995
 30
0.0
 11
-248.91298699999999
 21
697.61414899999988
 31
0.0
  0
LINE
  5
34C
  8
0
 62
     7
 10
-249.95491799999999
 20
691.70530499999995
 30
0.0
 11
-250.99678800000001
 21
697.61414899999988
 31
0.0
  0
LINE
  5
34D
  8
0
 62
     7
 10
-249.95491799999999
 20
444.70531899999997
 30
0.0
 11
-249.95491799999999
 21
708.70530499999995
 31
0.0
  0
LINE
  5
34E
  8
0
 62
     7
 10
-253.95491799999999
 20
461.70531999999992
 30
0.0
 11
-98.011314999999996
 21
461.7053259999999
 31
0.0
  0
LINE
  5
34F
  8
0
 62
     7
 10
-253.95491799999999
 20
471.70534099999998
 30
0.0
 11
-95.361289999999997
 21
471.7053469999999
 31
0.0
  0
LINE
  5
350
  8
0
 62
     7
 10
-253.95491799999999
 20
681.70528999999999
 30
0.0
 11
-95.361289999999997
 21
681.70528999999999
 31
0.0
  0
LINE
  5
351
  8
0
 62
     7
 10
-253.95491799999999
 20
691.70530499999995
 30
0.0
 11
-98.011314999999996
 21
691.70530499999995
 31
0.0
  0
LINE
  5
352
  8
0
 62
     7
 10
-149.26119299999991
 20
439.9749569999999
 30
0.0
 11
-143.35231799999991
 21
438.93306699999988
 31
0.0
  0
LINE
  5
353
  8
0
 62
     7
 10
-149.26119299999991
 20
439.9749569999999
 30
0.0
 11
-143.35231799999991
 21
441.01684599999999
 31
0.0
  0
LINE
  5
354
  8
0
 62
     7
 10
-169.26119299999991
 20
439.97496399999989
 30
0.0
 11
-175.170006
 21
441.01685299999991
 31
0.0
  0
LINE
  5
355
  8
0
 62
     7
 10
-169.26119299999991
 20
439.97496399999989
 30
0.0
 11
-175.170006
 21
438.93307499999997
 31
0.0
  0
LINE
  5
356
  8
0
 62
     7
 10
-132.26119299999991
 20
439.97495300000003
 30
0.0
 11
-169.26119299999991
 21
439.97496399999989
 31
0.0
  0
LINE
  5
357
  8
0
 62
     7
 10
-149.26119299999991
 20
435.9749569999999
 30
0.0
 11
-149.26119299999991
 21
481.70530899999989
 31
0.0
  0
LINE
  5
358
  8
0
 62
     7
 10
-169.26119299999991
 20
435.97496399999989
 30
0.0
 11
-169.26119299999991
 21
481.70531499999998
 31
0.0
  0
LINE
  5
359
  8
0
 62
     7
 10
-85.363181999999995
 20
472.97635099999991
 30
0.0
 11
-79.422446999999991
 21
473.81752299999999
 31
0.0
  0
LINE
  5
35A
  8
0
 62
     7
 10
-85.363181999999995
 20
472.97635099999991
 30
0.0
 11
-80.068382999999997
 21
475.79864800000001
 31
0.0
  0
LINE
  5
35B
  8
0
 62
     7
 10
-93.159324999999995
 20
470.43432999999987
 30
0.0
 11
-99.100059999999999
 21
469.59315500000002
 31
0.0
  0
LINE
  5
35C
  8
0
 62
     7
 10
-93.159324999999995
 20
470.43432999999987
 30
0.0
 11
-98.454125000000005
 21
467.61203099999989
 31
0.0
  0
LINE
  5
35D
  8
0
 62
     7
 10
-93.159324999999995
 20
470.43432999999987
 30
0.0
 11
-34.056480999999998
 21
489.70545599999991
 31
0.0
  0
LINE
  5
35E
  8
0
 62
     7
 10
-214.87490099999991
 20
489.20531899999997
 30
0.0
 11
-213.83296999999999
 21
495.11416500000001
 31
0.0
  0
LINE
  5
35F
  8
0
 62
     7
 10
-214.87490099999991
 20
489.20531899999997
 30
0.0
 11
-215.9167709999999
 21
495.11416500000001
 31
0.0
  0
LINE
  5
360
  8
0
 62
     7
 10
-214.87490099999991
 20
664.20532100000003
 30
0.0
 11
-215.9167709999999
 21
658.29646100000002
 31
0.0
  0
LINE
  5
361
  8
0
 62
     7
 10
-214.87490099999991
 20
664.20532100000003
 30
0.0
 11
-213.83296999999999
 21
658.29646100000002
 31
0.0
  0
LINE
  5
362
  8
0
 62
     7
 10
-214.87490099999991
 20
489.20531899999997
 30
0.0
 11
-214.87490099999991
 21
664.20530499999995
 31
0.0
  0
LINE
  5
363
  8
0
 62
     7
 10
-218.87490099999991
 20
489.20531899999997
 30
0.0
 11
-175.51125400000001
 21
489.20532099999991
 31
0.0
  0
LINE
  5
364
  8
0
 62
     7
 10
-218.87490099999991
 20
664.20532100000003
 30
0.0
 11
-175.51125400000001
 21
664.20532100000003
 31
0.0
  0
LINE
  5
365
  8
0
 62
     5
 10
-197.50832399999999
 20
574.45532799999989
 30
0.0
 11
-196.46639300000001
 21
580.36418000000003
 31
0.0
  0
LINE
  5
366
  8
0
 62
     5
 10
-197.50832399999999
 20
574.45532799999989
 30
0.0
 11
-198.55019399999989
 21
580.36418000000003
 31
0.0
  0
LINE
  5
367
  8
0
 62
     5
 10
-197.50832399999999
 20
664.20532100000003
 30
0.0
 11
-198.55019399999989
 21
658.29646100000002
 31
0.0
  0
LINE
  5
368
  8
0
 62
     5
 10
-197.50832399999999
 20
664.20532100000003
 30
0.0
 11
-196.46639300000001
 21
658.29646100000002
 31
0.0
  0
LINE
  5
369
  8
0
 62
     5
 10
-197.50832399999999
 20
574.45532799999989
 30
0.0
 11
-197.50832399999999
 21
664.20532100000003
 31
0.0
  0
LINE
  5
36A
  8
0
 62
     5
 10
-201.50832399999999
 20
664.20532100000003
 30
0.0
 11
-175.51125400000001
 21
664.20532100000003
 31
0.0
  0
LINE
  5
36B
  8
0
 62
     5
 10
-233.068444
 20
574.45532799999989
 30
0.0
 11
-232.026512
 21
580.36418000000003
 31
0.0
  0
LINE
  5
36C
  8
0
 62
     5
 10
-233.068444
 20
574.45532799999989
 30
0.0
 11
-234.11031399999999
 21
580.36418000000003
 31
0.0
  0
LINE
  5
36D
  8
0
 62
     5
 10
-233.068444
 20
681.70530499999995
 30
0.0
 11
-234.11031399999999
 21
675.79644599999995
 31
0.0
  0
LINE
  5
36E
  8
0
 62
     5
 10
-233.068444
 20
681.70530499999995
 30
0.0
 11
-232.026512
 21
675.79644599999995
 31
0.0
  0
LINE
  5
36F
  8
0
 62
     5
 10
-233.068444
 20
574.45532799999989
 30
0.0
 11
-233.068444
 21
681.70530499999995
 31
0.0
  0
LINE
  5
370
  8
0
 62
     5
 10
-237.068444
 20
574.45532799999989
 30
0.0
 11
-203.29714199999989
 21
574.45532799999989
 31
0.0
  0
LINE
  5
371
  8
0
 62
     5
 10
-237.068444
 20
681.70530499999995
 30
0.0
 11
-165.36128999999991
 21
681.70530499999995
 31
0.0
  0
LINE
  5
372
  8
0
 62
     7
 10
-65.761254000000008
 20
727.30930899999987
 30
0.0
 11
-71.670128000000005
 21
728.35120999999992
 31
0.0
  0
LINE
  5
373
  8
0
 62
     7
 10
-65.761254000000008
 20
727.30930899999987
 30
0.0
 11
-71.670128000000005
 21
726.26740899999993
 31
0.0
  0
LINE
  5
374
  8
0
 62
     7
 10
-182.76125400000001
 20
727.30930899999987
 30
0.0
 11
-176.85237900000001
 21
726.26740899999993
 31
0.0
  0
LINE
  5
375
  8
0
 62
     7
 10
-182.76125400000001
 20
727.30930899999987
 30
0.0
 11
-176.85237900000001
 21
728.35120999999992
 31
0.0
  0
LINE
  5
376
  8
0
 62
     7
 10
-65.761254000000008
 20
727.30930899999987
 30
0.0
 11
-182.76125400000001
 21
727.30930899999987
 31
0.0
  0
LINE
  5
377
  8
0
 62
     7
 10
-65.761254000000008
 20
731.30930899999987
 30
0.0
 11
-65.761254000000008
 21
653.70532100000003
 31
0.0
  0
LINE
  5
378
  8
0
 62
     7
 10
-182.76125400000001
 20
731.30930899999987
 30
0.0
 11
-182.76125400000001
 21
653.70532100000003
 31
0.0
  0
LINE
  5
379
  8
0
 62
     7
 10
-39.958579999999998
 20
493.95533
 30
0.0
 11
-38.916709999999988
 21
499.86417599999987
 31
0.0
  0
LINE
  5
37A
  8
0
 62
     7
 10
-39.958579999999998
 20
493.95533
 30
0.0
 11
-41.000510999999989
 21
499.86417599999987
 31
0.0
  0
LINE
  5
37B
  8
0
 62
     7
 10
-39.958579999999998
 20
654.95533599999987
 30
0.0
 11
-41.000510999999989
 21
649.04647699999987
 31
0.0
  0
LINE
  5
37C
  8
0
 62
     7
 10
-39.958579999999998
 20
654.95533599999987
 30
0.0
 11
-38.916709999999988
 21
649.04647699999987
 31
0.0
  0
LINE
  5
37D
  8
0
 62
     7
 10
-39.958579999999998
 20
493.95533
 30
0.0
 11
-39.958579999999998
 21
654.95532100000003
 31
0.0
  0
LINE
  5
37E
  8
0
 62
     7
 10
-35.958579999999991
 20
493.95533
 30
0.0
 11
-67.011254000000008
 21
493.95532800000001
 31
0.0
  0
LINE
  5
37F
  8
0
 62
     7
 10
-35.958579999999991
 20
654.95533599999987
 30
0.0
 11
-67.011254000000008
 21
654.95533599999987
 31
0.0
  0
LINE
  5
380
  8
0
 62
     7
 10
423.56339299999991
 20
518.45532700000001
 30
0.0
 11
535.56339300000002
 21
518.45532700000001
 31
0.0
  0
LINE
  5
381
  8
0
 62
     7
 10
423.56339299999991
 20
630.45532700000001
 30
0.0
 11
535.56339300000002
 21
630.45532700000001
 31
0.0
  0
LINE
  5
382
  8
0
 62
     7
 10
423.56339299999991
 20
630.45532700000001
 30
0.0
 11
423.56339299999991
 21
518.45532700000001
 31
0.0
  0
LINE
  5
383
  8
0
 62
     7
 10
535.56339300000002
 20
630.45532700000001
 30
0.0
 11
535.56339300000002
 21
518.45532700000001
 31
0.0
  0
LINE
  5
384
  8
0
  6
DASHDOT
 62
     7
 10
479.56339300000002
 20
704.34119899999996
 30
0.0
 11
479.56339300000002
 21
476.96831200000003
 31
0.0
  0
CIRCLE
  5
385
  8
0
 62
     7
 10
439.56339299999991
 20
645.4553269999999
 30
0.0
 40
3.5
  0
CIRCLE
  5
386
  8
0
 62
     7
 10
519.56339300000002
 20
645.4553269999999
 30
0.0
 40
3.5
  0
CIRCLE
  5
387
  8
0
 62
     7
 10
519.56339300000002
 20
503.4553269999999
 30
0.0
 40
3.5
  0
CIRCLE
  5
388
  8
0
 62
     7
 10
439.56339299999991
 20
503.4553269999999
 30
0.0
 40
3.5
  0
POLYLINE
  5
389
  8
0
 62
     3
 66
     1
 10
0.0
 20
0.0
 30
0.0
  0
VERTEX
  5
69A
  8
0
 62
     3
 10
407.70540599999998
 20
654.85452699999985
 30
0.0
  0
VERTEX
  5
69B
  8
0
 62
     3
 10
423.70540599999998
 20
654.85452699999985
 30
0.0
  0
VERTEX
  5
69C
  8
0
 62
     3
 10
424.70540599999993
 20
656.85452699999985
 30
0.0
  0
VERTEX
  5
69D
  8
0
 62
     3
 10
425.70540599999993
 20
652.85452699999985
 30
0.0
  0
VERTEX
  5
69E
  8
0
 62
     3
 10
426.70540599999993
 20
654.85452699999985
 30
0.0
  0
VERTEX
  5
69F
  8
0
 62
     3
 10
442.70540599999993
 20
654.85452699999985
 30
0.0
  0
VERTEX
  5
6A0
  8
0
 62
     3
 10
443.70540599999998
 20
656.85452699999985
 30
0.0
  0
VERTEX
  5
6A1
  8
0
 62
     3
 10
444.70540599999998
 20
652.85452699999985
 30
0.0
  0
VERTEX
  5
6A2
  8
0
 62
     3
 10
445.70540599999993
 20
654.85452699999985
 30
0.0
  0
VERTEX
  5
6A3
  8
0
 62
     3
 10
461.70540599999998
 20
654.85452699999985
 30
0.0
  0
VERTEX
  5
6A4
  8
0
 62
     3
 10
462.70540599999993
 20
656.85452699999985
 30
0.0
  0
VERTEX
  5
6A5
  8
0
 62
     3
 10
463.70540599999993
 20
652.85452699999985
 30
0.0
  0
VERTEX
  5
6A6
  8
0
 62
     3
 10
464.70540599999998
 20
654.85452699999985
 30
0.0
  0
VERTEX
  5
6A7
  8
0
 62
     3
 10
480.70540599999993
 20
654.85452699999985
 30
0.0
  0
VERTEX
  5
6A8
  8
0
 62
     3
 10
481.70540599999998
 20
656.85452699999985
 30
0.0
  0
VERTEX
  5
6A9
  8
0
 62
     3
 10
482.70540599999998
 20
652.85452699999985
 30
0.0
  0
VERTEX
  5
6AA
  8
0
 62
     3
 10
483.70540599999993
 20
654.85452699999985
 30
0.0
  0
VERTEX
  5
6AB
  8
0
 62
     3
 10
499.70540599999993
 20
654.85452699999985
 30
0.0
  0
VERTEX
  5
6AC
  8
0
 62
     3
 10
500.70540599999993
 20
656.85452699999985
 30
0.0
  0
VERTEX
  5
6AD
  8
0
 62
     3
 10
501.70540599999993
 20
652.85452699999985
 30
0.0
  0
VERTEX
  5
6AE
  8
0
 62
     3
 10
502.70540599999998
 20
654.85452699999985
 30
0.0
  0
VERTEX
  5
6AF
  8
0
 62
     3
 10
518.70540599999993
 20
654.85452699999985
 30
0.0
  0
VERTEX
  5
6B0
  8
0
 62
     3
 10
519.70540599999993
 20
656.85452699999985
 30
0.0
  0
VERTEX
  5
6B1
  8
0
 62
     3
 10
520.70540599999993
 20
652.85452699999985
 30
0.0
  0
VERTEX
  5
6B2
  8
0
 62
     3
 10
521.70540599999993
 20
654.85452699999985
 30
0.0
  0
VERTEX
  5
6B3
  8
0
 62
     3
 10
537.70540599999981
 20
654.85452699999985
 30
0.0
  0
VERTEX
  5
6B4
  8
0
 62
     3
 10
538.70540599999993
 20
656.85452699999985
 30
0.0
  0
VERTEX
  5
6B5
  8
0
 62
     3
 10
539.70540599999993
 20
652.85452699999985
 30
0.0
  0
VERTEX
  5
6B6
  8
0
 62
     3
 10
540.70540599999993
 20
654.85452699999985
 30
0.0
  0
VERTEX
  5
6B7
  8
0
 62
     3
 10
550.91888399999993
 20
654.85452699999985
 30
0.0
  0
SEQEND
  5
6B8
  8
0
 62
     3
  0
POLYLINE
  5
3A9
  8
0
 62
     3
 66
     1
 10
0.0
 20
0.0
 30
0.0
  0
VERTEX
  5
6B9
  8
0
 62
     3
 10
407.70540599999998
 20
490.0334059999999
 30
0.0
  0
VERTEX
  5
6BA
  8
0
 62
     3
 10
423.70540599999998
 20
490.0334059999999
 30
0.0
  0
VERTEX
  5
6BB
  8
0
 62
     3
 10
424.70540599999993
 20
492.03340600000001
 30
0.0
  0
VERTEX
  5
6BC
  8
0
 62
     3
 10
425.70540599999993
 20
488.03340600000001
 30
0.0
  0
VERTEX
  5
6BD
  8
0
 62
     3
 10
426.70540599999993
 20
490.0334059999999
 30
0.0
  0
VERTEX
  5
6BE
  8
0
 62
     3
 10
442.70540599999993
 20
490.0334059999999
 30
0.0
  0
VERTEX
  5
6BF
  8
0
 62
     3
 10
443.70540599999998
 20
492.03340600000001
 30
0.0
  0
VERTEX
  5
6C0
  8
0
 62
     3
 10
444.70540599999998
 20
488.03340600000001
 30
0.0
  0
VERTEX
  5
6C1
  8
0
 62
     3
 10
445.70540599999993
 20
490.0334059999999
 30
0.0
  0
VERTEX
  5
6C2
  8
0
 62
     3
 10
461.70540599999998
 20
490.0334059999999
 30
0.0
  0
VERTEX
  5
6C3
  8
0
 62
     3
 10
462.70540599999993
 20
492.03340600000001
 30
0.0
  0
VERTEX
  5
6C4
  8
0
 62
     3
 10
463.70540599999993
 20
488.03340600000001
 30
0.0
  0
VERTEX
  5
6C5
  8
0
 62
     3
 10
464.70540599999998
 20
490.0334059999999
 30
0.0
  0
VERTEX
  5
6C6
  8
0
 62
     3
 10
480.70540599999993
 20
490.0334059999999
 30
0.0
  0
VERTEX
  5
6C7
  8
0
 62
     3
 10
481.70540599999998
 20
492.03340600000001
 30
0.0
  0
VERTEX
  5
6C8
  8
0
 62
     3
 10
482.70540599999998
 20
488.03340600000001
 30
0.0
  0
VERTEX
  5
6C9
  8
0
 62
     3
 10
483.70540599999993
 20
490.0334059999999
 30
0.0
  0
VERTEX
  5
6CA
  8
0
 62
     3
 10
499.70540599999993
 20
490.0334059999999
 30
0.0
  0
VERTEX
  5
6CB
  8
0
 62
     3
 10
500.70540599999993
 20
492.03340600000001
 30
0.0
  0
VERTEX
  5
6CC
  8
0
 62
     3
 10
501.70540599999993
 20
488.03340600000001
 30
0.0
  0
VERTEX
  5
6CD
  8
0
 62
     3
 10
502.70540599999998
 20
490.0334059999999
 30
0.0
  0
VERTEX
  5
6CE
  8
0
 62
     3
 10
518.70540599999993
 20
490.0334059999999
 30
0.0
  0
VERTEX
  5
6CF
  8
0
 62
     3
 10
519.70540599999993
 20
492.03340600000001
 30
0.0
  0
VERTEX
  5
6D0
  8
0
 62
     3
 10
520.70540599999993
 20
488.03340600000001
 30
0.0
  0
VERTEX
  5
6D1
  8
0
 62
     3
 10
521.70540599999993
 20
490.0334059999999
 30
0.0
  0
VERTEX
  5
6D2
  8
0
 62
     3
 10
537.70540599999981
 20
490.0334059999999
 30
0.0
  0
VERTEX
  5
6D3
  8
0
 62
     3
 10
538.70540599999993
 20
492.03340600000001
 30
0.0
  0
VERTEX
  5
6D4
  8
0
 62
     3
 10
539.70540599999993
 20
488.03340600000001
 30
0.0
  0
VERTEX
  5
6D5
  8
0
 62
     3
 10
540.70540599999993
 20
490.0334059999999
 30
0.0
  0
VERTEX
  5
6D6
  8
0
 62
     3
 10
550.91888399999993
 20
490.0334059999999
 30
0.0
  0
SEQEND
  5
6D7
  8
0
 62
     3
  0
POLYLINE
  5
3C9
  8
0
 62
     3
 66
     1
 10
0.0
 20
0.0
 30
0.0
  0
VERTEX
  5
6D8
  8
0
 62
     3
 10
550.91888399999993
 20
654.85452699999985
 30
0.0
  0
VERTEX
  5
6D9
  8
0
 62
     3
 10
550.91888399999993
 20
638.85452699999985
 30
0.0
  0
VERTEX
  5
6DA
  8
0
 62
     3
 10
552.91888399999993
 20
637.85452699999996
 30
0.0
  0
VERTEX
  5
6DB
  8
0
 62
     3
 10
548.91888399999993
 20
636.85452699999985
 30
0.0
  0
VERTEX
  5
6DC
  8
0
 62
     3
 10
550.91888399999993
 20
635.85452699999985
 30
0.0
  0
VERTEX
  5
6DD
  8
0
 62
     3
 10
550.91888399999993
 20
619.85452699999985
 30
0.0
  0
VERTEX
  5
6DE
  8
0
 62
     3
 10
552.91888399999993
 20
618.85452699999985
 30
0.0
  0
VERTEX
  5
6DF
  8
0
 62
     3
 10
548.91888399999993
 20
617.85452699999985
 30
0.0
  0
VERTEX
  5
6E0
  8
0
 62
     3
 10
550.91888399999993
 20
616.85452699999996
 30
0.0
  0
VERTEX
  5
6E1
  8
0
 62
     3
 10
550.91888399999993
 20
600.85452699999985
 30
0.0
  0
VERTEX
  5
6E2
  8
0
 62
     3
 10
552.91888399999993
 20
599.85452699999996
 30
0.0
  0
VERTEX
  5
6E3
  8
0
 62
     3
 10
548.91888399999993
 20
598.85452699999985
 30
0.0
  0
VERTEX
  5
6E4
  8
0
 62
     3
 10
550.91888399999993
 20
597.85452699999985
 30
0.0
  0
VERTEX
  5
6E5
  8
0
 62
     3
 10
550.91888399999993
 20
581.85452699999985
 30
0.0
  0
VERTEX
  5
6E6
  8
0
 62
     3
 10
552.91888399999993
 20
580.85452699999985
 30
0.0
  0
VERTEX
  5
6E7
  8
0
 62
     3
 10
548.91888399999993
 20
579.85452699999985
 30
0.0
  0
VERTEX
  5
6E8
  8
0
 62
     3
 10
550.91888399999993
 20
578.85452699999985
 30
0.0
  0
VERTEX
  5
6E9
  8
0
 62
     3
 10
550.91888399999993
 20
562.85452699999996
 30
0.0
  0
VERTEX
  5
6EA
  8
0
 62
     3
 10
552.91888399999993
 20
561.85452699999985
 30
0.0
  0
VERTEX
  5
6EB
  8
0
 62
     3
 10
548.91888399999993
 20
560.85452699999985
 30
0.0
  0
VERTEX
  5
6EC
  8
0
 62
     3
 10
550.91888399999993
 20
559.85452699999985
 30
0.0
  0
VERTEX
  5
6ED
  8
0
 62
     3
 10
550.91888399999993
 20
543.85452699999985
 30
0.0
  0
VERTEX
  5
6EE
  8
0
 62
     3
 10
552.91888399999993
 20
542.85452699999985
 30
0.0
  0
VERTEX
  5
6EF
  8
0
 62
     3
 10
548.91888399999993
 20
541.85452699999996
 30
0.0
  0
VERTEX
  5
6F0
  8
0
 62
     3
 10
550.91888399999993
 20
540.85452699999985
 30
0.0
  0
VERTEX
  5
6F1
  8
0
 62
     3
 10
550.91888399999993
 20
524.85452699999996
 30
0.0
  0
VERTEX
  5
6F2
  8
0
 62
     3
 10
552.91888399999993
 20
523.85452699999985
 30
0.0
  0
VERTEX
  5
6F3
  8
0
 62
     3
 10
548.91888399999993
 20
522.85452699999985
 30
0.0
  0
VERTEX
  5
6F4
  8
0
 62
     3
 10
550.91888399999993
 20
521.85452699999985
 30
0.0
  0
VERTEX
  5
6F5
  8
0
 62
     3
 10
550.91888399999993
 20
505.85452699999991
 30
0.0
  0
VERTEX
  5
6F6
  8
0
 62
     3
 10
552.91888399999993
 20
504.85452699999991
 30
0.0
  0
VERTEX
  5
6F7
  8
0
 62
     3
 10
548.91888399999993
 20
503.85452699999991
 30
0.0
  0
VERTEX
  5
6F8
  8
0
 62
     3
 10
550.91888399999993
 20
502.85452699999991
 30
0.0
  0
VERTEX
  5
6F9
  8
0
 62
     3
 10
550.91888399999993
 20
490.0334059999999
 30
0.0
  0
SEQEND
  5
6FA
  8
0
 62
     3
  0
POLYLINE
  5
3ED
  8
0
 62
     3
 66
     1
 10
0.0
 20
0.0
 30
0.0
  0
VERTEX
  5
6FB
  8
0
 62
     3
 10
407.70540599999998
 20
654.85452699999985
 30
0.0
  0
VERTEX
  5
6FC
  8
0
 62
     3
 10
407.70540599999998
 20
638.85452699999985
 30
0.0
  0
VERTEX
  5
6FD
  8
0
 62
     3
 10
409.70540599999993
 20
637.85452699999996
 30
0.0
  0
VERTEX
  5
6FE
  8
0
 62
     3
 10
405.70540599999993
 20
636.85452699999985
 30
0.0
  0
VERTEX
  5
6FF
  8
0
 62
     3
 10
407.70540599999998
 20
635.85452699999985
 30
0.0
  0
VERTEX
  5
700
  8
0
 62
     3
 10
407.70540599999998
 20
619.85452699999985
 30
0.0
  0
VERTEX
  5
701
  8
0
 62
     3
 10
409.70540599999993
 20
618.85452699999985
 30
0.0
  0
VERTEX
  5
702
  8
0
 62
     3
 10
405.70540599999993
 20
617.85452699999985
 30
0.0
  0
VERTEX
  5
703
  8
0
 62
     3
 10
407.70540599999998
 20
616.85452699999996
 30
0.0
  0
VERTEX
  5
704
  8
0
 62
     3
 10
407.70540599999998
 20
600.85452699999985
 30
0.0
  0
VERTEX
  5
705
  8
0
 62
     3
 10
409.70540599999993
 20
599.85452699999996
 30
0.0
  0
VERTEX
  5
706
  8
0
 62
     3
 10
405.70540599999993
 20
598.85452699999985
 30
0.0
  0
VERTEX
  5
707
  8
0
 62
     3
 10
407.70540599999998
 20
597.85452699999985
 30
0.0
  0
VERTEX
  5
708
  8
0
 62
     3
 10
407.70540599999998
 20
581.85452699999985
 30
0.0
  0
VERTEX
  5
709
  8
0
 62
     3
 10
409.70540599999993
 20
580.85452699999985
 30
0.0
  0
VERTEX
  5
70A
  8
0
 62
     3
 10
405.70540599999993
 20
579.85452699999985
 30
0.0
  0
VERTEX
  5
70B
  8
0
 62
     3
 10
407.70540599999998
 20
578.85452699999985
 30
0.0
  0
VERTEX
  5
70C
  8
0
 62
     3
 10
407.70540599999998
 20
562.85452699999996
 30
0.0
  0
VERTEX
  5
70D
  8
0
 62
     3
 10
409.70540599999993
 20
561.85452699999985
 30
0.0
  0
VERTEX
  5
70E
  8
0
 62
     3
 10
405.70540599999993
 20
560.85452699999985
 30
0.0
  0
VERTEX
  5
70F
  8
0
 62
     3
 10
407.70540599999998
 20
559.85452699999985
 30
0.0
  0
VERTEX
  5
710
  8
0
 62
     3
 10
407.70540599999998
 20
543.85452699999985
 30
0.0
  0
VERTEX
  5
711
  8
0
 62
     3
 10
409.70540599999993
 20
542.85452699999985
 30
0.0
  0
VERTEX
  5
712
  8
0
 62
     3
 10
405.70540599999993
 20
541.85452699999996
 30
0.0
  0
VERTEX
  5
713
  8
0
 62
     3
 10
407.70540599999998
 20
540.85452699999985
 30
0.0
  0
VERTEX
  5
714
  8
0
 62
     3
 10
407.70540599999998
 20
524.85452699999996
 30
0.0
  0
VERTEX
  5
715
  8
0
 62
     3
 10
409.70540599999993
 20
523.85452699999985
 30
0.0
  0
VERTEX
  5
716
  8
0
 62
     3
 10
405.70540599999993
 20
522.85452699999985
 30
0.0
  0
VERTEX
  5
717
  8
0
 62
     3
 10
407.70540599999998
 20
521.85452699999985
 30
0.0
  0
VERTEX
  5
718
  8
0
 62
     3
 10
407.70540599999998
 20
505.85452699999991
 30
0.0
  0
VERTEX
  5
719
  8
0
 62
     3
 10
409.70540599999993
 20
504.85452699999991
 30
0.0
  0
VERTEX
  5
71A
  8
0
 62
     3
 10
405.70540599999993
 20
503.85452699999991
 30
0.0
  0
VERTEX
  5
71B
  8
0
 62
     3
 10
407.70540599999998
 20
502.85452699999991
 30
0.0
  0
VERTEX
  5
71C
  8
0
 62
     3
 10
407.70540599999998
 20
490.0334059999999
 30
0.0
  0
SEQEND
  5
71D
  8
0
 62
     3
  0
LINE
  5
411
  8
0
  6
DASHDOT
 62
     7
 10
519.56339300000002
 20
651.95532700000001
 30
0.0
 11
519.56339300000002
 21
638.95532700000001
 31
0.0
  0
LINE
  5
412
  8
0
  6
DASHDOT
 62
     7
 10
513.06339300000002
 20
645.4553269999999
 30
0.0
 11
526.06339300000002
 21
645.4553269999999
 31
0.0
  0
LINE
  5
413
  8
0
  6
DASHDOT
 62
     7
 10
439.56339299999991
 20
651.95532700000001
 30
0.0
 11
439.56339299999991
 21
638.95532700000001
 31
0.0
  0
LINE
  5
414
  8
0
  6
DASHDOT
 62
     7
 10
433.06339299999991
 20
645.4553269999999
 30
0.0
 11
446.06339299999991
 21
645.4553269999999
 31
0.0
  0
LINE
  5
415
  8
0
  6
DASHDOT
 62
     7
 10
439.56339299999991
 20
509.9553269999999
 30
0.0
 11
439.56339299999991
 21
496.9553269999999
 31
0.0
  0
LINE
  5
416
  8
0
  6
DASHDOT
 62
     7
 10
433.06339299999991
 20
503.4553269999999
 30
0.0
 11
446.06339299999991
 21
503.4553269999999
 31
0.0
  0
LINE
  5
417
  8
0
  6
DASHDOT
 62
     7
 10
519.56339300000002
 20
509.9553269999999
 30
0.0
 11
519.56339300000002
 21
496.9553269999999
 31
0.0
  0
LINE
  5
418
  8
0
  6
DASHDOT
 62
     7
 10
513.06339300000002
 20
503.4553269999999
 30
0.0
 11
526.06339300000002
 21
503.4553269999999
 31
0.0
  0
CIRCLE
  5
419
  8
0
 62
     7
 10
414.23793799999987
 20
649.56832599999996
 30
0.0
 40
0.25
  0
LINE
  5
41A
  8
0
  6
DASHDOT
 62
     7
 10
376.48554999999988
 20
574.4553269999999
 30
0.0
 11
582.679169
 21
574.4553269999999
 31
0.0
  0
LINE
  5
41B
  8
0
 62
     7
 10
369.51514400000002
 20
630.45532700000001
 30
0.0
 11
367.43137400000001
 21
618.63763899999992
 31
0.0
  0
LINE
  5
41C
  8
0
 62
     7
 10
369.51514400000002
 20
630.45532700000001
 30
0.0
 11
371.59891499999992
 21
618.63763899999992
 31
0.0
  0
LINE
  5
41D
  8
0
 62
     7
 10
369.51514400000002
 20
518.45532700000001
 30
0.0
 11
371.59891499999992
 21
530.27301499999999
 31
0.0
  0
LINE
  5
41E
  8
0
 62
     7
 10
369.51514400000002
 20
518.45532700000001
 30
0.0
 11
367.43134300000003
 21
530.27301499999999
 31
0.0
  0
LINE
  5
41F
  8
0
 62
     7
 10
369.51514400000002
 20
630.45532700000001
 30
0.0
 11
369.51514400000002
 21
518.45532700000001
 31
0.0
  0
LINE
  5
420
  8
0
 62
     7
 10
361.51514400000002
 20
630.45532700000001
 30
0.0
 11
423.56339299999991
 21
630.45532700000001
 31
0.0
  0
LINE
  5
421
  8
0
 62
     7
 10
361.51514400000002
 20
518.45532700000001
 30
0.0
 11
423.56339299999991
 21
518.45532700000001
 31
0.0
  0
LINE
  5
422
  8
0
 62
     7
 10
343.88745899999992
 20
645.4553269999999
 30
0.0
 11
341.80368799999991
 21
633.63763899999981
 31
0.0
  0
LINE
  5
423
  8
0
 62
     7
 10
343.88745899999992
 20
645.4553269999999
 30
0.0
 11
345.97122999999999
 21
633.63763899999981
 31
0.0
  0
LINE
  5
424
  8
0
 62
     7
 10
343.88745899999992
 20
503.4553269999999
 30
0.0
 11
345.97122999999999
 21
515.27301499999999
 31
0.0
  0
LINE
  5
425
  8
0
 62
     7
 10
343.88745899999992
 20
503.4553269999999
 30
0.0
 11
341.80368799999991
 21
515.27301499999999
 31
0.0
  0
LINE
  5
426
  8
0
 62
     7
 10
343.88745899999992
 20
645.4553269999999
 30
0.0
 11
343.88745899999992
 21
503.4553269999999
 31
0.0
  0
LINE
  5
427
  8
0
 62
     7
 10
335.88745899999992
 20
645.4553269999999
 30
0.0
 11
433.06339299999991
 21
645.4553269999999
 31
0.0
  0
LINE
  5
428
  8
0
 62
     7
 10
335.88745899999992
 20
503.4553269999999
 30
0.0
 11
433.06339299999991
 21
503.4553269999999
 31
0.0
  0
LINE
  5
429
  8
0
 62
     7
 10
439.56339299999991
 20
679.71854099999985
 30
0.0
 11
451.38108099999988
 21
677.63477
 31
0.0
  0
LINE
  5
42A
  8
0
 62
     7
 10
439.56339299999991
 20
679.71854099999985
 30
0.0
 11
451.38108099999988
 21
681.80231200000003
 31
0.0
  0
LINE
  5
42B
  8
0
 62
     7
 10
519.56339300000002
 20
679.71854099999985
 30
0.0
 11
507.74570499999987
 21
681.80231200000003
 31
0.0
  0
LINE
  5
42C
  8
0
 62
     7
 10
519.56339300000002
 20
679.71854099999985
 30
0.0
 11
507.74570499999987
 21
677.63473999999997
 31
0.0
  0
LINE
  5
42D
  8
0
 62
     7
 10
439.56339299999991
 20
679.71854099999985
 30
0.0
 11
519.56339300000002
 21
679.71854099999985
 31
0.0
  0
LINE
  5
42E
  8
0
 62
     7
 10
439.56339299999991
 20
687.71854099999996
 30
0.0
 11
439.56339299999991
 21
651.95532700000001
 31
0.0
  0
LINE
  5
42F
  8
0
 62
     7
 10
519.56339300000002
 20
687.71854099999996
 30
0.0
 11
519.56339300000002
 21
651.95532700000001
 31
0.0
  0
LINE
  5
430
  8
0
 62
     7
 10
423.56339299999991
 20
706.35120099999995
 30
0.0
 11
435.38108099999988
 21
704.26742999999988
 31
0.0
  0
LINE
  5
431
  8
0
 62
     7
 10
423.56339299999991
 20
706.35120099999995
 30
0.0
 11
435.38108099999988
 21
708.43500199999994
 31
0.0
  0
LINE
  5
432
  8
0
 62
     7
 10
535.56339300000002
 20
706.35120099999995
 30
0.0
 11
523.74570499999993
 21
708.43500199999994
 31
0.0
  0
LINE
  5
433
  8
0
 62
     7
 10
535.56339300000002
 20
706.35120099999995
 30
0.0
 11
523.74570499999993
 21
704.26742999999988
 31
0.0
  0
LINE
  5
434
  8
0
 62
     7
 10
423.56339299999991
 20
706.35120099999995
 30
0.0
 11
535.56339300000002
 21
706.35123199999998
 31
0.0
  0
LINE
  5
435
  8
0
 62
     7
 10
423.56339299999991
 20
714.35120099999995
 30
0.0
 11
423.56339299999991
 21
630.45532700000001
 31
0.0
  0
LINE
  5
436
  8
0
 62
     7
 10
535.56339300000002
 20
714.35120099999995
 30
0.0
 11
535.56339300000002
 21
630.45532700000001
 31
0.0
  0
LINE
  5
437
  8
0
 62
     7
 10
436.77585599999992
 20
501.33881100000002
 30
0.0
 11
426.10373700000002
 21
495.85194899999999
 31
0.0
  0
LINE
  5
438
  8
0
 62
     7
 10
436.77585599999992
 20
501.33881100000002
 30
0.0
 11
428.62394
 21
492.53276499999998
 31
0.0
  0
LINE
  5
439
  8
0
 62
     7
 10
442.35092900000001
 20
505.57184299999989
 30
0.0
 11
453.02304800000002
 21
511.05872099999999
 31
0.0
  0
LINE
  5
43A
  8
0
 62
     7
 10
442.35092900000001
 20
505.57184299999989
 30
0.0
 11
450.502815
 21
514.37790399999994
 31
0.0
  0
LINE
  5
43B
  8
0
 62
     7
 10
442.35092900000001
 20
505.57184299999989
 30
0.0
 11
368.52185800000001
 21
449.514363
 31
0.0
  0
INSERT
  5
594
  8
0
  2
BLOCK0
 10
-99.395507999999992
 20
288.88570399999992
 30
0.0
 50
180.0
  0
INSERT
  5
595
  8
0
  2
BLOCK1
 10
-99.395507999999992
 20
288.88570399999992
 30
0.0
 50
180.0
  0
INSERT
  5
596
  8
0
  2
BLOCK2
 10
-99.395507999999992
 20
288.88570399999992
 30
0.0
 50
180.0
  0
INSERT
  5
597
  8
0
  2
BLOCK3
 10
-99.395507999999992
 20
288.88570399999992
 30
0.0
 50
180.0
  0
INSERT
  5
598
  8
0
  2
BLOCK4
 10
-99.395507999999992
 20
288.88570399999992
 30
0.0
 50
180.0
  0
INSERT
  5
599
  8
0
  2
BLOCK5
 10
-99.395507999999992
 20
288.88570399999992
 30
0.0
 50
180.0
  0
INSERT
  5
59A
  8
0
  2
BLOCK6
 10
-99.395507999999992
 20
288.88570399999992
 30
0.0
 50
180.0
  0
INSERT
  5
59B
  8
0
  2
BLOCK7
 10
783.91580199999999
 20
576.7053269999999
 30
0.0
 50
180.0
  0
INSERT
  5
59C
  8
0
  2
BLOCK8
 10
783.91580199999999
 20
576.7053269999999
 30
0.0
 50
180.0
  0
INSERT
  5
59D
  8
0
  2
BLOCK9
 10
783.91580199999999
 20
576.7053269999999
 30
0.0
 50
180.0
  0
INSERT
  5
59E
  8
0
  2
BLOCK10
 10
783.91580199999999
 20
576.7053269999999
 30
0.0
 50
180.0
  0
INSERT
  5
59F
  8
0
  2
BLOCK11
 10
783.91580199999999
 20
576.7053269999999
 30
0.0
 50
180.0
  0
INSERT
  5
5A0
  8
0
  2
BLOCK12
 10
783.91580199999999
 20
576.7053269999999
 30
0.0
 50
180.0
  0
INSERT
  5
5A1
  8
0
  2
BLOCK13
 10
783.91580199999999
 20
576.7053269999999
 30
0.0
 50
180.0
  0
INSERT
  5
5A2
  8
0
  2
BLOCK14
 10
783.91580199999999
 20
576.7053269999999
 30
0.0
 50
180.0
  0
INSERT
  5
5A3
  8
0
  2
BLOCK15
 10
783.91580199999999
 20
576.7053269999999
 30
0.0
 50
180.0
  0
INSERT
  5
5A4
  8
0
  2
BLOCK16
 10
783.91580199999999
 20
576.7053269999999
 30
0.0
 50
180.0
  0
INSERT
  5
5A5
  8
0
  2
BLOCK17
 10
783.91580199999999
 20
576.7053269999999
 30
0.0
 50
180.0
  0
INSERT
  5
5A6
  8
0
  2
BLOCK18
 10
211.76801499999991
 20
464.46828199999999
 30
0.0
 50
90.0
  0
INSERT
  5
5A7
  8
0
  2
BLOCK19
 10
211.76801499999991
 20
464.46828199999999
 30
0.0
 50
90.0
  0
INSERT
  5
5A8
  8
0
  2
BLOCK20
 10
211.76801499999991
 20
464.46828199999999
 30
0.0
 50
90.0
  0
INSERT
  5
5A9
  8
0
  2
BLOCK21
 10
211.76801499999991
 20
464.46828199999999
 30
0.0
 50
90.0
  0
INSERT
  5
5AA
  8
0
  2
BLOCK22
 10
211.76801499999991
 20
464.46828199999999
 30
0.0
 50
90.0
  0
INSERT
  5
5AB
  8
0
  2
BLOCK23
 10
211.76801499999991
 20
464.46828199999999
 30
0.0
 50
90.0
  0
INSERT
  5
5AC
  8
0
  2
BLOCK24
 10
211.76801499999991
 20
464.46828199999999
 30
0.0
 50
90.0
  0
INSERT
  5
5AD
  8
0
  2
BLOCK25
 10
211.76801499999991
 20
464.46828199999999
 30
0.0
 50
90.0
  0
INSERT
  5
5AE
  8
0
  2
BLOCK26
 10
211.76801499999991
 20
464.46828199999999
 30
0.0
 50
90.0
  0
INSERT
  5
5AF
  8
0
  2
BLOCK27
 10
211.76801499999991
 20
464.46828199999999
 30
0.0
 50
90.0
  0
INSERT
  5
5B0
  8
0
  2
BLOCK28
 10
211.76801499999991
 20
464.46828199999999
 30
0.0
 50
90.0
  0
INSERT
  5
5B1
  8
0
  2
BLOCK29
 10
211.76801499999991
 20
464.46828199999999
 30
0.0
 50
90.0
  0
INSERT
  5
5B2
  8
0
  2
BLOCK30
 10
211.76801499999991
 20
464.46828199999999
 30
0.0
 50
90.0
  0
INSERT
  5
5B3
  8
0
  2
BLOCK31
 10
211.76801499999991
 20
464.46828199999999
 30
0.0
 50
90.0
  0
INSERT
  5
5B4
  8
0
  2
BLOCK32
 10
211.76801499999991
 20
464.46828199999999
 30
0.0
 50
90.0
  0
INSERT
  5
5B5
  8
0
  2
BLOCK33
 10
-239.09938799999989
 20
463.96851900000001
 30
0.0
 50
90.0
  0
INSERT
  5
5B6
  8
0
  2
BLOCK34
 10
-239.09938799999989
 20
463.96851900000001
 30
0.0
 50
90.0
  0
INSERT
  5
5B7
  8
0
  2
BLOCK35
 10
-239.09938799999989
 20
463.96851900000001
 30
0.0
 50
90.0
  0
INSERT
  5
5B8
  8
0
  2
BLOCK36
 10
-239.09938799999989
 20
463.96851900000001
 30
0.0
 50
90.0
  0
INSERT
  5
5B9
  8
0
  2
BLOCK37
 10
-239.09938799999989
 20
463.96851900000001
 30
0.0
 50
90.0
  0
INSERT
  5
5BA
  8
0
  2
BLOCK38
 10
-239.09938799999989
 20
463.96851900000001
 30
0.0
 50
90.0
  0
INSERT
  5
5BB
  8
0
  2
BLOCK39
 10
-239.09938799999989
 20
463.96851900000001
 30
0.0
 50
90.0
  0
INSERT
  5
5BC
  8
0
  2
BLOCK40
 10
-239.09938799999989
 20
463.96851900000001
 30
0.0
 50
90.0
  0
INSERT
  5
5BD
  8
0
  2
BLOCK41
 10
-239.09938799999989
 20
463.96851900000001
 30
0.0
 50
90.0
  0
INSERT
  5
5BE
  8
0
  2
BLOCK42
 10
-239.09938799999989
 20
463.96851900000001
 30
0.0
 50
90.0
  0
INSERT
  5
5BF
  8
0
  2
BLOCK43
 10
-239.09938799999989
 20
463.96851900000001
 30
0.0
 50
90.0
  0
INSERT
  5
5C0
  8
0
  2
BLOCK44
 10
-239.09938799999989
 20
463.96851900000001
 30
0.0
 50
90.0
  0
INSERT
  5
5C1
  8
0
  2
BLOCK45
 10
-239.09938799999989
 20
463.96851900000001
 30
0.0
 50
90.0
  0
INSERT
  5
5C2
  8
0
  2
BLOCK46
 10
-239.09938799999989
 20
463.96851900000001
 30
0.0
 50
90.0
  0
INSERT
  5
5C3
  8
0
  2
BLOCK47
 10
-239.09938799999989
 20
463.96851900000001
 30
0.0
 50
90.0
  0
INSERT
  5
5C4
  8
0
  2
BLOCK48
 10
-239.09938799999989
 20
463.96851900000001
 30
0.0
 50
90.0
  0
INSERT
  5
5C5
  8
0
  2
BLOCK49
 10
-239.09938799999989
 20
463.96851900000001
 30
0.0
 50
90.0
  0
INSERT
  5
5C6
  8
0
  2
BLOCK50
 10
479.56339300000002
 20
576.7053269999999
 30
0.0
 50
270.0
  0
INSERT
  5
5C7
  8
0
  2
BLOCK51
 10
479.56339300000002
 20
576.7053269999999
 30
0.0
 50
270.0
  0
INSERT
  5
5C8
  8
0
  2
BLOCK52
 10
479.56339300000002
 20
576.7053269999999
 30
0.0
 50
270.0
  0
INSERT
  5
5C9
  8
0
  2
BLOCK53
 10
479.56339300000002
 20
576.7053269999999
 30
0.0
 50
270.0
  0
INSERT
  5
5CA
  8
0
  2
BLOCK54
 10
479.56339300000002
 20
576.7053269999999
 30
0.0
 50
270.0
  0
INSERT
  5
5CB
  8
0
  2
BLOCK55
 10
479.56339300000002
 20
576.7053269999999
 30
0.0
 50
270.0
  0
INSERT
  5
5CC
  8
0
  2
BLOCK56
 10
479.56339300000002
 20
576.7053269999999
 30
0.0
 50
270.0
  0
INSERT
  5
5CD
  8
0
  2
BLOCK57
 10
479.56339300000002
 20
576.7053269999999
 30
0.0
 50
270.0
  0
INSERT
  5
5CE
  8
0
  2
BLOCK58
 10
479.56339300000002
 20
576.7053269999999
 30
0.0
 50
270.0
  0
INSERT
  5
5CF
  8
0
  2
BLOCK59
 10
479.56339300000002
 20
576.7053269999999
 30
0.0
 50
270.0
  0
VIEWPORT
  5
43C
 67
     1
  8
0
 62
     0
 10
0.0
 20
0.0
 30
0.0
 40
1000.0
 41
1000.0
 68
     1
 69
     1
1001
ACAD
1000
MVIEW
1002
{
1070
    16
1010
0.0
1020
0.0
1030
0.0
1010
0.0
1020
0.0
1030
1.0
1040
0.0
1040
1000.0
1040
0.0
1040
0.0
1040
50.0
1040
0.0
1040
0.0
1070
     0
1070
   100
1070
     1
1070
     1
1070
     0
1070
     0
1070
     0
1070
     0
1040
0.0
1040
0.0
1040
0.0
1040
1.0
1040
1.0
1040
1.0
1040
1.0
1070
     0
1002
{
1002
}
1002
}
  0
ENDSEC
  0
EOF
