  0
SECTION
  2
HEADER
  9
$ACADVER
  1
AC1009
  9
$DWGCODEPAGE
  3
iso8859-1
  9
$INSBASE
 10
0.0
 20
0.0
 30
0.0
  9
$EXTMIN
 10
1.0E20
 20
1.0E20
  9
$EXTMAX
 10
-1.0E20
 20
-1.0E20
  9
$LIMMIN
 10
0.0
 20
0.0
  9
$LIMMAX
 10
12.0
 20
9.0
  9
$ORTHOMODE
 70
     0
  9
$REGENMODE
 70
     1
  9
$FILLMODE
 70
     1
  9
$QTEXTMODE
 70
     0
  9
$MIRRTEXT
 70
     1
  9
$DRAGMODE
 70
     2
  9
$LTSCALE
 40
15.0
  9
$OSMODE
 70
     0
  9
$ATTMODE
 70
     1
  9
$TEXTSIZE
 40
0.2
  9
$TRACEWID
 40
0.05
  9
$TEXTSTYLE
  7
STANDARD
  9
$CLAYER
  8
0
  9
$CELTYPE
  6
DASHED
  9
$CECOLOR
 62
   256
  9
$DIMSCALE
 40
1.0
  9
$DIMASZ
 40
0.18
  9
$DIMEXO
 40
0.0625
  9
$DIMDLI
 40
0.38
  9
$DIMRND
 40
0.0
  9
$DIMDLE
 40
0.0
  9
$DIMEXE
 40
0.18
  9
$DIMTP
 40
0.0
  9
$DIMTM
 40
0.0
  9
$DIMTXT
 40
0.18
  9
$DIMCEN
 40
0.09
  9
$DIMTSZ
 40
0.0
  9
$DIMTOL
 70
     0
  9
$DIMLIM
 70
     0
  9
$DIMTIH
 70
     1
  9
$DIMTOH
 70
     1
  9
$DIMSE1
 70
     0
  9
$DIMSE2
 70
     0
  9
$DIMTAD
 70
     0
  9
$DIMZIN
 70
     0
  9
$DIMBLK
  1

  9
$DIMASO
 70
     1
  9
$DIMSHO
 70
     1
  9
$DIMPOST
  1

  9
$DIMAPOST
  1

  9
$DIMALT
 70
     0
  9
$DIMALTD
 70
     2
  9
$DIMALTF
 40
25.4
  9
$DIMLFAC
 40
1.0
  9
$DIMTOFL
 70
     0
  9
$DIMTVP
 40
0.0
  9
$DIMTIX
 70
     0
  9
$DIMSOXD
 70
     0
  9
$DIMSAH
 70
     0
  9
$DIMBLK1
  1

  9
$DIMBLK2
  1

  9
$DIMSTYLE
  2
STANDARD
  9
$DIMCLRD
 70
     0
  9
$DIMCLRE
 70
     0
  9
$DIMCLRT
 70
     0
  9
$DIMTFAC
 40
1.0
  9
$DIMGAP
 40
0.09
  9
$LUNITS
 70
     2
  9
$LUPREC
 70
     4
  9
$AXISMODE
 70
     0
  9
$AXISUNIT
 10
0.0
 20
0.0
  9
$SKETCHINC
 40
0.1
  9
$FILLETRAD
 40
0.0
  9
$AUNITS
 70
     0
  9
$AUPREC
 70
     0
  9
$MENU
  1
acad
  9
$ELEVATION
 40
0.0
  9
$PELEVATION
 40
0.0
  9
$THICKNESS
 40
0.0
  9
$LIMCHECK
 70
     0
  9
$BLIPMODE
 70
     1
  9
$CHAMFERA
 40
0.0
  9
$CHAMFERB
 40
0.0
  9
$SKPOLY
 70
     0
  9
$TDCREATE
 40
0.000000000
  9
$TDUPDATE
 40
0.000000000
  9
$TDINDWG
 40
0.0
  9
$TDUSRTIMER
 40
0.0
  9
$USRTIMER
 70
     1
  9
$ANGBASE
 50
0.0
  9
$ANGDIR
 70
     0
  9
$PDMODE
 70
     0
  9
$PDSIZE
 40
0.0
  9
$PLINEWID
 40
0.0
  9
$COORDS
 70
     1
  9
$SPLFRAME
 70
     0
  9
$SPLINETYPE
 70
     6
  9
$SPLINESEGS
 70
     8
  9
$ATTDIA
 70
     0
  9
$ATTREQ
 70
     1
  9
$HANDLING
 70
     1
  9
$HANDSEED
  5
   5E2
  9
$SURFTAB1
 70
     6
  9
$SURFTAB2
 70
     6
  9
$SURFTYPE
 70
     6
  9
$SURFU
 70
     6
  9
$SURFV
 70
     6
  9
$UCSNAME
  2

  9
$UCSORG
 10
0.0
 20
0.0
 30
0.0
  9
$UCSXDIR
 10
1.0
 20
0.0
 30
0.0
  9
$UCSYDIR
 10
0.0
 20
1.0
 30
0.0
  9
$PUCSNAME
  2

  9
$PUCSORG
 10
0.0
 20
0.0
 30
0.0
  9
$PUCSXDIR
 10
1.0
 20
0.0
 30
0.0
  9
$PUCSYDIR
 10
0.0
 20
1.0
 30
0.0
  9
$USERI1
 70
     0
  9
$USERI2
 70
     0
  9
$USERI3
 70
     0
  9
$USERI4
 70
     0
  9
$USERI5
 70
     0
  9
$USERR1
 40
0.0
  9
$USERR2
 40
0.0
  9
$USERR3
 40
0.0
  9
$USERR4
 40
0.0
  9
$USERR5
 40
0.0
  9
$WORLDVIEW
 70
     1
  9
$SHADEDGE
 70
     3
  9
$SHADEDIF
 70
    70
  9
$TILEMODE
 70
     1
  9
$MAXACTVP
 70
    16
  9
$PINSBASE
 10
0.0
 20
0.0
 30
0.0
  9
$PLIMCHECK
 70
     0
  9
$PEXTMIN
 10
1.0E20
 20
1.0E20
 30
1.0E20
  9
$PEXTMAX
 10
-1.0E20
 20
-1.0E20
 30
-1.0E20
  9
$PLIMMIN
 10
0.0
 20
0.0
  9
$PLIMMAX
 10
12.0
 20
9.0
  9
$UNITMODE
 70
     0
  9
$VISRETAIN
 70
     0
  0
ENDSEC
  0
SECTION
  2
TABLES
  0
TABLE
  2
VPORT
 70
     1
  0
VPORT
  2
*ACTIVE
 70
     0
 10
0.0
 20
0.0
 11
1.0
 21
1.0
 12
6.801242
 22
4.5
 13
0.0
 23
0.0
 14
1.0
 24
1.0
 15
0.0
 25
0.0
 16
0.0
 26
0.0
 36
1.0
 17
0.0
 27
0.0
 37
0.0
 40
9.0
 41
1.511387
 42
50.0
 43
0.0
 44
0.0
 50
0.0
 51
0.0
 71
     0
 72
   100
 73
     1
 74
     1
 75
     0
 76
     0
 77
     0
 78
     0
  0
ENDTAB
  0
TABLE
  2
LTYPE
 70
    41
  0
LTYPE
  2
BYBLOCK
 70
     0
  3

 72
    65
 73
     0
 40
0.0
  0
LTYPE
  2
BYLAYER
 70
     0
  3

 72
    65
 73
     0
 40
0.0
  0
LTYPE
  2
CONTINUOUS
 70
     0
  3
Solid line
 72
    65
 73
     0
 40
0.0
  0
LTYPE
  2
BORDER
 70
    64
  3
__ __ . __ __ . __ __ . __ __ . __ __ . __ __ .
 72
    65
 73
     6
 40
1.75
 49
0.5
 49
-0.25
 49
0.5
 49
-0.25
 49
0.0
 49
-0.25
  0
LTYPE
  2
BORDER2
 70
    64
  3
__.__.__.__.__.__.__.__.__.__.__.__.__.__.__.__
 72
    65
 73
     6
 40
0.875
 49
0.25
 49
-0.125
 49
0.25
 49
-0.125
 49
0.0
 49
-0.125
  0
LTYPE
  2
BORDERX2
 70
    64
  3
____  ____  .  ____  ____  .  ____  ____  .  __
 72
    65
 73
     6
 40
3.5
 49
1.0
 49
-0.5
 49
1.0
 49
-0.5
 49
0.0
 49
-0.5
  0
LTYPE
  2
CENTER
 70
    64
  3
____ _ ____ _ ____ _ ____ _ ____ _ ____ _ ____
 72
    65
 73
     4
 40
2.0
 49
1.25
 49
-0.25
 49
0.25
 49
-0.25
  0
LTYPE
  2
CENTER2
 70
    64
  3
___ _ ___ _ ___ _ ___ _ ___ _ ___ _ ___ _ ___ _
 72
    65
 73
     4
 40
1.125
 49
0.75
 49
-0.125
 49
0.125
 49
-0.125
  0
LTYPE
  2
CENTERX2
 70
    64
  3
________  __  ________  __  ________  __  _____
 72
    65
 73
     4
 40
4.0
 49
2.5
 49
-0.5
 49
0.5
 49
-0.5
  0
LTYPE
  2
DASHDOT
 70
    64
  3
__ . __ . __ . __ . __ . __ . __ . __ . __ . __
 72
    65
 73
     4
 40
1.0
 49
0.5
 49
-0.25
 49
0.0
 49
-0.25
  0
LTYPE
  2
DASHDOT2
 70
    64
  3
_._._._._._._._._._._._._._._._._._._._._._._._
 72
    65
 73
     4
 40
0.5
 49
0.25
 49
-0.125
 49
0.0
 49
-0.125
  0
LTYPE
  2
DASHDOTX2
 70
    64
  3
____  .  ____  .  ____  .  ____  .  ____  .  __
 72
    65
 73
     4
 40
2.0
 49
1.0
 49
-0.5
 49
0.0
 49
-0.5
  0
LTYPE
  2
DASHED
 70
    64
  3
__ __ __ __ __ __ __ __ __ __ __ __ __ __ __ __
 72
    65
 73
     2
 40
0.75
 49
0.5
 49
-0.25
  0
LTYPE
  2
DASHED2
 70
    64
  3
_ _ _ _ _ _ _ _ _ _ _ _ _ _ _ _ _ _ _ _ _ _ _ _
 72
    65
 73
     2
 40
0.375
 49
0.25
 49
-0.125
  0
LTYPE
  2
DASHEDX2
 70
    64
  3
____  ____  ____  ____  ____  ____  ____  ____
 72
    65
 73
     2
 40
1.5
 49
1.0
 49
-0.5
  0
LTYPE
  2
DIVIDE
 70
    64
  3
____ . . ____ . . ____ . . ____ . . ____ . . __
 72
    65
 73
     6
 40
1.25
 49
0.5
 49
-0.25
 49
0.0
 49
-0.25
 49
0.0
 49
-0.25
  0
LTYPE
  2
DIVIDE2
 70
    64
  3
__..__..__..__..__..__..__..__..__..__..__..__.
 72
    65
 73
     6
 40
0.625
 49
0.25
 49
-0.125
 49
0.0
 49
-0.125
 49
0.0
 49
-0.125
  0
LTYPE
  2
DIVIDEX2
 70
    64
  3
________  .  .  ________  .  .  ________  .  .
 72
    65
 73
     6
 40
2.5
 49
1.0
 49
-0.5
 49
0.0
 49
-0.5
 49
0.0
 49
-0.5
  0
LTYPE
  2
DOT
 70
    64
  3
. . . . . . . . . . . . . . . . . . . . . . . .
 72
    65
 73
     2
 40
0.25
 49
0.0
 49
-0.25
  0
LTYPE
  2
DOT2
 70
    64
  3
...............................................
 72
    65
 73
     2
 40
0.125
 49
0.0
 49
-0.125
  0
LTYPE
  2
DOTX2
 70
    64
  3
.  .  .  .  .  .  .  .  .  .  .  .  .  .  .  .
 72
    65
 73
     2
 40
0.5
 49
0.0
 49
-0.5
  0
LTYPE
  2
HIDDEN
 70
    64
  3
__ __ __ __ __ __ __ __ __ __ __ __ __ __ __ __
 72
    65
 73
     2
 40
0.375
 49
0.25
 49
-0.125
  0
LTYPE
  2
HIDDEN2
 70
    64
  3
_ _ _ _ _ _ _ _ _ _ _ _ _ _ _ _ _ _ _ _ _ _ _ _
 72
    65
 73
     2
 40
0.1875
 49
0.125
 49
-0.0625
  0
LTYPE
  2
HIDDENX2
 70
    64
  3
____ ____ ____ ____ ____ ____ ____ ____ ____ __
 72
    65
 73
     2
 40
0.75
 49
0.5
 49
-0.25
  0
LTYPE
  2
PHANTOM
 70
    64
  3
______  __  __  ______  __  __  ______  __  __
 72
    65
 73
     6
 40
2.5
 49
1.25
 49
-0.25
 49
0.25
 49
-0.25
 49
0.25
 49
-0.25
  0
LTYPE
  2
PHANTOM2
 70
    64
  3
___ _ _ ___ _ _ ___ _ _ ___ _ _ ___ _ _ ___ _ _
 72
    65
 73
     6
 40
1.25
 49
0.625
 49
-0.125
 49
0.125
 49
-0.125
 49
0.125
 49
-0.125
  0
LTYPE
  2
PHANTOMX2
 70
    64
  3
____________    ____    ____    ____________
 72
    65
 73
     6
 40
5.0
 49
2.5
 49
-0.5
 49
0.5
 49
-0.5
 49
0.5
 49
-0.5
  0
LTYPE
  2
ACAD_ISO02W100
 70
    64
  3
__ __ __ __ __ __ __ __ __ __ __ __ __ __ __ __
 72
    65
 73
     2
 40
15.0
 49
12.0
 49
-3.0
  0
LTYPE
  2
ACAD_ISO03W100
 70
    64
  3
__    __    __    __    __    __    __    __
 72
    65
 73
     2
 40
30.0
 49
12.0
 49
-18.0
  0
LTYPE
  2
ACAD_ISO04W100
 70
    64
  3
____ . ____ . ____ . ____ . ____ . ____ . ____
 72
    65
 73
     4
 40
30.5
 49
24.0
 49
-3.0
 49
0.5
 49
-3.0
  0
LTYPE
  2
ACAD_ISO05W100
 70
    64
  3
____ .. ____ .. ____ .. ____ .. ____ .. ____ ..
 72
    65
 73
     6
 40
34.0
 49
24.0
 49
-3.0
 49
0.5
 49
-3.0
 49
0.5
 49
-3.0
  0
LTYPE
  2
ACAD_ISO06W100
 70
    64
  3
____ ... ____ ... ____ ... ____ ... ____ ... __
 72
    65
 73
     8
 40
37.5
 49
24.0
 49
-3.0
 49
0.5
 49
-3.0
 49
0.5
 49
-3.0
 49
0.5
 49
-3.0
  0
LTYPE
  2
ACAD_ISO07W100
 70
    64
  3
. . . . . . . . . . . . . . . . . . . . . . . .
 72
    65
 73
     2
 40
3.5
 49
0.5
 49
-3.0
  0
LTYPE
  2
ACAD_ISO08W100
 70
    64
  3
____ __ ____ __ ____ __ ____ ____ __ __ ____ __
 72
    65
 73
     4
 40
36.0
 49
24.0
 49
-3.0
 49
6.0
 49
-3.0
  0
LTYPE
  2
ACAD_ISO09W100
 70
    64
  3
____ __ __ ____ __ __ ____ __ __ ____ __ __ ___
 72
    65
 73
     6
 40
45.0
 49
24.0
 49
-3.0
 49
6.0
 49
-3.0
 49
6.0
 49
-3.0
  0
LTYPE
  2
ACAD_ISO10W100
 70
    64
  3
__ . __ . __ . __ . __ . __ . __ . __ . __ . __
 72
    65
 73
     4
 40
18.5
 49
12.0
 49
-3.0
 49
0.5
 49
-3.0
  0
LTYPE
  2
ACAD_ISO11W100
 70
    64
  3
__ __ . __ __ . __ __ . __ __ . __ __ . __ __ .
 72
    65
 73
     6
 40
33.5
 49
12.0
 49
-3.0
 49
12.0
 49
-3.0
 49
0.5
 49
-3.0
  0
LTYPE
  2
ACAD_ISO12W100
 70
    64
  3
__ . . __ . . __ . . __ . . __ . . __ . . __ .
 72
    65
 73
     6
 40
22.0
 49
12.0
 49
-3.0
 49
0.5
 49
-3.0
 49
0.5
 49
-3.0
  0
LTYPE
  2
ACAD_ISO13W100
 70
    64
  3
__ __ . . __ __ . . __ __ . . __ __ . . __ __ .
 72
    65
 73
     8
 40
37.0
 49
12.0
 49
-3.0
 49
12.0
 49
-3.0
 49
0.5
 49
-3.0
 49
0.5
 49
-3.0
  0
LTYPE
  2
ACAD_ISO14W100
 70
    64
  3
__ . . . __ . . . __ . . . __ . . . __ . . . __
 72
    65
 73
     8
 40
25.5
 49
12.0
 49
-3.0
 49
0.5
 49
-3.0
 49
0.5
 49
-3.0
 49
0.5
 49
-3.0
  0
LTYPE
  2
ACAD_ISO15W100
 70
    64
  3
__ __ . . . __ __ . . . __ __ . . . __ __ . . .
 72
    65
 73
    10
 40
40.5
 49
12.0
 49
-3.0
 49
12.0
 49
-3.0
 49
0.5
 49
-3.0
 49
0.5
 49
-3.0
 49
0.5
 49
-3.0
  0
ENDTAB
  0
TABLE
  2
STYLE
 70
     4
  0
STYLE
  2
STANDARD
 70
    64
 40
0.0
 41
1.0
 50
0.0
 71
     0
 42
0.2
  3
txt
  4

  0
STYLE
  2
TOLERANCE
 70
    64
 40
0.0
 41
1.0
 50
0.0
 71
     0
 42
0.2
  3
../igesfont/iges1003.shx
  4

  0
STYLE
  2
ROMANS
 70
    64
 40
0.0
 41
1.0
 50
0.0
 71
     0
 42
0.2
  3
romans.shx
  4

  0
STYLE
  2
ROMANC
 70
    64
 40
0.0
 41
1.0
 50
0.0
 71
     0
 42
0.2
  3
romanc.shx
  4

  0
ENDTAB
  0
TABLE
  2
DIMSTYLE
 70
     2
  0
DIMSTYLE
  2
UNNAMED
 70
     0
  3

  4

  5

  6

  7

 40
1.0
 41
0.18
 42
0.0625
 43
0.38
 44
0.18
 45
0.0
 46
0.0
 47
0.0
 48
0.0
140
0.18
141
0.09
142
0.0
143
25.4
144
1.0
145
0.0
146
1.0
147
0.09
 71
     0
 72
     0
 73
     1
 74
     1
 75
     0
 76
     0
 77
     0
 78
     0
170
     0
171
     2
172
     0
173
     0
174
     0
175
     0
176
     0
177
     0
178
     0
  0
DIMSTYLE
  2
STANDARD
 70
     0
  3

  4

  5

  6

  7

 40
1.0
 41
0.18
 42
0.0625
 43
0.38
 44
0.18
 45
0.0
 46
0.0
 47
0.0
 48
0.0
140
0.18
141
0.09
142
0.0
143
25.4
144
1.0
145
0.0
146
1.0
147
0.09
 71
     0
 72
     0
 73
     1
 74
     1
 75
     0
 76
     0
 77
     0
 78
     0
170
     0
171
     2
172
     0
173
     0
174
     0
175
     0
176
     0
177
     0
178
     0
  0
ENDTAB
  0
TABLE
  2
LAYER
 70
     1
  0
LAYER
  2
0
 70
     0
 62
     7
  6
CONTINUOUS
  0
ENDTAB
  0
ENDSEC
  0
SECTION
  2
BLOCKS
  0
BLOCK
  5
     B
  8
0
  6
CONTINUOUS
 62
     7
  2
*UDIM213
 70
    65
 10
0.0
 20
0.0
 30
0.0
  3
*UDIM213
  0
TEXT
  5
     C
  8
0
  6
CONTINUOUS
 62
     7
 10
69.9427754386028
 20
81.7467742082365
 30
0.0
 40
2.99999994933605
  1
105
 50
90.0
 41
0.933333333333333
 72
     1
 11
68.4427754639299
 21
85.6467741423714
 31
0.0
 73
     2
  0
LINE
  5
     D
  8
0
  6
CONTINUOUS
 62
     7
 10
52.9866655369892
 20
67.4824824898665
 30
0.0
 11
72.9427754385979
 21
67.4824824898665
 31
0.0
  0
LINE
  5
     E
  8
0
  6
CONTINUOUS
 62
     7
 10
52.9866655369892
 20
109.482495322747
 30
0.0
 11
72.9427754385979
 21
109.482495322747
 31
0.0
  0
LINE
  5
     F
  8
0
  6
CONTINUOUS
 62
     7
 10
70.9427754385979
 20
67.4824824898665
 30
0.0
 11
70.9427754385979
 21
109.482495322747
 31
0.0
  0
LINE
  5
    10
  8
0
  6
CONTINUOUS
 62
     7
 10
70.4218310086462
 20
70.4369057670734
 30
0.0
 11
70.9427754385979
 21
67.4824824898665
 31
0.0
  0
LINE
  5
    11
  8
0
  6
CONTINUOUS
 62
     7
 10
70.9427754385979
 20
67.4824824898665
 30
0.0
 11
71.4637198685496
 21
70.4369057670734
 31
0.0
  0
LINE
  5
    12
  8
0
  6
CONTINUOUS
 62
     7
 10
71.4637198685496
 20
106.52807204554
 30
0.0
 11
70.9427754385979
 21
109.482495322747
 31
0.0
  0
LINE
  5
    13
  8
0
  6
CONTINUOUS
 62
     7
 10
70.9427754385979
 20
109.482495322747
 30
0.0
 11
70.4218310086462
 21
106.52807204554
 31
0.0
  0
ENDBLK
  5
    14
  8
0
  6
CONTINUOUS
 62
     7
  0
BLOCK
  5
    15
  8
0
  6
CONTINUOUS
 62
     7
  2
*UDIM214
 70
    65
 10
0.0
 20
0.0
 30
0.0
  3
*UDIM214
  0
TEXT
  5
    16
  8
0
  6
CONTINUOUS
 62
     7
 10
27.2116652441069
 20
145.022009997582
 30
0.0
 40
2.99999994933605
  1
105
 41
0.933333333333333
 72
     1
 11
31.1116651782438
 21
146.52200997225
 31
0.0
 73
     2
  0
LINE
  5
    17
  8
0
  6
CONTINUOUS
 62
     7
 10
10.3866618653431
 20
110.082495316786
 30
0.0
 11
10.3866618653431
 21
146.022009997582
 31
0.0
  0
LINE
  5
    18
  8
0
  6
CONTINUOUS
 62
     7
 10
52.3866655429497
 20
110.082495316786
 30
0.0
 11
52.3866655429497
 21
146.022009997582
 31
0.0
  0
LINE
  5
    19
  8
0
  6
CONTINUOUS
 62
     7
 10
10.3866618653431
 20
144.022009997582
 30
0.0
 11
52.3866655429497
 21
144.022009997582
 31
0.0
  0
LINE
  5
    1A
  8
0
  6
CONTINUOUS
 62
     7
 10
13.34108514255
 20
144.542954427533
 30
0.0
 11
10.3866618653431
 21
144.022009997582
 31
0.0
  0
LINE
  5
    1B
  8
0
  6
CONTINUOUS
 62
     7
 10
10.3866618653431
 20
144.022009997582
 30
0.0
 11
13.34108514255
 21
143.50106556763
 31
0.0
  0
LINE
  5
    1C
  8
0
  6
CONTINUOUS
 62
     7
 10
49.4322422657427
 20
143.50106556763
 30
0.0
 11
52.3866655429497
 21
144.022009997582
 31
0.0
  0
LINE
  5
    1D
  8
0
  6
CONTINUOUS
 62
     7
 10
52.3866655429497
 20
144.022009997582
 30
0.0
 11
49.4322422657427
 21
144.542954427533
 31
0.0
  0
ENDBLK
  5
    1E
  8
0
  6
CONTINUOUS
 62
     7
  0
BLOCK
  5
    1F
  8
0
  6
CONTINUOUS
 62
     7
  2
*UDIM215
 70
    65
 10
0.0
 20
0.0
 30
0.0
  3
*UDIM215
  0
TEXT
  5
    20
  8
0
  6
CONTINUOUS
 62
     7
 10
14.8615919528341
 20
26.7877064779409
 30
0.0
 40
2.99999994933605
  1
26
 41
0.933333333333333
 72
     1
 11
17.3615919106141
 21
28.2877064526089
 31
0.0
 73
     2
  0
LINE
  5
    21
  8
0
  6
CONTINUOUS
 62
     7
 10
23.3865911553169
 20
31.7721709120755
 30
0.0
 11
23.3865911553169
 21
23.7877064779409
 31
0.0
  0
LINE
  5
    22
  8
0
  6
CONTINUOUS
 62
     7
 10
14.8615919528341
 20
25.7877064779409
 30
0.0
 11
33.7866769237835
 21
25.7877064779409
 31
0.0
  0
LINE
  5
    23
  8
0
  6
CONTINUOUS
 62
     7
 10
26.3410144325239
 20
26.3086509078926
 30
0.0
 11
23.3865911553169
 21
25.7877064779409
 31
0.0
  0
LINE
  5
    24
  8
0
  6
CONTINUOUS
 62
     7
 10
23.3865911553169
 20
25.7877064779409
 30
0.0
 11
26.3410144325239
 21
25.2667620479892
 31
0.0
  0
LINE
  5
    25
  8
0
  6
CONTINUOUS
 62
     7
 10
30.8322536465766
 20
25.2667620479892
 30
0.0
 11
33.7866769237835
 21
25.7877064779409
 31
0.0
  0
LINE
  5
    26
  8
0
  6
CONTINUOUS
 62
     7
 10
33.7866769237835
 20
25.7877064779409
 30
0.0
 11
30.8322536465766
 21
26.3086509078926
 31
0.0
  0
ENDBLK
  5
    27
  8
0
  6
CONTINUOUS
 62
     7
  0
BLOCK
  5
    28
  8
0
  6
CONTINUOUS
 62
     7
  2
*UDIM216
 70
    65
 10
0.0
 20
0.0
 30
0.0
  3
*UDIM216
  0
TEXT
  5
    29
  8
0
  6
CONTINUOUS
 62
     7
 10
37.51167150951
 20
26.7877064779409
 30
0.0
 40
2.99999994933605
  1
46,5
 41
0.933333333333333
 72
     1
 11
42.8116714200037
 21
28.2877064526089
 31
0.0
 73
     2
  0
LINE
  5
    2A
  8
0
  6
CONTINUOUS
 62
     7
 10
52.3866655429497
 20
66.8824458747326
 30
0.0
 11
52.3866655429497
 21
23.7877064779409
 31
0.0
  0
LINE
  5
    2B
  8
0
  6
CONTINUOUS
 62
     7
 10
33.7866769237835
 20
25.7877064779409
 30
0.0
 11
52.3866655429497
 21
25.7877064779409
 31
0.0
  0
LINE
  5
    2C
  8
0
  6
CONTINUOUS
 62
     7
 10
36.7411002009905
 20
26.3086509078926
 30
0.0
 11
33.7866769237835
 21
25.7877064779409
 31
0.0
  0
LINE
  5
    2D
  8
0
  6
CONTINUOUS
 62
     7
 10
33.7866769237835
 20
25.7877064779409
 30
0.0
 11
36.7411002009905
 21
25.2667620479892
 31
0.0
  0
LINE
  5
    2E
  8
0
  6
CONTINUOUS
 62
     7
 10
49.4322422657427
 20
25.2667620479892
 30
0.0
 11
52.3866655429497
 21
25.7877064779409
 31
0.0
  0
LINE
  5
    2F
  8
0
  6
CONTINUOUS
 62
     7
 10
52.3866655429497
 20
25.7877064779409
 30
0.0
 11
49.4322422657427
 21
26.3086509078926
 31
0.0
  0
ENDBLK
  5
    30
  8
0
  6
CONTINUOUS
 62
     7
  0
BLOCK
  5
    31
  8
0
  6
CONTINUOUS
 62
     7
  2
*UDIM217
 70
    65
 10
0.0
 20
0.0
 30
0.0
  3
*UDIM217
  0
TEXT
  5
    32
  8
0
  6
CONTINUOUS
 62
     7
 10
32.8501086373643
 20
78.1027064033402
 30
0.0
 40
2.99999994933605
  1
90
 50
44.0059548706812
 41
0.933333333333333
 72
     1
 11
33.6061779286657
 21
80.918440577522
 31
0.0
 73
     2
  0
TEXT
  5
    33
  8
0
  6
CONTINUOUS
 62
     7
 10
36.0296066907185
 20
82.0079325544704
 30
0.0
 40
2.99999994933605
  1
°
 50
44.0059548706812
 41
0.933333333333333
 72
     1
 11
35.7787013602157
 21
83.8510403641929
 31
0.0
 73
     2
  0
ARC
  5
    34
  8
0
  6
CONTINUOUS
 62
     7
 10
23.3865911553169
 20
93.0822733774547
 30
0.0
 40
18.3489362873546
 50
269.999999844103
 51
359.999999792138
  0
LINE
  5
    35
  8
0
  6
CONTINUOUS
 62
     7
 10
26.3410144325239
 20
75.2542815200518
 30
0.0
 11
23.3865911553169
 21
74.7333370901001
 31
0.0
  0
LINE
  5
    36
  8
0
  6
CONTINUOUS
 62
     7
 10
23.3865911553169
 20
74.7333370901001
 30
0.0
 11
26.3410144325239
 21
74.2123926601485
 31
0.0
  0
LINE
  5
    37
  8
0
  6
CONTINUOUS
 62
     7
 10
42.2564718726232
 20
90.1278501002478
 30
0.0
 11
41.7355274426715
 21
93.0822733774547
 31
0.0
  0
LINE
  5
    38
  8
0
  6
CONTINUOUS
 62
     7
 10
41.7355274426715
 20
93.0822733774547
 30
0.0
 11
41.2145830127198
 21
90.1278501002478
 31
0.0
  0
ENDBLK
  5
    39
  8
0
  6
CONTINUOUS
 62
     7
  0
BLOCK
  5
    3A
  8
0
  6
CONTINUOUS
 62
     7
  2
*UDIM218
 70
    65
 10
0.0
 20
0.0
 30
0.0
  3
*UDIM218
  0
TEXT
  5
    3B
  8
0
  6
CONTINUOUS
 62
     7
 10
-0.64250393351056
 20
72.4061917666395
 30
0.0
 40
2.99999994933605
  1
52,5
 50
90.0
 41
0.933333333333333
 72
     1
 11
-2.14250390818524
 21
77.7061916771313
 31
0.0
 73
     2
  0
LINE
  5
    3C
  8
0
  6
CONTINUOUS
 62
     7
 10
9.78666187130352
 20
67.4824824898665
 30
0.0
 11
-1.64250393351722
 21
67.4824824898665
 31
0.0
  0
LINE
  5
    3D
  8
0
  6
CONTINUOUS
 62
     7
 10
0.357496066482781
 20
67.4824824898665
 30
0.0
 11
0.357496066482781
 21
88.479901015643
 31
0.0
  0
LINE
  5
    3E
  8
0
  6
CONTINUOUS
 62
     7
 10
-0.163448363468882
 20
70.4369057670734
 30
0.0
 11
0.357496066482781
 21
67.4824824898665
 31
0.0
  0
LINE
  5
    3F
  8
0
  6
CONTINUOUS
 62
     7
 10
0.357496066482781
 20
67.4824824898665
 30
0.0
 11
0.878440496434445
 21
70.4369057670734
 31
0.0
  0
LINE
  5
    40
  8
0
  6
CONTINUOUS
 62
     7
 10
0.878440496434445
 20
85.525477738436
 30
0.0
 11
0.357496066482781
 21
88.479901015643
 31
0.0
  0
LINE
  5
    41
  8
0
  6
CONTINUOUS
 62
     7
 10
0.357496066482781
 20
88.479901015643
 30
0.0
 11
-0.163448363468882
 21
85.525477738436
 31
0.0
  0
ENDBLK
  5
    42
  8
0
  6
CONTINUOUS
 62
     7
  0
BLOCK
  5
    43
  8
0
  6
CONTINUOUS
 62
     7
  2
*UDIM219
 70
    65
 10
0.0
 20
0.0
 30
0.0
  3
*UDIM219
  0
TEXT
  5
    44
  8
0
  6
CONTINUOUS
 62
     7
 10
-0.64250393351056
 20
96.0072692361223
 30
0.0
 40
2.99999994933605
  1
11,5
 50
90.0
 41
0.933333333333333
 72
     1
 11
-2.14250390818524
 21
101.307269146614
 31
0.0
 73
     2
  0
LINE
  5
    45
  8
0
  6
CONTINUOUS
 62
     7
 10
10.9865531178337
 20
93.0822733774547
 30
0.0
 11
-1.64250393351722
 21
93.0822733774547
 31
0.0
  0
LINE
  5
    46
  8
0
  6
CONTINUOUS
 62
     7
 10
0.357496066482781
 20
88.479901015643
 30
0.0
 11
0.357496066482781
 21
106.607269057108
 31
0.0
  0
LINE
  5
    47
  8
0
  6
CONTINUOUS
 62
     7
 10
0.878440496434445
 20
85.525477738436
 30
0.0
 11
0.357496066482781
 21
88.479901015643
 31
0.0
  0
LINE
  5
    48
  8
0
  6
CONTINUOUS
 62
     7
 10
0.357496066482781
 20
88.479901015643
 30
0.0
 11
-0.163448363468882
 21
85.525477738436
 31
0.0
  0
LINE
  5
    49
  8
0
  6
CONTINUOUS
 62
     7
 10
-0.163448363468882
 20
96.0366966546617
 30
0.0
 11
0.357496066482781
 21
93.0822733774547
 31
0.0
  0
LINE
  5
    4A
  8
0
  6
CONTINUOUS
 62
     7
 10
0.357496066482781
 20
93.0822733774547
 30
0.0
 11
0.878440496434445
 21
96.0366966546617
 31
0.0
  0
ENDBLK
  5
    4B
  8
0
  6
CONTINUOUS
 62
     7
  0
BLOCK
  5
    4C
  8
0
  6
CONTINUOUS
 62
     7
  2
*UDIM220
 70
    65
 10
0.0
 20
0.0
 30
0.0
  3
*UDIM220
  0
TEXT
  5
    4D
  8
0
  6
CONTINUOUS
 62
     7
 10
143.765141666746
 20
36.051844648024
 30
0.0
 40
2.99999994933605
  1
 
 50
359.999999948034
 41
0.933333333333333
 72
     1
 11
144.865141649522
 21
37.5518446216999
 31
0.0
 73
     2
  0
LINE
  5
    4E
  8
0
  6
CONTINUOUS
 62
     7
 10
157.363631203726
 20
90.8797407880048
 30
0.0
 11
157.363631203726
 21
33.0518446470318
 31
0.0
  0
LINE
  5
    4F
  8
0
  6
CONTINUOUS
 62
     7
 10
130.1666518718
 20
90.0797407760839
 30
0.0
 11
130.1666518718
 21
33.0518446470318
 31
0.0
  0
LINE
  5
    50
  8
0
  6
CONTINUOUS
 62
     7
 10
157.363631203726
 20
35.0518446470318
 30
0.0
 11
130.1666518718
 21
35.0518446470318
 31
0.0
  0
LINE
  5
    51
  8
0
  6
CONTINUOUS
 62
     7
 10
154.409207926519
 20
34.5309002170802
 30
0.0
 11
157.363631203726
 21
35.0518446470318
 31
0.0
  0
LINE
  5
    52
  8
0
  6
CONTINUOUS
 62
     7
 10
157.363631203726
 20
35.0518446470318
 30
0.0
 11
154.409207926519
 21
35.5727890769835
 31
0.0
  0
LINE
  5
    53
  8
0
  6
CONTINUOUS
 62
     7
 10
133.121075149007
 20
35.5727890769835
 30
0.0
 11
130.1666518718
 21
35.0518446470318
 31
0.0
  0
LINE
  5
    54
  8
0
  6
CONTINUOUS
 62
     7
 10
130.1666518718
 20
35.0518446470318
 30
0.0
 11
133.121075149007
 21
34.5309002170802
 31
0.0
  0
ENDBLK
  5
    55
  8
0
  6
CONTINUOUS
 62
     7
  0
BLOCK
  5
    56
  8
0
  6
CONTINUOUS
 62
     7
  2
*UDIM221
 70
    65
 10
0.0
 20
0.0
 30
0.0
  3
*UDIM221
  0
TEXT
  5
    57
  8
0
  6
CONTINUOUS
 62
     7
 10
107.491935619485
 20
30.4761968343955
 30
0.0
 40
2.99999994933605
  1
162,5
 50
359.999999948034
 41
0.933333333333333
 72
     1
 11
114.191935507689
 21
31.9761968030205
 31
0.0
 73
     2
  0
LINE
  5
    58
  8
0
  6
CONTINUOUS
 62
     7
 10
146.967214481749
 20
99.6796899009119
 30
0.0
 11
146.967214481749
 21
27.4761968283525
 31
0.0
  0
LINE
  5
    59
  8
0
  6
CONTINUOUS
 62
     7
 10
81.9666572570802
 20
32.3068273059215
 30
0.0
 11
81.9666572570802
 21
27.4761968283525
 31
0.0
  0
LINE
  5
    5A
  8
0
  6
CONTINUOUS
 62
     7
 10
146.967214481749
 20
29.4761968283525
 30
0.0
 11
81.9666572570802
 21
29.4761968283525
 31
0.0
  0
LINE
  5
    5B
  8
0
  6
CONTINUOUS
 62
     7
 10
144.012791204542
 20
28.9552523984008
 30
0.0
 11
146.967214481749
 21
29.4761968283525
 31
0.0
  0
LINE
  5
    5C
  8
0
  6
CONTINUOUS
 62
     7
 10
146.967214481749
 20
29.4761968283525
 30
0.0
 11
144.012791204542
 21
29.9971412583042
 31
0.0
  0
LINE
  5
    5D
  8
0
  6
CONTINUOUS
 62
     7
 10
84.9210805342871
 20
29.9971412583042
 30
0.0
 11
81.9666572570802
 21
29.4761968283525
 31
0.0
  0
LINE
  5
    5E
  8
0
  6
CONTINUOUS
 62
     7
 10
81.9666572570802
 20
29.4761968283525
 30
0.0
 11
84.9210805342871
 21
28.9552523984008
 31
0.0
  0
ENDBLK
  5
    5F
  8
0
  6
CONTINUOUS
 62
     7
  0
BLOCK
  5
    60
  8
0
  6
CONTINUOUS
 62
     7
  2
*UDIM222
 70
    65
 10
0.0
 20
0.0
 30
0.0
  3
*UDIM222
  0
TEXT
  5
    61
  8
0
  6
CONTINUOUS
 62
     7
 10
123.546293717953
 20
135.814545263064
 30
0.0
 40
2.99999994933605
  1
17
 50
359.999999948034
 41
0.933333333333333
 72
     1
 11
126.046293677086
 21
137.314545235477
 31
0.0
 73
     2
  0
LINE
  5
    62
  8
0
  6
CONTINUOUS
 62
     7
 10
130.1666518718
 20
96.0797408356885
 30
0.0
 11
130.1666518718
 21
136.814545260809
 31
0.0
  0
LINE
  5
    63
  8
0
  6
CONTINUOUS
 62
     7
 10
123.366651770473
 20
110.377325582316
 30
0.0
 11
123.366651770473
 21
136.814545260809
 31
0.0
  0
LINE
  5
    64
  8
0
  6
CONTINUOUS
 62
     7
 10
130.1666518718
 20
134.814545260809
 30
0.0
 11
123.366651770473
 21
134.814545260809
 31
0.0
  0
LINE
  5
    65
  8
0
  6
CONTINUOUS
 62
     7
 10
133.121075149007
 20
135.335489690761
 30
0.0
 11
130.1666518718
 21
134.814545260809
 31
0.0
  0
LINE
  5
    66
  8
0
  6
CONTINUOUS
 62
     7
 10
130.1666518718
 20
134.814545260809
 30
0.0
 11
133.121075149007
 21
134.293600830858
 31
0.0
  0
LINE
  5
    67
  8
0
  6
CONTINUOUS
 62
     7
 10
120.412228493266
 20
134.293600830858
 30
0.0
 11
123.366651770473
 21
134.814545260809
 31
0.0
  0
LINE
  5
    68
  8
0
  6
CONTINUOUS
 62
     7
 10
123.366651770473
 20
134.814545260809
 30
0.0
 11
120.412228493266
 21
135.335489690761
 31
0.0
  0
ENDBLK
  5
    69
  8
0
  6
CONTINUOUS
 62
     7
  0
BLOCK
  5
    6A
  8
0
  6
CONTINUOUS
 62
     7
  2
*UDIM223
 70
    65
 10
0.0
 20
0.0
 30
0.0
  3
*UDIM223
  0
TEXT
  5
    6B
  8
0
  6
CONTINUOUS
 62
     7
 10
150.836873324406
 20
120.991138059756
 30
0.0
 40
2.99999994933605
  1
19
 50
359.999999948034
 41
0.933333333333333
 72
     1
 11
153.336873283539
 21
122.491138032169
 31
0.0
 73
     2
  0
LINE
  5
    6C
  8
0
  6
CONTINUOUS
 62
     7
 10
157.363631203726
 20
95.2797408237676
 30
0.0
 11
157.363631203726
 21
121.991138057501
 31
0.0
  0
LINE
  5
    6D
  8
0
  6
CONTINUOUS
 62
     7
 10
157.363631203726
 20
119.991138057501
 30
0.0
 11
149.763631090477
 21
119.991138057501
 31
0.0
  0
LINE
  5
    6E
  8
0
  6
CONTINUOUS
 62
     7
 10
154.409207926519
 20
119.47019362755
 30
0.0
 11
157.363631203726
 21
119.991138057501
 31
0.0
  0
LINE
  5
    6F
  8
0
  6
CONTINUOUS
 62
     7
 10
157.363631203726
 20
119.991138057501
 30
0.0
 11
154.409207926519
 21
120.512082487453
 31
0.0
  0
LINE
  5
    70
  8
0
  6
CONTINUOUS
 62
     7
 10
152.718054367684
 20
120.512082487453
 30
0.0
 11
149.763631090477
 21
119.991138057501
 31
0.0
  0
LINE
  5
    71
  8
0
  6
CONTINUOUS
 62
     7
 10
149.763631090477
 20
119.991138057501
 30
0.0
 11
152.718054367684
 21
119.47019362755
 31
0.0
  0
ENDBLK
  5
    72
  8
0
  6
CONTINUOUS
 62
     7
  0
BLOCK
  5
    73
  8
0
  6
CONTINUOUS
 62
     7
  2
*UDIM224
 70
    65
 10
0.0
 20
0.0
 30
0.0
  3
*UDIM224
  0
TEXT
  5
    74
  8
0
  6
CONTINUOUS
 62
     7
 10
95.6916546930007
 20
144.528302720916
 30
0.0
 40
2.99999994933605
  1
103,5
 50
359.999999948034
 41
0.933333333333333
 72
     1
 11
102.391654581204
 21
146.028302689541
 31
0.0
 73
     2
  0
LINE
  5
    75
  8
0
  6
CONTINUOUS
 62
     7
 10
123.366651770473
 20
110.377325582316
 30
0.0
 11
123.366651770473
 21
145.528302714873
 31
0.0
  0
LINE
  5
    76
  8
0
  6
CONTINUOUS
 62
     7
 10
81.9666572570802
 20
142.306617720473
 30
0.0
 11
81.9666572570802
 21
145.528302714873
 31
0.0
  0
LINE
  5
    77
  8
0
  6
CONTINUOUS
 62
     7
 10
123.366651770473
 20
143.528302714873
 30
0.0
 11
81.9666572570802
 21
143.528302714873
 31
0.0
  0
LINE
  5
    78
  8
0
  6
CONTINUOUS
 62
     7
 10
120.412228493266
 20
143.007358284921
 30
0.0
 11
123.366651770473
 21
143.528302714873
 31
0.0
  0
LINE
  5
    79
  8
0
  6
CONTINUOUS
 62
     7
 10
123.366651770473
 20
143.528302714873
 30
0.0
 11
120.412228493266
 21
144.049247144825
 31
0.0
  0
LINE
  5
    7A
  8
0
  6
CONTINUOUS
 62
     7
 10
84.9210805342871
 20
144.049247144825
 30
0.0
 11
81.9666572570802
 21
143.528302714873
 31
0.0
  0
LINE
  5
    7B
  8
0
  6
CONTINUOUS
 62
     7
 10
81.9666572570802
 20
143.528302714873
 30
0.0
 11
84.9210805342871
 21
143.007358284921
 31
0.0
  0
ENDBLK
  5
    7C
  8
0
  6
CONTINUOUS
 62
     7
  0
BLOCK
  5
    7D
  8
0
  6
CONTINUOUS
 62
     7
  2
*UDIM225
 70
    65
 10
0.0
 20
0.0
 30
0.0
  3
*UDIM225
  0
TEXT
  5
    7E
  8
0
  6
CONTINUOUS
 62
     7
 10
152.763631168795
 20
55.7640550247666
 30
0.0
 40
2.99999994933605
  1
2
 50
359.999999948034
 41
0.933333333333333
 72
     1
 11
153.863631151572
 21
57.2640549984425
 31
0.0
 73
     2
  0
LINE
  5
    7F
  8
0
  6
CONTINUOUS
 62
     7
 10
149.763631090477
 20
66.4798884957258
 30
0.0
 11
149.763631090477
 21
52.7640550237745
 31
0.0
  0
LINE
  5
    80
  8
0
  6
CONTINUOUS
 62
     7
 10
148.963631078556
 20
61.9452672119991
 30
0.0
 11
148.963631078556
 21
52.7640550237745
 31
0.0
  0
LINE
  5
    81
  8
0
  6
CONTINUOUS
 62
     7
 10
154.963631132995
 20
54.7640550237745
 30
0.0
 11
148.963631078556
 21
54.7640550237745
 31
0.0
  0
LINE
  5
    82
  8
0
  6
CONTINUOUS
 62
     7
 10
152.718054367684
 20
55.2849994537261
 30
0.0
 11
149.763631090477
 21
54.7640550237745
 31
0.0
  0
LINE
  5
    83
  8
0
  6
CONTINUOUS
 62
     7
 10
149.763631090477
 20
54.7640550237745
 30
0.0
 11
152.718054367684
 21
54.2431105938228
 31
0.0
  0
LINE
  5
    84
  8
0
  6
CONTINUOUS
 62
     7
 10
146.009207801349
 20
54.2431105938228
 30
0.0
 11
148.963631078556
 21
54.7640550237745
 31
0.0
  0
LINE
  5
    85
  8
0
  6
CONTINUOUS
 62
     7
 10
148.963631078556
 20
54.7640550237745
 30
0.0
 11
146.009207801349
 21
55.2849994537261
 31
0.0
  0
ENDBLK
  5
    86
  8
0
  6
CONTINUOUS
 62
     7
  0
BLOCK
  5
    87
  8
0
  6
CONTINUOUS
 62
     7
  2
*UDIM226
 70
    65
 10
0.0
 20
0.0
 30
0.0
  3
*UDIM226
  0
TEXT
  5
    88
  8
0
  6
CONTINUOUS
 62
     7
 10
181.332302514245
 20
144.528302717128
 30
0.0
 40
2.99999994933605
  1
22
 50
359.999999948034
 41
0.933333333333333
 72
     1
 11
183.832302473378
 21
146.028302689541
 31
0.0
 73
     2
  0
LINE
  5
    89
  8
0
  6
CONTINUOUS
 62
     7
 10
178.357301086857
 20
82.6156022497928
 30
0.0
 11
178.357301086857
 21
145.528302714873
 31
0.0
  0
LINE
  5
    8A
  8
0
  6
CONTINUOUS
 62
     7
 10
169.56363138552
 20
98.2240664394077
 30
0.0
 11
169.56363138552
 21
145.528302714873
 31
0.0
  0
LINE
  5
    8B
  8
0
  6
CONTINUOUS
 62
     7
 10
186.332302431158
 20
143.528302714873
 30
0.0
 11
169.56363138552
 21
143.528302714873
 31
0.0
  0
LINE
  5
    8C
  8
0
  6
CONTINUOUS
 62
     7
 10
181.311724364064
 20
144.049247144825
 30
0.0
 11
178.357301086857
 21
143.528302714873
 31
0.0
  0
LINE
  5
    8D
  8
0
  6
CONTINUOUS
 62
     7
 10
178.357301086857
 20
143.528302714873
 30
0.0
 11
181.311724364064
 21
143.007358284921
 31
0.0
  0
LINE
  5
    8E
  8
0
  6
CONTINUOUS
 62
     7
 10
166.609208108313
 20
143.007358284921
 30
0.0
 11
169.56363138552
 21
143.528302714873
 31
0.0
  0
LINE
  5
    8F
  8
0
  6
CONTINUOUS
 62
     7
 10
169.56363138552
 20
143.528302714873
 30
0.0
 11
166.609208108313
 21
144.049247144825
 31
0.0
  0
ENDBLK
  5
    90
  8
0
  6
CONTINUOUS
 62
     7
  0
BLOCK
  5
    91
  8
0
  6
CONTINUOUS
 62
     7
  2
*UDIM227
 70
    65
 10
0.0
 20
0.0
 30
0.0
  3
*UDIM227
  0
TEXT
  5
    92
  8
0
  6
CONTINUOUS
 62
     7
 10
154.088631250528
 20
144.528302719653
 30
0.0
 40
2.99999994933605
  1
49,5
 50
359.999999948034
 41
0.933333333333333
 72
     1
 11
159.388631162375
 21
146.028302689541
 31
0.0
 73
     2
  0
LINE
  5
    93
  8
0
  6
CONTINUOUS
 62
     7
 10
169.56363138552
 20
103.079740939997
 30
0.0
 11
169.56363138552
 21
145.528302714873
 31
0.0
  0
LINE
  5
    94
  8
0
  6
CONTINUOUS
 62
     7
 10
149.763631090477
 20
136.813059783247
 30
0.0
 11
149.763631090477
 21
145.528302714873
 31
0.0
  0
LINE
  5
    95
  8
0
  6
CONTINUOUS
 62
     7
 10
169.56363138552
 20
143.528302714873
 30
0.0
 11
149.763631090477
 21
143.528302714873
 31
0.0
  0
LINE
  5
    96
  8
0
  6
CONTINUOUS
 62
     7
 10
166.609208108313
 20
143.007358284921
 30
0.0
 11
169.56363138552
 21
143.528302714873
 31
0.0
  0
LINE
  5
    97
  8
0
  6
CONTINUOUS
 62
     7
 10
169.56363138552
 20
143.528302714873
 30
0.0
 11
166.609208108313
 21
144.049247144825
 31
0.0
  0
LINE
  5
    98
  8
0
  6
CONTINUOUS
 62
     7
 10
152.718054367684
 20
144.049247144825
 30
0.0
 11
149.763631090477
 21
143.528302714873
 31
0.0
  0
LINE
  5
    99
  8
0
  6
CONTINUOUS
 62
     7
 10
149.763631090477
 20
143.528302714873
 30
0.0
 11
152.718054367684
 21
143.007358284921
 31
0.0
  0
ENDBLK
  5
    9A
  8
0
  6
CONTINUOUS
 62
     7
  0
BLOCK
  5
    9B
  8
0
  6
CONTINUOUS
 62
     7
  2
*UDIM228
 70
    65
 10
0.0
 20
0.0
 30
0.0
  3
*UDIM228
  0
TEXT
  5
    9C
  8
0
  6
CONTINUOUS
 62
     7
 10
135.080732252746
 20
144.528302715865
 30
0.0
 40
2.99999994933605
  1
7
 50
359.999999948034
 41
0.933333333333333
 72
     1
 11
136.180732235522
 21
146.028302689541
 31
0.0
 73
     2
  0
LINE
  5
    9D
  8
0
  6
CONTINUOUS
 62
     7
 10
123.366651770473
 20
110.377325582316
 30
0.0
 11
123.366651770473
 21
145.528302714873
 31
0.0
  0
LINE
  5
    9E
  8
0
  6
CONTINUOUS
 62
     7
 10
149.763631090477
 20
143.528302714873
 30
0.0
 11
123.366651770473
 21
143.528302714873
 31
0.0
  0
LINE
  5
    9F
  8
0
  6
CONTINUOUS
 62
     7
 10
146.80920781327
 20
143.007358284921
 30
0.0
 11
149.763631090477
 21
143.528302714873
 31
0.0
  0
LINE
  5
    A0
  8
0
  6
CONTINUOUS
 62
     7
 10
149.763631090477
 20
143.528302714873
 30
0.0
 11
146.80920781327
 21
144.049247144825
 31
0.0
  0
LINE
  5
    A1
  8
0
  6
CONTINUOUS
 62
     7
 10
126.32107504768
 20
144.049247144825
 30
0.0
 11
123.366651770473
 21
143.528302714873
 31
0.0
  0
LINE
  5
    A2
  8
0
  6
CONTINUOUS
 62
     7
 10
123.366651770473
 20
143.528302714873
 30
0.0
 11
126.32107504768
 21
143.007358284921
 31
0.0
  0
ENDBLK
  5
    A3
  8
0
  6
CONTINUOUS
 62
     7
  0
BLOCK
  5
    A4
  8
0
  6
CONTINUOUS
 62
     7
  2
*UDIM229
 70
    65
 10
0.0
 20
0.0
 30
0.0
  3
*UDIM229
  0
TEXT
  5
    A5
  8
0
  6
CONTINUOUS
 62
     7
 10
152.800041198737
 20
-31.6577602680355
 30
0.0
 40
3.00000002980232
  1
11,5
 50
90.0
 41
0.933333333333333
 72
     1
 11
151.300041183829
 21
-26.3577602153866
 31
0.0
 73
     2
  0
LINE
  5
    A6
  8
0
  6
CONTINUOUS
 62
     7
 10
144.135356525116
 20
-31.7842090374081
 30
0.0
 11
155.80004119873
 21
-31.7842090374081
 31
0.0
  0
LINE
  5
    A7
  8
0
  6
CONTINUOUS
 62
     7
 10
153.80004119873
 20
-37.5342090374081
 30
0.0
 11
153.80004119873
 21
-21.0577601627358
 31
0.0
  0
LINE
  5
    A8
  8
0
  6
CONTINUOUS
 62
     7
 10
154.320985628682
 20
-40.488632314615
 30
0.0
 11
153.80004119873
 21
-37.5342090374081
 31
0.0
  0
LINE
  5
    A9
  8
0
  6
CONTINUOUS
 62
     7
 10
153.80004119873
 20
-37.5342090374081
 30
0.0
 11
153.279096768779
 21
-40.488632314615
 31
0.0
  0
LINE
  5
    AA
  8
0
  6
CONTINUOUS
 62
     7
 10
153.279096768779
 20
-28.8297857602011
 30
0.0
 11
153.80004119873
 21
-31.7842090374081
 31
0.0
  0
LINE
  5
    AB
  8
0
  6
CONTINUOUS
 62
     7
 10
153.80004119873
 20
-31.7842090374081
 30
0.0
 11
154.320985628682
 21
-28.8297857602011
 31
0.0
  0
ENDBLK
  5
    AC
  8
0
  6
CONTINUOUS
 62
     7
  0
BLOCK
  5
    AD
  8
0
  6
CONTINUOUS
 62
     7
  2
*UDIM230
 70
    65
 10
0.0
 20
0.0
 30
0.0
  3
*UDIM230
  0
TEXT
  5
    AE
  8
0
  6
CONTINUOUS
 62
     7
 10
133.689869565271
 20
-79.0492467880249
 30
0.0
 40
3.00000002980232
  1
R min.200
 41
0.933333333333333
 72
     1
 11
145.98986968746
 21
-77.5492467731237
 31
0.0
 73
     2
  0
LINE
  5
    AF
  8
0
  6
CONTINUOUS
 62
     7
 10
125.124620689737
 20
-39.2703044849263
 30
0.0
 11
125.124620689737
 21
-82.0492467880249
 31
0.0
  0
LINE
  5
    B0
  8
0
  6
CONTINUOUS
 62
     7
 10
125.124620689737
 20
-80.0492467880249
 30
0.0
 11
164.618649893222
 21
-80.0492467880249
 31
0.0
  0
LINE
  5
    B1
  8
0
  6
CONTINUOUS
 62
     7
 10
128.079043966944
 20
-79.5283023580732
 30
0.0
 11
125.124620689737
 21
-80.0492467880249
 31
0.0
  0
LINE
  5
    B2
  8
0
  6
CONTINUOUS
 62
     7
 10
125.124620689737
 20
-80.0492467880249
 30
0.0
 11
128.079043966944
 21
-80.5701912179766
 31
0.0
  0
LINE
  5
    B3
  8
0
  6
CONTINUOUS
 62
     7
 10
161.664226616015
 20
-80.5701912179766
 30
0.0
 11
164.618649893222
 21
-80.0492467880249
 31
0.0
  0
LINE
  5
    B4
  8
0
  6
CONTINUOUS
 62
     7
 10
164.618649893222
 20
-80.0492467880249
 30
0.0
 11
161.664226616015
 21
-79.5283023580732
 31
0.0
  0
ENDBLK
  5
    B5
  8
0
  6
CONTINUOUS
 62
     7
  0
BLOCK
  5
    B6
  8
0
  6
CONTINUOUS
 62
     7
  2
*UDIM231
 70
    65
 10
0.0
 20
0.0
 30
0.0
  3
*UDIM231
  0
TEXT
  5
    B7
  8
0
  6
CONTINUOUS
 62
     7
 10
131.63063439782
 20
-10.9660797119141
 30
0.0
 40
3.00000002980232
  1
5
 41
0.933333333333334
 72
     1
 11
132.730634408748
 21
-9.4660796970129
 31
0.0
 73
     2
  0
LINE
  5
    B8
  8
0
  6
CONTINUOUS
 62
     7
 10
137.380633550441
 20
-19.2744834104613
 30
0.0
 11
137.380633550441
 21
-9.96607971191406
 31
0.0
  0
LINE
  5
    B9
  8
0
  6
CONTINUOUS
 62
     7
 10
139.880633550441
 20
-19.2744834104613
 30
0.0
 11
139.880633550441
 21
-9.96607971191406
 31
0.0
  0
LINE
  5
    BA
  8
0
  6
CONTINUOUS
 62
     7
 10
131.63063439782
 20
-11.9660797119141
 30
0.0
 11
139.880633550441
 21
-11.9660797119141
 31
0.0
  0
LINE
  5
    BB
  8
0
  6
CONTINUOUS
 62
     7
 10
134.426210273234
 20
-12.4870241418657
 30
0.0
 11
137.380633550441
 21
-11.9660797119141
 31
0.0
  0
LINE
  5
    BC
  8
0
  6
CONTINUOUS
 62
     7
 10
137.380633550441
 20
-11.9660797119141
 30
0.0
 11
134.426210273234
 21
-11.4451352819624
 31
0.0
  0
LINE
  5
    BD
  8
0
  6
CONTINUOUS
 62
     7
 10
142.835056827648
 20
-11.4451352819624
 30
0.0
 11
139.880633550441
 21
-11.9660797119141
 31
0.0
  0
LINE
  5
    BE
  8
0
  6
CONTINUOUS
 62
     7
 10
139.880633550441
 20
-11.9660797119141
 30
0.0
 11
142.835056827648
 21
-12.4870241418657
 31
0.0
  0
ENDBLK
  5
    BF
  8
0
  6
CONTINUOUS
 62
     7
  0
BLOCK
  5
    C0
  8
0
  6
CONTINUOUS
 62
     7
  2
*UDIM232
 70
    65
 10
0.0
 20
0.0
 30
0.0
  3
*UDIM232
  0
TEXT
  5
    C1
  8
0
  6
CONTINUOUS
 62
     7
 10
122.349622327871
 20
-46.1873168945313
 30
0.0
 40
3.00000002980232
  1
33
 41
0.933333333333333
 72
     1
 11
124.849622352707
 21
-44.6873168796301
 31
0.0
 73
     2
  0
LINE
  5
    C2
  8
0
  6
CONTINUOUS
 62
     7
 10
116.874620689737
 20
-32.7842090374081
 30
0.0
 11
116.874620689737
 21
-49.1873168945313
 31
0.0
  0
LINE
  5
    C3
  8
0
  6
CONTINUOUS
 62
     7
 10
133.374620689737
 20
-32.7842090374081
 30
0.0
 11
133.374620689737
 21
-49.1873168945313
 31
0.0
  0
LINE
  5
    C4
  8
0
  6
CONTINUOUS
 62
     7
 10
116.874620689737
 20
-47.1873168945312
 30
0.0
 11
133.374620689737
 21
-47.1873168945312
 31
0.0
  0
LINE
  5
    C5
  8
0
  6
CONTINUOUS
 62
     7
 10
119.829043966944
 20
-46.6663724645796
 30
0.0
 11
116.874620689737
 21
-47.1873168945312
 31
0.0
  0
LINE
  5
    C6
  8
0
  6
CONTINUOUS
 62
     7
 10
116.874620689737
 20
-47.1873168945312
 30
0.0
 11
119.829043966944
 21
-47.7082613244829
 31
0.0
  0
LINE
  5
    C7
  8
0
  6
CONTINUOUS
 62
     7
 10
130.42019741253
 20
-47.7082613244829
 30
0.0
 11
133.374620689737
 21
-47.1873168945312
 31
0.0
  0
LINE
  5
    C8
  8
0
  6
CONTINUOUS
 62
     7
 10
133.374620689737
 20
-47.1873168945312
 30
0.0
 11
130.42019741253
 21
-46.6663724645796
 31
0.0
  0
ENDBLK
  5
    C9
  8
0
  6
CONTINUOUS
 62
     7
  0
BLOCK
  5
    CA
  8
0
  6
CONTINUOUS
 62
     7
  2
*UDIM233
 70
    65
 10
0.0
 20
0.0
 30
0.0
  3
*UDIM233
  0
TEXT
  5
    CB
  8
0
  6
CONTINUOUS
 62
     7
 10
122.355638094257
 20
-72.1392078399658
 30
0.0
 40
3.00000002980232
  1
54
 41
0.933333333333333
 72
     1
 11
124.855638119092
 21
-70.6392078250647
 31
0.0
 73
     2
  0
LINE
  5
    CC
  8
0
  6
CONTINUOUS
 62
     7
 10
111.630633550441
 20
-73.1392078399658
 30
0.0
 11
138.630643057293
 21
-73.1392078399658
 31
0.0
  0
LINE
  5
    CD
  8
0
  6
CONTINUOUS
 62
     7
 10
114.585056827648
 20
-72.6182634100142
 30
0.0
 11
111.630633550441
 21
-73.1392078399658
 31
0.0
  0
LINE
  5
    CE
  8
0
  6
CONTINUOUS
 62
     7
 10
111.630633550441
 20
-73.1392078399658
 30
0.0
 11
114.585056827648
 21
-73.6601522699175
 31
0.0
  0
LINE
  5
    CF
  8
0
  6
CONTINUOUS
 62
     7
 10
135.676219780086
 20
-73.6601522699175
 30
0.0
 11
138.630643057293
 21
-73.1392078399658
 31
0.0
  0
LINE
  5
    D0
  8
0
  6
CONTINUOUS
 62
     7
 10
138.630643057293
 20
-73.1392078399658
 30
0.0
 11
135.676219780086
 21
-72.6182634100142
 31
0.0
  0
ENDBLK
  5
    D1
  8
0
  6
CONTINUOUS
 62
     7
  0
BLOCK
  5
    D2
  8
0
  6
CONTINUOUS
 62
     7
  2
*UDIM234
 70
    65
 10
0.0
 20
0.0
 30
0.0
  3
*UDIM234
  0
TEXT
  5
    D3
  8
0
  6
CONTINUOUS
 62
     7
 10
115.602628311189
 20
-66.0710029602051
 30
0.0
 40
3.00000002980232
  1
27
 41
0.933333333333333
 72
     1
 11
118.102628336024
 21
-64.5710029453039
 31
0.0
 73
     2
  0
LINE
  5
    D4
  8
0
  6
CONTINUOUS
 62
     7
 10
125.124620689737
 20
-39.2703044849263
 30
0.0
 11
125.124620689737
 21
-69.0710029602051
 31
0.0
  0
LINE
  5
    D5
  8
0
  6
CONTINUOUS
 62
     7
 10
111.630633550441
 20
-67.0710029602051
 30
0.0
 11
125.124620689737
 21
-67.0710029602051
 31
0.0
  0
LINE
  5
    D6
  8
0
  6
CONTINUOUS
 62
     7
 10
114.585056827648
 20
-66.5500585302534
 30
0.0
 11
111.630633550441
 21
-67.0710029602051
 31
0.0
  0
LINE
  5
    D7
  8
0
  6
CONTINUOUS
 62
     7
 10
111.630633550441
 20
-67.0710029602051
 30
0.0
 11
114.585056827648
 21
-67.5919473901568
 31
0.0
  0
LINE
  5
    D8
  8
0
  6
CONTINUOUS
 62
     7
 10
122.17019741253
 20
-67.5919473901568
 30
0.0
 11
125.124620689737
 21
-67.0710029602051
 31
0.0
  0
LINE
  5
    D9
  8
0
  6
CONTINUOUS
 62
     7
 10
125.124620689737
 20
-67.0710029602051
 30
0.0
 11
122.17019741253
 21
-66.5500585302534
 31
0.0
  0
ENDBLK
  5
    DA
  8
0
  6
CONTINUOUS
 62
     7
  0
BLOCK
  5
    DB
  8
0
  6
CONTINUOUS
 62
     7
  2
*UDIM235
 70
    65
 10
0.0
 20
0.0
 30
0.0
  3
*UDIM235
  0
TEXT
  5
    DC
  8
0
  6
CONTINUOUS
 62
     7
 10
171.653053283695
 20
-30.0345098902203
 30
0.0
 40
3.00000002980232
  1
46
 50
90.0
 41
0.933333333333333
 72
     1
 11
170.15305326879
 21
-27.5345098653869
 31
0.0
 73
     2
  0
LINE
  5
    DD
  8
0
  6
CONTINUOUS
 62
     7
 10
141.443141250056
 20
-43.2744834104613
 30
0.0
 11
174.653053283691
 21
-43.2744834104613
 31
0.0
  0
LINE
  5
    DE
  8
0
  6
CONTINUOUS
 62
     7
 10
141.443132394711
 20
-20.2744834104613
 30
0.0
 11
174.653053283691
 21
-20.2744834104613
 31
0.0
  0
LINE
  5
    DF
  8
0
  6
CONTINUOUS
 62
     7
 10
172.653053283691
 20
-43.2744834104613
 30
0.0
 11
172.653053283691
 21
-20.2744834104613
 31
0.0
  0
LINE
  5
    E0
  8
0
  6
CONTINUOUS
 62
     7
 10
172.13210885374
 20
-40.3200601332544
 30
0.0
 11
172.653053283691
 21
-43.2744834104613
 31
0.0
  0
LINE
  5
    E1
  8
0
  6
CONTINUOUS
 62
     7
 10
172.653053283691
 20
-43.2744834104613
 30
0.0
 11
173.173997713643
 21
-40.3200601332544
 31
0.0
  0
LINE
  5
    E2
  8
0
  6
CONTINUOUS
 62
     7
 10
173.173997713643
 20
-23.2289066876683
 30
0.0
 11
172.653053283691
 21
-20.2744834104613
 31
0.0
  0
LINE
  5
    E3
  8
0
  6
CONTINUOUS
 62
     7
 10
172.653053283691
 20
-20.2744834104613
 30
0.0
 11
172.13210885374
 21
-23.2289066876683
 31
0.0
  0
ENDBLK
  5
    E4
  8
0
  6
CONTINUOUS
 62
     7
  0
BLOCK
  5
    E5
  8
0
  6
CONTINUOUS
 62
     7
  2
*UDIM236
 70
    65
 10
0.0
 20
0.0
 30
0.0
  3
*UDIM236
  0
TEXT
  5
    E6
  8
0
  6
CONTINUOUS
 62
     7
 10
99.9752178192153
 20
-41.2094878842294
 30
0.0
 40
3.00000002980232
  1
=
 50
90.0
 41
0.933333333333334
 72
     1
 11
98.4752178043127
 21
-40.1094878733038
 31
0.0
 73
     2
  0
LINE
  5
    E7
  8
0
  6
CONTINUOUS
 62
     7
 10
108.818138365962
 20
-43.2744726532608
 30
0.0
 11
98.9752178192139
 21
-43.2744726532608
 31
0.0
  0
LINE
  5
    E8
  8
0
  6
CONTINUOUS
 62
     7
 10
105.45012153312
 20
-31.7842090374081
 30
0.0
 11
98.9752178192139
 21
-31.7842090374081
 31
0.0
  0
LINE
  5
    E9
  8
0
  6
CONTINUOUS
 62
     7
 10
100.975217819214
 20
-43.2744726532608
 30
0.0
 11
100.975217819214
 21
-31.7842090374081
 31
0.0
  0
LINE
  5
    EA
  8
0
  6
CONTINUOUS
 62
     7
 10
100.454273389262
 20
-40.3200493760539
 30
0.0
 11
100.975217819214
 21
-43.2744726532608
 31
0.0
  0
LINE
  5
    EB
  8
0
  6
CONTINUOUS
 62
     7
 10
100.975217819214
 20
-43.2744726532608
 30
0.0
 11
101.496162249166
 21
-40.3200493760539
 31
0.0
  0
LINE
  5
    EC
  8
0
  6
CONTINUOUS
 62
     7
 10
101.496162249166
 20
-34.738632314615
 30
0.0
 11
100.975217819214
 21
-31.7842090374081
 31
0.0
  0
LINE
  5
    ED
  8
0
  6
CONTINUOUS
 62
     7
 10
100.975217819214
 20
-31.7842090374081
 30
0.0
 11
100.454273389262
 21
-34.738632314615
 31
0.0
  0
ENDBLK
  5
    EE
  8
0
  6
CONTINUOUS
 62
     7
  0
BLOCK
  5
    EF
  8
0
  6
CONTINUOUS
 62
     7
  2
*UDIM237
 70
    65
 10
0.0
 20
0.0
 30
0.0
  3
*UDIM237
  0
TEXT
  5
    F0
  8
0
  6
CONTINUOUS
 62
     7
 10
99.9752178192153
 20
-28.8959464022984
 30
0.0
 40
3.00000002980232
  1
=
 50
90.0
 41
0.933333333333334
 72
     1
 11
98.4752178043127
 21
-27.7959463913728
 31
0.0
 73
     2
  0
LINE
  5
    F1
  8
0
  6
CONTINUOUS
 62
     7
 10
108.818112309583
 20
-20.2744913491735
 30
0.0
 11
98.9752178192139
 21
-20.2744913491735
 31
0.0
  0
LINE
  5
    F2
  8
0
  6
CONTINUOUS
 62
     7
 10
100.975217819214
 20
-31.7842090374081
 30
0.0
 11
100.975217819214
 21
-20.2744913491735
 31
0.0
  0
LINE
  5
    F3
  8
0
  6
CONTINUOUS
 62
     7
 10
100.454273389262
 20
-28.8297857602011
 30
0.0
 11
100.975217819214
 21
-31.7842090374081
 31
0.0
  0
LINE
  5
    F4
  8
0
  6
CONTINUOUS
 62
     7
 10
100.975217819214
 20
-31.7842090374081
 30
0.0
 11
101.496162249166
 21
-28.8297857602011
 31
0.0
  0
LINE
  5
    F5
  8
0
  6
CONTINUOUS
 62
     7
 10
101.496162249166
 20
-23.2289146263805
 30
0.0
 11
100.975217819214
 21
-20.2744913491735
 31
0.0
  0
LINE
  5
    F6
  8
0
  6
CONTINUOUS
 62
     7
 10
100.975217819214
 20
-20.2744913491735
 30
0.0
 11
100.454273389262
 21
-23.2289146263805
 31
0.0
  0
ENDBLK
  5
    F7
  8
0
  6
CONTINUOUS
 62
     7
  0
BLOCK
  5
    F8
  8
0
  6
CONTINUOUS
 62
     7
  2
*UDIM238
 70
    65
 10
0.0
 20
0.0
 30
0.0
  3
*UDIM238
  0
TEXT
  5
    F9
  8
0
  6
CONTINUOUS
 62
     7
 10
128.849622327871
 20
-5.21356201171875
 30
0.0
 40
3.00000002980232
  1
26
 41
0.933333333333333
 72
     1
 11
131.349622352707
 21
-3.71356199681759
 31
0.0
 73
     2
  0
LINE
  5
    FA
  8
0
  6
CONTINUOUS
 62
     7
 10
125.124620689737
 20
-18.9568331843966
 30
0.0
 11
125.124620689737
 21
-4.21356201171875
 31
0.0
  0
LINE
  5
    FB
  8
0
  6
CONTINUOUS
 62
     7
 10
125.124620689737
 20
-6.21356201171875
 30
0.0
 11
138.124620689737
 21
-6.21356201171875
 31
0.0
  0
LINE
  5
    FC
  8
0
  6
CONTINUOUS
 62
     7
 10
128.079043966944
 20
-5.69261758176708
 30
0.0
 11
125.124620689737
 21
-6.21356201171875
 31
0.0
  0
LINE
  5
    FD
  8
0
  6
CONTINUOUS
 62
     7
 10
125.124620689737
 20
-6.21356201171875
 30
0.0
 11
128.079043966944
 21
-6.73450644167042
 31
0.0
  0
LINE
  5
    FE
  8
0
  6
CONTINUOUS
 62
     7
 10
135.17019741253
 20
-6.73450644167042
 30
0.0
 11
138.124620689737
 21
-6.21356201171875
 31
0.0
  0
LINE
  5
    FF
  8
0
  6
CONTINUOUS
 62
     7
 10
138.124620689737
 20
-6.21356201171875
 30
0.0
 11
135.17019741253
 21
-5.69261758176708
 31
0.0
  0
ENDBLK
  5
   100
  8
0
  6
CONTINUOUS
 62
     7
  0
BLOCK
  5
   101
  8
0
  6
CONTINUOUS
 62
     7
  2
*UDIM239
 70
    65
 10
0.0
 20
0.0
 30
0.0
  3
*UDIM239
  0
TEXT
  5
   102
  8
0
  6
CONTINUOUS
 62
     7
 10
32.7025958205458
 20
-31.3776314467461
 30
0.0
 40
2.99999994933605
  1
R min.200
 50
359.999999896069
 41
0.933333333333333
 72
     1
 11
45.002595615537
 21
-29.8776314943278
 31
0.0
 73
     2
  0
LINE
  5
   103
  8
0
  6
CONTINUOUS
 62
     7
 10
71.599836626529
 20
-29.501472025071
 30
0.0
 11
71.599836626529
 21
-34.3776314689958
 31
0.0
  0
LINE
  5
   104
  8
0
  6
CONTINUOUS
 62
     7
 10
23.3866767765508
 20
-26.225248644597
 30
0.0
 11
23.3866767765508
 21
-34.3776314689958
 31
0.0
  0
LINE
  5
   105
  8
0
  6
CONTINUOUS
 62
     7
 10
71.599836626529
 20
-32.3776314689958
 30
0.0
 11
23.3866767765508
 21
-32.3776314689958
 31
0.0
  0
LINE
  5
   106
  8
0
  6
CONTINUOUS
 62
     7
 10
68.645413349322
 20
-32.8985758989475
 30
0.0
 11
71.599836626529
 21
-32.3776314689958
 31
0.0
  0
LINE
  5
   107
  8
0
  6
CONTINUOUS
 62
     7
 10
71.599836626529
 20
-32.3776314689958
 30
0.0
 11
68.645413349322
 21
-31.8566870390441
 31
0.0
  0
LINE
  5
   108
  8
0
  6
CONTINUOUS
 62
     7
 10
26.3411000537578
 20
-31.8566870390441
 30
0.0
 11
23.3866767765508
 21
-32.3776314689958
 31
0.0
  0
LINE
  5
   109
  8
0
  6
CONTINUOUS
 62
     7
 10
23.3866767765508
 20
-32.3776314689958
 30
0.0
 11
26.3411000537578
 21
-32.8985758989475
 31
0.0
  0
ENDBLK
  5
   10A
  8
0
  6
CONTINUOUS
 62
     7
  0
BLOCK
  5
   10B
  8
0
  6
CONTINUOUS
 62
     7
  2
*UDIM240
 70
    65
 10
0.0
 20
0.0
 30
0.0
  3
*UDIM240
  0
TEXT
  5
   10C
  8
0
  6
CONTINUOUS
 62
     7
 10
288.397181374626
 20
39.4728327838817
 30
0.0
 40
2.99999994933605
  1
 
 50
359.999999844103
 41
0.933333333333333
 72
     1
 11
289.497181360123
 21
40.9728327555623
 31
0.0
 73
     2
  0
LINE
  5
   10D
  8
0
  6
CONTINUOUS
 62
     7
 10
248.061224865139
 20
90.0797407760839
 30
0.0
 11
248.061224865139
 21
36.4728327808943
 31
0.0
  0
LINE
  5
   10E
  8
0
  6
CONTINUOUS
 62
     7
 10
345.233141119952
 20
90.8797407880048
 30
0.0
 11
345.233141119952
 21
36.4728327808943
 31
0.0
  0
LINE
  5
   10F
  8
0
  6
CONTINUOUS
 62
     7
 10
248.061224865139
 20
38.4728327808943
 30
0.0
 11
345.233141119952
 21
38.4728327808943
 31
0.0
  0
LINE
  5
   110
  8
0
  6
CONTINUOUS
 62
     7
 10
251.015648142346
 20
38.9937772108459
 30
0.0
 11
248.061224865139
 21
38.4728327808943
 31
0.0
  0
LINE
  5
   111
  8
0
  6
CONTINUOUS
 62
     7
 10
248.061224865139
 20
38.4728327808943
 30
0.0
 11
251.015648142346
 21
37.9518883509426
 31
0.0
  0
LINE
  5
   112
  8
0
  6
CONTINUOUS
 62
     7
 10
342.278717842745
 20
37.9518883509426
 30
0.0
 11
345.233141119952
 21
38.4728327808943
 31
0.0
  0
LINE
  5
   113
  8
0
  6
CONTINUOUS
 62
     7
 10
345.233141119952
 20
38.4728327808943
 30
0.0
 11
342.278717842745
 21
38.9937772108459
 31
0.0
  0
ENDBLK
  5
   114
  8
0
  6
CONTINUOUS
 62
     7
  0
BLOCK
  5
   115
  8
0
  6
CONTINUOUS
 62
     7
  2
*UDIM241
 70
    65
 10
0.0
 20
0.0
 30
0.0
  3
*UDIM241
  0
TEXT
  5
   116
  8
0
  6
CONTINUOUS
 62
     7
 10
281.197181267338
 20
144.528302717861
 30
0.0
 40
2.99999994933605
  1
 
 50
359.999999844103
 41
0.933333333333333
 72
     1
 11
282.297181252835
 21
146.028302689541
 31
0.0
 73
     2
  0
LINE
  5
   117
  8
0
  6
CONTINUOUS
 62
     7
 10
241.261224763811
 20
110.377325582316
 30
0.0
 11
241.261224763811
 21
145.528302714873
 31
0.0
  0
LINE
  5
   118
  8
0
  6
CONTINUOUS
 62
     7
 10
337.633141006703
 20
136.813059783247
 30
0.0
 11
337.633141006703
 21
145.528302714873
 31
0.0
  0
LINE
  5
   119
  8
0
  6
CONTINUOUS
 62
     7
 10
241.261224763811
 20
143.528302714873
 30
0.0
 11
337.633141006703
 21
143.528302714873
 31
0.0
  0
LINE
  5
   11A
  8
0
  6
CONTINUOUS
 62
     7
 10
244.215648041018
 20
144.049247144825
 30
0.0
 11
241.261224763811
 21
143.528302714873
 31
0.0
  0
LINE
  5
   11B
  8
0
  6
CONTINUOUS
 62
     7
 10
241.261224763811
 20
143.528302714873
 30
0.0
 11
244.215648041018
 21
143.007358284921
 31
0.0
  0
LINE
  5
   11C
  8
0
  6
CONTINUOUS
 62
     7
 10
334.678717729496
 20
143.007358284921
 30
0.0
 11
337.633141006703
 21
143.528302714873
 31
0.0
  0
LINE
  5
   11D
  8
0
  6
CONTINUOUS
 62
     7
 10
337.633141006703
 20
143.528302714873
 30
0.0
 11
334.678717729496
 21
144.049247144825
 31
0.0
  0
ENDBLK
  5
   11E
  8
0
  6
CONTINUOUS
 62
     7
  0
BLOCK
  5
   11F
  8
0
  6
CONTINUOUS
 62
     7
  2
*UDIM242
 70
    65
 10
0.0
 20
0.0
 30
0.0
  3
*UDIM242
  0
TEXT
  5
   120
  8
0
  6
CONTINUOUS
 62
     7
 10
341.958138207643
 20
144.528302729267
 30
0.0
 40
2.99999994933605
  1
49,5
 50
359.999999844103
 41
0.933333333333333
 72
     1
 11
347.25813812221
 21
146.028302689541
 31
0.0
 73
     2
  0
LINE
  5
   121
  8
0
  6
CONTINUOUS
 62
     7
 10
337.633141006703
 20
136.813059783247
 30
0.0
 11
337.633141006703
 21
145.528302714873
 31
0.0
  0
LINE
  5
   122
  8
0
  6
CONTINUOUS
 62
     7
 10
357.433141301746
 20
103.079740939997
 30
0.0
 11
357.433141301746
 21
145.528302714873
 31
0.0
  0
LINE
  5
   123
  8
0
  6
CONTINUOUS
 62
     7
 10
337.633141006703
 20
143.528302714873
 30
0.0
 11
357.433141301746
 21
143.528302714873
 31
0.0
  0
LINE
  5
   124
  8
0
  6
CONTINUOUS
 62
     7
 10
340.58756428391
 20
144.049247144825
 30
0.0
 11
337.633141006703
 21
143.528302714873
 31
0.0
  0
LINE
  5
   125
  8
0
  6
CONTINUOUS
 62
     7
 10
337.633141006703
 20
143.528302714873
 30
0.0
 11
340.58756428391
 21
143.007358284921
 31
0.0
  0
LINE
  5
   126
  8
0
  6
CONTINUOUS
 62
     7
 10
354.478718024539
 20
143.007358284921
 30
0.0
 11
357.433141301746
 21
143.528302714873
 31
0.0
  0
LINE
  5
   127
  8
0
  6
CONTINUOUS
 62
     7
 10
357.433141301746
 20
143.528302714873
 30
0.0
 11
354.478718024539
 21
144.049247144825
 31
0.0
  0
ENDBLK
  5
   128
  8
0
  6
CONTINUOUS
 62
     7
  0
BLOCK
  5
   129
  8
0
  6
CONTINUOUS
 62
     7
  2
*UDIM243
 70
    65
 10
0.0
 20
0.0
 30
0.0
  3
*UDIM243
  0
TEXT
  5
   12A
  8
0
  6
CONTINUOUS
 62
     7
 10
241.440866756255
 20
120.842737178404
 30
0.0
 40
2.99999994933605
  1
17
 50
359.999999844103
 41
0.933333333333333
 72
     1
 11
243.940866718108
 21
122.342737146282
 31
0.0
 73
     2
  0
LINE
  5
   12B
  8
0
  6
CONTINUOUS
 62
     7
 10
241.261224763811
 20
110.377325582316
 30
0.0
 11
241.261224763811
 21
121.842737171614
 31
0.0
  0
LINE
  5
   12C
  8
0
  6
CONTINUOUS
 62
     7
 10
248.061224865139
 20
96.0797408356885
 30
0.0
 11
248.061224865139
 21
121.842737171614
 31
0.0
  0
LINE
  5
   12D
  8
0
  6
CONTINUOUS
 62
     7
 10
241.261224763811
 20
119.842737171614
 30
0.0
 11
248.061224865139
 21
119.842737171614
 31
0.0
  0
LINE
  5
   12E
  8
0
  6
CONTINUOUS
 62
     7
 10
238.306801486604
 20
119.321792741662
 30
0.0
 11
241.261224763811
 21
119.842737171614
 31
0.0
  0
LINE
  5
   12F
  8
0
  6
CONTINUOUS
 62
     7
 10
241.261224763811
 20
119.842737171614
 30
0.0
 11
238.306801486604
 21
120.363681601565
 31
0.0
  0
LINE
  5
   130
  8
0
  6
CONTINUOUS
 62
     7
 10
251.015648142346
 20
120.363681601565
 30
0.0
 11
248.061224865139
 21
119.842737171614
 31
0.0
  0
LINE
  5
   131
  8
0
  6
CONTINUOUS
 62
     7
 10
248.061224865139
 20
119.842737171614
 30
0.0
 11
251.015648142346
 21
119.321792741662
 31
0.0
  0
ENDBLK
  5
   132
  8
0
  6
CONTINUOUS
 62
     7
  0
BLOCK
  5
   133
  8
0
  6
CONTINUOUS
 62
     7
  2
*UDIM244
 70
    65
 10
0.0
 20
0.0
 30
0.0
  3
*UDIM244
  0
TEXT
  5
   134
  8
0
  6
CONTINUOUS
 62
     7
 10
338.706380305362
 20
120.991138059521
 30
0.0
 40
2.99999994933605
  1
19
 50
359.999999844103
 41
0.933333333333333
 72
     1
 11
341.206380267216
 21
122.491138027399
 31
0.0
 73
     2
  0
LINE
  5
   135
  8
0
  6
CONTINUOUS
 62
     7
 10
345.233141119952
 20
95.2797408237676
 30
0.0
 11
345.233141119952
 21
121.991138052731
 31
0.0
  0
LINE
  5
   136
  8
0
  6
CONTINUOUS
 62
     7
 10
337.633141006703
 20
119.991138052731
 30
0.0
 11
345.233141119952
 21
119.991138052731
 31
0.0
  0
LINE
  5
   137
  8
0
  6
CONTINUOUS
 62
     7
 10
340.58756428391
 20
120.512082482683
 30
0.0
 11
337.633141006703
 21
119.991138052731
 31
0.0
  0
LINE
  5
   138
  8
0
  6
CONTINUOUS
 62
     7
 10
337.633141006703
 20
119.991138052731
 30
0.0
 11
340.58756428391
 21
119.47019362278
 31
0.0
  0
LINE
  5
   139
  8
0
  6
CONTINUOUS
 62
     7
 10
342.278717842745
 20
119.47019362278
 30
0.0
 11
345.233141119952
 21
119.991138052731
 31
0.0
  0
LINE
  5
   13A
  8
0
  6
CONTINUOUS
 62
     7
 10
345.233141119952
 20
119.991138052731
 30
0.0
 11
342.278717842745
 21
120.512082482683
 31
0.0
  0
ENDBLK
  5
   13B
  8
0
  6
CONTINUOUS
 62
     7
  0
BLOCK
  5
   13C
  8
0
  6
CONTINUOUS
 62
     7
  2
*UDIM245
 70
    65
 10
0.0
 20
0.0
 30
0.0
  3
*UDIM245
  0
TEXT
  5
   13D
  8
0
  6
CONTINUOUS
 62
     7
 10
213.586227755144
 20
144.5283027283
 30
0.0
 40
2.99999994933605
  1
103,5
 50
359.999999844103
 41
0.933333333333333
 72
     1
 11
220.286227646068
 21
146.028302684771
 31
0.0
 73
     2
  0
LINE
  5
   13E
  8
0
  6
CONTINUOUS
 62
     7
 10
199.861230250419
 20
142.306617720473
 30
0.0
 11
199.861230250419
 21
145.528302710103
 31
0.0
  0
LINE
  5
   13F
  8
0
  6
CONTINUOUS
 62
     7
 10
241.261224763811
 20
110.377325582316
 30
0.0
 11
241.261224763811
 21
145.528302710103
 31
0.0
  0
LINE
  5
   140
  8
0
  6
CONTINUOUS
 62
     7
 10
199.861230250419
 20
143.528302710103
 30
0.0
 11
241.261224763811
 21
143.528302710103
 31
0.0
  0
LINE
  5
   141
  8
0
  6
CONTINUOUS
 62
     7
 10
202.815653527626
 20
144.049247140055
 30
0.0
 11
199.861230250419
 21
143.528302710103
 31
0.0
  0
LINE
  5
   142
  8
0
  6
CONTINUOUS
 62
     7
 10
199.861230250419
 20
143.528302710103
 30
0.0
 11
202.815653527626
 21
143.007358280151
 31
0.0
  0
LINE
  5
   143
  8
0
  6
CONTINUOUS
 62
     7
 10
238.306801486604
 20
143.007358280151
 30
0.0
 11
241.261224763811
 21
143.528302710103
 31
0.0
  0
LINE
  5
   144
  8
0
  6
CONTINUOUS
 62
     7
 10
241.261224763811
 20
143.528302710103
 30
0.0
 11
238.306801486604
 21
144.049247140055
 31
0.0
  0
ENDBLK
  5
   145
  8
0
  6
CONTINUOUS
 62
     7
  0
BLOCK
  5
   146
  8
0
  6
CONTINUOUS
 62
     7
  2
*UDIM246
 70
    65
 10
0.0
 20
0.0
 30
0.0
  3
*UDIM246
  0
TEXT
  5
   147
  8
0
  6
CONTINUOUS
 62
     7
 10
340.633138030543
 20
55.764055021992
 30
0.0
 40
2.99999994933605
  1
2
 50
359.999999844103
 41
0.933333333333333
 72
     1
 11
341.73313801604
 21
57.2640549936725
 31
0.0
 73
     2
  0
LINE
  5
   148
  8
0
  6
CONTINUOUS
 62
     7
 10
336.833140994782
 20
61.9452672119991
 30
0.0
 11
336.833140994782
 21
52.7640550190045
 31
0.0
  0
LINE
  5
   149
  8
0
  6
CONTINUOUS
 62
     7
 10
337.633141006703
 20
66.4798884957258
 30
0.0
 11
337.633141006703
 21
52.7640550190045
 31
0.0
  0
LINE
  5
   14A
  8
0
  6
CONTINUOUS
 62
     7
 10
336.833140994782
 20
54.7640550190045
 30
0.0
 11
342.833137997463
 21
54.7640550190045
 31
0.0
  0
LINE
  5
   14B
  8
0
  6
CONTINUOUS
 62
     7
 10
333.878717717575
 20
54.2431105890529
 30
0.0
 11
336.833140994782
 21
54.7640550190045
 31
0.0
  0
LINE
  5
   14C
  8
0
  6
CONTINUOUS
 62
     7
 10
336.833140994782
 20
54.7640550190045
 30
0.0
 11
333.878717717575
 21
55.2849994489562
 31
0.0
  0
LINE
  5
   14D
  8
0
  6
CONTINUOUS
 62
     7
 10
340.58756428391
 20
55.2849994489562
 30
0.0
 11
337.633141006703
 21
54.7640550190045
 31
0.0
  0
LINE
  5
   14E
  8
0
  6
CONTINUOUS
 62
     7
 10
337.633141006703
 20
54.7640550190045
 30
0.0
 11
340.58756428391
 21
54.2431105890529
 31
0.0
  0
ENDBLK
  5
   14F
  8
0
  6
CONTINUOUS
 62
     7
  0
BLOCK
  5
   150
  8
0
  6
CONTINUOUS
 62
     7
  2
*UDIM247
 70
    65
 10
0.0
 20
0.0
 30
0.0
  3
*UDIM247
  0
TEXT
  5
   151
  8
0
  6
CONTINUOUS
 62
     7
 10
359.70638060081
 20
144.528302716893
 30
0.0
 40
2.99999994933605
  1
22
 50
359.999999844103
 41
0.933333333333333
 72
     1
 11
362.206380562664
 21
146.028302684771
 31
0.0
 73
     2
  0
LINE
  5
   152
  8
0
  6
CONTINUOUS
 62
     7
 10
357.433141301746
 20
98.2240664394077
 30
0.0
 11
357.433141301746
 21
145.528302710103
 31
0.0
  0
LINE
  5
   153
  8
0
  6
CONTINUOUS
 62
     7
 10
366.226811003083
 20
82.6156022497928
 30
0.0
 11
366.226811003083
 21
145.528302710103
 31
0.0
  0
LINE
  5
   154
  8
0
  6
CONTINUOUS
 62
     7
 10
357.433141301746
 20
143.528302710103
 30
0.0
 11
366.226811003083
 21
143.528302710103
 31
0.0
  0
LINE
  5
   155
  8
0
  6
CONTINUOUS
 62
     7
 10
354.478718024539
 20
143.007358280151
 30
0.0
 11
357.433141301746
 21
143.528302710103
 31
0.0
  0
LINE
  5
   156
  8
0
  6
CONTINUOUS
 62
     7
 10
357.433141301746
 20
143.528302710103
 30
0.0
 11
354.478718024539
 21
144.049247140055
 31
0.0
  0
LINE
  5
   157
  8
0
  6
CONTINUOUS
 62
     7
 10
369.18123428029
 20
144.049247140055
 30
0.0
 11
366.226811003083
 21
143.528302710103
 31
0.0
  0
LINE
  5
   158
  8
0
  6
CONTINUOUS
 62
     7
 10
366.226811003083
 20
143.528302710103
 30
0.0
 11
369.18123428029
 21
143.007358280151
 31
0.0
  0
ENDBLK
  5
   159
  8
0
  6
CONTINUOUS
 62
     7
  0
ENDSEC
  0
SECTION
  2
ENTITIES
  0
LINE
  5
   15A
  8
0
  6
CONTINUOUS
 62
     2
 10
49.3865922560576
 20
90.6823119371334
 30
0.0
 11
49.3865922560576
 21
95.4823120086589
 31
0.0
  0
LINE
  5
   15B
  8
0
  6
CONTINUOUS
 62
     2
 10
22.8641950102572
 20
99.4823120682636
 30
0.0
 11
45.386592196453
 21
99.4823120682636
 31
0.0
  0
LINE
  5
   15C
  8
0
  6
CONTINUOUS
 62
     2
 10
22.8641950102572
 20
86.6823118775287
 30
0.0
 11
45.386592196453
 21
86.6823118775287
 31
0.0
  0
LINE
  5
   15D
  8
0
  6
CONTINUOUS
 62
     2
 10
20.0665905984524
 20
91.3823119475642
 30
0.0
 11
20.0665905984524
 21
94.7823119982281
 31
0.0
  0
LINE
  5
   15E
  8
0
  6
CONTINUOUS
 62
     2
 10
16.7865925886841
 20
93.0823127811169
 30
0.0
 11
20.0665913967103
 21
94.7823127688806
 31
0.0
  0
LINE
  5
   15F
  8
0
  6
CONTINUOUS
 62
     2
 10
16.7865921348107
 20
93.0823125108624
 30
0.0
 11
20.0665909428369
 21
91.3823125230987
 31
0.0
  0
LINE
  5
   160
  8
0
  6
CONTINUOUS
 62
     2
 10
17.6865917836908
 20
96.7823120280305
 30
0.0
 11
36.0865920578722
 21
96.7823120280305
 31
0.0
  0
LINE
  5
   161
  8
0
  6
CONTINUOUS
 62
     2
 10
17.6865917836908
 20
89.3823119177619
 30
0.0
 11
36.0865920578722
 21
89.3823119177619
 31
0.0
  0
LINE
  5
   162
  8
0
  6
CONTINUOUS
 62
     2
 10
17.6865917836908
 20
96.38231202207
 30
0.0
 11
36.0865920578722
 21
96.38231202207
 31
0.0
  0
LINE
  5
   163
  8
0
  6
CONTINUOUS
 62
     2
 10
17.6865917836908
 20
89.7823119237223
 30
0.0
 11
36.0865920578722
 21
89.7823119237223
 31
0.0
  0
LINE
  5
   164
  8
0
  6
CONTINUOUS
 62
   253
 10
27.1566030942492
 20
104.685187876698
 30
0.0
 11
27.1618826354241
 21
104.682496226209
 31
0.0
  0
LINE
  5
   165
  8
0
  6
CONTINUOUS
 62
   253
 10
19.6113049235605
 20
104.68249522659
 30
0.0
 11
19.6165875165446
 21
104.68518687702
 31
0.0
  0
LINE
  5
   166
  8
0
  6
CONTINUOUS
 62
   253
 10
10.7866618713035
 20
109.482495322747
 30
0.0
 11
51.9866655369892
 21
109.482495322747
 31
0.0
  0
LINE
  5
   167
  8
0
  6
CONTINUOUS
 62
   253
 10
10.5038195558947
 20
109.365339234953
 30
0.0
 11
10.7866625777371
 21
109.482496219325
 31
0.0
  0
LINE
  5
   168
  8
0
  6
CONTINUOUS
 62
   253
 10
10.3866623949053
 20
109.08249670613
 30
0.0
 11
10.5038193792775
 21
109.365339727972
 31
0.0
  0
LINE
  5
   169
  8
0
  6
CONTINUOUS
 62
   253
 10
10.3866618653431
 20
67.8824458747326
 30
0.0
 11
10.3866618653431
 21
109.082495316786
 31
0.0
  0
LINE
  5
   16A
  8
0
  6
CONTINUOUS
 62
   253
 10
10.3866620587857
 20
67.882446253736
 30
0.0
 11
10.5038190431579
 21
67.5996032318936
 31
0.0
  0
LINE
  5
   16B
  8
0
  6
CONTINUOUS
 62
   253
 10
10.5038180229429
 20
67.5996024010937
 30
0.0
 11
10.7866610520095
 21
67.4824820385628
 31
0.0
  0
LINE
  5
   16C
  8
0
  6
CONTINUOUS
 62
   253
 10
10.7866618713035
 20
67.4824824898665
 30
0.0
 11
51.9866655369892
 21
67.4824824898665
 31
0.0
  0
LINE
  5
   16D
  8
0
  6
CONTINUOUS
 62
   253
 10
51.9866624327907
 20
67.4824812915401
 30
0.0
 11
52.2695054618573
 21
67.599601654071
 31
0.0
  0
LINE
  5
   16E
  8
0
  6
CONTINUOUS
 62
   253
 10
52.2695094511914
 20
67.5996035668227
 30
0.0
 11
52.3866664355636
 21
67.8824465886651
 31
0.0
  0
LINE
  5
   16F
  8
0
  6
CONTINUOUS
 62
   253
 10
52.3866655429497
 20
67.8824458747326
 30
0.0
 11
52.3866655429497
 21
109.082495316786
 31
0.0
  0
LINE
  5
   170
  8
0
  6
CONTINUOUS
 62
   253
 10
52.2695091150718
 20
109.365339393043
 30
0.0
 11
52.386666099444
 21
109.082496371201
 31
0.0
  0
LINE
  5
   171
  8
0
  6
CONTINUOUS
 62
   253
 10
51.9866665803687
 20
109.482495886741
 30
0.0
 11
52.2695096022111
 21
109.365338902369
 31
0.0
  0
LINE
  5
   172
  8
0
  6
CONTINUOUS
 62
   253
 10
48.1215714852542
 20
98.3824402257024
 30
0.0
 11
52.3452470853013
 21
98.3824402257024
 31
0.0
  0
LINE
  5
   173
  8
0
  6
CONTINUOUS
 62
   253
 10
47.6002885185021
 20
98.7824402316628
 30
0.0
 11
52.3452470853013
 21
98.7824402316628
 31
0.0
  0
LINE
  5
   174
  8
0
  6
CONTINUOUS
 62
   253
 10
17.6922558462752
 20
67.5238978957571
 30
0.0
 11
17.6922558462752
 21
84.2335172853748
 31
0.0
  0
LINE
  5
   175
  8
0
  6
CONTINUOUS
 62
   253
 10
18.0922558522357
 20
67.5238978957571
 30
0.0
 11
18.0922558522357
 21
84.0297056368299
 31
0.0
  0
LINE
  5
   176
  8
0
  6
CONTINUOUS
 62
   253
 10
47.6006242118665
 20
87.3824431135474
 30
0.0
 11
52.3452470853013
 21
87.3824431135474
 31
0.0
  0
LINE
  5
   177
  8
0
  6
CONTINUOUS
 62
   253
 10
48.1219132821343
 20
87.7824431195079
 30
0.0
 11
52.3452470853013
 21
87.7824431195079
 31
0.0
  0
LINE
  5
   178
  8
0
  6
CONTINUOUS
 62
   253
 10
28.692256010188
 20
67.5238978957571
 30
0.0
 11
28.692256010188
 21
84.0354734591815
 31
0.0
  0
LINE
  5
   179
  8
0
  6
CONTINUOUS
 62
   253
 10
29.0922560161484
 20
67.5238978957571
 30
0.0
 11
29.0922560161484
 21
84.2392851077263
 31
0.0
  0
LINE
  5
   17A
  8
0
  6
CONTINUOUS
 62
   253
 10
11.2866008435969
 20
104.682495251221
 30
0.0
 11
51.4866044943815
 21
104.682495251221
 31
0.0
  0
LINE
  5
   17B
  8
0
  6
CONTINUOUS
 62
   253
 10
11.2866008435969
 20
108.682495310826
 30
0.0
 11
51.4866044943815
 21
108.682495310826
 31
0.0
  0
LINE
  5
   17C
  8
0
  6
CONTINUOUS
 62
   253
 10
11.2866008435969
 20
104.682495251221
 30
0.0
 11
11.2866008435969
 21
108.682495310826
 31
0.0
  0
LINE
  5
   17D
  8
0
  6
CONTINUOUS
 62
   253
 10
51.4866044943815
 20
104.682495251221
 30
0.0
 11
51.4866044943815
 21
108.682495310826
 31
0.0
  0
LINE
  5
   17E
  8
0
  6
CONTINUOUS
 62
   253
 10
10.8866618727936
 20
67.9824947043485
 30
0.0
 11
10.8866618727936
 21
108.982495315296
 31
0.0
  0
LINE
  5
   17F
  8
0
  6
CONTINUOUS
 62
   253
 10
51.8866655354991
 20
67.9824947043485
 30
0.0
 11
51.8866655354991
 21
87.3824431135474
 31
0.0
  0
LINE
  5
   180
  8
0
  6
CONTINUOUS
 62
   253
 10
51.8866655354991
 20
87.7824431195079
 30
0.0
 11
51.8866655354991
 21
98.3824402257024
 31
0.0
  0
LINE
  5
   181
  8
0
  6
CONTINUOUS
 62
   253
 10
51.8866655354991
 20
98.7824402316628
 30
0.0
 11
51.8866655354991
 21
108.982495315296
 31
0.0
  0
LINE
  5
   182
  8
0
  6
CONTINUOUS
 62
   253
 10
10.8866618727936
 20
67.9824947043485
 30
0.0
 11
17.6922558462752
 21
67.9824947043485
 31
0.0
  0
LINE
  5
   183
  8
0
  6
CONTINUOUS
 62
   253
 10
10.5331111927201
 20
67.6289440551471
 30
0.0
 11
10.8866649832255
 21
67.9824978456526
 31
0.0
  0
LINE
  5
   184
  8
0
  6
CONTINUOUS
 62
   253
 10
18.0922558522357
 20
67.9824947043485
 30
0.0
 11
28.692256010188
 21
67.9824947043485
 31
0.0
  0
LINE
  5
   185
  8
0
  6
CONTINUOUS
 62
   253
 10
51.8866605396623
 20
67.9824945132586
 30
0.0
 11
52.2402127837213
 21
67.6289407492827
 31
0.0
  0
LINE
  5
   186
  8
0
  6
CONTINUOUS
 62
   253
 10
29.0922560161484
 20
67.9824947043485
 30
0.0
 11
51.8866655354991
 21
67.9824947043485
 31
0.0
  0
LINE
  5
   187
  8
0
  6
CONTINUOUS
 62
   253
 10
52.2402117551099
 20
67.6289407507081
 30
0.0
 11
52.2695025259079
 21
67.5996026771358
 31
0.0
  0
LINE
  5
   188
  8
0
  6
CONTINUOUS
 62
   253
 10
10.503816591714
 20
67.5996005704591
 30
0.0
 11
10.533105836744
 21
67.628938644084
 31
0.0
  0
LINE
  5
   189
  8
0
  6
CONTINUOUS
 62
   253
 10
10.5038188236898
 20
109.365336896059
 30
0.0
 11
10.5331080699863
 21
109.336046123943
 31
0.0
  0
LINE
  5
   18A
  8
0
  6
CONTINUOUS
 62
   253
 10
52.2402264569401
 20
109.336056267609
 30
0.0
 11
52.2695172293658
 21
109.365347040035
 31
0.0
  0
LINE
  5
   18B
  8
0
  6
CONTINUOUS
 62
   253
 10
10.8866618727936
 20
108.982495315296
 30
0.0
 11
51.8866655354991
 21
108.982495315296
 31
0.0
  0
LINE
  5
   18C
  8
0
  6
CONTINUOUS
 62
   253
 10
51.8866633397319
 20
108.982493111664
 30
0.0
 11
52.2402155831484
 21
109.336045355081
 31
0.0
  0
LINE
  5
   18D
  8
0
  6
CONTINUOUS
 62
   253
 10
10.5331079721925
 20
109.336042509054
 30
0.0
 11
10.8866617361683
 21
108.982490264995
 31
0.0
  0
LINE
  5
   18E
  8
0
  6
CONTINUOUS
 62
   253
 10
52.3452470853013
 20
98.3824402257024
 30
0.0
 11
52.3452470853013
 21
98.7824402316628
 31
0.0
  0
LINE
  5
   18F
  8
0
  6
CONTINUOUS
 62
   253
 10
17.6922558462752
 20
67.5238978957571
 30
0.0
 11
18.0922558522357
 21
67.5238978957571
 31
0.0
  0
LINE
  5
   190
  8
0
  6
CONTINUOUS
 62
   253
 10
52.3452470853013
 20
87.3824431135474
 30
0.0
 11
52.3452470853013
 21
87.7824431195079
 31
0.0
  0
LINE
  5
   191
  8
0
  6
CONTINUOUS
 62
   253
 10
28.692256010188
 20
67.5238978957571
 30
0.0
 11
29.0922560161484
 21
67.5238978957571
 31
0.0
  0
ARC
  5
   192
  8
0
  6
CONTINUOUS
 62
     2
 10
17.6865756358057
 20
93.0823105991191
 30
0.0
 40
3.29998506130761
 50
89.9997574796363
 51
270.000250482601
  0
ARC
  5
   193
  8
0
  6
CONTINUOUS
 62
     2
 10
17.6866053268765
 20
93.0823049361316
 30
0.0
 40
3.70001714367163
 50
90.0001932489997
 51
269.999763120494
  0
ARC
  5
   194
  8
0
  6
CONTINUOUS
 62
     2
 10
45.3865885577448
 20
95.4823046648636
 30
0.0
 40
4.00000729549032
 50
8.21419338467594E-5
 51
90.0000033062939
  0
ARC
  5
   195
  8
0
  6
CONTINUOUS
 62
     2
 10
45.3865846376778
 20
90.6823141209718
 30
0.0
 40
4.00000469542487
 50
270.000046327669
 51
360.000016340537
  0
ARC
  5
   196
  8
0
  6
CONTINUOUS
 62
     2
 10
36.0866306050524
 20
93.0823127908067
 30
0.0
 40
3.29996254364651
 50
269.999387761431
 51
450.000619902673
  0
ARC
  5
   197
  8
0
  6
CONTINUOUS
 62
     2
 10
36.0865620091302
 20
93.0822918063056
 30
0.0
 40
3.70003408886861
 50
270.000411304564
 51
449.999511758832
  0
ARC
  5
   198
  8
0
  6
CONTINUOUS
 62
     2
 10
23.3865911553169
 20
93.0822733774547
 30
0.0
 40
10.6000380255623
 50
227.166100099287
 51
322.85977520525
  0
ARC
  5
   199
  8
0
  6
CONTINUOUS
 62
     2
 10
17.2677961041547
 20
99.6822449447664
 30
0.0
 40
1.6000690949032
 50
54.3414681662846
 51
132.833850849461
  0
ARC
  5
   19A
  8
0
  6
CONTINUOUS
 62
     2
 10
22.8642086618539
 20
107.482383978729
 30
0.0
 40
8.00007174486508
 50
234.341468166284
 51
270.0
  0
ARC
  5
   19B
  8
0
  6
CONTINUOUS
 62
     2
 10
17.2677481334568
 20
86.4823612440379
 30
0.0
 40
1.60005077185319
 50
227.166218826372
 51
305.65853878589
  0
ARC
  5
   19C
  8
0
  6
CONTINUOUS
 62
     2
 10
22.8642862585291
 20
78.6820491956795
 30
0.0
 40
8.00027640266929
 50
90.0
 51
125.65853878589
  0
ARC
  5
   19D
  8
0
  6
CONTINUOUS
 62
     2
 10
23.3866247223943
 20
93.0823370145856
 30
0.0
 40
10.6000399522321
 50
132.833850849461
 51
227.166218826372
  0
ARC
  5
   19E
  8
0
  6
CONTINUOUS
 62
     2
 10
23.3865911553169
 20
93.0822733774547
 30
0.0
 40
10.6000380255623
 50
37.1407481988091
 51
132.833418703905
  0
LINE
  5
   19F
  8
0
  6
CONTINUOUS
 62
     1
 10
7.18669538699576
 20
138.579895658676
 30
0.0
 11
24.3366769394689
 21
138.579895658676
 31
0.0
  0
LINE
  5
   1A0
  8
0
  6
CONTINUOUS
 62
     1
 10
43.2366772211009
 20
138.579895658676
 30
0.0
 11
60.3866900762218
 21
138.579895658676
 31
0.0
  0
LINE
  5
   1A1
  8
0
  6
CONTINUOUS
 62
     1
 10
61.7866900970835
 20
128.97990161914
 30
0.0
 11
61.7866900970835
 21
137.459895641986
 31
0.0
  0
LINE
  5
   1A2
  8
0
  6
CONTINUOUS
 62
     1
 10
5.78669536445057
 20
128.97990161914
 30
0.0
 11
5.78669536445057
 21
137.459895641986
 31
0.0
  0
CIRCLE
  5
   1A3
  8
0
  6
CONTINUOUS
 62
     7
 10
16.2866991518833
 20
131.379917197811
 30
0.0
 40
2.200004872588
  0
CIRCLE
  5
   1A4
  8
0
  6
CONTINUOUS
 62
     7
 10
33.7866986957991
 20
131.379945677656
 30
0.0
 40
2.19996979190144
  0
CIRCLE
  5
   1A5
  8
0
  6
CONTINUOUS
 62
     7
 10
51.2866720970964
 20
131.37986134492
 30
0.0
 40
2.20004292209185
  0
ARC
  5
   1A6
  8
0
  6
CONTINUOUS
 62
     1
 10
7.18668474472759
 20
138.179888813117
 30
0.0
 40
0.399992741577583
 50
89.9994296869838
 51
180.000998362904
  0
ARC
  5
   1A7
  8
0
  6
CONTINUOUS
 62
     1
 10
60.3866774552764
 20
138.17988307753
 30
0.0
 40
0.40000956246098
 50
5.41499766426021E-4
 51
89.999463229329
  0
LINE
  5
   1A8
  8
0
  6
CONTINUOUS
 62
     1
 10
5.78669536445054
 20
137.459895641986
 30
0.0
 11
6.78669538103529
 21
137.459895641986
 31
0.0
  0
LINE
  5
   1A9
  8
0
  6
CONTINUOUS
 62
     1
 10
60.7866900821823
 20
137.459895641986
 30
0.0
 11
61.7866900970834
 21
137.459895641986
 31
0.0
  0
LINE
  5
   1AA
  8
0
  6
CONTINUOUS
 62
     1
 10
25.7366769603306
 20
138.579895658676
 30
0.0
 11
41.8366772002392
 21
138.579895658676
 31
0.0
  0
LINE
  5
   1AB
  8
0
  6
CONTINUOUS
 62
     7
 10
6.78669538103529
 20
128.97990161914
 30
0.0
 11
22.9366878317769
 21
128.97990161914
 31
0.0
  0
LINE
  5
   1AC
  8
0
  6
CONTINUOUS
 62
     7
 10
27.1366878943617
 20
128.97990161914
 30
0.0
 11
40.43667175979
 21
128.97990161914
 31
0.0
  0
LINE
  5
   1AD
  8
0
  6
CONTINUOUS
 62
     7
 10
44.6366718223749
 20
128.97990161914
 30
0.0
 11
60.786696185698
 21
128.97990161914
 31
0.0
  0
CIRCLE
  5
   1AE
  8
0
  6
CONTINUOUS
 62
     7
 10
16.2866954086821
 20
136.979899764478
 30
0.0
 40
0.55999961656213
  0
CIRCLE
  5
   1AF
  8
0
  6
CONTINUOUS
 62
     7
 10
33.7866758891191
 20
136.979898612994
 30
0.0
 40
0.560000490655082
  0
CIRCLE
  5
   1B0
  8
0
  6
CONTINUOUS
 62
     7
 10
51.2866974723425
 20
136.97990658293
 30
0.0
 40
0.559998330940641
  0
LINE
  5
   1B1
  8
0
  6
CONTINUOUS
 62
     7
 10
44.6367051104935
 20
130.579901677705
 30
0.0
 11
44.6367417315878
 21
128.979901653887
 31
0.0
  0
LINE
  5
   1B2
  8
0
  6
CONTINUOUS
 62
     7
 10
40.4367050468085
 20
130.579901677705
 30
0.0
 11
40.4367416679028
 21
128.979901653887
 31
0.0
  0
LINE
  5
   1B3
  8
0
  6
CONTINUOUS
 62
     7
 10
27.1367246769444
 20
130.579901648427
 30
0.0
 11
27.1367399357337
 21
128.979901624643
 31
0.0
  0
LINE
  5
   1B4
  8
0
  6
CONTINUOUS
 62
     7
 10
22.9367246141686
 20
130.579901648427
 30
0.0
 11
22.9367398729578
 21
128.979901624643
 31
0.0
  0
ARC
  5
   1B5
  8
0
  6
CONTINUOUS
 62
     7
 10
25.0367335982699
 20
130.579929056488
 30
0.0
 40
2.10002938035695
 50
310.367380719529
 51
589.632619280471
  0
ARC
  5
   1B6
  8
0
  6
CONTINUOUS
 62
     7
 10
42.5366852347122
 20
130.579909359981
 30
0.0
 40
2.10000173525903
 50
310.367323156252
 51
589.632676843748
  0
LINE
  5
   1B7
  8
0
  6
CONTINUOUS
 62
     1
 10
6.78669538103532
 20
128.97990161914
 30
0.0
 11
6.78669538103532
 21
137.459895641986
 31
0.0
  0
LINE
  5
   1B8
  8
0
  6
CONTINUOUS
 62
     7
 10
60.786696185698
 20
128.97990161914
 30
0.0
 11
60.786696185698
 21
137.459895641986
 31
0.0
  0
LINE
  5
   1B9
  8
0
  6
CONTINUOUS
 62
     1
 10
5.78667666305238
 20
65.1799143403069
 30
0.0
 11
5.78667666305238
 21
65.9799143522278
 31
0.0
  0
LINE
  5
   1BA
  8
0
  6
CONTINUOUS
 62
     1
 10
5.78667666305238
 20
38.09991391771
 30
0.0
 11
5.78667666305238
 21
65.1799131005303
 31
0.0
  0
LINE
  5
   1BB
  8
0
  6
CONTINUOUS
 62
     1
 10
5.78667666305238
 20
38.09991391771
 30
0.0
 11
6.78667667795354
 21
38.09991391771
 31
0.0
  0
LINE
  5
   1BC
  8
0
  6
CONTINUOUS
 62
     1
 10
6.78667667795354
 20
37.3799139260546
 30
0.0
 11
6.78667667795354
 21
38.09991391771
 31
0.0
  0
LINE
  5
   1BD
  8
0
  6
CONTINUOUS
 62
     1
 10
7.18667668391401
 20
36.9799139200942
 30
0.0
 11
24.3366769394689
 21
36.9799139200942
 31
0.0
  0
LINE
  5
   1BE
  8
0
  6
CONTINUOUS
 62
     1
 10
25.7366769603306
 20
36.9799139200944
 30
0.0
 11
41.8366772002392
 21
36.9799139200944
 31
0.0
  0
LINE
  5
   1BF
  8
0
  6
CONTINUOUS
 62
     1
 10
43.2366772211009
 20
36.979913920094
 30
0.0
 11
60.3866774766558
 21
36.979913920094
 31
0.0
  0
LINE
  5
   1C0
  8
0
  6
CONTINUOUS
 62
     1
 10
60.7866774826163
 20
37.3799139260546
 30
0.0
 11
60.7866774826163
 21
38.09991391771
 31
0.0
  0
LINE
  5
   1C1
  8
0
  6
CONTINUOUS
 62
     1
 10
60.7866774826163
 20
38.09991391771
 30
0.0
 11
61.7866774975174
 21
38.09991391771
 31
0.0
  0
LINE
  5
   1C2
  8
0
  6
CONTINUOUS
 62
     1
 10
6.78667667795354
 20
38.09991391771
 30
0.0
 11
6.78667667795354
 21
46.5799143492476
 31
0.0
  0
LINE
  5
   1C3
  8
0
  6
CONTINUOUS
 62
     1
 10
6.78667667795354
 20
46.5799140631453
 30
0.0
 11
22.9366769186073
 21
46.5799140631453
 31
0.0
  0
LINE
  5
   1C4
  8
0
  6
CONTINUOUS
 62
     1
 10
22.9366769186073
 20
44.9799140393034
 30
0.0
 11
22.9366769186073
 21
46.5799140631453
 31
0.0
  0
LINE
  5
   1C5
  8
0
  6
CONTINUOUS
 62
     1
 10
27.1366769811922
 20
44.9799140393034
 30
0.0
 11
27.1366769811922
 21
46.5799140631453
 31
0.0
  0
LINE
  5
   1C6
  8
0
  6
CONTINUOUS
 62
     1
 10
27.1366769811922
 20
46.5799140631453
 30
0.0
 11
40.4366771793776
 21
46.5799140631453
 31
0.0
  0
LINE
  5
   1C7
  8
0
  6
CONTINUOUS
 62
     1
 10
40.4366771793776
 20
44.9799140393034
 30
0.0
 11
40.4366771793776
 21
46.5799140631453
 31
0.0
  0
LINE
  5
   1C8
  8
0
  6
CONTINUOUS
 62
     1
 10
44.6366772419625
 20
44.9799140393034
 30
0.0
 11
44.6366772419625
 21
46.5799140631453
 31
0.0
  0
LINE
  5
   1C9
  8
0
  6
CONTINUOUS
 62
     1
 10
44.6366772419625
 20
46.5799140631453
 30
0.0
 11
60.7866774826163
 21
46.5799140631453
 31
0.0
  0
LINE
  5
   1CA
  8
0
  6
CONTINUOUS
 62
     1
 10
60.7866774826163
 20
38.09991391771
 30
0.0
 11
60.7866774826163
 21
46.5799143492476
 31
0.0
  0
LINE
  5
   1CB
  8
0
  6
CONTINUOUS
 62
     1
 10
26.0366769648009
 20
42.3799140005604
 30
0.0
 11
26.0366769648009
 21
43.1709738878364
 31
0.0
  0
LINE
  5
   1CC
  8
0
  6
CONTINUOUS
 62
     1
 10
24.0366769349986
 20
42.3799140005604
 30
0.0
 11
24.0366769349986
 21
43.1709738878364
 31
0.0
  0
LINE
  5
   1CD
  8
0
  6
CONTINUOUS
 62
     1
 10
24.0366769349986
 20
42.3799140005604
 30
0.0
 11
26.0366769648009
 21
42.3799140005604
 31
0.0
  0
LINE
  5
   1CE
  8
0
  6
CONTINUOUS
 62
     1
 10
41.5366771957689
 20
42.3799140005604
 30
0.0
 11
41.5366771957689
 21
43.1709738878364
 31
0.0
  0
LINE
  5
   1CF
  8
0
  6
CONTINUOUS
 62
     1
 10
43.5366772255712
 20
42.3799140005604
 30
0.0
 11
43.5366772255712
 21
43.1709738878364
 31
0.0
  0
LINE
  5
   1D0
  8
0
  6
CONTINUOUS
 62
     1
 10
41.5366771957689
 20
42.3799140005604
 30
0.0
 11
43.5366772255712
 21
42.3799140005604
 31
0.0
  0
LINE
  5
   1D1
  8
0
  6
CONTINUOUS
 62
     1
 10
43.5366772255712
 20
38.1799139379755
 30
0.0
 11
43.5366772255712
 21
39.5799139588372
 31
0.0
  0
LINE
  5
   1D2
  8
0
  6
CONTINUOUS
 62
     1
 10
41.5366771957689
 20
38.1799138426081
 30
0.0
 11
41.5366771957689
 21
39.5799139588372
 31
0.0
  0
LINE
  5
   1D3
  8
0
  6
CONTINUOUS
 62
     1
 10
43.2366772211009
 20
36.9799139200944
 30
0.0
 11
43.2366772211009
 21
38.1799139379758
 31
0.0
  0
LINE
  5
   1D4
  8
0
  6
CONTINUOUS
 62
     1
 10
43.2366772211009
 20
38.1799139379755
 30
0.0
 11
43.5366772255712
 21
38.1799139379755
 31
0.0
  0
LINE
  5
   1D5
  8
0
  6
CONTINUOUS
 62
     1
 10
41.8366772002392
 20
36.9799139200944
 30
0.0
 11
41.8366772002392
 21
38.1799139379758
 31
0.0
  0
LINE
  5
   1D6
  8
0
  6
CONTINUOUS
 62
     1
 10
41.5366771957689
 20
38.1799139379755
 30
0.0
 11
41.8366772002392
 21
38.1799139379755
 31
0.0
  0
LINE
  5
   1D7
  8
0
  6
CONTINUOUS
 62
     1
 10
26.0366769648009
 20
38.1799139379755
 30
0.0
 11
26.0366769648009
 21
39.5799139588372
 31
0.0
  0
LINE
  5
   1D8
  8
0
  6
CONTINUOUS
 62
     1
 10
24.0366769349986
 20
38.1799138426081
 30
0.0
 11
24.0366769349986
 21
39.5799139588372
 31
0.0
  0
LINE
  5
   1D9
  8
0
  6
CONTINUOUS
 62
     1
 10
24.3366769394689
 20
36.9799139200944
 30
0.0
 11
24.3366769394689
 21
38.1799139379758
 31
0.0
  0
LINE
  5
   1DA
  8
0
  6
CONTINUOUS
 62
     1
 10
24.0366769349986
 20
38.1799139379755
 30
0.0
 11
24.3366769394689
 21
38.1799139379755
 31
0.0
  0
LINE
  5
   1DB
  8
0
  6
CONTINUOUS
 62
     1
 10
25.7366769603306
 20
36.9799139200944
 30
0.0
 11
25.7366769603306
 21
38.1799139379758
 31
0.0
  0
LINE
  5
   1DC
  8
0
  6
CONTINUOUS
 62
     1
 10
25.7366769603306
 20
38.1799139379755
 30
0.0
 11
26.0366769648009
 21
38.1799139379755
 31
0.0
  0
CIRCLE
  5
   1DD
  8
0
  6
CONTINUOUS
 62
     1
 10
51.2866782306175
 20
44.1799146844188
 30
0.0
 40
2.20000070605533
  0
CIRCLE
  5
   1DE
  8
0
  6
CONTINUOUS
 62
     1
 10
42.5366776036136
 20
44.979913476969
 30
0.0
 40
1.100000654499
  0
ARC
  5
   1DF
  8
0
  6
CONTINUOUS
 62
     1
 10
42.536674070705
 20
44.979905561398
 30
0.0
 40
2.10000863415134
 50
121.002660653818
 51
418.997339346182
  0
CIRCLE
  5
   1E0
  8
0
  6
CONTINUOUS
 62
     1
 10
25.0366770975656
 20
44.9799145733721
 30
0.0
 40
1.09999970399938
  0
CIRCLE
  5
   1E1
  8
0
  6
CONTINUOUS
 62
     1
 10
33.7866769237835
 20
44.1799139431193
 30
0.0
 40
2.19999991158446
  0
CIRCLE
  5
   1E2
  8
0
  6
CONTINUOUS
 62
     1
 10
51.2866771212478
 20
38.5799159263542
 30
0.0
 40
0.559998785806891
  0
CIRCLE
  5
   1E3
  8
0
  6
CONTINUOUS
 62
     1
 10
33.7866778558464
 20
38.5799150297689
 30
0.0
 40
0.560000824901733
  0
CIRCLE
  5
   1E4
  8
0
  6
CONTINUOUS
 62
     1
 10
16.286676513238
 20
38.5799134664936
 30
0.0
 40
0.560000042011747
  0
CIRCLE
  5
   1E5
  8
0
  6
CONTINUOUS
 62
     1
 10
16.2866769151472
 20
44.1799139343766
 30
0.0
 40
2.20000016046036
  0
LINE
  5
   1E6
  8
0
  6
DASHDOT
 62
     7
 10
30.3866769943177
 20
44.1799139431193
 30
0.0
 11
37.1866768532494
 21
44.1799139431193
 31
0.0
  0
ARC
  5
   1E7
  8
0
  6
CONTINUOUS
 62
     1
 10
25.0366748685754
 20
44.9799189991338
 30
0.0
 40
2.09999528372234
 50
121.002766302877
 51
418.997233697123
  0
ARC
  5
   1E8
  8
0
  6
CONTINUOUS
 62
     1
 10
60.3866803570535
 20
37.3799102751558
 30
0.0
 40
0.399996166328924
 50
269.999729143711
 51
360.000478763791
  0
ARC
  5
   1E9
  8
0
  6
CONTINUOUS
 62
     1
 10
7.18667654212442
 20
37.3799138753843
 30
0.0
 40
0.399999917932667
 50
179.999990894686
 51
269.999993096142
  0
LINE
  5
   1EA
  8
0
  6
CONTINUOUS
 62
     1
 10
61.7866773410161
 20
109.679907435063
 30
0.0
 11
61.7866773410161
 21
128.97990161914
 31
0.0
  0
LINE
  5
   1EB
  8
0
  6
CONTINUOUS
 62
     1
 10
5.78667650655101
 20
61.5799005909599
 30
0.0
 11
5.78667650655101
 21
67.6798946021832
 31
0.0
  0
LINE
  5
   1EC
  8
0
  6
CONTINUOUS
 62
     1
 10
5.78667650655101
 20
109.679895228032
 30
0.0
 11
5.78667650655101
 21
128.97990161914
 31
0.0
  0
LINE
  5
   1ED
  8
0
  6
CONTINUOUS
 62
     1
 10
5.78667650655101
 20
128.97990161914
 30
0.0
 11
61.7866773410161
 21
128.97990161914
 31
0.0
  0
LINE
  5
   1EE
  8
0
  6
CONTINUOUS
 62
     1
 10
5.78667650655101
 20
67.6799007056989
 30
0.0
 11
5.78667650655101
 21
109.679901331548
 31
0.0
  0
LINE
  5
   1EF
  8
0
  6
CONTINUOUS
 62
     1
 10
61.7866773410161
 20
38.0999151574866
 30
0.0
 11
61.7866773410161
 21
109.679901331548
 31
0.0
  0
LINE
  5
   1F0
  8
0
  6
DASHDOT
 62
     1
 10
33.7866769237835
 20
23.1524366064238
 30
0.0
 11
33.7866769237835
 21
75.2914207137861
 31
0.0
  0
ARC
  5
   1F1
  8
0
  6
CONTINUOUS
 62
     1
 10
5.98667650953124
 20
67.8799007086791
 30
0.0
 40
0.200000002980232
 50
180.0
 51
270.0
  0
LINE
  5
   1F2
  8
0
  6
CONTINUOUS
 62
     1
 10
6.18668261602719
 20
61.1799006088412
 30
0.0
 11
6.18668261602719
 21
61.5799005909598
 31
0.0
  0
LINE
  5
   1F3
  8
0
  6
CONTINUOUS
 62
     1
 10
5.78667666305238
 20
46.7799140661257
 30
0.0
 11
61.7866774975174
 21
46.7799140661257
 31
0.0
  0
LINE
  5
   1F4
  8
0
  6
DASHDOT
 62
     7
 10
51.2866720970964
 20
125.179818363224
 30
0.0
 11
51.2866720970964
 21
137.579904326617
 31
0.0
  0
LINE
  5
   1F5
  8
0
  6
DASHDOT
 62
     7
 10
45.0866291153999
 20
131.37986134492
 30
0.0
 11
57.4867150787929
 21
131.37986134492
 31
0.0
  0
LINE
  5
   1F6
  8
0
  6
DASHDOT
 62
     7
 10
51.2866974723425
 20
132.419908192385
 30
0.0
 11
51.2866974723425
 21
141.539904973475
 31
0.0
  0
LINE
  5
   1F7
  8
0
  6
DASHDOT
 62
     7
 10
46.7266990817972
 20
136.97990658293
 30
0.0
 11
55.8466958628878
 21
136.97990658293
 31
0.0
  0
LINE
  5
   1F8
  8
0
  6
DASHDOT
 62
     7
 10
42.5366852347122
 20
124.479907565117
 30
0.0
 11
42.5366852347122
 21
136.679911154844
 31
0.0
  0
LINE
  5
   1F9
  8
0
  6
DASHDOT
 62
     7
 10
36.4366834398485
 20
130.579909359981
 30
0.0
 11
48.6366870295759
 21
130.579909359981
 31
0.0
  0
LINE
  5
   1FA
  8
0
  6
DASHDOT
 62
     7
 10
33.7866758891191
 20
132.419898062735
 30
0.0
 11
33.7866758891191
 21
141.306616194555
 31
0.0
  0
LINE
  5
   1FB
  8
0
  6
DASHDOT
 62
     7
 10
29.2266753388594
 20
136.979898612994
 30
0.0
 11
38.3466764393788
 21
136.979898612994
 31
0.0
  0
LINE
  5
   1FC
  8
0
  6
DASHDOT
 62
     7
 10
33.7866986957991
 20
125.17997582615
 30
0.0
 11
33.7866986957991
 21
137.579915529163
 31
0.0
  0
LINE
  5
   1FD
  8
0
  6
DASHDOT
 62
     7
 10
27.586728844293
 20
131.379945677656
 30
0.0
 11
39.9866685473052
 21
131.379945677656
 31
0.0
  0
LINE
  5
   1FE
  8
0
  6
DASHDOT
 62
     7
 10
25.03673359827
 20
124.479899616526
 30
0.0
 11
25.03673359827
 21
136.679958496449
 31
0.0
  0
LINE
  5
   1FF
  8
0
  6
DASHDOT
 62
     7
 10
18.9367041583084
 20
130.579929056488
 30
0.0
 11
31.1367630382315
 21
130.579929056488
 31
0.0
  0
LINE
  5
   200
  8
0
  6
DASHDOT
 62
     7
 10
16.2866954086822
 20
132.419900088311
 30
0.0
 11
16.2866954086822
 21
141.539899440645
 31
0.0
  0
LINE
  5
   201
  8
0
  6
DASHDOT
 62
     7
 10
11.7266957325154
 20
136.979899764478
 30
0.0
 11
20.8466950848489
 21
136.979899764478
 31
0.0
  0
LINE
  5
   202
  8
0
  6
DASHDOT
 62
     7
 10
16.2866991518833
 20
125.179912265619
 30
0.0
 11
16.2866991518833
 21
137.579922130004
 31
0.0
  0
LINE
  5
   203
  8
0
  6
DASHDOT
 62
     7
 10
10.0866942196907
 20
131.379917197811
 30
0.0
 11
22.486704084076
 21
131.379917197811
 31
0.0
  0
LINE
  5
   204
  8
0
  6
DASHDOT
 62
     7
 10
16.2866769151472
 20
37.9799137143116
 30
0.0
 11
16.2866769151472
 21
50.3799141544416
 31
0.0
  0
LINE
  5
   205
  8
0
  6
DASHDOT
 62
     7
 10
10.0866766950822
 20
44.1799139343766
 30
0.0
 11
22.4866771352122
 21
44.1799139343766
 31
0.0
  0
LINE
  5
   206
  8
0
  6
DASHDOT
 62
     7
 10
16.286676513238
 20
34.0199133648772
 30
0.0
 11
16.286676513238
 21
43.13991356811
 31
0.0
  0
LINE
  5
   207
  8
0
  6
DASHDOT
 62
     7
 10
11.7266764116217
 20
38.5799134664936
 30
0.0
 11
20.8466766148544
 21
38.5799134664936
 31
0.0
  0
LINE
  5
   208
  8
0
  6
DASHDOT
 62
     7
 10
29.2266769713401
 20
38.5799150297689
 30
0.0
 11
38.3466787403528
 21
38.5799150297689
 31
0.0
  0
LINE
  5
   209
  8
0
  6
DASHDOT
 62
     7
 10
25.0366748685754
 20
38.8799236558068
 30
0.0
 11
25.0366748685754
 21
51.0799143424608
 31
0.0
  0
LINE
  5
   20A
  8
0
  6
DASHDOT
 62
     7
 10
18.9366795252485
 20
44.9799189991338
 30
0.0
 11
31.1366702119024
 21
44.9799189991338
 31
0.0
  0
LINE
  5
   20B
  8
0
  6
DASHDOT
 62
     7
 10
42.536674070705
 20
38.879896867642
 30
0.0
 11
42.536674070705
 21
51.079914255154
 31
0.0
  0
LINE
  5
   20C
  8
0
  6
DASHDOT
 62
     7
 10
36.436665376949
 20
44.979905561398
 30
0.0
 11
48.636682764461
 21
44.979905561398
 31
0.0
  0
LINE
  5
   20D
  8
0
  6
DASHDOT
 62
     7
 10
51.2866782306175
 20
37.9799139187589
 30
0.0
 11
51.2866782306175
 21
50.3799154500788
 31
0.0
  0
LINE
  5
   20E
  8
0
  6
DASHDOT
 62
     7
 10
45.0866774649575
 20
44.1799146844188
 30
0.0
 11
57.4866789962775
 21
44.1799146844188
 31
0.0
  0
LINE
  5
   20F
  8
0
  6
DASHDOT
 62
     7
 10
51.2866771212478
 20
34.0199170809426
 30
0.0
 11
51.2866771212478
 21
43.1399147717657
 31
0.0
  0
LINE
  5
   210
  8
0
  6
DASHDOT
 62
     7
 10
46.7266782758363
 20
38.5799159263542
 30
0.0
 11
55.8466759666593
 21
38.5799159263542
 31
0.0
  0
LINE
  5
   211
  8
0
  6
CONTINUOUS
 62
     1
 10
6.78669538103532
 20
137.459895641986
 30
0.0
 11
6.78669538103532
 21
138.179901756231
 31
0.0
  0
LINE
  5
   212
  8
0
  6
CONTINUOUS
 62
     1
 10
60.786696185698
 20
137.459895641986
 30
0.0
 11
60.786696185698
 21
138.179901756231
 31
0.0
  0
LINE
  5
   213
  8
0
  6
CONTINUOUS
 62
     1
 10
41.5366771957689
 20
39.5799139588372
 30
0.0
 11
43.5366772255712
 21
39.5799139588372
 31
0.0
  0
LINE
  5
   214
  8
0
  6
CONTINUOUS
 62
     1
 10
24.0366769349986
 20
39.5799139588372
 30
0.0
 11
26.0366769648009
 21
39.5799139588372
 31
0.0
  0
LINE
  5
   215
  8
0
  6
CONTINUOUS
 62
     1
 10
41.5366771957689
 20
135.979875844556
 30
0.0
 11
43.5366772255712
 21
135.979875844556
 31
0.0
  0
LINE
  5
   216
  8
0
  6
CONTINUOUS
 62
     1
 10
41.5366771957689
 20
135.979875844556
 30
0.0
 11
41.5366771957689
 21
137.379875960785
 31
0.0
  0
LINE
  5
   217
  8
0
  6
CONTINUOUS
 62
     1
 10
41.5366771957689
 20
137.379875865417
 30
0.0
 11
41.8366772002392
 21
137.379875865417
 31
0.0
  0
LINE
  5
   218
  8
0
  6
CONTINUOUS
 62
     1
 10
41.8366772002392
 20
137.379875865417
 30
0.0
 11
41.8366772002392
 21
138.579875883299
 31
0.0
  0
LINE
  5
   219
  8
0
  6
CONTINUOUS
 62
     1
 10
43.2366772211009
 20
137.379875865417
 30
0.0
 11
43.2366772211009
 21
138.579875883299
 31
0.0
  0
LINE
  5
   21A
  8
0
  6
CONTINUOUS
 62
     1
 10
43.2366772211009
 20
137.379875865417
 30
0.0
 11
43.5366772255712
 21
137.379875865417
 31
0.0
  0
LINE
  5
   21B
  8
0
  6
CONTINUOUS
 62
     1
 10
43.5366772255712
 20
135.979875844556
 30
0.0
 11
43.5366772255712
 21
137.379875865417
 31
0.0
  0
LINE
  5
   21C
  8
0
  6
CONTINUOUS
 62
     1
 10
24.0366769349986
 20
135.979875844556
 30
0.0
 11
26.0366769648009
 21
135.979875844556
 31
0.0
  0
LINE
  5
   21D
  8
0
  6
CONTINUOUS
 62
     1
 10
24.0366769349986
 20
135.979875844556
 30
0.0
 11
24.0366769349986
 21
137.379875960785
 31
0.0
  0
LINE
  5
   21E
  8
0
  6
CONTINUOUS
 62
     1
 10
24.0366769349986
 20
137.379875865417
 30
0.0
 11
24.3366769394689
 21
137.379875865417
 31
0.0
  0
LINE
  5
   21F
  8
0
  6
CONTINUOUS
 62
     1
 10
24.3366769394689
 20
137.379875865417
 30
0.0
 11
24.3366769394689
 21
138.579875883299
 31
0.0
  0
LINE
  5
   220
  8
0
  6
CONTINUOUS
 62
     1
 10
25.7366769603306
 20
137.379875865417
 30
0.0
 11
25.7366769603306
 21
138.579875883299
 31
0.0
  0
LINE
  5
   221
  8
0
  6
CONTINUOUS
 62
     1
 10
25.7366769603306
 20
137.379875865417
 30
0.0
 11
26.0366769648009
 21
137.379875865417
 31
0.0
  0
LINE
  5
   222
  8
0
  6
CONTINUOUS
 62
     1
 10
26.0366769648009
 20
135.979875844556
 30
0.0
 11
26.0366769648009
 21
137.379875865417
 31
0.0
  0
LINE
  5
   223
  8
0
  6
DASHDOT
 62
     3
 10
-9.70224637505123
 20
88.479901015643
 30
0.0
 11
38.5764460642731
 21
88.479901015643
 31
0.0
  0
LINE
  5
   224
  8
0
  6
DASHDOT
 62
     7
 10
23.3865911553169
 20
32.7721709120755
 30
0.0
 11
23.3865911553169
 21
104.482311414938
 31
0.0
  0
LINE
  5
   225
  8
0
  6
DASHDOT
 62
     7
 10
11.9865531178337
 20
93.0822733774547
 30
0.0
 11
62.7678408997221
 21
93.0822733774547
 31
0.0
  0
LINE
  5
   226
  8
0
  6
CONTINUOUS
 62
     7
 10
49.3757647889257
 20
95.5498248928823
 30
0.0
 11
49.3757647889257
 21
95.6952794405043
 31
0.0
  0
LINE
  5
   227
  8
0
  6
CONTINUOUS
 62
     1
 10
-10.3133048737746
 20
138.579895658676
 30
0.0
 11
1.29532749114488
 21
138.579895658676
 31
0.0
  0
LINE
  5
   228
  8
0
  6
CONTINUOUS
 62
     1
 10
-10.713304879735
 20
137.459895641986
 30
0.0
 11
-10.713304879735
 21
138.179901756231
 31
0.0
  0
LINE
  5
   229
  8
0
  6
CONTINUOUS
 62
     1
 10
-11.7133048963198
 20
137.459895641986
 30
0.0
 11
-10.713304879735
 21
137.459895641986
 31
0.0
  0
LINE
  5
   22A
  8
0
  6
CONTINUOUS
 62
     1
 10
-11.7133048963198
 20
128.97990161914
 30
0.0
 11
-11.7133048963198
 21
137.459895641986
 31
0.0
  0
ARC
  5
   22B
  8
0
  6
CONTINUOUS
 62
     1
 10
-10.3133155160427
 20
138.179888813117
 30
0.0
 40
0.399992741577583
 50
89.9994296869838
 51
180.000998362904
  0
LINE
  5
   22C
  8
0
  6
CONTINUOUS
 62
     1
 10
-11.7133237542193
 20
109.679895228032
 30
0.0
 11
-11.7133237542193
 21
128.97990161914
 31
0.0
  0
LINE
  5
   22D
  8
0
  6
CONTINUOUS
 62
     1
 10
-11.7133237542193
 20
63.8584382556095
 30
0.0
 11
-11.7133237542193
 21
109.679901331548
 31
0.0
  0
LINE
  5
   22E
  8
0
  6
CONTINUOUS
 62
     1
 10
-11.7133235977179
 20
38.09991391771
 30
0.0
 11
-11.7133235977179
 21
65.1799131005303
 31
0.0
  0
LINE
  5
   22F
  8
0
  6
CONTINUOUS
 62
     1
 10
-11.7133235977179
 20
38.09991391771
 30
0.0
 11
-10.7133235828168
 21
38.09991391771
 31
0.0
  0
LINE
  5
   230
  8
0
  6
CONTINUOUS
 62
     1
 10
-10.7133235828168
 20
37.3799139260546
 30
0.0
 11
-10.7133235828168
 21
38.09991391771
 31
0.0
  0
ARC
  5
   231
  8
0
  6
CONTINUOUS
 62
     1
 10
-10.3133237186459
 20
37.3799138753843
 30
0.0
 40
0.399999917932667
 50
179.999990894686
 51
269.999993096142
  0
LINE
  5
   232
  8
0
  6
CONTINUOUS
 62
     1
 10
-10.3133235768563
 20
36.9799139200942
 30
0.0
 11
0.537874692628161
 21
36.9799139200942
 31
0.0
  0
LINE
  5
   233
  8
0
  6
DASHDOT
 62
     7
 10
43.8559547264117
 20
88.479901015643
 30
0.0
 11
65.4075952307914
 21
88.479901015643
 31
0.0
  0
LINE
  5
   234
  8
0
  6
DASHDOT
 62
     7
 10
33.7866769237835
 20
84.821219742917
 30
0.0
 11
33.7866769237835
 21
123.526498499733
 31
0.0
  0
TEXT
  5
   235
  8
0
  6
CONTINUOUS
 62
     7
 10
32.8381789235295
 20
150.578022153532
 30
0.0
 40
2.99999994933605
  1
Y
 41
0.91666673368878
 11
32.8381789235295
 21
153.578022102868
 31
0.0
 73
     3
  0
INSERT
  5
   236
  8
0
  6
CONTINUOUS
 62
     7
  2
*UDIM213
 10
0.0
 20
0.0
 30
0.0
  0
INSERT
  5
   237
  8
0
  6
CONTINUOUS
 62
     7
  2
*UDIM214
 10
0.0
 20
0.0
 30
0.0
  0
INSERT
  5
   238
  8
0
  6
CONTINUOUS
 62
     7
  2
*UDIM215
 10
0.0
 20
0.0
 30
0.0
  0
INSERT
  5
   239
  8
0
  6
CONTINUOUS
 62
     7
  2
*UDIM216
 10
0.0
 20
0.0
 30
0.0
  0
INSERT
  5
   23A
  8
0
  6
CONTINUOUS
 62
     7
  2
*UDIM217
 10
0.0
 20
0.0
 30
0.0
  0
INSERT
  5
   23B
  8
0
  6
CONTINUOUS
 62
     7
  2
*UDIM218
 10
0.0
 20
0.0
 30
0.0
  0
INSERT
  5
   23C
  8
0
  6
CONTINUOUS
 62
     7
  2
*UDIM219
 10
0.0
 20
0.0
 30
0.0
  0
TEXT
  5
   23D
  8
0
  6
CONTINUOUS
 62
     7
 10
73.9673544763176
 20
87.1936860483776
 30
0.0
 40
2.99999994933605
  1
X
 41
0.916666607525612
 72
     1
 11
75.0673543854206
 21
88.6936860230456
 31
0.0
 73
     2
  0
TEXT
  5
   23E
  8
0
  6
CONTINUOUS
 62
     7
 10
-15.8581290399207
 20
86.7190797180632
 30
0.0
 40
2.99999994933605
  1
X
 41
0.916666607525612
 72
     1
 11
-14.7581291308178
 21
88.2190796927312
 31
0.0
 73
     2
  0
LINE
  5
   23F
  8
0
  6
CONTINUOUS
 62
     7
 10
82.7666450619697
 20
99.5798950775688
 30
0.0
 11
82.7666450619697
 21
99.7798828735176
 31
0.0
  0
LINE
  5
   240
  8
0
  6
CONTINUOUS
 62
     7
 10
82.7666450619697
 20
105.779882962925
 30
0.0
 11
82.7666450619697
 21
113.779870875102
 31
0.0
  0
LINE
  5
   241
  8
0
  6
CONTINUOUS
 62
     7
 10
83.7666572839023
 20
99.7798828735176
 30
0.0
 11
83.7666572839023
 21
105.779882962925
 31
0.0
  0
LINE
  5
   242
  8
0
  6
CONTINUOUS
 62
     7
 10
83.7666572839023
 20
99.7798828735176
 30
0.0
 11
82.7666450619697
 21
99.7798828735176
 31
0.0
  0
LINE
  5
   243
  8
0
  6
CONTINUOUS
 62
     7
 10
83.7666572839023
 20
105.779882962925
 30
0.0
 11
82.7666450619697
 21
105.779882962925
 31
0.0
  0
LINE
  5
   244
  8
0
  6
CONTINUOUS
 62
     7
 10
83.7666572839023
 20
113.779870875102
 30
0.0
 11
83.7666572839023
 21
119.779870964509
 31
0.0
  0
LINE
  5
   245
  8
0
  6
CONTINUOUS
 62
     7
 10
83.7666572839023
 20
113.779870875102
 30
0.0
 11
82.7666450619697
 21
113.779870875102
 31
0.0
  0
LINE
  5
   246
  8
0
  6
CONTINUOUS
 62
     7
 10
83.7666572839023
 20
119.779870964509
 30
0.0
 11
82.7666450619697
 21
119.779870964509
 31
0.0
  0
LINE
  5
   247
  8
0
  6
CONTINUOUS
 62
     7
 10
110.166639366746
 20
99.5798828705374
 30
0.0
 11
110.166639366746
 21
121.579870991332
 31
0.0
  0
LINE
  5
   248
  8
0
  6
CONTINUOUS
 62
     7
 10
82.7666477905489
 20
121.379870988351
 30
0.0
 11
82.7666601411922
 21
138.579889555198
 31
0.0
  0
LINE
  5
   249
  8
0
  6
CONTINUOUS
 62
     7
 10
111.566645491123
 20
128.57987109564
 30
0.0
 11
110.166645470261
 21
128.57987109564
 31
0.0
  0
LINE
  5
   24A
  8
0
  6
CONTINUOUS
 62
     7
 10
110.166635879
 20
121.579867503646
 30
0.0
 11
110.166641982516
 21
128.579867607954
 31
0.0
  0
LINE
  5
   24B
  8
0
  6
CONTINUOUS
 62
     7
 10
110.166639366746
 20
95.7798889174287
 30
0.0
 11
110.166639366746
 21
99.5798950775688
 31
0.0
  0
LINE
  5
   24C
  8
0
  6
CONTINUOUS
 62
     7
 10
82.7666491416987
 20
71.379898729093
 30
0.0
 11
82.7666613487297
 21
71.4975927749599
 31
0.0
  0
LINE
  5
   24D
  8
0
  6
CONTINUOUS
 62
     7
 10
82.7666605648498
 20
77.6622033507808
 30
0.0
 11
82.7666483578194
 21
99.5798916656611
 31
0.0
  0
LINE
  5
   24E
  8
0
  6
CONTINUOUS
 62
     7
 10
111.166645485163
 20
76.7798947378224
 30
0.0
 11
83.9666316521159
 21
76.7798947378224
 31
0.0
  0
LINE
  5
   24F
  8
0
  6
CONTINUOUS
 62
     7
 10
111.166645485163
 20
72.3798946722573
 30
0.0
 11
83.9666316521159
 21
72.3798946722573
 31
0.0
  0
LINE
  5
   250
  8
0
  6
CONTINUOUS
 62
     7
 10
86.0594687095364
 20
76.7798988055115
 30
0.0
 11
82.766658742866
 21
77.6622073891137
 31
0.0
  0
LINE
  5
   251
  8
0
  6
CONTINUOUS
 62
     7
 10
82.7666605884587
 20
71.4975893550808
 30
0.0
 11
86.0594706309475
 21
72.3798950997451
 31
0.0
  0
LINE
  5
   252
  8
0
  6
CONTINUOUS
 62
     7
 10
111.566639387607
 20
77.9798947557038
 30
0.0
 11
108.366639339924
 21
77.9798947557038
 31
0.0
  0
LINE
  5
   253
  8
0
  6
CONTINUOUS
 62
     7
 10
108.366639339924
 20
77.9798947557038
 30
0.0
 11
108.366639339924
 21
94.9798889055078
 31
0.0
  0
LINE
  5
   254
  8
0
  6
CONTINUOUS
 62
     7
 10
83.1666572749616
 20
74.77989470802
 30
0.0
 11
83.1666572749616
 21
77.5550229232008
 31
0.0
  0
LINE
  5
   255
  8
0
  6
CONTINUOUS
 62
     7
 10
83.1666516409612
 20
71.6047704634225
 30
0.0
 11
83.166657744472
 21
71.9798986428404
 31
0.0
  0
LINE
  5
   256
  8
0
  6
CONTINUOUS
 62
     7
 10
82.7666572690011
 20
77.9798947557038
 30
0.0
 11
81.9666572570802
 21
77.9798947557038
 31
0.0
  0
LINE
  5
   257
  8
0
  6
CONTINUOUS
 62
     7
 10
82.7666572690011
 20
80.1798947884863
 30
0.0
 11
81.9666572570802
 21
80.1798947884863
 31
0.0
  0
LINE
  5
   258
  8
0
  6
CONTINUOUS
 62
     7
 10
111.566630743608
 20
71.9799102767744
 30
0.0
 11
111.166636854202
 21
72.3799041661808
 31
0.0
  0
LINE
  5
   259
  8
0
  6
CONTINUOUS
 62
     7
 10
111.166640430553
 20
76.779895298605
 30
0.0
 11
111.566640422822
 21
77.1798952908741
 31
0.0
  0
LINE
  5
   25A
  8
0
  6
CONTINUOUS
 62
     7
 10
110.166639366746
 20
94.9798889055078
 30
0.0
 11
110.166639366746
 21
95.7798889174287
 31
0.0
  0
LINE
  5
   25B
  8
0
  6
CONTINUOUS
 62
     7
 10
83.566657280922
 20
64.1799067570996
 30
0.0
 11
81.9666572570802
 21
64.1799067570996
 31
0.0
  0
LINE
  5
   25C
  8
0
  6
CONTINUOUS
 62
     7
 10
82.7666450619697
 20
69.7798946335142
 30
0.0
 11
82.7666450619697
 21
71.3798946573561
 31
0.0
  0
LINE
  5
   25D
  8
0
  6
CONTINUOUS
 62
     7
 10
111.566639387607
 20
66.1799067869015
 30
0.0
 11
107.566645431518
 21
66.1799067869015
 31
0.0
  0
LINE
  5
   25E
  8
0
  6
CONTINUOUS
 62
     7
 10
107.566645431518
 20
64.1799067570992
 30
0.0
 11
107.566645431518
 21
66.1799067869015
 31
0.0
  0
LINE
  5
   25F
  8
0
  6
CONTINUOUS
 62
     7
 10
82.7666450619697
 20
65.1799143403455
 30
0.0
 11
82.7666450619697
 21
69.7798946335142
 31
0.0
  0
LINE
  5
   260
  8
0
  6
CONTINUOUS
 62
     2
 10
82.7666450619697
 20
121.379870988351
 30
0.0
 11
82.5666572660209
 21
121.379870988351
 31
0.0
  0
LINE
  5
   261
  8
0
  6
CONTINUOUS
 62
     7
 10
82.7666511654854
 20
93.1798949822014
 30
0.0
 11
82.5666572660209
 21
93.1798949822014
 31
0.0
  0
LINE
  5
   262
  8
0
  6
CONTINUOUS
 62
     7
 10
82.7666572690011
 20
80.3798963173455
 30
0.0
 11
82.5666572660209
 21
80.3798963173455
 31
0.0
  0
LINE
  5
   263
  8
0
  6
CONTINUOUS
 62
     7
 10
83.1666572749616
 20
77.3798951282328
 30
0.0
 11
82.5666572660209
 21
77.3798951282328
 31
0.0
  0
LINE
  5
   264
  8
0
  6
CONTINUOUS
 62
     7
 10
82.7666450619697
 20
70.9799007549113
 30
0.0
 11
82.5666572660209
 21
70.9799007549113
 31
0.0
  0
LINE
  5
   265
  8
0
  6
CONTINUOUS
 62
     7
 10
82.5666572660209
 20
65.5399105977298
 30
0.0
 11
82.5666572660209
 21
77.979888652188
 31
0.0
  0
LINE
  5
   266
  8
0
  6
CONTINUOUS
 62
     7
 10
82.5666572660209
 20
80.1798886849706
 30
0.0
 11
82.5666572660209
 21
121.379864884836
 31
0.0
  0
LINE
  5
   267
  8
0
  6
CONTINUOUS
 62
     7
 10
83.1666572749616
 20
113.77988918565
 30
0.0
 11
83.1666572749616
 21
119.779870964509
 31
0.0
  0
LINE
  5
   268
  8
0
  6
CONTINUOUS
 62
     7
 10
83.1666572749616
 20
99.7799072875805
 30
0.0
 11
83.1666572749616
 21
105.779901273472
 31
0.0
  0
LINE
  5
   269
  8
0
  6
CONTINUOUS
 62
     7
 10
83.1666572749616
 20
71.9799251838754
 30
0.0
 11
83.1666572749616
 21
74.7799252255986
 31
0.0
  0
LINE
  5
   26A
  8
0
  6
CONTINUOUS
 62
     7
 10
82.7266541447921
 20
65.3799137189585
 30
0.0
 11
82.5666565856584
 21
65.5399112780922
 31
0.0
  0
LINE
  5
   26B
  8
0
  6
CONTINUOUS
 62
     7
 10
82.7666572690011
 20
127.779871083719
 30
0.0
 11
81.9666572570802
 21
127.779871083719
 31
0.0
  0
LINE
  5
   26C
  8
0
  6
CONTINUOUS
 62
     7
 10
82.7666572690011
 20
132.179871149284
 30
0.0
 11
81.9666572570802
 21
132.179871149284
 31
0.0
  0
LINE
  5
   26D
  8
0
  6
CONTINUOUS
 62
     7
 10
110.36663326621
 20
100.779869010474
 30
0.0
 11
110.36663326621
 21
122.579887645866
 31
0.0
  0
LINE
  5
   26E
  8
0
  6
CONTINUOUS
 62
     7
 10
121.566615122552
 20
128.97988273898
 30
0.0
 11
121.566615122552
 21
138.579882882031
 31
0.0
  0
LINE
  5
   26F
  8
0
  6
CONTINUOUS
 62
     7
 10
121.566645640135
 20
128.979884773461
 30
0.0
 11
121.366645637154
 21
128.979884773461
 31
0.0
  0
LINE
  5
   270
  8
0
  6
CONTINUOUS
 62
     7
 10
121.366645637154
 20
128.779884770481
 30
0.0
 11
121.366645637154
 21
128.979884773461
 31
0.0
  0
LINE
  5
   271
  8
0
  6
CONTINUOUS
 62
     7
 10
111.566645491123
 20
128.379878661005
 30
0.0
 11
111.566645491123
 21
128.779884770481
 31
0.0
  0
LINE
  5
   272
  8
0
  6
CONTINUOUS
 62
     7
 10
111.566640038076
 20
137.459877143166
 30
0.0
 11
111.566646141592
 21
138.579890587132
 31
0.0
  0
LINE
  5
   273
  8
0
  6
CONTINUOUS
 62
     7
 10
121.566648691888
 20
138.579897123537
 30
0.0
 11
111.566648542876
 21
138.579897123537
 31
0.0
  0
LINE
  5
   274
  8
0
  6
CONTINUOUS
 62
     7
 10
120.566645625234
 20
128.779884770481
 30
0.0
 11
120.446644402742
 21
128.779884770481
 31
0.0
  0
LINE
  5
   275
  8
0
  6
CONTINUOUS
 62
     7
 10
111.566645491123
 20
128.379890868036
 30
0.0
 11
110.366645473242
 21
128.379890868036
 31
0.0
  0
LINE
  5
   276
  8
0
  6
CONTINUOUS
 62
     7
 10
110.366645473242
 20
122.579890781609
 30
0.0
 11
110.366645473242
 21
128.379890868036
 31
0.0
  0
LINE
  5
   277
  8
0
  6
CONTINUOUS
 62
     7
 10
111.566627180576
 20
66.5798960506602
 30
0.0
 11
111.566627180576
 21
69.4905406252822
 31
0.0
  0
LINE
  5
   278
  8
0
  6
CONTINUOUS
 62
     7
 10
110.366639369726
 20
95.9798842817229
 30
0.0
 11
110.366639369726
 21
100.779872146217
 31
0.0
  0
LINE
  5
   279
  8
0
  6
CONTINUOUS
 62
     7
 10
110.366639369726
 20
94.9798720597903
 30
0.0
 11
109.966639363766
 21
94.9798720597903
 31
0.0
  0
LINE
  5
   27A
  8
0
  6
CONTINUOUS
 62
     7
 10
120.446631893296
 20
65.3799082398187
 30
0.0
 11
111.566626878161
 21
65.3799082398187
 31
0.0
  0
LINE
  5
   27B
  8
0
  6
CONTINUOUS
 62
     7
 10
111.566627180576
 20
65.3798960327788
 30
0.0
 11
111.566627180576
 21
66.5798960506602
 31
0.0
  0
LINE
  5
   27C
  8
0
  6
CONTINUOUS
 62
     7
 10
111.566633284092
 20
69.4905406252822
 30
0.0
 11
111.566633284092
 21
72.2798998197102
 31
0.0
  0
LINE
  5
   27D
  8
0
  6
CONTINUOUS
 62
     7
 10
120.566627314686
 20
64.1798899113817
 30
0.0
 11
120.566627314686
 21
65.3798899292631
 31
0.0
  0
LINE
  5
   27E
  8
0
  6
CONTINUOUS
 62
     7
 10
120.566627314686
 20
65.3798899292631
 30
0.0
 11
120.446632219553
 21
65.3798899292631
 31
0.0
  0
LINE
  5
   27F
  8
0
  6
CONTINUOUS
 62
     7
 10
109.966639363766
 20
94.9798720597903
 30
0.0
 11
108.366639339924
 21
94.9798720597903
 31
0.0
  0
LINE
  5
   280
  8
0
  6
CONTINUOUS
 62
     7
 10
110.366639369726
 20
94.9798720597903
 30
0.0
 11
110.366639369726
 21
95.9798842817229
 31
0.0
  0
LINE
  5
   281
  8
0
  6
CONTINUOUS
 62
     7
 10
120.446630532369
 20
72.2799083426351
 30
0.0
 11
111.56663162075
 21
72.2799083426351
 31
0.0
  0
LINE
  5
   282
  8
0
  6
CONTINUOUS
 62
     7
 10
120.446627590585
 20
76.8799084111793
 30
0.0
 11
111.566628678965
 21
76.8799084111793
 31
0.0
  0
LINE
  5
   283
  8
0
  6
CONTINUOUS
 62
     7
 10
112.086243470764
 20
66.8799029017943
 30
0.0
 11
112.166626760149
 21
67.1799029021229
 31
0.0
  0
LINE
  5
   284
  8
0
  6
CONTINUOUS
 62
     7
 10
111.866630921799
 20
66.660283272338
 30
0.0
 11
112.086241506272
 21
66.8798999657859
 31
0.0
  0
LINE
  5
   285
  8
0
  6
CONTINUOUS
 62
     7
 10
111.566620266417
 20
66.5799054249323
 30
0.0
 11
111.866626362306
 21
66.6602887204352
 31
0.0
  0
LINE
  5
   286
  8
0
  6
CONTINUOUS
 62
     7
 10
111.866629704613
 20
71.2995136907855
 30
0.0
 11
111.566629702343
 21
71.3799030892052
 31
0.0
  0
LINE
  5
   287
  8
0
  6
CONTINUOUS
 62
     7
 10
112.086239780159
 20
71.0798997445458
 30
0.0
 11
111.86662919263
 21
71.2995103320743
 31
0.0
  0
LINE
  5
   288
  8
0
  6
CONTINUOUS
 62
     7
 10
112.166622608211
 20
70.7799002962084
 30
0.0
 11
112.086233209792
 21
71.079900298479
 31
0.0
  0
LINE
  5
   289
  8
0
  6
CONTINUOUS
 62
     7
 10
112.166623798689
 20
67.1798984350931
 30
0.0
 11
112.166629902204
 21
70.7798984887373
 31
0.0
  0
LINE
  5
   28A
  8
0
  6
CONTINUOUS
 62
     7
 10
120.44663219571
 20
65.3798899292631
 30
0.0
 11
120.44663219571
 21
128.779879765367
 31
0.0
  0
LINE
  5
   28B
  8
0
  6
CONTINUOUS
 62
     7
 10
120.446650506258
 20
137.459889782636
 30
0.0
 11
82.7666593369653
 21
137.459889782636
 31
0.0
  0
LINE
  5
   28C
  8
0
  6
CONTINUOUS
 62
     7
 10
120.446607781643
 20
128.779882014094
 30
0.0
 11
120.446607781643
 21
137.459887026249
 31
0.0
  0
LINE
  5
   28D
  8
0
  6
CONTINUOUS
 62
     7
 10
111.566645491123
 20
128.779890873997
 30
0.0
 11
111.566645491123
 21
137.459889782636
 31
0.0
  0
LINE
  5
   28E
  8
0
  6
CONTINUOUS
 62
     7
 10
124.766651791334
 20
109.479902793436
 30
0.0
 11
123.366651770473
 21
109.479902793436
 31
0.0
  0
LINE
  5
   28F
  8
0
  6
CONTINUOUS
 62
     7
 10
124.766651791334
 20
67.4799143746184
 30
0.0
 11
123.366651770473
 21
67.4799143746184
 31
0.0
  0
LINE
  5
   290
  8
0
  6
CONTINUOUS
 62
     7
 10
120.566651728749
 20
60.9799142777608
 30
0.0
 11
120.566651728749
 21
65.3798899292631
 31
0.0
  0
LINE
  5
   291
  8
0
  6
CONTINUOUS
 62
     7
 10
122.566651758552
 20
60.9799142777608
 30
0.0
 11
122.566651758552
 21
67.4799143746184
 31
0.0
  0
LINE
  5
   292
  8
0
  6
CONTINUOUS
 62
     7
 10
122.566651758552
 20
109.479902793436
 30
0.0
 11
122.566651758552
 21
128.779903081028
 31
0.0
  0
LINE
  5
   293
  8
0
  6
CONTINUOUS
 62
     7
 10
122.566651758552
 20
128.779903081028
 30
0.0
 11
120.566651728749
 21
128.779903081028
 31
0.0
  0
LINE
  5
   294
  8
0
  6
CONTINUOUS
 62
     7
 10
122.566651758552
 20
60.9799142777608
 30
0.0
 11
120.566651728749
 21
60.9799142777608
 31
0.0
  0
LINE
  5
   295
  8
0
  6
CONTINUOUS
 62
     7
 10
123.366651770473
 20
67.4799143746184
 30
0.0
 11
123.366651770473
 21
109.479902793436
 31
0.0
  0
LINE
  5
   296
  8
0
  6
CONTINUOUS
 62
     7
 10
123.366651770473
 20
67.4799143746184
 30
0.0
 11
122.566651758552
 21
67.4799143746184
 31
0.0
  0
LINE
  5
   297
  8
0
  6
CONTINUOUS
 62
     7
 10
123.366651770473
 20
109.479902793436
 30
0.0
 11
122.566651758552
 21
109.479902793436
 31
0.0
  0
LINE
  5
   298
  8
0
  6
CONTINUOUS
 62
     7
 10
120.446622931618
 20
77.0998839616715
 30
0.0
 11
120.566624148545
 21
77.1103820074178
 31
0.0
  0
LINE
  5
   299
  8
0
  6
CONTINUOUS
 62
     7
 10
120.566644777374
 20
72.049393713969
 30
0.0
 11
120.446643557092
 21
72.0598978632506
 31
0.0
  0
LINE
  5
   29A
  8
0
  6
CONTINUOUS
 62
     7
 10
111.566633284092
 20
76.8798998882567
 30
0.0
 11
111.566633284092
 21
77.979884013502
 31
0.0
  0
LINE
  5
   29B
  8
0
  6
CONTINUOUS
 62
     7
 10
120.446650124788
 20
38.0999136316463
 30
0.0
 11
82.7666568875314
 21
38.0999136316463
 31
0.0
  0
LINE
  5
   29C
  8
0
  6
CONTINUOUS
 62
     7
 10
83.566657280922
 20
65.1799143403455
 30
0.0
 11
81.9666572570801
 21
65.1799143403455
 31
0.0
  0
LINE
  5
   29D
  8
0
  6
CONTINUOUS
 62
     7
 10
120.446656609774
 20
65.1799143403455
 30
0.0
 11
113.566651624441
 21
65.1799143403455
 31
0.0
  0
LINE
  5
   29E
  8
0
  6
CONTINUOUS
 62
     7
 10
121.566657847166
 20
36.9799139201328
 30
0.0
 11
121.566657847166
 21
46.5799079596682
 31
0.0
  0
LINE
  5
   29F
  8
0
  6
CONTINUOUS
 62
     7
 10
83.566657280922
 20
64.1799143254443
 30
0.0
 11
83.566657280922
 21
65.1799143403455
 31
0.0
  0
LINE
  5
   2A0
  8
0
  6
CONTINUOUS
 62
     7
 10
120.446653328956
 20
48.1799079831518
 30
0.0
 11
120.566651728714
 21
48.1799093916333
 31
0.0
  0
LINE
  5
   2A1
  8
0
  6
CONTINUOUS
 62
     7
 10
121.566657847166
 20
46.5799079596682
 30
0.0
 11
120.446656609774
 21
46.5799079596682
 31
0.0
  0
LINE
  5
   2A2
  8
0
  6
CONTINUOUS
 62
     7
 10
120.446656609774
 20
38.0999151575252
 30
0.0
 11
120.446656609774
 21
48.1799140870258
 31
0.0
  0
LINE
  5
   2A3
  8
0
  6
CONTINUOUS
 62
     7
 10
120.446656609774
 20
48.1799140870258
 30
0.0
 11
120.446656609774
 21
65.1799143403455
 31
0.0
  0
LINE
  5
   2A4
  8
0
  6
CONTINUOUS
 62
     7
 10
120.566651728749
 20
60.5799142718002
 30
0.0
 11
120.446656609774
 21
60.5799142718002
 31
0.0
  0
LINE
  5
   2A5
  8
0
  6
CONTINUOUS
 62
     7
 10
81.9666572571501
 20
50.5799080196686
 30
0.0
 11
82.7666568875832
 21
50.5799141231844
 31
0.0
  0
LINE
  5
   2A6
  8
0
  6
CONTINUOUS
 62
     7
 10
82.7666568875314
 20
36.9799139201329
 30
0.0
 11
82.7666568875314
 21
50.579908019273
 31
0.0
  0
LINE
  5
   2A7
  8
0
  6
CONTINUOUS
 62
     7
 10
82.7666572690011
 20
46.2799079551978
 30
0.0
 11
81.9666572570802
 21
46.2799079551978
 31
0.0
  0
LINE
  5
   2A8
  8
0
  6
CONTINUOUS
 62
     7
 10
111.566647017863
 20
65.1799143421497
 30
0.0
 11
111.566653121379
 21
65.9799143540889
 31
0.0
  0
LINE
  5
   2A9
  8
0
  6
CONTINUOUS
 62
     7
 10
111.566657698155
 20
65.9799143522664
 30
0.0
 11
107.56665763855
 21
65.9799143522664
 31
0.0
  0
LINE
  5
   2AA
  8
0
  6
CONTINUOUS
 62
     7
 10
113.566651624441
 20
65.1799143403455
 30
0.0
 11
111.566651594639
 21
65.1799143403455
 31
0.0
  0
LINE
  5
   2AB
  8
0
  6
CONTINUOUS
 62
     7
 10
82.7666572690011
 20
42.7928713889547
 30
0.0
 11
81.9666572570801
 21
42.7928713889547
 31
0.0
  0
LINE
  5
   2AC
  8
0
  6
CONTINUOUS
 62
     7
 10
82.7666572690011
 20
43.7740668534048
 30
0.0
 11
81.9666572570802
 21
43.7740668534048
 31
0.0
  0
LINE
  5
   2AD
  8
0
  6
CONTINUOUS
 62
     7
 10
82.7666572690011
 20
46.2287971145925
 30
0.0
 11
81.9666572570802
 21
46.2287971145925
 31
0.0
  0
LINE
  5
   2AE
  8
0
  6
CONTINUOUS
 62
     7
 10
122.566651758552
 20
60.7799142747806
 30
0.0
 11
120.566651728749
 21
60.7799142747806
 31
0.0
  0
LINE
  5
   2AF
  8
0
  6
CONTINUOUS
 62
     7
 10
122.566651758552
 20
46.7799140661643
 30
0.0
 11
120.566651728749
 21
46.7799140661643
 31
0.0
  0
LINE
  5
   2B0
  8
0
  6
CONTINUOUS
 62
     7
 10
122.566651758552
 20
46.7799140661643
 30
0.0
 11
122.566651758552
 21
60.7799142747806
 31
0.0
  0
LINE
  5
   2B1
  8
0
  6
CONTINUOUS
 62
     7
 10
121.766651746631
 20
46.7799140661643
 30
0.0
 11
121.766651746631
 21
60.7799142747806
 31
0.0
  0
LINE
  5
   2B2
  8
0
  6
CONTINUOUS
 62
     7
 10
120.566651728749
 20
46.7799140661643
 30
0.0
 11
120.566651728749
 21
60.7799142747806
 31
0.0
  0
LINE
  5
   2B3
  8
0
  6
CONTINUOUS
 62
     7
 10
83.9666316521159
 20
72.3798946722573
 30
0.0
 11
83.9666316521159
 21
76.7798947378224
 31
0.0
  0
LINE
  5
   2B4
  8
0
  6
CONTINUOUS
 62
     7
 10
111.566633284092
 20
138.579889555198
 30
0.0
 11
82.7666572690011
 21
138.579889555198
 31
0.0
  0
LINE
  5
   2B5
  8
0
  6
DASHDOT
 62
     7
 10
81.9666572570802
 20
33.3068273059215
 30
0.0
 11
81.9666572570802
 21
141.306617720473
 31
0.0
  0
LINE
  5
   2B6
  8
0
  6
DASHDOT
 62
     7
 10
80.7666572391988
 20
33.3068273059215
 30
0.0
 11
80.7666572391988
 21
141.306617720473
 31
0.0
  0
LINE
  5
   2B7
  8
0
  6
CONTINUOUS
 62
     7
 10
84.6668017612052
 20
33.3068273059215
 30
0.0
 11
77.232421038117
 21
33.3068273059215
 31
0.0
  0
LINE
  5
   2B8
  8
0
  6
CONTINUOUS
 62
     7
 10
121.566657465696
 20
36.9799139201329
 30
0.0
 11
82.7666568875314
 21
36.9799139201329
 31
0.0
  0
LINE
  5
   2B9
  8
0
  6
CONTINUOUS
 62
     7
 10
107.566645431518
 20
64.1799067570996
 30
0.0
 11
83.566657280922
 21
64.1799067570996
 31
0.0
  0
LINE
  5
   2BA
  8
0
  6
CONTINUOUS
 62
     7
 10
140.366639732064
 20
75.479846034945
 30
0.0
 11
140.366639732064
 21
80.2798506193418
 31
0.0
  0
LINE
  5
   2BB
  8
0
  6
CONTINUOUS
 62
     1
 10
81.9666779358171
 20
58.8773081063069
 30
0.0
 11
81.9666779358171
 21
58.9686533225118
 31
0.0
  0
LINE
  5
   2BC
  8
0
  6
DASHDOT
 62
     3
 10
157.410722404595
 20
88.4799024805113
 30
0.0
 11
153.50027146522
 21
88.4799024805113
 31
0.0
  0
LINE
  5
   2BD
  8
0
  6
DASHDOT
 62
     3
 10
182.465284667504
 20
88.4799024805113
 30
0.0
 11
78.7918213160125
 21
88.4799024805113
 31
0.0
  0
LINE
  5
   2BE
  8
0
  6
CONTINUOUS
 62
     2
 10
156.163631185844
 20
101.154534993611
 30
0.0
 11
156.163631185844
 21
103.679718136708
 31
0.0
  0
LINE
  5
   2BF
  8
0
  6
CONTINUOUS
 62
     2
 10
156.163631185844
 20
86.6797407105188
 30
0.0
 11
156.163631185844
 21
89.0797407462816
 31
0.0
  0
LINE
  5
   2C0
  8
0
  6
CONTINUOUS
 62
     2
 10
169.56363138552
 20
86.4828748628586
 30
0.0
 11
169.56363138552
 21
99.6766036971559
 31
0.0
  0
LINE
  5
   2C1
  8
0
  6
CONTINUOUS
 62
     2
 10
162.363631278231
 20
84.0797406717757
 30
0.0
 11
162.363631278231
 21
86.6797407105187
 31
0.0
  0
LINE
  5
   2C2
  8
0
  6
CONTINUOUS
 62
     2
 10
162.363631278231
 20
99.4797409012536
 30
0.0
 11
162.363631278231
 21
102.079740939997
 31
0.0
  0
LINE
  5
   2C3
  8
0
  6
CONTINUOUS
 62
     2
 10
156.163631185844
 20
82.4797406479339
 30
0.0
 11
156.163631185844
 21
86.6797407105188
 31
0.0
  0
LINE
  5
   2C4
  8
0
  6
CONTINUOUS
 62
     2
 10
156.163631185844
 20
99.4797409012536
 30
0.0
 11
156.163631185844
 21
103.679740963838
 31
0.0
  0
LINE
  5
   2C5
  8
0
  6
CONTINUOUS
 62
     2
 10
162.363631278231
 20
86.6797407105187
 30
0.0
 11
162.363631278231
 21
99.4797409012536
 31
0.0
  0
LINE
  5
   2C6
  8
0
  6
CONTINUOUS
 62
   212
 10
140.166381862071
 20
109.479863121009
 30
0.0
 11
123.366639317793
 21
109.479924156165
 31
0.0
  0
LINE
  5
   2C7
  8
0
  6
CONTINUOUS
 62
   212
 10
140.166143818433
 20
67.4799143746184
 30
0.0
 11
123.366639478745
 21
67.4799143746184
 31
0.0
  0
LINE
  5
   2C8
  8
0
  6
CONTINUOUS
 62
   212
 10
123.366639311851
 20
108.479924140836
 30
0.0
 11
123.366639311851
 21
109.479924155737
 31
0.0
  0
LINE
  5
   2C9
  8
0
  6
CONTINUOUS
 62
   212
 10
123.366639311851
 20
98.4481673995539
 30
0.0
 11
123.366639311851
 21
104.979838639461
 31
0.0
  0
LINE
  5
   2CA
  8
0
  6
CONTINUOUS
 62
   212
 10
123.366639311851
 20
75.9481518054884
 30
0.0
 11
123.366639311851
 21
97.6481673876329
 31
0.0
  0
LINE
  5
   2CB
  8
0
  6
CONTINUOUS
 62
   212
 10
123.366639311851
 20
70.9799418925892
 30
0.0
 11
123.366639311851
 21
75.1481517935675
 31
0.0
  0
LINE
  5
   2CC
  8
0
  6
CONTINUOUS
 62
   212
 10
123.366639311851
 20
67.4799143746144
 30
0.0
 11
123.366639311851
 21
68.9799433886657
 31
0.0
  0
LINE
  5
   2CD
  8
0
  6
CONTINUOUS
 62
   212
 10
140.366638206185
 20
67.6815819555065
 30
0.0
 11
140.366638206185
 21
109.27938612078
 31
0.0
  0
LINE
  5
   2CE
  8
0
  6
CONTINUOUS
 62
   212
 10
123.36843603429
 20
68.4799113377577
 30
0.0
 11
123.366639311851
 21
68.4799113377577
 31
0.0
  0
LINE
  5
   2CF
  8
0
  6
CONTINUOUS
 62
   212
 10
140.767934346021
 20
99.3241872395858
 30
0.0
 11
140.766632771256
 21
101.879893989254
 31
0.0
  0
LINE
  5
   2D0
  8
0
  6
CONTINUOUS
 62
   212
 10
140.767690221488
 20
98.0797758290516
 30
0.0
 11
140.766634313313
 21
101.879904059508
 31
0.0
  0
LINE
  5
   2D1
  8
0
  6
CONTINUOUS
 62
   212
 10
140.76732973017
 20
98.0797733221061
 30
0.0
 11
140.766633929356
 21
101.879901552566
 31
0.0
  0
LINE
  5
   2D2
  8
0
  6
CONTINUOUS
 62
   212
 10
140.767115953877
 20
98.0797722608416
 30
0.0
 11
140.766633776144
 21
101.879900491287
 31
0.0
  0
LINE
  5
   2D3
  8
0
  6
CONTINUOUS
 62
   212
 10
140.766963290524
 20
98.079771829709
 30
0.0
 11
140.766633700686
 21
101.879900060154
 31
0.0
  0
LINE
  5
   2D4
  8
0
  6
CONTINUOUS
 62
   212
 10
140.766932761272
 20
98.0797717299239
 30
0.0
 11
140.766633689013
 21
101.879899960384
 31
0.0
  0
LINE
  5
   2D5
  8
0
  6
CONTINUOUS
 62
   212
 10
140.766841180281
 20
98.0797715579829
 30
0.0
 11
140.766633660746
 21
101.879899788398
 31
0.0
  0
LINE
  5
   2D6
  8
0
  6
CONTINUOUS
 62
   212
 10
140.766647375511
 20
98.0797714474446
 30
0.0
 11
140.766633642601
 21
98.5326217960373
 31
0.0
  0
LINE
  5
   2D7
  8
0
  6
CONTINUOUS
 62
   212
 10
123.368401272861
 20
70.979941892748
 30
0.0
 11
123.368398960201
 21
71.925022473238
 31
0.0
  0
LINE
  5
   2D8
  8
0
  6
CONTINUOUS
 62
   212
 10
123.368407424061
 20
68.4799128638252
 30
0.0
 11
123.368406184284
 21
68.9799418629819
 31
0.0
  0
LINE
  5
   2D9
  8
0
  6
CONTINUOUS
 62
   212
 10
123.368399035365
 20
104.979840707045
 30
0.0
 11
123.368409168155
 21
105.034650278174
 31
0.0
  0
LINE
  5
   2DA
  8
0
  6
CONTINUOUS
 62
   212
 10
123.368390425056
 20
105.094230877871
 30
0.0
 11
123.368371589988
 21
105.47686638162
 31
0.0
  0
LINE
  5
   2DB
  8
0
  6
CONTINUOUS
 62
   212
 10
123.368368681081
 20
105.547947803541
 30
0.0
 11
123.368352802403
 21
106.336589172715
 31
0.0
  0
LINE
  5
   2DC
  8
0
  6
CONTINUOUS
 62
   212
 10
123.368350203604
 20
106.587419232283
 30
0.0
 11
123.368345864386
 21
107.278080863673
 31
0.0
  0
LINE
  5
   2DD
  8
0
  6
CONTINUOUS
 62
   212
 10
123.368345602127
 20
107.554881405659
 30
0.0
 11
123.368350656601
 21
108.261271797042
 31
0.0
  0
LINE
  5
   2DE
  8
0
  6
CONTINUOUS
 62
   212
 10
123.368351729541
 20
108.367540145318
 30
0.0
 11
123.368348940043
 21
108.479924180197
 31
0.0
  0
LINE
  5
   2DF
  8
0
  6
CONTINUOUS
 62
   212
 10
123.368398962181
 20
105.03464945438
 30
0.0
 11
123.368390426796
 21
105.094231974799
 31
0.0
  0
LINE
  5
   2E0
  8
0
  6
CONTINUOUS
 62
   212
 10
123.368371589914
 20
105.47686633701
 30
0.0
 11
123.368368681207
 21
105.547947881039
 31
0.0
  0
LINE
  5
   2E1
  8
0
  6
CONTINUOUS
 62
   212
 10
123.368352802374
 20
106.336589154627
 30
0.0
 11
123.368350203611
 21
106.587419236487
 31
0.0
  0
LINE
  5
   2E2
  8
0
  6
CONTINUOUS
 62
   212
 10
123.368405358918
 20
107.278080861265
 30
0.0
 11
123.368405358918
 21
107.554881402499
 31
0.0
  0
LINE
  5
   2E3
  8
0
  6
CONTINUOUS
 62
   212
 10
123.368350656606
 20
108.261271800328
 30
0.0
 11
123.36835172949
 21
108.367540112458
 31
0.0
  0
LINE
  5
   2E4
  8
0
  6
CONTINUOUS
 62
   212
 10
140.166143797266
 20
67.4804148437818
 30
0.0
 11
140.30757140907
 21
67.5389902838818
 31
0.0
  0
LINE
  5
   2E5
  8
0
  6
CONTINUOUS
 62
   212
 10
140.307572367812
 20
67.5389919448747
 30
0.0
 11
140.366638206185
 21
67.6815819555065
 31
0.0
  0
LINE
  5
   2E6
  8
0
  6
CONTINUOUS
 62
   212
 10
140.366514680626
 20
109.279683702011
 30
0.0
 11
140.307809540433
 21
109.421108261876
 31
0.0
  0
LINE
  5
   2E7
  8
0
  6
CONTINUOUS
 62
   212
 10
140.307809503798
 20
109.421110942804
 30
0.0
 11
140.16638189122
 21
109.479863387016
 31
0.0
  0
LINE
  5
   2E8
  8
0
  6
CONTINUOUS
 62
     2
 10
167.963631361678
 20
101.276603720998
 30
0.0
 11
162.363631278231
 21
101.276603720998
 31
0.0
  0
LINE
  5
   2E9
  8
0
  6
CONTINUOUS
 62
     2
 10
167.963631361678
 20
84.8828748390168
 30
0.0
 11
162.363631278231
 21
84.8828748390168
 31
0.0
  0
LINE
  5
   2EA
  8
0
  6
CONTINUOUS
 62
     2
 10
160.763637318109
 20
82.4797406479339
 30
0.0
 11
156.163631185844
 21
82.4797406479339
 31
0.0
  0
LINE
  5
   2EB
  8
0
  6
CONTINUOUS
 62
     2
 10
160.76363125439
 20
103.679740963839
 30
0.0
 11
156.163631185844
 21
103.679740963839
 31
0.0
  0
LINE
  5
   2EC
  8
0
  6
CONTINUOUS
 62
   212
 10
140.767560089423
 20
103.677195790586
 30
0.0
 11
140.366635157401
 21
103.677201908191
 31
0.0
  0
LINE
  5
   2ED
  8
0
  6
CONTINUOUS
 62
   212
 10
140.366636688301
 20
82.7634381719402
 30
0.0
 11
140.767957265708
 21
82.7634473513467
 31
0.0
  0
ARC
  5
   2EE
  8
0
  6
CONTINUOUS
 62
     2
 10
160.763635606786
 20
102.079747203857
 30
0.0
 40
1.59999363822779
 50
359.999720100791
 51
450.000090677994
  0
ARC
  5
   2EF
  8
0
  6
CONTINUOUS
 62
     2
 10
160.763637318109
 20
84.0797342893981
 30
0.0
 40
1.59999184878252
 50
269.999805758074
 51
360.00018634965
  0
ARC
  5
   2F0
  8
0
  6
CONTINUOUS
 62
     2
 10
167.963631361678
 20
99.6766036971558
 30
0.0
 40
1.60000002384186
 50
359.999999948034
 51
449.999999948034
  0
ARC
  5
   2F1
  8
0
  6
CONTINUOUS
 62
     2
 10
167.963631361678
 20
86.4828748628586
 30
0.0
 40
1.60000002384186
 50
269.999999948034
 51
359.999999948034
  0
LINE
  5
   2F2
  8
0
  6
DASHDOT
 62
     7
 10
158.089960946925
 20
93.0797408058862
 30
0.0
 11
124.171324785995
 21
93.0797408058862
 31
0.0
  0
LINE
  5
   2F3
  8
0
  6
CONTINUOUS
 62
     7
 10
120.566651644052
 20
125.47732429646
 30
0.0
 11
120.446651756705
 21
125.47732429646
 31
0.0
  0
LINE
  5
   2F4
  8
0
  6
CONTINUOUS
 62
     7
 10
123.366651770473
 20
67.4799189522511
 30
0.0
 11
123.366651770473
 21
109.377325582316
 31
0.0
  0
LINE
  5
   2F5
  8
0
  6
CONTINUOUS
 62
     7
 10
123.337362215972
 20
109.448033903735
 30
0.0
 11
123.266651544436
 21
109.477324675807
 31
0.0
  0
LINE
  5
   2F6
  8
0
  6
CONTINUOUS
 62
     7
 10
123.366652107312
 20
109.377322087629
 30
0.0
 11
123.337362776832
 21
109.448031315565
 31
0.0
  0
LINE
  5
   2F7
  8
0
  6
CONTINUOUS
 62
     7
 10
123.337361961631
 20
67.5066115850851
 30
0.0
 11
123.36665124422
 21
67.5773223388182
 31
0.0
  0
LINE
  5
   2F8
  8
0
  6
CONTINUOUS
 62
     7
 10
135.016440180497
 20
77.2684565186765
 30
0.0
 11
135.570968226183
 21
79.6310603641203
 31
0.0
  0
LINE
  5
   2F9
  8
0
  6
CONTINUOUS
 62
     7
 10
134.549065484028
 20
76.9675245670092
 30
0.0
 11
134.843566985528
 21
77.0235395824582
 31
0.0
  0
LINE
  5
   2FA
  8
0
  6
CONTINUOUS
 62
     7
 10
134.843566480063
 20
77.0235387150322
 30
0.0
 11
135.01643940827
 21
77.2684544872136
 31
0.0
  0
LINE
  5
   2FB
  8
0
  6
CONTINUOUS
 62
     7
 10
135.57096767747
 20
79.6310576692144
 30
0.0
 11
135.525049402929
 21
79.9274169252264
 31
0.0
  0
LINE
  5
   2FC
  8
0
  6
CONTINUOUS
 62
     7
 10
135.525049671905
 20
79.9274199805938
 30
0.0
 11
135.286045909122
 21
80.1085692740493
 31
0.0
  0
LINE
  5
   2FD
  8
0
  6
CONTINUOUS
 62
     7
 10
135.286046074325
 20
80.1085682204228
 30
0.0
 11
124.537933240604
 21
83.0174122437648
 31
0.0
  0
LINE
  5
   2FE
  8
0
  6
CONTINUOUS
 62
     7
 10
124.537933988831
 20
83.0174094350734
 30
0.0
 11
124.318440508919
 21
83.1689322718412
 31
0.0
  0
LINE
  5
   2FF
  8
0
  6
CONTINUOUS
 62
     7
 10
124.318439871695
 20
83.1689341167306
 30
0.0
 11
124.2429930757
 21
83.4247538209375
 31
0.0
  0
LINE
  5
   300
  8
0
  6
CONTINUOUS
 62
     7
 10
123.41389190992
 20
78.8157192209776
 30
0.0
 11
123.591442436399
 21
79.0403438661163
 31
0.0
  0
LINE
  5
   301
  8
0
  6
CONTINUOUS
 62
     7
 10
123.591442843685
 20
79.040345057111
 30
0.0
 11
123.87364462078
 21
79.088752038166
 31
0.0
  0
LINE
  5
   302
  8
0
  6
CONTINUOUS
 62
     7
 10
134.549065294126
 20
76.9675257747325
 30
0.0
 11
123.873644493968
 21
79.0887538553151
 31
0.0
  0
LINE
  5
   303
  8
0
  6
CONTINUOUS
 62
     7
 10
123.709976657338
 20
88.9752337013925
 30
0.0
 11
123.400725295386
 21
89.0478167109884
 31
0.0
  0
LINE
  5
   304
  8
0
  6
CONTINUOUS
 62
     7
 10
134.535567579699
 20
76.9702048517793
 30
0.0
 11
135.27300199218
 21
80.1120963807923
 31
0.0
  0
ARC
  5
   305
  8
0
  6
CONTINUOUS
 62
     7
 10
105.469477125318
 20
84.4227545814436
 30
0.0
 40
18.8000240781621
 50
341.245923642721
 51
374.013636909674
  0
LINE
  5
   306
  8
0
  6
DASHED
 62
     2
 10
169.56363138552
 20
68.6797404422978
 30
0.0
 11
169.56363138552
 21
102.079740939997
 31
0.0
  0
LINE
  5
   307
  8
0
  6
DASHED
 62
     7
 10
167.963631361678
 20
67.079740418456
 30
0.0
 11
163.963631302073
 21
67.079740418456
 31
0.0
  0
LINE
  5
   308
  8
0
  6
DASHED
 62
     7
 10
159.563631236508
 20
80.089884655291
 30
0.0
 11
156.163631185844
 21
80.089884655291
 31
0.0
  0
LINE
  5
   309
  8
0
  6
DASHED
 62
     7
 10
167.963631361678
 20
103.679740963839
 30
0.0
 11
160.76363125439
 21
103.679740963839
 31
0.0
  0
ARC
  5
   30A
  8
0
  6
DASHED
 62
     7
 10
163.963631302073
 20
68.6797404422978
 30
0.0
 40
1.60000002384186
 50
179.999999948034
 51
269.999999948034
  0
ARC
  5
   30B
  8
0
  6
DASHED
 62
     7
 10
167.963631361678
 20
68.6797404422978
 30
0.0
 40
1.60000002384186
 50
269.999999948034
 51
359.999999948034
  0
ARC
  5
   30C
  8
0
  6
DASHED
 62
     7
 10
159.563631236508
 20
77.2898846135677
 30
0.0
 40
2.80000004172325
 50
359.999999948034
 51
449.999999948034
  0
ARC
  5
   30D
  8
0
  6
DASHED
 62
     7
 10
159.563631236508
 20
78.6961621003432
 30
0.0
 40
2.80000004172325
 50
359.999999948034
 51
449.999999948034
  0
ARC
  5
   30E
  8
0
  6
DASHED
 62
     7
 10
167.963631361678
 20
102.079740939997
 30
0.0
 40
1.60000002384186
 50
359.999999948034
 51
449.999999948034
  0
LINE
  5
   30F
  8
0
  6
DASHED
 62
     7
 10
162.363631278231
 20
68.6797404422978
 30
0.0
 11
162.363631278231
 21
78.6961621003432
 31
0.0
  0
LINE
  5
   310
  8
0
  6
DASHED
 62
     7
 10
172.763631433204
 20
82.2797406449536
 30
0.0
 11
172.763631433204
 21
88.6797407403211
 31
0.0
  0
ARC
  5
   311
  8
0
  6
DASHED
 62
     7
 10
171.163631409362
 20
82.2797406449536
 30
0.0
 40
1.60000002384186
 50
179.999999948034
 51
359.999999948034
  0
ARC
  5
   312
  8
0
  6
DASHED
 62
     7
 10
171.163631409362
 20
88.6797407403211
 30
0.0
 40
1.60000002384186
 50
359.999999948034
 51
539.999999948034
  0
LINE
  5
   313
  8
0
  6
DASHDOT
 62
     7
 10
173.563631445124
 20
82.2797406449537
 30
0.0
 11
168.763631373599
 21
82.2797406449537
 31
0.0
  0
LINE
  5
   314
  8
0
  6
DASHDOT
 62
     7
 10
171.163631409362
 20
79.8797406091909
 30
0.0
 11
171.163631409362
 21
91.0797407760839
 31
0.0
  0
LINE
  5
   315
  8
0
  6
DASHDOT
 62
     7
 10
173.563631445124
 20
88.6797407403211
 30
0.0
 11
168.763631373599
 21
88.6797407403211
 31
0.0
  0
ARC
  5
   316
  8
0
  6
DASHED
 62
     7
 10
165.963631331876
 20
96.2797408535699
 30
0.0
 40
16.5197581136385
 50
282.586944898878
 51
307.750050279576
  0
ARC
  5
   317
  8
0
  6
DASHED
 62
     7
 10
165.963631331876
 20
96.2797408535699
 30
0.0
 40
17.7197581315199
 50
281.721986606845
 51
307.180704193027
  0
LINE
  5
   318
  8
0
  6
DASHED
 62
     7
 10
177.311808751811
 20
81.0265811803274
 30
0.0
 11
169.56363138552
 21
94.779332086828
 31
0.0
  0
LINE
  5
   319
  8
0
  6
DASHED
 62
     2
 10
178.357301086857
 20
81.6156022497928
 30
0.0
 11
169.56363138552
 21
97.2240664394077
 31
0.0
  0
LINE
  5
   31A
  8
0
  6
DASHED
 62
     7
 10
177.31180875181
 20
81.0265811803274
 30
0.0
 11
178.357301086857
 21
81.6156022497928
 31
0.0
  0
LINE
  5
   31B
  8
0
  6
DASHED
 62
     7
 10
156.163631185844
 20
80.089884655291
 30
0.0
 11
156.163631185844
 21
82.4797406479339
 31
0.0
  0
LINE
  5
   31C
  8
0
  6
CONTINUOUS
 62
   212
 10
140.767132564277
 20
82.7638120336772
 30
0.0
 11
140.767560090164
 21
103.677195790587
 31
0.0
  0
LINE
  5
   31D
  8
0
  6
CONTINUOUS
 62
   253
 10
155.963631182864
 20
82.4797025620139
 30
0.0
 11
155.963631182864
 21
89.0797407462816
 31
0.0
  0
LINE
  5
   31E
  8
0
  6
CONTINUOUS
 62
   253
 10
149.763631090477
 20
89.4797423391742
 30
0.0
 11
149.763631090477
 21
91.4797423689765
 31
0.0
  0
LINE
  5
   31F
  8
0
  6
CONTINUOUS
 62
   253
 10
155.063631169453
 20
109.479901328606
 30
0.0
 11
149.763631090477
 21
109.479901328606
 31
0.0
  0
LINE
  5
   320
  8
0
  6
CONTINUOUS
 62
   253
 10
155.063631169453
 20
67.4798884957259
 30
0.0
 11
149.763631090477
 21
67.4798884957259
 31
0.0
  0
LINE
  5
   321
  8
0
  6
CONTINUOUS
 62
   253
 10
155.563631176904
 20
67.9799007102079
 30
0.0
 11
155.563631176904
 21
89.0797407462816
 31
0.0
  0
LINE
  5
   322
  8
0
  6
CONTINUOUS
 62
   253
 10
149.763631090477
 20
67.4798884957259
 30
0.0
 11
149.763631090477
 21
89.4797423391742
 31
0.0
  0
LINE
  5
   323
  8
0
  6
CONTINUOUS
 62
   253
 10
149.763631090477
 20
93.0796996682084
 30
0.0
 11
149.763631090477
 21
109.479901328606
 31
0.0
  0
LINE
  5
   324
  8
0
  6
CONTINUOUS
 62
   253
 10
149.763631090477
 20
91.4797423689765
 30
0.0
 11
149.763631090477
 21
93.0797027199662
 31
0.0
  0
LINE
  5
   325
  8
0
  6
CONTINUOUS
 62
   253
 10
155.417186021007
 20
67.6263499910467
 30
0.0
 11
155.563633782006
 21
67.9799037723737
 31
0.0
  0
LINE
  5
   326
  8
0
  6
CONTINUOUS
 62
   253
 10
155.346455335586
 20
67.5970482335401
 30
0.0
 11
155.417182877306
 21
67.6263466358961
 31
0.0
  0
LINE
  5
   327
  8
0
  6
CONTINUOUS
 62
   253
 10
155.063631001356
 20
67.479888400719
 30
0.0
 11
155.34636110969
 21
67.5970087677404
 31
0.0
  0
LINE
  5
   328
  8
0
  6
CONTINUOUS
 62
   253
 10
155.417185005205
 20
109.333456160656
 30
0.0
 11
155.063632751567
 21
109.47990391937
 31
0.0
  0
LINE
  5
   329
  8
0
  6
CONTINUOUS
 62
   253
 10
155.563631824831
 20
108.979905761956
 30
0.0
 11
155.417184066117
 21
109.333458015594
 31
0.0
  0
LINE
  5
   32A
  8
0
  6
CONTINUOUS
 62
   130
 10
140.966617104466
 20
87.2797819795111
 30
0.0
 11
140.966646096166
 21
98.8797485830282
 31
0.0
  0
LINE
  5
   32B
  8
0
  6
CONTINUOUS
 62
   130
 10
141.166594219261
 20
82.4797452868515
 30
0.0
 11
141.166646099143
 21
103.679785275608
 31
0.0
  0
LINE
  5
   32C
  8
0
  6
CONTINUOUS
 62
   130
 10
141.766594228203
 20
82.4797483387363
 30
0.0
 11
141.766646108087
 21
103.67977917222
 31
0.0
  0
LINE
  5
   32D
  8
0
  6
CONTINUOUS
 62
   130
 10
146.567215901735
 20
101.079694961344
 30
0.0
 11
142.166639316501
 21
101.079710575513
 31
0.0
  0
LINE
  5
   32E
  8
0
  6
CONTINUOUS
 62
   130
 10
146.567021224123
 20
85.0796975620785
 30
0.0
 11
142.166600802312
 21
85.0797105734247
 31
0.0
  0
LINE
  5
   32F
  8
0
  6
CONTINUOUS
 62
   130
 10
146.967158885003
 20
96.2797058237249
 30
0.0
 11
141.767158807517
 21
96.2797729623985
 31
0.0
  0
LINE
  5
   330
  8
0
  6
CONTINUOUS
 62
   130
 10
146.96707801356
 20
89.879705727824
 30
0.0
 11
141.767077936074
 21
89.8797728664976
 31
0.0
  0
LINE
  5
   331
  8
0
  6
CONTINUOUS
 62
   130
 10
141.767077933253
 20
89.8797728699616
 30
0.0
 11
141.767158804836
 21
96.279772965329
 31
0.0
  0
LINE
  5
   332
  8
0
  6
CONTINUOUS
 62
   130
 10
146.967022411775
 20
85.4796925135632
 30
0.0
 11
146.967214481749
 21
100.679689900912
 31
0.0
  0
LINE
  5
   333
  8
0
  6
CONTINUOUS
 62
   253
 10
155.963631182864
 20
82.4797025620139
 30
0.0
 11
155.563631176904
 21
82.4797025620139
 31
0.0
  0
LINE
  5
   334
  8
0
  6
CONTINUOUS
 62
   253
 10
155.963631182864
 20
103.679699826161
 30
0.0
 11
155.563631176904
 21
103.679699826161
 31
0.0
  0
LINE
  5
   335
  8
0
  6
CONTINUOUS
 62
   130
 10
140.966620155748
 20
87.7797667280153
 30
0.0
 11
140.767235103363
 21
87.7797671787377
 31
0.0
  0
LINE
  5
   336
  8
0
  6
CONTINUOUS
 62
   130
 10
140.96664609764
 20
98.3797668859947
 30
0.0
 11
140.767451797998
 21
98.3797673362859
 31
0.0
  0
LINE
  5
   337
  8
0
  6
CONTINUOUS
 62
   130
 10
141.166617107391
 20
87.2797819792438
 30
0.0
 11
140.966617104411
 21
87.2797819792438
 31
0.0
  0
LINE
  5
   338
  8
0
  6
CONTINUOUS
 62
   130
 10
141.166646099091
 20
98.8797485827608
 30
0.0
 11
140.96664609611
 21
98.8797485827608
 31
0.0
  0
LINE
  5
   339
  8
0
  6
CONTINUOUS
 62
   130
 10
141.166594218681
 20
82.4797452871154
 30
0.0
 11
141.766594227622
 21
82.4797483388734
 31
0.0
  0
LINE
  5
   33A
  8
0
  6
CONTINUOUS
 62
   130
 10
141.766646109041
 20
103.679779174928
 30
0.0
 11
141.166646100101
 21
103.679785278443
 31
0.0
  0
ARC
  5
   33B
  8
0
  6
CONTINUOUS
 62
     7
 10
146.56721447582
 20
100.679694955386
 30
0.0
 40
0.400000005960464
 50
359.999275947982
 51
449.999999948034
  0
ARC
  5
   33C
  8
0
  6
CONTINUOUS
 62
     7
 10
146.567022405846
 20
85.4796975680371
 30
0.0
 40
0.400000005960464
 50
269.999830533489
 51
359.999275947982
  0
ARC
  5
   33D
  8
0
  6
CONTINUOUS
 62
     7
 10
142.166640730127
 20
101.479710581471
 30
0.0
 40
0.400000005960464
 50
179.999859736049
 51
269.999796650584
  0
ARC
  5
   33E
  8
0
  6
CONTINUOUS
 62
     7
 10
142.166599617826
 20
84.679710567466
 30
0.0
 40
0.400000005960464
 50
89.9999999480344
 51
179.999859736049
  0
LINE
  5
   33F
  8
0
  6
CONTINUOUS
 62
   212
 10
155.563631176904
 20
103.67663879578
 30
0.0
 11
155.563631176904
 21
109.277056459825
 31
0.0
  0
LINE
  5
   340
  8
0
  6
CONTINUOUS
 62
     7
 10
148.963631078556
 20
62.9452672119991
 30
0.0
 11
148.963631078556
 21
135.813059783247
 31
0.0
  0
LINE
  5
   341
  8
0
  6
CONTINUOUS
 62
     7
 10
149.763631090477
 20
109.477056462805
 30
0.0
 11
149.763631090477
 21
135.813059783247
 31
0.0
  0
LINE
  5
   342
  8
0
  6
CONTINUOUS
 62
   170
 10
147.763631060674
 20
87.6766950144091
 30
0.0
 11
147.763631060674
 21
98.4766997532922
 31
0.0
  0
LINE
  5
   343
  8
0
  6
CONTINUOUS
 62
   170
 10
148.963631078556
 20
99.0766860293416
 30
0.0
 11
148.363626491979
 21
99.0766906070128
 31
0.0
  0
LINE
  5
   344
  8
0
  6
CONTINUOUS
 62
   170
 10
148.963631078556
 20
87.0766858501784
 30
0.0
 11
148.363640224975
 21
87.0766904277448
 31
0.0
  0
LINE
  5
   345
  8
0
  6
CONTINUOUS
 62
   170
 10
148.963631078556
 20
98.4766860203835
 30
0.0
 11
147.763631060674
 21
98.476695175656
 31
0.0
  0
LINE
  5
   346
  8
0
  6
CONTINUOUS
 62
   170
 10
148.963631078556
 20
87.6766858591366
 30
0.0
 11
147.763631060674
 21
87.6766950144091
 31
0.0
  0
LINE
  5
   347
  8
0
  6
CONTINUOUS
 62
   170
 10
147.763631060674
 20
98.4766997532922
 30
0.0
 11
148.363635647251
 21
99.0766997622154
 31
0.0
  0
LINE
  5
   348
  8
0
  6
CONTINUOUS
 62
   170
 10
148.363631069615
 20
87.0766995831046
 30
0.0
 11
147.763631060675
 21
87.6766995920453
 31
0.0
  0
LINE
  5
   349
  8
0
  6
CONTINUOUS
 62
     7
 10
147.763631060674
 20
95.0767042801656
 30
0.0
 11
146.967143682913
 21
95.0767103568813
 31
0.0
  0
LINE
  5
   34A
  8
0
  6
CONTINUOUS
 62
     7
 10
147.763631060675
 20
91.0767042204445
 30
0.0
 11
146.967093138593
 21
91.0767102975458
 31
0.0
  0
LINE
  5
   34B
  8
0
  6
DASHDOT
 62
     7
 10
144.363631010011
 20
83.4053355102219
 30
0.0
 11
144.363631010011
 21
103.676750184928
 31
0.0
  0
LINE
  5
   34C
  8
0
  6
CONTINUOUS
 62
     7
 10
145.363631024912
 20
102.679708709165
 30
0.0
 11
145.363631024912
 21
105.076722740013
 31
0.0
  0
LINE
  5
   34D
  8
0
  6
CONTINUOUS
 62
     7
 10
143.363630995109
 20
102.679723967952
 30
0.0
 11
143.363630995109
 21
105.076737998801
 31
0.0
  0
LINE
  5
   34E
  8
0
  6
CONTINUOUS
 62
     7
 10
145.363631025343
 20
105.076722740013
 30
0.0
 11
143.363630995606
 21
105.076737998801
 31
0.0
  0
LINE
  5
   34F
  8
0
  6
CONTINUOUS
 62
     7
 10
145.189631022319
 20
102.679710036679
 30
0.0
 11
145.189631022319
 21
105.076724067528
 31
0.0
  0
LINE
  5
   350
  8
0
  6
CONTINUOUS
 62
     7
 10
143.537630997702
 20
102.679722640438
 30
0.0
 11
143.537630997702
 21
105.076736671286
 31
0.0
  0
LINE
  5
   351
  8
0
  6
CONTINUOUS
 62
     7
 10
145.363533278325
 20
81.0767223824325
 30
0.0
 11
145.363569944589
 21
83.4796828903991
 31
0.0
  0
LINE
  5
   352
  8
0
  6
CONTINUOUS
 62
     7
 10
145.363533278472
 20
81.0767223824325
 30
0.0
 11
143.363527234541
 21
81.0767376412659
 31
0.0
  0
LINE
  5
   353
  8
0
  6
CONTINUOUS
 62
     7
 10
143.537533251116
 20
81.0767363137055
 30
0.0
 11
143.537569917379
 21
83.479696821672
 31
0.0
  0
LINE
  5
   354
  8
0
  6
CONTINUOUS
 62
     7
 10
145.189533275733
 20
81.0767237099471
 30
0.0
 11
145.189569941996
 21
83.4796842179136
 31
0.0
  0
LINE
  5
   355
  8
0
  6
CONTINUOUS
 62
     7
 10
143.363533248523
 20
81.07673764122
 30
0.0
 11
143.363569914786
 21
83.4796981491865
 31
0.0
  0
LINE
  5
   356
  8
0
  6
CONTINUOUS
 62
   132
 10
145.837633320147
 20
102.679705092815
 30
0.0
 11
142.889633276121
 21
102.679727584267
 31
0.0
  0
LINE
  5
   357
  8
0
  6
CONTINUOUS
 62
   132
 10
142.589630983576
 20
101.379729854906
 30
0.0
 11
142.589630983576
 21
102.37972757996
 31
0.0
  0
LINE
  5
   358
  8
0
  6
CONTINUOUS
 62
   132
 10
146.137631036445
 20
101.379707362266
 30
0.0
 11
146.137631036445
 21
102.379705088508
 31
0.0
  0
LINE
  5
   359
  8
0
  6
CONTINUOUS
 62
   132
 10
143.189630992517
 20
101.379729854906
 30
0.0
 11
143.189630992517
 21
102.37972757996
 31
0.0
  0
LINE
  5
   35A
  8
0
  6
CONTINUOUS
 62
   132
 10
145.537631027504
 20
101.379702784596
 30
0.0
 11
145.537631027504
 21
102.379707377171
 31
0.0
  0
LINE
  5
   35B
  8
0
  6
CONTINUOUS
 62
   132
 10
145.837631031975
 20
101.079702780125
 30
0.0
 11
142.889630988046
 21
101.079702780125
 31
0.0
  0
ARC
  5
   35C
  8
0
  6
CONTINUOUS
 62
   132
 10
142.889630988046
 20
101.379729854906
 30
0.0
 40
0.30000000569165
 50
180.005169996315
 51
359.999999948034
  0
ARC
  5
   35D
  8
0
  6
CONTINUOUS
 62
   132
 10
144.363631010011
 20
103.526829483257
 30
0.0
 40
2.44712670313166
 50
241.331165206346
 51
298.668834689722
  0
ARC
  5
   35E
  8
0
  6
CONTINUOUS
 62
   132
 10
145.837631031975
 20
101.379707362266
 30
0.0
 40
0.300000004505316
 50
179.999999948034
 51
359.999125677368
  0
ARC
  5
   35F
  8
0
  6
CONTINUOUS
 62
   132
 10
145.837631031975
 20
102.379705088508
 30
0.0
 40
0.300000004479044
 50
359.999562786388
 51
539.999999948034
  0
ARC
  5
   360
  8
0
  6
CONTINUOUS
 62
   132
 10
144.363614628736
 20
100.232589635355
 30
0.0
 40
2.44712670325835
 50
421.330728075003
 51
478.668397556958
  0
ARC
  5
   361
  8
0
  6
CONTINUOUS
 62
   132
 10
142.889630988046
 20
102.37972757996
 30
0.0
 40
0.300000004479308
 50
359.999999948034
 51
539.999562845491
  0
LINE
  5
   362
  8
0
  6
CONTINUOUS
 62
   132
 10
145.837529561078
 20
83.4796792743746
 30
0.0
 11
142.889529516956
 21
83.4797017658273
 31
0.0
  0
ARC
  5
   363
  8
0
  6
CONTINUOUS
 62
   132
 10
144.363548209167
 20
85.9268172232871
 30
0.0
 40
2.44712670325835
 50
241.330728075001
 51
298.668397556956
  0
ARC
  5
   364
  8
0
  6
CONTINUOUS
 62
   132
 10
145.837531849856
 20
83.7796792786813
 30
0.0
 40
0.300000004479044
 50
179.999125683925
 51
359.999562845572
  0
LINE
  5
   365
  8
0
  6
CONTINUOUS
 62
   132
 10
145.537531845386
 20
83.7796815676542
 30
0.0
 11
145.537547104243
 21
84.7796861601133
 31
0.0
  0
LINE
  5
   366
  8
0
  6
CONTINUOUS
 62
   132
 10
143.189531810363
 20
83.7796971924982
 30
0.0
 11
143.189547069116
 21
84.7796949174361
 31
0.0
  0
LINE
  5
   367
  8
0
  6
CONTINUOUS
 62
   132
 10
142.589531801492
 20
83.7797063477707
 30
0.0
 11
142.589547060245
 21
84.7797040727086
 31
0.0
  0
LINE
  5
   368
  8
0
  6
CONTINUOUS
 62
   132
 10
146.137531854292
 20
83.779674701045
 30
0.0
 11
146.137547113044
 21
84.7796724271701
 31
0.0
  0
ARC
  5
   369
  8
0
  6
CONTINUOUS
 62
   132
 10
145.837547108609
 20
84.7796770048063
 30
0.0
 40
0.300000004505316
 50
359.999999954592
 51
539.999125683925
  0
LINE
  5
   36A
  8
0
  6
CONTINUOUS
 62
   132
 10
145.837551688701
 20
85.0796815869123
 30
0.0
 11
142.889551644799
 21
85.0797265698178
 31
0.0
  0
ARC
  5
   36B
  8
0
  6
CONTINUOUS
 62
   132
 10
142.88954706468
 20
84.7796994950724
 30
0.0
 40
0.30000000569165
 50
359.999125683925
 51
539.993955635644
  0
ARC
  5
   36C
  8
0
  6
CONTINUOUS
 62
   132
 10
144.363514324336
 20
82.6325773755183
 30
0.0
 40
2.44712670313166
 50
421.330290942237
 51
478.667960425613
  0
ARC
  5
   36D
  8
0
  6
CONTINUOUS
 62
   132
 10
142.889531805927
 20
83.7797017701344
 30
0.0
 40
0.300000004479308
 50
179.999562786468
 51
359.999125683925
  0
ARC
  5
   36E
  8
0
  6
CONTINUOUS
 62
     7
 10
150.163631096437
 20
102.279740942977
 30
0.0
 40
2.32000003457069
 50
184.945429665918
 51
220.28211830402
  0
LINE
  5
   36F
  8
0
  6
CONTINUOUS
 62
     7
 10
148.243631067827
 20
102.079740939997
 30
0.0
 11
147.852267827884
 21
102.079740939997
 31
0.0
  0
LINE
  5
   370
  8
0
  6
CONTINUOUS
 62
     7
 10
148.243631067827
 20
102.479740945957
 30
0.0
 11
147.852267827884
 21
102.479740945957
 31
0.0
  0
ARC
  5
   371
  8
0
  6
CONTINUOUS
 62
     7
 10
150.163631096437
 20
102.279740942977
 30
0.0
 40
2.32000003457069
 50
139.717881592049
 51
175.054570230151
  0
LINE
  5
   372
  8
0
  6
CONTINUOUS
 62
     7
 10
148.963631078556
 20
103.779740965329
 30
0.0
 11
148.393772318638
 21
103.779740965329
 31
0.0
  0
LINE
  5
   373
  8
0
  6
CONTINUOUS
 62
     7
 10
148.963631078556
 20
100.779740920625
 30
0.0
 11
148.393772318638
 21
100.779740920625
 31
0.0
  0
LINE
  5
   374
  8
0
  6
CONTINUOUS
 62
     7
 10
148.243631067827
 20
102.079740939997
 30
0.0
 11
148.243631067827
 21
102.479740945957
 31
0.0
  0
LINE
  5
   375
  8
0
  6
DASHDOT
 62
     7
 10
154.299991527938
 20
102.279740942977
 30
0.0
 11
147.573657077733
 21
102.279740942977
 31
0.0
  0
LINE
  5
   376
  8
0
  6
CONTINUOUS
 62
     7
 10
152.165449350715
 20
135.813059783247
 30
0.0
 11
146.984559314175
 21
135.813059783247
 31
0.0
  0
LINE
  5
   377
  8
0
  6
CONTINUOUS
 62
     7
 10
152.972153609961
 20
62.9452672119991
 30
0.0
 11
148.111956105105
 21
62.9452672119991
 31
0.0
  0
LINE
  5
   378
  8
0
  6
CONTINUOUS
 62
     7
 10
149.763631090477
 20
62.9452672119991
 30
0.0
 11
149.763631090477
 21
67.4798884957259
 31
0.0
  0
LINE
  5
   379
  8
0
  6
CONTINUOUS
 62
     7
 10
157.363631203726
 20
91.8797407880048
 30
0.0
 11
157.363631203726
 21
94.2797408237676
 31
0.0
  0
LINE
  5
   37A
  8
0
  6
CONTINUOUS
 62
     7
 10
156.563631191805
 20
95.0797408356885
 30
0.0
 11
149.763631090477
 21
95.0797408356885
 31
0.0
  0
LINE
  5
   37B
  8
0
  6
CONTINUOUS
 62
     7
 10
156.563631191805
 20
91.0797407760839
 30
0.0
 11
149.763631090477
 21
91.0797407760839
 31
0.0
  0
LINE
  5
   37C
  8
0
  6
CONTINUOUS
 62
     7
 10
157.363631203726
 20
94.2797408237676
 30
0.0
 11
156.563631191805
 21
95.0797408356885
 31
0.0
  0
LINE
  5
   37D
  8
0
  6
CONTINUOUS
 62
     7
 10
156.563631191805
 20
91.0797407760839
 30
0.0
 11
157.363631203726
 21
91.8797407880048
 31
0.0
  0
CIRCLE
  5
   37E
  8
0
  6
CONTINUOUS
 62
     7
 10
154.963631167963
 20
93.0797408058862
 30
0.0
 40
1.10000001639128
  0
LINE
  5
   37F
  8
0
  6
DASHDOT
 62
     7
 10
154.963631167963
 20
91.5797407835345
 30
0.0
 11
154.963631167963
 21
94.5797408282379
 31
0.0
  0
LINE
  5
   380
  8
0
  6
CONTINUOUS
 62
     7
 10
159.363631233528
 20
97.0797408654908
 30
0.0
 11
149.763631090477
 21
97.0797408654908
 31
0.0
  0
LINE
  5
   381
  8
0
  6
CONTINUOUS
 62
     7
 10
159.363631233528
 20
89.0797407462816
 30
0.0
 11
149.763631090477
 21
89.0797407462816
 31
0.0
  0
LINE
  5
   382
  8
0
  6
CONTINUOUS
 62
     7
 10
159.363631233528
 20
89.0797407462816
 30
0.0
 11
159.363631233528
 21
97.0797408654908
 31
0.0
  0
LINE
  5
   383
  8
0
  6
CONTINUOUS
 62
   253
 10
155.563631176904
 20
97.0797408654908
 30
0.0
 11
155.563631176904
 21
108.979901321155
 31
0.0
  0
LINE
  5
   384
  8
0
  6
CONTINUOUS
 62
   253
 10
155.963631182864
 20
97.0797408654908
 30
0.0
 11
155.963631182864
 21
103.679699826161
 31
0.0
  0
LINE
  5
   385
  8
0
  6
CONTINUOUS
 62
     2
 10
156.163631185844
 20
97.0797408654908
 30
0.0
 11
156.163631185844
 21
99.4797409012536
 31
0.0
  0
LINE
  5
   386
  8
0
  6
CONTINUOUS
 62
     7
 10
148.963631078556
 20
85.3797406911472
 30
0.0
 11
148.393772318638
 21
85.3797406911472
 31
0.0
  0
ARC
  5
   387
  8
0
  6
CONTINUOUS
 62
     7
 10
150.163631096437
 20
83.8797406687955
 30
0.0
 40
2.32000003457069
 50
139.717881592049
 51
175.054570230151
  0
LINE
  5
   388
  8
0
  6
CONTINUOUS
 62
     7
 10
148.243631067827
 20
84.0797406717757
 30
0.0
 11
147.852267827884
 21
84.0797406717757
 31
0.0
  0
LINE
  5
   389
  8
0
  6
CONTINUOUS
 62
     7
 10
148.243631067827
 20
83.6797406658153
 30
0.0
 11
148.243631067827
 21
84.0797406717757
 31
0.0
  0
LINE
  5
   38A
  8
0
  6
CONTINUOUS
 62
     7
 10
148.243631067827
 20
83.6797406658153
 30
0.0
 11
147.852267827884
 21
83.6797406658153
 31
0.0
  0
ARC
  5
   38B
  8
0
  6
CONTINUOUS
 62
     7
 10
150.163631096437
 20
83.8797406687955
 30
0.0
 40
2.32000003457069
 50
184.945429665918
 51
220.28211830402
  0
LINE
  5
   38C
  8
0
  6
CONTINUOUS
 62
     7
 10
148.963631078556
 20
82.3797406464438
 30
0.0
 11
148.393772318638
 21
82.3797406464438
 31
0.0
  0
LINE
  5
   38D
  8
0
  6
DASHDOT
 62
     7
 10
154.299991527938
 20
83.8797406687955
 30
0.0
 11
147.573657077733
 21
83.8797406687955
 31
0.0
  0
LINE
  5
   38E
  8
0
  6
DOT
 62
     2
 10
130.1666518718
 20
91.0797407760839
 30
0.0
 11
130.1666518718
 21
95.0797408356885
 31
0.0
  0
LINE
  5
   38F
  8
0
  6
DOT
 62
     2
 10
146.967143719758
 20
95.0797408356885
 30
0.0
 11
130.1666518718
 21
95.0797408356885
 31
0.0
  0
LINE
  5
   390
  8
0
  6
DOT
 62
     2
 10
146.967143719758
 20
91.0797407760839
 30
0.0
 11
130.1666518718
 21
91.0797407760839
 31
0.0
  0
LINE
  5
   391
  8
0
  6
CONTINUOUS
 62
     7
 10
84.9631665051286
 20
141.306617720473
 30
0.0
 11
77.3106984706247
 21
141.306617720473
 31
0.0
  0
LINE
  5
   392
  8
0
  6
CONTINUOUS
 62
     3
 10
146.967022411775
 20
50.0517479851327
 30
0.0
 11
146.967022411775
 21
53.0298101817361
 31
0.0
  0
LINE
  5
   393
  8
0
  6
CONTINUOUS
 62
     3
 10
146.967022411775
 20
35.8714070297858
 30
0.0
 11
146.967022411775
 21
39.0210056089136
 31
0.0
  0
LINE
  5
   394
  8
0
  6
CONTINUOUS
 62
     3
 10
146.967022411775
 20
56.6749583103787
 30
0.0
 11
146.967022411775
 21
85.4796925135632
 31
0.0
  0
INSERT
  5
   395
  8
0
  6
CONTINUOUS
 62
     7
  2
*UDIM220
 10
0.0
 20
0.0
 30
0.0
  0
INSERT
  5
   396
  8
0
  6
CONTINUOUS
 62
     7
  2
*UDIM221
 10
0.0
 20
0.0
 30
0.0
  0
INSERT
  5
   397
  8
0
  6
CONTINUOUS
 62
     7
  2
*UDIM222
 10
0.0
 20
0.0
 30
0.0
  0
INSERT
  5
   398
  8
0
  6
CONTINUOUS
 62
     7
  2
*UDIM223
 10
0.0
 20
0.0
 30
0.0
  0
INSERT
  5
   399
  8
0
  6
CONTINUOUS
 62
     7
  2
*UDIM224
 10
0.0
 20
0.0
 30
0.0
  0
INSERT
  5
   39A
  8
0
  6
CONTINUOUS
 62
     7
  2
*UDIM225
 10
0.0
 20
0.0
 30
0.0
  0
INSERT
  5
   39B
  8
0
  6
CONTINUOUS
 62
     7
  2
*UDIM226
 10
0.0
 20
0.0
 30
0.0
  0
INSERT
  5
   39C
  8
0
  6
CONTINUOUS
 62
     7
  2
*UDIM227
 10
0.0
 20
0.0
 30
0.0
  0
INSERT
  5
   39D
  8
0
  6
CONTINUOUS
 62
     7
  2
*UDIM228
 10
0.0
 20
0.0
 30
0.0
  0
TEXT
  5
   39E
  8
0
  6
CONTINUOUS
 62
     7
 10
185.161159827989
 20
87.1977665567281
 30
0.0
 40
2.99999994933605
  1
X
 50
359.999999948034
 41
0.916666607525612
 72
     1
 11
186.261159738444
 21
88.697766530404
 31
0.0
 73
     2
  0
CIRCLE
  5
   39F
  8
0
  6
CONTINUOUS
 62
   253
 10
125.124620689737
 20
-31.7842090374081
 30
0.0
 40
8.25
  0
CIRCLE
  5
   3A0
  8
0
  6
CONTINUOUS
 62
   253
 10
111.63062284687
 20
-20.2744913491735
 30
0.0
 40
1.25
  0
CIRCLE
  5
   3A1
  8
0
  6
CONTINUOUS
 62
   253
 10
138.630633550441
 20
-20.2744834104613
 30
0.0
 40
1.25
  0
CIRCLE
  5
   3A2
  8
0
  6
CONTINUOUS
 62
   253
 10
138.630643057293
 20
-43.2744834104613
 30
0.0
 40
1.25
  0
CIRCLE
  5
   3A3
  8
0
  6
CONTINUOUS
 62
   253
 10
111.630633550441
 20
-43.2744726532608
 30
0.0
 40
1.25
  0
LINE
  5
   3A4
  8
0
  6
DASHDOT
 62
     7
 10
106.45012153312
 20
-31.7842090374081
 30
0.0
 11
143.135356525116
 21
-31.7842090374081
 31
0.0
  0
LINE
  5
   3A5
  8
0
  6
DASHDOT
 62
     7
 10
125.124620689737
 20
-38.2703044849263
 30
0.0
 11
125.124620689737
 21
-19.9568331843966
 31
0.0
  0
LINE
  5
   3A6
  8
0
  6
DASHDOT
 62
     7
 10
109.818138365962
 20
-43.2744726532608
 30
0.0
 11
114.875485787633
 21
-43.2744726532608
 31
0.0
  0
LINE
  5
   3A7
  8
0
  6
DASHDOT
 62
     7
 10
111.630633550441
 20
-73.9108881119292
 30
0.0
 11
111.630633550441
 21
-40.4195249812546
 31
0.0
  0
LINE
  5
   3A8
  8
0
  6
DASHDOT
 62
     7
 10
134.537810051495
 20
-43.2744834104613
 30
0.0
 11
140.443141250056
 21
-43.2744834104613
 31
0.0
  0
LINE
  5
   3A9
  8
0
  6
DASHDOT
 62
     7
 10
138.630643057293
 20
-73.5250484254548
 30
0.0
 11
138.630643057293
 21
-38.6687700810478
 31
0.0
  0
LINE
  5
   3AA
  8
0
  6
DASHDOT
 62
     7
 10
127.66946390453
 20
-20.2744834104613
 30
0.0
 11
140.443132394711
 21
-20.2744834104613
 31
0.0
  0
LINE
  5
   3AB
  8
0
  6
DASHDOT
 62
     7
 10
138.630633550441
 20
-22.6994388162401
 30
0.0
 11
138.630633550441
 21
-17.437988546135
 31
0.0
  0
LINE
  5
   3AC
  8
0
  6
DASHDOT
 62
     7
 10
109.818112309583
 20
-20.2744913491735
 30
0.0
 11
117.030261049426
 21
-20.2744913491735
 31
0.0
  0
LINE
  5
   3AD
  8
0
  6
DASHDOT
 62
     7
 10
111.63062284687
 20
-23.9893636100826
 30
0.0
 11
111.63062284687
 21
-17.2626068704649
 31
0.0
  0
LINE
  5
   3AE
  8
0
  6
DASHDOT
 62
     7
 10
138.124620689737
 20
-71.1398576363405
 30
0.0
 11
138.124620689737
 21
2.24623960229142
 31
0.0
  0
LINE
  5
   3AF
  8
0
  6
CONTINUOUS
 62
     7
 10
106.63062284687
 20
-61.4640366460761
 30
0.0
 11
106.63062284687
 21
-15.2744913491735
 31
0.0
  0
LINE
  5
   3B0
  8
0
  6
CONTINUOUS
 62
     7
 10
106.63062284687
 20
-61.4640366460761
 30
0.0
 11
163.618649893222
 21
-61.4640366460761
 31
0.0
  0
LINE
  5
   3B1
  8
0
  6
CONTINUOUS
 62
     7
 10
163.618649893222
 20
-61.4640366460761
 30
0.0
 11
163.618649893222
 21
-15.2744913491735
 31
0.0
  0
LINE
  5
   3B2
  8
0
  6
CONTINUOUS
 62
     7
 10
106.63062284687
 20
-15.2744913491735
 30
0.0
 11
163.618649893222
 21
-15.2744913491735
 31
0.0
  0
LINE
  5
   3B3
  8
0
  6
DASHDOT
 62
     1
 10
102.675763481551
 20
-37.5342090374081
 30
0.0
 11
171.109693328051
 21
-37.5342090374081
 31
0.0
  0
POINT
  5
   3B4
  8
0
  6
CONTINUOUS
 62
     7
 10
133.374620689737
 20
-31.7842090374081
 30
0.0
  0
POINT
  5
   3B5
  8
0
  6
CONTINUOUS
 62
     7
 10
116.874620689737
 20
-31.7842090374081
 30
0.0
  0
POINT
  5
   3B6
  8
0
  6
CONTINUOUS
 62
     7
 10
139.880633550441
 20
-20.2744834104613
 30
0.0
  0
POINT
  5
   3B7
  8
0
  6
CONTINUOUS
 62
     7
 10
137.380633550441
 20
-20.2744834104613
 30
0.0
  0
LINE
  5
   3B8
  8
0
  6
CONTINUOUS
 62
     7
 10
164.118649893222
 20
-57.5342090374081
 30
0.0
 11
164.118649893222
 21
-52.5342090374081
 31
0.0
  0
LINE
  5
   3B9
  8
0
  6
CONTINUOUS
 62
     7
 10
165.118649893222
 20
-57.5342090374081
 30
0.0
 11
165.118649893222
 21
-52.5342090374081
 31
0.0
  0
LINE
  5
   3BA
  8
0
  6
CONTINUOUS
 62
     7
 10
164.118649893222
 20
-27.5342090374081
 30
0.0
 11
165.118649893222
 21
-27.5342090374081
 31
0.0
  0
LINE
  5
   3BB
  8
0
  6
CONTINUOUS
 62
     7
 10
164.118649893222
 20
-22.5342090374081
 30
0.0
 11
165.118649893222
 21
-22.5342090374081
 31
0.0
  0
LINE
  5
   3BC
  8
0
  6
CONTINUOUS
 62
     7
 10
164.118649893222
 20
-57.5342090374081
 30
0.0
 11
165.118649893222
 21
-57.5342090374081
 31
0.0
  0
LINE
  5
   3BD
  8
0
  6
CONTINUOUS
 62
     7
 10
164.118649893222
 20
-27.5342090374081
 30
0.0
 11
164.118649893222
 21
-22.5342090374081
 31
0.0
  0
LINE
  5
   3BE
  8
0
  6
CONTINUOUS
 62
     7
 10
165.118649893222
 20
-27.5342090374081
 30
0.0
 11
165.118649893222
 21
-22.5342090374081
 31
0.0
  0
LINE
  5
   3BF
  8
0
  6
CONTINUOUS
 62
     7
 10
164.118649893222
 20
-52.5342090374081
 30
0.0
 11
165.118649893222
 21
-52.5342090374081
 31
0.0
  0
LINE
  5
   3C0
  8
0
  6
DASHDOT
 62
     7
 10
164.618649893222
 20
-83.7373570321444
 30
0.0
 11
164.618649893222
 21
-27.5342090374081
 31
0.0
  0
LINE
  5
   3C1
  8
0
  6
DASHDOT
 62
     7
 10
138.124620689737
 20
-87.3802008033981
 30
0.0
 11
138.124620689737
 21
-80.996307809004
 31
0.0
  0
LINE
  5
   3C2
  8
0
  6
DASHDOT
 62
     7
 10
138.124620689737
 20
-77.7692849766729
 30
0.0
 11
138.124620689737
 21
-74.8579491605481
 31
0.0
  0
LINE
  5
   3C3
  8
0
  6
DASHDOT
 62
     1
 10
93.6962216872388
 20
-37.5342090374081
 30
0.0
 11
95.6254201196106
 21
-37.5342090374081
 31
0.0
  0
LINE
  5
   3C4
  8
0
  6
DASHDOT
 62
     1
 10
174.617326841454
 20
-37.5342090374081
 30
0.0
 11
179.107097738611
 21
-37.5342090374081
 31
0.0
  0
LINE
  5
   3C5
  8
0
  6
DASHDOT
 62
     7
 10
125.124620689737
 20
-50.824018577031
 30
0.0
 11
125.124620689737
 21
-48.9263641212477
 31
0.0
  0
TEXT
  5
   3C6
  8
0
  6
CONTINUOUS
 62
     1
 10
202.742431728048
 20
-87.9683750164139
 30
0.0
 40
2.00000008940697
  1
93-10-04 G.SANGALLI
 41
0.749999861419206
 72
     2
 11
230.942427770299
 21
-87.9683750164139
 31
0.0
  0
TEXT
  5
   3C7
  8
0
  6
CONTINUOUS
 62
     1
 10
314.55957811674
 20
-113.981749060702
 30
0.0
 40
4.00000017881393
  1
601812/421
 41
0.937499973922969
 72
     2
 11
351.309578716512
 21
-113.981749060702
 31
0.0
  0
TEXT
  5
   3C8
  8
0
  6
CONTINUOUS
 62
     1
 10
322.645271432404
 20
-105.000167179285
 30
0.0
 40
3.00000002980232
  1
S3-4-5
 41
0.916666604744064
 72
     2
 11
338.595270509028
 21
-105.000167179285
 31
0.0
  0
TEXT
  5
   3C9
  8
0
  6
CONTINUOUS
 62
     1
 10
302.235846090313
 20
-86.6898956855142
 30
0.0
 40
2.00000008940697
  1
ROTARY HANDLE OPERATING MECHANISM APPLICATION
 41
0.625
 72
     1
 11
330.23584734201
 21
-85.6898956408107
 31
0.0
 73
     2
  0
TEXT
  5
   3CA
  8
0
  6
CONTINUOUS
 62
     1
 10
306.610846548159
 20
-89.6898956855141
 30
0.0
 40
2.00000008940697
  1
WITH ADJUSTABLE DEPTH ON ISOMAX SERIES
 41
0.625
 72
     1
 11
330.235847604279
 21
-88.6898956408107
 31
0.0
 73
     2
  0
TEXT
  5
   3CB
  8
0
  6
CONTINUOUS
 62
     1
 10
311.688239115473
 20
-94.760162409147
 30
0.0
 40
2.00000008940697
  1
APPLICAZIONE MANIGLIA ROTANTE
 41
0.625
 72
     1
 11
329.688239920135
 21
-93.7601623644435
 31
0.0
 73
     2
  0
TEXT
  5
   3CC
  8
0
  6
CONTINUOUS
 62
     1
 10
308.563239238043
 20
-97.760162409147
 30
0.0
 40
2.00000008940697
  1
A DISTANZA REGOLABILE SERIE ISOMAX
 41
0.625
 72
     1
 11
329.688240182404
 21
-96.7601623644435
 31
0.0
 73
     2
  0
TEXT
  5
   3CD
  8
0
  6
CONTINUOUS
 62
   218
 10
265.196023616195
 20
-102.89344978273
 30
0.0
 40
2.00000008940697
  1
M 3212 95-12-06
 41
0.749999861419206
 72
     1
 11
276.296022057533
 21
-101.893449738026
 31
0.0
 73
     2
  0
TEXT
  5
   3CE
  8
0
  6
CONTINUOUS
 62
     1
 10
240.356027278304
 20
-102.89344978273
 30
0.0
 40
2.00000008940697
  1
M 3142 95-06-12
 41
0.749999861419206
 72
     1
 11
251.456025719643
 21
-101.893449738026
 31
0.0
 73
     2
  0
TEXT
  5
   3CF
  8
0
  6
CONTINUOUS
 62
     7
 10
139.100070953369
 20
3.17927551269531
 30
0.0
 40
3.00000002980232
  1
Y
 41
0.916666689183977
  0
TEXT
  5
   3D0
  8
0
  6
CONTINUOUS
 62
     1
 10
215.516030940414
 20
-102.89344978273
 30
0.0
 40
2.00000008940697
  1
M 3076 95-01-16
 41
0.749999861419206
 72
     1
 11
226.616029381752
 21
-101.893449738026
 31
0.0
 73
     2
  0
INSERT
  5
   3D1
  8
0
  6
CONTINUOUS
 62
     7
  2
*UDIM229
 10
0.0
 20
0.0
 30
0.0
  0
INSERT
  5
   3D2
  8
0
  6
CONTINUOUS
 62
     7
  2
*UDIM230
 10
0.0
 20
0.0
 30
0.0
  0
INSERT
  5
   3D3
  8
0
  6
CONTINUOUS
 62
     7
  2
*UDIM231
 10
0.0
 20
0.0
 30
0.0
  0
INSERT
  5
   3D4
  8
0
  6
CONTINUOUS
 62
     7
  2
*UDIM232
 10
0.0
 20
0.0
 30
0.0
  0
INSERT
  5
   3D5
  8
0
  6
CONTINUOUS
 62
     7
  2
*UDIM233
 10
0.0
 20
0.0
 30
0.0
  0
INSERT
  5
   3D6
  8
0
  6
CONTINUOUS
 62
     7
  2
*UDIM234
 10
0.0
 20
0.0
 30
0.0
  0
INSERT
  5
   3D7
  8
0
  6
CONTINUOUS
 62
     7
  2
*UDIM235
 10
0.0
 20
0.0
 30
0.0
  0
INSERT
  5
   3D8
  8
0
  6
CONTINUOUS
 62
     7
  2
*UDIM236
 10
0.0
 20
0.0
 30
0.0
  0
INSERT
  5
   3D9
  8
0
  6
CONTINUOUS
 62
     7
  2
*UDIM237
 10
0.0
 20
0.0
 30
0.0
  0
INSERT
  5
   3DA
  8
0
  6
CONTINUOUS
 62
     7
  2
*UDIM238
 10
0.0
 20
0.0
 30
0.0
  0
TEXT
  5
   3DB
  8
0
  6
CONTINUOUS
 62
     7
 10
139.576068878174
 20
-86.8374939262867
 30
0.0
 40
3.00000002980232
  1
Y
 41
0.916666689183977
 11
139.576068878174
 21
-83.8374938964844
 31
0.0
 73
     3
  0
TEXT
  5
   3DC
  8
0
  6
CONTINUOUS
 62
     7
 10
183.023254394531
 20
-39.4017830193043
 30
0.0
 40
3.00000002980232
  1
X
 41
0.916666689183977
 11
183.023254394531
 21
-36.401782989502
 31
0.0
 73
     3
  0
TEXT
  5
   3DD
  8
0
  6
CONTINUOUS
 62
     7
 10
89.9926252365112
 20
-39.0466575920582
 30
0.0
 40
3.00000002980232
  1
X
 41
0.916666689183977
 11
89.9926252365112
 21
-36.0466575622559
 31
0.0
 73
     3
  0
LINE
  5
   3DE
  8
0
  6
CONTINUOUS
 62
   212
 10
12.7867036328973
 20
11.9190491950741
 30
0.0
 11
12.7867032905713
 21
8.21732779890299
 31
0.0
  0
LINE
  5
   3DF
  8
0
  6
CONTINUOUS
 62
   212
 10
54.7867268046449
 20
8.21733085066061
 30
0.0
 11
54.7867227006053
 21
11.9155623800522
 31
0.0
  0
LINE
  5
   3E0
  8
0
  6
CONTINUOUS
 62
   212
 10
54.2867390041847
 20
7.71733067631726
 30
0.0
 11
13.2867017721428
 21
7.71733067631726
 31
0.0
  0
LINE
  5
   3E1
  8
0
  6
CONTINUOUS
 62
   212
 10
13.2866994012183
 20
7.71733113214829
 30
0.0
 11
12.9331471588791
 21
7.86377431297123
 31
0.0
  0
LINE
  5
   3E2
  8
0
  6
CONTINUOUS
 62
   212
 10
12.9331468082786
 20
7.86377523561367
 30
0.0
 11
12.7867021083429
 21
8.21732900889108
 31
0.0
  0
LINE
  5
   3E3
  8
0
  6
CONTINUOUS
 62
   212
 10
25.7867141654388
 20
7.31733372211465
 30
0.0
 11
23.4037673525863
 21
7.31733372211465
 31
0.0
  0
LINE
  5
   3E4
  8
0
  6
CONTINUOUS
 62
   212
 10
12.8287875544008
 20
8.11572528178045
 30
0.0
 11
12.7866076831668
 21
8.11571917826487
 31
0.0
  0
LINE
  5
   3E5
  8
0
  6
CONTINUOUS
 62
   212
 10
33.9867031400141
 20
7.31894179652196
 30
0.0
 11
33.4731716382213
 21
7.3188639766943
 31
0.0
  0
LINE
  5
   3E6
  8
0
  6
CONTINUOUS
 62
   212
 10
33.4731716256704
 20
7.31886397684095
 30
0.0
 11
31.9723110076027
 21
7.31863662089072
 31
0.0
  0
LINE
  5
   3E7
  8
0
  6
CONTINUOUS
 62
   212
 10
31.9723079263417
 20
7.31863509401215
 30
0.0
 11
29.6310267635242
 21
7.31827956421715
 31
0.0
  0
LINE
  5
   3E8
  8
0
  6
CONTINUOUS
 62
   212
 10
29.6310267103902
 20
7.31827956403368
 30
0.0
 11
23.4037683168155
 21
7.31733351911123
 31
0.0
  0
LINE
  5
   3E9
  8
0
  6
CONTINUOUS
 62
   212
 10
24.9867145426474
 20
7.31733362991984
 30
0.0
 11
20.1273577807842
 21
7.31683619339605
 31
0.0
  0
LINE
  5
   3EA
  8
0
  6
CONTINUOUS
 62
   212
 10
20.1273555238587
 20
7.31712060812619
 30
0.0
 11
17.1699946254844
 21
7.31638818625811
 31
0.0
  0
LINE
  5
   3EB
  8
0
  6
CONTINUOUS
 62
   212
 10
17.1699943197488
 20
7.31652871460905
 30
0.0
 11
14.8211661090148
 21
7.31603280395425
 31
0.0
  0
LINE
  5
   3EC
  8
0
  6
CONTINUOUS
 62
   212
 10
14.8211694159479
 20
7.31610351521106
 30
0.0
 11
13.3107995203948
 21
7.31580291707034
 31
0.0
  0
LINE
  5
   3ED
  8
0
  6
CONTINUOUS
 62
   212
 10
13.310799420977
 20
7.31582734479509
 30
0.0
 11
12.7867286734216
 21
7.31572511090793
 31
0.0
  0
LINE
  5
   3EE
  8
0
  6
CONTINUOUS
 62
   212
 10
14.8211689727093
 20
7.31603499524725
 30
0.0
 11
14.8011219753403
 21
7.31603194348932
 31
0.0
  0
LINE
  5
   3EF
  8
0
  6
CONTINUOUS
 62
   212
 10
17.1699973145595
 20
7.31639201269068
 30
0.0
 11
17.1424033200077
 21
7.31638743505385
 31
0.0
  0
LINE
  5
   3F0
  8
0
  6
CONTINUOUS
 62
   212
 10
24.9867145426474
 20
7.31733362991984
 30
0.0
 11
20.1273577807842
 21
7.31683619339605
 31
0.0
  0
LINE
  5
   3F1
  8
0
  6
CONTINUOUS
 62
   212
 10
25.3867141594783
 20
7.31733372211465
 30
0.0
 11
23.4037673525863
 21
7.31733372211465
 31
0.0
  0
LINE
  5
   3F2
  8
0
  6
CONTINUOUS
 62
   212
 10
29.6310278218058
 20
7.318279330094
 30
0.0
 11
25.3867162351231
 21
7.31733328516936
 31
0.0
  0
LINE
  5
   3F3
  8
0
  6
CONTINUOUS
 62
   212
 10
29.6310281408205
 20
7.31827926295427
 30
0.0
 11
25.6795357723684
 21
7.31733321799149
 31
0.0
  0
LINE
  5
   3F4
  8
0
  6
CONTINUOUS
 62
   212
 10
29.6310282762063
 20
7.31827923446211
 30
0.0
 11
25.7867166954841
 21
7.31733318950515
 31
0.0
  0
LINE
  5
   3F5
  8
0
  6
CONTINUOUS
 62
   212
 10
25.7867141654388
 20
7.31733372211465
 30
0.0
 11
24.9867141535178
 21
7.31733372211465
 31
0.0
  0
LINE
  5
   3F6
  8
0
  6
CONTINUOUS
 62
   212
 10
29.6310280807101
 20
7.31827927560481
 30
0.0
 11
25.5450722092778
 21
7.31731339424323
 31
0.0
  0
LINE
  5
   3F7
  8
0
  6
CONTINUOUS
 62
   212
 10
32.9867081692114
 20
9.51732917726042
 30
0.0
 11
32.3867081602707
 21
9.51732917726042
 31
0.0
  0
LINE
  5
   3F8
  8
0
  6
CONTINUOUS
 62
   212
 10
35.186708201994
 20
9.51732917726042
 30
0.0
 11
34.5867081930533
 21
9.51732917726042
 31
0.0
  0
LINE
  5
   3F9
  8
0
  6
CONTINUOUS
 62
   212
 10
34.5867081930533
 20
9.51732917726042
 30
0.0
 11
32.9867081692114
 21
9.51732917726042
 31
0.0
  0
LINE
  5
   3FA
  8
0
  6
CONTINUOUS
 62
   212
 10
32.9867081692114
 20
9.51732917726042
 30
0.0
 11
32.9867081692114
 21
8.71739477813344
 31
0.0
  0
LINE
  5
   3FB
  8
0
  6
CONTINUOUS
 62
   212
 10
34.5867081930533
 20
9.51732917726042
 30
0.0
 11
34.5867081930533
 21
8.71739477813344
 31
0.0
  0
LINE
  5
   3FC
  8
0
  6
CONTINUOUS
 62
   212
 10
35.186708201994
 20
9.91739479601483
 30
0.0
 11
32.3867081602707
 21
9.91739479601483
 31
0.0
  0
LINE
  5
   3FD
  8
0
  6
CONTINUOUS
 62
   212
 10
35.186708201994
 20
9.91739479601483
 30
0.0
 11
35.186708201994
 21
8.71739477813344
 31
0.0
  0
LINE
  5
   3FE
  8
0
  6
CONTINUOUS
 62
   212
 10
35.186708201994
 20
8.71739477813344
 30
0.0
 11
32.3867081602707
 21
8.71739477813344
 31
0.0
  0
LINE
  5
   3FF
  8
0
  6
CONTINUOUS
 62
   212
 10
32.3867081602707
 20
9.91739479601483
 30
0.0
 11
32.3867081602707
 21
8.71739477813344
 31
0.0
  0
LINE
  5
   400
  8
0
  6
CONTINUOUS
 62
   212
 10
54.7867249276473
 20
8.21733087696154
 30
0.0
 11
54.640289381153
 21
7.86377710271436
 31
0.0
  0
LINE
  5
   401
  8
0
  6
CONTINUOUS
 62
   212
 10
54.6402908118244
 20
7.86377689122035
 30
0.0
 11
54.2867385622118
 21
7.71733066303599
 31
0.0
  0
LINE
  5
   402
  8
0
  6
CONTINUOUS
 62
   212
 10
52.0902729070017
 20
11.9173322647811
 30
0.0
 11
52.0902729070017
 21
11.117335304618
 31
0.0
  0
LINE
  5
   403
  8
0
  6
CONTINUOUS
 62
   212
 10
50.9867267479795
 20
11.91733379066
 30
0.0
 11
50.9867267479795
 21
11.1173337787391
 31
0.0
  0
LINE
  5
   404
  8
0
  6
CONTINUOUS
 62
   212
 10
52.7866779467136
 20
11.9173322647773
 30
0.0
 11
48.7866656800775
 21
11.9173353165352
 31
0.0
  0
LINE
  5
   405
  8
0
  6
CONTINUOUS
 62
   212
 10
48.7866778941649
 20
11.1173307239543
 30
0.0
 11
48.7866656871335
 21
11.9173353135121
 31
0.0
  0
LINE
  5
   406
  8
0
  6
CONTINUOUS
 62
   212
 10
52.786677946827
 20
11.1173368304809
 30
0.0
 11
48.7866778872224
 21
11.1173307269651
 31
0.0
  0
LINE
  5
   407
  8
0
  6
CONTINUOUS
 62
   212
 10
52.7866779466758
 20
11.9173322647811
 30
0.0
 11
52.7866779466758
 21
11.1173368304969
 31
0.0
  0
LINE
  5
   408
  8
0
  6
CONTINUOUS
 62
   212
 10
50.2180866054158
 20
11.1173948132605
 30
0.0
 11
48.7866778926799
 21
11.1173810803508
 31
0.0
  0
LINE
  5
   409
  8
0
  6
CONTINUOUS
 62
   253
 10
33.9866379936818
 20
-9.47476857888842
 30
0.0
 11
12.7866376777772
 21
-9.47476857888842
 31
0.0
  0
LINE
  5
   40A
  8
0
  6
CONTINUOUS
 62
   253
 10
10.3867063065673
 20
-3.67476849246446
 30
0.0
 11
10.3867047806884
 21
-8.57476856548014
 31
0.0
  0
LINE
  5
   40B
  8
0
  6
CONTINUOUS
 62
   253
 10
52.3867084582939
 20
-3.67476849246168
 30
0.0
 11
52.3867084582939
 21
-8.57476856547737
 31
0.0
  0
LINE
  5
   40C
  8
0
  6
CONTINUOUS
 62
   253
 10
51.8867084508434
 20
-9.07476857292795
 30
0.0
 11
10.8867047881379
 21
-9.07476857292795
 31
0.0
  0
LINE
  5
   40D
  8
0
  6
CONTINUOUS
 62
   253
 10
52.386706932415
 20
-3.67476849246168
 30
0.0
 11
10.3867063065662
 21
-3.67476849246168
 31
0.0
  0
LINE
  5
   40E
  8
0
  6
CONTINUOUS
 62
   253
 10
10.5331508678353
 20
-8.92832055025382
 30
0.0
 11
10.3867046396509
 21
-8.57476830064122
 31
0.0
  0
LINE
  5
   40F
  8
0
  6
CONTINUOUS
 62
   253
 10
10.8867078460351
 20
-9.0747712060373
 30
0.0
 11
10.5331540647081
 21
-8.92832344503842
 31
0.0
  0
LINE
  5
   410
  8
0
  6
CONTINUOUS
 62
   253
 10
52.2402651312056
 20
-8.92832147830227
 30
0.0
 11
51.8867128775674
 21
-9.07476923701615
 31
0.0
  0
LINE
  5
   411
  8
0
  6
CONTINUOUS
 62
   253
 10
52.3867110214945
 20
-8.57477018487287
 30
0.0
 11
52.2402632627806
 21
-8.92832243851106
 31
0.0
  0
LINE
  5
   412
  8
0
  6
CONTINUOUS
 62
   253
 10
30.5867081334486
 20
-7.27476854610586
 30
0.0
 11
29.9867081245079
 21
-7.27476854610586
 31
0.0
  0
LINE
  5
   413
  8
0
  6
CONTINUOUS
 62
   253
 10
32.7867081662312
 20
-7.27476854610586
 30
0.0
 11
32.1867081572905
 21
-7.27476854610586
 31
0.0
  0
LINE
  5
   414
  8
0
  6
CONTINUOUS
 62
   253
 10
32.1867081572905
 20
-7.27476854610586
 30
0.0
 11
30.5867081334486
 21
-7.27476854610586
 31
0.0
  0
LINE
  5
   415
  8
0
  6
CONTINUOUS
 62
   253
 10
32.7867081662312
 20
-6.87470140147252
 30
0.0
 11
29.9867081245079
 21
-6.87470140147252
 31
0.0
  0
LINE
  5
   416
  8
0
  6
CONTINUOUS
 62
   253
 10
32.7867081662312
 20
-6.87470140147252
 30
0.0
 11
32.7867081662312
 21
-8.07470141935391
 31
0.0
  0
LINE
  5
   417
  8
0
  6
CONTINUOUS
 62
   253
 10
32.7867081662312
 20
-8.07470141935391
 30
0.0
 11
29.9867081245079
 21
-8.07470141935391
 31
0.0
  0
LINE
  5
   418
  8
0
  6
CONTINUOUS
 62
   253
 10
29.9867081245079
 20
-6.87470140147252
 30
0.0
 11
29.9867081245079
 21
-8.07470141935391
 31
0.0
  0
LINE
  5
   419
  8
0
  6
CONTINUOUS
 62
   253
 10
30.5867081334486
 20
-7.27476854610586
 30
0.0
 11
30.5867081334486
 21
-8.07470141935391
 31
0.0
  0
LINE
  5
   41A
  8
0
  6
CONTINUOUS
 62
   253
 10
32.1867081572905
 20
-7.27476854610586
 30
0.0
 11
32.1867081572905
 21
-8.07470141935391
 31
0.0
  0
LINE
  5
   41B
  8
0
  6
CONTINUOUS
 62
   130
 10
29.1866592844865
 20
7.11734287440057
 30
0.0
 11
17.5866926809694
 21
7.11735355555295
 31
0.0
  0
LINE
  5
   41C
  8
0
  6
CONTINUOUS
 62
   130
 10
33.9866959771064
 20
6.91734897493415
 30
0.0
 11
12.7866575142286
 21
6.91737033723935
 31
0.0
  0
LINE
  5
   41D
  8
0
  6
CONTINUOUS
 62
   130
 10
33.9866929253701
 20
6.31734896599334
 30
0.0
 11
12.786660566008
 21
6.31737032829721
 31
0.0
  0
LINE
  5
   41E
  8
0
  6
CONTINUOUS
 62
   130
 10
25.9866744955668
 20
6.31733828485028
 30
0.0
 11
25.9866744955668
 21
1.5168270438835
 31
0.0
  0
LINE
  5
   41F
  8
0
  6
CONTINUOUS
 62
   130
 10
20.7866744180808
 20
6.31734286248707
 30
0.0
 11
20.7866744180808
 21
1.5168270438835
 31
0.0
  0
LINE
  5
   420
  8
0
  6
CONTINUOUS
 62
   130
 10
20.1866744091401
 20
6.31736287164141
 30
0.0
 11
20.1866744091401
 21
1.5168270438835
 31
0.0
  0
LINE
  5
   421
  8
0
  6
CONTINUOUS
 62
   130
 10
26.5866745045075
 20
6.31735642265376
 30
0.0
 11
26.5866745045075
 21
1.5168270438835
 31
0.0
  0
LINE
  5
   422
  8
0
  6
CONTINUOUS
 62
   130
 10
26.1866744985471
 20
1.11682703792303
 30
0.0
 11
20.5866744151006
 21
1.11682703792303
 31
0.0
  0
LINE
  5
   423
  8
0
  6
CONTINUOUS
 62
   130
 10
29.1946823558699
 20
6.31733218133456
 30
0.0
 11
29.1946823558699
 21
5.91734743416339
 31
0.0
  0
LINE
  5
   424
  8
0
  6
CONTINUOUS
 62
   130
 10
33.1946824154745
 20
5.91734743416339
 30
0.0
 11
29.1946823558699
 21
5.91734743416339
 31
0.0
  0
LINE
  5
   425
  8
0
  6
CONTINUOUS
 62
     2
 10
13.2845670675212
 20
-9.67476858186865
 30
0.0
 11
12.7866331001404
 21
-9.67476858186865
 31
0.0
  0
LINE
  5
   426
  8
0
  6
CONTINUOUS
 62
     2
 10
14.7178022573351
 20
-9.67476858186865
 30
0.0
 11
13.3298810940753
 21
-9.67476858186865
 31
0.0
  0
LINE
  5
   427
  8
0
  6
CONTINUOUS
 62
     2
 10
16.6553480625739
 20
-9.67476858186865
 30
0.0
 11
14.8843763564969
 21
-9.67476858186865
 31
0.0
  0
LINE
  5
   428
  8
0
  6
CONTINUOUS
 62
     2
 10
36.376487882809
 20
-9.67476858186865
 30
0.0
 11
31.7927384248574
 21
-9.67476858186865
 31
0.0
  0
LINE
  5
   429
  8
0
  6
CONTINUOUS
 62
     2
 10
47.78663514756
 20
-23.0747687815442
 30
0.0
 11
14.3866346498612
 21
-23.0747687815442
 31
0.0
  0
LINE
  5
   42A
  8
0
  6
CONTINUOUS
 62
     2
 10
49.3866351714018
 20
-15.8747686742558
 30
0.0
 11
49.3866351714018
 21
-21.4747687577024
 31
0.0
  0
LINE
  5
   42B
  8
0
  6
CONTINUOUS
 62
     2
 10
30.1927384010155
 20
-15.8747686742558
 30
0.0
 11
18.2553480864158
 21
-15.8747686742558
 31
0.0
  0
LINE
  5
   42C
  8
0
  6
CONTINUOUS
 62
     2
 10
13.3298795681964
 20
-9.67476858186865
 30
0.0
 11
13.2845655416422
 21
-9.67476858186865
 31
0.0
  0
LINE
  5
   42D
  8
0
  6
CONTINUOUS
 62
     2
 10
14.8843763564969
 20
-9.67476858186865
 30
0.0
 11
14.7178022573351
 21
-9.67476858186865
 31
0.0
  0
LINE
  5
   42E
  8
0
  6
CONTINUOUS
 62
     2
 10
31.7927384248574
 20
-9.67476858186865
 30
0.0
 11
16.6553480625739
 21
-9.67476858186865
 31
0.0
  0
LINE
  5
   42F
  8
0
  6
CONTINUOUS
 62
     2
 10
36.376487882809
 20
-9.67476858186865
 30
0.0
 11
36.376487882809
 21
-14.274768650414
 31
0.0
  0
LINE
  5
   430
  8
0
  6
CONTINUOUS
 62
     2
 10
49.3866351714018
 20
-15.8747686742558
 30
0.0
 11
36.3383515688914
 21
-15.8747686742558
 31
0.0
  0
LINE
  5
   431
  8
0
  6
CONTINUOUS
 62
   212
 10
33.9867026220646
 20
7.31894159471128
 30
0.0
 11
33.9866415869047
 21
7.71733179840166
 31
0.0
  0
LINE
  5
   432
  8
0
  6
CONTINUOUS
 62
   212
 10
12.7867279877392
 20
7.3157250642008
 30
0.0
 11
12.7866074433038
 21
8.11571897260601
 31
0.0
  0
LINE
  5
   433
  8
0
  6
CONTINUOUS
 62
   212
 10
33.8900742854684
 20
7.71732914571514
 30
0.0
 11
13.2855390663276
 21
7.71781132347023
 31
0.0
  0
LINE
  5
   434
  8
0
  6
CONTINUOUS
 62
   212
 10
54.6390261525148
 20
7.86325443832115
 30
0.0
 11
54.5867068172253
 21
7.91557987767004
 31
0.0
  0
LINE
  5
   435
  8
0
  6
CONTINUOUS
 62
   212
 10
12.9855165929381
 20
7.91782876394315
 30
0.0
 11
12.9326555677584
 21
7.8649662148405
 31
0.0
  0
LINE
  5
   436
  8
0
  6
CONTINUOUS
 62
   212
 10
34.6938950842989
 20
9.91739479601483
 30
0.0
 11
34.6938950842989
 21
9.51733222901828
 31
0.0
  0
LINE
  5
   437
  8
0
  6
CONTINUOUS
 62
   212
 10
33.0131119781986
 20
9.91739479601483
 30
0.0
 11
33.0131119781986
 21
9.51733222901828
 31
0.0
  0
LINE
  5
   438
  8
0
  6
CONTINUOUS
 62
   253
 10
12.7866376777772
 20
-9.07476857292795
 30
0.0
 11
12.7866376777772
 21
-9.47476857888842
 31
0.0
  0
LINE
  5
   439
  8
0
  6
CONTINUOUS
 62
   253
 10
33.9866379936818
 20
-9.07476857292795
 30
0.0
 11
33.9866379936818
 21
-9.47476857888842
 31
0.0
  0
LINE
  5
   43A
  8
0
  6
CONTINUOUS
 62
   130
 10
18.0866774296055
 20
7.31652653216122
 30
0.0
 11
18.0866774296055
 21
7.11735202968157
 31
0.0
  0
LINE
  5
   43B
  8
0
  6
CONTINUOUS
 62
   130
 10
28.6866775875578
 20
7.3181363344313
 30
0.0
 11
28.6866775875578
 21
7.11734134852907
 31
0.0
  0
LINE
  5
   43C
  8
0
  6
CONTINUOUS
 62
   130
 10
17.5866926809442
 20
7.1173535555605
 30
0.0
 11
17.5866926809442
 21
6.91735355258027
 31
0.0
  0
LINE
  5
   43D
  8
0
  6
CONTINUOUS
 62
   130
 10
29.1866623410312
 20
6.91734286728331
 30
0.0
 11
29.1866592892734
 21
7.11734287026354
 31
0.0
  0
LINE
  5
   43E
  8
0
  6
CONTINUOUS
 62
   130
 10
12.7866605662838
 20
6.31737032784213
 30
0.0
 11
12.7866575145258
 21
6.91737033678282
 31
0.0
  0
LINE
  5
   43F
  8
0
  6
CONTINUOUS
 62
   130
 10
33.9866959776779
 20
6.91734897447782
 30
0.0
 11
33.9866929259199
 21
6.31734896553712
 31
0.0
  0
LINE
  5
   440
  8
0
  6
CONTINUOUS
 62
   130
 10
33.1946824154745
 20
6.31734744012385
 30
0.0
 11
33.1946824154745
 21
5.91734743416339
 31
0.0
  0
LINE
  5
   441
  8
0
  6
CONTINUOUS
 62
     2
 10
12.7866331001404
 20
-14.274768650414
 30
0.0
 11
12.7866331001404
 21
-21.4747687577024
 31
0.0
  0
LINE
  5
   442
  8
0
  6
CONTINUOUS
 62
     2
 10
12.7866331001404
 20
-9.67476858186865
 30
0.0
 11
12.7866331001404
 21
-14.274768650414
 31
0.0
  0
LINE
  5
   443
  8
0
  6
CONTINUOUS
 62
     2
 10
28.161053518627
 20
-15.8747694261925
 30
0.0
 11
28.0365082266895
 21
-15.8925062435285
 31
0.0
  0
LINE
  5
   444
  8
0
  6
CONTINUOUS
 62
     2
 10
31.7927384248574
 20
-9.67476858186865
 30
0.0
 11
31.7927384248574
 21
-14.274768650414
 31
0.0
  0
LINE
  5
   445
  8
0
  6
CONTINUOUS
 62
     2
 10
16.6553480625739
 20
-9.67476858186865
 30
0.0
 11
16.6553480625739
 21
-14.274768650414
 31
0.0
  0
CIRCLE
  5
   446
  8
0
  6
CONTINUOUS
 62
   130
 10
23.3866767765508
 20
3.71733819567741
 30
0.0
 40
1.00000202810134
  0
ARC
  5
   447
  8
0
  6
CONTINUOUS
 62
     7
 10
20.5866744151006
 20
1.5168270438835
 30
0.0
 40
0.400000005960464
 50
179.999999896069
 51
269.999999896069
  0
ARC
  5
   448
  8
0
  6
CONTINUOUS
 62
     7
 10
26.1866744985471
 20
1.5168270438835
 30
0.0
 40
0.400000005960464
 50
269.999999896069
 51
359.999999896069
  0
LINE
  5
   449
  8
0
  6
DASHDOT
 62
     7
 10
23.3866767765508
 20
5.51734023569968
 30
0.0
 11
23.3866767765508
 21
-25.225248644597
 31
0.0
  0
LINE
  5
   44A
  8
0
  6
DASHDOT
 62
     7
 10
25.1866788165731
 20
3.71733819567741
 30
0.0
 11
21.5866747365285
 21
3.71733819567741
 31
0.0
  0
LINE
  5
   44B
  8
0
  6
CONTINUOUS
 62
     7
 10
25.3866768063531
 20
1.11682703792303
 30
0.0
 11
25.3866768063531
 21
-0.474768444777961
 31
0.0
  0
LINE
  5
   44C
  8
0
  6
CONTINUOUS
 62
     7
 10
21.3866767467485
 20
1.11682703792303
 30
0.0
 11
21.3866767467485
 21
-0.474768444777961
 31
0.0
  0
LINE
  5
   44D
  8
0
  6
CONTINUOUS
 62
     7
 10
73.1998366503708
 20
-2.87476848054075
 30
0.0
 11
4.88449786432856
 21
-2.87476848054075
 31
0.0
  0
ARC
  5
   44E
  8
0
  6
CONTINUOUS
 62
     2
 10
18.2553480864158
 20
-14.274768650414
 30
0.0
 40
1.60000002384186
 50
179.999999896069
 51
269.999999896069
  0
ARC
  5
   44F
  8
0
  6
CONTINUOUS
 62
     7
 10
30.1927384010155
 20
-14.274768650414
 30
0.0
 40
1.60000002384186
 50
269.999999896069
 51
359.999999896069
  0
ARC
  5
   450
  8
0
  6
CONTINUOUS
 62
     2
 10
37.9764879066508
 20
-14.274768650414
 30
0.0
 40
1.60000002384186
 50
179.999999896069
 51
269.999999896069
  0
ARC
  5
   451
  8
0
  6
CONTINUOUS
 62
     2
 10
36.3383515688914
 20
-14.274768650414
 30
0.0
 40
1.60000002384186
 50
179.999999896069
 51
269.999999896069
  0
LINE
  5
   452
  8
0
  6
CONTINUOUS
 62
   170
 10
28.7866768570171
 20
-0.474768444777961
 30
0.0
 11
17.9866766960845
 21
-0.474768444777961
 31
0.0
  0
LINE
  5
   453
  8
0
  6
CONTINUOUS
 62
   170
 10
28.7866768570171
 20
-0.474768444777961
 30
0.0
 11
28.7866768570171
 21
-2.87476848054075
 31
0.0
  0
LINE
  5
   454
  8
0
  6
CONTINUOUS
 62
   170
 10
17.9866766960845
 20
-0.474768444777961
 30
0.0
 11
17.9866766960845
 21
-2.87476848054075
 31
0.0
  0
LINE
  5
   455
  8
0
  6
CONTINUOUS
 62
   170
 10
29.3866768659578
 20
-1.07476845371866
 30
0.0
 11
29.3866768659578
 21
-2.87476848054075
 31
0.0
  0
LINE
  5
   456
  8
0
  6
CONTINUOUS
 62
   170
 10
17.3866766871438
 20
-1.07476845371866
 30
0.0
 11
17.3866766871438
 21
-2.87476848054075
 31
0.0
  0
LINE
  5
   457
  8
0
  6
CONTINUOUS
 62
   170
 10
17.9866766960845
 20
-0.474768444777965
 30
0.0
 11
17.3866766871438
 21
-1.07476845371866
 31
0.0
  0
LINE
  5
   458
  8
0
  6
CONTINUOUS
 62
   170
 10
29.3866768659578
 20
-1.07476845371865
 30
0.0
 11
28.7866768570171
 21
-0.474768444777958
 31
0.0
  0
ARC
  5
   459
  8
0
  6
CONTINUOUS
 62
     2
 10
14.3866351698855
 20
-21.4747682959352
 30
0.0
 40
1.60000264261151
 50
539.999967356622
 51
630.000067447099
  0
ARC
  5
   45A
  8
0
  6
CONTINUOUS
 62
     2
 10
47.7866460059457
 20
-21.4747768305869
 30
0.0
 40
1.59998745994267
 50
269.999554321331
 51
360.000376984591
  0
LINE
  5
   45B
  8
0
  6
CONTINUOUS
 62
     7
 10
73.1998366503708
 20
9.17276196737049E-2
 30
0.0
 11
73.1998366503708
 21
-6.10846114375149
 31
0.0
  0
LINE
  5
   45C
  8
0
  6
CONTINUOUS
 62
     7
 10
54.7867227006053
 20
11.9155623800521
 30
0.0
 11
12.7867036328973
 21
11.9190491950741
 31
0.0
  0
LINE
  5
   45D
  8
0
  6
CONTINUOUS
 62
     7
 10
73.1998366503708
 20
-3.67476849246168
 30
0.0
 11
4.88449786432856
 21
-3.67476849246168
 31
0.0
  0
CIRCLE
  5
   45E
  8
0
  6
CONTINUOUS
 62
     7
 10
71.599836626529
 20
-2.07476846861982
 30
0.0
 40
0.800000011920929
  0
LINE
  5
   45F
  8
0
  6
DASHDOT
 62
     7
 10
71.599836626529
 20
-0.474768444777965
 30
0.0
 11
71.599836626529
 21
-28.501472025071
 31
0.0
  0
LINE
  5
   460
  8
0
  6
DASHDOT
 62
     7
 10
73.1998366503708
 20
-2.07476846861982
 30
0.0
 11
69.9998366026871
 21
-2.07476846861982
 31
0.0
  0
LINE
  5
   461
  8
0
  6
DASHDOT
 62
     7
 10
33.7866769315229
 20
15.3054161733113
 30
0.0
 11
33.7866769315229
 21
-24.8568162345769
 31
0.0
  0
LINE
  5
   462
  8
0
  6
CONTINUOUS
 62
     7
 10
4.88449786432856
 20
0.285511386555083
 30
0.0
 11
4.88449786432856
 21
-7.09802286469898
 31
0.0
  0
ARC
  5
   463
  8
0
  6
CONTINUOUS
 62
     7
 10
25.5866744896064
 20
1.5168270438835
 30
0.0
 40
0.400000005960464
 50
269.999999896069
 51
359.999999896069
  0
ARC
  5
   464
  8
0
  6
CONTINUOUS
 62
     7
 10
21.1866744240413
 20
1.5168270438835
 30
0.0
 40
0.400000005960464
 50
179.999999896069
 51
269.999999896069
  0
CIRCLE
  5
   465
  8
0
  6
CONTINUOUS
 62
     3
 10
23.3866767765508
 20
3.71733819567741
 30
0.0
 40
1.60000002384186
  0
LINE
  5
   466
  8
0
  6
CONTINUOUS
 62
     3
 10
23.3866767765508
 20
5.56485908461442
 30
0.0
 11
21.7866767527089
 21
4.64109864014591
 31
0.0
  0
LINE
  5
   467
  8
0
  6
CONTINUOUS
 62
     3
 10
24.9866768003927
 20
4.64109864014592
 30
0.0
 11
23.3866767765508
 21
5.56485908461442
 31
0.0
  0
LINE
  5
   468
  8
0
  6
CONTINUOUS
 62
     3
 10
24.9866768003927
 20
2.7935777512089
 30
0.0
 11
23.3866767765508
 21
1.86981730674039
 31
0.0
  0
LINE
  5
   469
  8
0
  6
CONTINUOUS
 62
     3
 10
23.3866767765508
 20
1.8698173067404
 30
0.0
 11
21.7866767527089
 21
2.7935777512089
 31
0.0
  0
LINE
  5
   46A
  8
0
  6
CONTINUOUS
 62
     3
 10
21.7866767527089
 20
4.64109864014592
 30
0.0
 11
21.7866767527089
 21
2.7935777512089
 31
0.0
  0
LINE
  5
   46B
  8
0
  6
CONTINUOUS
 62
     3
 10
24.9866768003927
 20
4.64109864014592
 30
0.0
 11
24.9866768003927
 21
2.7935777512089
 31
0.0
  0
LINE
  5
   46C
  8
0
  6
DASHDOT
 62
     7
 10
23.3866767765508
 20
6.1173382314402
 30
0.0
 11
23.3866767765508
 21
1.31733815991462
 31
0.0
  0
LINE
  5
   46D
  8
0
  6
DASHDOT
 62
     7
 10
25.7866768123136
 20
3.7173381956774
 30
0.0
 11
20.986676740788
 21
3.7173381956774
 31
0.0
  0
CIRCLE
  5
   46E
  8
0
  6
CONTINUOUS
 62
     3
 10
23.3866767765508
 20
3.71733819567741
 30
0.0
 40
1.00000001490116
  0
ARC
  5
   46F
  8
0
  6
CONTINUOUS
 62
     7
 10
23.3866767765508
 20
3.71733819567741
 30
0.0
 40
0.840000012516975
 50
269.999999896069
 51
539.999999896069
  0
TEXT
  5
   470
  8
0
  6
CONTINUOUS
 62
     7
 10
32.1489546316224
 20
17.8953626806303
 30
0.0
 40
2.99999994933605
  1
Y
 50
359.999999896069
 41
0.91666673368878
 11
32.1489546370491
 21
20.8953626299664
 31
0.0
 73
     3
  0
TEXT
  5
   471
  8
0
  6
CONTINUOUS
 62
     7
 10
32.967216457925
 20
-39.5929269854761
 30
0.0
 40
2.99999994933605
  1
Y
 50
359.999999896069
 41
0.91666673368878
 11
32.9672164633517
 21
-36.5929270361401
 31
0.0
 73
     3
  0
INSERT
  5
   472
  8
0
  6
CONTINUOUS
 62
     7
  2
*UDIM239
 10
0.0
 20
0.0
 30
0.0
  0
LINE
  5
   473
  8
0
  6
CONTINUOUS
 62
     7
 10
200.661218055308
 20
99.7798828735176
 30
0.0
 11
200.661218055308
 21
99.5798950775688
 31
0.0
  0
LINE
  5
   474
  8
0
  6
CONTINUOUS
 62
     7
 10
200.661218055308
 20
113.779870875102
 30
0.0
 11
200.661218055308
 21
105.779882962925
 31
0.0
  0
LINE
  5
   475
  8
0
  6
CONTINUOUS
 62
     7
 10
201.661230277241
 20
105.779882962925
 30
0.0
 11
201.661230277241
 21
99.7798828735176
 31
0.0
  0
LINE
  5
   476
  8
0
  6
CONTINUOUS
 62
     7
 10
200.661218055308
 20
99.7798828735176
 30
0.0
 11
201.661230277241
 21
99.7798828735176
 31
0.0
  0
LINE
  5
   477
  8
0
  6
CONTINUOUS
 62
     7
 10
200.661218055308
 20
105.779882962925
 30
0.0
 11
201.661230277241
 21
105.779882962925
 31
0.0
  0
LINE
  5
   478
  8
0
  6
CONTINUOUS
 62
     7
 10
201.661230277241
 20
119.779870964509
 30
0.0
 11
201.661230277241
 21
113.779870875102
 31
0.0
  0
LINE
  5
   479
  8
0
  6
CONTINUOUS
 62
     7
 10
200.661218055308
 20
113.779870875102
 30
0.0
 11
201.661230277241
 21
113.779870875102
 31
0.0
  0
LINE
  5
   47A
  8
0
  6
CONTINUOUS
 62
     7
 10
200.661218055308
 20
119.779870964509
 30
0.0
 11
201.661230277241
 21
119.779870964509
 31
0.0
  0
LINE
  5
   47B
  8
0
  6
CONTINUOUS
 62
     7
 10
228.061212360084
 20
121.579870991332
 30
0.0
 11
228.061212360084
 21
99.5798828705374
 31
0.0
  0
LINE
  5
   47C
  8
0
  6
CONTINUOUS
 62
     7
 10
200.661233134531
 20
138.579889555198
 30
0.0
 11
200.661220783887
 21
121.379870988351
 31
0.0
  0
LINE
  5
   47D
  8
0
  6
CONTINUOUS
 62
     7
 10
228.0612184636
 20
128.57987109564
 30
0.0
 11
229.461218484462
 21
128.57987109564
 31
0.0
  0
LINE
  5
   47E
  8
0
  6
CONTINUOUS
 62
     7
 10
228.061214975854
 20
128.579867607954
 30
0.0
 11
228.061208872339
 21
121.579867503646
 31
0.0
  0
LINE
  5
   47F
  8
0
  6
CONTINUOUS
 62
     7
 10
228.061212360084
 20
99.5798950775688
 30
0.0
 11
228.061212360084
 21
95.7798889174287
 31
0.0
  0
LINE
  5
   480
  8
0
  6
CONTINUOUS
 62
     7
 10
200.661234342068
 20
71.4975927749599
 30
0.0
 11
200.661222135037
 21
71.379898729093
 31
0.0
  0
LINE
  5
   481
  8
0
  6
CONTINUOUS
 62
     7
 10
200.661221351158
 20
99.5798916656611
 30
0.0
 11
200.661233558188
 21
77.6622033507808
 31
0.0
  0
LINE
  5
   482
  8
0
  6
CONTINUOUS
 62
     7
 10
201.861204645454
 20
76.7798947378224
 30
0.0
 11
229.061218478501
 21
76.7798947378224
 31
0.0
  0
LINE
  5
   483
  8
0
  6
CONTINUOUS
 62
     7
 10
201.861204645454
 20
72.3798946722573
 30
0.0
 11
229.061218478501
 21
72.3798946722573
 31
0.0
  0
LINE
  5
   484
  8
0
  6
CONTINUOUS
 62
     7
 10
200.661231736204
 20
77.6622073891137
 30
0.0
 11
203.954041702875
 21
76.7798988055115
 31
0.0
  0
LINE
  5
   485
  8
0
  6
CONTINUOUS
 62
     7
 10
203.954043624286
 20
72.3798950997451
 30
0.0
 11
200.661233581797
 21
71.4975893550808
 31
0.0
  0
LINE
  5
   486
  8
0
  6
CONTINUOUS
 62
     7
 10
226.261212333262
 20
77.9798947557038
 30
0.0
 11
229.461212380946
 21
77.9798947557038
 31
0.0
  0
LINE
  5
   487
  8
0
  6
CONTINUOUS
 62
     7
 10
226.261212333262
 20
94.9798889055078
 30
0.0
 11
226.261212333262
 21
77.9798947557038
 31
0.0
  0
LINE
  5
   488
  8
0
  6
CONTINUOUS
 62
     7
 10
201.0612302683
 20
77.5550229232008
 30
0.0
 11
201.0612302683
 21
74.77989470802
 31
0.0
  0
LINE
  5
   489
  8
0
  6
CONTINUOUS
 62
     7
 10
201.06123073781
 20
71.9798986428404
 30
0.0
 11
201.0612246343
 21
71.6047704634225
 31
0.0
  0
LINE
  5
   48A
  8
0
  6
CONTINUOUS
 62
     7
 10
199.861230250419
 20
77.9798947557038
 30
0.0
 11
200.66123026234
 21
77.9798947557038
 31
0.0
  0
LINE
  5
   48B
  8
0
  6
CONTINUOUS
 62
     7
 10
199.861230250419
 20
80.1798947884863
 30
0.0
 11
200.66123026234
 21
80.1798947884863
 31
0.0
  0
LINE
  5
   48C
  8
0
  6
CONTINUOUS
 62
     7
 10
229.061209847541
 20
72.3799041661808
 30
0.0
 11
229.461203736947
 21
71.9799102767744
 31
0.0
  0
LINE
  5
   48D
  8
0
  6
CONTINUOUS
 62
     7
 10
229.46121341616
 20
77.1798952908741
 30
0.0
 11
229.061213423891
 21
76.779895298605
 31
0.0
  0
LINE
  5
   48E
  8
0
  6
CONTINUOUS
 62
     7
 10
228.061212360084
 20
95.7798889174287
 30
0.0
 11
228.061212360084
 21
94.9798889055078
 31
0.0
  0
LINE
  5
   48F
  8
0
  6
CONTINUOUS
 62
     7
 10
199.861230250419
 20
64.1799067570996
 30
0.0
 11
201.46123027426
 21
64.1799067570996
 31
0.0
  0
LINE
  5
   490
  8
0
  6
CONTINUOUS
 62
     7
 10
200.661218055308
 20
71.3798946573561
 30
0.0
 11
200.661218055308
 21
69.7798946335142
 31
0.0
  0
LINE
  5
   491
  8
0
  6
CONTINUOUS
 62
     7
 10
225.461218424857
 20
66.1799067869015
 30
0.0
 11
229.461212380946
 21
66.1799067869015
 31
0.0
  0
LINE
  5
   492
  8
0
  6
CONTINUOUS
 62
     7
 10
225.461218424857
 20
66.1799067869015
 30
0.0
 11
225.461218424857
 21
64.1799067570992
 31
0.0
  0
LINE
  5
   493
  8
0
  6
CONTINUOUS
 62
     7
 10
200.661218055308
 20
69.7798946335142
 30
0.0
 11
200.661218055308
 21
65.1799143403455
 31
0.0
  0
LINE
  5
   494
  8
0
  6
CONTINUOUS
 62
     2
 10
200.461230259359
 20
121.379870988351
 30
0.0
 11
200.661218055308
 21
121.379870988351
 31
0.0
  0
LINE
  5
   495
  8
0
  6
CONTINUOUS
 62
     7
 10
200.461230259359
 20
93.1798949822014
 30
0.0
 11
200.661224158824
 21
93.1798949822014
 31
0.0
  0
LINE
  5
   496
  8
0
  6
CONTINUOUS
 62
     7
 10
200.461230259359
 20
80.3798963173455
 30
0.0
 11
200.66123026234
 21
80.3798963173455
 31
0.0
  0
LINE
  5
   497
  8
0
  6
CONTINUOUS
 62
     7
 10
200.461230259359
 20
77.3798951282328
 30
0.0
 11
201.0612302683
 21
77.3798951282328
 31
0.0
  0
LINE
  5
   498
  8
0
  6
CONTINUOUS
 62
     7
 10
200.461230259359
 20
70.9799007549113
 30
0.0
 11
200.661218055308
 21
70.9799007549113
 31
0.0
  0
LINE
  5
   499
  8
0
  6
CONTINUOUS
 62
     7
 10
200.461230259359
 20
77.979888652188
 30
0.0
 11
200.461230259359
 21
65.5399105977298
 31
0.0
  0
LINE
  5
   49A
  8
0
  6
CONTINUOUS
 62
     7
 10
200.461230259359
 20
121.379864884836
 30
0.0
 11
200.461230259359
 21
80.1798886849706
 31
0.0
  0
LINE
  5
   49B
  8
0
  6
CONTINUOUS
 62
     7
 10
201.0612302683
 20
119.779870964509
 30
0.0
 11
201.0612302683
 21
113.77988918565
 31
0.0
  0
LINE
  5
   49C
  8
0
  6
CONTINUOUS
 62
     7
 10
201.0612302683
 20
105.779901273472
 30
0.0
 11
201.0612302683
 21
99.7799072875805
 31
0.0
  0
LINE
  5
   49D
  8
0
  6
CONTINUOUS
 62
     7
 10
201.0612302683
 20
74.7799252255986
 30
0.0
 11
201.0612302683
 21
71.9799251838754
 31
0.0
  0
LINE
  5
   49E
  8
0
  6
CONTINUOUS
 62
     7
 10
200.461229578997
 20
65.5399112780922
 30
0.0
 11
200.621227138131
 21
65.3799137189585
 31
0.0
  0
LINE
  5
   49F
  8
0
  6
CONTINUOUS
 62
     7
 10
199.861230250419
 20
127.779871083719
 30
0.0
 11
200.66123026234
 21
127.779871083719
 31
0.0
  0
LINE
  5
   4A0
  8
0
  6
CONTINUOUS
 62
     7
 10
199.861230250419
 20
132.179871149284
 30
0.0
 11
200.66123026234
 21
132.179871149284
 31
0.0
  0
LINE
  5
   4A1
  8
0
  6
CONTINUOUS
 62
     7
 10
228.261206259548
 20
122.579887645866
 30
0.0
 11
228.261206259548
 21
100.779869010474
 31
0.0
  0
LINE
  5
   4A2
  8
0
  6
CONTINUOUS
 62
     7
 10
239.46118811589
 20
138.579882882031
 30
0.0
 11
239.46118811589
 21
128.97988273898
 31
0.0
  0
LINE
  5
   4A3
  8
0
  6
CONTINUOUS
 62
     7
 10
239.261218630493
 20
128.979884773461
 30
0.0
 11
239.461218633473
 21
128.979884773461
 31
0.0
  0
LINE
  5
   4A4
  8
0
  6
CONTINUOUS
 62
     7
 10
239.261218630493
 20
128.979884773461
 30
0.0
 11
239.261218630493
 21
128.779884770481
 31
0.0
  0
LINE
  5
   4A5
  8
0
  6
CONTINUOUS
 62
     7
 10
229.461218484462
 20
128.779884770481
 30
0.0
 11
229.461218484462
 21
128.379878661005
 31
0.0
  0
LINE
  5
   4A6
  8
0
  6
CONTINUOUS
 62
     7
 10
229.46121913493
 20
138.579890587132
 30
0.0
 11
229.461213031415
 21
137.459877143166
 31
0.0
  0
LINE
  5
   4A7
  8
0
  6
CONTINUOUS
 62
     7
 10
229.461221536215
 20
138.579897123537
 30
0.0
 11
239.461221685226
 21
138.579897123537
 31
0.0
  0
LINE
  5
   4A8
  8
0
  6
CONTINUOUS
 62
     7
 10
238.341217396081
 20
128.779884770481
 30
0.0
 11
238.461218618572
 21
128.779884770481
 31
0.0
  0
LINE
  5
   4A9
  8
0
  6
CONTINUOUS
 62
     7
 10
228.26121846658
 20
128.379890868036
 30
0.0
 11
229.461218484462
 21
128.379890868036
 31
0.0
  0
LINE
  5
   4AA
  8
0
  6
CONTINUOUS
 62
     7
 10
228.26121846658
 20
128.379890868036
 30
0.0
 11
228.26121846658
 21
122.579890781609
 31
0.0
  0
LINE
  5
   4AB
  8
0
  6
CONTINUOUS
 62
     7
 10
229.461200173914
 20
69.4905406252822
 30
0.0
 11
229.461200173914
 21
66.5798960506602
 31
0.0
  0
LINE
  5
   4AC
  8
0
  6
CONTINUOUS
 62
     7
 10
228.261212363064
 20
100.779872146217
 30
0.0
 11
228.261212363064
 21
95.9798842817229
 31
0.0
  0
LINE
  5
   4AD
  8
0
  6
CONTINUOUS
 62
     7
 10
227.861212357104
 20
94.9798720597903
 30
0.0
 11
228.261212363064
 21
94.9798720597903
 31
0.0
  0
LINE
  5
   4AE
  8
0
  6
CONTINUOUS
 62
     7
 10
229.4611998715
 20
65.3799082398187
 30
0.0
 11
238.341204886634
 21
65.3799082398187
 31
0.0
  0
LINE
  5
   4AF
  8
0
  6
CONTINUOUS
 62
     7
 10
229.461200173914
 20
66.5798960506602
 30
0.0
 11
229.461200173914
 21
65.3798960327788
 31
0.0
  0
LINE
  5
   4B0
  8
0
  6
CONTINUOUS
 62
     7
 10
229.46120627743
 20
72.2798998197102
 30
0.0
 11
229.46120627743
 21
69.4905406252822
 31
0.0
  0
LINE
  5
   4B1
  8
0
  6
CONTINUOUS
 62
     7
 10
238.461200308025
 20
65.3798899292631
 30
0.0
 11
238.461200308025
 21
64.1798899113817
 31
0.0
  0
LINE
  5
   4B2
  8
0
  6
CONTINUOUS
 62
     7
 10
238.341205212891
 20
65.3798899292631
 30
0.0
 11
238.461200308025
 21
65.3798899292631
 31
0.0
  0
LINE
  5
   4B3
  8
0
  6
CONTINUOUS
 62
     7
 10
226.261212333262
 20
94.9798720597903
 30
0.0
 11
227.861212357104
 21
94.9798720597903
 31
0.0
  0
LINE
  5
   4B4
  8
0
  6
CONTINUOUS
 62
     7
 10
228.261212363064
 20
95.9798842817229
 30
0.0
 11
228.261212363064
 21
94.9798720597903
 31
0.0
  0
LINE
  5
   4B5
  8
0
  6
CONTINUOUS
 62
     7
 10
229.461204614088
 20
72.2799083426351
 30
0.0
 11
238.341203525707
 21
72.2799083426351
 31
0.0
  0
LINE
  5
   4B6
  8
0
  6
CONTINUOUS
 62
     7
 10
229.461201672304
 20
76.8799084111793
 30
0.0
 11
238.341200583923
 21
76.8799084111793
 31
0.0
  0
LINE
  5
   4B7
  8
0
  6
CONTINUOUS
 62
     7
 10
230.061199753487
 20
67.1799029021229
 30
0.0
 11
229.980816464102
 21
66.8799029017943
 31
0.0
  0
LINE
  5
   4B8
  8
0
  6
CONTINUOUS
 62
     7
 10
229.98081449961
 20
66.8798999657859
 30
0.0
 11
229.761203915137
 21
66.660283272338
 31
0.0
  0
LINE
  5
   4B9
  8
0
  6
CONTINUOUS
 62
     7
 10
229.761199355645
 20
66.6602887204352
 30
0.0
 11
229.461193259756
 21
66.5799054249323
 31
0.0
  0
LINE
  5
   4BA
  8
0
  6
CONTINUOUS
 62
     7
 10
229.461202695681
 20
71.3799030892052
 30
0.0
 11
229.761202697952
 21
71.2995136907855
 31
0.0
  0
LINE
  5
   4BB
  8
0
  6
CONTINUOUS
 62
     7
 10
229.761202185969
 20
71.2995103320743
 30
0.0
 11
229.980812773497
 21
71.0798997445459
 31
0.0
  0
LINE
  5
   4BC
  8
0
  6
CONTINUOUS
 62
     7
 10
229.98080620313
 20
71.079900298479
 30
0.0
 11
230.06119560155
 21
70.7799002962084
 31
0.0
  0
LINE
  5
   4BD
  8
0
  6
CONTINUOUS
 62
     7
 10
230.061202895542
 20
70.7798984887373
 30
0.0
 11
230.061196792027
 21
67.1798984350931
 31
0.0
  0
LINE
  5
   4BE
  8
0
  6
CONTINUOUS
 62
     7
 10
238.341205189049
 20
128.779879765367
 30
0.0
 11
238.341205189049
 21
65.3798899292631
 31
0.0
  0
LINE
  5
   4BF
  8
0
  6
CONTINUOUS
 62
     7
 10
200.661232330304
 20
137.459889782636
 30
0.0
 11
238.341223499596
 21
137.459889782636
 31
0.0
  0
LINE
  5
   4C0
  8
0
  6
CONTINUOUS
 62
     7
 10
238.341180774981
 20
137.459887026249
 30
0.0
 11
238.341180774981
 21
128.779882014094
 31
0.0
  0
LINE
  5
   4C1
  8
0
  6
CONTINUOUS
 62
     7
 10
229.461218484462
 20
137.459889782636
 30
0.0
 11
229.461218484462
 21
128.779890873997
 31
0.0
  0
LINE
  5
   4C2
  8
0
  6
CONTINUOUS
 62
     7
 10
241.261224763811
 20
109.479902793436
 30
0.0
 11
242.661224784673
 21
109.479902793436
 31
0.0
  0
LINE
  5
   4C3
  8
0
  6
CONTINUOUS
 62
     7
 10
241.261224763811
 20
67.4799143746184
 30
0.0
 11
242.661224784673
 21
67.4799143746184
 31
0.0
  0
LINE
  5
   4C4
  8
0
  6
CONTINUOUS
 62
     7
 10
238.461224722088
 20
65.3798899292631
 30
0.0
 11
238.461224722088
 21
60.9799142777608
 31
0.0
  0
LINE
  5
   4C5
  8
0
  6
CONTINUOUS
 62
     7
 10
240.46122475189
 20
67.4799143746184
 30
0.0
 11
240.46122475189
 21
60.9799142777608
 31
0.0
  0
LINE
  5
   4C6
  8
0
  6
CONTINUOUS
 62
     7
 10
240.46122475189
 20
128.779903081028
 30
0.0
 11
240.46122475189
 21
109.479902793436
 31
0.0
  0
LINE
  5
   4C7
  8
0
  6
CONTINUOUS
 62
     7
 10
238.461224722088
 20
128.779903081028
 30
0.0
 11
240.46122475189
 21
128.779903081028
 31
0.0
  0
LINE
  5
   4C8
  8
0
  6
CONTINUOUS
 62
     7
 10
238.461224722088
 20
60.9799142777608
 30
0.0
 11
240.46122475189
 21
60.9799142777608
 31
0.0
  0
LINE
  5
   4C9
  8
0
  6
CONTINUOUS
 62
     7
 10
241.261224763811
 20
109.479902793436
 30
0.0
 11
241.261224763811
 21
67.4799143746184
 31
0.0
  0
LINE
  5
   4CA
  8
0
  6
CONTINUOUS
 62
     7
 10
240.46122475189
 20
67.4799143746184
 30
0.0
 11
241.261224763811
 21
67.4799143746184
 31
0.0
  0
LINE
  5
   4CB
  8
0
  6
CONTINUOUS
 62
     7
 10
240.46122475189
 20
109.479902793436
 30
0.0
 11
241.261224763811
 21
109.479902793436
 31
0.0
  0
LINE
  5
   4CC
  8
0
  6
CONTINUOUS
 62
     7
 10
238.461197141884
 20
77.1103820074178
 30
0.0
 11
238.341195924957
 21
77.0998839616715
 31
0.0
  0
LINE
  5
   4CD
  8
0
  6
CONTINUOUS
 62
     7
 10
238.34121655043
 20
72.0598978632507
 30
0.0
 11
238.461217770713
 21
72.049393713969
 31
0.0
  0
LINE
  5
   4CE
  8
0
  6
CONTINUOUS
 62
     7
 10
229.46120627743
 20
77.979884013502
 30
0.0
 11
229.46120627743
 21
76.8798998882567
 31
0.0
  0
LINE
  5
   4CF
  8
0
  6
CONTINUOUS
 62
     7
 10
200.66122988087
 20
38.0999136316463
 30
0.0
 11
238.341223118127
 21
38.0999136316463
 31
0.0
  0
LINE
  5
   4D0
  8
0
  6
CONTINUOUS
 62
     7
 10
199.861230250419
 20
65.1799143403455
 30
0.0
 11
201.46123027426
 21
65.1799143403455
 31
0.0
  0
LINE
  5
   4D1
  8
0
  6
CONTINUOUS
 62
     7
 10
231.46122461778
 20
65.1799143403455
 30
0.0
 11
238.341229603112
 21
65.1799143403455
 31
0.0
  0
LINE
  5
   4D2
  8
0
  6
CONTINUOUS
 62
     7
 10
239.461230840505
 20
46.5799079596682
 30
0.0
 11
239.461230840505
 21
36.9799139201328
 31
0.0
  0
LINE
  5
   4D3
  8
0
  6
CONTINUOUS
 62
     7
 10
201.46123027426
 20
65.1799143403455
 30
0.0
 11
201.46123027426
 21
64.1799143254443
 31
0.0
  0
LINE
  5
   4D4
  8
0
  6
CONTINUOUS
 62
     7
 10
238.461224722105
 20
48.1799093916333
 30
0.0
 11
238.341226322347
 21
48.1799079831518
 31
0.0
  0
LINE
  5
   4D5
  8
0
  6
CONTINUOUS
 62
     7
 10
238.341229603112
 20
46.5799079596682
 30
0.0
 11
239.461230840505
 21
46.5799079596682
 31
0.0
  0
LINE
  5
   4D6
  8
0
  6
CONTINUOUS
 62
     7
 10
238.341229603112
 20
48.1799140870258
 30
0.0
 11
238.341229603112
 21
38.0999151575252
 31
0.0
  0
LINE
  5
   4D7
  8
0
  6
CONTINUOUS
 62
     7
 10
238.341229603112
 20
65.1799143403455
 30
0.0
 11
238.341229603112
 21
48.1799140870258
 31
0.0
  0
LINE
  5
   4D8
  8
0
  6
CONTINUOUS
 62
     7
 10
238.341229603112
 20
60.5799142718002
 30
0.0
 11
238.461224722088
 21
60.5799142718002
 31
0.0
  0
LINE
  5
   4D9
  8
0
  6
CONTINUOUS
 62
     7
 10
200.661229880929
 20
50.5799141231844
 30
0.0
 11
199.861230250496
 21
50.5799080196686
 31
0.0
  0
LINE
  5
   4DA
  8
0
  6
CONTINUOUS
 62
     7
 10
200.66122988087
 20
50.579908019273
 30
0.0
 11
200.66122988087
 21
36.9799139201329
 31
0.0
  0
LINE
  5
   4DB
  8
0
  6
CONTINUOUS
 62
     7
 10
199.861230250419
 20
46.2799079551978
 30
0.0
 11
200.66123026234
 21
46.2799079551978
 31
0.0
  0
LINE
  5
   4DC
  8
0
  6
CONTINUOUS
 62
     7
 10
229.461226114718
 20
65.9799143540889
 30
0.0
 11
229.461220011202
 21
65.1799143421497
 31
0.0
  0
LINE
  5
   4DD
  8
0
  6
CONTINUOUS
 62
     7
 10
225.461230631888
 20
65.9799143522664
 30
0.0
 11
229.461230691493
 21
65.9799143522664
 31
0.0
  0
LINE
  5
   4DE
  8
0
  6
CONTINUOUS
 62
     7
 10
229.461224587977
 20
65.1799143403455
 30
0.0
 11
231.46122461778
 21
65.1799143403455
 31
0.0
  0
LINE
  5
   4DF
  8
0
  6
CONTINUOUS
 62
     7
 10
199.861230250419
 20
42.7928713889547
 30
0.0
 11
200.661230262339
 21
42.7928713889547
 31
0.0
  0
LINE
  5
   4E0
  8
0
  6
CONTINUOUS
 62
     7
 10
199.861230250419
 20
43.7740668534048
 30
0.0
 11
200.66123026234
 21
43.7740668534048
 31
0.0
  0
LINE
  5
   4E1
  8
0
  6
CONTINUOUS
 62
     7
 10
199.861230250419
 20
46.2287971145925
 30
0.0
 11
200.66123026234
 21
46.2287971145925
 31
0.0
  0
LINE
  5
   4E2
  8
0
  6
CONTINUOUS
 62
     7
 10
238.461224722088
 20
60.7799142747806
 30
0.0
 11
240.46122475189
 21
60.7799142747806
 31
0.0
  0
LINE
  5
   4E3
  8
0
  6
CONTINUOUS
 62
     7
 10
238.461224722088
 20
46.7799140661643
 30
0.0
 11
240.46122475189
 21
46.7799140661643
 31
0.0
  0
LINE
  5
   4E4
  8
0
  6
CONTINUOUS
 62
     7
 10
240.46122475189
 20
60.7799142747806
 30
0.0
 11
240.46122475189
 21
46.7799140661643
 31
0.0
  0
LINE
  5
   4E5
  8
0
  6
CONTINUOUS
 62
     7
 10
239.661224739969
 20
60.7799142747806
 30
0.0
 11
239.661224739969
 21
46.7799140661643
 31
0.0
  0
LINE
  5
   4E6
  8
0
  6
CONTINUOUS
 62
     7
 10
238.461224722088
 20
60.7799142747806
 30
0.0
 11
238.461224722088
 21
46.7799140661643
 31
0.0
  0
LINE
  5
   4E7
  8
0
  6
CONTINUOUS
 62
     7
 10
201.861204645454
 20
76.7798947378224
 30
0.0
 11
201.861204645454
 21
72.3798946722573
 31
0.0
  0
LINE
  5
   4E8
  8
0
  6
CONTINUOUS
 62
     7
 10
200.66123026234
 20
138.579889555198
 30
0.0
 11
229.46120627743
 21
138.579889555198
 31
0.0
  0
LINE
  5
   4E9
  8
0
  6
DASHDOT
 62
     7
 10
199.861230250419
 20
141.306617720473
 30
0.0
 11
199.861230250419
 21
31.6531871809449
 31
0.0
  0
LINE
  5
   4EA
  8
0
  6
DASHDOT
 62
     7
 10
198.661230232537
 20
141.306617720473
 30
0.0
 11
198.661230232537
 21
31.6531871809449
 31
0.0
  0
LINE
  5
   4EB
  8
0
  6
CONTINUOUS
 62
     7
 10
200.66122988087
 20
36.9799139201329
 30
0.0
 11
239.461230459035
 21
36.9799139201329
 31
0.0
  0
LINE
  5
   4EC
  8
0
  6
CONTINUOUS
 62
     7
 10
201.46123027426
 20
64.1799067570996
 30
0.0
 11
225.461218424857
 21
64.1799067570996
 31
0.0
  0
LINE
  5
   4ED
  8
0
  6
CONTINUOUS
 62
     7
 10
258.261212725402
 20
80.2798506193418
 30
0.0
 11
258.261212725402
 21
75.479846034945
 31
0.0
  0
LINE
  5
   4EE
  8
0
  6
CONTINUOUS
 62
     1
 10
199.861250929156
 20
58.9686533225118
 30
0.0
 11
199.861250929156
 21
58.8773081063069
 31
0.0
  0
LINE
  5
   4EF
  8
0
  6
DASHDOT
 62
     3
 10
341.369781381446
 20
88.4799024805113
 30
0.0
 11
345.280232320821
 21
88.4799024805113
 31
0.0
  0
LINE
  5
   4F0
  8
0
  6
DASHDOT
 62
     3
 10
192.165244599812
 20
88.4799024805113
 30
0.0
 11
370.648614115961
 21
88.4799024805113
 31
0.0
  0
LINE
  5
   4F1
  8
0
  6
CONTINUOUS
 62
     2
 10
344.03314110207
 20
103.679718136708
 30
0.0
 11
344.03314110207
 21
101.154534993611
 31
0.0
  0
LINE
  5
   4F2
  8
0
  6
CONTINUOUS
 62
     2
 10
344.03314110207
 20
89.0797407462816
 30
0.0
 11
344.03314110207
 21
86.6797407105188
 31
0.0
  0
LINE
  5
   4F3
  8
0
  6
CONTINUOUS
 62
     2
 10
357.433141301746
 20
99.6766036971559
 30
0.0
 11
357.433141301746
 21
86.4828748628586
 31
0.0
  0
LINE
  5
   4F4
  8
0
  6
CONTINUOUS
 62
     2
 10
350.233141194457
 20
86.6797407105187
 30
0.0
 11
350.233141194457
 21
84.0797406717757
 31
0.0
  0
LINE
  5
   4F5
  8
0
  6
CONTINUOUS
 62
     2
 10
350.233141194457
 20
102.079740939997
 30
0.0
 11
350.233141194457
 21
99.4797409012536
 31
0.0
  0
LINE
  5
   4F6
  8
0
  6
CONTINUOUS
 62
     2
 10
344.03314110207
 20
86.6797407105188
 30
0.0
 11
344.03314110207
 21
82.4797406479339
 31
0.0
  0
LINE
  5
   4F7
  8
0
  6
CONTINUOUS
 62
     2
 10
344.03314110207
 20
103.679740963838
 30
0.0
 11
344.03314110207
 21
99.4797409012536
 31
0.0
  0
LINE
  5
   4F8
  8
0
  6
CONTINUOUS
 62
     2
 10
350.233141194457
 20
99.4797409012536
 30
0.0
 11
350.233141194457
 21
86.6797407105187
 31
0.0
  0
LINE
  5
   4F9
  8
0
  6
CONTINUOUS
 62
   212
 10
241.261212327878
 20
109.479924156165
 30
0.0
 11
258.060954872156
 21
109.479863121009
 31
0.0
  0
LINE
  5
   4FA
  8
0
  6
CONTINUOUS
 62
   212
 10
241.261212472084
 20
67.4799143746184
 30
0.0
 11
258.060716811771
 21
67.4799143746184
 31
0.0
  0
LINE
  5
   4FB
  8
0
  6
CONTINUOUS
 62
   212
 10
241.26121230519
 20
109.479924155737
 30
0.0
 11
241.26121230519
 21
108.479924140836
 31
0.0
  0
LINE
  5
   4FC
  8
0
  6
CONTINUOUS
 62
   212
 10
241.26121230519
 20
104.979838639461
 30
0.0
 11
241.26121230519
 21
98.4481673995539
 31
0.0
  0
LINE
  5
   4FD
  8
0
  6
CONTINUOUS
 62
   212
 10
241.26121230519
 20
97.6481673876329
 30
0.0
 11
241.26121230519
 21
75.9481518054884
 31
0.0
  0
LINE
  5
   4FE
  8
0
  6
CONTINUOUS
 62
   212
 10
241.26121230519
 20
75.1481517935675
 30
0.0
 11
241.26121230519
 21
70.9799418925892
 31
0.0
  0
LINE
  5
   4FF
  8
0
  6
CONTINUOUS
 62
   212
 10
241.26121230519
 20
68.9799433886657
 30
0.0
 11
241.26121230519
 21
67.4799143746144
 31
0.0
  0
LINE
  5
   500
  8
0
  6
CONTINUOUS
 62
   212
 10
258.261211199523
 20
109.27938612078
 30
0.0
 11
258.261211199523
 21
63.0797403588513
 31
0.0
  0
LINE
  5
   501
  8
0
  6
CONTINUOUS
 62
   212
 10
241.26121230519
 20
68.4799113377577
 30
0.0
 11
241.263009027628
 21
68.4799113377577
 31
0.0
  0
LINE
  5
   502
  8
0
  6
CONTINUOUS
 62
   212
 10
258.661205764595
 20
101.879893989254
 30
0.0
 11
258.662507339359
 21
99.3241872395858
 31
0.0
  0
LINE
  5
   503
  8
0
  6
CONTINUOUS
 62
   212
 10
258.661207306652
 20
101.879904059508
 30
0.0
 11
258.662263214827
 21
98.0797758290516
 31
0.0
  0
LINE
  5
   504
  8
0
  6
CONTINUOUS
 62
   212
 10
258.661206922694
 20
101.879901552566
 30
0.0
 11
258.661902723508
 21
98.0797733221061
 31
0.0
  0
LINE
  5
   505
  8
0
  6
CONTINUOUS
 62
   212
 10
258.661206769482
 20
101.879900491287
 30
0.0
 11
258.661688947215
 21
98.0797722608416
 31
0.0
  0
LINE
  5
   506
  8
0
  6
CONTINUOUS
 62
   212
 10
258.661206694025
 20
101.879900060154
 30
0.0
 11
258.661536283862
 21
98.079771829709
 31
0.0
  0
LINE
  5
   507
  8
0
  6
CONTINUOUS
 62
   212
 10
258.661206682352
 20
101.879899960384
 30
0.0
 11
258.66150575461
 21
98.0797717299239
 31
0.0
  0
LINE
  5
   508
  8
0
  6
CONTINUOUS
 62
   212
 10
258.661206654085
 20
101.879899788398
 30
0.0
 11
258.66141417362
 21
98.0797715579829
 31
0.0
  0
LINE
  5
   509
  8
0
  6
CONTINUOUS
 62
   212
 10
258.66120663594
 20
98.5326217960373
 30
0.0
 11
258.66122036885
 21
98.0797714474446
 31
0.0
  0
LINE
  5
   50A
  8
0
  6
CONTINUOUS
 62
   212
 10
241.262971953539
 20
71.925022473238
 30
0.0
 11
241.2629742662
 21
70.979941892748
 31
0.0
  0
LINE
  5
   50B
  8
0
  6
CONTINUOUS
 62
   212
 10
241.262979177623
 20
68.9799418629819
 30
0.0
 11
241.262980417399
 21
68.4799128638252
 31
0.0
  0
LINE
  5
   50C
  8
0
  6
CONTINUOUS
 62
   212
 10
241.262982161494
 20
105.034650278174
 30
0.0
 11
241.262972028704
 21
104.979840707045
 31
0.0
  0
LINE
  5
   50D
  8
0
  6
CONTINUOUS
 62
   212
 10
241.262944583326
 20
105.47686638162
 30
0.0
 11
241.262963418395
 21
105.094230877871
 31
0.0
  0
LINE
  5
   50E
  8
0
  6
CONTINUOUS
 62
   212
 10
241.262925795741
 20
106.336589172715
 30
0.0
 11
241.26294167442
 21
105.547947803541
 31
0.0
  0
LINE
  5
   50F
  8
0
  6
CONTINUOUS
 62
   212
 10
241.262918857725
 20
107.278080863673
 30
0.0
 11
241.262923196943
 21
106.587419232283
 31
0.0
  0
LINE
  5
   510
  8
0
  6
CONTINUOUS
 62
   212
 10
241.262923649939
 20
108.261271797042
 30
0.0
 11
241.262918595465
 21
107.554881405659
 31
0.0
  0
LINE
  5
   511
  8
0
  6
CONTINUOUS
 62
   212
 10
241.262921933382
 20
108.479924180197
 30
0.0
 11
241.262924722879
 21
108.367540145318
 31
0.0
  0
LINE
  5
   512
  8
0
  6
CONTINUOUS
 62
   212
 10
241.262963420135
 20
105.094231974799
 30
0.0
 11
241.26297195552
 21
105.03464945438
 31
0.0
  0
LINE
  5
   513
  8
0
  6
CONTINUOUS
 62
   212
 10
241.262941674546
 20
105.547947881039
 30
0.0
 11
241.262944583253
 21
105.47686633701
 31
0.0
  0
LINE
  5
   514
  8
0
  6
CONTINUOUS
 62
   212
 10
241.26292319695
 20
106.587419236487
 30
0.0
 11
241.262925795712
 21
106.336589154627
 31
0.0
  0
LINE
  5
   515
  8
0
  6
CONTINUOUS
 62
   212
 10
241.262978352256
 20
107.554881402499
 30
0.0
 11
241.262978352256
 21
107.278080861265
 31
0.0
  0
LINE
  5
   516
  8
0
  6
CONTINUOUS
 62
   212
 10
241.262924722828
 20
108.367540112458
 30
0.0
 11
241.262923649944
 21
108.261271800328
 31
0.0
  0
LINE
  5
   517
  8
0
  6
CONTINUOUS
 62
   212
 10
258.202144402409
 20
67.5389902838818
 30
0.0
 11
258.060716790604
 21
67.4804148437818
 31
0.0
  0
LINE
  5
   518
  8
0
  6
CONTINUOUS
 62
   212
 10
258.261211199523
 20
67.6815819555065
 30
0.0
 11
258.202145361151
 21
67.5389919448747
 31
0.0
  0
LINE
  5
   519
  8
0
  6
CONTINUOUS
 62
   212
 10
258.202382533772
 20
109.421108261876
 30
0.0
 11
258.261087673964
 21
109.279683702011
 31
0.0
  0
LINE
  5
   51A
  8
0
  6
CONTINUOUS
 62
   212
 10
258.060954884558
 20
109.479863387016
 30
0.0
 11
258.202382497137
 21
109.421110942804
 31
0.0
  0
LINE
  5
   51B
  8
0
  6
CONTINUOUS
 62
     2
 10
350.233141194457
 20
101.276603720998
 30
0.0
 11
355.833141277904
 21
101.276603720998
 31
0.0
  0
LINE
  5
   51C
  8
0
  6
CONTINUOUS
 62
     2
 10
350.233141194457
 20
84.8828748390168
 30
0.0
 11
355.833141277904
 21
84.8828748390168
 31
0.0
  0
LINE
  5
   51D
  8
0
  6
CONTINUOUS
 62
     2
 10
344.03314110207
 20
82.4797406479339
 30
0.0
 11
348.633147234335
 21
82.4797406479339
 31
0.0
  0
LINE
  5
   51E
  8
0
  6
CONTINUOUS
 62
     2
 10
344.03314110207
 20
103.679740963839
 30
0.0
 11
348.633141170616
 21
103.679740963839
 31
0.0
  0
LINE
  5
   51F
  8
0
  6
CONTINUOUS
 62
   212
 10
258.261208150433
 20
103.677201908191
 30
0.0
 11
258.662133082455
 21
103.677195790586
 31
0.0
  0
LINE
  5
   520
  8
0
  6
CONTINUOUS
 62
   212
 10
258.662530257077
 20
82.7634473513467
 30
0.0
 11
258.261209679671
 21
82.7634381719402
 31
0.0
  0
ARC
  5
   521
  8
0
  6
CONTINUOUS
 62
     2
 10
348.633145523012
 20
102.079747203857
 30
0.0
 40
1.59999363822779
 50
359.99971999686
 51
450.000090574062
  0
ARC
  5
   522
  8
0
  6
CONTINUOUS
 62
     2
 10
348.633147234335
 20
84.0797342893981
 30
0.0
 40
1.59999184878252
 50
629.999805654142
 51
720.000186245719
  0
ARC
  5
   523
  8
0
  6
CONTINUOUS
 62
     2
 10
355.833141277904
 20
99.6766036971558
 30
0.0
 40
1.60000002384186
 50
359.999999844103
 51
449.999999844103
  0
ARC
  5
   524
  8
0
  6
CONTINUOUS
 62
     2
 10
355.833141277904
 20
86.4828748628586
 30
0.0
 40
1.60000002384186
 50
629.999999844103
 51
719.999999844103
  0
LINE
  5
   525
  8
0
  6
DASHDOT
 62
     7
 10
250.083689012337
 20
93.0797408058862
 30
0.0
 11
345.959470863151
 21
93.0797408058862
 31
0.0
  0
LINE
  5
   526
  8
0
  6
CONTINUOUS
 62
     7
 10
238.341224750044
 20
125.47732429646
 30
0.0
 11
238.461224637391
 21
125.47732429646
 31
0.0
  0
LINE
  5
   527
  8
0
  6
CONTINUOUS
 62
     7
 10
241.261224763811
 20
109.377325582316
 30
0.0
 11
241.261224763811
 21
67.4799189522511
 31
0.0
  0
LINE
  5
   528
  8
0
  6
CONTINUOUS
 62
     7
 10
241.161224537774
 20
109.477324675807
 30
0.0
 11
241.23193520931
 21
109.448033903735
 31
0.0
  0
LINE
  5
   529
  8
0
  6
CONTINUOUS
 62
     7
 10
241.231935770171
 20
109.448031315565
 30
0.0
 11
241.261225100651
 21
109.377322087629
 31
0.0
  0
LINE
  5
   52A
  8
0
  6
CONTINUOUS
 62
     7
 10
241.261224237558
 20
67.5773223388182
 30
0.0
 11
241.23193495497
 21
67.5066115850851
 31
0.0
  0
LINE
  5
   52B
  8
0
  6
CONTINUOUS
 62
     7
 10
253.465541219521
 20
79.6310603641203
 30
0.0
 11
252.911013173836
 21
77.2684565186765
 31
0.0
  0
LINE
  5
   52C
  8
0
  6
CONTINUOUS
 62
     7
 10
252.738139978866
 20
77.0235395824582
 30
0.0
 11
252.443638477366
 21
76.9675245670092
 31
0.0
  0
LINE
  5
   52D
  8
0
  6
CONTINUOUS
 62
     7
 10
252.911012401609
 20
77.2684544872136
 30
0.0
 11
252.738139473401
 21
77.0235387150321
 31
0.0
  0
LINE
  5
   52E
  8
0
  6
CONTINUOUS
 62
     7
 10
253.419622396267
 20
79.9274169252264
 30
0.0
 11
253.465540670808
 21
79.6310576692144
 31
0.0
  0
LINE
  5
   52F
  8
0
  6
CONTINUOUS
 62
     7
 10
253.180618902461
 20
80.1085692740493
 30
0.0
 11
253.419622665243
 21
79.9274199805938
 31
0.0
  0
LINE
  5
   530
  8
0
  6
CONTINUOUS
 62
     7
 10
242.432506233942
 20
83.0174122437648
 30
0.0
 11
253.180619067663
 21
80.1085682204228
 31
0.0
  0
LINE
  5
   531
  8
0
  6
CONTINUOUS
 62
     7
 10
242.213013502257
 20
83.1689322718412
 30
0.0
 11
242.432506982169
 21
83.0174094350734
 31
0.0
  0
LINE
  5
   532
  8
0
  6
CONTINUOUS
 62
     7
 10
242.137566069039
 20
83.4247538209375
 30
0.0
 11
242.213012865033
 21
83.1689341167306
 31
0.0
  0
LINE
  5
   533
  8
0
  6
CONTINUOUS
 62
     7
 10
241.486015429737
 20
79.0403438661163
 30
0.0
 11
241.308464903259
 21
78.8157192209776
 31
0.0
  0
LINE
  5
   534
  8
0
  6
CONTINUOUS
 62
     7
 10
241.768217614119
 20
79.088752038166
 30
0.0
 11
241.486015837024
 21
79.040345057111
 31
0.0
  0
LINE
  5
   535
  8
0
  6
CONTINUOUS
 62
     7
 10
241.768217487307
 20
79.0887538553151
 30
0.0
 11
252.443638287465
 21
76.9675257747325
 31
0.0
  0
LINE
  5
   536
  8
0
  6
CONTINUOUS
 62
     7
 10
241.295298288725
 20
89.0478167109884
 30
0.0
 11
241.604549650677
 21
88.9752337013926
 31
0.0
  0
LINE
  5
   537
  8
0
  6
CONTINUOUS
 62
     7
 10
253.167574985518
 20
80.1120963807923
 30
0.0
 11
252.430140573038
 21
76.9702048517793
 31
0.0
  0
ARC
  5
   538
  8
0
  6
CONTINUOUS
 62
     7
 10
223.364050118657
 20
84.4227545814436
 30
0.0
 40
18.8000240781621
 50
341.24592353879
 51
374.013636805743
  0
LINE
  5
   539
  8
0
  6
DASHED
 62
     2
 10
357.433141301746
 20
102.079740939997
 30
0.0
 11
357.433141301746
 21
68.6797404422978
 31
0.0
  0
LINE
  5
   53A
  8
0
  6
DASHED
 62
     7
 10
351.833141218299
 20
67.079740418456
 30
0.0
 11
355.833141277904
 21
67.079740418456
 31
0.0
  0
LINE
  5
   53B
  8
0
  6
DASHED
 62
     7
 10
344.03314110207
 20
80.089884655291
 30
0.0
 11
347.433141152734
 21
80.089884655291
 31
0.0
  0
LINE
  5
   53C
  8
0
  6
DASHED
 62
     7
 10
348.633141170616
 20
103.679740963839
 30
0.0
 11
355.833141277904
 21
103.679740963839
 31
0.0
  0
ARC
  5
   53D
  8
0
  6
DASHED
 62
     7
 10
351.833141218299
 20
68.6797404422978
 30
0.0
 40
1.60000002384186
 50
539.999999844103
 51
629.999999844103
  0
ARC
  5
   53E
  8
0
  6
DASHED
 62
     7
 10
355.833141277904
 20
68.6797404422978
 30
0.0
 40
1.60000002384186
 50
629.999999844103
 51
719.999999844103
  0
ARC
  5
   53F
  8
0
  6
DASHED
 62
     7
 10
347.433141152734
 20
77.2898846135677
 30
0.0
 40
2.80000004172325
 50
359.999999844103
 51
449.999999844103
  0
ARC
  5
   540
  8
0
  6
DASHED
 62
     7
 10
347.433141152734
 20
78.6961621003432
 30
0.0
 40
2.80000004172325
 50
359.999999844103
 51
449.999999844103
  0
ARC
  5
   541
  8
0
  6
DASHED
 62
     7
 10
355.833141277904
 20
102.079740939997
 30
0.0
 40
1.60000002384186
 50
359.999999844103
 51
449.999999844103
  0
LINE
  5
   542
  8
0
  6
DASHED
 62
     7
 10
350.233141194457
 20
78.6961621003432
 30
0.0
 11
350.233141194457
 21
68.6797404422978
 31
0.0
  0
LINE
  5
   543
  8
0
  6
DASHED
 62
     7
 10
360.633141349429
 20
88.6797407403211
 30
0.0
 11
360.633141349429
 21
82.2797406449536
 31
0.0
  0
ARC
  5
   544
  8
0
  6
DASHED
 62
     7
 10
359.033141325588
 20
82.2797406449536
 30
0.0
 40
1.60000002384186
 50
539.999999844103
 51
719.999999844103
  0
ARC
  5
   545
  8
0
  6
DASHED
 62
     7
 10
359.033141325588
 20
88.6797407403211
 30
0.0
 40
1.60000002384186
 50
359.999999844103
 51
539.999999844103
  0
LINE
  5
   546
  8
0
  6
DASHDOT
 62
     7
 10
356.633141289825
 20
82.2797406449537
 30
0.0
 11
361.43314136135
 21
82.2797406449537
 31
0.0
  0
LINE
  5
   547
  8
0
  6
DASHDOT
 62
     7
 10
359.033141325588
 20
91.0797407760839
 30
0.0
 11
359.033141325588
 21
79.8797406091909
 31
0.0
  0
LINE
  5
   548
  8
0
  6
DASHDOT
 62
     7
 10
356.633141289825
 20
88.6797407403211
 30
0.0
 11
361.43314136135
 21
88.6797407403211
 31
0.0
  0
ARC
  5
   549
  8
0
  6
DASHED
 62
     7
 10
353.833141248102
 20
96.2797408535699
 30
0.0
 40
16.5197581136385
 50
282.586944794947
 51
307.750050175644
  0
ARC
  5
   54A
  8
0
  6
DASHED
 62
     7
 10
353.833141248102
 20
96.2797408535699
 30
0.0
 40
17.7197581315199
 50
281.721986502914
 51
307.180704089096
  0
LINE
  5
   54B
  8
0
  6
DASHED
 62
     7
 10
357.433141301746
 20
94.779332086828
 30
0.0
 11
365.181318668037
 21
81.0265811803274
 31
0.0
  0
LINE
  5
   54C
  8
0
  6
DASHED
 62
     2
 10
357.433141301746
 20
97.2240664394077
 30
0.0
 11
366.226811003083
 21
81.6156022497928
 31
0.0
  0
LINE
  5
   54D
  8
0
  6
DASHED
 62
     7
 10
366.226811003083
 20
81.6156022497928
 30
0.0
 11
365.181318668037
 21
81.0265811803274
 31
0.0
  0
LINE
  5
   54E
  8
0
  6
DASHED
 62
     7
 10
344.03314110207
 20
82.4797406479339
 30
0.0
 11
344.03314110207
 21
80.089884655291
 31
0.0
  0
LINE
  5
   54F
  8
0
  6
CONTINUOUS
 62
   212
 10
258.662133083502
 20
103.677195790587
 30
0.0
 11
258.661705557616
 21
82.7638120336772
 31
0.0
  0
LINE
  5
   550
  8
0
  6
CONTINUOUS
 62
   253
 10
343.83314109909
 20
89.0797407462816
 30
0.0
 11
343.83314109909
 21
82.4797025620139
 31
0.0
  0
LINE
  5
   551
  8
0
  6
CONTINUOUS
 62
   253
 10
337.633141006703
 20
91.4797423689765
 30
0.0
 11
337.633141006703
 21
89.4797423391742
 31
0.0
  0
LINE
  5
   552
  8
0
  6
CONTINUOUS
 62
   253
 10
337.633141006703
 20
109.479901328606
 30
0.0
 11
342.933141085679
 21
109.479901328606
 31
0.0
  0
LINE
  5
   553
  8
0
  6
CONTINUOUS
 62
   253
 10
337.633141006703
 20
67.4798884957259
 30
0.0
 11
342.933141085679
 21
67.4798884957259
 31
0.0
  0
LINE
  5
   554
  8
0
  6
CONTINUOUS
 62
   253
 10
343.43314109313
 20
89.0797407462816
 30
0.0
 11
343.43314109313
 21
67.9799007102079
 31
0.0
  0
LINE
  5
   555
  8
0
  6
CONTINUOUS
 62
   253
 10
337.633141006703
 20
89.4797423391742
 30
0.0
 11
337.633141006703
 21
67.4798884957259
 31
0.0
  0
LINE
  5
   556
  8
0
  6
CONTINUOUS
 62
   253
 10
337.633141006703
 20
109.479901328606
 30
0.0
 11
337.633141006703
 21
93.0796996682084
 31
0.0
  0
LINE
  5
   557
  8
0
  6
CONTINUOUS
 62
   253
 10
337.633141006703
 20
93.0797027199662
 30
0.0
 11
337.633141006703
 21
91.4797423689765
 31
0.0
  0
LINE
  5
   558
  8
0
  6
CONTINUOUS
 62
   253
 10
343.433143698232
 20
67.9799037723737
 30
0.0
 11
343.286695937233
 21
67.6263499910467
 31
0.0
  0
LINE
  5
   559
  8
0
  6
CONTINUOUS
 62
   253
 10
343.286692793532
 20
67.6263466358961
 30
0.0
 11
343.215965251812
 21
67.5970482335401
 31
0.0
  0
LINE
  5
   55A
  8
0
  6
CONTINUOUS
 62
   253
 10
343.215871025916
 20
67.5970087677404
 30
0.0
 11
342.933140917582
 21
67.479888400719
 31
0.0
  0
LINE
  5
   55B
  8
0
  6
CONTINUOUS
 62
   253
 10
342.933142667793
 20
109.47990391937
 30
0.0
 11
343.286694921431
 21
109.333456160656
 31
0.0
  0
LINE
  5
   55C
  8
0
  6
CONTINUOUS
 62
   253
 10
343.286693982343
 20
109.333458015594
 30
0.0
 11
343.433141741057
 21
108.979905761956
 31
0.0
  0
LINE
  5
   55D
  8
0
  6
CONTINUOUS
 62
   130
 10
258.861219089505
 20
98.8797485830282
 30
0.0
 11
258.861190097805
 21
87.2797819795111
 31
0.0
  0
LINE
  5
   55E
  8
0
  6
CONTINUOUS
 62
   130
 10
259.061219092482
 20
103.679785275608
 30
0.0
 11
259.061167212599
 21
82.4797452868515
 31
0.0
  0
LINE
  5
   55F
  8
0
  6
CONTINUOUS
 62
   130
 10
259.661219101425
 20
103.67977917222
 30
0.0
 11
259.661167221541
 21
82.4797483387363
 31
0.0
  0
LINE
  5
   560
  8
0
  6
CONTINUOUS
 62
   130
 10
260.061212328154
 20
101.079710575513
 30
0.0
 11
264.461788913388
 21
101.079694961344
 31
0.0
  0
LINE
  5
   561
  8
0
  6
CONTINUOUS
 62
   130
 10
260.06117380171
 20
85.0797105734247
 30
0.0
 11
264.461594223521
 21
85.0796975620785
 31
0.0
  0
LINE
  5
   562
  8
0
  6
CONTINUOUS
 62
   130
 10
259.661731803167
 20
96.2797729623985
 30
0.0
 11
264.861731880653
 21
96.2797058237249
 31
0.0
  0
LINE
  5
   563
  8
0
  6
CONTINUOUS
 62
   130
 10
259.661650931284
 20
89.8797728664976
 30
0.0
 11
264.86165100877
 21
89.879705727824
 31
0.0
  0
LINE
  5
   564
  8
0
  6
CONTINUOUS
 62
   130
 10
259.661731798175
 20
96.279772965329
 30
0.0
 11
259.661650926592
 21
89.8797728699616
 31
0.0
  0
LINE
  5
   565
  8
0
  6
CONTINUOUS
 62
   253
 10
343.43314109313
 20
82.4797025620139
 30
0.0
 11
343.83314109909
 21
82.4797025620139
 31
0.0
  0
LINE
  5
   566
  8
0
  6
CONTINUOUS
 62
   253
 10
343.43314109313
 20
103.679699826161
 30
0.0
 11
343.83314109909
 21
103.679699826161
 31
0.0
  0
LINE
  5
   567
  8
0
  6
CONTINUOUS
 62
   130
 10
258.661808095718
 20
87.7797671787377
 30
0.0
 11
258.861193148104
 21
87.7797667280153
 31
0.0
  0
LINE
  5
   568
  8
0
  6
CONTINUOUS
 62
   130
 10
258.662024780295
 20
98.3797673362859
 30
0.0
 11
258.861219079938
 21
98.3797668859947
 31
0.0
  0
LINE
  5
   569
  8
0
  6
CONTINUOUS
 62
   130
 10
258.861190097749
 20
87.2797819792438
 30
0.0
 11
259.061190100729
 21
87.2797819792438
 31
0.0
  0
LINE
  5
   56A
  8
0
  6
CONTINUOUS
 62
   130
 10
258.861219089449
 20
98.8797485827608
 30
0.0
 11
259.061219092429
 21
98.8797485827608
 31
0.0
  0
LINE
  5
   56B
  8
0
  6
CONTINUOUS
 62
   130
 10
259.66116721817
 20
82.4797483388734
 30
0.0
 11
259.061167209229
 21
82.4797452871154
 31
0.0
  0
LINE
  5
   56C
  8
0
  6
CONTINUOUS
 62
   130
 10
259.06121909113
 20
103.679785278443
 30
0.0
 11
259.66121910007
 21
103.679779174928
 31
0.0
  0
ARC
  5
   56D
  8
0
  6
CONTINUOUS
 62
     7
 10
264.461787469159
 20
100.679694955386
 30
0.0
 40
0.400000005960464
 50
359.999275844051
 51
449.999999844103
  0
ARC
  5
   56E
  8
0
  6
CONTINUOUS
 62
     7
 10
264.461595399185
 20
85.4796975680371
 30
0.0
 40
0.400000005960464
 50
629.999830429557
 51
719.999275844051
  0
ARC
  5
   56F
  8
0
  6
CONTINUOUS
 62
     7
 10
260.061213723465
 20
101.479710581471
 30
0.0
 40
0.400000005960464
 50
539.999859632118
 51
629.999796546653
  0
ARC
  5
   570
  8
0
  6
CONTINUOUS
 62
     7
 10
260.061172611164
 20
84.679710567466
 30
0.0
 40
0.400000005960464
 50
449.999999844103
 51
539.999859632118
  0
LINE
  5
   571
  8
0
  6
CONTINUOUS
 62
   212
 10
343.43314109313
 20
109.277056459825
 30
0.0
 11
343.43314109313
 21
103.67663879578
 31
0.0
  0
LINE
  5
   572
  8
0
  6
CONTINUOUS
 62
     7
 10
336.833140994782
 20
135.813059783247
 30
0.0
 11
336.833140994782
 21
62.9452672119991
 31
0.0
  0
LINE
  5
   573
  8
0
  6
CONTINUOUS
 62
     7
 10
337.633141006703
 20
135.813059783247
 30
0.0
 11
337.633141006703
 21
109.477056462805
 31
0.0
  0
LINE
  5
   574
  8
0
  6
CONTINUOUS
 62
   170
 10
335.6331409769
 20
98.4766997532922
 30
0.0
 11
335.6331409769
 21
87.6766950144091
 31
0.0
  0
LINE
  5
   575
  8
0
  6
CONTINUOUS
 62
   170
 10
336.233136407913
 20
99.0766906070128
 30
0.0
 11
336.833140994487
 21
99.0766860293416
 31
0.0
  0
LINE
  5
   576
  8
0
  6
CONTINUOUS
 62
   170
 10
336.233150140481
 20
87.0766904277448
 30
0.0
 11
336.83314099414
 21
87.0766858501784
 31
0.0
  0
LINE
  5
   577
  8
0
  6
CONTINUOUS
 62
   170
 10
335.633140985142
 20
98.476695175656
 30
0.0
 11
336.833141003003
 21
98.4766860203835
 31
0.0
  0
LINE
  5
   578
  8
0
  6
CONTINUOUS
 62
   170
 10
335.633140975543
 20
87.6766950144091
 30
0.0
 11
336.833140993424
 21
87.6766858591366
 31
0.0
  0
LINE
  5
   579
  8
0
  6
CONTINUOUS
 62
   170
 10
336.233145563477
 20
99.0766997622154
 30
0.0
 11
335.6331409769
 21
98.4766997532922
 31
0.0
  0
LINE
  5
   57A
  8
0
  6
CONTINUOUS
 62
   170
 10
335.633140976901
 20
87.6766995920453
 30
0.0
 11
336.233140985841
 21
87.0766995831046
 31
0.0
  0
LINE
  5
   57B
  8
0
  6
CONTINUOUS
 62
     7
 10
264.861716681549
 20
95.0772442232187
 30
0.0
 11
285.260278924924
 21
95.0770885945581
 31
0.0
  0
LINE
  5
   57C
  8
0
  6
CONTINUOUS
 62
     7
 10
264.86166613681
 20
91.0772441638833
 30
0.0
 11
285.260278924924
 21
91.077088534837
 31
0.0
  0
LINE
  5
   57D
  8
0
  6
DASHDOT
 62
     7
 10
262.258204003349
 20
105.659487315251
 30
0.0
 11
262.258204003349
 21
82.5956870065002
 31
0.0
  0
LINE
  5
   57E
  8
0
  6
CONTINUOUS
 62
     7
 10
263.25820401825
 20
105.077256606292
 30
0.0
 11
263.25820401825
 21
102.679708709165
 31
0.0
  0
LINE
  5
   57F
  8
0
  6
CONTINUOUS
 62
     7
 10
261.258203988448
 20
105.07727186508
 30
0.0
 11
261.258203988448
 21
102.679723967952
 31
0.0
  0
LINE
  5
   580
  8
0
  6
CONTINUOUS
 62
     7
 10
263.258142937927
 20
83.4796828903991
 30
0.0
 11
263.258121576506
 21
82.0797406419734
 31
0.0
  0
LINE
  5
   581
  8
0
  6
CONTINUOUS
 62
     7
 10
261.258142908125
 20
83.4796981491865
 30
0.0
 11
261.258121546471
 21
82.0797406419734
 31
0.0
  0
LINE
  5
   582
  8
0
  6
CONTINUOUS
 62
   132
 10
260.784206267315
 20
102.679727584267
 30
0.0
 11
263.732206311341
 21
102.679705092815
 31
0.0
  0
LINE
  5
   583
  8
0
  6
CONTINUOUS
 62
   132
 10
260.484203976914
 20
102.37972757996
 30
0.0
 11
260.484203976914
 21
101.379729854906
 31
0.0
  0
LINE
  5
   584
  8
0
  6
CONTINUOUS
 62
   132
 10
264.032204029784
 20
102.379705088508
 30
0.0
 11
264.032204029784
 21
101.379707362266
 31
0.0
  0
LINE
  5
   585
  8
0
  6
CONTINUOUS
 62
   132
 10
261.084203985855
 20
102.37972757996
 30
0.0
 11
261.084203985855
 21
101.379729854906
 31
0.0
  0
LINE
  5
   586
  8
0
  6
CONTINUOUS
 62
   132
 10
263.432204020843
 20
102.379707377171
 30
0.0
 11
263.432204020843
 21
101.379702784596
 31
0.0
  0
LINE
  5
   587
  8
0
  6
CONTINUOUS
 62
   132
 10
260.784203981385
 20
101.079702780125
 30
0.0
 11
263.732204025313
 21
101.079702780125
 31
0.0
  0
ARC
  5
   588
  8
0
  6
CONTINUOUS
 62
   132
 10
260.784203981385
 20
101.379729854906
 30
0.0
 40
0.30000000569165
 50
540.005169892384
 51
719.999999844103
  0
ARC
  5
   589
  8
0
  6
CONTINUOUS
 62
   132
 10
262.258204003349
 20
103.526829483257
 30
0.0
 40
2.44712670313166
 50
601.331165102415
 51
658.668834585791
  0
ARC
  5
   58A
  8
0
  6
CONTINUOUS
 62
   132
 10
263.732204025313
 20
101.379707362266
 30
0.0
 40
0.300000004505316
 50
539.999999844103
 51
719.999125573437
  0
ARC
  5
   58B
  8
0
  6
CONTINUOUS
 62
   132
 10
263.732204025313
 20
102.379705088508
 30
0.0
 40
0.300000004479044
 50
359.999562682456
 51
539.999999844103
  0
ARC
  5
   58C
  8
0
  6
CONTINUOUS
 62
   132
 10
262.258187622074
 20
100.232589635355
 30
0.0
 40
2.44712670325835
 50
421.330727971072
 51
478.668397453027
  0
ARC
  5
   58D
  8
0
  6
CONTINUOUS
 62
   132
 10
260.784203981384
 20
102.37972757996
 30
0.0
 40
0.300000004479308
 50
359.999999844103
 51
539.99956274156
  0
LINE
  5
   58E
  8
0
  6
CONTINUOUS
 62
   132
 10
260.784102509484
 20
83.4797017658273
 30
0.0
 11
263.732102553606
 21
83.4796792743746
 31
0.0
  0
ARC
  5
   58F
  8
0
  6
CONTINUOUS
 62
   132
 10
262.258121202505
 20
85.9268172232871
 30
0.0
 40
2.44712670325835
 50
601.33072797107
 51
658.668397453025
  0
ARC
  5
   590
  8
0
  6
CONTINUOUS
 62
   132
 10
263.732104843195
 20
83.7796792786813
 30
0.0
 40
0.300000004479044
 50
539.999125579994
 51
719.999562741641
  0
LINE
  5
   591
  8
0
  6
CONTINUOUS
 62
   132
 10
263.432120097582
 20
84.7796861601133
 30
0.0
 11
263.432104838724
 21
83.7796815676542
 31
0.0
  0
LINE
  5
   592
  8
0
  6
CONTINUOUS
 62
   132
 10
261.084120062454
 20
84.7796949174361
 30
0.0
 11
261.084104803702
 21
83.7796971924982
 31
0.0
  0
LINE
  5
   593
  8
0
  6
CONTINUOUS
 62
   132
 10
260.484120053583
 20
84.7797040727086
 30
0.0
 11
260.484104794831
 21
83.7797063477707
 31
0.0
  0
LINE
  5
   594
  8
0
  6
CONTINUOUS
 62
   132
 10
264.032120106383
 20
84.7796724271701
 30
0.0
 11
264.03210484763
 21
83.779674701045
 31
0.0
  0
ARC
  5
   595
  8
0
  6
CONTINUOUS
 62
   132
 10
263.732120101947
 20
84.7796770048063
 30
0.0
 40
0.300000004505316
 50
359.99999985066
 51
539.999125579994
  0
LINE
  5
   596
  8
0
  6
CONTINUOUS
 62
   132
 10
260.784124640095
 20
85.0797265698178
 30
0.0
 11
263.732124683997
 21
85.0796815869123
 31
0.0
  0
ARC
  5
   597
  8
0
  6
CONTINUOUS
 62
   132
 10
260.784120058019
 20
84.7796994950724
 30
0.0
 40
0.30000000569165
 50
359.999125579994
 51
539.993955531713
  0
ARC
  5
   598
  8
0
  6
CONTINUOUS
 62
   132
 10
262.258087317675
 20
82.6325773755183
 30
0.0
 40
2.44712670313166
 50
421.330290838306
 51
478.667960321682
  0
ARC
  5
   599
  8
0
  6
CONTINUOUS
 62
   132
 10
260.784104799266
 20
83.7797017701344
 30
0.0
 40
0.300000004479308
 50
539.999562682537
 51
719.999125579994
  0
ARC
  5
   59A
  8
0
  6
CONTINUOUS
 62
     7
 10
338.033141012663
 20
102.279740942977
 30
0.0
 40
2.32000003457069
 50
544.945429561987
 51
580.282118200089
  0
LINE
  5
   59B
  8
0
  6
CONTINUOUS
 62
     7
 10
335.72177774411
 20
102.079740939997
 30
0.0
 11
336.113140984053
 21
102.079740939997
 31
0.0
  0
LINE
  5
   59C
  8
0
  6
CONTINUOUS
 62
     7
 10
335.72177774411
 20
102.479740945957
 30
0.0
 11
336.113140984053
 21
102.479740945957
 31
0.0
  0
ARC
  5
   59D
  8
0
  6
CONTINUOUS
 62
     7
 10
338.033141012663
 20
102.279740942977
 30
0.0
 40
2.32000003457069
 50
499.717881488117
 51
535.05457012622
  0
LINE
  5
   59E
  8
0
  6
CONTINUOUS
 62
     7
 10
336.263282234864
 20
103.779740965329
 30
0.0
 11
336.833140994782
 21
103.779740965329
 31
0.0
  0
LINE
  5
   59F
  8
0
  6
CONTINUOUS
 62
     7
 10
336.263282234864
 20
100.779740920625
 30
0.0
 11
336.833140994782
 21
100.779740920625
 31
0.0
  0
LINE
  5
   5A0
  8
0
  6
CONTINUOUS
 62
     7
 10
336.113140984053
 20
102.479740945957
 30
0.0
 11
336.113140984053
 21
102.079740939997
 31
0.0
  0
LINE
  5
   5A1
  8
0
  6
DASHDOT
 62
     7
 10
335.443166993959
 20
102.279740942977
 30
0.0
 11
342.169501444164
 21
102.279740942977
 31
0.0
  0
LINE
  5
   5A2
  8
0
  6
CONTINUOUS
 62
     7
 10
334.854069230401
 20
135.813059783247
 30
0.0
 11
340.034959266941
 21
135.813059783247
 31
0.0
  0
LINE
  5
   5A3
  8
0
  6
CONTINUOUS
 62
     7
 10
334.854069230401
 20
62.9452672119991
 30
0.0
 11
338.714340238019
 21
62.9452672119991
 31
0.0
  0
LINE
  5
   5A4
  8
0
  6
CONTINUOUS
 62
     7
 10
337.633141006703
 20
67.4798884957259
 30
0.0
 11
337.633141006703
 21
62.9452672119991
 31
0.0
  0
LINE
  5
   5A5
  8
0
  6
CONTINUOUS
 62
     7
 10
345.233141119952
 20
94.2797408237676
 30
0.0
 11
345.233141119952
 21
91.8797407880048
 31
0.0
  0
LINE
  5
   5A6
  8
0
  6
CONTINUOUS
 62
     7
 10
337.633141006703
 20
95.0797408356885
 30
0.0
 11
344.433141108031
 21
95.0797408356885
 31
0.0
  0
LINE
  5
   5A7
  8
0
  6
CONTINUOUS
 62
     7
 10
337.633141006703
 20
91.0797407760839
 30
0.0
 11
344.433141108031
 21
91.0797407760839
 31
0.0
  0
LINE
  5
   5A8
  8
0
  6
CONTINUOUS
 62
     7
 10
344.433141108031
 20
95.0797408356885
 30
0.0
 11
345.233141119952
 21
94.2797408237676
 31
0.0
  0
LINE
  5
   5A9
  8
0
  6
CONTINUOUS
 62
     7
 10
345.233141119952
 20
91.8797407880048
 30
0.0
 11
344.433141108031
 21
91.0797407760838
 31
0.0
  0
CIRCLE
  5
   5AA
  8
0
  6
CONTINUOUS
 62
     7
 10
342.833141084189
 20
93.0797408058862
 30
0.0
 40
1.10000001639128
  0
LINE
  5
   5AB
  8
0
  6
DASHDOT
 62
     7
 10
342.833141084189
 20
94.5797408282379
 30
0.0
 11
342.833141084189
 21
91.5797407835345
 31
0.0
  0
LINE
  5
   5AC
  8
0
  6
CONTINUOUS
 62
     7
 10
337.633141006703
 20
97.0797408654908
 30
0.0
 11
347.233141149754
 21
97.0797408654908
 31
0.0
  0
LINE
  5
   5AD
  8
0
  6
CONTINUOUS
 62
     7
 10
337.633141006703
 20
89.0797407462816
 30
0.0
 11
347.233141149754
 21
89.0797407462816
 31
0.0
  0
LINE
  5
   5AE
  8
0
  6
CONTINUOUS
 62
     7
 10
347.233141149754
 20
97.0797408654908
 30
0.0
 11
347.233141149754
 21
89.0797407462816
 31
0.0
  0
LINE
  5
   5AF
  8
0
  6
CONTINUOUS
 62
   253
 10
343.43314109313
 20
108.979901321155
 30
0.0
 11
343.43314109313
 21
97.0797408654908
 31
0.0
  0
LINE
  5
   5B0
  8
0
  6
CONTINUOUS
 62
   253
 10
343.83314109909
 20
103.679699826161
 30
0.0
 11
343.83314109909
 21
97.0797408654908
 31
0.0
  0
LINE
  5
   5B1
  8
0
  6
CONTINUOUS
 62
     2
 10
344.03314110207
 20
99.4797409012536
 30
0.0
 11
344.03314110207
 21
97.0797408654908
 31
0.0
  0
LINE
  5
   5B2
  8
0
  6
CONTINUOUS
 62
     7
 10
336.263282234864
 20
85.3797406911472
 30
0.0
 11
336.833140994782
 21
85.3797406911472
 31
0.0
  0
ARC
  5
   5B3
  8
0
  6
CONTINUOUS
 62
     7
 10
338.033141012663
 20
83.8797406687955
 30
0.0
 40
2.32000003457069
 50
499.717881488117
 51
535.05457012622
  0
LINE
  5
   5B4
  8
0
  6
CONTINUOUS
 62
     7
 10
335.72177774411
 20
84.0797406717757
 30
0.0
 11
336.113140984053
 21
84.0797406717757
 31
0.0
  0
LINE
  5
   5B5
  8
0
  6
CONTINUOUS
 62
     7
 10
336.113140984053
 20
84.0797406717757
 30
0.0
 11
336.113140984053
 21
83.6797406658153
 31
0.0
  0
LINE
  5
   5B6
  8
0
  6
CONTINUOUS
 62
     7
 10
335.72177774411
 20
83.6797406658153
 30
0.0
 11
336.113140984053
 21
83.6797406658153
 31
0.0
  0
ARC
  5
   5B7
  8
0
  6
CONTINUOUS
 62
     7
 10
338.033141012663
 20
83.8797406687955
 30
0.0
 40
2.32000003457069
 50
544.945429561987
 51
580.282118200089
  0
LINE
  5
   5B8
  8
0
  6
CONTINUOUS
 62
     7
 10
336.263282234864
 20
82.3797406464438
 30
0.0
 11
336.833140994782
 21
82.3797406464438
 31
0.0
  0
LINE
  5
   5B9
  8
0
  6
DASHDOT
 62
     7
 10
335.443166993959
 20
83.8797406687955
 30
0.0
 11
342.169501444164
 21
83.8797406687955
 31
0.0
  0
LINE
  5
   5BA
  8
0
  6
DOT
 62
     2
 10
248.061224865139
 20
95.0797408356885
 30
0.0
 11
248.061224865139
 21
91.0797407760839
 31
0.0
  0
LINE
  5
   5BB
  8
0
  6
DOT
 62
     2
 10
248.061224865139
 20
95.0797408356885
 30
0.0
 11
264.861716713097
 21
95.0797408356885
 31
0.0
  0
LINE
  5
   5BC
  8
0
  6
DOT
 62
     2
 10
248.061224865139
 20
91.0797407760839
 30
0.0
 11
264.861716713097
 21
91.0797407760839
 31
0.0
  0
LINE
  5
   5BD
  8
0
  6
CONTINUOUS
 62
     7
 10
195.205271463963
 20
141.306617720473
 30
0.0
 11
202.857739498467
 21
141.306617720473
 31
0.0
  0
LINE
  5
   5BE
  8
0
  6
CONTINUOUS
 62
     7
 10
261.258203990648
 20
105.07727186508
 30
0.0
 11
263.258204020422
 21
105.077256606292
 31
0.0
  0
LINE
  5
   5BF
  8
0
  6
CONTINUOUS
 62
     7
 10
259.861211223365
 20
82.0797406419734
 30
0.0
 11
285.260278924924
 21
82.0797406419734
 31
0.0
  0
LINE
  5
   5C0
  8
0
  6
CONTINUOUS
 62
     7
 10
259.861211223365
 20
81.0797406270723
 30
0.0
 11
285.260278924924
 21
81.0797406270723
 31
0.0
  0
LINE
  5
   5C1
  8
0
  6
CONTINUOUS
 62
     7
 10
259.261211214425
 20
80.4797406181316
 30
0.0
 11
259.261211214425
 21
63.0797403588513
 31
0.0
  0
LINE
  5
   5C2
  8
0
  6
CONTINUOUS
 62
     7
 10
258.261211199523
 20
63.0797403588513
 30
0.0
 11
259.261211214425
 21
63.0797403588513
 31
0.0
  0
ARC
  5
   5C3
  8
0
  6
CONTINUOUS
 62
     7
 10
259.861211223365
 20
80.4797406181316
 30
0.0
 40
0.600000008940697
 50
449.999999844103
 51
539.999999844103
  0
ARC
  5
   5C4
  8
0
  6
CONTINUOUS
 62
     7
 10
259.861211223365
 20
80.4797406181316
 30
0.0
 40
1.60000002384186
 50
449.999999844103
 51
539.999999844103
  0
LINE
  5
   5C5
  8
0
  6
CONTINUOUS
 62
     7
 10
307.616778126176
 20
99.0797408952932
 30
0.0
 11
308.616778141077
 21
99.0797408952932
 31
0.0
  0
LINE
  5
   5C6
  8
0
  6
CONTINUOUS
 62
     7
 10
308.616778141077
 20
99.0797408952932
 30
0.0
 11
308.616778141077
 21
82.6797406509141
 31
0.0
  0
LINE
  5
   5C7
  8
0
  6
CONTINUOUS
 62
     7
 10
307.616778126176
 20
99.0797408952932
 30
0.0
 11
307.616778126176
 21
82.6797406509141
 31
0.0
  0
ARC
  5
   5C8
  8
0
  6
CONTINUOUS
 62
     7
 10
307.016778117235
 20
82.6797406509141
 30
0.0
 40
1.60000002384186
 50
269.999999844103
 51
359.999999844103
  0
ARC
  5
   5C9
  8
0
  6
CONTINUOUS
 62
     7
 10
307.016778117235
 20
82.6797406509141
 30
0.0
 40
0.600000008940697
 50
269.999999844103
 51
359.999999844103
  0
LINE
  5
   5CA
  8
0
  6
DASHDOT
 62
     7
 10
285.260278924924
 20
100.743205041365
 30
0.0
 11
285.260278924924
 21
75.4009305882108
 31
0.0
  0
LINE
  5
   5CB
  8
0
  6
DASHDOT
 62
     7
 10
286.96237198521
 20
100.695924678579
 30
0.0
 11
286.96237198521
 21
75.4009305882108
 31
0.0
  0
LINE
  5
   5CC
  8
0
  6
DASHDOT
 62
     7
 10
321.382476093225
 20
102.208896287722
 30
0.0
 11
321.382476093225
 21
84.6206013314291
 31
0.0
  0
LINE
  5
   5CD
  8
0
  6
DASHDOT
 62
     7
 10
322.942728065155
 20
101.925214111008
 30
0.0
 11
322.942728065155
 21
84.4787602430719
 31
0.0
  0
LINE
  5
   5CE
  8
0
  6
CONTINUOUS
 62
     7
 10
322.942728065155
 20
95.0768011003209
 30
0.0
 11
335.633140982485
 21
95.0767042801656
 31
0.0
  0
LINE
  5
   5CF
  8
0
  6
CONTINUOUS
 62
     7
 10
322.942728065155
 20
91.0768010405999
 30
0.0
 11
335.633140982066
 21
91.0767042204445
 31
0.0
  0
LINE
  5
   5D0
  8
0
  6
CONTINUOUS
 62
     7
 10
286.96237198521
 20
95.0770756086201
 30
0.0
 11
307.616778126176
 21
95.0769180280256
 31
0.0
  0
LINE
  5
   5D1
  8
0
  6
CONTINUOUS
 62
     7
 10
286.962371985211
 20
91.077075548899
 30
0.0
 11
307.616778126176
 21
91.0769179683046
 31
0.0
  0
LINE
  5
   5D2
  8
0
  6
CONTINUOUS
 62
     7
 10
286.96237198521
 20
82.0797406419734
 30
0.0
 11
307.016778117235
 21
82.0797406419734
 31
0.0
  0
LINE
  5
   5D3
  8
0
  6
CONTINUOUS
 62
     7
 10
286.96237198521
 20
81.0797406270723
 30
0.0
 11
307.016778117235
 21
81.0797406270723
 31
0.0
  0
LINE
  5
   5D4
  8
0
  6
CONTINUOUS
 62
     7
 10
308.616778141077
 20
95.0769103986319
 30
0.0
 11
321.382476093225
 21
95.0768130040974
 31
0.0
  0
LINE
  5
   5D5
  8
0
  6
CONTINUOUS
 62
     7
 10
308.616778141077
 20
91.0769103389108
 30
0.0
 11
321.382476093225
 21
91.0768129443763
 31
0.0
  0
LINE
  5
   5D6
  8
0
  6
DASHDOT
 62
     7
 10
254.669884202554
 20
76.0797405525665
 30
0.0
 11
261.951060071557
 21
76.0797405525665
 31
0.0
  0
LINE
  5
   5D7
  8
0
  6
CONTINUOUS
 62
     7
 10
195.205271463963
 20
31.6531871809449
 30
0.0
 11
202.857739498467
 21
31.6531871809449
 31
0.0
  0
LINE
  5
   5D8
  8
0
  6
CONTINUOUS
 62
   130
 10
264.861787475087
 20
100.679689900912
 30
0.0
 11
264.861787475087
 21
85.4796925135632
 31
0.0
  0
INSERT
  5
   5D9
  8
0
  6
CONTINUOUS
 62
     7
  2
*UDIM240
 10
0.0
 20
0.0
 30
0.0
  0
INSERT
  5
   5DA
  8
0
  6
CONTINUOUS
 62
     7
  2
*UDIM241
 10
0.0
 20
0.0
 30
0.0
  0
INSERT
  5
   5DB
  8
0
  6
CONTINUOUS
 62
     7
  2
*UDIM242
 10
0.0
 20
0.0
 30
0.0
  0
INSERT
  5
   5DC
  8
0
  6
CONTINUOUS
 62
     7
  2
*UDIM243
 10
0.0
 20
0.0
 30
0.0
  0
INSERT
  5
   5DD
  8
0
  6
CONTINUOUS
 62
     7
  2
*UDIM244
 10
0.0
 20
0.0
 30
0.0
  0
INSERT
  5
   5DE
  8
0
  6
CONTINUOUS
 62
     7
  2
*UDIM245
 10
0.0
 20
0.0
 30
0.0
  0
INSERT
  5
   5DF
  8
0
  6
CONTINUOUS
 62
     7
  2
*UDIM246
 10
0.0
 20
0.0
 30
0.0
  0
INSERT
  5
   5E0
  8
0
  6
CONTINUOUS
 62
     7
  2
*UDIM247
 10
0.0
 20
0.0
 30
0.0
  0
TEXT
  5
   5E1
  8
0
  6
CONTINUOUS
 62
     7
 10
370.786581065163
 20
86.9503117123104
 30
0.0
 40
2.99999994933605
  1
X
 50
359.999999844103
 41
0.916666607525612
 72
     1
 11
371.88658097834
 21
88.4503116839909
 31
0.0
 73
     2
  0
ENDSEC
  0
EOF
