  0
SECTION
  2
HEADER
  9
$ACADVER
  1
AC1024
  9
$ACADMAINTVER
 70
    63
  9
$DWGCODEPAGE
  3
ANSI_1252
  9
$LASTSAVEDBY
  1
SEVIAND4
  9
$INSBASE
 10
0.0
 20
0.0
 30
0.0
  9
$EXTMIN
 10
2.676432
 20
30.56704220256231
 30
-0.0000000000000119
  9
$EXTMAX
 10
1198.339537
 20
812.410573
 30
0.0000000000009606
  9
$LIMMIN
 10
-0.5
 20
-0.5
  9
$LIMMAX
 10
5.0
 20
5.0
  9
$ORTHOMODE
 70
     0
  9
$REGENMODE
 70
     1
  9
$FILLMODE
 70
     1
  9
$QTEXTMODE
 70
     0
  9
$MIRRTEXT
 70
     1
  9
$LTSCALE
 40
1.0
  9
$ATTMODE
 70
     1
  9
$TEXTSIZE
 40
0.2
  9
$TRACEWID
 40
0.05
  9
$TEXTSTYLE
  7
Standard
  9
$CLAYER
  8
0
  9
$CELTYPE
  6
BYLAYER
  9
$CECOLOR
 62
   256
  9
$CELTSCALE
 40
1.0
  9
$DISPSILH
 70
     0
  9
$DIMSCALE
 40
1.0
  9
$DIMASZ
 40
0.18
  9
$DIMEXO
 40
0.0625
  9
$DIMDLI
 40
0.38
  9
$DIMRND
 40
0.0
  9
$DIMDLE
 40
0.0
  9
$DIMEXE
 40
0.18
  9
$DIMTP
 40
0.0
  9
$DIMTM
 40
0.0
  9
$DIMTXT
 40
0.18
  9
$DIMCEN
 40
0.09
  9
$DIMTSZ
 40
0.0
  9
$DIMTOL
 70
     0
  9
$DIMLIM
 70
     0
  9
$DIMTIH
 70
     1
  9
$DIMTOH
 70
     1
  9
$DIMSE1
 70
     0
  9
$DIMSE2
 70
     0
  9
$DIMTAD
 70
     0
  9
$DIMZIN
 70
     0
  9
$DIMBLK
  1

  9
$DIMASO
 70
     1
  9
$DIMSHO
 70
     1
  9
$DIMPOST
  1

  9
$DIMAPOST
  1

  9
$DIMALT
 70
     0
  9
$DIMALTD
 70
     2
  9
$DIMALTF
 40
25.4
  9
$DIMLFAC
 40
1.0
  9
$DIMTOFL
 70
     0
  9
$DIMTVP
 40
0.0
  9
$DIMTIX
 70
     0
  9
$DIMSOXD
 70
     0
  9
$DIMSAH
 70
     0
  9
$DIMBLK1
  1

  9
$DIMBLK2
  1

  9
$DIMSTYLE
  2
Standard
  9
$DIMCLRD
 70
     0
  9
$DIMCLRE
 70
     0
  9
$DIMCLRT
 70
     0
  9
$DIMTFAC
 40
1.0
  9
$DIMGAP
 40
0.09
  9
$DIMJUST
 70
     0
  9
$DIMSD1
 70
     0
  9
$DIMSD2
 70
     0
  9
$DIMTOLJ
 70
     1
  9
$DIMTZIN
 70
     0
  9
$DIMALTZ
 70
     0
  9
$DIMALTTZ
 70
     0
  9
$DIMUPT
 70
     0
  9
$DIMDEC
 70
     4
  9
$DIMTDEC
 70
     4
  9
$DIMALTU
 70
     2
  9
$DIMALTTD
 70
     2
  9
$DIMTXSTY
  7
Standard
  9
$DIMAUNIT
 70
     0
  9
$DIMADEC
 70
     0
  9
$DIMALTRND
 40
0.0
  9
$DIMAZIN
 70
     0
  9
$DIMDSEP
 70
    46
  9
$DIMATFIT
 70
     3
  9
$DIMFRAC
 70
     0
  9
$DIMLDRBLK
  1

  9
$DIMLUNIT
 70
     2
  9
$DIMLWD
 70
    -2
  9
$DIMLWE
 70
    -2
  9
$DIMTMOVE
 70
     0
  9
$DIMFXL
 40
1.0
  9
$DIMFXLON
 70
     0
  9
$DIMJOGANG
 40
0.7853981633974483
  9
$DIMTFILL
 70
     0
  9
$DIMTFILLCLR
 70
     0
  9
$DIMARCSYM
 70
     0
  9
$DIMLTYPE
  6

  9
$DIMLTEX1
  6

  9
$DIMLTEX2
  6

  9
$DIMTXTDIRECTION
 70
     0
  9
$LUNITS
 70
     2
  9
$LUPREC
 70
     2
  9
$SKETCHINC
 40
0.1
  9
$FILLETRAD
 40
0.5
  9
$AUNITS
 70
     0
  9
$AUPREC
 70
     0
  9
$MENU
  1
.
  9
$ELEVATION
 40
0.0
  9
$PELEVATION
 40
0.0
  9
$THICKNESS
 40
0.0
  9
$LIMCHECK
 70
     0
  9
$CHAMFERA
 40
0.5
  9
$CHAMFERB
 40
0.5
  9
$CHAMFERC
 40
1.0
  9
$CHAMFERD
 40
0.0
  9
$SKPOLY
 70
     0
  9
$TDCREATE
 40
2456836.581165197
  9
$TDUCREATE
 40
2456836.497831864
  9
$TDUPDATE
 40
2456836.582752743
  9
$TDUUPDATE
 40
2456836.499419410
  9
$TDINDWG
 40
0.0014574537
  9
$TDUSRTIMER
 40
0.0014572801
  9
$USRTIMER
 70
     1
  9
$ANGBASE
 50
0.0
  9
$ANGDIR
 70
     0
  9
$PDMODE
 70
     0
  9
$PDSIZE
 40
0.0
  9
$PLINEWID
 40
0.0
  9
$SPLFRAME
 70
     0
  9
$SPLINETYPE
 70
     6
  9
$SPLINESEGS
 70
     8
  9
$HANDSEED
  5
42B
  9
$SURFTAB1
 70
     6
  9
$SURFTAB2
 70
     6
  9
$SURFTYPE
 70
     6
  9
$SURFU
 70
     6
  9
$SURFV
 70
     6
  9
$UCSBASE
  2

  9
$UCSNAME
  2

  9
$UCSORG
 10
0.0
 20
0.0
 30
0.0
  9
$UCSXDIR
 10
1.0
 20
0.0
 30
0.0
  9
$UCSYDIR
 10
0.0
 20
1.0
 30
0.0
  9
$UCSORTHOREF
  2

  9
$UCSORTHOVIEW
 70
     0
  9
$UCSORGTOP
 10
0.0
 20
0.0
 30
0.0
  9
$UCSORGBOTTOM
 10
0.0
 20
0.0
 30
0.0
  9
$UCSORGLEFT
 10
0.0
 20
0.0
 30
0.0
  9
$UCSORGRIGHT
 10
0.0
 20
0.0
 30
0.0
  9
$UCSORGFRONT
 10
0.0
 20
0.0
 30
0.0
  9
$UCSORGBACK
 10
0.0
 20
0.0
 30
0.0
  9
$PUCSBASE
  2

  9
$PUCSNAME
  2

  9
$PUCSORG
 10
0.0
 20
0.0
 30
0.0
  9
$PUCSXDIR
 10
1.0
 20
0.0
 30
0.0
  9
$PUCSYDIR
 10
0.0
 20
1.0
 30
0.0
  9
$PUCSORTHOREF
  2

  9
$PUCSORTHOVIEW
 70
     0
  9
$PUCSORGTOP
 10
0.0
 20
0.0
 30
0.0
  9
$PUCSORGBOTTOM
 10
0.0
 20
0.0
 30
0.0
  9
$PUCSORGLEFT
 10
0.0
 20
0.0
 30
0.0
  9
$PUCSORGRIGHT
 10
0.0
 20
0.0
 30
0.0
  9
$PUCSORGFRONT
 10
0.0
 20
0.0
 30
0.0
  9
$PUCSORGBACK
 10
0.0
 20
0.0
 30
0.0
  9
$USERI1
 70
     0
  9
$USERI2
 70
     0
  9
$USERI3
 70
     0
  9
$USERI4
 70
     0
  9
$USERI5
 70
     0
  9
$USERR1
 40
0.0
  9
$USERR2
 40
0.0
  9
$USERR3
 40
0.0
  9
$USERR4
 40
0.0
  9
$USERR5
 40
0.0
  9
$WORLDVIEW
 70
     1
  9
$SHADEDGE
 70
     3
  9
$SHADEDIF
 70
    70
  9
$TILEMODE
 70
     1
  9
$MAXACTVP
 70
    64
  9
$PINSBASE
 10
0.0
 20
0.0
 30
0.0
  9
$PLIMCHECK
 70
     0
  9
$PEXTMIN
 10
-0.5
 20
-0.5
 30
-0.5
  9
$PEXTMAX
 10
5.0
 20
5.0
 30
5.0
  9
$PLIMMIN
 10
-0.5
 20
-0.5
  9
$PLIMMAX
 10
5.0
 20
5.0
  9
$UNITMODE
 70
     0
  9
$VISRETAIN
 70
     1
  9
$PLINEGEN
 70
     0
  9
$PSLTSCALE
 70
     1
  9
$TREEDEPTH
 70
  3020
  9
$CMLSTYLE
  2
Standard
  9
$CMLJUST
 70
     0
  9
$CMLSCALE
 40
1.0
  9
$PROXYGRAPHICS
 70
     1
  9
$MEASUREMENT
 70
     1
  9
$CELWEIGHT
370
    -1
  9
$ENDCAPS
280
     0
  9
$JOINSTYLE
280
     0
  9
$LWDISPLAY
290
     1
  9
$INSUNITS
 70
     4
  9
$HYPERLINKBASE
  1

  9
$STYLESHEET
  1

  9
$XEDIT
290
     1
  9
$CEPSNTYPE
380
     0
  9
$PSTYLEMODE
290
     1
  9
$FINGERPRINTGUID
  2
{57EF30BD-4D88-4D38-8183-A5B42DD49B6E}
  9
$VERSIONGUID
  2
{C0D76A91-D539-4AB0-A731-DE25A0BE7AC0}
  9
$EXTNAMES
290
     1
  9
$PSVPSCALE
 40
0.0
  9
$OLESTARTUP
290
     0
  9
$SORTENTS
280
   127
  9
$INDEXCTL
280
     0
  9
$HIDETEXT
280
     1
  9
$XCLIPFRAME
280
     0
  9
$HALOGAP
280
     0
  9
$OBSCOLOR
 70
   257
  9
$OBSLTYPE
280
     0
  9
$INTERSECTIONDISPLAY
280
     0
  9
$INTERSECTIONCOLOR
 70
   257
  9
$DIMASSOC
280
     2
  9
$PROJECTNAME
  1

  9
$CAMERADISPLAY
290
     0
  9
$LENSLENGTH
 40
50.0
  9
$CAMERAHEIGHT
 40
0.0
  9
$STEPSPERSEC
 40
2.0
  9
$STEPSIZE
 40
6.0
  9
$3DDWFPREC
 40
2.0
  9
$PSOLWIDTH
 40
0.25
  9
$PSOLHEIGHT
 40
4.0
  9
$LOFTANG1
 40
1.570796326794896
  9
$LOFTANG2
 40
1.570796326794896
  9
$LOFTMAG1
 40
0.0
  9
$LOFTMAG2
 40
0.0
  9
$LOFTPARAM
 70
     7
  9
$LOFTNORMALS
280
     1
  9
$LATITUDE
 40
37.795
  9
$LONGITUDE
 40
-122.394
  9
$NORTHDIRECTION
 40
0.0
  9
$TIMEZONE
 70
 -8000
  9
$LIGHTGLYPHDISPLAY
280
     1
  9
$TILEMODELIGHTSYNCH
280
     1
  9
$CMATERIAL
347
3C
  9
$SOLIDHIST
280
     0
  9
$SHOWHIST
280
     1
  9
$DWFFRAME
280
     2
  9
$DGNFRAME
280
     0
  9
$REALWORLDSCALE
290
     1
  9
$INTERFERECOLOR
 62
     1
  9
$INTERFEREOBJVS
345
33
  9
$INTERFEREVPVS
346
21F
  9
$CSHADOW
280
     0
  9
$SHADOWPLANELOCATION
 40
0.0
  0
ENDSEC
  0
SECTION
  2
CLASSES
  0
CLASS
  1
ACDBDICTIONARYWDFLT
  2
AcDbDictionaryWithDefault
  3
ObjectDBX Classes
 90
        0
 91
        1
280
     0
281
     0
  0
CLASS
  1
VISUALSTYLE
  2
AcDbVisualStyle
  3
ObjectDBX Classes
 90
     4095
 91
       26
280
     0
281
     0
  0
CLASS
  1
MATERIAL
  2
AcDbMaterial
  3
ObjectDBX Classes
 90
     1153
 91
        3
280
     0
281
     0
  0
CLASS
  1
TABLESTYLE
  2
AcDbTableStyle
  3
ObjectDBX Classes
 90
     4095
 91
        1
280
     0
281
     0
  0
CLASS
  1
SCALE
  2
AcDbScale
  3
ObjectDBX Classes
 90
     1153
 91
       17
280
     0
281
     0
  0
CLASS
  1
MLEADERSTYLE
  2
AcDbMLeaderStyle
  3
ACDB_MLEADERSTYLE_CLASS
 90
     4095
 91
        1
280
     0
281
     0
  0
CLASS
  1
AMGSETTINGSOBJ
  2
AmgSettingsObj
  3
"AcadM|Product Description: AutoCAD Mechanical|Company: Autodesk, Inc."
 90
     1024
 91
        2
280
     0
281
     0
  0
CLASS
  1
ACME_DOCUMENT
  2
AcMeDbDoc
  3
AcMeServices
 90
     1024
 91
        1
280
     0
281
     0
  0
CLASS
  1
ACMESCOPE
  2
AcMeScope
  3
AcMeServices
 90
     1024
 91
        1
280
     0
281
     0
  0
CLASS
  1
ACMECOMMANDHISTORY
  2
AcMeCommandHistory
  3
AcMeServices
 90
     1024
 91
        1
280
     0
281
     0
  0
CLASS
  1
ACIMSYSVARMAN
  2
AcImSysVarManager
  3
AcMeServices
 90
     1024
 91
        3
280
     0
281
     0
  0
CLASS
  1
ACIMINTSYSVAR
  2
AcImIntSysVar
  3
AcMeServices
 90
     1024
 91
        2
280
     0
281
     0
  0
CLASS
  1
ACMESTATEMGR
  2
AcMeStateMgr
  3
AcMeServices
 90
     1024
 91
        1
280
     0
281
     0
  0
CLASS
  1
ACDBENTITYCACHE
  2
AcMeEntityCache
  3
AcMeServices
 90
     1024
 91
        1
280
     0
281
     0
  0
CLASS
  1
ACGREFMASTER
  2
AcGrefMaster
  3
AcAttribServices
 90
     1024
 91
        1
280
     0
281
     0
  0
CLASS
  1
ACME_DATABASE
  2
AcMeDbDatabase
  3
AcMeServices
 90
     1024
 91
        4
280
     0
281
     0
  0
CLASS
  1
ACRFINSADJUSTERMGR
  2
AcRfInsAdjusterMgr
  3
AcMeServices
 90
     1024
 91
        1
280
     0
281
     0
  0
CLASS
  1
ACGREFACADMASTER
  2
AcGrefacadMaster
  3
AcGrefServices
 90
     1024
 91
        1
280
     0
281
     0
  0
CLASS
  1
AMDTMENUSTATEMGR
  2
AmdtMenuStateMgr
  3
McadcomServices
 90
     1024
 91
        1
280
     0
281
     0
  0
CLASS
  1
AMDTMCOMMENUSTATE
  2
AmdtMcomMenuState
  3
McadcomServices
 90
     1024
 91
        1
280
     0
281
     0
  0
CLASS
  1
AMIMASTER
  2
AmiMaster
  3
AmiServices
 90
     1024
 91
        1
280
     0
281
     0
  0
CLASS
  1
MAPIAMMOUDLE
  2
MApiAmModule
  3
MApiAmServices
 90
     1024
 91
        1
280
     0
281
     0
  0
CLASS
  1
ACIMSTRSYSVAR
  2
AcImStrSysVar
  3
AcMeServices
 90
     1024
 91
        5
280
     0
281
     0
  0
CLASS
  1
AMDTAMMENUSTATE
  2
AmdtAmMenuState
  3
DesignerAssemblies
 90
     1024
 91
        1
280
     0
281
     0
  0
CLASS
  1
ACAMPROJECT
  2
AcAmProject
  3
DesignerAssemblies
 90
     1024
 91
        1
280
     0
281
     0
  0
CLASS
  1
ACAMGRCOMPDEF
  2
AcAmGrCompDef
  3
DesignerAssemblies
 90
     1024
 91
        1
280
     0
281
     0
  0
CLASS
  1
ACAMCOMPDEF
  2
AcAmCompDef
  3
DesignerAssemblies
 90
     1024
 91
        1
280
     0
281
     0
  0
CLASS
  1
ACAMCOMPDEFMGR
  2
AcAmCompDefMgr
  3
DesignerAssemblies
 90
     1024
 91
        1
280
     0
281
     0
  0
CLASS
  1
AMCONTEXTMGR
  2
AcAmContextMgr
  3
DesignerAssemblies
 90
     1024
 91
        1
280
     0
281
     0
  0
CLASS
  1
ACAMCONTEXTMODELER
  2
AcAmContextModeler
  3
DesignerAssemblies
 90
     1024
 91
        1
280
     0
281
     0
  0
CLASS
  1
ACMDATADICTIONARY
  2
AcmDataDictionary
  3
"AcmSymBB|Product Description: AutoCAD Mechanical|Company: Autodesk, Inc."
 90
     1024
 91
        1
280
     0
281
     0
  0
CLASS
  1
ACAMGRCOMPDEFSET
  2
AcAmGrCompDefSet
  3
DesignerAssemblies
 90
     1024
 91
        1
280
     0
281
     0
  0
CLASS
  1
AMDTBROWSERDBTAB
  2
AmdtBrowserDbTab
  3
McadcomServices
 90
     1024
 91
        1
280
     0
281
     0
  0
CLASS
  1
CBROWSERAPPOBJECT
  2
CBrowserAppObject
  3
McadcomServices
 90
     1024
 91
        2
280
     0
281
     0
  0
CLASS
  1
DM_PLACEHOLDER
  2
AcDmSelsetPlaceholder
  3
McadcomServices
 90
     1024
 91
        1
280
     0
281
     0
  0
CLASS
  1
ACMSTANDARDISO
  2
AcmStandardISO
  3
"Amdt_StdImp|Product Description: AutoCAD Mechanical|Company: Autodesk, Inc."
 90
     1024
 91
        1
280
     0
281
     0
  0
CLASS
  1
AMDTEDGESTANDARDISO13715
  2
AmdtEdgeStdISO13715
  3
"Amdt_StdImp|Product Description: AutoCAD Mechanical|Company: Autodesk, Inc."
 90
     1024
 91
        1
280
     0
281
     0
  0
CLASS
  1
ACMSURFSTANDARDISO2002
  2
AcmSurfTextStdISO2002
  3
"Amdt_StdImp|Product Description: AutoCAD Mechanical|Company: Autodesk, Inc."
 90
     1024
 91
        1
280
     0
281
     0
  0
CLASS
  1
ACMFCFSTANDARDISO2004
  2
AcmFCFStdISO2004
  3
"Amdt_StdImp|Product Description: AutoCAD Mechanical|Company: Autodesk, Inc."
 90
     1024
 91
        1
280
     0
281
     0
  0
CLASS
  1
ACMWELDSTANDARDISO
  2
AcmWeldingStdISO
  3
"Amdt_StdImp|Product Description: AutoCAD Mechanical|Company: Autodesk, Inc."
 90
     1024
 91
        1
280
     0
281
     0
  0
CLASS
  1
ACMIDSTANDARDISO2004
  2
AcmIdStdISO2004
  3
"Amdt_StdImp|Product Description: AutoCAD Mechanical|Company: Autodesk, Inc."
 90
     1024
 91
        1
280
     0
281
     0
  0
CLASS
  1
ACMDATUMSTANDARDISO
  2
AcmDatumStdISO
  3
"Amdt_StdImp|Product Description: AutoCAD Mechanical|Company: Autodesk, Inc."
 90
     1024
 91
        1
280
     0
281
     0
  0
CLASS
  1
ACMBOMSTANDARDISO
  2
AcmBOMStdISO
  3
"Amdt_StdImp|Product Description: AutoCAD Mechanical|Company: Autodesk, Inc."
 90
     1024
 91
        1
280
     0
281
     0
  0
CLASS
  1
ACMDETAILSTANDARDISO
  2
AmdtDetailSymStdISO
  3
"Amdt_StdImp|Product Description: AutoCAD Mechanical|Company: Autodesk, Inc."
 90
     1024
 91
        1
280
     0
281
     0
  0
CLASS
  1
ACMSECTIONSTANDARDISO2001
  2
AmdtSectionSymStdISO2001
  3
"Amdt_StdImp|Product Description: AutoCAD Mechanical|Company: Autodesk, Inc."
 90
     1024
 91
        1
280
     0
281
     0
  0
CLASS
  1
ACMCENTERLINESTANDARDISO
  2
AmdtCenterLineStdISO
  3
"Amdt_StdImp|Product Description: AutoCAD Mechanical|Company: Autodesk, Inc."
 90
     1024
 91
        1
280
     0
281
     0
  0
CLASS
  1
ACMTHREADLINESTANDARDISO
  2
AmdtThreadLineStdISO
  3
"Amdt_StdImp|Product Description: AutoCAD Mechanical|Company: Autodesk, Inc."
 90
     1024
 91
        1
280
     0
281
     0
  0
CLASS
  1
ACMNOTESTANDARDISO
  2
AmdtNoteStdISO
  3
"Amdt_StdImp|Product Description: AutoCAD Mechanical|Company: Autodesk, Inc."
 90
     1024
 91
        1
280
     0
281
     0
  0
CLASS
  1
ACMTAPERSTANDARDISO
  2
AcmTaperStdISO
  3
"Amdt_StdImp|Product Description: AutoCAD Mechanical|Company: Autodesk, Inc."
 90
     1024
 91
        1
280
     0
281
     0
  0
CLASS
  1
ACMANOOTATIONVIEWSTANDARDISO
  2
AmdtAnViewStdISO
  3
"Amdt_StdImp|Product Description: AutoCAD Mechanical|Company: Autodesk, Inc."
 90
     1024
 91
        1
280
     0
281
     0
  0
CLASS
  1
ACAMGLAYSTD
  2
AcAmgLayStd
  3
"AmgLay|Product Description: AutoCAD Mechanical|Company: Autodesk, Inc."
 90
     1024
 91
        1
280
     0
281
     0
  0
CLASS
  1
ACAMGDIMSTD
  2
AcAmgDimStd
  3
"AmgDim|Product Description: AutoCAD Mechanical|Company: Autodesk, Inc."
 90
     1024
 91
        1
280
     0
281
     0
  0
CLASS
  1
AMGOBJPROPCFG
  2
AmgObjPropCfg
  3
"AmgLay|Product Description: AutoCAD Mechanical|Company: Autodesk, Inc."
 90
     1025
 91
        1
280
     0
281
     0
  0
CLASS
  1
ACAMGHOLECHARTSTDISO
  2
AcAmgHoleChartStdISO
  3
AmgDim|Product Description: AutoCAD Mechanical|Company: Autodesk, Inc.
 90
     1024
 91
        1
280
     0
281
     0
  0
CLASS
  1
ACAMGTITLESTD
  2
AcAmgTitleStd
  3
"AmgTitle|Product Description: AutoCAD Mechanical|Company: Autodesk, Inc."
 90
     4095
 91
        1
280
     0
281
     0
  0
CLASS
  1
AMDTNOTETEMPLATEDB
  2
AmdtNoteTemplateDB
  3
AcmSymBB|Product Description: AutoCAD Mechanical|Company: Autodesk, Inc.
 90
     1024
 91
        6
280
     0
281
     0
  0
CLASS
  1
ACAMGFILTERDAT
  2
AcAmgFilterDat
  3
"AcadM|Product Description: AutoCAD Mechanical|Company: Autodesk, Inc."
 90
     1024
 91
        6
280
     0
281
     0
  0
CLASS
  1
DICTIONARYVAR
  2
AcDbDictionaryVar
  3
ObjectDBX Classes
 90
        0
 91
        7
280
     0
281
     0
  0
CLASS
  1
CELLSTYLEMAP
  2
AcDbCellStyleMap
  3
ObjectDBX Classes
 90
     1152
 91
        1
280
     0
281
     0
  0
ENDSEC
  0
SECTION
  2
TABLES
  0
TABLE
  2
VPORT
  5
8
330
0
100
AcDbSymbolTable
 70
    17
  0
VPORT
  5
29
330
8
100
AcDbSymbolTableRecord
100
AcDbViewportTableRecord
  2
DUMMY
 70
     0
 10
0.0
 20
0.0
 11
1.0
 21
1.0
 12
10.429907
 22
4.5
 13
0.0
 23
0.0
 14
0.5
 24
0.5
 15
0.5
 25
0.5
 16
0.0
 26
0.0
 36
1.0
 17
0.0
 27
0.0
 37
0.0
 40
9.0
 41
1.972972999999999
 42
50.0
 43
0.0
 44
0.0
 50
0.0
 51
0.0
 71
     0
 72
   100
 73
     1
 74
     3
 75
     0
 76
     0
 77
     0
 78
     0
281
     0
 65
     1
110
0.0
120
0.0
130
0.0
111
1.0
121
0.0
131
0.0
112
0.0
122
1.0
132
0.0
 79
     0
146
0.0
348
2F
 60
     3
 61
     5
292
     1
282
     1
141
0.0
142
0.0
 63
   250
421
  3355443
  0
VPORT
  5
1E5
330
8
100
AcDbSymbolTableRecord
100
AcDbViewportTableRecord
  2
*ACTIVE
 70
     0
 10
0.0
 20
0.0
 11
1.0
 21
1.0
 12
581.1496524130486
 22
798.7990279297223
 13
0.0
 23
0.0
 14
0.5
 24
0.5
 15
0.5
 25
0.5
 16
0.0
 26
0.0
 36
1.0
 17
0.0
 27
0.0
 37
0.0
 40
1672.681291287386
 41
1.751648351648351
 42
50.0
 43
2153.092331
 44
-2153.092331
 50
0.0
 51
0.0
 71
     0
 72
   100
 73
     1
 74
     3
 75
     0
 76
     0
 77
     0
 78
     0
281
     0
 65
     0
110
0.0
120
0.0
130
0.0
111
1.0
121
0.0
131
0.0
112
0.0
122
1.0
132
0.0
 79
     0
146
0.0
348
2F
 60
     3
 61
     5
292
     1
282
     1
141
0.0
142
0.0
 63
   250
421
  3355443
1001
ACAD_NAV_VCDISPLAY
1070
     3
  0
VPORT
  5
1E6
330
8
100
AcDbSymbolTableRecord
100
AcDbViewportTableRecord
  2
L1
 70
     0
 10
0.0
 20
0.0
 11
1.0
 21
1.0
 12
600.5079849999999
 22
481.890969
 13
0.0
 23
0.0
 14
0.5
 24
0.5
 15
0.5
 25
0.5
 16
0.0
 26
0.0
 36
1.0
 17
0.0
 27
0.0
 37
0.0
 40
240.241667
 41
0.073912
 42
50.0
 43
2153.092331
 44
-2153.092331
 50
0.0
 51
0.0
 71
     0
 72
   100
 73
     1
 74
     3
 75
     0
 76
     0
 77
     0
 78
     0
281
     0
 65
     1
110
0.0
120
0.0
130
0.0
111
1.0
121
0.0
131
0.0
112
0.0
122
1.0
132
0.0
 79
     0
146
0.0
348
2F
 60
     3
 61
     5
292
     1
282
     1
141
0.0
142
0.0
 63
   250
421
  3355443
  0
VPORT
  5
1E7
330
8
100
AcDbSymbolTableRecord
100
AcDbViewportTableRecord
  2
L2
 70
     0
 10
0.0
 20
0.0
 11
0.5
 21
1.0
 12
0.0
 22
0.0
 13
0.0
 23
0.0
 14
0.5
 24
0.5
 15
0.5
 25
0.5
 16
0.0
 26
-1.0
 36
0.0
 17
0.0
 27
0.0
 37
0.0
 40
1510.242408
 41
0.011758
 42
50.0
 43
777.628737
 44
-777.628737
 50
0.0
 51
0.0
 71
     0
 72
   100
 73
     1
 74
     3
 75
     0
 76
     0
 77
     0
 78
     0
281
     0
 65
     1
110
0.0
120
0.0
130
0.0
111
1.0
121
0.0
131
0.0
112
0.0
122
1.0
132
0.0
 79
     0
146
0.0
348
2F
 60
     3
 61
     5
292
     1
282
     1
141
0.0
142
0.0
 63
   250
421
  3355443
  0
VPORT
  5
1E8
330
8
100
AcDbSymbolTableRecord
100
AcDbViewportTableRecord
  2
L2
 70
     0
 10
0.5
 20
0.0
 11
1.0
 21
1.0
 12
0.0
 22
0.0
 13
0.0
 23
0.0
 14
0.5
 24
0.5
 15
0.5
 25
0.5
 16
1.0
 26
0.0
 36
0.0
 17
0.0
 27
0.0
 37
0.0
 40
1510.242408
 41
0.011758
 42
50.0
 43
764.615621
 44
-764.615621
 50
0.0
 51
0.0
 71
     0
 72
   100
 73
     1
 74
     3
 75
     0
 76
     0
 77
     0
 78
     0
281
     0
 65
     1
110
0.0
120
0.0
130
0.0
111
1.0
121
0.0
131
0.0
112
0.0
122
1.0
132
0.0
 79
     0
146
0.0
348
2F
 60
     3
 61
     5
292
     1
282
     1
141
0.0
142
0.0
 63
   250
421
  3355443
  0
VPORT
  5
1E9
330
8
100
AcDbSymbolTableRecord
100
AcDbViewportTableRecord
  2
L3
 70
     0
 10
0.0
 20
0.5
 11
1.0
 21
1.0
 12
600.5079849999999
 22
481.890969
 13
0.0
 23
0.0
 14
0.5
 24
0.5
 15
0.5
 25
0.5
 16
0.0
 26
0.0
 36
1.0
 17
0.0
 27
0.0
 37
0.0
 40
240.241667
 41
0.073912
 42
50.0
 43
2153.092331
 44
-2153.092331
 50
0.0
 51
0.0
 71
     0
 72
   100
 73
     1
 74
     3
 75
     0
 76
     0
 77
     0
 78
     0
281
     0
 65
     1
110
0.0
120
0.0
130
0.0
111
1.0
121
0.0
131
0.0
112
0.0
122
1.0
132
0.0
 79
     0
146
0.0
348
2F
 60
     3
 61
     5
292
     1
282
     1
141
0.0
142
0.0
 63
   250
421
  3355443
  0
VPORT
  5
1EA
330
8
100
AcDbSymbolTableRecord
100
AcDbViewportTableRecord
  2
L3
 70
     0
 10
0.0
 20
0.0
 11
1.0
 21
0.5
 12
0.0
 22
0.0
 13
0.0
 23
0.0
 14
0.5
 24
0.5
 15
0.5
 25
0.5
 16
0.0
 26
-1.0
 36
0.0
 17
0.0
 27
0.0
 37
0.0
 40
1510.242408
 41
0.011758
 42
50.0
 43
777.628737
 44
-777.628737
 50
0.0
 51
0.0
 71
     0
 72
   100
 73
     1
 74
     3
 75
     0
 76
     0
 77
     0
 78
     0
281
     0
 65
     1
110
0.0
120
0.0
130
0.0
111
1.0
121
0.0
131
0.0
112
0.0
122
1.0
132
0.0
 79
     0
146
0.0
348
2F
 60
     3
 61
     5
292
     1
282
     1
141
0.0
142
0.0
 63
   250
421
  3355443
  0
VPORT
  5
1EB
330
8
100
AcDbSymbolTableRecord
100
AcDbViewportTableRecord
  2
L4
 70
     0
 10
0.0
 20
0.5
 11
0.5
 21
1.0
 12
600.5079849999999
 22
481.890969
 13
0.0
 23
0.0
 14
0.5
 24
0.5
 15
0.5
 25
0.5
 16
0.0
 26
0.0
 36
1.0
 17
0.0
 27
0.0
 37
0.0
 40
240.241667
 41
0.073912
 42
50.0
 43
2153.092331
 44
-2153.092331
 50
0.0
 51
0.0
 71
     0
 72
   100
 73
     1
 74
     3
 75
     0
 76
     0
 77
     0
 78
     0
281
     0
 65
     1
110
0.0
120
0.0
130
0.0
111
1.0
121
0.0
131
0.0
112
0.0
122
1.0
132
0.0
 79
     0
146
0.0
348
2F
 60
     3
 61
     5
292
     1
282
     1
141
0.0
142
0.0
 63
   250
421
  3355443
  0
VPORT
  5
1EC
330
8
100
AcDbSymbolTableRecord
100
AcDbViewportTableRecord
  2
L4
 70
     0
 10
0.0
 20
0.0
 11
0.5
 21
0.5
 12
0.0
 22
0.0
 13
0.0
 23
0.0
 14
0.5
 24
0.5
 15
0.5
 25
0.5
 16
0.0
 26
-1.0
 36
0.0
 17
0.0
 27
0.0
 37
0.0
 40
1510.242408
 41
0.011758
 42
50.0
 43
777.628737
 44
-777.628737
 50
0.0
 51
0.0
 71
     0
 72
   100
 73
     1
 74
     3
 75
     0
 76
     0
 77
     0
 78
     0
281
     0
 65
     1
110
0.0
120
0.0
130
0.0
111
1.0
121
0.0
131
0.0
112
0.0
122
1.0
132
0.0
 79
     0
146
0.0
348
2F
 60
     3
 61
     5
292
     1
282
     1
141
0.0
142
0.0
 63
   250
421
  3355443
  0
VPORT
  5
1ED
330
8
100
AcDbSymbolTableRecord
100
AcDbViewportTableRecord
  2
L4
 70
     0
 10
0.5
 20
0.0
 11
1.0
 21
0.5
 12
0.0
 22
0.0
 13
0.0
 23
0.0
 14
0.5
 24
0.5
 15
0.5
 25
0.5
 16
1.0
 26
0.0
 36
0.0
 17
0.0
 27
0.0
 37
0.0
 40
1510.242408
 41
0.011758
 42
50.0
 43
764.615621
 44
-764.615621
 50
0.0
 51
0.0
 71
     0
 72
   100
 73
     1
 74
     3
 75
     0
 76
     0
 77
     0
 78
     0
281
     0
 65
     1
110
0.0
120
0.0
130
0.0
111
1.0
121
0.0
131
0.0
112
0.0
122
1.0
132
0.0
 79
     0
146
0.0
348
2F
 60
     3
 61
     5
292
     1
282
     1
141
0.0
142
0.0
 63
   250
421
  3355443
  0
VPORT
  5
1EE
330
8
100
AcDbSymbolTableRecord
100
AcDbViewportTableRecord
  2
L4
 70
     0
 10
0.5
 20
0.5
 11
1.0
 21
1.0
 12
0.0
 22
0.0
 13
0.0
 23
0.0
 14
0.5
 24
0.5
 15
0.5
 25
0.5
 16
0.5773502691896259
 26
-0.5773502691896259
 36
0.5773502691896259
 17
0.0
 27
0.0
 37
0.0
 40
1482.840046
 41
0.011975
 42
50.0
 43
772.3200829999999
 44
-772.3200829999999
 50
0.0
 51
0.0
 71
     0
 72
   100
 73
     1
 74
     3
 75
     0
 76
     0
 77
     0
 78
     0
281
     0
 65
     1
110
0.0
120
0.0
130
0.0
111
1.0
121
0.0
131
0.0
112
0.0
122
1.0
132
0.0
 79
     0
146
0.0
348
2F
 60
     3
 61
     5
292
     1
282
     1
141
0.0
142
0.0
 63
   250
421
  3355443
  0
VPORT
  5
1EF
330
8
100
AcDbSymbolTableRecord
100
AcDbViewportTableRecord
  2
L6
 70
     0
 10
0.0
 20
0.5
 11
0.333333
 21
1.0
 12
0.0
 22
0.0
 13
0.0
 23
0.0
 14
0.5
 24
0.5
 15
0.5
 25
0.5
 16
0.7188730927569434
 26
-0.5850486126764433
 36
0.3754192287502549
 17
0.0
 27
0.0
 37
0.0
 40
1564.871325
 41
0.011347
 42
50.0
 43
810.232564
 44
-810.232564
 50
0.0
 51
0.0
 71
     0
 72
   100
 73
     1
 74
     3
 75
     0
 76
     0
 77
     0
 78
     0
281
     0
 65
     1
110
0.0
120
0.0
130
0.0
111
1.0
121
0.0
131
0.0
112
0.0
122
1.0
132
0.0
 79
     0
146
0.0
348
2F
 60
     3
 61
     5
292
     1
282
     1
141
0.0
142
0.0
 63
   250
421
  3355443
  0
VPORT
  5
1F0
330
8
100
AcDbSymbolTableRecord
100
AcDbViewportTableRecord
  2
L6
 70
     0
 10
0.0
 20
0.0
 11
0.333333
 21
0.5
 12
0.0
 22
0.0
 13
0.0
 23
0.0
 14
0.5
 24
0.5
 15
0.5
 25
0.5
 16
-1.0
 26
0.0
 36
0.0
 17
0.0
 27
0.0
 37
0.0
 40
1510.242408
 41
0.011758
 42
50.0
 43
764.615621
 44
-764.615621
 50
0.0
 51
0.0
 71
     0
 72
   100
 73
     1
 74
     3
 75
     0
 76
     0
 77
     0
 78
     0
281
     0
 65
     1
110
0.0
120
0.0
130
0.0
111
1.0
121
0.0
131
0.0
112
0.0
122
1.0
132
0.0
 79
     0
146
0.0
348
2F
 60
     3
 61
     5
292
     1
282
     1
141
0.0
142
0.0
 63
   250
421
  3355443
  0
VPORT
  5
1F1
330
8
100
AcDbSymbolTableRecord
100
AcDbViewportTableRecord
  2
L6
 70
     0
 10
0.333333
 20
0.5
 11
0.666667
 21
1.0
 12
600.5079849999999
 22
481.890969
 13
0.0
 23
0.0
 14
0.5
 24
0.5
 15
0.5
 25
0.5
 16
0.0
 26
0.0
 36
1.0
 17
0.0
 27
0.0
 37
0.0
 40
240.241667
 41
0.073912
 42
50.0
 43
2153.092331
 44
-2153.092331
 50
0.0
 51
0.0
 71
     0
 72
   100
 73
     1
 74
     3
 75
     0
 76
     0
 77
     0
 78
     0
281
     0
 65
     1
110
0.0
120
0.0
130
0.0
111
1.0
121
0.0
131
0.0
112
0.0
122
1.0
132
0.0
 79
     0
146
0.0
348
2F
 60
     3
 61
     5
292
     1
282
     1
141
0.0
142
0.0
 63
   250
421
  3355443
  0
VPORT
  5
1F2
330
8
100
AcDbSymbolTableRecord
100
AcDbViewportTableRecord
  2
L6
 70
     0
 10
0.333333
 20
0.0
 11
0.666667
 21
0.5
 12
0.0
 22
0.0
 13
0.0
 23
0.0
 14
0.5
 24
0.5
 15
0.5
 25
0.5
 16
0.0
 26
-1.0
 36
0.0
 17
0.0
 27
0.0
 37
0.0
 40
1510.242408
 41
0.011758
 42
50.0
 43
777.628737
 44
-777.628737
 50
0.0
 51
0.0
 71
     0
 72
   100
 73
     1
 74
     3
 75
     0
 76
     0
 77
     0
 78
     0
281
     0
 65
     1
110
0.0
120
0.0
130
0.0
111
1.0
121
0.0
131
0.0
112
0.0
122
1.0
132
0.0
 79
     0
146
0.0
348
2F
 60
     3
 61
     5
292
     1
282
     1
141
0.0
142
0.0
 63
   250
421
  3355443
  0
VPORT
  5
1F3
330
8
100
AcDbSymbolTableRecord
100
AcDbViewportTableRecord
  2
L6
 70
     0
 10
0.666667
 20
0.5
 11
1.0
 21
1.0
 12
0.0
 22
0.0
 13
0.0
 23
0.0
 14
0.5
 24
0.5
 15
0.5
 25
0.5
 16
0.5773502691896259
 26
-0.5773502691896259
 36
0.5773502691896259
 17
0.0
 27
0.0
 37
0.0
 40
1482.840046
 41
0.011975
 42
50.0
 43
772.3200829999999
 44
-772.3200829999999
 50
0.0
 51
0.0
 71
     0
 72
   100
 73
     1
 74
     3
 75
     0
 76
     0
 77
     0
 78
     0
281
     0
 65
     1
110
0.0
120
0.0
130
0.0
111
1.0
121
0.0
131
0.0
112
0.0
122
1.0
132
0.0
 79
     0
146
0.0
348
2F
 60
     3
 61
     5
292
     1
282
     1
141
0.0
142
0.0
 63
   250
421
  3355443
  0
VPORT
  5
1F4
330
8
100
AcDbSymbolTableRecord
100
AcDbViewportTableRecord
  2
L6
 70
     0
 10
0.666667
 20
0.0
 11
1.0
 21
0.5
 12
0.0
 22
0.0
 13
0.0
 23
0.0
 14
0.5
 24
0.5
 15
0.5
 25
0.5
 16
1.0
 26
0.0
 36
0.0
 17
0.0
 27
0.0
 37
0.0
 40
1510.242408
 41
0.011758
 42
50.0
 43
764.615621
 44
-764.615621
 50
0.0
 51
0.0
 71
     0
 72
   100
 73
     1
 74
     3
 75
     0
 76
     0
 77
     0
 78
     0
281
     0
 65
     1
110
0.0
120
0.0
130
0.0
111
1.0
121
0.0
131
0.0
112
0.0
122
1.0
132
0.0
 79
     0
146
0.0
348
2F
 60
     3
 61
     5
292
     1
282
     1
141
0.0
142
0.0
 63
   250
421
  3355443
  0
ENDTAB
  0
TABLE
  2
LTYPE
  5
5
330
0
100
AcDbSymbolTable
 70
    19
  0
LTYPE
  5
14
330
5
100
AcDbSymbolTableRecord
100
AcDbLinetypeTableRecord
  2
BYBLOCK
 70
     0
  3

 72
    65
 73
     0
 40
0.0
  0
LTYPE
  5
15
330
5
100
AcDbSymbolTableRecord
100
AcDbLinetypeTableRecord
  2
BYLAYER
 70
     0
  3

 72
    65
 73
     0
 40
0.0
  0
LTYPE
  5
16
330
5
100
AcDbSymbolTableRecord
100
AcDbLinetypeTableRecord
  2
CONTINUOUS
 70
     0
  3
Solid line
 72
    65
 73
     0
 40
0.0
  0
LTYPE
  5
3F
330
5
100
AcDbSymbolTableRecord
100
AcDbLinetypeTableRecord
  2
DASHED
 70
     0
  3
__ __ __ __ __ __ __ __ __
 72
    65
 73
     2
 40
25.72
 49
12.86
 74
     4
 75
     0
340
0
 46
0.0
 50
0.0
 44
0.0
 45
0.0
 49
-12.86
 74
     4
 75
     0
340
0
 46
0.0
 50
0.0
 44
0.0
 45
0.0
  0
LTYPE
  5
40
330
5
100
AcDbSymbolTableRecord
100
AcDbLinetypeTableRecord
  2
HIDDEN
 70
     0
  3
_ _ _ _ _ _ _ _ _ _ _ _ _ _ _
 72
    65
 73
     2
 40
0.5
 49
0.25
 74
     4
 75
     0
340
0
 46
0.0
 50
0.0
 44
0.0
 45
0.0
 49
-0.25
 74
     4
 75
     0
340
0
 46
0.0
 50
0.0
 44
0.0
 45
0.0
  0
LTYPE
  5
41
330
5
100
AcDbSymbolTableRecord
100
AcDbLinetypeTableRecord
  2
PHANTOM
 70
     0
  3
____ _ _ ____ _ _ _____ _ _ ____
 72
    65
 73
     6
 40
50.5
 49
18.0
 74
     4
 75
     0
340
0
 46
0.0
 50
0.0
 44
0.0
 45
0.0
 49
-6.5
 74
     4
 75
     0
340
0
 46
0.0
 50
0.0
 44
0.0
 45
0.0
 49
6.5
 74
     4
 75
     0
340
0
 46
0.0
 50
0.0
 44
0.0
 45
0.0
 49
-6.5
 74
     4
 75
     0
340
0
 46
0.0
 50
0.0
 44
0.0
 45
0.0
 49
6.5
 74
     4
 75
     0
340
0
 46
0.0
 50
0.0
 44
0.0
 45
0.0
 49
-6.5
 74
     4
 75
     0
340
0
 46
0.0
 50
0.0
 44
0.0
 45
0.0
  0
LTYPE
  5
42
330
5
100
AcDbSymbolTableRecord
100
AcDbLinetypeTableRecord
  2
CENTER
 70
     0
  3
____ _ ____ _ ____ _ ____
 72
    65
 73
     4
 40
47.4
 49
22.0
 74
     4
 75
     0
340
0
 46
0.0
 50
0.0
 44
0.0
 45
0.0
 49
-8.5
 74
     4
 75
     0
340
0
 46
0.0
 50
0.0
 44
0.0
 45
0.0
 49
8.5
 74
     4
 75
     0
340
0
 46
0.0
 50
0.0
 44
0.0
 45
0.0
 49
-8.5
 74
     4
 75
     0
340
0
 46
0.0
 50
0.0
 44
0.0
 45
0.0
  0
LTYPE
  5
43
330
5
100
AcDbSymbolTableRecord
100
AcDbLinetypeTableRecord
  2
DOT
 70
     0
  3
.........................
 72
    65
 73
     2
 40
10.0
 49
0.0
 74
     4
 75
     0
340
0
 46
0.0
 50
0.0
 44
0.0
 45
0.0
 49
-10.0
 74
     4
 75
     0
340
0
 46
0.0
 50
0.0
 44
0.0
 45
0.0
  0
LTYPE
  5
44
330
5
100
AcDbSymbolTableRecord
100
AcDbLinetypeTableRecord
  2
DASHDOT
 70
     0
  3
_._._._._._._._._._._._._._._._.
 72
    65
 73
     4
 40
70.0
 49
31.0
 74
     4
 75
     0
340
0
 46
0.0
 50
0.0
 44
0.0
 45
0.0
 49
-13.0
 74
     4
 75
     0
340
0
 46
0.0
 50
0.0
 44
0.0
 45
0.0
 49
13.0
 74
     4
 75
     0
340
0
 46
0.0
 50
0.0
 44
0.0
 45
0.0
 49
-13.0
 74
     4
 75
     0
340
0
 46
0.0
 50
0.0
 44
0.0
 45
0.0
  0
LTYPE
  5
24D
330
5
100
AcDbSymbolTableRecord
100
AcDbLinetypeTableRecord
  2
PHANTOM2
 70
     0
  3
Phantom (.5x) ___ _ _ ___ _ _ ___ _ _ ___ _ _
 72
    65
 73
     6
 40
31.75
 49
15.875
 74
     0
 49
-3.174999999999999
 74
     0
 49
3.174999999999999
 74
     0
 49
-3.174999999999999
 74
     0
 49
3.174999999999999
 74
     0
 49
-3.174999999999999
 74
     0
  0
LTYPE
  5
288
330
5
100
AcDbSymbolTableRecord
100
AcDbLinetypeTableRecord
  2
AM_ISO02W050
 70
     0
  3
__ __ __ __ __ __ __ __ __ __ __ __ __ __ __
 72
    65
 73
     2
 40
7.5
 49
6.0
 74
     0
 49
-1.5
 74
     0
  0
LTYPE
  5
289
330
5
100
AcDbSymbolTableRecord
100
AcDbLinetypeTableRecord
  2
AM_ISO08W050
 70
     0
  3
____ . ____ . ____ . ____ . ____ . ____ . ____
 72
    65
 73
     4
 40
18.0
 49
12.0
 74
     0
 49
-1.5
 74
     0
 49
3.0
 74
     0
 49
-1.5
 74
     0
  0
LTYPE
  5
28A
330
5
100
AcDbSymbolTableRecord
100
AcDbLinetypeTableRecord
  2
AM_ISO09W050
 70
     0
  3
_____ . . _____ . . _____ . . ____ .. ____
 72
    65
 73
     6
 40
22.5
 49
12.0
 74
     0
 49
-1.5
 74
     0
 49
3.0
 74
     0
 49
-1.5
 74
     0
 49
3.0
 74
     0
 49
-1.5
 74
     0
  0
LTYPE
  5
28B
330
5
100
AcDbSymbolTableRecord
100
AcDbLinetypeTableRecord
  2
Amconstr
 70
     0
  3
_______________________
 72
    65
 73
     2
 40
9999.0
 49
9999.0
 74
     0
 49
0.0
 74
     0
  0
LTYPE
  5
28C
330
5
100
AcDbSymbolTableRecord
100
AcDbLinetypeTableRecord
  2
AM_ISO08W050x2
 70
     0
  3
__ . __ . __ . __ . __ . __
 72
    65
 73
     4
 40
9.0
 49
6.0
 74
     0
 49
-0.75
 74
     0
 49
1.5
 74
     0
 49
-0.75
 74
     0
  0
LTYPE
  5
28D
330
5
100
AcDbSymbolTableRecord
100
AcDbLinetypeTableRecord
  2
AM_ISO02W050x2
 70
     0
  3
 _ _ _ _ _ _ _ _ _ _ _ _
 72
    65
 73
     2
 40
3.75
 49
3.0
 74
     0
 49
-0.75
 74
     0
  0
LTYPE
  5
290
330
5
100
AcDbSymbolTableRecord
100
AcDbLinetypeTableRecord
  2
Amzigzag
 70
     0
  3
/\/-/\/-/\/-/\/-/\/-/\/
 72
    65
 73
     2
 40
11.0001
 49
0.0001
 74
     4
 75
   136
340
28F
 46
0.04
 50
0.0
 44
0.0
 45
0.0
 49
-11.0
 74
     0
  0
LTYPE
  5
29F
330
5
100
AcDbSymbolTableRecord
100
AcDbLinetypeTableRecord
  2
ACISOWELD
 70
     0
  3
_ _ _ _ _
 72
    65
 73
     2
 40
2.0
 49
2.0
 74
     0
 49
-1.0
 74
     0
  0
LTYPE
  5
2A0
330
5
100
AcDbSymbolTableRecord
100
AcDbLinetypeTableRecord
  2
ACISOTGL
 70
     0
  3
_ _ _ _ _
 72
    65
 73
     2
 40
3.0
 49
2.0
 74
     0
 49
-1.0
 74
     0
  0
LTYPE
  5
2A1
330
5
100
AcDbSymbolTableRecord
100
AcDbLinetypeTableRecord
  2
ACISOTGB
 70
     0
  3
__ . . __ . .
 72
    65
 73
     6
 40
9.0
 49
4.0
 74
     0
 49
-1.0
 74
     0
 49
1.0
 74
     0
 49
-1.0
 74
     0
 49
1.0
 74
     0
 49
-1.0
 74
     0
  0
ENDTAB
  0
TABLE
  2
LAYER
  5
2
330
0
100
AcDbSymbolTable
 70
     2
  0
LAYER
  5
10
330
2
100
AcDbSymbolTableRecord
100
AcDbLayerTableRecord
  2
0
 70
     0
 62
     7
  6
CONTINUOUS
370
    -3
390
F
347
3E
  0
LAYER
  5
46
330
2
100
AcDbSymbolTableRecord
100
AcDbLayerTableRecord
  2
1
 70
     0
 62
     7
420
 16777215
  6
CONTINUOUS
370
    -3
390
F
347
3E
  0
ENDTAB
  0
TABLE
  2
STYLE
  5
3
330
0
100
AcDbSymbolTable
 70
     4
  0
STYLE
  5
11
330
3
100
AcDbSymbolTableRecord
100
AcDbTextStyleTableRecord
  2
Standard
 70
     0
 40
0.0
 41
1.0
 50
0.0
 71
     0
 42
0.2
  3
txt
  4

  0
STYLE
  5
28F
330
3
100
AcDbSymbolTableRecord
100
AcDbTextStyleTableRecord
  2

 70
     1
 40
0.0
 41
1.0
 50
0.0
 71
     0
 42
0.2
  3
genltshp.shx
  4

  0
STYLE
  5
29D
330
3
100
AcDbSymbolTableRecord
100
AcDbTextStyleTableRecord
  2
ACISOTS
 70
     0
 40
1.0
 41
1.0
 50
0.0
 71
     0
 42
0.2
  3
isocp.shx
  4

  0
STYLE
  5
29E
330
3
100
AcDbSymbolTableRecord
100
AcDbTextStyleTableRecord
  2
ACISOGDT
 70
     0
 40
0.0
 41
1.0
 50
0.0
 71
     0
 42
0.2
  3
amgdt.shx
  4

  0
ENDTAB
  0
TABLE
  2
VIEW
  5
6
330
0
100
AcDbSymbolTable
 70
     0
  0
ENDTAB
  0
TABLE
  2
UCS
  5
7
330
0
100
AcDbSymbolTable
 70
     0
  0
ENDTAB
  0
TABLE
  2
APPID
  5
9
330
0
100
AcDbSymbolTable
 70
     9
  0
APPID
  5
12
330
9
100
AcDbSymbolTableRecord
100
AcDbRegAppTableRecord
  2
ACAD
 70
     0
  0
APPID
  5
246
330
9
100
AcDbSymbolTableRecord
100
AcDbRegAppTableRecord
  2
MCAD_NO_VIS
 70
     0
  0
APPID
  5
247
330
9
100
AcDbSymbolTableRecord
100
AcDbRegAppTableRecord
  2
ACAD_TEMP_GRAPHIC
 70
     0
  0
APPID
  5
252
330
9
100
AcDbSymbolTableRecord
100
AcDbRegAppTableRecord
  2
ACATTRIBSERVICES
 70
     0
  0
APPID
  5
26A
330
9
100
AcDbSymbolTableRecord
100
AcDbRegAppTableRecord
  2
DESIGNERASSEMBLIES
 70
     0
  0
APPID
  5
285
330
9
100
AcDbSymbolTableRecord
100
AcDbRegAppTableRecord
  2
ACAD_DSTYLE_DIMJAG
 70
     0
  0
APPID
  5
286
330
9
100
AcDbSymbolTableRecord
100
AcDbRegAppTableRecord
  2
ACAD_DSTYLE_DIMBREAK
 70
     0
  0
APPID
  5
2A8
330
9
100
AcDbSymbolTableRecord
100
AcDbRegAppTableRecord
  2
ACAD_NAV_VCDISPLAY
 70
     0
  0
APPID
  5
2B0
330
9
100
AcDbSymbolTableRecord
100
AcDbRegAppTableRecord
  2
ACAD_EXEMPT_FROM_CAD_STANDARDS
 70
     0
  0
ENDTAB
  0
TABLE
  2
DIMSTYLE
  5
A
330
0
100
AcDbSymbolTable
 70
     8
100
AcDbDimStyleTable
 71
     0
  0
DIMSTYLE
105
27
330
A
100
AcDbSymbolTableRecord
100
AcDbDimStyleTableRecord
  2
Standard
 70
     0
340
11
  0
DIMSTYLE
105
284
102
{ACAD_REACTORS
330
273
102
}
330
A
100
AcDbSymbolTableRecord
100
AcDbDimStyleTableRecord
  2
AM_ISO
 70
     0
  4
"
 41
3.5
 42
1.0
 43
10.0
 44
1.0
 47
0.1
 48
0.1
 73
     0
 74
     0
 77
     1
 78
     8
 79
     2
 90
     1
140
3.5
141
0.0
143
0.0393701
146
0.71
147
1.5
172
     1
176
   256
177
   256
178
     2
271
     2
272
     3
274
     4
283
     0
284
     8
340
11
345
14
346
14
347
14
371
    -1
372
    -1
1001
ACAD_DSTYLE_DIMJAG
1070
   388
1040
1.5
1001
ACAD_DSTYLE_DIMBREAK
1070
   391
1040
3.75
  0
DIMSTYLE
105
291
330
A
100
AcDbSymbolTableRecord
100
AcDbDimStyleTableRecord
  2
AM_ISO$3
 70
     0
  4
"
 41
3.5
 42
1.0
 43
10.0
 44
1.0
 47
0.1
 48
0.1
 73
     0
 77
     1
 78
     8
 79
     2
 90
     1
140
3.5
141
0.0
143
0.0393701
146
0.71
147
1.5
176
   256
177
   256
178
     2
271
     2
272
     3
274
     4
283
     0
284
     8
288
     1
289
     0
340
11
345
14
346
14
347
14
371
    -1
372
    -1
1001
ACAD_DSTYLE_DIMBREAK
1070
   391
1040
3.75
1001
ACAD_DSTYLE_DIMJAG
1070
   388
1040
1.5
  0
DIMSTYLE
105
292
330
A
100
AcDbSymbolTableRecord
100
AcDbDimStyleTableRecord
  2
AM_ISO$4
 70
     0
  4
"
 41
3.5
 42
1.0
 43
10.0
 44
1.0
 47
0.1
 48
0.1
 73
     0
 77
     1
 78
     8
 79
     2
 90
     1
140
3.5
141
0.0
143
0.0393701
146
0.71
147
1.5
176
   256
177
   256
178
     2
271
     2
272
     3
274
     4
283
     0
284
     8
288
     1
289
     0
340
11
345
14
346
14
347
14
371
    -1
372
    -1
1001
ACAD_DSTYLE_DIMBREAK
1070
   391
1040
3.75
1001
ACAD_DSTYLE_DIMJAG
1070
   388
1040
1.5
  0
DIMSTYLE
105
293
330
A
100
AcDbSymbolTableRecord
100
AcDbDimStyleTableRecord
  2
AM_ISO$6
 70
     0
  4
"
 41
3.5
 42
1.0
 43
10.0
 44
1.0
 47
0.1
 48
0.1
 73
     0
 74
     0
 78
     8
 79
     2
 90
     1
140
3.5
141
0.0
143
0.0393701
146
0.71
147
1.5
172
     1
176
   256
177
   256
178
     2
271
     2
272
     3
274
     4
283
     0
284
     8
340
11
345
14
346
14
347
14
371
    -1
372
    -1
1001
ACAD_DSTYLE_DIMBREAK
1070
   391
1040
3.75
1001
ACAD_DSTYLE_DIMJAG
1070
   388
1040
1.5
  0
DIMSTYLE
105
294
330
A
100
AcDbSymbolTableRecord
100
AcDbDimStyleTableRecord
  2
AM_ISO$7
 70
     0
  4
"
 41
3.5
 42
1.0
 43
10.0
 44
1.0
 47
0.1
 48
0.1
 73
     0
 74
     0
 77
     1
 78
     8
 79
     2
 90
     1
140
3.5
141
0.0
143
0.0393701
146
0.71
147
1.5
172
     1
176
   256
177
   256
178
     2
271
     2
272
     3
274
     4
283
     0
284
     8
340
11
345
14
346
14
347
14
371
    -1
372
    -1
1001
ACAD_DSTYLE_DIMBREAK
1070
   391
1040
3.75
1001
ACAD_DSTYLE_DIMJAG
1070
   388
1040
1.5
  0
DIMSTYLE
105
295
330
A
100
AcDbSymbolTableRecord
100
AcDbDimStyleTableRecord
  2
AM_ISO$SF
 70
     0
  4
"
 41
3.5
 42
1.0
 43
10.0
 44
1.0
 47
0.1
 48
0.1
 73
     0
 74
     0
 75
     1
 76
     1
 77
     1
 78
     8
 79
     2
 90
     1
140
3.5
141
0.0
143
0.0393701
146
0.71
147
1.5
172
     1
176
   256
177
   256
178
     2
271
     2
272
     3
274
     4
283
     0
284
     8
340
11
345
14
346
14
347
14
371
    -1
372
    -1
1001
ACAD_DSTYLE_DIMBREAK
1070
   391
1040
3.75
1001
ACAD_DSTYLE_DIMJAG
1070
   388
1040
1.5
  0
DIMSTYLE
105
29A
330
A
100
AcDbSymbolTableRecord
100
AcDbDimStyleTableRecord
  2
AM_ISO$SH
 70
     0
  4
"
 41
3.5
 42
1.0
 43
10.0
 44
1.0
 47
0.1
 48
0.1
 73
     0
 74
     0
 75
     1
 76
     1
 77
     1
 78
     8
 79
     2
 90
     1
140
3.5
141
0.0
143
0.0393701
144
2.0
146
0.71
147
1.5
172
     1
173
     1
176
   256
177
   256
178
     2
271
     2
272
     3
274
     4
283
     0
284
     8
340
11
343
296
345
14
346
14
347
14
371
    -1
372
    -1
1001
ACAD_DSTYLE_DIMBREAK
1070
   391
1040
3.75
1001
ACAD_DSTYLE_DIMJAG
1070
   388
1040
1.5
  0
ENDTAB
  0
TABLE
  2
BLOCK_RECORD
  5
1
330
0
100
AcDbSymbolTable
 70
     6
  0
BLOCK_RECORD
  5
1F
330
1
100
AcDbSymbolTableRecord
100
AcDbBlockTableRecord
  2
*Model_Space
340
22
 70
     0
280
     1
281
     0
  0
BLOCK_RECORD
  5
1B
330
1
100
AcDbSymbolTableRecord
100
AcDbBlockTableRecord
  2
*Paper_Space
340
1E
 70
     0
280
     1
281
     0
  0
BLOCK_RECORD
  5
23
330
1
100
AcDbSymbolTableRecord
100
AcDbBlockTableRecord
  2
*Paper_Space0
340
26
 70
     0
280
     1
281
     0
  0
BLOCK_RECORD
  5
296
330
1
100
AcDbSymbolTableRecord
100
AcDbBlockTableRecord
  2
GENAXEH
340
0
 70
     0
280
     1
281
     0
  0
ENDTAB
  0
ENDSEC
  0
SECTION
  2
BLOCKS
  0
BLOCK
  5
20
330
1F
100
AcDbEntity
  8
0
100
AcDbBlockBegin
  2
*Model_Space
 70
     0
 10
0.0
 20
0.0
 30
0.0
  3
*Model_Space
  1

  0
ENDBLK
  5
21
330
1F
100
AcDbEntity
  8
0
100
AcDbBlockEnd
  0
BLOCK
  5
1C
330
1B
100
AcDbEntity
 67
     1
  8
0
100
AcDbBlockBegin
  2
*Paper_Space
 70
     0
 10
0.0
 20
0.0
 30
0.0
  3
*Paper_Space
  1

  0
ENDBLK
  5
1D
330
1B
100
AcDbEntity
 67
     1
  8
0
100
AcDbBlockEnd
  0
BLOCK
  5
24
330
23
100
AcDbEntity
 67
     1
  8
0
100
AcDbBlockBegin
  2
*Paper_Space0
 70
     0
 10
0.0
 20
0.0
 30
0.0
  3
*Paper_Space0
  1

  0
ENDBLK
  5
25
330
23
100
AcDbEntity
 67
     1
  8
0
100
AcDbBlockEnd
  0
BLOCK
  5
298
330
296
100
AcDbEntity
  8
0
100
AcDbBlockBegin
  2
GENAXEH
 70
     0
 10
0.0
 20
0.0
 30
0.0
  3
GENAXEH
  1

  0
LINE
  5
297
330
296
100
AcDbEntity
  8
0
100
AcDbLine
 10
-1.0
 20
0.0
 30
0.0
 11
1.0
 21
0.0
 31
0.0
  0
ENDBLK
  5
299
330
296
100
AcDbEntity
  8
0
100
AcDbBlockEnd
  0
ENDSEC
  0
SECTION
  2
ENTITIES
  0
LINE
  5
56
330
1F
100
AcDbEntity
  8
1
  6
Continuous
 62
     8
 60
     1
100
AcDbLine
 10
0.0
 20
0.0
 30
0.0
 11
0.0
 21
900.0
 31
0.0
  0
LINE
  5
57
330
1F
100
AcDbEntity
  8
1
  6
Continuous
 62
     8
 60
     1
100
AcDbLine
 10
1200.0
 20
900.0
 30
0.0
 11
0.0
 21
900.0
 31
0.0
  0
LINE
  5
58
330
1F
100
AcDbEntity
  8
1
  6
Continuous
 62
     8
 60
     1
100
AcDbLine
 10
1200.0
 20
900.0
 30
0.0
 11
1200.0
 21
0.0
 31
0.0
  0
LINE
  5
59
330
1F
100
AcDbEntity
  8
1
  6
Continuous
 62
     8
 60
     1
100
AcDbLine
 10
0.0
 20
0.0
 30
0.0
 11
1200.0
 21
0.0
 31
0.0
  0
LINE
  5
5A
330
1F
100
AcDbEntity
  8
1
  6
Continuous
 62
   155
100
AcDbLine
 10
794.193833
 20
743.8556139999999
 30
0.0
 11
756.193833
 21
764.060573
 31
0.0
  0
LINE
  5
5B
330
1F
100
AcDbEntity
  8
1
  6
Continuous
 62
   155
100
AcDbLine
 10
469.193833
 20
695.498395
 30
0.0
 11
465.693833
 21
694.5605730000001
 31
0.0
  0
LINE
  5
5C
330
1F
100
AcDbEntity
  8
1
  6
Continuous
 62
   155
100
AcDbLine
 10
756.193833
 20
767.560573
 30
0.0
 11
706.693833
 21
767.560573
 31
0.0
  0
LINE
  5
5D
330
1F
100
AcDbEntity
  8
1
  6
Continuous
 62
   155
100
AcDbLine
 10
706.693833
 20
767.560573
 30
0.0
 11
706.693833
 21
731.0738119999999
 31
0.0
  0
LINE
  5
5E
330
1F
100
AcDbEntity
  8
1
  6
Continuous
 62
   155
100
AcDbLine
 10
756.193833
 20
731.0738119999999
 30
0.0
 11
756.193833
 21
767.560573
 31
0.0
  0
LINE
  5
5F
330
1F
100
AcDbEntity
  8
1
  6
Continuous
 62
   155
100
AcDbLine
 10
756.193833
 20
570.5605730000001
 30
0.0
 11
706.693833
 21
570.5605730000001
 31
0.0
  0
LINE
  5
60
330
1F
100
AcDbEntity
  8
1
  6
Continuous
 62
   155
100
AcDbLine
 10
508.6938329999999
 20
767.560573
 30
0.0
 11
510.693833
 21
767.560573
 31
0.0
  0
LINE
  5
61
330
1F
100
AcDbEntity
  8
1
  6
Continuous
 62
   155
100
AcDbLine
 10
706.693833
 20
570.5605730000001
 30
0.0
 11
647.4423329999999
 21
570.5605730000001
 31
0.0
  0
LINE
  5
62
330
1F
100
AcDbEntity
  8
1
  6
Continuous
 62
   155
100
AcDbLine
 10
559.944895
 20
570.5605730000001
 30
0.0
 11
508.6938329999999
 21
570.5605730000001
 31
0.0
  0
LINE
  5
63
330
1F
100
AcDbEntity
  8
1
  6
Continuous
 62
   155
100
AcDbLine
 10
658.693833
 20
558.660573
 30
0.0
 11
548.693833
 21
558.660573
 31
0.0
  0
LINE
  5
64
330
1F
100
AcDbEntity
  8
1
  6
Continuous
 62
   155
100
AcDbLine
 10
559.943833
 20
607.0473329999999
 30
0.0
 11
559.943833
 21
569.310573
 31
0.0
  0
LINE
  5
65
330
1F
100
AcDbEntity
  8
1
  6
Continuous
 62
   155
100
AcDbLine
 10
658.693833
 20
557.310573
 30
0.0
 11
689.693833
 21
557.310573
 31
0.0
  0
LINE
  5
66
330
1F
100
AcDbEntity
  8
1
  6
Continuous
 62
   155
100
AcDbLine
 10
647.443833
 20
569.310573
 30
0.0
 11
647.443833
 21
607.0473329999999
 31
0.0
  0
LINE
  5
67
330
1F
100
AcDbEntity
  8
1
  6
Continuous
 62
   155
100
AcDbLine
 10
517.693833
 20
557.310573
 30
0.0
 11
517.693833
 21
569.310573
 31
0.0
  0
LINE
  5
68
330
1F
100
AcDbEntity
  8
1
  6
Continuous
 62
   155
100
AcDbLine
 10
463.6938329999999
 20
654.0605730000001
 30
0.0
 11
465.6938559999999
 21
654.0605730000001
 31
0.0
  0
LINE
  5
69
330
1F
100
AcDbEntity
  8
1
  6
Continuous
 62
   155
100
AcDbLine
 10
566.085056
 20
806.060573
 30
0.0
 11
555.820408
 21
806.060573
 31
0.0
  0
LINE
  5
6A
330
1F
100
AcDbEntity
  8
1
  6
Continuous
 62
   155
100
AcDbLine
 10
566.085056
 20
805.060573
 30
0.0
 11
566.085056
 21
806.060573
 31
0.0
  0
LINE
  5
6B
330
1F
100
AcDbEntity
  8
1
  6
Continuous
 62
   155
100
AcDbLine
 10
555.820408
 20
805.060573
 30
0.0
 11
555.820408
 21
806.060573
 31
0.0
  0
LINE
  5
6C
330
1F
100
AcDbEntity
  8
1
  6
Continuous
 62
   155
100
AcDbLine
 10
566.489353
 20
805.060573
 30
0.0
 11
566.489353
 21
806.060573
 31
0.0
  0
LINE
  5
6D
330
1F
100
AcDbEntity
  8
1
  6
Continuous
 62
   155
100
AcDbLine
 10
576.754001
 20
805.060573
 30
0.0
 11
576.754001
 21
806.060573
 31
0.0
  0
LINE
  5
6E
330
1F
100
AcDbEntity
  8
1
  6
Continuous
 62
   155
100
AcDbLine
 10
576.754001
 20
806.060573
 30
0.0
 11
566.489353
 21
806.060573
 31
0.0
  0
LINE
  5
6F
330
1F
100
AcDbEntity
  8
1
  6
Continuous
 62
   155
100
AcDbLine
 10
706.693833
 20
731.0738119999999
 30
0.0
 11
508.6938329999999
 21
731.0738119999999
 31
0.0
  0
LINE
  5
70
330
1F
100
AcDbEntity
  8
1
  6
Continuous
 62
   155
370
     5
100
AcDbLine
 10
794.193833
 20
669.0605730000001
 30
0.0
 11
756.193833
 21
669.0605730000001
 31
0.0
  0
LINE
  5
71
330
1F
100
AcDbEntity
  8
1
  6
Continuous
 62
   155
100
AcDbLine
 10
796.693833
 20
669.0605730000001
 30
0.0
 11
796.693833
 21
601.060573
 31
0.0
  0
LINE
  5
72
330
1F
100
AcDbEntity
  8
1
  6
Continuous
 62
   155
370
     5
100
AcDbLine
 10
796.693833
 20
669.0605730000001
 30
0.0
 11
794.193833
 21
669.0605730000001
 31
0.0
  0
LINE
  5
73
330
1F
100
AcDbEntity
  8
1
  6
Continuous
 62
   155
100
AcDbLine
 10
756.193833
 20
607.0473329999999
 30
0.0
 11
756.193833
 21
731.0738119999999
 31
0.0
  0
LINE
  5
74
330
1F
100
AcDbEntity
  8
1
  6
Continuous
 62
   155
100
AcDbLine
 10
640.693833
 20
788.060573
 30
0.0
 11
620.693833
 21
788.060573
 31
0.0
  0
LINE
  5
75
330
1F
100
AcDbEntity
  8
1
  6
Continuous
 62
   155
100
AcDbLine
 10
508.6938329999999
 20
731.0738119999999
 30
0.0
 11
508.6938329999999
 21
607.0473329999999
 31
0.0
  0
LINE
  5
76
330
1F
100
AcDbEntity
  8
1
  6
Continuous
 62
   155
100
AcDbLine
 10
794.193833
 20
669.0605730000001
 30
0.0
 11
794.193833
 21
594.265531
 31
0.0
  0
LINE
  5
77
330
1F
100
AcDbEntity
  8
1
  6
Continuous
 62
   155
100
AcDbLine
 10
650.693833
 20
767.560573
 30
0.0
 11
650.693833
 21
778.0605730000001
 31
0.0
  0
LINE
  5
78
330
1F
100
AcDbEntity
  8
1
  6
Continuous
 62
   155
100
AcDbLine
 10
756.193833
 20
731.0738119999999
 30
0.0
 11
706.693833
 21
731.0738119999999
 31
0.0
  0
LINE
  5
79
330
1F
100
AcDbEntity
  8
1
  6
Continuous
 62
   155
100
AcDbLine
 10
508.6938329999999
 20
744.0539059999999
 30
0.0
 11
706.693833
 21
744.0539059999999
 31
0.0
  0
LINE
  5
7A
330
1F
100
AcDbEntity
  8
1
  6
Continuous
 62
   155
100
AcDbLine
 10
510.693833
 20
788.060573
 30
0.0
 11
510.693833
 21
767.560573
 31
0.0
  0
LINE
  5
7B
330
1F
100
AcDbEntity
  8
1
  6
Continuous
 62
   155
100
AcDbLine
 10
620.693833
 20
788.060573
 30
0.0
 11
603.693833
 21
805.060573
 31
0.0
  0
LINE
  5
7C
330
1F
100
AcDbEntity
  8
1
  6
Continuous
 62
   155
100
AcDbLine
 10
510.693833
 20
788.060573
 30
0.0
 11
527.693833
 21
805.060573
 31
0.0
  0
LINE
  5
7D
330
1F
100
AcDbEntity
  8
1
  6
Continuous
 62
   155
100
AcDbLine
 10
603.693833
 20
805.060573
 30
0.0
 11
527.693833
 21
805.060573
 31
0.0
  0
LINE
  5
7E
330
1F
100
AcDbEntity
  8
1
  6
Continuous
 62
   155
100
AcDbLine
 10
510.693833
 20
788.060573
 30
0.0
 11
620.693833
 21
788.060573
 31
0.0
  0
LINE
  5
7F
330
1F
100
AcDbEntity
  8
1
  6
Continuous
 62
   155
100
AcDbLine
 10
756.193833
 20
574.0605730000001
 30
0.0
 11
794.193833
 21
594.265531
 31
0.0
  0
LINE
  5
80
330
1F
100
AcDbEntity
  8
1
  6
Continuous
 62
   155
100
AcDbLine
 10
794.193833
 20
601.060573
 30
0.0
 11
796.693833
 21
601.060573
 31
0.0
  0
LINE
  5
81
330
1F
100
AcDbEntity
  8
1
  6
Continuous
 62
   155
100
AcDbLine
 10
463.6938329999999
 20
683.0605730000001
 30
0.0
 11
403.6938329999999
 21
683.0605730000001
 31
0.0
  0
LINE
  5
82
330
1F
100
AcDbEntity
  8
1
  6
Continuous
 62
   155
100
AcDbLine
 10
469.193833
 20
579.0605730000001
 30
0.0
 11
508.6938329999999
 21
579.0605730000001
 31
0.0
  0
LINE
  5
83
330
1F
100
AcDbEntity
  8
1
  6
Continuous
 62
   155
100
AcDbLine
 10
469.193833
 20
669.0605730000001
 30
0.0
 11
469.193833
 21
759.060573
 31
0.0
  0
LINE
  5
84
330
1F
100
AcDbEntity
  8
1
  6
Continuous
 62
   155
370
     5
100
AcDbLine
 10
469.193833
 20
669.0605730000001
 30
0.0
 11
465.693833
 21
669.0605730000001
 31
0.0
  0
LINE
  5
85
330
1F
100
AcDbEntity
  8
1
  6
Continuous
 62
   155
370
     5
100
AcDbLine
 10
463.6938329999999
 20
669.0605730000001
 30
0.0
 11
403.6938329999999
 21
669.0605730000001
 31
0.0
  0
LINE
  5
86
330
1F
100
AcDbEntity
  8
1
  6
Continuous
 62
   155
100
AcDbLine
 10
403.6938329999999
 20
669.0605730000001
 30
0.0
 11
403.6938329999999
 21
683.0605730000001
 31
0.0
  0
LINE
  5
87
330
1F
100
AcDbEntity
  8
1
  6
Continuous
 62
   155
100
AcDbLine
 10
650.693833
 20
767.560573
 30
0.0
 11
706.693833
 21
767.560573
 31
0.0
  0
LINE
  5
88
330
1F
100
AcDbEntity
  8
1
  6
Continuous
 62
   155
100
AcDbLine
 10
465.693833
 20
669.0605730000001
 30
0.0
 11
465.693833
 21
694.5605730000001
 31
0.0
  0
LINE
  5
89
330
1F
100
AcDbEntity
  8
1
  6
Continuous
 62
   155
370
     5
100
AcDbLine
 10
508.6938329999999
 20
669.0605730000001
 30
0.0
 11
469.193833
 21
669.0605730000001
 31
0.0
  0
LINE
  5
8A
330
1F
100
AcDbEntity
  8
1
  6
Continuous
 62
   155
100
AcDbLine
 10
463.6938329999999
 20
669.0605730000001
 30
0.0
 11
463.6938329999999
 21
654.0605730000001
 31
0.0
  0
LINE
  5
8B
330
1F
100
AcDbEntity
  8
1
  6
Continuous
 62
   155
370
     5
100
AcDbLine
 10
463.6938329999999
 20
669.0605730000001
 30
0.0
 11
465.6938559999999
 21
669.0605730000001
 31
0.0
  0
LINE
  5
8C
330
1F
100
AcDbEntity
  8
1
  6
Continuous
 62
   155
100
AcDbLine
 10
796.693833
 20
669.0605730000001
 30
0.0
 11
796.693833
 21
737.0605730000001
 31
0.0
  0
LINE
  5
8D
330
1F
100
AcDbEntity
  8
1
  6
Continuous
 62
   155
100
AcDbLine
 10
794.193833
 20
669.0605730000001
 30
0.0
 11
794.193833
 21
743.8556139999999
 31
0.0
  0
LINE
  5
8E
330
1F
100
AcDbEntity
  8
1
  6
Continuous
 62
   155
100
AcDbLine
 10
469.193833
 20
669.0605730000001
 30
0.0
 11
469.193833
 21
579.0605730000001
 31
0.0
  0
LINE
  5
8F
330
1F
100
AcDbEntity
  8
1
  6
Continuous
 62
   155
100
AcDbLine
 10
508.6938329999999
 20
570.5605730000001
 30
0.0
 11
508.6938329999999
 21
594.0672400000001
 31
0.0
  0
LINE
  5
90
330
1F
100
AcDbEntity
  8
1
  6
Continuous
 62
   155
100
AcDbLine
 10
463.6938329999999
 20
669.0605730000001
 30
0.0
 11
463.6938329999999
 21
684.060573
 31
0.0
  0
LINE
  5
91
330
1F
100
AcDbEntity
  8
1
  6
Continuous
 62
   155
100
AcDbLine
 10
756.193833
 20
607.0473329999999
 30
0.0
 11
706.693833
 21
607.0473329999999
 31
0.0
  0
LINE
  5
92
330
1F
100
AcDbEntity
  8
1
  6
Continuous
 62
   155
100
AcDbLine
 10
508.6938329999999
 20
731.0738119999999
 30
0.0
 11
508.6938329999999
 21
744.0539059999999
 31
0.0
  0
LINE
  5
93
330
1F
100
AcDbEntity
  8
1
  6
Continuous
 62
   155
100
AcDbLine
 10
689.693833
 20
557.310573
 30
0.0
 11
689.693833
 21
569.310573
 31
0.0
  0
LINE
  5
94
330
1F
100
AcDbEntity
  8
1
  6
Continuous
 62
   155
100
AcDbLine
 10
706.693833
 20
607.0473329999999
 30
0.0
 11
508.6938329999999
 21
607.0473329999999
 31
0.0
  0
LINE
  5
95
330
1F
100
AcDbEntity
  8
1
  6
Continuous
 62
   155
100
AcDbLine
 10
706.693833
 20
607.0473329999999
 30
0.0
 11
706.693833
 21
570.5605730000001
 31
0.0
  0
LINE
  5
96
330
1F
100
AcDbEntity
  8
1
  6
Continuous
 62
   155
100
AcDbLine
 10
647.443833
 20
594.0672400000001
 30
0.0
 11
706.693833
 21
594.0672400000001
 31
0.0
  0
LINE
  5
97
330
1F
100
AcDbEntity
  8
1
  6
Continuous
 62
   155
100
AcDbLine
 10
403.6938329999999
 20
669.0605730000001
 30
0.0
 11
403.6938329999999
 21
655.060573
 31
0.0
  0
LINE
  5
98
330
1F
100
AcDbEntity
  8
1
  6
Continuous
 62
   155
100
AcDbLine
 10
508.6938329999999
 20
594.0672400000001
 30
0.0
 11
508.6938329999999
 21
607.0473329999999
 31
0.0
  0
LINE
  5
99
330
1F
100
AcDbEntity
  8
1
  6
Continuous
 62
   155
100
AcDbLine
 10
689.693833
 20
569.310573
 30
0.0
 11
517.693833
 21
569.310573
 31
0.0
  0
LINE
  5
9A
330
1F
100
AcDbEntity
  8
1
  6
Continuous
 62
   155
100
AcDbLine
 10
508.6938329999999
 20
744.0539059999999
 30
0.0
 11
508.6938329999999
 21
767.560573
 31
0.0
  0
LINE
  5
9B
330
1F
100
AcDbEntity
  8
1
  6
Continuous
 62
   155
100
AcDbLine
 10
548.693833
 20
557.310573
 30
0.0
 11
548.693833
 21
558.660573
 31
0.0
  0
LINE
  5
9C
330
1F
100
AcDbEntity
  8
1
  6
Continuous
 62
   155
100
AcDbLine
 10
508.6938329999999
 20
594.0672400000001
 30
0.0
 11
559.943833
 21
594.0672400000001
 31
0.0
  0
LINE
  5
9D
330
1F
100
AcDbEntity
  8
1
  6
Continuous
 62
   155
100
AcDbLine
 10
517.693833
 20
557.310573
 30
0.0
 11
548.693833
 21
557.310573
 31
0.0
  0
LINE
  5
9E
330
1F
100
AcDbEntity
  8
1
  6
Continuous
 62
   155
100
AcDbLine
 10
756.193833
 20
570.5605730000001
 30
0.0
 11
756.193833
 21
607.0473329999999
 31
0.0
  0
LINE
  5
9F
330
1F
100
AcDbEntity
  8
1
  6
Continuous
 62
   155
100
AcDbLine
 10
658.693833
 20
557.310573
 30
0.0
 11
658.693833
 21
558.660573
 31
0.0
  0
LINE
  5
A0
330
1F
100
AcDbEntity
  8
1
  6
Continuous
 62
   155
100
AcDbLine
 10
465.6938559999999
 20
684.060573
 30
0.0
 11
463.6938329999999
 21
684.060573
 31
0.0
  0
LINE
  5
A1
330
1F
100
AcDbEntity
  8
1
  6
Continuous
 62
   155
100
AcDbLine
 10
465.693833
 20
669.0605730000001
 30
0.0
 11
465.693833
 21
643.560573
 31
0.0
  0
LINE
  5
A2
330
1F
100
AcDbEntity
  8
1
  6
Continuous
 62
   155
100
AcDbLine
 10
796.693833
 20
737.0605730000001
 30
0.0
 11
794.193833
 21
737.0605730000001
 31
0.0
  0
LINE
  5
A3
330
1F
100
AcDbEntity
  8
1
  6
Continuous
 62
   155
100
AcDbLine
 10
465.693833
 20
643.560573
 30
0.0
 11
469.193833
 21
642.622751
 31
0.0
  0
LINE
  5
A4
330
1F
100
AcDbEntity
  8
1
  6
Continuous
 62
   155
100
AcDbLine
 10
508.6938329999999
 20
759.060573
 30
0.0
 11
469.193833
 21
759.060573
 31
0.0
  0
LINE
  5
A5
330
1F
100
AcDbEntity
  8
1
  6
Continuous
 62
   155
100
AcDbLine
 10
403.6938329999999
 20
655.060573
 30
0.0
 11
463.6938329999999
 21
655.060573
 31
0.0
  0
LINE
  5
A6
330
1F
100
AcDbEntity
  8
1
  6
Continuous
 62
   155
100
AcDbLine
 10
26.026432
 20
731.0738119999999
 30
0.0
 11
62.51319200000001
 21
767.560573
 31
0.0
  0
LINE
  5
A7
330
1F
100
AcDbEntity
  8
1
  6
Continuous
 62
   155
370
     5
100
AcDbLine
 10
142.282095
 20
805.060573
 30
0.0
 11
142.282095
 21
806.060573
 31
0.0
  0
LINE
  5
A8
330
1F
100
AcDbEntity
  8
1
  6
Continuous
 62
   155
100
AcDbLine
 10
148.582388
 20
805.060573
 30
0.0
 11
148.582388
 21
806.060573
 31
0.0
  0
LINE
  5
A9
330
1F
100
AcDbEntity
  8
1
  6
Continuous
 62
   155
100
AcDbLine
 10
140.406607
 20
805.060573
 30
0.0
 11
140.406607
 21
806.060573
 31
0.0
  0
LINE
  5
AA
330
1F
100
AcDbEntity
  8
1
  6
Continuous
 62
   155
100
AcDbLine
 10
125.975455
 20
806.060573
 30
0.0
 11
124.099966
 21
806.060573
 31
0.0
  0
LINE
  5
AB
330
1F
100
AcDbEntity
  8
1
  6
Continuous
 62
   155
100
AcDbLine
 10
132.275747
 20
805.060573
 30
0.0
 11
132.275747
 21
806.060573
 31
0.0
  0
LINE
  5
AC
330
1F
100
AcDbEntity
  8
1
  6
Continuous
 62
   155
100
AcDbLine
 10
124.099966
 20
805.060573
 30
0.0
 11
124.099966
 21
806.060573
 31
0.0
  0
LINE
  5
AD
330
1F
100
AcDbEntity
  8
1
  6
Continuous
 62
   155
370
     5
100
AcDbLine
 10
125.975455
 20
805.060573
 30
0.0
 11
125.975455
 21
806.060573
 31
0.0
  0
LINE
  5
AE
330
1F
100
AcDbEntity
  8
1
  6
Continuous
 62
   155
100
AcDbLine
 10
142.282095
 20
806.060573
 30
0.0
 11
140.406607
 21
806.060573
 31
0.0
  0
LINE
  5
AF
330
1F
100
AcDbEntity
  8
1
  6
Continuous
 62
   155
100
AcDbLine
 10
240.026432
 20
557.310573
 30
0.0
 11
199.026432
 21
557.310573
 31
0.0
  0
LINE
  5
B0
330
1F
100
AcDbEntity
  8
1
  6
Continuous
 62
   155
100
AcDbLine
 10
61.046065
 20
572.027293
 30
0.0
 11
50.026432
 21
558.660573
 31
0.0
  0
LINE
  5
B1
330
1F
100
AcDbEntity
  8
1
  6
Continuous
 62
   155
100
AcDbLine
 10
50.026432
 20
557.310573
 30
0.0
 11
50.026432
 21
569.310573
 31
0.0
  0
LINE
  5
B2
330
1F
100
AcDbEntity
  8
1
  6
Continuous
 62
   155
100
AcDbLine
 10
9.026432000000001
 20
557.310573
 30
0.0
 11
50.026432
 21
557.310573
 31
0.0
  0
LINE
  5
B3
330
1F
100
AcDbEntity
  8
1
  6
Continuous
 62
   155
100
AcDbLine
 10
50.026432
 20
569.310573
 30
0.0
 11
9.026432000000001
 21
569.310573
 31
0.0
  0
LINE
  5
B4
330
1F
100
AcDbEntity
  8
1
  6
Continuous
 62
   155
100
AcDbLine
 10
29.526432
 20
569.310573
 30
0.0
 11
43.394626
 21
589.6789889999999
 31
0.0
  0
LINE
  5
B5
330
1F
100
AcDbEntity
  8
1
  6
Continuous
 62
   155
100
AcDbLine
 10
105.906607
 20
805.060573
 30
0.0
 11
105.906607
 21
806.060573
 31
0.0
  0
LINE
  5
B6
330
1F
100
AcDbEntity
  8
1
  6
Continuous
 62
   155
100
AcDbLine
 10
110.937857
 20
806.060573
 30
0.0
 11
109.466666
 21
806.060573
 31
0.0
  0
LINE
  5
B7
330
1F
100
AcDbEntity
  8
1
  6
Continuous
 62
   155
100
AcDbLine
 10
109.466666
 20
806.060573
 30
0.0
 11
105.906607
 21
806.060573
 31
0.0
  0
LINE
  5
B8
330
1F
100
AcDbEntity
  8
1
  6
Continuous
 62
   155
100
AcDbLine
 10
139.979849
 20
806.060573
 30
0.0
 11
133.915396
 21
806.060573
 31
0.0
  0
LINE
  5
B9
330
1F
100
AcDbEntity
  8
1
  6
Continuous
 62
   155
100
AcDbLine
 10
100.471061
 20
806.060573
 30
0.0
 11
95.237662
 21
806.060573
 31
0.0
  0
LINE
  5
BA
330
1F
100
AcDbEntity
  8
1
  6
Continuous
 62
   155
100
AcDbLine
 10
117.608755
 20
805.060573
 30
0.0
 11
117.608755
 21
806.060573
 31
0.0
  0
LINE
  5
BB
330
1F
100
AcDbEntity
  8
1
  6
Continuous
 62
   155
100
AcDbLine
 10
105.50231
 20
805.060573
 30
0.0
 11
105.50231
 21
806.060573
 31
0.0
  0
LINE
  5
BC
330
1F
100
AcDbEntity
  8
1
  6
Continuous
 62
   155
100
AcDbLine
 10
101.942252
 20
805.060573
 30
0.0
 11
101.942252
 21
806.060573
 31
0.0
  0
LINE
  5
BD
330
1F
100
AcDbEntity
  8
1
  6
Continuous
 62
   155
100
AcDbLine
 10
100.471061
 20
805.060573
 30
0.0
 11
100.471061
 21
806.060573
 31
0.0
  0
LINE
  5
BE
330
1F
100
AcDbEntity
  8
1
  6
Continuous
 62
   155
100
AcDbLine
 10
116.171256
 20
805.060573
 30
0.0
 11
116.171256
 21
806.060573
 31
0.0
  0
LINE
  5
BF
330
1F
100
AcDbEntity
  8
1
  6
Continuous
 62
   155
100
AcDbLine
 10
109.466666
 20
805.060573
 30
0.0
 11
109.466666
 21
806.060573
 31
0.0
  0
LINE
  5
C0
330
1F
100
AcDbEntity
  8
1
  6
Continuous
 62
   155
100
AcDbLine
 10
116.171256
 20
806.060573
 30
0.0
 11
110.937857
 21
806.060573
 31
0.0
  0
LINE
  5
C1
330
1F
100
AcDbEntity
  8
1
  6
Continuous
 62
   155
100
AcDbLine
 10
123.673208
 20
806.060573
 30
0.0
 11
117.608755
 21
806.060573
 31
0.0
  0
LINE
  5
C2
330
1F
100
AcDbEntity
  8
1
  6
Continuous
 62
   155
100
AcDbLine
 10
110.937857
 20
805.060573
 30
0.0
 11
110.937857
 21
806.060573
 31
0.0
  0
LINE
  5
C3
330
1F
100
AcDbEntity
  8
1
  6
Continuous
 62
   155
100
AcDbLine
 10
139.979849
 20
805.060573
 30
0.0
 11
139.979849
 21
806.060573
 31
0.0
  0
LINE
  5
C4
330
1F
100
AcDbEntity
  8
1
  6
Continuous
 62
   155
100
AcDbLine
 10
133.915396
 20
805.060573
 30
0.0
 11
133.915396
 21
806.060573
 31
0.0
  0
LINE
  5
C5
330
1F
100
AcDbEntity
  8
1
  6
Continuous
 62
   155
100
AcDbLine
 10
95.237662
 20
805.060573
 30
0.0
 11
95.237662
 21
806.060573
 31
0.0
  0
LINE
  5
C6
330
1F
100
AcDbEntity
  8
1
  6
Continuous
 62
   155
100
AcDbLine
 10
105.50231
 20
806.060573
 30
0.0
 11
101.942252
 21
806.060573
 31
0.0
  0
LINE
  5
C7
330
1F
100
AcDbEntity
  8
1
  6
Continuous
 62
   155
100
AcDbLine
 10
101.942252
 20
806.060573
 30
0.0
 11
100.471061
 21
806.060573
 31
0.0
  0
LINE
  5
C8
330
1F
100
AcDbEntity
  8
1
  6
Continuous
 62
   155
100
AcDbLine
 10
123.673208
 20
805.060573
 30
0.0
 11
123.673208
 21
806.060573
 31
0.0
  0
LINE
  5
C9
330
1F
100
AcDbEntity
  8
1
  6
Continuous
 62
   155
100
AcDbLine
 10
223.026432
 20
607.0473329999999
 30
0.0
 11
186.539671
 21
570.5605730000001
 31
0.0
  0
LINE
  5
CA
330
1F
100
AcDbEntity
  8
1
  6
Continuous
 62
   155
370
     5
100
AcDbLine
 10
49.73139
 20
669.0605730000001
 30
0.0
 11
29.526432
 21
669.0605730000001
 31
0.0
  0
LINE
  5
CB
330
1F
100
AcDbEntity
  8
1
  6
Continuous
 62
   155
100
AcDbLine
 10
26.026432
 20
607.0473329999999
 30
0.0
 11
26.026432
 21
731.0738119999999
 31
0.0
  0
LINE
  5
CC
330
1F
100
AcDbEntity
  8
1
  6
Continuous
 62
   155
100
AcDbLine
 10
69.526432
 20
778.0605730000001
 30
0.0
 11
69.526432
 21
788.060573
 31
0.0
  0
LINE
  5
CD
330
1F
100
AcDbEntity
  8
1
  6
Continuous
 62
   155
100
AcDbLine
 10
69.526432
 20
767.560573
 30
0.0
 11
69.526432
 21
778.0605730000001
 31
0.0
  0
LINE
  5
CE
330
1F
100
AcDbEntity
  8
1
  6
Continuous
 62
   155
100
AcDbLine
 10
186.539671
 20
767.560573
 30
0.0
 11
223.026432
 21
731.0738119999999
 31
0.0
  0
LINE
  5
CF
330
1F
100
AcDbEntity
  8
1
  6
Continuous
 62
   155
100
AcDbLine
 10
223.026432
 20
731.0738119999999
 30
0.0
 11
223.026432
 21
607.0473329999999
 31
0.0
  0
LINE
  5
D0
330
1F
100
AcDbEntity
  8
1
  6
Continuous
 62
   155
100
AcDbLine
 10
69.526432
 20
788.060573
 30
0.0
 11
86.52643199999999
 21
805.060573
 31
0.0
  0
LINE
  5
D1
330
1F
100
AcDbEntity
  8
1
  6
Continuous
 62
   155
100
AcDbLine
 10
84.526432
 20
788.060573
 30
0.0
 11
164.526432
 21
788.060573
 31
0.0
  0
LINE
  5
D2
330
1F
100
AcDbEntity
  8
1
  6
Continuous
 62
   155
100
AcDbLine
 10
179.526432
 20
788.060573
 30
0.0
 11
162.526432
 21
805.060573
 31
0.0
  0
LINE
  5
D3
330
1F
100
AcDbEntity
  8
1
  6
Continuous
 62
   155
100
AcDbLine
 10
162.526432
 20
805.060573
 30
0.0
 11
86.52643199999999
 21
805.060573
 31
0.0
  0
LINE
  5
D4
330
1F
100
AcDbEntity
  8
1
  6
Continuous
 62
   155
100
AcDbLine
 10
84.526432
 20
767.560573
 30
0.0
 11
84.526432
 21
778.0605730000001
 31
0.0
  0
LINE
  5
D5
330
1F
100
AcDbEntity
  8
1
  6
Continuous
 62
   155
370
     5
100
AcDbLine
 10
179.526432
 20
778.0605730000001
 30
0.0
 11
164.526432
 21
778.0605730000001
 31
0.0
  0
LINE
  5
D6
330
1F
100
AcDbEntity
  8
1
  6
Continuous
 62
   155
370
     5
100
AcDbLine
 10
69.526432
 20
778.0605730000001
 30
0.0
 11
84.526432
 21
778.0605730000001
 31
0.0
  0
LINE
  5
D7
330
1F
100
AcDbEntity
  8
1
  6
Continuous
 62
   155
100
AcDbLine
 10
179.526432
 20
788.060573
 30
0.0
 11
164.526432
 21
788.060573
 31
0.0
  0
LINE
  5
D8
330
1F
100
AcDbEntity
  8
1
  6
Continuous
 62
   155
100
AcDbLine
 10
179.526432
 20
778.0605730000001
 30
0.0
 11
179.526432
 21
788.060573
 31
0.0
  0
LINE
  5
D9
330
1F
100
AcDbEntity
  8
1
  6
Continuous
 62
   155
100
AcDbLine
 10
62.51319200000001
 20
767.560573
 30
0.0
 11
186.539671
 21
767.560573
 31
0.0
  0
LINE
  5
DA
330
1F
100
AcDbEntity
  8
1
  6
Continuous
 62
   155
100
AcDbLine
 10
179.526432
 20
767.560573
 30
0.0
 11
179.526432
 21
778.0605730000001
 31
0.0
  0
LINE
  5
DB
330
1F
100
AcDbEntity
  8
1
  6
Continuous
 62
   155
370
     5
100
AcDbLine
 10
199.321473
 20
669.0605730000001
 30
0.0
 11
219.526432
 21
669.0605730000001
 31
0.0
  0
LINE
  5
DC
330
1F
100
AcDbEntity
  8
1
  6
Continuous
 62
   155
100
AcDbLine
 10
164.526432
 20
778.0605730000001
 30
0.0
 11
164.526432
 21
788.060573
 31
0.0
  0
LINE
  5
DD
330
1F
100
AcDbEntity
  8
1
  6
Continuous
 62
   155
100
AcDbLine
 10
84.526432
 20
778.0605730000001
 30
0.0
 11
84.526432
 21
788.060573
 31
0.0
  0
LINE
  5
DE
330
1F
100
AcDbEntity
  8
1
  6
Continuous
 62
   155
100
AcDbLine
 10
164.526432
 20
767.560573
 30
0.0
 11
164.526432
 21
778.0605730000001
 31
0.0
  0
LINE
  5
DF
330
1F
100
AcDbEntity
  8
1
  6
Continuous
 62
   155
100
AcDbLine
 10
69.526432
 20
788.060573
 30
0.0
 11
84.526432
 21
788.060573
 31
0.0
  0
LINE
  5
E0
330
1F
100
AcDbEntity
  8
1
  6
Continuous
 62
   155
100
AcDbLine
 10
199.026432
 20
569.310573
 30
0.0
 11
240.026432
 21
569.310573
 31
0.0
  0
LINE
  5
E1
330
1F
100
AcDbEntity
  8
1
  6
Continuous
 62
   155
100
AcDbLine
 10
188.006799
 20
572.027293
 30
0.0
 11
199.026432
 21
558.660573
 31
0.0
  0
LINE
  5
E2
330
1F
100
AcDbEntity
  8
1
  6
Continuous
 62
   155
100
AcDbLine
 10
199.026432
 20
557.310573
 30
0.0
 11
199.026432
 21
569.310573
 31
0.0
  0
LINE
  5
E3
330
1F
100
AcDbEntity
  8
1
  6
Continuous
 62
   155
100
AcDbLine
 10
219.526432
 20
569.310573
 30
0.0
 11
205.658237
 21
589.6789889999999
 31
0.0
  0
LINE
  5
E4
330
1F
100
AcDbEntity
  8
1
  6
Continuous
 62
   155
100
AcDbLine
 10
240.026432
 20
557.310573
 30
0.0
 11
240.026432
 21
569.310573
 31
0.0
  0
LINE
  5
E5
330
1F
100
AcDbEntity
  8
1
  6
Continuous
 62
   155
100
AcDbLine
 10
9.026432000000001
 20
557.310573
 30
0.0
 11
9.026432000000001
 21
569.310573
 31
0.0
  0
LINE
  5
E6
330
1F
100
AcDbEntity
  8
1
  6
Continuous
 62
   155
100
AcDbLine
 10
186.539671
 20
570.5605730000001
 30
0.0
 11
62.51319200000001
 21
570.5605730000001
 31
0.0
  0
LINE
  5
E7
330
1F
100
AcDbEntity
  8
1
  6
Continuous
 62
   155
100
AcDbLine
 10
62.51319200000001
 20
570.5605730000001
 30
0.0
 11
26.026432
 21
607.0473329999999
 31
0.0
  0
LINE
  5
E8
330
1F
100
AcDbEntity
  8
1
  6
Continuous
 62
   155
100
AcDbLine
 10
1067.100573
 20
805.060573
 30
0.0
 11
1067.100573
 21
806.060573
 31
0.0
  0
LINE
  5
E9
330
1F
100
AcDbEntity
  8
1
  6
Continuous
 62
   155
100
AcDbLine
 10
1131.489537
 20
570.5605730000001
 30
0.0
 11
1021.489537
 21
570.5605730000001
 31
0.0
  0
LINE
  5
EA
330
1F
100
AcDbEntity
  8
1
  6
Continuous
 62
   155
100
AcDbLine
 10
1138.502777
 20
767.560573
 30
0.0
 11
1174.989537
 21
731.0738119999999
 31
0.0
  0
LINE
  5
EB
330
1F
100
AcDbEntity
  8
1
  6
Continuous
 62
   155
100
AcDbLine
 10
1061.03612
 20
805.060573
 30
0.0
 11
1061.03612
 21
806.060573
 31
0.0
  0
LINE
  5
EC
330
1F
100
AcDbEntity
  8
1
  6
Continuous
 62
   155
100
AcDbLine
 10
1088.58446
 20
805.060573
 30
0.0
 11
1088.58446
 21
806.060573
 31
0.0
  0
LINE
  5
ED
330
1F
100
AcDbEntity
  8
1
  6
Continuous
 62
   155
100
AcDbLine
 10
1092.17821
 20
806.060573
 30
0.0
 11
1088.58446
 21
806.060573
 31
0.0
  0
LINE
  5
EE
330
1F
100
AcDbEntity
  8
1
  6
Continuous
 62
   155
100
AcDbLine
 10
1095.109362
 20
805.060573
 30
0.0
 11
1095.109362
 21
806.060573
 31
0.0
  0
LINE
  5
EF
330
1F
100
AcDbEntity
  8
1
  6
Continuous
 62
   155
100
AcDbLine
 10
1083.407214
 20
806.060573
 30
0.0
 11
1077.342761
 21
806.060573
 31
0.0
  0
LINE
  5
F0
330
1F
100
AcDbEntity
  8
1
  6
Continuous
 62
   155
100
AcDbLine
 10
1138.502777
 20
570.5605730000001
 30
0.0
 11
1131.489537
 21
570.5605730000001
 31
0.0
  0
LINE
  5
F1
330
1F
100
AcDbEntity
  8
1
  6
Continuous
 62
   155
100
AcDbLine
 10
1052.433582
 20
805.060573
 30
0.0
 11
1052.433582
 21
806.060573
 31
0.0
  0
LINE
  5
F2
330
1F
100
AcDbEntity
  8
1
  6
Continuous
 62
   155
100
AcDbLine
 10
1053.871081
 20
805.060573
 30
0.0
 11
1053.871081
 21
806.060573
 31
0.0
  0
LINE
  5
F3
330
1F
100
AcDbEntity
  8
1
  6
Continuous
 62
   155
100
AcDbLine
 10
1077.342761
 20
805.060573
 30
0.0
 11
1077.342761
 21
806.060573
 31
0.0
  0
LINE
  5
F4
330
1F
100
AcDbEntity
  8
1
  6
Continuous
 62
   155
100
AcDbLine
 10
1067.100573
 20
806.060573
 30
0.0
 11
1061.03612
 21
806.060573
 31
0.0
  0
LINE
  5
F5
330
1F
100
AcDbEntity
  8
1
  6
Continuous
 62
   155
100
AcDbLine
 10
1068.740222
 20
805.060573
 30
0.0
 11
1068.740222
 21
806.060573
 31
0.0
  0
LINE
  5
F6
330
1F
100
AcDbEntity
  8
1
  6
Continuous
 62
   155
100
AcDbLine
 10
1021.489537
 20
767.560573
 30
0.0
 11
1131.489537
 21
767.560573
 31
0.0
  0
LINE
  5
F7
330
1F
100
AcDbEntity
  8
1
  6
Continuous
 62
   155
100
AcDbLine
 10
1083.407214
 20
805.060573
 30
0.0
 11
1083.407214
 21
806.060573
 31
0.0
  0
LINE
  5
F8
330
1F
100
AcDbEntity
  8
1
  6
Continuous
 62
   155
100
AcDbLine
 10
1095.109362
 20
806.060573
 30
0.0
 11
1092.17821
 21
806.060573
 31
0.0
  0
LINE
  5
F9
330
1F
100
AcDbEntity
  8
1
  6
Continuous
 62
   155
100
AcDbLine
 10
1070.226258
 20
806.060573
 30
0.0
 11
1070.177722
 21
806.060573
 31
0.0
  0
LINE
  5
FA
330
1F
100
AcDbEntity
  8
1
  6
Continuous
 62
   155
100
AcDbLine
 10
1053.919618
 20
806.060573
 30
0.0
 11
1053.871081
 21
806.060573
 31
0.0
  0
LINE
  5
FB
330
1F
100
AcDbEntity
  8
1
  6
Continuous
 62
   155
100
AcDbLine
 10
1070.177722
 20
805.060573
 30
0.0
 11
1070.177722
 21
806.060573
 31
0.0
  0
LINE
  5
FC
330
1F
100
AcDbEntity
  8
1
  6
Continuous
 62
   155
100
AcDbLine
 10
1150.989537
 20
557.310573
 30
0.0
 11
1150.989537
 21
569.310573
 31
0.0
  0
LINE
  5
FD
330
1F
100
AcDbEntity
  8
1
  6
Continuous
 62
   155
100
AcDbLine
 10
1150.989537
 20
557.310573
 30
0.0
 11
1191.989537
 21
557.310573
 31
0.0
  0
LINE
  5
FE
330
1F
100
AcDbEntity
  8
1
  6
Continuous
 62
   155
100
AcDbLine
 10
1145.795801
 20
607.0473329999999
 30
0.0
 11
1171.489537
 21
569.310573
 31
0.0
  0
LINE
  5
FF
330
1F
100
AcDbEntity
  8
1
  6
Continuous
 62
   155
100
AcDbLine
 10
1191.989537
 20
569.310573
 30
0.0
 11
1150.989537
 21
569.310573
 31
0.0
  0
LINE
  5
100
330
1F
100
AcDbEntity
  8
1
  6
Continuous
 62
   155
100
AcDbLine
 10
1150.989537
 20
558.660573
 30
0.0
 11
1131.489537
 21
582.3139059999999
 31
0.0
  0
LINE
  5
101
330
1F
100
AcDbEntity
  8
1
  6
Continuous
 62
   155
100
AcDbLine
 10
1191.989537
 20
557.310573
 30
0.0
 11
1191.989537
 21
569.310573
 31
0.0
  0
LINE
  5
102
330
1F
100
AcDbEntity
  8
1
  6
Continuous
 62
   155
100
AcDbLine
 10
1095.513659
 20
805.060573
 30
0.0
 11
1095.513659
 21
806.060573
 31
0.0
  0
LINE
  5
103
330
1F
100
AcDbEntity
  8
1
  6
Continuous
 62
   155
100
AcDbLine
 10
1088.438464
 20
805.060573
 30
0.0
 11
1088.438464
 21
806.060573
 31
0.0
  0
LINE
  5
104
330
1F
100
AcDbEntity
  8
1
  6
Continuous
 62
   155
100
AcDbLine
 10
1102.038561
 20
806.060573
 30
0.0
 11
1098.444811
 21
806.060573
 31
0.0
  0
LINE
  5
105
330
1F
100
AcDbEntity
  8
1
  6
Continuous
 62
   155
100
AcDbLine
 10
1098.444811
 20
806.060573
 30
0.0
 11
1095.513659
 21
806.060573
 31
0.0
  0
LINE
  5
106
330
1F
100
AcDbEntity
  8
1
  6
Continuous
 62
   155
100
AcDbLine
 10
1070.323718
 20
805.060573
 30
0.0
 11
1070.323718
 21
806.060573
 31
0.0
  0
LINE
  5
107
330
1F
100
AcDbEntity
  8
1
  6
Continuous
 62
   155
100
AcDbLine
 10
1084.844714
 20
805.060573
 30
0.0
 11
1084.844714
 21
806.060573
 31
0.0
  0
LINE
  5
108
330
1F
100
AcDbEntity
  8
1
  6
Continuous
 62
   155
100
AcDbLine
 10
1054.017078
 20
805.060573
 30
0.0
 11
1054.017078
 21
806.060573
 31
0.0
  0
LINE
  5
109
330
1F
100
AcDbEntity
  8
1
  6
Continuous
 62
   155
100
AcDbLine
 10
1076.916003
 20
805.060573
 30
0.0
 11
1076.916003
 21
806.060573
 31
0.0
  0
LINE
  5
10A
330
1F
100
AcDbEntity
  8
1
  6
Continuous
 62
   155
100
AcDbLine
 10
1102.038561
 20
805.060573
 30
0.0
 11
1102.038561
 21
806.060573
 31
0.0
  0
LINE
  5
10B
330
1F
100
AcDbEntity
  8
1
  6
Continuous
 62
   155
100
AcDbLine
 10
1098.444811
 20
805.060573
 30
0.0
 11
1098.444811
 21
806.060573
 31
0.0
  0
LINE
  5
10C
330
1F
100
AcDbEntity
  8
1
  6
Continuous
 62
   155
100
AcDbLine
 10
1102.184557
 20
805.060573
 30
0.0
 11
1102.184557
 21
806.060573
 31
0.0
  0
LINE
  5
10D
330
1F
100
AcDbEntity
  8
1
  6
Continuous
 62
   155
100
AcDbLine
 10
1102.184557
 20
806.060573
 30
0.0
 11
1102.038527
 21
806.060573
 31
0.0
  0
LINE
  5
10E
330
1F
100
AcDbEntity
  8
1
  6
Continuous
 62
   155
100
AcDbLine
 10
1105.778307
 20
805.060573
 30
0.0
 11
1105.778307
 21
806.060573
 31
0.0
  0
LINE
  5
10F
330
1F
100
AcDbEntity
  8
1
  6
Continuous
 62
   155
370
     5
100
AcDbLine
 10
1075.040515
 20
805.060573
 30
0.0
 11
1075.040515
 21
806.060573
 31
0.0
  0
LINE
  5
110
330
1F
100
AcDbEntity
  8
1
  6
Continuous
 62
   155
100
AcDbLine
 10
1105.778307
 20
806.060573
 30
0.0
 11
1102.184557
 21
806.060573
 31
0.0
  0
LINE
  5
111
330
1F
100
AcDbEntity
  8
1
  6
Continuous
 62
   155
100
AcDbLine
 10
1076.916003
 20
806.060573
 30
0.0
 11
1075.040515
 21
806.060573
 31
0.0
  0
LINE
  5
112
330
1F
100
AcDbEntity
  8
1
  6
Continuous
 62
   155
100
AcDbLine
 10
1088.438464
 20
806.060573
 30
0.0
 11
1084.844714
 21
806.060573
 31
0.0
  0
LINE
  5
113
330
1F
100
AcDbEntity
  8
1
  6
Continuous
 62
   155
100
AcDbLine
 10
1092.17821
 20
805.060573
 30
0.0
 11
1092.17821
 21
806.060573
 31
0.0
  0
LINE
  5
114
330
1F
100
AcDbEntity
  8
1
  6
Continuous
 62
   155
100
AcDbLine
 10
1088.584494
 20
806.060573
 30
0.0
 11
1088.438464
 21
806.060573
 31
0.0
  0
LINE
  5
115
330
1F
100
AcDbEntity
  8
1
  6
Continuous
 62
   155
100
AcDbLine
 10
1174.989537
 20
731.0738119999999
 30
0.0
 11
1174.989537
 21
607.0473329999999
 31
0.0
  0
LINE
  5
116
330
1F
100
AcDbEntity
  8
1
  6
Continuous
 62
   155
100
AcDbLine
 10
977.989537
 20
731.0738119999999
 30
0.0
 11
1014.476298
 21
767.560573
 31
0.0
  0
LINE
  5
117
330
1F
100
AcDbEntity
  8
1
  6
Continuous
 62
   155
370
     5
100
AcDbLine
 10
1050.051715
 20
669.0605730000001
 30
0.0
 11
1050.989537
 21
669.0605730000001
 31
0.0
  0
LINE
  5
118
330
1F
100
AcDbEntity
  8
1
  6
Continuous
 62
   155
100
AcDbLine
 10
977.989537
 20
607.0473329999999
 30
0.0
 11
977.989537
 21
731.0738119999999
 31
0.0
  0
LINE
  5
119
330
1F
100
AcDbEntity
  8
1
  6
Continuous
 62
   155
100
AcDbLine
 10
1021.489537
 20
788.060573
 30
0.0
 11
1021.489537
 21
767.560573
 31
0.0
  0
LINE
  5
11A
330
1F
100
AcDbEntity
  8
1
  6
Continuous
 62
   155
100
AcDbLine
 10
1014.476298
 20
570.5605730000001
 30
0.0
 11
1013.008846
 21
572.028025
 31
0.0
  0
LINE
  5
11B
330
1F
100
AcDbEntity
  8
1
  6
Continuous
 62
   155
100
AcDbLine
 10
995.3578060000001
 20
589.679065
 30
0.0
 11
977.989537
 21
607.0473329999999
 31
0.0
  0
LINE
  5
11C
330
1F
100
AcDbEntity
  8
1
  6
Continuous
 62
   155
100
AcDbLine
 10
1131.489537
 20
788.060573
 30
0.0
 11
1131.489537
 21
767.560573
 31
0.0
  0
LINE
  5
11D
330
1F
100
AcDbEntity
  8
1
  6
Continuous
 62
   155
370
     5
100
AcDbLine
 10
1058.733874
 20
805.060573
 30
0.0
 11
1058.733874
 21
806.060573
 31
0.0
  0
LINE
  5
11E
330
1F
100
AcDbEntity
  8
1
  6
Continuous
 62
   155
100
AcDbLine
 10
1021.489537
 20
788.060573
 30
0.0
 11
1038.489537
 21
805.060573
 31
0.0
  0
LINE
  5
11F
330
1F
100
AcDbEntity
  8
1
  6
Continuous
 62
   155
100
AcDbLine
 10
1060.609363
 20
805.060573
 30
0.0
 11
1060.609363
 21
806.060573
 31
0.0
  0
LINE
  5
120
330
1F
100
AcDbEntity
  8
1
  6
Continuous
 62
   155
100
AcDbLine
 10
1114.489537
 20
805.060573
 30
0.0
 11
1038.489537
 21
805.060573
 31
0.0
  0
LINE
  5
121
330
1F
100
AcDbEntity
  8
1
  6
Continuous
 62
   155
100
AcDbLine
 10
1131.489537
 20
788.060573
 30
0.0
 11
1114.489537
 21
805.060573
 31
0.0
  0
LINE
  5
122
330
1F
100
AcDbEntity
  8
1
  6
Continuous
 62
   155
100
AcDbLine
 10
1021.489537
 20
788.060573
 30
0.0
 11
1131.489537
 21
788.060573
 31
0.0
  0
LINE
  5
123
330
1F
100
AcDbEntity
  8
1
  6
Continuous
 62
   155
100
AcDbLine
 10
1060.609363
 20
806.060573
 30
0.0
 11
1058.733874
 21
806.060573
 31
0.0
  0
LINE
  5
124
330
1F
100
AcDbEntity
  8
1
  6
Continuous
 62
   155
100
AcDbLine
 10
1014.476298
 20
767.560573
 30
0.0
 11
1021.489537
 21
767.560573
 31
0.0
  0
LINE
  5
125
330
1F
100
AcDbEntity
  8
1
  6
Continuous
 62
   155
370
     5
100
AcDbLine
 10
1102.92736
 20
669.0605730000001
 30
0.0
 11
1101.989537
 21
669.0605730000001
 31
0.0
  0
LINE
  5
126
330
1F
100
AcDbEntity
  8
1
  6
Continuous
 62
   155
100
AcDbLine
 10
1131.489537
 20
767.560573
 30
0.0
 11
1138.502777
 21
767.560573
 31
0.0
  0
LINE
  5
127
330
1F
100
AcDbEntity
  8
1
  6
Continuous
 62
   155
100
AcDbLine
 10
1001.989537
 20
558.660573
 30
0.0
 11
1021.489537
 21
582.3139059999999
 31
0.0
  0
LINE
  5
128
330
1F
100
AcDbEntity
  8
1
  6
Continuous
 62
   155
100
AcDbLine
 10
1001.989537
 20
557.310573
 30
0.0
 11
1001.989537
 21
569.310573
 31
0.0
  0
LINE
  5
129
330
1F
100
AcDbEntity
  8
1
  6
Continuous
 62
   155
100
AcDbLine
 10
960.989537
 20
569.310573
 30
0.0
 11
1001.989537
 21
569.310573
 31
0.0
  0
LINE
  5
12A
330
1F
100
AcDbEntity
  8
1
  6
Continuous
 62
   155
100
AcDbLine
 10
960.989537
 20
557.310573
 30
0.0
 11
960.989537
 21
569.310573
 31
0.0
  0
LINE
  5
12B
330
1F
100
AcDbEntity
  8
1
  6
Continuous
 62
   155
100
AcDbLine
 10
1007.183274
 20
607.0473329999999
 30
0.0
 11
981.489537
 21
569.310573
 31
0.0
  0
LINE
  5
12C
330
1F
100
AcDbEntity
  8
1
  6
Continuous
 62
   155
100
AcDbLine
 10
1001.989537
 20
557.310573
 30
0.0
 11
960.989537
 21
557.310573
 31
0.0
  0
LINE
  5
12D
330
1F
100
AcDbEntity
  8
1
  6
Continuous
 62
   155
100
AcDbLine
 10
1131.489537
 20
570.5605730000001
 30
0.0
 11
1131.489537
 21
594.0672400000001
 31
0.0
  0
LINE
  5
12E
330
1F
100
AcDbEntity
  8
1
  6
Continuous
 62
   155
100
AcDbLine
 10
1174.989537
 20
731.0738119999999
 30
0.0
 11
1145.795801
 21
731.0738119999999
 31
0.0
  0
LINE
  5
12F
330
1F
100
AcDbEntity
  8
1
  6
Continuous
 62
   155
100
AcDbLine
 10
1174.989537
 20
607.0473329999999
 30
0.0
 11
1157.621269
 21
589.679065
 31
0.0
  0
LINE
  5
130
330
1F
100
AcDbEntity
  8
1
  6
Continuous
 62
   155
100
AcDbLine
 10
1139.970229
 20
572.028025
 30
0.0
 11
1138.502777
 21
570.5605730000001
 31
0.0
  0
LINE
  5
131
330
1F
100
AcDbEntity
  8
1
  6
Continuous
 62
   155
100
AcDbLine
 10
977.989537
 20
607.0473329999999
 30
0.0
 11
1007.183274
 21
607.0473329999999
 31
0.0
  0
LINE
  5
132
330
1F
100
AcDbEntity
  8
1
  6
Continuous
 62
   155
100
AcDbLine
 10
1007.183274
 20
731.0738119999999
 30
0.0
 11
977.989537
 21
731.0738119999999
 31
0.0
  0
LINE
  5
133
330
1F
100
AcDbEntity
  8
1
  6
Continuous
 62
   155
100
AcDbLine
 10
1021.489537
 20
570.5605730000001
 30
0.0
 11
1014.476298
 21
570.5605730000001
 31
0.0
  0
LINE
  5
134
330
1F
100
AcDbEntity
  8
1
  6
Continuous
 62
   155
100
AcDbLine
 10
1131.489537
 20
744.0539059999999
 30
0.0
 11
1131.489537
 21
767.560573
 31
0.0
  0
LINE
  5
135
330
1F
100
AcDbEntity
  8
1
  6
Continuous
 62
   155
100
AcDbLine
 10
1021.489537
 20
594.0672400000001
 30
0.0
 11
1021.489537
 21
570.5605730000001
 31
0.0
  0
LINE
  5
136
330
1F
100
AcDbEntity
  8
1
  6
Continuous
 62
   155
100
AcDbLine
 10
1145.795801
 20
607.0473329999999
 30
0.0
 11
1174.989537
 21
607.0473329999999
 31
0.0
  0
LINE
  5
137
330
1F
100
AcDbEntity
  8
1
  6
Continuous
 62
   155
100
AcDbLine
 10
1021.489537
 20
767.560573
 30
0.0
 11
1021.489537
 21
744.0539059999999
 31
0.0
  0
LINE
  5
138
330
1F
100
AcDbEntity
  8
1
  6
Continuous
 62
   155
100
AcDbLine
 10
566.489353
 20
283.0370869999999
 30
0.0
 11
566.489353
 21
272.772439
 31
0.0
  0
LINE
  5
139
330
1F
100
AcDbEntity
  8
1
  6
Continuous
 62
   155
100
AcDbLine
 10
555.2476539999999
 20
272.772439
 30
0.0
 11
548.7227520000001
 21
272.772439
 31
0.0
  0
LINE
  5
13A
330
1F
100
AcDbEntity
  8
1
  6
Continuous
 62
   155
100
AcDbLine
 10
560.4249000000001
 20
272.772439
 30
0.0
 11
560.4249000000001
 21
283.0370869999999
 31
0.0
  0
LINE
  5
13B
330
1F
100
AcDbEntity
  8
1
  6
Continuous
 62
   155
100
AcDbLine
 10
566.489353
 20
272.772439
 30
0.0
 11
560.4249000000001
 21
272.772439
 31
0.0
  0
LINE
  5
13C
330
1F
100
AcDbEntity
  8
1
  6
Continuous
 62
   155
100
AcDbLine
 10
508.6938329999999
 20
342.527629
 30
0.0
 11
706.693833
 21
342.527629
 31
0.0
  0
LINE
  5
13D
330
1F
100
AcDbEntity
  8
1
  6
Continuous
 62
   155
100
AcDbLine
 10
756.193833
 20
211.208126
 30
0.0
 11
706.693833
 21
211.208126
 31
0.0
  0
LINE
  5
13E
330
1F
100
AcDbEntity
  8
1
  6
Continuous
 62
   155
100
AcDbLine
 10
582.795994
 20
272.772439
 30
0.0
 11
576.7315410000001
 21
272.772439
 31
0.0
  0
LINE
  5
13F
330
1F
100
AcDbEntity
  8
1
  6
Continuous
 62
   155
100
AcDbLine
 10
706.693833
 20
211.208126
 30
0.0
 11
706.693833
 21
174.721366
 31
0.0
  0
LINE
  5
140
330
1F
100
AcDbEntity
  8
1
  6
Continuous
 62
   155
100
AcDbLine
 10
756.193833
 20
174.721366
 30
0.0
 11
756.193833
 21
211.208126
 31
0.0
  0
LINE
  5
141
330
1F
100
AcDbEntity
  8
1
  6
Continuous
 62
   155
100
AcDbLine
 10
706.693833
 20
371.721366
 30
0.0
 11
508.6938329999999
 21
371.721366
 31
0.0
  0
LINE
  5
142
330
1F
100
AcDbEntity
  8
1
  6
Continuous
 62
   155
100
AcDbLine
 10
508.6938329999999
 20
203.915102
 30
0.0
 11
706.693833
 21
203.915102
 31
0.0
  0
LINE
  5
143
330
1F
100
AcDbEntity
  8
1
  6
Continuous
 62
   155
100
AcDbLine
 10
551.653904
 20
283.0370869999999
 30
0.0
 11
555.2476539999999
 21
272.772439
 31
0.0
  0
LINE
  5
144
330
1F
100
AcDbEntity
  8
1
  6
Continuous
 62
   155
100
AcDbLine
 10
560.4249000000001
 20
283.0370869999999
 30
0.0
 11
566.489353
 21
283.0370869999999
 31
0.0
  0
LINE
  5
145
330
1F
100
AcDbEntity
  8
1
  6
Continuous
 62
   155
100
AcDbLine
 10
583.222751
 20
262.1034939999999
 30
0.0
 11
583.222751
 21
272.3681419999999
 31
0.0
  0
LINE
  5
146
330
1F
100
AcDbEntity
  8
1
  6
Continuous
 62
   155
100
AcDbLine
 10
510.693833
 20
328.221366
 30
0.0
 11
508.6938329999999
 21
328.221366
 31
0.0
  0
LINE
  5
147
330
1F
100
AcDbEntity
  8
1
  6
Continuous
 62
   155
100
AcDbLine
 10
568.7915990000001
 20
262.1034939999999
 30
0.0
 11
566.916111
 21
262.1034939999999
 31
0.0
  0
LINE
  5
148
330
1F
100
AcDbEntity
  8
1
  6
Continuous
 62
   155
100
AcDbLine
 10
576.7315410000001
 20
283.0370869999999
 30
0.0
 11
582.795994
 21
283.0370869999999
 31
0.0
  0
LINE
  5
149
330
1F
100
AcDbEntity
  8
1
  6
Continuous
 62
   155
100
AcDbLine
 10
548.7227520000001
 20
272.772439
 30
0.0
 11
548.7227520000001
 21
283.0370869999999
 31
0.0
  0
LINE
  5
14A
330
1F
100
AcDbEntity
  8
1
  6
Continuous
 62
   155
100
AcDbLine
 10
582.795994
 20
283.0370869999999
 30
0.0
 11
582.795994
 21
272.772439
 31
0.0
  0
LINE
  5
14B
330
1F
100
AcDbEntity
  8
1
  6
Continuous
 62
   155
100
AcDbLine
 10
508.6938329999999
 20
328.221366
 30
0.0
 11
508.6938329999999
 21
218.221366
 31
0.0
  0
LINE
  5
14C
330
1F
100
AcDbEntity
  8
1
  6
Continuous
 62
   155
100
AcDbLine
 10
576.7315410000001
 20
272.772439
 30
0.0
 11
576.7315410000001
 21
283.0370869999999
 31
0.0
  0
LINE
  5
14D
330
1F
100
AcDbEntity
  8
1
  6
Continuous
 62
   155
100
AcDbLine
 10
585.09824
 20
262.1034939999999
 30
0.0
 11
583.222751
 21
262.1034939999999
 31
0.0
  0
LINE
  5
14E
330
1F
100
AcDbEntity
  8
1
  6
Continuous
 62
   155
100
AcDbLine
 10
566.916111
 20
262.1034939999999
 30
0.0
 11
566.916111
 21
272.3681419999999
 31
0.0
  0
LINE
  5
14F
330
1F
100
AcDbEntity
  8
1
  6
Continuous
 62
   155
100
AcDbLine
 10
508.6938329999999
 20
218.221366
 30
0.0
 11
510.693833
 21
218.221366
 31
0.0
  0
LINE
  5
150
330
1F
100
AcDbEntity
  8
1
  6
Continuous
 62
   155
100
AcDbLine
 10
548.7227520000001
 20
283.0370869999999
 30
0.0
 11
551.653904
 21
283.0370869999999
 31
0.0
  0
LINE
  5
151
330
1F
100
AcDbEntity
  8
1
  6
Continuous
 62
   155
100
AcDbLine
 10
566.916111
 20
272.3681419999999
 30
0.0
 11
573.6543920000001
 21
272.3681419999999
 31
0.0
  0
LINE
  5
152
330
1F
100
AcDbEntity
  8
1
  6
Continuous
 62
   155
100
AcDbLine
 10
583.222751
 20
272.3681419999999
 30
0.0
 11
589.961033
 21
272.3681419999999
 31
0.0
  0
LINE
  5
153
330
1F
100
AcDbEntity
  8
1
  6
Continuous
 62
   155
100
AcDbLine
 10
517.693833
 20
157.721366
 30
0.0
 11
517.693833
 21
174.721631
 31
0.0
  0
LINE
  5
154
330
1F
100
AcDbEntity
  8
1
  6
Continuous
 62
   155
100
AcDbLine
 10
689.693833
 20
174.721631
 30
0.0
 11
689.693833
 21
157.721366
 31
0.0
  0
LINE
  5
155
330
1F
100
AcDbEntity
  8
1
  6
Continuous
 62
   155
100
AcDbLine
 10
566.916111
 20
272.772439
 30
0.0
 11
566.916111
 21
283.0370869999999
 31
0.0
  0
LINE
  5
156
330
1F
100
AcDbEntity
  8
1
  6
Continuous
 62
   155
100
AcDbLine
 10
576.7315410000001
 20
272.3681419999999
 30
0.0
 11
582.795994
 21
272.3681419999999
 31
0.0
  0
LINE
  5
157
330
1F
100
AcDbEntity
  8
1
  6
Continuous
 62
   155
100
AcDbLine
 10
553.7540020000001
 20
262.1034939999999
 30
0.0
 11
552.282811
 21
266.303689
 31
0.0
  0
LINE
  5
158
330
1F
100
AcDbEntity
  8
1
  6
Continuous
 62
   155
100
AcDbLine
 10
548.7227520000001
 20
266.303689
 30
0.0
 11
548.7227520000001
 21
272.3681419999999
 31
0.0
  0
LINE
  5
159
330
1F
100
AcDbEntity
  8
1
  6
Continuous
 62
   155
100
AcDbLine
 10
552.282811
 20
266.303689
 30
0.0
 11
548.7227520000001
 21
266.303689
 31
0.0
  0
LINE
  5
15A
330
1F
100
AcDbEntity
  8
1
  6
Continuous
 62
   155
100
AcDbLine
 10
541.7935530000001
 20
272.772439
 30
0.0
 11
545.3873030000001
 21
283.0370869999999
 31
0.0
  0
LINE
  5
15B
330
1F
100
AcDbEntity
  8
1
  6
Continuous
 62
   155
100
AcDbLine
 10
582.795994
 20
262.1034939999999
 30
0.0
 11
576.7315410000001
 21
262.1034939999999
 31
0.0
  0
LINE
  5
15C
330
1F
100
AcDbEntity
  8
1
  6
Continuous
 62
   155
100
AcDbLine
 10
545.3873030000001
 20
283.0370869999999
 30
0.0
 11
548.318455
 21
283.0370869999999
 31
0.0
  0
LINE
  5
15D
330
1F
100
AcDbEntity
  8
1
  6
Continuous
 62
   155
100
AcDbLine
 10
543.2872050000001
 20
262.1034939999999
 30
0.0
 11
538.053807
 21
262.1034939999999
 31
0.0
  0
LINE
  5
15E
330
1F
100
AcDbEntity
  8
1
  6
Continuous
 62
   155
100
AcDbLine
 10
573.2725560000001
 20
272.772439
 30
0.0
 11
566.916111
 21
272.772439
 31
0.0
  0
LINE
  5
15F
330
1F
100
AcDbEntity
  8
1
  6
Continuous
 62
   155
100
AcDbLine
 10
566.489353
 20
272.3681419999999
 30
0.0
 11
566.489353
 21
262.1034939999999
 31
0.0
  0
LINE
  5
160
330
1F
100
AcDbEntity
  8
1
  6
Continuous
 62
   155
100
AcDbLine
 10
558.9874
 20
262.1034939999999
 30
0.0
 11
553.7540020000001
 21
262.1034939999999
 31
0.0
  0
LINE
  5
161
330
1F
100
AcDbEntity
  8
1
  6
Continuous
 62
   155
100
AcDbLine
 10
548.318455
 20
272.3681419999999
 30
0.0
 11
548.318455
 21
266.303689
 31
0.0
  0
LINE
  5
162
330
1F
100
AcDbEntity
  8
1
  6
Continuous
 62
   155
100
AcDbLine
 10
566.489353
 20
262.1034939999999
 30
0.0
 11
560.4249000000001
 21
262.1034939999999
 31
0.0
  0
LINE
  5
163
330
1F
100
AcDbEntity
  8
1
  6
Continuous
 62
   155
100
AcDbLine
 10
541.647557
 20
272.3681419999999
 30
0.0
 11
548.318455
 21
272.3681419999999
 31
0.0
  0
LINE
  5
164
330
1F
100
AcDbEntity
  8
1
  6
Continuous
 62
   155
100
AcDbLine
 10
548.318455
 20
266.303689
 30
0.0
 11
544.7583970000001
 21
266.303689
 31
0.0
  0
LINE
  5
165
330
1F
100
AcDbEntity
  8
1
  6
Continuous
 62
   155
100
AcDbLine
 10
538.053807
 20
262.1034939999999
 30
0.0
 11
541.647557
 21
272.3681419999999
 31
0.0
  0
LINE
  5
166
330
1F
100
AcDbEntity
  8
1
  6
Continuous
 62
   155
100
AcDbLine
 10
548.318455
 20
272.772439
 30
0.0
 11
541.7935530000001
 21
272.772439
 31
0.0
  0
LINE
  5
167
330
1F
100
AcDbEntity
  8
1
  6
Continuous
 62
   155
100
AcDbLine
 10
544.7583970000001
 20
266.303689
 30
0.0
 11
543.2872050000001
 21
262.1034939999999
 31
0.0
  0
LINE
  5
168
330
1F
100
AcDbEntity
  8
1
  6
Continuous
 62
   155
100
AcDbLine
 10
576.7315410000001
 20
262.1034939999999
 30
0.0
 11
576.7315410000001
 21
272.3681419999999
 31
0.0
  0
LINE
  5
169
330
1F
100
AcDbEntity
  8
1
  6
Continuous
 62
   155
100
AcDbLine
 10
566.916111
 20
283.0370869999999
 30
0.0
 11
568.7915990000001
 21
283.0370869999999
 31
0.0
  0
LINE
  5
16A
330
1F
100
AcDbEntity
  8
1
  6
Continuous
 62
   155
100
AcDbLine
 10
582.795994
 20
272.3681419999999
 30
0.0
 11
582.795994
 21
262.1034939999999
 31
0.0
  0
LINE
  5
16B
330
1F
100
AcDbEntity
  8
1
  6
Continuous
 62
   155
100
AcDbLine
 10
555.39365
 20
272.3681419999999
 30
0.0
 11
558.9874
 21
262.1034939999999
 31
0.0
  0
LINE
  5
16C
330
1F
100
AcDbEntity
  8
1
  6
Continuous
 62
   155
100
AcDbLine
 10
560.4249000000001
 20
262.1034939999999
 30
0.0
 11
560.4249000000001
 21
272.3681419999999
 31
0.0
  0
LINE
  5
16D
330
1F
100
AcDbEntity
  8
1
  6
Continuous
 62
   155
100
AcDbLine
 10
548.318455
 20
283.0370869999999
 30
0.0
 11
548.318455
 21
272.772439
 31
0.0
  0
LINE
  5
16E
330
1F
100
AcDbEntity
  8
1
  6
Continuous
 62
   155
100
AcDbLine
 10
560.4249000000001
 20
272.3681419999999
 30
0.0
 11
566.489353
 21
272.3681419999999
 31
0.0
  0
LINE
  5
16F
330
1F
100
AcDbEntity
  8
1
  6
Continuous
 62
   155
100
AcDbLine
 10
548.7227520000001
 20
272.3681419999999
 30
0.0
 11
555.39365
 21
272.3681419999999
 31
0.0
  0
LINE
  5
170
330
1F
100
AcDbEntity
  8
1
  6
Continuous
 62
   155
100
AcDbLine
 10
706.693833
 20
174.721366
 30
0.0
 11
508.6938329999999
 21
174.721366
 31
0.0
  0
LINE
  5
171
330
1F
100
AcDbEntity
  8
1
  6
Continuous
 62
   155
100
AcDbLine
 10
794.193833
 20
198.426324
 30
0.0
 11
756.193833
 21
178.221366
 31
0.0
  0
LINE
  5
172
330
1F
100
AcDbEntity
  8
1
  6
Continuous
 62
   155
100
AcDbLine
 10
796.693833
 20
205.221366
 30
0.0
 11
794.193833
 21
205.221366
 31
0.0
  0
LINE
  5
173
330
1F
100
AcDbEntity
  8
1
  6
Continuous
 62
   155
100
AcDbLine
 10
640.693833
 20
218.221366
 30
0.0
 11
620.693833
 21
218.221366
 31
0.0
  0
LINE
  5
174
330
1F
100
AcDbEntity
  8
1
  6
Continuous
 62
   155
100
AcDbLine
 10
650.693833
 20
218.221366
 30
0.0
 11
640.693833
 21
218.221366
 31
0.0
  0
LINE
  5
175
330
1F
100
AcDbEntity
  8
1
  6
Continuous
 62
   155
100
AcDbLine
 10
706.693833
 20
371.721366
 30
0.0
 11
706.693833
 21
335.234605
 31
0.0
  0
LINE
  5
176
330
1F
100
AcDbEntity
  8
1
  6
Continuous
 62
   155
100
AcDbLine
 10
469.193833
 20
299.659188
 30
0.0
 11
465.693833
 21
298.721366
 31
0.0
  0
LINE
  5
177
330
1F
100
AcDbEntity
  8
1
  6
Continuous
 62
   155
100
AcDbLine
 10
756.193833
 20
371.721366
 30
0.0
 11
706.693833
 21
371.721366
 31
0.0
  0
LINE
  5
178
330
1F
100
AcDbEntity
  8
1
  6
Continuous
 62
   155
100
AcDbLine
 10
756.193833
 20
174.721366
 30
0.0
 11
706.693833
 21
174.721366
 31
0.0
  0
LINE
  5
179
330
1F
100
AcDbEntity
  8
1
  6
Continuous
 62
   155
100
AcDbLine
 10
756.193833
 20
335.234605
 30
0.0
 11
756.193833
 21
371.721366
 31
0.0
  0
LINE
  5
17A
330
1F
100
AcDbEntity
  8
1
  6
Continuous
 62
   155
100
AcDbLine
 10
620.693833
 20
328.221366
 30
0.0
 11
510.693833
 21
328.221366
 31
0.0
  0
LINE
  5
17B
330
1F
100
AcDbEntity
  8
1
  6
Continuous
 62
   155
100
AcDbLine
 10
583.222751
 20
272.772439
 30
0.0
 11
583.222751
 21
283.0370869999999
 31
0.0
  0
LINE
  5
17C
330
1F
100
AcDbEntity
  8
1
  6
Continuous
 62
   155
100
AcDbLine
 10
527.693833
 20
311.221366
 30
0.0
 11
603.693833
 21
311.221366
 31
0.0
  0
LINE
  5
17D
330
1F
100
AcDbEntity
  8
1
  6
Continuous
 62
   155
100
AcDbLine
 10
510.693833
 20
328.221366
 30
0.0
 11
527.693833
 21
311.221366
 31
0.0
  0
LINE
  5
17E
330
1F
100
AcDbEntity
  8
1
  6
Continuous
 62
   155
100
AcDbLine
 10
620.693833
 20
218.221366
 30
0.0
 11
603.693833
 21
235.221366
 31
0.0
  0
LINE
  5
17F
330
1F
100
AcDbEntity
  8
1
  6
Continuous
 62
   155
100
AcDbLine
 10
527.693833
 20
235.221366
 30
0.0
 11
527.693833
 21
311.221366
 31
0.0
  0
LINE
  5
180
330
1F
100
AcDbEntity
  8
1
  6
Continuous
 62
   155
100
AcDbLine
 10
510.693833
 20
218.221366
 30
0.0
 11
527.693833
 21
235.221366
 31
0.0
  0
LINE
  5
181
330
1F
100
AcDbEntity
  8
1
  6
Continuous
 62
   155
100
AcDbLine
 10
620.693833
 20
218.221366
 30
0.0
 11
620.693833
 21
233.221366
 31
0.0
  0
LINE
  5
182
330
1F
100
AcDbEntity
  8
1
  6
Continuous
 62
   155
100
AcDbLine
 10
620.693833
 20
233.221366
 30
0.0
 11
620.693833
 21
313.221366
 31
0.0
  0
LINE
  5
183
330
1F
100
AcDbEntity
  8
1
  6
Continuous
 62
   155
100
AcDbLine
 10
620.693833
 20
328.221366
 30
0.0
 11
603.693833
 21
311.221366
 31
0.0
  0
LINE
  5
184
330
1F
100
AcDbEntity
  8
1
  6
Continuous
 62
   155
100
AcDbLine
 10
510.693833
 20
328.221366
 30
0.0
 11
510.693833
 21
218.221366
 31
0.0
  0
LINE
  5
185
330
1F
100
AcDbEntity
  8
1
  6
Continuous
 62
   155
100
AcDbLine
 10
603.693833
 20
311.221366
 30
0.0
 11
603.693833
 21
235.221366
 31
0.0
  0
LINE
  5
186
330
1F
100
AcDbEntity
  8
1
  6
Continuous
 62
   155
100
AcDbLine
 10
589.579197
 20
272.772439
 30
0.0
 11
583.222751
 21
272.772439
 31
0.0
  0
LINE
  5
187
330
1F
100
AcDbEntity
  8
1
  6
Continuous
 62
   155
100
AcDbLine
 10
620.693833
 20
313.221366
 30
0.0
 11
620.693833
 21
328.221366
 31
0.0
  0
LINE
  5
188
330
1F
100
AcDbEntity
  8
1
  6
Continuous
 62
   155
100
AcDbLine
 10
603.693833
 20
235.221366
 30
0.0
 11
527.693833
 21
235.221366
 31
0.0
  0
LINE
  5
189
330
1F
100
AcDbEntity
  8
1
  6
Continuous
 62
   155
100
AcDbLine
 10
510.693833
 20
218.221366
 30
0.0
 11
620.693833
 21
218.221366
 31
0.0
  0
LINE
  5
18A
330
1F
100
AcDbEntity
  8
1
  6
Continuous
 62
   155
100
AcDbLine
 10
583.222751
 20
283.0370869999999
 30
0.0
 11
585.09824
 21
283.0370869999999
 31
0.0
  0
LINE
  5
18B
330
1F
100
AcDbEntity
  8
1
  6
Continuous
 62
   155
100
AcDbLine
 10
706.693833
 20
335.234605
 30
0.0
 11
706.693833
 21
328.221366
 31
0.0
  0
LINE
  5
18C
330
1F
100
AcDbEntity
  8
1
  6
Continuous
 62
   155
100
AcDbLine
 10
650.693833
 20
328.221366
 30
0.0
 11
650.693833
 21
313.221366
 31
0.0
  0
LINE
  5
18D
330
1F
100
AcDbEntity
  8
1
  6
Continuous
 62
   155
100
AcDbLine
 10
650.693833
 20
218.221366
 30
0.0
 11
650.693833
 21
233.221366
 31
0.0
  0
LINE
  5
18E
330
1F
100
AcDbEntity
  8
1
  6
Continuous
 62
   155
100
AcDbLine
 10
469.193833
 20
363.221366
 30
0.0
 11
469.193833
 21
183.221366
 31
0.0
  0
LINE
  5
18F
330
1F
100
AcDbEntity
  8
1
  6
Continuous
 62
   155
100
AcDbLine
 10
469.193833
 20
246.783543
 30
0.0
 11
465.693833
 21
247.721366
 31
0.0
  0
LINE
  5
190
330
1F
100
AcDbEntity
  8
1
  6
Continuous
 62
   155
100
AcDbLine
 10
463.6938329999999
 20
259.221366
 30
0.0
 11
403.6938329999999
 21
259.221366
 31
0.0
  0
LINE
  5
191
330
1F
100
AcDbEntity
  8
1
  6
Continuous
 62
   155
100
AcDbLine
 10
403.6938329999999
 20
287.221366
 30
0.0
 11
403.6938329999999
 21
259.221366
 31
0.0
  0
LINE
  5
192
330
1F
100
AcDbEntity
  8
1
  6
Continuous
 62
   155
100
AcDbLine
 10
650.693833
 20
218.221366
 30
0.0
 11
706.693833
 21
218.221366
 31
0.0
  0
LINE
  5
193
330
1F
100
AcDbEntity
  8
1
  6
Continuous
 62
   155
100
AcDbLine
 10
640.693833
 20
328.221366
 30
0.0
 11
620.693833
 21
328.221366
 31
0.0
  0
LINE
  5
194
330
1F
100
AcDbEntity
  8
1
  6
Continuous
 62
   155
100
AcDbLine
 10
465.693833
 20
298.721366
 30
0.0
 11
465.693833
 21
247.721366
 31
0.0
  0
LINE
  5
195
330
1F
100
AcDbEntity
  8
1
  6
Continuous
 62
   155
370
     5
100
AcDbLine
 10
640.693833
 20
328.221366
 30
0.0
 11
640.693833
 21
313.221366
 31
0.0
  0
LINE
  5
196
330
1F
100
AcDbEntity
  8
1
  6
Continuous
 62
   155
100
AcDbLine
 10
650.693833
 20
328.221366
 30
0.0
 11
640.693833
 21
328.221366
 31
0.0
  0
LINE
  5
197
330
1F
100
AcDbEntity
  8
1
  6
Continuous
 62
   155
100
AcDbLine
 10
756.193833
 20
211.208126
 30
0.0
 11
756.193833
 21
335.234605
 31
0.0
  0
LINE
  5
198
330
1F
100
AcDbEntity
  8
1
  6
Continuous
 62
   155
100
AcDbLine
 10
640.693833
 20
233.221366
 30
0.0
 11
620.693833
 21
233.221366
 31
0.0
  0
LINE
  5
199
330
1F
100
AcDbEntity
  8
1
  6
Continuous
 62
   155
100
AcDbLine
 10
640.693833
 20
313.221366
 30
0.0
 11
620.693833
 21
313.221366
 31
0.0
  0
LINE
  5
19A
330
1F
100
AcDbEntity
  8
1
  6
Continuous
 62
   155
100
AcDbLine
 10
706.693833
 20
218.221366
 30
0.0
 11
706.693833
 21
211.208126
 31
0.0
  0
LINE
  5
19B
330
1F
100
AcDbEntity
  8
1
  6
Continuous
 62
   155
100
AcDbLine
 10
756.193833
 20
335.234605
 30
0.0
 11
706.693833
 21
335.234605
 31
0.0
  0
LINE
  5
19C
330
1F
100
AcDbEntity
  8
1
  6
Continuous
 62
   155
100
AcDbLine
 10
794.193833
 20
348.016407
 30
0.0
 11
756.193833
 21
368.221366
 31
0.0
  0
LINE
  5
19D
330
1F
100
AcDbEntity
  8
1
  6
Continuous
 62
   155
100
AcDbLine
 10
508.6938329999999
 20
183.221366
 30
0.0
 11
469.193833
 21
183.221366
 31
0.0
  0
LINE
  5
19E
330
1F
100
AcDbEntity
  8
1
  6
Continuous
 62
   155
100
AcDbLine
 10
650.693833
 20
313.221366
 30
0.0
 11
640.693833
 21
313.221366
 31
0.0
  0
LINE
  5
19F
330
1F
100
AcDbEntity
  8
1
  6
Continuous
 62
   155
100
AcDbLine
 10
463.6938329999999
 20
258.221366
 30
0.0
 11
465.6938559999999
 21
258.221366
 31
0.0
  0
LINE
  5
1A0
330
1F
100
AcDbEntity
  8
1
  6
Continuous
 62
   155
100
AcDbLine
 10
650.693833
 20
233.221366
 30
0.0
 11
640.693833
 21
233.221366
 31
0.0
  0
LINE
  5
1A1
330
1F
100
AcDbEntity
  8
1
  6
Continuous
 62
   155
100
AcDbLine
 10
706.693833
 20
328.221366
 30
0.0
 11
650.693833
 21
328.221366
 31
0.0
  0
LINE
  5
1A2
330
1F
100
AcDbEntity
  8
1
  6
Continuous
 62
   155
100
AcDbLine
 10
796.693833
 20
205.221366
 30
0.0
 11
796.693833
 21
341.221366
 31
0.0
  0
LINE
  5
1A3
330
1F
100
AcDbEntity
  8
1
  6
Continuous
 62
   155
100
AcDbLine
 10
796.693833
 20
341.221366
 30
0.0
 11
794.193833
 21
341.221366
 31
0.0
  0
LINE
  5
1A4
330
1F
100
AcDbEntity
  8
1
  6
Continuous
 62
   155
100
AcDbLine
 10
794.193833
 20
198.426324
 30
0.0
 11
794.193833
 21
348.016407
 31
0.0
  0
LINE
  5
1A5
330
1F
100
AcDbEntity
  8
1
  6
Continuous
 62
   155
370
     5
100
AcDbLine
 10
640.693833
 20
218.221366
 30
0.0
 11
640.693833
 21
233.221366
 31
0.0
  0
LINE
  5
1A6
330
1F
100
AcDbEntity
  8
1
  6
Continuous
 62
   155
100
AcDbLine
 10
689.693833
 20
371.7211
 30
0.0
 11
689.693833
 21
388.721366
 31
0.0
  0
LINE
  5
1A7
330
1F
100
AcDbEntity
  8
1
  6
Continuous
 62
   155
100
AcDbLine
 10
689.693833
 20
388.721366
 30
0.0
 11
517.693833
 21
388.721366
 31
0.0
  0
LINE
  5
1A8
330
1F
100
AcDbEntity
  8
1
  6
Continuous
 62
   155
100
AcDbLine
 10
517.693833
 20
388.721366
 30
0.0
 11
517.693833
 21
371.7211
 31
0.0
  0
LINE
  5
1A9
330
1F
100
AcDbEntity
  8
1
  6
Continuous
 62
   155
100
AcDbLine
 10
508.6938329999999
 20
363.221366
 30
0.0
 11
469.193833
 21
363.221366
 31
0.0
  0
LINE
  5
1AA
330
1F
100
AcDbEntity
  8
1
  6
Continuous
 62
   155
100
AcDbLine
 10
463.6938329999999
 20
288.221366
 30
0.0
 11
463.6938329999999
 21
258.221366
 31
0.0
  0
LINE
  5
1AB
330
1F
100
AcDbEntity
  8
1
  6
Continuous
 62
   155
100
AcDbLine
 10
508.6938329999999
 20
203.915102
 30
0.0
 11
508.6938329999999
 21
218.221366
 31
0.0
  0
LINE
  5
1AC
330
1F
100
AcDbEntity
  8
1
  6
Continuous
 62
   155
100
AcDbLine
 10
463.6938329999999
 20
287.221366
 30
0.0
 11
403.6938329999999
 21
287.221366
 31
0.0
  0
LINE
  5
1AD
330
1F
100
AcDbEntity
  8
1
  6
Continuous
 62
   155
100
AcDbLine
 10
508.6938329999999
 20
174.721366
 30
0.0
 11
508.6938329999999
 21
203.915102
 31
0.0
  0
LINE
  5
1AE
330
1F
100
AcDbEntity
  8
1
  6
Continuous
 62
   155
100
AcDbLine
 10
508.6938329999999
 20
328.221366
 30
0.0
 11
508.6938329999999
 21
342.527629
 31
0.0
  0
LINE
  5
1AF
330
1F
100
AcDbEntity
  8
1
  6
Continuous
 62
   155
100
AcDbLine
 10
508.6938329999999
 20
342.527629
 30
0.0
 11
508.6938329999999
 21
371.721366
 31
0.0
  0
LINE
  5
1B0
330
1F
100
AcDbEntity
  8
1
  6
Continuous
 62
   155
100
AcDbLine
 10
689.693833
 20
157.721366
 30
0.0
 11
517.693833
 21
157.721366
 31
0.0
  0
LINE
  5
1B1
330
1F
100
AcDbEntity
  8
1
  6
Continuous
 62
   155
100
AcDbLine
 10
463.6938329999999
 20
288.221366
 30
0.0
 11
465.6938559999999
 21
288.221366
 31
0.0
  0
ARC
  5
1B2
330
1F
100
AcDbEntity
  8
1
  6
Continuous
 62
   155
100
AcDbCircle
 10
-577.693833
 20
761.5605730000001
 30
0.0
 40
12.7
210
0.0000000000000001
220
0.0000000000000012
230
-1.0
100
AcDbArc
 50
180.0
 51
0.0
  0
ARC
  5
1B3
330
1F
100
AcDbEntity
  8
1
  6
Continuous
 62
   155
100
AcDbCircle
 10
-543.693833
 20
761.5605730000001
 30
0.0
 40
10.2
210
0.0000000000000001
220
0.0000000000000012
230
-1.0
100
AcDbArc
 50
180.0
 51
0.0
  0
ARC
  5
1B4
330
1F
100
AcDbEntity
  8
1
  6
Continuous
 62
   155
100
AcDbCircle
 10
-577.693833
 20
761.5605730000001
 30
0.0
 40
12.7
210
0.0000000000000001
220
0.0000000000000012
230
-1.0
100
AcDbArc
 50
0.0
 51
180.0
  0
ARC
  5
1B5
330
1F
100
AcDbEntity
  8
1
  6
Continuous
 62
   155
100
AcDbCircle
 10
640.693833
 20
778.0605730000001
 30
0.0
 40
10.0
100
AcDbArc
 50
0.0
 51
90.0
  0
ARC
  5
1B6
330
1F
100
AcDbEntity
  8
1
  6
Continuous
 62
   155
100
AcDbCircle
 10
-638.693833
 20
777.060573
 30
0.0
 40
7.5
210
0.0
220
0.0
230
-1.0
100
AcDbArc
 50
0.0
 51
180.0
  0
ARC
  5
1B7
330
1F
100
AcDbEntity
  8
1
  6
Continuous
 62
   155
100
AcDbCircle
 10
-638.693833
 20
777.060573
 30
0.0
 40
7.5
210
0.0
220
0.0
230
-1.0
100
AcDbArc
 50
180.0
 51
0.0
  0
ARC
  5
1B8
330
1F
100
AcDbEntity
  8
1
  6
Continuous
 62
   155
100
AcDbCircle
 10
-543.693833
 20
761.5605730000001
 30
0.0
 40
10.2
210
0.0000000000000001
220
0.0000000000000012
230
-1.0
100
AcDbArc
 50
0.0
 51
180.0
  0
ARC
  5
1B9
330
1F
100
AcDbEntity
  8
1
  6
Continuous
 62
   155
100
AcDbCircle
 10
-124.526432
 20
669.0605730000001
 30
0.0
 40
68.0
210
0.0000000000000001
220
0.0000000000000012
230
-1.0
100
AcDbArc
 50
180.0
 51
0.0
  0
ARC
  5
1BA
330
1F
100
AcDbEntity
  8
1
  6
Continuous
 62
   155
100
AcDbCircle
 10
-124.526432
 20
669.0605730000001
 30
0.0
 40
95.0
210
0.0000000000000001
220
0.0000000000000012
230
-1.0
100
AcDbArc
 50
0.0
 51
180.0
  0
ARC
  5
1BB
330
1F
100
AcDbEntity
  8
1
  6
Continuous
 62
   155
100
AcDbCircle
 10
-124.526432
 20
669.0605730000001
 30
0.0
 40
65.0
210
0.0000000000000001
220
0.0000000000000012
230
-1.0
100
AcDbArc
 50
180.0
 51
0.0
  0
ARC
  5
1BC
330
1F
100
AcDbEntity
  8
1
  6
Continuous
 62
   155
100
AcDbCircle
 10
-124.526432
 20
669.0605730000001
 30
0.0
 40
65.0
210
0.0000000000000001
220
0.0000000000000012
230
-1.0
100
AcDbArc
 50
0.0
 51
180.0
  0
ARC
  5
1BD
330
1F
100
AcDbEntity
  8
1
  6
Continuous
 62
   155
100
AcDbCircle
 10
-124.526432
 20
669.0605730000001
 30
0.0
 40
95.0
210
0.0000000000000001
220
0.0000000000000012
230
-1.0
100
AcDbArc
 50
180.0
 51
0.0
  0
ARC
  5
1BE
330
1F
100
AcDbEntity
  8
1
  6
Continuous
 62
   155
100
AcDbCircle
 10
-124.526432
 20
669.0605730000001
 30
0.0
 40
74.79504159686381
210
0.0000000000000001
220
0.0000000000000012
230
-1.0
100
AcDbArc
 50
180.0
 51
0.0
  0
ARC
  5
1BF
330
1F
100
AcDbEntity
  8
1
  6
Continuous
 62
   155
100
AcDbCircle
 10
-124.526432
 20
669.0605730000001
 30
0.0
 40
68.0
210
0.0000000000000001
220
0.0000000000000012
230
-1.0
100
AcDbArc
 50
0.0
 51
180.0
  0
ARC
  5
1C0
330
1F
100
AcDbEntity
  8
1
  6
Continuous
 62
   155
100
AcDbCircle
 10
-124.526432
 20
669.0605730000001
 30
0.0
 40
74.79504159686381
210
0.0000000000000001
220
0.0000000000000012
230
-1.0
100
AcDbArc
 50
0.0
 51
180.0
  0
ARC
  5
1C1
330
1F
100
AcDbEntity
  8
1
  6
Continuous
 62
   155
100
AcDbCircle
 10
-1076.489537
 20
669.0605730000001
 30
0.0
 40
90.0
210
0.0000000000000001
220
0.0000000000000012
230
-1.0
100
AcDbArc
 50
0.0
 51
180.0
  0
ARC
  5
1C2
330
1F
100
AcDbEntity
  8
1
  6
Continuous
 62
   155
100
AcDbCircle
 10
-1076.489537
 20
669.0605730000001
 30
0.0
 40
14.0
210
0.0000000000000001
220
0.0000000000000012
230
-1.0
100
AcDbArc
 50
0.0
 51
180.0
  0
ARC
  5
1C3
330
1F
100
AcDbEntity
  8
1
  6
Continuous
 62
   155
100
AcDbCircle
 10
-1076.489537
 20
669.0605730000001
 30
0.0
 40
25.5
210
0.0000000000000001
220
0.0000000000000012
230
-1.0
100
AcDbArc
 50
0.0
 51
180.0
  0
ARC
  5
1C4
330
1F
100
AcDbEntity
  8
1
  6
Continuous
 62
   155
100
AcDbCircle
 10
-1076.489537
 20
669.0605730000001
 30
0.0
 40
15.0
210
0.0000000000000001
220
0.0000000000000012
230
-1.0
100
AcDbArc
 50
180.0
 51
0.0
  0
ARC
  5
1C5
330
1F
100
AcDbEntity
  8
1
  6
Continuous
 62
   155
100
AcDbCircle
 10
-1076.489537
 20
669.0605730000001
 30
0.0
 40
26.4378221735089
210
0.0
220
0.0
230
-1.0
100
AcDbArc
 50
0.0
 51
180.0
  0
ARC
  5
1C6
330
1F
100
AcDbEntity
  8
1
  6
Continuous
 62
   155
100
AcDbCircle
 10
-1076.489537
 20
669.0605730000001
 30
0.0
 40
23.0
210
0.0000000000000001
220
0.0000000000000012
230
-1.0
100
AcDbArc
 50
0.0
 51
180.0
  0
ARC
  5
1C7
330
1F
100
AcDbEntity
  8
1
  6
Continuous
 62
   155
100
AcDbCircle
 10
-1076.489537
 20
669.0605730000001
 30
0.0
 40
23.0
210
0.0000000000000001
220
0.0000000000000012
230
-1.0
100
AcDbArc
 50
180.0
 51
0.0
  0
ARC
  5
1C8
330
1F
100
AcDbEntity
  8
1
  6
Continuous
 62
   155
100
AcDbCircle
 10
-1076.489537
 20
669.0605730000001
 30
0.0
 40
90.0
210
0.0000000000000001
220
0.0000000000000012
230
-1.0
100
AcDbArc
 50
180.0
 51
0.0
  0
ARC
  5
1C9
330
1F
100
AcDbEntity
  8
1
  6
Continuous
 62
   155
100
AcDbCircle
 10
-1076.489537
 20
669.0605730000001
 30
0.0
 40
26.4378221735089
210
0.0
220
0.0
230
-1.0
100
AcDbArc
 50
180.0
 51
0.0
  0
ARC
  5
1CA
330
1F
100
AcDbEntity
  8
1
  6
Continuous
 62
   155
100
AcDbCircle
 10
-1076.489537
 20
669.0605730000001
 30
0.0
 40
15.0
210
0.0000000000000001
220
0.0000000000000012
230
-1.0
100
AcDbArc
 50
0.0
 51
180.0
  0
ARC
  5
1CB
330
1F
100
AcDbEntity
  8
1
  6
Continuous
 62
   155
100
AcDbCircle
 10
1076.489537
 20
669.0605730000001
 30
0.0
 40
93.0
100
AcDbArc
 50
41.821259
 51
53.743733
  0
ARC
  5
1CC
330
1F
100
AcDbEntity
  8
1
  6
Continuous
 62
   155
100
AcDbCircle
 10
1076.489537
 20
669.0605730000001
 30
0.0
 40
93.0
100
AcDbArc
 50
126.256267
 51
138.178741
  0
ARC
  5
1CD
330
1F
100
AcDbEntity
  8
1
  6
Continuous
 62
   155
100
AcDbCircle
 10
-1076.489537
 20
669.0605730000001
 30
0.0
 40
14.0
210
0.0000000000000001
220
0.0000000000000012
230
-1.0
100
AcDbArc
 50
180.0
 51
0.0
  0
ARC
  5
1CE
330
1F
100
AcDbEntity
  8
1
  6
Continuous
 62
   155
100
AcDbCircle
 10
1076.489537
 20
669.0605730000001
 30
0.0
 40
93.0
100
AcDbArc
 50
306.256267
 51
318.178741
  0
ARC
  5
1CF
330
1F
100
AcDbEntity
  8
1
  6
Continuous
 62
   155
100
AcDbCircle
 10
1076.489537
 20
669.0605730000001
 30
0.0
 40
93.0
100
AcDbArc
 50
221.821259
 51
233.7437330000001
  0
ARC
  5
1D0
330
1F
100
AcDbEntity
  8
1
  6
Continuous
 62
   155
100
AcDbCircle
 10
-1076.489537
 20
669.0605730000001
 30
0.0
 40
25.5
210
0.0000000000000001
220
0.0000000000000012
230
-1.0
100
AcDbArc
 50
180.0
 51
0.0
  0
ARC
  5
1D1
330
1F
100
AcDbEntity
  8
1
  6
Continuous
 62
   155
100
AcDbCircle
 10
-533.693833
 20
176.721366
 30
0.0
 40
6.0
210
0.0000000000000001
220
0.0000000000000012
230
-1.0
100
AcDbArc
 50
199.473746
 51
340.526244
  0
ARC
  5
1D2
330
1F
100
AcDbEntity
  8
1
  6
Continuous
 62
   155
100
AcDbCircle
 10
-673.693833
 20
176.721366
 30
0.0
 40
6.0
210
0.0000000000000001
220
0.0000000000000012
230
-1.0
100
AcDbArc
 50
199.473746
 51
340.526244
  0
ARC
  5
1D3
330
1F
100
AcDbEntity
  8
1
  6
Continuous
 62
   155
100
AcDbCircle
 10
-533.693833
 20
369.721366
 30
0.0
 40
6.0
210
0.0000000000000001
220
0.0000000000000012
230
-1.0
100
AcDbArc
 50
19.473746
 51
160.526244
  0
ARC
  5
1D4
330
1F
100
AcDbEntity
  8
1
  6
Continuous
 62
   155
100
AcDbCircle
 10
-673.693833
 20
369.721366
 30
0.0
 40
6.0
210
0.0000000000000001
220
0.0000000000000012
230
-1.0
100
AcDbArc
 50
19.473746
 51
160.526244
  0
SPLINE
  5
1D5
330
1F
100
AcDbEntity
  8
1
  6
Continuous
 62
   155
100
AcDbSpline
210
0.0
220
0.0
230
1.0
 70
    24
 71
     2
 72
     7
 73
     4
 74
     0
 42
0.0000000001
 43
0.0000000001
 40
0.0
 40
0.0
 40
0.0
 40
0.5
 40
1.0
 40
1.0
 40
1.0
 10
132.2757523567033
 20
806.0605726872248
 30
-0.0000000000000105
 10
132.2757423557032
 20
806.0605726872248
 30
-0.0000000000000105
 10
128.6707669621919
 20
806.0605726872248
 30
-0.0000000000000103
 10
125.9754545180713
 20
806.0605726872248
 30
-0.0000000000000101
  0
SPLINE
  5
1D6
330
1F
100
AcDbEntity
  8
1
  6
Continuous
 62
   155
100
AcDbSpline
210
0.0
220
0.0
230
1.0
 70
    24
 71
     2
 72
     7
 73
     4
 74
     0
 42
0.0000000001
 43
0.0000000001
 40
0.0
 40
0.0
 40
0.0
 40
0.5
 40
1.0
 40
1.0
 40
1.0
 10
148.5823926436331
 20
806.0605726872248
 30
-0.0000000000000115
 10
148.5823826426331
 20
806.0605726872248
 30
-0.0000000000000115
 10
144.9774072491219
 20
806.0605726872248
 30
-0.0000000000000113
 10
142.2820948050012
 20
806.0605726872248
 30
-0.0000000000000111
  0
SPLINE
  5
1D7
330
1F
100
AcDbEntity
  8
1
  6
Continuous
 62
   155
100
AcDbSpline
210
0.0
220
0.0
230
1.0
 70
    24
 71
     2
 72
     6
 73
     3
 74
     0
 42
0.0000000001
 43
0.0000000001
 40
0.0
 40
0.0
 40
0.0
 40
1.0
 40
1.0
 40
1.0
 10
1053.87108149006
 20
806.0605726872246
 30
0.0
 10
1052.434148496458
 20
806.0605726872246
 30
0.0
 10
1052.43358649006
 20
806.0605726872246
 30
0.0
  0
SPLINE
  5
1D8
330
1F
100
AcDbEntity
  8
1
  6
Continuous
 62
   155
100
AcDbSpline
210
0.0
220
0.0
230
1.0
 70
    24
 71
     2
 72
     6
 73
     3
 74
     0
 42
0.0000000001
 43
0.0000000001
 40
0.0
 40
0.0
 40
0.0
 40
1.0
 40
1.0
 40
1.0
 10
1070.17772177699
 20
806.0605726872246
 30
0.0
 10
1068.740788783388
 20
806.0605726872246
 30
0.0
 10
1068.74022677699
 20
806.0605726872246
 30
0.0
  0
SPLINE
  5
1D9
330
1F
100
AcDbEntity
  8
1
  6
Continuous
 62
   155
100
AcDbSpline
210
0.0
220
0.0
230
1.0
 70
    24
 71
     2
 72
     7
 73
     4
 74
     0
 42
0.0000000001
 43
0.0000000001
 40
0.0
 40
0.0
 40
0.0
 40
0.5000377553254959
 40
1.0
 40
1.0
 40
1.0
 10
1075.040514644924
 20
806.0605726872246
 30
0.0
 10
1073.086413122937
 20
806.0605726872246
 30
0.0
 10
1070.32391546461
 20
806.0605726872246
 30
0.0
 10
1070.323722644931
 20
806.0605726872246
 30
0.0
  0
SPLINE
  5
1DA
330
1F
100
AcDbEntity
  8
1
  6
Continuous
 62
   155
100
AcDbSpline
210
0.0
220
0.0
230
1.0
 70
    24
 71
     2
 72
     7
 73
     4
 74
     0
 42
0.0000000001
 43
0.0000000001
 40
0.0
 40
0.0
 40
0.0
 40
0.5000377553254959
 40
1.0
 40
1.0
 40
1.0
 10
1058.733874357994
 20
806.0605726872246
 30
0.0
 10
1056.779772836007
 20
806.0605726872246
 30
0.0
 10
1054.01727517768
 20
806.0605726872246
 30
0.0
 10
1054.017082358002
 20
806.0605726872246
 30
0.0
  0
SPLINE
  5
1DB
330
1F
100
AcDbEntity
  8
1
  6
Continuous
 62
   155
100
AcDbSpline
210
-0.0000000000000076
220
-0.0000000000000038
230
1.0
 70
     8
 71
     2
 72
     6
 73
     3
 74
     0
 42
0.0000000001
 43
0.0000000001
 40
0.0
 40
0.0
 40
0.0
 40
1.0
 40
1.0
 40
1.0
 10
589.9610325936404
 20
272.3681421015919
 30
-0.0000000000000065
 10
591.3985325638381
 20
270.616189012914
 30
-0.0000000000000087
 10
591.3985325638381
 20
268.3700953094799
 30
-0.0000000000000113
  0
SPLINE
  5
1DC
330
1F
100
AcDbEntity
  8
1
  6
Continuous
 62
   155
100
AcDbSpline
210
0.0000000000000139
220
-0.000000000000016
230
-1.0
 70
     8
 71
     2
 72
     7
 73
     4
 74
     0
 42
0.0000000001
 43
0.0000000001
 40
0.0
 40
0.0
 40
0.0
 40
0.5
 40
1.0
 40
1.0
 40
1.0
 10
575.0918922769082
 20
268.3700953094799
 30
-0.0000000000000103
 10
575.0918922769082
 20
265.6635523968418
 30
-0.0000000000000135
 10
571.4869118828969
 20
262.103493876899
 30
0.000000000000011
 10
568.7915994387763
 20
262.103493876899
 30
0.0000000000000112
  0
SPLINE
  5
1DD
330
1F
100
AcDbEntity
  8
1
  6
Continuous
 62
   155
100
AcDbSpline
210
0.0000000000000139
220
-0.000000000000016
230
-1.0
 70
     8
 71
     2
 72
     7
 73
     4
 74
     0
 42
0.0000000001
 43
0.0000000001
 40
0.0
 40
0.0
 40
0.0
 40
0.5
 40
1.0
 40
1.0
 40
1.0
 10
591.3985325638381
 20
268.3700953094799
 30
-0.0000000000000113
 10
591.3985325638381
 20
265.6635523968418
 30
-0.0000000000000145
 10
587.7935521698268
 20
262.103493876899
 30
0.00000000000001
 10
585.0982397257062
 20
262.103493876899
 30
0.0000000000000102
  0
SPLINE
  5
1DE
330
1F
100
AcDbEntity
  8
1
  6
Continuous
 62
   155
100
AcDbSpline
210
0.0000000000000076
220
0.0000000000000038
230
-1.0
 70
     8
 71
     2
 72
     6
 73
     3
 74
     0
 42
0.0000000001
 43
0.0000000001
 40
0.0
 40
0.0
 40
0.0
 40
1.0
 40
1.0
 40
1.0
 10
573.6543923067106
 20
272.3681421015919
 30
-0.0000000000000055
 10
575.0918922769082
 20
270.616189012914
 30
-0.0000000000000077
 10
575.0918922769082
 20
268.3700953094799
 30
-0.0000000000000103
  0
SPLINE
  5
1DF
330
1F
100
AcDbEntity
  8
1
  6
Continuous
 62
   155
100
AcDbSpline
210
-0.0000000000000105
220
-0.0000000000000162
230
1.0
 70
     8
 71
     2
 72
     6
 73
     3
 74
     0
 42
0.0000000001
 43
0.0000000001
 40
0.0
 40
0.0
 40
0.0
 40
1.0
 40
1.0
 40
1.0
 10
571.1163064218302
 20
274.209938938408
 30
-0.0000000000000032
 10
572.3853493642705
 20
273.715798323652
 30
-0.0000000000000039
 10
573.2725563771267
 20
272.7724389682099
 30
-0.000000000000005
  0
SPLINE
  5
1E0
330
1F
100
AcDbEntity
  8
1
  6
Continuous
 62
   155
100
AcDbSpline
210
-0.0000000000000105
220
-0.0000000000000162
230
1.0
 70
     8
 71
     2
 72
     6
 73
     3
 74
     0
 42
0.0000000001
 43
0.0000000001
 40
0.0
 40
0.0
 40
0.0
 40
1.0
 40
1.0
 40
1.0
 10
587.4229467087602
 20
274.209938938408
 30
-0.0000000000000042
 10
588.6919896512003
 20
273.715798323652
 30
-0.0000000000000049
 10
589.5791966640567
 20
272.7724389682099
 30
-0.000000000000006
  0
SPLINE
  5
1E1
330
1F
100
AcDbEntity
  8
1
  6
Continuous
 62
   155
100
AcDbSpline
210
0.0000000000000031
220
-0.0000000000000027
230
1.0
 70
     8
 71
     2
 72
     6
 73
     3
 74
     0
 42
0.0000000001
 43
0.0000000001
 40
0.0
 40
0.0
 40
0.0
 40
1.0
 40
1.0
 40
1.0
 10
589.8150365029172
 20
278.3202904156919
 30
0.0000000000000005
 10
589.8150365029172
 20
275.5912865660199
 30
-0.0000000000000027
 10
587.4229467087602
 20
274.209938938408
 30
-0.0000000000000042
  0
SPLINE
  5
1E2
330
1F
100
AcDbEntity
  8
1
  6
Continuous
 62
   155
100
AcDbSpline
210
0.0000000000000047
220
0.0000000000000054
230
-1.0
 70
     8
 71
     2
 72
     7
 73
     4
 74
     0
 42
0.0000000001
 43
0.0000000001
 40
0.0
 40
0.0
 40
0.0
 40
0.5
 40
1.0
 40
1.0
 40
1.0
 10
568.7915994387763
 20
283.037087192903
 30
0.0000000000000073
 10
570.7457009607636
 20
283.037087192903
 30
0.0000000000000071
 10
573.5083962159874
 20
280.274391937679
 30
0.0000000000000037
 10
573.5083962159874
 20
278.3202904156919
 30
0.0000000000000015
  0
SPLINE
  5
1E3
330
1F
100
AcDbEntity
  8
1
  6
Continuous
 62
   155
100
AcDbSpline
210
0.0000000000000031
220
-0.0000000000000027
230
1.0
 70
     8
 71
     2
 72
     6
 73
     3
 74
     0
 42
0.0000000001
 43
0.0000000001
 40
0.0
 40
0.0
 40
0.0
 40
1.0
 40
1.0
 40
1.0
 10
573.5083962159874
 20
278.3202904156919
 30
0.0000000000000015
 10
573.5083962159874
 20
275.5912865660199
 30
-0.0000000000000017
 10
571.1163064218302
 20
274.209938938408
 30
-0.0000000000000032
  0
SPLINE
  5
1E4
330
1F
100
AcDbEntity
  8
1
  6
Continuous
 62
   155
100
AcDbSpline
210
-0.0000000000000047
220
-0.0000000000000054
230
1.0
 70
     8
 71
     2
 72
     7
 73
     4
 74
     0
 42
0.0000000001
 43
0.0000000001
 40
0.0
 40
0.0
 40
0.0
 40
0.5
 40
1.0
 40
1.0
 40
1.0
 10
585.0982397257062
 20
283.037087192903
 30
0.0000000000000063
 10
587.0523412476935
 20
283.037087192903
 30
0.0000000000000061
 10
589.8150365029172
 20
280.274391937679
 30
0.0000000000000027
 10
589.8150365029172
 20
278.3202904156919
 30
0.0000000000000005
  0
MTEXT
  5
2B2
330
1F
100
AcDbEntity
  8
0
100
AcDbMText
 10
494.8276381678793
 20
55.56704220256233
 30
0.0
 40
25.0
 41
417.2315007611023
 46
0.0
 71
     1
 72
     5
  1
M2AA 112M B3
 73
     1
 44
1.0
1001
ACAD
1000
ACAD_MTEXT_COLUMN_INFO_BEGIN
1070
    75
1070
     2
1070
    79
1070
     0
1070
    76
1070
     1
1070
    78
1070
     0
1070
    48
1040
417.2315007611023
1070
    49
1040
1.0
1070
    50
1070
     1
1040
0.0
1000
ACAD_MTEXT_COLUMN_INFO_END
  0
LINE
  5
2F4
330
1F
100
AcDbEntity
  8
1
  6
Continuous
 62
   155
100
AcDbLine
 10
1077.936805138405
 20
626.2804241216135
 30
0.0
 11
1077.936805138405
 21
616.0157761216136
 31
0.0
  0
LINE
  5
2F5
330
1F
100
AcDbEntity
  8
1
  6
Continuous
 62
   155
100
AcDbLine
 10
1066.695106138406
 20
616.0157761216136
 30
0.0
 11
1060.170204138406
 21
616.0157761216136
 31
0.0
  0
LINE
  5
2F6
330
1F
100
AcDbEntity
  8
1
  6
Continuous
 62
   155
100
AcDbLine
 10
1071.872352138406
 20
616.0157761216136
 30
0.0
 11
1071.872352138406
 21
626.2804241216135
 31
0.0
  0
LINE
  5
2F7
330
1F
100
AcDbEntity
  8
1
  6
Continuous
 62
   155
100
AcDbLine
 10
1077.936805138405
 20
616.0157761216136
 30
0.0
 11
1071.872352138406
 21
616.0157761216136
 31
0.0
  0
LINE
  5
2F8
330
1F
100
AcDbEntity
  8
1
  6
Continuous
 62
   155
100
AcDbLine
 10
1094.243446138406
 20
616.0157761216136
 30
0.0
 11
1088.178993138406
 21
616.0157761216136
 31
0.0
  0
LINE
  5
2F9
330
1F
100
AcDbEntity
  8
1
  6
Continuous
 62
   155
100
AcDbLine
 10
1063.101356138406
 20
626.2804241216135
 30
0.0
 11
1066.695106138406
 21
616.0157761216136
 31
0.0
  0
LINE
  5
2FA
330
1F
100
AcDbEntity
  8
1
  6
Continuous
 62
   155
100
AcDbLine
 10
1071.872352138406
 20
626.2804241216135
 30
0.0
 11
1077.936805138405
 21
626.2804241216135
 31
0.0
  0
LINE
  5
2FB
330
1F
100
AcDbEntity
  8
1
  6
Continuous
 62
   155
100
AcDbLine
 10
1094.670203138406
 20
605.3468311216136
 30
0.0
 11
1094.670203138406
 21
615.6114791216135
 31
0.0
  0
LINE
  5
2FC
330
1F
100
AcDbEntity
  8
1
  6
Continuous
 62
   155
100
AcDbLine
 10
1080.239051138406
 20
605.3468311216136
 30
0.0
 11
1078.363563138406
 21
605.3468311216136
 31
0.0
  0
LINE
  5
2FD
330
1F
100
AcDbEntity
  8
1
  6
Continuous
 62
   155
100
AcDbLine
 10
1088.178993138406
 20
626.2804241216135
 30
0.0
 11
1094.243446138406
 21
626.2804241216135
 31
0.0
  0
LINE
  5
2FE
330
1F
100
AcDbEntity
  8
1
  6
Continuous
 62
   155
100
AcDbLine
 10
1060.170204138406
 20
616.0157761216136
 30
0.0
 11
1060.170204138406
 21
626.2804241216135
 31
0.0
  0
LINE
  5
2FF
330
1F
100
AcDbEntity
  8
1
  6
Continuous
 62
   155
100
AcDbLine
 10
1094.243446138406
 20
626.2804241216135
 30
0.0
 11
1094.243446138406
 21
616.0157761216136
 31
0.0
  0
LINE
  5
300
330
1F
100
AcDbEntity
  8
1
  6
Continuous
 62
   155
100
AcDbLine
 10
1088.178993138406
 20
616.0157761216136
 30
0.0
 11
1088.178993138406
 21
626.2804241216135
 31
0.0
  0
LINE
  5
301
330
1F
100
AcDbEntity
  8
1
  6
Continuous
 62
   155
100
AcDbLine
 10
1096.545692138406
 20
605.3468311216136
 30
0.0
 11
1094.670203138406
 21
605.3468311216136
 31
0.0
  0
LINE
  5
302
330
1F
100
AcDbEntity
  8
1
  6
Continuous
 62
   155
100
AcDbLine
 10
1078.363563138406
 20
605.3468311216136
 30
0.0
 11
1078.363563138406
 21
615.6114791216135
 31
0.0
  0
LINE
  5
303
330
1F
100
AcDbEntity
  8
1
  6
Continuous
 62
   155
100
AcDbLine
 10
1060.170204138406
 20
626.2804241216135
 30
0.0
 11
1063.101356138406
 21
626.2804241216135
 31
0.0
  0
LINE
  5
304
330
1F
100
AcDbEntity
  8
1
  6
Continuous
 62
   155
100
AcDbLine
 10
1078.363563138406
 20
615.6114791216135
 30
0.0
 11
1085.101844138406
 21
615.6114791216135
 31
0.0
  0
LINE
  5
305
330
1F
100
AcDbEntity
  8
1
  6
Continuous
 62
   155
100
AcDbLine
 10
1094.670203138406
 20
615.6114791216135
 30
0.0
 11
1101.408485138406
 21
615.6114791216135
 31
0.0
  0
LINE
  5
306
330
1F
100
AcDbEntity
  8
1
  6
Continuous
 62
   155
100
AcDbLine
 10
1078.363563138406
 20
616.0157761216136
 30
0.0
 11
1078.363563138406
 21
626.2804241216135
 31
0.0
  0
LINE
  5
307
330
1F
100
AcDbEntity
  8
1
  6
Continuous
 62
   155
100
AcDbLine
 10
1088.178993138406
 20
615.6114791216135
 30
0.0
 11
1094.243446138406
 21
615.6114791216135
 31
0.0
  0
LINE
  5
308
330
1F
100
AcDbEntity
  8
1
  6
Continuous
 62
   155
100
AcDbLine
 10
1065.201454138406
 20
605.3468311216136
 30
0.0
 11
1063.730263138406
 21
609.5470261216136
 31
0.0
  0
LINE
  5
309
330
1F
100
AcDbEntity
  8
1
  6
Continuous
 62
   155
100
AcDbLine
 10
1060.170204138406
 20
609.5470261216136
 30
0.0
 11
1060.170204138406
 21
615.6114791216135
 31
0.0
  0
LINE
  5
30A
330
1F
100
AcDbEntity
  8
1
  6
Continuous
 62
   155
100
AcDbLine
 10
1063.730263138406
 20
609.5470261216136
 30
0.0
 11
1060.170204138406
 21
609.5470261216136
 31
0.0
  0
LINE
  5
30B
330
1F
100
AcDbEntity
  8
1
  6
Continuous
 62
   155
100
AcDbLine
 10
1053.241005138406
 20
616.0157761216136
 30
0.0
 11
1056.834755138406
 21
626.2804241216135
 31
0.0
  0
LINE
  5
30C
330
1F
100
AcDbEntity
  8
1
  6
Continuous
 62
   155
100
AcDbLine
 10
1094.243446138406
 20
605.3468311216136
 30
0.0
 11
1088.178993138406
 21
605.3468311216136
 31
0.0
  0
LINE
  5
30D
330
1F
100
AcDbEntity
  8
1
  6
Continuous
 62
   155
100
AcDbLine
 10
1056.834755138406
 20
626.2804241216135
 30
0.0
 11
1059.765907138406
 21
626.2804241216135
 31
0.0
  0
LINE
  5
30E
330
1F
100
AcDbEntity
  8
1
  6
Continuous
 62
   155
100
AcDbLine
 10
1054.734657138406
 20
605.3468311216136
 30
0.0
 11
1049.501259138406
 21
605.3468311216136
 31
0.0
  0
LINE
  5
30F
330
1F
100
AcDbEntity
  8
1
  6
Continuous
 62
   155
100
AcDbLine
 10
1084.720008138406
 20
616.0157761216136
 30
0.0
 11
1078.363563138406
 21
616.0157761216136
 31
0.0
  0
LINE
  5
310
330
1F
100
AcDbEntity
  8
1
  6
Continuous
 62
   155
100
AcDbLine
 10
1077.936805138405
 20
615.6114791216135
 30
0.0
 11
1077.936805138405
 21
605.3468311216136
 31
0.0
  0
LINE
  5
311
330
1F
100
AcDbEntity
  8
1
  6
Continuous
 62
   155
100
AcDbLine
 10
1070.434852138406
 20
605.3468311216136
 30
0.0
 11
1065.201454138406
 21
605.3468311216136
 31
0.0
  0
LINE
  5
312
330
1F
100
AcDbEntity
  8
1
  6
Continuous
 62
   155
100
AcDbLine
 10
1059.765907138406
 20
615.6114791216135
 30
0.0
 11
1059.765907138406
 21
609.5470261216136
 31
0.0
  0
LINE
  5
313
330
1F
100
AcDbEntity
  8
1
  6
Continuous
 62
   155
100
AcDbLine
 10
1077.936805138405
 20
605.3468311216136
 30
0.0
 11
1071.872352138406
 21
605.3468311216136
 31
0.0
  0
LINE
  5
314
330
1F
100
AcDbEntity
  8
1
  6
Continuous
 62
   155
100
AcDbLine
 10
1053.095009138406
 20
615.6114791216135
 30
0.0
 11
1059.765907138406
 21
615.6114791216135
 31
0.0
  0
LINE
  5
315
330
1F
100
AcDbEntity
  8
1
  6
Continuous
 62
   155
100
AcDbLine
 10
1059.765907138406
 20
609.5470261216136
 30
0.0
 11
1056.205849138406
 21
609.5470261216136
 31
0.0
  0
LINE
  5
316
330
1F
100
AcDbEntity
  8
1
  6
Continuous
 62
   155
100
AcDbLine
 10
1049.501259138406
 20
605.3468311216136
 30
0.0
 11
1053.095009138406
 21
615.6114791216135
 31
0.0
  0
LINE
  5
317
330
1F
100
AcDbEntity
  8
1
  6
Continuous
 62
   155
100
AcDbLine
 10
1059.765907138406
 20
616.0157761216136
 30
0.0
 11
1053.241005138406
 21
616.0157761216136
 31
0.0
  0
LINE
  5
318
330
1F
100
AcDbEntity
  8
1
  6
Continuous
 62
   155
100
AcDbLine
 10
1056.205849138406
 20
609.5470261216136
 30
0.0
 11
1054.734657138406
 21
605.3468311216136
 31
0.0
  0
LINE
  5
319
330
1F
100
AcDbEntity
  8
1
  6
Continuous
 62
   155
100
AcDbLine
 10
1088.178993138406
 20
605.3468311216136
 30
0.0
 11
1088.178993138406
 21
615.6114791216135
 31
0.0
  0
LINE
  5
31A
330
1F
100
AcDbEntity
  8
1
  6
Continuous
 62
   155
100
AcDbLine
 10
1078.363563138406
 20
626.2804241216135
 30
0.0
 11
1080.239051138406
 21
626.2804241216135
 31
0.0
  0
LINE
  5
31B
330
1F
100
AcDbEntity
  8
1
  6
Continuous
 62
   155
100
AcDbLine
 10
1094.243446138406
 20
615.6114791216135
 30
0.0
 11
1094.243446138406
 21
605.3468311216136
 31
0.0
  0
LINE
  5
31C
330
1F
100
AcDbEntity
  8
1
  6
Continuous
 62
   155
100
AcDbLine
 10
1066.841102138406
 20
615.6114791216135
 30
0.0
 11
1070.434852138406
 21
605.3468311216136
 31
0.0
  0
LINE
  5
31D
330
1F
100
AcDbEntity
  8
1
  6
Continuous
 62
   155
100
AcDbLine
 10
1071.872352138406
 20
605.3468311216136
 30
0.0
 11
1071.872352138406
 21
615.6114791216135
 31
0.0
  0
LINE
  5
31E
330
1F
100
AcDbEntity
  8
1
  6
Continuous
 62
   155
100
AcDbLine
 10
1059.765907138406
 20
626.2804241216135
 30
0.0
 11
1059.765907138406
 21
616.0157761216136
 31
0.0
  0
LINE
  5
31F
330
1F
100
AcDbEntity
  8
1
  6
Continuous
 62
   155
100
AcDbLine
 10
1071.872352138406
 20
615.6114791216135
 30
0.0
 11
1077.936805138405
 21
615.6114791216135
 31
0.0
  0
LINE
  5
320
330
1F
100
AcDbEntity
  8
1
  6
Continuous
 62
   155
100
AcDbLine
 10
1060.170204138406
 20
615.6114791216135
 30
0.0
 11
1066.841102138406
 21
615.6114791216135
 31
0.0
  0
LINE
  5
321
330
1F
100
AcDbEntity
  8
1
  6
Continuous
 62
   155
100
AcDbLine
 10
1094.670203138406
 20
616.0157761216136
 30
0.0
 11
1094.670203138406
 21
626.2804241216135
 31
0.0
  0
LINE
  5
322
330
1F
100
AcDbEntity
  8
1
  6
Continuous
 62
   155
100
AcDbLine
 10
1101.026649138406
 20
616.0157761216136
 30
0.0
 11
1094.670203138406
 21
616.0157761216136
 31
0.0
  0
LINE
  5
323
330
1F
100
AcDbEntity
  8
1
  6
Continuous
 62
   155
100
AcDbLine
 10
1094.670203138406
 20
626.2804241216135
 30
0.0
 11
1096.545692138406
 21
626.2804241216135
 31
0.0
  0
SPLINE
  5
324
330
1F
100
AcDbEntity
  8
1
  6
Continuous
 62
   155
100
AcDbSpline
210
-0.0000000000000076
220
-0.0000000000000038
230
1.0
 70
     8
 71
     2
 72
     6
 73
     3
 74
     0
 42
0.0000000001
 43
0.0000000001
 40
0.0
 40
0.0
 40
0.0
 40
1.0
 40
1.0
 40
1.0
 10
1101.408484732046
 20
615.6114792232056
 30
-0.0000000000000065
 10
1102.845984702244
 20
613.8595261345276
 30
-0.0000000000000087
 10
1102.845984702244
 20
611.6134324310935
 30
-0.0000000000000113
  0
SPLINE
  5
325
330
1F
100
AcDbEntity
  8
1
  6
Continuous
 62
   155
100
AcDbSpline
210
0.0000000000000139
220
-0.000000000000016
230
-1.0
 70
     8
 71
     2
 72
     7
 73
     4
 74
     0
 42
0.0000000001
 43
0.0000000001
 40
0.0
 40
0.0
 40
0.0
 40
0.5
 40
1.0
 40
1.0
 40
1.0
 10
1086.539344415314
 20
611.6134324310935
 30
-0.0000000000000103
 10
1086.539344415314
 20
608.9068895184555
 30
-0.0000000000000135
 10
1082.934364021303
 20
605.3468309985126
 30
0.000000000000011
 10
1080.239051577182
 20
605.3468309985126
 30
0.0000000000000112
  0
SPLINE
  5
326
330
1F
100
AcDbEntity
  8
1
  6
Continuous
 62
   155
100
AcDbSpline
210
0.0000000000000139
220
-0.000000000000016
230
-1.0
 70
     8
 71
     2
 72
     7
 73
     4
 74
     0
 42
0.0000000001
 43
0.0000000001
 40
0.0
 40
0.0
 40
0.0
 40
0.5
 40
1.0
 40
1.0
 40
1.0
 10
1102.845984702244
 20
611.6134324310935
 30
-0.0000000000000113
 10
1102.845984702244
 20
608.9068895184555
 30
-0.0000000000000145
 10
1099.241004308233
 20
605.3468309985126
 30
0.00000000000001
 10
1096.545691864112
 20
605.3468309985126
 30
0.0000000000000102
  0
SPLINE
  5
327
330
1F
100
AcDbEntity
  8
1
  6
Continuous
 62
   155
100
AcDbSpline
210
0.0000000000000076
220
0.0000000000000038
230
-1.0
 70
     8
 71
     2
 72
     6
 73
     3
 74
     0
 42
0.0000000001
 43
0.0000000001
 40
0.0
 40
0.0
 40
0.0
 40
1.0
 40
1.0
 40
1.0
 10
1085.101844445116
 20
615.6114792232056
 30
-0.0000000000000055
 10
1086.539344415314
 20
613.8595261345276
 30
-0.0000000000000077
 10
1086.539344415314
 20
611.6134324310935
 30
-0.0000000000000103
  0
SPLINE
  5
328
330
1F
100
AcDbEntity
  8
1
  6
Continuous
 62
   155
100
AcDbSpline
210
0.0000000000000105
220
0.0000000000000162
230
-1.0
 70
     8
 71
     2
 72
     6
 73
     3
 74
     0
 42
0.0000000001
 43
0.0000000001
 40
0.0
 40
0.0
 40
0.0
 40
1.0
 40
1.0
 40
1.0
 10
1082.563758560236
 20
617.4532760600215
 30
-0.0000000000000032
 10
1083.832801502676
 20
616.9591354452656
 30
-0.0000000000000039
 10
1084.720008515533
 20
616.0157760898235
 30
-0.000000000000005
  0
SPLINE
  5
329
330
1F
100
AcDbEntity
  8
1
  6
Continuous
 62
   155
100
AcDbSpline
210
0.0000000000000105
220
0.0000000000000162
230
-1.0
 70
     8
 71
     2
 72
     6
 73
     3
 74
     0
 42
0.0000000001
 43
0.0000000001
 40
0.0
 40
0.0
 40
0.0
 40
1.0
 40
1.0
 40
1.0
 10
1098.870398847166
 20
617.4532760600215
 30
-0.0000000000000042
 10
1100.139441789606
 20
616.9591354452656
 30
-0.0000000000000049
 10
1101.026648802462
 20
616.0157760898235
 30
-0.000000000000006
  0
SPLINE
  5
32A
330
1F
100
AcDbEntity
  8
1
  6
Continuous
 62
   155
100
AcDbSpline
210
0.0000000000000031
220
-0.0000000000000027
230
1.0
 70
     8
 71
     2
 72
     6
 73
     3
 74
     0
 42
0.0000000001
 43
0.0000000001
 40
0.0
 40
0.0
 40
0.0
 40
1.0
 40
1.0
 40
1.0
 10
1101.262488641323
 20
621.5636275373055
 30
0.0000000000000005
 10
1101.262488641323
 20
618.8346236876335
 30
-0.0000000000000027
 10
1098.870398847166
 20
617.4532760600215
 30
-0.0000000000000042
  0
SPLINE
  5
32B
330
1F
100
AcDbEntity
  8
1
  6
Continuous
 62
   155
100
AcDbSpline
210
0.0000000000000047
220
0.0000000000000054
230
-1.0
 70
     8
 71
     2
 72
     7
 73
     4
 74
     0
 42
0.0000000001
 43
0.0000000001
 40
0.0
 40
0.0
 40
0.0
 40
0.5
 40
1.0
 40
1.0
 40
1.0
 10
1080.239051577182
 20
626.2804243145166
 30
0.0000000000000073
 10
1082.193153099169
 20
626.2804243145166
 30
0.0000000000000071
 10
1084.955848354393
 20
623.5177290592925
 30
0.0000000000000037
 10
1084.955848354393
 20
621.5636275373055
 30
0.0000000000000015
  0
SPLINE
  5
32C
330
1F
100
AcDbEntity
  8
1
  6
Continuous
 62
   155
100
AcDbSpline
210
0.0000000000000031
220
-0.0000000000000027
230
1.0
 70
     8
 71
     2
 72
     6
 73
     3
 74
     0
 42
0.0000000001
 43
0.0000000001
 40
0.0
 40
0.0
 40
0.0
 40
1.0
 40
1.0
 40
1.0
 10
1084.955848354393
 20
621.5636275373055
 30
0.0000000000000015
 10
1084.955848354393
 20
618.8346236876335
 30
-0.0000000000000017
 10
1082.563758560236
 20
617.4532760600215
 30
-0.0000000000000032
  0
SPLINE
  5
32D
330
1F
100
AcDbEntity
  8
1
  6
Continuous
 62
   155
100
AcDbSpline
210
0.0000000000000047
220
0.0000000000000054
230
-1.0
 70
     8
 71
     2
 72
     7
 73
     4
 74
     0
 42
0.0000000001
 43
0.0000000001
 40
0.0
 40
0.0
 40
0.0
 40
0.5
 40
1.0
 40
1.0
 40
1.0
 10
1096.545691864112
 20
626.2804243145166
 30
0.0000000000000063
 10
1098.499793386099
 20
626.2804243145166
 30
0.0000000000000061
 10
1101.262488641323
 20
623.5177290592925
 30
0.0000000000000027
 10
1101.262488641323
 20
621.5636275373055
 30
0.0000000000000005
  0
LINE
  5
36D
330
1F
100
AcDbEntity
  8
1
  6
Continuous
 62
   155
100
AcDbLine
 10
620.7281672363215
 20
681.011616264657
 30
0.0
 11
620.7281672363215
 21
670.746968264657
 31
0.0
  0
LINE
  5
36E
330
1F
100
AcDbEntity
  8
1
  6
Continuous
 62
   155
100
AcDbLine
 10
609.4864682363215
 20
670.746968264657
 30
0.0
 11
602.9615662363217
 21
670.746968264657
 31
0.0
  0
LINE
  5
36F
330
1F
100
AcDbEntity
  8
1
  6
Continuous
 62
   155
100
AcDbLine
 10
614.6637142363216
 20
670.746968264657
 30
0.0
 11
614.6637142363216
 21
681.011616264657
 31
0.0
  0
LINE
  5
370
330
1F
100
AcDbEntity
  8
1
  6
Continuous
 62
   155
100
AcDbLine
 10
620.7281672363215
 20
670.746968264657
 30
0.0
 11
614.6637142363216
 21
670.746968264657
 31
0.0
  0
LINE
  5
371
330
1F
100
AcDbEntity
  8
1
  6
Continuous
 62
   155
100
AcDbLine
 10
637.0348082363216
 20
670.746968264657
 30
0.0
 11
630.9703552363217
 21
670.746968264657
 31
0.0
  0
LINE
  5
372
330
1F
100
AcDbEntity
  8
1
  6
Continuous
 62
   155
100
AcDbLine
 10
605.8927182363215
 20
681.011616264657
 30
0.0
 11
609.4864682363215
 21
670.746968264657
 31
0.0
  0
LINE
  5
373
330
1F
100
AcDbEntity
  8
1
  6
Continuous
 62
   155
100
AcDbLine
 10
614.6637142363216
 20
681.011616264657
 30
0.0
 11
620.7281672363215
 21
681.011616264657
 31
0.0
  0
LINE
  5
374
330
1F
100
AcDbEntity
  8
1
  6
Continuous
 62
   155
100
AcDbLine
 10
637.4615652363216
 20
660.078023264657
 30
0.0
 11
637.4615652363216
 21
670.342671264657
 31
0.0
  0
LINE
  5
375
330
1F
100
AcDbEntity
  8
1
  6
Continuous
 62
   155
100
AcDbLine
 10
623.0304132363216
 20
660.078023264657
 30
0.0
 11
621.1549252363215
 21
660.078023264657
 31
0.0
  0
LINE
  5
376
330
1F
100
AcDbEntity
  8
1
  6
Continuous
 62
   155
100
AcDbLine
 10
630.9703552363217
 20
681.011616264657
 30
0.0
 11
637.0348082363216
 21
681.011616264657
 31
0.0
  0
LINE
  5
377
330
1F
100
AcDbEntity
  8
1
  6
Continuous
 62
   155
100
AcDbLine
 10
602.9615662363217
 20
670.746968264657
 30
0.0
 11
602.9615662363217
 21
681.011616264657
 31
0.0
  0
LINE
  5
378
330
1F
100
AcDbEntity
  8
1
  6
Continuous
 62
   155
100
AcDbLine
 10
637.0348082363216
 20
681.011616264657
 30
0.0
 11
637.0348082363216
 21
670.746968264657
 31
0.0
  0
LINE
  5
379
330
1F
100
AcDbEntity
  8
1
  6
Continuous
 62
   155
100
AcDbLine
 10
630.9703552363217
 20
670.746968264657
 30
0.0
 11
630.9703552363217
 21
681.011616264657
 31
0.0
  0
LINE
  5
37A
330
1F
100
AcDbEntity
  8
1
  6
Continuous
 62
   155
100
AcDbLine
 10
639.3370542363215
 20
660.078023264657
 30
0.0
 11
637.4615652363216
 21
660.078023264657
 31
0.0
  0
LINE
  5
37B
330
1F
100
AcDbEntity
  8
1
  6
Continuous
 62
   155
100
AcDbLine
 10
621.1549252363215
 20
660.078023264657
 30
0.0
 11
621.1549252363215
 21
670.342671264657
 31
0.0
  0
LINE
  5
37C
330
1F
100
AcDbEntity
  8
1
  6
Continuous
 62
   155
100
AcDbLine
 10
602.9615662363217
 20
681.011616264657
 30
0.0
 11
605.8927182363215
 21
681.011616264657
 31
0.0
  0
LINE
  5
37D
330
1F
100
AcDbEntity
  8
1
  6
Continuous
 62
   155
100
AcDbLine
 10
621.1549252363215
 20
670.342671264657
 30
0.0
 11
627.8932062363216
 21
670.342671264657
 31
0.0
  0
LINE
  5
37E
330
1F
100
AcDbEntity
  8
1
  6
Continuous
 62
   155
100
AcDbLine
 10
637.4615652363216
 20
670.342671264657
 30
0.0
 11
644.1998472363215
 21
670.342671264657
 31
0.0
  0
LINE
  5
37F
330
1F
100
AcDbEntity
  8
1
  6
Continuous
 62
   155
100
AcDbLine
 10
621.1549252363215
 20
670.746968264657
 30
0.0
 11
621.1549252363215
 21
681.011616264657
 31
0.0
  0
LINE
  5
380
330
1F
100
AcDbEntity
  8
1
  6
Continuous
 62
   155
100
AcDbLine
 10
630.9703552363217
 20
670.342671264657
 30
0.0
 11
637.0348082363216
 21
670.342671264657
 31
0.0
  0
LINE
  5
381
330
1F
100
AcDbEntity
  8
1
  6
Continuous
 62
   155
100
AcDbLine
 10
607.9928162363216
 20
660.078023264657
 30
0.0
 11
606.5216252363216
 21
664.2782182646571
 31
0.0
  0
LINE
  5
382
330
1F
100
AcDbEntity
  8
1
  6
Continuous
 62
   155
100
AcDbLine
 10
602.9615662363217
 20
664.2782182646571
 30
0.0
 11
602.9615662363217
 21
670.342671264657
 31
0.0
  0
LINE
  5
383
330
1F
100
AcDbEntity
  8
1
  6
Continuous
 62
   155
100
AcDbLine
 10
606.5216252363216
 20
664.2782182646571
 30
0.0
 11
602.9615662363217
 21
664.2782182646571
 31
0.0
  0
LINE
  5
384
330
1F
100
AcDbEntity
  8
1
  6
Continuous
 62
   155
100
AcDbLine
 10
596.0323672363216
 20
670.746968264657
 30
0.0
 11
599.6261172363216
 21
681.011616264657
 31
0.0
  0
LINE
  5
385
330
1F
100
AcDbEntity
  8
1
  6
Continuous
 62
   155
100
AcDbLine
 10
637.0348082363216
 20
660.078023264657
 30
0.0
 11
630.9703552363217
 21
660.078023264657
 31
0.0
  0
LINE
  5
386
330
1F
100
AcDbEntity
  8
1
  6
Continuous
 62
   155
100
AcDbLine
 10
599.6261172363216
 20
681.011616264657
 30
0.0
 11
602.5572692363216
 21
681.011616264657
 31
0.0
  0
LINE
  5
387
330
1F
100
AcDbEntity
  8
1
  6
Continuous
 62
   155
100
AcDbLine
 10
597.5260192363216
 20
660.078023264657
 30
0.0
 11
592.2926212363215
 21
660.078023264657
 31
0.0
  0
LINE
  5
388
330
1F
100
AcDbEntity
  8
1
  6
Continuous
 62
   155
100
AcDbLine
 10
627.5113702363216
 20
670.746968264657
 30
0.0
 11
621.1549252363215
 21
670.746968264657
 31
0.0
  0
LINE
  5
389
330
1F
100
AcDbEntity
  8
1
  6
Continuous
 62
   155
100
AcDbLine
 10
620.7281672363215
 20
670.342671264657
 30
0.0
 11
620.7281672363215
 21
660.078023264657
 31
0.0
  0
LINE
  5
38A
330
1F
100
AcDbEntity
  8
1
  6
Continuous
 62
   155
100
AcDbLine
 10
613.2262142363217
 20
660.078023264657
 30
0.0
 11
607.9928162363216
 21
660.078023264657
 31
0.0
  0
LINE
  5
38B
330
1F
100
AcDbEntity
  8
1
  6
Continuous
 62
   155
100
AcDbLine
 10
602.5572692363216
 20
670.342671264657
 30
0.0
 11
602.5572692363216
 21
664.2782182646571
 31
0.0
  0
LINE
  5
38C
330
1F
100
AcDbEntity
  8
1
  6
Continuous
 62
   155
100
AcDbLine
 10
620.7281672363215
 20
660.078023264657
 30
0.0
 11
614.6637142363216
 21
660.078023264657
 31
0.0
  0
LINE
  5
38D
330
1F
100
AcDbEntity
  8
1
  6
Continuous
 62
   155
100
AcDbLine
 10
595.8863712363215
 20
670.342671264657
 30
0.0
 11
602.5572692363216
 21
670.342671264657
 31
0.0
  0
LINE
  5
38E
330
1F
100
AcDbEntity
  8
1
  6
Continuous
 62
   155
100
AcDbLine
 10
602.5572692363216
 20
664.2782182646571
 30
0.0
 11
598.9972112363216
 21
664.2782182646571
 31
0.0
  0
LINE
  5
38F
330
1F
100
AcDbEntity
  8
1
  6
Continuous
 62
   155
100
AcDbLine
 10
592.2926212363215
 20
660.078023264657
 30
0.0
 11
595.8863712363215
 21
670.342671264657
 31
0.0
  0
LINE
  5
390
330
1F
100
AcDbEntity
  8
1
  6
Continuous
 62
   155
100
AcDbLine
 10
602.5572692363216
 20
670.746968264657
 30
0.0
 11
596.0323672363216
 21
670.746968264657
 31
0.0
  0
LINE
  5
391
330
1F
100
AcDbEntity
  8
1
  6
Continuous
 62
   155
100
AcDbLine
 10
598.9972112363216
 20
664.2782182646571
 30
0.0
 11
597.5260192363216
 21
660.078023264657
 31
0.0
  0
LINE
  5
392
330
1F
100
AcDbEntity
  8
1
  6
Continuous
 62
   155
100
AcDbLine
 10
630.9703552363217
 20
660.078023264657
 30
0.0
 11
630.9703552363217
 21
670.342671264657
 31
0.0
  0
LINE
  5
393
330
1F
100
AcDbEntity
  8
1
  6
Continuous
 62
   155
100
AcDbLine
 10
621.1549252363215
 20
681.011616264657
 30
0.0
 11
623.0304132363216
 21
681.011616264657
 31
0.0
  0
LINE
  5
394
330
1F
100
AcDbEntity
  8
1
  6
Continuous
 62
   155
100
AcDbLine
 10
637.0348082363216
 20
670.342671264657
 30
0.0
 11
637.0348082363216
 21
660.078023264657
 31
0.0
  0
LINE
  5
395
330
1F
100
AcDbEntity
  8
1
  6
Continuous
 62
   155
100
AcDbLine
 10
609.6324642363216
 20
670.342671264657
 30
0.0
 11
613.2262142363217
 21
660.078023264657
 31
0.0
  0
LINE
  5
396
330
1F
100
AcDbEntity
  8
1
  6
Continuous
 62
   155
100
AcDbLine
 10
614.6637142363216
 20
660.078023264657
 30
0.0
 11
614.6637142363216
 21
670.342671264657
 31
0.0
  0
LINE
  5
397
330
1F
100
AcDbEntity
  8
1
  6
Continuous
 62
   155
100
AcDbLine
 10
602.5572692363216
 20
681.011616264657
 30
0.0
 11
602.5572692363216
 21
670.746968264657
 31
0.0
  0
LINE
  5
398
330
1F
100
AcDbEntity
  8
1
  6
Continuous
 62
   155
100
AcDbLine
 10
614.6637142363216
 20
670.342671264657
 30
0.0
 11
620.7281672363215
 21
670.342671264657
 31
0.0
  0
LINE
  5
399
330
1F
100
AcDbEntity
  8
1
  6
Continuous
 62
   155
100
AcDbLine
 10
602.9615662363217
 20
670.342671264657
 30
0.0
 11
609.6324642363216
 21
670.342671264657
 31
0.0
  0
LINE
  5
39A
330
1F
100
AcDbEntity
  8
1
  6
Continuous
 62
   155
100
AcDbLine
 10
637.4615652363216
 20
670.746968264657
 30
0.0
 11
637.4615652363216
 21
681.011616264657
 31
0.0
  0
LINE
  5
39B
330
1F
100
AcDbEntity
  8
1
  6
Continuous
 62
   155
100
AcDbLine
 10
643.8180112363215
 20
670.746968264657
 30
0.0
 11
637.4615652363216
 21
670.746968264657
 31
0.0
  0
LINE
  5
39C
330
1F
100
AcDbEntity
  8
1
  6
Continuous
 62
   155
100
AcDbLine
 10
637.4615652363216
 20
681.011616264657
 30
0.0
 11
639.3370542363215
 21
681.011616264657
 31
0.0
  0
SPLINE
  5
39D
330
1F
100
AcDbEntity
  8
1
  6
Continuous
 62
   155
100
AcDbSpline
210
-0.0000000000000076
220
-0.0000000000000038
230
1.0
 70
     8
 71
     2
 72
     6
 73
     3
 74
     0
 42
0.0000000001
 43
0.0000000001
 40
0.0
 40
0.0
 40
0.0
 40
1.0
 40
1.0
 40
1.0
 10
644.199846829962
 20
670.3426713662491
 30
-0.0000000000000065
 10
645.6373468001596
 20
668.5907182775711
 30
-0.0000000000000087
 10
645.6373468001596
 20
666.3446245741369
 30
-0.0000000000000113
  0
SPLINE
  5
39E
330
1F
100
AcDbEntity
  8
1
  6
Continuous
 62
   155
100
AcDbSpline
210
0.0000000000000139
220
-0.000000000000016
230
-1.0
 70
     8
 71
     2
 72
     7
 73
     4
 74
     0
 42
0.0000000001
 43
0.0000000001
 40
0.0
 40
0.0
 40
0.0
 40
0.5
 40
1.0
 40
1.0
 40
1.0
 10
629.3307065132299
 20
666.3446245741369
 30
-0.0000000000000103
 10
629.3307065132299
 20
663.6380816614989
 30
-0.0000000000000135
 10
625.7257261192185
 20
660.0780231415561
 30
0.000000000000011
 10
623.0304136750978
 20
660.0780231415561
 30
0.0000000000000112
  0
SPLINE
  5
39F
330
1F
100
AcDbEntity
  8
1
  6
Continuous
 62
   155
100
AcDbSpline
210
0.0000000000000139
220
-0.000000000000016
230
-1.0
 70
     8
 71
     2
 72
     7
 73
     4
 74
     0
 42
0.0000000001
 43
0.0000000001
 40
0.0
 40
0.0
 40
0.0
 40
0.5
 40
1.0
 40
1.0
 40
1.0
 10
645.6373468001596
 20
666.3446245741369
 30
-0.0000000000000113
 10
645.6373468001596
 20
663.6380816614989
 30
-0.0000000000000145
 10
642.0323664061484
 20
660.0780231415561
 30
0.00000000000001
 10
639.3370539620278
 20
660.0780231415561
 30
0.0000000000000102
  0
SPLINE
  5
3A0
330
1F
100
AcDbEntity
  8
1
  6
Continuous
 62
   155
100
AcDbSpline
210
0.0000000000000076
220
0.0000000000000038
230
-1.0
 70
     8
 71
     2
 72
     6
 73
     3
 74
     0
 42
0.0000000001
 43
0.0000000001
 40
0.0
 40
0.0
 40
0.0
 40
1.0
 40
1.0
 40
1.0
 10
627.8932065430321
 20
670.3426713662491
 30
-0.0000000000000055
 10
629.3307065132299
 20
668.5907182775711
 30
-0.0000000000000077
 10
629.3307065132299
 20
666.3446245741369
 30
-0.0000000000000103
  0
SPLINE
  5
3A1
330
1F
100
AcDbEntity
  8
1
  6
Continuous
 62
   155
100
AcDbSpline
210
0.0000000000000105
220
0.0000000000000162
230
-1.0
 70
     8
 71
     2
 72
     6
 73
     3
 74
     0
 42
0.0000000001
 43
0.0000000001
 40
0.0
 40
0.0
 40
0.0
 40
1.0
 40
1.0
 40
1.0
 10
625.3551206581517
 20
672.184468203065
 30
-0.0000000000000032
 10
626.624163600592
 20
671.690327588309
 30
-0.0000000000000039
 10
627.5113706134483
 20
670.746968232867
 30
-0.000000000000005
  0
SPLINE
  5
3A2
330
1F
100
AcDbEntity
  8
1
  6
Continuous
 62
   155
100
AcDbSpline
210
-0.0000000000000105
220
-0.0000000000000162
230
1.0
 70
     8
 71
     2
 72
     6
 73
     3
 74
     0
 42
0.0000000001
 43
0.0000000001
 40
0.0
 40
0.0
 40
0.0
 40
1.0
 40
1.0
 40
1.0
 10
641.6617609450818
 20
672.184468203065
 30
-0.0000000000000042
 10
642.930803887522
 20
671.690327588309
 30
-0.0000000000000049
 10
643.8180109003783
 20
670.746968232867
 30
-0.000000000000006
  0
SPLINE
  5
3A3
330
1F
100
AcDbEntity
  8
1
  6
Continuous
 62
   155
100
AcDbSpline
210
0.0000000000000031
220
-0.0000000000000027
230
1.0
 70
     8
 71
     2
 72
     6
 73
     3
 74
     0
 42
0.0000000001
 43
0.0000000001
 40
0.0
 40
0.0
 40
0.0
 40
1.0
 40
1.0
 40
1.0
 10
644.0538507392387
 20
676.294819680349
 30
0.0000000000000005
 10
644.0538507392387
 20
673.565815830677
 30
-0.0000000000000027
 10
641.6617609450818
 20
672.184468203065
 30
-0.0000000000000042
  0
SPLINE
  5
3A4
330
1F
100
AcDbEntity
  8
1
  6
Continuous
 62
   155
100
AcDbSpline
210
0.0000000000000047
220
0.0000000000000054
230
-1.0
 70
     8
 71
     2
 72
     7
 73
     4
 74
     0
 42
0.0000000001
 43
0.0000000001
 40
0.0
 40
0.0
 40
0.0
 40
0.5
 40
1.0
 40
1.0
 40
1.0
 10
623.0304136750978
 20
681.01161645756
 30
0.0000000000000073
 10
624.9845151970852
 20
681.01161645756
 30
0.0000000000000071
 10
627.747210452309
 20
678.248921202336
 30
0.0000000000000037
 10
627.747210452309
 20
676.294819680349
 30
0.0000000000000015
  0
SPLINE
  5
3A5
330
1F
100
AcDbEntity
  8
1
  6
Continuous
 62
   155
100
AcDbSpline
210
0.0000000000000031
220
-0.0000000000000027
230
1.0
 70
     8
 71
     2
 72
     6
 73
     3
 74
     0
 42
0.0000000001
 43
0.0000000001
 40
0.0
 40
0.0
 40
0.0
 40
1.0
 40
1.0
 40
1.0
 10
627.747210452309
 20
676.294819680349
 30
0.0000000000000015
 10
627.747210452309
 20
673.565815830677
 30
-0.0000000000000017
 10
625.3551206581517
 20
672.184468203065
 30
-0.0000000000000032
  0
SPLINE
  5
3A6
330
1F
100
AcDbEntity
  8
1
  6
Continuous
 62
   155
100
AcDbSpline
210
-0.0000000000000047
220
-0.0000000000000054
230
1.0
 70
     8
 71
     2
 72
     7
 73
     4
 74
     0
 42
0.0000000001
 43
0.0000000001
 40
0.0
 40
0.0
 40
0.0
 40
0.5
 40
1.0
 40
1.0
 40
1.0
 10
639.3370539620278
 20
681.01161645756
 30
0.0000000000000063
 10
641.291155484015
 20
681.01161645756
 30
0.0000000000000061
 10
644.0538507392387
 20
678.248921202336
 30
0.0000000000000027
 10
644.0538507392387
 20
676.294819680349
 30
0.0000000000000005
  0
LINE
  5
3E6
330
1F
100
AcDbEntity
  8
1
  6
Continuous
 62
   155
100
AcDbLine
 10
124.892045409202
 20
680.1505517817827
 30
0.0
 11
124.892045409202
 21
669.8859037817827
 31
0.0
  0
LINE
  5
3E7
330
1F
100
AcDbEntity
  8
1
  6
Continuous
 62
   155
100
AcDbLine
 10
113.650346409202
 20
669.8859037817827
 30
0.0
 11
107.1254444092021
 21
669.8859037817827
 31
0.0
  0
LINE
  5
3E8
330
1F
100
AcDbEntity
  8
1
  6
Continuous
 62
   155
100
AcDbLine
 10
118.8275924092021
 20
669.8859037817827
 30
0.0
 11
118.8275924092021
 21
680.1505517817827
 31
0.0
  0
LINE
  5
3E9
330
1F
100
AcDbEntity
  8
1
  6
Continuous
 62
   155
100
AcDbLine
 10
124.892045409202
 20
669.8859037817827
 30
0.0
 11
118.8275924092021
 21
669.8859037817827
 31
0.0
  0
LINE
  5
3EA
330
1F
100
AcDbEntity
  8
1
  6
Continuous
 62
   155
100
AcDbLine
 10
141.198686409202
 20
669.8859037817827
 30
0.0
 11
135.1342334092021
 21
669.8859037817827
 31
0.0
  0
LINE
  5
3EB
330
1F
100
AcDbEntity
  8
1
  6
Continuous
 62
   155
100
AcDbLine
 10
110.056596409202
 20
680.1505517817827
 30
0.0
 11
113.650346409202
 21
669.8859037817827
 31
0.0
  0
LINE
  5
3EC
330
1F
100
AcDbEntity
  8
1
  6
Continuous
 62
   155
100
AcDbLine
 10
118.8275924092021
 20
680.1505517817827
 30
0.0
 11
124.892045409202
 21
680.1505517817827
 31
0.0
  0
LINE
  5
3ED
330
1F
100
AcDbEntity
  8
1
  6
Continuous
 62
   155
100
AcDbLine
 10
141.625443409202
 20
659.2169587817827
 30
0.0
 11
141.625443409202
 21
669.4816067817827
 31
0.0
  0
LINE
  5
3EE
330
1F
100
AcDbEntity
  8
1
  6
Continuous
 62
   155
100
AcDbLine
 10
127.1942914092021
 20
659.2169587817827
 30
0.0
 11
125.318803409202
 21
659.2169587817827
 31
0.0
  0
LINE
  5
3EF
330
1F
100
AcDbEntity
  8
1
  6
Continuous
 62
   155
100
AcDbLine
 10
135.1342334092021
 20
680.1505517817827
 30
0.0
 11
141.198686409202
 21
680.1505517817827
 31
0.0
  0
LINE
  5
3F0
330
1F
100
AcDbEntity
  8
1
  6
Continuous
 62
   155
100
AcDbLine
 10
107.1254444092021
 20
669.8859037817827
 30
0.0
 11
107.1254444092021
 21
680.1505517817827
 31
0.0
  0
LINE
  5
3F1
330
1F
100
AcDbEntity
  8
1
  6
Continuous
 62
   155
100
AcDbLine
 10
141.198686409202
 20
680.1505517817827
 30
0.0
 11
141.198686409202
 21
669.8859037817827
 31
0.0
  0
LINE
  5
3F2
330
1F
100
AcDbEntity
  8
1
  6
Continuous
 62
   155
100
AcDbLine
 10
135.1342334092021
 20
669.8859037817827
 30
0.0
 11
135.1342334092021
 21
680.1505517817827
 31
0.0
  0
LINE
  5
3F3
330
1F
100
AcDbEntity
  8
1
  6
Continuous
 62
   155
100
AcDbLine
 10
143.500932409202
 20
659.2169587817827
 30
0.0
 11
141.625443409202
 21
659.2169587817827
 31
0.0
  0
LINE
  5
3F4
330
1F
100
AcDbEntity
  8
1
  6
Continuous
 62
   155
100
AcDbLine
 10
125.318803409202
 20
659.2169587817827
 30
0.0
 11
125.318803409202
 21
669.4816067817827
 31
0.0
  0
LINE
  5
3F5
330
1F
100
AcDbEntity
  8
1
  6
Continuous
 62
   155
100
AcDbLine
 10
107.1254444092021
 20
680.1505517817827
 30
0.0
 11
110.056596409202
 21
680.1505517817827
 31
0.0
  0
LINE
  5
3F6
330
1F
100
AcDbEntity
  8
1
  6
Continuous
 62
   155
100
AcDbLine
 10
125.318803409202
 20
669.4816067817827
 30
0.0
 11
132.0570844092021
 21
669.4816067817827
 31
0.0
  0
LINE
  5
3F7
330
1F
100
AcDbEntity
  8
1
  6
Continuous
 62
   155
100
AcDbLine
 10
141.625443409202
 20
669.4816067817827
 30
0.0
 11
148.363725409202
 21
669.4816067817827
 31
0.0
  0
LINE
  5
3F8
330
1F
100
AcDbEntity
  8
1
  6
Continuous
 62
   155
100
AcDbLine
 10
125.318803409202
 20
669.8859037817827
 30
0.0
 11
125.318803409202
 21
680.1505517817827
 31
0.0
  0
LINE
  5
3F9
330
1F
100
AcDbEntity
  8
1
  6
Continuous
 62
   155
100
AcDbLine
 10
135.1342334092021
 20
669.4816067817827
 30
0.0
 11
141.198686409202
 21
669.4816067817827
 31
0.0
  0
LINE
  5
3FA
330
1F
100
AcDbEntity
  8
1
  6
Continuous
 62
   155
100
AcDbLine
 10
112.1566944092021
 20
659.2169587817827
 30
0.0
 11
110.685503409202
 21
663.4171537817827
 31
0.0
  0
LINE
  5
3FB
330
1F
100
AcDbEntity
  8
1
  6
Continuous
 62
   155
100
AcDbLine
 10
107.1254444092021
 20
663.4171537817827
 30
0.0
 11
107.1254444092021
 21
669.4816067817827
 31
0.0
  0
LINE
  5
3FC
330
1F
100
AcDbEntity
  8
1
  6
Continuous
 62
   155
100
AcDbLine
 10
110.685503409202
 20
663.4171537817827
 30
0.0
 11
107.1254444092021
 21
663.4171537817827
 31
0.0
  0
LINE
  5
3FD
330
1F
100
AcDbEntity
  8
1
  6
Continuous
 62
   155
100
AcDbLine
 10
100.1962454092021
 20
669.8859037817827
 30
0.0
 11
103.7899954092021
 21
680.1505517817827
 31
0.0
  0
LINE
  5
3FE
330
1F
100
AcDbEntity
  8
1
  6
Continuous
 62
   155
100
AcDbLine
 10
141.198686409202
 20
659.2169587817827
 30
0.0
 11
135.1342334092021
 21
659.2169587817827
 31
0.0
  0
LINE
  5
3FF
330
1F
100
AcDbEntity
  8
1
  6
Continuous
 62
   155
100
AcDbLine
 10
103.7899954092021
 20
680.1505517817827
 30
0.0
 11
106.7211474092021
 21
680.1505517817827
 31
0.0
  0
LINE
  5
400
330
1F
100
AcDbEntity
  8
1
  6
Continuous
 62
   155
100
AcDbLine
 10
101.6898974092021
 20
659.2169587817827
 30
0.0
 11
96.45649940920202
 21
659.2169587817827
 31
0.0
  0
LINE
  5
401
330
1F
100
AcDbEntity
  8
1
  6
Continuous
 62
   155
100
AcDbLine
 10
131.6752484092021
 20
669.8859037817827
 30
0.0
 11
125.318803409202
 21
669.8859037817827
 31
0.0
  0
LINE
  5
402
330
1F
100
AcDbEntity
  8
1
  6
Continuous
 62
   155
100
AcDbLine
 10
124.892045409202
 20
669.4816067817827
 30
0.0
 11
124.892045409202
 21
659.2169587817827
 31
0.0
  0
LINE
  5
403
330
1F
100
AcDbEntity
  8
1
  6
Continuous
 62
   155
100
AcDbLine
 10
117.3900924092021
 20
659.2169587817827
 30
0.0
 11
112.1566944092021
 21
659.2169587817827
 31
0.0
  0
LINE
  5
404
330
1F
100
AcDbEntity
  8
1
  6
Continuous
 62
   155
100
AcDbLine
 10
106.7211474092021
 20
669.4816067817827
 30
0.0
 11
106.7211474092021
 21
663.4171537817827
 31
0.0
  0
LINE
  5
405
330
1F
100
AcDbEntity
  8
1
  6
Continuous
 62
   155
100
AcDbLine
 10
124.892045409202
 20
659.2169587817827
 30
0.0
 11
118.8275924092021
 21
659.2169587817827
 31
0.0
  0
LINE
  5
406
330
1F
100
AcDbEntity
  8
1
  6
Continuous
 62
   155
100
AcDbLine
 10
100.050249409202
 20
669.4816067817827
 30
0.0
 11
106.7211474092021
 21
669.4816067817827
 31
0.0
  0
LINE
  5
407
330
1F
100
AcDbEntity
  8
1
  6
Continuous
 62
   155
100
AcDbLine
 10
106.7211474092021
 20
663.4171537817827
 30
0.0
 11
103.1610894092021
 21
663.4171537817827
 31
0.0
  0
LINE
  5
408
330
1F
100
AcDbEntity
  8
1
  6
Continuous
 62
   155
100
AcDbLine
 10
96.45649940920202
 20
659.2169587817827
 30
0.0
 11
100.050249409202
 21
669.4816067817827
 31
0.0
  0
LINE
  5
409
330
1F
100
AcDbEntity
  8
1
  6
Continuous
 62
   155
100
AcDbLine
 10
106.7211474092021
 20
669.8859037817827
 30
0.0
 11
100.1962454092021
 21
669.8859037817827
 31
0.0
  0
LINE
  5
40A
330
1F
100
AcDbEntity
  8
1
  6
Continuous
 62
   155
100
AcDbLine
 10
103.1610894092021
 20
663.4171537817827
 30
0.0
 11
101.6898974092021
 21
659.2169587817827
 31
0.0
  0
LINE
  5
40B
330
1F
100
AcDbEntity
  8
1
  6
Continuous
 62
   155
100
AcDbLine
 10
135.1342334092021
 20
659.2169587817827
 30
0.0
 11
135.1342334092021
 21
669.4816067817827
 31
0.0
  0
LINE
  5
40C
330
1F
100
AcDbEntity
  8
1
  6
Continuous
 62
   155
100
AcDbLine
 10
125.318803409202
 20
680.1505517817827
 30
0.0
 11
127.1942914092021
 21
680.1505517817827
 31
0.0
  0
LINE
  5
40D
330
1F
100
AcDbEntity
  8
1
  6
Continuous
 62
   155
100
AcDbLine
 10
141.198686409202
 20
669.4816067817827
 30
0.0
 11
141.198686409202
 21
659.2169587817827
 31
0.0
  0
LINE
  5
40E
330
1F
100
AcDbEntity
  8
1
  6
Continuous
 62
   155
100
AcDbLine
 10
113.7963424092021
 20
669.4816067817827
 30
0.0
 11
117.3900924092021
 21
659.2169587817827
 31
0.0
  0
LINE
  5
40F
330
1F
100
AcDbEntity
  8
1
  6
Continuous
 62
   155
100
AcDbLine
 10
118.8275924092021
 20
659.2169587817827
 30
0.0
 11
118.8275924092021
 21
669.4816067817827
 31
0.0
  0
LINE
  5
410
330
1F
100
AcDbEntity
  8
1
  6
Continuous
 62
   155
100
AcDbLine
 10
106.7211474092021
 20
680.1505517817827
 30
0.0
 11
106.7211474092021
 21
669.8859037817827
 31
0.0
  0
LINE
  5
411
330
1F
100
AcDbEntity
  8
1
  6
Continuous
 62
   155
100
AcDbLine
 10
118.8275924092021
 20
669.4816067817827
 30
0.0
 11
124.892045409202
 21
669.4816067817827
 31
0.0
  0
LINE
  5
412
330
1F
100
AcDbEntity
  8
1
  6
Continuous
 62
   155
100
AcDbLine
 10
107.1254444092021
 20
669.4816067817827
 30
0.0
 11
113.7963424092021
 21
669.4816067817827
 31
0.0
  0
LINE
  5
413
330
1F
100
AcDbEntity
  8
1
  6
Continuous
 62
   155
100
AcDbLine
 10
141.625443409202
 20
669.8859037817827
 30
0.0
 11
141.625443409202
 21
680.1505517817827
 31
0.0
  0
LINE
  5
414
330
1F
100
AcDbEntity
  8
1
  6
Continuous
 62
   155
100
AcDbLine
 10
147.981889409202
 20
669.8859037817827
 30
0.0
 11
141.625443409202
 21
669.8859037817827
 31
0.0
  0
LINE
  5
415
330
1F
100
AcDbEntity
  8
1
  6
Continuous
 62
   155
100
AcDbLine
 10
141.625443409202
 20
680.1505517817827
 30
0.0
 11
143.500932409202
 21
680.1505517817827
 31
0.0
  0
SPLINE
  5
416
330
1F
100
AcDbEntity
  8
1
  6
Continuous
 62
   155
100
AcDbSpline
210
-0.0000000000000076
220
-0.0000000000000038
230
1.0
 70
     8
 71
     2
 72
     6
 73
     3
 74
     0
 42
0.0000000001
 43
0.0000000001
 40
0.0
 40
0.0
 40
0.0
 40
1.0
 40
1.0
 40
1.0
 10
148.3637250028424
 20
669.4816068833747
 30
-0.0000000000000065
 10
149.8012249730401
 20
667.7296537946967
 30
-0.0000000000000087
 10
149.8012249730401
 20
665.4835600912626
 30
-0.0000000000000113
  0
SPLINE
  5
417
330
1F
100
AcDbEntity
  8
1
  6
Continuous
 62
   155
100
AcDbSpline
210
0.0000000000000139
220
-0.000000000000016
230
-1.0
 70
     8
 71
     2
 72
     7
 73
     4
 74
     0
 42
0.0000000001
 43
0.0000000001
 40
0.0
 40
0.0
 40
0.0
 40
0.5
 40
1.0
 40
1.0
 40
1.0
 10
133.4945846861103
 20
665.4835600912626
 30
-0.0000000000000103
 10
133.4945846861103
 20
662.7770171786246
 30
-0.0000000000000135
 10
129.8896042920989
 20
659.2169586586818
 30
0.000000000000011
 10
127.1942918479783
 20
659.2169586586818
 30
0.0000000000000112
  0
SPLINE
  5
418
330
1F
100
AcDbEntity
  8
1
  6
Continuous
 62
   155
100
AcDbSpline
210
0.0000000000000139
220
-0.000000000000016
230
-1.0
 70
     8
 71
     2
 72
     7
 73
     4
 74
     0
 42
0.0000000001
 43
0.0000000001
 40
0.0
 40
0.0
 40
0.0
 40
0.5
 40
1.0
 40
1.0
 40
1.0
 10
149.8012249730401
 20
665.4835600912626
 30
-0.0000000000000113
 10
149.8012249730401
 20
662.7770171786246
 30
-0.0000000000000145
 10
146.1962445790288
 20
659.2169586586818
 30
0.00000000000001
 10
143.5009321349082
 20
659.2169586586818
 30
0.0000000000000102
  0
SPLINE
  5
419
330
1F
100
AcDbEntity
  8
1
  6
Continuous
 62
   155
100
AcDbSpline
210
0.0000000000000076
220
0.0000000000000038
230
-1.0
 70
     8
 71
     2
 72
     6
 73
     3
 74
     0
 42
0.0000000001
 43
0.0000000001
 40
0.0
 40
0.0
 40
0.0
 40
1.0
 40
1.0
 40
1.0
 10
132.0570847159126
 20
669.4816068833747
 30
-0.0000000000000055
 10
133.4945846861103
 20
667.7296537946967
 30
-0.0000000000000077
 10
133.4945846861103
 20
665.4835600912626
 30
-0.0000000000000103
  0
SPLINE
  5
41A
330
1F
100
AcDbEntity
  8
1
  6
Continuous
 62
   155
100
AcDbSpline
210
-0.0000000000000105
220
-0.0000000000000162
230
1.0
 70
     8
 71
     2
 72
     6
 73
     3
 74
     0
 42
0.0000000001
 43
0.0000000001
 40
0.0
 40
0.0
 40
0.0
 40
1.0
 40
1.0
 40
1.0
 10
129.5189988310322
 20
671.3234037201907
 30
-0.0000000000000032
 10
130.7880417734725
 20
670.8292631054347
 30
-0.0000000000000039
 10
131.6752487863288
 20
669.8859037499927
 30
-0.000000000000005
  0
SPLINE
  5
41B
330
1F
100
AcDbEntity
  8
1
  6
Continuous
 62
   155
100
AcDbSpline
210
0.0000000000000105
220
0.0000000000000162
230
-1.0
 70
     8
 71
     2
 72
     6
 73
     3
 74
     0
 42
0.0000000001
 43
0.0000000001
 40
0.0
 40
0.0
 40
0.0
 40
1.0
 40
1.0
 40
1.0
 10
145.8256391179623
 20
671.3234037201907
 30
-0.0000000000000042
 10
147.0946820604024
 20
670.8292631054347
 30
-0.0000000000000049
 10
147.9818890732588
 20
669.8859037499927
 30
-0.000000000000006
  0
SPLINE
  5
41C
330
1F
100
AcDbEntity
  8
1
  6
Continuous
 62
   155
100
AcDbSpline
210
0.0000000000000031
220
-0.0000000000000027
230
1.0
 70
     8
 71
     2
 72
     6
 73
     3
 74
     0
 42
0.0000000001
 43
0.0000000001
 40
0.0
 40
0.0
 40
0.0
 40
1.0
 40
1.0
 40
1.0
 10
148.2177289121192
 20
675.4337551974747
 30
0.0000000000000005
 10
148.2177289121192
 20
672.7047513478026
 30
-0.0000000000000027
 10
145.8256391179623
 20
671.3234037201907
 30
-0.0000000000000042
  0
SPLINE
  5
41D
330
1F
100
AcDbEntity
  8
1
  6
Continuous
 62
   155
100
AcDbSpline
210
-0.0000000000000047
220
-0.0000000000000054
230
1.0
 70
     8
 71
     2
 72
     7
 73
     4
 74
     0
 42
0.0000000001
 43
0.0000000001
 40
0.0
 40
0.0
 40
0.0
 40
0.5
 40
1.0
 40
1.0
 40
1.0
 10
127.1942918479783
 20
680.1505519746857
 30
0.0000000000000073
 10
129.1483933699657
 20
680.1505519746857
 30
0.0000000000000071
 10
131.9110886251894
 20
677.3878567194617
 30
0.0000000000000037
 10
131.9110886251894
 20
675.4337551974747
 30
0.0000000000000015
  0
SPLINE
  5
41E
330
1F
100
AcDbEntity
  8
1
  6
Continuous
 62
   155
100
AcDbSpline
210
0.0000000000000031
220
-0.0000000000000027
230
1.0
 70
     8
 71
     2
 72
     6
 73
     3
 74
     0
 42
0.0000000001
 43
0.0000000001
 40
0.0
 40
0.0
 40
0.0
 40
1.0
 40
1.0
 40
1.0
 10
131.9110886251894
 20
675.4337551974747
 30
0.0000000000000015
 10
131.9110886251894
 20
672.7047513478026
 30
-0.0000000000000017
 10
129.5189988310322
 20
671.3234037201907
 30
-0.0000000000000032
  0
SPLINE
  5
41F
330
1F
100
AcDbEntity
  8
1
  6
Continuous
 62
   155
100
AcDbSpline
210
-0.0000000000000047
220
-0.0000000000000054
230
1.0
 70
     8
 71
     2
 72
     7
 73
     4
 74
     0
 42
0.0000000001
 43
0.0000000001
 40
0.0
 40
0.0
 40
0.0
 40
0.5
 40
1.0
 40
1.0
 40
1.0
 10
143.5009321349082
 20
680.1505519746857
 30
0.0000000000000063
 10
145.4550336568956
 20
680.1505519746857
 30
0.0000000000000061
 10
148.2177289121192
 20
677.3878567194617
 30
0.0000000000000027
 10
148.2177289121192
 20
675.4337551974747
 30
0.0000000000000005
  0
ENDSEC
  0
SECTION
  2
OBJECTS
  0
DICTIONARY
  5
C
330
0
100
AcDbDictionary
281
     1
  3
ACAD_CIP_PREVIOUS_PRODUCT_INFO
350
240
  3
ACAD_COLOR
350
229
  3
ACAD_GROUP
350
D
  3
ACAD_LAYOUT
350
1A
  3
ACAD_MATERIAL
350
3B
  3
ACAD_MLEADERSTYLE
350
21C
  3
ACAD_MLINESTYLE
350
17
  3
ACAD_PLOTSETTINGS
350
19
  3
ACAD_PLOTSTYLENAME
350
E
  3
ACAD_SCALELIST
350
22B
  3
ACAD_TABLESTYLE
350
21B
  3
ACAD_VISUALSTYLE
350
2A
  3
ACDB_RECOMPOSE_DATA
350
42A
  3
AcDbVariableDictionary
350
420
  3
AcmDictionary
350
26B
  3
AMG
350
241
  3
AMGSNAPSETTINGS
350
2A9
  0
XRECORD
  5
240
102
{ACAD_REACTORS
330
C
102
}
330
C
100
AcDbXrecord
280
     1
300
AMECH_PP
300
2012
300
85794PDSS_2012_0F
  0
DICTIONARY
  5
229
102
{ACAD_REACTORS
330
C
102
}
330
C
100
AcDbDictionary
281
     1
  0
DICTIONARY
  5
D
102
{ACAD_REACTORS
330
C
102
}
330
C
100
AcDbDictionary
281
     1
  0
DICTIONARY
  5
1A
102
{ACAD_REACTORS
330
C
102
}
330
C
100
AcDbDictionary
281
     1
  3
Layout1
350
1E
  3
Layout2
350
26
  3
Model
350
22
  0
DICTIONARY
  5
3B
102
{ACAD_REACTORS
330
C
102
}
330
C
100
AcDbDictionary
281
     1
  3
BYBLOCK
350
3D
  3
BYLAYER
350
3C
  3
Global
350
3E
  0
DICTIONARY
  5
21C
102
{ACAD_REACTORS
330
C
102
}
330
C
100
AcDbDictionary
281
     1
  3
Standard
350
23D
  0
DICTIONARY
  5
17
102
{ACAD_REACTORS
330
C
102
}
330
C
100
AcDbDictionary
281
     1
  3
Standard
350
18
  0
DICTIONARY
  5
19
102
{ACAD_REACTORS
330
C
102
}
330
C
100
AcDbDictionary
281
     1
  0
ACDBDICTIONARYWDFLT
  5
E
102
{ACAD_REACTORS
330
C
102
}
330
C
100
AcDbDictionary
281
     1
  3
Normal
350
F
100
AcDbDictionaryWithDefault
340
F
  0
DICTIONARY
  5
22B
102
{ACAD_REACTORS
330
C
102
}
330
C
100
AcDbDictionary
281
     1
  3
A0
350
22C
  3
A1
350
22D
  3
A2
350
22E
  3
A3
350
22F
  3
A4
350
230
  3
A5
350
231
  3
A6
350
232
  3
A7
350
233
  3
A8
350
234
  3
A9
350
235
  3
B0
350
236
  3
B1
350
237
  3
B2
350
238
  3
B3
350
239
  3
B4
350
23A
  3
B5
350
23B
  3
B6
350
23C
  0
DICTIONARY
  5
21B
102
{ACAD_REACTORS
330
C
102
}
330
C
100
AcDbDictionary
281
     1
  3
Standard
350
22A
  0
DICTIONARY
  5
2A
102
{ACAD_REACTORS
330
C
102
}
330
C
100
AcDbDictionary
281
     1
  3
2dWireframe
350
2F
  3
3D Hidden
350
31
  3
3dWireframe
350
30
  3
Basic
350
32
  3
Brighten
350
36
  3
ColorChange
350
3A
  3
Conceptual
350
34
  3
Dim
350
35
  3
EdgeColorOff
350
228
  3
Facepattern
350
39
  3
Flat
350
2B
  3
FlatWithEdges
350
2C
  3
Gouraud
350
2D
  3
GouraudWithEdges
350
2E
  3
Hidden
350
220
  3
JitterOff
350
226
  3
Linepattern
350
38
  3
OverhangOff
350
227
  3
Realistic
350
33
  3
Shaded
350
225
  3
Shaded with edges
350
224
  3
Shades of Gray
350
221
  3
Sketchy
350
222
  3
Thicken
350
37
  3
Wireframe
350
21F
  3
X-Ray
350
223
  0
XRECORD
  5
42A
102
{ACAD_REACTORS
330
C
102
}
330
C
100
AcDbXrecord
280
     1
 90
        1
330
22A
330
2B2
  0
DICTIONARY
  5
420
102
{ACAD_REACTORS
330
C
102
}
330
C
100
AcDbDictionary
281
     1
  3
CANNOSCALE
350
424
  3
CMLEADERSTYLE
350
422
  3
CTABLESTYLE
350
421
  3
LAYEREVAL
350
426
  3
LAYERNOTIFY
350
427
  3
LIGHTINGUNITS
350
425
  3
MSLTSCALE
350
423
  0
DICTIONARY
  5
26B
102
{ACAD_REACTORS
330
C
102
}
330
C
100
AcDbDictionary
281
     1
  3
AcmStdDictionary
350
272
  0
DICTIONARY
  5
241
102
{ACAD_REACTORS
330
C
102
}
330
C
100
AcDbDictionary
281
     1
  0
DICTIONARY
  5
2A9
102
{ACAD_REACTORS
330
C
102
}
330
C
100
AcDbDictionary
281
     1
  0
LAYOUT
  5
1E
102
{ACAD_REACTORS
330
1A
102
}
330
1A
100
AcDbPlotSettings
  1

  2
none_device
  4

  6

 40
0.0
 41
0.0
 42
0.0
 43
0.0
 44
0.0
 45
0.0
 46
0.0
 47
0.0
 48
0.0
 49
0.0
140
0.0
141
0.0
142
1.0
143
1.0
 70
   688
 72
     0
 73
     0
 74
     5
  7

 75
    16
147
1.0
 76
     0
 77
     2
 78
   300
148
0.0
149
0.0
100
AcDbLayout
  1
Layout1
 70
     1
 71
     1
 10
-0.5
 20
-0.5
 11
5.0
 21
5.0
 12
0.0
 22
0.0
 32
0.0
 14
-0.5
 24
-0.5
 34
-0.5
 15
5.0
 25
5.0
 35
5.0
146
0.0
 13
0.0
 23
0.0
 33
0.0
 16
1.0
 26
0.0
 36
0.0
 17
0.0
 27
1.0
 37
0.0
 76
     0
330
1B
  0
LAYOUT
  5
26
102
{ACAD_REACTORS
330
1A
102
}
330
1A
100
AcDbPlotSettings
  1

  2
none_device
  4

  6

 40
0.0
 41
0.0
 42
0.0
 43
0.0
 44
0.0
 45
0.0
 46
0.0
 47
0.0
 48
0.0
 49
0.0
140
0.0
141
0.0
142
1.0
143
1.0
 70
   688
 72
     0
 73
     0
 74
     5
  7

 75
    16
147
1.0
 76
     0
 77
     2
 78
   300
148
0.0
149
0.0
100
AcDbLayout
  1
Layout2
 70
     1
 71
     2
 10
0.0
 20
0.0
 11
0.0
 21
0.0
 12
0.0
 22
0.0
 32
0.0
 14
0.0
 24
0.0
 34
0.0
 15
0.0
 25
0.0
 35
0.0
146
0.0
 13
0.0
 23
0.0
 33
0.0
 16
1.0
 26
0.0
 36
0.0
 17
0.0
 27
1.0
 37
0.0
 76
     0
330
23
  0
LAYOUT
  5
22
102
{ACAD_REACTORS
330
1A
102
}
330
1A
100
AcDbPlotSettings
  1

  2
none_device
  4

  6

 40
0.0
 41
0.0
 42
0.0
 43
0.0
 44
0.0
 45
0.0
 46
0.0
 47
0.0
 48
0.0
 49
0.0
140
0.0
141
0.0
142
1.0
143
1.0
 70
  1712
 72
     0
 73
     0
 74
     0
  7

 75
     0
147
1.0
 76
     0
 77
     2
 78
   300
148
0.0
149
0.0
100
AcDbLayout
  1
Model
 70
     1
 71
     0
 10
-0.5
 20
-0.5
 11
5.0
 21
5.0
 12
0.0
 22
0.0
 32
0.0
 14
-0.5
 24
-0.5
 34
-0.5
 15
5.0
 25
5.0
 35
5.0
146
0.0
 13
0.0
 23
0.0
 33
0.0
 16
1.0
 26
0.0
 36
0.0
 17
0.0
 27
1.0
 37
0.0
 76
     0
330
1F
331
1E5
  0
MATERIAL
  5
3D
102
{ACAD_XDICTIONARY
360
217
102
}
102
{ACAD_REACTORS
330
3B
102
}
330
3B
100
AcDbMaterial
  1
BYBLOCK
  0
MATERIAL
  5
3C
102
{ACAD_XDICTIONARY
360
215
102
}
102
{ACAD_REACTORS
330
3B
102
}
330
3B
100
AcDbMaterial
  1
BYLAYER
  0
MATERIAL
  5
3E
102
{ACAD_XDICTIONARY
360
219
102
}
102
{ACAD_REACTORS
330
3B
102
}
330
3B
100
AcDbMaterial
  1
Global
  0
MLEADERSTYLE
  5
23D
102
{ACAD_REACTORS
330
21C
102
}
330
21C
100
AcDbMLeaderStyle
179
     2
170
     2
171
     1
172
     0
 90
        2
 40
0.0
 41
0.0
173
     1
 91
-1056964608
340
14
 92
       -2
290
     1
 42
2.0
291
     1
 43
0.36
  3
Standard
 44
4.0
300

342
11
174
     1
178
     6
175
     1
176
     0
 93
-1056964608
 45
4.0
292
     0
297
     0
 46
4.0
 94
-1056964608
 47
1.0
 49
1.0
140
1.0
293
     1
141
0.0
294
     1
177
     0
142
1.0
295
     0
296
     0
143
0.125
271
     0
272
     9
273
     9
  0
MLINESTYLE
  5
18
102
{ACAD_REACTORS
330
17
102
}
330
17
100
AcDbMlineStyle
  2
STANDARD
 70
     0
  3

 62
   256
 51
90.0
 52
90.0
 71
     2
 49
0.5
 62
   256
  6
BYLAYER
 49
-0.5
 62
   256
  6
BYLAYER
  0
ACDBPLACEHOLDER
  5
F
102
{ACAD_REACTORS
330
E
102
}
330
E
  0
SCALE
  5
22C
102
{ACAD_REACTORS
330
22B
102
}
330
22B
100
AcDbScale
 70
     0
300
1:1
140
1.0
141
1.0
290
     1
  0
SCALE
  5
22D
102
{ACAD_REACTORS
330
22B
102
}
330
22B
100
AcDbScale
 70
     0
300
1:2
140
1.0
141
2.0
290
     0
  0
SCALE
  5
22E
102
{ACAD_REACTORS
330
22B
102
}
330
22B
100
AcDbScale
 70
     0
300
1:4
140
1.0
141
4.0
290
     0
  0
SCALE
  5
22F
102
{ACAD_REACTORS
330
22B
102
}
330
22B
100
AcDbScale
 70
     0
300
1:5
140
1.0
141
5.0
290
     0
  0
SCALE
  5
230
102
{ACAD_REACTORS
330
22B
102
}
330
22B
100
AcDbScale
 70
     0
300
1:8
140
1.0
141
8.0
290
     0
  0
SCALE
  5
231
102
{ACAD_REACTORS
330
22B
102
}
330
22B
100
AcDbScale
 70
     0
300
1:10
140
1.0
141
10.0
290
     0
  0
SCALE
  5
232
102
{ACAD_REACTORS
330
22B
102
}
330
22B
100
AcDbScale
 70
     0
300
1:16
140
1.0
141
16.0
290
     0
  0
SCALE
  5
233
102
{ACAD_REACTORS
330
22B
102
}
330
22B
100
AcDbScale
 70
     0
300
1:20
140
1.0
141
20.0
290
     0
  0
SCALE
  5
234
102
{ACAD_REACTORS
330
22B
102
}
330
22B
100
AcDbScale
 70
     0
300
1:30
140
1.0
141
30.0
290
     0
  0
SCALE
  5
235
102
{ACAD_REACTORS
330
22B
102
}
330
22B
100
AcDbScale
 70
     0
300
1:40
140
1.0
141
40.0
290
     0
  0
SCALE
  5
236
102
{ACAD_REACTORS
330
22B
102
}
330
22B
100
AcDbScale
 70
     0
300
1:50
140
1.0
141
50.0
290
     0
  0
SCALE
  5
237
102
{ACAD_REACTORS
330
22B
102
}
330
22B
100
AcDbScale
 70
     0
300
1:100
140
1.0
141
100.0
290
     0
  0
SCALE
  5
238
102
{ACAD_REACTORS
330
22B
102
}
330
22B
100
AcDbScale
 70
     0
300
2:1
140
2.0
141
1.0
290
     0
  0
SCALE
  5
239
102
{ACAD_REACTORS
330
22B
102
}
330
22B
100
AcDbScale
 70
     0
300
4:1
140
4.0
141
1.0
290
     0
  0
SCALE
  5
23A
102
{ACAD_REACTORS
330
22B
102
}
330
22B
100
AcDbScale
 70
     0
300
8:1
140
8.0
141
1.0
290
     0
  0
SCALE
  5
23B
102
{ACAD_REACTORS
330
22B
102
}
330
22B
100
AcDbScale
 70
     0
300
10:1
140
10.0
141
1.0
290
     0
  0
SCALE
  5
23C
102
{ACAD_REACTORS
330
22B
102
}
330
22B
100
AcDbScale
 70
     0
300
100:1
140
100.0
141
1.0
290
     0
  0
TABLESTYLE
  5
22A
102
{ACAD_XDICTIONARY
360
428
102
}
102
{ACAD_REACTORS
330
21B
102
}
330
21B
100
AcDbTableStyle
280
     0
  3
Standard
 70
     0
 71
     0
 40
1.5
 41
1.5
280
     0
281
     0
  7
Standard
140
4.5
170
     2
 62
     0
 63
     7
283
     0
 90
      512
 91
        0
  1

274
    -2
284
     1
 64
     0
275
    -2
285
     1
 65
     0
276
    -2
286
     1
 66
     0
277
    -2
287
     1
 67
     0
278
    -2
288
     1
 68
     0
279
    -2
289
     1
 69
     0
  7
Standard
140
6.0
170
     5
 62
     0
 63
     7
283
     0
 90
      512
 91
        0
  1

274
    -2
284
     1
 64
     0
275
    -2
285
     1
 65
     0
276
    -2
286
     1
 66
     0
277
    -2
287
     1
 67
     0
278
    -2
288
     1
 68
     0
279
    -2
289
     1
 69
     0
  7
Standard
140
4.5
170
     5
 62
     0
 63
     7
283
     0
 90
      512
 91
        0
  1

274
    -2
284
     1
 64
     0
275
    -2
285
     1
 65
     0
276
    -2
286
     1
 66
     0
277
    -2
287
     1
 67
     0
278
    -2
288
     1
 68
     0
279
    -2
289
     1
 69
     0
  0
VISUALSTYLE
  5
2F
102
{ACAD_REACTORS
330
2A
102
}
330
2A
100
AcDbVisualStyle
  2

 70
     4
177
     2
291
     0
 71
     0
176
     1
 72
     2
176
     1
 73
     0
176
     1
 90
        0
176
     1
 40
0.6
176
     1
 41
30.0
176
     1
 63
     7
421
 16777215
176
     1
 74
     1
176
     1
 91
        4
176
     1
 64
     7
176
     1
 65
   257
176
     1
 75
     1
176
     1
175
     1
176
     1
 42
1.0
176
     1
 92
        0
176
     1
 66
   257
176
     1
 43
1.0
176
     1
 76
     1
176
     1
 77
     6
176
     1
 78
     2
176
     1
 67
     7
176
     1
 79
     5
176
     1
170
     0
176
     1
171
     0
176
     1
290
     0
176
     1
 93
        1
176
     1
 44
0.0
176
     1
173
     0
176
     1
1001
ACAD
1000
AcDbSavedByObjectVersion
1070
     0
  0
VISUALSTYLE
  5
31
102
{ACAD_REACTORS
330
2A
102
}
330
2A
100
AcDbVisualStyle
  2

 70
     6
177
     2
291
     0
 71
     1
176
     1
 72
     2
176
     1
 73
     2
176
     1
 90
        0
176
     1
 40
0.6
176
     1
 41
30.0
176
     1
 63
     7
421
 16777215
176
     1
 74
     2
176
     1
 91
        2
176
     1
 64
     7
176
     1
 65
   257
176
     1
 75
     2
176
     1
175
     1
176
     1
 42
40.0
176
     1
 92
        0
176
     1
 66
   257
176
     1
 43
1.0
176
     1
 76
     1
176
     1
 77
     6
176
     1
 78
     2
176
     1
 67
     7
176
     1
 79
     3
176
     1
170
     0
176
     1
171
     0
176
     1
290
     0
176
     1
 93
        1
176
     1
 44
0.0
176
     1
173
     0
176
     1
1001
ACAD
1000
AcDbSavedByObjectVersion
1070
     0
  0
VISUALSTYLE
  5
30
102
{ACAD_REACTORS
330
2A
102
}
330
2A
100
AcDbVisualStyle
  2

 70
     5
177
     2
291
     0
 71
     0
176
     1
 72
     2
176
     1
 73
     0
176
     1
 90
        0
176
     1
 40
0.6
176
     1
 41
30.0
176
     1
 63
     7
421
 16777215
176
     1
 74
     1
176
     1
 91
        4
176
     1
 64
     7
176
     1
 65
   257
176
     1
 75
     1
176
     1
175
     1
176
     1
 42
1.0
176
     1
 92
        0
176
     1
 66
   257
176
     1
 43
1.0
176
     1
 76
     1
176
     1
 77
     6
176
     1
 78
     2
176
     1
 67
     7
176
     1
 79
     5
176
     1
170
     0
176
     1
171
     0
176
     1
290
     0
176
     1
 93
        1
176
     1
 44
0.0
176
     1
173
     0
176
     1
1001
ACAD
1000
AcDbSavedByObjectVersion
1070
     0
  0
VISUALSTYLE
  5
32
102
{ACAD_REACTORS
330
2A
102
}
330
2A
100
AcDbVisualStyle
  2

 70
     7
177
     2
291
     1
 71
     1
176
     1
 72
     0
176
     1
 73
     1
176
     1
 90
        0
176
     1
 40
0.6
176
     1
 41
30.0
176
     1
 63
     7
421
 16777215
176
     1
 74
     0
176
     1
 91
        4
176
     1
 64
     7
176
     1
 65
   257
176
     1
 75
     1
176
     1
175
     1
176
     1
 42
1.0
176
     1
 92
        8
176
     1
 66
     7
176
     1
 43
1.0
176
     1
 76
     1
176
     1
 77
     6
176
     1
 78
     2
176
     1
 67
     7
176
     1
 79
     5
176
     1
170
     0
176
     1
171
     0
176
     1
290
     0
176
     1
 93
        1
176
     1
 44
0.0
176
     1
173
     0
176
     1
1001
ACAD
1000
AcDbSavedByObjectVersion
1070
     0
  0
VISUALSTYLE
  5
36
102
{ACAD_REACTORS
330
2A
102
}
330
2A
100
AcDbVisualStyle
  2

 70
    12
177
     2
291
     1
 71
     2
176
     1
 72
     2
176
     1
 73
     0
176
     1
 90
        0
176
     1
 40
0.6
176
     1
 41
30.0
176
     1
 63
     7
421
 16777215
176
     1
 74
     1
176
     1
 91
        4
176
     1
 64
     7
176
     1
 65
   257
176
     1
 75
     1
176
     1
175
     1
176
     1
 42
1.0
176
     1
 92
        8
176
     1
 66
     7
176
     1
 43
1.0
176
     1
 76
     1
176
     1
 77
     6
176
     1
 78
     2
176
     1
 67
     7
176
     1
 79
     5
176
     1
170
     0
176
     1
171
     0
176
     1
290
     0
176
     1
 93
        1
176
     1
 44
50.0
176
     1
173
     0
176
     1
1001
ACAD
1000
AcDbSavedByObjectVersion
1070
     0
  0
VISUALSTYLE
  5
3A
102
{ACAD_REACTORS
330
2A
102
}
330
2A
100
AcDbVisualStyle
  2

 70
    16
177
     2
291
     1
 71
     2
176
     1
 72
     2
176
     1
 73
     3
176
     1
 90
        0
176
     1
 40
0.6
176
     1
 41
30.0
176
     1
 63
     8
421
  8421504
176
     1
 74
     1
176
     1
 91
        4
176
     1
 64
     7
176
     1
 65
   257
176
     1
 75
     1
176
     1
175
     1
176
     1
 42
1.0
176
     1
 92
        8
176
     1
 66
     8
424
  8421504
176
     1
 43
1.0
176
     1
 76
     1
176
     1
 77
     6
176
     1
 78
     2
176
     1
 67
     7
176
     1
 79
     5
176
     1
170
     0
176
     1
171
     0
176
     1
290
     0
176
     1
 93
        1
176
     1
 44
0.0
176
     1
173
     0
176
     1
1001
ACAD
1000
AcDbSavedByObjectVersion
1070
     0
  0
VISUALSTYLE
  5
34
102
{ACAD_REACTORS
330
2A
102
}
330
2A
100
AcDbVisualStyle
  2

 70
     9
177
     2
291
     0
 71
     3
176
     1
 72
     2
176
     1
 73
     0
176
     1
 90
        0
176
     1
 40
0.6
176
     1
 41
30.0
176
     1
 63
     7
421
 16777215
176
     1
 74
     2
176
     1
 91
        2
176
     1
 64
     7
176
     1
 65
   257
176
     1
 75
     1
176
     1
175
     1
176
     1
 42
40.0
176
     1
 92
        8
176
     1
 66
     7
176
     1
 43
1.0
176
     1
 76
     1
176
     1
 77
     6
176
     1
 78
     2
176
     1
 67
     7
176
     1
 79
     3
176
     1
170
     0
176
     1
171
     0
176
     1
290
     0
176
     1
 93
        1
176
     1
 44
0.0
176
     1
173
     0
176
     1
1001
ACAD
1000
AcDbSavedByObjectVersion
1070
     0
  0
VISUALSTYLE
  5
35
102
{ACAD_REACTORS
330
2A
102
}
330
2A
100
AcDbVisualStyle
  2

 70
    11
177
     2
291
     1
 71
     2
176
     1
 72
     2
176
     1
 73
     0
176
     1
 90
        0
176
     1
 40
0.6
176
     1
 41
30.0
176
     1
 63
     7
421
 16777215
176
     1
 74
     1
176
     1
 91
        4
176
     1
 64
     7
176
     1
 65
   257
176
     1
 75
     1
176
     1
175
     1
176
     1
 42
1.0
176
     1
 92
        8
176
     1
 66
     7
176
     1
 43
1.0
176
     1
 76
     1
176
     1
 77
     6
176
     1
 78
     2
176
     1
 67
     7
176
     1
 79
     5
176
     1
170
     0
176
     1
171
     0
176
     1
290
     0
176
     1
 93
        1
176
     1
 44
-50.0
176
     1
173
     0
176
     1
1001
ACAD
1000
AcDbSavedByObjectVersion
1070
     0
  0
VISUALSTYLE
  5
228
102
{ACAD_REACTORS
330
2A
102
}
330
2A
100
AcDbVisualStyle
  2
EdgeColorOff
 70
    22
177
     2
291
     1
 71
     2
176
     0
 72
     2
176
     0
 73
     0
176
     0
 90
        0
176
     0
 40
0.6
176
     0
 41
30.0
176
     0
 63
     7
421
 16777215
176
     0
 74
     1
176
     0
 91
        4
176
     0
 64
     7
176
     0
 65
   257
176
     0
 75
     1
176
     0
175
     1
176
     0
 42
1.0
176
     0
 92
        8
176
     2
 66
     7
176
     0
 43
1.0
176
     0
 76
     1
176
     0
 77
     6
176
     0
 78
     2
176
     0
 67
     7
176
     0
 79
     5
176
     0
170
     0
176
     0
171
     0
176
     0
290
     0
176
     0
 93
        1
176
     0
 44
0.0
176
     0
173
     0
176
     0
  0
VISUALSTYLE
  5
39
102
{ACAD_REACTORS
330
2A
102
}
330
2A
100
AcDbVisualStyle
  2

 70
    15
177
     2
291
     1
 71
     2
176
     1
 72
     2
176
     1
 73
     0
176
     1
 90
        0
176
     1
 40
0.6
176
     1
 41
30.0
176
     1
 63
     7
421
 16777215
176
     1
 74
     1
176
     1
 91
        4
176
     1
 64
     7
176
     1
 65
   257
176
     1
 75
     1
176
     1
175
     1
176
     1
 42
1.0
176
     1
 92
        8
176
     1
 66
     7
176
     1
 43
1.0
176
     1
 76
     1
176
     1
 77
     6
176
     1
 78
     2
176
     1
 67
     7
176
     1
 79
     5
176
     1
170
     0
176
     1
171
     0
176
     1
290
     0
176
     1
 93
        1
176
     1
 44
0.0
176
     1
173
     0
176
     1
1001
ACAD
1000
AcDbSavedByObjectVersion
1070
     0
  0
VISUALSTYLE
  5
2B
102
{ACAD_REACTORS
330
2A
102
}
330
2A
100
AcDbVisualStyle
  2

 70
     0
177
     2
291
     1
 71
     2
176
     1
 72
     1
176
     1
 73
     1
176
     1
 90
        2
176
     1
 40
0.6
176
     1
 41
30.0
176
     1
 63
     7
421
 16777215
176
     1
 74
     0
176
     1
 91
        4
176
     1
 64
     7
176
     1
 65
   257
176
     1
 75
     1
176
     1
175
     1
176
     1
 42
1.0
176
     1
 92
        8
176
     1
 66
     7
176
     1
 43
1.0
176
     1
 76
     1
176
     1
 77
     6
176
     1
 78
     2
176
     1
 67
     7
176
     1
 79
     5
176
     1
170
     0
176
     1
171
     0
176
     1
290
     0
176
     1
 93
       13
176
     1
 44
0.0
176
     1
173
     0
176
     1
1001
ACAD
1000
AcDbSavedByObjectVersion
1070
     0
  0
VISUALSTYLE
  5
2C
102
{ACAD_REACTORS
330
2A
102
}
330
2A
100
AcDbVisualStyle
  2

 70
     1
177
     2
291
     1
 71
     2
176
     1
 72
     1
176
     1
 73
     1
176
     1
 90
        2
176
     1
 40
0.6
176
     1
 41
30.0
176
     1
 63
     7
421
 16777215
176
     1
 74
     1
176
     1
 91
        4
176
     1
 64
     7
176
     1
 65
   257
176
     1
 75
     1
176
     1
175
     1
176
     1
 42
1.0
176
     1
 92
        0
176
     1
 66
   257
176
     1
 43
1.0
176
     1
 76
     1
176
     1
 77
     6
176
     1
 78
     2
176
     1
 67
     7
176
     1
 79
     5
176
     1
170
     0
176
     1
171
     0
176
     1
290
     0
176
     1
 93
       13
176
     1
 44
0.0
176
     1
173
     0
176
     1
1001
ACAD
1000
AcDbSavedByObjectVersion
1070
     0
  0
VISUALSTYLE
  5
2D
102
{ACAD_REACTORS
330
2A
102
}
330
2A
100
AcDbVisualStyle
  2

 70
     2
177
     2
291
     1
 71
     2
176
     1
 72
     2
176
     1
 73
     1
176
     1
 90
        2
176
     1
 40
0.6
176
     1
 41
30.0
176
     1
 63
     7
421
 16777215
176
     1
 74
     0
176
     1
 91
        4
176
     1
 64
     7
176
     1
 65
   257
176
     1
 75
     1
176
     1
175
     1
176
     1
 42
1.0
176
     1
 92
        0
176
     1
 66
     7
176
     1
 43
1.0
176
     1
 76
     1
176
     1
 77
     6
176
     1
 78
     2
176
     1
 67
     7
176
     1
 79
     5
176
     1
170
     0
176
     1
171
     0
176
     1
290
     0
176
     1
 93
       13
176
     1
 44
0.0
176
     1
173
     0
176
     1
1001
ACAD
1000
AcDbSavedByObjectVersion
1070
     0
  0
VISUALSTYLE
  5
2E
102
{ACAD_REACTORS
330
2A
102
}
330
2A
100
AcDbVisualStyle
  2

 70
     3
177
     2
291
     1
 71
     2
176
     1
 72
     2
176
     1
 73
     1
176
     1
 90
        2
176
     1
 40
0.6
176
     1
 41
30.0
176
     1
 63
     7
421
 16777215
176
     1
 74
     1
176
     1
 91
        4
176
     1
 64
     7
176
     1
 65
   257
176
     1
 75
     1
176
     1
175
     1
176
     1
 42
1.0
176
     1
 92
        0
176
     1
 66
   257
176
     1
 43
1.0
176
     1
 76
     1
176
     1
 77
     6
176
     1
 78
     2
176
     1
 67
     7
176
     1
 79
     5
176
     1
170
     0
176
     1
171
     0
176
     1
290
     0
176
     1
 93
       13
176
     1
 44
0.0
176
     1
173
     0
176
     1
1001
ACAD
1000
AcDbSavedByObjectVersion
1070
     0
  0
VISUALSTYLE
  5
220
102
{ACAD_REACTORS
330
2A
102
}
330
2A
100
AcDbVisualStyle
  2
Hidden
 70
     6
177
     2
291
     0
 71
     1
176
     1
 72
     2
176
     1
 73
     2
176
     1
 90
        0
176
     1
 40
0.6
176
     1
 41
30.0
176
     1
 63
     7
421
 16777215
176
     1
 74
     2
176
     1
 91
        2
176
     1
 64
     7
176
     1
 65
   257
176
     1
 75
     2
176
     1
175
     1
176
     1
 42
40.0
176
     1
 92
        0
176
     1
 66
   257
176
     1
 43
1.0
176
     1
 76
     1
176
     1
 77
     6
176
     1
 78
     2
176
     1
 67
     7
176
     1
 79
     3
176
     1
170
     0
176
     1
171
     0
176
     1
290
     0
176
     1
 93
        1
176
     1
 44
0.0
176
     1
173
     0
176
     1
  0
VISUALSTYLE
  5
226
102
{ACAD_REACTORS
330
2A
102
}
330
2A
100
AcDbVisualStyle
  2
JitterOff
 70
    20
177
     2
291
     1
 71
     2
176
     0
 72
     2
176
     0
 73
     0
176
     0
 90
        0
176
     0
 40
0.6
176
     0
 41
30.0
176
     0
 63
     7
421
 16777215
176
     0
 74
     1
176
     0
 91
        4
176
     0
 64
     7
176
     0
 65
   257
176
     0
 75
     1
176
     0
175
     1
176
     0
 42
1.0
176
     0
 92
       10
176
     2
 66
     7
176
     0
 43
1.0
176
     0
 76
     1
176
     0
 77
     6
176
     0
 78
     2
176
     0
 67
     7
176
     0
 79
     5
176
     0
170
     0
176
     0
171
     0
176
     0
290
     0
176
     0
 93
        1
176
     0
 44
0.0
176
     0
173
     0
176
     0
  0
VISUALSTYLE
  5
38
102
{ACAD_REACTORS
330
2A
102
}
330
2A
100
AcDbVisualStyle
  2

 70
    14
177
     2
291
     1
 71
     2
176
     1
 72
     2
176
     1
 73
     0
176
     1
 90
        0
176
     1
 40
0.6
176
     1
 41
30.0
176
     1
 63
     7
421
 16777215
176
     1
 74
     1
176
     1
 91
        4
176
     1
 64
     7
176
     1
 65
   257
176
     1
 75
     7
176
     1
175
     7
176
     1
 42
1.0
176
     1
 92
        8
176
     1
 66
     7
176
     1
 43
1.0
176
     1
 76
     1
176
     1
 77
     6
176
     1
 78
     2
176
     1
 67
     7
176
     1
 79
     5
176
     1
170
     0
176
     1
171
     0
176
     1
290
     0
176
     1
 93
        1
176
     1
 44
0.0
176
     1
173
     0
176
     1
1001
ACAD
1000
AcDbSavedByObjectVersion
1070
     0
  0
VISUALSTYLE
  5
227
102
{ACAD_REACTORS
330
2A
102
}
330
2A
100
AcDbVisualStyle
  2
OverhangOff
 70
    21
177
     2
291
     1
 71
     2
176
     0
 72
     2
176
     0
 73
     0
176
     0
 90
        0
176
     0
 40
0.6
176
     0
 41
30.0
176
     0
 63
     7
421
 16777215
176
     0
 74
     1
176
     0
 91
        4
176
     0
 64
     7
176
     0
 65
   257
176
     0
 75
     1
176
     0
175
     1
176
     0
 42
1.0
176
     0
 92
        9
176
     2
 66
     7
176
     0
 43
1.0
176
     0
 76
     1
176
     0
 77
     6
176
     0
 78
     2
176
     0
 67
     7
176
     0
 79
     5
176
     0
170
     0
176
     0
171
     0
176
     0
290
     0
176
     0
 93
        1
176
     0
 44
0.0
176
     0
173
     0
176
     0
  0
VISUALSTYLE
  5
33
102
{ACAD_REACTORS
330
2A
102
}
330
2A
100
AcDbVisualStyle
  2

 70
     8
177
     2
291
     0
 71
     2
176
     1
 72
     2
176
     1
 73
     0
176
     1
 90
        0
176
     1
 40
0.6
176
     1
 41
30.0
176
     1
 63
     7
421
 16777215
176
     1
 74
     1
176
     1
 91
        0
176
     1
 64
     7
176
     1
 65
   257
176
     1
 75
     1
176
     1
175
     1
176
     1
 42
1.0
176
     1
 92
        8
176
     1
 66
     8
424
  7895160
176
     1
 43
1.0
176
     1
 76
     1
176
     1
 77
     6
176
     1
 78
     2
176
     1
 67
     7
176
     1
 79
     5
176
     1
170
     0
176
     1
171
     0
176
     1
290
     0
176
     1
 93
       13
176
     1
 44
0.0
176
     1
173
     0
176
     1
1001
ACAD
1000
AcDbSavedByObjectVersion
1070
     0
  0
VISUALSTYLE
  5
225
102
{ACAD_REACTORS
330
2A
102
}
330
2A
100
AcDbVisualStyle
  2
Shaded
 70
    27
177
     2
291
     0
 71
     2
176
     1
 72
     2
176
     1
 73
     1
176
     1
 90
        2
176
     1
 40
0.6
176
     1
 41
30.0
176
     1
 63
     7
421
 16777215
176
     1
 74
     0
176
     1
 91
        4
176
     1
 64
     7
176
     1
 65
   257
176
     1
 75
     1
176
     1
175
     1
176
     1
 42
1.0
176
     1
 92
        8
176
     1
 66
   257
176
     1
 43
1.0
176
     1
 76
     1
176
     1
 77
     6
176
     1
 78
     2
176
     1
 67
     8
425
  7895160
176
     1
 79
     3
176
     1
170
     0
176
     1
171
     0
176
     1
290
     0
176
     1
 93
        5
176
     1
 44
0.0
176
     1
173
     0
176
     1
  0
VISUALSTYLE
  5
224
102
{ACAD_REACTORS
330
2A
102
}
330
2A
100
AcDbVisualStyle
  2
Shaded with edges
 70
    26
177
     2
291
     0
 71
     2
176
     1
 72
     2
176
     1
 73
     1
176
     1
 90
        2
176
     1
 40
0.6
176
     1
 41
30.0
176
     1
 63
     7
421
 16777215
176
     1
 74
     1
176
     1
 91
       10
176
     1
 64
     7
176
     1
 65
   257
176
     1
 75
     2
176
     1
175
     1
176
     1
 42
1.0
176
     1
 92
        8
176
     1
 66
   257
176
     1
 43
1.0
176
     1
 76
     1
176
     1
 77
     6
176
     1
 78
     2
176
     1
 67
     7
176
     1
 79
     3
176
     1
170
     0
176
     1
171
     0
176
     1
290
     0
176
     1
 93
        5
176
     1
 44
0.0
176
     1
173
     0
176
     1
  0
VISUALSTYLE
  5
221
102
{ACAD_REACTORS
330
2A
102
}
330
2A
100
AcDbVisualStyle
  2
Shades of Gray
 70
    23
177
     2
291
     0
 71
     2
176
     1
 72
     2
176
     1
 73
     3
176
     1
 90
        0
176
     1
 40
0.6
176
     1
 41
30.0
176
     1
 63
     7
421
 16777215
176
     1
 74
     2
176
     1
 91
        2
176
     1
 64
     7
176
     1
 65
     7
176
     1
 75
     1
176
     1
175
     1
176
     1
 42
40.0
176
     1
 92
        8
176
     1
 66
     7
176
     1
 43
1.0
176
     1
 76
     1
176
     1
 77
     6
176
     1
 78
     2
176
     1
 67
     7
176
     1
 79
     3
176
     1
170
     0
176
     1
171
     0
176
     1
290
     0
176
     1
 93
        1
176
     1
 44
0.0
176
     1
173
     0
176
     1
  0
VISUALSTYLE
  5
222
102
{ACAD_REACTORS
330
2A
102
}
330
2A
100
AcDbVisualStyle
  2
Sketchy
 70
    24
177
     2
291
     0
 71
     1
176
     1
 72
     2
176
     1
 73
     2
176
     1
 90
        0
176
     1
 40
0.6
176
     1
 41
30.0
176
     1
 63
     7
421
 16777215
176
     1
 74
     2
176
     1
 91
        2
176
     1
 64
     7
176
     1
 65
     7
176
     1
 75
     1
176
     1
175
     1
176
     1
 42
40.0
176
     1
 92
       11
176
     1
 66
     7
176
     1
 43
1.0
176
     1
 76
     1
176
     1
 77
     6
176
     1
 78
     2
176
     1
 67
     7
176
     1
 79
     6
176
     1
170
     0
176
     1
171
     0
176
     1
290
     0
176
     1
 93
        1
176
     1
 44
0.0
176
     1
173
     0
176
     1
  0
VISUALSTYLE
  5
37
102
{ACAD_REACTORS
330
2A
102
}
330
2A
100
AcDbVisualStyle
  2

 70
    13
177
     2
291
     1
 71
     2
176
     1
 72
     2
176
     1
 73
     0
176
     1
 90
        0
176
     1
 40
0.6
176
     1
 41
30.0
176
     1
 63
     7
421
 16777215
176
     1
 74
     1
176
     1
 91
        4
176
     1
 64
     7
176
     1
 65
   257
176
     1
 75
     1
176
     1
175
     1
176
     1
 42
1.0
176
     1
 92
       12
176
     1
 66
     7
176
     1
 43
1.0
176
     1
 76
     1
176
     1
 77
     6
176
     1
 78
     2
176
     1
 67
     7
176
     1
 79
     5
176
     1
170
     0
176
     1
171
     0
176
     1
290
     0
176
     1
 93
        1
176
     1
 44
0.0
176
     1
173
     0
176
     1
1001
ACAD
1000
AcDbSavedByObjectVersion
1070
     0
  0
VISUALSTYLE
  5
21F
102
{ACAD_REACTORS
330
2A
102
}
330
2A
100
AcDbVisualStyle
  2
Wireframe
 70
     5
177
     2
291
     0
 71
     0
176
     1
 72
     2
176
     1
 73
     0
176
     1
 90
        0
176
     1
 40
0.6
176
     1
 41
30.0
176
     1
 63
     7
421
 16777215
176
     1
 74
     1
176
     1
 91
        4
176
     1
 64
     7
176
     1
 65
   257
176
     1
 75
     1
176
     1
175
     1
176
     1
 42
1.0
176
     1
 92
        0
176
     1
 66
   257
176
     1
 43
1.0
176
     1
 76
     1
176
     1
 77
     6
176
     1
 78
     2
176
     1
 67
     7
176
     1
 79
     3
176
     1
170
     0
176
     1
171
     0
176
     1
290
     0
176
     1
 93
        1
176
     1
 44
0.0
176
     1
173
     0
176
     1
  0
VISUALSTYLE
  5
223
102
{ACAD_REACTORS
330
2A
102
}
330
2A
100
AcDbVisualStyle
  2
X-Ray
 70
    25
177
     2
291
     0
 71
     2
176
     1
 72
     2
176
     1
 73
     1
176
     1
 90
        1
176
     1
 40
0.5
176
     1
 41
30.0
176
     1
 63
     7
421
 16777215
176
     1
 74
     1
176
     1
 91
        0
176
     1
 64
     7
176
     1
 65
   257
176
     1
 75
     1
176
     1
175
     1
176
     1
 42
1.0
176
     1
 92
        8
176
     1
 66
     7
176
     1
 43
1.0
176
     1
 76
     1
176
     1
 77
     6
176
     1
 78
     2
176
     1
 67
     7
176
     1
 79
     3
176
     1
170
     0
176
     1
171
     0
176
     1
290
     0
176
     1
 93
       13
176
     1
 44
0.0
176
     1
173
     0
176
     1
  0
DICTIONARYVAR
  5
424
102
{ACAD_REACTORS
330
420
102
}
330
420
100
DictionaryVariables
280
     0
  1
1:1
  0
DICTIONARYVAR
  5
422
102
{ACAD_REACTORS
330
420
102
}
330
420
100
DictionaryVariables
280
     0
  1
STANDARD
  0
DICTIONARYVAR
  5
421
102
{ACAD_REACTORS
330
420
102
}
330
420
100
DictionaryVariables
280
     0
  1
STANDARD
  0
DICTIONARYVAR
  5
426
102
{ACAD_REACTORS
330
420
102
}
330
420
100
DictionaryVariables
280
     0
  1
1
  0
DICTIONARYVAR
  5
427
102
{ACAD_REACTORS
330
420
102
}
330
420
100
DictionaryVariables
280
     0
  1
15
  0
DICTIONARYVAR
  5
425
102
{ACAD_REACTORS
330
420
102
}
330
420
100
DictionaryVariables
280
     0
  1
0
  0
DICTIONARYVAR
  5
423
102
{ACAD_REACTORS
330
420
102
}
330
420
100
DictionaryVariables
280
     0
  1
0
  0
DICTIONARY
  5
272
102
{ACAD_REACTORS
330
26B
102
}
330
26B
100
AcDbDictionary
281
     1
  0
DICTIONARY
  5
217
330
3D
100
AcDbDictionary
280
     1
281
     1
  3
ACAD_XREC_ROUNDTRIP
360
218
  0
DICTIONARY
  5
215
330
3C
100
AcDbDictionary
280
     1
281
     1
  3
ACAD_XREC_ROUNDTRIP
360
216
  0
DICTIONARY
  5
219
330
3E
100
AcDbDictionary
280
     1
281
     1
  3
ACAD_XREC_ROUNDTRIP
360
21A
  0
DICTIONARY
  5
428
330
22A
100
AcDbDictionary
280
     1
281
     1
  3
ACAD_ROUNDTRIP_2008_TABLESTYLE_CELLSTYLEMAP
360
429
  0
XRECORD
  5
218
102
{ACAD_REACTORS
330
217
102
}
330
217
100
AcDbXrecord
280
     1
102
MATERIAL
148
0.0
149
0.0
149
0.0
 93
        0
 94
      127
282
     0
 72
     1
 77
     1
171
     1
175
     1
179
     1
273
     0
  0
XRECORD
  5
216
102
{ACAD_REACTORS
330
215
102
}
330
215
100
AcDbXrecord
280
     1
102
MATERIAL
148
0.0
149
0.0
149
0.0
 93
        0
 94
      127
282
     0
 72
     1
 77
     1
171
     1
175
     1
179
     1
273
     0
  0
XRECORD
  5
21A
102
{ACAD_REACTORS
330
219
102
}
330
219
100
AcDbXrecord
280
     1
102
MATERIAL
148
0.0
149
0.0
149
0.0
 93
        0
 94
      127
282
     0
 72
     1
 77
     1
171
     1
175
     1
179
     1
273
     0
  0
CELLSTYLEMAP
  5
429
102
{ACAD_REACTORS
330
428
102
}
330
428
100
AcDbCellStyleMap
 90
        3
300
CELLSTYLE
  1
TABLEFORMAT_BEGIN
 90
        5
170
     1
 91
        0
 92
    32768
 62
   257
 93
        1
300
CONTENTFORMAT
  1
CONTENTFORMAT_BEGIN
 90
        0
 91
        0
 92
      512
 93
        0
300

 40
0.0
140
1.0
 94
        5
 62
     0
340
11
144
6.0
309
CONTENTFORMAT_END
171
     1
301
MARGIN
  1
CELLMARGIN_BEGIN
 40
1.5
 40
1.5
 40
1.5
 40
1.5
 40
4.5
 40
4.5
309
CELLMARGIN_END
 94
        6
 95
        1
302
GRIDFORMAT
  1
GRIDFORMAT_BEGIN
 90
        0
 91
        1
 62
     0
 92
       -2
340
0
 93
        0
 40
1.125
309
GRIDFORMAT_END
 95
        2
302
GRIDFORMAT
  1
GRIDFORMAT_BEGIN
 90
        0
 91
        1
 62
     0
 92
       -2
340
0
 93
        0
 40
1.125
309
GRIDFORMAT_END
 95
        4
302
GRIDFORMAT
  1
GRIDFORMAT_BEGIN
 90
        0
 91
        1
 62
     0
 92
       -2
340
0
 93
        0
 40
1.125
309
GRIDFORMAT_END
 95
        8
302
GRIDFORMAT
  1
GRIDFORMAT_BEGIN
 90
        0
 91
        1
 62
     0
 92
       -2
340
0
 93
        0
 40
1.125
309
GRIDFORMAT_END
 95
       16
302
GRIDFORMAT
  1
GRIDFORMAT_BEGIN
 90
        0
 91
        1
 62
     0
 92
       -2
340
0
 93
        0
 40
1.125
309
GRIDFORMAT_END
 95
       32
302
GRIDFORMAT
  1
GRIDFORMAT_BEGIN
 90
        0
 91
        1
 62
     0
 92
       -2
340
0
 93
        0
 40
1.125
309
GRIDFORMAT_END
309
TABLEFORMAT_END
  1
CELLSTYLE_BEGIN
 90
        1
 91
        1
300
_TITLE
309
CELLSTYLE_END
300
CELLSTYLE
  1
TABLEFORMAT_BEGIN
 90
        5
170
     1
 91
        0
 92
        0
 62
   257
 93
        1
300
CONTENTFORMAT
  1
CONTENTFORMAT_BEGIN
 90
        0
 91
        0
 92
      512
 93
        0
300

 40
0.0
140
1.0
 94
        5
 62
     0
340
11
144
4.5
309
CONTENTFORMAT_END
171
     1
301
MARGIN
  1
CELLMARGIN_BEGIN
 40
1.5
 40
1.5
 40
1.5
 40
1.5
 40
4.5
 40
4.5
309
CELLMARGIN_END
 94
        6
 95
        1
302
GRIDFORMAT
  1
GRIDFORMAT_BEGIN
 90
        0
 91
        1
 62
     0
 92
       -2
340
0
 93
        0
 40
1.125
309
GRIDFORMAT_END
 95
        2
302
GRIDFORMAT
  1
GRIDFORMAT_BEGIN
 90
        0
 91
        1
 62
     0
 92
       -2
340
0
 93
        0
 40
1.125
309
GRIDFORMAT_END
 95
        4
302
GRIDFORMAT
  1
GRIDFORMAT_BEGIN
 90
        0
 91
        1
 62
     0
 92
       -2
340
0
 93
        0
 40
1.125
309
GRIDFORMAT_END
 95
        8
302
GRIDFORMAT
  1
GRIDFORMAT_BEGIN
 90
        0
 91
        1
 62
     0
 92
       -2
340
0
 93
        0
 40
1.125
309
GRIDFORMAT_END
 95
       16
302
GRIDFORMAT
  1
GRIDFORMAT_BEGIN
 90
        0
 91
        1
 62
     0
 92
       -2
340
0
 93
        0
 40
1.125
309
GRIDFORMAT_END
 95
       32
302
GRIDFORMAT
  1
GRIDFORMAT_BEGIN
 90
        0
 91
        1
 62
     0
 92
       -2
340
0
 93
        0
 40
1.125
309
GRIDFORMAT_END
309
TABLEFORMAT_END
  1
CELLSTYLE_BEGIN
 90
        2
 91
        1
300
_HEADER
309
CELLSTYLE_END
300
CELLSTYLE
  1
TABLEFORMAT_BEGIN
 90
        5
170
     1
 91
        0
 92
        0
 62
   257
 93
        1
300
CONTENTFORMAT
  1
CONTENTFORMAT_BEGIN
 90
        0
 91
        0
 92
      512
 93
        0
300

 40
0.0
140
1.0
 94
        2
 62
     0
340
11
144
4.5
309
CONTENTFORMAT_END
171
     1
301
MARGIN
  1
CELLMARGIN_BEGIN
 40
1.5
 40
1.5
 40
1.5
 40
1.5
 40
4.5
 40
4.5
309
CELLMARGIN_END
 94
        6
 95
        1
302
GRIDFORMAT
  1
GRIDFORMAT_BEGIN
 90
        0
 91
        1
 62
     0
 92
       -2
340
0
 93
        0
 40
1.125
309
GRIDFORMAT_END
 95
        2
302
GRIDFORMAT
  1
GRIDFORMAT_BEGIN
 90
        0
 91
        1
 62
     0
 92
       -2
340
0
 93
        0
 40
1.125
309
GRIDFORMAT_END
 95
        4
302
GRIDFORMAT
  1
GRIDFORMAT_BEGIN
 90
        0
 91
        1
 62
     0
 92
       -2
340
0
 93
        0
 40
1.125
309
GRIDFORMAT_END
 95
        8
302
GRIDFORMAT
  1
GRIDFORMAT_BEGIN
 90
        0
 91
        1
 62
     0
 92
       -2
340
0
 93
        0
 40
1.125
309
GRIDFORMAT_END
 95
       16
302
GRIDFORMAT
  1
GRIDFORMAT_BEGIN
 90
        0
 91
        1
 62
     0
 92
       -2
340
0
 93
        0
 40
1.125
309
GRIDFORMAT_END
 95
       32
302
GRIDFORMAT
  1
GRIDFORMAT_BEGIN
 90
        0
 91
        1
 62
     0
 92
       -2
340
0
 93
        0
 40
1.125
309
GRIDFORMAT_END
309
TABLEFORMAT_END
  1
CELLSTYLE_BEGIN
 90
        3
 91
        2
300
_DATA
309
CELLSTYLE_END
  0
ENDSEC
  0
EOF
