  0
SECTION
  2
HEADER
  9
$ACADVER
  1
AC1009
  9
$DWGCODEPAGE
  3
iso8859-1
  9
$INSBASE
 10
0.0
 20
0.0
 30
0.0
  9
$EXTMIN
 10
1.0E20
 20
1.0E20
  9
$EXTMAX
 10
-1.0E20
 20
-1.0E20
  9
$LIMMIN
 10
0.0
 20
0.0
  9
$LIMMAX
 10
12.0
 20
9.0
  9
$ORTHOMODE
 70
     0
  9
$REGENMODE
 70
     1
  9
$FILLMODE
 70
     1
  9
$QTEXTMODE
 70
     0
  9
$MIRRTEXT
 70
     1
  9
$DRAGMODE
 70
     2
  9
$LTSCALE
 40
15.0
  9
$OSMODE
 70
     0
  9
$ATTMODE
 70
     1
  9
$TEXTSIZE
 40
0.2
  9
$TRACEWID
 40
0.05
  9
$TEXTSTYLE
  7
STANDARD
  9
$CLAYER
  8
0
  9
$CELTYPE
  6
DASHED
  9
$CECOLOR
 62
   256
  9
$DIMSCALE
 40
1.0
  9
$DIMASZ
 40
0.18
  9
$DIMEXO
 40
0.0625
  9
$DIMDLI
 40
0.38
  9
$DIMRND
 40
0.0
  9
$DIMDLE
 40
0.0
  9
$DIMEXE
 40
0.18
  9
$DIMTP
 40
0.0
  9
$DIMTM
 40
0.0
  9
$DIMTXT
 40
0.18
  9
$DIMCEN
 40
0.09
  9
$DIMTSZ
 40
0.0
  9
$DIMTOL
 70
     0
  9
$DIMLIM
 70
     0
  9
$DIMTIH
 70
     1
  9
$DIMTOH
 70
     1
  9
$DIMSE1
 70
     0
  9
$DIMSE2
 70
     0
  9
$DIMTAD
 70
     0
  9
$DIMZIN
 70
     0
  9
$DIMBLK
  1

  9
$DIMASO
 70
     1
  9
$DIMSHO
 70
     1
  9
$DIMPOST
  1

  9
$DIMAPOST
  1

  9
$DIMALT
 70
     0
  9
$DIMALTD
 70
     2
  9
$DIMALTF
 40
25.4
  9
$DIMLFAC
 40
1.0
  9
$DIMTOFL
 70
     0
  9
$DIMTVP
 40
0.0
  9
$DIMTIX
 70
     0
  9
$DIMSOXD
 70
     0
  9
$DIMSAH
 70
     0
  9
$DIMBLK1
  1

  9
$DIMBLK2
  1

  9
$DIMSTYLE
  2
STANDARD
  9
$DIMCLRD
 70
     0
  9
$DIMCLRE
 70
     0
  9
$DIMCLRT
 70
     0
  9
$DIMTFAC
 40
1.0
  9
$DIMGAP
 40
0.09
  9
$LUNITS
 70
     2
  9
$LUPREC
 70
     4
  9
$AXISMODE
 70
     0
  9
$AXISUNIT
 10
0.0
 20
0.0
  9
$SKETCHINC
 40
0.1
  9
$FILLETRAD
 40
0.0
  9
$AUNITS
 70
     0
  9
$AUPREC
 70
     0
  9
$MENU
  1
acad
  9
$ELEVATION
 40
0.0
  9
$PELEVATION
 40
0.0
  9
$THICKNESS
 40
0.0
  9
$LIMCHECK
 70
     0
  9
$BLIPMODE
 70
     1
  9
$CHAMFERA
 40
0.0
  9
$CHAMFERB
 40
0.0
  9
$SKPOLY
 70
     0
  9
$TDCREATE
 40
0.000000000
  9
$TDUPDATE
 40
0.000000000
  9
$TDINDWG
 40
0.0
  9
$TDUSRTIMER
 40
0.0
  9
$USRTIMER
 70
     1
  9
$ANGBASE
 50
0.0
  9
$ANGDIR
 70
     0
  9
$PDMODE
 70
     0
  9
$PDSIZE
 40
0.0
  9
$PLINEWID
 40
0.0
  9
$COORDS
 70
     1
  9
$SPLFRAME
 70
     0
  9
$SPLINETYPE
 70
     6
  9
$SPLINESEGS
 70
     8
  9
$ATTDIA
 70
     0
  9
$ATTREQ
 70
     1
  9
$HANDLING
 70
     1
  9
$HANDSEED
  5
   754
  9
$SURFTAB1
 70
     6
  9
$SURFTAB2
 70
     6
  9
$SURFTYPE
 70
     6
  9
$SURFU
 70
     6
  9
$SURFV
 70
     6
  9
$UCSNAME
  2

  9
$UCSORG
 10
0.0
 20
0.0
 30
0.0
  9
$UCSXDIR
 10
1.0
 20
0.0
 30
0.0
  9
$UCSYDIR
 10
0.0
 20
1.0
 30
0.0
  9
$PUCSNAME
  2

  9
$PUCSORG
 10
0.0
 20
0.0
 30
0.0
  9
$PUCSXDIR
 10
1.0
 20
0.0
 30
0.0
  9
$PUCSYDIR
 10
0.0
 20
1.0
 30
0.0
  9
$USERI1
 70
     0
  9
$USERI2
 70
     0
  9
$USERI3
 70
     0
  9
$USERI4
 70
     0
  9
$USERI5
 70
     0
  9
$USERR1
 40
0.0
  9
$USERR2
 40
0.0
  9
$USERR3
 40
0.0
  9
$USERR4
 40
0.0
  9
$USERR5
 40
0.0
  9
$WORLDVIEW
 70
     1
  9
$SHADEDGE
 70
     3
  9
$SHADEDIF
 70
    70
  9
$TILEMODE
 70
     1
  9
$MAXACTVP
 70
    16
  9
$PINSBASE
 10
0.0
 20
0.0
 30
0.0
  9
$PLIMCHECK
 70
     0
  9
$PEXTMIN
 10
1.0E20
 20
1.0E20
 30
1.0E20
  9
$PEXTMAX
 10
-1.0E20
 20
-1.0E20
 30
-1.0E20
  9
$PLIMMIN
 10
0.0
 20
0.0
  9
$PLIMMAX
 10
12.0
 20
9.0
  9
$UNITMODE
 70
     0
  9
$VISRETAIN
 70
     0
  0
ENDSEC
  0
SECTION
  2
TABLES
  0
TABLE
  2
VPORT
 70
     1
  0
VPORT
  2
*ACTIVE
 70
     0
 10
0.0
 20
0.0
 11
1.0
 21
1.0
 12
6.801242
 22
4.5
 13
0.0
 23
0.0
 14
1.0
 24
1.0
 15
0.0
 25
0.0
 16
0.0
 26
0.0
 36
1.0
 17
0.0
 27
0.0
 37
0.0
 40
9.0
 41
1.511387
 42
50.0
 43
0.0
 44
0.0
 50
0.0
 51
0.0
 71
     0
 72
   100
 73
     1
 74
     1
 75
     0
 76
     0
 77
     0
 78
     0
  0
ENDTAB
  0
TABLE
  2
LTYPE
 70
    41
  0
LTYPE
  2
BYBLOCK
 70
     0
  3

 72
    65
 73
     0
 40
0.0
  0
LTYPE
  2
BYLAYER
 70
     0
  3

 72
    65
 73
     0
 40
0.0
  0
LTYPE
  2
CONTINUOUS
 70
     0
  3
Solid line
 72
    65
 73
     0
 40
0.0
  0
LTYPE
  2
BORDER
 70
    64
  3
__ __ . __ __ . __ __ . __ __ . __ __ . __ __ .
 72
    65
 73
     6
 40
1.75
 49
0.5
 49
-0.25
 49
0.5
 49
-0.25
 49
0.0
 49
-0.25
  0
LTYPE
  2
BORDER2
 70
    64
  3
__.__.__.__.__.__.__.__.__.__.__.__.__.__.__.__
 72
    65
 73
     6
 40
0.875
 49
0.25
 49
-0.125
 49
0.25
 49
-0.125
 49
0.0
 49
-0.125
  0
LTYPE
  2
BORDERX2
 70
    64
  3
____  ____  .  ____  ____  .  ____  ____  .  __
 72
    65
 73
     6
 40
3.5
 49
1.0
 49
-0.5
 49
1.0
 49
-0.5
 49
0.0
 49
-0.5
  0
LTYPE
  2
CENTER
 70
    64
  3
____ _ ____ _ ____ _ ____ _ ____ _ ____ _ ____
 72
    65
 73
     4
 40
2.0
 49
1.25
 49
-0.25
 49
0.25
 49
-0.25
  0
LTYPE
  2
CENTER2
 70
    64
  3
___ _ ___ _ ___ _ ___ _ ___ _ ___ _ ___ _ ___ _
 72
    65
 73
     4
 40
1.125
 49
0.75
 49
-0.125
 49
0.125
 49
-0.125
  0
LTYPE
  2
CENTERX2
 70
    64
  3
________  __  ________  __  ________  __  _____
 72
    65
 73
     4
 40
4.0
 49
2.5
 49
-0.5
 49
0.5
 49
-0.5
  0
LTYPE
  2
DASHDOT
 70
    64
  3
__ . __ . __ . __ . __ . __ . __ . __ . __ . __
 72
    65
 73
     4
 40
1.0
 49
0.5
 49
-0.25
 49
0.0
 49
-0.25
  0
LTYPE
  2
DASHDOT2
 70
    64
  3
_._._._._._._._._._._._._._._._._._._._._._._._
 72
    65
 73
     4
 40
0.5
 49
0.25
 49
-0.125
 49
0.0
 49
-0.125
  0
LTYPE
  2
DASHDOTX2
 70
    64
  3
____  .  ____  .  ____  .  ____  .  ____  .  __
 72
    65
 73
     4
 40
2.0
 49
1.0
 49
-0.5
 49
0.0
 49
-0.5
  0
LTYPE
  2
DASHED
 70
    64
  3
__ __ __ __ __ __ __ __ __ __ __ __ __ __ __ __
 72
    65
 73
     2
 40
0.75
 49
0.5
 49
-0.25
  0
LTYPE
  2
DASHED2
 70
    64
  3
_ _ _ _ _ _ _ _ _ _ _ _ _ _ _ _ _ _ _ _ _ _ _ _
 72
    65
 73
     2
 40
0.375
 49
0.25
 49
-0.125
  0
LTYPE
  2
DASHEDX2
 70
    64
  3
____  ____  ____  ____  ____  ____  ____  ____
 72
    65
 73
     2
 40
1.5
 49
1.0
 49
-0.5
  0
LTYPE
  2
DIVIDE
 70
    64
  3
____ . . ____ . . ____ . . ____ . . ____ . . __
 72
    65
 73
     6
 40
1.25
 49
0.5
 49
-0.25
 49
0.0
 49
-0.25
 49
0.0
 49
-0.25
  0
LTYPE
  2
DIVIDE2
 70
    64
  3
__..__..__..__..__..__..__..__..__..__..__..__.
 72
    65
 73
     6
 40
0.625
 49
0.25
 49
-0.125
 49
0.0
 49
-0.125
 49
0.0
 49
-0.125
  0
LTYPE
  2
DIVIDEX2
 70
    64
  3
________  .  .  ________  .  .  ________  .  .
 72
    65
 73
     6
 40
2.5
 49
1.0
 49
-0.5
 49
0.0
 49
-0.5
 49
0.0
 49
-0.5
  0
LTYPE
  2
DOT
 70
    64
  3
. . . . . . . . . . . . . . . . . . . . . . . .
 72
    65
 73
     2
 40
0.25
 49
0.0
 49
-0.25
  0
LTYPE
  2
DOT2
 70
    64
  3
...............................................
 72
    65
 73
     2
 40
0.125
 49
0.0
 49
-0.125
  0
LTYPE
  2
DOTX2
 70
    64
  3
.  .  .  .  .  .  .  .  .  .  .  .  .  .  .  .
 72
    65
 73
     2
 40
0.5
 49
0.0
 49
-0.5
  0
LTYPE
  2
HIDDEN
 70
    64
  3
__ __ __ __ __ __ __ __ __ __ __ __ __ __ __ __
 72
    65
 73
     2
 40
0.375
 49
0.25
 49
-0.125
  0
LTYPE
  2
HIDDEN2
 70
    64
  3
_ _ _ _ _ _ _ _ _ _ _ _ _ _ _ _ _ _ _ _ _ _ _ _
 72
    65
 73
     2
 40
0.1875
 49
0.125
 49
-0.0625
  0
LTYPE
  2
HIDDENX2
 70
    64
  3
____ ____ ____ ____ ____ ____ ____ ____ ____ __
 72
    65
 73
     2
 40
0.75
 49
0.5
 49
-0.25
  0
LTYPE
  2
PHANTOM
 70
    64
  3
______  __  __  ______  __  __  ______  __  __
 72
    65
 73
     6
 40
2.5
 49
1.25
 49
-0.25
 49
0.25
 49
-0.25
 49
0.25
 49
-0.25
  0
LTYPE
  2
PHANTOM2
 70
    64
  3
___ _ _ ___ _ _ ___ _ _ ___ _ _ ___ _ _ ___ _ _
 72
    65
 73
     6
 40
1.25
 49
0.625
 49
-0.125
 49
0.125
 49
-0.125
 49
0.125
 49
-0.125
  0
LTYPE
  2
PHANTOMX2
 70
    64
  3
____________    ____    ____    ____________
 72
    65
 73
     6
 40
5.0
 49
2.5
 49
-0.5
 49
0.5
 49
-0.5
 49
0.5
 49
-0.5
  0
LTYPE
  2
ACAD_ISO02W100
 70
    64
  3
__ __ __ __ __ __ __ __ __ __ __ __ __ __ __ __
 72
    65
 73
     2
 40
15.0
 49
12.0
 49
-3.0
  0
LTYPE
  2
ACAD_ISO03W100
 70
    64
  3
__    __    __    __    __    __    __    __
 72
    65
 73
     2
 40
30.0
 49
12.0
 49
-18.0
  0
LTYPE
  2
ACAD_ISO04W100
 70
    64
  3
____ . ____ . ____ . ____ . ____ . ____ . ____
 72
    65
 73
     4
 40
30.5
 49
24.0
 49
-3.0
 49
0.5
 49
-3.0
  0
LTYPE
  2
ACAD_ISO05W100
 70
    64
  3
____ .. ____ .. ____ .. ____ .. ____ .. ____ ..
 72
    65
 73
     6
 40
34.0
 49
24.0
 49
-3.0
 49
0.5
 49
-3.0
 49
0.5
 49
-3.0
  0
LTYPE
  2
ACAD_ISO06W100
 70
    64
  3
____ ... ____ ... ____ ... ____ ... ____ ... __
 72
    65
 73
     8
 40
37.5
 49
24.0
 49
-3.0
 49
0.5
 49
-3.0
 49
0.5
 49
-3.0
 49
0.5
 49
-3.0
  0
LTYPE
  2
ACAD_ISO07W100
 70
    64
  3
. . . . . . . . . . . . . . . . . . . . . . . .
 72
    65
 73
     2
 40
3.5
 49
0.5
 49
-3.0
  0
LTYPE
  2
ACAD_ISO08W100
 70
    64
  3
____ __ ____ __ ____ __ ____ ____ __ __ ____ __
 72
    65
 73
     4
 40
36.0
 49
24.0
 49
-3.0
 49
6.0
 49
-3.0
  0
LTYPE
  2
ACAD_ISO09W100
 70
    64
  3
____ __ __ ____ __ __ ____ __ __ ____ __ __ ___
 72
    65
 73
     6
 40
45.0
 49
24.0
 49
-3.0
 49
6.0
 49
-3.0
 49
6.0
 49
-3.0
  0
LTYPE
  2
ACAD_ISO10W100
 70
    64
  3
__ . __ . __ . __ . __ . __ . __ . __ . __ . __
 72
    65
 73
     4
 40
18.5
 49
12.0
 49
-3.0
 49
0.5
 49
-3.0
  0
LTYPE
  2
ACAD_ISO11W100
 70
    64
  3
__ __ . __ __ . __ __ . __ __ . __ __ . __ __ .
 72
    65
 73
     6
 40
33.5
 49
12.0
 49
-3.0
 49
12.0
 49
-3.0
 49
0.5
 49
-3.0
  0
LTYPE
  2
ACAD_ISO12W100
 70
    64
  3
__ . . __ . . __ . . __ . . __ . . __ . . __ .
 72
    65
 73
     6
 40
22.0
 49
12.0
 49
-3.0
 49
0.5
 49
-3.0
 49
0.5
 49
-3.0
  0
LTYPE
  2
ACAD_ISO13W100
 70
    64
  3
__ __ . . __ __ . . __ __ . . __ __ . . __ __ .
 72
    65
 73
     8
 40
37.0
 49
12.0
 49
-3.0
 49
12.0
 49
-3.0
 49
0.5
 49
-3.0
 49
0.5
 49
-3.0
  0
LTYPE
  2
ACAD_ISO14W100
 70
    64
  3
__ . . . __ . . . __ . . . __ . . . __ . . . __
 72
    65
 73
     8
 40
25.5
 49
12.0
 49
-3.0
 49
0.5
 49
-3.0
 49
0.5
 49
-3.0
 49
0.5
 49
-3.0
  0
LTYPE
  2
ACAD_ISO15W100
 70
    64
  3
__ __ . . . __ __ . . . __ __ . . . __ __ . . .
 72
    65
 73
    10
 40
40.5
 49
12.0
 49
-3.0
 49
12.0
 49
-3.0
 49
0.5
 49
-3.0
 49
0.5
 49
-3.0
 49
0.5
 49
-3.0
  0
ENDTAB
  0
TABLE
  2
STYLE
 70
     4
  0
STYLE
  2
STANDARD
 70
    64
 40
0.0
 41
1.0
 50
0.0
 71
     0
 42
0.2
  3
txt
  4

  0
STYLE
  2
TOLERANCE
 70
    64
 40
0.0
 41
1.0
 50
0.0
 71
     0
 42
0.2
  3
../igesfont/iges1003.shx
  4

  0
STYLE
  2
ROMANS
 70
    64
 40
0.0
 41
1.0
 50
0.0
 71
     0
 42
0.2
  3
romans.shx
  4

  0
STYLE
  2
ROMANC
 70
    64
 40
0.0
 41
1.0
 50
0.0
 71
     0
 42
0.2
  3
romanc.shx
  4

  0
ENDTAB
  0
TABLE
  2
DIMSTYLE
 70
     2
  0
DIMSTYLE
  2
UNNAMED
 70
     0
  3

  4

  5

  6

  7

 40
1.0
 41
0.18
 42
0.0625
 43
0.38
 44
0.18
 45
0.0
 46
0.0
 47
0.0
 48
0.0
140
0.18
141
0.09
142
0.0
143
25.4
144
1.0
145
0.0
146
1.0
147
0.09
 71
     0
 72
     0
 73
     1
 74
     1
 75
     0
 76
     0
 77
     0
 78
     0
170
     0
171
     2
172
     0
173
     0
174
     0
175
     0
176
     0
177
     0
178
     0
  0
DIMSTYLE
  2
STANDARD
 70
     0
  3

  4

  5

  6

  7

 40
1.0
 41
0.18
 42
0.0625
 43
0.38
 44
0.18
 45
0.0
 46
0.0
 47
0.0
 48
0.0
140
0.18
141
0.09
142
0.0
143
25.4
144
1.0
145
0.0
146
1.0
147
0.09
 71
     0
 72
     0
 73
     1
 74
     1
 75
     0
 76
     0
 77
     0
 78
     0
170
     0
171
     2
172
     0
173
     0
174
     0
175
     0
176
     0
177
     0
178
     0
  0
ENDTAB
  0
TABLE
  2
LAYER
 70
     2
  0
LAYER
  2
0
 70
     0
 62
     7
  6
CONTINUOUS
  0
LAYER
  2
255
 70
     0
 62
     7
  6
CONTINUOUS
  0
ENDTAB
  0
ENDSEC
  0
SECTION
  2
BLOCKS
  0
BLOCK
  5
     B
  8
0
  6
CONTINUOUS
 62
     7
  2
*HATCH295
 70
    65
 10
0.0
 20
0.0
 30
0.0
  3
*HATCH295
  0
LINE
  5
     C
  8
0
  6
CONTINUOUS
 62
    52
 10
92.5330276489258
 20
39.5000114440918
 30
0.0
 11
90.5330276489258
 21
37.5000114440918
 31
0.0
  0
LINE
  5
     D
  8
0
  6
CONTINUOUS
 62
    52
 10
96.7756729125977
 20
39.5000114440918
 30
0.0
 11
94.7756729125977
 21
37.5000114440918
 31
0.0
  0
LINE
  5
     E
  8
0
  6
CONTINUOUS
 62
    52
 10
101.01831817627
 20
39.5000114440918
 30
0.0
 11
99.0183181762695
 21
37.5000114440918
 31
0.0
  0
LINE
  5
     F
  8
0
  6
CONTINUOUS
 62
    52
 10
105.260963439941
 20
39.5000114440918
 30
0.0
 11
103.260963439941
 21
37.5000114440918
 31
0.0
  0
LINE
  5
    10
  8
0
  6
CONTINUOUS
 62
    52
 10
109.503608703613
 20
39.5000114440918
 30
0.0
 11
107.503608703613
 21
37.5000114440918
 31
0.0
  0
LINE
  5
    11
  8
0
  6
CONTINUOUS
 62
    52
 10
113.746253967285
 20
39.5000114440918
 30
0.0
 11
111.746253967285
 21
37.5000114440918
 31
0.0
  0
LINE
  5
    12
  8
0
  6
CONTINUOUS
 62
    52
 10
117.988899230957
 20
39.5000114440918
 30
0.0
 11
115.988899230957
 21
37.5000114440918
 31
0.0
  0
ENDBLK
  5
    13
  8
0
  6
CONTINUOUS
 62
     7
  0
BLOCK
  5
    14
  8
0
  6
CONTINUOUS
 62
     7
  2
BASETT
 70
    64
 10
0.0
 20
0.0
 30
0.0
  3
BASETT
  0
LINE
  5
    15
  8
0
  6
CONTINUOUS
 62
     1
 10
9.37916411203332E-13
 20
8.29115314964895E-16
 30
0.0
 11
48.5000000000009
 21
8.29115314964895E-16
 31
0.0
  0
LINE
  5
    16
  8
0
  6
CONTINUOUS
 62
     1
 10
-2.00000000000001
 20
16.4999999606765
 30
0.0
 11
48.5000000000058
 21
16.4999900306657
 31
0.0
  0
LINE
  5
    17
  8
0
  6
CONTINUOUS
 62
     1
 10
-2.5
 20
278.499999567409
 30
0.0
 11
48.5
 21
278.499999567409
 31
0.0
  0
LINE
  5
    18
  8
0
  6
CONTINUOUS
 62
     1
 10
1.49317556230405E-11
 20
294.999952060667
 30
0.0
 11
48.5000000000149
 21
294.999952060667
 31
0.0
  0
LINE
  5
    19
  8
0
  6
CONTINUOUS
 62
     1
 10
0.0
 20
0.0
 30
0.0
 11
0.0
 21
16.4999995674088
 31
0.0
  0
LINE
  5
    1A
  8
0
  6
CONTINUOUS
 62
     1
 10
0.0
 20
224.499952060667
 30
0.0
 11
0.0
 21
263.499999567409
 31
0.0
  0
LINE
  5
    1B
  8
0
  6
CONTINUOUS
 62
     1
 10
48.5
 20
74.4999564682283
 30
0.0
 11
48.5
 21
81.4999995674093
 31
0.0
  0
LINE
  5
    1C
  8
0
  6
CONTINUOUS
 62
     1
 10
45.5000901428785
 20
77.4999576057394
 30
0.0
 11
47.5
 21
77.4999576057394
 31
0.0
  0
LINE
  5
    1D
  8
0
  6
CONTINUOUS
 62
     1
 10
49.5
 20
198.49998430862
 30
0.0
 11
49.5
 21
216.49998430862
 31
0.0
  0
LINE
  5
    1E
  8
0
  6
CONTINUOUS
 62
     1
 10
49.5
 20
78.4999919380148
 30
0.0
 11
49.5
 21
96.4999919380148
 31
0.0
  0
LINE
  5
    1F
  8
0
  6
CONTINUOUS
 62
     1
 10
48.5
 20
294.999999567409
 30
0.0
 11
61.0
 21
294.999999567409
 31
0.0
  0
LINE
  5
    20
  8
0
  6
CONTINUOUS
 62
     1
 10
48.5
 20
278.499999567409
 30
0.0
 11
63.0
 21
278.499999567409
 31
0.0
  0
LINE
  5
    21
  8
0
  6
CONTINUOUS
 62
     1
 10
63.0
 20
223.499960071298
 30
0.0
 11
63.0
 21
293.000130967507
 31
0.0
  0
LINE
  5
    22
  8
0
  6
CONTINUOUS
 62
     1
 10
48.5000000000152
 20
3.42048471119702E-5
 30
0.0
 11
61.0000000000152
 21
3.42048471119702E-5
 31
0.0
  0
LINE
  5
    23
  8
0
  6
CONTINUOUS
 62
     1
 10
48.5000000000458
 20
16.499990030663
 30
0.0
 11
63.0000000000458
 21
16.4999824012685
 31
0.0
  0
LINE
  5
    24
  8
0
  6
CONTINUOUS
 62
     1
 10
63.0
 20
1.99997801527987
 30
0.0
 11
63.0
 21
71.5000155985656
 31
0.0
  0
LINE
  5
    25
  8
0
  6
CONTINUOUS
 62
     1
 10
47.5
 20
143.499991938015
 30
0.0
 11
47.5
 21
151.499991938015
 31
0.0
  0
LINE
  5
    26
  8
0
  6
CONTINUOUS
 62
     1
 10
48.5
 20
216.49998430862
 30
0.0
 11
49.5
 21
216.49998430862
 31
0.0
  0
LINE
  5
    27
  8
0
  6
CONTINUOUS
 62
     1
 10
45.5
 20
198.49998430862
 30
0.0
 11
49.5
 21
198.49998430862
 31
0.0
  0
LINE
  5
    28
  8
0
  6
CONTINUOUS
 62
     1
 10
45.5
 20
96.4999919380148
 30
0.0
 11
49.5
 21
96.4999919380148
 31
0.0
  0
LINE
  5
    29
  8
0
  6
CONTINUOUS
 62
     1
 10
48.5
 20
78.4999919380148
 30
0.0
 11
49.5
 21
78.4999919380148
 31
0.0
  0
LINE
  5
    2A
  8
0
  6
CONTINUOUS
 62
     1
 10
45.5
 20
151.499991938015
 30
0.0
 11
47.5
 21
151.499991938015
 31
0.0
  0
LINE
  5
    2B
  8
0
  6
CONTINUOUS
 62
     1
 10
45.5
 20
143.499991938015
 30
0.0
 11
47.5
 21
143.499991938015
 31
0.0
  0
ARC
  5
    2C
  8
0
  6
CONTINUOUS
 62
     1
 10
61.0001195664684
 20
293.000130967507
 30
0.0
 40
1.99983675500225
 50
359.996219692575
 51
450.003067297461
  0
ARC
  5
    2D
  8
0
  6
CONTINUOUS
 62
     1
 10
60.999997541172
 20
1.99997801527987
 30
0.0
 40
1.99998559606681
 50
270.000149683848
 51
360.00043490088
  0
LINE
  5
    2E
  8
0
  6
CONTINUOUS
 62
     1
 10
-2.5
 20
263.499999567409
 30
0.0
 11
-2.5
 21
278.499999567409
 31
0.0
  0
LINE
  5
    2F
  8
0
  6
CONTINUOUS
 62
     1
 10
-2.0
 20
16.4999999606765
 30
0.0
 11
-2.0
 21
31.499999567409
 31
0.0
  0
LINE
  5
    30
  8
0
  6
CONTINUOUS
 62
     1
 10
-2.5
 20
263.499999567409
 30
0.0
 11
-1.92386683707583E-15
 21
263.499999567409
 31
0.0
  0
LINE
  5
    31
  8
0
  6
CONTINUOUS
 62
     1
 10
-2.0
 20
31.499999567409
 30
0.0
 11
-1.92881868216852E-15
 21
31.499999567409
 31
0.0
  0
LINE
  5
    32
  8
0
  6
CONTINUOUS
 62
     1
 10
0.0
 20
31.499999567409
 30
0.0
 11
0.0
 21
85.5
 31
0.0
  0
LINE
  5
    33
  8
0
  6
CONTINUOUS
 62
     1
 10
0.0
 20
278.499999567409
 30
0.0
 11
0.0
 21
294.999952060667
 31
0.0
  0
LINE
  5
    34
  8
0
  6
CONTINUOUS
 62
     1
 10
49.5
 20
73.499980493923
 30
0.0
 11
61.0
 21
73.499980493923
 31
0.0
  0
LINE
  5
    35
  8
0
  6
CONTINUOUS
 62
     1
 10
48.7928895797786
 20
73.7928770569176
 30
0.0
 11
49.1173066946318
 21
73.5761030782846
 31
0.0
  0
LINE
  5
    36
  8
0
  6
CONTINUOUS
 62
     1
 10
45.5
 20
217.499953791042
 30
0.0
 11
47.5
 21
217.499953791042
 31
0.0
  0
LINE
  5
    37
  8
0
  6
CONTINUOUS
 62
     1
 10
48.5
 20
218.499953791042
 30
0.0
 11
48.5
 21
220.49998430862
 31
0.0
  0
LINE
  5
    38
  8
0
  6
CONTINUOUS
 62
     1
 10
49.5
 20
221.49998430862
 30
0.0
 11
61.0
 21
221.49998430862
 31
0.0
  0
LINE
  5
    39
  8
0
  6
CONTINUOUS
 62
     1
 10
48.5
 20
213.499999567409
 30
0.0
 11
48.5
 21
218.49998430862
 31
0.0
  0
LINE
  5
    3A
  8
0
  6
CONTINUOUS
 62
     1
 10
85.0
 20
20.4999995674093
 30
0.0
 11
85.0
 21
66.4999995674093
 31
0.0
  0
LINE
  5
    3B
  8
0
  6
CONTINUOUS
 62
     1
 10
85.0
 20
228.499999567409
 30
0.0
 11
85.0
 21
274.499999567409
 31
0.0
  0
LINE
  5
    3C
  8
0
  6
CONTINUOUS
 62
     1
 10
65.0
 20
18.4999995674093
 30
0.0
 11
83.0
 21
18.4999995674093
 31
0.0
  0
LINE
  5
    3D
  8
0
  6
CONTINUOUS
 62
     1
 10
65.0
 20
68.4999995674093
 30
0.0
 11
83.0
 21
68.4999995674093
 31
0.0
  0
LINE
  5
    3E
  8
0
  6
CONTINUOUS
 62
     1
 10
65.0
 20
276.499999567409
 30
0.0
 11
83.0
 21
276.499999567409
 31
0.0
  0
LINE
  5
    3F
  8
0
  6
CONTINUOUS
 62
     1
 10
65.0
 20
226.499999567409
 30
0.0
 11
83.0
 21
226.499999567409
 31
0.0
  0
ARC
  5
    40
  8
0
  6
CONTINUOUS
 62
     1
 10
64.9999165137627
 20
278.499791758427
 30
0.0
 40
1.99978487451056
 50
179.993632987589
 51
270.002663206323
  0
ARC
  5
    41
  8
0
  6
CONTINUOUS
 62
     1
 10
82.9999340347904
 20
274.4999314475
 30
0.0
 40
2.0000757729629
 50
0.002355312465183
 51
89.9978053040706
  0
ARC
  5
    42
  8
0
  6
CONTINUOUS
 62
     1
 10
82.9999116167853
 20
228.500087346486
 30
0.0
 40
2.00011549437606
 50
270.002897544432
 51
359.997857039135
  0
ARC
  5
    43
  8
0
  6
CONTINUOUS
 62
     1
 10
64.9999184375488
 20
224.50012847784
 30
0.0
 40
1.99984640930379
 50
89.9973313750434
 51
180.003331076003
  0
ARC
  5
    44
  8
0
  6
CONTINUOUS
 62
     1
 10
61.0000256605929
 20
223.499960071298
 30
0.0
 40
1.99997025751221
 50
269.999590543356
 51
360.001042404463
  0
ARC
  5
    45
  8
0
  6
CONTINUOUS
 62
     1
 10
49.4998375253428
 20
220.500158338518
 30
0.0
 40
0.999767477268007
 50
90.0
 51
180.0
  0
ARC
  5
    46
  8
0
  6
CONTINUOUS
 62
     1
 10
47.4999789081749
 20
218.49996520695
 30
0.0
 40
1.00002296670393
 50
270.001612621459
 51
359.998496043313
  0
ARC
  5
    47
  8
0
  6
CONTINUOUS
 62
     1
 10
61.0000128593571
 20
71.5000155985656
 30
0.0
 40
1.99996077363452
 50
359.998963444352
 51
450.00007365585
  0
ARC
  5
    48
  8
0
  6
CONTINUOUS
 62
     1
 10
65.0000025173283
 20
70.5000043721036
 30
0.0
 40
2.00000239651892
 50
180.000166916245
 51
270.000162708079
  0
ARC
  5
    49
  8
0
  6
CONTINUOUS
 62
     1
 10
83.0000105972873
 20
66.500007360899
 30
0.0
 40
1.99998409967202
 50
359.99975548358
 51
450.00004232059
  0
ARC
  5
    4A
  8
0
  6
CONTINUOUS
 62
     1
 10
82.9999123216256
 20
20.500063832728
 30
0.0
 40
2.00010029490385
 50
270.002773926169
 51
359.998166697101
  0
ARC
  5
    4B
  8
0
  6
CONTINUOUS
 62
     1
 10
64.9999636318814
 20
16.5000487387311
 30
0.0
 40
1.9999391421224
 50
89.9987223290514
 51
180.001392964213
  0
ARC
  5
    4C
  8
0
  6
CONTINUOUS
 62
     1
 10
49.4999889213575
 20
74.4999564682283
 30
0.0
 40
0.999975386078343
 50
180.0
 51
270.0
  0
ARC
  5
    4D
  8
0
  6
CONTINUOUS
 62
     1
 10
47.5
 20
76.4999576057394
 30
0.0
 40
1.0
 50
0.0
 51
90.0
  0
LINE
  5
    4E
  8
0
  6
DASHDOT
 62
     1
 10
-4.2589963029921
 20
251.499999567409
 30
0.0
 11
89.4453946237602
 21
251.499999567409
 31
0.0
  0
LINE
  5
    4F
  8
0
  6
CONTINUOUS
 62
     1
 10
47.5
 20
85.4999919380148
 30
0.0
 11
47.5
 21
89.4999919380148
 31
0.0
  0
LINE
  5
    50
  8
0
  6
CONTINUOUS
 62
     1
 10
47.5
 20
205.49998430862
 30
0.0
 11
47.5
 21
209.49998430862
 31
0.0
  0
LINE
  5
    51
  8
0
  6
CONTINUOUS
 62
     1
 10
45.5
 20
209.49998430862
 30
0.0
 11
47.5
 21
209.49998430862
 31
0.0
  0
LINE
  5
    52
  8
0
  6
CONTINUOUS
 62
     1
 10
45.5
 20
205.49998430862
 30
0.0
 11
47.5
 21
205.49998430862
 31
0.0
  0
LINE
  5
    53
  8
0
  6
CONTINUOUS
 62
     1
 10
45.5
 20
89.4999919380148
 30
0.0
 11
47.5
 21
89.4999919380148
 31
0.0
  0
LINE
  5
    54
  8
0
  6
CONTINUOUS
 62
     1
 10
45.5
 20
85.4999919380148
 30
0.0
 11
47.5
 21
85.4999919380148
 31
0.0
  0
LINE
  5
    55
  8
0
  6
DASHDOT
 62
     1
 10
-4.2589963029921
 20
43.4999995674093
 30
0.0
 11
99.2454243656788
 21
43.4999995674093
 31
0.0
  0
ENDBLK
  5
    56
  8
0
  6
CONTINUOUS
 62
     7
  0
BLOCK
  5
    57
  8
0
  6
CONTINUOUS
 62
     7
  2
*HATCH296
 70
    65
 10
0.0
 20
0.0
 30
0.0
  3
*HATCH296
  0
LINE
  5
    58
  8
0
  6
CONTINUOUS
 62
    52
 10
41.621337890625
 20
39.5000152587891
 30
0.0
 11
39.621337890625
 21
37.5000152587891
 31
0.0
  0
LINE
  5
    59
  8
0
  6
CONTINUOUS
 62
    52
 10
45.8639755249023
 20
39.5000152587891
 30
0.0
 11
43.8639755249023
 21
37.5000152587891
 31
0.0
  0
LINE
  5
    5A
  8
0
  6
CONTINUOUS
 62
    52
 10
50.1066131591797
 20
39.5000152587891
 30
0.0
 11
48.1066131591797
 21
37.5000152587891
 31
0.0
  0
LINE
  5
    5B
  8
0
  6
CONTINUOUS
 62
    52
 10
54.349250793457
 20
39.5000152587891
 30
0.0
 11
52.349250793457
 21
37.5000152587891
 31
0.0
  0
LINE
  5
    5C
  8
0
  6
CONTINUOUS
 62
    52
 10
58.5918884277344
 20
39.5000152587891
 30
0.0
 11
56.5918884277344
 21
37.5000152587891
 31
0.0
  0
LINE
  5
    5D
  8
0
  6
CONTINUOUS
 62
    52
 10
62.8345260620117
 20
39.5000152587891
 30
0.0
 11
60.8345260620117
 21
37.5000152587891
 31
0.0
  0
LINE
  5
    5E
  8
0
  6
CONTINUOUS
 62
    52
 10
67.0771713256836
 20
39.5000152587891
 30
0.0
 11
65.0771636962891
 21
37.5000152587891
 31
0.0
  0
LINE
  5
    5F
  8
0
  6
CONTINUOUS
 62
    52
 10
71.3198165893555
 20
39.5000152587891
 30
0.0
 11
69.3198089599609
 21
37.5000152587891
 31
0.0
  0
LINE
  5
    60
  8
0
  6
CONTINUOUS
 62
    52
 10
75.2372512817383
 20
39.1748008728027
 30
0.0
 11
73.5624618530273
 21
37.5000152587891
 31
0.0
  0
ENDBLK
  5
    61
  8
0
  6
CONTINUOUS
 62
     7
  0
BLOCK
  5
    62
  8
0
  6
CONTINUOUS
 62
     7
  2
*HATCH297
 70
    65
 10
0.0
 20
0.0
 30
0.0
  3
*HATCH297
  0
LINE
  5
    63
  8
0
  6
CONTINUOUS
 62
    52
 10
-22.018274307251
 20
39.5000152587891
 30
0.0
 11
-24.018274307251
 21
37.5000152587891
 31
0.0
  0
LINE
  5
    64
  8
0
  6
CONTINUOUS
 62
    52
 10
-17.7756328582764
 20
39.5000152587891
 30
0.0
 11
-19.7756328582764
 21
37.5000152587891
 31
0.0
  0
LINE
  5
    65
  8
0
  6
CONTINUOUS
 62
    52
 10
-13.5329914093018
 20
39.5000152587891
 30
0.0
 11
-15.5329914093018
 21
37.5000152587891
 31
0.0
  0
LINE
  5
    66
  8
0
  6
CONTINUOUS
 62
    52
 10
-9.29034996032715
 20
39.5000152587891
 30
0.0
 11
-11.2903499603271
 21
37.5000152587891
 31
0.0
  0
LINE
  5
    67
  8
0
  6
CONTINUOUS
 62
    52
 10
-5.04770851135254
 20
39.5000152587891
 30
0.0
 11
-7.04770851135254
 21
37.5000152587891
 31
0.0
  0
LINE
  5
    68
  8
0
  6
CONTINUOUS
 62
    52
 10
-0.805067539215088
 20
39.5000152587891
 30
0.0
 11
-2.80506730079651
 21
37.5000152587891
 31
0.0
  0
LINE
  5
    69
  8
0
  6
CONTINUOUS
 62
    52
 10
3.43757343292236
 20
39.5000152587891
 30
0.0
 11
1.43757367134094
 21
37.5000152587891
 31
0.0
  0
LINE
  5
    6A
  8
0
  6
CONTINUOUS
 62
    52
 10
7.68021488189697
 20
39.5000152587891
 30
0.0
 11
5.68021488189697
 21
37.5000152587891
 31
0.0
  0
LINE
  5
    6B
  8
0
  6
CONTINUOUS
 62
    52
 10
11.9228563308716
 20
39.5000152587891
 30
0.0
 11
9.92285633087158
 21
37.5000152587891
 31
0.0
  0
LINE
  5
    6C
  8
0
  6
CONTINUOUS
 62
    52
 10
16.1654968261719
 20
39.5000152587891
 30
0.0
 11
14.1654977798462
 21
37.5000152587891
 31
0.0
  0
LINE
  5
    6D
  8
0
  6
CONTINUOUS
 62
    52
 10
20.4081382751465
 20
39.5000152587891
 30
0.0
 11
18.4081382751465
 21
37.5000152587891
 31
0.0
  0
LINE
  5
    6E
  8
0
  6
CONTINUOUS
 62
    52
 10
24.6507797241211
 20
39.5000152587891
 30
0.0
 11
22.6507797241211
 21
37.5000152587891
 31
0.0
  0
LINE
  5
    6F
  8
0
  6
CONTINUOUS
 62
    52
 10
28.8934211730957
 20
39.5000152587891
 30
0.0
 11
26.8934211730957
 21
37.5000152587891
 31
0.0
  0
ENDBLK
  5
    70
  8
0
  6
CONTINUOUS
 62
     7
  0
BLOCK
  5
    71
  8
0
  6
CONTINUOUS
 62
     7
  2
*HATCH298
 70
    65
 10
0.0
 20
0.0
 30
0.0
  3
*HATCH298
  0
LINE
  5
    72
  8
0
  6
CONTINUOUS
 62
    52
 10
128.595474243164
 20
39.5000152587891
 30
0.0
 11
126.595474243164
 21
37.5000114440918
 31
0.0
  0
LINE
  5
    73
  8
0
  6
CONTINUOUS
 62
    52
 10
132.838119506836
 20
39.5000152587891
 30
0.0
 11
130.838119506836
 21
37.5000114440918
 31
0.0
  0
LINE
  5
    74
  8
0
  6
CONTINUOUS
 62
    52
 10
137.080764770508
 20
39.5000152587891
 30
0.0
 11
135.080764770508
 21
37.5000114440918
 31
0.0
  0
LINE
  5
    75
  8
0
  6
CONTINUOUS
 62
    52
 10
141.32341003418
 20
39.5000152587891
 30
0.0
 11
139.32341003418
 21
37.5000114440918
 31
0.0
  0
LINE
  5
    76
  8
0
  6
CONTINUOUS
 62
    52
 10
145.566055297852
 20
39.5000152587891
 30
0.0
 11
143.566055297852
 21
37.5000114440918
 31
0.0
  0
LINE
  5
    77
  8
0
  6
CONTINUOUS
 62
    52
 10
149.808700561523
 20
39.5000152587891
 30
0.0
 11
147.808700561523
 21
37.5000114440918
 31
0.0
  0
LINE
  5
    78
  8
0
  6
CONTINUOUS
 62
    52
 10
154.051345825195
 20
39.5000152587891
 30
0.0
 11
152.051345825195
 21
37.5000114440918
 31
0.0
  0
LINE
  5
    79
  8
0
  6
CONTINUOUS
 62
    52
 10
158.293991088867
 20
39.5000152587891
 30
0.0
 11
156.293991088867
 21
37.5000114440918
 31
0.0
  0
LINE
  5
    7A
  8
0
  6
CONTINUOUS
 62
    52
 10
162.536636352539
 20
39.5000152587891
 30
0.0
 11
160.536636352539
 21
37.5000114440918
 31
0.0
  0
LINE
  5
    7B
  8
0
  6
CONTINUOUS
 62
    52
 10
166.779281616211
 20
39.5000152587891
 30
0.0
 11
164.779281616211
 21
37.5000114440918
 31
0.0
  0
LINE
  5
    7C
  8
0
  6
CONTINUOUS
 62
    52
 10
171.021926879883
 20
39.5000152587891
 30
0.0
 11
169.021926879883
 21
37.5000114440918
 31
0.0
  0
LINE
  5
    7D
  8
0
  6
CONTINUOUS
 62
    52
 10
175.264572143555
 20
39.5000152587891
 30
0.0
 11
173.264572143555
 21
37.5000114440918
 31
0.0
  0
LINE
  5
    7E
  8
0
  6
CONTINUOUS
 62
    52
 10
179.507217407227
 20
39.5000152587891
 30
0.0
 11
177.507217407227
 21
37.5000114440918
 31
0.0
  0
LINE
  5
    7F
  8
0
  6
CONTINUOUS
 62
    52
 10
183.749862670898
 20
39.5000152587891
 30
0.0
 11
181.749862670898
 21
37.5000114440918
 31
0.0
  0
LINE
  5
    80
  8
0
  6
CONTINUOUS
 62
    52
 10
187.99250793457
 20
39.5000152587891
 30
0.0
 11
185.99250793457
 21
37.5000114440918
 31
0.0
  0
LINE
  5
    81
  8
0
  6
CONTINUOUS
 62
    52
 10
192.235153198242
 20
39.5000152587891
 30
0.0
 11
190.235153198242
 21
37.5000114440918
 31
0.0
  0
LINE
  5
    82
  8
0
  6
CONTINUOUS
 62
    52
 10
196.477798461914
 20
39.5000152587891
 30
0.0
 11
194.477798461914
 21
37.5000114440918
 31
0.0
  0
LINE
  5
    83
  8
0
  6
CONTINUOUS
 62
    52
 10
200.720443725586
 20
39.5000152587891
 30
0.0
 11
198.720443725586
 21
37.5000114440918
 31
0.0
  0
LINE
  5
    84
  8
0
  6
CONTINUOUS
 62
    52
 10
204.963088989258
 20
39.5000152587891
 30
0.0
 11
202.963088989258
 21
37.5000114440918
 31
0.0
  0
LINE
  5
    85
  8
0
  6
CONTINUOUS
 62
    52
 10
207.737045288086
 20
38.0314140319824
 30
0.0
 11
207.205642700195
 21
37.5000114440918
 31
0.0
  0
ENDBLK
  5
    86
  8
0
  6
CONTINUOUS
 62
     7
  0
BLOCK
  5
    87
  8
0
  6
CONTINUOUS
 62
     7
  2
*HATCH299
 70
    65
 10
0.0
 20
0.0
 30
0.0
  3
*HATCH299
  0
LINE
  5
    88
  8
0
  6
CONTINUOUS
 62
    52
 10
217.690933227539
 20
39.5000152587891
 30
0.0
 11
215.690933227539
 21
37.5000152587891
 31
0.0
  0
LINE
  5
    89
  8
0
  6
CONTINUOUS
 62
    52
 10
221.933578491211
 20
39.5000152587891
 30
0.0
 11
219.933578491211
 21
37.5000152587891
 31
0.0
  0
LINE
  5
    8A
  8
0
  6
CONTINUOUS
 62
    52
 10
226.176223754883
 20
39.5000152587891
 30
0.0
 11
224.176223754883
 21
37.5000152587891
 31
0.0
  0
LINE
  5
    8B
  8
0
  6
CONTINUOUS
 62
    52
 10
230.418869018555
 20
39.5000152587891
 30
0.0
 11
228.418869018555
 21
37.5000152587891
 31
0.0
  0
LINE
  5
    8C
  8
0
  6
CONTINUOUS
 62
    52
 10
234.661514282227
 20
39.5000152587891
 30
0.0
 11
232.661514282227
 21
37.5000152587891
 31
0.0
  0
LINE
  5
    8D
  8
0
  6
CONTINUOUS
 62
    52
 10
238.904159545898
 20
39.5000152587891
 30
0.0
 11
236.904159545898
 21
37.5000152587891
 31
0.0
  0
LINE
  5
    8E
  8
0
  6
CONTINUOUS
 62
    52
 10
242.12809753418
 20
38.4813385009766
 30
0.0
 11
241.146774291992
 21
37.5000152587891
 31
0.0
  0
ENDBLK
  5
    8F
  8
0
  6
CONTINUOUS
 62
     7
  0
BLOCK
  5
    90
  8
0
  6
CONTINUOUS
 62
     7
  2
*HATCH300
 70
    65
 10
0.0
 20
0.0
 30
0.0
  3
*HATCH300
  0
LINE
  5
    91
  8
0
  6
CONTINUOUS
 62
    52
 10
198.084335327148
 20
30.5000228881836
 30
0.0
 11
195.584335327148
 21
28.0000171661377
 31
0.0
  0
LINE
  5
    92
  8
0
  6
CONTINUOUS
 62
    52
 10
202.32698059082
 20
30.5000228881836
 30
0.0
 11
199.82698059082
 21
28.0000171661377
 31
0.0
  0
ENDBLK
  5
    93
  8
0
  6
CONTINUOUS
 62
     7
  0
BLOCK
  5
    94
  8
0
  6
CONTINUOUS
 62
     7
  2
*UDIM1446
 70
    65
 10
0.0
 20
0.0
 30
0.0
  3
*UDIM1446
  0
TEXT
  5
    95
  8
0
  6
CONTINUOUS
 62
     7
 10
-41.3047135226643
 20
-26.8994868906297
 30
0.0
 40
2.99999994933605
  1
5,5
 50
334.502457004493
 41
0.933333333333333
 72
     1
 11
-37.1388504008068
 21
-27.2244235924955
 31
0.0
 73
     2
  0
TEXT
  5
    96
  8
0
  6
CONTINUOUS
 62
     7
 10
-44.1479152775913
 20
-25.5434988849266
 30
0.0
 40
2.99999994933605
  1
Ø
 50
334.502457004493
 41
0.933333333333333
 72
     1
 11
-42.5093425991959
 21
-24.6631129123264
 31
0.0
 73
     2
  0
LINE
  5
    97
  8
0
  6
CONTINUOUS
 62
     7
 10
-34.6948768176196
 20
-31.1597752266307
 30
0.0
 11
-52.0158324614066
 21
-22.8990149383143
 31
0.0
  0
LINE
  5
    98
  8
0
  6
CONTINUOUS
 62
     7
 10
-47.1391773896687
 20
-24.6476459880989
 30
0.0
 11
-50.0301030992083
 21
-23.8460547319573
 31
0.0
  0
LINE
  5
    99
  8
0
  6
CONTINUOUS
 62
     7
 10
-50.0301030992083
 20
-23.8460547319573
 30
0.0
 11
-47.5876817775069
 21
-25.5880587753793
 31
0.0
  0
LINE
  5
    9A
  8
0
  6
CONTINUOUS
 62
     7
 10
-54.9067581709463
 20
-22.0974236821727
 30
0.0
 11
-52.0158324614066
 21
-22.8990149383143
 31
0.0
  0
LINE
  5
    9B
  8
0
  6
CONTINUOUS
 62
     7
 10
-52.0158324614066
 20
-22.8990149383143
 30
0.0
 11
-54.458253783108
 21
-21.1570108948923
 31
0.0
  0
ENDBLK
  5
    9C
  8
0
  6
CONTINUOUS
 62
     7
  0
BLOCK
  5
    9D
  8
0
  6
CONTINUOUS
 62
     7
  2
*UDIM1447
 70
    65
 10
0.0
 20
0.0
 30
0.0
  3
*UDIM1447
  0
TEXT
  5
    9E
  8
0
  6
CONTINUOUS
 62
     7
 10
-85.7671230871723
 20
-87.6520297417625
 30
0.0
 40
2.99999994933605
  1
27,5
 50
359.999999948034
 41
0.933333333333333
 72
     1
 11
-80.4671231753257
 21
-86.1520297718748
 31
0.0
 73
     2
  0
LINE
  5
    9F
  8
0
  6
CONTINUOUS
 62
     7
 10
-62.4229471862317
 20
-57.7725157216963
 30
0.0
 11
-62.4229471862317
 21
-90.6520297465428
 31
0.0
  0
LINE
  5
    A0
  8
0
  6
CONTINUOUS
 62
     7
 10
-73.4229473501445
 20
-46.5725155548033
 30
0.0
 11
-73.4229473501445
 21
-90.6520297465428
 31
0.0
  0
LINE
  5
    A1
  8
0
  6
CONTINUOUS
 62
     7
 10
-62.4229471862317
 20
-88.6520297465428
 30
0.0
 11
-85.7671230858194
 21
-88.6520297465428
 31
0.0
  0
LINE
  5
    A2
  8
0
  6
CONTINUOUS
 62
     7
 10
-59.4685239090247
 20
-88.1310853165911
 30
0.0
 11
-62.4229471862317
 21
-88.6520297465428
 31
0.0
  0
LINE
  5
    A3
  8
0
  6
CONTINUOUS
 62
     7
 10
-62.4229471862317
 20
-88.6520297465428
 30
0.0
 11
-59.4685239090247
 21
-89.1729741764945
 31
0.0
  0
LINE
  5
    A4
  8
0
  6
CONTINUOUS
 62
     7
 10
-76.3773706273514
 20
-89.1729741764945
 30
0.0
 11
-73.4229473501445
 21
-88.6520297465428
 31
0.0
  0
LINE
  5
    A5
  8
0
  6
CONTINUOUS
 62
     7
 10
-73.4229473501445
 20
-88.6520297465428
 30
0.0
 11
-76.3773706273514
 21
-88.1310853165911
 31
0.0
  0
ENDBLK
  5
    A6
  8
0
  6
CONTINUOUS
 62
     7
  0
BLOCK
  5
    A7
  8
0
  6
CONTINUOUS
 62
     7
  2
*UDIM1448
 70
    65
 10
0.0
 20
0.0
 30
0.0
  3
*UDIM1448
  0
TEXT
  5
    A8
  8
0
  6
CONTINUOUS
 62
     7
 10
-26.397954203871
 20
64.5585575470619
 30
0.0
 40
2.99999994933605
  1
190
 50
359.999999948034
 41
0.933333333333333
 72
     1
 11
-22.4979542683812
 21
66.0585575182124
 31
0.0
 73
     2
  0
LINE
  5
    A9
  8
0
  6
CONTINUOUS
 62
     7
 10
15.7770402461288
 20
51.3627181867565
 30
0.0
 11
15.7770402461288
 21
65.5585575435443
 31
0.0
  0
LINE
  5
    AA
  8
0
  6
CONTINUOUS
 62
     7
 10
-60.2229486793281
 20
31.0762779624445
 30
0.0
 11
-60.2229486793281
 21
65.5585575435443
 31
0.0
  0
LINE
  5
    AB
  8
0
  6
CONTINUOUS
 62
     7
 10
15.7770402461288
 20
63.5585575435443
 30
0.0
 11
-60.2229486793281
 21
63.5585575435443
 31
0.0
  0
LINE
  5
    AC
  8
0
  6
CONTINUOUS
 62
     7
 10
12.8226169689218
 20
63.0376131135927
 30
0.0
 11
15.7770402461288
 21
63.5585575435443
 31
0.0
  0
LINE
  5
    AD
  8
0
  6
CONTINUOUS
 62
     7
 10
15.7770402461288
 20
63.5585575435443
 30
0.0
 11
12.8226169689218
 21
64.079501973496
 31
0.0
  0
LINE
  5
    AE
  8
0
  6
CONTINUOUS
 62
     7
 10
-57.2685254021211
 20
64.079501973496
 30
0.0
 11
-60.2229486793281
 21
63.5585575435443
 31
0.0
  0
LINE
  5
    AF
  8
0
  6
CONTINUOUS
 62
     7
 10
-60.2229486793281
 20
63.5585575435443
 30
0.0
 11
-57.2685254021211
 21
63.0376131135927
 31
0.0
  0
ENDBLK
  5
    B0
  8
0
  6
CONTINUOUS
 62
     7
  0
BLOCK
  5
    B1
  8
0
  6
CONTINUOUS
 62
     7
  2
*UDIM1449
 70
    65
 10
0.0
 20
0.0
 30
0.0
  3
*UDIM1449
  0
TEXT
  5
    B2
  8
0
  6
CONTINUOUS
 62
     7
 10
-66.7729487433155
 20
64.5585575445365
 30
0.0
 40
2.99999994933605
  1
2
 50
359.999999948034
 41
0.933333333333333
 72
     1
 11
-65.6729487605394
 21
66.0585575182124
 31
0.0
 73
     2
  0
LINE
  5
    B3
  8
0
  6
CONTINUOUS
 62
     7
 10
-61.022948691249
 20
31.2956328044228
 30
0.0
 11
-61.022948691249
 21
65.5585575435443
 31
0.0
  0
LINE
  5
    B4
  8
0
  6
CONTINUOUS
 62
     7
 10
-60.2229486793281
 20
63.5585575435443
 30
0.0
 11
-66.7729487419626
 21
63.5585575435443
 31
0.0
  0
LINE
  5
    B5
  8
0
  6
CONTINUOUS
 62
     7
 10
-57.2685254021211
 20
64.079501973496
 30
0.0
 11
-60.2229486793281
 21
63.5585575435443
 31
0.0
  0
LINE
  5
    B6
  8
0
  6
CONTINUOUS
 62
     7
 10
-60.2229486793281
 20
63.5585575435443
 30
0.0
 11
-57.2685254021211
 21
63.0376131135927
 31
0.0
  0
LINE
  5
    B7
  8
0
  6
CONTINUOUS
 62
     7
 10
-63.977371968456
 20
63.0376131135927
 30
0.0
 11
-61.022948691249
 21
63.5585575435443
 31
0.0
  0
LINE
  5
    B8
  8
0
  6
CONTINUOUS
 62
     7
 10
-61.022948691249
 20
63.5585575435443
 30
0.0
 11
-63.977371968456
 21
64.079501973496
 31
0.0
  0
ENDBLK
  5
    B9
  8
0
  6
CONTINUOUS
 62
     7
  0
BLOCK
  5
    BA
  8
0
  6
CONTINUOUS
 62
     7
  2
*UDIM1450
 70
    65
 10
0.0
 20
0.0
 30
0.0
  3
*UDIM1450
  0
TEXT
  5
    BB
  8
0
  6
CONTINUOUS
 62
     7
 10
-21.7979633108403
 20
56.9426760859202
 30
0.0
 40
2.99999994933605
  1
167
 50
359.999999948034
 41
0.933333333333333
 72
     1
 11
-17.8979633753505
 21
58.4426760570706
 31
0.0
 73
     2
  0
LINE
  5
    BC
  8
0
  6
CONTINUOUS
 62
     7
 10
15.7770402461288
 20
51.3627181867565
 30
0.0
 11
15.7770402461288
 21
57.9426760824026
 31
0.0
  0
LINE
  5
    BD
  8
0
  6
CONTINUOUS
 62
     7
 10
-51.0229676085224
 20
-17.9725353206647
 30
0.0
 11
-51.0229676085224
 21
57.9426760824026
 31
0.0
  0
LINE
  5
    BE
  8
0
  6
CONTINUOUS
 62
     7
 10
15.7770402461288
 20
55.9426760824026
 30
0.0
 11
-51.0229676085224
 21
55.9426760824026
 31
0.0
  0
LINE
  5
    BF
  8
0
  6
CONTINUOUS
 62
     7
 10
12.8226169689218
 20
55.4217316524509
 30
0.0
 11
15.7770402461288
 21
55.9426760824026
 31
0.0
  0
LINE
  5
    C0
  8
0
  6
CONTINUOUS
 62
     7
 10
15.7770402461288
 20
55.9426760824026
 30
0.0
 11
12.8226169689218
 21
56.4636205123543
 31
0.0
  0
LINE
  5
    C1
  8
0
  6
CONTINUOUS
 62
     7
 10
-48.0685443313154
 20
56.4636205123543
 30
0.0
 11
-51.0229676085224
 21
55.9426760824026
 31
0.0
  0
LINE
  5
    C2
  8
0
  6
CONTINUOUS
 62
     7
 10
-51.0229676085224
 20
55.9426760824026
 30
0.0
 11
-48.0685443313154
 21
55.4217316524509
 31
0.0
  0
ENDBLK
  5
    C3
  8
0
  6
CONTINUOUS
 62
     7
  0
BLOCK
  5
    C4
  8
0
  6
CONTINUOUS
 62
     7
  2
*UDIM1451
 70
    65
 10
0.0
 20
0.0
 30
0.0
  3
*UDIM1451
  0
TEXT
  5
    C5
  8
0
  6
CONTINUOUS
 62
     7
 10
34.8645832665336
 20
-27.5475167371534
 30
0.0
 40
2.99999994933605
  1
145
 50
89.9999999480344
 41
0.933333333333333
 72
     1
 11
33.3645832953978
 21
-23.647516801658
 31
0.0
 73
     2
  0
LINE
  5
    C6
  8
0
  6
CONTINUOUS
 62
     7
 10
24.777040365338
 20
-52.3725171820101
 30
0.0
 11
37.8645832700659
 21
-52.3725171820101
 31
0.0
  0
LINE
  5
    C7
  8
0
  6
CONTINUOUS
 62
     7
 10
24.777040365338
 20
5.62748368225721
 30
0.0
 11
37.8645832700659
 21
5.62748368225721
 31
0.0
  0
LINE
  5
    C8
  8
0
  6
CONTINUOUS
 62
     7
 10
35.8645832700659
 20
-52.3725171820101
 30
0.0
 11
35.8645832700659
 21
5.62748368225721
 31
0.0
  0
LINE
  5
    C9
  8
0
  6
CONTINUOUS
 62
     7
 10
35.3436388401142
 20
-49.4180939048032
 30
0.0
 11
35.8645832700659
 21
-52.3725171820101
 31
0.0
  0
LINE
  5
    CA
  8
0
  6
CONTINUOUS
 62
     7
 10
35.8645832700659
 20
-52.3725171820101
 30
0.0
 11
36.3855277000175
 21
-49.4180939048032
 31
0.0
  0
LINE
  5
    CB
  8
0
  6
CONTINUOUS
 62
     7
 10
36.3855277000175
 20
2.67306040505025
 30
0.0
 11
35.8645832700659
 21
5.62748368225721
 31
0.0
  0
LINE
  5
    CC
  8
0
  6
CONTINUOUS
 62
     7
 10
35.8645832700659
 20
5.62748368225721
 30
0.0
 11
35.3436388401142
 21
2.67306040505025
 31
0.0
  0
ENDBLK
  5
    CD
  8
0
  6
CONTINUOUS
 62
     7
  0
BLOCK
  5
    CE
  8
0
  6
CONTINUOUS
 62
     7
  2
*UDIM1452
 70
    65
 10
0.0
 20
0.0
 30
0.0
  3
*UDIM1452
  0
TEXT
  5
    CF
  8
0
  6
CONTINUOUS
 62
     7
 10
48.084012023293
 20
-52.5416958107987
 30
0.0
 40
2.99999994933605
  1
14
 50
413.025302936054
 41
0.933333333333333
 72
     1
 11
48.3893158885346
 21
-49.6422494390282
 31
0.0
 73
     2
  0
TEXT
  5
    D0
  8
0
  6
CONTINUOUS
 62
     7
 10
46.1894059011017
 20
-55.0582345711969
 30
0.0
 40
2.99999994933605
  1
Ø
 50
413.025302936054
 41
0.933333333333333
 72
     1
 11
45.6526626005712
 21
-53.2772498681545
 31
0.0
 73
     2
  0
LINE
  5
    D1
  8
0
  6
CONTINUOUS
 62
     7
 10
38.2929462236726
 20
-67.2094392539695
 30
0.0
 11
51.8902245346179
 21
-49.1486521193237
 31
0.0
  0
LINE
  5
    D2
  8
0
  6
CONTINUOUS
 62
     7
 10
36.9321552240831
 20
-69.883059992862
 30
0.0
 11
38.2929462236726
 21
-67.2094392539695
 31
0.0
  0
LINE
  5
    D3
  8
0
  6
CONTINUOUS
 62
     7
 10
38.2929462236726
 20
-67.2094392539695
 30
0.0
 11
36.0997889574065
 21
-69.256403153364
 31
0.0
  0
LINE
  5
    D4
  8
0
  6
CONTINUOUS
 62
     7
 10
43.0219259893907
 20
-60.0619716949097
 30
0.0
 11
41.6611349898011
 21
-62.7355924338022
 31
0.0
  0
LINE
  5
    D5
  8
0
  6
CONTINUOUS
 62
     7
 10
41.6611349898011
 20
-62.7355924338022
 30
0.0
 11
43.8542922560672
 21
-60.6886285344077
 31
0.0
  0
ENDBLK
  5
    D6
  8
0
  6
CONTINUOUS
 62
     7
  0
BLOCK
  5
    D7
  8
0
  6
CONTINUOUS
 62
     7
  2
*UDIM1453
 70
    65
 10
0.0
 20
0.0
 30
0.0
  3
*UDIM1453
  0
TEXT
  5
    D8
  8
0
  6
CONTINUOUS
 62
     7
 10
34.6383686648213
 20
-84.1843889158203
 30
0.0
 40
2.99999994933605
  1
40
 50
89.9999999480344
 41
0.933333333333333
 72
     1
 11
33.1383686924176
 21
-81.6843889566817
 31
0.0
 73
     2
  0
LINE
  5
    D9
  8
0
  6
CONTINUOUS
 62
     7
 10
35.6383686670856
 20
-84.1843889144617
 30
0.0
 11
35.6383686670856
 21
-56.9725157246766
 31
0.0
  0
LINE
  5
    DA
  8
0
  6
CONTINUOUS
 62
     7
 10
36.1593130970373
 20
-75.9269392403021
 30
0.0
 11
35.6383686670856
 21
-72.9725159630951
 31
0.0
  0
LINE
  5
    DB
  8
0
  6
CONTINUOUS
 62
     7
 10
35.6383686670856
 20
-72.9725159630951
 30
0.0
 11
35.117424237134
 21
-75.9269392403021
 31
0.0
  0
LINE
  5
    DC
  8
0
  6
CONTINUOUS
 62
     7
 10
35.117424237134
 20
-54.0180924474696
 30
0.0
 11
35.6383686670856
 21
-56.9725157246766
 31
0.0
  0
LINE
  5
    DD
  8
0
  6
CONTINUOUS
 62
     7
 10
35.6383686670856
 20
-56.9725157246766
 30
0.0
 11
36.1593130970373
 21
-54.0180924474696
 31
0.0
  0
ENDBLK
  5
    DE
  8
0
  6
CONTINUOUS
 62
     7
  0
BLOCK
  5
    DF
  8
0
  6
CONTINUOUS
 62
     7
  2
*UDIM1454
 70
    65
 10
0.0
 20
0.0
 30
0.0
  3
*UDIM1454
  0
TEXT
  5
    E0
  8
0
  6
CONTINUOUS
 62
     7
 10
50.9520408483971
 20
47.2188600217926
 30
0.0
 40
2.99999994933605
  1
20
 50
359.999999948034
 41
0.933333333333333
 72
     1
 11
53.45204080753
 21
48.7188599942057
 31
0.0
 73
     2
  0
LINE
  5
    E1
  8
0
  6
CONTINUOUS
 62
     7
 10
47.9770407259462
 20
27.2274855151001
 30
0.0
 11
47.9770407259462
 21
48.2188600195377
 31
0.0
  0
LINE
  5
    E2
  8
0
  6
CONTINUOUS
 62
     7
 10
39.9770406067369
 20
26.0274854972187
 30
0.0
 11
39.9770406067369
 21
48.2188600195377
 31
0.0
  0
LINE
  5
    E3
  8
0
  6
CONTINUOUS
 62
     7
 10
55.9520407653101
 20
46.2188600195377
 30
0.0
 11
39.9770406067369
 21
46.2188600195377
 31
0.0
  0
LINE
  5
    E4
  8
0
  6
CONTINUOUS
 62
     7
 10
45.0226174487392
 20
45.6979155895861
 30
0.0
 11
47.9770407259462
 21
46.2188600195377
 31
0.0
  0
LINE
  5
    E5
  8
0
  6
CONTINUOUS
 62
     7
 10
47.9770407259462
 20
46.2188600195377
 30
0.0
 11
45.0226174487392
 21
46.7398044494894
 31
0.0
  0
LINE
  5
    E6
  8
0
  6
CONTINUOUS
 62
     7
 10
42.9314638839438
 20
46.7398044494894
 30
0.0
 11
39.9770406067369
 21
46.2188600195377
 31
0.0
  0
LINE
  5
    E7
  8
0
  6
CONTINUOUS
 62
     7
 10
39.9770406067369
 20
46.2188600195377
 30
0.0
 11
42.9314638839438
 21
45.6979155895861
 31
0.0
  0
ENDBLK
  5
    E8
  8
0
  6
CONTINUOUS
 62
     7
  0
BLOCK
  5
    E9
  8
0
  6
CONTINUOUS
 62
     7
  2
*UDIM1455
 70
    65
 10
0.0
 20
0.0
 30
0.0
  3
*UDIM1455
  0
TEXT
  5
    EA
  8
0
  6
CONTINUOUS
 62
     7
 10
22.3020404389628
 20
47.218860024318
 30
0.0
 40
2.99999994933605
  1
60,5
 50
359.999999948034
 41
0.933333333333333
 72
     1
 11
27.6020403508094
 21
48.7188599942057
 31
0.0
 73
     2
  0
LINE
  5
    EB
  8
0
  6
CONTINUOUS
 62
     7
 10
39.9770406067369
 20
46.2188600195377
 30
0.0
 11
15.7770402461288
 21
46.2188600195377
 31
0.0
  0
LINE
  5
    EC
  8
0
  6
CONTINUOUS
 62
     7
 10
37.0226173295299
 20
45.6979155895861
 30
0.0
 11
39.9770406067369
 21
46.2188600195377
 31
0.0
  0
LINE
  5
    ED
  8
0
  6
CONTINUOUS
 62
     7
 10
39.9770406067369
 20
46.2188600195377
 30
0.0
 11
37.0226173295299
 21
46.7398044494894
 31
0.0
  0
LINE
  5
    EE
  8
0
  6
CONTINUOUS
 62
     7
 10
18.7314635233357
 20
46.7398044494894
 30
0.0
 11
15.7770402461288
 21
46.2188600195377
 31
0.0
  0
LINE
  5
    EF
  8
0
  6
CONTINUOUS
 62
     7
 10
15.7770402461288
 20
46.2188600195377
 30
0.0
 11
18.7314635233357
 21
45.6979155895861
 31
0.0
  0
ENDBLK
  5
    F0
  8
0
  6
CONTINUOUS
 62
     7
  0
BLOCK
  5
    F1
  8
0
  6
CONTINUOUS
 62
     7
  2
*UDIM1456
 70
    65
 10
0.0
 20
0.0
 30
0.0
  3
*UDIM1456
  0
TEXT
  5
    F2
  8
0
  6
CONTINUOUS
 62
     7
 10
24.1034564194422
 20
40.3668701723335
 30
0.0
 40
2.99999994933605
  1
3
 50
359.999999948034
 41
0.933333333333333
 72
     1
 11
25.2034564022183
 21
41.8668701460094
 31
0.0
 73
     2
  0
TEXT
  5
    F3
  8
0
  6
CONTINUOUS
 62
     7
 10
21.3534564446748
 20
40.3668701723335
 30
0.0
 40
2.99999994933605
  1
_
 50
359.999999948034
 41
0.933333333333333
 72
     1
 11
22.4534564274509
 21
41.8668701460094
 31
0.0
 73
     2
  0
LINE
  5
    F4
  8
0
  6
CONTINUOUS
 62
     7
 10
26.3034563836415
 20
39.3668701713414
 30
0.0
 11
15.7770402461288
 21
39.3668701713414
 31
0.0
  0
LINE
  5
    F5
  8
0
  6
CONTINUOUS
 62
     7
 10
19.9314635412171
 20
39.887814601293
 30
0.0
 11
16.9770402640102
 21
39.3668701713414
 31
0.0
  0
LINE
  5
    F6
  8
0
  6
CONTINUOUS
 62
     7
 10
16.9770402640102
 20
39.3668701713414
 30
0.0
 11
19.9314635412171
 21
38.8459257413897
 31
0.0
  0
LINE
  5
    F7
  8
0
  6
CONTINUOUS
 62
     7
 10
12.8226169689218
 20
38.8459257413897
 30
0.0
 11
15.7770402461288
 21
39.3668701713414
 31
0.0
  0
LINE
  5
    F8
  8
0
  6
CONTINUOUS
 62
     7
 10
15.7770402461288
 20
39.3668701713414
 30
0.0
 11
12.8226169689218
 21
39.887814601293
 31
0.0
  0
ENDBLK
  5
    F9
  8
0
  6
CONTINUOUS
 62
     7
  0
BLOCK
  5
    FA
  8
0
  6
CONTINUOUS
 62
     7
  2
*UDIM1457
 70
    65
 10
0.0
 20
0.0
 30
0.0
  3
*UDIM1457
  0
TEXT
  5
    FB
  8
0
  6
CONTINUOUS
 62
     7
 10
28.379774821561
 20
-8.74751650151641
 30
0.0
 40
2.99999994933605
  1
58
 50
89.9999999480344
 41
0.933333333333333
 72
     1
 11
26.8797748491573
 21
-6.2475165423778
 31
0.0
 73
     2
  0
LINE
  5
    FC
  8
0
  6
CONTINUOUS
 62
     7
 10
24.777040365338
 20
5.62748368225721
 30
0.0
 11
31.3797748238253
 21
5.62748368225721
 31
0.0
  0
LINE
  5
    FD
  8
0
  6
CONTINUOUS
 62
     7
 10
29.3797748238253
 20
-17.5725151375708
 30
0.0
 11
29.3797748238253
 21
5.62748368225721
 31
0.0
  0
LINE
  5
    FE
  8
0
  6
CONTINUOUS
 62
     7
 10
28.8588303938736
 20
-14.6180918603638
 30
0.0
 11
29.3797748238253
 21
-17.5725151375708
 31
0.0
  0
LINE
  5
    FF
  8
0
  6
CONTINUOUS
 62
     7
 10
29.3797748238253
 20
-17.5725151375708
 30
0.0
 11
29.900719253777
 21
-14.6180918603638
 31
0.0
  0
LINE
  5
   100
  8
0
  6
CONTINUOUS
 62
     7
 10
29.900719253777
 20
2.67306040505025
 30
0.0
 11
29.3797748238253
 21
5.62748368225721
 31
0.0
  0
LINE
  5
   101
  8
0
  6
CONTINUOUS
 62
     7
 10
29.3797748238253
 20
5.62748368225721
 30
0.0
 11
28.8588303938736
 21
2.67306040505025
 31
0.0
  0
ENDBLK
  5
   102
  8
0
  6
CONTINUOUS
 62
     7
  0
BLOCK
  5
   103
  8
0
  6
CONTINUOUS
 62
     7
  2
*UDIM1458
 70
    65
 10
0.0
 20
0.0
 30
0.0
  3
*UDIM1458
  0
TEXT
  5
   104
  8
0
  6
CONTINUOUS
 62
     7
 10
43.4358419379091
 20
-5.2475163841946
 30
0.0
 40
2.99999994933605
  1
89,5
 50
89.9999999480344
 41
0.933333333333333
 72
     1
 11
41.9358419680414
 21
5.24835276576567E-2
 31
0.0
 73
     2
  0
LINE
  5
   105
  8
0
  6
CONTINUOUS
 62
     7
 10
29.8380492680693
 20
-17.5725151375708
 30
0.0
 11
46.4358419427094
 21
-17.5725151375708
 31
0.0
  0
LINE
  5
   106
  8
0
  6
CONTINUOUS
 62
     7
 10
44.4358419427094
 20
-17.5725151375708
 30
0.0
 11
44.4358419427094
 21
18.2274853958908
 31
0.0
  0
LINE
  5
   107
  8
0
  6
CONTINUOUS
 62
     7
 10
43.9148975127578
 20
-14.6180918603638
 30
0.0
 11
44.4358419427094
 21
-17.5725151375708
 31
0.0
  0
LINE
  5
   108
  8
0
  6
CONTINUOUS
 62
     7
 10
44.4358419427094
 20
-17.5725151375708
 30
0.0
 11
44.9567863726611
 21
-14.6180918603638
 31
0.0
  0
LINE
  5
   109
  8
0
  6
CONTINUOUS
 62
     7
 10
44.9567863726611
 20
15.2730621186838
 30
0.0
 11
44.4358419427094
 21
18.2274853958908
 31
0.0
  0
LINE
  5
   10A
  8
0
  6
CONTINUOUS
 62
     7
 10
44.4358419427094
 20
18.2274853958908
 30
0.0
 11
43.9148975127578
 21
15.2730621186838
 31
0.0
  0
ENDBLK
  5
   10B
  8
0
  6
CONTINUOUS
 62
     7
  0
BLOCK
  5
   10C
  8
0
  6
CONTINUOUS
 62
     7
  2
*UDIM1459
 70
    65
 10
0.0
 20
0.0
 30
0.0
  3
*UDIM1459
  0
TEXT
  5
   10D
  8
0
  6
CONTINUOUS
 62
     7
 10
50.4771872589451
 20
-27.5475167371534
 30
0.0
 40
2.99999994933605
  1
208
 50
89.9999999480344
 41
0.933333333333333
 72
     1
 11
48.9771872878094
 21
-23.647516801658
 31
0.0
 73
     2
  0
LINE
  5
   10E
  8
0
  6
CONTINUOUS
 62
     7
 10
47.7770407080648
 20
-64.9725158438858
 30
0.0
 11
53.4771872624774
 21
-64.9725158438858
 31
0.0
  0
LINE
  5
   10F
  8
0
  6
CONTINUOUS
 62
     7
 10
47.7770407080648
 20
18.2274853958908
 30
0.0
 11
53.4771872624774
 21
18.2274853958908
 31
0.0
  0
LINE
  5
   110
  8
0
  6
CONTINUOUS
 62
     7
 10
51.4771872624774
 20
-64.9725158438858
 30
0.0
 11
51.4771872624774
 21
18.2274853958908
 31
0.0
  0
LINE
  5
   111
  8
0
  6
CONTINUOUS
 62
     7
 10
50.9562428325258
 20
-62.0180925666789
 30
0.0
 11
51.4771872624774
 21
-64.9725158438858
 31
0.0
  0
LINE
  5
   112
  8
0
  6
CONTINUOUS
 62
     7
 10
51.4771872624774
 20
-64.9725158438858
 30
0.0
 11
51.9981316924291
 21
-62.0180925666789
 31
0.0
  0
LINE
  5
   113
  8
0
  6
CONTINUOUS
 62
     7
 10
51.9981316924291
 20
15.2730621186838
 30
0.0
 11
51.4771872624774
 21
18.2274853958908
 31
0.0
  0
LINE
  5
   114
  8
0
  6
CONTINUOUS
 62
     7
 10
51.4771872624774
 20
18.2274853958908
 30
0.0
 11
50.9562428325258
 21
15.2730621186838
 31
0.0
  0
ENDBLK
  5
   115
  8
0
  6
CONTINUOUS
 62
     7
  0
BLOCK
  5
   116
  8
0
  6
CONTINUOUS
 62
     7
  2
*UDIM1460
 70
    65
 10
0.0
 20
0.0
 30
0.0
  3
*UDIM1460
  0
TEXT
  5
   117
  8
0
  6
CONTINUOUS
 62
     7
 10
-30.2979542206596
 20
-98.8568410036559
 30
0.0
 40
2.99999994933605
  1
195,5
 50
359.999999948034
 41
0.933333333333333
 72
     1
 11
-23.5979543324562
 21
-97.3568410350309
 31
0.0
 73
     2
  0
LINE
  5
   118
  8
0
  6
CONTINUOUS
 62
     7
 10
15.7770402461288
 20
-95.4144378220221
 30
0.0
 11
15.7770402461288
 21
-101.856841009699
 31
0.0
  0
LINE
  5
   119
  8
0
  6
CONTINUOUS
 62
     7
 10
-62.4229471862317
 20
-57.7725157216963
 30
0.0
 11
-62.4229471862317
 21
-101.856841009699
 31
0.0
  0
LINE
  5
   11A
  8
0
  6
CONTINUOUS
 62
     7
 10
15.7770402461288
 20
-99.8568410096989
 30
0.0
 11
-62.4229471862317
 21
-99.8568410096989
 31
0.0
  0
LINE
  5
   11B
  8
0
  6
CONTINUOUS
 62
     7
 10
12.8226169689218
 20
-100.377785439651
 30
0.0
 11
15.7770402461288
 21
-99.8568410096989
 31
0.0
  0
LINE
  5
   11C
  8
0
  6
CONTINUOUS
 62
     7
 10
15.7770402461288
 20
-99.8568410096989
 30
0.0
 11
12.8226169689218
 21
-99.3358965797472
 31
0.0
  0
LINE
  5
   11D
  8
0
  6
CONTINUOUS
 62
     7
 10
-59.4685239090247
 20
-99.3358965797472
 30
0.0
 11
-62.4229471862317
 21
-99.8568410096989
 31
0.0
  0
LINE
  5
   11E
  8
0
  6
CONTINUOUS
 62
     7
 10
-62.4229471862317
 20
-99.8568410096989
 30
0.0
 11
-59.4685239090247
 21
-100.377785439651
 31
0.0
  0
ENDBLK
  5
   11F
  8
0
  6
CONTINUOUS
 62
     7
  0
BLOCK
  5
   120
  8
0
  6
CONTINUOUS
 62
     7
  2
*UDIM1461
 70
    65
 10
0.0
 20
0.0
 30
0.0
  3
*UDIM1461
  0
TEXT
  5
   121
  8
0
  6
CONTINUOUS
 62
     7
 10
-78.7390652781466
 20
-9.63048197107538
 30
0.0
 40
2.99999994933605
  1
14,5
 50
89.9999999480344
 41
0.933333333333333
 72
     1
 11
-80.2390652480144
 21
-4.33048205922312
 31
0.0
 73
     2
  0
LINE
  5
   122
  8
0
  6
CONTINUOUS
 62
     7
 10
-56.4229668328113
 20
-23.3725345449536
 30
0.0
 11
-79.7390652733463
 21
-23.3725345449536
 31
0.0
  0
LINE
  5
   123
  8
0
  6
CONTINUOUS
 62
     7
 10
-71.4169465408055
 20
-17.5725151375708
 30
0.0
 11
-79.7390652733463
 21
-17.5725151375708
 31
0.0
  0
LINE
  5
   124
  8
0
  6
CONTINUOUS
 62
     7
 10
-77.7390652733463
 20
-23.3725345449536
 30
0.0
 11
-77.7390652733463
 21
0.969517851270567
 31
0.0
  0
LINE
  5
   125
  8
0
  6
CONTINUOUS
 62
     7
 10
-77.2181208433947
 20
-26.3269578221606
 30
0.0
 11
-77.7390652733463
 21
-23.3725345449536
 31
0.0
  0
LINE
  5
   126
  8
0
  6
CONTINUOUS
 62
     7
 10
-77.7390652733463
 20
-23.3725345449536
 30
0.0
 11
-78.260009703298
 21
-26.3269578221606
 31
0.0
  0
LINE
  5
   127
  8
0
  6
CONTINUOUS
 62
     7
 10
-78.260009703298
 20
-14.6180918603638
 30
0.0
 11
-77.7390652733463
 21
-17.5725151375708
 31
0.0
  0
LINE
  5
   128
  8
0
  6
CONTINUOUS
 62
     7
 10
-77.7390652733463
 20
-17.5725151375708
 30
0.0
 11
-77.2181208433947
 21
-14.6180918603638
 31
0.0
  0
ENDBLK
  5
   129
  8
0
  6
CONTINUOUS
 62
     7
  0
BLOCK
  5
   12A
  8
0
  6
CONTINUOUS
 62
     7
  2
*UDIM1462
 70
    65
 10
0.0
 20
0.0
 30
0.0
  3
*UDIM1462
  0
TEXT
  5
   12B
  8
0
  6
CONTINUOUS
 62
     7
 10
-87.2705046129913
 20
-21.7475166507267
 30
0.0
 40
2.99999994933605
  1
140
 50
89.9999999480344
 41
0.933333333333333
 72
     1
 11
-88.7705045841271
 21
-17.8475167152313
 31
0.0
 73
     2
  0
LINE
  5
   12C
  8
0
  6
CONTINUOUS
 62
     7
 10
-61.2229486793281
 20
-45.5725155548033
 30
0.0
 11
-88.2705046094591
 21
-45.5725155548033
 31
0.0
  0
LINE
  5
   12D
  8
0
  6
CONTINUOUS
 62
     7
 10
-61.2229471534491
 20
10.4274837537828
 30
0.0
 11
-88.2705046094591
 21
10.4274837537828
 31
0.0
  0
LINE
  5
   12E
  8
0
  6
CONTINUOUS
 62
     7
 10
-86.2705046094591
 20
-45.5725155548033
 30
0.0
 11
-86.2705046094591
 21
10.4274837537828
 31
0.0
  0
LINE
  5
   12F
  8
0
  6
CONTINUOUS
 62
     7
 10
-86.7914490394107
 20
-42.6180922775964
 30
0.0
 11
-86.2705046094591
 21
-45.5725155548033
 31
0.0
  0
LINE
  5
   130
  8
0
  6
CONTINUOUS
 62
     7
 10
-86.2705046094591
 20
-45.5725155548033
 30
0.0
 11
-85.7495601795074
 21
-42.6180922775964
 31
0.0
  0
LINE
  5
   131
  8
0
  6
CONTINUOUS
 62
     7
 10
-85.7495601795074
 20
7.47306047657582
 30
0.0
 11
-86.2705046094591
 21
10.4274837537828
 31
0.0
  0
LINE
  5
   132
  8
0
  6
CONTINUOUS
 62
     7
 10
-86.2705046094591
 20
10.4274837537828
 30
0.0
 11
-86.7914490394107
 21
7.47306047657582
 31
0.0
  0
ENDBLK
  5
   133
  8
0
  6
CONTINUOUS
 62
     7
  0
BLOCK
  5
   134
  8
0
  6
CONTINUOUS
 62
     0
  2
$1MOSTRA
 70
    64
 10
0.0
 20
0.0
 30
0.0
  3
$1MOSTRA
  0
LINE
  5
   135
  8
0
  6
CONTINUOUS
 62
     0
 10
131.0
 20
-24.0000152587891
 30
0.0
 11
131.0
 21
169.499984741211
 31
0.0
  0
LINE
  5
   136
  8
0
  6
CONTINUOUS
 62
     0
 10
-94.7500023146612
 20
-25.250020980835
 30
0.0
 11
129.75
 21
-25.250020980835
 31
0.0
  0
LINE
  5
   137
  8
0
  6
CONTINUOUS
 62
     0
 10
-96.0
 20
-24.000020980835
 30
0.0
 11
-96.0
 21
169.499979019165
 31
0.0
  0
LINE
  5
   138
  8
0
  6
CONTINUOUS
 62
     0
 10
-87.0
 20
170.749984741211
 30
0.0
 11
129.75
 21
170.749984741211
 31
0.0
  0
LINE
  5
   139
  8
0
  6
CONTINUOUS
 62
     0
 10
-94.7500138961029
 20
170.749984741211
 30
0.0
 11
-87.0
 21
170.749984741211
 31
0.0
  0
LINE
  5
   13A
  8
0
  6
CONTINUOUS
 62
     0
 10
78.0
 20
-5.25002145767212
 30
0.0
 11
78.0
 21
-4.2500216960907
 31
0.0
  0
LINE
  5
   13B
  8
0
  6
CONTINUOUS
 62
     0
 10
-87.0
 20
-5.25002145767211
 30
0.0
 11
-87.0
 21
-4.25002169609069
 31
0.0
  0
LINE
  5
   13C
  8
0
  6
CONTINUOUS
 62
     0
 10
-86.0
 20
-5.25002145767211
 30
0.0
 11
77.0
 21
-5.25002145767212
 31
0.0
  0
LINE
  5
   13D
  8
0
  6
CONTINUOUS
 62
     0
 10
78.0
 20
149.749984741211
 30
0.0
 11
78.0
 21
150.749984741211
 31
0.0
  0
LINE
  5
   13E
  8
0
  6
CONTINUOUS
 62
     0
 10
-87.0
 20
149.749984741211
 30
0.0
 11
-87.0
 21
150.749984741211
 31
0.0
  0
LINE
  5
   13F
  8
0
  6
CONTINUOUS
 62
     0
 10
-86.0
 20
-25.250020980835
 30
0.0
 11
-86.0
 21
-5.25002098083496
 31
0.0
  0
LINE
  5
   140
  8
0
  6
CONTINUOUS
 62
     0
 10
-87.0
 20
-25.250020980835
 30
0.0
 11
-87.0
 21
-5.25002098083496
 31
0.0
  0
LINE
  5
   141
  8
0
  6
CONTINUOUS
 62
     0
 10
-87.0
 20
-4.25002169609069
 30
0.0
 11
-87.0
 21
149.749978303909
 31
0.0
  0
LINE
  5
   142
  8
0
  6
CONTINUOUS
 62
     0
 10
-87.0
 20
150.749984741211
 30
0.0
 11
-87.0
 21
170.749984741211
 31
0.0
  0
LINE
  5
   143
  8
0
  6
CONTINUOUS
 62
     0
 10
78.0
 20
-25.250020980835
 30
0.0
 11
78.0
 21
-5.25002098083497
 31
0.0
  0
LINE
  5
   144
  8
0
  6
CONTINUOUS
 62
     0
 10
78.0
 20
-4.2500216960907
 30
0.0
 11
78.0
 21
22.6249783039093
 31
0.0
  0
LINE
  5
   145
  8
0
  6
CONTINUOUS
 62
     0
 10
78.0
 20
23.624979019165
 30
0.0
 11
78.0
 21
64.624979019165
 31
0.0
  0
LINE
  5
   146
  8
0
  6
CONTINUOUS
 62
     0
 10
78.0
 20
65.6249771118164
 30
0.0
 11
78.0
 21
149.749984741211
 31
0.0
  0
LINE
  5
   147
  8
0
  6
CONTINUOUS
 62
     0
 10
78.0
 20
150.749984741211
 30
0.0
 11
78.0
 21
170.749984741211
 31
0.0
  0
LINE
  5
   148
  8
0
  6
CONTINUOUS
 62
     0
 10
77.0
 20
-25.250020980835
 30
0.0
 11
77.0
 21
-5.25002098083497
 31
0.0
  0
LINE
  5
   149
  8
0
  6
CONTINUOUS
 62
     0
 10
112.0
 20
23.624979019165
 30
0.0
 11
112.0
 21
64.624979019165
 31
0.0
  0
LINE
  5
   14A
  8
0
  6
CONTINUOUS
 62
     0
 10
-86.0
 20
150.749984741211
 30
0.0
 11
77.0
 21
150.749984741211
 31
0.0
  0
LINE
  5
   14B
  8
0
  6
DOT
 62
     0
 10
78.0
 20
22.6249809265137
 30
0.0
 11
78.0
 21
23.6249809265137
 31
0.0
  0
LINE
  5
   14C
  8
0
  6
DOT
 62
     0
 10
78.0
 20
64.6249847412109
 30
0.0
 11
78.0
 21
65.6249847412109
 31
0.0
  0
LINE
  5
   14D
  8
0
  6
CONTINUOUS
 62
     0
 10
-95.2283575359481
 20
170.654833276614
 30
0.0
 11
-94.7500021275396
 21
170.749987082197
 31
0.0
  0
LINE
  5
   14E
  8
0
  6
CONTINUOUS
 62
     0
 10
-95.6338828572815
 20
170.383870758251
 30
0.0
 11
-95.2283576589463
 21
170.654836342308
 31
0.0
  0
LINE
  5
   14F
  8
0
  6
CONTINUOUS
 62
     0
 10
-95.9048442813714
 20
169.978321294716
 30
0.0
 11
-95.6338787006842
 21
170.38385412157
 31
0.0
  0
LINE
  5
   150
  8
0
  6
CONTINUOUS
 62
     0
 10
-96.0000009070014
 20
169.49998927381
 30
0.0
 11
-95.9048471000262
 21
169.978337054874
 31
0.0
  0
LINE
  5
   151
  8
0
  6
CONTINUOUS
 62
     0
 10
129.750003154688
 20
170.749986935154
 30
0.0
 11
130.228350935752
 21
170.654833128179
 31
0.0
  0
LINE
  5
   152
  8
0
  6
CONTINUOUS
 62
     0
 10
130.228341409222
 20
170.654823450862
 30
0.0
 11
130.633874236076
 21
170.383857870175
 31
0.0
  0
LINE
  5
   153
  8
0
  6
CONTINUOUS
 62
     0
 10
130.633876465973
 20
170.383854910394
 30
0.0
 11
130.90484204666
 21
169.97832208354
 31
0.0
  0
LINE
  5
   154
  8
0
  6
CONTINUOUS
 62
     0
 10
130.90484765696
 20
169.978336952213
 30
0.0
 11
131.000001463935
 21
169.499989171149
 31
0.0
  0
LINE
  5
   155
  8
0
  6
CONTINUOUS
 62
     0
 10
129.750001912704
 20
-25.2500209810903
 30
0.0
 11
130.228349689786
 21
-25.1548709896053
 31
0.0
  0
LINE
  5
   156
  8
0
  6
CONTINUOUS
 62
     0
 10
130.228338306514
 20
-25.1548722950462
 30
0.0
 11
130.633871133368
 21
-24.8839067143591
 31
0.0
  0
LINE
  5
   157
  8
0
  6
CONTINUOUS
 62
     0
 10
130.633879356188
 20
-24.8839055654524
 30
0.0
 11
130.904844938572
 21
-24.4783765528653
 31
0.0
  0
LINE
  5
   158
  8
0
  6
CONTINUOUS
 62
     0
 10
130.904848088874
 20
-24.4783766972257
 30
0.0
 11
131.000001894457
 21
-24.0000212888173
 31
0.0
  0
LINE
  5
   159
  8
0
  6
CONTINUOUS
 62
     0
 10
-95.2283572980338
 20
-25.1548710672825
 30
0.0
 11
-94.750001893597
 21
-25.2500210645891
 31
0.0
  0
LINE
  5
   15A
  8
0
  6
CONTINUOUS
 62
     0
 10
-95.6338848795916
 20
-24.8839050834456
 30
0.0
 11
-95.2283596812563
 21
-25.1548706675021
 31
0.0
  0
LINE
  5
   15B
  8
0
  6
CONTINUOUS
 62
     0
 10
-95.9048453281177
 20
-24.4783764153605
 30
0.0
 11
-95.6338797457343
 21
-24.8839054279476
 31
0.0
  0
LINE
  5
   15C
  8
0
  6
CONTINUOUS
 62
     0
 10
-96.0000013278323
 20
-24.0000213932639
 30
0.0
 11
-95.9048475222492
 21
-24.4783768016722
 31
0.0
  0
LINE
  5
   15D
  8
0
  6
CONTINUOUS
 62
     0
 10
71.0
 20
161.499984741211
 30
0.0
 11
71.5
 21
161.499984741211
 31
0.0
  0
LINE
  5
   15E
  8
0
  6
CONTINUOUS
 62
     0
 10
70.6249985834239
 20
161.39948892087
 30
0.0
 11
70.9999985887286
 21
161.499983299907
 31
0.0
  0
LINE
  5
   15F
  8
0
  6
CONTINUOUS
 62
     0
 10
70.3504841000321
 20
161.124991898345
 30
0.0
 11
70.6250049664647
 21
161.399497515692
 31
0.0
  0
LINE
  5
   160
  8
0
  6
CONTINUOUS
 62
     0
 10
70.2500005005121
 20
160.74998610992
 30
0.0
 11
70.3504796223163
 21
161.124986104743
 31
0.0
  0
LINE
  5
   161
  8
0
  6
CONTINUOUS
 62
     0
 10
70.2500001717027
 20
160.749985945318
 30
0.0
 11
70.3504792935069
 21
160.374985950495
 31
0.0
  0
LINE
  5
   162
  8
0
  6
CONTINUOUS
 62
     0
 10
70.3504785443499
 20
160.374981262897
 30
0.0
 11
70.6249994243228
 21
160.100460382924
 31
0.0
  0
LINE
  5
   163
  8
0
  6
CONTINUOUS
 62
     0
 10
70.6250004494111
 20
160.100464493128
 30
0.0
 11
71.000000444234
 21
159.999985371324
 31
0.0
  0
LINE
  5
   164
  8
0
  6
CONTINUOUS
 62
     0
 10
71.0
 20
159.999984741211
 30
0.0
 11
71.5
 21
159.999984741211
 31
0.0
  0
LINE
  5
   165
  8
0
  6
CONTINUOUS
 62
     0
 10
-71.0000005237262
 20
159.999985364975
 30
0.0
 11
-70.6250005289034
 21
160.100464486779
 31
0.0
  0
LINE
  5
   166
  8
0
  6
CONTINUOUS
 62
     0
 10
-70.6249991572831
 20
160.100460461707
 30
0.0
 11
-70.3504782773103
 21
160.37498134168
 31
0.0
  0
LINE
  5
   167
  8
0
  6
CONTINUOUS
 62
     0
 10
-70.3504793419514
 20
160.374985939145
 30
0.0
 11
-70.2500002201472
 21
160.749985933968
 31
0.0
  0
LINE
  5
   168
  8
0
  6
CONTINUOUS
 62
     0
 10
-70.3504796707608
 20
161.124986116093
 30
0.0
 11
-70.2500005489566
 21
160.74998612127
 31
0.0
  0
LINE
  5
   169
  8
0
  6
CONTINUOUS
 62
     0
 10
-70.625005364328
 20
161.399497643651
 30
0.0
 11
-70.3504844978953
 21
161.124992026304
 31
0.0
  0
LINE
  5
   16A
  8
0
  6
CONTINUOUS
 62
     0
 10
-70.9999984404592
 20
161.499983275092
 30
0.0
 11
-70.6249984351544
 21
161.399488896056
 31
0.0
  0
LINE
  5
   16B
  8
0
  6
CONTINUOUS
 62
     0
 10
-71.5
 20
161.499984741211
 30
0.0
 11
-71.0
 21
161.499984741211
 31
0.0
  0
LINE
  5
   16C
  8
0
  6
CONTINUOUS
 62
     0
 10
-71.5
 20
159.999984741211
 30
0.0
 11
-71.0
 21
159.999984741211
 31
0.0
  0
LINE
  5
   16D
  8
0
  6
DOT
 62
     0
 10
129.207102522664
 20
93.2070806462287
 30
0.0
 11
129.423868885951
 21
92.8826559114065
 31
0.0
  0
LINE
  5
   16E
  8
0
  6
CONTINUOUS
 62
     0
 10
78.0
 20
64.6249771118164
 30
0.0
 11
112.0
 21
64.6249771118164
 31
0.0
  0
LINE
  5
   16F
  8
0
  6
CONTINUOUS
 62
     0
 10
78.0
 20
23.624979019165
 30
0.0
 11
112.0
 21
23.624979019165
 31
0.0
  0
LINE
  5
   170
  8
0
  6
CONTINUOUS
 62
     0
 10
78.0
 20
22.624979019165
 30
0.0
 11
131.0
 21
22.624979019165
 31
0.0
  0
LINE
  5
   171
  8
0
  6
CONTINUOUS
 62
     0
 10
113.0
 20
22.6249771118164
 30
0.0
 11
113.0
 21
65.6249771118164
 31
0.0
  0
LINE
  5
   172
  8
0
  6
CONTINUOUS
 62
     0
 10
121.443762073863
 20
22.6249762341869
 30
0.0
 11
121.469671496571
 21
22.655306892856
 31
0.0
  0
LINE
  5
   173
  8
0
  6
CONTINUOUS
 62
     0
 10
122.530331822982
 20
22.6553070669901
 30
0.0
 11
122.556233618116
 21
22.6249802236221
 31
0.0
  0
LINE
  5
   174
  8
0
  6
CONTINUOUS
 62
     0
 10
77.0
 20
-4.2500216960907
 30
0.0
 11
77.0
 21
149.749978303909
 31
0.0
  0
LINE
  5
   175
  8
0
  6
CONTINUOUS
 62
     0
 10
-86.0
 20
149.749984741211
 30
0.0
 11
77.0
 21
149.749984741211
 31
0.0
  0
LINE
  5
   176
  8
0
  6
CONTINUOUS
 62
     0
 10
-86.0
 20
-4.25002169609069
 30
0.0
 11
77.0
 21
-4.2500216960907
 31
0.0
  0
LINE
  5
   177
  8
0
  6
CONTINUOUS
 62
     0
 10
-86.0
 20
-4.25002169609069
 30
0.0
 11
-86.0
 21
149.749978303909
 31
0.0
  0
LINE
  5
   178
  8
0
  6
CONTINUOUS
 62
     0
 10
70.0000086006236
 20
142.749981641769
 30
0.0
 11
77.0000047406314
 21
149.749991353068
 31
0.0
  0
LINE
  5
   179
  8
0
  6
CONTINUOUS
 62
     0
 10
70.0000002534282
 20
2.74998164176941
 30
0.0
 11
77.0000028943928
 21
-4.25002276936366
 31
0.0
  0
LINE
  5
   17A
  8
0
  6
CONTINUOUS
 62
     0
 10
-86.0000010794079
 20
149.749986269664
 30
0.0
 11
-70.0
 21
142.220568727026
 31
0.0
  0
LINE
  5
   17B
  8
0
  6
CONTINUOUS
 62
     0
 10
-86.0000042824209
 20
-4.25002269924179
 30
0.0
 11
-70.0
 21
3.27939166971828
 31
0.0
  0
LINE
  5
   17C
  8
0
  6
CONTINUOUS
 62
     0
 10
71.5
 20
150.749984741211
 30
0.0
 11
71.5
 21
170.749984741211
 31
0.0
  0
LINE
  5
   17D
  8
0
  6
CONTINUOUS
 62
     0
 10
77.0
 20
150.749984741211
 30
0.0
 11
77.0
 21
170.749984741211
 31
0.0
  0
LINE
  5
   17E
  8
0
  6
CONTINUOUS
 62
     0
 10
-71.5
 20
150.749984741211
 30
0.0
 11
-71.5
 21
170.749984741211
 31
0.0
  0
LINE
  5
   17F
  8
0
  6
CONTINUOUS
 62
     0
 10
-86.0
 20
150.749984741211
 30
0.0
 11
-86.0
 21
170.749984741211
 31
0.0
  0
LINE
  5
   180
  8
0
  6
CONTINUOUS
 62
     0
 10
78.0
 20
65.6249771118164
 30
0.0
 11
131.0
 21
65.6249771118164
 31
0.0
  0
POINT
  5
   181
  8
0
  6
CONTINUOUS
 62
     0
 10
4.30031180087553E-6
 20
72.749980198372
 30
0.0
  0
ENDBLK
  5
   182
  8
0
  6
CONTINUOUS
 62
     0
  0
BLOCK
  5
   183
  8
0
  6
CONTINUOUS
 62
     7
  2
*UDIM1463
 70
    65
 10
0.0
 20
0.0
 30
0.0
  3
*UDIM1463
  0
TEXT
  5
   184
  8
0
  6
CONTINUOUS
 62
     7
 10
83.0434016955029
 20
-21.7475166680537
 30
0.0
 40
2.99999994933605
  1
196
 50
90.0
 41
0.933333333333333
 72
     1
 11
81.54340172083
 21
-17.8475167339187
 31
0.0
 73
     2
  0
LINE
  5
   185
  8
0
  6
CONTINUOUS
 62
     7
 10
97.1981157521221
 20
-56.772517719258
 30
0.0
 11
82.043401695498
 21
-56.772517719258
 31
0.0
  0
LINE
  5
   186
  8
0
  6
CONTINUOUS
 62
     7
 10
100.29811672418
 20
21.6274857378114
 30
0.0
 11
82.043401695498
 21
21.6274857378114
 31
0.0
  0
LINE
  5
   187
  8
0
  6
CONTINUOUS
 62
     7
 10
84.043401695498
 20
-56.772517719258
 30
0.0
 11
84.043401695498
 21
21.6274857378114
 31
0.0
  0
LINE
  5
   188
  8
0
  6
CONTINUOUS
 62
     7
 10
83.5224572655463
 20
-53.8180944420511
 30
0.0
 11
84.043401695498
 21
-56.772517719258
 31
0.0
  0
LINE
  5
   189
  8
0
  6
CONTINUOUS
 62
     7
 10
84.043401695498
 20
-56.772517719258
 30
0.0
 11
84.5643461254497
 21
-53.8180944420511
 31
0.0
  0
LINE
  5
   18A
  8
0
  6
CONTINUOUS
 62
     7
 10
84.5643461254497
 20
18.6730624606045
 30
0.0
 11
84.043401695498
 21
21.6274857378114
 31
0.0
  0
LINE
  5
   18B
  8
0
  6
CONTINUOUS
 62
     7
 10
84.043401695498
 20
21.6274857378114
 30
0.0
 11
83.5224572655463
 21
18.6730624606045
 31
0.0
  0
ENDBLK
  5
   18C
  8
0
  6
CONTINUOUS
 62
     7
  0
BLOCK
  5
   18D
  8
0
  6
CONTINUOUS
 62
     7
  2
*UDIM1464
 70
    65
 10
0.0
 20
0.0
 30
0.0
  3
*UDIM1464
  0
TEXT
  5
   18E
  8
0
  6
CONTINUOUS
 62
     7
 10
114.123118689288
 20
51.4668215086185
 30
0.0
 40
2.99999994933605
  1
96
 41
0.933333333333333
 72
     1
 11
116.623118647068
 21
52.9668214832866
 31
0.0
 73
     2
  0
LINE
  5
   18F
  8
0
  6
CONTINUOUS
 62
     7
 10
97.698116670536
 20
22.1274834415425
 30
0.0
 11
97.698116670536
 21
52.4668215086185
 31
0.0
  0
LINE
  5
   190
  8
0
  6
CONTINUOUS
 62
     7
 10
136.098118962865
 20
33.1648850181012
 30
0.0
 11
136.098118962865
 21
52.4668215086185
 31
0.0
  0
LINE
  5
   191
  8
0
  6
CONTINUOUS
 62
     7
 10
97.698116670536
 20
50.4668215086185
 30
0.0
 11
136.098118962865
 21
50.4668215086185
 31
0.0
  0
LINE
  5
   192
  8
0
  6
CONTINUOUS
 62
     7
 10
100.652539947743
 20
50.9877659385702
 30
0.0
 11
97.698116670536
 21
50.4668215086185
 31
0.0
  0
LINE
  5
   193
  8
0
  6
CONTINUOUS
 62
     7
 10
97.698116670536
 20
50.4668215086185
 30
0.0
 11
100.652539947743
 21
49.9458770786669
 31
0.0
  0
LINE
  5
   194
  8
0
  6
CONTINUOUS
 62
     7
 10
133.143695685658
 20
49.9458770786669
 30
0.0
 11
136.098118962865
 21
50.4668215086185
 31
0.0
  0
LINE
  5
   195
  8
0
  6
CONTINUOUS
 62
     7
 10
136.098118962865
 20
50.4668215086185
 30
0.0
 11
133.143695685658
 21
50.9877659385702
 31
0.0
  0
ENDBLK
  5
   196
  8
0
  6
CONTINUOUS
 62
     7
  0
BLOCK
  5
   197
  8
0
  6
CONTINUOUS
 62
     7
  2
*UDIM1465
 70
    65
 10
0.0
 20
0.0
 30
0.0
  3
*UDIM1465
  0
TEXT
  5
   198
  8
0
  6
CONTINUOUS
 62
     7
 10
158.123117839723
 20
51.4668215086185
 30
0.0
 40
2.99999994933605
  1
131
 41
0.933333333333333
 72
     1
 11
162.02311777386
 21
52.9668214832866
 31
0.0
 73
     2
  0
LINE
  5
   199
  8
0
  6
CONTINUOUS
 62
     7
 10
188.498118023561
 20
22.1274857303608
 30
0.0
 11
188.498118023561
 21
52.4668215086185
 31
0.0
  0
LINE
  5
   19A
  8
0
  6
CONTINUOUS
 62
     7
 10
136.098118962865
 20
50.4668215086185
 30
0.0
 11
188.498118023561
 21
50.4668215086185
 31
0.0
  0
LINE
  5
   19B
  8
0
  6
CONTINUOUS
 62
     7
 10
139.052542240072
 20
50.9877659385702
 30
0.0
 11
136.098118962865
 21
50.4668215086185
 31
0.0
  0
LINE
  5
   19C
  8
0
  6
CONTINUOUS
 62
     7
 10
136.098118962865
 20
50.4668215086185
 30
0.0
 11
139.052542240072
 21
49.9458770786669
 31
0.0
  0
LINE
  5
   19D
  8
0
  6
CONTINUOUS
 62
     7
 10
185.543694746355
 20
49.9458770786669
 30
0.0
 11
188.498118023561
 21
50.4668215086185
 31
0.0
  0
LINE
  5
   19E
  8
0
  6
CONTINUOUS
 62
     7
 10
188.498118023561
 20
50.4668215086185
 30
0.0
 11
185.543694746355
 21
50.9877659385702
 31
0.0
  0
ENDBLK
  5
   19F
  8
0
  6
CONTINUOUS
 62
     7
  0
BLOCK
  5
   1A0
  8
0
  6
CONTINUOUS
 62
     7
  2
*UDIM1466
 70
    65
 10
0.0
 20
0.0
 30
0.0
  3
*UDIM1466
  0
TEXT
  5
   1A1
  8
0
  6
CONTINUOUS
 62
     7
 10
58.9854789737307
 20
-27.5475136840351
 30
0.0
 40
2.99999994933605
  1
295
 50
90.0
 41
0.933333333333333
 72
     1
 11
57.4854789990578
 21
-23.6475137499001
 31
0.0
 73
     2
  0
LINE
  5
   1A2
  8
0
  6
CONTINUOUS
 62
     7
 10
94.4981183578781
 20
-82.3725145772871
 30
0.0
 11
57.9854789737258
 21
-82.3725145772871
 31
0.0
  0
LINE
  5
   1A3
  8
0
  6
CONTINUOUS
 62
     7
 10
94.4981183578781
 20
35.627484129292
 30
0.0
 11
57.9854789737258
 21
35.627484129292
 31
0.0
  0
LINE
  5
   1A4
  8
0
  6
CONTINUOUS
 62
     7
 10
59.9854789737258
 20
-82.3725145772871
 30
0.0
 11
59.9854789737258
 21
35.627484129292
 31
0.0
  0
LINE
  5
   1A5
  8
0
  6
CONTINUOUS
 62
     7
 10
59.4645345437741
 20
-79.4180913000802
 30
0.0
 11
59.9854789737258
 21
-82.3725145772871
 31
0.0
  0
LINE
  5
   1A6
  8
0
  6
CONTINUOUS
 62
     7
 10
59.9854789737258
 20
-82.3725145772871
 30
0.0
 11
60.5064234036774
 21
-79.4180913000802
 31
0.0
  0
LINE
  5
   1A7
  8
0
  6
CONTINUOUS
 62
     7
 10
60.5064234036774
 20
32.6730608520851
 30
0.0
 11
59.9854789737258
 21
35.627484129292
 31
0.0
  0
LINE
  5
   1A8
  8
0
  6
CONTINUOUS
 62
     7
 10
59.9854789737258
 20
35.627484129292
 30
0.0
 11
59.4645345437741
 21
32.6730608520851
 31
0.0
  0
ENDBLK
  5
   1A9
  8
0
  6
CONTINUOUS
 62
     7
  0
BLOCK
  5
   1AA
  8
0
  6
CONTINUOUS
 62
     7
  2
*UDIM1467
 70
    65
 10
0.0
 20
0.0
 30
0.0
  3
*UDIM1467
  0
TEXT
  5
   1AB
  8
0
  6
CONTINUOUS
 62
     7
 10
64.8532616539409
 20
4.85248374700464
 30
0.0
 40
2.99999994933605
  1
133
 50
90.0
 41
0.933333333333333
 72
     1
 11
63.353261679268
 21
8.75248368113962
 31
0.0
 73
     2
  0
LINE
  5
   1AC
  8
0
  6
CONTINUOUS
 62
     7
 10
79.2867074467152
 20
-17.5725166634497
 30
0.0
 11
63.853261653936
 21
-17.5725166634497
 31
0.0
  0
LINE
  5
   1AD
  8
0
  6
CONTINUOUS
 62
     7
 10
94.4981183578781
 20
35.627484129292
 30
0.0
 11
63.853261653936
 21
35.627484129292
 31
0.0
  0
LINE
  5
   1AE
  8
0
  6
CONTINUOUS
 62
     7
 10
65.853261653936
 20
-17.5725166634497
 30
0.0
 11
65.853261653936
 21
35.627484129292
 31
0.0
  0
LINE
  5
   1AF
  8
0
  6
CONTINUOUS
 62
     7
 10
65.3323172239843
 20
-14.6180933862428
 30
0.0
 11
65.853261653936
 21
-17.5725166634497
 31
0.0
  0
LINE
  5
   1B0
  8
0
  6
CONTINUOUS
 62
     7
 10
65.853261653936
 20
-17.5725166634497
 30
0.0
 11
66.3742060838877
 21
-14.6180933862428
 31
0.0
  0
LINE
  5
   1B1
  8
0
  6
CONTINUOUS
 62
     7
 10
66.3742060838877
 20
32.6730608520851
 30
0.0
 11
65.853261653936
 21
35.627484129292
 31
0.0
  0
LINE
  5
   1B2
  8
0
  6
CONTINUOUS
 62
     7
 10
65.853261653936
 20
35.627484129292
 30
0.0
 11
65.3323172239843
 21
32.6730608520851
 31
0.0
  0
ENDBLK
  5
   1B3
  8
0
  6
CONTINUOUS
 62
     7
  0
BLOCK
  5
   1B4
  8
0
  6
CONTINUOUS
 62
     7
  2
*UDIM1468
 70
    65
 10
0.0
 20
0.0
 30
0.0
  3
*UDIM1468
  0
TEXT
  5
   1B5
  8
0
  6
CONTINUOUS
 62
     7
 10
70.7210504376668
 20
-27.547522840941
 30
0.0
 40
2.99999994933605
  1
273
 50
90.0
 41
0.933333333333333
 72
     1
 11
69.2210504629939
 21
-23.6475229068061
 31
0.0
 73
     2
  0
LINE
  5
   1B6
  8
0
  6
CONTINUOUS
 62
     7
 10
93.698127249239
 20
-77.9725299645085
 30
0.0
 11
69.7210504376619
 21
-77.9725299645085
 31
0.0
  0
LINE
  5
   1B7
  8
0
  6
CONTINUOUS
 62
     7
 10
93.7981183474477
 20
31.2274779602089
 30
0.0
 11
69.7210504376619
 21
31.2274779602089
 31
0.0
  0
LINE
  5
   1B8
  8
0
  6
CONTINUOUS
 62
     7
 10
71.7210504376619
 20
-77.9725299645085
 30
0.0
 11
71.7210504376619
 21
31.2274779602089
 31
0.0
  0
LINE
  5
   1B9
  8
0
  6
CONTINUOUS
 62
     7
 10
71.2001060077102
 20
-75.0181066873015
 30
0.0
 11
71.7210504376619
 21
-77.9725299645085
 31
0.0
  0
LINE
  5
   1BA
  8
0
  6
CONTINUOUS
 62
     7
 10
71.7210504376619
 20
-77.9725299645085
 30
0.0
 11
72.2419948676136
 21
-75.0181066873015
 31
0.0
  0
LINE
  5
   1BB
  8
0
  6
CONTINUOUS
 62
     7
 10
72.2419948676136
 20
28.2730546830019
 30
0.0
 11
71.7210504376619
 21
31.2274779602089
 31
0.0
  0
LINE
  5
   1BC
  8
0
  6
CONTINUOUS
 62
     7
 10
71.7210504376619
 20
31.2274779602089
 30
0.0
 11
71.2001060077102
 21
28.2730546830019
 31
0.0
  0
ENDBLK
  5
   1BD
  8
0
  6
CONTINUOUS
 62
     7
  0
BLOCK
  5
   1BE
  8
0
  6
CONTINUOUS
 62
     7
  2
*UDIM1469
 70
    65
 10
0.0
 20
0.0
 30
0.0
  3
*UDIM1469
  0
TEXT
  5
   1BF
  8
0
  6
CONTINUOUS
 62
     7
 10
76.5888361696349
 20
2.65247761070519
 30
0.0
 40
2.99999994933605
  1
122
 50
90.0
 41
0.933333333333333
 72
     1
 11
75.088836194962
 21
6.55247754484017
 31
0.0
 73
     2
  0
LINE
  5
   1C0
  8
0
  6
CONTINUOUS
 62
     7
 10
79.2867074467152
 20
-17.5725166634497
 30
0.0
 11
75.58883616963
 21
-17.5725166634497
 31
0.0
  0
LINE
  5
   1C1
  8
0
  6
CONTINUOUS
 62
     7
 10
93.7981183474477
 20
31.2274779602089
 30
0.0
 11
75.58883616963
 21
31.2274779602089
 31
0.0
  0
LINE
  5
   1C2
  8
0
  6
CONTINUOUS
 62
     7
 10
77.58883616963
 20
-17.5725166634497
 30
0.0
 11
77.58883616963
 21
31.2274779602089
 31
0.0
  0
LINE
  5
   1C3
  8
0
  6
CONTINUOUS
 62
     7
 10
77.0678917396783
 20
-14.6180933862428
 30
0.0
 11
77.58883616963
 21
-17.5725166634497
 31
0.0
  0
LINE
  5
   1C4
  8
0
  6
CONTINUOUS
 62
     7
 10
77.58883616963
 20
-17.5725166634497
 30
0.0
 11
78.1097805995817
 21
-14.6180933862428
 31
0.0
  0
LINE
  5
   1C5
  8
0
  6
CONTINUOUS
 62
     7
 10
78.1097805995817
 20
28.2730546830019
 30
0.0
 11
77.58883616963
 21
31.2274779602089
 31
0.0
  0
LINE
  5
   1C6
  8
0
  6
CONTINUOUS
 62
     7
 10
77.58883616963
 20
31.2274779602089
 30
0.0
 11
77.0678917396783
 21
28.2730546830019
 31
0.0
  0
ENDBLK
  5
   1C7
  8
0
  6
CONTINUOUS
 62
     7
  0
BLOCK
  5
   1C8
  8
0
  6
CONTINUOUS
 62
     7
  2
*UDIM1470
 70
    65
 10
0.0
 20
0.0
 30
0.0
  3
*UDIM1470
  0
TEXT
  5
   1C9
  8
0
  6
CONTINUOUS
 62
     7
 10
104.423141496679
 20
-99.6136922172659
 30
0.0
 40
2.99999994933605
  1
123,5
 41
0.933333333333333
 72
     1
 11
111.123141383529
 21
-98.1136922425979
 31
0.0
 73
     2
  0
LINE
  5
   1CA
  8
0
  6
CONTINUOUS
 62
     7
 10
86.6981640031235
 20
-28.3725992069433
 30
0.0
 11
86.6981640031235
 21
-102.613692217266
 31
0.0
  0
LINE
  5
   1CB
  8
0
  6
CONTINUOUS
 62
     7
 10
136.098118962865
 20
-79.8574179758645
 30
0.0
 11
136.098118962865
 21
-102.613692217266
 31
0.0
  0
LINE
  5
   1CC
  8
0
  6
CONTINUOUS
 62
     7
 10
86.6981640031235
 20
-100.613692217266
 30
0.0
 11
136.098118962865
 21
-100.613692217266
 31
0.0
  0
LINE
  5
   1CD
  8
0
  6
CONTINUOUS
 62
     7
 10
89.6525872803304
 20
-100.092747787314
 30
0.0
 11
86.6981640031235
 21
-100.613692217266
 31
0.0
  0
LINE
  5
   1CE
  8
0
  6
CONTINUOUS
 62
     7
 10
86.6981640031235
 20
-100.613692217266
 30
0.0
 11
89.6525872803304
 21
-101.134636647218
 31
0.0
  0
LINE
  5
   1CF
  8
0
  6
CONTINUOUS
 62
     7
 10
133.143695685658
 20
-101.134636647218
 30
0.0
 11
136.098118962865
 21
-100.613692217266
 31
0.0
  0
LINE
  5
   1D0
  8
0
  6
CONTINUOUS
 62
     7
 10
136.098118962865
 20
-100.613692217266
 30
0.0
 11
133.143695685658
 21
-100.092747787314
 31
0.0
  0
ENDBLK
  5
   1D1
  8
0
  6
CONTINUOUS
 62
     7
  0
BLOCK
  5
   1D2
  8
0
  6
CONTINUOUS
 62
     7
  2
*UDIM1471
 70
    65
 10
0.0
 20
0.0
 30
0.0
  3
*UDIM1471
  0
TEXT
  5
   1D3
  8
0
  6
CONTINUOUS
 62
     7
 10
131.923166279201
 20
42.9585328076164
 30
0.0
 40
2.99999994933605
  1
140
 41
0.933333333333333
 72
     1
 11
135.823166213338
 21
44.4585327822844
 31
0.0
 73
     2
  0
LINE
  5
   1D4
  8
0
  6
CONTINUOUS
 62
     7
 10
108.098165084948
 20
11.4274852796617
 30
0.0
 11
108.098165084948
 21
43.9585328076164
 31
0.0
  0
LINE
  5
   1D5
  8
0
  6
CONTINUOUS
 62
     7
 10
164.098166682352
 20
11.4274837537828
 30
0.0
 11
164.098166682352
 21
43.9585328076164
 31
0.0
  0
LINE
  5
   1D6
  8
0
  6
CONTINUOUS
 62
     7
 10
108.098165084948
 20
41.9585328076164
 30
0.0
 11
164.098166682352
 21
41.9585328076164
 31
0.0
  0
LINE
  5
   1D7
  8
0
  6
CONTINUOUS
 62
     7
 10
111.052588362155
 20
42.4794772375681
 30
0.0
 11
108.098165084948
 21
41.9585328076164
 31
0.0
  0
LINE
  5
   1D8
  8
0
  6
CONTINUOUS
 62
     7
 10
108.098165084948
 20
41.9585328076164
 30
0.0
 11
111.052588362155
 21
41.4375883776647
 31
0.0
  0
LINE
  5
   1D9
  8
0
  6
CONTINUOUS
 62
     7
 10
161.143743405145
 20
41.4375883776647
 30
0.0
 11
164.098166682352
 21
41.9585328076164
 31
0.0
  0
LINE
  5
   1DA
  8
0
  6
CONTINUOUS
 62
     7
 10
164.098166682352
 20
41.9585328076164
 30
0.0
 11
161.143743405145
 21
42.4794772375681
 31
0.0
  0
ENDBLK
  5
   1DB
  8
0
  6
CONTINUOUS
 62
     7
  0
BLOCK
  5
   1DC
  8
0
  6
CONTINUOUS
 62
     7
  2
*UDIM1472
 70
    65
 10
0.0
 20
0.0
 30
0.0
  3
*UDIM1472
  0
TEXT
  5
   1DD
  8
0
  6
CONTINUOUS
 62
     7
 10
131.923118976947
 20
59.0949466222864
 30
0.0
 40
2.99999994933605
  1
210
 41
0.933333333333333
 72
     1
 11
135.823118911084
 21
60.5949465969545
 31
0.0
 73
     2
  0
LINE
  5
   1DE
  8
0
  6
CONTINUOUS
 62
     7
 10
94.2981183399971
 20
31.7274779527583
 30
0.0
 11
94.2981183399971
 21
60.0949466222864
 31
0.0
  0
LINE
  5
   1DF
  8
0
  6
CONTINUOUS
 62
     7
 10
177.898119585733
 20
31.7274779527583
 30
0.0
 11
177.898119585733
 21
60.0949466222864
 31
0.0
  0
LINE
  5
   1E0
  8
0
  6
CONTINUOUS
 62
     7
 10
94.2981183399971
 20
58.0949466222864
 30
0.0
 11
177.898119585733
 21
58.0949466222864
 31
0.0
  0
LINE
  5
   1E1
  8
0
  6
CONTINUOUS
 62
     7
 10
97.2525416172041
 20
58.6158910522381
 30
0.0
 11
94.2981183399971
 21
58.0949466222864
 31
0.0
  0
LINE
  5
   1E2
  8
0
  6
CONTINUOUS
 62
     7
 10
94.2981183399971
 20
58.0949466222864
 30
0.0
 11
97.2525416172041
 21
57.5740021923348
 31
0.0
  0
LINE
  5
   1E3
  8
0
  6
CONTINUOUS
 62
     7
 10
174.943696308526
 20
57.5740021923348
 30
0.0
 11
177.898119585733
 21
58.0949466222864
 31
0.0
  0
LINE
  5
   1E4
  8
0
  6
CONTINUOUS
 62
     7
 10
177.898119585733
 20
58.0949466222864
 30
0.0
 11
174.943696308526
 21
58.6158910522381
 31
0.0
  0
ENDBLK
  5
   1E5
  8
0
  6
CONTINUOUS
 62
     7
  0
BLOCK
  5
   1E6
  8
0
  6
CONTINUOUS
 62
     7
  2
*UDIM1473
 70
    65
 10
0.0
 20
0.0
 30
0.0
  3
*UDIM1473
  0
TEXT
  5
   1E7
  8
0
  6
CONTINUOUS
 62
     7
 10
156.423148375055
 20
-99.6136922172659
 30
0.0
 40
2.99999994933605
  1
136,5
 41
0.933333333333333
 72
     1
 11
163.123148261905
 21
-98.1136922425979
 31
0.0
 73
     2
  0
LINE
  5
   1E8
  8
0
  6
CONTINUOUS
 62
     7
 10
136.098118962865
 20
-79.8574179758645
 30
0.0
 11
136.098118962865
 21
-102.613692217266
 31
0.0
  0
LINE
  5
   1E9
  8
0
  6
CONTINUOUS
 62
     7
 10
190.698173182239
 20
-28.3725351200283
 30
0.0
 11
190.698173182239
 21
-102.613692217266
 31
0.0
  0
LINE
  5
   1EA
  8
0
  6
CONTINUOUS
 62
     7
 10
136.098118962865
 20
-100.613692217266
 30
0.0
 11
190.698173182239
 21
-100.613692217266
 31
0.0
  0
LINE
  5
   1EB
  8
0
  6
CONTINUOUS
 62
     7
 10
139.052542240072
 20
-100.092747787314
 30
0.0
 11
136.098118962865
 21
-100.613692217266
 31
0.0
  0
LINE
  5
   1EC
  8
0
  6
CONTINUOUS
 62
     7
 10
136.098118962865
 20
-100.613692217266
 30
0.0
 11
139.052542240072
 21
-101.134636647218
 31
0.0
  0
LINE
  5
   1ED
  8
0
  6
CONTINUOUS
 62
     7
 10
187.743749905032
 20
-101.134636647218
 30
0.0
 11
190.698173182239
 21
-100.613692217266
 31
0.0
  0
LINE
  5
   1EE
  8
0
  6
CONTINUOUS
 62
     7
 10
190.698173182239
 20
-100.613692217266
 30
0.0
 11
187.743749905032
 21
-100.092747787314
 31
0.0
  0
ENDBLK
  5
   1EF
  8
0
  6
CONTINUOUS
 62
     7
  0
BLOCK
  5
   1F0
  8
0
  6
CONTINUOUS
 62
     7
  2
BASETT_1
 70
    64
 10
0.0
 20
0.0
 30
0.0
  3
BASETT_1
  0
LINE
  5
   1F1
  8
0
  6
CONTINUOUS
 62
     1
 10
210.0
 20
2.54761783868338
 30
0.0
 11
210.0
 21
7.54761783868338
 31
0.0
  0
LINE
  5
   1F2
  8
0
  6
CONTINUOUS
 62
     1
 10
210.000007629395
 20
0.0
 30
0.0
 11
210.000007629395
 21
2.54761783868338
 31
0.0
  0
LINE
  5
   1F3
  8
0
  6
CONTINUOUS
 62
     1
 10
0.0
 20
2.54761783868335
 30
0.0
 11
0.0
 21
7.54761783868335
 31
0.0
  0
LINE
  5
   1F4
  8
0
  6
CONTINUOUS
 62
     1
 10
184.0
 20
7.54761783868337
 30
0.0
 11
210.0
 21
7.54761783868337
 31
0.0
  0
LINE
  5
   1F5
  8
0
  6
CONTINUOUS
 62
     1
 10
0.0
 20
7.54761783868337
 30
0.0
 11
25.9999847412109
 21
7.54761783868337
 31
0.0
  0
LINE
  5
   1F6
  8
0
  6
CONTINUOUS
 62
     1
 10
7.62939453125E-6
 20
2.54761783868337
 30
0.0
 11
210.000007629395
 21
2.54761783868337
 31
0.0
  0
LINE
  5
   1F7
  8
0
  6
CONTINUOUS
 62
     1
 10
26.0
 20
8.54761783868337
 30
0.0
 11
44.0000038146973
 21
8.54761783868337
 31
0.0
  0
LINE
  5
   1F8
  8
0
  6
CONTINUOUS
 62
     1
 10
166.000003814697
 20
8.54761783868337
 30
0.0
 11
184.0
 21
8.54761783868337
 31
0.0
  0
LINE
  5
   1F9
  8
0
  6
CONTINUOUS
 62
     1
 10
206.250007629395
 20
0.0
 30
0.0
 11
206.250007629395
 21
2.54761736184622
 31
0.0
  0
LINE
  5
   1FA
  8
0
  6
CONTINUOUS
 62
     1
 10
195.250007629395
 20
0.0
 30
0.0
 11
195.250007629395
 21
2.54761783868338
 31
0.0
  0
LINE
  5
   1FB
  8
0
  6
CONTINUOUS
 62
     1
 10
152.0
 20
44.0476178386834
 30
0.0
 11
198.0
 21
44.0476178386834
 31
0.0
  0
LINE
  5
   1FC
  8
0
  6
CONTINUOUS
 62
     1
 10
210.0
 20
7.54761783868338
 30
0.0
 11
210.0
 21
22.0476178386834
 31
0.0
  0
LINE
  5
   1FD
  8
0
  6
CONTINUOUS
 62
     1
 10
82.0
 20
44.0476178386834
 30
0.0
 11
128.0
 21
44.0476178386834
 31
0.0
  0
LINE
  5
   1FE
  8
0
  6
CONTINUOUS
 62
     1
 10
12.0
 20
44.0476178386834
 30
0.0
 11
58.0
 21
44.0476178386834
 31
0.0
  0
LINE
  5
   1FF
  8
0
  6
CONTINUOUS
 62
     1
 10
0.0
 20
0.0
 30
0.0
 11
0.0
 21
22.0476178386834
 31
0.0
  0
LINE
  5
   200
  8
0
  6
CONTINUOUS
 62
     1
 10
187.999996185303
 20
4.54761783868337
 30
0.0
 11
187.999996185303
 21
6.54761783868337
 31
0.0
  0
LINE
  5
   201
  8
0
  6
CONTINUOUS
 62
     1
 10
183.752990722656
 20
6.54761783868337
 30
0.0
 11
187.999996185303
 21
6.54761783868337
 31
0.0
  0
LINE
  5
   202
  8
0
  6
CONTINUOUS
 62
     1
 10
21.9999961853027
 20
4.54761783868336
 30
0.0
 11
21.9999961853027
 21
6.54761783868336
 31
0.0
  0
LINE
  5
   203
  8
0
  6
CONTINUOUS
 62
     1
 10
21.9999961853027
 20
6.54761783868337
 30
0.0
 11
26.2470016479492
 21
6.54761783868337
 31
0.0
  0
LINE
  5
   204
  8
0
  6
CONTINUOUS
 62
     1
 10
31.0000076293945
 20
6.54761783868337
 30
0.0
 11
39.0000076293945
 21
6.54761783868337
 31
0.0
  0
LINE
  5
   205
  8
0
  6
CONTINUOUS
 62
     1
 10
171.000007629395
 20
6.54761783868337
 30
0.0
 11
179.000007629395
 21
6.54761783868337
 31
0.0
  0
LINE
  5
   206
  8
0
  6
CONTINUOUS
 62
     1
 10
127.000001907349
 20
2.54761783868337
 30
0.0
 11
127.000001907349
 21
6.84118931085133
 31
0.0
  0
LINE
  5
   207
  8
0
  6
CONTINUOUS
 62
     1
 10
108.000010490417
 20
0.0
 30
0.0
 11
108.000010490417
 21
2.54761783868337
 31
0.0
  0
LINE
  5
   208
  8
0
  6
CONTINUOUS
 62
     1
 10
86.0000095367432
 20
0.0
 30
0.0
 11
86.0000095367432
 21
2.54761783868337
 31
0.0
  0
LINE
  5
   209
  8
0
  6
CONTINUOUS
 62
     1
 10
25.9999961853027
 20
6.54761783868336
 30
0.0
 11
25.9999961853027
 21
8.54761783868336
 31
0.0
  0
LINE
  5
   20A
  8
0
  6
CONTINUOUS
 62
     1
 10
44.0
 20
4.54761783868336
 30
0.0
 11
44.0
 21
8.54761783868336
 31
0.0
  0
LINE
  5
   20B
  8
0
  6
CONTINUOUS
 62
     1
 10
183.999996185303
 20
6.54761783868337
 30
0.0
 11
183.999996185303
 21
8.54761783868337
 31
0.0
  0
LINE
  5
   20C
  8
0
  6
CONTINUOUS
 62
     1
 10
166.0
 20
4.54761783868337
 30
0.0
 11
166.0
 21
8.54761783868337
 31
0.0
  0
LINE
  5
   20D
  8
0
  6
CONTINUOUS
 62
     1
 10
200.0
 20
24.0476178386834
 30
0.0
 11
200.0
 21
42.0476178386834
 31
0.0
  0
LINE
  5
   20E
  8
0
  6
CONTINUOUS
 62
     1
 10
150.0
 20
24.0476178386834
 30
0.0
 11
150.0
 21
42.0476178386834
 31
0.0
  0
LINE
  5
   20F
  8
0
  6
CONTINUOUS
 62
     1
 10
130.0
 20
24.0476178386834
 30
0.0
 11
130.0
 21
42.0476178386834
 31
0.0
  0
LINE
  5
   210
  8
0
  6
CONTINUOUS
 62
     1
 10
80.0
 20
24.0476178386834
 30
0.0
 11
80.0
 21
42.0476178386834
 31
0.0
  0
LINE
  5
   211
  8
0
  6
CONTINUOUS
 62
     1
 10
60.0
 20
24.0476178386834
 30
0.0
 11
60.0
 21
42.0476178386834
 31
0.0
  0
LINE
  5
   212
  8
0
  6
CONTINUOUS
 62
     1
 10
10.0
 20
24.0476178386834
 30
0.0
 11
10.0
 21
42.0476178386834
 31
0.0
  0
LINE
  5
   213
  8
0
  6
CONTINUOUS
 62
     1
 10
183.752990722656
 20
4.54761783868337
 30
0.0
 11
183.752990722656
 21
6.54761783868337
 31
0.0
  0
LINE
  5
   214
  8
0
  6
CONTINUOUS
 62
     1
 10
26.2470016479492
 20
4.54761783868336
 30
0.0
 11
26.2470016479492
 21
6.54761783868336
 31
0.0
  0
LINE
  5
   215
  8
0
  6
CONTINUOUS
 62
     1
 10
39.0000076293945
 20
4.54761783868336
 30
0.0
 11
39.0000076293945
 21
6.54761783868336
 31
0.0
  0
LINE
  5
   216
  8
0
  6
CONTINUOUS
 62
     1
 10
31.0000076293945
 20
4.54761783868336
 30
0.0
 11
31.0000076293945
 21
6.54761783868336
 31
0.0
  0
LINE
  5
   217
  8
0
  6
CONTINUOUS
 62
     1
 10
171.000007629395
 20
4.54761783868337
 30
0.0
 11
171.000007629395
 21
6.54761783868337
 31
0.0
  0
LINE
  5
   218
  8
0
  6
CONTINUOUS
 62
     1
 10
179.000007629395
 20
4.54761783868337
 30
0.0
 11
179.000007629395
 21
6.54761783868337
 31
0.0
  0
ARC
  5
   219
  8
0
  6
CONTINUOUS
 62
     1
 10
12.0000111838347
 20
42.0475380330993
 30
0.0
 40
2.00007783126227
 50
90.0001807661626
 51
179.997830672605
  0
ARC
  5
   21A
  8
0
  6
CONTINUOUS
 62
     1
 10
58.0000129063801
 20
42.0476401501283
 30
0.0
 40
1.99997510265494
 50
359.999226374319
 51
450.000285340162
  0
ARC
  5
   21B
  8
0
  6
CONTINUOUS
 62
     1
 10
81.9999903249801
 20
42.0476447404943
 30
0.0
 40
1.99997081808889
 50
89.9996952185933
 51
180.000394138682
  0
ARC
  5
   21C
  8
0
  6
CONTINUOUS
 62
     1
 10
127.999995507033
 20
42.0476121773215
 30
0.0
 40
2.00000657851261
 50
5.38727676514194E-4
 51
89.9998988942161
  0
ARC
  5
   21D
  8
0
  6
CONTINUOUS
 62
     1
 10
151.999999983491
 20
42.0476201025244
 30
0.0
 40
1.99999862788034
 50
90.0000839312064
 51
180.000255608246
  0
ARC
  5
   21E
  8
0
  6
CONTINUOUS
 62
     1
 10
197.99998881617
 20
42.0475380331107
 30
0.0
 40
2.00007783125045
 50
2.16932706530805E-3
 51
89.9998192339624
  0
ARC
  5
   21F
  8
0
  6
CONTINUOUS
 62
     1
 10
7.99999999999999
 20
24.0476178386834
 30
0.0
 40
2.0
 50
270.0
 51
360.0
  0
ARC
  5
   220
  8
0
  6
CONTINUOUS
 62
     1
 10
62.0
 20
24.0476178386834
 30
0.0
 40
2.0
 50
180.0
 51
270.0
  0
ARC
  5
   221
  8
0
  6
CONTINUOUS
 62
     1
 10
78.0
 20
24.0476178386834
 30
0.0
 40
2.0
 50
270.0
 51
360.0
  0
ARC
  5
   222
  8
0
  6
CONTINUOUS
 62
     1
 10
132.0
 20
24.0476178386834
 30
0.0
 40
2.0
 50
180.0
 51
270.0
  0
ARC
  5
   223
  8
0
  6
CONTINUOUS
 62
     1
 10
148.0
 20
24.0476178386834
 30
0.0
 40
2.0
 50
270.0
 51
360.0
  0
ARC
  5
   224
  8
0
  6
CONTINUOUS
 62
     1
 10
202.0
 20
24.0476178386834
 30
0.0
 40
2.0
 50
180.0
 51
270.0
  0
ARC
  5
   225
  8
0
  6
CONTINUOUS
 62
     1
 10
164.0
 20
4.54761783868337
 30
0.0
 40
2.0
 50
270.0
 51
360.0
  0
ARC
  5
   226
  8
0
  6
CONTINUOUS
 62
     1
 10
181.000007629395
 20
4.54761783868337
 30
0.0
 40
2.0
 50
180.0
 51
270.0
  0
ARC
  5
   227
  8
0
  6
CONTINUOUS
 62
     1
 10
169.000007629395
 20
4.54761783868337
 30
0.0
 40
2.0
 50
270.0
 51
360.0
  0
ARC
  5
   228
  8
0
  6
CONTINUOUS
 62
     1
 10
185.752990722656
 20
4.54761783868337
 30
0.0
 40
2.0
 50
180.0
 51
270.0
  0
ARC
  5
   229
  8
0
  6
CONTINUOUS
 62
     1
 10
189.999996185303
 20
4.54761783868337
 30
0.0
 40
2.0
 50
180.0
 51
270.0
  0
ARC
  5
   22A
  8
0
  6
CONTINUOUS
 62
     1
 10
29.0000076293945
 20
4.54761783868336
 30
0.0
 40
2.0
 50
270.0
 51
360.0
  0
ARC
  5
   22B
  8
0
  6
CONTINUOUS
 62
     1
 10
41.0000076293945
 20
4.54761783868336
 30
0.0
 40
2.0
 50
180.0
 51
270.0
  0
ARC
  5
   22C
  8
0
  6
CONTINUOUS
 62
     1
 10
24.2470016479492
 20
4.54761783868336
 30
0.0
 40
2.0
 50
270.0
 51
360.0
  0
ARC
  5
   22D
  8
0
  6
CONTINUOUS
 62
     1
 10
19.9999961853027
 20
4.54761783868336
 30
0.0
 40
2.0
 50
270.0
 51
360.0
  0
ARC
  5
   22E
  8
0
  6
CONTINUOUS
 62
     1
 10
46.0
 20
4.54761783868336
 30
0.0
 40
2.0
 50
180.0
 51
270.0
  0
LINE
  5
   22F
  8
0
  6
DASHDOT
 62
     1
 10
35.0
 20
-10.891941734382
 30
0.0
 11
35.0
 21
48.6276703687375
 31
0.0
  0
LINE
  5
   230
  8
0
  6
DASHDOT
 62
     1
 10
105.0
 20
-11.3095241650931
 30
0.0
 11
105.0
 21
48.6276703687375
 31
0.0
  0
LINE
  5
   231
  8
0
  6
DASHDOT
 62
     1
 10
175.0
 20
-11.8663007393746
 30
0.0
 11
175.0
 21
48.6276703687375
 31
0.0
  0
LINE
  5
   232
  8
0
  6
CONTINUOUS
 62
     1
 10
149.5
 20
22.0476178386834
 30
0.0
 11
210.0
 21
22.0476178386834
 31
0.0
  0
LINE
  5
   233
  8
0
  6
CONTINUOUS
 62
     1
 10
132.0
 20
22.0476178386834
 30
0.0
 11
148.0
 21
22.0476178386834
 31
0.0
  0
LINE
  5
   234
  8
0
  6
CONTINUOUS
 62
     1
 10
62.0
 20
22.0476178386834
 30
0.0
 11
78.0
 21
22.0476178386834
 31
0.0
  0
LINE
  5
   235
  8
0
  6
CONTINUOUS
 62
     1
 10
0.0
 20
22.0476178386834
 30
0.0
 11
60.5
 21
22.0476178386834
 31
0.0
  0
LINE
  5
   236
  8
0
  6
CONTINUOUS
 62
     1
 10
79.5000019073486
 20
22.0476178386834
 30
0.0
 11
130.500001907349
 21
22.0476178386834
 31
0.0
  0
LINE
  5
   237
  8
0
  6
CONTINUOUS
 62
     1
 10
149.500003814697
 20
7.54761783868337
 30
0.0
 11
166.0
 21
7.54761783868337
 31
0.0
  0
LINE
  5
   238
  8
0
  6
CONTINUOUS
 62
     1
 10
79.5000019073486
 20
7.54761783868337
 30
0.0
 11
130.500001907349
 21
7.54761783868337
 31
0.0
  0
LINE
  5
   239
  8
0
  6
CONTINUOUS
 62
     1
 10
44.0000038146973
 20
7.54761783868337
 30
0.0
 11
60.5000038146973
 21
7.54761783868337
 31
0.0
  0
LINE
  5
   23A
  8
0
  6
CONTINUOUS
 62
     1
 10
60.5000038146973
 20
2.54761783868336
 30
0.0
 11
60.5000038146973
 21
22.7247378577035
 31
0.0
  0
LINE
  5
   23B
  8
0
  6
CONTINUOUS
 62
     1
 10
79.5000019073486
 20
2.54761783868337
 30
0.0
 11
79.5000019073486
 21
22.7247443458843
 31
0.0
  0
LINE
  5
   23C
  8
0
  6
CONTINUOUS
 62
     1
 10
149.500003814697
 20
2.54761783868337
 30
0.0
 11
149.500003814697
 21
22.7247465086238
 31
0.0
  0
LINE
  5
   23D
  8
0
  6
CONTINUOUS
 62
     1
 10
130.500001907349
 20
2.54761783868337
 30
0.0
 11
130.500001907349
 21
22.7247400204242
 31
0.0
  0
LINE
  5
   23E
  8
0
  6
CONTINUOUS
 62
     1
 10
127.000001907349
 20
2.54761783868337
 30
0.0
 11
127.000001907349
 21
7.39329426080251
 31
0.0
  0
LINE
  5
   23F
  8
0
  6
CONTINUOUS
 62
     1
 10
102.000002622604
 20
2.54761783868337
 30
0.0
 11
102.000002622604
 21
2.62680332452321
 31
0.0
  0
LINE
  5
   240
  8
0
  6
CONTINUOUS
 62
     1
 10
124.000001907349
 20
2.54761783868337
 30
0.0
 11
124.000001907349
 21
2.62680332452321
 31
0.0
  0
LINE
  5
   241
  8
0
  6
CONTINUOUS
 62
     1
 10
146.0
 20
2.54761783868337
 30
0.0
 11
146.0
 21
22.0476178386834
 31
0.0
  0
LINE
  5
   242
  8
0
  6
CONTINUOUS
 62
     1
 10
127.000001907349
 20
7.39329426080251
 30
0.0
 11
130.500001907349
 21
7.39329426080251
 31
0.0
  0
LINE
  5
   243
  8
0
  6
CONTINUOUS
 62
     1
 10
123.902115054153
 20
2.90024618534041
 30
0.0
 11
123.981300543408
 21
2.64550451015079
 31
0.0
  0
LINE
  5
   244
  8
0
  6
CONTINUOUS
 62
     1
 10
123.981300228695
 20
2.64550214576051
 30
0.0
 11
124.000001782211
 21
2.62680249961967
 31
0.0
  0
LINE
  5
   245
  8
0
  6
CONTINUOUS
 62
     1
 10
123.618036275392
 20
3.48488517587431
 30
0.0
 11
123.647331242312
 21
3.3720464328402
 31
0.0
  0
LINE
  5
   246
  8
0
  6
CONTINUOUS
 62
     1
 10
123.647331577819
 20
3.37205051502097
 30
0.0
 11
123.872778276713
 21
2.92958757920854
 31
0.0
  0
LINE
  5
   247
  8
0
  6
CONTINUOUS
 62
     1
 10
123.872777491439
 20
2.92958038430061
 30
0.0
 11
123.902114420235
 21
2.90024154882209
 31
0.0
  0
LINE
  5
   248
  8
0
  6
CONTINUOUS
 62
     1
 10
123.175573352132
 20
6.99296477722674
 30
0.0
 11
123.217443470685
 21
6.93030074585427
 31
0.0
  0
LINE
  5
   249
  8
0
  6
CONTINUOUS
 62
     1
 10
123.217443319868
 20
6.93029941499809
 30
0.0
 11
123.293563695634
 21
6.54761660478325
 31
0.0
  0
LINE
  5
   24A
  8
0
  6
CONTINUOUS
 62
     1
 10
123.293563842773
 20
4.54761783868337
 30
0.0
 11
123.293563842773
 21
6.54761783868337
 31
0.0
  0
LINE
  5
   24B
  8
0
  6
CONTINUOUS
 62
     1
 10
123.293564867512
 20
4.54762479496511
 30
0.0
 11
123.391451905052
 21
3.92959041601277
 31
0.0
  0
LINE
  5
   24C
  8
0
  6
CONTINUOUS
 62
     1
 10
123.391451100832
 20
3.92958645560522
 30
0.0
 11
123.618036488679
 21
3.48488810730588
 31
0.0
  0
LINE
  5
   24D
  8
0
  6
CONTINUOUS
 62
     1
 10
122.61803538493
 20
7.32778625732406
 30
0.0
 11
122.832306925269
 21
7.25472336294172
 31
0.0
  0
LINE
  5
   24E
  8
0
  6
CONTINUOUS
 62
     1
 10
122.832307717482
 20
7.25472463465899
 30
0.0
 11
123.175573262604
 21
6.99296392818092
 31
0.0
  0
LINE
  5
   24F
  8
0
  6
CONTINUOUS
 62
     1
 10
122.000000932387
 20
7.39329282062793
 30
0.0
 11
122.618035291428
 21
7.32778684108751
 31
0.0
  0
LINE
  5
   250
  8
0
  6
CONTINUOUS
 62
     1
 10
104.000001907349
 20
7.39329044610624
 30
0.0
 11
122.000001907349
 21
7.39329426080354
 31
0.0
  0
LINE
  5
   251
  8
0
  6
CONTINUOUS
 62
     1
 10
103.381968430629
 20
7.32778333065423
 30
0.0
 11
104.000002374762
 21
7.3932893125232
 31
0.0
  0
LINE
  5
   252
  8
0
  6
CONTINUOUS
 62
     1
 10
102.824432444718
 20
6.99296643765937
 30
0.0
 11
103.167698454331
 21
7.25472715515085
 31
0.0
  0
LINE
  5
   253
  8
0
  6
CONTINUOUS
 62
     1
 10
103.167698166633
 20
7.25472662055085
 30
0.0
 11
103.381968755508
 21
7.32778570541501
 31
0.0
  0
LINE
  5
   254
  8
0
  6
CONTINUOUS
 62
     1
 10
102.381968877677
 20
3.48488712225386
 30
0.0
 11
102.608554979576
 21
3.9295854651628
 31
0.0
  0
LINE
  5
   255
  8
0
  6
CONTINUOUS
 62
     1
 10
102.6085547115
 20
3.92958569563255
 30
0.0
 11
102.706441515935
 21
4.54762007458494
 31
0.0
  0
LINE
  5
   256
  8
0
  6
CONTINUOUS
 62
     1
 10
102.706441402435
 20
4.54761783868337
 30
0.0
 11
102.706441402435
 21
6.54761783868337
 31
0.0
  0
LINE
  5
   257
  8
0
  6
CONTINUOUS
 62
     1
 10
102.706441307936
 20
6.54761652194495
 30
0.0
 11
102.782561922082
 21
6.93029931487639
 31
0.0
  0
LINE
  5
   258
  8
0
  6
CONTINUOUS
 62
     1
 10
102.7825622944
 20
6.93030180025885
 30
0.0
 11
102.824432172238
 21
6.99296583242446
 31
0.0
  0
LINE
  5
   259
  8
0
  6
CONTINUOUS
 62
     1
 10
102.097889834771
 20
2.90024615733618
 30
0.0
 11
102.127228431838
 21
2.92958499429081
 31
0.0
  0
LINE
  5
   25A
  8
0
  6
CONTINUOUS
 62
     1
 10
102.127228409228
 20
2.92958553213636
 30
0.0
 11
102.352674628626
 21
3.37204845966404
 31
0.0
  0
LINE
  5
   25B
  8
0
  6
CONTINUOUS
 62
     1
 10
102.352674226854
 20
3.37204618972538
 30
0.0
 11
102.381968478293
 21
3.48488493340002
 31
0.0
  0
LINE
  5
   25C
  8
0
  6
CONTINUOUS
 62
     1
 10
102.000002368196
 20
2.62680237310849
 30
0.0
 11
102.018703921712
 21
2.64550201924933
 31
0.0
  0
LINE
  5
   25D
  8
0
  6
CONTINUOUS
 62
     1
 10
102.018703706004
 20
2.64549862470621
 30
0.0
 11
102.09788895496
 21
2.90024029067898
 31
0.0
  0
LINE
  5
   25E
  8
0
  6
CONTINUOUS
 62
     1
 10
135.0
 20
2.54761783868337
 30
0.0
 11
135.0
 21
22.0476178386834
 31
0.0
  0
LINE
  5
   25F
  8
0
  6
CONTINUOUS
 62
     1
 10
75.0
 20
2.54761783868336
 30
0.0
 11
75.0
 21
22.0476178386834
 31
0.0
  0
LINE
  5
   260
  8
0
  6
CONTINUOUS
 62
     1
 10
65.0
 20
2.54762165338062
 30
0.0
 11
65.0
 21
22.0476178386834
 31
0.0
  0
LINE
  5
   261
  8
0
  6
CONTINUOUS
 62
     1
 10
-4.33699977453108
 20
0.0
 30
0.0
 11
216.355314856302
 21
0.0
 31
0.0
  0
LINE
  5
   262
  8
0
  6
CONTINUOUS
 62
     7
 10
30.0
 20
44.0476178386834
 30
0.0
 11
30.0
 21
84.0476178386834
 31
0.0
  0
LINE
  5
   263
  8
0
  6
CONTINUOUS
 62
     7
 10
40.0
 20
44.0476178386834
 30
0.0
 11
40.0
 21
84.0476178386834
 31
0.0
  0
LINE
  5
   264
  8
0
  6
CONTINUOUS
 62
     7
 10
35.0
 20
44.0476178386834
 30
0.0
 11
35.0
 21
84.0476178386834
 31
0.0
  0
LINE
  5
   265
  8
0
  6
CONTINUOUS
 62
     7
 10
30.0
 20
84.0476178386834
 30
0.0
 11
40.0
 21
84.0476178386834
 31
0.0
  0
LINE
  5
   266
  8
0
  6
CONTINUOUS
 62
     7
 10
110.0
 20
44.0476178386834
 30
0.0
 11
110.0
 21
84.0476178386834
 31
0.0
  0
LINE
  5
   267
  8
0
  6
CONTINUOUS
 62
     7
 10
105.0
 20
44.0476178386834
 30
0.0
 11
105.0
 21
84.0476178386834
 31
0.0
  0
LINE
  5
   268
  8
0
  6
CONTINUOUS
 62
     7
 10
100.0
 20
44.0476178386834
 30
0.0
 11
100.0
 21
84.0476178386834
 31
0.0
  0
LINE
  5
   269
  8
0
  6
CONTINUOUS
 62
     7
 10
100.0
 20
84.0476178386834
 30
0.0
 11
110.0
 21
84.0476178386834
 31
0.0
  0
LINE
  5
   26A
  8
0
  6
CONTINUOUS
 62
     7
 10
180.0
 20
44.0476178386834
 30
0.0
 11
180.0
 21
84.0476178386834
 31
0.0
  0
LINE
  5
   26B
  8
0
  6
CONTINUOUS
 62
     7
 10
175.0
 20
44.0476178386834
 30
0.0
 11
175.0
 21
84.0476178386834
 31
0.0
  0
LINE
  5
   26C
  8
0
  6
CONTINUOUS
 62
     7
 10
170.0
 20
44.0476178386834
 30
0.0
 11
170.0
 21
84.0476178386834
 31
0.0
  0
LINE
  5
   26D
  8
0
  6
CONTINUOUS
 62
     7
 10
170.0
 20
84.0476178386834
 30
0.0
 11
180.0
 21
84.0476178386834
 31
0.0
  0
LINE
  5
   26E
  8
0
  6
DASHDOT
 62
     1
 10
24.6373634119567
 20
64.0476178386834
 30
0.0
 11
45.2380966603725
 21
64.0476178386834
 31
0.0
  0
LINE
  5
   26F
  8
0
  6
DASHDOT
 62
     1
 10
164.805865987326
 20
64.0476178386834
 30
0.0
 11
184.849822661461
 21
64.0476178386834
 31
0.0
  0
LINE
  5
   270
  8
0
  6
DASHDOT
 62
     1
 10
94.3040322689304
 20
64.0476178386834
 30
0.0
 11
114.626377230205
 21
64.0476178386834
 31
0.0
  0
LINE
  5
   271
  8
0
  6
DOT
 62
     7
 10
170.0
 20
71.0476178386834
 30
0.0
 11
180.0
 21
71.0476178386834
 31
0.0
  0
LINE
  5
   272
  8
0
  6
DOT
 62
     7
 10
170.0
 20
57.0476178386834
 30
0.0
 11
180.0
 21
57.0476178386834
 31
0.0
  0
LINE
  5
   273
  8
0
  6
DOT
 62
     7
 10
100.0
 20
71.0476178386834
 30
0.0
 11
110.0
 21
71.0476178386834
 31
0.0
  0
LINE
  5
   274
  8
0
  6
DOT
 62
     7
 10
100.0
 20
57.0476178386834
 30
0.0
 11
110.0
 21
57.0476178386834
 31
0.0
  0
LINE
  5
   275
  8
0
  6
DOT
 62
     7
 10
30.0
 20
71.0476178386833
 30
0.0
 11
40.0
 21
71.0476178386833
 31
0.0
  0
LINE
  5
   276
  8
0
  6
DOT
 62
     7
 10
30.0
 20
57.0476178386834
 30
0.0
 11
40.0
 21
57.0476178386834
 31
0.0
  0
ENDBLK
  5
   277
  8
0
  6
CONTINUOUS
 62
     7
  0
BLOCK
  5
   278
  8
0
  6
CONTINUOUS
 62
     7
  2
*UDIM1474
 70
    65
 10
0.0
 20
0.0
 30
0.0
  3
*UDIM1474
  0
TEXT
  5
   279
  8
0
  6
CONTINUOUS
 62
     7
 10
169.073118020013
 20
-111.434053950007
 30
0.0
 40
2.99999994933605
  1
10
 50
359.999999896069
 41
0.933333333333333
 72
     1
 11
171.573117980506
 21
-109.934053979861
 31
0.0
 73
     2
  0
LINE
  5
   27A
  8
0
  6
CONTINUOUS
 62
     7
 10
166.098119424801
 20
-118.811860566689
 30
0.0
 11
166.098119424801
 21
-110.434053954529
 31
0.0
  0
LINE
  5
   27B
  8
0
  6
CONTINUOUS
 62
     7
 10
162.098119365197
 20
-118.811860566689
 30
0.0
 11
162.098119365197
 21
-110.434053954529
 31
0.0
  0
LINE
  5
   27C
  8
0
  6
CONTINUOUS
 62
     7
 10
174.073117938286
 20
-112.434053954529
 30
0.0
 11
162.098119365197
 21
-112.434053954529
 31
0.0
  0
LINE
  5
   27D
  8
0
  6
CONTINUOUS
 62
     7
 10
169.052542702008
 20
-111.913109524577
 30
0.0
 11
166.098119424801
 21
-112.434053954529
 31
0.0
  0
LINE
  5
   27E
  8
0
  6
CONTINUOUS
 62
     7
 10
166.098119424801
 20
-112.434053954529
 30
0.0
 11
169.052542702008
 21
-112.954998384481
 31
0.0
  0
LINE
  5
   27F
  8
0
  6
CONTINUOUS
 62
     7
 10
159.14369608799
 20
-112.954998384481
 30
0.0
 11
162.098119365197
 21
-112.434053954529
 31
0.0
  0
LINE
  5
   280
  8
0
  6
CONTINUOUS
 62
     7
 10
162.098119365197
 20
-112.434053954529
 30
0.0
 11
159.14369608799
 21
-111.913109524577
 31
0.0
  0
ENDBLK
  5
   281
  8
0
  6
CONTINUOUS
 62
     7
  0
BLOCK
  5
   282
  8
0
  6
CONTINUOUS
 62
     7
  2
*UDIM1475
 70
    65
 10
0.0
 20
0.0
 30
0.0
  3
*UDIM1475
  0
TEXT
  5
   283
  8
0
  6
CONTINUOUS
 62
     7
 10
147.323117648229
 20
-162.663850550792
 30
0.0
 40
2.99999994933605
  1
70
 50
359.999999896069
 41
0.933333333333333
 72
     1
 11
149.823117608722
 21
-161.163850580647
 31
0.0
 73
     2
  0
LINE
  5
   284
  8
0
  6
CONTINUOUS
 62
     7
 10
164.098119394999
 20
-159.177428569604
 30
0.0
 11
164.098119394999
 21
-165.663850555315
 31
0.0
  0
LINE
  5
   285
  8
0
  6
CONTINUOUS
 62
     7
 10
136.098118977766
 20
-158.954717936572
 30
0.0
 11
136.098118977766
 21
-165.663850555315
 31
0.0
  0
LINE
  5
   286
  8
0
  6
CONTINUOUS
 62
     7
 10
164.098119394999
 20
-163.663850555315
 30
0.0
 11
136.098118977766
 21
-163.663850555315
 31
0.0
  0
LINE
  5
   287
  8
0
  6
CONTINUOUS
 62
     7
 10
161.143696117792
 20
-164.184794985266
 30
0.0
 11
164.098119394999
 21
-163.663850555315
 31
0.0
  0
LINE
  5
   288
  8
0
  6
CONTINUOUS
 62
     7
 10
164.098119394999
 20
-163.663850555315
 30
0.0
 11
161.143696117792
 21
-163.142906125363
 31
0.0
  0
LINE
  5
   289
  8
0
  6
CONTINUOUS
 62
     7
 10
139.052542254973
 20
-163.142906125363
 30
0.0
 11
136.098118977766
 21
-163.663850555315
 31
0.0
  0
LINE
  5
   28A
  8
0
  6
CONTINUOUS
 62
     7
 10
136.098118977766
 20
-163.663850555315
 30
0.0
 11
139.052542254973
 21
-164.184794985266
 31
0.0
  0
ENDBLK
  5
   28B
  8
0
  6
CONTINUOUS
 62
     7
  0
BLOCK
  5
   28C
  8
0
  6
CONTINUOUS
 62
     7
  2
*UDIM1476
 70
    65
 10
0.0
 20
0.0
 30
0.0
  3
*UDIM1476
  0
TEXT
  5
   28D
  8
0
  6
CONTINUOUS
 62
     7
 10
119.323117230996
 20
-162.663850550792
 30
0.0
 40
2.99999994933605
  1
70
 50
359.999999896069
 41
0.933333333333333
 72
     1
 11
121.82311719149
 21
-161.163850580647
 31
0.0
 73
     2
  0
LINE
  5
   28E
  8
0
  6
CONTINUOUS
 62
     7
 10
108.098118560534
 20
-158.787684961799
 30
0.0
 11
108.098118560534
 21
-165.663850555315
 31
0.0
  0
LINE
  5
   28F
  8
0
  6
CONTINUOUS
 62
     7
 10
136.098118977766
 20
-163.663850555315
 30
0.0
 11
108.098118560534
 21
-163.663850555315
 31
0.0
  0
LINE
  5
   290
  8
0
  6
CONTINUOUS
 62
     7
 10
133.143695700559
 20
-164.184794985266
 30
0.0
 11
136.098118977766
 21
-163.663850555315
 31
0.0
  0
LINE
  5
   291
  8
0
  6
CONTINUOUS
 62
     7
 10
136.098118977766
 20
-163.663850555315
 30
0.0
 11
133.143695700559
 21
-163.142906125363
 31
0.0
  0
LINE
  5
   292
  8
0
  6
CONTINUOUS
 62
     7
 10
111.052541837741
 20
-163.142906125363
 30
0.0
 11
108.098118560534
 21
-163.663850555315
 31
0.0
  0
LINE
  5
   293
  8
0
  6
CONTINUOUS
 62
     7
 10
108.098118560534
 20
-163.663850555315
 30
0.0
 11
111.052541837741
 21
-164.184794985266
 31
0.0
  0
ENDBLK
  5
   294
  8
0
  6
CONTINUOUS
 62
     7
  0
BLOCK
  5
   295
  8
0
  6
CONTINUOUS
 62
     7
  2
*UDIM1477
 70
    65
 10
0.0
 20
0.0
 30
0.0
  3
*UDIM1477
  0
TEXT
  5
   296
  8
0
  6
CONTINUOUS
 62
     7
 10
206.226685138958
 20
33.3639993602373
 30
0.0
 40
3.00000002980232
  1
7
 50
346.219530793517
 41
0.933333333333334
 72
     1
 11
207.652325850572
 21
34.5588000256766
 31
0.0
 73
     2
  0
TEXT
  5
   297
  8
0
  6
CONTINUOUS
 62
     7
 10
202.341822971787
 20
34.3168089847179
 30
0.0
 40
3.00000002980232
  1
Ø
 50
346.219530793517
 41
1.2
 72
     1
 11
204.15594990085
 21
35.4163286865228
 31
0.0
 73
     2
  0
LINE
  5
   298
  8
0
  6
CONTINUOUS
 62
     7
 10
202.103620570692
 20
33.3455934451692
 30
0.0
 11
226.066044464142
 21
27.4685179911939
 31
0.0
  0
LINE
  5
   299
  8
0
  6
CONTINUOUS
 62
     7
 10
216.511019146266
 20
29.0125345270755
 30
0.0
 11
219.510339605448
 21
29.0763842187448
 31
0.0
  0
LINE
  5
   29A
  8
0
  6
CONTINUOUS
 62
     7
 10
219.510339605448
 20
29.0763842187448
 30
0.0
 11
216.880927068916
 21
30.5207490316386
 31
0.0
  0
LINE
  5
   29B
  8
0
  6
CONTINUOUS
 62
     7
 10
224.209287250219
 20
28.7233797032712
 30
0.0
 11
221.209966791036
 21
28.6595300116019
 31
0.0
  0
LINE
  5
   29C
  8
0
  6
CONTINUOUS
 62
     7
 10
221.209966791036
 20
28.6595300116019
 30
0.0
 11
223.839379327568
 21
27.2151651987081
 31
0.0
  0
ENDBLK
  5
   29D
  8
0
  6
CONTINUOUS
 62
     7
  0
BLOCK
  5
   29E
  8
0
  6
CONTINUOUS
 62
     7
  2
*UDIM1478
 70
    65
 10
0.0
 20
0.0
 30
0.0
  3
*UDIM1478
  0
TEXT
  5
   29F
  8
0
  6
CONTINUOUS
 62
     7
 10
248.463326798454
 20
-9.84846842758462
 30
0.0
 40
3.00000002980232
  1
7
 50
340.347631908621
 41
0.933333333333334
 72
     1
 11
250.003721016479
 21
-8.8057864425961
 31
0.0
 73
     2
  0
TEXT
  5
   2A0
  8
0
  6
CONTINUOUS
 62
     7
 10
244.696324934799
 20
-8.50321856319785
 30
0.0
 40
3.00000002980232
  1
Ø
 50
340.347631908621
 41
1.2
 72
     1
 11
246.613419339796
 21
-7.59506156590297
 31
0.0
 73
     2
  0
LINE
  5
   2A1
  8
0
  6
CONTINUOUS
 62
     7
 10
244.36001247393
 20
-9.44496902739368
 30
0.0
 11
266.517937144801
 21
-17.3578786069207
 31
0.0
  0
LINE
  5
   2A2
  8
0
  6
CONTINUOUS
 62
     7
 10
257.171006062235
 20
-14.8444396826381
 30
0.0
 11
260.161121546627
 21
-15.0877694794085
 31
0.0
  0
LINE
  5
   2A3
  8
0
  6
CONTINUOUS
 62
     7
 10
260.161121546627
 20
-15.0877694794085
 30
0.0
 11
257.693270500134
 21
-13.3819819157536
 31
0.0
  0
LINE
  5
   2A4
  8
0
  6
CONTINUOUS
 62
     7
 10
264.79930033425
 20
-15.9196460870153
 30
0.0
 11
261.809184849857
 21
-15.6763162902449
 31
0.0
  0
LINE
  5
   2A5
  8
0
  6
CONTINUOUS
 62
     7
 10
261.809184849857
 20
-15.6763162902449
 30
0.0
 11
264.277035896351
 21
-17.3821038538997
 31
0.0
  0
ENDBLK
  5
   2A6
  8
0
  6
CONTINUOUS
 62
     7
  0
BLOCK
  5
   2A7
  8
0
  6
CONTINUOUS
 62
     7
  2
*UDIM1479
 70
    65
 10
0.0
 20
0.0
 30
0.0
  3
*UDIM1479
  0
TEXT
  5
   2A8
  8
0
  6
CONTINUOUS
 62
     7
 10
267.272312557067
 20
37.3276736199268
 30
0.0
 40
3.00000002980232
  1
8
 50
407.936580148673
 41
0.933333333333334
 72
     1
 11
266.895655023444
 21
39.1492468880412
 31
0.0
 73
     2
  0
TEXT
  5
   2A9
  8
0
  6
CONTINUOUS
 62
     7
 10
265.161961324016
 20
34.9891018900576
 30
0.0
 40
3.00000002980232
  1
Ø
 50
407.936580148673
 41
0.933333333333334
 72
     1
 11
264.785303790393
 21
36.8106751581721
 31
0.0
 73
     2
  0
TEXT
  5
   2AA
  8
0
  6
CONTINUOUS
 62
     7
 10
269.114682678223
 20
39.3692838967523
 30
0.0
 40
3.00000002980232
  1
(5 fori)
 50
407.936580148673
 41
0.933333333333333
 72
     1
 11
275.303562378365
 21
48.4664136892974
 31
0.0
 73
     2
  0
LINE
  5
   2AB
  8
0
  6
CONTINUOUS
 62
     7
 10
284.462056961639
 20
54.8837323975426
 30
0.0
 11
260.315200427958
 21
28.1255533937466
 31
0.0
  0
LINE
  5
   2AC
  8
0
  6
CONTINUOUS
 62
     7
 10
263.247678944232
 20
32.1527438362785
 30
0.0
 11
261.655105968527
 21
29.6103608366001
 31
0.0
  0
LINE
  5
   2AD
  8
0
  6
CONTINUOUS
 62
     7
 10
261.655105968527
 20
29.6103608366001
 30
0.0
 11
264.021181111137
 21
31.4547275082577
 31
0.0
  0
LINE
  5
   2AE
  8
0
  6
CONTINUOUS
 62
     7
 10
258.722627452253
 20
25.5831703940682
 30
0.0
 11
260.315200427958
 21
28.1255533937466
 31
0.0
  0
LINE
  5
   2AF
  8
0
  6
CONTINUOUS
 62
     7
 10
260.315200427958
 20
28.1255533937466
 30
0.0
 11
257.949125285347
 21
26.281186722089
 31
0.0
  0
ENDBLK
  5
   2B0
  8
0
  6
CONTINUOUS
 62
     7
  0
BLOCK
  5
   2B1
  8
0
  6
CONTINUOUS
 62
     7
  2
*UDIM1480
 70
    65
 10
0.0
 20
0.0
 30
0.0
  3
*UDIM1480
  0
TEXT
  5
   2B2
  8
0
  6
CONTINUOUS
 62
     7
 10
241.856926227182
 20
-51.0672769212455
 30
0.0
 40
3.00000002980232
  1
R min.200
 50
359.999999844103
 41
0.933333333333333
 72
     1
 11
254.156926353445
 21
-49.5672769397497
 31
0.0
 73
     2
  0
LINE
  5
   2B3
  8
0
  6
CONTINUOUS
 62
     7
 10
235.735153198242
 20
-23.9282515593607
 30
0.0
 11
235.735153198242
 21
-54.0672769546509
 31
0.0
  0
LINE
  5
   2B4
  8
0
  6
CONTINUOUS
 62
     7
 10
276.919985691051
 20
-48.2056396935932
 30
0.0
 11
276.919985691051
 21
-54.0672769546509
 31
0.0
  0
LINE
  5
   2B5
  8
0
  6
CONTINUOUS
 62
     7
 10
235.735153198242
 20
-52.0672769546509
 30
0.0
 11
276.919985691051
 21
-52.0672769546509
 31
0.0
  0
LINE
  5
   2B6
  8
0
  6
CONTINUOUS
 62
     7
 10
238.689576475449
 20
-51.5463325246992
 30
0.0
 11
235.735153198242
 21
-52.0672769546509
 31
0.0
  0
LINE
  5
   2B7
  8
0
  6
CONTINUOUS
 62
     7
 10
235.735153198242
 20
-52.0672769546509
 30
0.0
 11
238.689576475449
 21
-52.5882213846025
 31
0.0
  0
LINE
  5
   2B8
  8
0
  6
CONTINUOUS
 62
     7
 10
273.965562413844
 20
-52.5882213846025
 30
0.0
 11
276.919985691051
 21
-52.0672769546509
 31
0.0
  0
LINE
  5
   2B9
  8
0
  6
CONTINUOUS
 62
     7
 10
276.919985691051
 20
-52.0672769546509
 30
0.0
 11
273.965562413844
 21
-51.5463325246992
 31
0.0
  0
ENDBLK
  5
   2BA
  8
0
  6
CONTINUOUS
 62
     7
  0
BLOCK
  5
   2BB
  8
0
  6
CONTINUOUS
 62
     7
  2
*UDIM1481
 70
    65
 10
0.0
 20
0.0
 30
0.0
  3
*UDIM1481
  0
TEXT
  5
   2BC
  8
0
  6
CONTINUOUS
 62
     7
 10
199.463016503223
 20
15.2179570803057
 30
0.0
 40
3.00000002980232
  1
90
 50
449.999999844103
 41
0.933333333333333
 72
     1
 11
197.963016495109
 21
17.7179571092129
 31
0.0
 73
     2
  0
LINE
  5
   2BD
  8
0
  6
CONTINUOUS
 62
     7
 10
232.377653198242
 20
29.2429571151733
 30
0.0
 11
198.46301651001
 21
29.2429571151733
 31
0.0
  0
LINE
  5
   2BE
  8
0
  6
CONTINUOUS
 62
     7
 10
204.929128507706
 20
6.74295711517334
 30
0.0
 11
198.46301651001
 21
6.74295711517334
 31
0.0
  0
LINE
  5
   2BF
  8
0
  6
CONTINUOUS
 62
     7
 10
200.46301651001
 20
29.2429571151733
 30
0.0
 11
200.46301651001
 21
6.74295711517334
 31
0.0
  0
LINE
  5
   2C0
  8
0
  6
CONTINUOUS
 62
     7
 10
200.983960939961
 20
26.2885338379664
 30
0.0
 11
200.46301651001
 21
29.2429571151733
 31
0.0
  0
LINE
  5
   2C1
  8
0
  6
CONTINUOUS
 62
     7
 10
200.46301651001
 20
29.2429571151733
 30
0.0
 11
199.942072080058
 21
26.2885338379664
 31
0.0
  0
LINE
  5
   2C2
  8
0
  6
CONTINUOUS
 62
     7
 10
199.942072080058
 20
9.6973803923803
 30
0.0
 11
200.46301651001
 21
6.74295711517334
 31
0.0
  0
LINE
  5
   2C3
  8
0
  6
CONTINUOUS
 62
     7
 10
200.46301651001
 20
6.74295711517334
 30
0.0
 11
200.983960939961
 21
9.6973803923803
 31
0.0
  0
ENDBLK
  5
   2C4
  8
0
  6
CONTINUOUS
 62
     7
  0
BLOCK
  5
   2C5
  8
0
  6
CONTINUOUS
 62
     7
  2
*UDIM1482
 70
    65
 10
0.0
 20
0.0
 30
0.0
  3
*UDIM1482
  0
TEXT
  5
   2C6
  8
0
  6
CONTINUOUS
 62
     7
 10
205.716941822909
 20
2.56795706639791
 30
0.0
 40
3.00000002980232
  1
161
 50
449.999999844103
 41
0.933333333333333
 72
     1
 11
204.216941818595
 21
6.46795710921288
 31
0.0
 73
     2
  0
LINE
  5
   2C7
  8
0
  6
CONTINUOUS
 62
     7
 10
212.360153198242
 20
26.8679571151733
 30
0.0
 11
204.716941833496
 21
26.8679571151733
 31
0.0
  0
LINE
  5
   2C8
  8
0
  6
CONTINUOUS
 62
     7
 10
212.360153198242
 20
-13.3820428848267
 30
0.0
 11
204.716941833496
 21
-13.3820428848267
 31
0.0
  0
LINE
  5
   2C9
  8
0
  6
CONTINUOUS
 62
     7
 10
206.716941833496
 20
26.8679571151733
 30
0.0
 11
206.716941833496
 21
-13.3820428848267
 31
0.0
  0
LINE
  5
   2CA
  8
0
  6
CONTINUOUS
 62
     7
 10
207.237886263448
 20
23.9135338379664
 30
0.0
 11
206.716941833496
 21
26.8679571151733
 31
0.0
  0
LINE
  5
   2CB
  8
0
  6
CONTINUOUS
 62
     7
 10
206.716941833496
 20
26.8679571151733
 30
0.0
 11
206.195997403544
 21
23.9135338379664
 31
0.0
  0
LINE
  5
   2CC
  8
0
  6
CONTINUOUS
 62
     7
 10
206.195997403544
 20
-10.4276196076197
 30
0.0
 11
206.716941833496
 21
-13.3820428848267
 31
0.0
  0
LINE
  5
   2CD
  8
0
  6
CONTINUOUS
 62
     7
 10
206.716941833496
 20
-13.3820428848267
 30
0.0
 11
207.237886263448
 21
-10.4276196076197
 31
0.0
  0
ENDBLK
  5
   2CE
  8
0
  6
CONTINUOUS
 62
     7
  0
BLOCK
  5
   2CF
  8
0
  6
CONTINUOUS
 62
     7
  2
*UDIM1483
 70
    65
 10
0.0
 20
0.0
 30
0.0
  3
*UDIM1483
  0
TEXT
  5
   2D0
  8
0
  6
CONTINUOUS
 62
     7
 10
290.277912129306
 20
2.56795706639791
 30
0.0
 40
3.00000002980232
  1
177
 50
449.999999844103
 41
0.933333333333333
 72
     1
 11
288.777912124991
 21
6.46795710921288
 31
0.0
 73
     2
  0
LINE
  5
   2D1
  8
0
  6
CONTINUOUS
 62
     7
 10
263.610153198242
 20
28.8679571151733
 30
0.0
 11
293.277912139893
 21
28.8679571151733
 31
0.0
  0
LINE
  5
   2D2
  8
0
  6
CONTINUOUS
 62
     7
 10
263.610153198242
 20
-15.3820428848267
 30
0.0
 11
293.277912139893
 21
-15.3820428848267
 31
0.0
  0
LINE
  5
   2D3
  8
0
  6
CONTINUOUS
 62
     7
 10
291.277912139893
 20
28.8679571151733
 30
0.0
 11
291.277912139893
 21
-15.3820428848267
 31
0.0
  0
LINE
  5
   2D4
  8
0
  6
CONTINUOUS
 62
     7
 10
291.798856569844
 20
25.9135338379664
 30
0.0
 11
291.277912139893
 21
28.8679571151733
 31
0.0
  0
LINE
  5
   2D5
  8
0
  6
CONTINUOUS
 62
     7
 10
291.277912139893
 20
28.8679571151733
 30
0.0
 11
290.756967709941
 21
25.9135338379664
 31
0.0
  0
LINE
  5
   2D6
  8
0
  6
CONTINUOUS
 62
     7
 10
290.756967709941
 20
-12.4276196076197
 30
0.0
 11
291.277912139893
 21
-15.3820428848267
 31
0.0
  0
LINE
  5
   2D7
  8
0
  6
CONTINUOUS
 62
     7
 10
291.277912139893
 20
-15.3820428848267
 30
0.0
 11
291.798856569844
 21
-12.4276196076197
 31
0.0
  0
ENDBLK
  5
   2D8
  8
0
  6
CONTINUOUS
 62
     7
  0
BLOCK
  5
   2D9
  8
0
  6
CONTINUOUS
 62
     7
  2
*UDIM1484
 70
    65
 10
0.0
 20
0.0
 30
0.0
  3
*UDIM1484
  0
TEXT
  5
   2DA
  8
0
  6
CONTINUOUS
 62
     7
 10
283.630882260198
 20
15.9917984097213
 30
0.0
 40
3.00000002980232
  1
=
 50
449.999999844103
 41
0.933333333333334
 72
     1
 11
282.130882248282
 21
17.0917984247208
 31
0.0
 73
     2
  0
LINE
  5
   2DB
  8
0
  6
CONTINUOUS
 62
     7
 10
263.610153198242
 20
28.8679571151733
 30
0.0
 11
286.630882263184
 21
28.8679571151733
 31
0.0
  0
LINE
  5
   2DC
  8
0
  6
CONTINUOUS
 62
     7
 10
277.942621190886
 20
6.74295711517334
 30
0.0
 11
286.630882263184
 21
6.74295711517334
 31
0.0
  0
LINE
  5
   2DD
  8
0
  6
CONTINUOUS
 62
     7
 10
284.630882263184
 20
28.8679571151733
 30
0.0
 11
284.630882263184
 21
6.74295711517334
 31
0.0
  0
LINE
  5
   2DE
  8
0
  6
CONTINUOUS
 62
     7
 10
285.151826693135
 20
25.9135338379664
 30
0.0
 11
284.630882263184
 21
28.8679571151733
 31
0.0
  0
LINE
  5
   2DF
  8
0
  6
CONTINUOUS
 62
     7
 10
284.630882263184
 20
28.8679571151733
 30
0.0
 11
284.109937833232
 21
25.9135338379664
 31
0.0
  0
LINE
  5
   2E0
  8
0
  6
CONTINUOUS
 62
     7
 10
284.109937833232
 20
9.6973803923803
 30
0.0
 11
284.630882263184
 21
6.74295711517334
 31
0.0
  0
LINE
  5
   2E1
  8
0
  6
CONTINUOUS
 62
     7
 10
284.630882263184
 20
6.74295711517334
 30
0.0
 11
285.151826693135
 21
9.6973803923803
 31
0.0
  0
ENDBLK
  5
   2E2
  8
0
  6
CONTINUOUS
 62
     7
  0
BLOCK
  5
   2E3
  8
0
  6
CONTINUOUS
 62
     7
  2
*UDIM1485
 70
    65
 10
0.0
 20
0.0
 30
0.0
  3
*UDIM1485
  0
TEXT
  5
   2E4
  8
0
  6
CONTINUOUS
 62
     7
 10
283.630882260198
 20
-6.30791567871864
 30
0.0
 40
3.00000002980232
  1
=
 50
449.999999844103
 41
0.933333333333334
 72
     1
 11
282.130882248282
 21
-5.20791566371918
 31
0.0
 73
     2
  0
LINE
  5
   2E5
  8
0
  6
CONTINUOUS
 62
     7
 10
263.610153198242
 20
-15.3820428848267
 30
0.0
 11
286.630882263184
 21
-15.3820428848267
 31
0.0
  0
LINE
  5
   2E6
  8
0
  6
CONTINUOUS
 62
     7
 10
284.630882263184
 20
6.74295711517334
 30
0.0
 11
284.630882263184
 21
-15.3820428848267
 31
0.0
  0
LINE
  5
   2E7
  8
0
  6
CONTINUOUS
 62
     7
 10
285.151826693135
 20
3.78853383796638
 30
0.0
 11
284.630882263184
 21
6.74295711517334
 31
0.0
  0
LINE
  5
   2E8
  8
0
  6
CONTINUOUS
 62
     7
 10
284.630882263184
 20
6.74295711517334
 30
0.0
 11
284.109937833232
 21
3.78853383796638
 31
0.0
  0
LINE
  5
   2E9
  8
0
  6
CONTINUOUS
 62
     7
 10
284.109937833232
 20
-12.4276196076197
 30
0.0
 11
284.630882263184
 21
-15.3820428848267
 31
0.0
  0
LINE
  5
   2EA
  8
0
  6
CONTINUOUS
 62
     7
 10
284.630882263184
 20
-15.3820428848267
 30
0.0
 11
285.151826693135
 21
-12.4276196076197
 31
0.0
  0
ENDBLK
  5
   2EB
  8
0
  6
CONTINUOUS
 62
     7
  0
BLOCK
  5
   2EC
  8
0
  6
CONTINUOUS
 62
     7
  2
*UDIM1486
 70
    65
 10
0.0
 20
0.0
 30
0.0
  3
*UDIM1486
  0
TEXT
  5
   2ED
  8
0
  6
CONTINUOUS
 62
     7
 10
245.918563839787
 20
9.74295700480645
 30
0.0
 40
3.00000002980232
  1
9
 50
449.999999844103
 41
0.933333333333334
 72
     1
 11
244.418563827872
 21
10.8429570198059
 31
0.0
 73
     2
  0
LINE
  5
   2EE
  8
0
  6
CONTINUOUS
 62
     7
 10
264.985153198242
 20
4.49295711517334
 30
0.0
 11
244.918563842773
 21
4.49295711517334
 31
0.0
  0
LINE
  5
   2EF
  8
0
  6
CONTINUOUS
 62
     7
 10
246.918563842773
 20
11.9429570307334
 30
0.0
 11
246.918563842773
 21
4.49295711517334
 31
0.0
  0
LINE
  5
   2F0
  8
0
  6
CONTINUOUS
 62
     7
 10
246.397619412822
 20
9.6973803923803
 30
0.0
 11
246.918563842773
 21
6.74295711517334
 31
0.0
  0
LINE
  5
   2F1
  8
0
  6
CONTINUOUS
 62
     7
 10
246.918563842773
 20
6.74295711517334
 30
0.0
 11
247.439508272725
 21
9.6973803923803
 31
0.0
  0
LINE
  5
   2F2
  8
0
  6
CONTINUOUS
 62
     7
 10
247.439508272725
 20
1.53853383796638
 30
0.0
 11
246.918563842773
 21
4.49295711517334
 31
0.0
  0
LINE
  5
   2F3
  8
0
  6
CONTINUOUS
 62
     7
 10
246.918563842773
 20
4.49295711517334
 30
0.0
 11
246.397619412822
 21
1.53853383796638
 31
0.0
  0
ENDBLK
  5
   2F4
  8
0
  6
CONTINUOUS
 62
     7
  0
BLOCK
  5
   2F5
  8
0
  6
CONTINUOUS
 62
     7
  2
*UDIM1487
 70
    65
 10
0.0
 20
0.0
 30
0.0
  3
*UDIM1487
  0
TEXT
  5
   2F6
  8
0
  6
CONTINUOUS
 62
     7
 10
245.918563835987
 20
-2.67314952522412
 30
0.0
 40
3.00000002980232
  1
39
 50
449.999999844103
 41
0.933333333333333
 72
     1
 11
244.418563827872
 21
-0.17314949631691
 31
0.0
 73
     2
  0
LINE
  5
   2F7
  8
0
  6
CONTINUOUS
 62
     7
 10
264.985153198242
 20
-5.25704288482666
 30
0.0
 11
244.918563842773
 21
-5.25704288482666
 31
0.0
  0
LINE
  5
   2F8
  8
0
  6
CONTINUOUS
 62
     7
 10
246.918563842773
 20
4.49295711517334
 30
0.0
 11
246.918563842773
 21
-5.25704288482666
 31
0.0
  0
LINE
  5
   2F9
  8
0
  6
CONTINUOUS
 62
     7
 10
246.397619412822
 20
7.4473803923803
 30
0.0
 11
246.918563842773
 21
4.49295711517334
 31
0.0
  0
LINE
  5
   2FA
  8
0
  6
CONTINUOUS
 62
     7
 10
246.918563842773
 20
4.49295711517334
 30
0.0
 11
247.439508272725
 21
7.4473803923803
 31
0.0
  0
LINE
  5
   2FB
  8
0
  6
CONTINUOUS
 62
     7
 10
247.439508272725
 20
-8.21146616203362
 30
0.0
 11
246.918563842773
 21
-5.25704288482666
 31
0.0
  0
LINE
  5
   2FC
  8
0
  6
CONTINUOUS
 62
     7
 10
246.918563842773
 20
-5.25704288482666
 30
0.0
 11
246.397619412822
 21
-8.21146616203362
 31
0.0
  0
ENDBLK
  5
   2FD
  8
0
  6
CONTINUOUS
 62
     7
  0
BLOCK
  5
   2FE
  8
0
  6
CONTINUOUS
 62
     7
  2
*UDIM1488
 70
    65
 10
0.0
 20
0.0
 30
0.0
  3
*UDIM1488
  0
TEXT
  5
   2FF
  8
0
  6
CONTINUOUS
 62
     7
 10
246.685153149465
 20
-42.5344133271156
 30
0.0
 40
3.00000002980232
  1
121
 50
359.999999844103
 41
0.933333333333333
 72
     1
 11
250.585153192282
 21
-41.0344133228064
 31
0.0
 73
     2
  0
LINE
  5
   300
  8
0
  6
CONTINUOUS
 62
     7
 10
235.735153198242
 20
-23.9282515593607
 30
0.0
 11
235.735153198242
 21
-45.5344133377075
 31
0.0
  0
LINE
  5
   301
  8
0
  6
CONTINUOUS
 62
     7
 10
265.985153198242
 20
-7.00704288482666
 30
0.0
 11
265.985153198242
 21
-45.5344133377075
 31
0.0
  0
LINE
  5
   302
  8
0
  6
CONTINUOUS
 62
     7
 10
235.735153198242
 20
-43.5344133377075
 30
0.0
 11
265.985153198242
 21
-43.5344133377075
 31
0.0
  0
LINE
  5
   303
  8
0
  6
CONTINUOUS
 62
     7
 10
238.689576475449
 20
-43.0134689077559
 30
0.0
 11
235.735153198242
 21
-43.5344133377075
 31
0.0
  0
LINE
  5
   304
  8
0
  6
CONTINUOUS
 62
     7
 10
235.735153198242
 20
-43.5344133377075
 30
0.0
 11
238.689576475449
 21
-44.0553577676592
 31
0.0
  0
LINE
  5
   305
  8
0
  6
CONTINUOUS
 62
     7
 10
263.030729921035
 20
-44.0553577676592
 30
0.0
 11
265.985153198242
 21
-43.5344133377075
 31
0.0
  0
LINE
  5
   306
  8
0
  6
CONTINUOUS
 62
     7
 10
265.985153198242
 20
-43.5344133377075
 30
0.0
 11
263.030729921035
 21
-43.0134689077559
 31
0.0
  0
ENDBLK
  5
   307
  8
0
  6
CONTINUOUS
 62
     7
  0
BLOCK
  5
   308
  8
0
  6
CONTINUOUS
 62
     7
  2
*UDIM1489
 70
    65
 10
0.0
 20
0.0
 30
0.0
  3
*UDIM1489
  0
TEXT
  5
   309
  8
0
  6
CONTINUOUS
 62
     7
 10
270.561349363028
 20
-23.8441076210789
 30
0.0
 40
3.00000002980232
  1
16
 50
359.999999844103
 41
0.933333333333333
 72
     1
 11
273.061349391937
 21
-22.3441076129675
 31
0.0
 73
     2
  0
LINE
  5
   30A
  8
0
  6
CONTINUOUS
 62
     7
 10
263.985153198242
 20
-4.25704288482666
 30
0.0
 11
263.985153198242
 21
-26.8441076278687
 31
0.0
  0
LINE
  5
   30B
  8
0
  6
CONTINUOUS
 62
     7
 10
267.985153198242
 20
-4.25704288482666
 30
0.0
 11
267.985153198242
 21
-26.8441076278687
 31
0.0
  0
LINE
  5
   30C
  8
0
  6
CONTINUOUS
 62
     7
 10
263.985153198242
 20
-24.8441076278687
 30
0.0
 11
275.561349416773
 21
-24.8441076278687
 31
0.0
  0
LINE
  5
   30D
  8
0
  6
CONTINUOUS
 62
     7
 10
261.030729921035
 20
-25.3650520578203
 30
0.0
 11
263.985153198242
 21
-24.8441076278687
 31
0.0
  0
LINE
  5
   30E
  8
0
  6
CONTINUOUS
 62
     7
 10
263.985153198242
 20
-24.8441076278687
 30
0.0
 11
261.030729921035
 21
-24.323163197917
 31
0.0
  0
LINE
  5
   30F
  8
0
  6
CONTINUOUS
 62
     7
 10
270.939576475449
 20
-24.323163197917
 30
0.0
 11
267.985153198242
 21
-24.8441076278687
 31
0.0
  0
LINE
  5
   310
  8
0
  6
CONTINUOUS
 62
     7
 10
267.985153198242
 20
-24.8441076278687
 30
0.0
 11
270.939576475449
 21
-25.3650520578203
 31
0.0
  0
ENDBLK
  5
   311
  8
0
  6
CONTINUOUS
 62
     7
  0
BLOCK
  5
   312
  8
0
  6
CONTINUOUS
 62
     7
  2
*UDIM1490
 70
    65
 10
0.0
 20
0.0
 30
0.0
  3
*UDIM1490
  0
TEXT
  5
   313
  8
0
  6
CONTINUOUS
 62
     7
 10
233.697653121649
 20
-36.6021165665814
 30
0.0
 40
3.00000002980232
  1
162,5
 50
359.999999844103
 41
0.933333333333333
 72
     1
 11
240.397653192282
 21
-35.1021165698767
 31
0.0
 73
     2
  0
LINE
  5
   314
  8
0
  6
CONTINUOUS
 62
     7
 10
220.360153198242
 20
-18.0070428848267
 30
0.0
 11
220.360153198242
 21
-39.6021165847778
 31
0.0
  0
LINE
  5
   315
  8
0
  6
CONTINUOUS
 62
     7
 10
260.985153198242
 20
-18.0070428848267
 30
0.0
 11
260.985153198242
 21
-39.6021165847778
 31
0.0
  0
LINE
  5
   316
  8
0
  6
CONTINUOUS
 62
     7
 10
220.360153198242
 20
-37.6021165847778
 30
0.0
 11
260.985153198242
 21
-37.6021165847778
 31
0.0
  0
LINE
  5
   317
  8
0
  6
CONTINUOUS
 62
     7
 10
223.314576475449
 20
-37.0811721548262
 30
0.0
 11
220.360153198242
 21
-37.6021165847778
 31
0.0
  0
LINE
  5
   318
  8
0
  6
CONTINUOUS
 62
     7
 10
220.360153198242
 20
-37.6021165847778
 30
0.0
 11
223.314576475449
 21
-38.1230610147295
 31
0.0
  0
LINE
  5
   319
  8
0
  6
CONTINUOUS
 62
     7
 10
258.030729921035
 20
-38.1230610147295
 30
0.0
 11
260.985153198242
 21
-37.6021165847778
 31
0.0
  0
LINE
  5
   31A
  8
0
  6
CONTINUOUS
 62
     7
 10
260.985153198242
 20
-37.6021165847778
 30
0.0
 11
258.030729921035
 21
-37.0811721548262
 31
0.0
  0
ENDBLK
  5
   31B
  8
0
  6
CONTINUOUS
 62
     7
  0
BLOCK
  5
   31C
  8
0
  6
CONTINUOUS
 62
     7
  2
*UDIM1491
 70
    65
 10
0.0
 20
0.0
 30
0.0
  3
*UDIM1491
  0
TEXT
  5
   31D
  8
0
  6
CONTINUOUS
 62
     7
 10
244.185153149465
 20
-29.9550866974769
 30
0.0
 40
3.00000002980232
  1
101
 50
359.999999844103
 41
0.933333333333333
 72
     1
 11
248.085153192282
 21
-28.4550866931677
 31
0.0
 73
     2
  0
LINE
  5
   31E
  8
0
  6
CONTINUOUS
 62
     7
 10
235.735153198242
 20
-23.9282515593607
 30
0.0
 11
235.735153198242
 21
-32.9550867080689
 31
0.0
  0
LINE
  5
   31F
  8
0
  6
CONTINUOUS
 62
     7
 10
260.985153198242
 20
-18.0070428848267
 30
0.0
 11
260.985153198242
 21
-32.9550867080689
 31
0.0
  0
LINE
  5
   320
  8
0
  6
CONTINUOUS
 62
     7
 10
235.735153198242
 20
-30.9550867080688
 30
0.0
 11
260.985153198242
 21
-30.9550867080688
 31
0.0
  0
LINE
  5
   321
  8
0
  6
CONTINUOUS
 62
     7
 10
238.689576475449
 20
-30.4341422781172
 30
0.0
 11
235.735153198242
 21
-30.9550867080688
 31
0.0
  0
LINE
  5
   322
  8
0
  6
CONTINUOUS
 62
     7
 10
235.735153198242
 20
-30.9550867080688
 30
0.0
 11
238.689576475449
 21
-31.4760311380205
 31
0.0
  0
LINE
  5
   323
  8
0
  6
CONTINUOUS
 62
     7
 10
258.030729921035
 20
-31.4760311380205
 30
0.0
 11
260.985153198242
 21
-30.9550867080688
 31
0.0
  0
LINE
  5
   324
  8
0
  6
CONTINUOUS
 62
     7
 10
260.985153198242
 20
-30.9550867080688
 30
0.0
 11
258.030729921035
 21
-30.4341422781172
 31
0.0
  0
ENDBLK
  5
   325
  8
0
  6
CONTINUOUS
 62
     7
  0
BLOCK
  5
   326
  8
0
  6
CONTINUOUS
 62
     7
  2
*UDIM1492
 70
    65
 10
0.0
 20
0.0
 30
0.0
  3
*UDIM1492
  0
TEXT
  5
   327
  8
0
  6
CONTINUOUS
 62
     7
 10
218.88515350908
 20
-23.1651105698773
 30
0.0
 40
3.00000002980232
  1
19,75
 50
359.999999844103
 41
0.933333333333333
 72
     1
 11
225.585153579712
 21
-21.6651105731726
 31
0.0
 73
     2
  0
LINE
  5
   328
  8
0
  6
CONTINUOUS
 62
     7
 10
235.735153198242
 20
-23.9282515593607
 30
0.0
 11
235.735153198242
 21
-26.1651105880737
 31
0.0
  0
LINE
  5
   329
  8
0
  6
CONTINUOUS
 62
     7
 10
240.672653198242
 20
-18.0070428848267
 30
0.0
 11
240.672653198242
 21
-26.1651105880737
 31
0.0
  0
LINE
  5
   32A
  8
0
  6
CONTINUOUS
 62
     7
 10
218.885153513153
 20
-24.1651105880737
 30
0.0
 11
240.672653198242
 21
-24.1651105880737
 31
0.0
  0
LINE
  5
   32B
  8
0
  6
CONTINUOUS
 62
     7
 10
232.780729921035
 20
-24.6860550180254
 30
0.0
 11
235.735153198242
 21
-24.1651105880737
 31
0.0
  0
LINE
  5
   32C
  8
0
  6
CONTINUOUS
 62
     7
 10
235.735153198242
 20
-24.1651105880737
 30
0.0
 11
232.780729921035
 21
-23.6441661581221
 31
0.0
  0
LINE
  5
   32D
  8
0
  6
CONTINUOUS
 62
     7
 10
243.627076475449
 20
-23.6441661581221
 30
0.0
 11
240.672653198242
 21
-24.1651105880737
 31
0.0
  0
LINE
  5
   32E
  8
0
  6
CONTINUOUS
 62
     7
 10
240.672653198242
 20
-24.1651105880737
 30
0.0
 11
243.627076475449
 21
-24.6860550180254
 31
0.0
  0
ENDBLK
  5
   32F
  8
0
  6
CONTINUOUS
 62
     7
  0
BLOCK
  5
   330
  8
0
  6
CONTINUOUS
 62
     7
  2
*UDIM1493
 70
    65
 10
0.0
 20
0.0
 30
0.0
  3
*UDIM1493
  0
TEXT
  5
   331
  8
0
  6
CONTINUOUS
 62
     7
 10
230.435153149465
 20
49.2091856108727
 30
0.0
 40
3.00000002980232
  1
170
 50
359.999999844103
 41
0.933333333333333
 72
     1
 11
234.335153192282
 21
50.7091856151819
 31
0.0
 73
     2
  0
LINE
  5
   332
  8
0
  6
CONTINUOUS
 62
     7
 10
213.360153198242
 20
27.8679571151733
 30
0.0
 11
213.360153198242
 21
50.2091856002808
 31
0.0
  0
LINE
  5
   333
  8
0
  6
CONTINUOUS
 62
     7
 10
255.860153198242
 20
27.8679571151733
 30
0.0
 11
255.860153198242
 21
50.2091856002808
 31
0.0
  0
LINE
  5
   334
  8
0
  6
CONTINUOUS
 62
     7
 10
213.360153198242
 20
48.2091856002808
 30
0.0
 11
255.860153198242
 21
48.2091856002808
 31
0.0
  0
LINE
  5
   335
  8
0
  6
CONTINUOUS
 62
     7
 10
216.314576475449
 20
48.7301300302324
 30
0.0
 11
213.360153198242
 21
48.2091856002808
 31
0.0
  0
LINE
  5
   336
  8
0
  6
CONTINUOUS
 62
     7
 10
213.360153198242
 20
48.2091856002808
 30
0.0
 11
216.314576475449
 21
47.6882411703291
 31
0.0
  0
LINE
  5
   337
  8
0
  6
CONTINUOUS
 62
     7
 10
252.905729921035
 20
47.6882411703291
 30
0.0
 11
255.860153198242
 21
48.2091856002808
 31
0.0
  0
LINE
  5
   338
  8
0
  6
CONTINUOUS
 62
     7
 10
255.860153198242
 20
48.2091856002808
 30
0.0
 11
252.905729921035
 21
48.7301300302324
 31
0.0
  0
ENDBLK
  5
   339
  8
0
  6
CONTINUOUS
 62
     7
  0
BLOCK
  5
   33A
  8
0
  6
CONTINUOUS
 62
     7
  2
*UDIM1494
 70
    65
 10
0.0
 20
0.0
 30
0.0
  3
*UDIM1494
  0
TEXT
  5
   33B
  8
0
  6
CONTINUOUS
 62
     7
 10
240.222653135557
 20
43.5985212469992
 30
0.0
 40
3.00000002980232
  1
80,5
 50
359.999999844103
 41
0.933333333333333
 72
     1
 11
245.522653192282
 21
45.0985212475061
 31
0.0
 73
     2
  0
LINE
  5
   33C
  8
0
  6
CONTINUOUS
 62
     7
 10
235.735153198242
 20
38.8206550297931
 30
0.0
 11
235.735153198242
 21
44.598521232605
 31
0.0
  0
LINE
  5
   33D
  8
0
  6
CONTINUOUS
 62
     7
 10
255.860153198242
 20
27.8679571151733
 30
0.0
 11
255.860153198242
 21
44.598521232605
 31
0.0
  0
LINE
  5
   33E
  8
0
  6
CONTINUOUS
 62
     7
 10
235.735153198242
 20
42.598521232605
 30
0.0
 11
255.860153198242
 21
42.598521232605
 31
0.0
  0
LINE
  5
   33F
  8
0
  6
CONTINUOUS
 62
     7
 10
238.689576475449
 20
43.1194656625566
 30
0.0
 11
235.735153198242
 21
42.598521232605
 31
0.0
  0
LINE
  5
   340
  8
0
  6
CONTINUOUS
 62
     7
 10
235.735153198242
 20
42.598521232605
 30
0.0
 11
238.689576475449
 21
42.0775768026533
 31
0.0
  0
LINE
  5
   341
  8
0
  6
CONTINUOUS
 62
     7
 10
252.905729921035
 20
42.0775768026533
 30
0.0
 11
255.860153198242
 21
42.598521232605
 31
0.0
  0
LINE
  5
   342
  8
0
  6
CONTINUOUS
 62
     7
 10
255.860153198242
 20
42.598521232605
 30
0.0
 11
252.905729921035
 21
43.1194656625566
 31
0.0
  0
ENDBLK
  5
   343
  8
0
  6
CONTINUOUS
 62
     7
  0
BLOCK
  5
   344
  8
0
  6
CONTINUOUS
 62
     7
  2
*UDIM1495
 70
    65
 10
0.0
 20
0.0
 30
0.0
  3
*UDIM1495
  0
TEXT
  5
   345
  8
0
  6
CONTINUOUS
 62
     7
 10
238.589773477017
 20
38.2022752829738
 30
0.0
 40
3.00000002980232
  1
45
 50
359.999999844103
 41
0.933333333333333
 72
     1
 11
241.089773505926
 21
39.7022752910852
 31
0.0
 73
     2
  0
LINE
  5
   346
  8
0
  6
CONTINUOUS
 62
     7
 10
235.047653198242
 20
31.9129571151733
 30
0.0
 11
235.047653198242
 21
39.2022752761841
 31
0.0
  0
LINE
  5
   347
  8
0
  6
CONTINUOUS
 62
     7
 10
246.297653198242
 20
31.9129571151733
 30
0.0
 11
246.297653198242
 21
39.2022752761841
 31
0.0
  0
LINE
  5
   348
  8
0
  6
CONTINUOUS
 62
     7
 10
235.047653198242
 20
37.2022752761841
 30
0.0
 11
246.297653198242
 21
37.2022752761841
 31
0.0
  0
LINE
  5
   349
  8
0
  6
CONTINUOUS
 62
     7
 10
232.093229921035
 20
36.6813308462324
 30
0.0
 11
235.047653198242
 21
37.2022752761841
 31
0.0
  0
LINE
  5
   34A
  8
0
  6
CONTINUOUS
 62
     7
 10
235.047653198242
 20
37.2022752761841
 30
0.0
 11
232.093229921035
 21
37.7232197061358
 31
0.0
  0
LINE
  5
   34B
  8
0
  6
CONTINUOUS
 62
     7
 10
249.252076475449
 20
37.7232197061357
 30
0.0
 11
246.297653198242
 21
37.2022752761841
 31
0.0
  0
LINE
  5
   34C
  8
0
  6
CONTINUOUS
 62
     7
 10
246.297653198242
 20
37.2022752761841
 30
0.0
 11
249.252076475449
 21
36.6813308462324
 31
0.0
  0
ENDBLK
  5
   34D
  8
0
  6
CONTINUOUS
 62
     7
  0
BLOCK
  5
   34E
  8
0
  6
CONTINUOUS
 62
     7
  2
*HATCH301
 70
    65
 10
0.0
 20
0.0
 30
0.0
  3
*HATCH301
  0
LINE
  5
   34F
  8
0
  6
CONTINUOUS
 62
    52
 10
-11.7279224395752
 20
1.0
 30
0.0
 11
-11.9763488769531
 21
0.75157368183136
 31
0.0
  0
LINE
  5
   350
  8
0
  6
CONTINUOUS
 62
    52
 10
-9.60660171508789
 20
1.0
 30
0.0
 11
-11.6066026687622
 21
-1.0
 31
0.0
  0
LINE
  5
   351
  8
0
  6
CONTINUOUS
 62
    52
 10
-7.48528146743774
 20
1.0
 30
0.0
 11
-9.48528289794922
 21
-1.0
 31
0.0
  0
LINE
  5
   352
  8
0
  6
CONTINUOUS
 62
    52
 10
-5.3639612197876
 20
1.0
 30
0.0
 11
-7.36396265029907
 21
-1.0
 31
0.0
  0
LINE
  5
   353
  8
0
  6
CONTINUOUS
 62
    52
 10
-3.47947335243225
 20
0.763167560100555
 30
0.0
 11
-5.24264097213745
 21
-1.0
 31
0.0
  0
LINE
  5
   354
  8
0
  6
CONTINUOUS
 62
    52
 10
-2.51160907745361
 20
-0.390288293361664
 30
0.0
 11
-3.1213207244873
 21
-1.0
 31
0.0
  0
ENDBLK
  5
   355
  8
0
  6
CONTINUOUS
 62
     7
  0
BLOCK
  5
   356
  8
0
  6
CONTINUOUS
 62
     7
  2
*HATCH302
 70
    65
 10
0.0
 20
0.0
 30
0.0
  3
*HATCH302
  0
LINE
  5
   357
  8
0
  6
CONTINUOUS
 62
    52
 10
5.24264097213745
 20
1.0
 30
0.0
 11
3.24264073371887
 21
-1.0
 31
0.0
  0
LINE
  5
   358
  8
0
  6
CONTINUOUS
 62
    52
 10
7.3639612197876
 20
1.0
 30
0.0
 11
5.3639612197876
 21
-1.0
 31
0.0
  0
LINE
  5
   359
  8
0
  6
CONTINUOUS
 62
    52
 10
9.48528099060059
 20
1.0
 30
0.0
 11
7.4852819442749
 21
-1.0
 31
0.0
  0
ENDBLK
  5
   35A
  8
0
  6
CONTINUOUS
 62
     7
  0
BLOCK
  5
   35B
  8
0
  6
CONTINUOUS
 62
     7
  2
*UDIM1496
 70
    65
 10
0.0
 20
0.0
 30
0.0
  3
*UDIM1496
  0
TEXT
  5
   35C
  8
0
  6
CONTINUOUS
 62
     7
 10
73.5094125308258
 20
-164.208919597934
 30
0.0
 40
3.00000002980232
  1
80
 50
449.241125536518
 41
0.933333333333333
 72
     1
 11
72.0426552608911
 21
-161.68927214641
 31
0.0
 73
     2
  0
TEXT
  5
   35D
  8
0
  6
CONTINUOUS
 62
     7
 10
72.9756874965642
 20
-159.201411426488
 30
0.0
 40
3.00000002980232
  1
°
 50
449.241125536518
 41
0.933333333333334
 72
     1
 11
71.4903879674025
 21
-158.081641192281
 31
0.0
 73
     2
  0
LINE
  5
   35E
  8
0
  6
CONTINUOUS
 62
     7
 10
56.4469831638221
 20
-164.635378961885
 30
0.0
 11
70.6489503300526
 21
-176.552244373061
 31
0.0
  0
LINE
  5
   35F
  8
0
  6
CONTINUOUS
 62
     7
 10
56.4469831638221
 20
-155.993405217803
 30
0.0
 11
70.6489503300526
 21
-144.076539806627
 31
0.0
  0
ARC
  5
   360
  8
0
  6
CONTINUOUS
 62
     7
 10
51.2974315355147
 20
-160.314392089844
 30
0.0
 40
23.2616136940404
 50
319.999999815233
 51
399.999999769042
  0
LINE
  5
   361
  8
0
  6
CONTINUOUS
 62
     7
 10
70.6168615344345
 20
-172.668592994654
 30
0.0
 11
69.1168614438147
 21
-175.266669153688
 31
0.0
  0
LINE
  5
   362
  8
0
  6
CONTINUOUS
 62
     7
 10
69.1168614438147
 20
-175.266669153688
 30
0.0
 11
71.414994705911
 21
-173.33830624447
 31
0.0
  0
LINE
  5
   363
  8
0
  6
CONTINUOUS
 62
     7
 10
71.414994705911
 20
-147.290477935218
 30
0.0
 11
69.1168614438147
 21
-145.362115026
 31
0.0
  0
LINE
  5
   364
  8
0
  6
CONTINUOUS
 62
     7
 10
69.1168614438147
 20
-145.362115026
 30
0.0
 11
70.6168615344345
 21
-147.960191185034
 31
0.0
  0
ENDBLK
  5
   365
  8
0
  6
CONTINUOUS
 62
     7
  0
BLOCK
  5
   366
  8
0
  6
CONTINUOUS
 62
     7
  2
*UDIM1497
 70
    65
 10
0.0
 20
0.0
 30
0.0
  3
*UDIM1497
  0
TEXT
  5
   367
  8
0
  6
CONTINUOUS
 62
     7
 10
33.2352714470709
 20
-154.429325132667
 30
0.0
 40
3.00000002980232
  1
Ø4
 50
449.999999844103
 41
0.933333333333333
 72
     1
 11
31.7352714389563
 21
-151.92932510376
 31
0.0
 73
     2
  0
LINE
  5
   368
  8
0
  6
CONTINUOUS
 62
     7
 10
52.6809387207031
 20
-158.314392089844
 30
0.0
 11
32.2352714538574
 21
-158.314392089844
 31
0.0
  0
LINE
  5
   369
  8
0
  6
CONTINUOUS
 62
     7
 10
52.6809387207031
 20
-162.314392089844
 30
0.0
 11
32.2352714538574
 21
-162.314392089844
 31
0.0
  0
LINE
  5
   36A
  8
0
  6
CONTINUOUS
 62
     7
 10
34.2352714538574
 20
-149.429325078925
 30
0.0
 11
34.2352714538574
 21
-162.314392089844
 31
0.0
  0
LINE
  5
   36B
  8
0
  6
CONTINUOUS
 62
     7
 10
33.7143270239058
 20
-155.359968812637
 30
0.0
 11
34.2352714538574
 21
-158.314392089844
 31
0.0
  0
LINE
  5
   36C
  8
0
  6
CONTINUOUS
 62
     7
 10
34.2352714538574
 20
-158.314392089844
 30
0.0
 11
34.7562158838091
 21
-155.359968812637
 31
0.0
  0
LINE
  5
   36D
  8
0
  6
CONTINUOUS
 62
     7
 10
34.7562158838091
 20
-165.268815367051
 30
0.0
 11
34.2352714538574
 21
-162.314392089844
 31
0.0
  0
LINE
  5
   36E
  8
0
  6
CONTINUOUS
 62
     7
 10
34.2352714538574
 20
-162.314392089844
 30
0.0
 11
33.7143270239058
 21
-165.268815367051
 31
0.0
  0
ENDBLK
  5
   36F
  8
0
  6
CONTINUOUS
 62
     7
  0
BLOCK
  5
   370
  8
0
  6
CONTINUOUS
 62
     7
  2
*UDIM1498
 70
    65
 10
0.0
 20
0.0
 30
0.0
  3
*UDIM1498
  0
TEXT
  5
   371
  8
0
  6
CONTINUOUS
 62
     7
 10
-37.726063454269
 20
-123.256221199244
 30
0.0
 40
2.99999995513396
  1
214
 50
359.999999896069
 41
0.933333333333333
 72
     1
 11
-33.8260635098815
 21
-121.756221228732
 31
0.0
 73
     2
  0
LINE
  5
   372
  8
0
  6
CONTINUOUS
 62
     7
 10
-10.0110636651516
 20
-128.611661545932
 30
0.0
 11
-10.0110636651516
 21
-122.256221206299
 31
0.0
  0
LINE
  5
   373
  8
0
  6
CONTINUOUS
 62
     7
 10
-57.0910634100437
 20
-128.611661545932
 30
0.0
 11
-57.0910634100437
 21
-122.256221206299
 31
0.0
  0
LINE
  5
   374
  8
0
  6
CONTINUOUS
 62
     7
 10
-10.0110636651516
 20
-124.256221206299
 30
0.0
 11
-57.0910634100437
 21
-124.256221206299
 31
0.0
  0
LINE
  5
   375
  8
0
  6
CONTINUOUS
 62
     7
 10
-12.9654869423586
 20
-124.777165636251
 30
0.0
 11
-10.0110636651516
 21
-124.256221206299
 31
0.0
  0
LINE
  5
   376
  8
0
  6
CONTINUOUS
 62
     7
 10
-10.0110636651516
 20
-124.256221206299
 30
0.0
 11
-12.9654869423586
 21
-123.735276776347
 31
0.0
  0
LINE
  5
   377
  8
0
  6
CONTINUOUS
 62
     7
 10
-54.1366401328368
 20
-123.735276776347
 30
0.0
 11
-57.0910634100437
 21
-124.256221206299
 31
0.0
  0
LINE
  5
   378
  8
0
  6
CONTINUOUS
 62
     7
 10
-57.0910634100437
 20
-124.256221206299
 30
0.0
 11
-54.1366401328368
 21
-124.777165636251
 31
0.0
  0
ENDBLK
  5
   379
  8
0
  6
CONTINUOUS
 62
     7
  0
BLOCK
  5
   37A
  8
0
  6
CONTINUOUS
 62
     7
  2
*UDIM1499
 70
    65
 10
0.0
 20
0.0
 30
0.0
  3
*UDIM1499
  0
TEXT
  5
   37B
  8
0
  6
CONTINUOUS
 62
     7
 10
-79.5032239481315
 20
-142.62804323728
 30
0.0
 40
2.99999995513396
  1
77,5
 50
449.999999896069
 41
0.933333333333333
 72
     1
 11
-81.0032239161179
 21
-137.328043313832
 31
0.0
 73
     2
  0
LINE
  5
   37C
  8
0
  6
CONTINUOUS
 62
     7
 10
-57.6510634124279
 20
-129.171661548316
 30
0.0
 11
-80.503223938551
 21
-129.171661548316
 31
0.0
  0
LINE
  5
   37D
  8
0
  6
CONTINUOUS
 62
     7
 10
-57.6510634124279
 20
-146.221661455929
 30
0.0
 11
-80.503223938551
 21
-146.221661455929
 31
0.0
  0
LINE
  5
   37E
  8
0
  6
CONTINUOUS
 62
     7
 10
-78.5032239385509
 20
-129.171661548316
 30
0.0
 11
-78.5032239385509
 21
-146.221661455929
 31
0.0
  0
LINE
  5
   37F
  8
0
  6
CONTINUOUS
 62
     7
 10
-77.9822795085993
 20
-132.126084825523
 30
0.0
 11
-78.5032239385509
 21
-129.171661548316
 31
0.0
  0
LINE
  5
   380
  8
0
  6
CONTINUOUS
 62
     7
 10
-78.5032239385509
 20
-129.171661548316
 30
0.0
 11
-79.0241683685026
 21
-132.126084825523
 31
0.0
  0
LINE
  5
   381
  8
0
  6
CONTINUOUS
 62
     7
 10
-79.0241683685026
 20
-143.267238178722
 30
0.0
 11
-78.5032239385509
 21
-146.221661455929
 31
0.0
  0
LINE
  5
   382
  8
0
  6
CONTINUOUS
 62
     7
 10
-78.5032239385509
 20
-146.221661455929
 30
0.0
 11
-77.9822795085993
 21
-143.267238178722
 31
0.0
  0
ENDBLK
  5
   383
  8
0
  6
CONTINUOUS
 62
     7
  0
BLOCK
  5
   384
  8
0
  6
CONTINUOUS
 62
     7
  2
*UDIM1500
 70
    65
 10
0.0
 20
0.0
 30
0.0
  3
*UDIM1500
  0
TEXT
  5
   385
  8
0
  6
CONTINUOUS
 62
     7
 10
-79.5032239481315
 20
-157.184266124123
 30
0.0
 40
2.99999995513396
  1
57,5
 50
449.999999896069
 41
0.933333333333333
 72
     1
 11
-81.0032239161179
 21
-151.884266200675
 31
0.0
 73
     2
  0
LINE
  5
   386
  8
0
  6
CONTINUOUS
 62
     7
 10
-62.8531970875139
 20
-158.871661387384
 30
0.0
 11
-80.503223938551
 21
-158.871661387384
 31
0.0
  0
LINE
  5
   387
  8
0
  6
CONTINUOUS
 62
     7
 10
-78.5032239385509
 20
-146.221661455929
 30
0.0
 11
-78.5032239385509
 21
-158.871661387384
 31
0.0
  0
LINE
  5
   388
  8
0
  6
CONTINUOUS
 62
     7
 10
-79.0241683685026
 20
-143.267238178722
 30
0.0
 11
-78.5032239385509
 21
-146.221661455929
 31
0.0
  0
LINE
  5
   389
  8
0
  6
CONTINUOUS
 62
     7
 10
-78.5032239385509
 20
-146.221661455929
 30
0.0
 11
-77.9822795085993
 21
-143.267238178722
 31
0.0
  0
LINE
  5
   38A
  8
0
  6
CONTINUOUS
 62
     7
 10
-77.9822795085993
 20
-161.826084664591
 30
0.0
 11
-78.5032239385509
 21
-158.871661387384
 31
0.0
  0
LINE
  5
   38B
  8
0
  6
CONTINUOUS
 62
     7
 10
-78.5032239385509
 20
-158.871661387384
 30
0.0
 11
-79.0241683685026
 21
-161.826084664591
 31
0.0
  0
ENDBLK
  5
   38C
  8
0
  6
CONTINUOUS
 62
     7
  0
BLOCK
  5
   38D
  8
0
  6
CONTINUOUS
 62
     7
  2
*UDIM1501
 70
    65
 10
0.0
 20
0.0
 30
0.0
  3
*UDIM1501
  0
TEXT
  5
   38E
  8
0
  6
CONTINUOUS
 62
     7
 10
-79.5032239481315
 20
-173.961661231558
 30
0.0
 40
2.99999995513396
  1
86,5
 50
449.999999896069
 41
0.933333333333333
 72
     1
 11
-81.0032239161179
 21
-168.66166130811
 31
0.0
 73
     2
  0
LINE
  5
   38F
  8
0
  6
CONTINUOUS
 62
     7
 10
-57.6510634124279
 20
-177.901661284268
 30
0.0
 11
-80.503223938551
 21
-177.901661284268
 31
0.0
  0
LINE
  5
   390
  8
0
  6
CONTINUOUS
 62
     7
 10
-78.5032239385509
 20
-158.871661387384
 30
0.0
 11
-78.5032239385509
 21
-177.901661284268
 31
0.0
  0
LINE
  5
   391
  8
0
  6
CONTINUOUS
 62
     7
 10
-77.9822795085993
 20
-161.826084664591
 30
0.0
 11
-78.5032239385509
 21
-158.871661387384
 31
0.0
  0
LINE
  5
   392
  8
0
  6
CONTINUOUS
 62
     7
 10
-78.5032239385509
 20
-158.871661387384
 30
0.0
 11
-79.0241683685026
 21
-161.826084664591
 31
0.0
  0
LINE
  5
   393
  8
0
  6
CONTINUOUS
 62
     7
 10
-79.0241683685026
 20
-174.947238007061
 30
0.0
 11
-78.5032239385509
 21
-177.901661284268
 31
0.0
  0
LINE
  5
   394
  8
0
  6
CONTINUOUS
 62
     7
 10
-78.5032239385509
 20
-177.901661284268
 30
0.0
 11
-77.9822795085993
 21
-174.947238007061
 31
0.0
  0
ENDBLK
  5
   395
  8
0
  6
CONTINUOUS
 62
     7
  0
BLOCK
  5
   396
  8
0
  6
CONTINUOUS
 62
     7
  2
*UDIM1502
 70
    65
 10
0.0
 20
0.0
 30
0.0
  3
*UDIM1502
  0
TEXT
  5
   397
  8
0
  6
CONTINUOUS
 62
     7
 10
-79.5032239481315
 20
-191.310938481299
 30
0.0
 40
2.99999995513396
  1
77,5
 50
449.999999896069
 41
0.933333333333333
 72
     1
 11
-81.0032239161179
 21
-186.010938557851
 31
0.0
 73
     2
  0
LINE
  5
   398
  8
0
  6
CONTINUOUS
 62
     7
 10
-57.6510634124279
 20
-194.951661191881
 30
0.0
 11
-80.503223938551
 21
-194.951661191881
 31
0.0
  0
LINE
  5
   399
  8
0
  6
CONTINUOUS
 62
     7
 10
-78.5032239385509
 20
-177.901661284268
 30
0.0
 11
-78.5032239385509
 21
-194.951661191881
 31
0.0
  0
LINE
  5
   39A
  8
0
  6
CONTINUOUS
 62
     7
 10
-77.9822795085993
 20
-180.856084561475
 30
0.0
 11
-78.5032239385509
 21
-177.901661284268
 31
0.0
  0
LINE
  5
   39B
  8
0
  6
CONTINUOUS
 62
     7
 10
-78.5032239385509
 20
-177.901661284268
 30
0.0
 11
-79.0241683685026
 21
-180.856084561475
 31
0.0
  0
LINE
  5
   39C
  8
0
  6
CONTINUOUS
 62
     7
 10
-79.0241683685026
 20
-191.997237914674
 30
0.0
 11
-78.5032239385509
 21
-194.951661191881
 31
0.0
  0
LINE
  5
   39D
  8
0
  6
CONTINUOUS
 62
     7
 10
-78.5032239385509
 20
-194.951661191881
 30
0.0
 11
-77.9822795085993
 21
-191.997237914674
 31
0.0
  0
ENDBLK
  5
   39E
  8
0
  6
CONTINUOUS
 62
     7
  0
BLOCK
  5
   39F
  8
0
  6
CONTINUOUS
 62
     7
  2
*UDIM1503
 70
    65
 10
0.0
 20
0.0
 30
0.0
  3
*UDIM1503
  0
TEXT
  5
   3A0
  8
0
  6
CONTINUOUS
 62
     7
 10
-1.24165821278851
 20
-178.616278894178
 30
0.0
 40
2.99999995513396
  1
8,5
 50
345.453431325576
 41
0.933333333333333
 72
     1
 11
2.91007282736506
 21
-178.143913730364
 31
0.0
 73
     2
  0
TEXT
  5
   3A1
  8
0
  6
CONTINUOUS
 62
     7
 10
-4.29068119750536
 20
-177.82510346718
 30
0.0
 40
2.99999995513396
  1
Ø
 50
345.453431325576
 41
0.933333333333333
 72
     1
 11
-2.84919280606278
 21
-176.649471248395
 31
0.0
 73
     2
  0
TEXT
  5
   3A2
  8
0
  6
CONTINUOUS
 62
     7
 10
6.84067256775592
 20
-180.713521704359
 30
0.0
 40
2.99999995513396
  1
 - M8
 50
345.453431325576
 41
0.933333333333333
 72
     1
 11
13.7026462566205
 21
-180.944423595517
 31
0.0
 73
     2
  0
LINE
  5
   3A3
  8
0
  6
CONTINUOUS
 62
     7
 10
19.5599527277633
 20
-185.047100702999
 30
0.0
 11
-19.0560910860089
 21
-175.026820334971
 31
0.0
  0
LINE
  5
   3A4
  8
0
  6
CONTINUOUS
 62
     7
 10
-14.2554764597505
 20
-175.734310383763
 30
0.0
 11
-17.2460361560794
 21
-175.496502262175
 31
0.0
  0
LINE
  5
   3A5
  8
0
  6
CONTINUOUS
 62
     7
 10
-17.2460361560794
 20
-175.496502262175
 30
0.0
 11
-14.5171643583082
 21
-176.742800264792
 31
0.0
  0
LINE
  5
   3A6
  8
0
  6
CONTINUOUS
 62
     7
 10
-22.0466507823378
 20
-174.789012213383
 30
0.0
 11
-19.0560910860089
 21
-175.026820334971
 31
0.0
  0
LINE
  5
   3A7
  8
0
  6
CONTINUOUS
 62
     7
 10
-19.0560910860089
 20
-175.026820334971
 30
0.0
 11
-21.7849628837801
 21
-173.780522332354
 31
0.0
  0
ENDBLK
  5
   3A8
  8
0
  6
CONTINUOUS
 62
     7
  0
BLOCK
  5
   3A9
  8
0
  6
CONTINUOUS
 62
     7
  2
*UDIM1504
 70
    65
 10
0.0
 20
0.0
 30
0.0
  3
*UDIM1504
  0
TEXT
  5
   3AA
  8
0
  6
CONTINUOUS
 62
     7
 10
-71.814637561481
 20
-166.236661286768
 30
0.0
 40
2.99999995513396
  1
120
 50
449.999999896069
 41
0.933333333333333
 72
     1
 11
-73.3146375319981
 21
-162.336661342382
 31
0.0
 73
     2
  0
LINE
  5
   3AB
  8
0
  6
CONTINUOUS
 62
     7
 10
-53.0860634371638
 20
-148.861661441624
 30
0.0
 11
-72.8146375544311
 21
-148.861661441624
 31
0.0
  0
LINE
  5
   3AC
  8
0
  6
CONTINUOUS
 62
     7
 10
-53.0860634371638
 20
-175.261661298573
 30
0.0
 11
-72.8146375544311
 21
-175.261661298573
 31
0.0
  0
LINE
  5
   3AD
  8
0
  6
CONTINUOUS
 62
     7
 10
-70.8146375544311
 20
-148.861661441624
 30
0.0
 11
-70.8146375544311
 21
-175.261661298573
 31
0.0
  0
LINE
  5
   3AE
  8
0
  6
CONTINUOUS
 62
     7
 10
-70.2936931244794
 20
-151.816084718831
 30
0.0
 11
-70.8146375544311
 21
-148.861661441624
 31
0.0
  0
LINE
  5
   3AF
  8
0
  6
CONTINUOUS
 62
     7
 10
-70.8146375544311
 20
-148.861661441624
 30
0.0
 11
-71.3355819843828
 21
-151.816084718831
 31
0.0
  0
LINE
  5
   3B0
  8
0
  6
CONTINUOUS
 62
     7
 10
-71.3355819843828
 20
-172.307238021366
 30
0.0
 11
-70.8146375544311
 21
-175.261661298573
 31
0.0
  0
LINE
  5
   3B1
  8
0
  6
CONTINUOUS
 62
     7
 10
-70.8146375544311
 20
-175.261661298573
 30
0.0
 11
-70.2936931244794
 21
-172.307238021366
 31
0.0
  0
ENDBLK
  5
   3B2
  8
0
  6
CONTINUOUS
 62
     7
  0
BLOCK
  5
   3B3
  8
0
  6
CONTINUOUS
 62
     7
  2
*UDIM1505
 70
    65
 10
0.0
 20
0.0
 30
0.0
  3
*UDIM1505
  0
TEXT
  5
   3B4
  8
0
  6
CONTINUOUS
 62
     7
 10
-66.5805872994042
 20
-145.93666217258
 30
0.0
 40
2.99999995513396
  1
45,5
 50
449.999999896069
 41
0.933333333333333
 72
     1
 11
-68.0805872673906
 21
-140.636662249132
 31
0.0
 73
     2
  0
LINE
  5
   3B5
  8
0
  6
CONTINUOUS
 62
     7
 10
-44.815256306924
 20
-148.861661441624
 30
0.0
 11
-67.5805872898236
 21
-148.861661441624
 31
0.0
  0
LINE
  5
   3B6
  8
0
  6
CONTINUOUS
 62
     7
 10
-62.8531970875139
 20
-158.871661387384
 30
0.0
 11
-67.5805872898236
 21
-158.871661387384
 31
0.0
  0
LINE
  5
   3B7
  8
0
  6
CONTINUOUS
 62
     7
 10
-65.5805872898236
 20
-135.336662328395
 30
0.0
 11
-65.5805872898236
 21
-158.871661387384
 31
0.0
  0
LINE
  5
   3B8
  8
0
  6
CONTINUOUS
 62
     7
 10
-66.1015317197753
 20
-145.907238164417
 30
0.0
 11
-65.5805872898236
 21
-148.861661441624
 31
0.0
  0
LINE
  5
   3B9
  8
0
  6
CONTINUOUS
 62
     7
 10
-65.5805872898236
 20
-148.861661441624
 30
0.0
 11
-65.0596428598719
 21
-145.907238164417
 31
0.0
  0
LINE
  5
   3BA
  8
0
  6
CONTINUOUS
 62
     7
 10
-65.0596428598719
 20
-161.826084664591
 30
0.0
 11
-65.5805872898236
 21
-158.871661387384
 31
0.0
  0
LINE
  5
   3BB
  8
0
  6
CONTINUOUS
 62
     7
 10
-65.5805872898236
 20
-158.871661387384
 30
0.0
 11
-66.1015317197753
 21
-161.826084664591
 31
0.0
  0
ENDBLK
  5
   3BC
  8
0
  6
CONTINUOUS
 62
     7
  0
BLOCK
  5
   3BD
  8
0
  6
CONTINUOUS
 62
     7
  2
*UDIM1506
 70
    65
 10
0.0
 20
0.0
 30
0.0
  3
*UDIM1506
  0
TEXT
  5
   3BE
  8
0
  6
CONTINUOUS
 62
     7
 10
-37.726063454269
 20
-134.856296514806
 30
0.0
 40
2.99999995513396
  1
140
 50
359.999999896069
 41
0.933333333333333
 72
     1
 11
-33.8260635098815
 21
-133.356296544294
 31
0.0
 73
     2
  0
LINE
  5
   3BF
  8
0
  6
CONTINUOUS
 62
     7
 10
-18.1510636210442
 20
-144.726661458612
 30
0.0
 11
-18.1510636210442
 21
-133.856296521861
 31
0.0
  0
LINE
  5
   3C0
  8
0
  6
CONTINUOUS
 62
     7
 10
-48.9510634541512
 20
-144.726661458612
 30
0.0
 11
-48.9510634541512
 21
-133.856296521861
 31
0.0
  0
LINE
  5
   3C1
  8
0
  6
CONTINUOUS
 62
     7
 10
-18.1510636210442
 20
-135.856296521861
 30
0.0
 11
-48.9510634541512
 21
-135.856296521861
 31
0.0
  0
LINE
  5
   3C2
  8
0
  6
CONTINUOUS
 62
     7
 10
-21.1054868982511
 20
-136.377240951812
 30
0.0
 11
-18.1510636210442
 21
-135.856296521861
 31
0.0
  0
LINE
  5
   3C3
  8
0
  6
CONTINUOUS
 62
     7
 10
-18.1510636210442
 20
-135.856296521861
 30
0.0
 11
-21.1054868982511
 21
-135.335352091909
 31
0.0
  0
LINE
  5
   3C4
  8
0
  6
CONTINUOUS
 62
     7
 10
-45.9966401769442
 20
-135.335352091909
 30
0.0
 11
-48.9510634541512
 21
-135.856296521861
 31
0.0
  0
LINE
  5
   3C5
  8
0
  6
CONTINUOUS
 62
     7
 10
-48.9510634541512
 20
-135.856296521861
 30
0.0
 11
-45.9966401769442
 21
-136.377240951812
 31
0.0
  0
ENDBLK
  5
   3C6
  8
0
  6
CONTINUOUS
 62
     7
  0
ENDSEC
  0
SECTION
  2
ENTITIES
  0
LINE
  5
   3C7
  8
0
  6
CONTINUOUS
 62
   130
 10
-4.02296004891423
 20
30.2874779462041
 30
0.0
 11
-43.6229423284531
 21
30.2874779462041
 31
0.0
  0
LINE
  5
   3C8
  8
0
  6
CONTINUOUS
 62
     3
 10
-4.6229661613721
 20
-49.1725175157962
 30
0.0
 11
-5.02296614349071
 21
-49.1725175157962
 31
0.0
  0
LINE
  5
   3C9
  8
0
  6
CONTINUOUS
 62
     3
 10
-5.02296614349071
 20
-49.1725175157962
 30
0.0
 11
-22.808598732736
 21
-49.1725175157962
 31
0.0
  0
LINE
  5
   3CA
  8
0
  6
CONTINUOUS
 62
     3
 10
-4.02296004891423
 20
29.0274840309444
 30
0.0
 11
-35.8229482918993
 21
29.0274840309444
 31
0.0
  0
LINE
  5
   3CB
  8
0
  6
CONTINUOUS
 62
     3
 10
-4.02296627958773
 20
-49.1725177701095
 30
0.0
 11
-4.62296628852842
 21
-49.1725177701095
 31
0.0
  0
LINE
  5
   3CC
  8
0
  6
CONTINUOUS
 62
     3
 10
-23.0229445632896
 20
-49.9725189314964
 30
0.0
 11
-22.8085891084729
 21
-49.1725193364115
 31
0.0
  0
LINE
  5
   3CD
  8
0
  6
CONTINUOUS
 62
     3
 10
-22.8229603290575
 20
-49.9725171462474
 30
0.0
 11
-35.8229422122255
 21
-49.9725171462474
 31
0.0
  0
LINE
  5
   3CE
  8
0
  6
CONTINUOUS
 62
     3
 10
-44.6229423433542
 20
-49.9725354567945
 30
0.0
 11
-44.6229423433542
 21
-48.5725256932917
 31
0.0
  0
LINE
  5
   3CF
  8
0
  6
CONTINUOUS
 62
     3
 10
-44.6229423433542
 20
7.4274837090793
 30
0.0
 11
-44.6229423433542
 21
20.4274594887315
 31
0.0
  0
LINE
  5
   3D0
  8
0
  6
CONTINUOUS
 62
     3
 10
-42.6229423135519
 20
20.4274594887315
 30
0.0
 11
-44.6229423433542
 21
20.4274594887315
 31
0.0
  0
LINE
  5
   3D1
  8
0
  6
CONTINUOUS
 62
     3
 10
-41.4229365736245
 20
-49.9725354567945
 30
0.0
 11
-44.6229423433542
 21
-49.9725354567945
 31
0.0
  0
LINE
  5
   3D2
  8
0
  6
CONTINUOUS
 62
     3
 10
-34.6229421943426
 20
7.4274837090793
 30
0.0
 11
-34.6229421943426
 21
19.5059380974363
 31
0.0
  0
LINE
  5
   3D3
  8
0
  6
CONTINUOUS
 62
     3
 10
-34.6229418129205
 20
17.627470571669
 30
0.0
 11
-34.6229414314507
 21
17.8274705746492
 31
0.0
  0
LINE
  5
   3D4
  8
0
  6
CONTINUOUS
 62
     3
 10
-35.8229379867042
 20
29.0274917495871
 30
0.0
 11
-43.1029368744815
 21
29.0274917495871
 31
0.0
  0
LINE
  5
   3D5
  8
0
  6
CONTINUOUS
 62
     3
 10
-35.822942212224
 20
-49.9725171462473
 30
0.0
 11
-42.6229362100362
 21
-49.9725171462473
 31
0.0
  0
LINE
  5
   3D6
  8
0
  6
CONTINUOUS
 62
     3
 10
-43.4229423254728
 20
20.4274594887315
 30
0.0
 11
-43.4229423254728
 21
20.6274655952275
 31
0.0
  0
LINE
  5
   3D7
  8
0
  6
CONTINUOUS
 62
     3
 10
-35.822942212224
 20
19.8274667174646
 30
0.0
 11
-35.822942212224
 21
30.2274779453101
 31
0.0
  0
LINE
  5
   3D8
  8
0
  6
CONTINUOUS
 62
     3
 10
-43.4229423254728
 20
20.6274655952275
 30
0.0
 11
-43.6229423284531
 21
20.6274655952275
 31
0.0
  0
LINE
  5
   3D9
  8
0
  6
CONTINUOUS
 62
     3
 10
-43.6229423284531
 20
20.6274655952275
 30
0.0
 11
-43.6229423284531
 21
30.2874779462041
 31
0.0
  0
LINE
  5
   3DA
  8
0
  6
CONTINUOUS
 62
     3
 10
-42.502936846401
 20
20.6274589185699
 30
0.0
 11
-43.4229380815897
 21
20.6274650220855
 31
0.0
  0
LINE
  5
   3DB
  8
0
  6
CONTINUOUS
 62
     3
 10
-43.1029411000013
 20
20.627453388196
 30
0.0
 11
-43.1029411000013
 21
29.0274657203972
 31
0.0
  0
LINE
  5
   3DC
  8
0
  6
CONTINUOUS
 62
     3
 10
-43.4229362219571
 20
20.427471695763
 30
0.0
 11
-44.6229423433542
 21
20.427471695763
 31
0.0
  0
LINE
  5
   3DD
  8
0
  6
CONTINUOUS
 62
     3
 10
-42.6229423135519
 20
7.4274837090793
 30
0.0
 11
-42.6229423135519
 21
20.4274594887315
 31
0.0
  0
LINE
  5
   3DE
  8
0
  6
CONTINUOUS
 62
     3
 10
-34.6229413582143
 20
19.5059332031931
 30
0.0
 11
-35.8229409729875
 21
19.8274663854182
 31
0.0
  0
LINE
  5
   3DF
  8
0
  6
CONTINUOUS
 62
     3
 10
-42.6229345400678
 20
17.1050988602901
 30
0.0
 11
-42.5029394278218
 21
17.1561852798673
 31
0.0
  0
LINE
  5
   3E0
  8
0
  6
CONTINUOUS
 62
     3
 10
-42.5029459519052
 20
18.8987699405835
 30
0.0
 11
-42.6229410703453
 21
18.9498502569755
 31
0.0
  0
LINE
  5
   3E1
  8
0
  6
CONTINUOUS
 62
     3
 10
-4.82296006083516
 20
-75.8525239405812
 30
0.0
 11
-42.5029594016092
 21
-75.8525239405812
 31
0.0
  0
LINE
  5
   3E2
  8
0
  6
CONTINUOUS
 62
     2
 10
-4.82296006083664
 20
-76.9725236520944
 30
0.0
 11
-23.0179127245407
 21
-76.9725236520944
 31
0.0
  0
LINE
  5
   3E3
  8
0
  6
CONTINUOUS
 62
     2
 10
-23.0179249315721
 20
-76.9725236520935
 30
0.0
 11
-43.6229606390017
 21
-76.9725236520935
 31
0.0
  0
LINE
  5
   3E4
  8
0
  6
CONTINUOUS
 62
     3
 10
-4.02296004891571
 20
-49.3725232408226
 30
0.0
 11
-22.8229603290575
 21
-49.3725232408226
 31
0.0
  0
LINE
  5
   3E5
  8
0
  6
CONTINUOUS
 62
     2
 10
-43.6229606390017
 20
-76.9725236520947
 30
0.0
 11
-43.6229606390017
 21
-67.3725296125592
 31
0.0
  0
LINE
  5
   3E6
  8
0
  6
CONTINUOUS
 62
     2
 10
-42.5029609274882
 20
-67.3725296125593
 30
0.0
 11
-44.2229606479424
 21
-67.3725296125593
 31
0.0
  0
LINE
  5
   3E7
  8
0
  6
CONTINUOUS
 62
     3
 10
-42.5029609274882
 20
-75.8525224147022
 30
0.0
 11
-42.5029609274882
 21
-67.3725296125593
 31
0.0
  0
LINE
  5
   3E8
  8
0
  6
CONTINUOUS
 62
     3
 10
-22.8229603290575
 20
-49.972529353279
 30
0.0
 11
-22.8229603290575
 21
-49.3725232408226
 31
0.0
  0
LINE
  5
   3E9
  8
0
  6
CONTINUOUS
 62
     2
 10
-42.5029609274882
 20
-65.7725295887174
 30
0.0
 11
-42.5029609274882
 21
-50.1725232527433
 31
0.0
  0
LINE
  5
   3EA
  8
0
  6
CONTINUOUS
 62
     3
 10
-27.1229603931325
 20
-76.9725236520938
 30
0.0
 11
-27.1229603931325
 21
-75.8525239405803
 31
0.0
  0
LINE
  5
   3EB
  8
0
  6
CONTINUOUS
 62
     2
 10
-4.82296006083664
 20
-77.9725236669956
 30
0.0
 11
-4.82296006083664
 21
-72.7725235895098
 31
0.0
  0
LINE
  5
   3EC
  8
0
  6
CONTINUOUS
 62
     3
 10
-27.0280141026552
 20
-76.972523652094
 30
0.0
 11
-27.0280141026552
 21
-75.8525250849896
 31
0.0
  0
LINE
  5
   3ED
  8
0
  6
CONTINUOUS
 62
     7
 10
-44.6229609590786
 20
-65.7725297826954
 30
0.0
 11
-44.6229609590786
 21
-50.1725295502373
 31
0.0
  0
LINE
  5
   3EE
  8
0
  6
CONTINUOUS
 62
     7
 10
-42.5029609274882
 20
-50.1725295502373
 30
0.0
 11
-44.6229609590786
 21
-50.1725295502373
 31
0.0
  0
LINE
  5
   3EF
  8
0
  6
CONTINUOUS
 62
     7
 10
-42.5029609274882
 20
-65.7725297826954
 30
0.0
 11
-44.6229609590786
 21
-65.7725297826954
 31
0.0
  0
LINE
  5
   3F0
  8
0
  6
CONTINUOUS
 62
     7
 10
-43.6229609441775
 20
-65.7725297826954
 30
0.0
 11
-43.6229609441775
 21
-50.1725295502373
 31
0.0
  0
LINE
  5
   3F1
  8
0
  6
CONTINUOUS
 62
     2
 10
-42.5029609274882
 20
-67.3725296125593
 30
0.0
 11
-42.5029609274882
 21
-65.7725295887174
 31
0.0
  0
LINE
  5
   3F2
  8
0
  6
CONTINUOUS
 62
     7
 10
-41.4229365736245
 20
-50.1725232527433
 30
0.0
 11
-41.4229365736245
 21
-48.5725232289014
 31
0.0
  0
LINE
  5
   3F3
  8
0
  6
CONTINUOUS
 62
     7
 10
-41.4229365736245
 20
-50.1725232527433
 30
0.0
 11
-43.0229367882013
 21
-50.1725232527433
 31
0.0
  0
LINE
  5
   3F4
  8
0
  6
CONTINUOUS
 62
     7
 10
-4.02296004891423
 20
31.2874779611053
 30
0.0
 11
-44.6229423433542
 21
31.2874779611053
 31
0.0
  0
LINE
  5
   3F5
  8
0
  6
CONTINUOUS
 62
     7
 10
-44.6229423433542
 20
20.8274717017234
 30
0.0
 11
-44.6229423433542
 21
31.2874779611053
 31
0.0
  0
LINE
  5
   3F6
  8
0
  6
CONTINUOUS
 62
     7
 10
-4.82296006083664
 20
-77.9725236669956
 30
0.0
 11
-44.6229606539029
 21
-77.9725236669956
 31
0.0
  0
LINE
  5
   3F7
  8
0
  6
CONTINUOUS
 62
     7
 10
-44.6229606539029
 20
-77.9725236669956
 30
0.0
 11
-44.6229606539029
 21
-67.7725296185197
 31
0.0
  0
LINE
  5
   3F8
  8
0
  6
CONTINUOUS
 62
     7
 10
-44.2229423373938
 20
20.8274717017234
 30
0.0
 11
-44.6229423433542
 21
20.8274717017234
 31
0.0
  0
LINE
  5
   3F9
  8
0
  6
CONTINUOUS
 62
     7
 10
-44.2229423373938
 20
20.427471695763
 30
0.0
 11
-44.2229423373938
 21
20.8274717017234
 31
0.0
  0
LINE
  5
   3FA
  8
0
  6
CONTINUOUS
 62
     7
 10
-44.2229606479424
 20
-67.7725296185197
 30
0.0
 11
-44.6229606539029
 21
-67.7725296185197
 31
0.0
  0
LINE
  5
   3FB
  8
0
  6
CONTINUOUS
 62
     7
 10
-44.2229606479424
 20
-67.7725296185197
 30
0.0
 11
-44.2229606479424
 21
-67.3725296125593
 31
0.0
  0
LINE
  5
   3FC
  8
0
  6
CONTINUOUS
 62
     7
 10
-42.4229363977908
 20
-50.1725232527433
 30
0.0
 11
-44.0229368031024
 21
-50.1725232527433
 31
0.0
  0
LINE
  5
   3FD
  8
0
  6
CONTINUOUS
 62
     7
 10
-55.8229158082445
 20
-44.1725277372445
 30
0.0
 11
-55.8229364076108
 21
-42.5725170322502
 31
0.0
  0
LINE
  5
   3FE
  8
0
  6
CONTINUOUS
 62
     3
 10
-50.3434563454329
 20
-46.9725293069968
 30
0.0
 11
-50.2229367055755
 21
-46.9725277811179
 31
0.0
  0
LINE
  5
   3FF
  8
0
  6
CONTINUOUS
 62
     7
 10
-55.8229364075461
 20
-48.572526277878
 30
0.0
 11
-55.8229165711201
 21
-46.9725323575519
 31
0.0
  0
LINE
  5
   400
  8
0
  6
CONTINUOUS
 62
     7
 10
-3.22295987060176
 20
-48.5725735470678
 30
0.0
 11
-4.02295988252268
 21
-48.5725231930631
 31
0.0
  0
LINE
  5
   401
  8
0
  6
CONTINUOUS
 62
     7
 10
-53.822936376929
 20
-48.5725262806593
 30
0.0
 11
-6.02296618223211
 21
-48.5725232289014
 31
0.0
  0
LINE
  5
   402
  8
0
  6
CONTINUOUS
 62
     7
 10
14.1770524293183
 20
7.4274837090793
 30
0.0
 11
-3.22296614050902
 21
7.4274837090793
 31
0.0
  0
LINE
  5
   403
  8
0
  6
CONTINUOUS
 62
     7
 10
14.1770524298158
 20
-48.572623936835
 30
0.0
 11
-3.22296003649585
 21
-48.5725735828313
 31
0.0
  0
LINE
  5
   404
  8
0
  6
CONTINUOUS
 62
     7
 10
14.1770524293755
 20
-48.5726239368759
 30
0.0
 11
14.177058532891
 21
-44.1725368962119
 31
0.0
  0
LINE
  5
   405
  8
0
  6
CONTINUOUS
 62
     3
 10
-19.6229419708252
 20
-5.37251037813985
 30
0.0
 11
-55.8229364067315
 21
-5.37251037813985
 31
0.0
  0
LINE
  5
   406
  8
0
  6
CONTINUOUS
 62
     3
 10
-19.6229419708252
 20
-17.3725288675009
 30
0.0
 11
-33.4229498058559
 21
-17.3725288675009
 31
0.0
  0
LINE
  5
   407
  8
0
  6
CONTINUOUS
 62
     7
 10
-55.8229165703058
 20
-46.9725323603317
 30
0.0
 11
-55.8229158073664
 21
-44.1725277409717
 31
0.0
  0
LINE
  5
   408
  8
0
  6
CONTINUOUS
 62
     7
 10
-3.22296614050902
 20
7.4274837090793
 30
0.0
 11
-55.8229364067315
 21
7.4274837090793
 31
0.0
  0
LINE
  5
   409
  8
0
  6
CONTINUOUS
 62
     7
 10
-55.8229364067315
 20
-5.37251037813985
 30
0.0
 11
-55.8229364067315
 21
7.4274837090793
 31
0.0
  0
LINE
  5
   40A
  8
0
  6
CONTINUOUS
 62
     3
 10
-14.9229663147198
 20
-46.9725079462378
 30
0.0
 11
-4.82296006070237
 21
-46.9724896356908
 31
0.0
  0
LINE
  5
   40B
  8
0
  6
CONTINUOUS
 62
     3
 10
-31.2729421444127
 20
-46.9725171015397
 30
0.0
 11
-16.5229663386834
 21
-46.9725079462665
 31
0.0
  0
LINE
  5
   40C
  8
0
  6
CONTINUOUS
 62
     3
 10
-54.2228928953351
 20
-46.9725323603288
 30
0.0
 11
-32.872941405321
 21
-46.9725186274187
 31
0.0
  0
LINE
  5
   40D
  8
0
  6
CONTINUOUS
 62
     3
 10
-54.2228890806378
 20
-45.17252775587
 30
0.0
 11
-32.8729406423815
 21
-45.1725140229595
 31
0.0
  0
LINE
  5
   40E
  8
0
  6
CONTINUOUS
 62
     3
 10
-31.2729406185337
 20
-45.1725124970806
 30
0.0
 11
-16.5229632869255
 21
-45.1725033418073
 31
0.0
  0
LINE
  5
   40F
  8
0
  6
CONTINUOUS
 62
     3
 10
-14.92296326308
 20
-45.1725018159286
 30
0.0
 11
-4.82296006082041
 21
-45.1724957124129
 31
0.0
  0
LINE
  5
   410
  8
0
  6
CONTINUOUS
 62
     3
 10
-54.2228928953531
 20
-46.9725323602766
 30
0.0
 11
-54.2228898435953
 21
-45.1725277558177
 31
0.0
  0
LINE
  5
   411
  8
0
  6
CONTINUOUS
 62
     3
 10
-4.82296006083516
 20
-46.9724896357232
 30
0.0
 11
-4.82296006083516
 21
-45.1724957124168
 31
0.0
  0
LINE
  5
   412
  8
0
  6
CONTINUOUS
 62
     3
 10
-14.922966314809
 20
-46.9725079462085
 30
0.0
 11
-14.9229632630512
 21
-45.1724941864761
 31
0.0
  0
LINE
  5
   413
  8
0
  6
CONTINUOUS
 62
     3
 10
-16.5229663386532
 20
-46.9725079462137
 30
0.0
 11
-16.5229632868953
 21
-45.1724957123602
 31
0.0
  0
LINE
  5
   414
  8
0
  6
CONTINUOUS
 62
     3
 10
-31.2729421444187
 20
-46.9725171015284
 30
0.0
 11
-31.2729406185398
 21
-45.1725048676749
 31
0.0
  0
LINE
  5
   415
  8
0
  6
CONTINUOUS
 62
     3
 10
-32.8729414053217
 20
-46.9725186274087
 30
0.0
 11
-32.8729398794428
 21
-45.1725048676762
 31
0.0
  0
LINE
  5
   416
  8
0
  6
CONTINUOUS
 62
     7
 10
-41.4229365736245
 20
-50.1725232527433
 30
0.0
 11
-41.4229365736245
 21
-48.5725232289014
 31
0.0
  0
LINE
  5
   417
  8
0
  6
CONTINUOUS
 62
     7
 10
-41.4229365736245
 20
-50.1725232527433
 30
0.0
 11
-43.0229367882013
 21
-50.1725232527433
 31
0.0
  0
LINE
  5
   418
  8
0
  6
CONTINUOUS
 62
     7
 10
-9.52293571680775
 20
-50.1725018904383
 30
0.0
 11
-9.52293571680775
 21
-48.5725293324172
 31
0.0
  0
LINE
  5
   419
  8
0
  6
CONTINUOUS
 62
     7
 10
-7.92293569296589
 20
-50.1725018904383
 30
0.0
 11
-7.92293569296589
 21
-48.5725293324172
 31
0.0
  0
LINE
  5
   41A
  8
0
  6
CONTINUOUS
 62
     7
 10
-7.92293569296589
 20
-50.1725018904383
 30
0.0
 11
-9.52293571680775
 21
-50.1725018904383
 31
0.0
  0
LINE
  5
   41B
  8
0
  6
CONTINUOUS
 62
     7
 10
-53.8229363769292
 20
-50.4725232572137
 30
0.0
 11
-53.8229363769292
 21
-49.4725232423125
 31
0.0
  0
LINE
  5
   41C
  8
0
  6
CONTINUOUS
 62
     7
 10
-55.8229364067315
 20
-50.4725232572137
 30
0.0
 11
-55.8229364067315
 21
-48.5725262806593
 31
0.0
  0
LINE
  5
   41D
  8
0
  6
CONTINUOUS
 62
     7
 10
-53.8229363769292
 20
-50.4725232572137
 30
0.0
 11
-55.8229364067315
 21
-50.4725232572137
 31
0.0
  0
LINE
  5
   41E
  8
0
  6
CONTINUOUS
 62
     7
 10
-53.8229363769292
 20
-49.4725232423125
 30
0.0
 11
-53.8229363769292
 21
-48.5725232289014
 31
0.0
  0
LINE
  5
   41F
  8
0
  6
CONTINUOUS
 62
     7
 10
-6.02297228574798
 20
-50.4725232572137
 30
0.0
 11
-6.02297228574798
 21
-49.4725232423125
 31
0.0
  0
LINE
  5
   420
  8
0
  6
CONTINUOUS
 62
     7
 10
-4.02297225594566
 20
-50.4725232572137
 30
0.0
 11
-6.02297228574798
 21
-50.4725232572137
 31
0.0
  0
LINE
  5
   421
  8
0
  6
CONTINUOUS
 62
     7
 10
-4.02297225509534
 20
-50.4725232565452
 30
0.0
 11
-4.02296004806382
 21
-48.572523228233
 31
0.0
  0
LINE
  5
   422
  8
0
  6
CONTINUOUS
 62
     7
 10
-6.02297228484654
 20
-49.4725232415217
 30
0.0
 11
-6.02296618133083
 21
-48.5725293316263
 31
0.0
  0
LINE
  5
   423
  8
0
  6
CONTINUOUS
 62
     3
 10
-53.0229393643954
 20
-0.77250340742998
 30
0.0
 11
-54.2229394086375
 21
0.427496636812123
 31
0.0
  0
LINE
  5
   424
  8
0
  6
CONTINUOUS
 62
     7
 10
-55.8229364067315
 20
-42.5725170359788
 30
0.0
 11
-55.8229364067315
 21
-17.3725197122274
 31
0.0
  0
LINE
  5
   425
  8
0
  6
CONTINUOUS
 62
     3
 10
-33.422951331735
 20
-17.3725227639847
 30
0.0
 11
-55.8229364067317
 21
-17.3725197122269
 31
0.0
  0
LINE
  5
   426
  8
0
  6
CONTINUOUS
 62
     3
 10
-19.6229419708252
 20
-17.3725288675009
 30
0.0
 11
-19.6229419708252
 21
-5.37251037813985
 31
0.0
  0
LINE
  5
   427
  8
0
  6
CONTINUOUS
 62
     3
 10
-14.9229663148379
 20
2.12748363011556
 30
0.0
 11
-4.82296006082041
 21
2.12748973363144
 31
0.0
  0
LINE
  5
   428
  8
0
  6
CONTINUOUS
 62
     3
 10
-14.9229663148526
 20
-0.772516413110225
 30
0.0
 11
-14.9229663148526
 21
2.12748363010314
 31
0.0
  0
LINE
  5
   429
  8
0
  6
CONTINUOUS
 62
     3
 10
-14.9229663148379
 20
-0.772516413098344
 30
0.0
 11
-4.82296006082041
 21
-0.772510309582486
 31
0.0
  0
LINE
  5
   42A
  8
0
  6
CONTINUOUS
 62
     3
 10
-4.82296006083516
 20
-0.772510309594509
 30
0.0
 11
-4.82296006083516
 21
2.12748973361886
 31
0.0
  0
LINE
  5
   42B
  8
0
  6
CONTINUOUS
 62
     3
 10
-32.8729414053261
 20
-0.772510309594509
 30
0.0
 11
-32.8729414053261
 21
2.12748973361886
 31
0.0
  0
LINE
  5
   42C
  8
0
  6
CONTINUOUS
 62
     3
 10
-16.5229663386945
 20
-0.772510309594509
 30
0.0
 11
-32.8729421682656
 21
-0.772510309594509
 31
0.0
  0
LINE
  5
   42D
  8
0
  6
CONTINUOUS
 62
     3
 10
-16.5229663386945
 20
-0.772510309594509
 30
0.0
 11
-16.5229663386945
 21
2.12748973361886
 31
0.0
  0
LINE
  5
   42E
  8
0
  6
CONTINUOUS
 62
     3
 10
-16.5229663386945
 20
2.12748973361886
 30
0.0
 11
-32.8729421682656
 21
2.12748973361886
 31
0.0
  0
LINE
  5
   42F
  8
0
  6
CONTINUOUS
 62
     3
 10
-34.472941429168
 20
-0.772510309594509
 30
0.0
 11
-54.2229356199502
 21
-0.772510309594509
 31
0.0
  0
LINE
  5
   430
  8
0
  6
CONTINUOUS
 62
     3
 10
-34.472941429168
 20
-0.772510309594509
 30
0.0
 11
-34.472941429168
 21
2.12748973361886
 31
0.0
  0
LINE
  5
   431
  8
0
  6
CONTINUOUS
 62
     3
 10
-34.472941429168
 20
2.12748973361886
 30
0.0
 11
-54.2229356199502
 21
2.12748973361886
 31
0.0
  0
LINE
  5
   432
  8
0
  6
CONTINUOUS
 62
     3
 10
-54.2229363828897
 20
-0.772510309594509
 30
0.0
 11
-54.2229363828897
 21
2.12748973361886
 31
0.0
  0
LINE
  5
   433
  8
0
  6
CONTINUOUS
 62
     3
 10
-50.2229367047547
 20
-46.9725277826964
 30
0.0
 11
-50.2229367047547
 21
-45.1725186006007
 31
0.0
  0
LINE
  5
   434
  8
0
  6
CONTINUOUS
 62
     3
 10
-48.6229355365037
 20
-46.9725277826964
 30
0.0
 11
-48.6229355365037
 21
-45.1725170747218
 31
0.0
  0
LINE
  5
   435
  8
0
  6
CONTINUOUS
 62
     3
 10
-54.2227799803003
 20
-46.9725430414821
 30
0.0
 11
-54.2227792173608
 21
-45.1725277558707
 31
0.0
  0
LINE
  5
   436
  8
0
  6
CONTINUOUS
 62
     7
 10
-55.8229364068086
 20
-48.572547642701
 30
0.0
 11
-55.8229348809297
 21
-48.1725186450409
 31
0.0
  0
LINE
  5
   437
  8
0
  6
CONTINUOUS
 62
     7
 10
-3.22296307897223
 20
-48.5725735807997
 30
0.0
 11
-4.0229600391353
 21
-48.5725613737682
 31
0.0
  0
LINE
  5
   438
  8
0
  6
CONTINUOUS
 62
     7
 10
14.1770585328345
 20
-44.1725368962464
 30
0.0
 11
14.1770524293188
 21
7.42748218320068
 31
0.0
  0
LINE
  5
   439
  8
0
  6
CONTINUOUS
 62
     3
 10
-14.9021411192298
 20
-46.9725155756649
 30
0.0
 11
-14.9021411192298
 21
-45.1725018159325
 31
0.0
  0
LINE
  5
   43A
  8
0
  6
CONTINUOUS
 62
     3
 10
-16.5234515681939
 20
-46.9725338862121
 30
0.0
 11
-16.5234515681939
 21
-45.1725033418114
 31
0.0
  0
LINE
  5
   43B
  8
0
  6
CONTINUOUS
 62
     3
 10
-37.8229605525735
 20
-31.472535181123
 30
0.0
 11
-43.2229362189769
 21
-31.472535181123
 31
0.0
  0
LINE
  5
   43C
  8
0
  6
CONTINUOUS
 62
     3
 10
-37.8229605525735
 20
-35.6725352437079
 30
0.0
 11
-43.2229362189769
 21
-35.6725352437079
 31
0.0
  0
LINE
  5
   43D
  8
0
  6
CONTINUOUS
 62
     3
 10
-43.2229364097117
 20
-35.6725352437079
 30
0.0
 11
-43.2229364097117
 21
-31.472535181123
 31
0.0
  0
LINE
  5
   43E
  8
0
  6
CONTINUOUS
 62
     3
 10
-37.8229605525735
 20
-35.6725352437079
 30
0.0
 11
-37.8229605525735
 21
-31.472535181123
 31
0.0
  0
LINE
  5
   43F
  8
0
  6
CONTINUOUS
 62
   130
 10
-48.8229462206364
 20
10.4274837537828
 30
0.0
 11
-60.2229471534491
 21
10.4274837537828
 31
0.0
  0
LINE
  5
   440
  8
0
  6
CONTINUOUS
 62
   130
 10
-48.8229462206364
 20
9.22748373590139
 30
0.0
 11
-48.8229462206364
 21
10.4274837537828
 31
0.0
  0
LINE
  5
   441
  8
0
  6
CONTINUOUS
 62
   130
 10
-48.8229462206364
 20
7.4274837090793
 30
0.0
 11
-48.8229462206364
 21
9.22748373590139
 31
0.0
  0
LINE
  5
   442
  8
0
  6
CONTINUOUS
 62
     3
 10
-48.8229462206364
 20
-45.5725155548033
 30
0.0
 11
-48.8229462206364
 21
-45.1725247041164
 31
0.0
  0
LINE
  5
   443
  8
0
  6
CONTINUOUS
 62
     3
 10
-48.8229462206364
 20
-45.5725155548033
 30
0.0
 11
-50.2229367047547
 21
-45.5725155548033
 31
0.0
  0
LINE
  5
   444
  8
0
  6
CONTINUOUS
 62
   130
 10
-55.822915807366
 20
-45.5725155548033
 30
0.0
 11
-60.2229486793281
 21
-45.5725155548033
 31
0.0
  0
LINE
  5
   445
  8
0
  6
CONTINUOUS
 62
   130
 10
-62.4229471862317
 20
9.62748374186185
 30
0.0
 11
-62.4229471862317
 21
10.4274837537828
 31
0.0
  0
LINE
  5
   446
  8
0
  6
CONTINUOUS
 62
     3
 10
-48.6229355365037
 20
-45.5725170806822
 30
0.0
 11
-48.8229462206364
 21
-45.5725170806822
 31
0.0
  0
LINE
  5
   447
  8
0
  6
CONTINUOUS
 62
     2
 10
-44.6229463487864
 20
10.4274837537828
 30
0.0
 11
-48.8229464113713
 21
10.4274837537828
 31
0.0
  0
LINE
  5
   448
  8
0
  6
CONTINUOUS
 62
     3
 10
-53.0228890627622
 20
-46.9725216791768
 30
0.0
 11
-53.0228898257016
 21
-45.1725201264758
 31
0.0
  0
LINE
  5
   449
  8
0
  6
CONTINUOUS
 62
     3
 10
-4.82296006083516
 20
-0.172510300653812
 30
0.0
 11
-14.9229602113369
 21
-0.172510300653812
 31
0.0
  0
LINE
  5
   44A
  8
0
  6
CONTINUOUS
 62
     3
 10
-16.5229632869366
 20
-0.172510300653812
 30
0.0
 11
-32.8729375906288
 21
-0.172510300653812
 31
0.0
  0
LINE
  5
   44B
  8
0
  6
CONTINUOUS
 62
     3
 10
-34.4729376144707
 20
-0.172510300653812
 30
0.0
 11
-53.0229363650083
 21
-0.172510300653812
 31
0.0
  0
LINE
  5
   44C
  8
0
  6
CONTINUOUS
 62
     3
 10
-53.3229349285252
 20
-0.472503873087476
 30
0.0
 11
-53.0229349174647
 21
-0.172503862026943
 31
0.0
  0
LINE
  5
   44D
  8
0
  6
CONTINUOUS
 62
     3
 10
-53.0229363650083
 20
-0.172510300653812
 30
0.0
 11
-53.0229363650083
 21
2.12748973361886
 31
0.0
  0
LINE
  5
   44E
  8
0
  6
CONTINUOUS
 62
     3
 10
-42.2229363948106
 20
-34.6225352280617
 30
0.0
 11
-42.2229363948106
 21
-34.1160563386786
 31
0.0
  0
LINE
  5
   44F
  8
0
  6
CONTINUOUS
 62
     3
 10
-42.2229363948106
 20
-34.1160563386786
 30
0.0
 11
-42.2229363948106
 21
-33.5725352124155
 31
0.0
  0
LINE
  5
   450
  8
0
  6
CONTINUOUS
 62
     3
 10
-42.2229363948106
 20
-33.5725352124155
 30
0.0
 11
-42.2229363948106
 21
-33.0290140861523
 31
0.0
  0
LINE
  5
   451
  8
0
  6
CONTINUOUS
 62
     3
 10
-42.2229363948106
 20
-33.0290140861523
 30
0.0
 11
-42.2229363948106
 21
-32.5225351967692
 31
0.0
  0
LINE
  5
   452
  8
0
  6
CONTINUOUS
 62
     3
 10
-42.2229363948106
 20
-32.5225351967692
 30
0.0
 11
-42.2229363948106
 21
-32.0876108738821
 31
0.0
  0
LINE
  5
   453
  8
0
  6
CONTINUOUS
 62
     3
 10
-42.2229363948106
 20
-32.0876108738821
 30
0.0
 11
-42.2229363948106
 21
-31.7538828415654
 31
0.0
  0
LINE
  5
   454
  8
0
  6
CONTINUOUS
 62
     3
 10
-42.2229363948106
 20
-31.7538828415654
 30
0.0
 11
-42.2229363948106
 21
-31.544089747619
 31
0.0
  0
LINE
  5
   455
  8
0
  6
CONTINUOUS
 62
     3
 10
-42.2229363948106
 20
-31.544089747619
 30
0.0
 11
-42.2229363948106
 21
-31.472535181123
 31
0.0
  0
LINE
  5
   456
  8
0
  6
CONTINUOUS
 62
     3
 10
-42.2229363948106
 20
-35.6725352437079
 30
0.0
 11
-42.2229363948106
 21
-35.600980677212
 31
0.0
  0
LINE
  5
   457
  8
0
  6
CONTINUOUS
 62
     3
 10
-42.2229363948106
 20
-35.600980677212
 30
0.0
 11
-42.2229363948106
 21
-35.3911875832655
 31
0.0
  0
LINE
  5
   458
  8
0
  6
CONTINUOUS
 62
     3
 10
-42.2229363948106
 20
-35.3911875832655
 30
0.0
 11
-42.2229363948106
 21
-35.0574595509488
 31
0.0
  0
LINE
  5
   459
  8
0
  6
CONTINUOUS
 62
     3
 10
-42.2229363948106
 20
-35.0574595509488
 30
0.0
 11
-42.2229363948106
 21
-34.6225352280617
 31
0.0
  0
LINE
  5
   45A
  8
0
  6
CONTINUOUS
 62
     7
 10
-55.8229364067325
 20
-17.3725197122271
 30
0.0
 11
-55.8229364067325
 21
-5.37251037814002
 31
0.0
  0
LINE
  5
   45B
  8
0
  6
CONTINUOUS
 62
     7
 10
-62.4229471862317
 20
5.62748368225721
 30
0.0
 11
-62.4229471862317
 21
9.62748374186185
 31
0.0
  0
CIRCLE
  5
   45C
  8
0
  6
CONTINUOUS
 62
     7
 10
-51.0229676085224
 20
-23.3725345449536
 30
0.0
 40
3.99999921832849
  0
CIRCLE
  5
   45D
  8
0
  6
CONTINUOUS
 62
     7
 10
-51.0229677803075
 20
-23.3725348351358
 30
0.0
 40
1.10000062166348
  0
CIRCLE
  5
   45E
  8
0
  6
CONTINUOUS
 62
     7
 10
5.97703849187463
 20
-1.77250145320963
 30
0.0
 40
2.40000144259524
  0
CIRCLE
  5
   45F
  8
0
  6
CONTINUOUS
 62
     7
 10
5.97704145751865
 20
-1.77250538224823
 30
0.0
 40
1.29999766718255
  0
CIRCLE
  5
   460
  8
0
  6
CONTINUOUS
 62
     7
 10
5.97703851327103
 20
-41.7725204283704
 30
0.0
 40
2.40000196609263
  0
CIRCLE
  5
   461
  8
0
  6
CONTINUOUS
 62
     7
 10
5.97703642532345
 20
-41.772518407017
 30
0.0
 40
1.29999948411076
  0
LINE
  5
   462
  8
0
  6
DASHDOT
 62
     7
 10
5.97703851327103
 20
-44.5725224004235
 30
0.0
 11
5.97703851327103
 21
-38.9725184563173
 31
0.0
  0
LINE
  5
   463
  8
0
  6
DASHDOT
 62
     7
 10
8.77704048532412
 20
-41.7725204283704
 30
0.0
 11
3.17703654121792
 21
-41.7725204283704
 31
0.0
  0
LINE
  5
   464
  8
0
  6
DASHDOT
 62
     7
 10
5.97703849187463
 20
-4.57250290176533
 30
0.0
 11
5.97703849187463
 21
1.02749999534608
 31
0.0
  0
LINE
  5
   465
  8
0
  6
DASHDOT
 62
     7
 10
8.77703994043033
 20
-1.77250145320963
 30
0.0
 11
3.17703704331893
 21
-1.77250145320963
 31
0.0
  0
LINE
  5
   466
  8
0
  6
DASHDOT
 62
     7
 10
-51.0229676085224
 20
-27.7725337692426
 30
0.0
 11
-51.0229676085224
 21
-18.9725353206647
 31
0.0
  0
LINE
  5
   467
  8
0
  6
DASHDOT
 62
     7
 10
-46.6229683842334
 20
-23.3725345449536
 30
0.0
 11
-55.4229668328113
 21
-23.3725345449536
 31
0.0
  0
LINE
  5
   468
  8
0
  6
CONTINUOUS
 62
     3
 10
-25.6229420602322
 20
-17.3725288675009
 30
0.0
 11
-25.6229420602322
 21
-5.37251037813987
 31
0.0
  0
LINE
  5
   469
  8
0
  6
DASHDOT
 62
     2
 10
28.8380492680693
 20
-17.5725151375708
 30
0.0
 11
-70.4169465408055
 21
-17.5725151375708
 31
0.0
  0
LINE
  5
   46A
  8
0
  6
DASHDOT
 62
     2
 10
24.4174788740318
 20
0.627483607751401
 30
0.0
 11
10.9105965366989
 21
0.627483607751401
 31
0.0
  0
LINE
  5
   46B
  8
0
  6
DASHDOT
 62
     2
 10
25.2722003902676
 20
-47.3725140557465
 30
0.0
 11
10.9105965366989
 21
-47.3725140557465
 31
0.0
  0
LINE
  5
   46C
  8
0
  6
DASHDOT
 62
     2
 10
25.1191928359539
 20
-23.3725167498765
 30
0.0
 11
6.90961996145745
 21
-23.3725167498765
 31
0.0
  0
LINE
  5
   46D
  8
0
  6
DOT
 62
     7
 10
15.7770402461288
 20
-94.4144378220221
 30
0.0
 11
15.7770402461288
 21
50.3627181867565
 31
0.0
  0
LINE
  5
   46E
  8
0
  6
DOT
 62
     7
 10
16.9770402640102
 20
-94.1128187470038
 30
0.0
 11
16.9770402640102
 21
50.5889324930202
 31
0.0
  0
LINE
  5
   46F
  8
0
  6
DOT
 62
     7
 10
23.777040365338
 20
4.42748366437581
 30
0.0
 11
23.777040365338
 21
5.62748368225721
 31
0.0
  0
LINE
  5
   470
  8
0
  6
CONTINUOUS
 62
     7
 10
20.1770403116939
 20
3.50348365060714
 30
0.0
 11
16.9770402640102
 21
3.50348365060714
 31
0.0
  0
LINE
  5
   471
  8
0
  6
CONTINUOUS
 62
     7
 10
20.1770403116939
 20
-2.24851643510434
 30
0.0
 11
16.9770402640102
 21
-2.24851643510434
 31
0.0
  0
LINE
  5
   472
  8
0
  6
CONTINUOUS
 62
     7
 10
20.1770403116939
 20
-2.24851643510434
 30
0.0
 11
20.1770403116939
 21
3.50348365060714
 31
0.0
  0
LINE
  5
   473
  8
0
  6
CONTINUOUS
 62
     7
 10
20.1770403116939
 20
-50.2485171503601
 30
0.0
 11
20.1770403116939
 21
-44.4965170646486
 31
0.0
  0
LINE
  5
   474
  8
0
  6
CONTINUOUS
 62
     7
 10
20.1770403116939
 20
-50.2485171503601
 30
0.0
 11
16.9770402640102
 21
-50.2485171503601
 31
0.0
  0
LINE
  5
   475
  8
0
  6
CONTINUOUS
 62
     7
 10
20.1770403116939
 20
-44.4965170646486
 30
0.0
 11
16.9770402640102
 21
-44.4965170646486
 31
0.0
  0
LINE
  5
   476
  8
0
  6
CONTINUOUS
 62
     7
 10
-60.2229486793281
 20
-76.8535369238987
 30
0.0
 11
-60.2229486793281
 21
-54.1725156829533
 31
0.0
  0
LINE
  5
   477
  8
0
  6
CONTINUOUS
 62
     7
 10
-61.022948691249
 20
-77.0201672426304
 30
0.0
 11
-61.022948691249
 21
-49.7725171432671
 31
0.0
  0
LINE
  5
   478
  8
0
  6
CONTINUOUS
 62
     7
 10
-58.3802056120819
 20
29.5710097020706
 30
0.0
 11
-61.9940411439639
 21
30.5619000898447
 31
0.0
  0
LINE
  5
   479
  8
0
  6
CONTINUOUS
 62
     7
 10
-61.022948691249
 20
-49.7725171432671
 30
0.0
 11
-61.022948691249
 21
30.2956328044228
 31
0.0
  0
LINE
  5
   47A
  8
0
  6
CONTINUOUS
 62
     7
 10
-57.0229471057654
 20
-36.1724353060886
 30
0.0
 11
-57.0229471057654
 21
-30.9725176260648
 31
0.0
  0
LINE
  5
   47B
  8
0
  6
CONTINUOUS
 62
     1
 10
-62.4229471862317
 20
-56.7725157216963
 30
0.0
 11
-62.4229471862317
 21
-36.5725177095113
 31
0.0
  0
LINE
  5
   47C
  8
0
  6
CONTINUOUS
 62
     1
 10
-62.4229471862317
 20
-25.0725175381479
 30
0.0
 11
-62.4229471862317
 21
21.6274854465547
 31
0.0
  0
LINE
  5
   47D
  8
0
  6
CONTINUOUS
 62
     1
 10
-60.2229471534491
 20
-16.3725143567499
 30
0.0
 11
-60.2229471534491
 21
16.6274853720489
 31
0.0
  0
LINE
  5
   47E
  8
0
  6
CONTINUOUS
 62
     1
 10
-60.2229471534491
 20
-30.9725176260648
 30
0.0
 11
-60.2229471534491
 21
-18.7725113407549
 31
0.0
  0
LINE
  5
   47F
  8
0
  6
CONTINUOUS
 62
     7
 10
-58.422947126627
 20
16.8584240961933
 30
0.0
 11
-58.422947126627
 21
18.7965466836673
 31
0.0
  0
LINE
  5
   480
  8
0
  6
CONTINUOUS
 62
     7
 10
-58.422947126627
 20
-18.5415756683684
 30
0.0
 11
-58.422947126627
 21
-16.6034561326522
 31
0.0
  0
LINE
  5
   481
  8
0
  6
CONTINUOUS
 62
     7
 10
-62.0229471802712
 20
-36.5725177095113
 30
0.0
 11
-62.4229471862317
 21
-36.5725177095113
 31
0.0
  0
LINE
  5
   482
  8
0
  6
CONTINUOUS
 62
     7
 10
-62.0229471802712
 20
-38.1725177333531
 30
0.0
 11
-62.0229471802712
 21
-36.5725177095113
 31
0.0
  0
LINE
  5
   483
  8
0
  6
CONTINUOUS
 62
     7
 10
-61.6229471743108
 20
-38.1725177333531
 30
0.0
 11
-62.0229471802712
 21
-38.1725177333531
 31
0.0
  0
LINE
  5
   484
  8
0
  6
CONTINUOUS
 62
     7
 10
-61.6229471743108
 20
-38.1725177333531
 30
0.0
 11
-61.6229471743108
 21
-28.9725175962625
 31
0.0
  0
LINE
  5
   485
  8
0
  6
CONTINUOUS
 62
     7
 10
-61.6229471743108
 20
-28.9725175962624
 30
0.0
 11
-62.0229471802712
 21
-28.9725175962624
 31
0.0
  0
LINE
  5
   486
  8
0
  6
CONTINUOUS
 62
     7
 10
-62.0229471802712
 20
-30.5725176201043
 30
0.0
 11
-62.0229471802712
 21
-28.9725175962625
 31
0.0
  0
LINE
  5
   487
  8
0
  6
CONTINUOUS
 62
     7
 10
-62.0229471802712
 20
-30.5725176201043
 30
0.0
 11
-62.4229471862317
 21
-30.5725176201043
 31
0.0
  0
LINE
  5
   488
  8
0
  6
CONTINUOUS
 62
     7
 10
-57.0229471057654
 20
-36.1724353060886
 30
0.0
 11
-61.0229471653701
 21
-36.1724353060886
 31
0.0
  0
LINE
  5
   489
  8
0
  6
CONTINUOUS
 62
     7
 10
-57.0229471057654
 20
-30.9725176260648
 30
0.0
 11
-61.0229471653701
 21
-30.9725176260648
 31
0.0
  0
LINE
  5
   48A
  8
0
  6
CONTINUOUS
 62
     1
 10
-62.4229471862317
 20
-30.5725176201043
 30
0.0
 11
-62.4229471862317
 21
-25.0725144863901
 31
0.0
  0
LINE
  5
   48B
  8
0
  6
CONTINUOUS
 62
     7
 10
-58.8229471325875
 20
16.6274853720489
 30
0.0
 11
-61.0229471653701
 21
16.6274853720489
 31
0.0
  0
LINE
  5
   48C
  8
0
  6
CONTINUOUS
 62
     7
 10
-58.8229471325875
 20
19.0274854078117
 30
0.0
 11
-61.0229471653701
 21
19.0274854078117
 31
0.0
  0
LINE
  5
   48D
  8
0
  6
CONTINUOUS
 62
     7
 10
-58.8229471325875
 20
16.6274845558909
 30
0.0
 11
-58.8229471325875
 21
19.0274847290158
 31
0.0
  0
LINE
  5
   48E
  8
0
  6
CONTINUOUS
 62
     7
 10
-58.822947205153
 20
16.6274845139955
 30
0.0
 11
-58.4229471860219
 21
16.8584232410353
 31
0.0
  0
LINE
  5
   48F
  8
0
  6
CONTINUOUS
 62
     7
 10
-58.4229465386896
 20
18.7965456701363
 30
0.0
 11
-58.8229465578208
 21
19.0274843971761
 31
0.0
  0
LINE
  5
   490
  8
0
  6
CONTINUOUS
 62
     7
 10
-58.8229471325875
 20
-18.7725143925127
 30
0.0
 11
-61.0229471653701
 21
-18.7725143925127
 31
0.0
  0
LINE
  5
   491
  8
0
  6
CONTINUOUS
 62
     7
 10
-58.8229471325875
 20
-16.3725143567499
 30
0.0
 11
-61.0229471653701
 21
-16.3725143567499
 31
0.0
  0
LINE
  5
   492
  8
0
  6
CONTINUOUS
 62
     7
 10
-58.8229471325875
 20
-18.7725143925127
 30
0.0
 11
-58.8229471325875
 21
-16.3725143567499
 31
0.0
  0
LINE
  5
   493
  8
0
  6
CONTINUOUS
 62
     7
 10
-58.8229470781808
 20
-18.7725148840288
 30
0.0
 11
-58.4229470590497
 21
-18.541576156989
 31
0.0
  0
LINE
  5
   494
  8
0
  6
CONTINUOUS
 62
     7
 10
-58.4229464867876
 20
-16.6034570331273
 30
0.0
 11
-58.8229465059184
 21
-16.3725152581401
 31
0.0
  0
LINE
  5
   495
  8
0
  6
CONTINUOUS
 62
     7
 10
-60.2229486793281
 20
-51.7725156471905
 30
0.0
 11
-60.2229486793281
 21
-36.1724353060886
 31
0.0
  0
LINE
  5
   496
  8
0
  6
CONTINUOUS
 62
     7
 10
-60.2229471534491
 20
-36.5724353120491
 30
0.0
 11
-61.0229471653701
 21
-36.5724353120491
 31
0.0
  0
LINE
  5
   497
  8
0
  6
CONTINUOUS
 62
     7
 10
-60.2229471534491
 20
-30.5725176201043
 30
0.0
 11
-61.0229471653701
 21
-30.5725176201043
 31
0.0
  0
LINE
  5
   498
  8
0
  6
CONTINUOUS
 62
     7
 10
-60.2229471534491
 20
-16.1725143537697
 30
0.0
 11
-61.0229471653701
 21
-16.1725143537697
 31
0.0
  0
LINE
  5
   499
  8
0
  6
CONTINUOUS
 62
     7
 10
-60.2229471534491
 20
-18.972514395493
 30
0.0
 11
-61.0229471653701
 21
-18.972514395493
 31
0.0
  0
LINE
  5
   49A
  8
0
  6
CONTINUOUS
 62
     7
 10
-60.2229486793281
 20
19.0274854078117
 30
0.0
 11
-60.2229486793281
 21
30.0762779624445
 31
0.0
  0
LINE
  5
   49B
  8
0
  6
CONTINUOUS
 62
     7
 10
-60.2229486793281
 20
19.2274854107919
 30
0.0
 11
-61.0229471653701
 21
19.2274854107919
 31
0.0
  0
LINE
  5
   49C
  8
0
  6
CONTINUOUS
 62
     7
 10
-60.2229486793281
 20
16.4274853690687
 30
0.0
 11
-61.0229471653701
 21
16.4274853690687
 31
0.0
  0
LINE
  5
   49D
  8
0
  6
CONTINUOUS
 62
   130
 10
-62.4229471862317
 20
-36.5725177095113
 30
0.0
 11
-62.4229471862317
 21
-30.5725176201043
 31
0.0
  0
LINE
  5
   49E
  8
0
  6
CONTINUOUS
 62
     7
 10
-63.5951124229489
 20
-77.5559178127009
 30
0.0
 11
-57.6186628887755
 21
-76.3110957177967
 31
0.0
  0
INSERT
  5
   49F
  8
0
  6
CONTINUOUS
 62
     7
  2
*HATCH295
 10
-45.2229423522949
 20
-66.6673355102539
 30
0.0
 41
0.400000005960464
 42
0.400000005960464
 50
89.9999999480344
 43
0.400000005960464
  0
LINE
  5
   4A0
  8
0
  6
CONTINUOUS
 62
     7
 10
47.9770407259462
 20
26.2274855151001
 30
0.0
 11
29.9770404577253
 21
26.2274855151001
 31
0.0
  0
LINE
  5
   4A1
  8
0
  6
CONTINUOUS
 62
     7
 10
47.9770407259462
 20
10.2274852766815
 30
0.0
 11
29.9770404577253
 21
10.2274852766815
 31
0.0
  0
LINE
  5
   4A2
  8
0
  6
CONTINUOUS
 62
     7
 10
47.9770407259462
 20
10.2274852766815
 30
0.0
 11
47.9770407259462
 21
26.2274855151001
 31
0.0
  0
CIRCLE
  5
   4A3
  8
0
  6
CONTINUOUS
 62
     7
 10
39.9770406067369
 20
18.2274853958908
 30
0.0
 40
2.80000004172325
  0
LINE
  5
   4A4
  8
0
  6
DASHDOT
 62
     7
 10
39.9770406067369
 20
11.4274852945629
 30
0.0
 11
39.9770406067369
 21
25.0274854972187
 31
0.0
  0
LINE
  5
   4A5
  8
0
  6
DASHDOT
 62
     7
 10
46.7770407080648
 20
18.2274853958908
 30
0.0
 11
33.177040505409
 21
18.2274853958908
 31
0.0
  0
INSERT
  5
   4A6
  8
255
  6
CONTINUOUS
 62
     7
  2
BASETT
 10
-4.02296004891423
 20
-82.3725113524927
 30
0.0
 41
0.400000005960464
 42
0.400000005960464
 50
3.50835464724173E-15
 43
0.400000005960464
  0
LINE
  5
   4A7
  8
0
  6
CONTINUOUS
 62
     7
 10
47.9770407259462
 20
-72.9725159630951
 30
0.0
 11
47.9770407259462
 21
-56.9725157246766
 31
0.0
  0
LINE
  5
   4A8
  8
0
  6
CONTINUOUS
 62
     7
 10
47.9770407259462
 20
-72.9725159630951
 30
0.0
 11
29.9770404577253
 21
-72.9725159630951
 31
0.0
  0
LINE
  5
   4A9
  8
0
  6
CONTINUOUS
 62
     7
 10
47.9770407259462
 20
-56.9725157246766
 30
0.0
 11
29.9770404577253
 21
-56.9725157246766
 31
0.0
  0
CIRCLE
  5
   4AA
  8
0
  6
CONTINUOUS
 62
     7
 10
39.9770406067369
 20
-64.9725158438858
 30
0.0
 40
2.80000004172325
  0
LINE
  5
   4AB
  8
0
  6
DASHDOT
 62
     7
 10
39.9770406067369
 20
-71.7725159452137
 30
0.0
 11
39.9770406067369
 21
-58.172515742558
 31
0.0
  0
LINE
  5
   4AC
  8
0
  6
DASHDOT
 62
     7
 10
46.7770407080648
 20
-64.9725158438858
 30
0.0
 11
33.177040505409
 21
-64.9725158438858
 31
0.0
  0
LINE
  5
   4AD
  8
0
  6
DOT
 62
     7
 10
23.777040365338
 20
5.62748368225721
 30
0.0
 11
17.5770402729509
 21
5.62748368225721
 31
0.0
  0
LINE
  5
   4AE
  8
0
  6
DOT
 62
     7
 10
23.777040365338
 20
4.42748366437581
 30
0.0
 11
17.5770402729509
 21
4.42748366437581
 31
0.0
  0
LINE
  5
   4AF
  8
0
  6
DOT
 62
     7
 10
23.777040365338
 20
-52.3725171820101
 30
0.0
 11
17.5770402729509
 21
-52.3725171820101
 31
0.0
  0
LINE
  5
   4B0
  8
0
  6
DOT
 62
     7
 10
23.777040365338
 20
-51.1725171641288
 30
0.0
 11
17.5770402729509
 21
-51.1725171641288
 31
0.0
  0
LINE
  5
   4B1
  8
0
  6
DOT
 62
     7
 10
23.777040365338
 20
-52.3725171820101
 30
0.0
 11
23.777040365338
 21
-51.1725171641288
 31
0.0
  0
ARC
  5
   4B2
  8
0
  6
DOT
 62
     7
 10
17.5770402729509
 20
-50.5725171551881
 30
0.0
 40
0.600000008940697
 50
179.999999948034
 51
269.999999948034
  0
ARC
  5
   4B3
  8
0
  6
DOT
 62
     7
 10
17.5770402729509
 20
-50.5725171551881
 30
0.0
 40
1.80000002682209
 50
179.999999948034
 51
269.999999948034
  0
ARC
  5
   4B4
  8
0
  6
DOT
 62
     7
 10
17.5770402729509
 20
3.82748365543512
 30
0.0
 40
1.80000002682209
 50
89.9999999480344
 51
179.999999948034
  0
ARC
  5
   4B5
  8
0
  6
DOT
 62
     7
 10
17.5770402729509
 20
3.82748365543512
 30
0.0
 40
0.600000008940697
 50
89.9999999480344
 51
179.999999948034
  0
CIRCLE
  5
   4B6
  8
0
  6
CONTINUOUS
 62
     7
 10
2.70452385928849
 20
32.4120225051808
 30
0.0
 40
0.100000001490116
  0
LINE
  5
   4B7
  8
0
  6
CONTINUOUS
 62
     7
 10
-60.2229486793281
 20
-54.3725156859335
 30
0.0
 11
-61.0229471653701
 21
-54.3725156859335
 31
0.0
  0
LINE
  5
   4B8
  8
0
  6
CONTINUOUS
 62
     7
 10
-58.8229471325875
 20
-54.1725156829533
 30
0.0
 11
-61.0229471653701
 21
-54.1725156829533
 31
0.0
  0
LINE
  5
   4B9
  8
0
  6
CONTINUOUS
 62
     7
 10
-58.8229471325875
 20
-51.7725156471905
 30
0.0
 11
-61.0229471653701
 21
-51.7725156471905
 31
0.0
  0
LINE
  5
   4BA
  8
0
  6
CONTINUOUS
 62
     7
 10
-60.2229486793281
 20
-51.5725156442103
 30
0.0
 11
-61.0229471653701
 21
-51.5725156442103
 31
0.0
  0
LINE
  5
   4BB
  8
0
  6
CONTINUOUS
 62
     7
 10
-58.8229471325875
 20
-54.1725150041574
 30
0.0
 11
-58.8229471325875
 21
-51.7725148310325
 31
0.0
  0
LINE
  5
   4BC
  8
0
  6
CONTINUOUS
 62
     7
 10
-58.422947126627
 20
-53.9415769588089
 30
0.0
 11
-58.422947126627
 21
-52.0034543713349
 31
0.0
  0
LINE
  5
   4BD
  8
0
  6
CONTINUOUS
 62
     7
 10
-58.4229471860219
 20
-52.0034535161769
 30
0.0
 11
-58.822947205153
 21
-51.7725147891371
 31
0.0
  0
LINE
  5
   4BE
  8
0
  6
CONTINUOUS
 62
     7
 10
-58.8229465578208
 20
-54.1725146723178
 30
0.0
 11
-58.4229465386896
 21
-53.9415759452779
 31
0.0
  0
LINE
  5
   4BF
  8
0
  6
CONTINUOUS
 62
     7
 10
-61.0229471653701
 20
21.6274854465547
 30
0.0
 11
-62.4229471862317
 21
21.6274854465547
 31
0.0
  0
LINE
  5
   4C0
  8
0
  6
CONTINUOUS
 62
     7
 10
-61.0229471653701
 20
-56.7725157216963
 30
0.0
 11
-62.4229471862317
 21
-56.7725157216963
 31
0.0
  0
INSERT
  5
   4C1
  8
0
  6
CONTINUOUS
 62
     7
  2
*HATCH296
 10
-45.2229423522949
 20
-66.6673355102539
 30
0.0
 41
0.400000005960464
 42
0.400000005960464
 50
89.9999999480344
 43
0.400000005960464
  0
INSERT
  5
   4C2
  8
0
  6
CONTINUOUS
 62
     7
  2
*HATCH297
 10
-45.2229423522949
 20
-66.6673355102539
 30
0.0
 41
0.400000005960464
 42
0.400000005960464
 50
89.9999999480344
 43
0.400000005960464
  0
INSERT
  5
   4C3
  8
0
  6
CONTINUOUS
 62
     7
  2
*HATCH298
 10
-45.2229423522949
 20
-66.6673355102539
 30
0.0
 41
0.400000005960464
 42
0.400000005960464
 50
89.9999999480344
 43
0.400000005960464
  0
INSERT
  5
   4C4
  8
0
  6
CONTINUOUS
 62
     7
  2
*HATCH299
 10
-45.2229423522949
 20
-66.6673355102539
 30
0.0
 41
0.400000005960464
 42
0.400000005960464
 50
89.9999999480344
 43
0.400000005960464
  0
LINE
  5
   4C5
  8
0
  6
CONTINUOUS
 62
     7
 10
-56.4229493856431
 20
11.0274852886024
 30
0.0
 11
-57.4229516893627
 21
11.0274852886024
 31
0.0
  0
LINE
  5
   4C6
  8
0
  6
CONTINUOUS
 62
     7
 10
-56.4229493856431
 20
11.0274852886024
 30
0.0
 11
-56.4229493856431
 21
15.2274853511873
 31
0.0
  0
LINE
  5
   4C7
  8
0
  6
CONTINUOUS
 62
     7
 10
-57.8229516953231
 20
16.6274853720489
 30
0.0
 11
-58.8229517102243
 21
16.6274853720489
 31
0.0
  0
LINE
  5
   4C8
  8
0
  6
CONTINUOUS
 62
     7
 10
-59.2229517161847
 20
19.0274854078117
 30
0.0
 11
-59.2229517161847
 21
20.2274854256931
 31
0.0
  0
LINE
  5
   4C9
  8
0
  6
CONTINUOUS
 62
     7
 10
-59.2229517161847
 20
20.2274854256931
 30
0.0
 11
-60.222948679328
 21
20.2274854256931
 31
0.0
  0
LINE
  5
   4CA
  8
0
  6
CONTINUOUS
 62
     7
 10
-57.8229516953231
 20
15.6274853571477
 30
0.0
 11
-58.8229517102243
 21
15.6274853571477
 31
0.0
  0
LINE
  5
   4CB
  8
0
  6
CONTINUOUS
 62
     7
 10
-57.4229516893627
 20
11.0274852886024
 30
0.0
 11
-57.4229516893627
 21
15.2274853511873
 31
0.0
  0
ARC
  5
   4CC
  8
0
  6
CONTINUOUS
 62
     7
 10
-57.8229575567259
 20
15.2274802766654
 30
0.0
 40
1.40000740210794
 50
360.000319242658
 51
449.999813057862
  0
ARC
  5
   4CD
  8
0
  6
CONTINUOUS
 62
     7
 10
-57.8229339960629
 20
15.2275017091005
 30
0.0
 40
0.399979934457567
 50
359.998830132094
 51
450.002235749312
  0
ARC
  5
   4CE
  8
0
  6
CONTINUOUS
 62
     7
 10
-58.8229594511771
 20
17.0274725592355
 30
0.0
 40
1.39998844323914
 50
196.601143374767
 51
270.000346548696
  0
LINE
  5
   4CF
  8
0
  6
CONTINUOUS
 62
     7
 10
-56.4229493856431
 20
14.6274853422466
 30
0.0
 11
-57.4229516893627
 21
14.6274853422466
 31
0.0
  0
INSERT
  5
   4D0
  8
0
  6
CONTINUOUS
 62
     7
  2
*HATCH300
 10
-45.2229423522949
 20
-66.6673355102539
 30
0.0
 41
0.400000005960464
 42
0.400000005960464
 50
89.9999999480344
 43
0.400000005960464
  0
LINE
  5
   4D1
  8
0
  6
DOT
 62
     7
 10
47.9770407259462
 20
20.2274854256931
 30
0.0
 11
29.9770404577253
 21
20.2274854256931
 31
0.0
  0
LINE
  5
   4D2
  8
0
  6
DOT
 62
     7
 10
47.9770407259462
 20
16.2274899437255
 30
0.0
 11
29.9770404577253
 21
16.2274899437255
 31
0.0
  0
LINE
  5
   4D3
  8
0
  6
DOT
 62
     7
 10
47.9770407259462
 20
-62.9725158140835
 30
0.0
 11
29.9770404577253
 21
-62.9725158140835
 31
0.0
  0
LINE
  5
   4D4
  8
0
  6
DOT
 62
     7
 10
47.9770407259462
 20
-66.9725158736882
 30
0.0
 11
29.9770404577253
 21
-66.9725158736882
 31
0.0
  0
LINE
  5
   4D5
  8
0
  6
DOT
 62
     7
 10
-67.3794575678389
 20
10.4274837537828
 30
0.0
 11
-73.4229473501445
 21
10.4274837537828
 31
0.0
  0
LINE
  5
   4D6
  8
0
  6
DOT
 62
     7
 10
-73.4229473501445
 20
-45.5725155548033
 30
0.0
 11
-73.4229473501445
 21
10.4274837537828
 31
0.0
  0
LINE
  5
   4D7
  8
0
  6
DOT
 62
     7
 10
-66.8229159712788
 20
-45.5725155548033
 30
0.0
 11
-73.4229473501445
 21
-45.5725155548033
 31
0.0
  0
LINE
  5
   4D8
  8
0
  6
CONTINUOUS
 62
     3
 10
-40.9591949967307
 20
-88.6410111349996
 30
0.0
 11
-62.2541628305368
 21
-88.6410111349996
 31
0.0
  0
LINE
  5
   4D9
  8
0
  6
CONTINUOUS
 62
     7
 10
21.7770403355357
 20
-45.7725140319046
 30
0.0
 11
16.9770402640102
 21
-45.7725140319046
 31
0.0
  0
LINE
  5
   4DA
  8
0
  6
CONTINUOUS
 62
     7
 10
21.7770403355357
 20
-48.9725140795883
 30
0.0
 11
16.9770402640102
 21
-48.9725140795883
 31
0.0
  0
LINE
  5
   4DB
  8
0
  6
CONTINUOUS
 62
     7
 10
21.7770403355357
 20
-48.9725140795883
 30
0.0
 11
21.7770403355357
 21
-45.7725140319046
 31
0.0
  0
LINE
  5
   4DC
  8
0
  6
CONTINUOUS
 62
     7
 10
21.7770403355357
 20
2.22748363159326
 30
0.0
 11
16.9770402640102
 21
2.22748363159326
 31
0.0
  0
LINE
  5
   4DD
  8
0
  6
CONTINUOUS
 62
     7
 10
21.7770403355357
 20
-0.972516416090457
 30
0.0
 11
16.9770402640102
 21
-0.972516416090457
 31
0.0
  0
LINE
  5
   4DE
  8
0
  6
CONTINUOUS
 62
     7
 10
21.7770403355357
 20
-0.972516416090457
 30
0.0
 11
21.7770403355357
 21
2.22748363159326
 31
0.0
  0
CIRCLE
  5
   4DF
  8
0
  6
CONTINUOUS
 62
     7
 10
19.3959899661461
 20
-47.5585691377978
 30
0.0
 40
0.160000002384186
  0
INSERT
  5
   4E0
  8
0
  6
CONTINUOUS
 62
     7
  2
*UDIM1446
 10
0.0
 20
0.0
 30
0.0
  0
TEXT
  5
   4E1
  8
0
  6
CONTINUOUS
 62
     1
 10
-58.101281977726
 20
-91.8288455950237
 30
0.0
 40
2.00000007748604
  1
ISOLATING DISTANCE
 50
359.999999948034
 41
0.749999884366991
 72
     1
 11
-44.7512835171572
 21
-90.8288455683216
 31
0.0
 73
     2
  0
TEXT
  5
   4E2
  8
0
  6
CONTINUOUS
 62
     1
 10
-58.0578637653892
 20
-87.6364644911222
 30
0.0
 40
2.00000007748604
  1
CORSA DI
 50
359.999999948034
 41
0.749999884366991
  0
TEXT
  5
   4E3
  8
0
  6
CONTINUOUS
 62
     1
 10
-46.0578651622241
 20
-87.6364651761943
 30
0.0
 40
2.00000007748604
  1
 SEZIONAMENTO
 50
359.999999948034
 41
0.749999884366991
  0
INSERT
  5
   4E4
  8
0
  6
CONTINUOUS
 62
     7
  2
*UDIM1447
 10
0.0
 20
0.0
 30
0.0
  0
INSERT
  5
   4E5
  8
0
  6
CONTINUOUS
 62
     7
  2
*UDIM1448
 10
0.0
 20
0.0
 30
0.0
  0
INSERT
  5
   4E6
  8
0
  6
CONTINUOUS
 62
     7
  2
*UDIM1449
 10
0.0
 20
0.0
 30
0.0
  0
INSERT
  5
   4E7
  8
0
  6
CONTINUOUS
 62
     7
  2
*UDIM1450
 10
0.0
 20
0.0
 30
0.0
  0
INSERT
  5
   4E8
  8
0
  6
CONTINUOUS
 62
     7
  2
*UDIM1451
 10
0.0
 20
0.0
 30
0.0
  0
INSERT
  5
   4E9
  8
0
  6
CONTINUOUS
 62
     7
  2
*UDIM1452
 10
0.0
 20
0.0
 30
0.0
  0
INSERT
  5
   4EA
  8
0
  6
CONTINUOUS
 62
     7
  2
*UDIM1453
 10
0.0
 20
0.0
 30
0.0
  0
INSERT
  5
   4EB
  8
0
  6
CONTINUOUS
 62
     7
  2
*UDIM1454
 10
0.0
 20
0.0
 30
0.0
  0
INSERT
  5
   4EC
  8
0
  6
CONTINUOUS
 62
     7
  2
*UDIM1455
 10
0.0
 20
0.0
 30
0.0
  0
INSERT
  5
   4ED
  8
0
  6
CONTINUOUS
 62
     7
  2
*UDIM1456
 10
0.0
 20
0.0
 30
0.0
  0
INSERT
  5
   4EE
  8
0
  6
CONTINUOUS
 62
     7
  2
*UDIM1457
 10
0.0
 20
0.0
 30
0.0
  0
INSERT
  5
   4EF
  8
0
  6
CONTINUOUS
 62
     7
  2
*UDIM1458
 10
0.0
 20
0.0
 30
0.0
  0
INSERT
  5
   4F0
  8
0
  6
CONTINUOUS
 62
     7
  2
*UDIM1459
 10
0.0
 20
0.0
 30
0.0
  0
INSERT
  5
   4F1
  8
0
  6
CONTINUOUS
 62
     7
  2
*UDIM1460
 10
0.0
 20
0.0
 30
0.0
  0
TEXT
  5
   4F2
  8
0
  6
CONTINUOUS
 62
     7
 10
-82.9188688320235
 20
-33.1891091727656
 30
0.0
 40
2.99999994933605
  1
=          =
 50
89.9999999480344
 41
0.916666607525612
 72
     2
 11
-82.9188688026331
 21
-0.739111817076054
 31
0.0
  0
TEXT
  5
   4F3
  8
0
  6
CONTINUOUS
 62
     7
 10
56.0139857604543
 20
-19.0801582143619
 30
0.0
 40
2.99999994933605
  1
X
 50
359.999999948034
 41
0.916666607525612
 72
     2
 11
58.2139855786602
 21
-19.0801582163462
 31
0.0
  0
TEXT
  5
   4F4
  8
0
  6
CONTINUOUS
 62
     7
 10
-95.2159572889459
 20
-17.2519935142686
 30
0.0
 40
2.99999994933605
  1
X
 50
359.999999948034
 41
0.916666607525612
 72
     2
 11
-93.01595747074
 21
-17.2519935162529
 31
0.0
  0
INSERT
  5
   4F5
  8
0
  6
CONTINUOUS
 62
     7
  2
*UDIM1461
 10
0.0
 20
0.0
 30
0.0
  0
INSERT
  5
   4F6
  8
0
  6
CONTINUOUS
 62
     7
  2
*UDIM1462
 10
0.0
 20
0.0
 30
0.0
  0
LINE
  5
   4F7
  8
0
  6
CONTINUOUS
 62
     7
 10
94.2981183399971
 20
20.4274917728931
 30
0.0
 11
94.2981183399971
 21
30.7274779527583
 31
0.0
  0
LINE
  5
   4F8
  8
0
  6
CONTINUOUS
 62
     7
 10
177.898119585733
 20
21.6274857378114
 30
0.0
 11
177.898119585733
 21
30.7274779527583
 31
0.0
  0
LINE
  5
   4F9
  8
0
  6
CONTINUOUS
 62
     1
 10
177.998128490506
 20
-77.4725299570579
 30
0.0
 11
177.998128490506
 21
-56.772517719258
 31
0.0
  0
LINE
  5
   4FA
  8
0
  6
CONTINUOUS
 62
     1
 10
94.1981272417884
 20
-77.4725299570579
 30
0.0
 11
94.1981272417884
 21
-40.8725416186879
 31
0.0
  0
LINE
  5
   4FB
  8
0
  6
CONTINUOUS
 62
     1
 10
94.1981272417884
 20
1.12744680012943
 30
0.0
 11
94.1981272417884
 21
20.4274715017847
 31
0.0
  0
LINE
  5
   4FC
  8
0
  6
CONTINUOUS
 62
     1
 10
94.1981272417884
 20
20.4274715017847
 30
0.0
 11
97.698116670536
 21
20.4274715017847
 31
0.0
  0
LINE
  5
   4FD
  8
0
  6
CONTINUOUS
 62
     1
 10
94.598127223907
 20
-49.972529547257
 30
0.0
 11
97.698116670536
 21
-49.972529547257
 31
0.0
  0
LINE
  5
   4FE
  8
0
  6
CONTINUOUS
 62
     1
 10
94.1981272417884
 20
-40.8725355151722
 30
0.0
 11
94.1981272417884
 21
1.12746511067658
 31
0.0
  0
LINE
  5
   4FF
  8
0
  6
CONTINUOUS
 62
     1
 10
94.1981272417884
 20
-49.5725295651384
 30
0.0
 11
97.698116670536
 21
-49.5725295651384
 31
0.0
  0
LINE
  5
   500
  8
0
  6
CONTINUOUS
 62
     1
 10
94.598127223907
 20
-49.972529547257
 30
0.0
 11
94.598127223907
 21
-49.5725295651384
 31
0.0
  0
LINE
  5
   501
  8
0
  6
CONTINUOUS
 62
     1
 10
176.318123582659
 20
21.6274857378114
 30
0.0
 11
176.318123582659
 21
31.2274779602089
 31
0.0
  0
LINE
  5
   502
  8
0
  6
CONTINUOUS
 62
     1
 10
177.238124817071
 20
21.6274857378114
 30
0.0
 11
177.238124817071
 21
31.2274779602089
 31
0.0
  0
LINE
  5
   503
  8
0
  6
CONTINUOUS
 62
     1
 10
170.558125938235
 20
21.6274857378114
 30
0.0
 11
170.558125938235
 21
31.2274779602089
 31
0.0
  0
LINE
  5
   504
  8
0
  6
CONTINUOUS
 62
     1
 10
171.998122297583
 20
21.6274857378114
 30
0.0
 11
171.998122297583
 21
31.2274779602089
 31
0.0
  0
LINE
  5
   505
  8
0
  6
CONTINUOUS
 62
     1
 10
173.438124760447
 20
21.6274857378114
 30
0.0
 11
173.438124760447
 21
31.2274779602089
 31
0.0
  0
LINE
  5
   506
  8
0
  6
CONTINUOUS
 62
     1
 10
174.878127223311
 20
21.6274857378114
 30
0.0
 11
174.878127223311
 21
31.2274779602089
 31
0.0
  0
LINE
  5
   507
  8
0
  6
CONTINUOUS
 62
     1
 10
164.998122193275
 20
21.6274857378114
 30
0.0
 11
164.998122193275
 21
31.2274779602089
 31
0.0
  0
LINE
  5
   508
  8
0
  6
CONTINUOUS
 62
     1
 10
166.238124653159
 20
21.6274857378114
 30
0.0
 11
166.238124653159
 21
31.2274779602089
 31
0.0
  0
LINE
  5
   509
  8
0
  6
CONTINUOUS
 62
     1
 10
167.678127116023
 20
21.6274857378114
 30
0.0
 11
167.678127116023
 21
31.2274779602089
 31
0.0
  0
LINE
  5
   50A
  8
0
  6
CONTINUOUS
 62
     1
 10
169.118123475371
 20
21.6274857378114
 30
0.0
 11
169.118123475371
 21
31.2274779602089
 31
0.0
  0
LINE
  5
   50B
  8
0
  6
CONTINUOUS
 62
     1
 10
95.8781271905284
 20
1.12746511067658
 30
0.0
 11
95.8781271905284
 21
31.2274779602089
 31
0.0
  0
LINE
  5
   50C
  8
0
  6
CONTINUOUS
 62
     1
 10
94.9581271005254
 20
1.12746511067658
 30
0.0
 11
94.9581271005254
 21
31.2274779602089
 31
0.0
  0
LINE
  5
   50D
  8
0
  6
CONTINUOUS
 62
     1
 10
101.638123690544
 20
21.6274857378114
 30
0.0
 11
101.638123690544
 21
31.2274779602089
 31
0.0
  0
LINE
  5
   50E
  8
0
  6
CONTINUOUS
 62
     1
 10
100.198127331195
 20
21.6274857378114
 30
0.0
 11
100.198127331195
 21
31.2274779602089
 31
0.0
  0
LINE
  5
   50F
  8
0
  6
CONTINUOUS
 62
     1
 10
98.7581271571498
 20
21.6274857378114
 30
0.0
 11
98.7581271571498
 21
31.2274779602089
 31
0.0
  0
LINE
  5
   510
  8
0
  6
CONTINUOUS
 62
     1
 10
97.3181269831042
 20
1.12746511067658
 30
0.0
 11
97.3181269831042
 21
31.2274779602089
 31
0.0
  0
LINE
  5
   511
  8
0
  6
CONTINUOUS
 62
     1
 10
107.398127438484
 20
21.6274857378114
 30
0.0
 11
107.398127438484
 21
31.2274779602089
 31
0.0
  0
LINE
  5
   512
  8
0
  6
CONTINUOUS
 62
     1
 10
105.95812497562
 20
21.6274857378114
 30
0.0
 11
105.95812497562
 21
31.2274779602089
 31
0.0
  0
LINE
  5
   513
  8
0
  6
CONTINUOUS
 62
     1
 10
104.518122512756
 20
21.6274857378114
 30
0.0
 11
104.518122512756
 21
31.2274779602089
 31
0.0
  0
LINE
  5
   514
  8
0
  6
CONTINUOUS
 62
     1
 10
103.078126153408
 20
21.6274857378114
 30
0.0
 11
103.078126153408
 21
31.2274779602089
 31
0.0
  0
LINE
  5
   515
  8
0
  6
CONTINUOUS
 62
     1
 10
97.3181269831042
 20
-40.8725355151722
 30
0.0
 11
97.3181269831042
 21
1.12746511067658
 31
0.0
  0
LINE
  5
   516
  8
0
  6
CONTINUOUS
 62
     1
 10
95.8781271905284
 20
-40.8725355151722
 30
0.0
 11
95.8781271905284
 21
1.12746511067658
 31
0.0
  0
LINE
  5
   517
  8
0
  6
CONTINUOUS
 62
     1
 10
94.9581271005254
 20
-40.8725355151722
 30
0.0
 11
94.9581271005254
 21
1.12746511067658
 31
0.0
  0
LINE
  5
   518
  8
0
  6
CONTINUOUS
 62
     1
 10
95.8781271905284
 20
-49.5725295651384
 30
0.0
 11
95.8781271905284
 21
-40.872535539014
 31
0.0
  0
LINE
  5
   519
  8
0
  6
CONTINUOUS
 62
     1
 10
94.9581271005254
 20
-49.5725295651384
 30
0.0
 11
94.9581271005254
 21
-40.872535539014
 31
0.0
  0
LINE
  5
   51A
  8
0
  6
CONTINUOUS
 62
     1
 10
97.3181269831042
 20
-49.5725295651384
 30
0.0
 11
97.3181269831042
 21
-40.872535539014
 31
0.0
  0
ARC
  5
   51B
  8
0
  6
CONTINUOUS
 62
     1
 10
94.3981272447686
 20
0.927465107696335
 30
0.0
 40
0.200000002980232
 50
90.0
 51
180.0
  0
ARC
  5
   51C
  8
0
  6
CONTINUOUS
 62
     1
 10
94.3981272447686
 20
-40.672535512192
 30
0.0
 40
0.200000002980232
 50
180.0
 51
270.0
  0
LINE
  5
   51D
  8
0
  6
CONTINUOUS
 62
     1
 10
127.698118837696
 20
-14.5725229162401
 30
0.0
 11
144.498119088035
 21
-14.5725229162401
 31
0.0
  0
LINE
  5
   51E
  8
0
  6
CONTINUOUS
 62
     7
 10
127.698118837696
 20
-14.3832528938885
 30
0.0
 11
144.498119088035
 21
-14.3832528938885
 31
0.0
  0
LINE
  5
   51F
  8
0
  6
DASHDOT
 62
     7
 10
136.098118962865
 20
-49.8083517280885
 30
0.0
 11
136.098118962865
 21
32.1648850181012
 31
0.0
  0
LINE
  5
   520
  8
0
  6
CONTINUOUS
 62
     1
 10
94.7981058411187
 20
-65.7725297826928
 30
0.0
 11
96.0981058604903
 21
-65.7725297826928
 31
0.0
  0
LINE
  5
   521
  8
0
  6
DASHDOT
 62
     2
 10
136.098118962865
 20
-78.8574179758645
 30
0.0
 11
136.098118962865
 21
-48.0505148143372
 31
0.0
  0
LINE
  5
   522
  8
0
  6
CONTINUOUS
 62
     1
 10
177.298101348419
 20
-65.7725358862085
 30
0.0
 11
177.298101348419
 21
-56.772517719258
 31
0.0
  0
LINE
  5
   523
  8
0
  6
CONTINUOUS
 62
     1
 10
94.8981272522192
 20
-65.7725297826928
 30
0.0
 11
94.8981272522192
 21
-49.972529547257
 31
0.0
  0
LINE
  5
   524
  8
0
  6
CONTINUOUS
 62
     1
 10
149.878119168203
 20
-18.0125229675001
 30
0.0
 11
149.878119168203
 21
-16.6125229466384
 31
0.0
  0
LINE
  5
   525
  8
0
  6
CONTINUOUS
 62
     7
 10
127.698118837696
 20
-31.963546239739
 30
0.0
 11
144.498119088035
 21
-31.963546239739
 31
0.0
  0
LINE
  5
   526
  8
0
  6
CONTINUOUS
 62
     7
 10
127.698118837696
 20
-28.675343051164
 30
0.0
 11
144.498119088035
 21
-28.675343051164
 31
0.0
  0
LINE
  5
   527
  8
0
  6
CONTINUOUS
 62
     7
 10
127.698118837696
 20
-35.4189267264702
 30
0.0
 11
144.498119088035
 21
-35.4189267264702
 31
0.0
  0
LINE
  5
   528
  8
0
  6
CONTINUOUS
 62
     7
 10
144.498119088035
 20
-28.675343051164
 30
0.0
 11
144.498119088035
 21
-14.3832528938885
 31
0.0
  0
LINE
  5
   529
  8
0
  6
CONTINUOUS
 62
     7
 10
127.698118837696
 20
-28.675343051164
 30
0.0
 11
127.698118837696
 21
-14.3832528938885
 31
0.0
  0
LINE
  5
   52A
  8
0
  6
DASHDOT
 62
     7
 10
164.098119380098
 20
21.6274857378114
 30
0.0
 11
164.098119380098
 21
31.5686017475185
 31
0.0
  0
LINE
  5
   52B
  8
0
  6
DASHDOT
 62
     7
 10
108.098118545633
 20
21.6274857378114
 30
0.0
 11
108.098118545633
 21
33.0857425905168
 31
0.0
  0
LINE
  5
   52C
  8
0
  6
CONTINUOUS
 62
     1
 10
94.3981272447686
 20
1.12746511067658
 30
0.0
 11
97.698116670536
 21
1.12746511067658
 31
0.0
  0
LINE
  5
   52D
  8
0
  6
CONTINUOUS
 62
     1
 10
94.8981272522192
 20
-65.772535887953
 30
0.0
 11
177.298101348178
 21
-65.772535887953
 31
0.0
  0
LINE
  5
   52E
  8
0
  6
CONTINUOUS
 62
   130
 10
95.0981183519177
 20
-82.0800132864852
 30
0.0
 11
95.0981183519177
 21
-77.9725299645085
 31
0.0
  0
LINE
  5
   52F
  8
0
  6
CONTINUOUS
 62
   130
 10
95.0981187827235
 20
-80.9725107247515
 30
0.0
 11
95.1285676962988
 21
-81.1255838425788
 31
0.0
  0
LINE
  5
   530
  8
0
  6
CONTINUOUS
 62
   130
 10
95.1285674846673
 20
-82.1255843741664
 30
0.0
 11
95.2152755526867
 21
-82.2553542760836
 31
0.0
  0
LINE
  5
   531
  8
0
  6
CONTINUOUS
 62
   130
 10
95.2152756462352
 20
-82.2553543616571
 30
0.0
 11
95.3450455481524
 21
-82.3420624296766
 31
0.0
  0
LINE
  5
   532
  8
0
  6
CONTINUOUS
 62
   130
 10
95.3450448540845
 20
-82.3420627764422
 30
0.0
 11
95.4981179797399
 21
-82.3725147412928
 31
0.0
  0
LINE
  5
   533
  8
0
  6
CONTINUOUS
 62
   130
 10
95.4981183578781
 20
-82.3725145772871
 30
0.0
 11
176.698119567852
 21
-82.3725145772871
 31
0.0
  0
LINE
  5
   534
  8
0
  6
CONTINUOUS
 62
   130
 10
176.698117714806
 20
-82.3725145371485
 30
0.0
 11
176.851193886741
 21
-82.3420625722403
 31
0.0
  0
LINE
  5
   535
  8
0
  6
CONTINUOUS
 62
   130
 10
176.851197052196
 20
-82.342062471595
 30
0.0
 11
176.980963903321
 21
-82.2553544002642
 31
0.0
  0
LINE
  5
   536
  8
0
  6
CONTINUOUS
 62
   130
 10
176.980959396271
 20
-82.2553547718371
 30
0.0
 11
177.067665942878
 21
-82.1255848759745
 31
0.0
  0
LINE
  5
   537
  8
0
  6
CONTINUOUS
 62
   130
 10
177.067668556576
 20
-82.1255845034112
 30
0.0
 11
177.098118995787
 21
-81.9725113816692
 31
0.0
  0
LINE
  5
   538
  8
0
  6
CONTINUOUS
 62
   130
 10
177.098119573813
 20
-81.9725084759542
 30
0.0
 11
177.098119573813
 21
-77.9725299645085
 31
0.0
  0
LINE
  5
   539
  8
0
  6
CONTINUOUS
 62
   130
 10
177.098119573813
 20
31.2274779602089
 30
0.0
 11
177.098119573813
 21
35.2274995026348
 31
0.0
  0
LINE
  5
   53A
  8
0
  6
CONTINUOUS
 62
   130
 10
177.067670188797
 20
35.380570380311
 30
0.0
 11
177.098120628038
 21
35.227494202981
 31
0.0
  0
LINE
  5
   53B
  8
0
  6
CONTINUOUS
 62
   130
 10
176.980960791433
 20
35.5103268497875
 30
0.0
 11
177.067667332058
 21
35.3805600047242
 31
0.0
  0
LINE
  5
   53C
  8
0
  6
CONTINUOUS
 62
   130
 10
176.851192812883
 20
35.5970351400991
 30
0.0
 11
176.980959657946
 21
35.5103285994738
 31
0.0
  0
LINE
  5
   53D
  8
0
  6
CONTINUOUS
 62
   130
 10
176.698118666978
 20
35.6274833652557
 30
0.0
 11
176.851194837967
 21
35.5970390286287
 31
0.0
  0
LINE
  5
   53E
  8
0
  6
CONTINUOUS
 62
   130
 10
95.4981183578781
 20
35.627484129292
 30
0.0
 11
176.698119567852
 21
35.627484129292
 31
0.0
  0
LINE
  5
   53F
  8
0
  6
CONTINUOUS
 62
   130
 10
95.3450450044448
 20
35.5970418158112
 30
0.0
 11
95.498118129127
 21
35.6274861525158
 31
0.0
  0
LINE
  5
   540
  8
0
  6
CONTINUOUS
 62
   130
 10
95.2152745411218
 20
35.5103282193355
 30
0.0
 11
95.3450444369844
 21
35.5970347659424
 31
0.0
  0
LINE
  5
   541
  8
0
  6
CONTINUOUS
 62
   130
 10
95.1285675886469
 20
35.3805684543953
 30
0.0
 11
95.2152756599777
 21
35.5103353055195
 31
0.0
  0
LINE
  5
   542
  8
0
  6
CONTINUOUS
 62
   130
 10
95.0981183500125
 20
34.2274900707416
 30
0.0
 11
95.1285672635914
 21
34.3805662441623
 31
0.0
  0
LINE
  5
   543
  8
0
  6
CONTINUOUS
 62
   130
 10
95.0981183519177
 20
31.2274779602089
 30
0.0
 11
95.0981183519177
 21
35.334998284181
 31
0.0
  0
LINE
  5
   544
  8
0
  6
CONTINUOUS
 62
   130
 10
176.980960791433
 20
35.5103268497875
 30
0.0
 11
177.067667332058
 21
35.3805600047242
 31
0.0
  0
LINE
  5
   545
  8
0
  6
CONTINUOUS
 62
   130
 10
176.698117176909
 20
35.6274882049567
 30
0.0
 11
176.763253894711
 21
35.6145304414224
 31
0.0
  0
LINE
  5
   546
  8
0
  6
CONTINUOUS
 62
   130
 10
95.3450461107455
 20
-82.3420668106144
 30
0.0
 11
95.4981192285729
 21
-82.3725157241898
 31
0.0
  0
LINE
  5
   547
  8
0
  6
CONTINUOUS
 62
   130
 10
95.2152754739533
 20
-82.255357513236
 30
0.0
 11
95.3450453726149
 21
-82.3420671119821
 31
0.0
  0
LINE
  5
   548
  8
0
  6
CONTINUOUS
 62
   130
 10
177.067671563577
 20
-82.1255898027171
 30
0.0
 11
177.098122002805
 21
-81.9725151543763
 31
0.0
  0
LINE
  5
   549
  8
0
  6
CONTINUOUS
 62
   130
 10
176.980962466008
 20
-82.2553576020432
 30
0.0
 11
177.06766901097
 21
-82.1255892318887
 31
0.0
  0
LINE
  5
   54A
  8
0
  6
CONTINUOUS
 62
   130
 10
176.851194495059
 20
-82.3420673222935
 30
0.0
 11
176.980961342933
 21
-82.2553577295483
 31
0.0
  0
LINE
  5
   54B
  8
0
  6
CONTINUOUS
 62
   130
 10
176.698119476726
 20
-82.3725161011915
 30
0.0
 11
176.851195650147
 21
-82.3420671876126
 31
0.0
  0
LINE
  5
   54C
  8
0
  6
DASHDOT
 62
     7
 10
164.09812125949
 20
41.4274550205579
 30
0.0
 11
164.09812125949
 21
47.8274504686287
 31
0.0
  0
LINE
  5
   54D
  8
0
  6
DASHDOT
 62
     7
 10
136.098108806437
 20
36.5342278767287
 30
0.0
 11
136.098108806437
 21
53.7397413346683
 31
0.0
  0
LINE
  5
   54E
  8
0
  6
DASHDOT
 62
     7
 10
108.098118416416
 20
41.4275313735772
 30
0.0
 11
108.098118416416
 21
47.8274568449104
 31
0.0
  0
LINE
  5
   54F
  8
0
  6
DASHDOT
 62
     7
 10
136.098108806437
 20
-94.5725106534235
 30
0.0
 11
136.098108806437
 21
-88.1724902947924
 31
0.0
  0
LINE
  5
   550
  8
0
  6
CONTINUOUS
 62
   130
 10
108.098165084948
 20
10.4274837537828
 30
0.0
 11
164.098165919413
 21
10.4274837537828
 31
0.0
  0
LINE
  5
   551
  8
0
  6
CONTINUOUS
 62
   130
 10
108.098165084948
 20
-45.5725155548033
 30
0.0
 11
164.098165919413
 21
-45.5725155548033
 31
0.0
  0
LINE
  5
   552
  8
0
  6
CONTINUOUS
 62
     1
 10
108.098165084948
 20
5.62748368225721
 30
0.0
 11
164.098165919413
 21
5.62748368225721
 31
0.0
  0
LINE
  5
   553
  8
0
  6
CONTINUOUS
 62
     1
 10
108.098165847887
 20
9.62748374186185
 30
0.0
 11
164.098166682352
 21
9.62748374186185
 31
0.0
  0
LINE
  5
   554
  8
0
  6
CONTINUOUS
 62
   130
 10
108.098165084948
 20
-45.5725155548033
 30
0.0
 11
108.098165084948
 21
10.4274852796617
 31
0.0
  0
LINE
  5
   555
  8
0
  6
CONTINUOUS
 62
   130
 10
164.098166682352
 20
-45.5725170806822
 30
0.0
 11
164.098166682352
 21
10.4274837537828
 31
0.0
  0
LINE
  5
   556
  8
0
  6
CONTINUOUS
 62
   130
 10
109.498161672582
 20
4.42748366437581
 30
0.0
 11
149.898159222831
 21
4.42748366437581
 31
0.0
  0
LINE
  5
   557
  8
0
  6
CONTINUOUS
 62
   130
 10
109.498161672582
 20
-44.1725170598206
 30
0.0
 11
149.898159222831
 21
-44.1725170598206
 31
0.0
  0
LINE
  5
   558
  8
0
  6
CONTINUOUS
 62
   130
 10
109.498161672582
 20
-44.1725170598206
 30
0.0
 11
109.498161672582
 21
4.42748366437581
 31
0.0
  0
LINE
  5
   559
  8
0
  6
CONTINUOUS
 62
   130
 10
149.89816036724
 20
-44.1725170598206
 30
0.0
 11
149.89816036724
 21
4.42748366437581
 31
0.0
  0
LINE
  5
   55A
  8
0
  6
CONTINUOUS
 62
     1
 10
161.698169698347
 20
-12.9725165949044
 30
0.0
 11
161.698169698347
 21
-12.172547100562
 31
0.0
  0
LINE
  5
   55B
  8
0
  6
CONTINUOUS
 62
     1
 10
161.698169698715
 20
-14.3725166150167
 30
0.0
 11
161.698172750473
 21
-15.1725166269376
 31
0.0
  0
LINE
  5
   55C
  8
0
  6
CONTINUOUS
 62
     1
 10
160.498160526628
 20
-22.9725167413726
 30
0.0
 11
160.498166630144
 21
-22.1725167294517
 31
0.0
  0
LINE
  5
   55D
  8
0
  6
CONTINUOUS
 62
     1
 10
158.538590757309
 20
-37.5732870086834
 30
0.0
 11
159.018150072023
 21
-38.1447561399431
 31
0.0
  0
LINE
  5
   55E
  8
0
  6
CONTINUOUS
 62
     1
 10
157.932852629256
 20
-37.1378154827959
 30
0.0
 11
158.538592989662
 21
-37.5732860530393
 31
0.0
  0
LINE
  5
   55F
  8
0
  6
CONTINUOUS
 62
     1
 10
157.238391080147
 20
-36.8652753014503
 30
0.0
 11
157.932852129168
 21
-37.1378155928645
 31
0.0
  0
LINE
  5
   560
  8
0
  6
CONTINUOUS
 62
     1
 10
156.498159261695
 20
-36.7725155432987
 30
0.0
 11
157.238396717731
 21
-36.8652737227081
 31
0.0
  0
LINE
  5
   561
  8
0
  6
CONTINUOUS
 62
     1
 10
155.757922158711
 20
-36.8652730987042
 30
0.0
 11
156.498159614747
 21
-36.7725149192948
 31
0.0
  0
LINE
  5
   562
  8
0
  6
CONTINUOUS
 62
     1
 10
155.063454981754
 20
-37.137815876056
 30
0.0
 11
155.757916030775
 21
-36.8652755846419
 31
0.0
  0
LINE
  5
   563
  8
0
  6
CONTINUOUS
 62
     1
 10
154.457715165111
 20
-37.5732862295432
 30
0.0
 11
155.063455525518
 21
-37.1378156592998
 31
0.0
  0
LINE
  5
   564
  8
0
  6
CONTINUOUS
 62
     1
 10
153.978154416479
 20
-38.1447539610815
 30
0.0
 11
154.457716780407
 21
-37.5732848361593
 31
0.0
  0
LINE
  5
   565
  8
0
  6
CONTINUOUS
 62
     1
 10
153.978153103818
 20
-41.4002758075735
 30
0.0
 11
153.978153103818
 21
-38.1447551291797
 31
0.0
  0
LINE
  5
   566
  8
0
  6
CONTINUOUS
 62
     1
 10
153.978153988157
 20
-41.4002754927782
 30
0.0
 11
154.457716352085
 21
-41.9717446177004
 31
0.0
  0
LINE
  5
   567
  8
0
  6
CONTINUOUS
 62
     1
 10
154.457715261511
 20
-41.9717449799078
 30
0.0
 11
155.063455621918
 21
-42.4072155501512
 31
0.0
  0
LINE
  5
   568
  8
0
  6
CONTINUOUS
 62
     1
 10
155.063453426824
 20
-42.4072159338722
 30
0.0
 11
155.757914474899
 21
-42.6797577460914
 31
0.0
  0
LINE
  5
   569
  8
0
  6
CONTINUOUS
 62
     1
 10
155.75792178187
 20
-42.6797562621847
 30
0.0
 11
156.498159237906
 21
-42.7725144415941
 31
0.0
  0
LINE
  5
   56A
  8
0
  6
CONTINUOUS
 62
     1
 10
156.498159638535
 20
-42.7725138175902
 30
0.0
 11
157.238397094571
 21
-42.6797556381808
 31
0.0
  0
LINE
  5
   56B
  8
0
  6
CONTINUOUS
 62
     1
 10
157.238388698087
 20
-42.6797587448078
 30
0.0
 11
157.932849746163
 21
-42.4072169325886
 31
0.0
  0
LINE
  5
   56C
  8
0
  6
CONTINUOUS
 62
     1
 10
157.932852532855
 20
-42.4072157266552
 30
0.0
 11
158.538592893262
 21
-41.9717451564118
 31
0.0
  0
LINE
  5
   56D
  8
0
  6
CONTINUOUS
 62
     1
 10
158.53858954937
 20
-41.9717478448904
 30
0.0
 11
159.018148864084
 21
-41.4002787136307
 31
0.0
  0
LINE
  5
   56E
  8
0
  6
CONTINUOUS
 62
     1
 10
159.018152568568
 20
-41.4002758075735
 30
0.0
 11
159.018152568568
 21
-38.1447551291797
 31
0.0
  0
LINE
  5
   56F
  8
0
  6
CONTINUOUS
 62
     1
 10
161.839576451653
 20
-32.3310399484803
 30
0.0
 11
161.898154943839
 21
-32.4724614594014
 31
0.0
  0
LINE
  5
   570
  8
0
  6
CONTINUOUS
 62
     1
 10
161.698155326379
 20
-32.2724617162292
 30
0.0
 11
161.8395768373
 21
-32.3310402084153
 31
0.0
  0
LINE
  5
   571
  8
0
  6
CONTINUOUS
 62
     1
 10
160.498154421677
 20
-32.2724619508554
 30
0.0
 11
161.698154439558
 21
-32.2724619508554
 31
0.0
  0
LINE
  5
   572
  8
0
  6
CONTINUOUS
 62
     1
 10
160.356734034933
 20
-32.3310398254216
 30
0.0
 11
160.498155545854
 21
-32.2724613332355
 31
0.0
  0
LINE
  5
   573
  8
0
  6
CONTINUOUS
 62
     1
 10
160.29815516311
 20
-32.4724610752354
 30
0.0
 11
160.356733655297
 21
-32.3310395643142
 31
0.0
  0
LINE
  5
   574
  8
0
  6
CONTINUOUS
 62
     1
 10
160.298154418696
 20
-33.4724619687368
 30
0.0
 11
160.298154418696
 21
-32.4724619538356
 31
0.0
  0
LINE
  5
   575
  8
0
  6
CONTINUOUS
 62
     1
 10
160.298154418696
 20
-34.2724619806577
 30
0.0
 11
160.298154418696
 21
-33.4724619687368
 31
0.0
  0
LINE
  5
   576
  8
0
  6
CONTINUOUS
 62
     1
 10
160.298154418696
 20
-35.0724619925786
 30
0.0
 11
160.298154418696
 21
-34.2724619806577
 31
0.0
  0
LINE
  5
   577
  8
0
  6
CONTINUOUS
 62
     1
 10
160.298154418696
 20
-35.8724620044995
 30
0.0
 11
160.298154418696
 21
-35.0724619925786
 31
0.0
  0
LINE
  5
   578
  8
0
  6
CONTINUOUS
 62
     1
 10
160.298154418696
 20
-36.8724620194007
 30
0.0
 11
160.298154418696
 21
-35.8724620044995
 31
0.0
  0
LINE
  5
   579
  8
0
  6
CONTINUOUS
 62
     1
 10
160.298154918137
 20
-36.8724616105975
 30
0.0
 11
160.356733410324
 21
-37.0138831215187
 31
0.0
  0
LINE
  5
   57A
  8
0
  6
CONTINUOUS
 62
     1
 10
160.356733788788
 20
-37.0138833496521
 30
0.0
 11
160.498155299709
 21
-37.0724618418383
 31
0.0
  0
LINE
  5
   57B
  8
0
  6
CONTINUOUS
 62
     1
 10
160.498154421677
 20
-37.0724620223809
 30
0.0
 11
161.698154439558
 21
-37.0724620223809
 31
0.0
  0
LINE
  5
   57C
  8
0
  6
CONTINUOUS
 62
     1
 10
161.698155572524
 20
-37.0724614588446
 30
0.0
 11
161.839577083445
 21
-37.0138829666584
 31
0.0
  0
LINE
  5
   57D
  8
0
  6
CONTINUOUS
 62
     1
 10
161.839576696626
 20
-37.0138827373527
 30
0.0
 11
161.898155188812
 21
-36.8724612264315
 31
0.0
  0
LINE
  5
   57E
  8
0
  6
CONTINUOUS
 62
     1
 10
161.898154442538
 20
-36.8724620194007
 30
0.0
 11
161.898154442538
 21
-35.8724620044995
 31
0.0
  0
LINE
  5
   57F
  8
0
  6
CONTINUOUS
 62
     1
 10
161.898154442538
 20
-35.8724620044995
 30
0.0
 11
161.898154442538
 21
-35.0724619925786
 31
0.0
  0
LINE
  5
   580
  8
0
  6
CONTINUOUS
 62
     1
 10
161.898154442538
 20
-35.0724619925786
 30
0.0
 11
161.898154442538
 21
-34.2724619806577
 31
0.0
  0
LINE
  5
   581
  8
0
  6
CONTINUOUS
 62
     1
 10
161.898154442538
 20
-34.2724619806577
 30
0.0
 11
161.898154442538
 21
-33.4724619687368
 31
0.0
  0
LINE
  5
   582
  8
0
  6
CONTINUOUS
 62
     1
 10
161.898154442538
 20
-33.4724619687368
 30
0.0
 11
161.898154442538
 21
-32.4724619538356
 31
0.0
  0
LINE
  5
   583
  8
0
  6
CONTINUOUS
 62
     1
 10
160.498166628708
 20
1.72748362414268
 30
0.0
 11
160.498166628708
 21
2.92748364202407
 31
0.0
  0
LINE
  5
   584
  8
0
  6
CONTINUOUS
 62
     1
 10
160.498165601527
 20
1.72748016016489
 30
0.0
 11
160.612756053672
 21
1.37480680857658
 31
0.0
  0
LINE
  5
   585
  8
0
  6
CONTINUOUS
 62
     1
 10
160.612756743101
 20
1.37480980939864
 30
0.0
 11
160.912756744923
 21
1.15684715338894
 31
0.0
  0
LINE
  5
   586
  8
0
  6
CONTINUOUS
 62
     1
 10
160.912757088988
 20
1.15684762931141
 30
0.0
 11
161.28357618631
 21
1.15684762931141
 31
0.0
  0
LINE
  5
   587
  8
0
  6
CONTINUOUS
 62
     1
 10
161.283575391244
 20
1.15684683484497
 30
0.0
 11
161.583575393066
 21
1.37480949085467
 31
0.0
  0
LINE
  5
   588
  8
0
  6
CONTINUOUS
 62
     1
 10
161.583573921478
 20
1.37480592323102
 30
0.0
 11
161.698164373623
 21
1.72747927481933
 31
0.0
  0
LINE
  5
   589
  8
0
  6
CONTINUOUS
 62
     1
 10
161.698166646589
 20
1.72748362414268
 30
0.0
 11
161.698166646589
 21
2.92748364202407
 31
0.0
  0
LINE
  5
   58A
  8
0
  6
CONTINUOUS
 62
     1
 10
161.583575141497
 20
3.28015344357047
 30
0.0
 11
161.698165593642
 21
2.92748009198219
 31
0.0
  0
LINE
  5
   58B
  8
0
  6
CONTINUOUS
 62
     1
 10
161.283575844203
 20
3.49811914969126
 30
0.0
 11
161.583575846024
 21
3.28015649368156
 31
0.0
  0
LINE
  5
   58C
  8
0
  6
CONTINUOUS
 62
     1
 10
160.912757088988
 20
3.49811963685534
 30
0.0
 11
161.28357618631
 21
3.49811963685534
 31
0.0
  0
LINE
  5
   58D
  8
0
  6
CONTINUOUS
 62
     1
 10
160.612756290143
 20
3.28015617513759
 30
0.0
 11
160.912756291965
 21
3.49811883114728
 31
0.0
  0
LINE
  5
   58E
  8
0
  6
CONTINUOUS
 62
     1
 10
160.498164381508
 20
2.92747920663662
 30
0.0
 11
160.612754833653
 21
3.28015255822491
 31
0.0
  0
LINE
  5
   58F
  8
0
  6
CONTINUOUS
 62
     1
 10
160.498166628726
 20
-22.9725167438846
 30
0.0
 11
160.498175783999
 21
-12.1725165829521
 31
0.0
  0
LINE
  5
   590
  8
0
  6
CONTINUOUS
 62
     1
 10
160.498166628708
 20
-22.972516743916
 30
0.0
 11
161.698181905379
 21
-22.972516743916
 31
0.0
  0
LINE
  5
   591
  8
0
  6
CONTINUOUS
 62
     1
 10
161.69816969838
 20
-12.1725471005062
 30
0.0
 11
161.698181905411
 21
-22.9725167438602
 31
0.0
  0
LINE
  5
   592
  8
0
  6
CONTINUOUS
 62
     1
 10
160.498175815889
 20
-12.1725165653614
 30
0.0
 11
161.698169730255
 21
-12.172547082939
 31
0.0
  0
LINE
  5
   593
  8
0
  6
CONTINUOUS
 62
     5
 10
87.4981792733083
 20
-48.5724942369239
 30
0.0
 11
94.0981671646245
 21
-48.5725308580175
 31
0.0
  0
LINE
  5
   594
  8
0
  6
CONTINUOUS
 62
     5
 10
87.4981792738337
 20
7.4274837090793
 30
0.0
 11
94.0981671651499
 21
7.4274837090793
 31
0.0
  0
LINE
  5
   595
  8
0
  6
CONTINUOUS
 62
     5
 10
94.0981671651499
 20
5.82744096062743
 30
0.0
 11
94.0981671651499
 21
7.4274837090793
 31
0.0
  0
LINE
  5
   596
  8
0
  6
CONTINUOUS
 62
     5
 10
94.0981671651499
 20
-48.5725308582961
 30
0.0
 11
94.0981671651499
 21
-46.9725811884589
 31
0.0
  0
LINE
  5
   597
  8
0
  6
CONTINUOUS
 62
     5
 10
87.0981640090837
 20
-48.1725705251874
 30
0.0
 11
87.0981716384786
 21
7.02748522899812
 31
0.0
  0
LINE
  5
   598
  8
0
  6
CONTINUOUS
 62
     1
 10
93.6981641074316
 20
-48.5724698231389
 30
0.0
 11
93.6981641074316
 21
-46.9725735590642
 31
0.0
  0
LINE
  5
   599
  8
0
  6
CONTINUOUS
 62
     1
 10
93.6981641074316
 20
2.12757518283888
 30
0.0
 11
93.6981641074316
 21
7.4274837090793
 31
0.0
  0
LINE
  5
   59A
  8
0
  6
CONTINUOUS
 62
     5
 10
87.0981714343109
 20
-48.1724695261953
 30
0.0
 11
87.1286127199159
 21
-48.3256433577862
 31
0.0
  0
LINE
  5
   59B
  8
0
  6
CONTINUOUS
 62
     5
 10
87.1286284468772
 20
-48.3255432193985
 30
0.0
 11
87.2153227819143
 21
-48.4554138238434
 31
0.0
  0
LINE
  5
   59C
  8
0
  6
CONTINUOUS
 62
     5
 10
87.2153370018355
 20
-48.4553133738513
 30
0.0
 11
87.3451069037528
 21
-48.5420214418707
 31
0.0
  0
LINE
  5
   59D
  8
0
  6
CONTINUOUS
 62
     5
 10
87.3451066269714
 20
-48.5420211305654
 30
0.0
 11
87.4981797514822
 21
-48.5724944596218
 31
0.0
  0
LINE
  5
   59E
  8
0
  6
CONTINUOUS
 62
     5
 10
87.3451064377505
 20
7.39703263310346
 30
0.0
 11
87.4981795594925
 21
7.42748307231366
 31
0.0
  0
LINE
  5
   59F
  8
0
  6
CONTINUOUS
 62
     5
 10
87.2153395920692
 20
7.31032282015563
 30
0.0
 11
87.3451064371325
 21
7.39702936078092
 31
0.0
  0
LINE
  5
   5A0
  8
0
  6
CONTINUOUS
 62
     5
 10
87.128628215317
 20
7.18056130648402
 30
0.0
 11
87.2153362866478
 21
7.31032815760821
 31
0.0
  0
LINE
  5
   5A1
  8
0
  6
CONTINUOUS
 62
     5
 10
87.0981716702699
 20
7.0274832939847
 30
0.0
 11
87.1286282145397
 21
7.18055946833493
 31
0.0
  0
LINE
  5
   5A2
  8
0
  6
CONTINUOUS
 62
     1
 10
93.6981641051443
 20
-46.9725689801378
 30
0.0
 11
94.0981656369837
 21
-46.9725735577746
 31
0.0
  0
LINE
  5
   5A3
  8
0
  6
CONTINUOUS
 62
     1
 10
93.6981641034586
 20
5.82747759016114
 30
0.0
 11
94.0981656352979
 21
5.82748369367685
 31
0.0
  0
LINE
  5
   5A4
  8
0
  6
CONTINUOUS
 62
     1
 10
92.59816409056
 20
-42.5726207954343
 30
0.0
 11
94.0981641129118
 21
-42.5726284248291
 31
0.0
  0
LINE
  5
   5A5
  8
0
  6
CONTINUOUS
 62
     1
 10
92.5981640910403
 20
-44.1726284489824
 30
0.0
 11
94.0981641133921
 21
-44.1726284489824
 31
0.0
  0
LINE
  5
   5A6
  8
0
  6
CONTINUOUS
 62
     1
 10
93.6981641074316
 20
-0.9725713477319
 30
0.0
 11
94.0981641133921
 21
-0.9725713477319
 31
0.0
  0
LINE
  5
   5A7
  8
0
  6
CONTINUOUS
 62
     1
 10
93.6981641074316
 20
-2.57257137157376
 30
0.0
 11
94.0981641133921
 21
-2.57257137157376
 31
0.0
  0
LINE
  5
   5A8
  8
0
  6
CONTINUOUS
 62
     5
 10
94.0981641133921
 20
-39.7725963399598
 30
0.0
 11
94.0981641133921
 21
-3.77259580351802
 31
0.0
  0
LINE
  5
   5A9
  8
0
  6
CONTINUOUS
 62
     5
 10
94.098164113361
 20
-46.1725964352527
 30
0.0
 11
94.0981656392399
 21
-46.9725735589897
 31
0.0
  0
LINE
  5
   5AA
  8
0
  6
CONTINUOUS
 62
     5
 10
94.0981641133921
 20
-44.5722683475157
 30
0.0
 11
94.0981641133921
 21
-42.1729335949659
 31
0.0
  0
LINE
  5
   5AB
  8
0
  6
CONTINUOUS
 62
     5
 10
94.0981641133901
 20
2.6274042918659
 30
0.0
 11
94.098165639269
 21
5.82744096064391
 31
0.0
  0
LINE
  5
   5AC
  8
0
  6
CONTINUOUS
 62
     5
 10
94.0981641133921
 20
-2.97258968808137
 30
0.0
 11
94.0981641133921
 21
-0.572589652318584
 31
0.0
  0
LINE
  5
   5AD
  8
0
  6
CONTINUOUS
 62
     1
 10
90.6981640627281
 20
-42.5726101145934
 30
0.0
 11
90.6981640627281
 21
-42.1724254772826
 31
0.0
  0
LINE
  5
   5AE
  8
0
  6
CONTINUOUS
 62
     1
 10
93.6981656333105
 20
2.62740429184942
 30
0.0
 11
94.0981641133921
 21
2.62740429184942
 31
0.0
  0
LINE
  5
   5AF
  8
0
  6
CONTINUOUS
 62
     1
 10
92.0981640835897
 20
-3.77259580351802
 30
0.0
 11
94.0981641133921
 21
-3.77259580351802
 31
0.0
  0
LINE
  5
   5B0
  8
0
  6
CONTINUOUS
 62
     1
 10
92.5981640910403
 20
-46.1725918576905
 30
0.0
 11
94.0981641133921
 21
-46.1725918576905
 31
0.0
  0
LINE
  5
   5B1
  8
0
  6
CONTINUOUS
 62
     1
 10
92.0981640835897
 20
-39.7725902364441
 30
0.0
 11
94.0981641133921
 21
-39.7725902364441
 31
0.0
  0
LINE
  5
   5B2
  8
0
  6
CONTINUOUS
 62
     5
 10
86.6981640031235
 20
-27.3725992069433
 30
0.0
 11
86.6981640031235
 21
-19.372599087734
 31
0.0
  0
LINE
  5
   5B3
  8
0
  6
CONTINUOUS
 62
     1
 10
88.9981533562436
 20
2.12739818088312
 30
0.0
 11
90.3981640582577
 21
2.12739818088312
 31
0.0
  0
LINE
  5
   5B4
  8
0
  6
CONTINUOUS
 62
     1
 10
88.9981533562436
 20
2.12739818088312
 30
0.0
 11
90.3981640582577
 21
2.12739818088312
 31
0.0
  0
LINE
  5
   5B5
  8
0
  6
CONTINUOUS
 62
     1
 10
92.0981640835897
 20
-3.37256527997897
 30
0.0
 11
93.6981641074316
 21
-3.37256527997897
 31
0.0
  0
LINE
  5
   5B6
  8
0
  6
CONTINUOUS
 62
     1
 10
93.6981641074316
 20
-3.37256527997897
 30
0.0
 11
93.6981641074316
 21
2.12739818088312
 31
0.0
  0
LINE
  5
   5B7
  8
0
  6
CONTINUOUS
 62
     1
 10
91.2981625446801
 20
-5.37246765174588
 30
0.0
 11
92.0981534013275
 21
-5.37247375526159
 31
0.0
  0
LINE
  5
   5B8
  8
0
  6
CONTINUOUS
 62
     1
 10
92.0981534023592
 20
-5.37247375653071
 30
0.0
 11
92.098157979996
 21
-3.77251645729886
 31
0.0
  0
LINE
  5
   5B9
  8
0
  6
CONTINUOUS
 62
     1
 10
91.2981625411646
 20
-4.37246152786072
 30
0.0
 11
92.0981549236908
 21
-4.37247373489214
 31
0.0
  0
LINE
  5
   5BA
  8
0
  6
CONTINUOUS
 62
     1
 10
90.3981640582577
 20
-0.172601853389551
 30
0.0
 11
90.3981640582577
 21
2.12739818088312
 31
0.0
  0
LINE
  5
   5BB
  8
0
  6
CONTINUOUS
 62
     1
 10
90.3981597997133
 20
-0.172594522727181
 30
0.0
 11
90.9981598218343
 21
-0.772594544848232
 31
0.0
  0
LINE
  5
   5BC
  8
0
  6
CONTINUOUS
 62
     1
 10
90.9981640671984
 20
-0.772601862330248
 30
0.0
 11
92.3981640880601
 21
-0.772601862330248
 31
0.0
  0
LINE
  5
   5BD
  8
0
  6
CONTINUOUS
 62
     1
 10
92.3981640880601
 20
-0.772601862330248
 30
0.0
 11
92.3981640880601
 21
2.12757518283888
 31
0.0
  0
LINE
  5
   5BE
  8
0
  6
CONTINUOUS
 62
     1
 10
90.3981640582577
 20
2.12748973361886
 30
0.0
 11
93.6981641074316
 21
2.12748973361886
 31
0.0
  0
LINE
  5
   5BF
  8
0
  6
CONTINUOUS
 62
     1
 10
90.9981640671251
 20
-45.1725384369877
 30
0.0
 11
92.598164090967
 21
-45.1725414887456
 31
0.0
  0
LINE
  5
   5C0
  8
0
  6
CONTINUOUS
 62
     1
 10
92.5981640910403
 20
-46.9724255488081
 30
0.0
 11
92.5981640910403
 21
-45.1725414887846
 31
0.0
  0
LINE
  5
   5C1
  8
0
  6
CONTINUOUS
 62
     1
 10
90.9981640671984
 20
-46.9724255488081
 30
0.0
 11
90.9981640671984
 21
-45.1725384370268
 31
0.0
  0
LINE
  5
   5C2
  8
0
  6
CONTINUOUS
 62
     1
 10
89.5981594685606
 20
-42.5725765451791
 30
0.0
 11
92.5981640909008
 21
-42.5725689157842
 31
0.0
  0
LINE
  5
   5C3
  8
0
  6
CONTINUOUS
 62
     1
 10
92.5981640910403
 20
-45.1725689546054
 30
0.0
 11
92.5981640910403
 21
-42.5725689158623
 31
0.0
  0
LINE
  5
   5C4
  8
0
  6
CONTINUOUS
 62
     1
 10
92.0981640835897
 20
-7.77250431038692
 30
0.0
 11
92.0981640835897
 21
-5.3724920675927
 31
0.0
  0
LINE
  5
   5C5
  8
0
  6
CONTINUOUS
 62
     1
 10
89.5981598155103
 20
-42.5725769798751
 30
0.0
 11
89.6286987559535
 21
-42.5420380394319
 31
0.0
  0
LINE
  5
   5C6
  8
0
  6
CONTINUOUS
 62
     1
 10
89.5981606208546
 20
-42.5725216273778
 30
0.0
 11
89.9982659141412
 21
-42.1724270252033
 31
0.0
  0
LINE
  5
   5C7
  8
0
  6
CONTINUOUS
 62
     1
 10
92.0981595059528
 20
-7.77250431038588
 30
0.0
 11
92.0981640835895
 21
-42.1724254772815
 31
0.0
  0
LINE
  5
   5C8
  8
0
  6
CONTINUOUS
 62
     1
 10
92.0981640835897
 20
-3.77251645781371
 30
0.0
 11
92.0981640835897
 21
-1.97242487825588
 31
0.0
  0
LINE
  5
   5C9
  8
0
  6
CONTINUOUS
 62
     1
 10
89.5981640463368
 20
-42.1724254772826
 30
0.0
 11
92.0981640835897
 21
-42.1724254772826
 31
0.0
  0
LINE
  5
   5CA
  8
0
  6
CONTINUOUS
 62
     1
 10
89.5981640463368
 20
-46.9724255488081
 30
0.0
 11
93.6981641074316
 21
-46.9724255488081
 31
0.0
  0
LINE
  5
   5CB
  8
0
  6
CONTINUOUS
 62
     1
 10
89.5981640463368
 20
-46.9724255488081
 30
0.0
 11
89.5981640463368
 21
-42.1724254772826
 31
0.0
  0
LINE
  5
   5CC
  8
0
  6
CONTINUOUS
 62
     1
 10
88.9981609856383
 20
-1.97242487825588
 30
0.0
 11
92.0981640835897
 21
-1.97242487825588
 31
0.0
  0
LINE
  5
   5CD
  8
0
  6
CONTINUOUS
 62
     1
 10
88.9981609856383
 20
-1.97242487825588
 30
0.0
 11
88.9981609856383
 21
2.12757518283888
 31
0.0
  0
LINE
  5
   5CE
  8
0
  6
CONTINUOUS
 62
     1
 10
91.6981640776293
 20
-3.77251645781371
 30
0.0
 11
92.0981640835897
 21
-3.77251645781371
 31
0.0
  0
LINE
  5
   5CF
  8
0
  6
CONTINUOUS
 62
     1
 10
91.545091187927
 20
-3.80296743861012
 30
0.0
 11
91.6981643096689
 21
-3.77251699939992
 31
0.0
  0
LINE
  5
   5D0
  8
0
  6
CONTINUOUS
 62
     1
 10
91.4153212328529
 20
-3.88967637945209
 30
0.0
 11
91.5450911287155
 21
-3.80296983284518
 31
0.0
  0
LINE
  5
   5D1
  8
0
  6
CONTINUOUS
 62
     1
 10
91.3286130231644
 20
-4.01943907394812
 30
0.0
 11
91.4153210944952
 21
-3.88967222282394
 31
0.0
  0
LINE
  5
   5D2
  8
0
  6
CONTINUOUS
 62
     1
 10
91.2981640779458
 20
-4.17251654986258
 30
0.0
 11
91.3286129915247
 21
-4.01944037644189
 31
0.0
  0
LINE
  5
   5D3
  8
0
  6
CONTINUOUS
 62
     1
 10
91.2981640716688
 20
-7.37250430442646
 30
0.0
 11
91.2981640716688
 21
-4.17251646377417
 31
0.0
  0
LINE
  5
   5D4
  8
0
  6
CONTINUOUS
 62
     1
 10
91.2981640952362
 20
-7.37250439198753
 30
0.0
 11
91.3286130088151
 21
-7.52558056540821
 31
0.0
  0
LINE
  5
   5D5
  8
0
  6
CONTINUOUS
 62
     1
 10
91.3286123175852
 20
-7.52557910702258
 30
0.0
 11
91.415320388916
 21
-7.65534595814676
 31
0.0
  0
LINE
  5
   5D6
  8
0
  6
CONTINUOUS
 62
     1
 10
91.4153234956892
 20
-7.6553507992927
 30
0.0
 11
91.5450933915519
 21
-7.74205734589961
 31
0.0
  0
LINE
  5
   5D7
  8
0
  6
CONTINUOUS
 62
     1
 10
91.5450913928826
 20
-7.74205444143688
 30
0.0
 11
91.6981645146246
 21
-7.77250488064708
 31
0.0
  0
LINE
  5
   5D8
  8
0
  6
CONTINUOUS
 62
     1
 10
91.6981640776293
 20
-7.77250431038692
 30
0.0
 11
92.0981595059529
 21
-7.77250431038692
 31
0.0
  0
LINE
  5
   5D9
  8
0
  6
CONTINUOUS
 62
     1
 10
189.898179273834
 20
-5.37251037813985
 30
0.0
 11
190.298173176278
 21
-5.37251037813985
 31
0.0
  0
LINE
  5
   5DA
  8
0
  6
CONTINUOUS
 62
     7
 10
189.898179273834
 20
7.4274837090793
 30
0.0
 11
190.298173176278
 21
7.4274837090793
 31
0.0
  0
LINE
  5
   5DB
  8
0
  6
DOT
 62
     7
 10
177.898119585733
 20
7.4274837090793
 30
0.0
 11
188.498118023561
 21
7.4274837090793
 31
0.0
  0
LINE
  5
   5DC
  8
0
  6
DOT
 62
     7
 10
177.898119585733
 20
-5.37251037813985
 30
0.0
 11
188.498118023561
 21
-5.37251037813985
 31
0.0
  0
LINE
  5
   5DD
  8
0
  6
DOT
 62
     7
 10
177.898119585733
 20
-50.4725232572137
 30
0.0
 11
188.498118023561
 21
-50.4725232572137
 31
0.0
  0
LINE
  5
   5DE
  8
0
  6
CONTINUOUS
 62
     7
 10
190.298179279794
 20
-50.4725232572137
 30
0.0
 11
190.298179279794
 21
-48.5725262806593
 31
0.0
  0
LINE
  5
   5DF
  8
0
  6
DOT
 62
     7
 10
177.898119585733
 20
-17.3725323261974
 30
0.0
 11
188.498118023561
 21
-17.3725215433136
 31
0.0
  0
LINE
  5
   5E0
  8
0
  6
CONTINUOUS
 62
     7
 10
190.298173176279
 20
7.42748370908018
 30
0.0
 11
190.298179279795
 21
-48.5725293324163
 31
0.0
  0
LINE
  5
   5E1
  8
0
  6
CONTINUOUS
 62
     7
 10
190.698173182239
 20
-27.3725351200283
 30
0.0
 11
190.698173182239
 21
-19.372535000819
 31
0.0
  0
LINE
  5
   5E2
  8
0
  6
CONTINUOUS
 62
     1
 10
109.498162054052
 20
-12.4501838234492
 30
0.0
 11
149.898159604301
 21
-12.4501838234492
 31
0.0
  0
LINE
  5
   5E3
  8
0
  6
CONTINUOUS
 62
     1
 10
109.498162054052
 20
-12.0501838174887
 30
0.0
 11
149.898159604301
 21
-12.0501838174887
 31
0.0
  0
LINE
  5
   5E4
  8
0
  6
CONTINUOUS
 62
   210
 10
127.698164614071
 20
-37.2004557987023
 30
0.0
 11
127.698164614071
 21
-13.5445808124132
 31
0.0
  0
LINE
  5
   5E5
  8
0
  6
CONTINUOUS
 62
   210
 10
144.49816639029
 20
-37.2004557987023
 30
0.0
 11
144.49816639029
 21
-13.5445808124132
 31
0.0
  0
LINE
  5
   5E6
  8
0
  6
CONTINUOUS
 62
     1
 10
109.498162054052
 20
-20.050183936698
 30
0.0
 11
127.698165377011
 21
-20.050183936698
 31
0.0
  0
LINE
  5
   5E7
  8
0
  6
CONTINUOUS
 62
     1
 10
144.49816639029
 20
-20.050183936698
 30
0.0
 11
149.89816036724
 21
-20.050183936698
 31
0.0
  0
LINE
  5
   5E8
  8
0
  6
CONTINUOUS
 62
     1
 10
144.49816639029
 20
-19.6501839307375
 30
0.0
 11
149.89816036724
 21
-19.6501839307375
 31
0.0
  0
LINE
  5
   5E9
  8
0
  6
CONTINUOUS
 62
     1
 10
109.498162054052
 20
-19.6501839307375
 30
0.0
 11
127.698165377011
 21
-19.6501839307375
 31
0.0
  0
LINE
  5
   5EA
  8
0
  6
CONTINUOUS
 62
     1
 10
144.49816639029
 20
-30.7820719139984
 30
0.0
 11
149.89816036724
 21
-30.7820719139984
 31
0.0
  0
LINE
  5
   5EB
  8
0
  6
CONTINUOUS
 62
     1
 10
109.498162054052
 20
-30.7820719139984
 30
0.0
 11
127.698165377011
 21
-30.7820719139984
 31
0.0
  0
LINE
  5
   5EC
  8
0
  6
CONTINUOUS
 62
     1
 10
109.498162054052
 20
-31.1820719199588
 30
0.0
 11
127.698165377011
 21
-31.1820719199588
 31
0.0
  0
LINE
  5
   5ED
  8
0
  6
CONTINUOUS
 62
     1
 10
144.49816639029
 20
-31.1820719199588
 30
0.0
 11
149.89816036724
 21
-31.1820719199588
 31
0.0
  0
LINE
  5
   5EE
  8
0
  6
CONTINUOUS
 62
     1
 10
109.498162054052
 20
-38.3820720272472
 30
0.0
 11
149.898159604301
 21
-38.3820720272472
 31
0.0
  0
LINE
  5
   5EF
  8
0
  6
CONTINUOUS
 62
     1
 10
109.498162054052
 20
-38.7820720332077
 30
0.0
 11
149.898159604301
 21
-38.7820720332077
 31
0.0
  0
LINE
  5
   5F0
  8
0
  6
CONTINUOUS
 62
     1
 10
87.0981716384786
 20
7.02748370311883
 30
0.0
 11
93.6981641074316
 21
7.02748370311883
 31
0.0
  0
LINE
  5
   5F1
  8
0
  6
CONTINUOUS
 62
     1
 10
87.0981716271566
 20
-48.1724698125789
 30
0.0
 11
88.3981640171334
 21
-48.1724408208797
 31
0.0
  0
LINE
  5
   5F2
  8
0
  6
CONTINUOUS
 62
     1
 10
90.6981640627281
 20
-42.1726070568751
 30
0.0
 11
94.0981641133921
 21
-42.1726070568751
 31
0.0
  0
LINE
  5
   5F3
  8
0
  6
CONTINUOUS
 62
     1
 10
92.5981640910403
 20
-44.5726070926379
 30
0.0
 11
94.0981641133921
 21
-44.5726070926379
 31
0.0
  0
LINE
  5
   5F4
  8
0
  6
CONTINUOUS
 62
     1
 10
93.6981641074316
 20
-0.572589652318584
 30
0.0
 11
94.0981641133921
 21
-0.572589652318584
 31
0.0
  0
LINE
  5
   5F5
  8
0
  6
CONTINUOUS
 62
     1
 10
93.6981641074316
 20
-2.97258968808137
 30
0.0
 11
94.0981641133921
 21
-2.97258968808137
 31
0.0
  0
LINE
  5
   5F6
  8
0
  6
CONTINUOUS
 62
     5
 10
94.0981641133921
 20
-0.372595752854068
 30
0.0
 11
94.0981641133921
 21
2.62740429184942
 31
0.0
  0
LINE
  5
   5F7
  8
0
  6
CONTINUOUS
 62
     5
 10
94.0981641133921
 20
-0.572589652318584
 30
0.0
 11
94.0981641133921
 21
-0.372595752854068
 31
0.0
  0
LINE
  5
   5F8
  8
0
  6
CONTINUOUS
 62
     5
 10
94.0981641133921
 20
-3.17259579457732
 30
0.0
 11
94.0981641133921
 21
-2.97258968808137
 31
0.0
  0
LINE
  5
   5F9
  8
0
  6
CONTINUOUS
 62
     5
 10
94.0981641133921
 20
-3.77259580351802
 30
0.0
 11
94.0981641133921
 21
-3.17259579457732
 31
0.0
  0
LINE
  5
   5FA
  8
0
  6
CONTINUOUS
 62
     5
 10
94.0981641133921
 20
-41.9726070538949
 30
0.0
 11
94.0981641133921
 21
-39.7725902364441
 31
0.0
  0
LINE
  5
   5FB
  8
0
  6
CONTINUOUS
 62
     5
 10
94.0981641133921
 20
-42.1726070568751
 30
0.0
 11
94.0981641133921
 21
-41.9726070538949
 31
0.0
  0
LINE
  5
   5FC
  8
0
  6
CONTINUOUS
 62
     5
 10
94.0981641133921
 20
-44.7726070956181
 30
0.0
 11
94.0981641133921
 21
-44.5726070926379
 31
0.0
  0
LINE
  5
   5FD
  8
0
  6
CONTINUOUS
 62
     5
 10
94.0981641133921
 20
-46.1725918576905
 30
0.0
 11
94.0981641133921
 21
-44.7726070956181
 31
0.0
  0
LINE
  5
   5FE
  8
0
  6
CONTINUOUS
 62
     5
 10
86.6981640031235
 20
-27.3725992069433
 30
0.0
 11
87.0981640090839
 21
-27.3725992069433
 31
0.0
  0
LINE
  5
   5FF
  8
0
  6
CONTINUOUS
 62
     5
 10
86.6981640031235
 20
-19.372599087734
 30
0.0
 11
87.0981640090839
 21
-19.372599087734
 31
0.0
  0
LINE
  5
   600
  8
0
  6
CONTINUOUS
 62
     1
 10
90.6981640216482
 20
-0.472603382052654
 30
0.0
 11
91.5981640464005
 21
0.427396642699549
 31
0.0
  0
LINE
  5
   601
  8
0
  6
CONTINUOUS
 62
     1
 10
88.3981640284554
 20
-48.1724408254788
 30
0.0
 11
88.3981640284554
 21
-40.9724224076433
 31
0.0
  0
LINE
  5
   602
  8
0
  6
CONTINUOUS
 62
     1
 10
88.3981640284554
 20
-40.9724224076433
 30
0.0
 11
89.5981640463368
 21
-40.9724224076433
 31
0.0
  0
LINE
  5
   603
  8
0
  6
CONTINUOUS
 62
     1
 10
88.3981648326939
 20
-40.9724232620291
 30
0.0
 11
89.598164876934
 21
-42.1724263408463
 31
0.0
  0
LINE
  5
   604
  8
0
  6
CONTINUOUS
 62
     1
 10
88.3981640281416
 20
-48.1724408253443
 30
0.0
 11
89.598164046023
 21
-48.1724362477075
 31
0.0
  0
LINE
  5
   605
  8
0
  6
CONTINUOUS
 62
     1
 10
88.3981634046538
 20
-48.1724404156117
 30
0.0
 11
89.5981634488476
 21
-46.9724250973027
 31
0.0
  0
LINE
  5
   606
  8
0
  6
CONTINUOUS
 62
     1
 10
92.1981640850798
 20
-46.9724347040817
 30
0.0
 11
92.1981640850798
 21
-45.1725414887846
 31
0.0
  0
LINE
  5
   607
  8
0
  6
CONTINUOUS
 62
     1
 10
89.5981640463368
 20
-40.9724224076433
 30
0.0
 11
92.0981640835897
 21
-40.9724224076433
 31
0.0
  0
LINE
  5
   608
  8
0
  6
CONTINUOUS
 62
     1
 10
89.5981640461409
 20
-48.1724362477382
 30
0.0
 11
93.6981641072356
 21
-48.1724225148279
 31
0.0
  0
LINE
  5
   609
  8
0
  6
CONTINUOUS
 62
     1
 10
87.7981640195147
 20
-3.17241879262156
 30
0.0
 11
87.7981640195147
 21
3.32758130423599
 31
0.0
  0
LINE
  5
   60A
  8
0
  6
CONTINUOUS
 62
     1
 10
87.7981640195147
 20
3.32758130423599
 30
0.0
 11
88.9981609856383
 21
3.32758130423599
 31
0.0
  0
LINE
  5
   60B
  8
0
  6
CONTINUOUS
 62
     1
 10
87.7981652177698
 20
3.32757930826803
 30
0.0
 11
88.9981622274328
 21
2.12757319487376
 31
0.0
  0
LINE
  5
   60C
  8
0
  6
CONTINUOUS
 62
     1
 10
87.7981637978462
 20
-3.17241317904531
 30
0.0
 11
88.9981607737916
 21
-1.97241923766141
 31
0.0
  0
LINE
  5
   60D
  8
0
  6
CONTINUOUS
 62
     1
 10
91.5981640761392
 20
0.427398155551145
 30
0.0
 11
92.3981640880601
 21
0.427398155551145
 31
0.0
  0
LINE
  5
   60E
  8
0
  6
CONTINUOUS
 62
     1
 10
91.5981640761392
 20
0.427398155551145
 30
0.0
 11
91.5981640761392
 21
2.12748973361886
 31
0.0
  0
LINE
  5
   60F
  8
0
  6
CONTINUOUS
 62
     1
 10
88.9981609856383
 20
3.32758130423599
 30
0.0
 11
93.6981641074316
 21
3.32758130423599
 31
0.0
  0
LINE
  5
   610
  8
0
  6
CONTINUOUS
 62
     1
 10
87.7981640195147
 20
-3.17241879262156
 30
0.0
 11
92.0981640835897
 21
-3.17241879262156
 31
0.0
  0
LINE
  5
   611
  8
0
  6
CONTINUOUS
 62
     7
 10
190.298179279794
 20
-19.372535000819
 30
0.0
 11
190.698173182239
 21
-19.372535000819
 31
0.0
  0
LINE
  5
   612
  8
0
  6
CONTINUOUS
 62
     7
 10
190.298173176278
 20
-27.3725351200283
 30
0.0
 11
190.698173182239
 21
-27.3725351200283
 31
0.0
  0
LINE
  5
   613
  8
0
  6
CONTINUOUS
 62
   210
 10
127.698164614071
 20
-37.2004557987023
 30
0.0
 11
144.49816639029
 21
-37.2004557987023
 31
0.0
  0
LINE
  5
   614
  8
0
  6
CONTINUOUS
 62
   210
 10
127.698164614071
 20
-36.7636912658268
 30
0.0
 11
144.49816639029
 21
-36.7636912658268
 31
0.0
  0
LINE
  5
   615
  8
0
  6
CONTINUOUS
 62
   210
 10
127.698164614071
 20
-13.9813422935308
 30
0.0
 11
144.49816639029
 21
-13.9813422935308
 31
0.0
  0
LINE
  5
   616
  8
0
  6
CONTINUOUS
 62
   210
 10
127.698164614071
 20
-13.5445808124132
 30
0.0
 11
144.49816639029
 21
-13.5445808124132
 31
0.0
  0
CIRCLE
  5
   617
  8
0
  6
CONTINUOUS
 62
     7
 10
184.898178404967
 20
-33.5725318390504
 30
0.0
 40
2.10000010048305
  0
LINE
  5
   618
  8
0
  6
CONTINUOUS
 62
     1
 10
94.0981641133921
 20
-40.8725355151722
 30
0.0
 11
97.698116670536
 21
-40.8725355151722
 31
0.0
  0
LINE
  5
   619
  8
0
  6
DASHDOT
 62
     2
 10
80.2867074467152
 20
-17.5725166634497
 30
0.0
 11
195.243513260206
 21
-17.5725166634497
 31
0.0
  0
LINE
  5
   61A
  8
0
  6
CONTINUOUS
 62
     7
 10
94.7981183474477
 20
31.2274779602089
 30
0.0
 11
177.398119578283
 21
31.2274779602089
 31
0.0
  0
LINE
  5
   61B
  8
0
  6
CONTINUOUS
 62
     7
 10
94.698127249239
 20
-77.9725299645085
 30
0.0
 11
177.498128483055
 21
-77.9725299645085
 31
0.0
  0
ARC
  5
   61C
  8
0
  6
CONTINUOUS
 62
     7
 10
94.7981183474477
 20
30.7274779527583
 30
0.0
 40
0.500000007450581
 50
90.0
 51
180.0
  0
ARC
  5
   61D
  8
0
  6
CONTINUOUS
 62
     7
 10
177.398119578283
 20
30.7274779527583
 30
0.0
 40
0.500000007450581
 50
0.0
 51
90.0
  0
ARC
  5
   61E
  8
0
  6
CONTINUOUS
 62
     7
 10
177.498128483055
 20
-77.4725299570579
 30
0.0
 40
0.500000007450581
 50
270.0
 51
360.0
  0
ARC
  5
   61F
  8
0
  6
CONTINUOUS
 62
     7
 10
94.698127249239
 20
-77.4725299570579
 30
0.0
 40
0.500000007450581
 50
180.0
 51
270.0
  0
LINE
  5
   620
  8
0
  6
CONTINUOUS
 62
     1
 10
108.838127459941
 20
21.6274857378114
 30
0.0
 11
108.838127459941
 21
31.2274779602089
 31
0.0
  0
LINE
  5
   621
  8
0
  6
CONTINUOUS
 62
     1
 10
110.278127481399
 20
21.6274857378114
 30
0.0
 11
110.278127481399
 21
31.2274779602089
 31
0.0
  0
LINE
  5
   622
  8
0
  6
CONTINUOUS
 62
     1
 10
111.718127502857
 20
21.6274857378114
 30
0.0
 11
111.718127502857
 21
31.2274779602089
 31
0.0
  0
LINE
  5
   623
  8
0
  6
CONTINUOUS
 62
     1
 10
113.158127524314
 20
21.6274857378114
 30
0.0
 11
113.158127524314
 21
31.2274779602089
 31
0.0
  0
LINE
  5
   624
  8
0
  6
CONTINUOUS
 62
     1
 10
114.598127545772
 20
21.6274857378114
 30
0.0
 11
114.598127545772
 21
31.2274779602089
 31
0.0
  0
LINE
  5
   625
  8
0
  6
CONTINUOUS
 62
     1
 10
116.03812756723
 20
21.6274857378114
 30
0.0
 11
116.03812756723
 21
31.2274779602089
 31
0.0
  0
LINE
  5
   626
  8
0
  6
CONTINUOUS
 62
     1
 10
117.478127588687
 20
21.6274857378114
 30
0.0
 11
117.478127588687
 21
31.2274779602089
 31
0.0
  0
LINE
  5
   627
  8
0
  6
CONTINUOUS
 62
     1
 10
118.918127610145
 20
21.6274857378114
 30
0.0
 11
118.918127610145
 21
31.2274779602089
 31
0.0
  0
LINE
  5
   628
  8
0
  6
CONTINUOUS
 62
     1
 10
120.358127631603
 20
21.6274857378114
 30
0.0
 11
120.358127631603
 21
31.2274779602089
 31
0.0
  0
LINE
  5
   629
  8
0
  6
CONTINUOUS
 62
     1
 10
121.79812765306
 20
21.6274857378114
 30
0.0
 11
121.79812765306
 21
31.2274779602089
 31
0.0
  0
LINE
  5
   62A
  8
0
  6
CONTINUOUS
 62
     1
 10
123.238127674518
 20
21.6274857378114
 30
0.0
 11
123.238127674518
 21
31.2274779602089
 31
0.0
  0
LINE
  5
   62B
  8
0
  6
CONTINUOUS
 62
     1
 10
124.678127695976
 20
21.6274857378114
 30
0.0
 11
124.678127695976
 21
31.2274779602089
 31
0.0
  0
LINE
  5
   62C
  8
0
  6
CONTINUOUS
 62
     1
 10
126.118127717433
 20
21.6274857378114
 30
0.0
 11
126.118127717433
 21
31.2274779602089
 31
0.0
  0
LINE
  5
   62D
  8
0
  6
CONTINUOUS
 62
     1
 10
127.558127738891
 20
21.6274857378114
 30
0.0
 11
127.558127738891
 21
31.2274779602089
 31
0.0
  0
LINE
  5
   62E
  8
0
  6
CONTINUOUS
 62
     1
 10
128.998127760349
 20
21.6274857378114
 30
0.0
 11
128.998127760349
 21
31.2274779602089
 31
0.0
  0
LINE
  5
   62F
  8
0
  6
CONTINUOUS
 62
     1
 10
130.438127781807
 20
21.6274857378114
 30
0.0
 11
130.438127781807
 21
31.2274779602089
 31
0.0
  0
LINE
  5
   630
  8
0
  6
CONTINUOUS
 62
     1
 10
131.878127803264
 20
21.6274857378114
 30
0.0
 11
131.878127803264
 21
31.2274779602089
 31
0.0
  0
LINE
  5
   631
  8
0
  6
CONTINUOUS
 62
     1
 10
133.318127824722
 20
21.6274857378114
 30
0.0
 11
133.318127824722
 21
31.2274779602089
 31
0.0
  0
LINE
  5
   632
  8
0
  6
CONTINUOUS
 62
     1
 10
134.75812784618
 20
21.6274857378114
 30
0.0
 11
134.75812784618
 21
31.2274779602089
 31
0.0
  0
LINE
  5
   633
  8
0
  6
CONTINUOUS
 62
     1
 10
163.358110465789
 20
21.6274857378114
 30
0.0
 11
163.358110465789
 21
31.2274779602089
 31
0.0
  0
LINE
  5
   634
  8
0
  6
CONTINUOUS
 62
     1
 10
161.918110444331
 20
21.6274857378114
 30
0.0
 11
161.918110444331
 21
31.2274779602089
 31
0.0
  0
LINE
  5
   635
  8
0
  6
CONTINUOUS
 62
     1
 10
160.478110422874
 20
21.6274857378114
 30
0.0
 11
160.478110422874
 21
31.2274779602089
 31
0.0
  0
LINE
  5
   636
  8
0
  6
CONTINUOUS
 62
     1
 10
159.038110401416
 20
21.6274857378114
 30
0.0
 11
159.038110401416
 21
31.2274779602089
 31
0.0
  0
LINE
  5
   637
  8
0
  6
CONTINUOUS
 62
     1
 10
157.598110379959
 20
21.6274857378114
 30
0.0
 11
157.598110379959
 21
31.2274779602089
 31
0.0
  0
LINE
  5
   638
  8
0
  6
CONTINUOUS
 62
     1
 10
156.158110358501
 20
21.6274857378114
 30
0.0
 11
156.158110358501
 21
31.2274779602089
 31
0.0
  0
LINE
  5
   639
  8
0
  6
CONTINUOUS
 62
     1
 10
154.718110337043
 20
21.6274857378114
 30
0.0
 11
154.718110337043
 21
31.2274779602089
 31
0.0
  0
LINE
  5
   63A
  8
0
  6
CONTINUOUS
 62
     1
 10
153.278110315585
 20
21.6274857378114
 30
0.0
 11
153.278110315585
 21
31.2274779602089
 31
0.0
  0
LINE
  5
   63B
  8
0
  6
CONTINUOUS
 62
     1
 10
151.838110294128
 20
21.6274857378114
 30
0.0
 11
151.838110294128
 21
31.2274779602089
 31
0.0
  0
LINE
  5
   63C
  8
0
  6
CONTINUOUS
 62
     1
 10
150.39811027267
 20
21.6274857378114
 30
0.0
 11
150.39811027267
 21
31.2274779602089
 31
0.0
  0
LINE
  5
   63D
  8
0
  6
CONTINUOUS
 62
     1
 10
148.958110251212
 20
21.6274857378114
 30
0.0
 11
148.958110251212
 21
31.2274779602089
 31
0.0
  0
LINE
  5
   63E
  8
0
  6
CONTINUOUS
 62
     1
 10
147.518110229755
 20
21.6274857378114
 30
0.0
 11
147.518110229755
 21
31.2274779602089
 31
0.0
  0
LINE
  5
   63F
  8
0
  6
CONTINUOUS
 62
     1
 10
146.078110208297
 20
21.6274857378114
 30
0.0
 11
146.078110208297
 21
31.2274779602089
 31
0.0
  0
LINE
  5
   640
  8
0
  6
CONTINUOUS
 62
     1
 10
144.638110186839
 20
21.6274857378114
 30
0.0
 11
144.638110186839
 21
31.2274779602089
 31
0.0
  0
LINE
  5
   641
  8
0
  6
CONTINUOUS
 62
     1
 10
143.198110165382
 20
21.6274857378114
 30
0.0
 11
143.198110165382
 21
31.2274779602089
 31
0.0
  0
LINE
  5
   642
  8
0
  6
CONTINUOUS
 62
     1
 10
141.758110143924
 20
21.6274857378114
 30
0.0
 11
141.758110143924
 21
31.2274779602089
 31
0.0
  0
LINE
  5
   643
  8
0
  6
CONTINUOUS
 62
     1
 10
140.318110122466
 20
21.6274857378114
 30
0.0
 11
140.318110122466
 21
31.2274779602089
 31
0.0
  0
LINE
  5
   644
  8
0
  6
CONTINUOUS
 62
     1
 10
138.878110101009
 20
21.6274857378114
 30
0.0
 11
138.878110101009
 21
31.2274779602089
 31
0.0
  0
LINE
  5
   645
  8
0
  6
CONTINUOUS
 62
     1
 10
137.438110079551
 20
21.6274857378114
 30
0.0
 11
137.438110079551
 21
31.2274779602089
 31
0.0
  0
LINE
  5
   646
  8
0
  6
CONTINUOUS
 62
     1
 10
108.838127459941
 20
-77.9725299645085
 30
0.0
 11
108.838127459941
 21
-65.772535887953
 31
0.0
  0
LINE
  5
   647
  8
0
  6
CONTINUOUS
 62
     1
 10
110.278127481399
 20
-77.9725299645085
 30
0.0
 11
110.278127481399
 21
-65.772535887953
 31
0.0
  0
LINE
  5
   648
  8
0
  6
CONTINUOUS
 62
     1
 10
111.718127502857
 20
-77.9725299645085
 30
0.0
 11
111.718127502857
 21
-65.772535887953
 31
0.0
  0
LINE
  5
   649
  8
0
  6
CONTINUOUS
 62
     1
 10
113.158127524314
 20
-77.9725299645085
 30
0.0
 11
113.158127524314
 21
-65.772535887953
 31
0.0
  0
LINE
  5
   64A
  8
0
  6
CONTINUOUS
 62
     1
 10
114.598127545772
 20
-77.9725299645085
 30
0.0
 11
114.598127545772
 21
-65.772535887953
 31
0.0
  0
LINE
  5
   64B
  8
0
  6
CONTINUOUS
 62
     1
 10
116.03812756723
 20
-77.9725299645085
 30
0.0
 11
116.03812756723
 21
-65.772535887953
 31
0.0
  0
LINE
  5
   64C
  8
0
  6
CONTINUOUS
 62
     1
 10
117.478127588687
 20
-77.9725299645085
 30
0.0
 11
117.478127588687
 21
-65.772535887953
 31
0.0
  0
LINE
  5
   64D
  8
0
  6
CONTINUOUS
 62
     1
 10
118.918127610145
 20
-77.9725299645085
 30
0.0
 11
118.918127610145
 21
-65.772535887953
 31
0.0
  0
LINE
  5
   64E
  8
0
  6
CONTINUOUS
 62
     1
 10
120.358127631603
 20
-77.9725299645085
 30
0.0
 11
120.358127631603
 21
-65.772535887953
 31
0.0
  0
LINE
  5
   64F
  8
0
  6
CONTINUOUS
 62
     1
 10
121.79812765306
 20
-77.9725299645085
 30
0.0
 11
121.79812765306
 21
-65.772535887953
 31
0.0
  0
LINE
  5
   650
  8
0
  6
CONTINUOUS
 62
     1
 10
123.238127674518
 20
-77.9725299645085
 30
0.0
 11
123.238127674518
 21
-65.772535887953
 31
0.0
  0
LINE
  5
   651
  8
0
  6
CONTINUOUS
 62
     1
 10
124.678127695976
 20
-77.9725299645085
 30
0.0
 11
124.678127695976
 21
-65.772535887953
 31
0.0
  0
LINE
  5
   652
  8
0
  6
CONTINUOUS
 62
     1
 10
126.118127717433
 20
-77.9725299645085
 30
0.0
 11
126.118127717433
 21
-65.772535887953
 31
0.0
  0
LINE
  5
   653
  8
0
  6
CONTINUOUS
 62
     1
 10
127.558127738891
 20
-77.9725299645085
 30
0.0
 11
127.558127738891
 21
-65.772535887953
 31
0.0
  0
LINE
  5
   654
  8
0
  6
CONTINUOUS
 62
     1
 10
128.998127760349
 20
-77.9725299645085
 30
0.0
 11
128.998127760349
 21
-65.772535887953
 31
0.0
  0
LINE
  5
   655
  8
0
  6
CONTINUOUS
 62
     1
 10
130.438127781807
 20
-77.9725299645085
 30
0.0
 11
130.438127781807
 21
-65.772535887953
 31
0.0
  0
LINE
  5
   656
  8
0
  6
CONTINUOUS
 62
     1
 10
131.878127803264
 20
-77.9725299645085
 30
0.0
 11
131.878127803264
 21
-65.772535887953
 31
0.0
  0
LINE
  5
   657
  8
0
  6
CONTINUOUS
 62
     1
 10
133.318127824722
 20
-77.9725299645085
 30
0.0
 11
133.318127824722
 21
-65.772535887953
 31
0.0
  0
LINE
  5
   658
  8
0
  6
CONTINUOUS
 62
     1
 10
134.75812784618
 20
-77.9725299645085
 30
0.0
 11
134.75812784618
 21
-65.772535887953
 31
0.0
  0
LINE
  5
   659
  8
0
  6
CONTINUOUS
 62
     1
 10
163.358110465789
 20
-77.9725299645085
 30
0.0
 11
163.358110465789
 21
-65.772535887953
 31
0.0
  0
LINE
  5
   65A
  8
0
  6
CONTINUOUS
 62
     1
 10
161.918110444331
 20
-77.9725299645085
 30
0.0
 11
161.918110444331
 21
-65.772535887953
 31
0.0
  0
LINE
  5
   65B
  8
0
  6
CONTINUOUS
 62
     1
 10
160.478110422874
 20
-77.9725299645085
 30
0.0
 11
160.478110422874
 21
-65.772535887953
 31
0.0
  0
LINE
  5
   65C
  8
0
  6
CONTINUOUS
 62
     1
 10
159.038110401416
 20
-77.9725299645085
 30
0.0
 11
159.038110401416
 21
-65.772535887953
 31
0.0
  0
LINE
  5
   65D
  8
0
  6
CONTINUOUS
 62
     1
 10
157.598110379959
 20
-77.9725299645085
 30
0.0
 11
157.598110379959
 21
-65.772535887953
 31
0.0
  0
LINE
  5
   65E
  8
0
  6
CONTINUOUS
 62
     1
 10
156.158110358501
 20
-77.9725299645085
 30
0.0
 11
156.158110358501
 21
-65.772535887953
 31
0.0
  0
LINE
  5
   65F
  8
0
  6
CONTINUOUS
 62
     1
 10
154.718110337043
 20
-77.9725299645085
 30
0.0
 11
154.718110337043
 21
-65.772535887953
 31
0.0
  0
LINE
  5
   660
  8
0
  6
CONTINUOUS
 62
     1
 10
153.278110315585
 20
-77.9725299645085
 30
0.0
 11
153.278110315585
 21
-65.772535887953
 31
0.0
  0
LINE
  5
   661
  8
0
  6
CONTINUOUS
 62
     1
 10
151.838110294128
 20
-77.9725299645085
 30
0.0
 11
151.838110294128
 21
-65.772535887953
 31
0.0
  0
LINE
  5
   662
  8
0
  6
CONTINUOUS
 62
     1
 10
150.39811027267
 20
-77.9725299645085
 30
0.0
 11
150.39811027267
 21
-65.772535887953
 31
0.0
  0
LINE
  5
   663
  8
0
  6
CONTINUOUS
 62
     1
 10
148.958110251212
 20
-77.9725299645085
 30
0.0
 11
148.958110251212
 21
-65.772535887953
 31
0.0
  0
LINE
  5
   664
  8
0
  6
CONTINUOUS
 62
     1
 10
147.518110229755
 20
-77.9725299645085
 30
0.0
 11
147.518110229755
 21
-65.772535887953
 31
0.0
  0
LINE
  5
   665
  8
0
  6
CONTINUOUS
 62
     1
 10
146.078110208297
 20
-77.9725299645085
 30
0.0
 11
146.078110208297
 21
-65.772535887953
 31
0.0
  0
LINE
  5
   666
  8
0
  6
CONTINUOUS
 62
     1
 10
144.638110186839
 20
-77.9725299645085
 30
0.0
 11
144.638110186839
 21
-65.772535887953
 31
0.0
  0
LINE
  5
   667
  8
0
  6
CONTINUOUS
 62
     1
 10
143.198110165382
 20
-77.9725299645085
 30
0.0
 11
143.198110165382
 21
-65.772535887953
 31
0.0
  0
LINE
  5
   668
  8
0
  6
CONTINUOUS
 62
     1
 10
141.758110143924
 20
-77.9725299645085
 30
0.0
 11
141.758110143924
 21
-65.772535887953
 31
0.0
  0
LINE
  5
   669
  8
0
  6
CONTINUOUS
 62
     1
 10
140.318110122466
 20
-77.9725299645085
 30
0.0
 11
140.318110122466
 21
-65.772535887953
 31
0.0
  0
LINE
  5
   66A
  8
0
  6
CONTINUOUS
 62
     1
 10
138.878110101009
 20
-77.9725299645085
 30
0.0
 11
138.878110101009
 21
-65.772535887953
 31
0.0
  0
LINE
  5
   66B
  8
0
  6
CONTINUOUS
 62
     1
 10
137.438110079551
 20
-77.9725299645085
 30
0.0
 11
137.438110079551
 21
-65.772535887953
 31
0.0
  0
LINE
  5
   66C
  8
0
  6
CONTINUOUS
 62
     1
 10
107.398127438484
 20
-77.9725299645085
 30
0.0
 11
107.398127438484
 21
-56.772517719258
 31
0.0
  0
LINE
  5
   66D
  8
0
  6
CONTINUOUS
 62
     1
 10
105.958127417026
 20
-77.9725299645085
 30
0.0
 11
105.958127417026
 21
-56.772517719258
 31
0.0
  0
LINE
  5
   66E
  8
0
  6
CONTINUOUS
 62
     1
 10
104.518127395568
 20
-77.9725299645085
 30
0.0
 11
104.518127395568
 21
-56.772517719258
 31
0.0
  0
LINE
  5
   66F
  8
0
  6
CONTINUOUS
 62
     1
 10
103.078127374111
 20
-77.9725299645085
 30
0.0
 11
103.078127374111
 21
-56.772517719258
 31
0.0
  0
LINE
  5
   670
  8
0
  6
CONTINUOUS
 62
     1
 10
101.638127352653
 20
-77.9725299645085
 30
0.0
 11
101.638127352653
 21
-56.772517719258
 31
0.0
  0
LINE
  5
   671
  8
0
  6
CONTINUOUS
 62
     1
 10
100.198127331195
 20
-77.9725299645085
 30
0.0
 11
100.198127331195
 21
-56.772517719258
 31
0.0
  0
LINE
  5
   672
  8
0
  6
CONTINUOUS
 62
     1
 10
98.7581273097377
 20
-77.9725299645085
 30
0.0
 11
98.7581273097377
 21
-56.772517719258
 31
0.0
  0
LINE
  5
   673
  8
0
  6
CONTINUOUS
 62
     1
 10
97.31812728828
 20
-77.9725299645085
 30
0.0
 11
97.31812728828
 21
-49.972529547257
 31
0.0
  0
LINE
  5
   674
  8
0
  6
CONTINUOUS
 62
     1
 10
95.8781272668223
 20
-77.9725299645085
 30
0.0
 11
95.8781272668223
 21
-49.5725295651384
 31
0.0
  0
LINE
  5
   675
  8
0
  6
CONTINUOUS
 62
     1
 10
164.798110487247
 20
-77.9725299645085
 30
0.0
 11
164.798110487247
 21
-56.772517719258
 31
0.0
  0
LINE
  5
   676
  8
0
  6
CONTINUOUS
 62
     1
 10
166.238110508705
 20
-77.9725299645085
 30
0.0
 11
166.238110508705
 21
-56.772517719258
 31
0.0
  0
LINE
  5
   677
  8
0
  6
CONTINUOUS
 62
     1
 10
167.678110530162
 20
-77.9725299645085
 30
0.0
 11
167.678110530162
 21
-56.772517719258
 31
0.0
  0
LINE
  5
   678
  8
0
  6
CONTINUOUS
 62
     1
 10
169.11811055162
 20
-77.9725299645085
 30
0.0
 11
169.11811055162
 21
-56.772517719258
 31
0.0
  0
LINE
  5
   679
  8
0
  6
CONTINUOUS
 62
     1
 10
170.558110573078
 20
-77.9725299645085
 30
0.0
 11
170.558110573078
 21
-56.772517719258
 31
0.0
  0
LINE
  5
   67A
  8
0
  6
CONTINUOUS
 62
     1
 10
171.998110594535
 20
-77.9725299645085
 30
0.0
 11
171.998110594535
 21
-56.772517719258
 31
0.0
  0
LINE
  5
   67B
  8
0
  6
CONTINUOUS
 62
     1
 10
173.438110615993
 20
-77.9725299645085
 30
0.0
 11
173.438110615993
 21
-56.772517719258
 31
0.0
  0
LINE
  5
   67C
  8
0
  6
CONTINUOUS
 62
     1
 10
174.878110637451
 20
-77.9725299645085
 30
0.0
 11
174.878110637451
 21
-56.772517719258
 31
0.0
  0
LINE
  5
   67D
  8
0
  6
CONTINUOUS
 62
     1
 10
176.318110658908
 20
-77.9725299645085
 30
0.0
 11
176.318110658908
 21
-56.772517719258
 31
0.0
  0
LINE
  5
   67E
  8
0
  6
DOT
 62
     7
 10
177.898119585733
 20
-56.772517719258
 30
0.0
 11
177.898119585733
 21
21.6274857378114
 31
0.0
  0
LINE
  5
   67F
  8
0
  6
CONTINUOUS
 62
     7
 10
188.498118023561
 20
7.4274837090793
 30
0.0
 11
189.898179273834
 21
7.4274837090793
 31
0.0
  0
LINE
  5
   680
  8
0
  6
CONTINUOUS
 62
     1
 10
188.498118023561
 20
-5.37251037813985
 30
0.0
 11
189.898179273834
 21
-5.37251037813985
 31
0.0
  0
LINE
  5
   681
  8
0
  6
CONTINUOUS
 62
     1
 10
188.498118023561
 20
-17.3725215433136
 30
0.0
 11
190.298173176351
 21
-17.3725197122015
 31
0.0
  0
LINE
  5
   682
  8
0
  6
CONTINUOUS
 62
     7
 10
188.498118023561
 20
-50.4725232572137
 30
0.0
 11
190.298179279794
 21
-50.4725232572137
 31
0.0
  0
LINE
  5
   683
  8
0
  6
DASHDOT
 62
     7
 10
184.898178404967
 20
-36.8725319574149
 30
0.0
 11
184.898178404967
 21
-30.272531720686
 31
0.0
  0
LINE
  5
   684
  8
0
  6
DASHDOT
 62
     7
 10
181.598178286603
 20
-33.5725318390504
 30
0.0
 11
188.198178523332
 21
-33.5725318390504
 31
0.0
  0
CIRCLE
  5
   685
  8
0
  6
CONTINUOUS
 62
     7
 10
184.624343073489
 20
17.7742067594802
 30
0.0
 40
0.160000002384186
  0
INSERT
  5
   686
  8
255
  6
CONTINUOUS
 62
     2
  2
$1MOSTRA
 10
136.098117242741
 20
-46.6725091764222
 30
0.0
 41
0.400000005960465
 42
0.400000005960465
 50
359.999999792138
 43
0.400000005960465
  0
TEXT
  5
   687
  8
0
  6
CONTINUOUS
 62
     1
 10
163.216025974304
 20
-193.700965920091
 30
0.0
 40
2.00000007748604
  1
M4371 97-07-07
 41
0.749999884366991
 72
     1
 11
173.566024780273
 21
-192.700965881348
 31
0.0
 73
     2
  0
TEXT
  5
   688
  8
0
  6
CONTINUOUS
 62
     1
 10
188.056025974304
 20
-193.700965920091
 30
0.0
 40
2.00000007748604
  1
M4504 98-11-17
 41
0.749999884366991
 72
     1
 11
198.406024780273
 21
-192.700965881348
 31
0.0
 73
     2
  0
TEXT
  5
   689
  8
0
  6
CONTINUOUS
 62
     1
 10
123.989456176758
 20
-186.621772843599
 30
0.0
 40
2.00000007748604
  1
SCARPELLINI
 41
0.749999884366991
 72
     2
 11
140.189454308152
 21
-186.621772843599
 31
0.0
  0
TEXT
  5
   68A
  8
0
  6
CONTINUOUS
 62
     7
 10
86.7169551664912
 20
-34.3928858056231
 30
0.0
 40
2.99999994933605
  1
=          =
 50
90.0
 41
0.916666607525612
 72
     1
 11
85.2169551918028
 21
-18.1678871277802
 31
0.0
 73
     2
  0
INSERT
  5
   68B
  8
0
  6
CONTINUOUS
 62
     7
  2
*UDIM1463
 10
0.0
 20
0.0
 30
0.0
  0
INSERT
  5
   68C
  8
0
  6
CONTINUOUS
 62
     7
  2
*UDIM1464
 10
0.0
 20
0.0
 30
0.0
  0
INSERT
  5
   68D
  8
0
  6
CONTINUOUS
 62
     7
  2
*UDIM1465
 10
0.0
 20
0.0
 30
0.0
  0
TEXT
  5
   68E
  8
0
  6
CONTINUOUS
 62
     1
 10
137.476030306565
 20
-193.700967811252
 30
0.0
 40
2.00000007748604
  1
M 3076 95-01-16
 41
0.749999884366991
 72
     1
 11
148.57602902596
 21
-192.700967772509
 31
0.0
 73
     2
  0
INSERT
  5
   68F
  8
0
  6
CONTINUOUS
 62
     7
  2
*UDIM1466
 10
0.0
 20
0.0
 30
0.0
  0
INSERT
  5
   690
  8
0
  6
CONTINUOUS
 62
     7
  2
*UDIM1467
 10
0.0
 20
0.0
 30
0.0
  0
TEXT
  5
   691
  8
0
  6
CONTINUOUS
 62
     1
 10
123.989456455312
 20
-178.155019092041
 30
0.0
 40
2.00000007748604
  1
93-04-05 FERRARI M.
 41
0.749999884366991
 72
     2
 11
152.189453201494
 21
-178.155019092041
 31
0.0
  0
INSERT
  5
   692
  8
0
  6
CONTINUOUS
 62
     7
  2
*UDIM1468
 10
0.0
 20
0.0
 30
0.0
  0
INSERT
  5
   693
  8
0
  6
CONTINUOUS
 62
     7
  2
*UDIM1469
 10
0.0
 20
0.0
 30
0.0
  0
INSERT
  5
   694
  8
0
  6
CONTINUOUS
 62
     7
  2
*UDIM1470
 10
0.0
 20
0.0
 30
0.0
  0
TEXT
  5
   695
  8
0
  6
CONTINUOUS
 62
     7
 10
134.410266730151
 20
63.4059452365827
 30
0.0
 40
2.99999994933605
  1
Y
 41
0.916666607525612
 72
     2
 11
136.610266548357
 21
63.4059452365827
 31
0.0
  0
TEXT
  5
   696
  8
0
  6
CONTINUOUS
 62
     7
 10
120.283279686825
 20
39.0246460451481
 30
0.0
 40
2.99999994933605
  1
=          =
 41
0.916666607525612
 72
     2
 11
152.733277042514
 21
39.0246460451481
 31
0.0
  0
INSERT
  5
   697
  8
0
  6
CONTINUOUS
 62
     7
  2
*UDIM1471
 10
0.0
 20
0.0
 30
0.0
  0
INSERT
  5
   698
  8
0
  6
CONTINUOUS
 62
     7
  2
*UDIM1472
 10
0.0
 20
0.0
 30
0.0
  0
INSERT
  5
   699
  8
0
  6
CONTINUOUS
 62
     7
  2
*UDIM1473
 10
0.0
 20
0.0
 30
0.0
  0
TEXT
  5
   69A
  8
0
  6
CONTINUOUS
 62
     7
 10
135.182236346146
 20
-107.572570153257
 30
0.0
 40
2.99999994933605
  1
Y
 41
0.916666607525612
 72
     2
 11
137.382236164352
 21
-107.572570153257
 31
0.0
  0
TEXT
  5
   69B
  8
0
  6
CONTINUOUS
 62
     1
 10
231.973711081513
 20
-204.68985802858
 30
0.0
 40
4.00000015497208
  1
601840/181
 41
0.93749995827675
 72
     2
 11
268.723710836389
 21
-204.68985802858
 31
0.0
  0
TEXT
  5
   69C
  8
0
  6
CONTINUOUS
 62
     1
 10
233.059404413355
 20
-195.708278903156
 30
0.0
 40
2.99999994933605
  1
     S6
 41
0.916666607525612
 72
     2
 11
251.75940288837
 21
-195.708278903156
 31
0.0
  0
TEXT
  5
   69D
  8
0
  6
CONTINUOUS
 62
     1
 10
221.524983969209
 20
-177.398013489108
 30
0.0
 40
2.00000007748604
  1
3POLE LOW VOLTAGE M.C.C.B SERIES ISOMAX
 41
0.749999884366991
 72
     1
 11
250.624980610786
 21
-176.398013450365
 31
0.0
 73
     2
  0
TEXT
  5
   69E
  8
0
  6
CONTINUOUS
 62
     1
 10
224.524983885175
 20
-180.398013489108
 30
0.0
 40
2.00000007748604
  1
WITHDRAWABLE VERSION REAR TERMINALS
 41
0.749999884366991
 72
     1
 11
250.624980873054
 21
-179.398013450365
 31
0.0
 73
     2
  0
TEXT
  5
   69F
  8
0
  6
CONTINUOUS
 62
     1
 10
224.727375715289
 20
-185.468277281239
 30
0.0
 40
2.00000007748604
  1
INTERR.AUTOMATICO SERIE ISOMAX
 41
0.749999884366991
 72
     1
 11
247.077373136047
 21
-184.468277242496
 31
0.0
 73
     2
  0
TEXT
  5
   6A0
  8
0
  6
CONTINUOUS
 62
     1
 10
212.72737736277
 20
-188.468277281239
 30
0.0
 40
2.00000007748604
  1
TRIPOL.ESECUZIONE ESTRAIBILE TERMIN.POSTERIORI
 41
0.749999884366991
 72
     1
 11
247.077373398316
 21
-187.468277242496
 31
0.0
 73
     2
  0
INSERT
  5
   6A1
  8
255
  6
CONTINUOUS
 62
     7
  2
BASETT_1
 10
94.0981183519177
 20
-153.430908203125
 30
0.0
 41
0.400000005960464
 42
0.400000005960464
 50
7.01670929448346E-15
 43
0.400000005960464
  0
CIRCLE
  5
   6A2
  8
0
  6
CONTINUOUS
 62
     7
 10
107.042411612643
 20
-126.592837546549
 30
0.0
 40
0.100000001490116
  0
LINE
  5
   6A3
  8
0
  6
DOT
 62
     7
 10
100.098118441325
 20
-119.811860566689
 30
0.0
 11
100.098118441325
 21
-135.811860805107
 31
0.0
  0
LINE
  5
   6A4
  8
0
  6
DOT
 62
     7
 10
116.098118679743
 20
-119.811860566689
 30
0.0
 11
116.098118679743
 21
-135.811860805107
 31
0.0
  0
LINE
  5
   6A5
  8
0
  6
DOT
 62
     7
 10
128.098118858557
 20
-119.811860566689
 30
0.0
 11
128.098118858557
 21
-135.811860805107
 31
0.0
  0
LINE
  5
   6A6
  8
0
  6
DOT
 62
     7
 10
144.098119096976
 20
-119.811860566689
 30
0.0
 11
144.098119096976
 21
-135.811860805107
 31
0.0
  0
LINE
  5
   6A7
  8
0
  6
DOT
 62
     7
 10
156.09811927579
 20
-119.811860566689
 30
0.0
 11
156.09811927579
 21
-135.811860805107
 31
0.0
  0
LINE
  5
   6A8
  8
0
  6
DOT
 62
     7
 10
172.098119514208
 20
-119.811860566689
 30
0.0
 11
172.098119514208
 21
-135.811860805107
 31
0.0
  0
LINE
  5
   6A9
  8
0
  6
DOT
 62
     7
 10
172.098119514208
 20
-119.811860566689
 30
0.0
 11
166.098119424801
 21
-119.811860566689
 31
0.0
  0
LINE
  5
   6AA
  8
0
  6
DOT
 62
     7
 10
162.098119365197
 20
-119.811860566689
 30
0.0
 11
156.09811927579
 21
-119.811860566689
 31
0.0
  0
LINE
  5
   6AB
  8
0
  6
DOT
 62
     7
 10
144.098119096976
 20
-119.811860566689
 30
0.0
 11
138.098119007569
 21
-119.811860566689
 31
0.0
  0
LINE
  5
   6AC
  8
0
  6
DOT
 62
     7
 10
134.098118947964
 20
-119.811860566689
 30
0.0
 11
128.098118858557
 21
-119.811860566689
 31
0.0
  0
LINE
  5
   6AD
  8
0
  6
DOT
 62
     7
 10
116.098118679743
 20
-119.811860566689
 30
0.0
 11
110.098118590336
 21
-119.811860566689
 31
0.0
  0
LINE
  5
   6AE
  8
0
  6
DOT
 62
     7
 10
106.098118530732
 20
-119.811860566689
 30
0.0
 11
100.098118441325
 21
-119.811860566689
 31
0.0
  0
INSERT
  5
   6AF
  8
0
  6
CONTINUOUS
 62
     7
  2
*UDIM1474
 10
0.0
 20
0.0
 30
0.0
  0
TEXT
  5
   6B0
  8
0
  6
CONTINUOUS
 62
     7
 10
135.454172528677
 20
-170.298707685679
 30
0.0
 40
2.99999994933605
  1
Y
 50
359.999999896069
 41
0.916666607525612
 72
     2
 11
137.654172346882
 21
-170.298707689658
 31
0.0
  0
INSERT
  5
   6B1
  8
0
  6
CONTINUOUS
 62
     7
  2
*UDIM1475
 10
0.0
 20
0.0
 30
0.0
  0
INSERT
  5
   6B2
  8
0
  6
CONTINUOUS
 62
     7
  2
*UDIM1476
 10
0.0
 20
0.0
 30
0.0
  0
LINE
  5
   6B3
  8
0
  6
DASHDOT
 62
     2
 10
235.735153198242
 20
37.8206550297931
 30
0.0
 11
235.735153198242
 21
-22.9282515593607
 31
0.0
  0
LINE
  5
   6B4
  8
0
  6
DASHDOT
 62
     2
 10
205.929128507706
 20
6.74295711517334
 30
0.0
 11
276.942621190886
 21
6.74295711517334
 31
0.0
  0
LINE
  5
   6B5
  8
0
  6
CONTINUOUS
 62
     7
 10
213.360153198242
 20
26.8679571151733
 30
0.0
 11
255.860153198242
 21
26.8679571151733
 31
0.0
  0
LINE
  5
   6B6
  8
0
  6
CONTINUOUS
 62
     7
 10
213.360153198242
 20
-13.3820428848267
 30
0.0
 11
255.860153198242
 21
-13.3820428848267
 31
0.0
  0
CIRCLE
  5
   6B7
  8
0
  6
CONTINUOUS
 62
     7
 10
260.985153198242
 20
6.74295711517334
 30
0.0
 40
1.0
  0
CIRCLE
  5
   6B8
  8
0
  6
CONTINUOUS
 62
     7
 10
240.672653198242
 20
28.8679571151733
 30
0.0
 40
1.0
  0
CIRCLE
  5
   6B9
  8
0
  6
CONTINUOUS
 62
     7
 10
220.360153198242
 20
28.8679571151733
 30
0.0
 40
0.875
  0
CIRCLE
  5
   6BA
  8
0
  6
CONTINUOUS
 62
     7
 10
260.985153198242
 20
-15.3820428848267
 30
0.0
 40
0.875
  0
CIRCLE
  5
   6BB
  8
0
  6
CONTINUOUS
 62
     7
 10
240.672653198242
 20
-15.3820428848267
 30
0.0
 40
1.0
  0
CIRCLE
  5
   6BC
  8
0
  6
CONTINUOUS
 62
     7
 10
220.360153198242
 20
-15.3820428848267
 30
0.0
 40
1.0
  0
CIRCLE
  5
   6BD
  8
0
  6
CONTINUOUS
 62
     7
 10
260.985153198242
 20
28.8679571151733
 30
0.0
 40
1.0
  0
LINE
  5
   6BE
  8
0
  6
DASHDOT
 62
     7
 10
260.985153198242
 20
30.4929571151733
 30
0.0
 11
260.985153198242
 21
8.16740631371805
 31
0.0
  0
LINE
  5
   6BF
  8
0
  6
DASHDOT
 62
     7
 10
259.360153198242
 20
28.8679571151733
 30
0.0
 11
262.610153198242
 21
28.8679571151733
 31
0.0
  0
LINE
  5
   6C0
  8
0
  6
DASHDOT
 62
     7
 10
240.672653198242
 20
37.889409461234
 30
0.0
 11
240.672653198242
 21
27.2429571151733
 31
0.0
  0
LINE
  5
   6C1
  8
0
  6
DASHDOT
 62
     7
 10
239.047653198242
 20
28.8679571151733
 30
0.0
 11
242.297653198242
 21
28.8679571151733
 31
0.0
  0
LINE
  5
   6C2
  8
0
  6
DASHDOT
 62
     7
 10
220.360153198242
 20
30.4929571151733
 30
0.0
 11
220.360153198242
 21
27.2429571151733
 31
0.0
  0
LINE
  5
   6C3
  8
0
  6
DASHDOT
 62
     7
 10
218.735153198242
 20
28.8679571151733
 30
0.0
 11
221.985153198242
 21
28.8679571151733
 31
0.0
  0
LINE
  5
   6C4
  8
0
  6
DASHDOT
 62
     7
 10
240.672653198242
 20
-13.7570428848267
 30
0.0
 11
240.672653198242
 21
-17.0070428848267
 31
0.0
  0
LINE
  5
   6C5
  8
0
  6
DASHDOT
 62
     7
 10
239.047653198242
 20
-15.3820428848267
 30
0.0
 11
242.297653198242
 21
-15.3820428848267
 31
0.0
  0
LINE
  5
   6C6
  8
0
  6
DASHDOT
 62
     7
 10
260.985153198242
 20
-13.7570428848267
 30
0.0
 11
260.985153198242
 21
-17.0070428848267
 31
0.0
  0
LINE
  5
   6C7
  8
0
  6
DASHDOT
 62
     7
 10
259.360153198242
 20
-15.3820428848267
 30
0.0
 11
262.610153198242
 21
-15.3820428848267
 31
0.0
  0
LINE
  5
   6C8
  8
0
  6
DASHDOT
 62
     7
 10
220.360153198242
 20
-13.7570428848267
 30
0.0
 11
220.360153198242
 21
-17.0070428848267
 31
0.0
  0
LINE
  5
   6C9
  8
0
  6
DASHDOT
 62
     7
 10
218.735153198242
 20
-15.3820428848267
 30
0.0
 11
221.985153198242
 21
-15.3820428848267
 31
0.0
  0
LINE
  5
   6CA
  8
0
  6
DASHDOT
 62
     7
 10
260.985153198242
 20
8.36795711517334
 30
0.0
 11
260.985153198242
 21
-13.5358198393369
 31
0.0
  0
ARC
  5
   6CB
  8
0
  6
CONTINUOUS
 62
     7
 10
265.985153198242
 20
2.49295711517334
 30
0.0
 40
2.0
 50
359.999999844103
 51
539.999999844103
  0
ARC
  5
   6CC
  8
0
  6
CONTINUOUS
 62
     7
 10
265.985153198242
 20
-3.25704288482666
 30
0.0
 40
2.0
 50
539.999999844103
 51
719.999999844103
  0
LINE
  5
   6CD
  8
0
  6
CONTINUOUS
 62
     7
 10
267.985153198242
 20
2.49295711517334
 30
0.0
 11
267.985153198242
 21
-3.25704288482666
 31
0.0
  0
LINE
  5
   6CE
  8
0
  6
CONTINUOUS
 62
     7
 10
263.985153198242
 20
2.49295711517334
 30
0.0
 11
263.985153198242
 21
-3.25704288482666
 31
0.0
  0
LINE
  5
   6CF
  8
0
  6
DASHDOT
 62
     7
 10
265.985153198242
 20
5.24295711517334
 30
0.0
 11
265.985153198242
 21
-0.25704288482666
 31
0.0
  0
LINE
  5
   6D0
  8
0
  6
DASHDOT
 62
     7
 10
263.235153198242
 20
2.49295711517334
 30
0.0
 11
268.735153198242
 21
2.49295711517334
 31
0.0
  0
LINE
  5
   6D1
  8
0
  6
DASHDOT
 62
     7
 10
265.985153198242
 20
-0.50704288482666
 30
0.0
 11
265.985153198242
 21
-6.00704288482666
 31
0.0
  0
LINE
  5
   6D2
  8
0
  6
DASHDOT
 62
     7
 10
263.235153198242
 20
-3.25704288482666
 30
0.0
 11
268.735153198242
 21
-3.25704288482666
 31
0.0
  0
POINT
  5
   6D3
  8
0
  6
CONTINUOUS
 62
     7
 10
265.985153198242
 20
4.49295711517334
 30
0.0
  0
POINT
  5
   6D4
  8
0
  6
CONTINUOUS
 62
     7
 10
265.985153198242
 20
-5.25704288482666
 30
0.0
  0
CIRCLE
  5
   6D5
  8
0
  6
CONTINUOUS
 62
     7
 10
246.297653198242
 20
29.2429571151733
 30
0.0
 40
0.5
  0
CIRCLE
  5
   6D6
  8
0
  6
CONTINUOUS
 62
     7
 10
235.047653198242
 20
29.2429571151733
 30
0.0
 40
0.5
  0
CIRCLE
  5
   6D7
  8
0
  6
CONTINUOUS
 62
     7
 10
235.047653198242
 20
29.2429571151733
 30
0.0
 40
0.92
  0
CIRCLE
  5
   6D8
  8
0
  6
CONTINUOUS
 62
     7
 10
246.297653198242
 20
29.2429571151733
 30
0.0
 40
0.92
  0
LINE
  5
   6D9
  8
0
  6
DASHDOT
 62
     7
 10
246.297653198242
 20
30.9129571151733
 30
0.0
 11
246.297653198242
 21
27.5729571151733
 31
0.0
  0
LINE
  5
   6DA
  8
0
  6
DASHDOT
 62
     7
 10
244.627653198242
 20
29.2429571151733
 30
0.0
 11
247.967653198242
 21
29.2429571151733
 31
0.0
  0
LINE
  5
   6DB
  8
0
  6
DASHDOT
 62
     7
 10
235.047653198242
 20
30.9129571151733
 30
0.0
 11
235.047653198242
 21
27.5729571151733
 31
0.0
  0
LINE
  5
   6DC
  8
0
  6
DASHDOT
 62
     7
 10
233.377653198242
 20
29.2429571151733
 30
0.0
 11
236.717653198242
 21
29.2429571151733
 31
0.0
  0
LINE
  5
   6DD
  8
0
  6
CONTINUOUS
 62
     7
 10
210.725977564719
 20
33.3592499627818
 30
0.0
 11
272.279949729874
 21
33.3592499627818
 31
0.0
  0
LINE
  5
   6DE
  8
0
  6
CONTINUOUS
 62
     7
 10
210.725977564719
 20
-18.5003908913495
 30
0.0
 11
272.279949729874
 21
-18.5003908913495
 31
0.0
  0
LINE
  5
   6DF
  8
0
  6
CONTINUOUS
 62
     7
 10
210.725977564719
 20
33.3592499627818
 30
0.0
 11
210.725977564719
 21
-18.5003908913495
 31
0.0
  0
LINE
  5
   6E0
  8
0
  6
CONTINUOUS
 62
     7
 10
272.279949729874
 20
33.3592499627818
 30
0.0
 11
272.279949729874
 21
-18.5003908913495
 31
0.0
  0
LINE
  5
   6E1
  8
0
  6
CONTINUOUS
 62
     7
 10
255.860153198242
 20
26.8679571151733
 30
0.0
 11
255.860153198242
 21
-13.3820428848267
 31
0.0
  0
LINE
  5
   6E2
  8
0
  6
CONTINUOUS
 62
     7
 10
213.360153198242
 20
26.8679571151733
 30
0.0
 11
213.360153198242
 21
-13.3820428848267
 31
0.0
  0
LINE
  5
   6E3
  8
0
  6
CONTINUOUS
 62
     7
 10
278.647146441551
 20
25.7189253274923
 30
0.0
 11
278.647146441551
 21
17.2750283250508
 31
0.0
  0
LINE
  5
   6E4
  8
0
  6
CONTINUOUS
 62
     7
 10
275.192824940552
 20
25.7189253274923
 30
0.0
 11
275.192824940552
 21
17.2750283250508
 31
0.0
  0
LINE
  5
   6E5
  8
0
  6
CONTINUOUS
 62
     7
 10
275.192824940552
 20
25.7189253274923
 30
0.0
 11
278.647146441551
 21
25.7189253274923
 31
0.0
  0
LINE
  5
   6E6
  8
0
  6
CONTINUOUS
 62
     7
 10
275.192824940552
 20
17.2750283250508
 30
0.0
 11
278.647146441551
 21
17.2750283250508
 31
0.0
  0
LINE
  5
   6E7
  8
0
  6
CONTINUOUS
 62
     7
 10
275.192824940552
 20
-12.2330110971456
 30
0.0
 11
278.647146441551
 21
-12.2330110971456
 31
0.0
  0
LINE
  5
   6E8
  8
0
  6
CONTINUOUS
 62
     7
 10
275.192824940552
 20
-3.78911409470408
 30
0.0
 11
278.647146441551
 21
-3.78911409470408
 31
0.0
  0
LINE
  5
   6E9
  8
0
  6
CONTINUOUS
 62
     7
 10
278.647146441551
 20
-3.78911409470408
 30
0.0
 11
278.647146441551
 21
-12.2330110971456
 31
0.0
  0
LINE
  5
   6EA
  8
0
  6
CONTINUOUS
 62
     7
 10
275.192824940552
 20
-3.78911409470408
 30
0.0
 11
275.192824940552
 21
-12.2330110971456
 31
0.0
  0
LINE
  5
   6EB
  8
0
  6
DASHDOT
 62
     2
 10
276.919985691051
 20
32.1158169960085
 30
0.0
 11
276.919985691051
 21
-47.2056396935932
 31
0.0
  0
LINE
  5
   6EC
  8
0
  6
CONTINUOUS
 62
     2
 10
219.571001354646
 20
57.4386271223002
 30
0.0
 11
233.811754389234
 21
30.6167576849753
 31
0.0
  0
LINE
  5
   6ED
  8
0
  6
CONTINUOUS
 62
     2
 10
195.361782121202
 20
57.4386271223002
 30
0.0
 11
219.571001354646
 21
57.4386271223002
 31
0.0
  0
LINE
  5
   6EE
  8
0
  6
CONTINUOUS
 62
     7
 10
231.131445843497
 20
33.4945051480821
 30
0.0
 11
233.811754389234
 21
30.6167576849753
 31
0.0
  0
LINE
  5
   6EF
  8
0
  6
CONTINUOUS
 62
     7
 10
232.884660188628
 20
34.6434927036047
 30
0.0
 11
233.811754389234
 21
30.6167576849753
 31
0.0
  0
INSERT
  5
   6F0
  8
0
  6
CONTINUOUS
 62
     7
  2
*UDIM1477
 10
0.0
 20
0.0
 30
0.0
  0
INSERT
  5
   6F1
  8
0
  6
CONTINUOUS
 62
     7
  2
*UDIM1478
 10
0.0
 20
0.0
 30
0.0
  0
INSERT
  5
   6F2
  8
0
  6
CONTINUOUS
 62
     7
  2
*UDIM1479
 10
0.0
 20
0.0
 30
0.0
  0
TEXT
  5
   6F3
  8
0
  6
CONTINUOUS
 62
     7
 10
198.771285677353
 20
58.6363401397681
 30
0.0
 40
3.00000002980232
  1
PART. Z
 50
359.999999844103
 41
0.916666689183977
 72
     1
 11
208.121286004782
 21
60.1363401292758
 31
0.0
 73
     2
  0
INSERT
  5
   6F4
  8
0
  6
CONTINUOUS
 62
     7
  2
*UDIM1480
 10
0.0
 20
0.0
 30
0.0
  0
TEXT
  5
   6F5
  8
0
  6
CONTINUOUS
 62
     7
 10
194.675396074749
 20
5.46806769609958
 30
0.0
 40
3.00000002980232
  1
X
 50
359.999999844103
 41
0.916666604744064
 72
     2
 11
196.875395943619
 21
5.46806769012464
 31
0.0
  0
TEXT
  5
   6F6
  8
0
  6
CONTINUOUS
 62
     7
 10
292.16516887138
 20
5.28938405752689
 30
0.0
 40
3.00000002980232
  1
X
 50
359.999999844103
 41
0.916666604744064
 72
     2
 11
294.36516874025
 21
5.28938405155195
 31
0.0
  0
TEXT
  5
   6F7
  8
0
  6
CONTINUOUS
 62
     7
 10
234.235944857098
 20
53.6411656642011
 30
0.0
 40
3.00000002980232
  1
Y
 50
359.999999844103
 41
0.916666604744064
 72
     2
 11
236.435944725968
 21
53.6411656582261
 31
0.0
  0
TEXT
  5
   6F8
  8
0
  6
CONTINUOUS
 62
     7
 10
234.957039823033
 20
-57.3127299046466
 30
0.0
 40
3.00000002980232
  1
Y
 50
359.999999844103
 41
0.916666604744064
 72
     2
 11
237.157039691902
 21
-57.3127299106215
 31
0.0
  0
TEXT
  5
   6F9
  8
0
  6
CONTINUOUS
 62
     7
 10
209.182775072759
 20
2.32889041968936
 30
0.0
 40
2.50000005960464
  1
=  =
 50
449.999999844103
 41
0.899999932169916
 72
     2
 11
209.182775095969
 21
10.8788899646079
 31
0.0
  0
INSERT
  5
   6FA
  8
0
  6
CONTINUOUS
 62
     7
  2
*UDIM1481
 10
0.0
 20
0.0
 30
0.0
  0
INSERT
  5
   6FB
  8
0
  6
CONTINUOUS
 62
     7
  2
*UDIM1482
 10
0.0
 20
0.0
 30
0.0
  0
INSERT
  5
   6FC
  8
0
  6
CONTINUOUS
 62
     7
  2
*UDIM1483
 10
0.0
 20
0.0
 30
0.0
  0
INSERT
  5
   6FD
  8
0
  6
CONTINUOUS
 62
     7
  2
*UDIM1484
 10
0.0
 20
0.0
 30
0.0
  0
INSERT
  5
   6FE
  8
0
  6
CONTINUOUS
 62
     7
  2
*UDIM1485
 10
0.0
 20
0.0
 30
0.0
  0
INSERT
  5
   6FF
  8
0
  6
CONTINUOUS
 62
     7
  2
*UDIM1486
 10
0.0
 20
0.0
 30
0.0
  0
INSERT
  5
   700
  8
0
  6
CONTINUOUS
 62
     7
  2
*UDIM1487
 10
0.0
 20
0.0
 30
0.0
  0
INSERT
  5
   701
  8
0
  6
CONTINUOUS
 62
     7
  2
*UDIM1488
 10
0.0
 20
0.0
 30
0.0
  0
INSERT
  5
   702
  8
0
  6
CONTINUOUS
 62
     7
  2
*UDIM1489
 10
0.0
 20
0.0
 30
0.0
  0
INSERT
  5
   703
  8
0
  6
CONTINUOUS
 62
     7
  2
*UDIM1490
 10
0.0
 20
0.0
 30
0.0
  0
INSERT
  5
   704
  8
0
  6
CONTINUOUS
 62
     7
  2
*UDIM1491
 10
0.0
 20
0.0
 30
0.0
  0
INSERT
  5
   705
  8
0
  6
CONTINUOUS
 62
     7
  2
*UDIM1492
 10
0.0
 20
0.0
 30
0.0
  0
INSERT
  5
   706
  8
0
  6
CONTINUOUS
 62
     7
  2
*UDIM1493
 10
0.0
 20
0.0
 30
0.0
  0
INSERT
  5
   707
  8
0
  6
CONTINUOUS
 62
     7
  2
*UDIM1494
 10
0.0
 20
0.0
 30
0.0
  0
TEXT
  5
   708
  8
0
  6
CONTINUOUS
 62
     7
 10
236.527021817049
 20
34.9151256519369
 30
0.0
 40
2.50000005960464
  1
=  =
 50
359.999999844103
 41
0.899999932169916
 72
     2
 11
245.077021361968
 21
34.9151256287161
 31
0.0
  0
INSERT
  5
   709
  8
0
  6
CONTINUOUS
 62
     7
  2
*UDIM1495
 10
0.0
 20
0.0
 30
0.0
  0
LINE
  5
   70A
  8
0
  6
CONTINUOUS
 62
     7
 10
55.6809387207031
 20
-148.356131346742
 30
0.0
 11
55.6809387207031
 21
-172.272652832945
 31
0.0
  0
LINE
  5
   70B
  8
0
  6
CONTINUOUS
 62
     7
 10
53.6809387207031
 20
-148.356131346742
 30
0.0
 11
53.6809387207031
 21
-172.272652832945
 31
0.0
  0
LINE
  5
   70C
  8
0
  6
DASHDOT
 62
     7
 10
50.4783356183062
 20
-160.314392089844
 30
0.0
 11
58.9045548107435
 21
-160.314392089844
 31
0.0
  0
POINT
  5
   70D
  8
0
  6
CONTINUOUS
 62
     7
 10
53.6809387207031
 20
-158.314392089844
 30
0.0
  0
POINT
  5
   70E
  8
0
  6
CONTINUOUS
 62
     7
 10
53.6809387207031
 20
-162.314392089844
 30
0.0
  0
LINE
  5
   70F
  8
0
  6
CONTINUOUS
 62
     7
 10
55.6809387207031
 20
-156.636192827489
 30
0.0
 11
53.6809387207031
 21
-158.314392089844
 31
0.0
  0
LINE
  5
   710
  8
0
  6
CONTINUOUS
 62
     7
 10
53.6809387207031
 20
-162.314392089844
 30
0.0
 11
55.6809387207031
 21
-163.992591352198
 31
0.0
  0
LINE
  5
   711
  8
0
  6
CONTINUOUS
 62
     7
 10
53.6809387207031
 20
-169.814392089844
 30
0.0
 11
55.6809387207031
 21
-169.814392089844
 31
0.0
  0
CIRCLE
  5
   712
  8
0
  6
CONTINUOUS
 62
     7
 10
54.6809387207031
 20
-160.314392089844
 30
0.0
 40
12.0
  0
LINE
  5
   713
  8
0
  6
CONTINUOUS
 62
     7
 10
47.6809463500976
 20
-164.814392089844
 30
0.0
 11
50.1809463500976
 21
-164.814392089844
 31
0.0
  0
LINE
  5
   714
  8
0
  6
CONTINUOUS
 62
     7
 10
51.1809463500977
 20
-155.814392089844
 30
0.0
 11
51.1809463500977
 21
-163.814392089844
 31
0.0
  0
LINE
  5
   715
  8
0
  6
CONTINUOUS
 62
     7
 10
51.1809463500976
 20
-155.814392089844
 30
0.0
 11
53.6809387207031
 21
-155.814392089844
 31
0.0
  0
LINE
  5
   716
  8
0
  6
CONTINUOUS
 62
     7
 10
47.6809463500976
 20
-167.314392089844
 30
0.0
 11
50.1809463500976
 21
-167.314392089844
 31
0.0
  0
LINE
  5
   717
  8
0
  6
CONTINUOUS
 62
     7
 10
46.6809463500977
 20
-168.314392089844
 30
0.0
 11
46.6809463500977
 21
-169.258670823775
 31
0.0
  0
ARC
  5
   718
  8
0
  6
CONTINUOUS
 62
     7
 10
50.1809504973776
 20
-163.814392761182
 30
0.0
 40
0.999996977799109
 50
629.999840735313
 51
720.000252836193
  0
ARC
  5
   719
  8
0
  6
CONTINUOUS
 62
     7
 10
47.6809610036044
 20
-168.314404776148
 30
0.0
 40
3.50001845311552
 50
450.000186734275
 51
513.408761128067
  0
ARC
  5
   71A
  8
0
  6
CONTINUOUS
 62
     7
 10
47.6809021019477
 20
-168.314351195061
 30
0.0
 40
0.999949821243504
 50
449.997764042825
 51
540.001169660043
  0
ARC
  5
   71B
  8
0
  6
CONTINUOUS
 62
     7
 10
50.1809657024793
 20
-163.814424136778
 30
0.0
 40
3.49997105594423
 50
629.999653243441
 51
720.000420168909
  0
INSERT
  5
   71C
  8
0
  6
CONTINUOUS
 62
     7
  2
*HATCH301
 10
54.6809387207031
 20
-160.314392089844
 30
0.0
 50
269.999999844103
  0
INSERT
  5
   71D
  8
0
  6
CONTINUOUS
 62
     7
  2
*HATCH302
 10
54.6809387207031
 20
-160.314392089844
 30
0.0
 50
269.999999844103
  0
LINE
  5
   71E
  8
0
  6
CONTINUOUS
 62
     7
 10
34.3777230314404
 20
-148.344937391626
 30
0.0
 11
34.3777230314404
 21
-172.92712517821
 31
0.0
  0
TEXT
  5
   71F
  8
0
  6
CONTINUOUS
 62
     7
 10
45.9898138884695
 20
-141.79585457001
 30
0.0
 40
3.00000002980232
  1
PART. Z
 50
359.999999844103
 41
0.916666689183977
 72
     1
 11
55.3398142158985
 21
-140.295854580502
 31
0.0
 73
     2
  0
INSERT
  5
   720
  8
0
  6
CONTINUOUS
 62
     7
  2
*UDIM1496
 10
0.0
 20
0.0
 30
0.0
  0
INSERT
  5
   721
  8
0
  6
CONTINUOUS
 62
     7
  2
*UDIM1497
 10
0.0
 20
0.0
 30
0.0
  0
LINE
  5
   722
  8
0
  6
DASHDOT
 62
     2
 10
-33.5510635375977
 20
-130.021293471596
 30
0.0
 11
-33.5510635375977
 21
-194.368123479795
 31
0.0
  0
LINE
  5
   723
  8
0
  6
DASHDOT
 62
     2
 10
3.09311942772351
 20
-158.871661387384
 30
0.0
 11
-61.8531970875139
 21
-158.871661387384
 31
0.0
  0
CIRCLE
  5
   724
  8
0
  6
CONTINUOUS
 62
     7
 10
-48.9510634541512
 20
-148.861661441624
 30
0.0
 40
0.934999994933605
  0
CIRCLE
  5
   725
  8
0
  6
CONTINUOUS
 62
     7
 10
-18.1510636210442
 20
-148.861661441624
 30
0.0
 40
0.934999994933605
  0
CIRCLE
  5
   726
  8
0
  6
CONTINUOUS
 62
     7
 10
-18.1510636210442
 20
-175.261661298573
 30
0.0
 40
0.934999994933605
  0
CIRCLE
  5
   727
  8
0
  6
CONTINUOUS
 62
     7
 10
-48.9510634541512
 20
-175.261661298573
 30
0.0
 40
0.934999994933605
  0
LINE
  5
   728
  8
0
  6
DASHDOT
 62
     7
 10
-48.9510634541512
 20
-145.726661458612
 30
0.0
 11
-48.9510634541512
 21
-151.996661424637
 31
0.0
  0
LINE
  5
   729
  8
0
  6
DASHDOT
 62
     7
 10
-45.8160634711385
 20
-148.861661441624
 30
0.0
 11
-52.0860634371638
 21
-148.861661441624
 31
0.0
  0
LINE
  5
   72A
  8
0
  6
DASHDOT
 62
     7
 10
-18.1510636210442
 20
-145.726661458612
 30
0.0
 11
-18.1510636210442
 21
-171.60615518077
 31
0.0
  0
LINE
  5
   72B
  8
0
  6
DASHDOT
 62
     7
 10
-15.0160636380315
 20
-148.861661441624
 30
0.0
 11
-43.815256306924
 21
-148.861661441624
 31
0.0
  0
LINE
  5
   72C
  8
0
  6
DASHDOT
 62
     7
 10
-18.1510636210442
 20
-172.12666131556
 30
0.0
 11
-18.1510636210442
 21
-178.396661281586
 31
0.0
  0
LINE
  5
   72D
  8
0
  6
DASHDOT
 62
     7
 10
-15.0160636380315
 20
-175.261661298573
 30
0.0
 11
-44.1385821225944
 21
-175.261661298573
 31
0.0
  0
LINE
  5
   72E
  8
0
  6
DASHDOT
 62
     7
 10
-48.9510634541512
 20
-153.678303918528
 30
0.0
 11
-48.9510634541512
 21
-178.396661281586
 31
0.0
  0
LINE
  5
   72F
  8
0
  6
DASHDOT
 62
     7
 10
-45.8160634711385
 20
-175.261661298573
 30
0.0
 11
-52.0860634371638
 21
-175.261661298573
 31
0.0
  0
LINE
  5
   730
  8
0
  6
CONTINUOUS
 62
     7
 10
-8.25106367468834
 20
-127.961661554873
 30
0.0
 11
-8.25106367468834
 21
-196.161661185324
 31
0.0
  0
LINE
  5
   731
  8
0
  6
CONTINUOUS
 62
     7
 10
-58.851063400507
 20
-127.961661554873
 30
0.0
 11
-58.851063400507
 21
-196.161661185324
 31
0.0
  0
LINE
  5
   732
  8
0
  6
CONTINUOUS
 62
     7
 10
-8.25106367468834
 20
-196.161661185324
 30
0.0
 11
-58.851063400507
 21
-196.161661185324
 31
0.0
  0
LINE
  5
   733
  8
0
  6
CONTINUOUS
 62
     7
 10
-8.25106367468834
 20
-127.961661554873
 30
0.0
 11
-58.851063400507
 21
-127.961661554873
 31
0.0
  0
CIRCLE
  5
   734
  8
0
  6
CONTINUOUS
 62
     7
 10
-13.2713348078588
 20
-137.499674919826
 30
0.0
 40
0.175999999046326
  0
LINE
  5
   735
  8
0
  6
CONTINUOUS
 62
     7
 10
-10.4510636627674
 20
-146.221661455929
 30
0.0
 11
-56.6510634124279
 21
-146.221661455929
 31
0.0
  0
LINE
  5
   736
  8
0
  6
CONTINUOUS
 62
     7
 10
-10.4510636627674
 20
-177.901661284268
 30
0.0
 11
-56.6510634124279
 21
-177.901661284268
 31
0.0
  0
LINE
  5
   737
  8
0
  6
CONTINUOUS
 62
     7
 10
-10.4510636627674
 20
-129.171661548316
 30
0.0
 11
-56.6510634124279
 21
-129.171661548316
 31
0.0
  0
LINE
  5
   738
  8
0
  6
CONTINUOUS
 62
     7
 10
-10.4510636627674
 20
-194.951661191881
 30
0.0
 11
-56.6510634124279
 21
-194.951661191881
 31
0.0
  0
LINE
  5
   739
  8
0
  6
CONTINUOUS
 62
     7
 10
-10.0110636651516
 20
-129.611661545932
 30
0.0
 11
-10.0110636651516
 21
-145.781661458313
 31
0.0
  0
LINE
  5
   73A
  8
0
  6
CONTINUOUS
 62
     7
 10
-57.0910634100437
 20
-129.611661545932
 30
0.0
 11
-57.0910634100437
 21
-145.781661458313
 31
0.0
  0
LINE
  5
   73B
  8
0
  6
CONTINUOUS
 62
     7
 10
-10.0110636651516
 20
-178.341661281884
 30
0.0
 11
-10.0110636651516
 21
-194.511661194265
 31
0.0
  0
LINE
  5
   73C
  8
0
  6
CONTINUOUS
 62
     7
 10
-57.0910634100437
 20
-178.341661281884
 30
0.0
 11
-57.0910634100437
 21
-194.511661194265
 31
0.0
  0
ARC
  5
   73D
  8
0
  6
CONTINUOUS
 62
     7
 10
-56.6510634124279
 20
-129.611661545932
 30
0.0
 40
0.439999997615814
 50
449.999999896069
 51
539.999999896069
  0
ARC
  5
   73E
  8
0
  6
CONTINUOUS
 62
     7
 10
-56.6510634124279
 20
-145.781661458313
 30
0.0
 40
0.439999997615814
 50
179.999999896069
 51
269.999999896069
  0
ARC
  5
   73F
  8
0
  6
CONTINUOUS
 62
     7
 10
-10.4510636627674
 20
-145.781661458313
 30
0.0
 40
0.439999997615814
 50
269.999999896069
 51
359.999999896069
  0
ARC
  5
   740
  8
0
  6
CONTINUOUS
 62
     7
 10
-10.4510636627674
 20
-129.611661545932
 30
0.0
 40
0.439999997615814
 50
359.999999896069
 51
449.999999896069
  0
ARC
  5
   741
  8
0
  6
CONTINUOUS
 62
     7
 10
-10.4510636627674
 20
-178.341661281884
 30
0.0
 40
0.439999997615814
 50
359.999999896069
 51
449.999999896069
  0
ARC
  5
   742
  8
0
  6
CONTINUOUS
 62
     7
 10
-10.4510636627674
 20
-194.511661194265
 30
0.0
 40
0.439999997615814
 50
269.999999896069
 51
359.999999896069
  0
ARC
  5
   743
  8
0
  6
CONTINUOUS
 62
     7
 10
-56.6510634124279
 20
-194.511661194265
 30
0.0
 40
0.439999997615814
 50
179.999999896069
 51
269.999999896069
  0
ARC
  5
   744
  8
0
  6
CONTINUOUS
 62
     7
 10
-56.6510634124279
 20
-178.341661281884
 30
0.0
 40
0.439999997615814
 50
449.999999896069
 51
539.999999896069
  0
TEXT
  5
   745
  8
0
  6
CONTINUOUS
 62
     7
 10
-45.3494597776497
 20
-126.694928420464
 30
0.0
 40
2.99999995513396
  1
=      =
 50
359.999999896069
 41
0.916666619022687
 72
     2
 11
-23.8994612091149
 21
-126.694928459266
 31
0.0
  0
INSERT
  5
   746
  8
0
  6
CONTINUOUS
 62
     7
  2
*UDIM1498
 10
0.0
 20
0.0
 30
0.0
  0
INSERT
  5
   747
  8
0
  6
CONTINUOUS
 62
     7
  2
*UDIM1499
 10
0.0
 20
0.0
 30
0.0
  0
INSERT
  5
   748
  8
0
  6
CONTINUOUS
 62
     7
  2
*UDIM1500
 10
0.0
 20
0.0
 30
0.0
  0
INSERT
  5
   749
  8
0
  6
CONTINUOUS
 62
     7
  2
*UDIM1501
 10
0.0
 20
0.0
 30
0.0
  0
INSERT
  5
   74A
  8
0
  6
CONTINUOUS
 62
     7
  2
*UDIM1502
 10
0.0
 20
0.0
 30
0.0
  0
INSERT
  5
   74B
  8
0
  6
CONTINUOUS
 62
     7
  2
*UDIM1503
 10
0.0
 20
0.0
 30
0.0
  0
TEXT
  5
   74C
  8
0
  6
CONTINUOUS
 62
     7
 10
-44.5636486246812
 20
-139.080814888995
 30
0.0
 40
2.99999995513396
  1
=      =
 50
359.999999896069
 41
0.916666619022687
 72
     2
 11
-23.1136500561463
 21
-139.080814927796
 31
0.0
  0
INSERT
  5
   74D
  8
0
  6
CONTINUOUS
 62
     7
  2
*UDIM1504
 10
0.0
 20
0.0
 30
0.0
  0
INSERT
  5
   74E
  8
0
  6
CONTINUOUS
 62
     7
  2
*UDIM1505
 10
0.0
 20
0.0
 30
0.0
  0
INSERT
  5
   74F
  8
0
  6
CONTINUOUS
 62
     7
  2
*UDIM1506
 10
0.0
 20
0.0
 30
0.0
  0
TEXT
  5
   750
  8
0
  6
CONTINUOUS
 62
     7
 10
-34.9284831476392
 20
-204.889764745125
 30
0.0
 40
2.99999995513396
  1
Y
 50
359.999999896069
 41
0.916666619022687
 72
     2
 11
-32.7284832906904
 21
-204.889764749105
 31
0.0
  0
TEXT
  5
   751
  8
0
  6
CONTINUOUS
 62
     7
 10
-34.8225022369586
 20
-118.197451982455
 30
0.0
 40
2.99999995513396
  1
Y
 50
359.999999896069
 41
0.916666619022687
 72
     2
 11
-32.6225023800097
 21
-118.197451986434
 31
0.0
  0
TEXT
  5
   752
  8
0
  6
CONTINUOUS
 62
     7
 10
-92.1987945457644
 20
-160.110628673374
 30
0.0
 40
2.99999995513396
  1
X
 50
359.999999896069
 41
0.916666619022687
 72
     2
 11
-89.9987946888155
 21
-160.110628677353
 31
0.0
  0
TEXT
  5
   753
  8
0
  6
CONTINUOUS
 62
     7
 10
4.80068063664168
 20
-160.677188843338
 30
0.0
 40
2.99999995513396
  1
X
 50
359.999999896069
 41
0.916666619022687
 72
     2
 11
7.00068049359053
 21
-160.677188847318
 31
0.0
  0
ENDSEC
  0
EOF
