  0
SECTION
  2
HEADER
  9
$ACADVER
  1
AC1009
  9
$INSBASE
 10
0.0
 20
0.0
 30
0.0
  9
$EXTMIN
 10
-283.13157188927278
 20
385.83233412593938
 30
-0.0015258207003583
  9
$EXTMAX
 10
1213.4669072579279
 20
972.07855284108211
 30
0.0000000349246037
  9
$LIMMIN
 10
0.0
 20
0.0
  9
$LIMMAX
 10
420.0
 20
297.0
  9
$ORTHOMODE
 70
     0
  9
$REGENMODE
 70
     1
  9
$FILLMODE
 70
     1
  9
$QTEXTMODE
 70
     0
  9
$MIRRTEXT
 70
     1
  9
$DRAGMODE
 70
     2
  9
$LTSCALE
 40
1.0
  9
$OSMODE
 70
    47
  9
$ATTMODE
 70
     1
  9
$TEXTSIZE
 40
0.0
  9
$TRACEWID
 40
1.0
  9
$TEXTSTYLE
  7
STANDARD
  9
$CLAYER
  8
0
  9
$CELTYPE
  6
BYLAYER
  9
$CECOLOR
 62
   256
  9
$DIMSCALE
 40
1.0
  9
$DIMASZ
 40
2.5
  9
$DIMEXO
 40
0.625
  9
$DIMDLI
 40
3.75
  9
$DIMRND
 40
0.0
  9
$DIMDLE
 40
0.0
  9
$DIMEXE
 40
1.25
  9
$DIMTP
 40
0.0
  9
$DIMTM
 40
0.0
  9
$DIMTXT
 40
2.5
  9
$DIMCEN
 40
2.5
  9
$DIMTSZ
 40
0.0
  9
$DIMTOL
 70
     0
  9
$DIMLIM
 70
     0
  9
$DIMTIH
 70
     0
  9
$DIMTOH
 70
     0
  9
$DIMSE1
 70
     0
  9
$DIMSE2
 70
     0
  9
$DIMTAD
 70
     1
  9
$DIMZIN
 70
     8
  9
$DIMBLK
  1

  9
$DIMASO
 70
     1
  9
$DIMSHO
 70
     1
  9
$DIMPOST
  1

  9
$DIMAPOST
  1

  9
$DIMALT
 70
     0
  9
$DIMALTD
 70
     3
  9
$DIMALTF
 40
0.03937
  9
$DIMLFAC
 40
1.0
  9
$DIMTOFL
 70
     1
  9
$DIMTVP
 40
0.0
  9
$DIMTIX
 70
     0
  9
$DIMSOXD
 70
     0
  9
$DIMSAH
 70
     0
  9
$DIMBLK1
  1

  9
$DIMBLK2
  1

  9
$DIMSTYLE
  2
STANDARD
  9
$DIMCLRD
 70
     0
  9
$DIMCLRE
 70
     0
  9
$DIMCLRT
 70
     0
  9
$DIMTFAC
 40
1.0
  9
$DIMGAP
 40
0.625
  9
$LUNITS
 70
     2
  9
$LUPREC
 70
     4
  9
$SKETCHINC
 40
1.0
  9
$FILLETRAD
 40
2.5
  9
$AUNITS
 70
     0
  9
$AUPREC
 70
     0
  9
$MENU
  1
.
  9
$ELEVATION
 40
0.0
  9
$PELEVATION
 40
0.0
  9
$THICKNESS
 40
0.0
  9
$LIMCHECK
 70
     0
  9
$BLIPMODE
 70
     0
  9
$CHAMFERA
 40
2.5
  9
$CHAMFERB
 40
2.5
  9
$SKPOLY
 70
     0
  9
$TDCREATE
 40
2311942.6599061568
  9
$TDUPDATE
 40
2454455.3921217239
  9
$TDINDWG
 40
0.0011326968
  9
$TDUSRTIMER
 40
0.0011326968
  9
$USRTIMER
 70
     1
  9
$ANGBASE
 50
0.0
  9
$ANGDIR
 70
     0
  9
$PDMODE
 70
     0
  9
$PDSIZE
 40
0.0
  9
$PLINEWID
 40
0.0
  9
$COORDS
 70
     1
  9
$SPLFRAME
 70
     0
  9
$SPLINETYPE
 70
     6
  9
$SPLINESEGS
 70
     8
  9
$ATTDIA
 70
     0
  9
$ATTREQ
 70
     1
  9
$HANDLING
 70
 22529
  9
$HANDSEED
  5
C8F
  9
$SURFTAB1
 70
     6
  9
$SURFTAB2
 70
     6
  9
$SURFTYPE
 70
     6
  9
$SURFU
 70
     6
  9
$SURFV
 70
     6
  9
$UCSNAME
  2

  9
$UCSORG
 10
0.0
 20
0.0
 30
0.0
  9
$UCSXDIR
 10
1.0
 20
0.0
 30
0.0
  9
$UCSYDIR
 10
0.0
 20
1.0
 30
0.0
  9
$PUCSNAME
  2

  9
$PUCSORG
 10
0.0
 20
0.0
 30
0.0
  9
$PUCSXDIR
 10
1.0
 20
0.0
 30
0.0
  9
$PUCSYDIR
 10
0.0
 20
1.0
 30
0.0
  9
$USERI1
 70
     0
  9
$USERI2
 70
     0
  9
$USERI3
 70
     0
  9
$USERI4
 70
     0
  9
$USERI5
 70
     0
  9
$USERR1
 40
0.0
  9
$USERR2
 40
0.0
  9
$USERR3
 40
0.0
  9
$USERR4
 40
0.0
  9
$USERR5
 40
0.0
  9
$WORLDVIEW
 70
     1
  9
$SHADEDGE
 70
     3
  9
$SHADEDIF
 70
    70
  9
$TILEMODE
 70
     1
  9
$MAXACTVP
 70
    48
  9
$PLIMCHECK
 70
     0
  9
$PEXTMIN
 10
0.0
 20
0.0
 30
0.0
  9
$PEXTMAX
 10
269.19641100000001
 20
213.624573
 30
2.0
  9
$PLIMMIN
 10
0.0
 20
0.0
  9
$PLIMMAX
 10
420.0
 20
297.0
  9
$UNITMODE
 70
     0
  9
$VISRETAIN
 70
     0
  9
$PLINEGEN
 70
     0
  9
$PSLTSCALE
 70
     1
  0
ENDSEC
  0
SECTION
  2
TABLES
  0
TABLE
  2
VPORT
 70
     2
  0
VPORT
  2
*ACTIVE
 70
     0
 10
0.0
 20
0.0
 11
1.0
 21
1.0
 12
465.1676676843274
 22
678.95544348351086
 13
0.0
 23
0.0
 14
1.0
 24
1.0
 15
0.0
 25
0.0
 16
0.0
 26
0.0
 36
1.0
 17
0.0
 27
0.0
 37
0.0
 40
970.0095189339213
 41
1.550724637681159
 42
50.0
 43
0.0
 44
0.0
 50
0.0
 51
0.0
 71
     0
 72
   100
 73
     1
 74
     1
 75
     0
 76
     0
 77
     0
 78
     0
  0
ENDTAB
  0
TABLE
  2
LTYPE
 70
     8
  0
LTYPE
  2
CONTINUOUS
 70
     0
  3
Solid line
 72
    65
 73
     0
 40
0.0
  0
LTYPE
  2
DASHED
 70
     0
  3
__ __ __ __ __ __ __ __ __ __ __ __ __ __ __ __
 72
    65
 73
     2
 40
15.0
 49
12.0
 49
-3.0
  0
LTYPE
  2
DASHDOT
 70
     0
  3
 __ . __ . __ . __ . __ . __ . __ . 
 72
    65
 73
     4
 40
18.5
 49
12.0
 49
-3.0
 49
0.5
 49
-3.0
  0
LTYPE
  2
DOT
 70
     0
  3
 . . . . . . . . . . . . . . . .
 72
    65
 73
     2
 40
3.5
 49
0.5
 49
-3.0
  0
LTYPE
  2
DASHSPACE
 70
     0
  3
__    __    __    __    __   
 72
    65
 73
     2
 40
30.0
 49
12.0
 49
-18.0
  0
LTYPE
  2
DASHDOT2
 70
     0
  3
__ . . __ . . __ . . __ 
 72
    65
 73
     6
 40
22.0
 49
12.0
 49
-3.0
 49
0.5
 49
-3.0
 49
0.5
 49
-3.0
  0
LTYPE
  2
PHANTOM
 70
     0
  3
____________    ____    ____   _
 72
    65
 73
     6
 40
20.0
 49
10.0
 49
-2.0
 49
2.0
 49
-2.0
 49
2.0
 49
-2.0
  0
LTYPE
  2
AXES
 70
     0
  3
________  __  ________  __  _____
 72
    65
 73
     4
 40
24.0
 49
15.0
 49
-3.0
 49
3.0
 49
-3.0
  0
ENDTAB
  0
TABLE
  2
LAYER
 70
     1
  0
LAYER
  2
0
 70
     0
 62
     7
  6
CONTINUOUS
  0
ENDTAB
  0
TABLE
  2
STYLE
 70
     2
  0
STYLE
  2
STANDARD
 70
     0
 40
0.0
 41
1.0
 50
0.0
 71
     0
 42
0.0
  3
isocp.shx
  4

  0
STYLE
  2
GDT
 70
     0
 40
0.0
 41
1.0
 50
0.0
 71
     0
 42
0.0
  3
amgdt.shx
  4

  0
ENDTAB
  0
TABLE
  2
VIEW
 70
     0
  0
ENDTAB
  0
TABLE
  2
UCS
 70
     0
  0
ENDTAB
  0
TABLE
  2
APPID
 70
     1
  0
APPID
  2
ACAD
 70
     0
  0
ENDTAB
  0
TABLE
  2
DIMSTYLE
 70
     1
  0
DIMSTYLE
  2
STANDARD
 70
     0
  3

  4

  5

  6

  7

 40
1.0
 41
2.5
 42
0.625
 43
3.75
 44
1.25
 45
0.0
 46
0.0
 47
0.0
 48
0.0
140
2.5
141
2.5
142
0.0
143
0.03937
144
1.0
145
0.0
146
1.0
147
0.625
 71
     0
 72
     0
 73
     0
 74
     0
 75
     0
 76
     0
 77
     1
 78
     8
170
     0
171
     3
172
     1
173
     0
174
     0
175
     0
176
     0
177
     0
178
     0
  0
ENDTAB
  0
ENDSEC
  0
SECTION
  2
BLOCKS
  0
BLOCK
  8
0
  2
$MODEL_SPACE
 70
     0
 10
0.0
 20
0.0
 30
0.0
  3
$MODEL_SPACE
  1

  0
ENDBLK
  5
E
  8
0
  0
BLOCK
 67
     1
  8
0
  2
$PAPER_SPACE
 70
     0
 10
0.0
 20
0.0
 30
0.0
  3
$PAPER_SPACE
  1

  0
ENDBLK
  5
10
 67
     1
  8
0
  0
BLOCK
  8
0
  2
BLOCK0
 70
     0
 10
0.0
 20
0.0
 30
0.0
  3
BLOCK0
  1

  0
TEXT
  5
8B9
  8
0
 62
     1
 10
-454.15213
 20
-68.0
 30
0.0
 40
2.0
  1
N0204 2007-09-17
 50
180.0
 41
1.1017693073406229
 72
     5
 11
-477.84786999999989
 21
-68.0
 31
0.0
  0
ENDBLK
  5
8BA
  8
0
  0
BLOCK
  8
0
  2
BLOCK1
 70
     0
 10
0.0
 20
0.0
 30
0.0
  3
BLOCK1
  1

  0
TEXT
  5
8BC
  8
0
 62
     1
 10
-500.0
 20
-60.0
 30
0.0
 40
4.0
  1
1SDH000637R0.114
 50
180.0
 41
1.404332156398103
 72
     5
 11
-559.26281700000004
 21
-60.0
 31
0.0
  0
ENDBLK
  5
8BD
  8
0
  0
BLOCK
  8
0
  2
BLOCK2
 70
     0
 10
0.0
 20
0.0
 30
0.0
  3
BLOCK2
  1

  0
TEXT
  5
8BF
  8
0
 62
     1
 10
-521.0
 20
-69.0
 30
0.0
 40
3.0
  1
Ts3
 50
180.0
 41
1.225762527177944
 72
     5
 11
-528.69995099999994
 21
-69.0
 31
0.0
  0
ENDBLK
  5
8C0
  8
0
  0
BLOCK
  8
0
  2
BLOCK3
 70
     0
 10
0.0
 20
0.0
 30
0.0
  3
BLOCK3
  1

  0
TEXT
  5
8C2
  8
0
 62
     1
 10
-503.0
 20
-79.0
 30
0.0
 40
2.0
  1
INTERR.AUTOMATICO SERIE ISOMAX
 50
179.9999897438901
 41
1.076916072289172
 72
     5
 11
-547.69201699999985
 21
-78.999992000000006
 31
0.0
  0
ENDBLK
  5
8C3
  8
0
  0
BLOCK
  8
0
  2
BLOCK4
 70
     0
 10
0.0
 20
0.0
 30
0.0
  3
BLOCK4
  1

  0
TEXT
  5
8C5
  8
0
 62
     1
 10
-491.0
 20
-76.0
 30
0.0
 40
2.0
  1
TETRAP.ESECUZIONE ESTRAIBILE TERMIN.POSTERIORI
 50
179.99999332681179
 41
1.102532006420555
 72
     5
 11
-559.68774399999995
 21
-75.999992000000006
 31
0.0
  0
ENDBLK
  5
8C6
  8
0
  0
BLOCK
  8
0
  2
BLOCK5
 70
     0
 10
0.0
 20
0.0
 30
0.0
  3
BLOCK5
  1

  0
TEXT
  5
8C8
  8
0
 62
     1
 10
-499.0
 20
-88.0
 30
0.0
 40
2.0
  1
4POLE LOW VOLTAGE M.C.C.B SERIES ISOMAX
 50
179.9999921228804
 41
1.095848870056507
 72
     5
 11
-557.18957499999999
 21
-87.999992000000006
 31
0.0
  0
ENDBLK
  5
8C9
  8
0
  0
BLOCK
  8
0
  2
BLOCK6
 70
     0
 10
0.0
 20
0.0
 30
0.0
  3
BLOCK6
  1

  0
TEXT
  5
8CB
  8
0
 62
     1
 10
-502.0
 20
-85.0
 30
0.0
 40
2.0
  1
WITHDRAWABLE VERSION REAR  TERMINALS
 50
179.99999146278469
 41
1.0250319990800101
 72
     5
 11
-555.69036900000003
 21
-84.999992000000006
 31
0.0
  0
ENDBLK
  5
8CC
  8
0
  0
BLOCK
  8
0
  2
BLOCK7
 70
     0
 10
0.0
 20
0.0
 30
0.0
  3
BLOCK7
  1

  0
LINE
  5
8CE
  8
0
 62
     2
 10
75.237106000000011
 20
-175.338257
 30
0.0
 11
75.237106000000011
 21
-210.83825699999991
 31
0.0
  0
LINE
  5
8CF
  8
0
 62
     2
 10
90.237106000000011
 20
-175.338257
 30
0.0
 11
90.237106000000011
 21
-210.83825699999991
 31
0.0
  0
LINE
  5
8D0
  8
0
 62
     2
 10
74.237106000000011
 20
-210.83825699999991
 30
0.0
 11
91.237105999999997
 21
-210.83825699999991
 31
0.0
  0
LINE
  5
8D1
  8
0
 62
     2
 10
75.237106000000011
 20
-175.338257
 30
0.0
 11
90.237106000000011
 21
-175.338257
 31
0.0
  0
LINE
  5
8D2
  8
0
 62
     2
 10
91.237105999999997
 20
-210.83825699999991
 30
0.0
 11
189.23080399999989
 21
-210.83825699999991
 31
0.0
  0
LINE
  5
8D3
  8
0
 62
     2
 10
30.737106000000001
 20
-210.83825699999991
 30
0.0
 11
74.237099000000001
 21
-210.83825699999991
 31
0.0
  0
LINE
  5
8D4
  8
0
 62
     2
 10
29.487106000000001
 20
-37.588248999999998
 30
0.0
 11
29.487106000000001
 21
-209.588257
 31
0.0
  0
LINE
  5
8D5
  8
0
 62
     2
 10
30.737106000000001
 20
-36.338248999999998
 30
0.0
 11
189.23080399999989
 21
-36.338248999999998
 31
0.0
  0
LINE
  5
8D6
  8
0
 62
     2
 10
169.48710600000001
 20
-175.338257
 30
0.0
 11
170.48710600000001
 21
-175.338257
 31
0.0
  0
LINE
  5
8D7
  8
0
 62
     2
 10
169.48710600000001
 20
-45.33824899999999
 30
0.0
 11
170.48710600000001
 21
-45.33824899999999
 31
0.0
  0
LINE
  5
8D8
  8
0
 62
     2
 10
49.487105999999997
 20
-175.338257
 30
0.0
 11
50.48710599999999
 21
-175.338257
 31
0.0
  0
LINE
  5
8D9
  8
0
 62
     2
 10
49.487105999999997
 20
-46.33824899999999
 30
0.0
 11
49.487105999999997
 21
-174.338257
 31
0.0
  0
LINE
  5
8DA
  8
0
 62
     2
 10
49.487105999999997
 20
-45.33824899999999
 30
0.0
 11
50.48710599999999
 21
-45.33824899999999
 31
0.0
  0
LINE
  5
8DB
  8
0
 62
     2
 10
29.487106000000001
 20
-174.338257
 30
0.0
 11
49.487105999999997
 21
-174.338257
 31
0.0
  0
LINE
  5
8DC
  8
0
 62
     2
 10
170.48710600000001
 20
-175.338257
 30
0.0
 11
190.4871059999999
 21
-175.338257
 31
0.0
  0
LINE
  5
8DD
  8
0
 62
     2
 10
50.48710599999999
 20
-175.338257
 30
0.0
 11
74.237106000000011
 21
-175.338257
 31
0.0
  0
LINE
  5
8DE
  8
0
 62
     2
 10
91.237105999999997
 20
-175.338257
 30
0.0
 11
169.48710600000001
 21
-175.338257
 31
0.0
  0
LINE
  5
8DF
  8
0
 62
     2
 10
29.487106000000001
 20
-175.338257
 30
0.0
 11
49.487105999999997
 21
-175.338257
 31
0.0
  0
LINE
  5
8E0
  8
0
 62
     2
 10
170.48710600000001
 20
-45.33824899999999
 30
0.0
 11
190.4871059999999
 21
-45.33824899999999
 31
0.0
  0
LINE
  5
8E1
  8
0
 62
     2
 10
50.48710599999999
 20
-45.33824899999999
 30
0.0
 11
169.48710600000001
 21
-45.33824899999999
 31
0.0
  0
LINE
  5
8E2
  8
0
 62
     2
 10
29.487106000000001
 20
-45.33824899999999
 30
0.0
 11
49.487105999999997
 21
-45.33824899999999
 31
0.0
  0
LINE
  5
8E3
  8
0
 62
     2
 10
29.487106000000001
 20
-46.33824899999999
 30
0.0
 11
49.487105999999997
 21
-46.33824899999999
 31
0.0
  0
LINE
  5
8E4
  8
0
 62
     2
 10
74.237106000000011
 20
-175.338257
 30
0.0
 11
74.237106000000011
 21
-210.83825699999991
 31
0.0
  0
LINE
  5
8E5
  8
0
 62
     2
 10
91.237105999999997
 20
-175.338257
 30
0.0
 11
91.237105999999997
 21
-210.83825699999991
 31
0.0
  0
LINE
  5
8E6
  8
0
 62
     2
 10
90.237106000000011
 20
-175.38826
 30
0.0
 11
91.237105999999997
 21
-175.38826
 31
0.0
  0
LINE
  5
8E7
  8
0
 62
     2
 10
74.237106000000011
 20
-175.38826
 30
0.0
 11
75.237106000000011
 21
-175.38826
 31
0.0
  0
LINE
  5
8E8
  8
0
 62
     2
 10
169.48710600000001
 20
-46.33824899999999
 30
0.0
 11
169.48710600000001
 21
-174.338257
 31
0.0
  0
LINE
  5
8E9
  8
0
 62
     2
 10
50.48710599999999
 20
-46.33824899999999
 30
0.0
 11
50.48710599999999
 21
-174.338257
 31
0.0
  0
LINE
  5
8EA
  8
0
 62
     2
 10
50.48710599999999
 20
-174.338257
 30
0.0
 11
169.48710600000001
 21
-174.338257
 31
0.0
  0
LINE
  5
8EB
  8
0
 62
     2
 10
50.48710599999999
 20
-46.33824899999999
 30
0.0
 11
169.48710600000001
 21
-46.33824899999999
 31
0.0
  0
LINE
  5
8EC
  8
0
 62
     2
 10
162.48710600000001
 20
-167.338257
 30
0.0
 11
169.48710600000001
 21
-174.338257
 31
0.0
  0
LINE
  5
8ED
  8
0
 62
     2
 10
169.48710600000001
 20
-46.33824899999999
 30
0.0
 11
161.95770300000001
 21
-62.338253000000002
 31
0.0
  0
LINE
  5
8EE
  8
0
 62
     2
 10
57.487121999999992
 20
-167.338257
 30
0.0
 11
50.487102999999998
 21
-174.3382719999999
 31
0.0
  0
LINE
  5
8EF
  8
0
 62
     2
 10
50.48710599999999
 20
-46.338253000000002
 30
0.0
 11
58.016518000000012
 21
-62.338253000000002
 31
0.0
  0
LINE
  5
8F0
  8
0
 62
     2
 10
170.48080400000001
 20
-174.3381959999999
 30
0.0
 11
190.48080399999989
 21
-174.3381959999999
 31
0.0
  0
LINE
  5
8F1
  8
0
 62
     2
 10
170.48080400000001
 20
-45.33824899999999
 30
0.0
 11
170.48080400000001
 21
-175.338257
 31
0.0
  0
LINE
  5
8F2
  8
0
 62
     2
 10
190.48080399999989
 20
-37.588248999999998
 30
0.0
 11
190.48080399999989
 21
-45.33824899999999
 31
0.0
  0
LINE
  5
8F3
  8
0
 62
     2
 10
190.48080399999989
 20
-115.3435129999999
 30
0.0
 11
190.48080399999989
 21
-175.338257
 31
0.0
  0
ARC
  5
8F4
  8
0
 62
     2
 10
194.62799099999989
 20
-110.338219
 30
0.0
 40
6.5001670000000003
 50
129.64374699999991
 51
230.3562529999999
  0
LINE
  5
8F5
  8
0
 62
     2
 10
190.48080399999989
 20
-105.332916
 30
0.0
 11
190.48080399999989
 21
-115.3435129999999
 31
0.0
  0
LINE
  5
8F6
  8
0
 62
     2
 10
170.48710600000001
 20
-46.33824899999999
 30
0.0
 11
190.4871059999999
 21
-46.33824899999999
 31
0.0
  0
LINE
  5
8F7
  8
0
 62
     2
 10
190.48080399999989
 20
-45.33824899999999
 30
0.0
 11
190.48080399999989
 21
-105.332916
 31
0.0
  0
LINE
  5
8F8
  8
0
 62
     2
 10
190.48080399999989
 20
-175.338257
 30
0.0
 11
190.48080399999989
 21
-209.588257
 31
0.0
  0
POINT
  5
8F9
  8
0
 62
     2
 10
109.987106
 20
-114.838249
 30
0.0
  0
ARC
  5
8FA
  8
0
 62
     2
 10
189.23080399999989
 20
-37.588248999999998
 30
0.0
 40
1.25
 50
0.000003
 51
90.000005000000002
  0
ARC
  5
8FB
  8
0
 62
     2
 10
30.737106000000001
 20
-37.588248999999998
 30
0.0
 40
1.25
 50
90.000005000000002
 51
180.00000099999991
  0
ARC
  5
8FC
  8
0
 62
     2
 10
30.737106000000001
 20
-209.588257
 30
0.0
 40
1.25
 50
180.00000099999991
 51
270.0
  0
ARC
  5
8FD
  8
0
 62
     2
 10
189.23080399999989
 20
-209.588257
 30
0.0
 40
1.25
 50
270.0
 51
0.000003
  0
ENDBLK
  5
8FE
  8
0
  0
BLOCK
  8
0
  2
BLOCK8
 70
     0
 10
0.0
 20
0.0
 30
0.0
  3
BLOCK8
  1

  0
TEXT
  5
900
  8
0
 62
     7
 10
254.05938699999999
 20
-112.326477
 30
0.0
 40
3.0
  1
Y
 50
270.0
 41
0.9777764444444427
 72
     5
 11
254.05938699999999
 21
-114.52647399999999
 31
0.0
  0
ENDBLK
  5
901
  8
0
  0
BLOCK
  8
0
  2
BLOCK9
 70
     0
 10
0.0
 20
0.0
 30
0.0
  3
BLOCK9
  1

  0
TEXT
  5
903
  8
0
 62
     7
 10
88.658553999999995
 20
12.874878000000001
 30
0.0
 40
3.0
  1
175
 50
359.99997767691679
 41
1.4327509593040999
 72
     5
 11
96.358536000000001
 21
12.874874999999999
 31
0.0
  0
ENDBLK
  5
904
  8
0
  0
BLOCK
  8
0
  2
BLOCK10
 70
     0
 10
0.0
 20
0.0
 30
0.0
  3
BLOCK10
  1

  0
TEXT
  5
906
  8
0
 62
     7
 10
231.41452000000001
 20
-89.088256999999984
 30
0.0
 40
3.0
  1
140
 50
270.0
 41
1.3867938934978381
 72
     5
 11
231.41452000000001
 21
-96.788239000000004
 31
0.0
  0
ENDBLK
  5
907
  8
0
  0
BLOCK
  8
0
  2
BLOCK11
 70
     0
 10
0.0
 20
0.0
 30
0.0
  3
BLOCK11
  1

  0
TEXT
  5
909
  8
0
 62
     7
 10
14.75390299999999
 20
-130.08825699999991
 30
0.0
 40
3.0
  1
52,5
 50
269.9999780685298
 41
1.48769549347495
 72
     5
 11
14.75389899999999
 21
-140.5382229999999
 31
0.0
  0
ENDBLK
  5
90A
  8
0
  0
BLOCK
  8
0
  2
BLOCK12
 70
     0
 10
0.0
 20
0.0
 30
0.0
  3
BLOCK12
  1

  0
TEXT
  5
90C
  8
0
 62
     7
 10
208.21485899999999
 20
-79.980956999999989
 30
0.0
 40
3.0
  1
=          =
 50
270.0
 41
2.0603104761904771
 72
     5
 11
208.21485899999999
 21
-112.430847
 31
0.0
  0
ENDBLK
  5
90D
  8
0
  0
BLOCK
  8
0
  2
BLOCK13
 70
     0
 10
0.0
 20
0.0
 30
0.0
  3
BLOCK13
  1

  0
TEXT
  5
90F
  8
0
 62
     7
 10
3.4629609999999991
 20
-151.338257
 30
0.0
 40
3.0
  1
84
 50
270.0000231498239
 41
1.2222214814815799
 72
     5
 11
3.4629629999999989
 21
-156.28825399999991
 31
0.0
  0
ENDBLK
  5
910
  8
0
  0
BLOCK
  8
0
  2
BLOCK14
 70
     0
 10
0.0
 20
0.0
 30
0.0
  3
BLOCK14
  1

  0
TEXT
  5
912
  8
0
 62
     7
 10
215.496216
 20
-106.588196
 30
0.0
 40
3.0
  1
105
 50
270.0
 41
1.4327507732320071
 72
     5
 11
215.496216
 21
-114.288177
 31
0.0
  0
ENDBLK
  5
913
  8
0
  0
BLOCK
  8
0
  2
BLOCK15
 70
     0
 10
0.0
 20
0.0
 30
0.0
  3
BLOCK15
  1

  0
TEXT
  5
915
  8
0
 62
     7
 10
141.112076
 20
-2.9085079999999999
 30
0.0
 40
3.0
  1
89,75
 50
359.99997829699731
 41
1.4450280793784249
 72
     5
 11
154.31204199999991
 21
-2.9085130000000001
 31
0.0
  0
ENDBLK
  5
916
  8
0
  0
BLOCK
  8
0
  2
BLOCK16
 70
     0
 10
0.0
 20
0.0
 30
0.0
  3
BLOCK16
  1

  0
TEXT
  5
918
  8
0
 62
     7
 10
246.38845800000001
 20
-157.33825699999991
 30
0.0
 40
3.0
  1
96
 50
270.0
 41
1.2662099629029859
 72
     5
 11
246.38845800000001
 21
-162.28825399999991
 31
0.0
  0
ENDBLK
  5
919
  8
0
  0
BLOCK
  8
0
  2
BLOCK17
 70
     0
 10
0.0
 20
0.0
 30
0.0
  3
BLOCK17
  1

  0
TEXT
  5
91B
  8
0
 62
     7
 10
246.38845800000001
 20
-64.588256999999999
 30
0.0
 40
3.0
  1
78,5
 50
270.0
 41
1.487695493474843
 72
     5
 11
246.38845800000001
 21
-75.038223000000002
 31
0.0
  0
ENDBLK
  5
91C
  8
0
  0
BLOCK
  8
0
  2
BLOCK18
 70
     0
 10
0.0
 20
0.0
 30
0.0
  3
BLOCK18
  1

  0
TEXT
  5
91E
  8
0
 62
     7
 10
101.7339629999999
 20
-16.938171000000001
 30
0.0
 40
3.0
  1
161
 50
359.9999851179445
 41
1.6559101075269349
 72
     5
 11
109.43394499999989
 21
-16.938172999999999
 31
0.0
  0
ENDBLK
  5
91F
  8
0
  0
BLOCK
  8
0
  2
BLOCK19
 70
     0
 10
0.0
 20
0.0
 30
0.0
  3
BLOCK19
  1

  0
TEXT
  5
921
  8
0
 62
     7
 10
90.237853999999984
 20
-24.636168999999992
 30
0.0
 40
3.0
  1
=     =
 41
1.917942974358974
 72
     5
 11
108.937798
 21
-24.636168999999992
 31
0.0
  0
ENDBLK
  5
922
  8
0
  0
BLOCK
  8
0
  2
BLOCK20
 70
     0
 10
0.0
 20
0.0
 30
0.0
  3
BLOCK20
  1

  0
TEXT
  5
924
  8
0
 62
     7
 10
115.0
 20
-222.0
 30
0.0
 40
3.0
  1
X
 50
270.0
 41
0.9777764444444551
 72
     5
 11
115.0
 21
-224.199997
 31
0.0
  0
ENDBLK
  5
925
  8
0
  0
BLOCK
  8
0
  2
BLOCK21
 70
     0
 10
0.0
 20
0.0
 30
0.0
  3
BLOCK21
  1

  0
TEXT
  5
927
  8
0
 62
     7
 10
116.0
 20
96.0
 30
0.0
 40
3.0
  1
X
 50
270.0
 41
0.9777764444444425
 72
     5
 11
116.0
 21
93.800003000000004
 31
0.0
  0
ENDBLK
  5
928
  8
0
  0
BLOCK
  8
0
  2
BLOCK22
 70
     0
 10
0.0
 20
0.0
 30
0.0
  3
BLOCK22
  1

  0
TEXT
  5
92A
  8
0
 62
     7
 10
-34.439216999999999
 20
-49.25
 30
0.0
 40
3.0
  1
190
 50
270.00002976411082
 41
1.463083505771775
 72
     5
 11
-34.439213000000002
 21
-56.949981999999991
 31
0.0
  0
ENDBLK
  5
92B
  8
0
  0
BLOCK
  8
0
  2
BLOCK23
 70
     0
 10
0.0
 20
0.0
 30
0.0
  3
BLOCK23
  1

  0
TEXT
  5
92D
  8
0
 62
     7
 10
-34.439219999999999
 20
31.223389000000001
 30
0.0
 40
3.0
  1
2
 50
270.0
 41
1.202069964398266
 72
     5
 11
-34.439219999999999
 21
29.023388000000001
 31
0.0
  0
ENDBLK
  5
92E
  8
0
  0
BLOCK
  8
0
  2
BLOCK24
 70
     0
 10
0.0
 20
0.0
 30
0.0
  3
BLOCK24
  1

  0
TEXT
  5
930
  8
0
 62
     7
 10
-51.426341999999991
 20
-41.0
 30
0.0
 40
3.0
  1
195,5
 50
270.00001736241131
 41
1.546613966049907
 72
     5
 11
-51.426338000000001
 21
-54.199958999999993
 31
0.0
  0
ENDBLK
  5
931
  8
0
  0
BLOCK
  8
0
  2
BLOCK25
 70
     0
 10
0.0
 20
0.0
 30
0.0
  3
BLOCK25
  1

  0
TEXT
  5
933
  8
0
 62
     7
 10
90.160697999999996
 20
83.137450999999999
 30
0.0
 40
3.0
  1
105
 41
1.4327509593039951
 72
     5
 11
97.860680000000002
 21
83.137450999999999
 31
0.0
  0
ENDBLK
  5
934
  8
0
  0
BLOCK
  8
0
  2
BLOCK26
 70
     0
 10
0.0
 20
0.0
 30
0.0
  3
BLOCK26
  1

  0
TEXT
  5
936
  8
0
 62
     7
 10
80.236999999999995
 20
-33.232665999999988
 30
0.0
 40
3.0
  1
1,75
 50
359.9999780685298
 41
1.6266401704897531
 72
     5
 11
90.686965999999998
 21
-33.232669999999992
 31
0.0
  0
ENDBLK
  5
937
  8
0
  0
BLOCK
  8
0
  2
BLOCK27
 70
     0
 10
0.0
 20
0.0
 30
0.0
  3
BLOCK27
  1

  0
TEXT
  5
939
  8
0
 62
     7
 10
-20.253440999999992
 20
-174.56579600000001
 30
0.0
 40
3.0
  1
3
 50
270.0
 41
1.2399490238209789
 72
     5
 11
-20.253440999999992
 21
-176.765793
 31
0.0
  0
ENDBLK
  5
93A
  8
0
  0
BLOCK
  8
0
  2
BLOCK28
 70
     0
 10
0.0
 20
0.0
 30
0.0
  3
BLOCK28
  1

  0
TEXT
  5
93C
  8
0
 62
     7
 10
-20.253440999999992
 20
-169.06579600000001
 30
0.0
 40
3.0
  1
\U+2265
 50
270.0
 41
1.2422315693532049
 72
     5
 11
-20.253440999999992
 21
-171.26579299999989
 31
0.0
  0
ENDBLK
  5
93D
  8
0
  0
BLOCK
  8
0
  2
BLOCK29
 70
     0
 10
0.0
 20
0.0
 30
0.0
  3
BLOCK29
  1

  0
TEXT
  5
93F
  8
0
 62
     7
 10
-20.253447999999999
 20
-60.75
 30
0.0
 40
3.0
  1
167
 50
270.00000744102772
 41
1.466663238095248
 72
     5
 11
-20.253447000000001
 21
-68.449981999999991
 31
0.0
  0
ENDBLK
  5
940
  8
0
  0
BLOCK
  8
0
  2
BLOCK30
 70
     0
 10
0.0
 20
0.0
 30
0.0
  3
BLOCK30
  1

  0
TEXT
  5
942
  8
0
 62
     7
 10
133.11210600000001
 20
-203.95446799999999
 30
0.0
 40
3.0
  1
73,75
 41
1.4466884014530079
 72
     5
 11
146.31207299999991
 21
-203.95446799999999
 31
0.0
  0
ENDBLK
  5
943
  8
0
  0
BLOCK
  8
0
  2
BLOCK31
 70
     0
 10
0.0
 20
0.0
 30
0.0
  3
BLOCK31
  1

  0
TEXT
  5
945
  8
0
 62
     7
 10
103.987106
 20
-236.097656
 30
0.0
 40
3.0
  1
143
 41
1.357000997267279
 72
     5
 11
111.687088
 21
-236.097656
 31
0.0
  0
ENDBLK
  5
946
  8
0
  0
BLOCK
  8
0
  2
BLOCK32
 70
     0
 10
0.0
 20
0.0
 30
0.0
  3
BLOCK32
  1

  0
TEXT
  5
948
  8
0
 62
     7
 10
252.85412599999989
 20
94.404906999999994
 30
0.0
 40
3.0
  1
27,5
 50
270.0
 41
1.487695493474841
 72
     5
 11
252.85412599999989
 21
83.954941000000005
 31
0.0
  0
ENDBLK
  5
949
  8
0
  0
BLOCK
  8
0
  2
BLOCK33
 70
     0
 10
0.0
 20
0.0
 30
0.0
  3
BLOCK33
  1

  0
TEXT
  5
94B
  8
0
 62
     7
 10
252.85412599999989
 20
72.404906999999994
 30
0.0
 40
3.0
  1
       CORSA DI SEZIONAMENTO
 50
270.00002248370771
 41
1.4438098205855681
 72
     5
 11
252.85415599999999
 21
-4.0448230000000001
 31
0.0
  0
ENDBLK
  5
94C
  8
0
  0
BLOCK
  8
0
  2
BLOCK34
 70
     0
 10
0.0
 20
0.0
 30
0.0
  3
BLOCK34
  1

  0
TEXT
  5
94E
  8
0
 62
     7
 10
96.459914999999995
 20
2.2532969999999999
 30
0.0
 40
3.0
  1
 5,5
 50
219.35985058212711
 41
1.7063226486317391
 72
     5
 11
88.380225999999993
 21
-4.373958
 31
0.0
  0
ENDBLK
  5
94F
  8
0
  0
BLOCK
  8
0
  2
BLOCK35
 70
     0
 10
0.0
 20
0.0
 30
0.0
  3
BLOCK35
  1

  0
TEXT
  5
951
  8
0
 62
     7
 10
97.078445000000002
 20
2.760740999999999
 30
0.0
 40
3.0
  1
%%c
 50
219.35992569718519
 41
0.9777765517972142
 72
     5
 11
95.377457000000007
 21
1.3655250000000001
 31
0.0
  0
ENDBLK
  5
952
  8
0
  0
BLOCK
  8
0
  2
BLOCK36
 70
     0
 10
0.0
 20
0.0
 30
0.0
  3
BLOCK36
  1

  0
TEXT
  5
954
  8
0
 62
     7
 10
264.89642299999991
 20
33.194701999999999
 30
0.0
 40
3.0
  1
ISOLATING DISTANCE
 50
270.0
 41
1.331968027210884
 72
     5
 11
264.89642299999991
 21
-15.755122999999999
 31
0.0
  0
ENDBLK
  5
955
  8
0
  0
BLOCK
  8
0
  2
BLOCK37
 70
     0
 10
0.0
 20
0.0
 30
0.0
  3
BLOCK37
  1

  0
LINE
  5
957
  8
0
 62
     2
 10
172.98692299999999
 20
39.145102999999999
 30
0.0
 11
174.632034
 21
37.499996000000003
 31
0.0
  0
LINE
  5
958
  8
0
 62
     2
 10
174.75335699999991
 20
39.499996000000003
 30
0.0
 11
176.753342
 21
37.499996000000003
 31
0.0
  0
LINE
  5
959
  8
0
 62
     2
 10
176.87466399999991
 20
39.499996000000003
 30
0.0
 11
177.48692299999999
 21
38.887740999999998
 31
0.0
  0
ENDBLK
  5
95A
  8
0
  0
BLOCK
  8
0
  2
BLOCK38
 70
     0
 10
0.0
 20
0.0
 30
0.0
  3
BLOCK38
  1

  0
LINE
  5
95C
  8
0
 62
     2
 10
184.48692299999999
 20
38.251700999999997
 30
0.0
 11
185.23863199999991
 21
37.499996000000003
 31
0.0
  0
LINE
  5
95D
  8
0
 62
     2
 10
185.35995500000001
 20
39.499996000000003
 30
0.0
 11
187.35995500000001
 21
37.499996000000003
 31
0.0
  0
LINE
  5
95E
  8
0
 62
     2
 10
187.48127700000001
 20
39.499996000000003
 30
0.0
 11
189.48127700000001
 21
37.499996000000003
 31
0.0
  0
LINE
  5
95F
  8
0
 62
     2
 10
189.602585
 20
39.499996000000003
 30
0.0
 11
191.602585
 21
37.499996000000003
 31
0.0
  0
LINE
  5
960
  8
0
 62
     2
 10
191.72390699999991
 20
39.499996000000003
 30
0.0
 11
193.723907
 21
37.499996000000003
 31
0.0
  0
LINE
  5
961
  8
0
 62
     2
 10
193.84522999999999
 20
39.499996000000003
 30
0.0
 11
195.84522999999999
 21
37.499996000000003
 31
0.0
  0
LINE
  5
962
  8
0
 62
     2
 10
195.966553
 20
39.499996000000003
 30
0.0
 11
197.966553
 21
37.499996000000003
 31
0.0
  0
LINE
  5
963
  8
0
 62
     2
 10
198.087875
 20
39.499996000000003
 30
0.0
 11
200.087875
 21
37.499996000000003
 31
0.0
  0
LINE
  5
964
  8
0
 62
     2
 10
200.2091979999999
 20
39.499996000000003
 30
0.0
 11
202.2091979999999
 21
37.499996000000003
 31
0.0
  0
LINE
  5
965
  8
0
 62
     2
 10
202.33050499999999
 20
39.499996000000003
 30
0.0
 11
204.33050499999999
 21
37.499996000000003
 31
0.0
  0
LINE
  5
966
  8
0
 62
     2
 10
204.45182800000001
 20
39.499996000000003
 30
0.0
 11
206.45182800000001
 21
37.499996000000003
 31
0.0
  0
LINE
  5
967
  8
0
 62
     2
 10
206.57315099999991
 20
39.499996000000003
 30
0.0
 11
208.573151
 21
37.499996000000003
 31
0.0
  0
LINE
  5
968
  8
0
 62
     2
 10
208.6944729999999
 20
39.499996000000003
 30
0.0
 11
210.6944729999999
 21
37.499996000000003
 31
0.0
  0
LINE
  5
969
  8
0
 62
     2
 10
210.81579600000001
 20
39.499996000000003
 30
0.0
 11
212.81579600000001
 21
37.499996000000003
 31
0.0
  0
LINE
  5
96A
  8
0
 62
     2
 10
212.937119
 20
39.499996000000003
 30
0.0
 11
214.937119
 21
37.499996000000003
 31
0.0
  0
LINE
  5
96B
  8
0
 62
     2
 10
215.05842599999991
 20
39.499996000000003
 30
0.0
 11
217.05842599999991
 21
37.499996000000003
 31
0.0
  0
LINE
  5
96C
  8
0
 62
     2
 10
217.17974899999999
 20
39.499996000000003
 30
0.0
 11
219.17974899999999
 21
37.499996000000003
 31
0.0
  0
LINE
  5
96D
  8
0
 62
     2
 10
219.30107100000001
 20
39.499996000000003
 30
0.0
 11
221.30107100000001
 21
37.499996000000003
 31
0.0
  0
LINE
  5
96E
  8
0
 62
     2
 10
221.422394
 20
39.499996000000003
 30
0.0
 11
223.422394
 21
37.499996000000003
 31
0.0
  0
LINE
  5
96F
  8
0
 62
     2
 10
223.54371599999999
 20
39.499996000000003
 30
0.0
 11
225.54371599999999
 21
37.499996000000003
 31
0.0
  0
LINE
  5
970
  8
0
 62
     2
 10
225.66503900000001
 20
39.499996000000003
 30
0.0
 11
227.66503899999989
 21
37.499996000000003
 31
0.0
  0
LINE
  5
971
  8
0
 62
     2
 10
227.786362
 20
39.499996000000003
 30
0.0
 11
229.786362
 21
37.499996000000003
 31
0.0
  0
LINE
  5
972
  8
0
 62
     2
 10
229.907669
 20
39.499996000000003
 30
0.0
 11
231.907669
 21
37.499996000000003
 31
0.0
  0
LINE
  5
973
  8
0
 62
     2
 10
232.02899199999999
 20
39.499996000000003
 30
0.0
 11
234.02899199999999
 21
37.499996000000003
 31
0.0
  0
LINE
  5
974
  8
0
 62
     2
 10
234.1503139999999
 20
39.499996000000003
 30
0.0
 11
236.1503139999999
 21
37.499996000000003
 31
0.0
  0
LINE
  5
975
  8
0
 62
     2
 10
236.271637
 20
39.499996000000003
 30
0.0
 11
238.271637
 21
37.499996000000003
 31
0.0
  0
LINE
  5
976
  8
0
 62
     2
 10
238.39295999999999
 20
39.499996000000003
 30
0.0
 11
240.39295999999999
 21
37.499996000000003
 31
0.0
  0
LINE
  5
977
  8
0
 62
     2
 10
240.51428200000001
 20
39.499996000000003
 30
0.0
 11
242.51428200000001
 21
37.499996000000003
 31
0.0
  0
LINE
  5
978
  8
0
 62
     2
 10
242.63558999999989
 20
39.499996000000003
 30
0.0
 11
243.53034999999991
 21
38.605240000000002
 31
0.0
  0
ENDBLK
  5
979
  8
0
  0
BLOCK
  8
0
  2
BLOCK39
 70
     0
 10
0.0
 20
0.0
 30
0.0
  3
BLOCK39
  1

  0
LINE
  5
97B
  8
0
 62
     2
 10
42.486927000000001
 20
38.123244999999997
 30
0.0
 11
43.110176000000003
 21
37.499996000000003
 31
0.0
  0
LINE
  5
97C
  8
0
 62
     2
 10
43.231498999999992
 20
39.499996000000003
 30
0.0
 11
45.231495000000002
 21
37.499996000000003
 31
0.0
  0
LINE
  5
97D
  8
0
 62
     2
 10
45.352817999999992
 20
39.499996000000003
 30
0.0
 11
46.986927000000001
 21
37.865887000000001
 31
0.0
  0
ENDBLK
  5
97E
  8
0
  0
BLOCK
  8
0
  2
BLOCK40
 70
     0
 10
0.0
 20
0.0
 30
0.0
  3
BLOCK40
  1

  0
LINE
  5
980
  8
0
 62
     2
 10
-20.811654999999998
 20
37.782218999999998
 30
0.0
 11
-20.529429999999991
 21
37.499996000000003
 31
0.0
  0
LINE
  5
981
  8
0
 62
     2
 10
-20.408110000000001
 20
39.499996000000003
 30
0.0
 11
-18.408110000000001
 21
37.499996000000003
 31
0.0
  0
LINE
  5
982
  8
0
 62
     2
 10
-18.286788999999999
 20
39.499996000000003
 30
0.0
 11
-16.286788999999999
 21
37.499996000000003
 31
0.0
  0
LINE
  5
983
  8
0
 62
     2
 10
-16.165468000000001
 20
39.499996000000003
 30
0.0
 11
-14.165469
 21
37.499996000000003
 31
0.0
  0
LINE
  5
984
  8
0
 62
     2
 10
-14.044148
 20
39.499996000000003
 30
0.0
 11
-12.044148
 21
37.499996000000003
 31
0.0
  0
LINE
  5
985
  8
0
 62
     2
 10
-11.922829
 20
39.499996000000003
 30
0.0
 11
-9.9228290000000001
 21
37.499996000000003
 31
0.0
  0
LINE
  5
986
  8
0
 62
     2
 10
-9.8015080000000001
 20
39.499996000000003
 30
0.0
 11
-7.8015080000000001
 21
37.499996000000003
 31
0.0
  0
LINE
  5
987
  8
0
 62
     2
 10
-7.6801880000000002
 20
39.499996000000003
 30
0.0
 11
-5.6801879999999993
 21
37.499996000000003
 31
0.0
  0
LINE
  5
988
  8
0
 62
     2
 10
-5.5588670000000002
 20
39.499996000000003
 30
0.0
 11
-3.558867999999999
 21
37.499996000000003
 31
0.0
  0
LINE
  5
989
  8
0
 62
     2
 10
-3.437546999999999
 20
39.499996000000003
 30
0.0
 11
-1.437548
 21
37.499996000000003
 31
0.0
  0
LINE
  5
98A
  8
0
 62
     2
 10
-1.316227
 20
39.499996000000003
 30
0.0
 11
0.6837720000000001
 21
37.499996000000003
 31
0.0
  0
LINE
  5
98B
  8
0
 62
     2
 10
0.8050930000000001
 20
39.499996000000003
 30
0.0
 11
2.8050929999999989
 21
37.499996000000003
 31
0.0
  0
LINE
  5
98C
  8
0
 62
     2
 10
2.9264130000000002
 20
39.499996000000003
 30
0.0
 11
4.9264130000000002
 21
37.499996000000003
 31
0.0
  0
LINE
  5
98D
  8
0
 62
     2
 10
5.047733
 20
39.499996000000003
 30
0.0
 11
7.047733
 21
37.499996000000003
 31
0.0
  0
LINE
  5
98E
  8
0
 62
     2
 10
7.1690539999999991
 20
39.499996000000003
 30
0.0
 11
9.1690529999999981
 21
37.499996000000003
 31
0.0
  0
LINE
  5
98F
  8
0
 62
     2
 10
9.2903739999999981
 20
39.499996000000003
 30
0.0
 11
11.290374
 21
37.499996000000003
 31
0.0
  0
LINE
  5
990
  8
0
 62
     2
 10
11.411694000000001
 20
39.499996000000003
 30
0.0
 11
13.411694000000001
 21
37.499996000000003
 31
0.0
  0
LINE
  5
991
  8
0
 62
     2
 10
13.533014
 20
39.499996000000003
 30
0.0
 11
15.533014
 21
37.499996000000003
 31
0.0
  0
LINE
  5
992
  8
0
 62
     2
 10
15.654334
 20
39.499996000000003
 30
0.0
 11
17.654335
 21
37.499996000000003
 31
0.0
  0
LINE
  5
993
  8
0
 62
     2
 10
17.775653999999999
 20
39.499996000000003
 30
0.0
 11
19.775653999999989
 21
37.499996000000003
 31
0.0
  0
LINE
  5
994
  8
0
 62
     2
 10
19.896975000000001
 20
39.499996000000003
 30
0.0
 11
21.896975000000001
 21
37.499996000000003
 31
0.0
  0
LINE
  5
995
  8
0
 62
     2
 10
22.018294999999998
 20
39.499996000000003
 30
0.0
 11
24.018294999999998
 21
37.499996000000003
 31
0.0
  0
LINE
  5
996
  8
0
 62
     2
 10
24.139616
 20
39.499996000000003
 30
0.0
 11
26.139614000000002
 21
37.499996000000003
 31
0.0
  0
LINE
  5
997
  8
0
 62
     2
 10
26.260934999999989
 20
39.499996000000003
 30
0.0
 11
28.260934999999989
 21
37.499996000000003
 31
0.0
  0
LINE
  5
998
  8
0
 62
     2
 10
28.382255999999991
 20
39.499996000000003
 30
0.0
 11
30.382256000000002
 21
37.499996000000003
 31
0.0
  0
LINE
  5
999
  8
0
 62
     2
 10
30.503575999999999
 20
39.499996000000003
 30
0.0
 11
32.503574
 21
37.499996000000003
 31
0.0
  0
LINE
  5
99A
  8
0
 62
     2
 10
32.62489699999999
 20
39.499996000000003
 30
0.0
 11
34.62489699999999
 21
37.499996000000003
 31
0.0
  0
LINE
  5
99B
  8
0
 62
     2
 10
34.74621599999999
 20
39.499996000000003
 30
0.0
 11
35.486927000000001
 21
38.759284999999998
 31
0.0
  0
ENDBLK
  5
99C
  8
0
  0
BLOCK
  8
0
  2
BLOCK41
 70
     0
 10
0.0
 20
0.0
 30
0.0
  3
BLOCK41
  1

  0
LINE
  5
99E
  8
0
 62
     2
 10
163.98710600000001
 20
29.053035999999992
 30
0.0
 11
165.04014599999991
 21
27.999998000000001
 31
0.0
  0
LINE
  5
99F
  8
0
 62
     2
 10
164.66145299999991
 20
30.500004000000001
 30
0.0
 11
167.16146900000001
 21
27.999998000000001
 31
0.0
  0
LINE
  5
9A0
  8
0
 62
     2
 10
166.78277600000001
 20
30.500004000000001
 30
0.0
 11
169.282791
 21
27.999998000000001
 31
0.0
  0
LINE
  5
9A1
  8
0
 62
     2
 10
168.904099
 20
30.500004000000001
 30
0.0
 11
171.40409899999989
 21
27.999998000000001
 31
0.0
  0
LINE
  5
9A2
  8
0
 62
     2
 10
171.02542099999991
 20
30.500004000000001
 30
0.0
 11
172.98710600000001
 21
28.538316999999999
 31
0.0
  0
ENDBLK
  5
9A3
  8
0
  0
BLOCK
  8
0
  2
BLOCK42
 70
     0
 10
0.0
 20
0.0
 30
0.0
  3
BLOCK42
  1

  0
TEXT
  5
9A5
  8
0
 62
     7
 10
-168.59838899999991
 20
7.1951899999999993
 30
0.0
 40
3.0
  1
X
 50
180.0
 41
0.9777764444444551
 72
     5
 11
-170.79838599999999
 21
7.1951899999999993
 31
0.0
  0
ENDBLK
  5
9A6
  8
0
  0
BLOCK
  8
0
  2
BLOCK43
 70
     0
 10
0.0
 20
0.0
 30
0.0
  3
BLOCK43
  1

  0
TEXT
  5
9A8
  8
0
 62
     7
 10
174.3481449999999
 20
-4.592376999999999
 30
0.0
 40
3.0
  1
X
 50
180.0
 41
0.9777764444444425
 72
     5
 11
172.14814799999999
 21
-4.592376999999999
 31
0.0
  0
ENDBLK
  5
9A9
  8
0
  0
BLOCK
  8
0
  2
BLOCK44
 70
     0
 10
0.0
 20
0.0
 30
0.0
  3
BLOCK44
  1

  0
TEXT
  5
9AB
  8
0
 62
     7
 10
7.0
 20
-184.0
 30
0.0
 40
3.0
  1
Y
 50
180.0
 41
0.9777777777777778
 72
     5
 11
4.7999999999999989
 21
-184.0
 31
0.0
  0
ENDBLK
  5
9AC
  8
0
  0
BLOCK
  8
0
  2
BLOCK45
 70
     0
 10
0.0
 20
0.0
 30
0.0
  3
BLOCK45
  1

  0
TEXT
  5
9AE
  8
0
 62
     7
 10
3.0
 20
164.0
 30
0.0
 40
3.0
  1
Y
 50
180.0
 41
0.9777777777777778
 72
     5
 11
0.8
 21
164.0
 31
0.0
  0
ENDBLK
  5
9AF
  8
0
  0
BLOCK
  8
0
  2
BLOCK46
 70
     0
 10
0.0
 20
0.0
 30
0.0
  3
BLOCK46
  1

  0
TEXT
  5
9B1
  8
0
 62
     7
 10
-37.0
 20
138.13632200000001
 30
0.0
 40
3.0
  1
25
 50
180.0
 41
1.2776591662854091
 72
     5
 11
-41.949989000000002
 21
138.13632200000001
 31
0.0
  0
ENDBLK
  5
9B2
  8
0
  0
BLOCK
  8
0
  2
BLOCK47
 70
     0
 10
0.0
 20
0.0
 30
0.0
  3
BLOCK47
  1

  0
TEXT
  5
9B4
  8
0
 62
     7
 10
51.0
 20
138.13632200000001
 30
0.0
 40
3.0
  1
80
 50
180.0
 41
1.319166095897597
 72
     5
 11
46.050010999999991
 21
138.13632200000001
 31
0.0
  0
ENDBLK
  5
9B5
  8
0
  0
BLOCK
  8
0
  2
BLOCK48
 70
     0
 10
0.0
 20
0.0
 30
0.0
  3
BLOCK48
  1

  0
TEXT
  5
9B7
  8
0
 62
     7
 10
219.56665000000001
 20
134.86050399999999
 30
0.0
 40
3.0
  1
 5
 50
212.7040894106959
 41
1.6642754462544109
 72
     5
 11
215.40136699999991
 21
132.1860199999999
 31
0.0
  0
ENDBLK
  5
9B8
  8
0
  0
BLOCK
  8
0
  2
BLOCK49
 70
     0
 10
0.0
 20
0.0
 30
0.0
  3
BLOCK49
  1

  0
TEXT
  5
9BA
  8
0
 62
     7
 10
220.91285699999989
 20
135.72494499999991
 30
0.0
 40
3.0
  1
%%c
 50
212.7040272305739
 41
0.9777787412281993
 72
     5
 11
219.0616149999999
 21
134.53628499999999
 31
0.0
  0
ENDBLK
  5
9BB
  8
0
  0
BLOCK
  8
0
  2
BLOCK50
 70
     0
 10
0.0
 20
0.0
 30
0.0
  3
BLOCK50
  1

  0
TEXT
  5
9BD
  8
0
 62
     7
 10
201.05419900000001
 20
122.973907
 30
0.0
 40
3.0
  1
 (M4)
 50
212.7040437984592
 41
1.600224341829795
 72
     5
 11
189.9467929999999
 21
115.8419719999999
 31
0.0
  0
ENDBLK
  5
9BE
  8
0
  0
BLOCK
  8
0
  2
BLOCK51
 70
     0
 10
0.0
 20
0.0
 30
0.0
  3
BLOCK51
  1

  0
TEXT
  5
9C0
  8
0
 62
     7
 10
-81.551513999999983
 20
-87.711272999999991
 30
0.0
 40
3.0
  1
 14
 50
194.54589087612979
 41
1.6559094742122931
 72
     5
 11
-89.004683999999983
 21
-89.645163999999994
 31
0.0
  0
ENDBLK
  5
9C1
  8
0
  0
BLOCK
  8
0
  2
BLOCK52
 70
     0
 10
0.0
 20
0.0
 30
0.0
  3
BLOCK52
  1

  0
TEXT
  5
9C3
  8
0
 62
     7
 10
-81.551513999999983
 20
-87.711272999999991
 30
0.0
 40
3.0
  1
R
 50
194.54592657426139
 41
1.128206934279671
 72
     5
 11
-83.680999999999997
 21
-88.263817000000003
 31
0.0
  0
ENDBLK
  5
9C4
  8
0
  0
BLOCK
  8
0
  2
BLOCK53
 70
     0
 10
0.0
 20
0.0
 30
0.0
  3
BLOCK53
  1

  0
TEXT
  5
9C6
  8
0
 62
     7
 10
34.0
 20
-174.73155199999991
 30
0.0
 40
3.0
  1
105
 50
180.0
 41
1.432750587160017
 72
     5
 11
26.30002
 21
-174.73155199999991
 31
0.0
  0
ENDBLK
  5
9C7
  8
0
  0
BLOCK
  8
0
  2
BLOCK54
 70
     0
 10
0.0
 20
0.0
 30
0.0
  3
BLOCK54
  1

  0
TEXT
  5
9C9
  8
0
 62
     7
 10
-151.3261719999999
 20
16.5
 30
0.0
 40
3.0
  1
143
 50
269.99988838455511
 41
1.357000644801243
 72
     5
 11
-151.326187
 21
8.8000199999999982
 31
0.0
  0
ENDBLK
  5
9CA
  8
0
  0
BLOCK
  8
0
  2
BLOCK55
 70
     0
 10
0.0
 20
0.0
 30
0.0
  3
BLOCK55
  1

  0
TEXT
  5
9CC
  8
0
 62
     7
 10
117.5546879999999
 20
-62.0
 30
0.0
 40
3.0
  1
52,25
 50
270.00003038421988
 41
1.4466875246701709
 72
     5
 11
117.5546949999999
 21
-75.199958999999993
 31
0.0
  0
ENDBLK
  5
9CD
  8
0
  0
BLOCK
  8
0
  2
BLOCK56
 70
     0
 10
0.0
 20
0.0
 30
0.0
  3
BLOCK56
  1

  0
TEXT
  5
9CF
  8
0
 62
     7
 10
144.59033199999999
 20
16.5
 30
0.0
 40
3.0
  1
100
 50
270.0
 41
1.4660032381380701
 72
     5
 11
144.59033199999999
 21
8.8000199999999982
 31
0.0
  0
ENDBLK
  5
9D0
  8
0
  0
BLOCK
  8
0
  2
BLOCK57
 70
     0
 10
0.0
 20
0.0
 30
0.0
  3
BLOCK57
  1

  0
TEXT
  5
9D2
  8
0
 62
     7
 10
-120.84985399999999
 20
-9.2830509999999986
 30
0.0
 40
3.0
  1
73,75
 50
270.00003472482013
 41
1.4466876342681141
 72
     5
 11
-120.8498459999999
 21
-22.483010999999991
 31
0.0
  0
ENDBLK
  5
9D3
  8
0
  0
BLOCK
  8
0
  2
BLOCK58
 70
     0
 10
0.0
 20
0.0
 30
0.0
  3
BLOCK58
  1

  0
TEXT
  5
9D5
  8
0
 62
     7
 10
-47.0
 20
-138.0459899999999
 30
0.0
 40
3.0
  1
35
 50
180.0
 41
1.2776591662854091
 72
     5
 11
-51.949989000000002
 21
-138.0459899999999
 31
0.0
  0
ENDBLK
  5
9D6
  8
0
  0
BLOCK
  8
0
  2
BLOCK59
 70
     0
 10
0.0
 20
0.0
 30
0.0
  3
BLOCK59
  1

  0
TEXT
  5
9D8
  8
0
 62
     7
 10
-126.838257
 20
12.427856
 30
0.0
 40
3.0
  1
35
 50
180.00001157491189
 41
1.2776612311937221
 72
     5
 11
-131.78825399999999
 21
12.427854999999999
 31
0.0
  0
ENDBLK
  5
9D9
  8
0
  0
BLOCK
  8
0
  2
BLOCK60
 70
     0
 10
0.0
 20
0.0
 30
0.0
  3
BLOCK60
  1

  0
TEXT
  5
9DB
  8
0
 62
     7
 10
-91.838256999999984
 20
12.427856
 30
0.0
 40
3.0
  1
35
 50
180.0000115749306
 41
1.2776591662854351
 72
     5
 11
-96.788246000000001
 21
12.427854999999999
 31
0.0
  0
ENDBLK
  5
9DC
  8
0
  0
BLOCK
  8
0
  2
BLOCK61
 70
     0
 10
0.0
 20
0.0
 30
0.0
  3
BLOCK61
  1

  0
TEXT
  5
9DE
  8
0
 62
     7
 10
-56.838256999999992
 20
12.427856
 30
0.0
 40
3.0
  1
35
 50
180.0000115749306
 41
1.2776591662854351
 72
     5
 11
-61.788245999999987
 21
12.427854999999999
 31
0.0
  0
ENDBLK
  5
9DF
  8
0
  0
BLOCK
  8
0
  2
BLOCK62
 70
     0
 10
0.0
 20
0.0
 30
0.0
  3
BLOCK62
  1

  0
TEXT
  5
9E1
  8
0
 62
     7
 10
-18.366211
 20
-71.521332000000001
 30
0.0
 40
3.0
  1
48
 50
270.0
 41
1.22221950617284
 72
     5
 11
-18.366211
 21
-76.471321000000003
 31
0.0
  0
ENDBLK
  5
9E2
  8
0
  0
BLOCK
  8
0
  2
BLOCK63
 70
     0
 10
0.0
 20
0.0
 30
0.0
  3
BLOCK63
  1

  0
TEXT
  5
9E4
  8
0
 62
     7
 10
-4.8111569999999988
 20
-94.771332000000001
 30
0.0
 40
3.0
  1
100
 50
270.0
 41
1.4660034285285941
 72
     5
 11
-4.8111569999999988
 21
-102.4713129999999
 31
0.0
  0
ENDBLK
  5
9E5
  8
0
  0
BLOCK
  8
0
  2
BLOCK64
 70
     0
 10
0.0
 20
0.0
 30
0.0
  3
BLOCK64
  1

  0
TEXT
  5
9E7
  8
0
 62
     7
 10
-112.300354
 20
-162.83978300000001
 30
0.0
 40
3.0
  1
Y
 50
180.0
 41
0.9777764444444427
 72
     5
 11
-114.50035099999999
 21
-162.83978300000001
 31
0.0
  0
ENDBLK
  5
9E8
  8
0
  0
BLOCK
  8
0
  2
BLOCK65
 70
     0
 10
0.0
 20
0.0
 30
0.0
  3
BLOCK65
  1

  0
TEXT
  5
9EA
  8
0
 62
     7
 10
-113.6176149999999
 20
27.600615999999999
 30
0.0
 40
3.0
  1
Y
 50
180.0
 41
0.9777764444444553
 72
     5
 11
-115.817612
 21
27.600615999999999
 31
0.0
  0
ENDBLK
  5
9EB
  8
0
  0
BLOCK
  8
0
  2
BLOCK66
 70
     0
 10
0.0
 20
0.0
 30
0.0
  3
BLOCK66
  1

  0
TEXT
  5
9ED
  8
0
 62
     7
 10
-44.456786999999998
 20
-171.31753499999999
 30
0.0
 40
3.0
  1
12
 50
180.0
 41
1.4864041023094701
 72
     5
 11
-49.406776000000001
 21
-171.31753499999999
 31
0.0
  0
ENDBLK
  5
9EE
  8
0
  0
BLOCK
  8
0
  2
BLOCK67
 70
     0
 10
0.0
 20
0.0
 30
0.0
  3
BLOCK67
  1

  0
TEXT
  5
9F0
  8
0
 62
     7
 10
-38.956786999999991
 20
-171.31753499999999
 30
0.0
 40
3.0
  1
M
 50
180.0
 41
0.9777782222222223
 72
     5
 11
-41.156787999999999
 21
-171.31753499999999
 31
0.0
  0
ENDBLK
  5
9F1
  8
0
  0
BLOCK
  8
0
  2
BLOCK68
 70
     0
 10
0.0
 20
0.0
 30
0.0
  3
BLOCK68
  1

  0
TEXT
  5
9F3
  8
0
 62
     7
 10
-174.93188499999999
 20
-62.921326000000001
 30
0.0
 40
3.0
  1
31
 50
270.0
 41
1.571425079365077
 72
     5
 11
-174.93188499999999
 21
-67.871314999999996
 31
0.0
  0
ENDBLK
  5
9F4
  8
0
  0
BLOCK
  8
0
  2
BLOCK69
 70
     0
 10
0.0
 20
0.0
 30
0.0
  3
BLOCK69
  1

  0
TEXT
  5
9F6
  8
0
 62
     7
 10
-189.2940669999999
 20
-88.92133299999999
 30
0.0
 40
3.0
  1
83
 50
270.0
 41
1.277659424398949
 72
     5
 11
-189.2940669999999
 21
-93.871323000000004
 31
0.0
  0
ENDBLK
  5
9F7
  8
0
  0
BLOCK
  8
0
  2
BLOCK70
 70
     0
 10
0.0
 20
0.0
 30
0.0
  3
BLOCK70
  1

  0
TEXT
  5
9F9
  8
0
 62
     7
 10
5.0672909999999991
 20
210.00744599999999
 30
0.0
 40
3.0
  1
X
 50
90.0
 41
0.9777764444444551
 72
     5
 11
5.0672909999999991
 21
212.20744300000001
 31
0.0
  0
ENDBLK
  5
9FA
  8
0
  0
BLOCK
  8
0
  2
BLOCK71
 70
     0
 10
0.0
 20
0.0
 30
0.0
  3
BLOCK71
  1

  0
TEXT
  5
9FC
  8
0
 62
     7
 10
-158.0
 20
-4.0
 30
0.0
 40
3.0
  1
Y
 50
90.0
 41
0.9777777777777778
 72
     5
 11
-158.0
 21
-1.8
 31
0.0
  0
ENDBLK
  5
9FD
  8
0
  0
BLOCK
  8
0
  2
BLOCK72
 70
     0
 10
0.0
 20
0.0
 30
0.0
  3
BLOCK72
  1

  0
TEXT
  5
9FF
  8
0
 62
     7
 10
200.103882
 20
-4.5935059999999988
 30
0.0
 40
3.0
  1
Y
 50
90.0
 41
0.9777777777777776
 72
     5
 11
200.103882
 21
-2.393505999999999
 31
0.0
  0
ENDBLK
  5
A00
  8
0
  0
BLOCK
  8
0
  2
BLOCK73
 70
     0
 10
0.0
 20
0.0
 30
0.0
  3
BLOCK73
  1

  0
TEXT
  5
A02
  8
0
 62
     7
 10
-142.934662
 20
20.5
 30
0.0
 40
3.0
  1
63
 50
90.0
 41
1.2776591662854091
 72
     5
 11
-142.934662
 21
25.449988999999999
 31
0.0
  0
ENDBLK
  5
A03
  8
0
  0
BLOCK
  8
0
  2
BLOCK74
 70
     0
 10
0.0
 20
0.0
 30
0.0
  3
BLOCK74
  1

  0
TEXT
  5
A05
  8
0
 62
     7
 10
-175.88305700000001
 20
-21.0
 30
0.0
 40
3.0
  1
135
 50
90.0
 41
1.432750587160017
 72
     5
 11
-175.88305700000001
 21
-13.30002
 31
0.0
  0
ENDBLK
  5
A06
  8
0
  0
BLOCK
  8
0
  2
BLOCK75
 70
     0
 10
0.0
 20
0.0
 30
0.0
  3
BLOCK75
  1

  0
TEXT
  5
A08
  8
0
 62
     7
 10
98.069702000000021
 20
29.5
 30
0.0
 40
3.0
  1
81
 50
90.0
 41
1.571425079365079
 72
     5
 11
98.069702000000021
 21
34.449989000000002
 31
0.0
  0
ENDBLK
  5
A09
  8
0
  0
BLOCK
  8
0
  2
BLOCK76
 70
     0
 10
0.0
 20
0.0
 30
0.0
  3
BLOCK76
  1

  0
TEXT
  5
A0B
  8
0
 62
     7
 10
126.482727
 20
2.0
 30
0.0
 40
3.0
  1
125
 50
90.0
 41
1.432750587160017
 72
     5
 11
126.482727
 21
9.69998
 31
0.0
  0
ENDBLK
  5
A0C
  8
0
  0
BLOCK
  8
0
  2
BLOCK77
 70
     0
 10
0.0
 20
0.0
 30
0.0
  3
BLOCK77
  1

  0
TEXT
  5
A0E
  8
0
 62
     7
 10
-15.944335999999989
 20
36.0
 30
0.0
 40
3.0
  1
94
 50
89.99997685013868
 41
1.2190640892680471
 72
     5
 11
-15.944333999999991
 21
40.949989000000002
 31
0.0
  0
ENDBLK
  5
A0F
  8
0
  0
BLOCK
  8
0
  2
BLOCK78
 70
     0
 10
0.0
 20
0.0
 30
0.0
  3
BLOCK78
  1

  0
TEXT
  5
A11
  8
0
 62
     7
 10
40.158951000000002
 20
28.069824000000001
 30
0.0
 40
3.0
  1
16
 50
179.9999537002866
 41
1.5005340255405331
 72
     5
 11
35.208960999999988
 21
28.069828000000001
 31
0.0
  0
ENDBLK
  5
A12
  8
0
  0
BLOCK
  8
0
  2
BLOCK79
 70
     0
 10
0.0
 20
0.0
 30
0.0
  3
BLOCK79
  1

  0
TEXT
  5
A14
  8
0
 62
     7
 10
18.75
 20
201.624573
 30
0.0
 40
3.0
  1
142
 50
180.0
 41
1.3437594995413831
 72
     5
 11
11.05002
 21
201.624573
 31
0.0
  0
ENDBLK
  5
A15
  8
0
  0
BLOCK
  8
0
  2
BLOCK80
 70
     0
 10
0.0
 20
0.0
 30
0.0
  3
BLOCK80
  1

  0
TEXT
  5
A17
  8
0
 62
     7
 10
18.75
 20
-120.5733639999999
 30
0.0
 40
3.0
  1
126
 50
179.99994791279249
 41
1.4262341719542091
 72
     5
 11
11.05002
 21
-120.573357
 31
0.0
  0
ENDBLK
  5
A18
  8
0
  0
BLOCK
  8
0
  2
BLOCK81
 70
     0
 10
0.0
 20
0.0
 30
0.0
  3
BLOCK81
  1

  0
TEXT
  5
A1A
  8
0
 62
     7
 10
-33.25
 20
174.83654799999991
 30
0.0
 40
3.0
  1
=
 50
180.0
 41
1.333333939393939
 72
     5
 11
-35.450001
 21
174.83654799999991
 31
0.0
  0
ENDBLK
  5
A1B
  8
0
  0
BLOCK
  8
0
  2
BLOCK82
 70
     0
 10
0.0
 20
0.0
 30
0.0
  3
BLOCK82
  1

  0
TEXT
  5
A1D
  8
0
 62
     7
 10
37.75
 20
174.83654799999991
 30
0.0
 40
3.0
  1
=
 50
180.0
 41
1.333333939393939
 72
     5
 11
35.549999
 21
174.83654799999991
 31
0.0
  0
ENDBLK
  5
A1E
  8
0
  0
BLOCK
  8
0
  2
BLOCK83
 70
     0
 10
0.0
 20
0.0
 30
0.0
  3
BLOCK83
  1

  0
TEXT
  5
A20
  8
0
 62
     7
 10
-9.75
 20
152.43737799999991
 30
0.0
 40
3.0
  1
27,25
 50
179.9999348909673
 41
1.446687743866663
 72
     5
 11
-22.949960999999998
 21
152.4373929999999
 31
0.0
  0
ENDBLK
  5
A21
  8
0
  0
BLOCK
  8
0
  2
BLOCK84
 70
     0
 10
0.0
 20
0.0
 30
0.0
  3
BLOCK84
  1

  0
TEXT
  5
A23
  8
0
 62
     7
 10
-113.18023700000001
 20
34.992919999999998
 30
0.0
 40
3.0
  1
45
 50
90.0
 41
1.185835136090813
 72
     5
 11
-113.18023700000001
 21
39.942909
 31
0.0
  0
ENDBLK
  5
A24
  8
0
  0
BLOCK
  8
0
  2
BLOCK85
 70
     0
 10
0.0
 20
0.0
 30
0.0
  3
BLOCK85
  1

  0
TEXT
  5
A26
  8
0
 62
     7
 10
-12.0
 20
-150.1596679999999
 30
0.0
 40
3.0
  1
72,5
 50
179.99991775701821
 41
1.4876960629310481
 72
     5
 11
-22.44997
 21
-150.15965299999999
 31
0.0
  0
ENDBLK
  5
A27
  8
0
  0
BLOCK
  8
0
  2
BLOCK86
 70
     0
 10
0.0
 20
0.0
 30
0.0
  3
BLOCK86
  1

  0
TEXT
  5
A29
  8
0
 62
     7
 10
172.6207729999999
 20
6.841308999999999
 30
0.0
 40
3.0
  1
R min.200
 50
90.0
 41
1.507561422509994
 72
     5
 11
172.6207729999999
 21
31.041231
 31
0.0
  0
ENDBLK
  5
A2A
  8
0
  0
BLOCK
  8
0
  2
BLOCK87
 70
     0
 10
0.0
 20
0.0
 30
0.0
  3
BLOCK87
  1

  0
TEXT
  5
A2C
  8
0
 62
     7
 10
-161.41625999999999
 20
168.32591199999999
 30
0.0
 40
3.0
  1
8
 50
136.2494211711759
 41
1.3333221349127371
 72
     5
 11
-163.00543200000001
 21
169.8472439999999
 31
0.0
  0
TEXT
  5
A2D
  8
0
 62
     7
 10
-159.1047209999999
 20
166.11305200000001
 30
0.0
 40
3.0
  1
%%c
 50
136.2494211711759
 41
0.9777695656026917
 72
     5
 11
-160.693893
 21
167.63438400000001
 31
0.0
  0
TEXT
  5
A2E
  8
0
 62
     7
 10
-146.680161
 20
154.218918
 30
0.0
 40
3.0
  1
3 fori
 50
136.2495453454593
 41
1.7142859646969479
 72
     5
 11
-158.38237000000001
 21
165.42152400000001
 31
0.0
  0
POLYLINE
  5
A2F
  8
0
 62
     7
 66
     1
 10
0.0
 20
0.0
 30
0.0
  0
VERTEX
  5
C77
  8
0
 62
     7
 10
-67.614013999999997
 20
79.195914999999999
 30
0.0
  0
VERTEX
  5
C78
  8
0
 62
     7
 10
-65.860573000000002
 20
78.233924999999999
 30
0.0
  0
VERTEX
  5
C79
  8
0
 62
     7
 10
-66.898102000000009
 20
79.943756000000008
 30
0.0
  0
SEQEND
  5
C7A
  8
0
 62
     7
  0
POLYLINE
  5
A34
  8
0
 62
     7
 66
     1
 10
0.0
 20
0.0
 30
0.0
  0
VERTEX
  5
C7B
  8
0
 62
     7
 10
-69.885986000000003
 20
82.804085000000001
 30
0.0
  0
VERTEX
  5
C7C
  8
0
 62
     7
 10
-71.639426999999984
 20
83.766075000000001
 30
0.0
  0
VERTEX
  5
C7D
  8
0
 62
     7
 10
-70.601897999999991
 20
82.056243999999992
 30
0.0
  0
SEQEND
  5
C7E
  8
0
 62
     7
  0
LINE
  5
A39
  8
0
 62
     7
 10
-162.313919
 20
170.56961100000001
 30
0.0
 11
-65.860573000000002
 21
78.233924999999999
 31
0.0
  0
ENDBLK
  5
A3A
  8
0
  0
BLOCK
  8
0
  2
BLOCK88
 70
     0
 10
0.0
 20
0.0
 30
0.0
  3
BLOCK88
  1

  0
TEXT
  5
A3C
  8
0
 62
     7
 10
114.01932499999999
 20
125.018158
 30
0.0
 40
3.0
  1
7
 50
46.239300960904991
 41
1.333330307496972
 72
     5
 11
115.540947
 21
126.60707099999991
 31
0.0
  0
TEXT
  5
A3D
  8
0
 62
     7
 10
111.25273899999991
 20
122.12921899999991
 30
0.0
 40
3.0
  1
%%c
 50
46.239376019386192
 41
1.3333301452480419
 72
     5
 11
113.327675
 21
124.29592099999989
 31
0.0
  0
POLYLINE
  5
A3E
  8
0
 62
     7
 66
     1
 10
0.0
 20
0.0
 30
0.0
  0
VERTEX
  5
C7F
  8
0
 62
     7
 10
74.708466000000001
 20
81.774551000000017
 30
0.0
  0
VERTEX
  5
C80
  8
0
 62
     7
 10
75.670768999999993
 20
83.527823999999995
 30
0.0
  0
VERTEX
  5
C81
  8
0
 62
     7
 10
73.960746999999984
 20
82.490593000000004
 30
0.0
  0
SEQEND
  5
C82
  8
0
 62
     7
  0
POLYLINE
  5
A43
  8
0
 62
     7
 66
     1
 10
0.0
 20
0.0
 30
0.0
  0
VERTEX
  5
C83
  8
0
 62
     7
 10
71.791533999999999
 20
80.225448999999983
 30
0.0
  0
VERTEX
  5
C84
  8
0
 62
     7
 10
70.829231000000007
 20
78.472176000000005
 30
0.0
  0
VERTEX
  5
C85
  8
0
 62
     7
 10
72.539253000000002
 20
79.509406999999996
 30
0.0
  0
SEQEND
  5
C86
  8
0
 62
     7
  0
LINE
  5
A48
  8
0
 62
     7
 10
70.829231000000007
 20
78.472176000000005
 30
0.0
 11
116.26319099999991
 21
125.9154209999999
 31
0.0
  0
ENDBLK
  5
A49
  8
0
  0
BLOCK
  8
0
  2
BLOCK89
 70
     0
 10
0.0
 20
0.0
 30
0.0
  3
BLOCK89
  1

  0
TEXT
  5
A4B
  8
0
 62
     7
 10
-115.0229949999999
 20
-93.443871000000001
 30
0.0
 40
3.0
  1
7
 50
47.743628342316782
 41
1.3333305712876291
 72
     5
 11
-113.54361
 21
-91.815558999999993
 31
0.0
  0
TEXT
  5
A4C
  8
0
 62
     7
 10
-117.712799
 20
-96.404442000000003
 30
0.0
 40
3.0
  1
%%c
 50
47.74359163194385
 41
1.333333476432734
 72
     5
 11
-115.69544999999989
 21
-94.184013000000007
 31
0.0
  0
POLYLINE
  5
A4D
  8
0
 62
     7
 66
     1
 10
0.0
 20
0.0
 30
0.0
  0
VERTEX
  5
C87
  8
0
 62
     7
 10
-67.312370000000001
 20
-43.187435000000001
 30
0.0
  0
VERTEX
  5
C88
  8
0
 62
     7
 10
-66.396422999999999
 20
-41.409503999999998
 30
0.0
  0
VERTEX
  5
C89
  8
0
 62
     7
 10
-68.078620999999998
 20
-42.491261000000002
 30
0.0
  0
SEQEND
  5
C8A
  8
0
 62
     7
  0
POLYLINE
  5
A52
  8
0
 62
     7
 66
     1
 10
0.0
 20
0.0
 30
0.0
  0
VERTEX
  5
C8B
  8
0
 62
     7
 10
-70.187629999999984
 20
-44.812564999999992
 30
0.0
  0
VERTEX
  5
C8C
  8
0
 62
     7
 10
-71.103577000000001
 20
-46.590496000000002
 30
0.0
  0
VERTEX
  5
C8D
  8
0
 62
     7
 10
-69.421379000000002
 20
-45.508738999999998
 30
0.0
  0
SEQEND
  5
C8E
  8
0
 62
     7
  0
LINE
  5
A57
  8
0
 62
     7
 10
-116.9726639999999
 20
-97.076888999999994
 30
0.0
 11
-66.396422999999999
 21
-41.409503999999998
 31
0.0
  0
ENDBLK
  5
A58
  8
0
  0
BLOCK
  8
0
  2
BLOCK90
 70
     0
 10
0.0
 20
0.0
 30
0.0
  3
BLOCK90
  1

  0
TEXT
  5
A5A
  8
0
 62
     7
 10
-5.9100650000000003
 20
-21.445678999999998
 30
0.0
 40
3.0
  1
%%c4
 50
179.9999537002866
 41
1.0645139784949711
 72
     5
 11
-10.860054999999999
 21
-21.445675000000001
 31
0.0
  0
ENDBLK
  5
A5B
  8
0
  0
BLOCK
  8
0
  2
BLOCK91
 70
     0
 10
0.0
 20
0.0
 30
0.0
  3
BLOCK91
  1

  0
TEXT
  5
A5D
  8
0
 62
     7
 10
4.125
 20
16.886779999999991
 30
0.0
 40
3.0
  1
80%%d
 50
179.999955353822
 41
1.3873837837842049
 72
     5
 11
-3.57498
 21
16.88678599999999
 31
0.0
  0
ENDBLK
  5
A5E
  8
0
  0
BLOCK
  8
0
  2
BLOCK92
 70
     0
 10
0.0
 20
0.0
 30
0.0
  3
BLOCK92
  1

  0
TEXT
  5
A60
  8
0
 62
     7
 10
-22.212630999999991
 20
-15.340729
 30
0.0
 40
4.0
  1
PART. Z
 50
90.0
 41
1.3391355376344081
 72
     5
 11
-22.212630999999991
 21
9.5671920000000004
 31
0.0
  0
ENDBLK
  5
A61
  8
0
  0
BLOCK
  8
0
  2
BLOCK93
 70
     0
 10
0.0
 20
0.0
 30
0.0
  3
BLOCK93
  1

  0
LINE
  5
A63
  8
0
 62
     2
 10
-3.2426400000000002
 20
-1.0
 30
0.0
 11
-5.2426399999999989
 21
1.0
 31
0.0
  0
LINE
  5
A64
  8
0
 62
     2
 10
-5.3639609999999989
 20
-1.0
 30
0.0
 11
-7.3639599999999996
 21
1.0
 31
0.0
  0
LINE
  5
A65
  8
0
 62
     2
 10
-7.4852809999999987
 20
-1.0
 30
0.0
 11
-9.4852810000000005
 21
1.0
 31
0.0
  0
LINE
  5
A66
  8
0
 62
     2
 10
-9.6066009999999995
 20
-1.0
 30
0.0
 11
-11.606601
 21
1.0
 31
0.0
  0
LINE
  5
A67
  8
0
 62
     2
 10
-11.727921
 20
-1.0
 30
0.0
 11
-11.976111
 21
-0.7518100000000001
 31
0.0
  0
ENDBLK
  5
A68
  8
0
  0
BLOCK
  8
0
  2
BLOCK94
 70
     0
 10
0.0
 20
0.0
 30
0.0
  3
BLOCK94
  1

  0
LINE
  5
A6A
  8
0
 62
     2
 10
9.4852810000000005
 20
-1.0
 30
0.0
 11
7.4852809999999987
 21
1.0
 31
0.0
  0
LINE
  5
A6B
  8
0
 62
     2
 10
7.3639599999999996
 20
-1.0
 30
0.0
 11
5.3639609999999989
 21
1.0
 31
0.0
  0
LINE
  5
A6C
  8
0
 62
     2
 10
5.2426399999999989
 20
-1.0
 30
0.0
 11
3.479473
 21
0.7631670000000002
 31
0.0
  0
LINE
  5
A6D
  8
0
 62
     2
 10
3.121319999999999
 20
-1.0
 30
0.0
 11
2.5116089999999991
 21
-0.390289
 31
0.0
  0
ENDBLK
  5
A6E
  8
0
  0
ENDSEC
  0
SECTION
  2
ENTITIES
  0
LINE
  5
25
  8
0
 62
     7
 10
191.74773999999991
 20
691.64168399999994
 30
0.0
 11
191.74773999999991
 21
856.04168100000015
 31
0.0
  0
LINE
  5
26
  8
0
  6
DASHDOT
 62
     7
 10
279.24777999999992
 20
644.83260499999994
 30
0.0
 11
279.24777999999992
 21
876.54668600000002
 31
0.0
  0
ARC
  5
27
  8
0
 62
     7
 10
279.24769600000002
 20
717.84190599999999
 30
0.0
 40
2.7497989999999999
 50
152.96715299999991
 51
27.032851999999998
  0
LINE
  5
28
  8
0
  6
DASHDOT
 62
     7
 10
283.26164199999988
 20
717.84190599999999
 30
0.0
 11
275.60596499999991
 21
717.84190599999999
 31
0.0
  0
LINE
  5
29
  8
0
 62
     7
 10
289.99777999999992
 20
741.341677
 30
0.0
 11
289.99777999999992
 21
781.34166100000004
 31
0.0
  0
LINE
  5
2A
  8
0
 62
     7
 10
268.49777999999992
 20
741.341677
 30
0.0
 11
268.49777999999992
 21
781.34166100000004
 31
0.0
  0
LINE
  5
2B
  8
0
 62
     7
 10
289.99777999999992
 20
781.07719599999984
 30
0.0
 11
268.49777999999992
 21
781.07719599999984
 31
0.0
  0
LINE
  5
2C
  8
0
 62
     7
 10
289.99777999999992
 20
781.34166100000004
 30
0.0
 11
268.49777999999992
 21
781.34166100000004
 31
0.0
  0
LINE
  5
2D
  8
0
 62
     7
 10
289.99777999999992
 20
741.341677
 30
0.0
 11
268.49777999999992
 21
741.341677
 31
0.0
  0
LINE
  5
2E
  8
0
 62
     7
 10
289.99777999999992
 20
741.60617300000001
 30
0.0
 11
268.49777999999992
 21
741.60617300000001
 31
0.0
  0
LINE
  5
2F
  8
0
 62
     7
 10
289.99777999999992
 20
755.46699699999988
 30
0.0
 11
268.49777999999992
 21
755.46699699999988
 31
0.0
  0
LINE
  5
30
  8
0
 62
     7
 10
289.99777999999992
 20
749.35053400000004
 30
0.0
 11
268.49777999999992
 21
749.35053400000004
 31
0.0
  0
LINE
  5
31
  8
0
 62
     7
 10
289.99777999999992
 20
743.40271199999995
 30
0.0
 11
268.49777999999992
 21
743.40271199999995
 31
0.0
  0
LINE
  5
32
  8
0
 62
     7
 10
289.99777999999992
 20
742.59996999999998
 30
0.0
 11
268.49777999999992
 21
742.59996999999998
 31
0.0
  0
LINE
  5
33
  8
0
 62
     7
 10
200.74778000000001
 20
824.09168399999999
 30
0.0
 11
191.74773999999991
 21
824.09168399999999
 31
0.0
  0
LINE
  5
34
  8
0
 62
     7
 10
200.74778000000001
 20
719.09169199999985
 30
0.0
 11
191.74773999999991
 21
719.09169199999985
 31
0.0
  0
LINE
  5
35
  8
0
 62
     3
 10
331.74775699999992
 20
687.59168399999999
 30
0.0
 11
331.74775699999992
 21
691.09174499999995
 31
0.0
  0
LINE
  5
36
  8
0
 62
     7
 10
330.49774200000002
 20
861.34168399999987
 30
0.0
 11
192.9977649999999
 21
861.34168399999987
 31
0.0
  0
LINE
  5
37
  8
0
 62
     7
 10
200.74778000000001
 20
832.34169999999995
 30
0.0
 11
192.7477649999999
 21
832.34169999999995
 31
0.0
  0
LINE
  5
38
  8
0
 62
     7
 10
331.74775699999992
 20
852.08544299999994
 30
0.0
 11
331.74775699999992
 21
860.09168399999999
 31
0.0
  0
LINE
  5
39
  8
0
 62
     7
 10
191.74776499999999
 20
833.34169999999983
 30
0.0
 11
191.74776499999999
 21
860.09168399999999
 31
0.0
  0
LINE
  5
3A
  8
0
 62
     7
 10
200.74778000000001
 20
833.34169999999983
 30
0.0
 11
191.9977649999999
 21
833.34169999999983
 31
0.0
  0
LINE
  5
3B
  8
0
 62
     7
 10
192.7477649999999
 20
832.34169999999995
 30
0.0
 11
192.7477649999999
 21
833.34169999999983
 31
0.0
  0
LINE
  5
3C
  8
0
 62
     7
 10
191.9977649999999
 20
833.34169999999983
 30
0.0
 11
191.74776499999999
 21
833.34169999999983
 31
0.0
  0
LINE
  5
3D
  8
0
 62
     7
 10
195.797764
 20
686.34168399999999
 30
0.0
 11
195.797764
 21
861.34168399999987
 31
0.0
  0
LINE
  5
3E
  8
0
 62
     7
 10
202.9977649999999
 20
686.34168399999999
 30
0.0
 11
202.9977649999999
 21
691.09174499999995
 31
0.0
  0
LINE
  5
3F
  8
0
 62
     7
 10
210.1977619999999
 20
686.34168399999999
 30
0.0
 11
210.1977619999999
 21
691.09174499999995
 31
0.0
  0
LINE
  5
40
  8
0
 62
     7
 10
220.9977649999999
 20
686.34168399999999
 30
0.0
 11
220.9977649999999
 21
691.09174499999995
 31
0.0
  0
LINE
  5
41
  8
0
 62
     7
 10
224.59775499999989
 20
686.34168399999999
 30
0.0
 11
224.59775499999989
 21
691.09174499999995
 31
0.0
  0
LINE
  5
42
  8
0
 62
     7
 10
228.19776200000001
 20
852.08544299999994
 30
0.0
 11
228.19776200000001
 21
861.34168399999987
 31
0.0
  0
LINE
  5
43
  8
0
 62
     7
 10
231.79775199999989
 20
852.08544299999994
 30
0.0
 11
231.79775199999989
 21
861.34168399999987
 31
0.0
  0
LINE
  5
44
  8
0
 62
     7
 10
235.39775800000001
 20
852.08544299999994
 30
0.0
 11
235.39775800000001
 21
861.34168399999987
 31
0.0
  0
LINE
  5
45
  8
0
 62
     7
 10
238.99776499999999
 20
852.08544299999994
 30
0.0
 11
238.99776499999999
 21
861.34168399999987
 31
0.0
  0
LINE
  5
46
  8
0
 62
     7
 10
242.59775499999989
 20
852.08544299999994
 30
0.0
 11
242.59775499999989
 21
861.34168399999987
 31
0.0
  0
LINE
  5
47
  8
0
 62
     7
 10
246.19776200000001
 20
852.08544299999994
 30
0.0
 11
246.19776200000001
 21
861.34168399999987
 31
0.0
  0
LINE
  5
48
  8
0
 62
     7
 10
249.797752
 20
852.08544299999994
 30
0.0
 11
249.797752
 21
861.34168399999987
 31
0.0
  0
LINE
  5
49
  8
0
 62
     7
 10
253.39775800000001
 20
852.08544299999994
 30
0.0
 11
253.39775800000001
 21
861.34168399999987
 31
0.0
  0
LINE
  5
4A
  8
0
 62
     7
 10
256.99776500000002
 20
852.08544299999994
 30
0.0
 11
256.99776500000002
 21
861.34168399999987
 31
0.0
  0
LINE
  5
4B
  8
0
 62
     7
 10
260.59775499999989
 20
852.08544299999994
 30
0.0
 11
260.59775499999989
 21
861.34168399999987
 31
0.0
  0
LINE
  5
4C
  8
0
 62
     7
 10
264.19776200000001
 20
852.08544299999994
 30
0.0
 11
264.19776200000001
 21
861.34168399999987
 31
0.0
  0
LINE
  5
4D
  8
0
 62
     7
 10
267.797752
 20
852.08544299999994
 30
0.0
 11
267.797752
 21
861.34168399999987
 31
0.0
  0
LINE
  5
4E
  8
0
 62
     7
 10
271.39775800000001
 20
852.08544299999994
 30
0.0
 11
271.39775800000001
 21
861.34168399999987
 31
0.0
  0
LINE
  5
4F
  8
0
 62
     7
 10
274.99776500000002
 20
852.08544299999994
 30
0.0
 11
274.99776500000002
 21
861.34168399999987
 31
0.0
  0
LINE
  5
50
  8
0
 62
     7
 10
278.59775500000001
 20
852.08544299999994
 30
0.0
 11
278.59775500000001
 21
861.34168399999987
 31
0.0
  0
LINE
  5
51
  8
0
 62
     7
 10
282.19776200000001
 20
852.08544299999994
 30
0.0
 11
282.19776200000001
 21
861.34168399999987
 31
0.0
  0
LINE
  5
52
  8
0
 62
     7
 10
285.797752
 20
852.08544299999994
 30
0.0
 11
285.797752
 21
861.34168399999987
 31
0.0
  0
LINE
  5
53
  8
0
 62
     7
 10
289.3977579999999
 20
852.08544299999994
 30
0.0
 11
289.3977579999999
 21
861.34168399999987
 31
0.0
  0
LINE
  5
54
  8
0
 62
     7
 10
292.99775699999992
 20
852.08544299999994
 30
0.0
 11
292.99775699999992
 21
861.34168399999987
 31
0.0
  0
LINE
  5
55
  8
0
 62
     7
 10
296.59774800000002
 20
852.08544299999994
 30
0.0
 11
296.59774800000002
 21
861.34168399999987
 31
0.0
  0
LINE
  5
56
  8
0
 62
     7
 10
300.19775399999997
 20
852.08544299999994
 30
0.0
 11
300.19775399999997
 21
861.34168399999987
 31
0.0
  0
LINE
  5
57
  8
0
 62
     7
 10
303.79774500000002
 20
852.08544299999994
 30
0.0
 11
303.79774500000002
 21
861.34168399999987
 31
0.0
  0
LINE
  5
58
  8
0
 62
     7
 10
307.39775099999991
 20
852.08544299999994
 30
0.0
 11
307.39775099999991
 21
861.34168399999987
 31
0.0
  0
LINE
  5
59
  8
0
 62
     7
 10
310.99775699999992
 20
852.08544299999994
 30
0.0
 11
310.99775699999992
 21
861.34168399999987
 31
0.0
  0
LINE
  5
5A
  8
0
 62
     7
 10
314.59774800000002
 20
852.08544299999994
 30
0.0
 11
314.59774800000002
 21
861.34168399999987
 31
0.0
  0
LINE
  5
5B
  8
0
 62
     7
 10
318.19775399999997
 20
852.08544299999994
 30
0.0
 11
318.19775399999997
 21
861.34168399999987
 31
0.0
  0
LINE
  5
5C
  8
0
 62
     7
 10
321.79774500000002
 20
852.08544299999994
 30
0.0
 11
321.79774500000002
 21
861.34168399999987
 31
0.0
  0
LINE
  5
5D
  8
0
 62
     7
 10
325.39775099999991
 20
852.08544299999994
 30
0.0
 11
325.39775099999991
 21
861.34168399999987
 31
0.0
  0
LINE
  5
5E
  8
0
 62
     7
 10
328.99775699999998
 20
852.08544299999994
 30
0.0
 11
328.99775699999998
 21
861.34168399999987
 31
0.0
  0
ARC
  5
5F
  8
0
 62
     7
 10
192.9977649999999
 20
860.09168399999999
 30
0.0
 40
1.25
 50
90.0
 51
180.00000299999991
  0
ARC
  5
60
  8
0
 62
     7
 10
330.49774200000002
 20
860.09168399999999
 30
0.0
 40
1.25
 50
0.000028
 51
90.0
  0
LINE
  5
61
  8
0
 62
     7
 10
330.49774200000002
 20
686.34168399999999
 30
0.0
 11
192.9977649999999
 21
686.34168399999999
 31
0.0
  0
LINE
  5
62
  8
0
 62
     7
 10
191.74776499999999
 20
687.59168399999999
 30
0.0
 11
191.74776499999999
 21
714.34166900000002
 31
0.0
  0
LINE
  5
63
  8
0
 62
     7
 10
200.74778000000001
 20
714.34166900000002
 30
0.0
 11
191.9977649999999
 21
714.34166900000002
 31
0.0
  0
LINE
  5
64
  8
0
 62
     7
 10
192.7477649999999
 20
714.34166900000002
 30
0.0
 11
192.7477649999999
 21
715.34166900000002
 31
0.0
  0
LINE
  5
65
  8
0
 62
     7
 10
191.9977649999999
 20
714.34166900000002
 30
0.0
 11
191.74776499999999
 21
714.34166900000002
 31
0.0
  0
LINE
  5
66
  8
0
 62
     7
 10
199.3977659999999
 20
686.34168399999999
 30
0.0
 11
199.3977659999999
 21
861.34168399999987
 31
0.0
  0
LINE
  5
67
  8
0
 62
     7
 10
206.5977629999999
 20
686.34168399999999
 30
0.0
 11
206.5977629999999
 21
691.09174499999995
 31
0.0
  0
LINE
  5
68
  8
0
 62
     7
 10
213.797752
 20
686.34168399999999
 30
0.0
 11
213.797752
 21
691.09174499999995
 31
0.0
  0
LINE
  5
69
  8
0
 62
     7
 10
217.39775800000001
 20
686.34168399999999
 30
0.0
 11
217.39775800000001
 21
691.09174499999995
 31
0.0
  0
LINE
  5
6A
  8
0
 62
     7
 10
228.19776200000001
 20
686.34168399999999
 30
0.0
 11
228.19776200000001
 21
691.09174499999995
 31
0.0
  0
LINE
  5
6B
  8
0
 62
     7
 10
231.79775199999989
 20
686.34168399999999
 30
0.0
 11
231.79775199999989
 21
691.09174499999995
 31
0.0
  0
LINE
  5
6C
  8
0
 62
     7
 10
235.39775800000001
 20
686.34168399999999
 30
0.0
 11
235.39775800000001
 21
691.09174499999995
 31
0.0
  0
LINE
  5
6D
  8
0
 62
     7
 10
238.99776499999999
 20
686.34168399999999
 30
0.0
 11
238.99776499999999
 21
691.09174499999995
 31
0.0
  0
LINE
  5
6E
  8
0
 62
     7
 10
242.59775499999989
 20
686.34168399999999
 30
0.0
 11
242.59775499999989
 21
691.09174499999995
 31
0.0
  0
LINE
  5
6F
  8
0
 62
     7
 10
246.19776200000001
 20
686.34168399999999
 30
0.0
 11
246.19776200000001
 21
691.09174499999995
 31
0.0
  0
LINE
  5
70
  8
0
 62
     7
 10
249.797752
 20
686.34168399999999
 30
0.0
 11
249.797752
 21
691.09174499999995
 31
0.0
  0
LINE
  5
71
  8
0
 62
     7
 10
253.39775800000001
 20
686.34168399999999
 30
0.0
 11
253.39775800000001
 21
691.09174499999995
 31
0.0
  0
LINE
  5
72
  8
0
 62
     7
 10
256.99776500000002
 20
686.34168399999999
 30
0.0
 11
256.99776500000002
 21
691.09174499999995
 31
0.0
  0
LINE
  5
73
  8
0
 62
     7
 10
260.59775499999989
 20
686.34168399999999
 30
0.0
 11
260.59775499999989
 21
691.09174499999995
 31
0.0
  0
LINE
  5
74
  8
0
 62
     7
 10
264.19776200000001
 20
686.34168399999999
 30
0.0
 11
264.19776200000001
 21
691.09174499999995
 31
0.0
  0
LINE
  5
75
  8
0
 62
     7
 10
267.797752
 20
686.34168399999999
 30
0.0
 11
267.797752
 21
691.09174499999995
 31
0.0
  0
LINE
  5
76
  8
0
 62
     7
 10
271.39775800000001
 20
686.34168399999999
 30
0.0
 11
271.39775800000001
 21
691.09174499999995
 31
0.0
  0
LINE
  5
77
  8
0
 62
     7
 10
274.99776500000002
 20
686.34168399999999
 30
0.0
 11
274.99776500000002
 21
691.09174499999995
 31
0.0
  0
LINE
  5
78
  8
0
 62
     7
 10
278.59775500000001
 20
686.34168399999999
 30
0.0
 11
278.59775500000001
 21
691.09174499999995
 31
0.0
  0
LINE
  5
79
  8
0
 62
     7
 10
282.19776200000001
 20
686.34168399999999
 30
0.0
 11
282.19776200000001
 21
691.09174499999995
 31
0.0
  0
LINE
  5
7A
  8
0
 62
     7
 10
285.797752
 20
686.34168399999999
 30
0.0
 11
285.797752
 21
691.09174499999995
 31
0.0
  0
LINE
  5
7B
  8
0
 62
     7
 10
289.3977579999999
 20
686.34168399999999
 30
0.0
 11
289.3977579999999
 21
691.09174499999995
 31
0.0
  0
LINE
  5
7C
  8
0
 62
     7
 10
292.99775699999992
 20
686.34168399999999
 30
0.0
 11
292.99775699999992
 21
691.09174499999995
 31
0.0
  0
LINE
  5
7D
  8
0
 62
     7
 10
296.59774800000002
 20
686.34168399999999
 30
0.0
 11
296.59774800000002
 21
691.09174499999995
 31
0.0
  0
LINE
  5
7E
  8
0
 62
     7
 10
300.19775399999997
 20
686.34168399999999
 30
0.0
 11
300.19775399999997
 21
691.09174499999995
 31
0.0
  0
LINE
  5
7F
  8
0
 62
     7
 10
303.79774500000002
 20
686.34168399999999
 30
0.0
 11
303.79774500000002
 21
691.09174499999995
 31
0.0
  0
LINE
  5
80
  8
0
 62
     7
 10
307.39775099999991
 20
686.34168399999999
 30
0.0
 11
307.39775099999991
 21
691.09174499999995
 31
0.0
  0
LINE
  5
81
  8
0
 62
     7
 10
310.99775699999992
 20
686.34168399999999
 30
0.0
 11
310.99775699999992
 21
691.09174499999995
 31
0.0
  0
LINE
  5
82
  8
0
 62
     7
 10
314.59774800000002
 20
686.34168399999999
 30
0.0
 11
314.59774800000002
 21
691.09174499999995
 31
0.0
  0
LINE
  5
83
  8
0
 62
     7
 10
318.19775399999997
 20
686.34168399999999
 30
0.0
 11
318.19775399999997
 21
691.09174499999995
 31
0.0
  0
LINE
  5
84
  8
0
 62
     7
 10
321.79774500000002
 20
686.34168399999999
 30
0.0
 11
321.79774500000002
 21
691.09174499999995
 31
0.0
  0
LINE
  5
85
  8
0
 62
     7
 10
325.39775099999991
 20
686.34168399999999
 30
0.0
 11
325.39775099999991
 21
691.09174499999995
 31
0.0
  0
LINE
  5
86
  8
0
 62
     7
 10
328.99775699999998
 20
686.34168399999999
 30
0.0
 11
328.99775699999998
 21
691.09174499999995
 31
0.0
  0
ARC
  5
87
  8
0
 62
     7
 10
192.9977649999999
 20
687.59168399999999
 30
0.0
 40
1.25
 50
180.00000299999991
 51
270.00000499999987
  0
ARC
  5
88
  8
0
 62
     7
 10
330.49774200000002
 20
687.59168399999999
 30
0.0
 40
1.25
 50
270.00000499999987
 51
359.99997300000001
  0
LINE
  5
89
  8
0
  6
DASHDOT
 62
     7
 10
279.24782599999992
 20
662.74170000000004
 30
0.0
 11
279.24782599999992
 21
674.94169299999987
 31
0.0
  0
LINE
  5
8A
  8
0
  6
DASHDOT
 62
     7
 10
279.24782599999992
 20
872.74167799999998
 30
0.0
 11
279.24782599999992
 21
884.94167500000015
 31
0.0
  0
LINE
  5
8B
  8
0
 62
   150
 10
226.89422200000001
 20
823.94532199999992
 30
0.0
 11
227.247784
 21
824.09179099999994
 31
0.0
  0
LINE
  5
8C
  8
0
 62
   150
 10
226.747772
 20
823.59177599999987
 30
0.0
 11
226.894218
 21
823.94533699999988
 31
0.0
  0
LINE
  5
8D
  8
0
 62
   150
 10
226.747749
 20
719.59170300000005
 30
0.0
 11
226.747749
 21
720.09173399999997
 31
0.0
  0
LINE
  5
8E
  8
0
 62
   150
 10
226.74776499999999
 20
812.09166899999991
 30
0.0
 11
226.74776499999999
 21
823.59174499999995
 31
0.0
  0
LINE
  5
8F
  8
0
 62
   150
 10
226.8942109999999
 20
719.23815000000002
 30
0.0
 11
226.747749
 21
719.59170300000005
 31
0.0
  0
LINE
  5
90
  8
0
 62
   150
 10
227.247749
 20
719.09176400000001
 30
0.0
 11
226.89421499999989
 21
719.23815000000002
 31
0.0
  0
LINE
  5
91
  8
0
 62
   150
 10
331.24781799999988
 20
719.09169199999985
 30
0.0
 11
300.747818
 21
719.09171500000002
 31
0.0
  0
LINE
  5
92
  8
0
 62
   150
 10
227.7477649999999
 20
719.09176400000001
 30
0.0
 11
227.24774600000001
 21
719.09176400000001
 31
0.0
  0
LINE
  5
93
  8
0
 62
   150
 10
331.24781799999988
 20
719.09169599999996
 30
0.0
 11
331.60137899999989
 21
719.23814600000003
 31
0.0
  0
LINE
  5
94
  8
0
 62
   150
 10
331.60137899999989
 20
719.23814600000003
 30
0.0
 11
331.74783300000001
 21
719.59169999999995
 31
0.0
  0
LINE
  5
95
  8
0
 62
   150
 10
331.74783300000001
 20
719.59169999999995
 30
0.0
 11
331.747818
 21
823.59174499999995
 31
0.0
  0
LINE
  5
96
  8
0
 62
   150
 10
331.747818
 20
823.59176099999991
 30
0.0
 11
331.60133400000001
 21
823.94532199999992
 31
0.0
  0
LINE
  5
97
  8
0
 62
   150
 10
331.60133400000001
 20
823.94530700000007
 30
0.0
 11
331.24777199999988
 21
824.09174500000006
 31
0.0
  0
LINE
  5
98
  8
0
 62
   150
 10
331.24777199999988
 20
824.09174500000006
 30
0.0
 11
227.247772
 21
824.09177599999998
 31
0.0
  0
LINE
  5
99
  8
0
 62
     7
 10
304.44775399999997
 20
729.52224199999989
 30
0.0
 11
304.44775399999997
 21
737.66103599999997
 31
0.0
  0
LINE
  5
9A
  8
0
 62
     7
 10
305.84561200000002
 20
727.91550599999994
 30
0.0
 11
304.44773900000001
 21
729.52224199999989
 31
0.0
  0
LINE
  5
9B
  8
0
 62
     7
 10
307.63886999999988
 20
726.76641299999994
 30
0.0
 11
305.845642
 21
727.91550599999994
 31
0.0
  0
LINE
  5
9C
  8
0
 62
     7
 10
309.68279999999987
 20
726.16771900000003
 30
0.0
 11
307.63885499999992
 21
726.76641299999994
 31
0.0
  0
LINE
  5
9D
  8
0
 62
     7
 10
311.8126069999999
 20
726.16771900000003
 30
0.0
 11
309.68279999999987
 21
726.16771900000003
 31
0.0
  0
LINE
  5
9E
  8
0
 62
     7
 10
311.8126069999999
 20
726.16771900000003
 30
0.0
 11
313.85655200000002
 21
726.76640499999985
 31
0.0
  0
LINE
  5
9F
  8
0
 62
     7
 10
313.85656699999993
 20
726.76641299999994
 30
0.0
 11
315.649811
 21
727.91550599999994
 31
0.0
  0
LINE
  5
A0
  8
0
 62
     7
 10
315.64977999999991
 20
727.91549099999986
 30
0.0
 11
317.04769900000002
 21
729.52232600000002
 31
0.0
  0
LINE
  5
A1
  8
0
 62
     7
 10
317.04771399999998
 20
729.52233299999989
 30
0.0
 11
317.04775999999993
 21
737.66108099999985
 31
0.0
  0
LINE
  5
A2
  8
0
 62
     7
 10
317.04775999999993
 20
737.66108099999985
 30
0.0
 11
315.64984099999998
 21
739.26787799999988
 31
0.0
  0
LINE
  5
A3
  8
0
 62
     7
 10
315.649857
 20
739.26787799999988
 30
0.0
 11
313.85661299999998
 21
740.41697099999988
 31
0.0
  0
LINE
  5
A4
  8
0
 62
     7
 10
313.85659800000002
 20
740.41697099999988
 30
0.0
 11
311.81266799999997
 21
741.01565700000003
 31
0.0
  0
LINE
  5
A5
  8
0
 62
     7
 10
311.81266799999997
 20
741.01565700000003
 30
0.0
 11
309.68284599999993
 21
741.01565700000003
 31
0.0
  0
LINE
  5
A6
  8
0
 62
     7
 10
307.63891599999999
 20
740.41697099999988
 30
0.0
 11
309.68284599999993
 21
741.01565700000003
 31
0.0
  0
LINE
  5
A7
  8
0
 62
     7
 10
305.845688
 20
739.26789299999984
 30
0.0
 11
307.63893100000001
 21
740.41698599999995
 31
0.0
  0
LINE
  5
A8
  8
0
 62
     7
 10
304.44773900000001
 20
737.66102799999999
 30
0.0
 11
305.8456569999999
 21
739.26787000000002
 31
0.0
  0
LINE
  5
A9
  8
0
 62
     7
 10
300.747818
 20
812.09168399999987
 30
0.0
 11
331.747818
 21
812.09174499999995
 31
0.0
  0
LINE
  5
AA
  8
0
 62
     7
 10
331.747818
 20
822.09174499999995
 30
0.0
 11
226.74775700000001
 21
822.09174499999995
 31
0.0
  0
LINE
  5
AB
  8
0
 62
     7
 10
320.252228
 20
804.84162300000003
 30
0.0
 11
320.13804599999992
 21
805.41565899999989
 31
0.0
  0
LINE
  5
AC
  8
0
 62
     7
 10
320.13804599999992
 20
805.41565899999989
 30
0.0
 11
319.81289700000002
 21
805.90229199999999
 31
0.0
  0
LINE
  5
AD
  8
0
 62
     7
 10
319.81289700000002
 20
805.90229199999999
 30
0.0
 11
319.32624800000002
 21
806.22744199999988
 31
0.0
  0
LINE
  5
AE
  8
0
 62
     7
 10
319.326233
 20
806.22744199999988
 30
0.0
 11
318.75221299999998
 21
806.34162299999991
 31
0.0
  0
LINE
  5
AF
  8
0
 62
     7
 10
318.17819199999991
 20
806.22742699999992
 30
0.0
 11
318.75221299999998
 21
806.34160799999995
 31
0.0
  0
LINE
  5
B0
  8
0
 62
     7
 10
317.691574
 20
805.90229199999999
 30
0.0
 11
318.17820699999999
 21
806.22744199999988
 31
0.0
  0
LINE
  5
B1
  8
0
 62
     7
 10
317.36640899999992
 20
805.41565899999989
 30
0.0
 11
317.691574
 21
805.90229199999999
 31
0.0
  0
LINE
  5
B2
  8
0
 62
     7
 10
317.25222799999989
 20
804.84160799999995
 30
0.0
 11
317.36640899999992
 21
805.41564399999993
 31
0.0
  0
LINE
  5
B3
  8
0
 62
     7
 10
317.25222799999989
 20
801.84162299999991
 30
0.0
 11
317.25222799999989
 21
804.84162300000003
 31
0.0
  0
LINE
  5
B4
  8
0
 62
     7
 10
317.36640899999992
 20
801.26758799999993
 30
0.0
 11
317.25222799999989
 21
801.84160799999995
 31
0.0
  0
LINE
  5
B5
  8
0
 62
     7
 10
317.691574
 20
800.78097000000014
 30
0.0
 11
317.36640899999992
 21
801.26760299999989
 31
0.0
  0
LINE
  5
B6
  8
0
 62
     7
 10
318.17820699999999
 20
800.45580499999994
 30
0.0
 11
317.691574
 21
800.78097000000014
 31
0.0
  0
LINE
  5
B7
  8
0
 62
     7
 10
318.75221299999998
 20
800.34162300000003
 30
0.0
 11
318.17819199999991
 21
800.45580499999994
 31
0.0
  0
LINE
  5
B8
  8
0
 62
     7
 10
318.75221299999998
 20
800.34160799999995
 30
0.0
 11
319.326233
 21
800.45579000000009
 31
0.0
  0
LINE
  5
B9
  8
0
 62
     7
 10
319.32624800000002
 20
800.45580499999994
 30
0.0
 11
319.81289700000002
 21
800.78097000000014
 31
0.0
  0
LINE
  5
BA
  8
0
 62
     7
 10
319.81289700000002
 20
800.78097000000014
 30
0.0
 11
320.13804599999992
 21
801.26760299999989
 31
0.0
  0
LINE
  5
BB
  8
0
 62
     7
 10
320.13803100000001
 20
801.26758799999993
 30
0.0
 11
320.25221299999993
 21
801.84160799999995
 31
0.0
  0
LINE
  5
BC
  8
0
 62
     7
 10
320.252228
 20
801.84162299999991
 30
0.0
 11
320.252228
 21
804.84162300000003
 31
0.0
  0
LINE
  5
BD
  8
0
 62
     7
 10
320.24781799999988
 20
780.34164599999997
 30
0.0
 11
317.247818
 21
780.34164599999997
 31
0.0
  0
LINE
  5
BE
  8
0
 62
     7
 10
317.247818
 20
753.34164599999986
 30
0.0
 11
317.247818
 21
780.34164599999997
 31
0.0
  0
LINE
  5
BF
  8
0
 62
     7
 10
320.24781799999988
 20
753.34164599999986
 30
0.0
 11
317.247818
 21
753.34164599999986
 31
0.0
  0
LINE
  5
C0
  8
0
 62
     7
 10
320.24781799999988
 20
753.34164599999986
 30
0.0
 11
320.24781799999988
 21
780.34164599999997
 31
0.0
  0
LINE
  5
C1
  8
0
 62
   150
 10
298.747818
 20
722.59167300000001
 30
0.0
 11
298.747818
 21
809.09166900000002
 31
0.0
  0
LINE
  5
C2
  8
0
 62
     7
 10
300.747818
 20
812.09166899999991
 30
0.0
 11
230.24773399999989
 21
812.09166899999991
 31
0.0
  0
LINE
  5
C3
  8
0
 62
   150
 10
297.74781799999988
 20
810.09166900000002
 30
0.0
 11
230.24773399999989
 21
810.09166900000002
 31
0.0
  0
LINE
  5
C4
  8
0
 62
   150
 10
298.747818
 20
809.09166900000002
 30
0.0
 11
297.74781799999988
 21
810.09166900000002
 31
0.0
  0
LINE
  5
C5
  8
0
 62
   150
 10
229.24773400000001
 20
809.09166900000002
 30
0.0
 11
229.54062699999989
 21
809.79877699999986
 31
0.0
  0
LINE
  5
C6
  8
0
 62
   150
 10
229.54062699999989
 20
809.79877699999986
 30
0.0
 11
230.24773399999989
 21
810.09166900000002
 31
0.0
  0
LINE
  5
C7
  8
0
 62
     7
 10
230.24773399999989
 20
812.09166899999991
 30
0.0
 11
226.74776099999991
 21
812.09168399999987
 31
0.0
  0
LINE
  5
C8
  8
0
 62
   150
 10
226.74775700000001
 20
720.09173399999997
 30
0.0
 11
226.74776099999991
 21
812.09168399999987
 31
0.0
  0
LINE
  5
C9
  8
0
 62
   150
 10
299.74781799999988
 20
719.09145199999989
 30
0.0
 11
227.74775699999989
 21
719.09174199999995
 31
0.0
  0
LINE
  5
CA
  8
0
 62
   150
 10
300.747818
 20
719.09143600000004
 30
0.0
 11
299.74781799999988
 21
719.09145199999989
 31
0.0
  0
LINE
  5
CB
  8
0
 62
   150
 10
298.454926
 20
721.88456499999995
 30
0.0
 11
298.747818
 21
722.59167300000001
 31
0.0
  0
LINE
  5
CC
  8
0
 62
   150
 10
297.74781799999988
 20
721.59167300000001
 30
0.0
 11
298.454926
 21
721.88456499999995
 31
0.0
  0
LINE
  5
CD
  8
0
 62
   150
 10
297.74781799999988
 20
721.59167300000001
 30
0.0
 11
230.24773399999989
 21
721.59167300000001
 31
0.0
  0
LINE
  5
CE
  8
0
 62
   150
 10
230.24773399999989
 20
721.59167300000001
 30
0.0
 11
229.54062699999989
 21
721.88456499999995
 31
0.0
  0
LINE
  5
CF
  8
0
 62
   150
 10
229.54062699999989
 20
721.88456499999995
 30
0.0
 11
229.24773400000001
 21
722.59167300000001
 31
0.0
  0
LINE
  5
D0
  8
0
 62
   150
 10
229.24773400000001
 20
722.59167300000001
 30
0.0
 11
229.24773400000001
 21
809.09166900000002
 31
0.0
  0
LINE
  5
D1
  8
0
 62
   150
 10
268.49779499999988
 20
740.26983099999995
 30
0.0
 11
268.49779499999988
 21
782.04695300000003
 31
0.0
  0
LINE
  5
D2
  8
0
 62
   150
 10
289.99779499999988
 20
740.26983099999995
 30
0.0
 11
289.99779499999988
 21
782.04695300000003
 31
0.0
  0
LINE
  5
D3
  8
0
 62
     7
 10
326.74783300000001
 20
746.01206400000001
 30
0.0
 11
324.74783300000001
 21
746.01206400000001
 31
0.0
  0
LINE
  5
D4
  8
0
 62
     7
 10
324.39430199999993
 20
745.86562500000002
 30
0.0
 11
324.74786399999999
 21
746.01207199999988
 31
0.0
  0
LINE
  5
D5
  8
0
 62
     7
 10
324.24783300000001
 20
745.51206400000001
 30
0.0
 11
324.394272
 21
745.86561799999993
 31
0.0
  0
LINE
  5
D6
  8
0
 62
     7
 10
324.24783300000001
 20
734.51206400000001
 30
0.0
 11
324.24783300000001
 21
745.51206400000001
 31
0.0
  0
LINE
  5
D7
  8
0
 62
     7
 10
324.394272
 20
734.15850999999986
 30
0.0
 11
324.24783300000001
 21
734.51206400000001
 31
0.0
  0
LINE
  5
D8
  8
0
 62
     7
 10
324.74784899999997
 20
734.01206400000001
 30
0.0
 11
324.39428700000002
 21
734.15850999999986
 31
0.0
  0
LINE
  5
D9
  8
0
 62
     7
 10
326.74783300000001
 20
734.01206400000001
 30
0.0
 11
324.74783300000001
 21
734.01206400000001
 31
0.0
  0
LINE
  5
DA
  8
0
 62
     7
 10
328.2478329999999
 20
734.01206400000001
 30
0.0
 11
326.74783300000001
 21
734.01206400000001
 31
0.0
  0
LINE
  5
DB
  8
0
 62
     7
 10
328.247818
 20
734.01205599999992
 30
0.0
 11
328.60136399999999
 21
734.158503
 31
0.0
  0
LINE
  5
DC
  8
0
 62
     7
 10
328.60137900000001
 20
734.15851799999996
 30
0.0
 11
328.74783300000001
 21
734.51207199999988
 31
0.0
  0
LINE
  5
DD
  8
0
 62
     7
 10
328.74783300000001
 20
734.51206400000001
 30
0.0
 11
328.74783300000001
 21
745.51206400000001
 31
0.0
  0
LINE
  5
DE
  8
0
 62
     7
 10
328.74783300000001
 20
745.51206400000001
 30
0.0
 11
328.60137900000001
 21
745.86561799999993
 31
0.0
  0
LINE
  5
DF
  8
0
 62
     7
 10
328.60136399999999
 20
745.86561799999993
 30
0.0
 11
328.247818
 21
746.01206400000001
 31
0.0
  0
LINE
  5
E0
  8
0
 62
     7
 10
328.2478329999999
 20
746.01206400000001
 30
0.0
 11
326.74783300000001
 21
746.01206400000001
 31
0.0
  0
LINE
  5
E1
  8
0
 62
   150
 10
298.747772
 20
785.09169199999985
 30
0.0
 11
298.747772
 21
786.09169199999997
 31
0.0
  0
LINE
  5
E2
  8
0
 62
   150
 10
298.747772
 20
736.09169199999997
 30
0.0
 11
298.747772
 21
737.09169199999985
 31
0.0
  0
LINE
  5
E3
  8
0
 62
   150
 10
298.747772
 20
772.09169199999985
 30
0.0
 11
298.747772
 21
773.09169199999985
 31
0.0
  0
LINE
  5
E4
  8
0
 62
   150
 10
298.747772
 20
749.09169199999997
 30
0.0
 11
298.747772
 21
750.09169199999985
 31
0.0
  0
LINE
  5
E5
  8
0
 62
     7
 10
339.747818
 20
710.84167300000001
 30
0.0
 11
339.747818
 21
715.34167699999989
 31
0.0
  0
LINE
  5
E6
  8
0
  6
DASHSPACE
 62
     4
 10
362.24783300000001
 20
846.84168399999987
 30
0.0
 11
331.74775699999992
 21
846.84168399999987
 31
0.0
  0
LINE
  5
E7
  8
0
 62
     4
 10
339.747726
 20
739.09163899999999
 30
0.0
 11
339.747726
 21
749.59163899999987
 31
0.0
  0
LINE
  5
E8
  8
0
 62
     4
 10
339.747726
 20
790.84165399999995
 30
0.0
 11
339.747726
 21
814.84169999999995
 31
0.0
  0
LINE
  5
E9
  8
0
  6
DASHSPACE
 62
     4
 10
362.24783300000001
 20
702.09166899999991
 30
0.0
 11
331.74775699999992
 21
702.09166899999991
 31
0.0
  0
LINE
  5
EA
  8
0
  6
DASHSPACE
 62
     4
 10
362.24783300000001
 20
702.09166899999991
 30
0.0
 11
362.24783300000001
 21
846.84168399999987
 31
0.0
  0
LINE
  5
EB
  8
0
 62
     7
 10
339.74783300000001
 20
826.34169999999995
 30
0.0
 11
339.74783300000001
 21
833.59169999999995
 31
0.0
  0
LINE
  5
EC
  8
0
  6
DASHSPACE
 62
     4
 10
363.247818
 20
759.84163899999987
 30
0.0
 11
363.247818
 21
779.84163899999987
 31
0.0
  0
LINE
  5
ED
  8
0
 62
     4
 10
338.74783300000001
 20
749.59163899999987
 30
0.0
 11
338.74783300000001
 21
784.84165399999995
 31
0.0
  0
LINE
  5
EE
  8
0
 62
     7
 10
338.74783300000001
 20
725.84168399999987
 30
0.0
 11
338.74783300000001
 21
730.84164599999997
 31
0.0
  0
LINE
  5
EF
  8
0
 62
   150
 10
227.11239199999989
 20
719.14780199999996
 30
0.0
 11
227.11386899999991
 21
719.14927899999986
 31
0.0
  0
LINE
  5
F0
  8
0
 62
   150
 10
227.11387300000001
 20
824.03453999999999
 30
0.0
 11
227.11262500000001
 21
824.03579100000002
 31
0.0
  0
LINE
  5
F1
  8
0
 62
   150
 10
289.99779499999988
 20
781.606134
 30
0.0
 11
268.49779499999988
 21
781.606134
 31
0.0
  0
LINE
  5
F2
  8
0
 62
   150
 10
289.99779499999988
 20
782.04695300000003
 30
0.0
 11
268.49779499999988
 21
782.04695300000003
 31
0.0
  0
LINE
  5
F3
  8
0
 62
   150
 10
289.99779499999988
 20
740.26983099999995
 30
0.0
 11
268.49779499999988
 21
740.26983099999995
 31
0.0
  0
LINE
  5
F4
  8
0
 62
   150
 10
289.99779499999988
 20
740.93970699999988
 30
0.0
 11
268.49779499999988
 21
740.93970699999988
 31
0.0
  0
LINE
  5
F5
  8
0
  6
DASHSPACE
 62
     4
 10
363.247818
 20
779.84163899999987
 30
0.0
 11
362.24783300000001
 21
779.84163899999987
 31
0.0
  0
LINE
  5
F6
  8
0
  6
DASHSPACE
 62
     4
 10
363.247818
 20
759.84163899999987
 30
0.0
 11
362.24781799999988
 21
759.84163899999987
 31
0.0
  0
LINE
  5
F7
  8
0
 62
     4
 10
338.74783300000001
 20
730.84164599999997
 30
0.0
 11
338.74783300000001
 21
739.09163899999999
 31
0.0
  0
CIRCLE
  5
F8
  8
0
 62
     4
 10
348.74784899999997
 20
744.34154699999988
 30
0.0
 40
5.250087999999999
  0
LINE
  5
F9
  8
0
  6
DASHDOT
 62
     7
 10
348.74784899999997
 20
736.09146299999986
 30
0.0
 11
348.74784899999997
 21
752.59163899999987
 31
0.0
  0
LINE
  5
FA
  8
0
  6
DASHDOT
 62
     7
 10
356.99793999999991
 20
744.34154699999988
 30
0.0
 11
340.49775699999992
 21
744.34154699999988
 31
0.0
  0
LINE
  5
FB
  8
0
  6
DASHDOT
 62
     7
 10
379.99284399999988
 20
771.59174499999995
 30
0.0
 11
138.493225
 21
771.59174499999995
 31
0.0
  0
LINE
  5
FC
  8
0
 62
     7
 10
206.5977629999999
 20
852.08544299999994
 30
0.0
 11
206.5977629999999
 21
861.34168399999987
 31
0.0
  0
LINE
  5
FD
  8
0
 62
     7
 10
210.1977619999999
 20
852.08544299999994
 30
0.0
 11
210.1977619999999
 21
861.34168399999987
 31
0.0
  0
LINE
  5
FE
  8
0
 62
     7
 10
213.797752
 20
852.08544299999994
 30
0.0
 11
213.797752
 21
861.34168399999987
 31
0.0
  0
LINE
  5
FF
  8
0
 62
     7
 10
217.39775800000001
 20
852.08544299999994
 30
0.0
 11
217.39775800000001
 21
861.34168399999987
 31
0.0
  0
LINE
  5
100
  8
0
 62
     7
 10
220.9977649999999
 20
852.08544299999994
 30
0.0
 11
220.9977649999999
 21
861.34168399999987
 31
0.0
  0
LINE
  5
101
  8
0
 62
     7
 10
224.59775499999989
 20
852.08544299999994
 30
0.0
 11
224.59775499999989
 21
861.34168399999987
 31
0.0
  0
LINE
  5
102
  8
0
  6
DASHSPACE
 62
     4
 10
331.74775699999992
 20
691.09174499999995
 30
0.0
 11
331.74775699999992
 21
719.09177999999997
 31
0.0
  0
LINE
  5
103
  8
0
  6
DASHSPACE
 62
     4
 10
331.74775699999992
 20
824.09172999999987
 30
0.0
 11
331.74775699999992
 21
852.08544299999994
 31
0.0
  0
CIRCLE
  5
104
  8
0
 62
     7
 10
369.84777800000001
 20
844.95057099999997
 30
0.0
 40
0.4
  0
LINE
  5
105
  8
0
 62
     7
 10
202.9977649999999
 20
852.08544299999994
 30
0.0
 11
202.9977649999999
 21
861.34168399999987
 31
0.0
  0
LINE
  5
106
  8
0
 62
     7
 10
153.53465299999991
 20
686.34168399999999
 30
0.0
 11
154.57652300000001
 21
692.25053199999991
 31
0.0
  0
LINE
  5
107
  8
0
 62
     7
 10
153.53465299999991
 20
686.34168399999999
 30
0.0
 11
152.492783
 21
692.25053000000003
 31
0.0
  0
LINE
  5
108
  8
0
 62
     7
 10
153.53465299999991
 20
861.34168399999987
 30
0.0
 11
152.492783
 21
855.43284000000006
 31
0.0
  0
LINE
  5
109
  8
0
 62
     7
 10
153.53465299999991
 20
861.34168399999987
 30
0.0
 11
154.57652300000001
 21
855.43284000000006
 31
0.0
  0
LINE
  5
10A
  8
0
 62
     7
 10
153.53465299999991
 20
686.34168399999999
 30
0.0
 11
153.53465299999991
 21
861.34168399999987
 31
0.0
  0
LINE
  5
10B
  8
0
 62
     7
 10
149.53465299999991
 20
686.34168399999999
 30
0.0
 11
192.99778699999999
 21
686.34168599999998
 31
0.0
  0
LINE
  5
10C
  8
0
 62
     7
 10
149.53465299999991
 20
861.34168399999987
 30
0.0
 11
192.99778699999999
 21
861.34168399999987
 31
0.0
  0
LINE
  5
10D
  8
0
 62
     7
 10
331.74778700000002
 20
891.01912899999979
 30
0.0
 11
325.83891299999988
 21
892.061014
 31
0.0
  0
LINE
  5
10E
  8
0
 62
     7
 10
331.74778700000002
 20
891.01912899999979
 30
0.0
 11
325.83891299999988
 21
889.97724299999982
 31
0.0
  0
LINE
  5
10F
  8
0
 62
     7
 10
191.74778699999999
 20
891.01917500000002
 30
0.0
 11
197.65660099999991
 21
889.97728900000016
 31
0.0
  0
LINE
  5
110
  8
0
 62
     7
 10
191.74778699999999
 20
891.01917500000002
 30
0.0
 11
197.65660099999991
 21
892.06105999999988
 31
0.0
  0
LINE
  5
111
  8
0
 62
     7
 10
331.74778700000002
 20
891.01912899999979
 30
0.0
 11
191.74778699999999
 21
891.01917500000002
 31
0.0
  0
LINE
  5
112
  8
0
 62
     7
 10
331.74778700000002
 20
895.01912899999991
 30
0.0
 11
331.74772599999989
 21
860.09169999999995
 31
0.0
  0
LINE
  5
113
  8
0
 62
     7
 10
191.74778699999999
 20
895.01917500000002
 30
0.0
 11
191.747726
 21
860.09174499999983
 31
0.0
  0
LINE
  5
114
  8
0
 62
     7
 10
331.74778700000002
 20
674.35853099999997
 30
0.0
 11
325.83891299999988
 21
675.40041900000006
 31
0.0
  0
LINE
  5
115
  8
0
 62
     7
 10
331.74778700000002
 20
674.35853099999997
 30
0.0
 11
325.83891299999988
 21
673.31664199999989
 31
0.0
  0
LINE
  5
116
  8
0
 62
     7
 10
279.24778700000002
 20
674.35854699999993
 30
0.0
 11
285.15660099999991
 21
673.31665699999996
 31
0.0
  0
LINE
  5
117
  8
0
 62
     7
 10
279.24778700000002
 20
674.35854699999993
 30
0.0
 11
285.15660099999991
 21
675.40043400000002
 31
0.0
  0
LINE
  5
118
  8
0
 62
     7
 10
331.74778700000002
 20
674.35853099999997
 30
0.0
 11
279.24778700000002
 21
674.35854699999993
 31
0.0
  0
LINE
  5
119
  8
0
 62
     7
 10
331.74772599999989
 20
670.35852999999997
 30
0.0
 11
331.74778700000002
 21
687.59168399999999
 31
0.0
  0
LINE
  5
11A
  8
0
 62
     7
 10
363.24778700000002
 20
663.06760199999997
 30
0.0
 11
357.33897400000001
 21
664.10949100000005
 31
0.0
  0
LINE
  5
11B
  8
0
 62
     7
 10
363.24778700000002
 20
663.06760199999997
 30
0.0
 11
357.33897400000001
 21
662.02571299999988
 31
0.0
  0
LINE
  5
11C
  8
0
 62
     7
 10
279.24778700000002
 20
663.06759800000009
 30
0.0
 11
285.15660099999991
 21
662.02571099999989
 31
0.0
  0
LINE
  5
11D
  8
0
 62
     7
 10
279.24778700000002
 20
663.06759800000009
 30
0.0
 11
285.15660099999991
 21
664.10948799999994
 31
0.0
  0
LINE
  5
11E
  8
0
 62
     7
 10
363.24778700000002
 20
663.06760199999997
 30
0.0
 11
279.24778700000002
 21
663.06759800000009
 31
0.0
  0
LINE
  5
11F
  8
0
 62
     7
 10
363.24784899999997
 20
659.06760199999997
 30
0.0
 11
363.24778700000002
 21
759.84164599999997
 31
0.0
  0
LINE
  5
120
  8
0
 62
     7
 10
279.24778700000002
 20
667.06759800000009
 30
0.0
 11
279.24778700000002
 21
653.05471599999998
 31
0.0
  0
LINE
  5
121
  8
0
 62
     7
 10
331.74778700000002
 20
875.10085499999991
 30
0.0
 11
325.83891299999988
 21
876.14274
 31
0.0
  0
LINE
  5
122
  8
0
 62
     7
 10
331.74778700000002
 20
875.10085499999991
 30
0.0
 11
325.83891299999988
 21
874.05896900000005
 31
0.0
  0
LINE
  5
123
  8
0
 62
     7
 10
226.74778699999999
 20
875.10085499999991
 30
0.0
 11
232.65660099999991
 21
874.05896900000005
 31
0.0
  0
LINE
  5
124
  8
0
 62
     7
 10
226.74778699999999
 20
875.10085499999991
 30
0.0
 11
232.65660099999991
 21
876.14275600000008
 31
0.0
  0
LINE
  5
125
  8
0
 62
     7
 10
331.74778700000002
 20
875.10085499999991
 30
0.0
 11
226.74778699999999
 21
875.10085499999991
 31
0.0
  0
LINE
  5
126
  8
0
 62
     7
 10
331.74772599999989
 20
879.10085500000002
 30
0.0
 11
331.74778700000002
 21
809.64032899999995
 31
0.0
  0
LINE
  5
127
  8
0
 62
     7
 10
226.74772599999989
 20
879.10085500000002
 30
0.0
 11
226.74778699999999
 21
812.09168399999987
 31
0.0
  0
LINE
  5
128
  8
0
 62
     7
 10
169.318039
 20
771.59174499999995
 30
0.0
 11
170.35990899999999
 21
777.50059699999986
 31
0.0
  0
LINE
  5
129
  8
0
 62
     7
 10
169.318039
 20
771.59173799999985
 30
0.0
 11
168.27610799999991
 21
777.50058899999999
 31
0.0
  0
LINE
  5
12A
  8
0
 62
     7
 10
169.318039
 20
861.34168399999987
 30
0.0
 11
168.27610799999991
 21
855.43284000000006
 31
0.0
  0
LINE
  5
12B
  8
0
 62
     7
 10
169.318039
 20
861.34168399999987
 30
0.0
 11
170.35990899999999
 21
855.43284000000006
 31
0.0
  0
LINE
  5
12C
  8
0
 62
     7
 10
169.318039
 20
771.59174499999995
 30
0.0
 11
169.318039
 21
861.34168399999987
 31
0.0
  0
LINE
  5
12D
  8
0
 62
     7
 10
165.31803899999991
 20
861.34168399999987
 30
0.0
 11
192.99778699999999
 21
861.34168399999987
 31
0.0
  0
LINE
  5
12E
  8
0
 62
     7
 10
375.24778700000002
 20
905.99309699999992
 30
0.0
 11
369.33891299999988
 21
907.0349829999999
 31
0.0
  0
LINE
  5
12F
  8
0
 62
     7
 10
375.24778700000002
 20
905.99309699999992
 30
0.0
 11
369.33891299999988
 21
904.95121199999994
 31
0.0
  0
LINE
  5
130
  8
0
 62
     7
 10
279.24778700000002
 20
905.99309699999992
 30
0.0
 11
285.15666199999993
 21
904.95121199999994
 31
0.0
  0
LINE
  5
131
  8
0
 62
     7
 10
279.24778700000002
 20
905.99309699999992
 30
0.0
 11
285.15666199999993
 21
907.03499800000009
 31
0.0
  0
LINE
  5
132
  8
0
 62
     7
 10
279.24778700000002
 20
905.99309699999992
 30
0.0
 11
273.33891299999988
 21
907.0349829999999
 31
0.0
  0
LINE
  5
133
  8
0
 62
     7
 10
279.24778700000002
 20
905.99309699999992
 30
0.0
 11
273.33891299999988
 21
904.95121199999994
 31
0.0
  0
LINE
  5
134
  8
0
 62
     7
 10
200.74778699999999
 20
905.99309699999992
 30
0.0
 11
206.65666200000001
 21
904.95121199999994
 31
0.0
  0
LINE
  5
135
  8
0
 62
     7
 10
200.74778699999999
 20
905.99309699999992
 30
0.0
 11
206.65666200000001
 21
907.03499800000009
 31
0.0
  0
LINE
  5
136
  8
0
 62
     7
 10
375.24778700000002
 20
905.99309699999992
 30
0.0
 11
200.74778699999999
 21
905.99309699999992
 31
0.0
  0
LINE
  5
137
  8
0
 62
     7
 10
375.24778700000002
 20
909.99309700000003
 30
0.0
 11
375.24778700000002
 21
850.83544299999983
 31
0.0
  0
LINE
  5
138
  8
0
 62
     7
 10
279.24778700000002
 20
909.99309700000003
 30
0.0
 11
279.24778700000002
 21
876.54668600000002
 31
0.0
  0
LINE
  5
139
  8
0
 62
     7
 10
200.74778699999999
 20
909.99309700000003
 30
0.0
 11
200.74778699999999
 21
850.83544299999983
 31
0.0
  0
LINE
  5
13A
  8
0
 62
     7
 10
183.347702
 20
691.09174499999995
 30
0.0
 11
184.3895719999999
 21
697.00059299999998
 31
0.0
  0
LINE
  5
13B
  8
0
 62
     7
 10
183.347702
 20
691.09174499999995
 30
0.0
 11
182.30577099999999
 21
697.00058899999999
 31
0.0
  0
LINE
  5
13C
  8
0
 62
     7
 10
183.347702
 20
852.08544299999994
 30
0.0
 11
182.30577099999999
 21
846.17660000000001
 31
0.0
  0
LINE
  5
13D
  8
0
 62
     7
 10
183.347702
 20
852.08544299999994
 30
0.0
 11
184.3895719999999
 21
846.17660000000001
 31
0.0
  0
LINE
  5
13E
  8
0
 62
     7
 10
183.347702
 20
691.09174499999995
 30
0.0
 11
183.347702
 21
852.08544299999994
 31
0.0
  0
LINE
  5
13F
  8
0
 62
     7
 10
179.347702
 20
691.09174499999995
 30
0.0
 11
201.99778699999999
 21
691.09174499999995
 31
0.0
  0
LINE
  5
140
  8
0
 62
     7
 10
179.347702
 20
852.08544299999994
 30
0.0
 11
209.74778699999999
 21
852.08544299999994
 31
0.0
  0
LINE
  5
141
  8
0
 62
     7
 10
-86.525965999999997
 20
691.64172900000005
 30
0.0
 11
-158.52596600000001
 21
691.64172900000005
 31
0.0
  0
LINE
  5
142
  8
0
 62
     7
 10
-86.525965999999997
 20
686.34172999999998
 30
0.0
 11
-86.525965999999997
 21
702.09166899999991
 31
0.0
  0
LINE
  5
143
  8
0
 62
     7
 10
-86.525965999999997
 20
846.84168399999987
 30
0.0
 11
-86.525965999999997
 21
861.34171500000002
 31
0.0
  0
LINE
  5
144
  8
0
 62
     7
 10
-84.525965999999997
 20
848.17131999999992
 30
0.0
 11
-84.525965999999997
 21
848.34168399999999
 31
0.0
  0
LINE
  5
145
  8
0
 62
     7
 10
-84.525965999999997
 20
699.34169999999995
 30
0.0
 11
-86.525965999999997
 21
699.34169999999995
 31
0.0
  0
LINE
  5
146
  8
0
 62
     7
 10
-84.525965999999997
 20
848.34168399999999
 30
0.0
 11
-86.525965999999997
 21
848.34168399999999
 31
0.0
  0
LINE
  5
147
  8
0
 62
     7
 10
-86.525965999999997
 20
856.04172700000004
 30
0.0
 11
-180.72596299999989
 21
856.04172700000004
 31
0.0
  0
LINE
  5
148
  8
0
 62
     7
 10
-158.52596600000001
 20
691.64172900000005
 30
0.0
 11
-180.72596299999989
 21
691.64172900000005
 31
0.0
  0
LINE
  5
149
  8
0
 62
     3
 10
-158.52596600000001
 20
846.84168399999987
 30
0.0
 11
-158.52596600000001
 21
856.04172700000004
 31
0.0
  0
LINE
  5
14A
  8
0
 62
     7
 10
-180.72596299999989
 20
691.64173300000004
 30
0.0
 11
-180.72596299999989
 21
702.84166900000002
 31
0.0
  0
LINE
  5
14B
  8
0
 62
     7
 10
-180.72596299999989
 20
846.84168399999987
 30
0.0
 11
-180.72596299999989
 21
856.04172700000004
 31
0.0
  0
LINE
  5
14C
  8
0
 62
     6
 10
-37.02593499999999
 20
743.84167699999989
 30
0.0
 11
-39.025905000000002
 21
743.84168399999999
 31
0.0
  0
LINE
  5
14D
  8
0
 62
     6
 10
-37.02593499999999
 20
736.841677
 30
0.0
 11
-39.025905000000002
 21
736.84168399999999
 31
0.0
  0
LINE
  5
14E
  8
0
 62
     6
 10
-36.525934999999997
 20
689.84169999999995
 30
0.0
 11
-36.525934999999997
 21
714.84169999999995
 31
0.0
  0
LINE
  5
14F
  8
0
 62
     6
 10
-36.525919999999999
 20
832.84169999999995
 30
0.0
 11
-36.525919999999999
 21
857.84169999999995
 31
0.0
  0
LINE
  5
150
  8
0
 62
     3
 10
-47.525919999999992
 20
691.64170299999989
 30
0.0
 11
-84.525965999999997
 21
691.64170299999989
 31
0.0
  0
LINE
  5
151
  8
0
 62
     6
 10
-47.525919999999992
 20
688.84169999999995
 30
0.0
 11
-84.525965999999997
 21
688.84169999999995
 31
0.0
  0
LINE
  5
152
  8
0
 62
     6
 10
-47.525919999999992
 20
858.84169999999995
 30
0.0
 11
-84.525965999999997
 21
858.84169999999995
 31
0.0
  0
LINE
  5
153
  8
0
 62
     3
 10
-47.525919999999992
 20
856.04171199999996
 30
0.0
 11
-84.525965999999997
 21
856.04171199999996
 31
0.0
  0
LINE
  5
154
  8
0
 62
     6
 10
-84.525965999999997
 20
846.84168399999987
 30
0.0
 11
-84.525965999999997
 21
858.84169999999995
 31
0.0
  0
LINE
  5
155
  8
0
 62
     6
 10
-47.52593499999999
 20
688.84169399999996
 30
0.0
 11
-47.52593499999999
 21
689.84169999999995
 31
0.0
  0
LINE
  5
156
  8
0
 62
     3
 10
-84.525981000000016
 20
730.34168399999987
 30
0.0
 11
-83.526010999999997
 21
731.34169999999995
 31
0.0
  0
LINE
  5
157
  8
0
 62
     6
 10
-35.025919999999992
 20
717.34169599999996
 30
0.0
 11
-35.02593499999999
 21
730.34169199999997
 31
0.0
  0
LINE
  5
158
  8
0
 62
     6
 10
-35.02593499999999
 20
817.34168399999987
 30
0.0
 11
-35.025919999999992
 21
830.34168399999999
 31
0.0
  0
LINE
  5
159
  8
0
 62
     2
 10
-35.52593499999999
 20
830.84169999999995
 30
0.0
 11
-37.02593499999999
 21
830.84169999999995
 31
0.0
  0
LINE
  5
15A
  8
0
 62
     2
 10
-35.52593499999999
 20
716.84169999999995
 30
0.0
 11
-37.02593499999999
 21
716.84169999999995
 31
0.0
  0
LINE
  5
15B
  8
0
 62
     2
 10
-37.02593499999999
 20
830.34169999999995
 30
0.0
 11
-37.02593499999999
 21
830.84169999999995
 31
0.0
  0
LINE
  5
15C
  8
0
 62
     2
 10
-37.02593499999999
 20
730.34180599999991
 30
0.0
 11
-37.02593499999999
 21
817.34169999999983
 31
0.0
  0
LINE
  5
15D
  8
0
 62
     2
 10
-37.02593499999999
 20
716.84169999999995
 30
0.0
 11
-37.02593499999999
 21
717.34177599999987
 31
0.0
  0
LINE
  5
15E
  8
0
 62
     2
 10
-35.52593499999999
 20
716.84169999999995
 30
0.0
 11
-35.52593499999999
 21
717.34168399999987
 31
0.0
  0
LINE
  5
15F
  8
0
 62
     2
 10
-35.52593499999999
 20
730.34168399999987
 30
0.0
 11
-35.52593499999999
 21
817.34162300000003
 31
0.0
  0
LINE
  5
160
  8
0
 62
     2
 10
-35.52593499999999
 20
830.34162299999991
 30
0.0
 11
-35.52593499999999
 21
830.84169999999995
 31
0.0
  0
LINE
  5
161
  8
0
 62
     6
 10
-43.526164000000001
 20
689.84169999999995
 30
0.0
 11
-47.52593499999999
 21
689.84169999999995
 31
0.0
  0
LINE
  5
162
  8
0
 62
     6
 10
-43.525949999999987
 20
857.84169999999995
 30
0.0
 11
-47.525919999999992
 21
857.84169999999995
 31
0.0
  0
LINE
  5
163
  8
0
 62
     6
 10
-35.025919999999992
 20
717.34169999999995
 30
0.0
 11
-39.025905000000002
 21
717.34169999999995
 31
0.0
  0
LINE
  5
164
  8
0
 62
     6
 10
-35.02593499999999
 20
730.34169999999995
 30
0.0
 11
-39.025905000000002
 21
730.34169999999995
 31
0.0
  0
LINE
  5
165
  8
0
 62
     6
 10
-35.025919999999992
 20
830.34169999999995
 30
0.0
 11
-39.025919999999999
 21
830.34169999999995
 31
0.0
  0
LINE
  5
166
  8
0
 62
     6
 10
-35.02593499999999
 20
817.34169999999983
 30
0.0
 11
-39.025919999999999
 21
817.34169999999983
 31
0.0
  0
LINE
  5
167
  8
0
 62
     6
 10
-37.02593499999999
 20
813.84169999999995
 30
0.0
 11
-39.025919999999999
 21
813.84169999999995
 31
0.0
  0
LINE
  5
168
  8
0
 62
     6
 10
-37.02593499999999
 20
805.84169999999995
 30
0.0
 11
-39.025919999999999
 21
805.84169999999995
 31
0.0
  0
LINE
  5
169
  8
0
  6
DASHDOT
 62
     7
 10
-21.805292999999988
 20
823.84171500000002
 30
0.0
 11
-60.271014000000001
 21
823.84171500000002
 31
0.0
  0
LINE
  5
16A
  8
0
  6
DASHDOT
 62
     7
 10
-21.805292999999988
 20
723.84171500000002
 30
0.0
 11
-60.271014000000001
 21
723.84171500000002
 31
0.0
  0
LINE
  5
16B
  8
0
 62
     6
 10
-36.525919999999999
 20
857.84169999999995
 30
0.0
 11
-43.525949999999987
 21
857.84169999999995
 31
0.0
  0
LINE
  5
16C
  8
0
 62
     6
 10
-36.525919999999999
 20
832.84169999999995
 30
0.0
 11
-39.025919999999999
 21
832.84169999999995
 31
0.0
  0
LINE
  5
16D
  8
0
 62
     6
 10
-47.525919999999992
 20
857.84169999999995
 30
0.0
 11
-47.525919999999992
 21
858.84169999999995
 31
0.0
  0
LINE
  5
16E
  8
0
 62
     3
 10
-47.525919999999992
 20
846.84168399999987
 30
0.0
 11
-47.525919999999992
 21
857.84169999999995
 31
0.0
  0
LINE
  5
16F
  8
0
 62
     3
 10
-47.52593499999999
 20
689.84169999999995
 30
0.0
 11
-47.52593499999999
 21
706.84144000000003
 31
0.0
  0
LINE
  5
170
  8
0
 62
     6
 10
-36.525934999999997
 20
689.84169999999995
 30
0.0
 11
-43.526164000000001
 21
689.84169999999995
 31
0.0
  0
LINE
  5
171
  8
0
 62
     6
 10
-36.525934999999997
 20
714.84169999999995
 30
0.0
 11
-39.025905000000002
 21
714.84169999999995
 31
0.0
  0
LINE
  5
172
  8
0
  6
DASHDOT
 62
     7
 10
-35.025919999999992
 20
830.34169999999995
 30
0.0
 11
-35.025919999999992
 21
891.51998300000002
 31
0.0
  0
LINE
  5
173
  8
0
 62
     7
 10
-35.02593499999999
 20
730.34169999999995
 30
0.0
 11
-35.02593499999999
 21
817.34169999999983
 31
0.0
  0
LINE
  5
174
  8
0
  6
DASHDOT
 62
     7
 10
-35.025919999999992
 20
653.9087199999999
 30
0.0
 11
-35.025919999999992
 21
717.34169999999995
 31
0.0
  0
LINE
  5
175
  8
0
  6
DASHDOT
 62
     7
 10
-32.025919999999999
 20
652.85540100000003
 30
0.0
 11
-32.025919999999999
 21
892.5733130000001
 31
0.0
  0
POLYLINE
  5
176
  8
0
 62
     3
 66
     1
 10
0.0
 20
0.0
 30
0.0
  0
VERTEX
  5
AE1
  8
0
 62
     3
 10
-26.322520000000001
 20
650.74876299999994
 30
0.0
  0
VERTEX
  5
AE2
  8
0
 62
     3
 10
-38.426127000000001
 20
655.16302199999996
 30
0.0
  0
VERTEX
  5
AE3
  8
0
 62
     3
 10
-40.050867999999987
 20
653.62671099999989
 30
0.0
  0
VERTEX
  5
AE4
  8
0
 62
     3
 10
-39.619807000000002
 20
657.72722300000009
 30
0.0
  0
VERTEX
  5
AE5
  8
0
 62
     3
 10
-41.244532999999997
 20
656.19091200000003
 30
0.0
  0
SEQEND
  5
AE6
  8
0
 62
     3
  0
POLYLINE
  5
17D
  8
0
 62
     3
 66
     1
 10
0.0
 20
0.0
 30
0.0
  0
VERTEX
  5
AE7
  8
0
 62
     3
 10
-40.015665999999989
 20
884.76119400000005
 30
0.0
  0
VERTEX
  5
AE8
  8
0
 62
     3
 10
-28.24615
 20
893.97211600000014
 30
0.0
  0
VERTEX
  5
AE9
  8
0
 62
     3
 10
-28.691264
 20
896.16344600000002
 30
0.0
  0
VERTEX
  5
AEA
  8
0
 62
     3
 10
-25.438517999999998
 20
893.62972500000001
 30
0.0
  0
VERTEX
  5
AEB
  8
0
 62
     3
 10
-25.883631999999999
 20
895.82105399999989
 30
0.0
  0
SEQEND
  5
AEC
  8
0
 62
     3
  0
LINE
  5
184
  8
0
 62
     1
 10
-217.02590099999989
 20
737.841768
 30
0.0
 11
-217.02590099999989
 21
750.84157000000005
 31
0.0
  0
LINE
  5
185
  8
0
 62
     1
 10
-227.02590099999989
 20
691.09156599999994
 30
0.0
 11
-227.02590099999989
 21
852.09156199999995
 31
0.0
  0
LINE
  5
186
  8
0
 62
     1
 10
-227.02590099999989
 20
691.09156599999994
 30
0.0
 11
-230.52590099999989
 21
691.09156599999994
 31
0.0
  0
LINE
  5
187
  8
0
 62
     1
 10
-230.52590099999989
 20
691.09156599999994
 30
0.0
 11
-230.52590099999989
 21
735.84157000000005
 31
0.0
  0
LINE
  5
188
  8
0
 62
     1
 10
-230.52590099999989
 20
752.84157000000005
 30
0.0
 11
-230.52590099999989
 21
852.09156199999995
 31
0.0
  0
LINE
  5
189
  8
0
 62
     1
 10
-227.02590099999989
 20
852.09156199999995
 30
0.0
 11
-230.52590099999989
 21
852.09156199999995
 31
0.0
  0
LINE
  5
18A
  8
0
 62
     1
 10
-225.02590099999989
 20
774.59157000000005
 30
0.0
 11
-225.02590099999989
 21
833.59156200000007
 31
0.0
  0
LINE
  5
18B
  8
0
 62
     1
 10
-225.02590099999989
 20
750.84157799999991
 30
0.0
 11
-225.02590099999989
 21
768.59157800000003
 31
0.0
  0
LINE
  5
18C
  8
0
 62
     1
 10
-225.02590099999989
 20
709.59156600000006
 30
0.0
 11
-225.02590099999989
 21
737.84157800000003
 31
0.0
  0
LINE
  5
18D
  8
0
 62
     1
 10
-225.02590099999989
 20
709.59156600000006
 30
0.0
 11
-227.02590099999989
 21
709.59156600000006
 31
0.0
  0
LINE
  5
18E
  8
0
 62
     1
 10
-225.02590099999989
 20
833.59156200000007
 30
0.0
 11
-227.02590099999989
 21
833.59156200000007
 31
0.0
  0
LINE
  5
18F
  8
0
 62
     1
 10
-220.52590099999989
 20
698.16891699999996
 30
0.0
 11
-220.52590099999989
 21
703.01421500000004
 31
0.0
  0
LINE
  5
190
  8
0
 62
     1
 10
-220.52590099999989
 20
840.16890899999987
 30
0.0
 11
-220.52590099999989
 21
845.01421500000015
 31
0.0
  0
LINE
  5
191
  8
0
 62
     1
 10
-220.52590099999989
 20
769.16891699999996
 30
0.0
 11
-220.52590099999989
 21
774.01421500000004
 31
0.0
  0
LINE
  5
192
  8
0
 62
     3
 10
-229.52590099999989
 20
735.84157000000005
 30
0.0
 11
-230.52590099999989
 21
735.84157000000005
 31
0.0
  0
LINE
  5
193
  8
0
 62
     3
 10
-229.52590099999989
 20
735.84157000000005
 30
0.0
 11
-229.52590099999989
 21
752.84157000000005
 31
0.0
  0
LINE
  5
194
  8
0
 62
     3
 10
-229.52590099999989
 20
752.84157000000005
 30
0.0
 11
-230.52590099999989
 21
752.84157000000005
 31
0.0
  0
LINE
  5
195
  8
0
 62
     3
 10
-229.52590099999989
 20
732.84157000000005
 30
0.0
 11
-229.52590099999989
 21
735.84157000000005
 31
0.0
  0
LINE
  5
196
  8
0
 62
     3
 10
-229.52590099999989
 20
752.84157000000005
 30
0.0
 11
-229.52590099999989
 21
755.84157000000005
 31
0.0
  0
LINE
  5
197
  8
0
 62
     3
 10
-228.52590099999989
 20
732.84157000000005
 30
0.0
 11
-229.52590099999989
 21
732.84157000000005
 31
0.0
  0
LINE
  5
198
  8
0
 62
     3
 10
-228.52590099999989
 20
732.84157000000005
 30
0.0
 11
-228.52590099999989
 21
755.84157000000005
 31
0.0
  0
LINE
  5
199
  8
0
 62
     3
 10
-228.52590099999989
 20
755.84157000000005
 30
0.0
 11
-229.52590099999989
 21
755.84157000000005
 31
0.0
  0
LINE
  5
19A
  8
0
 62
     4
 10
-214.02583799999999
 20
717.84165800000005
 30
0.0
 11
-214.02588900000001
 21
721.84168399999987
 31
0.0
  0
LINE
  5
19B
  8
0
 62
     3
 10
-200.32718899999989
 20
710.84165399999995
 30
0.0
 11
-200.02588999999989
 21
710.84165800000005
 31
0.0
  0
LINE
  5
19C
  8
0
 62
     4
 10
-214.02588900000001
 20
706.84166100000004
 30
0.0
 11
-214.02583999999999
 21
710.84164599999986
 31
0.0
  0
LINE
  5
19D
  8
0
 62
     4
 10
-82.525949999999995
 20
706.84154299999989
 30
0.0
 11
-84.525949999999995
 21
706.84166900000002
 31
0.0
  0
LINE
  5
19E
  8
0
 62
     4
 10
-209.02588899999989
 20
706.84166100000004
 30
0.0
 11
-89.525965999999997
 21
706.84166900000002
 31
0.0
  0
LINE
  5
19F
  8
0
 62
     4
 10
-39.025919999999999
 20
846.84168399999987
 30
0.0
 11
-82.525965999999997
 21
846.84168399999987
 31
0.0
  0
LINE
  5
1A0
  8
0
 62
     4
 10
-39.025919999999999
 20
706.84141699999986
 30
0.0
 11
-82.525949999999995
 21
706.84154299999989
 31
0.0
  0
LINE
  5
1A1
  8
0
 62
     4
 10
-39.025919999999999
 20
706.84141699999986
 30
0.0
 11
-39.025905000000002
 21
717.841635
 31
0.0
  0
LINE
  5
1A2
  8
0
 62
     3
 10
-123.52590499999999
 20
814.84169999999995
 30
0.0
 11
-214.02588900000001
 21
814.84169999999995
 31
0.0
  0
LINE
  5
1A3
  8
0
 62
     3
 10
-123.52590499999999
 20
784.84165399999995
 30
0.0
 11
-158.025924
 21
784.84165399999995
 31
0.0
  0
LINE
  5
1A4
  8
0
 62
     4
 10
-214.02583999999999
 20
710.84164599999986
 30
0.0
 11
-214.02583799999999
 21
717.84165800000005
 31
0.0
  0
LINE
  5
1A5
  8
0
 62
     4
 10
-82.525965999999997
 20
846.84168399999987
 30
0.0
 11
-214.02588900000001
 21
846.84168399999987
 31
0.0
  0
LINE
  5
1A6
  8
0
 62
     4
 10
-214.02588900000001
 20
814.84169999999995
 30
0.0
 11
-214.02588900000001
 21
846.84168399999987
 31
0.0
  0
LINE
  5
1A7
  8
0
 62
     3
 10
-111.7759659999999
 20
710.84170700000004
 30
0.0
 11
-86.525949999999995
 21
710.84175300000004
 31
0.0
  0
LINE
  5
1A8
  8
0
 62
     3
 10
-152.65090499999999
 20
710.84168399999999
 30
0.0
 11
-115.7759659999999
 21
710.84170700000004
 31
0.0
  0
LINE
  5
1A9
  8
0
 62
     3
 10
-210.02578099999999
 20
710.84164599999986
 30
0.0
 11
-156.65090299999989
 21
710.84168099999999
 31
0.0
  0
LINE
  5
1AA
  8
0
 62
     3
 10
-210.02577099999999
 20
715.34165800000005
 30
0.0
 11
-156.650901
 21
715.34169199999985
 31
0.0
  0
LINE
  5
1AB
  8
0
 62
     3
 10
-152.650901
 20
715.34169599999996
 30
0.0
 11
-115.775958
 21
715.3417189999999
 31
0.0
  0
LINE
  5
1AC
  8
0
 62
     3
 10
-111.7759579999999
 20
715.341722
 30
0.0
 11
-86.525949999999995
 21
715.34173799999985
 31
0.0
  0
LINE
  5
1AD
  8
0
 62
     3
 10
-210.02578099999999
 20
710.84164599999986
 30
0.0
 11
-210.02577299999999
 21
715.34165800000005
 31
0.0
  0
LINE
  5
1AE
  8
0
 62
     3
 10
-86.525949999999995
 20
710.84175300000004
 30
0.0
 11
-86.525949999999995
 21
715.34173799999985
 31
0.0
  0
LINE
  5
1AF
  8
0
 62
     3
 10
-111.7759659999999
 20
710.84170700000004
 30
0.0
 11
-111.7759579999999
 21
715.34174199999995
 31
0.0
  0
LINE
  5
1B0
  8
0
 62
     3
 10
-115.7759659999999
 20
710.84170700000004
 30
0.0
 11
-115.775958
 21
715.34173799999985
 31
0.0
  0
LINE
  5
1B1
  8
0
 62
     3
 10
-152.65090499999999
 20
710.84168399999999
 30
0.0
 11
-152.650901
 21
715.34171500000002
 31
0.0
  0
LINE
  5
1B2
  8
0
 62
     3
 10
-156.65090299999989
 20
710.84168099999999
 30
0.0
 11
-156.65089900000001
 21
715.34171500000002
 31
0.0
  0
LINE
  5
1B3
  8
0
 62
     4
 10
-182.02589099999989
 20
702.84166900000002
 30
0.0
 11
-182.02589099999989
 21
706.84166900000002
 31
0.0
  0
LINE
  5
1B4
  8
0
 62
     4
 10
-178.02588999999989
 20
702.84166900000002
 30
0.0
 11
-178.02588999999989
 21
706.84166900000002
 31
0.0
  0
LINE
  5
1B5
  8
0
 62
     4
 10
-178.02588999999989
 20
702.84166900000002
 30
0.0
 11
-182.02589099999989
 21
702.84166900000002
 31
0.0
  0
LINE
  5
1B6
  8
0
 62
     4
 10
-98.275889000000021
 20
702.841722
 30
0.0
 11
-98.275889000000021
 21
706.84165399999995
 31
0.0
  0
LINE
  5
1B7
  8
0
 62
     4
 10
-94.275889000000006
 20
702.841722
 30
0.0
 11
-94.275889000000006
 21
706.84165399999995
 31
0.0
  0
LINE
  5
1B8
  8
0
 62
     4
 10
-94.275889000000006
 20
702.841722
 30
0.0
 11
-98.275889000000021
 21
702.841722
 31
0.0
  0
LINE
  5
1B9
  8
0
 62
     4
 10
-209.02588899999989
 20
702.09166899999991
 30
0.0
 11
-209.02588899999989
 21
704.59166900000002
 31
0.0
  0
LINE
  5
1BA
  8
0
 62
     4
 10
-214.02588900000001
 20
702.09166899999991
 30
0.0
 11
-214.02588900000001
 21
706.84166100000004
 31
0.0
  0
LINE
  5
1BB
  8
0
 62
     4
 10
-209.02588899999989
 20
702.09166899999991
 30
0.0
 11
-214.02588900000001
 21
702.09166899999991
 31
0.0
  0
LINE
  5
1BC
  8
0
 62
     4
 10
-209.02588899999989
 20
704.59166900000002
 30
0.0
 11
-209.02588899999989
 21
706.84166900000002
 31
0.0
  0
LINE
  5
1BD
  8
0
 62
     4
 10
-89.525981000000016
 20
702.09166899999991
 30
0.0
 11
-89.525981000000016
 21
704.59166900000002
 31
0.0
  0
LINE
  5
1BE
  8
0
 62
     4
 10
-84.525981000000016
 20
702.09166899999991
 30
0.0
 11
-89.525981000000016
 21
702.09166899999991
 31
0.0
  0
LINE
  5
1BF
  8
0
 62
     4
 10
-84.525981000000016
 20
702.09166899999991
 30
0.0
 11
-84.525949999999995
 21
706.84166900000002
 31
0.0
  0
LINE
  5
1C0
  8
0
 62
     4
 10
-89.525981000000016
 20
704.59166900000002
 30
0.0
 11
-89.525965999999997
 21
706.84165399999995
 31
0.0
  0
LINE
  5
1C1
  8
0
 62
     3
 10
-207.0258969999999
 20
826.34171500000002
 30
0.0
 11
-210.02589699999999
 21
829.34171499999991
 31
0.0
  0
LINE
  5
1C2
  8
0
 62
     4
 10
-214.02588900000001
 20
721.84168399999987
 30
0.0
 11
-214.02588900000001
 21
784.841677
 31
0.0
  0
LINE
  5
1C3
  8
0
 62
     3
 10
-158.02592799999991
 20
784.84166900000002
 30
0.0
 11
-214.02588900000001
 21
784.841677
 31
0.0
  0
LINE
  5
1C4
  8
0
 62
     3
 10
-123.52590499999999
 20
784.84165399999995
 30
0.0
 11
-123.52590499999999
 21
814.84169999999995
 31
0.0
  0
LINE
  5
1C5
  8
0
 62
     3
 10
-198.52589
 20
814.34169999999995
 30
0.0
 11
-198.52589
 21
814.84169999999995
 31
0.0
  0
LINE
  5
1C6
  8
0
 62
     3
 10
-111.7759659999999
 20
833.59168399999987
 30
0.0
 11
-86.525949999999995
 21
833.59169999999995
 31
0.0
  0
LINE
  5
1C7
  8
0
 62
     3
 10
-111.7759659999999
 20
826.34168399999987
 30
0.0
 11
-111.7759659999999
 21
833.59168399999987
 31
0.0
  0
LINE
  5
1C8
  8
0
 62
     3
 10
-111.7759659999999
 20
826.34168399999987
 30
0.0
 11
-86.525949999999995
 21
826.34169999999995
 31
0.0
  0
LINE
  5
1C9
  8
0
 62
     3
 10
-86.525949999999995
 20
826.34169999999995
 30
0.0
 11
-86.525949999999995
 21
833.59169999999995
 31
0.0
  0
LINE
  5
1CA
  8
0
 62
     3
 10
-156.65090299999989
 20
826.34169999999995
 30
0.0
 11
-156.65090299999989
 21
833.59169999999995
 31
0.0
  0
LINE
  5
1CB
  8
0
 62
     3
 10
-115.7759659999999
 20
826.34169999999995
 30
0.0
 11
-156.65090499999999
 21
826.34169999999995
 31
0.0
  0
LINE
  5
1CC
  8
0
 62
     3
 10
-115.7759659999999
 20
826.34169999999995
 30
0.0
 11
-115.7759659999999
 21
833.59169999999995
 31
0.0
  0
LINE
  5
1CD
  8
0
 62
     3
 10
-115.7759659999999
 20
833.59169999999995
 30
0.0
 11
-156.65090499999999
 21
833.59169999999995
 31
0.0
  0
LINE
  5
1CE
  8
0
 62
     3
 10
-160.65090299999989
 20
826.34169999999995
 30
0.0
 11
-210.02588700000001
 21
826.34169999999995
 31
0.0
  0
LINE
  5
1CF
  8
0
 62
     3
 10
-160.65090299999989
 20
826.34169999999995
 30
0.0
 11
-160.65090299999989
 21
833.59169999999995
 31
0.0
  0
LINE
  5
1D0
  8
0
 62
     3
 10
-160.65090299999989
 20
833.59169999999995
 30
0.0
 11
-210.02588700000001
 21
833.59169999999995
 31
0.0
  0
LINE
  5
1D1
  8
0
 62
     3
 10
-210.02588900000001
 20
826.34169999999995
 30
0.0
 11
-210.02588900000001
 21
833.59169999999995
 31
0.0
  0
LINE
  5
1D2
  8
0
 62
     3
 10
-200.02588999999989
 20
710.84165800000005
 30
0.0
 11
-200.02588999999989
 21
715.34168099999999
 31
0.0
  0
LINE
  5
1D3
  8
0
 62
     3
 10
-196.02588700000001
 20
710.84165800000005
 30
0.0
 11
-196.02588700000001
 21
715.34168399999999
 31
0.0
  0
LINE
  5
1D4
  8
0
 62
     3
 10
-210.02549799999991
 20
710.84161900000004
 30
0.0
 11
-210.025496
 21
715.34165800000005
 31
0.0
  0
LINE
  5
1D5
  8
0
 62
     4
 10
-214.02588900000001
 20
706.84160799999995
 30
0.0
 11
-214.0258859999999
 21
707.84168099999999
 31
0.0
  0
LINE
  5
1D6
  8
0
 62
     4
 10
-82.525957999999989
 20
706.84154299999989
 30
0.0
 11
-84.525949999999995
 21
706.84157400000004
 31
0.0
  0
LINE
  5
1D7
  8
0
 62
     4
 10
-39.025905000000002
 20
717.841635
 30
0.0
 11
-39.025919999999999
 21
846.84168399999987
 31
0.0
  0
LINE
  5
1D8
  8
0
 62
     3
 10
-111.72390300000001
 20
710.84168799999998
 30
0.0
 11
-111.72390300000001
 21
715.341722
 31
0.0
  0
LINE
  5
1D9
  8
0
 62
     3
 10
-115.7771789999999
 20
710.84164199999998
 30
0.0
 11
-115.7771789999999
 21
715.3417189999999
 31
0.0
  0
LINE
  5
1DA
  8
0
 62
     3
 10
-138.02588899999989
 20
814.34169999999995
 30
0.0
 11
-214.02588900000001
 21
814.34169999999995
 31
0.0
  0
LINE
  5
1DB
  8
0
 62
     3
 10
-138.02588899999989
 20
784.84165399999995
 30
0.0
 11
-138.02588899999989
 21
814.34169999999995
 31
0.0
  0
LINE
  5
1DC
  8
0
 62
     7
 10
-214.02588900000001
 20
784.841677
 30
0.0
 11
-214.02588900000001
 21
814.34169999999995
 31
0.0
  0
LINE
  5
1DD
  8
0
 62
   150
 10
-214.02585300000001
 20
719.09169199999985
 30
0.0
 11
-225.02590099999989
 21
719.09169199999985
 31
0.0
  0
LINE
  5
1DE
  8
0
 62
   150
 10
-214.02588900000001
 20
824.09174500000006
 30
0.0
 11
-225.02590099999989
 21
824.09174500000006
 31
0.0
  0
LINE
  5
1DF
  8
0
 62
   150
 10
-230.52619100000001
 20
719.59114299999987
 30
0.0
 11
-230.52590499999999
 21
719.59319100000005
 31
0.0
  0
LINE
  5
1E0
  8
0
 62
     1
 10
-217.02590099999989
 20
737.841768
 30
0.0
 11
-227.02590099999989
 21
737.841768
 31
0.0
  0
LINE
  5
1E1
  8
0
 62
     1
 10
-217.02590099999989
 20
750.84157000000005
 30
0.0
 11
-227.02590099999989
 21
750.84157000000005
 31
0.0
  0
LINE
  5
1E2
  8
0
 62
     1
 10
-230.52590099999989
 20
735.84157000000005
 30
0.0
 11
-230.52590099999989
 21
752.84157000000005
 31
0.0
  0
LINE
  5
1E3
  8
0
 62
     1
 10
-221.525901
 20
697.59156599999994
 30
0.0
 11
-227.02590099999989
 21
697.59156599999994
 31
0.0
  0
LINE
  5
1E4
  8
0
 62
     1
 10
-221.525901
 20
703.59156599999994
 30
0.0
 11
-227.02590099999989
 21
703.59156599999994
 31
0.0
  0
LINE
  5
1E5
  8
0
 62
     1
 10
-221.525901
 20
703.36320299999988
 30
0.0
 11
-221.525901
 21
703.59156599999994
 31
0.0
  0
LINE
  5
1E6
  8
0
 62
     1
 10
-221.525901
 20
702.71288499999991
 30
0.0
 11
-221.525901
 21
703.36320299999988
 31
0.0
  0
LINE
  5
1E7
  8
0
 62
     1
 10
-221.525901
 20
701.73961799999995
 30
0.0
 11
-221.525901
 21
702.71288499999991
 31
0.0
  0
LINE
  5
1E8
  8
0
 62
     1
 10
-221.525901
 20
700.59156599999994
 30
0.0
 11
-221.525901
 21
701.73961799999995
 31
0.0
  0
LINE
  5
1E9
  8
0
 62
     1
 10
-221.525901
 20
699.44351799999993
 30
0.0
 11
-221.525901
 21
700.59156599999994
 31
0.0
  0
LINE
  5
1EA
  8
0
 62
     1
 10
-221.525901
 20
698.47024699999997
 30
0.0
 11
-221.525901
 21
699.44351799999993
 31
0.0
  0
LINE
  5
1EB
  8
0
 62
     1
 10
-221.525901
 20
697.819929
 30
0.0
 11
-221.525901
 21
698.47024699999997
 31
0.0
  0
LINE
  5
1EC
  8
0
 62
     1
 10
-221.525901
 20
697.59156599999994
 30
0.0
 11
-221.525901
 21
697.819929
 31
0.0
  0
LINE
  5
1ED
  8
0
 62
     1
 10
-221.525901
 20
697.59156599999994
 30
0.0
 11
-220.52590099999989
 21
698.16891699999996
 31
0.0
  0
LINE
  5
1EE
  8
0
 62
     1
 10
-220.52589699999999
 20
703.01421500000004
 30
0.0
 11
-221.52589699999999
 21
703.59156599999994
 31
0.0
  0
LINE
  5
1EF
  8
0
 62
     1
 10
-221.525901
 20
839.59156199999995
 30
0.0
 11
-227.02590099999989
 21
839.59156199999995
 31
0.0
  0
LINE
  5
1F0
  8
0
 62
     1
 10
-221.525901
 20
845.59156199999984
 30
0.0
 11
-227.02590099999989
 21
845.59156199999984
 31
0.0
  0
LINE
  5
1F1
  8
0
 62
     1
 10
-221.525901
 20
845.3631989999999
 30
0.0
 11
-221.525901
 21
845.59156199999984
 31
0.0
  0
LINE
  5
1F2
  8
0
 62
     1
 10
-221.525901
 20
844.7128849999998
 30
0.0
 11
-221.525901
 21
845.3631989999999
 31
0.0
  0
LINE
  5
1F3
  8
0
 62
     1
 10
-221.525901
 20
843.73961799999995
 30
0.0
 11
-221.525901
 21
844.7128849999998
 31
0.0
  0
LINE
  5
1F4
  8
0
 62
     1
 10
-221.525901
 20
842.59156199999995
 30
0.0
 11
-221.525901
 21
843.73961799999995
 31
0.0
  0
LINE
  5
1F5
  8
0
 62
     1
 10
-221.525901
 20
841.44352100000015
 30
0.0
 11
-221.525901
 21
842.59156199999995
 31
0.0
  0
LINE
  5
1F6
  8
0
 62
     1
 10
-221.525901
 20
840.47023999999988
 30
0.0
 11
-221.525901
 21
841.44352100000015
 31
0.0
  0
LINE
  5
1F7
  8
0
 62
     1
 10
-221.525901
 20
839.81992500000013
 30
0.0
 11
-221.525901
 21
840.47023999999988
 31
0.0
  0
LINE
  5
1F8
  8
0
 62
     1
 10
-221.525901
 20
839.59156199999995
 30
0.0
 11
-221.525901
 21
839.81992500000013
 31
0.0
  0
LINE
  5
1F9
  8
0
 62
     1
 10
-221.525901
 20
839.59156199999995
 30
0.0
 11
-220.52590099999989
 21
840.16890899999987
 31
0.0
  0
LINE
  5
1FA
  8
0
 62
     1
 10
-220.52590099999989
 20
845.01421500000015
 30
0.0
 11
-221.525901
 21
845.59156199999984
 31
0.0
  0
LINE
  5
1FB
  8
0
 62
     1
 10
-221.525901
 20
768.59157000000005
 30
0.0
 11
-227.02590099999989
 21
768.59157000000005
 31
0.0
  0
LINE
  5
1FC
  8
0
 62
     1
 10
-221.525901
 20
774.59157000000005
 30
0.0
 11
-227.02590099999989
 21
774.59157000000005
 31
0.0
  0
LINE
  5
1FD
  8
0
 62
     1
 10
-221.525901
 20
774.36320699999999
 30
0.0
 11
-221.525901
 21
774.59157000000005
 31
0.0
  0
LINE
  5
1FE
  8
0
 62
     1
 10
-221.525901
 20
773.71288499999991
 30
0.0
 11
-221.525901
 21
774.36320699999999
 31
0.0
  0
LINE
  5
1FF
  8
0
 62
     1
 10
-221.525901
 20
772.73961799999995
 30
0.0
 11
-221.525901
 21
773.71288499999991
 31
0.0
  0
LINE
  5
200
  8
0
 62
     1
 10
-221.525901
 20
771.59157000000005
 30
0.0
 11
-221.525901
 21
772.73961799999995
 31
0.0
  0
LINE
  5
201
  8
0
 62
     1
 10
-221.525901
 20
770.44351399999994
 30
0.0
 11
-221.525901
 21
771.59157000000005
 31
0.0
  0
LINE
  5
202
  8
0
 62
     1
 10
-221.525901
 20
769.47024699999997
 30
0.0
 11
-221.525901
 21
770.44351399999994
 31
0.0
  0
LINE
  5
203
  8
0
 62
     1
 10
-221.525901
 20
768.81992500000001
 30
0.0
 11
-221.525901
 21
769.47024699999997
 31
0.0
  0
LINE
  5
204
  8
0
 62
     1
 10
-221.525901
 20
768.59157000000005
 30
0.0
 11
-221.525901
 21
768.81992500000001
 31
0.0
  0
LINE
  5
205
  8
0
 62
     1
 10
-221.525901
 20
768.59157000000005
 30
0.0
 11
-220.52590099999989
 21
769.16891699999996
 31
0.0
  0
LINE
  5
206
  8
0
 62
     1
 10
-220.52590099999989
 20
774.01421500000004
 30
0.0
 11
-221.525901
 21
774.59157000000005
 31
0.0
  0
LINE
  5
207
  8
0
 62
     3
 10
-207.02577099999991
 20
710.84167300000001
 30
0.0
 11
-207.0257729999999
 21
715.34167699999989
 31
0.0
  0
LINE
  5
208
  8
0
 62
     3
 10
-86.525949999999995
 20
827.84169999999995
 30
0.0
 11
-111.77594999999999
 21
827.84169999999995
 31
0.0
  0
LINE
  5
209
  8
0
 62
     3
 10
-115.775958
 20
827.84169999999995
 30
0.0
 11
-156.65089299999991
 21
827.84169999999995
 31
0.0
  0
LINE
  5
20A
  8
0
 62
     3
 10
-160.65089299999991
 20
827.84169999999995
 30
0.0
 11
-207.02588899999989
 21
827.84169999999995
 31
0.0
  0
LINE
  5
20B
  8
0
 62
     3
 10
-207.77588600000001
 20
827.09171500000002
 30
0.0
 11
-207.02588600000001
 21
827.84171500000014
 31
0.0
  0
LINE
  5
20C
  8
0
 62
     3
 10
-207.02588899999989
 20
827.84169999999995
 30
0.0
 11
-207.02588899999989
 21
833.59169999999995
 31
0.0
  0
CIRCLE
  5
20D
  8
0
 62
     4
 10
-202.02596699999989
 20
769.84163899999999
 30
0.0
 40
2.7500009999999988
  0
CIRCLE
  5
20E
  8
0
 62
     4
 10
-202.02596999999989
 20
769.84163899999999
 30
0.0
 40
10.0
  0
CIRCLE
  5
20F
  8
0
 62
     4
 10
-59.52593499999999
 20
823.84162300000003
 30
0.0
 40
6.0000609999999988
  0
CIRCLE
  5
210
  8
0
 62
     4
 10
-59.525919999999992
 20
823.84171500000002
 30
0.0
 40
3.25
  0
CIRCLE
  5
211
  8
0
 62
     4
 10
-59.525928
 20
723.84166100000004
 30
0.0
 40
6.0000080000000002
  0
CIRCLE
  5
212
  8
0
 62
     4
 10
-59.525958000000003
 20
723.84168099999999
 30
0.0
 40
3.249997
  0
LINE
  5
213
  8
0
  6
DASHDOT
 62
     7
 10
-59.525928
 20
714.84165399999995
 30
0.0
 11
-59.525928
 21
732.84166900000002
 31
0.0
  0
LINE
  5
214
  8
0
  6
DASHDOT
 62
     7
 10
-50.525919999999999
 20
723.84166100000004
 30
0.0
 11
-68.525935000000004
 21
723.84166100000004
 31
0.0
  0
LINE
  5
215
  8
0
  6
DASHDOT
 62
     7
 10
-59.52593499999999
 20
814.84156200000007
 30
0.0
 11
-59.52593499999999
 21
832.84168399999987
 31
0.0
  0
LINE
  5
216
  8
0
  6
DASHDOT
 62
     7
 10
-50.525874000000002
 20
823.84162300000003
 30
0.0
 11
-68.525995999999992
 21
823.84162300000003
 31
0.0
  0
LINE
  5
217
  8
0
 62
     7
 10
-84.525965999999997
 20
688.84169999999995
 30
0.0
 11
-84.525965999999997
 21
702.09166899999991
 31
0.0
  0
LINE
  5
218
  8
0
 62
     7
 10
-227.02590099999989
 20
852.09156199999995
 30
0.0
 11
-227.02590099999989
 21
905.11058999999989
 31
0.0
  0
LINE
  5
219
  8
0
 62
     7
 10
-225.02590099999989
 20
833.59156200000007
 30
0.0
 11
-225.02590099999989
 21
839.59156199999995
 31
0.0
  0
LINE
  5
21A
  8
0
 62
     7
 10
-227.02590099999989
 20
640.27202
 30
0.0
 11
-227.02590099999989
 21
691.09156599999994
 31
0.0
  0
LINE
  5
21B
  8
0
 62
     7
 10
-225.02590099999989
 20
640.87857799999995
 30
0.0
 11
-225.02590099999989
 21
697.59156599999994
 31
0.0
  0
POLYLINE
  5
21C
  8
0
 62
     3
 66
     1
 10
0.0
 20
0.0
 30
0.0
  0
VERTEX
  5
AED
  8
0
 62
     3
 10
-234.45502799999991
 20
638.01892499999985
 30
0.0
  0
VERTEX
  5
AEE
  8
0
 62
     3
 10
-219.14369300000001
 20
642.66252699999995
 30
0.0
  0
VERTEX
  5
AEF
  8
0
 62
     3
 10
-218.7671839999999
 20
644.866669
 30
0.0
  0
VERTEX
  5
AF0
  8
0
 62
     3
 10
-216.649325
 20
641.3290599999998
 30
0.0
  0
VERTEX
  5
AF1
  8
0
 62
     3
 10
-216.272819
 20
643.53320099999985
 30
0.0
  0
VERTEX
  5
AF2
  8
0
 62
     3
 10
-214.984557
 20
643.923903
 30
0.0
  0
SEQEND
  5
AF3
  8
0
 62
     3
  0
POLYLINE
  5
224
  8
0
 62
     3
 66
     1
 10
0.0
 20
0.0
 30
0.0
  0
VERTEX
  5
AF4
  8
0
 62
     3
 10
-236.21055899999999
 20
904.86010199999987
 30
0.0
  0
VERTEX
  5
AF5
  8
0
 62
     3
 10
-221.65410099999991
 20
905.25708999999995
 30
0.0
  0
VERTEX
  5
AF6
  8
0
 62
     3
 10
-220.70899900000001
 20
907.28360899999996
 30
0.0
  0
VERTEX
  5
AF7
  8
0
 62
     3
 10
-219.60032200000001
 20
903.31237199999998
 30
0.0
  0
VERTEX
  5
AF8
  8
0
 62
     3
 10
-218.65521699999999
 20
905.33887699999991
 30
0.0
  0
SEQEND
  5
AF9
  8
0
 62
     3
  0
LINE
  5
22B
  8
0
 62
     7
 10
-225.02590099999989
 20
704.09156599999994
 30
0.0
 11
-227.02590099999989
 21
704.09156599999994
 31
0.0
  0
LINE
  5
22C
  8
0
 62
     7
 10
-225.02590099999989
 20
697.09156600000006
 30
0.0
 11
-227.02590099999989
 21
697.09156600000006
 31
0.0
  0
LINE
  5
22D
  8
0
 62
     7
 10
-225.02590099999989
 20
839.09156199999995
 30
0.0
 11
-227.02590099999989
 21
839.09156199999995
 31
0.0
  0
LINE
  5
22E
  8
0
 62
     7
 10
-225.02590099999989
 20
846.09156199999995
 30
0.0
 11
-227.02590099999989
 21
846.09156199999995
 31
0.0
  0
LINE
  5
22F
  8
0
 62
     7
 10
-225.02590099999989
 20
845.59156199999984
 30
0.0
 11
-225.02590099999989
 21
905.16513999999995
 31
0.0
  0
LINE
  5
230
  8
0
 62
     7
 10
-225.02590099999989
 20
703.59156599999994
 30
0.0
 11
-225.02590099999989
 21
709.59156600000006
 31
0.0
  0
LINE
  5
231
  8
0
 62
     7
 10
-225.02590099999989
 20
708.59156599999994
 30
0.0
 11
-227.02590099999989
 21
708.59156599999994
 31
0.0
  0
LINE
  5
232
  8
0
 62
     7
 10
-225.02590099999989
 20
834.59156200000007
 30
0.0
 11
-227.02590099999989
 21
834.59156200000007
 31
0.0
  0
LINE
  5
233
  8
0
  6
DASHDOT
 62
     7
 10
-202.02596999999989
 20
756.84163899999999
 30
0.0
 11
-202.02596999999989
 21
782.84163899999999
 31
0.0
  0
LINE
  5
234
  8
0
  6
DASHDOT
 62
     7
 10
-189.02597
 20
769.84163899999999
 30
0.0
 11
-215.02597
 21
769.84163899999999
 31
0.0
  0
LINE
  5
235
  8
0
  6
DASHDOT
 62
     7
 10
32.629994000000003
 20
771.59174499999995
 30
0.0
 11
-275.290751
 21
771.59174499999995
 31
0.0
  0
LINE
  5
236
  8
0
 62
     7
 10
-86.525965999999997
 20
861.34171500000002
 30
0.0
 11
-185.0259659999999
 21
861.34171500000002
 31
0.0
  0
LINE
  5
237
  8
0
 62
     7
 10
-186.0259659999999
 20
846.84168399999987
 30
0.0
 11
-186.0259659999999
 21
860.34171500000002
 31
0.0
  0
LINE
  5
238
  8
0
 62
     7
 10
-86.525965999999997
 20
686.34172999999998
 30
0.0
 11
-185.0259659999999
 21
686.34172999999998
 31
0.0
  0
LINE
  5
239
  8
0
 62
     7
 10
-186.0259659999999
 20
687.34172999999987
 30
0.0
 11
-186.0259659999999
 21
706.84166100000004
 31
0.0
  0
ARC
  5
23A
  8
0
 62
     7
 10
-185.0259659999999
 20
687.34172999999987
 30
0.0
 40
1.0
 50
180.00000299999991
 51
270.00000499999987
  0
ARC
  5
23B
  8
0
 62
     7
 10
-185.0259659999999
 20
860.34171500000002
 30
0.0
 40
1.0
 50
90.0
 51
180.00000299999991
  0
CIRCLE
  5
23C
  8
0
 62
     7
 10
-136.771537
 20
851.13288299999999
 30
0.0
 40
0.25
  0
LINE
  5
23D
  8
0
  6
DASHDOT
 62
     7
 10
71.645634999999984
 20
845.34174499999995
 30
0.0
 11
-45.372340000000001
 21
845.34174499999995
 31
0.0
  0
LINE
  5
23E
  8
0
  6
DASHDOT
 62
     7
 10
68.572331000000005
 20
702.34174500000006
 30
0.0
 11
-46.18416899999999
 21
702.34174500000006
 31
0.0
  0
LINE
  5
23F
  8
0
 62
     9
 10
-20.525950000000002
 20
691.34174499999995
 30
0.0
 11
-20.525950000000002
 21
713.34174499999995
 31
0.0
  0
LINE
  5
240
  8
0
 62
     7
 10
-6.7259469999999988
 20
834.34174499999995
 30
0.0
 11
-6.7259469999999988
 21
839.77425600000015
 31
0.0
  0
LINE
  5
241
  8
0
 62
     7
 10
-6.7259469999999988
 20
840.05527699999993
 30
0.0
 11
-6.7259469999999988
 21
850.62822899999992
 31
0.0
  0
LINE
  5
242
  8
0
 62
     7
 10
-6.7259469999999988
 20
850.90925000000016
 30
0.0
 11
-6.7259469999999988
 21
856.34174499999995
 31
0.0
  0
LINE
  5
243
  8
0
 62
     7
 10
-4.2259469999999988
 20
834.34174499999995
 30
0.0
 11
-4.2259469999999988
 21
856.34174499999995
 31
0.0
  0
LINE
  5
244
  8
0
 62
     7
 10
1.774052999999999
 20
834.34174499999995
 30
0.0
 11
1.774052999999999
 21
856.34174499999995
 31
0.0
  0
LINE
  5
245
  8
0
 62
     7
 10
4.2740530000000003
 20
850.90923499999985
 30
0.0
 11
4.2740530000000003
 21
856.34174499999995
 31
0.0
  0
LINE
  5
246
  8
0
 62
     7
 10
4.2740530000000003
 20
840.05526199999986
 30
0.0
 11
4.2740530000000003
 21
850.62821400000007
 31
0.0
  0
LINE
  5
247
  8
0
 62
     7
 10
4.2740530000000003
 20
834.34174499999995
 30
0.0
 11
4.2740530000000003
 21
839.77423999999996
 31
0.0
  0
LINE
  5
248
  8
0
 62
     7
 10
-19.725947000000001
 20
852.21555499999999
 30
0.0
 11
-19.725947000000001
 21
854.9751829999999
 31
0.0
  0
LINE
  5
249
  8
0
 62
     7
 10
-19.725947000000001
 20
842.23084400000005
 30
0.0
 11
-19.725947000000001
 21
848.45263099999988
 31
0.0
  0
LINE
  5
24A
  8
0
 62
     7
 10
-19.725947000000001
 20
835.70830699999988
 30
0.0
 11
-19.725947000000001
 21
838.4679359999999
 31
0.0
  0
LINE
  5
24B
  8
0
 62
     3
 10
-13.725947
 20
834.37209500000006
 30
0.0
 11
-13.725947
 21
856.31139599999995
 31
0.0
  0
LINE
  5
24C
  8
0
 62
     3
 10
-19.725947000000001
 20
834.37209500000006
 30
0.0
 11
-19.725947000000001
 21
835.70830699999988
 31
0.0
  0
LINE
  5
24D
  8
0
 62
     3
 10
-19.725947000000001
 20
838.46792000000005
 30
0.0
 11
-19.725947000000001
 21
842.23084400000005
 31
0.0
  0
LINE
  5
24E
  8
0
 62
     3
 10
-19.725947000000001
 20
848.45263099999988
 30
0.0
 11
-19.725947000000001
 21
852.21555499999999
 31
0.0
  0
LINE
  5
24F
  8
0
 62
     3
 10
-19.725947000000001
 20
854.9751829999999
 30
0.0
 11
-19.725947000000001
 21
856.31139599999995
 31
0.0
  0
LINE
  5
250
  8
0
 62
     3
 10
-6.7259469999999988
 20
850.62821400000007
 30
0.0
 11
-6.7259469999999988
 21
850.90925000000016
 31
0.0
  0
LINE
  5
251
  8
0
 62
     3
 10
-6.7259469999999988
 20
839.77425600000015
 30
0.0
 11
-6.7259469999999988
 21
840.05526199999986
 31
0.0
  0
LINE
  5
252
  8
0
 62
     3
 10
-12.725946999999991
 20
834.37209500000006
 30
0.0
 11
-12.725946999999991
 21
856.31139599999995
 31
0.0
  0
LINE
  5
253
  8
0
 62
     3
 10
4.2740530000000003
 20
839.77425600000015
 30
0.0
 11
4.2740530000000003
 21
840.05526199999986
 31
0.0
  0
LINE
  5
254
  8
0
 62
     3
 10
4.2740530000000003
 20
850.62821400000007
 30
0.0
 11
4.2740530000000003
 21
850.90925000000016
 31
0.0
  0
LINE
  5
255
  8
0
 62
     3
 10
10.274053
 20
834.37209500000006
 30
0.0
 11
10.274053
 21
856.31139599999995
 31
0.0
  0
LINE
  5
256
  8
0
 62
   211
 10
12.97405
 20
841.34174499999983
 30
0.0
 11
12.97405
 21
849.34174499999995
 31
0.0
  0
LINE
  5
257
  8
0
 62
     9
 10
-20.525904999999991
 20
713.34174499999995
 30
0.0
 11
-20.525904999999991
 21
714.34174500000006
 31
0.0
  0
LINE
  5
258
  8
0
 62
     9
 10
-20.525904999999991
 20
690.34174499999995
 30
0.0
 11
-20.525904999999991
 21
691.34174499999995
 31
0.0
  0
LINE
  5
259
  8
0
 62
     7
 10
53.774053000000002
 20
691.34174499999995
 30
0.0
 11
53.774053000000002
 21
713.34174499999995
 31
0.0
  0
LINE
  5
25A
  8
0
 62
     7
 10
56.274053000000002
 20
707.90924299999995
 30
0.0
 11
56.274053000000002
 21
713.34174499999995
 31
0.0
  0
LINE
  5
25B
  8
0
 62
     7
 10
56.274053000000002
 20
697.05526899999995
 30
0.0
 11
56.274053000000002
 21
707.62822199999994
 31
0.0
  0
LINE
  5
25C
  8
0
 62
     7
 10
56.274053000000002
 20
691.34174499999995
 30
0.0
 11
56.274053000000002
 21
696.77424799999994
 31
0.0
  0
LINE
  5
25D
  8
0
 62
     7
 10
45.274053000000002
 20
691.34174499999995
 30
0.0
 11
45.274053000000002
 21
696.77424799999994
 31
0.0
  0
LINE
  5
25E
  8
0
 62
     7
 10
45.274053000000002
 20
697.05526899999995
 30
0.0
 11
45.274053000000002
 21
707.62822199999994
 31
0.0
  0
LINE
  5
25F
  8
0
 62
     7
 10
45.274053000000002
 20
707.90924299999995
 30
0.0
 11
45.274053000000002
 21
713.34174499999995
 31
0.0
  0
LINE
  5
260
  8
0
 62
     7
 10
47.774053000000002
 20
691.34174499999995
 30
0.0
 11
47.774053000000002
 21
713.34174499999995
 31
0.0
  0
LINE
  5
261
  8
0
 62
     7
 10
31.474049999999998
 20
692.34174499999995
 30
0.0
 11
31.474049999999998
 21
712.34174499999995
 31
0.0
  0
LINE
  5
262
  8
0
 62
     7
 10
32.274053000000002
 20
709.215551
 30
0.0
 11
32.274053000000002
 21
711.97518000000002
 31
0.0
  0
LINE
  5
263
  8
0
 62
     7
 10
32.274053000000002
 20
699.23083699999995
 30
0.0
 11
32.274053000000002
 21
705.45265400000005
 31
0.0
  0
LINE
  5
264
  8
0
 62
     7
 10
32.274053000000002
 20
692.70831099999987
 30
0.0
 11
32.274053000000002
 21
695.46793899999989
 31
0.0
  0
LINE
  5
265
  8
0
 62
     3
 10
56.274053000000002
 20
696.77424799999994
 30
0.0
 11
56.274053000000002
 21
697.05527300000006
 31
0.0
  0
LINE
  5
266
  8
0
 62
     3
 10
56.274053000000002
 20
707.62822500000004
 30
0.0
 11
56.274053000000002
 21
707.90924299999995
 31
0.0
  0
LINE
  5
267
  8
0
 62
     3
 10
62.274053000000002
 20
691.37209100000007
 30
0.0
 11
62.274053000000002
 21
713.31139900000005
 31
0.0
  0
LINE
  5
268
  8
0
 62
     3
 10
38.274053000000002
 20
691.37209100000007
 30
0.0
 11
38.274053000000002
 21
713.31139900000005
 31
0.0
  0
LINE
  5
269
  8
0
 62
     3
 10
32.274053000000002
 20
691.37209100000007
 30
0.0
 11
32.274053000000002
 21
692.70831099999987
 31
0.0
  0
LINE
  5
26A
  8
0
 62
     3
 10
32.274053000000002
 20
695.46793600000001
 30
0.0
 11
32.274053000000002
 21
699.23083699999995
 31
0.0
  0
LINE
  5
26B
  8
0
 62
     3
 10
32.274053000000002
 20
705.45265400000005
 30
0.0
 11
32.274053000000002
 21
709.215551
 31
0.0
  0
LINE
  5
26C
  8
0
 62
     3
 10
32.274053000000002
 20
711.97518000000002
 30
0.0
 11
32.274053000000002
 21
713.31139900000005
 31
0.0
  0
LINE
  5
26D
  8
0
 62
     3
 10
45.274053000000002
 20
707.62822500000004
 30
0.0
 11
45.274053000000002
 21
707.90923899999996
 31
0.0
  0
LINE
  5
26E
  8
0
 62
     3
 10
45.274053000000002
 20
696.77424799999994
 30
0.0
 11
45.274053000000002
 21
697.05527300000006
 31
0.0
  0
LINE
  5
26F
  8
0
 62
     3
 10
39.274053000000002
 20
691.37209100000007
 30
0.0
 11
39.274053000000002
 21
713.31139900000005
 31
0.0
  0
LINE
  5
270
  8
0
 62
   211
 10
64.974050000000005
 20
698.34174500000006
 30
0.0
 11
64.974050000000005
 21
706.34174500000006
 31
0.0
  0
LINE
  5
271
  8
0
 62
     9
 10
-21.525950000000002
 20
690.34174499999995
 30
0.0
 11
-36.525950000000002
 21
690.34174499999995
 31
0.0
  0
LINE
  5
272
  8
0
 62
     9
 10
-20.525950000000002
 20
713.34174499999995
 30
0.0
 11
-21.525950000000002
 21
714.34174500000006
 31
0.0
  0
LINE
  5
273
  8
0
 62
     9
 10
-21.525950000000002
 20
690.34174299999995
 30
0.0
 11
-20.525950000000002
 21
691.34174299999995
 31
0.0
  0
LINE
  5
274
  8
0
 62
     7
 10
-4.2259469999999988
 20
856.34174499999995
 30
0.0
 11
-6.7259469999999988
 21
856.34174499999995
 31
0.0
  0
LINE
  5
275
  8
0
 62
     7
 10
-4.2259469999999988
 20
834.34174499999995
 30
0.0
 11
-6.7259469999999988
 21
834.34174499999995
 31
0.0
  0
LINE
  5
276
  8
0
 62
     7
 10
4.2740530000000003
 20
856.34174499999995
 30
0.0
 11
1.774052999999999
 21
856.34174499999995
 31
0.0
  0
LINE
  5
277
  8
0
 62
     7
 10
4.2740530000000003
 20
834.34174499999995
 30
0.0
 11
1.774052999999999
 21
834.34174499999995
 31
0.0
  0
LINE
  5
278
  8
0
 62
     7
 10
-19.725947000000001
 20
855.34174499999995
 30
0.0
 11
-20.525950000000002
 21
855.34174499999995
 31
0.0
  0
LINE
  5
279
  8
0
 62
     7
 10
-19.725947000000001
 20
835.34174499999995
 30
0.0
 11
-20.525950000000002
 21
835.34174499999995
 31
0.0
  0
LINE
  5
27A
  8
0
 62
     3
 10
-13.725947
 20
856.31139599999995
 30
0.0
 11
-19.725947000000001
 21
856.31139599999995
 31
0.0
  0
LINE
  5
27B
  8
0
 62
     3
 10
-13.725947
 20
850.82657799999981
 30
0.0
 11
-19.725947000000001
 21
850.82657799999981
 31
0.0
  0
LINE
  5
27C
  8
0
 62
     3
 10
-13.725947
 20
839.85691299999996
 30
0.0
 11
-19.725947000000001
 21
839.85691299999996
 31
0.0
  0
LINE
  5
27D
  8
0
 62
     3
 10
-13.725947
 20
834.37209500000006
 30
0.0
 11
-19.725947000000001
 21
834.37209500000006
 31
0.0
  0
LINE
  5
27E
  8
0
 62
     3
 10
-6.7259469999999988
 20
856.31139599999995
 30
0.0
 11
-12.725946999999991
 21
856.31139599999995
 31
0.0
  0
LINE
  5
27F
  8
0
 62
     3
 10
-6.7259469999999988
 20
850.82657799999981
 30
0.0
 11
-12.725946999999991
 21
850.82657799999981
 31
0.0
  0
LINE
  5
280
  8
0
 62
     3
 10
-6.7259469999999988
 20
839.85691299999996
 30
0.0
 11
-12.725946999999991
 21
839.85691299999996
 31
0.0
  0
LINE
  5
281
  8
0
 62
     3
 10
-6.7259469999999988
 20
834.37209500000006
 30
0.0
 11
-12.725946999999991
 21
834.37209500000006
 31
0.0
  0
LINE
  5
282
  8
0
 62
     3
 10
10.274053
 20
856.31139599999995
 30
0.0
 11
4.2740530000000003
 21
856.31139599999995
 31
0.0
  0
LINE
  5
283
  8
0
 62
     3
 10
10.274053
 20
850.82657799999981
 30
0.0
 11
4.2740530000000003
 21
850.82657799999981
 31
0.0
  0
LINE
  5
284
  8
0
 62
     3
 10
10.274053
 20
839.85691299999996
 30
0.0
 11
4.2740530000000003
 21
839.85691299999996
 31
0.0
  0
LINE
  5
285
  8
0
 62
     3
 10
10.274053
 20
834.37209500000006
 30
0.0
 11
4.2740530000000003
 21
834.37209500000006
 31
0.0
  0
LINE
  5
286
  8
0
 62
   211
 10
12.97405
 20
849.34174499999995
 30
0.0
 11
10.974049999999989
 21
851.34174499999995
 31
0.0
  0
LINE
  5
287
  8
0
 62
   211
 10
10.974049999999989
 20
839.34174499999995
 30
0.0
 11
12.97405
 21
841.34174499999983
 31
0.0
  0
LINE
  5
288
  8
0
 62
   211
 10
10.974049999999989
 20
839.34174499999995
 30
0.0
 11
10.974049999999989
 21
839.63540099999989
 31
0.0
  0
LINE
  5
289
  8
0
 62
   211
 10
10.974049999999989
 20
839.63540099999989
 30
0.0
 11
10.974049999999989
 21
840.48765000000003
 31
0.0
  0
LINE
  5
28A
  8
0
 62
   211
 10
10.974049999999989
 20
840.48765000000003
 30
0.0
 11
10.974049999999989
 21
841.81502699999987
 31
0.0
  0
LINE
  5
28B
  8
0
 62
   211
 10
10.974049999999989
 20
841.81502699999987
 30
0.0
 11
10.974049999999989
 21
843.48764999999992
 31
0.0
  0
LINE
  5
28C
  8
0
 62
   211
 10
10.974049999999989
 20
843.48764999999992
 30
0.0
 11
10.974049999999989
 21
845.34174499999995
 31
0.0
  0
LINE
  5
28D
  8
0
 62
   211
 10
10.974049999999989
 20
845.34174499999995
 30
0.0
 11
10.974049999999989
 21
847.19584099999986
 31
0.0
  0
LINE
  5
28E
  8
0
 62
   211
 10
10.974049999999989
 20
847.19584099999986
 30
0.0
 11
10.974049999999989
 21
848.86846400000002
 31
0.0
  0
LINE
  5
28F
  8
0
 62
   211
 10
10.974049999999989
 20
848.86846400000002
 30
0.0
 11
10.974049999999989
 21
850.19584099999997
 31
0.0
  0
LINE
  5
290
  8
0
 62
   211
 10
10.974049999999989
 20
850.19584099999997
 30
0.0
 11
10.974049999999989
 21
851.04809000000012
 31
0.0
  0
LINE
  5
291
  8
0
 62
   211
 10
10.974049999999989
 20
851.04809000000012
 30
0.0
 11
10.974049999999989
 21
851.34174499999995
 31
0.0
  0
LINE
  5
292
  8
0
 62
   211
 10
10.974049999999989
 20
851.34174499999995
 30
0.0
 11
10.274053
 21
851.34174499999995
 31
0.0
  0
LINE
  5
293
  8
0
 62
   211
 10
1.774052999999999
 20
851.34174499999995
 30
0.0
 11
-4.2259469999999988
 21
851.34174499999995
 31
0.0
  0
LINE
  5
294
  8
0
 62
   211
 10
-12.725946999999991
 20
851.34174499999995
 30
0.0
 11
-13.725947
 21
851.34174499999995
 31
0.0
  0
LINE
  5
295
  8
0
 62
   211
 10
10.974049999999989
 20
839.34174499999995
 30
0.0
 11
10.274053
 21
839.34174499999995
 31
0.0
  0
LINE
  5
296
  8
0
 62
   211
 10
1.774052999999999
 20
839.34174499999995
 30
0.0
 11
-4.2259469999999988
 21
839.34174499999995
 31
0.0
  0
LINE
  5
297
  8
0
 62
   211
 10
-12.725946999999991
 20
839.34174499999995
 30
0.0
 11
-13.725947
 21
839.34174499999995
 31
0.0
  0
LINE
  5
298
  8
0
 62
     9
 10
-20.525904999999991
 20
714.34174500000006
 30
0.0
 11
-36.525934999999997
 21
714.34174500000006
 31
0.0
  0
LINE
  5
299
  8
0
 62
     9
 10
-20.525904999999991
 20
690.34174499999995
 30
0.0
 11
-21.525950000000002
 21
690.34174499999995
 31
0.0
  0
LINE
  5
29A
  8
0
 62
     9
 10
-12.725946999999991
 20
855.34174499999995
 30
0.0
 11
-13.725947
 21
855.34174499999995
 31
0.0
  0
LINE
  5
29B
  8
0
 62
     9
 10
1.774052999999999
 20
855.34174499999995
 30
0.0
 11
-4.2259469999999988
 21
855.34174499999995
 31
0.0
  0
LINE
  5
29C
  8
0
 62
     9
 10
30.474094999999998
 20
712.34174499999995
 30
0.0
 11
10.274053
 21
712.34174499999995
 31
0.0
  0
LINE
  5
29D
  8
0
 62
     9
 10
-12.725946999999991
 20
835.34174499999995
 30
0.0
 11
-13.725947
 21
835.34174499999995
 31
0.0
  0
LINE
  5
29E
  8
0
 62
     9
 10
1.774052999999999
 20
835.34174499999995
 30
0.0
 11
-4.2259469999999988
 21
835.34174499999995
 31
0.0
  0
LINE
  5
29F
  8
0
 62
     9
 10
30.474094999999998
 20
692.34174499999995
 30
0.0
 11
10.274053
 21
692.34174499999995
 31
0.0
  0
LINE
  5
2A0
  8
0
 62
     9
 10
31.181187999999992
 20
712.04885300000001
 30
0.0
 11
30.47407999999999
 21
712.34174900000005
 31
0.0
  0
LINE
  5
2A1
  8
0
 62
     9
 10
31.47407999999999
 20
711.34174900000005
 30
0.0
 11
31.181187999999992
 21
712.048857
 31
0.0
  0
LINE
  5
2A2
  8
0
 62
     9
 10
30.47407999999999
 20
692.34174299999995
 30
0.0
 11
31.181187999999992
 21
692.634636
 31
0.0
  0
LINE
  5
2A3
  8
0
 62
     9
 10
31.181187999999992
 20
692.634636
 30
0.0
 11
31.47407999999999
 21
693.34174199999995
 31
0.0
  0
LINE
  5
2A4
  8
0
 62
     7
 10
56.274053000000002
 20
713.34174499999995
 30
0.0
 11
53.774053000000002
 21
713.34174499999995
 31
0.0
  0
LINE
  5
2A5
  8
0
 62
     7
 10
56.274053000000002
 20
691.34174499999995
 30
0.0
 11
53.774053000000002
 21
691.34174499999995
 31
0.0
  0
LINE
  5
2A6
  8
0
 62
     7
 10
47.774053000000002
 20
713.34174499999995
 30
0.0
 11
45.274053000000002
 21
713.34174499999995
 31
0.0
  0
LINE
  5
2A7
  8
0
 62
     7
 10
47.774053000000002
 20
691.34174499999995
 30
0.0
 11
45.274053000000002
 21
691.34174499999995
 31
0.0
  0
LINE
  5
2A8
  8
0
 62
     7
 10
32.274053000000002
 20
712.34174499999995
 30
0.0
 11
31.474049999999998
 21
712.34174499999995
 31
0.0
  0
LINE
  5
2A9
  8
0
 62
     7
 10
32.274053000000002
 20
692.34174499999995
 30
0.0
 11
31.474049999999998
 21
692.34174499999995
 31
0.0
  0
LINE
  5
2AA
  8
0
 62
     3
 10
62.274053000000002
 20
713.31139900000005
 30
0.0
 11
56.274053000000002
 21
713.31139900000005
 31
0.0
  0
LINE
  5
2AB
  8
0
 62
     3
 10
62.274053000000002
 20
691.37209100000007
 30
0.0
 11
56.274053000000002
 21
691.37209100000007
 31
0.0
  0
LINE
  5
2AC
  8
0
 62
     3
 10
62.274053000000002
 20
696.85691600000007
 30
0.0
 11
56.274053000000002
 21
696.85691600000007
 31
0.0
  0
LINE
  5
2AD
  8
0
 62
     3
 10
62.274053000000002
 20
707.82657400000005
 30
0.0
 11
56.274053000000002
 21
707.82657400000005
 31
0.0
  0
LINE
  5
2AE
  8
0
 62
     3
 10
38.274053000000002
 20
713.31139900000005
 30
0.0
 11
32.274053000000002
 21
713.31139900000005
 31
0.0
  0
LINE
  5
2AF
  8
0
 62
     3
 10
38.274053000000002
 20
691.37209100000007
 30
0.0
 11
32.274053000000002
 21
691.37209100000007
 31
0.0
  0
LINE
  5
2B0
  8
0
 62
     3
 10
38.274053000000002
 20
707.82657400000005
 30
0.0
 11
32.274053000000002
 21
707.82657400000005
 31
0.0
  0
LINE
  5
2B1
  8
0
 62
     3
 10
38.274053000000002
 20
696.85691600000007
 30
0.0
 11
32.274053000000002
 21
696.85691600000007
 31
0.0
  0
LINE
  5
2B2
  8
0
 62
     3
 10
45.274053000000002
 20
713.31139900000005
 30
0.0
 11
39.274053000000002
 21
713.31139900000005
 31
0.0
  0
LINE
  5
2B3
  8
0
 62
     3
 10
45.274053000000002
 20
691.37209100000007
 30
0.0
 11
39.274053000000002
 21
691.37209100000007
 31
0.0
  0
LINE
  5
2B4
  8
0
 62
     3
 10
45.274053000000002
 20
707.82657400000005
 30
0.0
 11
39.274053000000002
 21
707.82657400000005
 31
0.0
  0
LINE
  5
2B5
  8
0
 62
     3
 10
45.274053000000002
 20
696.85691600000007
 30
0.0
 11
39.274053000000002
 21
696.85691600000007
 31
0.0
  0
LINE
  5
2B6
  8
0
 62
   211
 10
64.974050000000005
 20
706.34174900000005
 30
0.0
 11
62.974049999999998
 21
708.34174900000005
 31
0.0
  0
LINE
  5
2B7
  8
0
 62
   211
 10
62.974049999999998
 20
696.34174199999995
 30
0.0
 11
64.974050000000005
 21
698.34174199999995
 31
0.0
  0
LINE
  5
2B8
  8
0
 62
   211
 10
62.974049999999998
 20
708.34174499999995
 30
0.0
 11
62.274053000000002
 21
708.34174499999995
 31
0.0
  0
LINE
  5
2B9
  8
0
 62
   211
 10
53.774053000000002
 20
708.34174499999995
 30
0.0
 11
47.774053000000002
 21
708.34174499999995
 31
0.0
  0
LINE
  5
2BA
  8
0
 62
   211
 10
39.274053000000002
 20
708.34174499999995
 30
0.0
 11
38.274053000000002
 21
708.34174499999995
 31
0.0
  0
LINE
  5
2BB
  8
0
 62
   211
 10
62.974049999999998
 20
708.04808200000002
 30
0.0
 11
62.974049999999998
 21
708.34174499999995
 31
0.0
  0
LINE
  5
2BC
  8
0
 62
   211
 10
62.974049999999998
 20
707.19584800000007
 30
0.0
 11
62.974049999999998
 21
708.04808200000002
 31
0.0
  0
LINE
  5
2BD
  8
0
 62
   211
 10
62.974049999999998
 20
705.86845599999992
 30
0.0
 11
62.974049999999998
 21
707.19584800000007
 31
0.0
  0
LINE
  5
2BE
  8
0
 62
   211
 10
62.974049999999998
 20
704.19584799999996
 30
0.0
 11
62.974049999999998
 21
705.86845599999992
 31
0.0
  0
LINE
  5
2BF
  8
0
 62
   211
 10
62.974049999999998
 20
702.34174500000006
 30
0.0
 11
62.974049999999998
 21
704.19584799999996
 31
0.0
  0
LINE
  5
2C0
  8
0
 62
   211
 10
62.974049999999998
 20
700.48764199999994
 30
0.0
 11
62.974049999999998
 21
702.34174500000006
 31
0.0
  0
LINE
  5
2C1
  8
0
 62
   211
 10
62.974049999999998
 20
698.81503499999985
 30
0.0
 11
62.974049999999998
 21
700.48764199999994
 31
0.0
  0
LINE
  5
2C2
  8
0
 62
   211
 10
62.974049999999998
 20
697.48764199999994
 30
0.0
 11
62.974049999999998
 21
698.81503499999985
 31
0.0
  0
LINE
  5
2C3
  8
0
 62
   211
 10
62.974049999999998
 20
696.63540799999998
 30
0.0
 11
62.974049999999998
 21
697.48764199999994
 31
0.0
  0
LINE
  5
2C4
  8
0
 62
   211
 10
62.974049999999998
 20
696.34174499999995
 30
0.0
 11
62.274053000000002
 21
696.34174499999995
 31
0.0
  0
LINE
  5
2C5
  8
0
 62
   211
 10
53.774053000000002
 20
696.34174499999995
 30
0.0
 11
47.774053000000002
 21
696.34174499999995
 31
0.0
  0
LINE
  5
2C6
  8
0
 62
   211
 10
39.274053000000002
 20
696.34174499999995
 30
0.0
 11
38.274053000000002
 21
696.34174499999995
 31
0.0
  0
LINE
  5
2C7
  8
0
 62
   211
 10
62.974049999999998
 20
696.34174499999995
 30
0.0
 11
62.974049999999998
 21
696.63540799999998
 31
0.0
  0
LINE
  5
2C8
  8
0
 62
     9
 10
-20.525950000000002
 20
834.34174499999995
 30
0.0
 11
-20.525950000000002
 21
856.34174499999995
 31
0.0
  0
LINE
  5
2C9
  8
0
 62
     9
 10
-20.525904999999991
 20
856.34174499999995
 30
0.0
 11
-20.525904999999991
 21
857.34174499999995
 31
0.0
  0
LINE
  5
2CA
  8
0
 62
     9
 10
-20.525904999999991
 20
833.34174499999995
 30
0.0
 11
-20.525904999999991
 21
834.34174499999995
 31
0.0
  0
LINE
  5
2CB
  8
0
 62
     7
 10
53.774053000000002
 20
834.34174499999995
 30
0.0
 11
53.774053000000002
 21
856.34174499999995
 31
0.0
  0
LINE
  5
2CC
  8
0
 62
     7
 10
56.274053000000002
 20
850.90923499999985
 30
0.0
 11
56.274053000000002
 21
856.34174499999995
 31
0.0
  0
LINE
  5
2CD
  8
0
 62
     7
 10
56.274053000000002
 20
840.05526199999986
 30
0.0
 11
56.274053000000002
 21
850.62821400000007
 31
0.0
  0
LINE
  5
2CE
  8
0
 62
     7
 10
56.274053000000002
 20
834.34174499999995
 30
0.0
 11
56.274053000000002
 21
839.77423999999996
 31
0.0
  0
LINE
  5
2CF
  8
0
 62
     7
 10
45.274053000000002
 20
834.34174499999995
 30
0.0
 11
45.274053000000002
 21
839.77425600000015
 31
0.0
  0
LINE
  5
2D0
  8
0
 62
     7
 10
45.274053000000002
 20
840.05527699999993
 30
0.0
 11
45.274053000000002
 21
850.62822899999992
 31
0.0
  0
LINE
  5
2D1
  8
0
 62
     7
 10
45.274053000000002
 20
850.90925000000016
 30
0.0
 11
45.274053000000002
 21
856.34174499999995
 31
0.0
  0
LINE
  5
2D2
  8
0
 62
     7
 10
47.774053000000002
 20
834.34174499999995
 30
0.0
 11
47.774053000000002
 21
856.34174499999995
 31
0.0
  0
LINE
  5
2D3
  8
0
 62
     7
 10
31.474049999999998
 20
835.34174499999995
 30
0.0
 11
31.474049999999998
 21
855.34174499999995
 31
0.0
  0
LINE
  5
2D4
  8
0
 62
     7
 10
32.274053000000002
 20
852.21555499999999
 30
0.0
 11
32.274053000000002
 21
854.9751829999999
 31
0.0
  0
LINE
  5
2D5
  8
0
 62
     7
 10
32.274053000000002
 20
842.23082899999974
 30
0.0
 11
32.274053000000002
 21
848.45264600000007
 31
0.0
  0
LINE
  5
2D6
  8
0
 62
     7
 10
32.274053000000002
 20
835.70830699999988
 30
0.0
 11
32.274053000000002
 21
838.4679359999999
 31
0.0
  0
LINE
  5
2D7
  8
0
 62
     3
 10
56.274053000000002
 20
839.77423999999996
 30
0.0
 11
56.274053000000002
 21
840.05527699999993
 31
0.0
  0
LINE
  5
2D8
  8
0
 62
     3
 10
56.274053000000002
 20
850.62822899999992
 30
0.0
 11
56.274053000000002
 21
850.90923499999985
 31
0.0
  0
LINE
  5
2D9
  8
0
 62
     3
 10
62.274053000000002
 20
834.37209500000006
 30
0.0
 11
62.274053000000002
 21
856.31139599999995
 31
0.0
  0
LINE
  5
2DA
  8
0
 62
     3
 10
38.274053000000002
 20
834.37209500000006
 30
0.0
 11
38.274053000000002
 21
856.31139599999995
 31
0.0
  0
LINE
  5
2DB
  8
0
 62
     3
 10
32.274053000000002
 20
834.37209500000006
 30
0.0
 11
32.274053000000002
 21
835.70830699999988
 31
0.0
  0
LINE
  5
2DC
  8
0
 62
     3
 10
32.274053000000002
 20
838.4679359999999
 30
0.0
 11
32.274053000000002
 21
842.23082899999974
 31
0.0
  0
LINE
  5
2DD
  8
0
 62
     3
 10
32.274053000000002
 20
848.4526619999998
 30
0.0
 11
32.274053000000002
 21
852.21555499999999
 31
0.0
  0
LINE
  5
2DE
  8
0
 62
     3
 10
32.274053000000002
 20
854.9751829999999
 30
0.0
 11
32.274053000000002
 21
856.31139599999995
 31
0.0
  0
LINE
  5
2DF
  8
0
 62
     3
 10
45.274053000000002
 20
850.62822899999992
 30
0.0
 11
45.274053000000002
 21
850.90923499999985
 31
0.0
  0
LINE
  5
2E0
  8
0
 62
     3
 10
45.274053000000002
 20
839.77423999999996
 30
0.0
 11
45.274053000000002
 21
840.05527699999993
 31
0.0
  0
LINE
  5
2E1
  8
0
 62
     3
 10
39.274053000000002
 20
834.37209500000006
 30
0.0
 11
39.274053000000002
 21
856.31139599999995
 31
0.0
  0
LINE
  5
2E2
  8
0
 62
   211
 10
64.974050000000005
 20
841.34174499999983
 30
0.0
 11
64.974050000000005
 21
849.34174499999995
 31
0.0
  0
LINE
  5
2E3
  8
0
 62
     9
 10
-21.525950000000002
 20
857.34174499999995
 30
0.0
 11
-36.525950000000002
 21
857.34174499999995
 31
0.0
  0
LINE
  5
2E4
  8
0
 62
     9
 10
-21.525950000000002
 20
833.34174499999995
 30
0.0
 11
-36.525950000000002
 21
833.34174499999995
 31
0.0
  0
LINE
  5
2E5
  8
0
 62
     9
 10
-20.525950000000002
 20
856.34174499999995
 30
0.0
 11
-21.525950000000002
 21
857.34174499999995
 31
0.0
  0
LINE
  5
2E6
  8
0
 62
     9
 10
-21.525950000000002
 20
833.34174499999995
 30
0.0
 11
-20.525950000000002
 21
834.34174499999995
 31
0.0
  0
LINE
  5
2E7
  8
0
 62
     9
 10
-20.525904999999991
 20
857.34174499999995
 30
0.0
 11
-21.525950000000002
 21
857.34174499999995
 31
0.0
  0
LINE
  5
2E8
  8
0
 62
     9
 10
-20.525904999999991
 20
833.34174499999995
 30
0.0
 11
-21.525950000000002
 21
833.34174499999995
 31
0.0
  0
LINE
  5
2E9
  8
0
 62
     9
 10
30.474094999999998
 20
855.34174499999995
 30
0.0
 11
10.274053
 21
855.34174499999995
 31
0.0
  0
LINE
  5
2EA
  8
0
 62
     9
 10
30.474094999999998
 20
835.34174499999995
 30
0.0
 11
10.274053
 21
835.34174499999995
 31
0.0
  0
LINE
  5
2EB
  8
0
 62
     9
 10
31.181187999999992
 20
855.04885299999989
 30
0.0
 11
30.47407999999999
 21
855.34174499999995
 31
0.0
  0
LINE
  5
2EC
  8
0
 62
     9
 10
31.47407999999999
 20
854.34174499999995
 30
0.0
 11
31.181187999999992
 21
855.04885299999989
 31
0.0
  0
LINE
  5
2ED
  8
0
 62
     9
 10
30.47407999999999
 20
835.34174499999995
 30
0.0
 11
31.181187999999992
 21
835.63463799999988
 31
0.0
  0
LINE
  5
2EE
  8
0
 62
     9
 10
31.181187999999992
 20
835.63463799999988
 30
0.0
 11
31.47407999999999
 21
836.34174499999995
 31
0.0
  0
LINE
  5
2EF
  8
0
 62
     7
 10
56.274053000000002
 20
856.34174499999995
 30
0.0
 11
53.774053000000002
 21
856.34174499999995
 31
0.0
  0
LINE
  5
2F0
  8
0
 62
     7
 10
56.274053000000002
 20
834.34174499999995
 30
0.0
 11
53.774053000000002
 21
834.34174499999995
 31
0.0
  0
LINE
  5
2F1
  8
0
 62
     7
 10
47.774053000000002
 20
856.34174499999995
 30
0.0
 11
45.274053000000002
 21
856.34174499999995
 31
0.0
  0
LINE
  5
2F2
  8
0
 62
     7
 10
47.774053000000002
 20
834.34174499999995
 30
0.0
 11
45.274053000000002
 21
834.34174499999995
 31
0.0
  0
LINE
  5
2F3
  8
0
 62
     7
 10
32.274053000000002
 20
855.34174499999995
 30
0.0
 11
31.474049999999998
 21
855.34174499999995
 31
0.0
  0
LINE
  5
2F4
  8
0
 62
     7
 10
32.274053000000002
 20
835.34174499999995
 30
0.0
 11
31.474049999999998
 21
835.34174499999995
 31
0.0
  0
LINE
  5
2F5
  8
0
 62
     3
 10
62.274053000000002
 20
856.31139599999995
 30
0.0
 11
56.274053000000002
 21
856.31139599999995
 31
0.0
  0
LINE
  5
2F6
  8
0
 62
     3
 10
62.274053000000002
 20
834.37209500000006
 30
0.0
 11
56.274053000000002
 21
834.37209500000006
 31
0.0
  0
LINE
  5
2F7
  8
0
 62
     3
 10
62.274053000000002
 20
839.85691299999996
 30
0.0
 11
56.274053000000002
 21
839.85691299999996
 31
0.0
  0
LINE
  5
2F8
  8
0
 62
     3
 10
62.274053000000002
 20
850.82657799999981
 30
0.0
 11
56.274053000000002
 21
850.82657799999981
 31
0.0
  0
LINE
  5
2F9
  8
0
 62
     3
 10
38.274053000000002
 20
856.31139599999995
 30
0.0
 11
32.274053000000002
 21
856.31139599999995
 31
0.0
  0
LINE
  5
2FA
  8
0
 62
     3
 10
38.274053000000002
 20
834.37209500000006
 30
0.0
 11
32.274053000000002
 21
834.37209500000006
 31
0.0
  0
LINE
  5
2FB
  8
0
 62
     3
 10
38.274053000000002
 20
850.82657799999981
 30
0.0
 11
32.274053000000002
 21
850.82657799999981
 31
0.0
  0
LINE
  5
2FC
  8
0
 62
     3
 10
38.274053000000002
 20
839.85691299999996
 30
0.0
 11
32.274053000000002
 21
839.85691299999996
 31
0.0
  0
LINE
  5
2FD
  8
0
 62
     3
 10
45.274053000000002
 20
856.31139599999995
 30
0.0
 11
39.274053000000002
 21
856.31139599999995
 31
0.0
  0
LINE
  5
2FE
  8
0
 62
     3
 10
45.274053000000002
 20
834.37209500000006
 30
0.0
 11
39.274053000000002
 21
834.37209500000006
 31
0.0
  0
LINE
  5
2FF
  8
0
 62
     3
 10
45.274053000000002
 20
850.82657799999981
 30
0.0
 11
39.274053000000002
 21
850.82657799999981
 31
0.0
  0
LINE
  5
300
  8
0
 62
     3
 10
45.274053000000002
 20
839.85691299999996
 30
0.0
 11
39.274053000000002
 21
839.85691299999996
 31
0.0
  0
LINE
  5
301
  8
0
 62
   211
 10
64.974050000000005
 20
849.34174499999995
 30
0.0
 11
62.974049999999998
 21
851.34174499999995
 31
0.0
  0
LINE
  5
302
  8
0
 62
   211
 10
62.974049999999998
 20
839.34174499999995
 30
0.0
 11
64.974050000000005
 21
841.34174499999983
 31
0.0
  0
LINE
  5
303
  8
0
 62
   211
 10
62.974049999999998
 20
851.34174499999995
 30
0.0
 11
62.274053000000002
 21
851.34174499999995
 31
0.0
  0
LINE
  5
304
  8
0
 62
   211
 10
53.774053000000002
 20
851.34174499999995
 30
0.0
 11
47.774053000000002
 21
851.34174499999995
 31
0.0
  0
LINE
  5
305
  8
0
 62
   211
 10
39.274053000000002
 20
851.34174499999995
 30
0.0
 11
38.274053000000002
 21
851.34174499999995
 31
0.0
  0
LINE
  5
306
  8
0
 62
   211
 10
62.974049999999998
 20
851.04809000000012
 30
0.0
 11
62.974049999999998
 21
851.34174499999995
 31
0.0
  0
LINE
  5
307
  8
0
 62
   211
 10
62.974049999999998
 20
850.19584099999997
 30
0.0
 11
62.974049999999998
 21
851.04809000000012
 31
0.0
  0
LINE
  5
308
  8
0
 62
   211
 10
62.974049999999998
 20
848.86846400000002
 30
0.0
 11
62.974049999999998
 21
850.19584099999997
 31
0.0
  0
LINE
  5
309
  8
0
 62
   211
 10
62.974049999999998
 20
847.19584099999986
 30
0.0
 11
62.974049999999998
 21
848.86846400000002
 31
0.0
  0
LINE
  5
30A
  8
0
 62
   211
 10
62.974049999999998
 20
845.34174499999995
 30
0.0
 11
62.974049999999998
 21
847.19584099999986
 31
0.0
  0
LINE
  5
30B
  8
0
 62
   211
 10
62.974049999999998
 20
843.48764999999992
 30
0.0
 11
62.974049999999998
 21
845.34174499999995
 31
0.0
  0
LINE
  5
30C
  8
0
 62
   211
 10
62.974049999999998
 20
841.81502699999987
 30
0.0
 11
62.974049999999998
 21
843.48764999999992
 31
0.0
  0
LINE
  5
30D
  8
0
 62
   211
 10
62.974049999999998
 20
840.48765000000003
 30
0.0
 11
62.974049999999998
 21
841.81502699999987
 31
0.0
  0
LINE
  5
30E
  8
0
 62
   211
 10
62.974049999999998
 20
839.63540099999989
 30
0.0
 11
62.974049999999998
 21
840.48765000000003
 31
0.0
  0
LINE
  5
30F
  8
0
 62
   211
 10
62.974049999999998
 20
839.34174499999995
 30
0.0
 11
62.274053000000002
 21
839.34174499999995
 31
0.0
  0
LINE
  5
310
  8
0
 62
   211
 10
53.774053000000002
 20
839.34174499999995
 30
0.0
 11
47.774053000000002
 21
839.34174499999995
 31
0.0
  0
LINE
  5
311
  8
0
 62
   211
 10
39.274053000000002
 20
839.34174499999995
 30
0.0
 11
38.274053000000002
 21
839.34174499999995
 31
0.0
  0
LINE
  5
312
  8
0
 62
   211
 10
62.974049999999998
 20
839.34174499999995
 30
0.0
 11
62.974049999999998
 21
839.63540099999989
 31
0.0
  0
LINE
  5
313
  8
0
 62
     3
 10
64.974050000000005
 20
849.34174499999995
 30
0.0
 11
62.274053000000002
 21
849.34174499999995
 31
0.0
  0
LINE
  5
314
  8
0
 62
     3
 10
64.974050000000005
 20
841.34174499999983
 30
0.0
 11
62.274053000000002
 21
841.34174499999983
 31
0.0
  0
LINE
  5
315
  8
0
 62
     3
 10
64.974050000000005
 20
706.34174900000005
 30
0.0
 11
62.274053000000002
 21
706.34174900000005
 31
0.0
  0
LINE
  5
316
  8
0
 62
     3
 10
64.974050000000005
 20
698.34174500000006
 30
0.0
 11
62.274053000000002
 21
698.34174500000006
 31
0.0
  0
LINE
  5
317
  8
0
 62
     3
 10
12.97405
 20
849.34174499999995
 30
0.0
 11
10.274053
 21
849.34174499999995
 31
0.0
  0
LINE
  5
318
  8
0
 62
     3
 10
12.97405
 20
841.34174499999983
 30
0.0
 11
10.274053
 21
841.34174499999983
 31
0.0
  0
LINE
  5
319
  8
0
 62
     3
 10
1.774052999999999
 20
849.34174499999995
 30
0.0
 11
-4.2259469999999988
 21
849.34174499999995
 31
0.0
  0
LINE
  5
31A
  8
0
 62
     3
 10
1.774052999999999
 20
841.34174499999983
 30
0.0
 11
-4.2259469999999988
 21
841.34174499999983
 31
0.0
  0
LINE
  5
31B
  8
0
 62
     3
 10
53.774053000000002
 20
706.34174900000005
 30
0.0
 11
47.774053000000002
 21
706.34174900000005
 31
0.0
  0
LINE
  5
31C
  8
0
 62
     3
 10
53.774053000000002
 20
698.34174500000006
 30
0.0
 11
47.774053000000002
 21
698.34174500000006
 31
0.0
  0
LINE
  5
31D
  8
0
 62
     3
 10
53.774053000000002
 20
849.34174499999995
 30
0.0
 11
47.774053000000002
 21
849.34174499999995
 31
0.0
  0
LINE
  5
31E
  8
0
 62
     3
 10
53.774053000000002
 20
841.34174499999983
 30
0.0
 11
47.774053000000002
 21
841.34174499999983
 31
0.0
  0
CIRCLE
  5
31F
  8
0
 62
     7
 10
20.768208999999992
 20
696.56403499999999
 30
0.0
 40
0.25
  0
CIRCLE
  5
320
  8
0
 62
     7
 10
-64.478328000000005
 20
852.75527399999999
 30
0.0
 40
0.25
  0
LINE
  5
321
  8
0
 62
     7
 10
-215.52590299999989
 20
825.59174499999995
 30
0.0
 11
-218.02590799999999
 21
825.59174499999995
 31
0.0
  0
LINE
  5
322
  8
0
 62
     7
 10
-215.52590299999989
 20
825.59174499999995
 30
0.0
 11
-215.52590299999989
 21
836.09174499999995
 31
0.0
  0
LINE
  5
323
  8
0
 62
     7
 10
-219.02590799999999
 20
839.59174499999983
 30
0.0
 11
-221.52590799999999
 21
839.59174499999983
 31
0.0
  0
LINE
  5
324
  8
0
 62
     7
 10
-222.52590799999999
 20
845.59156199999984
 30
0.0
 11
-222.52590799999999
 21
848.59174499999983
 31
0.0
  0
LINE
  5
325
  8
0
 62
     7
 10
-222.52590799999999
 20
848.59174499999983
 30
0.0
 11
-225.02590099999989
 21
848.59174499999983
 31
0.0
  0
LINE
  5
326
  8
0
 62
     7
 10
-219.02590799999999
 20
837.09174499999995
 30
0.0
 11
-221.52590799999999
 21
837.09174499999995
 31
0.0
  0
LINE
  5
327
  8
0
 62
     7
 10
-218.02590799999999
 20
825.59174499999995
 30
0.0
 11
-218.02590799999999
 21
836.09174499999995
 31
0.0
  0
ARC
  5
328
  8
0
 62
     7
 10
-219.025924
 20
836.09172999999998
 30
0.0
 40
3.500017999999999
 50
0.000329
 51
89.999818999999988
  0
ARC
  5
329
  8
0
 62
     7
 10
-219.02586500000001
 20
836.09179100000006
 30
0.0
 40
0.9999499999999999
 50
359.99882599999989
 51
90.002235999999996
  0
ARC
  5
32A
  8
0
 62
     7
 10
-221.52592799999999
 20
840.59171500000002
 30
0.0
 40
3.4999709999999991
 50
196.60427499999989
 51
270.00034699999998
  0
LINE
  5
32B
  8
0
 62
     7
 10
-215.52590299999989
 20
834.59174499999995
 30
0.0
 11
-218.02590799999999
 21
834.59174499999995
 31
0.0
  0
LINE
  5
32C
  8
0
 62
     7
 10
-221.525901
 20
824.09174500000006
 30
0.0
 11
-221.525901
 21
831.09174500000006
 31
0.0
  0
LINE
  5
32D
  8
0
 62
     7
 10
-219.525901
 20
824.09174500000006
 30
0.0
 11
-219.525901
 21
831.09174500000006
 31
0.0
  0
LINE
  5
32E
  8
0
 62
     7
 10
-219.525901
 20
831.09174500000006
 30
0.0
 11
-221.525901
 21
831.09174500000006
 31
0.0
  0
LINE
  5
32F
  8
0
  6
DASHSPACE
 62
     7
 10
-258.02590499999991
 20
719.09169199999985
 30
0.0
 11
-258.02590499999991
 21
824.09174500000006
 31
0.0
  0
LINE
  5
330
  8
0
  6
DASHSPACE
 62
     7
 10
-238.3332089999999
 20
824.04134599999986
 30
0.0
 11
-258.02590499999991
 21
824.04134599999986
 31
0.0
  0
LINE
  5
331
  8
0
  6
DASHSPACE
 62
     7
 10
-236.53990799999991
 20
719.09169199999985
 30
0.0
 11
-258.02590499999991
 21
719.09169199999985
 31
0.0
  0
LINE
  5
332
  8
0
 62
     7
 10
-28.825923
 20
819.94172100000003
 30
0.0
 11
-28.825923
 21
827.74170900000001
 31
0.0
  0
LINE
  5
333
  8
0
 62
     7
 10
-25.625926
 20
821.84171500000002
 30
0.0
 11
-25.625926
 21
825.84171499999991
 31
0.0
  0
LINE
  5
334
  8
0
 62
     7
 10
-28.825923
 20
827.74170900000001
 30
0.0
 11
-32.025919999999999
 21
827.74170900000001
 31
0.0
  0
LINE
  5
335
  8
0
 62
     7
 10
-28.825923
 20
819.94172100000003
 30
0.0
 11
-32.025919999999999
 21
819.94172100000003
 31
0.0
  0
LINE
  5
336
  8
0
 62
     7
 10
-25.625926
 20
825.84171499999991
 30
0.0
 11
-32.025919999999999
 21
825.84171499999991
 31
0.0
  0
LINE
  5
337
  8
0
 62
     7
 10
-25.625926
 20
821.84171500000002
 30
0.0
 11
-32.025919999999999
 21
821.84171500000002
 31
0.0
  0
LINE
  5
338
  8
0
 62
     7
 10
-28.825923
 20
727.74171599999988
 30
0.0
 11
-32.025919999999999
 21
727.74171599999988
 31
0.0
  0
LINE
  5
339
  8
0
 62
     7
 10
-25.625926
 20
725.84171500000002
 30
0.0
 11
-32.025919999999999
 21
725.84171500000002
 31
0.0
  0
LINE
  5
33A
  8
0
 62
     7
 10
-25.625926
 20
721.84171500000002
 30
0.0
 11
-32.025919999999999
 21
721.84171500000002
 31
0.0
  0
LINE
  5
33B
  8
0
 62
     7
 10
-28.825923
 20
719.94171299999994
 30
0.0
 11
-32.025919999999999
 21
719.94171299999994
 31
0.0
  0
LINE
  5
33C
  8
0
 62
     7
 10
-28.825923
 20
719.94171299999994
 30
0.0
 11
-28.825923
 21
727.74171599999988
 31
0.0
  0
LINE
  5
33D
  8
0
 62
     7
 10
-25.625926
 20
721.84171500000002
 30
0.0
 11
-25.625926
 21
725.84171500000002
 31
0.0
  0
CIRCLE
  5
33E
  8
0
 62
     7
 10
-29.087046999999991
 20
723.67491299999995
 30
0.0
 40
0.2
  0
LINE
  5
33F
  8
0
 62
     7
 10
-6.7259469999999988
 20
691.34174499999995
 30
0.0
 11
-6.7259469999999988
 21
696.77424799999994
 31
0.0
  0
LINE
  5
340
  8
0
 62
     7
 10
-6.7259469999999988
 20
697.05526899999995
 30
0.0
 11
-6.7259469999999988
 21
707.62822199999994
 31
0.0
  0
LINE
  5
341
  8
0
 62
     7
 10
-6.7259469999999988
 20
707.90924299999995
 30
0.0
 11
-6.7259469999999988
 21
713.34174499999995
 31
0.0
  0
LINE
  5
342
  8
0
 62
     7
 10
-4.2259469999999988
 20
691.34174499999995
 30
0.0
 11
-4.2259469999999988
 21
713.34174499999995
 31
0.0
  0
LINE
  5
343
  8
0
 62
     7
 10
1.774052999999999
 20
691.34174499999995
 30
0.0
 11
1.774052999999999
 21
713.34174499999995
 31
0.0
  0
LINE
  5
344
  8
0
 62
     7
 10
4.2740530000000003
 20
707.90924299999995
 30
0.0
 11
4.2740530000000003
 21
713.34174499999995
 31
0.0
  0
LINE
  5
345
  8
0
 62
     7
 10
4.2740530000000003
 20
697.05526899999995
 30
0.0
 11
4.2740530000000003
 21
707.62822199999994
 31
0.0
  0
LINE
  5
346
  8
0
 62
     7
 10
4.2740530000000003
 20
691.34174499999995
 30
0.0
 11
4.2740530000000003
 21
696.77424799999994
 31
0.0
  0
LINE
  5
347
  8
0
 62
     7
 10
-19.725947000000001
 20
709.21555899999987
 30
0.0
 11
-19.725947000000001
 21
711.97518000000002
 31
0.0
  0
LINE
  5
348
  8
0
 62
     7
 10
-19.725947000000001
 20
699.23085199999991
 30
0.0
 11
-19.725947000000001
 21
705.45263899999986
 31
0.0
  0
LINE
  5
349
  8
0
 62
     7
 10
-19.725947000000001
 20
692.70831099999987
 30
0.0
 11
-19.725947000000001
 21
695.46793200000002
 31
0.0
  0
LINE
  5
34A
  8
0
 62
     3
 10
-13.725947
 20
691.37209100000007
 30
0.0
 11
-13.725947
 21
713.31139900000005
 31
0.0
  0
LINE
  5
34B
  8
0
 62
     3
 10
-19.725947000000001
 20
691.37209100000007
 30
0.0
 11
-19.725947000000001
 21
692.70831099999987
 31
0.0
  0
LINE
  5
34C
  8
0
 62
     3
 10
-19.725947000000001
 20
695.46792800000003
 30
0.0
 11
-19.725947000000001
 21
699.23085199999991
 31
0.0
  0
LINE
  5
34D
  8
0
 62
     3
 10
-19.725947000000001
 20
705.45263899999986
 30
0.0
 11
-19.725947000000001
 21
709.21555499999999
 31
0.0
  0
LINE
  5
34E
  8
0
 62
     3
 10
-19.725947000000001
 20
711.97518000000002
 30
0.0
 11
-19.725947000000001
 21
713.31139900000005
 31
0.0
  0
LINE
  5
34F
  8
0
 62
     3
 10
-6.7259469999999988
 20
707.62821799999995
 30
0.0
 11
-6.7259469999999988
 21
707.90924299999995
 31
0.0
  0
LINE
  5
350
  8
0
 62
     3
 10
-6.7259469999999988
 20
696.77424799999994
 30
0.0
 11
-6.7259469999999988
 21
697.05526199999986
 31
0.0
  0
LINE
  5
351
  8
0
 62
     3
 10
-12.725946999999991
 20
691.37209100000007
 30
0.0
 11
-12.725946999999991
 21
713.31139900000005
 31
0.0
  0
LINE
  5
352
  8
0
 62
     3
 10
4.2740530000000003
 20
696.77425199999993
 30
0.0
 11
4.2740530000000003
 21
697.05526500000008
 31
0.0
  0
LINE
  5
353
  8
0
 62
     3
 10
4.2740530000000003
 20
707.62821799999995
 30
0.0
 11
4.2740530000000003
 21
707.90924299999995
 31
0.0
  0
LINE
  5
354
  8
0
 62
     3
 10
10.274053
 20
691.37209100000007
 30
0.0
 11
10.274053
 21
713.31139900000005
 31
0.0
  0
LINE
  5
355
  8
0
 62
   211
 10
12.97405
 20
698.34174500000006
 30
0.0
 11
12.97405
 21
706.34174500000006
 31
0.0
  0
LINE
  5
356
  8
0
 62
     7
 10
-4.2259469999999988
 20
713.34174499999995
 30
0.0
 11
-6.7259469999999988
 21
713.34174499999995
 31
0.0
  0
LINE
  5
357
  8
0
 62
     7
 10
-4.2259469999999988
 20
691.34174499999995
 30
0.0
 11
-6.7259469999999988
 21
691.34174499999995
 31
0.0
  0
LINE
  5
358
  8
0
 62
     7
 10
4.2740530000000003
 20
713.34174499999995
 30
0.0
 11
1.774052999999999
 21
713.34174499999995
 31
0.0
  0
LINE
  5
359
  8
0
 62
     7
 10
4.2740530000000003
 20
691.34174499999995
 30
0.0
 11
1.774052999999999
 21
691.34174499999995
 31
0.0
  0
LINE
  5
35A
  8
0
 62
     7
 10
-19.725947000000001
 20
712.34174499999995
 30
0.0
 11
-20.525950000000002
 21
712.34174499999995
 31
0.0
  0
LINE
  5
35B
  8
0
 62
     7
 10
-19.725947000000001
 20
692.34174499999995
 30
0.0
 11
-20.525950000000002
 21
692.34174499999995
 31
0.0
  0
LINE
  5
35C
  8
0
 62
     3
 10
-13.725947
 20
713.31139900000005
 30
0.0
 11
-19.725947000000001
 21
713.31139900000005
 31
0.0
  0
LINE
  5
35D
  8
0
 62
     3
 10
-13.725947
 20
707.82657400000005
 30
0.0
 11
-19.725947000000001
 21
707.82657400000005
 31
0.0
  0
LINE
  5
35E
  8
0
 62
     3
 10
-13.725947
 20
696.85691600000007
 30
0.0
 11
-19.725947000000001
 21
696.85691600000007
 31
0.0
  0
LINE
  5
35F
  8
0
 62
     3
 10
-13.725947
 20
691.37209100000007
 30
0.0
 11
-19.725947000000001
 21
691.37209100000007
 31
0.0
  0
LINE
  5
360
  8
0
 62
     3
 10
-6.7259469999999988
 20
713.31139900000005
 30
0.0
 11
-12.725946999999991
 21
713.31139900000005
 31
0.0
  0
LINE
  5
361
  8
0
 62
     3
 10
-6.7259469999999988
 20
707.82657400000005
 30
0.0
 11
-12.725946999999991
 21
707.82657400000005
 31
0.0
  0
LINE
  5
362
  8
0
 62
     3
 10
-6.7259469999999988
 20
696.85691600000007
 30
0.0
 11
-12.725946999999991
 21
696.85691600000007
 31
0.0
  0
LINE
  5
363
  8
0
 62
     3
 10
-6.7259469999999988
 20
691.37209100000007
 30
0.0
 11
-12.725946999999991
 21
691.37209100000007
 31
0.0
  0
LINE
  5
364
  8
0
 62
     3
 10
10.274053
 20
713.31139900000005
 30
0.0
 11
4.2740530000000003
 21
713.31139900000005
 31
0.0
  0
LINE
  5
365
  8
0
 62
     3
 10
10.274053
 20
707.82657400000005
 30
0.0
 11
4.2740530000000003
 21
707.82657400000005
 31
0.0
  0
LINE
  5
366
  8
0
 62
     3
 10
10.274053
 20
696.85691600000007
 30
0.0
 11
4.2740530000000003
 21
696.85691600000007
 31
0.0
  0
LINE
  5
367
  8
0
 62
     3
 10
10.274053
 20
691.37209100000007
 30
0.0
 11
4.2740530000000003
 21
691.37209100000007
 31
0.0
  0
LINE
  5
368
  8
0
 62
   211
 10
12.97405
 20
706.34174500000006
 30
0.0
 11
10.974049999999989
 21
708.34174499999995
 31
0.0
  0
LINE
  5
369
  8
0
 62
   211
 10
10.974049999999989
 20
696.34174499999995
 30
0.0
 11
12.97405
 21
698.34174500000006
 31
0.0
  0
LINE
  5
36A
  8
0
 62
   211
 10
10.974049999999989
 20
696.34174499999995
 30
0.0
 11
10.974049999999989
 21
696.63540799999998
 31
0.0
  0
LINE
  5
36B
  8
0
 62
   211
 10
10.974049999999989
 20
696.63540799999998
 30
0.0
 11
10.974049999999989
 21
697.48764199999994
 31
0.0
  0
LINE
  5
36C
  8
0
 62
   211
 10
10.974049999999989
 20
697.48764199999994
 30
0.0
 11
10.974049999999989
 21
698.81503499999985
 31
0.0
  0
LINE
  5
36D
  8
0
 62
   211
 10
10.974049999999989
 20
698.81503499999985
 30
0.0
 11
10.974049999999989
 21
700.48764199999994
 31
0.0
  0
LINE
  5
36E
  8
0
 62
   211
 10
10.974049999999989
 20
700.48764199999994
 30
0.0
 11
10.974049999999989
 21
702.34174500000006
 31
0.0
  0
LINE
  5
36F
  8
0
 62
   211
 10
10.974049999999989
 20
702.34174500000006
 30
0.0
 11
10.974049999999989
 21
704.19584799999996
 31
0.0
  0
LINE
  5
370
  8
0
 62
   211
 10
10.974049999999989
 20
704.19584799999996
 30
0.0
 11
10.974049999999989
 21
705.86845599999992
 31
0.0
  0
LINE
  5
371
  8
0
 62
   211
 10
10.974049999999989
 20
705.86845599999992
 30
0.0
 11
10.974049999999989
 21
707.19584800000007
 31
0.0
  0
LINE
  5
372
  8
0
 62
   211
 10
10.974049999999989
 20
707.19584800000007
 30
0.0
 11
10.974049999999989
 21
708.04808200000002
 31
0.0
  0
LINE
  5
373
  8
0
 62
   211
 10
10.974049999999989
 20
708.04808200000002
 30
0.0
 11
10.974049999999989
 21
708.34174499999995
 31
0.0
  0
LINE
  5
374
  8
0
 62
   211
 10
10.974049999999989
 20
708.34174499999995
 30
0.0
 11
10.274053
 21
708.34174499999995
 31
0.0
  0
LINE
  5
375
  8
0
 62
   211
 10
1.774052999999999
 20
708.34174499999995
 30
0.0
 11
-4.2259469999999988
 21
708.34174499999995
 31
0.0
  0
LINE
  5
376
  8
0
 62
   211
 10
-12.725946999999991
 20
708.34174499999995
 30
0.0
 11
-13.725947
 21
708.34174499999995
 31
0.0
  0
LINE
  5
377
  8
0
 62
   211
 10
10.974049999999989
 20
696.34174499999995
 30
0.0
 11
10.274053
 21
696.34174499999995
 31
0.0
  0
LINE
  5
378
  8
0
 62
   211
 10
1.774052999999999
 20
696.34174499999995
 30
0.0
 11
-4.2259469999999988
 21
696.34174499999995
 31
0.0
  0
LINE
  5
379
  8
0
 62
   211
 10
-12.725946999999991
 20
696.34174499999995
 30
0.0
 11
-13.725947
 21
696.34174499999995
 31
0.0
  0
LINE
  5
37A
  8
0
 62
     9
 10
-12.725946999999991
 20
712.34174499999995
 30
0.0
 11
-13.725947
 21
712.34174499999995
 31
0.0
  0
LINE
  5
37B
  8
0
 62
     9
 10
1.774052999999999
 20
712.34174499999995
 30
0.0
 11
-4.2259469999999988
 21
712.34174499999995
 31
0.0
  0
LINE
  5
37C
  8
0
 62
     9
 10
-12.725946999999991
 20
692.34174499999995
 30
0.0
 11
-13.725947
 21
692.34174499999995
 31
0.0
  0
LINE
  5
37D
  8
0
 62
     9
 10
1.774052999999999
 20
692.34174499999995
 30
0.0
 11
-4.2259469999999988
 21
692.34174499999995
 31
0.0
  0
LINE
  5
37E
  8
0
 62
     3
 10
12.97405
 20
706.34174500000006
 30
0.0
 11
10.274053
 21
706.34174500000006
 31
0.0
  0
LINE
  5
37F
  8
0
 62
     3
 10
12.97405
 20
698.34174500000006
 30
0.0
 11
10.274053
 21
698.34174500000006
 31
0.0
  0
LINE
  5
380
  8
0
 62
     3
 10
1.774052999999999
 20
706.34174500000006
 30
0.0
 11
-4.2259469999999988
 21
706.34174500000006
 31
0.0
  0
LINE
  5
381
  8
0
 62
     3
 10
1.774052999999999
 20
698.34174500000006
 30
0.0
 11
-4.2259469999999988
 21
698.34174500000006
 31
0.0
  0
LINE
  5
382
  8
0
 62
     7
 10
-35.025905000000002
 20
625.16542600000002
 30
0.0
 11
-40.93471799999999
 21
626.20731499999988
 31
0.0
  0
LINE
  5
383
  8
0
 62
     7
 10
-35.025905000000002
 20
625.16542600000002
 30
0.0
 11
-40.93471799999999
 21
624.12353700000006
 31
0.0
  0
LINE
  5
384
  8
0
 62
     7
 10
-225.02590499999991
 20
625.16541900000004
 30
0.0
 11
-219.11709099999999
 21
624.12352899999985
 31
0.0
  0
LINE
  5
385
  8
0
 62
     7
 10
-225.02590499999991
 20
625.16541900000004
 30
0.0
 11
-219.11709099999999
 21
626.20730800000001
 31
0.0
  0
LINE
  5
386
  8
0
 62
     7
 10
-227.02590499999991
 20
625.16541900000004
 30
0.0
 11
-232.934718
 21
626.20730800000001
 31
0.0
  0
LINE
  5
387
  8
0
 62
     7
 10
-227.02590499999991
 20
625.16541900000004
 30
0.0
 11
-232.934718
 21
624.12352899999985
 31
0.0
  0
LINE
  5
388
  8
0
 62
     7
 10
-35.025905000000002
 20
625.16542600000002
 30
0.0
 11
-227.02590499999991
 21
625.16541900000004
 31
0.0
  0
LINE
  5
389
  8
0
 62
     7
 10
-35.025905000000002
 20
621.16542600000002
 30
0.0
 11
-35.025905000000002
 21
653.9087199999999
 31
0.0
  0
LINE
  5
38A
  8
0
 62
     7
 10
-225.02590499999991
 20
621.16541900000004
 30
0.0
 11
-225.02590499999991
 21
640.87857199999996
 31
0.0
  0
LINE
  5
38B
  8
0
 62
     7
 10
-227.02590499999991
 20
621.16541900000004
 30
0.0
 11
-227.02590499999991
 21
640.27201300000002
 31
0.0
  0
LINE
  5
38C
  8
0
 62
     7
 10
-35.025905000000002
 20
608.17830500000002
 30
0.0
 11
-40.93471799999999
 21
609.22019
 31
0.0
  0
LINE
  5
38D
  8
0
 62
     7
 10
-35.025905000000002
 20
608.17830500000002
 30
0.0
 11
-40.93471799999999
 21
607.13641200000006
 31
0.0
  0
LINE
  5
38E
  8
0
 62
     7
 10
-230.52590499999999
 20
608.17829699999993
 30
0.0
 11
-224.61709099999999
 21
607.13641200000006
 31
0.0
  0
LINE
  5
38F
  8
0
 62
     7
 10
-230.52590499999999
 20
608.17829699999993
 30
0.0
 11
-224.61709099999999
 21
609.22019
 31
0.0
  0
LINE
  5
390
  8
0
 62
     7
 10
-35.025905000000002
 20
608.17830500000002
 30
0.0
 11
-230.52590499999999
 21
608.17829699999993
 31
0.0
  0
LINE
  5
391
  8
0
 62
     7
 10
-35.025905000000002
 20
604.17830500000002
 30
0.0
 11
-35.025905000000002
 21
653.9087199999999
 31
0.0
  0
LINE
  5
392
  8
0
 62
     7
 10
-230.52590499999999
 20
604.17829699999993
 30
0.0
 11
-230.52590499999999
 21
691.09155799999996
 31
0.0
  0
LINE
  5
393
  8
0
 62
     7
 10
-268.66335600000002
 20
719.09169199999985
 30
0.0
 11
-267.62148599999989
 21
725.00054
 31
0.0
  0
LINE
  5
394
  8
0
 62
     7
 10
-268.66335600000002
 20
719.09169199999985
 30
0.0
 11
-269.70522599999993
 21
725.00054
 31
0.0
  0
LINE
  5
395
  8
0
 62
     7
 10
-268.66335600000002
 20
824.09174500000006
 30
0.0
 11
-269.70522599999993
 21
818.1829009999999
 31
0.0
  0
LINE
  5
396
  8
0
 62
     7
 10
-268.66335600000002
 20
824.09174500000006
 30
0.0
 11
-267.62148599999989
 21
818.1829009999999
 31
0.0
  0
LINE
  5
397
  8
0
 62
     7
 10
-268.66335600000002
 20
719.09169199999985
 30
0.0
 11
-268.66335600000002
 21
824.09174500000006
 31
0.0
  0
LINE
  5
398
  8
0
 62
     7
 10
-272.66335600000002
 20
719.09169199999985
 30
0.0
 11
-225.02590499999991
 21
719.09169199999985
 31
0.0
  0
LINE
  5
399
  8
0
 62
     7
 10
-272.66335600000002
 20
824.09174500000006
 30
0.0
 11
-225.02590499999991
 21
824.09174500000006
 31
0.0
  0
LINE
  5
39A
  8
0
 62
     7
 10
-152.293239
 20
769.84163899999999
 30
0.0
 11
-153.33510899999999
 21
763.93279500000006
 31
0.0
  0
LINE
  5
39B
  8
0
 62
     7
 10
-152.293239
 20
769.84163899999999
 30
0.0
 11
-151.2513689999999
 21
763.93279500000006
 31
0.0
  0
LINE
  5
39C
  8
0
 62
     7
 10
-152.293239
 20
771.59174499999995
 30
0.0
 11
-151.2513689999999
 21
777.50059699999986
 31
0.0
  0
LINE
  5
39D
  8
0
 62
     7
 10
-152.293239
 20
771.59174499999995
 30
0.0
 11
-153.33510899999999
 21
777.50059699999986
 31
0.0
  0
LINE
  5
39E
  8
0
 62
     7
 10
-152.293239
 20
741.84163899999987
 30
0.0
 11
-152.293239
 21
771.59174499999995
 31
0.0
  0
LINE
  5
39F
  8
0
 62
     7
 10
-148.293239
 20
769.84164599999986
 30
0.0
 11
-189.02602699999991
 21
769.84163899999999
 31
0.0
  0
LINE
  5
3A0
  8
0
 62
     7
 10
-148.293239
 20
771.59175300000004
 30
0.0
 11
-163.322169
 21
771.59174499999995
 31
0.0
  0
LINE
  5
3A1
  8
0
 62
     7
 10
-32.025905000000002
 20
639.35119399999996
 30
0.0
 11
-26.117090999999999
 21
638.30930899999998
 31
0.0
  0
LINE
  5
3A2
  8
0
 62
     7
 10
-32.025905000000002
 20
639.35119399999996
 30
0.0
 11
-26.117090999999999
 21
640.39308700000004
 31
0.0
  0
LINE
  5
3A3
  8
0
 62
     7
 10
-35.025905000000002
 20
639.35119399999996
 30
0.0
 11
-40.93471799999999
 21
640.39308399999993
 31
0.0
  0
LINE
  5
3A4
  8
0
 62
     7
 10
-35.025905000000002
 20
639.35119399999996
 30
0.0
 11
-40.93471799999999
 21
638.30930499999999
 31
0.0
  0
LINE
  5
3A5
  8
0
 62
     7
 10
-202.02590499999991
 20
639.35118699999998
 30
0.0
 11
-196.1170909999999
 21
638.309301
 31
0.0
  0
LINE
  5
3A6
  8
0
 62
     7
 10
-202.02590499999991
 20
639.35118699999998
 30
0.0
 11
-196.1170909999999
 21
640.39307999999994
 31
0.0
  0
LINE
  5
3A7
  8
0
 62
     7
 10
-7.4601089999999992
 20
639.35119799999995
 30
0.0
 11
-202.02590499999991
 21
639.35119099999986
 31
0.0
  0
LINE
  5
3A8
  8
0
 62
     7
 10
-32.025905000000002
 20
635.35119399999996
 30
0.0
 11
-32.025905000000002
 21
652.85540199999991
 31
0.0
  0
LINE
  5
3A9
  8
0
 62
     7
 10
-35.025905000000002
 20
635.35119399999996
 30
0.0
 11
-35.025905000000002
 21
653.9087199999999
 31
0.0
  0
LINE
  5
3AA
  8
0
 62
     7
 10
-202.02590499999991
 20
635.35118699999998
 30
0.0
 11
-202.026027
 21
756.84163099999989
 31
0.0
  0
LINE
  5
3AB
  8
0
 62
     7
 10
18.428563
 20
771.59174499999995
 30
0.0
 11
19.470493999999999
 21
777.50059699999986
 31
0.0
  0
LINE
  5
3AC
  8
0
 62
     7
 10
18.428563
 20
771.59174499999995
 30
0.0
 11
17.386693000000001
 21
777.50059699999986
 31
0.0
  0
LINE
  5
3AD
  8
0
 62
     7
 10
18.428563
 20
845.34174499999995
 30
0.0
 11
17.386693000000001
 21
839.4329009999999
 31
0.0
  0
LINE
  5
3AE
  8
0
 62
     7
 10
18.428563
 20
845.34174499999995
 30
0.0
 11
19.470493999999999
 21
839.4329009999999
 31
0.0
  0
LINE
  5
3AF
  8
0
 62
     7
 10
18.428563
 20
771.59174499999995
 30
0.0
 11
18.428563
 21
845.34174499999995
 31
0.0
  0
LINE
  5
3B0
  8
0
 62
     7
 10
50.571751999999996
 20
702.34174500000006
 30
0.0
 11
51.613683000000002
 21
708.25059299999987
 31
0.0
  0
LINE
  5
3B1
  8
0
 62
     7
 10
50.571751999999996
 20
702.34174500000006
 30
0.0
 11
49.529881000000003
 21
708.25059299999987
 31
0.0
  0
LINE
  5
3B2
  8
0
 62
     7
 10
50.571751999999996
 20
845.34174499999995
 30
0.0
 11
49.529881000000003
 21
839.4329009999999
 31
0.0
  0
LINE
  5
3B3
  8
0
 62
     7
 10
50.571751999999996
 20
845.34174499999995
 30
0.0
 11
51.613683000000002
 21
839.4329009999999
 31
0.0
  0
LINE
  5
3B4
  8
0
 62
     7
 10
50.571751999999996
 20
702.34174500000006
 30
0.0
 11
50.571751999999996
 21
845.34174499999995
 31
0.0
  0
LINE
  5
3B5
  8
0
 62
     7
 10
46.571751999999996
 20
702.34174500000006
 30
0.0
 11
68.572361999999998
 21
702.34174500000006
 31
0.0
  0
LINE
  5
3B6
  8
0
 62
     7
 10
46.571751999999996
 20
845.34174499999995
 30
0.0
 11
71.645665000000008
 21
845.34174499999995
 31
0.0
  0
LINE
  5
3B7
  8
0
 62
     7
 10
-230.52590499999999
 20
912.45876499999997
 30
0.0
 11
-224.61709099999999
 21
911.41688000000011
 31
0.0
  0
LINE
  5
3B8
  8
0
 62
     7
 10
-230.52590499999999
 20
912.45876499999997
 30
0.0
 11
-224.61709099999999
 21
913.50066600000002
 31
0.0
  0
LINE
  5
3B9
  8
0
 62
     7
 10
-258.02590499999991
 20
912.45876499999997
 30
0.0
 11
-263.93471799999998
 21
913.50064999999995
 31
0.0
  0
LINE
  5
3BA
  8
0
 62
     7
 10
-258.02590499999991
 20
912.45876499999997
 30
0.0
 11
-263.93471799999998
 21
911.41688000000011
 31
0.0
  0
LINE
  5
3BB
  8
0
 62
     7
 10
-105.930812
 20
912.45878000000005
 30
0.0
 11
-281.930812
 21
912.45876499999997
 31
0.0
  0
LINE
  5
3BC
  8
0
 62
     7
 10
-230.52590499999999
 20
916.45876500000008
 30
0.0
 11
-230.52590499999999
 21
852.09156199999995
 31
0.0
  0
LINE
  5
3BD
  8
0
 62
     7
 10
-258.02590499999991
 20
916.45876500000008
 30
0.0
 11
-258.02590499999991
 21
824.09174500000006
 31
0.0
  0
LINE
  5
3BE
  8
0
 62
     7
 10
-200.28200799999999
 20
767.71540300000004
 30
0.0
 11
-197.340236
 21
762.4860480000001
 31
0.0
  0
LINE
  5
3BF
  8
0
 62
     7
 10
-200.28200799999999
 20
767.71539500000006
 30
0.0
 11
-195.72902999999999
 21
763.80755799999986
 31
0.0
  0
LINE
  5
3C0
  8
0
 62
     7
 10
-203.7700449999999
 20
771.96788200000003
 30
0.0
 11
-206.7116959999999
 21
777.19722899999988
 31
0.0
  0
LINE
  5
3C1
  8
0
 62
     7
 10
-203.7700449999999
 20
771.9678899999999
 30
0.0
 11
-208.322902
 21
775.87572699999998
 31
0.0
  0
LINE
  5
3C2
  8
0
 62
     7
 10
-203.7700449999999
 20
771.9678899999999
 30
0.0
 11
-175.6294199999999
 21
737.66001299999994
 31
0.0
  0
LINE
  5
3C3
  8
0
  6
DASHDOT
 62
     7
 10
609.29187000000002
 20
926.04061300000012
 30
0.0
 11
609.29187000000002
 21
647.53009199999985
 31
0.0
  0
POLYLINE
  5
3C4
  8
0
 62
     3
 66
     1
 10
0.0
 20
0.0
 30
0.0
  0
VERTEX
  5
AFA
  8
0
 62
     3
 10
686.79187000000002
 20
879.41240099999993
 30
0.0
  0
VERTEX
  5
AFB
  8
0
 62
     3
 10
686.79187000000002
 20
863.41240099999982
 30
0.0
  0
VERTEX
  5
AFC
  8
0
 62
     3
 10
688.79187000000002
 20
862.41240099999993
 30
0.0
  0
VERTEX
  5
AFD
  8
0
 62
     3
 10
684.79187000000002
 20
861.41240099999993
 30
0.0
  0
VERTEX
  5
AFE
  8
0
 62
     3
 10
686.79187000000002
 20
860.41240099999993
 30
0.0
  0
VERTEX
  5
AFF
  8
0
 62
     3
 10
686.79187000000002
 20
844.41240099999993
 30
0.0
  0
VERTEX
  5
B00
  8
0
 62
     3
 10
688.79187000000002
 20
843.41240099999993
 30
0.0
  0
VERTEX
  5
B01
  8
0
 62
     3
 10
684.79187000000002
 20
842.41240099999993
 30
0.0
  0
VERTEX
  5
B02
  8
0
 62
     3
 10
686.79187000000002
 20
841.41240100000005
 30
0.0
  0
VERTEX
  5
B03
  8
0
 62
     3
 10
686.79187000000002
 20
825.41240099999993
 30
0.0
  0
VERTEX
  5
B04
  8
0
 62
     3
 10
688.79187000000002
 20
824.41240100000005
 30
0.0
  0
VERTEX
  5
B05
  8
0
 62
     3
 10
684.79187000000002
 20
823.41240099999982
 30
0.0
  0
VERTEX
  5
B06
  8
0
 62
     3
 10
686.79187000000002
 20
822.41240099999982
 30
0.0
  0
VERTEX
  5
B07
  8
0
 62
     3
 10
686.79187000000002
 20
806.41240099999982
 30
0.0
  0
VERTEX
  5
B08
  8
0
 62
     3
 10
688.79187000000002
 20
805.41240099999982
 30
0.0
  0
VERTEX
  5
B09
  8
0
 62
     3
 10
684.79187000000002
 20
804.41240099999993
 30
0.0
  0
VERTEX
  5
B0A
  8
0
 62
     3
 10
686.79187000000002
 20
803.41240099999993
 30
0.0
  0
VERTEX
  5
B0B
  8
0
 62
     3
 10
686.79187000000002
 20
787.41240099999993
 30
0.0
  0
VERTEX
  5
B0C
  8
0
 62
     3
 10
688.79187000000002
 20
786.41240099999993
 30
0.0
  0
VERTEX
  5
B0D
  8
0
 62
     3
 10
684.79187000000002
 20
785.41240099999993
 30
0.0
  0
VERTEX
  5
B0E
  8
0
 62
     3
 10
686.79187000000002
 20
784.41240099999993
 30
0.0
  0
VERTEX
  5
B0F
  8
0
 62
     3
 10
686.79187000000002
 20
768.41240099999993
 30
0.0
  0
VERTEX
  5
B10
  8
0
 62
     3
 10
688.79187000000002
 20
767.41240099999993
 30
0.0
  0
VERTEX
  5
B11
  8
0
 62
     3
 10
684.79187000000002
 20
766.41240099999993
 30
0.0
  0
VERTEX
  5
B12
  8
0
 62
     3
 10
686.79187000000002
 20
765.41240099999993
 30
0.0
  0
VERTEX
  5
B13
  8
0
 62
     3
 10
686.79187000000002
 20
749.41240099999993
 30
0.0
  0
VERTEX
  5
B14
  8
0
 62
     3
 10
688.79187000000002
 20
748.41240099999993
 30
0.0
  0
VERTEX
  5
B15
  8
0
 62
     3
 10
684.79187000000002
 20
747.41240099999993
 30
0.0
  0
VERTEX
  5
B16
  8
0
 62
     3
 10
686.79187000000002
 20
746.41240099999993
 30
0.0
  0
VERTEX
  5
B17
  8
0
 62
     3
 10
686.79187000000002
 20
730.41240099999993
 30
0.0
  0
VERTEX
  5
B18
  8
0
 62
     3
 10
688.79187000000002
 20
729.41240099999993
 30
0.0
  0
VERTEX
  5
B19
  8
0
 62
     3
 10
684.79187000000002
 20
728.41240099999993
 30
0.0
  0
VERTEX
  5
B1A
  8
0
 62
     3
 10
686.79187000000002
 20
727.41240099999993
 30
0.0
  0
VERTEX
  5
B1B
  8
0
 62
     3
 10
686.79187000000002
 20
711.41240099999993
 30
0.0
  0
VERTEX
  5
B1C
  8
0
 62
     3
 10
688.79187000000002
 20
710.41240099999993
 30
0.0
  0
VERTEX
  5
B1D
  8
0
 62
     3
 10
684.79187000000002
 20
709.41240099999993
 30
0.0
  0
VERTEX
  5
B1E
  8
0
 62
     3
 10
686.79187000000002
 20
708.41240099999993
 30
0.0
  0
VERTEX
  5
B1F
  8
0
 62
     3
 10
686.79187000000002
 20
692.41240099999993
 30
0.0
  0
VERTEX
  5
B20
  8
0
 62
     3
 10
688.79187000000002
 20
691.41240099999993
 30
0.0
  0
VERTEX
  5
B21
  8
0
 62
     3
 10
684.79187000000002
 20
690.41240099999993
 30
0.0
  0
VERTEX
  5
B22
  8
0
 62
     3
 10
686.79187000000002
 20
689.41240099999993
 30
0.0
  0
VERTEX
  5
B23
  8
0
 62
     3
 10
686.79187000000002
 20
674.34174499999995
 30
0.0
  0
SEQEND
  5
B24
  8
0
 62
     3
  0
POLYLINE
  5
3F0
  8
0
 62
     3
 66
     1
 10
0.0
 20
0.0
 30
0.0
  0
VERTEX
  5
B25
  8
0
 62
     3
 10
686.79187000000002
 20
674.34174499999995
 30
0.0
  0
VERTEX
  5
B26
  8
0
 62
     3
 10
670.79187000000002
 20
674.34174499999995
 30
0.0
  0
VERTEX
  5
B27
  8
0
 62
     3
 10
669.79187000000002
 20
672.34174499999995
 30
0.0
  0
VERTEX
  5
B28
  8
0
 62
     3
 10
668.7918699999999
 20
676.34174499999995
 30
0.0
  0
VERTEX
  5
B29
  8
0
 62
     3
 10
667.79187000000002
 20
674.34174499999995
 30
0.0
  0
VERTEX
  5
B2A
  8
0
 62
     3
 10
651.79187000000002
 20
674.34174499999995
 30
0.0
  0
VERTEX
  5
B2B
  8
0
 62
     3
 10
650.79187000000002
 20
672.34174499999995
 30
0.0
  0
VERTEX
  5
B2C
  8
0
 62
     3
 10
649.79187000000002
 20
676.34174499999995
 30
0.0
  0
VERTEX
  5
B2D
  8
0
 62
     3
 10
648.79187000000002
 20
674.34174499999995
 30
0.0
  0
VERTEX
  5
B2E
  8
0
 62
     3
 10
632.79187000000002
 20
674.34174499999995
 30
0.0
  0
VERTEX
  5
B2F
  8
0
 62
     3
 10
631.79187200000001
 20
672.34174499999995
 30
0.0
  0
VERTEX
  5
B30
  8
0
 62
     3
 10
630.7918719999999
 20
676.34174499999995
 30
0.0
  0
VERTEX
  5
B31
  8
0
 62
     3
 10
629.79187000000002
 20
674.34174499999995
 30
0.0
  0
VERTEX
  5
B32
  8
0
 62
     3
 10
613.79187100000001
 20
674.34174499999995
 30
0.0
  0
VERTEX
  5
B33
  8
0
 62
     3
 10
612.79187100000001
 20
672.34174499999995
 30
0.0
  0
VERTEX
  5
B34
  8
0
 62
     3
 10
611.79187100000001
 20
676.34174499999995
 30
0.0
  0
VERTEX
  5
B35
  8
0
 62
     3
 10
610.7918709999999
 20
674.34174499999995
 30
0.0
  0
VERTEX
  5
B36
  8
0
 62
     3
 10
594.79187100000001
 20
674.34174499999995
 30
0.0
  0
VERTEX
  5
B37
  8
0
 62
     3
 10
593.7918709999999
 20
672.34174499999995
 30
0.0
  0
VERTEX
  5
B38
  8
0
 62
     3
 10
592.79187200000001
 20
676.34174499999995
 30
0.0
  0
VERTEX
  5
B39
  8
0
 62
     3
 10
591.79187000000002
 20
674.34174499999995
 30
0.0
  0
VERTEX
  5
B3A
  8
0
 62
     3
 10
575.79187000000002
 20
674.34174499999995
 30
0.0
  0
VERTEX
  5
B3B
  8
0
 62
     3
 10
574.79187000000002
 20
672.34174499999995
 30
0.0
  0
VERTEX
  5
B3C
  8
0
 62
     3
 10
573.79187000000002
 20
676.34174499999995
 30
0.0
  0
VERTEX
  5
B3D
  8
0
 62
     3
 10
572.79187000000002
 20
674.34174499999995
 30
0.0
  0
VERTEX
  5
B3E
  8
0
 62
     3
 10
556.7918699999999
 20
674.34174499999995
 30
0.0
  0
VERTEX
  5
B3F
  8
0
 62
     3
 10
555.79187000000002
 20
672.34174499999995
 30
0.0
  0
VERTEX
  5
B40
  8
0
 62
     3
 10
554.79187000000002
 20
676.34174499999995
 30
0.0
  0
VERTEX
  5
B41
  8
0
 62
     3
 10
553.79187000000002
 20
674.34174499999995
 30
0.0
  0
VERTEX
  5
B42
  8
0
 62
     3
 10
537.79187000000002
 20
674.34174499999995
 30
0.0
  0
VERTEX
  5
B43
  8
0
 62
     3
 10
536.79187000000002
 20
672.34174499999995
 30
0.0
  0
VERTEX
  5
B44
  8
0
 62
     3
 10
535.7918699999999
 20
676.34174499999995
 30
0.0
  0
VERTEX
  5
B45
  8
0
 62
     3
 10
534.79187000000002
 20
674.34174499999995
 30
0.0
  0
VERTEX
  5
B46
  8
0
 62
     3
 10
518.7918699999999
 20
674.34174499999995
 30
0.0
  0
VERTEX
  5
B47
  8
0
 62
     3
 10
517.79187000000002
 20
672.34174499999995
 30
0.0
  0
VERTEX
  5
B48
  8
0
 62
     3
 10
516.79187000000002
 20
676.34174499999995
 30
0.0
  0
VERTEX
  5
B49
  8
0
 62
     3
 10
515.79187000000002
 20
674.34174499999995
 30
0.0
  0
VERTEX
  5
B4A
  8
0
 62
     3
 10
509.29187000000002
 20
674.34174499999995
 30
0.0
  0
SEQEND
  5
B4B
  8
0
 62
     3
  0
POLYLINE
  5
418
  8
0
 62
     3
 66
     1
 10
0.0
 20
0.0
 30
0.0
  0
VERTEX
  5
B4C
  8
0
 62
     3
 10
509.29187000000002
 20
879.41240099999993
 30
0.0
  0
VERTEX
  5
B4D
  8
0
 62
     3
 10
509.29187000000002
 20
863.41240099999982
 30
0.0
  0
VERTEX
  5
B4E
  8
0
 62
     3
 10
511.29187000000002
 20
862.41240099999993
 30
0.0
  0
VERTEX
  5
B4F
  8
0
 62
     3
 10
507.29187000000002
 20
861.41240099999993
 30
0.0
  0
VERTEX
  5
B50
  8
0
 62
     3
 10
509.29187000000002
 20
860.41240099999993
 30
0.0
  0
VERTEX
  5
B51
  8
0
 62
     3
 10
509.29187000000002
 20
844.41240099999993
 30
0.0
  0
VERTEX
  5
B52
  8
0
 62
     3
 10
511.29187000000002
 20
843.41240099999993
 30
0.0
  0
VERTEX
  5
B53
  8
0
 62
     3
 10
507.29187000000002
 20
842.41240099999993
 30
0.0
  0
VERTEX
  5
B54
  8
0
 62
     3
 10
509.29187000000002
 20
841.41240100000005
 30
0.0
  0
VERTEX
  5
B55
  8
0
 62
     3
 10
509.29187000000002
 20
825.41240099999993
 30
0.0
  0
VERTEX
  5
B56
  8
0
 62
     3
 10
511.29187000000002
 20
824.41240100000005
 30
0.0
  0
VERTEX
  5
B57
  8
0
 62
     3
 10
507.29187000000002
 20
823.41240099999982
 30
0.0
  0
VERTEX
  5
B58
  8
0
 62
     3
 10
509.29187000000002
 20
822.41240099999982
 30
0.0
  0
VERTEX
  5
B59
  8
0
 62
     3
 10
509.29187000000002
 20
806.41240099999982
 30
0.0
  0
VERTEX
  5
B5A
  8
0
 62
     3
 10
511.29187000000002
 20
805.41240099999982
 30
0.0
  0
VERTEX
  5
B5B
  8
0
 62
     3
 10
507.29187000000002
 20
804.41240099999993
 30
0.0
  0
VERTEX
  5
B5C
  8
0
 62
     3
 10
509.29187000000002
 20
803.41240099999993
 30
0.0
  0
VERTEX
  5
B5D
  8
0
 62
     3
 10
509.29187000000002
 20
787.41240099999993
 30
0.0
  0
VERTEX
  5
B5E
  8
0
 62
     3
 10
511.29187000000002
 20
786.41240099999993
 30
0.0
  0
VERTEX
  5
B5F
  8
0
 62
     3
 10
507.29187000000002
 20
785.41240099999993
 30
0.0
  0
VERTEX
  5
B60
  8
0
 62
     3
 10
509.29187000000002
 20
784.41240099999993
 30
0.0
  0
VERTEX
  5
B61
  8
0
 62
     3
 10
509.29187000000002
 20
768.41240099999993
 30
0.0
  0
VERTEX
  5
B62
  8
0
 62
     3
 10
511.29187000000002
 20
767.41240099999993
 30
0.0
  0
VERTEX
  5
B63
  8
0
 62
     3
 10
507.29187000000002
 20
766.41240099999993
 30
0.0
  0
VERTEX
  5
B64
  8
0
 62
     3
 10
509.29187000000002
 20
765.41240099999993
 30
0.0
  0
VERTEX
  5
B65
  8
0
 62
     3
 10
509.29187000000002
 20
749.41240099999993
 30
0.0
  0
VERTEX
  5
B66
  8
0
 62
     3
 10
511.29187000000002
 20
748.41240099999993
 30
0.0
  0
VERTEX
  5
B67
  8
0
 62
     3
 10
507.29187000000002
 20
747.41240099999993
 30
0.0
  0
VERTEX
  5
B68
  8
0
 62
     3
 10
509.29187000000002
 20
746.41240099999993
 30
0.0
  0
VERTEX
  5
B69
  8
0
 62
     3
 10
509.29187000000002
 20
730.41240099999993
 30
0.0
  0
VERTEX
  5
B6A
  8
0
 62
     3
 10
511.29187000000002
 20
729.41240099999993
 30
0.0
  0
VERTEX
  5
B6B
  8
0
 62
     3
 10
507.29187000000002
 20
728.41240099999993
 30
0.0
  0
VERTEX
  5
B6C
  8
0
 62
     3
 10
509.29187000000002
 20
727.41240099999993
 30
0.0
  0
VERTEX
  5
B6D
  8
0
 62
     3
 10
509.29187000000002
 20
711.41240099999993
 30
0.0
  0
VERTEX
  5
B6E
  8
0
 62
     3
 10
511.29187000000002
 20
710.41240099999993
 30
0.0
  0
VERTEX
  5
B6F
  8
0
 62
     3
 10
507.29187000000002
 20
709.41240099999993
 30
0.0
  0
VERTEX
  5
B70
  8
0
 62
     3
 10
509.29187000000002
 20
708.41240099999993
 30
0.0
  0
VERTEX
  5
B71
  8
0
 62
     3
 10
509.29187000000002
 20
692.41240099999993
 30
0.0
  0
VERTEX
  5
B72
  8
0
 62
     3
 10
511.29187000000002
 20
691.41240099999993
 30
0.0
  0
VERTEX
  5
B73
  8
0
 62
     3
 10
507.29187000000002
 20
690.41240099999993
 30
0.0
  0
VERTEX
  5
B74
  8
0
 62
     3
 10
509.29187000000002
 20
689.41240099999993
 30
0.0
  0
VERTEX
  5
B75
  8
0
 62
     3
 10
509.29187000000002
 20
674.34174499999995
 30
0.0
  0
SEQEND
  5
B76
  8
0
 62
     3
  0
POLYLINE
  5
444
  8
0
 62
     3
 66
     1
 10
0.0
 20
0.0
 30
0.0
  0
VERTEX
  5
B77
  8
0
 62
     3
 10
686.79187000000002
 20
879.41240099999993
 30
0.0
  0
VERTEX
  5
B78
  8
0
 62
     3
 10
670.79187000000002
 20
879.41240099999993
 30
0.0
  0
VERTEX
  5
B79
  8
0
 62
     3
 10
669.79187000000002
 20
877.41240099999993
 30
0.0
  0
VERTEX
  5
B7A
  8
0
 62
     3
 10
668.7918699999999
 20
881.41240099999982
 30
0.0
  0
VERTEX
  5
B7B
  8
0
 62
     3
 10
667.79187000000002
 20
879.41240099999993
 30
0.0
  0
VERTEX
  5
B7C
  8
0
 62
     3
 10
651.79187000000002
 20
879.41240099999993
 30
0.0
  0
VERTEX
  5
B7D
  8
0
 62
     3
 10
650.79187000000002
 20
877.41240099999993
 30
0.0
  0
VERTEX
  5
B7E
  8
0
 62
     3
 10
649.79187000000002
 20
881.41240099999982
 30
0.0
  0
VERTEX
  5
B7F
  8
0
 62
     3
 10
648.79187000000002
 20
879.41240099999993
 30
0.0
  0
VERTEX
  5
B80
  8
0
 62
     3
 10
632.79187000000002
 20
879.41240099999993
 30
0.0
  0
VERTEX
  5
B81
  8
0
 62
     3
 10
631.79187200000001
 20
877.41240099999993
 30
0.0
  0
VERTEX
  5
B82
  8
0
 62
     3
 10
630.7918719999999
 20
881.41240099999982
 30
0.0
  0
VERTEX
  5
B83
  8
0
 62
     3
 10
629.79187000000002
 20
879.41240099999993
 30
0.0
  0
VERTEX
  5
B84
  8
0
 62
     3
 10
613.79187100000001
 20
879.41240099999993
 30
0.0
  0
VERTEX
  5
B85
  8
0
 62
     3
 10
612.79187100000001
 20
877.41240099999993
 30
0.0
  0
VERTEX
  5
B86
  8
0
 62
     3
 10
611.79187100000001
 20
881.41240099999982
 30
0.0
  0
VERTEX
  5
B87
  8
0
 62
     3
 10
610.7918709999999
 20
879.41240099999993
 30
0.0
  0
VERTEX
  5
B88
  8
0
 62
     3
 10
594.79187100000001
 20
879.41240099999993
 30
0.0
  0
VERTEX
  5
B89
  8
0
 62
     3
 10
593.7918709999999
 20
877.41240099999993
 30
0.0
  0
VERTEX
  5
B8A
  8
0
 62
     3
 10
592.79187200000001
 20
881.41240099999982
 30
0.0
  0
VERTEX
  5
B8B
  8
0
 62
     3
 10
591.79187000000002
 20
879.41240099999993
 30
0.0
  0
VERTEX
  5
B8C
  8
0
 62
     3
 10
575.79187000000002
 20
879.41240099999993
 30
0.0
  0
VERTEX
  5
B8D
  8
0
 62
     3
 10
574.79187000000002
 20
877.41240099999993
 30
0.0
  0
VERTEX
  5
B8E
  8
0
 62
     3
 10
573.79187000000002
 20
881.41240099999982
 30
0.0
  0
VERTEX
  5
B8F
  8
0
 62
     3
 10
572.79187000000002
 20
879.41240099999993
 30
0.0
  0
VERTEX
  5
B90
  8
0
 62
     3
 10
556.7918699999999
 20
879.41240099999993
 30
0.0
  0
VERTEX
  5
B91
  8
0
 62
     3
 10
555.79187000000002
 20
877.41240099999993
 30
0.0
  0
VERTEX
  5
B92
  8
0
 62
     3
 10
554.79187000000002
 20
881.41240099999982
 30
0.0
  0
VERTEX
  5
B93
  8
0
 62
     3
 10
553.79187000000002
 20
879.41240099999993
 30
0.0
  0
VERTEX
  5
B94
  8
0
 62
     3
 10
537.79187000000002
 20
879.41240099999993
 30
0.0
  0
VERTEX
  5
B95
  8
0
 62
     3
 10
536.79187000000002
 20
877.41240099999993
 30
0.0
  0
VERTEX
  5
B96
  8
0
 62
     3
 10
535.7918699999999
 20
881.41240099999982
 30
0.0
  0
VERTEX
  5
B97
  8
0
 62
     3
 10
534.79187000000002
 20
879.41240099999993
 30
0.0
  0
VERTEX
  5
B98
  8
0
 62
     3
 10
518.7918699999999
 20
879.41240099999993
 30
0.0
  0
VERTEX
  5
B99
  8
0
 62
     3
 10
517.79187000000002
 20
877.41240099999993
 30
0.0
  0
VERTEX
  5
B9A
  8
0
 62
     3
 10
516.79187000000002
 20
881.41240099999982
 30
0.0
  0
VERTEX
  5
B9B
  8
0
 62
     3
 10
515.79187000000002
 20
879.41240099999993
 30
0.0
  0
VERTEX
  5
B9C
  8
0
 62
     3
 10
509.29187000000002
 20
879.41240099999993
 30
0.0
  0
SEQEND
  5
B9D
  8
0
 62
     3
  0
LINE
  5
46C
  8
0
  6
DASHDOT
 62
     7
 10
634.29187000000002
 20
839.95824600000014
 30
0.0
 11
634.29187000000002
 21
704.68292399999996
 31
0.0
  0
LINE
  5
46D
  8
0
  6
DASHDOT
 62
     7
 10
529.29187000000002
 20
841.14486899999997
 30
0.0
 11
529.29187000000002
 21
704.089609
 31
0.0
  0
LINE
  5
46E
  8
0
  6
DASHDOT
 62
     7
 10
663.9006730000001
 20
823.84174499999995
 30
0.0
 11
533.96516399999985
 21
823.84174499999995
 31
0.0
  0
LINE
  5
46F
  8
0
  6
DASHDOT
 62
     7
 10
665.68061099999989
 20
723.84174499999995
 30
0.0
 11
532.18522599999994
 21
723.84174499999995
 31
0.0
  0
CIRCLE
  5
470
  8
0
 62
     7
 10
529.29187000000002
 20
823.84174499999995
 30
0.0
 40
2.5
  0
CIRCLE
  5
471
  8
0
 62
     7
 10
634.29187000000002
 20
823.84174499999995
 30
0.0
 40
2.5
  0
CIRCLE
  5
472
  8
0
 62
     7
 10
529.29187000000002
 20
723.84174499999995
 30
0.0
 40
2.5
  0
CIRCLE
  5
473
  8
0
 62
     7
 10
634.29187000000002
 20
723.84174499999995
 30
0.0
 40
2.5
  0
LINE
  5
474
  8
0
  6
DASHDOT
 62
     7
 10
723.49600999999996
 20
845.34174499999995
 30
0.0
 11
532.11231199999997
 21
845.34174499999995
 31
0.0
  0
LINE
  5
475
  8
0
  6
DASHDOT
 62
     7
 10
723.49600999999996
 20
702.34174500000006
 30
0.0
 11
500.2396389999999
 21
702.34174500000006
 31
0.0
  0
LINE
  5
476
  8
0
  6
DASHDOT
 62
     7
 10
644.2918699999999
 20
890.41272200000014
 30
0.0
 11
644.2918699999999
 21
648.77200500000004
 31
0.0
  0
LINE
  5
477
  8
0
  6
DASHDOT
 62
     7
 10
539.29187000000002
 20
890.41272200000014
 30
0.0
 11
539.29187000000002
 21
648.77200500000004
 31
0.0
  0
ARC
  5
478
  8
0
 62
     7
 10
644.2918699999999
 20
845.34174499999995
 30
0.0
 40
14.0
 50
270.00000299999988
 51
90.000000999999983
  0
ARC
  5
479
  8
0
 62
     7
 10
539.29187000000002
 20
845.34174499999995
 30
0.0
 40
14.0
 50
90.000000999999983
 51
270.00000299999988
  0
ARC
  5
47A
  8
0
 62
     7
 10
539.29187000000002
 20
702.34174500000006
 30
0.0
 40
14.0
 50
90.000000999999983
 51
270.00000299999988
  0
ARC
  5
47B
  8
0
 62
     7
 10
644.2918699999999
 20
702.34174500000006
 30
0.0
 40
14.0
 50
270.00000299999988
 51
90.000000999999983
  0
LINE
  5
47C
  8
0
 62
     7
 10
644.2918699999999
 20
716.34174499999995
 30
0.0
 11
539.29187000000002
 21
716.34174499999995
 31
0.0
  0
LINE
  5
47D
  8
0
 62
     7
 10
644.2918699999999
 20
688.34174499999995
 30
0.0
 11
539.29187000000002
 21
688.34174499999995
 31
0.0
  0
LINE
  5
47E
  8
0
 62
     7
 10
644.2918699999999
 20
831.34174500000006
 30
0.0
 11
539.29187000000002
 21
831.34174500000006
 31
0.0
  0
LINE
  5
47F
  8
0
 62
     7
 10
644.2918699999999
 20
859.34174499999995
 30
0.0
 11
539.29187000000002
 21
859.34174499999995
 31
0.0
  0
CIRCLE
  5
480
  8
0
 62
     7
 10
539.15846999999997
 20
865.74272300000007
 30
0.0
 40
0.2
  0
LINE
  5
481
  8
0
  6
DASHDOT
 62
     7
 10
694.81725300000005
 20
771.59174499999995
 30
0.0
 11
493.27941099999998
 21
771.59174499999995
 31
0.0
  0
LINE
  5
482
  8
0
 62
     7
 10
634.29187000000002
 20
631.705423
 30
0.0
 11
646.10949699999992
 21
629.62168299999985
 31
0.0
  0
LINE
  5
483
  8
0
 62
     7
 10
634.29187000000002
 20
631.705423
 30
0.0
 11
646.10949699999992
 21
633.78922499999999
 31
0.0
  0
LINE
  5
484
  8
0
 62
     7
 10
609.29187000000002
 20
631.705423
 30
0.0
 11
597.474243
 21
633.78922499999999
 31
0.0
  0
LINE
  5
485
  8
0
 62
     7
 10
609.29187000000002
 20
631.705423
 30
0.0
 11
597.474243
 21
629.62168299999985
 31
0.0
  0
LINE
  5
486
  8
0
 62
     7
 10
529.29187000000002
 20
631.705423
 30
0.0
 11
541.10949699999992
 21
629.62168299999985
 31
0.0
  0
LINE
  5
487
  8
0
 62
     7
 10
529.29187000000002
 20
631.705423
 30
0.0
 11
541.10949699999992
 21
633.78922499999999
 31
0.0
  0
LINE
  5
488
  8
0
 62
     7
 10
668.29187000000002
 20
631.705423
 30
0.0
 11
529.29187000000002
 21
631.705423
 31
0.0
  0
LINE
  5
489
  8
0
 62
     7
 10
634.29187000000002
 20
623.705423
 30
0.0
 11
634.29187000000002
 21
704.68293200000005
 31
0.0
  0
LINE
  5
48A
  8
0
 62
     7
 10
609.29187000000002
 20
623.705423
 30
0.0
 11
609.29187000000002
 21
647.53006900000003
 31
0.0
  0
LINE
  5
48B
  8
0
 62
     7
 10
529.29187000000002
 20
623.705423
 30
0.0
 11
529.29187000000002
 21
704.089609
 31
0.0
  0
LINE
  5
48C
  8
0
 62
     7
 10
527.18810999999994
 20
722.49100699999997
 30
0.0
 11
516.11804199999995
 21
717.85932400000002
 31
0.0
  0
LINE
  5
48D
  8
0
 62
     7
 10
527.18810999999994
 20
722.49100699999997
 30
0.0
 11
518.36975099999995
 21
714.35245700000007
 31
0.0
  0
LINE
  5
48E
  8
0
 62
     7
 10
531.39562999999998
 20
725.19248400000004
 30
0.0
 11
542.46569799999997
 21
729.82413699999995
 31
0.0
  0
LINE
  5
48F
  8
0
 62
     7
 10
531.39562999999998
 20
725.19248400000004
 30
0.0
 11
540.21398899999986
 21
733.33103399999993
 31
0.0
  0
LINE
  5
490
  8
0
 62
     7
 10
531.60583499999996
 20
725.32755499999985
 30
0.0
 11
389.57238799999988
 21
634.12955699999986
 31
0.0
  0
LINE
  5
491
  8
0
 62
     7
 10
657.84313999999995
 20
848.85792000000004
 30
0.0
 11
669.80529799999988
 21
849.809031
 31
0.0
  0
LINE
  5
492
  8
0
 62
     7
 10
657.84313999999995
 20
848.85792000000004
 30
0.0
 11
668.75866699999995
 21
853.84299700000008
 31
0.0
  0
LINE
  5
493
  8
0
 62
     7
 10
643.22644000000003
 20
845.06528699999978
 30
0.0
 11
734.43762199999992
 21
868.73206500000003
 31
0.0
  0
LINE
  5
494
  8
0
 62
     7
 10
644.2918699999999
 20
944.57329800000002
 30
0.0
 11
632.474243
 21
946.65706799999998
 31
0.0
  0
LINE
  5
495
  8
0
 62
     7
 10
644.2918699999999
 20
944.57329800000002
 30
0.0
 11
632.474243
 21
942.48951099999988
 31
0.0
  0
LINE
  5
496
  8
0
 62
     7
 10
539.29187000000002
 20
944.57329800000002
 30
0.0
 11
551.10949699999992
 21
942.48952699999995
 31
0.0
  0
LINE
  5
497
  8
0
 62
     7
 10
539.29187000000002
 20
944.57329800000002
 30
0.0
 11
551.10949699999992
 21
946.65708399999994
 31
0.0
  0
LINE
  5
498
  8
0
 62
     7
 10
644.2918699999999
 20
944.57329800000002
 30
0.0
 11
539.29187000000002
 21
944.57329800000002
 31
0.0
  0
LINE
  5
499
  8
0
 62
     7
 10
644.2918699999999
 20
952.57329800000002
 30
0.0
 11
644.2918699999999
 21
890.4127289999999
 31
0.0
  0
LINE
  5
49A
  8
0
 62
     7
 10
539.29187000000002
 20
952.57329800000002
 30
0.0
 11
539.29187000000002
 21
890.4127289999999
 31
0.0
  0
LINE
  5
49B
  8
0
 62
     7
 10
764.61828600000001
 20
845.34174499999995
 30
0.0
 11
762.5343019999998
 21
833.52405700000008
 31
0.0
  0
LINE
  5
49C
  8
0
 62
     7
 10
764.61828600000001
 20
845.34174499999995
 30
0.0
 11
766.70202599999993
 21
833.52405700000008
 31
0.0
  0
LINE
  5
49D
  8
0
 62
     7
 10
764.61804199999995
 20
702.34174500000006
 30
0.0
 11
766.70202599999993
 21
714.15943300000004
 31
0.0
  0
LINE
  5
49E
  8
0
 62
     7
 10
764.61804199999995
 20
702.34174500000006
 30
0.0
 11
762.5343019999998
 21
714.15943300000004
 31
0.0
  0
LINE
  5
49F
  8
0
 62
     7
 10
764.61828600000001
 20
845.34174499999995
 30
0.0
 11
764.61804199999995
 21
702.34174500000006
 31
0.0
  0
LINE
  5
4A0
  8
0
 62
     7
 10
772.61828600000001
 20
845.34174499999995
 30
0.0
 11
723.49597199999994
 21
845.34174499999995
 31
0.0
  0
LINE
  5
4A1
  8
0
 62
     7
 10
772.61804199999995
 20
702.34174500000006
 30
0.0
 11
723.49597199999994
 21
702.34174500000006
 31
0.0
  0
LINE
  5
4A2
  8
0
 62
     7
 10
495.73718300000002
 20
823.84174499999995
 30
0.0
 11
493.65344199999998
 21
812.02405700000008
 31
0.0
  0
LINE
  5
4A3
  8
0
 62
     7
 10
495.73718300000002
 20
823.84174499999995
 30
0.0
 11
497.82092299999999
 21
812.02405700000008
 31
0.0
  0
LINE
  5
4A4
  8
0
 62
     7
 10
495.73718300000002
 20
771.59174499999995
 30
0.0
 11
497.82092299999999
 21
783.40943300000004
 31
0.0
  0
LINE
  5
4A5
  8
0
 62
     7
 10
495.73718300000002
 20
771.59174499999995
 30
0.0
 11
493.65344199999998
 21
783.40943300000004
 31
0.0
  0
LINE
  5
4A6
  8
0
 62
     7
 10
495.73718300000002
 20
890.84174499999995
 30
0.0
 11
495.73718300000002
 21
771.59174499999995
 31
0.0
  0
LINE
  5
4A7
  8
0
 62
     7
 10
487.73718300000002
 20
823.84174499999995
 30
0.0
 11
533.96520999999996
 21
823.84174499999995
 31
0.0
  0
LINE
  5
4A8
  8
0
 62
     7
 10
468.70153800000003
 20
823.84174499999995
 30
0.0
 11
466.61779799999999
 21
812.02405700000008
 31
0.0
  0
LINE
  5
4A9
  8
0
 62
     7
 10
468.70153800000003
 20
823.84174499999995
 30
0.0
 11
470.7855219999999
 21
812.02405700000008
 31
0.0
  0
LINE
  5
4AA
  8
0
 62
     7
 10
468.70153800000003
 20
723.84174499999995
 30
0.0
 11
470.7855219999999
 21
735.65943300000004
 31
0.0
  0
LINE
  5
4AB
  8
0
 62
     7
 10
468.70153800000003
 20
723.84174499999995
 30
0.0
 11
466.61779799999999
 21
735.65943300000004
 31
0.0
  0
LINE
  5
4AC
  8
0
 62
     7
 10
468.70153800000003
 20
823.84174499999995
 30
0.0
 11
468.70153800000003
 21
723.84174499999995
 31
0.0
  0
LINE
  5
4AD
  8
0
 62
     7
 10
460.70153799999991
 20
823.84174499999995
 30
0.0
 11
533.96520999999996
 21
823.84174499999995
 31
0.0
  0
LINE
  5
4AE
  8
0
 62
     7
 10
460.70153799999991
 20
723.84174499999995
 30
0.0
 11
532.18518099999994
 21
723.84174499999995
 31
0.0
  0
LINE
  5
4AF
  8
0
 62
     7
 10
734.14172400000007
 20
845.34174499999995
 30
0.0
 11
732.05798300000004
 21
833.52405700000008
 31
0.0
  0
LINE
  5
4B0
  8
0
 62
     7
 10
734.14172400000007
 20
845.34174499999995
 30
0.0
 11
736.22546399999987
 21
833.52405700000008
 31
0.0
  0
LINE
  5
4B1
  8
0
 62
     7
 10
734.14172400000007
 20
771.59174499999995
 30
0.0
 11
736.22546399999987
 21
783.40943300000004
 31
0.0
  0
LINE
  5
4B2
  8
0
 62
     7
 10
734.14172400000007
 20
771.59174499999995
 30
0.0
 11
732.05798300000004
 21
783.40943300000004
 31
0.0
  0
LINE
  5
4B3
  8
0
 62
     7
 10
734.14172400000007
 20
845.34174499999995
 30
0.0
 11
734.14172400000007
 21
771.59174499999995
 31
0.0
  0
LINE
  5
4B4
  8
0
 62
     7
 10
742.14172400000007
 20
845.34174499999995
 30
0.0
 11
723.49597199999994
 21
845.34174499999995
 31
0.0
  0
LINE
  5
4B5
  8
0
 62
     7
 10
742.14172400000007
 20
771.59174499999995
 30
0.0
 11
694.81726100000003
 21
771.59174499999995
 31
0.0
  0
LINE
  5
4B6
  8
0
 62
     7
 10
644.2918699999999
 20
907.88773499999991
 30
0.0
 11
656.10949699999992
 21
905.80396500000006
 31
0.0
  0
LINE
  5
4B7
  8
0
 62
     7
 10
644.2918699999999
 20
907.88773499999991
 30
0.0
 11
656.10949699999992
 21
909.97150600000009
 31
0.0
  0
LINE
  5
4B8
  8
0
 62
     7
 10
609.29187000000002
 20
907.88773499999991
 30
0.0
 11
597.474243
 21
909.97150600000009
 31
0.0
  0
LINE
  5
4B9
  8
0
 62
     7
 10
609.29187000000002
 20
907.88773499999991
 30
0.0
 11
597.474243
 21
905.80396500000006
 31
0.0
  0
LINE
  5
4BA
  8
0
 62
     7
 10
678.29187000000002
 20
907.88773499999991
 30
0.0
 11
609.29187000000002
 21
907.88773499999991
 31
0.0
  0
LINE
  5
4BB
  8
0
 62
     7
 10
644.2918699999999
 20
915.88773499999991
 30
0.0
 11
644.2918699999999
 21
890.4127289999999
 31
0.0
  0
LINE
  5
4BC
  8
0
 62
     7
 10
326.74775699999998
 20
464.83195499999999
 30
0.0
 11
326.24778700000002
 21
464.83195499999999
 31
0.0
  0
LINE
  5
4BD
  8
0
 62
     7
 10
291.74777999999992
 20
464.83195499999999
 30
0.0
 11
266.74777999999992
 21
464.83195499999999
 31
0.0
  0
LINE
  5
4BE
  8
0
 62
     7
 10
256.747795
 20
464.83195499999999
 30
0.0
 11
231.747795
 21
464.83195499999999
 31
0.0
  0
LINE
  5
4BF
  8
0
 62
     6
 10
191.74782400000001
 20
460.33195499999999
 30
0.0
 11
191.74782400000001
 21
416.83190899999988
 31
0.0
  0
LINE
  5
4C0
  8
0
 62
     6
 10
331.74783300000001
 20
460.33195499999999
 30
0.0
 11
331.747818
 21
453.83195499999988
 31
0.0
  0
LINE
  5
4C1
  8
0
 62
     6
 10
331.74780299999992
 20
453.83195499999988
 30
0.0
 11
331.74780299999992
 21
416.83190899999988
 31
0.0
  0
LINE
  5
4C2
  8
0
 62
     6
 10
331.74780299999992
 20
416.83190899999988
 30
0.0
 11
326.74780299999992
 21
416.83190899999988
 31
0.0
  0
LINE
  5
4C3
  8
0
 62
     6
 10
301.74780299999992
 20
416.83190899999988
 30
0.0
 11
296.74778700000002
 21
416.83190899999988
 31
0.0
  0
LINE
  5
4C4
  8
0
 62
     6
 10
266.74779499999988
 20
416.83190899999988
 30
0.0
 11
261.74777999999992
 21
416.83190899999988
 31
0.0
  0
LINE
  5
4C5
  8
0
 62
     6
 10
196.74779499999991
 20
416.83190899999988
 30
0.0
 11
191.74782400000001
 21
416.83190899999988
 31
0.0
  0
LINE
  5
4C6
  8
0
 62
     7
 10
331.74778700000002
 20
453.83195499999988
 30
0.0
 11
296.74778700000002
 21
453.83195499999988
 31
0.0
  0
LINE
  5
4C7
  8
0
 62
     6
 10
195.74779699999999
 20
460.33195499999999
 30
0.0
 11
191.74782400000001
 21
460.33195499999999
 31
0.0
  0
LINE
  5
4C8
  8
0
 62
     7
 10
266.74777999999992
 20
460.33195499999999
 30
0.0
 11
256.747795
 21
460.33195499999999
 31
0.0
  0
LINE
  5
4C9
  8
0
 62
     7
 10
294.24771099999998
 20
460.33195499999999
 30
0.0
 11
291.74777999999992
 21
460.33195499999999
 31
0.0
  0
LINE
  5
4CA
  8
0
 62
     6
 10
331.74783300000001
 20
460.33195499999999
 30
0.0
 11
326.747772
 21
460.33195499999999
 31
0.0
  0
LINE
  5
4CB
  8
0
 62
     6
 10
197.24778000000001
 20
466.33195499999988
 30
0.0
 11
192.74770199999989
 21
466.33195499999988
 31
0.0
  0
LINE
  5
4CC
  8
0
 62
     6
 10
289.49777999999992
 20
435.331909
 30
0.0
 11
268.99777999999992
 21
435.331909
 31
0.0
  0
LINE
  5
4CD
  8
0
 62
     6
 10
268.99777999999992
 20
435.331909
 30
0.0
 11
268.99777999999992
 21
427.831909
 31
0.0
  0
LINE
  5
4CE
  8
0
 62
     6
 10
289.49777999999992
 20
435.331909
 30
0.0
 11
289.49777999999992
 21
427.831909
 31
0.0
  0
LINE
  5
4CF
  8
0
 62
     6
 10
254.49777999999989
 20
435.331909
 30
0.0
 11
233.99777999999989
 21
435.331909
 31
0.0
  0
LINE
  5
4D0
  8
0
 62
     6
 10
233.99777999999989
 20
435.331909
 30
0.0
 11
233.99777999999989
 21
427.831909
 31
0.0
  0
LINE
  5
4D1
  8
0
 62
     6
 10
254.49777999999989
 20
435.331909
 30
0.0
 11
254.49777999999989
 21
427.831909
 31
0.0
  0
LINE
  5
4D2
  8
0
 62
     6
 10
324.49778700000002
 20
435.331909
 30
0.0
 11
303.99778700000002
 21
435.331909
 31
0.0
  0
LINE
  5
4D3
  8
0
 62
     6
 10
303.99778700000002
 20
435.331909
 30
0.0
 11
303.99778700000002
 21
427.831909
 31
0.0
  0
LINE
  5
4D4
  8
0
 62
     6
 10
324.49778700000002
 20
435.331909
 30
0.0
 11
324.49778700000002
 21
427.831909
 31
0.0
  0
LINE
  5
4D5
  8
0
 62
     7
 10
329.24780299999992
 20
453.83195499999988
 30
0.0
 11
329.24780299999992
 21
416.83190899999988
 31
0.0
  0
LINE
  5
4D6
  8
0
 62
     7
 10
194.24779699999991
 20
453.83195499999988
 30
0.0
 11
194.24779699999991
 21
416.83190899999988
 31
0.0
  0
LINE
  5
4D7
  8
0
 62
     9
 10
256.24777999999992
 20
480.83195499999999
 30
0.0
 11
232.24777999999989
 21
480.83195499999999
 31
0.0
  0
LINE
  5
4D8
  8
0
 62
     9
 10
326.24778700000002
 20
480.83195499999999
 30
0.0
 11
302.24778700000002
 21
480.83195499999999
 31
0.0
  0
LINE
  5
4D9
  8
0
 62
     9
 10
290.24776500000002
 20
480.831909
 30
0.0
 11
268.24776500000002
 21
480.831909
 31
0.0
  0
LINE
  5
4DA
  8
0
 62
     7
 10
325.24774200000002
 20
503.131912
 30
0.0
 11
303.24774200000002
 21
503.131912
 31
0.0
  0
LINE
  5
4DB
  8
0
 62
     7
 10
304.74774200000002
 20
505.631912
 30
0.0
 11
303.24774200000002
 21
505.631912
 31
0.0
  0
LINE
  5
4DC
  8
0
 62
     7
 10
323.6045529999999
 20
505.631912
 30
0.0
 11
304.89092999999991
 21
505.631912
 31
0.0
  0
LINE
  5
4DD
  8
0
 62
     7
 10
325.24774200000002
 20
505.631912
 30
0.0
 11
323.74774200000002
 21
505.631912
 31
0.0
  0
LINE
  5
4DE
  8
0
 62
     7
 10
325.24774200000002
 20
494.631912
 30
0.0
 11
323.74774200000002
 21
494.631912
 31
0.0
  0
LINE
  5
4DF
  8
0
 62
     7
 10
323.6045529999999
 20
494.631912
 30
0.0
 11
304.89092999999991
 21
494.631912
 31
0.0
  0
LINE
  5
4E0
  8
0
 62
     7
 10
304.74774200000002
 20
494.631912
 30
0.0
 11
303.24774200000002
 21
494.631912
 31
0.0
  0
LINE
  5
4E1
  8
0
 62
     7
 10
325.24774200000002
 20
497.131912
 30
0.0
 11
303.24774200000002
 21
497.131912
 31
0.0
  0
LINE
  5
4E2
  8
0
 62
     3
 10
323.74774200000002
 20
487.63191199999989
 30
0.0
 11
323.74774200000002
 21
481.631912
 31
0.0
  0
LINE
  5
4E3
  8
0
 62
     3
 10
304.74774200000002
 20
487.63191199999989
 30
0.0
 11
304.74774200000002
 21
481.631912
 31
0.0
  0
LINE
  5
4E4
  8
0
 62
     3
 10
323.74774200000002
 20
487.63191199999989
 30
0.0
 11
304.74774200000002
 21
487.63191199999989
 31
0.0
  0
LINE
  5
4E5
  8
0
 62
     3
 10
323.74774200000002
 20
481.631912
 30
0.0
 11
321.34191900000002
 21
481.631912
 31
0.0
  0
LINE
  5
4E6
  8
0
 62
     3
 10
316.5621339999999
 20
481.631912
 30
0.0
 11
311.933334
 21
481.631912
 31
0.0
  0
LINE
  5
4E7
  8
0
 62
     3
 10
307.15351900000002
 20
481.631912
 30
0.0
 11
304.74774200000002
 21
481.631912
 31
0.0
  0
LINE
  5
4E8
  8
0
 62
     3
 10
323.74774200000002
 20
494.631912
 30
0.0
 11
323.74774200000002
 21
488.631912
 31
0.0
  0
LINE
  5
4E9
  8
0
 62
     3
 10
304.74774200000002
 20
494.631912
 30
0.0
 11
304.74774200000002
 21
488.631912
 31
0.0
  0
LINE
  5
4EA
  8
0
 62
     3
 10
304.89092999999991
 20
494.631912
 30
0.0
 11
304.74774200000002
 21
494.631912
 31
0.0
  0
LINE
  5
4EB
  8
0
 62
     3
 10
323.74774200000002
 20
494.631912
 30
0.0
 11
323.60453799999999
 21
494.631912
 31
0.0
  0
LINE
  5
4EC
  8
0
 62
     3
 10
323.74774200000002
 20
488.631912
 30
0.0
 11
304.74774200000002
 21
488.631912
 31
0.0
  0
LINE
  5
4ED
  8
0
 62
     3
 10
323.74774200000002
 20
511.63191199999989
 30
0.0
 11
323.74774200000002
 21
505.631912
 31
0.0
  0
LINE
  5
4EE
  8
0
 62
     3
 10
304.74774200000002
 20
511.63191199999989
 30
0.0
 11
304.74774200000002
 21
505.631912
 31
0.0
  0
LINE
  5
4EF
  8
0
 62
     3
 10
323.74774200000002
 20
505.631912
 30
0.0
 11
323.60453799999999
 21
505.631912
 31
0.0
  0
LINE
  5
4F0
  8
0
 62
     3
 10
304.89092999999991
 20
505.631912
 30
0.0
 11
304.74774200000002
 21
505.631912
 31
0.0
  0
LINE
  5
4F1
  8
0
 62
     3
 10
323.74774200000002
 20
511.63191199999989
 30
0.0
 11
304.74774200000002
 21
511.63191199999989
 31
0.0
  0
LINE
  5
4F2
  8
0
 62
     7
 10
304.74774200000002
 20
481.631912
 30
0.0
 11
304.24774200000002
 21
481.631912
 31
0.0
  0
LINE
  5
4F3
  8
0
 62
     7
 10
311.93331899999993
 20
481.631912
 30
0.0
 11
307.153549
 21
481.631912
 31
0.0
  0
LINE
  5
4F4
  8
0
 62
     7
 10
321.341949
 20
481.631912
 30
0.0
 11
316.56214899999998
 21
481.631912
 31
0.0
  0
LINE
  5
4F5
  8
0
 62
     7
 10
324.24774200000002
 20
481.631912
 30
0.0
 11
323.74774200000002
 21
481.631912
 31
0.0
  0
LINE
  5
4F6
  8
0
 62
   211
 10
318.247772
 20
514.331909
 30
0.0
 11
310.24777199999988
 21
514.331909
 31
0.0
  0
LINE
  5
4F7
  8
0
 62
   211
 10
270.74776500000002
 20
433.33190899999988
 30
0.0
 11
270.74776500000002
 21
432.83190899999988
 31
0.0
  0
LINE
  5
4F8
  8
0
 62
   211
 10
287.74776500000002
 20
433.33190899999988
 30
0.0
 11
287.74776500000002
 21
432.83190899999988
 31
0.0
  0
LINE
  5
4F9
  8
0
 62
   211
 10
282.74776500000002
 20
433.33190899999988
 30
0.0
 11
282.74776500000002
 21
432.83190899999988
 31
0.0
  0
LINE
  5
4FA
  8
0
 62
   211
 10
275.74776500000002
 20
433.33190899999988
 30
0.0
 11
275.74776500000002
 21
432.83190899999988
 31
0.0
  0
LINE
  5
4FB
  8
0
 62
   211
 10
305.747772
 20
433.33190899999988
 30
0.0
 11
305.747772
 21
432.83190899999988
 31
0.0
  0
LINE
  5
4FC
  8
0
 62
   211
 10
322.74777199999988
 20
433.33190899999988
 30
0.0
 11
322.74777199999988
 21
432.83190899999988
 31
0.0
  0
LINE
  5
4FD
  8
0
 62
   211
 10
310.74777199999988
 20
433.33190899999988
 30
0.0
 11
310.74777199999988
 21
432.83190899999988
 31
0.0
  0
LINE
  5
4FE
  8
0
 62
   211
 10
317.747772
 20
433.33190899999988
 30
0.0
 11
317.747772
 21
432.83190899999988
 31
0.0
  0
LINE
  5
4FF
  8
0
 62
   211
 10
235.7477649999999
 20
433.33190899999988
 30
0.0
 11
235.7477649999999
 21
432.83190899999988
 31
0.0
  0
LINE
  5
500
  8
0
 62
   211
 10
252.7477649999999
 20
433.33190899999988
 30
0.0
 11
252.7477649999999
 21
432.83190899999988
 31
0.0
  0
LINE
  5
501
  8
0
 62
   211
 10
240.74776499999999
 20
433.33190899999988
 30
0.0
 11
240.74776499999999
 21
432.83190899999988
 31
0.0
  0
LINE
  5
502
  8
0
 62
   211
 10
247.7477649999999
 20
433.33190899999988
 30
0.0
 11
247.7477649999999
 21
432.83190899999988
 31
0.0
  0
LINE
  5
503
  8
0
 62
     6
 10
266.74777199999988
 20
464.33195499999999
 30
0.0
 11
256.74778700000002
 21
464.33195499999999
 31
0.0
  0
LINE
  5
504
  8
0
 62
     3
 10
267.24776500000002
 20
465.83195499999988
 30
0.0
 11
256.24777999999992
 21
465.83195499999988
 31
0.0
  0
LINE
  5
505
  8
0
 62
     3
 10
302.24778700000002
 20
465.83195499999988
 30
0.0
 11
291.2477649999999
 21
465.83195499999988
 31
0.0
  0
LINE
  5
506
  8
0
 62
     9
 10
268.24776500000002
 20
480.83195499999999
 30
0.0
 11
267.24777999999992
 21
480.83195499999999
 31
0.0
  0
LINE
  5
507
  8
0
 62
     9
 10
291.24777999999992
 20
480.83195499999999
 30
0.0
 11
290.24776500000002
 21
480.83195499999999
 31
0.0
  0
LINE
  5
508
  8
0
 62
     7
 10
290.24776500000002
 20
546.63192000000004
 30
0.0
 11
288.74776500000002
 21
546.63192000000004
 31
0.0
  0
LINE
  5
509
  8
0
 62
     7
 10
288.60457599999989
 20
546.63192000000004
 30
0.0
 11
269.89094499999999
 21
546.63192000000004
 31
0.0
  0
LINE
  5
50A
  8
0
 62
     7
 10
269.74776500000002
 20
546.63192000000004
 30
0.0
 11
268.24776500000002
 21
546.63192000000004
 31
0.0
  0
LINE
  5
50B
  8
0
 62
     7
 10
290.24776500000002
 20
549.13192000000004
 30
0.0
 11
268.24776500000002
 21
549.13192000000004
 31
0.0
  0
LINE
  5
50C
  8
0
 62
     7
 10
290.24776500000002
 20
555.13192000000004
 30
0.0
 11
268.24776500000002
 21
555.13192000000004
 31
0.0
  0
LINE
  5
50D
  8
0
 62
     7
 10
269.74776500000002
 20
557.63192000000004
 30
0.0
 11
268.24776500000002
 21
557.63192000000004
 31
0.0
  0
LINE
  5
50E
  8
0
 62
     7
 10
288.60457599999989
 20
557.63192000000004
 30
0.0
 11
269.89094499999999
 21
557.63192000000004
 31
0.0
  0
LINE
  5
50F
  8
0
 62
     7
 10
290.24776500000002
 20
557.63192000000004
 30
0.0
 11
288.74776500000002
 21
557.63192000000004
 31
0.0
  0
LINE
  5
510
  8
0
 62
     3
 10
269.74776500000002
 20
539.63191200000006
 30
0.0
 11
269.74776500000002
 21
533.63191200000006
 31
0.0
  0
LINE
  5
511
  8
0
 62
     3
 10
288.74776500000002
 20
539.63191200000006
 30
0.0
 11
288.74776500000002
 21
533.63191200000006
 31
0.0
  0
LINE
  5
512
  8
0
 62
     3
 10
288.74776500000002
 20
539.63191200000006
 30
0.0
 11
269.74776500000002
 21
539.63191200000006
 31
0.0
  0
LINE
  5
513
  8
0
 62
     3
 10
288.74776500000002
 20
533.63191200000006
 30
0.0
 11
286.34196500000002
 21
533.63191200000006
 31
0.0
  0
LINE
  5
514
  8
0
 62
     3
 10
281.56217199999998
 20
533.63191200000006
 30
0.0
 11
276.93336499999992
 21
533.63191200000006
 31
0.0
  0
LINE
  5
515
  8
0
 62
     3
 10
272.15354899999988
 20
533.63191200000006
 30
0.0
 11
269.74776500000002
 21
533.63191200000006
 31
0.0
  0
LINE
  5
516
  8
0
 62
     3
 10
269.74776500000002
 20
546.63192000000004
 30
0.0
 11
269.74776500000002
 21
540.63191200000006
 31
0.0
  0
LINE
  5
517
  8
0
 62
     3
 10
288.74776500000002
 20
546.63192000000004
 30
0.0
 11
288.74776500000002
 21
540.63191200000006
 31
0.0
  0
LINE
  5
518
  8
0
 62
     3
 10
269.89094499999999
 20
546.63192000000004
 30
0.0
 11
269.74776500000002
 21
546.63192000000004
 31
0.0
  0
LINE
  5
519
  8
0
 62
     3
 10
288.74776500000002
 20
546.63192000000004
 30
0.0
 11
288.60456799999997
 21
546.63192000000004
 31
0.0
  0
LINE
  5
51A
  8
0
 62
     3
 10
288.74776500000002
 20
540.63191200000006
 30
0.0
 11
269.74776500000002
 21
540.63191200000006
 31
0.0
  0
LINE
  5
51B
  8
0
 62
     3
 10
269.74776500000002
 20
563.63192000000004
 30
0.0
 11
269.74776500000002
 21
557.63192000000004
 31
0.0
  0
LINE
  5
51C
  8
0
 62
     3
 10
288.74776500000002
 20
563.63192000000004
 30
0.0
 11
288.74776500000002
 21
557.63192000000004
 31
0.0
  0
LINE
  5
51D
  8
0
 62
     3
 10
288.74776500000002
 20
557.63192000000004
 30
0.0
 11
288.60456799999997
 21
557.63192000000004
 31
0.0
  0
LINE
  5
51E
  8
0
 62
     3
 10
269.89094499999999
 20
557.63192000000004
 30
0.0
 11
269.74776500000002
 21
557.63192000000004
 31
0.0
  0
LINE
  5
51F
  8
0
 62
     3
 10
288.74776500000002
 20
563.63192000000004
 30
0.0
 11
269.74776500000002
 21
563.63192000000004
 31
0.0
  0
LINE
  5
520
  8
0
 62
     7
 10
289.24776500000002
 20
532.83190899999988
 30
0.0
 11
269.24776500000002
 21
532.83190899999988
 31
0.0
  0
LINE
  5
521
  8
0
 62
     7
 10
269.74776500000002
 20
533.63191200000006
 30
0.0
 11
269.24776500000002
 21
533.63191200000006
 31
0.0
  0
LINE
  5
522
  8
0
 62
     7
 10
276.933357
 20
533.63191200000006
 30
0.0
 11
272.15354200000002
 21
533.63191200000006
 31
0.0
  0
LINE
  5
523
  8
0
 62
     7
 10
286.34195699999992
 20
533.63191200000006
 30
0.0
 11
281.56216399999988
 21
533.63191200000006
 31
0.0
  0
LINE
  5
524
  8
0
 62
     7
 10
289.24776500000002
 20
533.63191200000006
 30
0.0
 11
288.74776500000002
 21
533.63191200000006
 31
0.0
  0
LINE
  5
525
  8
0
 62
   211
 10
283.24776500000002
 20
566.3319019999999
 30
0.0
 11
275.24776500000002
 21
566.3319019999999
 31
0.0
  0
LINE
  5
526
  8
0
 62
     7
 10
301.74775699999998
 20
460.33195499999999
 30
0.0
 11
301.74775699999998
 21
453.83195499999988
 31
0.0
  0
LINE
  5
527
  8
0
 62
     7
 10
326.74775699999998
 20
460.33193999999997
 30
0.0
 11
326.74775699999998
 21
453.83195499999988
 31
0.0
  0
LINE
  5
528
  8
0
 62
     7
 10
266.74777999999992
 20
460.33195499999999
 30
0.0
 11
266.74777999999992
 21
453.83195499999988
 31
0.0
  0
LINE
  5
529
  8
0
 62
     7
 10
291.74777999999992
 20
460.33195499999999
 30
0.0
 11
291.74777999999992
 21
453.83195499999988
 31
0.0
  0
LINE
  5
52A
  8
0
 62
     7
 10
196.74779499999991
 20
464.83195499999999
 30
0.0
 11
196.74779499999991
 21
453.83195499999988
 31
0.0
  0
LINE
  5
52B
  8
0
 62
     7
 10
256.747795
 20
460.33195499999999
 30
0.0
 11
256.747795
 21
453.83195499999988
 31
0.0
  0
LINE
  5
52C
  8
0
 62
     7
 10
195.74779699999999
 20
460.33195499999999
 30
0.0
 11
195.74779699999999
 21
453.83195499999988
 31
0.0
  0
LINE
  5
52D
  8
0
 62
     7
 10
328.24780299999998
 20
453.83195499999988
 30
0.0
 11
328.24780299999998
 21
416.83190899999988
 31
0.0
  0
LINE
  5
52E
  8
0
 62
     7
 10
195.24779699999991
 20
453.83195499999988
 30
0.0
 11
195.24779699999991
 21
416.83190899999988
 31
0.0
  0
LINE
  5
52F
  8
0
 62
     9
 10
256.24777999999992
 20
480.83195499999999
 30
0.0
 11
256.24777999999992
 21
464.83195499999999
 31
0.0
  0
LINE
  5
530
  8
0
 62
     9
 10
232.24777999999989
 20
480.83195499999999
 30
0.0
 11
232.24777999999989
 21
464.83195499999999
 31
0.0
  0
LINE
  5
531
  8
0
 62
     9
 10
326.24778700000002
 20
480.83195499999999
 30
0.0
 11
326.24778700000002
 21
464.83195499999999
 31
0.0
  0
LINE
  5
532
  8
0
 62
     9
 10
302.24778700000002
 20
480.83195499999999
 30
0.0
 11
302.24778700000002
 21
464.83195499999999
 31
0.0
  0
LINE
  5
533
  8
0
 62
     9
 10
291.2477649999999
 20
479.83190899999988
 30
0.0
 11
291.2477649999999
 21
464.831909
 31
0.0
  0
LINE
  5
534
  8
0
 62
     9
 10
267.24776500000002
 20
479.83190899999988
 30
0.0
 11
267.24776500000002
 21
464.831909
 31
0.0
  0
LINE
  5
535
  8
0
 62
     9
 10
291.2477649999999
 20
479.83190899999988
 30
0.0
 11
290.24776500000002
 21
480.831909
 31
0.0
  0
LINE
  5
536
  8
0
 62
     9
 10
268.24776500000002
 20
480.8319019999999
 30
0.0
 11
267.24776500000002
 21
479.83190200000001
 31
0.0
  0
LINE
  5
537
  8
0
 62
     7
 10
325.24774200000002
 20
505.631912
 30
0.0
 11
325.24774200000002
 21
503.131912
 31
0.0
  0
LINE
  5
538
  8
0
 62
     7
 10
303.24774200000002
 20
505.631912
 30
0.0
 11
303.24774200000002
 21
503.131912
 31
0.0
  0
LINE
  5
539
  8
0
 62
     7
 10
325.24774200000002
 20
497.131912
 30
0.0
 11
325.24774200000002
 21
494.631912
 31
0.0
  0
LINE
  5
53A
  8
0
 62
     7
 10
303.24774200000002
 20
497.131912
 30
0.0
 11
303.24774200000002
 21
494.631912
 31
0.0
  0
LINE
  5
53B
  8
0
 62
     3
 10
279.24773399999998
 20
487.63191199999989
 30
0.0
 11
279.24773399999998
 21
481.631912
 31
0.0
  0
LINE
  5
53C
  8
0
 62
     3
 10
279.24773399999998
 20
494.631912
 30
0.0
 11
279.24773399999998
 21
488.631912
 31
0.0
  0
LINE
  5
53D
  8
0
 62
     3
 10
279.24773399999998
 20
511.63191199999989
 30
0.0
 11
279.24773399999998
 21
505.631912
 31
0.0
  0
LINE
  5
53E
  8
0
 62
     7
 10
324.24774200000002
 20
481.631912
 30
0.0
 11
324.24774200000002
 21
480.831909
 31
0.0
  0
LINE
  5
53F
  8
0
 62
     7
 10
304.24774200000002
 20
481.631912
 30
0.0
 11
304.24774200000002
 21
480.831909
 31
0.0
  0
LINE
  5
540
  8
0
 62
   211
 10
320.24775699999992
 20
512.3319019999999
 30
0.0
 11
318.24775699999992
 21
514.33190199999979
 31
0.0
  0
LINE
  5
541
  8
0
 62
   211
 10
310.24775699999998
 20
514.33190199999979
 30
0.0
 11
308.24775699999998
 21
512.3319019999999
 31
0.0
  0
LINE
  5
542
  8
0
 62
   211
 10
320.247772
 20
512.33190899999988
 30
0.0
 11
320.247772
 21
511.63191199999989
 31
0.0
  0
LINE
  5
543
  8
0
 62
   211
 10
320.247772
 20
503.131912
 30
0.0
 11
320.247772
 21
497.131912
 31
0.0
  0
LINE
  5
544
  8
0
 62
   211
 10
320.247772
 20
488.631912
 30
0.0
 11
320.247772
 21
487.63191199999989
 31
0.0
  0
LINE
  5
545
  8
0
 62
   211
 10
320.247772
 20
512.33190899999988
 30
0.0
 11
308.24777199999988
 21
512.33190899999988
 31
0.0
  0
LINE
  5
546
  8
0
 62
   211
 10
308.24777199999988
 20
512.33190899999988
 30
0.0
 11
308.24777199999988
 21
511.63191199999989
 31
0.0
  0
LINE
  5
547
  8
0
 62
   211
 10
308.24777199999988
 20
503.131912
 30
0.0
 11
308.24777199999988
 21
497.131912
 31
0.0
  0
LINE
  5
548
  8
0
 62
   211
 10
308.24777199999988
 20
488.631912
 30
0.0
 11
308.24777199999988
 21
487.63191199999989
 31
0.0
  0
LINE
  5
549
  8
0
 62
     9
 10
291.24777999999992
 20
480.83195499999999
 30
0.0
 11
291.24777999999992
 21
479.83190899999988
 31
0.0
  0
LINE
  5
54A
  8
0
 62
     9
 10
267.24777999999992
 20
480.83195499999999
 30
0.0
 11
267.24777999999992
 21
479.83190899999988
 31
0.0
  0
LINE
  5
54B
  8
0
 62
     9
 10
289.24777999999992
 20
531.83195499999999
 30
0.0
 11
289.24777999999992
 21
480.831909
 31
0.0
  0
LINE
  5
54C
  8
0
 62
     9
 10
269.24777999999992
 20
531.83195499999999
 30
0.0
 11
269.24777999999992
 21
480.831909
 31
0.0
  0
LINE
  5
54D
  8
0
 62
     9
 10
289.24777999999992
 20
531.83196299999986
 30
0.0
 11
288.95488
 21
532.53907000000004
 31
0.0
  0
LINE
  5
54E
  8
0
 62
     9
 10
288.95488
 20
532.53905499999985
 30
0.0
 11
288.24777999999992
 21
532.83194700000001
 31
0.0
  0
LINE
  5
54F
  8
0
 62
     9
 10
269.54067199999997
 20
532.53907000000004
 30
0.0
 11
269.24777999999992
 21
531.83196299999986
 31
0.0
  0
LINE
  5
550
  8
0
 62
     9
 10
270.24778700000002
 20
532.83195499999988
 30
0.0
 11
269.54068000000001
 21
532.53906299999994
 31
0.0
  0
LINE
  5
551
  8
0
 62
     7
 10
268.24776500000002
 20
549.13192000000004
 30
0.0
 11
268.24776500000002
 21
546.63192000000004
 31
0.0
  0
LINE
  5
552
  8
0
 62
     7
 10
290.24776500000002
 20
549.13192000000004
 30
0.0
 11
290.24776500000002
 21
546.63192000000004
 31
0.0
  0
LINE
  5
553
  8
0
 62
     7
 10
268.24776500000002
 20
557.63192000000004
 30
0.0
 11
268.24776500000002
 21
555.13192000000004
 31
0.0
  0
LINE
  5
554
  8
0
 62
     7
 10
290.24776500000002
 20
557.63192000000004
 30
0.0
 11
290.24776500000002
 21
555.13192000000004
 31
0.0
  0
LINE
  5
555
  8
0
 62
     3
 10
279.24776500000002
 20
539.63191200000006
 30
0.0
 11
279.24776500000002
 21
533.63191200000006
 31
0.0
  0
LINE
  5
556
  8
0
 62
     3
 10
279.24776500000002
 20
546.63192000000004
 30
0.0
 11
279.24776500000002
 21
540.63191200000006
 31
0.0
  0
LINE
  5
557
  8
0
 62
     3
 10
279.24776500000002
 20
563.63192000000004
 30
0.0
 11
279.24776500000002
 21
557.63192000000004
 31
0.0
  0
LINE
  5
558
  8
0
 62
     7
 10
269.24776500000002
 20
533.63191200000006
 30
0.0
 11
269.24776500000002
 21
532.83190899999988
 31
0.0
  0
LINE
  5
559
  8
0
 62
     7
 10
289.24776500000002
 20
533.63191200000006
 30
0.0
 11
289.24776500000002
 21
532.83190899999988
 31
0.0
  0
LINE
  5
55A
  8
0
 62
   211
 10
275.24776500000002
 20
566.3319019999999
 30
0.0
 11
273.24776500000002
 21
564.33190199999979
 31
0.0
  0
LINE
  5
55B
  8
0
 62
   211
 10
285.24776500000002
 20
564.33190199999979
 30
0.0
 11
283.24776500000002
 21
566.3319019999999
 31
0.0
  0
LINE
  5
55C
  8
0
 62
   211
 10
273.24776500000002
 20
564.33190199999979
 30
0.0
 11
273.24776500000002
 21
563.63192000000004
 31
0.0
  0
LINE
  5
55D
  8
0
 62
   211
 10
273.24776500000002
 20
555.13192000000004
 30
0.0
 11
273.24776500000002
 21
549.13192000000004
 31
0.0
  0
LINE
  5
55E
  8
0
 62
   211
 10
273.24776500000002
 20
540.63191200000006
 30
0.0
 11
273.24776500000002
 21
539.63191200000006
 31
0.0
  0
LINE
  5
55F
  8
0
 62
   211
 10
285.24776500000002
 20
564.33190199999979
 30
0.0
 11
273.24776500000002
 21
564.33190199999979
 31
0.0
  0
LINE
  5
560
  8
0
 62
   211
 10
285.24776500000002
 20
564.33190199999979
 30
0.0
 11
285.24776500000002
 21
563.63192000000004
 31
0.0
  0
LINE
  5
561
  8
0
 62
   211
 10
285.24776500000002
 20
555.13192000000004
 30
0.0
 11
285.24776500000002
 21
549.13192000000004
 31
0.0
  0
LINE
  5
562
  8
0
 62
   211
 10
285.24776500000002
 20
540.63191200000006
 30
0.0
 11
285.24776500000002
 21
539.63191200000006
 31
0.0
  0
LINE
  5
563
  8
0
 62
     7
 10
296.74778700000002
 20
453.83195499999988
 30
0.0
 11
261.74777999999992
 21
453.83195499999988
 31
0.0
  0
LINE
  5
564
  8
0
 62
     7
 10
261.74777999999992
 20
453.83195499999988
 30
0.0
 11
226.74782200000001
 21
453.83195499999988
 31
0.0
  0
LINE
  5
565
  8
0
 62
     6
 10
261.74777999999992
 20
416.83190899999988
 30
0.0
 11
256.747795
 21
416.83190899999988
 31
0.0
  0
LINE
  5
566
  8
0
 62
     6
 10
296.74778700000002
 20
416.83190899999988
 30
0.0
 11
291.74779499999988
 21
416.83190899999988
 31
0.0
  0
LINE
  5
567
  8
0
 62
     7
 10
301.74775699999998
 20
464.33193999999997
 30
0.0
 11
301.74775699999998
 21
460.33195499999999
 31
0.0
  0
LINE
  5
568
  8
0
 62
     7
 10
291.74777999999992
 20
464.33193999999997
 30
0.0
 11
291.74777999999992
 21
460.33195499999999
 31
0.0
  0
LINE
  5
569
  8
0
 62
     7
 10
266.74777999999992
 20
464.33195499999999
 30
0.0
 11
266.74777999999992
 21
460.33195499999999
 31
0.0
  0
LINE
  5
56A
  8
0
 62
     7
 10
256.747795
 20
464.33195499999999
 30
0.0
 11
256.747795
 21
460.33195499999999
 31
0.0
  0
LINE
  5
56B
  8
0
 62
     6
 10
195.74779699999999
 20
466.33195499999988
 30
0.0
 11
195.74779699999999
 21
460.33195499999999
 31
0.0
  0
LINE
  5
56C
  8
0
 62
     2
 10
269.99776500000002
 20
432.83190899999988
 30
0.0
 11
269.99776500000002
 21
427.831909
 31
0.0
  0
LINE
  5
56D
  8
0
 62
     2
 10
288.49776500000002
 20
432.83190899999988
 30
0.0
 11
288.49776500000002
 21
427.831909
 31
0.0
  0
LINE
  5
56E
  8
0
 62
     2
 10
288.49776500000002
 20
432.83190899999988
 30
0.0
 11
269.99776500000002
 21
432.83190899999988
 31
0.0
  0
LINE
  5
56F
  8
0
 62
     2
 10
269.99778700000002
 20
427.831909
 30
0.0
 11
269.99778700000002
 21
417.831909
 31
0.0
  0
LINE
  5
570
  8
0
 62
     2
 10
288.49778700000002
 20
427.831909
 30
0.0
 11
288.49778700000002
 21
417.831909
 31
0.0
  0
LINE
  5
571
  8
0
 62
     2
 10
269.99778700000002
 20
427.831909
 30
0.0
 11
266.24779499999988
 21
427.831909
 31
0.0
  0
LINE
  5
572
  8
0
 62
     2
 10
292.247795
 20
427.831909
 30
0.0
 11
288.497795
 21
427.831909
 31
0.0
  0
LINE
  5
573
  8
0
 62
     2
 10
292.247795
 20
416.83190899999988
 30
0.0
 11
289.24779499999988
 21
416.83190899999988
 31
0.0
  0
LINE
  5
574
  8
0
 62
     2
 10
269.247795
 20
416.83190899999988
 30
0.0
 11
266.24779499999988
 21
416.83190899999988
 31
0.0
  0
LINE
  5
575
  8
0
 62
     2
 10
269.247795
 20
417.831909
 30
0.0
 11
269.247795
 21
416.83190899999988
 31
0.0
  0
LINE
  5
576
  8
0
 62
     2
 10
289.24779499999988
 20
417.831909
 30
0.0
 11
289.24779499999988
 21
416.83190899999988
 31
0.0
  0
LINE
  5
577
  8
0
 62
     2
 10
289.24779499999988
 20
416.83190899999988
 30
0.0
 11
269.247795
 21
416.83190899999988
 31
0.0
  0
LINE
  5
578
  8
0
 62
     2
 10
289.24779499999988
 20
417.831909
 30
0.0
 11
288.49776500000002
 21
417.831909
 31
0.0
  0
LINE
  5
579
  8
0
 62
     2
 10
269.99776500000002
 20
417.831909
 30
0.0
 11
269.247795
 21
417.831909
 31
0.0
  0
LINE
  5
57A
  8
0
 62
     2
 10
269.99776500000002
 20
424.09986099999998
 30
0.0
 11
268.99781000000002
 21
424.09986099999998
 31
0.0
  0
LINE
  5
57B
  8
0
 62
     2
 10
269.99778700000002
 20
427.83190599999989
 30
0.0
 11
268.99781000000002
 21
424.09985799999998
 31
0.0
  0
LINE
  5
57C
  8
0
 62
     2
 10
289.49781799999988
 20
424.09986099999998
 30
0.0
 11
288.497818
 21
424.09986099999998
 31
0.0
  0
LINE
  5
57D
  8
0
 62
     2
 10
289.49781799999988
 20
424.09985399999988
 30
0.0
 11
288.497795
 21
427.83190300000001
 31
0.0
  0
LINE
  5
57E
  8
0
 62
     2
 10
304.997772
 20
432.83190899999988
 30
0.0
 11
304.997772
 21
427.831909
 31
0.0
  0
LINE
  5
57F
  8
0
 62
     2
 10
323.49777199999988
 20
432.83190899999988
 30
0.0
 11
323.49777199999988
 21
427.831909
 31
0.0
  0
LINE
  5
580
  8
0
 62
     2
 10
323.49777199999988
 20
432.83190899999988
 30
0.0
 11
304.997772
 21
432.83190899999988
 31
0.0
  0
LINE
  5
581
  8
0
 62
     2
 10
304.997772
 20
427.831909
 30
0.0
 11
304.997772
 21
417.831909
 31
0.0
  0
LINE
  5
582
  8
0
 62
     2
 10
323.49777199999988
 20
427.831909
 30
0.0
 11
323.49777199999988
 21
417.831909
 31
0.0
  0
LINE
  5
583
  8
0
 62
     2
 10
304.99780299999992
 20
427.831909
 30
0.0
 11
301.24780299999998
 21
427.831909
 31
0.0
  0
LINE
  5
584
  8
0
 62
     2
 10
327.24780299999992
 20
427.831909
 30
0.0
 11
323.49780299999992
 21
427.831909
 31
0.0
  0
LINE
  5
585
  8
0
 62
     2
 10
327.24780299999992
 20
416.83190899999988
 30
0.0
 11
324.24780299999998
 21
416.83190899999988
 31
0.0
  0
LINE
  5
586
  8
0
 62
     2
 10
304.24780299999992
 20
416.83190899999988
 30
0.0
 11
301.24780299999998
 21
416.83190899999988
 31
0.0
  0
LINE
  5
587
  8
0
 62
     2
 10
304.24780299999992
 20
417.831909
 30
0.0
 11
304.24780299999992
 21
416.83190899999988
 31
0.0
  0
LINE
  5
588
  8
0
 62
     2
 10
324.24780299999998
 20
417.831909
 30
0.0
 11
324.24780299999998
 21
416.83190899999988
 31
0.0
  0
LINE
  5
589
  8
0
 62
     2
 10
324.24780299999998
 20
416.83190899999988
 30
0.0
 11
304.24780299999992
 21
416.83190899999988
 31
0.0
  0
LINE
  5
58A
  8
0
 62
     2
 10
324.24780299999998
 20
417.831909
 30
0.0
 11
323.49777199999988
 21
417.831909
 31
0.0
  0
LINE
  5
58B
  8
0
 62
     2
 10
304.997772
 20
417.831909
 30
0.0
 11
304.24780299999992
 21
417.831909
 31
0.0
  0
LINE
  5
58C
  8
0
 62
     2
 10
304.997772
 20
424.09986099999998
 30
0.0
 11
303.99781799999988
 21
424.09986099999998
 31
0.0
  0
LINE
  5
58D
  8
0
 62
     2
 10
304.99780299999992
 20
427.83190999999988
 30
0.0
 11
303.99781799999988
 21
424.09986199999997
 31
0.0
  0
LINE
  5
58E
  8
0
 62
     2
 10
324.49781799999988
 20
424.09986099999998
 30
0.0
 11
323.497818
 21
424.09986099999998
 31
0.0
  0
LINE
  5
58F
  8
0
 62
     2
 10
324.49780299999992
 20
424.09985199999988
 30
0.0
 11
323.49778700000002
 21
427.83190000000002
 31
0.0
  0
LINE
  5
590
  8
0
 62
     2
 10
234.99776499999999
 20
432.83190899999988
 30
0.0
 11
234.99776499999999
 21
427.831909
 31
0.0
  0
LINE
  5
591
  8
0
 62
     2
 10
253.49776499999999
 20
432.83190899999988
 30
0.0
 11
253.49776499999999
 21
427.831909
 31
0.0
  0
LINE
  5
592
  8
0
 62
     2
 10
253.49776499999999
 20
432.83190899999988
 30
0.0
 11
234.99776499999999
 21
432.83190899999988
 31
0.0
  0
LINE
  5
593
  8
0
 62
     2
 10
234.99778699999999
 20
427.831909
 30
0.0
 11
234.99778699999999
 21
417.8319019999999
 31
0.0
  0
LINE
  5
594
  8
0
 62
     2
 10
253.49778699999999
 20
427.831909
 30
0.0
 11
253.49778699999999
 21
417.83191699999992
 31
0.0
  0
LINE
  5
595
  8
0
 62
     2
 10
234.99778699999999
 20
427.831909
 30
0.0
 11
231.247795
 21
427.831909
 31
0.0
  0
LINE
  5
596
  8
0
 62
     2
 10
257.247795
 20
427.831909
 30
0.0
 11
253.497795
 21
427.831909
 31
0.0
  0
LINE
  5
597
  8
0
 62
     2
 10
257.247795
 20
416.83190899999988
 30
0.0
 11
254.247795
 21
416.83190899999988
 31
0.0
  0
LINE
  5
598
  8
0
 62
     2
 10
234.247795
 20
416.83190899999988
 30
0.0
 11
231.247795
 21
416.83190899999988
 31
0.0
  0
LINE
  5
599
  8
0
 62
     2
 10
234.247795
 20
417.831909
 30
0.0
 11
234.247795
 21
416.83190899999988
 31
0.0
  0
LINE
  5
59A
  8
0
 62
     2
 10
254.247795
 20
417.831909
 30
0.0
 11
254.247795
 21
416.83190899999988
 31
0.0
  0
LINE
  5
59B
  8
0
 62
     2
 10
254.247795
 20
416.83190899999988
 30
0.0
 11
234.247795
 21
416.83190899999988
 31
0.0
  0
LINE
  5
59C
  8
0
 62
     2
 10
254.247795
 20
417.831909
 30
0.0
 11
253.49776499999999
 21
417.831909
 31
0.0
  0
LINE
  5
59D
  8
0
 62
     2
 10
234.99776499999999
 20
417.831909
 30
0.0
 11
234.247795
 21
417.831909
 31
0.0
  0
LINE
  5
59E
  8
0
 62
     2
 10
234.99776499999999
 20
424.09986099999998
 30
0.0
 11
233.99780999999999
 21
424.09986099999998
 31
0.0
  0
LINE
  5
59F
  8
0
 62
     2
 10
234.99778699999999
 20
427.83190599999989
 30
0.0
 11
233.99780999999999
 21
424.09985799999998
 31
0.0
  0
LINE
  5
5A0
  8
0
 62
     2
 10
254.497818
 20
424.09986099999998
 30
0.0
 11
253.497818
 21
424.09986099999998
 31
0.0
  0
LINE
  5
5A1
  8
0
 62
     2
 10
254.497818
 20
424.09985399999988
 30
0.0
 11
253.497795
 21
427.8319019999999
 31
0.0
  0
LINE
  5
5A2
  8
0
 62
     2
 10
266.24779499999988
 20
427.831909
 30
0.0
 11
266.24779499999988
 21
416.83190899999988
 31
0.0
  0
LINE
  5
5A3
  8
0
 62
     2
 10
292.247795
 20
427.831909
 30
0.0
 11
292.247795
 21
416.83190899999988
 31
0.0
  0
LINE
  5
5A4
  8
0
 62
     2
 10
291.74779499999988
 20
416.83190799999988
 30
0.0
 11
291.681129
 21
414.831909
 31
0.0
  0
LINE
  5
5A5
  8
0
 62
     2
 10
266.81446099999999
 20
414.831909
 30
0.0
 11
266.74779499999988
 21
416.83190799999988
 31
0.0
  0
LINE
  5
5A6
  8
0
 62
     2
 10
301.24780299999998
 20
427.831909
 30
0.0
 11
301.24780299999998
 21
416.83190899999988
 31
0.0
  0
LINE
  5
5A7
  8
0
 62
     2
 10
327.24780299999992
 20
427.831909
 30
0.0
 11
327.24780299999992
 21
416.83190899999988
 31
0.0
  0
LINE
  5
5A8
  8
0
 62
     2
 10
326.74780299999992
 20
416.83190799999988
 30
0.0
 11
326.68112200000002
 21
414.831909
 31
0.0
  0
LINE
  5
5A9
  8
0
 62
     2
 10
301.81446799999998
 20
414.831909
 30
0.0
 11
301.74780299999992
 21
416.83190799999988
 31
0.0
  0
LINE
  5
5AA
  8
0
 62
     2
 10
231.247795
 20
427.831909
 30
0.0
 11
231.247795
 21
416.83190899999988
 31
0.0
  0
LINE
  5
5AB
  8
0
 62
     2
 10
257.247795
 20
427.831909
 30
0.0
 11
257.247795
 21
416.83190899999988
 31
0.0
  0
LINE
  5
5AC
  8
0
 62
     2
 10
256.747795
 20
416.83190799999988
 30
0.0
 11
256.68112899999988
 21
414.831909
 31
0.0
  0
LINE
  5
5AD
  8
0
 62
     2
 10
231.81446099999999
 20
414.831909
 30
0.0
 11
231.747795
 21
416.83190799999988
 31
0.0
  0
LINE
  5
5AE
  8
0
 62
     6
 10
219.49777999999989
 20
435.331909
 30
0.0
 11
198.99778000000001
 21
435.331909
 31
0.0
  0
LINE
  5
5AF
  8
0
 62
     6
 10
198.99778000000001
 20
435.331909
 30
0.0
 11
198.99778000000001
 21
427.831909
 31
0.0
  0
LINE
  5
5B0
  8
0
 62
     6
 10
219.49777999999989
 20
435.331909
 30
0.0
 11
219.49777999999989
 21
427.831909
 31
0.0
  0
LINE
  5
5B1
  8
0
 62
   211
 10
200.7477649999999
 20
433.33190899999988
 30
0.0
 11
200.7477649999999
 21
432.83190899999988
 31
0.0
  0
LINE
  5
5B2
  8
0
 62
   211
 10
217.7477649999999
 20
433.33190899999988
 30
0.0
 11
217.7477649999999
 21
432.83190899999988
 31
0.0
  0
LINE
  5
5B3
  8
0
 62
   211
 10
205.74776499999999
 20
433.33190899999988
 30
0.0
 11
205.74776499999999
 21
432.83190899999988
 31
0.0
  0
LINE
  5
5B4
  8
0
 62
   211
 10
212.7477649999999
 20
433.33190899999988
 30
0.0
 11
212.7477649999999
 21
432.83190899999988
 31
0.0
  0
LINE
  5
5B5
  8
0
 62
     6
 10
226.74777999999989
 20
416.83190899999988
 30
0.0
 11
221.747795
 21
416.83190899999988
 31
0.0
  0
LINE
  5
5B6
  8
0
 62
     2
 10
199.9977649999999
 20
432.83190899999988
 30
0.0
 11
199.9977649999999
 21
427.831909
 31
0.0
  0
LINE
  5
5B7
  8
0
 62
     2
 10
218.4977649999999
 20
432.83190899999988
 30
0.0
 11
218.4977649999999
 21
427.831909
 31
0.0
  0
LINE
  5
5B8
  8
0
 62
     2
 10
218.4977649999999
 20
432.83190899999988
 30
0.0
 11
199.9977649999999
 21
432.83190899999988
 31
0.0
  0
LINE
  5
5B9
  8
0
 62
     2
 10
199.99778699999999
 20
427.831909
 30
0.0
 11
199.99778699999999
 21
417.8319019999999
 31
0.0
  0
LINE
  5
5BA
  8
0
 62
     2
 10
218.49778699999999
 20
427.831909
 30
0.0
 11
218.49778699999999
 21
417.83191699999992
 31
0.0
  0
LINE
  5
5BB
  8
0
 62
     2
 10
199.99778699999999
 20
427.831909
 30
0.0
 11
196.24779699999991
 21
427.831909
 31
0.0
  0
LINE
  5
5BC
  8
0
 62
     2
 10
222.247795
 20
427.831909
 30
0.0
 11
218.497795
 21
427.831909
 31
0.0
  0
LINE
  5
5BD
  8
0
 62
     2
 10
222.247795
 20
416.83190899999988
 30
0.0
 11
219.247795
 21
416.83190899999988
 31
0.0
  0
LINE
  5
5BE
  8
0
 62
     2
 10
199.24779499999991
 20
416.83190899999988
 30
0.0
 11
196.24779699999991
 21
416.83190899999988
 31
0.0
  0
LINE
  5
5BF
  8
0
 62
     2
 10
199.24779499999991
 20
417.831909
 30
0.0
 11
199.24779499999991
 21
416.83190899999988
 31
0.0
  0
LINE
  5
5C0
  8
0
 62
     2
 10
219.247795
 20
417.831909
 30
0.0
 11
219.247795
 21
416.83190899999988
 31
0.0
  0
LINE
  5
5C1
  8
0
 62
     2
 10
219.247795
 20
416.83190899999988
 30
0.0
 11
199.24779499999991
 21
416.83190899999988
 31
0.0
  0
LINE
  5
5C2
  8
0
 62
     2
 10
219.247795
 20
417.831909
 30
0.0
 11
218.4977649999999
 21
417.831909
 31
0.0
  0
LINE
  5
5C3
  8
0
 62
     2
 10
199.9977649999999
 20
417.831909
 30
0.0
 11
199.24779499999991
 21
417.831909
 31
0.0
  0
LINE
  5
5C4
  8
0
 62
     2
 10
199.9977649999999
 20
424.09986099999998
 30
0.0
 11
198.99780999999999
 21
424.09986099999998
 31
0.0
  0
LINE
  5
5C5
  8
0
 62
     2
 10
199.99778699999999
 20
427.83190599999989
 30
0.0
 11
198.99780999999999
 21
424.09985799999998
 31
0.0
  0
LINE
  5
5C6
  8
0
 62
     2
 10
219.497818
 20
424.09986099999998
 30
0.0
 11
218.497818
 21
424.09986099999998
 31
0.0
  0
LINE
  5
5C7
  8
0
 62
     2
 10
219.497818
 20
424.09985399999988
 30
0.0
 11
218.497795
 21
427.8319019999999
 31
0.0
  0
LINE
  5
5C8
  8
0
 62
     2
 10
196.24779699999991
 20
427.831909
 30
0.0
 11
196.24779699999991
 21
416.83190899999988
 31
0.0
  0
LINE
  5
5C9
  8
0
 62
     2
 10
222.247795
 20
427.831909
 30
0.0
 11
222.247795
 21
416.83190899999988
 31
0.0
  0
LINE
  5
5CA
  8
0
 62
     2
 10
221.747795
 20
416.83190799999988
 30
0.0
 11
221.68112899999991
 21
414.831909
 31
0.0
  0
LINE
  5
5CB
  8
0
 62
     2
 10
196.8144649999999
 20
414.831909
 30
0.0
 11
196.74779499999991
 21
416.83190799999988
 31
0.0
  0
LINE
  5
5CC
  8
0
 62
     6
 10
231.747795
 20
416.83190899999988
 30
0.0
 11
226.74777999999989
 21
416.83190899999988
 31
0.0
  0
LINE
  5
5CD
  8
0
 62
     7
 10
226.74777999999989
 20
453.83195499999988
 30
0.0
 11
191.74782400000001
 21
453.83195499999988
 31
0.0
  0
LINE
  5
5CE
  8
0
 62
     9
 10
220.24776499999999
 20
480.831909
 30
0.0
 11
198.2477649999999
 21
480.831909
 31
0.0
  0
LINE
  5
5CF
  8
0
 62
     7
 10
255.24773399999989
 20
503.131912
 30
0.0
 11
233.24773400000001
 21
503.131912
 31
0.0
  0
LINE
  5
5D0
  8
0
 62
     7
 10
234.74773399999989
 20
505.631912
 30
0.0
 11
233.24773400000001
 21
505.631912
 31
0.0
  0
LINE
  5
5D1
  8
0
 62
     7
 10
253.60454599999991
 20
505.631912
 30
0.0
 11
234.8909229999999
 21
505.631912
 31
0.0
  0
LINE
  5
5D2
  8
0
 62
     7
 10
255.24773399999989
 20
505.631912
 30
0.0
 11
253.74773399999989
 21
505.631912
 31
0.0
  0
LINE
  5
5D3
  8
0
 62
     7
 10
255.24773399999989
 20
494.631912
 30
0.0
 11
253.74773399999989
 21
494.631912
 31
0.0
  0
LINE
  5
5D4
  8
0
 62
     7
 10
253.60454599999991
 20
494.631912
 30
0.0
 11
234.8909229999999
 21
494.631912
 31
0.0
  0
LINE
  5
5D5
  8
0
 62
     7
 10
234.74773399999989
 20
494.631912
 30
0.0
 11
233.24773400000001
 21
494.631912
 31
0.0
  0
LINE
  5
5D6
  8
0
 62
     7
 10
255.24773399999989
 20
497.131912
 30
0.0
 11
233.24773400000001
 21
497.131912
 31
0.0
  0
LINE
  5
5D7
  8
0
 62
     3
 10
253.74773399999989
 20
487.63191199999989
 30
0.0
 11
253.74773399999989
 21
481.631912
 31
0.0
  0
LINE
  5
5D8
  8
0
 62
     3
 10
234.74773399999989
 20
487.63191199999989
 30
0.0
 11
234.74773399999989
 21
481.631912
 31
0.0
  0
LINE
  5
5D9
  8
0
 62
     3
 10
253.74773399999989
 20
487.63191199999989
 30
0.0
 11
234.74773399999989
 21
487.63191199999989
 31
0.0
  0
LINE
  5
5DA
  8
0
 62
     3
 10
253.74773399999989
 20
481.631912
 30
0.0
 11
251.34191100000001
 21
481.631912
 31
0.0
  0
LINE
  5
5DB
  8
0
 62
     3
 10
246.56212599999989
 20
481.631912
 30
0.0
 11
241.93332699999999
 21
481.631912
 31
0.0
  0
LINE
  5
5DC
  8
0
 62
     3
 10
237.1535189999999
 20
481.631912
 30
0.0
 11
234.74773399999989
 21
481.631912
 31
0.0
  0
LINE
  5
5DD
  8
0
 62
     3
 10
253.74773399999989
 20
494.631912
 30
0.0
 11
253.74773399999989
 21
488.631912
 31
0.0
  0
LINE
  5
5DE
  8
0
 62
     3
 10
234.74773399999989
 20
494.631912
 30
0.0
 11
234.74773399999989
 21
488.631912
 31
0.0
  0
LINE
  5
5DF
  8
0
 62
     3
 10
234.8909229999999
 20
494.631912
 30
0.0
 11
234.74773399999989
 21
494.631912
 31
0.0
  0
LINE
  5
5E0
  8
0
 62
     3
 10
253.74773399999989
 20
494.631912
 30
0.0
 11
253.60453799999999
 21
494.631912
 31
0.0
  0
LINE
  5
5E1
  8
0
 62
     3
 10
253.74773399999989
 20
488.631912
 30
0.0
 11
234.74773399999989
 21
488.631912
 31
0.0
  0
LINE
  5
5E2
  8
0
 62
     3
 10
253.74773399999989
 20
511.63191199999989
 30
0.0
 11
253.74773399999989
 21
505.631912
 31
0.0
  0
LINE
  5
5E3
  8
0
 62
     3
 10
234.74773399999989
 20
511.63191199999989
 30
0.0
 11
234.74773399999989
 21
505.631912
 31
0.0
  0
LINE
  5
5E4
  8
0
 62
     3
 10
253.74773399999989
 20
505.631912
 30
0.0
 11
253.60453799999999
 21
505.631912
 31
0.0
  0
LINE
  5
5E5
  8
0
 62
     3
 10
234.8909229999999
 20
505.631912
 30
0.0
 11
234.74773399999989
 21
505.631912
 31
0.0
  0
LINE
  5
5E6
  8
0
 62
     3
 10
253.74773399999989
 20
511.63191199999989
 30
0.0
 11
234.74773399999989
 21
511.63191199999989
 31
0.0
  0
LINE
  5
5E7
  8
0
 62
     7
 10
234.74773399999989
 20
481.631912
 30
0.0
 11
234.24773399999989
 21
481.631912
 31
0.0
  0
LINE
  5
5E8
  8
0
 62
     7
 10
241.93331099999989
 20
481.631912
 30
0.0
 11
237.1535419999999
 21
481.631912
 31
0.0
  0
LINE
  5
5E9
  8
0
 62
     7
 10
251.3419419999999
 20
481.631912
 30
0.0
 11
246.562141
 21
481.631912
 31
0.0
  0
LINE
  5
5EA
  8
0
 62
     7
 10
254.24773400000001
 20
481.631912
 30
0.0
 11
253.74773399999989
 21
481.631912
 31
0.0
  0
LINE
  5
5EB
  8
0
 62
   211
 10
248.2477649999999
 20
514.331909
 30
0.0
 11
240.2477649999999
 21
514.331909
 31
0.0
  0
LINE
  5
5EC
  8
0
 62
     9
 10
198.2477649999999
 20
480.83195499999999
 30
0.0
 11
197.24778000000001
 21
480.83195499999999
 31
0.0
  0
LINE
  5
5ED
  8
0
 62
     9
 10
221.24777999999989
 20
480.83195499999999
 30
0.0
 11
220.24776499999999
 21
480.83195499999999
 31
0.0
  0
LINE
  5
5EE
  8
0
 62
     7
 10
220.24776499999999
 20
546.63192000000004
 30
0.0
 11
218.7477649999999
 21
546.63192000000004
 31
0.0
  0
LINE
  5
5EF
  8
0
 62
     7
 10
218.60457599999989
 20
546.63192000000004
 30
0.0
 11
199.89094499999999
 21
546.63192000000004
 31
0.0
  0
LINE
  5
5F0
  8
0
 62
     7
 10
199.74776499999999
 20
546.63192000000004
 30
0.0
 11
198.2477649999999
 21
546.63192000000004
 31
0.0
  0
LINE
  5
5F1
  8
0
 62
     7
 10
220.24776499999999
 20
549.13192000000004
 30
0.0
 11
198.2477649999999
 21
549.13192000000004
 31
0.0
  0
LINE
  5
5F2
  8
0
 62
     7
 10
220.24776499999999
 20
555.13192000000004
 30
0.0
 11
198.2477649999999
 21
555.13192000000004
 31
0.0
  0
LINE
  5
5F3
  8
0
 62
     7
 10
199.74776499999999
 20
557.63192000000004
 30
0.0
 11
198.2477649999999
 21
557.63192000000004
 31
0.0
  0
LINE
  5
5F4
  8
0
 62
     7
 10
218.60457599999989
 20
557.63192000000004
 30
0.0
 11
199.89094499999999
 21
557.63192000000004
 31
0.0
  0
LINE
  5
5F5
  8
0
 62
     7
 10
220.24776499999999
 20
557.63192000000004
 30
0.0
 11
218.7477649999999
 21
557.63192000000004
 31
0.0
  0
LINE
  5
5F6
  8
0
 62
     3
 10
199.74776499999999
 20
539.63191200000006
 30
0.0
 11
199.74776499999999
 21
533.63191200000006
 31
0.0
  0
LINE
  5
5F7
  8
0
 62
     3
 10
218.7477649999999
 20
539.63191200000006
 30
0.0
 11
218.7477649999999
 21
533.63191200000006
 31
0.0
  0
LINE
  5
5F8
  8
0
 62
     3
 10
218.7477649999999
 20
539.63191200000006
 30
0.0
 11
199.74776499999999
 21
539.63191200000006
 31
0.0
  0
LINE
  5
5F9
  8
0
 62
     3
 10
218.7477649999999
 20
533.63191200000006
 30
0.0
 11
216.3419649999999
 21
533.63191200000006
 31
0.0
  0
LINE
  5
5FA
  8
0
 62
     3
 10
211.562172
 20
533.63191200000006
 30
0.0
 11
206.9333649999999
 21
533.63191200000006
 31
0.0
  0
LINE
  5
5FB
  8
0
 62
     3
 10
202.153549
 20
533.63191200000006
 30
0.0
 11
199.74776499999999
 21
533.63191200000006
 31
0.0
  0
LINE
  5
5FC
  8
0
 62
     3
 10
199.74776499999999
 20
546.63192000000004
 30
0.0
 11
199.74776499999999
 21
540.63191200000006
 31
0.0
  0
LINE
  5
5FD
  8
0
 62
     3
 10
218.7477649999999
 20
546.63192000000004
 30
0.0
 11
218.7477649999999
 21
540.63191200000006
 31
0.0
  0
LINE
  5
5FE
  8
0
 62
     3
 10
199.89094499999999
 20
546.63192000000004
 30
0.0
 11
199.74776499999999
 21
546.63192000000004
 31
0.0
  0
LINE
  5
5FF
  8
0
 62
     3
 10
218.7477649999999
 20
546.63192000000004
 30
0.0
 11
218.604568
 21
546.63192000000004
 31
0.0
  0
LINE
  5
600
  8
0
 62
     3
 10
218.7477649999999
 20
540.63191200000006
 30
0.0
 11
199.74776499999999
 21
540.63191200000006
 31
0.0
  0
LINE
  5
601
  8
0
 62
     3
 10
199.74776499999999
 20
563.63192000000004
 30
0.0
 11
199.74776499999999
 21
557.63192000000004
 31
0.0
  0
LINE
  5
602
  8
0
 62
     3
 10
218.7477649999999
 20
563.63192000000004
 30
0.0
 11
218.7477649999999
 21
557.63192000000004
 31
0.0
  0
LINE
  5
603
  8
0
 62
     3
 10
218.7477649999999
 20
557.63192000000004
 30
0.0
 11
218.604568
 21
557.63192000000004
 31
0.0
  0
LINE
  5
604
  8
0
 62
     3
 10
199.89094499999999
 20
557.63192000000004
 30
0.0
 11
199.74776499999999
 21
557.63192000000004
 31
0.0
  0
LINE
  5
605
  8
0
 62
     3
 10
218.7477649999999
 20
563.63192000000004
 30
0.0
 11
199.74776499999999
 21
563.63192000000004
 31
0.0
  0
LINE
  5
606
  8
0
 62
     7
 10
219.2477649999999
 20
532.83190899999988
 30
0.0
 11
199.2477649999999
 21
532.83190899999988
 31
0.0
  0
LINE
  5
607
  8
0
 62
     7
 10
199.74776499999999
 20
533.63191200000006
 30
0.0
 11
199.2477649999999
 21
533.63191200000006
 31
0.0
  0
LINE
  5
608
  8
0
 62
     7
 10
206.93335699999989
 20
533.63191200000006
 30
0.0
 11
202.1535419999999
 21
533.63191200000006
 31
0.0
  0
LINE
  5
609
  8
0
 62
     7
 10
216.34195699999989
 20
533.63191200000006
 30
0.0
 11
211.562164
 21
533.63191200000006
 31
0.0
  0
LINE
  5
60A
  8
0
 62
     7
 10
219.2477649999999
 20
533.63191200000006
 30
0.0
 11
218.7477649999999
 21
533.63191200000006
 31
0.0
  0
LINE
  5
60B
  8
0
 62
   211
 10
213.2477649999999
 20
566.3319019999999
 30
0.0
 11
205.2477649999999
 21
566.3319019999999
 31
0.0
  0
LINE
  5
60C
  8
0
 62
     9
 10
221.2477649999999
 20
479.83190899999988
 30
0.0
 11
221.2477649999999
 21
464.831909
 31
0.0
  0
LINE
  5
60D
  8
0
 62
     9
 10
197.2477649999999
 20
479.83190899999988
 30
0.0
 11
197.2477649999999
 21
464.831909
 31
0.0
  0
LINE
  5
60E
  8
0
 62
     9
 10
221.2477649999999
 20
479.83190899999988
 30
0.0
 11
220.24776499999999
 21
480.831909
 31
0.0
  0
LINE
  5
60F
  8
0
 62
     9
 10
198.247761
 20
480.8319019999999
 30
0.0
 11
197.247761
 21
479.83190200000001
 31
0.0
  0
LINE
  5
610
  8
0
 62
     7
 10
255.24773399999989
 20
505.631912
 30
0.0
 11
255.24773399999989
 21
503.131912
 31
0.0
  0
LINE
  5
611
  8
0
 62
     7
 10
233.24773400000001
 20
505.631912
 30
0.0
 11
233.24773400000001
 21
503.131912
 31
0.0
  0
LINE
  5
612
  8
0
 62
     7
 10
255.24773399999989
 20
497.131912
 30
0.0
 11
255.24773399999989
 21
494.631912
 31
0.0
  0
LINE
  5
613
  8
0
 62
     7
 10
233.24773400000001
 20
497.131912
 30
0.0
 11
233.24773400000001
 21
494.631912
 31
0.0
  0
LINE
  5
614
  8
0
 62
     3
 10
209.24773400000001
 20
487.63191199999989
 30
0.0
 11
209.24773400000001
 21
481.631912
 31
0.0
  0
LINE
  5
615
  8
0
 62
     3
 10
209.24773400000001
 20
494.631912
 30
0.0
 11
209.24773400000001
 21
488.631912
 31
0.0
  0
LINE
  5
616
  8
0
 62
     3
 10
209.24773400000001
 20
511.63191199999989
 30
0.0
 11
209.24773400000001
 21
505.631912
 31
0.0
  0
LINE
  5
617
  8
0
 62
     7
 10
254.24773400000001
 20
481.631912
 30
0.0
 11
254.24773400000001
 21
480.831909
 31
0.0
  0
LINE
  5
618
  8
0
 62
     7
 10
234.24773399999989
 20
481.631912
 30
0.0
 11
234.24773399999989
 21
480.831909
 31
0.0
  0
LINE
  5
619
  8
0
 62
   211
 10
250.2477649999999
 20
512.3319019999999
 30
0.0
 11
248.2477649999999
 21
514.33190199999979
 31
0.0
  0
LINE
  5
61A
  8
0
 62
   211
 10
240.2477649999999
 20
514.33190199999979
 30
0.0
 11
238.2477649999999
 21
512.3319019999999
 31
0.0
  0
LINE
  5
61B
  8
0
 62
   211
 10
250.2477649999999
 20
512.33190899999988
 30
0.0
 11
250.2477649999999
 21
511.63191199999989
 31
0.0
  0
LINE
  5
61C
  8
0
 62
   211
 10
250.2477649999999
 20
503.131912
 30
0.0
 11
250.2477649999999
 21
497.131912
 31
0.0
  0
LINE
  5
61D
  8
0
 62
   211
 10
250.2477649999999
 20
488.631912
 30
0.0
 11
250.2477649999999
 21
487.63191199999989
 31
0.0
  0
LINE
  5
61E
  8
0
 62
   211
 10
250.2477649999999
 20
512.33190899999988
 30
0.0
 11
238.2477649999999
 21
512.33190899999988
 31
0.0
  0
LINE
  5
61F
  8
0
 62
   211
 10
238.2477649999999
 20
512.33190899999988
 30
0.0
 11
238.2477649999999
 21
511.63191199999989
 31
0.0
  0
LINE
  5
620
  8
0
 62
   211
 10
238.2477649999999
 20
503.131912
 30
0.0
 11
238.2477649999999
 21
497.131912
 31
0.0
  0
LINE
  5
621
  8
0
 62
   211
 10
238.2477649999999
 20
488.631912
 30
0.0
 11
238.2477649999999
 21
487.63191199999989
 31
0.0
  0
LINE
  5
622
  8
0
 62
     9
 10
221.24777999999989
 20
480.83195499999999
 30
0.0
 11
221.24777999999989
 21
479.83190899999988
 31
0.0
  0
LINE
  5
623
  8
0
 62
     9
 10
197.24778000000001
 20
480.83195499999999
 30
0.0
 11
197.24778000000001
 21
479.83190899999988
 31
0.0
  0
LINE
  5
624
  8
0
 62
     9
 10
219.24777999999989
 20
531.83195499999999
 30
0.0
 11
219.24777999999989
 21
480.831909
 31
0.0
  0
LINE
  5
625
  8
0
 62
     9
 10
199.24777999999989
 20
531.83195499999999
 30
0.0
 11
199.24777999999989
 21
480.831909
 31
0.0
  0
LINE
  5
626
  8
0
 62
     9
 10
219.247784
 20
531.83196299999986
 30
0.0
 11
218.95488399999999
 21
532.53907000000004
 31
0.0
  0
LINE
  5
627
  8
0
 62
     9
 10
218.95487999999989
 20
532.53905499999985
 30
0.0
 11
218.24778000000001
 21
532.83194700000001
 31
0.0
  0
LINE
  5
628
  8
0
 62
     9
 10
199.54067599999999
 20
532.53907000000004
 30
0.0
 11
199.247784
 21
531.83196299999986
 31
0.0
  0
LINE
  5
629
  8
0
 62
     9
 10
200.247784
 20
532.83195499999988
 30
0.0
 11
199.54067599999999
 21
532.53906299999994
 31
0.0
  0
LINE
  5
62A
  8
0
 62
     7
 10
198.2477649999999
 20
549.13192000000004
 30
0.0
 11
198.2477649999999
 21
546.63192000000004
 31
0.0
  0
LINE
  5
62B
  8
0
 62
     7
 10
220.24776499999999
 20
549.13192000000004
 30
0.0
 11
220.24776499999999
 21
546.63192000000004
 31
0.0
  0
LINE
  5
62C
  8
0
 62
     7
 10
198.2477649999999
 20
557.63192000000004
 30
0.0
 11
198.2477649999999
 21
555.13192000000004
 31
0.0
  0
LINE
  5
62D
  8
0
 62
     7
 10
220.24776499999999
 20
557.63192000000004
 30
0.0
 11
220.24776499999999
 21
555.13192000000004
 31
0.0
  0
LINE
  5
62E
  8
0
 62
     3
 10
209.2477649999999
 20
539.63191200000006
 30
0.0
 11
209.2477649999999
 21
533.63191200000006
 31
0.0
  0
LINE
  5
62F
  8
0
 62
     3
 10
209.2477649999999
 20
546.63192000000004
 30
0.0
 11
209.2477649999999
 21
540.63191200000006
 31
0.0
  0
LINE
  5
630
  8
0
 62
     3
 10
209.2477649999999
 20
563.63192000000004
 30
0.0
 11
209.2477649999999
 21
557.63192000000004
 31
0.0
  0
LINE
  5
631
  8
0
 62
     7
 10
199.2477649999999
 20
533.63191200000006
 30
0.0
 11
199.2477649999999
 21
532.83190899999988
 31
0.0
  0
LINE
  5
632
  8
0
 62
     7
 10
219.2477649999999
 20
533.63191200000006
 30
0.0
 11
219.2477649999999
 21
532.83190899999988
 31
0.0
  0
LINE
  5
633
  8
0
 62
   211
 10
205.24776099999991
 20
566.3319019999999
 30
0.0
 11
203.24776099999991
 21
564.33190199999979
 31
0.0
  0
LINE
  5
634
  8
0
 62
   211
 10
215.2477649999999
 20
564.33190199999979
 30
0.0
 11
213.2477649999999
 21
566.3319019999999
 31
0.0
  0
LINE
  5
635
  8
0
 62
   211
 10
203.2477649999999
 20
555.13192000000004
 30
0.0
 11
203.2477649999999
 21
549.13192000000004
 31
0.0
  0
LINE
  5
636
  8
0
 62
   211
 10
203.2477649999999
 20
540.63191200000006
 30
0.0
 11
203.2477649999999
 21
539.63191200000006
 31
0.0
  0
LINE
  5
637
  8
0
 62
   211
 10
215.2477649999999
 20
564.33190199999979
 30
0.0
 11
203.2477649999999
 21
564.33190199999979
 31
0.0
  0
LINE
  5
638
  8
0
 62
   211
 10
215.2477649999999
 20
555.13192000000004
 30
0.0
 11
215.2477649999999
 21
549.13192000000004
 31
0.0
  0
LINE
  5
639
  8
0
 62
   211
 10
215.2477649999999
 20
540.63191200000006
 30
0.0
 11
215.2477649999999
 21
539.63191200000006
 31
0.0
  0
LINE
  5
63A
  8
0
 62
     3
 10
232.24777999999989
 20
465.83195499999988
 30
0.0
 11
221.2477649999999
 21
465.83195499999988
 31
0.0
  0
LINE
  5
63B
  8
0
 62
     6
 10
231.747749
 20
464.33195499999999
 30
0.0
 11
221.74777999999989
 21
464.33195499999999
 31
0.0
  0
LINE
  5
63C
  8
0
 62
     7
 10
221.74777999999989
 20
464.33195499999999
 30
0.0
 11
221.74777999999989
 21
453.83195499999988
 31
0.0
  0
LINE
  5
63D
  8
0
 62
     7
 10
231.747749
 20
464.33195499999999
 30
0.0
 11
231.747749
 21
453.83195499999988
 31
0.0
  0
LINE
  5
63E
  8
0
 62
     7
 10
231.747749
 20
460.33195499999999
 30
0.0
 11
221.74777999999989
 21
460.33195499999999
 31
0.0
  0
LINE
  5
63F
  8
0
 62
     6
 10
221.74777999999989
 20
464.83195499999999
 30
0.0
 11
197.2477649999999
 21
464.83195499999999
 31
0.0
  0
LINE
  5
640
  8
0
  6
DASHDOT
 62
     7
 10
314.24778700000002
 20
574.23366500000009
 30
0.0
 11
314.24778700000002
 21
410.43131999999991
 31
0.0
  0
LINE
  5
641
  8
0
  6
DASHDOT
 62
     7
 10
279.24777999999992
 20
574.23366500000009
 30
0.0
 11
279.24777999999992
 21
410.43131999999991
 31
0.0
  0
LINE
  5
642
  8
0
  6
DASHDOT
 62
     7
 10
244.24777999999989
 20
574.23366500000009
 30
0.0
 11
244.24777999999989
 21
410.19830000000002
 31
0.0
  0
LINE
  5
643
  8
0
  6
DASHDOT
 62
     7
 10
209.24778000000001
 20
574.23366500000009
 30
0.0
 11
209.24778000000001
 21
410.43131999999991
 31
0.0
  0
LINE
  5
644
  8
0
 62
     7
 10
284.24777999999992
 20
555.13192000000004
 30
0.0
 11
284.24777999999992
 21
549.13192000000004
 31
0.0
  0
LINE
  5
645
  8
0
 62
     7
 10
274.24777999999992
 20
555.13192000000004
 30
0.0
 11
274.24777999999992
 21
549.13192000000004
 31
0.0
  0
LINE
  5
646
  8
0
 62
     7
 10
214.24777999999989
 20
555.13192000000004
 30
0.0
 11
214.24777999999989
 21
549.13192000000004
 31
0.0
  0
LINE
  5
647
  8
0
 62
     7
 10
204.24777999999989
 20
555.13192000000004
 30
0.0
 11
204.24777999999989
 21
549.13192000000004
 31
0.0
  0
LINE
  5
648
  8
0
 62
     7
 10
249.24777999999989
 20
503.131912
 30
0.0
 11
249.24777999999989
 21
497.131912
 31
0.0
  0
LINE
  5
649
  8
0
 62
     7
 10
239.24777999999989
 20
503.131912
 30
0.0
 11
239.24777999999989
 21
497.131912
 31
0.0
  0
LINE
  5
64A
  8
0
 62
     7
 10
309.24778700000002
 20
503.131912
 30
0.0
 11
309.24778700000002
 21
497.131912
 31
0.0
  0
LINE
  5
64B
  8
0
 62
     7
 10
319.24778700000002
 20
503.131912
 30
0.0
 11
319.24778700000002
 21
497.131912
 31
0.0
  0
LINE
  5
64C
  8
0
 62
     6
 10
256.74777199999988
 20
464.83193999999997
 30
0.0
 11
231.747772
 21
464.83193999999997
 31
0.0
  0
LINE
  5
64D
  8
0
 62
     6
 10
291.74777199999988
 20
464.83193999999997
 30
0.0
 11
266.74777199999988
 21
464.83193999999997
 31
0.0
  0
LINE
  5
64E
  8
0
 62
     7
 10
298.49771099999992
 20
453.83193999999997
 30
0.0
 11
298.49771099999992
 21
416.83189399999992
 31
0.0
  0
LINE
  5
64F
  8
0
 62
     7
 10
294.99771099999992
 20
453.83193999999997
 30
0.0
 11
294.99771099999992
 21
416.83189399999992
 31
0.0
  0
LINE
  5
650
  8
0
 62
     7
 10
263.49770399999989
 20
453.83193999999997
 30
0.0
 11
263.49770399999989
 21
416.83189399999992
 31
0.0
  0
LINE
  5
651
  8
0
 62
     7
 10
259.997704
 20
453.83193999999997
 30
0.0
 11
259.997704
 21
416.83189399999992
 31
0.0
  0
LINE
  5
652
  8
0
 62
     6
 10
302.24778700000002
 20
466.33193999999997
 30
0.0
 11
297.74771099999992
 21
466.33193999999997
 31
0.0
  0
LINE
  5
653
  8
0
 62
     3
 10
301.74775699999998
 20
464.33193999999997
 30
0.0
 11
298.14553799999987
 21
464.33193999999997
 31
0.0
  0
LINE
  5
654
  8
0
 62
     7
 10
197.247772
 20
435.33189399999998
 30
0.0
 11
197.247772
 21
427.831909
 31
0.0
  0
LINE
  5
655
  8
0
 62
     7
 10
256.24777199999988
 20
435.33189399999998
 30
0.0
 11
256.24777199999988
 21
427.831909
 31
0.0
  0
LINE
  5
656
  8
0
 62
     7
 10
198.99777199999991
 20
435.33189399999998
 30
0.0
 11
197.247772
 21
435.33189399999998
 31
0.0
  0
LINE
  5
657
  8
0
 62
     7
 10
256.24777199999988
 20
435.33189399999998
 30
0.0
 11
254.497772
 21
435.33189399999998
 31
0.0
  0
LINE
  5
658
  8
0
 62
     7
 10
197.247772
 20
450.83189399999998
 30
0.0
 11
197.247772
 21
435.33189399999998
 31
0.0
  0
LINE
  5
659
  8
0
 62
     7
 10
198.99777199999991
 20
450.83189399999998
 30
0.0
 11
198.99777199999991
 21
435.33189399999998
 31
0.0
  0
LINE
  5
65A
  8
0
 62
     7
 10
256.24777199999988
 20
441.83189399999998
 30
0.0
 11
256.24777199999988
 21
435.33189399999998
 31
0.0
  0
LINE
  5
65B
  8
0
 62
     7
 10
254.497772
 20
441.83189399999998
 30
0.0
 11
254.497772
 21
435.33189399999998
 31
0.0
  0
LINE
  5
65C
  8
0
 62
     7
 10
267.24777199999988
 20
435.33189399999998
 30
0.0
 11
267.24777199999988
 21
427.831909
 31
0.0
  0
LINE
  5
65D
  8
0
 62
     7
 10
291.247772
 20
435.33189399999998
 30
0.0
 11
291.247772
 21
427.831909
 31
0.0
  0
LINE
  5
65E
  8
0
 62
     7
 10
268.99777199999988
 20
435.33189399999998
 30
0.0
 11
267.24777199999988
 21
435.33189399999998
 31
0.0
  0
LINE
  5
65F
  8
0
 62
     7
 10
291.247772
 20
435.33189399999998
 30
0.0
 11
289.49777199999988
 21
435.33189399999998
 31
0.0
  0
LINE
  5
660
  8
0
 62
     7
 10
267.24777199999988
 20
441.83189399999998
 30
0.0
 11
267.24777199999988
 21
435.33189399999998
 31
0.0
  0
LINE
  5
661
  8
0
 62
     7
 10
268.99777199999988
 20
441.83189399999998
 30
0.0
 11
268.99777199999988
 21
435.33189399999998
 31
0.0
  0
LINE
  5
662
  8
0
 62
     7
 10
291.247772
 20
441.83189399999998
 30
0.0
 11
291.247772
 21
435.33189399999998
 31
0.0
  0
LINE
  5
663
  8
0
 62
     7
 10
289.49777199999988
 20
441.83189399999998
 30
0.0
 11
289.49777199999988
 21
435.33189399999998
 31
0.0
  0
LINE
  5
664
  8
0
 62
     7
 10
302.24778700000002
 20
435.33189399999998
 30
0.0
 11
302.24778700000002
 21
427.831909
 31
0.0
  0
LINE
  5
665
  8
0
 62
     7
 10
326.24778700000002
 20
435.33189399999998
 30
0.0
 11
326.24778700000002
 21
427.831909
 31
0.0
  0
LINE
  5
666
  8
0
 62
     7
 10
303.99778700000002
 20
435.33189399999998
 30
0.0
 11
302.24778700000002
 21
435.33189399999998
 31
0.0
  0
LINE
  5
667
  8
0
 62
     7
 10
326.24778700000002
 20
435.33189399999998
 30
0.0
 11
324.49778700000002
 21
435.33189399999998
 31
0.0
  0
LINE
  5
668
  8
0
 62
     7
 10
302.24778700000002
 20
441.83189399999998
 30
0.0
 11
302.24778700000002
 21
435.33189399999998
 31
0.0
  0
LINE
  5
669
  8
0
 62
     7
 10
303.99778700000002
 20
441.83189399999998
 30
0.0
 11
303.99778700000002
 21
435.33189399999998
 31
0.0
  0
LINE
  5
66A
  8
0
 62
     7
 10
326.24778700000002
 20
450.83189399999998
 30
0.0
 11
326.24778700000002
 21
435.33189399999998
 31
0.0
  0
LINE
  5
66B
  8
0
 62
     7
 10
324.49778700000002
 20
450.83189399999998
 30
0.0
 11
324.49778700000002
 21
435.33189399999998
 31
0.0
  0
LINE
  5
66C
  8
0
 62
     7
 10
246.247772
 20
437.83189399999998
 30
0.0
 11
246.247772
 21
435.33189399999998
 31
0.0
  0
LINE
  5
66D
  8
0
 62
     7
 10
242.247772
 20
437.83189399999998
 30
0.0
 11
242.247772
 21
435.33189399999998
 31
0.0
  0
LINE
  5
66E
  8
0
 62
     7
 10
246.247772
 20
437.83189399999998
 30
0.0
 11
242.247772
 21
437.83189399999998
 31
0.0
  0
LINE
  5
66F
  8
0
 62
     7
 10
281.247772
 20
437.83189399999998
 30
0.0
 11
281.247772
 21
435.33189399999998
 31
0.0
  0
LINE
  5
670
  8
0
 62
     7
 10
277.24777199999988
 20
437.83189399999998
 30
0.0
 11
277.24777199999988
 21
435.33189399999998
 31
0.0
  0
LINE
  5
671
  8
0
 62
     7
 10
281.247772
 20
437.83189399999998
 30
0.0
 11
277.24777199999988
 21
437.83189399999998
 31
0.0
  0
LINE
  5
672
  8
0
 62
     7
 10
316.24778700000002
 20
437.83189399999998
 30
0.0
 11
316.24778700000002
 21
435.33189399999998
 31
0.0
  0
LINE
  5
673
  8
0
 62
     7
 10
312.24778700000002
 20
437.83189399999998
 30
0.0
 11
312.24778700000002
 21
435.33189399999998
 31
0.0
  0
LINE
  5
674
  8
0
 62
     7
 10
316.24778700000002
 20
437.83189399999998
 30
0.0
 11
312.24778700000002
 21
437.83189399999998
 31
0.0
  0
LINE
  5
675
  8
0
 62
     7
 10
192.74770199999989
 20
460.33195499999999
 30
0.0
 11
192.74770199999989
 21
453.83195499999988
 31
0.0
  0
LINE
  5
676
  8
0
 62
     6
 10
297.74771099999992
 20
466.33193999999997
 30
0.0
 11
297.74771099999992
 21
465.83195499999988
 31
0.0
  0
LINE
  5
677
  8
0
 62
     7
 10
298.14553799999987
 20
464.33193999999997
 30
0.0
 11
298.14553799999987
 21
453.8319239999999
 31
0.0
  0
LINE
  5
678
  8
0
 62
     7
 10
198.99777199999991
 20
450.83189399999998
 30
0.0
 11
197.247772
 21
450.83189399999998
 31
0.0
  0
LINE
  5
679
  8
0
 62
     7
 10
256.24777199999988
 20
441.83189399999998
 30
0.0
 11
254.497772
 21
441.83189399999998
 31
0.0
  0
LINE
  5
67A
  8
0
 62
     7
 10
268.99777199999988
 20
441.83189399999998
 30
0.0
 11
267.24777199999988
 21
441.83189399999998
 31
0.0
  0
LINE
  5
67B
  8
0
 62
     7
 10
291.247772
 20
441.83189399999998
 30
0.0
 11
289.49777199999988
 21
441.83189399999998
 31
0.0
  0
LINE
  5
67C
  8
0
 62
     7
 10
303.99778700000002
 20
441.83189399999998
 30
0.0
 11
302.24778700000002
 21
441.83189399999998
 31
0.0
  0
LINE
  5
67D
  8
0
 62
     7
 10
326.24778700000002
 20
450.83189399999998
 30
0.0
 11
324.49778700000002
 21
450.83189399999998
 31
0.0
  0
LINE
  5
67E
  8
0
 62
     6
 10
301.74775699999998
 20
464.83195499999999
 30
0.0
 11
301.74775699999998
 21
464.33193999999997
 31
0.0
  0
LINE
  5
67F
  8
0
 62
     6
 10
291.74777999999992
 20
464.83195499999999
 30
0.0
 11
291.74777999999992
 21
464.33193999999997
 31
0.0
  0
LINE
  5
680
  8
0
 62
     6
 10
231.747749
 20
464.83195499999999
 30
0.0
 11
231.747749
 21
464.33195499999999
 31
0.0
  0
LINE
  5
681
  8
0
 62
     6
 10
221.74777999999989
 20
464.83195499999999
 30
0.0
 11
221.74777999999989
 21
464.33195499999999
 31
0.0
  0
LINE
  5
682
  8
0
 62
     6
 10
256.747795
 20
464.83195499999999
 30
0.0
 11
256.747795
 21
464.33195499999999
 31
0.0
  0
LINE
  5
683
  8
0
 62
     6
 10
266.74777999999992
 20
464.83195499999999
 30
0.0
 11
266.74777999999992
 21
464.33195499999999
 31
0.0
  0
LINE
  5
684
  8
0
 62
     7
 10
228.497704
 20
453.83193999999997
 30
0.0
 11
228.497704
 21
416.83189399999992
 31
0.0
  0
LINE
  5
685
  8
0
 62
     7
 10
224.997704
 20
453.83193999999997
 30
0.0
 11
224.997704
 21
416.83189399999992
 31
0.0
  0
LINE
  5
686
  8
0
 62
     7
 10
232.247772
 20
441.83189399999998
 30
0.0
 11
232.247772
 21
435.33189399999998
 31
0.0
  0
LINE
  5
687
  8
0
 62
     7
 10
232.247772
 20
435.33189399999998
 30
0.0
 11
232.247772
 21
427.831909
 31
0.0
  0
LINE
  5
688
  8
0
 62
     7
 10
233.997772
 20
435.33189399999998
 30
0.0
 11
232.247772
 21
435.33189399999998
 31
0.0
  0
LINE
  5
689
  8
0
 62
     7
 10
233.997772
 20
441.83189399999998
 30
0.0
 11
233.997772
 21
435.33189399999998
 31
0.0
  0
LINE
  5
68A
  8
0
 62
     7
 10
233.997772
 20
441.83189399999998
 30
0.0
 11
232.247772
 21
441.83189399999998
 31
0.0
  0
LINE
  5
68B
  8
0
 62
     7
 10
211.247772
 20
437.83189399999998
 30
0.0
 11
211.247772
 21
435.33189399999998
 31
0.0
  0
LINE
  5
68C
  8
0
 62
     7
 10
207.247772
 20
437.83189399999998
 30
0.0
 11
207.247772
 21
435.33189399999998
 31
0.0
  0
LINE
  5
68D
  8
0
 62
     7
 10
211.247772
 20
437.83189399999998
 30
0.0
 11
207.247772
 21
437.83189399999998
 31
0.0
  0
LINE
  5
68E
  8
0
 62
     7
 10
219.497772
 20
441.83189399999998
 30
0.0
 11
219.497772
 21
435.33189399999998
 31
0.0
  0
LINE
  5
68F
  8
0
 62
     7
 10
221.247772
 20
441.83189399999998
 30
0.0
 11
219.497772
 21
441.83189399999998
 31
0.0
  0
LINE
  5
690
  8
0
 62
     7
 10
221.247772
 20
441.83189399999998
 30
0.0
 11
221.247772
 21
435.33189399999998
 31
0.0
  0
LINE
  5
691
  8
0
 62
     7
 10
221.247772
 20
435.33189399999998
 30
0.0
 11
221.247772
 21
427.831909
 31
0.0
  0
LINE
  5
692
  8
0
 62
     7
 10
221.247772
 20
435.33189399999998
 30
0.0
 11
219.497772
 21
435.33189399999998
 31
0.0
  0
LINE
  5
693
  8
0
 62
     7
 10
197.2477649999999
 20
464.83195499999999
 30
0.0
 11
196.74778000000001
 21
464.83195499999999
 31
0.0
  0
LINE
  5
694
  8
0
 62
     6
 10
326.24778700000002
 20
464.83195499999999
 30
0.0
 11
301.74775699999998
 21
464.83195499999999
 31
0.0
  0
LINE
  5
695
  8
0
 62
     6
 10
192.74770199999989
 20
466.33193999999997
 30
0.0
 11
192.74770199999989
 21
460.33195499999999
 31
0.0
  0
LINE
  5
696
  8
0
 62
     7
 10
294.24771099999998
 20
464.33193999999997
 30
0.0
 11
294.24771099999998
 21
453.83195499999988
 31
0.0
  0
LINE
  5
697
  8
0
 62
     6
 10
298.14553799999987
 20
464.33193999999997
 30
0.0
 11
291.74777199999988
 21
464.33193999999997
 31
0.0
  0
LINE
  5
698
  8
0
 62
     6
 10
326.74775699999998
 20
464.83195499999999
 30
0.0
 11
326.74775699999998
 21
460.33193999999997
 31
0.0
  0
POLYLINE
  5
699
  8
0
 62
     3
 66
     1
 10
0.0
 20
0.0
 30
0.0
  0
VERTEX
  5
B9E
  8
0
 62
     3
 10
374.04278599999998
 20
414.831909
 30
0.0
  0
VERTEX
  5
B9F
  8
0
 62
     3
 10
358.04278599999992
 20
414.831909
 30
0.0
  0
VERTEX
  5
BA0
  8
0
 62
     3
 10
357.04278599999992
 20
412.83190899999988
 30
0.0
  0
VERTEX
  5
BA1
  8
0
 62
     3
 10
356.04278599999992
 20
416.83190899999988
 30
0.0
  0
VERTEX
  5
BA2
  8
0
 62
     3
 10
355.04278599999992
 20
414.831909
 30
0.0
  0
VERTEX
  5
BA3
  8
0
 62
     3
 10
339.04278599999992
 20
414.831909
 30
0.0
  0
VERTEX
  5
BA4
  8
0
 62
     3
 10
338.04278599999992
 20
412.83190899999988
 30
0.0
  0
VERTEX
  5
BA5
  8
0
 62
     3
 10
337.04278599999992
 20
416.83190899999988
 30
0.0
  0
VERTEX
  5
BA6
  8
0
 62
     3
 10
336.04278599999992
 20
414.831909
 30
0.0
  0
VERTEX
  5
BA7
  8
0
 62
     3
 10
320.04278599999998
 20
414.831909
 30
0.0
  0
VERTEX
  5
BA8
  8
0
 62
     3
 10
319.04278599999992
 20
412.83190899999988
 30
0.0
  0
VERTEX
  5
BA9
  8
0
 62
     3
 10
318.04278599999992
 20
416.83190899999988
 30
0.0
  0
VERTEX
  5
BAA
  8
0
 62
     3
 10
317.04278599999992
 20
414.831909
 30
0.0
  0
VERTEX
  5
BAB
  8
0
 62
     3
 10
301.04278599999998
 20
414.831909
 30
0.0
  0
VERTEX
  5
BAC
  8
0
 62
     3
 10
300.04278599999992
 20
412.83190899999988
 30
0.0
  0
VERTEX
  5
BAD
  8
0
 62
     3
 10
299.04278599999998
 20
416.83190899999988
 30
0.0
  0
VERTEX
  5
BAE
  8
0
 62
     3
 10
298.04278599999992
 20
414.831909
 30
0.0
  0
VERTEX
  5
BAF
  8
0
 62
     3
 10
282.04278599999992
 20
414.831909
 30
0.0
  0
VERTEX
  5
BB0
  8
0
 62
     3
 10
281.04278599999992
 20
412.83190899999988
 30
0.0
  0
VERTEX
  5
BB1
  8
0
 62
     3
 10
280.04278599999992
 20
416.83190899999988
 30
0.0
  0
VERTEX
  5
BB2
  8
0
 62
     3
 10
279.04278599999992
 20
414.831909
 30
0.0
  0
VERTEX
  5
BB3
  8
0
 62
     3
 10
263.04278599999992
 20
414.831909
 30
0.0
  0
VERTEX
  5
BB4
  8
0
 62
     3
 10
262.04278599999992
 20
412.83190899999988
 30
0.0
  0
VERTEX
  5
BB5
  8
0
 62
     3
 10
261.04278599999992
 20
416.83190899999988
 30
0.0
  0
VERTEX
  5
BB6
  8
0
 62
     3
 10
260.04278599999992
 20
414.831909
 30
0.0
  0
VERTEX
  5
BB7
  8
0
 62
     3
 10
244.04278599999989
 20
414.831909
 30
0.0
  0
VERTEX
  5
BB8
  8
0
 62
     3
 10
243.04278599999989
 20
412.83190899999988
 30
0.0
  0
VERTEX
  5
BB9
  8
0
 62
     3
 10
242.04278599999989
 20
416.83190899999988
 30
0.0
  0
VERTEX
  5
BBA
  8
0
 62
     3
 10
241.04278599999989
 20
414.831909
 30
0.0
  0
VERTEX
  5
BBB
  8
0
 62
     3
 10
225.04278599999989
 20
414.831909
 30
0.0
  0
VERTEX
  5
BBC
  8
0
 62
     3
 10
224.04278600000001
 20
412.83190899999988
 30
0.0
  0
VERTEX
  5
BBD
  8
0
 62
     3
 10
223.04278599999989
 20
416.83190899999988
 30
0.0
  0
VERTEX
  5
BBE
  8
0
 62
     3
 10
222.04278600000001
 20
414.831909
 30
0.0
  0
VERTEX
  5
BBF
  8
0
 62
     3
 10
206.04278599999989
 20
414.831909
 30
0.0
  0
VERTEX
  5
BC0
  8
0
 62
     3
 10
205.04278600000001
 20
412.83190899999988
 30
0.0
  0
VERTEX
  5
BC1
  8
0
 62
     3
 10
204.04278600000001
 20
416.83190899999988
 30
0.0
  0
VERTEX
  5
BC2
  8
0
 62
     3
 10
203.04278600000001
 20
414.831909
 30
0.0
  0
VERTEX
  5
BC3
  8
0
 62
     3
 10
188.96194299999991
 20
414.831909
 30
0.0
  0
SEQEND
  5
BC4
  8
0
 62
     3
  0
LINE
  5
6C1
  8
0
 62
     4
 10
362.24781799999988
 20
462.83195499999988
 30
0.0
 11
326.24778700000002
 21
462.83195499999988
 31
0.0
  0
LINE
  5
6C2
  8
0
 62
     4
 10
362.24781799999988
 20
462.83195499999988
 30
0.0
 11
362.24781799999988
 21
414.831909
 31
0.0
  0
LINE
  5
6C3
  8
0
 62
     7
 10
314.24778700000002
 20
398.882744
 30
0.0
 11
308.33891299999999
 21
399.92462899999992
 31
0.0
  0
LINE
  5
6C4
  8
0
 62
     7
 10
314.24778700000002
 20
398.882744
 30
0.0
 11
308.33891299999999
 21
397.84085800000003
 31
0.0
  0
LINE
  5
6C5
  8
0
 62
     7
 10
279.24778700000002
 20
398.882744
 30
0.0
 11
285.15666199999993
 21
397.84085800000003
 31
0.0
  0
LINE
  5
6C6
  8
0
 62
     7
 10
279.24778700000002
 20
398.882744
 30
0.0
 11
285.15666199999993
 21
399.92462899999992
 31
0.0
  0
LINE
  5
6C7
  8
0
 62
     7
 10
279.24778700000002
 20
398.882744
 30
0.0
 11
273.33891299999988
 21
399.92462899999992
 31
0.0
  0
LINE
  5
6C8
  8
0
 62
     7
 10
279.24778700000002
 20
398.882744
 30
0.0
 11
273.33891299999988
 21
397.84085800000003
 31
0.0
  0
LINE
  5
6C9
  8
0
 62
     7
 10
244.24778699999999
 20
398.882744
 30
0.0
 11
250.15666200000001
 21
397.84085800000003
 31
0.0
  0
LINE
  5
6CA
  8
0
 62
     7
 10
244.24778699999999
 20
398.882744
 30
0.0
 11
250.15666200000001
 21
399.92462899999992
 31
0.0
  0
LINE
  5
6CB
  8
0
 62
     7
 10
244.24778699999999
 20
398.882744
 30
0.0
 11
238.33891299999991
 21
399.92462899999992
 31
0.0
  0
LINE
  5
6CC
  8
0
 62
     7
 10
244.24778699999999
 20
398.882744
 30
0.0
 11
238.33891299999991
 21
397.84085800000003
 31
0.0
  0
LINE
  5
6CD
  8
0
 62
     7
 10
209.24778699999999
 20
398.882744
 30
0.0
 11
215.15666200000001
 21
397.84085800000003
 31
0.0
  0
LINE
  5
6CE
  8
0
 62
     7
 10
209.24778699999999
 20
398.882744
 30
0.0
 11
215.15666200000001
 21
399.92462899999992
 31
0.0
  0
LINE
  5
6CF
  8
0
 62
     7
 10
314.24778700000002
 20
398.882744
 30
0.0
 11
209.24778699999999
 21
398.882744
 31
0.0
  0
LINE
  5
6D0
  8
0
 62
     7
 10
314.24778700000002
 20
394.882744
 30
0.0
 11
314.24778700000002
 21
410.43131299999988
 31
0.0
  0
LINE
  5
6D1
  8
0
 62
     7
 10
279.24778700000002
 20
394.882744
 30
0.0
 11
279.24778700000002
 21
410.43131299999988
 31
0.0
  0
LINE
  5
6D2
  8
0
 62
     7
 10
244.24778699999999
 20
394.882744
 30
0.0
 11
244.24778699999999
 21
410.19829599999991
 31
0.0
  0
LINE
  5
6D3
  8
0
 62
     7
 10
209.24778699999999
 20
394.882744
 30
0.0
 11
209.24778699999999
 21
410.43131299999988
 31
0.0
  0
LINE
  5
6D4
  8
0
 62
     7
 10
184.77574199999989
 20
466.3319469999999
 30
0.0
 11
185.817612
 21
472.24080700000002
 31
0.0
  0
LINE
  5
6D5
  8
0
 62
     7
 10
184.77574199999989
 20
466.3319469999999
 30
0.0
 11
183.73387099999999
 21
472.24080700000002
 31
0.0
  0
LINE
  5
6D6
  8
0
 62
     7
 10
184.77574199999989
 20
514.331909
 30
0.0
 11
183.73387099999999
 21
508.42306500000012
 31
0.0
  0
LINE
  5
6D7
  8
0
 62
     7
 10
184.77574199999989
 20
514.331909
 30
0.0
 11
185.817612
 21
508.42306500000012
 31
0.0
  0
LINE
  5
6D8
  8
0
 62
     7
 10
184.77574199999989
 20
466.3319469999999
 30
0.0
 11
184.77574199999989
 21
514.331909
 31
0.0
  0
LINE
  5
6D9
  8
0
 62
     7
 10
180.77574199999989
 20
466.3319469999999
 30
0.0
 11
197.24778699999999
 21
466.33196299999997
 31
0.0
  0
LINE
  5
6DA
  8
0
 62
     7
 10
180.77574199999989
 20
514.331909
 30
0.0
 11
240.24778699999999
 21
514.331909
 31
0.0
  0
LINE
  5
6DB
  8
0
 62
     7
 10
171.220688
 20
466.3319469999999
 30
0.0
 11
172.26255800000001
 21
472.24080700000002
 31
0.0
  0
LINE
  5
6DC
  8
0
 62
     7
 10
171.220688
 20
466.3319469999999
 30
0.0
 11
170.17881800000001
 21
472.24080700000002
 31
0.0
  0
LINE
  5
6DD
  8
0
 62
     7
 10
171.220688
 20
566.3319019999999
 30
0.0
 11
170.17881800000001
 21
560.42305799999986
 31
0.0
  0
LINE
  5
6DE
  8
0
 62
     7
 10
171.220688
 20
566.3319019999999
 30
0.0
 11
172.26255800000001
 21
560.42305799999986
 31
0.0
  0
LINE
  5
6DF
  8
0
 62
     7
 10
171.220688
 20
466.3319469999999
 30
0.0
 11
171.220688
 21
566.3319019999999
 31
0.0
  0
LINE
  5
6E0
  8
0
 62
     7
 10
167.220688
 20
466.3319469999999
 30
0.0
 11
192.747726
 21
466.33196299999997
 31
0.0
  0
LINE
  5
6E1
  8
0
 62
     7
 10
167.220688
 20
566.3319019999999
 30
0.0
 11
205.24778699999999
 21
566.3319019999999
 31
0.0
  0
LINE
  5
6E2
  8
0
 62
     7
 10
215.24778699999999
 20
582.62813600000004
 30
0.0
 11
221.15660099999991
 21
581.58624999999995
 31
0.0
  0
LINE
  5
6E3
  8
0
 62
     7
 10
215.24778699999999
 20
582.62813600000004
 30
0.0
 11
221.15660099999991
 21
583.67002100000002
 31
0.0
  0
LINE
  5
6E4
  8
0
 62
     7
 10
203.24778699999999
 20
582.62813600000004
 30
0.0
 11
197.33891299999991
 21
583.67002100000002
 31
0.0
  0
LINE
  5
6E5
  8
0
 62
     7
 10
203.24778699999999
 20
582.62813600000004
 30
0.0
 11
197.33891299999991
 21
581.58624999999995
 31
0.0
  0
LINE
  5
6E6
  8
0
 62
     7
 10
219.86631800000001
 20
582.62813600000004
 30
0.0
 11
203.24778699999999
 21
582.62813600000004
 31
0.0
  0
LINE
  5
6E7
  8
0
 62
     7
 10
215.24778699999999
 20
586.62813600000004
 30
0.0
 11
215.24778699999999
 21
555.13190499999996
 31
0.0
  0
LINE
  5
6E8
  8
0
 62
     7
 10
203.24778699999999
 20
586.62813600000004
 30
0.0
 11
203.24778699999999
 21
555.13190499999996
 31
0.0
  0
LINE
  5
6E9
  8
0
 62
     7
 10
341.34141499999993
 20
497.131912
 30
0.0
 11
340.29948400000001
 21
491.2230679999999
 31
0.0
  0
LINE
  5
6EA
  8
0
 62
     7
 10
341.34141499999993
 20
497.131912
 30
0.0
 11
342.383286
 21
491.2230679999999
 31
0.0
  0
LINE
  5
6EB
  8
0
 62
     7
 10
341.34141499999993
 20
466.3319469999999
 30
0.0
 11
342.383286
 21
472.240791
 31
0.0
  0
LINE
  5
6EC
  8
0
 62
     7
 10
341.34141499999993
 20
466.3319469999999
 30
0.0
 11
340.29948400000001
 21
472.240791
 31
0.0
  0
LINE
  5
6ED
  8
0
 62
     7
 10
341.34141499999993
 20
497.131912
 30
0.0
 11
341.34141499999993
 21
466.3319469999999
 31
0.0
  0
LINE
  5
6EE
  8
0
 62
     7
 10
345.34141499999993
 20
497.131912
 30
0.0
 11
325.247726
 21
497.131912
 31
0.0
  0
LINE
  5
6EF
  8
0
 62
     7
 10
345.34141499999993
 20
466.3319469999999
 30
0.0
 11
302.24778700000002
 21
466.33193199999999
 31
0.0
  0
LINE
  5
6F0
  8
0
 62
     7
 10
355.703598
 20
549.13192000000004
 30
0.0
 11
354.66172799999993
 21
543.22307599999999
 31
0.0
  0
LINE
  5
6F1
  8
0
 62
     7
 10
355.703598
 20
549.13192000000004
 30
0.0
 11
356.74552899999992
 21
543.22307599999999
 31
0.0
  0
LINE
  5
6F2
  8
0
 62
     7
 10
355.703598
 20
466.3319469999999
 30
0.0
 11
356.74552899999992
 21
472.240791
 31
0.0
  0
LINE
  5
6F3
  8
0
 62
     7
 10
355.703598
 20
466.3319469999999
 30
0.0
 11
354.66172799999993
 21
472.240791
 31
0.0
  0
LINE
  5
6F4
  8
0
 62
     7
 10
355.703598
 20
549.13192000000004
 30
0.0
 11
355.703598
 21
466.3319469999999
 31
0.0
  0
LINE
  5
6F5
  8
0
 62
     7
 10
359.703598
 20
549.13192000000004
 30
0.0
 11
290.24778700000002
 21
549.13192000000004
 31
0.0
  0
LINE
  5
6F6
  8
0
 62
     7
 10
359.703598
 20
466.3319469999999
 30
0.0
 11
302.24778700000002
 21
466.3319469999999
 31
0.0
  0
POINT
  5
6F7
  8
0
 62
     7
 10
1093.7966609999989
 20
743.84174500000006
 30
0.0
  0
LINE
  5
6F8
  8
0
 62
     7
 10
927.79666099999997
 20
708.59174500000006
 30
0.0
 11
1062.7966609999989
 21
708.59174500000006
 31
0.0
  0
LINE
  5
6F9
  8
0
 62
     7
 10
927.79666099999997
 20
834.59174499999995
 30
0.0
 11
1062.7966609999989
 21
834.59174499999995
 31
0.0
  0
LINE
  5
6FA
  8
0
 62
     7
 10
1062.7966609999989
 20
834.59174499999995
 30
0.0
 11
1062.7966609999989
 21
752.34174500000006
 31
0.0
  0
LINE
  5
6FB
  8
0
 62
     7
 10
927.79666099999997
 20
834.59174499999995
 30
0.0
 11
927.79666099999997
 21
708.59174500000006
 31
0.0
  0
LINE
  5
6FC
  8
0
  6
DASHDOT
 62
     7
 10
1044.8967170000001
 20
744.34174499999995
 30
0.0
 11
1100.817886
 21
744.34174499999995
 31
0.0
  0
LINE
  5
6FD
  8
0
 62
     7
 10
1062.7966609999989
 20
752.34174500000006
 30
0.0
 11
1085.7966609999989
 21
752.34174500000006
 31
0.0
  0
LINE
  5
6FE
  8
0
 62
     7
 10
1062.7966609999989
 20
736.34174499999995
 30
0.0
 11
1085.7966609999989
 21
736.34174499999995
 31
0.0
  0
ARC
  5
6FF
  8
0
 62
     7
 10
1085.7966609999989
 20
744.34174499999995
 30
0.0
 40
8.0
 50
270.0
 51
90.000005000000002
  0
LINE
  5
700
  8
0
 62
     7
 10
1062.7966609999989
 20
736.34174499999995
 30
0.0
 11
1062.7966609999989
 21
708.59174500000006
 31
0.0
  0
LINE
  5
701
  8
0
  6
DASHDOT
 62
     7
 10
999.79666099999997
 20
874.10170899999991
 30
0.0
 11
999.79666099999997
 21
679.01101900000003
 31
0.0
  0
CIRCLE
  5
702
  8
0
 62
     7
 10
955.79666099999986
 20
842.59174499999995
 30
0.0
 40
3.5
  0
CIRCLE
  5
703
  8
0
 62
     7
 10
1080.7966609999989
 20
842.59174499999995
 30
0.0
 40
4.0
  0
CIRCLE
  5
704
  8
0
 62
     7
 10
1080.7966609999989
 20
771.59174499999995
 30
0.0
 40
4.0
  0
CIRCLE
  5
705
  8
0
 62
     7
 10
1080.7966609999989
 20
700.59174499999995
 30
0.0
 40
3.5
  0
CIRCLE
  5
706
  8
0
 62
     7
 10
955.79666099999986
 20
700.59174499999995
 30
0.0
 40
4.0
  0
LINE
  5
707
  8
0
  6
DASHDOT
 62
     7
 10
955.79666099999986
 20
849.09174499999995
 30
0.0
 11
955.79666099999986
 21
836.09174499999995
 31
0.0
  0
LINE
  5
708
  8
0
  6
DASHDOT
 62
     7
 10
949.29666099999986
 20
842.59174499999995
 30
0.0
 11
962.29666099999997
 21
842.59174499999995
 31
0.0
  0
LINE
  5
709
  8
0
  6
DASHDOT
 62
     7
 10
1080.7966609999989
 20
849.09174499999995
 30
0.0
 11
1080.7966609999989
 21
836.09174499999995
 31
0.0
  0
LINE
  5
70A
  8
0
  6
DASHDOT
 62
     7
 10
1074.2966609999989
 20
842.59174499999995
 30
0.0
 11
1087.2966609999989
 21
842.59174499999995
 31
0.0
  0
LINE
  5
70B
  8
0
  6
DASHDOT
 62
     7
 10
1080.7966609999989
 20
778.09174499999995
 30
0.0
 11
1080.7966609999989
 21
765.09174499999995
 31
0.0
  0
LINE
  5
70C
  8
0
  6
DASHDOT
 62
     7
 10
1074.2966609999989
 20
771.59174499999995
 30
0.0
 11
1087.2966609999989
 21
771.59174499999995
 31
0.0
  0
LINE
  5
70D
  8
0
  6
DASHDOT
 62
     7
 10
1080.7966609999989
 20
707.09174499999995
 30
0.0
 11
1080.7966609999989
 21
694.09174499999995
 31
0.0
  0
LINE
  5
70E
  8
0
  6
DASHDOT
 62
     7
 10
1074.2966609999989
 20
700.59174499999995
 30
0.0
 11
1087.2966609999989
 21
700.59174499999995
 31
0.0
  0
LINE
  5
70F
  8
0
  6
DASHDOT
 62
     7
 10
955.79666099999986
 20
707.09174499999995
 30
0.0
 11
955.79666099999986
 21
694.09174499999995
 31
0.0
  0
LINE
  5
710
  8
0
  6
DASHDOT
 62
     7
 10
949.29666099999986
 20
700.59174499999995
 30
0.0
 11
962.29666099999997
 21
700.59174499999995
 31
0.0
  0
POLYLINE
  5
711
  8
0
 62
     7
 66
     1
 10
0.0
 20
0.0
 30
0.0
  0
VERTEX
  5
BC5
  8
0
 62
     7
 10
904.0984269999999
 20
854.59174499999995
 30
0.0
  0
VERTEX
  5
BC6
  8
0
 62
     7
 10
920.0984269999999
 20
854.59174499999995
 30
0.0
  0
VERTEX
  5
BC7
  8
0
 62
     7
 10
921.0984269999999
 20
856.59174499999983
 30
0.0
  0
VERTEX
  5
BC8
  8
0
 62
     7
 10
922.09842699999979
 20
852.59174499999995
 30
0.0
  0
VERTEX
  5
BC9
  8
0
 62
     7
 10
923.09842699999979
 20
854.59174499999995
 30
0.0
  0
VERTEX
  5
BCA
  8
0
 62
     7
 10
939.09842699999979
 20
854.59174499999995
 30
0.0
  0
VERTEX
  5
BCB
  8
0
 62
     7
 10
940.09842699999979
 20
856.59174499999983
 30
0.0
  0
VERTEX
  5
BCC
  8
0
 62
     7
 10
941.09842699999979
 20
852.59174499999995
 30
0.0
  0
VERTEX
  5
BCD
  8
0
 62
     7
 10
942.0984269999999
 20
854.59174499999995
 30
0.0
  0
VERTEX
  5
BCE
  8
0
 62
     7
 10
958.09842700000002
 20
854.59174499999995
 30
0.0
  0
VERTEX
  5
BCF
  8
0
 62
     7
 10
959.0984269999999
 20
856.59174499999983
 30
0.0
  0
VERTEX
  5
BD0
  8
0
 62
     7
 10
960.0984269999999
 20
852.59174499999995
 30
0.0
  0
VERTEX
  5
BD1
  8
0
 62
     7
 10
961.0984269999999
 20
854.59174499999995
 30
0.0
  0
VERTEX
  5
BD2
  8
0
 62
     7
 10
977.0984269999999
 20
854.59174499999995
 30
0.0
  0
VERTEX
  5
BD3
  8
0
 62
     7
 10
978.0984269999999
 20
856.59174499999983
 30
0.0
  0
VERTEX
  5
BD4
  8
0
 62
     7
 10
979.0984269999999
 20
852.59174499999995
 30
0.0
  0
VERTEX
  5
BD5
  8
0
 62
     7
 10
980.09842699999979
 20
854.59174499999995
 30
0.0
  0
VERTEX
  5
BD6
  8
0
 62
     7
 10
996.0984269999999
 20
854.59174499999995
 30
0.0
  0
VERTEX
  5
BD7
  8
0
 62
     7
 10
997.09842699999979
 20
856.59174499999983
 30
0.0
  0
VERTEX
  5
BD8
  8
0
 62
     7
 10
998.09842699999979
 20
852.59174499999995
 30
0.0
  0
VERTEX
  5
BD9
  8
0
 62
     7
 10
999.09842699999979
 20
854.59174499999995
 30
0.0
  0
VERTEX
  5
BDA
  8
0
 62
     7
 10
1015.098426999999
 20
854.59174499999995
 30
0.0
  0
VERTEX
  5
BDB
  8
0
 62
     7
 10
1016.098426999999
 20
856.59174499999983
 30
0.0
  0
VERTEX
  5
BDC
  8
0
 62
     7
 10
1017.098427
 20
852.59174499999995
 30
0.0
  0
VERTEX
  5
BDD
  8
0
 62
     7
 10
1018.098426999999
 20
854.59174499999995
 30
0.0
  0
VERTEX
  5
BDE
  8
0
 62
     7
 10
1034.098426999999
 20
854.59174499999995
 30
0.0
  0
VERTEX
  5
BDF
  8
0
 62
     7
 10
1035.0984269999999
 20
856.59174499999983
 30
0.0
  0
VERTEX
  5
BE0
  8
0
 62
     7
 10
1036.098426999999
 20
852.59174499999995
 30
0.0
  0
VERTEX
  5
BE1
  8
0
 62
     7
 10
1037.098426999999
 20
854.59174499999995
 30
0.0
  0
VERTEX
  5
BE2
  8
0
 62
     7
 10
1053.098426999999
 20
854.59174499999995
 30
0.0
  0
VERTEX
  5
BE3
  8
0
 62
     7
 10
1054.0984269999999
 20
856.59174499999983
 30
0.0
  0
VERTEX
  5
BE4
  8
0
 62
     7
 10
1055.098426999999
 20
852.59174499999995
 30
0.0
  0
VERTEX
  5
BE5
  8
0
 62
     7
 10
1056.0984269999999
 20
854.59174499999995
 30
0.0
  0
VERTEX
  5
BE6
  8
0
 62
     7
 10
1072.0984269999999
 20
854.59174499999995
 30
0.0
  0
VERTEX
  5
BE7
  8
0
 62
     7
 10
1073.098426999999
 20
856.59174499999983
 30
0.0
  0
VERTEX
  5
BE8
  8
0
 62
     7
 10
1074.098426999999
 20
852.59174499999995
 30
0.0
  0
VERTEX
  5
BE9
  8
0
 62
     7
 10
1075.0984269999999
 20
854.59174499999995
 30
0.0
  0
VERTEX
  5
BEA
  8
0
 62
     7
 10
1091.098426999999
 20
854.59174499999995
 30
0.0
  0
VERTEX
  5
BEB
  8
0
 62
     7
 10
1092.0984269999999
 20
856.59174499999983
 30
0.0
  0
VERTEX
  5
BEC
  8
0
 62
     7
 10
1093.098426999999
 20
852.59174499999995
 30
0.0
  0
VERTEX
  5
BED
  8
0
 62
     7
 10
1094.0984269999999
 20
854.59174499999995
 30
0.0
  0
VERTEX
  5
BEE
  8
0
 62
     7
 10
1102.446655
 20
854.59174499999995
 30
0.0
  0
SEQEND
  5
BEF
  8
0
 62
     7
  0
POLYLINE
  5
73D
  8
0
 62
     7
 66
     1
 10
0.0
 20
0.0
 30
0.0
  0
VERTEX
  5
BF0
  8
0
 62
     7
 10
901.56478100000004
 20
688.59174499999995
 30
0.0
  0
VERTEX
  5
BF1
  8
0
 62
     7
 10
917.56478100000004
 20
688.59174499999995
 30
0.0
  0
VERTEX
  5
BF2
  8
0
 62
     7
 10
918.56478100000004
 20
690.59174499999995
 30
0.0
  0
VERTEX
  5
BF3
  8
0
 62
     7
 10
919.56478100000004
 20
686.59174499999995
 30
0.0
  0
VERTEX
  5
BF4
  8
0
 62
     7
 10
920.56478100000004
 20
688.59174499999995
 30
0.0
  0
VERTEX
  5
BF5
  8
0
 62
     7
 10
936.56478100000004
 20
688.59174499999995
 30
0.0
  0
VERTEX
  5
BF6
  8
0
 62
     7
 10
937.56478100000004
 20
690.59174499999995
 30
0.0
  0
VERTEX
  5
BF7
  8
0
 62
     7
 10
938.56478100000004
 20
686.59174499999995
 30
0.0
  0
VERTEX
  5
BF8
  8
0
 62
     7
 10
939.56478099999993
 20
688.59174499999995
 30
0.0
  0
VERTEX
  5
BF9
  8
0
 62
     7
 10
955.56478099999993
 20
688.59174499999995
 30
0.0
  0
VERTEX
  5
BFA
  8
0
 62
     7
 10
956.56478099999993
 20
690.59174499999995
 30
0.0
  0
VERTEX
  5
BFB
  8
0
 62
     7
 10
957.56478100000015
 20
686.59174499999995
 30
0.0
  0
VERTEX
  5
BFC
  8
0
 62
     7
 10
958.56478100000015
 20
688.59174499999995
 30
0.0
  0
VERTEX
  5
BFD
  8
0
 62
     7
 10
974.56478100000015
 20
688.59174499999995
 30
0.0
  0
VERTEX
  5
BFE
  8
0
 62
     7
 10
975.56478100000015
 20
690.59174499999995
 30
0.0
  0
VERTEX
  5
BFF
  8
0
 62
     7
 10
976.56478100000004
 20
686.59174499999995
 30
0.0
  0
VERTEX
  5
C00
  8
0
 62
     7
 10
977.56478100000004
 20
688.59174499999995
 30
0.0
  0
VERTEX
  5
C01
  8
0
 62
     7
 10
993.56478100000004
 20
688.59174499999995
 30
0.0
  0
VERTEX
  5
C02
  8
0
 62
     7
 10
994.56478100000004
 20
690.59174499999995
 30
0.0
  0
VERTEX
  5
C03
  8
0
 62
     7
 10
995.56478100000004
 20
686.59174499999995
 30
0.0
  0
VERTEX
  5
C04
  8
0
 62
     7
 10
996.56478100000004
 20
688.59174499999995
 30
0.0
  0
VERTEX
  5
C05
  8
0
 62
     7
 10
1012.564781
 20
688.59174499999995
 30
0.0
  0
VERTEX
  5
C06
  8
0
 62
     7
 10
1013.564781
 20
690.59174499999995
 30
0.0
  0
VERTEX
  5
C07
  8
0
 62
     7
 10
1014.564781
 20
686.59174499999995
 30
0.0
  0
VERTEX
  5
C08
  8
0
 62
     7
 10
1015.564781
 20
688.59174499999995
 30
0.0
  0
VERTEX
  5
C09
  8
0
 62
     7
 10
1031.5647809999989
 20
688.59174499999995
 30
0.0
  0
VERTEX
  5
C0A
  8
0
 62
     7
 10
1032.564781
 20
690.59174499999995
 30
0.0
  0
VERTEX
  5
C0B
  8
0
 62
     7
 10
1033.564781
 20
686.59174499999995
 30
0.0
  0
VERTEX
  5
C0C
  8
0
 62
     7
 10
1034.564781
 20
688.59174499999995
 30
0.0
  0
VERTEX
  5
C0D
  8
0
 62
     7
 10
1050.564781
 20
688.59174499999995
 30
0.0
  0
VERTEX
  5
C0E
  8
0
 62
     7
 10
1051.564781
 20
690.59174499999995
 30
0.0
  0
VERTEX
  5
C0F
  8
0
 62
     7
 10
1052.564781
 20
686.59174499999995
 30
0.0
  0
VERTEX
  5
C10
  8
0
 62
     7
 10
1053.564781
 20
688.59174499999995
 30
0.0
  0
VERTEX
  5
C11
  8
0
 62
     7
 10
1069.564781
 20
688.59174499999995
 30
0.0
  0
VERTEX
  5
C12
  8
0
 62
     7
 10
1070.564781
 20
690.59174499999995
 30
0.0
  0
VERTEX
  5
C13
  8
0
 62
     7
 10
1071.5647809999989
 20
686.59174499999995
 30
0.0
  0
VERTEX
  5
C14
  8
0
 62
     7
 10
1072.564781
 20
688.59174499999995
 30
0.0
  0
VERTEX
  5
C15
  8
0
 62
     7
 10
1088.564781
 20
688.59174499999995
 30
0.0
  0
VERTEX
  5
C16
  8
0
 62
     7
 10
1089.5647809999989
 20
690.59174499999995
 30
0.0
  0
VERTEX
  5
C17
  8
0
 62
     7
 10
1090.564781
 20
686.59174499999995
 30
0.0
  0
VERTEX
  5
C18
  8
0
 62
     7
 10
1091.564781
 20
688.59174499999995
 30
0.0
  0
VERTEX
  5
C19
  8
0
 62
     7
 10
1104.2564090000001
 20
688.59174499999995
 30
0.0
  0
SEQEND
  5
C1A
  8
0
 62
     7
  0
POLYLINE
  5
769
  8
0
 62
     7
 66
     1
 10
0.0
 20
0.0
 30
0.0
  0
VERTEX
  5
C1B
  8
0
 62
     7
 10
1100.7966609999989
 20
857.91192799999999
 30
0.0
  0
VERTEX
  5
C1C
  8
0
 62
     7
 10
1100.7966609999989
 20
841.91192799999999
 30
0.0
  0
VERTEX
  5
C1D
  8
0
 62
     7
 10
1102.7966609999989
 20
840.91192799999999
 30
0.0
  0
VERTEX
  5
C1E
  8
0
 62
     7
 10
1098.7966609999989
 20
839.91192799999999
 30
0.0
  0
VERTEX
  5
C1F
  8
0
 62
     7
 10
1100.7966609999989
 20
838.91192799999988
 30
0.0
  0
VERTEX
  5
C20
  8
0
 62
     7
 10
1100.7966609999989
 20
822.91192799999999
 30
0.0
  0
VERTEX
  5
C21
  8
0
 62
     7
 10
1102.7966609999989
 20
821.91192799999988
 30
0.0
  0
VERTEX
  5
C22
  8
0
 62
     7
 10
1098.7966609999989
 20
820.91192799999988
 30
0.0
  0
VERTEX
  5
C23
  8
0
 62
     7
 10
1100.7966609999989
 20
819.91192799999988
 30
0.0
  0
VERTEX
  5
C24
  8
0
 62
     7
 10
1100.7966609999989
 20
803.91192799999988
 30
0.0
  0
VERTEX
  5
C25
  8
0
 62
     7
 10
1102.7966609999989
 20
802.91192799999988
 30
0.0
  0
VERTEX
  5
C26
  8
0
 62
     7
 10
1098.7966609999989
 20
801.91192799999988
 30
0.0
  0
VERTEX
  5
C27
  8
0
 62
     7
 10
1100.7966609999989
 20
800.91192799999999
 30
0.0
  0
VERTEX
  5
C28
  8
0
 62
     7
 10
1100.7966609999989
 20
784.91192799999999
 30
0.0
  0
VERTEX
  5
C29
  8
0
 62
     7
 10
1102.7966609999989
 20
783.91192799999999
 30
0.0
  0
VERTEX
  5
C2A
  8
0
 62
     7
 10
1098.7966609999989
 20
782.91192799999999
 30
0.0
  0
VERTEX
  5
C2B
  8
0
 62
     7
 10
1100.7966609999989
 20
781.91192799999988
 30
0.0
  0
VERTEX
  5
C2C
  8
0
 62
     7
 10
1100.7966609999989
 20
765.91192799999988
 30
0.0
  0
VERTEX
  5
C2D
  8
0
 62
     7
 10
1102.7966609999989
 20
764.91192799999988
 30
0.0
  0
VERTEX
  5
C2E
  8
0
 62
     7
 10
1098.7966609999989
 20
763.91192799999999
 30
0.0
  0
VERTEX
  5
C2F
  8
0
 62
     7
 10
1100.7966609999989
 20
762.91192799999999
 30
0.0
  0
VERTEX
  5
C30
  8
0
 62
     7
 10
1100.7966609999989
 20
746.91192799999999
 30
0.0
  0
VERTEX
  5
C31
  8
0
 62
     7
 10
1102.7966609999989
 20
745.91192799999999
 30
0.0
  0
VERTEX
  5
C32
  8
0
 62
     7
 10
1098.7966609999989
 20
744.91192799999988
 30
0.0
  0
VERTEX
  5
C33
  8
0
 62
     7
 10
1100.7966609999989
 20
743.91192799999988
 30
0.0
  0
VERTEX
  5
C34
  8
0
 62
     7
 10
1100.7966609999989
 20
727.91192799999988
 30
0.0
  0
VERTEX
  5
C35
  8
0
 62
     7
 10
1102.7966609999989
 20
726.91192799999988
 30
0.0
  0
VERTEX
  5
C36
  8
0
 62
     7
 10
1098.7966609999989
 20
725.91192799999999
 30
0.0
  0
VERTEX
  5
C37
  8
0
 62
     7
 10
1100.7966609999989
 20
724.91192799999999
 30
0.0
  0
VERTEX
  5
C38
  8
0
 62
     7
 10
1100.7966609999989
 20
708.91192799999999
 30
0.0
  0
VERTEX
  5
C39
  8
0
 62
     7
 10
1102.7966609999989
 20
707.91192799999999
 30
0.0
  0
VERTEX
  5
C3A
  8
0
 62
     7
 10
1098.7966609999989
 20
706.91192799999988
 30
0.0
  0
VERTEX
  5
C3B
  8
0
 62
     7
 10
1100.7966609999989
 20
705.91192799999988
 30
0.0
  0
VERTEX
  5
C3C
  8
0
 62
     7
 10
1100.7966609999989
 20
689.91192799999988
 30
0.0
  0
VERTEX
  5
C3D
  8
0
 62
     7
 10
1102.7966609999989
 20
688.91192799999999
 30
0.0
  0
VERTEX
  5
C3E
  8
0
 62
     7
 10
1098.7966609999989
 20
687.91192799999999
 30
0.0
  0
VERTEX
  5
C3F
  8
0
 62
     7
 10
1100.7966609999989
 20
686.91192799999988
 30
0.0
  0
VERTEX
  5
C40
  8
0
 62
     7
 10
1100.7966609999989
 20
684.90014799999994
 30
0.0
  0
SEQEND
  5
C41
  8
0
 62
     7
  0
POLYLINE
  5
791
  8
0
 62
     7
 66
     1
 10
0.0
 20
0.0
 30
0.0
  0
VERTEX
  5
C42
  8
0
 62
     7
 10
907.79666099999997
 20
857.91192799999999
 30
0.0
  0
VERTEX
  5
C43
  8
0
 62
     7
 10
907.79666099999997
 20
841.91192799999999
 30
0.0
  0
VERTEX
  5
C44
  8
0
 62
     7
 10
909.79666099999997
 20
840.91192799999999
 30
0.0
  0
VERTEX
  5
C45
  8
0
 62
     7
 10
905.79666099999986
 20
839.91192799999999
 30
0.0
  0
VERTEX
  5
C46
  8
0
 62
     7
 10
907.79666099999997
 20
838.91192799999988
 30
0.0
  0
VERTEX
  5
C47
  8
0
 62
     7
 10
907.79666099999997
 20
822.91192799999999
 30
0.0
  0
VERTEX
  5
C48
  8
0
 62
     7
 10
909.79666099999997
 20
821.91192799999988
 30
0.0
  0
VERTEX
  5
C49
  8
0
 62
     7
 10
905.79666099999986
 20
820.91192799999988
 30
0.0
  0
VERTEX
  5
C4A
  8
0
 62
     7
 10
907.79666099999997
 20
819.91192799999988
 30
0.0
  0
VERTEX
  5
C4B
  8
0
 62
     7
 10
907.79666099999997
 20
803.91192799999988
 30
0.0
  0
VERTEX
  5
C4C
  8
0
 62
     7
 10
909.79666099999997
 20
802.91192799999988
 30
0.0
  0
VERTEX
  5
C4D
  8
0
 62
     7
 10
905.79666099999986
 20
801.91192799999988
 30
0.0
  0
VERTEX
  5
C4E
  8
0
 62
     7
 10
907.79666099999997
 20
800.91192799999999
 30
0.0
  0
VERTEX
  5
C4F
  8
0
 62
     7
 10
907.79666099999997
 20
784.91192799999999
 30
0.0
  0
VERTEX
  5
C50
  8
0
 62
     7
 10
909.79666099999997
 20
783.91192799999999
 30
0.0
  0
VERTEX
  5
C51
  8
0
 62
     7
 10
905.79666099999986
 20
782.91192799999999
 30
0.0
  0
VERTEX
  5
C52
  8
0
 62
     7
 10
907.79666099999997
 20
781.91192799999988
 30
0.0
  0
VERTEX
  5
C53
  8
0
 62
     7
 10
907.79666099999997
 20
765.91192799999988
 30
0.0
  0
VERTEX
  5
C54
  8
0
 62
     7
 10
909.79666099999997
 20
764.91192799999988
 30
0.0
  0
VERTEX
  5
C55
  8
0
 62
     7
 10
905.79666099999986
 20
763.91192799999999
 30
0.0
  0
VERTEX
  5
C56
  8
0
 62
     7
 10
907.79666099999997
 20
762.91192799999999
 30
0.0
  0
VERTEX
  5
C57
  8
0
 62
     7
 10
907.79666099999997
 20
746.91192799999999
 30
0.0
  0
VERTEX
  5
C58
  8
0
 62
     7
 10
909.79666099999997
 20
745.91192799999999
 30
0.0
  0
VERTEX
  5
C59
  8
0
 62
     7
 10
905.79666099999986
 20
744.91192799999988
 30
0.0
  0
VERTEX
  5
C5A
  8
0
 62
     7
 10
907.79666099999997
 20
743.91192799999988
 30
0.0
  0
VERTEX
  5
C5B
  8
0
 62
     7
 10
907.79666099999997
 20
727.91192799999988
 30
0.0
  0
VERTEX
  5
C5C
  8
0
 62
     7
 10
909.79666099999997
 20
726.91192799999988
 30
0.0
  0
VERTEX
  5
C5D
  8
0
 62
     7
 10
905.79666099999986
 20
725.91192799999999
 30
0.0
  0
VERTEX
  5
C5E
  8
0
 62
     7
 10
907.79666099999997
 20
724.91192799999999
 30
0.0
  0
VERTEX
  5
C5F
  8
0
 62
     7
 10
907.79666099999997
 20
708.91192799999999
 30
0.0
  0
VERTEX
  5
C60
  8
0
 62
     7
 10
909.79666099999997
 20
707.91192799999999
 30
0.0
  0
VERTEX
  5
C61
  8
0
 62
     7
 10
905.79666099999986
 20
706.91192799999988
 30
0.0
  0
VERTEX
  5
C62
  8
0
 62
     7
 10
907.79666099999997
 20
705.91192799999988
 30
0.0
  0
VERTEX
  5
C63
  8
0
 62
     7
 10
907.79666099999997
 20
689.91192799999988
 30
0.0
  0
VERTEX
  5
C64
  8
0
 62
     7
 10
909.79666099999997
 20
688.91192799999999
 30
0.0
  0
VERTEX
  5
C65
  8
0
 62
     7
 10
905.79666099999986
 20
687.91192799999999
 30
0.0
  0
VERTEX
  5
C66
  8
0
 62
     7
 10
907.79666099999997
 20
686.91192799999988
 30
0.0
  0
VERTEX
  5
C67
  8
0
 62
     7
 10
907.79666099999997
 20
682.54747199999986
 30
0.0
  0
SEQEND
  5
C68
  8
0
 62
     7
  0
LINE
  5
7B9
  8
0
  6
DASHDOT
 62
     7
 10
889.95376599999997
 20
771.59174499999995
 30
0.0
 11
1111.767578
 21
771.59174499999995
 31
0.0
  0
CIRCLE
  5
7BA
  8
0
 62
     7
 10
1022.296661
 20
844.09174499999983
 30
0.0
 40
2.0
  0
CIRCLE
  5
7BB
  8
0
 62
     7
 10
977.29666099999986
 20
844.09174499999983
 30
0.0
 40
2.0
  0
CIRCLE
  5
7BC
  8
0
 62
     7
 10
1022.296661
 20
844.09174499999983
 30
0.0
 40
3.6800000000000002
  0
CIRCLE
  5
7BD
  8
0
 62
     7
 10
977.29666099999986
 20
844.09174499999983
 30
0.0
 40
3.6800000000000002
  0
LINE
  5
7BE
  8
0
  6
DASHDOT
 62
     7
 10
1022.296661
 20
850.77174600000023
 30
0.0
 11
1022.296661
 21
837.41174499999988
 31
0.0
  0
LINE
  5
7BF
  8
0
  6
DASHDOT
 62
     7
 10
1015.616660999999
 20
844.09174499999983
 30
0.0
 11
1028.9766619999989
 21
844.09174499999983
 31
0.0
  0
LINE
  5
7C0
  8
0
  6
DASHDOT
 62
     7
 10
977.29666099999986
 20
850.77174600000023
 30
0.0
 11
977.29666099999986
 21
837.41174499999988
 31
0.0
  0
LINE
  5
7C1
  8
0
  6
DASHDOT
 62
     7
 10
970.61666099999979
 20
844.09174499999983
 30
0.0
 11
983.97666199999981
 21
844.09174499999983
 31
0.0
  0
LINE
  5
7C2
  8
0
 62
     7
 10
1106.223755
 20
837.70542699999999
 30
0.0
 11
1106.223755
 21
805.9597379999999
 31
0.0
  0
LINE
  5
7C3
  8
0
 62
     7
 10
1117.095566
 20
837.70542699999999
 30
0.0
 11
1117.095566
 21
805.9597379999999
 31
0.0
  0
LINE
  5
7C4
  8
0
 62
     7
 10
1106.223755
 20
837.70542699999999
 30
0.0
 11
1117.095566
 21
837.70542699999999
 31
0.0
  0
LINE
  5
7C5
  8
0
 62
     7
 10
1106.223755
 20
805.9597379999999
 30
0.0
 11
1117.095566
 21
805.9597379999999
 31
0.0
  0
LINE
  5
7C6
  8
0
 62
     7
 10
1106.223755
 20
737.22375299999987
 30
0.0
 11
1106.223755
 21
705.47806700000001
 31
0.0
  0
LINE
  5
7C7
  8
0
 62
     7
 10
1117.095566
 20
737.22375299999987
 30
0.0
 11
1117.095566
 21
705.47806700000001
 31
0.0
  0
LINE
  5
7C8
  8
0
 62
     7
 10
1106.223755
 20
737.22375299999987
 30
0.0
 11
1117.095566
 21
737.22375299999987
 31
0.0
  0
LINE
  5
7C9
  8
0
 62
     7
 10
1106.223755
 20
705.47806700000001
 30
0.0
 11
1117.095566
 21
705.47806700000001
 31
0.0
  0
LINE
  5
7CA
  8
0
  6
DASHDOT
 62
     7
 10
1111.65966
 20
853.79570999999987
 30
0.0
 11
1111.65966
 21
628.53177800000003
 31
0.0
  0
LINE
  5
7CB
  8
0
 62
     7
 10
999.79666099999997
 20
912.77640700000006
 30
0.0
 11
1011.614409999999
 21
910.69263599999999
 31
0.0
  0
LINE
  5
7CC
  8
0
 62
     7
 10
999.79666099999997
 20
912.77640700000006
 30
0.0
 11
1011.614409999999
 21
914.86017799999991
 31
0.0
  0
LINE
  5
7CD
  8
0
 62
     7
 10
1062.7966609999989
 20
912.77640700000006
 30
0.0
 11
1050.9789119999989
 21
914.86017799999991
 31
0.0
  0
LINE
  5
7CE
  8
0
 62
     7
 10
1062.7966609999989
 20
912.77640700000006
 30
0.0
 11
1050.9789119999989
 21
910.69263599999999
 31
0.0
  0
LINE
  5
7CF
  8
0
 62
     7
 10
999.79666099999997
 20
912.77640700000006
 30
0.0
 11
1062.7966609999989
 21
912.77640700000006
 31
0.0
  0
LINE
  5
7D0
  8
0
 62
     7
 10
999.79666099999997
 20
920.77640700000006
 30
0.0
 11
999.79666099999997
 21
874.10172499999999
 31
0.0
  0
LINE
  5
7D1
  8
0
 62
     7
 10
1062.7966609999989
 20
920.77640700000006
 30
0.0
 11
1062.7966609999989
 21
834.59174499999995
 31
0.0
  0
LINE
  5
7D2
  8
0
 62
     7
 10
927.79666099999997
 20
945.72480199999995
 30
0.0
 11
939.61440999999979
 21
943.64103099999988
 31
0.0
  0
LINE
  5
7D3
  8
0
 62
     7
 10
927.79666099999997
 20
945.72480199999995
 30
0.0
 11
939.61440999999979
 21
947.80857300000002
 31
0.0
  0
LINE
  5
7D4
  8
0
 62
     7
 10
1062.7966609999989
 20
945.72480199999995
 30
0.0
 11
1050.9789119999989
 21
947.80857300000002
 31
0.0
  0
LINE
  5
7D5
  8
0
 62
     7
 10
1062.7966609999989
 20
945.72480199999995
 30
0.0
 11
1050.9789119999989
 21
943.64103099999988
 31
0.0
  0
LINE
  5
7D6
  8
0
 62
     7
 10
927.79666099999997
 20
945.72480199999995
 30
0.0
 11
1062.7966609999989
 21
945.72480199999995
 31
0.0
  0
LINE
  5
7D7
  8
0
 62
     7
 10
927.79666099999997
 20
953.72480199999995
 30
0.0
 11
927.79666099999997
 21
834.59174499999995
 31
0.0
  0
LINE
  5
7D8
  8
0
 62
     7
 10
1062.7966609999989
 20
953.72480199999995
 30
0.0
 11
1062.7966609999989
 21
834.59174499999995
 31
0.0
  0
LINE
  5
7D9
  8
0
 62
     7
 10
999.79666099999997
 20
671.77204299999994
 30
0.0
 11
1011.614409999999
 21
669.68825700000002
 31
0.0
  0
LINE
  5
7DA
  8
0
 62
     7
 10
999.79666099999997
 20
671.77204299999994
 30
0.0
 11
1011.614409999999
 21
673.85581400000001
 31
0.0
  0
LINE
  5
7DB
  8
0
 62
     7
 10
1080.7966609999989
 20
671.77204299999994
 30
0.0
 11
1068.9789119999989
 21
673.85581400000001
 31
0.0
  0
LINE
  5
7DC
  8
0
 62
     7
 10
1080.7966609999989
 20
671.77204299999994
 30
0.0
 11
1068.9789119999989
 21
669.68825700000002
 31
0.0
  0
LINE
  5
7DD
  8
0
 62
     7
 10
999.79666099999997
 20
671.77204299999994
 30
0.0
 11
1080.7966609999989
 21
671.77204299999994
 31
0.0
  0
LINE
  5
7DE
  8
0
 62
     7
 10
999.79666099999997
 20
663.77204299999994
 30
0.0
 11
999.79666099999997
 21
679.01102600000002
 31
0.0
  0
LINE
  5
7DF
  8
0
 62
     7
 10
1080.7966609999989
 20
663.77204299999994
 30
0.0
 11
1080.7966609999989
 21
694.09174499999995
 31
0.0
  0
LINE
  5
7E0
  8
0
 62
     7
 10
955.79666099999986
 20
643.35901799999999
 30
0.0
 11
967.61441000000002
 21
641.27524800000003
 31
0.0
  0
LINE
  5
7E1
  8
0
 62
     7
 10
955.79666099999986
 20
643.35901799999999
 30
0.0
 11
967.61441000000002
 21
645.44280400000002
 31
0.0
  0
LINE
  5
7E2
  8
0
 62
     7
 10
1080.7966609999989
 20
643.35901799999999
 30
0.0
 11
1068.9789119999989
 21
645.44278899999995
 31
0.0
  0
LINE
  5
7E3
  8
0
 62
     7
 10
1080.7966609999989
 20
643.35901799999999
 30
0.0
 11
1068.9789119999989
 21
641.27523199999996
 31
0.0
  0
LINE
  5
7E4
  8
0
 62
     7
 10
955.79666099999986
 20
643.35901799999999
 30
0.0
 11
1080.7966609999989
 21
643.35901799999999
 31
0.0
  0
LINE
  5
7E5
  8
0
 62
     7
 10
955.79666099999986
 20
635.35901799999999
 30
0.0
 11
955.79666099999986
 21
694.09174499999995
 31
0.0
  0
LINE
  5
7E6
  8
0
 62
     7
 10
1080.7966609999989
 20
635.35901799999999
 30
0.0
 11
1080.7966609999989
 21
694.09174499999995
 31
0.0
  0
LINE
  5
7E7
  8
0
 62
     7
 10
999.79666099999997
 20
785.78608099999997
 30
0.0
 11
1011.614409999999
 21
783.70227999999986
 31
0.0
  0
LINE
  5
7E8
  8
0
 62
     7
 10
999.79666099999997
 20
785.78608099999997
 30
0.0
 11
1011.614409999999
 21
787.86985199999992
 31
0.0
  0
LINE
  5
7E9
  8
0
 62
     7
 10
1093.7966609999989
 20
785.78608099999997
 30
0.0
 11
1081.9789119999989
 21
787.86985199999992
 31
0.0
  0
LINE
  5
7EA
  8
0
 62
     7
 10
1093.7966609999989
 20
785.78608099999997
 30
0.0
 11
1081.9789119999989
 21
783.70231100000001
 31
0.0
  0
LINE
  5
7EB
  8
0
 62
     7
 10
999.79666099999997
 20
785.78608099999997
 30
0.0
 11
1093.7966609999989
 21
785.78608099999997
 31
0.0
  0
LINE
  5
7EC
  8
0
 62
     7
 10
1093.7966609999989
 20
793.78608099999997
 30
0.0
 11
1093.7966609999989
 21
743.84174500000006
 31
0.0
  0
LINE
  5
7ED
  8
0
 62
     7
 10
1031.866485999999
 20
752.34174500000006
 30
0.0
 11
1033.9503480000001
 21
764.15943300000004
 31
0.0
  0
LINE
  5
7EE
  8
0
 62
     7
 10
1031.866485999999
 20
752.34174500000006
 30
0.0
 11
1029.782745
 21
764.15943300000004
 31
0.0
  0
LINE
  5
7EF
  8
0
 62
     7
 10
1031.866485999999
 20
736.34174499999995
 30
0.0
 11
1029.782745
 21
724.52405699999997
 31
0.0
  0
LINE
  5
7F0
  8
0
 62
     7
 10
1031.866485999999
 20
736.34174499999995
 30
0.0
 11
1033.9503480000001
 21
724.52405699999997
 31
0.0
  0
LINE
  5
7F1
  8
0
 62
     7
 10
1031.866485999999
 20
755.68279500000006
 30
0.0
 11
1031.866485999999
 21
733.68279500000006
 31
0.0
  0
LINE
  5
7F2
  8
0
 62
     7
 10
1023.866485999999
 20
752.34174500000006
 30
0.0
 11
1062.7966609999989
 21
752.34174500000006
 31
0.0
  0
LINE
  5
7F3
  8
0
 62
     7
 10
1023.866485999999
 20
736.34174499999995
 30
0.0
 11
1062.7966609999989
 21
736.34174499999995
 31
0.0
  0
LINE
  5
7F4
  8
0
 62
     7
 10
1205.4212339999999
 20
842.59174499999995
 30
0.0
 11
1203.3374940000001
 21
830.77405700000008
 31
0.0
  0
LINE
  5
7F5
  8
0
 62
     7
 10
1205.4212339999999
 20
842.59174499999995
 30
0.0
 11
1207.5050349999999
 21
830.77405700000008
 31
0.0
  0
LINE
  5
7F6
  8
0
 62
     7
 10
1205.4212339999999
 20
700.59174499999995
 30
0.0
 11
1207.5050349999999
 21
712.40943300000004
 31
0.0
  0
LINE
  5
7F7
  8
0
 62
     7
 10
1205.4212339999999
 20
700.59174499999995
 30
0.0
 11
1203.3374940000001
 21
712.40943300000004
 31
0.0
  0
LINE
  5
7F8
  8
0
 62
     7
 10
1205.4212339999999
 20
842.59174499999995
 30
0.0
 11
1205.4212339999999
 21
700.59174499999995
 31
0.0
  0
LINE
  5
7F9
  8
0
 62
     7
 10
1213.4212339999999
 20
842.59174499999995
 30
0.0
 11
962.29666099999997
 21
842.59174499999995
 31
0.0
  0
LINE
  5
7FA
  8
0
 62
     7
 10
1213.4212339999999
 20
700.59174499999995
 30
0.0
 11
1087.2966609999989
 21
700.59174499999995
 31
0.0
  0
LINE
  5
7FB
  8
0
 62
     7
 10
883.22329700000012
 20
834.59174499999995
 30
0.0
 11
881.13955699999997
 21
822.77405700000008
 31
0.0
  0
LINE
  5
7FC
  8
0
 62
     7
 10
883.22329700000012
 20
834.59174499999995
 30
0.0
 11
885.30703699999992
 21
822.77405700000008
 31
0.0
  0
LINE
  5
7FD
  8
0
 62
     7
 10
883.22329700000012
 20
708.59174500000006
 30
0.0
 11
885.30703699999992
 21
720.40943300000004
 31
0.0
  0
LINE
  5
7FE
  8
0
 62
     7
 10
883.22329700000012
 20
708.59174500000006
 30
0.0
 11
881.13955699999997
 21
720.40943300000004
 31
0.0
  0
LINE
  5
7FF
  8
0
 62
     7
 10
883.22329700000012
 20
834.59174499999995
 30
0.0
 11
883.22329700000012
 21
708.59174500000006
 31
0.0
  0
LINE
  5
800
  8
0
 62
     7
 10
875.22329700000012
 20
834.59174499999995
 30
0.0
 11
927.79666099999997
 21
834.59174499999995
 31
0.0
  0
LINE
  5
801
  8
0
 62
     7
 10
875.22329700000012
 20
708.59174500000006
 30
0.0
 11
927.79666099999997
 21
708.59174500000006
 31
0.0
  0
LINE
  5
802
  8
0
 62
     7
 10
1178.6332090000001
 20
842.59174499999995
 30
0.0
 11
1176.549469
 21
830.77405700000008
 31
0.0
  0
LINE
  5
803
  8
0
 62
     7
 10
1178.6332090000001
 20
842.59174499999995
 30
0.0
 11
1180.7169490000001
 21
830.77405700000008
 31
0.0
  0
LINE
  5
804
  8
0
 62
     7
 10
1178.6332090000001
 20
771.59174499999995
 30
0.0
 11
1180.7169490000001
 21
783.40943300000004
 31
0.0
  0
LINE
  5
805
  8
0
 62
     7
 10
1178.6332090000001
 20
771.59174499999995
 30
0.0
 11
1176.549469
 21
783.40943300000004
 31
0.0
  0
LINE
  5
806
  8
0
 62
     7
 10
1178.6332090000001
 20
771.59174499999995
 30
0.0
 11
1176.549469
 21
759.77405699999997
 31
0.0
  0
LINE
  5
807
  8
0
 62
     7
 10
1178.6332090000001
 20
771.59174499999995
 30
0.0
 11
1180.7169490000001
 21
759.77405699999997
 31
0.0
  0
LINE
  5
808
  8
0
 62
     7
 10
1178.6332090000001
 20
700.59174499999995
 30
0.0
 11
1180.7169490000001
 21
712.40943300000004
 31
0.0
  0
LINE
  5
809
  8
0
 62
     7
 10
1178.6332090000001
 20
700.59174499999995
 30
0.0
 11
1176.549469
 21
712.40943300000004
 31
0.0
  0
LINE
  5
80A
  8
0
 62
     7
 10
1178.6332090000001
 20
842.59174499999995
 30
0.0
 11
1178.6332090000001
 21
700.59174499999995
 31
0.0
  0
LINE
  5
80B
  8
0
 62
     7
 10
1186.6332090000001
 20
842.59174499999995
 30
0.0
 11
1087.2966609999989
 21
842.59174499999995
 31
0.0
  0
LINE
  5
80C
  8
0
 62
     7
 10
1186.6332090000001
 20
771.59174499999995
 30
0.0
 11
1087.2966609999989
 21
771.59174499999995
 31
0.0
  0
LINE
  5
80D
  8
0
 62
     7
 10
1186.6332090000001
 20
700.59174499999995
 30
0.0
 11
1087.2966609999989
 21
700.59174499999995
 31
0.0
  0
LINE
  5
80E
  8
0
 62
     7
 10
1156.2340389999999
 20
771.59174499999995
 30
0.0
 11
1158.317902
 21
783.40943300000004
 31
0.0
  0
LINE
  5
80F
  8
0
 62
     7
 10
1156.2340389999999
 20
771.59174499999995
 30
0.0
 11
1154.1502989999999
 21
783.40943300000004
 31
0.0
  0
LINE
  5
810
  8
0
 62
     7
 10
1156.2340389999999
 20
744.34174499999995
 30
0.0
 11
1154.1502989999999
 21
732.52405699999997
 31
0.0
  0
LINE
  5
811
  8
0
 62
     7
 10
1156.2340389999999
 20
744.34174499999995
 30
0.0
 11
1158.317902
 21
732.52405699999997
 31
0.0
  0
LINE
  5
812
  8
0
 62
     7
 10
1156.2340389999999
 20
838.59174499999995
 30
0.0
 11
1156.2340389999999
 21
744.34174499999995
 31
0.0
  0
LINE
  5
813
  8
0
 62
     7
 10
1164.2340389999999
 20
771.59174499999995
 30
0.0
 11
1111.7676089999991
 21
771.59174499999995
 31
0.0
  0
LINE
  5
814
  8
0
 62
     7
 10
1164.2340389999999
 20
744.34174499999995
 30
0.0
 11
1100.8179019999991
 21
744.34174499999995
 31
0.0
  0
LINE
  5
815
  8
0
 62
     7
 10
977.29666099999986
 20
883.02198199999987
 30
0.0
 11
965.47891200000004
 21
885.10575300000005
 31
0.0
  0
LINE
  5
816
  8
0
 62
     7
 10
977.29666099999986
 20
883.02198199999987
 30
0.0
 11
965.47891200000004
 21
880.9381810000001
 31
0.0
  0
LINE
  5
817
  8
0
 62
     7
 10
1022.296661
 20
883.02198199999987
 30
0.0
 11
1034.114409999999
 21
880.93821099999991
 31
0.0
  0
LINE
  5
818
  8
0
 62
     7
 10
1022.296661
 20
883.02198199999987
 30
0.0
 11
1034.114409999999
 21
885.10575300000005
 31
0.0
  0
LINE
  5
819
  8
0
 62
     7
 10
977.29666099999986
 20
883.02198199999987
 30
0.0
 11
1056.789581
 21
883.02198199999987
 31
0.0
  0
LINE
  5
81A
  8
0
 62
     7
 10
977.29666099999986
 20
891.02198199999998
 30
0.0
 11
977.29666099999986
 21
850.77173800000003
 31
0.0
  0
LINE
  5
81B
  8
0
 62
     7
 10
1022.296661
 20
891.02198199999998
 30
0.0
 11
1022.296661
 21
850.77173800000003
 31
0.0
  0
LINE
  5
81C
  8
0
 62
     7
 10
853.63699299999985
 20
844.09174499999983
 30
0.0
 11
851.55325299999993
 21
832.27405699999997
 31
0.0
  0
LINE
  5
81D
  8
0
 62
     7
 10
853.63699299999985
 20
844.09174499999983
 30
0.0
 11
855.72073399999988
 21
832.27405699999997
 31
0.0
  0
LINE
  5
81E
  8
0
 62
     7
 10
853.63699299999985
 20
771.59174499999995
 30
0.0
 11
855.72073399999988
 21
783.40943300000004
 31
0.0
  0
LINE
  5
81F
  8
0
 62
     7
 10
853.63699299999985
 20
771.59174499999995
 30
0.0
 11
851.55325299999993
 21
783.40943300000004
 31
0.0
  0
LINE
  5
820
  8
0
 62
     7
 10
853.63699299999985
 20
844.09174499999983
 30
0.0
 11
853.63699299999985
 21
771.59174499999995
 31
0.0
  0
LINE
  5
821
  8
0
 62
     7
 10
845.63699299999985
 20
844.09174499999983
 30
0.0
 11
970.61660800000004
 21
844.09174499999983
 31
0.0
  0
LINE
  5
822
  8
0
 62
     7
 10
845.63699299999985
 20
771.59174499999995
 30
0.0
 11
889.95376599999997
 21
771.59174499999995
 31
0.0
  0
LINE
  5
823
  8
0
 62
     7
 10
999.79666099999997
 20
597.22097199999985
 30
0.0
 11
987.97891199999992
 21
599.30475799999988
 31
0.0
  0
LINE
  5
824
  8
0
 62
     7
 10
999.79666099999997
 20
597.22097199999985
 30
0.0
 11
987.97891199999992
 21
595.13718600000004
 31
0.0
  0
LINE
  5
825
  8
0
 62
     7
 10
1111.659697999999
 20
597.22097199999985
 30
0.0
 11
1123.4773250000001
 21
595.13718600000004
 31
0.0
  0
LINE
  5
826
  8
0
 62
     7
 10
1111.659697999999
 20
597.22097199999985
 30
0.0
 11
1123.4773250000001
 21
599.3047429999998
 31
0.0
  0
LINE
  5
827
  8
0
 62
     7
 10
999.79666099999997
 20
597.22097199999985
 30
0.0
 11
1111.659697999999
 21
597.22097199999985
 31
0.0
  0
LINE
  5
828
  8
0
 62
     7
 10
999.79666099999997
 20
589.22097199999985
 30
0.0
 11
999.79666099999997
 21
679.01102600000002
 31
0.0
  0
LINE
  5
829
  8
0
 62
     7
 10
1111.659697999999
 20
589.22097199999985
 30
0.0
 11
1111.659697999999
 21
628.53177800000003
 31
0.0
  0
POINT
  5
82A
  8
0
 62
     7
 10
865.48239100000012
 20
948.03625499999998
 30
0.0
  0
POINT
  5
82B
  8
0
 62
     7
 10
865.48239100000012
 20
944.0362550000001
 30
0.0
  0
LINE
  5
82C
  8
0
 62
     7
 10
867.48239100000001
 20
957.99451499999998
 30
0.0
 11
867.48239100000001
 21
934.07799399999999
 31
0.0
  0
LINE
  5
82D
  8
0
 62
     7
 10
865.48239100000012
 20
957.99451499999998
 30
0.0
 11
865.48239100000012
 21
934.07799399999999
 31
0.0
  0
LINE
  5
82E
  8
0
  6
DASHDOT
 62
     7
 10
862.27978800000005
 20
946.0362550000001
 30
0.0
 11
870.706007
 21
946.0362550000001
 31
0.0
  0
LINE
  5
82F
  8
0
 62
     7
 10
867.48239100000001
 20
949.71445399999982
 30
0.0
 11
865.48239100000012
 21
948.03625499999998
 31
0.0
  0
LINE
  5
830
  8
0
 62
     7
 10
865.48239100000012
 20
944.0362550000001
 30
0.0
 11
867.48239100000001
 21
942.35805600000015
 31
0.0
  0
LINE
  5
831
  8
0
 62
     7
 10
865.48239100000012
 20
936.53625499999998
 30
0.0
 11
867.48239100000001
 21
936.53625499999998
 31
0.0
  0
CIRCLE
  5
832
  8
0
 62
     7
 10
866.48239100000001
 20
946.0362550000001
 30
0.0
 40
12.0
  0
LINE
  5
833
  8
0
 62
     7
 10
859.48239899999999
 20
941.5362550000001
 30
0.0
 11
861.98239899999999
 21
941.5362550000001
 31
0.0
  0
LINE
  5
834
  8
0
 62
     7
 10
862.98239899999999
 20
950.53625499999998
 30
0.0
 11
862.98239899999999
 21
942.53625499999998
 31
0.0
  0
LINE
  5
835
  8
0
 62
     7
 10
862.98239899999999
 20
950.53625499999998
 30
0.0
 11
865.48239100000012
 21
950.53625499999998
 31
0.0
  0
LINE
  5
836
  8
0
 62
     7
 10
859.48239899999999
 20
939.03625499999998
 30
0.0
 11
861.98239899999999
 21
939.03625499999998
 31
0.0
  0
LINE
  5
837
  8
0
 62
     7
 10
858.48239899999999
 20
938.03625499999998
 30
0.0
 11
858.48239899999999
 21
937.09197599999993
 31
0.0
  0
ARC
  5
838
  8
0
 62
     7
 10
861.98240299999998
 20
942.53625399999976
 30
0.0
 40
0.9999969999999999
 50
269.99984599999988
 51
360.00025499999992
  0
ARC
  5
839
  8
0
 62
     7
 10
859.48241399999995
 20
938.03624200000002
 30
0.0
 40
3.500017999999999
 50
90.000182999999979
 51
153.40876399999991
  0
ARC
  5
83A
  8
0
 62
     7
 10
859.48235499999998
 20
938.03629600000011
 30
0.0
 40
0.9999499999999999
 50
449.9977649999999
 51
180.0011749999999
  0
ARC
  5
83B
  8
0
 62
     7
 10
861.98241899999994
 20
942.53622300000006
 30
0.0
 40
3.4999709999999991
 50
269.9996549999999
 51
360.00041900000002
  0
LINE
  5
83C
  8
0
 62
     7
 10
846.03671300000008
 20
948.03625499999998
 30
0.0
 11
846.5576779999999
 21
950.99067700000001
 31
0.0
  0
LINE
  5
83D
  8
0
 62
     7
 10
846.03671300000008
 20
948.03625499999998
 30
0.0
 11
845.51577799999995
 21
950.99067700000001
 31
0.0
  0
LINE
  5
83E
  8
0
 62
     7
 10
846.03671300000008
 20
944.0362550000001
 30
0.0
 11
845.51577799999995
 21
941.08183299999985
 31
0.0
  0
LINE
  5
83F
  8
0
 62
     7
 10
846.03671300000008
 20
944.0362550000001
 30
0.0
 11
846.5576779999999
 21
941.08183299999985
 31
0.0
  0
LINE
  5
840
  8
0
 62
     7
 10
846.03671300000008
 20
957.44631999999979
 30
0.0
 11
846.03671300000008
 21
944.0362550000001
 31
0.0
  0
LINE
  5
841
  8
0
 62
     7
 10
844.03671299999996
 20
948.03625499999998
 30
0.0
 11
865.48239100000012
 21
948.03625499999998
 31
0.0
  0
LINE
  5
842
  8
0
 62
     7
 10
844.03671299999996
 20
944.0362550000001
 30
0.0
 11
865.48239100000012
 21
944.0362550000001
 31
0.0
  0
LINE
  5
843
  8
0
 62
     7
 10
879.39285299999995
 20
932.36398299999985
 30
0.0
 11
881.69100999999989
 21
934.29234299999985
 31
0.0
  0
LINE
  5
844
  8
0
 62
     7
 10
879.39285299999995
 20
932.36398299999985
 30
0.0
 11
880.89285299999995
 21
934.96205899999984
 31
0.0
  0
LINE
  5
845
  8
0
 62
     7
 10
879.39285299999995
 20
959.708527
 30
0.0
 11
880.89285299999995
 21
957.1104509999999
 31
0.0
  0
LINE
  5
846
  8
0
 62
     7
 10
879.39285299999995
 20
959.708527
 30
0.0
 11
881.69100999999989
 21
957.78016699999989
 31
0.0
  0
POLYLINE
  5
847
  8
0
 62
     7
 66
     1
 10
0.0
 20
0.0
 30
0.0
  0
VERTEX
  5
C69
  8
0
 62
     7
 10
879.39285299999995
 20
932.36398299999985
 30
0.0
  0
VERTEX
  5
C6A
  8
0
 62
     7
 10
880.86993399999994
 20
934.34804499999996
 30
0.0
  0
VERTEX
  5
C6B
  8
0
 62
     7
 10
882.10668899999996
 20
936.49017299999991
 30
0.0
  0
VERTEX
  5
C6C
  8
0
 62
     7
 10
883.08639499999992
 20
938.761391
 30
0.0
  0
VERTEX
  5
C6D
  8
0
 62
     7
 10
883.79580699999997
 20
941.13098900000011
 30
0.0
  0
VERTEX
  5
C6E
  8
0
 62
     7
 10
884.22534199999996
 20
943.56692499999997
 30
0.0
  0
VERTEX
  5
C6F
  8
0
 62
     7
 10
884.3691409999999
 20
946.0362550000001
 30
0.0
  0
VERTEX
  5
C70
  8
0
 62
     7
 10
884.22534199999996
 20
948.505585
 30
0.0
  0
VERTEX
  5
C71
  8
0
 62
     7
 10
883.79580699999997
 20
950.94152099999997
 30
0.0
  0
VERTEX
  5
C72
  8
0
 62
     7
 10
883.08639499999992
 20
953.31111899999985
 30
0.0
  0
VERTEX
  5
C73
  8
0
 62
     7
 10
882.10668899999996
 20
955.58233599999994
 30
0.0
  0
VERTEX
  5
C74
  8
0
 62
     7
 10
880.86993399999994
 20
957.7244639999999
 30
0.0
  0
VERTEX
  5
C75
  8
0
 62
     7
 10
879.39285299999995
 20
959.708527
 30
0.0
  0
SEQEND
  5
C76
  8
0
 62
     7
  0
LINE
  5
856
  8
0
 62
     7
 10
880.92495699999995
 20
931.07840699999997
 30
0.0
 11
867.70297200000005
 21
942.17297400000007
 31
0.0
  0
LINE
  5
857
  8
0
 62
     7
 10
880.92495699999995
 20
960.994102
 30
0.0
 11
867.70297200000005
 21
949.89953599999978
 31
0.0
  0
INSERT
  5
A6F
  8
0
  2
BLOCK0
 10
18.784485
 20
397.89031999999997
 30
0.0
 50
180.0
  0
INSERT
  5
A70
  8
0
  2
BLOCK1
 10
18.784485
 20
397.89031999999997
 30
0.0
 50
180.0
  0
INSERT
  5
A71
  8
0
  2
BLOCK2
 10
18.784485
 20
397.89031999999997
 30
0.0
 50
180.0
  0
INSERT
  5
A72
  8
0
  2
BLOCK3
 10
18.784485
 20
397.89031999999997
 30
0.0
 50
180.0
  0
INSERT
  5
A73
  8
0
  2
BLOCK4
 10
18.784485
 20
397.89031999999997
 30
0.0
 50
180.0
  0
INSERT
  5
A74
  8
0
  2
BLOCK5
 10
18.784485
 20
397.89031999999997
 30
0.0
 50
180.0
  0
INSERT
  5
A75
  8
0
  2
BLOCK6
 10
18.784485
 20
397.89031999999997
 30
0.0
 50
180.0
  0
INSERT
  5
A76
  8
0
  2
BLOCK7
 10
164.40953099999999
 20
661.60463900000002
 30
0.0
 50
90.0
  0
INSERT
  5
A77
  8
0
  2
BLOCK8
 10
164.40953099999999
 20
661.60463900000002
 30
0.0
 50
90.0
  0
INSERT
  5
A78
  8
0
  2
BLOCK9
 10
164.40953099999999
 20
661.60463900000002
 30
0.0
 50
90.0
  0
INSERT
  5
A79
  8
0
  2
BLOCK10
 10
164.40953099999999
 20
661.60463900000002
 30
0.0
 50
90.0
  0
INSERT
  5
A7A
  8
0
  2
BLOCK11
 10
164.40953099999999
 20
661.60463900000002
 30
0.0
 50
90.0
  0
INSERT
  5
A7C
  8
0
  2
BLOCK13
 10
164.40953099999999
 20
661.60463900000002
 30
0.0
 50
90.0
  0
INSERT
  5
A7D
  8
0
  2
BLOCK14
 10
164.40953099999999
 20
661.60463900000002
 30
0.0
 50
90.0
  0
INSERT
  5
A7E
  8
0
  2
BLOCK15
 10
164.40953099999999
 20
661.60463900000002
 30
0.0
 50
90.0
  0
INSERT
  5
A7F
  8
0
  2
BLOCK16
 10
164.40953099999999
 20
661.60463900000002
 30
0.0
 50
90.0
  0
INSERT
  5
A80
  8
0
  2
BLOCK17
 10
164.40953099999999
 20
661.60463900000002
 30
0.0
 50
90.0
  0
INSERT
  5
A81
  8
0
  2
BLOCK18
 10
164.40953099999999
 20
661.60463900000002
 30
0.0
 50
90.0
  0
INSERT
  5
A82
  8
0
  2
BLOCK19
 10
164.40953099999999
 20
661.60463900000002
 30
0.0
 50
90.0
  0
INSERT
  5
A83
  8
0
  2
BLOCK20
 10
-187.52590499999999
 20
661.60463900000002
 30
0.0
 50
90.0
  0
INSERT
  5
A84
  8
0
  2
BLOCK21
 10
-187.52590499999999
 20
661.60463900000002
 30
0.0
 50
90.0
  0
INSERT
  5
A85
  8
0
  2
BLOCK22
 10
-187.52590499999999
 20
661.60463900000002
 30
0.0
 50
90.0
  0
INSERT
  5
A86
  8
0
  2
BLOCK23
 10
-187.52590499999999
 20
661.60463900000002
 30
0.0
 50
90.0
  0
INSERT
  5
A87
  8
0
  2
BLOCK24
 10
-187.52590499999999
 20
661.60463900000002
 30
0.0
 50
90.0
  0
INSERT
  5
A88
  8
0
  2
BLOCK25
 10
-187.52590499999999
 20
661.60463900000002
 30
0.0
 50
90.0
  0
INSERT
  5
A89
  8
0
  2
BLOCK26
 10
-187.52590499999999
 20
661.60463900000002
 30
0.0
 50
90.0
  0
INSERT
  5
A8A
  8
0
  2
BLOCK27
 10
-187.52590499999999
 20
661.60463900000002
 30
0.0
 50
90.0
  0
INSERT
  5
A8B
  8
0
  2
BLOCK28
 10
-187.52590499999999
 20
661.60463900000002
 30
0.0
 50
90.0
  0
INSERT
  5
A8C
  8
0
  2
BLOCK29
 10
-187.52590499999999
 20
661.60463900000002
 30
0.0
 50
90.0
  0
INSERT
  5
A8D
  8
0
  2
BLOCK30
 10
-187.52590499999999
 20
661.60463900000002
 30
0.0
 50
90.0
  0
INSERT
  5
A8E
  8
0
  2
BLOCK31
 10
-187.52590499999999
 20
661.60463900000002
 30
0.0
 50
90.0
  0
INSERT
  5
A8F
  8
0
  2
BLOCK32
 10
-187.52590499999999
 20
661.60463900000002
 30
0.0
 50
90.0
  0
INSERT
  5
A90
  8
0
  2
BLOCK33
 10
-187.52590499999999
 20
661.60463900000002
 30
0.0
 50
90.0
  0
INSERT
  5
A91
  8
0
  2
BLOCK34
 10
-187.52590499999999
 20
661.60463900000002
 30
0.0
 50
90.0
  0
INSERT
  5
A92
  8
0
  2
BLOCK35
 10
-187.52590499999999
 20
661.60463900000002
 30
0.0
 50
90.0
  0
INSERT
  5
A93
  8
0
  2
BLOCK36
 10
-187.52590499999999
 20
661.60463900000002
 30
0.0
 50
90.0
  0
INSERT
  5
A94
  8
0
  2
BLOCK37
 10
-187.52590499999999
 20
661.60463900000002
 30
0.0
 50
90.0
  0
INSERT
  5
A95
  8
0
  2
BLOCK38
 10
-187.52590499999999
 20
661.60463900000002
 30
0.0
 50
90.0
  0
INSERT
  5
A96
  8
0
  2
BLOCK39
 10
-187.52590499999999
 20
661.60463900000002
 30
0.0
 50
90.0
  0
INSERT
  5
A97
  8
0
  2
BLOCK40
 10
-187.52590499999999
 20
661.60463900000002
 30
0.0
 50
90.0
  0
INSERT
  5
A98
  8
0
  2
BLOCK41
 10
-187.52590499999999
 20
661.60463900000002
 30
0.0
 50
90.0
  0
INSERT
  5
A99
  8
0
  2
BLOCK42
 10
609.29187000000002
 20
773.84174499999995
 30
0.0
 50
180.0
  0
INSERT
  5
A9A
  8
0
  2
BLOCK43
 10
609.29187000000002
 20
773.84174499999995
 30
0.0
 50
180.0
  0
INSERT
  5
A9B
  8
0
  2
BLOCK44
 10
609.29187000000002
 20
773.84174499999995
 30
0.0
 50
180.0
  0
INSERT
  5
A9C
  8
0
  2
BLOCK45
 10
609.29187000000002
 20
773.84174499999995
 30
0.0
 50
180.0
  0
INSERT
  5
A9D
  8
0
  2
BLOCK46
 10
609.29187000000002
 20
773.84174499999995
 30
0.0
 50
180.0
  0
INSERT
  5
A9E
  8
0
  2
BLOCK47
 10
609.29187000000002
 20
773.84174499999995
 30
0.0
 50
180.0
  0
INSERT
  5
A9F
  8
0
  2
BLOCK48
 10
609.29187000000002
 20
773.84174499999995
 30
0.0
 50
180.0
  0
INSERT
  5
AA0
  8
0
  2
BLOCK49
 10
609.29187000000002
 20
773.84174499999995
 30
0.0
 50
180.0
  0
INSERT
  5
AA1
  8
0
  2
BLOCK50
 10
609.29187000000002
 20
773.84174499999995
 30
0.0
 50
180.0
  0
INSERT
  5
AA2
  8
0
  2
BLOCK51
 10
609.29187000000002
 20
773.84174499999995
 30
0.0
 50
180.0
  0
INSERT
  5
AA3
  8
0
  2
BLOCK52
 10
609.29187000000002
 20
773.84174499999995
 30
0.0
 50
180.0
  0
INSERT
  5
AA4
  8
0
  2
BLOCK53
 10
609.29187000000002
 20
773.84174499999995
 30
0.0
 50
180.0
  0
INSERT
  5
AA5
  8
0
  2
BLOCK54
 10
609.29187000000002
 20
773.84174499999995
 30
0.0
 50
180.0
  0
INSERT
  5
AA6
  8
0
  2
BLOCK55
 10
609.29187000000002
 20
773.84174499999995
 30
0.0
 50
180.0
  0
INSERT
  5
AA7
  8
0
  2
BLOCK56
 10
609.29187000000002
 20
773.84174499999995
 30
0.0
 50
180.0
  0
INSERT
  5
AA8
  8
0
  2
BLOCK57
 10
609.29187000000002
 20
773.84174499999995
 30
0.0
 50
180.0
  0
INSERT
  5
AA9
  8
0
  2
BLOCK58
 10
609.29187000000002
 20
773.84174499999995
 30
0.0
 50
180.0
  0
INSERT
  5
AAA
  8
0
  2
BLOCK59
 10
164.40953099999999
 20
413.31060000000002
 30
0.0
 50
180.0
  0
INSERT
  5
AAB
  8
0
  2
BLOCK60
 10
164.40953099999999
 20
413.31060000000002
 30
0.0
 50
180.0
  0
INSERT
  5
AAC
  8
0
  2
BLOCK61
 10
164.40953099999999
 20
413.31060000000002
 30
0.0
 50
180.0
  0
INSERT
  5
AAD
  8
0
  2
BLOCK62
 10
164.40953099999999
 20
413.31060000000002
 30
0.0
 50
180.0
  0
INSERT
  5
AAE
  8
0
  2
BLOCK63
 10
164.40953099999999
 20
413.31060000000002
 30
0.0
 50
180.0
  0
INSERT
  5
AAF
  8
0
  2
BLOCK64
 10
164.40953099999999
 20
413.31060000000002
 30
0.0
 50
180.0
  0
INSERT
  5
AB0
  8
0
  2
BLOCK65
 10
164.40953099999999
 20
413.31060000000002
 30
0.0
 50
180.0
  0
INSERT
  5
AB1
  8
0
  2
BLOCK66
 10
164.40953099999999
 20
413.31060000000002
 30
0.0
 50
180.0
  0
INSERT
  5
AB2
  8
0
  2
BLOCK67
 10
164.40953099999999
 20
413.31060000000002
 30
0.0
 50
180.0
  0
INSERT
  5
AB3
  8
0
  2
BLOCK68
 10
164.40953099999999
 20
413.31060000000002
 30
0.0
 50
180.0
  0
INSERT
  5
AB4
  8
0
  2
BLOCK69
 10
164.40953099999999
 20
413.31060000000002
 30
0.0
 50
180.0
  0
INSERT
  5
AB5
  8
0
  2
BLOCK70
 10
999.79666099999997
 20
773.84174499999995
 30
0.0
 50
270.0
  0
INSERT
  5
AB6
  8
0
  2
BLOCK71
 10
999.79666099999997
 20
773.84174499999995
 30
0.0
 50
270.0
  0
INSERT
  5
AB7
  8
0
  2
BLOCK72
 10
999.79666099999997
 20
773.84174499999995
 30
0.0
 50
270.0
  0
INSERT
  5
AB8
  8
0
  2
BLOCK73
 10
999.79666099999997
 20
773.84174499999995
 30
0.0
 50
270.0
  0
INSERT
  5
AB9
  8
0
  2
BLOCK74
 10
999.79666099999997
 20
773.84174499999995
 30
0.0
 50
270.0
  0
INSERT
  5
ABA
  8
0
  2
BLOCK75
 10
999.79666099999997
 20
773.84174499999995
 30
0.0
 50
270.0
  0
INSERT
  5
ABB
  8
0
  2
BLOCK76
 10
999.79666099999997
 20
773.84174499999995
 30
0.0
 50
270.0
  0
INSERT
  5
ABC
  8
0
  2
BLOCK77
 10
999.79666099999997
 20
773.84174499999995
 30
0.0
 50
270.0
  0
INSERT
  5
ABD
  8
0
  2
BLOCK78
 10
999.79666099999997
 20
773.84174499999995
 30
0.0
 50
270.0
  0
INSERT
  5
ABE
  8
0
  2
BLOCK79
 10
999.79666099999997
 20
773.84174499999995
 30
0.0
 50
270.0
  0
INSERT
  5
ABF
  8
0
  2
BLOCK80
 10
999.79666099999997
 20
773.84174499999995
 30
0.0
 50
270.0
  0
INSERT
  5
AC0
  8
0
  2
BLOCK81
 10
999.79666099999997
 20
773.84174499999995
 30
0.0
 50
270.0
  0
INSERT
  5
AC1
  8
0
  2
BLOCK82
 10
999.79666099999997
 20
773.84174499999995
 30
0.0
 50
270.0
  0
INSERT
  5
AC2
  8
0
  2
BLOCK83
 10
999.79666099999997
 20
773.84174499999995
 30
0.0
 50
270.0
  0
INSERT
  5
AC3
  8
0
  2
BLOCK84
 10
999.79666099999997
 20
773.84174499999995
 30
0.0
 50
270.0
  0
INSERT
  5
AC4
  8
0
  2
BLOCK85
 10
999.79666099999997
 20
773.84174499999995
 30
0.0
 50
270.0
  0
INSERT
  5
AC5
  8
0
  2
BLOCK86
 10
999.79666099999997
 20
773.84174499999995
 30
0.0
 50
270.0
  0
INSERT
  5
AC6
  8
0
  2
BLOCK87
 10
999.79666099999997
 20
773.84174499999995
 30
0.0
 50
270.0
  0
INSERT
  5
AC7
  8
0
  2
BLOCK88
 10
999.79666099999997
 20
773.84174499999995
 30
0.0
 50
270.0
  0
INSERT
  5
AC8
  8
0
  2
BLOCK89
 10
999.79666099999997
 20
773.84174499999995
 30
0.0
 50
270.0
  0
INSERT
  5
AC9
  8
0
  2
BLOCK90
 10
866.48239100000001
 20
946.0362550000001
 30
0.0
 50
270.0
  0
INSERT
  5
ACA
  8
0
  2
BLOCK91
 10
866.48239100000001
 20
946.0362550000001
 30
0.0
 50
270.0
  0
INSERT
  5
ACB
  8
0
  2
BLOCK92
 10
866.48239100000001
 20
946.0362550000001
 30
0.0
 50
270.0
  0
INSERT
  5
ACC
  8
0
  2
BLOCK93
 10
866.48239100000001
 20
946.0362550000001
 30
0.0
 50
270.0
  0
INSERT
  5
ACD
  8
0
  2
BLOCK94
 10
866.48239100000001
 20
946.0362550000001
 30
0.0
 50
270.0
  0
VIEWPORT
  5
858
 67
     1
  8
0
 62
     0
 10
0.0
 20
0.0
 30
0.0
 40
1000.0
 41
1000.0
 68
     1
 69
     1
1001
ACAD
1000
MVIEW
1002
{
1070
    16
1010
0.0
1020
0.0
1030
0.0
1010
0.0
1020
0.0
1030
1.0
1040
0.0
1040
1000.0
1040
0.0
1040
0.0
1040
50.0
1040
0.0
1040
0.0
1070
     0
1070
   100
1070
     1
1070
     1
1070
     0
1070
     0
1070
     0
1070
     0
1040
0.0
1040
0.0
1040
0.0
1040
1.0
1040
1.0
1040
1.0
1040
1.0
1070
     0
1002
{
1002
}
1002
}
  0
ENDSEC
  0
EOF
