  0
SECTION
  2
HEADER
  9
$ACADVER
  1
AC1009
  9
$INSBASE
 10
0.0
 20
0.0
 30
0.0
  9
$EXTMIN
 10
-238.49635989545621
 20
353.61919419685017
 30
0.0
  9
$EXTMAX
 10
894.29733299999998
 20
793.31164395275607
 30
0.0
  9
$LIMMIN
 10
0.0
 20
0.0
  9
$LIMMAX
 10
420.0
 20
297.0
  9
$ORTHOMODE
 70
     0
  9
$REGENMODE
 70
     1
  9
$FILLMODE
 70
     1
  9
$QTEXTMODE
 70
     0
  9
$MIRRTEXT
 70
     1
  9
$DRAGMODE
 70
     2
  9
$LTSCALE
 40
1.0
  9
$OSMODE
 70
    47
  9
$ATTMODE
 70
     1
  9
$TEXTSIZE
 40
0.0
  9
$TRACEWID
 40
1.0
  9
$TEXTSTYLE
  7
STANDARD
  9
$CLAYER
  8
0
  9
$CELTYPE
  6
BYLAYER
  9
$CECOLOR
 62
   256
  9
$DIMSCALE
 40
1.0
  9
$DIMASZ
 40
2.5
  9
$DIMEXO
 40
0.625
  9
$DIMDLI
 40
3.75
  9
$DIMRND
 40
0.0
  9
$DIMDLE
 40
0.0
  9
$DIMEXE
 40
1.25
  9
$DIMTP
 40
0.0
  9
$DIMTM
 40
0.0
  9
$DIMTXT
 40
2.5
  9
$DIMCEN
 40
2.5
  9
$DIMTSZ
 40
0.0
  9
$DIMTOL
 70
     0
  9
$DIMLIM
 70
     0
  9
$DIMTIH
 70
     0
  9
$DIMTOH
 70
     0
  9
$DIMSE1
 70
     0
  9
$DIMSE2
 70
     0
  9
$DIMTAD
 70
     1
  9
$DIMZIN
 70
     8
  9
$DIMBLK
  1

  9
$DIMASO
 70
     1
  9
$DIMSHO
 70
     1
  9
$DIMPOST
  1

  9
$DIMAPOST
  1

  9
$DIMALT
 70
     0
  9
$DIMALTD
 70
     3
  9
$DIMALTF
 40
0.03937
  9
$DIMLFAC
 40
1.0
  9
$DIMTOFL
 70
     1
  9
$DIMTVP
 40
0.0
  9
$DIMTIX
 70
     0
  9
$DIMSOXD
 70
     0
  9
$DIMSAH
 70
     0
  9
$DIMBLK1
  1

  9
$DIMBLK2
  1

  9
$DIMSTYLE
  2
STANDARD
  9
$DIMCLRD
 70
     0
  9
$DIMCLRE
 70
     0
  9
$DIMCLRT
 70
     0
  9
$DIMTFAC
 40
1.0
  9
$DIMGAP
 40
0.625
  9
$LUNITS
 70
     2
  9
$LUPREC
 70
     4
  9
$SKETCHINC
 40
1.0
  9
$FILLETRAD
 40
2.5
  9
$AUNITS
 70
     0
  9
$AUPREC
 70
     0
  9
$MENU
  1
.
  9
$ELEVATION
 40
0.0
  9
$PELEVATION
 40
0.0
  9
$THICKNESS
 40
0.0
  9
$LIMCHECK
 70
     0
  9
$BLIPMODE
 70
     0
  9
$CHAMFERA
 40
2.5
  9
$CHAMFERB
 40
2.5
  9
$SKPOLY
 70
     0
  9
$TDCREATE
 40
2311942.6599061568
  9
$TDUPDATE
 40
2454455.402900428
  9
$TDINDWG
 40
0.0003837153
  9
$TDUSRTIMER
 40
0.0003837153
  9
$USRTIMER
 70
     1
  9
$ANGBASE
 50
0.0
  9
$ANGDIR
 70
     0
  9
$PDMODE
 70
     0
  9
$PDSIZE
 40
0.0
  9
$PLINEWID
 40
0.0
  9
$COORDS
 70
     1
  9
$SPLFRAME
 70
     0
  9
$SPLINETYPE
 70
     6
  9
$SPLINESEGS
 70
     8
  9
$ATTDIA
 70
     0
  9
$ATTREQ
 70
     1
  9
$HANDLING
 70
 22529
  9
$HANDSEED
  5
BFC
  9
$SURFTAB1
 70
     6
  9
$SURFTAB2
 70
     6
  9
$SURFTYPE
 70
     6
  9
$SURFU
 70
     6
  9
$SURFV
 70
     6
  9
$UCSNAME
  2

  9
$UCSORG
 10
0.0
 20
0.0
 30
0.0
  9
$UCSXDIR
 10
1.0
 20
0.0
 30
0.0
  9
$UCSYDIR
 10
0.0
 20
1.0
 30
0.0
  9
$PUCSNAME
  2

  9
$PUCSORG
 10
0.0
 20
0.0
 30
0.0
  9
$PUCSXDIR
 10
1.0
 20
0.0
 30
0.0
  9
$PUCSYDIR
 10
0.0
 20
1.0
 30
0.0
  9
$USERI1
 70
     0
  9
$USERI2
 70
     0
  9
$USERI3
 70
     0
  9
$USERI4
 70
     0
  9
$USERI5
 70
     0
  9
$USERR1
 40
0.0
  9
$USERR2
 40
0.0
  9
$USERR3
 40
0.0
  9
$USERR4
 40
0.0
  9
$USERR5
 40
0.0
  9
$WORLDVIEW
 70
     1
  9
$SHADEDGE
 70
     3
  9
$SHADEDIF
 70
    70
  9
$TILEMODE
 70
     1
  9
$MAXACTVP
 70
    48
  9
$PLIMCHECK
 70
     0
  9
$PEXTMIN
 10
0.0
 20
0.0
 30
0.0
  9
$PEXTMAX
 10
265.75521900000001
 20
182.5141909999999
 30
2.0
  9
$PLIMMIN
 10
0.0
 20
0.0
  9
$PLIMMAX
 10
420.0
 20
297.0
  9
$UNITMODE
 70
     0
  9
$VISRETAIN
 70
     0
  9
$PLINEGEN
 70
     0
  9
$PSLTSCALE
 70
     1
  0
ENDSEC
  0
SECTION
  2
TABLES
  0
TABLE
  2
VPORT
 70
     2
  0
VPORT
  2
*ACTIVE
 70
     0
 10
0.0
 20
0.0
 11
1.0
 21
1.0
 12
327.90048655227179
 22
573.46541907480321
 13
0.0
 23
0.0
 14
1.0
 24
1.0
 15
0.0
 25
0.0
 16
0.0
 26
0.0
 36
1.0
 17
0.0
 27
0.0
 37
0.0
 40
734.21206850553347
 41
1.550724637681159
 42
50.0
 43
0.0
 44
0.0
 50
0.0
 51
0.0
 71
     0
 72
   100
 73
     1
 74
     1
 75
     0
 76
     0
 77
     0
 78
     0
  0
ENDTAB
  0
TABLE
  2
LTYPE
 70
     8
  0
LTYPE
  2
CONTINUOUS
 70
     0
  3
Solid line
 72
    65
 73
     0
 40
0.0
  0
LTYPE
  2
DASHED
 70
     0
  3
__ __ __ __ __ __ __ __ __ __ __ __ __ __ __ __
 72
    65
 73
     2
 40
15.0
 49
12.0
 49
-3.0
  0
LTYPE
  2
DASHDOT
 70
     0
  3
 __ . __ . __ . __ . __ . __ . __ . 
 72
    65
 73
     4
 40
18.5
 49
12.0
 49
-3.0
 49
0.5
 49
-3.0
  0
LTYPE
  2
DOT
 70
     0
  3
 . . . . . . . . . . . . . . . .
 72
    65
 73
     2
 40
3.5
 49
0.5
 49
-3.0
  0
LTYPE
  2
DASHSPACE
 70
     0
  3
__    __    __    __    __   
 72
    65
 73
     2
 40
30.0
 49
12.0
 49
-18.0
  0
LTYPE
  2
DASHDOT2
 70
     0
  3
__ . . __ . . __ . . __ 
 72
    65
 73
     6
 40
22.0
 49
12.0
 49
-3.0
 49
0.5
 49
-3.0
 49
0.5
 49
-3.0
  0
LTYPE
  2
PHANTOM
 70
     0
  3
____________    ____    ____   _
 72
    65
 73
     6
 40
20.0
 49
10.0
 49
-2.0
 49
2.0
 49
-2.0
 49
2.0
 49
-2.0
  0
LTYPE
  2
AXES
 70
     0
  3
________  __  ________  __  _____
 72
    65
 73
     4
 40
24.0
 49
15.0
 49
-3.0
 49
3.0
 49
-3.0
  0
ENDTAB
  0
TABLE
  2
LAYER
 70
     1
  0
LAYER
  2
0
 70
     0
 62
     7
  6
CONTINUOUS
  0
ENDTAB
  0
TABLE
  2
STYLE
 70
     2
  0
STYLE
  2
STANDARD
 70
     0
 40
0.0
 41
1.0
 50
0.0
 71
     0
 42
0.0
  3
isocp.shx
  4

  0
STYLE
  2
GDT
 70
     0
 40
0.0
 41
1.0
 50
0.0
 71
     0
 42
0.0
  3
amgdt.shx
  4

  0
ENDTAB
  0
TABLE
  2
VIEW
 70
     0
  0
ENDTAB
  0
TABLE
  2
UCS
 70
     0
  0
ENDTAB
  0
TABLE
  2
APPID
 70
     1
  0
APPID
  2
ACAD
 70
     0
  0
ENDTAB
  0
TABLE
  2
DIMSTYLE
 70
     1
  0
DIMSTYLE
  2
STANDARD
 70
     0
  3

  4

  5

  6

  7

 40
1.0
 41
2.5
 42
0.625
 43
3.75
 44
1.25
 45
0.0
 46
0.0
 47
0.0
 48
0.0
140
2.5
141
2.5
142
0.0
143
0.03937
144
1.0
145
0.0
146
1.0
147
0.625
 71
     0
 72
     0
 73
     0
 74
     0
 75
     0
 76
     0
 77
     1
 78
     8
170
     0
171
     3
172
     1
173
     0
174
     0
175
     0
176
     0
177
     0
178
     0
  0
ENDTAB
  0
ENDSEC
  0
SECTION
  2
BLOCKS
  0
BLOCK
  8
0
  2
$MODEL_SPACE
 70
     0
 10
0.0
 20
0.0
 30
0.0
  3
$MODEL_SPACE
  1

  0
ENDBLK
  5
E
  8
0
  0
BLOCK
 67
     1
  8
0
  2
$PAPER_SPACE
 70
     0
 10
0.0
 20
0.0
 30
0.0
  3
$PAPER_SPACE
  1

  0
ENDBLK
  5
10
 67
     1
  8
0
  0
BLOCK
  8
0
  2
BLOCK0
 70
     0
 10
0.0
 20
0.0
 30
0.0
  3
BLOCK0
  1

  0
LINE
  5
50A
  8
0
 62
     3
 10
-68.999968999999993
 20
-58.5
 30
0.0
 11
89.500022999999985
 21
-58.5
 31
0.0
  0
LINE
  5
50B
  8
0
 62
     3
 10
-70.249968999999993
 20
57.25
 30
0.0
 11
-70.249968999999993
 21
-57.25
 31
0.0
  0
LINE
  5
50C
  8
0
 62
     3
 10
-68.999968999999993
 20
58.5
 30
0.0
 11
89.500022999999985
 21
58.5
 31
0.0
  0
LINE
  5
50D
  8
0
 62
     3
 10
90.750022999999985
 20
57.25
 30
0.0
 11
90.750022999999985
 21
-57.25
 31
0.0
  0
LINE
  5
50E
  8
0
 62
     3
 10
-42.74997299999999
 20
-53.0
 30
0.0
 11
63.250022999999999
 21
-53.0
 31
0.0
  0
LINE
  5
50F
  8
0
 62
     3
 10
-42.74997299999999
 20
53.0
 30
0.0
 11
-42.74997299999999
 21
-53.0
 31
0.0
  0
LINE
  5
510
  8
0
 62
     3
 10
-42.74997299999999
 20
53.0
 30
0.0
 11
63.250022999999999
 21
53.0
 31
0.0
  0
LINE
  5
511
  8
0
 62
     3
 10
63.250022999999999
 20
53.0
 30
0.0
 11
63.250022999999999
 21
-53.0
 31
0.0
  0
LINE
  5
512
  8
0
 62
     3
 10
-51.249972999999997
 20
-54.0
 30
0.0
 11
-50.24997299999999
 21
-54.0
 31
0.0
  0
LINE
  5
513
  8
0
 62
     3
 10
-49.249972999999997
 20
53.0
 30
0.0
 11
-49.249972999999997
 21
-53.0
 31
0.0
  0
LINE
  5
514
  8
0
 62
     3
 10
-51.249972999999997
 20
54.0
 30
0.0
 11
-50.24997299999999
 21
54.0
 31
0.0
  0
LINE
  5
515
  8
0
 62
     3
 10
-50.24997299999999
 20
53.0
 30
0.0
 11
-50.24997299999999
 21
-53.0
 31
0.0
  0
LINE
  5
516
  8
0
 62
     3
 10
-70.249968999999993
 20
54.0
 30
0.0
 11
-51.249972999999997
 21
54.0
 31
0.0
  0
LINE
  5
517
  8
0
 62
     3
 10
-50.249977000000001
 20
54.0
 30
0.0
 11
90.750022999999985
 21
54.0
 31
0.0
  0
LINE
  5
518
  8
0
 62
     3
 10
-70.249968999999993
 20
53.0
 30
0.0
 11
-50.24997299999999
 21
53.0
 31
0.0
  0
LINE
  5
519
  8
0
 62
     3
 10
63.250022999999999
 20
53.0
 30
0.0
 11
69.750022999999985
 21
53.0
 31
0.0
  0
LINE
  5
51A
  8
0
 62
     3
 10
-49.249972999999997
 20
53.0
 30
0.0
 11
-42.74997299999999
 21
53.0
 31
0.0
  0
LINE
  5
51B
  8
0
 62
     3
 10
-70.249968999999993
 20
-54.0
 30
0.0
 11
-51.249972999999997
 21
-54.0
 31
0.0
  0
LINE
  5
51C
  8
0
 62
     3
 10
-50.24997299999999
 20
-54.0
 30
0.0
 11
90.750022999999985
 21
-54.0
 31
0.0
  0
LINE
  5
51D
  8
0
 62
     3
 10
-49.249972999999997
 20
-53.0
 30
0.0
 11
-42.74997299999999
 21
-53.0
 31
0.0
  0
LINE
  5
51E
  8
0
 62
     3
 10
63.250022999999999
 20
-53.0
 30
0.0
 11
69.750022999999985
 21
-53.0
 31
0.0
  0
LINE
  5
51F
  8
0
 62
     3
 10
-70.249968999999993
 20
-53.0
 30
0.0
 11
-50.24997299999999
 21
-53.0
 31
0.0
  0
LINE
  5
520
  8
0
 62
     3
 10
70.750022999999999
 20
54.0
 30
0.0
 11
70.750022999999999
 21
-54.0
 31
0.0
  0
LINE
  5
521
  8
0
 62
     3
 10
69.750022999999985
 20
53.0
 30
0.0
 11
69.750022999999985
 21
-53.0
 31
0.0
  0
ARC
  5
522
  8
0
 62
     3
 10
-68.999968999999993
 20
57.25
 30
0.0
 40
1.25
 50
90.000005000000002
 51
180.00000099999991
  0
ARC
  5
523
  8
0
 62
     3
 10
-68.999968999999993
 20
-57.25
 30
0.0
 40
1.25
 50
180.00000099999991
 51
270.0
  0
ARC
  5
524
  8
0
 62
     3
 10
89.500022999999985
 20
-57.25
 30
0.0
 40
1.25
 50
270.0
 51
0.000003
  0
ARC
  5
525
  8
0
 62
     3
 10
89.500022999999985
 20
57.25
 30
0.0
 40
1.25
 50
0.000003
 51
90.000005000000002
  0
LINE
  5
526
  8
0
  6
DASHSPACE
 62
     3
 10
80.000022999999999
 20
54.5
 30
0.0
 11
80.000022999999999
 21
54.0
 31
0.0
  0
LINE
  5
527
  8
0
  6
DASHSPACE
 62
     3
 10
81.500022999999999
 20
54.5
 30
0.0
 11
81.500022999999999
 21
54.0
 31
0.0
  0
LINE
  5
528
  8
0
 62
     3
 10
80.000022999999999
 20
-53.5
 30
0.0
 11
80.000022999999999
 21
-54.0
 31
0.0
  0
LINE
  5
529
  8
0
 62
     3
 10
81.500022999999999
 20
-53.5
 30
0.0
 11
81.500022999999999
 21
-54.0
 31
0.0
  0
ARC
  5
52A
  8
0
  6
DASHSPACE
 62
     3
 10
80.750022999999985
 20
54.5
 30
0.0
 40
0.75
 50
0.000003
 51
180.00000099999991
  0
ARC
  5
52B
  8
0
 62
     3
 10
80.750022999999985
 20
53.5
 30
0.0
 40
0.75
 50
180.00000099999991
 51
0.000003
  0
LINE
  5
52C
  8
0
 62
     3
 10
81.500022999999999
 20
54.0
 30
0.0
 11
81.500022999999999
 21
53.5
 31
0.0
  0
LINE
  5
52D
  8
0
 62
     3
 10
80.000022999999999
 20
54.0
 30
0.0
 11
80.000022999999999
 21
53.5
 31
0.0
  0
ARC
  5
52E
  8
0
 62
     3
 10
80.750022999999985
 20
-53.5
 30
0.0
 40
0.75
 50
0.000003
 51
180.00000099999991
  0
ARC
  5
52F
  8
0
  6
DASHSPACE
 62
     3
 10
80.750022999999985
 20
-54.5
 30
0.0
 40
0.75
 50
180.00000099999991
 51
0.000003
  0
LINE
  5
530
  8
0
  6
DASHSPACE
 62
     3
 10
81.500022999999999
 20
-54.0
 30
0.0
 11
81.500022999999999
 21
-54.5
 31
0.0
  0
LINE
  5
531
  8
0
  6
DASHSPACE
 62
     3
 10
80.000022999999999
 20
-54.0
 30
0.0
 11
80.000022999999999
 21
-54.5
 31
0.0
  0
ENDBLK
  5
532
  8
0
  0
BLOCK
  8
0
  2
BLOCK1
 70
     0
 10
0.0
 20
0.0
 30
0.0
  3
BLOCK1
  1

  0
TEXT
  5
534
  8
0
 62
     7
 10
136.0
 20
1.1999999999999991
 30
0.0
 40
3.0
  1
Y
 50
270.0
 41
0.9777777777777778
 72
     5
 11
136.0
 21
-1.0
 31
0.0
  0
ENDBLK
  5
535
  8
0
  0
BLOCK
  8
0
  2
BLOCK2
 70
     0
 10
0.0
 20
0.0
 30
0.0
  3
BLOCK2
  1

  0
TEXT
  5
537
  8
0
 62
     7
 10
-137.0
 20
1.1999999999999991
 30
0.0
 40
3.0
  1
Y
 50
270.0
 41
0.9777777777777778
 72
     5
 11
-137.0
 21
-1.0
 31
0.0
  0
ENDBLK
  5
538
  8
0
  0
BLOCK
  8
0
  2
BLOCK3
 70
     0
 10
0.0
 20
0.0
 30
0.0
  3
BLOCK3
  1

  0
TEXT
  5
53A
  8
0
 62
     7
 10
12.0
 20
136.0
 30
0.0
 40
3.0
  1
X
 50
270.00002604357161
 41
0.9777764444445436
 72
     5
 11
12.000000999999999
 21
133.800003
 31
0.0
  0
ENDBLK
  5
53B
  8
0
  0
BLOCK
  8
0
  2
BLOCK4
 70
     0
 10
0.0
 20
0.0
 30
0.0
  3
BLOCK4
  1

  0
TEXT
  5
53D
  8
0
 62
     7
 10
16.0
 20
-124.0
 30
0.0
 40
3.0
  1
X
 50
270.0
 41
0.9777764444444425
 72
     5
 11
16.0
 21
-126.1999969999999
 31
0.0
  0
ENDBLK
  5
53E
  8
0
  0
BLOCK
  8
0
  2
BLOCK5
 70
     0
 10
0.0
 20
0.0
 30
0.0
  3
BLOCK5
  1

  0
TEXT
  5
540
  8
0
 62
     7
 10
2.0000309999999999
 20
-81.961731000000015
 30
0.0
 40
3.0
  1
161
 41
1.655909462365591
 72
     5
 11
9.7000100000000007
 21
-81.961731000000015
 31
0.0
  0
ENDBLK
  5
541
  8
0
  0
BLOCK
  8
0
  2
BLOCK6
 70
     0
 10
0.0
 20
0.0
 30
0.0
  3
BLOCK6
  1

  0
TEXT
  5
543
  8
0
 62
     7
 10
163.71154799999999
 20
4.4500000000000002
 30
0.0
 40
3.0
  1
117
 50
270.0
 41
1.6774193548387091
 72
     5
 11
163.71154799999999
 21
-3.3500000000000001
 31
0.0
  0
LINE
  5
544
  8
0
 62
     7
 10
90.500022999999999
 20
-58.5
 30
0.0
 11
164.71154799999999
 21
-58.5
 31
0.0
  0
LINE
  5
545
  8
0
 62
     7
 10
90.500022999999999
 20
58.5
 30
0.0
 11
164.71154799999999
 21
58.5
 31
0.0
  0
POLYLINE
  5
546
  8
0
 62
     7
 66
     1
 10
0.0
 20
0.0
 30
0.0
  0
VERTEX
  5
A78
  8
0
 62
     7
 10
162.19390899999999
 20
-56.568150000000003
 30
0.0
  0
VERTEX
  5
A79
  8
0
 62
     7
 10
162.71154799999999
 20
-58.5
 30
0.0
  0
VERTEX
  5
A7A
  8
0
 62
     7
 10
163.229187
 20
-56.568150000000003
 30
0.0
  0
SEQEND
  5
A7B
  8
0
 62
     7
  0
POLYLINE
  5
54B
  8
0
 62
     7
 66
     1
 10
0.0
 20
0.0
 30
0.0
  0
VERTEX
  5
A7C
  8
0
 62
     7
 10
163.229187
 20
56.568150000000003
 30
0.0
  0
VERTEX
  5
A7D
  8
0
 62
     7
 10
162.71154799999999
 20
58.5
 30
0.0
  0
VERTEX
  5
A7E
  8
0
 62
     7
 10
162.19390899999999
 20
56.568150000000003
 30
0.0
  0
SEQEND
  5
A7F
  8
0
 62
     7
  0
LINE
  5
550
  8
0
 62
     7
 10
162.71154799999999
 20
-58.5
 30
0.0
 11
162.71154799999999
 21
58.5
 31
0.0
  0
ENDBLK
  5
551
  8
0
  0
BLOCK
  8
0
  2
BLOCK7
 70
     0
 10
0.0
 20
0.0
 30
0.0
  3
BLOCK7
  1

  0
TEXT
  5
553
  8
0
 62
     7
 10
149.19622799999991
 20
4.4500070000000003
 30
0.0
 40
3.0
  1
105
 50
270.0
 41
1.4513615074127639
 72
     5
 11
149.19622799999991
 21
-3.3499929999999991
 31
0.0
  0
LINE
  5
554
  8
0
 62
     7
 10
63.250027000000003
 20
-52.499985000000002
 30
0.0
 11
150.19622799999991
 21
-52.499985000000002
 31
0.0
  0
LINE
  5
555
  8
0
 62
     7
 10
63.250027000000003
 20
52.5
 30
0.0
 11
150.19622799999991
 21
52.5
 31
0.0
  0
POLYLINE
  5
556
  8
0
 62
     7
 66
     1
 10
0.0
 20
0.0
 30
0.0
  0
VERTEX
  5
A80
  8
0
 62
     7
 10
147.6785889999999
 20
-50.568134000000001
 30
0.0
  0
VERTEX
  5
A81
  8
0
 62
     7
 10
148.19622799999991
 20
-52.499985000000002
 30
0.0
  0
VERTEX
  5
A82
  8
0
 62
     7
 10
148.71386699999999
 20
-50.568134000000001
 30
0.0
  0
SEQEND
  5
A83
  8
0
 62
     7
  0
POLYLINE
  5
55B
  8
0
 62
     7
 66
     1
 10
0.0
 20
0.0
 30
0.0
  0
VERTEX
  5
A84
  8
0
 62
     7
 10
148.71386699999999
 20
50.568150000000003
 30
0.0
  0
VERTEX
  5
A85
  8
0
 62
     7
 10
148.19622799999991
 20
52.5
 30
0.0
  0
VERTEX
  5
A86
  8
0
 62
     7
 10
147.6785889999999
 20
50.568150000000003
 30
0.0
  0
SEQEND
  5
A87
  8
0
 62
     7
  0
LINE
  5
560
  8
0
 62
     7
 10
148.19622799999991
 20
-52.499985000000002
 30
0.0
 11
148.19622799999991
 21
52.5
 31
0.0
  0
ENDBLK
  5
561
  8
0
  0
BLOCK
  8
0
  2
BLOCK8
 70
     0
 10
0.0
 20
0.0
 30
0.0
  3
BLOCK8
  1

  0
TEXT
  5
563
  8
0
 62
     7
 10
104.58335099999999
 20
107.48447400000001
 30
0.0
 40
3.5
  1
20
 41
1.3324927487746741
 72
     5
 11
110.416679
 21
107.48447400000001
 31
0.0
  0
LINE
  5
564
  8
0
 62
     7
 10
97.500015000000005
 20
-18.250033999999989
 30
0.0
 11
97.500015000000005
 21
107.48447400000001
 31
0.0
  0
LINE
  5
565
  8
0
 62
     7
 10
117.5000229999999
 20
-16.499974999999999
 30
0.0
 11
117.5000229999999
 21
107.48447400000001
 31
0.0
  0
POLYLINE
  5
566
  8
0
 62
     7
 66
     1
 10
0.0
 20
0.0
 30
0.0
  0
VERTEX
  5
A88
  8
0
 62
     7
 10
99.431869999999989
 20
106.00211299999989
 30
0.0
  0
VERTEX
  5
A89
  8
0
 62
     7
 10
97.500015000000005
 20
105.48447400000001
 30
0.0
  0
VERTEX
  5
A8A
  8
0
 62
     7
 10
99.431869999999989
 20
104.966835
 30
0.0
  0
SEQEND
  5
A8B
  8
0
 62
     7
  0
POLYLINE
  5
56B
  8
0
 62
     7
 66
     1
 10
0.0
 20
0.0
 30
0.0
  0
VERTEX
  5
A8C
  8
0
 62
     7
 10
115.5681689999999
 20
104.966835
 30
0.0
  0
VERTEX
  5
A8D
  8
0
 62
     7
 10
117.5000229999999
 20
105.48447400000001
 30
0.0
  0
VERTEX
  5
A8E
  8
0
 62
     7
 10
115.5681689999999
 20
106.00211299999989
 30
0.0
  0
SEQEND
  5
A8F
  8
0
 62
     7
  0
LINE
  5
570
  8
0
 62
     7
 10
97.500015000000005
 20
105.48447400000001
 30
0.0
 11
117.5000229999999
 21
105.48447400000001
 31
0.0
  0
ENDBLK
  5
571
  8
0
  0
BLOCK
  8
0
  2
BLOCK9
 70
     0
 10
0.0
 20
0.0
 30
0.0
  3
BLOCK9
  1

  0
TEXT
  5
573
  8
0
 62
     7
 10
-110.445374
 20
2.9166970000000001
 30
0.0
 40
3.5
  1
35
 50
270.0
 41
1.2905676086111639
 72
     5
 11
-110.445374
 21
-2.916636
 31
0.0
  0
LINE
  5
574
  8
0
 62
     7
 10
-96.544281000000026
 20
-17.499973000000001
 30
0.0
 11
-114.445374
 21
-17.499973000000001
 31
0.0
  0
LINE
  5
575
  8
0
 62
     7
 10
-94.499968999999993
 20
17.500033999999989
 30
0.0
 11
-114.445374
 21
17.500033999999989
 31
0.0
  0
POLYLINE
  5
576
  8
0
 62
     7
 66
     1
 10
0.0
 20
0.0
 30
0.0
  0
VERTEX
  5
A90
  8
0
 62
     7
 10
-112.963005
 20
-15.568122000000001
 30
0.0
  0
VERTEX
  5
A91
  8
0
 62
     7
 10
-112.445374
 20
-17.499973000000001
 30
0.0
  0
VERTEX
  5
A92
  8
0
 62
     7
 10
-111.927734
 20
-15.568122000000001
 30
0.0
  0
SEQEND
  5
A93
  8
0
 62
     7
  0
POLYLINE
  5
57B
  8
0
 62
     7
 66
     1
 10
0.0
 20
0.0
 30
0.0
  0
VERTEX
  5
A94
  8
0
 62
     7
 10
-111.927734
 20
15.568182999999991
 30
0.0
  0
VERTEX
  5
A95
  8
0
 62
     7
 10
-112.445374
 20
17.500033999999989
 30
0.0
  0
VERTEX
  5
A96
  8
0
 62
     7
 10
-112.963005
 20
15.568182999999991
 30
0.0
  0
SEQEND
  5
A97
  8
0
 62
     7
  0
LINE
  5
580
  8
0
 62
     7
 10
-112.445374
 20
-17.499973000000001
 30
0.0
 11
-112.445374
 21
17.500033999999989
 31
0.0
  0
ENDBLK
  5
581
  8
0
  0
BLOCK
  8
0
  2
BLOCK10
 70
     0
 10
0.0
 20
0.0
 30
0.0
  3
BLOCK10
  1

  0
TEXT
  5
583
  8
0
 62
     7
 10
46.625022999999992
 20
106.48447400000001
 30
0.0
 40
3.0
  1
87,25
 41
1.4686117038140121
 72
     5
 11
60.025024000000002
 21
106.48447400000001
 31
0.0
  0
LINE
  5
584
  8
0
 62
     7
 10
10.250025000000001
 20
90.469673
 30
0.0
 11
10.250025000000001
 21
107.48447400000001
 31
0.0
  0
LINE
  5
585
  8
0
 62
     7
 10
97.500015000000005
 20
51.750046000000012
 30
0.0
 11
97.500015000000005
 21
107.48447400000001
 31
0.0
  0
POLYLINE
  5
586
  8
0
 62
     7
 66
     1
 10
0.0
 20
0.0
 30
0.0
  0
VERTEX
  5
A98
  8
0
 62
     7
 10
12.181876000000001
 20
106.00211299999989
 30
0.0
  0
VERTEX
  5
A99
  8
0
 62
     7
 10
10.250025000000001
 20
105.48447400000001
 30
0.0
  0
VERTEX
  5
A9A
  8
0
 62
     7
 10
12.181876000000001
 20
104.966835
 30
0.0
  0
SEQEND
  5
A9B
  8
0
 62
     7
  0
POLYLINE
  5
58B
  8
0
 62
     7
 66
     1
 10
0.0
 20
0.0
 30
0.0
  0
VERTEX
  5
A9C
  8
0
 62
     7
 10
95.568168999999983
 20
104.966835
 30
0.0
  0
VERTEX
  5
A9D
  8
0
 62
     7
 10
97.500015000000005
 20
105.48447400000001
 30
0.0
  0
VERTEX
  5
A9E
  8
0
 62
     7
 10
95.568168999999983
 20
106.00211299999989
 30
0.0
  0
SEQEND
  5
A9F
  8
0
 62
     7
  0
LINE
  5
590
  8
0
 62
     7
 10
10.250025000000001
 20
105.48447400000001
 30
0.0
 11
97.500015000000005
 21
105.48447400000001
 31
0.0
  0
ENDBLK
  5
591
  8
0
  0
BLOCK
  8
0
  2
BLOCK11
 70
     0
 10
0.0
 20
0.0
 30
0.0
  3
BLOCK11
  1

  0
TEXT
  5
593
  8
0
 62
     7
 10
131.24566699999991
 20
-14.44998
 30
0.0
 40
3.0
  1
35
 50
270.0
 41
1.2905676823578891
 72
     5
 11
131.24566699999991
 21
-19.44998
 31
0.0
  0
LINE
  5
594
  8
0
 62
     7
 10
97.448752999999996
 20
-35.000042000000001
 30
0.0
 11
131.24566699999991
 21
-35.000042000000001
 31
0.0
  0
LINE
  5
595
  8
0
 62
     7
 10
41.95243099999999
 20
0.0
 30
0.0
 11
131.24566699999991
 21
0.0
 31
0.0
  0
POLYLINE
  5
596
  8
0
 62
     7
 66
     1
 10
0.0
 20
0.0
 30
0.0
  0
VERTEX
  5
AA0
  8
0
 62
     7
 10
128.72802699999991
 20
-33.068191999999989
 30
0.0
  0
VERTEX
  5
AA1
  8
0
 62
     7
 10
129.24566699999991
 20
-35.000042000000001
 30
0.0
  0
VERTEX
  5
AA2
  8
0
 62
     7
 10
129.763306
 20
-33.068191999999989
 30
0.0
  0
SEQEND
  5
AA3
  8
0
 62
     7
  0
POLYLINE
  5
59B
  8
0
 62
     7
 66
     1
 10
0.0
 20
0.0
 30
0.0
  0
VERTEX
  5
AA4
  8
0
 62
     7
 10
129.763306
 20
-1.9318519999999999
 30
0.0
  0
VERTEX
  5
AA5
  8
0
 62
     7
 10
129.24566699999991
 20
0.0
 30
0.0
  0
VERTEX
  5
AA6
  8
0
 62
     7
 10
128.72802699999991
 20
-1.9318519999999999
 30
0.0
  0
SEQEND
  5
AA7
  8
0
 62
     7
  0
LINE
  5
5A0
  8
0
 62
     7
 10
129.24566699999991
 20
-35.000042000000001
 30
0.0
 11
129.24566699999991
 21
0.0
 31
0.0
  0
ENDBLK
  5
5A1
  8
0
  0
BLOCK
  8
0
  2
BLOCK12
 70
     0
 10
0.0
 20
0.0
 30
0.0
  3
BLOCK12
  1

  0
TEXT
  5
5A3
  8
0
 62
     7
 10
131.24566699999991
 20
20.550404
 30
0.0
 40
3.0
  1
35
 50
270.0
 41
1.2905676823578891
 72
     5
 11
131.24566699999991
 21
15.550404
 31
0.0
  0
LINE
  5
5A4
  8
0
 62
     7
 10
41.95243099999999
 20
0.0
 30
0.0
 11
131.24566699999991
 21
0.0
 31
0.0
  0
LINE
  5
5A5
  8
0
 62
     7
 10
95.666152999999994
 20
35.000011000000001
 30
0.0
 11
131.24566699999991
 21
35.000011000000001
 31
0.0
  0
POLYLINE
  5
5A6
  8
0
 62
     7
 66
     1
 10
0.0
 20
0.0
 30
0.0
  0
VERTEX
  5
AA8
  8
0
 62
     7
 10
128.72802699999991
 20
1.9318519999999999
 30
0.0
  0
VERTEX
  5
AA9
  8
0
 62
     7
 10
129.24566699999991
 20
0.0
 30
0.0
  0
VERTEX
  5
AAA
  8
0
 62
     7
 10
129.763306
 20
1.9318519999999999
 30
0.0
  0
SEQEND
  5
AAB
  8
0
 62
     7
  0
POLYLINE
  5
5AB
  8
0
 62
     7
 66
     1
 10
0.0
 20
0.0
 30
0.0
  0
VERTEX
  5
AAC
  8
0
 62
     7
 10
129.763306
 20
33.068160999999989
 30
0.0
  0
VERTEX
  5
AAD
  8
0
 62
     7
 10
129.24566699999991
 20
35.000011000000001
 30
0.0
  0
VERTEX
  5
AAE
  8
0
 62
     7
 10
128.72802699999991
 20
33.068160999999989
 30
0.0
  0
SEQEND
  5
AAF
  8
0
 62
     7
  0
LINE
  5
5B0
  8
0
 62
     7
 10
129.24566699999991
 20
0.0
 30
0.0
 11
129.24566699999991
 21
35.000011000000001
 31
0.0
  0
ENDBLK
  5
5B1
  8
0
  0
BLOCK
  8
0
  2
BLOCK13
 70
     0
 10
0.0
 20
0.0
 30
0.0
  3
BLOCK13
  1

  0
TEXT
  5
5B3
  8
0
 62
     7
 10
-85.416640999999998
 20
111.2842179999999
 30
0.0
 40
3.5
  1
20
 41
1.3324927487746741
 72
     5
 11
-79.583313000000004
 21
111.2842179999999
 31
0.0
  0
LINE
  5
5B4
  8
0
 62
     7
 10
-92.499968999999993
 20
53.500042000000001
 30
0.0
 11
-92.499968999999993
 21
111.2842179999999
 31
0.0
  0
LINE
  5
5B5
  8
0
 62
     7
 10
-72.499984999999995
 20
85.000031000000007
 30
0.0
 11
-72.499984999999995
 21
111.2842179999999
 31
0.0
  0
POLYLINE
  5
5B6
  8
0
 62
     7
 66
     1
 10
0.0
 20
0.0
 30
0.0
  0
VERTEX
  5
AB0
  8
0
 62
     7
 10
-74.431831000000003
 20
108.76657899999999
 30
0.0
  0
VERTEX
  5
AB1
  8
0
 62
     7
 10
-72.499984999999995
 20
109.2842179999999
 30
0.0
  0
VERTEX
  5
AB2
  8
0
 62
     7
 10
-74.431831000000003
 20
109.801857
 30
0.0
  0
SEQEND
  5
AB3
  8
0
 62
     7
  0
POLYLINE
  5
5BB
  8
0
 62
     7
 66
     1
 10
0.0
 20
0.0
 30
0.0
  0
VERTEX
  5
AB4
  8
0
 62
     7
 10
-90.568115000000006
 20
109.801857
 30
0.0
  0
VERTEX
  5
AB5
  8
0
 62
     7
 10
-92.499968999999993
 20
109.2842179999999
 30
0.0
  0
VERTEX
  5
AB6
  8
0
 62
     7
 10
-90.568115000000006
 20
108.76657899999999
 30
0.0
  0
SEQEND
  5
AB7
  8
0
 62
     7
  0
LINE
  5
5C0
  8
0
 62
     7
 10
-92.499968999999993
 20
109.2842179999999
 30
0.0
 11
-72.499984999999995
 21
109.2842179999999
 31
0.0
  0
ENDBLK
  5
5C1
  8
0
  0
BLOCK
  8
0
  2
BLOCK14
 70
     0
 10
0.0
 20
0.0
 30
0.0
  3
BLOCK14
  1

  0
TEXT
  5
5C3
  8
0
 62
     7
 10
5.7507070000000002
 20
118.94508399999999
 30
0.0
 40
3.5
  1
170
 41
1.485046098493366
 72
     5
 11
14.850707
 21
118.94508399999999
 31
0.0
  0
LINE
  5
5C4
  8
0
 62
     7
 10
-72.499984999999995
 20
85.000031000000007
 30
0.0
 11
-72.499984999999995
 21
118.94508399999999
 31
0.0
  0
LINE
  5
5C5
  8
0
 62
     7
 10
97.500015000000005
 20
85.000031000000007
 30
0.0
 11
97.500015000000005
 21
118.94508399999999
 31
0.0
  0
POLYLINE
  5
5C6
  8
0
 62
     7
 66
     1
 10
0.0
 20
0.0
 30
0.0
  0
VERTEX
  5
AB8
  8
0
 62
     7
 10
95.568168999999983
 20
116.42744399999999
 30
0.0
  0
VERTEX
  5
AB9
  8
0
 62
     7
 10
97.500015000000005
 20
116.94508399999999
 30
0.0
  0
VERTEX
  5
ABA
  8
0
 62
     7
 10
95.568168999999983
 20
117.462723
 30
0.0
  0
SEQEND
  5
ABB
  8
0
 62
     7
  0
POLYLINE
  5
5CB
  8
0
 62
     7
 66
     1
 10
0.0
 20
0.0
 30
0.0
  0
VERTEX
  5
ABC
  8
0
 62
     7
 10
-70.568130000000011
 20
117.462723
 30
0.0
  0
VERTEX
  5
ABD
  8
0
 62
     7
 10
-72.499984999999995
 20
116.94508399999999
 30
0.0
  0
VERTEX
  5
ABE
  8
0
 62
     7
 10
-70.568130000000011
 20
116.42744399999999
 30
0.0
  0
SEQEND
  5
ABF
  8
0
 62
     7
  0
LINE
  5
5D0
  8
0
 62
     7
 10
-72.499984999999995
 20
116.94508399999999
 30
0.0
 11
97.500015000000005
 21
116.94508399999999
 31
0.0
  0
ENDBLK
  5
5D1
  8
0
  0
BLOCK
  8
0
  2
BLOCK15
 70
     0
 10
0.0
 20
0.0
 30
0.0
  3
BLOCK15
  1

  0
TEXT
  5
5D3
  8
0
 62
     7
 10
178.82365399999989
 20
22.050034
 30
0.0
 40
3.5
  1
140
 50
270.0
 41
1.4048074877685599
 72
     5
 11
178.82365399999989
 21
12.950034
 31
0.0
  0
LINE
  5
5D4
  8
0
 62
     7
 10
95.700012000000001
 20
-52.499968999999993
 30
0.0
 11
178.82365399999989
 21
-52.499968999999993
 31
0.0
  0
LINE
  5
5D5
  8
0
 62
     7
 10
95.700012000000001
 20
87.500037999999989
 30
0.0
 11
178.82365399999989
 21
87.500037999999989
 31
0.0
  0
POLYLINE
  5
5D6
  8
0
 62
     7
 66
     1
 10
0.0
 20
0.0
 30
0.0
  0
VERTEX
  5
AC0
  8
0
 62
     7
 10
176.306015
 20
-50.568119000000003
 30
0.0
  0
VERTEX
  5
AC1
  8
0
 62
     7
 10
176.823654
 20
-52.499968999999993
 30
0.0
  0
VERTEX
  5
AC2
  8
0
 62
     7
 10
177.34129300000001
 20
-50.568119000000003
 30
0.0
  0
SEQEND
  5
AC3
  8
0
 62
     7
  0
POLYLINE
  5
5DB
  8
0
 62
     7
 66
     1
 10
0.0
 20
0.0
 30
0.0
  0
VERTEX
  5
AC4
  8
0
 62
     7
 10
177.34129300000001
 20
85.56819200000001
 30
0.0
  0
VERTEX
  5
AC5
  8
0
 62
     7
 10
176.823654
 20
87.500037999999989
 30
0.0
  0
VERTEX
  5
AC6
  8
0
 62
     7
 10
176.306015
 20
85.56819200000001
 30
0.0
  0
SEQEND
  5
AC7
  8
0
 62
     7
  0
LINE
  5
5E0
  8
0
 62
     7
 10
176.823654
 20
-52.499968999999993
 30
0.0
 11
176.823654
 21
87.500037999999989
 31
0.0
  0
ENDBLK
  5
5E1
  8
0
  0
BLOCK
  8
0
  2
BLOCK16
 70
     0
 10
0.0
 20
0.0
 30
0.0
  3
BLOCK16
  1

  0
TEXT
  5
5E3
  8
0
 62
     7
 10
-110.445374
 20
37.916705999999991
 30
0.0
 40
3.5
  1
35
 50
270.0
 41
1.2905682723316849
 72
     5
 11
-110.445374
 21
32.083370000000002
 31
0.0
  0
LINE
  5
5E4
  8
0
 62
     7
 10
-94.499968999999993
 20
17.500033999999989
 30
0.0
 11
-114.445374
 21
17.500033999999989
 31
0.0
  0
LINE
  5
5E5
  8
0
 62
     7
 10
-96.695549000000014
 20
52.500045999999998
 30
0.0
 11
-114.445374
 21
52.500045999999998
 31
0.0
  0
POLYLINE
  5
5E6
  8
0
 62
     7
 66
     1
 10
0.0
 20
0.0
 30
0.0
  0
VERTEX
  5
AC8
  8
0
 62
     7
 10
-112.963005
 20
19.431887
 30
0.0
  0
VERTEX
  5
AC9
  8
0
 62
     7
 10
-112.445374
 20
17.500033999999989
 30
0.0
  0
VERTEX
  5
ACA
  8
0
 62
     7
 10
-111.927734
 20
19.431887
 30
0.0
  0
SEQEND
  5
ACB
  8
0
 62
     7
  0
POLYLINE
  5
5EB
  8
0
 62
     7
 66
     1
 10
0.0
 20
0.0
 30
0.0
  0
VERTEX
  5
ACC
  8
0
 62
     7
 10
-111.927734
 20
50.568191999999989
 30
0.0
  0
VERTEX
  5
ACD
  8
0
 62
     7
 10
-112.445374
 20
52.500045999999998
 30
0.0
  0
VERTEX
  5
ACE
  8
0
 62
     7
 10
-112.963005
 20
50.568191999999989
 30
0.0
  0
SEQEND
  5
ACF
  8
0
 62
     7
  0
LINE
  5
5F0
  8
0
 62
     7
 10
-112.445374
 20
17.500033999999989
 30
0.0
 11
-112.445374
 21
52.500045999999998
 31
0.0
  0
ENDBLK
  5
5F1
  8
0
  0
BLOCK
  8
0
  2
BLOCK17
 70
     0
 10
0.0
 20
0.0
 30
0.0
  3
BLOCK17
  1

  0
TEXT
  5
5F3
  8
0
 62
     1
 10
-539.0
 20
-45.0
 30
0.0
 40
3.0
  1
Ts3
 50
180.0
 41
1.225762527177944
 72
     5
 11
-546.69995099999994
 21
-45.0
 31
0.0
  0
ENDBLK
  5
5F4
  8
0
  0
BLOCK
  8
0
  2
BLOCK18
 70
     0
 10
0.0
 20
0.0
 30
0.0
  3
BLOCK18
  1

  0
TEXT
  5
5F6
  8
0
 62
     1
 10
-513.0
 20
-36.0
 30
0.0
 40
4.0
  1
1SDH000637R0.133
 50
180.0
 41
1.3857562765830569
 72
     5
 11
-572.26281700000004
 21
-36.0
 31
0.0
  0
ENDBLK
  5
5F7
  8
0
  0
BLOCK
  8
0
  2
BLOCK19
 70
     0
 10
0.0
 20
0.0
 30
0.0
  3
BLOCK19
  1

  0
TEXT
  5
5F9
  8
0
 62
     1
 10
-512.40490699999987
 20
-60.5
 30
0.0
 40
2.0
  1
4POLE LOW VOLTAGE M.C.C.B SERIES TMAX
 50
180.0
 41
1.0842853634577621
 72
     5
 11
-567.59503199999995
 21
-60.5
 31
0.0
  0
TEXT
  5
5FA
  8
0
 62
     1
 10
-520.65344200000004
 20
-57.5
 30
0.0
 40
2.0
  1
FIXED VERSION FC 175..225A
 50
180.0
 41
1.1760806990881441
 72
     5
 11
-559.346497
 21
-57.5
 31
0.0
  0
ENDBLK
  5
5FB
  8
0
  0
BLOCK
  8
0
  2
BLOCK20
 70
     0
 10
0.0
 20
0.0
 30
0.0
  3
BLOCK20
  1

  0
TEXT
  5
5FD
  8
0
 62
     1
 10
-515.15374799999995
 20
-51.5
 30
0.0
 40
2.0
  1
INTERR.AUTOMATICO SERIE TMAX
 50
180.0
 41
1.060877964376586
 72
     5
 11
-556.84625199999994
 21
-51.5
 31
0.0
  0
TEXT
  5
5FE
  8
0
 62
     1
 10
-505.4054569999999
 20
-48.5
 30
0.0
 40
2.0
  1
TETRAP.ESECUZ.FISSA TERM.x CAVI 175..225A
 50
180.0
 41
1.1352323747680899
 72
     5
 11
-566.59448199999997
 21
-48.5
 31
0.0
  0
ENDBLK
  5
5FF
  8
0
  0
BLOCK
  8
0
  2
BLOCK21
 70
     0
 10
0.0
 20
0.0
 30
0.0
  3
BLOCK21
  1

  0
TEXT
  5
601
  8
0
 62
     1
 10
-461.30425999999989
 20
-44.0
 30
0.0
 40
2.0
  1
N0214 2007-11-30
 50
180.0
 41
1.144634658248072
 72
     5
 11
-485.0
 21
-44.0
 31
0.0
  0
ENDBLK
  5
602
  8
0
  0
BLOCK
  8
0
  2
BLOCK22
 70
     0
 10
0.0
 20
0.0
 30
0.0
  3
BLOCK22
  1

  0
TEXT
  5
604
  8
0
 62
     7
 10
-6.0
 20
-100.0
 30
0.0
 40
3.0
  1
X
 50
90.0
 41
0.9777764444444425
 72
     5
 11
-6.0
 21
-97.800003000000004
 31
0.0
  0
ENDBLK
  5
605
  8
0
  0
BLOCK
  8
0
  2
BLOCK23
 70
     0
 10
0.0
 20
0.0
 30
0.0
  3
BLOCK23
  1

  0
TEXT
  5
607
  8
0
 62
     7
 10
-3.0
 20
112.0
 30
0.0
 40
3.0
  1
X
 50
90.0
 41
0.9777764444444425
 72
     5
 11
-3.0
 21
114.199997
 31
0.0
  0
ENDBLK
  5
608
  8
0
  0
BLOCK
  8
0
  2
BLOCK24
 70
     0
 10
0.0
 20
0.0
 30
0.0
  3
BLOCK24
  1

  0
TEXT
  5
60A
  8
0
 62
     7
 10
-101.0
 20
-7.0
 30
0.0
 40
3.0
  1
Y
 50
90.0
 41
0.9777777777777778
 72
     5
 11
-101.0
 21
-4.7999999999999989
 31
0.0
  0
ENDBLK
  5
60B
  8
0
  0
BLOCK
  8
0
  2
BLOCK25
 70
     0
 10
0.0
 20
0.0
 30
0.0
  3
BLOCK25
  1

  0
TEXT
  5
60D
  8
0
 62
     7
 10
124.0
 20
-6.0
 30
0.0
 40
3.0
  1
Y
 50
90.0
 41
0.9777777777777778
 72
     5
 11
124.0
 21
-3.7999999999999989
 31
0.0
  0
ENDBLK
  5
60E
  8
0
  0
BLOCK
  8
0
  2
BLOCK26
 70
     0
 10
0.0
 20
0.0
 30
0.0
  3
BLOCK26
  1

  0
TEXT
  5
610
  8
0
 62
     7
 10
18.75
 20
-126.5937499999999
 30
0.0
 40
3.0
  1
112
 50
179.9999404717627
 41
1.5941402843842269
 72
     5
 11
11.05002
 21
-126.59374199999991
 31
0.0
  0
ENDBLK
  5
611
  8
0
  0
BLOCK
  8
0
  2
BLOCK27
 70
     0
 10
0.0
 20
0.0
 30
0.0
  3
BLOCK27
  1

  0
TEXT
  5
613
  8
0
 62
     7
 10
18.75
 20
-164.0829469999999
 30
0.0
 40
3.0
  1
142
 50
180.0
 41
1.3437594995413831
 72
     5
 11
11.05002
 21
-164.0829469999999
 31
0.0
  0
ENDBLK
  5
614
  8
0
  0
BLOCK
  8
0
  2
BLOCK28
 70
     0
 10
0.0
 20
0.0
 30
0.0
  3
BLOCK28
  1

  0
TEXT
  5
616
  8
0
 62
     7
 10
-121.53396599999989
 20
-11.0
 30
0.0
 40
3.0
  1
80
 50
90.0
 41
1.3191663623963901
 72
     5
 11
-121.53396599999989
 21
-6.0500099999999994
 31
0.0
  0
ENDBLK
  5
617
  8
0
  0
BLOCK
  8
0
  2
BLOCK29
 70
     0
 10
0.0
 20
0.0
 30
0.0
  3
BLOCK29
  1

  0
TEXT
  5
619
  8
0
 62
     7
 10
-154.251846
 20
-16.5
 30
0.0
 40
3.0
  1
112
 50
90.0
 41
1.594140284383367
 72
     5
 11
-154.251846
 21
-8.8000199999999982
 31
0.0
  0
ENDBLK
  5
61A
  8
0
  0
BLOCK
  8
0
  2
BLOCK30
 70
     0
 10
0.0
 20
0.0
 30
0.0
  3
BLOCK30
  1

  0
TEXT
  5
61C
  8
0
 62
     7
 10
122.34223899999991
 20
-111.27021000000001
 30
0.0
 40
3.0
  1
 7
 50
127.20898959685471
 41
1.736837925866495
 72
     5
 11
119.348862
 21
-107.3278659999999
 31
0.0
  0
ENDBLK
  5
61D
  8
0
  0
BLOCK
  8
0
  2
BLOCK31
 70
     0
 10
0.0
 20
0.0
 30
0.0
  3
BLOCK31
  1

  0
TEXT
  5
61F
  8
0
 62
     7
 10
123.30978399999999
 20
-112.544495
 30
0.0
 40
3.0
  1
%%c
 50
127.2089187033538
 41
0.9777779165820129
 72
     5
 11
121.9793929999999
 21
-110.79233600000001
 31
0.0
  0
ENDBLK
  5
620
  8
0
  0
BLOCK
  8
0
  2
BLOCK32
 70
     0
 10
0.0
 20
0.0
 30
0.0
  3
BLOCK32
  1

  0
LINE
  5
622
  8
0
 62
    31
 10
49.237060999999997
 20
65.599936999999997
 30
0.0
 11
26.23706099999999
 21
65.599936999999997
 31
0.0
  0
LINE
  5
623
  8
0
 62
    31
 10
49.237060999999997
 20
77.999938999999998
 30
0.0
 11
26.23706099999999
 21
77.999938999999998
 31
0.0
  0
LINE
  5
624
  8
0
 62
    31
 10
49.237060999999997
 20
77.999938999999998
 30
0.0
 11
49.237060999999997
 21
65.599936999999997
 31
0.0
  0
LINE
  5
625
  8
0
 62
    31
 10
26.23706099999999
 20
79.799942000000001
 30
0.0
 11
26.23706099999999
 21
63.799937999999997
 31
0.0
  0
LINE
  5
626
  8
0
  6
DASHDOT
 62
    31
 10
54.298324999999991
 20
71.799942000000001
 30
0.0
 11
5.6248930000000001
 21
71.799942000000001
 31
0.0
  0
LINE
  5
627
  8
0
 62
    31
 10
26.23706099999999
 20
79.799942000000001
 30
0.0
 11
7.6248929999999993
 21
79.799942000000001
 31
0.0
  0
LINE
  5
628
  8
0
 62
    31
 10
26.23706099999999
 20
63.799937999999997
 30
0.0
 11
7.6248929999999993
 21
63.799937999999997
 31
0.0
  0
LINE
  5
629
  8
0
 62
    31
 10
49.237060999999997
 20
71.799942000000001
 30
0.0
 11
26.23706099999999
 21
67.744415000000004
 31
0.0
  0
POLYLINE
  5
62A
  8
0
 62
    31
 66
     1
 10
0.0
 20
0.0
 30
0.0
 70
     1
  0
VERTEX
  5
AD0
  8
0
 62
    31
 10
7.6248929999999993
 20
79.799942000000001
 30
0.0
  0
VERTEX
  5
AD1
  8
0
 62
    31
 10
7.7143550000000003
 20
79.795936999999995
 30
0.0
  0
VERTEX
  5
AD2
  8
0
 62
    31
 10
7.8037720000000004
 20
79.783912999999998
 30
0.0
  0
VERTEX
  5
AD3
  8
0
 62
    31
 10
7.8932039999999981
 20
79.763779
 30
0.0
  0
VERTEX
  5
AD4
  8
0
 62
    31
 10
7.9827579999999996
 20
79.735389999999995
 30
0.0
  0
VERTEX
  5
AD5
  8
0
 62
    31
 10
8.0724330000000002
 20
79.69851700000001
 30
0.0
  0
VERTEX
  5
AD6
  8
0
 62
    31
 10
8.1622310000000002
 20
79.652878000000001
 30
0.0
  0
VERTEX
  5
AD7
  8
0
 62
    31
 10
8.2521210000000007
 20
79.598145000000002
 30
0.0
  0
VERTEX
  5
AD8
  8
0
 62
    31
 10
8.3419949999999972
 20
79.533981000000011
 30
0.0
  0
VERTEX
  5
AD9
  8
0
 62
    31
 10
8.4317320000000002
 20
79.459998999999996
 30
0.0
  0
VERTEX
  5
ADA
  8
0
 62
    31
 10
8.5211330000000007
 20
79.375831999999974
 30
0.0
  0
VERTEX
  5
ADB
  8
0
 62
    31
 10
8.6099550000000011
 20
79.281127999999995
 30
0.0
  0
VERTEX
  5
ADC
  8
0
 62
    31
 10
8.6978759999999991
 20
79.175560000000004
 30
0.0
  0
VERTEX
  5
ADD
  8
0
 62
    31
 10
8.7845759999999995
 20
79.058852999999999
 30
0.0
  0
VERTEX
  5
ADE
  8
0
 62
    31
 10
8.8696590000000004
 20
78.930785999999983
 30
0.0
  0
VERTEX
  5
ADF
  8
0
 62
    31
 10
8.9526979999999998
 20
78.791221999999991
 30
0.0
  0
VERTEX
  5
AE0
  8
0
 62
    31
 10
9.0332179999999997
 20
78.640113999999997
 30
0.0
  0
VERTEX
  5
AE1
  8
0
 62
    31
 10
9.1107179999999985
 20
78.477501000000004
 30
0.0
  0
VERTEX
  5
AE2
  8
0
 62
    31
 10
9.1846920000000001
 20
78.303557999999995
 30
0.0
  0
VERTEX
  5
AE3
  8
0
 62
    31
 10
9.2546229999999987
 20
78.11856800000001
 30
0.0
  0
VERTEX
  5
AE4
  8
0
 62
    31
 10
9.3199620000000003
 20
77.922934999999995
 30
0.0
  0
VERTEX
  5
AE5
  8
0
 62
    31
 10
9.3801729999999992
 20
77.717208999999997
 30
0.0
  0
VERTEX
  5
AE6
  8
0
 62
    31
 10
9.4347840000000005
 20
77.50206
 30
0.0
  0
VERTEX
  5
AE7
  8
0
 62
    31
 10
9.4832920000000005
 20
77.27828199999999
 30
0.0
  0
VERTEX
  5
AE8
  8
0
 62
    31
 10
9.5252529999999993
 20
77.046806000000004
 30
0.0
  0
VERTEX
  5
AE9
  8
0
 62
    31
 10
9.560257
 20
76.808661999999998
 30
0.0
  0
VERTEX
  5
AEA
  8
0
 62
    31
 10
9.587966999999999
 20
76.565002000000007
 30
0.0
  0
VERTEX
  5
AEB
  8
0
 62
    31
 10
9.6081089999999971
 20
76.317055000000011
 30
0.0
  0
VERTEX
  5
AEC
  8
0
 62
    31
 10
9.6204679999999971
 20
76.066101000000003
 30
0.0
  0
VERTEX
  5
AED
  8
0
 62
    31
 10
9.6248780000000007
 20
75.813514999999995
 30
0.0
  0
VERTEX
  5
AEE
  8
0
 62
    31
 10
9.6213069999999998
 20
75.560660999999996
 30
0.0
  0
VERTEX
  5
AEF
  8
0
 62
    31
 10
9.6165310000000002
 20
75.434607999999997
 30
0.0
  0
VERTEX
  5
AF0
  8
0
 62
    31
 10
9.6097719999999995
 20
75.308929000000006
 30
0.0
  0
VERTEX
  5
AF1
  8
0
 62
    31
 10
9.6010439999999981
 20
75.184006000000011
 30
0.0
  0
VERTEX
  5
AF2
  8
0
 62
    31
 10
9.5903469999999995
 20
75.059700000000007
 30
0.0
  0
VERTEX
  5
AF3
  8
0
 62
    31
 10
9.5777590000000004
 20
74.936576999999986
 30
0.0
  0
VERTEX
  5
AF4
  8
0
 62
    31
 10
9.5632320000000011
 20
74.814307999999997
 30
0.0
  0
VERTEX
  5
AF5
  8
0
 62
    31
 10
9.546875
 20
74.693625999999995
 30
0.0
  0
VERTEX
  5
AF6
  8
0
 62
    31
 10
9.5286559999999998
 20
74.574027999999998
 30
0.0
  0
VERTEX
  5
AF7
  8
0
 62
    31
 10
9.5086979999999972
 20
74.456406000000001
 30
0.0
  0
VERTEX
  5
AF8
  8
0
 62
    31
 10
9.4869380000000003
 20
74.34008
 30
0.0
  0
VERTEX
  5
AF9
  8
0
 62
    31
 10
9.4635770000000008
 20
74.226073999999997
 30
0.0
  0
VERTEX
  5
AFA
  8
0
 62
    31
 10
9.4384610000000002
 20
74.113563999999997
 30
0.0
  0
VERTEX
  5
AFB
  8
0
 62
    31
 10
9.4118960000000005
 20
74.003685000000004
 30
0.0
  0
VERTEX
  5
AFC
  8
0
 62
    31
 10
9.3836669999999991
 20
73.895484999999994
 30
0.0
  0
VERTEX
  5
AFD
  8
0
 62
    31
 10
9.3541259999999991
 20
73.790183999999996
 30
0.0
  0
VERTEX
  5
AFE
  8
0
 62
    31
 10
9.3229980000000001
 20
73.686722000000003
 30
0.0
  0
VERTEX
  5
AFF
  8
0
 62
    31
 10
9.2907410000000006
 20
73.586394999999996
 30
0.0
  0
VERTEX
  5
B00
  8
0
 62
    31
 10
9.2570040000000002
 20
73.488037000000006
 30
0.0
  0
VERTEX
  5
B01
  8
0
 62
    31
 10
9.2222899999999992
 20
73.392997999999992
 30
0.0
  0
VERTEX
  5
B02
  8
0
 62
    31
 10
9.1861880000000014
 20
73.300040999999993
 30
0.0
  0
VERTEX
  5
B03
  8
0
 62
    31
 10
9.1492919999999991
 20
73.210548000000003
 30
0.0
  0
VERTEX
  5
B04
  8
0
 62
    31
 10
9.1110990000000012
 20
73.123238000000001
 30
0.0
  0
VERTEX
  5
B05
  8
0
 62
    31
 10
9.0722960000000015
 20
73.039473999999998
 30
0.0
  0
VERTEX
  5
B06
  8
0
 62
    31
 10
9.0323030000000006
 20
72.957961999999995
 30
0.0
  0
VERTEX
  5
B07
  8
0
 62
    31
 10
8.9918519999999997
 20
72.880050999999995
 30
0.0
  0
VERTEX
  5
B08
  8
0
 62
    31
 10
8.9503170000000001
 20
72.804443000000006
 30
0.0
  0
VERTEX
  5
B09
  8
0
 62
    31
 10
8.9084929999999982
 20
72.732444999999998
 30
0.0
  0
VERTEX
  5
B0A
  8
0
 62
    31
 10
8.8656919999999992
 20
72.662788000000006
 30
0.0
  0
VERTEX
  5
B0B
  8
0
 62
    31
 10
8.8227390000000003
 20
72.596710000000002
 30
0.0
  0
VERTEX
  5
B0C
  8
0
 62
    31
 10
8.7789000000000001
 20
72.53298199999999
 30
0.0
  0
VERTEX
  5
B0D
  8
0
 62
    31
 10
8.7350619999999992
 20
72.472763
 30
0.0
  0
VERTEX
  5
B0E
  8
0
 62
    31
 10
8.6904450000000004
 20
72.414901999999998
 30
0.0
  0
VERTEX
  5
B0F
  8
0
 62
    31
 10
8.6459200000000003
 20
72.360466000000002
 30
0.0
  0
VERTEX
  5
B10
  8
0
 62
    31
 10
8.6007230000000003
 20
72.308365000000009
 30
0.0
  0
VERTEX
  5
B11
  8
0
 62
    31
 10
8.5557250000000007
 20
72.259567000000004
 30
0.0
  0
VERTEX
  5
B12
  8
0
 62
    31
 10
8.5101169999999993
 20
72.213088999999997
 30
0.0
  0
VERTEX
  5
B13
  8
0
 62
    31
 10
8.4648280000000007
 20
72.169776999999996
 30
0.0
  0
VERTEX
  5
B14
  8
0
 62
    31
 10
8.4189910000000001
 20
72.128754000000001
 30
0.0
  0
VERTEX
  5
B15
  8
0
 62
    31
 10
8.3735199999999992
 20
72.090735999999993
 30
0.0
  0
VERTEX
  5
B16
  8
0
 62
    31
 10
8.3276059999999994
 20
72.054969999999997
 30
0.0
  0
VERTEX
  5
B17
  8
0
 62
    31
 10
8.2820889999999991
 20
72.02205699999999
 30
0.0
  0
VERTEX
  5
B18
  8
0
 62
    31
 10
8.2361909999999998
 20
71.99135600000001
 30
0.0
  0
VERTEX
  5
B19
  8
0
 62
    31
 10
8.1907040000000002
 20
71.963347999999996
 30
0.0
  0
VERTEX
  5
B1A
  8
0
 62
    31
 10
8.1449130000000007
 20
71.937515000000005
 30
0.0
  0
VERTEX
  5
B1B
  8
0
 62
    31
 10
8.0995329999999992
 20
71.914214999999999
 30
0.0
  0
VERTEX
  5
B1C
  8
0
 62
    31
 10
8.0538939999999997
 20
71.893043999999989
 30
0.0
  0
VERTEX
  5
B1D
  8
0
 62
    31
 10
8.0086519999999997
 20
71.874259999999992
 30
0.0
  0
VERTEX
  5
B1E
  8
0
 62
    31
 10
7.9631959999999999
 20
71.857581999999994
 30
0.0
  0
VERTEX
  5
B1F
  8
0
 62
    31
 10
7.9180910000000004
 20
71.84315500000001
 30
0.0
  0
VERTEX
  5
B20
  8
0
 62
    31
 10
7.8728490000000004
 20
71.830803000000003
 30
0.0
  0
VERTEX
  5
B21
  8
0
 62
    31
 10
7.8278809999999988
 20
71.820594999999997
 30
0.0
  0
VERTEX
  5
B22
  8
0
 62
    31
 10
7.7828220000000004
 20
71.812431000000004
 30
0.0
  0
VERTEX
  5
B23
  8
0
 62
    31
 10
7.7379759999999989
 20
71.806342999999998
 30
0.0
  0
VERTEX
  5
B24
  8
0
 62
    31
 10
7.6930690000000004
 20
71.802268999999995
 30
0.0
  0
VERTEX
  5
B25
  8
0
 62
    31
 10
7.648299999999999
 20
71.800217000000004
 30
0.0
  0
VERTEX
  5
B26
  8
0
 62
    31
 10
7.6035159999999991
 20
71.800170999999992
 30
0.0
  0
VERTEX
  5
B27
  8
0
 62
    31
 10
7.5140839999999987
 20
71.806083999999998
 30
0.0
  0
VERTEX
  5
B28
  8
0
 62
    31
 10
7.4246669999999986
 20
71.820037999999997
 30
0.0
  0
VERTEX
  5
B29
  8
0
 62
    31
 10
7.3352050000000002
 20
71.842124999999996
 30
0.0
  0
VERTEX
  5
B2A
  8
0
 62
    31
 10
7.2456360000000002
 20
71.872519999999994
 30
0.0
  0
VERTEX
  5
B2B
  8
0
 62
    31
 10
7.1559299999999997
 20
71.911461000000003
 30
0.0
  0
VERTEX
  5
B2C
  8
0
 62
    31
 10
7.0661009999999989
 20
71.959243999999984
 30
0.0
  0
VERTEX
  5
B2D
  8
0
 62
    31
 10
6.9761959999999998
 20
72.016189999999995
 30
0.0
  0
VERTEX
  5
B2E
  8
0
 62
    31
 10
6.8863369999999993
 20
72.082664000000008
 30
0.0
  0
VERTEX
  5
B2F
  8
0
 62
    31
 10
6.7966610000000003
 20
72.159049999999993
 30
0.0
  0
VERTEX
  5
B30
  8
0
 62
    31
 10
6.707382
 20
72.245696999999993
 30
0.0
  0
VERTEX
  5
B31
  8
0
 62
    31
 10
6.6187440000000004
 20
72.342963999999995
 30
0.0
  0
VERTEX
  5
B32
  8
0
 62
    31
 10
6.5310819999999987
 20
72.451172
 30
0.0
  0
VERTEX
  5
B33
  8
0
 62
    31
 10
6.4447330000000003
 20
72.570580000000007
 30
0.0
  0
VERTEX
  5
B34
  8
0
 62
    31
 10
6.360091999999999
 20
72.701378000000005
 30
0.0
  0
VERTEX
  5
B35
  8
0
 62
    31
 10
6.2776180000000004
 20
72.843704000000002
 30
0.0
  0
VERTEX
  5
B36
  8
0
 62
    31
 10
6.1977690000000001
 20
72.997566000000006
 30
0.0
  0
VERTEX
  5
B37
  8
0
 62
    31
 10
6.1210629999999986
 20
73.162903
 30
0.0
  0
VERTEX
  5
B38
  8
0
 62
    31
 10
6.0480039999999988
 20
73.339516000000003
 30
0.0
  0
VERTEX
  5
B39
  8
0
 62
    31
 10
5.9791259999999991
 20
73.52709200000001
 30
0.0
  0
VERTEX
  5
B3A
  8
0
 62
    31
 10
5.9149629999999993
 20
73.725189
 30
0.0
  0
VERTEX
  5
B3B
  8
0
 62
    31
 10
5.8560489999999987
 20
73.933227999999986
 30
0.0
  0
VERTEX
  5
B3C
  8
0
 62
    31
 10
5.8028559999999993
 20
74.15052
 30
0.0
  0
VERTEX
  5
B3D
  8
0
 62
    31
 10
5.7558749999999987
 20
74.376221000000001
 30
0.0
  0
VERTEX
  5
B3E
  8
0
 62
    31
 10
5.7155459999999989
 20
74.609390000000005
 30
0.0
  0
VERTEX
  5
B3F
  8
0
 62
    31
 10
5.6822359999999987
 20
74.848953000000009
 30
0.0
  0
VERTEX
  5
B40
  8
0
 62
    31
 10
5.6563109999999988
 20
75.093757999999994
 30
0.0
  0
VERTEX
  5
B41
  8
0
 62
    31
 10
5.6380160000000004
 20
75.342545000000001
 30
0.0
  0
VERTEX
  5
B42
  8
0
 62
    31
 10
5.6275479999999991
 20
75.594008999999986
 30
0.0
  0
VERTEX
  5
B43
  8
0
 62
    31
 10
5.625030999999999
 20
75.846785999999994
 30
0.0
  0
VERTEX
  5
B44
  8
0
 62
    31
 10
5.6267699999999987
 20
75.973228000000006
 30
0.0
  0
VERTEX
  5
B45
  8
0
 62
    31
 10
5.630507999999999
 20
76.099502999999999
 30
0.0
  0
VERTEX
  5
B46
  8
0
 62
    31
 10
5.636245999999999
 20
76.225341999999998
 30
0.0
  0
VERTEX
  5
B47
  8
0
 62
    31
 10
5.6439510000000004
 20
76.350754000000009
 30
0.0
  0
VERTEX
  5
B48
  8
0
 62
    31
 10
5.6536099999999987
 20
76.475311000000005
 30
0.0
  0
VERTEX
  5
B49
  8
0
 62
    31
 10
5.6652219999999991
 20
76.599190000000007
 30
0.0
  0
VERTEX
  5
B4A
  8
0
 62
    31
 10
5.6787260000000002
 20
76.721785999999994
 30
0.0
  0
VERTEX
  5
B4B
  8
0
 62
    31
 10
5.694153
 20
76.843474999999998
 30
0.0
  0
VERTEX
  5
B4C
  8
0
 62
    31
 10
5.7113800000000001
 20
76.963478000000009
 30
0.0
  0
VERTEX
  5
B4D
  8
0
 62
    31
 10
5.7304690000000003
 20
77.082343999999992
 30
0.0
  0
VERTEX
  5
B4E
  8
0
 62
    31
 10
5.751250999999999
 20
77.199150000000003
 30
0.0
  0
VERTEX
  5
B4F
  8
0
 62
    31
 10
5.773833999999999
 20
77.314621000000002
 30
0.0
  0
VERTEX
  5
B50
  8
0
 62
    31
 10
5.7979890000000003
 20
77.427681000000007
 30
0.0
  0
VERTEX
  5
B51
  8
0
 62
    31
 10
5.8238529999999988
 20
77.53920699999999
 30
0.0
  0
VERTEX
  5
B52
  8
0
 62
    31
 10
5.8511660000000001
 20
77.648026000000002
 30
0.0
  0
VERTEX
  5
B53
  8
0
 62
    31
 10
5.8800959999999991
 20
77.755134999999996
 30
0.0
  0
VERTEX
  5
B54
  8
0
 62
    31
 10
5.9103240000000001
 20
77.859282999999991
 30
0.0
  0
VERTEX
  5
B55
  8
0
 62
    31
 10
5.9420779999999986
 20
77.961555000000004
 30
0.0
  0
VERTEX
  5
B56
  8
0
 62
    31
 10
5.9749600000000003
 20
78.060645999999991
 30
0.0
  0
VERTEX
  5
B57
  8
0
 62
    31
 10
6.0092930000000004
 20
78.157737999999995
 30
0.0
  0
VERTEX
  5
B58
  8
0
 62
    31
 10
6.044556
 20
78.251471999999993
 30
0.0
  0
VERTEX
  5
B59
  8
0
 62
    31
 10
6.0811769999999994
 20
78.343102000000002
 30
0.0
  0
VERTEX
  5
B5A
  8
0
 62
    31
 10
6.1185460000000003
 20
78.431235999999998
 30
0.0
  0
VERTEX
  5
B5B
  8
0
 62
    31
 10
6.157195999999999
 20
78.517181000000008
 30
0.0
  0
VERTEX
  5
B5C
  8
0
 62
    31
 10
6.1964259999999989
 20
78.599556000000007
 30
0.0
  0
VERTEX
  5
B5D
  8
0
 62
    31
 10
6.2368009999999989
 20
78.679665
 30
0.0
  0
VERTEX
  5
B5E
  8
0
 62
    31
 10
6.277603
 20
78.756164999999996
 30
0.0
  0
VERTEX
  5
B5F
  8
0
 62
    31
 10
6.319458
 20
78.830353000000002
 30
0.0
  0
VERTEX
  5
B60
  8
0
 62
    31
 10
6.3615879999999994
 20
78.900931999999983
 30
0.0
  0
VERTEX
  5
B61
  8
0
 62
    31
 10
6.404647999999999
 20
78.969169999999991
 30
0.0
  0
VERTEX
  5
B62
  8
0
 62
    31
 10
6.4478299999999997
 20
79.033843999999988
 30
0.0
  0
VERTEX
  5
B63
  8
0
 62
    31
 10
6.4918820000000004
 20
79.096168999999989
 30
0.0
  0
VERTEX
  5
B64
  8
0
 62
    31
 10
6.5359040000000004
 20
79.15499100000001
 30
0.0
  0
VERTEX
  5
B65
  8
0
 62
    31
 10
6.5806880000000003
 20
79.211464000000007
 30
0.0
  0
VERTEX
  5
B66
  8
0
 62
    31
 10
6.6253199999999994
 20
79.264542000000006
 30
0.0
  0
VERTEX
  5
B67
  8
0
 62
    31
 10
6.6706389999999987
 20
79.315285000000003
 30
0.0
  0
VERTEX
  5
B68
  8
0
 62
    31
 10
6.7157289999999987
 20
79.362755000000007
 30
0.0
  0
VERTEX
  5
B69
  8
0
 62
    31
 10
6.7613979999999989
 20
79.407912999999994
 30
0.0
  0
VERTEX
  5
B6A
  8
0
 62
    31
 10
6.8067469999999997
 20
79.449943999999974
 30
0.0
  0
VERTEX
  5
B6B
  8
0
 62
    31
 10
6.8526149999999992
 20
79.489699999999999
 30
0.0
  0
VERTEX
  5
B6C
  8
0
 62
    31
 10
6.8981019999999997
 20
79.526473999999993
 30
0.0
  0
VERTEX
  5
B6D
  8
0
 62
    31
 10
6.944030999999999
 20
79.561012000000005
 30
0.0
  0
VERTEX
  5
B6E
  8
0
 62
    31
 10
6.9895479999999992
 20
79.592735000000005
 30
0.0
  0
VERTEX
  5
B6F
  8
0
 62
    31
 10
7.0354309999999991
 20
79.622253000000001
 30
0.0
  0
VERTEX
  5
B70
  8
0
 62
    31
 10
7.0808869999999988
 20
79.649124
 30
0.0
  0
VERTEX
  5
B71
  8
0
 62
    31
 10
7.1266479999999994
 20
79.673828
 30
0.0
  0
VERTEX
  5
B72
  8
0
 62
    31
 10
7.1719970000000002
 20
79.696037000000004
 30
0.0
  0
VERTEX
  5
B73
  8
0
 62
    31
 10
7.2175899999999986
 20
79.716118000000009
 30
0.0
  0
VERTEX
  5
B74
  8
0
 62
    31
 10
7.2628019999999998
 20
79.733840999999998
 30
0.0
  0
VERTEX
  5
B75
  8
0
 62
    31
 10
7.3082119999999993
 20
79.749473999999992
 30
0.0
  0
VERTEX
  5
B76
  8
0
 62
    31
 10
7.3532710000000003
 20
79.762878000000001
 30
0.0
  0
VERTEX
  5
B77
  8
0
 62
    31
 10
7.3984679999999994
 20
79.774222999999992
 30
0.0
  0
VERTEX
  5
B78
  8
0
 62
    31
 10
7.4434050000000003
 20
79.783439999999985
 30
0.0
  0
VERTEX
  5
B79
  8
0
 62
    31
 10
7.4884339999999989
 20
79.790618999999992
 30
0.0
  0
VERTEX
  5
B7A
  8
0
 62
    31
 10
7.5332489999999996
 20
79.795738
 30
0.0
  0
VERTEX
  5
B7B
  8
0
 62
    31
 10
7.578125
 20
79.798850999999999
 30
0.0
  0
SEQEND
  5
B7C
  8
0
 62
    31
  0
POLYLINE
  5
6D8
  8
0
 62
    31
 66
     1
 10
0.0
 20
0.0
 30
0.0
  0
VERTEX
  5
B7D
  8
0
 62
    31
 10
7.6248929999999993
 20
63.799937999999997
 30
0.0
  0
VERTEX
  5
B7E
  8
0
 62
    31
 10
7.5354309999999991
 20
63.803939999999997
 30
0.0
  0
VERTEX
  5
B7F
  8
0
 62
    31
 10
7.4460300000000004
 20
63.815967999999998
 30
0.0
  0
VERTEX
  5
B80
  8
0
 62
    31
 10
7.3565829999999997
 20
63.836098
 30
0.0
  0
VERTEX
  5
B81
  8
0
 62
    31
 10
7.2670440000000003
 20
63.864491000000001
 30
0.0
  0
VERTEX
  5
B82
  8
0
 62
    31
 10
7.1773679999999986
 20
63.901363000000003
 30
0.0
  0
VERTEX
  5
B83
  8
0
 62
    31
 10
7.0875699999999986
 20
63.947006000000009
 30
0.0
  0
VERTEX
  5
B84
  8
0
 62
    31
 10
6.997681
 20
64.00173199999999
 30
0.0
  0
VERTEX
  5
B85
  8
0
 62
    31
 10
6.9077909999999996
 20
64.065903000000006
 30
0.0
  0
VERTEX
  5
B86
  8
0
 62
    31
 10
6.8180539999999992
 20
64.139884999999992
 30
0.0
  0
VERTEX
  5
B87
  8
0
 62
    31
 10
6.7286529999999987
 20
64.224044999999975
 30
0.0
  0
VERTEX
  5
B88
  8
0
 62
    31
 10
6.6398469999999996
 20
64.318747999999999
 30
0.0
  0
VERTEX
  5
B89
  8
0
 62
    31
 10
6.5519099999999986
 20
64.424316000000005
 30
0.0
  0
VERTEX
  5
B8A
  8
0
 62
    31
 10
6.465209999999999
 20
64.541022999999996
 30
0.0
  0
VERTEX
  5
B8B
  8
0
 62
    31
 10
6.380126999999999
 20
64.669089999999997
 30
0.0
  0
VERTEX
  5
B8C
  8
0
 62
    31
 10
6.2970889999999988
 20
64.808655000000002
 30
0.0
  0
VERTEX
  5
B8D
  8
0
 62
    31
 10
6.2165829999999991
 20
64.959769999999992
 30
0.0
  0
VERTEX
  5
B8E
  8
0
 62
    31
 10
6.1390690000000001
 20
65.122382999999985
 30
0.0
  0
VERTEX
  5
B8F
  8
0
 62
    31
 10
6.0650940000000002
 20
65.296326000000008
 30
0.0
  0
VERTEX
  5
B90
  8
0
 62
    31
 10
5.9951780000000001
 20
65.481316000000007
 30
0.0
  0
VERTEX
  5
B91
  8
0
 62
    31
 10
5.9298400000000004
 20
65.676940999999999
 30
0.0
  0
VERTEX
  5
B92
  8
0
 62
    31
 10
5.8696140000000003
 20
65.88266800000001
 30
0.0
  0
VERTEX
  5
B93
  8
0
 62
    31
 10
5.8150019999999989
 20
66.097824000000003
 30
0.0
  0
VERTEX
  5
B94
  8
0
 62
    31
 10
5.766494999999999
 20
66.321601999999999
 30
0.0
  0
VERTEX
  5
B95
  8
0
 62
    31
 10
5.7245480000000004
 20
66.553077999999999
 30
0.0
  0
VERTEX
  5
B96
  8
0
 62
    31
 10
5.6895290000000003
 20
66.791213999999997
 30
0.0
  0
VERTEX
  5
B97
  8
0
 62
    31
 10
5.6618190000000004
 20
67.034874000000002
 30
0.0
  0
VERTEX
  5
B98
  8
0
 62
    31
 10
5.6416779999999989
 20
67.282829000000007
 30
0.0
  0
VERTEX
  5
B99
  8
0
 62
    31
 10
5.629332999999999
 20
67.533775000000006
 30
0.0
  0
VERTEX
  5
B9A
  8
0
 62
    31
 10
5.6249079999999996
 20
67.786368999999993
 30
0.0
  0
VERTEX
  5
B9B
  8
0
 62
    31
 10
5.6284789999999996
 20
68.039222999999993
 30
0.0
  0
VERTEX
  5
B9C
  8
0
 62
    31
 10
5.6332550000000001
 20
68.165268000000012
 30
0.0
  0
VERTEX
  5
B9D
  8
0
 62
    31
 10
5.640015
 20
68.290955000000011
 30
0.0
  0
VERTEX
  5
B9E
  8
0
 62
    31
 10
5.6487429999999987
 20
68.415870999999996
 30
0.0
  0
VERTEX
  5
B9F
  8
0
 62
    31
 10
5.659438999999999
 20
68.540183999999996
 30
0.0
  0
VERTEX
  5
BA0
  8
0
 62
    31
 10
5.6720430000000004
 20
68.663306999999975
 30
0.0
  0
VERTEX
  5
BA1
  8
0
 62
    31
 10
5.6865690000000004
 20
68.785576000000006
 30
0.0
  0
VERTEX
  5
BA2
  8
0
 62
    31
 10
5.7029110000000003
 20
68.90625
 30
0.0
  0
VERTEX
  5
BA3
  8
0
 62
    31
 10
5.7211460000000001
 20
69.025847999999996
 30
0.0
  0
VERTEX
  5
BA4
  8
0
 62
    31
 10
5.7410889999999988
 20
69.143470999999991
 30
0.0
  0
VERTEX
  5
BA5
  8
0
 62
    31
 10
5.7628479999999991
 20
69.259804000000003
 30
0.0
  0
VERTEX
  5
BA6
  8
0
 62
    31
 10
5.7862239999999989
 20
69.373801999999984
 30
0.0
  0
VERTEX
  5
BA7
  8
0
 62
    31
 10
5.8113250000000001
 20
69.486319999999992
 30
0.0
  0
VERTEX
  5
BA8
  8
0
 62
    31
 10
5.8378909999999991
 20
69.596191000000005
 30
0.0
  0
VERTEX
  5
BA9
  8
0
 62
    31
 10
5.866134999999999
 20
69.704398999999995
 30
0.0
  0
VERTEX
  5
BAA
  8
0
 62
    31
 10
5.895675999999999
 20
69.809691999999998
 30
0.0
  0
VERTEX
  5
BAB
  8
0
 62
    31
 10
5.9267880000000002
 20
69.913161999999986
 30
0.0
  0
VERTEX
  5
BAC
  8
0
 62
    31
 10
5.9590449999999988
 20
70.013489000000007
 30
0.0
  0
VERTEX
  5
BAD
  8
0
 62
    31
 10
5.9927830000000002
 20
70.111846999999997
 30
0.0
  0
VERTEX
  5
BAE
  8
0
 62
    31
 10
6.0275119999999998
 20
70.206885999999983
 30
0.0
  0
VERTEX
  5
BAF
  8
0
 62
    31
 10
6.0635989999999991
 20
70.299835000000002
 30
0.0
  0
VERTEX
  5
BB0
  8
0
 62
    31
 10
6.100509999999999
 20
70.389328000000006
 30
0.0
  0
VERTEX
  5
BB1
  8
0
 62
    31
 10
6.138687
 20
70.476646000000002
 30
0.0
  0
VERTEX
  5
BB2
  8
0
 62
    31
 10
6.177505
 20
70.560410000000005
 30
0.0
  0
VERTEX
  5
BB3
  8
0
 62
    31
 10
6.2174990000000001
 20
70.641921999999994
 30
0.0
  0
VERTEX
  5
BB4
  8
0
 62
    31
 10
6.2579500000000001
 20
70.719825999999998
 30
0.0
  0
VERTEX
  5
BB5
  8
0
 62
    31
 10
6.2994690000000002
 20
70.795433000000003
 30
0.0
  0
VERTEX
  5
BB6
  8
0
 62
    31
 10
6.3412930000000003
 20
70.867431999999994
 30
0.0
  0
VERTEX
  5
BB7
  8
0
 62
    31
 10
6.3841089999999987
 20
70.937095999999997
 30
0.0
  0
VERTEX
  5
BB8
  8
0
 62
    31
 10
6.4270480000000001
 20
71.003174000000001
 30
0.0
  0
VERTEX
  5
BB9
  8
0
 62
    31
 10
6.4708860000000001
 20
71.066901999999999
 30
0.0
  0
VERTEX
  5
BBA
  8
0
 62
    31
 10
6.5147250000000003
 20
71.127112999999994
 30
0.0
  0
VERTEX
  5
BBB
  8
0
 62
    31
 10
6.5593570000000003
 20
71.184974999999994
 30
0.0
  0
VERTEX
  5
BBC
  8
0
 62
    31
 10
6.6038670000000002
 20
71.239418000000001
 30
0.0
  0
VERTEX
  5
BBD
  8
0
 62
    31
 10
6.6490780000000003
 20
71.291511999999983
 30
0.0
  0
VERTEX
  5
BBE
  8
0
 62
    31
 10
6.6940609999999996
 20
71.340308999999991
 30
0.0
  0
VERTEX
  5
BBF
  8
0
 62
    31
 10
6.7396699999999994
 20
71.386786999999984
 30
0.0
  0
VERTEX
  5
BC0
  8
0
 62
    31
 10
6.784972999999999
 20
71.430098999999998
 30
0.0
  0
VERTEX
  5
BC1
  8
0
 62
    31
 10
6.8307949999999993
 20
71.471130000000002
 30
0.0
  0
VERTEX
  5
BC2
  8
0
 62
    31
 10
6.8762660000000002
 20
71.509147999999996
 30
0.0
  0
VERTEX
  5
BC3
  8
0
 62
    31
 10
6.9221799999999991
 20
71.544914000000006
 30
0.0
  0
VERTEX
  5
BC4
  8
0
 62
    31
 10
6.9676970000000003
 20
71.577826999999999
 30
0.0
  0
VERTEX
  5
BC5
  8
0
 62
    31
 10
7.013611
 20
71.608520999999996
 30
0.0
  0
VERTEX
  5
BC6
  8
0
 62
    31
 10
7.0590820000000001
 20
71.636535999999992
 30
0.0
  0
VERTEX
  5
BC7
  8
0
 62
    31
 10
7.104889
 20
71.662368999999998
 30
0.0
  0
VERTEX
  5
BC8
  8
0
 62
    31
 10
7.1502689999999998
 20
71.68566899999999
 30
0.0
  0
VERTEX
  5
BC9
  8
0
 62
    31
 10
7.1959080000000002
 20
71.706840999999983
 30
0.0
  0
VERTEX
  5
BCA
  8
0
 62
    31
 10
7.2411500000000002
 20
71.725616000000002
 30
0.0
  0
VERTEX
  5
BCB
  8
0
 62
    31
 10
7.2865909999999996
 20
71.742301999999995
 30
0.0
  0
VERTEX
  5
BCC
  8
0
 62
    31
 10
7.331696
 20
71.756720999999985
 30
0.0
  0
VERTEX
  5
BCD
  8
0
 62
    31
 10
7.376938
 20
71.769081
 30
0.0
  0
VERTEX
  5
BCE
  8
0
 62
    31
 10
7.421905999999999
 20
71.779281999999995
 30
0.0
  0
VERTEX
  5
BCF
  8
0
 62
    31
 10
7.4669649999999992
 20
71.787452999999999
 30
0.0
  0
VERTEX
  5
BD0
  8
0
 62
    31
 10
7.5118099999999997
 20
71.793541000000005
 30
0.0
  0
VERTEX
  5
BD1
  8
0
 62
    31
 10
7.556716999999999
 20
71.797615000000008
 30
0.0
  0
VERTEX
  5
BD2
  8
0
 62
    31
 10
7.6248929999999993
 20
71.799942000000001
 30
0.0
  0
SEQEND
  5
BD3
  8
0
 62
    31
  0
LINE
  5
730
  8
0
 62
     3
 10
7.5202179999999981
 20
79.763023000000004
 30
0.0
 11
9.265625
 21
78.017623999999998
 31
0.0
  0
LINE
  5
731
  8
0
 62
     3
 10
6.8123019999999999
 20
79.410278000000005
 30
0.0
 11
9.5648039999999988
 21
76.657775999999998
 31
0.0
  0
LINE
  5
732
  8
0
 62
     3
 10
6.327056999999999
 20
78.834868999999998
 30
0.0
 11
9.5945129999999992
 21
75.567406000000005
 31
0.0
  0
LINE
  5
733
  8
0
 62
     3
 10
6.0135649999999989
 20
78.087692000000004
 30
0.0
 11
9.5023499999999999
 21
74.598915000000005
 31
0.0
  0
LINE
  5
734
  8
0
 62
     3
 10
5.7924350000000002
 20
77.24816899999999
 30
0.0
 11
9.3225709999999982
 21
73.718024999999997
 31
0.0
  0
LINE
  5
735
  8
0
 62
     3
 10
5.6552730000000002
 20
76.324660999999992
 30
0.0
 11
9.009094000000001
 21
72.970839999999995
 31
0.0
  0
LINE
  5
736
  8
0
 62
     3
 10
5.6552730000000002
 20
75.263999999999996
 30
0.0
 11
8.5730899999999988
 21
72.346191000000005
 31
0.0
  0
LINE
  5
737
  8
0
 62
     3
 10
5.8559570000000001
 20
74.002669999999995
 30
0.0
 11
7.9455869999999988
 21
71.913032999999999
 31
0.0
  0
LINE
  5
738
  8
0
 62
    31
 10
49.237060999999997
 20
70.378342000000004
 30
0.0
 11
26.23706099999999
 21
66.322822999999985
 31
0.0
  0
LINE
  5
739
  8
0
 62
    31
 10
49.237060999999997
 20
68.956740999999994
 30
0.0
 11
30.199660999999988
 21
65.599936999999997
 31
0.0
  0
LINE
  5
73A
  8
0
 62
    31
 10
49.237060999999997
 20
67.535149000000004
 30
0.0
 11
38.26194799999999
 21
65.599936999999997
 31
0.0
  0
LINE
  5
73B
  8
0
 62
    31
 10
49.237060999999997
 20
66.113547999999994
 30
0.0
 11
46.324218999999992
 21
65.599936999999997
 31
0.0
  0
LINE
  5
73C
  8
0
 62
    31
 10
49.237060999999997
 20
73.221541999999985
 30
0.0
 11
26.23706099999999
 21
69.166015999999985
 31
0.0
  0
LINE
  5
73D
  8
0
 62
    31
 10
49.237060999999997
 20
74.643135000000001
 30
0.0
 11
26.23706099999999
 21
70.587615999999997
 31
0.0
  0
LINE
  5
73E
  8
0
 62
    31
 10
49.237060999999997
 20
76.064734999999985
 30
0.0
 11
26.23706099999999
 21
72.009215999999995
 31
0.0
  0
LINE
  5
73F
  8
0
 62
    31
 10
49.237060999999997
 20
77.486328
 30
0.0
 11
26.23706099999999
 21
73.430808999999996
 31
0.0
  0
LINE
  5
740
  8
0
 62
    31
 10
44.087615999999997
 20
77.999938999999998
 30
0.0
 11
26.23706099999999
 21
74.852408999999994
 31
0.0
  0
LINE
  5
741
  8
0
 62
    31
 10
36.02532999999999
 20
77.999938999999998
 30
0.0
 11
26.23706099999999
 21
76.274001999999996
 31
0.0
  0
LINE
  5
742
  8
0
 62
    31
 10
27.963058
 20
77.999938999999998
 30
0.0
 11
26.23706099999999
 21
77.695601999999994
 31
0.0
  0
ENDBLK
  5
743
  8
0
  0
BLOCK
  8
0
  2
BLOCK33
 70
     0
 10
0.0
 20
0.0
 30
0.0
  3
BLOCK33
  1

  0
TEXT
  5
745
  8
0
 62
     7
 10
173.54176299999989
 20
-26.724976000000002
 30
0.0
 40
3.0
  1
10
 50
359.99998842508802
 41
1.5702500786811939
 72
     5
 11
178.49175999999991
 21
-26.724976999999999
 31
0.0
  0
ENDBLK
  5
746
  8
0
  0
BLOCK
  8
0
  2
BLOCK34
 70
     0
 10
0.0
 20
0.0
 30
0.0
  3
BLOCK34
  1

  0
TEXT
  5
748
  8
0
 62
     7
 10
103.4829409999999
 20
-51.343139999999998
 30
0.0
 40
3.0
  1
105
 50
359.999977676914
 41
1.432750773232113
 72
     5
 11
111.18292199999991
 21
-51.343142999999991
 31
0.0
  0
ENDBLK
  5
749
  8
0
  0
BLOCK
  8
0
  2
BLOCK35
 70
     0
 10
0.0
 20
0.0
 30
0.0
  3
BLOCK35
  1

  0
TEXT
  5
74B
  8
0
 62
     7
 10
107.730469
 20
-64.454498000000001
 30
0.0
 40
3.0
  1
X
 50
270.0
 41
0.9777764444444425
 72
     5
 11
107.730469
 21
-66.654494999999997
 31
0.0
  0
ENDBLK
  5
74C
  8
0
  0
BLOCK
  8
0
  2
BLOCK36
 70
     0
 10
0.0
 20
0.0
 30
0.0
  3
BLOCK36
  1

  0
TEXT
  5
74E
  8
0
 62
     7
 10
103.9870609999999
 20
178.21418799999989
 30
0.0
 40
3.0
  1
143
 41
1.357000821032974
 72
     5
 11
111.68704199999991
 21
178.21418799999989
 31
0.0
  0
ENDBLK
  5
74F
  8
0
  0
BLOCK
  8
0
  2
BLOCK37
 70
     0
 10
0.0
 20
0.0
 30
0.0
  3
BLOCK37
  1

  0
TEXT
  5
751
  8
0
 62
     7
 10
-57.508743000000003
 20
64.999282999999991
 30
0.0
 40
3.0
  1
103,5
 50
269.9999652751772
 41
1.5485159649678719
 72
     5
 11
-57.508750999999997
 21
51.799323999999999
 31
0.0
  0
ENDBLK
  5
752
  8
0
  0
BLOCK
  8
0
  2
BLOCK38
 70
     0
 10
0.0
 20
0.0
 30
0.0
  3
BLOCK38
  1

  0
TEXT
  5
754
  8
0
 62
     7
 10
-57.508727999999998
 20
117.4999389999999
 30
0.0
 40
3.0
  1
3
 50
270.0
 41
1.2399490238209789
 72
     5
 11
-57.508727999999998
 21
115.2999419999999
 31
0.0
  0
ENDBLK
  5
755
  8
0
  0
BLOCK
  8
0
  2
BLOCK39
 70
     0
 10
0.0
 20
0.0
 30
0.0
  3
BLOCK39
  1

  0
TEXT
  5
757
  8
0
 62
     7
 10
-57.508727999999998
 20
122.9999389999999
 30
0.0
 40
3.0
  1
\U+2265
 50
270.0
 41
1.2422315693532049
 72
     5
 11
-57.508727999999998
 21
120.7999419999999
 31
0.0
  0
ENDBLK
  5
758
  8
0
  0
BLOCK
  8
0
  2
BLOCK40
 70
     0
 10
0.0
 20
0.0
 30
0.0
  3
BLOCK40
  1

  0
TEXT
  5
75A
  8
0
 62
     7
 10
-86.731125000000006
 20
43.727416999999988
 30
0.0
 40
3.0
  1
135
 50
270.0
 41
1.4327509593039931
 72
     5
 11
-86.731125000000006
 21
36.02743499999999
 31
0.0
  0
ENDBLK
  5
75B
  8
0
  0
BLOCK
  8
0
  2
BLOCK41
 70
     0
 10
0.0
 20
0.0
 30
0.0
  3
BLOCK41
  1

  0
TEXT
  5
75D
  8
0
 62
     7
 10
-71.491714000000002
 20
-12.000061000000001
 30
0.0
 40
3.0
  1
2
 50
270.0
 41
1.2020694180030751
 72
     5
 11
-71.491714000000002
 21
-14.200060999999989
 31
0.0
  0
ENDBLK
  5
75E
  8
0
  0
BLOCK
  8
0
  2
BLOCK42
 70
     0
 10
0.0
 20
0.0
 30
0.0
  3
BLOCK42
  1

  0
TEXT
  5
760
  8
0
 62
     7
 10
-71.491730000000004
 20
57.749939000000012
 30
0.0
 40
3.0
  1
107
 50
270.0
 41
1.4666632380952389
 72
     5
 11
-71.491730000000004
 21
50.049956999999999
 31
0.0
  0
ENDBLK
  5
761
  8
0
  0
BLOCK
  8
0
  2
BLOCK43
 70
     0
 10
0.0
 20
0.0
 30
0.0
  3
BLOCK43
  1

  0
TEXT
  5
763
  8
0
 62
     7
 10
133.11206100000001
 20
162.9052429999999
 30
0.0
 40
3.0
  1
73,75
 41
1.446688291855128
 72
     5
 11
146.312027
 21
162.9052429999999
 31
0.0
  0
ENDBLK
  5
764
  8
0
  0
BLOCK
  8
0
  2
BLOCK44
 70
     0
 10
0.0
 20
0.0
 30
0.0
  3
BLOCK44
  1

  0
TEXT
  5
766
  8
0
 62
     7
 10
-0.7629390000000001
 20
166.016693
 30
0.0
 40
3.0
  1
13,5
 41
1.6266407931290441
 72
     5
 11
9.6870309999999993
 21
166.016693
 31
0.0
  0
ENDBLK
  5
767
  8
0
  0
BLOCK
  8
0
  2
BLOCK45
 70
     0
 10
0.0
 20
0.0
 30
0.0
  3
BLOCK45
  1

  0
TEXT
  5
769
  8
0
 62
     7
 10
233.42247
 20
90.432097999999996
 30
0.0
 40
3.5
  1
31
 50
270.0
 41
1.5873001360544201
 72
     5
 11
233.42247
 21
84.598770000000002
 31
0.0
  0
LINE
  5
76A
  8
0
 62
     7
 10
194.23666399999991
 20
72.030936999999994
 30
0.0
 11
233.42247
 21
72.030936999999994
 31
0.0
  0
LINE
  5
76B
  8
0
 62
     7
 10
206.73344399999991
 20
102.9999389999999
 30
0.0
 11
233.42247
 21
102.9999389999999
 31
0.0
  0
POLYLINE
  5
76C
  8
0
 62
     7
 66
     1
 10
0.0
 20
0.0
 30
0.0
  0
VERTEX
  5
BD4
  8
0
 62
     7
 10
231.94010899999989
 20
101.0680849999999
 30
0.0
  0
VERTEX
  5
BD5
  8
0
 62
     7
 10
231.42247
 20
102.9999389999999
 30
0.0
  0
VERTEX
  5
BD6
  8
0
 62
     7
 10
230.904831
 20
101.0680849999999
 30
0.0
  0
SEQEND
  5
BD7
  8
0
 62
     7
  0
POLYLINE
  5
771
  8
0
 62
     7
 66
     1
 10
0.0
 20
0.0
 30
0.0
  0
VERTEX
  5
BD8
  8
0
 62
     7
 10
230.904831
 20
73.962790999999996
 30
0.0
  0
VERTEX
  5
BD9
  8
0
 62
     7
 10
231.42247
 20
72.030936999999994
 30
0.0
  0
VERTEX
  5
BDA
  8
0
 62
     7
 10
231.94010899999989
 20
73.962790999999996
 30
0.0
  0
SEQEND
  5
BDB
  8
0
 62
     7
  0
LINE
  5
776
  8
0
 62
     7
 10
231.42247
 20
72.030936999999994
 30
0.0
 11
231.42247
 21
102.9999389999999
 31
0.0
  0
ENDBLK
  5
777
  8
0
  0
BLOCK
  8
0
  2
BLOCK46
 70
     0
 10
0.0
 20
0.0
 30
0.0
  3
BLOCK46
  1

  0
TEXT
  5
779
  8
0
 62
     7
 10
248.62554900000001
 20
67.916603000000009
 30
0.0
 40
3.5
  1
76
 50
270.0
 41
1.2824393716189919
 72
     5
 11
248.62554900000001
 21
62.083270999999989
 31
0.0
  0
LINE
  5
77A
  8
0
 62
     7
 10
217.38372799999991
 20
26.999939000000001
 30
0.0
 11
248.62554900000001
 21
26.999939000000001
 31
0.0
  0
LINE
  5
77B
  8
0
 62
     7
 10
206.73344399999991
 20
102.9999389999999
 30
0.0
 11
248.62554900000001
 21
102.9999389999999
 31
0.0
  0
POLYLINE
  5
77C
  8
0
 62
     7
 66
     1
 10
0.0
 20
0.0
 30
0.0
  0
VERTEX
  5
BDC
  8
0
 62
     7
 10
246.10792499999999
 20
28.93179099999999
 30
0.0
  0
VERTEX
  5
BDD
  8
0
 62
     7
 10
246.62554900000001
 20
26.999939000000001
 30
0.0
  0
VERTEX
  5
BDE
  8
0
 62
     7
 10
247.1431879999999
 20
28.93179099999999
 30
0.0
  0
SEQEND
  5
BDF
  8
0
 62
     7
  0
POLYLINE
  5
781
  8
0
 62
     7
 66
     1
 10
0.0
 20
0.0
 30
0.0
  0
VERTEX
  5
BE0
  8
0
 62
     7
 10
247.1431879999999
 20
101.0680849999999
 30
0.0
  0
VERTEX
  5
BE1
  8
0
 62
     7
 10
246.62554900000001
 20
102.9999389999999
 30
0.0
  0
VERTEX
  5
BE2
  8
0
 62
     7
 10
246.10792499999999
 20
101.0680849999999
 30
0.0
  0
SEQEND
  5
BE3
  8
0
 62
     7
  0
LINE
  5
786
  8
0
 62
     7
 10
246.62554900000001
 20
26.999939000000001
 30
0.0
 11
246.62554900000001
 21
102.9999389999999
 31
0.0
  0
ENDBLK
  5
787
  8
0
  0
BLOCK
  8
0
  2
BLOCK47
 70
     0
 10
0.0
 20
0.0
 30
0.0
  3
BLOCK47
  1

  0
TEXT
  5
789
  8
0
 62
     7
 10
262.75521900000001
 20
59.499966000000001
 30
0.0
 40
3.0
  1
101,5
 50
270.0
 41
1.6910090178479049
 72
     5
 11
262.75521900000001
 21
46.099963999999993
 31
0.0
  0
LINE
  5
78A
  8
0
 62
     7
 10
173.98706100000001
 20
1.4999400000000001
 30
0.0
 11
263.75521900000001
 21
1.4999400000000001
 31
0.0
  0
LINE
  5
78B
  8
0
 62
     7
 10
206.73344399999991
 20
102.9999389999999
 30
0.0
 11
263.75521900000001
 21
102.9999389999999
 31
0.0
  0
POLYLINE
  5
78C
  8
0
 62
     7
 66
     1
 10
0.0
 20
0.0
 30
0.0
  0
VERTEX
  5
BE4
  8
0
 62
     7
 10
261.23757899999993
 20
3.4317919999999988
 30
0.0
  0
VERTEX
  5
BE5
  8
0
 62
     7
 10
261.75521900000001
 20
1.4999400000000001
 30
0.0
  0
VERTEX
  5
BE6
  8
0
 62
     7
 10
262.27282700000001
 20
3.4317919999999988
 30
0.0
  0
SEQEND
  5
BE7
  8
0
 62
     7
  0
POLYLINE
  5
791
  8
0
 62
     7
 66
     1
 10
0.0
 20
0.0
 30
0.0
  0
VERTEX
  5
BE8
  8
0
 62
     7
 10
262.27282700000001
 20
101.0680849999999
 30
0.0
  0
VERTEX
  5
BE9
  8
0
 62
     7
 10
261.75521900000001
 20
102.9999389999999
 30
0.0
  0
VERTEX
  5
BEA
  8
0
 62
     7
 10
261.23757899999993
 20
101.0680849999999
 30
0.0
  0
SEQEND
  5
BEB
  8
0
 62
     7
  0
LINE
  5
796
  8
0
 62
     7
 10
261.75521900000001
 20
1.4999400000000001
 30
0.0
 11
261.75521900000001
 21
102.9999389999999
 31
0.0
  0
ENDBLK
  5
797
  8
0
  0
BLOCK
  8
0
  2
BLOCK48
 70
     0
 10
0.0
 20
0.0
 30
0.0
  3
BLOCK48
  1

  0
TEXT
  5
799
  8
0
 62
     7
 10
233.42247
 20
42.361088000000002
 30
0.0
 40
3.5
  1
17
 50
270.0
 41
1.58730231292517
 72
     5
 11
233.42247
 21
36.527752
 31
0.0
  0
TEXT
  5
79A
  8
0
 62
     7
 10
233.42247
 20
46.861088000000002
 30
0.0
 40
3.5
  1
%%c
 50
270.0
 41
1.3333333333333319
 72
     5
 11
233.42247
 21
43.361088000000002
 31
0.0
  0
LINE
  5
79B
  8
0
 62
     7
 10
194.23666399999991
 20
55.012936000000003
 30
0.0
 11
233.42247
 21
55.012936000000003
 31
0.0
  0
LINE
  5
79C
  8
0
 62
     7
 10
194.23666399999991
 20
72.030936999999994
 30
0.0
 11
233.42247
 21
72.030936999999994
 31
0.0
  0
POLYLINE
  5
79D
  8
0
 62
     7
 66
     1
 10
0.0
 20
0.0
 30
0.0
  0
VERTEX
  5
BEC
  8
0
 62
     7
 10
231.94010899999989
 20
70.099082999999993
 30
0.0
  0
VERTEX
  5
BED
  8
0
 62
     7
 10
231.42247
 20
72.030936999999994
 30
0.0
  0
VERTEX
  5
BEE
  8
0
 62
     7
 10
230.904831
 20
70.099082999999993
 30
0.0
  0
SEQEND
  5
BEF
  8
0
 62
     7
  0
POLYLINE
  5
7A2
  8
0
 62
     7
 66
     1
 10
0.0
 20
0.0
 30
0.0
  0
VERTEX
  5
BF0
  8
0
 62
     7
 10
230.904831
 20
56.944790000000012
 30
0.0
  0
VERTEX
  5
BF1
  8
0
 62
     7
 10
231.42247
 20
55.012936000000003
 30
0.0
  0
VERTEX
  5
BF2
  8
0
 62
     7
 10
231.94010899999989
 20
56.944790000000012
 30
0.0
  0
SEQEND
  5
BF3
  8
0
 62
     7
  0
LINE
  5
7A7
  8
0
 62
     7
 10
231.42247
 20
36.527752
 30
0.0
 11
231.42247
 21
72.030936999999994
 31
0.0
  0
ENDBLK
  5
7A8
  8
0
  0
BLOCK
  8
0
  2
BLOCK49
 70
     0
 10
0.0
 20
0.0
 30
0.0
  3
BLOCK49
  1

  0
TEXT
  5
7AA
  8
0
 62
     6
 10
-29.049917000000001
 20
58.599936999999997
 30
0.0
 40
3.0
  1
18x18
 50
270.0
 41
1.51412440677966
 72
     5
 11
-29.049917000000001
 21
45.199936000000001
 31
0.0
  0
LINE
  5
7AB
  8
0
 62
     6
 10
31.23706099999999
 20
65.599936999999997
 30
0.0
 11
-32.049919000000003
 21
65.599936999999997
 31
0.0
  0
LINE
  5
7AC
  8
0
 62
     6
 10
25.237061000000001
 20
77.999938999999998
 30
0.0
 11
-32.049919000000003
 21
77.999938999999998
 31
0.0
  0
POLYLINE
  5
7AD
  8
0
 62
     6
 66
     1
 10
0.0
 20
0.0
 30
0.0
  0
VERTEX
  5
BF4
  8
0
 62
     6
 10
-29.53228
 20
63.668086999999993
 30
0.0
  0
VERTEX
  5
BF5
  8
0
 62
     6
 10
-30.04991699999999
 20
65.599936999999997
 30
0.0
  0
VERTEX
  5
BF6
  8
0
 62
     6
 10
-30.567556
 20
63.668086999999993
 30
0.0
  0
SEQEND
  5
BF7
  8
0
 62
     6
  0
POLYLINE
  5
7B2
  8
0
 62
     6
 66
     1
 10
0.0
 20
0.0
 30
0.0
  0
VERTEX
  5
BF8
  8
0
 62
     6
 10
-30.567556
 20
79.931792999999999
 30
0.0
  0
VERTEX
  5
BF9
  8
0
 62
     6
 10
-30.04991699999999
 20
77.999938999999998
 30
0.0
  0
VERTEX
  5
BFA
  8
0
 62
     6
 10
-29.53228
 20
79.931792999999999
 30
0.0
  0
SEQEND
  5
BFB
  8
0
 62
     6
  0
LINE
  5
7B7
  8
0
 62
     6
 10
-30.04991699999999
 20
45.199936000000001
 30
0.0
 11
-30.04991699999999
 21
82.999938999999998
 31
0.0
  0
ENDBLK
  5
7B8
  8
0
  0
BLOCK
  8
0
  2
BLOCK50
 70
     0
 10
0.0
 20
0.0
 30
0.0
  3
BLOCK50
  1

  0
LINE
  5
7BA
  8
0
 62
     3
 10
30.73706099999999
 20
50.933773000000002
 30
0.0
 11
31.670895000000002
 21
49.999938999999998
 31
0.0
  0
LINE
  5
7BB
  8
0
 62
     3
 10
30.73706099999999
 20
51.994433999999998
 30
0.0
 11
32.731555999999991
 21
49.999938999999998
 31
0.0
  0
LINE
  5
7BC
  8
0
 62
     3
 10
30.73706099999999
 20
53.055095999999999
 30
0.0
 11
33.792217000000001
 21
49.999938999999998
 31
0.0
  0
LINE
  5
7BD
  8
0
 62
     3
 10
30.852876999999999
 20
53.999939000000012
 30
0.0
 11
34.73706099999999
 21
50.115752999999998
 31
0.0
  0
LINE
  5
7BE
  8
0
 62
     3
 10
31.91353599999999
 20
53.999939000000012
 30
0.0
 11
34.73706099999999
 21
51.176414000000001
 31
0.0
  0
LINE
  5
7BF
  8
0
 62
     3
 10
32.97419699999999
 20
53.999939000000012
 30
0.0
 11
34.73706099999999
 21
52.237076000000002
 31
0.0
  0
LINE
  5
7C0
  8
0
 62
     3
 10
34.034855
 20
53.999939000000012
 30
0.0
 11
34.73706099999999
 21
53.297732999999987
 31
0.0
  0
ENDBLK
  5
7C1
  8
0
  0
BLOCK
  8
0
  2
BLOCK51
 70
     0
 10
0.0
 20
0.0
 30
0.0
  3
BLOCK51
  1

  0
LINE
  5
7C3
  8
0
 62
     3
 10
46.73706099999999
 20
50.843674
 30
0.0
 11
47.580795000000002
 21
49.999938999999998
 31
0.0
  0
LINE
  5
7C4
  8
0
 62
     3
 10
46.73706099999999
 20
51.904335000000003
 30
0.0
 11
48.641457000000003
 21
49.999938999999998
 31
0.0
  0
LINE
  5
7C5
  8
0
 62
     3
 10
46.73706099999999
 20
52.964995999999999
 30
0.0
 11
49.702117999999999
 21
49.999938999999998
 31
0.0
  0
LINE
  5
7C6
  8
0
 62
     3
 10
46.762778999999988
 20
53.999939000000012
 30
0.0
 11
50.73706099999999
 21
50.025653999999989
 31
0.0
  0
LINE
  5
7C7
  8
0
 62
     3
 10
47.823436999999998
 20
53.999939000000012
 30
0.0
 11
50.73706099999999
 21
51.086314999999999
 31
0.0
  0
LINE
  5
7C8
  8
0
 62
     3
 10
48.884098000000002
 20
53.999939000000012
 30
0.0
 11
50.73706099999999
 21
52.146976000000002
 31
0.0
  0
LINE
  5
7C9
  8
0
 62
     3
 10
49.944759000000012
 20
53.999939000000012
 30
0.0
 11
50.73706099999999
 21
53.207638000000003
 31
0.0
  0
ENDBLK
  5
7CA
  8
0
  0
BLOCK
  8
0
  2
BLOCK52
 70
     0
 10
0.0
 20
0.0
 30
0.0
  3
BLOCK52
  1

  0
LINE
  5
7CC
  8
0
 62
     3
 10
30.73706099999999
 20
83.814239999999998
 30
0.0
 11
31.551362999999998
 21
82.999938999999998
 31
0.0
  0
LINE
  5
7CD
  8
0
 62
     3
 10
30.73706099999999
 20
84.874900999999994
 30
0.0
 11
32.612021999999989
 21
82.999938999999998
 31
0.0
  0
LINE
  5
7CE
  8
0
 62
     3
 10
31.172684
 20
85.499938999999998
 30
0.0
 11
33.672683999999997
 21
82.999938999999998
 31
0.0
  0
LINE
  5
7CF
  8
0
 62
     3
 10
32.233344999999993
 20
85.499938999999998
 30
0.0
 11
34.733344999999993
 21
82.999938999999998
 31
0.0
  0
LINE
  5
7D0
  8
0
 62
     3
 10
33.294002999999996
 20
85.499938999999998
 30
0.0
 11
35.794002999999996
 21
82.999938999999998
 31
0.0
  0
LINE
  5
7D1
  8
0
 62
     3
 10
36.914535999999998
 20
81.879409999999993
 30
0.0
 11
39.616528000000002
 21
79.177413999999999
 31
0.0
  0
LINE
  5
7D2
  8
0
 62
     3
 10
34.354664
 20
85.499938999999998
 30
0.0
 11
40.838584999999988
 21
79.016021999999992
 31
0.0
  0
LINE
  5
7D3
  8
0
 62
     3
 10
35.415325000000003
 20
85.499938999999998
 30
0.0
 11
41.754218999999992
 21
79.161040999999997
 31
0.0
  0
LINE
  5
7D4
  8
0
 62
     3
 10
36.475982999999999
 20
85.499938999999998
 30
0.0
 11
38.750678999999991
 21
83.225243000000006
 31
0.0
  0
LINE
  5
7D5
  8
0
 62
     3
 10
40.918407000000002
 20
81.057518000000002
 30
0.0
 11
42.507785999999989
 21
79.468131999999997
 31
0.0
  0
LINE
  5
7D6
  8
0
 62
     3
 10
41.721851000000001
 20
81.314728000000002
 30
0.0
 11
43.180458000000002
 21
79.856125000000006
 31
0.0
  0
LINE
  5
7D7
  8
0
 62
     3
 10
42.292160000000003
 20
81.805083999999994
 30
0.0
 11
43.710784999999987
 21
80.386459000000002
 31
0.0
  0
LINE
  5
7D8
  8
0
 62
     3
 10
42.647835000000001
 20
82.510070999999996
 30
0.0
 11
44.154040999999992
 21
81.003860000000003
 31
0.0
  0
LINE
  5
7D9
  8
0
 62
     3
 10
42.755233999999987
 20
83.463332999999992
 30
0.0
 11
44.512058000000003
 21
81.706505000000007
 31
0.0
  0
LINE
  5
7DA
  8
0
 62
     3
 10
42.910797000000002
 20
84.368423000000007
 30
0.0
 11
44.674469000000002
 21
82.604752000000005
 31
0.0
  0
LINE
  5
7DB
  8
0
 62
     3
 10
43.407851999999998
 20
84.932030000000012
 30
0.0
 11
45.339942999999991
 21
82.999938999999998
 31
0.0
  0
LINE
  5
7DC
  8
0
 62
     3
 10
44.081817999999998
 20
85.318725999999984
 30
0.0
 11
46.400604000000001
 21
82.999938999999998
 31
0.0
  0
LINE
  5
7DD
  8
0
 62
     3
 10
44.961265999999988
 20
85.499938999999998
 30
0.0
 11
47.461265999999988
 21
82.999938999999998
 31
0.0
  0
LINE
  5
7DE
  8
0
 62
     3
 10
46.021923000000001
 20
85.499938999999998
 30
0.0
 11
48.521923000000001
 21
82.999938999999998
 31
0.0
  0
LINE
  5
7DF
  8
0
 62
     3
 10
47.082583999999997
 20
85.499938999999998
 30
0.0
 11
49.582583999999997
 21
82.999938999999998
 31
0.0
  0
LINE
  5
7E0
  8
0
 62
     3
 10
48.143245999999998
 20
85.499938999999998
 30
0.0
 11
50.643245999999998
 21
82.999938999999998
 31
0.0
  0
LINE
  5
7E1
  8
0
 62
     3
 10
49.203907000000001
 20
85.499938999999998
 30
0.0
 11
50.73706099999999
 21
83.966781999999995
 31
0.0
  0
LINE
  5
7E2
  8
0
 62
     3
 10
50.264564999999997
 20
85.499938999999998
 30
0.0
 11
50.73706099999999
 21
85.027443000000005
 31
0.0
  0
ENDBLK
  5
7E3
  8
0
  0
BLOCK
  8
0
  2
BLOCK53
 70
     0
 10
0.0
 20
0.0
 30
0.0
  3
BLOCK53
  1

  0
LINE
  5
7E5
  8
0
 62
     6
 10
168.367615
 20
91.999938999999998
 30
0.0
 11
167.17150899999999
 21
90.803832999999983
 31
0.0
  0
LINE
  5
7E6
  8
0
 62
     6
 10
170.48893699999999
 20
91.999938999999998
 30
0.0
 11
167.17150899999999
 21
88.682518000000016
 31
0.0
  0
LINE
  5
7E7
  8
0
 62
     6
 10
171.23706100000001
 20
90.626746999999995
 30
0.0
 11
168.61024499999991
 21
87.999938999999998
 31
0.0
  0
LINE
  5
7E8
  8
0
 62
     6
 10
171.23706100000001
 20
88.505431999999999
 30
0.0
 11
170.7315669999999
 21
87.999938999999998
 31
0.0
  0
ENDBLK
  5
7E9
  8
0
  0
BLOCK
  8
0
  2
BLOCK54
 70
     0
 10
0.0
 20
0.0
 30
0.0
  3
BLOCK54
  1

  0
LINE
  5
7EB
  8
0
 62
     6
 10
50.937564999999999
 20
86.999938999999998
 30
0.0
 11
50.737071999999998
 21
86.799446000000003
 31
0.0
  0
LINE
  5
7EC
  8
0
 62
     6
 10
53.058886999999999
 20
86.999938999999998
 30
0.0
 11
50.737071999999998
 21
84.678122999999999
 31
0.0
  0
LINE
  5
7ED
  8
0
 62
     6
 10
53.720267999999997
 20
85.540001000000004
 30
0.0
 11
51.180205999999998
 21
82.999938999999998
 31
0.0
  0
LINE
  5
7EE
  8
0
 62
     6
 10
53.720267999999997
 20
83.418678000000014
 30
0.0
 11
53.301524999999998
 21
82.999938999999998
 31
0.0
  0
ENDBLK
  5
7EF
  8
0
  0
BLOCK
  8
0
  2
BLOCK55
 70
     0
 10
0.0
 20
0.0
 30
0.0
  3
BLOCK55
  1

  0
LINE
  5
7F1
  8
0
 62
     6
 10
44.837059000000004
 20
80.320839000000007
 30
0.0
 11
45.157963000000002
 21
79.999938999999983
 31
0.0
  0
LINE
  5
7F2
  8
0
 62
     6
 10
44.837059000000004
 20
82.442161999999996
 30
0.0
 11
47.279282000000002
 21
79.999938999999983
 31
0.0
  0
LINE
  5
7F3
  8
0
 62
     6
 10
46.400604000000001
 20
82.999938999999998
 30
0.0
 11
49.400604000000001
 21
79.999938999999983
 31
0.0
  0
LINE
  5
7F4
  8
0
 62
     6
 10
48.521923000000001
 20
82.999938999999998
 30
0.0
 11
51.521923000000001
 21
79.999938999999983
 31
0.0
  0
LINE
  5
7F5
  8
0
 62
     6
 10
50.643245999999998
 20
82.999938999999998
 30
0.0
 11
53.643242000000001
 21
79.999938999999983
 31
0.0
  0
LINE
  5
7F6
  8
0
 62
     6
 10
52.764564999999997
 20
82.999938999999998
 30
0.0
 11
54.720267999999997
 21
81.044235000000015
 31
0.0
  0
ENDBLK
  5
7F7
  8
0
  0
BLOCK
  8
0
  2
BLOCK56
 70
     0
 10
0.0
 20
0.0
 30
0.0
  3
BLOCK56
  1

  0
LINE
  5
7F9
  8
0
 62
     6
 10
31.737074
 20
78.571586999999994
 30
0.0
 11
32.308720000000001
 21
77.999938999999998
 31
0.0
  0
LINE
  5
7FA
  8
0
 62
     6
 10
31.737074
 20
80.692909
 30
0.0
 11
34.430042
 21
77.999938999999998
 31
0.0
  0
LINE
  5
7FB
  8
0
 62
     6
 10
31.737074
 20
82.814231999999976
 30
0.0
 11
36.551360999999993
 21
77.999938999999998
 31
0.0
  0
LINE
  5
7FC
  8
0
 62
     6
 10
33.672683999999997
 20
82.999938999999998
 30
0.0
 11
36.637062
 21
80.035561000000001
 31
0.0
  0
LINE
  5
7FD
  8
0
 62
     6
 10
35.794002999999996
 20
82.999938999999998
 30
0.0
 11
36.637062
 21
82.156882999999993
 31
0.0
  0
ENDBLK
  5
7FE
  8
0
  0
BLOCK
  8
0
  2
BLOCK57
 70
     0
 10
0.0
 20
0.0
 30
0.0
  3
BLOCK57
  1

  0
LINE
  5
800
  8
0
 62
     6
 10
45.837059000000004
 20
79.320839000000007
 30
0.0
 11
47.157963000000002
 21
77.999938999999998
 31
0.0
  0
LINE
  5
801
  8
0
 62
     6
 10
47.279282000000002
 20
79.999938999999983
 30
0.0
 11
49.279282000000002
 21
77.999938999999998
 31
0.0
  0
LINE
  5
802
  8
0
 62
     6
 10
49.400604000000001
 20
79.999938999999983
 30
0.0
 11
51.400604000000001
 21
77.999938999999998
 31
0.0
  0
LINE
  5
803
  8
0
 62
     6
 10
51.521923000000001
 20
79.999938999999983
 30
0.0
 11
53.521923000000001
 21
77.999938999999998
 31
0.0
  0
LINE
  5
804
  8
0
 62
     6
 10
53.643242000000001
 20
79.999938999999983
 30
0.0
 11
53.737071999999998
 21
79.906113000000005
 31
0.0
  0
ENDBLK
  5
805
  8
0
  0
BLOCK
  8
0
  2
BLOCK58
 70
     0
 10
0.0
 20
0.0
 30
0.0
  3
BLOCK58
  1

  0
LINE
  5
807
  8
0
 62
     6
 10
187.93705700000001
 20
79.349296999999993
 30
0.0
 11
189.2864229999999
 21
77.999938999999998
 31
0.0
  0
LINE
  5
808
  8
0
 62
     6
 10
187.93705700000001
 20
81.470618999999999
 30
0.0
 11
191.40772999999999
 21
77.999938999999998
 31
0.0
  0
LINE
  5
809
  8
0
 62
     6
 10
188.52905299999989
 20
82.999938999999998
 30
0.0
 11
192.73706100000001
 21
78.791938999999999
 31
0.0
  0
LINE
  5
80A
  8
0
 62
     6
 10
190.65037499999991
 20
82.999938999999998
 30
0.0
 11
192.73706100000001
 21
80.913253999999995
 31
0.0
  0
ENDBLK
  5
80B
  8
0
  0
BLOCK
  8
0
  2
BLOCK59
 70
     0
 10
0.0
 20
0.0
 30
0.0
  3
BLOCK59
  1

  0
LINE
  5
80D
  8
0
 62
     6
 10
166.17150899999999
 20
84.144287000000006
 30
0.0
 11
171.93414300000001
 21
78.381644999999992
 31
0.0
  0
LINE
  5
80E
  8
0
 62
     6
 10
166.17150899999999
 20
86.265609999999995
 30
0.0
 11
174.43718000000001
 21
77.999938999999998
 31
0.0
  0
LINE
  5
80F
  8
0
 62
     6
 10
166.55850199999989
 20
87.999938999999998
 30
0.0
 11
176.558502
 21
77.999938999999998
 31
0.0
  0
LINE
  5
810
  8
0
 62
     6
 10
169.724457
 20
86.955292000000014
 30
0.0
 11
178.67981
 21
77.999938999999998
 31
0.0
  0
LINE
  5
811
  8
0
 62
     6
 10
175.801132
 20
82.999938999999998
 30
0.0
 11
179.5370639999999
 21
79.264015000000001
 31
0.0
  0
LINE
  5
812
  8
0
 62
     6
 10
177.92245500000001
 20
82.999938999999998
 30
0.0
 11
179.5370639999999
 21
81.385338000000004
 31
0.0
  0
ENDBLK
  5
813
  8
0
  0
BLOCK
  8
0
  2
BLOCK60
 70
     0
 10
0.0
 20
0.0
 30
0.0
  3
BLOCK60
  1

  0
LINE
  5
815
  8
0
 62
     6
 10
171.338165
 20
77.999938999999998
 30
0.0
 11
171.23706100000001
 21
77.898833999999994
 31
0.0
  0
LINE
  5
816
  8
0
 62
     6
 10
173.45948799999991
 20
77.999938999999998
 30
0.0
 11
171.23706100000001
 21
75.777512000000002
 31
0.0
  0
LINE
  5
817
  8
0
 62
     6
 10
173.73706100000001
 20
76.156188999999998
 30
0.0
 11
171.23706100000001
 21
73.656196999999992
 31
0.0
  0
LINE
  5
818
  8
0
 62
     6
 10
173.73706100000001
 20
74.034874000000002
 30
0.0
 11
171.23706100000001
 21
71.534874000000002
 31
0.0
  0
LINE
  5
819
  8
0
 62
     6
 10
173.73706100000001
 20
71.913550999999998
 30
0.0
 11
171.23706100000001
 21
69.413558999999992
 31
0.0
  0
LINE
  5
81A
  8
0
 62
     6
 10
173.73706100000001
 20
69.792236000000003
 30
0.0
 11
171.23706100000001
 21
67.292236000000003
 31
0.0
  0
LINE
  5
81B
  8
0
 62
     6
 10
173.73706100000001
 20
67.670913999999996
 30
0.0
 11
172.33528100000001
 21
66.269134999999991
 31
0.0
  0
ENDBLK
  5
81C
  8
0
  0
BLOCK
  8
0
  2
BLOCK61
 70
     0
 10
0.0
 20
0.0
 30
0.0
  3
BLOCK61
  1

  0
LINE
  5
81E
  8
0
 62
     2
 10
184.4806209999999
 20
-4.168404999999999
 30
0.0
 11
186.31227100000001
 21
-6.000051
 31
0.0
  0
LINE
  5
81F
  8
0
 62
     2
 10
186.433594
 20
-4.000051
 30
0.0
 11
188.43359399999991
 21
-6.000051
 31
0.0
  0
LINE
  5
820
  8
0
 62
     2
 10
188.554901
 20
-4.000051
 30
0.0
 11
190.554901
 21
-6.000051
 31
0.0
  0
LINE
  5
821
  8
0
 62
     2
 10
190.67622399999991
 20
-4.000051
 30
0.0
 11
192.67622399999999
 21
-6.000051
 31
0.0
  0
LINE
  5
822
  8
0
 62
     2
 10
192.7975459999999
 20
-4.000051
 30
0.0
 11
194.7975459999999
 21
-6.000051
 31
0.0
  0
LINE
  5
823
  8
0
 62
     2
 10
194.91886899999989
 20
-4.000051
 30
0.0
 11
196.918869
 21
-6.000051
 31
0.0
  0
LINE
  5
824
  8
0
 62
     2
 10
197.04019199999999
 20
-4.000051
 30
0.0
 11
199.04019199999999
 21
-6.000051
 31
0.0
  0
LINE
  5
825
  8
0
 62
     2
 10
199.16151400000001
 20
-4.000051
 30
0.0
 11
201.1615139999999
 21
-6.000051
 31
0.0
  0
LINE
  5
826
  8
0
 62
     2
 10
201.282837
 20
-4.000051
 30
0.0
 11
203.28283699999989
 21
-6.000051
 31
0.0
  0
LINE
  5
827
  8
0
 62
     2
 10
203.404144
 20
-4.000051
 30
0.0
 11
205.404144
 21
-6.000051
 31
0.0
  0
LINE
  5
828
  8
0
 62
     2
 10
205.52546699999999
 20
-4.000051
 30
0.0
 11
207.52546699999999
 21
-6.000051
 31
0.0
  0
LINE
  5
829
  8
0
 62
     2
 10
207.6467899999999
 20
-4.000051
 30
0.0
 11
209.6467899999999
 21
-6.000051
 31
0.0
  0
LINE
  5
82A
  8
0
 62
     2
 10
209.76811199999989
 20
-4.000051
 30
0.0
 11
211.76811199999989
 21
-6.000051
 31
0.0
  0
LINE
  5
82B
  8
0
 62
     2
 10
211.88943499999999
 20
-4.000051
 30
0.0
 11
213.88943499999999
 21
-6.000051
 31
0.0
  0
LINE
  5
82C
  8
0
 62
     2
 10
214.01075700000001
 20
-4.000051
 30
0.0
 11
216.01075700000001
 21
-6.000051
 31
0.0
  0
LINE
  5
82D
  8
0
 62
     2
 10
216.1320649999999
 20
-4.000051
 30
0.0
 11
218.1320649999999
 21
-6.000051
 31
0.0
  0
LINE
  5
82E
  8
0
 62
     2
 10
218.25338699999989
 20
-4.000051
 30
0.0
 11
220.25338699999989
 21
-6.000051
 31
0.0
  0
LINE
  5
82F
  8
0
 62
     2
 10
220.37470999999999
 20
-4.000051
 30
0.0
 11
222.37470999999999
 21
-6.000051
 31
0.0
  0
LINE
  5
830
  8
0
 62
     2
 10
222.49603300000001
 20
-4.000051
 30
0.0
 11
224.49603300000001
 21
-6.000051
 31
0.0
  0
LINE
  5
831
  8
0
 62
     2
 10
224.61735499999989
 20
-4.000051
 30
0.0
 11
226.61735499999989
 21
-6.000051
 31
0.0
  0
LINE
  5
832
  8
0
 62
     2
 10
226.73867799999991
 20
-4.000051
 30
0.0
 11
228.73867799999991
 21
-6.000051
 31
0.0
  0
LINE
  5
833
  8
0
 62
     2
 10
228.85998499999999
 20
-4.000051
 30
0.0
 11
230.85998499999999
 21
-6.000051
 31
0.0
  0
LINE
  5
834
  8
0
 62
     2
 10
230.98130800000001
 20
-4.000051
 30
0.0
 11
232.98130800000001
 21
-6.000051
 31
0.0
  0
LINE
  5
835
  8
0
 62
     2
 10
233.10263099999989
 20
-4.000051
 30
0.0
 11
234.6011199999999
 21
-5.4985390000000001
 31
0.0
  0
LINE
  5
836
  8
0
 62
     2
 10
235.22395299999991
 20
-4.000051
 30
0.0
 11
235.56959499999999
 21
-4.3456960000000002
 31
0.0
  0
ENDBLK
  5
837
  8
0
  0
BLOCK
  8
0
  2
BLOCK62
 70
     0
 10
0.0
 20
0.0
 30
0.0
  3
BLOCK62
  1

  0
LINE
  5
839
  8
0
 62
     2
 10
165.9806209999999
 20
-4.760286999999999
 30
0.0
 11
167.22038299999991
 21
-6.000051
 31
0.0
  0
LINE
  5
83A
  8
0
 62
     2
 10
167.34170499999999
 20
-4.000051
 30
0.0
 11
169.34170499999999
 21
-6.000051
 31
0.0
  0
LINE
  5
83B
  8
0
 62
     2
 10
169.46302800000001
 20
-4.000051
 30
0.0
 11
171.46302800000001
 21
-6.000051
 31
0.0
  0
LINE
  5
83C
  8
0
 62
     2
 10
171.584351
 20
-4.000051
 30
0.0
 11
173.584351
 21
-6.000051
 31
0.0
  0
LINE
  5
83D
  8
0
 62
     2
 10
173.7056729999999
 20
-4.000051
 30
0.0
 11
175.7056729999999
 21
-6.000051
 31
0.0
  0
LINE
  5
83E
  8
0
 62
     2
 10
175.82698099999999
 20
-4.000051
 30
0.0
 11
177.4806209999999
 21
-5.6536860000000004
 31
0.0
  0
ENDBLK
  5
83F
  8
0
  0
BLOCK
  8
0
  2
BLOCK63
 70
     0
 10
0.0
 20
0.0
 30
0.0
  3
BLOCK63
  1

  0
LINE
  5
841
  8
0
 62
     2
 10
42.480625000000003
 20
-4.2968619999999991
 30
0.0
 11
44.183815000000003
 21
-6.000051
 31
0.0
  0
LINE
  5
842
  8
0
 62
     2
 10
44.305134000000002
 20
-4.000051
 30
0.0
 11
46.305134000000002
 21
-6.000051
 31
0.0
  0
LINE
  5
843
  8
0
 62
     2
 10
46.426456000000002
 20
-4.000051
 30
0.0
 11
48.426456000000002
 21
-6.000051
 31
0.0
  0
LINE
  5
844
  8
0
 62
     2
 10
48.547775000000001
 20
-4.000051
 30
0.0
 11
50.547775000000001
 21
-6.000051
 31
0.0
  0
LINE
  5
845
  8
0
 62
     2
 10
50.669094000000001
 20
-4.000051
 30
0.0
 11
52.669093999999987
 21
-6.000051
 31
0.0
  0
LINE
  5
846
  8
0
 62
     2
 10
52.790416999999998
 20
-4.000051
 30
0.0
 11
53.980625000000003
 21
-5.1902609999999996
 31
0.0
  0
ENDBLK
  5
847
  8
0
  0
BLOCK
  8
0
  2
BLOCK64
 70
     0
 10
0.0
 20
0.0
 30
0.0
  3
BLOCK64
  1

  0
LINE
  5
849
  8
0
 62
     2
 10
-9.8679659999999991
 20
-4.9812769999999986
 30
0.0
 11
-8.8491910000000011
 21
-6.000051
 31
0.0
  0
LINE
  5
84A
  8
0
 62
     2
 10
-8.7278699999999994
 20
-4.000051
 30
0.0
 11
-6.7278699999999994
 21
-6.000051
 31
0.0
  0
LINE
  5
84B
  8
0
 62
     2
 10
-6.6065500000000004
 20
-4.000051
 30
0.0
 11
-4.6065500000000004
 21
-6.000051
 31
0.0
  0
LINE
  5
84C
  8
0
 62
     2
 10
-4.4852299999999996
 20
-4.000051
 30
0.0
 11
-2.4852300000000001
 21
-6.000051
 31
0.0
  0
LINE
  5
84D
  8
0
 62
     2
 10
-2.3639099999999988
 20
-4.000051
 30
0.0
 11
-0.36391
 21
-6.000051
 31
0.0
  0
LINE
  5
84E
  8
0
 62
     2
 10
-0.242589
 20
-4.000051
 30
0.0
 11
1.757409999999999
 21
-6.000051
 31
0.0
  0
LINE
  5
84F
  8
0
 62
     2
 10
1.8787309999999999
 20
-4.000051
 30
0.0
 11
3.8787309999999988
 21
-6.000051
 31
0.0
  0
LINE
  5
850
  8
0
 62
     2
 10
4.000051
 20
-4.000051
 30
0.0
 11
6.000051
 21
-6.000051
 31
0.0
  0
LINE
  5
851
  8
0
 62
     2
 10
6.121370999999999
 20
-4.000051
 30
0.0
 11
8.1213709999999981
 21
-6.000051
 31
0.0
  0
LINE
  5
852
  8
0
 62
     2
 10
8.2426910000000007
 20
-4.000051
 30
0.0
 11
10.242691000000001
 21
-6.000051
 31
0.0
  0
LINE
  5
853
  8
0
 62
     2
 10
10.364012000000001
 20
-4.000051
 30
0.0
 11
12.36401199999999
 21
-6.000051
 31
0.0
  0
LINE
  5
854
  8
0
 62
     2
 10
12.485332
 20
-4.000051
 30
0.0
 11
14.485332
 21
-6.000051
 31
0.0
  0
LINE
  5
855
  8
0
 62
     2
 10
14.606652
 20
-4.000051
 30
0.0
 11
16.606650999999999
 21
-6.000051
 31
0.0
  0
LINE
  5
856
  8
0
 62
     2
 10
16.727972000000001
 20
-4.000051
 30
0.0
 11
18.727972000000001
 21
-6.000051
 31
0.0
  0
LINE
  5
857
  8
0
 62
     2
 10
18.849292999999989
 20
-4.000051
 30
0.0
 11
20.849292999999999
 21
-6.000051
 31
0.0
  0
LINE
  5
858
  8
0
 62
     2
 10
20.970613
 20
-4.000051
 30
0.0
 11
22.970611999999988
 21
-6.000051
 31
0.0
  0
LINE
  5
859
  8
0
 62
     2
 10
23.091932
 20
-4.000051
 30
0.0
 11
25.091932
 21
-6.000051
 31
0.0
  0
LINE
  5
85A
  8
0
 62
     2
 10
25.213252999999991
 20
-4.000051
 30
0.0
 11
27.213253000000002
 21
-6.000051
 31
0.0
  0
LINE
  5
85B
  8
0
 62
     2
 10
27.334574
 20
-4.000051
 30
0.0
 11
29.334573999999989
 21
-6.000051
 31
0.0
  0
LINE
  5
85C
  8
0
 62
     2
 10
29.455892999999989
 20
-4.000051
 30
0.0
 11
31.455893
 21
-6.000051
 31
0.0
  0
LINE
  5
85D
  8
0
 62
     2
 10
31.577213
 20
-4.000051
 30
0.0
 11
33.577213
 21
-6.000051
 31
0.0
  0
LINE
  5
85E
  8
0
 62
     2
 10
33.698532
 20
-4.000051
 30
0.0
 11
35.480625000000003
 21
-5.7821429999999987
 31
0.0
  0
ENDBLK
  5
85F
  8
0
  0
BLOCK
  8
0
  2
BLOCK65
 70
     0
 10
0.0
 20
0.0
 30
0.0
  3
BLOCK65
  1

  0
LINE
  5
861
  8
0
 62
     7
 10
175.71653699999999
 20
50.517136000000001
 30
0.0
 11
176.59330700000001
 21
51.252831
 31
0.0
  0
LINE
  5
862
  8
0
 62
     7
 10
174.549744
 20
50.517136000000001
 30
0.0
 11
176.59330700000001
 21
52.231884000000001
 31
0.0
  0
LINE
  5
863
  8
0
 62
     7
 10
174.23745700000001
 20
51.234146000000003
 30
0.0
 11
176.59330700000001
 21
53.210940999999998
 31
0.0
  0
LINE
  5
864
  8
0
 62
     7
 10
174.23745700000001
 20
52.213203
 30
0.0
 11
176.59330700000001
 21
54.189994999999989
 31
0.0
  0
LINE
  5
865
  8
0
 62
     7
 10
174.23745700000001
 20
53.192256999999998
 30
0.0
 11
176.40725699999999
 21
55.012936000000003
 31
0.0
  0
LINE
  5
866
  8
0
 62
     7
 10
174.23745700000001
 20
54.171314000000002
 30
0.0
 11
175.24046299999989
 21
55.012936000000003
 31
0.0
  0
ENDBLK
  5
867
  8
0
  0
BLOCK
  8
0
  2
BLOCK66
 70
     0
 10
0.0
 20
0.0
 30
0.0
  3
BLOCK66
  1

  0
LINE
  5
869
  8
0
 62
     7
 10
179.18663000000001
 20
72.030936999999994
 30
0.0
 11
179.74925200000001
 21
72.503035999999994
 31
0.0
  0
LINE
  5
86A
  8
0
 62
     7
 10
178.01983599999991
 20
72.030936999999994
 30
0.0
 11
179.74925200000001
 21
73.482085999999995
 31
0.0
  0
LINE
  5
86B
  8
0
 62
     7
 10
176.85304300000001
 20
72.030936999999994
 30
0.0
 11
179.74925200000001
 21
74.461143000000007
 31
0.0
  0
LINE
  5
86C
  8
0
 62
     7
 10
175.686249
 20
72.030936999999994
 30
0.0
 11
179.74925200000001
 21
75.440201000000002
 31
0.0
  0
LINE
  5
86D
  8
0
 62
     7
 10
174.51945499999991
 20
72.030936999999994
 30
0.0
 11
179.74925200000001
 21
76.419257999999999
 31
0.0
  0
LINE
  5
86E
  8
0
 62
     7
 10
174.23745700000001
 20
72.773360999999994
 30
0.0
 11
179.74925200000001
 21
77.398308
 31
0.0
  0
LINE
  5
86F
  8
0
 62
     7
 10
174.23745700000001
 20
73.752418999999975
 30
0.0
 11
179.299454
 21
77.999938999999998
 31
0.0
  0
LINE
  5
870
  8
0
 62
     7
 10
174.23745700000001
 20
74.731476000000001
 30
0.0
 11
178.13265999999999
 21
77.999938999999998
 31
0.0
  0
LINE
  5
871
  8
0
 62
     7
 10
174.23745700000001
 20
75.710526000000002
 30
0.0
 11
176.96586600000001
 21
77.999938999999998
 31
0.0
  0
LINE
  5
872
  8
0
 62
     7
 10
174.23745700000001
 20
76.689582999999985
 30
0.0
 11
175.799072
 21
77.999938999999998
 31
0.0
  0
LINE
  5
873
  8
0
 62
     7
 10
174.23745700000001
 20
77.668639999999996
 30
0.0
 11
174.63227800000001
 21
77.999938999999998
 31
0.0
  0
ENDBLK
  5
874
  8
0
  0
BLOCK
  8
0
  2
BLOCK67
 70
     0
 10
0.0
 20
0.0
 30
0.0
  3
BLOCK67
  1

  0
LINE
  5
876
  8
0
 62
     7
 10
193.18815599999991
 20
72.030936999999994
 30
0.0
 11
193.23666399999991
 21
72.071640000000002
 31
0.0
  0
LINE
  5
877
  8
0
 62
     7
 10
192.02136200000001
 20
72.030936999999994
 30
0.0
 11
193.23666399999991
 21
73.050690000000003
 31
0.0
  0
LINE
  5
878
  8
0
 62
     7
 10
190.85456799999989
 20
72.030936999999994
 30
0.0
 11
193.23666399999991
 21
74.029747
 31
0.0
  0
LINE
  5
879
  8
0
 62
     7
 10
189.6877749999999
 20
72.030936999999994
 30
0.0
 11
193.23666399999991
 21
75.008803999999984
 31
0.0
  0
LINE
  5
87A
  8
0
 62
     7
 10
188.52098100000001
 20
72.030936999999994
 30
0.0
 11
193.23666399999991
 21
75.987861999999993
 31
0.0
  0
LINE
  5
87B
  8
0
 62
     7
 10
187.72453300000001
 20
72.34169
 30
0.0
 11
193.23666399999991
 21
76.966910999999996
 31
0.0
  0
LINE
  5
87C
  8
0
 62
     7
 10
187.72457900000001
 20
73.320793000000009
 30
0.0
 11
193.23666399999991
 21
77.945968999999991
 31
0.0
  0
LINE
  5
87D
  8
0
 62
     7
 10
187.72463999999991
 20
74.299895999999976
 30
0.0
 11
192.134186
 21
77.999938999999998
 31
0.0
  0
LINE
  5
87E
  8
0
 62
     7
 10
187.7247009999999
 20
75.278998999999999
 30
0.0
 11
190.9673919999999
 21
77.999938999999998
 31
0.0
  0
LINE
  5
87F
  8
0
 62
     7
 10
187.724762
 20
76.258101999999994
 30
0.0
 11
189.80059800000001
 21
77.999938999999998
 31
0.0
  0
LINE
  5
880
  8
0
 62
     7
 10
187.724808
 20
77.237206
 30
0.0
 11
188.633804
 21
77.999938999999998
 31
0.0
  0
ENDBLK
  5
881
  8
0
  0
BLOCK
  8
0
  2
BLOCK68
 70
     0
 10
0.0
 20
0.0
 30
0.0
  3
BLOCK68
  1

  0
LINE
  5
883
  8
0
 62
     7
 10
193.218445
 20
50.517136000000001
 30
0.0
 11
193.23666399999991
 21
50.532420999999999
 31
0.0
  0
LINE
  5
884
  8
0
 62
     7
 10
192.05165099999991
 20
50.517136000000001
 30
0.0
 11
193.23666399999991
 21
51.511477999999997
 31
0.0
  0
LINE
  5
885
  8
0
 62
     7
 10
190.88485700000001
 20
50.517136000000001
 30
0.0
 11
193.23666399999991
 21
52.490531999999988
 31
0.0
  0
LINE
  5
886
  8
0
 62
     7
 10
190.8808139999999
 20
51.492794000000011
 30
0.0
 11
193.23666399999991
 21
53.469588999999999
 31
0.0
  0
LINE
  5
887
  8
0
 62
     7
 10
190.8808139999999
 20
52.471851000000001
 30
0.0
 11
193.23666399999991
 21
54.448642999999997
 31
0.0
  0
LINE
  5
888
  8
0
 62
     7
 10
190.8808139999999
 20
53.450905000000013
 30
0.0
 11
192.74237099999999
 21
55.012936000000003
 31
0.0
  0
LINE
  5
889
  8
0
 62
     7
 10
190.8808139999999
 20
54.429961999999989
 30
0.0
 11
191.57557700000001
 21
55.012936000000003
 31
0.0
  0
ENDBLK
  5
88A
  8
0
  0
BLOCK
  8
0
  2
BLOCK69
 70
     0
 10
0.0
 20
0.0
 30
0.0
  3
BLOCK69
  1

  0
TEXT
  5
88C
  8
0
 62
     7
 10
-89.0
 20
-5.0
 30
0.0
 40
3.0
  1
X
 50
180.0
 41
0.9777764444444425
 72
     5
 11
-91.199996999999996
 21
-5.0
 31
0.0
  0
ENDBLK
  5
88D
  8
0
  0
BLOCK
  8
0
  2
BLOCK70
 70
     0
 10
0.0
 20
0.0
 30
0.0
  3
BLOCK70
  1

  0
TEXT
  5
88F
  8
0
 62
     7
 10
1.0
 20
138.0
 30
0.0
 40
3.0
  1
Y
 50
180.0
 41
0.9777777777777778
 72
     5
 11
-1.1999999999999991
 21
138.0
 31
0.0
  0
ENDBLK
  5
890
  8
0
  0
BLOCK
  8
0
  2
BLOCK71
 70
     0
 10
0.0
 20
0.0
 30
0.0
  3
BLOCK71
  1

  0
TEXT
  5
892
  8
0
 62
     7
 10
-12.0
 20
113.39672899999999
 30
0.0
 40
3.0
  1
52,5
 50
180.0
 41
1.4876960629295159
 72
     5
 11
-22.44997
 21
113.39672899999999
 31
0.0
  0
ENDBLK
  5
893
  8
0
  0
BLOCK
  8
0
  2
BLOCK72
 70
     0
 10
0.0
 20
0.0
 30
0.0
  3
BLOCK72
  1

  0
TEXT
  5
895
  8
0
 62
     7
 10
-29.499984999999992
 20
-111.107635
 30
0.0
 40
3.0
  1
17,5
 50
180.0
 41
1.6266407931290441
 72
     5
 11
-39.949954999999989
 21
-111.107635
 31
0.0
  0
ENDBLK
  5
896
  8
0
  0
BLOCK
  8
0
  2
BLOCK73
 70
     0
 10
0.0
 20
0.0
 30
0.0
  3
BLOCK73
  1

  0
TEXT
  5
898
  8
0
 62
     7
 10
-68.221076999999994
 20
-11.495056
 30
0.0
 40
3.0
  1
71,75
 50
270.0000347248174
 41
1.548516199592233
 72
     5
 11
-68.221069
 21
-24.695017
 31
0.0
  0
ENDBLK
  5
899
  8
0
  0
BLOCK
  8
0
  2
BLOCK74
 70
     0
 10
0.0
 20
0.0
 30
0.0
  3
BLOCK74
  1

  0
TEXT
  5
89B
  8
0
 62
     7
 10
104.4745939999999
 20
14.25
 30
0.0
 40
3.0
  1
139
 50
270.00005952823722
 41
1.409019097613331
 72
     5
 11
104.474602
 21
6.5500199999999991
 31
0.0
  0
ENDBLK
  5
89C
  8
0
  0
BLOCK
  8
0
  2
BLOCK75
 70
     0
 10
0.0
 20
0.0
 30
0.0
  3
BLOCK75
  1

  0
TEXT
  5
89E
  8
0
 62
     7
 10
-77.029060000000001
 20
72.910888999999997
 30
0.0
 40
3.0
  1
 5,5
 50
170.73232077794191
 41
1.7063221351416531
 72
     5
 11
-87.342620999999994
 21
74.593826000000007
 31
0.0
  0
ENDBLK
  5
89F
  8
0
  0
BLOCK
  8
0
  2
BLOCK76
 70
     0
 10
0.0
 20
0.0
 30
0.0
  3
BLOCK76
  1

  0
TEXT
  5
8A1
  8
0
 62
     7
 10
-75.449943999999988
 20
72.653198000000003
 30
0.0
 40
3.0
  1
%%c
 50
170.7323468888994
 41
0.9777760003059649
 72
     5
 11
-77.621223000000001
 21
73.007499999999993
 31
0.0
  0
ENDBLK
  5
8A2
  8
0
  0
BLOCK
  8
0
  2
BLOCK77
 70
     0
 10
0.0
 20
0.0
 30
0.0
  3
BLOCK77
  1

  0
TEXT
  5
8A4
  8
0
 62
     7
 10
-120.454712
 20
79.996948000000003
 30
0.0
 40
3.0
  1
 - M5
 50
170.73231847880021
 41
1.470869013752119
 72
     5
 11
-133.4823759999999
 21
82.122764999999987
 31
0.0
  0
ENDBLK
  5
8A5
  8
0
  0
BLOCK
  8
0
  2
BLOCK78
 70
     0
 10
0.0
 20
0.0
 30
0.0
  3
BLOCK78
  1

  0
TEXT
  5
8A7
  8
0
 62
     7
 10
0.0
 20
-124.0
 30
0.0
 40
3.0
  1
Y
 50
180.0
 41
0.9777777777777778
 72
     5
 11
-2.2000000000000002
 21
-124.0
 31
0.0
  0
ENDBLK
  5
8A8
  8
0
  0
ENDSEC
  0
SECTION
  2
ENTITIES
  0
LINE
  5
25
  8
0
 62
     7
 10
-187.93638899999999
 20
705.86162400000001
 30
0.0
 11
-187.93638899999999
 21
707.66162699999995
 31
0.0
  0
LINE
  5
26
  8
0
 62
     7
 10
-187.93638899999999
 20
705.86162400000001
 30
0.0
 11
-190.43638899999991
 21
705.86162400000001
 31
0.0
  0
LINE
  5
27
  8
0
 62
     7
 10
-190.436397
 20
541.46163000000001
 30
0.0
 11
-190.436397
 21
705.86162400000001
 31
0.0
  0
LINE
  5
28
  8
0
 62
     7
 10
-187.93638899999999
 20
541.46163000000001
 30
0.0
 11
-190.43638899999991
 21
541.46163000000001
 31
0.0
  0
LINE
  5
29
  8
0
 62
     7
 10
-187.93638899999999
 20
539.66162699999995
 30
0.0
 11
-187.93638899999999
 21
541.46163000000001
 31
0.0
  0
LINE
  5
2A
  8
0
 62
     7
 10
-181.18638899999991
 20
684.66162699999995
 30
0.0
 11
-181.18638899999991
 21
688.66162699999995
 31
0.0
  0
LINE
  5
2B
  8
0
 62
     7
 10
-184.93638899999999
 20
692.41162699999995
 30
0.0
 11
-187.93638899999999
 21
692.41162699999995
 31
0.0
  0
LINE
  5
2C
  8
0
 62
     7
 10
-187.93639699999989
 20
692.41162699999995
 30
0.0
 11
-187.93639699999989
 21
705.86162400000001
 31
0.0
  0
LINE
  5
2D
  8
0
 62
     7
 10
-181.18638899999991
 20
558.66163099999994
 30
0.0
 11
-181.18638899999991
 21
562.66163099999994
 31
0.0
  0
LINE
  5
2E
  8
0
 62
     7
 10
-184.93638899999999
 20
554.91163099999994
 30
0.0
 11
-187.93638899999999
 21
554.91163099999994
 31
0.0
  0
LINE
  5
2F
  8
0
 62
     7
 10
-187.93638899999999
 20
541.46163000000001
 30
0.0
 11
-187.93638899999999
 21
554.91162699999995
 31
0.0
  0
CIRCLE
  5
30
  8
0
 62
     7
 10
-184.93638100000001
 20
688.66163399999994
 30
0.0
 40
1.750006
  0
ARC
  5
31
  8
0
 62
     7
 10
-184.93635800000001
 20
688.66154299999994
 30
0.0
 40
3.749919999999999
 50
269.99955399999988
 51
90.000409000000005
  0
ARC
  5
32
  8
0
 62
     7
 10
-186.93638899999991
 20
707.66162699999995
 30
0.0
 40
1.0000039999999999
 50
90.000046999999995
 51
180.00048100000001
  0
CIRCLE
  5
33
  8
0
 62
     7
 10
-184.93638899999999
 20
558.66163099999994
 30
0.0
 40
1.7499990000000001
  0
ARC
  5
34
  8
0
 62
     7
 10
-186.93638899999991
 20
539.66162699999995
 30
0.0
 40
1.0
 50
180.00000900000001
 51
269.99999100000002
  0
LINE
  5
35
  8
0
  6
DASHDOT
 62
     7
 10
-184.93635800000001
 20
681.91161899999997
 30
0.0
 11
-184.93635800000001
 21
695.41145900000004
 31
0.0
  0
LINE
  5
36
  8
0
  6
DASHDOT
 62
     7
 10
-178.18644199999989
 20
688.66154299999994
 30
0.0
 11
-191.68628200000001
 21
688.66154299999994
 31
0.0
  0
CIRCLE
  5
37
  8
0
 62
     7
 10
-184.93638899999999
 20
558.66162699999995
 30
0.0
 40
3.7500010000000001
  0
LINE
  5
38
  8
0
 62
     7
 10
-161.43635800000001
 20
563.411653
 30
0.0
 11
-189.43635800000001
 21
563.411653
 31
0.0
  0
LINE
  5
39
  8
0
 62
     7
 10
-189.43635800000001
 20
563.411653
 30
0.0
 11
-189.43635800000001
 21
564.41165299999989
 31
0.0
  0
LINE
  5
3A
  8
0
 62
     7
 10
-161.43635800000001
 20
564.41165299999989
 30
0.0
 11
-190.436397
 21
564.41165299999989
 31
0.0
  0
ARC
  5
3B
  8
0
 62
     7
 10
-184.93629699999991
 20
688.66157299999998
 30
0.0
 40
3.7501059999999988
 50
90.001423999999986
 51
269.99857099999991
  0
LINE
  5
3C
  8
0
 62
     7
 10
-157.1863929999999
 20
708.66162699999995
 30
0.0
 11
-186.93638899999991
 21
708.66162699999995
 31
0.0
  0
CIRCLE
  5
3D
  8
0
 62
     7
 10
-172.93638899999991
 20
696.16161899999997
 30
0.0
 40
5.5000010000000001
  0
CIRCLE
  5
3E
  8
0
 62
     7
 10
-172.936397
 20
704.66163399999994
 30
0.0
 40
1.4000049999999991
  0
LINE
  5
3F
  8
0
 62
     7
 10
-157.1863929999999
 20
538.66162699999995
 30
0.0
 11
-186.93638899999991
 21
538.66162699999995
 31
0.0
  0
CIRCLE
  5
40
  8
0
 62
     7
 10
-172.936374
 20
551.16163099999994
 30
0.0
 40
5.4999969999999996
  0
CIRCLE
  5
41
  8
0
 62
     7
 10
-172.936374
 20
542.66162699999995
 30
0.0
 40
1.399999999999999
  0
LINE
  5
42
  8
0
 62
     7
 10
-162.63635899999991
 20
564.41165299999989
 30
0.0
 11
-162.63635899999991
 21
684.41162699999995
 31
0.0
  0
LINE
  5
43
  8
0
 62
     7
 10
-166.236358
 20
564.41165299999989
 30
0.0
 11
-166.236358
 21
684.41162699999995
 31
0.0
  0
LINE
  5
44
  8
0
 62
     7
 10
-169.83636000000001
 20
564.41165299999989
 30
0.0
 11
-169.83636000000001
 21
684.41162699999995
 31
0.0
  0
LINE
  5
45
  8
0
 62
     7
 10
-173.43635800000001
 20
564.41165299999989
 30
0.0
 11
-173.43635800000001
 21
684.41162699999995
 31
0.0
  0
LINE
  5
46
  8
0
 62
     7
 10
-177.03635700000001
 20
564.41165299999989
 30
0.0
 11
-177.03635700000001
 21
684.41162699999995
 31
0.0
  0
LINE
  5
47
  8
0
 62
     7
 10
-180.63635500000001
 20
564.41165299999989
 30
0.0
 11
-180.63635500000001
 21
684.41162699999995
 31
0.0
  0
LINE
  5
48
  8
0
 62
     7
 10
-184.23636200000001
 20
564.41165299999989
 30
0.0
 11
-184.23636200000001
 21
684.41162699999995
 31
0.0
  0
LINE
  5
49
  8
0
 62
     7
 10
-187.83636000000001
 20
564.41165299999989
 30
0.0
 11
-187.83636000000001
 21
684.41162699999995
 31
0.0
  0
LINE
  5
4A
  8
0
 62
     7
 10
-161.43635800000001
 20
673.91163800000004
 30
0.0
 11
-190.436397
 21
673.91163800000004
 31
0.0
  0
LINE
  5
4B
  8
0
 62
     7
 10
-161.43635800000001
 20
568.91163800000004
 30
0.0
 11
-190.436397
 21
568.91163800000004
 31
0.0
  0
LINE
  5
4C
  8
0
 62
     7
 10
-161.43635800000001
 20
684.41162699999995
 30
0.0
 11
-190.436397
 21
684.41162699999995
 31
0.0
  0
LINE
  5
4D
  8
0
 62
   211
 10
-115.936393
 20
708.66162699999995
 30
0.0
 11
-115.936393
 21
710.16162699999995
 31
0.0
  0
LINE
  5
4E
  8
0
 62
   211
 10
-115.936393
 20
710.16162699999995
 30
0.0
 11
-118.200571
 21
710.16162699999995
 31
0.0
  0
LINE
  5
4F
  8
0
 62
   211
 10
-122.67221499999999
 20
710.16162699999995
 30
0.0
 11
-124.9363929999999
 21
710.16162699999995
 31
0.0
  0
LINE
  5
50
  8
0
 62
   211
 10
-124.9363929999999
 20
708.66162699999995
 30
0.0
 11
-124.9363929999999
 21
710.16162699999995
 31
0.0
  0
LINE
  5
51
  8
0
 62
   211
 10
-122.9363929999999
 20
704.16162699999995
 30
0.0
 11
-122.9363929999999
 21
705.66162699999995
 31
0.0
  0
LINE
  5
52
  8
0
 62
   211
 10
-117.936393
 20
704.16162699999995
 30
0.0
 11
-122.9363929999999
 21
704.16162699999995
 31
0.0
  0
LINE
  5
53
  8
0
 62
   211
 10
-117.936393
 20
704.16162699999995
 30
0.0
 11
-117.936393
 21
705.66162699999995
 31
0.0
  0
ARC
  5
54
  8
0
 62
   211
 10
-120.4363929999999
 20
727.66162699999995
 30
0.0
 40
0.9999979999999998
 50
0.000001
 51
179.1818759999999
  0
LINE
  5
55
  8
0
  6
DASHDOT
 62
     7
 10
-120.4363929999999
 20
703.63468699999999
 30
0.0
 11
-120.4363929999999
 21
729.66162699999995
 31
0.0
  0
LINE
  5
56
  8
0
 62
   211
 10
-121.67231699999989
 20
711.14734499999997
 30
0.0
 11
-121.4362899999999
 21
727.67590899999993
 31
0.0
  0
LINE
  5
57
  8
0
 62
   211
 10
-119.200469
 20
711.14734499999997
 30
0.0
 11
-119.43649599999991
 21
727.67590899999993
 31
0.0
  0
ARC
  5
58
  8
0
 62
   211
 10
-118.200571
 20
711.16162699999995
 30
0.0
 40
1.0
 50
180.818129
 51
270.00000499999987
  0
ARC
  5
59
  8
0
 62
   211
 10
-122.67221499999999
 20
711.16162699999995
 30
0.0
 40
1.0
 50
270.00000499999987
 51
359.18188099999998
  0
LINE
  5
5A
  8
0
 62
     7
 10
-50.436388999999998
 20
705.86162400000001
 30
0.0
 11
-52.936388999999998
 21
705.86162400000001
 31
0.0
  0
LINE
  5
5B
  8
0
 62
     7
 10
-52.936388999999998
 20
705.86162400000001
 30
0.0
 11
-52.936388999999998
 21
707.66162699999995
 31
0.0
  0
LINE
  5
5C
  8
0
 62
     7
 10
-122.186393
 20
708.66162699999995
 30
0.0
 11
-153.68640400000001
 21
708.66162699999995
 31
0.0
  0
LINE
  5
5D
  8
0
 62
     7
 10
-87.186323000000016
 20
708.66162699999995
 30
0.0
 11
-118.68639400000001
 21
708.66162699999995
 31
0.0
  0
LINE
  5
5E
  8
0
 62
     7
 10
-53.936388999999998
 20
708.66162699999995
 30
0.0
 11
-83.686323999999999
 21
708.66162699999995
 31
0.0
  0
LINE
  5
5F
  8
0
 62
     7
 10
-117.93639399999989
 20
702.16162699999995
 30
0.0
 11
-122.9363929999999
 21
702.16162699999995
 31
0.0
  0
LINE
  5
60
  8
0
 62
     7
 10
-52.936388999999998
 20
701.91163399999994
 30
0.0
 11
-52.936388999999998
 21
705.86162400000001
 31
0.0
  0
LINE
  5
61
  8
0
 62
     7
 10
-152.9363929999999
 20
701.91163399999994
 30
0.0
 11
-152.9363929999999
 21
705.86162400000001
 31
0.0
  0
LINE
  5
62
  8
0
 62
     7
 10
-50.436388999999998
 20
701.91163399999994
 30
0.0
 11
-50.436388999999998
 21
705.86162400000001
 31
0.0
  0
CIRCLE
  5
63
  8
0
  6
DASHSPACE
 62
     7
 10
-137.93638899999999
 20
696.16161899999997
 30
0.0
 40
5.5000010000000001
  0
CIRCLE
  5
64
  8
0
  6
DASHSPACE
 62
     7
 10
-120.4363929999999
 20
693.16163399999994
 30
0.0
 40
4.499992999999999
  0
CIRCLE
  5
65
  8
0
  6
DASHSPACE
 62
     7
 10
-102.936358
 20
696.16161899999997
 30
0.0
 40
5.500030999999999
  0
ARC
  5
66
  8
0
 62
     7
 10
-85.436391
 20
685.16163399999994
 30
0.0
 40
3.7500070000000001
 50
180.000125
 51
187.66229999999999
  0
CIRCLE
  5
67
  8
0
  6
DASHSPACE
 62
     7
 10
-85.436385000000001
 20
693.16163399999994
 30
0.0
 40
4.5
  0
CIRCLE
  5
68
  8
0
  6
DASHSPACE
 62
     7
 10
-67.936381000000011
 20
696.16165699999999
 30
0.0
 40
5.4999719999999996
  0
ARC
  5
69
  8
0
 62
     7
 10
-53.936380999999997
 20
707.66163399999994
 30
0.0
 40
0.999995
 50
359.99980899999991
 51
90.000230999999985
  0
LINE
  5
6A
  8
0
  6
DASHDOT
 62
     7
 10
-137.9363929999999
 20
700.26163299999985
 30
0.0
 11
-137.9363929999999
 21
709.06164399999989
 31
0.0
  0
LINE
  5
6B
  8
0
  6
DASHDOT
 62
     7
 10
-129.436387
 20
696.16161899999997
 30
0.0
 11
-146.43638899999999
 21
696.16161899999997
 31
0.0
  0
LINE
  5
6C
  8
0
  6
DASHDOT
 62
     7
 10
-94.436327000000006
 20
696.16161899999997
 30
0.0
 11
-111.4363899999999
 21
696.16161899999997
 31
0.0
  0
LINE
  5
6D
  8
0
  6
DASHDOT
 62
     7
 10
-120.4363929999999
 20
685.66164200000003
 30
0.0
 11
-120.4363929999999
 21
711.02524400000004
 31
0.0
  0
LINE
  5
6E
  8
0
  6
DASHDOT
 62
     7
 10
-112.93640000000001
 20
693.16163399999994
 30
0.0
 11
-127.936387
 21
693.16163399999994
 31
0.0
  0
LINE
  5
6F
  8
0
  6
DASHDOT
 62
     7
 10
-67.936378000000005
 20
700.26164800000004
 30
0.0
 11
-67.936378000000005
 21
709.06162800000004
 31
0.0
  0
LINE
  5
70
  8
0
  6
DASHDOT
 62
     7
 10
-59.436407999999993
 20
696.16165699999999
 30
0.0
 11
-76.436352999999997
 21
696.16165699999999
 31
0.0
  0
LINE
  5
71
  8
0
  6
DASHDOT
 62
     7
 10
-137.9363699999999
 20
542.66163399999994
 30
0.0
 11
-137.9363699999999
 21
705.827764
 31
0.0
  0
LINE
  5
72
  8
0
  6
DASHDOT
 62
     7
 10
-67.936316000000005
 20
542.66137500000002
 30
0.0
 11
-67.936316000000005
 21
707.610365
 31
0.0
  0
LINE
  5
73
  8
0
  6
DASHDOT
 62
     7
 10
-67.936369999999997
 20
538.26164100000005
 30
0.0
 11
-67.936369999999997
 21
547.06162800000004
 31
0.0
  0
LINE
  5
74
  8
0
  6
DASHDOT
 62
     7
 10
-137.936374
 20
538.26162499999987
 30
0.0
 11
-137.936374
 21
547.06162800000004
 31
0.0
  0
ARC
  5
75
  8
0
 62
     7
 10
-120.43639899999999
 20
685.16165000000001
 30
0.0
 40
3.7500239999999989
 50
352.33745699999992
 51
359.99997300000001
  0
LINE
  5
76
  8
0
 62
     3
 10
-50.936374000000001
 20
673.91163800000004
 30
0.0
 11
-154.93635800000001
 21
673.91163800000004
 31
0.0
  0
LINE
  5
77
  8
0
 62
     3
 10
-50.936374000000001
 20
568.91165299999989
 30
0.0
 11
-64.436374000000001
 21
568.91165299999989
 31
0.0
  0
LINE
  5
78
  8
0
 62
     3
 10
-75.936374000000001
 20
568.91165299999989
 30
0.0
 11
-100.48708000000001
 21
568.91165299999989
 31
0.0
  0
LINE
  5
79
  8
0
 62
     3
 10
-141.43635800000001
 20
568.91165299999989
 30
0.0
 11
-154.93635800000001
 21
568.91165299999989
 31
0.0
  0
LINE
  5
7A
  8
0
 62
     3
 10
-129.93635800000001
 20
568.91165299999989
 30
0.0
 11
-141.43635800000001
 21
568.91165299999989
 31
0.0
  0
LINE
  5
7B
  8
0
 62
     3
 10
-64.436374000000001
 20
568.91165299999989
 30
0.0
 11
-75.936374000000001
 21
568.91165299999989
 31
0.0
  0
LINE
  5
7C
  8
0
  6
DASHDOT
 62
     7
 10
-102.936358
 20
550.79045300000007
 30
0.0
 11
-102.936358
 21
654.08572600000002
 31
0.0
  0
ARC
  5
7D
  8
0
 62
     3
 10
-154.93635800000001
 20
569.411653
 30
0.0
 40
0.5
 50
180.00000299999991
 51
270.00000499999987
  0
ARC
  5
7E
  8
0
 62
     3
 10
-154.93635800000001
 20
673.41163800000004
 30
0.0
 40
0.5
 50
90.0
 51
180.00000299999991
  0
ARC
  5
7F
  8
0
 62
     3
 10
-50.936374000000001
 20
673.41163800000004
 30
0.0
 40
0.5
 50
0.000001
 51
90.0
  0
ARC
  5
80
  8
0
 62
     3
 10
-50.936374000000001
 20
569.411653
 30
0.0
 40
0.5
 50
270.00000499999987
 51
0.000001
  0
LINE
  5
81
  8
0
  6
DASHDOT
 62
     7
 10
-102.936358
 20
659.864958
 30
0.0
 11
-102.936358
 21
688.77520599999991
 31
0.0
  0
LINE
  5
82
  8
0
 62
     3
 10
-105.38580899999999
 20
568.91165299999989
 30
0.0
 11
-129.93635800000001
 21
568.91165299999989
 31
0.0
  0
LINE
  5
83
  8
0
 62
     7
 10
-130.436374
 20
568.91163800000004
 30
0.0
 11
-140.43635800000001
 21
568.91163800000004
 31
0.0
  0
LINE
  5
84
  8
0
 62
     7
 10
-65.436389000000005
 20
568.91163800000004
 30
0.0
 11
-75.436389000000005
 21
568.91163800000004
 31
0.0
  0
LINE
  5
85
  8
0
 62
     7
 10
-50.936357999999998
 20
673.91163800000004
 30
0.0
 11
-154.93635800000001
 21
673.91163800000004
 31
0.0
  0
LINE
  5
86
  8
0
 62
     7
 10
-140.43635800000001
 20
568.91163800000004
 30
0.0
 11
-154.93635800000001
 21
568.91163800000004
 31
0.0
  0
LINE
  5
87
  8
0
 62
     7
 10
-75.436389000000005
 20
568.91163800000004
 30
0.0
 11
-130.436374
 21
568.91163800000004
 31
0.0
  0
LINE
  5
88
  8
0
 62
     7
 10
-50.936357999999998
 20
568.91163800000004
 30
0.0
 11
-65.436389000000005
 21
568.91163800000004
 31
0.0
  0
LINE
  5
89
  8
0
 62
     7
 10
-92.186357999999984
 20
591.16162099999997
 30
0.0
 11
-92.186357999999984
 21
631.16160600000001
 31
0.0
  0
LINE
  5
8A
  8
0
 62
     7
 10
-113.686358
 20
591.16162099999997
 30
0.0
 11
-113.686358
 21
631.16160600000001
 31
0.0
  0
LINE
  5
8B
  8
0
 62
     7
 10
-50.436357999999998
 20
661.911608
 30
0.0
 11
-155.43635800000001
 21
661.911608
 31
0.0
  0
LINE
  5
8C
  8
0
 62
     7
 10
-50.436357999999998
 20
671.911608
 30
0.0
 11
-155.43635800000001
 21
671.911608
 31
0.0
  0
LINE
  5
8D
  8
0
 62
     7
 10
-92.186357999999984
 20
630.89714000000004
 30
0.0
 11
-113.686358
 21
630.89714000000004
 31
0.0
  0
LINE
  5
8E
  8
0
 62
     7
 10
-92.186357999999984
 20
631.16160600000001
 30
0.0
 11
-113.686358
 21
631.16160600000001
 31
0.0
  0
LINE
  5
8F
  8
0
 62
     7
 10
-92.186357999999984
 20
591.16162099999997
 30
0.0
 11
-113.686358
 21
591.16162099999997
 31
0.0
  0
LINE
  5
90
  8
0
 62
     7
 10
-92.186357999999984
 20
591.42611699999986
 30
0.0
 11
-113.686358
 21
591.42611699999986
 31
0.0
  0
LINE
  5
91
  8
0
  6
DASHDOT
 62
     7
 10
-102.936358
 20
484.39046999999999
 30
0.0
 11
-102.936358
 21
652.11404200000004
 31
0.0
  0
LINE
  5
92
  8
0
  6
DASHDOT
 62
     7
 10
-102.936358
 20
651.34130700000003
 30
0.0
 11
-102.936358
 21
729.61475899999994
 31
0.0
  0
LINE
  5
93
  8
0
 62
     7
 10
-50.436374000000001
 20
569.4077319999999
 30
0.0
 11
-50.436374000000001
 21
673.41163800000004
 31
0.0
  0
LINE
  5
94
  8
0
 62
     7
 10
-155.43635800000001
 20
569.41163800000004
 30
0.0
 11
-155.43635800000001
 21
673.41163800000004
 31
0.0
  0
ARC
  5
95
  8
0
 62
     7
 10
-154.93635800000001
 20
569.41163800000004
 30
0.0
 40
0.5
 50
180.00000299999991
 51
270.00000499999987
  0
ARC
  5
96
  8
0
 62
     7
 10
-50.936357999999998
 20
569.41163800000004
 30
0.0
 40
0.5
 50
270.00000499999987
 51
359.55237699999992
  0
ARC
  5
97
  8
0
 62
     7
 10
-50.936357999999998
 20
673.41163800000004
 30
0.0
 40
0.5
 50
0.000001
 51
90.0
  0
ARC
  5
98
  8
0
 62
     7
 10
-154.93635800000001
 20
673.41163800000004
 30
0.0
 40
0.5
 50
90.0
 51
180.00000299999991
  0
LINE
  5
99
  8
0
 62
     7
 10
-125.436358
 20
632.41162099999985
 30
0.0
 11
-126.936358
 21
632.41162099999985
 31
0.0
  0
LINE
  5
9A
  8
0
 62
     7
 10
-125.436358
 20
623.41162099999985
 30
0.0
 11
-126.936358
 21
623.41162099999985
 31
0.0
  0
CIRCLE
  5
9B
  8
0
 62
     7
 10
-126.186358
 20
594.41162099999985
 30
0.0
 40
4.5
  0
CIRCLE
  5
9C
  8
0
 62
     7
 10
-126.186358
 20
594.41162099999985
 30
0.0
 40
3.0
  0
LINE
  5
9D
  8
0
 62
     7
 10
-126.936358
 20
623.41162099999985
 30
0.0
 11
-126.936358
 21
632.41162099999985
 31
0.0
  0
LINE
  5
9E
  8
0
 62
     7
 10
-125.436358
 20
623.41162099999985
 30
0.0
 11
-125.436358
 21
632.41162099999985
 31
0.0
  0
LINE
  5
9F
  8
0
 62
     7
 10
-77.386368999999988
 20
598.26162099999988
 30
0.0
 11
-77.836367999999993
 21
598.26162099999988
 31
0.0
  0
LINE
  5
A0
  8
0
 62
     7
 10
-78.336367999999993
 20
590.56162099999995
 30
0.0
 11
-79.136368999999988
 21
590.56162099999995
 31
0.0
  0
LINE
  5
A1
  8
0
 62
     7
 10
-85.53636800000001
 20
593.16162099999985
 30
0.0
 11
-85.53636800000001
 21
593.66162099999985
 31
0.0
  0
LINE
  5
A2
  8
0
 62
     7
 10
-80.336368000000007
 20
593.16162099999985
 30
0.0
 11
-80.336368000000007
 21
593.66162099999985
 31
0.0
  0
ARC
  5
A3
  8
0
 62
     7
 10
-82.936367999999987
 20
593.66162099999985
 30
0.0
 40
2.6000000000000001
 50
0.000001
 51
180.00000299999991
  0
ARC
  5
A4
  8
0
 62
     7
 10
-82.936367999999987
 20
593.16162099999985
 30
0.0
 40
2.6000000000000001
 50
180.00000299999991
 51
0.000001
  0
ARC
  5
A5
  8
0
 62
     7
 10
-82.936367999999987
 20
593.66162099999985
 30
0.0
 40
1.8
 50
0.000001
 51
180.00000299999991
  0
ARC
  5
A6
  8
0
 62
     7
 10
-82.936367999999987
 20
593.16162099999985
 30
0.0
 40
1.8
 50
180.00000299999991
 51
0.000001
  0
LINE
  5
A7
  8
0
 62
     7
 10
-84.736368999999996
 20
593.16162099999985
 30
0.0
 11
-84.736368999999996
 21
593.66162099999985
 31
0.0
  0
LINE
  5
A8
  8
0
 62
     7
 10
-81.136368999999988
 20
593.16162099999985
 30
0.0
 11
-81.136368999999988
 21
593.66162099999985
 31
0.0
  0
LINE
  5
A9
  8
0
 62
     7
 10
-80.086368000000007
 20
595.06162099999995
 30
0.0
 11
-80.086368000000007
 21
595.86162100000001
 31
0.0
  0
LINE
  5
AA
  8
0
 62
     7
 10
-79.136368999999988
 20
595.06162099999995
 30
0.0
 11
-80.086368000000007
 21
595.06162099999995
 31
0.0
  0
LINE
  5
AB
  8
0
 62
     7
 10
-77.386368999999988
 20
595.06162099999995
 30
0.0
 11
-77.386368999999988
 21
595.86162100000001
 31
0.0
  0
LINE
  5
AC
  8
0
 62
     7
 10
-79.136368999999988
 20
595.86162100000001
 30
0.0
 11
-80.086368000000007
 21
595.86162100000001
 31
0.0
  0
LINE
  5
AD
  8
0
 62
     7
 10
-79.136368999999988
 20
590.56162099999995
 30
0.0
 11
-79.136368999999988
 21
595.06162099999995
 31
0.0
  0
LINE
  5
AE
  8
0
 62
     7
 10
-78.336367999999993
 20
590.56162099999995
 30
0.0
 11
-78.336367999999993
 21
595.06162099999995
 31
0.0
  0
LINE
  5
AF
  8
0
 62
     7
 10
-77.386368999999988
 20
595.06162099999995
 30
0.0
 11
-78.336367999999993
 21
595.06162099999995
 31
0.0
  0
LINE
  5
B0
  8
0
 62
     7
 10
-77.386368999999988
 20
595.86162100000001
 30
0.0
 11
-78.336367999999993
 21
595.86162100000001
 31
0.0
  0
LINE
  5
B1
  8
0
 62
     7
 10
-79.136368999999988
 20
595.86162100000001
 30
0.0
 11
-79.136368999999988
 21
596.96162100000004
 31
0.0
  0
LINE
  5
B2
  8
0
 62
     7
 10
-78.336367999999993
 20
595.86162100000001
 30
0.0
 11
-78.336367999999993
 21
596.96162100000004
 31
0.0
  0
ARC
  5
B3
  8
0
 62
     7
 10
-77.836367999999993
 20
596.96162100000004
 30
0.0
 40
1.3
 50
90.000010000000003
 51
180.00000299999991
  0
ARC
  5
B4
  8
0
 62
     7
 10
-77.836367999999993
 20
596.96162100000004
 30
0.0
 40
0.5
 50
90.000010000000003
 51
180.00000299999991
  0
LINE
  5
B5
  8
0
 62
     7
 10
-77.386368999999988
 20
597.46162100000004
 30
0.0
 11
-77.386368999999988
 21
598.26162099999988
 31
0.0
  0
LINE
  5
B6
  8
0
 62
     7
 10
-77.386368999999988
 20
597.46162100000004
 30
0.0
 11
-77.836367999999993
 21
597.46162100000004
 31
0.0
  0
LINE
  5
B7
  8
0
 62
     7
 10
-74.186368000000002
 20
598.26162099999988
 30
0.0
 11
-74.636368999999988
 21
598.26162099999988
 31
0.0
  0
LINE
  5
B8
  8
0
 62
     7
 10
-75.136368999999974
 20
590.56162099999995
 30
0.0
 11
-75.936368000000002
 21
590.56162099999995
 31
0.0
  0
LINE
  5
B9
  8
0
 62
     7
 10
-76.886368999999974
 20
595.06162099999995
 30
0.0
 11
-76.886368999999974
 21
595.86162100000001
 31
0.0
  0
LINE
  5
BA
  8
0
 62
     7
 10
-75.936368000000002
 20
595.06162099999995
 30
0.0
 11
-76.886368999999974
 21
595.06162099999995
 31
0.0
  0
LINE
  5
BB
  8
0
 62
     7
 10
-74.186368000000002
 20
595.06162099999995
 30
0.0
 11
-74.186368000000002
 21
595.86162100000001
 31
0.0
  0
LINE
  5
BC
  8
0
 62
     7
 10
-75.936368000000002
 20
595.86162100000001
 30
0.0
 11
-76.886368999999974
 21
595.86162100000001
 31
0.0
  0
LINE
  5
BD
  8
0
 62
     7
 10
-75.936368000000002
 20
590.56162099999995
 30
0.0
 11
-75.936368000000002
 21
595.06162099999995
 31
0.0
  0
LINE
  5
BE
  8
0
 62
     7
 10
-75.136368999999974
 20
590.56162099999995
 30
0.0
 11
-75.136368999999974
 21
595.06162099999995
 31
0.0
  0
LINE
  5
BF
  8
0
 62
     7
 10
-74.186368000000002
 20
595.06162099999995
 30
0.0
 11
-75.136368999999974
 21
595.06162099999995
 31
0.0
  0
LINE
  5
C0
  8
0
 62
     7
 10
-74.186368000000002
 20
595.86162100000001
 30
0.0
 11
-75.136368999999974
 21
595.86162100000001
 31
0.0
  0
LINE
  5
C1
  8
0
 62
     7
 10
-75.936368000000002
 20
595.86162100000001
 30
0.0
 11
-75.936368000000002
 21
596.96162100000004
 31
0.0
  0
LINE
  5
C2
  8
0
 62
     7
 10
-75.136368999999974
 20
595.86162100000001
 30
0.0
 11
-75.136368999999974
 21
596.96162100000004
 31
0.0
  0
ARC
  5
C3
  8
0
 62
     7
 10
-74.636368999999988
 20
596.96162100000004
 30
0.0
 40
1.3
 50
90.000010000000003
 51
180.00000299999991
  0
ARC
  5
C4
  8
0
 62
     7
 10
-74.636368999999988
 20
596.96162100000004
 30
0.0
 40
0.5
 50
90.000010000000003
 51
180.00000299999991
  0
LINE
  5
C5
  8
0
 62
     7
 10
-74.186368000000002
 20
597.46162100000004
 30
0.0
 11
-74.186368000000002
 21
598.26162099999988
 31
0.0
  0
LINE
  5
C6
  8
0
 62
     7
 10
-74.186368000000002
 20
597.46162100000004
 30
0.0
 11
-74.636368999999988
 21
597.46162100000004
 31
0.0
  0
LINE
  5
C7
  8
0
 62
     7
 10
-78.736368999999996
 20
625.06162099999995
 30
0.0
 11
-79.53636800000001
 21
625.06162099999995
 31
0.0
  0
ARC
  5
C8
  8
0
 62
     7
 10
-82.936367999999987
 20
628.16162099999997
 30
0.0
 40
2.6000000000000001
 50
0.000001
 51
180.00000299999991
  0
ARC
  5
C9
  8
0
 62
     7
 10
-82.936367999999987
 20
628.16162099999997
 30
0.0
 40
1.8
 50
0.000001
 51
180.00000299999991
  0
ARC
  5
CA
  8
0
 62
     7
 10
-82.936367999999987
 20
627.66162099999997
 30
0.0
 40
2.6000000000000001
 50
180.00000299999991
 51
0.000001
  0
ARC
  5
CB
  8
0
 62
     7
 10
-82.936367999999987
 20
627.66162099999997
 30
0.0
 40
1.8
 50
180.00000299999991
 51
0.000001
  0
LINE
  5
CC
  8
0
 62
     7
 10
-81.136368999999988
 20
627.66162099999997
 30
0.0
 11
-81.136368999999988
 21
628.16162099999997
 31
0.0
  0
LINE
  5
CD
  8
0
 62
     7
 10
-80.336368000000007
 20
627.66162099999997
 30
0.0
 11
-80.336368000000007
 21
628.16162099999997
 31
0.0
  0
LINE
  5
CE
  8
0
 62
     7
 10
-84.736368999999996
 20
627.66162099999997
 30
0.0
 11
-84.736368999999996
 21
628.16162099999997
 31
0.0
  0
LINE
  5
CF
  8
0
 62
     7
 10
-85.53636800000001
 20
627.66162099999997
 30
0.0
 11
-85.53636800000001
 21
628.16162099999997
 31
0.0
  0
LINE
  5
D0
  8
0
 62
     7
 10
-79.53636800000001
 20
625.06162099999995
 30
0.0
 11
-79.53636800000001
 21
630.76162099999988
 31
0.0
  0
LINE
  5
D1
  8
0
 62
     7
 10
-78.736368999999996
 20
625.06162099999995
 30
0.0
 11
-78.736368999999996
 21
628.56162099999995
 31
0.0
  0
LINE
  5
D2
  8
0
 62
     7
 10
-75.936368000000002
 20
625.06162099999995
 30
0.0
 11
-75.936368000000002
 21
628.56162099999995
 31
0.0
  0
LINE
  5
D3
  8
0
 62
     7
 10
-75.136368999999974
 20
625.06162099999995
 30
0.0
 11
-75.136368999999974
 21
628.76162099999999
 31
0.0
  0
LINE
  5
D4
  8
0
 62
     7
 10
-78.736368999999996
 20
630.76162099999988
 30
0.0
 11
-79.53636800000001
 21
630.76162099999988
 31
0.0
  0
ARC
  5
D5
  8
0
 62
     7
 10
-77.336368000000007
 20
628.56162099999995
 30
0.0
 40
1.399999999999999
 50
0.000001
 51
180.00000299999991
  0
LINE
  5
D6
  8
0
 62
     7
 10
-78.736368999999996
 20
629.96162000000004
 30
0.0
 11
-78.736368999999996
 21
630.76162099999988
 31
0.0
  0
ARC
  5
D7
  8
0
 62
     7
 10
-77.136368999999988
 20
628.76162099999999
 30
0.0
 40
2.0
 50
0.000001
 51
143.13010199999999
  0
LINE
  5
D8
  8
0
 62
     7
 10
-75.136368999999974
 20
625.06162099999995
 30
0.0
 11
-75.936368000000002
 21
625.06162099999995
 31
0.0
  0
LINE
  5
D9
  8
0
 62
     7
 10
-122.186393
 20
705.66162699999995
 30
0.0
 11
-122.186393
 21
708.66162699999995
 31
0.0
  0
LINE
  5
DA
  8
0
 62
     7
 10
-118.68639400000001
 20
705.66162699999995
 30
0.0
 11
-118.68639400000001
 21
708.66162699999995
 31
0.0
  0
LINE
  5
DB
  8
0
 62
     7
 10
-122.9363929999999
 20
702.16162699999995
 30
0.0
 11
-122.9363929999999
 21
705.66162699999995
 31
0.0
  0
LINE
  5
DC
  8
0
 62
     7
 10
-117.93639399999989
 20
702.16162699999995
 30
0.0
 11
-117.93639399999989
 21
705.66162699999995
 31
0.0
  0
LINE
  5
DD
  8
0
 62
     7
 10
-117.93639399999989
 20
705.66162699999995
 30
0.0
 11
-118.68639400000001
 21
705.66162699999995
 31
0.0
  0
LINE
  5
DE
  8
0
 62
     7
 10
-122.186393
 20
705.66162699999995
 30
0.0
 11
-122.9363929999999
 21
705.66162699999995
 31
0.0
  0
LINE
  5
DF
  8
0
 62
     7
 10
-87.186323000000016
 20
705.66162699999995
 30
0.0
 11
-87.186323000000016
 21
708.66162699999995
 31
0.0
  0
LINE
  5
E0
  8
0
 62
     7
 10
-83.686323999999999
 20
705.66162699999995
 30
0.0
 11
-83.686323999999999
 21
708.66162699999995
 31
0.0
  0
LINE
  5
E1
  8
0
 62
     7
 10
-82.936323999999985
 20
702.16162699999995
 30
0.0
 11
-82.936323999999985
 21
705.66162699999995
 31
0.0
  0
LINE
  5
E2
  8
0
 62
     7
 10
-82.936323999999985
 20
702.16162699999995
 30
0.0
 11
-87.936323000000002
 21
702.16162699999995
 31
0.0
  0
LINE
  5
E3
  8
0
 62
     7
 10
-87.936323000000002
 20
702.16162699999995
 30
0.0
 11
-87.936323000000002
 21
705.66162699999995
 31
0.0
  0
LINE
  5
E4
  8
0
 62
     7
 10
-82.936323999999985
 20
705.66162699999995
 30
0.0
 11
-83.686323999999999
 21
705.66162699999995
 31
0.0
  0
LINE
  5
E5
  8
0
 62
     7
 10
-87.186323000000016
 20
705.66162699999995
 30
0.0
 11
-87.936323000000002
 21
705.66162699999995
 31
0.0
  0
LINE
  5
E6
  8
0
 62
     7
 10
-92.186357999999984
 20
605.28694199999995
 30
0.0
 11
-113.686358
 21
605.28694199999995
 31
0.0
  0
LINE
  5
E7
  8
0
 62
     7
 10
-92.186357999999984
 20
599.17047600000001
 30
0.0
 11
-113.686358
 21
599.17047600000001
 31
0.0
  0
LINE
  5
E8
  8
0
 62
     7
 10
-92.186357999999984
 20
593.22265800000002
 30
0.0
 11
-113.686358
 21
593.22265800000002
 31
0.0
  0
LINE
  5
E9
  8
0
 62
     7
 10
-92.186357999999984
 20
592.41990999999996
 30
0.0
 11
-113.686358
 21
592.41990999999996
 31
0.0
  0
LINE
  5
EA
  8
0
  6
DASHDOT
 62
     7
 10
-7.0047030000000001
 20
621.41163600000004
 30
0.0
 11
-192.40603200000001
 21
621.41163600000004
 31
0.0
  0
LINE
  5
EB
  8
0
  6
DASHDOT
 62
     7
 10
-210.80983999999989
 20
621.41163600000004
 30
0.0
 11
-230.9177049999999
 21
621.41163600000004
 31
0.0
  0
LINE
  5
EC
  8
0
  6
DASHDOT
 62
     7
 10
-85.436385000000001
 20
686.20310800000004
 30
0.0
 11
-85.436385000000001
 21
711.58881899999994
 31
0.0
  0
LINE
  5
ED
  8
0
  6
DASHDOT
 62
     7
 10
-78.851989000000003
 20
693.16163399999994
 30
0.0
 11
-92.170950000000005
 21
693.16163399999994
 31
0.0
  0
LINE
  5
EE
  8
0
 62
   211
 10
-84.200458999999995
 20
711.14735199999996
 30
0.0
 11
-84.436487999999997
 21
727.67590899999993
 31
0.0
  0
LINE
  5
EF
  8
0
 62
   211
 10
-86.672306999999989
 20
711.14735199999996
 30
0.0
 11
-86.436280000000011
 21
727.67590899999993
 31
0.0
  0
ARC
  5
F0
  8
0
 62
   211
 10
-85.436382999999992
 20
727.66163399999994
 30
0.0
 40
0.9999979999999998
 50
0.000001
 51
179.1818759999999
  0
ARC
  5
F1
  8
0
 62
   211
 10
-83.200562000000005
 20
711.16162699999995
 30
0.0
 40
1.0
 50
180.818129
 51
270.00000499999987
  0
LINE
  5
F2
  8
0
 62
   211
 10
-80.936383000000006
 20
710.16162699999995
 30
0.0
 11
-83.200562000000005
 21
710.16162699999995
 31
0.0
  0
ARC
  5
F3
  8
0
 62
   211
 10
-87.672205999999989
 20
711.16162699999995
 30
0.0
 40
1.0
 50
270.00000499999987
 51
359.18188099999998
  0
LINE
  5
F4
  8
0
 62
   211
 10
-87.672205999999989
 20
710.16162699999995
 30
0.0
 11
-89.936382999999978
 21
710.16162699999995
 31
0.0
  0
LINE
  5
F5
  8
0
 62
   211
 10
-80.936383000000006
 20
708.66162699999995
 30
0.0
 11
-80.936383000000006
 21
710.16162699999995
 31
0.0
  0
LINE
  5
F6
  8
0
 62
   211
 10
-89.936382999999978
 20
708.66162699999995
 30
0.0
 11
-89.936382999999978
 21
710.16162699999995
 31
0.0
  0
LINE
  5
F7
  8
0
 62
   211
 10
-82.936382999999992
 20
704.16162699999995
 30
0.0
 11
-87.936382999999992
 21
704.16162699999995
 31
0.0
  0
ARC
  5
F8
  8
0
 62
     7
 10
-53.936380999999997
 20
539.66163399999994
 30
0.0
 40
0.999995
 50
269.999773
 51
0.000192
  0
LINE
  5
F9
  8
0
 62
     7
 10
-52.936388999999998
 20
539.66164199999992
 30
0.0
 11
-52.936388999999998
 21
541.46164499999986
 31
0.0
  0
LINE
  5
FA
  8
0
 62
   211
 10
-84.436487999999997
 20
519.64735999999994
 30
0.0
 11
-84.200458999999995
 21
536.17592400000001
 31
0.0
  0
LINE
  5
FB
  8
0
 62
   211
 10
-86.436280000000011
 20
519.64735999999994
 30
0.0
 11
-86.672306999999989
 21
536.17592400000001
 31
0.0
  0
ARC
  5
FC
  8
0
 62
   211
 10
-85.436382999999992
 20
519.66164200000003
 30
0.0
 40
0.9999979999999998
 50
180.818129
 51
0.000001
  0
ARC
  5
FD
  8
0
 62
   211
 10
-83.200562000000005
 20
536.16164200000003
 30
0.0
 40
1.0
 50
90.0
 51
179.1818759999999
  0
LINE
  5
FE
  8
0
 62
   211
 10
-80.936383000000006
 20
537.16164200000003
 30
0.0
 11
-83.200562000000005
 21
537.16164200000003
 31
0.0
  0
LINE
  5
FF
  8
0
 62
   211
 10
-80.936383000000006
 20
537.16164200000003
 30
0.0
 11
-80.936383000000006
 21
538.66164200000003
 31
0.0
  0
ARC
  5
100
  8
0
 62
   211
 10
-87.672205999999989
 20
536.16164200000003
 30
0.0
 40
1.0
 50
0.818121
 51
90.0
  0
LINE
  5
101
  8
0
 62
   211
 10
-87.672205999999989
 20
537.16164200000003
 30
0.0
 11
-89.936382999999978
 21
537.16164200000003
 31
0.0
  0
LINE
  5
102
  8
0
 62
   211
 10
-89.936382999999978
 20
537.16164200000003
 30
0.0
 11
-89.936382999999978
 21
538.66164200000003
 31
0.0
  0
ARC
  5
103
  8
0
 62
   211
 10
-118.200571
 20
536.16165000000001
 30
0.0
 40
1.0
 50
90.0
 51
179.1818759999999
  0
LINE
  5
104
  8
0
 62
   211
 10
-115.936393
 20
537.16165000000001
 30
0.0
 11
-118.200571
 21
537.16165000000001
 31
0.0
  0
LINE
  5
105
  8
0
 62
   211
 10
-115.936393
 20
537.16165000000001
 30
0.0
 11
-115.936393
 21
538.66165000000001
 31
0.0
  0
ARC
  5
106
  8
0
 62
   211
 10
-120.4363929999999
 20
519.66164200000003
 30
0.0
 40
0.9999979999999998
 50
180.818129
 51
0.000001
  0
LINE
  5
107
  8
0
 62
   211
 10
-121.4362899999999
 20
519.64736700000003
 30
0.0
 11
-121.67231699999989
 21
536.17592400000001
 31
0.0
  0
ARC
  5
108
  8
0
 62
   211
 10
-122.67221499999999
 20
536.16165000000001
 30
0.0
 40
1.0
 50
0.818121
 51
90.0
  0
LINE
  5
109
  8
0
 62
   211
 10
-122.67221499999999
 20
537.16165000000001
 30
0.0
 11
-124.9363929999999
 21
537.16165000000001
 31
0.0
  0
LINE
  5
10A
  8
0
 62
   211
 10
-124.9363929999999
 20
537.16165000000001
 30
0.0
 11
-124.9363929999999
 21
538.66165000000001
 31
0.0
  0
LINE
  5
10B
  8
0
  6
DASHDOT
 62
     7
 10
-120.4363929999999
 20
517.66164200000003
 30
0.0
 11
-120.4363929999999
 21
543.68858099999989
 31
0.0
  0
LINE
  5
10C
  8
0
  6
DASHDOT
 62
     7
 10
-85.436385000000001
 20
515.61733099999981
 30
0.0
 11
-85.436385000000001
 21
561.12016900000003
 31
0.0
  0
LINE
  5
10D
  8
0
 62
   211
 10
-119.43649599999991
 20
519.64736700000003
 30
0.0
 11
-119.200469
 21
536.17592400000001
 31
0.0
  0
CIRCLE
  5
10E
  8
0
  6
DASHSPACE
 62
     7
 10
-172.93638899999991
 20
696.16161899999997
 30
0.0
 40
5.5000010000000001
  0
LINE
  5
10F
  8
0
 62
   211
 10
-156.67232399999989
 20
711.14734499999997
 30
0.0
 11
-156.43629699999991
 21
727.67590899999993
 31
0.0
  0
LINE
  5
110
  8
0
 62
   211
 10
-154.20047700000001
 20
711.14734499999997
 30
0.0
 11
-154.43650700000001
 21
727.67590899999993
 31
0.0
  0
ARC
  5
111
  8
0
 62
   211
 10
-155.43639999999991
 20
727.66162699999995
 30
0.0
 40
0.9999979999999998
 50
0.000001
 51
179.1818759999999
  0
LINE
  5
112
  8
0
 62
   211
 10
-150.93639999999991
 20
710.16162699999995
 30
0.0
 11
-153.20058
 21
710.16162699999995
 31
0.0
  0
LINE
  5
113
  8
0
 62
   211
 10
-150.93639999999991
 20
708.66162699999995
 30
0.0
 11
-150.93639999999991
 21
710.16162699999995
 31
0.0
  0
ARC
  5
114
  8
0
 62
   211
 10
-153.20058
 20
711.16162699999995
 30
0.0
 40
1.0
 50
180.818129
 51
270.00000499999987
  0
ARC
  5
115
  8
0
 62
   211
 10
-157.67222499999991
 20
711.16162699999995
 30
0.0
 40
1.0
 50
270.00000499999987
 51
359.18188099999998
  0
LINE
  5
116
  8
0
 62
   211
 10
-157.67222499999991
 20
710.16162699999995
 30
0.0
 11
-159.93639999999999
 21
710.16162699999995
 31
0.0
  0
LINE
  5
117
  8
0
 62
   211
 10
-159.93639999999999
 20
708.66162699999995
 30
0.0
 11
-159.93639999999999
 21
710.16162699999995
 31
0.0
  0
LINE
  5
118
  8
0
 62
     7
 10
-157.18640400000001
 20
705.66162699999995
 30
0.0
 11
-157.18640400000001
 21
708.66162699999995
 31
0.0
  0
LINE
  5
119
  8
0
 62
     7
 10
-157.93640400000001
 20
702.16162699999995
 30
0.0
 11
-157.93640400000001
 21
705.66162699999995
 31
0.0
  0
LINE
  5
11A
  8
0
 62
     7
 10
-152.93640400000001
 20
702.16162699999995
 30
0.0
 11
-152.93640400000001
 21
705.66162699999995
 31
0.0
  0
LINE
  5
11B
  8
0
 62
     7
 10
-152.93640400000001
 20
702.16162699999995
 30
0.0
 11
-157.93640400000001
 21
702.16162699999995
 31
0.0
  0
LINE
  5
11C
  8
0
 62
     7
 10
-153.68640400000001
 20
705.66162699999995
 30
0.0
 11
-153.68640400000001
 21
708.66162699999995
 31
0.0
  0
LINE
  5
11D
  8
0
 62
     7
 10
-152.93640400000001
 20
705.66162699999995
 30
0.0
 11
-153.68640400000001
 21
705.66162699999995
 31
0.0
  0
LINE
  5
11E
  8
0
 62
     7
 10
-157.18640400000001
 20
705.66162699999995
 30
0.0
 11
-157.93640400000001
 21
705.66162699999995
 31
0.0
  0
LINE
  5
11F
  8
0
 62
   211
 10
-156.43629699999991
 20
519.64735999999994
 30
0.0
 11
-156.67232399999989
 21
536.17592400000001
 31
0.0
  0
ARC
  5
120
  8
0
 62
   211
 10
-155.43639999999991
 20
519.66164200000003
 30
0.0
 40
0.9999979999999998
 50
180.818129
 51
0.000001
  0
LINE
  5
121
  8
0
 62
   211
 10
-154.43650700000001
 20
519.64735999999994
 30
0.0
 11
-154.20047700000001
 21
536.17592400000001
 31
0.0
  0
ARC
  5
122
  8
0
 62
   211
 10
-153.20058
 20
536.16164200000003
 30
0.0
 40
1.0
 50
90.0
 51
179.1818759999999
  0
LINE
  5
123
  8
0
 62
   211
 10
-150.93639999999991
 20
537.16164200000003
 30
0.0
 11
-153.20058
 21
537.16164200000003
 31
0.0
  0
LINE
  5
124
  8
0
 62
   211
 10
-150.93639999999991
 20
537.16164200000003
 30
0.0
 11
-150.93639999999991
 21
538.66164200000003
 31
0.0
  0
LINE
  5
125
  8
0
 62
   211
 10
-156.43629699999991
 20
519.64735999999994
 30
0.0
 11
-156.67232399999989
 21
536.17592400000001
 31
0.0
  0
LINE
  5
126
  8
0
 62
   211
 10
-157.67222499999991
 20
537.16164200000003
 30
0.0
 11
-159.93639999999999
 21
537.16164200000003
 31
0.0
  0
ARC
  5
127
  8
0
 62
   211
 10
-157.67222499999991
 20
536.16164200000003
 30
0.0
 40
1.0
 50
0.818121
 51
90.0
  0
LINE
  5
128
  8
0
 62
   211
 10
-159.93639999999999
 20
537.16164200000003
 30
0.0
 11
-159.93639999999999
 21
538.66164200000003
 31
0.0
  0
LINE
  5
129
  8
0
 62
   211
 10
-152.9363929999999
 20
704.16162699999995
 30
0.0
 11
-157.9363929999999
 21
704.16162699999995
 31
0.0
  0
LINE
  5
12A
  8
0
 62
     7
 10
-83.686323999999999
 20
538.66164200000003
 30
0.0
 11
-83.686323999999999
 21
540.91164200000003
 31
0.0
  0
LINE
  5
12B
  8
0
 62
     7
 10
-87.186323000000016
 20
538.66164200000003
 30
0.0
 11
-87.186323000000016
 21
540.91164200000003
 31
0.0
  0
LINE
  5
12C
  8
0
 62
     7
 10
-118.68639400000001
 20
538.66164200000003
 30
0.0
 11
-118.68639400000001
 21
540.91164200000003
 31
0.0
  0
LINE
  5
12D
  8
0
 62
     7
 10
-122.186393
 20
538.66164200000003
 30
0.0
 11
-122.186393
 21
540.91164200000003
 31
0.0
  0
LINE
  5
12E
  8
0
 62
     7
 10
-153.68640400000001
 20
538.66165000000001
 30
0.0
 11
-153.68640400000001
 21
540.91164200000003
 31
0.0
  0
LINE
  5
12F
  8
0
 62
     7
 10
-157.18640400000001
 20
538.66165000000001
 30
0.0
 11
-157.18640400000001
 21
540.91164200000003
 31
0.0
  0
LINE
  5
130
  8
0
 62
     7
 10
-122.186393
 20
538.66164200000003
 30
0.0
 11
-153.68640400000001
 21
538.66165000000001
 31
0.0
  0
LINE
  5
131
  8
0
 62
     7
 10
-87.186323000000016
 20
538.66164200000003
 30
0.0
 11
-118.68639400000001
 21
538.66164200000003
 31
0.0
  0
LINE
  5
132
  8
0
 62
     7
 10
-53.936384999999987
 20
538.66164200000003
 30
0.0
 11
-83.686323999999999
 21
538.66164200000003
 31
0.0
  0
LINE
  5
133
  8
0
  6
DASHDOT
 62
     7
 10
-172.93638899999991
 20
687.66161899999997
 30
0.0
 11
-172.93638899999991
 21
704.66161899999997
 31
0.0
  0
LINE
  5
134
  8
0
  6
DASHDOT
 62
     7
 10
-164.43638499999989
 20
696.16161899999997
 30
0.0
 11
-181.43638899999991
 21
696.16161899999997
 31
0.0
  0
LINE
  5
135
  8
0
  6
DASHDOT
 62
     7
 10
-172.936397
 20
700.26163299999985
 30
0.0
 11
-172.936397
 21
709.06164399999989
 31
0.0
  0
LINE
  5
136
  8
0
  6
DASHDOT
 62
     7
 10
-168.53638699999999
 20
704.66163399999994
 30
0.0
 11
-177.336398
 21
704.66163399999994
 31
0.0
  0
LINE
  5
137
  8
0
  6
DASHDOT
 62
     7
 10
-172.936374
 20
542.66163399999994
 30
0.0
 11
-172.936374
 21
559.66163099999994
 31
0.0
  0
LINE
  5
138
  8
0
  6
DASHDOT
 62
     7
 10
-164.436374
 20
551.16163099999994
 30
0.0
 11
-181.43636599999991
 21
551.16163099999994
 31
0.0
  0
LINE
  5
139
  8
0
  6
DASHDOT
 62
     7
 10
-172.936374
 20
538.26162499999987
 30
0.0
 11
-172.936374
 21
547.06162800000004
 31
0.0
  0
LINE
  5
13A
  8
0
  6
DASHDOT
 62
     7
 10
-168.53637199999989
 20
542.66162699999995
 30
0.0
 11
-177.336375
 21
542.66162699999995
 31
0.0
  0
LINE
  5
13B
  8
0
  6
DASHDOT
 62
     7
 10
-184.93638899999999
 20
551.91162299999996
 30
0.0
 11
-184.93638899999999
 21
565.41162699999995
 31
0.0
  0
LINE
  5
13C
  8
0
  6
DASHDOT
 62
     7
 10
-178.18638899999991
 20
558.66162699999995
 30
0.0
 11
-191.68638899999991
 21
558.66162699999995
 31
0.0
  0
LINE
  5
13D
  8
0
  6
DASHDOT
 62
     7
 10
-155.43640400000001
 20
515.46606299999985
 30
0.0
 11
-155.43640400000001
 21
538.66165000000001
 31
0.0
  0
LINE
  5
13E
  8
0
 62
     7
 10
-18.974626999999991
 20
540.91164200000003
 30
0.0
 11
-17.932734
 21
546.82048600000007
 31
0.0
  0
LINE
  5
13F
  8
0
 62
     7
 10
-18.974626999999991
 20
540.91164200000003
 30
0.0
 11
-20.016513
 21
546.82048600000007
 31
0.0
  0
LINE
  5
140
  8
0
 62
     7
 10
-18.974626999999991
 20
701.91164200000003
 30
0.0
 11
-20.016521000000001
 21
696.0027980000001
 31
0.0
  0
LINE
  5
141
  8
0
 62
     7
 10
-18.974626999999991
 20
701.91164200000003
 30
0.0
 11
-17.932742000000001
 21
696.0027980000001
 31
0.0
  0
LINE
  5
142
  8
0
 62
     7
 10
-18.974626999999991
 20
540.91164200000003
 30
0.0
 11
-18.974626999999991
 21
701.91164200000003
 31
0.0
  0
LINE
  5
143
  8
0
 62
     7
 10
-14.97462
 20
540.91164200000003
 30
0.0
 11
-45.686362000000003
 21
540.91164200000003
 31
0.0
  0
LINE
  5
144
  8
0
 62
     7
 10
-14.974626999999989
 20
701.91164200000003
 30
0.0
 11
-45.686362000000003
 21
701.91164200000003
 31
0.0
  0
LINE
  5
145
  8
0
 62
     7
 10
724.09733600000004
 20
565.41163600000004
 30
0.0
 11
836.09733600000004
 21
565.41163600000004
 31
0.0
  0
LINE
  5
146
  8
0
 62
     7
 10
724.09733600000004
 20
677.41163600000004
 30
0.0
 11
836.09733600000004
 21
677.41163600000004
 31
0.0
  0
LINE
  5
147
  8
0
 62
     7
 10
724.09733600000004
 20
677.41163600000004
 30
0.0
 11
724.09733600000004
 21
565.41163600000004
 31
0.0
  0
LINE
  5
148
  8
0
 62
     7
 10
836.09733600000004
 20
677.41163600000004
 30
0.0
 11
836.09733600000004
 21
565.41163600000004
 31
0.0
  0
LINE
  5
149
  8
0
  6
DASHDOT
 62
     7
 10
780.09733600000004
 20
737.78749100000005
 30
0.0
 11
780.09733600000004
 21
501.26447300000001
 31
0.0
  0
CIRCLE
  5
14A
  8
0
 62
     7
 10
740.09733600000004
 20
692.41163600000004
 30
0.0
 40
3.5
  0
CIRCLE
  5
14B
  8
0
 62
     7
 10
820.09733600000004
 20
692.41163600000004
 30
0.0
 40
3.5
  0
CIRCLE
  5
14C
  8
0
 62
     7
 10
820.09733600000004
 20
550.41163600000004
 30
0.0
 40
3.5
  0
CIRCLE
  5
14D
  8
0
 62
     7
 10
740.09733600000004
 20
550.41163600000004
 30
0.0
 40
3.5
  0
POLYLINE
  5
14E
  8
0
 62
     3
 66
     1
 10
0.0
 20
0.0
 30
0.0
  0
VERTEX
  5
90B
  8
0
 62
     3
 10
708.23934900000006
 20
701.81083699999999
 30
0.0
  0
VERTEX
  5
90C
  8
0
 62
     3
 10
724.23934899999995
 20
701.81083699999999
 30
0.0
  0
VERTEX
  5
90D
  8
0
 62
     3
 10
725.23934900000006
 20
703.81083699999988
 30
0.0
  0
VERTEX
  5
90E
  8
0
 62
     3
 10
726.23934899999995
 20
699.81083699999988
 30
0.0
  0
VERTEX
  5
90F
  8
0
 62
     3
 10
727.23934899999995
 20
701.81083699999999
 30
0.0
  0
VERTEX
  5
910
  8
0
 62
     3
 10
743.23934899999995
 20
701.81083699999999
 30
0.0
  0
VERTEX
  5
911
  8
0
 62
     3
 10
744.23934899999995
 20
703.81083699999988
 30
0.0
  0
VERTEX
  5
912
  8
0
 62
     3
 10
745.23934899999995
 20
699.81083699999988
 30
0.0
  0
VERTEX
  5
913
  8
0
 62
     3
 10
746.23934900000006
 20
701.81083699999999
 30
0.0
  0
VERTEX
  5
914
  8
0
 62
     3
 10
762.23934899999995
 20
701.81083699999999
 30
0.0
  0
VERTEX
  5
915
  8
0
 62
     3
 10
763.23934900000006
 20
703.81083699999988
 30
0.0
  0
VERTEX
  5
916
  8
0
 62
     3
 10
764.23934899999995
 20
699.81083699999988
 30
0.0
  0
VERTEX
  5
917
  8
0
 62
     3
 10
765.23934899999995
 20
701.81083699999999
 30
0.0
  0
VERTEX
  5
918
  8
0
 62
     3
 10
781.23934899999995
 20
701.81083699999999
 30
0.0
  0
VERTEX
  5
919
  8
0
 62
     3
 10
782.23934899999995
 20
703.81083699999988
 30
0.0
  0
VERTEX
  5
91A
  8
0
 62
     3
 10
783.23934900000006
 20
699.81083699999988
 30
0.0
  0
VERTEX
  5
91B
  8
0
 62
     3
 10
784.23934899999995
 20
701.81083699999999
 30
0.0
  0
VERTEX
  5
91C
  8
0
 62
     3
 10
800.23934900000006
 20
701.81083699999999
 30
0.0
  0
VERTEX
  5
91D
  8
0
 62
     3
 10
801.23934899999995
 20
703.81083699999988
 30
0.0
  0
VERTEX
  5
91E
  8
0
 62
     3
 10
802.23934899999995
 20
699.81083699999988
 30
0.0
  0
VERTEX
  5
91F
  8
0
 62
     3
 10
803.23934899999995
 20
701.81083699999999
 30
0.0
  0
VERTEX
  5
920
  8
0
 62
     3
 10
819.23934899999995
 20
701.81083699999999
 30
0.0
  0
VERTEX
  5
921
  8
0
 62
     3
 10
820.23934899999995
 20
703.81083699999988
 30
0.0
  0
VERTEX
  5
922
  8
0
 62
     3
 10
821.23934899999995
 20
699.81083699999988
 30
0.0
  0
VERTEX
  5
923
  8
0
 62
     3
 10
822.23934899999995
 20
701.81083699999999
 30
0.0
  0
VERTEX
  5
924
  8
0
 62
     3
 10
838.23934899999995
 20
701.81083699999999
 30
0.0
  0
VERTEX
  5
925
  8
0
 62
     3
 10
839.23934899999995
 20
703.81083699999988
 30
0.0
  0
VERTEX
  5
926
  8
0
 62
     3
 10
840.23934900000006
 20
699.81083699999988
 30
0.0
  0
VERTEX
  5
927
  8
0
 62
     3
 10
841.23934900000006
 20
701.81083699999999
 30
0.0
  0
VERTEX
  5
928
  8
0
 62
     3
 10
851.45282699999996
 20
701.81083699999999
 30
0.0
  0
SEQEND
  5
929
  8
0
 62
     3
  0
POLYLINE
  5
16E
  8
0
 62
     3
 66
     1
 10
0.0
 20
0.0
 30
0.0
  0
VERTEX
  5
92A
  8
0
 62
     3
 10
708.23934900000006
 20
536.98971600000004
 30
0.0
  0
VERTEX
  5
92B
  8
0
 62
     3
 10
724.23934899999995
 20
536.98971600000004
 30
0.0
  0
VERTEX
  5
92C
  8
0
 62
     3
 10
725.23934900000006
 20
538.98971600000004
 30
0.0
  0
VERTEX
  5
92D
  8
0
 62
     3
 10
726.23934899999995
 20
534.98971600000004
 30
0.0
  0
VERTEX
  5
92E
  8
0
 62
     3
 10
727.23934899999995
 20
536.98971600000004
 30
0.0
  0
VERTEX
  5
92F
  8
0
 62
     3
 10
743.23934899999995
 20
536.98971600000004
 30
0.0
  0
VERTEX
  5
930
  8
0
 62
     3
 10
744.23934899999995
 20
538.98971600000004
 30
0.0
  0
VERTEX
  5
931
  8
0
 62
     3
 10
745.23934899999995
 20
534.98971600000004
 30
0.0
  0
VERTEX
  5
932
  8
0
 62
     3
 10
746.23934900000006
 20
536.98971600000004
 30
0.0
  0
VERTEX
  5
933
  8
0
 62
     3
 10
762.23934899999995
 20
536.98971600000004
 30
0.0
  0
VERTEX
  5
934
  8
0
 62
     3
 10
763.23934900000006
 20
538.98971600000004
 30
0.0
  0
VERTEX
  5
935
  8
0
 62
     3
 10
764.23934899999995
 20
534.98971600000004
 30
0.0
  0
VERTEX
  5
936
  8
0
 62
     3
 10
765.23934899999995
 20
536.98971600000004
 30
0.0
  0
VERTEX
  5
937
  8
0
 62
     3
 10
781.23934899999995
 20
536.98971600000004
 30
0.0
  0
VERTEX
  5
938
  8
0
 62
     3
 10
782.23934899999995
 20
538.98971600000004
 30
0.0
  0
VERTEX
  5
939
  8
0
 62
     3
 10
783.23934900000006
 20
534.98971600000004
 30
0.0
  0
VERTEX
  5
93A
  8
0
 62
     3
 10
784.23934899999995
 20
536.98971600000004
 30
0.0
  0
VERTEX
  5
93B
  8
0
 62
     3
 10
800.23934900000006
 20
536.98971600000004
 30
0.0
  0
VERTEX
  5
93C
  8
0
 62
     3
 10
801.23934899999995
 20
538.98971600000004
 30
0.0
  0
VERTEX
  5
93D
  8
0
 62
     3
 10
802.23934899999995
 20
534.98971600000004
 30
0.0
  0
VERTEX
  5
93E
  8
0
 62
     3
 10
803.23934899999995
 20
536.98971600000004
 30
0.0
  0
VERTEX
  5
93F
  8
0
 62
     3
 10
819.23934899999995
 20
536.98971600000004
 30
0.0
  0
VERTEX
  5
940
  8
0
 62
     3
 10
820.23934899999995
 20
538.98971600000004
 30
0.0
  0
VERTEX
  5
941
  8
0
 62
     3
 10
821.23934899999995
 20
534.98971600000004
 30
0.0
  0
VERTEX
  5
942
  8
0
 62
     3
 10
822.23934899999995
 20
536.98971600000004
 30
0.0
  0
VERTEX
  5
943
  8
0
 62
     3
 10
838.23934899999995
 20
536.98971600000004
 30
0.0
  0
VERTEX
  5
944
  8
0
 62
     3
 10
839.23934899999995
 20
538.98971600000004
 30
0.0
  0
VERTEX
  5
945
  8
0
 62
     3
 10
840.23934900000006
 20
534.98971600000004
 30
0.0
  0
VERTEX
  5
946
  8
0
 62
     3
 10
841.23934900000006
 20
536.98971600000004
 30
0.0
  0
VERTEX
  5
947
  8
0
 62
     3
 10
851.45282699999996
 20
536.98971600000004
 30
0.0
  0
SEQEND
  5
948
  8
0
 62
     3
  0
POLYLINE
  5
18E
  8
0
 62
     3
 66
     1
 10
0.0
 20
0.0
 30
0.0
  0
VERTEX
  5
949
  8
0
 62
     3
 10
851.45282699999996
 20
701.81083699999999
 30
0.0
  0
VERTEX
  5
94A
  8
0
 62
     3
 10
851.45282699999996
 20
685.81083699999999
 30
0.0
  0
VERTEX
  5
94B
  8
0
 62
     3
 10
853.45282699999996
 20
684.81083699999999
 30
0.0
  0
VERTEX
  5
94C
  8
0
 62
     3
 10
849.45282699999996
 20
683.81083699999999
 30
0.0
  0
VERTEX
  5
94D
  8
0
 62
     3
 10
851.45282699999996
 20
682.81083699999988
 30
0.0
  0
VERTEX
  5
94E
  8
0
 62
     3
 10
851.45282699999996
 20
666.81083699999988
 30
0.0
  0
VERTEX
  5
94F
  8
0
 62
     3
 10
853.45282699999996
 20
665.81083699999988
 30
0.0
  0
VERTEX
  5
950
  8
0
 62
     3
 10
849.45282699999996
 20
664.81083699999999
 30
0.0
  0
VERTEX
  5
951
  8
0
 62
     3
 10
851.45282699999996
 20
663.81083699999999
 30
0.0
  0
VERTEX
  5
952
  8
0
 62
     3
 10
851.45282699999996
 20
647.81083699999999
 30
0.0
  0
VERTEX
  5
953
  8
0
 62
     3
 10
853.45282699999996
 20
646.81083699999999
 30
0.0
  0
VERTEX
  5
954
  8
0
 62
     3
 10
849.45282699999996
 20
645.81083699999988
 30
0.0
  0
VERTEX
  5
955
  8
0
 62
     3
 10
851.45282699999996
 20
644.81083699999988
 30
0.0
  0
VERTEX
  5
956
  8
0
 62
     3
 10
851.45282699999996
 20
628.81083699999988
 30
0.0
  0
VERTEX
  5
957
  8
0
 62
     3
 10
853.45282699999996
 20
627.81083699999988
 30
0.0
  0
VERTEX
  5
958
  8
0
 62
     3
 10
849.45282699999996
 20
626.81083699999999
 30
0.0
  0
VERTEX
  5
959
  8
0
 62
     3
 10
851.45282699999996
 20
625.81083699999999
 30
0.0
  0
VERTEX
  5
95A
  8
0
 62
     3
 10
851.45282699999996
 20
609.81083699999999
 30
0.0
  0
VERTEX
  5
95B
  8
0
 62
     3
 10
853.45282699999996
 20
608.81083699999999
 30
0.0
  0
VERTEX
  5
95C
  8
0
 62
     3
 10
849.45282699999996
 20
607.81083699999988
 30
0.0
  0
VERTEX
  5
95D
  8
0
 62
     3
 10
851.45282699999996
 20
606.81083699999999
 30
0.0
  0
VERTEX
  5
95E
  8
0
 62
     3
 10
851.45282699999996
 20
590.81083699999988
 30
0.0
  0
VERTEX
  5
95F
  8
0
 62
     3
 10
853.45282699999996
 20
589.81083699999999
 30
0.0
  0
VERTEX
  5
960
  8
0
 62
     3
 10
849.45282699999996
 20
588.81083699999999
 30
0.0
  0
VERTEX
  5
961
  8
0
 62
     3
 10
851.45282699999996
 20
587.81083699999988
 30
0.0
  0
VERTEX
  5
962
  8
0
 62
     3
 10
851.45282699999996
 20
571.81083699999999
 30
0.0
  0
VERTEX
  5
963
  8
0
 62
     3
 10
853.45282699999996
 20
570.81083699999988
 30
0.0
  0
VERTEX
  5
964
  8
0
 62
     3
 10
849.45282699999996
 20
569.81083699999988
 30
0.0
  0
VERTEX
  5
965
  8
0
 62
     3
 10
851.45282699999996
 20
568.81083699999999
 30
0.0
  0
VERTEX
  5
966
  8
0
 62
     3
 10
851.45282699999996
 20
552.81083699999988
 30
0.0
  0
VERTEX
  5
967
  8
0
 62
     3
 10
853.45282699999996
 20
551.81083699999999
 30
0.0
  0
VERTEX
  5
968
  8
0
 62
     3
 10
849.45282699999996
 20
550.81083699999999
 30
0.0
  0
VERTEX
  5
969
  8
0
 62
     3
 10
851.45282699999996
 20
549.81083699999988
 30
0.0
  0
VERTEX
  5
96A
  8
0
 62
     3
 10
851.45282699999996
 20
536.98971600000004
 30
0.0
  0
SEQEND
  5
96B
  8
0
 62
     3
  0
POLYLINE
  5
1B2
  8
0
 62
     3
 66
     1
 10
0.0
 20
0.0
 30
0.0
  0
VERTEX
  5
96C
  8
0
 62
     3
 10
708.23934900000006
 20
701.81083699999999
 30
0.0
  0
VERTEX
  5
96D
  8
0
 62
     3
 10
708.23934900000006
 20
685.81083699999999
 30
0.0
  0
VERTEX
  5
96E
  8
0
 62
     3
 10
710.23934899999995
 20
684.81083699999999
 30
0.0
  0
VERTEX
  5
96F
  8
0
 62
     3
 10
706.23934899999995
 20
683.81083699999999
 30
0.0
  0
VERTEX
  5
970
  8
0
 62
     3
 10
708.23934900000006
 20
682.81083699999988
 30
0.0
  0
VERTEX
  5
971
  8
0
 62
     3
 10
708.23934900000006
 20
666.81083699999988
 30
0.0
  0
VERTEX
  5
972
  8
0
 62
     3
 10
710.23934899999995
 20
665.81083699999988
 30
0.0
  0
VERTEX
  5
973
  8
0
 62
     3
 10
706.23934899999995
 20
664.81083699999999
 30
0.0
  0
VERTEX
  5
974
  8
0
 62
     3
 10
708.23934900000006
 20
663.81083699999999
 30
0.0
  0
VERTEX
  5
975
  8
0
 62
     3
 10
708.23934900000006
 20
647.81083699999999
 30
0.0
  0
VERTEX
  5
976
  8
0
 62
     3
 10
710.23934899999995
 20
646.81083699999999
 30
0.0
  0
VERTEX
  5
977
  8
0
 62
     3
 10
706.23934899999995
 20
645.81083699999988
 30
0.0
  0
VERTEX
  5
978
  8
0
 62
     3
 10
708.23934900000006
 20
644.81083699999988
 30
0.0
  0
VERTEX
  5
979
  8
0
 62
     3
 10
708.23934900000006
 20
628.81083699999988
 30
0.0
  0
VERTEX
  5
97A
  8
0
 62
     3
 10
710.23934899999995
 20
627.81083699999988
 30
0.0
  0
VERTEX
  5
97B
  8
0
 62
     3
 10
706.23934899999995
 20
626.81083699999999
 30
0.0
  0
VERTEX
  5
97C
  8
0
 62
     3
 10
708.23934900000006
 20
625.81083699999999
 30
0.0
  0
VERTEX
  5
97D
  8
0
 62
     3
 10
708.23934900000006
 20
609.81083699999999
 30
0.0
  0
VERTEX
  5
97E
  8
0
 62
     3
 10
710.23934899999995
 20
608.81083699999999
 30
0.0
  0
VERTEX
  5
97F
  8
0
 62
     3
 10
706.23934899999995
 20
607.81083699999988
 30
0.0
  0
VERTEX
  5
980
  8
0
 62
     3
 10
708.23934900000006
 20
606.81083699999999
 30
0.0
  0
VERTEX
  5
981
  8
0
 62
     3
 10
708.23934900000006
 20
590.81083699999988
 30
0.0
  0
VERTEX
  5
982
  8
0
 62
     3
 10
710.23934899999995
 20
589.81083699999999
 30
0.0
  0
VERTEX
  5
983
  8
0
 62
     3
 10
706.23934899999995
 20
588.81083699999999
 30
0.0
  0
VERTEX
  5
984
  8
0
 62
     3
 10
708.23934900000006
 20
587.81083699999988
 30
0.0
  0
VERTEX
  5
985
  8
0
 62
     3
 10
708.23934900000006
 20
571.81083699999999
 30
0.0
  0
VERTEX
  5
986
  8
0
 62
     3
 10
710.23934899999995
 20
570.81083699999988
 30
0.0
  0
VERTEX
  5
987
  8
0
 62
     3
 10
706.23934899999995
 20
569.81083699999988
 30
0.0
  0
VERTEX
  5
988
  8
0
 62
     3
 10
708.23934900000006
 20
568.81083699999999
 30
0.0
  0
VERTEX
  5
989
  8
0
 62
     3
 10
708.23934900000006
 20
552.81083699999988
 30
0.0
  0
VERTEX
  5
98A
  8
0
 62
     3
 10
710.23934899999995
 20
551.81083699999999
 30
0.0
  0
VERTEX
  5
98B
  8
0
 62
     3
 10
706.23934899999995
 20
550.81083699999999
 30
0.0
  0
VERTEX
  5
98C
  8
0
 62
     3
 10
708.23934900000006
 20
549.81083699999988
 30
0.0
  0
VERTEX
  5
98D
  8
0
 62
     3
 10
708.23934900000006
 20
536.98971600000004
 30
0.0
  0
SEQEND
  5
98E
  8
0
 62
     3
  0
LINE
  5
1D6
  8
0
  6
DASHDOT
 62
     7
 10
820.09733600000004
 20
698.91163600000004
 30
0.0
 11
820.09733600000004
 21
685.91163600000004
 31
0.0
  0
LINE
  5
1D7
  8
0
  6
DASHDOT
 62
     7
 10
813.59733600000015
 20
692.41163600000004
 30
0.0
 11
826.59733600000004
 21
692.41163600000004
 31
0.0
  0
LINE
  5
1D8
  8
0
  6
DASHDOT
 62
     7
 10
740.09733600000004
 20
698.91163600000004
 30
0.0
 11
740.09733600000004
 21
685.91163600000004
 31
0.0
  0
LINE
  5
1D9
  8
0
  6
DASHDOT
 62
     7
 10
733.59733600000004
 20
692.41163600000004
 30
0.0
 11
746.59733600000004
 21
692.41163600000004
 31
0.0
  0
LINE
  5
1DA
  8
0
  6
DASHDOT
 62
     7
 10
740.09733600000004
 20
556.91163600000004
 30
0.0
 11
740.09733600000004
 21
543.91163600000004
 31
0.0
  0
LINE
  5
1DB
  8
0
  6
DASHDOT
 62
     7
 10
733.59733600000004
 20
550.41163600000004
 30
0.0
 11
746.59733600000004
 21
550.41163600000004
 31
0.0
  0
LINE
  5
1DC
  8
0
  6
DASHDOT
 62
     7
 10
820.09733600000004
 20
556.91163600000004
 30
0.0
 11
820.09733600000004
 21
543.91163600000004
 31
0.0
  0
LINE
  5
1DD
  8
0
  6
DASHDOT
 62
     7
 10
813.59733600000015
 20
550.41163600000004
 30
0.0
 11
826.59733600000004
 21
550.41163600000004
 31
0.0
  0
CIRCLE
  5
1DE
  8
0
 62
     7
 10
714.77188100000001
 20
696.52463499999999
 30
0.0
 40
0.25
  0
LINE
  5
1DF
  8
0
  6
DASHDOT
 62
     7
 10
678.63390400000003
 20
621.41163600000004
 30
0.0
 11
890.61850700000014
 21
621.41163600000004
 31
0.0
  0
LINE
  5
1E0
  8
0
 62
     7
 10
657.50358600000004
 20
677.41163600000004
 30
0.0
 11
655.41984600000001
 21
665.59394099999997
 31
0.0
  0
LINE
  5
1E1
  8
0
 62
     7
 10
657.50358600000004
 20
677.41163600000004
 30
0.0
 11
659.58738700000004
 21
665.59394099999997
 31
0.0
  0
LINE
  5
1E2
  8
0
 62
     7
 10
657.50358600000004
 20
565.41163600000004
 30
0.0
 11
659.58738700000004
 21
577.229332
 31
0.0
  0
LINE
  5
1E3
  8
0
 62
     7
 10
657.50358600000004
 20
565.41163600000004
 30
0.0
 11
655.41984600000001
 21
577.229332
 31
0.0
  0
LINE
  5
1E4
  8
0
 62
     7
 10
657.50358600000004
 20
677.41163600000004
 30
0.0
 11
657.50358600000004
 21
565.41163600000004
 31
0.0
  0
LINE
  5
1E5
  8
0
 62
     7
 10
649.50358600000004
 20
677.41163600000004
 30
0.0
 11
724.09733600000004
 21
677.41163600000004
 31
0.0
  0
LINE
  5
1E6
  8
0
 62
     7
 10
649.50358600000004
 20
565.41163600000004
 30
0.0
 11
724.09733600000004
 21
565.41164000000003
 31
0.0
  0
LINE
  5
1E7
  8
0
 62
     7
 10
620.01438899999994
 20
692.41163600000004
 30
0.0
 11
617.93058799999994
 21
680.59394800000007
 31
0.0
  0
LINE
  5
1E8
  8
0
 62
     7
 10
620.01438899999994
 20
692.41163600000004
 30
0.0
 11
622.09812899999997
 21
680.59394800000007
 31
0.0
  0
LINE
  5
1E9
  8
0
 62
     7
 10
620.01438899999994
 20
550.41163600000004
 30
0.0
 11
622.09812899999997
 21
562.22933199999989
 31
0.0
  0
LINE
  5
1EA
  8
0
 62
     7
 10
620.01438899999994
 20
550.41163600000004
 30
0.0
 11
617.93058799999994
 21
562.22932800000001
 31
0.0
  0
LINE
  5
1EB
  8
0
 62
     7
 10
620.01438899999994
 20
692.41163600000004
 30
0.0
 11
620.01438899999994
 21
550.41163600000004
 31
0.0
  0
LINE
  5
1EC
  8
0
 62
     7
 10
612.01438899999994
 20
692.41163600000004
 30
0.0
 11
733.59733600000004
 21
692.41163600000004
 31
0.0
  0
LINE
  5
1ED
  8
0
 62
     7
 10
612.01438899999994
 20
550.41163600000004
 30
0.0
 11
733.59733600000004
 21
550.41164400000002
 31
0.0
  0
LINE
  5
1EE
  8
0
 62
     7
 10
740.09733600000004
 20
741.19560199999989
 30
0.0
 11
751.91502400000002
 21
739.11183200000005
 31
0.0
  0
LINE
  5
1EF
  8
0
 62
     7
 10
740.09733600000004
 20
741.19560199999989
 30
0.0
 11
751.91502400000002
 21
743.27938800000004
 31
0.0
  0
LINE
  5
1F0
  8
0
 62
     7
 10
820.09733600000004
 20
741.19560199999989
 30
0.0
 11
808.27964799999995
 21
743.27937300000008
 31
0.0
  0
LINE
  5
1F1
  8
0
 62
     7
 10
820.09733600000004
 20
741.19560199999989
 30
0.0
 11
808.27964799999995
 21
739.11181599999986
 31
0.0
  0
LINE
  5
1F2
  8
0
 62
     7
 10
740.09733600000004
 20
741.19560199999989
 30
0.0
 11
820.09733600000004
 21
741.19560199999989
 31
0.0
  0
LINE
  5
1F3
  8
0
 62
     7
 10
740.09733600000004
 20
749.19560199999989
 30
0.0
 11
740.09733600000004
 21
698.91163600000004
 31
0.0
  0
LINE
  5
1F4
  8
0
 62
     7
 10
820.09733600000004
 20
749.19560199999989
 30
0.0
 11
820.09733600000004
 21
698.91163600000004
 31
0.0
  0
LINE
  5
1F5
  8
0
 62
     7
 10
724.09733600000004
 20
773.91348300000004
 30
0.0
 11
735.9150239999999
 21
771.82971199999986
 31
0.0
  0
LINE
  5
1F6
  8
0
 62
     7
 10
724.09733600000004
 20
773.91348300000004
 30
0.0
 11
735.9150239999999
 21
775.99726899999996
 31
0.0
  0
LINE
  5
1F7
  8
0
 62
     7
 10
836.09733600000004
 20
773.91348300000004
 30
0.0
 11
824.27958699999999
 21
775.99725299999989
 31
0.0
  0
LINE
  5
1F8
  8
0
 62
     7
 10
836.09733600000004
 20
773.91348300000004
 30
0.0
 11
824.27958699999999
 21
771.8296969999999
 31
0.0
  0
LINE
  5
1F9
  8
0
 62
     7
 10
724.09733600000004
 20
773.91348300000004
 30
0.0
 11
836.09733600000004
 21
773.91348300000004
 31
0.0
  0
LINE
  5
1FA
  8
0
 62
     7
 10
724.09733600000004
 20
781.91348300000004
 30
0.0
 11
724.09733600000004
 21
677.41165199999989
 31
0.0
  0
LINE
  5
1FB
  8
0
 62
     7
 10
836.09733600000004
 20
781.91348300000004
 30
0.0
 11
836.09733600000004
 21
677.41165199999989
 31
0.0
  0
LINE
  5
1FC
  8
0
 62
     7
 10
737.30979899999988
 20
548.29510500000004
 30
0.0
 11
726.63767999999993
 21
542.80825800000002
 31
0.0
  0
LINE
  5
1FD
  8
0
 62
     7
 10
737.30979899999988
 20
548.29510500000004
 30
0.0
 11
729.15788299999986
 21
539.48906699999986
 31
0.0
  0
LINE
  5
1FE
  8
0
 62
     7
 10
742.88487199999986
 20
552.52816799999994
 30
0.0
 11
753.55699200000004
 21
558.01502199999993
 31
0.0
  0
LINE
  5
1FF
  8
0
 62
     7
 10
742.88487199999986
 20
552.52816799999994
 30
0.0
 11
751.036789
 21
561.33420599999988
 31
0.0
  0
LINE
  5
200
  8
0
 62
     7
 10
742.88487199999986
 20
552.52816799999994
 30
0.0
 11
669.05583200000001
 21
496.47067299999998
 31
0.0
  0
LINE
  5
201
  8
0
 62
     3
 10
143.19609099999991
 20
542.16163600000004
 30
0.0
 11
143.19609099999991
 21
562.16163600000004
 31
0.0
  0
LINE
  5
202
  8
0
 62
     3
 10
145.696091
 20
556.16163600000004
 30
0.0
 11
145.696091
 21
562.16163600000004
 31
0.0
  0
LINE
  5
203
  8
0
 62
     3
 10
150.696091
 20
542.16163600000004
 30
0.0
 11
143.19609099999991
 21
542.16163600000004
 31
0.0
  0
LINE
  5
204
  8
0
 62
     3
 10
145.696091
 20
562.16163600000004
 30
0.0
 11
143.19609099999991
 21
562.16163600000004
 31
0.0
  0
LINE
  5
205
  8
0
 62
     3
 10
182.19609099999991
 20
558.16163600000004
 30
0.0
 11
182.19609099999991
 21
560.16163600000004
 31
0.0
  0
ARC
  5
206
  8
0
 62
     3
 10
145.696091
 20
552.16163600000004
 30
0.0
 40
4.0
 50
270.00000499999987
 51
0.000001
  0
ARC
  5
207
  8
0
 62
     3
 10
180.196091
 20
544.16163600000004
 30
0.0
 40
2.0
 50
270.00000499999987
 51
0.000001
  0
ARC
  5
208
  8
0
 62
     3
 10
180.196091
 20
560.16163600000004
 30
0.0
 40
2.0
 50
0.000001
 51
90.0
  0
ARC
  5
209
  8
0
 62
     3
 10
145.696091
 20
552.16163600000004
 30
0.0
 40
4.0
 50
0.000001
 51
90.0
  0
ARC
  5
20A
  8
0
 62
     3
 10
145.696091
 20
552.16163600000004
 30
0.0
 40
2.0
 50
262.8192489999999
 51
97.180755000000005
  0
ARC
  5
20B
  8
0
 62
     3
 10
145.19609099999991
 20
548.19300799999985
 30
0.0
 40
2.0
 50
82.819241000000005
 51
180.00000299999991
  0
ARC
  5
20C
  8
0
 62
     3
 10
145.19609099999991
 20
556.13026400000001
 30
0.0
 40
2.0
 50
180.00000299999991
 51
277.18076000000002
  0
LINE
  5
20D
  8
0
 62
     3
 10
145.696091
 20
542.16163600000004
 30
0.0
 11
145.696091
 21
548.16163600000004
 31
0.0
  0
LINE
  5
20E
  8
0
 62
     3
 10
174.696091
 20
558.16163600000004
 30
0.0
 11
174.696091
 21
562.16163600000004
 31
0.0
  0
LINE
  5
20F
  8
0
 62
     3
 10
178.69609099999991
 20
558.16163600000004
 30
0.0
 11
178.69609099999991
 21
562.16163600000004
 31
0.0
  0
LINE
  5
210
  8
0
 62
     3
 10
180.196091
 20
562.16163600000004
 30
0.0
 11
150.696091
 21
562.16163600000004
 31
0.0
  0
LINE
  5
211
  8
0
  6
DASHSPACE
 62
     3
 10
163.09609199999991
 20
542.16163600000004
 30
0.0
 11
150.696091
 21
542.16163600000004
 31
0.0
  0
LINE
  5
212
  8
0
 62
     3
 10
180.196091
 20
542.16163600000004
 30
0.0
 11
163.09609199999991
 21
542.16163600000004
 31
0.0
  0
LINE
  5
213
  8
0
 62
     3
 10
174.696091
 20
542.16163600000004
 30
0.0
 11
174.696091
 21
546.16163600000004
 31
0.0
  0
LINE
  5
214
  8
0
 62
     3
 10
178.69609099999991
 20
542.16163600000004
 30
0.0
 11
178.69609099999991
 21
546.16163600000004
 31
0.0
  0
LINE
  5
215
  8
0
 62
     3
 10
182.19609099999991
 20
544.16163600000004
 30
0.0
 11
182.19609099999991
 21
546.16163600000004
 31
0.0
  0
LINE
  5
216
  8
0
  6
DASHSPACE
 62
     3
 10
174.696091
 20
546.16163600000004
 30
0.0
 11
174.696091
 21
558.16163600000004
 31
0.0
  0
LINE
  5
217
  8
0
  6
DASHSPACE
 62
     3
 10
178.69609099999991
 20
546.16163600000004
 30
0.0
 11
178.69609099999991
 21
558.16163600000004
 31
0.0
  0
LINE
  5
218
  8
0
  6
DASHSPACE
 62
     3
 10
182.19609099999991
 20
546.16163600000004
 30
0.0
 11
182.19609099999991
 21
558.16163600000004
 31
0.0
  0
LINE
  5
219
  8
0
 62
     2
 10
186.096092
 20
546.16163600000004
 30
0.0
 11
169.096092
 21
546.16163600000004
 31
0.0
  0
LINE
  5
21A
  8
0
 62
     2
 10
186.096092
 20
558.16163600000004
 30
0.0
 11
169.096092
 21
558.16163600000004
 31
0.0
  0
LINE
  5
21B
  8
0
 62
     2
 10
168.09609199999991
 20
547.16163600000004
 30
0.0
 11
168.09609199999991
 21
557.16163600000004
 31
0.0
  0
LINE
  5
21C
  8
0
  6
DASHSPACE
 62
     2
 10
164.09609199999991
 20
549.16163600000004
 30
0.0
 11
164.09609199999991
 21
555.16163600000004
 31
0.0
  0
LINE
  5
21D
  8
0
 62
     2
 10
187.09609199999991
 20
547.16163600000004
 30
0.0
 11
187.09609199999991
 21
557.16163600000004
 31
0.0
  0
LINE
  5
21E
  8
0
  6
DASHSPACE
 62
     2
 10
168.09609199999991
 20
549.16163600000004
 30
0.0
 11
164.09609199999991
 21
549.16163600000004
 31
0.0
  0
LINE
  5
21F
  8
0
  6
DASHSPACE
 62
     2
 10
168.09609199999991
 20
555.16163600000004
 30
0.0
 11
164.09609199999991
 21
555.16163600000004
 31
0.0
  0
LINE
  5
220
  8
0
 62
     2
 10
169.096092
 20
546.16163600000004
 30
0.0
 11
168.09609199999991
 21
547.16163600000004
 31
0.0
  0
LINE
  5
221
  8
0
 62
     2
 10
168.09609199999991
 20
557.16163600000004
 30
0.0
 11
169.096092
 21
558.16163600000004
 31
0.0
  0
LINE
  5
222
  8
0
 62
     2
 10
186.096092
 20
546.16163600000004
 30
0.0
 11
187.09609199999991
 21
547.16163600000004
 31
0.0
  0
LINE
  5
223
  8
0
 62
     2
 10
187.09609199999991
 20
557.16163600000004
 30
0.0
 11
186.096092
 21
558.16163600000004
 31
0.0
  0
LINE
  5
224
  8
0
 62
     2
 10
187.09609199999991
 20
547.16163600000004
 30
0.0
 11
168.09609199999991
 21
547.16163600000004
 31
0.0
  0
LINE
  5
225
  8
0
 62
     2
 10
187.09609199999991
 20
557.16163600000004
 30
0.0
 11
168.09609199999991
 21
557.16163600000004
 31
0.0
  0
LINE
  5
226
  8
0
 62
     2
 10
169.096092
 20
546.16163600000004
 30
0.0
 11
169.096092
 21
558.16163600000004
 31
0.0
  0
LINE
  5
227
  8
0
 62
     2
 10
186.096092
 20
546.16163600000004
 30
0.0
 11
186.096092
 21
558.16163600000004
 31
0.0
  0
LINE
  5
228
  8
0
 62
   230
 10
168.09609199999991
 20
547.66163600000004
 30
0.0
 11
168.09609199999991
 21
556.66163600000004
 31
0.0
  0
LINE
  5
229
  8
0
 62
   230
 10
163.09609199999991
 20
543.66163600000004
 30
0.0
 11
163.09609199999991
 21
560.66163600000004
 31
0.0
  0
LINE
  5
22A
  8
0
 62
   230
 10
166.0076259999999
 20
543.66163600000004
 30
0.0
 11
163.09609199999991
 21
543.66163600000004
 31
0.0
  0
LINE
  5
22B
  8
0
 62
   230
 10
166.0076259999999
 20
560.66163600000004
 30
0.0
 11
163.09609199999991
 21
560.66163600000004
 31
0.0
  0
LINE
  5
22C
  8
0
 62
   230
 10
165.596092
 20
543.66163600000004
 30
0.0
 11
165.596092
 21
560.66163600000004
 31
0.0
  0
LINE
  5
22D
  8
0
 62
   230
 10
166.0076259999999
 20
559.16163600000004
 30
0.0
 11
166.0076259999999
 21
560.66163600000004
 31
0.0
  0
LINE
  5
22E
  8
0
 62
   230
 10
168.09609199999991
 20
547.66163600000004
 30
0.0
 11
166.0076259999999
 21
547.66163600000004
 31
0.0
  0
LINE
  5
22F
  8
0
 62
   230
 10
168.09609199999991
 20
556.66163600000004
 30
0.0
 11
166.0076259999999
 21
556.66163600000004
 31
0.0
  0
ARC
  5
230
  8
0
 62
   230
 10
190.40489600000001
 20
552.16163600000004
 30
0.0
 40
24.808805
 50
169.54943099999991
 51
190.45056699999989
  0
ARC
  5
231
  8
0
 62
   230
 10
166.7576259999999
 20
558.16163600000004
 30
0.0
 40
1.25
 50
201.68526600000001
 51
233.13009700000001
  0
ARC
  5
232
  8
0
 62
   230
 10
166.7576259999999
 20
546.16163600000004
 30
0.0
 40
1.25
 50
201.68526600000001
 51
233.13009700000001
  0
ARC
  5
233
  8
0
 62
   230
 10
166.7576259999999
 20
546.16163600000004
 30
0.0
 40
1.25
 50
126.86989800000001
 51
158.31473099999999
  0
ARC
  5
234
  8
0
 62
   230
 10
166.7576259999999
 20
558.16163600000004
 30
0.0
 40
1.25
 50
126.86989800000001
 51
158.31473099999999
  0
LINE
  5
235
  8
0
 62
   230
 10
166.0076259999999
 20
543.66163600000004
 30
0.0
 11
166.0076259999999
 21
545.16163600000004
 31
0.0
  0
LINE
  5
236
  8
0
 62
   230
 10
166.0076259999999
 20
556.66163600000004
 30
0.0
 11
166.0076259999999
 21
557.16163600000004
 31
0.0
  0
LINE
  5
237
  8
0
 62
     7
 10
201.69609099999991
 20
728.51083399999993
 30
0.0
 11
201.69609099999991
 21
728.51672399999995
 31
0.0
  0
LINE
  5
238
  8
0
 62
     7
 10
127.6960909999999
 20
728.51083399999993
 30
0.0
 11
127.6960909999999
 21
728.51672399999995
 31
0.0
  0
LINE
  5
239
  8
0
 62
   211
 10
201.69609099999991
 20
708.66162099999985
 30
0.0
 11
127.6960909999999
 21
708.66162099999985
 31
0.0
  0
LINE
  5
23A
  8
0
 62
   211
 10
201.69609099999991
 20
708.66162099999985
 30
0.0
 11
201.69609099999991
 21
710.16162099999985
 31
0.0
  0
LINE
  5
23B
  8
0
 62
   211
 10
127.6960909999999
 20
708.66162099999985
 30
0.0
 11
127.6960909999999
 21
710.16162099999985
 31
0.0
  0
LINE
  5
23C
  8
0
 62
   211
 10
201.69609099999991
 20
710.16162099999985
 30
0.0
 11
127.6960909999999
 21
710.16162099999985
 31
0.0
  0
LINE
  5
23D
  8
0
 62
   211
 10
201.69609099999991
 20
710.473343
 30
0.0
 11
201.69609099999991
 21
711.15574600000002
 31
0.0
  0
LINE
  5
23E
  8
0
 62
   211
 10
201.69609099999991
 20
710.16162099999985
 30
0.0
 11
201.69609099999991
 21
710.473343
 31
0.0
  0
LINE
  5
23F
  8
0
 62
   211
 10
127.6960909999999
 20
710.16162099999985
 30
0.0
 11
127.6960909999999
 21
710.473343
 31
0.0
  0
LINE
  5
240
  8
0
 62
   211
 10
127.6960909999999
 20
710.473343
 30
0.0
 11
127.6960909999999
 21
711.15574600000002
 31
0.0
  0
LINE
  5
241
  8
0
 62
   211
 10
201.69609099999991
 20
711.15574600000002
 30
0.0
 11
201.69609099999991
 21
727.80830400000002
 31
0.0
  0
LINE
  5
242
  8
0
 62
   211
 10
127.6960909999999
 20
711.15574600000002
 30
0.0
 11
127.6960909999999
 21
727.80830400000002
 31
0.0
  0
LINE
  5
243
  8
0
 62
   211
 10
201.69609099999991
 20
727.80830400000002
 30
0.0
 11
201.69609099999991
 21
728.30807500000003
 31
0.0
  0
LINE
  5
244
  8
0
 62
   211
 10
127.6960909999999
 20
727.80830400000002
 30
0.0
 11
127.6960909999999
 21
728.30807500000003
 31
0.0
  0
LINE
  5
245
  8
0
 62
   211
 10
201.69609099999991
 20
728.30807500000003
 30
0.0
 11
201.69609099999991
 21
728.66162099999997
 31
0.0
  0
LINE
  5
246
  8
0
 62
   211
 10
127.6960909999999
 20
728.30807500000003
 30
0.0
 11
127.6960909999999
 21
728.66162099999997
 31
0.0
  0
LINE
  5
247
  8
0
 62
   211
 10
201.69609099999991
 20
753.50637800000004
 30
0.0
 11
201.69609099999991
 21
753.51371799999993
 31
0.0
  0
LINE
  5
248
  8
0
 62
   211
 10
201.69609099999991
 20
728.66162099999997
 30
0.0
 11
127.6960909999999
 21
728.66162099999997
 31
0.0
  0
LINE
  5
249
  8
0
 62
    31
 10
150.696091
 20
538.66163600000004
 30
0.0
 11
135.65058099999999
 21
538.66163600000004
 31
0.0
  0
LINE
  5
24A
  8
0
 62
    31
 10
165.696091
 20
538.14802599999996
 30
0.0
 11
162.78325699999999
 21
538.66163600000004
 31
0.0
  0
LINE
  5
24B
  8
0
 62
     7
 10
132.41830400000001
 20
483.074005
 30
0.0
 11
114.287308
 21
483.81404500000002
 31
0.0
  0
LINE
  5
24C
  8
0
 62
   230
 10
224.696091
 20
539.0924
 30
0.0
 11
224.696091
 21
563.41167800000005
 31
0.0
  0
POLYLINE
  5
24D
  8
0
 62
     3
 66
     1
 10
0.0
 20
0.0
 30
0.0
  0
VERTEX
  5
98F
  8
0
 62
     3
 10
190.50188799999989
 20
538.661652
 30
0.0
  0
VERTEX
  5
990
  8
0
 62
     3
 10
189.34511900000001
 20
554.61978099999988
 30
0.0
  0
VERTEX
  5
991
  8
0
 62
     3
 10
187.27805699999999
 20
555.47256900000002
 30
0.0
  0
VERTEX
  5
992
  8
0
 62
     3
 10
191.19528999999989
 20
556.75914399999999
 30
0.0
  0
VERTEX
  5
993
  8
0
 62
     3
 10
189.1282269999999
 20
557.61193099999991
 30
0.0
  0
VERTEX
  5
994
  8
0
 62
     3
 10
188.58218400000001
 20
565.14484400000003
 30
0.0
  0
SEQEND
  5
995
  8
0
 62
     3
  0
LINE
  5
255
  8
0
 62
     7
 10
199.696091
 20
541.46165099999996
 30
0.0
 11
190.298923
 21
541.46165099999996
 31
0.0
  0
LINE
  5
256
  8
0
 62
     7
 10
127.6960909999999
 20
538.661652
 30
0.0
 11
127.6960909999999
 21
578.955872
 31
0.0
  0
LINE
  5
257
  8
0
 62
     7
 10
127.6960909999999
 20
578.95584099999985
 30
0.0
 11
127.6960909999999
 21
708.66162099999985
 31
0.0
  0
LINE
  5
258
  8
0
  6
DASHDOT
 62
     7
 10
125.6960909999999
 20
483.3483809999999
 30
0.0
 11
125.6960909999999
 21
717.15801999999996
 31
0.0
  0
LINE
  5
259
  8
0
 62
     7
 10
125.6960909999999
 20
697.99124099999995
 30
0.0
 11
125.6960909999999
 21
698.16160600000001
 31
0.0
  0
LINE
  5
25A
  8
0
 62
     7
 10
196.19608700000001
 20
637.66161299999999
 30
0.0
 11
196.19606799999991
 21
645.91163600000004
 31
0.0
  0
LINE
  5
25B
  8
0
 62
     7
 10
198.696032
 20
692.16163600000004
 30
0.0
 11
199.403154
 21
692.45452899999998
 31
0.0
  0
LINE
  5
25C
  8
0
 62
     7
 10
199.40316799999991
 20
692.45449799999994
 30
0.0
 11
199.69605999999999
 21
693.16160600000001
 31
0.0
  0
LINE
  5
25D
  8
0
 62
     7
 10
196.19607500000001
 20
685.16163600000004
 30
0.0
 11
196.19609099999991
 21
692.16163600000004
 31
0.0
  0
LINE
  5
25E
  8
0
 62
     7
 10
198.69605999999999
 20
692.16163600000004
 30
0.0
 11
196.19609099999991
 21
692.16163600000004
 31
0.0
  0
LINE
  5
25F
  8
0
 62
     7
 10
196.19607500000001
 20
645.91163600000004
 30
0.0
 11
196.19607500000001
 21
685.16163600000004
 31
0.0
  0
LINE
  5
260
  8
0
 62
     7
 10
191.696091
 20
595.16163600000004
 30
0.0
 11
191.696091
 21
635.66163600000004
 31
0.0
  0
LINE
  5
261
  8
0
 62
     7
 10
191.69612100000001
 20
635.66169000000002
 30
0.0
 11
191.96406599999989
 21
636.66169000000002
 31
0.0
  0
LINE
  5
262
  8
0
 62
     7
 10
191.9641
 20
636.66172800000004
 30
0.0
 11
192.6961399999999
 21
637.39378399999987
 31
0.0
  0
LINE
  5
263
  8
0
 62
     7
 10
192.69603699999999
 20
637.39366900000005
 30
0.0
 11
193.69605300000001
 21
637.66161299999999
 31
0.0
  0
LINE
  5
264
  8
0
 62
     7
 10
199.696091
 20
595.16163600000004
 30
0.0
 11
191.696091
 21
595.16163600000004
 31
0.0
  0
LINE
  5
265
  8
0
 62
     7
 10
199.69604899999999
 20
580.16162099999985
 30
0.0
 11
198.6959719999999
 21
581.16162099999985
 31
0.0
  0
LINE
  5
266
  8
0
 62
     7
 10
198.6959949999999
 20
592.16164400000002
 30
0.0
 11
199.69608700000001
 21
593.16164399999991
 31
0.0
  0
LINE
  5
267
  8
0
 62
     7
 10
198.69598199999999
 20
592.16160599999989
 30
0.0
 11
135.92817700000001
 21
592.16160599999989
 31
0.0
  0
LINE
  5
268
  8
0
 62
     7
 10
198.69599700000001
 20
581.16163600000004
 30
0.0
 11
135.92813100000001
 21
581.16163600000004
 31
0.0
  0
LINE
  5
269
  8
0
 62
     7
 10
135.92816899999991
 20
592.16159100000004
 30
0.0
 11
132.19608299999999
 21
593.16160600000001
 31
0.0
  0
LINE
  5
26A
  8
0
 62
     7
 10
132.19612099999989
 20
593.16159800000003
 30
0.0
 11
128.69608299999999
 21
594.09943399999986
 31
0.0
  0
LINE
  5
26B
  8
0
 62
     7
 10
127.6960909999999
 20
578.955872
 30
0.0
 11
135.92813100000001
 21
581.16163600000004
 31
0.0
  0
LINE
  5
26C
  8
0
 62
     7
 10
127.696106
 20
596.45594000000006
 30
0.0
 11
128.69609800000001
 21
596.723885
 31
0.0
  0
LINE
  5
26D
  8
0
 62
     7
 10
131.69609099999991
 20
572.66162099999985
 30
0.0
 11
127.6960909999999
 21
572.66162099999985
 31
0.0
  0
LINE
  5
26E
  8
0
 62
     7
 10
131.69609099999991
 20
565.14484400000003
 30
0.0
 11
131.69609099999991
 21
572.66162099999985
 31
0.0
  0
LINE
  5
26F
  8
0
 62
     7
 10
128.69609099999991
 20
579.22380099999998
 30
0.0
 11
128.69609099999991
 21
623.66162099999997
 31
0.0
  0
LINE
  5
270
  8
0
 62
     7
 10
132.196091
 20
593.16163600000004
 30
0.0
 11
132.196091
 21
618.16163600000004
 31
0.0
  0
LINE
  5
271
  8
0
 62
     7
 10
130.69609099999991
 20
623.66162099999997
 30
0.0
 11
127.6960909999999
 21
623.66162099999997
 31
0.0
  0
LINE
  5
272
  8
0
 62
     7
 10
131.44609800000001
 20
623.46065499999986
 30
0.0
 11
130.69609800000001
 21
623.66161299999987
 31
0.0
  0
LINE
  5
273
  8
0
 62
     7
 10
131.44609800000001
 20
623.46065499999986
 30
0.0
 11
130.69609800000001
 21
623.66161299999987
 31
0.0
  0
LINE
  5
274
  8
0
 62
     7
 10
131.99513200000001
 20
622.91160599999989
 30
0.0
 11
131.44609099999991
 21
623.46064799999999
 31
0.0
  0
LINE
  5
275
  8
0
 62
     7
 10
132.19607500000001
 20
622.16159100000004
 30
0.0
 11
131.99511699999991
 21
622.91159100000004
 31
0.0
  0
LINE
  5
276
  8
0
 62
     7
 10
132.19610599999999
 20
618.16162099999985
 30
0.0
 11
132.19610599999999
 21
622.16160600000001
 31
0.0
  0
LINE
  5
277
  8
0
 62
     7
 10
131.99513999999991
 20
617.41161299999987
 30
0.0
 11
132.09036299999991
 21
617.76699099999985
 31
0.0
  0
LINE
  5
278
  8
0
 62
     7
 10
132.09035499999999
 20
617.76698299999998
 30
0.0
 11
132.19609800000001
 21
618.16162099999985
 31
0.0
  0
LINE
  5
279
  8
0
 62
     7
 10
131.44609099999991
 20
616.86254099999985
 30
0.0
 11
131.99513200000001
 21
617.41158299999995
 31
0.0
  0
LINE
  5
27A
  8
0
 62
     7
 10
130.69607500000001
 20
616.66159800000003
 30
0.0
 11
131.44607500000001
 21
616.86255599999993
 31
0.0
  0
LINE
  5
27B
  8
0
 62
     7
 10
130.69609099999991
 20
616.66162099999985
 30
0.0
 11
128.69609099999991
 21
616.66162099999985
 31
0.0
  0
LINE
  5
27C
  8
0
 62
     7
 10
127.6960909999999
 20
549.16162099999997
 30
0.0
 11
125.6960909999999
 21
549.16162099999997
 31
0.0
  0
LINE
  5
27D
  8
0
 62
     7
 10
127.6960909999999
 20
698.16160600000001
 30
0.0
 11
125.6960909999999
 21
698.16160600000001
 31
0.0
  0
LINE
  5
27E
  8
0
 62
     7
 10
127.6960909999999
 20
688.29325900000003
 30
0.0
 11
125.6960909999999
 21
688.29325900000003
 31
0.0
  0
LINE
  5
27F
  8
0
 62
     7
 10
134.995102
 20
580.91162899999995
 30
0.0
 11
132.19606799999991
 21
581.66162899999995
 31
0.0
  0
LINE
  5
280
  8
0
 62
     7
 10
132.19605999999999
 20
581.66163600000004
 30
0.0
 11
132.19605999999999
 21
591.66163600000004
 31
0.0
  0
LINE
  5
281
  8
0
 62
     7
 10
132.19605999999999
 20
591.66162099999985
 30
0.0
 11
134.99511699999991
 21
592.41162099999997
 31
0.0
  0
LINE
  5
282
  8
0
 62
     7
 10
127.6960909999999
 20
558.94624299999998
 30
0.0
 11
125.6960909999999
 21
558.94624299999998
 31
0.0
  0
LINE
  5
283
  8
0
 62
     7
 10
127.6960909999999
 20
559.16162099999985
 30
0.0
 11
125.6960909999999
 21
559.16162099999985
 31
0.0
  0
LINE
  5
284
  8
0
 62
     7
 10
131.99513999999991
 20
616.88232400000004
 30
0.0
 11
132.19609800000001
 21
617.76699800000006
 31
0.0
  0
LINE
  5
285
  8
0
 62
     7
 10
132.196091
 20
617.76699800000006
 30
0.0
 11
132.09034700000001
 21
617.76699800000006
 31
0.0
  0
LINE
  5
286
  8
0
 62
     7
 10
132.06211099999999
 20
603.66161299999987
 30
0.0
 11
132.19608299999999
 21
603.76107000000002
 31
0.0
  0
LINE
  5
287
  8
0
 62
     7
 10
132.06212600000001
 20
603.66157499999997
 30
0.0
 11
131.99513200000001
 21
603.71130400000004
 31
0.0
  0
LINE
  5
288
  8
0
 62
     7
 10
132.196091
 20
613.66163600000004
 30
0.0
 11
131.995125
 21
613.66163600000004
 31
0.0
  0
LINE
  5
289
  8
0
 62
     7
 10
131.995125
 20
607.6118469999999
 30
0.0
 11
132.06211099999999
 21
607.66157499999997
 31
0.0
  0
LINE
  5
28A
  8
0
 62
     7
 10
132.196091
 20
607.56214899999986
 30
0.0
 11
132.062119
 21
607.66160600000001
 31
0.0
  0
LINE
  5
28B
  8
0
 62
     7
 10
132.1042939999999
 20
615.38370499999985
 30
0.0
 11
131.995125
 21
615.99347699999987
 31
0.0
  0
LINE
  5
28C
  8
0
 62
     7
 10
132.196091
 20
613.66163600000004
 30
0.0
 11
132.10430099999991
 21
615.38371299999994
 31
0.0
  0
LINE
  5
28D
  8
0
 62
     7
 10
131.995125
 20
603.71133399999985
 30
0.0
 11
131.4797669999999
 21
603.81384300000002
 31
0.0
  0
LINE
  5
28E
  8
0
 62
     7
 10
131.4797669999999
 20
603.81385
 30
0.0
 11
131.44609099999991
 21
603.83635700000002
 31
0.0
  0
LINE
  5
28F
  8
0
 62
     7
 10
131.44607500000001
 20
607.48686199999997
 30
0.0
 11
131.47975199999991
 21
607.50936899999999
 31
0.0
  0
LINE
  5
290
  8
0
 62
     7
 10
131.47975899999989
 20
607.50936100000001
 30
0.0
 11
131.99511699999991
 21
607.61187000000007
 31
0.0
  0
LINE
  5
291
  8
0
 62
     7
 10
131.995125
 20
613.66163600000004
 30
0.0
 11
131.44609099999991
 21
613.66163600000004
 31
0.0
  0
LINE
  5
292
  8
0
 62
     7
 10
131.44608299999999
 20
603.83634199999995
 30
0.0
 11
130.69608299999999
 21
603.97061900000006
 31
0.0
  0
LINE
  5
293
  8
0
 62
     7
 10
130.69608299999999
 20
607.35258499999998
 30
0.0
 11
131.44608299999999
 21
607.48686199999997
 31
0.0
  0
LINE
  5
294
  8
0
 62
     7
 10
131.44609099999991
 20
613.66163600000004
 30
0.0
 11
130.69609099999991
 21
613.66163600000004
 31
0.0
  0
LINE
  5
295
  8
0
 62
     7
 10
130.69609099999991
 20
607.35260000000005
 30
0.0
 11
128.69609099999991
 21
607.35260000000005
 31
0.0
  0
LINE
  5
296
  8
0
 62
     7
 10
130.69609099999991
 20
613.66163600000004
 30
0.0
 11
128.69609099999991
 21
613.66163600000004
 31
0.0
  0
LINE
  5
297
  8
0
 62
     7
 10
130.69609099999991
 20
603.97064199999988
 30
0.0
 11
128.69609099999991
 21
603.97064199999988
 31
0.0
  0
LINE
  5
298
  8
0
 62
     3
 10
224.696091
 20
708.66163600000004
 30
0.0
 11
127.6960909999999
 21
708.66163600000004
 31
0.0
  0
LINE
  5
299
  8
0
 62
     3
 10
221.89608799999999
 20
705.86164900000006
 30
0.0
 11
193.23248699999999
 21
705.86164900000006
 31
0.0
  0
LINE
  5
29A
  8
0
 62
     3
 10
221.89608799999999
 20
541.46165099999996
 30
0.0
 11
199.696091
 21
541.46165099999996
 31
0.0
  0
LINE
  5
29B
  8
0
 62
     3
 10
224.696091
 20
538.661652
 30
0.0
 11
201.69609099999991
 21
538.661652
 31
0.0
  0
LINE
  5
29C
  8
0
 62
     3
 10
199.696091
 20
538.661652
 30
0.0
 11
199.696091
 21
580.91163600000004
 31
0.0
  0
LINE
  5
29D
  8
0
 62
     3
 10
199.696091
 20
592.41162099999997
 30
0.0
 11
199.696091
 21
595.16169699999989
 31
0.0
  0
LINE
  5
29E
  8
0
 62
     3
 10
199.696091
 20
693.16168200000004
 30
0.0
 11
199.696091
 21
708.66163600000004
 31
0.0
  0
LINE
  5
29F
  8
0
 62
     3
 10
229.196091
 20
636.61050399999988
 30
0.0
 11
229.196091
 21
646.16131600000006
 31
0.0
  0
LINE
  5
2A0
  8
0
 62
     3
 10
229.1960819999999
 20
579.161339
 30
0.0
 11
229.19603699999999
 21
585.71205899999995
 31
0.0
  0
LINE
  5
2A1
  8
0
 62
     3
 10
224.696091
 20
684.41163600000004
 30
0.0
 11
224.696091
 21
708.66163600000004
 31
0.0
  0
LINE
  5
2A2
  8
0
 62
     3
 10
224.696091
 20
692.411652
 30
0.0
 11
221.89608799999999
 21
692.411652
 31
0.0
  0
LINE
  5
2A3
  8
0
 62
     3
 10
224.696091
 20
554.911652
 30
0.0
 11
221.89608799999999
 21
554.911652
 31
0.0
  0
LINE
  5
2A4
  8
0
 62
     3
 10
221.89608799999999
 20
541.46165499999995
 30
0.0
 11
221.89608799999999
 21
563.41165499999988
 31
0.0
  0
LINE
  5
2A5
  8
0
 62
     3
 10
221.896085
 20
592.41163600000004
 30
0.0
 11
199.69608700000001
 21
592.41163600000004
 31
0.0
  0
LINE
  5
2A6
  8
0
 62
     3
 10
221.896085
 20
580.91163600000004
 30
0.0
 11
199.696089
 21
580.91163600000004
 31
0.0
  0
LINE
  5
2A7
  8
0
 62
     1
 10
227.19608999999991
 20
684.41163600000004
 30
0.0
 11
221.89608799999999
 21
684.41163600000004
 31
0.0
  0
LINE
  5
2A8
  8
0
 62
     1
 10
231.15316200000001
 20
673.76525900000001
 30
0.0
 11
231.12284299999999
 21
673.83847000000003
 31
0.0
  0
LINE
  5
2A9
  8
0
 62
     1
 10
231.12287599999999
 20
673.83839399999999
 30
0.0
 11
230.9461
 21
673.91160600000001
 31
0.0
  0
LINE
  5
2AA
  8
0
 62
     1
 10
224.696091
 20
563.411652
 30
0.0
 11
224.196091
 21
563.411652
 31
0.0
  0
LINE
  5
2AB
  8
0
 62
     1
 10
227.19608999999991
 20
563.41167800000005
 30
0.0
 11
221.89608799999999
 21
563.41167800000005
 31
0.0
  0
LINE
  5
2AC
  8
0
 62
     2
 10
238.1974009999999
 20
569.41163600000004
 30
0.0
 11
238.1974009999999
 21
571.41163600000004
 31
0.0
  0
LINE
  5
2AD
  8
0
 62
     2
 10
229.19740100000001
 20
568.91163600000004
 30
0.0
 11
229.19740100000001
 21
673.91163600000004
 31
0.0
  0
LINE
  5
2AE
  8
0
 62
     2
 10
232.69608099999999
 20
673.91163600000004
 30
0.0
 11
227.19608999999991
 21
673.91163600000004
 31
0.0
  0
LINE
  5
2AF
  8
0
 62
     2
 10
232.69608099999999
 20
568.91163600000004
 30
0.0
 11
227.19608999999991
 21
568.91163600000004
 31
0.0
  0
LINE
  5
2B0
  8
0
 62
     2
 10
238.19719900000001
 20
601.41161299999987
 30
0.0
 11
238.19725199999999
 21
620.91161299999987
 31
0.0
  0
LINE
  5
2B1
  8
0
 62
     7
 10
196.19608299999999
 20
637.66161299999999
 30
0.0
 11
193.69605300000001
 21
637.66161299999999
 31
0.0
  0
LINE
  5
2B2
  8
0
 62
     7
 10
227.19608999999991
 20
673.91163600000004
 30
0.0
 11
227.19608999999991
 21
684.41163600000004
 31
0.0
  0
LINE
  5
2B3
  8
0
 62
     7
 10
227.19608999999991
 20
563.411652
 30
0.0
 11
227.19608999999991
 21
568.91163600000004
 31
0.0
  0
LINE
  5
2B4
  8
0
 62
     3
 10
221.89608799999999
 20
684.41163600000004
 30
0.0
 11
221.89608799999999
 21
705.86164900000006
 31
0.0
  0
LINE
  5
2B5
  8
0
 62
     3
 10
221.89608799999999
 20
563.41165499999988
 30
0.0
 11
221.89608799999999
 21
684.41163600000004
 31
0.0
  0
ARC
  5
2B6
  8
0
 62
     7
 10
258.87213100000002
 20
599.367752
 30
0.0
 40
1.0
 50
348.62360999999993
 51
76.688818000000012
  0
ARC
  5
2B7
  8
0
 62
     7
 10
257.675388
 20
593.41993699999989
 30
0.0
 40
1.000000999999999
 50
260.59401500000001
 51
348.62360999999993
  0
LINE
  5
2B8
  8
0
  6
DASHDOT
 62
     7
 10
273.67271799999997
 20
593.25910199999998
 30
0.0
 11
223.556027
 21
603.34291799999994
 31
0.0
  0
LINE
  5
2B9
  8
0
 62
     7
 10
259.10236900000001
 20
600.34088899999995
 30
0.0
 11
238.19720899999999
 21
605.2869639999999
 31
0.0
  0
LINE
  5
2BA
  8
0
 62
     7
 10
258.65574299999997
 20
593.22267899999986
 30
0.0
 11
259.852484
 21
599.17050199999994
 31
0.0
  0
LINE
  5
2BB
  8
0
 62
     7
 10
257.51196099999993
 20
592.43337999999994
 30
0.0
 11
238.19726
 21
595.63297999999986
 31
0.0
  0
LINE
  5
2BC
  8
0
  6
DASHDOT
 62
     7
 10
122.696091
 20
483.47082899999998
 30
0.0
 11
122.696091
 21
717.56710799999985
 31
0.0
  0
LINE
  5
2BD
  8
0
 62
     7
 10
162.595383
 20
685.16163600000004
 30
0.0
 11
150.59506999999991
 21
685.16163600000004
 31
0.0
  0
LINE
  5
2BE
  8
0
 62
     7
 10
162.294884
 20
682.66163600000004
 30
0.0
 11
150.0262219999999
 21
682.66163600000004
 31
0.0
  0
LINE
  5
2BF
  8
0
 62
     7
 10
136.69609099999991
 20
678.59608500000002
 30
0.0
 11
136.69609099999991
 21
682.66163600000004
 31
0.0
  0
LINE
  5
2C0
  8
0
 62
     7
 10
140.696091
 20
678.59608500000002
 30
0.0
 11
140.696091
 21
682.66163600000004
 31
0.0
  0
LINE
  5
2C1
  8
0
 62
     7
 10
150.696091
 20
682.66163600000004
 30
0.0
 11
150.696091
 21
685.16163600000004
 31
0.0
  0
LINE
  5
2C2
  8
0
 62
     7
 10
143.1445389999999
 20
682.66163600000004
 30
0.0
 11
136.69609099999991
 21
682.66163600000004
 31
0.0
  0
POLYLINE
  5
2C3
  8
0
 62
     3
 66
     1
 10
0.0
 20
0.0
 30
0.0
  0
VERTEX
  5
996
  8
0
 62
     3
 10
162.93403599999999
 20
678.59608500000002
 30
0.0
  0
VERTEX
  5
997
  8
0
 62
     3
 10
146.93403599999999
 20
678.59608500000002
 30
0.0
  0
VERTEX
  5
998
  8
0
 62
     3
 10
145.93403599999999
 20
676.5960849999999
 30
0.0
  0
VERTEX
  5
999
  8
0
 62
     3
 10
144.93403599999999
 20
680.5960849999999
 30
0.0
  0
VERTEX
  5
99A
  8
0
 62
     3
 10
143.93403599999999
 20
678.59608500000002
 30
0.0
  0
VERTEX
  5
99B
  8
0
 62
     3
 10
127.93403600000001
 20
678.59608500000002
 30
0.0
  0
VERTEX
  5
99C
  8
0
 62
     3
 10
126.93403600000001
 20
676.5960849999999
 30
0.0
  0
VERTEX
  5
99D
  8
0
 62
     3
 10
125.93403600000001
 20
680.5960849999999
 30
0.0
  0
VERTEX
  5
99E
  8
0
 62
     3
 10
124.93403600000001
 20
678.59608500000002
 30
0.0
  0
VERTEX
  5
99F
  8
0
 62
     3
 10
120.4672469999999
 20
678.59608500000002
 30
0.0
  0
SEQEND
  5
9A0
  8
0
 62
     3
  0
LINE
  5
2CF
  8
0
 62
     7
 10
150.696091
 20
704.16163600000004
 30
0.0
 11
145.696091
 21
704.16163600000004
 31
0.0
  0
LINE
  5
2D0
  8
0
 62
     7
 10
150.696091
 20
685.16163600000004
 30
0.0
 11
150.696091
 21
691.16163600000004
 31
0.0
  0
LINE
  5
2D1
  8
0
 62
     7
 10
145.11887400000001
 20
677.59608500000002
 30
0.0
 11
149.195358
 21
681.59020999999996
 31
0.0
  0
LINE
  5
2D2
  8
0
 62
     7
 10
142.19682299999999
 20
681.73306300000002
 30
0.0
 11
145.696091
 21
685.16163600000004
 31
0.0
  0
LINE
  5
2D3
  8
0
 62
     7
 10
145.696091
 20
685.16163600000004
 30
0.0
 11
145.696091
 21
690.96163899999999
 31
0.0
  0
ARC
  5
2D4
  8
0
 62
     7
 10
145.696091
 20
678.16163600000004
 30
0.0
 40
4.999998999999999
 50
134.41529800000001
 51
180.00000299999991
  0
ARC
  5
2D5
  8
0
 62
     7
 10
145.696091
 20
685.16163600000004
 30
0.0
 40
5.0
 50
314.41529300000002
 51
0.000001
  0
LINE
  5
2D6
  8
0
  6
DASHDOT
 62
     7
 10
189.44509899999991
 20
695.16163600000004
 30
0.0
 11
140.3690639999999
 21
695.16163600000004
 31
0.0
  0
LINE
  5
2D7
  8
0
 62
     7
 10
145.696091
 20
562.16164800000001
 30
0.0
 11
127.6960909999999
 21
562.16164800000001
 31
0.0
  0
LINE
  5
2D8
  8
0
 62
     7
 10
141.696091
 20
562.16164800000001
 30
0.0
 11
141.696091
 21
565.14484400000003
 31
0.0
  0
LINE
  5
2D9
  8
0
 62
     7
 10
145.696091
 20
562.16164800000001
 30
0.0
 11
145.696091
 21
565.14484400000003
 31
0.0
  0
LINE
  5
2DA
  8
0
 62
     7
 10
151.69609099999991
 20
562.16164800000001
 30
0.0
 11
151.69609099999991
 21
565.14484400000003
 31
0.0
  0
LINE
  5
2DB
  8
0
 62
     7
 10
188.79843099999999
 20
562.16164800000001
 30
0.0
 11
151.69609099999991
 21
562.16164800000001
 31
0.0
  0
POLYLINE
  5
2DC
  8
0
 62
     3
 66
     1
 10
0.0
 20
0.0
 30
0.0
  0
VERTEX
  5
9A1
  8
0
 62
     3
 10
188.58218400000001
 20
565.14484400000003
 30
0.0
  0
VERTEX
  5
9A2
  8
0
 62
     3
 10
172.58218400000001
 20
565.14484400000003
 30
0.0
  0
VERTEX
  5
9A3
  8
0
 62
     3
 10
171.58218400000001
 20
563.14484400000003
 30
0.0
  0
VERTEX
  5
9A4
  8
0
 62
     3
 10
170.58218400000001
 20
567.14484400000003
 30
0.0
  0
VERTEX
  5
9A5
  8
0
 62
     3
 10
169.58218400000001
 20
565.14484400000003
 30
0.0
  0
VERTEX
  5
9A6
  8
0
 62
     3
 10
153.58218400000001
 20
565.14484400000003
 30
0.0
  0
VERTEX
  5
9A7
  8
0
 62
     3
 10
152.58218400000001
 20
563.14484400000003
 30
0.0
  0
VERTEX
  5
9A8
  8
0
 62
     3
 10
151.58218400000001
 20
567.14484400000003
 30
0.0
  0
VERTEX
  5
9A9
  8
0
 62
     3
 10
150.58218400000001
 20
565.14484400000003
 30
0.0
  0
VERTEX
  5
9AA
  8
0
 62
     3
 10
134.58218400000001
 20
565.14484400000003
 30
0.0
  0
VERTEX
  5
9AB
  8
0
 62
     3
 10
133.58218400000001
 20
563.14484400000003
 30
0.0
  0
VERTEX
  5
9AC
  8
0
 62
     3
 10
132.58218400000001
 20
567.14484400000003
 30
0.0
  0
VERTEX
  5
9AD
  8
0
 62
     3
 10
131.58218400000001
 20
565.14484400000003
 30
0.0
  0
VERTEX
  5
9AE
  8
0
 62
     3
 10
126.308266
 20
565.14484400000003
 30
0.0
  0
SEQEND
  5
9AF
  8
0
 62
     3
  0
LINE
  5
2EC
  8
0
 62
     7
 10
148.696091
 20
543.16165000000001
 30
0.0
 11
145.696091
 21
543.16165000000001
 31
0.0
  0
LINE
  5
2ED
  8
0
 62
     7
 10
148.696091
 20
556.16163600000004
 30
0.0
 11
148.696091
 21
565.14484400000003
 31
0.0
  0
LINE
  5
2EE
  8
0
 62
     7
 10
148.696091
 20
543.16165000000001
 30
0.0
 11
148.696091
 21
547.91164800000001
 31
0.0
  0
LINE
  5
2EF
  8
0
 62
     7
 10
150.696091
 20
543.16165000000001
 30
0.0
 11
148.696091
 21
543.16165000000001
 31
0.0
  0
LINE
  5
2F0
  8
0
 62
     7
 10
150.696091
 20
564.16164800000001
 30
0.0
 11
148.696091
 21
564.16164800000001
 31
0.0
  0
LINE
  5
2F1
  8
0
  6
DASHDOT
 62
     7
 10
167.56025700000001
 20
552.16163600000004
 30
0.0
 11
140.3690639999999
 21
552.16163600000004
 31
0.0
  0
LINE
  5
2F2
  8
0
 62
     7
 10
150.696091
 20
556.26163499999996
 30
0.0
 11
145.696091
 21
556.26163499999996
 31
0.0
  0
LINE
  5
2F3
  8
0
 62
     7
 10
150.696091
 20
548.0616379999999
 30
0.0
 11
145.696091
 21
548.0616379999999
 31
0.0
  0
ARC
  5
2F4
  8
0
  6
DASHDOT
 62
     7
 10
184.696888
 20
611.16163600000004
 30
0.0
 40
76.044273000000004
 50
337.49231500000002
 51
0.000001
  0
LINE
  5
2F5
  8
0
  6
DASHDOT
 62
     7
 10
260.74115799999993
 20
611.16163600000004
 30
0.0
 11
260.74115799999993
 21
616.91183499999988
 31
0.0
  0
LINE
  5
2F6
  8
0
 62
     7
 10
150.696091
 20
699.36163299999998
 30
0.0
 11
145.696091
 21
699.36163299999998
 31
0.0
  0
LINE
  5
2F7
  8
0
 62
     7
 10
150.696091
 20
690.96163899999999
 30
0.0
 11
145.696091
 21
690.96163899999999
 31
0.0
  0
LINE
  5
2F8
  8
0
 62
     7
 10
150.696091
 20
708.66162099999985
 30
0.0
 11
127.6960909999999
 21
708.66162099999985
 31
0.0
  0
LINE
  5
2F9
  8
0
 62
     7
 10
131.94030799999999
 20
716.30653399999994
 30
0.0
 11
115.12361899999991
 21
718.59971599999994
 31
0.0
  0
LINE
  5
2FA
  8
0
 62
     1
 10
232.69608099999999
 20
566.40520100000003
 30
0.0
 11
232.69608099999999
 21
568.40520100000003
 31
0.0
  0
LINE
  5
2FB
  8
0
 62
     1
 10
234.69608099999999
 20
566.40520100000003
 30
0.0
 11
232.69608099999999
 21
566.40520100000003
 31
0.0
  0
LINE
  5
2FC
  8
0
 62
     1
 10
232.69608099999999
 20
674.40519699999993
 30
0.0
 11
232.69608099999999
 21
676.40519699999993
 31
0.0
  0
LINE
  5
2FD
  8
0
 62
     1
 10
234.69608099999999
 20
676.40519699999993
 30
0.0
 11
232.69608099999999
 21
676.40519699999993
 31
0.0
  0
LINE
  5
2FE
  8
0
 62
     1
 10
232.69608099999999
 20
568.40520100000003
 30
0.0
 11
232.69608099999999
 21
674.40519699999993
 31
0.0
  0
LINE
  5
2FF
  8
0
 62
     1
 10
228.19608099999999
 20
689.98254399999996
 30
0.0
 11
228.19608099999999
 21
694.82785000000001
 31
0.0
  0
LINE
  5
300
  8
0
 62
     1
 10
228.19608099999999
 20
547.98255199999994
 30
0.0
 11
228.19608099999999
 21
552.8278499999999
 31
0.0
  0
LINE
  5
301
  8
0
 62
     1
 10
234.69608099999999
 20
539.90520100000003
 30
0.0
 11
234.69608099999999
 21
702.90519699999993
 31
0.0
  0
LINE
  5
302
  8
0
 62
     1
 10
238.19608099999991
 20
539.90520100000003
 30
0.0
 11
234.69608099999999
 21
539.90520100000003
 31
0.0
  0
LINE
  5
303
  8
0
 62
     1
 10
238.19608099999991
 20
539.90519699999993
 30
0.0
 11
238.19608099999991
 21
702.90519699999993
 31
0.0
  0
LINE
  5
304
  8
0
 62
     1
 10
238.19608099999991
 20
702.90519699999993
 30
0.0
 11
237.19608099999999
 21
702.90519699999993
 31
0.0
  0
LINE
  5
305
  8
0
 62
     1
 10
236.19608099999991
 20
702.90519699999993
 30
0.0
 11
234.69608099999999
 21
702.90519699999993
 31
0.0
  0
LINE
  5
306
  8
0
 62
     1
 10
234.69608099999999
 20
689.40519699999993
 30
0.0
 11
229.19608099999991
 21
689.40519699999993
 31
0.0
  0
LINE
  5
307
  8
0
 62
     1
 10
234.69608099999999
 20
695.40519699999993
 30
0.0
 11
229.19608099999991
 21
695.40519699999993
 31
0.0
  0
LINE
  5
308
  8
0
 62
     1
 10
229.1960819999999
 20
689.40519699999993
 30
0.0
 11
228.19608199999999
 21
689.98254399999996
 31
0.0
  0
LINE
  5
309
  8
0
 62
     1
 10
229.19608099999991
 20
689.40519699999993
 30
0.0
 11
229.19608099999991
 21
690.28387499999985
 31
0.0
  0
LINE
  5
30A
  8
0
 62
     1
 10
229.19608099999991
 20
690.28387499999985
 30
0.0
 11
229.19608099999991
 21
691.2571559999999
 31
0.0
  0
LINE
  5
30B
  8
0
 62
     1
 10
229.19608099999991
 20
691.2571559999999
 30
0.0
 11
229.19608099999991
 21
692.40519699999993
 31
0.0
  0
LINE
  5
30C
  8
0
 62
     1
 10
229.19608099999991
 20
692.40519699999993
 30
0.0
 11
229.19608099999991
 21
693.55325300000004
 31
0.0
  0
LINE
  5
30D
  8
0
 62
     1
 10
229.19608099999991
 20
693.55325300000004
 30
0.0
 11
229.19608099999991
 21
695.40519699999993
 31
0.0
  0
LINE
  5
30E
  8
0
 62
     1
 10
229.19608099999991
 20
694.52652
 30
0.0
 11
229.19608099999991
 21
695.17683399999999
 31
0.0
  0
LINE
  5
30F
  8
0
 62
     1
 10
228.69608099999999
 20
695.17683399999999
 30
0.0
 11
228.69608099999999
 21
695.40519699999993
 31
0.0
  0
LINE
  5
310
  8
0
 62
     1
 10
228.19607999999991
 20
694.82785000000001
 30
0.0
 11
229.19608099999991
 21
695.40519699999993
 31
0.0
  0
LINE
  5
311
  8
0
 62
     1
 10
234.69608099999999
 20
553.40520100000003
 30
0.0
 11
229.19608099999991
 21
553.40520100000003
 31
0.0
  0
LINE
  5
312
  8
0
 62
     1
 10
234.69608099999999
 20
547.40520100000003
 30
0.0
 11
229.19608099999991
 21
547.40520100000003
 31
0.0
  0
LINE
  5
313
  8
0
 62
     1
 10
228.19608099999999
 20
552.8278499999999
 30
0.0
 11
229.19608099999991
 21
553.40520100000003
 31
0.0
  0
LINE
  5
314
  8
0
 62
     1
 10
229.19608099999991
 20
552.52651999999989
 30
0.0
 11
229.19608099999991
 21
553.40520100000003
 31
0.0
  0
LINE
  5
315
  8
0
 62
     1
 10
229.19608099999991
 20
551.55325300000004
 30
0.0
 11
229.19608099999991
 21
552.52651999999989
 31
0.0
  0
LINE
  5
316
  8
0
 62
     1
 10
229.19608099999991
 20
550.40520100000003
 30
0.0
 11
229.19608099999991
 21
551.55325300000004
 31
0.0
  0
LINE
  5
317
  8
0
 62
     1
 10
229.19608099999991
 20
549.25715300000002
 30
0.0
 11
229.19608099999991
 21
550.40520100000003
 31
0.0
  0
LINE
  5
318
  8
0
 62
     1
 10
229.19608099999991
 20
548.28388199999995
 30
0.0
 11
229.19608099999991
 21
549.25715300000002
 31
0.0
  0
LINE
  5
319
  8
0
 62
     1
 10
229.19608099999991
 20
547.63356399999998
 30
0.0
 11
229.19608099999991
 21
548.28388199999995
 31
0.0
  0
LINE
  5
31A
  8
0
 62
     1
 10
229.1960819999999
 20
547.40520100000003
 30
0.0
 11
228.19608199999999
 21
547.98255199999994
 31
0.0
  0
LINE
  5
31B
  8
0
 62
     1
 10
229.19608099999991
 20
547.40520100000003
 30
0.0
 11
229.19608099999991
 21
547.63356399999998
 31
0.0
  0
LINE
  5
31C
  8
0
 62
     1
 10
237.19608099999999
 20
702.90519699999993
 30
0.0
 11
236.19608099999991
 21
702.90519699999993
 31
0.0
  0
LINE
  5
31D
  8
0
 62
     7
 10
234.69608099999999
 20
702.90519699999993
 30
0.0
 11
234.69608099999999
 21
745.60438499999998
 31
0.0
  0
LINE
  5
31E
  8
0
 62
     7
 10
232.69608099999999
 20
676.40519699999993
 30
0.0
 11
232.69608099999999
 21
689.40519699999993
 31
0.0
  0
LINE
  5
31F
  8
0
 62
     7
 10
234.69608099999999
 20
500.946257
 30
0.0
 11
234.69608099999999
 21
539.90520100000003
 31
0.0
  0
LINE
  5
320
  8
0
 62
     7
 10
232.69608099999999
 20
502.14446800000002
 30
0.0
 11
232.69608099999999
 21
547.40520100000003
 31
0.0
  0
LINE
  5
321
  8
0
 62
     7
 10
234.69608099999999
 20
695.90519699999993
 30
0.0
 11
232.69608099999999
 21
695.90519699999993
 31
0.0
  0
LINE
  5
322
  8
0
 62
     7
 10
234.69608099999999
 20
688.90519699999993
 30
0.0
 11
232.69608099999999
 21
688.90519699999993
 31
0.0
  0
LINE
  5
323
  8
0
 62
     7
 10
234.69608099999999
 20
677.40519699999993
 30
0.0
 11
232.69608099999999
 21
677.40519699999993
 31
0.0
  0
LINE
  5
324
  8
0
 62
     7
 10
234.69608099999999
 20
565.40520100000003
 30
0.0
 11
232.69608099999999
 21
565.40520100000003
 31
0.0
  0
LINE
  5
325
  8
0
 62
     7
 10
234.69608099999999
 20
553.90520100000003
 30
0.0
 11
232.69608099999999
 21
553.90520100000003
 31
0.0
  0
LINE
  5
326
  8
0
 62
     7
 10
234.69608099999999
 20
546.90520100000003
 30
0.0
 11
232.69608099999999
 21
546.90520100000003
 31
0.0
  0
LINE
  5
327
  8
0
 62
     7
 10
232.69608099999999
 20
553.40520100000003
 30
0.0
 11
232.69608099999999
 21
566.40520100000003
 31
0.0
  0
LINE
  5
328
  8
0
 62
     7
 10
232.69608099999999
 20
695.40519699999993
 30
0.0
 11
232.69608099999999
 21
747.28454599999998
 31
0.0
  0
POLYLINE
  5
329
  8
0
 62
     3
 66
     1
 10
0.0
 20
0.0
 30
0.0
  0
VERTEX
  5
9B0
  8
0
 62
     3
 10
238.73527599999991
 20
742.21115099999986
 30
0.0
  0
VERTEX
  5
9B1
  8
0
 62
     3
 10
231.41643499999989
 20
748.35954299999992
 30
0.0
  0
VERTEX
  5
9B2
  8
0
 62
     3
 10
229.36430499999989
 20
747.47141999999997
 30
0.0
  0
VERTEX
  5
9B3
  8
0
 62
     3
 10
231.17153599999989
 20
751.17735300000004
 30
0.0
  0
VERTEX
  5
9B4
  8
0
 62
     3
 10
229.11940699999991
 20
750.28921500000001
 30
0.0
  0
SEQEND
  5
9B5
  8
0
 62
     3
  0
POLYLINE
  5
330
  8
0
 62
     3
 66
     1
 10
0.0
 20
0.0
 30
0.0
  0
VERTEX
  5
9B6
  8
0
 62
     3
 10
240.14337999999989
 20
497.682748
 30
0.0
  0
VERTEX
  5
9B7
  8
0
 62
     3
 10
230.284797
 20
503.58908300000002
 30
0.0
  0
VERTEX
  5
9B8
  8
0
 62
     3
 10
228.399102
 20
502.38735199999991
 30
0.0
  0
VERTEX
  5
9B9
  8
0
 62
     3
 10
229.5969979999999
 20
506.33260799999999
 30
0.0
  0
VERTEX
  5
9BA
  8
0
 62
     3
 10
227.7113029999999
 20
505.13087699999988
 30
0.0
  0
SEQEND
  5
9BB
  8
0
 62
     3
  0
LINE
  5
337
  8
0
  6
DASHDOT
 62
     7
 10
260.74115799999993
 20
611.16163600000004
 30
0.0
 11
260.74115799999993
 21
632.22608899999989
 31
0.0
  0
LINE
  5
338
  8
0
  6
DASHDOT
 62
   150
 10
288.20144299999998
 20
621.41163600000004
 30
0.0
 11
97.531357000000014
 21
621.41163600000004
 31
0.0
  0
POLYLINE
  5
339
  8
0
 62
     3
 66
     1
 10
0.0
 20
0.0
 30
0.0
  0
VERTEX
  5
9BC
  8
0
 62
     3
 10
190.874943
 20
684.43972799999995
 30
0.0
  0
VERTEX
  5
9BD
  8
0
 62
     3
 10
192.62522100000001
 20
700.343704
 30
0.0
  0
VERTEX
  5
9BE
  8
0
 62
     3
 10
190.74661599999999
 20
701.55648799999994
 30
0.0
  0
VERTEX
  5
9BF
  8
0
 62
     3
 10
194.83200500000001
 20
702.11291500000004
 30
0.0
  0
VERTEX
  5
9C0
  8
0
 62
     3
 10
192.9533999999999
 20
703.32569899999987
 30
0.0
  0
VERTEX
  5
9C1
  8
0
 62
     3
 10
194.21574799999991
 20
714.79608199999996
 30
0.0
  0
SEQEND
  5
9C2
  8
0
 62
     3
  0
POLYLINE
  5
341
  8
0
 62
     3
 66
     1
 10
0.0
 20
0.0
 30
0.0
  0
VERTEX
  5
9C3
  8
0
 62
     3
 10
162.93403599999999
 20
678.59608500000002
 30
0.0
  0
VERTEX
  5
9C4
  8
0
 62
     3
 10
162.7051699999999
 20
681.44932599999981
 30
0.0
  0
VERTEX
  5
9C5
  8
0
 62
     3
 10
160.6316149999999
 20
682.28620899999999
 30
0.0
  0
VERTEX
  5
9C6
  8
0
 62
     3
 10
164.538849
 20
683.60284399999989
 30
0.0
  0
VERTEX
  5
9C7
  8
0
 62
     3
 10
162.46530200000001
 20
684.43972799999995
 30
0.0
  0
SEQEND
  5
9C8
  8
0
 62
     3
  0
POLYLINE
  5
348
  8
0
 62
     3
 66
     1
 10
0.0
 20
0.0
 30
0.0
  0
VERTEX
  5
9C9
  8
0
 62
     3
 10
190.874943
 20
684.43972799999995
 30
0.0
  0
VERTEX
  5
9CA
  8
0
 62
     3
 10
174.874943
 20
684.43972799999995
 30
0.0
  0
VERTEX
  5
9CB
  8
0
 62
     3
 10
173.874943
 20
682.43972799999995
 30
0.0
  0
VERTEX
  5
9CC
  8
0
 62
     3
 10
172.874943
 20
686.43972799999995
 30
0.0
  0
VERTEX
  5
9CD
  8
0
 62
     3
 10
171.874943
 20
684.43972799999995
 30
0.0
  0
VERTEX
  5
9CE
  8
0
 62
     3
 10
162.465294
 20
684.43972799999995
 30
0.0
  0
SEQEND
  5
9CF
  8
0
 62
     3
  0
LINE
  5
350
  8
0
 62
     7
 10
145.696091
 20
699.36163299999998
 30
0.0
 11
145.696091
 21
704.16163600000004
 31
0.0
  0
LINE
  5
351
  8
0
 62
     3
 10
190.95439099999999
 20
685.16163600000004
 30
0.0
 11
150.696091
 21
685.16163600000004
 31
0.0
  0
LINE
  5
352
  8
0
  6
DASHSPACE
 62
     3
 10
150.696091
 20
685.16163600000004
 30
0.0
 11
145.696091
 21
685.16163600000004
 31
0.0
  0
LINE
  5
353
  8
0
 62
     1
 10
150.696091
 20
556.16163600000004
 30
0.0
 11
150.696091
 21
561.16163600000004
 31
0.0
  0
LINE
  5
354
  8
0
 62
     7
 10
150.696091
 20
561.16163600000004
 30
0.0
 11
150.696091
 21
565.14484400000003
 31
0.0
  0
LINE
  5
355
  8
0
  6
DASHDOT
 62
    31
 10
133.34079700000001
 20
693.16163600000004
 30
0.0
 11
108.69169599999989
 21
693.16163600000004
 31
0.0
  0
LINE
  5
356
  8
0
 62
     7
 10
122.696091
 20
697.16163600000004
 30
0.0
 11
118.696091
 21
697.16163600000004
 31
0.0
  0
LINE
  5
357
  8
0
 62
     7
 10
122.696091
 20
689.16163600000004
 30
0.0
 11
118.696091
 21
689.16163600000004
 31
0.0
  0
LINE
  5
358
  8
0
 62
     7
 10
118.696091
 20
689.16163600000004
 30
0.0
 11
118.696091
 21
697.16163600000004
 31
0.0
  0
LINE
  5
359
  8
0
 62
     7
 10
114.696091
 20
690.66163600000004
 30
0.0
 11
114.696091
 21
695.66163600000004
 31
0.0
  0
LINE
  5
35A
  8
0
 62
     7
 10
122.696091
 20
695.66163600000004
 30
0.0
 11
114.696091
 21
695.66163600000004
 31
0.0
  0
LINE
  5
35B
  8
0
 62
     7
 10
122.696091
 20
690.66163600000004
 30
0.0
 11
114.696091
 21
690.66163600000004
 31
0.0
  0
LINE
  5
35C
  8
0
 62
     7
 10
122.696091
 20
558.16163600000004
 30
0.0
 11
118.696091
 21
558.16163600000004
 31
0.0
  0
LINE
  5
35D
  8
0
 62
     7
 10
122.696091
 20
556.66163600000004
 30
0.0
 11
114.696091
 21
556.66163600000004
 31
0.0
  0
LINE
  5
35E
  8
0
 62
     7
 10
122.696091
 20
551.66163600000004
 30
0.0
 11
114.696091
 21
551.66163600000004
 31
0.0
  0
LINE
  5
35F
  8
0
 62
     7
 10
122.696091
 20
550.16163600000004
 30
0.0
 11
118.696091
 21
550.16163600000004
 31
0.0
  0
LINE
  5
360
  8
0
  6
DASHDOT
 62
    31
 10
133.34079700000001
 20
554.16163600000004
 30
0.0
 11
108.69169599999989
 21
554.16163600000004
 31
0.0
  0
LINE
  5
361
  8
0
 62
     7
 10
118.696091
 20
550.16163600000004
 30
0.0
 11
118.696091
 21
558.16163600000004
 31
0.0
  0
LINE
  5
362
  8
0
 62
     7
 10
114.696091
 20
551.66163600000004
 30
0.0
 11
114.696091
 21
556.66163600000004
 31
0.0
  0
CIRCLE
  5
363
  8
0
 62
     7
 10
120.21247099999989
 20
691.62873799999988
 30
0.0
 40
0.2
  0
LINE
  5
364
  8
0
 62
     7
 10
150.696091
 20
556.14944100000002
 30
0.0
 11
150.696091
 21
561.66124000000002
 31
0.0
  0
LINE
  5
365
  8
0
  6
DASHDOT
 62
     7
 10
165.174091
 20
539.66203899999994
 30
0.0
 11
165.174091
 21
564.66124000000002
 31
0.0
  0
LINE
  5
366
  8
0
  6
DASHDOT
 62
     7
 10
160.6879349999999
 20
552.16164000000003
 30
0.0
 11
147.696091
 21
552.16164000000003
 31
0.0
  0
LINE
  5
367
  8
0
  6
DASHDOT
 62
     7
 10
188.79889299999991
 20
552.16164000000003
 30
0.0
 11
165.655418
 21
552.16164000000003
 31
0.0
  0
LINE
  5
368
  8
0
 62
   150
 10
185.03689199999999
 20
688.01788299999998
 30
0.0
 11
172.092457
 21
688.01788299999998
 31
0.0
  0
LINE
  5
369
  8
0
 62
     7
 10
185.03689199999999
 20
688.81788600000004
 30
0.0
 11
172.092457
 21
688.81788600000004
 31
0.0
  0
LINE
  5
36A
  8
0
 62
   150
 10
185.03689199999999
 20
688.01788299999998
 30
0.0
 11
185.03689199999999
 21
702.30538899999988
 31
0.0
  0
LINE
  5
36B
  8
0
 62
   150
 10
185.03689199999999
 20
688.01788299999998
 30
0.0
 11
185.79889299999991
 21
688.77987699999994
 31
0.0
  0
LINE
  5
36C
  8
0
 62
   150
 10
185.79889299999991
 20
688.77987699999994
 30
0.0
 11
185.79889299999991
 21
701.54338099999995
 31
0.0
  0
LINE
  5
36D
  8
0
 62
   150
 10
185.79889299999991
 20
701.54338099999995
 30
0.0
 11
185.03689199999999
 21
702.30538899999988
 31
0.0
  0
LINE
  5
36E
  8
0
 62
   150
 10
185.03689199999999
 20
702.30538899999988
 30
0.0
 11
172.092457
 21
702.30538899999988
 31
0.0
  0
LINE
  5
36F
  8
0
 62
   150
 10
172.092457
 20
688.01788299999998
 30
0.0
 11
172.092457
 21
702.30538899999988
 31
0.0
  0
LINE
  5
370
  8
0
 62
   150
 10
168.65541799999991
 20
696.35226399999988
 30
0.0
 11
172.092457
 21
702.30538899999988
 31
0.0
  0
ARC
  5
371
  8
0
 62
   150
 10
170.71764400000001
 20
695.16163600000004
 30
0.0
 40
2.3812500000000001
 50
150.00000299999991
 51
210.00000299999991
  0
LINE
  5
372
  8
0
 62
   150
 10
172.092457
 20
688.01788299999998
 30
0.0
 11
168.65541799999991
 21
693.97100799999998
 31
0.0
  0
LINE
  5
373
  8
0
 62
     7
 10
178.17889400000001
 20
685.66203299999995
 30
0.0
 11
178.17889400000001
 21
688.01788299999998
 31
0.0
  0
LINE
  5
374
  8
0
 62
     7
 10
178.17889400000001
 20
685.66203299999995
 30
0.0
 11
173.6830939999999
 21
685.66203299999995
 31
0.0
  0
LINE
  5
375
  8
0
 62
     7
 10
173.6830939999999
 20
685.66203299999995
 30
0.0
 11
173.6830939999999
 21
688.01788299999998
 31
0.0
  0
LINE
  5
376
  8
0
 62
     7
 10
178.17889400000001
 20
702.30538899999988
 30
0.0
 11
178.17889400000001
 21
704.66124000000002
 31
0.0
  0
LINE
  5
377
  8
0
 62
     7
 10
178.17889400000001
 20
704.66124000000002
 30
0.0
 11
173.6830939999999
 21
704.66124000000002
 31
0.0
  0
LINE
  5
378
  8
0
 62
     7
 10
173.6830939999999
 20
702.30538899999988
 30
0.0
 11
173.6830939999999
 21
704.66124000000002
 31
0.0
  0
LINE
  5
379
  8
0
  6
DASHDOT
 62
     7
 10
165.174091
 20
682.66203299999995
 30
0.0
 11
165.174091
 21
707.66124000000002
 31
0.0
  0
LINE
  5
37A
  8
0
 62
     7
 10
156.6650919999999
 20
699.14919999999995
 30
0.0
 11
156.6650919999999
 21
704.66124000000002
 31
0.0
  0
POLYLINE
  5
37B
  8
0
 62
     7
 66
     1
 10
0.0
 20
0.0
 30
0.0
  0
VERTEX
  5
9D0
  8
0
 62
     7
 10
156.6650919999999
 20
699.14942900000005
 30
0.0
  0
VERTEX
  5
9D1
  8
0
 62
     7
 10
156.665085
 20
699.14944500000001
 30
0.0
  0
VERTEX
  5
9D2
  8
0
 62
     7
 10
156.6650699999999
 20
699.14942900000005
 30
0.0
  0
VERTEX
  5
9D3
  8
0
 62
     7
 10
156.6650699999999
 20
699.14941399999998
 30
0.0
  0
VERTEX
  5
9D4
  8
0
 62
     7
 10
156.665154
 20
699.14915499999995
 30
0.0
  0
VERTEX
  5
9D5
  8
0
 62
     7
 10
156.66580999999999
 20
699.14758300000005
 30
0.0
  0
VERTEX
  5
9D6
  8
0
 62
     7
 10
156.67188300000001
 20
699.13432299999999
 30
0.0
  0
VERTEX
  5
9D7
  8
0
 62
     7
 10
156.70558899999989
 20
699.06169099999988
 30
0.0
  0
VERTEX
  5
9D8
  8
0
 62
     7
 10
156.8047939999999
 20
698.8416749999999
 30
0.0
  0
VERTEX
  5
9D9
  8
0
 62
     7
 10
156.94945499999989
 20
698.49974099999997
 30
0.0
  0
VERTEX
  5
9DA
  8
0
 62
     7
 10
157.01073500000001
 20
698.34588599999995
 30
0.0
  0
VERTEX
  5
9DB
  8
0
 62
     7
 10
157.0748669999999
 20
698.17793300000005
 30
0.0
  0
VERTEX
  5
9DC
  8
0
 62
     7
 10
157.12856300000001
 20
698.03091399999994
 30
0.0
  0
VERTEX
  5
9DD
  8
0
 62
     7
 10
157.1828459999999
 20
697.87536599999987
 30
0.0
  0
VERTEX
  5
9DE
  8
0
 62
     7
 10
157.22979699999991
 20
697.73419200000001
 30
0.0
  0
VERTEX
  5
9DF
  8
0
 62
     7
 10
157.27627599999991
 20
697.58720400000004
 30
0.0
  0
VERTEX
  5
9E0
  8
0
 62
     7
 10
157.33420599999991
 20
697.39154099999996
 30
0.0
  0
VERTEX
  5
9E1
  8
0
 62
     7
 10
157.370735
 20
697.25926200000004
 30
0.0
  0
VERTEX
  5
9E2
  8
0
 62
     7
 10
157.405991
 20
697.12355000000002
 30
0.0
  0
VERTEX
  5
9E3
  8
0
 62
     7
 10
157.437859
 20
696.99258399999997
 30
0.0
  0
VERTEX
  5
9E4
  8
0
 62
     7
 10
157.46822399999999
 20
696.85885599999995
 30
0.0
  0
VERTEX
  5
9E5
  8
0
 62
     7
 10
157.4956509999999
 20
696.72875999999985
 30
0.0
  0
VERTEX
  5
9E6
  8
0
 62
     7
 10
157.52140800000001
 20
696.59646599999996
 30
0.0
  0
VERTEX
  5
9E7
  8
0
 62
     7
 10
157.54447899999991
 20
696.46720900000003
 30
0.0
  0
VERTEX
  5
9E8
  8
0
 62
     7
 10
157.56575000000001
 20
696.33619699999997
 30
0.0
  0
VERTEX
  5
9E9
  8
0
 62
     7
 10
157.58450300000001
 20
696.20796199999995
 30
0.0
  0
VERTEX
  5
9EA
  8
0
 62
     7
 10
157.60135700000001
 20
696.07836899999995
 30
0.0
  0
VERTEX
  5
9EB
  8
0
 62
     7
 10
157.61581399999989
 20
695.95144700000003
 30
0.0
  0
VERTEX
  5
9EC
  8
0
 62
     7
 10
157.628311
 20
695.823532
 30
0.0
  0
VERTEX
  5
9ED
  8
0
 62
     7
 10
157.638496
 20
695.69828799999993
 30
0.0
  0
VERTEX
  5
9EE
  8
0
 62
     7
 10
157.6466749999999
 20
695.57238799999993
 30
0.0
  0
VERTEX
  5
9EF
  8
0
 62
     7
 10
157.6526409999999
 20
695.44926499999997
 30
0.0
  0
VERTEX
  5
9F0
  8
0
 62
     7
 10
157.6565699999999
 20
695.32578999999987
 30
0.0
  0
VERTEX
  5
9F1
  8
0
 62
     7
 10
157.65834799999999
 20
695.10818499999993
 30
0.0
  0
VERTEX
  5
9F2
  8
0
 62
     7
 10
157.65271799999999
 20
694.87258899999995
 30
0.0
  0
VERTEX
  5
9F3
  8
0
 62
     7
 10
157.639084
 20
694.63157699999999
 30
0.0
  0
VERTEX
  5
9F4
  8
0
 62
     7
 10
157.6173399999999
 20
694.38610800000004
 30
0.0
  0
VERTEX
  5
9F5
  8
0
 62
     7
 10
157.587425
 20
694.13717699999995
 30
0.0
  0
VERTEX
  5
9F6
  8
0
 62
     7
 10
157.549339
 20
693.88574199999994
 30
0.0
  0
VERTEX
  5
9F7
  8
0
 62
     7
 10
157.503151
 20
693.63275099999987
 30
0.0
  0
VERTEX
  5
9F8
  8
0
 62
     7
 10
157.44895899999989
 20
693.37904400000002
 30
0.0
  0
VERTEX
  5
9F9
  8
0
 62
     7
 10
157.386887
 20
693.12535100000002
 30
0.0
  0
VERTEX
  5
9FA
  8
0
 62
     7
 10
157.33441199999999
 20
692.93246499999998
 30
0.0
  0
VERTEX
  5
9FB
  8
0
 62
     7
 10
157.25876599999989
 20
692.67962599999987
 30
0.0
  0
VERTEX
  5
9FC
  8
0
 62
     7
 10
157.1736149999999
 20
692.42074599999989
 30
0.0
  0
VERTEX
  5
9FD
  8
0
 62
     7
 10
157.079216
 20
692.15690599999994
 30
0.0
  0
VERTEX
  5
9FE
  8
0
 62
     7
 10
156.9763639999999
 20
691.89028899999994
 30
0.0
  0
VERTEX
  5
9FF
  8
0
 62
     7
 10
156.86713399999999
 20
691.62564099999986
 30
0.0
  0
VERTEX
  5
A00
  8
0
 62
     7
 10
156.75733899999989
 20
691.37507599999992
 30
0.0
  0
VERTEX
  5
A01
  8
0
 62
     7
 10
156.670525
 20
691.18601999999987
 30
0.0
  0
VERTEX
  5
A02
  8
0
 62
     7
 10
156.6650919999999
 20
691.17382799999996
 30
0.0
  0
SEQEND
  5
A03
  8
0
 62
     7
  0
LINE
  5
3B0
  8
0
 62
     7
 10
156.6650919999999
 20
685.66203299999995
 30
0.0
 11
156.6650919999999
 21
691.17382799999996
 31
0.0
  0
LINE
  5
3B1
  8
0
 62
     7
 10
173.6830939999999
 20
685.66203299999995
 30
0.0
 11
150.696091
 21
685.66203299999995
 31
0.0
  0
LINE
  5
3B2
  8
0
 62
     7
 10
173.6830939999999
 20
704.66124000000002
 30
0.0
 11
150.696091
 21
704.66124000000002
 31
0.0
  0
LINE
  5
3B3
  8
0
 62
     1
 10
156.1650919999999
 20
691.17382799999996
 30
0.0
 11
156.6650919999999
 21
691.67382799999996
 31
0.0
  0
LINE
  5
3B4
  8
0
 62
     1
 10
156.6650919999999
 20
691.67382799999996
 30
0.0
 11
156.6650919999999
 21
698.67382799999996
 31
0.0
  0
LINE
  5
3B5
  8
0
 62
     1
 10
156.1650919999999
 20
691.16163600000004
 30
0.0
 11
156.1650919999999
 21
699.16163600000004
 31
0.0
  0
LINE
  5
3B6
  8
0
 62
     1
 10
156.1650919999999
 20
691.66163600000004
 30
0.0
 11
147.696091
 21
691.66163600000004
 31
0.0
  0
LINE
  5
3B7
  8
0
 62
     1
 10
156.1650919999999
 20
698.66163600000004
 30
0.0
 11
147.696091
 21
698.66163600000004
 31
0.0
  0
LINE
  5
3B8
  8
0
 62
     1
 10
147.696091
 20
691.16163600000004
 30
0.0
 11
147.696091
 21
699.16163600000004
 31
0.0
  0
LINE
  5
3B9
  8
0
 62
     1
 10
145.696091
 20
703.16163600000004
 30
0.0
 11
144.696091
 21
703.16163600000004
 31
0.0
  0
LINE
  5
3BA
  8
0
 62
     1
 10
144.696091
 20
687.16163600000004
 30
0.0
 11
144.696091
 21
703.16163600000004
 31
0.0
  0
LINE
  5
3BB
  8
0
 62
     1
 10
144.696091
 20
701.66163600000004
 30
0.0
 11
141.99608599999999
 21
701.66163600000004
 31
0.0
  0
LINE
  5
3BC
  8
0
 62
     1
 10
141.99608599999999
 20
688.66163600000004
 30
0.0
 11
141.99608599999999
 21
701.66163600000004
 31
0.0
  0
LINE
  5
3BD
  8
0
 62
     1
 10
141.696091
 20
688.96163899999999
 30
0.0
 11
141.696091
 21
701.36163299999987
 31
0.0
  0
LINE
  5
3BE
  8
0
 62
     1
 10
141.696091
 20
701.36163299999987
 30
0.0
 11
141.99608599999999
 21
701.66163600000004
 31
0.0
  0
LINE
  5
3BF
  8
0
 62
     1
 10
144.696091
 20
688.66163600000004
 30
0.0
 11
141.99608599999999
 21
688.66163600000004
 31
0.0
  0
LINE
  5
3C0
  8
0
 62
     1
 10
145.696091
 20
687.16163600000004
 30
0.0
 11
144.696091
 21
687.16163600000004
 31
0.0
  0
LINE
  5
3C1
  8
0
 62
     1
 10
141.99608599999999
 20
688.66163600000004
 30
0.0
 11
141.696091
 21
688.96163899999999
 31
0.0
  0
LINE
  5
3C2
  8
0
 62
     7
 10
156.6650919999999
 20
699.14942900000005
 30
0.0
 11
150.696091
 21
699.14942900000005
 31
0.0
  0
LINE
  5
3C3
  8
0
 62
     7
 10
156.6650919999999
 20
691.17382799999996
 30
0.0
 11
150.696091
 21
691.17382799999996
 31
0.0
  0
LINE
  5
3C4
  8
0
 62
     1
 10
156.1650919999999
 20
691.16163600000004
 30
0.0
 11
145.696091
 21
691.16163600000004
 31
0.0
  0
LINE
  5
3C5
  8
0
 62
     1
 10
156.1650919999999
 20
699.16163600000004
 30
0.0
 11
145.696091
 21
699.16163600000004
 31
0.0
  0
LINE
  5
3C6
  8
0
 62
     1
 10
145.696091
 20
687.16163600000004
 30
0.0
 11
145.696091
 21
703.16163600000004
 31
0.0
  0
LINE
  5
3C7
  8
0
 62
     7
 10
150.696091
 20
699.16163600000004
 30
0.0
 11
150.696091
 21
704.66124000000002
 31
0.0
  0
LINE
  5
3C8
  8
0
 62
     1
 10
156.6650919999999
 20
698.67382799999996
 30
0.0
 11
156.1650919999999
 21
699.16163600000004
 31
0.0
  0
LINE
  5
3C9
  8
0
 62
     7
 10
185.03689199999999
 20
701.50538600000004
 30
0.0
 11
172.092457
 21
701.50538600000004
 31
0.0
  0
LINE
  5
3CA
  8
0
 62
   211
 10
201.69609099999991
 20
537.16165199999989
 30
0.0
 11
164.8960909999999
 21
537.16165199999989
 31
0.0
  0
LINE
  5
3CB
  8
0
 62
   211
 10
201.69609099999991
 20
518.66165000000001
 30
0.0
 11
201.69609099999991
 21
538.661652
 31
0.0
  0
LINE
  5
3CC
  8
0
 62
   211
 10
201.69609099999991
 20
518.66165000000001
 30
0.0
 11
164.82016399999989
 21
518.66165000000001
 31
0.0
  0
LINE
  5
3CD
  8
0
 62
   211
 10
127.6960909999999
 20
518.66165000000001
 30
0.0
 11
127.6960909999999
 21
538.661652
 31
0.0
  0
LINE
  5
3CE
  8
0
 62
   211
 10
201.69609099999991
 20
538.661652
 30
0.0
 11
163.09609199999991
 21
538.661652
 31
0.0
  0
LINE
  5
3CF
  8
0
 62
   211
 10
148.97201499999991
 20
518.66165000000001
 30
0.0
 11
127.6960909999999
 21
518.66165000000001
 31
0.0
  0
LINE
  5
3D0
  8
0
 62
   211
 10
148.89608799999999
 20
537.16165199999989
 30
0.0
 11
127.6960909999999
 21
537.16165199999989
 31
0.0
  0
LINE
  5
3D1
  8
0
 62
   211
 10
150.696091
 20
538.661652
 30
0.0
 11
127.6960909999999
 21
538.661652
 31
0.0
  0
LINE
  5
3D2
  8
0
 62
     7
 10
257.42100499999998
 20
685.16163600000004
 30
0.0
 11
256.37913500000002
 21
679.252792
 31
0.0
  0
LINE
  5
3D3
  8
0
 62
     7
 10
257.42100499999998
 20
685.16163600000004
 30
0.0
 11
258.46290599999998
 21
679.252792
 31
0.0
  0
LINE
  5
3D4
  8
0
 62
     7
 10
257.42100499999998
 20
695.16163600000004
 30
0.0
 11
258.46290599999998
 21
701.07047999999998
 31
0.0
  0
LINE
  5
3D5
  8
0
 62
     7
 10
257.42100499999998
 20
695.16163600000004
 30
0.0
 11
256.37913500000002
 21
701.07047999999998
 31
0.0
  0
LINE
  5
3D6
  8
0
 62
     7
 10
257.42100499999998
 20
684.96633899999995
 30
0.0
 11
257.42100499999998
 21
695.96633899999995
 31
0.0
  0
LINE
  5
3D7
  8
0
 62
     7
 10
261.42100499999998
 20
685.16163600000004
 30
0.0
 11
162.595383
 21
685.16163600000004
 31
0.0
  0
LINE
  5
3D8
  8
0
 62
     7
 10
261.42100499999998
 20
695.16163600000004
 30
0.0
 11
189.44509899999991
 21
695.16163600000004
 31
0.0
  0
LINE
  5
3D9
  8
0
 62
     7
 10
282.03916900000002
 20
568.91163600000004
 30
0.0
 11
283.08103899999998
 21
574.82047999999986
 31
0.0
  0
LINE
  5
3DA
  8
0
 62
     7
 10
282.03916900000002
 20
568.91163600000004
 30
0.0
 11
280.99726900000002
 21
574.82047999999986
 31
0.0
  0
LINE
  5
3DB
  8
0
 62
     7
 10
282.03916900000002
 20
673.91163600000004
 30
0.0
 11
280.99726900000002
 21
668.002792
 31
0.0
  0
LINE
  5
3DC
  8
0
 62
     7
 10
282.03916900000002
 20
673.91163600000004
 30
0.0
 11
283.08107000000001
 21
668.002792
 31
0.0
  0
LINE
  5
3DD
  8
0
 62
     7
 10
282.03916900000002
 20
568.91163600000004
 30
0.0
 11
282.03916900000002
 21
673.91163600000004
 31
0.0
  0
LINE
  5
3DE
  8
0
 62
     7
 10
286.03916900000002
 20
568.91163600000004
 30
0.0
 11
232.696091
 21
568.91163600000004
 31
0.0
  0
LINE
  5
3DF
  8
0
 62
     7
 10
286.03916900000002
 20
673.91163600000004
 30
0.0
 11
232.696091
 21
673.91163600000004
 31
0.0
  0
LINE
  5
3E0
  8
0
 62
     7
 10
52.481842
 20
552.16163600000004
 30
0.0
 11
53.523727000000001
 21
558.07047999999986
 31
0.0
  0
LINE
  5
3E1
  8
0
 62
     7
 10
52.481842
 20
552.16163600000004
 30
0.0
 11
51.439957
 21
558.07047999999986
 31
0.0
  0
LINE
  5
3E2
  8
0
 62
     7
 10
52.481842
 20
695.16163600000004
 30
0.0
 11
51.439957
 21
689.252792
 31
0.0
  0
LINE
  5
3E3
  8
0
 62
     7
 10
52.481842
 20
695.16163600000004
 30
0.0
 11
53.523727000000001
 21
689.252792
 31
0.0
  0
LINE
  5
3E4
  8
0
 62
     7
 10
52.481842
 20
552.16163600000004
 30
0.0
 11
52.481842
 21
695.16163600000004
 31
0.0
  0
LINE
  5
3E5
  8
0
 62
     7
 10
48.481842
 20
552.16163600000004
 30
0.0
 11
140.3690639999999
 21
552.16164400000002
 31
0.0
  0
LINE
  5
3E6
  8
0
 62
     7
 10
48.481842
 20
695.16163600000004
 30
0.0
 11
140.3690639999999
 21
695.16163600000004
 31
0.0
  0
LINE
  5
3E7
  8
0
 62
     7
 10
229.19740299999989
 20
451.91581699999989
 30
0.0
 11
223.28855899999991
 21
452.95770299999998
 31
0.0
  0
LINE
  5
3E8
  8
0
 62
     7
 10
229.19740299999989
 20
451.91581699999989
 30
0.0
 11
223.28855899999991
 21
450.87391700000001
 31
0.0
  0
LINE
  5
3E9
  8
0
 62
     7
 10
125.6960909999999
 20
451.91584799999998
 30
0.0
 11
131.60493500000001
 21
450.87394699999999
 31
0.0
  0
LINE
  5
3EA
  8
0
 62
     7
 10
125.6960909999999
 20
451.91584799999998
 30
0.0
 11
131.60493500000001
 21
452.95773300000002
 31
0.0
  0
LINE
  5
3EB
  8
0
 62
     7
 10
122.696091
 20
451.91584799999998
 30
0.0
 11
116.78724699999999
 21
452.95773300000002
 31
0.0
  0
LINE
  5
3EC
  8
0
 62
     7
 10
122.696091
 20
451.91584799999998
 30
0.0
 11
116.78724699999999
 21
450.87394699999999
 31
0.0
  0
LINE
  5
3ED
  8
0
 62
     7
 10
229.19740299999989
 20
451.91581699999989
 30
0.0
 11
105.6960909999999
 21
451.91584799999998
 31
0.0
  0
LINE
  5
3EE
  8
0
 62
     7
 10
229.19740299999989
 20
447.91581699999989
 30
0.0
 11
229.19743299999999
 21
568.91163600000004
 31
0.0
  0
LINE
  5
3EF
  8
0
 62
     7
 10
125.6960909999999
 20
447.91584799999998
 30
0.0
 11
125.696106
 21
483.34841899999998
 31
0.0
  0
LINE
  5
3F0
  8
0
 62
     7
 10
122.696091
 20
447.91584799999998
 30
0.0
 11
122.696106
 21
483.47087099999999
 31
0.0
  0
LINE
  5
3F1
  8
0
 62
     7
 10
260.74116499999991
 20
422.69345099999992
 30
0.0
 11
254.83232099999989
 21
423.73533600000002
 31
0.0
  0
LINE
  5
3F2
  8
0
 62
     7
 10
260.74116499999991
 20
422.69345099999992
 30
0.0
 11
254.83232099999989
 21
421.65156599999989
 31
0.0
  0
LINE
  5
3F3
  8
0
 62
     7
 10
125.6960909999999
 20
422.69343600000002
 30
0.0
 11
131.60493500000001
 21
421.65154999999987
 31
0.0
  0
LINE
  5
3F4
  8
0
 62
     7
 10
125.6960909999999
 20
422.69343600000002
 30
0.0
 11
131.60493500000001
 21
423.73533600000002
 31
0.0
  0
LINE
  5
3F5
  8
0
 62
     7
 10
260.74116499999991
 20
422.69345099999992
 30
0.0
 11
125.6960909999999
 21
422.69345099999992
 31
0.0
  0
LINE
  5
3F6
  8
0
 62
     7
 10
260.74116499999991
 20
418.69345099999992
 30
0.0
 11
260.74113499999999
 21
611.16163600000004
 31
0.0
  0
LINE
  5
3F7
  8
0
 62
     7
 10
125.6960909999999
 20
418.69343599999991
 30
0.0
 11
125.69607499999989
 21
483.34837299999998
 31
0.0
  0
LINE
  5
3F8
  8
0
 62
     7
 10
234.696091
 20
437.93284599999993
 30
0.0
 11
240.6049349999999
 21
436.89096100000012
 31
0.0
  0
LINE
  5
3F9
  8
0
 62
     7
 10
234.696091
 20
437.93284599999993
 30
0.0
 11
240.6049349999999
 21
438.97474699999992
 31
0.0
  0
LINE
  5
3FA
  8
0
 62
     7
 10
232.696091
 20
437.93284599999993
 30
0.0
 11
226.78724699999989
 21
438.97474699999992
 31
0.0
  0
LINE
  5
3FB
  8
0
 62
     7
 10
232.696091
 20
437.93284599999993
 30
0.0
 11
226.78724699999989
 21
436.89096100000012
 31
0.0
  0
LINE
  5
3FC
  8
0
 62
     7
 10
125.6960909999999
 20
437.93284599999993
 30
0.0
 11
131.60493500000001
 21
436.89096100000012
 31
0.0
  0
LINE
  5
3FD
  8
0
 62
     7
 10
125.6960909999999
 20
437.93284599999993
 30
0.0
 11
131.60493500000001
 21
438.97473099999991
 31
0.0
  0
LINE
  5
3FE
  8
0
 62
     7
 10
246.196091
 20
437.932861
 30
0.0
 11
125.6960909999999
 21
437.93284599999993
 31
0.0
  0
LINE
  5
3FF
  8
0
 62
     7
 10
234.696091
 20
433.93284599999993
 30
0.0
 11
234.696091
 21
500.946259
 31
0.0
  0
LINE
  5
400
  8
0
 62
     7
 10
232.696091
 20
433.93284599999993
 30
0.0
 11
232.696091
 21
502.1444699999999
 31
0.0
  0
LINE
  5
401
  8
0
 62
     7
 10
125.6960909999999
 20
433.93284599999993
 30
0.0
 11
125.6960909999999
 21
483.34837299999998
 31
0.0
  0
LINE
  5
402
  8
0
 62
     7
 10
67.790786999999995
 20
621.41163600000004
 30
0.0
 11
68.832672000000002
 21
627.32047999999998
 31
0.0
  0
LINE
  5
403
  8
0
 62
     7
 10
67.790786999999995
 20
621.41163600000004
 30
0.0
 11
66.748901000000004
 21
627.32047999999998
 31
0.0
  0
LINE
  5
404
  8
0
 62
     7
 10
67.790786999999995
 20
695.16163600000004
 30
0.0
 11
66.748901000000004
 21
689.252792
 31
0.0
  0
LINE
  5
405
  8
0
 62
     7
 10
67.790786999999995
 20
695.16163600000004
 30
0.0
 11
68.832672000000002
 21
689.252792
 31
0.0
  0
LINE
  5
406
  8
0
 62
     7
 10
67.790786999999995
 20
621.41163600000004
 30
0.0
 11
67.790786999999995
 21
695.16163600000004
 31
0.0
  0
LINE
  5
407
  8
0
 62
     7
 10
63.790787000000002
 20
621.41163600000004
 30
0.0
 11
97.531357000000014
 21
621.41163600000004
 31
0.0
  0
LINE
  5
408
  8
0
 62
     7
 10
63.790787000000002
 20
695.16163600000004
 30
0.0
 11
140.3690639999999
 21
695.16163600000004
 31
0.0
  0
LINE
  5
409
  8
0
 62
     7
 10
64.679337000000004
 20
538.66163600000004
 30
0.0
 11
63.637450999999999
 21
532.752792
 31
0.0
  0
LINE
  5
40A
  8
0
 62
     7
 10
64.679337000000004
 20
538.66163600000004
 30
0.0
 11
65.721221999999983
 21
532.752792
 31
0.0
  0
LINE
  5
40B
  8
0
 62
     7
 10
64.679337000000004
 20
552.16163600000004
 30
0.0
 11
65.721221999999983
 21
558.07047999999986
 31
0.0
  0
LINE
  5
40C
  8
0
 62
     7
 10
64.679337000000004
 20
552.16163600000004
 30
0.0
 11
63.637450999999999
 21
558.07047999999986
 31
0.0
  0
LINE
  5
40D
  8
0
 62
     7
 10
64.679337000000004
 20
510.66163599999999
 30
0.0
 11
64.679337000000004
 21
552.16163600000004
 31
0.0
  0
LINE
  5
40E
  8
0
 62
     7
 10
60.679336999999997
 20
538.66163600000004
 30
0.0
 11
135.65058899999991
 21
538.66163600000004
 31
0.0
  0
LINE
  5
40F
  8
0
 62
     7
 10
60.679336999999997
 20
552.16163600000004
 30
0.0
 11
140.3690639999999
 21
552.16163600000004
 31
0.0
  0
LINE
  5
410
  8
0
  6
DASHDOT
 62
     7
 10
421.74393800000001
 20
737.98261300000001
 30
0.0
 11
421.74393800000001
 21
495.0999829999999
 31
0.0
  0
LINE
  5
411
  8
0
  6
DASHDOT
 62
     7
 10
501.76417199999992
 20
621.41163600000004
 30
0.0
 11
329.62556799999999
 21
621.41163600000004
 31
0.0
  0
LINE
  5
412
  8
0
  6
DASHDOT
 62
     7
 10
439.2439379999999
 20
704.14119699999992
 30
0.0
 11
439.2439379999999
 21
536.3442
 31
0.0
  0
LINE
  5
413
  8
0
  6
DASHDOT
 62
     7
 10
369.24393800000001
 20
702.73113999999998
 30
0.0
 11
369.24393800000001
 21
535.28665899999987
 31
0.0
  0
CIRCLE
  5
414
  8
0
 62
   150
 10
369.24393800000001
 20
693.16163600000004
 30
0.0
 40
2.75
  0
CIRCLE
  5
415
  8
0
 62
   150
 10
439.2439379999999
 20
693.16163600000004
 30
0.0
 40
2.75
  0
CIRCLE
  5
416
  8
0
 62
   150
 10
439.2439379999999
 20
554.16163600000004
 30
0.0
 40
2.75
  0
CIRCLE
  5
417
  8
0
 62
   150
 10
369.24393800000001
 20
554.16163600000004
 30
0.0
 40
2.75
  0
LINE
  5
418
  8
0
  6
DASHDOT
 62
   150
 10
439.2439379999999
 20
700.91163600000004
 30
0.0
 11
439.2439379999999
 21
685.41163600000004
 31
0.0
  0
LINE
  5
419
  8
0
  6
DASHDOT
 62
   150
 10
446.99393800000001
 20
693.16163600000004
 30
0.0
 11
431.49393800000001
 21
693.16163600000004
 31
0.0
  0
LINE
  5
41A
  8
0
  6
DASHDOT
 62
   150
 10
369.24393800000001
 20
700.91163600000004
 30
0.0
 11
369.24393800000001
 21
685.41163600000004
 31
0.0
  0
LINE
  5
41B
  8
0
  6
DASHDOT
 62
   150
 10
376.99393800000001
 20
693.16163600000004
 30
0.0
 11
361.49393800000001
 21
693.16163600000004
 31
0.0
  0
LINE
  5
41C
  8
0
  6
DASHDOT
 62
   150
 10
369.24393800000001
 20
561.91163600000004
 30
0.0
 11
369.24393800000001
 21
546.41163600000004
 31
0.0
  0
LINE
  5
41D
  8
0
  6
DASHDOT
 62
   150
 10
376.99393800000001
 20
554.16163600000004
 30
0.0
 11
361.49393800000001
 21
554.16163600000004
 31
0.0
  0
LINE
  5
41E
  8
0
  6
DASHDOT
 62
   150
 10
439.2439379999999
 20
561.91163600000004
 30
0.0
 11
439.2439379999999
 21
546.41163600000004
 31
0.0
  0
LINE
  5
41F
  8
0
  6
DASHDOT
 62
   150
 10
446.99393800000001
 20
554.16163600000004
 30
0.0
 11
431.49393800000001
 21
554.16163600000004
 31
0.0
  0
POLYLINE
  5
420
  8
0
 62
     3
 66
     1
 10
0.0
 20
0.0
 30
0.0
  0
VERTEX
  5
A04
  8
0
 62
     3
 10
459.24393800000001
 20
706.98229200000003
 30
0.0
  0
VERTEX
  5
A05
  8
0
 62
     3
 10
443.2439379999999
 20
706.98229200000003
 30
0.0
  0
VERTEX
  5
A06
  8
0
 62
     3
 10
442.24394000000001
 20
704.98229200000003
 30
0.0
  0
VERTEX
  5
A07
  8
0
 62
     3
 10
441.24394000000001
 20
708.98229200000003
 30
0.0
  0
VERTEX
  5
A08
  8
0
 62
     3
 10
440.24393800000001
 20
706.98229200000003
 30
0.0
  0
VERTEX
  5
A09
  8
0
 62
     3
 10
424.2439389999999
 20
706.98229200000003
 30
0.0
  0
VERTEX
  5
A0A
  8
0
 62
     3
 10
423.2439389999999
 20
704.98229200000003
 30
0.0
  0
VERTEX
  5
A0B
  8
0
 62
     3
 10
422.2439399999999
 20
708.98229200000003
 30
0.0
  0
VERTEX
  5
A0C
  8
0
 62
     3
 10
421.2439389999999
 20
706.98229200000003
 30
0.0
  0
VERTEX
  5
A0D
  8
0
 62
     3
 10
405.24393800000001
 20
706.98229200000003
 30
0.0
  0
VERTEX
  5
A0E
  8
0
 62
     3
 10
404.24394000000001
 20
704.98229200000003
 30
0.0
  0
VERTEX
  5
A0F
  8
0
 62
     3
 10
403.24394000000001
 20
708.98229200000003
 30
0.0
  0
VERTEX
  5
A10
  8
0
 62
     3
 10
402.2439379999999
 20
706.98229200000003
 30
0.0
  0
VERTEX
  5
A11
  8
0
 62
     3
 10
386.2439379999999
 20
706.98229200000003
 30
0.0
  0
VERTEX
  5
A12
  8
0
 62
     3
 10
385.24393800000001
 20
704.98229200000003
 30
0.0
  0
VERTEX
  5
A13
  8
0
 62
     3
 10
384.24393800000001
 20
708.98229200000003
 30
0.0
  0
VERTEX
  5
A14
  8
0
 62
     3
 10
383.24393800000001
 20
706.98229200000003
 30
0.0
  0
VERTEX
  5
A15
  8
0
 62
     3
 10
367.24393800000001
 20
706.98229200000003
 30
0.0
  0
VERTEX
  5
A16
  8
0
 62
     3
 10
366.24393800000001
 20
704.98229200000003
 30
0.0
  0
VERTEX
  5
A17
  8
0
 62
     3
 10
365.24393800000001
 20
708.98229200000003
 30
0.0
  0
VERTEX
  5
A18
  8
0
 62
     3
 10
364.24393800000001
 20
706.98229200000003
 30
0.0
  0
VERTEX
  5
A19
  8
0
 62
     3
 10
349.24393800000001
 20
706.98229200000003
 30
0.0
  0
SEQEND
  5
A1A
  8
0
 62
     3
  0
POLYLINE
  5
438
  8
0
 62
     3
 66
     1
 10
0.0
 20
0.0
 30
0.0
  0
VERTEX
  5
A1B
  8
0
 62
     3
 10
459.24393800000001
 20
541.91163600000004
 30
0.0
  0
VERTEX
  5
A1C
  8
0
 62
     3
 10
443.2439379999999
 20
541.91163600000004
 30
0.0
  0
VERTEX
  5
A1D
  8
0
 62
     3
 10
442.24394000000001
 20
539.91163600000004
 30
0.0
  0
VERTEX
  5
A1E
  8
0
 62
     3
 10
441.24394000000001
 20
543.91163600000004
 30
0.0
  0
VERTEX
  5
A1F
  8
0
 62
     3
 10
440.24393800000001
 20
541.91163600000004
 30
0.0
  0
VERTEX
  5
A20
  8
0
 62
     3
 10
424.2439389999999
 20
541.91163600000004
 30
0.0
  0
VERTEX
  5
A21
  8
0
 62
     3
 10
423.2439389999999
 20
539.91163600000004
 30
0.0
  0
VERTEX
  5
A22
  8
0
 62
     3
 10
422.2439399999999
 20
543.91163600000004
 30
0.0
  0
VERTEX
  5
A23
  8
0
 62
     3
 10
421.2439389999999
 20
541.91163600000004
 30
0.0
  0
VERTEX
  5
A24
  8
0
 62
     3
 10
405.24393800000001
 20
541.91163600000004
 30
0.0
  0
VERTEX
  5
A25
  8
0
 62
     3
 10
404.24394000000001
 20
539.91163600000004
 30
0.0
  0
VERTEX
  5
A26
  8
0
 62
     3
 10
403.24394000000001
 20
543.91163600000004
 30
0.0
  0
VERTEX
  5
A27
  8
0
 62
     3
 10
402.2439379999999
 20
541.91163600000004
 30
0.0
  0
VERTEX
  5
A28
  8
0
 62
     3
 10
386.2439379999999
 20
541.91163600000004
 30
0.0
  0
VERTEX
  5
A29
  8
0
 62
     3
 10
385.24393800000001
 20
539.91163600000004
 30
0.0
  0
VERTEX
  5
A2A
  8
0
 62
     3
 10
384.24393800000001
 20
543.91163600000004
 30
0.0
  0
VERTEX
  5
A2B
  8
0
 62
     3
 10
383.24393800000001
 20
541.91163600000004
 30
0.0
  0
VERTEX
  5
A2C
  8
0
 62
     3
 10
367.24393800000001
 20
541.91163600000004
 30
0.0
  0
VERTEX
  5
A2D
  8
0
 62
     3
 10
366.24393800000001
 20
539.91163600000004
 30
0.0
  0
VERTEX
  5
A2E
  8
0
 62
     3
 10
365.24393800000001
 20
543.91163600000004
 30
0.0
  0
VERTEX
  5
A2F
  8
0
 62
     3
 10
364.24393800000001
 20
541.91163600000004
 30
0.0
  0
VERTEX
  5
A30
  8
0
 62
     3
 10
349.24393800000001
 20
541.91163600000004
 30
0.0
  0
SEQEND
  5
A31
  8
0
 62
     3
  0
POLYLINE
  5
450
  8
0
 62
     3
 66
     1
 10
0.0
 20
0.0
 30
0.0
  0
VERTEX
  5
A32
  8
0
 62
     3
 10
349.24393800000001
 20
706.98229200000003
 30
0.0
  0
VERTEX
  5
A33
  8
0
 62
     3
 10
349.24393800000001
 20
690.98229200000003
 30
0.0
  0
VERTEX
  5
A34
  8
0
 62
     3
 10
351.2439379999999
 20
689.98229200000003
 30
0.0
  0
VERTEX
  5
A35
  8
0
 62
     3
 10
347.24393800000001
 20
688.98229200000003
 30
0.0
  0
VERTEX
  5
A36
  8
0
 62
     3
 10
349.24393800000001
 20
687.98229200000003
 30
0.0
  0
VERTEX
  5
A37
  8
0
 62
     3
 10
349.24393800000001
 20
671.98229200000003
 30
0.0
  0
VERTEX
  5
A38
  8
0
 62
     3
 10
351.2439379999999
 20
670.98229200000003
 30
0.0
  0
VERTEX
  5
A39
  8
0
 62
     3
 10
347.24393800000001
 20
669.98229200000003
 30
0.0
  0
VERTEX
  5
A3A
  8
0
 62
     3
 10
349.24393800000001
 20
668.98229200000003
 30
0.0
  0
VERTEX
  5
A3B
  8
0
 62
     3
 10
349.24393800000001
 20
652.98229200000003
 30
0.0
  0
VERTEX
  5
A3C
  8
0
 62
     3
 10
351.2439379999999
 20
651.98229200000003
 30
0.0
  0
VERTEX
  5
A3D
  8
0
 62
     3
 10
347.24393800000001
 20
650.98229200000003
 30
0.0
  0
VERTEX
  5
A3E
  8
0
 62
     3
 10
349.24393800000001
 20
649.98229200000003
 30
0.0
  0
VERTEX
  5
A3F
  8
0
 62
     3
 10
349.24393800000001
 20
633.98229200000003
 30
0.0
  0
VERTEX
  5
A40
  8
0
 62
     3
 10
351.2439379999999
 20
632.98229200000003
 30
0.0
  0
VERTEX
  5
A41
  8
0
 62
     3
 10
347.24393800000001
 20
631.98229200000003
 30
0.0
  0
VERTEX
  5
A42
  8
0
 62
     3
 10
349.24393800000001
 20
630.98229200000003
 30
0.0
  0
VERTEX
  5
A43
  8
0
 62
     3
 10
349.24393800000001
 20
614.98229200000003
 30
0.0
  0
VERTEX
  5
A44
  8
0
 62
     3
 10
351.2439379999999
 20
613.98229200000003
 30
0.0
  0
VERTEX
  5
A45
  8
0
 62
     3
 10
347.24393800000001
 20
612.98229200000003
 30
0.0
  0
VERTEX
  5
A46
  8
0
 62
     3
 10
349.24393800000001
 20
611.98229200000003
 30
0.0
  0
VERTEX
  5
A47
  8
0
 62
     3
 10
349.24393800000001
 20
595.98229200000003
 30
0.0
  0
VERTEX
  5
A48
  8
0
 62
     3
 10
351.2439379999999
 20
594.98229200000003
 30
0.0
  0
VERTEX
  5
A49
  8
0
 62
     3
 10
347.24393800000001
 20
593.98229200000003
 30
0.0
  0
VERTEX
  5
A4A
  8
0
 62
     3
 10
349.24393800000001
 20
592.98229200000003
 30
0.0
  0
VERTEX
  5
A4B
  8
0
 62
     3
 10
349.24393800000001
 20
576.98229200000003
 30
0.0
  0
VERTEX
  5
A4C
  8
0
 62
     3
 10
351.2439379999999
 20
575.98229200000003
 30
0.0
  0
VERTEX
  5
A4D
  8
0
 62
     3
 10
347.24393800000001
 20
574.98229200000003
 30
0.0
  0
VERTEX
  5
A4E
  8
0
 62
     3
 10
349.24393800000001
 20
573.98229200000003
 30
0.0
  0
VERTEX
  5
A4F
  8
0
 62
     3
 10
349.24393800000001
 20
557.98229200000003
 30
0.0
  0
VERTEX
  5
A50
  8
0
 62
     3
 10
351.2439379999999
 20
556.98229200000003
 30
0.0
  0
VERTEX
  5
A51
  8
0
 62
     3
 10
347.24393800000001
 20
555.98229200000003
 30
0.0
  0
VERTEX
  5
A52
  8
0
 62
     3
 10
349.24393800000001
 20
554.98229200000003
 30
0.0
  0
VERTEX
  5
A53
  8
0
 62
     3
 10
349.24393800000001
 20
541.91163600000004
 30
0.0
  0
SEQEND
  5
A54
  8
0
 62
     3
  0
POLYLINE
  5
474
  8
0
 62
     3
 66
     1
 10
0.0
 20
0.0
 30
0.0
  0
VERTEX
  5
A55
  8
0
 62
     3
 10
459.24393800000001
 20
706.98229200000003
 30
0.0
  0
VERTEX
  5
A56
  8
0
 62
     3
 10
459.24393800000001
 20
690.98229200000003
 30
0.0
  0
VERTEX
  5
A57
  8
0
 62
     3
 10
461.24393800000001
 20
689.98229200000003
 30
0.0
  0
VERTEX
  5
A58
  8
0
 62
     3
 10
457.24393800000001
 20
688.98229200000003
 30
0.0
  0
VERTEX
  5
A59
  8
0
 62
     3
 10
459.24393800000001
 20
687.98229200000003
 30
0.0
  0
VERTEX
  5
A5A
  8
0
 62
     3
 10
459.24393800000001
 20
671.98229200000003
 30
0.0
  0
VERTEX
  5
A5B
  8
0
 62
     3
 10
461.24393800000001
 20
670.98229200000003
 30
0.0
  0
VERTEX
  5
A5C
  8
0
 62
     3
 10
457.24393800000001
 20
669.98229200000003
 30
0.0
  0
VERTEX
  5
A5D
  8
0
 62
     3
 10
459.24393800000001
 20
668.98229200000003
 30
0.0
  0
VERTEX
  5
A5E
  8
0
 62
     3
 10
459.24393800000001
 20
652.98229200000003
 30
0.0
  0
VERTEX
  5
A5F
  8
0
 62
     3
 10
461.24393800000001
 20
651.98229200000003
 30
0.0
  0
VERTEX
  5
A60
  8
0
 62
     3
 10
457.24393800000001
 20
650.98229200000003
 30
0.0
  0
VERTEX
  5
A61
  8
0
 62
     3
 10
459.24393800000001
 20
649.98229200000003
 30
0.0
  0
VERTEX
  5
A62
  8
0
 62
     3
 10
459.24393800000001
 20
633.98229200000003
 30
0.0
  0
VERTEX
  5
A63
  8
0
 62
     3
 10
461.24393800000001
 20
632.98229200000003
 30
0.0
  0
VERTEX
  5
A64
  8
0
 62
     3
 10
457.24393800000001
 20
631.98229200000003
 30
0.0
  0
VERTEX
  5
A65
  8
0
 62
     3
 10
459.24393800000001
 20
630.98229200000003
 30
0.0
  0
VERTEX
  5
A66
  8
0
 62
     3
 10
459.24393800000001
 20
614.98229200000003
 30
0.0
  0
VERTEX
  5
A67
  8
0
 62
     3
 10
461.24393800000001
 20
613.98229200000003
 30
0.0
  0
VERTEX
  5
A68
  8
0
 62
     3
 10
457.24393800000001
 20
612.98229200000003
 30
0.0
  0
VERTEX
  5
A69
  8
0
 62
     3
 10
459.24393800000001
 20
611.98229200000003
 30
0.0
  0
VERTEX
  5
A6A
  8
0
 62
     3
 10
459.24393800000001
 20
595.98229200000003
 30
0.0
  0
VERTEX
  5
A6B
  8
0
 62
     3
 10
461.24393800000001
 20
594.98229200000003
 30
0.0
  0
VERTEX
  5
A6C
  8
0
 62
     3
 10
457.24393800000001
 20
593.98229200000003
 30
0.0
  0
VERTEX
  5
A6D
  8
0
 62
     3
 10
459.24393800000001
 20
592.98229200000003
 30
0.0
  0
VERTEX
  5
A6E
  8
0
 62
     3
 10
459.24393800000001
 20
576.98229200000003
 30
0.0
  0
VERTEX
  5
A6F
  8
0
 62
     3
 10
461.24393800000001
 20
575.98229200000003
 30
0.0
  0
VERTEX
  5
A70
  8
0
 62
     3
 10
457.24393800000001
 20
574.98229200000003
 30
0.0
  0
VERTEX
  5
A71
  8
0
 62
     3
 10
459.24393800000001
 20
573.98229200000003
 30
0.0
  0
VERTEX
  5
A72
  8
0
 62
     3
 10
459.24393800000001
 20
557.98229200000003
 30
0.0
  0
VERTEX
  5
A73
  8
0
 62
     3
 10
461.24393800000001
 20
556.98229200000003
 30
0.0
  0
VERTEX
  5
A74
  8
0
 62
     3
 10
457.24393800000001
 20
555.98229200000003
 30
0.0
  0
VERTEX
  5
A75
  8
0
 62
     3
 10
459.24393800000001
 20
554.98229200000003
 30
0.0
  0
VERTEX
  5
A76
  8
0
 62
     3
 10
459.24393800000001
 20
541.91163600000004
 30
0.0
  0
SEQEND
  5
A77
  8
0
 62
     3
  0
CIRCLE
  5
498
  8
0
 62
     7
 10
359.70804600000002
 20
698.43679799999995
 30
0.0
 40
0.3
  0
LINE
  5
499
  8
0
 62
     7
 10
421.74393800000001
 20
504.01490799999988
 30
0.0
 11
433.56162599999999
 21
501.931107
 31
0.0
  0
LINE
  5
49A
  8
0
 62
     7
 10
421.74393800000001
 20
504.01490799999988
 30
0.0
 11
433.56162599999999
 21
506.09864800000003
 31
0.0
  0
LINE
  5
49B
  8
0
 62
     7
 10
369.24395399999997
 20
504.01490799999988
 30
0.0
 11
357.426266
 21
506.09864800000003
 31
0.0
  0
LINE
  5
49C
  8
0
 62
     7
 10
369.24395399999997
 20
504.01490799999988
 30
0.0
 11
357.426266
 21
501.931107
 31
0.0
  0
LINE
  5
49D
  8
0
 62
     7
 10
477.74393800000001
 20
504.01490799999988
 30
0.0
 11
369.24395399999997
 21
504.01490799999988
 31
0.0
  0
LINE
  5
49E
  8
0
 62
     7
 10
421.74393800000001
 20
512.01490799999999
 30
0.0
 11
421.74393800000001
 21
495.09999099999999
 31
0.0
  0
LINE
  5
49F
  8
0
 62
     7
 10
369.24395399999997
 20
496.01490799999988
 30
0.0
 11
369.24395399999997
 21
535.28663600000004
 31
0.0
  0
LINE
  5
4A0
  8
0
 62
     7
 10
439.243923
 20
728.519272
 30
0.0
 11
451.06161099999991
 21
726.43550099999993
 31
0.0
  0
LINE
  5
4A1
  8
0
 62
     7
 10
439.243923
 20
728.519272
 30
0.0
 11
451.06161099999991
 21
730.60304299999984
 31
0.0
  0
LINE
  5
4A2
  8
0
 62
     7
 10
421.74393800000001
 20
728.519272
 30
0.0
 11
409.92624999999998
 21
730.60304299999984
 31
0.0
  0
LINE
  5
4A3
  8
0
 62
     7
 10
421.74393800000001
 20
728.519272
 30
0.0
 11
409.92624999999998
 21
726.43550099999993
 31
0.0
  0
LINE
  5
4A4
  8
0
 62
     7
 10
495.243923
 20
728.519272
 30
0.0
 11
421.74393800000001
 21
728.519272
 31
0.0
  0
LINE
  5
4A5
  8
0
 62
     7
 10
439.243923
 20
736.519272
 30
0.0
 11
439.243923
 21
704.14121999999986
 31
0.0
  0
LINE
  5
4A6
  8
0
 62
     7
 10
421.74393800000001
 20
720.519272
 30
0.0
 11
421.74393800000001
 21
737.98262
 31
0.0
  0
LINE
  5
4A7
  8
0
 62
     7
 10
493.96501499999999
 20
693.16163600000004
 30
0.0
 11
491.881237
 21
681.34394799999995
 31
0.0
  0
LINE
  5
4A8
  8
0
 62
     7
 10
493.96501499999999
 20
693.16163600000004
 30
0.0
 11
496.04879399999999
 21
681.34394799999995
 31
0.0
  0
LINE
  5
4A9
  8
0
 62
     7
 10
493.96501499999999
 20
621.41163600000004
 30
0.0
 11
496.04879399999999
 21
633.22932400000002
 31
0.0
  0
LINE
  5
4AA
  8
0
 62
     7
 10
493.96501499999999
 20
621.41163600000004
 30
0.0
 11
491.881237
 21
633.22932400000002
 31
0.0
  0
LINE
  5
4AB
  8
0
 62
     7
 10
493.96501499999999
 20
693.16163600000004
 30
0.0
 11
493.96501499999999
 21
621.41163600000004
 31
0.0
  0
LINE
  5
4AC
  8
0
 62
     7
 10
501.96501499999999
 20
693.16163600000004
 30
0.0
 11
376.99393800000001
 21
693.16163600000004
 31
0.0
  0
LINE
  5
4AD
  8
0
 62
     7
 10
321.26934399999988
 20
693.16163600000004
 30
0.0
 11
319.18554299999988
 21
681.34394799999995
 31
0.0
  0
LINE
  5
4AE
  8
0
 62
     7
 10
321.26934399999988
 20
693.16163600000004
 30
0.0
 11
323.353115
 21
681.34394799999995
 31
0.0
  0
LINE
  5
4AF
  8
0
 62
     7
 10
321.26934399999988
 20
554.16163600000004
 30
0.0
 11
323.353115
 21
565.97932399999991
 31
0.0
  0
LINE
  5
4B0
  8
0
 62
     7
 10
321.26934399999988
 20
554.16163600000004
 30
0.0
 11
319.18554299999988
 21
565.97932399999991
 31
0.0
  0
LINE
  5
4B1
  8
0
 62
     7
 10
321.26934399999988
 20
693.16163600000004
 30
0.0
 11
321.26934399999988
 21
554.16163600000004
 31
0.0
  0
LINE
  5
4B2
  8
0
 62
     7
 10
313.26934399999999
 20
693.16163600000004
 30
0.0
 11
361.49395399999997
 21
693.16163600000004
 31
0.0
  0
LINE
  5
4B3
  8
0
 62
     7
 10
313.26934399999999
 20
554.16163600000004
 30
0.0
 11
361.49395399999997
 21
554.16163600000004
 31
0.0
  0
LINE
  5
4B4
  8
0
 62
     7
 10
441.95803499999988
 20
553.71876499999996
 30
0.0
 11
453.28588499999989
 21
549.75898700000005
 31
0.0
  0
LINE
  5
4B5
  8
0
 62
     7
 10
441.95803499999988
 20
553.71876499999996
 30
0.0
 11
453.95705800000002
 21
553.87214699999993
 31
0.0
  0
LINE
  5
4B6
  8
0
 62
     7
 10
436.52984199999997
 20
554.6045069999999
 30
0.0
 11
425.20199200000002
 21
558.56428499999993
 31
0.0
  0
LINE
  5
4B7
  8
0
 62
     7
 10
436.52984199999997
 20
554.6045069999999
 30
0.0
 11
424.53081900000012
 21
554.45112599999993
 31
0.0
  0
LINE
  5
4B8
  8
0
 62
     7
 10
436.52984199999997
 20
554.6045069999999
 30
0.0
 11
598.55062499999997
 21
528.16645800000003
 31
0.0
  0
INSERT
  5
8A9
  8
0
  2
BLOCK0
 10
-102.936358
 20
611.16161199999988
 30
0.0
 50
90.0
  0
INSERT
  5
8AA
  8
0
  2
BLOCK1
 10
-102.936358
 20
611.16161199999988
 30
0.0
 50
90.0
  0
INSERT
  5
8AB
  8
0
  2
BLOCK2
 10
-102.936358
 20
611.16161199999988
 30
0.0
 50
90.0
  0
INSERT
  5
8AC
  8
0
  2
BLOCK3
 10
-102.936358
 20
611.16161199999988
 30
0.0
 50
90.0
  0
INSERT
  5
8AD
  8
0
  2
BLOCK4
 10
-102.936358
 20
611.16161199999988
 30
0.0
 50
90.0
  0
INSERT
  5
8AE
  8
0
  2
BLOCK5
 10
-102.936358
 20
611.16161199999988
 30
0.0
 50
90.0
  0
INSERT
  5
8AF
  8
0
  2
BLOCK6
 10
-102.936358
 20
611.16161199999988
 30
0.0
 50
90.0
  0
INSERT
  5
8B0
  8
0
  2
BLOCK7
 10
-102.936358
 20
611.16161199999988
 30
0.0
 50
90.0
  0
INSERT
  5
8B1
  8
0
  2
BLOCK8
 10
-102.936358
 20
611.16161199999988
 30
0.0
 50
90.0
  0
INSERT
  5
8B2
  8
0
  2
BLOCK9
 10
-102.936358
 20
611.16161199999988
 30
0.0
 50
90.0
  0
INSERT
  5
8B3
  8
0
  2
BLOCK10
 10
-102.936358
 20
611.16161199999988
 30
0.0
 50
90.0
  0
INSERT
  5
8B4
  8
0
  2
BLOCK11
 10
-102.936358
 20
611.16161199999988
 30
0.0
 50
90.0
  0
INSERT
  5
8B5
  8
0
  2
BLOCK12
 10
-102.936358
 20
611.16161199999988
 30
0.0
 50
90.0
  0
INSERT
  5
8B6
  8
0
  2
BLOCK13
 10
-102.936358
 20
611.16161199999988
 30
0.0
 50
90.0
  0
INSERT
  5
8B7
  8
0
  2
BLOCK14
 10
-102.936358
 20
611.16161199999988
 30
0.0
 50
90.0
  0
INSERT
  5
8B8
  8
0
  2
BLOCK15
 10
-102.936358
 20
611.16161199999988
 30
0.0
 50
90.0
  0
INSERT
  5
8B9
  8
0
  2
BLOCK16
 10
-102.936358
 20
611.16161199999988
 30
0.0
 50
90.0
  0
INSERT
  5
8BA
  8
0
  2
BLOCK17
 10
-80.140868999999995
 20
317.42076900000001
 30
0.0
 50
180.0
  0
INSERT
  5
8BB
  8
0
  2
BLOCK18
 10
-80.140868999999995
 20
317.42076900000001
 30
0.0
 50
180.0
  0
INSERT
  5
8BC
  8
0
  2
BLOCK19
 10
-80.140868999999995
 20
317.42076900000001
 30
0.0
 50
180.0
  0
INSERT
  5
8BD
  8
0
  2
BLOCK20
 10
-80.140868999999995
 20
317.42076900000001
 30
0.0
 50
180.0
  0
INSERT
  5
8BE
  8
0
  2
BLOCK21
 10
-80.140868999999995
 20
317.42076900000001
 30
0.0
 50
180.0
  0
INSERT
  5
8BF
  8
0
  2
BLOCK22
 10
780.09733600000004
 20
623.66163600000004
 30
0.0
 50
270.0
  0
INSERT
  5
8C0
  8
0
  2
BLOCK23
 10
780.09733600000004
 20
623.66163600000004
 30
0.0
 50
270.0
  0
INSERT
  5
8C1
  8
0
  2
BLOCK24
 10
780.09733600000004
 20
623.66163600000004
 30
0.0
 50
270.0
  0
INSERT
  5
8C2
  8
0
  2
BLOCK25
 10
780.09733600000004
 20
623.66163600000004
 30
0.0
 50
270.0
  0
INSERT
  5
8C3
  8
0
  2
BLOCK26
 10
780.09733600000004
 20
623.66163600000004
 30
0.0
 50
270.0
  0
INSERT
  5
8C4
  8
0
  2
BLOCK27
 10
780.09733600000004
 20
623.66163600000004
 30
0.0
 50
270.0
  0
INSERT
  5
8C5
  8
0
  2
BLOCK28
 10
780.09733600000004
 20
623.66163600000004
 30
0.0
 50
270.0
  0
INSERT
  5
8C6
  8
0
  2
BLOCK29
 10
780.09733600000004
 20
623.66163600000004
 30
0.0
 50
270.0
  0
INSERT
  5
8C7
  8
0
  2
BLOCK30
 10
780.09733600000004
 20
623.66163600000004
 30
0.0
 50
270.0
  0
INSERT
  5
8C8
  8
0
  2
BLOCK31
 10
780.09733600000004
 20
623.66163600000004
 30
0.0
 50
270.0
  0
INSERT
  5
8C9
  8
0
  2
BLOCK32
 10
228.69603000000001
 20
511.424576
 30
0.0
 50
90.0
  0
INSERT
  5
8CA
  8
0
  2
BLOCK33
 10
228.69603000000001
 20
511.424576
 30
0.0
 50
90.0
  0
INSERT
  5
8CB
  8
0
  2
BLOCK34
 10
228.69603000000001
 20
511.424576
 30
0.0
 50
90.0
  0
INSERT
  5
8CC
  8
0
  2
BLOCK35
 10
228.69603000000001
 20
511.424576
 30
0.0
 50
90.0
  0
INSERT
  5
8CD
  8
0
  2
BLOCK36
 10
228.69603000000001
 20
511.424576
 30
0.0
 50
90.0
  0
INSERT
  5
8CE
  8
0
  2
BLOCK37
 10
228.69603000000001
 20
511.424576
 30
0.0
 50
90.0
  0
INSERT
  5
8CF
  8
0
  2
BLOCK38
 10
228.69603000000001
 20
511.424576
 30
0.0
 50
90.0
  0
INSERT
  5
8D0
  8
0
  2
BLOCK39
 10
228.69603000000001
 20
511.424576
 30
0.0
 50
90.0
  0
INSERT
  5
8D1
  8
0
  2
BLOCK40
 10
228.69603000000001
 20
511.424576
 30
0.0
 50
90.0
  0
INSERT
  5
8D2
  8
0
  2
BLOCK41
 10
228.69603000000001
 20
511.424576
 30
0.0
 50
90.0
  0
INSERT
  5
8D3
  8
0
  2
BLOCK42
 10
228.69603000000001
 20
511.424576
 30
0.0
 50
90.0
  0
INSERT
  5
8D4
  8
0
  2
BLOCK43
 10
228.69603000000001
 20
511.424576
 30
0.0
 50
90.0
  0
INSERT
  5
8D5
  8
0
  2
BLOCK44
 10
228.69603000000001
 20
511.424576
 30
0.0
 50
90.0
  0
INSERT
  5
8D6
  8
0
  2
BLOCK45
 10
228.69603000000001
 20
511.424576
 30
0.0
 50
90.0
  0
INSERT
  5
8D7
  8
0
  2
BLOCK46
 10
228.69603000000001
 20
511.424576
 30
0.0
 50
90.0
  0
INSERT
  5
8D8
  8
0
  2
BLOCK47
 10
228.69603000000001
 20
511.424576
 30
0.0
 50
90.0
  0
INSERT
  5
8D9
  8
0
  2
BLOCK48
 10
228.69603000000001
 20
511.424576
 30
0.0
 50
90.0
  0
INSERT
  5
8DA
  8
0
  2
BLOCK49
 10
228.69603000000001
 20
511.424576
 30
0.0
 50
90.0
  0
INSERT
  5
8DB
  8
0
  2
BLOCK50
 10
228.69603000000001
 20
511.424576
 30
0.0
 50
90.0
  0
INSERT
  5
8DC
  8
0
  2
BLOCK51
 10
228.69603000000001
 20
511.424576
 30
0.0
 50
90.0
  0
INSERT
  5
8DD
  8
0
  2
BLOCK52
 10
228.69603000000001
 20
511.424576
 30
0.0
 50
90.0
  0
INSERT
  5
8DE
  8
0
  2
BLOCK53
 10
228.69603000000001
 20
511.424576
 30
0.0
 50
90.0
  0
INSERT
  5
8DF
  8
0
  2
BLOCK54
 10
228.69603000000001
 20
511.424576
 30
0.0
 50
90.0
  0
INSERT
  5
8E0
  8
0
  2
BLOCK55
 10
228.69603000000001
 20
511.424576
 30
0.0
 50
90.0
  0
INSERT
  5
8E1
  8
0
  2
BLOCK56
 10
228.69603000000001
 20
511.424576
 30
0.0
 50
90.0
  0
INSERT
  5
8E2
  8
0
  2
BLOCK57
 10
228.69603000000001
 20
511.424576
 30
0.0
 50
90.0
  0
INSERT
  5
8E3
  8
0
  2
BLOCK58
 10
228.69603000000001
 20
511.424576
 30
0.0
 50
90.0
  0
INSERT
  5
8E4
  8
0
  2
BLOCK59
 10
228.69603000000001
 20
511.424576
 30
0.0
 50
90.0
  0
INSERT
  5
8E5
  8
0
  2
BLOCK60
 10
228.69603000000001
 20
511.424576
 30
0.0
 50
90.0
  0
INSERT
  5
8E6
  8
0
  2
BLOCK61
 10
228.69603000000001
 20
511.424576
 30
0.0
 50
90.0
  0
INSERT
  5
8E7
  8
0
  2
BLOCK62
 10
228.69603000000001
 20
511.424576
 30
0.0
 50
90.0
  0
INSERT
  5
8E8
  8
0
  2
BLOCK63
 10
228.69603000000001
 20
511.424576
 30
0.0
 50
90.0
  0
INSERT
  5
8E9
  8
0
  2
BLOCK64
 10
228.69603000000001
 20
511.424576
 30
0.0
 50
90.0
  0
INSERT
  5
8EA
  8
0
  2
BLOCK65
 10
228.69603000000001
 20
511.424576
 30
0.0
 50
90.0
  0
INSERT
  5
8EB
  8
0
  2
BLOCK66
 10
228.69603000000001
 20
511.424576
 30
0.0
 50
90.0
  0
INSERT
  5
8EC
  8
0
  2
BLOCK67
 10
228.69603000000001
 20
511.424576
 30
0.0
 50
90.0
  0
INSERT
  5
8ED
  8
0
  2
BLOCK68
 10
228.69603000000001
 20
511.424576
 30
0.0
 50
90.0
  0
INSERT
  5
8EE
  8
0
  2
BLOCK69
 10
421.74393800000001
 20
621.41163600000004
 30
0.0
 50
180.0
  0
INSERT
  5
8EF
  8
0
  2
BLOCK70
 10
421.74393800000001
 20
621.41163600000004
 30
0.0
 50
180.0
  0
INSERT
  5
8F0
  8
0
  2
BLOCK71
 10
421.74393800000001
 20
621.41163600000004
 30
0.0
 50
180.0
  0
INSERT
  5
8F1
  8
0
  2
BLOCK72
 10
421.74393800000001
 20
621.41163600000004
 30
0.0
 50
180.0
  0
INSERT
  5
8F2
  8
0
  2
BLOCK73
 10
421.74393800000001
 20
621.41163600000004
 30
0.0
 50
180.0
  0
INSERT
  5
8F3
  8
0
  2
BLOCK74
 10
421.74393800000001
 20
621.41163600000004
 30
0.0
 50
180.0
  0
INSERT
  5
8F4
  8
0
  2
BLOCK75
 10
421.74393800000001
 20
621.41163600000004
 30
0.0
 50
180.0
  0
INSERT
  5
8F5
  8
0
  2
BLOCK76
 10
421.74393800000001
 20
621.41163600000004
 30
0.0
 50
180.0
  0
INSERT
  5
8F6
  8
0
  2
BLOCK77
 10
421.74393800000001
 20
621.41163600000004
 30
0.0
 50
180.0
  0
INSERT
  5
8F7
  8
0
  2
BLOCK78
 10
421.74393800000001
 20
621.41163600000004
 30
0.0
 50
180.0
  0
VIEWPORT
  5
4B9
 67
     1
  8
0
 62
     0
 10
0.0
 20
0.0
 30
0.0
 40
1000.0
 41
1000.0
 68
     1
 69
     1
1001
ACAD
1000
MVIEW
1002
{
1070
    16
1010
0.0
1020
0.0
1030
0.0
1010
0.0
1020
0.0
1030
1.0
1040
0.0
1040
1000.0
1040
0.0
1040
0.0
1040
50.0
1040
0.0
1040
0.0
1070
     0
1070
   100
1070
     1
1070
     1
1070
     0
1070
     0
1070
     0
1070
     0
1040
0.0
1040
0.0
1040
0.0
1040
1.0
1040
1.0
1040
1.0
1040
1.0
1070
     0
1002
{
1002
}
1002
}
  0
ENDSEC
  0
EOF
