  0
SECTION
  2
HEADER
  9
$ACADVER
  1
AC1009
  9
$INSBASE
 10
0.0
 20
0.0
 30
0.0
  9
$EXTMIN
 10
0.579461
 20
0.579152
 30
0.0
  9
$EXTMAX
 10
392.579461
 20
263.079152
 30
0.0
  9
$LIMMIN
 10
0.0
 20
0.0
  9
$LIMMAX
 10
399.0
 20
280.0
  9
$ORTHOMODE
 70
     1
  9
$REGENMODE
 70
     0
  9
$FILLMODE
 70
     1
  9
$QTEXTMODE
 70
     0
  9
$MIRRTEXT
 70
     1
  9
$DRAGMODE
 70
     2
  9
$LTSCALE
 40
5.0
  9
$OSMODE
 70
     0
  9
$ATTMODE
 70
     1
  9
$TEXTSIZE
 40
2.0
  9
$TRACEWID
 40
0.05
  9
$TEXTSTYLE
  7
STANDARD
  9
$CLAYER
  8
SWEDEN2
  9
$CELTYPE
  6
CONTINUOUS
  9
$CECOLOR
 62
     6
  9
$DIMSCALE
 40
1.0
  9
$DIMASZ
 40
0.18
  9
$DIMEXO
 40
0.0625
  9
$DIMDLI
 40
0.38
  9
$DIMRND
 40
0.0
  9
$DIMDLE
 40
0.0
  9
$DIMEXE
 40
0.18
  9
$DIMTP
 40
0.0
  9
$DIMTM
 40
0.0
  9
$DIMTXT
 40
0.18
  9
$DIMCEN
 40
0.09
  9
$DIMTSZ
 40
0.0
  9
$DIMTOL
 70
     0
  9
$DIMLIM
 70
     0
  9
$DIMTIH
 70
     1
  9
$DIMTOH
 70
     1
  9
$DIMSE1
 70
     0
  9
$DIMSE2
 70
     0
  9
$DIMTAD
 70
     0
  9
$DIMZIN
 70
     0
  9
$DIMBLK
  1

  9
$DIMASO
 70
     1
  9
$DIMSHO
 70
     1
  9
$DIMPOST
  1

  9
$DIMAPOST
  1

  9
$DIMALT
 70
     0
  9
$DIMALTD
 70
     2
  9
$DIMALTF
 40
25.4
  9
$DIMLFAC
 40
1.0
  9
$DIMTOFL
 70
     0
  9
$DIMTVP
 40
0.0
  9
$DIMTIX
 70
     0
  9
$DIMSOXD
 70
     0
  9
$DIMSAH
 70
     0
  9
$DIMBLK1
  1

  9
$DIMBLK2
  1

  9
$DIMSTYLE
  2
*UNNAMED
  9
$DIMCLRD
 70
     0
  9
$DIMCLRE
 70
     0
  9
$DIMCLRT
 70
     0
  9
$DIMTFAC
 40
1.0
  9
$DIMGAP
 40
0.09
  9
$LUNITS
 70
     2
  9
$LUPREC
 70
     4
  9
$SKETCHINC
 40
0.1
  9
$FILLETRAD
 40
1.5
  9
$AUNITS
 70
     0
  9
$AUPREC
 70
     0
  9
$MENU
  1
C:\ACADWIN\SUPPORT\ACAD_2
  9
$ELEVATION
 40
0.0
  9
$PELEVATION
 40
0.0
  9
$THICKNESS
 40
0.0
  9
$LIMCHECK
 70
     0
  9
$BLIPMODE
 70
     1
  9
$CHAMFERA
 40
0.0
  9
$CHAMFERB
 40
0.0
  9
$SKPOLY
 70
     0
  9
$TDCREATE
 40
2450369.357134490
  9
$TDUPDATE
 40
2450493.334477083
  9
$TDINDWG
 40
0.0002173611
  9
$TDUSRTIMER
 40
0.0002173611
  9
$USRTIMER
 70
     1
  9
$ANGBASE
 50
0.0
  9
$ANGDIR
 70
     0
  9
$PDMODE
 70
     0
  9
$PDSIZE
 40
0.0
  9
$PLINEWID
 40
0.0
  9
$COORDS
 70
     2
  9
$SPLFRAME
 70
     0
  9
$SPLINETYPE
 70
     6
  9
$SPLINESEGS
 70
     8
  9
$ATTDIA
 70
     0
  9
$ATTREQ
 70
     1
  9
$HANDLING
 70
     0
  9
$HANDSEED
  5
0
  9
$SURFTAB1
 70
   100
  9
$SURFTAB2
 70
   100
  9
$SURFTYPE
 70
     6
  9
$SURFU
 70
     6
  9
$SURFV
 70
     6
  9
$UCSNAME
  2

  9
$UCSORG
 10
0.0
 20
0.0
 30
0.0
  9
$UCSXDIR
 10
1.0
 20
0.0
 30
0.0
  9
$UCSYDIR
 10
0.0
 20
1.0
 30
0.0
  9
$PUCSNAME
  2

  9
$PUCSORG
 10
0.0
 20
0.0
 30
0.0
  9
$PUCSXDIR
 10
1.0
 20
0.0
 30
0.0
  9
$PUCSYDIR
 10
0.0
 20
1.0
 30
0.0
  9
$USERI1
 70
     0
  9
$USERI2
 70
     0
  9
$USERI3
 70
     0
  9
$USERI4
 70
     0
  9
$USERI5
 70
     0
  9
$USERR1
 40
0.0
  9
$USERR2
 40
0.0
  9
$USERR3
 40
0.0
  9
$USERR4
 40
0.0
  9
$USERR5
 40
0.0
  9
$WORLDVIEW
 70
     1
  9
$SHADEDGE
 70
     3
  9
$SHADEDIF
 70
    70
  9
$TILEMODE
 70
     1
  9
$MAXACTVP
 70
    16
  9
$PINSBASE
 10
0.0
 20
0.0
 30
0.0
  9
$PLIMCHECK
 70
     0
  9
$PEXTMIN
 10
1.000000E+20
 20
1.000000E+20
 30
1.000000E+20
  9
$PEXTMAX
 10
-1.000000E+20
 20
-1.000000E+20
 30
-1.000000E+20
  9
$PLIMMIN
 10
0.0
 20
0.0
  9
$PLIMMAX
 10
12.0
 20
9.0
  9
$UNITMODE
 70
     0
  9
$VISRETAIN
 70
     0
  9
$PLINEGEN
 70
     0
  9
$PSLTSCALE
 70
     0
  9
$TREEDEPTH
 70
  3020
  9
$DWGCODEPAGE
  3
iso8859-1
  0
ENDSEC
  0
SECTION
  2
TABLES
  0
TABLE
  2
VPORT
 70
     2
  0
VPORT
  2
*ACTIVE
 70
     0
 10
0.0
 20
0.0
 11
1.0
 21
1.0
 12
251.722279
 22
145.035861
 13
0.0
 23
0.0
 14
7.0
 24
1.0
 15
21.0
 25
7.0
 16
0.0
 26
0.0
 36
1.0
 17
0.0
 27
0.0
 37
0.0
 40
290.071721
 41
1.735586
 42
50.0
 43
0.0
 44
0.0
 50
0.0
 51
0.0
 71
     0
 72
   100
 73
     1
 74
     0
 75
     0
 76
     1
 77
     0
 78
     0
  0
ENDTAB
  0
TABLE
  2
LTYPE
 70
    12
  0
LTYPE
  2
CONTINUOUS
 70
    64
  3
Solid line
 72
    65
 73
     0
 40
0.0
  0
LTYPE
  2
DASHED
 70
    64
  3
__ __ __ __ __ __ __ __ __ __ __ __ __ __ __ __
 72
    65
 73
     2
 40
0.75
 49
0.5
 49
-0.25
  0
LTYPE
  2
CENTER
 70
    64
  3
____ _ ____ _ ____ _ ____ _ ____ _ ____ _ ____ 
 72
    65
 73
     4
 40
2.0
 49
1.25
 49
-0.25
 49
0.25
 49
-0.25
  0
LTYPE
  2
HIDDEN
 70
    64
  3
__ __ __ __ __ __ __ __ __ __ __ __ __ __ __ __
 72
    65
 73
     2
 40
0.375
 49
0.25
 49
-0.125
  0
LTYPE
  2
DIVIDE
 70
     0
  3
____ . . ____ . . ____ . . ____ . . ____ . . __
 72
    65
 73
     6
 40
1.25
 49
0.5
 49
-0.25
 49
0.0
 49
-0.25
 49
0.0
 49
-0.25
  0
LTYPE
  2
BORDER
 70
     0
  3
__ __ . __ __ . __ __ . __ __ . __ __ . __ __ .
 72
    65
 73
     6
 40
1.75
 49
0.5
 49
-0.25
 49
0.5
 49
-0.25
 49
0.0
 49
-0.25
  0
LTYPE
  2
PHANTOM
 70
     0
  3
______  __  __  ______  __  __  ______  __  __ 
 72
    65
 73
     6
 40
2.5
 49
1.25
 49
-0.25
 49
0.25
 49
-0.25
 49
0.25
 49
-0.25
  0
LTYPE
  2
DASHEDX2
 70
     0
  3
____  ____  ____  ____  ____  ____  ____  ____ 
 72
    65
 73
     2
 40
1.5
 49
1.0
 49
-0.5
  0
LTYPE
  2
DASHDOTX2
 70
     0
  3
____  .  ____  .  ____  .  ____  .  ____  .  __
 72
    65
 73
     4
 40
2.0
 49
1.0
 49
-0.5
 49
0.0
 49
-0.5
  0
LTYPE
  2
DOTX2
 70
     0
  3
.  .  .  .  .  .  .  .  .  .  .  .  .  .  .  . 
 72
    65
 73
     2
 40
0.5
 49
0.0
 49
-0.5
  0
LTYPE
  2
DASHDOT
 70
     0
  3
__ . __ . __ . __ . __ . __ . __ . __ . __ . __
 72
    65
 73
     4
 40
1.0
 49
0.5
 49
-0.25
 49
0.0
 49
-0.25
  0
LTYPE
  2
DOT
 70
     0
  3
. . . . . . . . . . . . . . . . . . . . . . . .
 72
    65
 73
     2
 40
0.25
 49
0.0
 49
-0.25
  0
ENDTAB
  0
TABLE
  2
LAYER
 70
    13
  0
LAYER
  2
0
 70
    64
 62
     7
  6
CONTINUOUS
  0
LAYER
  2
RAAMI
 70
    64
 62
    -4
  6
CONTINUOUS
  0
LAYER
  2
PAKSU
 70
    64
 62
    -3
  6
CONTINUOUS
  0
LAYER
  2
OHUT
 70
    64
 62
    -6
  6
CONTINUOUS
  0
LAYER
  2
SWEDEN
 70
     0
 62
    -7
  6
CONTINUOUS
  0
LAYER
  2
SWEDEN2
 70
    64
 62
    -5
  6
CONTINUOUS
  0
LAYER
  2
BASE
 70
    64
 62
    -7
  6
CONTINUOUS
  0
LAYER
  2
21
 70
    64
 62
    -2
  6
CONTINUOUS
  0
LAYER
  2
HEL035
 70
    64
 62
    -7
  6
CONTINUOUS
  0
LAYER
  2
MUO
 70
    64
 62
    -7
  6
CONTINUOUS
  0
LAYER
  2
1
 70
     0
 62
    -2
  6
CONTINUOUS
  0
LAYER
  2
BASE1
 70
     0
 62
    -5
  6
CONTINUOUS
  0
LAYER
  2
TEKS
 70
     0
 62
    -5
  6
CONTINUOUS
  0
ENDTAB
  0
TABLE
  2
STYLE
 70
     4
  0
STYLE
  2
STANDARD
 70
    64
 40
0.0
 41
1.0
 50
0.0
 71
     0
 42
2.0
  3
txt
  4

  0
STYLE
  2
ROMANS
 70
    64
 40
0.0
 41
1.0
 50
0.0
 71
     0
 42
2.5
  3
romans
  4

  0
STYLE
  2
GREEKS
 70
    64
 40
0.0
 41
1.0
 50
0.0
 71
     0
 42
3.0
  3
TXT
  4

  0
STYLE
  2
CYRILLIC
 70
     0
 40
0.0
 41
1.0
 50
0.0
 71
     0
 42
2.5
  3
CYRILLIC
  4

  0
ENDTAB
  0
TABLE
  2
VIEW
 70
     0
  0
ENDTAB
  0
TABLE
  2
UCS
 70
     0
  0
ENDTAB
  0
TABLE
  2
APPID
 70
     1
  0
APPID
  2
ACAD
 70
    64
  0
ENDTAB
  0
TABLE
  2
DIMSTYLE
 70
     0
  0
ENDTAB
  0
ENDSEC
  0
SECTION
  2
BLOCKS
  0
BLOCK
  8
0
  2
1
 70
    64
 10
0.0
 20
0.0
 30
0.0
  3
1
  0
ENDBLK
  8
0
  0
BLOCK
  8
0
  2
BLC16
 70
     0
 10
0.0
 20
0.0
 30
0.0
  3
BLC16
  0
LINE
  8
0
  6
CONTINUOUS
 10
0.007689
 20
38.054928
 30
0.0
 11
19.983683
 21
38.054928
 31
0.0
  0
LINE
  8
0
  6
CONTINUOUS
 10
19.983683
 20
38.054928
 30
0.0
 11
19.983683
 21
-0.003751
 31
0.0
  0
LINE
  8
0
  6
CONTINUOUS
 10
19.983683
 20
-0.003751
 30
0.0
 11
0.007689
 21
-0.003751
 31
0.0
  0
LINE
  8
0
  6
CONTINUOUS
 10
0.007689
 20
-0.003751
 30
0.0
 11
0.007689
 21
38.054928
 31
0.0
  0
LINE
  8
0
  6
CONTINUOUS
 10
14.152643
 20
36.919738
 30
0.0
 11
14.152643
 21
33.528469
 31
0.0
  0
LINE
  8
0
  6
CONTINUOUS
 10
14.152643
 20
33.528469
 30
0.0
 11
11.560435
 21
33.528469
 31
0.0
  0
LINE
  8
0
  6
CONTINUOUS
 10
11.560435
 20
33.528469
 30
0.0
 11
11.560435
 21
30.778433
 31
0.0
  0
LINE
  8
0
  6
CONTINUOUS
 10
11.560435
 20
30.778433
 30
0.0
 11
14.152643
 21
30.778433
 31
0.0
  0
LINE
  8
0
  6
CONTINUOUS
 10
14.152643
 20
30.778433
 30
0.0
 11
14.152643
 21
27.387164
 31
0.0
  0
TEXT
  8
0
  6
CONTINUOUS
 10
6.558569
 20
30.805266
 30
0.0
 40
2.5
  1
2
 11
6.558569
 21
29.971932
 31
0.0
 73
     1
  0
TEXT
  8
0
  6
CONTINUOUS
 10
6.553289
 20
23.854078
 30
0.0
 40
2.5
  1
2 I
 11
6.553289
 21
23.020744
 31
0.0
 73
     1
  0
LINE
  8
0
  6
CONTINUOUS
 10
12.942534
 20
26.359129
 30
0.0
 11
15.288299
 21
25.023775
 31
0.0
  0
LINE
  8
0
  6
CONTINUOUS
 10
15.288299
 20
25.023775
 30
0.0
 11
12.942534
 21
23.833856
 31
0.0
  0
LINE
  8
0
  6
CONTINUOUS
 10
14.169823
 20
26.359129
 30
0.0
 11
16.515589
 21
25.023775
 31
0.0
  0
LINE
  8
0
  6
CONTINUOUS
 10
16.515589
 20
25.023775
 30
0.0
 11
14.169823
 21
23.833856
 31
0.0
  0
TEXT
  8
0
  6
CONTINUOUS
 10
11.566446
 20
19.235679
 30
0.0
 40
2.5
  1
I
 11
11.566446
 21
18.402346
 31
0.0
 73
     1
  0
TEXT
  8
0
  6
CONTINUOUS
 10
13.018181
 20
18.902346
 30
0.0
 40
1.5
  1
2
 11
13.018181
 21
18.402346
 31
0.0
 73
     1
  0
LINE
  8
0
  6
CONTINUOUS
 10
10.65733
 20
12.773825
 30
0.0
 11
13.003095
 21
13.963744
 31
0.0
  0
LINE
  8
0
  6
CONTINUOUS
 10
13.003095
 20
11.438471
 30
0.0
 11
10.65733
 21
12.773825
 31
0.0
  0
LINE
  8
0
  6
CONTINUOUS
 10
6.557002
 20
16.714658
 30
0.0
 11
15.281743
 21
16.714658
 31
0.0
  0
LINE
  8
0
  6
CONTINUOUS
 10
6.557002
 20
17.523984
 30
0.0
 11
6.557002
 21
15.908791
 31
0.0
  0
LINE
  8
0
  6
CONTINUOUS
 10
15.286518
 20
17.523984
 30
0.0
 11
15.286518
 21
15.908791
 31
0.0
  0
ARC
  8
0
  6
CONTINUOUS
 10
12.684846
 20
18.508045
 30
0.0
 40
2.922744
 50
193.105513
 51
283.105513
  0
TEXT
  8
0
  6
CONTINUOUS
 10
6.557002
 20
11.567974
 30
0.0
 40
2.5
  1
2I
 11
6.557002
 21
10.734641
 31
0.0
 73
     1
  0
LINE
  8
0
  6
CONTINUOUS
 10
6.557002
 20
9.441103
 30
0.0
 11
15.281743
 21
9.441103
 31
0.0
  0
LINE
  8
0
  6
CONTINUOUS
 10
15.286518
 20
10.250429
 30
0.0
 11
15.286518
 21
8.635236
 31
0.0
  0
LINE
  8
0
  6
CONTINUOUS
 10
6.557002
 20
10.250429
 30
0.0
 11
6.557002
 21
8.635236
 31
0.0
  0
TEXT
  8
0
  6
CONTINUOUS
 10
6.557002
 20
4.778631
 30
0.0
 40
2.5
  1
I
 11
6.557002
 21
3.945298
 31
0.0
 73
     1
  0
LINE
  8
0
  6
CONTINUOUS
 10
9.509029
 20
6.822462
 30
0.0
 11
9.509029
 21
5.477736
 31
0.0
  0
LINE
  8
0
  6
CONTINUOUS
 10
8.615065
 20
5.477736
 30
0.0
 11
9.52622
 21
5.477736
 31
0.0
  0
LINE
  8
0
  6
CONTINUOUS
 10
9.509029
 20
5.477736
 30
0.0
 11
10.402992
 21
5.477736
 31
0.0
  0
LINE
  8
0
  6
CONTINUOUS
 10
8.901592
 20
5.082328
 30
0.0
 11
9.509029
 21
5.082328
 31
0.0
  0
LINE
  8
0
  6
CONTINUOUS
 10
9.509029
 20
5.082328
 30
0.0
 11
10.150849
 21
5.082328
 31
0.0
  0
LINE
  8
0
  6
CONTINUOUS
 10
9.981861
 20
4.719969
 30
0.0
 11
9.072041
 21
4.719969
 31
0.0
  0
LINE
  8
0
  6
CONTINUOUS
 10
15.286518
 20
2.797924
 30
0.0
 11
15.286518
 21
1.182731
 31
0.0
  0
LINE
  8
0
  6
CONTINUOUS
 10
6.557002
 20
1.988598
 30
0.0
 11
15.281743
 21
1.988598
 31
0.0
  0
LINE
  8
0
  6
CONTINUOUS
 10
6.557002
 20
2.797924
 30
0.0
 11
6.557002
 21
1.182731
 31
0.0
  0
ENDBLK
  8
0
  0
BLOCK
  8
0
  2
BLC27
 70
     0
 10
0.0
 20
0.0
 30
0.0
  3
BLC27
  0
INSERT
  8
SWEDEN2
  6
CENTER
  2
BLC26
 10
0.08063
 20
0.037985
 30
0.0
 41
1.006225
 42
1.006225
 43
1.006225
  0
ENDBLK
  8
0
  0
BLOCK
  8
0
  2
BLC26
 70
    64
 10
0.0
 20
0.0
 30
0.0
  3
BLC26
  0
ARC
  8
0
  6
CONTINUOUS
 10
-0.180576
 20
1.17922
 30
0.0
 40
1.196859
 50
90.0
 51
265.706237
  0
LINE
  8
0
  6
CONTINUOUS
 10
-0.186638
 20
-0.01092
 30
0.0
 11
0.458942
 21
-0.01092
 31
0.0
  0
LINE
  8
0
  6
CONTINUOUS
 10
-0.186638
 20
2.375671
 30
0.0
 11
0.45288
 21
2.375671
 31
0.0
  0
LINE
  8
0
  6
CONTINUOUS
 10
-0.185509
 20
-2.404629
 30
0.0
 11
0.460071
 21
-2.404629
 31
0.0
  0
ARC
  8
0
  6
CONTINUOUS
 10
-0.180576
 20
-1.207779
 30
0.0
 40
1.196859
 50
90.0
 51
270.0
  0
LINE
  8
0
  6
CONTINUOUS
 10
0.451525
 20
-2.404586
 30
0.0
 11
1.401805
 21
-2.404586
 31
0.0
  0
LINE
  8
0
  6
CONTINUOUS
 10
0.446785
 20
2.375674
 30
0.0
 11
1.418544
 21
2.375674
 31
0.0
  0
LINE
  8
0
  6
CONTINUOUS
 10
0.456627
 20
-0.010911
 30
0.0
 11
1.422749
 21
-0.010911
 31
0.0
  0
ENDBLK
  8
0
  0
BLOCK
  8
0
  2
BLC28
 70
     0
 10
0.0
 20
0.0
 30
0.0
  3
BLC28
  0
LINE
  8
0
  6
CONTINUOUS
 10
0.484576
 20
2.400948
 30
0.0
 11
1.456712
 21
2.400948
 31
0.0
  0
LINE
  8
0
  6
CONTINUOUS
 10
0.474673
 20
4.802388
 30
0.0
 11
1.452481
 21
4.802388
 31
0.0
  0
LINE
  8
0
  6
CONTINUOUS
 10
0.479442
 20
-0.007627
 30
0.0
 11
1.435637
 21
-0.007627
 31
0.0
  0
ARC
  8
0
  6
CONTINUOUS
 10
-0.156593
 20
1.19663
 30
0.0
 40
1.204309
 50
90.0
 51
270.0
  0
LINE
  8
0
  6
CONTINUOUS
 10
-0.161557
 20
-0.007671
 30
0.0
 11
0.488041
 21
-0.007671
 31
0.0
  0
LINE
  8
0
  6
CONTINUOUS
 10
-0.162693
 20
4.802386
 30
0.0
 11
0.480806
 21
4.802386
 31
0.0
  0
LINE
  8
0
  6
CONTINUOUS
 10
-0.162693
 20
2.400939
 30
0.0
 11
0.486905
 21
2.400939
 31
0.0
  0
ARC
  8
0
  6
CONTINUOUS
 10
-0.156593
 20
3.598487
 30
0.0
 40
1.204309
 50
90.0
 51
265.706237
  0
LINE
  8
0
  6
CONTINUOUS
 10
0.484576
 20
-2.362961
 30
0.0
 11
1.456712
 21
-2.362961
 31
0.0
  0
LINE
  8
0
  6
CONTINUOUS
 10
0.479442
 20
-4.771537
 30
0.0
 11
1.435637
 21
-4.771537
 31
0.0
  0
ARC
  8
0
  6
CONTINUOUS
 10
-0.156593
 20
-3.567279
 30
0.0
 40
1.204309
 50
90.0
 51
270.0
  0
LINE
  8
0
  6
CONTINUOUS
 10
-0.161557
 20
-4.77158
 30
0.0
 11
0.488041
 21
-4.77158
 31
0.0
  0
LINE
  8
0
  6
CONTINUOUS
 10
-0.162693
 20
-2.36297
 30
0.0
 11
0.486905
 21
-2.36297
 31
0.0
  0
ARC
  8
0
  6
CONTINUOUS
 10
-0.156593
 20
-1.165422
 30
0.0
 40
1.204309
 50
101.28465
 51
265.706237
  0
ENDBLK
  8
0
  0
BLOCK
  8
0
  2
BLC22
 70
     0
 10
0.0
 20
0.0
 30
0.0
  3
BLC22
  0
LINE
  8
HEL035
 10
0.0
 20
-0.00155
 30
0.0
 11
0.0
 21
9.99845
 31
0.0
  0
LINE
  8
21
 10
2.5
 20
10.0
 30
0.0
 11
5.0
 21
10.0
 31
0.0
  0
LINE
  8
HEL035
 10
0.0
 20
9.99845
 30
0.0
 11
2.5
 21
9.99845
 31
0.0
  0
LINE
  8
HEL035
 10
-2.5
 20
5.0
 30
0.0
 11
2.5
 21
5.0
 31
0.0
  0
LINE
  8
21
 10
2.5
 20
5.0
 30
0.0
 11
5.0
 21
5.0
 31
0.0
  0
LINE
  8
21
 10
5.0
 20
5.0
 30
0.0
 11
5.0
 21
7.9
 31
0.0
  0
LINE
  8
HEL035
 10
3.88095
 20
6.944425
 30
0.0
 11
4.560313
 21
6.008681
 31
0.0
  0
LINE
  8
21
 10
10.0
 20
10.0
 30
0.0
 11
4.2
 21
6.5
 31
0.0
  0
LINE
  8
HEL035
 10
2.5
 20
-0.00155
 30
0.0
 11
0.0
 21
-0.00155
 31
0.0
  0
LINE
  8
21
 10
2.5
 20
0.0
 30
0.0
 11
5.0
 21
0.0
 31
0.0
  0
ENDBLK
  8
0
  0
BLOCK
  8
0
  2
BLC18
 70
     0
 10
0.0
 20
0.0
 30
0.0
  3
BLC18
  0
LINE
  8
MUO
 10
-0.056268
 20
0.849555
 30
0.0
 11
8.307242
 21
9.215502
 31
0.0
  0
LINE
  8
MUO
 10
0.928025
 20
-0.107047
 30
0.0
 11
9.268386
 21
8.2307
 31
0.0
  0
LINE
  8
MUO
 10
-0.056268
 20
-0.107047
 30
0.0
 11
-0.056268
 21
9.215502
 31
0.0
  0
LINE
  8
MUO
 10
9.268386
 20
-0.107047
 30
0.0
 11
-0.056268
 21
-0.107047
 31
0.0
  0
LINE
  8
MUO
 10
9.268386
 20
9.215502
 30
0.0
 11
9.268386
 21
-0.107047
 31
0.0
  0
LINE
  8
MUO
 10
-0.056268
 20
9.215502
 30
0.0
 11
9.268386
 21
9.215502
 31
0.0
  0
ENDBLK
  8
0
  0
BLOCK
  8
0
  2
BLC29
 70
     0
 10
0.0
 20
0.0
 30
0.0
  3
BLC29
  0
LINE
  8
0
  6
CONTINUOUS
 10
0.004865
 20
1.206889
 30
0.0
 11
2.350631
 21
-0.128465
 31
0.0
  0
LINE
  8
0
  6
CONTINUOUS
 10
2.350631
 20
-0.128465
 30
0.0
 11
0.004865
 21
-1.318384
 31
0.0
  0
ENDBLK
  8
0
  0
BLOCK
  8
0
  2
WKU130
 70
     0
 10
190.0
 20
250.0
 30
0.0
  3
WKU130
  0
ARC
  8
21
 10
191.083333
 20
249.916667
 30
0.0
 40
1.086534
 50
32.471192
 51
175.601295
  0
ARC
  8
21
 10
192.916667
 20
251.083333
 30
0.0
 40
1.086534
 50
212.471192
 51
355.601295
  0
ENDBLK
  8
0
  0
BLOCK
  8
0
  2
BLC15
 70
     0
 10
0.0
 20
0.0
 30
0.0
  3
BLC15
  0
LINE
  8
0
  6
CONTINUOUS
 10
0.142084
 20
3.490022
 30
0.0
 11
0.142084
 21
0.844365
 31
0.0
  0
LINE
  8
0
  6
CONTINUOUS
 10
-0.461611
 20
-0.937188
 30
0.0
 11
0.745779
 21
-0.937188
 31
0.0
  0
LINE
  8
0
  6
CONTINUOUS
 10
-0.894108
 20
-0.049675
 30
0.0
 11
1.169267
 21
-0.049675
 31
0.0
  0
LINE
  8
0
  6
CONTINUOUS
 10
-1.389679
 20
0.844365
 30
0.0
 11
1.673848
 21
0.844365
 31
0.0
  0
ENDBLK
  8
0
  0
BLOCK
  8
0
  2
BLC5
 70
     0
 10
0.0
 20
0.0
 30
0.0
  3
BLC5
  0
TEXT
  8
0
 10
-3.043704
 20
-6.645912
 30
0.0
 40
3.2
  1
PE
  0
LINE
  8
0
 10
-2.946392
 20
1.181176
 30
0.0
 11
2.135458
 21
1.181176
 31
0.0
  0
LINE
  8
0
 10
-0.48656
 20
2.238362
 30
0.0
 11
-0.48656
 21
6.930438
 31
0.0
  0
LINE
  8
0
 10
-1.973271
 20
0.065258
 30
0.0
 11
1.225411
 21
0.065258
 31
0.0
  0
LINE
  8
0
 10
2.685091
 20
2.238362
 30
0.0
 11
1.68494
 21
2.238362
 31
0.0
  0
LINE
  8
0
 10
-3.505035
 20
2.238362
 30
0.0
 11
2.649049
 21
2.238362
 31
0.0
  0
CIRCLE
  8
0
 10
-0.47755
 20
1.422632
 30
0.0
 40
3.804563
  0
ENDBLK
  8
0
  0
BLOCK
  8
0
  2
BLC57
 70
     0
 10
0.0
 20
0.0
 30
0.0
  3
BLC57
  0
TEXT
  8
0
  6
CONTINUOUS
 10
5.743694
 20
1.362373
 30
0.0
 40
2.5
  1
1
 11
5.743694
 21
0.52904
 31
0.0
 73
     1
  0
LINE
  8
0
  6
CONTINUOUS
 10
1.301791
 20
0.69718
 30
0.0
 11
3.685251
 21
1.885372
 31
0.0
  0
LINE
  8
0
  6
CONTINUOUS
 10
3.655598
 20
2.687113
 30
0.0
 11
1.309833
 21
1.497194
 31
0.0
  0
LINE
  8
0
  6
CONTINUOUS
 10
1.309833
 20
4.022467
 30
0.0
 11
3.655598
 21
2.687113
 31
0.0
  0
LINE
  8
BASE
  6
CONTINUOUS
 10
7.5
 20
0.0
 30
0.0
 11
7.5
 21
5.0
 31
0.0
  0
LINE
  8
BASE
  6
CONTINUOUS
 10
0.0
 20
0.0
 30
0.0
 11
7.5
 21
0.0
 31
0.0
  0
LINE
  8
BASE
  6
CONTINUOUS
 10
0.0
 20
5.0
 30
0.0
 11
0.0
 21
0.0
 31
0.0
  0
LINE
  8
BASE
  6
CONTINUOUS
 10
7.5
 20
5.0
 30
0.0
 11
0.0
 21
5.0
 31
0.0
  0
ENDBLK
  8
0
  0
BLOCK
  8
0
  2
BLC25
 70
     0
 10
0.0
 20
0.0
 30
0.0
  3
BLC25
  0
TEXT
  8
0
  6
CONTINUOUS
 10
2.0
 20
30.666667
 30
0.0
 40
2.0
  1
1)
 11
2.0
 21
30.0
 31
0.0
 73
     1
  0
TEXT
  8
0
 10
6.0
 20
2.0
 30
0.0
 40
2.0
  1
7B    27     26
 11
6.0
 21
1.333333
 31
0.0
 73
     1
  0
TEXT
  8
0
 10
6.0
 20
5.333333
 30
0.0
 40
2.0
  1
5B     9      8
 11
6.0
 21
4.666667
 31
0.0
 73
     1
  0
TEXT
  8
0
 10
6.0
 20
8.666667
 30
0.0
 40
2.0
  1
3B     3      2
 11
6.0
 21
8.0
 31
0.0
 73
     1
  0
TEXT
  8
0
 10
32.0
 20
12.666667
 30
0.0
 40
2.0
  1
In=5A
 11
32.0
 21
12.0
 31
0.0
 73
     1
  0
TEXT
  8
0
 10
16.0
 20
12.666667
 30
0.0
 40
2.0
  1
In=1A 
 11
16.0
 21
12.0
 31
0.0
 73
     1
  0
TEXT
  8
0
 10
26.0
 20
18.666667
 30
0.0
 40
2.0
  1
108:
 11
26.0
 21
18.0
 31
0.0
 73
     1
  0
TEXT
  8
0
 10
6.0
 20
18.666667
 30
0.0
 40
2.0
  1
101:       
 11
6.0
 21
18.0
 31
0.0
 73
     1
  0
TEXT
  8
0
 10
6.0
 20
24.666667
 30
0.0
 40
2.0
  1
TERMINALS / UTTAG
 11
6.0
 21
24.0
 31
0.0
 73
     1
  0
LINE
  8
0
 10
0.0
 20
12.0
 30
0.0
 11
44.0
 21
12.0
 31
0.0
  0
LINE
  8
0
 10
28.0
 20
18.0
 30
0.0
 11
28.0
 21
0.0
 31
0.0
  0
LINE
  8
0
 10
14.0
 20
18.0
 30
0.0
 11
44.0
 21
18.0
 31
0.0
  0
LINE
  8
0
 10
14.0
 20
24.0
 30
0.0
 11
14.0
 21
0.0
 31
0.0
  0
LINE
  8
0
 10
0.0
 20
24.0
 30
0.0
 11
44.0
 21
24.0
 31
0.0
  0
LINE
  8
0
 10
44.0
 20
0.0
 30
0.0
 11
44.0
 21
30.0
 31
0.0
  0
LINE
  8
0
 10
0.0
 20
0.0
 30
0.0
 11
44.0
 21
0.0
 31
0.0
  0
LINE
  8
0
 10
0.0
 20
30.0
 30
0.0
 11
0.0
 21
0.0
 31
0.0
  0
LINE
  8
0
 10
44.0
 20
30.0
 30
0.0
 11
0.0
 21
30.0
 31
0.0
  0
ENDBLK
  8
0
  0
BLOCK
  8
0
  2
ABBA3V
 70
     0
 10
0.0
 20
0.0
 30
0.0
  3
ABBA3V
  0
TEXT
  8
RAAMI
  6
DASHED
 10
292.217194
 20
11.813359
 30
0.0
 40
3.0
  1
A3
  7
GREEKS
  0
TEXT
  8
RAAMI
  6
DASHED
 10
351.818577
 20
15.69253
 30
0.0
 40
1.4
  1
LEHTI SHEET
  7
GREEKS
  0
LINE
  8
PAKSU
 10
0.237099
 20
262.737999
 30
0.0
 11
392.237099
 21
262.737999
 31
0.0
  0
LINE
  8
RAAMI
 10
18.237099
 20
0.237999
 30
0.0
 11
0.237099
 21
0.237999
 31
0.0
  0
LINE
  8
PAKSU
 10
209.237099
 20
0.237999
 30
0.0
 11
392.237099
 21
0.237999
 31
0.0
  0
LINE
  8
PAKSU
 10
209.237099
 20
0.237999
 30
0.0
 11
209.237099
 21
35.237999
 31
0.0
  0
LINE
  8
PAKSU
 10
392.237099
 20
0.237999
 30
0.0
 11
392.237099
 21
35.237999
 31
0.0
  0
LINE
  8
OHUT
 10
209.237099
 20
18.237999
 30
0.0
 11
392.237099
 21
18.237999
 31
0.0
  0
LINE
  8
OHUT
 10
209.237099
 20
9.737999
 30
0.0
 11
392.237099
 21
9.737999
 31
0.0
  0
LINE
  8
OHUT
 10
209.237099
 20
26.737999
 30
0.0
 11
307.237099
 21
26.737999
 31
0.0
  0
LINE
  8
PAKSU
 10
209.237099
 20
35.237999
 30
0.0
 11
392.237099
 21
35.237999
 31
0.0
  0
TEXT
  8
RAAMI
 10
210.237099
 20
23.971333
 30
0.0
 40
1.4
  1
TARKASTI  CHECKED
  7
ROMANS
  0
TEXT
  8
RAAMI
 10
209.979934
 20
15.704666
 30
0.0
 40
1.4
  1
HYVÄKSYI  APPROVED
  7
ROMANS
  0
LINE
  8
OHUT
 10
307.237099
 20
0.237999
 30
0.0
 11
307.237099
 21
35.237999
 31
0.0
  0
TEXT
  8
RAAMI
 10
259.237099
 20
32.737999
 30
0.0
 40
1.4
  1
LIITTYY  CONCERNING
  7
ROMANS
  0
TEXT
  8
RAAMI
 10
259.237099
 20
23.737999
 30
0.0
 40
1.4
  1
TOLERANSSIT  TOLERANCES
  7
ROMANS
  0
TEXT
  8
RAAMI
 10
259.237099
 20
15.737999
 30
0.0
 40
1.4
  1
SUHDE  SCALE
  7
ROMANS
  0
TEXT
  8
RAAMI
 10
309.237099
 20
32.737999
 30
0.0
 40
1.4
  1
NIMITYS  NAME
  7
ROMANS
  0
TEXT
  8
RAAMI
 10
309.237099
 20
15.737999
 30
0.0
 40
1.4
  1
KOODI  CODE
  7
ROMANS
  0
TEXT
  8
RAAMI
 10
309.237099
 20
7.237999
 30
0.0
 40
1.4
  1
PIIRUSTUS NO  DRAWING NR
  7
ROMANS
  0
LINE
  8
OHUT
 10
349.737099
 20
9.737999
 30
0.0
 11
349.737099
 21
18.237999
 31
0.0
  0
TEXT
  8
RAAMI
 10
371.237099
 20
7.237999
 30
0.0
 40
1.4
  1
PAINOS  REVISION
  7
ROMANS
  0
LINE
  8
OHUT
 10
369.737099
 20
9.737999
 30
0.0
 11
369.737099
 21
0.237999
 31
0.0
  0
LINE
  8
RAAMI
 10
210.187099
 20
1.737999
 30
0.0
 11
211.937099
 21
1.737999
 31
0.0
  0
LINE
  8
RAAMI
 10
215.437099
 20
1.737999
 30
0.0
 11
217.187099
 21
1.737999
 31
0.0
  0
LINE
  8
RAAMI
 10
212.637099
 20
8.737999
 30
0.0
 11
211.459571
 21
5.373634
 31
0.0
  0
LINE
  8
RAAMI
 10
212.425886
 20
3.137999
 30
0.0
 11
213.547099
 21
3.137999
 31
0.0
  0
LINE
  8
RAAMI
 10
212.425889
 20
3.134542
 30
0.0
 11
211.937099
 21
1.737999
 31
0.0
  0
LINE
  8
RAAMI
 10
214.737099
 20
8.737999
 30
0.0
 11
215.913452
 21
5.376991
 31
0.0
  0
LINE
  8
RAAMI
 10
214.948197
 20
3.134863
 30
0.0
 11
215.437099
 21
1.737999
 31
0.0
  0
LINE
  8
RAAMI
 10
214.737099
 20
8.737999
 30
0.0
 11
213.827099
 21
8.737999
 31
0.0
  0
LINE
  8
RAAMI
 10
213.547099
 20
8.737999
 30
0.0
 11
213.547099
 21
5.377999
 31
0.0
  0
LINE
  8
RAAMI
 10
213.827099
 20
8.737999
 30
0.0
 11
213.827099
 21
5.377999
 31
0.0
  0
LINE
  8
RAAMI
 10
213.827099
 20
3.137999
 30
0.0
 11
214.946992
 21
3.137999
 31
0.0
  0
LINE
  8
RAAMI
 10
213.547099
 20
8.737999
 30
0.0
 11
212.637099
 21
8.737999
 31
0.0
  0
LINE
  8
RAAMI
 10
211.45904
 20
5.377999
 30
0.0
 11
213.547099
 21
5.377999
 31
0.0
  0
LINE
  8
RAAMI
 10
211.360082
 20
5.097999
 30
0.0
 11
213.547099
 21
5.097999
 31
0.0
  0
LINE
  8
RAAMI
 10
216.011591
 20
5.096594
 30
0.0
 11
217.187099
 21
1.737999
 31
0.0
  0
LINE
  8
RAAMI
 10
213.827099
 20
5.377999
 30
0.0
 11
215.912213
 21
5.377999
 31
0.0
  0
LINE
  8
RAAMI
 10
213.827099
 20
5.097999
 30
0.0
 11
216.010356
 21
5.097999
 31
0.0
  0
LINE
  8
RAAMI
 10
213.827099
 20
5.097999
 30
0.0
 11
213.827099
 21
3.137999
 31
0.0
  0
LINE
  8
RAAMI
 10
213.547099
 20
5.097999
 30
0.0
 11
213.547099
 21
3.137999
 31
0.0
  0
LINE
  8
RAAMI
 10
211.356988
 20
5.080538
 30
0.0
 11
210.187099
 21
1.737999
 31
0.0
  0
INSERT
  8
RAAMI
  2
*X14
 10
210.187099
 20
1.737999
 30
0.0
 41
0.7
 42
0.7
 43
0.7
  0
INSERT
  8
RAAMI
  2
*X15
 10
210.187099
 20
1.737999
 30
0.0
 41
0.7
 42
0.7
 43
0.7
  0
INSERT
  8
RAAMI
  2
*X16
 10
210.187099
 20
1.737999
 30
0.0
 41
0.7
 42
0.7
 43
0.7
  0
INSERT
  8
RAAMI
  2
*X17
 10
210.187099
 20
1.737999
 30
0.0
 41
0.7
 42
0.7
 43
0.7
  0
LINE
  8
RAAMI
 10
217.677099
 20
1.737999
 30
0.0
 11
217.677099
 21
5.097999
 31
0.0
  0
LINE
  8
RAAMI
 10
217.677099
 20
8.737999
 30
0.0
 11
219.637099
 21
8.737999
 31
0.0
  0
LINE
  8
RAAMI
 10
219.637099
 20
8.737999
 30
0.0
 11
219.637099
 21
5.377999
 31
0.0
  0
LINE
  8
RAAMI
 10
219.637099
 20
5.377999
 30
0.0
 11
217.677099
 21
5.377999
 31
0.0
  0
LINE
  8
RAAMI
 10
217.677099
 20
5.097999
 30
0.0
 11
219.637099
 21
5.097999
 31
0.0
  0
LINE
  8
RAAMI
 10
219.637099
 20
5.097999
 30
0.0
 11
219.637099
 21
1.737999
 31
0.0
  0
LINE
  8
RAAMI
 10
219.637099
 20
1.737999
 30
0.0
 11
217.677099
 21
1.737999
 31
0.0
  0
LINE
  8
RAAMI
 10
217.677099
 20
5.377999
 30
0.0
 11
217.677099
 21
8.737999
 31
0.0
  0
ARC
  8
RAAMI
 10
220.477099
 20
7.162999
 30
0.0
 40
1.575
 50
298.455859
 51
90.052437
  0
LINE
  8
RAAMI
 10
219.917099
 20
8.737999
 30
0.0
 11
220.475658
 21
8.737999
 31
0.0
  0
LINE
  8
RAAMI
 10
219.917099
 20
8.737999
 30
0.0
 11
219.917099
 21
5.377999
 31
0.0
  0
LINE
  8
RAAMI
 10
219.917099
 20
5.377999
 30
0.0
 11
221.901542
 21
5.377999
 31
0.0
  0
LINE
  8
RAAMI
 10
222.157099
 20
5.097999
 30
0.0
 11
219.917099
 21
5.097999
 31
0.0
  0
LINE
  8
RAAMI
 10
219.917099
 20
5.097999
 30
0.0
 11
219.917099
 21
1.737999
 31
0.0
  0
ARC
  8
RAAMI
 10
220.477099
 20
3.837999
 30
0.0
 40
2.1
 50
269.937724
 51
37.056553
  0
LINE
  8
RAAMI
 10
219.917099
 20
1.737999
 30
0.0
 11
220.474817
 21
1.738
 31
0.0
  0
ARC
  8
RAAMI
 10
220.477099
 20
3.837999
 30
0.0
 40
2.1
 50
47.28622
 51
68.787999
  0
INSERT
  8
RAAMI
  2
*X18
 10
210.187099
 20
1.737999
 30
0.0
 41
0.7
 42
0.7
 43
0.7
  0
INSERT
  8
RAAMI
  2
*X19
 10
210.187099
 20
1.737999
 30
0.0
 41
0.7
 42
0.7
 43
0.7
  0
INSERT
  8
RAAMI
  2
*X20
 10
210.187099
 20
1.737999
 30
0.0
 41
0.7
 42
0.7
 43
0.7
  0
INSERT
  8
RAAMI
  2
*X21
 10
210.187099
 20
1.737999
 30
0.0
 41
0.7
 42
0.7
 43
0.7
  0
INSERT
  8
RAAMI
  2
*X21
 10
215.647099
 20
1.737999
 30
0.0
 41
0.7
 42
0.7
 43
0.7
  0
INSERT
  8
RAAMI
  2
*X20
 10
215.647099
 20
1.737999
 30
0.0
 41
0.7
 42
0.7
 43
0.7
  0
INSERT
  8
RAAMI
  2
*X19
 10
215.647099
 20
1.737999
 30
0.0
 41
0.7
 42
0.7
 43
0.7
  0
INSERT
  8
RAAMI
  2
*X18
 10
215.647099
 20
1.737999
 30
0.0
 41
0.7
 42
0.7
 43
0.7
  0
ARC
  8
RAAMI
 10
225.937099
 20
3.837999
 30
0.0
 40
2.1
 50
47.28622
 51
68.787999
  0
LINE
  8
RAAMI
 10
225.377099
 20
1.737999
 30
0.0
 11
225.934817
 21
1.738
 31
0.0
  0
ARC
  8
RAAMI
 10
225.937099
 20
3.837999
 30
0.0
 40
2.1
 50
269.937724
 51
37.056553
  0
LINE
  8
RAAMI
 10
225.377099
 20
5.097999
 30
0.0
 11
225.377099
 21
1.737999
 31
0.0
  0
LINE
  8
RAAMI
 10
227.617099
 20
5.097999
 30
0.0
 11
225.377099
 21
5.097999
 31
0.0
  0
LINE
  8
RAAMI
 10
225.377099
 20
5.377999
 30
0.0
 11
227.361542
 21
5.377999
 31
0.0
  0
LINE
  8
RAAMI
 10
225.377099
 20
8.737999
 30
0.0
 11
225.377099
 21
5.377999
 31
0.0
  0
LINE
  8
RAAMI
 10
225.377099
 20
8.737999
 30
0.0
 11
225.935658
 21
8.737999
 31
0.0
  0
ARC
  8
RAAMI
 10
225.937099
 20
7.162999
 30
0.0
 40
1.575
 50
298.455859
 51
90.052437
  0
LINE
  8
RAAMI
 10
223.137099
 20
5.377999
 30
0.0
 11
223.137099
 21
8.737999
 31
0.0
  0
LINE
  8
RAAMI
 10
225.097099
 20
1.737999
 30
0.0
 11
223.137099
 21
1.737999
 31
0.0
  0
LINE
  8
RAAMI
 10
225.097099
 20
5.097999
 30
0.0
 11
225.097099
 21
1.737999
 31
0.0
  0
LINE
  8
RAAMI
 10
223.137099
 20
5.097999
 30
0.0
 11
225.097099
 21
5.097999
 31
0.0
  0
LINE
  8
RAAMI
 10
225.097099
 20
5.377999
 30
0.0
 11
223.137099
 21
5.377999
 31
0.0
  0
LINE
  8
RAAMI
 10
225.097099
 20
8.737999
 30
0.0
 11
225.097099
 21
5.377999
 31
0.0
  0
LINE
  8
RAAMI
 10
223.137099
 20
8.737999
 30
0.0
 11
225.097099
 21
8.737999
 31
0.0
  0
LINE
  8
RAAMI
 10
223.137099
 20
1.737999
 30
0.0
 11
223.137099
 21
5.097999
 31
0.0
  0
TEXT
  8
RAAMI
 10
229.737099
 20
1.737999
 30
0.0
 40
3.0
  1
ABB 
 41
0.8
  7
ROMANS
  0
TEXT
  8
RAAMI
 10
237.737099
 20
1.737999
 30
0.0
 40
3.0
  1
Str÷mberg
 41
0.8
  7
ROMANS
  0
LINE
  8
OHUT
 10
282.237099
 20
9.737999
 30
0.0
 11
282.237099
 21
18.237999
 31
0.0
  0
TEXT
  8
RAAMI
 10
27.737099
 20
4.737999
 30
0.0
 40
1.4
  1
MUUTOS
  7
ROMANS
  0
TEXT
  8
RAAMI
 10
27.737099
 20
2.471333
 30
0.0
 40
1.4
  1
REVISION
  7
ROMANS
  0
LINE
  8
OHUT
 10
46.737099
 20
9.237999
 30
0.0
 11
209.237099
 21
9.237999
 31
0.0
  0
LINE
  8
OHUT
 10
46.737099
 20
0.237999
 30
0.0
 11
46.737099
 21
9.237999
 31
0.0
  0
LINE
  8
OHUT
 10
40.737099
 20
4.737999
 30
0.0
 11
209.237099
 21
4.737999
 31
0.0
  0
LINE
  8
OHUT
 10
257.237099
 20
9.737999
 30
0.0
 11
257.237099
 21
35.237999
 31
0.0
  0
LINE
  8
OHUT
 10
271.237099
 20
9.737999
 30
0.0
 11
271.237099
 21
0.237999
 31
0.0
  0
TEXT
  8
RAAMI
 10
210.237099
 20
32.237999
 30
0.0
 40
1.4
  1
TEKI  PREPARED
  7
ROMANS
  0
TEXT
  8
RAAMI
 10
273.237099
 20
7.237999
 30
0.0
 40
1.4
  1
VAST.OSASTO RESP.DEPT.
  7
ROMANS
  0
TEXT
  8
RAAMI
 10
257.407006
 20
1.741783
 30
0.0
 40
3.0
  1
Power
 41
0.8
  7
ROMANS
  0
TEXT
  8
RAAMI
 10
42.237099
 20
1.195292
 30
0.0
 40
2.5
  1
B
  7
ROMANS
  0
TEXT
  8
RAAMI
 10
42.237099
 20
5.587508
 30
0.0
 40
2.5
  1
C
  7
ROMANS
  0
LINE
  8
PAKSU
 10
0.237099
 20
0.237999
 30
0.0
 11
392.237099
 21
0.237999
 31
0.0
  0
LINE
  8
PAKSU
 10
392.237099
 20
262.737999
 30
0.0
 11
392.237099
 21
0.237999
 31
0.0
  0
LINE
  8
PAKSU
 10
0.237099
 20
0.237999
 30
0.0
 11
0.237099
 21
262.737999
 31
0.0
  0
ENDBLK
  8
0
  0
BLOCK
  8
0
  2
*X14
 70
    65
 10
0.0
 20
0.0
 30
0.0
  3
*X
  0
LINE
  8
0
 62
     0
 10
2.284499
 20
6.52714
 30
0.0
 11
4.8
 21
9.042641
 31
0.0
  0
LINE
  8
0
 62
     0
 10
2.379686
 20
6.799104
 30
0.0
 11
4.8
 21
9.219417
 31
0.0
  0
LINE
  8
0
 62
     0
 10
2.474874
 20
7.071068
 30
0.0
 11
4.8
 21
9.396194
 31
0.0
  0
LINE
  8
0
 62
     0
 10
2.570061
 20
7.343032
 30
0.0
 11
4.8
 21
9.572971
 31
0.0
  0
LINE
  8
0
 62
     0
 10
2.665249
 20
7.614996
 30
0.0
 11
4.8
 21
9.749747
 31
0.0
  0
LINE
  8
0
 62
     0
 10
2.760436
 20
7.88696
 30
0.0
 11
4.8
 21
9.926524
 31
0.0
  0
LINE
  8
0
 62
     0
 10
2.855624
 20
8.158924
 30
0.0
 11
4.696699
 21
10.0
 31
0.0
  0
LINE
  8
0
 62
     0
 10
2.950811
 20
8.430889
 30
0.0
 11
4.519922
 21
10.0
 31
0.0
  0
LINE
  8
0
 62
     0
 10
3.045998
 20
8.702853
 30
0.0
 11
4.343146
 21
10.0
 31
0.0
  0
LINE
  8
0
 62
     0
 10
3.141186
 20
8.974817
 30
0.0
 11
4.166369
 21
10.0
 31
0.0
  0
LINE
  8
0
 62
     0
 10
3.236373
 20
9.246781
 30
0.0
 11
3.989592
 21
10.0
 31
0.0
  0
LINE
  8
0
 62
     0
 10
3.331561
 20
9.518745
 30
0.0
 11
3.812816
 21
10.0
 31
0.0
  0
LINE
  8
0
 62
     0
 10
3.426748
 20
9.790709
 30
0.0
 11
3.636039
 21
10.0
 31
0.0
  0
LINE
  8
0
 62
     0
 10
2.189311
 20
6.255175
 30
0.0
 11
4.8
 21
8.865864
 31
0.0
  0
LINE
  8
0
 62
     0
 10
2.094124
 20
5.983211
 30
0.0
 11
4.8
 21
8.689087
 31
0.0
  0
LINE
  8
0
 62
     0
 10
1.998936
 20
5.711247
 30
0.0
 11
4.8
 21
8.512311
 31
0.0
  0
LINE
  8
0
 62
     0
 10
1.903749
 20
5.439283
 30
0.0
 11
4.8
 21
8.335534
 31
0.0
  0
LINE
  8
0
 62
     0
 10
1.841243
 20
5.2
 30
0.0
 11
4.8
 21
8.158757
 31
0.0
  0
LINE
  8
0
 62
     0
 10
2.018019
 20
5.2
 30
0.0
 11
4.8
 21
7.981981
 31
0.0
  0
LINE
  8
0
 62
     0
 10
2.194796
 20
5.2
 30
0.0
 11
4.8
 21
7.805204
 31
0.0
  0
LINE
  8
0
 62
     0
 10
2.371573
 20
5.2
 30
0.0
 11
4.8
 21
7.628427
 31
0.0
  0
LINE
  8
0
 62
     0
 10
2.54835
 20
5.2
 30
0.0
 11
4.8
 21
7.45165
 31
0.0
  0
LINE
  8
0
 62
     0
 10
2.725126
 20
5.2
 30
0.0
 11
4.8
 21
7.274874
 31
0.0
  0
LINE
  8
0
 62
     0
 10
2.901903
 20
5.2
 30
0.0
 11
4.8
 21
7.098097
 31
0.0
  0
LINE
  8
0
 62
     0
 10
3.07868
 20
5.2
 30
0.0
 11
4.8
 21
6.92132
 31
0.0
  0
LINE
  8
0
 62
     0
 10
3.255456
 20
5.2
 30
0.0
 11
4.8
 21
6.744544
 31
0.0
  0
LINE
  8
0
 62
     0
 10
3.432233
 20
5.2
 30
0.0
 11
4.8
 21
6.567767
 31
0.0
  0
LINE
  8
0
 62
     0
 10
3.60901
 20
5.2
 30
0.0
 11
4.8
 21
6.39099
 31
0.0
  0
LINE
  8
0
 62
     0
 10
3.785786
 20
5.2
 30
0.0
 11
4.8
 21
6.214214
 31
0.0
  0
LINE
  8
0
 62
     0
 10
3.962563
 20
5.2
 30
0.0
 11
4.8
 21
6.037437
 31
0.0
  0
LINE
  8
0
 62
     0
 10
4.13934
 20
5.2
 30
0.0
 11
4.8
 21
5.86066
 31
0.0
  0
LINE
  8
0
 62
     0
 10
4.316117
 20
5.2
 30
0.0
 11
4.8
 21
5.683883
 31
0.0
  0
LINE
  8
0
 62
     0
 10
4.492893
 20
5.2
 30
0.0
 11
4.8
 21
5.507107
 31
0.0
  0
LINE
  8
0
 62
     0
 10
4.66967
 20
5.2
 30
0.0
 11
4.8
 21
5.33033
 31
0.0
  0
ENDBLK
  8
0
  0
BLOCK
  8
0
  2
*X15
 70
    65
 10
0.0
 20
0.0
 30
0.0
  3
*X
  0
LINE
  8
0
 62
     0
 10
5.2
 20
6.083883
 30
0.0
 11
7.178252
 21
8.062136
 31
0.0
  0
LINE
  8
0
 62
     0
 10
5.2
 20
6.26066
 30
0.0
 11
7.132421
 21
8.193082
 31
0.0
  0
LINE
  8
0
 62
     0
 10
5.2
 20
6.437437
 30
0.0
 11
7.08659
 21
8.324027
 31
0.0
  0
LINE
  8
0
 62
     0
 10
5.2
 20
6.614214
 30
0.0
 11
7.040759
 21
8.454973
 31
0.0
  0
LINE
  8
0
 62
     0
 10
5.2
 20
6.79099
 30
0.0
 11
6.994928
 21
8.585919
 31
0.0
  0
LINE
  8
0
 62
     0
 10
5.2
 20
6.967767
 30
0.0
 11
6.949097
 21
8.716864
 31
0.0
  0
LINE
  8
0
 62
     0
 10
5.2
 20
7.144544
 30
0.0
 11
6.903266
 21
8.84781
 31
0.0
  0
LINE
  8
0
 62
     0
 10
5.2
 20
7.32132
 30
0.0
 11
6.857435
 21
8.978756
 31
0.0
  0
LINE
  8
0
 62
     0
 10
5.2
 20
7.498097
 30
0.0
 11
6.811604
 21
9.109702
 31
0.0
  0
LINE
  8
0
 62
     0
 10
5.2
 20
7.674874
 30
0.0
 11
6.765773
 21
9.240647
 31
0.0
  0
LINE
  8
0
 62
     0
 10
5.2
 20
7.85165
 30
0.0
 11
6.719942
 21
9.371593
 31
0.0
  0
LINE
  8
0
 62
     0
 10
5.2
 20
8.028427
 30
0.0
 11
6.674111
 21
9.502539
 31
0.0
  0
LINE
  8
0
 62
     0
 10
5.2
 20
8.205204
 30
0.0
 11
6.62828
 21
9.633484
 31
0.0
  0
LINE
  8
0
 62
     0
 10
5.2
 20
8.381981
 30
0.0
 11
6.582449
 21
9.76443
 31
0.0
  0
LINE
  8
0
 62
     0
 10
5.2
 20
8.558757
 30
0.0
 11
6.536619
 21
9.895376
 31
0.0
  0
LINE
  8
0
 62
     0
 10
5.2
 20
8.735534
 30
0.0
 11
6.464466
 21
10.0
 31
0.0
  0
LINE
  8
0
 62
     0
 10
5.2
 20
8.912311
 30
0.0
 11
6.287689
 21
10.0
 31
0.0
  0
LINE
  8
0
 62
     0
 10
5.2
 20
9.089087
 30
0.0
 11
6.110913
 21
10.0
 31
0.0
  0
LINE
  8
0
 62
     0
 10
5.2
 20
9.265864
 30
0.0
 11
5.934136
 21
10.0
 31
0.0
  0
LINE
  8
0
 62
     0
 10
5.2
 20
9.442641
 30
0.0
 11
5.757359
 21
10.0
 31
0.0
  0
LINE
  8
0
 62
     0
 10
5.2
 20
9.619417
 30
0.0
 11
5.580583
 21
10.0
 31
0.0
  0
LINE
  8
0
 62
     0
 10
5.2
 20
9.796194
 30
0.0
 11
5.403806
 21
10.0
 31
0.0
  0
LINE
  8
0
 62
     0
 10
5.2
 20
9.972971
 30
0.0
 11
5.227029
 21
10.0
 31
0.0
  0
LINE
  8
0
 62
     0
 10
5.2
 20
5.907107
 30
0.0
 11
7.224083
 21
7.93119
 31
0.0
  0
LINE
  8
0
 62
     0
 10
5.2
 20
5.73033
 30
0.0
 11
7.269914
 21
7.800245
 31
0.0
  0
LINE
  8
0
 62
     0
 10
5.2
 20
5.553553
 30
0.0
 11
7.315745
 21
7.669299
 31
0.0
  0
LINE
  8
0
 62
     0
 10
5.2
 20
5.376777
 30
0.0
 11
7.361576
 21
7.538353
 31
0.0
  0
LINE
  8
0
 62
     0
 10
5.2
 20
5.2
 30
0.0
 11
7.407407
 21
7.407407
 31
0.0
  0
LINE
  8
0
 62
     0
 10
5.376777
 20
5.2
 30
0.0
 11
7.453238
 21
7.276462
 31
0.0
  0
LINE
  8
0
 62
     0
 10
5.553553
 20
5.2
 30
0.0
 11
7.499069
 21
7.145516
 31
0.0
  0
LINE
  8
0
 62
     0
 10
5.73033
 20
5.2
 30
0.0
 11
7.5449
 21
7.01457
 31
0.0
  0
LINE
  8
0
 62
     0
 10
5.907107
 20
5.2
 30
0.0
 11
7.590731
 21
6.883625
 31
0.0
  0
LINE
  8
0
 62
     0
 10
6.083883
 20
5.2
 30
0.0
 11
7.636562
 21
6.752679
 31
0.0
  0
LINE
  8
0
 62
     0
 10
6.26066
 20
5.2
 30
0.0
 11
7.682393
 21
6.621733
 31
0.0
  0
LINE
  8
0
 62
     0
 10
6.437437
 20
5.2
 30
0.0
 11
7.728224
 21
6.490788
 31
0.0
  0
LINE
  8
0
 62
     0
 10
6.614214
 20
5.2
 30
0.0
 11
7.774055
 21
6.359842
 31
0.0
  0
LINE
  8
0
 62
     0
 10
6.79099
 20
5.2
 30
0.0
 11
7.819886
 21
6.228896
 31
0.0
  0
LINE
  8
0
 62
     0
 10
6.967767
 20
5.2
 30
0.0
 11
7.865717
 21
6.09795
 31
0.0
  0
LINE
  8
0
 62
     0
 10
7.144544
 20
5.2
 30
0.0
 11
7.911548
 21
5.967005
 31
0.0
  0
LINE
  8
0
 62
     0
 10
7.32132
 20
5.2
 30
0.0
 11
7.957379
 21
5.836059
 31
0.0
  0
LINE
  8
0
 62
     0
 10
7.498097
 20
5.2
 30
0.0
 11
8.00321
 21
5.705113
 31
0.0
  0
LINE
  8
0
 62
     0
 10
7.674874
 20
5.2
 30
0.0
 11
8.049041
 21
5.574168
 31
0.0
  0
LINE
  8
0
 62
     0
 10
7.85165
 20
5.2
 30
0.0
 11
8.094872
 21
5.443222
 31
0.0
  0
LINE
  8
0
 62
     0
 10
8.028427
 20
5.2
 30
0.0
 11
8.140703
 21
5.312276
 31
0.0
  0
ENDBLK
  8
0
  0
BLOCK
  8
0
  2
*X16
 70
    65
 10
0.0
 20
0.0
 30
0.0
  3
*X
  0
LINE
  8
0
 62
     0
 10
0.0
 20
0.0
 30
0.0
 11
4.8
 21
4.8
 31
0.0
  0
LINE
  8
0
 62
     0
 10
0.095187
 20
0.271964
 30
0.0
 11
4.623223
 21
4.8
 31
0.0
  0
LINE
  8
0
 62
     0
 10
0.190375
 20
0.543928
 30
0.0
 11
4.446447
 21
4.8
 31
0.0
  0
LINE
  8
0
 62
     0
 10
0.285562
 20
0.815892
 30
0.0
 11
4.26967
 21
4.8
 31
0.0
  0
LINE
  8
0
 62
     0
 10
0.38075
 20
1.087857
 30
0.0
 11
4.092893
 21
4.8
 31
0.0
  0
LINE
  8
0
 62
     0
 10
0.475937
 20
1.359821
 30
0.0
 11
3.916117
 21
4.8
 31
0.0
  0
LINE
  8
0
 62
     0
 10
0.571125
 20
1.631785
 30
0.0
 11
3.73934
 21
4.8
 31
0.0
  0
LINE
  8
0
 62
     0
 10
0.666312
 20
1.903749
 30
0.0
 11
3.562563
 21
4.8
 31
0.0
  0
LINE
  8
0
 62
     0
 10
0.7615
 20
2.175713
 30
0.0
 11
3.385786
 21
4.8
 31
0.0
  0
LINE
  8
0
 62
     0
 10
0.856687
 20
2.447677
 30
0.0
 11
3.20901
 21
4.8
 31
0.0
  0
LINE
  8
0
 62
     0
 10
0.951875
 20
2.719641
 30
0.0
 11
3.032233
 21
4.8
 31
0.0
  0
LINE
  8
0
 62
     0
 10
1.047062
 20
2.991606
 30
0.0
 11
2.855456
 21
4.8
 31
0.0
  0
LINE
  8
0
 62
     0
 10
1.142249
 20
3.26357
 30
0.0
 11
2.67868
 21
4.8
 31
0.0
  0
LINE
  8
0
 62
     0
 10
1.237437
 20
3.535534
 30
0.0
 11
2.501903
 21
4.8
 31
0.0
  0
LINE
  8
0
 62
     0
 10
1.332624
 20
3.807498
 30
0.0
 11
2.325126
 21
4.8
 31
0.0
  0
LINE
  8
0
 62
     0
 10
1.427812
 20
4.079462
 30
0.0
 11
2.14835
 21
4.8
 31
0.0
  0
LINE
  8
0
 62
     0
 10
1.522999
 20
4.351426
 30
0.0
 11
1.971573
 21
4.8
 31
0.0
  0
LINE
  8
0
 62
     0
 10
1.618187
 20
4.62339
 30
0.0
 11
1.794796
 21
4.8
 31
0.0
  0
LINE
  8
0
 62
     0
 10
0.176777
 20
0.0
 30
0.0
 11
4.8
 21
4.623223
 31
0.0
  0
LINE
  8
0
 62
     0
 10
0.353553
 20
0.0
 30
0.0
 11
4.8
 21
4.446447
 31
0.0
  0
LINE
  8
0
 62
     0
 10
0.53033
 20
0.0
 30
0.0
 11
4.8
 21
4.26967
 31
0.0
  0
LINE
  8
0
 62
     0
 10
0.707107
 20
0.0
 30
0.0
 11
4.8
 21
4.092893
 31
0.0
  0
LINE
  8
0
 62
     0
 10
0.883883
 20
0.0
 30
0.0
 11
4.8
 21
3.916117
 31
0.0
  0
LINE
  8
0
 62
     0
 10
1.06066
 20
0.0
 30
0.0
 11
4.8
 21
3.73934
 31
0.0
  0
LINE
  8
0
 62
     0
 10
1.237437
 20
0.0
 30
0.0
 11
3.179842
 21
1.942405
 31
0.0
  0
LINE
  8
0
 62
     0
 10
3.237437
 20
2.0
 30
0.0
 11
4.8
 21
3.562563
 31
0.0
  0
LINE
  8
0
 62
     0
 10
1.414214
 20
0.0
 30
0.0
 11
3.084654
 21
1.670441
 31
0.0
  0
LINE
  8
0
 62
     0
 10
3.414214
 20
2.0
 30
0.0
 11
4.8
 21
3.385786
 31
0.0
  0
LINE
  8
0
 62
     0
 10
1.59099
 20
0.0
 30
0.0
 11
2.989467
 21
1.398477
 31
0.0
  0
LINE
  8
0
 62
     0
 10
3.59099
 20
2.0
 30
0.0
 11
4.8
 21
3.20901
 31
0.0
  0
LINE
  8
0
 62
     0
 10
1.767767
 20
0.0
 30
0.0
 11
2.894279
 21
1.126512
 31
0.0
  0
LINE
  8
0
 62
     0
 10
3.767767
 20
2.0
 30
0.0
 11
4.8
 21
3.032233
 31
0.0
  0
LINE
  8
0
 62
     0
 10
1.944544
 20
0.0
 30
0.0
 11
2.799092
 21
0.854548
 31
0.0
  0
LINE
  8
0
 62
     0
 10
3.944544
 20
2.0
 30
0.0
 11
4.8
 21
2.855456
 31
0.0
  0
LINE
  8
0
 62
     0
 10
2.12132
 20
0.0
 30
0.0
 11
2.703904
 21
0.582584
 31
0.0
  0
LINE
  8
0
 62
     0
 10
4.12132
 20
2.0
 30
0.0
 11
4.8
 21
2.67868
 31
0.0
  0
LINE
  8
0
 62
     0
 10
2.298097
 20
0.0
 30
0.0
 11
2.608717
 21
0.31062
 31
0.0
  0
LINE
  8
0
 62
     0
 10
4.298097
 20
2.0
 30
0.0
 11
4.8
 21
2.501903
 31
0.0
  0
LINE
  8
0
 62
     0
 10
2.474874
 20
0.0
 30
0.0
 11
2.51353
 21
0.038656
 31
0.0
  0
LINE
  8
0
 62
     0
 10
4.474874
 20
2.0
 30
0.0
 11
4.8
 21
2.325126
 31
0.0
  0
LINE
  8
0
 62
     0
 10
4.65165
 20
2.0
 30
0.0
 11
4.8
 21
2.14835
 31
0.0
  0
ENDBLK
  8
0
  0
BLOCK
  8
0
  2
*X17
 70
    65
 10
0.0
 20
0.0
 30
0.0
  3
*X
  0
LINE
  8
0
 62
     0
 10
6.884654
 20
1.75813
 30
0.0
 11
8.736506
 21
3.609982
 31
0.0
  0
LINE
  8
0
 62
     0
 10
6.838823
 20
1.889076
 30
0.0
 11
8.690675
 21
3.740928
 31
0.0
  0
LINE
  8
0
 62
     0
 10
6.772971
 20
2.0
 30
0.0
 11
8.644844
 21
3.871874
 31
0.0
  0
LINE
  8
0
 62
     0
 10
6.596194
 20
2.0
 30
0.0
 11
8.599013
 21
4.002819
 31
0.0
  0
LINE
  8
0
 62
     0
 10
6.419417
 20
2.0
 30
0.0
 11
8.553182
 21
4.133765
 31
0.0
  0
LINE
  8
0
 62
     0
 10
6.242641
 20
2.0
 30
0.0
 11
8.507351
 21
4.264711
 31
0.0
  0
LINE
  8
0
 62
     0
 10
6.065864
 20
2.0
 30
0.0
 11
8.46152
 21
4.395656
 31
0.0
  0
LINE
  8
0
 62
     0
 10
5.889087
 20
2.0
 30
0.0
 11
8.415689
 21
4.526602
 31
0.0
  0
LINE
  8
0
 62
     0
 10
5.712311
 20
2.0
 30
0.0
 11
8.369858
 21
4.657548
 31
0.0
  0
LINE
  8
0
 62
     0
 10
5.535534
 20
2.0
 30
0.0
 11
8.324027
 21
4.788493
 31
0.0
  0
LINE
  8
0
 62
     0
 10
5.358757
 20
2.0
 30
0.0
 11
8.158757
 21
4.8
 31
0.0
  0
LINE
  8
0
 62
     0
 10
5.2
 20
2.018019
 30
0.0
 11
7.981981
 21
4.8
 31
0.0
  0
LINE
  8
0
 62
     0
 10
5.2
 20
2.194796
 30
0.0
 11
7.805204
 21
4.8
 31
0.0
  0
LINE
  8
0
 62
     0
 10
5.2
 20
2.371573
 30
0.0
 11
7.628427
 21
4.8
 31
0.0
  0
LINE
  8
0
 62
     0
 10
5.2
 20
2.54835
 30
0.0
 11
7.45165
 21
4.8
 31
0.0
  0
LINE
  8
0
 62
     0
 10
5.2
 20
2.725126
 30
0.0
 11
7.274874
 21
4.8
 31
0.0
  0
LINE
  8
0
 62
     0
 10
5.2
 20
2.901903
 30
0.0
 11
7.098097
 21
4.8
 31
0.0
  0
LINE
  8
0
 62
     0
 10
5.2
 20
3.07868
 30
0.0
 11
6.92132
 21
4.8
 31
0.0
  0
LINE
  8
0
 62
     0
 10
5.2
 20
3.255456
 30
0.0
 11
6.744544
 21
4.8
 31
0.0
  0
LINE
  8
0
 62
     0
 10
5.2
 20
3.432233
 30
0.0
 11
6.567767
 21
4.8
 31
0.0
  0
LINE
  8
0
 62
     0
 10
5.2
 20
3.60901
 30
0.0
 11
6.39099
 21
4.8
 31
0.0
  0
LINE
  8
0
 62
     0
 10
5.2
 20
3.785786
 30
0.0
 11
6.214214
 21
4.8
 31
0.0
  0
LINE
  8
0
 62
     0
 10
5.2
 20
3.962563
 30
0.0
 11
6.037437
 21
4.8
 31
0.0
  0
LINE
  8
0
 62
     0
 10
5.2
 20
4.13934
 30
0.0
 11
5.86066
 21
4.8
 31
0.0
  0
LINE
  8
0
 62
     0
 10
5.2
 20
4.316117
 30
0.0
 11
5.683883
 21
4.8
 31
0.0
  0
LINE
  8
0
 62
     0
 10
5.2
 20
4.492893
 30
0.0
 11
5.507107
 21
4.8
 31
0.0
  0
LINE
  8
0
 62
     0
 10
5.2
 20
4.66967
 30
0.0
 11
5.33033
 21
4.8
 31
0.0
  0
LINE
  8
0
 62
     0
 10
6.930485
 20
1.627185
 30
0.0
 11
8.782337
 21
3.479036
 31
0.0
  0
LINE
  8
0
 62
     0
 10
6.976316
 20
1.496239
 30
0.0
 11
8.828168
 21
3.348091
 31
0.0
  0
LINE
  8
0
 62
     0
 10
7.022147
 20
1.365293
 30
0.0
 11
8.873999
 21
3.217145
 31
0.0
  0
LINE
  8
0
 62
     0
 10
7.067978
 20
1.234347
 30
0.0
 11
8.91983
 21
3.086199
 31
0.0
  0
LINE
  8
0
 62
     0
 10
7.113809
 20
1.103402
 30
0.0
 11
8.965661
 21
2.955254
 31
0.0
  0
LINE
  8
0
 62
     0
 10
7.15964
 20
0.972456
 30
0.0
 11
9.011492
 21
2.824308
 31
0.0
  0
LINE
  8
0
 62
     0
 10
7.205471
 20
0.84151
 30
0.0
 11
9.057323
 21
2.693362
 31
0.0
  0
LINE
  8
0
 62
     0
 10
7.251302
 20
0.710565
 30
0.0
 11
9.103154
 21
2.562416
 31
0.0
  0
LINE
  8
0
 62
     0
 10
7.297133
 20
0.579619
 30
0.0
 11
9.148985
 21
2.431471
 31
0.0
  0
LINE
  8
0
 62
     0
 10
7.342964
 20
0.448673
 30
0.0
 11
9.194816
 21
2.300525
 31
0.0
  0
LINE
  8
0
 62
     0
 10
7.388795
 20
0.317728
 30
0.0
 11
9.240647
 21
2.169579
 31
0.0
  0
LINE
  8
0
 62
     0
 10
7.434626
 20
0.186782
 30
0.0
 11
9.286478
 21
2.038634
 31
0.0
  0
LINE
  8
0
 62
     0
 10
7.480457
 20
0.055836
 30
0.0
 11
9.332309
 21
1.907688
 31
0.0
  0
LINE
  8
0
 62
     0
 10
7.601398
 20
0.0
 30
0.0
 11
9.37814
 21
1.776742
 31
0.0
  0
LINE
  8
0
 62
     0
 10
7.778175
 20
0.0
 30
0.0
 11
9.423971
 21
1.645797
 31
0.0
  0
LINE
  8
0
 62
     0
 10
7.954951
 20
0.0
 30
0.0
 11
9.469802
 21
1.514851
 31
0.0
  0
LINE
  8
0
 62
     0
 10
8.131728
 20
0.0
 30
0.0
 11
9.515633
 21
1.383905
 31
0.0
  0
LINE
  8
0
 62
     0
 10
8.308505
 20
0.0
 30
0.0
 11
9.561464
 21
1.252959
 31
0.0
  0
LINE
  8
0
 62
     0
 10
8.485281
 20
0.0
 30
0.0
 11
9.607295
 21
1.122014
 31
0.0
  0
LINE
  8
0
 62
     0
 10
8.662058
 20
0.0
 30
0.0
 11
9.653126
 21
0.991068
 31
0.0
  0
LINE
  8
0
 62
     0
 10
8.838835
 20
0.0
 30
0.0
 11
9.698957
 21
0.860122
 31
0.0
  0
LINE
  8
0
 62
     0
 10
9.015611
 20
0.0
 30
0.0
 11
9.744788
 21
0.729177
 31
0.0
  0
LINE
  8
0
 62
     0
 10
9.192388
 20
0.0
 30
0.0
 11
9.790619
 21
0.598231
 31
0.0
  0
LINE
  8
0
 62
     0
 10
9.369165
 20
0.0
 30
0.0
 11
9.83645
 21
0.467285
 31
0.0
  0
LINE
  8
0
 62
     0
 10
9.545942
 20
0.0
 30
0.0
 11
9.882281
 21
0.33634
 31
0.0
  0
LINE
  8
0
 62
     0
 10
9.722718
 20
0.0
 30
0.0
 11
9.928112
 21
0.205394
 31
0.0
  0
LINE
  8
0
 62
     0
 10
9.899495
 20
0.0
 30
0.0
 11
9.973943
 21
0.074448
 31
0.0
  0
ENDBLK
  8
0
  0
BLOCK
  8
0
  2
*X18
 70
    65
 10
0.0
 20
0.0
 30
0.0
  3
*X
  0
LINE
  8
0
 62
     0
 10
10.7
 20
6.280583
 30
0.0
 11
13.5
 21
9.080583
 31
0.0
  0
LINE
  8
0
 62
     0
 10
10.7
 20
6.457359
 30
0.0
 11
13.5
 21
9.257359
 31
0.0
  0
LINE
  8
0
 62
     0
 10
10.7
 20
6.634136
 30
0.0
 11
13.5
 21
9.434136
 31
0.0
  0
LINE
  8
0
 62
     0
 10
10.7
 20
6.810913
 30
0.0
 11
13.5
 21
9.610913
 31
0.0
  0
LINE
  8
0
 62
     0
 10
10.7
 20
6.987689
 30
0.0
 11
13.5
 21
9.787689
 31
0.0
  0
LINE
  8
0
 62
     0
 10
10.7
 20
7.164466
 30
0.0
 11
13.5
 21
9.964466
 31
0.0
  0
LINE
  8
0
 62
     0
 10
10.7
 20
7.341243
 30
0.0
 11
13.358757
 21
10.0
 31
0.0
  0
LINE
  8
0
 62
     0
 10
10.7
 20
7.518019
 30
0.0
 11
13.181981
 21
10.0
 31
0.0
  0
LINE
  8
0
 62
     0
 10
10.7
 20
7.694796
 30
0.0
 11
13.005204
 21
10.0
 31
0.0
  0
LINE
  8
0
 62
     0
 10
10.7
 20
7.871573
 30
0.0
 11
12.828427
 21
10.0
 31
0.0
  0
LINE
  8
0
 62
     0
 10
10.7
 20
8.04835
 30
0.0
 11
12.65165
 21
10.0
 31
0.0
  0
LINE
  8
0
 62
     0
 10
10.7
 20
8.225126
 30
0.0
 11
12.474874
 21
10.0
 31
0.0
  0
LINE
  8
0
 62
     0
 10
10.7
 20
8.401903
 30
0.0
 11
12.298097
 21
10.0
 31
0.0
  0
LINE
  8
0
 62
     0
 10
10.7
 20
8.57868
 30
0.0
 11
12.12132
 21
10.0
 31
0.0
  0
LINE
  8
0
 62
     0
 10
10.7
 20
8.755456
 30
0.0
 11
11.944544
 21
10.0
 31
0.0
  0
LINE
  8
0
 62
     0
 10
10.7
 20
8.932233
 30
0.0
 11
11.767767
 21
10.0
 31
0.0
  0
LINE
  8
0
 62
     0
 10
10.7
 20
9.10901
 30
0.0
 11
11.59099
 21
10.0
 31
0.0
  0
LINE
  8
0
 62
     0
 10
10.7
 20
9.285786
 30
0.0
 11
11.414214
 21
10.0
 31
0.0
  0
LINE
  8
0
 62
     0
 10
10.7
 20
9.462563
 30
0.0
 11
11.237437
 21
10.0
 31
0.0
  0
LINE
  8
0
 62
     0
 10
10.7
 20
9.63934
 30
0.0
 11
11.06066
 21
10.0
 31
0.0
  0
LINE
  8
0
 62
     0
 10
10.7
 20
9.816117
 30
0.0
 11
10.883883
 21
10.0
 31
0.0
  0
LINE
  8
0
 62
     0
 10
10.7
 20
9.992893
 30
0.0
 11
10.707107
 21
10.0
 31
0.0
  0
LINE
  8
0
 62
     0
 10
10.7
 20
6.103806
 30
0.0
 11
13.5
 21
8.903806
 31
0.0
  0
LINE
  8
0
 62
     0
 10
10.7
 20
5.927029
 30
0.0
 11
13.5
 21
8.727029
 31
0.0
  0
LINE
  8
0
 62
     0
 10
10.7
 20
5.750253
 30
0.0
 11
13.5
 21
8.550253
 31
0.0
  0
LINE
  8
0
 62
     0
 10
10.7
 20
5.573476
 30
0.0
 11
13.5
 21
8.373476
 31
0.0
  0
LINE
  8
0
 62
     0
 10
10.7
 20
5.396699
 30
0.0
 11
13.5
 21
8.196699
 31
0.0
  0
LINE
  8
0
 62
     0
 10
10.7
 20
5.219922
 30
0.0
 11
13.5
 21
8.019922
 31
0.0
  0
LINE
  8
0
 62
     0
 10
10.856854
 20
5.2
 30
0.0
 11
13.5
 21
7.843146
 31
0.0
  0
LINE
  8
0
 62
     0
 10
11.033631
 20
5.2
 30
0.0
 11
13.5
 21
7.666369
 31
0.0
  0
LINE
  8
0
 62
     0
 10
11.210408
 20
5.2
 30
0.0
 11
13.5
 21
7.489592
 31
0.0
  0
LINE
  8
0
 62
     0
 10
11.387184
 20
5.2
 30
0.0
 11
13.5
 21
7.312816
 31
0.0
  0
LINE
  8
0
 62
     0
 10
11.563961
 20
5.2
 30
0.0
 11
13.5
 21
7.136039
 31
0.0
  0
LINE
  8
0
 62
     0
 10
11.740738
 20
5.2
 30
0.0
 11
13.5
 21
6.959262
 31
0.0
  0
LINE
  8
0
 62
     0
 10
11.917514
 20
5.2
 30
0.0
 11
13.5
 21
6.782486
 31
0.0
  0
LINE
  8
0
 62
     0
 10
12.094291
 20
5.2
 30
0.0
 11
13.5
 21
6.605709
 31
0.0
  0
LINE
  8
0
 62
     0
 10
12.271068
 20
5.2
 30
0.0
 11
13.5
 21
6.428932
 31
0.0
  0
LINE
  8
0
 62
     0
 10
12.447845
 20
5.2
 30
0.0
 11
13.5
 21
6.252155
 31
0.0
  0
LINE
  8
0
 62
     0
 10
12.624621
 20
5.2
 30
0.0
 11
13.5
 21
6.075379
 31
0.0
  0
LINE
  8
0
 62
     0
 10
12.801398
 20
5.2
 30
0.0
 11
13.5
 21
5.898602
 31
0.0
  0
LINE
  8
0
 62
     0
 10
12.978175
 20
5.2
 30
0.0
 11
13.5
 21
5.721825
 31
0.0
  0
LINE
  8
0
 62
     0
 10
13.154951
 20
5.2
 30
0.0
 11
13.5
 21
5.545049
 31
0.0
  0
LINE
  8
0
 62
     0
 10
13.331728
 20
5.2
 30
0.0
 11
13.5
 21
5.368272
 31
0.0
  0
ENDBLK
  8
0
  0
BLOCK
  8
0
  2
*X19
 70
    65
 10
0.0
 20
0.0
 30
0.0
  3
*X
  0
LINE
  8
0
 62
     0
 10
10.7
 20
1.154058
 30
0.0
 11
13.5
 21
3.954058
 31
0.0
  0
LINE
  8
0
 62
     0
 10
10.7
 20
1.330835
 30
0.0
 11
13.5
 21
4.130835
 31
0.0
  0
LINE
  8
0
 62
     0
 10
10.7
 20
1.507612
 30
0.0
 11
13.5
 21
4.307612
 31
0.0
  0
LINE
  8
0
 62
     0
 10
10.7
 20
1.684389
 30
0.0
 11
13.5
 21
4.484389
 31
0.0
  0
LINE
  8
0
 62
     0
 10
10.7
 20
1.861165
 30
0.0
 11
13.5
 21
4.661165
 31
0.0
  0
LINE
  8
0
 62
     0
 10
10.7
 20
2.037942
 30
0.0
 11
13.462058
 21
4.8
 31
0.0
  0
LINE
  8
0
 62
     0
 10
10.7
 20
2.214719
 30
0.0
 11
13.285281
 21
4.8
 31
0.0
  0
LINE
  8
0
 62
     0
 10
10.7
 20
2.391495
 30
0.0
 11
13.108505
 21
4.8
 31
0.0
  0
LINE
  8
0
 62
     0
 10
10.7
 20
2.568272
 30
0.0
 11
12.931728
 21
4.8
 31
0.0
  0
LINE
  8
0
 62
     0
 10
10.7
 20
2.745049
 30
0.0
 11
12.754951
 21
4.8
 31
0.0
  0
LINE
  8
0
 62
     0
 10
10.7
 20
2.921825
 30
0.0
 11
12.578175
 21
4.8
 31
0.0
  0
LINE
  8
0
 62
     0
 10
10.7
 20
3.098602
 30
0.0
 11
12.401398
 21
4.8
 31
0.0
  0
LINE
  8
0
 62
     0
 10
10.7
 20
3.275379
 30
0.0
 11
12.224621
 21
4.8
 31
0.0
  0
LINE
  8
0
 62
     0
 10
10.7
 20
3.452155
 30
0.0
 11
12.047845
 21
4.8
 31
0.0
  0
LINE
  8
0
 62
     0
 10
10.7
 20
3.628932
 30
0.0
 11
11.871068
 21
4.8
 31
0.0
  0
LINE
  8
0
 62
     0
 10
10.7
 20
3.805709
 30
0.0
 11
11.694291
 21
4.8
 31
0.0
  0
LINE
  8
0
 62
     0
 10
10.7
 20
3.982486
 30
0.0
 11
11.517514
 21
4.8
 31
0.0
  0
LINE
  8
0
 62
     0
 10
10.7
 20
4.159262
 30
0.0
 11
11.340738
 21
4.8
 31
0.0
  0
LINE
  8
0
 62
     0
 10
10.7
 20
4.336039
 30
0.0
 11
11.163961
 21
4.8
 31
0.0
  0
LINE
  8
0
 62
     0
 10
10.7
 20
4.512816
 30
0.0
 11
10.987184
 21
4.8
 31
0.0
  0
LINE
  8
0
 62
     0
 10
10.7
 20
4.689592
 30
0.0
 11
10.810408
 21
4.8
 31
0.0
  0
LINE
  8
0
 62
     0
 10
10.7
 20
0.977282
 30
0.0
 11
13.5
 21
3.777282
 31
0.0
  0
LINE
  8
0
 62
     0
 10
10.7
 20
0.800505
 30
0.0
 11
13.5
 21
3.600505
 31
0.0
  0
LINE
  8
0
 62
     0
 10
10.7
 20
0.623728
 30
0.0
 11
13.5
 21
3.423728
 31
0.0
  0
LINE
  8
0
 62
     0
 10
10.7
 20
0.446952
 30
0.0
 11
13.5
 21
3.246952
 31
0.0
  0
LINE
  8
0
 62
     0
 10
10.7
 20
0.270175
 30
0.0
 11
13.5
 21
3.070175
 31
0.0
  0
LINE
  8
0
 62
     0
 10
10.7
 20
0.093398
 30
0.0
 11
13.5
 21
2.893398
 31
0.0
  0
LINE
  8
0
 62
     0
 10
10.783378
 20
0.0
 30
0.0
 11
13.5
 21
2.716622
 31
0.0
  0
LINE
  8
0
 62
     0
 10
10.960155
 20
0.0
 30
0.0
 11
13.5
 21
2.539845
 31
0.0
  0
LINE
  8
0
 62
     0
 10
11.136932
 20
0.0
 30
0.0
 11
13.5
 21
2.363068
 31
0.0
  0
LINE
  8
0
 62
     0
 10
11.313708
 20
0.0
 30
0.0
 11
13.5
 21
2.186292
 31
0.0
  0
LINE
  8
0
 62
     0
 10
11.490485
 20
0.0
 30
0.0
 11
13.5
 21
2.009515
 31
0.0
  0
LINE
  8
0
 62
     0
 10
11.667262
 20
0.0
 30
0.0
 11
13.5
 21
1.832738
 31
0.0
  0
LINE
  8
0
 62
     0
 10
11.844039
 20
0.0
 30
0.0
 11
13.5
 21
1.655961
 31
0.0
  0
LINE
  8
0
 62
     0
 10
12.020815
 20
0.0
 30
0.0
 11
13.5
 21
1.479185
 31
0.0
  0
LINE
  8
0
 62
     0
 10
12.197592
 20
0.0
 30
0.0
 11
13.5
 21
1.302408
 31
0.0
  0
LINE
  8
0
 62
     0
 10
12.374369
 20
0.0
 30
0.0
 11
13.5
 21
1.125631
 31
0.0
  0
LINE
  8
0
 62
     0
 10
12.551145
 20
0.0
 30
0.0
 11
13.5
 21
0.948855
 31
0.0
  0
LINE
  8
0
 62
     0
 10
12.727922
 20
0.0
 30
0.0
 11
13.5
 21
0.772078
 31
0.0
  0
LINE
  8
0
 62
     0
 10
12.904699
 20
0.0
 30
0.0
 11
13.5
 21
0.595301
 31
0.0
  0
LINE
  8
0
 62
     0
 10
13.081475
 20
0.0
 30
0.0
 11
13.5
 21
0.418525
 31
0.0
  0
LINE
  8
0
 62
     0
 10
13.258252
 20
0.0
 30
0.0
 11
13.5
 21
0.241748
 31
0.0
  0
LINE
  8
0
 62
     0
 10
13.435029
 20
0.0
 30
0.0
 11
13.5
 21
0.064971
 31
0.0
  0
ENDBLK
  8
0
  0
BLOCK
  8
0
  2
*X20
 70
    65
 10
0.0
 20
0.0
 30
0.0
  3
*X
  0
LINE
  8
0
 62
     0
 10
13.9
 20
6.298602
 30
0.0
 11
16.582995
 21
8.981597
 31
0.0
  0
LINE
  8
0
 62
     0
 10
13.9
 20
6.475379
 30
0.0
 11
16.510503
 21
9.085882
 31
0.0
  0
LINE
  8
0
 62
     0
 10
13.9
 20
6.652155
 30
0.0
 11
16.432927
 21
9.185083
 31
0.0
  0
LINE
  8
0
 62
     0
 10
13.9
 20
6.828932
 30
0.0
 11
16.350372
 21
9.279304
 31
0.0
  0
LINE
  8
0
 62
     0
 10
13.9
 20
7.005709
 30
0.0
 11
16.262892
 21
9.368601
 31
0.0
  0
LINE
  8
0
 62
     0
 10
13.9
 20
7.182486
 30
0.0
 11
16.170495
 21
9.452981
 31
0.0
  0
LINE
  8
0
 62
     0
 10
13.9
 20
7.359262
 30
0.0
 11
16.073145
 21
9.532407
 31
0.0
  0
LINE
  8
0
 62
     0
 10
13.9
 20
7.536039
 30
0.0
 11
15.970755
 21
9.606794
 31
0.0
  0
LINE
  8
0
 62
     0
 10
13.9
 20
7.712816
 30
0.0
 11
15.863189
 21
9.676004
 31
0.0
  0
LINE
  8
0
 62
     0
 10
13.9
 20
7.889592
 30
0.0
 11
15.75025
 21
9.739843
 31
0.0
  0
LINE
  8
0
 62
     0
 10
13.9
 20
8.066369
 30
0.0
 11
15.631675
 21
9.798044
 31
0.0
  0
LINE
  8
0
 62
     0
 10
13.9
 20
8.243146
 30
0.0
 11
15.50711
 21
9.850256
 31
0.0
  0
LINE
  8
0
 62
     0
 10
13.9
 20
8.419922
 30
0.0
 11
15.376096
 21
9.896018
 31
0.0
  0
LINE
  8
0
 62
     0
 10
13.9
 20
8.596699
 30
0.0
 11
15.238027
 21
9.934726
 31
0.0
  0
LINE
  8
0
 62
     0
 10
13.9
 20
8.773476
 30
0.0
 11
15.092096
 21
9.965572
 31
0.0
  0
LINE
  8
0
 62
     0
 10
13.9
 20
8.950253
 30
0.0
 11
14.937209
 21
9.987461
 31
0.0
  0
LINE
  8
0
 62
     0
 10
13.9
 20
9.127029
 30
0.0
 11
14.771824
 21
9.998853
 31
0.0
  0
LINE
  8
0
 62
     0
 10
13.9
 20
9.303806
 30
0.0
 11
14.596193
 21
9.999999
 31
0.0
  0
LINE
  8
0
 62
     0
 10
13.9
 20
9.480583
 30
0.0
 11
14.419417
 21
9.999999
 31
0.0
  0
LINE
  8
0
 62
     0
 10
13.9
 20
9.657359
 30
0.0
 11
14.24264
 21
10.0
 31
0.0
  0
LINE
  8
0
 62
     0
 10
13.9
 20
9.834136
 30
0.0
 11
14.065864
 21
10.0
 31
0.0
  0
LINE
  8
0
 62
     0
 10
13.9
 20
6.121825
 30
0.0
 11
16.650245
 21
8.872071
 31
0.0
  0
LINE
  8
0
 62
     0
 10
13.9
 20
5.945049
 30
0.0
 11
16.712035
 21
8.757083
 31
0.0
  0
LINE
  8
0
 62
     0
 10
13.9
 20
5.768272
 30
0.0
 11
16.768067
 21
8.636339
 31
0.0
  0
LINE
  8
0
 62
     0
 10
13.9
 20
5.591495
 30
0.0
 11
16.817955
 21
8.509451
 31
0.0
  0
LINE
  8
0
 62
     0
 10
13.9
 20
5.414719
 30
0.0
 11
16.861189
 21
8.375908
 31
0.0
  0
LINE
  8
0
 62
     0
 10
13.9
 20
5.237942
 30
0.0
 11
16.897097
 21
8.235039
 31
0.0
  0
LINE
  8
0
 62
     0
 10
14.038835
 20
5.2
 30
0.0
 11
16.924779
 21
8.085944
 31
0.0
  0
LINE
  8
0
 62
     0
 10
14.215611
 20
5.2
 30
0.0
 11
16.942997
 21
7.927385
 31
0.0
  0
LINE
  8
0
 62
     0
 10
14.392388
 20
5.2
 30
0.0
 11
16.949987
 21
7.757599
 31
0.0
  0
LINE
  8
0
 62
     0
 10
14.569165
 20
5.2
 30
0.0
 11
16.943101
 21
7.573936
 31
0.0
  0
LINE
  8
0
 62
     0
 10
14.745942
 20
5.2
 30
0.0
 11
16.918037
 21
7.372095
 31
0.0
  0
LINE
  8
0
 62
     0
 10
14.922718
 20
5.2
 30
0.0
 11
16.866909
 21
7.144191
 31
0.0
  0
LINE
  8
0
 62
     0
 10
15.099495
 20
5.2
 30
0.0
 11
16.771715
 21
6.87222
 31
0.0
  0
LINE
  8
0
 62
     0
 10
15.276272
 20
5.2
 30
0.0
 11
15.847951
 21
5.77168
 31
0.0
  0
LINE
  8
0
 62
     0
 10
15.96673
 20
5.890458
 30
0.0
 11
16.559542
 21
6.48327
 31
0.0
  0
LINE
  8
0
 62
     0
 10
15.453048
 20
5.2
 30
0.0
 11
15.970661
 21
5.717613
 31
0.0
  0
LINE
  8
0
 62
     0
 10
15.629825
 20
5.2
 30
0.0
 11
16.088934
 21
5.659109
 31
0.0
  0
LINE
  8
0
 62
     0
 10
15.806602
 20
5.2
 30
0.0
 11
16.202964
 21
5.596363
 31
0.0
  0
LINE
  8
0
 62
     0
 10
15.983378
 20
5.2
 30
0.0
 11
16.312909
 21
5.529531
 31
0.0
  0
LINE
  8
0
 62
     0
 10
16.160155
 20
5.2
 30
0.0
 11
16.418895
 21
5.45874
 31
0.0
  0
LINE
  8
0
 62
     0
 10
16.336932
 20
5.2
 30
0.0
 11
16.521021
 21
5.384089
 31
0.0
  0
LINE
  8
0
 62
     0
 10
16.513708
 20
5.2
 30
0.0
 11
16.619363
 21
5.305655
 31
0.0
  0
LINE
  8
0
 62
     0
 10
16.690485
 20
5.2
 30
0.0
 11
16.713975
 21
5.22349
 31
0.0
  0
ENDBLK
  8
0
  0
BLOCK
  8
0
  2
*X21
 70
    65
 10
0.0
 20
0.0
 30
0.0
  3
*X
  0
LINE
  8
0
 62
     0
 10
13.9
 20
0.818525
 30
0.0
 11
17.39645
 21
4.314974
 31
0.0
  0
LINE
  8
0
 62
     0
 10
13.9
 20
0.995301
 30
0.0
 11
17.336354
 21
4.431655
 31
0.0
  0
LINE
  8
0
 62
     0
 10
13.9
 20
1.172078
 30
0.0
 11
17.272078
 21
4.544156
 31
0.0
  0
LINE
  8
0
 62
     0
 10
13.9
 20
1.348855
 30
0.0
 11
17.203766
 21
4.652621
 31
0.0
  0
LINE
  8
0
 62
     0
 10
13.9
 20
1.525631
 30
0.0
 11
17.131535
 21
4.757167
 31
0.0
  0
LINE
  8
0
 62
     0
 10
13.9
 20
1.702408
 30
0.0
 11
16.997592
 21
4.8
 31
0.0
  0
LINE
  8
0
 62
     0
 10
13.9
 20
1.879185
 30
0.0
 11
16.820815
 21
4.8
 31
0.0
  0
LINE
  8
0
 62
     0
 10
13.9
 20
2.055961
 30
0.0
 11
16.644039
 21
4.8
 31
0.0
  0
LINE
  8
0
 62
     0
 10
13.9
 20
2.232738
 30
0.0
 11
16.467262
 21
4.8
 31
0.0
  0
LINE
  8
0
 62
     0
 10
13.9
 20
2.409515
 30
0.0
 11
16.290485
 21
4.8
 31
0.0
  0
LINE
  8
0
 62
     0
 10
13.9
 20
2.586292
 30
0.0
 11
16.113708
 21
4.8
 31
0.0
  0
LINE
  8
0
 62
     0
 10
13.9
 20
2.763068
 30
0.0
 11
15.936932
 21
4.8
 31
0.0
  0
LINE
  8
0
 62
     0
 10
13.9
 20
2.939845
 30
0.0
 11
15.760155
 21
4.8
 31
0.0
  0
LINE
  8
0
 62
     0
 10
13.9
 20
3.116622
 30
0.0
 11
15.583378
 21
4.8
 31
0.0
  0
LINE
  8
0
 62
     0
 10
13.9
 20
3.293398
 30
0.0
 11
15.406602
 21
4.8
 31
0.0
  0
LINE
  8
0
 62
     0
 10
13.9
 20
3.470175
 30
0.0
 11
15.229825
 21
4.8
 31
0.0
  0
LINE
  8
0
 62
     0
 10
13.9
 20
3.646952
 30
0.0
 11
15.053048
 21
4.8
 31
0.0
  0
LINE
  8
0
 62
     0
 10
13.9
 20
3.823728
 30
0.0
 11
14.876272
 21
4.8
 31
0.0
  0
LINE
  8
0
 62
     0
 10
13.9
 20
4.000505
 30
0.0
 11
14.699495
 21
4.8
 31
0.0
  0
LINE
  8
0
 62
     0
 10
13.9
 20
4.177282
 30
0.0
 11
14.522718
 21
4.8
 31
0.0
  0
LINE
  8
0
 62
     0
 10
13.9
 20
4.354058
 30
0.0
 11
14.345942
 21
4.8
 31
0.0
  0
LINE
  8
0
 62
     0
 10
13.9
 20
4.530835
 30
0.0
 11
14.169165
 21
4.8
 31
0.0
  0
LINE
  8
0
 62
     0
 10
13.9
 20
4.707612
 30
0.0
 11
13.992388
 21
4.8
 31
0.0
  0
LINE
  8
0
 62
     0
 10
13.9
 20
0.641748
 30
0.0
 11
17.452185
 21
4.193933
 31
0.0
  0
LINE
  8
0
 62
     0
 10
13.9
 20
0.464971
 30
0.0
 11
17.503339
 21
4.068311
 31
0.0
  0
LINE
  8
0
 62
     0
 10
13.9
 20
0.288194
 30
0.0
 11
17.549642
 21
3.937837
 31
0.0
  0
LINE
  8
0
 62
     0
 10
13.9
 20
0.111418
 30
0.0
 11
17.590762
 21
3.80218
 31
0.0
  0
LINE
  8
0
 62
     0
 10
13.965359
 20
0.0
 30
0.0
 11
17.62629
 21
3.660931
 31
0.0
  0
LINE
  8
0
 62
     0
 10
14.142136
 20
0.000001
 30
0.0
 11
17.655713
 21
3.513577
 31
0.0
  0
LINE
  8
0
 62
     0
 10
14.318913
 20
0.000001
 30
0.0
 11
17.678385
 21
3.359473
 31
0.0
  0
LINE
  8
0
 62
     0
 10
14.49569
 20
0.000001
 30
0.0
 11
17.693473
 21
3.197784
 31
0.0
  0
LINE
  8
0
 62
     0
 10
14.672467
 20
0.000002
 30
0.0
 11
17.699875
 21
3.027409
 31
0.0
  0
LINE
  8
0
 62
     0
 10
14.853154
 20
0.003912
 30
0.0
 11
17.696088
 21
2.846846
 31
0.0
  0
LINE
  8
0
 62
     0
 10
15.046044
 20
0.020025
 30
0.0
 11
17.679975
 21
2.653956
 31
0.0
  0
LINE
  8
0
 62
     0
 10
15.254483
 20
0.051687
 30
0.0
 11
17.648313
 21
2.445517
 31
0.0
  0
LINE
  8
0
 62
     0
 10
15.483762
 20
0.10419
 30
0.0
 11
17.59581
 21
2.216238
 31
0.0
  0
LINE
  8
0
 62
     0
 10
15.743786
 20
0.187437
 30
0.0
 11
17.512563
 21
1.956214
 31
0.0
  0
LINE
  8
0
 62
     0
 10
16.058176
 20
0.32505
 30
0.0
 11
17.37495
 21
1.641824
 31
0.0
  0
LINE
  8
0
 62
     0
 10
16.54193
 20
0.632028
 30
0.0
 11
17.067972
 21
1.15807
 31
0.0
  0
ENDBLK
  8
0
  0
BLOCK
  8
0
  2
MAA
 70
     0
 10
0.0
 20
0.0
 30
0.0
  3
MAA
  0
LINE
  8
0
  6
CONTINUOUS
 10
-0.500718
 20
-2.587966
 30
0.0
 11
0.386169
 21
-2.587966
 31
0.0
  0
LINE
  8
0
  6
CONTINUOUS
 10
-0.831823
 20
-1.976333
 30
0.0
 11
0.752749
 21
-1.976333
 31
0.0
  0
LINE
  8
0
  6
CONTINUOUS
 10
-0.015887
 20
-1.35427
 30
0.0
 11
1.178454
 21
-1.35427
 31
0.0
  0
LINE
  8
0
  6
CONTINUOUS
 10
-1.210228
 20
-1.35427
 30
0.0
 11
-0.015887
 21
-1.35427
 31
0.0
  0
LINE
  8
0
  6
CONTINUOUS
 10
0.0
 20
0.0
 30
0.0
 11
0.0
 21
-1.35427
 31
0.0
  0
ENDBLK
  8
0
  0
ENDSEC
  0
SECTION
  2
ENTITIES
  0
INSERT
  8
0
  2
1
 10
65.405438
 20
98.713066
 30
0.0
  0
INSERT
  8
0
  2
1
 10
72.541652
 20
49.71056
 30
0.0
  0
INSERT
  8
0
  2
1
 10
85.390443
 20
73.497234
 30
0.0
  0
TEXT
  8
0
  6
CONTINUOUS
 62
     7
 10
341.25879
 20
128.499028
 30
0.0
 40
3.75
  1
I
 11
341.25879
 21
127.249028
 31
0.0
 73
     1
  0
LINE
  8
0
  6
CONTINUOUS
 62
     7
 10
353.28715
 20
129.577342
 30
0.0
 11
349.768502
 21
127.792464
 31
0.0
  0
LINE
  8
0
  6
CONTINUOUS
 62
     7
 10
349.768502
 20
131.580373
 30
0.0
 11
353.28715
 21
129.577342
 31
0.0
  0
LINE
  8
0
  6
CONTINUOUS
 62
     7
 10
347.232652
 20
131.580373
 30
0.0
 11
350.7513
 21
129.577342
 31
0.0
  0
LINE
  8
0
  6
CONTINUOUS
 62
     7
 10
350.7513
 20
129.577342
 30
0.0
 11
347.232652
 21
127.792464
 31
0.0
  0
LINE
  8
0
  6
CONTINUOUS
 62
     7
 10
351.949431
 20
144.565656
 30
0.0
 11
348.430782
 21
142.780778
 31
0.0
  0
LINE
  8
0
  6
CONTINUOUS
 62
     7
 10
348.430782
 20
146.568687
 30
0.0
 11
351.949431
 21
144.565656
 31
0.0
  0
TEXT
  8
0
  6
CONTINUOUS
 62
     7
 10
341.25879
 20
143.487342
 30
0.0
 40
3.75
  1
I
 11
341.25879
 21
142.237342
 31
0.0
 73
     1
  0
TEXT
  8
0
  6
CONTINUOUS
 62
     7
 10
341.25879
 20
135.863131
 30
0.0
 40
3.75
  1
I
 11
341.25879
 21
134.613131
 31
0.0
 73
     1
  0
LINE
  8
0
  6
CONTINUOUS
 62
     7
 10
351.949431
 20
137.10181
 30
0.0
 11
348.430782
 21
135.316931
 31
0.0
  0
LINE
  8
0
  6
CONTINUOUS
 62
     7
 10
348.430782
 20
139.10484
 30
0.0
 11
351.949431
 21
137.10181
 31
0.0
  0
TEXT
  8
0
  6
CONTINUOUS
 62
     7
 10
51.369985
 20
67.948736
 30
0.0
 40
3.75
  1
1
 11
51.369985
 21
66.698736
 31
0.0
 73
     1
  0
LINE
  8
0
  6
CONTINUOUS
 62
     7
 10
44.719193
 20
71.938876
 30
0.0
 11
48.237841
 21
69.935846
 31
0.0
  0
LINE
  8
0
  6
CONTINUOUS
 62
     7
 10
44.70713
 20
66.950946
 30
0.0
 11
48.282321
 21
68.733234
 31
0.0
  0
LINE
  8
0
  6
CONTINUOUS
 62
     7
 10
48.237841
 20
69.935846
 30
0.0
 11
44.719193
 21
68.150967
 31
0.0
  0
LINE
  8
0
  6
CONTINUOUS
 62
     7
 10
42.983036
 20
99.502053
 30
0.0
 11
42.983036
 21
73.320531
 31
0.0
  0
CIRCLE
  8
0
  6
CONTINUOUS
 62
     7
 10
52.119634
 20
57.987072
 30
0.0
 40
1.05
  0
LINE
  8
0
  6
CONTINUOUS
 62
     7
 10
24.116547
 20
95.752053
 30
0.0
 11
65.139731
 21
95.752053
 31
0.0
  0
LINE
  8
0
  6
CONTINUOUS
 62
     7
 10
42.983036
 20
94.404922
 30
0.0
 11
41.042932
 21
95.752053
 31
0.0
  0
LINE
  8
0
  6
CONTINUOUS
 62
     7
 10
41.042932
 20
95.752053
 30
0.0
 11
42.983036
 21
97.112207
 31
0.0
  0
LINE
  8
0
  6
CONTINUOUS
 62
     7
 10
42.983036
 20
99.502053
 30
0.0
 11
40.406351
 21
107.024502
 31
0.0
  0
LINE
  8
0
  6
CONTINUOUS
 62
     7
 10
51.07055
 20
57.943243
 30
0.0
 11
47.077067
 21
57.943243
 31
0.0
  0
LINE
  8
0
  6
CONTINUOUS
 62
     7
 10
41.32286
 20
57.989638
 30
0.0
 11
35.28376
 21
57.989638
 31
0.0
  0
LINE
  8
0
  6
CONTINUOUS
 62
     7
 10
47.077067
 20
57.943243
 30
0.0
 11
41.294978
 21
55.71904
 31
0.0
  0
TEXT
  8
0
  6
CONTINUOUS
 62
     7
 10
20.084754
 20
61.957826
 30
0.0
 40
2.25
  1
SEAL. IN
  7
ROMANS
  0
LINE
  8
0
  6
CONTINUOUS
 62
     7
 10
24.116547
 20
170.511561
 30
0.0
 11
24.116547
 21
137.002053
 31
0.0
  0
LINE
  8
0
  6
CONTINUOUS
 62
     7
 10
35.674603
 20
211.61835
 30
0.0
 11
13.174603
 21
211.61835
 31
0.0
  0
LINE
  8
0
 62
     7
 10
32.209686
 20
124.509422
 30
0.0
 11
32.209686
 21
136.79431
 31
0.0
  0
LINE
  8
0
 62
     7
 10
15.48113
 20
124.509422
 30
0.0
 11
32.209686
 21
124.509422
 31
0.0
  0
LINE
  8
0
 62
     7
 10
32.209686
 20
136.79431
 30
0.0
 11
15.48113
 21
136.79431
 31
0.0
  0
LINE
  8
0
 62
     7
 10
15.48113
 20
136.79431
 30
0.0
 11
15.48113
 21
124.509422
 31
0.0
  0
TEXT
  8
0
  6
DASHED
 62
     7
 10
17.969204
 20
126.339559
 30
0.0
 40
2.25
  1
0,1...1s
  7
ROMANS
  0
LINE
  8
0
  6
CONTINUOUS
 62
     7
 10
338.423331
 20
144.574639
 30
0.0
 11
53.529243
 21
144.574639
 31
0.0
  0
LINE
  8
0
  6
CONTINUOUS
 62
     7
 10
338.423331
 20
137.074639
 30
0.0
 11
57.320699
 21
137.074639
 31
0.0
  0
LINE
  8
0
  6
CONTINUOUS
 62
     7
 10
350.8301
 20
121.903791
 30
0.0
 11
347.311451
 21
120.118912
 31
0.0
  0
LINE
  8
0
  6
CONTINUOUS
 62
     7
 10
347.232652
 20
123.906822
 30
0.0
 11
350.7513
 21
121.903791
 31
0.0
  0
LINE
  8
0
  6
CONTINUOUS
 62
     7
 10
349.768502
 20
123.906822
 30
0.0
 11
353.28715
 21
121.903791
 31
0.0
  0
LINE
  8
0
  6
CONTINUOUS
 62
     7
 10
353.36595
 20
121.903791
 30
0.0
 11
349.847302
 21
120.118912
 31
0.0
  0
TEXT
  8
0
  6
CONTINUOUS
 62
     7
 10
341.25879
 20
120.825477
 30
0.0
 40
3.75
  1
I
 11
341.25879
 21
119.575477
 31
0.0
 73
     1
  0
LINE
  8
0
  6
CONTINUOUS
 62
     7
 10
383.20064
 20
123.165808
 30
0.0
 11
383.20064
 21
120.483611
 31
0.0
  0
LINE
  8
0
  6
CONTINUOUS
 62
     7
 10
378.734343
 20
125.368686
 30
0.0
 11
380.085358
 21
123.683062
 31
0.0
  0
LINE
  8
0
  6
CONTINUOUS
 62
     7
 10
375.037233
 20
120.146486
 30
0.0
 11
379.351399
 21
124.389324
 31
0.0
  0
LINE
  8
0
  6
CONTINUOUS
 62
     7
 10
371.525144
 20
121.89789
 30
0.0
 11
383.207452
 21
121.89789
 31
0.0
  0
LINE
  8
0
  6
CONTINUOUS
 62
     7
 10
371.478596
 20
123.165808
 30
0.0
 11
371.478596
 21
120.483611
 31
0.0
  0
LINE
  8
0
  6
CONTINUOUS
 62
     7
 10
29.66398
 20
133.650287
 30
0.0
 11
29.66398
 21
130.968089
 31
0.0
  0
LINE
  8
0
  6
CONTINUOUS
 62
     7
 10
25.197683
 20
135.679613
 30
0.0
 11
26.548698
 21
133.993989
 31
0.0
  0
LINE
  8
0
  6
CONTINUOUS
 62
     7
 10
21.564701
 20
130.630965
 30
0.0
 11
25.878867
 21
134.873803
 31
0.0
  0
LINE
  8
0
  6
CONTINUOUS
 62
     7
 10
17.988485
 20
132.382369
 30
0.0
 11
29.670792
 21
132.382369
 31
0.0
  0
LINE
  8
0
  6
CONTINUOUS
 62
     7
 10
17.941937
 20
133.650287
 30
0.0
 11
17.941937
 21
130.968089
 31
0.0
  0
TEXT
  8
0
  6
CONTINUOUS
 62
     7
 10
20.054136
 20
56.968237
 30
0.0
 40
2.25
  1
SGB4/2
  7
ROMANS
  0
LINE
  8
0
  6
CONTINUOUS
 62
     7
 10
2.579364
 20
253.304785
 30
0.0
 11
2.579364
 21
54.502053
 31
0.0
  0
LINE
  8
0
  6
CONTINUOUS
 62
     7
 10
2.579364
 20
54.502053
 30
0.0
 11
391.269841
 21
54.502053
 31
0.0
  0
LINE
  8
0
  6
CONTINUOUS
 62
     7
 10
391.269841
 20
54.502053
 30
0.0
 11
391.269841
 21
253.304785
 31
0.0
  0
LINE
  8
0
  6
CONTINUOUS
 62
     7
 10
391.269841
 20
253.304785
 30
0.0
 11
2.579364
 21
253.304785
 31
0.0
  0
LINE
  8
0
  6
CONTINUOUS
 62
     7
 10
61.112154
 20
129.574639
 30
0.0
 11
338.423331
 21
129.574639
 31
0.0
  0
LINE
  8
0
  6
CONTINUOUS
 62
     7
 10
64.650847
 20
122.074639
 30
0.0
 11
338.493269
 21
122.074639
 31
0.0
  0
LINE
  8
0
  6
CONTINUOUS
 62
     7
 10
13.174603
 20
256.714579
 30
0.0
 11
13.174603
 21
196.601906
 31
0.0
  0
LINE
  8
0
  6
CONTINUOUS
 62
     7
 10
383.216094
 20
138.428679
 30
0.0
 11
383.216094
 21
135.746482
 31
0.0
  0
LINE
  8
0
  6
CONTINUOUS
 62
     7
 10
378.784925
 20
140.458006
 30
0.0
 11
380.13594
 21
138.772382
 31
0.0
  0
LINE
  8
0
  6
CONTINUOUS
 62
     7
 10
375.116814
 20
135.409358
 30
0.0
 11
379.43098
 21
139.652195
 31
0.0
  0
LINE
  8
0
  6
CONTINUOUS
 62
     7
 10
371.540598
 20
137.160762
 30
0.0
 11
383.222905
 21
137.160762
 31
0.0
  0
LINE
  8
0
  6
CONTINUOUS
 62
     7
 10
371.49405
 20
138.428679
 30
0.0
 11
371.49405
 21
135.746482
 31
0.0
  0
LINE
  8
0
  6
CONTINUOUS
 62
     7
 10
387.975008
 20
164.006162
 30
0.0
 11
387.975008
 21
119.574639
 31
0.0
  0
LINE
  8
0
  6
CONTINUOUS
 62
     7
 10
387.975008
 20
119.574639
 30
0.0
 11
338.423331
 21
119.574639
 31
0.0
  0
LINE
  8
0
  6
CONTINUOUS
 62
     7
 10
338.423331
 20
119.574639
 30
0.0
 11
338.423331
 21
164.006162
 31
0.0
  0
LINE
  8
0
  6
HIDDEN
 62
     7
 10
338.423331
 20
142.074639
 30
0.0
 11
387.975008
 21
142.074639
 31
0.0
  0
LINE
  8
0
  6
HIDDEN
 62
     7
 10
338.383619
 20
134.574639
 30
0.0
 11
387.975008
 21
134.574639
 31
0.0
  0
LINE
  8
0
  6
HIDDEN
 62
     7
 10
338.383619
 20
127.074639
 30
0.0
 11
387.889964
 21
127.074639
 31
0.0
  0
TEXT
  8
0
  6
HIDDEN
 62
     7
 10
338.994341
 20
140.128271
 30
0.0
 40
1.5
  1
EN
  0
TEXT
  8
0
  6
HIDDEN
 62
     7
 10
338.994341
 20
125.125017
 30
0.0
 40
1.5
  1
EN
  0
CIRCLE
  8
0
  6
CONTINUOUS
 62
     7
 10
337.625312
 20
139.574639
 30
0.0
 40
0.798019
  0
CIRCLE
  8
0
  6
CONTINUOUS
 62
     7
 10
337.704111
 20
124.574639
 30
0.0
 40
0.798019
  0
LINE
  8
0
  6
CONTINUOUS
 62
     7
 10
139.943295
 20
209.327515
 30
0.0
 11
332.420309
 21
209.327515
 31
0.0
  0
LINE
  8
0
  6
CONTINUOUS
 62
     7
 10
43.174603
 20
228.910441
 30
0.0
 11
34.558717
 21
233.732496
 31
0.0
  0
LINE
  8
0
  6
CONTINUOUS
 62
     7
 10
134.498883
 20
204.327515
 30
0.0
 11
329.920309
 21
204.327515
 31
0.0
  0
LINE
  8
0
  6
CONTINUOUS
 62
     7
 10
129.05447
 20
199.327515
 30
0.0
 11
327.420309
 21
199.327515
 31
0.0
  0
LINE
  8
0
  6
CONTINUOUS
 62
     7
 10
35.674603
 20
226.61835
 30
0.0
 11
13.174603
 21
226.61835
 31
0.0
  0
LINE
  8
0
  6
CONTINUOUS
 62
     7
 10
43.174603
 20
208.864712
 30
0.0
 11
50.674603
 21
208.864712
 31
0.0
  0
LINE
  8
0
  6
CONTINUOUS
 62
     7
 10
35.674603
 20
216.61835
 30
0.0
 11
13.174603
 21
216.61835
 31
0.0
  0
LINE
  8
0
  6
CONTINUOUS
 62
     7
 10
35.674603
 20
221.61835
 30
0.0
 11
13.174603
 21
221.61835
 31
0.0
  0
LINE
  8
0
  6
CONTINUOUS
 62
     7
 10
35.674603
 20
231.61835
 30
0.0
 11
13.174603
 21
231.61835
 31
0.0
  0
LINE
  8
0
  6
CONTINUOUS
 62
     7
 10
13.174603
 20
206.61835
 30
0.0
 11
35.674603
 21
206.61835
 31
0.0
  0
LINE
  8
0
  6
CONTINUOUS
 62
     7
 10
332.420309
 20
154.13979
 30
0.0
 11
332.420309
 21
209.340934
 31
0.0
  0
LINE
  8
0
  6
CONTINUOUS
 62
     7
 10
329.920309
 20
204.278553
 30
0.0
 11
329.920309
 21
139.498646
 31
0.0
  0
LINE
  8
0
  6
CONTINUOUS
 62
     7
 10
327.420309
 20
199.327515
 30
0.0
 11
327.420309
 21
124.528487
 31
0.0
  0
LINE
  8
0
  6
CONTINUOUS
 62
     7
 10
327.420309
 20
124.574639
 30
0.0
 11
336.776689
 21
124.574639
 31
0.0
  0
LINE
  8
0
  6
CONTINUOUS
 62
     7
 10
329.920309
 20
139.574639
 30
0.0
 11
336.776689
 21
139.574639
 31
0.0
  0
TEXT
  8
0
  6
CONTINUOUS
 62
     7
 10
91.161535
 20
38.326488
 30
0.0
 40
2.0
  1
SS3
 50
90.0
  7
ROMANS
  0
TEXT
  8
0
  6
CONTINUOUS
 62
     7
 10
137.573577
 20
38.326488
 30
0.0
 40
2.0
  1
SS2
 50
90.0
  7
ROMANS
  0
TEXT
  8
0
  6
CONTINUOUS
 62
     7
 10
184.417251
 20
38.326488
 30
0.0
 40
2.0
  1
SS1
 50
90.0
  7
ROMANS
  0
TEXT
  8
0
  6
CONTINUOUS
 62
     7
 10
280.804934
 20
38.326488
 30
0.0
 40
2.0
  1
AR1
 50
90.0
  7
ROMANS
  0
TEXT
  8
0
  6
CONTINUOUS
 62
     7
 10
306.129094
 20
37.176591
 30
0.0
 40
2.0
  1
AR3
 50
90.0
  7
ROMANS
  0
TEXT
  8
0
  6
CONTINUOUS
 62
     7
 10
213.306607
 20
28.096437
 30
0.0
 40
2.0
  1
96-09-05  Marko Rõnnõli
  7
ROMANS
  0
TEXT
  8
0
  6
CONTINUOUS
 62
     7
 10
317.5
 20
27.5
 30
0.0
 40
2.0
  1
CIRCUIT DIAGRAM;PROGRAMMING OF U2/
  7
ROMANS
  0
TEXT
  8
0
  6
CONTINUOUS
 62
     7
 10
317.5
 20
24.166667
 30
0.0
 40
2.0
  1
KRETSSCHEMA;PROGRAMMERING AV U2
  7
ROMANS
  0
TEXT
  8
0
  6
CONTINUOUS
 62
     7
 10
317.5
 20
20.833333
 30
0.0
 40
2.0
  1
SPAC 539 C1 / E296
  7
ROMANS
  0
TEXT
  8
0
  6
CONTINUOUS
 62
     7
 10
367.5
 20
12.5
 30
0.0
 40
2.0
  1
4/4
  7
ROMANS
  0
TEXT
  8
0
  6
CONTINUOUS
 62
     7
 10
322.5
 20
2.5
 30
0.0
 40
2.5
  1
1MRS10238-AB
  7
ROMANS
  0
TEXT
  8
0
  6
CONTINUOUS
 62
     7
 10
15.456349
 20
255.413513
 30
0.0
 40
1.5
  1
BS1
  7
ROMANS
  0
TEXT
  8
0
  6
CONTINUOUS
 62
     7
 10
379.742064
 20
248.284714
 30
0.0
 40
2.0
  1
U2
  7
ROMANS
  0
TEXT
  8
0
  6
CONTINUOUS
 62
     7
 10
15.674603
 20
228.328692
 30
0.0
 40
2.0
  1
SGB1/1
  7
ROMANS
  0
TEXT
  8
0
  6
CONTINUOUS
 62
     7
 10
15.674603
 20
223.311912
 30
0.0
 40
2.0
  1
SGB1/2
  7
ROMANS
  0
TEXT
  8
0
  6
CONTINUOUS
 62
     7
 10
15.674603
 20
218.286455
 30
0.0
 40
2.0
  1
SGB1/3
  7
ROMANS
  0
TEXT
  8
0
  6
CONTINUOUS
 62
     7
 10
15.674603
 20
213.365128
 30
0.0
 40
2.0
  1
SGB1/4
  7
ROMANS
  0
TEXT
  8
0
  6
CONTINUOUS
 62
     7
 10
15.674603
 20
208.148764
 30
0.0
 40
2.0
  1
SGB1/5
  7
ROMANS
  0
TEXT
  8
0
  6
CONTINUOUS
 62
     7
 10
15.674603
 20
203.125377
 30
0.0
 40
2.0
  1
SGB1/6
  7
ROMANS
  0
TEXT
  8
0
  6
CONTINUOUS
 62
     7
 10
53.174603
 20
207.87547
 30
0.0
 40
2.0
  1
Trip ind. reset
  7
ROMANS
  0
TEXT
  8
BASE
  6
CONTINUOUS
 10
52.023809
 20
217.267117
 30
0.0
 40
2.0
  1

  7
ROMANS
  0
TEXT
  8
0
  6
CONTINUOUS
 62
     7
 10
52.077387
 20
38.326488
 30
0.0
 40
2.0
  1
TS 2
 50
90.0
  7
ROMANS
  0
TEXT
  8
0
  6
CONTINUOUS
 62
     7
 10
380.0
 20
2.5
 30
0.0
 40
2.5
  1
A
  7
ROMANS
  0
TEXT
  8
0
  6
CONTINUOUS
 62
     7
 10
213.306607
 20
19.772463
 30
0.0
 40
2.0
  1
Kaj Nymark
  7
ROMANS
  0
TEXT
  8
0
  6
CONTINUOUS
 62
     7
 10
213.306607
 20
11.179973
 30
0.0
 40
2.0
  1
Timo Kasi
  7
ROMANS
  0
TEXT
  8
0
  6
DASHED
 62
     7
 10
292.559556
 20
12.154511
 30
0.0
 40
3.0
  1
A3
  7
GREEKS
  0
TEXT
  8
0
  6
DASHED
 62
     7
 10
352.160939
 20
16.033682
 30
0.0
 40
1.4
  1
LEHTI SHEET
  7
GREEKS
  0
LINE
  8
0
 62
     7
 10
0.579461
 20
263.079152
 30
0.0
 11
392.579461
 21
263.079152
 31
0.0
  0
LINE
  8
0
 62
     7
 10
18.579461
 20
0.579152
 30
0.0
 11
0.579461
 21
0.579152
 31
0.0
  0
LINE
  8
0
 62
     7
 10
209.579461
 20
0.579152
 30
0.0
 11
392.579461
 21
0.579152
 31
0.0
  0
LINE
  8
0
 62
     7
 10
209.579461
 20
0.579152
 30
0.0
 11
209.579461
 21
35.579152
 31
0.0
  0
LINE
  8
0
 62
     7
 10
392.579461
 20
0.579152
 30
0.0
 11
392.579461
 21
35.579152
 31
0.0
  0
LINE
  8
0
 62
     7
 10
209.579461
 20
18.579152
 30
0.0
 11
392.579461
 21
18.579152
 31
0.0
  0
LINE
  8
0
 62
     7
 10
209.579461
 20
10.079152
 30
0.0
 11
392.579461
 21
10.079152
 31
0.0
  0
LINE
  8
0
 62
     7
 10
209.579461
 20
27.079152
 30
0.0
 11
307.579461
 21
27.079152
 31
0.0
  0
LINE
  8
0
 62
     7
 10
209.579461
 20
35.579152
 30
0.0
 11
392.579461
 21
35.579152
 31
0.0
  0
TEXT
  8
0
 62
     7
 10
210.579461
 20
24.312485
 30
0.0
 40
1.4
  1
TARKASTI  CHECKED
  7
ROMANS
  0
TEXT
  8
0
 62
     7
 10
210.322296
 20
16.045818
 30
0.0
 40
1.4
  1
HYVÄKSYI  APPROVED
  7
ROMANS
  0
LINE
  8
0
 62
     7
 10
307.579461
 20
0.579152
 30
0.0
 11
307.579461
 21
35.579152
 31
0.0
  0
TEXT
  8
0
 62
     7
 10
259.579461
 20
33.079152
 30
0.0
 40
1.4
  1
LIITTYY  CONCERNING
  7
ROMANS
  0
TEXT
  8
0
 62
     7
 10
259.579461
 20
24.079152
 30
0.0
 40
1.4
  1
TOLERANSSIT  TOLERANCES
  7
ROMANS
  0
TEXT
  8
0
 62
     7
 10
259.579461
 20
16.079152
 30
0.0
 40
1.4
  1
SUHDE  SCALE
  7
ROMANS
  0
TEXT
  8
0
 62
     7
 10
309.579461
 20
33.079152
 30
0.0
 40
1.4
  1
NIMITYS  NAME
  7
ROMANS
  0
TEXT
  8
0
 62
     7
 10
309.579461
 20
16.079152
 30
0.0
 40
1.4
  1
KOODI  CODE
  7
ROMANS
  0
TEXT
  8
0
 62
     7
 10
309.579461
 20
7.579152
 30
0.0
 40
1.4
  1
PIIRUSTUS NO  DRAWING NR
  7
ROMANS
  0
LINE
  8
0
 62
     7
 10
350.079461
 20
10.079152
 30
0.0
 11
350.079461
 21
18.579152
 31
0.0
  0
TEXT
  8
0
 62
     7
 10
371.579461
 20
7.579152
 30
0.0
 40
1.4
  1
PAINOS  REVISION
  7
ROMANS
  0
LINE
  8
0
 62
     7
 10
370.079461
 20
10.079152
 30
0.0
 11
370.079461
 21
0.579152
 31
0.0
  0
LINE
  8
0
 62
     7
 10
210.529461
 20
2.079152
 30
0.0
 11
212.279461
 21
2.079152
 31
0.0
  0
LINE
  8
0
 62
     7
 10
215.779461
 20
2.079152
 30
0.0
 11
217.529461
 21
2.079152
 31
0.0
  0
LINE
  8
0
 62
     7
 10
212.979461
 20
9.079152
 30
0.0
 11
211.801933
 21
5.714786
 31
0.0
  0
LINE
  8
0
 62
     7
 10
212.768248
 20
3.479152
 30
0.0
 11
213.889461
 21
3.479152
 31
0.0
  0
LINE
  8
0
 62
     7
 10
212.768251
 20
3.475694
 30
0.0
 11
212.279461
 21
2.079152
 31
0.0
  0
LINE
  8
0
 62
     7
 10
215.079461
 20
9.079152
 30
0.0
 11
216.255814
 21
5.718143
 31
0.0
  0
LINE
  8
0
 62
     7
 10
215.290559
 20
3.476015
 30
0.0
 11
215.779461
 21
2.079152
 31
0.0
  0
LINE
  8
0
 62
     7
 10
215.079461
 20
9.079152
 30
0.0
 11
214.169461
 21
9.079152
 31
0.0
  0
LINE
  8
0
 62
     7
 10
213.889461
 20
9.079152
 30
0.0
 11
213.889461
 21
5.719152
 31
0.0
  0
LINE
  8
0
 62
     7
 10
214.169461
 20
9.079152
 30
0.0
 11
214.169461
 21
5.719152
 31
0.0
  0
LINE
  8
0
 62
     7
 10
214.169461
 20
3.479152
 30
0.0
 11
215.289354
 21
3.479152
 31
0.0
  0
LINE
  8
0
 62
     7
 10
213.889461
 20
9.079152
 30
0.0
 11
212.979461
 21
9.079152
 31
0.0
  0
LINE
  8
0
 62
     7
 10
211.801402
 20
5.719152
 30
0.0
 11
213.889461
 21
5.719152
 31
0.0
  0
LINE
  8
0
 62
     7
 10
211.702443
 20
5.439152
 30
0.0
 11
213.889461
 21
5.439152
 31
0.0
  0
LINE
  8
0
 62
     7
 10
216.353953
 20
5.437746
 30
0.0
 11
217.529461
 21
2.079152
 31
0.0
  0
LINE
  8
0
 62
     7
 10
214.169461
 20
5.719152
 30
0.0
 11
216.254575
 21
5.719152
 31
0.0
  0
LINE
  8
0
 62
     7
 10
214.169461
 20
5.439152
 30
0.0
 11
216.352717
 21
5.439152
 31
0.0
  0
LINE
  8
0
 62
     7
 10
214.169461
 20
5.439152
 30
0.0
 11
214.169461
 21
3.479152
 31
0.0
  0
LINE
  8
0
 62
     7
 10
213.889461
 20
5.439152
 30
0.0
 11
213.889461
 21
3.479152
 31
0.0
  0
LINE
  8
0
 62
     7
 10
211.69935
 20
5.421691
 30
0.0
 11
210.529461
 21
2.079152
 31
0.0
  0
LINE
  8
0
 62
     7
 10
218.019461
 20
2.079152
 30
0.0
 11
218.019461
 21
5.439152
 31
0.0
  0
LINE
  8
0
 62
     7
 10
218.019461
 20
9.079152
 30
0.0
 11
219.979461
 21
9.079152
 31
0.0
  0
LINE
  8
0
 62
     7
 10
219.979461
 20
9.079152
 30
0.0
 11
219.979461
 21
5.719152
 31
0.0
  0
LINE
  8
0
 62
     7
 10
219.979461
 20
5.719152
 30
0.0
 11
218.019461
 21
5.719152
 31
0.0
  0
LINE
  8
0
 62
     7
 10
218.019461
 20
5.439152
 30
0.0
 11
219.979461
 21
5.439152
 31
0.0
  0
LINE
  8
0
 62
     7
 10
219.979461
 20
5.439152
 30
0.0
 11
219.979461
 21
2.079152
 31
0.0
  0
LINE
  8
0
 62
     7
 10
219.979461
 20
2.079152
 30
0.0
 11
218.019461
 21
2.079152
 31
0.0
  0
LINE
  8
0
 62
     7
 10
218.019461
 20
5.719152
 30
0.0
 11
218.019461
 21
9.079152
 31
0.0
  0
ARC
  8
0
 62
     7
 10
220.819461
 20
7.504152
 30
0.0
 40
1.575
 50
298.455859
 51
90.052437
  0
LINE
  8
0
 62
     7
 10
220.259461
 20
9.079152
 30
0.0
 11
220.818019
 21
9.079151
 31
0.0
  0
LINE
  8
0
 62
     7
 10
220.259461
 20
9.079152
 30
0.0
 11
220.259461
 21
5.719152
 31
0.0
  0
LINE
  8
0
 62
     7
 10
220.259461
 20
5.719152
 30
0.0
 11
222.243904
 21
5.719152
 31
0.0
  0
LINE
  8
0
 62
     7
 10
222.499461
 20
5.439152
 30
0.0
 11
220.259461
 21
5.439152
 31
0.0
  0
LINE
  8
0
 62
     7
 10
220.259461
 20
5.439152
 30
0.0
 11
220.259461
 21
2.079152
 31
0.0
  0
ARC
  8
0
 62
     7
 10
220.819461
 20
4.179152
 30
0.0
 40
2.1
 50
269.937724
 51
37.056553
  0
LINE
  8
0
 62
     7
 10
220.259461
 20
2.079152
 30
0.0
 11
220.817178
 21
2.079153
 31
0.0
  0
ARC
  8
0
 62
     7
 10
220.819461
 20
4.179152
 30
0.0
 40
2.1
 50
47.28622
 51
68.787999
  0
ARC
  8
0
 62
     7
 10
226.279461
 20
4.179152
 30
0.0
 40
2.1
 50
47.28622
 51
68.787999
  0
LINE
  8
0
 62
     7
 10
225.719461
 20
2.079152
 30
0.0
 11
226.277178
 21
2.079153
 31
0.0
  0
ARC
  8
0
 62
     7
 10
226.279461
 20
4.179152
 30
0.0
 40
2.1
 50
269.937724
 51
37.056553
  0
LINE
  8
0
 62
     7
 10
225.719461
 20
5.439152
 30
0.0
 11
225.719461
 21
2.079152
 31
0.0
  0
LINE
  8
0
 62
     7
 10
227.959461
 20
5.439152
 30
0.0
 11
225.719461
 21
5.439152
 31
0.0
  0
LINE
  8
0
 62
     7
 10
225.719461
 20
5.719152
 30
0.0
 11
227.703904
 21
5.719152
 31
0.0
  0
LINE
  8
0
 62
     7
 10
225.719461
 20
9.079152
 30
0.0
 11
225.719461
 21
5.719152
 31
0.0
  0
LINE
  8
0
 62
     7
 10
225.719461
 20
9.079152
 30
0.0
 11
226.278019
 21
9.079151
 31
0.0
  0
ARC
  8
0
 62
     7
 10
226.279461
 20
7.504152
 30
0.0
 40
1.575
 50
298.455859
 51
90.052437
  0
LINE
  8
0
 62
     7
 10
223.479461
 20
5.719152
 30
0.0
 11
223.479461
 21
9.079152
 31
0.0
  0
LINE
  8
0
 62
     7
 10
225.439461
 20
2.079152
 30
0.0
 11
223.479461
 21
2.079152
 31
0.0
  0
LINE
  8
0
 62
     7
 10
225.439461
 20
5.439152
 30
0.0
 11
225.439461
 21
2.079152
 31
0.0
  0
LINE
  8
0
 62
     7
 10
223.479461
 20
5.439152
 30
0.0
 11
225.439461
 21
5.439152
 31
0.0
  0
LINE
  8
0
 62
     7
 10
225.439461
 20
5.719152
 30
0.0
 11
223.479461
 21
5.719152
 31
0.0
  0
LINE
  8
0
 62
     7
 10
225.439461
 20
9.079152
 30
0.0
 11
225.439461
 21
5.719152
 31
0.0
  0
LINE
  8
0
 62
     7
 10
223.479461
 20
9.079152
 30
0.0
 11
225.439461
 21
9.079152
 31
0.0
  0
LINE
  8
0
 62
     7
 10
223.479461
 20
2.079152
 30
0.0
 11
223.479461
 21
5.439152
 31
0.0
  0
TEXT
  8
0
 62
     7
 10
230.079461
 20
2.079152
 30
0.0
 40
3.0
  1
ABB Transmit Oy
 41
0.8
  7
ROMANS
  0
LINE
  8
0
 62
     7
 10
282.579461
 20
10.079152
 30
0.0
 11
282.579461
 21
18.579152
 31
0.0
  0
TEXT
  8
0
 62
     7
 10
28.079461
 20
5.079152
 30
0.0
 40
1.4
  1
MUUTOS
  7
ROMANS
  0
TEXT
  8
0
 62
     7
 10
28.079461
 20
2.812485
 30
0.0
 40
1.4
  1
REVISION
  7
ROMANS
  0
LINE
  8
0
 62
     7
 10
47.079461
 20
9.579152
 30
0.0
 11
209.579461
 21
9.579152
 31
0.0
  0
LINE
  8
0
 62
     7
 10
47.079461
 20
0.579152
 30
0.0
 11
47.079461
 21
9.579152
 31
0.0
  0
LINE
  8
0
 62
     7
 10
41.079461
 20
5.079152
 30
0.0
 11
209.579461
 21
5.079152
 31
0.0
  0
LINE
  8
0
 62
     7
 10
257.579461
 20
10.079152
 30
0.0
 11
257.579461
 21
35.579152
 31
0.0
  0
LINE
  8
0
 62
     7
 10
271.579461
 20
10.079152
 30
0.0
 11
271.579461
 21
0.579152
 31
0.0
  0
TEXT
  8
0
 62
     7
 10
210.579461
 20
32.579152
 30
0.0
 40
1.4
  1
TEKI  PREPARED
  7
ROMANS
  0
TEXT
  8
0
 62
     7
 10
273.579461
 20
7.579152
 30
0.0
 40
1.4
  1
VAST.OSASTO RESP.DEPT.
  7
ROMANS
  0
TEXT
  8
0
 62
     7
 10
42.579461
 20
1.536444
 30
0.0
 40
2.5
  1
B
  7
ROMANS
  0
TEXT
  8
0
 62
     7
 10
42.579461
 20
5.928661
 30
0.0
 40
2.5
  1
C
  7
ROMANS
  0
LINE
  8
0
 62
     7
 10
0.579461
 20
0.579152
 30
0.0
 11
392.579461
 21
0.579152
 31
0.0
  0
LINE
  8
0
 62
     7
 10
392.579461
 20
263.079152
 30
0.0
 11
392.579461
 21
0.579152
 31
0.0
  0
LINE
  8
0
 62
     7
 10
0.579461
 20
0.579152
 30
0.0
 11
0.579461
 21
263.079152
 31
0.0
  0
TEXT
  8
0
  6
CONTINUOUS
 62
     7
 10
281.922586
 20
2.5
 30
0.0
 40
2.5
  1
RSA
  7
ROMANS
  0
LINE
  8
0
  6
CONTINUOUS
 62
     7
 10
344.720793
 20
135.697544
 30
0.0
 11
345.60768
 21
135.697544
 31
0.0
  0
LINE
  8
0
  6
CONTINUOUS
 62
     7
 10
344.389689
 20
136.309177
 30
0.0
 11
345.97426
 21
136.309177
 31
0.0
  0
LINE
  8
0
  6
CONTINUOUS
 62
     7
 10
345.205625
 20
136.931239
 30
0.0
 11
346.399966
 21
136.931239
 31
0.0
  0
LINE
  8
0
  6
CONTINUOUS
 62
     7
 10
344.011284
 20
136.931239
 30
0.0
 11
345.205625
 21
136.931239
 31
0.0
  0
LINE
  8
0
  6
CONTINUOUS
 62
     7
 10
345.221511
 20
138.28551
 30
0.0
 11
345.221511
 21
136.931239
 31
0.0
  0
LINE
  8
0
  6
CONTINUOUS
 62
     7
 10
344.553055
 20
120.754786
 30
0.0
 11
345.439942
 21
120.754786
 31
0.0
  0
LINE
  8
0
  6
CONTINUOUS
 62
     7
 10
344.22195
 20
121.366419
 30
0.0
 11
345.806522
 21
121.366419
 31
0.0
  0
LINE
  8
0
  6
CONTINUOUS
 62
     7
 10
345.037886
 20
121.988481
 30
0.0
 11
346.232227
 21
121.988481
 31
0.0
  0
LINE
  8
0
  6
CONTINUOUS
 62
     7
 10
343.843545
 20
121.988481
 30
0.0
 11
345.037886
 21
121.988481
 31
0.0
  0
LINE
  8
0
  6
CONTINUOUS
 62
     7
 10
345.053773
 20
123.342752
 30
0.0
 11
345.053773
 21
121.988481
 31
0.0
  0
LINE
  8
0
  6
CONTINUOUS
 62
     7
 10
344.720793
 20
128.312941
 30
0.0
 11
345.60768
 21
128.312941
 31
0.0
  0
LINE
  8
0
  6
CONTINUOUS
 62
     7
 10
344.389689
 20
128.924574
 30
0.0
 11
345.97426
 21
128.924574
 31
0.0
  0
LINE
  8
0
  6
CONTINUOUS
 62
     7
 10
345.205625
 20
129.546636
 30
0.0
 11
346.399966
 21
129.546636
 31
0.0
  0
LINE
  8
0
  6
CONTINUOUS
 62
     7
 10
344.011284
 20
129.546636
 30
0.0
 11
345.205625
 21
129.546636
 31
0.0
  0
LINE
  8
0
  6
CONTINUOUS
 62
     7
 10
345.221511
 20
130.900906
 30
0.0
 11
345.221511
 21
129.546636
 31
0.0
  0
LINE
  8
0
  6
CONTINUOUS
 62
     7
 10
344.553055
 20
142.908596
 30
0.0
 11
345.439942
 21
142.908596
 31
0.0
  0
LINE
  8
0
  6
CONTINUOUS
 62
     7
 10
344.22195
 20
143.520229
 30
0.0
 11
345.806522
 21
143.520229
 31
0.0
  0
LINE
  8
0
  6
CONTINUOUS
 62
     7
 10
345.037886
 20
144.142292
 30
0.0
 11
346.232227
 21
144.142292
 31
0.0
  0
LINE
  8
0
  6
CONTINUOUS
 62
     7
 10
343.843545
 20
144.142292
 30
0.0
 11
345.037886
 21
144.142292
 31
0.0
  0
LINE
  8
0
  6
CONTINUOUS
 62
     7
 10
345.053773
 20
145.496562
 30
0.0
 11
345.053773
 21
144.142292
 31
0.0
  0
TEXT
  8
0
  6
CONTINUOUS
 62
     7
 10
368.796527
 20
243.727626
 30
0.0
 40
2.0
  1
SPCS 2D26
  7
ROMANS
  0
LINE
  8
0
  6
HIDDEN
 62
     7
 10
338.383619
 20
156.780976
 30
0.0
 11
387.975008
 21
156.780976
 31
0.0
  0
LINE
  8
0
  6
HIDDEN
 62
     7
 10
338.383619
 20
149.0599
 30
0.0
 11
387.975008
 21
149.0599
 31
0.0
  0
LINE
  8
0
  6
CONTINUOUS
 62
     7
 10
170.587048
 20
256.714579
 30
0.0
 11
170.513651
 21
221.739709
 31
0.0
  0
TEXT
  8
0
  6
CONTINUOUS
 62
     7
 10
173.126364
 20
255.413513
 30
0.0
 40
1.5
  1
BS2
  7
ROMANS
  0
LINE
  8
0
  6
CONTINUOUS
 62
     7
 10
193.013651
 20
231.739709
 30
0.0
 11
170.513651
 21
231.739709
 31
0.0
  0
LINE
  8
0
  6
CONTINUOUS
 62
     7
 10
193.013651
 20
226.739709
 30
0.0
 11
170.513651
 21
226.739709
 31
0.0
  0
LINE
  8
0
  6
CONTINUOUS
 62
     7
 10
193.013651
 20
221.739709
 30
0.0
 11
170.513651
 21
221.739709
 31
0.0
  0
LINE
  8
0
  6
CONTINUOUS
 62
     7
 10
200.513651
 20
218.872231
 30
0.0
 11
191.897765
 21
223.694286
 31
0.0
  0
LINE
  8
0
  6
CONTINUOUS
 62
     7
 10
200.513651
 20
218.9009
 30
0.0
 11
222.308396
 21
218.9009
 31
0.0
  0
LINE
  8
0
  6
CONTINUOUS
 62
     7
 10
222.308396
 20
218.9009
 30
0.0
 11
222.308396
 21
199.379378
 31
0.0
  0
LINE
  8
0
  6
CONTINUOUS
 62
     7
 10
200.513651
 20
223.9009
 30
0.0
 11
227.752808
 21
223.9009
 31
0.0
  0
LINE
  8
0
  6
CONTINUOUS
 62
     7
 10
227.752808
 20
223.9009
 30
0.0
 11
227.752808
 21
204.30751
 31
0.0
  0
LINE
  8
0
  6
CONTINUOUS
 62
     7
 10
200.513651
 20
228.9009
 30
0.0
 11
233.19722
 21
228.9009
 31
0.0
  0
LINE
  8
0
  6
CONTINUOUS
 62
     7
 10
233.19722
 20
228.9009
 30
0.0
 11
233.19722
 21
209.235641
 31
0.0
  0
TEXT
  8
0
  6
CONTINUOUS
 62
     7
 10
175.248657
 20
228.422391
 30
0.0
 40
2.0
  1
SGB2/1
  7
ROMANS
  0
TEXT
  8
0
  6
CONTINUOUS
 62
     7
 10
175.248657
 20
223.405611
 30
0.0
 40
2.0
  1
SGB2/2
  7
ROMANS
  0
TEXT
  8
0
  6
CONTINUOUS
 62
     7
 10
175.248657
 20
218.380153
 30
0.0
 40
2.0
  1
SGB2/3
  7
ROMANS
  0
LINE
  8
0
  6
CONTINUOUS
 62
     7
 10
359.03355
 20
150.046836
 30
0.0
 11
363.347716
 21
154.289674
 31
0.0
  0
LINE
  8
0
  6
CONTINUOUS
 62
     7
 10
355.457334
 20
151.79824
 30
0.0
 11
367.139641
 21
151.79824
 31
0.0
  0
LINE
  8
0
  6
CONTINUOUS
 62
     7
 10
355.410786
 20
153.066158
 30
0.0
 11
355.410786
 21
150.38396
 31
0.0
  0
LINE
  8
0
  6
CONTINUOUS
 62
     7
 10
367.132829
 20
153.066158
 30
0.0
 11
367.132829
 21
150.38396
 31
0.0
  0
LINE
  8
0
  6
CONTINUOUS
 62
     7
 10
362.666532
 20
155.095484
 30
0.0
 11
364.017547
 21
153.40986
 31
0.0
  0
TEXT
  8
BASE
  6
CONTINUOUS
 10
52.023809
 20
212.299151
 30
0.0
 40
2.0
  1

  7
ROMANS
  0
TEXT
  8
BASE
  6
CONTINUOUS
 10
62.956349
 20
182.605346
 30
0.0
 40
2.0
  1

  7
ROMANS
  0
LINE
  8
0
  6
CONTINUOUS
 62
     7
 10
43.174603
 20
193.914676
 30
0.0
 11
50.674603
 21
193.914676
 31
0.0
  0
LINE
  8
0
  6
CONTINUOUS
 62
     7
 10
43.174603
 20
198.914676
 30
0.0
 11
50.674603
 21
198.914676
 31
0.0
  0
LINE
  8
0
  6
CONTINUOUS
 62
     7
 10
13.174603
 20
196.668314
 30
0.0
 11
35.674603
 21
196.668314
 31
0.0
  0
LINE
  8
0
  6
CONTINUOUS
 62
     7
 10
35.674603
 20
201.668314
 30
0.0
 11
13.174603
 21
201.668314
 31
0.0
  0
TEXT
  8
0
  6
CONTINUOUS
 62
     7
 10
15.674603
 20
198.25189
 30
0.0
 40
2.0
  1
SGB1/7
  7
ROMANS
  0
TEXT
  8
BASE
  6
CONTINUOUS
 10
14.309955
 20
207.834761
 30
0.0
 40
2.0
  1

  7
ROMANS
  0
TEXT
  8
0
  6
CONTINUOUS
 62
     7
 10
53.174603
 20
193.051948
 30
0.0
 40
2.0
  1
BACTRL
  7
ROMANS
  0
LINE
  8
0
  6
CONTINUOUS
 62
     7
 10
200.513651
 20
228.728494
 30
0.0
 11
191.897765
 21
233.550549
 31
0.0
  0
LINE
  8
0
  6
CONTINUOUS
 62
     7
 10
200.513651
 20
223.872231
 30
0.0
 11
191.897765
 21
228.694286
 31
0.0
  0
TEXT
  8
0
  6
CONTINUOUS
 62
     7
 10
233.858007
 20
38.326488
 30
0.0
 40
2.0
  1
TS1
 50
90.0
  7
ROMANS
  0
TEXT
  8
0
  6
CONTINUOUS
 62
     7
 10
228.86434
 20
88.454251
 30
0.0
 40
2.25
  1
SGR2/2
 50
90.0
  7
ROMANS
  0
LINE
  8
0
  6
CONTINUOUS
 62
     7
 10
217.191088
 20
65.752053
 30
0.0
 11
247.313999
 21
65.752053
 31
0.0
  0
LINE
  8
0
  6
CONTINUOUS
 62
     7
 10
247.313999
 20
73.252053
 30
0.0
 11
217.191088
 21
73.252053
 31
0.0
  0
LINE
  8
0
  6
CONTINUOUS
 62
     7
 10
225.499862
 20
88.252053
 30
0.0
 11
225.499862
 21
159.502053
 31
0.0
  0
LINE
  8
0
  6
CONTINUOUS
 62
     7
 10
219.620083
 20
88.252053
 30
0.0
 11
219.620083
 21
170.472279
 31
0.0
  0
TEXT
  8
0
  6
CONTINUOUS
 62
     7
 10
225.11434
 20
88.454251
 30
0.0
 40
2.25
  1
SGR1/2
 50
90.0
  7
ROMANS
  0
LINE
  8
0
  6
CONTINUOUS
 62
     7
 10
226.075259
 20
73.252053
 30
0.0
 11
226.075259
 21
77.002053
 31
0.0
  0
LINE
  8
0
  6
CONTINUOUS
 62
     7
 10
217.191088
 20
73.252053
 30
0.0
 11
217.191088
 21
65.752053
 31
0.0
  0
LINE
  8
0
  6
CONTINUOUS
 62
     7
 10
228.623803
 20
71.938876
 30
0.0
 11
232.142452
 21
69.935846
 31
0.0
  0
LINE
  8
0
  6
CONTINUOUS
 62
     7
 10
228.611741
 20
66.950946
 30
0.0
 11
232.186932
 21
68.733234
 31
0.0
  0
LINE
  8
0
  6
CONTINUOUS
 62
     7
 10
232.142452
 20
69.935846
 30
0.0
 11
228.623803
 21
68.150967
 31
0.0
  0
TEXT
  8
0
  6
CONTINUOUS
 62
     7
 10
235.274596
 20
67.948736
 30
0.0
 40
3.75
  1
1
 11
235.274596
 21
66.698736
 31
0.0
 73
     1
  0
LINE
  8
0
  6
CONTINUOUS
 62
     7
 10
219.620083
 20
73.322975
 30
0.0
 11
219.620083
 21
88.252053
 31
0.0
  0
LINE
  8
0
  6
CONTINUOUS
 62
     7
 10
225.499862
 20
84.502053
 30
0.0
 11
225.499862
 21
88.252053
 31
0.0
  0
LINE
  8
0
  6
CONTINUOUS
 62
     7
 10
226.075259
 20
77.002053
 30
0.0
 11
223.498574
 21
84.524502
 31
0.0
  0
LINE
  8
0
  6
CONTINUOUS
 62
     7
 10
229.249862
 20
88.252053
 30
0.0
 11
229.249862
 21
152.002053
 31
0.0
  0
LINE
  8
0
  6
CONTINUOUS
 62
     7
 10
232.999862
 20
88.252053
 30
0.0
 11
232.999862
 21
144.502053
 31
0.0
  0
LINE
  8
0
  6
CONTINUOUS
 62
     7
 10
236.749862
 20
88.252053
 30
0.0
 11
236.749862
 21
137.002053
 31
0.0
  0
TEXT
  8
0
  6
CONTINUOUS
 62
     7
 10
239.840666
 20
88.454251
 30
0.0
 40
2.25
  1
SGR5/2
 50
90.0
  7
ROMANS
  0
TEXT
  8
0
  6
CONTINUOUS
 62
     7
 10
236.064808
 20
88.454251
 30
0.0
 40
2.25
  1
SGR4/2
 50
90.0
  7
ROMANS
  0
TEXT
  8
0
  6
CONTINUOUS
 62
     7
 10
232.562624
 20
88.454251
 30
0.0
 40
2.25
  1
SGR3/2
 50
90.0
  7
ROMANS
  0
LINE
  8
0
  6
CONTINUOUS
 62
     7
 10
237.325259
 20
73.252053
 30
0.0
 11
237.325259
 21
77.002053
 31
0.0
  0
LINE
  8
0
  6
CONTINUOUS
 62
     7
 10
233.575259
 20
73.252053
 30
0.0
 11
233.575259
 21
77.002053
 31
0.0
  0
LINE
  8
0
  6
CONTINUOUS
 62
     7
 10
229.825259
 20
73.252053
 30
0.0
 11
229.825259
 21
77.002053
 31
0.0
  0
LINE
  8
0
  6
CONTINUOUS
 62
     7
 10
247.313999
 20
65.752053
 30
0.0
 11
247.313999
 21
73.252053
 31
0.0
  0
LINE
  8
0
  6
CONTINUOUS
 62
     7
 10
236.749862
 20
84.502053
 30
0.0
 11
236.749862
 21
88.252053
 31
0.0
  0
LINE
  8
0
  6
CONTINUOUS
 62
     7
 10
229.249862
 20
84.502053
 30
0.0
 11
229.249862
 21
88.252053
 31
0.0
  0
LINE
  8
0
  6
CONTINUOUS
 62
     7
 10
232.999862
 20
84.502053
 30
0.0
 11
232.999862
 21
88.252053
 31
0.0
  0
LINE
  8
0
  6
CONTINUOUS
 62
     7
 10
233.575259
 20
77.002053
 30
0.0
 11
230.998574
 21
84.524502
 31
0.0
  0
LINE
  8
0
  6
CONTINUOUS
 62
     7
 10
229.825259
 20
77.002053
 30
0.0
 11
227.248574
 21
84.524502
 31
0.0
  0
LINE
  8
0
  6
CONTINUOUS
 62
     7
 10
237.325259
 20
77.002053
 30
0.0
 11
234.748574
 21
84.524502
 31
0.0
  0
LINE
  8
0
  6
CONTINUOUS
 62
     7
 10
236.749862
 20
88.252053
 30
0.0
 11
236.749862
 21
88.252053
 31
0.0
  0
TEXT
  8
0
  6
CONTINUOUS
 62
     7
 10
174.87583
 20
88.454251
 30
0.0
 40
2.25
  1
SGR1/1
 50
90.0
  7
ROMANS
  0
LINE
  8
0
  6
CONTINUOUS
 62
     7
 10
175.16246
 20
88.252053
 30
0.0
 11
175.16246
 21
159.502053
 31
0.0
  0
LINE
  8
0
  6
CONTINUOUS
 62
     7
 10
175.737857
 20
73.252053
 30
0.0
 11
175.737857
 21
77.002053
 31
0.0
  0
LINE
  8
0
  6
CONTINUOUS
 62
     7
 10
184.251961
 20
65.752053
 30
0.0
 11
184.251961
 21
49.73306
 31
0.0
  0
LINE
  8
0
  6
CONTINUOUS
 62
     7
 10
180.166189
 20
71.938876
 30
0.0
 11
183.684837
 21
69.935846
 31
0.0
  0
LINE
  8
0
  6
CONTINUOUS
 62
     7
 10
180.154126
 20
66.950946
 30
0.0
 11
183.729317
 21
68.733234
 31
0.0
  0
LINE
  8
0
  6
CONTINUOUS
 62
     7
 10
183.684837
 20
69.935846
 30
0.0
 11
180.166189
 21
68.150967
 31
0.0
  0
TEXT
  8
0
  6
CONTINUOUS
 62
     7
 10
186.816982
 20
67.948736
 30
0.0
 40
3.75
  1
1
 11
186.816982
 21
66.698736
 31
0.0
 73
     1
  0
LINE
  8
0
  6
CONTINUOUS
 62
     7
 10
175.16246
 20
84.502053
 30
0.0
 11
175.16246
 21
88.252053
 31
0.0
  0
LINE
  8
0
  6
CONTINUOUS
 62
     7
 10
175.737857
 20
77.002053
 30
0.0
 11
173.161172
 21
84.524502
 31
0.0
  0
LINE
  8
0
  6
CONTINUOUS
 62
     7
 10
178.91246
 20
88.252053
 30
0.0
 11
178.91246
 21
152.002053
 31
0.0
  0
LINE
  8
0
  6
CONTINUOUS
 62
     7
 10
182.66246
 20
88.252053
 30
0.0
 11
182.66246
 21
144.502053
 31
0.0
  0
LINE
  8
0
  6
CONTINUOUS
 62
     7
 10
186.41246
 20
88.252053
 30
0.0
 11
186.41246
 21
137.002053
 31
0.0
  0
TEXT
  8
0
  6
CONTINUOUS
 62
     7
 10
185.852156
 20
88.454251
 30
0.0
 40
2.25
  1
SGR4/1
 50
90.0
  7
ROMANS
  0
TEXT
  8
0
  6
CONTINUOUS
 62
     7
 10
182.076298
 20
88.454251
 30
0.0
 40
2.25
  1
SGR3/1
 50
90.0
  7
ROMANS
  0
TEXT
  8
0
  6
CONTINUOUS
 62
     7
 10
178.574114
 20
88.454251
 30
0.0
 40
2.25
  1
SGR2/1
 50
90.0
  7
ROMANS
  0
LINE
  8
0
  6
CONTINUOUS
 62
     7
 10
186.987857
 20
73.252053
 30
0.0
 11
186.987857
 21
77.002053
 31
0.0
  0
LINE
  8
0
  6
CONTINUOUS
 62
     7
 10
183.237857
 20
73.252053
 30
0.0
 11
183.237857
 21
77.002053
 31
0.0
  0
LINE
  8
0
  6
CONTINUOUS
 62
     7
 10
179.487857
 20
73.252053
 30
0.0
 11
179.487857
 21
77.002053
 31
0.0
  0
LINE
  8
0
  6
CONTINUOUS
 62
     7
 10
186.41246
 20
84.502053
 30
0.0
 11
186.41246
 21
88.252053
 31
0.0
  0
LINE
  8
0
  6
CONTINUOUS
 62
     7
 10
178.91246
 20
84.502053
 30
0.0
 11
178.91246
 21
88.252053
 31
0.0
  0
LINE
  8
0
  6
CONTINUOUS
 62
     7
 10
182.66246
 20
84.502053
 30
0.0
 11
182.66246
 21
88.252053
 31
0.0
  0
LINE
  8
0
  6
CONTINUOUS
 62
     7
 10
183.237857
 20
77.002053
 30
0.0
 11
180.661172
 21
84.524502
 31
0.0
  0
LINE
  8
0
  6
CONTINUOUS
 62
     7
 10
179.487857
 20
77.002053
 30
0.0
 11
176.911172
 21
84.524502
 31
0.0
  0
LINE
  8
0
  6
CONTINUOUS
 62
     7
 10
186.987857
 20
77.002053
 30
0.0
 11
184.411172
 21
84.524502
 31
0.0
  0
LINE
  8
0
  6
CONTINUOUS
 62
     7
 10
186.41246
 20
88.252053
 30
0.0
 11
186.41246
 21
88.252053
 31
0.0
  0
LINE
  8
0
  6
CONTINUOUS
 62
     7
 10
91.080946
 20
65.752053
 30
0.0
 11
91.080946
 21
50.008138
 31
0.0
  0
LINE
  8
0
  6
CONTINUOUS
 62
     7
 10
43.174603
 20
223.866948
 30
0.0
 11
34.558717
 21
228.689003
 31
0.0
  0
LINE
  8
0
  6
CONTINUOUS
 62
     7
 10
43.174603
 20
218.823456
 30
0.0
 11
34.558717
 21
223.645511
 31
0.0
  0
LINE
  8
0
  6
CONTINUOUS
 62
     7
 10
43.174603
 20
213.990109
 30
0.0
 11
34.558717
 21
218.812164
 31
0.0
  0
LINE
  8
0
  6
CONTINUOUS
 62
     7
 10
43.174603
 20
208.946617
 30
0.0
 11
34.558717
 21
213.768672
 31
0.0
  0
LINE
  8
0
  6
CONTINUOUS
 62
     7
 10
43.174603
 20
203.903125
 30
0.0
 11
34.558717
 21
208.72518
 31
0.0
  0
LINE
  8
0
  6
CONTINUOUS
 62
     7
 10
43.174603
 20
198.859633
 30
0.0
 11
34.558717
 21
203.681688
 31
0.0
  0
LINE
  8
0
  6
CONTINUOUS
 62
     7
 10
43.174603
 20
194.026286
 30
0.0
 11
34.558717
 21
198.848341
 31
0.0
  0
LINE
  8
0
  6
CONTINUOUS
 62
     7
 10
129.05447
 20
218.9009
 30
0.0
 11
129.05447
 21
199.379378
 31
0.0
  0
LINE
  8
0
  6
CONTINUOUS
 62
     7
 10
134.498883
 20
223.9009
 30
0.0
 11
134.498883
 21
204.30751
 31
0.0
  0
LINE
  8
0
  6
CONTINUOUS
 62
     7
 10
139.943295
 20
228.9009
 30
0.0
 11
139.943295
 21
209.235641
 31
0.0
  0
LINE
  8
0
  6
CONTINUOUS
 62
     7
 10
43.174603
 20
228.9009
 30
0.0
 11
139.943295
 21
228.9009
 31
0.0
  0
LINE
  8
0
  6
CONTINUOUS
 62
     7
 10
43.174603
 20
223.9009
 30
0.0
 11
134.498883
 21
223.9009
 31
0.0
  0
LINE
  8
0
  6
CONTINUOUS
 62
     7
 10
43.174603
 20
218.9009
 30
0.0
 11
129.05447
 21
218.9009
 31
0.0
  0
LINE
  8
0
  6
CONTINUOUS
 62
     7
 10
171.876396
 20
73.252053
 30
0.0
 11
171.876396
 21
65.752053
 31
0.0
  0
LINE
  8
0
  6
CONTINUOUS
 62
     7
 10
197.688624
 20
73.252053
 30
0.0
 11
171.876396
 21
73.252053
 31
0.0
  0
LINE
  8
0
  6
CONTINUOUS
 62
     7
 10
171.876396
 20
65.752053
 30
0.0
 11
197.688624
 21
65.752053
 31
0.0
  0
LINE
  8
0
  6
CONTINUOUS
 62
     7
 10
197.688624
 20
65.752053
 30
0.0
 11
197.688624
 21
73.252053
 31
0.0
  0
LINE
  8
0
  6
CONTINUOUS
 62
     7
 10
38.071749
 20
73.252053
 30
0.0
 11
38.071749
 21
65.752053
 31
0.0
  0
LINE
  8
0
  6
CONTINUOUS
 62
     7
 10
67.542186
 20
73.252053
 30
0.0
 11
38.071749
 21
73.252053
 31
0.0
  0
LINE
  8
0
  6
CONTINUOUS
 62
     7
 10
38.071749
 20
65.752053
 30
0.0
 11
67.542186
 21
65.752053
 31
0.0
  0
LINE
  8
0
  6
CONTINUOUS
 62
     7
 10
67.542186
 20
65.752053
 30
0.0
 11
67.542186
 21
73.252053
 31
0.0
  0
LINE
  8
0
  6
CONTINUOUS
 62
     7
 10
46.774491
 20
99.502053
 30
0.0
 11
46.774491
 21
82.851994
 31
0.0
  0
LINE
  8
0
  6
CONTINUOUS
 62
     7
 10
46.774491
 20
73.252053
 30
0.0
 11
46.774491
 21
77.002053
 31
0.0
  0
LINE
  8
0
  6
CONTINUOUS
 62
     7
 10
46.774491
 20
77.002053
 30
0.0
 11
46.774491
 21
82.851994
 31
0.0
  0
LINE
  8
0
  6
CONTINUOUS
 62
     7
 10
46.774491
 20
99.502053
 30
0.0
 11
44.197807
 21
107.024502
 31
0.0
  0
LINE
  8
0
  6
CONTINUOUS
 62
     7
 10
46.199095
 20
159.674683
 30
0.0
 11
46.199095
 21
107.002053
 31
0.0
  0
LINE
  8
0
  6
CONTINUOUS
 62
     7
 10
50.565947
 20
99.502053
 30
0.0
 11
50.565947
 21
82.851994
 31
0.0
  0
LINE
  8
0
  6
CONTINUOUS
 62
     7
 10
50.565947
 20
73.252053
 30
0.0
 11
50.565947
 21
77.002053
 31
0.0
  0
LINE
  8
0
  6
CONTINUOUS
 62
     7
 10
50.565947
 20
77.002053
 30
0.0
 11
50.565947
 21
82.851994
 31
0.0
  0
LINE
  8
0
  6
CONTINUOUS
 62
     7
 10
50.565947
 20
99.502053
 30
0.0
 11
47.989262
 21
107.024502
 31
0.0
  0
LINE
  8
0
  6
CONTINUOUS
 62
     7
 10
49.99055
 20
152.298022
 30
0.0
 11
49.99055
 21
107.002053
 31
0.0
  0
LINE
  8
0
  6
CONTINUOUS
 62
     7
 10
54.104639
 20
99.502053
 30
0.0
 11
54.104639
 21
82.851994
 31
0.0
  0
LINE
  8
0
  6
CONTINUOUS
 62
     7
 10
54.104639
 20
73.252053
 30
0.0
 11
54.104639
 21
77.002053
 31
0.0
  0
LINE
  8
0
  6
CONTINUOUS
 62
     7
 10
54.104639
 20
77.002053
 30
0.0
 11
54.104639
 21
82.851994
 31
0.0
  0
LINE
  8
0
  6
CONTINUOUS
 62
     7
 10
54.104639
 20
99.502053
 30
0.0
 11
51.527955
 21
107.024502
 31
0.0
  0
LINE
  8
0
  6
CONTINUOUS
 62
     7
 10
53.529243
 20
144.574639
 30
0.0
 11
53.529243
 21
107.002053
 31
0.0
  0
LINE
  8
0
  6
CONTINUOUS
 62
     7
 10
57.896095
 20
99.502053
 30
0.0
 11
57.896095
 21
82.851994
 31
0.0
  0
LINE
  8
0
  6
CONTINUOUS
 62
     7
 10
57.896095
 20
73.252053
 30
0.0
 11
57.896095
 21
77.002053
 31
0.0
  0
LINE
  8
0
  6
CONTINUOUS
 62
     7
 10
57.896095
 20
77.002053
 30
0.0
 11
57.896095
 21
82.851994
 31
0.0
  0
LINE
  8
0
  6
CONTINUOUS
 62
     7
 10
57.896095
 20
99.502053
 30
0.0
 11
55.31941
 21
107.024502
 31
0.0
  0
LINE
  8
0
  6
CONTINUOUS
 62
     7
 10
57.320699
 20
137.002053
 30
0.0
 11
57.320699
 21
107.002053
 31
0.0
  0
LINE
  8
0
  6
CONTINUOUS
 62
     7
 10
61.68755
 20
99.502053
 30
0.0
 11
61.68755
 21
82.851994
 31
0.0
  0
LINE
  8
0
  6
CONTINUOUS
 62
     7
 10
61.68755
 20
73.252053
 30
0.0
 11
61.68755
 21
77.002053
 31
0.0
  0
LINE
  8
0
  6
CONTINUOUS
 62
     7
 10
61.68755
 20
77.002053
 30
0.0
 11
61.68755
 21
82.851994
 31
0.0
  0
LINE
  8
0
  6
CONTINUOUS
 62
     7
 10
61.68755
 20
99.502053
 30
0.0
 11
59.110866
 21
107.024502
 31
0.0
  0
LINE
  8
0
  6
CONTINUOUS
 62
     7
 10
61.112154
 20
129.574639
 30
0.0
 11
61.112154
 21
107.002053
 31
0.0
  0
LINE
  8
0
  6
CONTINUOUS
 62
     7
 10
65.226243
 20
99.502053
 30
0.0
 11
65.226243
 21
82.851994
 31
0.0
  0
LINE
  8
0
  6
CONTINUOUS
 62
     7
 10
65.226243
 20
73.252053
 30
0.0
 11
65.226243
 21
77.002053
 31
0.0
  0
LINE
  8
0
  6
CONTINUOUS
 62
     7
 10
65.226243
 20
77.002053
 30
0.0
 11
65.226243
 21
82.851994
 31
0.0
  0
LINE
  8
0
  6
CONTINUOUS
 62
     7
 10
65.226243
 20
99.502053
 30
0.0
 11
62.649559
 21
107.024502
 31
0.0
  0
LINE
  8
0
  6
CONTINUOUS
 62
     7
 10
64.650847
 20
122.074639
 30
0.0
 11
64.650847
 21
107.002053
 31
0.0
  0
LINE
  8
0
  6
CONTINUOUS
 62
     7
 10
273.826821
 20
88.252053
 30
0.0
 11
273.826821
 21
144.502053
 31
0.0
  0
LINE
  8
0
  6
CONTINUOUS
 62
     7
 10
277.576821
 20
88.252053
 30
0.0
 11
277.576821
 21
137.002053
 31
0.0
  0
TEXT
  8
0
  6
CONTINUOUS
 62
     7
 10
277.016517
 20
88.454251
 30
0.0
 40
2.25
  1
SGF5/2
 50
90.0
  7
ROMANS
  0
TEXT
  8
0
  6
CONTINUOUS
 62
     7
 10
273.240659
 20
88.454251
 30
0.0
 40
2.25
  1
SGF5/1
 50
90.0
  7
ROMANS
  0
LINE
  8
0
  6
CONTINUOUS
 62
     7
 10
274.402217
 20
73.252053
 30
0.0
 11
274.402217
 21
77.002053
 31
0.0
  0
LINE
  8
0
  6
CONTINUOUS
 62
     7
 10
278.152217
 20
73.252053
 30
0.0
 11
278.152217
 21
77.002053
 31
0.0
  0
LINE
  8
0
  6
CONTINUOUS
 62
     7
 10
274.402217
 20
77.002053
 30
0.0
 11
271.825533
 21
84.524502
 31
0.0
  0
LINE
  8
0
  6
CONTINUOUS
 62
     7
 10
277.576821
 20
84.502053
 30
0.0
 11
277.576821
 21
88.252053
 31
0.0
  0
LINE
  8
0
  6
CONTINUOUS
 62
     7
 10
273.826821
 20
84.502053
 30
0.0
 11
273.826821
 21
88.252053
 31
0.0
  0
LINE
  8
0
  6
CONTINUOUS
 62
     7
 10
278.152217
 20
77.002053
 30
0.0
 11
275.575533
 21
84.524502
 31
0.0
  0
LINE
  8
0
  6
CONTINUOUS
 62
     7
 10
277.576821
 20
88.252053
 30
0.0
 11
277.576821
 21
88.252053
 31
0.0
  0
LINE
  8
0
  6
CONTINUOUS
 62
     7
 10
280.004138
 20
65.752053
 30
0.0
 11
280.004138
 21
49.73306
 31
0.0
  0
LINE
  8
0
  6
CONTINUOUS
 62
     7
 10
310.575787
 20
84.58342
 30
0.0
 11
310.575787
 21
122.097422
 31
0.0
  0
LINE
  8
0
  6
CONTINUOUS
 62
     7
 10
306.825787
 20
84.58342
 30
0.0
 11
306.825787
 21
129.614429
 31
0.0
  0
LINE
  8
0
  6
CONTINUOUS
 62
     7
 10
303.075787
 20
84.58342
 30
0.0
 11
303.075787
 21
137.131435
 31
0.0
  0
LINE
  8
0
  6
CONTINUOUS
 62
     7
 10
299.325787
 20
84.58342
 30
0.0
 11
299.325787
 21
144.530988
 31
0.0
  0
TEXT
  8
0
  6
CONTINUOUS
 62
     7
 10
310.289157
 20
88.454251
 30
0.0
 40
2.25
  1
SGF5/8
 50
90.0
  7
ROMANS
  0
TEXT
  8
0
  6
CONTINUOUS
 62
     7
 10
299.039157
 20
88.454251
 30
0.0
 40
2.25
  1
SGF5/5
 50
90.0
  7
ROMANS
  0
TEXT
  8
0
  6
CONTINUOUS
 62
     7
 10
306.539157
 20
88.454251
 30
0.0
 40
2.25
  1
SGF5/7
 50
90.0
  7
ROMANS
  0
TEXT
  8
0
  6
CONTINUOUS
 62
     7
 10
302.840874
 20
88.454251
 30
0.0
 40
2.25
  1
SGF5/6
 50
90.0
  7
ROMANS
  0
LINE
  8
0
  6
CONTINUOUS
 62
     7
 10
301.751875
 20
66.950946
 30
0.0
 11
305.327066
 21
68.733234
 31
0.0
  0
LINE
  8
0
  6
CONTINUOUS
 62
     7
 10
296.783708
 20
65.752053
 30
0.0
 11
314.098424
 21
65.752053
 31
0.0
  0
LINE
  8
0
  6
CONTINUOUS
 62
     7
 10
314.098424
 20
73.252053
 30
0.0
 11
296.783708
 21
73.252053
 31
0.0
  0
LINE
  8
0
  6
CONTINUOUS
 62
     7
 10
311.151183
 20
73.252053
 30
0.0
 11
311.151183
 21
77.002053
 31
0.0
  0
LINE
  8
0
  6
CONTINUOUS
 62
     7
 10
307.401183
 20
73.252053
 30
0.0
 11
307.401183
 21
77.002053
 31
0.0
  0
LINE
  8
0
  6
CONTINUOUS
 62
     7
 10
303.651183
 20
73.252053
 30
0.0
 11
303.651183
 21
77.002053
 31
0.0
  0
LINE
  8
0
  6
CONTINUOUS
 62
     7
 10
299.901183
 20
73.252053
 30
0.0
 11
299.901183
 21
77.002053
 31
0.0
  0
LINE
  8
0
  6
CONTINUOUS
 62
     7
 10
296.783708
 20
73.252053
 30
0.0
 11
296.783708
 21
65.752053
 31
0.0
  0
LINE
  8
0
  6
CONTINUOUS
 62
     7
 10
305.282586
 20
69.935846
 30
0.0
 11
301.763938
 21
68.150967
 31
0.0
  0
LINE
  8
0
  6
CONTINUOUS
 62
     7
 10
301.763938
 20
71.938876
 30
0.0
 11
305.282586
 21
69.935846
 31
0.0
  0
LINE
  8
0
  6
CONTINUOUS
 62
     7
 10
310.575787
 20
84.502053
 30
0.0
 11
310.575787
 21
88.252053
 31
0.0
  0
LINE
  8
0
  6
CONTINUOUS
 62
     7
 10
306.825787
 20
84.502053
 30
0.0
 11
306.825787
 21
88.252053
 31
0.0
  0
LINE
  8
0
  6
CONTINUOUS
 62
     7
 10
303.075787
 20
84.502053
 30
0.0
 11
303.075787
 21
88.252053
 31
0.0
  0
LINE
  8
0
  6
CONTINUOUS
 62
     7
 10
299.325787
 20
84.502053
 30
0.0
 11
299.325787
 21
88.252053
 31
0.0
  0
LINE
  8
0
  6
CONTINUOUS
 62
     7
 10
303.651183
 20
77.002053
 30
0.0
 11
301.074499
 21
84.524502
 31
0.0
  0
LINE
  8
0
  6
CONTINUOUS
 62
     7
 10
299.901183
 20
77.002053
 30
0.0
 11
297.324499
 21
84.524502
 31
0.0
  0
LINE
  8
0
  6
CONTINUOUS
 62
     7
 10
311.151183
 20
77.002053
 30
0.0
 11
308.574499
 21
84.524502
 31
0.0
  0
LINE
  8
0
  6
CONTINUOUS
 62
     7
 10
307.401183
 20
77.002053
 30
0.0
 11
304.824499
 21
84.524502
 31
0.0
  0
TEXT
  8
0
  6
CONTINUOUS
 62
     7
 10
308.41473
 20
67.948736
 30
0.0
 40
3.75
  1
1
 11
308.41473
 21
66.698736
 31
0.0
 73
     1
  0
LINE
  8
0
  6
CONTINUOUS
 62
     7
 10
314.098424
 20
65.752053
 30
0.0
 11
314.098424
 21
73.252053
 31
0.0
  0
LINE
  8
0
  6
CONTINUOUS
 62
     7
 10
306.056498
 20
65.752053
 30
0.0
 11
306.056498
 21
49.73306
 31
0.0
  0
LINE
  8
0
  6
CONTINUOUS
 62
     7
 10
219.620083
 20
170.472279
 30
0.0
 11
24.116547
 21
170.472279
 31
0.0
  0
LINE
  8
0
  6
CONTINUOUS
 62
     7
 10
24.116547
 20
109.604912
 30
0.0
 11
20.56142
 21
116.989338
 31
0.0
  0
LINE
  8
0
  6
CONTINUOUS
 62
     7
 10
24.116547
 20
109.604912
 30
0.0
 11
24.116547
 21
95.713014
 31
0.0
  0
LINE
  8
0
  6
CONTINUOUS
 62
     7
 10
24.116547
 20
124.588995
 30
0.0
 11
24.116547
 21
117.088995
 31
0.0
  0
TEXT
  8
0
  6
CONTINUOUS
 62
     7
 10
22.831675
 20
96.01383
 30
0.0
 40
2.25
  1
SGF4/5
 50
90.0
  7
ROMANS
  0
LINE
  8
0
  6
CONTINUOUS
 62
     7
 10
46.199095
 20
159.674683
 30
0.0
 11
338.423331
 21
159.674683
 31
0.0
  0
LINE
  8
0
  6
CONTINUOUS
 62
     7
 10
49.99055
 20
152.298022
 30
0.0
 11
338.423331
 21
152.298022
 31
0.0
  0
TEXT
  8
0
  6
CONTINUOUS
 62
     7
 10
45.504274
 20
109.37372
 30
0.0
 40
2.25
  1
SGR1/4
 50
90.0
  7
ROMANS
  0
TEXT
  8
0
  6
CONTINUOUS
 62
     7
 10
49.254274
 20
109.37372
 30
0.0
 40
2.25
  1
SGR2/4
 50
90.0
  7
ROMANS
  0
TEXT
  8
0
  6
CONTINUOUS
 62
     7
 10
53.004274
 20
109.37372
 30
0.0
 40
2.25
  1
SGR3/4
 50
90.0
  7
ROMANS
  0
TEXT
  8
0
  6
CONTINUOUS
 62
     7
 10
56.754274
 20
109.37372
 30
0.0
 40
2.25
  1
SGR4/4
 50
90.0
  7
ROMANS
  0
TEXT
  8
0
  6
CONTINUOUS
 62
     7
 10
64.040594
 20
109.37372
 30
0.0
 40
2.25
  1
SGR6/4
 50
90.0
  7
ROMANS
  0
TEXT
  8
0
  6
CONTINUOUS
 62
     7
 10
60.290594
 20
109.37372
 30
0.0
 40
2.25
  1
SGR5/4
 50
90.0
  7
ROMANS
  0
LINE
  8
0
  6
CONTINUOUS
 62
     7
 10
281.228878
 20
88.252053
 30
0.0
 11
281.228878
 21
129.528732
 31
0.0
  0
LINE
  8
0
  6
CONTINUOUS
 62
     7
 10
281.228878
 20
84.502053
 30
0.0
 11
281.228878
 21
88.252053
 31
0.0
  0
TEXT
  8
0
  6
CONTINUOUS
 62
     7
 10
280.668573
 20
88.454251
 30
0.0
 40
2.25
  1
SGF5/3
 50
90.0
  7
ROMANS
  0
LINE
  8
0
  6
CONTINUOUS
 62
     7
 10
281.804274
 20
77.002053
 30
0.0
 11
279.227589
 21
84.524502
 31
0.0
  0
LINE
  8
0
  6
CONTINUOUS
 62
     7
 10
281.804274
 20
73.252053
 30
0.0
 11
281.804274
 21
77.002053
 31
0.0
  0
LINE
  8
0
  6
CONTINUOUS
 62
     7
 10
284.880935
 20
88.252053
 30
0.0
 11
284.880935
 21
122.07565
 31
0.0
  0
LINE
  8
0
  6
CONTINUOUS
 62
     7
 10
284.880935
 20
84.502053
 30
0.0
 11
284.880935
 21
88.252053
 31
0.0
  0
TEXT
  8
0
  6
CONTINUOUS
 62
     7
 10
284.320631
 20
88.454251
 30
0.0
 40
2.25
  1
SGF5/4
 50
90.0
  7
ROMANS
  0
LINE
  8
0
  6
CONTINUOUS
 62
     7
 10
285.456331
 20
77.002053
 30
0.0
 11
282.879647
 21
84.524502
 31
0.0
  0
LINE
  8
0
  6
CONTINUOUS
 62
     7
 10
285.456331
 20
73.252053
 30
0.0
 11
285.456331
 21
77.002053
 31
0.0
  0
LINE
  8
0
  6
CONTINUOUS
 62
     7
 10
244.385981
 20
88.252053
 30
0.0
 11
244.385981
 21
122.07565
 31
0.0
  0
LINE
  8
0
  6
CONTINUOUS
 62
     7
 10
240.635981
 20
88.252053
 30
0.0
 11
240.635981
 21
129.528732
 31
0.0
  0
TEXT
  8
BASE
  6
CONTINUOUS
 10
254.758216
 20
88.454251
 30
0.0
 40
2.25
  1

 50
90.0
  7
ROMANS
  0
TEXT
  8
0
  6
CONTINUOUS
 62
     7
 10
243.700926
 20
88.454251
 30
0.0
 40
2.25
  1
SGR6/2
 50
90.0
  7
ROMANS
  0
LINE
  8
0
  6
CONTINUOUS
 62
     7
 10
244.961377
 20
77.002053
 30
0.0
 11
242.384693
 21
84.524502
 31
0.0
  0
LINE
  8
0
  6
CONTINUOUS
 62
     7
 10
244.385981
 20
84.502053
 30
0.0
 11
244.385981
 21
88.252053
 31
0.0
  0
LINE
  8
0
  6
CONTINUOUS
 62
     7
 10
240.635981
 20
84.502053
 30
0.0
 11
240.635981
 21
88.252053
 31
0.0
  0
LINE
  8
0
  6
CONTINUOUS
 62
     7
 10
244.385981
 20
88.252053
 30
0.0
 11
244.385981
 21
88.252053
 31
0.0
  0
LINE
  8
0
  6
CONTINUOUS
 62
     7
 10
241.211377
 20
77.002053
 30
0.0
 11
238.634693
 21
84.524502
 31
0.0
  0
LINE
  8
0
  6
CONTINUOUS
 62
     7
 10
241.211377
 20
73.252053
 30
0.0
 11
241.211377
 21
77.002053
 31
0.0
  0
LINE
  8
0
  6
CONTINUOUS
 62
     7
 10
244.961377
 20
73.252053
 30
0.0
 11
244.961377
 21
77.002053
 31
0.0
  0
LINE
  8
0
  6
CONTINUOUS
 62
     7
 10
189.966574
 20
88.252053
 30
0.0
 11
189.966574
 21
129.528732
 31
0.0
  0
LINE
  8
0
  6
CONTINUOUS
 62
     7
 10
193.716574
 20
88.252053
 30
0.0
 11
193.716574
 21
122.07565
 31
0.0
  0
TEXT
  8
0
  6
CONTINUOUS
 62
     7
 10
193.15627
 20
88.454251
 30
0.0
 40
2.25
  1
SGR6/1
 50
90.0
  7
ROMANS
  0
TEXT
  8
0
  6
CONTINUOUS
 62
     7
 10
189.380412
 20
88.454251
 30
0.0
 40
2.25
  1
SGR5/1
 50
90.0
  7
ROMANS
  0
LINE
  8
0
  6
CONTINUOUS
 62
     7
 10
194.291971
 20
73.252053
 30
0.0
 11
194.291971
 21
77.002053
 31
0.0
  0
LINE
  8
0
  6
CONTINUOUS
 62
     7
 10
190.541971
 20
73.252053
 30
0.0
 11
190.541971
 21
77.002053
 31
0.0
  0
LINE
  8
0
  6
CONTINUOUS
 62
     7
 10
194.291971
 20
77.002053
 30
0.0
 11
191.715286
 21
84.524502
 31
0.0
  0
LINE
  8
0
  6
CONTINUOUS
 62
     7
 10
189.966574
 20
84.502053
 30
0.0
 11
189.966574
 21
88.252053
 31
0.0
  0
LINE
  8
0
  6
CONTINUOUS
 62
     7
 10
190.541971
 20
77.002053
 30
0.0
 11
187.965286
 21
84.524502
 31
0.0
  0
LINE
  8
0
  6
CONTINUOUS
 62
     7
 10
193.716574
 20
84.502053
 30
0.0
 11
193.716574
 21
88.252053
 31
0.0
  0
LINE
  8
0
  6
CONTINUOUS
 62
     7
 10
193.716574
 20
88.252053
 30
0.0
 11
193.716574
 21
88.252053
 31
0.0
  0
LINE
  8
0
  6
CONTINUOUS
 62
     7
 10
137.354165
 20
65.752053
 30
0.0
 11
137.354165
 21
49.73306
 31
0.0
  0
TEXT
  8
0
  6
CONTINUOUS
 62
     7
 10
131.676318
 20
88.454251
 30
0.0
 40
2.25
  1
SGR2/3
 50
90.0
  7
ROMANS
  0
TEXT
  8
0
  6
CONTINUOUS
 62
     7
 10
135.178502
 20
88.454251
 30
0.0
 40
2.25
  1
SGR3/3
 50
90.0
  7
ROMANS
  0
TEXT
  8
0
  6
CONTINUOUS
 62
     7
 10
138.95436
 20
88.454251
 30
0.0
 40
2.25
  1
SGR4/3
 50
90.0
  7
ROMANS
  0
TEXT
  8
0
  6
CONTINUOUS
 62
     7
 10
127.978035
 20
88.454251
 30
0.0
 40
2.25
  1
SGR1/3
 50
90.0
  7
ROMANS
  0
TEXT
  8
0
  6
CONTINUOUS
 62
     7
 10
146.258474
 20
88.454251
 30
0.0
 40
2.25
  1
SGR6/3
 50
90.0
  7
ROMANS
  0
TEXT
  8
0
  6
CONTINUOUS
 62
     7
 10
142.482616
 20
88.454251
 30
0.0
 40
2.25
  1
SGR5/3
 50
90.0
  7
ROMANS
  0
LINE
  8
0
  6
CONTINUOUS
 62
     7
 10
128.840061
 20
73.252053
 30
0.0
 11
128.840061
 21
77.002053
 31
0.0
  0
LINE
  8
0
  6
CONTINUOUS
 62
     7
 10
132.590061
 20
73.252053
 30
0.0
 11
132.590061
 21
77.002053
 31
0.0
  0
LINE
  8
0
  6
CONTINUOUS
 62
     7
 10
136.340061
 20
73.252053
 30
0.0
 11
136.340061
 21
77.002053
 31
0.0
  0
LINE
  8
0
  6
CONTINUOUS
 62
     7
 10
140.090061
 20
73.252053
 30
0.0
 11
140.090061
 21
77.002053
 31
0.0
  0
LINE
  8
0
  6
CONTINUOUS
 62
     7
 10
147.394175
 20
73.252053
 30
0.0
 11
147.394175
 21
77.002053
 31
0.0
  0
LINE
  8
0
  6
CONTINUOUS
 62
     7
 10
143.644175
 20
73.252053
 30
0.0
 11
143.644175
 21
77.002053
 31
0.0
  0
LINE
  8
0
  6
CONTINUOUS
 62
     7
 10
136.340061
 20
77.002053
 30
0.0
 11
133.763377
 21
84.524502
 31
0.0
  0
LINE
  8
0
  6
CONTINUOUS
 62
     7
 10
128.264665
 20
84.502053
 30
0.0
 11
128.264665
 21
88.252053
 31
0.0
  0
LINE
  8
0
  6
CONTINUOUS
 62
     7
 10
132.014665
 20
84.502053
 30
0.0
 11
132.014665
 21
88.252053
 31
0.0
  0
LINE
  8
0
  6
CONTINUOUS
 62
     7
 10
128.840061
 20
77.002053
 30
0.0
 11
126.263377
 21
84.524502
 31
0.0
  0
LINE
  8
0
  6
CONTINUOUS
 62
     7
 10
132.590061
 20
77.002053
 30
0.0
 11
130.013377
 21
84.524502
 31
0.0
  0
LINE
  8
0
  6
CONTINUOUS
 62
     7
 10
139.514665
 20
84.502053
 30
0.0
 11
139.514665
 21
88.252053
 31
0.0
  0
LINE
  8
0
  6
CONTINUOUS
 62
     7
 10
143.068778
 20
84.502053
 30
0.0
 11
143.068778
 21
88.252053
 31
0.0
  0
LINE
  8
0
  6
CONTINUOUS
 62
     7
 10
146.818778
 20
84.502053
 30
0.0
 11
146.818778
 21
88.252053
 31
0.0
  0
LINE
  8
0
  6
CONTINUOUS
 62
     7
 10
135.764665
 20
84.502053
 30
0.0
 11
135.764665
 21
88.252053
 31
0.0
  0
LINE
  8
0
  6
CONTINUOUS
 62
     7
 10
143.644175
 20
77.002053
 30
0.0
 11
141.06749
 21
84.524502
 31
0.0
  0
LINE
  8
0
  6
CONTINUOUS
 62
     7
 10
140.090061
 20
77.002053
 30
0.0
 11
137.513377
 21
84.524502
 31
0.0
  0
LINE
  8
0
  6
CONTINUOUS
 62
     7
 10
147.394175
 20
77.002053
 30
0.0
 11
144.81749
 21
84.524502
 31
0.0
  0
LINE
  8
0
  6
CONTINUOUS
 62
     7
 10
139.514665
 20
88.252053
 30
0.0
 11
139.514665
 21
88.252053
 31
0.0
  0
LINE
  8
0
  6
CONTINUOUS
 62
     7
 10
146.818778
 20
88.252053
 30
0.0
 11
146.818778
 21
88.252053
 31
0.0
  0
LINE
  8
0
  6
CONTINUOUS
 62
     7
 10
128.264665
 20
88.252053
 30
0.0
 11
128.264665
 21
159.502053
 31
0.0
  0
LINE
  8
0
  6
CONTINUOUS
 62
     7
 10
132.014665
 20
88.252053
 30
0.0
 11
132.014665
 21
152.002053
 31
0.0
  0
LINE
  8
0
  6
CONTINUOUS
 62
     7
 10
135.764665
 20
88.252053
 30
0.0
 11
135.764665
 21
144.502053
 31
0.0
  0
LINE
  8
0
  6
CONTINUOUS
 62
     7
 10
143.068778
 20
88.252053
 30
0.0
 11
143.068778
 21
129.528732
 31
0.0
  0
LINE
  8
0
  6
CONTINUOUS
 62
     7
 10
139.514665
 20
88.252053
 30
0.0
 11
139.514665
 21
137.002053
 31
0.0
  0
LINE
  8
0
  6
CONTINUOUS
 62
     7
 10
146.818778
 20
88.252053
 30
0.0
 11
146.818778
 21
122.07565
 31
0.0
  0
TEXT
  8
0
  6
CONTINUOUS
 62
     7
 10
81.027586
 20
88.454251
 30
0.0
 40
2.25
  1
SGR1/5
 50
90.0
  7
ROMANS
  0
TEXT
  8
0
  6
CONTINUOUS
 62
     7
 10
88.228053
 20
88.454251
 30
0.0
 40
2.25
  1
SGR3/5
 50
90.0
  7
ROMANS
  0
TEXT
  8
0
  6
CONTINUOUS
 62
     7
 10
92.003912
 20
88.454251
 30
0.0
 40
2.25
  1
SGR4/5
 50
90.0
  7
ROMANS
  0
TEXT
  8
0
  6
CONTINUOUS
 62
     7
 10
99.308026
 20
88.454251
 30
0.0
 40
2.25
  1
SGR6/5
 50
90.0
  7
ROMANS
  0
TEXT
  8
0
  6
CONTINUOUS
 62
     7
 10
95.532167
 20
88.454251
 30
0.0
 40
2.25
  1
SGR5/5
 50
90.0
  7
ROMANS
  0
TEXT
  8
0
  6
CONTINUOUS
 62
     7
 10
84.725869
 20
88.454251
 30
0.0
 40
2.25
  1
SGR2/5
 50
90.0
  7
ROMANS
  0
LINE
  8
0
  6
CONTINUOUS
 62
     7
 10
85.639612
 20
73.252053
 30
0.0
 11
85.639612
 21
77.002053
 31
0.0
  0
LINE
  8
0
  6
CONTINUOUS
 62
     7
 10
89.389612
 20
73.252053
 30
0.0
 11
89.389612
 21
77.002053
 31
0.0
  0
LINE
  8
0
  6
CONTINUOUS
 62
     7
 10
93.139612
 20
73.252053
 30
0.0
 11
93.139612
 21
77.002053
 31
0.0
  0
LINE
  8
0
  6
CONTINUOUS
 62
     7
 10
100.443726
 20
73.252053
 30
0.0
 11
100.443726
 21
77.002053
 31
0.0
  0
LINE
  8
0
  6
CONTINUOUS
 62
     7
 10
96.693726
 20
73.252053
 30
0.0
 11
96.693726
 21
77.002053
 31
0.0
  0
LINE
  8
0
  6
CONTINUOUS
 62
     7
 10
81.889612
 20
73.252053
 30
0.0
 11
81.889612
 21
77.002053
 31
0.0
  0
LINE
  8
0
  6
CONTINUOUS
 62
     7
 10
96.693726
 20
77.002053
 30
0.0
 11
94.117042
 21
84.524502
 31
0.0
  0
LINE
  8
0
  6
CONTINUOUS
 62
     7
 10
92.564216
 20
84.502053
 30
0.0
 11
92.564216
 21
88.252053
 31
0.0
  0
LINE
  8
0
  6
CONTINUOUS
 62
     7
 10
88.814216
 20
84.502053
 30
0.0
 11
88.814216
 21
88.252053
 31
0.0
  0
LINE
  8
0
  6
CONTINUOUS
 62
     7
 10
81.314216
 20
84.502053
 30
0.0
 11
81.314216
 21
88.252053
 31
0.0
  0
LINE
  8
0
  6
CONTINUOUS
 62
     7
 10
85.064216
 20
84.502053
 30
0.0
 11
85.064216
 21
88.252053
 31
0.0
  0
LINE
  8
0
  6
CONTINUOUS
 62
     7
 10
89.389612
 20
77.002053
 30
0.0
 11
86.812928
 21
84.524502
 31
0.0
  0
LINE
  8
0
  6
CONTINUOUS
 62
     7
 10
81.889612
 20
77.002053
 30
0.0
 11
79.312928
 21
84.524502
 31
0.0
  0
LINE
  8
0
  6
CONTINUOUS
 62
     7
 10
85.639612
 20
77.002053
 30
0.0
 11
83.062928
 21
84.524502
 31
0.0
  0
LINE
  8
0
  6
CONTINUOUS
 62
     7
 10
93.139612
 20
77.002053
 30
0.0
 11
90.562928
 21
84.524502
 31
0.0
  0
LINE
  8
0
  6
CONTINUOUS
 62
     7
 10
92.564216
 20
88.252053
 30
0.0
 11
92.564216
 21
88.252053
 31
0.0
  0
LINE
  8
0
  6
CONTINUOUS
 62
     7
 10
96.11833
 20
84.502053
 30
0.0
 11
96.11833
 21
88.252053
 31
0.0
  0
LINE
  8
0
  6
CONTINUOUS
 62
     7
 10
99.86833
 20
84.502053
 30
0.0
 11
99.86833
 21
88.252053
 31
0.0
  0
LINE
  8
0
  6
CONTINUOUS
 62
     7
 10
100.443726
 20
77.002053
 30
0.0
 11
97.867042
 21
84.524502
 31
0.0
  0
LINE
  8
0
  6
CONTINUOUS
 62
     7
 10
99.86833
 20
88.252053
 30
0.0
 11
99.86833
 21
88.252053
 31
0.0
  0
LINE
  8
0
  6
CONTINUOUS
 62
     7
 10
81.314216
 20
88.252053
 30
0.0
 11
81.314216
 21
159.502053
 31
0.0
  0
LINE
  8
0
  6
CONTINUOUS
 62
     7
 10
85.064216
 20
88.252053
 30
0.0
 11
85.064216
 21
152.002053
 31
0.0
  0
LINE
  8
0
  6
CONTINUOUS
 62
     7
 10
88.814216
 20
88.252053
 30
0.0
 11
88.814216
 21
144.502053
 31
0.0
  0
LINE
  8
0
  6
CONTINUOUS
 62
     7
 10
96.11833
 20
88.252053
 30
0.0
 11
96.11833
 21
129.528732
 31
0.0
  0
LINE
  8
0
  6
CONTINUOUS
 62
     7
 10
92.564216
 20
88.252053
 30
0.0
 11
92.564216
 21
137.002053
 31
0.0
  0
LINE
  8
0
  6
CONTINUOUS
 62
     7
 10
99.86833
 20
88.252053
 30
0.0
 11
99.86833
 21
122.07565
 31
0.0
  0
CIRCLE
  8
0
  6
CONTINUOUS
 62
     7
 10
233.87513
 20
57.987072
 30
0.0
 40
1.05
  0
LINE
  8
0
  6
CONTINUOUS
 62
     7
 10
232.826045
 20
57.943243
 30
0.0
 11
228.832562
 21
57.943243
 31
0.0
  0
TEXT
  8
0
  6
CONTINUOUS
 62
     7
 10
201.809631
 20
56.968237
 30
0.0
 40
2.25
  1
SGB4/1
  7
ROMANS
  0
LINE
  8
0
  6
CONTINUOUS
 62
     7
 10
228.832562
 20
57.943243
 30
0.0
 11
223.050474
 21
55.71904
 31
0.0
  0
LINE
  8
0
  6
CONTINUOUS
 62
     7
 10
223.078356
 20
57.989638
 30
0.0
 11
217.039255
 21
57.989638
 31
0.0
  0
TEXT
  8
0
  6
CONTINUOUS
 62
     7
 10
201.840249
 20
61.957826
 30
0.0
 40
2.25
  1
SEAL. IN
  7
ROMANS
  0
TEXT
  8
0
  6
CONTINUOUS
 62
     7
 10
15.674603
 20
193.201315
 30
0.0
 40
2.0
  1
SGB1/8
  7
ROMANS
  0
TEXT
  8
0
  6
CONTINUOUS
 62
     7
 10
53.174603
 20
198.102524
 30
0.0
 40
2.0
  1
Complete relay reset
  7
ROMANS
  0
TEXT
  8
BASE
  6
CONTINUOUS
 10
52.023809
 20
204.33015
 30
0.0
 40
2.0
  1

  7
ROMANS
  0
LINE
  8
0
  6
CONTINUOUS
 62
     7
 10
240.850732
 20
256.714579
 30
0.0
 11
240.850732
 21
217.489118
 31
0.0
  0
TEXT
  8
0
  6
CONTINUOUS
 62
     7
 10
244.540842
 20
255.413514
 30
0.0
 40
1.5
  1
BS2
  7
ROMANS
  0
TEXT
  8
0
  6
CONTINUOUS
 62
     7
 10
245.512341
 20
214.510455
 30
0.0
 40
2.0
  1
SGB2/8
  7
ROMANS
  0
TEXT
  8
0
  6
CONTINUOUS
 62
     7
 10
245.512341
 20
229.474019
 30
0.0
 40
2.0
  1
SGB2/5
  7
ROMANS
  0
LINE
  8
0
  6
CONTINUOUS
 62
     7
 10
263.277335
 20
232.791337
 30
0.0
 11
240.777335
 21
232.791337
 31
0.0
  0
LINE
  8
0
  6
CONTINUOUS
 62
     7
 10
263.277335
 20
227.791337
 30
0.0
 11
240.777335
 21
227.791337
 31
0.0
  0
LINE
  8
0
  6
CONTINUOUS
 62
     7
 10
263.277335
 20
222.791337
 30
0.0
 11
240.777335
 21
222.791337
 31
0.0
  0
LINE
  8
0
  6
CONTINUOUS
 62
     7
 10
263.277335
 20
217.791337
 30
0.0
 11
240.777335
 21
217.791337
 31
0.0
  0
TEXT
  8
0
  6
CONTINUOUS
 62
     7
 10
245.512341
 20
224.457239
 30
0.0
 40
2.0
  1
SGB2/6
  7
ROMANS
  0
TEXT
  8
0
  6
CONTINUOUS
 62
     7
 10
245.512341
 20
219.431781
 30
0.0
 40
2.0
  1
SGB2/7
  7
ROMANS
  0
LINE
  8
0
  6
CONTINUOUS
 62
     7
 10
270.777335
 20
224.923859
 30
0.0
 11
262.161449
 21
229.745914
 31
0.0
  0
LINE
  8
0
  6
CONTINUOUS
 62
     7
 10
270.777335
 20
215.067597
 30
0.0
 11
262.161449
 21
219.889652
 31
0.0
  0
LINE
  8
0
  6
CONTINUOUS
 62
     7
 10
270.777335
 20
219.923859
 30
0.0
 11
262.161449
 21
224.745914
 31
0.0
  0
LINE
  8
0
  6
CONTINUOUS
 62
     7
 10
270.777335
 20
229.780122
 30
0.0
 11
262.161449
 21
234.602177
 31
0.0
  0
LINE
  8
0
  6
CONTINUOUS
 62
     7
 10
270.777335
 20
214.952528
 30
0.0
 11
279.065927
 21
214.952528
 31
0.0
  0
LINE
  8
0
  6
CONTINUOUS
 62
     7
 10
270.777335
 20
219.952528
 30
0.0
 11
279.140913
 21
219.952528
 31
0.0
  0
LINE
  8
0
  6
CONTINUOUS
 62
     7
 10
270.777335
 20
224.952528
 30
0.0
 11
279.140913
 21
224.952528
 31
0.0
  0
LINE
  8
0
  6
CONTINUOUS
 62
     7
 10
270.777335
 20
229.952528
 30
0.0
 11
279.140913
 21
229.952528
 31
0.0
  0
LINE
  8
0
  6
CONTINUOUS
 62
     7
 10
338.423331
 20
164.006162
 30
0.0
 11
387.975008
 21
164.006162
 31
0.0
  0
LINE
  8
0
  6
CONTINUOUS
 62
     7
 10
288.372088
 20
73.252053
 30
0.0
 11
271.057372
 21
73.252053
 31
0.0
  0
LINE
  8
0
  6
CONTINUOUS
 62
     7
 10
271.057372
 20
65.752053
 30
0.0
 11
288.372088
 21
65.752053
 31
0.0
  0
LINE
  8
0
  6
CONTINUOUS
 62
     7
 10
271.057372
 20
73.252053
 30
0.0
 11
271.057372
 21
65.752053
 31
0.0
  0
LINE
  8
0
  6
CONTINUOUS
 62
     7
 10
279.55625
 20
69.935846
 30
0.0
 11
276.037601
 21
68.150967
 31
0.0
  0
LINE
  8
0
  6
CONTINUOUS
 62
     7
 10
276.025539
 20
66.950946
 30
0.0
 11
279.600729
 21
68.733234
 31
0.0
  0
LINE
  8
0
  6
CONTINUOUS
 62
     7
 10
276.037601
 20
71.938876
 30
0.0
 11
279.55625
 21
69.935846
 31
0.0
  0
LINE
  8
0
  6
CONTINUOUS
 62
     7
 10
288.372088
 20
65.752053
 30
0.0
 11
288.372088
 21
73.252053
 31
0.0
  0
TEXT
  8
0
  6
CONTINUOUS
 62
     7
 10
282.688394
 20
67.948736
 30
0.0
 40
3.75
  1
1
 11
282.688394
 21
66.698736
 31
0.0
 73
     1
  0
LINE
  8
0
  6
CONTINUOUS
 62
     7
 10
150.676222
 20
73.252053
 30
0.0
 11
124.863994
 21
73.252053
 31
0.0
  0
LINE
  8
0
  6
CONTINUOUS
 62
     7
 10
124.863994
 20
73.252053
 30
0.0
 11
124.863994
 21
65.752053
 31
0.0
  0
LINE
  8
0
  6
CONTINUOUS
 62
     7
 10
124.863994
 20
65.752053
 30
0.0
 11
150.676222
 21
65.752053
 31
0.0
  0
LINE
  8
0
  6
CONTINUOUS
 62
     7
 10
136.672435
 20
69.935846
 30
0.0
 11
133.153787
 21
68.150967
 31
0.0
  0
LINE
  8
0
  6
CONTINUOUS
 62
     7
 10
133.153787
 20
71.938876
 30
0.0
 11
136.672435
 21
69.935846
 31
0.0
  0
TEXT
  8
0
  6
CONTINUOUS
 62
     7
 10
139.80458
 20
67.948736
 30
0.0
 40
3.75
  1
1
 11
139.80458
 21
66.698736
 31
0.0
 73
     1
  0
LINE
  8
0
  6
CONTINUOUS
 62
     7
 10
133.141724
 20
66.950946
 30
0.0
 11
136.716915
 21
68.733234
 31
0.0
  0
LINE
  8
0
  6
CONTINUOUS
 62
     7
 10
150.676222
 20
65.752053
 30
0.0
 11
150.676222
 21
73.252053
 31
0.0
  0
LINE
  8
0
  6
CONTINUOUS
 62
     7
 10
78.123341
 20
65.752053
 30
0.0
 11
103.935568
 21
65.752053
 31
0.0
  0
LINE
  8
0
  6
CONTINUOUS
 62
     7
 10
103.935568
 20
73.252053
 30
0.0
 11
78.123341
 21
73.252053
 31
0.0
  0
LINE
  8
0
  6
CONTINUOUS
 62
     7
 10
78.123341
 20
73.252053
 30
0.0
 11
78.123341
 21
65.752053
 31
0.0
  0
LINE
  8
0
  6
CONTINUOUS
 62
     7
 10
86.401071
 20
66.950946
 30
0.0
 11
89.976262
 21
68.733234
 31
0.0
  0
LINE
  8
0
  6
CONTINUOUS
 62
     7
 10
86.413134
 20
71.938876
 30
0.0
 11
89.931782
 21
69.935846
 31
0.0
  0
LINE
  8
0
  6
CONTINUOUS
 62
     7
 10
89.931782
 20
69.935846
 30
0.0
 11
86.413134
 21
68.150967
 31
0.0
  0
TEXT
  8
0
  6
CONTINUOUS
 62
     7
 10
93.063926
 20
67.948736
 30
0.0
 40
3.75
  1
1
 11
93.063926
 21
66.698736
 31
0.0
 73
     1
  0
LINE
  8
0
  6
CONTINUOUS
 62
     7
 10
103.935568
 20
65.752053
 30
0.0
 11
103.935568
 21
73.252053
 31
0.0
  0
CIRCLE
  8
0
  6
CONTINUOUS
 62
     7
 10
337.704111
 20
154.215783
 30
0.0
 40
0.798019
  0
LINE
  8
0
  6
CONTINUOUS
 62
     7
 10
332.420309
 20
154.215783
 30
0.0
 11
336.776689
 21
154.215783
 31
0.0
  0
TEXT
  8
0
  6
CONTINUOUS
 62
     7
 10
341.20558
 20
157.796984
 30
0.0
 40
3.75
  1
Uob
 11
341.20558
 21
156.546984
 31
0.0
 73
     1
  0
TEXT
  8
0
  6
CONTINUOUS
 62
     7
 10
341.20558
 20
150.584742
 30
0.0
 40
3.75
  1
Uob
 11
341.20558
 21
149.334742
 31
0.0
 73
     1
  0
TEXT
  8
0
  6
CONTINUOUS
 62
     7
 10
355.46526
 20
120.840767
 30
0.0
 40
3.75
  1
/Uo2
 11
355.46526
 21
119.590767
 31
0.0
 73
     1
  0
TEXT
  8
0
  6
CONTINUOUS
 62
     7
 10
355.430378
 20
128.981243
 30
0.0
 40
3.75
  1
/Uo2
 11
355.430378
 21
127.731243
 31
0.0
 73
     1
  0
TEXT
  8
0
  6
CONTINUOUS
 62
     7
 10
355.430378
 20
144.109359
 30
0.0
 40
3.75
  1
/Uo1
 11
355.430378
 21
142.859359
 31
0.0
 73
     1
  0
TEXT
  8
0
  6
CONTINUOUS
 62
     7
 10
355.46526
 20
135.968883
 30
0.0
 40
3.75
  1
/Uo1
 11
355.46526
 21
134.718883
 31
0.0
 73
     1
  0
TEXT
  8
0
  6
CONTINUOUS
 62
     7
 10
53.174603
 20
212.966186
 30
0.0
 40
2.0
  1
Remote settings
  7
ROMANS
  0
LINE
  8
0
  6
CONTINUOUS
 62
     7
 10
43.174603
 20
213.955428
 30
0.0
 11
50.674603
 21
213.955428
 31
0.0
  0
TEXT
  8
0
  6
CONTINUOUS
 62
     7
 10
53.174603
 20
203.19324
 30
0.0
 40
2.0
  1
Reset trip indicators and output relays
  7
ROMANS
  0
LINE
  8
0
  6
CONTINUOUS
 62
     7
 10
43.174603
 20
204.005392
 30
0.0
 11
50.674603
 21
204.005392
 31
0.0
  0
TEXT
  8
0
  6
CONTINUOUS
 62
     7
 10
281.771542
 20
233.910745
 30
0.0
 40
2.0
  1
Remote settings
  7
ROMANS
  0
TEXT
  8
0
  6
CONTINUOUS
 62
     7
 10
281.771542
 20
228.82003
 30
0.0
 40
2.0
  1
Trip ind. reset
  7
ROMANS
  0
TEXT
  8
0
  6
CONTINUOUS
 62
     7
 10
281.771542
 20
224.137799
 30
0.0
 40
2.0
  1
Reset trip indicators and output relays
  7
ROMANS
  0
TEXT
  8
0
  6
CONTINUOUS
 62
     7
 10
281.771542
 20
219.047083
 30
0.0
 40
2.0
  1
Complete relay reset
  7
ROMANS
  0
TEXT
  8
0
  6
CONTINUOUS
 62
     7
 10
281.771542
 20
213.996507
 30
0.0
 40
2.0
  1
BACTRL
  7
ROMANS
  0
LINE
  8
0
  6
CONTINUOUS
 62
     7
 10
263.277335
 20
237.719468
 30
0.0
 11
240.777335
 21
237.719468
 31
0.0
  0
TEXT
  8
0
  6
CONTINUOUS
 62
     7
 10
245.512341
 20
234.40215
 30
0.0
 40
2.0
  1
SGB2/4
  7
ROMANS
  0
LINE
  8
0
  6
CONTINUOUS
 62
     7
 10
270.777335
 20
234.708254
 30
0.0
 11
262.161449
 21
239.530309
 31
0.0
  0
LINE
  8
0
  6
CONTINUOUS
 62
     7
 10
270.777335
 20
234.880659
 30
0.0
 11
279.140913
 21
234.880659
 31
0.0
  0
LINE
  8
0
  6
CONTINUOUS
 62
     7
 10
52.119634
 20
59.037072
 30
0.0
 11
52.119634
 21
65.730091
 31
0.0
  0
LINE
  8
0
  6
CONTINUOUS
 62
     7
 10
52.119634
 20
56.937072
 30
0.0
 11
52.119634
 21
49.980984
 31
0.0
  0
LINE
  8
0
  6
CONTINUOUS
 62
     7
 10
233.87513
 20
59.037072
 30
0.0
 11
233.87513
 21
65.730091
 31
0.0
  0
LINE
  8
0
  6
CONTINUOUS
 62
     7
 10
233.87513
 20
56.937072
 30
0.0
 11
233.87513
 21
49.763755
 31
0.0
  0
3DFACE
  8
0
  6
CONTINUOUS
 62
     7
 10
63.286139
 20
95.752053
 30
0.0
 11
63.30554
 21
95.738582
 31
0.0
 12
63.30554
 22
95.765655
 32
0.0
 13
63.286139
 23
95.752053
 33
0.0
  0
3DFACE
  8
0
  6
CONTINUOUS
 62
     7
 10
63.30554
 20
95.738582
 30
0.0
 11
63.324941
 21
95.725111
 31
0.0
 12
63.324941
 22
95.779256
 32
0.0
 13
63.30554
 23
95.765655
 33
0.0
  0
3DFACE
  8
0
  6
CONTINUOUS
 62
     7
 10
63.324941
 20
95.725111
 30
0.0
 11
63.344342
 21
95.711639
 31
0.0
 12
63.344342
 22
95.792858
 32
0.0
 13
63.324941
 23
95.779256
 33
0.0
  0
3DFACE
  8
0
  6
CONTINUOUS
 62
     7
 10
63.344342
 20
95.711639
 30
0.0
 11
63.363743
 21
95.698168
 31
0.0
 12
63.363743
 22
95.80646
 32
0.0
 13
63.344342
 23
95.792858
 33
0.0
  0
3DFACE
  8
0
  6
CONTINUOUS
 62
     7
 10
63.363743
 20
95.698168
 30
0.0
 11
63.383144
 21
95.684697
 31
0.0
 12
63.383144
 22
95.820061
 32
0.0
 13
63.363743
 23
95.80646
 33
0.0
  0
3DFACE
  8
0
  6
CONTINUOUS
 62
     7
 10
63.383144
 20
95.684697
 30
0.0
 11
63.402545
 21
95.671226
 31
0.0
 12
63.402545
 22
95.833663
 32
0.0
 13
63.383144
 23
95.820061
 33
0.0
  0
3DFACE
  8
0
  6
CONTINUOUS
 62
     7
 10
63.402545
 20
95.671226
 30
0.0
 11
63.421946
 21
95.657754
 31
0.0
 12
63.421946
 22
95.847264
 32
0.0
 13
63.402545
 23
95.833663
 33
0.0
  0
3DFACE
  8
0
  6
CONTINUOUS
 62
     7
 10
63.421946
 20
95.657754
 30
0.0
 11
63.441347
 21
95.644283
 31
0.0
 12
63.441347
 22
95.860866
 32
0.0
 13
63.421946
 23
95.847264
 33
0.0
  0
3DFACE
  8
0
  6
CONTINUOUS
 62
     7
 10
63.441347
 20
95.644283
 30
0.0
 11
63.460748
 21
95.630812
 31
0.0
 12
63.460748
 22
95.874467
 32
0.0
 13
63.441347
 23
95.860866
 33
0.0
  0
3DFACE
  8
0
  6
CONTINUOUS
 62
     7
 10
63.460748
 20
95.630812
 30
0.0
 11
63.480149
 21
95.61734
 31
0.0
 12
63.480149
 22
95.888069
 32
0.0
 13
63.460748
 23
95.874467
 33
0.0
  0
3DFACE
  8
0
  6
CONTINUOUS
 62
     7
 10
63.480149
 20
95.61734
 30
0.0
 11
63.49955
 21
95.603869
 31
0.0
 12
63.49955
 22
95.90167
 32
0.0
 13
63.480149
 23
95.888069
 33
0.0
  0
3DFACE
  8
0
  6
CONTINUOUS
 62
     7
 10
63.49955
 20
95.603869
 30
0.0
 11
63.518952
 21
95.590398
 31
0.0
 12
63.518952
 22
95.915272
 32
0.0
 13
63.49955
 23
95.90167
 33
0.0
  0
3DFACE
  8
0
  6
CONTINUOUS
 62
     7
 10
63.518952
 20
95.590398
 30
0.0
 11
63.538353
 21
95.576926
 31
0.0
 12
63.538353
 22
95.928873
 32
0.0
 13
63.518952
 23
95.915272
 33
0.0
  0
3DFACE
  8
0
  6
CONTINUOUS
 62
     7
 10
63.538353
 20
95.576926
 30
0.0
 11
63.557754
 21
95.563455
 31
0.0
 12
63.557754
 22
95.942475
 32
0.0
 13
63.538353
 23
95.928873
 33
0.0
  0
3DFACE
  8
0
  6
CONTINUOUS
 62
     7
 10
63.557754
 20
95.563455
 30
0.0
 11
63.577155
 21
95.549984
 31
0.0
 12
63.577155
 22
95.956076
 32
0.0
 13
63.557754
 23
95.942475
 33
0.0
  0
3DFACE
  8
0
  6
CONTINUOUS
 62
     7
 10
63.577155
 20
95.549984
 30
0.0
 11
63.596556
 21
95.536512
 31
0.0
 12
63.596556
 22
95.969678
 32
0.0
 13
63.577155
 23
95.956076
 33
0.0
  0
3DFACE
  8
0
  6
CONTINUOUS
 62
     7
 10
63.596556
 20
95.536512
 30
0.0
 11
63.615957
 21
95.523041
 31
0.0
 12
63.615957
 22
95.983279
 32
0.0
 13
63.596556
 23
95.969678
 33
0.0
  0
3DFACE
  8
0
  6
CONTINUOUS
 62
     7
 10
63.615957
 20
95.523041
 30
0.0
 11
63.635358
 21
95.50957
 31
0.0
 12
63.635358
 22
95.996881
 32
0.0
 13
63.615957
 23
95.983279
 33
0.0
  0
3DFACE
  8
0
  6
CONTINUOUS
 62
     7
 10
63.635358
 20
95.50957
 30
0.0
 11
63.654759
 21
95.496098
 31
0.0
 12
63.654759
 22
96.010483
 32
0.0
 13
63.635358
 23
95.996881
 33
0.0
  0
3DFACE
  8
0
  6
CONTINUOUS
 62
     7
 10
63.654759
 20
95.496098
 30
0.0
 11
63.67416
 21
95.482627
 31
0.0
 12
63.67416
 22
96.024084
 32
0.0
 13
63.654759
 23
96.010483
 33
0.0
  0
3DFACE
  8
0
  6
CONTINUOUS
 62
     7
 10
63.67416
 20
95.482627
 30
0.0
 11
63.693561
 21
95.469156
 31
0.0
 12
63.693561
 22
96.037686
 32
0.0
 13
63.67416
 23
96.024084
 33
0.0
  0
3DFACE
  8
0
  6
CONTINUOUS
 62
     7
 10
63.693561
 20
95.469156
 30
0.0
 11
63.712962
 21
95.455684
 31
0.0
 12
63.712962
 22
96.051287
 32
0.0
 13
63.693561
 23
96.037686
 33
0.0
  0
3DFACE
  8
0
  6
CONTINUOUS
 62
     7
 10
63.712962
 20
95.455684
 30
0.0
 11
63.732363
 21
95.442213
 31
0.0
 12
63.732363
 22
96.064889
 32
0.0
 13
63.712962
 23
96.051287
 33
0.0
  0
3DFACE
  8
0
  6
CONTINUOUS
 62
     7
 10
63.732363
 20
95.442213
 30
0.0
 11
63.751764
 21
95.428742
 31
0.0
 12
63.751764
 22
96.07849
 32
0.0
 13
63.732363
 23
96.064889
 33
0.0
  0
3DFACE
  8
0
  6
CONTINUOUS
 62
     7
 10
63.751764
 20
95.428742
 30
0.0
 11
63.771165
 21
95.415271
 31
0.0
 12
63.771165
 22
96.092092
 32
0.0
 13
63.751764
 23
96.07849
 33
0.0
  0
3DFACE
  8
0
  6
CONTINUOUS
 62
     7
 10
63.771165
 20
95.415271
 30
0.0
 11
63.790566
 21
95.401799
 31
0.0
 12
63.790566
 22
96.105693
 32
0.0
 13
63.771165
 23
96.092092
 33
0.0
  0
3DFACE
  8
0
  6
CONTINUOUS
 62
     7
 10
63.790566
 20
95.401799
 30
0.0
 11
63.809967
 21
95.388328
 31
0.0
 12
63.809967
 22
96.119295
 32
0.0
 13
63.790566
 23
96.105693
 33
0.0
  0
3DFACE
  8
0
  6
CONTINUOUS
 62
     7
 10
63.809967
 20
95.388328
 30
0.0
 11
63.829368
 21
95.374857
 31
0.0
 12
63.829368
 22
96.132896
 32
0.0
 13
63.809967
 23
96.119295
 33
0.0
  0
3DFACE
  8
0
  6
CONTINUOUS
 62
     7
 10
63.829368
 20
95.374857
 30
0.0
 11
63.848769
 21
95.361385
 31
0.0
 12
63.848769
 22
96.146498
 32
0.0
 13
63.829368
 23
96.132896
 33
0.0
  0
3DFACE
  8
0
  6
CONTINUOUS
 62
     7
 10
63.848769
 20
95.361385
 30
0.0
 11
63.86817
 21
95.347914
 31
0.0
 12
63.86817
 22
96.160099
 32
0.0
 13
63.848769
 23
96.146498
 33
0.0
  0
3DFACE
  8
0
  6
CONTINUOUS
 62
     7
 10
63.86817
 20
95.347914
 30
0.0
 11
63.887571
 21
95.334443
 31
0.0
 12
63.887571
 22
96.173701
 32
0.0
 13
63.86817
 23
96.160099
 33
0.0
  0
3DFACE
  8
0
  6
CONTINUOUS
 62
     7
 10
63.887571
 20
95.334443
 30
0.0
 11
63.906972
 21
95.320971
 31
0.0
 12
63.906972
 22
96.187302
 32
0.0
 13
63.887571
 23
96.173701
 33
0.0
  0
3DFACE
  8
0
  6
CONTINUOUS
 62
     7
 10
63.906972
 20
95.320971
 30
0.0
 11
63.926373
 21
95.3075
 31
0.0
 12
63.926373
 22
96.200904
 32
0.0
 13
63.906972
 23
96.187302
 33
0.0
  0
3DFACE
  8
0
  6
CONTINUOUS
 62
     7
 10
63.926373
 20
95.3075
 30
0.0
 11
63.945774
 21
95.294029
 31
0.0
 12
63.945774
 22
96.214505
 32
0.0
 13
63.926373
 23
96.200904
 33
0.0
  0
3DFACE
  8
0
  6
CONTINUOUS
 62
     7
 10
63.945774
 20
95.294029
 30
0.0
 11
63.965175
 21
95.280557
 31
0.0
 12
63.965175
 22
96.228107
 32
0.0
 13
63.945774
 23
96.214505
 33
0.0
  0
3DFACE
  8
0
  6
CONTINUOUS
 62
     7
 10
63.965175
 20
95.280557
 30
0.0
 11
63.984576
 21
95.267086
 31
0.0
 12
63.984576
 22
96.241709
 32
0.0
 13
63.965175
 23
96.228107
 33
0.0
  0
3DFACE
  8
0
  6
CONTINUOUS
 62
     7
 10
63.984576
 20
95.267086
 30
0.0
 11
64.003978
 21
95.253615
 31
0.0
 12
64.003978
 22
96.25531
 32
0.0
 13
63.984576
 23
96.241709
 33
0.0
  0
3DFACE
  8
0
  6
CONTINUOUS
 62
     7
 10
64.003978
 20
95.253615
 30
0.0
 11
64.023379
 21
95.240143
 31
0.0
 12
64.023379
 22
96.268912
 32
0.0
 13
64.003978
 23
96.25531
 33
0.0
  0
3DFACE
  8
0
  6
CONTINUOUS
 62
     7
 10
64.023379
 20
95.240143
 30
0.0
 11
64.04278
 21
95.226672
 31
0.0
 12
64.04278
 22
96.282513
 32
0.0
 13
64.023379
 23
96.268912
 33
0.0
  0
3DFACE
  8
0
  6
CONTINUOUS
 62
     7
 10
64.04278
 20
95.226672
 30
0.0
 11
64.062181
 21
95.213201
 31
0.0
 12
64.062181
 22
96.296115
 32
0.0
 13
64.04278
 23
96.282513
 33
0.0
  0
3DFACE
  8
0
  6
CONTINUOUS
 62
     7
 10
64.062181
 20
95.213201
 30
0.0
 11
64.081582
 21
95.199729
 31
0.0
 12
64.081582
 22
96.309716
 32
0.0
 13
64.062181
 23
96.296115
 33
0.0
  0
3DFACE
  8
0
  6
CONTINUOUS
 62
     7
 10
64.081582
 20
95.199729
 30
0.0
 11
64.100983
 21
95.186258
 31
0.0
 12
64.100983
 22
96.323318
 32
0.0
 13
64.081582
 23
96.309716
 33
0.0
  0
3DFACE
  8
0
  6
CONTINUOUS
 62
     7
 10
64.100983
 20
95.186258
 30
0.0
 11
64.120384
 21
95.172787
 31
0.0
 12
64.120384
 22
96.336919
 32
0.0
 13
64.100983
 23
96.323318
 33
0.0
  0
3DFACE
  8
0
  6
CONTINUOUS
 62
     7
 10
64.120384
 20
95.172787
 30
0.0
 11
64.139785
 21
95.159316
 31
0.0
 12
64.139785
 22
96.350521
 32
0.0
 13
64.120384
 23
96.336919
 33
0.0
  0
3DFACE
  8
0
  6
CONTINUOUS
 62
     7
 10
64.139785
 20
95.159316
 30
0.0
 11
64.159186
 21
95.145844
 31
0.0
 12
64.159186
 22
96.364122
 32
0.0
 13
64.139785
 23
96.350521
 33
0.0
  0
3DFACE
  8
0
  6
CONTINUOUS
 62
     7
 10
64.159186
 20
95.145844
 30
0.0
 11
64.178587
 21
95.132373
 31
0.0
 12
64.178587
 22
96.377724
 32
0.0
 13
64.159186
 23
96.364122
 33
0.0
  0
3DFACE
  8
0
  6
CONTINUOUS
 62
     7
 10
64.178587
 20
95.132373
 30
0.0
 11
64.197988
 21
95.118902
 31
0.0
 12
64.197988
 22
96.391325
 32
0.0
 13
64.178587
 23
96.377724
 33
0.0
  0
3DFACE
  8
0
  6
CONTINUOUS
 62
     7
 10
64.197988
 20
95.118902
 30
0.0
 11
64.217389
 21
95.10543
 31
0.0
 12
64.217389
 22
96.404927
 32
0.0
 13
64.197988
 23
96.391325
 33
0.0
  0
3DFACE
  8
0
  6
CONTINUOUS
 62
     7
 10
64.217389
 20
95.10543
 30
0.0
 11
64.23679
 21
95.091959
 31
0.0
 12
64.23679
 22
96.418528
 32
0.0
 13
64.217389
 23
96.404927
 33
0.0
  0
3DFACE
  8
0
  6
CONTINUOUS
 62
     7
 10
64.23679
 20
95.091959
 30
0.0
 11
64.256191
 21
95.078488
 31
0.0
 12
64.256191
 22
96.43213
 32
0.0
 13
64.23679
 23
96.418528
 33
0.0
  0
3DFACE
  8
0
  6
CONTINUOUS
 62
     7
 10
64.256191
 20
95.078488
 30
0.0
 11
64.275592
 21
95.065016
 31
0.0
 12
64.275592
 22
96.445731
 32
0.0
 13
64.256191
 23
96.43213
 33
0.0
  0
3DFACE
  8
0
  6
CONTINUOUS
 62
     7
 10
64.275592
 20
95.065016
 30
0.0
 11
64.294993
 21
95.051545
 31
0.0
 12
64.294993
 22
96.459333
 32
0.0
 13
64.275592
 23
96.445731
 33
0.0
  0
3DFACE
  8
0
  6
CONTINUOUS
 62
     7
 10
64.294993
 20
95.051545
 30
0.0
 11
64.314394
 21
95.038074
 31
0.0
 12
64.314394
 22
96.472935
 32
0.0
 13
64.294993
 23
96.459333
 33
0.0
  0
3DFACE
  8
0
  6
CONTINUOUS
 62
     7
 10
64.314394
 20
95.038074
 30
0.0
 11
64.333795
 21
95.024602
 31
0.0
 12
64.333795
 22
96.486536
 32
0.0
 13
64.314394
 23
96.472935
 33
0.0
  0
3DFACE
  8
0
  6
CONTINUOUS
 62
     7
 10
64.333795
 20
95.024602
 30
0.0
 11
64.353196
 21
95.011131
 31
0.0
 12
64.353196
 22
96.500138
 32
0.0
 13
64.333795
 23
96.486536
 33
0.0
  0
3DFACE
  8
0
  6
CONTINUOUS
 62
     7
 10
64.353196
 20
95.011131
 30
0.0
 11
64.372597
 21
94.99766
 31
0.0
 12
64.372597
 22
96.513739
 32
0.0
 13
64.353196
 23
96.500138
 33
0.0
  0
3DFACE
  8
0
  6
CONTINUOUS
 62
     7
 10
64.372597
 20
94.99766
 30
0.0
 11
64.391998
 21
94.984188
 31
0.0
 12
64.391998
 22
96.527341
 32
0.0
 13
64.372597
 23
96.513739
 33
0.0
  0
3DFACE
  8
0
  6
CONTINUOUS
 62
     7
 10
64.391998
 20
94.984188
 30
0.0
 11
64.411399
 21
94.970717
 31
0.0
 12
64.411399
 22
96.540942
 32
0.0
 13
64.391998
 23
96.527341
 33
0.0
  0
3DFACE
  8
0
  6
CONTINUOUS
 62
     7
 10
64.411399
 20
94.970717
 30
0.0
 11
64.4308
 21
94.957246
 31
0.0
 12
64.4308
 22
96.554544
 32
0.0
 13
64.411399
 23
96.540942
 33
0.0
  0
3DFACE
  8
0
  6
CONTINUOUS
 62
     7
 10
64.4308
 20
94.957246
 30
0.0
 11
64.450201
 21
94.943774
 31
0.0
 12
64.450201
 22
96.568145
 32
0.0
 13
64.4308
 23
96.554544
 33
0.0
  0
3DFACE
  8
0
  6
CONTINUOUS
 62
     7
 10
64.450201
 20
94.943774
 30
0.0
 11
64.469602
 21
94.930303
 31
0.0
 12
64.469602
 22
96.581747
 32
0.0
 13
64.450201
 23
96.568145
 33
0.0
  0
3DFACE
  8
0
  6
CONTINUOUS
 62
     7
 10
64.469602
 20
94.930303
 30
0.0
 11
64.489004
 21
94.916832
 31
0.0
 12
64.489004
 22
96.595348
 32
0.0
 13
64.469602
 23
96.581747
 33
0.0
  0
3DFACE
  8
0
  6
CONTINUOUS
 62
     7
 10
64.489004
 20
94.916832
 30
0.0
 11
64.508405
 21
94.903361
 31
0.0
 12
64.508405
 22
96.60895
 32
0.0
 13
64.489004
 23
96.595348
 33
0.0
  0
3DFACE
  8
0
  6
CONTINUOUS
 62
     7
 10
64.508405
 20
94.903361
 30
0.0
 11
64.527806
 21
94.889889
 31
0.0
 12
64.527806
 22
96.622551
 32
0.0
 13
64.508405
 23
96.60895
 33
0.0
  0
3DFACE
  8
0
  6
CONTINUOUS
 62
     7
 10
64.527806
 20
94.889889
 30
0.0
 11
64.547207
 21
94.876418
 31
0.0
 12
64.547207
 22
96.636153
 32
0.0
 13
64.527806
 23
96.622551
 33
0.0
  0
3DFACE
  8
0
  6
CONTINUOUS
 62
     7
 10
64.547207
 20
94.876418
 30
0.0
 11
64.566608
 21
94.862947
 31
0.0
 12
64.566608
 22
96.649754
 32
0.0
 13
64.547207
 23
96.636153
 33
0.0
  0
3DFACE
  8
0
  6
CONTINUOUS
 62
     7
 10
64.566608
 20
94.862947
 30
0.0
 11
64.586009
 21
94.849475
 31
0.0
 12
64.586009
 22
96.663356
 32
0.0
 13
64.566608
 23
96.649754
 33
0.0
  0
3DFACE
  8
0
  6
CONTINUOUS
 62
     7
 10
64.586009
 20
94.849475
 30
0.0
 11
64.60541
 21
94.836004
 31
0.0
 12
64.60541
 22
96.676958
 32
0.0
 13
64.586009
 23
96.663356
 33
0.0
  0
3DFACE
  8
0
  6
CONTINUOUS
 62
     7
 10
64.60541
 20
94.836004
 30
0.0
 11
64.624811
 21
94.822533
 31
0.0
 12
64.624811
 22
96.690559
 32
0.0
 13
64.60541
 23
96.676958
 33
0.0
  0
3DFACE
  8
0
  6
CONTINUOUS
 62
     7
 10
64.624811
 20
94.822533
 30
0.0
 11
64.644212
 21
94.809061
 31
0.0
 12
64.644212
 22
96.704161
 32
0.0
 13
64.624811
 23
96.690559
 33
0.0
  0
3DFACE
  8
0
  6
CONTINUOUS
 62
     7
 10
64.644212
 20
94.809061
 30
0.0
 11
64.663613
 21
94.79559
 31
0.0
 12
64.663613
 22
96.717762
 32
0.0
 13
64.644212
 23
96.704161
 33
0.0
  0
3DFACE
  8
0
  6
CONTINUOUS
 62
     7
 10
64.663613
 20
94.79559
 30
0.0
 11
64.683014
 21
94.782119
 31
0.0
 12
64.683014
 22
96.731364
 32
0.0
 13
64.663613
 23
96.717762
 33
0.0
  0
3DFACE
  8
0
  6
CONTINUOUS
 62
     7
 10
64.683014
 20
94.782119
 30
0.0
 11
64.702415
 21
94.768647
 31
0.0
 12
64.702415
 22
96.744965
 32
0.0
 13
64.683014
 23
96.731364
 33
0.0
  0
3DFACE
  8
0
  6
CONTINUOUS
 62
     7
 10
64.702415
 20
94.768647
 30
0.0
 11
64.721816
 21
94.755176
 31
0.0
 12
64.721816
 22
96.758567
 32
0.0
 13
64.702415
 23
96.744965
 33
0.0
  0
3DFACE
  8
0
  6
CONTINUOUS
 62
     7
 10
64.721816
 20
94.755176
 30
0.0
 11
64.741217
 21
94.741705
 31
0.0
 12
64.741217
 22
96.772168
 32
0.0
 13
64.721816
 23
96.758567
 33
0.0
  0
3DFACE
  8
0
  6
CONTINUOUS
 62
     7
 10
64.741217
 20
94.741705
 30
0.0
 11
64.760618
 21
94.728233
 31
0.0
 12
64.760618
 22
96.78577
 32
0.0
 13
64.741217
 23
96.772168
 33
0.0
  0
3DFACE
  8
0
  6
CONTINUOUS
 62
     7
 10
64.760618
 20
94.728233
 30
0.0
 11
64.780019
 21
94.714762
 31
0.0
 12
64.780019
 22
96.799371
 32
0.0
 13
64.760618
 23
96.78577
 33
0.0
  0
3DFACE
  8
0
  6
CONTINUOUS
 62
     7
 10
64.780019
 20
94.714762
 30
0.0
 11
64.79942
 21
94.701291
 31
0.0
 12
64.79942
 22
96.812973
 32
0.0
 13
64.780019
 23
96.799371
 33
0.0
  0
3DFACE
  8
0
  6
CONTINUOUS
 62
     7
 10
64.79942
 20
94.701291
 30
0.0
 11
64.818821
 21
94.687819
 31
0.0
 12
64.818821
 22
96.826574
 32
0.0
 13
64.79942
 23
96.812973
 33
0.0
  0
3DFACE
  8
0
  6
CONTINUOUS
 62
     7
 10
64.818821
 20
94.687819
 30
0.0
 11
64.838222
 21
94.674348
 31
0.0
 12
64.838222
 22
96.840176
 32
0.0
 13
64.818821
 23
96.826574
 33
0.0
  0
3DFACE
  8
0
  6
CONTINUOUS
 62
     7
 10
64.838222
 20
94.674348
 30
0.0
 11
64.857623
 21
94.660877
 31
0.0
 12
64.857623
 22
96.853777
 32
0.0
 13
64.838222
 23
96.840176
 33
0.0
  0
3DFACE
  8
0
  6
CONTINUOUS
 62
     7
 10
64.857623
 20
94.660877
 30
0.0
 11
64.877024
 21
94.647406
 31
0.0
 12
64.877024
 22
96.867379
 32
0.0
 13
64.857623
 23
96.853777
 33
0.0
  0
3DFACE
  8
0
  6
CONTINUOUS
 62
     7
 10
64.877024
 20
94.647406
 30
0.0
 11
64.896425
 21
94.633934
 31
0.0
 12
64.896425
 22
96.88098
 32
0.0
 13
64.877024
 23
96.867379
 33
0.0
  0
3DFACE
  8
0
  6
CONTINUOUS
 62
     7
 10
64.896425
 20
94.633934
 30
0.0
 11
64.915826
 21
94.620463
 31
0.0
 12
64.915826
 22
96.894582
 32
0.0
 13
64.896425
 23
96.88098
 33
0.0
  0
3DFACE
  8
0
  6
CONTINUOUS
 62
     7
 10
64.915826
 20
94.620463
 30
0.0
 11
64.935227
 21
94.606992
 31
0.0
 12
64.935227
 22
96.908184
 32
0.0
 13
64.915826
 23
96.894582
 33
0.0
  0
3DFACE
  8
0
  6
CONTINUOUS
 62
     7
 10
64.935227
 20
94.606992
 30
0.0
 11
64.954628
 21
94.59352
 31
0.0
 12
64.954628
 22
96.921785
 32
0.0
 13
64.935227
 23
96.908184
 33
0.0
  0
3DFACE
  8
0
  6
CONTINUOUS
 62
     7
 10
64.954628
 20
94.59352
 30
0.0
 11
64.97403
 21
94.580049
 31
0.0
 12
64.97403
 22
96.935387
 32
0.0
 13
64.954628
 23
96.921785
 33
0.0
  0
3DFACE
  8
0
  6
CONTINUOUS
 62
     7
 10
64.97403
 20
94.580049
 30
0.0
 11
64.993431
 21
94.566578
 31
0.0
 12
64.993431
 22
96.948988
 32
0.0
 13
64.97403
 23
96.935387
 33
0.0
  0
3DFACE
  8
0
  6
CONTINUOUS
 62
     7
 10
64.993431
 20
94.566578
 30
0.0
 11
65.012832
 21
94.553106
 31
0.0
 12
65.012832
 22
96.96259
 32
0.0
 13
64.993431
 23
96.948988
 33
0.0
  0
3DFACE
  8
0
  6
CONTINUOUS
 62
     7
 10
65.012832
 20
94.553106
 30
0.0
 11
65.032233
 21
94.539635
 31
0.0
 12
65.032233
 22
96.976191
 32
0.0
 13
65.012832
 23
96.96259
 33
0.0
  0
3DFACE
  8
0
  6
CONTINUOUS
 62
     7
 10
65.032233
 20
94.539635
 30
0.0
 11
65.051634
 21
94.526164
 31
0.0
 12
65.051634
 22
96.989793
 32
0.0
 13
65.032233
 23
96.976191
 33
0.0
  0
3DFACE
  8
0
  6
CONTINUOUS
 62
     7
 10
65.051634
 20
94.526164
 30
0.0
 11
65.071035
 21
94.512692
 31
0.0
 12
65.071035
 22
97.003394
 32
0.0
 13
65.051634
 23
96.989793
 33
0.0
  0
3DFACE
  8
0
  6
CONTINUOUS
 62
     7
 10
65.071035
 20
94.512692
 30
0.0
 11
65.090436
 21
94.499221
 31
0.0
 12
65.090436
 22
97.016996
 32
0.0
 13
65.071035
 23
97.003394
 33
0.0
  0
3DFACE
  8
0
  6
CONTINUOUS
 62
     7
 10
65.090436
 20
94.499221
 30
0.0
 11
65.109837
 21
94.48575
 31
0.0
 12
65.109837
 22
97.030597
 32
0.0
 13
65.090436
 23
97.016996
 33
0.0
  0
3DFACE
  8
0
  6
CONTINUOUS
 62
     7
 10
65.109837
 20
94.48575
 30
0.0
 11
65.129238
 21
94.472278
 31
0.0
 12
65.129238
 22
97.044199
 32
0.0
 13
65.109837
 23
97.030597
 33
0.0
  0
3DFACE
  8
0
  6
CONTINUOUS
 62
     7
 10
65.129238
 20
94.472278
 30
0.0
 11
65.148639
 21
94.458807
 31
0.0
 12
65.148639
 22
97.0578
 32
0.0
 13
65.129238
 23
97.044199
 33
0.0
  0
3DFACE
  8
0
  6
CONTINUOUS
 62
     7
 10
65.148639
 20
94.458807
 30
0.0
 11
65.16804
 21
94.445336
 31
0.0
 12
65.16804
 22
97.071402
 32
0.0
 13
65.148639
 23
97.0578
 33
0.0
  0
3DFACE
  8
0
  6
CONTINUOUS
 62
     7
 10
65.16804
 20
94.445336
 30
0.0
 11
65.187441
 21
94.431864
 31
0.0
 12
65.187441
 22
97.085003
 32
0.0
 13
65.16804
 23
97.071402
 33
0.0
  0
3DFACE
  8
0
  6
CONTINUOUS
 62
     7
 10
65.187441
 20
94.431864
 30
0.0
 11
65.206842
 21
94.418393
 31
0.0
 12
65.206842
 22
97.098605
 32
0.0
 13
65.187441
 23
97.085003
 33
0.0
  0
3DFACE
  8
0
  6
CONTINUOUS
 62
     7
 10
65.206842
 20
94.418393
 30
0.0
 11
65.226243
 21
94.404922
 31
0.0
 12
65.226243
 22
97.112207
 32
0.0
 13
65.206842
 23
97.098605
 33
0.0
  0
3DFACE
  8
0
  6
CONTINUOUS
 62
     7
 10
59.747446
 20
95.752053
 30
0.0
 11
59.766847
 21
95.738582
 31
0.0
 12
59.766847
 22
95.765655
 32
0.0
 13
59.747446
 23
95.752053
 33
0.0
  0
3DFACE
  8
0
  6
CONTINUOUS
 62
     7
 10
59.766847
 20
95.738582
 30
0.0
 11
59.786248
 21
95.725111
 31
0.0
 12
59.786248
 22
95.779256
 32
0.0
 13
59.766847
 23
95.765655
 33
0.0
  0
3DFACE
  8
0
  6
CONTINUOUS
 62
     7
 10
59.786248
 20
95.725111
 30
0.0
 11
59.805649
 21
95.711639
 31
0.0
 12
59.805649
 22
95.792858
 32
0.0
 13
59.786248
 23
95.779256
 33
0.0
  0
3DFACE
  8
0
  6
CONTINUOUS
 62
     7
 10
59.805649
 20
95.711639
 30
0.0
 11
59.825051
 21
95.698168
 31
0.0
 12
59.825051
 22
95.80646
 32
0.0
 13
59.805649
 23
95.792858
 33
0.0
  0
3DFACE
  8
0
  6
CONTINUOUS
 62
     7
 10
59.825051
 20
95.698168
 30
0.0
 11
59.844452
 21
95.684697
 31
0.0
 12
59.844452
 22
95.820061
 32
0.0
 13
59.825051
 23
95.80646
 33
0.0
  0
3DFACE
  8
0
  6
CONTINUOUS
 62
     7
 10
59.844452
 20
95.684697
 30
0.0
 11
59.863853
 21
95.671226
 31
0.0
 12
59.863853
 22
95.833663
 32
0.0
 13
59.844452
 23
95.820061
 33
0.0
  0
3DFACE
  8
0
  6
CONTINUOUS
 62
     7
 10
59.863853
 20
95.671226
 30
0.0
 11
59.883254
 21
95.657754
 31
0.0
 12
59.883254
 22
95.847264
 32
0.0
 13
59.863853
 23
95.833663
 33
0.0
  0
3DFACE
  8
0
  6
CONTINUOUS
 62
     7
 10
59.883254
 20
95.657754
 30
0.0
 11
59.902655
 21
95.644283
 31
0.0
 12
59.902655
 22
95.860866
 32
0.0
 13
59.883254
 23
95.847264
 33
0.0
  0
3DFACE
  8
0
  6
CONTINUOUS
 62
     7
 10
59.902655
 20
95.644283
 30
0.0
 11
59.922056
 21
95.630812
 31
0.0
 12
59.922056
 22
95.874467
 32
0.0
 13
59.902655
 23
95.860866
 33
0.0
  0
3DFACE
  8
0
  6
CONTINUOUS
 62
     7
 10
59.922056
 20
95.630812
 30
0.0
 11
59.941457
 21
95.61734
 31
0.0
 12
59.941457
 22
95.888069
 32
0.0
 13
59.922056
 23
95.874467
 33
0.0
  0
3DFACE
  8
0
  6
CONTINUOUS
 62
     7
 10
59.941457
 20
95.61734
 30
0.0
 11
59.960858
 21
95.603869
 31
0.0
 12
59.960858
 22
95.90167
 32
0.0
 13
59.941457
 23
95.888069
 33
0.0
  0
3DFACE
  8
0
  6
CONTINUOUS
 62
     7
 10
59.960858
 20
95.603869
 30
0.0
 11
59.980259
 21
95.590398
 31
0.0
 12
59.980259
 22
95.915272
 32
0.0
 13
59.960858
 23
95.90167
 33
0.0
  0
3DFACE
  8
0
  6
CONTINUOUS
 62
     7
 10
59.980259
 20
95.590398
 30
0.0
 11
59.99966
 21
95.576926
 31
0.0
 12
59.99966
 22
95.928873
 32
0.0
 13
59.980259
 23
95.915272
 33
0.0
  0
3DFACE
  8
0
  6
CONTINUOUS
 62
     7
 10
59.99966
 20
95.576926
 30
0.0
 11
60.019061
 21
95.563455
 31
0.0
 12
60.019061
 22
95.942475
 32
0.0
 13
59.99966
 23
95.928873
 33
0.0
  0
3DFACE
  8
0
  6
CONTINUOUS
 62
     7
 10
60.019061
 20
95.563455
 30
0.0
 11
60.038462
 21
95.549984
 31
0.0
 12
60.038462
 22
95.956076
 32
0.0
 13
60.019061
 23
95.942475
 33
0.0
  0
3DFACE
  8
0
  6
CONTINUOUS
 62
     7
 10
60.038462
 20
95.549984
 30
0.0
 11
60.057863
 21
95.536512
 31
0.0
 12
60.057863
 22
95.969678
 32
0.0
 13
60.038462
 23
95.956076
 33
0.0
  0
3DFACE
  8
0
  6
CONTINUOUS
 62
     7
 10
60.057863
 20
95.536512
 30
0.0
 11
60.077264
 21
95.523041
 31
0.0
 12
60.077264
 22
95.983279
 32
0.0
 13
60.057863
 23
95.969678
 33
0.0
  0
3DFACE
  8
0
  6
CONTINUOUS
 62
     7
 10
60.077264
 20
95.523041
 30
0.0
 11
60.096665
 21
95.50957
 31
0.0
 12
60.096665
 22
95.996881
 32
0.0
 13
60.077264
 23
95.983279
 33
0.0
  0
3DFACE
  8
0
  6
CONTINUOUS
 62
     7
 10
60.096665
 20
95.50957
 30
0.0
 11
60.116066
 21
95.496098
 31
0.0
 12
60.116066
 22
96.010483
 32
0.0
 13
60.096665
 23
95.996881
 33
0.0
  0
3DFACE
  8
0
  6
CONTINUOUS
 62
     7
 10
60.116066
 20
95.496098
 30
0.0
 11
60.135467
 21
95.482627
 31
0.0
 12
60.135467
 22
96.024084
 32
0.0
 13
60.116066
 23
96.010483
 33
0.0
  0
3DFACE
  8
0
  6
CONTINUOUS
 62
     7
 10
60.135467
 20
95.482627
 30
0.0
 11
60.154868
 21
95.469156
 31
0.0
 12
60.154868
 22
96.037686
 32
0.0
 13
60.135467
 23
96.024084
 33
0.0
  0
3DFACE
  8
0
  6
CONTINUOUS
 62
     7
 10
60.154868
 20
95.469156
 30
0.0
 11
60.174269
 21
95.455684
 31
0.0
 12
60.174269
 22
96.051287
 32
0.0
 13
60.154868
 23
96.037686
 33
0.0
  0
3DFACE
  8
0
  6
CONTINUOUS
 62
     7
 10
60.174269
 20
95.455684
 30
0.0
 11
60.19367
 21
95.442213
 31
0.0
 12
60.19367
 22
96.064889
 32
0.0
 13
60.174269
 23
96.051287
 33
0.0
  0
3DFACE
  8
0
  6
CONTINUOUS
 62
     7
 10
60.19367
 20
95.442213
 30
0.0
 11
60.213071
 21
95.428742
 31
0.0
 12
60.213071
 22
96.07849
 32
0.0
 13
60.19367
 23
96.064889
 33
0.0
  0
3DFACE
  8
0
  6
CONTINUOUS
 62
     7
 10
60.213071
 20
95.428742
 30
0.0
 11
60.232472
 21
95.415271
 31
0.0
 12
60.232472
 22
96.092092
 32
0.0
 13
60.213071
 23
96.07849
 33
0.0
  0
3DFACE
  8
0
  6
CONTINUOUS
 62
     7
 10
60.232472
 20
95.415271
 30
0.0
 11
60.251873
 21
95.401799
 31
0.0
 12
60.251873
 22
96.105693
 32
0.0
 13
60.232472
 23
96.092092
 33
0.0
  0
3DFACE
  8
0
  6
CONTINUOUS
 62
     7
 10
60.251873
 20
95.401799
 30
0.0
 11
60.271274
 21
95.388328
 31
0.0
 12
60.271274
 22
96.119295
 32
0.0
 13
60.251873
 23
96.105693
 33
0.0
  0
3DFACE
  8
0
  6
CONTINUOUS
 62
     7
 10
60.271274
 20
95.388328
 30
0.0
 11
60.290675
 21
95.374857
 31
0.0
 12
60.290675
 22
96.132896
 32
0.0
 13
60.271274
 23
96.119295
 33
0.0
  0
3DFACE
  8
0
  6
CONTINUOUS
 62
     7
 10
60.290675
 20
95.374857
 30
0.0
 11
60.310077
 21
95.361385
 31
0.0
 12
60.310077
 22
96.146498
 32
0.0
 13
60.290675
 23
96.132896
 33
0.0
  0
3DFACE
  8
0
  6
CONTINUOUS
 62
     7
 10
60.310077
 20
95.361385
 30
0.0
 11
60.329478
 21
95.347914
 31
0.0
 12
60.329478
 22
96.160099
 32
0.0
 13
60.310077
 23
96.146498
 33
0.0
  0
3DFACE
  8
0
  6
CONTINUOUS
 62
     7
 10
60.329478
 20
95.347914
 30
0.0
 11
60.348879
 21
95.334443
 31
0.0
 12
60.348879
 22
96.173701
 32
0.0
 13
60.329478
 23
96.160099
 33
0.0
  0
3DFACE
  8
0
  6
CONTINUOUS
 62
     7
 10
60.348879
 20
95.334443
 30
0.0
 11
60.36828
 21
95.320971
 31
0.0
 12
60.36828
 22
96.187302
 32
0.0
 13
60.348879
 23
96.173701
 33
0.0
  0
3DFACE
  8
0
  6
CONTINUOUS
 62
     7
 10
60.36828
 20
95.320971
 30
0.0
 11
60.387681
 21
95.3075
 31
0.0
 12
60.387681
 22
96.200904
 32
0.0
 13
60.36828
 23
96.187302
 33
0.0
  0
3DFACE
  8
0
  6
CONTINUOUS
 62
     7
 10
60.387681
 20
95.3075
 30
0.0
 11
60.407082
 21
95.294029
 31
0.0
 12
60.407082
 22
96.214505
 32
0.0
 13
60.387681
 23
96.200904
 33
0.0
  0
3DFACE
  8
0
  6
CONTINUOUS
 62
     7
 10
60.407082
 20
95.294029
 30
0.0
 11
60.426483
 21
95.280557
 31
0.0
 12
60.426483
 22
96.228107
 32
0.0
 13
60.407082
 23
96.214505
 33
0.0
  0
3DFACE
  8
0
  6
CONTINUOUS
 62
     7
 10
60.426483
 20
95.280557
 30
0.0
 11
60.445884
 21
95.267086
 31
0.0
 12
60.445884
 22
96.241709
 32
0.0
 13
60.426483
 23
96.228107
 33
0.0
  0
3DFACE
  8
0
  6
CONTINUOUS
 62
     7
 10
60.445884
 20
95.267086
 30
0.0
 11
60.465285
 21
95.253615
 31
0.0
 12
60.465285
 22
96.25531
 32
0.0
 13
60.445884
 23
96.241709
 33
0.0
  0
3DFACE
  8
0
  6
CONTINUOUS
 62
     7
 10
60.465285
 20
95.253615
 30
0.0
 11
60.484686
 21
95.240143
 31
0.0
 12
60.484686
 22
96.268912
 32
0.0
 13
60.465285
 23
96.25531
 33
0.0
  0
3DFACE
  8
0
  6
CONTINUOUS
 62
     7
 10
60.484686
 20
95.240143
 30
0.0
 11
60.504087
 21
95.226672
 31
0.0
 12
60.504087
 22
96.282513
 32
0.0
 13
60.484686
 23
96.268912
 33
0.0
  0
3DFACE
  8
0
  6
CONTINUOUS
 62
     7
 10
60.504087
 20
95.226672
 30
0.0
 11
60.523488
 21
95.213201
 31
0.0
 12
60.523488
 22
96.296115
 32
0.0
 13
60.504087
 23
96.282513
 33
0.0
  0
3DFACE
  8
0
  6
CONTINUOUS
 62
     7
 10
60.523488
 20
95.213201
 30
0.0
 11
60.542889
 21
95.199729
 31
0.0
 12
60.542889
 22
96.309716
 32
0.0
 13
60.523488
 23
96.296115
 33
0.0
  0
3DFACE
  8
0
  6
CONTINUOUS
 62
     7
 10
60.542889
 20
95.199729
 30
0.0
 11
60.56229
 21
95.186258
 31
0.0
 12
60.56229
 22
96.323318
 32
0.0
 13
60.542889
 23
96.309716
 33
0.0
  0
3DFACE
  8
0
  6
CONTINUOUS
 62
     7
 10
60.56229
 20
95.186258
 30
0.0
 11
60.581691
 21
95.172787
 31
0.0
 12
60.581691
 22
96.336919
 32
0.0
 13
60.56229
 23
96.323318
 33
0.0
  0
3DFACE
  8
0
  6
CONTINUOUS
 62
     7
 10
60.581691
 20
95.172787
 30
0.0
 11
60.601092
 21
95.159316
 31
0.0
 12
60.601092
 22
96.350521
 32
0.0
 13
60.581691
 23
96.336919
 33
0.0
  0
3DFACE
  8
0
  6
CONTINUOUS
 62
     7
 10
60.601092
 20
95.159316
 30
0.0
 11
60.620493
 21
95.145844
 31
0.0
 12
60.620493
 22
96.364122
 32
0.0
 13
60.601092
 23
96.350521
 33
0.0
  0
3DFACE
  8
0
  6
CONTINUOUS
 62
     7
 10
60.620493
 20
95.145844
 30
0.0
 11
60.639894
 21
95.132373
 31
0.0
 12
60.639894
 22
96.377724
 32
0.0
 13
60.620493
 23
96.364122
 33
0.0
  0
3DFACE
  8
0
  6
CONTINUOUS
 62
     7
 10
60.639894
 20
95.132373
 30
0.0
 11
60.659295
 21
95.118902
 31
0.0
 12
60.659295
 22
96.391325
 32
0.0
 13
60.639894
 23
96.377724
 33
0.0
  0
3DFACE
  8
0
  6
CONTINUOUS
 62
     7
 10
60.659295
 20
95.118902
 30
0.0
 11
60.678696
 21
95.10543
 31
0.0
 12
60.678696
 22
96.404927
 32
0.0
 13
60.659295
 23
96.391325
 33
0.0
  0
3DFACE
  8
0
  6
CONTINUOUS
 62
     7
 10
60.678696
 20
95.10543
 30
0.0
 11
60.698097
 21
95.091959
 31
0.0
 12
60.698097
 22
96.418528
 32
0.0
 13
60.678696
 23
96.404927
 33
0.0
  0
3DFACE
  8
0
  6
CONTINUOUS
 62
     7
 10
60.698097
 20
95.091959
 30
0.0
 11
60.717498
 21
95.078488
 31
0.0
 12
60.717498
 22
96.43213
 32
0.0
 13
60.698097
 23
96.418528
 33
0.0
  0
3DFACE
  8
0
  6
CONTINUOUS
 62
     7
 10
60.717498
 20
95.078488
 30
0.0
 11
60.736899
 21
95.065016
 31
0.0
 12
60.736899
 22
96.445731
 32
0.0
 13
60.717498
 23
96.43213
 33
0.0
  0
3DFACE
  8
0
  6
CONTINUOUS
 62
     7
 10
60.736899
 20
95.065016
 30
0.0
 11
60.7563
 21
95.051545
 31
0.0
 12
60.7563
 22
96.459333
 32
0.0
 13
60.736899
 23
96.445731
 33
0.0
  0
3DFACE
  8
0
  6
CONTINUOUS
 62
     7
 10
60.7563
 20
95.051545
 30
0.0
 11
60.775701
 21
95.038074
 31
0.0
 12
60.775701
 22
96.472935
 32
0.0
 13
60.7563
 23
96.459333
 33
0.0
  0
3DFACE
  8
0
  6
CONTINUOUS
 62
     7
 10
60.775701
 20
95.038074
 30
0.0
 11
60.795103
 21
95.024602
 31
0.0
 12
60.795103
 22
96.486536
 32
0.0
 13
60.775701
 23
96.472935
 33
0.0
  0
3DFACE
  8
0
  6
CONTINUOUS
 62
     7
 10
60.795103
 20
95.024602
 30
0.0
 11
60.814504
 21
95.011131
 31
0.0
 12
60.814504
 22
96.500138
 32
0.0
 13
60.795103
 23
96.486536
 33
0.0
  0
3DFACE
  8
0
  6
CONTINUOUS
 62
     7
 10
60.814504
 20
95.011131
 30
0.0
 11
60.833905
 21
94.99766
 31
0.0
 12
60.833905
 22
96.513739
 32
0.0
 13
60.814504
 23
96.500138
 33
0.0
  0
3DFACE
  8
0
  6
CONTINUOUS
 62
     7
 10
60.833905
 20
94.99766
 30
0.0
 11
60.853306
 21
94.984188
 31
0.0
 12
60.853306
 22
96.527341
 32
0.0
 13
60.833905
 23
96.513739
 33
0.0
  0
3DFACE
  8
0
  6
CONTINUOUS
 62
     7
 10
60.853306
 20
94.984188
 30
0.0
 11
60.872707
 21
94.970717
 31
0.0
 12
60.872707
 22
96.540942
 32
0.0
 13
60.853306
 23
96.527341
 33
0.0
  0
3DFACE
  8
0
  6
CONTINUOUS
 62
     7
 10
60.872707
 20
94.970717
 30
0.0
 11
60.892108
 21
94.957246
 31
0.0
 12
60.892108
 22
96.554544
 32
0.0
 13
60.872707
 23
96.540942
 33
0.0
  0
3DFACE
  8
0
  6
CONTINUOUS
 62
     7
 10
60.892108
 20
94.957246
 30
0.0
 11
60.911509
 21
94.943774
 31
0.0
 12
60.911509
 22
96.568145
 32
0.0
 13
60.892108
 23
96.554544
 33
0.0
  0
3DFACE
  8
0
  6
CONTINUOUS
 62
     7
 10
60.911509
 20
94.943774
 30
0.0
 11
60.93091
 21
94.930303
 31
0.0
 12
60.93091
 22
96.581747
 32
0.0
 13
60.911509
 23
96.568145
 33
0.0
  0
3DFACE
  8
0
  6
CONTINUOUS
 62
     7
 10
60.93091
 20
94.930303
 30
0.0
 11
60.950311
 21
94.916832
 31
0.0
 12
60.950311
 22
96.595348
 32
0.0
 13
60.93091
 23
96.581747
 33
0.0
  0
3DFACE
  8
0
  6
CONTINUOUS
 62
     7
 10
60.950311
 20
94.916832
 30
0.0
 11
60.969712
 21
94.903361
 31
0.0
 12
60.969712
 22
96.60895
 32
0.0
 13
60.950311
 23
96.595348
 33
0.0
  0
3DFACE
  8
0
  6
CONTINUOUS
 62
     7
 10
60.969712
 20
94.903361
 30
0.0
 11
60.989113
 21
94.889889
 31
0.0
 12
60.989113
 22
96.622551
 32
0.0
 13
60.969712
 23
96.60895
 33
0.0
  0
3DFACE
  8
0
  6
CONTINUOUS
 62
     7
 10
60.989113
 20
94.889889
 30
0.0
 11
61.008514
 21
94.876418
 31
0.0
 12
61.008514
 22
96.636153
 32
0.0
 13
60.989113
 23
96.622551
 33
0.0
  0
3DFACE
  8
0
  6
CONTINUOUS
 62
     7
 10
61.008514
 20
94.876418
 30
0.0
 11
61.027915
 21
94.862947
 31
0.0
 12
61.027915
 22
96.649754
 32
0.0
 13
61.008514
 23
96.636153
 33
0.0
  0
3DFACE
  8
0
  6
CONTINUOUS
 62
     7
 10
61.027915
 20
94.862947
 30
0.0
 11
61.047316
 21
94.849475
 31
0.0
 12
61.047316
 22
96.663356
 32
0.0
 13
61.027915
 23
96.649754
 33
0.0
  0
3DFACE
  8
0
  6
CONTINUOUS
 62
     7
 10
61.047316
 20
94.849475
 30
0.0
 11
61.066717
 21
94.836004
 31
0.0
 12
61.066717
 22
96.676958
 32
0.0
 13
61.047316
 23
96.663356
 33
0.0
  0
3DFACE
  8
0
  6
CONTINUOUS
 62
     7
 10
61.066717
 20
94.836004
 30
0.0
 11
61.086118
 21
94.822533
 31
0.0
 12
61.086118
 22
96.690559
 32
0.0
 13
61.066717
 23
96.676958
 33
0.0
  0
3DFACE
  8
0
  6
CONTINUOUS
 62
     7
 10
61.086118
 20
94.822533
 30
0.0
 11
61.105519
 21
94.809061
 31
0.0
 12
61.105519
 22
96.704161
 32
0.0
 13
61.086118
 23
96.690559
 33
0.0
  0
3DFACE
  8
0
  6
CONTINUOUS
 62
     7
 10
61.105519
 20
94.809061
 30
0.0
 11
61.12492
 21
94.79559
 31
0.0
 12
61.12492
 22
96.717762
 32
0.0
 13
61.105519
 23
96.704161
 33
0.0
  0
3DFACE
  8
0
  6
CONTINUOUS
 62
     7
 10
61.12492
 20
94.79559
 30
0.0
 11
61.144321
 21
94.782119
 31
0.0
 12
61.144321
 22
96.731364
 32
0.0
 13
61.12492
 23
96.717762
 33
0.0
  0
3DFACE
  8
0
  6
CONTINUOUS
 62
     7
 10
61.144321
 20
94.782119
 30
0.0
 11
61.163722
 21
94.768647
 31
0.0
 12
61.163722
 22
96.744965
 32
0.0
 13
61.144321
 23
96.731364
 33
0.0
  0
3DFACE
  8
0
  6
CONTINUOUS
 62
     7
 10
61.163722
 20
94.768647
 30
0.0
 11
61.183123
 21
94.755176
 31
0.0
 12
61.183123
 22
96.758567
 32
0.0
 13
61.163722
 23
96.744965
 33
0.0
  0
3DFACE
  8
0
  6
CONTINUOUS
 62
     7
 10
61.183123
 20
94.755176
 30
0.0
 11
61.202524
 21
94.741705
 31
0.0
 12
61.202524
 22
96.772168
 32
0.0
 13
61.183123
 23
96.758567
 33
0.0
  0
3DFACE
  8
0
  6
CONTINUOUS
 62
     7
 10
61.202524
 20
94.741705
 30
0.0
 11
61.221925
 21
94.728233
 31
0.0
 12
61.221925
 22
96.78577
 32
0.0
 13
61.202524
 23
96.772168
 33
0.0
  0
3DFACE
  8
0
  6
CONTINUOUS
 62
     7
 10
61.221925
 20
94.728233
 30
0.0
 11
61.241326
 21
94.714762
 31
0.0
 12
61.241326
 22
96.799371
 32
0.0
 13
61.221925
 23
96.78577
 33
0.0
  0
3DFACE
  8
0
  6
CONTINUOUS
 62
     7
 10
61.241326
 20
94.714762
 30
0.0
 11
61.260727
 21
94.701291
 31
0.0
 12
61.260727
 22
96.812973
 32
0.0
 13
61.241326
 23
96.799371
 33
0.0
  0
3DFACE
  8
0
  6
CONTINUOUS
 62
     7
 10
61.260727
 20
94.701291
 30
0.0
 11
61.280129
 21
94.687819
 31
0.0
 12
61.280129
 22
96.826574
 32
0.0
 13
61.260727
 23
96.812973
 33
0.0
  0
3DFACE
  8
0
  6
CONTINUOUS
 62
     7
 10
61.280129
 20
94.687819
 30
0.0
 11
61.29953
 21
94.674348
 31
0.0
 12
61.29953
 22
96.840176
 32
0.0
 13
61.280129
 23
96.826574
 33
0.0
  0
3DFACE
  8
0
  6
CONTINUOUS
 62
     7
 10
61.29953
 20
94.674348
 30
0.0
 11
61.318931
 21
94.660877
 31
0.0
 12
61.318931
 22
96.853777
 32
0.0
 13
61.29953
 23
96.840176
 33
0.0
  0
3DFACE
  8
0
  6
CONTINUOUS
 62
     7
 10
61.318931
 20
94.660877
 30
0.0
 11
61.338332
 21
94.647406
 31
0.0
 12
61.338332
 22
96.867379
 32
0.0
 13
61.318931
 23
96.853777
 33
0.0
  0
3DFACE
  8
0
  6
CONTINUOUS
 62
     7
 10
61.338332
 20
94.647406
 30
0.0
 11
61.357733
 21
94.633934
 31
0.0
 12
61.357733
 22
96.88098
 32
0.0
 13
61.338332
 23
96.867379
 33
0.0
  0
3DFACE
  8
0
  6
CONTINUOUS
 62
     7
 10
61.357733
 20
94.633934
 30
0.0
 11
61.377134
 21
94.620463
 31
0.0
 12
61.377134
 22
96.894582
 32
0.0
 13
61.357733
 23
96.88098
 33
0.0
  0
3DFACE
  8
0
  6
CONTINUOUS
 62
     7
 10
61.377134
 20
94.620463
 30
0.0
 11
61.396535
 21
94.606992
 31
0.0
 12
61.396535
 22
96.908184
 32
0.0
 13
61.377134
 23
96.894582
 33
0.0
  0
3DFACE
  8
0
  6
CONTINUOUS
 62
     7
 10
61.396535
 20
94.606992
 30
0.0
 11
61.415936
 21
94.59352
 31
0.0
 12
61.415936
 22
96.921785
 32
0.0
 13
61.396535
 23
96.908184
 33
0.0
  0
3DFACE
  8
0
  6
CONTINUOUS
 62
     7
 10
61.415936
 20
94.59352
 30
0.0
 11
61.435337
 21
94.580049
 31
0.0
 12
61.435337
 22
96.935387
 32
0.0
 13
61.415936
 23
96.921785
 33
0.0
  0
3DFACE
  8
0
  6
CONTINUOUS
 62
     7
 10
61.435337
 20
94.580049
 30
0.0
 11
61.454738
 21
94.566578
 31
0.0
 12
61.454738
 22
96.948988
 32
0.0
 13
61.435337
 23
96.935387
 33
0.0
  0
3DFACE
  8
0
  6
CONTINUOUS
 62
     7
 10
61.454738
 20
94.566578
 30
0.0
 11
61.474139
 21
94.553106
 31
0.0
 12
61.474139
 22
96.96259
 32
0.0
 13
61.454738
 23
96.948988
 33
0.0
  0
3DFACE
  8
0
  6
CONTINUOUS
 62
     7
 10
61.474139
 20
94.553106
 30
0.0
 11
61.49354
 21
94.539635
 31
0.0
 12
61.49354
 22
96.976191
 32
0.0
 13
61.474139
 23
96.96259
 33
0.0
  0
3DFACE
  8
0
  6
CONTINUOUS
 62
     7
 10
61.49354
 20
94.539635
 30
0.0
 11
61.512941
 21
94.526164
 31
0.0
 12
61.512941
 22
96.989793
 32
0.0
 13
61.49354
 23
96.976191
 33
0.0
  0
3DFACE
  8
0
  6
CONTINUOUS
 62
     7
 10
61.512941
 20
94.526164
 30
0.0
 11
61.532342
 21
94.512692
 31
0.0
 12
61.532342
 22
97.003394
 32
0.0
 13
61.512941
 23
96.989793
 33
0.0
  0
3DFACE
  8
0
  6
CONTINUOUS
 62
     7
 10
61.532342
 20
94.512692
 30
0.0
 11
61.551743
 21
94.499221
 31
0.0
 12
61.551743
 22
97.016996
 32
0.0
 13
61.532342
 23
97.003394
 33
0.0
  0
3DFACE
  8
0
  6
CONTINUOUS
 62
     7
 10
61.551743
 20
94.499221
 30
0.0
 11
61.571144
 21
94.48575
 31
0.0
 12
61.571144
 22
97.030597
 32
0.0
 13
61.551743
 23
97.016996
 33
0.0
  0
3DFACE
  8
0
  6
CONTINUOUS
 62
     7
 10
61.571144
 20
94.48575
 30
0.0
 11
61.590545
 21
94.472278
 31
0.0
 12
61.590545
 22
97.044199
 32
0.0
 13
61.571144
 23
97.030597
 33
0.0
  0
3DFACE
  8
0
  6
CONTINUOUS
 62
     7
 10
61.590545
 20
94.472278
 30
0.0
 11
61.609946
 21
94.458807
 31
0.0
 12
61.609946
 22
97.0578
 32
0.0
 13
61.590545
 23
97.044199
 33
0.0
  0
3DFACE
  8
0
  6
CONTINUOUS
 62
     7
 10
61.609946
 20
94.458807
 30
0.0
 11
61.629347
 21
94.445336
 31
0.0
 12
61.629347
 22
97.071402
 32
0.0
 13
61.609946
 23
97.0578
 33
0.0
  0
3DFACE
  8
0
  6
CONTINUOUS
 62
     7
 10
61.629347
 20
94.445336
 30
0.0
 11
61.648748
 21
94.431864
 31
0.0
 12
61.648748
 22
97.085003
 32
0.0
 13
61.629347
 23
97.071402
 33
0.0
  0
3DFACE
  8
0
  6
CONTINUOUS
 62
     7
 10
61.648748
 20
94.431864
 30
0.0
 11
61.668149
 21
94.418393
 31
0.0
 12
61.668149
 22
97.098605
 32
0.0
 13
61.648748
 23
97.085003
 33
0.0
  0
3DFACE
  8
0
  6
CONTINUOUS
 62
     7
 10
61.668149
 20
94.418393
 30
0.0
 11
61.68755
 21
94.404922
 31
0.0
 12
61.68755
 22
97.112207
 32
0.0
 13
61.668149
 23
97.098605
 33
0.0
  0
3DFACE
  8
0
  6
CONTINUOUS
 62
     7
 10
55.955991
 20
95.752053
 30
0.0
 11
55.975392
 21
95.738582
 31
0.0
 12
55.975392
 22
95.765655
 32
0.0
 13
55.955991
 23
95.752053
 33
0.0
  0
3DFACE
  8
0
  6
CONTINUOUS
 62
     7
 10
55.975392
 20
95.738582
 30
0.0
 11
55.994793
 21
95.725111
 31
0.0
 12
55.994793
 22
95.779256
 32
0.0
 13
55.975392
 23
95.765655
 33
0.0
  0
3DFACE
  8
0
  6
CONTINUOUS
 62
     7
 10
55.994793
 20
95.725111
 30
0.0
 11
56.014194
 21
95.711639
 31
0.0
 12
56.014194
 22
95.792858
 32
0.0
 13
55.994793
 23
95.779256
 33
0.0
  0
3DFACE
  8
0
  6
CONTINUOUS
 62
     7
 10
56.014194
 20
95.711639
 30
0.0
 11
56.033595
 21
95.698168
 31
0.0
 12
56.033595
 22
95.80646
 32
0.0
 13
56.014194
 23
95.792858
 33
0.0
  0
3DFACE
  8
0
  6
CONTINUOUS
 62
     7
 10
56.033595
 20
95.698168
 30
0.0
 11
56.052996
 21
95.684697
 31
0.0
 12
56.052996
 22
95.820061
 32
0.0
 13
56.033595
 23
95.80646
 33
0.0
  0
3DFACE
  8
0
  6
CONTINUOUS
 62
     7
 10
56.052996
 20
95.684697
 30
0.0
 11
56.072397
 21
95.671226
 31
0.0
 12
56.072397
 22
95.833663
 32
0.0
 13
56.052996
 23
95.820061
 33
0.0
  0
3DFACE
  8
0
  6
CONTINUOUS
 62
     7
 10
56.072397
 20
95.671226
 30
0.0
 11
56.091798
 21
95.657754
 31
0.0
 12
56.091798
 22
95.847264
 32
0.0
 13
56.072397
 23
95.833663
 33
0.0
  0
3DFACE
  8
0
  6
CONTINUOUS
 62
     7
 10
56.091798
 20
95.657754
 30
0.0
 11
56.111199
 21
95.644283
 31
0.0
 12
56.111199
 22
95.860866
 32
0.0
 13
56.091798
 23
95.847264
 33
0.0
  0
3DFACE
  8
0
  6
CONTINUOUS
 62
     7
 10
56.111199
 20
95.644283
 30
0.0
 11
56.1306
 21
95.630812
 31
0.0
 12
56.1306
 22
95.874467
 32
0.0
 13
56.111199
 23
95.860866
 33
0.0
  0
3DFACE
  8
0
  6
CONTINUOUS
 62
     7
 10
56.1306
 20
95.630812
 30
0.0
 11
56.150001
 21
95.61734
 31
0.0
 12
56.150001
 22
95.888069
 32
0.0
 13
56.1306
 23
95.874467
 33
0.0
  0
3DFACE
  8
0
  6
CONTINUOUS
 62
     7
 10
56.150001
 20
95.61734
 30
0.0
 11
56.169402
 21
95.603869
 31
0.0
 12
56.169402
 22
95.90167
 32
0.0
 13
56.150001
 23
95.888069
 33
0.0
  0
3DFACE
  8
0
  6
CONTINUOUS
 62
     7
 10
56.169402
 20
95.603869
 30
0.0
 11
56.188803
 21
95.590398
 31
0.0
 12
56.188803
 22
95.915272
 32
0.0
 13
56.169402
 23
95.90167
 33
0.0
  0
3DFACE
  8
0
  6
CONTINUOUS
 62
     7
 10
56.188803
 20
95.590398
 30
0.0
 11
56.208204
 21
95.576926
 31
0.0
 12
56.208204
 22
95.928873
 32
0.0
 13
56.188803
 23
95.915272
 33
0.0
  0
3DFACE
  8
0
  6
CONTINUOUS
 62
     7
 10
56.208204
 20
95.576926
 30
0.0
 11
56.227605
 21
95.563455
 31
0.0
 12
56.227605
 22
95.942475
 32
0.0
 13
56.208204
 23
95.928873
 33
0.0
  0
3DFACE
  8
0
  6
CONTINUOUS
 62
     7
 10
56.227605
 20
95.563455
 30
0.0
 11
56.247006
 21
95.549984
 31
0.0
 12
56.247006
 22
95.956076
 32
0.0
 13
56.227605
 23
95.942475
 33
0.0
  0
3DFACE
  8
0
  6
CONTINUOUS
 62
     7
 10
56.247006
 20
95.549984
 30
0.0
 11
56.266408
 21
95.536512
 31
0.0
 12
56.266408
 22
95.969678
 32
0.0
 13
56.247006
 23
95.956076
 33
0.0
  0
3DFACE
  8
0
  6
CONTINUOUS
 62
     7
 10
56.266408
 20
95.536512
 30
0.0
 11
56.285809
 21
95.523041
 31
0.0
 12
56.285809
 22
95.983279
 32
0.0
 13
56.266408
 23
95.969678
 33
0.0
  0
3DFACE
  8
0
  6
CONTINUOUS
 62
     7
 10
56.285809
 20
95.523041
 30
0.0
 11
56.30521
 21
95.50957
 31
0.0
 12
56.30521
 22
95.996881
 32
0.0
 13
56.285809
 23
95.983279
 33
0.0
  0
3DFACE
  8
0
  6
CONTINUOUS
 62
     7
 10
56.30521
 20
95.50957
 30
0.0
 11
56.324611
 21
95.496098
 31
0.0
 12
56.324611
 22
96.010483
 32
0.0
 13
56.30521
 23
95.996881
 33
0.0
  0
3DFACE
  8
0
  6
CONTINUOUS
 62
     7
 10
56.324611
 20
95.496098
 30
0.0
 11
56.344012
 21
95.482627
 31
0.0
 12
56.344012
 22
96.024084
 32
0.0
 13
56.324611
 23
96.010483
 33
0.0
  0
3DFACE
  8
0
  6
CONTINUOUS
 62
     7
 10
56.344012
 20
95.482627
 30
0.0
 11
56.363413
 21
95.469156
 31
0.0
 12
56.363413
 22
96.037686
 32
0.0
 13
56.344012
 23
96.024084
 33
0.0
  0
3DFACE
  8
0
  6
CONTINUOUS
 62
     7
 10
56.363413
 20
95.469156
 30
0.0
 11
56.382814
 21
95.455684
 31
0.0
 12
56.382814
 22
96.051287
 32
0.0
 13
56.363413
 23
96.037686
 33
0.0
  0
3DFACE
  8
0
  6
CONTINUOUS
 62
     7
 10
56.382814
 20
95.455684
 30
0.0
 11
56.402215
 21
95.442213
 31
0.0
 12
56.402215
 22
96.064889
 32
0.0
 13
56.382814
 23
96.051287
 33
0.0
  0
3DFACE
  8
0
  6
CONTINUOUS
 62
     7
 10
56.402215
 20
95.442213
 30
0.0
 11
56.421616
 21
95.428742
 31
0.0
 12
56.421616
 22
96.07849
 32
0.0
 13
56.402215
 23
96.064889
 33
0.0
  0
3DFACE
  8
0
  6
CONTINUOUS
 62
     7
 10
56.421616
 20
95.428742
 30
0.0
 11
56.441017
 21
95.415271
 31
0.0
 12
56.441017
 22
96.092092
 32
0.0
 13
56.421616
 23
96.07849
 33
0.0
  0
3DFACE
  8
0
  6
CONTINUOUS
 62
     7
 10
56.441017
 20
95.415271
 30
0.0
 11
56.460418
 21
95.401799
 31
0.0
 12
56.460418
 22
96.105693
 32
0.0
 13
56.441017
 23
96.092092
 33
0.0
  0
3DFACE
  8
0
  6
CONTINUOUS
 62
     7
 10
56.460418
 20
95.401799
 30
0.0
 11
56.479819
 21
95.388328
 31
0.0
 12
56.479819
 22
96.119295
 32
0.0
 13
56.460418
 23
96.105693
 33
0.0
  0
3DFACE
  8
0
  6
CONTINUOUS
 62
     7
 10
56.479819
 20
95.388328
 30
0.0
 11
56.49922
 21
95.374857
 31
0.0
 12
56.49922
 22
96.132896
 32
0.0
 13
56.479819
 23
96.119295
 33
0.0
  0
3DFACE
  8
0
  6
CONTINUOUS
 62
     7
 10
56.49922
 20
95.374857
 30
0.0
 11
56.518621
 21
95.361385
 31
0.0
 12
56.518621
 22
96.146498
 32
0.0
 13
56.49922
 23
96.132896
 33
0.0
  0
3DFACE
  8
0
  6
CONTINUOUS
 62
     7
 10
56.518621
 20
95.361385
 30
0.0
 11
56.538022
 21
95.347914
 31
0.0
 12
56.538022
 22
96.160099
 32
0.0
 13
56.518621
 23
96.146498
 33
0.0
  0
3DFACE
  8
0
  6
CONTINUOUS
 62
     7
 10
56.538022
 20
95.347914
 30
0.0
 11
56.557423
 21
95.334443
 31
0.0
 12
56.557423
 22
96.173701
 32
0.0
 13
56.538022
 23
96.160099
 33
0.0
  0
3DFACE
  8
0
  6
CONTINUOUS
 62
     7
 10
56.557423
 20
95.334443
 30
0.0
 11
56.576824
 21
95.320971
 31
0.0
 12
56.576824
 22
96.187302
 32
0.0
 13
56.557423
 23
96.173701
 33
0.0
  0
3DFACE
  8
0
  6
CONTINUOUS
 62
     7
 10
56.576824
 20
95.320971
 30
0.0
 11
56.596225
 21
95.3075
 31
0.0
 12
56.596225
 22
96.200904
 32
0.0
 13
56.576824
 23
96.187302
 33
0.0
  0
3DFACE
  8
0
  6
CONTINUOUS
 62
     7
 10
56.596225
 20
95.3075
 30
0.0
 11
56.615626
 21
95.294029
 31
0.0
 12
56.615626
 22
96.214505
 32
0.0
 13
56.596225
 23
96.200904
 33
0.0
  0
3DFACE
  8
0
  6
CONTINUOUS
 62
     7
 10
56.615626
 20
95.294029
 30
0.0
 11
56.635027
 21
95.280557
 31
0.0
 12
56.635027
 22
96.228107
 32
0.0
 13
56.615626
 23
96.214505
 33
0.0
  0
3DFACE
  8
0
  6
CONTINUOUS
 62
     7
 10
56.635027
 20
95.280557
 30
0.0
 11
56.654428
 21
95.267086
 31
0.0
 12
56.654428
 22
96.241709
 32
0.0
 13
56.635027
 23
96.228107
 33
0.0
  0
3DFACE
  8
0
  6
CONTINUOUS
 62
     7
 10
56.654428
 20
95.267086
 30
0.0
 11
56.673829
 21
95.253615
 31
0.0
 12
56.673829
 22
96.25531
 32
0.0
 13
56.654428
 23
96.241709
 33
0.0
  0
3DFACE
  8
0
  6
CONTINUOUS
 62
     7
 10
56.673829
 20
95.253615
 30
0.0
 11
56.69323
 21
95.240143
 31
0.0
 12
56.69323
 22
96.268912
 32
0.0
 13
56.673829
 23
96.25531
 33
0.0
  0
3DFACE
  8
0
  6
CONTINUOUS
 62
     7
 10
56.69323
 20
95.240143
 30
0.0
 11
56.712631
 21
95.226672
 31
0.0
 12
56.712631
 22
96.282513
 32
0.0
 13
56.69323
 23
96.268912
 33
0.0
  0
3DFACE
  8
0
  6
CONTINUOUS
 62
     7
 10
56.712631
 20
95.226672
 30
0.0
 11
56.732032
 21
95.213201
 31
0.0
 12
56.732032
 22
96.296115
 32
0.0
 13
56.712631
 23
96.282513
 33
0.0
  0
3DFACE
  8
0
  6
CONTINUOUS
 62
     7
 10
56.732032
 20
95.213201
 30
0.0
 11
56.751434
 21
95.199729
 31
0.0
 12
56.751434
 22
96.309716
 32
0.0
 13
56.732032
 23
96.296115
 33
0.0
  0
3DFACE
  8
0
  6
CONTINUOUS
 62
     7
 10
56.751434
 20
95.199729
 30
0.0
 11
56.770835
 21
95.186258
 31
0.0
 12
56.770835
 22
96.323318
 32
0.0
 13
56.751434
 23
96.309716
 33
0.0
  0
3DFACE
  8
0
  6
CONTINUOUS
 62
     7
 10
56.770835
 20
95.186258
 30
0.0
 11
56.790236
 21
95.172787
 31
0.0
 12
56.790236
 22
96.336919
 32
0.0
 13
56.770835
 23
96.323318
 33
0.0
  0
3DFACE
  8
0
  6
CONTINUOUS
 62
     7
 10
56.790236
 20
95.172787
 30
0.0
 11
56.809637
 21
95.159316
 31
0.0
 12
56.809637
 22
96.350521
 32
0.0
 13
56.790236
 23
96.336919
 33
0.0
  0
3DFACE
  8
0
  6
CONTINUOUS
 62
     7
 10
56.809637
 20
95.159316
 30
0.0
 11
56.829038
 21
95.145844
 31
0.0
 12
56.829038
 22
96.364122
 32
0.0
 13
56.809637
 23
96.350521
 33
0.0
  0
3DFACE
  8
0
  6
CONTINUOUS
 62
     7
 10
56.829038
 20
95.145844
 30
0.0
 11
56.848439
 21
95.132373
 31
0.0
 12
56.848439
 22
96.377724
 32
0.0
 13
56.829038
 23
96.364122
 33
0.0
  0
3DFACE
  8
0
  6
CONTINUOUS
 62
     7
 10
56.848439
 20
95.132373
 30
0.0
 11
56.86784
 21
95.118902
 31
0.0
 12
56.86784
 22
96.391325
 32
0.0
 13
56.848439
 23
96.377724
 33
0.0
  0
3DFACE
  8
0
  6
CONTINUOUS
 62
     7
 10
56.86784
 20
95.118902
 30
0.0
 11
56.887241
 21
95.10543
 31
0.0
 12
56.887241
 22
96.404927
 32
0.0
 13
56.86784
 23
96.391325
 33
0.0
  0
3DFACE
  8
0
  6
CONTINUOUS
 62
     7
 10
56.887241
 20
95.10543
 30
0.0
 11
56.906642
 21
95.091959
 31
0.0
 12
56.906642
 22
96.418528
 32
0.0
 13
56.887241
 23
96.404927
 33
0.0
  0
3DFACE
  8
0
  6
CONTINUOUS
 62
     7
 10
56.906642
 20
95.091959
 30
0.0
 11
56.926043
 21
95.078488
 31
0.0
 12
56.926043
 22
96.43213
 32
0.0
 13
56.906642
 23
96.418528
 33
0.0
  0
3DFACE
  8
0
  6
CONTINUOUS
 62
     7
 10
56.926043
 20
95.078488
 30
0.0
 11
56.945444
 21
95.065016
 31
0.0
 12
56.945444
 22
96.445731
 32
0.0
 13
56.926043
 23
96.43213
 33
0.0
  0
3DFACE
  8
0
  6
CONTINUOUS
 62
     7
 10
56.945444
 20
95.065016
 30
0.0
 11
56.964845
 21
95.051545
 31
0.0
 12
56.964845
 22
96.459333
 32
0.0
 13
56.945444
 23
96.445731
 33
0.0
  0
3DFACE
  8
0
  6
CONTINUOUS
 62
     7
 10
56.964845
 20
95.051545
 30
0.0
 11
56.984246
 21
95.038074
 31
0.0
 12
56.984246
 22
96.472935
 32
0.0
 13
56.964845
 23
96.459333
 33
0.0
  0
3DFACE
  8
0
  6
CONTINUOUS
 62
     7
 10
56.984246
 20
95.038074
 30
0.0
 11
57.003647
 21
95.024602
 31
0.0
 12
57.003647
 22
96.486536
 32
0.0
 13
56.984246
 23
96.472935
 33
0.0
  0
3DFACE
  8
0
  6
CONTINUOUS
 62
     7
 10
57.003647
 20
95.024602
 30
0.0
 11
57.023048
 21
95.011131
 31
0.0
 12
57.023048
 22
96.500138
 32
0.0
 13
57.003647
 23
96.486536
 33
0.0
  0
3DFACE
  8
0
  6
CONTINUOUS
 62
     7
 10
57.023048
 20
95.011131
 30
0.0
 11
57.042449
 21
94.99766
 31
0.0
 12
57.042449
 22
96.513739
 32
0.0
 13
57.023048
 23
96.500138
 33
0.0
  0
3DFACE
  8
0
  6
CONTINUOUS
 62
     7
 10
57.042449
 20
94.99766
 30
0.0
 11
57.06185
 21
94.984188
 31
0.0
 12
57.06185
 22
96.527341
 32
0.0
 13
57.042449
 23
96.513739
 33
0.0
  0
3DFACE
  8
0
  6
CONTINUOUS
 62
     7
 10
57.06185
 20
94.984188
 30
0.0
 11
57.081251
 21
94.970717
 31
0.0
 12
57.081251
 22
96.540942
 32
0.0
 13
57.06185
 23
96.527341
 33
0.0
  0
3DFACE
  8
0
  6
CONTINUOUS
 62
     7
 10
57.081251
 20
94.970717
 30
0.0
 11
57.100652
 21
94.957246
 31
0.0
 12
57.100652
 22
96.554544
 32
0.0
 13
57.081251
 23
96.540942
 33
0.0
  0
3DFACE
  8
0
  6
CONTINUOUS
 62
     7
 10
57.100652
 20
94.957246
 30
0.0
 11
57.120053
 21
94.943774
 31
0.0
 12
57.120053
 22
96.568145
 32
0.0
 13
57.100652
 23
96.554544
 33
0.0
  0
3DFACE
  8
0
  6
CONTINUOUS
 62
     7
 10
57.120053
 20
94.943774
 30
0.0
 11
57.139454
 21
94.930303
 31
0.0
 12
57.139454
 22
96.581747
 32
0.0
 13
57.120053
 23
96.568145
 33
0.0
  0
3DFACE
  8
0
  6
CONTINUOUS
 62
     7
 10
57.139454
 20
94.930303
 30
0.0
 11
57.158855
 21
94.916832
 31
0.0
 12
57.158855
 22
96.595348
 32
0.0
 13
57.139454
 23
96.581747
 33
0.0
  0
3DFACE
  8
0
  6
CONTINUOUS
 62
     7
 10
57.158855
 20
94.916832
 30
0.0
 11
57.178256
 21
94.903361
 31
0.0
 12
57.178256
 22
96.60895
 32
0.0
 13
57.158855
 23
96.595348
 33
0.0
  0
3DFACE
  8
0
  6
CONTINUOUS
 62
     7
 10
57.178256
 20
94.903361
 30
0.0
 11
57.197657
 21
94.889889
 31
0.0
 12
57.197657
 22
96.622551
 32
0.0
 13
57.178256
 23
96.60895
 33
0.0
  0
3DFACE
  8
0
  6
CONTINUOUS
 62
     7
 10
57.197657
 20
94.889889
 30
0.0
 11
57.217058
 21
94.876418
 31
0.0
 12
57.217058
 22
96.636153
 32
0.0
 13
57.197657
 23
96.622551
 33
0.0
  0
3DFACE
  8
0
  6
CONTINUOUS
 62
     7
 10
57.217058
 20
94.876418
 30
0.0
 11
57.236459
 21
94.862947
 31
0.0
 12
57.236459
 22
96.649754
 32
0.0
 13
57.217058
 23
96.636153
 33
0.0
  0
3DFACE
  8
0
  6
CONTINUOUS
 62
     7
 10
57.236459
 20
94.862947
 30
0.0
 11
57.255861
 21
94.849475
 31
0.0
 12
57.255861
 22
96.663356
 32
0.0
 13
57.236459
 23
96.649754
 33
0.0
  0
3DFACE
  8
0
  6
CONTINUOUS
 62
     7
 10
57.255861
 20
94.849475
 30
0.0
 11
57.275262
 21
94.836004
 31
0.0
 12
57.275262
 22
96.676958
 32
0.0
 13
57.255861
 23
96.663356
 33
0.0
  0
3DFACE
  8
0
  6
CONTINUOUS
 62
     7
 10
57.275262
 20
94.836004
 30
0.0
 11
57.294663
 21
94.822533
 31
0.0
 12
57.294663
 22
96.690559
 32
0.0
 13
57.275262
 23
96.676958
 33
0.0
  0
3DFACE
  8
0
  6
CONTINUOUS
 62
     7
 10
57.294663
 20
94.822533
 30
0.0
 11
57.314064
 21
94.809061
 31
0.0
 12
57.314064
 22
96.704161
 32
0.0
 13
57.294663
 23
96.690559
 33
0.0
  0
3DFACE
  8
0
  6
CONTINUOUS
 62
     7
 10
57.314064
 20
94.809061
 30
0.0
 11
57.333465
 21
94.79559
 31
0.0
 12
57.333465
 22
96.717762
 32
0.0
 13
57.314064
 23
96.704161
 33
0.0
  0
3DFACE
  8
0
  6
CONTINUOUS
 62
     7
 10
57.333465
 20
94.79559
 30
0.0
 11
57.352866
 21
94.782119
 31
0.0
 12
57.352866
 22
96.731364
 32
0.0
 13
57.333465
 23
96.717762
 33
0.0
  0
3DFACE
  8
0
  6
CONTINUOUS
 62
     7
 10
57.352866
 20
94.782119
 30
0.0
 11
57.372267
 21
94.768647
 31
0.0
 12
57.372267
 22
96.744965
 32
0.0
 13
57.352866
 23
96.731364
 33
0.0
  0
3DFACE
  8
0
  6
CONTINUOUS
 62
     7
 10
57.372267
 20
94.768647
 30
0.0
 11
57.391668
 21
94.755176
 31
0.0
 12
57.391668
 22
96.758567
 32
0.0
 13
57.372267
 23
96.744965
 33
0.0
  0
3DFACE
  8
0
  6
CONTINUOUS
 62
     7
 10
57.391668
 20
94.755176
 30
0.0
 11
57.411069
 21
94.741705
 31
0.0
 12
57.411069
 22
96.772168
 32
0.0
 13
57.391668
 23
96.758567
 33
0.0
  0
3DFACE
  8
0
  6
CONTINUOUS
 62
     7
 10
57.411069
 20
94.741705
 30
0.0
 11
57.43047
 21
94.728233
 31
0.0
 12
57.43047
 22
96.78577
 32
0.0
 13
57.411069
 23
96.772168
 33
0.0
  0
3DFACE
  8
0
  6
CONTINUOUS
 62
     7
 10
57.43047
 20
94.728233
 30
0.0
 11
57.449871
 21
94.714762
 31
0.0
 12
57.449871
 22
96.799371
 32
0.0
 13
57.43047
 23
96.78577
 33
0.0
  0
3DFACE
  8
0
  6
CONTINUOUS
 62
     7
 10
57.449871
 20
94.714762
 30
0.0
 11
57.469272
 21
94.701291
 31
0.0
 12
57.469272
 22
96.812973
 32
0.0
 13
57.449871
 23
96.799371
 33
0.0
  0
3DFACE
  8
0
  6
CONTINUOUS
 62
     7
 10
57.469272
 20
94.701291
 30
0.0
 11
57.488673
 21
94.687819
 31
0.0
 12
57.488673
 22
96.826574
 32
0.0
 13
57.469272
 23
96.812973
 33
0.0
  0
3DFACE
  8
0
  6
CONTINUOUS
 62
     7
 10
57.488673
 20
94.687819
 30
0.0
 11
57.508074
 21
94.674348
 31
0.0
 12
57.508074
 22
96.840176
 32
0.0
 13
57.488673
 23
96.826574
 33
0.0
  0
3DFACE
  8
0
  6
CONTINUOUS
 62
     7
 10
57.508074
 20
94.674348
 30
0.0
 11
57.527475
 21
94.660877
 31
0.0
 12
57.527475
 22
96.853777
 32
0.0
 13
57.508074
 23
96.840176
 33
0.0
  0
3DFACE
  8
0
  6
CONTINUOUS
 62
     7
 10
57.527475
 20
94.660877
 30
0.0
 11
57.546876
 21
94.647406
 31
0.0
 12
57.546876
 22
96.867379
 32
0.0
 13
57.527475
 23
96.853777
 33
0.0
  0
3DFACE
  8
0
  6
CONTINUOUS
 62
     7
 10
57.546876
 20
94.647406
 30
0.0
 11
57.566277
 21
94.633934
 31
0.0
 12
57.566277
 22
96.88098
 32
0.0
 13
57.546876
 23
96.867379
 33
0.0
  0
3DFACE
  8
0
  6
CONTINUOUS
 62
     7
 10
57.566277
 20
94.633934
 30
0.0
 11
57.585678
 21
94.620463
 31
0.0
 12
57.585678
 22
96.894582
 32
0.0
 13
57.566277
 23
96.88098
 33
0.0
  0
3DFACE
  8
0
  6
CONTINUOUS
 62
     7
 10
57.585678
 20
94.620463
 30
0.0
 11
57.605079
 21
94.606992
 31
0.0
 12
57.605079
 22
96.908184
 32
0.0
 13
57.585678
 23
96.894582
 33
0.0
  0
3DFACE
  8
0
  6
CONTINUOUS
 62
     7
 10
57.605079
 20
94.606992
 30
0.0
 11
57.62448
 21
94.59352
 31
0.0
 12
57.62448
 22
96.921785
 32
0.0
 13
57.605079
 23
96.908184
 33
0.0
  0
3DFACE
  8
0
  6
CONTINUOUS
 62
     7
 10
57.62448
 20
94.59352
 30
0.0
 11
57.643881
 21
94.580049
 31
0.0
 12
57.643881
 22
96.935387
 32
0.0
 13
57.62448
 23
96.921785
 33
0.0
  0
3DFACE
  8
0
  6
CONTINUOUS
 62
     7
 10
57.643881
 20
94.580049
 30
0.0
 11
57.663282
 21
94.566578
 31
0.0
 12
57.663282
 22
96.948988
 32
0.0
 13
57.643881
 23
96.935387
 33
0.0
  0
3DFACE
  8
0
  6
CONTINUOUS
 62
     7
 10
57.663282
 20
94.566578
 30
0.0
 11
57.682683
 21
94.553106
 31
0.0
 12
57.682683
 22
96.96259
 32
0.0
 13
57.663282
 23
96.948988
 33
0.0
  0
3DFACE
  8
0
  6
CONTINUOUS
 62
     7
 10
57.682683
 20
94.553106
 30
0.0
 11
57.702084
 21
94.539635
 31
0.0
 12
57.702084
 22
96.976191
 32
0.0
 13
57.682683
 23
96.96259
 33
0.0
  0
3DFACE
  8
0
  6
CONTINUOUS
 62
     7
 10
57.702084
 20
94.539635
 30
0.0
 11
57.721485
 21
94.526164
 31
0.0
 12
57.721485
 22
96.989793
 32
0.0
 13
57.702084
 23
96.976191
 33
0.0
  0
3DFACE
  8
0
  6
CONTINUOUS
 62
     7
 10
57.721485
 20
94.526164
 30
0.0
 11
57.740887
 21
94.512692
 31
0.0
 12
57.740887
 22
97.003394
 32
0.0
 13
57.721485
 23
96.989793
 33
0.0
  0
3DFACE
  8
0
  6
CONTINUOUS
 62
     7
 10
57.740887
 20
94.512692
 30
0.0
 11
57.760288
 21
94.499221
 31
0.0
 12
57.760288
 22
97.016996
 32
0.0
 13
57.740887
 23
97.003394
 33
0.0
  0
3DFACE
  8
0
  6
CONTINUOUS
 62
     7
 10
57.760288
 20
94.499221
 30
0.0
 11
57.779689
 21
94.48575
 31
0.0
 12
57.779689
 22
97.030597
 32
0.0
 13
57.760288
 23
97.016996
 33
0.0
  0
3DFACE
  8
0
  6
CONTINUOUS
 62
     7
 10
57.779689
 20
94.48575
 30
0.0
 11
57.79909
 21
94.472278
 31
0.0
 12
57.79909
 22
97.044199
 32
0.0
 13
57.779689
 23
97.030597
 33
0.0
  0
3DFACE
  8
0
  6
CONTINUOUS
 62
     7
 10
57.79909
 20
94.472278
 30
0.0
 11
57.818491
 21
94.458807
 31
0.0
 12
57.818491
 22
97.0578
 32
0.0
 13
57.79909
 23
97.044199
 33
0.0
  0
3DFACE
  8
0
  6
CONTINUOUS
 62
     7
 10
57.818491
 20
94.458807
 30
0.0
 11
57.837892
 21
94.445336
 31
0.0
 12
57.837892
 22
97.071402
 32
0.0
 13
57.818491
 23
97.0578
 33
0.0
  0
3DFACE
  8
0
  6
CONTINUOUS
 62
     7
 10
57.837892
 20
94.445336
 30
0.0
 11
57.857293
 21
94.431864
 31
0.0
 12
57.857293
 22
97.085003
 32
0.0
 13
57.837892
 23
97.071402
 33
0.0
  0
3DFACE
  8
0
  6
CONTINUOUS
 62
     7
 10
57.857293
 20
94.431864
 30
0.0
 11
57.876694
 21
94.418393
 31
0.0
 12
57.876694
 22
97.098605
 32
0.0
 13
57.857293
 23
97.085003
 33
0.0
  0
3DFACE
  8
0
  6
CONTINUOUS
 62
     7
 10
57.876694
 20
94.418393
 30
0.0
 11
57.896095
 21
94.404922
 31
0.0
 12
57.896095
 22
97.112207
 32
0.0
 13
57.876694
 23
97.098605
 33
0.0
  0
3DFACE
  8
0
  6
CONTINUOUS
 62
     7
 10
52.164535
 20
95.752053
 30
0.0
 11
52.183936
 21
95.738582
 31
0.0
 12
52.183936
 22
95.765655
 32
0.0
 13
52.164535
 23
95.752053
 33
0.0
  0
3DFACE
  8
0
  6
CONTINUOUS
 62
     7
 10
52.183936
 20
95.738582
 30
0.0
 11
52.203337
 21
95.725111
 31
0.0
 12
52.203337
 22
95.779256
 32
0.0
 13
52.183936
 23
95.765655
 33
0.0
  0
3DFACE
  8
0
  6
CONTINUOUS
 62
     7
 10
52.203337
 20
95.725111
 30
0.0
 11
52.222739
 21
95.711639
 31
0.0
 12
52.222739
 22
95.792858
 32
0.0
 13
52.203337
 23
95.779256
 33
0.0
  0
3DFACE
  8
0
  6
CONTINUOUS
 62
     7
 10
52.222739
 20
95.711639
 30
0.0
 11
52.24214
 21
95.698168
 31
0.0
 12
52.24214
 22
95.80646
 32
0.0
 13
52.222739
 23
95.792858
 33
0.0
  0
3DFACE
  8
0
  6
CONTINUOUS
 62
     7
 10
52.24214
 20
95.698168
 30
0.0
 11
52.261541
 21
95.684697
 31
0.0
 12
52.261541
 22
95.820061
 32
0.0
 13
52.24214
 23
95.80646
 33
0.0
  0
3DFACE
  8
0
  6
CONTINUOUS
 62
     7
 10
52.261541
 20
95.684697
 30
0.0
 11
52.280942
 21
95.671226
 31
0.0
 12
52.280942
 22
95.833663
 32
0.0
 13
52.261541
 23
95.820061
 33
0.0
  0
3DFACE
  8
0
  6
CONTINUOUS
 62
     7
 10
52.280942
 20
95.671226
 30
0.0
 11
52.300343
 21
95.657754
 31
0.0
 12
52.300343
 22
95.847264
 32
0.0
 13
52.280942
 23
95.833663
 33
0.0
  0
3DFACE
  8
0
  6
CONTINUOUS
 62
     7
 10
52.300343
 20
95.657754
 30
0.0
 11
52.319744
 21
95.644283
 31
0.0
 12
52.319744
 22
95.860866
 32
0.0
 13
52.300343
 23
95.847264
 33
0.0
  0
3DFACE
  8
0
  6
CONTINUOUS
 62
     7
 10
52.319744
 20
95.644283
 30
0.0
 11
52.339145
 21
95.630812
 31
0.0
 12
52.339145
 22
95.874467
 32
0.0
 13
52.319744
 23
95.860866
 33
0.0
  0
3DFACE
  8
0
  6
CONTINUOUS
 62
     7
 10
52.339145
 20
95.630812
 30
0.0
 11
52.358546
 21
95.61734
 31
0.0
 12
52.358546
 22
95.888069
 32
0.0
 13
52.339145
 23
95.874467
 33
0.0
  0
3DFACE
  8
0
  6
CONTINUOUS
 62
     7
 10
52.358546
 20
95.61734
 30
0.0
 11
52.377947
 21
95.603869
 31
0.0
 12
52.377947
 22
95.90167
 32
0.0
 13
52.358546
 23
95.888069
 33
0.0
  0
3DFACE
  8
0
  6
CONTINUOUS
 62
     7
 10
52.377947
 20
95.603869
 30
0.0
 11
52.397348
 21
95.590398
 31
0.0
 12
52.397348
 22
95.915272
 32
0.0
 13
52.377947
 23
95.90167
 33
0.0
  0
3DFACE
  8
0
  6
CONTINUOUS
 62
     7
 10
52.397348
 20
95.590398
 30
0.0
 11
52.416749
 21
95.576926
 31
0.0
 12
52.416749
 22
95.928873
 32
0.0
 13
52.397348
 23
95.915272
 33
0.0
  0
3DFACE
  8
0
  6
CONTINUOUS
 62
     7
 10
52.416749
 20
95.576926
 30
0.0
 11
52.43615
 21
95.563455
 31
0.0
 12
52.43615
 22
95.942475
 32
0.0
 13
52.416749
 23
95.928873
 33
0.0
  0
3DFACE
  8
0
  6
CONTINUOUS
 62
     7
 10
52.43615
 20
95.563455
 30
0.0
 11
52.455551
 21
95.549984
 31
0.0
 12
52.455551
 22
95.956076
 32
0.0
 13
52.43615
 23
95.942475
 33
0.0
  0
3DFACE
  8
0
  6
CONTINUOUS
 62
     7
 10
52.455551
 20
95.549984
 30
0.0
 11
52.474952
 21
95.536512
 31
0.0
 12
52.474952
 22
95.969678
 32
0.0
 13
52.455551
 23
95.956076
 33
0.0
  0
3DFACE
  8
0
  6
CONTINUOUS
 62
     7
 10
52.474952
 20
95.536512
 30
0.0
 11
52.494353
 21
95.523041
 31
0.0
 12
52.494353
 22
95.983279
 32
0.0
 13
52.474952
 23
95.969678
 33
0.0
  0
3DFACE
  8
0
  6
CONTINUOUS
 62
     7
 10
52.494353
 20
95.523041
 30
0.0
 11
52.513754
 21
95.50957
 31
0.0
 12
52.513754
 22
95.996881
 32
0.0
 13
52.494353
 23
95.983279
 33
0.0
  0
3DFACE
  8
0
  6
CONTINUOUS
 62
     7
 10
52.513754
 20
95.50957
 30
0.0
 11
52.533155
 21
95.496098
 31
0.0
 12
52.533155
 22
96.010483
 32
0.0
 13
52.513754
 23
95.996881
 33
0.0
  0
3DFACE
  8
0
  6
CONTINUOUS
 62
     7
 10
52.533155
 20
95.496098
 30
0.0
 11
52.552556
 21
95.482627
 31
0.0
 12
52.552556
 22
96.024084
 32
0.0
 13
52.533155
 23
96.010483
 33
0.0
  0
3DFACE
  8
0
  6
CONTINUOUS
 62
     7
 10
52.552556
 20
95.482627
 30
0.0
 11
52.571957
 21
95.469156
 31
0.0
 12
52.571957
 22
96.037686
 32
0.0
 13
52.552556
 23
96.024084
 33
0.0
  0
3DFACE
  8
0
  6
CONTINUOUS
 62
     7
 10
52.571957
 20
95.469156
 30
0.0
 11
52.591358
 21
95.455684
 31
0.0
 12
52.591358
 22
96.051287
 32
0.0
 13
52.571957
 23
96.037686
 33
0.0
  0
3DFACE
  8
0
  6
CONTINUOUS
 62
     7
 10
52.591358
 20
95.455684
 30
0.0
 11
52.610759
 21
95.442213
 31
0.0
 12
52.610759
 22
96.064889
 32
0.0
 13
52.591358
 23
96.051287
 33
0.0
  0
3DFACE
  8
0
  6
CONTINUOUS
 62
     7
 10
52.610759
 20
95.442213
 30
0.0
 11
52.63016
 21
95.428742
 31
0.0
 12
52.63016
 22
96.07849
 32
0.0
 13
52.610759
 23
96.064889
 33
0.0
  0
3DFACE
  8
0
  6
CONTINUOUS
 62
     7
 10
52.63016
 20
95.428742
 30
0.0
 11
52.649561
 21
95.415271
 31
0.0
 12
52.649561
 22
96.092092
 32
0.0
 13
52.63016
 23
96.07849
 33
0.0
  0
3DFACE
  8
0
  6
CONTINUOUS
 62
     7
 10
52.649561
 20
95.415271
 30
0.0
 11
52.668962
 21
95.401799
 31
0.0
 12
52.668962
 22
96.105693
 32
0.0
 13
52.649561
 23
96.092092
 33
0.0
  0
3DFACE
  8
0
  6
CONTINUOUS
 62
     7
 10
52.668962
 20
95.401799
 30
0.0
 11
52.688363
 21
95.388328
 31
0.0
 12
52.688363
 22
96.119295
 32
0.0
 13
52.668962
 23
96.105693
 33
0.0
  0
3DFACE
  8
0
  6
CONTINUOUS
 62
     7
 10
52.688363
 20
95.388328
 30
0.0
 11
52.707764
 21
95.374857
 31
0.0
 12
52.707764
 22
96.132896
 32
0.0
 13
52.688363
 23
96.119295
 33
0.0
  0
3DFACE
  8
0
  6
CONTINUOUS
 62
     7
 10
52.707764
 20
95.374857
 30
0.0
 11
52.727166
 21
95.361385
 31
0.0
 12
52.727166
 22
96.146498
 32
0.0
 13
52.707764
 23
96.132896
 33
0.0
  0
3DFACE
  8
0
  6
CONTINUOUS
 62
     7
 10
52.727166
 20
95.361385
 30
0.0
 11
52.746567
 21
95.347914
 31
0.0
 12
52.746567
 22
96.160099
 32
0.0
 13
52.727166
 23
96.146498
 33
0.0
  0
3DFACE
  8
0
  6
CONTINUOUS
 62
     7
 10
52.746567
 20
95.347914
 30
0.0
 11
52.765968
 21
95.334443
 31
0.0
 12
52.765968
 22
96.173701
 32
0.0
 13
52.746567
 23
96.160099
 33
0.0
  0
3DFACE
  8
0
  6
CONTINUOUS
 62
     7
 10
52.765968
 20
95.334443
 30
0.0
 11
52.785369
 21
95.320971
 31
0.0
 12
52.785369
 22
96.187302
 32
0.0
 13
52.765968
 23
96.173701
 33
0.0
  0
3DFACE
  8
0
  6
CONTINUOUS
 62
     7
 10
52.785369
 20
95.320971
 30
0.0
 11
52.80477
 21
95.3075
 31
0.0
 12
52.80477
 22
96.200904
 32
0.0
 13
52.785369
 23
96.187302
 33
0.0
  0
3DFACE
  8
0
  6
CONTINUOUS
 62
     7
 10
52.80477
 20
95.3075
 30
0.0
 11
52.824171
 21
95.294029
 31
0.0
 12
52.824171
 22
96.214505
 32
0.0
 13
52.80477
 23
96.200904
 33
0.0
  0
3DFACE
  8
0
  6
CONTINUOUS
 62
     7
 10
52.824171
 20
95.294029
 30
0.0
 11
52.843572
 21
95.280557
 31
0.0
 12
52.843572
 22
96.228107
 32
0.0
 13
52.824171
 23
96.214505
 33
0.0
  0
3DFACE
  8
0
  6
CONTINUOUS
 62
     7
 10
52.843572
 20
95.280557
 30
0.0
 11
52.862973
 21
95.267086
 31
0.0
 12
52.862973
 22
96.241709
 32
0.0
 13
52.843572
 23
96.228107
 33
0.0
  0
3DFACE
  8
0
  6
CONTINUOUS
 62
     7
 10
52.862973
 20
95.267086
 30
0.0
 11
52.882374
 21
95.253615
 31
0.0
 12
52.882374
 22
96.25531
 32
0.0
 13
52.862973
 23
96.241709
 33
0.0
  0
3DFACE
  8
0
  6
CONTINUOUS
 62
     7
 10
52.882374
 20
95.253615
 30
0.0
 11
52.901775
 21
95.240143
 31
0.0
 12
52.901775
 22
96.268912
 32
0.0
 13
52.882374
 23
96.25531
 33
0.0
  0
3DFACE
  8
0
  6
CONTINUOUS
 62
     7
 10
52.901775
 20
95.240143
 30
0.0
 11
52.921176
 21
95.226672
 31
0.0
 12
52.921176
 22
96.282513
 32
0.0
 13
52.901775
 23
96.268912
 33
0.0
  0
3DFACE
  8
0
  6
CONTINUOUS
 62
     7
 10
52.921176
 20
95.226672
 30
0.0
 11
52.940577
 21
95.213201
 31
0.0
 12
52.940577
 22
96.296115
 32
0.0
 13
52.921176
 23
96.282513
 33
0.0
  0
3DFACE
  8
0
  6
CONTINUOUS
 62
     7
 10
52.940577
 20
95.213201
 30
0.0
 11
52.959978
 21
95.199729
 31
0.0
 12
52.959978
 22
96.309716
 32
0.0
 13
52.940577
 23
96.296115
 33
0.0
  0
3DFACE
  8
0
  6
CONTINUOUS
 62
     7
 10
52.959978
 20
95.199729
 30
0.0
 11
52.979379
 21
95.186258
 31
0.0
 12
52.979379
 22
96.323318
 32
0.0
 13
52.959978
 23
96.309716
 33
0.0
  0
3DFACE
  8
0
  6
CONTINUOUS
 62
     7
 10
52.979379
 20
95.186258
 30
0.0
 11
52.99878
 21
95.172787
 31
0.0
 12
52.99878
 22
96.336919
 32
0.0
 13
52.979379
 23
96.323318
 33
0.0
  0
3DFACE
  8
0
  6
CONTINUOUS
 62
     7
 10
52.99878
 20
95.172787
 30
0.0
 11
53.018181
 21
95.159316
 31
0.0
 12
53.018181
 22
96.350521
 32
0.0
 13
52.99878
 23
96.336919
 33
0.0
  0
3DFACE
  8
0
  6
CONTINUOUS
 62
     7
 10
53.018181
 20
95.159316
 30
0.0
 11
53.037582
 21
95.145844
 31
0.0
 12
53.037582
 22
96.364122
 32
0.0
 13
53.018181
 23
96.350521
 33
0.0
  0
3DFACE
  8
0
  6
CONTINUOUS
 62
     7
 10
53.037582
 20
95.145844
 30
0.0
 11
53.056983
 21
95.132373
 31
0.0
 12
53.056983
 22
96.377724
 32
0.0
 13
53.037582
 23
96.364122
 33
0.0
  0
3DFACE
  8
0
  6
CONTINUOUS
 62
     7
 10
53.056983
 20
95.132373
 30
0.0
 11
53.076384
 21
95.118902
 31
0.0
 12
53.076384
 22
96.391325
 32
0.0
 13
53.056983
 23
96.377724
 33
0.0
  0
3DFACE
  8
0
  6
CONTINUOUS
 62
     7
 10
53.076384
 20
95.118902
 30
0.0
 11
53.095785
 21
95.10543
 31
0.0
 12
53.095785
 22
96.404927
 32
0.0
 13
53.076384
 23
96.391325
 33
0.0
  0
3DFACE
  8
0
  6
CONTINUOUS
 62
     7
 10
53.095785
 20
95.10543
 30
0.0
 11
53.115186
 21
95.091959
 31
0.0
 12
53.115186
 22
96.418528
 32
0.0
 13
53.095785
 23
96.404927
 33
0.0
  0
3DFACE
  8
0
  6
CONTINUOUS
 62
     7
 10
53.115186
 20
95.091959
 30
0.0
 11
53.134587
 21
95.078488
 31
0.0
 12
53.134587
 22
96.43213
 32
0.0
 13
53.115186
 23
96.418528
 33
0.0
  0
3DFACE
  8
0
  6
CONTINUOUS
 62
     7
 10
53.134587
 20
95.078488
 30
0.0
 11
53.153988
 21
95.065016
 31
0.0
 12
53.153988
 22
96.445731
 32
0.0
 13
53.134587
 23
96.43213
 33
0.0
  0
3DFACE
  8
0
  6
CONTINUOUS
 62
     7
 10
53.153988
 20
95.065016
 30
0.0
 11
53.173389
 21
95.051545
 31
0.0
 12
53.173389
 22
96.459333
 32
0.0
 13
53.153988
 23
96.445731
 33
0.0
  0
3DFACE
  8
0
  6
CONTINUOUS
 62
     7
 10
53.173389
 20
95.051545
 30
0.0
 11
53.19279
 21
95.038074
 31
0.0
 12
53.19279
 22
96.472935
 32
0.0
 13
53.173389
 23
96.459333
 33
0.0
  0
3DFACE
  8
0
  6
CONTINUOUS
 62
     7
 10
53.19279
 20
95.038074
 30
0.0
 11
53.212192
 21
95.024602
 31
0.0
 12
53.212192
 22
96.486536
 32
0.0
 13
53.19279
 23
96.472935
 33
0.0
  0
3DFACE
  8
0
  6
CONTINUOUS
 62
     7
 10
53.212192
 20
95.024602
 30
0.0
 11
53.231593
 21
95.011131
 31
0.0
 12
53.231593
 22
96.500138
 32
0.0
 13
53.212192
 23
96.486536
 33
0.0
  0
3DFACE
  8
0
  6
CONTINUOUS
 62
     7
 10
53.231593
 20
95.011131
 30
0.0
 11
53.250994
 21
94.99766
 31
0.0
 12
53.250994
 22
96.513739
 32
0.0
 13
53.231593
 23
96.500138
 33
0.0
  0
3DFACE
  8
0
  6
CONTINUOUS
 62
     7
 10
53.250994
 20
94.99766
 30
0.0
 11
53.270395
 21
94.984188
 31
0.0
 12
53.270395
 22
96.527341
 32
0.0
 13
53.250994
 23
96.513739
 33
0.0
  0
3DFACE
  8
0
  6
CONTINUOUS
 62
     7
 10
53.270395
 20
94.984188
 30
0.0
 11
53.289796
 21
94.970717
 31
0.0
 12
53.289796
 22
96.540942
 32
0.0
 13
53.270395
 23
96.527341
 33
0.0
  0
3DFACE
  8
0
  6
CONTINUOUS
 62
     7
 10
53.289796
 20
94.970717
 30
0.0
 11
53.309197
 21
94.957246
 31
0.0
 12
53.309197
 22
96.554544
 32
0.0
 13
53.289796
 23
96.540942
 33
0.0
  0
3DFACE
  8
0
  6
CONTINUOUS
 62
     7
 10
53.309197
 20
94.957246
 30
0.0
 11
53.328598
 21
94.943774
 31
0.0
 12
53.328598
 22
96.568145
 32
0.0
 13
53.309197
 23
96.554544
 33
0.0
  0
3DFACE
  8
0
  6
CONTINUOUS
 62
     7
 10
53.328598
 20
94.943774
 30
0.0
 11
53.347999
 21
94.930303
 31
0.0
 12
53.347999
 22
96.581747
 32
0.0
 13
53.328598
 23
96.568145
 33
0.0
  0
3DFACE
  8
0
  6
CONTINUOUS
 62
     7
 10
53.347999
 20
94.930303
 30
0.0
 11
53.3674
 21
94.916832
 31
0.0
 12
53.3674
 22
96.595348
 32
0.0
 13
53.347999
 23
96.581747
 33
0.0
  0
3DFACE
  8
0
  6
CONTINUOUS
 62
     7
 10
53.3674
 20
94.916832
 30
0.0
 11
53.386801
 21
94.903361
 31
0.0
 12
53.386801
 22
96.60895
 32
0.0
 13
53.3674
 23
96.595348
 33
0.0
  0
3DFACE
  8
0
  6
CONTINUOUS
 62
     7
 10
53.386801
 20
94.903361
 30
0.0
 11
53.406202
 21
94.889889
 31
0.0
 12
53.406202
 22
96.622551
 32
0.0
 13
53.386801
 23
96.60895
 33
0.0
  0
3DFACE
  8
0
  6
CONTINUOUS
 62
     7
 10
53.406202
 20
94.889889
 30
0.0
 11
53.425603
 21
94.876418
 31
0.0
 12
53.425603
 22
96.636153
 32
0.0
 13
53.406202
 23
96.622551
 33
0.0
  0
3DFACE
  8
0
  6
CONTINUOUS
 62
     7
 10
53.425603
 20
94.876418
 30
0.0
 11
53.445004
 21
94.862947
 31
0.0
 12
53.445004
 22
96.649754
 32
0.0
 13
53.425603
 23
96.636153
 33
0.0
  0
3DFACE
  8
0
  6
CONTINUOUS
 62
     7
 10
53.445004
 20
94.862947
 30
0.0
 11
53.464405
 21
94.849475
 31
0.0
 12
53.464405
 22
96.663356
 32
0.0
 13
53.445004
 23
96.649754
 33
0.0
  0
3DFACE
  8
0
  6
CONTINUOUS
 62
     7
 10
53.464405
 20
94.849475
 30
0.0
 11
53.483806
 21
94.836004
 31
0.0
 12
53.483806
 22
96.676958
 32
0.0
 13
53.464405
 23
96.663356
 33
0.0
  0
3DFACE
  8
0
  6
CONTINUOUS
 62
     7
 10
53.483806
 20
94.836004
 30
0.0
 11
53.503207
 21
94.822533
 31
0.0
 12
53.503207
 22
96.690559
 32
0.0
 13
53.483806
 23
96.676958
 33
0.0
  0
3DFACE
  8
0
  6
CONTINUOUS
 62
     7
 10
53.503207
 20
94.822533
 30
0.0
 11
53.522608
 21
94.809061
 31
0.0
 12
53.522608
 22
96.704161
 32
0.0
 13
53.503207
 23
96.690559
 33
0.0
  0
3DFACE
  8
0
  6
CONTINUOUS
 62
     7
 10
53.522608
 20
94.809061
 30
0.0
 11
53.542009
 21
94.79559
 31
0.0
 12
53.542009
 22
96.717762
 32
0.0
 13
53.522608
 23
96.704161
 33
0.0
  0
3DFACE
  8
0
  6
CONTINUOUS
 62
     7
 10
53.542009
 20
94.79559
 30
0.0
 11
53.56141
 21
94.782119
 31
0.0
 12
53.56141
 22
96.731364
 32
0.0
 13
53.542009
 23
96.717762
 33
0.0
  0
3DFACE
  8
0
  6
CONTINUOUS
 62
     7
 10
53.56141
 20
94.782119
 30
0.0
 11
53.580811
 21
94.768647
 31
0.0
 12
53.580811
 22
96.744965
 32
0.0
 13
53.56141
 23
96.731364
 33
0.0
  0
3DFACE
  8
0
  6
CONTINUOUS
 62
     7
 10
53.580811
 20
94.768647
 30
0.0
 11
53.600212
 21
94.755176
 31
0.0
 12
53.600212
 22
96.758567
 32
0.0
 13
53.580811
 23
96.744965
 33
0.0
  0
3DFACE
  8
0
  6
CONTINUOUS
 62
     7
 10
53.600212
 20
94.755176
 30
0.0
 11
53.619613
 21
94.741705
 31
0.0
 12
53.619613
 22
96.772168
 32
0.0
 13
53.600212
 23
96.758567
 33
0.0
  0
3DFACE
  8
0
  6
CONTINUOUS
 62
     7
 10
53.619613
 20
94.741705
 30
0.0
 11
53.639014
 21
94.728233
 31
0.0
 12
53.639014
 22
96.78577
 32
0.0
 13
53.619613
 23
96.772168
 33
0.0
  0
3DFACE
  8
0
  6
CONTINUOUS
 62
     7
 10
53.639014
 20
94.728233
 30
0.0
 11
53.658415
 21
94.714762
 31
0.0
 12
53.658415
 22
96.799371
 32
0.0
 13
53.639014
 23
96.78577
 33
0.0
  0
3DFACE
  8
0
  6
CONTINUOUS
 62
     7
 10
53.658415
 20
94.714762
 30
0.0
 11
53.677816
 21
94.701291
 31
0.0
 12
53.677816
 22
96.812973
 32
0.0
 13
53.658415
 23
96.799371
 33
0.0
  0
3DFACE
  8
0
  6
CONTINUOUS
 62
     7
 10
53.677816
 20
94.701291
 30
0.0
 11
53.697218
 21
94.687819
 31
0.0
 12
53.697218
 22
96.826574
 32
0.0
 13
53.677816
 23
96.812973
 33
0.0
  0
3DFACE
  8
0
  6
CONTINUOUS
 62
     7
 10
53.697218
 20
94.687819
 30
0.0
 11
53.716619
 21
94.674348
 31
0.0
 12
53.716619
 22
96.840176
 32
0.0
 13
53.697218
 23
96.826574
 33
0.0
  0
3DFACE
  8
0
  6
CONTINUOUS
 62
     7
 10
53.716619
 20
94.674348
 30
0.0
 11
53.73602
 21
94.660877
 31
0.0
 12
53.73602
 22
96.853777
 32
0.0
 13
53.716619
 23
96.840176
 33
0.0
  0
3DFACE
  8
0
  6
CONTINUOUS
 62
     7
 10
53.73602
 20
94.660877
 30
0.0
 11
53.755421
 21
94.647406
 31
0.0
 12
53.755421
 22
96.867379
 32
0.0
 13
53.73602
 23
96.853777
 33
0.0
  0
3DFACE
  8
0
  6
CONTINUOUS
 62
     7
 10
53.755421
 20
94.647406
 30
0.0
 11
53.774822
 21
94.633934
 31
0.0
 12
53.774822
 22
96.88098
 32
0.0
 13
53.755421
 23
96.867379
 33
0.0
  0
3DFACE
  8
0
  6
CONTINUOUS
 62
     7
 10
53.774822
 20
94.633934
 30
0.0
 11
53.794223
 21
94.620463
 31
0.0
 12
53.794223
 22
96.894582
 32
0.0
 13
53.774822
 23
96.88098
 33
0.0
  0
3DFACE
  8
0
  6
CONTINUOUS
 62
     7
 10
53.794223
 20
94.620463
 30
0.0
 11
53.813624
 21
94.606992
 31
0.0
 12
53.813624
 22
96.908184
 32
0.0
 13
53.794223
 23
96.894582
 33
0.0
  0
3DFACE
  8
0
  6
CONTINUOUS
 62
     7
 10
53.813624
 20
94.606992
 30
0.0
 11
53.833025
 21
94.59352
 31
0.0
 12
53.833025
 22
96.921785
 32
0.0
 13
53.813624
 23
96.908184
 33
0.0
  0
3DFACE
  8
0
  6
CONTINUOUS
 62
     7
 10
53.833025
 20
94.59352
 30
0.0
 11
53.852426
 21
94.580049
 31
0.0
 12
53.852426
 22
96.935387
 32
0.0
 13
53.833025
 23
96.921785
 33
0.0
  0
3DFACE
  8
0
  6
CONTINUOUS
 62
     7
 10
53.852426
 20
94.580049
 30
0.0
 11
53.871827
 21
94.566578
 31
0.0
 12
53.871827
 22
96.948988
 32
0.0
 13
53.852426
 23
96.935387
 33
0.0
  0
3DFACE
  8
0
  6
CONTINUOUS
 62
     7
 10
53.871827
 20
94.566578
 30
0.0
 11
53.891228
 21
94.553106
 31
0.0
 12
53.891228
 22
96.96259
 32
0.0
 13
53.871827
 23
96.948988
 33
0.0
  0
3DFACE
  8
0
  6
CONTINUOUS
 62
     7
 10
53.891228
 20
94.553106
 30
0.0
 11
53.910629
 21
94.539635
 31
0.0
 12
53.910629
 22
96.976191
 32
0.0
 13
53.891228
 23
96.96259
 33
0.0
  0
3DFACE
  8
0
  6
CONTINUOUS
 62
     7
 10
53.910629
 20
94.539635
 30
0.0
 11
53.93003
 21
94.526164
 31
0.0
 12
53.93003
 22
96.989793
 32
0.0
 13
53.910629
 23
96.976191
 33
0.0
  0
3DFACE
  8
0
  6
CONTINUOUS
 62
     7
 10
53.93003
 20
94.526164
 30
0.0
 11
53.949431
 21
94.512692
 31
0.0
 12
53.949431
 22
97.003394
 32
0.0
 13
53.93003
 23
96.989793
 33
0.0
  0
3DFACE
  8
0
  6
CONTINUOUS
 62
     7
 10
53.949431
 20
94.512692
 30
0.0
 11
53.968832
 21
94.499221
 31
0.0
 12
53.968832
 22
97.016996
 32
0.0
 13
53.949431
 23
97.003394
 33
0.0
  0
3DFACE
  8
0
  6
CONTINUOUS
 62
     7
 10
53.968832
 20
94.499221
 30
0.0
 11
53.988233
 21
94.48575
 31
0.0
 12
53.988233
 22
97.030597
 32
0.0
 13
53.968832
 23
97.016996
 33
0.0
  0
3DFACE
  8
0
  6
CONTINUOUS
 62
     7
 10
53.988233
 20
94.48575
 30
0.0
 11
54.007634
 21
94.472278
 31
0.0
 12
54.007634
 22
97.044199
 32
0.0
 13
53.988233
 23
97.030597
 33
0.0
  0
3DFACE
  8
0
  6
CONTINUOUS
 62
     7
 10
54.007634
 20
94.472278
 30
0.0
 11
54.027035
 21
94.458807
 31
0.0
 12
54.027035
 22
97.0578
 32
0.0
 13
54.007634
 23
97.044199
 33
0.0
  0
3DFACE
  8
0
  6
CONTINUOUS
 62
     7
 10
54.027035
 20
94.458807
 30
0.0
 11
54.046436
 21
94.445336
 31
0.0
 12
54.046436
 22
97.071402
 32
0.0
 13
54.027035
 23
97.0578
 33
0.0
  0
3DFACE
  8
0
  6
CONTINUOUS
 62
     7
 10
54.046436
 20
94.445336
 30
0.0
 11
54.065837
 21
94.431864
 31
0.0
 12
54.065837
 22
97.085003
 32
0.0
 13
54.046436
 23
97.071402
 33
0.0
  0
3DFACE
  8
0
  6
CONTINUOUS
 62
     7
 10
54.065837
 20
94.431864
 30
0.0
 11
54.085238
 21
94.418393
 31
0.0
 12
54.085238
 22
97.098605
 32
0.0
 13
54.065837
 23
97.085003
 33
0.0
  0
3DFACE
  8
0
  6
CONTINUOUS
 62
     7
 10
54.085238
 20
94.418393
 30
0.0
 11
54.104639
 21
94.404922
 31
0.0
 12
54.104639
 22
97.112207
 32
0.0
 13
54.085238
 23
97.098605
 33
0.0
  0
3DFACE
  8
0
  6
CONTINUOUS
 62
     7
 10
48.625843
 20
95.752053
 30
0.0
 11
48.645244
 21
95.738582
 31
0.0
 12
48.645244
 22
95.765655
 32
0.0
 13
48.625843
 23
95.752053
 33
0.0
  0
3DFACE
  8
0
  6
CONTINUOUS
 62
     7
 10
48.645244
 20
95.738582
 30
0.0
 11
48.664645
 21
95.725111
 31
0.0
 12
48.664645
 22
95.779256
 32
0.0
 13
48.645244
 23
95.765655
 33
0.0
  0
3DFACE
  8
0
  6
CONTINUOUS
 62
     7
 10
48.664645
 20
95.725111
 30
0.0
 11
48.684046
 21
95.711639
 31
0.0
 12
48.684046
 22
95.792858
 32
0.0
 13
48.664645
 23
95.779256
 33
0.0
  0
3DFACE
  8
0
  6
CONTINUOUS
 62
     7
 10
48.684046
 20
95.711639
 30
0.0
 11
48.703447
 21
95.698168
 31
0.0
 12
48.703447
 22
95.80646
 32
0.0
 13
48.684046
 23
95.792858
 33
0.0
  0
3DFACE
  8
0
  6
CONTINUOUS
 62
     7
 10
48.703447
 20
95.698168
 30
0.0
 11
48.722848
 21
95.684697
 31
0.0
 12
48.722848
 22
95.820061
 32
0.0
 13
48.703447
 23
95.80646
 33
0.0
  0
3DFACE
  8
0
  6
CONTINUOUS
 62
     7
 10
48.722848
 20
95.684697
 30
0.0
 11
48.742249
 21
95.671226
 31
0.0
 12
48.742249
 22
95.833663
 32
0.0
 13
48.722848
 23
95.820061
 33
0.0
  0
3DFACE
  8
0
  6
CONTINUOUS
 62
     7
 10
48.742249
 20
95.671226
 30
0.0
 11
48.76165
 21
95.657754
 31
0.0
 12
48.76165
 22
95.847264
 32
0.0
 13
48.742249
 23
95.833663
 33
0.0
  0
3DFACE
  8
0
  6
CONTINUOUS
 62
     7
 10
48.76165
 20
95.657754
 30
0.0
 11
48.781051
 21
95.644283
 31
0.0
 12
48.781051
 22
95.860866
 32
0.0
 13
48.76165
 23
95.847264
 33
0.0
  0
3DFACE
  8
0
  6
CONTINUOUS
 62
     7
 10
48.781051
 20
95.644283
 30
0.0
 11
48.800452
 21
95.630812
 31
0.0
 12
48.800452
 22
95.874467
 32
0.0
 13
48.781051
 23
95.860866
 33
0.0
  0
3DFACE
  8
0
  6
CONTINUOUS
 62
     7
 10
48.800452
 20
95.630812
 30
0.0
 11
48.819853
 21
95.61734
 31
0.0
 12
48.819853
 22
95.888069
 32
0.0
 13
48.800452
 23
95.874467
 33
0.0
  0
3DFACE
  8
0
  6
CONTINUOUS
 62
     7
 10
48.819853
 20
95.61734
 30
0.0
 11
48.839254
 21
95.603869
 31
0.0
 12
48.839254
 22
95.90167
 32
0.0
 13
48.819853
 23
95.888069
 33
0.0
  0
3DFACE
  8
0
  6
CONTINUOUS
 62
     7
 10
48.839254
 20
95.603869
 30
0.0
 11
48.858655
 21
95.590398
 31
0.0
 12
48.858655
 22
95.915272
 32
0.0
 13
48.839254
 23
95.90167
 33
0.0
  0
3DFACE
  8
0
  6
CONTINUOUS
 62
     7
 10
48.858655
 20
95.590398
 30
0.0
 11
48.878056
 21
95.576926
 31
0.0
 12
48.878056
 22
95.928873
 32
0.0
 13
48.858655
 23
95.915272
 33
0.0
  0
3DFACE
  8
0
  6
CONTINUOUS
 62
     7
 10
48.878056
 20
95.576926
 30
0.0
 11
48.897457
 21
95.563455
 31
0.0
 12
48.897457
 22
95.942475
 32
0.0
 13
48.878056
 23
95.928873
 33
0.0
  0
3DFACE
  8
0
  6
CONTINUOUS
 62
     7
 10
48.897457
 20
95.563455
 30
0.0
 11
48.916858
 21
95.549984
 31
0.0
 12
48.916858
 22
95.956076
 32
0.0
 13
48.897457
 23
95.942475
 33
0.0
  0
3DFACE
  8
0
  6
CONTINUOUS
 62
     7
 10
48.916858
 20
95.549984
 30
0.0
 11
48.936259
 21
95.536512
 31
0.0
 12
48.936259
 22
95.969678
 32
0.0
 13
48.916858
 23
95.956076
 33
0.0
  0
3DFACE
  8
0
  6
CONTINUOUS
 62
     7
 10
48.936259
 20
95.536512
 30
0.0
 11
48.95566
 21
95.523041
 31
0.0
 12
48.95566
 22
95.983279
 32
0.0
 13
48.936259
 23
95.969678
 33
0.0
  0
3DFACE
  8
0
  6
CONTINUOUS
 62
     7
 10
48.95566
 20
95.523041
 30
0.0
 11
48.975061
 21
95.50957
 31
0.0
 12
48.975061
 22
95.996881
 32
0.0
 13
48.95566
 23
95.983279
 33
0.0
  0
3DFACE
  8
0
  6
CONTINUOUS
 62
     7
 10
48.975061
 20
95.50957
 30
0.0
 11
48.994462
 21
95.496098
 31
0.0
 12
48.994462
 22
96.010483
 32
0.0
 13
48.975061
 23
95.996881
 33
0.0
  0
3DFACE
  8
0
  6
CONTINUOUS
 62
     7
 10
48.994462
 20
95.496098
 30
0.0
 11
49.013863
 21
95.482627
 31
0.0
 12
49.013863
 22
96.024084
 32
0.0
 13
48.994462
 23
96.010483
 33
0.0
  0
3DFACE
  8
0
  6
CONTINUOUS
 62
     7
 10
49.013863
 20
95.482627
 30
0.0
 11
49.033265
 21
95.469156
 31
0.0
 12
49.033265
 22
96.037686
 32
0.0
 13
49.013863
 23
96.024084
 33
0.0
  0
3DFACE
  8
0
  6
CONTINUOUS
 62
     7
 10
49.033265
 20
95.469156
 30
0.0
 11
49.052666
 21
95.455684
 31
0.0
 12
49.052666
 22
96.051287
 32
0.0
 13
49.033265
 23
96.037686
 33
0.0
  0
3DFACE
  8
0
  6
CONTINUOUS
 62
     7
 10
49.052666
 20
95.455684
 30
0.0
 11
49.072067
 21
95.442213
 31
0.0
 12
49.072067
 22
96.064889
 32
0.0
 13
49.052666
 23
96.051287
 33
0.0
  0
3DFACE
  8
0
  6
CONTINUOUS
 62
     7
 10
49.072067
 20
95.442213
 30
0.0
 11
49.091468
 21
95.428742
 31
0.0
 12
49.091468
 22
96.07849
 32
0.0
 13
49.072067
 23
96.064889
 33
0.0
  0
3DFACE
  8
0
  6
CONTINUOUS
 62
     7
 10
49.091468
 20
95.428742
 30
0.0
 11
49.110869
 21
95.415271
 31
0.0
 12
49.110869
 22
96.092092
 32
0.0
 13
49.091468
 23
96.07849
 33
0.0
  0
3DFACE
  8
0
  6
CONTINUOUS
 62
     7
 10
49.110869
 20
95.415271
 30
0.0
 11
49.13027
 21
95.401799
 31
0.0
 12
49.13027
 22
96.105693
 32
0.0
 13
49.110869
 23
96.092092
 33
0.0
  0
3DFACE
  8
0
  6
CONTINUOUS
 62
     7
 10
49.13027
 20
95.401799
 30
0.0
 11
49.149671
 21
95.388328
 31
0.0
 12
49.149671
 22
96.119295
 32
0.0
 13
49.13027
 23
96.105693
 33
0.0
  0
3DFACE
  8
0
  6
CONTINUOUS
 62
     7
 10
49.149671
 20
95.388328
 30
0.0
 11
49.169072
 21
95.374857
 31
0.0
 12
49.169072
 22
96.132896
 32
0.0
 13
49.149671
 23
96.119295
 33
0.0
  0
3DFACE
  8
0
  6
CONTINUOUS
 62
     7
 10
49.169072
 20
95.374857
 30
0.0
 11
49.188473
 21
95.361385
 31
0.0
 12
49.188473
 22
96.146498
 32
0.0
 13
49.169072
 23
96.132896
 33
0.0
  0
3DFACE
  8
0
  6
CONTINUOUS
 62
     7
 10
49.188473
 20
95.361385
 30
0.0
 11
49.207874
 21
95.347914
 31
0.0
 12
49.207874
 22
96.160099
 32
0.0
 13
49.188473
 23
96.146498
 33
0.0
  0
3DFACE
  8
0
  6
CONTINUOUS
 62
     7
 10
49.207874
 20
95.347914
 30
0.0
 11
49.227275
 21
95.334443
 31
0.0
 12
49.227275
 22
96.173701
 32
0.0
 13
49.207874
 23
96.160099
 33
0.0
  0
3DFACE
  8
0
  6
CONTINUOUS
 62
     7
 10
49.227275
 20
95.334443
 30
0.0
 11
49.246676
 21
95.320971
 31
0.0
 12
49.246676
 22
96.187302
 32
0.0
 13
49.227275
 23
96.173701
 33
0.0
  0
3DFACE
  8
0
  6
CONTINUOUS
 62
     7
 10
49.246676
 20
95.320971
 30
0.0
 11
49.266077
 21
95.3075
 31
0.0
 12
49.266077
 22
96.200904
 32
0.0
 13
49.246676
 23
96.187302
 33
0.0
  0
3DFACE
  8
0
  6
CONTINUOUS
 62
     7
 10
49.266077
 20
95.3075
 30
0.0
 11
49.285478
 21
95.294029
 31
0.0
 12
49.285478
 22
96.214505
 32
0.0
 13
49.266077
 23
96.200904
 33
0.0
  0
3DFACE
  8
0
  6
CONTINUOUS
 62
     7
 10
49.285478
 20
95.294029
 30
0.0
 11
49.304879
 21
95.280557
 31
0.0
 12
49.304879
 22
96.228107
 32
0.0
 13
49.285478
 23
96.214505
 33
0.0
  0
3DFACE
  8
0
  6
CONTINUOUS
 62
     7
 10
49.304879
 20
95.280557
 30
0.0
 11
49.32428
 21
95.267086
 31
0.0
 12
49.32428
 22
96.241709
 32
0.0
 13
49.304879
 23
96.228107
 33
0.0
  0
3DFACE
  8
0
  6
CONTINUOUS
 62
     7
 10
49.32428
 20
95.267086
 30
0.0
 11
49.343681
 21
95.253615
 31
0.0
 12
49.343681
 22
96.25531
 32
0.0
 13
49.32428
 23
96.241709
 33
0.0
  0
3DFACE
  8
0
  6
CONTINUOUS
 62
     7
 10
49.343681
 20
95.253615
 30
0.0
 11
49.363082
 21
95.240143
 31
0.0
 12
49.363082
 22
96.268912
 32
0.0
 13
49.343681
 23
96.25531
 33
0.0
  0
3DFACE
  8
0
  6
CONTINUOUS
 62
     7
 10
49.363082
 20
95.240143
 30
0.0
 11
49.382483
 21
95.226672
 31
0.0
 12
49.382483
 22
96.282513
 32
0.0
 13
49.363082
 23
96.268912
 33
0.0
  0
3DFACE
  8
0
  6
CONTINUOUS
 62
     7
 10
49.382483
 20
95.226672
 30
0.0
 11
49.401884
 21
95.213201
 31
0.0
 12
49.401884
 22
96.296115
 32
0.0
 13
49.382483
 23
96.282513
 33
0.0
  0
3DFACE
  8
0
  6
CONTINUOUS
 62
     7
 10
49.401884
 20
95.213201
 30
0.0
 11
49.421285
 21
95.199729
 31
0.0
 12
49.421285
 22
96.309716
 32
0.0
 13
49.401884
 23
96.296115
 33
0.0
  0
3DFACE
  8
0
  6
CONTINUOUS
 62
     7
 10
49.421285
 20
95.199729
 30
0.0
 11
49.440686
 21
95.186258
 31
0.0
 12
49.440686
 22
96.323318
 32
0.0
 13
49.421285
 23
96.309716
 33
0.0
  0
3DFACE
  8
0
  6
CONTINUOUS
 62
     7
 10
49.440686
 20
95.186258
 30
0.0
 11
49.460087
 21
95.172787
 31
0.0
 12
49.460087
 22
96.336919
 32
0.0
 13
49.440686
 23
96.323318
 33
0.0
  0
3DFACE
  8
0
  6
CONTINUOUS
 62
     7
 10
49.460087
 20
95.172787
 30
0.0
 11
49.479488
 21
95.159316
 31
0.0
 12
49.479488
 22
96.350521
 32
0.0
 13
49.460087
 23
96.336919
 33
0.0
  0
3DFACE
  8
0
  6
CONTINUOUS
 62
     7
 10
49.479488
 20
95.159316
 30
0.0
 11
49.498889
 21
95.145844
 31
0.0
 12
49.498889
 22
96.364122
 32
0.0
 13
49.479488
 23
96.350521
 33
0.0
  0
3DFACE
  8
0
  6
CONTINUOUS
 62
     7
 10
49.498889
 20
95.145844
 30
0.0
 11
49.518291
 21
95.132373
 31
0.0
 12
49.518291
 22
96.377724
 32
0.0
 13
49.498889
 23
96.364122
 33
0.0
  0
3DFACE
  8
0
  6
CONTINUOUS
 62
     7
 10
49.518291
 20
95.132373
 30
0.0
 11
49.537692
 21
95.118902
 31
0.0
 12
49.537692
 22
96.391325
 32
0.0
 13
49.518291
 23
96.377724
 33
0.0
  0
3DFACE
  8
0
  6
CONTINUOUS
 62
     7
 10
49.537692
 20
95.118902
 30
0.0
 11
49.557093
 21
95.10543
 31
0.0
 12
49.557093
 22
96.404927
 32
0.0
 13
49.537692
 23
96.391325
 33
0.0
  0
3DFACE
  8
0
  6
CONTINUOUS
 62
     7
 10
49.557093
 20
95.10543
 30
0.0
 11
49.576494
 21
95.091959
 31
0.0
 12
49.576494
 22
96.418528
 32
0.0
 13
49.557093
 23
96.404927
 33
0.0
  0
3DFACE
  8
0
  6
CONTINUOUS
 62
     7
 10
49.576494
 20
95.091959
 30
0.0
 11
49.595895
 21
95.078488
 31
0.0
 12
49.595895
 22
96.43213
 32
0.0
 13
49.576494
 23
96.418528
 33
0.0
  0
3DFACE
  8
0
  6
CONTINUOUS
 62
     7
 10
49.595895
 20
95.078488
 30
0.0
 11
49.615296
 21
95.065016
 31
0.0
 12
49.615296
 22
96.445731
 32
0.0
 13
49.595895
 23
96.43213
 33
0.0
  0
3DFACE
  8
0
  6
CONTINUOUS
 62
     7
 10
49.615296
 20
95.065016
 30
0.0
 11
49.634697
 21
95.051545
 31
0.0
 12
49.634697
 22
96.459333
 32
0.0
 13
49.615296
 23
96.445731
 33
0.0
  0
3DFACE
  8
0
  6
CONTINUOUS
 62
     7
 10
49.634697
 20
95.051545
 30
0.0
 11
49.654098
 21
95.038074
 31
0.0
 12
49.654098
 22
96.472935
 32
0.0
 13
49.634697
 23
96.459333
 33
0.0
  0
3DFACE
  8
0
  6
CONTINUOUS
 62
     7
 10
49.654098
 20
95.038074
 30
0.0
 11
49.673499
 21
95.024602
 31
0.0
 12
49.673499
 22
96.486536
 32
0.0
 13
49.654098
 23
96.472935
 33
0.0
  0
3DFACE
  8
0
  6
CONTINUOUS
 62
     7
 10
49.673499
 20
95.024602
 30
0.0
 11
49.6929
 21
95.011131
 31
0.0
 12
49.6929
 22
96.500138
 32
0.0
 13
49.673499
 23
96.486536
 33
0.0
  0
3DFACE
  8
0
  6
CONTINUOUS
 62
     7
 10
49.6929
 20
95.011131
 30
0.0
 11
49.712301
 21
94.99766
 31
0.0
 12
49.712301
 22
96.513739
 32
0.0
 13
49.6929
 23
96.500138
 33
0.0
  0
3DFACE
  8
0
  6
CONTINUOUS
 62
     7
 10
49.712301
 20
94.99766
 30
0.0
 11
49.731702
 21
94.984188
 31
0.0
 12
49.731702
 22
96.527341
 32
0.0
 13
49.712301
 23
96.513739
 33
0.0
  0
3DFACE
  8
0
  6
CONTINUOUS
 62
     7
 10
49.731702
 20
94.984188
 30
0.0
 11
49.751103
 21
94.970717
 31
0.0
 12
49.751103
 22
96.540942
 32
0.0
 13
49.731702
 23
96.527341
 33
0.0
  0
3DFACE
  8
0
  6
CONTINUOUS
 62
     7
 10
49.751103
 20
94.970717
 30
0.0
 11
49.770504
 21
94.957246
 31
0.0
 12
49.770504
 22
96.554544
 32
0.0
 13
49.751103
 23
96.540942
 33
0.0
  0
3DFACE
  8
0
  6
CONTINUOUS
 62
     7
 10
49.770504
 20
94.957246
 30
0.0
 11
49.789905
 21
94.943774
 31
0.0
 12
49.789905
 22
96.568145
 32
0.0
 13
49.770504
 23
96.554544
 33
0.0
  0
3DFACE
  8
0
  6
CONTINUOUS
 62
     7
 10
49.789905
 20
94.943774
 30
0.0
 11
49.809306
 21
94.930303
 31
0.0
 12
49.809306
 22
96.581747
 32
0.0
 13
49.789905
 23
96.568145
 33
0.0
  0
3DFACE
  8
0
  6
CONTINUOUS
 62
     7
 10
49.809306
 20
94.930303
 30
0.0
 11
49.828707
 21
94.916832
 31
0.0
 12
49.828707
 22
96.595348
 32
0.0
 13
49.809306
 23
96.581747
 33
0.0
  0
3DFACE
  8
0
  6
CONTINUOUS
 62
     7
 10
49.828707
 20
94.916832
 30
0.0
 11
49.848108
 21
94.903361
 31
0.0
 12
49.848108
 22
96.60895
 32
0.0
 13
49.828707
 23
96.595348
 33
0.0
  0
3DFACE
  8
0
  6
CONTINUOUS
 62
     7
 10
49.848108
 20
94.903361
 30
0.0
 11
49.867509
 21
94.889889
 31
0.0
 12
49.867509
 22
96.622551
 32
0.0
 13
49.848108
 23
96.60895
 33
0.0
  0
3DFACE
  8
0
  6
CONTINUOUS
 62
     7
 10
49.867509
 20
94.889889
 30
0.0
 11
49.88691
 21
94.876418
 31
0.0
 12
49.88691
 22
96.636153
 32
0.0
 13
49.867509
 23
96.622551
 33
0.0
  0
3DFACE
  8
0
  6
CONTINUOUS
 62
     7
 10
49.88691
 20
94.876418
 30
0.0
 11
49.906311
 21
94.862947
 31
0.0
 12
49.906311
 22
96.649754
 32
0.0
 13
49.88691
 23
96.636153
 33
0.0
  0
3DFACE
  8
0
  6
CONTINUOUS
 62
     7
 10
49.906311
 20
94.862947
 30
0.0
 11
49.925712
 21
94.849475
 31
0.0
 12
49.925712
 22
96.663356
 32
0.0
 13
49.906311
 23
96.649754
 33
0.0
  0
3DFACE
  8
0
  6
CONTINUOUS
 62
     7
 10
49.925712
 20
94.849475
 30
0.0
 11
49.945113
 21
94.836004
 31
0.0
 12
49.945113
 22
96.676958
 32
0.0
 13
49.925712
 23
96.663356
 33
0.0
  0
3DFACE
  8
0
  6
CONTINUOUS
 62
     7
 10
49.945113
 20
94.836004
 30
0.0
 11
49.964514
 21
94.822533
 31
0.0
 12
49.964514
 22
96.690559
 32
0.0
 13
49.945113
 23
96.676958
 33
0.0
  0
3DFACE
  8
0
  6
CONTINUOUS
 62
     7
 10
49.964514
 20
94.822533
 30
0.0
 11
49.983915
 21
94.809061
 31
0.0
 12
49.983915
 22
96.704161
 32
0.0
 13
49.964514
 23
96.690559
 33
0.0
  0
3DFACE
  8
0
  6
CONTINUOUS
 62
     7
 10
49.983915
 20
94.809061
 30
0.0
 11
50.003317
 21
94.79559
 31
0.0
 12
50.003317
 22
96.717762
 32
0.0
 13
49.983915
 23
96.704161
 33
0.0
  0
3DFACE
  8
0
  6
CONTINUOUS
 62
     7
 10
50.003317
 20
94.79559
 30
0.0
 11
50.022718
 21
94.782119
 31
0.0
 12
50.022718
 22
96.731364
 32
0.0
 13
50.003317
 23
96.717762
 33
0.0
  0
3DFACE
  8
0
  6
CONTINUOUS
 62
     7
 10
50.022718
 20
94.782119
 30
0.0
 11
50.042119
 21
94.768647
 31
0.0
 12
50.042119
 22
96.744965
 32
0.0
 13
50.022718
 23
96.731364
 33
0.0
  0
3DFACE
  8
0
  6
CONTINUOUS
 62
     7
 10
50.042119
 20
94.768647
 30
0.0
 11
50.06152
 21
94.755176
 31
0.0
 12
50.06152
 22
96.758567
 32
0.0
 13
50.042119
 23
96.744965
 33
0.0
  0
3DFACE
  8
0
  6
CONTINUOUS
 62
     7
 10
50.06152
 20
94.755176
 30
0.0
 11
50.080921
 21
94.741705
 31
0.0
 12
50.080921
 22
96.772168
 32
0.0
 13
50.06152
 23
96.758567
 33
0.0
  0
3DFACE
  8
0
  6
CONTINUOUS
 62
     7
 10
50.080921
 20
94.741705
 30
0.0
 11
50.100322
 21
94.728233
 31
0.0
 12
50.100322
 22
96.78577
 32
0.0
 13
50.080921
 23
96.772168
 33
0.0
  0
3DFACE
  8
0
  6
CONTINUOUS
 62
     7
 10
50.100322
 20
94.728233
 30
0.0
 11
50.119723
 21
94.714762
 31
0.0
 12
50.119723
 22
96.799371
 32
0.0
 13
50.100322
 23
96.78577
 33
0.0
  0
3DFACE
  8
0
  6
CONTINUOUS
 62
     7
 10
50.119723
 20
94.714762
 30
0.0
 11
50.139124
 21
94.701291
 31
0.0
 12
50.139124
 22
96.812973
 32
0.0
 13
50.119723
 23
96.799371
 33
0.0
  0
3DFACE
  8
0
  6
CONTINUOUS
 62
     7
 10
50.139124
 20
94.701291
 30
0.0
 11
50.158525
 21
94.687819
 31
0.0
 12
50.158525
 22
96.826574
 32
0.0
 13
50.139124
 23
96.812973
 33
0.0
  0
3DFACE
  8
0
  6
CONTINUOUS
 62
     7
 10
50.158525
 20
94.687819
 30
0.0
 11
50.177926
 21
94.674348
 31
0.0
 12
50.177926
 22
96.840176
 32
0.0
 13
50.158525
 23
96.826574
 33
0.0
  0
3DFACE
  8
0
  6
CONTINUOUS
 62
     7
 10
50.177926
 20
94.674348
 30
0.0
 11
50.197327
 21
94.660877
 31
0.0
 12
50.197327
 22
96.853777
 32
0.0
 13
50.177926
 23
96.840176
 33
0.0
  0
3DFACE
  8
0
  6
CONTINUOUS
 62
     7
 10
50.197327
 20
94.660877
 30
0.0
 11
50.216728
 21
94.647406
 31
0.0
 12
50.216728
 22
96.867379
 32
0.0
 13
50.197327
 23
96.853777
 33
0.0
  0
3DFACE
  8
0
  6
CONTINUOUS
 62
     7
 10
50.216728
 20
94.647406
 30
0.0
 11
50.236129
 21
94.633934
 31
0.0
 12
50.236129
 22
96.88098
 32
0.0
 13
50.216728
 23
96.867379
 33
0.0
  0
3DFACE
  8
0
  6
CONTINUOUS
 62
     7
 10
50.236129
 20
94.633934
 30
0.0
 11
50.25553
 21
94.620463
 31
0.0
 12
50.25553
 22
96.894582
 32
0.0
 13
50.236129
 23
96.88098
 33
0.0
  0
3DFACE
  8
0
  6
CONTINUOUS
 62
     7
 10
50.25553
 20
94.620463
 30
0.0
 11
50.274931
 21
94.606992
 31
0.0
 12
50.274931
 22
96.908184
 32
0.0
 13
50.25553
 23
96.894582
 33
0.0
  0
3DFACE
  8
0
  6
CONTINUOUS
 62
     7
 10
50.274931
 20
94.606992
 30
0.0
 11
50.294332
 21
94.59352
 31
0.0
 12
50.294332
 22
96.921785
 32
0.0
 13
50.274931
 23
96.908184
 33
0.0
  0
3DFACE
  8
0
  6
CONTINUOUS
 62
     7
 10
50.294332
 20
94.59352
 30
0.0
 11
50.313733
 21
94.580049
 31
0.0
 12
50.313733
 22
96.935387
 32
0.0
 13
50.294332
 23
96.921785
 33
0.0
  0
3DFACE
  8
0
  6
CONTINUOUS
 62
     7
 10
50.313733
 20
94.580049
 30
0.0
 11
50.333134
 21
94.566578
 31
0.0
 12
50.333134
 22
96.948988
 32
0.0
 13
50.313733
 23
96.935387
 33
0.0
  0
3DFACE
  8
0
  6
CONTINUOUS
 62
     7
 10
50.333134
 20
94.566578
 30
0.0
 11
50.352535
 21
94.553106
 31
0.0
 12
50.352535
 22
96.96259
 32
0.0
 13
50.333134
 23
96.948988
 33
0.0
  0
3DFACE
  8
0
  6
CONTINUOUS
 62
     7
 10
50.352535
 20
94.553106
 30
0.0
 11
50.371936
 21
94.539635
 31
0.0
 12
50.371936
 22
96.976191
 32
0.0
 13
50.352535
 23
96.96259
 33
0.0
  0
3DFACE
  8
0
  6
CONTINUOUS
 62
     7
 10
50.371936
 20
94.539635
 30
0.0
 11
50.391337
 21
94.526164
 31
0.0
 12
50.391337
 22
96.989793
 32
0.0
 13
50.371936
 23
96.976191
 33
0.0
  0
3DFACE
  8
0
  6
CONTINUOUS
 62
     7
 10
50.391337
 20
94.526164
 30
0.0
 11
50.410738
 21
94.512692
 31
0.0
 12
50.410738
 22
97.003394
 32
0.0
 13
50.391337
 23
96.989793
 33
0.0
  0
3DFACE
  8
0
  6
CONTINUOUS
 62
     7
 10
50.410738
 20
94.512692
 30
0.0
 11
50.430139
 21
94.499221
 31
0.0
 12
50.430139
 22
97.016996
 32
0.0
 13
50.410738
 23
97.003394
 33
0.0
  0
3DFACE
  8
0
  6
CONTINUOUS
 62
     7
 10
50.430139
 20
94.499221
 30
0.0
 11
50.44954
 21
94.48575
 31
0.0
 12
50.44954
 22
97.030597
 32
0.0
 13
50.430139
 23
97.016996
 33
0.0
  0
3DFACE
  8
0
  6
CONTINUOUS
 62
     7
 10
50.44954
 20
94.48575
 30
0.0
 11
50.468941
 21
94.472278
 31
0.0
 12
50.468941
 22
97.044199
 32
0.0
 13
50.44954
 23
97.030597
 33
0.0
  0
3DFACE
  8
0
  6
CONTINUOUS
 62
     7
 10
50.468941
 20
94.472278
 30
0.0
 11
50.488343
 21
94.458807
 31
0.0
 12
50.488343
 22
97.0578
 32
0.0
 13
50.468941
 23
97.044199
 33
0.0
  0
3DFACE
  8
0
  6
CONTINUOUS
 62
     7
 10
50.488343
 20
94.458807
 30
0.0
 11
50.507744
 21
94.445336
 31
0.0
 12
50.507744
 22
97.071402
 32
0.0
 13
50.488343
 23
97.0578
 33
0.0
  0
3DFACE
  8
0
  6
CONTINUOUS
 62
     7
 10
50.507744
 20
94.445336
 30
0.0
 11
50.527145
 21
94.431864
 31
0.0
 12
50.527145
 22
97.085003
 32
0.0
 13
50.507744
 23
97.071402
 33
0.0
  0
3DFACE
  8
0
  6
CONTINUOUS
 62
     7
 10
50.527145
 20
94.431864
 30
0.0
 11
50.546546
 21
94.418393
 31
0.0
 12
50.546546
 22
97.098605
 32
0.0
 13
50.527145
 23
97.085003
 33
0.0
  0
3DFACE
  8
0
  6
CONTINUOUS
 62
     7
 10
50.546546
 20
94.418393
 30
0.0
 11
50.565947
 21
94.404922
 31
0.0
 12
50.565947
 22
97.112207
 32
0.0
 13
50.546546
 23
97.098605
 33
0.0
  0
3DFACE
  8
0
  6
CONTINUOUS
 62
     7
 10
44.834387
 20
95.752053
 30
0.0
 11
44.853788
 21
95.738582
 31
0.0
 12
44.853788
 22
95.765655
 32
0.0
 13
44.834387
 23
95.752053
 33
0.0
  0
3DFACE
  8
0
  6
CONTINUOUS
 62
     7
 10
44.853788
 20
95.738582
 30
0.0
 11
44.873189
 21
95.725111
 31
0.0
 12
44.873189
 22
95.779256
 32
0.0
 13
44.853788
 23
95.765655
 33
0.0
  0
3DFACE
  8
0
  6
CONTINUOUS
 62
     7
 10
44.873189
 20
95.725111
 30
0.0
 11
44.89259
 21
95.711639
 31
0.0
 12
44.89259
 22
95.792858
 32
0.0
 13
44.873189
 23
95.779256
 33
0.0
  0
3DFACE
  8
0
  6
CONTINUOUS
 62
     7
 10
44.89259
 20
95.711639
 30
0.0
 11
44.911991
 21
95.698168
 31
0.0
 12
44.911991
 22
95.80646
 32
0.0
 13
44.89259
 23
95.792858
 33
0.0
  0
3DFACE
  8
0
  6
CONTINUOUS
 62
     7
 10
44.911991
 20
95.698168
 30
0.0
 11
44.931392
 21
95.684697
 31
0.0
 12
44.931392
 22
95.820061
 32
0.0
 13
44.911991
 23
95.80646
 33
0.0
  0
3DFACE
  8
0
  6
CONTINUOUS
 62
     7
 10
44.931392
 20
95.684697
 30
0.0
 11
44.950793
 21
95.671226
 31
0.0
 12
44.950793
 22
95.833663
 32
0.0
 13
44.931392
 23
95.820061
 33
0.0
  0
3DFACE
  8
0
  6
CONTINUOUS
 62
     7
 10
44.950793
 20
95.671226
 30
0.0
 11
44.970194
 21
95.657754
 31
0.0
 12
44.970194
 22
95.847264
 32
0.0
 13
44.950793
 23
95.833663
 33
0.0
  0
3DFACE
  8
0
  6
CONTINUOUS
 62
     7
 10
44.970194
 20
95.657754
 30
0.0
 11
44.989596
 21
95.644283
 31
0.0
 12
44.989596
 22
95.860866
 32
0.0
 13
44.970194
 23
95.847264
 33
0.0
  0
3DFACE
  8
0
  6
CONTINUOUS
 62
     7
 10
44.989596
 20
95.644283
 30
0.0
 11
45.008997
 21
95.630812
 31
0.0
 12
45.008997
 22
95.874467
 32
0.0
 13
44.989596
 23
95.860866
 33
0.0
  0
3DFACE
  8
0
  6
CONTINUOUS
 62
     7
 10
45.008997
 20
95.630812
 30
0.0
 11
45.028398
 21
95.61734
 31
0.0
 12
45.028398
 22
95.888069
 32
0.0
 13
45.008997
 23
95.874467
 33
0.0
  0
3DFACE
  8
0
  6
CONTINUOUS
 62
     7
 10
45.028398
 20
95.61734
 30
0.0
 11
45.047799
 21
95.603869
 31
0.0
 12
45.047799
 22
95.90167
 32
0.0
 13
45.028398
 23
95.888069
 33
0.0
  0
3DFACE
  8
0
  6
CONTINUOUS
 62
     7
 10
45.047799
 20
95.603869
 30
0.0
 11
45.0672
 21
95.590398
 31
0.0
 12
45.0672
 22
95.915272
 32
0.0
 13
45.047799
 23
95.90167
 33
0.0
  0
3DFACE
  8
0
  6
CONTINUOUS
 62
     7
 10
45.0672
 20
95.590398
 30
0.0
 11
45.086601
 21
95.576926
 31
0.0
 12
45.086601
 22
95.928873
 32
0.0
 13
45.0672
 23
95.915272
 33
0.0
  0
3DFACE
  8
0
  6
CONTINUOUS
 62
     7
 10
45.086601
 20
95.576926
 30
0.0
 11
45.106002
 21
95.563455
 31
0.0
 12
45.106002
 22
95.942475
 32
0.0
 13
45.086601
 23
95.928873
 33
0.0
  0
3DFACE
  8
0
  6
CONTINUOUS
 62
     7
 10
45.106002
 20
95.563455
 30
0.0
 11
45.125403
 21
95.549984
 31
0.0
 12
45.125403
 22
95.956076
 32
0.0
 13
45.106002
 23
95.942475
 33
0.0
  0
3DFACE
  8
0
  6
CONTINUOUS
 62
     7
 10
45.125403
 20
95.549984
 30
0.0
 11
45.144804
 21
95.536512
 31
0.0
 12
45.144804
 22
95.969678
 32
0.0
 13
45.125403
 23
95.956076
 33
0.0
  0
3DFACE
  8
0
  6
CONTINUOUS
 62
     7
 10
45.144804
 20
95.536512
 30
0.0
 11
45.164205
 21
95.523041
 31
0.0
 12
45.164205
 22
95.983279
 32
0.0
 13
45.144804
 23
95.969678
 33
0.0
  0
3DFACE
  8
0
  6
CONTINUOUS
 62
     7
 10
45.164205
 20
95.523041
 30
0.0
 11
45.183606
 21
95.50957
 31
0.0
 12
45.183606
 22
95.996881
 32
0.0
 13
45.164205
 23
95.983279
 33
0.0
  0
3DFACE
  8
0
  6
CONTINUOUS
 62
     7
 10
45.183606
 20
95.50957
 30
0.0
 11
45.203007
 21
95.496098
 31
0.0
 12
45.203007
 22
96.010483
 32
0.0
 13
45.183606
 23
95.996881
 33
0.0
  0
3DFACE
  8
0
  6
CONTINUOUS
 62
     7
 10
45.203007
 20
95.496098
 30
0.0
 11
45.222408
 21
95.482627
 31
0.0
 12
45.222408
 22
96.024084
 32
0.0
 13
45.203007
 23
96.010483
 33
0.0
  0
3DFACE
  8
0
  6
CONTINUOUS
 62
     7
 10
45.222408
 20
95.482627
 30
0.0
 11
45.241809
 21
95.469156
 31
0.0
 12
45.241809
 22
96.037686
 32
0.0
 13
45.222408
 23
96.024084
 33
0.0
  0
3DFACE
  8
0
  6
CONTINUOUS
 62
     7
 10
45.241809
 20
95.469156
 30
0.0
 11
45.26121
 21
95.455684
 31
0.0
 12
45.26121
 22
96.051287
 32
0.0
 13
45.241809
 23
96.037686
 33
0.0
  0
3DFACE
  8
0
  6
CONTINUOUS
 62
     7
 10
45.26121
 20
95.455684
 30
0.0
 11
45.280611
 21
95.442213
 31
0.0
 12
45.280611
 22
96.064889
 32
0.0
 13
45.26121
 23
96.051287
 33
0.0
  0
3DFACE
  8
0
  6
CONTINUOUS
 62
     7
 10
45.280611
 20
95.442213
 30
0.0
 11
45.300012
 21
95.428742
 31
0.0
 12
45.300012
 22
96.07849
 32
0.0
 13
45.280611
 23
96.064889
 33
0.0
  0
3DFACE
  8
0
  6
CONTINUOUS
 62
     7
 10
45.300012
 20
95.428742
 30
0.0
 11
45.319413
 21
95.415271
 31
0.0
 12
45.319413
 22
96.092092
 32
0.0
 13
45.300012
 23
96.07849
 33
0.0
  0
3DFACE
  8
0
  6
CONTINUOUS
 62
     7
 10
45.319413
 20
95.415271
 30
0.0
 11
45.338814
 21
95.401799
 31
0.0
 12
45.338814
 22
96.105693
 32
0.0
 13
45.319413
 23
96.092092
 33
0.0
  0
3DFACE
  8
0
  6
CONTINUOUS
 62
     7
 10
45.338814
 20
95.401799
 30
0.0
 11
45.358215
 21
95.388328
 31
0.0
 12
45.358215
 22
96.119295
 32
0.0
 13
45.338814
 23
96.105693
 33
0.0
  0
3DFACE
  8
0
  6
CONTINUOUS
 62
     7
 10
45.358215
 20
95.388328
 30
0.0
 11
45.377616
 21
95.374857
 31
0.0
 12
45.377616
 22
96.132896
 32
0.0
 13
45.358215
 23
96.119295
 33
0.0
  0
3DFACE
  8
0
  6
CONTINUOUS
 62
     7
 10
45.377616
 20
95.374857
 30
0.0
 11
45.397017
 21
95.361385
 31
0.0
 12
45.397017
 22
96.146498
 32
0.0
 13
45.377616
 23
96.132896
 33
0.0
  0
3DFACE
  8
0
  6
CONTINUOUS
 62
     7
 10
45.397017
 20
95.361385
 30
0.0
 11
45.416418
 21
95.347914
 31
0.0
 12
45.416418
 22
96.160099
 32
0.0
 13
45.397017
 23
96.146498
 33
0.0
  0
3DFACE
  8
0
  6
CONTINUOUS
 62
     7
 10
45.416418
 20
95.347914
 30
0.0
 11
45.435819
 21
95.334443
 31
0.0
 12
45.435819
 22
96.173701
 32
0.0
 13
45.416418
 23
96.160099
 33
0.0
  0
3DFACE
  8
0
  6
CONTINUOUS
 62
     7
 10
45.435819
 20
95.334443
 30
0.0
 11
45.45522
 21
95.320971
 31
0.0
 12
45.45522
 22
96.187302
 32
0.0
 13
45.435819
 23
96.173701
 33
0.0
  0
3DFACE
  8
0
  6
CONTINUOUS
 62
     7
 10
45.45522
 20
95.320971
 30
0.0
 11
45.474622
 21
95.3075
 31
0.0
 12
45.474622
 22
96.200904
 32
0.0
 13
45.45522
 23
96.187302
 33
0.0
  0
3DFACE
  8
0
  6
CONTINUOUS
 62
     7
 10
45.474622
 20
95.3075
 30
0.0
 11
45.494023
 21
95.294029
 31
0.0
 12
45.494023
 22
96.214505
 32
0.0
 13
45.474622
 23
96.200904
 33
0.0
  0
3DFACE
  8
0
  6
CONTINUOUS
 62
     7
 10
45.494023
 20
95.294029
 30
0.0
 11
45.513424
 21
95.280557
 31
0.0
 12
45.513424
 22
96.228107
 32
0.0
 13
45.494023
 23
96.214505
 33
0.0
  0
3DFACE
  8
0
  6
CONTINUOUS
 62
     7
 10
45.513424
 20
95.280557
 30
0.0
 11
45.532825
 21
95.267086
 31
0.0
 12
45.532825
 22
96.241709
 32
0.0
 13
45.513424
 23
96.228107
 33
0.0
  0
3DFACE
  8
0
  6
CONTINUOUS
 62
     7
 10
45.532825
 20
95.267086
 30
0.0
 11
45.552226
 21
95.253615
 31
0.0
 12
45.552226
 22
96.25531
 32
0.0
 13
45.532825
 23
96.241709
 33
0.0
  0
3DFACE
  8
0
  6
CONTINUOUS
 62
     7
 10
45.552226
 20
95.253615
 30
0.0
 11
45.571627
 21
95.240143
 31
0.0
 12
45.571627
 22
96.268912
 32
0.0
 13
45.552226
 23
96.25531
 33
0.0
  0
3DFACE
  8
0
  6
CONTINUOUS
 62
     7
 10
45.571627
 20
95.240143
 30
0.0
 11
45.591028
 21
95.226672
 31
0.0
 12
45.591028
 22
96.282513
 32
0.0
 13
45.571627
 23
96.268912
 33
0.0
  0
3DFACE
  8
0
  6
CONTINUOUS
 62
     7
 10
45.591028
 20
95.226672
 30
0.0
 11
45.610429
 21
95.213201
 31
0.0
 12
45.610429
 22
96.296115
 32
0.0
 13
45.591028
 23
96.282513
 33
0.0
  0
3DFACE
  8
0
  6
CONTINUOUS
 62
     7
 10
45.610429
 20
95.213201
 30
0.0
 11
45.62983
 21
95.199729
 31
0.0
 12
45.62983
 22
96.309716
 32
0.0
 13
45.610429
 23
96.296115
 33
0.0
  0
3DFACE
  8
0
  6
CONTINUOUS
 62
     7
 10
45.62983
 20
95.199729
 30
0.0
 11
45.649231
 21
95.186258
 31
0.0
 12
45.649231
 22
96.323318
 32
0.0
 13
45.62983
 23
96.309716
 33
0.0
  0
3DFACE
  8
0
  6
CONTINUOUS
 62
     7
 10
45.649231
 20
95.186258
 30
0.0
 11
45.668632
 21
95.172787
 31
0.0
 12
45.668632
 22
96.336919
 32
0.0
 13
45.649231
 23
96.323318
 33
0.0
  0
3DFACE
  8
0
  6
CONTINUOUS
 62
     7
 10
45.668632
 20
95.172787
 30
0.0
 11
45.688033
 21
95.159316
 31
0.0
 12
45.688033
 22
96.350521
 32
0.0
 13
45.668632
 23
96.336919
 33
0.0
  0
3DFACE
  8
0
  6
CONTINUOUS
 62
     7
 10
45.688033
 20
95.159316
 30
0.0
 11
45.707434
 21
95.145844
 31
0.0
 12
45.707434
 22
96.364122
 32
0.0
 13
45.688033
 23
96.350521
 33
0.0
  0
3DFACE
  8
0
  6
CONTINUOUS
 62
     7
 10
45.707434
 20
95.145844
 30
0.0
 11
45.726835
 21
95.132373
 31
0.0
 12
45.726835
 22
96.377724
 32
0.0
 13
45.707434
 23
96.364122
 33
0.0
  0
3DFACE
  8
0
  6
CONTINUOUS
 62
     7
 10
45.726835
 20
95.132373
 30
0.0
 11
45.746236
 21
95.118902
 31
0.0
 12
45.746236
 22
96.391325
 32
0.0
 13
45.726835
 23
96.377724
 33
0.0
  0
3DFACE
  8
0
  6
CONTINUOUS
 62
     7
 10
45.746236
 20
95.118902
 30
0.0
 11
45.765637
 21
95.10543
 31
0.0
 12
45.765637
 22
96.404927
 32
0.0
 13
45.746236
 23
96.391325
 33
0.0
  0
3DFACE
  8
0
  6
CONTINUOUS
 62
     7
 10
45.765637
 20
95.10543
 30
0.0
 11
45.785038
 21
95.091959
 31
0.0
 12
45.785038
 22
96.418528
 32
0.0
 13
45.765637
 23
96.404927
 33
0.0
  0
3DFACE
  8
0
  6
CONTINUOUS
 62
     7
 10
45.785038
 20
95.091959
 30
0.0
 11
45.804439
 21
95.078488
 31
0.0
 12
45.804439
 22
96.43213
 32
0.0
 13
45.785038
 23
96.418528
 33
0.0
  0
3DFACE
  8
0
  6
CONTINUOUS
 62
     7
 10
45.804439
 20
95.078488
 30
0.0
 11
45.82384
 21
95.065016
 31
0.0
 12
45.82384
 22
96.445731
 32
0.0
 13
45.804439
 23
96.43213
 33
0.0
  0
3DFACE
  8
0
  6
CONTINUOUS
 62
     7
 10
45.82384
 20
95.065016
 30
0.0
 11
45.843241
 21
95.051545
 31
0.0
 12
45.843241
 22
96.459333
 32
0.0
 13
45.82384
 23
96.445731
 33
0.0
  0
3DFACE
  8
0
  6
CONTINUOUS
 62
     7
 10
45.843241
 20
95.051545
 30
0.0
 11
45.862642
 21
95.038074
 31
0.0
 12
45.862642
 22
96.472935
 32
0.0
 13
45.843241
 23
96.459333
 33
0.0
  0
3DFACE
  8
0
  6
CONTINUOUS
 62
     7
 10
45.862642
 20
95.038074
 30
0.0
 11
45.882043
 21
95.024602
 31
0.0
 12
45.882043
 22
96.486536
 32
0.0
 13
45.862642
 23
96.472935
 33
0.0
  0
3DFACE
  8
0
  6
CONTINUOUS
 62
     7
 10
45.882043
 20
95.024602
 30
0.0
 11
45.901444
 21
95.011131
 31
0.0
 12
45.901444
 22
96.500138
 32
0.0
 13
45.882043
 23
96.486536
 33
0.0
  0
3DFACE
  8
0
  6
CONTINUOUS
 62
     7
 10
45.901444
 20
95.011131
 30
0.0
 11
45.920845
 21
94.99766
 31
0.0
 12
45.920845
 22
96.513739
 32
0.0
 13
45.901444
 23
96.500138
 33
0.0
  0
3DFACE
  8
0
  6
CONTINUOUS
 62
     7
 10
45.920845
 20
94.99766
 30
0.0
 11
45.940246
 21
94.984188
 31
0.0
 12
45.940246
 22
96.527341
 32
0.0
 13
45.920845
 23
96.513739
 33
0.0
  0
3DFACE
  8
0
  6
CONTINUOUS
 62
     7
 10
45.940246
 20
94.984188
 30
0.0
 11
45.959648
 21
94.970717
 31
0.0
 12
45.959648
 22
96.540942
 32
0.0
 13
45.940246
 23
96.527341
 33
0.0
  0
3DFACE
  8
0
  6
CONTINUOUS
 62
     7
 10
45.959648
 20
94.970717
 30
0.0
 11
45.979049
 21
94.957246
 31
0.0
 12
45.979049
 22
96.554544
 32
0.0
 13
45.959648
 23
96.540942
 33
0.0
  0
3DFACE
  8
0
  6
CONTINUOUS
 62
     7
 10
45.979049
 20
94.957246
 30
0.0
 11
45.99845
 21
94.943774
 31
0.0
 12
45.99845
 22
96.568145
 32
0.0
 13
45.979049
 23
96.554544
 33
0.0
  0
3DFACE
  8
0
  6
CONTINUOUS
 62
     7
 10
45.99845
 20
94.943774
 30
0.0
 11
46.017851
 21
94.930303
 31
0.0
 12
46.017851
 22
96.581747
 32
0.0
 13
45.99845
 23
96.568145
 33
0.0
  0
3DFACE
  8
0
  6
CONTINUOUS
 62
     7
 10
46.017851
 20
94.930303
 30
0.0
 11
46.037252
 21
94.916832
 31
0.0
 12
46.037252
 22
96.595348
 32
0.0
 13
46.017851
 23
96.581747
 33
0.0
  0
3DFACE
  8
0
  6
CONTINUOUS
 62
     7
 10
46.037252
 20
94.916832
 30
0.0
 11
46.056653
 21
94.903361
 31
0.0
 12
46.056653
 22
96.60895
 32
0.0
 13
46.037252
 23
96.595348
 33
0.0
  0
3DFACE
  8
0
  6
CONTINUOUS
 62
     7
 10
46.056653
 20
94.903361
 30
0.0
 11
46.076054
 21
94.889889
 31
0.0
 12
46.076054
 22
96.622551
 32
0.0
 13
46.056653
 23
96.60895
 33
0.0
  0
3DFACE
  8
0
  6
CONTINUOUS
 62
     7
 10
46.076054
 20
94.889889
 30
0.0
 11
46.095455
 21
94.876418
 31
0.0
 12
46.095455
 22
96.636153
 32
0.0
 13
46.076054
 23
96.622551
 33
0.0
  0
3DFACE
  8
0
  6
CONTINUOUS
 62
     7
 10
46.095455
 20
94.876418
 30
0.0
 11
46.114856
 21
94.862947
 31
0.0
 12
46.114856
 22
96.649754
 32
0.0
 13
46.095455
 23
96.636153
 33
0.0
  0
3DFACE
  8
0
  6
CONTINUOUS
 62
     7
 10
46.114856
 20
94.862947
 30
0.0
 11
46.134257
 21
94.849475
 31
0.0
 12
46.134257
 22
96.663356
 32
0.0
 13
46.114856
 23
96.649754
 33
0.0
  0
3DFACE
  8
0
  6
CONTINUOUS
 62
     7
 10
46.134257
 20
94.849475
 30
0.0
 11
46.153658
 21
94.836004
 31
0.0
 12
46.153658
 22
96.676958
 32
0.0
 13
46.134257
 23
96.663356
 33
0.0
  0
3DFACE
  8
0
  6
CONTINUOUS
 62
     7
 10
46.153658
 20
94.836004
 30
0.0
 11
46.173059
 21
94.822533
 31
0.0
 12
46.173059
 22
96.690559
 32
0.0
 13
46.153658
 23
96.676958
 33
0.0
  0
3DFACE
  8
0
  6
CONTINUOUS
 62
     7
 10
46.173059
 20
94.822533
 30
0.0
 11
46.19246
 21
94.809061
 31
0.0
 12
46.19246
 22
96.704161
 32
0.0
 13
46.173059
 23
96.690559
 33
0.0
  0
3DFACE
  8
0
  6
CONTINUOUS
 62
     7
 10
46.19246
 20
94.809061
 30
0.0
 11
46.211861
 21
94.79559
 31
0.0
 12
46.211861
 22
96.717762
 32
0.0
 13
46.19246
 23
96.704161
 33
0.0
  0
3DFACE
  8
0
  6
CONTINUOUS
 62
     7
 10
46.211861
 20
94.79559
 30
0.0
 11
46.231262
 21
94.782119
 31
0.0
 12
46.231262
 22
96.731364
 32
0.0
 13
46.211861
 23
96.717762
 33
0.0
  0
3DFACE
  8
0
  6
CONTINUOUS
 62
     7
 10
46.231262
 20
94.782119
 30
0.0
 11
46.250663
 21
94.768647
 31
0.0
 12
46.250663
 22
96.744965
 32
0.0
 13
46.231262
 23
96.731364
 33
0.0
  0
3DFACE
  8
0
  6
CONTINUOUS
 62
     7
 10
46.250663
 20
94.768647
 30
0.0
 11
46.270064
 21
94.755176
 31
0.0
 12
46.270064
 22
96.758567
 32
0.0
 13
46.250663
 23
96.744965
 33
0.0
  0
3DFACE
  8
0
  6
CONTINUOUS
 62
     7
 10
46.270064
 20
94.755176
 30
0.0
 11
46.289465
 21
94.741705
 31
0.0
 12
46.289465
 22
96.772168
 32
0.0
 13
46.270064
 23
96.758567
 33
0.0
  0
3DFACE
  8
0
  6
CONTINUOUS
 62
     7
 10
46.289465
 20
94.741705
 30
0.0
 11
46.308866
 21
94.728233
 31
0.0
 12
46.308866
 22
96.78577
 32
0.0
 13
46.289465
 23
96.772168
 33
0.0
  0
3DFACE
  8
0
  6
CONTINUOUS
 62
     7
 10
46.308866
 20
94.728233
 30
0.0
 11
46.328267
 21
94.714762
 31
0.0
 12
46.328267
 22
96.799371
 32
0.0
 13
46.308866
 23
96.78577
 33
0.0
  0
3DFACE
  8
0
  6
CONTINUOUS
 62
     7
 10
46.328267
 20
94.714762
 30
0.0
 11
46.347668
 21
94.701291
 31
0.0
 12
46.347668
 22
96.812973
 32
0.0
 13
46.328267
 23
96.799371
 33
0.0
  0
3DFACE
  8
0
  6
CONTINUOUS
 62
     7
 10
46.347668
 20
94.701291
 30
0.0
 11
46.367069
 21
94.687819
 31
0.0
 12
46.367069
 22
96.826574
 32
0.0
 13
46.347668
 23
96.812973
 33
0.0
  0
3DFACE
  8
0
  6
CONTINUOUS
 62
     7
 10
46.367069
 20
94.687819
 30
0.0
 11
46.38647
 21
94.674348
 31
0.0
 12
46.38647
 22
96.840176
 32
0.0
 13
46.367069
 23
96.826574
 33
0.0
  0
3DFACE
  8
0
  6
CONTINUOUS
 62
     7
 10
46.38647
 20
94.674348
 30
0.0
 11
46.405871
 21
94.660877
 31
0.0
 12
46.405871
 22
96.853777
 32
0.0
 13
46.38647
 23
96.840176
 33
0.0
  0
3DFACE
  8
0
  6
CONTINUOUS
 62
     7
 10
46.405871
 20
94.660877
 30
0.0
 11
46.425272
 21
94.647406
 31
0.0
 12
46.425272
 22
96.867379
 32
0.0
 13
46.405871
 23
96.853777
 33
0.0
  0
3DFACE
  8
0
  6
CONTINUOUS
 62
     7
 10
46.425272
 20
94.647406
 30
0.0
 11
46.444674
 21
94.633934
 31
0.0
 12
46.444674
 22
96.88098
 32
0.0
 13
46.425272
 23
96.867379
 33
0.0
  0
3DFACE
  8
0
  6
CONTINUOUS
 62
     7
 10
46.444674
 20
94.633934
 30
0.0
 11
46.464075
 21
94.620463
 31
0.0
 12
46.464075
 22
96.894582
 32
0.0
 13
46.444674
 23
96.88098
 33
0.0
  0
3DFACE
  8
0
  6
CONTINUOUS
 62
     7
 10
46.464075
 20
94.620463
 30
0.0
 11
46.483476
 21
94.606992
 31
0.0
 12
46.483476
 22
96.908184
 32
0.0
 13
46.464075
 23
96.894582
 33
0.0
  0
3DFACE
  8
0
  6
CONTINUOUS
 62
     7
 10
46.483476
 20
94.606992
 30
0.0
 11
46.502877
 21
94.59352
 31
0.0
 12
46.502877
 22
96.921785
 32
0.0
 13
46.483476
 23
96.908184
 33
0.0
  0
3DFACE
  8
0
  6
CONTINUOUS
 62
     7
 10
46.502877
 20
94.59352
 30
0.0
 11
46.522278
 21
94.580049
 31
0.0
 12
46.522278
 22
96.935387
 32
0.0
 13
46.502877
 23
96.921785
 33
0.0
  0
3DFACE
  8
0
  6
CONTINUOUS
 62
     7
 10
46.522278
 20
94.580049
 30
0.0
 11
46.541679
 21
94.566578
 31
0.0
 12
46.541679
 22
96.948988
 32
0.0
 13
46.522278
 23
96.935387
 33
0.0
  0
3DFACE
  8
0
  6
CONTINUOUS
 62
     7
 10
46.541679
 20
94.566578
 30
0.0
 11
46.56108
 21
94.553106
 31
0.0
 12
46.56108
 22
96.96259
 32
0.0
 13
46.541679
 23
96.948988
 33
0.0
  0
3DFACE
  8
0
  6
CONTINUOUS
 62
     7
 10
46.56108
 20
94.553106
 30
0.0
 11
46.580481
 21
94.539635
 31
0.0
 12
46.580481
 22
96.976191
 32
0.0
 13
46.56108
 23
96.96259
 33
0.0
  0
3DFACE
  8
0
  6
CONTINUOUS
 62
     7
 10
46.580481
 20
94.539635
 30
0.0
 11
46.599882
 21
94.526164
 31
0.0
 12
46.599882
 22
96.989793
 32
0.0
 13
46.580481
 23
96.976191
 33
0.0
  0
3DFACE
  8
0
  6
CONTINUOUS
 62
     7
 10
46.599882
 20
94.526164
 30
0.0
 11
46.619283
 21
94.512692
 31
0.0
 12
46.619283
 22
97.003394
 32
0.0
 13
46.599882
 23
96.989793
 33
0.0
  0
3DFACE
  8
0
  6
CONTINUOUS
 62
     7
 10
46.619283
 20
94.512692
 30
0.0
 11
46.638684
 21
94.499221
 31
0.0
 12
46.638684
 22
97.016996
 32
0.0
 13
46.619283
 23
97.003394
 33
0.0
  0
3DFACE
  8
0
  6
CONTINUOUS
 62
     7
 10
46.638684
 20
94.499221
 30
0.0
 11
46.658085
 21
94.48575
 31
0.0
 12
46.658085
 22
97.030597
 32
0.0
 13
46.638684
 23
97.016996
 33
0.0
  0
3DFACE
  8
0
  6
CONTINUOUS
 62
     7
 10
46.658085
 20
94.48575
 30
0.0
 11
46.677486
 21
94.472278
 31
0.0
 12
46.677486
 22
97.044199
 32
0.0
 13
46.658085
 23
97.030597
 33
0.0
  0
3DFACE
  8
0
  6
CONTINUOUS
 62
     7
 10
46.677486
 20
94.472278
 30
0.0
 11
46.696887
 21
94.458807
 31
0.0
 12
46.696887
 22
97.0578
 32
0.0
 13
46.677486
 23
97.044199
 33
0.0
  0
3DFACE
  8
0
  6
CONTINUOUS
 62
     7
 10
46.696887
 20
94.458807
 30
0.0
 11
46.716288
 21
94.445336
 31
0.0
 12
46.716288
 22
97.071402
 32
0.0
 13
46.696887
 23
97.0578
 33
0.0
  0
3DFACE
  8
0
  6
CONTINUOUS
 62
     7
 10
46.716288
 20
94.445336
 30
0.0
 11
46.735689
 21
94.431864
 31
0.0
 12
46.735689
 22
97.085003
 32
0.0
 13
46.716288
 23
97.071402
 33
0.0
  0
3DFACE
  8
0
  6
CONTINUOUS
 62
     7
 10
46.735689
 20
94.431864
 30
0.0
 11
46.75509
 21
94.418393
 31
0.0
 12
46.75509
 22
97.098605
 32
0.0
 13
46.735689
 23
97.085003
 33
0.0
  0
3DFACE
  8
0
  6
CONTINUOUS
 62
     7
 10
46.75509
 20
94.418393
 30
0.0
 11
46.774491
 21
94.404922
 31
0.0
 12
46.774491
 22
97.112207
 32
0.0
 13
46.75509
 23
97.098605
 33
0.0
  0
3DFACE
  8
0
  6
CONTINUOUS
 62
     7
 10
41.042932
 20
95.752053
 30
0.0
 11
41.062333
 21
95.738582
 31
0.0
 12
41.062333
 22
95.765655
 32
0.0
 13
41.042932
 23
95.752053
 33
0.0
  0
3DFACE
  8
0
  6
CONTINUOUS
 62
     7
 10
41.062333
 20
95.738582
 30
0.0
 11
41.081734
 21
95.725111
 31
0.0
 12
41.081734
 22
95.779256
 32
0.0
 13
41.062333
 23
95.765655
 33
0.0
  0
3DFACE
  8
0
  6
CONTINUOUS
 62
     7
 10
41.081734
 20
95.725111
 30
0.0
 11
41.101135
 21
95.711639
 31
0.0
 12
41.101135
 22
95.792858
 32
0.0
 13
41.081734
 23
95.779256
 33
0.0
  0
3DFACE
  8
0
  6
CONTINUOUS
 62
     7
 10
41.101135
 20
95.711639
 30
0.0
 11
41.120536
 21
95.698168
 31
0.0
 12
41.120536
 22
95.80646
 32
0.0
 13
41.101135
 23
95.792858
 33
0.0
  0
3DFACE
  8
0
  6
CONTINUOUS
 62
     7
 10
41.120536
 20
95.698168
 30
0.0
 11
41.139937
 21
95.684697
 31
0.0
 12
41.139937
 22
95.820061
 32
0.0
 13
41.120536
 23
95.80646
 33
0.0
  0
3DFACE
  8
0
  6
CONTINUOUS
 62
     7
 10
41.139937
 20
95.684697
 30
0.0
 11
41.159338
 21
95.671226
 31
0.0
 12
41.159338
 22
95.833663
 32
0.0
 13
41.139937
 23
95.820061
 33
0.0
  0
3DFACE
  8
0
  6
CONTINUOUS
 62
     7
 10
41.159338
 20
95.671226
 30
0.0
 11
41.178739
 21
95.657754
 31
0.0
 12
41.178739
 22
95.847264
 32
0.0
 13
41.159338
 23
95.833663
 33
0.0
  0
3DFACE
  8
0
  6
CONTINUOUS
 62
     7
 10
41.178739
 20
95.657754
 30
0.0
 11
41.19814
 21
95.644283
 31
0.0
 12
41.19814
 22
95.860866
 32
0.0
 13
41.178739
 23
95.847264
 33
0.0
  0
3DFACE
  8
0
  6
CONTINUOUS
 62
     7
 10
41.19814
 20
95.644283
 30
0.0
 11
41.217541
 21
95.630812
 31
0.0
 12
41.217541
 22
95.874467
 32
0.0
 13
41.19814
 23
95.860866
 33
0.0
  0
3DFACE
  8
0
  6
CONTINUOUS
 62
     7
 10
41.217541
 20
95.630812
 30
0.0
 11
41.236942
 21
95.61734
 31
0.0
 12
41.236942
 22
95.888069
 32
0.0
 13
41.217541
 23
95.874467
 33
0.0
  0
3DFACE
  8
0
  6
CONTINUOUS
 62
     7
 10
41.236942
 20
95.61734
 30
0.0
 11
41.256343
 21
95.603869
 31
0.0
 12
41.256343
 22
95.90167
 32
0.0
 13
41.236942
 23
95.888069
 33
0.0
  0
3DFACE
  8
0
  6
CONTINUOUS
 62
     7
 10
41.256343
 20
95.603869
 30
0.0
 11
41.275744
 21
95.590398
 31
0.0
 12
41.275744
 22
95.915272
 32
0.0
 13
41.256343
 23
95.90167
 33
0.0
  0
3DFACE
  8
0
  6
CONTINUOUS
 62
     7
 10
41.275744
 20
95.590398
 30
0.0
 11
41.295145
 21
95.576926
 31
0.0
 12
41.295145
 22
95.928873
 32
0.0
 13
41.275744
 23
95.915272
 33
0.0
  0
3DFACE
  8
0
  6
CONTINUOUS
 62
     7
 10
41.295145
 20
95.576926
 30
0.0
 11
41.314546
 21
95.563455
 31
0.0
 12
41.314546
 22
95.942475
 32
0.0
 13
41.295145
 23
95.928873
 33
0.0
  0
3DFACE
  8
0
  6
CONTINUOUS
 62
     7
 10
41.314546
 20
95.563455
 30
0.0
 11
41.333947
 21
95.549984
 31
0.0
 12
41.333947
 22
95.956076
 32
0.0
 13
41.314546
 23
95.942475
 33
0.0
  0
3DFACE
  8
0
  6
CONTINUOUS
 62
     7
 10
41.333947
 20
95.549984
 30
0.0
 11
41.353348
 21
95.536512
 31
0.0
 12
41.353348
 22
95.969678
 32
0.0
 13
41.333947
 23
95.956076
 33
0.0
  0
3DFACE
  8
0
  6
CONTINUOUS
 62
     7
 10
41.353348
 20
95.536512
 30
0.0
 11
41.372749
 21
95.523041
 31
0.0
 12
41.372749
 22
95.983279
 32
0.0
 13
41.353348
 23
95.969678
 33
0.0
  0
3DFACE
  8
0
  6
CONTINUOUS
 62
     7
 10
41.372749
 20
95.523041
 30
0.0
 11
41.39215
 21
95.50957
 31
0.0
 12
41.39215
 22
95.996881
 32
0.0
 13
41.372749
 23
95.983279
 33
0.0
  0
3DFACE
  8
0
  6
CONTINUOUS
 62
     7
 10
41.39215
 20
95.50957
 30
0.0
 11
41.411551
 21
95.496098
 31
0.0
 12
41.411551
 22
96.010483
 32
0.0
 13
41.39215
 23
95.996881
 33
0.0
  0
3DFACE
  8
0
  6
CONTINUOUS
 62
     7
 10
41.411551
 20
95.496098
 30
0.0
 11
41.430953
 21
95.482627
 31
0.0
 12
41.430953
 22
96.024084
 32
0.0
 13
41.411551
 23
96.010483
 33
0.0
  0
3DFACE
  8
0
  6
CONTINUOUS
 62
     7
 10
41.430953
 20
95.482627
 30
0.0
 11
41.450354
 21
95.469156
 31
0.0
 12
41.450354
 22
96.037686
 32
0.0
 13
41.430953
 23
96.024084
 33
0.0
  0
3DFACE
  8
0
  6
CONTINUOUS
 62
     7
 10
41.450354
 20
95.469156
 30
0.0
 11
41.469755
 21
95.455684
 31
0.0
 12
41.469755
 22
96.051287
 32
0.0
 13
41.450354
 23
96.037686
 33
0.0
  0
3DFACE
  8
0
  6
CONTINUOUS
 62
     7
 10
41.469755
 20
95.455684
 30
0.0
 11
41.489156
 21
95.442213
 31
0.0
 12
41.489156
 22
96.064889
 32
0.0
 13
41.469755
 23
96.051287
 33
0.0
  0
3DFACE
  8
0
  6
CONTINUOUS
 62
     7
 10
41.489156
 20
95.442213
 30
0.0
 11
41.508557
 21
95.428742
 31
0.0
 12
41.508557
 22
96.07849
 32
0.0
 13
41.489156
 23
96.064889
 33
0.0
  0
3DFACE
  8
0
  6
CONTINUOUS
 62
     7
 10
41.508557
 20
95.428742
 30
0.0
 11
41.527958
 21
95.415271
 31
0.0
 12
41.527958
 22
96.092092
 32
0.0
 13
41.508557
 23
96.07849
 33
0.0
  0
3DFACE
  8
0
  6
CONTINUOUS
 62
     7
 10
41.527958
 20
95.415271
 30
0.0
 11
41.547359
 21
95.401799
 31
0.0
 12
41.547359
 22
96.105693
 32
0.0
 13
41.527958
 23
96.092092
 33
0.0
  0
3DFACE
  8
0
  6
CONTINUOUS
 62
     7
 10
41.547359
 20
95.401799
 30
0.0
 11
41.56676
 21
95.388328
 31
0.0
 12
41.56676
 22
96.119295
 32
0.0
 13
41.547359
 23
96.105693
 33
0.0
  0
3DFACE
  8
0
  6
CONTINUOUS
 62
     7
 10
41.56676
 20
95.388328
 30
0.0
 11
41.586161
 21
95.374857
 31
0.0
 12
41.586161
 22
96.132896
 32
0.0
 13
41.56676
 23
96.119295
 33
0.0
  0
3DFACE
  8
0
  6
CONTINUOUS
 62
     7
 10
41.586161
 20
95.374857
 30
0.0
 11
41.605562
 21
95.361385
 31
0.0
 12
41.605562
 22
96.146498
 32
0.0
 13
41.586161
 23
96.132896
 33
0.0
  0
3DFACE
  8
0
  6
CONTINUOUS
 62
     7
 10
41.605562
 20
95.361385
 30
0.0
 11
41.624963
 21
95.347914
 31
0.0
 12
41.624963
 22
96.160099
 32
0.0
 13
41.605562
 23
96.146498
 33
0.0
  0
3DFACE
  8
0
  6
CONTINUOUS
 62
     7
 10
41.624963
 20
95.347914
 30
0.0
 11
41.644364
 21
95.334443
 31
0.0
 12
41.644364
 22
96.173701
 32
0.0
 13
41.624963
 23
96.160099
 33
0.0
  0
3DFACE
  8
0
  6
CONTINUOUS
 62
     7
 10
41.644364
 20
95.334443
 30
0.0
 11
41.663765
 21
95.320971
 31
0.0
 12
41.663765
 22
96.187302
 32
0.0
 13
41.644364
 23
96.173701
 33
0.0
  0
3DFACE
  8
0
  6
CONTINUOUS
 62
     7
 10
41.663765
 20
95.320971
 30
0.0
 11
41.683166
 21
95.3075
 31
0.0
 12
41.683166
 22
96.200904
 32
0.0
 13
41.663765
 23
96.187302
 33
0.0
  0
3DFACE
  8
0
  6
CONTINUOUS
 62
     7
 10
41.683166
 20
95.3075
 30
0.0
 11
41.702567
 21
95.294029
 31
0.0
 12
41.702567
 22
96.214505
 32
0.0
 13
41.683166
 23
96.200904
 33
0.0
  0
3DFACE
  8
0
  6
CONTINUOUS
 62
     7
 10
41.702567
 20
95.294029
 30
0.0
 11
41.721968
 21
95.280557
 31
0.0
 12
41.721968
 22
96.228107
 32
0.0
 13
41.702567
 23
96.214505
 33
0.0
  0
3DFACE
  8
0
  6
CONTINUOUS
 62
     7
 10
41.721968
 20
95.280557
 30
0.0
 11
41.741369
 21
95.267086
 31
0.0
 12
41.741369
 22
96.241709
 32
0.0
 13
41.721968
 23
96.228107
 33
0.0
  0
3DFACE
  8
0
  6
CONTINUOUS
 62
     7
 10
41.741369
 20
95.267086
 30
0.0
 11
41.76077
 21
95.253615
 31
0.0
 12
41.76077
 22
96.25531
 32
0.0
 13
41.741369
 23
96.241709
 33
0.0
  0
3DFACE
  8
0
  6
CONTINUOUS
 62
     7
 10
41.76077
 20
95.253615
 30
0.0
 11
41.780171
 21
95.240143
 31
0.0
 12
41.780171
 22
96.268912
 32
0.0
 13
41.76077
 23
96.25531
 33
0.0
  0
3DFACE
  8
0
  6
CONTINUOUS
 62
     7
 10
41.780171
 20
95.240143
 30
0.0
 11
41.799572
 21
95.226672
 31
0.0
 12
41.799572
 22
96.282513
 32
0.0
 13
41.780171
 23
96.268912
 33
0.0
  0
3DFACE
  8
0
  6
CONTINUOUS
 62
     7
 10
41.799572
 20
95.226672
 30
0.0
 11
41.818973
 21
95.213201
 31
0.0
 12
41.818973
 22
96.296115
 32
0.0
 13
41.799572
 23
96.282513
 33
0.0
  0
3DFACE
  8
0
  6
CONTINUOUS
 62
     7
 10
41.818973
 20
95.213201
 30
0.0
 11
41.838374
 21
95.199729
 31
0.0
 12
41.838374
 22
96.309716
 32
0.0
 13
41.818973
 23
96.296115
 33
0.0
  0
3DFACE
  8
0
  6
CONTINUOUS
 62
     7
 10
41.838374
 20
95.199729
 30
0.0
 11
41.857775
 21
95.186258
 31
0.0
 12
41.857775
 22
96.323318
 32
0.0
 13
41.838374
 23
96.309716
 33
0.0
  0
3DFACE
  8
0
  6
CONTINUOUS
 62
     7
 10
41.857775
 20
95.186258
 30
0.0
 11
41.877176
 21
95.172787
 31
0.0
 12
41.877176
 22
96.336919
 32
0.0
 13
41.857775
 23
96.323318
 33
0.0
  0
3DFACE
  8
0
  6
CONTINUOUS
 62
     7
 10
41.877176
 20
95.172787
 30
0.0
 11
41.896577
 21
95.159316
 31
0.0
 12
41.896577
 22
96.350521
 32
0.0
 13
41.877176
 23
96.336919
 33
0.0
  0
3DFACE
  8
0
  6
CONTINUOUS
 62
     7
 10
41.896577
 20
95.159316
 30
0.0
 11
41.915978
 21
95.145844
 31
0.0
 12
41.915978
 22
96.364122
 32
0.0
 13
41.896577
 23
96.350521
 33
0.0
  0
3DFACE
  8
0
  6
CONTINUOUS
 62
     7
 10
41.915978
 20
95.145844
 30
0.0
 11
41.93538
 21
95.132373
 31
0.0
 12
41.93538
 22
96.377724
 32
0.0
 13
41.915978
 23
96.364122
 33
0.0
  0
3DFACE
  8
0
  6
CONTINUOUS
 62
     7
 10
41.93538
 20
95.132373
 30
0.0
 11
41.954781
 21
95.118902
 31
0.0
 12
41.954781
 22
96.391325
 32
0.0
 13
41.93538
 23
96.377724
 33
0.0
  0
3DFACE
  8
0
  6
CONTINUOUS
 62
     7
 10
41.954781
 20
95.118902
 30
0.0
 11
41.974182
 21
95.10543
 31
0.0
 12
41.974182
 22
96.404927
 32
0.0
 13
41.954781
 23
96.391325
 33
0.0
  0
3DFACE
  8
0
  6
CONTINUOUS
 62
     7
 10
41.974182
 20
95.10543
 30
0.0
 11
41.993583
 21
95.091959
 31
0.0
 12
41.993583
 22
96.418528
 32
0.0
 13
41.974182
 23
96.404927
 33
0.0
  0
3DFACE
  8
0
  6
CONTINUOUS
 62
     7
 10
41.993583
 20
95.091959
 30
0.0
 11
42.012984
 21
95.078488
 31
0.0
 12
42.012984
 22
96.43213
 32
0.0
 13
41.993583
 23
96.418528
 33
0.0
  0
3DFACE
  8
0
  6
CONTINUOUS
 62
     7
 10
42.012984
 20
95.078488
 30
0.0
 11
42.032385
 21
95.065016
 31
0.0
 12
42.032385
 22
96.445731
 32
0.0
 13
42.012984
 23
96.43213
 33
0.0
  0
3DFACE
  8
0
  6
CONTINUOUS
 62
     7
 10
42.032385
 20
95.065016
 30
0.0
 11
42.051786
 21
95.051545
 31
0.0
 12
42.051786
 22
96.459333
 32
0.0
 13
42.032385
 23
96.445731
 33
0.0
  0
3DFACE
  8
0
  6
CONTINUOUS
 62
     7
 10
42.051786
 20
95.051545
 30
0.0
 11
42.071187
 21
95.038074
 31
0.0
 12
42.071187
 22
96.472935
 32
0.0
 13
42.051786
 23
96.459333
 33
0.0
  0
3DFACE
  8
0
  6
CONTINUOUS
 62
     7
 10
42.071187
 20
95.038074
 30
0.0
 11
42.090588
 21
95.024602
 31
0.0
 12
42.090588
 22
96.486536
 32
0.0
 13
42.071187
 23
96.472935
 33
0.0
  0
3DFACE
  8
0
  6
CONTINUOUS
 62
     7
 10
42.090588
 20
95.024602
 30
0.0
 11
42.109989
 21
95.011131
 31
0.0
 12
42.109989
 22
96.500138
 32
0.0
 13
42.090588
 23
96.486536
 33
0.0
  0
3DFACE
  8
0
  6
CONTINUOUS
 62
     7
 10
42.109989
 20
95.011131
 30
0.0
 11
42.12939
 21
94.99766
 31
0.0
 12
42.12939
 22
96.513739
 32
0.0
 13
42.109989
 23
96.500138
 33
0.0
  0
3DFACE
  8
0
  6
CONTINUOUS
 62
     7
 10
42.12939
 20
94.99766
 30
0.0
 11
42.148791
 21
94.984188
 31
0.0
 12
42.148791
 22
96.527341
 32
0.0
 13
42.12939
 23
96.513739
 33
0.0
  0
3DFACE
  8
0
  6
CONTINUOUS
 62
     7
 10
42.148791
 20
94.984188
 30
0.0
 11
42.168192
 21
94.970717
 31
0.0
 12
42.168192
 22
96.540942
 32
0.0
 13
42.148791
 23
96.527341
 33
0.0
  0
3DFACE
  8
0
  6
CONTINUOUS
 62
     7
 10
42.168192
 20
94.970717
 30
0.0
 11
42.187593
 21
94.957246
 31
0.0
 12
42.187593
 22
96.554544
 32
0.0
 13
42.168192
 23
96.540942
 33
0.0
  0
3DFACE
  8
0
  6
CONTINUOUS
 62
     7
 10
42.187593
 20
94.957246
 30
0.0
 11
42.206994
 21
94.943774
 31
0.0
 12
42.206994
 22
96.568145
 32
0.0
 13
42.187593
 23
96.554544
 33
0.0
  0
3DFACE
  8
0
  6
CONTINUOUS
 62
     7
 10
42.206994
 20
94.943774
 30
0.0
 11
42.226395
 21
94.930303
 31
0.0
 12
42.226395
 22
96.581747
 32
0.0
 13
42.206994
 23
96.568145
 33
0.0
  0
3DFACE
  8
0
  6
CONTINUOUS
 62
     7
 10
42.226395
 20
94.930303
 30
0.0
 11
42.245796
 21
94.916832
 31
0.0
 12
42.245796
 22
96.595348
 32
0.0
 13
42.226395
 23
96.581747
 33
0.0
  0
3DFACE
  8
0
  6
CONTINUOUS
 62
     7
 10
42.245796
 20
94.916832
 30
0.0
 11
42.265197
 21
94.903361
 31
0.0
 12
42.265197
 22
96.60895
 32
0.0
 13
42.245796
 23
96.595348
 33
0.0
  0
3DFACE
  8
0
  6
CONTINUOUS
 62
     7
 10
42.265197
 20
94.903361
 30
0.0
 11
42.284598
 21
94.889889
 31
0.0
 12
42.284598
 22
96.622551
 32
0.0
 13
42.265197
 23
96.60895
 33
0.0
  0
3DFACE
  8
0
  6
CONTINUOUS
 62
     7
 10
42.284598
 20
94.889889
 30
0.0
 11
42.303999
 21
94.876418
 31
0.0
 12
42.303999
 22
96.636153
 32
0.0
 13
42.284598
 23
96.622551
 33
0.0
  0
3DFACE
  8
0
  6
CONTINUOUS
 62
     7
 10
42.303999
 20
94.876418
 30
0.0
 11
42.3234
 21
94.862947
 31
0.0
 12
42.3234
 22
96.649754
 32
0.0
 13
42.303999
 23
96.636153
 33
0.0
  0
3DFACE
  8
0
  6
CONTINUOUS
 62
     7
 10
42.3234
 20
94.862947
 30
0.0
 11
42.342801
 21
94.849475
 31
0.0
 12
42.342801
 22
96.663356
 32
0.0
 13
42.3234
 23
96.649754
 33
0.0
  0
3DFACE
  8
0
  6
CONTINUOUS
 62
     7
 10
42.342801
 20
94.849475
 30
0.0
 11
42.362202
 21
94.836004
 31
0.0
 12
42.362202
 22
96.676958
 32
0.0
 13
42.342801
 23
96.663356
 33
0.0
  0
3DFACE
  8
0
  6
CONTINUOUS
 62
     7
 10
42.362202
 20
94.836004
 30
0.0
 11
42.381603
 21
94.822533
 31
0.0
 12
42.381603
 22
96.690559
 32
0.0
 13
42.362202
 23
96.676958
 33
0.0
  0
3DFACE
  8
0
  6
CONTINUOUS
 62
     7
 10
42.381603
 20
94.822533
 30
0.0
 11
42.401004
 21
94.809061
 31
0.0
 12
42.401004
 22
96.704161
 32
0.0
 13
42.381603
 23
96.690559
 33
0.0
  0
3DFACE
  8
0
  6
CONTINUOUS
 62
     7
 10
42.401004
 20
94.809061
 30
0.0
 11
42.420406
 21
94.79559
 31
0.0
 12
42.420406
 22
96.717762
 32
0.0
 13
42.401004
 23
96.704161
 33
0.0
  0
3DFACE
  8
0
  6
CONTINUOUS
 62
     7
 10
42.420406
 20
94.79559
 30
0.0
 11
42.439807
 21
94.782119
 31
0.0
 12
42.439807
 22
96.731364
 32
0.0
 13
42.420406
 23
96.717762
 33
0.0
  0
3DFACE
  8
0
  6
CONTINUOUS
 62
     7
 10
42.439807
 20
94.782119
 30
0.0
 11
42.459208
 21
94.768647
 31
0.0
 12
42.459208
 22
96.744965
 32
0.0
 13
42.439807
 23
96.731364
 33
0.0
  0
3DFACE
  8
0
  6
CONTINUOUS
 62
     7
 10
42.459208
 20
94.768647
 30
0.0
 11
42.478609
 21
94.755176
 31
0.0
 12
42.478609
 22
96.758567
 32
0.0
 13
42.459208
 23
96.744965
 33
0.0
  0
3DFACE
  8
0
  6
CONTINUOUS
 62
     7
 10
42.478609
 20
94.755176
 30
0.0
 11
42.49801
 21
94.741705
 31
0.0
 12
42.49801
 22
96.772168
 32
0.0
 13
42.478609
 23
96.758567
 33
0.0
  0
3DFACE
  8
0
  6
CONTINUOUS
 62
     7
 10
42.49801
 20
94.741705
 30
0.0
 11
42.517411
 21
94.728233
 31
0.0
 12
42.517411
 22
96.78577
 32
0.0
 13
42.49801
 23
96.772168
 33
0.0
  0
3DFACE
  8
0
  6
CONTINUOUS
 62
     7
 10
42.517411
 20
94.728233
 30
0.0
 11
42.536812
 21
94.714762
 31
0.0
 12
42.536812
 22
96.799371
 32
0.0
 13
42.517411
 23
96.78577
 33
0.0
  0
3DFACE
  8
0
  6
CONTINUOUS
 62
     7
 10
42.536812
 20
94.714762
 30
0.0
 11
42.556213
 21
94.701291
 31
0.0
 12
42.556213
 22
96.812973
 32
0.0
 13
42.536812
 23
96.799371
 33
0.0
  0
3DFACE
  8
0
  6
CONTINUOUS
 62
     7
 10
42.556213
 20
94.701291
 30
0.0
 11
42.575614
 21
94.687819
 31
0.0
 12
42.575614
 22
96.826574
 32
0.0
 13
42.556213
 23
96.812973
 33
0.0
  0
3DFACE
  8
0
  6
CONTINUOUS
 62
     7
 10
42.575614
 20
94.687819
 30
0.0
 11
42.595015
 21
94.674348
 31
0.0
 12
42.595015
 22
96.840176
 32
0.0
 13
42.575614
 23
96.826574
 33
0.0
  0
3DFACE
  8
0
  6
CONTINUOUS
 62
     7
 10
42.595015
 20
94.674348
 30
0.0
 11
42.614416
 21
94.660877
 31
0.0
 12
42.614416
 22
96.853777
 32
0.0
 13
42.595015
 23
96.840176
 33
0.0
  0
3DFACE
  8
0
  6
CONTINUOUS
 62
     7
 10
42.614416
 20
94.660877
 30
0.0
 11
42.633817
 21
94.647406
 31
0.0
 12
42.633817
 22
96.867379
 32
0.0
 13
42.614416
 23
96.853777
 33
0.0
  0
3DFACE
  8
0
  6
CONTINUOUS
 62
     7
 10
42.633817
 20
94.647406
 30
0.0
 11
42.653218
 21
94.633934
 31
0.0
 12
42.653218
 22
96.88098
 32
0.0
 13
42.633817
 23
96.867379
 33
0.0
  0
3DFACE
  8
0
  6
CONTINUOUS
 62
     7
 10
42.653218
 20
94.633934
 30
0.0
 11
42.672619
 21
94.620463
 31
0.0
 12
42.672619
 22
96.894582
 32
0.0
 13
42.653218
 23
96.88098
 33
0.0
  0
3DFACE
  8
0
  6
CONTINUOUS
 62
     7
 10
42.672619
 20
94.620463
 30
0.0
 11
42.69202
 21
94.606992
 31
0.0
 12
42.69202
 22
96.908184
 32
0.0
 13
42.672619
 23
96.894582
 33
0.0
  0
3DFACE
  8
0
  6
CONTINUOUS
 62
     7
 10
42.69202
 20
94.606992
 30
0.0
 11
42.711421
 21
94.59352
 31
0.0
 12
42.711421
 22
96.921785
 32
0.0
 13
42.69202
 23
96.908184
 33
0.0
  0
3DFACE
  8
0
  6
CONTINUOUS
 62
     7
 10
42.711421
 20
94.59352
 30
0.0
 11
42.730822
 21
94.580049
 31
0.0
 12
42.730822
 22
96.935387
 32
0.0
 13
42.711421
 23
96.921785
 33
0.0
  0
3DFACE
  8
0
  6
CONTINUOUS
 62
     7
 10
42.730822
 20
94.580049
 30
0.0
 11
42.750223
 21
94.566578
 31
0.0
 12
42.750223
 22
96.948988
 32
0.0
 13
42.730822
 23
96.935387
 33
0.0
  0
3DFACE
  8
0
  6
CONTINUOUS
 62
     7
 10
42.750223
 20
94.566578
 30
0.0
 11
42.769624
 21
94.553106
 31
0.0
 12
42.769624
 22
96.96259
 32
0.0
 13
42.750223
 23
96.948988
 33
0.0
  0
3DFACE
  8
0
  6
CONTINUOUS
 62
     7
 10
42.769624
 20
94.553106
 30
0.0
 11
42.789025
 21
94.539635
 31
0.0
 12
42.789025
 22
96.976191
 32
0.0
 13
42.769624
 23
96.96259
 33
0.0
  0
3DFACE
  8
0
  6
CONTINUOUS
 62
     7
 10
42.789025
 20
94.539635
 30
0.0
 11
42.808426
 21
94.526164
 31
0.0
 12
42.808426
 22
96.989793
 32
0.0
 13
42.789025
 23
96.976191
 33
0.0
  0
3DFACE
  8
0
  6
CONTINUOUS
 62
     7
 10
42.808426
 20
94.526164
 30
0.0
 11
42.827827
 21
94.512692
 31
0.0
 12
42.827827
 22
97.003394
 32
0.0
 13
42.808426
 23
96.989793
 33
0.0
  0
3DFACE
  8
0
  6
CONTINUOUS
 62
     7
 10
42.827827
 20
94.512692
 30
0.0
 11
42.847228
 21
94.499221
 31
0.0
 12
42.847228
 22
97.016996
 32
0.0
 13
42.827827
 23
97.003394
 33
0.0
  0
3DFACE
  8
0
  6
CONTINUOUS
 62
     7
 10
42.847228
 20
94.499221
 30
0.0
 11
42.866629
 21
94.48575
 31
0.0
 12
42.866629
 22
97.030597
 32
0.0
 13
42.847228
 23
97.016996
 33
0.0
  0
3DFACE
  8
0
  6
CONTINUOUS
 62
     7
 10
42.866629
 20
94.48575
 30
0.0
 11
42.88603
 21
94.472278
 31
0.0
 12
42.88603
 22
97.044199
 32
0.0
 13
42.866629
 23
97.030597
 33
0.0
  0
3DFACE
  8
0
  6
CONTINUOUS
 62
     7
 10
42.88603
 20
94.472278
 30
0.0
 11
42.905432
 21
94.458807
 31
0.0
 12
42.905432
 22
97.0578
 32
0.0
 13
42.88603
 23
97.044199
 33
0.0
  0
3DFACE
  8
0
  6
CONTINUOUS
 62
     7
 10
42.905432
 20
94.458807
 30
0.0
 11
42.924833
 21
94.445336
 31
0.0
 12
42.924833
 22
97.071402
 32
0.0
 13
42.905432
 23
97.0578
 33
0.0
  0
3DFACE
  8
0
  6
CONTINUOUS
 62
     7
 10
42.924833
 20
94.445336
 30
0.0
 11
42.944234
 21
94.431864
 31
0.0
 12
42.944234
 22
97.085003
 32
0.0
 13
42.924833
 23
97.071402
 33
0.0
  0
3DFACE
  8
0
  6
CONTINUOUS
 62
     7
 10
42.944234
 20
94.431864
 30
0.0
 11
42.963635
 21
94.418393
 31
0.0
 12
42.963635
 22
97.098605
 32
0.0
 13
42.944234
 23
97.085003
 33
0.0
  0
3DFACE
  8
0
  6
CONTINUOUS
 62
     7
 10
42.963635
 20
94.418393
 30
0.0
 11
42.983036
 21
94.404922
 31
0.0
 12
42.983036
 22
97.112207
 32
0.0
 13
42.963635
 23
97.098605
 33
0.0
  0
LINE
  8
0
  6
CONTINUOUS
 62
     7
 10
29.792931
 20
95.752053
 30
0.0
 11
31.733036
 21
95.752053
 31
0.0
  0
ARC
  8
0
  6
CONTINUOUS
 62
     7
 10
96.11833
 20
129.482683
 30
0.0
 40
0.5
 50
180.0
 51
0.0
  0
ARC
  8
0
  6
CONTINUOUS
 62
     7
 10
96.11833
 20
129.482683
 30
0.0
 40
0.5
 50
0.0
 51
180.0
  0
ARC
  8
0
  6
CONTINUOUS
 62
     7
 10
99.86833
 20
121.982683
 30
0.0
 40
0.5
 50
180.0
 51
0.0
  0
ARC
  8
0
  6
CONTINUOUS
 62
     7
 10
99.86833
 20
121.982683
 30
0.0
 40
0.5
 50
0.0
 51
180.0
  0
ARC
  8
0
  6
CONTINUOUS
 62
     7
 10
92.564216
 20
137.002053
 30
0.0
 40
0.5
 50
180.0
 51
0.0
  0
ARC
  8
0
  6
CONTINUOUS
 62
     7
 10
92.564216
 20
137.002053
 30
0.0
 40
0.5
 50
0.0
 51
180.0
  0
ARC
  8
0
  6
CONTINUOUS
 62
     7
 10
143.068778
 20
129.482683
 30
0.0
 40
0.5
 50
180.0
 51
0.0
  0
ARC
  8
0
  6
CONTINUOUS
 62
     7
 10
143.068778
 20
129.482683
 30
0.0
 40
0.5
 50
0.0
 51
180.0
  0
ARC
  8
0
  6
CONTINUOUS
 62
     7
 10
146.818778
 20
121.982683
 30
0.0
 40
0.5
 50
180.0
 51
0.0
  0
ARC
  8
0
  6
CONTINUOUS
 62
     7
 10
146.818778
 20
121.982683
 30
0.0
 40
0.5
 50
0.0
 51
180.0
  0
ARC
  8
0
  6
CONTINUOUS
 62
     7
 10
139.514665
 20
137.002053
 30
0.0
 40
0.5
 50
180.0
 51
0.0
  0
ARC
  8
0
  6
CONTINUOUS
 62
     7
 10
139.514665
 20
137.002053
 30
0.0
 40
0.5
 50
0.0
 51
180.0
  0
ARC
  8
0
  6
CONTINUOUS
 62
     7
 10
189.966574
 20
129.482683
 30
0.0
 40
0.5
 50
180.0
 51
0.0
  0
ARC
  8
0
  6
CONTINUOUS
 62
     7
 10
189.966574
 20
129.482683
 30
0.0
 40
0.5
 50
0.0
 51
180.0
  0
ARC
  8
0
  6
CONTINUOUS
 62
     7
 10
193.716574
 20
121.982683
 30
0.0
 40
0.5
 50
180.0
 51
0.0
  0
ARC
  8
0
  6
CONTINUOUS
 62
     7
 10
193.716574
 20
121.982683
 30
0.0
 40
0.5
 50
0.0
 51
180.0
  0
ARC
  8
0
  6
CONTINUOUS
 62
     7
 10
186.41246
 20
137.002053
 30
0.0
 40
0.5
 50
180.0
 51
0.0
  0
ARC
  8
0
  6
CONTINUOUS
 62
     7
 10
186.41246
 20
137.002053
 30
0.0
 40
0.5
 50
0.0
 51
180.0
  0
ARC
  8
0
  6
CONTINUOUS
 62
     7
 10
13.174603
 20
206.541801
 30
0.0
 40
0.5
 50
180.0
 51
0.0
  0
ARC
  8
0
  6
CONTINUOUS
 62
     7
 10
13.174603
 20
206.541801
 30
0.0
 40
0.5
 50
0.0
 51
180.0
  0
ARC
  8
0
  6
CONTINUOUS
 62
     7
 10
13.174603
 20
201.668314
 30
0.0
 40
0.5
 50
180.0
 51
0.0
  0
ARC
  8
0
  6
CONTINUOUS
 62
     7
 10
13.174603
 20
201.668314
 30
0.0
 40
0.5
 50
0.0
 51
180.0
  0
ARC
  8
0
  6
CONTINUOUS
 62
     7
 10
13.174603
 20
211.61835
 30
0.0
 40
0.5
 50
180.0
 51
0.0
  0
ARC
  8
0
  6
CONTINUOUS
 62
     7
 10
13.174603
 20
211.61835
 30
0.0
 40
0.5
 50
0.0
 51
180.0
  0
ARC
  8
0
  6
CONTINUOUS
 62
     7
 10
13.174603
 20
216.61835
 30
0.0
 40
0.5
 50
180.0
 51
0.0
  0
ARC
  8
0
  6
CONTINUOUS
 62
     7
 10
13.174603
 20
216.61835
 30
0.0
 40
0.5
 50
0.0
 51
180.0
  0
ARC
  8
0
  6
CONTINUOUS
 62
     7
 10
13.174603
 20
221.61835
 30
0.0
 40
0.5
 50
180.0
 51
0.0
  0
ARC
  8
0
  6
CONTINUOUS
 62
     7
 10
13.174603
 20
221.61835
 30
0.0
 40
0.5
 50
0.0
 51
180.0
  0
ARC
  8
0
  6
CONTINUOUS
 62
     7
 10
13.174603
 20
226.61835
 30
0.0
 40
0.5
 50
180.0
 51
0.0
  0
ARC
  8
0
  6
CONTINUOUS
 62
     7
 10
13.174603
 20
226.61835
 30
0.0
 40
0.5
 50
0.0
 51
180.0
  0
ARC
  8
0
  6
CONTINUOUS
 62
     7
 10
13.174603
 20
231.61835
 30
0.0
 40
0.5
 50
180.0
 51
0.0
  0
ARC
  8
0
  6
CONTINUOUS
 62
     7
 10
13.174603
 20
231.61835
 30
0.0
 40
0.5
 50
0.0
 51
180.0
  0
ARC
  8
0
  6
CONTINUOUS
 62
     7
 10
88.814216
 20
144.502053
 30
0.0
 40
0.5
 50
180.0
 51
0.0
  0
ARC
  8
0
  6
CONTINUOUS
 62
     7
 10
88.814216
 20
144.502053
 30
0.0
 40
0.5
 50
0.0
 51
180.0
  0
ARC
  8
0
  6
CONTINUOUS
 62
     7
 10
81.314216
 20
159.502053
 30
0.0
 40
0.5
 50
180.0
 51
0.0
  0
ARC
  8
0
  6
CONTINUOUS
 62
     7
 10
81.314216
 20
159.502053
 30
0.0
 40
0.5
 50
0.0
 51
180.0
  0
ARC
  8
0
  6
CONTINUOUS
 62
     7
 10
85.064216
 20
152.002053
 30
0.0
 40
0.5
 50
180.0
 51
0.0
  0
ARC
  8
0
  6
CONTINUOUS
 62
     7
 10
85.064216
 20
152.002053
 30
0.0
 40
0.5
 50
0.0
 51
180.0
  0
ARC
  8
0
  6
CONTINUOUS
 62
     7
 10
135.764665
 20
144.502053
 30
0.0
 40
0.5
 50
180.0
 51
0.0
  0
ARC
  8
0
  6
CONTINUOUS
 62
     7
 10
135.764665
 20
144.502053
 30
0.0
 40
0.5
 50
0.0
 51
180.0
  0
ARC
  8
0
  6
CONTINUOUS
 62
     7
 10
128.264665
 20
159.502053
 30
0.0
 40
0.5
 50
180.0
 51
0.0
  0
ARC
  8
0
  6
CONTINUOUS
 62
     7
 10
128.264665
 20
159.502053
 30
0.0
 40
0.5
 50
0.0
 51
180.0
  0
ARC
  8
0
  6
CONTINUOUS
 62
     7
 10
132.014665
 20
152.002053
 30
0.0
 40
0.5
 50
180.0
 51
0.0
  0
ARC
  8
0
  6
CONTINUOUS
 62
     7
 10
132.014665
 20
152.002053
 30
0.0
 40
0.5
 50
0.0
 51
180.0
  0
ARC
  8
0
  6
CONTINUOUS
 62
     7
 10
182.66246
 20
144.502053
 30
0.0
 40
0.5
 50
180.0
 51
0.0
  0
ARC
  8
0
  6
CONTINUOUS
 62
     7
 10
182.66246
 20
144.502053
 30
0.0
 40
0.5
 50
0.0
 51
180.0
  0
ARC
  8
0
  6
CONTINUOUS
 62
     7
 10
175.16246
 20
159.502053
 30
0.0
 40
0.5
 50
180.0
 51
0.0
  0
ARC
  8
0
  6
CONTINUOUS
 62
     7
 10
175.16246
 20
159.502053
 30
0.0
 40
0.5
 50
0.0
 51
180.0
  0
ARC
  8
0
  6
CONTINUOUS
 62
     7
 10
178.91246
 20
152.002053
 30
0.0
 40
0.5
 50
180.0
 51
0.0
  0
ARC
  8
0
  6
CONTINUOUS
 62
     7
 10
178.91246
 20
152.002053
 30
0.0
 40
0.5
 50
0.0
 51
180.0
  0
ARC
  8
0
  6
CONTINUOUS
 62
     7
 10
170.587048
 20
226.542043
 30
0.0
 40
0.5
 50
180.0
 51
0.0
  0
ARC
  8
0
  6
CONTINUOUS
 62
     7
 10
170.587048
 20
226.542043
 30
0.0
 40
0.5
 50
0.0
 51
180.0
  0
ARC
  8
0
  6
CONTINUOUS
 62
     7
 10
170.587048
 20
231.542043
 30
0.0
 40
0.5
 50
180.0
 51
0.0
  0
ARC
  8
0
  6
CONTINUOUS
 62
     7
 10
170.587048
 20
231.542043
 30
0.0
 40
0.5
 50
0.0
 51
180.0
  0
LINE
  8
0
 62
     7
 10
223.479461
 20
6.475559
 30
0.0
 11
225.439461
 21
8.435559
 31
0.0
  0
LINE
  8
0
 62
     7
 10
223.479461
 20
6.599303
 30
0.0
 11
225.439461
 21
8.559303
 31
0.0
  0
LINE
  8
0
 62
     7
 10
223.479461
 20
6.723047
 30
0.0
 11
225.439461
 21
8.683047
 31
0.0
  0
LINE
  8
0
 62
     7
 10
223.479461
 20
6.84679
 30
0.0
 11
225.439461
 21
8.80679
 31
0.0
  0
LINE
  8
0
 62
     7
 10
223.479461
 20
6.970534
 30
0.0
 11
225.439461
 21
8.930534
 31
0.0
  0
LINE
  8
0
 62
     7
 10
223.479461
 20
7.094278
 30
0.0
 11
225.439461
 21
9.054278
 31
0.0
  0
LINE
  8
0
 62
     7
 10
223.479461
 20
7.218021
 30
0.0
 11
225.340591
 21
9.079152
 31
0.0
  0
LINE
  8
0
 62
     7
 10
223.479461
 20
7.341765
 30
0.0
 11
225.216847
 21
9.079152
 31
0.0
  0
LINE
  8
0
 62
     7
 10
223.479461
 20
7.465509
 30
0.0
 11
225.093104
 21
9.079152
 31
0.0
  0
LINE
  8
0
 62
     7
 10
223.479461
 20
7.589253
 30
0.0
 11
224.96936
 21
9.079152
 31
0.0
  0
LINE
  8
0
 62
     7
 10
223.479461
 20
7.712996
 30
0.0
 11
224.845616
 21
9.079152
 31
0.0
  0
LINE
  8
0
 62
     7
 10
223.479461
 20
7.83674
 30
0.0
 11
224.721872
 21
9.079152
 31
0.0
  0
LINE
  8
0
 62
     7
 10
223.479461
 20
7.960484
 30
0.0
 11
224.598129
 21
9.079152
 31
0.0
  0
LINE
  8
0
 62
     7
 10
223.479461
 20
8.084227
 30
0.0
 11
224.474385
 21
9.079152
 31
0.0
  0
LINE
  8
0
 62
     7
 10
223.479461
 20
8.207971
 30
0.0
 11
224.350641
 21
9.079152
 31
0.0
  0
LINE
  8
0
 62
     7
 10
223.479461
 20
8.331715
 30
0.0
 11
224.226898
 21
9.079152
 31
0.0
  0
LINE
  8
0
 62
     7
 10
223.479461
 20
8.455458
 30
0.0
 11
224.103154
 21
9.079152
 31
0.0
  0
LINE
  8
0
 62
     7
 10
223.479461
 20
8.579202
 30
0.0
 11
223.97941
 21
9.079152
 31
0.0
  0
LINE
  8
0
 62
     7
 10
223.479461
 20
8.702946
 30
0.0
 11
223.855667
 21
9.079152
 31
0.0
  0
LINE
  8
0
 62
     7
 10
223.479461
 20
8.826689
 30
0.0
 11
223.731923
 21
9.079152
 31
0.0
  0
LINE
  8
0
 62
     7
 10
223.479461
 20
8.950433
 30
0.0
 11
223.608179
 21
9.079152
 31
0.0
  0
LINE
  8
0
 62
     7
 10
223.479461
 20
9.074177
 30
0.0
 11
223.484436
 21
9.079152
 31
0.0
  0
LINE
  8
0
 62
     7
 10
223.479461
 20
6.351816
 30
0.0
 11
225.439461
 21
8.311816
 31
0.0
  0
LINE
  8
0
 62
     7
 10
223.479461
 20
6.228072
 30
0.0
 11
225.439461
 21
8.188072
 31
0.0
  0
LINE
  8
0
 62
     7
 10
223.479461
 20
6.104328
 30
0.0
 11
225.439461
 21
8.064328
 31
0.0
  0
LINE
  8
0
 62
     7
 10
223.479461
 20
5.980585
 30
0.0
 11
225.439461
 21
7.940585
 31
0.0
  0
LINE
  8
0
 62
     7
 10
223.479461
 20
5.856841
 30
0.0
 11
225.439461
 21
7.816841
 31
0.0
  0
LINE
  8
0
 62
     7
 10
223.479461
 20
5.733097
 30
0.0
 11
225.439461
 21
7.693097
 31
0.0
  0
LINE
  8
0
 62
     7
 10
223.589259
 20
5.719152
 30
0.0
 11
225.439461
 21
7.569354
 31
0.0
  0
LINE
  8
0
 62
     7
 10
223.713003
 20
5.719152
 30
0.0
 11
225.439461
 21
7.44561
 31
0.0
  0
LINE
  8
0
 62
     7
 10
223.836746
 20
5.719152
 30
0.0
 11
225.439461
 21
7.321866
 31
0.0
  0
LINE
  8
0
 62
     7
 10
223.96049
 20
5.719152
 30
0.0
 11
225.439461
 21
7.198122
 31
0.0
  0
LINE
  8
0
 62
     7
 10
224.084234
 20
5.719152
 30
0.0
 11
225.439461
 21
7.074379
 31
0.0
  0
LINE
  8
0
 62
     7
 10
224.207977
 20
5.719152
 30
0.0
 11
225.439461
 21
6.950635
 31
0.0
  0
LINE
  8
0
 62
     7
 10
224.331721
 20
5.719152
 30
0.0
 11
225.439461
 21
6.826891
 31
0.0
  0
LINE
  8
0
 62
     7
 10
224.455465
 20
5.719152
 30
0.0
 11
225.439461
 21
6.703148
 31
0.0
  0
LINE
  8
0
 62
     7
 10
224.579208
 20
5.719152
 30
0.0
 11
225.439461
 21
6.579404
 31
0.0
  0
LINE
  8
0
 62
     7
 10
224.702952
 20
5.719152
 30
0.0
 11
225.439461
 21
6.45566
 31
0.0
  0
LINE
  8
0
 62
     7
 10
224.826696
 20
5.719152
 30
0.0
 11
225.439461
 21
6.331917
 31
0.0
  0
LINE
  8
0
 62
     7
 10
224.950439
 20
5.719152
 30
0.0
 11
225.439461
 21
6.208173
 31
0.0
  0
LINE
  8
0
 62
     7
 10
225.074183
 20
5.719152
 30
0.0
 11
225.439461
 21
6.084429
 31
0.0
  0
LINE
  8
0
 62
     7
 10
225.197927
 20
5.719152
 30
0.0
 11
225.439461
 21
5.960686
 31
0.0
  0
LINE
  8
0
 62
     7
 10
225.32167
 20
5.719152
 30
0.0
 11
225.439461
 21
5.836942
 31
0.0
  0
LINE
  8
0
 62
     7
 10
225.719461
 20
6.488173
 30
0.0
 11
227.597557
 21
8.366269
 31
0.0
  0
LINE
  8
0
 62
     7
 10
225.719461
 20
6.611917
 30
0.0
 11
227.546813
 21
8.439269
 31
0.0
  0
LINE
  8
0
 62
     7
 10
225.719461
 20
6.73566
 30
0.0
 11
227.49251
 21
8.50871
 31
0.0
  0
LINE
  8
0
 62
     7
 10
225.719461
 20
6.859404
 30
0.0
 11
227.434721
 21
8.574665
 31
0.0
  0
LINE
  8
0
 62
     7
 10
225.719461
 20
6.983148
 30
0.0
 11
227.373485
 21
8.637172
 31
0.0
  0
LINE
  8
0
 62
     7
 10
225.719461
 20
7.106891
 30
0.0
 11
227.308808
 21
8.696238
 31
0.0
  0
LINE
  8
0
 62
     7
 10
225.719461
 20
7.230635
 30
0.0
 11
227.240662
 21
8.751836
 31
0.0
  0
LINE
  8
0
 62
     7
 10
225.719461
 20
7.354379
 30
0.0
 11
227.168989
 21
8.803907
 31
0.0
  0
LINE
  8
0
 62
     7
 10
225.719461
 20
7.478122
 30
0.0
 11
227.093693
 21
8.852355
 31
0.0
  0
LINE
  8
0
 62
     7
 10
225.719461
 20
7.601866
 30
0.0
 11
227.014636
 21
8.897041
 31
0.0
  0
LINE
  8
0
 62
     7
 10
225.719461
 20
7.72561
 30
0.0
 11
226.931633
 21
8.937782
 31
0.0
  0
LINE
  8
0
 62
     7
 10
225.719461
 20
7.849354
 30
0.0
 11
226.844438
 21
8.97433
 31
0.0
  0
LINE
  8
0
 62
     7
 10
225.719461
 20
7.973097
 30
0.0
 11
226.752728
 21
9.006364
 31
0.0
  0
LINE
  8
0
 62
     7
 10
225.719461
 20
8.096841
 30
0.0
 11
226.65608
 21
9.03346
 31
0.0
  0
LINE
  8
0
 62
     7
 10
225.719461
 20
8.220585
 30
0.0
 11
226.553928
 21
9.055052
 31
0.0
  0
LINE
  8
0
 62
     7
 10
225.719461
 20
8.344328
 30
0.0
 11
226.445507
 21
9.070374
 31
0.0
  0
LINE
  8
0
 62
     7
 10
225.719461
 20
8.468072
 30
0.0
 11
226.329738
 21
9.078349
 31
0.0
  0
LINE
  8
0
 62
     7
 10
225.719461
 20
8.591816
 30
0.0
 11
226.206796
 21
9.079151
 31
0.0
  0
LINE
  8
0
 62
     7
 10
225.719461
 20
8.715559
 30
0.0
 11
226.083053
 21
9.079151
 31
0.0
  0
LINE
  8
0
 62
     7
 10
225.719461
 20
8.839303
 30
0.0
 11
225.959309
 21
9.079151
 31
0.0
  0
LINE
  8
0
 62
     7
 10
225.719461
 20
8.963047
 30
0.0
 11
225.835566
 21
9.079151
 31
0.0
  0
LINE
  8
0
 62
     7
 10
225.719461
 20
6.364429
 30
0.0
 11
227.644633
 21
8.289601
 31
0.0
  0
LINE
  8
0
 62
     7
 10
225.719461
 20
6.240686
 30
0.0
 11
227.687885
 21
8.20911
 31
0.0
  0
LINE
  8
0
 62
     7
 10
225.719461
 20
6.116942
 30
0.0
 11
227.727108
 21
8.124589
 31
0.0
  0
LINE
  8
0
 62
     7
 10
225.719461
 20
5.993198
 30
0.0
 11
227.76203
 21
8.035767
 31
0.0
  0
LINE
  8
0
 62
     7
 10
225.719461
 20
5.869455
 30
0.0
 11
227.792293
 21
7.942287
 31
0.0
  0
LINE
  8
0
 62
     7
 10
225.719461
 20
5.745711
 30
0.0
 11
227.817429
 21
7.843679
 31
0.0
  0
LINE
  8
0
 62
     7
 10
225.816645
 20
5.719152
 30
0.0
 11
227.836806
 21
7.739312
 31
0.0
  0
LINE
  8
0
 62
     7
 10
225.940389
 20
5.719152
 30
0.0
 11
227.849559
 21
7.628321
 31
0.0
  0
LINE
  8
0
 62
     7
 10
226.064133
 20
5.719152
 30
0.0
 11
227.854452
 21
7.509471
 31
0.0
  0
LINE
  8
0
 62
     7
 10
226.187876
 20
5.719152
 30
0.0
 11
227.849631
 21
7.380907
 31
0.0
  0
LINE
  8
0
 62
     7
 10
226.31162
 20
5.719152
 30
0.0
 11
227.832087
 21
7.239618
 31
0.0
  0
LINE
  8
0
 62
     7
 10
226.435364
 20
5.719152
 30
0.0
 11
227.796297
 21
7.080085
 31
0.0
  0
LINE
  8
0
 62
     7
 10
226.559107
 20
5.719152
 30
0.0
 11
227.729661
 21
6.889705
 31
0.0
  0
LINE
  8
0
 62
     7
 10
226.682851
 20
5.719152
 30
0.0
 11
227.083027
 21
6.119327
 31
0.0
  0
LINE
  8
0
 62
     7
 10
227.166172
 20
6.202472
 30
0.0
 11
227.58114
 21
6.617441
 31
0.0
  0
LINE
  8
0
 62
     7
 10
226.806595
 20
5.719152
 30
0.0
 11
227.168924
 21
6.081481
 31
0.0
  0
LINE
  8
0
 62
     7
 10
226.930338
 20
5.719152
 30
0.0
 11
227.251715
 21
6.040528
 31
0.0
  0
LINE
  8
0
 62
     7
 10
227.054082
 20
5.719152
 30
0.0
 11
227.331536
 21
5.996605
 31
0.0
  0
LINE
  8
0
 62
     7
 10
227.177826
 20
5.719152
 30
0.0
 11
227.408497
 21
5.949823
 31
0.0
  0
LINE
  8
0
 62
     7
 10
227.301569
 20
5.719152
 30
0.0
 11
227.482687
 21
5.900269
 31
0.0
  0
LINE
  8
0
 62
     7
 10
227.425313
 20
5.719152
 30
0.0
 11
227.554176
 21
5.848014
 31
0.0
  0
LINE
  8
0
 62
     7
 10
227.549057
 20
5.719152
 30
0.0
 11
227.623015
 21
5.79311
 31
0.0
  0
LINE
  8
0
 62
     7
 10
227.672801
 20
5.719152
 30
0.0
 11
227.689243
 21
5.735594
 31
0.0
  0
LINE
  8
0
 62
     7
 10
220.259461
 20
6.488173
 30
0.0
 11
222.137557
 21
8.366269
 31
0.0
  0
LINE
  8
0
 62
     7
 10
220.259461
 20
6.611917
 30
0.0
 11
222.086813
 21
8.439269
 31
0.0
  0
LINE
  8
0
 62
     7
 10
220.259461
 20
6.73566
 30
0.0
 11
222.03251
 21
8.50871
 31
0.0
  0
LINE
  8
0
 62
     7
 10
220.259461
 20
6.859404
 30
0.0
 11
221.974721
 21
8.574665
 31
0.0
  0
LINE
  8
0
 62
     7
 10
220.259461
 20
6.983148
 30
0.0
 11
221.913485
 21
8.637172
 31
0.0
  0
LINE
  8
0
 62
     7
 10
220.259461
 20
7.106891
 30
0.0
 11
221.848808
 21
8.696238
 31
0.0
  0
LINE
  8
0
 62
     7
 10
220.259461
 20
7.230635
 30
0.0
 11
221.780662
 21
8.751836
 31
0.0
  0
LINE
  8
0
 62
     7
 10
220.259461
 20
7.354379
 30
0.0
 11
221.708989
 21
8.803907
 31
0.0
  0
LINE
  8
0
 62
     7
 10
220.259461
 20
7.478122
 30
0.0
 11
221.633693
 21
8.852355
 31
0.0
  0
LINE
  8
0
 62
     7
 10
220.259461
 20
7.601866
 30
0.0
 11
221.554636
 21
8.897041
 31
0.0
  0
LINE
  8
0
 62
     7
 10
220.259461
 20
7.72561
 30
0.0
 11
221.471633
 21
8.937782
 31
0.0
  0
LINE
  8
0
 62
     7
 10
220.259461
 20
7.849354
 30
0.0
 11
221.384438
 21
8.97433
 31
0.0
  0
LINE
  8
0
 62
     7
 10
220.259461
 20
7.973097
 30
0.0
 11
221.292728
 21
9.006364
 31
0.0
  0
LINE
  8
0
 62
     7
 10
220.259461
 20
8.096841
 30
0.0
 11
221.19608
 21
9.03346
 31
0.0
  0
LINE
  8
0
 62
     7
 10
220.259461
 20
8.220585
 30
0.0
 11
221.093928
 21
9.055052
 31
0.0
  0
LINE
  8
0
 62
     7
 10
220.259461
 20
8.344328
 30
0.0
 11
220.985507
 21
9.070374
 31
0.0
  0
LINE
  8
0
 62
     7
 10
220.259461
 20
8.468072
 30
0.0
 11
220.869738
 21
9.078349
 31
0.0
  0
LINE
  8
0
 62
     7
 10
220.259461
 20
8.591816
 30
0.0
 11
220.746796
 21
9.079151
 31
0.0
  0
LINE
  8
0
 62
     7
 10
220.259461
 20
8.715559
 30
0.0
 11
220.623053
 21
9.079151
 31
0.0
  0
LINE
  8
0
 62
     7
 10
220.259461
 20
8.839303
 30
0.0
 11
220.499309
 21
9.079151
 31
0.0
  0
LINE
  8
0
 62
     7
 10
220.259461
 20
8.963047
 30
0.0
 11
220.375566
 21
9.079151
 31
0.0
  0
LINE
  8
0
 62
     7
 10
220.259461
 20
6.364429
 30
0.0
 11
222.184633
 21
8.289601
 31
0.0
  0
LINE
  8
0
 62
     7
 10
220.259461
 20
6.240686
 30
0.0
 11
222.227885
 21
8.20911
 31
0.0
  0
LINE
  8
0
 62
     7
 10
220.259461
 20
6.116942
 30
0.0
 11
222.267108
 21
8.124589
 31
0.0
  0
LINE
  8
0
 62
     7
 10
220.259461
 20
5.993198
 30
0.0
 11
222.30203
 21
8.035767
 31
0.0
  0
LINE
  8
0
 62
     7
 10
220.259461
 20
5.869455
 30
0.0
 11
222.332293
 21
7.942287
 31
0.0
  0
LINE
  8
0
 62
     7
 10
220.259461
 20
5.745711
 30
0.0
 11
222.357429
 21
7.843679
 31
0.0
  0
LINE
  8
0
 62
     7
 10
220.356645
 20
5.719152
 30
0.0
 11
222.376806
 21
7.739312
 31
0.0
  0
LINE
  8
0
 62
     7
 10
220.480389
 20
5.719152
 30
0.0
 11
222.389559
 21
7.628321
 31
0.0
  0
LINE
  8
0
 62
     7
 10
220.604133
 20
5.719152
 30
0.0
 11
222.394452
 21
7.509471
 31
0.0
  0
LINE
  8
0
 62
     7
 10
220.727876
 20
5.719152
 30
0.0
 11
222.389631
 21
7.380907
 31
0.0
  0
LINE
  8
0
 62
     7
 10
220.85162
 20
5.719152
 30
0.0
 11
222.372087
 21
7.239618
 31
0.0
  0
LINE
  8
0
 62
     7
 10
220.975364
 20
5.719152
 30
0.0
 11
222.336297
 21
7.080085
 31
0.0
  0
LINE
  8
0
 62
     7
 10
221.099107
 20
5.719152
 30
0.0
 11
222.269661
 21
6.889705
 31
0.0
  0
LINE
  8
0
 62
     7
 10
221.222851
 20
5.719152
 30
0.0
 11
221.623027
 21
6.119327
 31
0.0
  0
LINE
  8
0
 62
     7
 10
221.706172
 20
6.202472
 30
0.0
 11
222.12114
 21
6.617441
 31
0.0
  0
LINE
  8
0
 62
     7
 10
221.346595
 20
5.719152
 30
0.0
 11
221.708924
 21
6.081481
 31
0.0
  0
LINE
  8
0
 62
     7
 10
221.470338
 20
5.719152
 30
0.0
 11
221.791715
 21
6.040528
 31
0.0
  0
LINE
  8
0
 62
     7
 10
221.594082
 20
5.719152
 30
0.0
 11
221.871536
 21
5.996605
 31
0.0
  0
LINE
  8
0
 62
     7
 10
221.717826
 20
5.719152
 30
0.0
 11
221.948497
 21
5.949823
 31
0.0
  0
LINE
  8
0
 62
     7
 10
221.841569
 20
5.719152
 30
0.0
 11
222.022687
 21
5.900269
 31
0.0
  0
LINE
  8
0
 62
     7
 10
221.965313
 20
5.719152
 30
0.0
 11
222.094176
 21
5.848014
 31
0.0
  0
LINE
  8
0
 62
     7
 10
222.089057
 20
5.719152
 30
0.0
 11
222.163015
 21
5.79311
 31
0.0
  0
LINE
  8
0
 62
     7
 10
222.212801
 20
5.719152
 30
0.0
 11
222.229243
 21
5.735594
 31
0.0
  0
LINE
  8
0
 62
     7
 10
218.019461
 20
6.475559
 30
0.0
 11
219.979461
 21
8.435559
 31
0.0
  0
LINE
  8
0
 62
     7
 10
218.019461
 20
6.599303
 30
0.0
 11
219.979461
 21
8.559303
 31
0.0
  0
LINE
  8
0
 62
     7
 10
218.019461
 20
6.723047
 30
0.0
 11
219.979461
 21
8.683047
 31
0.0
  0
LINE
  8
0
 62
     7
 10
218.019461
 20
6.84679
 30
0.0
 11
219.979461
 21
8.80679
 31
0.0
  0
LINE
  8
0
 62
     7
 10
218.019461
 20
6.970534
 30
0.0
 11
219.979461
 21
8.930534
 31
0.0
  0
LINE
  8
0
 62
     7
 10
218.019461
 20
7.094278
 30
0.0
 11
219.979461
 21
9.054278
 31
0.0
  0
LINE
  8
0
 62
     7
 10
218.019461
 20
7.218021
 30
0.0
 11
219.880591
 21
9.079152
 31
0.0
  0
LINE
  8
0
 62
     7
 10
218.019461
 20
7.341765
 30
0.0
 11
219.756847
 21
9.079152
 31
0.0
  0
LINE
  8
0
 62
     7
 10
218.019461
 20
7.465509
 30
0.0
 11
219.633104
 21
9.079152
 31
0.0
  0
LINE
  8
0
 62
     7
 10
218.019461
 20
7.589253
 30
0.0
 11
219.50936
 21
9.079152
 31
0.0
  0
LINE
  8
0
 62
     7
 10
218.019461
 20
7.712996
 30
0.0
 11
219.385616
 21
9.079152
 31
0.0
  0
LINE
  8
0
 62
     7
 10
218.019461
 20
7.83674
 30
0.0
 11
219.261872
 21
9.079152
 31
0.0
  0
LINE
  8
0
 62
     7
 10
218.019461
 20
7.960484
 30
0.0
 11
219.138129
 21
9.079152
 31
0.0
  0
LINE
  8
0
 62
     7
 10
218.019461
 20
8.084227
 30
0.0
 11
219.014385
 21
9.079152
 31
0.0
  0
LINE
  8
0
 62
     7
 10
218.019461
 20
8.207971
 30
0.0
 11
218.890641
 21
9.079152
 31
0.0
  0
LINE
  8
0
 62
     7
 10
218.019461
 20
8.331715
 30
0.0
 11
218.766898
 21
9.079152
 31
0.0
  0
LINE
  8
0
 62
     7
 10
218.019461
 20
8.455458
 30
0.0
 11
218.643154
 21
9.079152
 31
0.0
  0
LINE
  8
0
 62
     7
 10
218.019461
 20
8.579202
 30
0.0
 11
218.51941
 21
9.079152
 31
0.0
  0
LINE
  8
0
 62
     7
 10
218.019461
 20
8.702946
 30
0.0
 11
218.395667
 21
9.079152
 31
0.0
  0
LINE
  8
0
 62
     7
 10
218.019461
 20
8.826689
 30
0.0
 11
218.271923
 21
9.079152
 31
0.0
  0
LINE
  8
0
 62
     7
 10
218.019461
 20
8.950433
 30
0.0
 11
218.148179
 21
9.079152
 31
0.0
  0
LINE
  8
0
 62
     7
 10
218.019461
 20
9.074177
 30
0.0
 11
218.024436
 21
9.079152
 31
0.0
  0
LINE
  8
0
 62
     7
 10
218.019461
 20
6.351816
 30
0.0
 11
219.979461
 21
8.311816
 31
0.0
  0
LINE
  8
0
 62
     7
 10
218.019461
 20
6.228072
 30
0.0
 11
219.979461
 21
8.188072
 31
0.0
  0
LINE
  8
0
 62
     7
 10
218.019461
 20
6.104328
 30
0.0
 11
219.979461
 21
8.064328
 31
0.0
  0
LINE
  8
0
 62
     7
 10
218.019461
 20
5.980585
 30
0.0
 11
219.979461
 21
7.940585
 31
0.0
  0
LINE
  8
0
 62
     7
 10
218.019461
 20
5.856841
 30
0.0
 11
219.979461
 21
7.816841
 31
0.0
  0
LINE
  8
0
 62
     7
 10
218.019461
 20
5.733097
 30
0.0
 11
219.979461
 21
7.693097
 31
0.0
  0
LINE
  8
0
 62
     7
 10
218.129259
 20
5.719152
 30
0.0
 11
219.979461
 21
7.569354
 31
0.0
  0
LINE
  8
0
 62
     7
 10
218.253003
 20
5.719152
 30
0.0
 11
219.979461
 21
7.44561
 31
0.0
  0
LINE
  8
0
 62
     7
 10
218.376746
 20
5.719152
 30
0.0
 11
219.979461
 21
7.321866
 31
0.0
  0
LINE
  8
0
 62
     7
 10
218.50049
 20
5.719152
 30
0.0
 11
219.979461
 21
7.198122
 31
0.0
  0
LINE
  8
0
 62
     7
 10
218.624234
 20
5.719152
 30
0.0
 11
219.979461
 21
7.074379
 31
0.0
  0
LINE
  8
0
 62
     7
 10
218.747977
 20
5.719152
 30
0.0
 11
219.979461
 21
6.950635
 31
0.0
  0
LINE
  8
0
 62
     7
 10
218.871721
 20
5.719152
 30
0.0
 11
219.979461
 21
6.826891
 31
0.0
  0
LINE
  8
0
 62
     7
 10
218.995465
 20
5.719152
 30
0.0
 11
219.979461
 21
6.703148
 31
0.0
  0
LINE
  8
0
 62
     7
 10
219.119208
 20
5.719152
 30
0.0
 11
219.979461
 21
6.579404
 31
0.0
  0
LINE
  8
0
 62
     7
 10
219.242952
 20
5.719152
 30
0.0
 11
219.979461
 21
6.45566
 31
0.0
  0
LINE
  8
0
 62
     7
 10
219.366696
 20
5.719152
 30
0.0
 11
219.979461
 21
6.331917
 31
0.0
  0
LINE
  8
0
 62
     7
 10
219.490439
 20
5.719152
 30
0.0
 11
219.979461
 21
6.208173
 31
0.0
  0
LINE
  8
0
 62
     7
 10
219.614183
 20
5.719152
 30
0.0
 11
219.979461
 21
6.084429
 31
0.0
  0
LINE
  8
0
 62
     7
 10
219.737927
 20
5.719152
 30
0.0
 11
219.979461
 21
5.960686
 31
0.0
  0
LINE
  8
0
 62
     7
 10
219.86167
 20
5.719152
 30
0.0
 11
219.979461
 21
5.836942
 31
0.0
  0
LINE
  8
0
 62
     7
 10
214.169461
 20
6.33787
 30
0.0
 11
215.554238
 21
7.722647
 31
0.0
  0
LINE
  8
0
 62
     7
 10
214.169461
 20
6.461614
 30
0.0
 11
215.522156
 21
7.814309
 31
0.0
  0
LINE
  8
0
 62
     7
 10
214.169461
 20
6.585357
 30
0.0
 11
215.490074
 21
7.905971
 31
0.0
  0
LINE
  8
0
 62
     7
 10
214.169461
 20
6.709101
 30
0.0
 11
215.457992
 21
7.997633
 31
0.0
  0
LINE
  8
0
 62
     7
 10
214.169461
 20
6.832845
 30
0.0
 11
215.425911
 21
8.089295
 31
0.0
  0
LINE
  8
0
 62
     7
 10
214.169461
 20
6.956588
 30
0.0
 11
215.393829
 21
8.180957
 31
0.0
  0
LINE
  8
0
 62
     7
 10
214.169461
 20
7.080332
 30
0.0
 11
215.361747
 21
8.272619
 31
0.0
  0
LINE
  8
0
 62
     7
 10
214.169461
 20
7.204076
 30
0.0
 11
215.329666
 21
8.364281
 31
0.0
  0
LINE
  8
0
 62
     7
 10
214.169461
 20
7.327819
 30
0.0
 11
215.297584
 21
8.455943
 31
0.0
  0
LINE
  8
0
 62
     7
 10
214.169461
 20
7.451563
 30
0.0
 11
215.265502
 21
8.547605
 31
0.0
  0
LINE
  8
0
 62
     7
 10
214.169461
 20
7.575307
 30
0.0
 11
215.233421
 21
8.639267
 31
0.0
  0
LINE
  8
0
 62
     7
 10
214.169461
 20
7.699051
 30
0.0
 11
215.201339
 21
8.730929
 31
0.0
  0
LINE
  8
0
 62
     7
 10
214.169461
 20
7.822794
 30
0.0
 11
215.169257
 21
8.822591
 31
0.0
  0
LINE
  8
0
 62
     7
 10
214.169461
 20
7.946538
 30
0.0
 11
215.137176
 21
8.914253
 31
0.0
  0
LINE
  8
0
 62
     7
 10
214.169461
 20
8.070282
 30
0.0
 11
215.105094
 21
9.005915
 31
0.0
  0
LINE
  8
0
 62
     7
 10
214.169461
 20
8.194025
 30
0.0
 11
215.054587
 21
9.079152
 31
0.0
  0
LINE
  8
0
 62
     7
 10
214.169461
 20
8.317769
 30
0.0
 11
214.930843
 21
9.079152
 31
0.0
  0
LINE
  8
0
 62
     7
 10
214.169461
 20
8.441513
 30
0.0
 11
214.8071
 21
9.079152
 31
0.0
  0
LINE
  8
0
 62
     7
 10
214.169461
 20
8.565256
 30
0.0
 11
214.683356
 21
9.079152
 31
0.0
  0
LINE
  8
0
 62
     7
 10
214.169461
 20
8.689
 30
0.0
 11
214.559612
 21
9.079152
 31
0.0
  0
LINE
  8
0
 62
     7
 10
214.169461
 20
8.812744
 30
0.0
 11
214.435869
 21
9.079152
 31
0.0
  0
LINE
  8
0
 62
     7
 10
214.169461
 20
8.936487
 30
0.0
 11
214.312125
 21
9.079152
 31
0.0
  0
LINE
  8
0
 62
     7
 10
214.169461
 20
9.060231
 30
0.0
 11
214.188381
 21
9.079152
 31
0.0
  0
LINE
  8
0
 62
     7
 10
214.169461
 20
6.214126
 30
0.0
 11
215.586319
 21
7.630985
 31
0.0
  0
LINE
  8
0
 62
     7
 10
214.169461
 20
6.090383
 30
0.0
 11
215.618401
 21
7.539323
 31
0.0
  0
LINE
  8
0
 62
     7
 10
214.169461
 20
5.966639
 30
0.0
 11
215.650483
 21
7.447661
 31
0.0
  0
LINE
  8
0
 62
     7
 10
214.169461
 20
5.842895
 30
0.0
 11
215.682564
 21
7.355999
 31
0.0
  0
LINE
  8
0
 62
     7
 10
214.169461
 20
5.719152
 30
0.0
 11
215.714646
 21
7.264337
 31
0.0
  0
LINE
  8
0
 62
     7
 10
214.293205
 20
5.719152
 30
0.0
 11
215.746728
 21
7.172675
 31
0.0
  0
LINE
  8
0
 62
     7
 10
214.416948
 20
5.719152
 30
0.0
 11
215.778809
 21
7.081013
 31
0.0
  0
LINE
  8
0
 62
     7
 10
214.540692
 20
5.719152
 30
0.0
 11
215.810891
 21
6.989351
 31
0.0
  0
LINE
  8
0
 62
     7
 10
214.664436
 20
5.719152
 30
0.0
 11
215.842973
 21
6.897689
 31
0.0
  0
LINE
  8
0
 62
     7
 10
214.788179
 20
5.719152
 30
0.0
 11
215.875055
 21
6.806027
 31
0.0
  0
LINE
  8
0
 62
     7
 10
214.911923
 20
5.719152
 30
0.0
 11
215.907136
 21
6.714365
 31
0.0
  0
LINE
  8
0
 62
     7
 10
215.035667
 20
5.719152
 30
0.0
 11
215.939218
 21
6.622703
 31
0.0
  0
LINE
  8
0
 62
     7
 10
215.15941
 20
5.719152
 30
0.0
 11
215.9713
 21
6.531041
 31
0.0
  0
LINE
  8
0
 62
     7
 10
215.283154
 20
5.719152
 30
0.0
 11
216.003381
 21
6.439379
 31
0.0
  0
LINE
  8
0
 62
     7
 10
215.406898
 20
5.719152
 30
0.0
 11
216.035463
 21
6.347717
 31
0.0
  0
LINE
  8
0
 62
     7
 10
215.530641
 20
5.719152
 30
0.0
 11
216.067545
 21
6.256055
 31
0.0
  0
LINE
  8
0
 62
     7
 10
215.654385
 20
5.719152
 30
0.0
 11
216.099626
 21
6.164393
 31
0.0
  0
LINE
  8
0
 62
     7
 10
215.778129
 20
5.719152
 30
0.0
 11
216.131708
 21
6.072731
 31
0.0
  0
LINE
  8
0
 62
     7
 10
215.901872
 20
5.719152
 30
0.0
 11
216.16379
 21
5.981069
 31
0.0
  0
LINE
  8
0
 62
     7
 10
216.025616
 20
5.719152
 30
0.0
 11
216.195872
 21
5.889407
 31
0.0
  0
LINE
  8
0
 62
     7
 10
216.14936
 20
5.719152
 30
0.0
 11
216.227953
 21
5.797745
 31
0.0
  0
LINE
  8
0
 62
     7
 10
212.12861
 20
6.648149
 30
0.0
 11
213.889461
 21
8.409
 31
0.0
  0
LINE
  8
0
 62
     7
 10
212.195241
 20
6.838524
 30
0.0
 11
213.889461
 21
8.532744
 31
0.0
  0
LINE
  8
0
 62
     7
 10
212.261872
 20
7.028899
 30
0.0
 11
213.889461
 21
8.656487
 31
0.0
  0
LINE
  8
0
 62
     7
 10
212.328504
 20
7.219274
 30
0.0
 11
213.889461
 21
8.780231
 31
0.0
  0
LINE
  8
0
 62
     7
 10
212.395135
 20
7.409649
 30
0.0
 11
213.889461
 21
8.903975
 31
0.0
  0
LINE
  8
0
 62
     7
 10
212.461766
 20
7.600024
 30
0.0
 11
213.889461
 21
9.027718
 31
0.0
  0
LINE
  8
0
 62
     7
 10
212.528397
 20
7.790399
 30
0.0
 11
213.81715
 21
9.079152
 31
0.0
  0
LINE
  8
0
 62
     7
 10
212.595029
 20
7.980774
 30
0.0
 11
213.693407
 21
9.079152
 31
0.0
  0
LINE
  8
0
 62
     7
 10
212.66166
 20
8.171148
 30
0.0
 11
213.569663
 21
9.079152
 31
0.0
  0
LINE
  8
0
 62
     7
 10
212.728291
 20
8.361523
 30
0.0
 11
213.445919
 21
9.079152
 31
0.0
  0
LINE
  8
0
 62
     7
 10
212.794922
 20
8.551898
 30
0.0
 11
213.322176
 21
9.079152
 31
0.0
  0
LINE
  8
0
 62
     7
 10
212.861553
 20
8.742273
 30
0.0
 11
213.198432
 21
9.079152
 31
0.0
  0
LINE
  8
0
 62
     7
 10
212.928185
 20
8.932648
 30
0.0
 11
213.074688
 21
9.079152
 31
0.0
  0
LINE
  8
0
 62
     7
 10
212.061979
 20
6.457774
 30
0.0
 11
213.889461
 21
8.285256
 31
0.0
  0
LINE
  8
0
 62
     7
 10
211.995348
 20
6.267399
 30
0.0
 11
213.889461
 21
8.161513
 31
0.0
  0
LINE
  8
0
 62
     7
 10
211.928716
 20
6.077024
 30
0.0
 11
213.889461
 21
8.037769
 31
0.0
  0
LINE
  8
0
 62
     7
 10
211.862085
 20
5.88665
 30
0.0
 11
213.889461
 21
7.914025
 31
0.0
  0
LINE
  8
0
 62
     7
 10
211.818331
 20
5.719152
 30
0.0
 11
213.889461
 21
7.790282
 31
0.0
  0
LINE
  8
0
 62
     7
 10
211.942075
 20
5.719152
 30
0.0
 11
213.889461
 21
7.666538
 31
0.0
  0
LINE
  8
0
 62
     7
 10
212.065818
 20
5.719152
 30
0.0
 11
213.889461
 21
7.542794
 31
0.0
  0
LINE
  8
0
 62
     7
 10
212.189562
 20
5.719152
 30
0.0
 11
213.889461
 21
7.419051
 31
0.0
  0
LINE
  8
0
 62
     7
 10
212.313306
 20
5.719152
 30
0.0
 11
213.889461
 21
7.295307
 31
0.0
  0
LINE
  8
0
 62
     7
 10
212.437049
 20
5.719152
 30
0.0
 11
213.889461
 21
7.171563
 31
0.0
  0
LINE
  8
0
 62
     7
 10
212.560793
 20
5.719152
 30
0.0
 11
213.889461
 21
7.047819
 31
0.0
  0
LINE
  8
0
 62
     7
 10
212.684537
 20
5.719152
 30
0.0
 11
213.889461
 21
6.924076
 31
0.0
  0
LINE
  8
0
 62
     7
 10
212.80828
 20
5.719152
 30
0.0
 11
213.889461
 21
6.800332
 31
0.0
  0
LINE
  8
0
 62
     7
 10
212.932024
 20
5.719152
 30
0.0
 11
213.889461
 21
6.676588
 31
0.0
  0
LINE
  8
0
 62
     7
 10
213.055768
 20
5.719152
 30
0.0
 11
213.889461
 21
6.552845
 31
0.0
  0
LINE
  8
0
 62
     7
 10
213.179511
 20
5.719152
 30
0.0
 11
213.889461
 21
6.429101
 31
0.0
  0
LINE
  8
0
 62
     7
 10
213.303255
 20
5.719152
 30
0.0
 11
213.889461
 21
6.305357
 31
0.0
  0
LINE
  8
0
 62
     7
 10
213.426999
 20
5.719152
 30
0.0
 11
213.889461
 21
6.181614
 31
0.0
  0
LINE
  8
0
 62
     7
 10
213.550742
 20
5.719152
 30
0.0
 11
213.889461
 21
6.05787
 31
0.0
  0
LINE
  8
0
 62
     7
 10
213.674486
 20
5.719152
 30
0.0
 11
213.889461
 21
5.934126
 31
0.0
  0
LINE
  8
0
 62
     7
 10
213.79823
 20
5.719152
 30
0.0
 11
213.889461
 21
5.810383
 31
0.0
  0
LINE
  8
0
 62
     7
 10
215.348719
 20
3.309843
 30
0.0
 11
216.645015
 21
4.606139
 31
0.0
  0
LINE
  8
0
 62
     7
 10
215.316637
 20
3.401505
 30
0.0
 11
216.612934
 21
4.697801
 31
0.0
  0
LINE
  8
0
 62
     7
 10
215.27054
 20
3.479152
 30
0.0
 11
216.580852
 21
4.789463
 31
0.0
  0
LINE
  8
0
 62
     7
 10
215.146797
 20
3.479152
 30
0.0
 11
216.54877
 21
4.881125
 31
0.0
  0
LINE
  8
0
 62
     7
 10
215.023053
 20
3.479152
 30
0.0
 11
216.516688
 21
4.972787
 31
0.0
  0
LINE
  8
0
 62
     7
 10
214.899309
 20
3.479152
 30
0.0
 11
216.484607
 21
5.064449
 31
0.0
  0
LINE
  8
0
 62
     7
 10
214.775566
 20
3.479152
 30
0.0
 11
216.452525
 21
5.156111
 31
0.0
  0
LINE
  8
0
 62
     7
 10
214.651822
 20
3.479152
 30
0.0
 11
216.420443
 21
5.247773
 31
0.0
  0
LINE
  8
0
 62
     7
 10
214.528078
 20
3.479152
 30
0.0
 11
216.388362
 21
5.339435
 31
0.0
  0
LINE
  8
0
 62
     7
 10
214.404335
 20
3.479152
 30
0.0
 11
216.35628
 21
5.431097
 31
0.0
  0
LINE
  8
0
 62
     7
 10
214.280591
 20
3.479152
 30
0.0
 11
216.240591
 21
5.439152
 31
0.0
  0
LINE
  8
0
 62
     7
 10
214.169461
 20
3.491765
 30
0.0
 11
216.116847
 21
5.439152
 31
0.0
  0
LINE
  8
0
 62
     7
 10
214.169461
 20
3.615509
 30
0.0
 11
215.993104
 21
5.439152
 31
0.0
  0
LINE
  8
0
 62
     7
 10
214.169461
 20
3.739253
 30
0.0
 11
215.86936
 21
5.439152
 31
0.0
  0
LINE
  8
0
 62
     7
 10
214.169461
 20
3.862996
 30
0.0
 11
215.745616
 21
5.439152
 31
0.0
  0
LINE
  8
0
 62
     7
 10
214.169461
 20
3.98674
 30
0.0
 11
215.621872
 21
5.439152
 31
0.0
  0
LINE
  8
0
 62
     7
 10
214.169461
 20
4.110484
 30
0.0
 11
215.498129
 21
5.439152
 31
0.0
  0
LINE
  8
0
 62
     7
 10
214.169461
 20
4.234227
 30
0.0
 11
215.374385
 21
5.439152
 31
0.0
  0
LINE
  8
0
 62
     7
 10
214.169461
 20
4.357971
 30
0.0
 11
215.250641
 21
5.439152
 31
0.0
  0
LINE
  8
0
 62
     7
 10
214.169461
 20
4.481715
 30
0.0
 11
215.126898
 21
5.439152
 31
0.0
  0
LINE
  8
0
 62
     7
 10
214.169461
 20
4.605458
 30
0.0
 11
215.003154
 21
5.439152
 31
0.0
  0
LINE
  8
0
 62
     7
 10
214.169461
 20
4.729202
 30
0.0
 11
214.87941
 21
5.439152
 31
0.0
  0
LINE
  8
0
 62
     7
 10
214.169461
 20
4.852946
 30
0.0
 11
214.755667
 21
5.439152
 31
0.0
  0
LINE
  8
0
 62
     7
 10
214.169461
 20
4.976689
 30
0.0
 11
214.631923
 21
5.439152
 31
0.0
  0
LINE
  8
0
 62
     7
 10
214.169461
 20
5.100433
 30
0.0
 11
214.508179
 21
5.439152
 31
0.0
  0
LINE
  8
0
 62
     7
 10
214.169461
 20
5.224177
 30
0.0
 11
214.384436
 21
5.439152
 31
0.0
  0
LINE
  8
0
 62
     7
 10
214.169461
 20
5.34792
 30
0.0
 11
214.260692
 21
5.439152
 31
0.0
  0
LINE
  8
0
 62
     7
 10
215.380801
 20
3.218181
 30
0.0
 11
216.677097
 21
4.514477
 31
0.0
  0
LINE
  8
0
 62
     7
 10
215.412882
 20
3.126519
 30
0.0
 11
216.709179
 21
4.422815
 31
0.0
  0
LINE
  8
0
 62
     7
 10
215.444964
 20
3.034857
 30
0.0
 11
216.74126
 21
4.331153
 31
0.0
  0
LINE
  8
0
 62
     7
 10
215.477046
 20
2.943195
 30
0.0
 11
216.773342
 21
4.239491
 31
0.0
  0
LINE
  8
0
 62
     7
 10
215.509127
 20
2.851533
 30
0.0
 11
216.805424
 21
4.147829
 31
0.0
  0
LINE
  8
0
 62
     7
 10
215.541209
 20
2.759871
 30
0.0
 11
216.837505
 21
4.056167
 31
0.0
  0
LINE
  8
0
 62
     7
 10
215.573291
 20
2.668209
 30
0.0
 11
216.869587
 21
3.964505
 31
0.0
  0
LINE
  8
0
 62
     7
 10
215.605373
 20
2.576547
 30
0.0
 11
216.901669
 21
3.872843
 31
0.0
  0
LINE
  8
0
 62
     7
 10
215.637454
 20
2.484885
 30
0.0
 11
216.933751
 21
3.781181
 31
0.0
  0
LINE
  8
0
 62
     7
 10
215.669536
 20
2.393223
 30
0.0
 11
216.965832
 21
3.689519
 31
0.0
  0
LINE
  8
0
 62
     7
 10
215.701618
 20
2.301561
 30
0.0
 11
216.997914
 21
3.597857
 31
0.0
  0
LINE
  8
0
 62
     7
 10
215.733699
 20
2.209899
 30
0.0
 11
217.029996
 21
3.506195
 31
0.0
  0
LINE
  8
0
 62
     7
 10
215.765781
 20
2.118237
 30
0.0
 11
217.062077
 21
3.414533
 31
0.0
  0
LINE
  8
0
 62
     7
 10
215.850439
 20
2.079152
 30
0.0
 11
217.094159
 21
3.322871
 31
0.0
  0
LINE
  8
0
 62
     7
 10
215.974183
 20
2.079152
 30
0.0
 11
217.126241
 21
3.231209
 31
0.0
  0
LINE
  8
0
 62
     7
 10
216.097927
 20
2.079152
 30
0.0
 11
217.158322
 21
3.139547
 31
0.0
  0
LINE
  8
0
 62
     7
 10
216.22167
 20
2.079152
 30
0.0
 11
217.190404
 21
3.047885
 31
0.0
  0
LINE
  8
0
 62
     7
 10
216.345414
 20
2.079152
 30
0.0
 11
217.222486
 21
2.956223
 31
0.0
  0
LINE
  8
0
 62
     7
 10
216.469158
 20
2.079152
 30
0.0
 11
217.254567
 21
2.864561
 31
0.0
  0
LINE
  8
0
 62
     7
 10
216.592902
 20
2.079152
 30
0.0
 11
217.286649
 21
2.772899
 31
0.0
  0
LINE
  8
0
 62
     7
 10
216.716645
 20
2.079152
 30
0.0
 11
217.318731
 21
2.681237
 31
0.0
  0
LINE
  8
0
 62
     7
 10
216.840389
 20
2.079152
 30
0.0
 11
217.350813
 21
2.589575
 31
0.0
  0
LINE
  8
0
 62
     7
 10
216.964133
 20
2.079152
 30
0.0
 11
217.382894
 21
2.497913
 31
0.0
  0
LINE
  8
0
 62
     7
 10
217.087876
 20
2.079152
 30
0.0
 11
217.414976
 21
2.406251
 31
0.0
  0
LINE
  8
0
 62
     7
 10
217.21162
 20
2.079152
 30
0.0
 11
217.447058
 21
2.314589
 31
0.0
  0
LINE
  8
0
 62
     7
 10
217.335364
 20
2.079152
 30
0.0
 11
217.479139
 21
2.222927
 31
0.0
  0
LINE
  8
0
 62
     7
 10
217.459107
 20
2.079152
 30
0.0
 11
217.511221
 21
2.131265
 31
0.0
  0
LINE
  8
0
 62
     7
 10
210.529461
 20
2.079152
 30
0.0
 11
213.889461
 21
5.439152
 31
0.0
  0
LINE
  8
0
 62
     7
 10
210.596092
 20
2.269526
 30
0.0
 11
213.765717
 21
5.439152
 31
0.0
  0
LINE
  8
0
 62
     7
 10
210.662723
 20
2.459901
 30
0.0
 11
213.641973
 21
5.439152
 31
0.0
  0
LINE
  8
0
 62
     7
 10
210.729355
 20
2.650276
 30
0.0
 11
213.51823
 21
5.439152
 31
0.0
  0
LINE
  8
0
 62
     7
 10
210.795986
 20
2.840651
 30
0.0
 11
213.394486
 21
5.439152
 31
0.0
  0
LINE
  8
0
 62
     7
 10
210.862617
 20
3.031026
 30
0.0
 11
213.270742
 21
5.439152
 31
0.0
  0
LINE
  8
0
 62
     7
 10
210.929248
 20
3.221401
 30
0.0
 11
213.146999
 21
5.439152
 31
0.0
  0
LINE
  8
0
 62
     7
 10
210.995879
 20
3.411776
 30
0.0
 11
213.023255
 21
5.439152
 31
0.0
  0
LINE
  8
0
 62
     7
 10
211.062511
 20
3.602151
 30
0.0
 11
212.899511
 21
5.439152
 31
0.0
  0
LINE
  8
0
 62
     7
 10
211.129142
 20
3.792526
 30
0.0
 11
212.775768
 21
5.439152
 31
0.0
  0
LINE
  8
0
 62
     7
 10
211.195773
 20
3.982901
 30
0.0
 11
212.652024
 21
5.439152
 31
0.0
  0
LINE
  8
0
 62
     7
 10
211.262404
 20
4.173275
 30
0.0
 11
212.52828
 21
5.439152
 31
0.0
  0
LINE
  8
0
 62
     7
 10
211.329035
 20
4.36365
 30
0.0
 11
212.404537
 21
5.439152
 31
0.0
  0
LINE
  8
0
 62
     7
 10
211.395667
 20
4.554025
 30
0.0
 11
212.280793
 21
5.439152
 31
0.0
  0
LINE
  8
0
 62
     7
 10
211.462298
 20
4.7444
 30
0.0
 11
212.157049
 21
5.439152
 31
0.0
  0
LINE
  8
0
 62
     7
 10
211.528929
 20
4.934775
 30
0.0
 11
212.033306
 21
5.439152
 31
0.0
  0
LINE
  8
0
 62
     7
 10
211.59556
 20
5.12515
 30
0.0
 11
211.909562
 21
5.439152
 31
0.0
  0
LINE
  8
0
 62
     7
 10
211.662192
 20
5.315525
 30
0.0
 11
211.785818
 21
5.439152
 31
0.0
  0
LINE
  8
0
 62
     7
 10
210.653205
 20
2.079152
 30
0.0
 11
213.889461
 21
5.315408
 31
0.0
  0
LINE
  8
0
 62
     7
 10
210.776948
 20
2.079152
 30
0.0
 11
213.889461
 21
5.191664
 31
0.0
  0
LINE
  8
0
 62
     7
 10
210.900692
 20
2.079152
 30
0.0
 11
213.889461
 21
5.06792
 31
0.0
  0
LINE
  8
0
 62
     7
 10
211.024436
 20
2.079152
 30
0.0
 11
213.889461
 21
4.944177
 31
0.0
  0
LINE
  8
0
 62
     7
 10
211.148179
 20
2.079152
 30
0.0
 11
213.889461
 21
4.820433
 31
0.0
  0
LINE
  8
0
 62
     7
 10
211.271923
 20
2.079152
 30
0.0
 11
213.889461
 21
4.696689
 31
0.0
  0
LINE
  8
0
 62
     7
 10
211.395667
 20
2.079152
 30
0.0
 11
212.75535
 21
3.438835
 31
0.0
  0
LINE
  8
0
 62
     7
 10
212.795667
 20
3.479152
 30
0.0
 11
213.889461
 21
4.572946
 31
0.0
  0
LINE
  8
0
 62
     7
 10
211.51941
 20
2.079152
 30
0.0
 11
212.688719
 21
3.24846
 31
0.0
  0
LINE
  8
0
 62
     7
 10
212.91941
 20
3.479152
 30
0.0
 11
213.889461
 21
4.449202
 31
0.0
  0
LINE
  8
0
 62
     7
 10
211.643154
 20
2.079152
 30
0.0
 11
212.622088
 21
3.058085
 31
0.0
  0
LINE
  8
0
 62
     7
 10
213.043154
 20
3.479152
 30
0.0
 11
213.889461
 21
4.325458
 31
0.0
  0
LINE
  8
0
 62
     7
 10
211.766898
 20
2.079152
 30
0.0
 11
212.555456
 21
2.86771
 31
0.0
  0
LINE
  8
0
 62
     7
 10
213.166898
 20
3.479152
 30
0.0
 11
213.889461
 21
4.201715
 31
0.0
  0
LINE
  8
0
 62
     7
 10
211.890641
 20
2.079152
 30
0.0
 11
212.488825
 21
2.677335
 31
0.0
  0
LINE
  8
0
 62
     7
 10
213.290641
 20
3.479152
 30
0.0
 11
213.889461
 21
4.077971
 31
0.0
  0
LINE
  8
0
 62
     7
 10
212.014385
 20
2.079152
 30
0.0
 11
212.422194
 21
2.48696
 31
0.0
  0
LINE
  8
0
 62
     7
 10
213.414385
 20
3.479152
 30
0.0
 11
213.889461
 21
3.954227
 31
0.0
  0
LINE
  8
0
 62
     7
 10
212.138129
 20
2.079152
 30
0.0
 11
212.355563
 21
2.296585
 31
0.0
  0
LINE
  8
0
 62
     7
 10
213.538129
 20
3.479152
 30
0.0
 11
213.889461
 21
3.830484
 31
0.0
  0
LINE
  8
0
 62
     7
 10
212.261872
 20
2.079152
 30
0.0
 11
212.288932
 21
2.106211
 31
0.0
  0
LINE
  8
0
 62
     7
 10
213.661872
 20
3.479152
 30
0.0
 11
213.889461
 21
3.70674
 31
0.0
  0
LINE
  8
0
 62
     7
 10
213.785616
 20
3.479152
 30
0.0
 11
213.889461
 21
3.582996
 31
0.0
  0
LINE
  8
0
 62
     7
 10
220.259461
 20
2.652119
 30
0.0
 11
222.706976
 21
5.099634
 31
0.0
  0
LINE
  8
0
 62
     7
 10
220.259461
 20
2.775862
 30
0.0
 11
222.664909
 21
5.18131
 31
0.0
  0
LINE
  8
0
 62
     7
 10
220.259461
 20
2.899606
 30
0.0
 11
222.619915
 21
5.26006
 31
0.0
  0
LINE
  8
0
 62
     7
 10
220.259461
 20
3.02335
 30
0.0
 11
222.572097
 21
5.335986
 31
0.0
  0
LINE
  8
0
 62
     7
 10
220.259461
 20
3.147093
 30
0.0
 11
222.521536
 21
5.409168
 31
0.0
  0
LINE
  8
0
 62
     7
 10
220.259461
 20
3.270837
 30
0.0
 11
222.427775
 21
5.439152
 31
0.0
  0
LINE
  8
0
 62
     7
 10
220.259461
 20
3.394581
 30
0.0
 11
222.304032
 21
5.439152
 31
0.0
  0
LINE
  8
0
 62
     7
 10
220.259461
 20
3.518325
 30
0.0
 11
222.180288
 21
5.439152
 31
0.0
  0
LINE
  8
0
 62
     7
 10
220.259461
 20
3.642068
 30
0.0
 11
222.056544
 21
5.439152
 31
0.0
  0
LINE
  8
0
 62
     7
 10
220.259461
 20
3.765812
 30
0.0
 11
221.932801
 21
5.439152
 31
0.0
  0
LINE
  8
0
 62
     7
 10
220.259461
 20
3.889556
 30
0.0
 11
221.809057
 21
5.439152
 31
0.0
  0
LINE
  8
0
 62
     7
 10
220.259461
 20
4.013299
 30
0.0
 11
221.685313
 21
5.439152
 31
0.0
  0
LINE
  8
0
 62
     7
 10
220.259461
 20
4.137043
 30
0.0
 11
221.561569
 21
5.439152
 31
0.0
  0
LINE
  8
0
 62
     7
 10
220.259461
 20
4.260787
 30
0.0
 11
221.437826
 21
5.439152
 31
0.0
  0
LINE
  8
0
 62
     7
 10
220.259461
 20
4.38453
 30
0.0
 11
221.314082
 21
5.439152
 31
0.0
  0
LINE
  8
0
 62
     7
 10
220.259461
 20
4.508274
 30
0.0
 11
221.190338
 21
5.439152
 31
0.0
  0
LINE
  8
0
 62
     7
 10
220.259461
 20
4.632018
 30
0.0
 11
221.066595
 21
5.439152
 31
0.0
  0
LINE
  8
0
 62
     7
 10
220.259461
 20
4.755761
 30
0.0
 11
220.942851
 21
5.439152
 31
0.0
  0
LINE
  8
0
 62
     7
 10
220.259461
 20
4.879505
 30
0.0
 11
220.819107
 21
5.439152
 31
0.0
  0
LINE
  8
0
 62
     7
 10
220.259461
 20
5.003249
 30
0.0
 11
220.695364
 21
5.439152
 31
0.0
  0
LINE
  8
0
 62
     7
 10
220.259461
 20
5.126992
 30
0.0
 11
220.57162
 21
5.439152
 31
0.0
  0
LINE
  8
0
 62
     7
 10
220.259461
 20
5.250736
 30
0.0
 11
220.447876
 21
5.439152
 31
0.0
  0
LINE
  8
0
 62
     7
 10
220.259461
 20
5.37448
 30
0.0
 11
220.324133
 21
5.439152
 31
0.0
  0
LINE
  8
0
 62
     7
 10
220.259461
 20
2.528375
 30
0.0
 11
222.745991
 21
5.014905
 31
0.0
  0
LINE
  8
0
 62
     7
 10
220.259461
 20
2.404631
 30
0.0
 11
222.781799
 21
4.926969
 31
0.0
  0
LINE
  8
0
 62
     7
 10
220.259461
 20
2.280888
 30
0.0
 11
222.814211
 21
4.835637
 31
0.0
  0
LINE
  8
0
 62
     7
 10
220.259461
 20
2.157144
 30
0.0
 11
222.842995
 21
4.740678
 31
0.0
  0
LINE
  8
0
 62
     7
 10
220.305212
 20
2.079152
 30
0.0
 11
222.867864
 21
4.641803
 31
0.0
  0
LINE
  8
0
 62
     7
 10
220.428956
 20
2.079152
 30
0.0
 11
222.88846
 21
4.538656
 31
0.0
  0
LINE
  8
0
 62
     7
 10
220.5527
 20
2.079152
 30
0.0
 11
222.904331
 21
4.430783
 31
0.0
  0
LINE
  8
0
 62
     7
 10
220.676444
 20
2.079152
 30
0.0
 11
222.914892
 21
4.3176
 31
0.0
  0
LINE
  8
0
 62
     7
 10
220.800188
 20
2.079153
 30
0.0
 11
222.919373
 21
4.198338
 31
0.0
  0
LINE
  8
0
 62
     7
 10
220.926669
 20
2.08189
 30
0.0
 11
222.916723
 21
4.071944
 31
0.0
  0
LINE
  8
0
 62
     7
 10
221.061691
 20
2.093169
 30
0.0
 11
222.905444
 21
3.936921
 31
0.0
  0
LINE
  8
0
 62
     7
 10
221.207599
 20
2.115333
 30
0.0
 11
222.88328
 21
3.791013
 31
0.0
  0
LINE
  8
0
 62
     7
 10
221.368094
 20
2.152084
 30
0.0
 11
222.846528
 21
3.630518
 31
0.0
  0
LINE
  8
0
 62
     7
 10
221.550111
 20
2.210357
 30
0.0
 11
222.788255
 21
3.448501
 31
0.0
  0
LINE
  8
0
 62
     7
 10
221.770184
 20
2.306686
 30
0.0
 11
222.691926
 21
3.228429
 31
0.0
  0
LINE
  8
0
 62
     7
 10
222.108812
 20
2.521571
 30
0.0
 11
222.477042
 21
2.8898
 31
0.0
  0
LINE
  8
0
 62
     7
 10
218.019461
 20
2.886992
 30
0.0
 11
219.979461
 21
4.846992
 31
0.0
  0
LINE
  8
0
 62
     7
 10
218.019461
 20
3.010736
 30
0.0
 11
219.979461
 21
4.970736
 31
0.0
  0
LINE
  8
0
 62
     7
 10
218.019461
 20
3.13448
 30
0.0
 11
219.979461
 21
5.09448
 31
0.0
  0
LINE
  8
0
 62
     7
 10
218.019461
 20
3.258224
 30
0.0
 11
219.979461
 21
5.218224
 31
0.0
  0
LINE
  8
0
 62
     7
 10
218.019461
 20
3.381967
 30
0.0
 11
219.979461
 21
5.341967
 31
0.0
  0
LINE
  8
0
 62
     7
 10
218.019461
 20
3.505711
 30
0.0
 11
219.952902
 21
5.439152
 31
0.0
  0
LINE
  8
0
 62
     7
 10
218.019461
 20
3.629455
 30
0.0
 11
219.829158
 21
5.439152
 31
0.0
  0
LINE
  8
0
 62
     7
 10
218.019461
 20
3.753198
 30
0.0
 11
219.705414
 21
5.439152
 31
0.0
  0
LINE
  8
0
 62
     7
 10
218.019461
 20
3.876942
 30
0.0
 11
219.58167
 21
5.439152
 31
0.0
  0
LINE
  8
0
 62
     7
 10
218.019461
 20
4.000686
 30
0.0
 11
219.457927
 21
5.439152
 31
0.0
  0
LINE
  8
0
 62
     7
 10
218.019461
 20
4.124429
 30
0.0
 11
219.334183
 21
5.439152
 31
0.0
  0
LINE
  8
0
 62
     7
 10
218.019461
 20
4.248173
 30
0.0
 11
219.210439
 21
5.439152
 31
0.0
  0
LINE
  8
0
 62
     7
 10
218.019461
 20
4.371917
 30
0.0
 11
219.086696
 21
5.439152
 31
0.0
  0
LINE
  8
0
 62
     7
 10
218.019461
 20
4.49566
 30
0.0
 11
218.962952
 21
5.439152
 31
0.0
  0
LINE
  8
0
 62
     7
 10
218.019461
 20
4.619404
 30
0.0
 11
218.839208
 21
5.439152
 31
0.0
  0
LINE
  8
0
 62
     7
 10
218.019461
 20
4.743148
 30
0.0
 11
218.715465
 21
5.439152
 31
0.0
  0
LINE
  8
0
 62
     7
 10
218.019461
 20
4.866891
 30
0.0
 11
218.591721
 21
5.439152
 31
0.0
  0
LINE
  8
0
 62
     7
 10
218.019461
 20
4.990635
 30
0.0
 11
218.467977
 21
5.439152
 31
0.0
  0
LINE
  8
0
 62
     7
 10
218.019461
 20
5.114379
 30
0.0
 11
218.344234
 21
5.439152
 31
0.0
  0
LINE
  8
0
 62
     7
 10
218.019461
 20
5.238122
 30
0.0
 11
218.22049
 21
5.439152
 31
0.0
  0
LINE
  8
0
 62
     7
 10
218.019461
 20
5.361866
 30
0.0
 11
218.096746
 21
5.439152
 31
0.0
  0
LINE
  8
0
 62
     7
 10
218.019461
 20
2.763249
 30
0.0
 11
219.979461
 21
4.723249
 31
0.0
  0
LINE
  8
0
 62
     7
 10
218.019461
 20
2.639505
 30
0.0
 11
219.979461
 21
4.599505
 31
0.0
  0
LINE
  8
0
 62
     7
 10
218.019461
 20
2.515761
 30
0.0
 11
219.979461
 21
4.475761
 31
0.0
  0
LINE
  8
0
 62
     7
 10
218.019461
 20
2.392018
 30
0.0
 11
219.979461
 21
4.352018
 31
0.0
  0
LINE
  8
0
 62
     7
 10
218.019461
 20
2.268274
 30
0.0
 11
219.979461
 21
4.228274
 31
0.0
  0
LINE
  8
0
 62
     7
 10
218.019461
 20
2.14453
 30
0.0
 11
219.979461
 21
4.10453
 31
0.0
  0
LINE
  8
0
 62
     7
 10
218.077826
 20
2.079152
 30
0.0
 11
219.979461
 21
3.980787
 31
0.0
  0
LINE
  8
0
 62
     7
 10
218.201569
 20
2.079152
 30
0.0
 11
219.979461
 21
3.857043
 31
0.0
  0
LINE
  8
0
 62
     7
 10
218.325313
 20
2.079152
 30
0.0
 11
219.979461
 21
3.733299
 31
0.0
  0
LINE
  8
0
 62
     7
 10
218.449057
 20
2.079152
 30
0.0
 11
219.979461
 21
3.609556
 31
0.0
  0
LINE
  8
0
 62
     7
 10
218.572801
 20
2.079152
 30
0.0
 11
219.979461
 21
3.485812
 31
0.0
  0
LINE
  8
0
 62
     7
 10
218.696544
 20
2.079152
 30
0.0
 11
219.979461
 21
3.362068
 31
0.0
  0
LINE
  8
0
 62
     7
 10
218.820288
 20
2.079152
 30
0.0
 11
219.979461
 21
3.238325
 31
0.0
  0
LINE
  8
0
 62
     7
 10
218.944032
 20
2.079152
 30
0.0
 11
219.979461
 21
3.114581
 31
0.0
  0
LINE
  8
0
 62
     7
 10
219.067775
 20
2.079152
 30
0.0
 11
219.979461
 21
2.990837
 31
0.0
  0
LINE
  8
0
 62
     7
 10
219.191519
 20
2.079152
 30
0.0
 11
219.979461
 21
2.867093
 31
0.0
  0
LINE
  8
0
 62
     7
 10
219.315263
 20
2.079152
 30
0.0
 11
219.979461
 21
2.74335
 31
0.0
  0
LINE
  8
0
 62
     7
 10
219.439006
 20
2.079152
 30
0.0
 11
219.979461
 21
2.619606
 31
0.0
  0
LINE
  8
0
 62
     7
 10
219.56275
 20
2.079152
 30
0.0
 11
219.979461
 21
2.495862
 31
0.0
  0
LINE
  8
0
 62
     7
 10
219.686494
 20
2.079152
 30
0.0
 11
219.979461
 21
2.372119
 31
0.0
  0
LINE
  8
0
 62
     7
 10
219.810237
 20
2.079152
 30
0.0
 11
219.979461
 21
2.248375
 31
0.0
  0
LINE
  8
0
 62
     7
 10
219.933981
 20
2.079152
 30
0.0
 11
219.979461
 21
2.124631
 31
0.0
  0
LINE
  8
0
 62
     7
 10
223.479461
 20
2.886992
 30
0.0
 11
225.439461
 21
4.846992
 31
0.0
  0
LINE
  8
0
 62
     7
 10
223.479461
 20
3.010736
 30
0.0
 11
225.439461
 21
4.970736
 31
0.0
  0
LINE
  8
0
 62
     7
 10
223.479461
 20
3.13448
 30
0.0
 11
225.439461
 21
5.09448
 31
0.0
  0
LINE
  8
0
 62
     7
 10
223.479461
 20
3.258224
 30
0.0
 11
225.439461
 21
5.218224
 31
0.0
  0
LINE
  8
0
 62
     7
 10
223.479461
 20
3.381967
 30
0.0
 11
225.439461
 21
5.341967
 31
0.0
  0
LINE
  8
0
 62
     7
 10
223.479461
 20
3.505711
 30
0.0
 11
225.412902
 21
5.439152
 31
0.0
  0
LINE
  8
0
 62
     7
 10
223.479461
 20
3.629455
 30
0.0
 11
225.289158
 21
5.439152
 31
0.0
  0
LINE
  8
0
 62
     7
 10
223.479461
 20
3.753198
 30
0.0
 11
225.165414
 21
5.439152
 31
0.0
  0
LINE
  8
0
 62
     7
 10
223.479461
 20
3.876942
 30
0.0
 11
225.04167
 21
5.439152
 31
0.0
  0
LINE
  8
0
 62
     7
 10
223.479461
 20
4.000686
 30
0.0
 11
224.917927
 21
5.439152
 31
0.0
  0
LINE
  8
0
 62
     7
 10
223.479461
 20
4.124429
 30
0.0
 11
224.794183
 21
5.439152
 31
0.0
  0
LINE
  8
0
 62
     7
 10
223.479461
 20
4.248173
 30
0.0
 11
224.670439
 21
5.439152
 31
0.0
  0
LINE
  8
0
 62
     7
 10
223.479461
 20
4.371917
 30
0.0
 11
224.546696
 21
5.439152
 31
0.0
  0
LINE
  8
0
 62
     7
 10
223.479461
 20
4.49566
 30
0.0
 11
224.422952
 21
5.439152
 31
0.0
  0
LINE
  8
0
 62
     7
 10
223.479461
 20
4.619404
 30
0.0
 11
224.299208
 21
5.439152
 31
0.0
  0
LINE
  8
0
 62
     7
 10
223.479461
 20
4.743148
 30
0.0
 11
224.175465
 21
5.439152
 31
0.0
  0
LINE
  8
0
 62
     7
 10
223.479461
 20
4.866891
 30
0.0
 11
224.051721
 21
5.439152
 31
0.0
  0
LINE
  8
0
 62
     7
 10
223.479461
 20
4.990635
 30
0.0
 11
223.927977
 21
5.439152
 31
0.0
  0
LINE
  8
0
 62
     7
 10
223.479461
 20
5.114379
 30
0.0
 11
223.804234
 21
5.439152
 31
0.0
  0
LINE
  8
0
 62
     7
 10
223.479461
 20
5.238122
 30
0.0
 11
223.68049
 21
5.439152
 31
0.0
  0
LINE
  8
0
 62
     7
 10
223.479461
 20
5.361866
 30
0.0
 11
223.556746
 21
5.439152
 31
0.0
  0
LINE
  8
0
 62
     7
 10
223.479461
 20
2.763249
 30
0.0
 11
225.439461
 21
4.723249
 31
0.0
  0
LINE
  8
0
 62
     7
 10
223.479461
 20
2.639505
 30
0.0
 11
225.439461
 21
4.599505
 31
0.0
  0
LINE
  8
0
 62
     7
 10
223.479461
 20
2.515761
 30
0.0
 11
225.439461
 21
4.475761
 31
0.0
  0
LINE
  8
0
 62
     7
 10
223.479461
 20
2.392018
 30
0.0
 11
225.439461
 21
4.352018
 31
0.0
  0
LINE
  8
0
 62
     7
 10
223.479461
 20
2.268274
 30
0.0
 11
225.439461
 21
4.228274
 31
0.0
  0
LINE
  8
0
 62
     7
 10
223.479461
 20
2.14453
 30
0.0
 11
225.439461
 21
4.10453
 31
0.0
  0
LINE
  8
0
 62
     7
 10
223.537826
 20
2.079152
 30
0.0
 11
225.439461
 21
3.980787
 31
0.0
  0
LINE
  8
0
 62
     7
 10
223.661569
 20
2.079152
 30
0.0
 11
225.439461
 21
3.857043
 31
0.0
  0
LINE
  8
0
 62
     7
 10
223.785313
 20
2.079152
 30
0.0
 11
225.439461
 21
3.733299
 31
0.0
  0
LINE
  8
0
 62
     7
 10
223.909057
 20
2.079152
 30
0.0
 11
225.439461
 21
3.609556
 31
0.0
  0
LINE
  8
0
 62
     7
 10
224.032801
 20
2.079152
 30
0.0
 11
225.439461
 21
3.485812
 31
0.0
  0
LINE
  8
0
 62
     7
 10
224.156544
 20
2.079152
 30
0.0
 11
225.439461
 21
3.362068
 31
0.0
  0
LINE
  8
0
 62
     7
 10
224.280288
 20
2.079152
 30
0.0
 11
225.439461
 21
3.238325
 31
0.0
  0
LINE
  8
0
 62
     7
 10
224.404032
 20
2.079152
 30
0.0
 11
225.439461
 21
3.114581
 31
0.0
  0
LINE
  8
0
 62
     7
 10
224.527775
 20
2.079152
 30
0.0
 11
225.439461
 21
2.990837
 31
0.0
  0
LINE
  8
0
 62
     7
 10
224.651519
 20
2.079152
 30
0.0
 11
225.439461
 21
2.867093
 31
0.0
  0
LINE
  8
0
 62
     7
 10
224.775263
 20
2.079152
 30
0.0
 11
225.439461
 21
2.74335
 31
0.0
  0
LINE
  8
0
 62
     7
 10
224.899006
 20
2.079152
 30
0.0
 11
225.439461
 21
2.619606
 31
0.0
  0
LINE
  8
0
 62
     7
 10
225.02275
 20
2.079152
 30
0.0
 11
225.439461
 21
2.495862
 31
0.0
  0
LINE
  8
0
 62
     7
 10
225.146494
 20
2.079152
 30
0.0
 11
225.439461
 21
2.372119
 31
0.0
  0
LINE
  8
0
 62
     7
 10
225.270237
 20
2.079152
 30
0.0
 11
225.439461
 21
2.248375
 31
0.0
  0
LINE
  8
0
 62
     7
 10
225.393981
 20
2.079152
 30
0.0
 11
225.439461
 21
2.124631
 31
0.0
  0
LINE
  8
0
 62
     7
 10
225.719461
 20
2.652119
 30
0.0
 11
228.166976
 21
5.099634
 31
0.0
  0
LINE
  8
0
 62
     7
 10
225.719461
 20
2.775862
 30
0.0
 11
228.124909
 21
5.18131
 31
0.0
  0
LINE
  8
0
 62
     7
 10
225.719461
 20
2.899606
 30
0.0
 11
228.079915
 21
5.26006
 31
0.0
  0
LINE
  8
0
 62
     7
 10
225.719461
 20
3.02335
 30
0.0
 11
228.032097
 21
5.335986
 31
0.0
  0
LINE
  8
0
 62
     7
 10
225.719461
 20
3.147093
 30
0.0
 11
227.981536
 21
5.409168
 31
0.0
  0
LINE
  8
0
 62
     7
 10
225.719461
 20
3.270837
 30
0.0
 11
227.887775
 21
5.439152
 31
0.0
  0
LINE
  8
0
 62
     7
 10
225.719461
 20
3.394581
 30
0.0
 11
227.764032
 21
5.439152
 31
0.0
  0
LINE
  8
0
 62
     7
 10
225.719461
 20
3.518325
 30
0.0
 11
227.640288
 21
5.439152
 31
0.0
  0
LINE
  8
0
 62
     7
 10
225.719461
 20
3.642068
 30
0.0
 11
227.516544
 21
5.439152
 31
0.0
  0
LINE
  8
0
 62
     7
 10
225.719461
 20
3.765812
 30
0.0
 11
227.392801
 21
5.439152
 31
0.0
  0
LINE
  8
0
 62
     7
 10
225.719461
 20
3.889556
 30
0.0
 11
227.269057
 21
5.439152
 31
0.0
  0
LINE
  8
0
 62
     7
 10
225.719461
 20
4.013299
 30
0.0
 11
227.145313
 21
5.439152
 31
0.0
  0
LINE
  8
0
 62
     7
 10
225.719461
 20
4.137043
 30
0.0
 11
227.021569
 21
5.439152
 31
0.0
  0
LINE
  8
0
 62
     7
 10
225.719461
 20
4.260787
 30
0.0
 11
226.897826
 21
5.439152
 31
0.0
  0
LINE
  8
0
 62
     7
 10
225.719461
 20
4.38453
 30
0.0
 11
226.774082
 21
5.439152
 31
0.0
  0
LINE
  8
0
 62
     7
 10
225.719461
 20
4.508274
 30
0.0
 11
226.650338
 21
5.439152
 31
0.0
  0
LINE
  8
0
 62
     7
 10
225.719461
 20
4.632018
 30
0.0
 11
226.526595
 21
5.439152
 31
0.0
  0
LINE
  8
0
 62
     7
 10
225.719461
 20
4.755761
 30
0.0
 11
226.402851
 21
5.439152
 31
0.0
  0
LINE
  8
0
 62
     7
 10
225.719461
 20
4.879505
 30
0.0
 11
226.279107
 21
5.439152
 31
0.0
  0
LINE
  8
0
 62
     7
 10
225.719461
 20
5.003249
 30
0.0
 11
226.155364
 21
5.439152
 31
0.0
  0
LINE
  8
0
 62
     7
 10
225.719461
 20
5.126992
 30
0.0
 11
226.03162
 21
5.439152
 31
0.0
  0
LINE
  8
0
 62
     7
 10
225.719461
 20
5.250736
 30
0.0
 11
225.907876
 21
5.439152
 31
0.0
  0
LINE
  8
0
 62
     7
 10
225.719461
 20
5.37448
 30
0.0
 11
225.784133
 21
5.439152
 31
0.0
  0
LINE
  8
0
 62
     7
 10
225.719461
 20
2.528375
 30
0.0
 11
228.205991
 21
5.014905
 31
0.0
  0
LINE
  8
0
 62
     7
 10
225.719461
 20
2.404631
 30
0.0
 11
228.241799
 21
4.926969
 31
0.0
  0
LINE
  8
0
 62
     7
 10
225.719461
 20
2.280888
 30
0.0
 11
228.274211
 21
4.835637
 31
0.0
  0
LINE
  8
0
 62
     7
 10
225.719461
 20
2.157144
 30
0.0
 11
228.302995
 21
4.740678
 31
0.0
  0
LINE
  8
0
 62
     7
 10
225.765212
 20
2.079152
 30
0.0
 11
228.327864
 21
4.641803
 31
0.0
  0
LINE
  8
0
 62
     7
 10
225.888956
 20
2.079152
 30
0.0
 11
228.34846
 21
4.538656
 31
0.0
  0
LINE
  8
0
 62
     7
 10
226.0127
 20
2.079152
 30
0.0
 11
228.364331
 21
4.430783
 31
0.0
  0
LINE
  8
0
 62
     7
 10
226.136444
 20
2.079152
 30
0.0
 11
228.374892
 21
4.3176
 31
0.0
  0
LINE
  8
0
 62
     7
 10
226.260188
 20
2.079153
 30
0.0
 11
228.379373
 21
4.198338
 31
0.0
  0
LINE
  8
0
 62
     7
 10
226.386669
 20
2.08189
 30
0.0
 11
228.376723
 21
4.071944
 31
0.0
  0
LINE
  8
0
 62
     7
 10
226.521691
 20
2.093169
 30
0.0
 11
228.365444
 21
3.936921
 31
0.0
  0
LINE
  8
0
 62
     7
 10
226.667599
 20
2.115333
 30
0.0
 11
228.34328
 21
3.791013
 31
0.0
  0
LINE
  8
0
 62
     7
 10
226.828094
 20
2.152084
 30
0.0
 11
228.306528
 21
3.630518
 31
0.0
  0
LINE
  8
0
 62
     7
 10
227.010111
 20
2.210357
 30
0.0
 11
228.248255
 21
3.448501
 31
0.0
  0
LINE
  8
0
 62
     7
 10
227.230184
 20
2.306686
 30
0.0
 11
228.151926
 21
3.228429
 31
0.0
  0
LINE
  8
0
 62
     7
 10
227.568812
 20
2.521571
 30
0.0
 11
227.937042
 21
2.8898
 31
0.0
  0
ARC
  8
0
  6
CONTINUOUS
 62
     7
 10
240.635981
 20
129.482683
 30
0.0
 40
0.5
 50
180.0
 51
0.0
  0
ARC
  8
0
  6
CONTINUOUS
 62
     7
 10
240.635981
 20
129.482683
 30
0.0
 40
0.5
 50
0.0
 51
180.0
  0
ARC
  8
0
  6
CONTINUOUS
 62
     7
 10
244.385981
 20
121.982683
 30
0.0
 40
0.5
 50
180.0
 51
0.0
  0
ARC
  8
0
  6
CONTINUOUS
 62
     7
 10
244.385981
 20
121.982683
 30
0.0
 40
0.5
 50
0.0
 51
180.0
  0
ARC
  8
0
  6
CONTINUOUS
 62
     7
 10
236.749862
 20
137.002053
 30
0.0
 40
0.5
 50
180.0
 51
0.0
  0
ARC
  8
0
  6
CONTINUOUS
 62
     7
 10
236.749862
 20
137.002053
 30
0.0
 40
0.5
 50
0.0
 51
180.0
  0
ARC
  8
0
  6
CONTINUOUS
 62
     7
 10
277.576821
 20
137.002053
 30
0.0
 40
0.5
 50
180.0
 51
0.0
  0
ARC
  8
0
  6
CONTINUOUS
 62
     7
 10
277.576821
 20
137.002053
 30
0.0
 40
0.5
 50
0.0
 51
180.0
  0
ARC
  8
0
  6
CONTINUOUS
 62
     7
 10
281.228878
 20
129.42619
 30
0.0
 40
0.5
 50
180.0
 51
0.0
  0
ARC
  8
0
  6
CONTINUOUS
 62
     7
 10
281.228878
 20
129.42619
 30
0.0
 40
0.5
 50
0.0
 51
180.0
  0
ARC
  8
0
  6
CONTINUOUS
 62
     7
 10
284.880935
 20
122.179712
 30
0.0
 40
0.5
 50
180.0
 51
0.0
  0
ARC
  8
0
  6
CONTINUOUS
 62
     7
 10
284.880935
 20
122.179712
 30
0.0
 40
0.5
 50
0.0
 51
180.0
  0
ARC
  8
0
  6
CONTINUOUS
 62
     7
 10
306.825787
 20
129.514246
 30
0.0
 40
0.5
 50
180.0
 51
0.0
  0
ARC
  8
0
  6
CONTINUOUS
 62
     7
 10
306.825787
 20
129.514246
 30
0.0
 40
0.5
 50
0.0
 51
180.0
  0
ARC
  8
0
  6
CONTINUOUS
 62
     7
 10
303.075787
 20
137.014246
 30
0.0
 40
0.5
 50
180.0
 51
0.0
  0
ARC
  8
0
  6
CONTINUOUS
 62
     7
 10
303.075787
 20
137.014246
 30
0.0
 40
0.5
 50
0.0
 51
180.0
  0
ARC
  8
0
  6
CONTINUOUS
 62
     7
 10
310.575787
 20
122.014246
 30
0.0
 40
0.5
 50
180.0
 51
0.0
  0
ARC
  8
0
  6
CONTINUOUS
 62
     7
 10
310.575787
 20
122.014246
 30
0.0
 40
0.5
 50
0.0
 51
180.0
  0
ARC
  8
0
  6
CONTINUOUS
 62
     7
 10
240.850732
 20
227.593671
 30
0.0
 40
0.5
 50
180.0
 51
0.0
  0
ARC
  8
0
  6
CONTINUOUS
 62
     7
 10
240.850732
 20
227.593671
 30
0.0
 40
0.5
 50
0.0
 51
180.0
  0
ARC
  8
0
  6
CONTINUOUS
 62
     7
 10
229.249862
 20
152.002053
 30
0.0
 40
0.5
 50
180.0
 51
0.0
  0
ARC
  8
0
  6
CONTINUOUS
 62
     7
 10
229.249862
 20
152.002053
 30
0.0
 40
0.5
 50
0.0
 51
180.0
  0
ARC
  8
0
  6
CONTINUOUS
 62
     7
 10
225.499862
 20
159.502053
 30
0.0
 40
0.5
 50
180.0
 51
0.0
  0
ARC
  8
0
  6
CONTINUOUS
 62
     7
 10
225.499862
 20
159.502053
 30
0.0
 40
0.5
 50
0.0
 51
180.0
  0
ARC
  8
0
  6
CONTINUOUS
 62
     7
 10
232.999862
 20
144.502053
 30
0.0
 40
0.5
 50
180.0
 51
0.0
  0
ARC
  8
0
  6
CONTINUOUS
 62
     7
 10
232.999862
 20
144.502053
 30
0.0
 40
0.5
 50
0.0
 51
180.0
  0
ARC
  8
0
  6
CONTINUOUS
 62
     7
 10
222.342167
 20
199.366829
 30
0.0
 40
0.5
 50
180.0
 51
0.0
  0
ARC
  8
0
  6
CONTINUOUS
 62
     7
 10
222.342167
 20
199.366829
 30
0.0
 40
0.5
 50
0.0
 51
180.0
  0
ARC
  8
0
  6
CONTINUOUS
 62
     7
 10
227.783785
 20
204.3099
 30
0.0
 40
0.5
 50
180.0
 51
0.0
  0
ARC
  8
0
  6
CONTINUOUS
 62
     7
 10
227.783785
 20
204.3099
 30
0.0
 40
0.5
 50
0.0
 51
180.0
  0
ARC
  8
0
  6
CONTINUOUS
 62
     7
 10
233.225401
 20
209.335357
 30
0.0
 40
0.5
 50
180.0
 51
0.0
  0
ARC
  8
0
  6
CONTINUOUS
 62
     7
 10
233.225401
 20
209.335357
 30
0.0
 40
0.5
 50
0.0
 51
180.0
  0
ARC
  8
0
  6
CONTINUOUS
 62
     7
 10
240.850732
 20
222.593671
 30
0.0
 40
0.5
 50
180.0
 51
0.0
  0
ARC
  8
0
  6
CONTINUOUS
 62
     7
 10
240.850732
 20
222.593671
 30
0.0
 40
0.5
 50
0.0
 51
180.0
  0
ARC
  8
0
  6
CONTINUOUS
 62
     7
 10
273.826821
 20
144.502053
 30
0.0
 40
0.5
 50
180.0
 51
0.0
  0
ARC
  8
0
  6
CONTINUOUS
 62
     7
 10
273.826821
 20
144.502053
 30
0.0
 40
0.5
 50
0.0
 51
180.0
  0
ARC
  8
0
  6
CONTINUOUS
 62
     7
 10
299.325787
 20
144.514246
 30
0.0
 40
0.5
 50
180.0
 51
0.0
  0
ARC
  8
0
  6
CONTINUOUS
 62
     7
 10
299.325787
 20
144.514246
 30
0.0
 40
0.5
 50
0.0
 51
180.0
  0
ARC
  8
0
  6
CONTINUOUS
 62
     7
 10
240.850732
 20
232.593671
 30
0.0
 40
0.5
 50
180.0
 51
0.0
  0
ARC
  8
0
  6
CONTINUOUS
 62
     7
 10
240.850732
 20
232.593671
 30
0.0
 40
0.5
 50
0.0
 51
180.0
  0
ARC
  8
0
  6
CONTINUOUS
 62
     7
 10
240.850732
 20
237.521803
 30
0.0
 40
0.5
 50
180.0
 51
0.0
  0
ARC
  8
0
  6
CONTINUOUS
 62
     7
 10
240.850732
 20
237.521803
 30
0.0
 40
0.5
 50
0.0
 51
180.0
  0
ENDSEC
  0
EOF
