  0
SECTION
  2
HEADER
  9
$ACADVER
  1
AC1009
  9
$DWGCODEPAGE
  3
iso8859-1
  9
$INSBASE
 10
0.0
 20
0.0
 30
0.0
  9
$EXTMIN
 10
1.0E20
 20
1.0E20
  9
$EXTMAX
 10
-1.0E20
 20
-1.0E20
  9
$LIMMIN
 10
0.0
 20
0.0
  9
$LIMMAX
 10
12.0
 20
9.0
  9
$ORTHOMODE
 70
     0
  9
$REGENMODE
 70
     1
  9
$FILLMODE
 70
     1
  9
$QTEXTMODE
 70
     0
  9
$MIRRTEXT
 70
     1
  9
$DRAGMODE
 70
     2
  9
$LTSCALE
 40
15.0
  9
$OSMODE
 70
     0
  9
$ATTMODE
 70
     1
  9
$TEXTSIZE
 40
0.2
  9
$TRACEWID
 40
0.05
  9
$TEXTSTYLE
  7
STANDARD
  9
$CLAYER
  8
0
  9
$CELTYPE
  6
DASHED
  9
$CECOLOR
 62
   256
  9
$DIMSCALE
 40
1.0
  9
$DIMASZ
 40
0.18
  9
$DIMEXO
 40
0.0625
  9
$DIMDLI
 40
0.38
  9
$DIMRND
 40
0.0
  9
$DIMDLE
 40
0.0
  9
$DIMEXE
 40
0.18
  9
$DIMTP
 40
0.0
  9
$DIMTM
 40
0.0
  9
$DIMTXT
 40
0.18
  9
$DIMCEN
 40
0.09
  9
$DIMTSZ
 40
0.0
  9
$DIMTOL
 70
     0
  9
$DIMLIM
 70
     0
  9
$DIMTIH
 70
     1
  9
$DIMTOH
 70
     1
  9
$DIMSE1
 70
     0
  9
$DIMSE2
 70
     0
  9
$DIMTAD
 70
     0
  9
$DIMZIN
 70
     0
  9
$DIMBLK
  1

  9
$DIMASO
 70
     1
  9
$DIMSHO
 70
     1
  9
$DIMPOST
  1

  9
$DIMAPOST
  1

  9
$DIMALT
 70
     0
  9
$DIMALTD
 70
     2
  9
$DIMALTF
 40
25.4
  9
$DIMLFAC
 40
1.0
  9
$DIMTOFL
 70
     0
  9
$DIMTVP
 40
0.0
  9
$DIMTIX
 70
     0
  9
$DIMSOXD
 70
     0
  9
$DIMSAH
 70
     0
  9
$DIMBLK1
  1

  9
$DIMBLK2
  1

  9
$DIMSTYLE
  2
STANDARD
  9
$DIMCLRD
 70
     0
  9
$DIMCLRE
 70
     0
  9
$DIMCLRT
 70
     0
  9
$DIMTFAC
 40
1.0
  9
$DIMGAP
 40
0.09
  9
$LUNITS
 70
     2
  9
$LUPREC
 70
     4
  9
$AXISMODE
 70
     0
  9
$AXISUNIT
 10
0.0
 20
0.0
  9
$SKETCHINC
 40
0.1
  9
$FILLETRAD
 40
0.0
  9
$AUNITS
 70
     0
  9
$AUPREC
 70
     0
  9
$MENU
  1
acad
  9
$ELEVATION
 40
0.0
  9
$PELEVATION
 40
0.0
  9
$THICKNESS
 40
0.0
  9
$LIMCHECK
 70
     0
  9
$BLIPMODE
 70
     1
  9
$CHAMFERA
 40
0.0
  9
$CHAMFERB
 40
0.0
  9
$SKPOLY
 70
     0
  9
$TDCREATE
 40
0.000000000
  9
$TDUPDATE
 40
0.000000000
  9
$TDINDWG
 40
0.0
  9
$TDUSRTIMER
 40
0.0
  9
$USRTIMER
 70
     1
  9
$ANGBASE
 50
0.0
  9
$ANGDIR
 70
     0
  9
$PDMODE
 70
     0
  9
$PDSIZE
 40
0.0
  9
$PLINEWID
 40
0.0
  9
$COORDS
 70
     1
  9
$SPLFRAME
 70
     0
  9
$SPLINETYPE
 70
     6
  9
$SPLINESEGS
 70
     8
  9
$ATTDIA
 70
     0
  9
$ATTREQ
 70
     1
  9
$HANDLING
 70
     1
  9
$HANDSEED
  5
   4F4
  9
$SURFTAB1
 70
     6
  9
$SURFTAB2
 70
     6
  9
$SURFTYPE
 70
     6
  9
$SURFU
 70
     6
  9
$SURFV
 70
     6
  9
$UCSNAME
  2

  9
$UCSORG
 10
0.0
 20
0.0
 30
0.0
  9
$UCSXDIR
 10
1.0
 20
0.0
 30
0.0
  9
$UCSYDIR
 10
0.0
 20
1.0
 30
0.0
  9
$PUCSNAME
  2

  9
$PUCSORG
 10
0.0
 20
0.0
 30
0.0
  9
$PUCSXDIR
 10
1.0
 20
0.0
 30
0.0
  9
$PUCSYDIR
 10
0.0
 20
1.0
 30
0.0
  9
$USERI1
 70
     0
  9
$USERI2
 70
     0
  9
$USERI3
 70
     0
  9
$USERI4
 70
     0
  9
$USERI5
 70
     0
  9
$USERR1
 40
0.0
  9
$USERR2
 40
0.0
  9
$USERR3
 40
0.0
  9
$USERR4
 40
0.0
  9
$USERR5
 40
0.0
  9
$WORLDVIEW
 70
     1
  9
$SHADEDGE
 70
     3
  9
$SHADEDIF
 70
    70
  9
$TILEMODE
 70
     1
  9
$MAXACTVP
 70
    16
  9
$PINSBASE
 10
0.0
 20
0.0
 30
0.0
  9
$PLIMCHECK
 70
     0
  9
$PEXTMIN
 10
1.0E20
 20
1.0E20
 30
1.0E20
  9
$PEXTMAX
 10
-1.0E20
 20
-1.0E20
 30
-1.0E20
  9
$PLIMMIN
 10
0.0
 20
0.0
  9
$PLIMMAX
 10
12.0
 20
9.0
  9
$UNITMODE
 70
     0
  9
$VISRETAIN
 70
     0
  0
ENDSEC
  0
SECTION
  2
TABLES
  0
TABLE
  2
VPORT
 70
     1
  0
VPORT
  2
*ACTIVE
 70
     0
 10
0.0
 20
0.0
 11
1.0
 21
1.0
 12
6.801242
 22
4.5
 13
0.0
 23
0.0
 14
1.0
 24
1.0
 15
0.0
 25
0.0
 16
0.0
 26
0.0
 36
1.0
 17
0.0
 27
0.0
 37
0.0
 40
9.0
 41
1.511387
 42
50.0
 43
0.0
 44
0.0
 50
0.0
 51
0.0
 71
     0
 72
   100
 73
     1
 74
     1
 75
     0
 76
     0
 77
     0
 78
     0
  0
ENDTAB
  0
TABLE
  2
LTYPE
 70
    41
  0
LTYPE
  2
BYBLOCK
 70
     0
  3

 72
    65
 73
     0
 40
0.0
  0
LTYPE
  2
BYLAYER
 70
     0
  3

 72
    65
 73
     0
 40
0.0
  0
LTYPE
  2
CONTINUOUS
 70
     0
  3
Solid line
 72
    65
 73
     0
 40
0.0
  0
LTYPE
  2
BORDER
 70
    64
  3
__ __ . __ __ . __ __ . __ __ . __ __ . __ __ .
 72
    65
 73
     6
 40
1.75
 49
0.5
 49
-0.25
 49
0.5
 49
-0.25
 49
0.0
 49
-0.25
  0
LTYPE
  2
BORDER2
 70
    64
  3
__.__.__.__.__.__.__.__.__.__.__.__.__.__.__.__
 72
    65
 73
     6
 40
0.875
 49
0.25
 49
-0.125
 49
0.25
 49
-0.125
 49
0.0
 49
-0.125
  0
LTYPE
  2
BORDERX2
 70
    64
  3
____  ____  .  ____  ____  .  ____  ____  .  __
 72
    65
 73
     6
 40
3.5
 49
1.0
 49
-0.5
 49
1.0
 49
-0.5
 49
0.0
 49
-0.5
  0
LTYPE
  2
CENTER
 70
    64
  3
____ _ ____ _ ____ _ ____ _ ____ _ ____ _ ____
 72
    65
 73
     4
 40
2.0
 49
1.25
 49
-0.25
 49
0.25
 49
-0.25
  0
LTYPE
  2
CENTER2
 70
    64
  3
___ _ ___ _ ___ _ ___ _ ___ _ ___ _ ___ _ ___ _
 72
    65
 73
     4
 40
1.125
 49
0.75
 49
-0.125
 49
0.125
 49
-0.125
  0
LTYPE
  2
CENTERX2
 70
    64
  3
________  __  ________  __  ________  __  _____
 72
    65
 73
     4
 40
4.0
 49
2.5
 49
-0.5
 49
0.5
 49
-0.5
  0
LTYPE
  2
DASHDOT
 70
    64
  3
__ . __ . __ . __ . __ . __ . __ . __ . __ . __
 72
    65
 73
     4
 40
1.0
 49
0.5
 49
-0.25
 49
0.0
 49
-0.25
  0
LTYPE
  2
DASHDOT2
 70
    64
  3
_._._._._._._._._._._._._._._._._._._._._._._._
 72
    65
 73
     4
 40
0.5
 49
0.25
 49
-0.125
 49
0.0
 49
-0.125
  0
LTYPE
  2
DASHDOTX2
 70
    64
  3
____  .  ____  .  ____  .  ____  .  ____  .  __
 72
    65
 73
     4
 40
2.0
 49
1.0
 49
-0.5
 49
0.0
 49
-0.5
  0
LTYPE
  2
DASHED
 70
    64
  3
__ __ __ __ __ __ __ __ __ __ __ __ __ __ __ __
 72
    65
 73
     2
 40
0.75
 49
0.5
 49
-0.25
  0
LTYPE
  2
DASHED2
 70
    64
  3
_ _ _ _ _ _ _ _ _ _ _ _ _ _ _ _ _ _ _ _ _ _ _ _
 72
    65
 73
     2
 40
0.375
 49
0.25
 49
-0.125
  0
LTYPE
  2
DASHEDX2
 70
    64
  3
____  ____  ____  ____  ____  ____  ____  ____
 72
    65
 73
     2
 40
1.5
 49
1.0
 49
-0.5
  0
LTYPE
  2
DIVIDE
 70
    64
  3
____ . . ____ . . ____ . . ____ . . ____ . . __
 72
    65
 73
     6
 40
1.25
 49
0.5
 49
-0.25
 49
0.0
 49
-0.25
 49
0.0
 49
-0.25
  0
LTYPE
  2
DIVIDE2
 70
    64
  3
__..__..__..__..__..__..__..__..__..__..__..__.
 72
    65
 73
     6
 40
0.625
 49
0.25
 49
-0.125
 49
0.0
 49
-0.125
 49
0.0
 49
-0.125
  0
LTYPE
  2
DIVIDEX2
 70
    64
  3
________  .  .  ________  .  .  ________  .  .
 72
    65
 73
     6
 40
2.5
 49
1.0
 49
-0.5
 49
0.0
 49
-0.5
 49
0.0
 49
-0.5
  0
LTYPE
  2
DOT
 70
    64
  3
. . . . . . . . . . . . . . . . . . . . . . . .
 72
    65
 73
     2
 40
0.25
 49
0.0
 49
-0.25
  0
LTYPE
  2
DOT2
 70
    64
  3
...............................................
 72
    65
 73
     2
 40
0.125
 49
0.0
 49
-0.125
  0
LTYPE
  2
DOTX2
 70
    64
  3
.  .  .  .  .  .  .  .  .  .  .  .  .  .  .  .
 72
    65
 73
     2
 40
0.5
 49
0.0
 49
-0.5
  0
LTYPE
  2
HIDDEN
 70
    64
  3
__ __ __ __ __ __ __ __ __ __ __ __ __ __ __ __
 72
    65
 73
     2
 40
0.375
 49
0.25
 49
-0.125
  0
LTYPE
  2
HIDDEN2
 70
    64
  3
_ _ _ _ _ _ _ _ _ _ _ _ _ _ _ _ _ _ _ _ _ _ _ _
 72
    65
 73
     2
 40
0.1875
 49
0.125
 49
-0.0625
  0
LTYPE
  2
HIDDENX2
 70
    64
  3
____ ____ ____ ____ ____ ____ ____ ____ ____ __
 72
    65
 73
     2
 40
0.75
 49
0.5
 49
-0.25
  0
LTYPE
  2
PHANTOM
 70
    64
  3
______  __  __  ______  __  __  ______  __  __
 72
    65
 73
     6
 40
2.5
 49
1.25
 49
-0.25
 49
0.25
 49
-0.25
 49
0.25
 49
-0.25
  0
LTYPE
  2
PHANTOM2
 70
    64
  3
___ _ _ ___ _ _ ___ _ _ ___ _ _ ___ _ _ ___ _ _
 72
    65
 73
     6
 40
1.25
 49
0.625
 49
-0.125
 49
0.125
 49
-0.125
 49
0.125
 49
-0.125
  0
LTYPE
  2
PHANTOMX2
 70
    64
  3
____________    ____    ____    ____________
 72
    65
 73
     6
 40
5.0
 49
2.5
 49
-0.5
 49
0.5
 49
-0.5
 49
0.5
 49
-0.5
  0
LTYPE
  2
ACAD_ISO02W100
 70
    64
  3
__ __ __ __ __ __ __ __ __ __ __ __ __ __ __ __
 72
    65
 73
     2
 40
15.0
 49
12.0
 49
-3.0
  0
LTYPE
  2
ACAD_ISO03W100
 70
    64
  3
__    __    __    __    __    __    __    __
 72
    65
 73
     2
 40
30.0
 49
12.0
 49
-18.0
  0
LTYPE
  2
ACAD_ISO04W100
 70
    64
  3
____ . ____ . ____ . ____ . ____ . ____ . ____
 72
    65
 73
     4
 40
30.5
 49
24.0
 49
-3.0
 49
0.5
 49
-3.0
  0
LTYPE
  2
ACAD_ISO05W100
 70
    64
  3
____ .. ____ .. ____ .. ____ .. ____ .. ____ ..
 72
    65
 73
     6
 40
34.0
 49
24.0
 49
-3.0
 49
0.5
 49
-3.0
 49
0.5
 49
-3.0
  0
LTYPE
  2
ACAD_ISO06W100
 70
    64
  3
____ ... ____ ... ____ ... ____ ... ____ ... __
 72
    65
 73
     8
 40
37.5
 49
24.0
 49
-3.0
 49
0.5
 49
-3.0
 49
0.5
 49
-3.0
 49
0.5
 49
-3.0
  0
LTYPE
  2
ACAD_ISO07W100
 70
    64
  3
. . . . . . . . . . . . . . . . . . . . . . . .
 72
    65
 73
     2
 40
3.5
 49
0.5
 49
-3.0
  0
LTYPE
  2
ACAD_ISO08W100
 70
    64
  3
____ __ ____ __ ____ __ ____ ____ __ __ ____ __
 72
    65
 73
     4
 40
36.0
 49
24.0
 49
-3.0
 49
6.0
 49
-3.0
  0
LTYPE
  2
ACAD_ISO09W100
 70
    64
  3
____ __ __ ____ __ __ ____ __ __ ____ __ __ ___
 72
    65
 73
     6
 40
45.0
 49
24.0
 49
-3.0
 49
6.0
 49
-3.0
 49
6.0
 49
-3.0
  0
LTYPE
  2
ACAD_ISO10W100
 70
    64
  3
__ . __ . __ . __ . __ . __ . __ . __ . __ . __
 72
    65
 73
     4
 40
18.5
 49
12.0
 49
-3.0
 49
0.5
 49
-3.0
  0
LTYPE
  2
ACAD_ISO11W100
 70
    64
  3
__ __ . __ __ . __ __ . __ __ . __ __ . __ __ .
 72
    65
 73
     6
 40
33.5
 49
12.0
 49
-3.0
 49
12.0
 49
-3.0
 49
0.5
 49
-3.0
  0
LTYPE
  2
ACAD_ISO12W100
 70
    64
  3
__ . . __ . . __ . . __ . . __ . . __ . . __ .
 72
    65
 73
     6
 40
22.0
 49
12.0
 49
-3.0
 49
0.5
 49
-3.0
 49
0.5
 49
-3.0
  0
LTYPE
  2
ACAD_ISO13W100
 70
    64
  3
__ __ . . __ __ . . __ __ . . __ __ . . __ __ .
 72
    65
 73
     8
 40
37.0
 49
12.0
 49
-3.0
 49
12.0
 49
-3.0
 49
0.5
 49
-3.0
 49
0.5
 49
-3.0
  0
LTYPE
  2
ACAD_ISO14W100
 70
    64
  3
__ . . . __ . . . __ . . . __ . . . __ . . . __
 72
    65
 73
     8
 40
25.5
 49
12.0
 49
-3.0
 49
0.5
 49
-3.0
 49
0.5
 49
-3.0
 49
0.5
 49
-3.0
  0
LTYPE
  2
ACAD_ISO15W100
 70
    64
  3
__ __ . . . __ __ . . . __ __ . . . __ __ . . .
 72
    65
 73
    10
 40
40.5
 49
12.0
 49
-3.0
 49
12.0
 49
-3.0
 49
0.5
 49
-3.0
 49
0.5
 49
-3.0
 49
0.5
 49
-3.0
  0
ENDTAB
  0
TABLE
  2
STYLE
 70
     4
  0
STYLE
  2
STANDARD
 70
    64
 40
0.0
 41
1.0
 50
0.0
 71
     0
 42
0.2
  3
txt
  4

  0
STYLE
  2
TOLERANCE
 70
    64
 40
0.0
 41
1.0
 50
0.0
 71
     0
 42
0.2
  3
../igesfont/iges1003.shx
  4

  0
STYLE
  2
ROMANS
 70
    64
 40
0.0
 41
1.0
 50
0.0
 71
     0
 42
0.2
  3
romans.shx
  4

  0
STYLE
  2
ROMANC
 70
    64
 40
0.0
 41
1.0
 50
0.0
 71
     0
 42
0.2
  3
romanc.shx
  4

  0
ENDTAB
  0
TABLE
  2
DIMSTYLE
 70
     2
  0
DIMSTYLE
  2
UNNAMED
 70
     0
  3

  4

  5

  6

  7

 40
1.0
 41
0.18
 42
0.0625
 43
0.38
 44
0.18
 45
0.0
 46
0.0
 47
0.0
 48
0.0
140
0.18
141
0.09
142
0.0
143
25.4
144
1.0
145
0.0
146
1.0
147
0.09
 71
     0
 72
     0
 73
     1
 74
     1
 75
     0
 76
     0
 77
     0
 78
     0
170
     0
171
     2
172
     0
173
     0
174
     0
175
     0
176
     0
177
     0
178
     0
  0
DIMSTYLE
  2
STANDARD
 70
     0
  3

  4

  5

  6

  7

 40
1.0
 41
0.18
 42
0.0625
 43
0.38
 44
0.18
 45
0.0
 46
0.0
 47
0.0
 48
0.0
140
0.18
141
0.09
142
0.0
143
25.4
144
1.0
145
0.0
146
1.0
147
0.09
 71
     0
 72
     0
 73
     1
 74
     1
 75
     0
 76
     0
 77
     0
 78
     0
170
     0
171
     2
172
     0
173
     0
174
     0
175
     0
176
     0
177
     0
178
     0
  0
ENDTAB
  0
TABLE
  2
LAYER
 70
     2
  0
LAYER
  2
0
 70
     0
 62
     7
  6
CONTINUOUS
  0
LAYER
  2
255
 70
     0
 62
     7
  6
CONTINUOUS
  0
ENDTAB
  0
ENDSEC
  0
SECTION
  2
BLOCKS
  0
BLOCK
  5
     B
  8
0
  6
CONTINUOUS
 62
     0
  2
SSS
 70
    64
 10
0.0
 20
0.0
 30
0.0
  3
SSS
  0
ARC
  5
     C
  8
0
  6
CONTINUOUS
 62
     0
 10
2.55000000000001
 20
2.55
 30
0.0
 40
2.0
 50
178.557523870135
 51
271.442476129865
  0
CIRCLE
  5
     D
  8
0
  6
CONTINUOUS
 62
     0
 10
0.0
 20
0.0
 30
0.0
 40
3.750066744417
  0
ARC
  5
     E
  8
0
  6
CONTINUOUS
 62
     0
 10
-2.54999999999998
 20
2.55
 30
0.0
 40
2.0
 50
268.557523870135
 51
361.442476129865
  0
ARC
  5
     F
  8
0
  6
CONTINUOUS
 62
     0
 10
1.4210854715202E-14
 20
0.0
 30
0.0
 40
2.6580067720004
 50
78.0440027883074
 51
101.955997211693
  0
ARC
  5
    10
  8
0
  6
CONTINUOUS
 62
     0
 10
1.4210854715202E-14
 20
7.105427357601E-15
 30
0.0
 40
2.6580067720004
 50
168.044002788308
 51
191.955997211693
  0
ARC
  5
    11
  8
0
  6
CONTINUOUS
 62
     0
 10
1.4210854715202E-14
 20
7.105427357601E-15
 30
0.0
 40
2.6580067720004
 50
348.044002788307
 51
371.955997211692
  0
ARC
  5
    12
  8
0
  6
CONTINUOUS
 62
     0
 10
2.55000000000001
 20
-2.55
 30
0.0
 40
2.0
 50
88.5575238701351
 51
181.442476129865
  0
ARC
  5
    13
  8
0
  6
CONTINUOUS
 62
     0
 10
-2.54999999999998
 20
-2.55
 30
0.0
 40
2.0
 50
358.557523870135
 51
451.442476129865
  0
ARC
  5
    14
  8
0
  6
CONTINUOUS
 62
     0
 10
1.4210854715202E-14
 20
7.105427357601E-15
 30
0.0
 40
2.6580067720004
 50
258.044002788307
 51
281.955997211693
  0
LINE
  5
    15
  8
0
  6
DASHDOT
 62
     0
 10
0.0
 20
-8.67336073213105
 30
0.0
 11
0.0
 21
8.03563940241088
 31
0.0
  0
LINE
  5
    16
  8
0
  6
DASHDOT
 62
     0
 10
-7.36063423738328
 20
0.0
 30
0.0
 11
7.25974088034091
 21
0.0
 31
0.0
  0
POINT
  5
    17
  8
0
  6
CONTINUOUS
 62
     0
 10
0.0
 20
0.0
 30
0.0
  0
ENDBLK
  5
    18
  8
0
  6
CONTINUOUS
 62
     0
  0
BLOCK
  5
    19
  8
0
  6
CONTINUOUS
 62
     3
  2
*UDIM42
 70
    65
 10
0.0
 20
0.0
 30
0.0
  3
*UDIM42
  0
TEXT
  5
    1A
  8
0
  6
CONTINUOUS
 62
     3
 10
-364.468238417069
 20
91.8344337412287
 30
0.0
 40
3.00000002980232
  1
78
 50
359.999999844103
 41
0.933333333333333
 72
     1
 11
-361.96823838816
 21
93.3344337493401
 31
0.0
 73
     2
  0
TEXT
  5
    1B
  8
0
  6
CONTINUOUS
 62
     3
 10
-377.068238542239
 20
87.8344337456465
 30
0.0
 40
3.00000002980232
  1
=         =
 50
359.999999844103
 41
0.933333333333333
 72
     1
 11
-361.96823838816
 21
89.3344337195378
 31
0.0
 73
     2
  0
LINE
  5
    1C
  8
0
  6
CONTINUOUS
 62
     3
 10
-400.968211441037
 20
44.7337832479179
 30
0.0
 11
-400.968218780612
 21
92.8344337344389
 31
0.0
  0
LINE
  5
    1D
  8
0
  6
CONTINUOUS
 62
     3
 10
-322.968251266485
 20
44.7337832479179
 30
0.0
 11
-322.96825860606
 21
92.8344337344389
 31
0.0
  0
LINE
  5
    1E
  8
0
  6
CONTINUOUS
 62
     3
 10
-400.968218475436
 20
90.834433734439
 30
0.0
 11
-322.968258300884
 21
90.834433734439
 31
0.0
  0
LINE
  5
    1F
  8
0
  6
CONTINUOUS
 62
     3
 10
-398.070441002226
 20
91.6108908908575
 30
0.0
 11
-400.968218475436
 21
90.834433734439
 31
0.0
  0
LINE
  5
    20
  8
0
  6
CONTINUOUS
 62
     3
 10
-400.968218475436
 20
90.834433734439
 30
0.0
 11
-398.070441002226
 21
90.0579765780204
 31
0.0
  0
LINE
  5
    21
  8
0
  6
CONTINUOUS
 62
     3
 10
-325.866035774095
 20
90.0579765780204
 30
0.0
 11
-322.968258300884
 21
90.834433734439
 31
0.0
  0
LINE
  5
    22
  8
0
  6
CONTINUOUS
 62
     3
 10
-322.968258300884
 20
90.834433734439
 30
0.0
 11
-325.866035774095
 21
91.6108908908575
 31
0.0
  0
ENDBLK
  5
    23
  8
0
  6
CONTINUOUS
 62
     3
  0
BLOCK
  5
    24
  8
0
  6
CONTINUOUS
 62
     7
  2
*UDIM43
 70
    65
 10
0.0
 20
0.0
 30
0.0
  3
*UDIM43
  0
TEXT
  5
    25
  8
0
  6
CONTINUOUS
 62
     7
 10
-377.243231236042
 20
81.739593623079
 30
0.0
 40
3.00000002980232
  1
25
 50
359.999999844103
 41
0.933333333333333
 72
     1
 11
-374.743231207133
 21
83.2395936311905
 31
0.0
 73
     2
  0
LINE
  5
    26
  8
0
  6
CONTINUOUS
 62
     3
 10
-386.968260996993
 20
53.9337882804667
 30
0.0
 11
-386.968260996993
 21
82.7395936162893
 31
0.0
  0
LINE
  5
    27
  8
0
  6
CONTINUOUS
 62
     3
 10
-361.968201405352
 20
54.5060539917841
 30
0.0
 11
-361.968201405352
 21
82.7395936162893
 31
0.0
  0
LINE
  5
    28
  8
0
  6
CONTINUOUS
 62
     3
 10
-386.968260996993
 20
80.7395936162893
 30
0.0
 11
-361.968201405352
 21
80.7395936162893
 31
0.0
  0
LINE
  5
    29
  8
0
  6
CONTINUOUS
 62
     3
 10
-384.013837719786
 20
81.260538046241
 30
0.0
 11
-386.968260996993
 21
80.7395936162893
 31
0.0
  0
LINE
  5
    2A
  8
0
  6
CONTINUOUS
 62
     3
 10
-386.968260996993
 20
80.7395936162893
 30
0.0
 11
-384.013837719786
 21
80.2186491863377
 31
0.0
  0
LINE
  5
    2B
  8
0
  6
CONTINUOUS
 62
     3
 10
-364.922624682559
 20
80.2186491863377
 30
0.0
 11
-361.968201405352
 21
80.7395936162893
 31
0.0
  0
LINE
  5
    2C
  8
0
  6
CONTINUOUS
 62
     3
 10
-361.968201405352
 20
80.7395936162893
 30
0.0
 11
-364.922624682559
 21
81.260538046241
 31
0.0
  0
ENDBLK
  5
    2D
  8
0
  6
CONTINUOUS
 62
     7
  0
BLOCK
  5
    2E
  8
0
  6
CONTINUOUS
 62
     7
  2
*UDIM44
 70
    65
 10
0.0
 20
0.0
 30
0.0
  3
*UDIM44
  0
TEXT
  5
    2F
  8
0
  6
CONTINUOUS
 62
     7
 10
-352.243200724966
 20
81.739593623079
 30
0.0
 40
3.00000002980232
  1
25
 50
359.999999844103
 41
0.933333333333333
 72
     1
 11
-349.743200696057
 21
83.2395936311905
 31
0.0
 73
     2
  0
LINE
  5
    30
  8
0
  6
CONTINUOUS
 62
     3
 10
-336.968201405352
 20
53.9337882804667
 30
0.0
 11
-336.968201405352
 21
82.7395936162893
 31
0.0
  0
LINE
  5
    31
  8
0
  6
CONTINUOUS
 62
     3
 10
-361.968201405352
 20
80.7395936162893
 30
0.0
 11
-336.968201405352
 21
80.7395936162893
 31
0.0
  0
LINE
  5
    32
  8
0
  6
CONTINUOUS
 62
     3
 10
-359.013778128145
 20
81.260538046241
 30
0.0
 11
-361.968201405352
 21
80.7395936162893
 31
0.0
  0
LINE
  5
    33
  8
0
  6
CONTINUOUS
 62
     3
 10
-361.968201405352
 20
80.7395936162893
 30
0.0
 11
-359.013778128145
 21
80.2186491863377
 31
0.0
  0
LINE
  5
    34
  8
0
  6
CONTINUOUS
 62
     3
 10
-339.922624682559
 20
80.2186491863377
 30
0.0
 11
-336.968201405352
 21
80.7395936162893
 31
0.0
  0
LINE
  5
    35
  8
0
  6
CONTINUOUS
 62
     3
 10
-336.968201405352
 20
80.7395936162893
 30
0.0
 11
-339.922624682559
 21
81.260538046241
 31
0.0
  0
ENDBLK
  5
    36
  8
0
  6
CONTINUOUS
 62
     7
  0
BLOCK
  5
    37
  8
0
  6
CONTINUOUS
 62
     7
  2
*UDIM45
 70
    65
 10
0.0
 20
0.0
 30
0.0
  3
*UDIM45
  0
TEXT
  5
    38
  8
0
  6
CONTINUOUS
 62
     7
 10
-307.079941990977
 20
-13.1161895901998
 30
0.0
 40
3.00000002980232
  1
=
 50
449.999999844103
 41
0.933333333333334
 72
     1
 11
-308.579942002893
 21
-12.0161895752004
 31
0.0
 73
     2
  0
LINE
  5
    39
  8
0
  6
CONTINUOUS
 62
     3
 10
-321.968257904053
 20
-0.766189575200357
 30
0.0
 11
-304.079941987991
 21
-0.766189575200357
 31
0.0
  0
LINE
  5
    3A
  8
0
  6
CONTINUOUS
 62
     3
 10
-307.970881131958
 20
-23.2661895752004
 30
0.0
 11
-304.079941987991
 21
-23.2661895752004
 31
0.0
  0
LINE
  5
    3B
  8
0
  6
CONTINUOUS
 62
     3
 10
-306.079941987991
 20
-0.766189575200357
 30
0.0
 11
-306.079941987991
 21
-23.2661895752004
 31
0.0
  0
LINE
  5
    3C
  8
0
  6
CONTINUOUS
 62
     3
 10
-305.55899755804
 20
-3.72061285240732
 30
0.0
 11
-306.079941987991
 21
-0.766189575200357
 31
0.0
  0
LINE
  5
    3D
  8
0
  6
CONTINUOUS
 62
     3
 10
-306.079941987991
 20
-0.766189575200357
 30
0.0
 11
-306.600886417943
 21
-3.72061285240732
 31
0.0
  0
LINE
  5
    3E
  8
0
  6
CONTINUOUS
 62
     3
 10
-306.600886417943
 20
-20.3117662979934
 30
0.0
 11
-306.079941987991
 21
-23.2661895752004
 31
0.0
  0
LINE
  5
    3F
  8
0
  6
CONTINUOUS
 62
     3
 10
-306.079941987991
 20
-23.2661895752004
 30
0.0
 11
-305.55899755804
 21
-20.3117662979934
 31
0.0
  0
ENDBLK
  5
    40
  8
0
  6
CONTINUOUS
 62
     7
  0
BLOCK
  5
    41
  8
0
  6
CONTINUOUS
 62
     7
  2
*UDIM46
 70
    65
 10
0.0
 20
0.0
 30
0.0
  3
*UDIM46
  0
TEXT
  5
    42
  8
0
  6
CONTINUOUS
 62
     7
 10
-307.079941990977
 20
-35.6161895901939
 30
0.0
 40
3.00000002980232
  1
=
 50
449.999999844103
 41
0.933333333333334
 72
     1
 11
-308.579942002893
 21
-34.5161895751944
 31
0.0
 73
     2
  0
LINE
  5
    43
  8
0
  6
CONTINUOUS
 62
     3
 10
-321.968264770506
 20
-45.7661895751885
 30
0.0
 11
-304.079941987991
 21
-45.7661895751885
 31
0.0
  0
LINE
  5
    44
  8
0
  6
CONTINUOUS
 62
     3
 10
-306.079941987991
 20
-23.2661895752004
 30
0.0
 11
-306.079941987991
 21
-45.7661895751885
 31
0.0
  0
LINE
  5
    45
  8
0
  6
CONTINUOUS
 62
     3
 10
-305.55899755804
 20
-26.2206128524073
 30
0.0
 11
-306.079941987991
 21
-23.2661895752004
 31
0.0
  0
LINE
  5
    46
  8
0
  6
CONTINUOUS
 62
     3
 10
-306.079941987991
 20
-23.2661895752004
 30
0.0
 11
-306.600886417943
 21
-26.2206128524073
 31
0.0
  0
LINE
  5
    47
  8
0
  6
CONTINUOUS
 62
     3
 10
-306.600886417943
 20
-42.8117662979815
 30
0.0
 11
-306.079941987991
 21
-45.7661895751885
 31
0.0
  0
LINE
  5
    48
  8
0
  6
CONTINUOUS
 62
     3
 10
-306.079941987991
 20
-45.7661895751885
 30
0.0
 11
-305.55899755804
 21
-42.8117662979815
 31
0.0
  0
ENDBLK
  5
    49
  8
0
  6
CONTINUOUS
 62
     7
  0
BLOCK
  5
    4A
  8
0
  6
CONTINUOUS
 62
     3
  2
*UDIM47
 70
    65
 10
0.0
 20
0.0
 30
0.0
  3
*UDIM47
  0
TEXT
  5
    4B
  8
0
  6
CONTINUOUS
 62
     3
 10
-298.514783389202
 20
-50.0411972394591
 30
0.0
 40
3.00000002980232
  1
48
 50
449.999999844103
 41
0.933333333333333
 72
     1
 11
-300.014783397317
 21
-47.5411972105519
 31
0.0
 73
     2
  0
LINE
  5
    4C
  8
0
  6
CONTINUOUS
 62
     3
 10
-308.970881131958
 20
-23.2661895752004
 30
0.0
 11
-295.514783382416
 21
-23.2661895752004
 31
0.0
  0
LINE
  5
    4D
  8
0
  6
CONTINUOUS
 62
     3
 10
-326.468219985968
 20
-71.2662048339826
 30
0.0
 11
-295.514783382416
 21
-71.2662048339826
 31
0.0
  0
LINE
  5
    4E
  8
0
  6
CONTINUOUS
 62
     3
 10
-297.514783382416
 20
-23.2661895752004
 30
0.0
 11
-297.514783382416
 21
-71.2662048339826
 31
0.0
  0
LINE
  5
    4F
  8
0
  6
CONTINUOUS
 62
     3
 10
-296.993838952464
 20
-26.2206128524073
 30
0.0
 11
-297.514783382416
 21
-23.2661895752004
 31
0.0
  0
LINE
  5
    50
  8
0
  6
CONTINUOUS
 62
     3
 10
-297.514783382416
 20
-23.2661895752004
 30
0.0
 11
-298.035727812367
 21
-26.2206128524073
 31
0.0
  0
LINE
  5
    51
  8
0
  6
CONTINUOUS
 62
     3
 10
-298.035727812367
 20
-68.3117815567756
 30
0.0
 11
-297.514783382416
 21
-71.2662048339826
 31
0.0
  0
LINE
  5
    52
  8
0
  6
CONTINUOUS
 62
     3
 10
-297.514783382416
 20
-71.2662048339826
 30
0.0
 11
-296.993838952464
 21
-68.3117815567756
 31
0.0
  0
ENDBLK
  5
    53
  8
0
  6
CONTINUOUS
 62
     3
  0
BLOCK
  5
    54
  8
0
  6
CONTINUOUS
 62
     7
  2
*UDIM48
 70
    65
 10
0.0
 20
0.0
 30
0.0
  3
*UDIM48
  0
TEXT
  5
    55
  8
0
  6
CONTINUOUS
 62
     7
 10
-435.761732092197
 20
-15.2253542911003
 30
0.0
 40
3.00000002980232
  1
152
 50
449.999999844103
 41
0.933333333333333
 72
     1
 11
-437.261732096511
 21
-11.3253542482853
 31
0.0
 73
     2
  0
LINE
  5
    56
  8
0
  6
CONTINUOUS
 62
     7
 10
-376.118352890015
 20
64.7337799072266
 30
0.0
 11
-436.76173208161
 21
64.7337799072266
 31
0.0
  0
LINE
  5
    57
  8
0
  6
CONTINUOUS
 62
     7
 10
-376.118352890015
 20
-87.2662048339844
 30
0.0
 11
-436.76173208161
 21
-87.2662048339844
 31
0.0
  0
LINE
  5
    58
  8
0
  6
CONTINUOUS
 62
     7
 10
-434.76173208161
 20
64.7337799072266
 30
0.0
 11
-434.76173208161
 21
-87.2662048339844
 31
0.0
  0
LINE
  5
    59
  8
0
  6
CONTINUOUS
 62
     3
 10
-433.985274925191
 20
61.836002434016
 30
0.0
 11
-434.76173208161
 21
64.7337799072266
 31
0.0
  0
LINE
  5
    5A
  8
0
  6
CONTINUOUS
 62
     3
 10
-434.76173208161
 20
64.7337799072266
 30
0.0
 11
-435.538189238028
 21
61.836002434016
 31
0.0
  0
LINE
  5
    5B
  8
0
  6
CONTINUOUS
 62
     3
 10
-435.538189238028
 20
-84.3684273607738
 30
0.0
 11
-434.76173208161
 21
-87.2662048339844
 31
0.0
  0
LINE
  5
    5C
  8
0
  6
CONTINUOUS
 62
     3
 10
-434.76173208161
 20
-87.2662048339844
 30
0.0
 11
-433.985274925191
 21
-84.3684273607738
 31
0.0
  0
ENDBLK
  5
    5D
  8
0
  6
CONTINUOUS
 62
     7
  0
BLOCK
  5
    5E
  8
0
  6
CONTINUOUS
 62
     7
  2
*UDIM49
 70
    65
 10
0.0
 20
0.0
 30
0.0
  3
*UDIM49
  0
TEXT
  5
    5F
  8
0
  6
CONTINUOUS
 62
     7
 10
-427.626017078312
 20
55.6337798922286
 30
0.0
 40
3.00000002980232
  1
=
 50
449.999999844103
 41
0.933333333333334
 72
     1
 11
-429.126017090227
 21
56.7337799072281
 31
0.0
 73
     2
  0
LINE
  5
    60
  8
0
  6
CONTINUOUS
 62
     7
 10
-376.118352890015
 20
64.7337799072266
 30
0.0
 11
-428.626017075326
 21
64.7337799072266
 31
0.0
  0
LINE
  5
    61
  8
0
  6
CONTINUOUS
 62
     7
 10
-398.468242416378
 20
48.7337799072296
 30
0.0
 11
-428.626017075326
 21
48.7337799072296
 31
0.0
  0
LINE
  5
    62
  8
0
  6
CONTINUOUS
 62
     7
 10
-426.626017075326
 20
64.7337799072266
 30
0.0
 11
-426.626017075326
 21
48.7337799072296
 31
0.0
  0
LINE
  5
    63
  8
0
  6
CONTINUOUS
 62
     3
 10
-425.849559918908
 20
61.836002434016
 30
0.0
 11
-426.626017075326
 21
64.7337799072266
 31
0.0
  0
LINE
  5
    64
  8
0
  6
CONTINUOUS
 62
     3
 10
-426.626017075326
 20
64.7337799072266
 30
0.0
 11
-427.402474231745
 21
61.836002434016
 31
0.0
  0
LINE
  5
    65
  8
0
  6
CONTINUOUS
 62
     3
 10
-427.402474231745
 20
51.6315573804401
 30
0.0
 11
-426.626017075326
 21
48.7337799072296
 31
0.0
  0
LINE
  5
    66
  8
0
  6
CONTINUOUS
 62
     3
 10
-426.626017075326
 20
48.7337799072296
 30
0.0
 11
-425.849559918908
 21
51.6315573804401
 31
0.0
  0
ENDBLK
  5
    67
  8
0
  6
CONTINUOUS
 62
     7
  0
BLOCK
  5
    68
  8
0
  6
CONTINUOUS
 62
     7
  2
*UDIM50
 70
    65
 10
0.0
 20
0.0
 30
0.0
  3
*UDIM50
  0
TEXT
  5
    69
  8
0
  6
CONTINUOUS
 62
     7
 10
-427.626017085913
 20
-15.1662125061915
 30
0.0
 40
3.00000002980232
  1
120
 50
449.999999844103
 41
0.933333333333333
 72
     1
 11
-429.126017090227
 21
-11.2662124633765
 31
0.0
 73
     2
  0
LINE
  5
    6A
  8
0
  6
CONTINUOUS
 62
     7
 10
-398.463451142773
 20
-71.2662048339826
 30
0.0
 11
-428.626017075326
 21
-71.2662048339826
 31
0.0
  0
LINE
  5
    6B
  8
0
  6
CONTINUOUS
 62
     7
 10
-426.626017075326
 20
48.7337799072296
 30
0.0
 11
-426.626017075326
 21
-71.2662048339826
 31
0.0
  0
LINE
  5
    6C
  8
0
  6
CONTINUOUS
 62
     3
 10
-425.849559918908
 20
45.836002434019
 30
0.0
 11
-426.626017075326
 21
48.7337799072296
 31
0.0
  0
LINE
  5
    6D
  8
0
  6
CONTINUOUS
 62
     3
 10
-426.626017075326
 20
48.7337799072296
 30
0.0
 11
-427.402474231745
 21
45.836002434019
 31
0.0
  0
LINE
  5
    6E
  8
0
  6
CONTINUOUS
 62
     3
 10
-427.402474231745
 20
-68.368427360772
 30
0.0
 11
-426.626017075326
 21
-71.2662048339826
 31
0.0
  0
LINE
  5
    6F
  8
0
  6
CONTINUOUS
 62
     3
 10
-426.626017075326
 20
-71.2662048339826
 30
0.0
 11
-425.849559918908
 21
-68.368427360772
 31
0.0
  0
ENDBLK
  5
    70
  8
0
  6
CONTINUOUS
 62
     7
  0
BLOCK
  5
    71
  8
0
  6
CONTINUOUS
 62
     7
  2
*UDIM51
 70
    65
 10
0.0
 20
0.0
 30
0.0
  3
*UDIM51
  0
TEXT
  5
    72
  8
0
  6
CONTINUOUS
 62
     7
 10
-427.626017078312
 20
-80.3662048489829
 30
0.0
 40
3.00000002980232
  1
=
 50
449.999999844103
 41
0.933333333333334
 72
     1
 11
-429.126017090227
 21
-79.2662048339835
 31
0.0
 73
     2
  0
LINE
  5
    73
  8
0
  6
CONTINUOUS
 62
     7
 10
-376.118352890015
 20
-87.2662048339844
 30
0.0
 11
-428.626017075326
 21
-87.2662048339844
 31
0.0
  0
LINE
  5
    74
  8
0
  6
CONTINUOUS
 62
     7
 10
-426.626017075326
 20
-71.2662048339826
 30
0.0
 11
-426.626017075326
 21
-87.2662048339844
 31
0.0
  0
LINE
  5
    75
  8
0
  6
CONTINUOUS
 62
     3
 10
-425.849559918908
 20
-74.1639823071931
 30
0.0
 11
-426.626017075326
 21
-71.2662048339826
 31
0.0
  0
LINE
  5
    76
  8
0
  6
CONTINUOUS
 62
     3
 10
-426.626017075326
 20
-71.2662048339826
 30
0.0
 11
-427.402474231745
 21
-74.1639823071931
 31
0.0
  0
LINE
  5
    77
  8
0
  6
CONTINUOUS
 62
     3
 10
-427.402474231745
 20
-84.3684273607738
 30
0.0
 11
-426.626017075326
 21
-87.2662048339844
 31
0.0
  0
LINE
  5
    78
  8
0
  6
CONTINUOUS
 62
     3
 10
-426.626017075326
 20
-87.2662048339844
 30
0.0
 11
-425.849559918908
 21
-84.3684273607738
 31
0.0
  0
ENDBLK
  5
    79
  8
0
  6
CONTINUOUS
 62
     7
  0
BLOCK
  5
    7A
  8
0
  6
CONTINUOUS
 62
     3
  2
*UDIM52
 70
    65
 10
0.0
 20
0.0
 30
0.0
  3
*UDIM52
  0
TEXT
  5
    7B
  8
0
  6
CONTINUOUS
 62
     3
 10
-96.8932733228811
 20
63.447378165359
 30
0.0
 40
3.00000002980232
  1
25
 50
359.999999844103
 41
0.933333333333333
 72
     1
 11
-94.393273293972
 21
64.9473781734705
 31
0.0
 73
     2
  0
TEXT
  5
    7C
  8
0
  6
CONTINUOUS
 62
     3
 10
-99.6932733506966
 20
59.4473781431612
 30
0.0
 40
3.00000002980232
  1
=  =
 50
359.999999844103
 41
0.933333333333333
 72
     1
 11
-94.393273293972
 21
60.9473781436682
 31
0.0
 73
     2
  0
LINE
  5
    7D
  8
0
  6
CONTINUOUS
 62
     3
 10
-100.643273219466
 20
47.2646964281798
 30
0.0
 11
-100.643273219466
 21
64.4473781585693
 31
0.0
  0
LINE
  5
    7E
  8
0
  6
CONTINUOUS
 62
     3
 10
-88.1432733684778
 20
-2.73529229462156
 30
0.0
 11
-88.1432733684778
 21
64.4473781585693
 31
0.0
  0
LINE
  5
    7F
  8
0
  6
CONTINUOUS
 62
     3
 10
-100.643273219466
 20
62.4473781585693
 30
0.0
 11
-88.1432733684778
 21
62.4473781585693
 31
0.0
  0
LINE
  5
    80
  8
0
  6
CONTINUOUS
 62
     3
 10
-97.6888499422593
 20
62.968322588521
 30
0.0
 11
-100.643273219466
 21
62.4473781585693
 31
0.0
  0
LINE
  5
    81
  8
0
  6
CONTINUOUS
 62
     3
 10
-100.643273219466
 20
62.4473781585693
 30
0.0
 11
-97.6888499422593
 21
61.9264337286177
 31
0.0
  0
LINE
  5
    82
  8
0
  6
CONTINUOUS
 62
     3
 10
-91.0976966456848
 20
61.9264337286177
 30
0.0
 11
-88.1432733684778
 21
62.4473781585693
 31
0.0
  0
LINE
  5
    83
  8
0
  6
CONTINUOUS
 62
     3
 10
-88.1432733684778
 20
62.4473781585693
 30
0.0
 11
-91.0976966456848
 21
62.968322588521
 31
0.0
  0
ENDBLK
  5
    84
  8
0
  6
CONTINUOUS
 62
     3
  0
BLOCK
  5
    85
  8
0
  6
CONTINUOUS
 62
     3
  2
*UDIM53
 70
    65
 10
0.0
 20
0.0
 30
0.0
  3
*UDIM53
  0
TEXT
  5
    86
  8
0
  6
CONTINUOUS
 62
     3
 10
-69.1374684863414
 20
24.7896972396981
 30
0.0
 40
3.00000002980232
  1
62
 50
449.999999844103
 41
0.933333333333333
 72
     1
 11
-70.6374684944559
 21
27.2896972686053
 31
0.0
 73
     2
  0
LINE
  5
    87
  8
0
  6
CONTINUOUS
 62
     3
 10
-97.6932732909918
 20
43.0646964997054
 30
0.0
 11
-66.1374684795548
 21
43.0646964997054
 31
0.0
  0
LINE
  5
    88
  8
0
  6
CONTINUOUS
 62
     3
 10
-75.5324281165143
 20
12.0646964997054
 30
0.0
 11
-66.1374684795548
 21
12.0646964997054
 31
0.0
  0
LINE
  5
    89
  8
0
  6
CONTINUOUS
 62
     3
 10
-68.1374684795548
 20
43.0646964997054
 30
0.0
 11
-68.1374684795548
 21
12.0646964997054
 31
0.0
  0
LINE
  5
    8A
  8
0
  6
CONTINUOUS
 62
     3
 10
-67.6165240496031
 20
40.1102732224984
 30
0.0
 11
-68.1374684795548
 21
43.0646964997054
 31
0.0
  0
LINE
  5
    8B
  8
0
  6
CONTINUOUS
 62
     3
 10
-68.1374684795548
 20
43.0646964997054
 30
0.0
 11
-68.6584129095064
 21
40.1102732224984
 31
0.0
  0
LINE
  5
    8C
  8
0
  6
CONTINUOUS
 62
     3
 10
-68.6584129095064
 20
15.0191197769124
 30
0.0
 11
-68.1374684795548
 21
12.0646964997054
 31
0.0
  0
LINE
  5
    8D
  8
0
  6
CONTINUOUS
 62
     3
 10
-68.1374684795548
 20
12.0646964997054
 30
0.0
 11
-67.6165240496031
 21
15.0191197769124
 31
0.0
  0
ENDBLK
  5
    8E
  8
0
  6
CONTINUOUS
 62
     3
  0
BLOCK
  5
    8F
  8
0
  6
CONTINUOUS
 62
     3
  2
*UDIM54
 70
    65
 10
0.0
 20
0.0
 30
0.0
  3
*UDIM54
  0
TEXT
  5
    90
  8
0
  6
CONTINUOUS
 62
     3
 10
-61.5541893236826
 20
13.8897029537966
 30
0.0
 40
3.00000002980232
  1
100
 50
449.999999844103
 41
0.933333333333333
 72
     1
 11
-63.0541893279967
 21
17.7897029966116
 31
0.0
 73
     2
  0
LINE
  5
    91
  8
0
  6
CONTINUOUS
 62
     3
 10
-97.6932732909918
 20
43.0646964997054
 30
0.0
 11
-58.5541893130955
 21
43.0646964997054
 31
0.0
  0
LINE
  5
    92
  8
0
  6
CONTINUOUS
 62
     3
 10
-87.0682734400034
 20
-6.93529222309598
 30
0.0
 11
-58.5541893130955
 21
-6.93529222309598
 31
0.0
  0
LINE
  5
    93
  8
0
  6
CONTINUOUS
 62
     3
 10
-60.5541893130955
 20
43.0646964997054
 30
0.0
 11
-60.5541893130955
 21
-6.93529222309598
 31
0.0
  0
LINE
  5
    94
  8
0
  6
CONTINUOUS
 62
     3
 10
-60.0332448831438
 20
40.1102732224984
 30
0.0
 11
-60.5541893130955
 21
43.0646964997054
 31
0.0
  0
LINE
  5
    95
  8
0
  6
CONTINUOUS
 62
     3
 10
-60.5541893130955
 20
43.0646964997054
 30
0.0
 11
-61.0751337430472
 21
40.1102732224984
 31
0.0
  0
LINE
  5
    96
  8
0
  6
CONTINUOUS
 62
     3
 10
-61.0751337430472
 20
-3.98086894588902
 30
0.0
 11
-60.5541893130955
 21
-6.93529222309598
 31
0.0
  0
LINE
  5
    97
  8
0
  6
CONTINUOUS
 62
     3
 10
-60.5541893130955
 20
-6.93529222309598
 30
0.0
 11
-60.0332448831438
 21
-3.98086894588902
 31
0.0
  0
ENDBLK
  5
    98
  8
0
  6
CONTINUOUS
 62
     3
  0
BLOCK
  5
    99
  8
0
  6
CONTINUOUS
 62
     7
  2
*UDIM55
 70
    65
 10
0.0
 20
0.0
 30
0.0
  3
*UDIM55
  0
TEXT
  5
    9A
  8
0
  6
CONTINUOUS
 62
     7
 10
-115.295191885062
 20
32.9615961896996
 30
0.0
 40
3.00000002980232
  1
4.5
 50
397.808870350437
 41
0.933333333333333
 72
     1
 11
-113.133501480116
 21
36.5375009619309
 31
0.0
 73
     2
  0
TEXT
  5
    9B
  8
0
  6
CONTINUOUS
 62
     7
 10
-118.455432356281
 20
30.5094786553049
 30
0.0
 40
3.00000002980232
  1
Ø
 50
397.808870350437
 41
1.2
 72
     1
 11
-118.189886245169
 21
32.6141129114834
 31
0.0
 73
     2
  0
TEXT
  5
    9C
  8
0
  6
CONTINUOUS
 62
     7
 10
-140.893139798487
 20
13.0994441866826
 30
0.0
 40
3.00000002980232
  1
6-32 UNC o
 50
397.808870350437
 41
0.933333333333333
 72
     1
 11
-130.988860193725
 21
22.6830368994629
 31
0.0
 73
     2
  0
LINE
  5
    9D
  8
0
  6
CONTINUOUS
 62
     7
 10
-100.742030733581
 20
42.9880678274874
 30
0.0
 11
-140.28011039472
 21
12.3093840468718
 31
0.0
  0
LINE
  5
    9E
  8
0
  6
CONTINUOUS
 62
     3
 10
-103.345518196747
 20
39.9851678998249
 30
0.0
 11
-101.532090846498
 21
42.3750384497433
 31
0.0
  0
LINE
  5
    9F
  8
0
  6
CONTINUOUS
 62
     3
 10
-101.532090846498
 20
42.3750384497433
 30
0.0
 11
-104.297500291636
 21
41.2120635571757
 31
0.0
  0
ENDBLK
  5
    A0
  8
0
  6
CONTINUOUS
 62
     7
  0
BLOCK
  5
    A1
  8
0
  6
CONTINUOUS
 62
     3
  2
*HATCH4
 70
    65
 10
0.0
 20
0.0
 30
0.0
  3
*HATCH4
  0
LINE
  5
    A2
  8
0
  6
CONTINUOUS
 62
     7
 10
-43.254711151123
 20
-126.450965881348
 30
0.0
 11
-42.8356437683105
 21
-126.87003326416
 31
0.0
  0
ENDBLK
  5
    A3
  8
0
  6
CONTINUOUS
 62
     3
  0
BLOCK
  5
    A4
  8
0
  6
CONTINUOUS
 62
     7
  2
*HATCH5
 70
    65
 10
0.0
 20
0.0
 30
0.0
  3
*HATCH5
  0
LINE
  5
    A5
  8
0
  6
CONTINUOUS
 62
     7
 10
-71.9999923706055
 20
-127.154312133789
 30
0.0
 11
-72.9930572509766
 21
-128.147384643555
 31
0.0
  0
ENDBLK
  5
    A6
  8
0
  6
CONTINUOUS
 62
     7
  0
BLOCK
  5
    A7
  8
0
  6
CONTINUOUS
 62
     7
  2
*HATCH6
 70
    65
 10
0.0
 20
0.0
 30
0.0
  3
*HATCH6
  0
LINE
  5
    A8
  8
0
  6
CONTINUOUS
 62
     7
 10
-50.5798988342285
 20
-126.947425842285
 30
0.0
 11
-51.7798500061035
 21
-128.147384643555
 31
0.0
  0
LINE
  5
    A9
  8
0
  6
CONTINUOUS
 62
     7
 10
-46.3372573852539
 20
-126.947425842285
 30
0.0
 11
-47.5372085571289
 21
-128.147384643555
 31
0.0
  0
LINE
  5
    AA
  8
0
  6
CONTINUOUS
 62
     7
 10
-42.0946159362793
 20
-126.947425842285
 30
0.0
 11
-43.2945671081543
 21
-128.147384643555
 31
0.0
  0
LINE
  5
    AB
  8
0
  6
CONTINUOUS
 62
     7
 10
-38.4999885559082
 20
-127.595436096191
 30
0.0
 11
-39.051929473877
 21
-128.147384643555
 31
0.0
  0
ENDBLK
  5
    AC
  8
0
  6
CONTINUOUS
 62
     7
  0
BLOCK
  5
    AD
  8
0
  6
CONTINUOUS
 62
     7
  2
*HATCH7
 70
    65
 10
0.0
 20
0.0
 30
0.0
  3
*HATCH7
  0
LINE
  5
    AE
  8
0
  6
CONTINUOUS
 62
     7
 10
-29.3666934967041
 20
-126.947425842285
 30
0.0
 11
-30.5666484832764
 21
-128.147384643555
 31
0.0
  0
LINE
  5
    AF
  8
0
  6
CONTINUOUS
 62
     7
 10
-25.5978698730469
 20
-127.421241760254
 30
0.0
 11
-26.6585178375244
 21
-128.481887817383
 31
0.0
  0
ENDBLK
  5
    B0
  8
0
  6
CONTINUOUS
 62
     7
  0
BLOCK
  5
    B1
  8
0
  6
CONTINUOUS
 62
     7
  2
*HATCH8
 70
    65
 10
0.0
 20
0.0
 30
0.0
  3
*HATCH8
  0
LINE
  5
    B2
  8
0
  6
CONTINUOUS
 62
     7
 10
-20.8813762664795
 20
-126.947387695313
 30
0.0
 11
-22.0813655853271
 21
-128.147384643555
 31
0.0
  0
LINE
  5
    B3
  8
0
  6
CONTINUOUS
 62
     7
 10
-17.385326385498
 20
-127.693977355957
 30
0.0
 11
-18.2637767791748
 21
-128.57243347168
 31
0.0
  0
LINE
  5
    B4
  8
0
  6
CONTINUOUS
 62
     7
 10
-15.4536294937134
 20
-130.004928588867
 30
0.0
 11
-15.574047088623
 21
-130.125335693359
 31
0.0
  0
ENDBLK
  5
    B5
  8
0
  6
CONTINUOUS
 62
     7
  0
BLOCK
  5
    B6
  8
0
  6
CONTINUOUS
 62
     3
  2
*HATCH9
 70
    65
 10
0.0
 20
0.0
 30
0.0
  3
*HATCH9
  0
LINE
  5
    B7
  8
0
  6
CONTINUOUS
 62
     7
 10
-43.254711151123
 20
-126.450965881348
 30
0.0
 11
-42.8356437683105
 21
-126.87003326416
 31
0.0
  0
ENDBLK
  5
    B8
  8
0
  6
CONTINUOUS
 62
     3
  0
BLOCK
  5
    B9
  8
0
  6
CONTINUOUS
 62
     3
  2
*HATCH10
 70
    65
 10
0.0
 20
0.0
 30
0.0
  3
*HATCH10
  0
LINE
  5
    BA
  8
0
  6
CONTINUOUS
 62
     7
 10
-30.5379753112793
 20
-126.439788818359
 30
0.0
 11
-30.0502471923828
 21
-126.927520751953
 31
0.0
  0
ENDBLK
  5
    BB
  8
0
  6
CONTINUOUS
 62
     3
  0
BLOCK
  5
    BC
  8
0
  6
CONTINUOUS
 62
     3
  2
*HATCH11
 70
    65
 10
0.0
 20
0.0
 30
0.0
  3
*HATCH11
  0
LINE
  5
    BD
  8
0
  6
CONTINUOUS
 62
   210
 10
-32.0267944335938
 20
-124.950965881348
 30
0.0
 11
-31.6254253387451
 21
-125.352340698242
 31
0.0
  0
ENDBLK
  5
    BE
  8
0
  6
CONTINUOUS
 62
     3
  0
BLOCK
  5
    BF
  8
0
  6
CONTINUOUS
 62
     3
  2
*HATCH12
 70
    65
 10
0.0
 20
0.0
 30
0.0
  3
*HATCH12
  0
LINE
  5
    C0
  8
0
  6
CONTINUOUS
 62
   210
 10
-33.9234275817871
 20
-125.175659179688
 30
0.0
 11
-33.455249786377
 21
-125.643836975098
 31
0.0
  0
ENDBLK
  5
    C1
  8
0
  6
CONTINUOUS
 62
     3
  0
BLOCK
  5
    C2
  8
0
  6
CONTINUOUS
 62
     3
  2
*HATCH13
 70
    65
 10
0.0
 20
0.0
 30
0.0
  3
*HATCH13
  0
LINE
  5
    C3
  8
0
  6
CONTINUOUS
 62
   210
 10
-38.390754699707
 20
-124.950965881348
 30
0.0
 11
-38.0122337341309
 21
-125.329490661621
 31
0.0
  0
ENDBLK
  5
    C4
  8
0
  6
CONTINUOUS
 62
     3
  0
BLOCK
  5
    C5
  8
0
  6
CONTINUOUS
 62
     3
  2
*HATCH14
 70
    65
 10
0.0
 20
0.0
 30
0.0
  3
*HATCH14
  0
LINE
  5
    C6
  8
0
  6
CONTINUOUS
 62
   210
 10
-40.3102416992188
 20
-125.152801513672
 30
0.0
 11
-39.819206237793
 21
-125.643836975098
 31
0.0
  0
ENDBLK
  5
    C7
  8
0
  6
CONTINUOUS
 62
     3
  0
BLOCK
  5
    C8
  8
0
  6
CONTINUOUS
 62
     3
  2
*HATCH15
 70
    65
 10
0.0
 20
0.0
 30
0.0
  3
*HATCH15
  0
LINE
  5
    C9
  8
0
  6
CONTINUOUS
 62
   210
 10
-44.7547111511231
 20
-124.950965881348
 30
0.0
 11
-44.3990516662598
 21
-125.306625366211
 31
0.0
  0
ENDBLK
  5
    CA
  8
0
  6
CONTINUOUS
 62
     3
  0
BLOCK
  5
    CB
  8
0
  6
CONTINUOUS
 62
     3
  2
*HATCH16
 70
    65
 10
0.0
 20
0.0
 30
0.0
  3
*HATCH16
  0
LINE
  5
    CC
  8
0
  6
CONTINUOUS
 62
   210
 10
-44.3048553466797
 20
-129.643463134766
 30
0.0
 11
-43.8044891357422
 21
-130.143829345703
 31
0.0
  0
ENDBLK
  5
    CD
  8
0
  6
CONTINUOUS
 62
     3
  0
BLOCK
  5
    CE
  8
0
  6
CONTINUOUS
 62
     3
  2
*HATCH17
 70
    65
 10
0.0
 20
0.0
 30
0.0
  3
*HATCH17
  0
LINE
  5
    CF
  8
0
  6
CONTINUOUS
 62
   210
 10
-42.376033782959
 20
-129.450973510742
 30
0.0
 11
-42.0068473815918
 21
-129.820159912109
 31
0.0
  0
ENDBLK
  5
    D0
  8
0
  6
CONTINUOUS
 62
     3
  0
BLOCK
  5
    D1
  8
0
  6
CONTINUOUS
 62
     3
  2
*HATCH18
 70
    65
 10
0.0
 20
0.0
 30
0.0
  3
*HATCH18
  0
LINE
  5
    D2
  8
0
  6
CONTINUOUS
 62
   210
 10
-37.918041229248
 20
-129.666320800781
 30
0.0
 11
-37.4405326843262
 21
-130.143829345703
 31
0.0
  0
ENDBLK
  5
    D3
  8
0
  6
CONTINUOUS
 62
     3
  0
BLOCK
  5
    D4
  8
0
  6
CONTINUOUS
 62
     3
  2
*HATCH19
 70
    65
 10
0.0
 20
0.0
 30
0.0
  3
*HATCH19
  0
LINE
  5
    D5
  8
0
  6
CONTINUOUS
 62
   210
 10
-36.012077331543
 20
-129.450973510742
 30
0.0
 11
-35.6200370788574
 21
-129.843002319336
 31
0.0
  0
ENDBLK
  5
    D6
  8
0
  6
CONTINUOUS
 62
     3
  0
BLOCK
  5
    D7
  8
0
  6
CONTINUOUS
 62
     3
  2
*HATCH20
 70
    65
 10
0.0
 20
0.0
 30
0.0
  3
*HATCH20
  0
LINE
  5
    D8
  8
0
  6
CONTINUOUS
 62
   210
 10
-31.5312309265137
 20
-129.689178466797
 30
0.0
 11
-31.0765743255615
 21
-130.143829345703
 31
0.0
  0
ENDBLK
  5
    D9
  8
0
  6
CONTINUOUS
 62
     3
  0
BLOCK
  5
    DA
  8
0
  6
CONTINUOUS
 62
     7
  2
*HATCH21
 70
    65
 10
0.0
 20
0.0
 30
0.0
  3
*HATCH21
  0
LINE
  5
    DB
  8
0
  6
CONTINUOUS
 62
     7
 10
-57.8861999511719
 20
-124.547393798828
 30
0.0
 11
-56.6861839294434
 21
-125.747406005859
 31
0.0
  0
LINE
  5
    DC
  8
0
  6
CONTINUOUS
 62
     7
 10
-53.6435623168945
 20
-124.547393798828
 30
0.0
 11
-52.443546295166
 21
-125.747406005859
 31
0.0
  0
LINE
  5
    DD
  8
0
  6
CONTINUOUS
 62
     7
 10
-49.4009246826172
 20
-124.547393798828
 30
0.0
 11
-48.2009086608887
 21
-125.747406005859
 31
0.0
  0
ENDBLK
  5
    DE
  8
0
  6
CONTINUOUS
 62
     7
  0
BLOCK
  5
    DF
  8
0
  6
CONTINUOUS
 62
     7
  2
*HATCH22
 70
    65
 10
0.0
 20
0.0
 30
0.0
  3
*HATCH22
  0
LINE
  5
    E0
  8
0
  6
CONTINUOUS
 62
     7
 10
-46.6999702453613
 20
-131.490997314453
 30
0.0
 11
-45.6435585021973
 21
-132.547409057617
 31
0.0
  0
LINE
  5
    E1
  8
0
  6
CONTINUOUS
 62
     7
 10
-45.7009124755859
 20
-128.247406005859
 30
0.0
 11
-45.4999885559082
 21
-128.448333740234
 31
0.0
  0
ENDBLK
  5
    E2
  8
0
  6
CONTINUOUS
 62
     7
  0
BLOCK
  5
    E3
  8
0
  6
CONTINUOUS
 62
     7
  2
*HATCH23
 70
    65
 10
0.0
 20
0.0
 30
0.0
  3
*HATCH23
  0
LINE
  5
    E4
  8
0
  6
CONTINUOUS
 62
     7
 10
-25.4999885559082
 20
-131.477783203125
 30
0.0
 11
-24.4303665161133
 21
-132.547409057617
 31
0.0
  0
LINE
  5
    E5
  8
0
  6
CONTINUOUS
 62
     7
 10
-24.487720489502
 20
-128.247406005859
 30
0.0
 11
-24.299991607666
 21
-128.435134887695
 31
0.0
  0
ENDBLK
  5
    E6
  8
0
  6
CONTINUOUS
 62
     7
  0
BLOCK
  5
    E7
  8
0
  6
CONTINUOUS
 62
     7
  2
*HATCH24
 70
    65
 10
0.0
 20
0.0
 30
0.0
  3
*HATCH24
  0
LINE
  5
    E8
  8
0
  6
CONTINUOUS
 62
     7
 10
-23.8087673187256
 20
-124.683715820313
 30
0.0
 11
-22.745080947876
 21
-125.747406005859
 31
0.0
  0
LINE
  5
    E9
  8
0
  6
CONTINUOUS
 62
     7
 10
-19.7024536132813
 20
-124.547393798828
 30
0.0
 11
-18.50244140625
 21
-125.747406005859
 31
0.0
  0
LINE
  5
    EA
  8
0
  6
CONTINUOUS
 62
     7
 10
-15.4598121643066
 20
-124.547393798828
 30
0.0
 11
-14.2598037719727
 21
-125.747406005859
 31
0.0
  0
LINE
  5
    EB
  8
0
  6
CONTINUOUS
 62
     7
 10
-11.217170715332
 20
-124.547393798828
 30
0.0
 11
-10.0171661376953
 21
-125.747406005859
 31
0.0
  0
LINE
  5
    EC
  8
0
  6
CONTINUOUS
 62
     7
 10
-6.97452974319458
 20
-124.547393798828
 30
0.0
 11
-5.77452802658081
 21
-125.747406005859
 31
0.0
  0
LINE
  5
    ED
  8
0
  6
CONTINUOUS
 62
     7
 10
-2.73188877105713
 20
-124.547409057617
 30
0.0
 11
-2.43955731391907
 21
-124.839736938477
 31
0.0
  0
ENDBLK
  5
    EE
  8
0
  6
CONTINUOUS
 62
     7
  0
BLOCK
  5
    EF
  8
0
  6
CONTINUOUS
 62
     3
  2
*HATCH25
 70
    65
 10
0.0
 20
0.0
 30
0.0
  3
*HATCH25
  0
LINE
  5
    F0
  8
0
  6
CONTINUOUS
 62
     7
 10
-43.254711151123
 20
-126.450965881348
 30
0.0
 11
-42.8356437683105
 21
-126.87003326416
 31
0.0
  0
ENDBLK
  5
    F1
  8
0
  6
CONTINUOUS
 62
     3
  0
BLOCK
  5
    F2
  8
0
  6
CONTINUOUS
 62
     3
  2
*HATCH26
 70
    65
 10
0.0
 20
0.0
 30
0.0
  3
*HATCH26
  0
LINE
  5
    F3
  8
0
  6
CONTINUOUS
 62
     7
 10
-30.5379753112793
 20
-126.439788818359
 30
0.0
 11
-30.0502471923828
 21
-126.927520751953
 31
0.0
  0
ENDBLK
  5
    F4
  8
0
  6
CONTINUOUS
 62
     3
  0
BLOCK
  5
    F5
  8
0
  6
CONTINUOUS
 62
     3
  2
*HATCH27
 70
    65
 10
0.0
 20
0.0
 30
0.0
  3
*HATCH27
  0
LINE
  5
    F6
  8
0
  6
CONTINUOUS
 62
   210
 10
-32.0267944335938
 20
-124.950965881348
 30
0.0
 11
-31.6254253387451
 21
-125.352340698242
 31
0.0
  0
ENDBLK
  5
    F7
  8
0
  6
CONTINUOUS
 62
     3
  0
BLOCK
  5
    F8
  8
0
  6
CONTINUOUS
 62
     3
  2
*HATCH28
 70
    65
 10
0.0
 20
0.0
 30
0.0
  3
*HATCH28
  0
LINE
  5
    F9
  8
0
  6
CONTINUOUS
 62
   210
 10
-33.9234275817871
 20
-125.175659179688
 30
0.0
 11
-33.455249786377
 21
-125.643836975098
 31
0.0
  0
ENDBLK
  5
    FA
  8
0
  6
CONTINUOUS
 62
     3
  0
BLOCK
  5
    FB
  8
0
  6
CONTINUOUS
 62
     3
  2
*HATCH29
 70
    65
 10
0.0
 20
0.0
 30
0.0
  3
*HATCH29
  0
LINE
  5
    FC
  8
0
  6
CONTINUOUS
 62
   210
 10
-38.390754699707
 20
-124.950965881348
 30
0.0
 11
-38.0122337341309
 21
-125.329490661621
 31
0.0
  0
ENDBLK
  5
    FD
  8
0
  6
CONTINUOUS
 62
     3
  0
BLOCK
  5
    FE
  8
0
  6
CONTINUOUS
 62
     3
  2
*HATCH30
 70
    65
 10
0.0
 20
0.0
 30
0.0
  3
*HATCH30
  0
LINE
  5
    FF
  8
0
  6
CONTINUOUS
 62
   210
 10
-40.3102416992188
 20
-125.152801513672
 30
0.0
 11
-39.819206237793
 21
-125.643836975098
 31
0.0
  0
ENDBLK
  5
   100
  8
0
  6
CONTINUOUS
 62
     3
  0
BLOCK
  5
   101
  8
0
  6
CONTINUOUS
 62
     3
  2
*HATCH31
 70
    65
 10
0.0
 20
0.0
 30
0.0
  3
*HATCH31
  0
LINE
  5
   102
  8
0
  6
CONTINUOUS
 62
   210
 10
-44.7547111511231
 20
-124.950965881348
 30
0.0
 11
-44.3990516662598
 21
-125.306625366211
 31
0.0
  0
ENDBLK
  5
   103
  8
0
  6
CONTINUOUS
 62
     3
  0
BLOCK
  5
   104
  8
0
  6
CONTINUOUS
 62
     3
  2
*HATCH32
 70
    65
 10
0.0
 20
0.0
 30
0.0
  3
*HATCH32
  0
LINE
  5
   105
  8
0
  6
CONTINUOUS
 62
   210
 10
-44.3048553466797
 20
-129.643463134766
 30
0.0
 11
-43.8044891357422
 21
-130.143829345703
 31
0.0
  0
ENDBLK
  5
   106
  8
0
  6
CONTINUOUS
 62
     3
  0
BLOCK
  5
   107
  8
0
  6
CONTINUOUS
 62
     3
  2
*HATCH33
 70
    65
 10
0.0
 20
0.0
 30
0.0
  3
*HATCH33
  0
LINE
  5
   108
  8
0
  6
CONTINUOUS
 62
   210
 10
-42.376033782959
 20
-129.450973510742
 30
0.0
 11
-42.0068473815918
 21
-129.820159912109
 31
0.0
  0
ENDBLK
  5
   109
  8
0
  6
CONTINUOUS
 62
     3
  0
BLOCK
  5
   10A
  8
0
  6
CONTINUOUS
 62
     3
  2
*HATCH34
 70
    65
 10
0.0
 20
0.0
 30
0.0
  3
*HATCH34
  0
LINE
  5
   10B
  8
0
  6
CONTINUOUS
 62
   210
 10
-37.918041229248
 20
-129.666320800781
 30
0.0
 11
-37.4405326843262
 21
-130.143829345703
 31
0.0
  0
ENDBLK
  5
   10C
  8
0
  6
CONTINUOUS
 62
     3
  0
BLOCK
  5
   10D
  8
0
  6
CONTINUOUS
 62
     3
  2
*HATCH35
 70
    65
 10
0.0
 20
0.0
 30
0.0
  3
*HATCH35
  0
LINE
  5
   10E
  8
0
  6
CONTINUOUS
 62
   210
 10
-36.012077331543
 20
-129.450973510742
 30
0.0
 11
-35.6200370788574
 21
-129.843002319336
 31
0.0
  0
ENDBLK
  5
   10F
  8
0
  6
CONTINUOUS
 62
     3
  0
BLOCK
  5
   110
  8
0
  6
CONTINUOUS
 62
     3
  2
*HATCH36
 70
    65
 10
0.0
 20
0.0
 30
0.0
  3
*HATCH36
  0
LINE
  5
   111
  8
0
  6
CONTINUOUS
 62
   210
 10
-31.5312309265137
 20
-129.689178466797
 30
0.0
 11
-31.0765743255615
 21
-130.143829345703
 31
0.0
  0
ENDBLK
  5
   112
  8
0
  6
CONTINUOUS
 62
     3
  0
BLOCK
  5
   113
  8
0
  6
CONTINUOUS
 62
     7
  2
*UDIM56
 70
    65
 10
0.0
 20
0.0
 30
0.0
  3
*UDIM56
  0
TEXT
  5
   114
  8
0
  6
CONTINUOUS
 62
     7
 10
-289.123776248103
 20
-15.8662028819723
 30
0.0
 40
3.00000002980232
  1
=
 50
449.999999844103
 41
0.933333333333334
 72
     1
 11
-290.623776260018
 21
-14.7662028669729
 31
0.0
 73
     2
  0
LINE
  5
   115
  8
0
  6
CONTINUOUS
 62
     3
 10
-268.07659702301
 20
-6.26621615875047
 30
0.0
 11
-290.123776245117
 21
-6.26621615875047
 31
0.0
  0
LINE
  5
   116
  8
0
  6
CONTINUOUS
 62
     3
 10
-273.747388810462
 20
-23.2661895751953
 30
0.0
 11
-290.123776245117
 21
-23.2661895751953
 31
0.0
  0
LINE
  5
   117
  8
0
  6
CONTINUOUS
 62
     3
 10
-288.123776245117
 20
-6.26621615875047
 30
0.0
 11
-288.123776245117
 21
-23.2661895751953
 31
0.0
  0
LINE
  5
   118
  8
0
  6
CONTINUOUS
 62
     3
 10
-287.602831815166
 20
-9.22063943595743
 30
0.0
 11
-288.123776245117
 21
-6.26621615875047
 31
0.0
  0
LINE
  5
   119
  8
0
  6
CONTINUOUS
 62
     3
 10
-288.123776245117
 20
-6.26621615875047
 30
0.0
 11
-288.644720675069
 21
-9.22063943595743
 31
0.0
  0
LINE
  5
   11A
  8
0
  6
CONTINUOUS
 62
     3
 10
-288.644720675069
 20
-20.3117662979883
 30
0.0
 11
-288.123776245117
 21
-23.2661895751953
 31
0.0
  0
LINE
  5
   11B
  8
0
  6
CONTINUOUS
 62
     3
 10
-288.123776245117
 20
-23.2661895751953
 30
0.0
 11
-287.602831815166
 21
-20.3117662979883
 31
0.0
  0
ENDBLK
  5
   11C
  8
0
  6
CONTINUOUS
 62
     7
  0
BLOCK
  5
   11D
  8
0
  6
CONTINUOUS
 62
     7
  2
*UDIM57
 70
    65
 10
0.0
 20
0.0
 30
0.0
  3
*UDIM57
  0
TEXT
  5
   11E
  8
0
  6
CONTINUOUS
 62
     7
 10
-289.123776248103
 20
-33.6162028819723
 30
0.0
 40
3.00000002980232
  1
=
 50
449.999999844103
 41
0.933333333333334
 72
     1
 11
-290.623776260018
 21
-32.5162028669729
 31
0.0
 73
     2
  0
LINE
  5
   11F
  8
0
  6
CONTINUOUS
 62
     3
 10
-268.07659702301
 20
-41.7662161587505
 30
0.0
 11
-290.123776245117
 21
-41.7662161587505
 31
0.0
  0
LINE
  5
   120
  8
0
  6
CONTINUOUS
 62
     3
 10
-288.123776245117
 20
-23.2661895751953
 30
0.0
 11
-288.123776245117
 21
-41.7662161587505
 31
0.0
  0
LINE
  5
   121
  8
0
  6
CONTINUOUS
 62
     3
 10
-287.602831815166
 20
-26.2206128524022
 30
0.0
 11
-288.123776245117
 21
-23.2661895751953
 31
0.0
  0
LINE
  5
   122
  8
0
  6
CONTINUOUS
 62
     3
 10
-288.123776245117
 20
-23.2661895751953
 30
0.0
 11
-288.644720675069
 21
-26.2206128524022
 31
0.0
  0
LINE
  5
   123
  8
0
  6
CONTINUOUS
 62
     3
 10
-288.644720675069
 20
-38.8117928815435
 30
0.0
 11
-288.123776245117
 21
-41.7662161587505
 31
0.0
  0
LINE
  5
   124
  8
0
  6
CONTINUOUS
 62
     3
 10
-288.123776245117
 20
-41.7662161587505
 30
0.0
 11
-287.602831815166
 21
-38.8117928815435
 31
0.0
  0
ENDBLK
  5
   125
  8
0
  6
CONTINUOUS
 62
     7
  0
BLOCK
  5
   126
  8
0
  6
CONTINUOUS
 62
     3
  2
*UDIM58
 70
    65
 10
0.0
 20
0.0
 30
0.0
  3
*UDIM58
  0
TEXT
  5
   127
  8
0
  6
CONTINUOUS
 62
     3
 10
-279.914334626099
 20
-106.547816370103
 30
0.0
 40
3.00000002980232
  1
4,3
 50
359.999999844103
 41
0.933333333333333
 72
     1
 11
-276.014334583282
 21
-105.047816365794
 31
0.0
 73
     2
  0
LINE
  5
   128
  8
0
  6
CONTINUOUS
 62
     3
 10
-267.07659702301
 20
-41.7662161587505
 30
0.0
 11
-267.07659702301
 21
-109.547816380695
 31
0.0
  0
LINE
  5
   129
  8
0
  6
CONTINUOUS
 62
     3
 10
-262.776582717896
 20
-68.2662047146587
 30
0.0
 11
-262.776582717896
 21
-109.547816380695
 31
0.0
  0
LINE
  5
   12A
  8
0
  6
CONTINUOUS
 62
     3
 10
-279.914334622026
 20
-107.547816380695
 30
0.0
 11
-262.776582717896
 21
-107.547816380695
 31
0.0
  0
LINE
  5
   12B
  8
0
  6
CONTINUOUS
 62
     3
 10
-270.031020300217
 20
-108.068760810646
 30
0.0
 11
-267.07659702301
 21
-107.547816380695
 31
0.0
  0
LINE
  5
   12C
  8
0
  6
CONTINUOUS
 62
     3
 10
-267.07659702301
 20
-107.547816380695
 30
0.0
 11
-270.031020300217
 21
-107.026871950743
 31
0.0
  0
LINE
  5
   12D
  8
0
  6
CONTINUOUS
 62
     3
 10
-259.822159440689
 20
-107.026871950743
 30
0.0
 11
-262.776582717896
 21
-107.547816380695
 31
0.0
  0
LINE
  5
   12E
  8
0
  6
CONTINUOUS
 62
     3
 10
-262.776582717896
 20
-107.547816380695
 30
0.0
 11
-259.822159440689
 21
-108.068760810646
 31
0.0
  0
ENDBLK
  5
   12F
  8
0
  6
CONTINUOUS
 62
     3
  0
BLOCK
  5
   130
  8
0
  6
CONTINUOUS
 62
     7
  2
*HATCH37
 70
    65
 10
0.0
 20
0.0
 30
0.0
  3
*HATCH37
  0
LINE
  5
   131
  8
0
  6
CONTINUOUS
 62
     7
 10
31.3043460845947
 20
-91.7322311401367
 30
0.0
 11
30.5
 21
-92.5365753173828
 31
0.0
  0
LINE
  5
   132
  8
0
  6
CONTINUOUS
 62
     7
 10
33.4999885559082
 20
-93.7792282104492
 30
0.0
 11
31.5469875335693
 21
-95.7322311401367
 31
0.0
  0
ENDBLK
  5
   133
  8
0
  6
CONTINUOUS
 62
     7
  0
BLOCK
  5
   134
  8
0
  6
CONTINUOUS
 62
     7
  2
*HATCH38
 70
    65
 10
0.0
 20
0.0
 30
0.0
  3
*HATCH38
  0
LINE
  5
   135
  8
0
  6
CONTINUOUS
 62
     7
 10
39.7896270751953
 20
-91.7322311401367
 30
0.0
 11
39.4999885559082
 21
-92.0218734741211
 31
0.0
  0
LINE
  5
   136
  8
0
  6
CONTINUOUS
 62
     7
 10
42.5
 20
-93.2645034790039
 30
0.0
 11
40.0322685241699
 21
-95.7322311401367
 31
0.0
  0
ENDBLK
  5
   137
  8
0
  6
CONTINUOUS
 62
     7
  0
BLOCK
  5
   138
  8
0
  6
CONTINUOUS
 62
     7
  2
*HATCH39
 70
    65
 10
0.0
 20
0.0
 30
0.0
  3
*HATCH39
  0
LINE
  5
   139
  8
0
  6
CONTINUOUS
 62
     7
 10
30.5
 20
-111.110260009766
 30
0.0
 11
30.6219692230225
 21
-111.232231140137
 31
0.0
  0
LINE
  5
   13A
  8
0
  6
CONTINUOUS
 62
     7
 10
32.8646087646484
 20
-109.232231140137
 30
0.0
 11
34.8646087646484
 21
-111.232231140137
 31
0.0
  0
LINE
  5
   13B
  8
0
  6
CONTINUOUS
 62
     7
 10
37.1072463989258
 20
-109.232231140137
 30
0.0
 11
39.1072463989258
 21
-111.232231140137
 31
0.0
  0
LINE
  5
   13C
  8
0
  6
CONTINUOUS
 62
     7
 10
41.3498878479004
 20
-109.232231140137
 30
0.0
 11
42.5
 21
-110.382347106934
 31
0.0
  0
ENDBLK
  5
   13D
  8
0
  6
CONTINUOUS
 62
     7
  0
BLOCK
  5
   13E
  8
0
  6
CONTINUOUS
 62
     3
  2
*UDIM59
 70
    65
 10
0.0
 20
0.0
 30
0.0
  3
*UDIM59
  0
TEXT
  5
   13F
  8
0
  6
CONTINUOUS
 62
     3
 10
-159.846740729443
 20
-26.0411896100629
 30
0.0
 40
3.00000002980232
  1
45
 50
449.999999844103
 41
0.933333333333333
 72
     1
 11
-161.346740737557
 21
-23.5411895811557
 31
0.0
 73
     2
  0
LINE
  5
   140
  8
0
  6
CONTINUOUS
 62
     3
 10
-187.776595830917
 20
-0.766189575195263
 30
0.0
 11
-156.846740722656
 21
-0.766189575195263
 31
0.0
  0
LINE
  5
   141
  8
0
  6
CONTINUOUS
 62
     3
 10
-187.776595830917
 20
-45.7661895751953
 30
0.0
 11
-156.846740722656
 21
-45.7661895751953
 31
0.0
  0
LINE
  5
   142
  8
0
  6
CONTINUOUS
 62
     3
 10
-158.846740722656
 20
-0.766189575195263
 30
0.0
 11
-158.846740722656
 21
-45.7661895751953
 31
0.0
  0
LINE
  5
   143
  8
0
  6
CONTINUOUS
 62
     3
 10
-158.325796292705
 20
-3.72061285240223
 30
0.0
 11
-158.846740722656
 21
-0.766189575195263
 31
0.0
  0
LINE
  5
   144
  8
0
  6
CONTINUOUS
 62
     3
 10
-158.846740722656
 20
-0.766189575195263
 30
0.0
 11
-159.367685152608
 21
-3.72061285240223
 31
0.0
  0
LINE
  5
   145
  8
0
  6
CONTINUOUS
 62
     3
 10
-159.367685152608
 20
-42.8117662979883
 30
0.0
 11
-158.846740722656
 21
-45.7661895751953
 31
0.0
  0
LINE
  5
   146
  8
0
  6
CONTINUOUS
 62
     3
 10
-158.846740722656
 20
-45.7661895751953
 30
0.0
 11
-158.325796292705
 21
-42.8117662979883
 31
0.0
  0
ENDBLK
  5
   147
  8
0
  6
CONTINUOUS
 62
     3
  0
BLOCK
  5
   148
  8
0
  6
CONTINUOUS
 62
     7
  2
*UDIM60
 70
    65
 10
0.0
 20
0.0
 30
0.0
  3
*UDIM60
  0
TEXT
  5
   149
  8
0
  6
CONTINUOUS
 62
     7
 10
-239.136664256554
 20
-40.5212716912332
 30
0.0
 40
3.00000002980232
  1
10.5
 50
359.999999844103
 41
0.933333333333333
 72
     1
 11
-233.836664199829
 21
-39.0212716907263
 31
0.0
 73
     2
  0
TEXT
  5
   14A
  8
0
  6
CONTINUOUS
 62
     7
 10
-227.536664151252
 20
-40.5212716950355
 30
0.0
 40
3.00000002980232
  1
x11
 50
359.999999844103
 41
0.933333333333333
 72
     1
 11
-223.636664108435
 21
-39.0212716907263
 31
0.0
 73
     2
  0
LINE
  5
   14B
  8
0
  6
CONTINUOUS
 62
     7
 10
-248.761421203613
 20
-55.2662048339844
 30
0.0
 11
-248.761421203613
 21
-39.5212717056274
 31
0.0
  0
LINE
  5
   14C
  8
0
  6
CONTINUOUS
 62
     7
 10
-237.261421203613
 20
-55.2662048339844
 30
0.0
 11
-237.261421203613
 21
-39.5212717056274
 31
0.0
  0
LINE
  5
   14D
  8
0
  6
CONTINUOUS
 62
     7
 10
-248.761421203613
 20
-41.5212717056274
 30
0.0
 11
-219.736664069692
 21
-41.5212717056274
 31
0.0
  0
LINE
  5
   14E
  8
0
  6
CONTINUOUS
 62
     3
 10
-245.863643730403
 20
-40.7448145492089
 30
0.0
 11
-248.761421203613
 21
-41.5212717056274
 31
0.0
  0
LINE
  5
   14F
  8
0
  6
CONTINUOUS
 62
     3
 10
-248.761421203613
 20
-41.5212717056274
 30
0.0
 11
-245.863643730403
 21
-42.297728862046
 31
0.0
  0
LINE
  5
   150
  8
0
  6
CONTINUOUS
 62
     3
 10
-240.159198676824
 20
-42.297728862046
 30
0.0
 11
-237.261421203613
 21
-41.5212717056274
 31
0.0
  0
LINE
  5
   151
  8
0
  6
CONTINUOUS
 62
     3
 10
-237.261421203613
 20
-41.5212717056274
 30
0.0
 11
-240.159198676824
 21
-40.7448145492089
 31
0.0
  0
ENDBLK
  5
   152
  8
0
  6
CONTINUOUS
 62
     7
  0
BLOCK
  5
   153
  8
0
  6
CONTINUOUS
 62
     7
  2
*UDIM61
 70
    65
 10
0.0
 20
0.0
 30
0.0
  3
*UDIM61
  0
TEXT
  5
   154
  8
0
  6
CONTINUOUS
 62
     7
 10
-219.762755130291
 20
-110.343735681286
 30
0.0
 40
3.00000002980232
  1
91
 50
359.999999844103
 41
0.933333333333333
 72
     1
 11
-217.262755101382
 21
-108.843735673174
 31
0.0
 73
     2
  0
LINE
  5
   155
  8
0
  6
CONTINUOUS
 62
     7
 10
-262.776582717896
 20
-69.2662047146587
 30
0.0
 11
-262.776582717896
 21
-113.343735688075
 31
0.0
  0
LINE
  5
   156
  8
0
  6
CONTINUOUS
 62
     7
 10
-171.748927484868
 20
-26.7661895751806
 30
0.0
 11
-171.748927484868
 21
-113.343735688075
 31
0.0
  0
LINE
  5
   157
  8
0
  6
CONTINUOUS
 62
     7
 10
-262.776582717896
 20
-111.343735688075
 30
0.0
 11
-171.748927484868
 21
-111.343735688075
 31
0.0
  0
LINE
  5
   158
  8
0
  6
CONTINUOUS
 62
     3
 10
-259.878805244685
 20
-110.567278531657
 30
0.0
 11
-262.776582717896
 21
-111.343735688075
 31
0.0
  0
LINE
  5
   159
  8
0
  6
CONTINUOUS
 62
     3
 10
-262.776582717896
 20
-111.343735688075
 30
0.0
 11
-259.878805244685
 21
-112.120192844494
 31
0.0
  0
LINE
  5
   15A
  8
0
  6
CONTINUOUS
 62
     3
 10
-174.646704958078
 20
-112.120192844494
 30
0.0
 11
-171.748927484868
 21
-111.343735688075
 31
0.0
  0
LINE
  5
   15B
  8
0
  6
CONTINUOUS
 62
     3
 10
-171.748927484868
 20
-111.343735688075
 30
0.0
 11
-174.646704958078
 21
-110.567278531657
 31
0.0
  0
ENDBLK
  5
   15C
  8
0
  6
CONTINUOUS
 62
     7
  0
BLOCK
  5
   15D
  8
0
  6
CONTINUOUS
 62
     7
  2
*UDIM62
 70
    65
 10
0.0
 20
0.0
 30
0.0
  3
*UDIM62
  0
TEXT
  5
   15E
  8
0
  6
CONTINUOUS
 62
     7
 10
-230.276589080791
 20
87.7207028457502
 30
0.0
 40
3.00000002980232
  1
70
 50
359.999999844103
 41
0.933333333333333
 72
     1
 11
-227.776589051882
 21
89.2207028538617
 31
0.0
 73
     2
  0
LINE
  5
   15F
  8
0
  6
CONTINUOUS
 62
     7
 10
-262.776582272847
 20
49.7337799072266
 30
0.0
 11
-262.776582272847
 21
88.7207028389605
 31
0.0
  0
LINE
  5
   160
  8
0
  6
CONTINUOUS
 62
     7
 10
-192.776595830917
 20
32.7337951660156
 30
0.0
 11
-192.776595830917
 21
88.7207028389605
 31
0.0
  0
LINE
  5
   161
  8
0
  6
CONTINUOUS
 62
     7
 10
-262.776582272847
 20
86.7207028389605
 30
0.0
 11
-192.776595830917
 21
86.7207028389605
 31
0.0
  0
LINE
  5
   162
  8
0
  6
CONTINUOUS
 62
     3
 10
-259.878804799637
 20
87.4971599953791
 30
0.0
 11
-262.776582272847
 21
86.7207028389605
 31
0.0
  0
LINE
  5
   163
  8
0
  6
CONTINUOUS
 62
     3
 10
-262.776582272847
 20
86.7207028389605
 30
0.0
 11
-259.878804799637
 21
85.944245682542
 31
0.0
  0
LINE
  5
   164
  8
0
  6
CONTINUOUS
 62
     3
 10
-195.674373304128
 20
85.944245682542
 30
0.0
 11
-192.776595830917
 21
86.7207028389605
 31
0.0
  0
LINE
  5
   165
  8
0
  6
CONTINUOUS
 62
     3
 10
-192.776595830917
 20
86.7207028389605
 30
0.0
 11
-195.674373304128
 21
87.4971599953791
 31
0.0
  0
ENDBLK
  5
   166
  8
0
  6
CONTINUOUS
 62
     7
  0
BLOCK
  5
   167
  8
0
  6
CONTINUOUS
 62
     7
  2
*UDIM63
 70
    65
 10
0.0
 20
0.0
 30
0.0
  3
*UDIM63
  0
TEXT
  5
   168
  8
0
  6
CONTINUOUS
 62
     7
 10
-239.84778812041
 20
77.9062781033128
 30
0.0
 40
3.00000002980232
  1
56.7
 50
359.999999844103
 41
0.933333333333333
 72
     1
 11
-234.547788063685
 21
79.4062781038198
 31
0.0
 73
     2
  0
LINE
  5
   169
  8
0
  6
CONTINUOUS
 62
     7
 10
-262.776582272847
 20
49.7337799072266
 30
0.0
 11
-262.776582272847
 21
78.9062780889186
 31
0.0
  0
LINE
  5
   16A
  8
0
  6
CONTINUOUS
 62
     7
 10
-206.076580810547
 20
64.7337799072266
 30
0.0
 11
-206.076580810547
 21
78.9062780889186
 31
0.0
  0
LINE
  5
   16B
  8
0
  6
CONTINUOUS
 62
     7
 10
-262.776582272847
 20
76.9062780889186
 30
0.0
 11
-206.076580810547
 21
76.9062780889186
 31
0.0
  0
LINE
  5
   16C
  8
0
  6
CONTINUOUS
 62
     3
 10
-259.878804799637
 20
77.6827352453372
 30
0.0
 11
-262.776582272847
 21
76.9062780889186
 31
0.0
  0
LINE
  5
   16D
  8
0
  6
CONTINUOUS
 62
     3
 10
-262.776582272847
 20
76.9062780889186
 30
0.0
 11
-259.878804799637
 21
76.1298209325001
 31
0.0
  0
LINE
  5
   16E
  8
0
  6
CONTINUOUS
 62
     3
 10
-208.974358283757
 20
76.1298209325001
 30
0.0
 11
-206.076580810547
 21
76.9062780889186
 31
0.0
  0
LINE
  5
   16F
  8
0
  6
CONTINUOUS
 62
     3
 10
-206.076580810547
 20
76.9062780889186
 30
0.0
 11
-208.974358283757
 21
77.6827352453372
 31
0.0
  0
ENDBLK
  5
   170
  8
0
  6
CONTINUOUS
 62
     7
  0
BLOCK
  5
   171
  8
0
  6
CONTINUOUS
 62
     7
  2
*UDIM64
 70
    65
 10
0.0
 20
0.0
 30
0.0
  3
*UDIM64
  0
TEXT
  5
   172
  8
0
  6
CONTINUOUS
 62
     7
 10
-257.288812680146
 20
-98.3429569440977
 30
0.0
 40
3.00000002980232
  1
1.3
 50
359.999999844103
 41
0.933333333333333
 72
     1
 11
-253.388812637329
 21
-96.8429569397885
 31
0.0
 73
     2
  0
LINE
  5
   173
  8
0
  6
CONTINUOUS
 62
     7
 10
-264.076580047607
 20
-88.2661857604981
 30
0.0
 11
-264.076580047607
 21
-101.34295695469
 31
0.0
  0
LINE
  5
   174
  8
0
  6
CONTINUOUS
 62
     7
 10
-262.776580047607
 20
-88.2661857604981
 30
0.0
 11
-262.776580047607
 21
-101.34295695469
 31
0.0
  0
LINE
  5
   175
  8
0
  6
CONTINUOUS
 62
     7
 10
-269.076580047607
 20
-99.3429569546896
 30
0.0
 11
-249.488812598586
 21
-99.3429569546896
 31
0.0
  0
LINE
  5
   176
  8
0
  6
CONTINUOUS
 62
     3
 10
-266.974357520818
 20
-100.119414111108
 30
0.0
 11
-264.076580047607
 21
-99.3429569546896
 31
0.0
  0
LINE
  5
   177
  8
0
  6
CONTINUOUS
 62
     3
 10
-264.076580047607
 20
-99.3429569546896
 30
0.0
 11
-266.974357520818
 21
-98.5664997982711
 31
0.0
  0
LINE
  5
   178
  8
0
  6
CONTINUOUS
 62
     3
 10
-259.878802574397
 20
-98.5664997982711
 30
0.0
 11
-262.776580047607
 21
-99.3429569546896
 31
0.0
  0
LINE
  5
   179
  8
0
  6
CONTINUOUS
 62
     3
 10
-262.776580047607
 20
-99.3429569546896
 30
0.0
 11
-259.878802574397
 21
-100.119414111108
 31
0.0
  0
ENDBLK
  5
   17A
  8
0
  6
CONTINUOUS
 62
     7
  0
ENDSEC
  0
SECTION
  2
ENTITIES
  0
LINE
  5
   17B
  8
0
  6
CONTINUOUS
 62
     2
 10
-375.118352890015
 20
64.7337799072266
 30
0.0
 11
-375.118352890015
 21
48.7337799072266
 31
0.0
  0
LINE
  5
   17C
  8
0
  6
CONTINUOUS
 62
     2
 10
-373.818353652954
 20
64.7337799072266
 30
0.0
 11
-373.818353652954
 21
48.7337799072266
 31
0.0
  0
LINE
  5
   17D
  8
0
  6
CONTINUOUS
 62
     2
 10
-350.118352890015
 20
64.7337799072266
 30
0.0
 11
-350.118352890015
 21
48.7337799072266
 31
0.0
  0
LINE
  5
   17E
  8
0
  6
CONTINUOUS
 62
     2
 10
-348.818353652954
 20
64.7337799072266
 30
0.0
 11
-348.818353652954
 21
48.7337799072266
 31
0.0
  0
LINE
  5
   17F
  8
0
  6
CONTINUOUS
 62
     2
 10
-375.118352890015
 20
64.7337799072266
 30
0.0
 11
-348.818353652954
 21
64.7337799072266
 31
0.0
  0
LINE
  5
   180
  8
0
  6
CONTINUOUS
 62
     2
 10
-373.818353652954
 20
48.7337799072266
 30
0.0
 11
-372.568354448183
 21
48.7337799072266
 31
0.0
  0
LINE
  5
   181
  8
0
  6
CONTINUOUS
 62
     2
 10
-375.818353652954
 20
48.7337799072266
 30
0.0
 11
-375.118352890015
 21
48.7337799072266
 31
0.0
  0
LINE
  5
   182
  8
0
  6
CONTINUOUS
 62
     2
 10
-348.818353652954
 20
48.7337799072266
 30
0.0
 11
-348.118352890015
 21
48.7337799072266
 31
0.0
  0
LINE
  5
   183
  8
0
  6
CONTINUOUS
 62
     2
 10
-351.368354448183
 20
48.7337799072266
 30
0.0
 11
-350.118352890015
 21
48.7337799072266
 31
0.0
  0
LINE
  5
   184
  8
0
  6
CONTINUOUS
 62
     7
 10
2128.03178405762
 20
-48.2661987304687
 30
0.0
 11
2130.0317635168
 21
-48.2661987304687
 31
0.0
  0
LINE
  5
   185
  8
0
  6
CONTINUOUS
 62
     2
 10
-375.818353652954
 20
-71.2662048339844
 30
0.0
 11
-375.118352890015
 21
-71.2662048339844
 31
0.0
  0
LINE
  5
   186
  8
0
  6
CONTINUOUS
 62
     2
 10
-375.118352890015
 20
-87.2662048339844
 30
0.0
 11
-348.818353652954
 21
-87.2662048339844
 31
0.0
  0
LINE
  5
   187
  8
0
  6
CONTINUOUS
 62
     2
 10
-348.818353652954
 20
-71.2662048339844
 30
0.0
 11
-348.818353652954
 21
-87.2662048339844
 31
0.0
  0
LINE
  5
   188
  8
0
  6
CONTINUOUS
 62
     2
 10
-350.118352890015
 20
-71.2662048339844
 30
0.0
 11
-350.118352890015
 21
-87.2662048339844
 31
0.0
  0
LINE
  5
   189
  8
0
  6
CONTINUOUS
 62
     2
 10
-373.818353652954
 20
-71.2662048339844
 30
0.0
 11
-373.818353652954
 21
-87.2662048339844
 31
0.0
  0
LINE
  5
   18A
  8
0
  6
CONTINUOUS
 62
     2
 10
-375.118352890015
 20
-71.2662048339844
 30
0.0
 11
-375.118352890015
 21
-87.2662048339844
 31
0.0
  0
LINE
  5
   18B
  8
0
  6
CONTINUOUS
 62
   130
 10
-373.818353652954
 20
-71.2662048339826
 30
0.0
 11
-359.468245433032
 21
-71.2662048339826
 31
0.0
  0
LINE
  5
   18C
  8
0
  6
CONTINUOUS
 62
   130
 10
-397.468242416378
 20
48.7337799072296
 30
0.0
 11
-375.118352890015
 21
48.7337799072296
 31
0.0
  0
LINE
  5
   18D
  8
0
  6
CONTINUOUS
 62
   130
 10
-373.818353652954
 20
48.7337799072284
 30
0.0
 11
-359.468260996993
 21
48.7337799072284
 31
0.0
  0
LINE
  5
   18E
  8
0
  6
CONTINUOUS
 62
   130
 10
-400.968211288449
 20
43.7337832479179
 30
0.0
 11
-400.968194505835
 21
-66.252777249651
 31
0.0
  0
LINE
  5
   18F
  8
0
  6
CONTINUOUS
 62
   130
 10
-400.968197631839
 20
-45.7661895751885
 30
0.0
 11
-361.968228149417
 21
-45.7661895751885
 31
0.0
  0
LINE
  5
   190
  8
0
  6
CONTINUOUS
 62
   130
 10
-371.968245506287
 20
-67.7662048339826
 30
0.0
 11
-371.968245506287
 21
-69.2662200927716
 31
0.0
  0
LINE
  5
   191
  8
0
  6
CONTINUOUS
 62
   130
 10
-372.968245506287
 20
-70.0162048339826
 30
0.0
 11
-372.968245506287
 21
-71.2662048339826
 31
0.0
  0
LINE
  5
   192
  8
0
  6
CONTINUOUS
 62
   130
 10
-375.968245506287
 20
-70.0161895751935
 30
0.0
 11
-375.968245506287
 21
-71.2662048339826
 31
0.0
  0
LINE
  5
   193
  8
0
  6
CONTINUOUS
 62
   130
 10
-376.968245506287
 20
-67.7662048339826
 30
0.0
 11
-376.968245506287
 21
-69.2662200927716
 31
0.0
  0
LINE
  5
   194
  8
0
  6
CONTINUOUS
 62
   130
 10
-376.968246459961
 20
46.4837799072284
 30
0.0
 11
-376.968246459961
 21
45.2337799072284
 31
0.0
  0
LINE
  5
   195
  8
0
  6
CONTINUOUS
 62
   130
 10
-375.968246459961
 20
48.7337799072284
 30
0.0
 11
-375.968246459961
 21
47.4837799072284
 31
0.0
  0
LINE
  5
   196
  8
0
  6
CONTINUOUS
 62
   130
 10
-372.968246459961
 20
48.7337799072284
 30
0.0
 11
-372.968246459961
 21
47.4837799072284
 31
0.0
  0
LINE
  5
   197
  8
0
  6
CONTINUOUS
 62
   130
 10
-371.968244743371
 20
46.4837722778951
 30
0.0
 11
-371.968245697045
 21
45.2337722778948
 31
0.0
  0
LINE
  5
   198
  8
0
  6
CONTINUOUS
 62
   130
 10
-363.218246459961
 20
48.7337951660174
 30
0.0
 11
-360.718247413635
 21
48.7337951660174
 31
0.0
  0
CIRCLE
  5
   199
  8
0
  6
CONTINUOUS
 62
   130
 10
-374.468267341877
 20
38.7338458009087
 30
0.0
 40
4.4999575073053
  0
LINE
  5
   19A
  8
0
  6
CONTINUOUS
 62
   130
 10
-400.968204498293
 20
-0.766189575200357
 30
0.0
 11
-361.968235015871
 21
-0.766189575200357
 31
0.0
  0
CIRCLE
  5
   19B
  8
0
  6
CONTINUOUS
 62
   130
 10
-386.968245433032
 20
-68.2662048339826
 30
0.0
 40
1.25
  0
ARC
  5
   19C
  8
0
  6
CONTINUOUS
 62
   130
 10
-361.968245433032
 20
-68.2662048339826
 30
0.0
 40
1.25
 50
449.999999844103
 51
629.999999844103
  0
ARC
  5
   19D
  8
0
  6
CONTINUOUS
 62
   130
 10
-361.968260996993
 20
45.7337799072284
 30
0.0
 40
1.25
 50
449.999999844103
 51
629.999999844103
  0
CIRCLE
  5
   19E
  8
0
  6
CONTINUOUS
 62
   130
 10
-386.968223225408
 20
45.7337707519626
 30
0.0
 40
1.25
  0
LINE
  5
   19F
  8
0
  6
CONTINUOUS
 62
   130
 10
-369.468246140901
 20
-9.13018613398508
 30
0.0
 11
-355.323800595511
 21
-9.13018613398508
 31
0.0
  0
LINE
  5
   1A0
  8
0
  6
CONTINUOUS
 62
   130
 10
-372.968274580351
 20
48.7337799072284
 30
0.0
 11
-372.968274580351
 21
46.7337799072284
 31
0.0
  0
LINE
  5
   1A1
  8
0
  6
CONTINUOUS
 62
   130
 10
-375.968274580351
 20
48.7337799072284
 30
0.0
 11
-375.968274580351
 21
46.7337799072284
 31
0.0
  0
LINE
  5
   1A2
  8
0
  6
CONTINUOUS
 62
   130
 10
-376.968275534015
 20
46.7337799072283
 30
0.0
 11
-376.968274389597
 21
45.2337684632001
 31
0.0
  0
LINE
  5
   1A3
  8
0
  6
CONTINUOUS
 62
   130
 10
-371.968274580351
 20
46.7337799072284
 30
0.0
 11
-371.968274580351
 21
45.2337799072284
 31
0.0
  0
LINE
  5
   1A4
  8
0
  6
CONTINUOUS
 62
   130
 10
-376.968274580351
 20
45.2337799072284
 30
0.0
 11
-371.968246459961
 21
45.2337799072284
 31
0.0
  0
LINE
  5
   1A5
  8
0
  6
CONTINUOUS
 62
   130
 10
-372.968274580351
 20
46.7337799072284
 30
0.0
 11
-371.968274580351
 21
46.7337799072284
 31
0.0
  0
LINE
  5
   1A6
  8
0
  6
CONTINUOUS
 62
   130
 10
-376.968275534015
 20
46.7337799072284
 30
0.0
 11
-375.968274580351
 21
46.7337799072284
 31
0.0
  0
LINE
  5
   1A7
  8
0
  6
CONTINUOUS
 62
   130
 10
-375.968274580351
 20
-69.2662200927716
 30
0.0
 11
-375.968274580351
 21
-71.2662200927716
 31
0.0
  0
LINE
  5
   1A8
  8
0
  6
CONTINUOUS
 62
   130
 10
-372.968274580351
 20
-69.2662200927716
 30
0.0
 11
-372.968274580351
 21
-71.2662200927716
 31
0.0
  0
LINE
  5
   1A9
  8
0
  6
CONTINUOUS
 62
   130
 10
-376.968275534015
 20
-69.2662200927716
 30
0.0
 11
-375.968274580351
 21
-69.2662200927716
 31
0.0
  0
LINE
  5
   1AA
  8
0
  6
CONTINUOUS
 62
   130
 10
-372.968274580351
 20
-69.2662200927716
 30
0.0
 11
-371.968274580351
 21
-69.2662200927716
 31
0.0
  0
LINE
  5
   1AB
  8
0
  6
CONTINUOUS
 62
   130
 10
-369.468246212007
 20
-7.26618957520036
 30
0.0
 11
-369.4682451854
 21
-34.1780403698295
 31
0.0
  0
LINE
  5
   1AC
  8
0
  6
CONTINUOUS
 62
   130
 10
-369.4682451854
 20
-34.1780403698295
 30
0.0
 11
-368.4682451854
 21
-34.1780403698295
 31
0.0
  0
LINE
  5
   1AD
  8
0
  6
CONTINUOUS
 62
   130
 10
-369.468245199751
 20
-33.8018368846356
 30
0.0
 11
-368.468245199751
 21
-33.8018368846356
 31
0.0
  0
LINE
  5
   1AE
  8
0
  6
CONTINUOUS
 62
   130
 10
-400.96820327759
 20
-8.76618957520036
 30
0.0
 11
-369.468246154786
 21
-8.76618957520036
 31
0.0
  0
LINE
  5
   1AF
  8
0
  6
CONTINUOUS
 62
   130
 10
-400.968198623661
 20
-39.2661895751885
 30
0.0
 11
-387.568228912354
 21
-39.2661895751885
 31
0.0
  0
LINE
  5
   1B0
  8
0
  6
CONTINUOUS
 62
   130
 10
-400.968198852542
 20
-37.7661895751885
 30
0.0
 11
-368.468245048523
 21
-37.7661895751885
 31
0.0
  0
LINE
  5
   1B1
  8
0
  6
CONTINUOUS
 62
   130
 10
-377.568228912354
 20
-39.2661895751885
 30
0.0
 11
-322.968263778685
 21
-39.2661895751885
 31
0.0
  0
LINE
  5
   1B2
  8
0
  6
CONTINUOUS
 62
   130
 10
-368.468245383467
 20
-28.9858453196286
 30
0.0
 11
-368.468245062536
 21
-37.3988565158998
 31
0.0
  0
CIRCLE
  5
   1B3
  8
0
  6
CONTINUOUS
 62
   130
 10
-361.968260996993
 20
39.9337882804667
 30
0.0
 40
3.0
  0
CIRCLE
  5
   1B4
  8
0
  6
CONTINUOUS
 62
   130
 10
-361.968260996993
 20
-62.46622846601
 30
0.0
 40
3.0
  0
ARC
  5
   1B5
  8
0
  6
CONTINUOUS
 62
   130
 10
-397.468242416378
 20
47.7337834005011
 30
0.0
 40
1.0
 50
449.999999844103
 51
540.000008586744
  0
LINE
  5
   1B6
  8
0
  6
CONTINUOUS
 62
   130
 10
-399.968240356439
 20
34.2337681417121
 30
0.0
 11
-399.968240127558
 21
32.7337681417121
 31
0.0
  0
LINE
  5
   1B7
  8
0
  6
CONTINUOUS
 62
   130
 10
-399.968240356439
 20
34.2337681417121
 30
0.0
 11
-361.968260996993
 21
34.2337681417121
 31
0.0
  0
LINE
  5
   1B8
  8
0
  6
CONTINUOUS
 62
   130
 10
-400.96820960998
 20
32.7337681417121
 30
0.0
 11
-361.968231201172
 21
32.7337681417121
 31
0.0
  0
LINE
  5
   1B9
  8
0
  6
CONTINUOUS
 62
   130
 10
-398.468242416378
 20
47.7337832479133
 30
0.0
 11
-398.468241958614
 21
44.7337834005011
 31
0.0
  0
LINE
  5
   1BA
  8
0
  6
CONTINUOUS
 62
   130
 10
-399.968241806026
 20
44.7337834005011
 30
0.0
 11
-398.468241958614
 21
44.7337834005011
 31
0.0
  0
ARC
  5
   1BB
  8
0
  6
CONTINUOUS
 62
   130
 10
-399.968241806026
 20
43.7337834005011
 30
0.0
 40
1.0
 50
449.999999844103
 51
540.000008586744
  0
CIRCLE
  5
   1BC
  8
0
  6
CONTINUOUS
 62
   130
 10
-386.968260996993
 20
39.9337882804667
 30
0.0
 40
3.0
  0
CIRCLE
  5
   1BD
  8
0
  6
CONTINUOUS
 62
   130
 10
-386.968260996993
 20
-62.46622846601
 30
0.0
 40
3.0
  0
LINE
  5
   1BE
  8
0
  6
CONTINUOUS
 62
   130
 10
-364.468216969314
 20
-71.2662048339826
 30
0.0
 11
-350.118352890015
 21
-71.2662048339826
 31
0.0
  0
LINE
  5
   1BF
  8
0
  6
CONTINUOUS
 62
   130
 10
-348.818353652954
 20
-71.2662048339826
 30
0.0
 11
-326.468219985968
 21
-71.2662048339826
 31
0.0
  0
LINE
  5
   1C0
  8
0
  6
CONTINUOUS
 62
   130
 10
-348.818353652954
 20
48.7337799072296
 30
0.0
 11
-326.468219985968
 21
48.7337799072296
 31
0.0
  0
LINE
  5
   1C1
  8
0
  6
CONTINUOUS
 62
   130
 10
-364.468201405352
 20
48.7337799072284
 30
0.0
 11
-350.118352890015
 21
48.7337799072284
 31
0.0
  0
LINE
  5
   1C2
  8
0
  6
CONTINUOUS
 62
   130
 10
-322.968251113897
 20
43.7337832479179
 30
0.0
 11
-322.968267897367
 21
-66.2583890530017
 31
0.0
  0
LINE
  5
   1C3
  8
0
  6
CONTINUOUS
 62
   130
 10
-351.968216896059
 20
-67.7662048339826
 30
0.0
 11
-351.968216896059
 21
-69.2662200927716
 31
0.0
  0
LINE
  5
   1C4
  8
0
  6
CONTINUOUS
 62
   130
 10
-350.968216896059
 20
-70.0162048339826
 30
0.0
 11
-350.968216896059
 21
-71.2662048339826
 31
0.0
  0
LINE
  5
   1C5
  8
0
  6
CONTINUOUS
 62
   130
 10
-347.968216896059
 20
-70.0161895751935
 30
0.0
 11
-347.968216896059
 21
-71.2662048339826
 31
0.0
  0
LINE
  5
   1C6
  8
0
  6
CONTINUOUS
 62
   130
 10
-346.968216896059
 20
-67.7662048339826
 30
0.0
 11
-346.968216896059
 21
-69.2662200927716
 31
0.0
  0
LINE
  5
   1C7
  8
0
  6
CONTINUOUS
 62
   130
 10
-346.968215942385
 20
46.4837799072284
 30
0.0
 11
-346.968215942385
 21
45.2337799072284
 31
0.0
  0
LINE
  5
   1C8
  8
0
  6
CONTINUOUS
 62
   130
 10
-347.968215942385
 20
48.7337799072284
 30
0.0
 11
-347.968215942385
 21
47.4837799072284
 31
0.0
  0
LINE
  5
   1C9
  8
0
  6
CONTINUOUS
 62
   130
 10
-350.968215942385
 20
48.7337799072284
 30
0.0
 11
-350.968215942385
 21
47.4837799072284
 31
0.0
  0
LINE
  5
   1CA
  8
0
  6
CONTINUOUS
 62
   130
 10
-351.968217658975
 20
46.4837722778951
 30
0.0
 11
-351.9682167053
 21
45.2337722778948
 31
0.0
  0
LINE
  5
   1CB
  8
0
  6
CONTINUOUS
 62
   130
 10
-363.21821498871
 20
48.7337951660174
 30
0.0
 11
-360.718215942385
 21
48.7337951660174
 31
0.0
  0
CIRCLE
  5
   1CC
  8
0
  6
CONTINUOUS
 62
   130
 10
-349.468195060469
 20
38.7338458009087
 30
0.0
 40
4.4999575073053
  0
CIRCLE
  5
   1CD
  8
0
  6
CONTINUOUS
 62
   130
 10
-336.968216969314
 20
-68.2662048339826
 30
0.0
 40
1.25
  0
ARC
  5
   1CE
  8
0
  6
CONTINUOUS
 62
   130
 10
-361.968216969314
 20
-68.2662048339826
 30
0.0
 40
1.25
 50
269.999999844103
 51
449.999999844104
  0
ARC
  5
   1CF
  8
0
  6
CONTINUOUS
 62
   130
 10
-361.968201405352
 20
45.7337799072284
 30
0.0
 40
1.25
 50
269.999999844103
 51
449.999999844103
  0
CIRCLE
  5
   1D0
  8
0
  6
CONTINUOUS
 62
   130
 10
-336.968239176937
 20
45.7337707519626
 30
0.0
 40
1.25
  0
LINE
  5
   1D1
  8
0
  6
CONTINUOUS
 62
   130
 10
-355.468216261445
 20
-9.13018613398508
 30
0.0
 11
-354.468216261445
 21
-9.13018613398508
 31
0.0
  0
LINE
  5
   1D2
  8
0
  6
CONTINUOUS
 62
   130
 10
-350.968187821994
 20
48.7337799072284
 30
0.0
 11
-350.968187821994
 21
46.7337799072284
 31
0.0
  0
LINE
  5
   1D3
  8
0
  6
CONTINUOUS
 62
   130
 10
-347.968187821994
 20
48.7337799072284
 30
0.0
 11
-347.968187821994
 21
46.7337799072284
 31
0.0
  0
LINE
  5
   1D4
  8
0
  6
CONTINUOUS
 62
   130
 10
-346.968186868331
 20
46.7337799072283
 30
0.0
 11
-346.968188012748
 21
45.2337684632001
 31
0.0
  0
LINE
  5
   1D5
  8
0
  6
CONTINUOUS
 62
   130
 10
-351.968187821994
 20
46.7337799072284
 30
0.0
 11
-351.968187821994
 21
45.2337799072284
 31
0.0
  0
LINE
  5
   1D6
  8
0
  6
CONTINUOUS
 62
   130
 10
-351.968187821994
 20
46.7337799072284
 30
0.0
 11
-350.968187821994
 21
46.7337799072284
 31
0.0
  0
LINE
  5
   1D7
  8
0
  6
CONTINUOUS
 62
   130
 10
-347.968187821994
 20
46.7337799072284
 30
0.0
 11
-346.968186868331
 21
46.7337799072284
 31
0.0
  0
LINE
  5
   1D8
  8
0
  6
CONTINUOUS
 62
   130
 10
-347.968187821994
 20
-69.2662200927716
 30
0.0
 11
-347.968187821994
 21
-71.2662200927716
 31
0.0
  0
LINE
  5
   1D9
  8
0
  6
CONTINUOUS
 62
   130
 10
-350.968187821994
 20
-69.2662200927716
 30
0.0
 11
-350.968187821994
 21
-71.2662200927716
 31
0.0
  0
LINE
  5
   1DA
  8
0
  6
CONTINUOUS
 62
   130
 10
-347.968187821994
 20
-69.2662200927716
 30
0.0
 11
-346.968186868331
 21
-69.2662200927716
 31
0.0
  0
LINE
  5
   1DB
  8
0
  6
CONTINUOUS
 62
   130
 10
-351.968187821994
 20
-69.2662200927716
 30
0.0
 11
-350.968187821994
 21
-69.2662200927716
 31
0.0
  0
LINE
  5
   1DC
  8
0
  6
CONTINUOUS
 62
   130
 10
-354.468216190339
 20
-7.26618957520036
 30
0.0
 11
-354.468217216945
 21
-34.1780403698295
 31
0.0
  0
LINE
  5
   1DD
  8
0
  6
CONTINUOUS
 62
   130
 10
-355.468217216945
 20
-34.1780403698295
 30
0.0
 11
-354.468217216945
 21
-34.1780403698295
 31
0.0
  0
LINE
  5
   1DE
  8
0
  6
CONTINUOUS
 62
   130
 10
-355.468217202594
 20
-33.8018368846356
 30
0.0
 11
-354.468217202594
 21
-33.8018368846356
 31
0.0
  0
LINE
  5
   1DF
  8
0
  6
CONTINUOUS
 62
   130
 10
-400.968203506472
 20
-7.26618957520036
 30
0.0
 11
-322.968258895874
 21
-7.26618957520036
 31
0.0
  0
LINE
  5
   1E0
  8
0
  6
CONTINUOUS
 62
   130
 10
-354.468216247559
 20
-8.76618957520036
 30
0.0
 11
-322.968259124755
 21
-8.76618957520036
 31
0.0
  0
LINE
  5
   1E1
  8
0
  6
CONTINUOUS
 62
   130
 10
-355.468217018878
 20
-28.9858453196286
 30
0.0
 11
-355.46821733981
 21
-37.3988565158998
 31
0.0
  0
CIRCLE
  5
   1E2
  8
0
  6
CONTINUOUS
 62
   130
 10
-361.968201405352
 20
39.9337882804667
 30
0.0
 40
3.0
  0
LINE
  5
   1E3
  8
0
  6
CONTINUOUS
 62
   130
 10
-361.968237876894
 20
-56.7662013407098
 30
0.0
 11
-323.968222045906
 21
-56.7662013407098
 31
0.0
  0
ARC
  5
   1E4
  8
0
  6
CONTINUOUS
 62
   130
 10
-326.468219985968
 20
47.7337834005011
 30
0.0
 40
1.0
 50
359.999991101463
 51
449.999999844103
  0
ARC
  5
   1E5
  8
0
  6
CONTINUOUS
 62
   130
 10
-326.468219985968
 20
-70.2662165994989
 30
0.0
 40
1.0
 50
269.999999844103
 51
360.000008586744
  0
LINE
  5
   1E6
  8
0
  6
CONTINUOUS
 62
   130
 10
-325.468222045906
 20
-56.7662013407098
 30
0.0
 11
-325.468220443734
 21
-67.2662013407098
 31
0.0
  0
LINE
  5
   1E7
  8
0
  6
CONTINUOUS
 62
   130
 10
-361.968216969314
 20
-55.2662013407098
 30
0.0
 11
-322.968266220093
 21
-55.2662013407098
 31
0.0
  0
LINE
  5
   1E8
  8
0
  6
CONTINUOUS
 62
   130
 10
-323.968222274788
 20
-55.2662013407098
 30
0.0
 11
-323.968222045906
 21
-56.7662013407098
 31
0.0
  0
LINE
  5
   1E9
  8
0
  6
CONTINUOUS
 62
   130
 10
-323.968222045906
 20
34.2337681417121
 30
0.0
 11
-323.968222274788
 21
32.7337681417121
 31
0.0
  0
LINE
  5
   1EA
  8
0
  6
CONTINUOUS
 62
   130
 10
-361.968201405352
 20
34.2337681417121
 30
0.0
 11
-323.968222045906
 21
34.2337681417121
 31
0.0
  0
LINE
  5
   1EB
  8
0
  6
CONTINUOUS
 62
   130
 10
-361.968231201174
 20
32.7337681417121
 30
0.0
 11
-322.968252792366
 21
32.7337681417121
 31
0.0
  0
LINE
  5
   1EC
  8
0
  6
CONTINUOUS
 62
   130
 10
-325.468219985968
 20
47.7337832479133
 30
0.0
 11
-325.468220443732
 21
44.7337834005011
 31
0.0
  0
LINE
  5
   1ED
  8
0
  6
CONTINUOUS
 62
   130
 10
-325.468220443732
 20
44.7337834005011
 30
0.0
 11
-323.968220596319
 21
44.7337834005011
 31
0.0
  0
LINE
  5
   1EE
  8
0
  6
CONTINUOUS
 62
   130
 10
-325.468220443734
 20
-67.2662013407098
 30
0.0
 11
-323.968237380982
 21
-67.2662013407098
 31
0.0
  0
ARC
  5
   1EF
  8
0
  6
CONTINUOUS
 62
   130
 10
-323.968220596319
 20
43.7337834005011
 30
0.0
 40
1.0
 50
359.999991101463
 51
449.999999844103
  0
ARC
  5
   1F0
  8
0
  6
CONTINUOUS
 62
   130
 10
-323.968237380982
 20
-66.2662013407098
 30
0.0
 40
1.0
 50
269.999999844103
 51
360.447615511331
  0
CIRCLE
  5
   1F1
  8
0
  6
CONTINUOUS
 62
   130
 10
-336.968201405352
 20
39.9337882804667
 30
0.0
 40
3.0
  0
CIRCLE
  5
   1F2
  8
0
  6
CONTINUOUS
 62
   130
 10
-336.968201405352
 20
-62.46622846601
 30
0.0
 40
3.0
  0
LINE
  5
   1F3
  8
0
  6
DASHDOT
 62
   130
 10
-358.368248212387
 20
38.7337728708558
 30
0.0
 11
-335.568248212387
 21
38.7337728708558
 31
0.0
  0
LINE
  5
   1F4
  8
0
  6
DASHDOT
 62
   130
 10
-361.968201405352
 20
53.5060539917841
 30
0.0
 11
-361.968201405352
 21
-51.1288615882541
 31
0.0
  0
LINE
  5
   1F5
  8
0
  6
DASHDOT
 62
   130
 10
-366.901973509601
 20
39.9337882804667
 30
0.0
 11
-356.339779682277
 21
39.9337882804667
 31
0.0
  0
LINE
  5
   1F6
  8
0
  6
DASHDOT
 62
   130
 10
-386.968260996993
 20
52.9337882804667
 30
0.0
 11
-386.968260996993
 21
26.9337882804667
 31
0.0
  0
LINE
  5
   1F7
  8
0
  6
DASHDOT
 62
   130
 10
-392.60642751415
 20
39.9337882804667
 30
0.0
 11
-381.016055526644
 21
39.9337882804667
 31
0.0
  0
LINE
  5
   1F8
  8
0
  6
DASHDOT
 62
   130
 10
-336.968201405352
 20
52.9337882804667
 30
0.0
 11
-336.968201405352
 21
26.9337882804667
 31
0.0
  0
LINE
  5
   1F9
  8
0
  6
DASHDOT
 62
   130
 10
-341.851814697895
 20
39.9337882804667
 30
0.0
 11
-331.850445321579
 21
39.9337882804667
 31
0.0
  0
LINE
  5
   1FA
  8
0
  6
DASHDOT
 62
   130
 10
-386.968260996993
 20
-58.0774699474264
 30
0.0
 11
-386.968260996993
 21
-75.46622846601
 31
0.0
  0
LINE
  5
   1FB
  8
0
  6
DASHDOT
 62
   130
 10
-393.625733512086
 20
-62.46622846601
 30
0.0
 11
-380.823307756152
 21
-62.46622846601
 31
0.0
  0
LINE
  5
   1FC
  8
0
  6
DASHDOT
 62
   130
 10
-391.218215991196
 20
-61.2661722284693
 30
0.0
 11
-362.718082502362
 21
-61.2661722284693
 31
0.0
  0
LINE
  5
   1FD
  8
0
  6
DASHDOT
 62
   130
 10
-361.968260996993
 20
-49.46622846601
 30
0.0
 11
-361.968260996993
 21
-92.8580507848774
 31
0.0
  0
LINE
  5
   1FE
  8
0
  6
DASHDOT
 62
   130
 10
-368.762075070298
 20
-62.46622846601
 30
0.0
 11
-355.061233471842
 21
-62.46622846601
 31
0.0
  0
LINE
  5
   1FF
  8
0
  6
DASHDOT
 62
   130
 10
-366.218379899984
 20
-61.2661722284693
 30
0.0
 11
-337.71824641115
 21
-61.2661722284693
 31
0.0
  0
LINE
  5
   200
  8
0
  6
DASHDOT
 62
   130
 10
-336.968201405352
 20
-58.0774699474264
 30
0.0
 11
-336.968201405352
 21
-75.46622846601
 31
0.0
  0
LINE
  5
   201
  8
0
  6
DASHDOT
 62
   130
 10
-344.968201405352
 20
-62.46622846601
 30
0.0
 11
-327.682010670993
 21
-62.46622846601
 31
0.0
  0
LINE
  5
   202
  8
0
  6
DASHDOT
 62
   130
 10
-349.468195060469
 20
53.233803308214
 30
0.0
 11
-349.468195060469
 21
24.2338882936034
 31
0.0
  0
INSERT
  5
   203
  8
255
  6
CONTINUOUS
 62
   130
  2
SSS
 10
-349.468195060469
 20
38.7338458009087
 30
0.0
 50
359.999999792138
  0
INSERT
  5
   204
  8
0
  6
CONTINUOUS
 62
   130
  2
SSS
 10
-374.468149246779
 20
-61.2661722284693
 30
0.0
 50
359.999999792138
  0
LINE
  5
   205
  8
0
  6
DASHDOT
 62
   130
 10
-410.508571423199
 20
-23.2661895752004
 30
0.0
 11
-310.970881131958
 21
-23.2661895752004
 31
0.0
  0
LINE
  5
   206
  8
0
  6
CONTINUOUS
 62
   130
 10
-368.468245383467
 20
-28.9858453196286
 30
0.0
 11
-355.468217018878
 21
-28.9858453196286
 31
0.0
  0
LINE
  5
   207
  8
0
  6
CONTINUOUS
 62
   130
 10
-367.968245154746
 20
-34.4816414763952
 30
0.0
 11
-355.9682172476
 21
-34.4816414763952
 31
0.0
  0
LINE
  5
   208
  8
0
  6
CONTINUOUS
 62
   130
 10
-367.968245062536
 20
-37.8988564968263
 30
0.0
 11
-355.96821733981
 21
-37.8988564968263
 31
0.0
  0
LINE
  5
   209
  8
0
  6
CONTINUOUS
 62
   130
 10
-355.468217353822
 20
-37.7661895751885
 30
0.0
 11
-322.968263549803
 21
-37.7661895751885
 31
0.0
  0
ARC
  5
   20A
  8
0
  6
CONTINUOUS
 62
   130
 10
-367.968245062536
 20
-37.3988564968263
 30
0.0
 40
0.5
 50
540.000002029765
 51
629.999999844103
  0
ARC
  5
   20B
  8
0
  6
CONTINUOUS
 62
   130
 10
-355.96821733981
 20
-37.3988564968263
 30
0.0
 40
0.5
 50
269.999999844103
 51
359.999997658442
  0
ARC
  5
   20C
  8
0
  6
CONTINUOUS
 62
   130
 10
-355.9682172476
 20
-34.9816414763952
 30
0.0
 40
0.5
 50
359.999997658442
 51
449.999999844103
  0
ARC
  5
   20D
  8
0
  6
CONTINUOUS
 62
   130
 10
-367.968245154746
 20
-34.9816414763952
 30
0.0
 40
0.5
 50
449.999999844103
 51
540.000002029765
  0
CIRCLE
  5
   20E
  8
0
  6
CONTINUOUS
 62
   130
 10
-374.468149246779
 20
-61.2661722284693
 30
0.0
 40
4.4999575073053
  0
LINE
  5
   20F
  8
0
  6
CONTINUOUS
 62
   130
 10
-361.968234252929
 20
-45.7661895751885
 30
0.0
 11
-322.968264770506
 21
-45.7661895751885
 31
0.0
  0
LINE
  5
   210
  8
0
  6
CONTINUOUS
 62
   130
 10
-361.968227386475
 20
-0.766189575200357
 30
0.0
 11
-322.968257904052
 21
-0.766189575200357
 31
0.0
  0
LINE
  5
   211
  8
0
  6
DASHDOT
 62
   130
 10
-411.707511787874
 20
-23.2661895752004
 30
0.0
 11
-308.970881131958
 21
-23.2661895752004
 31
0.0
  0
LINE
  5
   212
  8
0
  6
CONTINUOUS
 62
   130
 10
-375.736938476563
 20
-10.9100427340225
 30
0.0
 11
-374.986938476563
 21
-10.9100427340225
 31
0.0
  0
LINE
  5
   213
  8
0
  6
CONTINUOUS
 62
   130
 10
-375.736938476563
 20
-15.4100427340225
 30
0.0
 11
-374.986938476563
 21
-15.4100427340225
 31
0.0
  0
CIRCLE
  5
   214
  8
0
  6
CONTINUOUS
 62
   130
 10
-375.361938476563
 20
-29.9100427340225
 30
0.0
 40
2.25
  0
CIRCLE
  5
   215
  8
0
  6
CONTINUOUS
 62
   130
 10
-375.361938476563
 20
-29.9100427340225
 30
0.0
 40
1.5
  0
LINE
  5
   216
  8
0
  6
CONTINUOUS
 62
   130
 10
-375.736938476563
 20
-10.9100427340225
 30
0.0
 11
-375.736938476563
 21
-15.4100427340225
 31
0.0
  0
LINE
  5
   217
  8
0
  6
CONTINUOUS
 62
   130
 10
-374.986938476563
 20
-10.9100427340225
 30
0.0
 11
-374.986938476563
 21
-15.4100427340225
 31
0.0
  0
LINE
  5
   218
  8
0
  6
CONTINUOUS
 62
   130
 10
-347.186943359375
 20
-27.9850427340225
 30
0.0
 11
-346.961943359375
 21
-27.9850427340225
 31
0.0
  0
LINE
  5
   219
  8
0
  6
CONTINUOUS
 62
   130
 10
-347.836943359375
 20
-31.8350427340225
 30
0.0
 11
-347.436943359375
 21
-31.8350427340225
 31
0.0
  0
LINE
  5
   21A
  8
0
  6
CONTINUOUS
 62
   130
 10
-348.436943359375
 20
-30.2850427340225
 30
0.0
 11
-348.436943359375
 21
-30.5350427340225
 31
0.0
  0
ARC
  5
   21B
  8
0
  6
CONTINUOUS
 62
   130
 10
-349.736943359375
 20
-30.2850427340225
 30
0.0
 40
1.3
 50
359.999999844103
 51
539.999999844103
  0
ARC
  5
   21C
  8
0
  6
CONTINUOUS
 62
   130
 10
-349.736943359375
 20
-30.5350427340225
 30
0.0
 40
1.3
 50
539.999999844103
 51
719.999999844103
  0
ARC
  5
   21D
  8
0
  6
CONTINUOUS
 62
   130
 10
-349.736943359375
 20
-30.2850427340225
 30
0.0
 40
0.900000000000001
 50
359.999999844103
 51
539.999999844103
  0
ARC
  5
   21E
  8
0
  6
CONTINUOUS
 62
   130
 10
-349.736943359375
 20
-30.5350427340225
 30
0.0
 40
0.899999999999999
 50
539.999999844103
 51
719.999999844103
  0
LINE
  5
   21F
  8
0
  6
CONTINUOUS
 62
   130
 10
-348.836943359375
 20
-30.2850427340225
 30
0.0
 11
-348.836943359375
 21
-30.5350427340225
 31
0.0
  0
LINE
  5
   220
  8
0
  6
CONTINUOUS
 62
   130
 10
-348.311943359375
 20
-29.1850427340225
 30
0.0
 11
-348.311943359375
 21
-29.5850427340225
 31
0.0
  0
LINE
  5
   221
  8
0
  6
CONTINUOUS
 62
   130
 10
-348.311943359375
 20
-29.5850427340225
 30
0.0
 11
-347.836943359375
 21
-29.5850427340225
 31
0.0
  0
LINE
  5
   222
  8
0
  6
CONTINUOUS
 62
   130
 10
-346.961943359375
 20
-29.1850427340225
 30
0.0
 11
-346.961943359375
 21
-29.5850427340225
 31
0.0
  0
LINE
  5
   223
  8
0
  6
CONTINUOUS
 62
   130
 10
-348.311943359375
 20
-29.1850427340225
 30
0.0
 11
-347.836943359375
 21
-29.1850427340225
 31
0.0
  0
LINE
  5
   224
  8
0
  6
CONTINUOUS
 62
   130
 10
-347.836943359375
 20
-29.5850427340225
 30
0.0
 11
-347.836943359375
 21
-31.8350427340225
 31
0.0
  0
LINE
  5
   225
  8
0
  6
CONTINUOUS
 62
   130
 10
-347.436943359375
 20
-29.5850427340225
 30
0.0
 11
-347.436943359375
 21
-31.8350427340225
 31
0.0
  0
LINE
  5
   226
  8
0
  6
CONTINUOUS
 62
   130
 10
-347.436943359375
 20
-29.5850427340225
 30
0.0
 11
-346.961943359375
 21
-29.5850427340225
 31
0.0
  0
LINE
  5
   227
  8
0
  6
CONTINUOUS
 62
   130
 10
-347.436943359375
 20
-29.1850427340225
 30
0.0
 11
-346.961943359375
 21
-29.1850427340225
 31
0.0
  0
LINE
  5
   228
  8
0
  6
CONTINUOUS
 62
   130
 10
-347.836943359375
 20
-28.6350427340225
 30
0.0
 11
-347.836943359375
 21
-29.1850427340225
 31
0.0
  0
LINE
  5
   229
  8
0
  6
CONTINUOUS
 62
   130
 10
-347.436943359375
 20
-28.6350427340225
 30
0.0
 11
-347.436943359375
 21
-29.1850427340225
 31
0.0
  0
ARC
  5
   22A
  8
0
  6
CONTINUOUS
 62
   130
 10
-347.186943359375
 20
-28.6350427340225
 30
0.0
 40
0.65
 50
449.999999844103
 51
539.999999844103
  0
ARC
  5
   22B
  8
0
  6
CONTINUOUS
 62
   130
 10
-347.186943359375
 20
-28.6350427340225
 30
0.0
 40
0.25
 50
449.999999844103
 51
539.999999844103
  0
LINE
  5
   22C
  8
0
  6
CONTINUOUS
 62
   130
 10
-346.961943359375
 20
-27.9850427340225
 30
0.0
 11
-346.961943359375
 21
-28.3850427340225
 31
0.0
  0
LINE
  5
   22D
  8
0
  6
CONTINUOUS
 62
   130
 10
-347.186943359375
 20
-28.3850427340225
 30
0.0
 11
-346.961943359375
 21
-28.3850427340225
 31
0.0
  0
LINE
  5
   22E
  8
0
  6
CONTINUOUS
 62
   130
 10
-346.236943359375
 20
-31.8350427340225
 30
0.0
 11
-345.836943359375
 21
-31.8350427340225
 31
0.0
  0
LINE
  5
   22F
  8
0
  6
CONTINUOUS
 62
   130
 10
-346.711943359375
 20
-29.1850427340225
 30
0.0
 11
-346.711943359375
 21
-29.5850427340225
 31
0.0
  0
LINE
  5
   230
  8
0
  6
CONTINUOUS
 62
   130
 10
-346.711943359375
 20
-29.5850427340225
 30
0.0
 11
-346.236943359375
 21
-29.5850427340225
 31
0.0
  0
LINE
  5
   231
  8
0
  6
CONTINUOUS
 62
   130
 10
-345.361943359375
 20
-29.1850427340225
 30
0.0
 11
-345.361943359375
 21
-29.5850427340225
 31
0.0
  0
LINE
  5
   232
  8
0
  6
CONTINUOUS
 62
   130
 10
-346.711943359375
 20
-29.1850427340225
 30
0.0
 11
-346.236943359375
 21
-29.1850427340225
 31
0.0
  0
LINE
  5
   233
  8
0
  6
CONTINUOUS
 62
   130
 10
-346.236943359375
 20
-29.5850427340225
 30
0.0
 11
-346.236943359375
 21
-31.8350427340225
 31
0.0
  0
LINE
  5
   234
  8
0
  6
CONTINUOUS
 62
   130
 10
-345.836943359375
 20
-29.5850427340225
 30
0.0
 11
-345.836943359375
 21
-31.8350427340225
 31
0.0
  0
LINE
  5
   235
  8
0
  6
CONTINUOUS
 62
   130
 10
-345.836943359375
 20
-29.5850427340225
 30
0.0
 11
-345.361943359375
 21
-29.5850427340225
 31
0.0
  0
LINE
  5
   236
  8
0
  6
CONTINUOUS
 62
   130
 10
-345.836943359375
 20
-29.1850427340225
 30
0.0
 11
-345.361943359375
 21
-29.1850427340225
 31
0.0
  0
LINE
  5
   237
  8
0
  6
CONTINUOUS
 62
   130
 10
-346.236943359375
 20
-28.6350427340225
 30
0.0
 11
-346.236943359375
 21
-29.1850427340225
 31
0.0
  0
LINE
  5
   238
  8
0
  6
CONTINUOUS
 62
   130
 10
-345.836943359375
 20
-28.6350427340225
 30
0.0
 11
-345.836943359375
 21
-29.1850427340225
 31
0.0
  0
ARC
  5
   239
  8
0
  6
CONTINUOUS
 62
   130
 10
-345.586943359375
 20
-28.6350427340225
 30
0.0
 40
0.65
 50
449.999999844103
 51
539.999999844103
  0
ARC
  5
   23A
  8
0
  6
CONTINUOUS
 62
   130
 10
-345.586943359375
 20
-28.6350427340225
 30
0.0
 40
0.25
 50
449.999999844103
 51
539.999999844103
  0
LINE
  5
   23B
  8
0
  6
CONTINUOUS
 62
   130
 10
-345.361943359375
 20
-27.9850427340225
 30
0.0
 11
-345.361943359375
 21
-28.3850427340225
 31
0.0
  0
LINE
  5
   23C
  8
0
  6
CONTINUOUS
 62
   130
 10
-348.036943359375
 20
-14.5850427340225
 30
0.0
 11
-347.636943359375
 21
-14.5850427340225
 31
0.0
  0
ARC
  5
   23D
  8
0
  6
CONTINUOUS
 62
   130
 10
-349.736943359375
 20
-13.0350427340225
 30
0.0
 40
1.3
 50
359.999999844103
 51
539.999999844103
  0
ARC
  5
   23E
  8
0
  6
CONTINUOUS
 62
   130
 10
-349.736943359375
 20
-13.0350427340225
 30
0.0
 40
0.900000000000001
 50
359.999999844103
 51
539.999999844103
  0
ARC
  5
   23F
  8
0
  6
CONTINUOUS
 62
   130
 10
-349.736943359375
 20
-13.2850427340225
 30
0.0
 40
1.3
 50
539.999999844103
 51
719.999999844103
  0
ARC
  5
   240
  8
0
  6
CONTINUOUS
 62
   130
 10
-349.736943359375
 20
-13.2850427340225
 30
0.0
 40
0.899999999999999
 50
539.999999844103
 51
719.999999844103
  0
LINE
  5
   241
  8
0
  6
CONTINUOUS
 62
   130
 10
-348.036943359375
 20
-11.7350427340225
 30
0.0
 11
-348.036943359375
 21
-14.5850427340225
 31
0.0
  0
LINE
  5
   242
  8
0
  6
CONTINUOUS
 62
   130
 10
-347.636943359375
 20
-12.8350427340225
 30
0.0
 11
-347.636943359375
 21
-14.5850427340225
 31
0.0
  0
LINE
  5
   243
  8
0
  6
CONTINUOUS
 62
   130
 10
-346.236943359375
 20
-12.8350427340225
 30
0.0
 11
-346.236943359375
 21
-14.5850427340225
 31
0.0
  0
LINE
  5
   244
  8
0
  6
CONTINUOUS
 62
   130
 10
-345.836943359375
 20
-12.7350427340225
 30
0.0
 11
-345.836943359375
 21
-14.5850427340225
 31
0.0
  0
LINE
  5
   245
  8
0
  6
CONTINUOUS
 62
   130
 10
-348.036943359375
 20
-11.7350427340225
 30
0.0
 11
-347.636943359375
 21
-11.7350427340225
 31
0.0
  0
ARC
  5
   246
  8
0
  6
CONTINUOUS
 62
   130
 10
-346.936943359375
 20
-12.8350427340225
 30
0.0
 40
0.699999999999999
 50
359.999999844103
 51
539.999999844103
  0
LINE
  5
   247
  8
0
  6
CONTINUOUS
 62
   130
 10
-347.636943359375
 20
-11.7350427340225
 30
0.0
 11
-347.636943359375
 21
-12.1350427340225
 31
0.0
  0
ARC
  5
   248
  8
0
  6
CONTINUOUS
 62
   130
 10
-346.836943359375
 20
-12.7350427340225
 30
0.0
 40
1.0
 50
359.999999844103
 51
503.130102198259
  0
LINE
  5
   249
  8
0
  6
CONTINUOUS
 62
   130
 10
-346.236943359375
 20
-14.5850427340225
 30
0.0
 11
-345.836943359375
 21
-14.5850427340225
 31
0.0
  0
LINE
  5
   24A
  8
0
  6
CONTINUOUS
 62
   130
 10
-347.568618565277
 20
-2.1070803023074
 30
0.0
 11
-347.802650259323
 21
-2.14834578561359
 31
0.0
  0
LINE
  5
   24B
  8
0
  6
CONTINUOUS
 62
   130
 10
-347.802635804434
 20
-2.14833793001565
 30
0.0
 11
-348.008438704749
 21
-2.26715667318869
 31
0.0
  0
LINE
  5
   24C
  8
0
  6
CONTINUOUS
 62
   130
 10
-348.008447170452
 20
-2.26716534913
 30
0.0
 11
-348.161195295445
 21
-2.44920606033198
 31
0.0
  0
LINE
  5
   24D
  8
0
  6
CONTINUOUS
 62
   130
 10
-348.161192444672
 20
-2.44920494587089
 30
0.0
 11
-348.242468380155
 21
-2.67251112011296
 31
0.0
  0
LINE
  5
   24E
  8
0
  6
CONTINUOUS
 62
   130
 10
-348.242475646233
 20
-2.67251071384786
 30
0.0
 11
-348.242475646233
 21
-2.91014823368428
 31
0.0
  0
LINE
  5
   24F
  8
0
  6
CONTINUOUS
 62
   130
 10
-348.242469042435
 20
-2.91014581236404
 30
0.0
 11
-348.161193106951
 21
-3.13345198660612
 31
0.0
  0
LINE
  5
   250
  8
0
  6
CONTINUOUS
 62
   130
 10
-348.161196666868
 20
-3.13345293975951
 30
0.0
 11
-348.008448541875
 21
-3.31549365096151
 31
0.0
  0
LINE
  5
   251
  8
0
  6
CONTINUOUS
 62
   130
 10
-348.008435369275
 20
-3.31549825134852
 30
0.0
 11
-347.80263246896
 21
-3.43431699452155
 31
0.0
  0
LINE
  5
   252
  8
0
  6
CONTINUOUS
 62
   130
 10
-347.802648632656
 20
-3.43431406690699
 30
0.0
 11
-347.568616938609
 21
-3.47557955021318
 31
0.0
  0
LINE
  5
   253
  8
0
  6
CONTINUOUS
 62
   130
 10
-347.568617003655
 20
-3.47557935169576
 30
0.0
 11
-347.339193480706
 21
-3.47557935169576
 31
0.0
  0
LINE
  5
   254
  8
0
  6
CONTINUOUS
 62
   130
 10
-347.33918127386
 20
-3.47557448536932
 30
0.0
 11
-347.251649245374
 21
-3.50401686298196
 31
0.0
  0
LINE
  5
   255
  8
0
  6
CONTINUOUS
 62
   130
 10
-347.251650210618
 20
-3.50401709232909
 30
0.0
 11
-347.197550183228
 21
-3.57847949667273
 31
0.0
  0
LINE
  5
   256
  8
0
  6
CONTINUOUS
 62
   130
 10
-347.197561400627
 20
-3.5784841482961
 30
0.0
 11
-347.197561400627
 21
-3.67052468708394
 31
0.0
  0
LINE
  5
   257
  8
0
  6
CONTINUOUS
 62
   130
 10
-347.19755418179
 20
-3.670521405665
 30
0.0
 11
-347.25165420918
 21
-3.74498381000863
 31
0.0
  0
LINE
  5
   258
  8
0
  6
CONTINUOUS
 62
   130
 10
-347.251651707877
 20
-3.74498380790557
 30
0.0
 11
-347.339183736363
 21
-3.77342618551821
 31
0.0
  0
LINE
  5
   259
  8
0
  6
CONTINUOUS
 62
   130
 10
-348.172369139885
 20
-3.77342948368428
 30
0.0
 11
-347.339193480706
 21
-3.77342948368428
 31
0.0
  0
LINE
  5
   25A
  8
0
  6
CONTINUOUS
 62
   130
 10
-348.172369139885
 20
-3.77342948368428
 30
0.0
 11
-348.172369139885
 21
-4.32082900455831
 31
0.0
  0
LINE
  5
   25B
  8
0
  6
CONTINUOUS
 62
   130
 10
-348.172369139885
 20
-4.32082900455831
 30
0.0
 11
-347.339193480706
 21
-4.32082900455831
 31
0.0
  0
LINE
  5
   25C
  8
0
  6
CONTINUOUS
 62
   130
 10
-347.101036707471
 20
-4.27883464309325
 30
0.0
 11
-347.339188244209
 21
-4.32082778007845
 31
0.0
  0
LINE
  5
   25D
  8
0
  6
CONTINUOUS
 62
   130
 10
-346.891604249629
 20
-4.15791770218946
 30
0.0
 11
-347.10103878854
 21
-4.27883361067153
 31
0.0
  0
LINE
  5
   25E
  8
0
  6
CONTINUOUS
 62
   130
 10
-346.73614676296
 20
-3.97266321652553
 30
0.0
 11
-346.891595675747
 21
-4.15791634734675
 31
0.0
  0
LINE
  5
   25F
  8
0
  6
CONTINUOUS
 62
   130
 10
-346.653444069004
 20
-3.74542253490611
 30
0.0
 11
-346.736154338371
 21
-3.97266932784284
 31
0.0
  0
LINE
  5
   260
  8
0
  6
CONTINUOUS
 62
   130
 10
-346.653448241448
 20
-3.50358876636861
 30
0.0
 11
-346.653448241448
 21
-3.74542006901143
 31
0.0
  0
LINE
  5
   261
  8
0
  6
CONTINUOUS
 62
   130
 10
-346.736154528158
 20
-3.27634056179545
 30
0.0
 11
-346.653444258791
 21
-3.50358735473217
 31
0.0
  0
LINE
  5
   262
  8
0
  6
CONTINUOUS
 62
   130
 10
-346.891600807232
 20
-3.09108249877713
 30
0.0
 11
-346.736151884021
 21
-3.27633613308577
 31
0.0
  0
LINE
  5
   263
  8
0
  6
CONTINUOUS
 62
   130
 10
-347.101043130582
 20
-2.97017200772751
 30
0.0
 11
-346.891608601034
 21
-3.09108743393515
 31
0.0
  0
LINE
  5
   264
  8
0
  6
CONTINUOUS
 62
   130
 10
-347.339181196858
 20
-2.92818075848011
 30
0.0
 11
-347.101029663552
 21
-2.97017437135558
 31
0.0
  0
LINE
  5
   265
  8
0
  6
CONTINUOUS
 62
   130
 10
-347.568617003655
 20
-2.92817935398458
 30
0.0
 11
-347.339193480706
 21
-2.92817935398458
 31
0.0
  0
LINE
  5
   266
  8
0
  6
CONTINUOUS
 62
   130
 10
-347.64905290762
 20
-2.90204107224466
 30
0.0
 11
-347.568608572847
 21
-2.92817699267623
 31
0.0
  0
LINE
  5
   267
  8
0
  6
CONTINUOUS
 62
   130
 10
-347.69877153475
 20
-2.83361963790403
 30
0.0
 11
-347.649058399958
 21
-2.90204481886563
 31
0.0
  0
LINE
  5
   268
  8
0
  6
CONTINUOUS
 62
   130
 10
-347.698774474358
 20
-2.74904069355367
 30
0.0
 11
-347.698774474358
 21
-2.83361825397847
 31
0.0
  0
LINE
  5
   269
  8
0
  6
CONTINUOUS
 62
   130
 10
-347.649051016021
 20
-2.68061782104731
 30
0.0
 11
-347.698764150813
 21
-2.7490430020089
 31
0.0
  0
LINE
  5
   26A
  8
0
  6
CONTINUOUS
 62
   130
 10
-347.568605467554
 20
-2.65447585445781
 30
0.0
 11
-347.649049802327
 21
-2.68061177488939
 31
0.0
  0
LINE
  5
   26B
  8
0
  6
CONTINUOUS
 62
   130
 10
-347.568617003655
 20
-2.65447959354756
 30
0.0
 11
-346.723371642327
 21
-2.65447959354756
 31
0.0
  0
LINE
  5
   26C
  8
0
  6
CONTINUOUS
 62
   130
 10
-346.723371642327
 20
-2.10707959583638
 30
0.0
 11
-346.723371642327
 21
-2.65447959354756
 31
0.0
  0
LINE
  5
   26D
  8
0
  6
CONTINUOUS
 62
   130
 10
-347.568617003655
 20
-2.10707959583638
 30
0.0
 11
-346.723371642327
 21
-2.10707959583638
 31
0.0
  0
LINE
  5
   26E
  8
0
  6
CONTINUOUS
 62
   130
 10
-346.642873900627
 20
-4.32082900455831
 30
0.0
 11
-346.072775023674
 21
-4.32082900455831
 31
0.0
  0
LINE
  5
   26F
  8
0
  6
CONTINUOUS
 62
   130
 10
-345.943969643787
 20
-3.87807792473106
 30
0.0
 11
-346.072769078336
 21
-4.32082742046227
 31
0.0
  0
LINE
  5
   270
  8
0
  6
CONTINUOUS
 62
   130
 10
-345.943975585198
 20
-3.87807950428365
 30
0.0
 11
-345.329260009026
 21
-3.87807950428365
 31
0.0
  0
LINE
  5
   271
  8
0
  6
CONTINUOUS
 62
   130
 10
-345.329255294641
 20
-3.8780783238989
 30
0.0
 11
-345.200455860092
 21
-4.32082781963014
 31
0.0
  0
LINE
  5
   272
  8
0
  6
CONTINUOUS
 62
   130
 10
-345.200460570549
 20
-4.32082900455831
 30
0.0
 11
-344.630369322991
 21
-4.32082900455831
 31
0.0
  0
LINE
  5
   273
  8
0
  6
CONTINUOUS
 62
   130
 10
-345.274368706932
 20
-2.10707925751055
 30
0.0
 11
-344.630363716213
 21
-4.32082922704903
 31
0.0
  0
LINE
  5
   274
  8
0
  6
CONTINUOUS
 62
   130
 10
-345.99886907885
 20
-2.10707959583638
 30
0.0
 11
-345.274374144768
 21
-2.10707959583638
 31
0.0
  0
LINE
  5
   275
  8
0
  6
CONTINUOUS
 62
   130
 10
-345.998866012203
 20
-2.10708802884348
 30
0.0
 11
-346.642871002923
 21
-4.32083799838195
 31
0.0
  0
LINE
  5
   276
  8
0
  6
CONTINUOUS
 62
   130
 10
-345.636613415165
 20
-2.82153726891454
 30
0.0
 11
-345.48850390368
 21
-3.33067944019804
 31
0.0
  0
LINE
  5
   277
  8
0
  6
CONTINUOUS
 62
   130
 10
-345.784734862541
 20
-3.33067950657247
 30
0.0
 11
-345.488508361077
 21
-3.33067950657247
 31
0.0
  0
LINE
  5
   278
  8
0
  6
CONTINUOUS
 62
   130
 10
-345.63660887445
 20
-2.8215367704428
 30
0.0
 11
-345.784725928765
 21
-3.33067866156628
 31
0.0
  0
LINE
  5
   279
  8
0
  6
CONTINUOUS
 62
   130
 10
-342.762998936751
 20
-2.40969536540631
 30
0.0
 11
-342.567213421188
 21
-2.65652869842863
 31
0.0
  0
LINE
  5
   27A
  8
0
  6
CONTINUOUS
 62
   130
 10
-343.020381093024
 20
-2.22802187671156
 30
0.0
 11
-342.762995854994
 21
-2.40969968110183
 31
0.0
  0
LINE
  5
   27B
  8
0
  6
CONTINUOUS
 62
   130
 10
-343.31853388048
 20
-2.12622258059772
 30
0.0
 11
-343.020384774143
 21
-2.2280258730065
 31
0.0
  0
LINE
  5
   27C
  8
0
  6
CONTINUOUS
 62
   130
 10
-343.633283906432
 20
-2.11253930464477
 30
0.0
 11
-343.318533226646
 21
-2.12622119361732
 31
0.0
  0
LINE
  5
   27D
  8
0
  6
CONTINUOUS
 62
   130
 10
-343.633289496923
 20
-2.11253873010078
 30
0.0
 11
-343.939151923436
 21
-2.18808689804565
 31
0.0
  0
LINE
  5
   27E
  8
0
  6
CONTINUOUS
 62
   130
 10
-343.939147125925
 20
-2.18808336040111
 30
0.0
 11
-344.211325759799
 21
-2.34674138589823
 31
0.0
  0
LINE
  5
   27F
  8
0
  6
CONTINUOUS
 62
   130
 10
-344.211330005551
 20
-2.34674619972557
 30
0.0
 11
-344.427791184902
 21
-2.57566045842839
 31
0.0
  0
LINE
  5
   280
  8
0
  6
CONTINUOUS
 62
   130
 10
-344.427785925589
 20
-2.5756559629465
 30
0.0
 11
-344.570982015179
 21
-2.85628082496416
 31
0.0
  0
LINE
  5
   281
  8
0
  6
CONTINUOUS
 62
   130
 10
-344.570984508517
 20
-2.85628546459418
 30
0.0
 11
-344.629318859082
 21
-3.16588677951543
 31
0.0
  0
LINE
  5
   282
  8
0
  6
CONTINUOUS
 62
   130
 10
-344.629318237239
 20
-3.16588489155382
 30
0.0
 11
-344.598068252192
 21
-3.47938052316242
 31
0.0
  0
LINE
  5
   283
  8
0
  6
CONTINUOUS
 62
   130
 10
-344.598070680354
 20
-3.4793797873349
 30
0.0
 11
-344.479761673891
 21
-3.77137195973104
 31
0.0
  0
LINE
  5
   284
  8
0
  6
CONTINUOUS
 62
   130
 10
-344.479761090874
 20
-3.77136941745745
 30
0.0
 11
-344.303728065329
 21
-3.99906632244851
 31
0.0
  0
LINE
  5
   285
  8
0
  6
CONTINUOUS
 62
   130
 10
-344.303725045718
 20
-3.99907154115269
 30
0.0
 11
-344.074934764187
 21
-4.17368597611914
 31
0.0
  0
LINE
  5
   286
  8
0
  6
CONTINUOUS
 62
   130
 10
-344.074939430761
 20
-4.17368344773692
 30
0.0
 11
-343.808864301383
 21
-4.28340939774543
 31
0.0
  0
LINE
  5
   287
  8
0
  6
CONTINUOUS
 62
   130
 10
-343.808861459386
 20
-4.28341072835252
 30
0.0
 11
-343.523491592213
 21
-4.32082909227206
 31
0.0
  0
LINE
  5
   288
  8
0
  6
CONTINUOUS
 62
   130
 10
-343.23811761199
 20
-4.28340965898942
 30
0.0
 11
-343.523487479163
 21
-4.32082802290895
 31
0.0
  0
LINE
  5
   289
  8
0
  6
CONTINUOUS
 62
   130
 10
-342.972051558682
 20
-4.17368461396507
 30
0.0
 11
-343.23812668806
 21
-4.28341056397358
 31
0.0
  0
LINE
  5
   28A
  8
0
  6
CONTINUOUS
 62
   130
 10
-342.743253608524
 20
-3.99906441480301
 30
0.0
 11
-342.972043890055
 21
-4.17367884976947
 31
0.0
  0
LINE
  5
   28B
  8
0
  6
CONTINUOUS
 62
   130
 10
-342.567214848892
 20
-3.77137270652258
 30
0.0
 11
-342.743255496426
 21
-3.9990695962421
 31
0.0
  0
LINE
  5
   28C
  8
0
  6
CONTINUOUS
 62
   130
 10
-343.040136536736
 20
-3.49570196930462
 30
0.0
 11
-342.567213309779
 21
-3.77137102944027
 31
0.0
  0
LINE
  5
   28D
  8
0
  6
CONTINUOUS
 62
   130
 10
-343.040145054635
 20
-3.4957074209643
 30
0.0
 11
-343.165061139523
 21
-3.64353553521439
 31
0.0
  0
LINE
  5
   28E
  8
0
  6
CONTINUOUS
 62
   130
 10
-343.165058789246
 20
-3.64353149750318
 30
0.0
 11
-343.33287498388
 21
-3.73995275718009
 31
0.0
  0
LINE
  5
   28F
  8
0
  6
CONTINUOUS
 62
   130
 10
-343.332870395581
 20
-3.73995348793589
 30
0.0
 11
-343.523490841602
 21
-3.77342936308317
 31
0.0
  0
LINE
  5
   290
  8
0
  6
CONTINUOUS
 62
   130
 10
-343.714120779042
 20
-3.73995327374882
 30
0.0
 11
-343.52350033302
 21
-3.7734291488961
 31
0.0
  0
LINE
  5
   291
  8
0
  6
CONTINUOUS
 62
   130
 10
-343.881933390851
 20
-3.64353018066218
 30
0.0
 11
-343.714117196216
 21
-3.7399514403391
 31
0.0
  0
LINE
  5
   292
  8
0
  6
CONTINUOUS
 62
   130
 10
-344.006848837332
 20
-3.49570112687594
 30
0.0
 11
-343.881932752444
 21
-3.64352924112604
 31
0.0
  0
LINE
  5
   293
  8
0
  6
CONTINUOUS
 62
   130
 10
-344.077872146123
 20
-3.28928478846375
 30
0.0
 11
-344.006842483142
 21
-3.49570235549282
 31
0.0
  0
LINE
  5
   294
  8
0
  6
CONTINUOUS
 62
   130
 10
-344.064495502712
 20
-3.07140256991917
 30
0.0
 11
-344.077869832889
 21
-3.28928904031049
 31
0.0
  0
LINE
  5
   295
  8
0
  6
CONTINUOUS
 62
   130
 10
-343.968762169145
 20
-2.87521444144385
 30
0.0
 11
-344.064495816431
 21
-3.07139813258094
 31
0.0
  0
LINE
  5
   296
  8
0
  6
CONTINUOUS
 62
   130
 10
-343.805241100461
 20
-2.73060007921472
 30
0.0
 11
-343.96876955569
 21
-2.875214320633
 31
0.0
  0
LINE
  5
   297
  8
0
  6
CONTINUOUS
 62
   130
 10
-343.598826274461
 20
-2.659573506816
 30
0.0
 11
-343.805239543493
 21
-2.73060125571806
 31
0.0
  0
LINE
  5
   298
  8
0
  6
CONTINUOUS
 62
   130
 10
-343.598829885122
 20
-2.65957554928901
 30
0.0
 11
-343.380941939956
 21
-2.67294654334703
 31
0.0
  0
LINE
  5
   299
  8
0
  6
CONTINUOUS
 62
   130
 10
-343.38093594557
 20
-2.6729483909998
 30
0.0
 11
-343.184753670184
 21
-2.76868347794871
 31
0.0
  0
LINE
  5
   29A
  8
0
  6
CONTINUOUS
 62
   130
 10
-343.184751044434
 20
-2.76867182214731
 30
0.0
 11
-343.040135860057
 21
-2.93219550103423
 31
0.0
  0
LINE
  5
   29B
  8
0
  6
CONTINUOUS
 62
   130
 10
-342.56720977178
 20
-2.65652856356822
 30
0.0
 11
-343.040132998736
 21
-2.93219762370387
 31
0.0
  0
LINE
  5
   29C
  8
0
  6
CONTINUOUS
 62
   130
 10
-342.36597265551
 20
-2.10708007267354
 30
0.0
 11
-342.36597265551
 21
-4.32082900455831
 31
0.0
  0
LINE
  5
   29D
  8
0
  6
CONTINUOUS
 62
   130
 10
-342.36597265551
 20
-4.32082900455831
 30
0.0
 11
-340.916975157952
 21
-4.32082900455831
 31
0.0
  0
LINE
  5
   29E
  8
0
  6
CONTINUOUS
 62
   130
 10
-340.916975157952
 20
-3.77342948368428
 30
0.0
 11
-340.916975157952
 21
-4.32082900455831
 31
0.0
  0
LINE
  5
   29F
  8
0
  6
CONTINUOUS
 62
   130
 10
-341.818571227288
 20
-3.77342948368428
 30
0.0
 11
-340.916975157952
 21
-3.77342948368428
 31
0.0
  0
LINE
  5
   2A0
  8
0
  6
CONTINUOUS
 62
   130
 10
-341.818571227288
 20
-3.48765429905293
 30
0.0
 11
-341.818571227288
 21
-3.77342948368428
 31
0.0
  0
LINE
  5
   2A1
  8
0
  6
CONTINUOUS
 62
   130
 10
-341.818571227288
 20
-3.48765429905293
 30
0.0
 11
-341.037725585198
 21
-3.48765429905293
 31
0.0
  0
LINE
  5
   2A2
  8
0
  6
CONTINUOUS
 62
   130
 10
-341.037725585198
 20
-2.94025430134175
 30
0.0
 11
-341.037725585198
 21
-3.48765429905293
 31
0.0
  0
LINE
  5
   2A3
  8
0
  6
CONTINUOUS
 62
   130
 10
-341.818571227288
 20
-2.94025430134175
 30
0.0
 11
-341.037725585198
 21
-2.94025430134175
 31
0.0
  0
LINE
  5
   2A4
  8
0
  6
CONTINUOUS
 62
   130
 10
-341.818571227288
 20
-2.65447962334989
 30
0.0
 11
-341.818571227288
 21
-2.94025430134175
 31
0.0
  0
LINE
  5
   2A5
  8
0
  6
CONTINUOUS
 62
   130
 10
-341.818571227288
 20
-2.65447959354756
 30
0.0
 11
-340.916975157952
 21
-2.65447959354756
 31
0.0
  0
LINE
  5
   2A6
  8
0
  6
CONTINUOUS
 62
   130
 10
-340.916975157952
 20
-2.10707959583638
 30
0.0
 11
-340.916975157952
 21
-2.65447959354756
 31
0.0
  0
LINE
  5
   2A7
  8
0
  6
CONTINUOUS
 62
   130
 10
-342.36597265551
 20
-2.10707959583638
 30
0.0
 11
-340.916975157952
 21
-2.10707959583638
 31
0.0
  0
LINE
  5
   2A8
  8
0
  6
CONTINUOUS
 62
   130
 10
-397.274673479224
 20
-1.90230351391478
 30
0.0
 11
-397.728530791942
 21
-3.19905614733673
 31
0.0
  0
LINE
  5
   2A9
  8
0
  6
CONTINUOUS
 62
   130
 10
-397.728538513184
 20
-3.19905231893063
 30
0.0
 11
-396.90892791748
 21
-3.19905231893063
 31
0.0
  0
LINE
  5
   2AA
  8
0
  6
CONTINUOUS
 62
   130
 10
-397.274681091309
 20
-1.90229938924313
 30
0.0
 11
-396.90892791748
 21
-1.90229938924313
 31
0.0
  0
LINE
  5
   2AB
  8
0
  6
CONTINUOUS
 62
   130
 10
-398.205680847168
 20
-4.56229589879513
 30
0.0
 11
-397.540679931641
 21
-4.56229589879513
 31
0.0
  0
LINE
  5
   2AC
  8
0
  6
CONTINUOUS
 62
   130
 10
-397.354471321534
 20
-4.0302977881755
 30
0.0
 11
-397.540674317194
 21
-4.56229740111471
 31
0.0
  0
LINE
  5
   2AD
  8
0
  6
CONTINUOUS
 62
   130
 10
-397.354476928711
 20
-4.03029631078243
 30
0.0
 11
-396.90892791748
 21
-4.03029631078243
 31
0.0
  0
LINE
  5
   2AE
  8
0
  6
CONTINUOUS
 62
   130
 10
-397.751815795898
 20
-3.265550121665
 30
0.0
 11
-396.90892791748
 21
-3.265550121665
 31
0.0
  0
LINE
  5
   2AF
  8
0
  6
CONTINUOUS
 62
   130
 10
-397.751810489197
 20
-3.26555281925825
 30
0.0
 11
-398.205675404837
 21
-4.56229832674187
 31
0.0
  0
LINE
  5
   2B0
  8
0
  6
CONTINUOUS
 62
   130
 10
-395.99952802021
 20
-3.26555299798002
 30
0.0
 11
-395.545663104569
 21
-4.56229850546364
 31
0.0
  0
LINE
  5
   2B1
  8
0
  6
CONTINUOUS
 62
   130
 10
-396.842430114746
 20
-3.265550121665
 30
0.0
 11
-395.999542236328
 21
-3.265550121665
 31
0.0
  0
LINE
  5
   2B2
  8
0
  6
CONTINUOUS
 62
   130
 10
-396.842430114746
 20
-3.265550121665
 30
0.0
 11
-396.842430114746
 21
-4.03029631078243
 31
0.0
  0
LINE
  5
   2B3
  8
0
  6
CONTINUOUS
 62
   130
 10
-396.842430114746
 20
-4.03029631078243
 30
0.0
 11
-396.396881103516
 21
-4.03029631078243
 31
0.0
  0
LINE
  5
   2B4
  8
0
  6
CONTINUOUS
 62
   130
 10
-396.39686952054
 20
-4.03029547091447
 30
0.0
 11
-396.21066652488
 21
-4.56229508385369
 31
0.0
  0
LINE
  5
   2B5
  8
0
  6
CONTINUOUS
 62
   130
 10
-396.210678100586
 20
-4.56229589879513
 30
0.0
 11
-395.545677185059
 21
-4.56229589879513
 31
0.0
  0
LINE
  5
   2B6
  8
0
  6
CONTINUOUS
 62
   130
 10
-396.842430114746
 20
-1.90229938924313
 30
0.0
 11
-396.476676940918
 21
-1.90229938924313
 31
0.0
  0
LINE
  5
   2B7
  8
0
  6
CONTINUOUS
 62
   130
 10
-396.842430114746
 20
-1.90229938924313
 30
0.0
 11
-396.842430114746
 21
-3.19905231893063
 31
0.0
  0
LINE
  5
   2B8
  8
0
  6
CONTINUOUS
 62
   130
 10
-396.842430114746
 20
-3.19905231893063
 30
0.0
 11
-396.022811889648
 21
-3.19905231893063
 31
0.0
  0
LINE
  5
   2B9
  8
0
  6
CONTINUOUS
 62
   130
 10
-396.476669303969
 20
-1.90230202011709
 30
0.0
 11
-396.022804354438
 21
-3.19905484238979
 31
0.0
  0
LINE
  5
   2BA
  8
0
  6
CONTINUOUS
 62
   130
 10
-395.379425048828
 20
-3.19905231893063
 30
0.0
 11
-394.614677429199
 21
-3.19905231893063
 31
0.0
  0
LINE
  5
   2BB
  8
0
  6
CONTINUOUS
 62
   130
 10
-394.614677429199
 20
-1.90229938924313
 30
0.0
 11
-394.614677429199
 21
-3.19905231893063
 31
0.0
  0
LINE
  5
   2BC
  8
0
  6
CONTINUOUS
 62
   130
 10
-395.379425048828
 20
-1.90229938924313
 30
0.0
 11
-394.614677429199
 21
-1.90229938924313
 31
0.0
  0
LINE
  5
   2BD
  8
0
  6
CONTINUOUS
 62
   130
 10
-395.379425048828
 20
-4.56229589879513
 30
0.0
 11
-394.614677429199
 21
-4.56229589879513
 31
0.0
  0
LINE
  5
   2BE
  8
0
  6
CONTINUOUS
 62
   130
 10
-394.614677429199
 20
-3.265550121665
 30
0.0
 11
-394.614677429199
 21
-4.56229589879513
 31
0.0
  0
LINE
  5
   2BF
  8
0
  6
CONTINUOUS
 62
   130
 10
-395.379425048828
 20
-3.265550121665
 30
0.0
 11
-394.614677429199
 21
-3.265550121665
 31
0.0
  0
LINE
  5
   2C0
  8
0
  6
CONTINUOUS
 62
   130
 10
-393.317932128906
 20
-1.90229938924313
 30
0.0
 11
-393.317932128906
 21
-3.19905231893063
 31
0.0
  0
LINE
  5
   2C1
  8
0
  6
CONTINUOUS
 62
   130
 10
-393.317932128906
 20
-3.19905231893063
 30
0.0
 11
-392.553176879883
 21
-3.19905231893063
 31
0.0
  0
LINE
  5
   2C2
  8
0
  6
CONTINUOUS
 62
   130
 10
-392.553176879883
 20
-1.90229938924313
 30
0.0
 11
-392.553176879883
 21
-3.19905231893063
 31
0.0
  0
LINE
  5
   2C3
  8
0
  6
CONTINUOUS
 62
   130
 10
-393.317932128906
 20
-1.90229938924313
 30
0.0
 11
-392.553176879883
 21
-1.90229938924313
 31
0.0
  0
LINE
  5
   2C4
  8
0
  6
CONTINUOUS
 62
   130
 10
-393.317932128906
 20
-4.56229589879513
 30
0.0
 11
-392.553176879883
 21
-4.56229589879513
 31
0.0
  0
LINE
  5
   2C5
  8
0
  6
CONTINUOUS
 62
   130
 10
-392.553176879883
 20
-3.265550121665
 30
0.0
 11
-392.553176879883
 21
-4.56229589879513
 31
0.0
  0
LINE
  5
   2C6
  8
0
  6
CONTINUOUS
 62
   130
 10
-393.317932128906
 20
-3.265550121665
 30
0.0
 11
-392.553176879883
 21
-3.265550121665
 31
0.0
  0
LINE
  5
   2C7
  8
0
  6
CONTINUOUS
 62
   130
 10
-393.317932128906
 20
-3.265550121665
 30
0.0
 11
-393.317932128906
 21
-4.56229589879513
 31
0.0
  0
LINE
  5
   2C8
  8
0
  6
CONTINUOUS
 62
   130
 10
-392.486679077148
 20
-1.90229938924313
 30
0.0
 11
-392.272941589356
 21
-1.90229938924313
 31
0.0
  0
LINE
  5
   2C9
  8
0
  6
CONTINUOUS
 62
   130
 10
-392.486679077148
 20
-1.90229938924313
 30
0.0
 11
-392.486679077148
 21
-3.19905231893063
 31
0.0
  0
LINE
  5
   2CA
  8
0
  6
CONTINUOUS
 62
   130
 10
-392.486679077148
 20
-3.19905231893063
 30
0.0
 11
-391.712501525879
 21
-3.19905231893063
 31
0.0
  0
LINE
  5
   2CB
  8
0
  6
CONTINUOUS
 62
   130
 10
-391.826716628491
 20
-3.11291409701655
 30
0.0
 11
-391.712504576736
 21
-3.19904997421237
 31
0.0
  0
LINE
  5
   2CC
  8
0
  6
CONTINUOUS
 62
   130
 10
-391.954679112357
 20
-3.04898966233692
 30
0.0
 11
-391.826711259165
 21
-3.11291636498241
 31
0.0
  0
LINE
  5
   2CD
  8
0
  6
CONTINUOUS
 62
   130
 10
-391.802356704724
 20
-2.91966002404811
 30
0.0
 11
-391.954677552297
 21
-3.04899350160325
 31
0.0
  0
LINE
  5
   2CE
  8
0
  6
CONTINUOUS
 62
   130
 10
-391.699309567598
 20
-2.74845786871346
 30
0.0
 11
-391.802352158701
 21
-2.91966147628083
 31
0.0
  0
LINE
  5
   2CF
  8
0
  6
CONTINUOUS
 62
   130
 10
-391.656335548976
 20
-2.55332025460106
 30
0.0
 11
-391.699311923237
 21
-2.74845725522312
 31
0.0
  0
LINE
  5
   2D0
  8
0
  6
CONTINUOUS
 62
   130
 10
-391.677920676034
 20
-2.35466352558697
 30
0.0
 11
-391.656337125301
 21
-2.55331774231077
 31
0.0
  0
LINE
  5
   2D1
  8
0
  6
CONTINUOUS
 62
   130
 10
-391.761811328088
 20
-2.17330840924676
 30
0.0
 11
-391.677926122104
 21
-2.35465913925637
 31
0.0
  0
LINE
  5
   2D2
  8
0
  6
CONTINUOUS
 62
   130
 10
-391.899219685742
 20
-2.02822621147931
 30
0.0
 11
-391.761814277192
 21
-2.17330678698917
 31
0.0
  0
LINE
  5
   2D3
  8
0
  6
CONTINUOUS
 62
   130
 10
-392.075748789627
 20
-1.93464168918537
 30
0.0
 11
-391.899212222066
 21
-2.0282391089647
 31
0.0
  0
LINE
  5
   2D4
  8
0
  6
CONTINUOUS
 62
   130
 10
-392.486679077148
 20
-3.265550121665
 30
0.0
 11
-391.647521972656
 21
-3.265550121665
 31
0.0
  0
LINE
  5
   2D5
  8
0
  6
CONTINUOUS
 62
   130
 10
-392.486679077148
 20
-3.265550121665
 30
0.0
 11
-392.486679077148
 21
-4.56229589879513
 31
0.0
  0
LINE
  5
   2D6
  8
0
  6
CONTINUOUS
 62
   130
 10
-392.486679077148
 20
-4.56229589879513
 30
0.0
 11
-392.239364624024
 21
-4.56229589879513
 31
0.0
  0
LINE
  5
   2D7
  8
0
  6
CONTINUOUS
 62
   130
 10
-392.018597220787
 20
-4.53055001941381
 30
0.0
 11
-392.239361404765
 21
-4.56229735785355
 31
0.0
  0
LINE
  5
   2D8
  8
0
  6
CONTINUOUS
 62
   130
 10
-391.815725193671
 20
-4.4378805116999
 30
0.0
 11
-392.018598436274
 21
-4.53054952336566
 31
0.0
  0
LINE
  5
   2D9
  8
0
  6
CONTINUOUS
 62
   130
 10
-391.647193743414
 20
-4.29180063827541
 30
0.0
 11
-391.815727084203
 21
-4.4378811369416
 31
0.0
  0
LINE
  5
   2DA
  8
0
  6
CONTINUOUS
 62
   130
 10
-391.526647988745
 20
-4.10414744827353
 30
0.0
 11
-391.647192421765
 21
-4.29180003392491
 31
0.0
  0
LINE
  5
   2DB
  8
0
  6
CONTINUOUS
 62
   130
 10
-391.463864887524
 20
-3.89013452688654
 30
0.0
 11
-391.526639544008
 21
-4.1041500001351
 31
0.0
  0
LINE
  5
   2DC
  8
0
  6
CONTINUOUS
 62
   130
 10
-391.463940138551
 20
-3.66709671707944
 30
0.0
 11
-391.463871474003
 21
-3.89013015584134
 31
0.0
  0
LINE
  5
   2DD
  8
0
  6
CONTINUOUS
 62
   130
 10
-391.526850664696
 20
-3.45311928353901
 30
0.0
 11
-391.463938682089
 21
-3.66709520076807
 31
0.0
  0
LINE
  5
   2DE
  8
0
  6
CONTINUOUS
 62
   130
 10
-391.647520137033
 20
-3.26555292108711
 30
0.0
 11
-391.526853634421
 21
-3.45312444369626
 31
0.0
  0
LINE
  5
   2DF
  8
0
  6
CONTINUOUS
 62
   130
 10
-394.548179626465
 20
-1.90229938924313
 30
0.0
 11
-394.334434509277
 21
-1.90229938924313
 31
0.0
  0
LINE
  5
   2E0
  8
0
  6
CONTINUOUS
 62
   130
 10
-394.548179626465
 20
-1.90229938924313
 30
0.0
 11
-394.548179626465
 21
-3.19905231893063
 31
0.0
  0
LINE
  5
   2E1
  8
0
  6
CONTINUOUS
 62
   130
 10
-394.548179626465
 20
-3.19905231893063
 30
0.0
 11
-393.774002075195
 21
-3.19905231893063
 31
0.0
  0
LINE
  5
   2E2
  8
0
  6
CONTINUOUS
 62
   130
 10
-393.888212217784
 20
-3.11291797877111
 30
0.0
 11
-393.77400016603
 21
-3.19905385596692
 31
0.0
  0
LINE
  5
   2E3
  8
0
  6
CONTINUOUS
 62
   130
 10
-394.016181140032
 20
-3.04898951356245
 30
0.0
 11
-393.88821328684
 21
-3.11291621620795
 31
0.0
  0
LINE
  5
   2E4
  8
0
  6
CONTINUOUS
 62
   130
 10
-393.863858383912
 20
-2.91965603545567
 30
0.0
 11
-394.016179231486
 21
-3.04898951301082
 31
0.0
  0
LINE
  5
   2E5
  8
0
  6
CONTINUOUS
 62
   130
 10
-393.760813209732
 20
-2.74845559090816
 30
0.0
 11
-393.863855800835
 21
-2.91965919847554
 31
0.0
  0
LINE
  5
   2E6
  8
0
  6
CONTINUOUS
 62
   130
 10
-393.717829722435
 20
-2.55331941579042
 30
0.0
 11
-393.760813727641
 21
-2.7484564278006
 31
0.0
  0
LINE
  5
   2E7
  8
0
  6
CONTINUOUS
 62
   130
 10
-393.739412718894
 20
-2.35466022561647
 30
0.0
 11
-393.717829168161
 21
-2.55331444234028
 31
0.0
  0
LINE
  5
   2E8
  8
0
  6
CONTINUOUS
 62
   130
 10
-393.823308843664
 20
-2.17331447461764
 30
0.0
 11
-393.739416015441
 21
-2.35466519599255
 31
0.0
  0
LINE
  5
   2E9
  8
0
  6
CONTINUOUS
 62
   130
 10
-393.960717146115
 20
-2.02822273401465
 30
0.0
 11
-393.823311737566
 21
-2.17330330952451
 31
0.0
  0
LINE
  5
   2EA
  8
0
  6
CONTINUOUS
 62
   130
 10
-394.137254322199
 20
-1.93463927584217
 30
0.0
 11
-393.960717754639
 21
-2.0282366956215
 31
0.0
  0
LINE
  5
   2EB
  8
0
  6
CONTINUOUS
 62
   130
 10
-394.334435134482
 20
-1.90229888857463
 30
0.0
 11
-394.13725339111
 21
-1.9346322615726
 31
0.0
  0
LINE
  5
   2EC
  8
0
  6
CONTINUOUS
 62
   130
 10
-394.548179626465
 20
-3.265550121665
 30
0.0
 11
-393.709022521973
 21
-3.265550121665
 31
0.0
  0
LINE
  5
   2ED
  8
0
  6
CONTINUOUS
 62
   130
 10
-394.548179626465
 20
-3.265550121665
 30
0.0
 11
-394.548179626465
 21
-4.56229589879513
 31
0.0
  0
LINE
  5
   2EE
  8
0
  6
CONTINUOUS
 62
   130
 10
-394.548179626465
 20
-4.56229589879513
 30
0.0
 11
-394.30086517334
 21
-4.56229589879513
 31
0.0
  0
LINE
  5
   2EF
  8
0
  6
CONTINUOUS
 62
   130
 10
-394.080100355304
 20
-4.53055492550166
 30
0.0
 11
-394.300864539282
 21
-4.5623022639414
 31
0.0
  0
LINE
  5
   2F0
  8
0
  6
CONTINUOUS
 62
   130
 10
-393.877225528535
 20
-4.4378818190457
 30
0.0
 11
-394.080098771138
 21
-4.53055083071146
 31
0.0
  0
LINE
  5
   2F1
  8
0
  6
CONTINUOUS
 62
   130
 10
-393.708693716995
 20
-4.29180161264504
 30
0.0
 11
-393.877227057785
 21
-4.43788211131122
 31
0.0
  0
LINE
  5
   2F2
  8
0
  6
CONTINUOUS
 62
   130
 10
-393.58814957168
 20
-4.10414719189684
 30
0.0
 11
-393.7086940047
 21
-4.29179977754824
 31
0.0
  0
LINE
  5
   2F3
  8
0
  6
CONTINUOUS
 62
   130
 10
-393.525362049878
 20
-3.89013169737262
 30
0.0
 11
-393.58814434219
 21
-4.10414719370232
 31
0.0
  0
LINE
  5
   2F4
  8
0
  6
CONTINUOUS
 62
   130
 10
-393.525443033209
 20
-3.66709648533385
 30
0.0
 11
-393.525366739301
 21
-3.89012992657506
 31
0.0
  0
LINE
  5
   2F5
  8
0
  6
CONTINUOUS
 62
   130
 10
-393.588349351088
 20
-3.45311938559263
 30
0.0
 11
-393.525437368481
 21
-3.66709530282168
 31
0.0
  0
LINE
  5
   2F6
  8
0
  6
CONTINUOUS
 62
   130
 10
-393.70901868904
 20
-3.2655524110568
 30
0.0
 11
-393.588352186428
 21
-3.45312393366594
 31
0.0
  0
LINE
  5
   2F7
  8
0
  6
CONTINUOUS
 62
   130
 10
-395.379425048828
 20
-1.90229938924313
 30
0.0
 11
-395.379425048828
 21
-4.56229589879513
 31
0.0
  0
LINE
  5
   2F8
  8
0
  6
CONTINUOUS
 62
   130
 10
-400.96820365906
 20
-6.26618957520036
 30
0.0
 11
-372.968246250154
 21
-6.26618957520036
 31
0.0
  0
LINE
  5
   2F9
  8
0
  6
CONTINUOUS
 62
   130
 10
-372.468246326448
 20
-4.26618957520035
 30
0.0
 11
-372.468246212007
 21
-7.26618957520035
 31
0.0
  0
LINE
  5
   2FA
  8
0
  6
CONTINUOUS
 62
   130
 10
-351.468216075898
 20
-4.26618957520035
 30
0.0
 11
-351.468216190339
 21
-7.26618957520035
 31
0.0
  0
LINE
  5
   2FB
  8
0
  6
CONTINUOUS
 62
   130
 10
-372.468246326448
 20
-4.26618957520036
 30
0.0
 11
-351.468216075898
 21
-4.26618957520036
 31
0.0
  0
LINE
  5
   2FC
  8
0
  6
CONTINUOUS
 62
   130
 10
-350.968216152192
 20
-6.26618957520036
 30
0.0
 11
-322.968258743286
 21
-6.26618957520036
 31
0.0
  0
LINE
  5
   2FD
  8
0
  6
CONTINUOUS
 62
   130
 10
-372.968246345521
 20
-3.76618957520036
 30
0.0
 11
-350.968216056824
 21
-3.76618957520036
 31
0.0
  0
LINE
  5
   2FE
  8
0
  6
CONTINUOUS
 62
   130
 10
-350.968216056824
 20
-3.76618957520035
 30
0.0
 11
-350.968216190339
 21
-7.26618957520035
 31
0.0
  0
LINE
  5
   2FF
  8
0
  6
CONTINUOUS
 62
   130
 10
-372.968246345521
 20
-3.76618957520035
 30
0.0
 11
-372.968246212007
 21
-7.26618957520035
 31
0.0
  0
LINE
  5
   300
  8
0
  6
CONTINUOUS
 62
   130
 10
-325.468220443732
 20
44.7337834005011
 30
0.0
 11
-325.468222045906
 21
34.2337681417121
 31
0.0
  0
LINE
  5
   301
  8
0
  6
CONTINUOUS
 62
   130
 10
-398.468241958614
 20
44.7337834005011
 30
0.0
 11
-398.468240356439
 21
34.2337681417121
 31
0.0
  0
LINE
  5
   302
  8
0
  6
CONTINUOUS
 62
   130
 10
-325.468220443734
 20
-67.2662013407098
 30
0.0
 11
-325.468219985968
 21
-70.266216446911
 31
0.0
  0
INSERT
  5
   303
  8
0
  6
CONTINUOUS
 62
   130
  2
SSS
 10
-349.468149246779
 20
-61.2661722284693
 30
0.0
 50
359.999999792138
  0
INSERT
  5
   304
  8
0
  6
CONTINUOUS
 62
   130
  2
SSS
 10
-374.468195060469
 20
38.7338458009087
 30
0.0
 50
359.999999792138
  0
CIRCLE
  5
   305
  8
0
  6
CONTINUOUS
 62
   130
 10
-349.468149246779
 20
-61.2661722284693
 30
0.0
 40
4.4999575073053
  0
LINE
  5
   306
  8
0
  6
CONTINUOUS
 62
   130
 10
-351.468217178798
 20
-33.1780403698295
 30
0.0
 11
-351.468217293239
 21
-36.1780403698295
 31
0.0
  0
LINE
  5
   307
  8
0
  6
CONTINUOUS
 62
   130
 10
-372.468245223548
 20
-33.1780403698295
 30
0.0
 11
-372.468245109106
 21
-36.1780403698295
 31
0.0
  0
LINE
  5
   308
  8
0
  6
CONTINUOUS
 62
   130
 10
-372.468245223547
 20
-33.1780403698295
 30
0.0
 11
-369.468245223547
 21
-33.1780403698295
 31
0.0
  0
LINE
  5
   309
  8
0
  6
CONTINUOUS
 62
   130
 10
-354.468217178798
 20
-33.1780403698295
 30
0.0
 11
-351.468217178798
 21
-33.1780403698295
 31
0.0
  0
LINE
  5
   30A
  8
0
  6
CONTINUOUS
 62
   130
 10
-372.468245109106
 20
-36.1780403698295
 30
0.0
 11
-368.468245109106
 21
-36.1780403698295
 31
0.0
  0
LINE
  5
   30B
  8
0
  6
CONTINUOUS
 62
   130
 10
-355.468217293239
 20
-36.1780403698295
 30
0.0
 11
-351.468217293239
 21
-36.1780403698295
 31
0.0
  0
LINE
  5
   30C
  8
0
  6
CONTINUOUS
 62
   130
 10
-351.968156350744
 20
45.2337799072284
 30
0.0
 11
-346.968128230353
 21
45.2337799072284
 31
0.0
  0
LINE
  5
   30D
  8
0
  6
CONTINUOUS
 62
   130
 10
-376.968274580351
 20
-67.7661895751935
 30
0.0
 11
-371.968246459961
 21
-67.7661895751935
 31
0.0
  0
LINE
  5
   30E
  8
0
  6
CONTINUOUS
 62
   130
 10
-351.968156350744
 20
-67.7661895751935
 30
0.0
 11
-346.968128230353
 21
-67.7661895751935
 31
0.0
  0
LINE
  5
   30F
  8
0
  6
CONTINUOUS
 62
   130
 10
-377.568228912354
 20
-38.5162048339826
 30
0.0
 11
-377.568228912354
 21
-43.0162048339826
 31
0.0
  0
LINE
  5
   310
  8
0
  6
CONTINUOUS
 62
   130
 10
-387.568228912354
 20
-38.5162048339826
 30
0.0
 11
-387.568228912354
 21
-43.0162048339826
 31
0.0
  0
LINE
  5
   311
  8
0
  6
CONTINUOUS
 62
   130
 10
-387.568228912354
 20
-38.5162048339826
 30
0.0
 11
-377.568228912354
 21
-38.5162048339826
 31
0.0
  0
LINE
  5
   312
  8
0
  6
CONTINUOUS
 62
   130
 10
-387.568228912354
 20
-43.0162048339826
 30
0.0
 11
-377.568228912354
 21
-43.0162048339826
 31
0.0
  0
LINE
  5
   313
  8
0
  6
CONTINUOUS
 62
   130
 10
-400.968196182253
 20
-55.2662013407098
 30
0.0
 11
-361.968245433032
 21
-55.2662013407098
 31
0.0
  0
LINE
  5
   314
  8
0
  6
CONTINUOUS
 62
   130
 10
-399.968180764798
 20
-56.7662013407098
 30
0.0
 11
-361.968224525452
 21
-56.7662013407098
 31
0.0
  0
LINE
  5
   315
  8
0
  6
CONTINUOUS
 62
   130
 10
-397.463451142773
 20
-71.2662048339826
 30
0.0
 11
-375.118352890015
 21
-71.2662048339826
 31
0.0
  0
INSERT
  5
   316
  8
0
  6
CONTINUOUS
 62
     3
  2
*UDIM42
 10
0.0
 20
0.0
 30
0.0
  0
TEXT
  5
   317
  8
0
  6
CONTINUOUS
 62
     2
 10
-416.756158490083
 20
-24.6381745457577
 30
0.0
 40
3.00000002980232
  1
X
 50
359.999999844103
 41
0.916666674282816
 72
     1
 11
-415.656158447266
 21
-23.138174533844
 31
0.0
 73
     2
  0
TEXT
  5
   318
  8
0
  6
CONTINUOUS
 62
     2
 10
-363.032326217167
 20
84.9413088562938
 30
0.0
 40
3.00000002980232
  1
Y
 50
359.999999844103
 41
0.916666674282816
 72
     1
 11
-361.93232617435
 21
86.4413088682075
 31
0.0
 73
     2
  0
TEXT
  5
   319
  8
0
  6
CONTINUOUS
 62
     2
 10
-363.021424870517
 20
-100.200905236522
 30
0.0
 40
3.00000002980232
  1
Y
 50
359.999999844103
 41
0.916666674282816
 72
     1
 11
-361.921424827701
 21
-98.7009052246083
 31
0.0
 73
     2
  0
INSERT
  5
   31A
  8
0
  6
CONTINUOUS
 62
     7
  2
*UDIM43
 10
0.0
 20
0.0
 30
0.0
  0
INSERT
  5
   31B
  8
0
  6
CONTINUOUS
 62
     7
  2
*UDIM44
 10
0.0
 20
0.0
 30
0.0
  0
INSERT
  5
   31C
  8
0
  6
CONTINUOUS
 62
     7
  2
*UDIM45
 10
0.0
 20
0.0
 30
0.0
  0
INSERT
  5
   31D
  8
0
  6
CONTINUOUS
 62
     7
  2
*UDIM46
 10
0.0
 20
0.0
 30
0.0
  0
INSERT
  5
   31E
  8
0
  6
CONTINUOUS
 62
     3
  2
*UDIM47
 10
0.0
 20
0.0
 30
0.0
  0
INSERT
  5
   31F
  8
0
  6
CONTINUOUS
 62
     7
  2
*UDIM48
 10
0.0
 20
0.0
 30
0.0
  0
INSERT
  5
   320
  8
0
  6
CONTINUOUS
 62
     7
  2
*UDIM49
 10
0.0
 20
0.0
 30
0.0
  0
INSERT
  5
   321
  8
0
  6
CONTINUOUS
 62
     7
  2
*UDIM50
 10
0.0
 20
0.0
 30
0.0
  0
INSERT
  5
   322
  8
0
  6
CONTINUOUS
 62
     7
  2
*UDIM51
 10
0.0
 20
0.0
 30
0.0
  0
LINE
  5
   323
  8
0
  6
CONTINUOUS
 62
   130
 10
-398.468301550253
 20
-67.2662013407098
 30
0.0
 11
-398.468302008019
 21
-70.266216446911
 31
0.0
  0
ARC
  5
   324
  8
0
  6
CONTINUOUS
 62
   130
 10
-397.468302008019
 20
-70.2662165994989
 30
0.0
 40
1.0
 50
539.999991101463
 51
630.277935039703
  0
LINE
  5
   325
  8
0
  6
CONTINUOUS
 62
   130
 10
-399.968284613005
 20
-67.2662013407098
 30
0.0
 11
-398.468301550253
 21
-67.2662013407098
 31
0.0
  0
ARC
  5
   326
  8
0
  6
CONTINUOUS
 62
   130
 10
-399.968284613005
 20
-66.2662013407098
 30
0.0
 40
1.0
 50
539.230832980014
 51
629.999999844103
  0
LINE
  5
   327
  8
0
  6
CONTINUOUS
 62
   130
 10
-399.968180535917
 20
-55.2662013407098
 30
0.0
 11
-399.968180764798
 21
-56.7662013407098
 31
0.0
  0
LINE
  5
   328
  8
0
  6
CONTINUOUS
 62
   130
 10
-398.468180764798
 20
-56.7662013407098
 30
0.0
 11
-398.468182366971
 21
-67.2662013407098
 31
0.0
  0
LINE
  5
   329
  8
0
  6
CONTINUOUS
 62
     2
 10
-375.118352890015
 20
64.7337799072266
 30
0.0
 11
-388.968201405352
 21
50.883931391889
 31
0.0
  0
LINE
  5
   32A
  8
0
  6
CONTINUOUS
 62
     2
 10
-388.968201405352
 20
50.8839313918889
 30
0.0
 11
-388.968201405352
 21
48.7337799072296
 31
0.0
  0
LINE
  5
   32B
  8
0
  6
CONTINUOUS
 62
     2
 10
-388.968201405352
 20
-73.4163563186468
 30
0.0
 11
-375.118352890015
 21
-87.2662048339844
 31
0.0
  0
LINE
  5
   32C
  8
0
  6
CONTINUOUS
 62
     2
 10
-388.968201405352
 20
-71.2662048339826
 30
0.0
 11
-388.968201405352
 21
-73.4163563186467
 31
0.0
  0
LINE
  5
   32D
  8
0
  6
CONTINUOUS
 62
     2
 10
-334.968320588634
 20
-73.4163563186468
 30
0.0
 11
-348.818169103972
 21
-87.2662048339844
 31
0.0
  0
LINE
  5
   32E
  8
0
  6
CONTINUOUS
 62
     2
 10
-334.968320588634
 20
-71.2662048339826
 30
0.0
 11
-334.968320588634
 21
-73.4163563186467
 31
0.0
  0
LINE
  5
   32F
  8
0
  6
CONTINUOUS
 62
     2
 10
-348.818169103972
 20
64.7337799072266
 30
0.0
 11
-334.968320588634
 21
50.883931391889
 31
0.0
  0
LINE
  5
   330
  8
0
  6
CONTINUOUS
 62
     2
 10
-334.968320588634
 20
50.8839313918889
 30
0.0
 11
-334.968320588634
 21
48.7337799072296
 31
0.0
  0
LINE
  5
   331
  8
0
  6
CONTINUOUS
 62
     2
 10
-365.968201405352
 20
54.2337799072266
 30
0.0
 11
-357.968201405352
 21
54.2337799072266
 31
0.0
  0
LINE
  5
   332
  8
0
  6
CONTINUOUS
 62
     2
 10
-365.968260996993
 20
-76.7662048339844
 30
0.0
 11
-357.968260996993
 21
-76.7662048339844
 31
0.0
  0
LINE
  5
   333
  8
0
  6
CONTINUOUS
 62
     2
 10
-356.968201405352
 20
53.2337799072266
 30
0.0
 11
-356.968201405352
 21
48.7337799072284
 31
0.0
  0
LINE
  5
   334
  8
0
  6
CONTINUOUS
 62
     2
 10
-366.968201405352
 20
53.2337799072266
 30
0.0
 11
-366.968201405352
 21
48.7337799072284
 31
0.0
  0
LINE
  5
   335
  8
0
  6
CONTINUOUS
 62
     2
 10
-356.968260996993
 20
-71.2662048339826
 30
0.0
 11
-356.968260996993
 21
-75.7662048339844
 31
0.0
  0
LINE
  5
   336
  8
0
  6
CONTINUOUS
 62
     2
 10
-366.968260996993
 20
-71.2662048339826
 30
0.0
 11
-366.968260996993
 21
-75.7662048339844
 31
0.0
  0
ARC
  5
   337
  8
0
  6
CONTINUOUS
 62
     2
 10
-357.968260996993
 20
-75.7662048339844
 30
0.0
 40
1.0
 50
269.999999844103
 51
359.999999844103
  0
ARC
  5
   338
  8
0
  6
CONTINUOUS
 62
     2
 10
-365.968260996993
 20
-75.7662048339844
 30
0.0
 40
1.0
 50
539.999999844103
 51
629.999999844103
  0
ARC
  5
   339
  8
0
  6
CONTINUOUS
 62
     2
 10
-357.968201405352
 20
53.2337799072266
 30
0.0
 40
1.0
 50
359.999999844103
 51
449.999999844103
  0
ARC
  5
   33A
  8
0
  6
CONTINUOUS
 62
     2
 10
-365.968201405352
 20
53.2337799072266
 30
0.0
 40
1.0
 50
449.999999844103
 51
539.999999844103
  0
LINE
  5
   33B
  8
0
  6
CONTINUOUS
 62
   130
 10
-108.043273061514
 20
44.9196419019915
 30
0.0
 11
-108.043273061514
 21
-8.73185458931644
 31
0.0
  0
LINE
  5
   33C
  8
0
  6
CONTINUOUS
 62
   130
 10
-80.7432788670062
 20
44.9196419019915
 30
0.0
 11
-80.7432788670062
 21
-8.73185458931644
 31
0.0
  0
CIRCLE
  5
   33D
  8
0
  6
CONTINUOUS
 62
   130
 10
-100.643273219466
 20
43.0646964997054
 30
0.0
 40
1.125
  0
CIRCLE
  5
   33E
  8
0
  6
CONTINUOUS
 62
   130
 10
-88.1432733684778
 20
-6.93529222309598
 30
0.0
 40
1.125
  0
LINE
  5
   33F
  8
0
  6
DASHDOT
 62
   130
 10
-100.643273219466
 20
47.2646964281798
 30
0.0
 11
-100.643273219466
 21
38.864696571231
 31
0.0
  0
LINE
  5
   340
  8
0
  6
DASHDOT
 62
   130
 10
-106.093273147941
 20
43.0646964997054
 30
0.0
 11
-97.6932732909918
 21
43.0646964997054
 31
0.0
  0
LINE
  5
   341
  8
0
  6
CONTINUOUS
 62
   130
 10
-88.1432733684778
 20
-2.73529229462156
 30
0.0
 11
-88.1432733684778
 21
-11.1352921515704
 31
0.0
  0
LINE
  5
   342
  8
0
  6
DASHDOT
 62
   130
 10
-95.4682732969522
 20
-6.93529222309598
 30
0.0
 11
-87.0682734400034
 21
-6.93529222309598
 31
0.0
  0
LINE
  5
   343
  8
0
  6
DASHDOT
 62
   130
 10
-94.3932786345481
 20
49.9418269150154
 30
0.0
 11
-94.3932786345481
 21
-14.965977419632
 31
0.0
  0
LINE
  5
   344
  8
0
  6
CONTINUOUS
 62
   130
 10
-108.043273061514
 20
44.9196419019915
 30
0.0
 11
-80.7432788670062
 21
44.9196419019915
 31
0.0
  0
LINE
  5
   345
  8
0
  6
CONTINUOUS
 62
   130
 10
-108.043273061514
 20
-8.73185458931644
 30
0.0
 11
-80.7432788670062
 21
-8.73185458931644
 31
0.0
  0
LINE
  5
   346
  8
0
  6
DASHDOT
 62
   130
 10
-112.792597950475
 20
12.0646964997054
 30
0.0
 11
-75.5324281165143
 21
12.0646964997054
 31
0.0
  0
TEXT
  5
   347
  8
0
  6
CONTINUOUS
 62
     2
 10
-95.3693157624213
 20
52.463697421558
 30
0.0
 40
3.00000002980232
  1
Y
 50
359.999999844103
 41
0.916666674282816
 72
     1
 11
-94.2693157196045
 21
53.9636974334717
 31
0.0
 73
     2
  0
TEXT
  5
   348
  8
0
  6
CONTINUOUS
 62
     2
 10
-73.8567123453825
 20
10.4109436277635
 30
0.0
 40
3.00000002980232
  1
X
 50
359.999999844103
 41
0.916666674282816
 11
-73.8567123413087
 21
11.9109436426647
 31
0.0
 73
     2
  0
TEXT
  5
   349
  8
0
  6
CONTINUOUS
 62
     2
 10
-119.132175453169
 20
10.3160645654204
 30
0.0
 40
3.00000002980232
  1
X
 50
359.999999844103
 41
0.916666674282816
 11
-119.132175449095
 21
11.8160645803215
 31
0.0
 73
     2
  0
TEXT
  5
   34A
  8
0
  6
CONTINUOUS
 62
     2
 10
-95.1349973719328
 20
-18.716749548506
 30
0.0
 40
3.00000002980232
  1
Y
 50
359.999999844103
 41
0.916666674282816
 11
-95.1349973678589
 21
-17.2167495336048
 31
0.0
 73
     2
  0
INSERT
  5
   34B
  8
0
  6
CONTINUOUS
 62
     3
  2
*UDIM52
 10
0.0
 20
0.0
 30
0.0
  0
INSERT
  5
   34C
  8
0
  6
CONTINUOUS
 62
     3
  2
*UDIM53
 10
0.0
 20
0.0
 30
0.0
  0
INSERT
  5
   34D
  8
0
  6
CONTINUOUS
 62
     3
  2
*UDIM54
 10
0.0
 20
0.0
 30
0.0
  0
INSERT
  5
   34E
  8
0
  6
CONTINUOUS
 62
     7
  2
*UDIM55
 10
0.0
 20
0.0
 30
0.0
  0
INSERT
  5
   34F
  8
0
  6
CONTINUOUS
 62
     3
  2
*HATCH4
 10
-139.529190063477
 20
-25.7662048339844
 30
0.0
 50
269.999999844103
  0
LINE
  5
   350
  8
0
  6
CONTINUOUS
 62
   130
 10
-265.27659778595
 20
32.2337838412495
 30
0.0
 11
-264.076582717896
 21
32.2337838412495
 31
0.0
  0
LINE
  5
   351
  8
0
  6
CONTINUOUS
 62
   130
 10
-265.27659778595
 20
43.7337838412495
 30
0.0
 11
-264.076582717896
 21
43.7337838412495
 31
0.0
  0
LINE
  5
   352
  8
0
  6
CONTINUOUS
 62
   130
 10
-265.27659778595
 20
-68.2662047146587
 30
0.0
 11
-264.076582717896
 21
-68.2662047146587
 31
0.0
  0
LINE
  5
   353
  8
0
  6
CONTINUOUS
 62
   130
 10
-265.27659778595
 20
43.7337838412495
 30
0.0
 11
-265.27659778595
 21
21.9337059661508
 31
0.0
  0
LINE
  5
   354
  8
0
  6
CONTINUOUS
 62
   130
 10
-265.27659778595
 20
-47.7661856411723
 30
0.0
 11
-265.27659778595
 21
-68.2662008999614
 31
0.0
  0
LINE
  5
   355
  8
0
  6
CONTINUOUS
 62
   130
 10
-262.776582717896
 20
43.7337800265523
 30
0.0
 11
-262.776582717896
 21
-68.2662047146587
 31
0.0
  0
LINE
  5
   356
  8
0
  6
CONTINUOUS
 62
   130
 10
-266.476613426209
 20
20.9337655307027
 30
0.0
 11
-266.27659778595
 21
20.9337655307027
 31
0.0
  0
LINE
  5
   357
  8
0
  6
CONTINUOUS
 62
   130
 10
-266.476613426209
 20
19.7337838412495
 30
0.0
 11
-266.276597976685
 21
19.7337838412495
 31
0.0
  0
LINE
  5
   358
  8
0
  6
CONTINUOUS
 62
   130
 10
-272.07659702301
 20
20.9337655307027
 30
0.0
 11
-272.07659702301
 21
19.7337838412495
 31
0.0
  0
LINE
  5
   359
  8
0
  6
CONTINUOUS
 62
   130
 10
-272.07659702301
 20
-0.266216158750467
 30
0.0
 11
-272.07659702301
 21
-1.46621310699265
 31
0.0
  0
LINE
  5
   35A
  8
0
  6
CONTINUOUS
 62
   130
 10
-272.07659702301
 20
-39.2662161587505
 30
0.0
 11
-272.07659702301
 21
-44.2662161587505
 31
0.0
  0
LINE
  5
   35B
  8
0
  6
CONTINUOUS
 62
   130
 10
-272.07659702301
 20
-39.2662161587505
 30
0.0
 11
-268.746455001831
 21
-39.2662161587505
 31
0.0
  0
LINE
  5
   35C
  8
0
  6
CONTINUOUS
 62
   130
 10
-268.746484443941
 20
-39.266218441124
 30
0.0
 11
-268.076611906196
 21
-41.7662159226939
 31
0.0
  0
LINE
  5
   35D
  8
0
  6
CONTINUOUS
 62
   130
 10
-268.07659702301
 20
-41.7662161587505
 30
0.0
 11
-267.07659702301
 21
-41.7662161587505
 31
0.0
  0
LINE
  5
   35E
  8
0
  6
CONTINUOUS
 62
   130
 10
-267.07659702301
 20
-6.26621615875047
 30
0.0
 11
-267.07659702301
 21
-41.7662161587505
 31
0.0
  0
LINE
  5
   35F
  8
0
  6
CONTINUOUS
 62
   130
 10
-268.07659702301
 20
-6.26621615875047
 30
0.0
 11
-267.07659702301
 21
-6.26621615875047
 31
0.0
  0
LINE
  5
   360
  8
0
  6
CONTINUOUS
 62
   130
 10
-272.076612619404
 20
-5.19439972852349
 30
0.0
 11
-269.085981182609
 21
-5.99574514676274
 31
0.0
  0
LINE
  5
   361
  8
0
  6
CONTINUOUS
 62
   130
 10
-272.07659702301
 20
-3.26621615875047
 30
0.0
 11
-272.07659702301
 21
-5.19440829742234
 31
0.0
  0
LINE
  5
   362
  8
0
  6
DOT
 62
   130
 10
-265.27659778595
 20
0.233783841249533
 30
0.0
 11
-264.344531881809
 21
0.233783841249533
 31
0.0
  0
LINE
  5
   363
  8
0
  6
CONTINUOUS
 62
   130
 10
-268.576582717896
 20
-47.766205668333
 30
0.0
 11
-264.076582717896
 21
-47.766205668333
 31
0.0
  0
LINE
  5
   364
  8
0
  6
CONTINUOUS
 62
   130
 10
-267.676567459107
 20
48.2337838412495
 30
0.0
 11
-266.476613426209
 21
48.2337838412495
 31
0.0
  0
LINE
  5
   365
  8
0
  6
CONTINUOUS
 62
   130
 10
-266.476613426209
 20
-6.26623141753953
 30
0.0
 11
-266.476613426209
 21
-7.08774936187547
 31
0.0
  0
LINE
  5
   366
  8
0
  6
CONTINUOUS
 62
   130
 10
-266.476613426209
 20
19.7337533236714
 30
0.0
 11
-266.476613426209
 21
-6.26621615875047
 31
0.0
  0
LINE
  5
   367
  8
0
  6
CONTINUOUS
 62
   130
 10
-266.476613426209
 20
48.2337838412495
 30
0.0
 11
-266.476613426209
 21
19.7337838412495
 31
0.0
  0
LINE
  5
   368
  8
0
  6
CONTINUOUS
 62
   130
 10
-266.47654396407
 20
-7.087748992142
 30
0.0
 11
-268.637314067523
 21
-10.8303191878257
 31
0.0
  0
LINE
  5
   369
  8
0
  6
CONTINUOUS
 62
   130
 10
-269.676584622925
 20
-10.2303380864879
 30
0.0
 11
-268.637393713533
 21
-10.8303213730432
 31
0.0
  0
LINE
  5
   36A
  8
0
  6
CONTINUOUS
 62
   130
 10
-267.676597386551
 20
-6.76623098636506
 30
0.0
 11
-269.676597336243
 21
-10.2303268921569
 31
0.0
  0
LINE
  5
   36B
  8
0
  6
CONTINUOUS
 62
   130
 10
-267.676567459107
 20
48.2337838412495
 30
0.0
 11
-267.676567459107
 21
19.7337838412495
 31
0.0
  0
LINE
  5
   36C
  8
0
  6
CONTINUOUS
 62
   130
 10
-267.676567459107
 20
19.7337838412495
 30
0.0
 11
-267.676567459107
 21
3.304851653115
 31
0.0
  0
LINE
  5
   36D
  8
0
  6
CONTINUOUS
 62
   130
 10
-267.676567459107
 20
-5.97143161285203
 30
0.0
 11
-267.676567459107
 21
-6.76621615875047
 31
0.0
  0
LINE
  5
   36E
  8
0
  6
CONTINUOUS
 62
   130
 10
-266.476612854004
 20
-64.7662047146587
 30
0.0
 11
-266.27659778595
 21
-64.7662047146587
 31
0.0
  0
LINE
  5
   36F
  8
0
  6
CONTINUOUS
 62
   130
 10
-266.476612854004
 20
-59.766205668333
 30
0.0
 11
-266.27659778595
 21
-59.766205668333
 31
0.0
  0
ARC
  5
   370
  8
0
  6
CONTINUOUS
 62
   130
 10
-268.576645935182
 20
-3.26620847500198
 30
0.0
 40
3.49996037873244
 50
509.049876306511
 51
539.99994520259
  0
LINE
  5
   371
  8
0
  6
CONTINUOUS
 62
   130
 10
-267.776597976685
 20
20.9337655307027
 30
0.0
 11
-267.776597976685
 21
19.7337838412495
 31
0.0
  0
LINE
  5
   372
  8
0
  6
CONTINUOUS
 62
   130
 10
-267.776597976685
 20
-0.266216158750467
 30
0.0
 11
-267.776597976685
 21
-1.46621310699265
 31
0.0
  0
LINE
  5
   373
  8
0
  6
CONTINUOUS
 62
   130
 10
-266.37658290863
 20
20.9337655307027
 30
0.0
 11
-266.37658290863
 21
19.7337838412495
 31
0.0
  0
LINE
  5
   374
  8
0
  6
CONTINUOUS
 62
   130
 10
-266.37658290863
 20
-0.266216158750467
 30
0.0
 11
-266.37658290863
 21
-1.46621310699265
 31
0.0
  0
LINE
  5
   375
  8
0
  6
CONTINUOUS
 62
   130
 10
-272.076596069336
 20
20.9337655307027
 30
0.0
 11
-267.776597976685
 21
20.9337655307027
 31
0.0
  0
LINE
  5
   376
  8
0
  6
CONTINUOUS
 62
   130
 10
-272.076596069336
 20
19.7337838412495
 30
0.0
 11
-267.776597976685
 21
19.7337838412495
 31
0.0
  0
LINE
  5
   377
  8
0
  6
CONTINUOUS
 62
   130
 10
-272.07659702301
 20
-0.266216158750467
 30
0.0
 11
-267.776597976685
 21
-0.266216158750467
 31
0.0
  0
LINE
  5
   378
  8
0
  6
CONTINUOUS
 62
   130
 10
-272.07659702301
 20
-1.46621310699265
 30
0.0
 11
-267.776597976685
 21
-1.46621310699265
 31
0.0
  0
LINE
  5
   379
  8
0
  6
CONTINUOUS
 62
   130
 10
-267.686618425521
 20
3.16342382312164
 30
0.0
 11
-268.152324258113
 21
-0.096517005021731
 31
0.0
  0
LINE
  5
   37A
  8
0
  6
CONTINUOUS
 62
   130
 10
-266.486618616256
 20
3.078141113739
 30
0.0
 11
-266.964384865719
 21
-0.266222632506508
 31
0.0
  0
LINE
  5
   37B
  8
0
  6
CONTINUOUS
 62
   130
 10
-268.152324258113
 20
-9.65170050216955E-2
 30
0.0
 11
-266.964384865719
 21
-0.266222632506469
 31
0.0
  0
ARC
  5
   37C
  8
0
  6
CONTINUOUS
 62
   130
 10
-268.676567459107
 20
3.304851653115
 30
0.0
 40
1.0
 50
351.869897489947
 51
359.999999844103
  0
ARC
  5
   37D
  8
0
  6
CONTINUOUS
 62
   130
 10
-267.476613426209
 20
3.21956894373237
 30
0.0
 40
1.0
 50
351.869897489947
 51
359.999999844103
  0
LINE
  5
   37E
  8
0
  6
CONTINUOUS
 62
   130
 10
-266.476613426209
 20
-0.266216158750467
 30
0.0
 11
-266.276597976685
 21
-0.266216158750467
 31
0.0
  0
LINE
  5
   37F
  8
0
  6
CONTINUOUS
 62
   130
 10
-266.476613426209
 20
-1.46621310699265
 30
0.0
 11
-266.27659778595
 21
-1.46621310699265
 31
0.0
  0
LINE
  5
   380
  8
0
  6
DOT
 62
   130
 10
-267.676567459107
 20
3.304851653115
 30
0.0
 11
-267.676567459107
 21
-0.164475722541557
 31
0.0
  0
LINE
  5
   381
  8
0
  6
CONTINUOUS
 62
   130
 10
-267.676567459107
 20
-0.164475722541557
 30
0.0
 11
-267.676567459107
 21
-5.97146032973786
 31
0.0
  0
LINE
  5
   382
  8
0
  6
CONTINUOUS
 62
   130
 10
-267.676567459107
 20
46.2337838412495
 30
0.0
 11
-266.476613426209
 21
46.2337838412495
 31
0.0
  0
LINE
  5
   383
  8
0
  6
CONTINUOUS
 62
   130
 10
-267.676567459107
 20
28.2337838412495
 30
0.0
 11
-266.476613426209
 21
28.2337838412495
 31
0.0
  0
LINE
  5
   384
  8
0
  6
CONTINUOUS
 62
   130
 10
-267.676567459107
 20
12.7337838412495
 30
0.0
 11
-266.476613426209
 21
12.7337838412495
 31
0.0
  0
LINE
  5
   385
  8
0
  6
CONTINUOUS
 62
   130
 10
-267.676567459107
 20
5.73378384124953
 30
0.0
 11
-266.476613426209
 21
5.73378384124953
 31
0.0
  0
LINE
  5
   386
  8
0
  6
CONTINUOUS
 62
   130
 10
-267.676567459107
 20
-1.76621310699266
 30
0.0
 11
-266.476613426209
 21
-1.76621310699266
 31
0.0
  0
INSERT
  5
   387
  8
0
  6
CONTINUOUS
 62
     7
  2
*HATCH5
 10
-139.529190063477
 20
-25.7662048339844
 30
0.0
 50
269.999999844103
  0
INSERT
  5
   388
  8
0
  6
CONTINUOUS
 62
     7
  2
*HATCH6
 10
-139.529190063477
 20
-25.7662048339844
 30
0.0
 50
269.999999844103
  0
INSERT
  5
   389
  8
0
  6
CONTINUOUS
 62
     7
  2
*HATCH7
 10
-139.529190063477
 20
-25.7662048339844
 30
0.0
 50
269.999999844103
  0
INSERT
  5
   38A
  8
0
  6
CONTINUOUS
 62
     7
  2
*HATCH8
 10
-139.529190063477
 20
-25.7662048339844
 30
0.0
 50
269.999999844103
  0
ARC
  5
   38B
  8
0
  6
CONTINUOUS
 62
   130
 10
-266.27659778595
 20
-2.46621310699265
 30
0.0
 40
1.0
 50
359.999999844103
 51
449.999999844103
  0
ARC
  5
   38C
  8
0
  6
CONTINUOUS
 62
   130
 10
-266.276597976685
 20
-2.46621615875047
 30
0.0
 40
2.19999904632568
 50
359.999999844103
 51
449.999999844103
  0
LINE
  5
   38D
  8
0
  6
CONTINUOUS
 62
   130
 10
-266.476613426209
 20
0.233783841249533
 30
0.0
 11
-265.27659778595
 21
0.233783841249533
 31
0.0
  0
ARC
  5
   38E
  8
0
  6
CONTINUOUS
 62
   130
 10
-268.576645935182
 20
-3.26620847500198
 30
0.0
 40
3.49996037873244
 50
467.486019062348
 51
481.001855151888
  0
ARC
  5
   38F
  8
0
  6
DOT
 62
   130
 10
-268.576645935182
 20
-3.26620847500198
 30
0.0
 40
3.49996037873244
 50
481.001855151888
 51
509.049876306511
  0
ARC
  5
   390
  8
0
  6
CONTINUOUS
 62
   130
 10
-268.576645935182
 20
-3.26620847500198
 30
0.0
 40
3.49996037873244
 50
449.999999844103
 51
467.486019062348
  0
LINE
  5
   391
  8
0
  6
CONTINUOUS
 62
   130
 10
-268.576595175266
 20
0.233783841249533
 30
0.0
 11
-268.105154146467
 21
0.233783841249533
 31
0.0
  0
LINE
  5
   392
  8
0
  6
CONTINUOUS
 62
   130
 10
-269.085981182609
 20
-5.99574514676274
 30
0.0
 11
-268.076611086081
 21
-6.26620779629187
 31
0.0
  0
ARC
  5
   393
  8
0
  6
CONTINUOUS
 62
   130
 10
-268.57665151822
 20
-44.2662342812719
 30
0.0
 40
3.49994520846391
 50
540.000159625357
 51
630.000829476908
  0
ARC
  5
   394
  8
0
  6
CONTINUOUS
 62
   130
 10
-266.276597976685
 20
21.9337685824605
 30
0.0
 40
2.19999904632568
 50
269.999999844103
 51
359.999999844103
  0
LINE
  5
   395
  8
0
  6
DOT
 62
   130
 10
-265.27659778595
 20
-0.506624461857896
 30
0.0
 11
-265.27659778595
 21
-2.46621310699265
 31
0.0
  0
LINE
  5
   396
  8
0
  6
CONTINUOUS
 62
   130
 10
-265.27659778595
 20
-2.46621310699265
 30
0.0
 11
-265.27659778595
 21
-23.665098146297
 31
0.0
  0
LINE
  5
   397
  8
0
  6
CONTINUOUS
 62
   130
 10
-265.27659778595
 20
19.9741921443568
 30
0.0
 11
-265.27659778595
 21
-0.506624461857896
 31
0.0
  0
LINE
  5
   398
  8
0
  6
DOT
 62
   130
 10
-265.27659778595
 20
21.9337059661508
 30
0.0
 11
-265.27659778595
 21
19.9741921443568
 31
0.0
  0
LINE
  5
   399
  8
0
  6
CONTINUOUS
 62
   130
 10
-265.27659778595
 20
-56.7662047146587
 30
0.0
 11
-264.076582717896
 21
-56.7662047146587
 31
0.0
  0
ARC
  5
   39A
  8
0
  6
CONTINUOUS
 62
   130
 10
-266.276598235119
 20
21.9337933642926
 30
0.0
 40
1.00003107655773
 50
270.00070276675
 51
359.997118270512
  0
ARC
  5
   39B
  8
0
  6
CONTINUOUS
 62
   130
 10
-266.276597833561
 20
-58.7662068120487
 30
0.0
 40
0.999999854264095
 50
270.000056701202
 51
359.999980612941
  0
ARC
  5
   39C
  8
0
  6
CONTINUOUS
 62
   130
 10
-266.276596676039
 20
-65.7662031608826
 30
0.0
 40
0.999999781581745
 50
359.999963768781
 51
449.999994616734
  0
LINE
  5
   39D
  8
0
  6
DASHDOT
 62
   130
 10
-267.788071713192
 20
-62.2662047146587
 30
0.0
 11
-262.824455549053
 21
-62.2662047146587
 31
0.0
  0
LINE
  5
   39E
  8
0
  6
DOT
 62
   130
 10
-266.476612854004
 20
-60.7662047146587
 30
0.0
 11
-264.076582717896
 21
-60.7662047146587
 31
0.0
  0
LINE
  5
   39F
  8
0
  6
DOT
 62
   130
 10
-266.476612854004
 20
-63.7662047146587
 30
0.0
 11
-264.076582717896
 21
-63.7662047146587
 31
0.0
  0
LINE
  5
   3A0
  8
0
  6
DOT
 62
   130
 10
-266.476612854004
 20
-60.2662047146587
 30
0.0
 11
-264.076582717896
 21
-60.2662047146587
 31
0.0
  0
LINE
  5
   3A1
  8
0
  6
DOT
 62
   130
 10
-266.476612854004
 20
-64.2662047146587
 30
0.0
 11
-264.076582717896
 21
-64.2662047146587
 31
0.0
  0
LINE
  5
   3A2
  8
0
  6
CONTINUOUS
 62
   130
 10
-266.476612854004
 20
-59.766205668333
 30
0.0
 11
-266.476612854004
 21
-64.7662047146587
 31
0.0
  0
ARC
  5
   3A3
  8
0
  6
CONTINUOUS
 62
   130
 10
-266.276596676039
 20
41.2337784727762
 30
0.0
 40
0.999999781581745
 50
270.000005071472
 51
360.000035919426
  0
LINE
  5
   3A4
  8
0
  6
CONTINUOUS
 62
   130
 10
-266.476612854004
 20
40.2337800265523
 30
0.0
 11
-266.27659778595
 21
40.2337800265523
 31
0.0
  0
LINE
  5
   3A5
  8
0
  6
CONTINUOUS
 62
   130
 10
-266.476612854004
 20
40.2337800265523
 30
0.0
 11
-266.476612854004
 21
35.2337809802266
 31
0.0
  0
LINE
  5
   3A6
  8
0
  6
CONTINUOUS
 62
   130
 10
-266.476612854004
 20
35.2337809802266
 30
0.0
 11
-266.27659778595
 21
35.2337809802266
 31
0.0
  0
ARC
  5
   3A7
  8
0
  6
CONTINUOUS
 62
   130
 10
-266.276597833561
 20
34.2337821239423
 30
0.0
 40
0.999999854264095
 50
360.000019075265
 51
449.999888345491
  0
LINE
  5
   3A8
  8
0
  6
DOT
 62
   130
 10
-266.476612854004
 20
35.7337800265523
 30
0.0
 11
-264.076582717896
 21
35.7337800265523
 31
0.0
  0
LINE
  5
   3A9
  8
0
  6
DOT
 62
   130
 10
-266.476612854004
 20
36.2337800265523
 30
0.0
 11
-264.076582717896
 21
36.2337800265523
 31
0.0
  0
LINE
  5
   3AA
  8
0
  6
DASHDOT
 62
   130
 10
-267.788071713192
 20
37.7337800265523
 30
0.0
 11
-262.824455549053
 21
37.7337800265523
 31
0.0
  0
LINE
  5
   3AB
  8
0
  6
DOT
 62
   130
 10
-266.476612854004
 20
39.2337800265523
 30
0.0
 11
-264.076582717896
 21
39.2337800265523
 31
0.0
  0
LINE
  5
   3AC
  8
0
  6
DOT
 62
   130
 10
-266.476612854004
 20
39.7337800265523
 30
0.0
 11
-264.076582717896
 21
39.7337800265523
 31
0.0
  0
LINE
  5
   3AD
  8
0
  6
CONTINUOUS
 62
   130
 10
-266.476613426209
 20
4.23378384124953
 30
0.0
 11
-264.756037174844
 21
4.23378384124953
 31
0.0
  0
LINE
  5
   3AE
  8
0
  6
DASHDOT
 62
   130
 10
-269.326582813263
 20
22.3336960939208
 30
0.0
 11
-269.326582813263
 21
2.16816235030252
 31
0.0
  0
LINE
  5
   3AF
  8
0
  6
DASHDOT
 62
   130
 10
-263.526582813263
 20
22.4601935212968
 30
0.0
 11
-263.526582813263
 21
2.65361800651743
 31
0.0
  0
CIRCLE
  5
   3B0
  8
0
  6
CONTINUOUS
 62
   130
 10
-269.326582813263
 20
5.42751384124953
 30
0.0
 40
0.39999988079071
  0
CIRCLE
  5
   3B1
  8
0
  6
CONTINUOUS
 62
   130
 10
-269.326582813263
 20
7.02751384124952
 30
0.0
 40
0.39999988079071
  0
CIRCLE
  5
   3B2
  8
0
  6
CONTINUOUS
 62
   130
 10
-269.326582813263
 20
8.62751384124952
 30
0.0
 40
0.39999988079071
  0
CIRCLE
  5
   3B3
  8
0
  6
CONTINUOUS
 62
   130
 10
-269.326582813263
 20
10.2274985824605
 30
0.0
 40
0.39999988079071
  0
CIRCLE
  5
   3B4
  8
0
  6
CONTINUOUS
 62
   130
 10
-269.326582813263
 20
11.8274985824605
 30
0.0
 40
0.39999988079071
  0
CIRCLE
  5
   3B5
  8
0
  6
CONTINUOUS
 62
   130
 10
-269.326582813263
 20
13.4275138412495
 30
0.0
 40
0.39999988079071
  0
CIRCLE
  5
   3B6
  8
0
  6
CONTINUOUS
 62
   130
 10
-269.326582813263
 20
15.0275138412495
 30
0.0
 40
0.39999988079071
  0
CIRCLE
  5
   3B7
  8
0
  6
CONTINUOUS
 62
   130
 10
-269.326582813263
 20
16.6275138412495
 30
0.0
 40
0.39999988079071
  0
CIRCLE
  5
   3B8
  8
0
  6
CONTINUOUS
 62
   130
 10
-269.326582813263
 20
18.2274985824604
 30
0.0
 40
0.39999988079071
  0
ARC
  5
   3B9
  8
0
  6
CONTINUOUS
 62
   130
 10
-269.326582813263
 20
19.8274985824604
 30
0.0
 40
0.39999988079071
 50
553.551673104685
 51
629.99994520259
  0
CIRCLE
  5
   3BA
  8
0
  6
CONTINUOUS
 62
   130
 10
-264.826582813263
 20
6.22749858246046
 30
0.0
 40
0.39999988079071
  0
ARC
  5
   3BB
  8
0
  6
CONTINUOUS
 62
   130
 10
-264.826582813263
 20
4.62751384124952
 30
0.0
 40
0.39999988079071
 50
280.158049687986
 51
619.841895358707
  0
CIRCLE
  5
   3BC
  8
0
  6
CONTINUOUS
 62
   130
 10
-264.826582813263
 20
7.82749858246046
 30
0.0
 40
0.39999988079071
  0
CIRCLE
  5
   3BD
  8
0
  6
CONTINUOUS
 62
   130
 10
-264.826582813263
 20
9.42751384124952
 30
0.0
 40
0.39999988079071
  0
CIRCLE
  5
   3BE
  8
0
  6
CONTINUOUS
 62
   130
 10
-264.826582813263
 20
11.0275138412495
 30
0.0
 40
0.39999988079071
  0
CIRCLE
  5
   3BF
  8
0
  6
CONTINUOUS
 62
   130
 10
-264.826582813263
 20
12.6275138412495
 30
0.0
 40
0.39999988079071
  0
CIRCLE
  5
   3C0
  8
0
  6
CONTINUOUS
 62
   130
 10
-264.826582813263
 20
14.2274985824604
 30
0.0
 40
0.39999988079071
  0
CIRCLE
  5
   3C1
  8
0
  6
CONTINUOUS
 62
   130
 10
-264.826582813263
 20
15.8274985824605
 30
0.0
 40
0.39999988079071
  0
LINE
  5
   3C2
  8
0
  6
CONTINUOUS
 62
   130
 10
-264.896578924236
 20
5.02133183352244
 30
0.0
 11
-266.47659573218
 21
4.74043995655468
 31
0.0
  0
LINE
  5
   3C3
  8
0
  6
CONTINUOUS
 62
   130
 10
-264.756567279694
 20
5.83367915649699
 30
0.0
 11
-266.476610755412
 21
5.52789364970273
 31
0.0
  0
LINE
  5
   3C4
  8
0
  6
CONTINUOUS
 62
   130
 10
-264.896596618265
 20
6.62134418595735
 30
0.0
 11
-266.476568356513
 21
6.34046032137978
 31
0.0
  0
LINE
  5
   3C5
  8
0
  6
CONTINUOUS
 62
   130
 10
-264.756599996954
 20
7.43368883813515
 30
0.0
 11
-266.476583379745
 21
7.12791401452782
 31
0.0
  0
LINE
  5
   3C6
  8
0
  6
CONTINUOUS
 62
   130
 10
-264.896623993931
 20
8.22132382113226
 30
0.0
 11
-266.476580708948
 21
7.94044262735143
 31
0.0
  0
LINE
  5
   3C7
  8
0
  6
CONTINUOUS
 62
   130
 10
-264.756567279694
 20
9.03367915649699
 30
0.0
 11
-266.47659573218
 21
8.72789632049947
 31
0.0
  0
LINE
  5
   3C8
  8
0
  6
CONTINUOUS
 62
   130
 10
-264.896593947468
 20
9.82132916272571
 30
0.0
 11
-266.476610755412
 21
9.54043728575794
 31
0.0
  0
LINE
  5
   3C9
  8
0
  6
CONTINUOUS
 62
   130
 10
-264.756584973722
 20
10.6336915089319
 30
0.0
 11
-266.476568356513
 21
10.3279166853246
 31
0.0
  0
LINE
  5
   3CA
  8
0
  6
CONTINUOUS
 62
   130
 10
-264.896611641496
 20
11.4213415151606
 30
0.0
 11
-266.476583379745
 21
11.140457650583
 31
0.0
  0
LINE
  5
   3CB
  8
0
  6
CONTINUOUS
 62
   130
 10
-264.756554927259
 20
12.2336968505253
 30
0.0
 11
-266.476583379745
 21
11.9279140145278
 31
0.0
  0
LINE
  5
   3CC
  8
0
  6
CONTINUOUS
 62
   130
 10
-264.896578924236
 20
13.0213318335224
 30
0.0
 11
-266.47659573218
 21
12.7404399565547
 31
0.0
  0
LINE
  5
   3CD
  8
0
  6
CONTINUOUS
 62
   130
 10
-264.756567279694
 20
13.833679156497
 30
0.0
 11
-266.476610755412
 21
13.5278936497027
 31
0.0
  0
LINE
  5
   3CE
  8
0
  6
CONTINUOUS
 62
   130
 10
-264.896596618265
 20
14.6213441859573
 30
0.0
 11
-266.476568356514
 21
14.3404603213798
 31
0.0
  0
LINE
  5
   3CF
  8
0
  6
CONTINUOUS
 62
   130
 10
-264.756599996954
 20
15.4336888381351
 30
0.0
 11
-266.476583379745
 21
15.1279140145278
 31
0.0
  0
LINE
  5
   3D0
  8
0
  6
CONTINUOUS
 62
   130
 10
-264.896623993931
 20
16.2213238211322
 30
0.0
 11
-266.476580708948
 21
15.9404426273514
 31
0.0
  0
LINE
  5
   3D1
  8
0
  6
CONTINUOUS
 62
   130
 10
-264.756552256462
 20
17.0336818272937
 30
0.0
 11
-266.47659573218
 21
16.7278963204995
 31
0.0
  0
LINE
  5
   3D2
  8
0
  6
CONTINUOUS
 62
   130
 10
-264.896581595033
 20
17.821346856754
 30
0.0
 11
-266.476613426208
 21
17.5404523089895
 31
0.0
  0
LINE
  5
   3D3
  8
0
  6
CONTINUOUS
 62
   130
 10
-264.756584973722
 20
18.6336915089319
 30
0.0
 11
-266.476568356513
 21
18.3279166853245
 31
0.0
  0
LINE
  5
   3D4
  8
0
  6
CONTINUOUS
 62
   130
 10
-264.8966089707
 20
19.421326491929
 30
0.0
 11
-266.476565685717
 21
19.1404452981481
 31
0.0
  0
LINE
  5
   3D5
  8
0
  6
CONTINUOUS
 62
   130
 10
-267.676580518213
 20
19.7145656918713
 30
0.0
 11
-269.256552256462
 21
19.4336818272937
 31
0.0
  0
CIRCLE
  5
   3D6
  8
0
  6
CONTINUOUS
 62
   130
 10
-264.826582813263
 20
17.4275138412495
 30
0.0
 40
0.39999988079071
  0
CIRCLE
  5
   3D7
  8
0
  6
CONTINUOUS
 62
   130
 10
-264.826582813263
 20
19.0275138412495
 30
0.0
 40
0.39999988079071
  0
ARC
  5
   3D8
  8
0
  6
CONTINUOUS
 62
   130
 10
-269.326582813263
 20
19.8274985824604
 30
0.0
 40
0.39999988079071
 50
269.999999844103
 51
346.448162658981
  0
LINE
  5
   3D9
  8
0
  6
CONTINUOUS
 62
   130
 10
-267.676565494982
 20
18.9271119987232
 30
0.0
 11
-269.3966089707
 21
18.621326491929
 31
0.0
  0
LINE
  5
   3DA
  8
0
  6
CONTINUOUS
 62
   130
 10
-267.676568165779
 20
18.1145833858996
 30
0.0
 11
-269.256584973722
 21
17.8336915089319
 31
0.0
  0
LINE
  5
   3DB
  8
0
  6
CONTINUOUS
 62
   130
 10
-267.676613235473
 20
17.3271190095647
 30
0.0
 11
-269.396581595033
 21
17.0213468567541
 31
0.0
  0
LINE
  5
   3DC
  8
0
  6
CONTINUOUS
 62
   130
 10
-267.676595541445
 20
16.5145630210745
 30
0.0
 11
-269.256552256462
 21
16.2336818272937
 31
0.0
  0
LINE
  5
   3DD
  8
0
  6
CONTINUOUS
 62
   130
 10
-267.676580518214
 20
15.7271093279265
 30
0.0
 11
-269.396623993931
 21
15.4213238211322
 31
0.0
  0
LINE
  5
   3DE
  8
0
  6
CONTINUOUS
 62
   130
 10
-267.676568165779
 20
14.9145833858996
 30
0.0
 11
-269.256599996954
 21
14.6336888381351
 31
0.0
  0
LINE
  5
   3DF
  8
0
  6
CONTINUOUS
 62
   130
 10
-267.676613235474
 20
14.1271190095646
 30
0.0
 11
-269.396596618265
 21
13.8213441859573
 31
0.0
  0
LINE
  5
   3E0
  8
0
  6
CONTINUOUS
 62
   130
 10
-267.676610564677
 20
13.3145603502778
 30
0.0
 11
-269.256567279694
 21
13.033679156497
 31
0.0
  0
LINE
  5
   3E1
  8
0
  6
CONTINUOUS
 62
   130
 10
-267.676595541445
 20
12.5271066571298
 30
0.0
 11
-269.396578924236
 21
12.2213318335224
 31
0.0
  0
LINE
  5
   3E2
  8
0
  6
CONTINUOUS
 62
   130
 10
-267.67658318901
 20
11.7145807151029
 30
0.0
 11
-269.256554927259
 21
11.4336968505253
 31
0.0
  0
LINE
  5
   3E3
  8
0
  6
CONTINUOUS
 62
   130
 10
-267.676568165779
 20
10.9271270219549
 30
0.0
 11
-269.396611641496
 21
10.6213415151606
 31
0.0
  0
LINE
  5
   3E4
  8
0
  6
CONTINUOUS
 62
   130
 10
-267.676568165779
 20
10.1145833858996
 30
0.0
 11
-269.256584973722
 21
9.83369150893188
 31
0.0
  0
LINE
  5
   3E5
  8
0
  6
CONTINUOUS
 62
   130
 10
-267.676610564677
 20
9.32710398633303
 30
0.0
 11
-269.396578924236
 21
9.02133183352244
 31
0.0
  0
LINE
  5
   3E6
  8
0
  6
CONTINUOUS
 62
   130
 10
-267.676595541445
 20
8.51456302107457
 30
0.0
 11
-269.256552256462
 21
8.23368182729372
 31
0.0
  0
LINE
  5
   3E7
  8
0
  6
CONTINUOUS
 62
   130
 10
-267.676580518214
 20
7.72710932792651
 30
0.0
 11
-269.396623993931
 21
7.42132382113226
 31
0.0
  0
LINE
  5
   3E8
  8
0
  6
CONTINUOUS
 62
   130
 10
-267.676568165779
 20
6.91458338589965
 30
0.0
 11
-269.256599996954
 21
6.63368883813515
 31
0.0
  0
LINE
  5
   3E9
  8
0
  6
CONTINUOUS
 62
   130
 10
-267.676568165779
 20
6.12712702195487
 30
0.0
 11
-269.396596618265
 21
5.82134418595735
 31
0.0
  0
LINE
  5
   3EA
  8
0
  6
CONTINUOUS
 62
   130
 10
-267.676610564677
 20
5.31456035027782
 30
0.0
 11
-269.256567279694
 21
5.03367915649699
 31
0.0
  0
LINE
  5
   3EB
  8
0
  6
CONTINUOUS
 62
   130
 10
-267.676595541445
 20
4.52710665712978
 30
0.0
 11
-269.326620886449
 21
4.23376881801791
 31
0.0
  0
LINE
  5
   3EC
  8
0
  6
CONTINUOUS
 62
   130
 10
-269.326593039668
 20
4.23378384124953
 30
0.0
 11
-267.676567459107
 21
4.23378384124953
 31
0.0
  0
INSERT
  5
   3ED
  8
0
  6
CONTINUOUS
 62
     3
  2
*HATCH9
 10
-139.529190063477
 20
-25.7662048339844
 30
0.0
 50
269.999999844103
  0
INSERT
  5
   3EE
  8
0
  6
CONTINUOUS
 62
     3
  2
*HATCH10
 10
-139.529190063477
 20
-25.7662048339844
 30
0.0
 50
269.999999844103
  0
INSERT
  5
   3EF
  8
0
  6
CONTINUOUS
 62
     3
  2
*HATCH11
 10
-139.529190063477
 20
-25.7662048339844
 30
0.0
 50
269.999999844103
  0
INSERT
  5
   3F0
  8
0
  6
CONTINUOUS
 62
     3
  2
*HATCH12
 10
-139.529190063477
 20
-25.7662048339844
 30
0.0
 50
269.999999844103
  0
INSERT
  5
   3F1
  8
0
  6
CONTINUOUS
 62
     3
  2
*HATCH13
 10
-139.529190063477
 20
-25.7662048339844
 30
0.0
 50
269.999999844103
  0
INSERT
  5
   3F2
  8
0
  6
CONTINUOUS
 62
     3
  2
*HATCH14
 10
-139.529190063477
 20
-25.7662048339844
 30
0.0
 50
269.999999844103
  0
INSERT
  5
   3F3
  8
0
  6
CONTINUOUS
 62
     3
  2
*HATCH15
 10
-139.529190063477
 20
-25.7662048339844
 30
0.0
 50
269.999999844103
  0
INSERT
  5
   3F4
  8
0
  6
CONTINUOUS
 62
     3
  2
*HATCH16
 10
-139.529190063477
 20
-25.7662048339844
 30
0.0
 50
269.999999844103
  0
INSERT
  5
   3F5
  8
0
  6
CONTINUOUS
 62
     3
  2
*HATCH17
 10
-139.529190063477
 20
-25.7662048339844
 30
0.0
 50
269.999999844103
  0
INSERT
  5
   3F6
  8
0
  6
CONTINUOUS
 62
     3
  2
*HATCH18
 10
-139.529190063477
 20
-25.7662048339844
 30
0.0
 50
269.999999844103
  0
INSERT
  5
   3F7
  8
0
  6
CONTINUOUS
 62
     3
  2
*HATCH19
 10
-139.529190063477
 20
-25.7662048339844
 30
0.0
 50
269.999999844103
  0
INSERT
  5
   3F8
  8
0
  6
CONTINUOUS
 62
     3
  2
*HATCH20
 10
-139.529190063477
 20
-25.7662048339844
 30
0.0
 50
269.999999844103
  0
POLYLINE
  5
   3F9
  8
0
  6
CONTINUOUS
 62
   130
 66
     1
 10
0.0
 20
0.0
 30
0.0
  0
VERTEX
  5
   3FA
  8
0
  6
CONTINUOUS
 10
-264.076508755812
 20
-23.3588297157928
 30
0.0
 40
0.0
 41
0.0
  0
VERTEX
  5
   3FB
  8
0
  6
CONTINUOUS
 10
-264.177608707719
 20
-23.3428198671921
 30
0.0
 40
0.0
 41
0.0
  0
VERTEX
  5
   3FC
  8
0
  6
CONTINUOUS
 10
-264.277586901825
 20
-23.3301643414956
 30
0.0
 40
0.0
 41
0.0
  0
VERTEX
  5
   3FD
  8
0
  6
CONTINUOUS
 10
-264.327122352944
 20
-23.3254662066867
 30
0.0
 40
0.0
 41
0.0
  0
VERTEX
  5
   3FE
  8
0
  6
CONTINUOUS
 10
-264.425764910365
 20
-23.3200768301617
 30
0.0
 40
0.0
 41
0.0
  0
VERTEX
  5
   3FF
  8
0
  6
CONTINUOUS
 10
-264.523159660489
 20
-23.3211366443202
 30
0.0
 40
0.0
 41
0.0
  0
VERTEX
  5
   400
  8
0
  6
CONTINUOUS
 10
-264.571409814591
 20
-23.3244614573013
 30
0.0
 40
0.0
 41
0.0
  0
VERTEX
  5
   401
  8
0
  6
CONTINUOUS
 10
-264.619379064572
 20
-23.3298379109089
 30
0.0
 40
0.0
 41
0.0
  0
VERTEX
  5
   402
  8
0
  6
CONTINUOUS
 10
-264.667083252592
 20
-23.3373954239191
 30
0.0
 40
0.0
 41
0.0
  0
VERTEX
  5
   403
  8
0
  6
CONTINUOUS
 10
-264.714539886944
 20
-23.3472511142557
 30
0.0
 40
0.0
 41
0.0
  0
VERTEX
  5
   404
  8
0
  6
CONTINUOUS
 10
-264.761767590646
 20
-23.3595074541081
 30
0.0
 40
0.0
 41
0.0
  0
VERTEX
  5
   405
  8
0
  6
CONTINUOUS
 10
-264.808785550039
 20
-23.3742499250498
 30
0.0
 40
0.0
 41
0.0
  0
VERTEX
  5
   406
  8
0
  6
CONTINUOUS
 10
-264.855612963377
 20
-23.3915446731564
 30
0.0
 40
0.0
 41
0.0
  0
VERTEX
  5
   407
  8
0
  6
CONTINUOUS
 10
-264.902268489426
 20
-23.4114361641234
 30
0.0
 40
0.0
 41
0.0
  0
VERTEX
  5
   408
  8
0
  6
CONTINUOUS
 10
-264.948769696058
 20
-23.433944838385
 30
0.0
 40
0.0
 41
0.0
  0
VERTEX
  5
   409
  8
0
  6
CONTINUOUS
 10
-264.995132508843
 20
-23.4590647662318
 30
0.0
 40
0.0
 41
0.0
  0
VERTEX
  5
   40A
  8
0
  6
CONTINUOUS
 10
-265.041370659646
 20
-23.486761302929
 30
0.0
 40
0.0
 41
0.0
  0
VERTEX
  5
   40B
  8
0
  6
CONTINUOUS
 10
-265.087495135224
 20
-23.5169687438347
 30
0.0
 40
0.0
 41
0.0
  0
VERTEX
  5
   40C
  8
0
  6
CONTINUOUS
 10
-265.179429973735
 20
-23.5844841508769
 30
0.0
 40
0.0
 41
0.0
  0
VERTEX
  5
   40D
  8
0
  6
CONTINUOUS
 10
-265.270949062807
 20
-23.6603750465688
 30
0.0
 40
0.0
 41
0.0
  0
VERTEX
  5
   40E
  8
0
  6
CONTINUOUS
 10
-265.3762333954
 20
-23.7561279065164
 30
0.0
 40
0.0
 41
0.0
  0
VERTEX
  5
   40F
  8
0
  6
CONTINUOUS
 10
-265.583799195517
 20
-23.9567579227131
 30
0.0
 40
0.0
 41
0.0
  0
VERTEX
  5
   410
  8
0
  6
CONTINUOUS
 10
-265.685315332157
 20
-24.0513672869598
 30
0.0
 40
0.0
 41
0.0
  0
VERTEX
  5
   411
  8
0
  6
CONTINUOUS
 10
-265.735327742606
 20
-24.0948551067275
 30
0.0
 40
0.0
 41
0.0
  0
VERTEX
  5
   412
  8
0
  6
CONTINUOUS
 10
-265.784780914026
 20
-24.134905524317
 30
0.0
 40
0.0
 41
0.0
  0
VERTEX
  5
   413
  8
0
  6
CONTINUOUS
 10
-265.83363527926
 20
-24.1708854155454
 30
0.0
 40
0.0
 41
0.0
  0
VERTEX
  5
   414
  8
0
  6
CONTINUOUS
 10
-265.88185913769
 20
-24.2022058627082
 30
0.0
 40
0.0
 41
0.0
  0
VERTEX
  5
   415
  8
0
  6
CONTINUOUS
 10
-265.929430521899
 20
-24.228334662463
 30
0.0
 40
0.0
 41
0.0
  0
VERTEX
  5
   416
  8
0
  6
CONTINUOUS
 10
-265.976339064342
 20
-24.2488088337124
 30
0.0
 40
0.0
 41
0.0
  0
VERTEX
  5
   417
  8
0
  6
CONTINUOUS
 10
-266.022587863999
 20
-24.2632471254881
 30
0.0
 40
0.0
 41
0.0
  0
VERTEX
  5
   418
  8
0
  6
CONTINUOUS
 10
-266.068195353048
 20
-24.2713625248339
 30
0.0
 40
0.0
 41
0.0
  0
VERTEX
  5
   419
  8
0
  6
CONTINUOUS
 10
-266.113197163525
 20
-24.2729747646891
 30
0.0
 40
0.0
 41
0.0
  0
VERTEX
  5
   41A
  8
0
  6
CONTINUOUS
 10
-266.157647993986
 20
-24.2680228317721
 30
0.0
 40
0.0
 41
0.0
  0
VERTEX
  5
   41B
  8
0
  6
CONTINUOUS
 10
-266.201623476173
 20
-24.2565774744641
 30
0.0
 40
0.0
 41
0.0
  0
VERTEX
  5
   41C
  8
0
  6
CONTINUOUS
 10
-266.245222041678
 20
-24.2388537106917
 30
0.0
 40
0.0
 41
0.0
  0
VERTEX
  5
   41D
  8
0
  6
CONTINUOUS
 10
-266.273591792806
 20
-24.2240367784458
 30
0.0
 40
0.0
 41
0.0
  0
VERTEX
  5
   41E
  8
0
  6
CONTINUOUS
 10
-266.330166085503
 20
-24.1874066259612
 30
0.0
 40
0.0
 41
0.0
  0
VERTEX
  5
   41F
  8
0
  6
CONTINUOUS
 10
-266.358462759703
 20
-24.1659566519675
 30
0.0
 40
0.0
 41
0.0
  0
VERTEX
  5
   420
  8
0
  6
CONTINUOUS
 10
-266.415325756964
 20
-24.1178605988567
 30
0.0
 40
0.0
 41
0.0
  0
VERTEX
  5
   421
  8
0
  6
CONTINUOUS
 10
-266.472899661708
 20
-24.0644662221563
 30
0.0
 40
0.0
 41
0.0
  0
VERTEX
  5
   422
  8
0
  6
CONTINUOUS
 10
-266.591852201143
 20
-23.9503255072875
 30
0.0
 40
0.0
 41
0.0
  0
VERTEX
  5
   423
  8
0
  6
CONTINUOUS
 10
-266.653991474252
 20
-23.8939709075958
 30
0.0
 40
0.0
 41
0.0
  0
VERTEX
  5
   424
  8
0
  6
CONTINUOUS
 10
-266.718314017798
 20
-23.8408980395083
 30
0.0
 40
0.0
 41
0.0
  0
VERTEX
  5
   425
  8
0
  6
CONTINUOUS
 10
-266.785014729416
 20
-23.7929653071304
 30
0.0
 40
0.0
 41
0.0
  0
VERTEX
  5
   426
  8
0
  6
CONTINUOUS
 10
-266.854170315616
 20
-23.751713048931
 30
0.0
 40
0.0
 41
0.0
  0
VERTEX
  5
   427
  8
0
  6
CONTINUOUS
 10
-266.897160241765
 20
-23.7305009468266
 30
0.0
 40
0.0
 41
0.0
  0
VERTEX
  5
   428
  8
0
  6
CONTINUOUS
 10
-266.940983478527
 20
-23.7123142361084
 30
0.0
 40
0.0
 41
0.0
  0
VERTEX
  5
   429
  8
0
  6
CONTINUOUS
 10
-266.985578036553
 20
-23.6972522219465
 30
0.0
 40
0.0
 41
0.0
  0
VERTEX
  5
   42A
  8
0
  6
CONTINUOUS
 10
-267.030864703076
 20
-23.6853575061285
 30
0.0
 40
0.0
 41
0.0
  0
VERTEX
  5
   42B
  8
0
  6
CONTINUOUS
 10
-267.076749622041
 20
-23.6766225047311
 30
0.0
 40
0.0
 41
0.0
  0
SEQEND
  5
   42C
  8
0
  6
CONTINUOUS
 62
   130
  0
LINE
  5
   42D
  8
0
  6
DOT
 62
   130
 10
-265.27659778595
 20
-23.665098146297
 30
0.0
 11
-265.27659778595
 21
-47.766205668333
 31
0.0
  0
LINE
  5
   42E
  8
0
  6
CONTINUOUS
 62
   130
 10
-267.976612854004
 20
20.9337655307027
 30
0.0
 11
-267.676567459107
 21
20.9337655307027
 31
0.0
  0
LINE
  5
   42F
  8
0
  6
CONTINUOUS
 62
   130
 10
-267.976612854004
 20
19.7337838412495
 30
0.0
 11
-267.676567459107
 21
19.7337838412495
 31
0.0
  0
LINE
  5
   430
  8
0
  6
CONTINUOUS
 62
   130
 10
-267.776597976685
 20
-0.266216158750467
 30
0.0
 11
-267.676567459107
 21
-0.266216158750467
 31
0.0
  0
LINE
  5
   431
  8
0
  6
CONTINUOUS
 62
   130
 10
-267.776597976685
 20
-1.46621310699265
 30
0.0
 11
-267.676567459107
 21
-1.46621310699265
 31
0.0
  0
LINE
  5
   432
  8
0
  6
CONTINUOUS
 62
   130
 10
-268.105154146467
 20
0.233783841249533
 30
0.0
 11
-267.676567459107
 21
0.233783841249533
 31
0.0
  0
LINE
  5
   433
  8
0
  6
DOT
 62
   130
 10
-267.676567459107
 20
0.233783841249533
 30
0.0
 11
-266.476613426209
 21
0.233783841249533
 31
0.0
  0
INSERT
  5
   434
  8
0
  6
CONTINUOUS
 62
     7
  2
*HATCH21
 10
-139.529190063477
 20
-25.7662048339844
 30
0.0
 50
269.999999844103
  0
INSERT
  5
   435
  8
0
  6
CONTINUOUS
 62
     7
  2
*HATCH22
 10
-139.529190063477
 20
-25.7662048339844
 30
0.0
 50
269.999999844103
  0
INSERT
  5
   436
  8
0
  6
CONTINUOUS
 62
     7
  2
*HATCH23
 10
-139.529190063477
 20
-25.7662048339844
 30
0.0
 50
269.999999844103
  0
INSERT
  5
   437
  8
0
  6
CONTINUOUS
 62
     7
  2
*HATCH24
 10
-139.529190063477
 20
-25.7662048339844
 30
0.0
 50
269.999999844103
  0
INSERT
  5
   438
  8
0
  6
CONTINUOUS
 62
     3
  2
*HATCH25
 10
-139.529190063477
 20
-25.7662048339844
 30
0.0
 50
269.999999844103
  0
INSERT
  5
   439
  8
0
  6
CONTINUOUS
 62
     3
  2
*HATCH26
 10
-139.529190063477
 20
-25.7662048339844
 30
0.0
 50
269.999999844103
  0
INSERT
  5
   43A
  8
0
  6
CONTINUOUS
 62
     3
  2
*HATCH27
 10
-139.529190063477
 20
-25.7662048339844
 30
0.0
 50
269.999999844103
  0
INSERT
  5
   43B
  8
0
  6
CONTINUOUS
 62
     3
  2
*HATCH28
 10
-139.529190063477
 20
-25.7662048339844
 30
0.0
 50
269.999999844103
  0
INSERT
  5
   43C
  8
0
  6
CONTINUOUS
 62
     3
  2
*HATCH29
 10
-139.529190063477
 20
-25.7662048339844
 30
0.0
 50
269.999999844103
  0
INSERT
  5
   43D
  8
0
  6
CONTINUOUS
 62
     3
  2
*HATCH30
 10
-139.529190063477
 20
-25.7662048339844
 30
0.0
 50
269.999999844103
  0
INSERT
  5
   43E
  8
0
  6
CONTINUOUS
 62
     3
  2
*HATCH31
 10
-139.529190063477
 20
-25.7662048339844
 30
0.0
 50
269.999999844103
  0
INSERT
  5
   43F
  8
0
  6
CONTINUOUS
 62
     3
  2
*HATCH32
 10
-139.529190063477
 20
-25.7662048339844
 30
0.0
 50
269.999999844103
  0
INSERT
  5
   440
  8
0
  6
CONTINUOUS
 62
     3
  2
*HATCH33
 10
-139.529190063477
 20
-25.7662048339844
 30
0.0
 50
269.999999844103
  0
INSERT
  5
   441
  8
0
  6
CONTINUOUS
 62
     3
  2
*HATCH34
 10
-139.529190063477
 20
-25.7662048339844
 30
0.0
 50
269.999999844103
  0
INSERT
  5
   442
  8
0
  6
CONTINUOUS
 62
     3
  2
*HATCH35
 10
-139.529190063477
 20
-25.7662048339844
 30
0.0
 50
269.999999844103
  0
INSERT
  5
   443
  8
0
  6
CONTINUOUS
 62
     3
  2
*HATCH36
 10
-139.529190063477
 20
-25.7662048339844
 30
0.0
 50
269.999999844103
  0
LINE
  5
   444
  8
0
  6
DASHDOT
 62
   130
 10
-272.747388810462
 20
-23.2661895751953
 30
0.0
 11
-185.669225455838
 21
-23.2661895751953
 31
0.0
  0
POINT
  5
   445
  8
0
  6
CONTINUOUS
 62
   130
 10
-267.07659702301
 20
-6.26621615875047
 30
0.0
  0
POINT
  5
   446
  8
0
  6
CONTINUOUS
 62
   130
 10
-267.07659702301
 20
-41.7662161587505
 30
0.0
  0
INSERT
  5
   447
  8
0
  6
CONTINUOUS
 62
     7
  2
*UDIM56
 10
0.0
 20
0.0
 30
0.0
  0
INSERT
  5
   448
  8
0
  6
CONTINUOUS
 62
     7
  2
*UDIM57
 10
0.0
 20
0.0
 30
0.0
  0
INSERT
  5
   449
  8
0
  6
CONTINUOUS
 62
     3
  2
*UDIM58
 10
0.0
 20
0.0
 30
0.0
  0
LINE
  5
   44A
  8
0
  6
CONTINUOUS
 62
     2
 10
-206.076580810547
 20
63.7337799072266
 30
0.0
 11
-206.076580810547
 21
48.7337799072266
 31
0.0
  0
LINE
  5
   44B
  8
0
  6
CONTINUOUS
 62
     2
 10
-264.076580047607
 20
64.7337799072266
 30
0.0
 11
-264.076580047607
 21
32.7337799072266
 31
0.0
  0
LINE
  5
   44C
  8
0
  6
CONTINUOUS
 62
     2
 10
-264.076580047607
 20
64.7337799072266
 30
0.0
 11
-207.076580810547
 21
64.7337799072266
 31
0.0
  0
ARC
  5
   44D
  8
0
  6
CONTINUOUS
 62
     2
 10
-207.076580810547
 20
63.7337799072266
 30
0.0
 40
1.0
 50
359.999999844103
 51
449.999999844103
  0
LINE
  5
   44E
  8
0
  6
DOT
 62
     7
 10
-262.776580047607
 20
64.7337799072266
 30
0.0
 11
-262.776580047607
 21
48.9337799043851
 31
0.0
  0
LINE
  5
   44F
  8
0
  6
CONTINUOUS
 62
     7
 10
-262.776580810547
 20
44.733720779419
 30
0.0
 11
-262.776580810547
 21
32.7337512969971
 31
0.0
  0
LINE
  5
   450
  8
0
  6
CONTINUOUS
 62
     7
 10
-264.076580047607
 20
32.7337799072266
 30
0.0
 11
-262.776582717896
 21
32.7337799072266
 31
0.0
  0
LINE
  5
   451
  8
0
  6
CONTINUOUS
 62
     2
 10
-206.076580810547
 20
-71.266185760498
 30
0.0
 11
-206.076580810547
 21
-86.2661857604981
 31
0.0
  0
LINE
  5
   452
  8
0
  6
CONTINUOUS
 62
     2
 10
-264.076580047607
 20
-87.2661857604981
 30
0.0
 11
-207.076580810547
 21
-87.2661857604981
 31
0.0
  0
LINE
  5
   453
  8
0
  6
CONTINUOUS
 62
   130
 10
-264.076580047607
 20
-2.46621615875047
 30
0.0
 11
-264.076580047607
 21
-55.2661857604981
 31
0.0
  0
ARC
  5
   454
  8
0
  6
CONTINUOUS
 62
     2
 10
-207.076580810547
 20
-86.2661857604981
 30
0.0
 40
1.0
 50
629.999999844103
 51
719.999999844103
  0
LINE
  5
   455
  8
0
  6
CONTINUOUS
 62
     7
 10
-264.076580047607
 20
-55.2661857604981
 30
0.0
 11
-262.776582717896
 21
-55.2661857604981
 31
0.0
  0
LINE
  5
   456
  8
0
  6
DOT
 62
     7
 10
-262.776580047607
 20
-71.4661857576566
 30
0.0
 11
-262.776580047607
 21
-87.2661857604981
 31
0.0
  0
LINE
  5
   457
  8
0
  6
CONTINUOUS
 62
   130
 10
-262.776582272847
 20
-71.2662048339844
 30
0.0
 11
-250.761421203613
 21
-71.2662048339844
 31
0.0
  0
LINE
  5
   458
  8
0
  6
CONTINUOUS
 62
   130
 10
-262.776582272847
 20
48.7337799072266
 30
0.0
 11
-217.276596069336
 21
48.7337799072266
 31
0.0
  0
LINE
  5
   459
  8
0
  6
DOT
 62
   130
 10
-250.276596641541
 20
33.7337799072195
 30
0.0
 11
-237.776596045494
 21
33.7337799072195
 31
0.0
  0
LINE
  5
   45A
  8
0
  6
CONTINUOUS
 62
   130
 10
-262.776582272847
 20
48.7337799072266
 30
0.0
 11
-262.776582272847
 21
-6.86620483398439
 31
0.0
  0
LINE
  5
   45B
  8
0
  6
CONTINUOUS
 62
   130
 10
-237.261421203613
 20
-55.7661895751953
 30
0.0
 11
-237.261421203613
 21
-67.2403236266078
 31
0.0
  0
LINE
  5
   45C
  8
0
  6
CONTINUOUS
 62
   130
 10
-235.261421203613
 20
-55.7661895751953
 30
0.0
 11
-235.261421203613
 21
-68.2662048339844
 31
0.0
  0
LINE
  5
   45D
  8
0
  6
CONTINUOUS
 62
   130
 10
-237.261421203613
 20
-67.2403236266078
 30
0.0
 11
-235.261421203613
 21
-67.2403236266078
 31
0.0
  0
LINE
  5
   45E
  8
0
  6
DASHDOT
 62
   130
 10
-239.306843184573
 20
39.7337832214558
 30
0.0
 11
-214.27583170744
 21
39.7337832214558
 31
0.0
  0
LINE
  5
   45F
  8
0
  6
DASHDOT
 62
   130
 10
-236.921419145285
 20
-62.2661895751835
 30
0.0
 11
-221.887176714812
 21
-62.2661895751835
 31
0.0
  0
LINE
  5
   460
  8
0
  6
CONTINUOUS
 62
   130
 10
-187.776595830917
 20
-29.5902112672084
 30
0.0
 11
-172.411863348775
 21
-34.2331718201487
 31
0.0
  0
LINE
  5
   461
  8
0
  6
CONTINUOUS
 62
   130
 10
-172.411863348775
 20
-34.2331718201487
 30
0.0
 11
-172.242834113426
 21
-34.5304650635284
 31
0.0
  0
LINE
  5
   462
  8
0
  6
CONTINUOUS
 62
   130
 10
-172.24281348322
 20
-34.5304776884272
 30
0.0
 11
-172.240287886788
 21
-34.7812180687118
 31
0.0
  0
LINE
  5
   463
  8
0
  6
CONTINUOUS
 62
   130
 10
-172.240297147821
 20
-34.7812096952605
 30
0.0
 11
-172.969220290079
 21
-37.7164766093921
 31
0.0
  0
LINE
  5
   464
  8
0
  6
CONTINUOUS
 62
   130
 10
-172.969214126895
 20
-37.7164717725828
 30
0.0
 11
-173.094477581557
 21
-37.9429584458762
 31
0.0
  0
LINE
  5
   465
  8
0
  6
CONTINUOUS
 62
   130
 10
-173.094471171316
 20
-37.9429663320238
 30
0.0
 11
-173.316197903553
 21
-38.076476655746
 31
0.0
  0
LINE
  5
   466
  8
0
  6
CONTINUOUS
 62
   130
 10
-173.316174737463
 20
-38.0764766710341
 30
0.0
 11
-173.574950036136
 21
-38.0812374747603
 31
0.0
  0
LINE
  5
   467
  8
0
  6
CONTINUOUS
 62
   130
 10
-187.776595830917
 20
-34.5545839119524
 30
0.0
 11
-173.574975659186
 21
-38.0812363842605
 31
0.0
  0
LINE
  5
   468
  8
0
  6
DOT
 62
   130
 10
-230.776596641541
 20
45.7337832214558
 30
0.0
 11
-230.776596641541
 21
42.7337832214558
 31
0.0
  0
LINE
  5
   469
  8
0
  6
DOT
 62
   130
 10
-248.276596641541
 20
45.7337832214558
 30
0.0
 11
-248.276596641541
 21
33.7337832214558
 31
0.0
  0
LINE
  5
   46A
  8
0
  6
DOT
 62
   130
 10
-250.276596641541
 20
45.7337832214558
 30
0.0
 11
-250.276596641541
 21
33.7337832214558
 31
0.0
  0
LINE
  5
   46B
  8
0
  6
DOT
 62
   130
 10
-250.276596641541
 20
45.7337832214558
 30
0.0
 11
-230.776596641541
 21
45.7337832214558
 31
0.0
  0
LINE
  5
   46C
  8
0
  6
DOT
 62
   130
 10
-234.776596641541
 20
33.7337832214558
 30
0.0
 11
-230.776596641541
 21
33.7337832214558
 31
0.0
  0
LINE
  5
   46D
  8
0
  6
CONTINUOUS
 62
   130
 10
-234.276596641541
 20
42.7337832214558
 30
0.0
 11
-234.776596641541
 21
42.2337832214558
 31
0.0
  0
LINE
  5
   46E
  8
0
  6
CONTINUOUS
 62
   130
 10
-234.77659664154
 20
37.2337832214558
 30
0.0
 11
-234.276596641541
 21
36.7337832214558
 31
0.0
  0
LINE
  5
   46F
  8
0
  6
DOT
 62
   130
 10
-234.276596641541
 20
42.7337832214558
 30
0.0
 11
-234.276596641541
 21
36.7337832214558
 31
0.0
  0
LINE
  5
   470
  8
0
  6
DOT
 62
   130
 10
-220.276596641541
 20
42.7337832214558
 30
0.0
 11
-220.276596641541
 21
36.7337832214558
 31
0.0
  0
LINE
  5
   471
  8
0
  6
DOT
 62
   130
 10
-230.776596641541
 20
36.7337832214558
 30
0.0
 11
-230.776596641541
 21
33.7337832214558
 31
0.0
  0
LINE
  5
   472
  8
0
  6
CONTINUOUS
 62
   130
 10
-231.261421203613
 20
-56.2662048339844
 30
0.0
 11
-231.261421203613
 21
-59.2661928894245
 31
0.0
  0
LINE
  5
   473
  8
0
  6
CONTINUOUS
 62
   130
 10
-248.761421203613
 20
-56.2662048339844
 30
0.0
 11
-248.761421203613
 21
-68.2662048339844
 31
0.0
  0
LINE
  5
   474
  8
0
  6
CONTINUOUS
 62
   130
 10
-250.761421203613
 20
-56.2662048339844
 30
0.0
 11
-250.761421203613
 21
-68.2662048339844
 31
0.0
  0
LINE
  5
   475
  8
0
  6
CONTINUOUS
 62
   130
 10
-250.761421203613
 20
-56.2662048339844
 30
0.0
 11
-235.261421203613
 21
-56.2662048339844
 31
0.0
  0
LINE
  5
   476
  8
0
  6
CONTINUOUS
 62
   130
 10
-250.761421203613
 20
-68.2662048339844
 30
0.0
 11
-231.261421203613
 21
-68.2662048339844
 31
0.0
  0
LINE
  5
   477
  8
0
  6
CONTINUOUS
 62
   130
 10
-235.261421203613
 20
-56.2662048339844
 30
0.0
 11
-231.261421203613
 21
-56.2662048339844
 31
0.0
  0
LINE
  5
   478
  8
0
  6
CONTINUOUS
 62
   130
 10
-262.776582272847
 20
-30.4662048339844
 30
0.0
 11
-262.776582272847
 21
-71.2662048339844
 31
0.0
  0
LINE
  5
   479
  8
0
  6
DOT
 62
   130
 10
-237.776583838461
 20
44.9837785217625
 30
0.0
 11
-237.776583838461
 21
33.2837875366211
 31
0.0
  0
LINE
  5
   47A
  8
0
  6
DOT
 62
   130
 10
-234.776584434508
 20
44.983772277832
 30
0.0
 11
-234.776584434508
 21
32.7837875366211
 31
0.0
  0
LINE
  5
   47B
  8
0
  6
DOT
 62
   130
 10
-237.776583837749
 20
44.9837854575791
 30
0.0
 11
-234.776584433982
 21
44.9837646501335
 31
0.0
  0
LINE
  5
   47C
  8
0
  6
CONTINUOUS
 62
   130
 10
-262.776582717896
 20
-14.4662052790321
 30
0.0
 11
-262.776582717896
 21
-68.2662047146587
 31
0.0
  0
LINE
  5
   47D
  8
0
  6
DASHDOT
 62
   130
 10
-267.788071713192
 20
-62.2662047146587
 30
0.0
 11
-262.824455549053
 21
-62.2662047146587
 31
0.0
  0
LINE
  5
   47E
  8
0
  6
DASHDOT
 62
   130
 10
-267.788071713192
 20
37.7337800265523
 30
0.0
 11
-262.824455549053
 21
37.7337800265523
 31
0.0
  0
LINE
  5
   47F
  8
0
  6
CONTINUOUS
 62
   130
 10
-192.776611089706
 20
-45.7661895751953
 30
0.0
 11
-192.776611089706
 21
-54.2662048339844
 31
0.0
  0
LINE
  5
   480
  8
0
  6
CONTINUOUS
 62
   130
 10
-192.776611414362
 20
-45.7661895751953
 30
0.0
 11
-187.776595830917
 21
-45.7661895751953
 31
0.0
  0
LINE
  5
   481
  8
0
  6
CONTINUOUS
 62
   130
 10
-217.276595830917
 20
48.7337951660156
 30
0.0
 11
-196.276611089706
 21
48.7337951660156
 31
0.0
  0
LINE
  5
   482
  8
0
  6
CONTINUOUS
 62
   130
 10
-217.27660185414
 20
-71.2661895751807
 30
0.0
 11
-196.276611089706
 21
-71.2661895751807
 31
0.0
  0
LINE
  5
   483
  8
0
  6
CONTINUOUS
 62
   130
 10
-192.776596155573
 20
-0.766189575195263
 30
0.0
 11
-187.776595830917
 21
-0.766189575195263
 31
0.0
  0
LINE
  5
   484
  8
0
  6
CONTINUOUS
 62
   130
 10
-192.776595830917
 20
31.7337951660156
 30
0.0
 11
-192.776595830917
 21
-0.766189575195263
 31
0.0
  0
LINE
  5
   485
  8
0
  6
CONTINUOUS
 62
   130
 10
-187.776595830917
 20
-0.766189575195263
 30
0.0
 11
-187.776595830917
 21
-45.7661895751953
 31
0.0
  0
LINE
  5
   486
  8
0
  6
CONTINUOUS
 62
   130
 10
-193.776611089706
 20
-55.2662048339844
 30
0.0
 11
-193.776611089706
 21
-56.7662048339844
 31
0.0
  0
LINE
  5
   487
  8
0
  6
CONTINUOUS
 62
   130
 10
-195.276611089706
 20
-56.7662048339844
 30
0.0
 11
-195.276611089706
 21
-70.2661895751806
 31
0.0
  0
LINE
  5
   488
  8
0
  6
CONTINUOUS
 62
   130
 10
-199.276611089706
 20
-56.7662048339844
 30
0.0
 11
-195.276611089706
 21
-56.7662048339844
 31
0.0
  0
LINE
  5
   489
  8
0
  6
CONTINUOUS
 62
   130
 10
-199.276611089706
 20
-55.2662048339844
 30
0.0
 11
-193.776611089706
 21
-55.2662048339844
 31
0.0
  0
LINE
  5
   48A
  8
0
  6
CONTINUOUS
 62
   130
 10
-199.276611089706
 20
32.7337951660156
 30
0.0
 11
-193.776595830917
 21
32.7337951660156
 31
0.0
  0
LINE
  5
   48B
  8
0
  6
CONTINUOUS
 62
   130
 10
-193.776611089706
 20
34.2337951660156
 30
0.0
 11
-193.776611089706
 21
32.7337951660156
 31
0.0
  0
LINE
  5
   48C
  8
0
  6
CONTINUOUS
 62
   130
 10
-199.276611089706
 20
34.2337951660156
 30
0.0
 11
-195.276611089706
 21
34.2337951660156
 31
0.0
  0
LINE
  5
   48D
  8
0
  6
CONTINUOUS
 62
   130
 10
-195.276611089706
 20
47.7337951660156
 30
0.0
 11
-195.276611089706
 21
34.2337951660156
 31
0.0
  0
LINE
  5
   48E
  8
0
  6
CONTINUOUS
 62
   130
 10
-235.261421203613
 20
-65.2661928894245
 30
0.0
 11
-224.920697857139
 21
-65.2661928894245
 31
0.0
  0
LINE
  5
   48F
  8
0
  6
CONTINUOUS
 62
   130
 10
-235.261421203613
 20
-64.7661928894245
 30
0.0
 11
-224.920697857139
 21
-64.7661928894245
 31
0.0
  0
LINE
  5
   490
  8
0
  6
CONTINUOUS
 62
   130
 10
-235.261421203613
 20
-59.7661928894245
 30
0.0
 11
-224.920697857139
 21
-59.7661928894245
 31
0.0
  0
LINE
  5
   491
  8
0
  6
CONTINUOUS
 62
   130
 10
-235.261421203613
 20
-59.2661928894245
 30
0.0
 11
-224.920697857139
 21
-59.2661928894245
 31
0.0
  0
LINE
  5
   492
  8
0
  6
CONTINUOUS
 62
   130
 10
-234.761421203613
 20
-59.2661928894245
 30
0.0
 11
-234.761421203613
 21
-65.2661928894245
 31
0.0
  0
LINE
  5
   493
  8
0
  6
CONTINUOUS
 62
   130
 10
-235.261421203613
 20
-64.7661928894245
 30
0.0
 11
-234.761421203613
 21
-65.2661928894245
 31
0.0
  0
LINE
  5
   494
  8
0
  6
CONTINUOUS
 62
   130
 10
-234.761421203613
 20
-59.2661928894245
 30
0.0
 11
-235.261421203613
 21
-59.7661928894245
 31
0.0
  0
LINE
  5
   495
  8
0
  6
DOT
 62
   130
 10
-235.261421203613
 20
-59.7661928894245
 30
0.0
 11
-235.261421203613
 21
-64.7661928894245
 31
0.0
  0
LINE
  5
   496
  8
0
  6
CONTINUOUS
 62
   130
 10
-231.261421203613
 20
-65.2661928894245
 30
0.0
 11
-231.261421203613
 21
-68.2662048339844
 31
0.0
  0
LINE
  5
   497
  8
0
  6
CONTINUOUS
 62
   130
 10
-199.276611089706
 20
43.7337934864727
 30
0.0
 11
-199.276611089706
 21
32.7337951660156
 31
0.0
  0
LINE
  5
   498
  8
0
  6
CONTINUOUS
 62
   130
 10
-262.776582272847
 20
44.7337934864727
 30
0.0
 11
-200.276611089706
 21
44.7337934864727
 31
0.0
  0
ARC
  5
   499
  8
0
  6
CONTINUOUS
 62
   130
 10
-200.276611089706
 20
43.7337934864727
 30
0.0
 40
1.0
 50
359.999999844103
 51
449.999999844103
  0
ARC
  5
   49A
  8
0
  6
CONTINUOUS
 62
   130
 10
-196.276611089706
 20
47.7337951660156
 30
0.0
 40
1.0
 50
359.999999844103
 51
449.999999844103
  0
ARC
  5
   49B
  8
0
  6
CONTINUOUS
 62
   130
 10
-193.776595830917
 20
31.7337951660156
 30
0.0
 40
1.0
 50
359.999999844103
 51
449.999999844103
  0
ARC
  5
   49C
  8
0
  6
CONTINUOUS
 62
   130
 10
-200.276611089706
 20
-66.2662031544414
 30
0.0
 40
1.0
 50
269.999999844103
 51
359.999999844103
  0
LINE
  5
   49D
  8
0
  6
CONTINUOUS
 62
   130
 10
-199.276611089706
 20
-55.2662048339844
 30
0.0
 11
-199.276611089706
 21
-66.2662031544414
 31
0.0
  0
ARC
  5
   49E
  8
0
  6
CONTINUOUS
 62
   130
 10
-193.776611089706
 20
-54.2662048339844
 30
0.0
 40
1.0
 50
269.999999844103
 51
359.999999844103
  0
ARC
  5
   49F
  8
0
  6
CONTINUOUS
 62
   130
 10
-196.276611089706
 20
-70.2661895751806
 30
0.0
 40
1.0
 50
269.999999844103
 51
359.999999844103
  0
ARC
  5
   4A0
  8
0
  6
CONTINUOUS
 62
   130
 10
-224.176595830917
 20
-25.7661895751806
 30
0.0
 40
52.4276683460498
 50
340.405499850824
 51
359.999999844103
  0
LINE
  5
   4A1
  8
0
  6
CONTINUOUS
 62
   130
 10
-171.848927484868
 20
-25.7661895751806
 30
0.0
 11
-171.848927484868
 21
-41.5032076663892
 31
0.0
  0
LINE
  5
   4A2
  8
0
  6
DASHDOT
 62
   130
 10
-272.747388810462
 20
-23.2661895751953
 30
0.0
 11
-185.669225455838
 21
-23.2661895751953
 31
0.0
  0
LINE
  5
   4A3
  8
0
  6
CONTINUOUS
 62
   130
 10
-237.261421203613
 20
-56.2662048339844
 30
0.0
 11
-237.261421203613
 21
-67.2662031544414
 31
0.0
  0
LINE
  5
   4A4
  8
0
  6
CONTINUOUS
 62
   130
 10
-250.761421203613
 20
-68.767065580904
 30
0.0
 11
-235.261421203613
 21
-68.767065580904
 31
0.0
  0
LINE
  5
   4A5
  8
0
  6
CONTINUOUS
 62
   130
 10
-250.761421203613
 20
-68.767065580904
 30
0.0
 11
-250.761421203613
 21
-82.3891080570331
 31
0.0
  0
LINE
  5
   4A6
  8
0
  6
CONTINUOUS
 62
   130
 10
-235.261421203613
 20
-68.767065580904
 30
0.0
 11
-235.261421203613
 21
-82.3891080570331
 31
0.0
  0
LINE
  5
   4A7
  8
0
  6
CONTINUOUS
 62
   130
 10
-251.595253075325
 20
-82.3891080570331
 30
0.0
 11
-234.815981284772
 21
-82.3891080570331
 31
0.0
  0
LINE
  5
   4A8
  8
0
  6
CONTINUOUS
 62
   130
 10
-237.261421203613
 20
-56.2662048339844
 30
0.0
 11
-237.261421203613
 21
-68.767065580904
 31
0.0
  0
LINE
  5
   4A9
  8
0
  6
CONTINUOUS
 62
   130
 10
-247.212277467481
 20
-56.2662048339844
 30
0.0
 11
-248.761421203613
 21
-59.8359708346371
 31
0.0
  0
LINE
  5
   4AA
  8
0
  6
CONTINUOUS
 62
   130
 10
-245.032072663609
 20
-56.2662048339844
 30
0.0
 11
-248.761421203613
 21
-64.8599210348648
 31
0.0
  0
LINE
  5
   4AB
  8
0
  6
CONTINUOUS
 62
   130
 10
-242.851867859736
 20
-56.2662048339844
 30
0.0
 11
-248.276769693305
 21
-68.7670655809041
 31
0.0
  0
LINE
  5
   4AC
  8
0
  6
CONTINUOUS
 62
   130
 10
-240.671663055864
 20
-56.2662048339844
 30
0.0
 11
-246.096564889433
 21
-68.767065580904
 31
0.0
  0
LINE
  5
   4AD
  8
0
  6
CONTINUOUS
 62
   130
 10
-238.491458251992
 20
-56.2662048339844
 30
0.0
 11
-243.916360085561
 21
-68.7670655809041
 31
0.0
  0
LINE
  5
   4AE
  8
0
  6
CONTINUOUS
 62
   130
 10
-237.261421203613
 20
-58.4557218357751
 30
0.0
 11
-241.736155281688
 21
-68.767065580904
 31
0.0
  0
LINE
  5
   4AF
  8
0
  6
CONTINUOUS
 62
   130
 10
-237.261421203613
 20
-63.4796720360027
 30
0.0
 11
-239.555950477816
 21
-68.767065580904
 31
0.0
  0
LINE
  5
   4B0
  8
0
  6
CONTINUOUS
 62
   130
 10
-246.761421203613
 20
-68.2662048339844
 30
0.0
 11
-246.761421203613
 21
-68.767065580904
 31
0.0
  0
LINE
  5
   4B1
  8
0
  6
CONTINUOUS
 62
   130
 10
-235.261421203613
 20
-71.2662048339844
 30
0.0
 11
-217.276596069336
 21
-71.2662048339844
 31
0.0
  0
LINE
  5
   4B2
  8
0
  6
CONTINUOUS
 62
   130
 10
-252.019218440993
 20
-55.2905874731791
 30
0.0
 11
-224.920697857139
 21
-55.2905874731791
 31
0.0
  0
LINE
  5
   4B3
  8
0
  6
CONTINUOUS
 62
   130
 10
-224.920697857139
 20
-55.2905874731791
 30
0.0
 11
-224.920697857139
 21
-71.2662048339844
 31
0.0
  0
LINE
  5
   4B4
  8
0
  6
CONTINUOUS
 62
   130
 10
-252.019218440993
 20
-55.2905874731791
 30
0.0
 11
-252.019218440993
 21
-71.2662048339844
 31
0.0
  0
LINE
  5
   4B5
  8
0
  6
CONTINUOUS
 62
   130
 10
-217.920697857139
 20
-67.2662031544414
 30
0.0
 11
-200.276611089706
 21
-67.2662031544414
 31
0.0
  0
LINE
  5
   4B6
  8
0
  6
CONTINUOUS
 62
   130
 10
-262.776582717896
 20
-67.2662031544414
 30
0.0
 11
-252.019218440993
 21
-67.2662031544414
 31
0.0
  0
LINE
  5
   4B7
  8
0
  6
CONTINUOUS
 62
   130
 10
-248.276596641541
 20
36.1863567410225
 30
0.0
 11
-247.212277467481
 21
33.7337951660156
 31
0.0
  0
LINE
  5
   4B8
  8
0
  6
CONTINUOUS
 62
   130
 10
-248.276596641541
 20
41.2103069412501
 30
0.0
 11
-245.032072663609
 21
33.7337951660156
 31
0.0
  0
LINE
  5
   4B9
  8
0
  6
CONTINUOUS
 62
   130
 10
-248.276769693305
 20
46.2346559129353
 30
0.0
 11
-242.851867859736
 21
33.7337951660156
 31
0.0
  0
LINE
  5
   4BA
  8
0
  6
CONTINUOUS
 62
   130
 10
-246.096564889433
 20
46.2346559129353
 30
0.0
 11
-240.671663055864
 21
33.7337951660156
 31
0.0
  0
LINE
  5
   4BB
  8
0
  6
CONTINUOUS
 62
   130
 10
-243.916360085561
 20
46.2346559129353
 30
0.0
 11
-238.491458251992
 21
33.7337951660156
 31
0.0
  0
LINE
  5
   4BC
  8
0
  6
CONTINUOUS
 62
   130
 10
-241.736155281688
 20
46.2346559129353
 30
0.0
 11
-237.776583838461
 21
37.1104260654994
 31
0.0
  0
LINE
  5
   4BD
  8
0
  6
CONTINUOUS
 62
   130
 10
-239.555950477816
 20
46.2346559129353
 30
0.0
 11
-237.776583838461
 21
42.134376265727
 31
0.0
  0
LINE
  5
   4BE
  8
0
  6
CONTINUOUS
 62
   130
 10
-250.761421203613
 20
46.2346559129353
 30
0.0
 11
-235.261421203613
 21
46.2346559129353
 31
0.0
  0
LINE
  5
   4BF
  8
0
  6
CONTINUOUS
 62
   130
 10
-250.761421203613
 20
59.1484145363614
 30
0.0
 11
-250.761421203613
 21
46.2346559129353
 31
0.0
  0
LINE
  5
   4C0
  8
0
  6
CONTINUOUS
 62
   130
 10
-235.261421203613
 20
59.1484145363614
 30
0.0
 11
-235.261421203613
 21
46.2346559129353
 31
0.0
  0
LINE
  5
   4C1
  8
0
  6
CONTINUOUS
 62
   130
 10
-251.391773100253
 20
59.1484145363614
 30
0.0
 11
-234.831633590547
 21
59.1484145363614
 31
0.0
  0
LINE
  5
   4C2
  8
0
  6
CONTINUOUS
 62
   130
 10
-195.276611089706
 20
34.2337951660156
 30
0.0
 11
-193.776611089706
 21
34.2337951660156
 31
0.0
  0
LINE
  5
   4C3
  8
0
  6
CONTINUOUS
 62
   130
 10
-195.276611089706
 20
-56.7662048339844
 30
0.0
 11
-193.776611089706
 21
-56.7662048339844
 31
0.0
  0
LINE
  5
   4C4
  8
0
  6
CONTINUOUS
 62
   130
 10
-219.276582717896
 20
48.7337951660156
 30
0.0
 11
-219.276582717896
 21
-71.2661895751807
 31
0.0
  0
INSERT
  5
   4C5
  8
0
  6
CONTINUOUS
 62
     7
  2
*HATCH37
 10
-139.529190063477
 20
-25.7662048339844
 30
0.0
 50
269.999999844103
  0
INSERT
  5
   4C6
  8
0
  6
CONTINUOUS
 62
     7
  2
*HATCH38
 10
-139.529190063477
 20
-25.7662048339844
 30
0.0
 50
269.999999844103
  0
INSERT
  5
   4C7
  8
0
  6
CONTINUOUS
 62
     7
  2
*HATCH39
 10
-139.529190063477
 20
-25.7662048339844
 30
0.0
 50
269.999999844103
  0
LINE
  5
   4C8
  8
0
  6
CONTINUOUS
 62
   130
 10
-260.276582272847
 20
-9.36620483398439
 30
0.0
 11
-260.276582272847
 21
-11.9662048339839
 31
0.0
  0
LINE
  5
   4C9
  8
0
  6
CONTINUOUS
 62
   130
 10
-260.276582272848
 20
-11.9662048339844
 30
0.0
 11
-262.776582272848
 21
-14.4662048339844
 31
0.0
  0
LINE
  5
   4CA
  8
0
  6
CONTINUOUS
 62
   130
 10
-262.776582717896
 20
-6.86620438893624
 30
0.0
 11
-260.276582272847
 21
-9.36620483398438
 31
0.0
  0
LINE
  5
   4CB
  8
0
  6
CONTINUOUS
 62
   130
 10
-192.776588439941
 20
10.9838104248047
 30
0.0
 11
-192.776588439941
 21
6.48381042480472
 31
0.0
  0
LINE
  5
   4CC
  8
0
  6
DOT
 62
   130
 10
-220.276596641541
 20
42.7337832214558
 30
0.0
 11
-220.276596641541
 21
36.7337832214558
 31
0.0
  0
LINE
  5
   4CD
  8
0
  6
DOT
 62
   130
 10
-214.776596641541
 20
45.2755542895412
 30
0.0
 11
-214.776596641541
 21
34.1920121533703
 31
0.0
  0
LINE
  5
   4CE
  8
0
  6
DOT
 62
   130
 10
-234.276596641541
 20
36.7337832214558
 30
0.0
 11
-217.776596641541
 21
36.7337832214558
 31
0.0
  0
LINE
  5
   4CF
  8
0
  6
DOT
 62
   130
 10
-234.276596641541
 20
42.7337832214558
 30
0.0
 11
-217.776596641541
 21
42.7337832214558
 31
0.0
  0
ARC
  5
   4D0
  8
0
  6
DOT
 62
   130
 10
-225.176596641541
 20
39.7337832214558
 30
0.0
 40
12.0
 50
332.615940118948
 51
358.089786672393
  0
LINE
  5
   4D1
  8
0
  6
DOT
 62
   130
 10
-214.5212760445
 20
34.2143500101303
 30
0.0
 11
-217.776596641541
 21
33.9295438250934
 31
0.0
  0
LINE
  5
   4D2
  8
0
  6
DOT
 62
   130
 10
-217.77659664154
 20
45.5380226178181
 30
0.0
 11
-214.5212760445
 21
45.2532164327813
 31
0.0
  0
LINE
  5
   4D3
  8
0
  6
DOT
 62
   130
 10
-217.776596641541
 20
45.5380226178181
 30
0.0
 11
-217.776596641541
 21
33.9295438250934
 31
0.0
  0
LINE
  5
   4D4
  8
0
  6
DOT
 62
   130
 10
-234.776584434508
 20
37.3472132214558
 30
0.0
 11
-220.276596641541
 21
37.3472132214558
 31
0.0
  0
LINE
  5
   4D5
  8
0
  6
DOT
 62
   130
 10
-234.776584434508
 20
42.1203532214558
 30
0.0
 11
-220.276596641541
 21
42.1203532214558
 31
0.0
  0
LINE
  5
   4D6
  8
0
  6
DASHDOT
 62
     7
 10
-233.776595687866
 20
39.7337832214558
 30
0.0
 11
-209.176596641541
 21
39.7337832214558
 31
0.0
  0
LINE
  5
   4D7
  8
0
  6
DOT
 62
   130
 10
-213.976596641541
 20
40.1337832214558
 30
0.0
 11
-213.976596641541
 21
39.3337832214557
 31
0.0
  0
LINE
  5
   4D8
  8
0
  6
DOT
 62
   130
 10
-213.976596641541
 20
39.3337832214558
 30
0.0
 11
-213.183265161089
 21
39.3337832214558
 31
0.0
  0
LINE
  5
   4D9
  8
0
  6
DOT
 62
   130
 10
-213.976596641541
 20
40.1337832214558
 30
0.0
 11
-213.183265161089
 21
40.1337832214558
 31
0.0
  0
ARC
  5
   4DA
  8
0
  6
DOT
 62
   130
 10
-225.176596641541
 20
39.7337832214558
 30
0.0
 40
12.0
 50
361.910213015813
 51
387.384059569259
  0
TEXT
  5
   4DB
  8
0
  6
CONTINUOUS
 62
     2
 10
-118.816987236327
 20
-133.858356454673
 30
0.0
 40
2.00000008940697
  1
3POLE LOW VOLTAGE M.C.C.B SERIES ISOMAX
 50
359.999999844103
 41
0.625
 72
     1
 11
-94.5669861495515
 21
-132.85835647583
 31
0.0
 73
     2
  0
TEXT
  5
   4DC
  8
0
  6
CONTINUOUS
 62
     2
 10
-112.566986825796
 20
-136.858356471648
 30
0.0
 40
2.00000008940697
  1
FIXED VERSION FRONT TERMINALS
 50
359.999999844103
 41
0.625
 72
     1
 11
-94.5669860184173
 21
-135.85835647583
 31
0.0
 73
     2
  0
TEXT
  5
   4DD
  8
0
  6
CONTINUOUS
 62
     2
 10
-115.934693283698
 20
-142.399967187724
 30
0.0
 40
2.00000008940697
  1
INTERR.AUTOMATICO SERIE ISOMAX
 50
359.999999844103
 41
0.625
 72
     1
 11
-97.3096924483796
 21
-141.399967193604
 31
0.0
 73
     2
  0
TEXT
  5
   4DE
  8
0
  6
CONTINUOUS
 62
     2
 10
-124.05969351578
 20
-145.399967165657
 30
0.0
 40
2.00000008940697
  1
TRIP0L.ESECUZIONE FISSA TERMINALI ANTERIORI
 50
359.999999844103
 41
0.625
 72
     1
 11
-97.3096923172454
 21
-144.399967193604
 31
0.0
 73
     2
  0
TEXT
  5
   4DF
  8
0
  6
CONTINUOUS
 62
     2
 10
-219.814910891388
 20
-133.250095092948
 30
0.0
 40
2.00000008940697
  1
98-01-07
 50
359.999999844103
 41
0.874999973922969
 11
-219.814910888672
 21
-132.250095048244
 31
0.0
 73
     2
  0
TEXT
  5
   4E0
  8
0
  6
CONTINUOUS
 62
     2
 10
-219.814910891388
 20
-137.250095052324
 30
0.0
 40
2.00000008940697
  1
MAZZOLENI
 50
359.999999844103
 41
0.874999973922969
 11
-219.814910888672
 21
-136.25009500762
 31
0.0
 73
     2
  0
TEXT
  5
   4E1
  8
0
  6
CONTINUOUS
 62
     2
 10
-208.812109543289
 20
-150.107446297354
 30
0.0
 40
2.20000007748604
  1
M4381 98-02-09
 50
359.999999844103
 41
0.738636348242602
 72
     1
 11
-197.599609375
 21
-149.007446289063
 31
0.0
 73
     2
  0
TEXT
  5
   4E2
  8
0
  6
CONTINUOUS
 62
     2
 10
-101.08861656497
 20
-152.628131863431
 30
0.0
 40
3.00000002980232
  1
S1 UL
 50
359.999999844103
 41
0.916666604744064
 72
     1
 11
-94.4886169433594
 21
-151.128131866455
 31
0.0
 73
     2
  0
TEXT
  5
   4E3
  8
0
  6
CONTINUOUS
 62
     2
 10
-116.876512051458
 20
-162.018924711745
 30
0.0
 40
5.00000011920929
  1
601855/431
 50
359.999999844103
 41
0.916666496197386
 72
     1
 11
-94.4181823730469
 21
-159.518924713135
 31
0.0
 73
     2
  0
TEXT
  5
   4E4
  8
0
  6
CONTINUOUS
 62
     2
 10
-58.5060130207513
 20
-163.074268361789
 30
0.0
 40
2.50000005960464
  1
1/1
 50
359.999999844103
 41
0.954999929332734
 72
     1
 11
-55.1635131835938
 21
-161.824268341064
 31
0.0
 73
     2
  0
TEXT
  5
   4E5
  8
0
  6
CONTINUOUS
 62
     2
 10
-183.081559796235
 20
-25.1882155060696
 30
0.0
 40
3.00000002980232
  1
X
 50
359.999999844103
 41
0.916666674282816
 72
     1
 11
-181.981559753418
 21
-23.6882154941559
 31
0.0
 73
     2
  0
TEXT
  5
   4E6
  8
0
  6
CONTINUOUS
 62
     2
 10
-276.412248058216
 20
-24.9574855418951
 30
0.0
 40
3.00000002980232
  1
X
 50
359.999999844103
 41
0.916666674282816
 72
     1
 11
-275.312248015399
 21
-23.4574855299814
 31
0.0
 73
     2
  0
INSERT
  5
   4E7
  8
0
  6
CONTINUOUS
 62
     3
  2
*UDIM59
 10
0.0
 20
0.0
 30
0.0
  0
INSERT
  5
   4E8
  8
0
  6
CONTINUOUS
 62
     7
  2
*UDIM60
 10
0.0
 20
0.0
 30
0.0
  0
TEXT
  5
   4E9
  8
0
  6
CONTINUOUS
 62
     2
 10
-219.814910891388
 20
-141.716845092948
 30
0.0
 40
2.00000008940697
  1
98-01-07
 50
359.999999844103
 41
0.874999973922969
 11
-219.814910888672
 21
-140.716845048244
 31
0.0
 73
     2
  0
TEXT
  5
   4EA
  8
0
  6
CONTINUOUS
 62
     2
 10
-219.814910891388
 20
-145.716845092948
 30
0.0
 40
2.00000008940697
  1
GIUPPONI
 50
359.999999844103
 41
0.874999973922969
 11
-219.814910888672
 21
-144.716845048244
 31
0.0
 73
     2
  0
INSERT
  5
   4EB
  8
0
  6
CONTINUOUS
 62
     7
  2
*UDIM61
 10
0.0
 20
0.0
 30
0.0
  0
INSERT
  5
   4EC
  8
0
  6
CONTINUOUS
 62
     7
  2
*UDIM62
 10
0.0
 20
0.0
 30
0.0
  0
INSERT
  5
   4ED
  8
0
  6
CONTINUOUS
 62
     7
  2
*UDIM63
 10
0.0
 20
0.0
 30
0.0
  0
LINE
  5
   4EE
  8
0
  6
CONTINUOUS
 62
     2
 10
-262.776582272847
 20
64.7337799072266
 30
0.0
 11
-262.776582272847
 21
48.7337799072266
 31
0.0
  0
LINE
  5
   4EF
  8
0
  6
CONTINUOUS
 62
     2
 10
-262.776582717896
 20
-71.2662048339844
 30
0.0
 11
-262.776582717896
 21
-87.2661857604981
 31
0.0
  0
LINE
  5
   4F0
  8
0
  6
CONTINUOUS
 62
     2
 10
-264.076580047607
 20
32.7337799072266
 30
0.0
 11
-264.076580047607
 21
21.9337685824605
 31
0.0
  0
LINE
  5
   4F1
  8
0
  6
CONTINUOUS
 62
     2
 10
-264.076580047607
 20
-55.2661857604981
 30
0.0
 11
-264.076580047607
 21
-87.2661857604981
 31
0.0
  0
INSERT
  5
   4F2
  8
0
  6
CONTINUOUS
 62
     7
  2
*UDIM64
 10
0.0
 20
0.0
 30
0.0
  0
TEXT
  5
   4F3
  8
0
  6
CONTINUOUS
 62
     2
 10
-183.972109543289
 20
-150.107446297354
 30
0.0
 40
2.20000007748604
  1
M4384 98-05-20
 50
359.999999844103
 41
0.738636348242602
 72
     1
 11
-172.759609375
 21
-149.007446289063
 31
0.0
 73
     2
  0
ENDSEC
  0
EOF
