  0
SECTION
  2
HEADER
  9
$ACADVER
  1
AC1009
  9
$INSBASE
 10
0.0
 20
0.0
 30
0.0
  9
$EXTMIN
 10
-302.75765559999991
 20
348.86101519685019
 30
0.0
  9
$EXTMAX
 10
636.77317800000003
 20
762.978658
 30
0.0
  9
$LIMMIN
 10
0.0
 20
0.0
  9
$LIMMAX
 10
420.0
 20
297.0
  9
$ORTHOMODE
 70
     0
  9
$REGENMODE
 70
     1
  9
$FILLMODE
 70
     1
  9
$QTEXTMODE
 70
     0
  9
$MIRRTEXT
 70
     1
  9
$DRAGMODE
 70
     2
  9
$LTSCALE
 40
1.0
  9
$OSMODE
 70
    47
  9
$ATTMODE
 70
     1
  9
$TEXTSIZE
 40
0.0
  9
$TRACEWID
 40
1.0
  9
$TEXTSTYLE
  7
STANDARD
  9
$CLAYER
  8
0
  9
$CELTYPE
  6
BYLAYER
  9
$CECOLOR
 62
   256
  9
$DIMSCALE
 40
1.0
  9
$DIMASZ
 40
2.5
  9
$DIMEXO
 40
0.625
  9
$DIMDLI
 40
3.75
  9
$DIMRND
 40
0.0
  9
$DIMDLE
 40
0.0
  9
$DIMEXE
 40
1.25
  9
$DIMTP
 40
0.0
  9
$DIMTM
 40
0.0
  9
$DIMTXT
 40
2.5
  9
$DIMCEN
 40
2.5
  9
$DIMTSZ
 40
0.0
  9
$DIMTOL
 70
     0
  9
$DIMLIM
 70
     0
  9
$DIMTIH
 70
     0
  9
$DIMTOH
 70
     0
  9
$DIMSE1
 70
     0
  9
$DIMSE2
 70
     0
  9
$DIMTAD
 70
     1
  9
$DIMZIN
 70
     8
  9
$DIMBLK
  1

  9
$DIMASO
 70
     1
  9
$DIMSHO
 70
     1
  9
$DIMPOST
  1

  9
$DIMAPOST
  1

  9
$DIMALT
 70
     0
  9
$DIMALTD
 70
     3
  9
$DIMALTF
 40
0.03937
  9
$DIMLFAC
 40
1.0
  9
$DIMTOFL
 70
     1
  9
$DIMTVP
 40
0.0
  9
$DIMTIX
 70
     0
  9
$DIMSOXD
 70
     0
  9
$DIMSAH
 70
     0
  9
$DIMBLK1
  1

  9
$DIMBLK2
  1

  9
$DIMSTYLE
  2
STANDARD
  9
$DIMCLRD
 70
     0
  9
$DIMCLRE
 70
     0
  9
$DIMCLRT
 70
     0
  9
$DIMTFAC
 40
1.0
  9
$DIMGAP
 40
0.625
  9
$LUNITS
 70
     2
  9
$LUPREC
 70
     4
  9
$SKETCHINC
 40
1.0
  9
$FILLETRAD
 40
2.5
  9
$AUNITS
 70
     0
  9
$AUPREC
 70
     0
  9
$MENU
  1
.
  9
$ELEVATION
 40
0.0
  9
$PELEVATION
 40
0.0
  9
$THICKNESS
 40
0.0
  9
$LIMCHECK
 70
     0
  9
$BLIPMODE
 70
     0
  9
$CHAMFERA
 40
2.5
  9
$CHAMFERB
 40
2.5
  9
$SKPOLY
 70
     0
  9
$TDCREATE
 40
2311942.6599061568
  9
$TDUPDATE
 40
2454455.3946294319
  9
$TDINDWG
 40
0.0004140972
  9
$TDUSRTIMER
 40
0.0004140972
  9
$USRTIMER
 70
     1
  9
$ANGBASE
 50
0.0
  9
$ANGDIR
 70
     0
  9
$PDMODE
 70
     0
  9
$PDSIZE
 40
0.0
  9
$PLINEWID
 40
0.0
  9
$COORDS
 70
     1
  9
$SPLFRAME
 70
     0
  9
$SPLINETYPE
 70
     6
  9
$SPLINESEGS
 70
     8
  9
$ATTDIA
 70
     0
  9
$ATTREQ
 70
     1
  9
$HANDLING
 70
 22529
  9
$HANDSEED
  5
4B0
  9
$SURFTAB1
 70
     6
  9
$SURFTAB2
 70
     6
  9
$SURFTYPE
 70
     6
  9
$SURFU
 70
     6
  9
$SURFV
 70
     6
  9
$UCSNAME
  2

  9
$UCSORG
 10
0.0
 20
0.0
 30
0.0
  9
$UCSXDIR
 10
1.0
 20
0.0
 30
0.0
  9
$UCSYDIR
 10
0.0
 20
1.0
 30
0.0
  9
$PUCSNAME
  2

  9
$PUCSORG
 10
0.0
 20
0.0
 30
0.0
  9
$PUCSXDIR
 10
1.0
 20
0.0
 30
0.0
  9
$PUCSYDIR
 10
0.0
 20
1.0
 30
0.0
  9
$USERI1
 70
     0
  9
$USERI2
 70
     0
  9
$USERI3
 70
     0
  9
$USERI4
 70
     0
  9
$USERI5
 70
     0
  9
$USERR1
 40
0.0
  9
$USERR2
 40
0.0
  9
$USERR3
 40
0.0
  9
$USERR4
 40
0.0
  9
$USERR5
 40
0.0
  9
$WORLDVIEW
 70
     1
  9
$SHADEDGE
 70
     3
  9
$SHADEDIF
 70
    70
  9
$TILEMODE
 70
     1
  9
$MAXACTVP
 70
    48
  9
$PLIMCHECK
 70
     0
  9
$PEXTMIN
 10
0.0
 20
0.0
 30
0.0
  9
$PEXTMAX
 10
281.35003699999987
 20
228.31550599999991
 30
2.0
  9
$PLIMMIN
 10
0.0
 20
0.0
  9
$PLIMMAX
 10
420.0
 20
297.0
  9
$UNITMODE
 70
     0
  9
$VISRETAIN
 70
     0
  9
$PLINEGEN
 70
     0
  9
$PSLTSCALE
 70
     1
  0
ENDSEC
  0
SECTION
  2
TABLES
  0
TABLE
  2
VPORT
 70
     4
  0
VPORT
  2
*ACTIVE
 70
     0
 10
0.0
 20
0.0
 11
1.0
 21
1.0
 12
167.0077612
 22
555.91983659842515
 13
0.0
 23
0.0
 14
1.0
 24
1.0
 15
0.0
 25
0.0
 16
0.0
 26
0.0
 36
1.0
 17
0.0
 27
0.0
 37
0.0
 40
608.95013901339405
 41
1.550724637681159
 42
50.0
 43
0.0
 44
0.0
 50
0.0
 51
0.0
 71
     0
 72
   100
 73
     1
 74
     1
 75
     0
 76
     0
 77
     0
 78
     0
  0
ENDTAB
  0
TABLE
  2
LTYPE
 70
     8
  0
LTYPE
  2
CONTINUOUS
 70
     0
  3
Solid line
 72
    65
 73
     0
 40
0.0
  0
LTYPE
  2
DASHED
 70
     0
  3
__ __ __ __ __ __ __ __ __ __ __ __ __ __ __ __
 72
    65
 73
     2
 40
15.0
 49
12.0
 49
-3.0
  0
LTYPE
  2
DASHDOT
 70
     0
  3
 __ . __ . __ . __ . __ . __ . __ . 
 72
    65
 73
     4
 40
18.5
 49
12.0
 49
-3.0
 49
0.5
 49
-3.0
  0
LTYPE
  2
DOT
 70
     0
  3
 . . . . . . . . . . . . . . . .
 72
    65
 73
     2
 40
3.5
 49
0.5
 49
-3.0
  0
LTYPE
  2
DASHSPACE
 70
     0
  3
__    __    __    __    __   
 72
    65
 73
     2
 40
30.0
 49
12.0
 49
-18.0
  0
LTYPE
  2
DASHDOT2
 70
     0
  3
__ . . __ . . __ . . __ 
 72
    65
 73
     6
 40
22.0
 49
12.0
 49
-3.0
 49
0.5
 49
-3.0
 49
0.5
 49
-3.0
  0
LTYPE
  2
PHANTOM
 70
     0
  3
____________    ____    ____   _
 72
    65
 73
     6
 40
20.0
 49
10.0
 49
-2.0
 49
2.0
 49
-2.0
 49
2.0
 49
-2.0
  0
LTYPE
  2
AXES
 70
     0
  3
________  __  ________  __  _____
 72
    65
 73
     4
 40
24.0
 49
15.0
 49
-3.0
 49
3.0
 49
-3.0
  0
ENDTAB
  0
TABLE
  2
LAYER
 70
     1
  0
LAYER
  2
0
 70
     0
 62
     7
  6
CONTINUOUS
  0
ENDTAB
  0
TABLE
  2
STYLE
 70
     2
  0
STYLE
  2
STANDARD
 70
     0
 40
0.0
 41
1.0
 50
0.0
 71
     0
 42
0.0
  3
isocp.shx
  4

  0
STYLE
  2
GDT
 70
     0
 40
0.0
 41
1.0
 50
0.0
 71
     0
 42
0.0
  3
amgdt.shx
  4

  0
ENDTAB
  0
TABLE
  2
VIEW
 70
     0
  0
ENDTAB
  0
TABLE
  2
UCS
 70
     0
  0
ENDTAB
  0
TABLE
  2
APPID
 70
     1
  0
APPID
  2
ACAD
 70
     0
  0
ENDTAB
  0
TABLE
  2
DIMSTYLE
 70
     1
  0
DIMSTYLE
  2
STANDARD
 70
     0
  3

  4

  5

  6

  7

 40
1.0
 41
2.5
 42
0.625
 43
3.75
 44
1.25
 45
0.0
 46
0.0
 47
0.0
 48
0.0
140
2.5
141
2.5
142
0.0
143
0.03937
144
1.0
145
0.0
146
1.0
147
0.625
 71
     0
 72
     0
 73
     0
 74
     0
 75
     0
 76
     0
 77
     1
 78
     8
170
     0
171
     3
172
     1
173
     0
174
     0
175
     0
176
     0
177
     0
178
     0
  0
ENDTAB
  0
ENDSEC
  0
SECTION
  2
BLOCKS
  0
BLOCK
  8
0
  2
$MODEL_SPACE
 70
     0
 10
0.0
 20
0.0
 30
0.0
  3
$MODEL_SPACE
  1

  0
ENDBLK
  5
E
  8
0
  0
BLOCK
 67
     1
  8
0
  2
$PAPER_SPACE
 70
     0
 10
0.0
 20
0.0
 30
0.0
  3
$PAPER_SPACE
  1

  0
ENDBLK
  5
10
 67
     1
  8
0
  0
BLOCK
  8
0
  2
BLOCK0
 70
     0
 10
0.0
 20
0.0
 30
0.0
  3
BLOCK0
  1

  0
TEXT
  5
178
  8
0
 62
     1
 10
-440.30425999999989
 20
-43.999996000000003
 30
0.0
 40
2.0
  1
N0204 2007-09-17
 50
180.00000967191221
 41
1.1017693073406409
 72
     5
 11
-464.0
 21
-44.0
 31
0.0
  0
ENDBLK
  5
179
  8
0
  0
BLOCK
  8
0
  2
BLOCK1
 70
     0
 10
0.0
 20
0.0
 30
0.0
  3
BLOCK1
  1

  0
TEXT
  5
17B
  8
0
 62
     1
 10
-486.0
 20
-39.0
 30
0.0
 40
4.0
  1
1SDH000637R0.119
 50
180.0
 41
1.408123615455027
 72
     5
 11
-545.26281700000004
 21
-39.0
 31
0.0
  0
ENDBLK
  5
17C
  8
0
  0
BLOCK
  8
0
  2
BLOCK2
 70
     0
 10
0.0
 20
0.0
 30
0.0
  3
BLOCK2
  1

  0
TEXT
  5
17E
  8
0
 62
     1
 10
-507.0
 20
-49.0
 30
0.0
 40
3.0
  1
Ts3
 50
180.0
 41
1.225762527177944
 72
     5
 11
-514.69995099999994
 21
-49.0
 31
0.0
  0
ENDBLK
  5
17F
  8
0
  0
BLOCK
  8
0
  2
BLOCK3
 70
     0
 10
0.0
 20
0.0
 30
0.0
  3
BLOCK3
  1

  0
TEXT
  5
181
  8
0
 62
     1
 10
-469.0
 20
-61.0
 30
0.0
 40
2.0
  1
INTERR.AUTOMATICO SERIE ISOMAX CON COMANDO MOTORE
 50
179.9999934653064
 41
1.0092589064748281
 72
     5
 11
-539.14349400000003
 21
-60.999991999999999
 31
0.0
  0
ENDBLK
  5
182
  8
0
  0
BLOCK
  8
0
  2
BLOCK4
 70
     0
 10
0.0
 20
0.0
 30
0.0
  3
BLOCK4
  1

  0
TEXT
  5
184
  8
0
 62
     1
 10
-482.0
 20
-58.0
 30
0.0
 40
2.0
  1
TRIP. TETRAP. ESECUZIONE FISSA
 50
179.99999464944159
 41
1.0843923037974721
 72
     5
 11
-524.83349599999997
 21
-57.999995999999989
 31
0.0
  0
ENDBLK
  5
185
  8
0
  0
BLOCK
  8
0
  2
BLOCK5
 70
     0
 10
0.0
 20
0.0
 30
0.0
  3
BLOCK5
  1

  0
TEXT
  5
187
  8
0
 62
     1
 10
-477.0
 20
-69.0
 30
0.0
 40
2.0
  1
3-4POLE LOW VOLTAGE M.C.C.B SERIES ISOMAX
 50
179.99999250901979
 41
1.09461694096602
 72
     5
 11
-538.18908699999986
 21
-68.999992000000006
 31
0.0
  0
ENDBLK
  5
188
  8
0
  0
BLOCK
  8
0
  2
BLOCK6
 70
     0
 10
0.0
 20
0.0
 30
0.0
  3
BLOCK6
  1

  0
TEXT
  5
18A
  8
0
 62
     1
 10
-479.0
 20
-66.0
 30
0.0
 40
2.0
  1
FIXED VERSION WITH OPERATING MECHANISM
 50
179.99999191449621
 41
1.0716423440453799
 72
     5
 11
-535.68988000000002
 21
-65.999992000000006
 31
0.0
  0
ENDBLK
  5
18B
  8
0
  0
BLOCK
  8
0
  2
BLOCK7
 70
     0
 10
0.0
 20
0.0
 30
0.0
  3
BLOCK7
  1

  0
LINE
  5
18D
  8
0
 62
   251
 10
30.037125
 20
-2.0
 30
0.0
 11
30.037125
 21
-74.0
 31
0.0
  0
LINE
  5
18E
  8
0
 62
   212
 10
27.237121999999989
 20
-2.0
 30
0.0
 11
67.531342000000009
 21
-2.0
 31
0.0
  0
LINE
  5
18F
  8
0
 62
   212
 10
67.531311000000002
 20
-2.0
 30
0.0
 11
197.23709099999999
 21
-2.0
 31
0.0
  0
LINE
  5
190
  8
0
  6
DASHDOT
 62
   251
 10
16.407654000000001
 20
0.0
 30
0.0
 11
207.265411
 21
0.0
 31
0.0
  0
LINE
  5
191
  8
0
 62
   212
 10
186.566711
 20
0.0
 30
0.0
 11
186.737076
 21
0.0
 31
0.0
  0
LINE
  5
192
  8
0
 62
   251
 10
134.48710600000001
 20
-70.499977000000001
 30
0.0
 11
126.237076
 21
-70.5
 31
0.0
  0
LINE
  5
193
  8
0
 62
   251
 10
83.737105999999997
 20
-66.0
 30
0.0
 11
124.237106
 21
-66.0
 31
0.0
  0
LINE
  5
194
  8
0
 62
   251
 10
124.23716
 20
-66.000031000000007
 30
0.0
 11
125.23716
 21
-66.267975000000007
 31
0.0
  0
LINE
  5
195
  8
0
 62
   251
 10
125.23719799999991
 20
-66.268012999999996
 30
0.0
 11
125.96925400000001
 21
-67.000052999999994
 31
0.0
  0
LINE
  5
196
  8
0
 62
   251
 10
125.969131
 20
-66.999946999999992
 30
0.0
 11
126.237076
 21
-67.999961999999996
 31
0.0
  0
LINE
  5
197
  8
0
 62
   251
 10
83.737105999999997
 20
-66.0
 30
0.0
 11
83.737105999999997
 21
-74.0
 31
0.0
  0
LINE
  5
198
  8
0
 62
   251
 10
69.737091000000007
 20
-72.999886000000004
 30
0.0
 11
68.737091000000007
 21
-73.999961999999996
 31
0.0
  0
LINE
  5
199
  8
0
 62
   251
 10
80.737122000000014
 20
-72.999907999999991
 30
0.0
 11
81.737121999999999
 21
-74.0
 31
0.0
  0
LINE
  5
19A
  8
0
 62
   251
 10
80.737082999999984
 20
-10.232085
 30
0.0
 11
80.737114000000005
 21
-72.999893
 31
0.0
  0
LINE
  5
19B
  8
0
 62
   251
 10
69.737106000000011
 20
-10.232037999999999
 30
0.0
 11
69.737106000000011
 21
-72.999907999999991
 31
0.0
  0
LINE
  5
19C
  8
0
 62
   251
 10
81.737076000000002
 20
-6.4999960000000003
 30
0.0
 11
80.737060999999997
 21
-10.23208
 31
0.0
  0
LINE
  5
19D
  8
0
 62
   251
 10
82.674903999999984
 20
-2.9999950000000002
 30
0.0
 11
81.737068000000008
 21
-6.5000279999999986
 31
0.0
  0
LINE
  5
19E
  8
0
 62
   251
 10
67.531342000000009
 20
-2.0000009999999988
 30
0.0
 11
69.737106000000011
 21
-10.23204
 31
0.0
  0
LINE
  5
19F
  8
0
 62
   251
 10
85.031409999999994
 20
-2.000013
 30
0.0
 11
85.299355000000006
 21
-3.0000100000000001
 31
0.0
  0
LINE
  5
1A0
  8
0
 62
   251
 10
61.237091000000007
 20
-2.0
 30
0.0
 11
61.237091000000007
 21
-5.999998999999999
 31
0.0
  0
LINE
  5
1A1
  8
0
 62
   251
 10
30.037125
 20
-5.999998999999999
 30
0.0
 11
61.237091000000007
 21
-5.999998999999999
 31
0.0
  0
LINE
  5
1A2
  8
0
 62
   251
 10
67.79927099999999
 20
-3.0
 30
0.0
 11
112.23709099999989
 21
-3.0
 31
0.0
  0
LINE
  5
1A3
  8
0
 62
   251
 10
81.737106000000011
 20
-6.5
 30
0.0
 11
106.737106
 21
-6.5
 31
0.0
  0
LINE
  5
1A4
  8
0
 62
   251
 10
112.23709099999989
 20
-1.9999990000000001
 30
0.0
 11
112.23709099999989
 21
-4.9999979999999997
 31
0.0
  0
LINE
  5
1A5
  8
0
 62
   251
 10
112.237083
 20
-5.0000080000000002
 30
0.0
 11
112.0361249999999
 21
-5.7500099999999987
 31
0.0
  0
LINE
  5
1A6
  8
0
 62
   251
 10
112.237083
 20
-5.0000080000000002
 30
0.0
 11
112.0361249999999
 21
-5.7500099999999987
 31
0.0
  0
LINE
  5
1A7
  8
0
 62
   251
 10
112.0361179999999
 20
-5.7500029999999986
 30
0.0
 11
111.487076
 21
-6.2990409999999999
 31
0.0
  0
LINE
  5
1A8
  8
0
 62
   251
 10
111.487061
 20
-6.2990240000000002
 30
0.0
 11
110.737061
 21
-6.4999849999999988
 31
0.0
  0
LINE
  5
1A9
  8
0
 62
   251
 10
106.73709099999989
 20
-6.500017999999999
 30
0.0
 11
110.737076
 21
-6.500017999999999
 31
0.0
  0
LINE
  5
1AA
  8
0
 62
   251
 10
105.987083
 20
-6.2990459999999988
 30
0.0
 11
106.342461
 21
-6.3942680000000003
 31
0.0
  0
LINE
  5
1AB
  8
0
 62
   251
 10
106.34245300000001
 20
-6.3942670000000001
 30
0.0
 11
106.73709099999989
 21
-6.5000049999999998
 31
0.0
  0
LINE
  5
1AC
  8
0
 62
   251
 10
105.438011
 20
-5.75
 30
0.0
 11
105.9870529999999
 21
-6.2990379999999986
 31
0.0
  0
LINE
  5
1AD
  8
0
 62
   251
 10
105.23706799999989
 20
-4.9999869999999991
 30
0.0
 11
105.43802599999999
 21
-5.7499869999999991
 31
0.0
  0
LINE
  5
1AE
  8
0
 62
   251
 10
105.23709100000001
 20
-3.0
 30
0.0
 11
105.23709100000001
 21
-4.999998999999999
 31
0.0
  0
LINE
  5
1AF
  8
0
 62
   212
 10
37.737090999999999
 20
0.0
 30
0.0
 11
37.737090999999999
 21
-2.0
 31
0.0
  0
LINE
  5
1B0
  8
0
 62
   212
 10
186.737076
 20
0.0
 30
0.0
 11
186.737076
 21
-2.0
 31
0.0
  0
LINE
  5
1B1
  8
0
 62
   212
 10
176.868729
 20
0.0
 30
0.0
 11
176.868729
 21
-2.0
 31
0.0
  0
LINE
  5
1B2
  8
0
 62
   251
 10
70.237091000000007
 20
-6.4999769999999986
 30
0.0
 11
69.487091000000007
 21
-9.2990130000000004
 31
0.0
  0
LINE
  5
1B3
  8
0
 62
   251
 10
70.237106000000011
 20
-6.4999669999999989
 30
0.0
 11
80.237106000000011
 21
-6.4999669999999989
 31
0.0
  0
LINE
  5
1B4
  8
0
 62
   251
 10
80.237091000000007
 20
-6.4999669999999989
 30
0.0
 11
80.987091000000007
 21
-9.2990270000000006
 31
0.0
  0
LINE
  5
1B5
  8
0
 62
   212
 10
47.521712999999991
 20
0.0
 30
0.0
 11
47.521712999999991
 21
-2.0
 31
0.0
  0
LINE
  5
1B6
  8
0
 62
   212
 10
47.737090999999999
 20
0.0
 30
0.0
 11
47.737090999999999
 21
-2.0
 31
0.0
  0
LINE
  5
1B7
  8
0
 62
   251
 10
105.45779399999989
 20
-6.2990490000000001
 30
0.0
 11
106.342468
 21
-6.5000099999999987
 31
0.0
  0
LINE
  5
1B8
  8
0
 62
   251
 10
106.342468
 20
-6.3942600000000001
 30
0.0
 11
106.342468
 21
-6.4999979999999997
 31
0.0
  0
LINE
  5
1B9
  8
0
 62
   251
 10
92.237082999999998
 20
-6.3660230000000002
 30
0.0
 11
92.336539999999985
 21
-6.4999949999999993
 31
0.0
  0
LINE
  5
1BA
  8
0
 62
   251
 10
92.286773999999994
 20
-6.2990430000000002
 30
0.0
 11
92.237044999999995
 21
-6.3660319999999988
 31
0.0
  0
LINE
  5
1BB
  8
0
 62
   251
 10
102.237106
 20
-6.2990379999999986
 30
0.0
 11
102.237106
 21
-6.499998999999999
 31
0.0
  0
LINE
  5
1BC
  8
0
 62
   251
 10
96.187317000000007
 20
-6.2990329999999997
 30
0.0
 11
96.237044999999995
 21
-6.3660220000000001
 31
0.0
  0
LINE
  5
1BD
  8
0
 62
   251
 10
96.237076000000016
 20
-6.3660309999999987
 30
0.0
 11
96.137619000000001
 21
-6.5000029999999986
 31
0.0
  0
LINE
  5
1BE
  8
0
 62
   251
 10
104.56894699999989
 20
-6.2990320000000004
 30
0.0
 11
103.959175
 21
-6.408205999999999
 31
0.0
  0
LINE
  5
1BF
  8
0
 62
   251
 10
103.9591829999999
 20
-6.4082109999999988
 30
0.0
 11
102.237106
 21
-6.4999979999999997
 31
0.0
  0
LINE
  5
1C0
  8
0
 62
   251
 10
92.389313000000001
 20
-5.7836739999999986
 30
0.0
 11
92.286804000000004
 21
-6.2990339999999989
 31
0.0
  0
LINE
  5
1C1
  8
0
 62
   251
 10
92.411827000000017
 20
-5.7499969999999996
 30
0.0
 11
92.389319999999998
 21
-5.7836759999999989
 31
0.0
  0
LINE
  5
1C2
  8
0
 62
   251
 10
96.062331999999998
 20
-5.7499830000000003
 30
0.0
 11
96.084839000000017
 21
-5.783663999999999
 31
0.0
  0
LINE
  5
1C3
  8
0
 62
   251
 10
96.084830999999994
 20
-5.783669999999999
 30
0.0
 11
96.187340000000006
 21
-6.299027999999999
 31
0.0
  0
LINE
  5
1C4
  8
0
 62
   251
 10
102.237106
 20
-5.749998999999999
 30
0.0
 11
102.237106
 21
-6.2990379999999986
 31
0.0
  0
LINE
  5
1C5
  8
0
 62
   251
 10
92.546088999999995
 20
-4.999994
 30
0.0
 11
92.411811999999983
 21
-5.749994
 31
0.0
  0
LINE
  5
1C6
  8
0
 62
   251
 10
95.928055000000001
 20
-4.999992999999999
 30
0.0
 11
96.062331999999998
 21
-5.749992999999999
 31
0.0
  0
LINE
  5
1C7
  8
0
 62
   251
 10
102.237106
 20
-4.999998999999999
 30
0.0
 11
102.237106
 21
-5.749998999999999
 31
0.0
  0
LINE
  5
1C8
  8
0
 62
   251
 10
95.928069999999977
 20
-3.0
 30
0.0
 11
95.928069999999977
 21
-4.999998999999999
 31
0.0
  0
LINE
  5
1C9
  8
0
 62
   251
 10
102.237106
 20
-3.0
 30
0.0
 11
102.237106
 21
-4.999998999999999
 31
0.0
  0
LINE
  5
1CA
  8
0
 62
   251
 10
92.546111999999994
 20
-3.0
 30
0.0
 11
92.546111999999994
 21
-4.999998999999999
 31
0.0
  0
LINE
  5
1CB
  8
0
 62
   212
 10
197.23710600000001
 20
-2.0
 30
0.0
 11
197.23710600000001
 21
-99.0
 31
0.0
  0
LINE
  5
1CC
  8
0
 62
   251
 10
194.437119
 20
-2.0
 30
0.0
 11
194.437119
 21
-96.19999700000001
 31
0.0
  0
LINE
  5
1CD
  8
0
 62
   251
 10
30.037125
 20
-74.0
 30
0.0
 11
30.037125
 21
-96.19999700000001
 31
0.0
  0
LINE
  5
1CE
  8
0
 62
   212
 10
27.237121999999989
 20
-74.0
 30
0.0
 11
27.237121999999989
 21
-99.0
 31
0.0
  0
LINE
  5
1CF
  8
0
 62
   251
 10
27.237121999999989
 20
-74.0
 30
0.0
 11
69.487106000000011
 21
-74.0
 31
0.0
  0
LINE
  5
1D0
  8
0
 62
   251
 10
80.987091000000007
 20
-74.0
 30
0.0
 11
83.737167000000014
 21
-74.0
 31
0.0
  0
LINE
  5
1D1
  8
0
 62
   251
 10
134.48710600000001
 20
-74.0
 30
0.0
 11
197.23710600000001
 21
-74.0
 31
0.0
  0
LINE
  5
1D2
  8
0
 62
   212
 10
125.1859739999999
 20
-103.4999999999999
 30
0.0
 11
134.736786
 21
-103.4999999999999
 31
0.0
  0
LINE
  5
1D3
  8
0
 62
   212
 10
74.287529000000006
 20
-103.49994700000001
 30
0.0
 11
67.736808999999994
 21
-103.49999200000001
 31
0.0
  0
LINE
  5
1D4
  8
0
 62
   212
 10
172.98710600000001
 20
-99.0
 30
0.0
 11
197.23710600000001
 21
-99.0
 31
0.0
  0
LINE
  5
1D5
  8
0
 62
   251
 10
180.98712199999991
 20
-96.19999700000001
 30
0.0
 11
180.98712199999991
 21
-99.0
 31
0.0
  0
LINE
  5
1D6
  8
0
 62
   212
 10
27.237121999999989
 20
-99.0
 30
0.0
 11
51.987121999999999
 21
-99.0
 31
0.0
  0
LINE
  5
1D7
  8
0
 62
   251
 10
43.487121999999999
 20
-96.19999700000001
 30
0.0
 11
43.487121999999999
 21
-99.0
 31
0.0
  0
LINE
  5
1D8
  8
0
 62
   251
 10
30.037125
 20
-96.19999700000001
 30
0.0
 11
51.987124999999999
 21
-96.19999700000001
 31
0.0
  0
LINE
  5
1D9
  8
0
 62
   251
 10
80.987106000000026
 20
-74.0
 30
0.0
 11
80.987106000000026
 21
-96.19999700000001
 31
0.0
  0
LINE
  5
1DA
  8
0
 62
   251
 10
69.487106000000011
 20
-74.0
 30
0.0
 11
69.487106000000011
 21
-96.19999700000001
 31
0.0
  0
LINE
  5
1DB
  8
0
 62
   212
 10
172.98710600000001
 20
-96.19999700000001
 30
0.0
 11
172.98710600000001
 21
-101.5
 31
0.0
  0
LINE
  5
1DC
  8
0
 62
   212
 10
51.987121999999999
 20
-98.500000000000014
 30
0.0
 11
51.987121999999999
 21
-99.0
 31
0.0
  0
LINE
  5
1DD
  8
0
 62
   212
 10
51.987124999999999
 20
-96.19999700000001
 30
0.0
 11
51.987121999999999
 21
-101.5
 31
0.0
  0
LINE
  5
1DE
  8
0
 62
   212
 10
57.487105999999997
 20
-103.5013119999999
 30
0.0
 11
162.48710600000001
 21
-103.5013119999999
 31
0.0
  0
LINE
  5
1DF
  8
0
 62
   212
 10
162.48710600000001
 20
-101.5
 30
0.0
 11
162.48710600000001
 21
-107.0011669999999
 31
0.0
  0
LINE
  5
1E0
  8
0
 62
   212
 10
57.487105999999997
 20
-101.5
 30
0.0
 11
57.487105999999997
 21
-107.0011669999999
 31
0.0
  0
LINE
  5
1E1
  8
0
 62
   251
 10
126.237076
 20
-67.999961999999996
 30
0.0
 11
126.237076
 21
-70.499992000000006
 31
0.0
  0
LINE
  5
1E2
  8
0
 62
   212
 10
162.48710600000001
 20
-101.5
 30
0.0
 11
172.98710600000001
 21
-101.5
 31
0.0
  0
LINE
  5
1E3
  8
0
 62
   212
 10
51.987121999999999
 20
-101.5
 30
0.0
 11
57.487105999999997
 21
-101.5
 31
0.0
  0
LINE
  5
1E4
  8
0
 62
   251
 10
172.98710600000001
 20
-96.19999700000001
 30
0.0
 11
194.437119
 21
-96.19999700000001
 31
0.0
  0
LINE
  5
1E5
  8
0
 62
   212
 10
51.987124999999999
 20
-96.19999700000001
 30
0.0
 11
172.98710600000001
 21
-96.19999700000001
 31
0.0
  0
LINE
  5
1E6
  8
0
  6
DASHDOT
 62
   251
 10
16.407654000000001
 20
3.0
 30
0.0
 11
207.265411
 21
3.0
 31
0.0
  0
LINE
  5
1E7
  8
0
 62
   212
 10
197.23709099999999
 20
-2.0
 30
0.0
 11
197.23709099999999
 21
-3.5
 31
0.0
  0
LINE
  5
1E8
  8
0
  6
DASHDOT
 62
   251
 10
109.987106
 20
20.678698999999991
 30
0.0
 11
109.987106
 21
-141.20664999999991
 31
0.0
  0
LINE
  5
1E9
  8
0
 62
   212
 10
27.237121999999989
 20
-2.0
 30
0.0
 11
27.237121999999989
 21
-3.5
 31
0.0
  0
LINE
  5
1EA
  8
0
 62
   212
 10
27.237106000000001
 20
-19.0
 30
0.0
 11
27.237106000000001
 21
-22.0
 31
0.0
  0
LINE
  5
1EB
  8
0
 62
   212
 10
27.237121999999989
 20
-2.0
 30
0.0
 11
27.237121999999989
 21
-74.0
 31
0.0
  0
LINE
  5
1EC
  8
0
  6
DASHDOT
 62
   251
 10
181.73710600000001
 20
18.734763999999998
 30
0.0
 11
181.73710600000001
 21
-4.725541999999999
 31
0.0
  0
LINE
  5
1ED
  8
0
 62
   212
 10
177.73710600000001
 20
7.0
 30
0.0
 11
185.73710600000001
 21
7.0
 31
0.0
  0
LINE
  5
1EE
  8
0
 62
   212
 10
177.73710600000001
 20
7.0
 30
0.0
 11
177.73710600000001
 21
3.0
 31
0.0
  0
LINE
  5
1EF
  8
0
 62
   212
 10
185.73710600000001
 20
7.0
 30
0.0
 11
185.73710600000001
 21
3.0
 31
0.0
  0
LINE
  5
1F0
  8
0
 62
   212
 10
179.23710600000001
 20
11.0
 30
0.0
 11
184.2371059999999
 21
11.0
 31
0.0
  0
LINE
  5
1F1
  8
0
 62
   212
 10
184.2371059999999
 20
11.0
 30
0.0
 11
184.2371059999999
 21
3.0
 31
0.0
  0
LINE
  5
1F2
  8
0
 62
   212
 10
179.23710600000001
 20
11.0
 30
0.0
 11
179.23710600000001
 21
3.0
 31
0.0
  0
LINE
  5
1F3
  8
0
 62
   212
 10
46.73710599999999
 20
7.0
 30
0.0
 11
46.73710599999999
 21
3.0
 31
0.0
  0
LINE
  5
1F4
  8
0
 62
   212
 10
45.237105999999997
 20
11.0
 30
0.0
 11
45.237105999999997
 21
3.0
 31
0.0
  0
LINE
  5
1F5
  8
0
  6
DASHDOT
 62
   251
 10
42.737105999999997
 20
18.734763999999998
 30
0.0
 11
42.737105999999997
 21
-4.725543
 31
0.0
  0
LINE
  5
1F6
  8
0
 62
   212
 10
40.237105999999997
 20
11.0
 30
0.0
 11
40.237105999999997
 21
3.0
 31
0.0
  0
LINE
  5
1F7
  8
0
 62
   212
 10
38.73710599999999
 20
7.0
 30
0.0
 11
38.73710599999999
 21
3.0
 31
0.0
  0
LINE
  5
1F8
  8
0
 62
   212
 10
38.73710599999999
 20
7.0
 30
0.0
 11
46.73710599999999
 21
7.0
 31
0.0
  0
LINE
  5
1F9
  8
0
 62
   212
 10
40.237105999999997
 20
11.0
 30
0.0
 11
45.237105999999997
 21
11.0
 31
0.0
  0
CIRCLE
  5
1FA
  8
0
 62
   212
 10
180.45166
 20
5.6682639999999989
 30
0.0
 40
0.2
  0
LINE
  5
1FB
  8
0
 62
   251
 10
134.48710600000001
 20
-70.499977000000001
 30
0.0
 11
134.48710600000001
 21
-74.0
 31
0.0
  0
ENDBLK
  5
1FC
  8
0
  0
BLOCK
  8
0
  2
BLOCK8
 70
     0
 10
0.0
 20
0.0
 30
0.0
  3
BLOCK8
  1

  0
TEXT
  5
1FE
  8
0
 62
     7
 10
107.53177599999999
 20
-250.69348099999999
 30
0.0
 40
3.0
  1
X
 50
269.99981769499811
 41
0.9777764444493794
 72
     5
 11
107.531769
 21
-252.8934779999999
 31
0.0
  0
ENDBLK
  5
1FF
  8
0
  0
BLOCK
  8
0
  2
BLOCK9
 70
     0
 10
0.0
 20
0.0
 30
0.0
  3
BLOCK9
  1

  0
TEXT
  5
201
  8
0
 62
     7
 10
-80.333465999999987
 20
-99.0
 30
0.0
 40
3.0
  1
225,5
 50
270.00003472482268
 41
1.4466875246702351
 72
     5
 11
-80.333457999999993
 21
-112.19995900000001
 31
0.0
  0
ENDBLK
  5
202
  8
0
  0
BLOCK
  8
0
  2
BLOCK10
 70
     0
 10
0.0
 20
0.0
 30
0.0
  3
BLOCK10
  1

  0
TEXT
  5
204
  8
0
 62
     7
 10
277.05004899999989
 20
-228.0
 30
0.0
 40
3.0
  1
2
 50
270.0
 41
1.20206777881752
 72
     5
 11
277.05004899999989
 21
-230.199997
 31
0.0
  0
ENDBLK
  5
205
  8
0
  0
BLOCK
  8
0
  2
BLOCK11
 70
     0
 10
0.0
 20
0.0
 30
0.0
  3
BLOCK11
  1

  0
TEXT
  5
207
  8
0
 62
     7
 10
277.05004899999989
 20
-101.75
 30
0.0
 40
3.0
  1
220
 50
270.0
 41
1.3157049633366971
 72
     5
 11
277.05004899999989
 21
-109.44998200000001
 31
0.0
  0
ENDBLK
  5
208
  8
0
  0
BLOCK
  8
0
  2
BLOCK12
 70
     0
 10
0.0
 20
0.0
 30
0.0
  3
BLOCK12
  1

  0
LINE
  5
20A
  8
0
 62
     2
 10
184.48049900000001
 20
-220.54296899999991
 30
0.0
 11
185.93751499999991
 21
-221.99998500000001
 31
0.0
  0
LINE
  5
20B
  8
0
 62
     2
 10
186.05883799999989
 20
-219.99998500000001
 30
0.0
 11
188.05883799999989
 21
-221.99998500000001
 31
0.0
  0
LINE
  5
20C
  8
0
 62
     2
 10
188.1801449999999
 20
-219.99998500000001
 30
0.0
 11
190.1801449999999
 21
-221.99998500000001
 31
0.0
  0
LINE
  5
20D
  8
0
 62
     2
 10
190.301468
 20
-219.99998500000001
 30
0.0
 11
192.30146799999989
 21
-221.99998500000001
 31
0.0
  0
LINE
  5
20E
  8
0
 62
     2
 10
192.4227909999999
 20
-219.99998500000001
 30
0.0
 11
194.42279099999999
 21
-221.99998500000001
 31
0.0
  0
LINE
  5
20F
  8
0
 62
     2
 10
194.5441129999999
 20
-219.99998500000001
 30
0.0
 11
196.5441129999999
 21
-221.99998500000001
 31
0.0
  0
LINE
  5
210
  8
0
 62
     2
 10
196.66543599999989
 20
-219.99998500000001
 30
0.0
 11
198.66543599999989
 21
-221.99998500000001
 31
0.0
  0
LINE
  5
211
  8
0
 62
     2
 10
198.78675799999999
 20
-219.99998500000001
 30
0.0
 11
200.78675799999999
 21
-221.99998500000001
 31
0.0
  0
LINE
  5
212
  8
0
 62
     2
 10
200.9080809999999
 20
-219.99998500000001
 30
0.0
 11
202.90806599999991
 21
-221.99998500000001
 31
0.0
  0
LINE
  5
213
  8
0
 62
     2
 10
203.0293879999999
 20
-219.99998500000001
 30
0.0
 11
205.0293879999999
 21
-221.99998500000001
 31
0.0
  0
LINE
  5
214
  8
0
 62
     2
 10
205.150711
 20
-219.99998500000001
 30
0.0
 11
207.150711
 21
-221.99998500000001
 31
0.0
  0
LINE
  5
215
  8
0
 62
     2
 10
207.27203399999999
 20
-219.99998500000001
 30
0.0
 11
209.27203399999999
 21
-221.99998500000001
 31
0.0
  0
LINE
  5
216
  8
0
 62
     2
 10
209.3933559999999
 20
-219.99998500000001
 30
0.0
 11
211.3933559999999
 21
-221.99998500000001
 31
0.0
  0
LINE
  5
217
  8
0
 62
     2
 10
211.51467899999989
 20
-219.99998500000001
 30
0.0
 11
213.51467899999989
 21
-221.99998500000001
 31
0.0
  0
LINE
  5
218
  8
0
 62
     2
 10
213.63600199999999
 20
-219.99998500000001
 30
0.0
 11
215.63600199999999
 21
-221.99998500000001
 31
0.0
  0
LINE
  5
219
  8
0
 62
     2
 10
215.75730899999999
 20
-219.99998500000001
 30
0.0
 11
217.75730899999999
 21
-221.99998500000001
 31
0.0
  0
LINE
  5
21A
  8
0
 62
     2
 10
217.8786319999999
 20
-219.99998500000001
 30
0.0
 11
219.8786319999999
 21
-221.99998500000001
 31
0.0
  0
LINE
  5
21B
  8
0
 62
     2
 10
219.99995399999989
 20
-219.99998500000001
 30
0.0
 11
221.99995399999989
 21
-221.99998500000001
 31
0.0
  0
LINE
  5
21C
  8
0
 62
     2
 10
222.12127699999999
 20
-219.99998500000001
 30
0.0
 11
224.12127699999999
 21
-221.99998500000001
 31
0.0
  0
LINE
  5
21D
  8
0
 62
     2
 10
224.24259900000001
 20
-219.99998500000001
 30
0.0
 11
226.24259900000001
 21
-221.99998500000001
 31
0.0
  0
LINE
  5
21E
  8
0
 62
     2
 10
226.363922
 20
-219.99998500000001
 30
0.0
 11
228.363922
 21
-221.99998500000001
 31
0.0
  0
LINE
  5
21F
  8
0
 62
     2
 10
228.48522899999989
 20
-219.99998500000001
 30
0.0
 11
230.48522899999989
 21
-221.99998500000001
 31
0.0
  0
LINE
  5
220
  8
0
 62
     2
 10
230.60655199999999
 20
-219.99998500000001
 30
0.0
 11
232.60655199999991
 21
-221.99998500000001
 31
0.0
  0
LINE
  5
221
  8
0
 62
     2
 10
232.72787500000001
 20
-219.99998500000001
 30
0.0
 11
234.72787500000001
 21
-221.99998500000001
 31
0.0
  0
LINE
  5
222
  8
0
 62
     2
 10
234.849197
 20
-219.99998500000001
 30
0.0
 11
236.849197
 21
-221.99998500000001
 31
0.0
  0
LINE
  5
223
  8
0
 62
     2
 10
236.97051999999999
 20
-219.99998500000001
 30
0.0
 11
238.97051999999999
 21
-221.99998500000001
 31
0.0
  0
LINE
  5
224
  8
0
 62
     2
 10
239.09184300000001
 20
-219.99998500000001
 30
0.0
 11
241.09184300000001
 21
-221.99998500000001
 31
0.0
  0
LINE
  5
225
  8
0
 62
     2
 10
241.21315000000001
 20
-219.99998500000001
 30
0.0
 11
243.21315000000001
 21
-221.99998500000001
 31
0.0
  0
LINE
  5
226
  8
0
 62
     2
 10
243.33447299999989
 20
-219.99998500000001
 30
0.0
 11
245.33447299999989
 21
-221.99998500000001
 31
0.0
  0
LINE
  5
227
  8
0
 62
     2
 10
245.45579499999999
 20
-219.99998500000001
 30
0.0
 11
247.45579499999999
 21
-221.99998500000001
 31
0.0
  0
LINE
  5
228
  8
0
 62
     2
 10
247.57711800000001
 20
-219.99998500000001
 30
0.0
 11
249.57711800000001
 21
-221.99998500000001
 31
0.0
  0
LINE
  5
229
  8
0
 62
     2
 10
249.698441
 20
-219.99998500000001
 30
0.0
 11
251.698441
 21
-221.99998500000001
 31
0.0
  0
LINE
  5
22A
  8
0
 62
     2
 10
251.81976299999991
 20
-219.99998500000001
 30
0.0
 11
253.81976299999991
 21
-221.99998500000001
 31
0.0
  0
LINE
  5
22B
  8
0
 62
     2
 10
253.9410859999999
 20
-219.99998500000001
 30
0.0
 11
255.9410859999999
 21
-221.99998500000001
 31
0.0
  0
LINE
  5
22C
  8
0
 62
     2
 10
256.062408
 20
-219.99998500000001
 30
0.0
 11
258.062408
 21
-221.99998500000001
 31
0.0
  0
LINE
  5
22D
  8
0
 62
     2
 10
258.183716
 20
-219.99998500000001
 30
0.0
 11
259.98199499999998
 21
-221.79824799999989
 31
0.0
  0
ENDBLK
  5
22E
  8
0
  0
BLOCK
  8
0
  2
BLOCK13
 70
     0
 10
0.0
 20
0.0
 30
0.0
  3
BLOCK13
  1

  0
LINE
  5
230
  8
0
 62
     2
 10
165.98049900000001
 20
-221.1348569999999
 30
0.0
 11
166.84562700000001
 21
-221.99998500000001
 31
0.0
  0
LINE
  5
231
  8
0
 62
     2
 10
166.96694899999989
 20
-219.99998500000001
 30
0.0
 11
168.96694899999989
 21
-221.99998500000001
 31
0.0
  0
LINE
  5
232
  8
0
 62
     2
 10
169.0882719999999
 20
-219.99998500000001
 30
0.0
 11
171.0882719999999
 21
-221.99998500000001
 31
0.0
  0
LINE
  5
233
  8
0
 62
     2
 10
171.20959500000001
 20
-219.99998500000001
 30
0.0
 11
173.20959500000001
 21
-221.99998500000001
 31
0.0
  0
LINE
  5
234
  8
0
 62
     2
 10
173.330917
 20
-219.99998500000001
 30
0.0
 11
175.330917
 21
-221.99998500000001
 31
0.0
  0
LINE
  5
235
  8
0
 62
     2
 10
175.45222499999991
 20
-219.99998500000001
 30
0.0
 11
177.45222499999991
 21
-221.99998500000001
 31
0.0
  0
ENDBLK
  5
236
  8
0
  0
BLOCK
  8
0
  2
BLOCK14
 70
     0
 10
0.0
 20
0.0
 30
0.0
  3
BLOCK14
  1

  0
LINE
  5
238
  8
0
 62
     2
 10
42.480502999999999
 20
-220.6714319999999
 30
0.0
 11
43.809059000000012
 21
-221.99998500000001
 31
0.0
  0
LINE
  5
239
  8
0
 62
     2
 10
43.930377999999997
 20
-219.99998500000001
 30
0.0
 11
45.930377999999997
 21
-221.99998500000001
 31
0.0
  0
LINE
  5
23A
  8
0
 62
     2
 10
46.051701000000001
 20
-219.99998500000001
 30
0.0
 11
48.051696999999997
 21
-221.99998500000001
 31
0.0
  0
LINE
  5
23B
  8
0
 62
     2
 10
48.173018999999996
 20
-219.99998500000001
 30
0.0
 11
50.173018999999996
 21
-221.99998500000001
 31
0.0
  0
LINE
  5
23C
  8
0
 62
     2
 10
50.294338000000003
 20
-219.99998500000001
 30
0.0
 11
52.294338000000003
 21
-221.99998500000001
 31
0.0
  0
LINE
  5
23D
  8
0
 62
     2
 10
52.415661
 20
-219.99998500000001
 30
0.0
 11
53.980503000000013
 21
-221.56483499999999
 31
0.0
  0
ENDBLK
  5
23E
  8
0
  0
BLOCK
  8
0
  2
BLOCK15
 70
     0
 10
0.0
 20
0.0
 30
0.0
  3
BLOCK15
  1

  0
LINE
  5
240
  8
0
 62
     2
 10
-44.903228999999989
 20
-220.2618259999999
 30
0.0
 11
-43.16507
 21
-221.99998500000001
 31
0.0
  0
LINE
  5
241
  8
0
 62
     2
 10
-43.043751
 20
-219.99998500000001
 30
0.0
 11
-41.043751
 21
-221.99998500000001
 31
0.0
  0
LINE
  5
242
  8
0
 62
     2
 10
-40.922427999999996
 20
-219.99998500000001
 30
0.0
 11
-38.922427999999996
 21
-221.99998500000001
 31
0.0
  0
LINE
  5
243
  8
0
 62
     2
 10
-38.801108999999997
 20
-219.99998500000001
 30
0.0
 11
-36.801108999999997
 21
-221.99998500000001
 31
0.0
  0
LINE
  5
244
  8
0
 62
     2
 10
-36.679789999999997
 20
-219.99998500000001
 30
0.0
 11
-34.679789999999997
 21
-221.99998500000001
 31
0.0
  0
LINE
  5
245
  8
0
 62
     2
 10
-34.558467999999991
 20
-219.99998500000001
 30
0.0
 11
-32.558467999999998
 21
-221.99998500000001
 31
0.0
  0
LINE
  5
246
  8
0
 62
     2
 10
-32.437148999999998
 20
-219.99998500000001
 30
0.0
 11
-30.437148999999991
 21
-221.99998500000001
 31
0.0
  0
LINE
  5
247
  8
0
 62
     2
 10
-30.315828
 20
-219.99998500000001
 30
0.0
 11
-28.315828
 21
-221.99998500000001
 31
0.0
  0
LINE
  5
248
  8
0
 62
     2
 10
-28.194507999999999
 20
-219.99998500000001
 30
0.0
 11
-26.194507999999999
 21
-221.99998500000001
 31
0.0
  0
LINE
  5
249
  8
0
 62
     2
 10
-26.073188999999999
 20
-219.99998500000001
 30
0.0
 11
-24.073188999999999
 21
-221.99998500000001
 31
0.0
  0
LINE
  5
24A
  8
0
 62
     2
 10
-23.951868000000001
 20
-219.99998500000001
 30
0.0
 11
-21.951868000000001
 21
-221.99998500000001
 31
0.0
  0
LINE
  5
24B
  8
0
 62
     2
 10
-21.830546999999999
 20
-219.99998500000001
 30
0.0
 11
-19.830546999999999
 21
-221.99998500000001
 31
0.0
  0
LINE
  5
24C
  8
0
 62
     2
 10
-19.709226999999998
 20
-219.99998500000001
 30
0.0
 11
-17.709229000000001
 21
-221.99998500000001
 31
0.0
  0
LINE
  5
24D
  8
0
 62
     2
 10
-17.587907999999992
 20
-219.99998500000001
 30
0.0
 11
-15.58790799999999
 21
-221.99998500000001
 31
0.0
  0
LINE
  5
24E
  8
0
 62
     2
 10
-15.466587000000001
 20
-219.99998500000001
 30
0.0
 11
-13.46658699999999
 21
-221.99998500000001
 31
0.0
  0
LINE
  5
24F
  8
0
 62
     2
 10
-13.345266000000001
 20
-219.99998500000001
 30
0.0
 11
-11.345267
 21
-221.99998500000001
 31
0.0
  0
LINE
  5
250
  8
0
 62
     2
 10
-11.223947000000001
 20
-219.99998500000001
 30
0.0
 11
-9.2239470000000008
 21
-221.99998500000001
 31
0.0
  0
LINE
  5
251
  8
0
 62
     2
 10
-9.102627
 20
-219.99998500000001
 30
0.0
 11
-7.102627
 21
-221.99998500000001
 31
0.0
  0
LINE
  5
252
  8
0
 62
     2
 10
-6.981306
 20
-219.99998500000001
 30
0.0
 11
-4.9813070000000002
 21
-221.99998500000001
 31
0.0
  0
LINE
  5
253
  8
0
 62
     2
 10
-4.8599860000000001
 20
-219.99998500000001
 30
0.0
 11
-2.8599860000000001
 21
-221.99998500000001
 31
0.0
  0
LINE
  5
254
  8
0
 62
     2
 10
-2.7386659999999989
 20
-219.99998500000001
 30
0.0
 11
-0.738666
 21
-221.99998500000001
 31
0.0
  0
LINE
  5
255
  8
0
 62
     2
 10
-0.617346
 20
-219.99998500000001
 30
0.0
 11
1.382654
 21
-221.99998500000001
 31
0.0
  0
LINE
  5
256
  8
0
 62
     2
 10
1.5039750000000001
 20
-219.99998500000001
 30
0.0
 11
3.503973999999999
 21
-221.99998500000001
 31
0.0
  0
LINE
  5
257
  8
0
 62
     2
 10
3.625294999999999
 20
-219.99998500000001
 30
0.0
 11
5.6252949999999986
 21
-221.99998500000001
 31
0.0
  0
LINE
  5
258
  8
0
 62
     2
 10
5.7466150000000003
 20
-219.99998500000001
 30
0.0
 11
7.7466149999999994
 21
-221.99998500000001
 31
0.0
  0
LINE
  5
259
  8
0
 62
     2
 10
7.867935000000001
 20
-219.99998500000001
 30
0.0
 11
9.867935000000001
 21
-221.99998500000001
 31
0.0
  0
LINE
  5
25A
  8
0
 62
     2
 10
9.9892549999999982
 20
-219.99998500000001
 30
0.0
 11
11.989255
 21
-221.99998500000001
 31
0.0
  0
LINE
  5
25B
  8
0
 62
     2
 10
12.110576
 20
-219.99998500000001
 30
0.0
 11
14.110576
 21
-221.99998500000001
 31
0.0
  0
LINE
  5
25C
  8
0
 62
     2
 10
14.231895
 20
-219.99998500000001
 30
0.0
 11
16.231895000000002
 21
-221.99998500000001
 31
0.0
  0
LINE
  5
25D
  8
0
 62
     2
 10
16.353216
 20
-219.99998500000001
 30
0.0
 11
18.353216
 21
-221.99998500000001
 31
0.0
  0
LINE
  5
25E
  8
0
 62
     2
 10
18.474536999999991
 20
-219.99998500000001
 30
0.0
 11
20.474536999999991
 21
-221.99998500000001
 31
0.0
  0
LINE
  5
25F
  8
0
 62
     2
 10
20.595856000000001
 20
-219.99998500000001
 30
0.0
 11
22.595856000000001
 21
-221.99998500000001
 31
0.0
  0
LINE
  5
260
  8
0
 62
     2
 10
22.717175999999998
 20
-219.99998500000001
 30
0.0
 11
24.717175999999998
 21
-221.99998500000001
 31
0.0
  0
LINE
  5
261
  8
0
 62
     2
 10
24.838497
 20
-219.99998500000001
 30
0.0
 11
26.83849699999999
 21
-221.99998500000001
 31
0.0
  0
LINE
  5
262
  8
0
 62
     2
 10
26.959817999999999
 20
-219.99998500000001
 30
0.0
 11
28.959815999999989
 21
-221.99998500000001
 31
0.0
  0
LINE
  5
263
  8
0
 62
     2
 10
29.081136999999991
 20
-219.99998500000001
 30
0.0
 11
31.081136999999998
 21
-221.99998500000001
 31
0.0
  0
LINE
  5
264
  8
0
 62
     2
 10
31.202456999999988
 20
-219.99998500000001
 30
0.0
 11
33.202457000000003
 21
-221.99998500000001
 31
0.0
  0
LINE
  5
265
  8
0
 62
     2
 10
33.323776000000002
 20
-219.99998500000001
 30
0.0
 11
35.323776000000002
 21
-221.99998500000001
 31
0.0
  0
LINE
  5
266
  8
0
 62
     2
 10
35.445098999999992
 20
-219.99998500000001
 30
0.0
 11
35.480502999999999
 21
-220.03538499999999
 31
0.0
  0
ENDBLK
  5
267
  8
0
  0
BLOCK
  8
0
  2
BLOCK16
 70
     0
 10
0.0
 20
0.0
 30
0.0
  3
BLOCK16
  1

  0
LINE
  5
269
  8
0
 62
   212
 10
197.23709099999999
 20
146.30004899999989
 30
0.0
 11
197.23709099999999
 21
116.550049
 31
0.0
  0
LINE
  5
26A
  8
0
 62
   212
 10
197.23709099999999
 20
113.050056
 30
0.0
 11
197.23709099999999
 21
110.7630539999999
 31
0.0
  0
LINE
  5
26B
  8
0
 62
   212
 10
194.43707299999991
 20
147.30004899999989
 30
0.0
 11
196.23709099999991
 21
147.30004899999989
 31
0.0
  0
LINE
  5
26C
  8
0
 62
   212
 10
194.43707299999991
 20
149.800049
 30
0.0
 11
194.43707299999991
 21
147.30004899999989
 31
0.0
  0
LINE
  5
26D
  8
0
 62
   212
 10
190.48709099999991
 20
149.80006399999991
 30
0.0
 11
194.43707299999991
 21
149.80006399999991
 31
0.0
  0
LINE
  5
26E
  8
0
 62
   212
 10
28.237082999999998
 20
147.30004899999989
 30
0.0
 11
29.487099000000001
 21
147.30004899999989
 31
0.0
  0
LINE
  5
26F
  8
0
 62
   212
 10
27.237082999999998
 20
146.30004899999989
 30
0.0
 11
27.237082999999998
 21
116.550049
 31
0.0
  0
LINE
  5
270
  8
0
 62
   212
 10
27.237082999999998
 20
113.050056
 30
0.0
 11
27.237082999999998
 21
81.549980000000005
 31
0.0
  0
LINE
  5
271
  8
0
 62
   212
 10
27.237082999999998
 20
78.049987999999985
 30
0.0
 11
27.237082999999998
 21
48.300049000000001
 31
0.0
  0
LINE
  5
272
  8
0
 62
   212
 10
28.237082999999998
 20
47.300048999999987
 30
0.0
 11
29.487099000000001
 21
47.300048999999987
 31
0.0
  0
LINE
  5
273
  8
0
 62
   212
 10
190.73709099999999
 20
117.3000489999999
 30
0.0
 11
190.73709099999999
 21
112.300056
 31
0.0
  0
LINE
  5
274
  8
0
 62
   251
 10
190.48709099999991
 20
147.30004899999989
 30
0.0
 11
194.43707299999991
 21
147.30004899999989
 31
0.0
  0
ARC
  5
275
  8
0
 62
   212
 10
196.23709099999991
 20
146.30004899999989
 30
0.0
 40
1.0000039999999999
 50
0.00005
 51
90.000483000000017
  0
ARC
  5
276
  8
0
 62
   212
 10
28.237082999999998
 20
146.30004899999989
 30
0.0
 40
1.0
 50
90.000005000000002
 51
180.00000099999991
  0
ARC
  5
277
  8
0
 62
   212
 10
28.237075999999998
 20
48.300041
 30
0.0
 40
0.9999900000000001
 50
179.99975499999999
 51
270.00047799999987
  0
LINE
  5
278
  8
0
  6
DASHDOT
 62
   251
 10
176.237076
 20
132.300049
 30
0.0
 11
193.23707599999989
 21
132.300049
 31
0.0
  0
LINE
  5
279
  8
0
  6
DASHDOT
 62
   251
 10
174.23709099999991
 20
114.800049
 30
0.0
 11
199.600708
 21
114.800049
 31
0.0
  0
LINE
  5
27A
  8
0
  6
DASHDOT
 62
   251
 10
31.237090999999989
 20
132.30003400000001
 30
0.0
 11
48.237087000000002
 21
132.30003400000001
 31
0.0
  0
LINE
  5
27B
  8
0
  6
DASHDOT
 62
   251
 10
24.809913999999999
 20
114.800034
 30
0.0
 11
50.237087000000002
 21
114.800034
 31
0.0
  0
LINE
  5
27C
  8
0
  6
DASHDOT
 62
   251
 10
31.236832
 20
62.299976000000001
 30
0.0
 11
48.237094999999997
 21
62.299976000000001
 31
0.0
  0
LINE
  5
27D
  8
0
  6
DASHDOT
 62
   251
 10
26.837096999999989
 20
62.30003
 30
0.0
 11
35.637084999999999
 21
62.30003
 31
0.0
  0
LINE
  5
27E
  8
0
  6
DASHDOT
 62
   251
 10
26.837081999999999
 20
132.30003400000001
 30
0.0
 11
35.637084999999999
 21
132.30003400000001
 31
0.0
  0
LINE
  5
27F
  8
0
  6
DASHDOT
 62
   251
 10
18.425774000000001
 20
97.300018000000009
 30
0.0
 11
201.68536399999991
 21
97.300018000000009
 31
0.0
  0
LINE
  5
280
  8
0
 62
   212
 10
194.23709099999991
 20
116.550049
 30
0.0
 11
197.23709099999999
 21
116.550049
 31
0.0
  0
LINE
  5
281
  8
0
 62
   212
 10
194.23709099999991
 20
113.050056
 30
0.0
 11
197.23709099999999
 21
113.050056
 31
0.0
  0
LINE
  5
282
  8
0
 62
   212
 10
190.73709099999999
 20
117.3000489999999
 30
0.0
 11
194.23709099999991
 21
117.3000489999999
 31
0.0
  0
LINE
  5
283
  8
0
 62
   212
 10
190.73709099999999
 20
112.300056
 30
0.0
 11
194.23709099999991
 21
112.300056
 31
0.0
  0
LINE
  5
284
  8
0
 62
   212
 10
194.23709099999991
 20
113.050056
 30
0.0
 11
194.23709099999991
 21
112.300056
 31
0.0
  0
LINE
  5
285
  8
0
 62
   212
 10
194.23709099999991
 20
117.3000489999999
 30
0.0
 11
194.23709099999991
 21
116.550049
 31
0.0
  0
LINE
  5
286
  8
0
 62
   212
 10
27.237082999999998
 20
78.049987999999985
 30
0.0
 11
29.487099000000001
 21
78.049987999999985
 31
0.0
  0
LINE
  5
287
  8
0
 62
   212
 10
27.237082999999998
 20
81.549980000000005
 30
0.0
 11
29.487099000000001
 21
81.549980000000005
 31
0.0
  0
LINE
  5
288
  8
0
 62
   212
 10
27.237082999999998
 20
113.050056
 30
0.0
 11
29.487099000000001
 21
113.050056
 31
0.0
  0
LINE
  5
289
  8
0
 62
   212
 10
27.237082999999998
 20
116.550049
 30
0.0
 11
29.487099000000001
 21
116.550049
 31
0.0
  0
LINE
  5
28A
  8
0
  6
DASHDOT
 62
   251
 10
28.237082999999998
 20
79.800033999999997
 30
0.0
 11
49.943740999999989
 21
79.800033999999997
 31
0.0
  0
LINE
  5
28B
  8
0
  6
DASHDOT
 62
   251
 10
109.98709099999989
 20
157.73260500000001
 30
0.0
 11
109.98709099999989
 21
32.54824099999999
 31
0.0
  0
LINE
  5
28C
  8
0
  6
DASHDOT
 62
   251
 10
176.237076
 20
62.300049000000001
 30
0.0
 11
193.23707599999989
 21
62.300049000000001
 31
0.0
  0
LINE
  5
28D
  8
0
  6
DASHDOT
 62
   251
 10
176.237076
 20
97.300049000000001
 30
0.0
 11
193.23707599999989
 21
97.300049000000001
 31
0.0
  0
LINE
  5
28E
  8
0
 62
   212
 10
194.23709099999991
 20
78.049987999999985
 30
0.0
 11
194.23709099999991
 21
77.299987999999999
 31
0.0
  0
LINE
  5
28F
  8
0
 62
   212
 10
194.23709099999991
 20
82.299980000000005
 30
0.0
 11
194.23709099999991
 21
81.549980000000005
 31
0.0
  0
LINE
  5
290
  8
0
 62
   212
 10
190.73709099999999
 20
82.299980000000005
 30
0.0
 11
194.23709099999991
 21
82.299980000000005
 31
0.0
  0
LINE
  5
291
  8
0
 62
   212
 10
190.73709099999999
 20
77.299987999999999
 30
0.0
 11
194.23709099999991
 21
77.299987999999999
 31
0.0
  0
LINE
  5
292
  8
0
 62
   212
 10
194.23709099999991
 20
81.549980000000005
 30
0.0
 11
197.23709099999999
 21
81.549980000000005
 31
0.0
  0
LINE
  5
293
  8
0
 62
   212
 10
194.23709099999991
 20
78.049987999999985
 30
0.0
 11
197.23709099999999
 21
78.049987999999985
 31
0.0
  0
LINE
  5
294
  8
0
  6
DASHDOT
 62
   251
 10
174.23709099999991
 20
79.799987999999999
 30
0.0
 11
199.600708
 21
79.799987999999999
 31
0.0
  0
ARC
  5
295
  8
0
 62
   212
 10
196.23709099999991
 20
48.299991999999989
 30
0.0
 40
1.0000039999999999
 50
269.99951800000002
 51
359.999955
  0
LINE
  5
296
  8
0
 62
   251
 10
190.48709099999991
 20
47.299984000000002
 30
0.0
 11
194.43707299999991
 21
47.299984000000002
 31
0.0
  0
LINE
  5
297
  8
0
 62
   212
 10
190.73709099999999
 20
82.299980000000005
 30
0.0
 11
190.73709099999999
 21
77.299987999999999
 31
0.0
  0
LINE
  5
298
  8
0
 62
   212
 10
190.48709099999991
 20
44.799975999999987
 30
0.0
 11
194.43707299999991
 21
44.799975999999987
 31
0.0
  0
LINE
  5
299
  8
0
 62
   212
 10
194.43707299999991
 20
47.299987999999992
 30
0.0
 11
194.43707299999991
 21
44.799987999999992
 31
0.0
  0
LINE
  5
29A
  8
0
 62
   212
 10
194.43707299999991
 20
47.299987999999992
 30
0.0
 11
196.23709099999991
 21
47.299987999999992
 31
0.0
  0
LINE
  5
29B
  8
0
 62
   212
 10
197.23709099999999
 20
113.050056
 30
0.0
 11
197.23709099999999
 21
81.549980000000005
 31
0.0
  0
LINE
  5
29C
  8
0
 62
   212
 10
197.23709099999999
 20
78.049987999999985
 30
0.0
 11
197.23709099999999
 21
48.299987999999999
 31
0.0
  0
LINE
  5
29D
  8
0
 62
   212
 10
27.237082999999998
 20
78.049987999999985
 30
0.0
 11
27.237082999999998
 21
48.299987999999999
 31
0.0
  0
LINE
  5
29E
  8
0
 62
   212
 10
27.237082999999998
 20
113.050056
 30
0.0
 11
27.237082999999998
 21
81.549980000000005
 31
0.0
  0
LINE
  5
29F
  8
0
 62
   212
 10
28.237082999999998
 20
47.299987999999992
 30
0.0
 11
29.487099000000001
 21
47.299987999999992
 31
0.0
  0
ARC
  5
2A0
  8
0
 62
   212
 10
28.237082999999998
 20
48.299991999999989
 30
0.0
 40
1.0000039999999999
 50
180.000055
 51
270.00047899999993
  0
LINE
  5
2A1
  8
0
  6
DASHDOT
 62
   251
 10
26.837073999999991
 20
62.299983999999988
 30
0.0
 11
35.637076999999998
 21
62.299983999999988
 31
0.0
  0
LINE
  5
2A2
  8
0
  6
DASHDOT
 62
   251
 10
31.237090999999989
 20
62.299987999999999
 30
0.0
 11
48.237094999999997
 21
62.299987999999999
 31
0.0
  0
LINE
  5
2A3
  8
0
  6
DASHDOT
 62
   251
 10
24.873466000000001
 20
79.799987999999999
 30
0.0
 11
50.237076000000002
 21
79.799987999999999
 31
0.0
  0
LINE
  5
2A4
  8
0
 62
   212
 10
27.237082999999998
 20
78.049987999999985
 30
0.0
 11
29.487099000000001
 21
78.049987999999985
 31
0.0
  0
LINE
  5
2A5
  8
0
 62
   212
 10
27.237082999999998
 20
81.549980000000005
 30
0.0
 11
29.487099000000001
 21
81.549980000000005
 31
0.0
  0
LINE
  5
2A6
  8
0
  6
DASHDOT
 62
   251
 10
31.237090999999989
 20
97.300049000000001
 30
0.0
 11
48.237094999999997
 21
97.300049000000001
 31
0.0
  0
LINE
  5
2A7
  8
0
  6
DASHDOT
 62
   251
 10
31.237090999999989
 20
62.300049000000001
 30
0.0
 11
48.237094999999997
 21
62.300049000000001
 31
0.0
  0
LINE
  5
2A8
  8
0
 62
   212
 10
27.237082999999998
 20
113.050056
 30
0.0
 11
29.487099000000001
 21
113.050056
 31
0.0
  0
LINE
  5
2A9
  8
0
 62
   212
 10
27.237082999999998
 20
116.550049
 30
0.0
 11
29.487099000000001
 21
116.550049
 31
0.0
  0
LINE
  5
2AA
  8
0
  6
DASHDOT
 62
   251
 10
24.873466000000001
 20
114.800049
 30
0.0
 11
50.237076000000002
 21
114.800049
 31
0.0
  0
LINE
  5
2AB
  8
0
  6
DASHDOT
 62
   251
 10
31.237090999999989
 20
132.300049
 30
0.0
 11
48.237094999999997
 21
132.300049
 31
0.0
  0
LINE
  5
2AC
  8
0
  6
DASHDOT
 62
   251
 10
26.837073999999991
 20
132.300049
 30
0.0
 11
35.637076999999998
 21
132.300049
 31
0.0
  0
ARC
  5
2AD
  8
0
 62
   212
 10
28.237082999999998
 20
146.30004899999989
 30
0.0
 40
1.0000039999999999
 50
89.999526999999986
 51
179.99994599999991
  0
LINE
  5
2AE
  8
0
 62
   212
 10
28.237082999999998
 20
147.30004899999989
 30
0.0
 11
29.487099000000001
 21
147.30004899999989
 31
0.0
  0
LINE
  5
2AF
  8
0
 62
   212
 10
27.237082999999998
 20
113.050056
 30
0.0
 11
27.237082999999998
 21
110.7630539999999
 31
0.0
  0
LINE
  5
2B0
  8
0
 62
   212
 10
27.237082999999998
 20
146.30004899999989
 30
0.0
 11
27.237082999999998
 21
116.550049
 31
0.0
  0
LINE
  5
2B1
  8
0
  6
DASHDOT
 62
   251
 10
174.23709099999991
 20
114.800049
 30
0.0
 11
199.600708
 21
114.800049
 31
0.0
  0
LINE
  5
2B2
  8
0
  6
DASHDOT
 62
   251
 10
174.23709099999991
 20
114.800034
 30
0.0
 11
199.66426100000001
 21
114.800034
 31
0.0
  0
LINE
  5
2B3
  8
0
  6
DASHDOT
 62
   251
 10
174.23709099999991
 20
79.799987999999999
 30
0.0
 11
199.600708
 21
79.799987999999999
 31
0.0
  0
LINE
  5
2B4
  8
0
  6
DASHDOT
 62
   251
 10
174.53042600000001
 20
79.800033999999997
 30
0.0
 11
196.23709099999991
 21
79.800033999999997
 31
0.0
  0
LINE
  5
2B5
  8
0
 62
   212
 10
194.43707299999991
 20
184.800049
 30
0.0
 11
194.43707299999991
 21
182.300049
 31
0.0
  0
LINE
  5
2B6
  8
0
 62
   212
 10
190.48709099999991
 20
184.800049
 30
0.0
 11
194.43707299999991
 21
184.800049
 31
0.0
  0
LINE
  5
2B7
  8
0
 62
   212
 10
194.43707299999991
 20
182.300049
 30
0.0
 11
196.23709099999991
 21
182.300049
 31
0.0
  0
ARC
  5
2B8
  8
0
 62
   212
 10
196.23709099999991
 20
181.300049
 30
0.0
 40
1.0000039999999999
 50
0.00005
 51
90.000483000000017
  0
LINE
  5
2B9
  8
0
 62
   212
 10
197.23709099999999
 20
181.300049
 30
0.0
 11
197.23709099999999
 21
151.55004899999989
 31
0.0
  0
LINE
  5
2BA
  8
0
 62
   212
 10
30.037085999999992
 20
184.800049
 30
0.0
 11
30.037085999999992
 21
182.300049
 31
0.0
  0
LINE
  5
2BB
  8
0
 62
   212
 10
30.037085999999992
 20
184.800049
 30
0.0
 11
33.987076000000002
 21
184.800049
 31
0.0
  0
LINE
  5
2BC
  8
0
 62
   212
 10
28.237082999999998
 20
182.300049
 30
0.0
 11
30.037085999999992
 21
182.300049
 31
0.0
  0
ARC
  5
2BD
  8
0
 62
   212
 10
28.237082999999998
 20
181.300049
 30
0.0
 40
1.0000039999999999
 50
89.999526999999986
 51
179.99994599999991
  0
LINE
  5
2BE
  8
0
 62
   212
 10
27.237082999999998
 20
181.300049
 30
0.0
 11
27.237082999999998
 21
151.55004899999989
 31
0.0
  0
LINE
  5
2BF
  8
0
 62
   212
 10
33.113281000000001
 20
184.80001799999991
 30
0.0
 11
194.43707299999991
 21
184.80001799999991
 31
0.0
  0
ENDBLK
  5
2C0
  8
0
  0
BLOCK
  8
0
  2
BLOCK17
 70
     0
 10
0.0
 20
0.0
 30
0.0
  3
BLOCK17
  1

  0
LINE
  5
2C2
  8
0
 62
     7
 10
162.48709099999999
 20
149.30001799999991
 30
0.0
 11
162.48709099999999
 21
45.300017999999987
 31
0.0
  0
LINE
  5
2C3
  8
0
 62
     7
 10
57.487091000000007
 20
149.30001799999991
 30
0.0
 11
57.487091000000007
 21
45.300017999999987
 31
0.0
  0
LINE
  5
2C4
  8
0
 62
     7
 10
57.987090999999999
 20
149.80001799999999
 30
0.0
 11
161.98709099999991
 21
149.80001799999999
 31
0.0
  0
LINE
  5
2C5
  8
0
 62
     7
 10
57.987090999999999
 20
44.800018000000001
 30
0.0
 11
161.98709099999991
 21
44.800018000000001
 31
0.0
  0
ARC
  5
2C6
  8
0
 62
     7
 10
161.98709099999991
 20
149.30001799999991
 30
0.0
 40
0.5
 50
0.000003
 51
90.000005000000002
  0
ARC
  5
2C7
  8
0
 62
     7
 10
161.98709099999991
 20
45.300017999999987
 30
0.0
 40
0.5
 50
270.0
 51
0.000003
  0
ARC
  5
2C8
  8
0
 62
     7
 10
57.987090999999999
 20
45.300017999999987
 30
0.0
 40
0.5
 50
180.00000099999991
 51
270.0
  0
ARC
  5
2C9
  8
0
 62
     7
 10
57.987090999999999
 20
149.30001799999991
 30
0.0
 40
0.5
 50
90.000005000000002
 51
180.00000099999991
  0
LINE
  5
2CA
  8
0
 62
     7
 10
161.73709099999991
 20
149.05001799999991
 30
0.0
 11
161.73709099999991
 21
45.550018000000001
 31
0.0
  0
LINE
  5
2CB
  8
0
 62
     7
 10
58.237091000000007
 20
149.05001799999991
 30
0.0
 11
58.237091000000007
 21
45.550018000000001
 31
0.0
  0
LINE
  5
2CC
  8
0
 62
     7
 10
58.237091000000007
 20
149.05001799999991
 30
0.0
 11
161.73709099999991
 21
149.05001799999991
 31
0.0
  0
LINE
  5
2CD
  8
0
 62
     7
 10
58.237091000000007
 20
45.550018000000001
 30
0.0
 11
161.73709099999991
 21
45.550018000000001
 31
0.0
  0
LINE
  5
2CE
  8
0
 62
     7
 10
150.48709099999991
 20
149.05001799999991
 30
0.0
 11
150.48709099999991
 21
45.550018000000001
 31
0.0
  0
LINE
  5
2CF
  8
0
 62
     7
 10
160.48709099999991
 20
149.05001799999991
 30
0.0
 11
160.48709099999991
 21
45.550018000000001
 31
0.0
  0
LINE
  5
2D0
  8
0
 62
     7
 10
58.237091000000007
 20
79.300018000000009
 30
0.0
 11
150.48709099999991
 21
79.300018000000009
 31
0.0
  0
LINE
  5
2D1
  8
0
 62
     7
 10
58.237091000000007
 20
49.300018000000001
 30
0.0
 11
150.48709099999991
 21
49.300018000000001
 31
0.0
  0
LINE
  5
2D2
  8
0
 62
     7
 10
58.237091000000007
 20
80.300017999999994
 30
0.0
 11
150.48709099999991
 21
80.300017999999994
 31
0.0
  0
LINE
  5
2D3
  8
0
 62
     7
 10
58.237091000000007
 20
48.300018000000001
 30
0.0
 11
150.48709099999991
 21
48.300018000000001
 31
0.0
  0
CIRCLE
  5
2D4
  8
0
 62
     7
 10
131.98709099999991
 20
64.300018000000009
 30
0.0
 40
10.749999999999989
  0
CIRCLE
  5
2D5
  8
0
 62
     7
 10
82.687088000000003
 20
64.300018000000009
 30
0.0
 40
10.749999999999989
  0
LINE
  5
2D6
  8
0
  6
DASHDOT
 62
     7
 10
118.23709099999989
 20
64.300018000000009
 30
0.0
 11
145.73709099999991
 21
64.300018000000009
 31
0.0
  0
LINE
  5
2D7
  8
0
  6
DASHDOT
 62
     7
 10
131.98709099999991
 20
78.050018000000009
 30
0.0
 11
131.98709099999991
 21
50.550018000000001
 31
0.0
  0
LINE
  5
2D8
  8
0
  6
DASHDOT
 62
     7
 10
68.937088000000003
 20
64.300018000000009
 30
0.0
 11
96.437088000000003
 21
64.300018000000009
 31
0.0
  0
LINE
  5
2D9
  8
0
  6
DASHDOT
 62
     7
 10
82.687088000000003
 20
78.050018000000009
 30
0.0
 11
82.687088000000003
 21
50.550018000000001
 31
0.0
  0
LINE
  5
2DA
  8
0
  6
DASHDOT
 62
     7
 10
67.487091000000007
 20
100.22706599999999
 30
0.0
 11
67.487091000000007
 21
94.699607999999998
 31
0.0
  0
LINE
  5
2DB
  8
0
  6
DASHDOT
 62
     7
 10
64.661796999999993
 20
97.300018000000009
 30
0.0
 11
69.93096899999999
 21
97.300018000000009
 31
0.0
  0
ARC
  5
2DC
  8
0
 62
     7
 10
86.987091000000007
 20
117.55001799999999
 30
0.0
 40
5.25
 50
270.0
 51
90.000005000000002
  0
ARC
  5
2DD
  8
0
 62
     7
 10
76.987091000000007
 20
117.55001799999999
 30
0.0
 40
5.25
 50
271.56166000000002
 51
270.0
  0
LINE
  5
2DE
  8
0
 62
     7
 10
76.987091000000007
 20
112.30001799999999
 30
0.0
 11
86.987091000000007
 21
112.30001799999999
 31
0.0
  0
LINE
  5
2DF
  8
0
 62
     7
 10
76.987091000000007
 20
122.80001799999989
 30
0.0
 11
86.987091000000007
 21
122.80001799999989
 31
0.0
  0
LINE
  5
2E0
  8
0
  6
DASHDOT
 62
     7
 10
68.737091000000007
 20
117.55001799999999
 30
0.0
 11
85.237091000000007
 21
117.55001799999999
 31
0.0
  0
LINE
  5
2E1
  8
0
  6
DASHDOT
 62
     7
 10
76.987091000000007
 20
125.80001799999999
 30
0.0
 11
76.987091000000007
 21
109.30001799999989
 31
0.0
  0
LINE
  5
2E2
  8
0
 62
     7
 10
77.987091000000007
 20
122.703903
 30
0.0
 11
77.987091000000007
 21
112.39613299999991
 31
0.0
  0
LINE
  5
2E3
  8
0
 62
     7
 10
75.987091000000007
 20
122.703903
 30
0.0
 11
75.987091000000007
 21
112.39613299999991
 31
0.0
  0
LINE
  5
2E4
  8
0
 62
     7
 10
118.73709100000001
 20
57.050018000000009
 30
0.0
 11
118.73709100000001
 21
54.550018000000009
 31
0.0
  0
LINE
  5
2E5
  8
0
 62
     7
 10
101.23709100000001
 20
57.050018000000009
 30
0.0
 11
101.23709100000001
 21
54.550018000000009
 31
0.0
  0
LINE
  5
2E6
  8
0
 62
     7
 10
101.23709100000001
 20
57.050018000000009
 30
0.0
 11
118.73709100000001
 21
57.050018000000009
 31
0.0
  0
LINE
  5
2E7
  8
0
 62
     7
 10
101.23709100000001
 20
54.550018000000009
 30
0.0
 11
118.73709100000001
 21
54.550018000000009
 31
0.0
  0
LINE
  5
2E8
  8
0
 62
     1
 10
141.98709099999999
 20
129.55001799999991
 30
0.0
 11
148.34710699999999
 21
129.55001799999991
 31
0.0
  0
LINE
  5
2E9
  8
0
 62
     1
 10
141.98709099999999
 20
129.55001799999991
 30
0.0
 11
141.98709099999999
 21
123.05001799999989
 31
0.0
  0
LINE
  5
2EA
  8
0
 62
     1
 10
103.1124189999999
 20
123.05001799999989
 30
0.0
 11
141.98709099999999
 21
123.05001799999989
 31
0.0
  0
ARC
  5
2EB
  8
0
 62
     1
 10
126.98709099999989
 20
117.55001799999999
 30
0.0
 40
23.0
 50
56.000003999999997
 51
166.16476900000001
  0
ARC
  5
2EC
  8
0
 62
     1
 10
126.98709099999989
 20
117.55001799999999
 30
0.0
 40
24.5
 50
29.327175
 51
167.02712199999999
  0
LINE
  5
2ED
  8
0
 62
     1
 10
140.68731699999989
 20
137.861435
 30
0.0
 11
139.84852599999991
 21
136.61788899999999
 31
0.0
  0
LINE
  5
2EE
  8
0
 62
     1
 10
126.98709099999989
 20
136.55001799999991
 30
0.0
 11
134.48709099999999
 21
129.05001799999991
 31
0.0
  0
LINE
  5
2EF
  8
0
 62
     1
 10
126.98709099999989
 20
136.55001799999991
 30
0.0
 11
119.48709099999989
 21
129.05001799999991
 31
0.0
  0
LINE
  5
2F0
  8
0
 62
     1
 10
119.48709099999989
 20
129.05001799999991
 30
0.0
 11
134.48709099999999
 21
129.05001799999991
 31
0.0
  0
ARC
  5
2F1
  8
0
 62
     1
 10
126.98709099999989
 20
117.55001799999999
 30
0.0
 40
22.5
 50
194.149011
 51
345.85099200000002
  0
LINE
  5
2F2
  8
0
 62
     1
 10
105.1696699999999
 20
112.05001799999999
 30
0.0
 11
148.80452
 21
112.05001799999999
 31
0.0
  0
LINE
  5
2F3
  8
0
 62
     1
 10
134.98709099999991
 20
112.05001799999999
 30
0.0
 11
134.98709099999991
 21
96.520279000000002
 31
0.0
  0
LINE
  5
2F4
  8
0
 62
     1
 10
118.98709099999989
 20
112.05001799999999
 30
0.0
 11
118.98709099999989
 21
96.520279000000002
 31
0.0
  0
LINE
  5
2F5
  8
0
 62
     1
 10
105.0496829999999
 20
112.55001799999989
 30
0.0
 11
148.92449999999991
 21
112.55001799999989
 31
0.0
  0
LINE
  5
2F6
  8
0
 62
     1
 10
98.987091000000007
 20
121.55001799999999
 30
0.0
 11
148.2767639999999
 21
121.55001799999999
 31
0.0
  0
ARC
  5
2F7
  8
0
 62
     1
 10
126.98709099999989
 20
117.55001799999999
 30
0.0
 40
22.5
 50
347.160415
 51
357.45268399999992
  0
LINE
  5
2F8
  8
0
 62
     1
 10
104.5093229999999
 20
116.55001799999989
 30
0.0
 11
149.46485899999999
 21
116.55001799999989
 31
0.0
  0
LINE
  5
2F9
  8
0
 62
     1
 10
98.987091000000007
 20
118.55001799999999
 30
0.0
 11
149.46485899999999
 21
118.55001799999999
 31
0.0
  0
ARC
  5
2FA
  8
0
 62
     1
 10
126.98709099999989
 20
117.55001799999999
 30
0.0
 40
22.5
 50
2.5473209999999988
 51
26.387803999999988
  0
ARC
  5
2FB
  8
0
 62
     1
 10
126.98709099999989
 20
117.55001799999999
 30
0.0
 40
22.5
 50
169.75966199999999
 51
177.45269500000001
  0
LINE
  5
2FC
  8
0
 62
     1
 10
145.48709099999991
 20
118.55001799999999
 30
0.0
 11
145.48709099999991
 21
116.55001799999989
 31
0.0
  0
LINE
  5
2FD
  8
0
 62
     1
 10
108.48709100000001
 20
118.55001799999999
 30
0.0
 11
108.48709100000001
 21
116.55001799999989
 31
0.0
  0
LINE
  5
2FE
  8
0
 62
     1
 10
143.98709099999991
 20
127.55001799999989
 30
0.0
 11
147.14273099999991
 21
127.55001799999989
 31
0.0
  0
LINE
  5
2FF
  8
0
 62
     1
 10
142.98709099999991
 20
126.55001799999989
 30
0.0
 11
142.98709099999991
 21
121.55001799999999
 31
0.0
  0
ARC
  5
300
  8
0
 62
     1
 10
143.98709099999991
 20
126.55001799999989
 30
0.0
 40
1.0
 50
90.000005000000002
 51
180.00000099999991
  0
ARC
  5
301
  8
0
 62
     1
 10
148.2767639999999
 20
120.55001799999999
 30
0.0
 40
1.0
 50
8.0209320000000002
 51
90.000005000000002
  0
LINE
  5
302
  8
0
 62
     1
 10
98.987091000000007
 20
121.55001799999999
 30
0.0
 11
98.987091000000007
 21
118.55001799999999
 31
0.0
  0
ARC
  5
303
  8
0
 62
     1
 10
126.98709099999989
 20
117.55001799999999
 30
0.0
 40
22.5
 50
182.54730599999999
 51
192.8395809999999
  0
CIRCLE
  5
304
  8
0
 62
     7
 10
126.98709099999989
 20
144.80001799999999
 30
0.0
 40
2.5
  0
CIRCLE
  5
305
  8
0
 62
     7
 10
126.98709099999989
 20
144.80001799999999
 30
0.0
 40
1.5
  0
LINE
  5
306
  8
0
 62
     7
 10
95.737091000000007
 20
118.55001799999999
 30
0.0
 11
103.73709100000001
 21
118.55001799999999
 31
0.0
  0
LINE
  5
307
  8
0
 62
     7
 10
95.737091000000007
 20
116.55001799999989
 30
0.0
 11
103.73709100000001
 21
116.55001799999989
 31
0.0
  0
LINE
  5
308
  8
0
 62
     7
 10
103.73709100000001
 20
118.55001799999999
 30
0.0
 11
103.73709100000001
 21
116.55001799999989
 31
0.0
  0
LINE
  5
309
  8
0
 62
     7
 10
95.737091000000007
 20
118.55001799999999
 30
0.0
 11
95.737091000000007
 21
116.55001799999989
 31
0.0
  0
ENDBLK
  5
30A
  8
0
  0
BLOCK
  8
0
  2
BLOCK18
 70
     0
 10
0.0
 20
0.0
 30
0.0
  3
BLOCK18
  1

  0
LINE
  5
30C
  8
0
 62
     3
 10
126.80023199999999
 20
38.800018000000001
 30
0.0
 11
189.23709099999991
 21
38.800018000000001
 31
0.0
  0
LINE
  5
30D
  8
0
 62
     3
 10
29.487092999999991
 20
154.55001799999991
 30
0.0
 11
29.487092999999991
 21
40.050018000000001
 31
0.0
  0
LINE
  5
30E
  8
0
 62
     3
 10
30.737092999999991
 20
155.80001799999999
 30
0.0
 11
189.23709099999991
 21
155.80001799999999
 31
0.0
  0
LINE
  5
30F
  8
0
 62
     3
 10
190.48709099999991
 20
154.55001799999991
 30
0.0
 11
190.48709099999991
 21
40.050018000000001
 31
0.0
  0
LINE
  5
310
  8
0
 62
     3
 10
56.987091000000007
 20
44.300018000000001
 30
0.0
 11
77.471992
 21
44.300018000000001
 31
0.0
  0
LINE
  5
311
  8
0
 62
     3
 10
56.987091000000007
 20
150.30001799999991
 30
0.0
 11
56.987091000000007
 21
44.300018000000001
 31
0.0
  0
LINE
  5
312
  8
0
 62
     3
 10
56.987091000000007
 20
150.30001799999991
 30
0.0
 11
162.98709099999991
 21
150.30001799999991
 31
0.0
  0
LINE
  5
313
  8
0
 62
     3
 10
162.98709099999991
 20
150.30001799999991
 30
0.0
 11
162.98709099999991
 21
44.300018000000001
 31
0.0
  0
LINE
  5
314
  8
0
 62
     3
 10
48.487090999999999
 20
43.300018000000001
 30
0.0
 11
49.487090999999999
 21
43.300018000000001
 31
0.0
  0
LINE
  5
315
  8
0
 62
     3
 10
50.487090999999992
 20
150.30001799999991
 30
0.0
 11
50.487090999999992
 21
44.300018000000001
 31
0.0
  0
LINE
  5
316
  8
0
 62
     3
 10
48.487090999999999
 20
151.30001799999991
 30
0.0
 11
49.487090999999999
 21
151.30001799999991
 31
0.0
  0
LINE
  5
317
  8
0
 62
     3
 10
49.487090999999999
 20
150.30001799999991
 30
0.0
 11
49.487090999999999
 21
44.300018000000001
 31
0.0
  0
LINE
  5
318
  8
0
 62
     3
 10
29.487092999999991
 20
151.30001799999991
 30
0.0
 11
48.487090999999999
 21
151.30001799999991
 31
0.0
  0
LINE
  5
319
  8
0
 62
     3
 10
49.487087000000002
 20
151.30001799999991
 30
0.0
 11
190.48709099999991
 21
151.30001799999991
 31
0.0
  0
LINE
  5
31A
  8
0
 62
     3
 10
29.487092999999991
 20
150.30001799999991
 30
0.0
 11
49.487090999999999
 21
150.30001799999991
 31
0.0
  0
LINE
  5
31B
  8
0
 62
     3
 10
162.98709099999991
 20
150.30001799999991
 30
0.0
 11
169.48709099999991
 21
150.30001799999991
 31
0.0
  0
LINE
  5
31C
  8
0
 62
     3
 10
50.487090999999992
 20
150.30001799999991
 30
0.0
 11
56.987091000000007
 21
150.30001799999991
 31
0.0
  0
LINE
  5
31D
  8
0
 62
     3
 10
29.487092999999991
 20
43.300018000000001
 30
0.0
 11
48.487090999999999
 21
43.300018000000001
 31
0.0
  0
LINE
  5
31E
  8
0
 62
     3
 10
49.487090999999999
 20
43.300018000000001
 30
0.0
 11
76.879356000000001
 21
43.300018000000001
 31
0.0
  0
LINE
  5
31F
  8
0
 62
     3
 10
50.487090999999992
 20
44.300018000000001
 30
0.0
 11
56.987091000000007
 21
44.300018000000001
 31
0.0
  0
LINE
  5
320
  8
0
 62
     3
 10
162.98709099999991
 20
44.300018000000001
 30
0.0
 11
169.48709099999991
 21
44.300018000000001
 31
0.0
  0
LINE
  5
321
  8
0
 62
     3
 10
29.487092999999991
 20
44.300018000000001
 30
0.0
 11
49.487090999999999
 21
44.300018000000001
 31
0.0
  0
LINE
  5
322
  8
0
 62
     3
 10
170.48709099999991
 20
151.30001799999991
 30
0.0
 11
170.48709099999991
 21
43.300018000000001
 31
0.0
  0
LINE
  5
323
  8
0
 62
     3
 10
169.48709099999991
 20
150.30001799999991
 30
0.0
 11
169.48709099999991
 21
44.300018000000001
 31
0.0
  0
ARC
  5
324
  8
0
 62
     3
 10
30.737092999999991
 20
154.55001799999991
 30
0.0
 40
1.25
 50
90.000005000000002
 51
180.00000099999991
  0
ARC
  5
325
  8
0
 62
     3
 10
30.737092999999991
 20
40.050018000000001
 30
0.0
 40
1.25
 50
180.00000099999991
 51
270.0
  0
ARC
  5
326
  8
0
 62
     3
 10
189.23709099999991
 20
40.050018000000001
 30
0.0
 40
1.25
 50
270.0
 51
0.000003
  0
ARC
  5
327
  8
0
 62
     3
 10
189.23709099999991
 20
154.55001799999991
 30
0.0
 40
1.25
 50
0.000003
 51
90.000005000000002
  0
LINE
  5
328
  8
0
  6
DASHSPACE
 62
     3
 10
179.73709099999991
 20
151.80001799999999
 30
0.0
 11
179.73709099999991
 21
151.30001799999991
 31
0.0
  0
LINE
  5
329
  8
0
  6
DASHSPACE
 62
     3
 10
181.23709099999999
 20
151.80001799999999
 30
0.0
 11
181.23709099999999
 21
151.30001799999991
 31
0.0
  0
LINE
  5
32A
  8
0
 62
     3
 10
179.73709099999991
 20
43.800018000000001
 30
0.0
 11
179.73709099999991
 21
43.300018000000001
 31
0.0
  0
LINE
  5
32B
  8
0
 62
     3
 10
181.23709099999999
 20
43.800018000000001
 30
0.0
 11
181.23709099999999
 21
43.300018000000001
 31
0.0
  0
ARC
  5
32C
  8
0
  6
DASHSPACE
 62
     3
 10
180.48709099999991
 20
151.80001799999999
 30
0.0
 40
0.75
 50
0.000003
 51
180.00000099999991
  0
ARC
  5
32D
  8
0
 62
     3
 10
180.48709099999991
 20
150.80001799999991
 30
0.0
 40
0.75
 50
180.00000099999991
 51
0.000003
  0
LINE
  5
32E
  8
0
 62
     3
 10
181.23709099999999
 20
151.30001799999991
 30
0.0
 11
181.23709099999999
 21
150.80001799999991
 31
0.0
  0
LINE
  5
32F
  8
0
 62
     3
 10
179.73709099999991
 20
151.30001799999991
 30
0.0
 11
179.73709099999991
 21
150.80001799999991
 31
0.0
  0
ARC
  5
330
  8
0
 62
     3
 10
180.48709099999991
 20
43.800018000000001
 30
0.0
 40
0.75
 50
0.000003
 51
180.00000099999991
  0
ARC
  5
331
  8
0
  6
DASHSPACE
 62
     3
 10
180.48709099999991
 20
42.800017999999987
 30
0.0
 40
0.75
 50
180.00000099999991
 51
0.000003
  0
LINE
  5
332
  8
0
  6
DASHSPACE
 62
     3
 10
181.23709099999999
 20
43.300018000000001
 30
0.0
 11
181.23709099999999
 21
42.800017999999987
 31
0.0
  0
LINE
  5
333
  8
0
  6
DASHSPACE
 62
     3
 10
179.73709099999991
 20
43.300018000000001
 30
0.0
 11
179.73709099999991
 21
42.800017999999987
 31
0.0
  0
LINE
  5
334
  8
0
 62
     3
 10
30.737092999999991
 20
38.800018000000001
 30
0.0
 11
76.600470999999985
 21
38.800018000000001
 31
0.0
  0
LINE
  5
335
  8
0
 62
     3
 10
127.81120300000001
 20
43.300018000000001
 30
0.0
 11
190.48709099999991
 21
43.300018000000001
 31
0.0
  0
LINE
  5
336
  8
0
 62
     3
 10
127.07912399999989
 20
44.300018000000001
 30
0.0
 11
162.98709099999991
 21
44.300018000000001
 31
0.0
  0
ENDBLK
  5
337
  8
0
  0
BLOCK
  8
0
  2
BLOCK19
 70
     0
 10
0.0
 20
0.0
 30
0.0
  3
BLOCK19
  1

  0
TEXT
  5
339
  8
0
 62
     7
 10
108.034599
 20
8.5737620000000003
 30
0.0
 40
3.0
  1
X
 50
270.0
 41
0.9777777777777776
 72
     5
 11
108.034599
 21
6.3737620000000001
 31
0.0
  0
ENDBLK
  5
33A
  8
0
  0
BLOCK
  8
0
  2
BLOCK20
 70
     0
 10
0.0
 20
0.0
 30
0.0
  3
BLOCK20
  1

  0
TEXT
  5
33C
  8
0
 62
     7
 10
108.034599
 20
228.31550599999991
 30
0.0
 40
3.0
  1
X
 50
270.0
 41
0.9777764444444551
 72
     5
 11
108.034599
 21
226.11550899999989
 31
0.0
  0
ENDBLK
  5
33D
  8
0
  0
BLOCK
  8
0
  2
BLOCK21
 70
     0
 10
0.0
 20
0.0
 30
0.0
  3
BLOCK21
  1

  0
TEXT
  5
33F
  8
0
 62
     7
 10
-15.201098999999999
 20
97.460273999999998
 30
0.0
 40
3.0
  1
Y
 50
270.0
 41
0.9777764444444427
 72
     5
 11
-15.201098999999999
 21
95.260277000000002
 31
0.0
  0
ENDBLK
  5
340
  8
0
  0
BLOCK
  8
0
  2
BLOCK22
 70
     0
 10
0.0
 20
0.0
 30
0.0
  3
BLOCK22
  1

  0
TEXT
  5
342
  8
0
 62
     7
 10
258.45953399999991
 20
98.426490999999999
 30
0.0
 40
3.0
  1
Y
 50
270.0
 41
0.9777764444444491
 72
     5
 11
258.45953399999991
 21
96.226494000000002
 31
0.0
  0
ENDBLK
  5
343
  8
0
  0
BLOCK
  8
0
  2
BLOCK23
 70
     0
 10
0.0
 20
0.0
 30
0.0
  3
BLOCK23
  1

  0
TEXT
  5
345
  8
0
 62
     7
 10
2.207276999999999
 20
70.482833999999997
 30
0.0
 40
3.5
  1
58
 50
270.0
 41
1.3333321142857131
 72
     5
 11
2.207276999999999
 21
64.649506000000002
 31
0.0
  0
LINE
  5
346
  8
0
 62
     7
 10
86.237076000000016
 20
39.300018000000001
 30
0.0
 11
-1.7927230000000001
 21
39.300018000000001
 31
0.0
  0
POLYLINE
  5
347
  8
0
 62
     7
 66
     1
 10
0.0
 20
0.0
 30
0.0
  0
VERTEX
  5
488
  8
0
 62
     7
 10
-0.310361
 20
41.231873
 30
0.0
  0
VERTEX
  5
489
  8
0
 62
     7
 10
0.207277
 20
39.300018000000001
 30
0.0
  0
VERTEX
  5
48A
  8
0
 62
     7
 10
0.7249150000000001
 20
41.231873
 30
0.0
  0
SEQEND
  5
48B
  8
0
 62
     7
  0
POLYLINE
  5
34C
  8
0
 62
     7
 66
     1
 10
0.0
 20
0.0
 30
0.0
  0
VERTEX
  5
48C
  8
0
 62
     7
 10
0.7249150000000001
 20
95.368171999999987
 30
0.0
  0
VERTEX
  5
48D
  8
0
 62
     7
 10
0.207277
 20
97.300018000000009
 30
0.0
  0
VERTEX
  5
48E
  8
0
 62
     7
 10
-0.310361
 20
95.368171999999987
 30
0.0
  0
SEQEND
  5
48F
  8
0
 62
     7
  0
LINE
  5
351
  8
0
 62
     7
 10
0.207277
 20
39.300018000000001
 30
0.0
 11
0.207277
 21
97.300018000000009
 31
0.0
  0
ENDBLK
  5
352
  8
0
  0
BLOCK
  8
0
  2
BLOCK24
 70
     0
 10
0.0
 20
0.0
 30
0.0
  3
BLOCK24
  1

  0
TEXT
  5
354
  8
0
 62
     7
 10
225.041
 20
101.750023
 30
0.0
 40
3.0
  1
105
 50
270.0
 41
1.4513620656287289
 72
     5
 11
225.041
 21
93.950019999999995
 31
0.0
  0
LINE
  5
355
  8
0
 62
     7
 10
162.98709099999991
 20
44.800018000000001
 30
0.0
 11
226.04099999999991
 21
44.800018000000001
 31
0.0
  0
LINE
  5
356
  8
0
 62
     7
 10
162.98709099999991
 20
149.80001799999999
 30
0.0
 11
226.04099999999991
 21
149.80001799999999
 31
0.0
  0
POLYLINE
  5
357
  8
0
 62
     7
 66
     1
 10
0.0
 20
0.0
 30
0.0
  0
VERTEX
  5
490
  8
0
 62
     7
 10
223.52336099999991
 20
46.731873
 30
0.0
  0
VERTEX
  5
491
  8
0
 62
     7
 10
224.041
 20
44.800018000000001
 30
0.0
  0
VERTEX
  5
492
  8
0
 62
     7
 10
224.55864
 20
46.731873
 30
0.0
  0
SEQEND
  5
493
  8
0
 62
     7
  0
POLYLINE
  5
35C
  8
0
 62
     7
 66
     1
 10
0.0
 20
0.0
 30
0.0
  0
VERTEX
  5
494
  8
0
 62
     7
 10
224.55864
 20
147.86816399999989
 30
0.0
  0
VERTEX
  5
495
  8
0
 62
     7
 10
224.041
 20
149.80001799999999
 30
0.0
  0
VERTEX
  5
496
  8
0
 62
     7
 10
223.52336099999991
 20
147.86816399999989
 30
0.0
  0
SEQEND
  5
497
  8
0
 62
     7
  0
LINE
  5
361
  8
0
 62
     7
 10
224.041
 20
44.800018000000001
 30
0.0
 11
224.041
 21
149.80001799999999
 31
0.0
  0
ENDBLK
  5
362
  8
0
  0
BLOCK
  8
0
  2
BLOCK25
 70
     0
 10
0.0
 20
0.0
 30
0.0
  3
BLOCK25
  1

  0
TEXT
  5
364
  8
0
 62
     7
 10
243.00025899999989
 20
101.750023
 30
0.0
 40
3.0
  1
117
 50
270.0
 41
1.6774199999999999
 72
     5
 11
243.00025899999989
 21
93.950019999999995
 31
0.0
  0
LINE
  5
365
  8
0
 62
     7
 10
190.23709099999991
 20
38.800018000000001
 30
0.0
 11
244.00025899999989
 21
38.800018000000001
 31
0.0
  0
LINE
  5
366
  8
0
 62
     7
 10
190.23709099999991
 20
155.80001799999999
 30
0.0
 11
244.00025899999989
 21
155.80001799999999
 31
0.0
  0
POLYLINE
  5
367
  8
0
 62
     7
 66
     1
 10
0.0
 20
0.0
 30
0.0
  0
VERTEX
  5
498
  8
0
 62
     7
 10
241.48262
 20
40.731872999999993
 30
0.0
  0
VERTEX
  5
499
  8
0
 62
     7
 10
242.00025899999989
 20
38.800018000000001
 30
0.0
  0
VERTEX
  5
49A
  8
0
 62
     7
 10
242.517899
 20
40.731872999999993
 30
0.0
  0
SEQEND
  5
49B
  8
0
 62
     7
  0
POLYLINE
  5
36C
  8
0
 62
     7
 66
     1
 10
0.0
 20
0.0
 30
0.0
  0
VERTEX
  5
49C
  8
0
 62
     7
 10
242.517899
 20
153.86816399999989
 30
0.0
  0
VERTEX
  5
49D
  8
0
 62
     7
 10
242.00025899999989
 20
155.80001799999999
 30
0.0
  0
VERTEX
  5
49E
  8
0
 62
     7
 10
241.48262
 20
153.86816399999989
 30
0.0
  0
SEQEND
  5
49F
  8
0
 62
     7
  0
LINE
  5
371
  8
0
 62
     7
 10
242.00025899999989
 20
38.800018000000001
 30
0.0
 11
242.00025899999989
 21
155.80001799999999
 31
0.0
  0
ENDBLK
  5
372
  8
0
  0
BLOCK
  8
0
  2
BLOCK26
 70
     0
 10
0.0
 20
0.0
 30
0.0
  3
BLOCK26
  1

  0
TEXT
  5
374
  8
0
 62
     7
 10
105.0084919999999
 20
205.12870799999999
 30
0.0
 40
3.0
  1
105
 41
1.4513620656287289
 72
     5
 11
112.80849499999989
 21
205.12870799999999
 31
0.0
  0
LINE
  5
375
  8
0
 62
     7
 10
57.487091000000007
 20
150.30001799999991
 30
0.0
 11
57.487091000000007
 21
206.12870799999999
 31
0.0
  0
LINE
  5
376
  8
0
 62
     7
 10
162.48709099999999
 20
150.30001799999991
 30
0.0
 11
162.48709099999999
 21
206.12870799999999
 31
0.0
  0
POLYLINE
  5
377
  8
0
 62
     7
 66
     1
 10
0.0
 20
0.0
 30
0.0
  0
VERTEX
  5
4A0
  8
0
 62
     7
 10
59.418940999999997
 20
204.64634699999991
 30
0.0
  0
VERTEX
  5
4A1
  8
0
 62
     7
 10
57.487091000000007
 20
204.12870799999999
 30
0.0
  0
VERTEX
  5
4A2
  8
0
 62
     7
 10
59.418940999999997
 20
203.61106899999999
 30
0.0
  0
SEQEND
  5
4A3
  8
0
 62
     7
  0
POLYLINE
  5
37C
  8
0
 62
     7
 66
     1
 10
0.0
 20
0.0
 30
0.0
  0
VERTEX
  5
4A4
  8
0
 62
     7
 10
160.55523700000001
 20
203.61106899999999
 30
0.0
  0
VERTEX
  5
4A5
  8
0
 62
     7
 10
162.48709099999999
 20
204.12870799999999
 30
0.0
  0
VERTEX
  5
4A6
  8
0
 62
     7
 10
160.55523700000001
 20
204.64634699999991
 30
0.0
  0
SEQEND
  5
4A7
  8
0
 62
     7
  0
LINE
  5
381
  8
0
 62
     7
 10
57.487091000000007
 20
204.12870799999999
 30
0.0
 11
162.48709099999999
 21
204.12870799999999
 31
0.0
  0
ENDBLK
  5
382
  8
0
  0
BLOCK
  8
0
  2
BLOCK27
 70
     0
 10
0.0
 20
0.0
 30
0.0
  3
BLOCK27
  1

  0
TEXT
  5
384
  8
0
 62
     7
 10
105.537086
 20
18.269932000000001
 30
0.0
 40
3.0
  1
161
 41
1.6774202150537569
 72
     5
 11
113.3370899999999
 21
18.269932000000001
 31
0.0
  0
LINE
  5
385
  8
0
 62
     7
 10
29.487092999999991
 20
39.050018000000001
 30
0.0
 11
29.487092999999991
 21
15.269932000000001
 31
0.0
  0
LINE
  5
386
  8
0
 62
     7
 10
190.48709099999991
 20
39.050018000000001
 30
0.0
 11
190.48709099999991
 21
15.269932000000001
 31
0.0
  0
POLYLINE
  5
387
  8
0
 62
     7
 66
     1
 10
0.0
 20
0.0
 30
0.0
  0
VERTEX
  5
4A8
  8
0
 62
     7
 10
31.418945000000001
 20
17.787569000000001
 30
0.0
  0
VERTEX
  5
4A9
  8
0
 62
     7
 10
29.487092999999991
 20
17.269932000000001
 30
0.0
  0
VERTEX
  5
4AA
  8
0
 62
     7
 10
31.418945000000001
 20
16.752292999999991
 30
0.0
  0
SEQEND
  5
4AB
  8
0
 62
     7
  0
POLYLINE
  5
38C
  8
0
 62
     7
 66
     1
 10
0.0
 20
0.0
 30
0.0
  0
VERTEX
  5
4AC
  8
0
 62
     7
 10
188.55523700000001
 20
16.752292999999991
 30
0.0
  0
VERTEX
  5
4AD
  8
0
 62
     7
 10
190.48709099999991
 20
17.269932000000001
 30
0.0
  0
VERTEX
  5
4AE
  8
0
 62
     7
 10
188.55523700000001
 20
17.787569000000001
 30
0.0
  0
SEQEND
  5
4AF
  8
0
 62
     7
  0
LINE
  5
391
  8
0
 62
     7
 10
29.487092999999991
 20
17.269932000000001
 30
0.0
 11
190.48709099999991
 21
17.269932000000001
 31
0.0
  0
ENDBLK
  5
392
  8
0
  0
BLOCK
  8
0
  2
BLOCK28
 70
     0
 10
0.0
 20
0.0
 30
0.0
  3
BLOCK28
  1

  0
TEXT
  5
394
  8
0
 62
     7
 10
7.8845789999999987
 20
-197.66625999999999
 30
0.0
 40
3.0
  1
X
 50
90.0
 41
0.9777764444444551
 72
     5
 11
7.8845789999999987
 21
-195.46626299999991
 31
0.0
  0
ENDBLK
  5
395
  8
0
  0
BLOCK
  8
0
  2
BLOCK29
 70
     0
 10
0.0
 20
0.0
 30
0.0
  3
BLOCK29
  1

  0
TEXT
  5
397
  8
0
 62
     7
 10
7.8845789999999987
 20
117.925049
 30
0.0
 40
3.0
  1
X
 50
90.0
 41
0.9777764444444425
 72
     5
 11
7.8845789999999987
 21
120.125046
 31
0.0
  0
ENDBLK
  5
398
  8
0
  0
BLOCK
  8
0
  2
BLOCK30
 70
     0
 10
0.0
 20
0.0
 30
0.0
  3
BLOCK30
  1

  0
TEXT
  5
39A
  8
0
 62
     7
 10
-175.4718629999999
 20
-4.0854489999999988
 30
0.0
 40
3.0
  1
Y
 50
90.0
 41
0.9777777777777775
 72
     5
 11
-175.4718629999999
 21
-1.8854489999999999
 31
0.0
  0
ENDBLK
  5
39B
  8
0
  0
BLOCK
  8
0
  2
BLOCK31
 70
     0
 10
0.0
 20
0.0
 30
0.0
  3
BLOCK31
  1

  0
TEXT
  5
39D
  8
0
 62
     7
 10
136.029617
 20
-4.7670899999999996
 30
0.0
 40
3.0
  1
Y
 50
90.0
 41
0.9777777777777778
 72
     5
 11
136.029617
 21
-2.5670899999999999
 31
0.0
  0
ENDBLK
  5
39E
  8
0
  0
BLOCK
  8
0
  2
BLOCK32
 70
     0
 10
0.0
 20
0.0
 30
0.0
  3
BLOCK32
  1

  0
TEXT
  5
3A0
  8
0
 62
     7
 10
18.75
 20
-126.5937499999999
 30
0.0
 40
3.0
  1
112
 50
179.9999404717627
 41
1.5941402843842269
 72
     5
 11
11.05002
 21
-126.59374199999991
 31
0.0
  0
ENDBLK
  5
3A1
  8
0
  0
BLOCK
  8
0
  2
BLOCK33
 70
     0
 10
0.0
 20
0.0
 30
0.0
  3
BLOCK33
  1

  0
TEXT
  5
3A3
  8
0
 62
     7
 10
18.75
 20
-164.08300800000001
 30
0.0
 40
3.0
  1
142
 50
180.0
 41
1.3437594995413831
 72
     5
 11
11.05002
 21
-164.08300800000001
 31
0.0
  0
ENDBLK
  5
3A4
  8
0
  0
BLOCK
  8
0
  2
BLOCK34
 70
     0
 10
0.0
 20
0.0
 30
0.0
  3
BLOCK34
  1

  0
TEXT
  5
3A6
  8
0
 62
     7
 10
-121.533974
 20
-11.0
 30
0.0
 40
3.0
  1
80
 50
90.0
 41
1.3191663623963901
 72
     5
 11
-121.533974
 21
-6.0500099999999994
 31
0.0
  0
ENDBLK
  5
3A7
  8
0
  0
BLOCK
  8
0
  2
BLOCK35
 70
     0
 10
0.0
 20
0.0
 30
0.0
  3
BLOCK35
  1

  0
TEXT
  5
3A9
  8
0
 62
     7
 10
-154.25186199999999
 20
-16.5
 30
0.0
 40
3.0
  1
112
 50
90.0
 41
1.594140284383367
 72
     5
 11
-154.25186199999999
 21
-8.8000199999999982
 31
0.0
  0
ENDBLK
  5
3AA
  8
0
  0
BLOCK
  8
0
  2
BLOCK36
 70
     0
 10
0.0
 20
0.0
 30
0.0
  3
BLOCK36
  1

  0
TEXT
  5
3AC
  8
0
 62
     7
 10
122.342232
 20
-111.2702639999999
 30
0.0
 40
3.0
  1
 7
 50
127.2089918158961
 41
1.736838417501275
 72
     5
 11
119.348854
 21
-107.32791899999999
 31
0.0
  0
ENDBLK
  5
3AD
  8
0
  0
BLOCK
  8
0
  2
BLOCK37
 70
     0
 10
0.0
 20
0.0
 30
0.0
  3
BLOCK37
  1

  0
TEXT
  5
3AF
  8
0
 62
     7
 10
123.30978399999999
 20
-112.5445559999999
 30
0.0
 40
3.0
  1
%%c
 50
127.2089187033536
 41
0.9777779165820176
 72
     5
 11
121.9793929999999
 21
-110.79239699999989
 31
0.0
  0
ENDBLK
  5
3B0
  8
0
  0
ENDSEC
  0
SECTION
  2
ENTITIES
  0
LINE
  5
25
  8
0
 62
     7
 10
121.22929599999991
 20
529.90682600000002
 30
0.0
 11
121.22929599999991
 21
634.906792
 31
0.0
  0
LINE
  5
26
  8
0
 62
     7
 10
121.22929599999991
 20
529.90682600000002
 30
0.0
 11
119.22929599999991
 21
529.90682600000002
 31
0.0
  0
LINE
  5
27
  8
0
 62
     7
 10
121.22929599999991
 20
634.906792
 30
0.0
 11
119.22929599999991
 21
634.906792
 31
0.0
  0
LINE
  5
28
  8
0
  6
DASHDOT
 62
     7
 10
17.729310999999999
 20
434.47410999999988
 30
0.0
 11
17.729310999999999
 21
724.76897400000007
 31
0.0
  0
LINE
  5
29
  8
0
  6
DASHDOT
 62
     7
 10
14.729310999999999
 20
434.47410999999988
 30
0.0
 11
14.729310999999999
 21
724.76897400000007
 31
0.0
  0
POLYLINE
  5
2A
  8
0
 62
     7
 66
     1
 10
0.0
 20
0.0
 30
0.0
  0
VERTEX
  5
3EC
  8
0
 62
     7
 10
20.859031999999999
 20
724.76897400000007
 30
0.0
  0
VERTEX
  5
3ED
  8
0
 62
     7
 10
13.721240999999999
 20
724.76897400000007
 30
0.0
  0
VERTEX
  5
3EE
  8
0
 62
     7
 10
12.721240999999999
 20
722.76897399999996
 30
0.0
  0
VERTEX
  5
3EF
  8
0
 62
     7
 10
11.721240999999999
 20
726.76897399999996
 30
0.0
  0
VERTEX
  5
3F0
  8
0
 62
     7
 10
10.721240999999999
 20
724.76897400000007
 30
0.0
  0
SEQEND
  5
3F1
  8
0
 62
     7
  0
POLYLINE
  5
31
  8
0
 62
     7
 66
     1
 10
0.0
 20
0.0
 30
0.0
  0
VERTEX
  5
3F2
  8
0
 62
     7
 10
24.479672000000001
 20
434.47410999999988
 30
0.0
  0
VERTEX
  5
3F3
  8
0
 62
     7
 10
8.8937210000000011
 20
434.47410999999988
 30
0.0
  0
VERTEX
  5
3F4
  8
0
 62
     7
 10
7.8937210000000002
 20
432.47410999999988
 30
0.0
  0
VERTEX
  5
3F5
  8
0
 62
     7
 10
6.8937210000000002
 20
436.47410999999988
 30
0.0
  0
VERTEX
  5
3F6
  8
0
 62
     7
 10
5.8937210000000002
 20
434.47410999999988
 30
0.0
  0
SEQEND
  5
3F7
  8
0
 62
     7
  0
LINE
  5
38
  8
0
 62
     1
 10
237.72929600000001
 20
527.40018799999984
 30
0.0
 11
237.72929600000001
 21
529.40018799999984
 31
0.0
  0
LINE
  5
39
  8
0
 62
     1
 10
239.72929600000001
 20
527.40018799999984
 30
0.0
 11
237.72929600000001
 21
527.40018799999984
 31
0.0
  0
LINE
  5
3A
  8
0
 62
     1
 10
237.72929600000001
 20
529.40018799999984
 30
0.0
 11
237.72929600000001
 21
529.90679599999999
 31
0.0
  0
LINE
  5
3B
  8
0
 62
     1
 10
239.72929600000001
 20
637.40018499999985
 30
0.0
 11
237.72929600000001
 21
637.40018499999985
 31
0.0
  0
LINE
  5
3C
  8
0
 62
     1
 10
233.22929600000001
 20
650.977531
 30
0.0
 11
233.22929600000001
 21
655.82283799999993
 31
0.0
  0
LINE
  5
3D
  8
0
 62
     1
 10
233.22929600000001
 20
508.97753899999992
 30
0.0
 11
233.22929600000001
 21
513.82283799999993
 31
0.0
  0
LINE
  5
3E
  8
0
 62
     1
 10
239.72929600000001
 20
500.90018800000001
 30
0.0
 11
239.72929600000001
 21
529.90679599999999
 31
0.0
  0
LINE
  5
3F
  8
0
 62
     1
 10
243.22929600000001
 20
500.90018800000001
 30
0.0
 11
239.72929600000001
 21
500.90018800000001
 31
0.0
  0
LINE
  5
40
  8
0
 62
     1
 10
243.22929600000001
 20
500.90018499999991
 30
0.0
 11
243.22929600000001
 21
663.90018499999985
 31
0.0
  0
LINE
  5
41
  8
0
 62
     1
 10
243.22929600000001
 20
663.90018499999985
 30
0.0
 11
242.22929600000001
 21
663.90018499999985
 31
0.0
  0
LINE
  5
42
  8
0
 62
     1
 10
241.22929600000001
 20
663.90018499999985
 30
0.0
 11
239.72929600000001
 21
663.90018499999985
 31
0.0
  0
LINE
  5
43
  8
0
 62
     1
 10
239.72929600000001
 20
650.40018499999985
 30
0.0
 11
234.22929599999989
 21
650.40018499999985
 31
0.0
  0
LINE
  5
44
  8
0
 62
     1
 10
239.72929600000001
 20
656.40018499999985
 30
0.0
 11
234.22929599999989
 21
656.40018499999985
 31
0.0
  0
LINE
  5
45
  8
0
 62
     1
 10
234.22929599999989
 20
650.40018499999985
 30
0.0
 11
234.22929599999989
 21
650.62854800000002
 31
0.0
  0
LINE
  5
46
  8
0
 62
     1
 10
234.22929599999989
 20
650.40018499999985
 30
0.0
 11
233.22929600000001
 21
650.977531
 31
0.0
  0
LINE
  5
47
  8
0
 62
     1
 10
234.22929599999989
 20
650.40018499999985
 30
0.0
 11
234.22929599999989
 21
651.278862
 31
0.0
  0
LINE
  5
48
  8
0
 62
     1
 10
234.22929599999989
 20
651.278862
 30
0.0
 11
234.22929599999989
 21
652.25214400000004
 31
0.0
  0
LINE
  5
49
  8
0
 62
     1
 10
234.22929599999989
 20
652.25214400000004
 30
0.0
 11
234.22929599999989
 21
653.40018499999996
 31
0.0
  0
LINE
  5
4A
  8
0
 62
     1
 10
234.22929599999989
 20
653.40018499999996
 30
0.0
 11
234.22929599999989
 21
654.54824099999985
 31
0.0
  0
LINE
  5
4B
  8
0
 62
     1
 10
234.22929599999989
 20
654.54824099999985
 30
0.0
 11
234.22929599999989
 21
655.52150700000004
 31
0.0
  0
LINE
  5
4C
  8
0
 62
     1
 10
234.22929599999989
 20
655.52150700000004
 30
0.0
 11
234.22929599999989
 21
656.40018499999985
 31
0.0
  0
LINE
  5
4D
  8
0
 62
     1
 10
234.22929599999989
 20
656.17182200000002
 30
0.0
 11
234.22929599999989
 21
656.40018499999985
 31
0.0
  0
LINE
  5
4E
  8
0
 62
     1
 10
233.22929600000001
 20
655.82283799999993
 30
0.0
 11
234.22929599999989
 21
656.40018499999985
 31
0.0
  0
LINE
  5
4F
  8
0
 62
     1
 10
239.72929600000001
 20
514.40018799999984
 30
0.0
 11
234.22929599999989
 21
514.40018799999984
 31
0.0
  0
LINE
  5
50
  8
0
 62
     1
 10
239.72929600000001
 20
508.40018800000001
 30
0.0
 11
234.22929599999989
 21
508.40018800000001
 31
0.0
  0
LINE
  5
51
  8
0
 62
     1
 10
233.22929600000001
 20
513.82283799999993
 30
0.0
 11
234.22929599999989
 21
514.40018799999984
 31
0.0
  0
LINE
  5
52
  8
0
 62
     1
 10
234.22929599999989
 20
508.40018800000001
 30
0.0
 11
234.22929599999989
 21
514.40018799999984
 31
0.0
  0
LINE
  5
53
  8
0
 62
     1
 10
234.22929599999989
 20
508.40018800000001
 30
0.0
 11
233.22929600000001
 21
508.97753899999992
 31
0.0
  0
LINE
  5
54
  8
0
 62
     1
 10
242.22929600000001
 20
663.90018499999985
 30
0.0
 11
241.22929600000001
 21
663.90018499999985
 31
0.0
  0
LINE
  5
55
  8
0
 62
     7
 10
237.72929600000001
 20
634.906792
 30
0.0
 11
237.72929600000001
 21
650.40018499999985
 31
0.0
  0
LINE
  5
56
  8
0
 62
     7
 10
239.72929600000001
 20
634.906792
 30
0.0
 11
239.72929600000001
 21
732.53122699999994
 31
0.0
  0
LINE
  5
57
  8
0
 62
     7
 10
237.72929600000001
 20
427.40232099999997
 30
0.0
 11
237.72929600000001
 21
508.40018800000001
 31
0.0
  0
LINE
  5
58
  8
0
 62
     7
 10
239.72929600000001
 20
428.27411699999999
 30
0.0
 11
239.72929600000001
 21
500.90018800000001
 31
0.0
  0
POLYLINE
  5
59
  8
0
 62
     7
 66
     1
 10
0.0
 20
0.0
 30
0.0
  0
VERTEX
  5
3F8
  8
0
 62
     7
 10
232.58006499999999
 20
425.15778399999999
 30
0.0
  0
VERTEX
  5
3F9
  8
0
 62
     7
 10
243.0835129999999
 20
429.73620999999991
 30
0.0
  0
VERTEX
  5
3FA
  8
0
 62
     7
 10
243.20103599999999
 20
431.96918899999991
 30
0.0
  0
VERTEX
  5
3FB
  8
0
 62
     7
 10
245.71608199999989
 20
428.70198799999991
 30
0.0
  0
VERTEX
  5
3FC
  8
0
 62
     7
 10
245.83360499999989
 20
430.93496699999992
 30
0.0
  0
SEQEND
  5
3FD
  8
0
 62
     7
  0
POLYLINE
  5
60
  8
0
 62
     7
 66
     1
 10
0.0
 20
0.0
 30
0.0
  0
VERTEX
  5
3FE
  8
0
 62
     7
 10
233.4394859999999
 20
728.49189000000001
 30
0.0
  0
VERTEX
  5
3FF
  8
0
 62
     7
 10
242.374773
 20
734.230141
 30
0.0
  0
VERTEX
  5
400
  8
0
 62
     7
 10
242.135469
 20
736.45337699999993
 30
0.0
  0
VERTEX
  5
401
  8
0
 62
     7
 10
245.1383689999999
 20
733.62802899999986
 30
0.0
  0
VERTEX
  5
402
  8
0
 62
     7
 10
244.89906499999989
 20
735.85126500000001
 30
0.0
  0
SEQEND
  5
403
  8
0
 62
     7
  0
LINE
  5
67
  8
0
 62
     7
 10
239.72929600000001
 20
638.40018499999985
 30
0.0
 11
237.72929600000001
 21
638.40018499999985
 31
0.0
  0
LINE
  5
68
  8
0
 62
     7
 10
239.72929600000001
 20
526.40018799999984
 30
0.0
 11
237.72929600000001
 21
526.40018799999984
 31
0.0
  0
LINE
  5
69
  8
0
 62
     7
 10
239.72929600000001
 20
514.90018799999984
 30
0.0
 11
237.72929600000001
 21
514.90018799999984
 31
0.0
  0
LINE
  5
6A
  8
0
 62
     7
 10
239.72929600000001
 20
507.9001879999999
 30
0.0
 11
237.72929600000001
 21
507.9001879999999
 31
0.0
  0
LINE
  5
6B
  8
0
 62
     7
 10
239.72929600000001
 20
656.90018499999985
 30
0.0
 11
237.72929600000001
 21
656.90018499999985
 31
0.0
  0
LINE
  5
6C
  8
0
 62
     7
 10
239.72929600000001
 20
649.90018499999985
 30
0.0
 11
237.72929600000001
 21
649.90018499999985
 31
0.0
  0
LINE
  5
6D
  8
0
 62
     7
 10
237.72929600000001
 20
656.40018499999985
 30
0.0
 11
237.72929600000001
 21
731.24683400000004
 31
0.0
  0
LINE
  5
6E
  8
0
 62
     7
 10
237.72929600000001
 20
514.40018799999984
 30
0.0
 11
237.72929600000001
 21
527.40018799999984
 31
0.0
  0
LINE
  5
6F
  8
0
  6
DASHDOT
 62
     3
 10
208.33946399999991
 20
582.406792
 30
0.0
 11
198.56334099999989
 21
582.406792
 31
0.0
  0
LINE
  5
70
  8
0
  6
DASHDOT
 62
     3
 10
260.92184600000002
 20
582.406792
 30
0.0
 11
-35.523915999999993
 21
582.406792
 31
0.0
  0
LINE
  5
71
  8
0
 62
     7
 10
243.22929600000001
 20
634.906792
 30
0.0
 11
121.22929599999991
 21
634.906792
 31
0.0
  0
LINE
  5
72
  8
0
 62
     7
 10
243.22929600000001
 20
529.90679599999999
 30
0.0
 11
121.22929599999991
 21
529.90679599999999
 31
0.0
  0
LINE
  5
73
  8
0
 62
     7
 10
243.22929600000001
 20
529.90682600000002
 30
0.0
 11
243.22929600000001
 21
634.906792
 31
0.0
  0
LINE
  5
74
  8
0
 62
     7
 10
245.22929600000001
 20
621.88454399999989
 30
0.0
 11
243.22929600000001
 21
621.88454399999989
 31
0.0
  0
LINE
  5
75
  8
0
 62
     7
 10
245.22929600000001
 20
576.92900799999995
 30
0.0
 11
243.22929600000001
 21
576.92900799999995
 31
0.0
  0
LINE
  5
76
  8
0
 62
     7
 10
245.22929600000001
 20
576.92900799999995
 30
0.0
 11
245.22929600000001
 21
621.88454399999989
 31
0.0
  0
LINE
  5
77
  8
0
 62
     7
 10
243.22931099999991
 20
390.08622000000003
 30
0.0
 11
237.32043599999989
 21
391.12810499999989
 31
0.0
  0
LINE
  5
78
  8
0
 62
     7
 10
243.22931099999991
 20
390.08622000000003
 30
0.0
 11
237.32043599999989
 21
389.04433399999999
 31
0.0
  0
LINE
  5
79
  8
0
 62
     7
 10
17.729310999999999
 20
390.08622000000003
 30
0.0
 11
23.638124000000001
 21
389.04431899999992
 31
0.0
  0
LINE
  5
7A
  8
0
 62
     7
 10
17.729310999999999
 20
390.08622000000003
 30
0.0
 11
23.638124000000001
 21
391.12810499999989
 31
0.0
  0
LINE
  5
7B
  8
0
 62
     7
 10
243.22931099999991
 20
390.08622000000003
 30
0.0
 11
17.729310999999999
 21
390.08620500000001
 31
0.0
  0
LINE
  5
7C
  8
0
 62
     7
 10
243.22931099999991
 20
386.08622000000003
 30
0.0
 11
243.22931099999991
 21
529.90682199999992
 31
0.0
  0
LINE
  5
7D
  8
0
 62
     7
 10
17.729310999999999
 20
386.08622000000003
 30
0.0
 11
17.729310999999999
 21
434.47409800000003
 31
0.0
  0
LINE
  5
7E
  8
0
 62
     7
 10
239.729311
 20
747.46973400000002
 30
0.0
 11
245.638124
 21
746.42786399999989
 31
0.0
  0
LINE
  5
7F
  8
0
 62
     7
 10
239.729311
 20
747.46973400000002
 30
0.0
 11
245.638124
 21
748.51163499999996
 31
0.0
  0
LINE
  5
80
  8
0
 62
     7
 10
237.729311
 20
747.46973400000002
 30
0.0
 11
231.820436
 21
748.51163499999996
 31
0.0
  0
LINE
  5
81
  8
0
 62
     7
 10
237.729311
 20
747.46973400000002
 30
0.0
 11
231.820436
 21
746.42786399999989
 31
0.0
  0
LINE
  5
82
  8
0
 62
     7
 10
17.729310999999999
 20
747.46973400000002
 30
0.0
 11
23.638124000000001
 21
746.42786399999989
 31
0.0
  0
LINE
  5
83
  8
0
 62
     7
 10
17.729310999999999
 20
747.46973400000002
 30
0.0
 11
23.638124000000001
 21
748.51160400000003
 31
0.0
  0
LINE
  5
84
  8
0
 62
     7
 10
251.22931099999991
 20
747.46973400000002
 30
0.0
 11
17.729310999999999
 21
747.46973400000002
 31
0.0
  0
LINE
  5
85
  8
0
 62
     7
 10
239.729311
 20
751.46973400000002
 30
0.0
 11
239.729311
 21
732.53122699999994
 31
0.0
  0
LINE
  5
86
  8
0
 62
     7
 10
237.729311
 20
751.46973400000002
 30
0.0
 11
237.729311
 21
731.24683400000004
 31
0.0
  0
LINE
  5
87
  8
0
 62
     7
 10
17.729310999999999
 20
751.46973400000002
 30
0.0
 11
17.729310999999999
 21
724.76897400000007
 31
0.0
  0
LINE
  5
88
  8
0
  6
DASHDOT
 62
     7
 10
-172.18216699999991
 20
466.46878400000003
 30
0.0
 11
-172.18216699999991
 21
528.96771999999987
 31
0.0
  0
LINE
  5
89
  8
0
  6
DASHDOT
 62
     1
 10
-172.18216699999991
 20
507.49964499999999
 30
0.0
 11
-172.18216699999991
 21
689.51960399999996
 31
0.0
  0
LINE
  5
8A
  8
0
 62
     1
 10
-225.03215800000001
 20
530.40678000000003
 30
0.0
 11
-225.03215800000001
 21
635.40678000000003
 31
0.0
  0
LINE
  5
8B
  8
0
  6
DASHDOT
 62
     3
 10
-172.18216699999991
 20
526.65351500000008
 30
0.0
 11
-172.18216699999991
 21
613.10920299999987
 31
0.0
  0
LINE
  5
8C
  8
0
 62
     1
 10
-182.932175
 20
582.40678000000003
 30
0.0
 11
-223.68216699999991
 21
582.40678000000003
 31
0.0
  0
LINE
  5
8D
  8
0
 62
     1
 10
-120.682182
 20
582.40678000000003
 30
0.0
 11
-161.43216699999991
 21
582.40678000000003
 31
0.0
  0
LINE
  5
8E
  8
0
  6
DASHDOT
 62
     3
 10
-103.4378149999999
 20
582.40679499999987
 30
0.0
 11
-266.17913099999993
 21
582.40679499999987
 31
0.0
  0
LINE
  5
8F
  8
0
 62
     1
 10
-114.18216699999989
 20
559.65678000000003
 30
0.0
 11
-114.18216699999989
 21
591.65678000000003
 31
0.0
  0
LINE
  5
90
  8
0
 62
     1
 10
-114.18216699999989
 20
559.65678000000003
 30
0.0
 11
-119.68216700000001
 21
559.65678000000003
 31
0.0
  0
LINE
  5
91
  8
0
 62
     1
 10
-114.18216699999989
 20
591.65678000000003
 30
0.0
 11
-119.68216700000001
 21
591.65678000000003
 31
0.0
  0
CIRCLE
  5
92
  8
0
 62
     7
 10
-138.47467399999991
 20
652.25506199999995
 30
0.0
 40
0.1
  0
LINE
  5
93
  8
0
  6
DASHDOT
 62
     7
 10
-192.43216699999991
 20
573.90679499999987
 30
0.0
 11
-192.43216699999991
 21
624.90679499999987
 31
0.0
  0
LINE
  5
94
  8
0
  6
DASHDOT
 62
     7
 10
-166.93216699999991
 20
599.40679499999987
 30
0.0
 11
-217.93216699999991
 21
599.40679499999987
 31
0.0
  0
LINE
  5
95
  8
0
 62
     7
 10
460.64813199999998
 20
526.40679499999999
 30
0.0
 11
572.64813200000003
 21
526.40679499999999
 31
0.0
  0
LINE
  5
96
  8
0
 62
     7
 10
460.64813199999998
 20
638.40679499999999
 30
0.0
 11
572.64813200000003
 21
638.40679499999999
 31
0.0
  0
LINE
  5
97
  8
0
 62
     7
 10
460.64813199999998
 20
638.40679499999999
 30
0.0
 11
460.64813199999998
 21
526.40679499999999
 31
0.0
  0
LINE
  5
98
  8
0
 62
     7
 10
572.64813200000003
 20
638.40679499999999
 30
0.0
 11
572.64813200000003
 21
526.40679499999999
 31
0.0
  0
LINE
  5
99
  8
0
  6
DASHDOT
 62
     7
 10
516.64813200000003
 20
698.78264999999988
 30
0.0
 11
516.64813200000003
 21
462.25963200000001
 31
0.0
  0
CIRCLE
  5
9A
  8
0
 62
     7
 10
476.64813199999998
 20
653.40679499999987
 30
0.0
 40
3.5
  0
CIRCLE
  5
9B
  8
0
 62
     7
 10
556.64813200000003
 20
653.40679499999987
 30
0.0
 40
3.5
  0
CIRCLE
  5
9C
  8
0
 62
     7
 10
556.64813200000003
 20
511.40679499999999
 30
0.0
 40
3.5
  0
CIRCLE
  5
9D
  8
0
 62
     7
 10
476.64813199999998
 20
511.40679499999999
 30
0.0
 40
3.5
  0
POLYLINE
  5
9E
  8
0
 62
     3
 66
     1
 10
0.0
 20
0.0
 30
0.0
  0
VERTEX
  5
404
  8
0
 62
     3
 10
444.79014599999988
 20
662.80599600000005
 30
0.0
  0
VERTEX
  5
405
  8
0
 62
     3
 10
460.79014599999988
 20
662.80599600000005
 30
0.0
  0
VERTEX
  5
406
  8
0
 62
     3
 10
461.79014599999988
 20
664.80599600000005
 30
0.0
  0
VERTEX
  5
407
  8
0
 62
     3
 10
462.79014599999999
 20
660.80599600000005
 30
0.0
  0
VERTEX
  5
408
  8
0
 62
     3
 10
463.79014599999999
 20
662.80599600000005
 30
0.0
  0
VERTEX
  5
409
  8
0
 62
     3
 10
479.79014599999999
 20
662.80599600000005
 30
0.0
  0
VERTEX
  5
40A
  8
0
 62
     3
 10
480.79014599999999
 20
664.80599600000005
 30
0.0
  0
VERTEX
  5
40B
  8
0
 62
     3
 10
481.79014599999988
 20
660.80599600000005
 30
0.0
  0
VERTEX
  5
40C
  8
0
 62
     3
 10
482.79014599999988
 20
662.80599600000005
 30
0.0
  0
VERTEX
  5
40D
  8
0
 62
     3
 10
498.79014599999988
 20
662.80599600000005
 30
0.0
  0
VERTEX
  5
40E
  8
0
 62
     3
 10
499.79014599999999
 20
664.80599600000005
 30
0.0
  0
VERTEX
  5
40F
  8
0
 62
     3
 10
500.79014599999999
 20
660.80599600000005
 30
0.0
  0
VERTEX
  5
410
  8
0
 62
     3
 10
501.79014599999999
 20
662.80599600000005
 30
0.0
  0
VERTEX
  5
411
  8
0
 62
     3
 10
517.79014600000005
 20
662.80599600000005
 30
0.0
  0
VERTEX
  5
412
  8
0
 62
     3
 10
518.79014600000005
 20
664.80599600000005
 30
0.0
  0
VERTEX
  5
413
  8
0
 62
     3
 10
519.79014600000005
 20
660.80599600000005
 30
0.0
  0
VERTEX
  5
414
  8
0
 62
     3
 10
520.79014600000005
 20
662.80599600000005
 30
0.0
  0
VERTEX
  5
415
  8
0
 62
     3
 10
536.79014600000005
 20
662.80599600000005
 30
0.0
  0
VERTEX
  5
416
  8
0
 62
     3
 10
537.79014600000005
 20
664.80599600000005
 30
0.0
  0
VERTEX
  5
417
  8
0
 62
     3
 10
538.79014600000005
 20
660.80599600000005
 30
0.0
  0
VERTEX
  5
418
  8
0
 62
     3
 10
539.79014600000005
 20
662.80599600000005
 30
0.0
  0
VERTEX
  5
419
  8
0
 62
     3
 10
555.79014600000005
 20
662.80599600000005
 30
0.0
  0
VERTEX
  5
41A
  8
0
 62
     3
 10
556.79014600000005
 20
664.80599600000005
 30
0.0
  0
VERTEX
  5
41B
  8
0
 62
     3
 10
557.79014600000005
 20
660.80599600000005
 30
0.0
  0
VERTEX
  5
41C
  8
0
 62
     3
 10
558.79014600000005
 20
662.80599600000005
 30
0.0
  0
VERTEX
  5
41D
  8
0
 62
     3
 10
574.79014600000005
 20
662.80599600000005
 30
0.0
  0
VERTEX
  5
41E
  8
0
 62
     3
 10
575.79014600000005
 20
664.80599600000005
 30
0.0
  0
VERTEX
  5
41F
  8
0
 62
     3
 10
576.79014600000005
 20
660.80599600000005
 30
0.0
  0
VERTEX
  5
420
  8
0
 62
     3
 10
577.79014600000005
 20
662.80599600000005
 30
0.0
  0
VERTEX
  5
421
  8
0
 62
     3
 10
588.00362399999995
 20
662.80599600000005
 30
0.0
  0
SEQEND
  5
422
  8
0
 62
     3
  0
POLYLINE
  5
BE
  8
0
 62
     3
 66
     1
 10
0.0
 20
0.0
 30
0.0
  0
VERTEX
  5
423
  8
0
 62
     3
 10
444.79014599999988
 20
497.98487499999999
 30
0.0
  0
VERTEX
  5
424
  8
0
 62
     3
 10
460.79014599999988
 20
497.98487499999999
 30
0.0
  0
VERTEX
  5
425
  8
0
 62
     3
 10
461.79014599999988
 20
499.98487499999987
 30
0.0
  0
VERTEX
  5
426
  8
0
 62
     3
 10
462.79014599999999
 20
495.98487499999987
 30
0.0
  0
VERTEX
  5
427
  8
0
 62
     3
 10
463.79014599999999
 20
497.98487499999999
 30
0.0
  0
VERTEX
  5
428
  8
0
 62
     3
 10
479.79014599999999
 20
497.98487499999999
 30
0.0
  0
VERTEX
  5
429
  8
0
 62
     3
 10
480.79014599999999
 20
499.98487499999987
 30
0.0
  0
VERTEX
  5
42A
  8
0
 62
     3
 10
481.79014599999988
 20
495.98487499999987
 30
0.0
  0
VERTEX
  5
42B
  8
0
 62
     3
 10
482.79014599999988
 20
497.98487499999999
 30
0.0
  0
VERTEX
  5
42C
  8
0
 62
     3
 10
498.79014599999988
 20
497.98487499999999
 30
0.0
  0
VERTEX
  5
42D
  8
0
 62
     3
 10
499.79014599999999
 20
499.98487499999987
 30
0.0
  0
VERTEX
  5
42E
  8
0
 62
     3
 10
500.79014599999999
 20
495.98487499999987
 30
0.0
  0
VERTEX
  5
42F
  8
0
 62
     3
 10
501.79014599999999
 20
497.98487499999999
 30
0.0
  0
VERTEX
  5
430
  8
0
 62
     3
 10
517.79014600000005
 20
497.98487499999999
 30
0.0
  0
VERTEX
  5
431
  8
0
 62
     3
 10
518.79014600000005
 20
499.98487499999987
 30
0.0
  0
VERTEX
  5
432
  8
0
 62
     3
 10
519.79014600000005
 20
495.98487499999987
 30
0.0
  0
VERTEX
  5
433
  8
0
 62
     3
 10
520.79014600000005
 20
497.98487499999999
 30
0.0
  0
VERTEX
  5
434
  8
0
 62
     3
 10
536.79014600000005
 20
497.98487499999999
 30
0.0
  0
VERTEX
  5
435
  8
0
 62
     3
 10
537.79014600000005
 20
499.98487499999987
 30
0.0
  0
VERTEX
  5
436
  8
0
 62
     3
 10
538.79014600000005
 20
495.98487499999987
 30
0.0
  0
VERTEX
  5
437
  8
0
 62
     3
 10
539.79014600000005
 20
497.98487499999999
 30
0.0
  0
VERTEX
  5
438
  8
0
 62
     3
 10
555.79014600000005
 20
497.98487499999999
 30
0.0
  0
VERTEX
  5
439
  8
0
 62
     3
 10
556.79014600000005
 20
499.98487499999987
 30
0.0
  0
VERTEX
  5
43A
  8
0
 62
     3
 10
557.79014600000005
 20
495.98487499999987
 30
0.0
  0
VERTEX
  5
43B
  8
0
 62
     3
 10
558.79014600000005
 20
497.98487499999999
 30
0.0
  0
VERTEX
  5
43C
  8
0
 62
     3
 10
574.79014600000005
 20
497.98487499999999
 30
0.0
  0
VERTEX
  5
43D
  8
0
 62
     3
 10
575.79014600000005
 20
499.98487499999987
 30
0.0
  0
VERTEX
  5
43E
  8
0
 62
     3
 10
576.79014600000005
 20
495.98487499999987
 30
0.0
  0
VERTEX
  5
43F
  8
0
 62
     3
 10
577.79014600000005
 20
497.98487499999999
 30
0.0
  0
VERTEX
  5
440
  8
0
 62
     3
 10
588.00362399999995
 20
497.98487499999999
 30
0.0
  0
SEQEND
  5
441
  8
0
 62
     3
  0
POLYLINE
  5
DE
  8
0
 62
     3
 66
     1
 10
0.0
 20
0.0
 30
0.0
  0
VERTEX
  5
442
  8
0
 62
     3
 10
588.00362399999995
 20
662.80599600000005
 30
0.0
  0
VERTEX
  5
443
  8
0
 62
     3
 10
588.00362399999995
 20
646.80599600000005
 30
0.0
  0
VERTEX
  5
444
  8
0
 62
     3
 10
590.00362399999995
 20
645.80599600000005
 30
0.0
  0
VERTEX
  5
445
  8
0
 62
     3
 10
586.00362399999995
 20
644.80599600000005
 30
0.0
  0
VERTEX
  5
446
  8
0
 62
     3
 10
588.00362399999995
 20
643.80599600000005
 30
0.0
  0
VERTEX
  5
447
  8
0
 62
     3
 10
588.00362399999995
 20
627.80599600000005
 30
0.0
  0
VERTEX
  5
448
  8
0
 62
     3
 10
590.00362399999995
 20
626.80599600000005
 30
0.0
  0
VERTEX
  5
449
  8
0
 62
     3
 10
586.00362399999995
 20
625.80599600000005
 30
0.0
  0
VERTEX
  5
44A
  8
0
 62
     3
 10
588.00362399999995
 20
624.80599600000005
 30
0.0
  0
VERTEX
  5
44B
  8
0
 62
     3
 10
588.00362399999995
 20
608.80599600000005
 30
0.0
  0
VERTEX
  5
44C
  8
0
 62
     3
 10
590.00362399999995
 20
607.80599600000005
 30
0.0
  0
VERTEX
  5
44D
  8
0
 62
     3
 10
586.00362399999995
 20
606.80599600000005
 30
0.0
  0
VERTEX
  5
44E
  8
0
 62
     3
 10
588.00362399999995
 20
605.80599600000005
 30
0.0
  0
VERTEX
  5
44F
  8
0
 62
     3
 10
588.00362399999995
 20
589.80599600000005
 30
0.0
  0
VERTEX
  5
450
  8
0
 62
     3
 10
590.00362399999995
 20
588.80599600000005
 30
0.0
  0
VERTEX
  5
451
  8
0
 62
     3
 10
586.00362399999995
 20
587.80599600000005
 30
0.0
  0
VERTEX
  5
452
  8
0
 62
     3
 10
588.00362399999995
 20
586.80599600000005
 30
0.0
  0
VERTEX
  5
453
  8
0
 62
     3
 10
588.00362399999995
 20
570.80599600000005
 30
0.0
  0
VERTEX
  5
454
  8
0
 62
     3
 10
590.00362399999995
 20
569.80599600000005
 30
0.0
  0
VERTEX
  5
455
  8
0
 62
     3
 10
586.00362399999995
 20
568.80599600000005
 30
0.0
  0
VERTEX
  5
456
  8
0
 62
     3
 10
588.00362399999995
 20
567.80599600000005
 30
0.0
  0
VERTEX
  5
457
  8
0
 62
     3
 10
588.00362399999995
 20
551.80599600000005
 30
0.0
  0
VERTEX
  5
458
  8
0
 62
     3
 10
590.00362399999995
 20
550.80599600000005
 30
0.0
  0
VERTEX
  5
459
  8
0
 62
     3
 10
586.00362399999995
 20
549.80599600000005
 30
0.0
  0
VERTEX
  5
45A
  8
0
 62
     3
 10
588.00362399999995
 20
548.80599600000005
 30
0.0
  0
VERTEX
  5
45B
  8
0
 62
     3
 10
588.00362399999995
 20
532.80599600000005
 30
0.0
  0
VERTEX
  5
45C
  8
0
 62
     3
 10
590.00362399999995
 20
531.80599600000005
 30
0.0
  0
VERTEX
  5
45D
  8
0
 62
     3
 10
586.00362399999995
 20
530.80599600000005
 30
0.0
  0
VERTEX
  5
45E
  8
0
 62
     3
 10
588.00362399999995
 20
529.80599600000005
 30
0.0
  0
VERTEX
  5
45F
  8
0
 62
     3
 10
588.00362399999995
 20
513.80599600000005
 30
0.0
  0
VERTEX
  5
460
  8
0
 62
     3
 10
590.00362399999995
 20
512.80599600000005
 30
0.0
  0
VERTEX
  5
461
  8
0
 62
     3
 10
586.00362399999995
 20
511.80599599999999
 30
0.0
  0
VERTEX
  5
462
  8
0
 62
     3
 10
588.00362399999995
 20
510.80599599999999
 30
0.0
  0
VERTEX
  5
463
  8
0
 62
     3
 10
588.00362399999995
 20
497.98487499999999
 30
0.0
  0
SEQEND
  5
464
  8
0
 62
     3
  0
POLYLINE
  5
102
  8
0
 62
     3
 66
     1
 10
0.0
 20
0.0
 30
0.0
  0
VERTEX
  5
465
  8
0
 62
     3
 10
444.79014599999988
 20
662.80599600000005
 30
0.0
  0
VERTEX
  5
466
  8
0
 62
     3
 10
444.79014599999988
 20
646.80599600000005
 30
0.0
  0
VERTEX
  5
467
  8
0
 62
     3
 10
446.79014599999999
 20
645.80599600000005
 30
0.0
  0
VERTEX
  5
468
  8
0
 62
     3
 10
442.79014599999999
 20
644.80599600000005
 30
0.0
  0
VERTEX
  5
469
  8
0
 62
     3
 10
444.79014599999988
 20
643.80599600000005
 30
0.0
  0
VERTEX
  5
46A
  8
0
 62
     3
 10
444.79014599999988
 20
627.80599600000005
 30
0.0
  0
VERTEX
  5
46B
  8
0
 62
     3
 10
446.79014599999999
 20
626.80599600000005
 30
0.0
  0
VERTEX
  5
46C
  8
0
 62
     3
 10
442.79014599999999
 20
625.80599600000005
 30
0.0
  0
VERTEX
  5
46D
  8
0
 62
     3
 10
444.79014599999988
 20
624.80599600000005
 30
0.0
  0
VERTEX
  5
46E
  8
0
 62
     3
 10
444.79014599999988
 20
608.80599600000005
 30
0.0
  0
VERTEX
  5
46F
  8
0
 62
     3
 10
446.79014599999999
 20
607.80599600000005
 30
0.0
  0
VERTEX
  5
470
  8
0
 62
     3
 10
442.79014599999999
 20
606.80599600000005
 30
0.0
  0
VERTEX
  5
471
  8
0
 62
     3
 10
444.79014599999988
 20
605.80599600000005
 30
0.0
  0
VERTEX
  5
472
  8
0
 62
     3
 10
444.79014599999988
 20
589.80599600000005
 30
0.0
  0
VERTEX
  5
473
  8
0
 62
     3
 10
446.79014599999999
 20
588.80599600000005
 30
0.0
  0
VERTEX
  5
474
  8
0
 62
     3
 10
442.79014599999999
 20
587.80599600000005
 30
0.0
  0
VERTEX
  5
475
  8
0
 62
     3
 10
444.79014599999988
 20
586.80599600000005
 30
0.0
  0
VERTEX
  5
476
  8
0
 62
     3
 10
444.79014599999988
 20
570.80599600000005
 30
0.0
  0
VERTEX
  5
477
  8
0
 62
     3
 10
446.79014599999999
 20
569.80599600000005
 30
0.0
  0
VERTEX
  5
478
  8
0
 62
     3
 10
442.79014599999999
 20
568.80599600000005
 30
0.0
  0
VERTEX
  5
479
  8
0
 62
     3
 10
444.79014599999988
 20
567.80599600000005
 30
0.0
  0
VERTEX
  5
47A
  8
0
 62
     3
 10
444.79014599999988
 20
551.80599600000005
 30
0.0
  0
VERTEX
  5
47B
  8
0
 62
     3
 10
446.79014599999999
 20
550.80599600000005
 30
0.0
  0
VERTEX
  5
47C
  8
0
 62
     3
 10
442.79014599999999
 20
549.80599600000005
 30
0.0
  0
VERTEX
  5
47D
  8
0
 62
     3
 10
444.79014599999988
 20
548.80599600000005
 30
0.0
  0
VERTEX
  5
47E
  8
0
 62
     3
 10
444.79014599999988
 20
532.80599600000005
 30
0.0
  0
VERTEX
  5
47F
  8
0
 62
     3
 10
446.79014599999999
 20
531.80599600000005
 30
0.0
  0
VERTEX
  5
480
  8
0
 62
     3
 10
442.79014599999999
 20
530.80599600000005
 30
0.0
  0
VERTEX
  5
481
  8
0
 62
     3
 10
444.79014599999988
 20
529.80599600000005
 30
0.0
  0
VERTEX
  5
482
  8
0
 62
     3
 10
444.79014599999988
 20
513.80599600000005
 30
0.0
  0
VERTEX
  5
483
  8
0
 62
     3
 10
446.79014599999999
 20
512.80599600000005
 30
0.0
  0
VERTEX
  5
484
  8
0
 62
     3
 10
442.79014599999999
 20
511.80599599999999
 30
0.0
  0
VERTEX
  5
485
  8
0
 62
     3
 10
444.79014599999988
 20
510.80599599999999
 30
0.0
  0
VERTEX
  5
486
  8
0
 62
     3
 10
444.79014599999988
 20
497.98487499999999
 30
0.0
  0
SEQEND
  5
487
  8
0
 62
     3
  0
LINE
  5
126
  8
0
  6
DASHDOT
 62
     7
 10
556.64813200000003
 20
659.90679499999999
 30
0.0
 11
556.64813200000003
 21
646.90679499999999
 31
0.0
  0
LINE
  5
127
  8
0
  6
DASHDOT
 62
     7
 10
550.14813200000003
 20
653.40679499999987
 30
0.0
 11
563.14813200000003
 21
653.40679499999987
 31
0.0
  0
LINE
  5
128
  8
0
  6
DASHDOT
 62
     7
 10
476.64813199999998
 20
659.90679499999999
 30
0.0
 11
476.64813199999998
 21
646.90679499999999
 31
0.0
  0
LINE
  5
129
  8
0
  6
DASHDOT
 62
     7
 10
470.14813199999998
 20
653.40679499999987
 30
0.0
 11
483.14813199999998
 21
653.40679499999987
 31
0.0
  0
LINE
  5
12A
  8
0
  6
DASHDOT
 62
     7
 10
476.64813199999998
 20
517.90679499999999
 30
0.0
 11
476.64813199999998
 21
504.90679499999999
 31
0.0
  0
LINE
  5
12B
  8
0
  6
DASHDOT
 62
     7
 10
470.14813199999998
 20
511.40679499999999
 30
0.0
 11
483.14813199999998
 21
511.40679499999999
 31
0.0
  0
LINE
  5
12C
  8
0
  6
DASHDOT
 62
     7
 10
556.64813200000003
 20
517.90679499999999
 30
0.0
 11
556.64813200000003
 21
504.90679499999999
 31
0.0
  0
LINE
  5
12D
  8
0
  6
DASHDOT
 62
     7
 10
550.14813200000003
 20
511.40679499999999
 30
0.0
 11
563.14813200000003
 21
511.40679499999999
 31
0.0
  0
LINE
  5
12E
  8
0
  6
DASHDOT
 62
     7
 10
415.18470000000002
 20
582.40679499999987
 30
0.0
 11
627.16930400000001
 21
582.40679499999987
 31
0.0
  0
LINE
  5
12F
  8
0
 62
     7
 10
394.05438199999992
 20
638.40679499999999
 30
0.0
 11
391.970642
 21
626.58910000000003
 31
0.0
  0
LINE
  5
130
  8
0
 62
     7
 10
394.05438199999992
 20
638.40679499999999
 30
0.0
 11
396.13824499999998
 21
626.58910000000003
 31
0.0
  0
LINE
  5
131
  8
0
 62
     7
 10
394.05438199999992
 20
526.40679499999999
 30
0.0
 11
396.13812300000001
 21
538.22449099999994
 31
0.0
  0
LINE
  5
132
  8
0
 62
     7
 10
394.05438199999992
 20
526.40679499999999
 30
0.0
 11
391.970642
 21
538.22449099999994
 31
0.0
  0
LINE
  5
133
  8
0
 62
     7
 10
394.05438199999992
 20
638.40679499999999
 30
0.0
 11
394.05438199999992
 21
526.40679499999999
 31
0.0
  0
LINE
  5
134
  8
0
 62
     7
 10
386.05438199999992
 20
638.40679499999999
 30
0.0
 11
460.64813199999998
 21
638.40679499999999
 31
0.0
  0
LINE
  5
135
  8
0
 62
     7
 10
386.05438199999992
 20
526.40679499999999
 30
0.0
 11
460.64813199999998
 21
526.40679899999998
 31
0.0
  0
LINE
  5
136
  8
0
 62
     7
 10
356.56512500000002
 20
653.40678800000001
 30
0.0
 11
354.48138399999988
 21
641.58910000000003
 31
0.0
  0
LINE
  5
137
  8
0
 62
     7
 10
356.56512500000002
 20
653.40678800000001
 30
0.0
 11
358.64898699999998
 21
641.58910000000003
 31
0.0
  0
LINE
  5
138
  8
0
 62
     7
 10
356.56512500000002
 20
511.40679499999999
 30
0.0
 11
358.64898699999998
 21
523.22449099999994
 31
0.0
  0
LINE
  5
139
  8
0
 62
     7
 10
356.56512500000002
 20
511.40679499999999
 30
0.0
 11
354.48138399999988
 21
523.22448699999995
 31
0.0
  0
LINE
  5
13A
  8
0
 62
     7
 10
356.56512500000002
 20
653.40678800000001
 30
0.0
 11
356.56512500000002
 21
511.40679499999999
 31
0.0
  0
LINE
  5
13B
  8
0
 62
     7
 10
348.56512500000002
 20
653.40678800000001
 30
0.0
 11
470.14813199999998
 21
653.40680300000008
 31
0.0
  0
LINE
  5
13C
  8
0
 62
     7
 10
348.56512500000002
 20
511.40679499999999
 30
0.0
 11
470.14813199999998
 21
511.40680300000002
 31
0.0
  0
LINE
  5
13D
  8
0
 62
     7
 10
476.64813199999998
 20
702.19075399999986
 30
0.0
 11
488.46588099999991
 21
700.10698300000001
 31
0.0
  0
LINE
  5
13E
  8
0
 62
     7
 10
476.64813199999998
 20
702.19075399999986
 30
0.0
 11
488.46588099999991
 21
704.27454
 31
0.0
  0
LINE
  5
13F
  8
0
 62
     7
 10
556.64813200000003
 20
702.19075399999986
 30
0.0
 11
544.83038299999987
 21
704.27454
 31
0.0
  0
LINE
  5
140
  8
0
 62
     7
 10
556.64813200000003
 20
702.19075399999986
 30
0.0
 11
544.83038299999987
 21
700.10698300000001
 31
0.0
  0
LINE
  5
141
  8
0
 62
     7
 10
476.64813199999998
 20
702.19075399999986
 30
0.0
 11
556.64813200000003
 21
702.19076900000005
 31
0.0
  0
LINE
  5
142
  8
0
 62
     7
 10
476.64813199999998
 20
710.19075399999997
 30
0.0
 11
476.64813199999998
 21
659.90680299999997
 31
0.0
  0
LINE
  5
143
  8
0
 62
     7
 10
556.64813200000003
 20
710.19075399999997
 30
0.0
 11
556.64813200000003
 21
659.90680299999997
 31
0.0
  0
LINE
  5
144
  8
0
 62
     7
 10
460.64813199999998
 20
734.90865699999995
 30
0.0
 11
472.46588100000002
 21
732.82485599999995
 31
0.0
  0
LINE
  5
145
  8
0
 62
     7
 10
460.64813199999998
 20
734.90865699999995
 30
0.0
 11
472.46588100000002
 21
736.99242800000002
 31
0.0
  0
LINE
  5
146
  8
0
 62
     7
 10
572.64813200000003
 20
734.90864199999987
 30
0.0
 11
560.83038299999987
 21
736.99242800000002
 31
0.0
  0
LINE
  5
147
  8
0
 62
     7
 10
572.64813200000003
 20
734.90864199999987
 30
0.0
 11
560.83038299999987
 21
732.82485599999995
 31
0.0
  0
LINE
  5
148
  8
0
 62
     7
 10
460.64813199999998
 20
734.90865699999995
 30
0.0
 11
572.64813200000003
 21
734.90864199999987
 31
0.0
  0
LINE
  5
149
  8
0
 62
     7
 10
460.64813199999998
 20
742.90865699999995
 30
0.0
 11
460.64813199999998
 21
638.40681100000006
 31
0.0
  0
LINE
  5
14A
  8
0
 62
     7
 10
572.64813200000003
 20
742.90864199999987
 30
0.0
 11
572.64813200000003
 21
638.40681100000006
 31
0.0
  0
LINE
  5
14B
  8
0
 62
     7
 10
473.86065699999989
 20
509.29026399999998
 30
0.0
 11
463.18841600000002
 21
503.80341699999991
 31
0.0
  0
LINE
  5
14C
  8
0
 62
     7
 10
473.86065699999989
 20
509.29026399999998
 30
0.0
 11
465.70867900000002
 21
500.48422599999998
 31
0.0
  0
LINE
  5
14D
  8
0
 62
     7
 10
479.435608
 20
513.52332699999988
 30
0.0
 11
490.10784899999999
 21
519.01018099999987
 31
0.0
  0
LINE
  5
14E
  8
0
 62
     7
 10
479.435608
 20
513.52332699999988
 30
0.0
 11
487.58758499999988
 21
522.32936500000005
 31
0.0
  0
LINE
  5
14F
  8
0
 62
     7
 10
479.435608
 20
513.52332699999988
 30
0.0
 11
405.606628
 21
457.46583199999998
 31
0.0
  0
INSERT
  5
3B1
  8
0
  2
BLOCK0
 10
-89.374145999999996
 20
309.66258999999991
 30
0.0
 50
180.0
  0
INSERT
  5
3B2
  8
0
  2
BLOCK1
 10
-89.374145999999996
 20
309.66258999999991
 30
0.0
 50
180.0
  0
INSERT
  5
3B3
  8
0
  2
BLOCK2
 10
-89.374145999999996
 20
309.66258999999991
 30
0.0
 50
180.0
  0
INSERT
  5
3B4
  8
0
  2
BLOCK3
 10
-89.374145999999996
 20
309.66258999999991
 30
0.0
 50
180.0
  0
INSERT
  5
3B5
  8
0
  2
BLOCK4
 10
-89.374145999999996
 20
309.66258999999991
 30
0.0
 50
180.0
  0
INSERT
  5
3B6
  8
0
  2
BLOCK5
 10
-89.374145999999996
 20
309.66258999999991
 30
0.0
 50
180.0
  0
INSERT
  5
3B7
  8
0
  2
BLOCK6
 10
-89.374145999999996
 20
309.66258999999991
 30
0.0
 50
180.0
  0
INSERT
  5
3B8
  8
0
  2
BLOCK7
 10
17.729310999999999
 20
472.4196849999999
 30
0.0
 50
90.0
  0
INSERT
  5
3B9
  8
0
  2
BLOCK8
 10
17.729310999999999
 20
472.4196849999999
 30
0.0
 50
90.0
  0
INSERT
  5
3BA
  8
0
  2
BLOCK9
 10
17.729310999999999
 20
472.4196849999999
 30
0.0
 50
90.0
  0
INSERT
  5
3BB
  8
0
  2
BLOCK10
 10
17.729310999999999
 20
472.4196849999999
 30
0.0
 50
90.0
  0
INSERT
  5
3BC
  8
0
  2
BLOCK11
 10
17.729310999999999
 20
472.4196849999999
 30
0.0
 50
90.0
  0
INSERT
  5
3BD
  8
0
  2
BLOCK12
 10
17.729310999999999
 20
472.4196849999999
 30
0.0
 50
90.0
  0
INSERT
  5
3BE
  8
0
  2
BLOCK13
 10
17.729310999999999
 20
472.4196849999999
 30
0.0
 50
90.0
  0
INSERT
  5
3BF
  8
0
  2
BLOCK14
 10
17.729310999999999
 20
472.4196849999999
 30
0.0
 50
90.0
  0
INSERT
  5
3C0
  8
0
  2
BLOCK15
 10
17.729310999999999
 20
472.4196849999999
 30
0.0
 50
90.0
  0
INSERT
  5
3C1
  8
0
  2
BLOCK16
 10
-74.882148999999998
 20
472.41970399999991
 30
0.0
 50
90.0
  0
INSERT
  5
3C2
  8
0
  2
BLOCK17
 10
-74.882148999999998
 20
472.41970399999991
 30
0.0
 50
90.0
  0
INSERT
  5
3C3
  8
0
  2
BLOCK18
 10
-74.882148999999998
 20
472.41970399999991
 30
0.0
 50
90.0
  0
INSERT
  5
3C4
  8
0
  2
BLOCK19
 10
-74.882148999999998
 20
472.41970399999991
 30
0.0
 50
90.0
  0
INSERT
  5
3C5
  8
0
  2
BLOCK20
 10
-74.882148999999998
 20
472.41970399999991
 30
0.0
 50
90.0
  0
INSERT
  5
3C6
  8
0
  2
BLOCK21
 10
-74.882148999999998
 20
472.41970399999991
 30
0.0
 50
90.0
  0
INSERT
  5
3C7
  8
0
  2
BLOCK22
 10
-74.882148999999998
 20
472.41970399999991
 30
0.0
 50
90.0
  0
INSERT
  5
3C8
  8
0
  2
BLOCK23
 10
-74.882148999999998
 20
472.41970399999991
 30
0.0
 50
90.0
  0
INSERT
  5
3C9
  8
0
  2
BLOCK24
 10
-74.882148999999998
 20
472.41970399999991
 30
0.0
 50
90.0
  0
INSERT
  5
3CA
  8
0
  2
BLOCK25
 10
-74.882148999999998
 20
472.41970399999991
 30
0.0
 50
90.0
  0
INSERT
  5
3CB
  8
0
  2
BLOCK26
 10
-74.882148999999998
 20
472.41970399999991
 30
0.0
 50
90.0
  0
INSERT
  5
3CC
  8
0
  2
BLOCK27
 10
-74.882148999999998
 20
472.41970399999991
 30
0.0
 50
90.0
  0
INSERT
  5
3CD
  8
0
  2
BLOCK28
 10
606.43010642537979
 20
597.47679735349891
 30
0.0
 50
270.0
  0
INSERT
  5
3CE
  8
0
  2
BLOCK29
 10
488.5912659539797
 20
597.47679735349891
 30
0.0
 50
270.0
  0
INSERT
  5
3CF
  8
0
  2
BLOCK30
 10
516.64813200000003
 20
584.65679499999987
 30
0.0
 50
270.0
  0
INSERT
  5
3D0
  8
0
  2
BLOCK31
 10
516.64813200000003
 20
584.65679499999987
 30
0.0
 50
270.0
  0
INSERT
  5
3D1
  8
0
  2
BLOCK32
 10
516.64813200000003
 20
584.65679499999987
 30
0.0
 50
270.0
  0
INSERT
  5
3D2
  8
0
  2
BLOCK33
 10
516.64813200000003
 20
584.65679499999987
 30
0.0
 50
270.0
  0
INSERT
  5
3D3
  8
0
  2
BLOCK34
 10
516.64813200000003
 20
584.65679499999987
 30
0.0
 50
270.0
  0
INSERT
  5
3D4
  8
0
  2
BLOCK35
 10
516.64813200000003
 20
584.65679499999987
 30
0.0
 50
270.0
  0
INSERT
  5
3D5
  8
0
  2
BLOCK36
 10
516.64813200000003
 20
584.65679499999987
 30
0.0
 50
270.0
  0
INSERT
  5
3D6
  8
0
  2
BLOCK37
 10
516.64813200000003
 20
584.65679499999987
 30
0.0
 50
270.0
  0
VIEWPORT
  5
150
 67
     1
  8
0
 62
     0
 10
0.0
 20
0.0
 30
0.0
 40
1000.0
 41
1000.0
 68
     1
 69
     1
1001
ACAD
1000
MVIEW
1002
{
1070
    16
1010
0.0
1020
0.0
1030
0.0
1010
0.0
1020
0.0
1030
1.0
1040
0.0
1040
1000.0
1040
0.0
1040
0.0
1040
50.0
1040
0.0
1040
0.0
1070
     0
1070
   100
1070
     1
1070
     1
1070
     0
1070
     0
1070
     0
1070
     0
1040
0.0
1040
0.0
1040
0.0
1040
1.0
1040
1.0
1040
1.0
1040
1.0
1070
     0
1002
{
1002
}
1002
}
  0
ENDSEC
  0
EOF
