ISO-10303-21;
HEADER;
FILE_DESCRIPTION(('CATIA V5 STEP'),'2;1');

FILE_NAME('X:\\ABBSaceSpa_1429\\Bergamo\\CAD_E14-0073_ViewerEmax2XtFormula\\Lavoro\\Nuovi STEP\\1SDH001252R0069_1PA_001_00_E1.2_IV_W_REAR_SEGREGATION_HR_VR_FcCuAl.stp','2014-03-07T07:20:13+00:00',('none'),('none'),'CATIA Version 5 Release 20 SP 1 (IN-10)','CATIA V5 STEP AP214','none');

FILE_SCHEMA(('AUTOMOTIVE_DESIGN { 1 0 10303 214 1 1 1 1 }'));

ENDSEC;
/* file written by CATIA V5R20 */
DATA;
#5=PRODUCT('1SDH001252R0069_1PA_001_00_E1.2_IV_W_REAR_SEGREGATION_HR_VR_FcCuAl','','',(#2)) ;
#2=PRODUCT_CONTEXT(' ',#1,'mechanical') ;
#1=APPLICATION_CONTEXT('automotive design') ;
#10=PRODUCT_DEFINITION('',' ',#6,#3) ;
#3=PRODUCT_DEFINITION_CONTEXT('part definition',#1,' ') ;
#11=PRODUCT_DEFINITION_SHAPE(' ',' ',#10) ;
#578=MECHANICAL_DESIGN_GEOMETRIC_PRESENTATION_REPRESENTATION(' ',(#30),#17) ;
#20=SHAPE_REPRESENTATION(' ',(#19),#17) ;
#19=AXIS2_PLACEMENT_3D(' ',#18,$,$) ;
#35=AXIS2_PLACEMENT_3D('Plane Axis2P3D',#32,#33,#34) ;
#75=AXIS2_PLACEMENT_3D('Plane Axis2P3D',#72,#73,#74) ;
#106=AXIS2_PLACEMENT_3D('Plane Axis2P3D',#103,#104,#105) ;
#137=AXIS2_PLACEMENT_3D('Plane Axis2P3D',#134,#135,#136) ;
#159=AXIS2_PLACEMENT_3D('Cylinder Axis2P3D',#156,#157,#158) ;
#163=AXIS2_PLACEMENT_3D('Circle Axis2P3D',#161,#162,$) ;
#179=AXIS2_PLACEMENT_3D('Circle Axis2P3D',#177,#178,$) ;
#198=AXIS2_PLACEMENT_3D('Circle Axis2P3D',#196,#197,$) ;
#203=AXIS2_PLACEMENT_3D('Circle Axis2P3D',#201,#202,$) ;
#216=AXIS2_PLACEMENT_3D('Cylinder Axis2P3D',#213,#214,#215) ;
#220=AXIS2_PLACEMENT_3D('Circle Axis2P3D',#218,#219,$) ;
#236=AXIS2_PLACEMENT_3D('Circle Axis2P3D',#234,#235,$) ;
#255=AXIS2_PLACEMENT_3D('Circle Axis2P3D',#253,#254,$) ;
#260=AXIS2_PLACEMENT_3D('Circle Axis2P3D',#258,#259,$) ;
#273=AXIS2_PLACEMENT_3D('Cylinder Axis2P3D',#270,#271,#272) ;
#277=AXIS2_PLACEMENT_3D('Circle Axis2P3D',#275,#276,$) ;
#293=AXIS2_PLACEMENT_3D('Circle Axis2P3D',#291,#292,$) ;
#312=AXIS2_PLACEMENT_3D('Circle Axis2P3D',#310,#311,$) ;
#317=AXIS2_PLACEMENT_3D('Circle Axis2P3D',#315,#316,$) ;
#330=AXIS2_PLACEMENT_3D('Cylinder Axis2P3D',#327,#328,#329) ;
#334=AXIS2_PLACEMENT_3D('Circle Axis2P3D',#332,#333,$) ;
#350=AXIS2_PLACEMENT_3D('Circle Axis2P3D',#348,#349,$) ;
#369=AXIS2_PLACEMENT_3D('Circle Axis2P3D',#367,#368,$) ;
#374=AXIS2_PLACEMENT_3D('Circle Axis2P3D',#372,#373,$) ;
#387=AXIS2_PLACEMENT_3D('Plane Axis2P3D',#384,#385,#386) ;
#427=AXIS2_PLACEMENT_3D('Plane Axis2P3D',#424,#425,#426) ;
#458=AXIS2_PLACEMENT_3D('Plane Axis2P3D',#455,#456,#457) ;
#489=AXIS2_PLACEMENT_3D('Plane Axis2P3D',#486,#487,#488) ;
#511=AXIS2_PLACEMENT_3D('Plane Axis2P3D',#508,#509,#510) ;
#545=AXIS2_PLACEMENT_3D('Plane Axis2P3D',#542,#543,#544) ;
#18=CARTESIAN_POINT(' ',(0.,0.,0.)) ;
#32=CARTESIAN_POINT('Axis2P3D Location',(-209.5,-82.0006972656,309.999697266)) ;
#37=CARTESIAN_POINT('Line Origine',(-209.5,-83.5006972656,309.999697266)) ;
#41=CARTESIAN_POINT('Vertex',(-209.5,-82.0006972656,309.999697266)) ;
#43=CARTESIAN_POINT('Vertex',(-209.5,-85.0006972656,309.999697266)) ;
#46=CARTESIAN_POINT('Line Origine',(-209.5,-82.0006972656,134.999697266)) ;
#50=CARTESIAN_POINT('Vertex',(-209.5,-82.0006972656,-40.0003027344)) ;
#53=CARTESIAN_POINT('Line Origine',(-209.5,-83.5006972656,-40.0003027344)) ;
#57=CARTESIAN_POINT('Vertex',(-209.5,-85.0006972656,-40.0003027344)) ;
#60=CARTESIAN_POINT('Line Origine',(-209.5,-85.0006972656,134.999697266)) ;
#72=CARTESIAN_POINT('Axis2P3D Location',(279.5,-82.0006972656,-40.0003027344)) ;
#77=CARTESIAN_POINT('Line Origine',(35.,-82.0006972656,-40.0003027344)) ;
#81=CARTESIAN_POINT('Vertex',(279.5,-82.0006972656,-40.0003027344)) ;
#84=CARTESIAN_POINT('Line Origine',(279.5,-83.5006972656,-40.0003027344)) ;
#88=CARTESIAN_POINT('Vertex',(279.5,-85.0006972656,-40.0003027344)) ;
#91=CARTESIAN_POINT('Line Origine',(35.,-85.0006972656,-40.0003027344)) ;
#103=CARTESIAN_POINT('Axis2P3D Location',(279.5,-82.0006972656,-40.0003027344)) ;
#108=CARTESIAN_POINT('Line Origine',(279.5,-82.0006972656,134.999697266)) ;
#112=CARTESIAN_POINT('Vertex',(279.5,-82.0006972656,309.999697266)) ;
#115=CARTESIAN_POINT('Line Origine',(279.5,-83.5006972656,309.999697266)) ;
#119=CARTESIAN_POINT('Vertex',(279.5,-85.0006972656,309.999697266)) ;
#122=CARTESIAN_POINT('Line Origine',(279.5,-85.0006972656,134.999697266)) ;
#134=CARTESIAN_POINT('Axis2P3D Location',(-209.5,-82.0006972656,309.999697266)) ;
#139=CARTESIAN_POINT('Line Origine',(35.,-82.0006972656,309.999697266)) ;
#144=CARTESIAN_POINT('Line Origine',(35.,-85.0006972656,309.999697266)) ;
#156=CARTESIAN_POINT('Axis2P3D Location',(-109.5,-83.5006972656,234.499697266)) ;
#161=CARTESIAN_POINT('Axis2P3D Location',(-109.5,-85.0006972656,234.499697266)) ;
#165=CARTESIAN_POINT('Vertex',(-113.,-85.0006972656,234.499697266)) ;
#167=CARTESIAN_POINT('Vertex',(-106.,-85.0006972656,234.499697266)) ;
#170=CARTESIAN_POINT('Line Origine',(-106.,-83.5006972656,234.499697266)) ;
#174=CARTESIAN_POINT('Vertex',(-106.,-82.0006972656,234.499697266)) ;
#177=CARTESIAN_POINT('Axis2P3D Location',(-109.5,-82.0006972656,234.499697266)) ;
#181=CARTESIAN_POINT('Vertex',(-113.,-82.0006972656,234.499697266)) ;
#184=CARTESIAN_POINT('Line Origine',(-113.,-83.5006972656,234.499697266)) ;
#196=CARTESIAN_POINT('Axis2P3D Location',(-109.5,-85.0006972656,234.499697266)) ;
#201=CARTESIAN_POINT('Axis2P3D Location',(-109.5,-82.0006972656,234.499697266)) ;
#213=CARTESIAN_POINT('Axis2P3D Location',(179.5,-83.5006972656,234.499697266)) ;
#218=CARTESIAN_POINT('Axis2P3D Location',(179.5,-85.0006972656,234.499697266)) ;
#222=CARTESIAN_POINT('Vertex',(176.,-85.0006972656,234.499697266)) ;
#224=CARTESIAN_POINT('Vertex',(183.,-85.0006972656,234.499697266)) ;
#227=CARTESIAN_POINT('Line Origine',(183.,-83.5006972656,234.499697266)) ;
#231=CARTESIAN_POINT('Vertex',(183.,-82.0006972656,234.499697266)) ;
#234=CARTESIAN_POINT('Axis2P3D Location',(179.5,-82.0006972656,234.499697266)) ;
#238=CARTESIAN_POINT('Vertex',(176.,-82.0006972656,234.499697266)) ;
#241=CARTESIAN_POINT('Line Origine',(176.,-83.5006972656,234.499697266)) ;
#253=CARTESIAN_POINT('Axis2P3D Location',(179.5,-85.0006972656,234.499697266)) ;
#258=CARTESIAN_POINT('Axis2P3D Location',(179.5,-82.0006972656,234.499697266)) ;
#270=CARTESIAN_POINT('Axis2P3D Location',(-109.5,-83.5006972656,35.4996972656)) ;
#275=CARTESIAN_POINT('Axis2P3D Location',(-109.5,-85.0006972656,35.4996972656)) ;
#279=CARTESIAN_POINT('Vertex',(-113.,-85.0006972656,35.4996972656)) ;
#281=CARTESIAN_POINT('Vertex',(-106.,-85.0006972656,35.4996972656)) ;
#284=CARTESIAN_POINT('Line Origine',(-106.,-83.5006972656,35.4996972656)) ;
#288=CARTESIAN_POINT('Vertex',(-106.,-82.0006972656,35.4996972656)) ;
#291=CARTESIAN_POINT('Axis2P3D Location',(-109.5,-82.0006972656,35.4996972656)) ;
#295=CARTESIAN_POINT('Vertex',(-113.,-82.0006972656,35.4996972656)) ;
#298=CARTESIAN_POINT('Line Origine',(-113.,-83.5006972656,35.4996972656)) ;
#310=CARTESIAN_POINT('Axis2P3D Location',(-109.5,-85.0006972656,35.4996972656)) ;
#315=CARTESIAN_POINT('Axis2P3D Location',(-109.5,-82.0006972656,35.4996972656)) ;
#327=CARTESIAN_POINT('Axis2P3D Location',(179.5,-83.5006972656,35.4996972656)) ;
#332=CARTESIAN_POINT('Axis2P3D Location',(179.5,-85.0006972656,35.4996972656)) ;
#336=CARTESIAN_POINT('Vertex',(176.,-85.0006972656,35.4996972656)) ;
#338=CARTESIAN_POINT('Vertex',(183.,-85.0006972656,35.4996972656)) ;
#341=CARTESIAN_POINT('Line Origine',(183.,-83.5006972656,35.4996972656)) ;
#345=CARTESIAN_POINT('Vertex',(183.,-82.0006972656,35.4996972656)) ;
#348=CARTESIAN_POINT('Axis2P3D Location',(179.5,-82.0006972656,35.4996972656)) ;
#352=CARTESIAN_POINT('Vertex',(176.,-82.0006972656,35.4996972656)) ;
#355=CARTESIAN_POINT('Line Origine',(176.,-83.5006972656,35.4996972656)) ;
#367=CARTESIAN_POINT('Axis2P3D Location',(179.5,-85.0006972656,35.4996972656)) ;
#372=CARTESIAN_POINT('Axis2P3D Location',(179.5,-82.0006972656,35.4996972656)) ;
#384=CARTESIAN_POINT('Axis2P3D Location',(-103.,-82.0006972656,274.999697266)) ;
#389=CARTESIAN_POINT('Line Origine',(35.,-85.0006972656,274.999697266)) ;
#393=CARTESIAN_POINT('Vertex',(173.,-85.0006972656,274.999697266)) ;
#395=CARTESIAN_POINT('Vertex',(-103.,-85.0006972656,274.999697266)) ;
#398=CARTESIAN_POINT('Line Origine',(-103.,-83.5006972656,274.999697266)) ;
#402=CARTESIAN_POINT('Vertex',(-103.,-82.0006972656,274.999697266)) ;
#405=CARTESIAN_POINT('Line Origine',(35.,-82.0006972656,274.999697266)) ;
#409=CARTESIAN_POINT('Vertex',(173.,-82.0006972656,274.999697266)) ;
#412=CARTESIAN_POINT('Line Origine',(173.,-83.5006972656,274.999697266)) ;
#424=CARTESIAN_POINT('Axis2P3D Location',(173.,-82.0006972656,-5.00030273438)) ;
#429=CARTESIAN_POINT('Line Origine',(173.,-85.0006972656,134.999697266)) ;
#433=CARTESIAN_POINT('Vertex',(173.,-85.0006972656,-5.00030273437)) ;
#436=CARTESIAN_POINT('Line Origine',(173.,-82.0006972656,134.999697266)) ;
#440=CARTESIAN_POINT('Vertex',(173.,-82.0006972656,-5.00030273437)) ;
#443=CARTESIAN_POINT('Line Origine',(173.,-83.5006972656,-5.00030273438)) ;
#455=CARTESIAN_POINT('Axis2P3D Location',(173.,-82.0006972656,-5.00030273438)) ;
#460=CARTESIAN_POINT('Line Origine',(35.,-85.0006972656,-5.00030273438)) ;
#464=CARTESIAN_POINT('Vertex',(-103.,-85.0006972656,-5.00030273438)) ;
#467=CARTESIAN_POINT('Line Origine',(35.,-82.0006972656,-5.00030273438)) ;
#471=CARTESIAN_POINT('Vertex',(-103.,-82.0006972656,-5.00030273438)) ;
#474=CARTESIAN_POINT('Line Origine',(-103.,-83.5006972656,-5.00030273438)) ;
#486=CARTESIAN_POINT('Axis2P3D Location',(-103.,-82.0006972656,274.999697266)) ;
#491=CARTESIAN_POINT('Line Origine',(-103.,-85.0006972656,134.999697266)) ;
#496=CARTESIAN_POINT('Line Origine',(-103.,-82.0006972656,134.999697266)) ;
#508=CARTESIAN_POINT('Axis2P3D Location',(70.,-82.0006972656,134.999697266)) ;
#542=CARTESIAN_POINT('Axis2P3D Location',(70.,-85.0006972656,134.999697266)) ;
#33=DIRECTION('Axis2P3D Direction',(-1.,-0.,0.)) ;
#34=DIRECTION('Axis2P3D XDirection',(0.,-6.12323399574E-017,-1.)) ;
#38=DIRECTION('Vector Direction',(0.,-1.,0.)) ;
#47=DIRECTION('Vector Direction',(0.,-8.12048840869E-017,-1.)) ;
#54=DIRECTION('Vector Direction',(0.,-1.,0.)) ;
#61=DIRECTION('Vector Direction',(0.,-8.12048840869E-017,-1.)) ;
#73=DIRECTION('Axis2P3D Direction',(0.,6.12323399574E-017,1.)) ;
#74=DIRECTION('Axis2P3D XDirection',(-1.,0.,0.)) ;
#78=DIRECTION('Vector Direction',(-1.,0.,0.)) ;
#85=DIRECTION('Vector Direction',(0.,-1.,0.)) ;
#92=DIRECTION('Vector Direction',(-1.,0.,0.)) ;
#104=DIRECTION('Axis2P3D Direction',(1.,0.,-0.)) ;
#105=DIRECTION('Axis2P3D XDirection',(0.,6.12323399574E-017,1.)) ;
#109=DIRECTION('Vector Direction',(0.,8.12048840869E-017,1.)) ;
#116=DIRECTION('Vector Direction',(0.,-1.,0.)) ;
#123=DIRECTION('Vector Direction',(0.,8.12048840869E-017,1.)) ;
#135=DIRECTION('Axis2P3D Direction',(0.,-6.12323399574E-017,-1.)) ;
#136=DIRECTION('Axis2P3D XDirection',(1.,0.,0.)) ;
#140=DIRECTION('Vector Direction',(1.,0.,0.)) ;
#145=DIRECTION('Vector Direction',(1.,0.,0.)) ;
#157=DIRECTION('Axis2P3D Direction',(0.,-1.,6.12323399574E-017)) ;
#158=DIRECTION('Axis2P3D XDirection',(1.,0.,0.)) ;
#162=DIRECTION('Axis2P3D Direction',(0.,-1.,6.12323399574E-017)) ;
#171=DIRECTION('Vector Direction',(0.,-1.,0.)) ;
#178=DIRECTION('Axis2P3D Direction',(0.,-1.,6.12323399574E-017)) ;
#185=DIRECTION('Vector Direction',(0.,-1.,0.)) ;
#197=DIRECTION('Axis2P3D Direction',(0.,-1.,6.12323399574E-017)) ;
#202=DIRECTION('Axis2P3D Direction',(0.,-1.,6.12323399574E-017)) ;
#214=DIRECTION('Axis2P3D Direction',(0.,-1.,6.12323399574E-017)) ;
#215=DIRECTION('Axis2P3D XDirection',(1.,0.,0.)) ;
#219=DIRECTION('Axis2P3D Direction',(0.,-1.,6.12323399574E-017)) ;
#228=DIRECTION('Vector Direction',(0.,-1.,0.)) ;
#235=DIRECTION('Axis2P3D Direction',(0.,-1.,6.12323399574E-017)) ;
#242=DIRECTION('Vector Direction',(0.,-1.,0.)) ;
#254=DIRECTION('Axis2P3D Direction',(0.,-1.,6.12323399574E-017)) ;
#259=DIRECTION('Axis2P3D Direction',(0.,-1.,6.12323399574E-017)) ;
#271=DIRECTION('Axis2P3D Direction',(0.,-1.,6.12323399574E-017)) ;
#272=DIRECTION('Axis2P3D XDirection',(1.,0.,0.)) ;
#276=DIRECTION('Axis2P3D Direction',(0.,-1.,6.12323399574E-017)) ;
#285=DIRECTION('Vector Direction',(0.,-1.,0.)) ;
#292=DIRECTION('Axis2P3D Direction',(0.,-1.,6.12323399574E-017)) ;
#299=DIRECTION('Vector Direction',(0.,-1.,0.)) ;
#311=DIRECTION('Axis2P3D Direction',(0.,-1.,6.12323399574E-017)) ;
#316=DIRECTION('Axis2P3D Direction',(0.,-1.,6.12323399574E-017)) ;
#328=DIRECTION('Axis2P3D Direction',(0.,-1.,6.12323399574E-017)) ;
#329=DIRECTION('Axis2P3D XDirection',(1.,0.,0.)) ;
#333=DIRECTION('Axis2P3D Direction',(0.,-1.,6.12323399574E-017)) ;
#342=DIRECTION('Vector Direction',(0.,-1.,0.)) ;
#349=DIRECTION('Axis2P3D Direction',(0.,-1.,6.12323399574E-017)) ;
#356=DIRECTION('Vector Direction',(0.,-1.,0.)) ;
#368=DIRECTION('Axis2P3D Direction',(0.,-1.,6.12323399574E-017)) ;
#373=DIRECTION('Axis2P3D Direction',(0.,-1.,6.12323399574E-017)) ;
#385=DIRECTION('Axis2P3D Direction',(0.,-6.12323399574E-017,-1.)) ;
#386=DIRECTION('Axis2P3D XDirection',(1.,0.,0.)) ;
#390=DIRECTION('Vector Direction',(1.,0.,0.)) ;
#399=DIRECTION('Vector Direction',(0.,-1.,0.)) ;
#406=DIRECTION('Vector Direction',(1.,0.,0.)) ;
#413=DIRECTION('Vector Direction',(0.,-1.,0.)) ;
#425=DIRECTION('Axis2P3D Direction',(1.,0.,-0.)) ;
#426=DIRECTION('Axis2P3D XDirection',(0.,6.12323399574E-017,1.)) ;
#430=DIRECTION('Vector Direction',(0.,5.07530525543E-017,1.)) ;
#437=DIRECTION('Vector Direction',(0.,5.07530525543E-017,1.)) ;
#444=DIRECTION('Vector Direction',(0.,-1.,0.)) ;
#456=DIRECTION('Axis2P3D Direction',(0.,6.12323399574E-017,1.)) ;
#457=DIRECTION('Axis2P3D XDirection',(-1.,0.,0.)) ;
#461=DIRECTION('Vector Direction',(-1.,0.,0.)) ;
#468=DIRECTION('Vector Direction',(-1.,0.,0.)) ;
#475=DIRECTION('Vector Direction',(0.,-1.,0.)) ;
#487=DIRECTION('Axis2P3D Direction',(-1.,-0.,0.)) ;
#488=DIRECTION('Axis2P3D XDirection',(0.,-6.12323399574E-017,-1.)) ;
#492=DIRECTION('Vector Direction',(0.,-5.07530525543E-017,-1.)) ;
#497=DIRECTION('Vector Direction',(0.,-5.07530525543E-017,-1.)) ;
#509=DIRECTION('Axis2P3D Direction',(0.,-1.,6.12323399574E-017)) ;
#510=DIRECTION('Axis2P3D XDirection',(1.,0.,0.)) ;
#543=DIRECTION('Axis2P3D Direction',(0.,-1.,6.12323399574E-017)) ;
#544=DIRECTION('Axis2P3D XDirection',(1.,0.,0.)) ;
#8=PRODUCT_RELATED_PRODUCT_CATEGORY('part',$,(#5)) ;
#7=PRODUCT_CATEGORY('part','specification') ;
#30=STYLED_ITEM(' ',(#29),#22) ;
#29=PRESENTATION_STYLE_ASSIGNMENT((#28)) ;
#28=SURFACE_STYLE_USAGE(.BOTH.,#27) ;
#27=SURFACE_SIDE_STYLE(' ',(#26)) ;
#26=SURFACE_STYLE_FILL_AREA(#25) ;
#25=FILL_AREA_STYLE(' ',(#24)) ;
#24=FILL_AREA_STYLE_COLOUR(' ',#23) ;
#39=VECTOR('Line Direction',#38,1.) ;
#48=VECTOR('Line Direction',#47,1.) ;
#55=VECTOR('Line Direction',#54,1.) ;
#62=VECTOR('Line Direction',#61,1.) ;
#79=VECTOR('Line Direction',#78,1.) ;
#86=VECTOR('Line Direction',#85,1.) ;
#93=VECTOR('Line Direction',#92,1.) ;
#110=VECTOR('Line Direction',#109,1.) ;
#117=VECTOR('Line Direction',#116,1.) ;
#124=VECTOR('Line Direction',#123,1.) ;
#141=VECTOR('Line Direction',#140,1.) ;
#146=VECTOR('Line Direction',#145,1.) ;
#172=VECTOR('Line Direction',#171,1.) ;
#186=VECTOR('Line Direction',#185,1.) ;
#229=VECTOR('Line Direction',#228,1.) ;
#243=VECTOR('Line Direction',#242,1.) ;
#286=VECTOR('Line Direction',#285,1.) ;
#300=VECTOR('Line Direction',#299,1.) ;
#343=VECTOR('Line Direction',#342,1.) ;
#357=VECTOR('Line Direction',#356,1.) ;
#391=VECTOR('Line Direction',#390,1.) ;
#400=VECTOR('Line Direction',#399,1.) ;
#407=VECTOR('Line Direction',#406,1.) ;
#414=VECTOR('Line Direction',#413,1.) ;
#431=VECTOR('Line Direction',#430,1.) ;
#438=VECTOR('Line Direction',#437,1.) ;
#445=VECTOR('Line Direction',#444,1.) ;
#462=VECTOR('Line Direction',#461,1.) ;
#469=VECTOR('Line Direction',#468,1.) ;
#476=VECTOR('Line Direction',#475,1.) ;
#493=VECTOR('Line Direction',#492,1.) ;
#498=VECTOR('Line Direction',#497,1.) ;
#16=UNCERTAINTY_MEASURE_WITH_UNIT(LENGTH_MEASURE(0.005),#12,'distance_accuracy_value','CONFUSED CURVE UNCERTAINTY') ;
#577=SHAPE_REPRESENTATION_RELATIONSHIP(' ',' ',#20,#576) ;
#66=ORIENTED_EDGE('',*,*,#45,.F.) ;
#67=ORIENTED_EDGE('',*,*,#52,.T.) ;
#68=ORIENTED_EDGE('',*,*,#59,.T.) ;
#69=ORIENTED_EDGE('',*,*,#64,.F.) ;
#97=ORIENTED_EDGE('',*,*,#59,.F.) ;
#98=ORIENTED_EDGE('',*,*,#83,.T.) ;
#99=ORIENTED_EDGE('',*,*,#90,.T.) ;
#100=ORIENTED_EDGE('',*,*,#95,.F.) ;
#128=ORIENTED_EDGE('',*,*,#90,.F.) ;
#129=ORIENTED_EDGE('',*,*,#114,.T.) ;
#130=ORIENTED_EDGE('',*,*,#121,.T.) ;
#131=ORIENTED_EDGE('',*,*,#126,.F.) ;
#150=ORIENTED_EDGE('',*,*,#121,.F.) ;
#151=ORIENTED_EDGE('',*,*,#143,.T.) ;
#152=ORIENTED_EDGE('',*,*,#45,.T.) ;
#153=ORIENTED_EDGE('',*,*,#148,.F.) ;
#190=ORIENTED_EDGE('',*,*,#169,.T.) ;
#191=ORIENTED_EDGE('',*,*,#176,.F.) ;
#192=ORIENTED_EDGE('',*,*,#183,.F.) ;
#193=ORIENTED_EDGE('',*,*,#188,.T.) ;
#207=ORIENTED_EDGE('',*,*,#200,.T.) ;
#208=ORIENTED_EDGE('',*,*,#188,.F.) ;
#209=ORIENTED_EDGE('',*,*,#205,.F.) ;
#210=ORIENTED_EDGE('',*,*,#176,.T.) ;
#247=ORIENTED_EDGE('',*,*,#226,.T.) ;
#248=ORIENTED_EDGE('',*,*,#233,.F.) ;
#249=ORIENTED_EDGE('',*,*,#240,.F.) ;
#250=ORIENTED_EDGE('',*,*,#245,.T.) ;
#264=ORIENTED_EDGE('',*,*,#257,.T.) ;
#265=ORIENTED_EDGE('',*,*,#245,.F.) ;
#266=ORIENTED_EDGE('',*,*,#262,.F.) ;
#267=ORIENTED_EDGE('',*,*,#233,.T.) ;
#304=ORIENTED_EDGE('',*,*,#283,.T.) ;
#305=ORIENTED_EDGE('',*,*,#290,.F.) ;
#306=ORIENTED_EDGE('',*,*,#297,.F.) ;
#307=ORIENTED_EDGE('',*,*,#302,.T.) ;
#321=ORIENTED_EDGE('',*,*,#314,.T.) ;
#322=ORIENTED_EDGE('',*,*,#302,.F.) ;
#323=ORIENTED_EDGE('',*,*,#319,.F.) ;
#324=ORIENTED_EDGE('',*,*,#290,.T.) ;
#361=ORIENTED_EDGE('',*,*,#340,.T.) ;
#362=ORIENTED_EDGE('',*,*,#347,.F.) ;
#363=ORIENTED_EDGE('',*,*,#354,.F.) ;
#364=ORIENTED_EDGE('',*,*,#359,.T.) ;
#378=ORIENTED_EDGE('',*,*,#371,.T.) ;
#379=ORIENTED_EDGE('',*,*,#359,.F.) ;
#380=ORIENTED_EDGE('',*,*,#376,.F.) ;
#381=ORIENTED_EDGE('',*,*,#347,.T.) ;
#418=ORIENTED_EDGE('',*,*,#397,.T.) ;
#419=ORIENTED_EDGE('',*,*,#404,.F.) ;
#420=ORIENTED_EDGE('',*,*,#411,.F.) ;
#421=ORIENTED_EDGE('',*,*,#416,.T.) ;
#449=ORIENTED_EDGE('',*,*,#435,.T.) ;
#450=ORIENTED_EDGE('',*,*,#416,.F.) ;
#451=ORIENTED_EDGE('',*,*,#442,.F.) ;
#452=ORIENTED_EDGE('',*,*,#447,.T.) ;
#480=ORIENTED_EDGE('',*,*,#466,.T.) ;
#481=ORIENTED_EDGE('',*,*,#447,.F.) ;
#482=ORIENTED_EDGE('',*,*,#473,.F.) ;
#483=ORIENTED_EDGE('',*,*,#478,.T.) ;
#502=ORIENTED_EDGE('',*,*,#495,.T.) ;
#503=ORIENTED_EDGE('',*,*,#478,.F.) ;
#504=ORIENTED_EDGE('',*,*,#500,.F.) ;
#505=ORIENTED_EDGE('',*,*,#404,.T.) ;
#514=ORIENTED_EDGE('',*,*,#143,.F.) ;
#515=ORIENTED_EDGE('',*,*,#114,.F.) ;
#516=ORIENTED_EDGE('',*,*,#83,.F.) ;
#517=ORIENTED_EDGE('',*,*,#52,.F.) ;
#520=ORIENTED_EDGE('',*,*,#205,.T.) ;
#521=ORIENTED_EDGE('',*,*,#183,.T.) ;
#524=ORIENTED_EDGE('',*,*,#262,.T.) ;
#525=ORIENTED_EDGE('',*,*,#240,.T.) ;
#528=ORIENTED_EDGE('',*,*,#319,.T.) ;
#529=ORIENTED_EDGE('',*,*,#297,.T.) ;
#532=ORIENTED_EDGE('',*,*,#376,.T.) ;
#533=ORIENTED_EDGE('',*,*,#354,.T.) ;
#536=ORIENTED_EDGE('',*,*,#500,.T.) ;
#537=ORIENTED_EDGE('',*,*,#473,.T.) ;
#538=ORIENTED_EDGE('',*,*,#442,.T.) ;
#539=ORIENTED_EDGE('',*,*,#411,.T.) ;
#548=ORIENTED_EDGE('',*,*,#64,.T.) ;
#549=ORIENTED_EDGE('',*,*,#95,.T.) ;
#550=ORIENTED_EDGE('',*,*,#126,.T.) ;
#551=ORIENTED_EDGE('',*,*,#148,.T.) ;
#554=ORIENTED_EDGE('',*,*,#169,.F.) ;
#555=ORIENTED_EDGE('',*,*,#200,.F.) ;
#558=ORIENTED_EDGE('',*,*,#226,.F.) ;
#559=ORIENTED_EDGE('',*,*,#257,.F.) ;
#562=ORIENTED_EDGE('',*,*,#283,.F.) ;
#563=ORIENTED_EDGE('',*,*,#314,.F.) ;
#566=ORIENTED_EDGE('',*,*,#340,.F.) ;
#567=ORIENTED_EDGE('',*,*,#371,.F.) ;
#570=ORIENTED_EDGE('',*,*,#397,.F.) ;
#571=ORIENTED_EDGE('',*,*,#435,.F.) ;
#572=ORIENTED_EDGE('',*,*,#466,.F.) ;
#573=ORIENTED_EDGE('',*,*,#495,.F.) ;
#522=FACE_BOUND('',#519,.T.) ;
#526=FACE_BOUND('',#523,.T.) ;
#530=FACE_BOUND('',#527,.T.) ;
#534=FACE_BOUND('',#531,.T.) ;
#540=FACE_BOUND('',#535,.T.) ;
#556=FACE_BOUND('',#553,.T.) ;
#560=FACE_BOUND('',#557,.T.) ;
#564=FACE_BOUND('',#561,.T.) ;
#568=FACE_BOUND('',#565,.T.) ;
#574=FACE_BOUND('',#569,.T.) ;
#31=CLOSED_SHELL('Closed Shell',(#71,#102,#133,#155,#195,#212,#252,#269,#309,#326,#366,#383,#423,#454,#485,#507,#541,#575)) ;
#576=ADVANCED_BREP_SHAPE_REPRESENTATION('NONE',(#22),#17) ;
#71=ADVANCED_FACE('E1.2_IV_W_REAR_SEGREGATION_HR_VR_FcCuAl',(#70),#36,.T.) ;
#102=ADVANCED_FACE('E1.2_IV_W_REAR_SEGREGATION_HR_VR_FcCuAl',(#101),#76,.F.) ;
#133=ADVANCED_FACE('E1.2_IV_W_REAR_SEGREGATION_HR_VR_FcCuAl',(#132),#107,.T.) ;
#155=ADVANCED_FACE('E1.2_IV_W_REAR_SEGREGATION_HR_VR_FcCuAl',(#154),#138,.F.) ;
#195=ADVANCED_FACE('E1.2_IV_W_REAR_SEGREGATION_HR_VR_FcCuAl',(#194),#160,.F.) ;
#212=ADVANCED_FACE('E1.2_IV_W_REAR_SEGREGATION_HR_VR_FcCuAl',(#211),#160,.F.) ;
#252=ADVANCED_FACE('E1.2_IV_W_REAR_SEGREGATION_HR_VR_FcCuAl',(#251),#217,.F.) ;
#269=ADVANCED_FACE('E1.2_IV_W_REAR_SEGREGATION_HR_VR_FcCuAl',(#268),#217,.F.) ;
#309=ADVANCED_FACE('E1.2_IV_W_REAR_SEGREGATION_HR_VR_FcCuAl',(#308),#274,.F.) ;
#326=ADVANCED_FACE('E1.2_IV_W_REAR_SEGREGATION_HR_VR_FcCuAl',(#325),#274,.F.) ;
#366=ADVANCED_FACE('E1.2_IV_W_REAR_SEGREGATION_HR_VR_FcCuAl',(#365),#331,.F.) ;
#383=ADVANCED_FACE('E1.2_IV_W_REAR_SEGREGATION_HR_VR_FcCuAl',(#382),#331,.F.) ;
#423=ADVANCED_FACE('E1.2_IV_W_REAR_SEGREGATION_HR_VR_FcCuAl',(#422),#388,.T.) ;
#454=ADVANCED_FACE('E1.2_IV_W_REAR_SEGREGATION_HR_VR_FcCuAl',(#453),#428,.F.) ;
#485=ADVANCED_FACE('E1.2_IV_W_REAR_SEGREGATION_HR_VR_FcCuAl',(#484),#459,.T.) ;
#507=ADVANCED_FACE('E1.2_IV_W_REAR_SEGREGATION_HR_VR_FcCuAl',(#506),#490,.F.) ;
#541=ADVANCED_FACE('E1.2_IV_W_REAR_SEGREGATION_HR_VR_FcCuAl',(#518,#522,#526,#530,#534,#540),#512,.F.) ;
#575=ADVANCED_FACE('E1.2_IV_W_REAR_SEGREGATION_HR_VR_FcCuAl',(#552,#556,#560,#564,#568,#574),#546,.T.) ;
#4=APPLICATION_PROTOCOL_DEFINITION('international standard','automotive_design',2001,#1) ;
#22=MANIFOLD_SOLID_BREP('E1.2_IV_W_REAR_SEGREGATION_HR_VR_FcCuAl',#31) ;
#164=CIRCLE('generated circle',#163,3.5) ;
#180=CIRCLE('generated circle',#179,3.5) ;
#199=CIRCLE('generated circle',#198,3.5) ;
#204=CIRCLE('generated circle',#203,3.5) ;
#221=CIRCLE('generated circle',#220,3.5) ;
#237=CIRCLE('generated circle',#236,3.5) ;
#256=CIRCLE('generated circle',#255,3.5) ;
#261=CIRCLE('generated circle',#260,3.5) ;
#278=CIRCLE('generated circle',#277,3.5) ;
#294=CIRCLE('generated circle',#293,3.5) ;
#313=CIRCLE('generated circle',#312,3.5) ;
#318=CIRCLE('generated circle',#317,3.5) ;
#335=CIRCLE('generated circle',#334,3.5) ;
#351=CIRCLE('generated circle',#350,3.5) ;
#370=CIRCLE('generated circle',#369,3.5) ;
#375=CIRCLE('generated circle',#374,3.5) ;
#23=COLOUR_RGB('Colour',0.752941176471,0.76862745098,0.749019607843) ;
#160=CYLINDRICAL_SURFACE('generated cylinder',#159,3.5) ;
#217=CYLINDRICAL_SURFACE('generated cylinder',#216,3.5) ;
#274=CYLINDRICAL_SURFACE('generated cylinder',#273,3.5) ;
#331=CYLINDRICAL_SURFACE('generated cylinder',#330,3.5) ;
#45=EDGE_CURVE('',#42,#44,#40,.T.) ;
#52=EDGE_CURVE('',#42,#51,#49,.T.) ;
#59=EDGE_CURVE('',#51,#58,#56,.T.) ;
#64=EDGE_CURVE('',#44,#58,#63,.T.) ;
#83=EDGE_CURVE('',#51,#82,#80,.F.) ;
#90=EDGE_CURVE('',#82,#89,#87,.T.) ;
#95=EDGE_CURVE('',#58,#89,#94,.F.) ;
#114=EDGE_CURVE('',#82,#113,#111,.T.) ;
#121=EDGE_CURVE('',#113,#120,#118,.T.) ;
#126=EDGE_CURVE('',#89,#120,#125,.T.) ;
#143=EDGE_CURVE('',#113,#42,#142,.F.) ;
#148=EDGE_CURVE('',#120,#44,#147,.F.) ;
#169=EDGE_CURVE('',#166,#168,#164,.T.) ;
#176=EDGE_CURVE('',#175,#168,#173,.T.) ;
#183=EDGE_CURVE('',#182,#175,#180,.T.) ;
#188=EDGE_CURVE('',#182,#166,#187,.T.) ;
#200=EDGE_CURVE('',#168,#166,#199,.T.) ;
#205=EDGE_CURVE('',#175,#182,#204,.T.) ;
#226=EDGE_CURVE('',#223,#225,#221,.T.) ;
#233=EDGE_CURVE('',#232,#225,#230,.T.) ;
#240=EDGE_CURVE('',#239,#232,#237,.T.) ;
#245=EDGE_CURVE('',#239,#223,#244,.T.) ;
#257=EDGE_CURVE('',#225,#223,#256,.T.) ;
#262=EDGE_CURVE('',#232,#239,#261,.T.) ;
#283=EDGE_CURVE('',#280,#282,#278,.T.) ;
#290=EDGE_CURVE('',#289,#282,#287,.T.) ;
#297=EDGE_CURVE('',#296,#289,#294,.T.) ;
#302=EDGE_CURVE('',#296,#280,#301,.T.) ;
#314=EDGE_CURVE('',#282,#280,#313,.T.) ;
#319=EDGE_CURVE('',#289,#296,#318,.T.) ;
#340=EDGE_CURVE('',#337,#339,#335,.T.) ;
#347=EDGE_CURVE('',#346,#339,#344,.T.) ;
#354=EDGE_CURVE('',#353,#346,#351,.T.) ;
#359=EDGE_CURVE('',#353,#337,#358,.T.) ;
#371=EDGE_CURVE('',#339,#337,#370,.T.) ;
#376=EDGE_CURVE('',#346,#353,#375,.T.) ;
#397=EDGE_CURVE('',#394,#396,#392,.F.) ;
#404=EDGE_CURVE('',#403,#396,#401,.T.) ;
#411=EDGE_CURVE('',#410,#403,#408,.F.) ;
#416=EDGE_CURVE('',#410,#394,#415,.T.) ;
#435=EDGE_CURVE('',#434,#394,#432,.T.) ;
#442=EDGE_CURVE('',#441,#410,#439,.T.) ;
#447=EDGE_CURVE('',#441,#434,#446,.T.) ;
#466=EDGE_CURVE('',#465,#434,#463,.F.) ;
#473=EDGE_CURVE('',#472,#441,#470,.F.) ;
#478=EDGE_CURVE('',#472,#465,#477,.T.) ;
#495=EDGE_CURVE('',#396,#465,#494,.T.) ;
#500=EDGE_CURVE('',#403,#472,#499,.T.) ;
#65=EDGE_LOOP('',(#66,#67,#68,#69)) ;
#96=EDGE_LOOP('',(#97,#98,#99,#100)) ;
#127=EDGE_LOOP('',(#128,#129,#130,#131)) ;
#149=EDGE_LOOP('',(#150,#151,#152,#153)) ;
#189=EDGE_LOOP('',(#190,#191,#192,#193)) ;
#206=EDGE_LOOP('',(#207,#208,#209,#210)) ;
#246=EDGE_LOOP('',(#247,#248,#249,#250)) ;
#263=EDGE_LOOP('',(#264,#265,#266,#267)) ;
#303=EDGE_LOOP('',(#304,#305,#306,#307)) ;
#320=EDGE_LOOP('',(#321,#322,#323,#324)) ;
#360=EDGE_LOOP('',(#361,#362,#363,#364)) ;
#377=EDGE_LOOP('',(#378,#379,#380,#381)) ;
#417=EDGE_LOOP('',(#418,#419,#420,#421)) ;
#448=EDGE_LOOP('',(#449,#450,#451,#452)) ;
#479=EDGE_LOOP('',(#480,#481,#482,#483)) ;
#501=EDGE_LOOP('',(#502,#503,#504,#505)) ;
#513=EDGE_LOOP('',(#514,#515,#516,#517)) ;
#519=EDGE_LOOP('',(#520,#521)) ;
#523=EDGE_LOOP('',(#524,#525)) ;
#527=EDGE_LOOP('',(#528,#529)) ;
#531=EDGE_LOOP('',(#532,#533)) ;
#535=EDGE_LOOP('',(#536,#537,#538,#539)) ;
#547=EDGE_LOOP('',(#548,#549,#550,#551)) ;
#553=EDGE_LOOP('',(#554,#555)) ;
#557=EDGE_LOOP('',(#558,#559)) ;
#561=EDGE_LOOP('',(#562,#563)) ;
#565=EDGE_LOOP('',(#566,#567)) ;
#569=EDGE_LOOP('',(#570,#571,#572,#573)) ;
#70=FACE_OUTER_BOUND('',#65,.T.) ;
#101=FACE_OUTER_BOUND('',#96,.T.) ;
#132=FACE_OUTER_BOUND('',#127,.T.) ;
#154=FACE_OUTER_BOUND('',#149,.T.) ;
#194=FACE_OUTER_BOUND('',#189,.T.) ;
#211=FACE_OUTER_BOUND('',#206,.T.) ;
#251=FACE_OUTER_BOUND('',#246,.T.) ;
#268=FACE_OUTER_BOUND('',#263,.T.) ;
#308=FACE_OUTER_BOUND('',#303,.T.) ;
#325=FACE_OUTER_BOUND('',#320,.T.) ;
#365=FACE_OUTER_BOUND('',#360,.T.) ;
#382=FACE_OUTER_BOUND('',#377,.T.) ;
#422=FACE_OUTER_BOUND('',#417,.T.) ;
#453=FACE_OUTER_BOUND('',#448,.T.) ;
#484=FACE_OUTER_BOUND('',#479,.T.) ;
#506=FACE_OUTER_BOUND('',#501,.T.) ;
#518=FACE_OUTER_BOUND('',#513,.T.) ;
#552=FACE_OUTER_BOUND('',#547,.T.) ;
#40=LINE('Line',#37,#39) ;
#49=LINE('Line',#46,#48) ;
#56=LINE('Line',#53,#55) ;
#63=LINE('Line',#60,#62) ;
#80=LINE('Line',#77,#79) ;
#87=LINE('Line',#84,#86) ;
#94=LINE('Line',#91,#93) ;
#111=LINE('Line',#108,#110) ;
#118=LINE('Line',#115,#117) ;
#125=LINE('Line',#122,#124) ;
#142=LINE('Line',#139,#141) ;
#147=LINE('Line',#144,#146) ;
#173=LINE('Line',#170,#172) ;
#187=LINE('Line',#184,#186) ;
#230=LINE('Line',#227,#229) ;
#244=LINE('Line',#241,#243) ;
#287=LINE('Line',#284,#286) ;
#301=LINE('Line',#298,#300) ;
#344=LINE('Line',#341,#343) ;
#358=LINE('Line',#355,#357) ;
#392=LINE('Line',#389,#391) ;
#401=LINE('Line',#398,#400) ;
#408=LINE('Line',#405,#407) ;
#415=LINE('Line',#412,#414) ;
#432=LINE('Line',#429,#431) ;
#439=LINE('Line',#436,#438) ;
#446=LINE('Line',#443,#445) ;
#463=LINE('Line',#460,#462) ;
#470=LINE('Line',#467,#469) ;
#477=LINE('Line',#474,#476) ;
#494=LINE('Line',#491,#493) ;
#499=LINE('Line',#496,#498) ;
#36=PLANE('',#35) ;
#76=PLANE('',#75) ;
#107=PLANE('',#106) ;
#138=PLANE('',#137) ;
#388=PLANE('',#387) ;
#428=PLANE('',#427) ;
#459=PLANE('',#458) ;
#490=PLANE('',#489) ;
#512=PLANE('',#511) ;
#546=PLANE('',#545) ;
#14=PLANE_ANGLE_MEASURE_WITH_UNIT(PLANE_ANGLE_MEASURE(0.0174532925199),#13) ;
#9=PRODUCT_CATEGORY_RELATIONSHIP(' ',' ',#7,#8) ;
#6=PRODUCT_DEFINITION_FORMATION_WITH_SPECIFIED_SOURCE('',' ',#5,.NOT_KNOWN.) ;
#21=SHAPE_DEFINITION_REPRESENTATION(#11,#20) ;
#42=VERTEX_POINT('',#41) ;
#44=VERTEX_POINT('',#43) ;
#51=VERTEX_POINT('',#50) ;
#58=VERTEX_POINT('',#57) ;
#82=VERTEX_POINT('',#81) ;
#89=VERTEX_POINT('',#88) ;
#113=VERTEX_POINT('',#112) ;
#120=VERTEX_POINT('',#119) ;
#166=VERTEX_POINT('',#165) ;
#168=VERTEX_POINT('',#167) ;
#175=VERTEX_POINT('',#174) ;
#182=VERTEX_POINT('',#181) ;
#223=VERTEX_POINT('',#222) ;
#225=VERTEX_POINT('',#224) ;
#232=VERTEX_POINT('',#231) ;
#239=VERTEX_POINT('',#238) ;
#280=VERTEX_POINT('',#279) ;
#282=VERTEX_POINT('',#281) ;
#289=VERTEX_POINT('',#288) ;
#296=VERTEX_POINT('',#295) ;
#337=VERTEX_POINT('',#336) ;
#339=VERTEX_POINT('',#338) ;
#346=VERTEX_POINT('',#345) ;
#353=VERTEX_POINT('',#352) ;
#394=VERTEX_POINT('',#393) ;
#396=VERTEX_POINT('',#395) ;
#403=VERTEX_POINT('',#402) ;
#410=VERTEX_POINT('',#409) ;
#434=VERTEX_POINT('',#433) ;
#441=VERTEX_POINT('',#440) ;
#465=VERTEX_POINT('',#464) ;
#472=VERTEX_POINT('',#471) ;
#12=(LENGTH_UNIT()NAMED_UNIT(*)SI_UNIT(.MILLI.,.METRE.)) ;
#13=(NAMED_UNIT(*)PLANE_ANGLE_UNIT()SI_UNIT($,.RADIAN.)) ;
#15=(NAMED_UNIT(*)SI_UNIT($,.STERADIAN.)SOLID_ANGLE_UNIT()) ;
#17=(GEOMETRIC_REPRESENTATION_CONTEXT(3)GLOBAL_UNCERTAINTY_ASSIGNED_CONTEXT((#16))GLOBAL_UNIT_ASSIGNED_CONTEXT((#12,#13,#15))REPRESENTATION_CONTEXT(' ',' ')) ;
ENDSEC;
END-ISO-10303-21;
