ISO-10303-21;
HEADER;
FILE_DESCRIPTION((''),'2;1');
FILE_NAME('EADR50','2018-01-08T',('FIMABER1'),(''),
'CREO PARAMETRIC BY PTC INC, 2017170','CREO PARAMETRIC BY PTC INC, 2017170','');
FILE_SCHEMA(('CONFIG_CONTROL_DESIGN'));
ENDSEC;
DATA;
#17=CARTESIAN_POINT('',(0.E0,1.E-1,0.E0));
#18=DIRECTION('',(0.E0,1.E0,0.E0));
#19=DIRECTION('',(0.E0,0.E0,1.E0));
#20=AXIS2_PLACEMENT_3D('',#17,#18,#19);
#22=CARTESIAN_POINT('',(0.E0,0.E0,0.E0));
#23=DIRECTION('',(0.E0,-1.E0,0.E0));
#24=DIRECTION('',(0.E0,0.E0,-1.E0));
#25=AXIS2_PLACEMENT_3D('',#22,#23,#24);
#27=CARTESIAN_POINT('',(0.E0,0.E0,0.E0));
#28=DIRECTION('',(0.E0,-1.E0,0.E0));
#29=DIRECTION('',(0.E0,0.E0,1.E0));
#30=AXIS2_PLACEMENT_3D('',#27,#28,#29);
#32=CARTESIAN_POINT('',(0.E0,-2.131628207280E-14,0.E0));
#33=DIRECTION('',(0.E0,1.E0,0.E0));
#34=DIRECTION('',(0.E0,0.E0,-1.E0));
#35=AXIS2_PLACEMENT_3D('',#32,#33,#34);
#37=CARTESIAN_POINT('',(0.E0,-2.131628207280E-14,0.E0));
#38=DIRECTION('',(0.E0,1.E0,0.E0));
#39=DIRECTION('',(0.E0,0.E0,1.E0));
#40=AXIS2_PLACEMENT_3D('',#37,#38,#39);
#42=DIRECTION('',(0.E0,1.E0,0.E0));
#43=VECTOR('',#42,2.E0);
#44=CARTESIAN_POINT('',(0.E0,0.E0,-2.8E1));
#45=LINE('',#44,#43);
#46=DIRECTION('',(-1.038269867003E-14,1.E0,0.E0));
#47=VECTOR('',#46,2.E0);
#48=CARTESIAN_POINT('',(0.E0,0.E0,2.8E1));
#49=LINE('',#48,#47);
#50=CARTESIAN_POINT('',(0.E0,2.E0,0.E0));
#51=DIRECTION('',(0.E0,1.E0,0.E0));
#52=DIRECTION('',(0.E0,0.E0,-1.E0));
#53=AXIS2_PLACEMENT_3D('',#50,#51,#52);
#55=CARTESIAN_POINT('',(0.E0,2.E0,0.E0));
#56=DIRECTION('',(0.E0,1.E0,0.E0));
#57=DIRECTION('',(0.E0,0.E0,1.E0));
#58=AXIS2_PLACEMENT_3D('',#55,#56,#57);
#60=CARTESIAN_POINT('',(0.E0,2.E0,0.E0));
#61=DIRECTION('',(0.E0,-1.E0,0.E0));
#62=DIRECTION('',(0.E0,0.E0,-1.E0));
#63=AXIS2_PLACEMENT_3D('',#60,#61,#62);
#65=CARTESIAN_POINT('',(0.E0,2.E0,0.E0));
#66=DIRECTION('',(0.E0,-1.E0,0.E0));
#67=DIRECTION('',(0.E0,0.E0,1.E0));
#68=AXIS2_PLACEMENT_3D('',#65,#66,#67);
#70=CARTESIAN_POINT('',(0.E0,1.9E0,0.E0));
#71=DIRECTION('',(0.E0,-1.E0,0.E0));
#72=DIRECTION('',(0.E0,0.E0,-1.E0));
#73=AXIS2_PLACEMENT_3D('',#70,#71,#72);
#75=DIRECTION('',(-1.434859235811E-14,7.071067811866E-1,-7.071067811865E-1));
#76=VECTOR('',#75,1.414213562373E-1);
#77=CARTESIAN_POINT('',(0.E0,1.9E0,-2.49E1));
#78=LINE('',#77,#76);
#79=CARTESIAN_POINT('',(0.E0,1.9E0,0.E0));
#80=DIRECTION('',(0.E0,-1.E0,0.E0));
#81=DIRECTION('',(0.E0,0.E0,1.E0));
#82=AXIS2_PLACEMENT_3D('',#79,#80,#81);
#84=DIRECTION('',(1.434600533163E-14,7.071067811866E-1,7.071067811865E-1));
#85=VECTOR('',#84,1.414213562373E-1);
#86=CARTESIAN_POINT('',(0.E0,1.9E0,2.49E1));
#87=LINE('',#86,#85);
#88=DIRECTION('',(0.E0,1.E0,0.E0));
#89=VECTOR('',#88,1.8E0);
#90=CARTESIAN_POINT('',(0.E0,9.999999999999E-2,2.49E1));
#91=LINE('',#90,#89);
#92=DIRECTION('',(0.E0,1.E0,0.E0));
#93=VECTOR('',#92,1.8E0);
#94=CARTESIAN_POINT('',(0.E0,9.999999999999E-2,-2.49E1));
#95=LINE('',#94,#93);
#96=DIRECTION('',(1.819091298635E-13,-7.071067811866E-1,7.071067811865E-1));
#97=VECTOR('',#96,1.414213562373E-1);
#98=CARTESIAN_POINT('',(0.E0,9.999999999999E-2,2.49E1));
#99=LINE('',#98,#97);
#100=CARTESIAN_POINT('',(0.E0,1.E-1,0.E0));
#101=DIRECTION('',(0.E0,1.E0,0.E0));
#102=DIRECTION('',(0.E0,0.E0,-1.E0));
#103=AXIS2_PLACEMENT_3D('',#100,#101,#102);
#105=DIRECTION('',(-2.280642738357E-14,-7.071067811866E-1,-7.071067811865E-1));
#106=VECTOR('',#105,1.414213562373E-1);
#107=CARTESIAN_POINT('',(0.E0,9.999999999999E-2,-2.49E1));
#108=LINE('',#107,#106);
#109=CARTESIAN_POINT('',(0.E0,9.999999999999E-2,-2.49E1));
#110=CARTESIAN_POINT('',(0.E0,-3.315403507287E-14,-2.5E1));
#111=VERTEX_POINT('',#109);
#112=VERTEX_POINT('',#110);
#113=CARTESIAN_POINT('',(0.E0,9.999999999999E-2,2.49E1));
#114=CARTESIAN_POINT('',(2.572583585725E-14,-3.315403507287E-14,2.5E1));
#115=VERTEX_POINT('',#113);
#116=VERTEX_POINT('',#114);
#117=CARTESIAN_POINT('',(0.E0,0.E0,2.8E1));
#118=CARTESIAN_POINT('',(-2.186716680554E-14,2.E0,2.8E1));
#119=VERTEX_POINT('',#117);
#120=VERTEX_POINT('',#118);
#121=CARTESIAN_POINT('',(0.E0,0.E0,-2.8E1));
#122=CARTESIAN_POINT('',(0.E0,2.E0,-2.8E1));
#123=VERTEX_POINT('',#121);
#124=VERTEX_POINT('',#122);
#125=CARTESIAN_POINT('',(0.E0,1.9E0,-2.49E1));
#126=VERTEX_POINT('',#125);
#127=CARTESIAN_POINT('',(0.E0,1.9E0,2.49E1));
#128=VERTEX_POINT('',#127);
#129=CARTESIAN_POINT('',(0.E0,2.E0,2.5E1));
#130=VERTEX_POINT('',#129);
#131=CARTESIAN_POINT('',(0.E0,2.E0,-2.5E1));
#132=VERTEX_POINT('',#131);
#133=CARTESIAN_POINT('',(0.E0,4.999999999998E-2,0.E0));
#134=DIRECTION('',(0.E0,-1.E0,0.E0));
#135=DIRECTION('',(0.E0,0.E0,-1.E0));
#136=AXIS2_PLACEMENT_3D('',#133,#134,#135);
#137=CONICAL_SURFACE('',#136,2.495E1,4.5E1);
#139=ORIENTED_EDGE('',*,*,#138,.T.);
#141=ORIENTED_EDGE('',*,*,#140,.F.);
#143=ORIENTED_EDGE('',*,*,#142,.F.);
#145=ORIENTED_EDGE('',*,*,#144,.T.);
#146=EDGE_LOOP('',(#139,#141,#143,#145));
#147=FACE_OUTER_BOUND('',#146,.F.);
#148=ADVANCED_FACE('',(#147),#137,.F.);
#149=FILL_AREA_STYLE_COLOUR('',#3);
#150=FILL_AREA_STYLE('',(#149));
#151=SURFACE_STYLE_FILL_AREA(#150);
#152=SURFACE_SIDE_STYLE('',(#151));
#153=SURFACE_STYLE_USAGE(.BOTH.,#152);
#154=PRESENTATION_STYLE_ASSIGNMENT((#153));
#155=STYLED_ITEM('',(#154),#148);
#156=CARTESIAN_POINT('',(2.8E1,0.E0,0.E0));
#157=DIRECTION('',(0.E0,1.E0,0.E0));
#158=DIRECTION('',(0.E0,0.E0,1.E0));
#159=AXIS2_PLACEMENT_3D('',#156,#157,#158);
#160=PLANE('',#159);
#162=ORIENTED_EDGE('',*,*,#161,.F.);
#164=ORIENTED_EDGE('',*,*,#163,.F.);
#165=EDGE_LOOP('',(#162,#164));
#166=FACE_OUTER_BOUND('',#165,.F.);
#168=ORIENTED_EDGE('',*,*,#167,.F.);
#169=ORIENTED_EDGE('',*,*,#138,.F.);
#170=EDGE_LOOP('',(#168,#169));
#171=FACE_BOUND('',#170,.F.);
#172=ADVANCED_FACE('',(#166,#171),#160,.F.);
#173=FILL_AREA_STYLE_COLOUR('',#3);
#174=FILL_AREA_STYLE('',(#173));
#175=SURFACE_STYLE_FILL_AREA(#174);
#176=SURFACE_SIDE_STYLE('',(#175));
#177=SURFACE_STYLE_USAGE(.BOTH.,#176);
#178=PRESENTATION_STYLE_ASSIGNMENT((#177));
#179=STYLED_ITEM('',(#178),#172);
#180=CARTESIAN_POINT('',(0.E0,0.E0,0.E0));
#181=DIRECTION('',(0.E0,1.E0,0.E0));
#182=DIRECTION('',(0.E0,0.E0,-1.E0));
#183=AXIS2_PLACEMENT_3D('',#180,#181,#182);
#184=CYLINDRICAL_SURFACE('',#183,2.8E1);
#186=ORIENTED_EDGE('',*,*,#185,.T.);
#188=ORIENTED_EDGE('',*,*,#187,.F.);
#189=ORIENTED_EDGE('',*,*,#161,.T.);
#191=ORIENTED_EDGE('',*,*,#190,.T.);
#192=EDGE_LOOP('',(#186,#188,#189,#191));
#193=FACE_OUTER_BOUND('',#192,.F.);
#194=ADVANCED_FACE('',(#193),#184,.T.);
#195=FILL_AREA_STYLE_COLOUR('',#3);
#196=FILL_AREA_STYLE('',(#195));
#197=SURFACE_STYLE_FILL_AREA(#196);
#198=SURFACE_SIDE_STYLE('',(#197));
#199=SURFACE_STYLE_USAGE(.BOTH.,#198);
#200=PRESENTATION_STYLE_ASSIGNMENT((#199));
#201=STYLED_ITEM('',(#200),#194);
#202=CARTESIAN_POINT('',(0.E0,2.E0,0.E0));
#203=DIRECTION('',(0.E0,-1.E0,0.E0));
#204=DIRECTION('',(0.E0,0.E0,-1.E0));
#205=AXIS2_PLACEMENT_3D('',#202,#203,#204);
#206=PLANE('',#205);
#208=ORIENTED_EDGE('',*,*,#207,.F.);
#209=ORIENTED_EDGE('',*,*,#185,.F.);
#210=EDGE_LOOP('',(#208,#209));
#211=FACE_OUTER_BOUND('',#210,.F.);
#213=ORIENTED_EDGE('',*,*,#212,.F.);
#215=ORIENTED_EDGE('',*,*,#214,.F.);
#216=EDGE_LOOP('',(#213,#215));
#217=FACE_BOUND('',#216,.F.);
#218=ADVANCED_FACE('',(#211,#217),#206,.F.);
#219=FILL_AREA_STYLE_COLOUR('',#3);
#220=FILL_AREA_STYLE('',(#219));
#221=SURFACE_STYLE_FILL_AREA(#220);
#222=SURFACE_SIDE_STYLE('',(#221));
#223=SURFACE_STYLE_USAGE(.BOTH.,#222);
#224=PRESENTATION_STYLE_ASSIGNMENT((#223));
#225=STYLED_ITEM('',(#224),#218);
#226=CARTESIAN_POINT('',(0.E0,0.E0,0.E0));
#227=DIRECTION('',(0.E0,1.E0,0.E0));
#228=DIRECTION('',(0.E0,0.E0,-1.E0));
#229=AXIS2_PLACEMENT_3D('',#226,#227,#228);
#230=CYLINDRICAL_SURFACE('',#229,2.8E1);
#231=ORIENTED_EDGE('',*,*,#207,.T.);
#232=ORIENTED_EDGE('',*,*,#190,.F.);
#233=ORIENTED_EDGE('',*,*,#163,.T.);
#234=ORIENTED_EDGE('',*,*,#187,.T.);
#235=EDGE_LOOP('',(#231,#232,#233,#234));
#236=FACE_OUTER_BOUND('',#235,.F.);
#237=ADVANCED_FACE('',(#236),#230,.T.);
#238=FILL_AREA_STYLE_COLOUR('',#3);
#239=FILL_AREA_STYLE('',(#238));
#240=SURFACE_STYLE_FILL_AREA(#239);
#241=SURFACE_SIDE_STYLE('',(#240));
#242=SURFACE_STYLE_USAGE(.BOTH.,#241);
#243=PRESENTATION_STYLE_ASSIGNMENT((#242));
#244=STYLED_ITEM('',(#243),#237);
#245=CARTESIAN_POINT('',(0.E0,1.95E0,0.E0));
#246=DIRECTION('',(0.E0,1.E0,0.E0));
#247=DIRECTION('',(0.E0,0.E0,1.E0));
#248=AXIS2_PLACEMENT_3D('',#245,#246,#247);
#249=CONICAL_SURFACE('',#248,2.495E1,4.5E1);
#250=ORIENTED_EDGE('',*,*,#212,.T.);
#252=ORIENTED_EDGE('',*,*,#251,.F.);
#254=ORIENTED_EDGE('',*,*,#253,.F.);
#256=ORIENTED_EDGE('',*,*,#255,.T.);
#257=EDGE_LOOP('',(#250,#252,#254,#256));
#258=FACE_OUTER_BOUND('',#257,.F.);
#259=ADVANCED_FACE('',(#258),#249,.F.);
#260=FILL_AREA_STYLE_COLOUR('',#3);
#261=FILL_AREA_STYLE('',(#260));
#262=SURFACE_STYLE_FILL_AREA(#261);
#263=SURFACE_SIDE_STYLE('',(#262));
#264=SURFACE_STYLE_USAGE(.BOTH.,#263);
#265=PRESENTATION_STYLE_ASSIGNMENT((#264));
#266=STYLED_ITEM('',(#265),#259);
#267=CARTESIAN_POINT('',(0.E0,1.95E0,0.E0));
#268=DIRECTION('',(0.E0,1.E0,0.E0));
#269=DIRECTION('',(0.E0,0.E0,1.E0));
#270=AXIS2_PLACEMENT_3D('',#267,#268,#269);
#271=CONICAL_SURFACE('',#270,2.495E1,4.5E1);
#272=ORIENTED_EDGE('',*,*,#214,.T.);
#273=ORIENTED_EDGE('',*,*,#255,.F.);
#275=ORIENTED_EDGE('',*,*,#274,.F.);
#276=ORIENTED_EDGE('',*,*,#251,.T.);
#277=EDGE_LOOP('',(#272,#273,#275,#276));
#278=FACE_OUTER_BOUND('',#277,.F.);
#279=ADVANCED_FACE('',(#278),#271,.F.);
#280=FILL_AREA_STYLE_COLOUR('',#3);
#281=FILL_AREA_STYLE('',(#280));
#282=SURFACE_STYLE_FILL_AREA(#281);
#283=SURFACE_SIDE_STYLE('',(#282));
#284=SURFACE_STYLE_USAGE(.BOTH.,#283);
#285=PRESENTATION_STYLE_ASSIGNMENT((#284));
#286=STYLED_ITEM('',(#285),#279);
#287=CARTESIAN_POINT('',(0.E0,0.E0,0.E0));
#288=DIRECTION('',(0.E0,1.E0,0.E0));
#289=DIRECTION('',(0.E0,0.E0,-1.E0));
#290=AXIS2_PLACEMENT_3D('',#287,#288,#289);
#291=CYLINDRICAL_SURFACE('',#290,2.49E1);
#292=ORIENTED_EDGE('',*,*,#274,.T.);
#294=ORIENTED_EDGE('',*,*,#293,.F.);
#296=ORIENTED_EDGE('',*,*,#295,.T.);
#298=ORIENTED_EDGE('',*,*,#297,.T.);
#299=EDGE_LOOP('',(#292,#294,#296,#298));
#300=FACE_OUTER_BOUND('',#299,.F.);
#301=ADVANCED_FACE('',(#300),#291,.F.);
#302=FILL_AREA_STYLE_COLOUR('',#3);
#303=FILL_AREA_STYLE('',(#302));
#304=SURFACE_STYLE_FILL_AREA(#303);
#305=SURFACE_SIDE_STYLE('',(#304));
#306=SURFACE_STYLE_USAGE(.BOTH.,#305);
#307=PRESENTATION_STYLE_ASSIGNMENT((#306));
#308=STYLED_ITEM('',(#307),#301);
#309=CARTESIAN_POINT('',(0.E0,0.E0,0.E0));
#310=DIRECTION('',(0.E0,1.E0,0.E0));
#311=DIRECTION('',(0.E0,0.E0,-1.E0));
#312=AXIS2_PLACEMENT_3D('',#309,#310,#311);
#313=CYLINDRICAL_SURFACE('',#312,2.49E1);
#314=ORIENTED_EDGE('',*,*,#253,.T.);
#315=ORIENTED_EDGE('',*,*,#297,.F.);
#316=ORIENTED_EDGE('',*,*,#142,.T.);
#317=ORIENTED_EDGE('',*,*,#293,.T.);
#318=EDGE_LOOP('',(#314,#315,#316,#317));
#319=FACE_OUTER_BOUND('',#318,.F.);
#320=ADVANCED_FACE('',(#319),#313,.F.);
#321=FILL_AREA_STYLE_COLOUR('',#3);
#322=FILL_AREA_STYLE('',(#321));
#323=SURFACE_STYLE_FILL_AREA(#322);
#324=SURFACE_SIDE_STYLE('',(#323));
#325=SURFACE_STYLE_USAGE(.BOTH.,#324);
#326=PRESENTATION_STYLE_ASSIGNMENT((#325));
#327=STYLED_ITEM('',(#326),#320);
#328=CARTESIAN_POINT('',(0.E0,4.999999999998E-2,0.E0));
#329=DIRECTION('',(0.E0,-1.E0,0.E0));
#330=DIRECTION('',(0.E0,0.E0,-1.E0));
#331=AXIS2_PLACEMENT_3D('',#328,#329,#330);
#332=CONICAL_SURFACE('',#331,2.495E1,4.5E1);
#333=ORIENTED_EDGE('',*,*,#167,.T.);
#334=ORIENTED_EDGE('',*,*,#144,.F.);
#335=ORIENTED_EDGE('',*,*,#295,.F.);
#336=ORIENTED_EDGE('',*,*,#140,.T.);
#337=EDGE_LOOP('',(#333,#334,#335,#336));
#338=FACE_OUTER_BOUND('',#337,.F.);
#339=ADVANCED_FACE('',(#338),#332,.F.);
#340=FILL_AREA_STYLE_COLOUR('',#3);
#341=FILL_AREA_STYLE('',(#340));
#342=SURFACE_STYLE_FILL_AREA(#341);
#343=SURFACE_SIDE_STYLE('',(#342));
#344=SURFACE_STYLE_USAGE(.BOTH.,#343);
#345=PRESENTATION_STYLE_ASSIGNMENT((#344));
#346=STYLED_ITEM('',(#345),#339);
#347=CLOSED_SHELL('',(#148,#172,#194,#218,#237,#259,#279,#301,#320,#339));
#348=MANIFOLD_SOLID_BREP('',#347);
#350=DIMENSIONAL_EXPONENTS(0.E0,0.E0,0.E0,0.E0,0.E0,0.E0,0.E0);
#352=PLANE_ANGLE_MEASURE_WITH_UNIT(PLANE_ANGLE_MEASURE(1.745329251994E-2),#351);
#353=(CONVERSION_BASED_UNIT('DEGREE',#352)NAMED_UNIT(*)PLANE_ANGLE_UNIT());
#355=UNCERTAINTY_MEASURE_WITH_UNIT(LENGTH_MEASURE(1.2E-3),#349,'closure',
'Maximum model space distance between geometric entities at asserted connectivities');
#356=(GEOMETRIC_REPRESENTATION_CONTEXT(3)GLOBAL_UNCERTAINTY_ASSIGNED_CONTEXT((
#355))GLOBAL_UNIT_ASSIGNED_CONTEXT((#349,#353,#354))REPRESENTATION_CONTEXT
('ID1','3'));
#358=MECHANICAL_DESIGN_GEOMETRIC_PRESENTATION_REPRESENTATION('',(#155,#179,#201,
#225,#244,#266,#286,#308,#327,#346),#356);
#359=APPLICATION_CONTEXT(
'CONFIGURATION CONTROLLED 3D DESIGNS OF MECHANICAL PARTS AND ASSEMBLIES');
#360=APPLICATION_PROTOCOL_DEFINITION('international standard',
'config_control_design',1994,#359);
#361=DESIGN_CONTEXT('',#359,'design');
#362=MECHANICAL_CONTEXT('',#359,'mechanical');
#363=PRODUCT('EADR50','EADR50','NOT SPECIFIED',(#362));
#364=PRODUCT_DEFINITION_FORMATION_WITH_SPECIFIED_SOURCE('1','LAST_VERSION',#363,
.MADE.);
#368=PRODUCT_CATEGORY('part','');
#369=PRODUCT_RELATED_PRODUCT_CATEGORY('detail','',(#363));
#370=PRODUCT_CATEGORY_RELATIONSHIP('','',#368,#369);
#371=SECURITY_CLASSIFICATION_LEVEL('unclassified');
#372=SECURITY_CLASSIFICATION('','',#371);
#373=CC_DESIGN_SECURITY_CLASSIFICATION(#372,(#364));
#374=APPROVAL_STATUS('approved');
#375=APPROVAL(#374,'');
#376=CC_DESIGN_APPROVAL(#375,(#372,#364,#365));
#377=CALENDAR_DATE(118,8,1);
#378=COORDINATED_UNIVERSAL_TIME_OFFSET(2,0,.AHEAD.);
#379=LOCAL_TIME(15,3,3.2E1,#378);
#380=DATE_AND_TIME(#377,#379);
#381=APPROVAL_DATE_TIME(#380,#375);
#382=DATE_TIME_ROLE('creation_date');
#383=CC_DESIGN_DATE_AND_TIME_ASSIGNMENT(#380,#382,(#365));
#384=DATE_TIME_ROLE('classification_date');
#385=CC_DESIGN_DATE_AND_TIME_ASSIGNMENT(#380,#384,(#372));
#386=PERSON('UNSPECIFIED','UNSPECIFIED',$,$,$,$);
#387=ORGANIZATION('UNSPECIFIED','UNSPECIFIED','UNSPECIFIED');
#388=PERSON_AND_ORGANIZATION(#386,#387);
#389=APPROVAL_ROLE('approver');
#390=APPROVAL_PERSON_ORGANIZATION(#388,#375,#389);
#391=PERSON_AND_ORGANIZATION_ROLE('creator');
#392=CC_DESIGN_PERSON_AND_ORGANIZATION_ASSIGNMENT(#388,#391,(#364,#365));
#393=PERSON_AND_ORGANIZATION_ROLE('design_supplier');
#394=CC_DESIGN_PERSON_AND_ORGANIZATION_ASSIGNMENT(#388,#393,(#364));
#395=PERSON_AND_ORGANIZATION_ROLE('classification_officer');
#396=CC_DESIGN_PERSON_AND_ORGANIZATION_ASSIGNMENT(#388,#395,(#372));
#397=PERSON_AND_ORGANIZATION_ROLE('design_owner');
#398=CC_DESIGN_PERSON_AND_ORGANIZATION_ASSIGNMENT(#388,#397,(#363));
#1=DRAUGHTING_PRE_DEFINED_COLOUR('green');
#2=COLOUR_RGB('',1.1E-2,1.2E-2,1.E0);
#3=COLOUR_RGB('',5.999999865890E-2,5.000000074506E-2,7.000000029802E-2);
#4=COLOUR_RGB('',4.1E-1,2.61589E-1,1.12848E-1);
#5=COLOUR_RGB('',5.04854E-1,1.5455E-2,1.5455E-2);
#6=COLOUR_RGB('',6.40777E-1,6.40777E-1,6.40777E-1);
#7=COLOUR_RGB('',6.69062E-1,6.69903E-1,6.55217E-1);
#8=COLOUR_RGB('',6.952E-1,7.426E-1,7.9E-1);
#9=COLOUR_RGB('',7.960784313725E-1,8.235294117647E-1,9.372549019608E-1);
#10=COLOUR_RGB('',8.E-1,8.E-1,8.E-1);
#11=COLOUR_RGB('',9.21569E-1,7.05882E-1,4.70588E-1);
#12=DRAUGHTING_PRE_DEFINED_COLOUR('red');
#13=DRAUGHTING_PRE_DEFINED_COLOUR('yellow');
#14=COLOUR_RGB('',1.E0,1.E0,5.3E-1);
#15=COLOUR_RGB('',1.E0,1.E0,9.49E-1);
#16=DRAUGHTING_PRE_DEFINED_COLOUR('white');
#21=CIRCLE('',#20,2.49E1);
#26=CIRCLE('',#25,2.8E1);
#31=CIRCLE('',#30,2.8E1);
#36=CIRCLE('',#35,2.5E1);
#41=CIRCLE('',#40,2.5E1);
#54=CIRCLE('',#53,2.8E1);
#59=CIRCLE('',#58,2.8E1);
#64=CIRCLE('',#63,2.5E1);
#69=CIRCLE('',#68,2.5E1);
#74=CIRCLE('',#73,2.49E1);
#83=CIRCLE('',#82,2.49E1);
#104=CIRCLE('',#103,2.49E1);
#138=EDGE_CURVE('',#116,#112,#41,.T.);
#140=EDGE_CURVE('',#111,#112,#108,.T.);
#142=EDGE_CURVE('',#115,#111,#21,.T.);
#144=EDGE_CURVE('',#115,#116,#99,.T.);
#161=EDGE_CURVE('',#123,#119,#26,.T.);
#163=EDGE_CURVE('',#119,#123,#31,.T.);
#167=EDGE_CURVE('',#112,#116,#36,.T.);
#185=EDGE_CURVE('',#120,#124,#59,.T.);
#187=EDGE_CURVE('',#123,#124,#45,.T.);
#190=EDGE_CURVE('',#119,#120,#49,.T.);
#207=EDGE_CURVE('',#124,#120,#54,.T.);
#212=EDGE_CURVE('',#132,#130,#64,.T.);
#214=EDGE_CURVE('',#130,#132,#69,.T.);
#251=EDGE_CURVE('',#128,#130,#87,.T.);
#253=EDGE_CURVE('',#126,#128,#74,.T.);
#255=EDGE_CURVE('',#126,#132,#78,.T.);
#274=EDGE_CURVE('',#128,#126,#83,.T.);
#293=EDGE_CURVE('',#111,#126,#95,.T.);
#295=EDGE_CURVE('',#111,#115,#104,.T.);
#297=EDGE_CURVE('',#115,#128,#91,.T.);
#349=(LENGTH_UNIT()NAMED_UNIT(*)SI_UNIT(.MILLI.,.METRE.));
#351=(NAMED_UNIT(*)PLANE_ANGLE_UNIT()SI_UNIT($,.RADIAN.));
#354=(NAMED_UNIT(*)SI_UNIT($,.STERADIAN.)SOLID_ANGLE_UNIT());
#357=ADVANCED_BREP_SHAPE_REPRESENTATION('',(#348),#356);
#365=PRODUCT_DEFINITION('design','',#364,#361);
#366=PRODUCT_DEFINITION_SHAPE('','SHAPE FOR EADR50.',#365);
#367=SHAPE_DEFINITION_REPRESENTATION(#366,#357);
ENDSEC;
END-ISO-10303-21;
