  0
SECTION
  2
HEADER
  9
$ACADVER
  1
AC1009
  9
$DWGCODEPAGE
  3
iso8859-1
  9
$INSBASE
 10
0.0
 20
0.0
 30
0.0
  9
$EXTMIN
 10
1.0E20
 20
1.0E20
  9
$EXTMAX
 10
-1.0E20
 20
-1.0E20
  9
$LIMMIN
 10
0.0
 20
0.0
  9
$LIMMAX
 10
12.0
 20
9.0
  9
$ORTHOMODE
 70
     0
  9
$REGENMODE
 70
     1
  9
$FILLMODE
 70
     1
  9
$QTEXTMODE
 70
     0
  9
$MIRRTEXT
 70
     1
  9
$DRAGMODE
 70
     2
  9
$LTSCALE
 40
15.0
  9
$OSMODE
 70
     0
  9
$ATTMODE
 70
     1
  9
$TEXTSIZE
 40
0.2
  9
$TRACEWID
 40
0.05
  9
$TEXTSTYLE
  7
STANDARD
  9
$CLAYER
  8
0
  9
$CELTYPE
  6
DASHED
  9
$CECOLOR
 62
   256
  9
$DIMSCALE
 40
1.0
  9
$DIMASZ
 40
0.18
  9
$DIMEXO
 40
0.0625
  9
$DIMDLI
 40
0.38
  9
$DIMRND
 40
0.0
  9
$DIMDLE
 40
0.0
  9
$DIMEXE
 40
0.18
  9
$DIMTP
 40
0.0
  9
$DIMTM
 40
0.0
  9
$DIMTXT
 40
0.18
  9
$DIMCEN
 40
0.09
  9
$DIMTSZ
 40
0.0
  9
$DIMTOL
 70
     0
  9
$DIMLIM
 70
     0
  9
$DIMTIH
 70
     1
  9
$DIMTOH
 70
     1
  9
$DIMSE1
 70
     0
  9
$DIMSE2
 70
     0
  9
$DIMTAD
 70
     0
  9
$DIMZIN
 70
     0
  9
$DIMBLK
  1

  9
$DIMASO
 70
     1
  9
$DIMSHO
 70
     1
  9
$DIMPOST
  1

  9
$DIMAPOST
  1

  9
$DIMALT
 70
     0
  9
$DIMALTD
 70
     2
  9
$DIMALTF
 40
25.4
  9
$DIMLFAC
 40
1.0
  9
$DIMTOFL
 70
     0
  9
$DIMTVP
 40
0.0
  9
$DIMTIX
 70
     0
  9
$DIMSOXD
 70
     0
  9
$DIMSAH
 70
     0
  9
$DIMBLK1
  1

  9
$DIMBLK2
  1

  9
$DIMSTYLE
  2
STANDARD
  9
$DIMCLRD
 70
     0
  9
$DIMCLRE
 70
     0
  9
$DIMCLRT
 70
     0
  9
$DIMTFAC
 40
1.0
  9
$DIMGAP
 40
0.09
  9
$LUNITS
 70
     2
  9
$LUPREC
 70
     4
  9
$AXISMODE
 70
     0
  9
$AXISUNIT
 10
0.0
 20
0.0
  9
$SKETCHINC
 40
0.1
  9
$FILLETRAD
 40
0.0
  9
$AUNITS
 70
     0
  9
$AUPREC
 70
     0
  9
$MENU
  1
acad
  9
$ELEVATION
 40
0.0
  9
$PELEVATION
 40
0.0
  9
$THICKNESS
 40
0.0
  9
$LIMCHECK
 70
     0
  9
$BLIPMODE
 70
     1
  9
$CHAMFERA
 40
0.0
  9
$CHAMFERB
 40
0.0
  9
$SKPOLY
 70
     0
  9
$TDCREATE
 40
0.000000000
  9
$TDUPDATE
 40
0.000000000
  9
$TDINDWG
 40
0.0
  9
$TDUSRTIMER
 40
0.0
  9
$USRTIMER
 70
     1
  9
$ANGBASE
 50
0.0
  9
$ANGDIR
 70
     0
  9
$PDMODE
 70
     0
  9
$PDSIZE
 40
0.0
  9
$PLINEWID
 40
0.0
  9
$COORDS
 70
     1
  9
$SPLFRAME
 70
     0
  9
$SPLINETYPE
 70
     6
  9
$SPLINESEGS
 70
     8
  9
$ATTDIA
 70
     0
  9
$ATTREQ
 70
     1
  9
$HANDLING
 70
     1
  9
$HANDSEED
  5
   78E
  9
$SURFTAB1
 70
     6
  9
$SURFTAB2
 70
     6
  9
$SURFTYPE
 70
     6
  9
$SURFU
 70
     6
  9
$SURFV
 70
     6
  9
$UCSNAME
  2

  9
$UCSORG
 10
0.0
 20
0.0
 30
0.0
  9
$UCSXDIR
 10
1.0
 20
0.0
 30
0.0
  9
$UCSYDIR
 10
0.0
 20
1.0
 30
0.0
  9
$PUCSNAME
  2

  9
$PUCSORG
 10
0.0
 20
0.0
 30
0.0
  9
$PUCSXDIR
 10
1.0
 20
0.0
 30
0.0
  9
$PUCSYDIR
 10
0.0
 20
1.0
 30
0.0
  9
$USERI1
 70
     0
  9
$USERI2
 70
     0
  9
$USERI3
 70
     0
  9
$USERI4
 70
     0
  9
$USERI5
 70
     0
  9
$USERR1
 40
0.0
  9
$USERR2
 40
0.0
  9
$USERR3
 40
0.0
  9
$USERR4
 40
0.0
  9
$USERR5
 40
0.0
  9
$WORLDVIEW
 70
     1
  9
$SHADEDGE
 70
     3
  9
$SHADEDIF
 70
    70
  9
$TILEMODE
 70
     1
  9
$MAXACTVP
 70
    16
  9
$PINSBASE
 10
0.0
 20
0.0
 30
0.0
  9
$PLIMCHECK
 70
     0
  9
$PEXTMIN
 10
1.0E20
 20
1.0E20
 30
1.0E20
  9
$PEXTMAX
 10
-1.0E20
 20
-1.0E20
 30
-1.0E20
  9
$PLIMMIN
 10
0.0
 20
0.0
  9
$PLIMMAX
 10
12.0
 20
9.0
  9
$UNITMODE
 70
     0
  9
$VISRETAIN
 70
     0
  0
ENDSEC
  0
SECTION
  2
TABLES
  0
TABLE
  2
VPORT
 70
     1
  0
VPORT
  2
*ACTIVE
 70
     0
 10
0.0
 20
0.0
 11
1.0
 21
1.0
 12
6.801242
 22
4.5
 13
0.0
 23
0.0
 14
1.0
 24
1.0
 15
0.0
 25
0.0
 16
0.0
 26
0.0
 36
1.0
 17
0.0
 27
0.0
 37
0.0
 40
9.0
 41
1.511387
 42
50.0
 43
0.0
 44
0.0
 50
0.0
 51
0.0
 71
     0
 72
   100
 73
     1
 74
     1
 75
     0
 76
     0
 77
     0
 78
     0
  0
ENDTAB
  0
TABLE
  2
LTYPE
 70
    41
  0
LTYPE
  2
BYBLOCK
 70
     0
  3

 72
    65
 73
     0
 40
0.0
  0
LTYPE
  2
BYLAYER
 70
     0
  3

 72
    65
 73
     0
 40
0.0
  0
LTYPE
  2
CONTINUOUS
 70
     0
  3
Solid line
 72
    65
 73
     0
 40
0.0
  0
LTYPE
  2
BORDER
 70
    64
  3
__ __ . __ __ . __ __ . __ __ . __ __ . __ __ .
 72
    65
 73
     6
 40
1.75
 49
0.5
 49
-0.25
 49
0.5
 49
-0.25
 49
0.0
 49
-0.25
  0
LTYPE
  2
BORDER2
 70
    64
  3
__.__.__.__.__.__.__.__.__.__.__.__.__.__.__.__
 72
    65
 73
     6
 40
0.875
 49
0.25
 49
-0.125
 49
0.25
 49
-0.125
 49
0.0
 49
-0.125
  0
LTYPE
  2
BORDERX2
 70
    64
  3
____  ____  .  ____  ____  .  ____  ____  .  __
 72
    65
 73
     6
 40
3.5
 49
1.0
 49
-0.5
 49
1.0
 49
-0.5
 49
0.0
 49
-0.5
  0
LTYPE
  2
CENTER
 70
    64
  3
____ _ ____ _ ____ _ ____ _ ____ _ ____ _ ____
 72
    65
 73
     4
 40
2.0
 49
1.25
 49
-0.25
 49
0.25
 49
-0.25
  0
LTYPE
  2
CENTER2
 70
    64
  3
___ _ ___ _ ___ _ ___ _ ___ _ ___ _ ___ _ ___ _
 72
    65
 73
     4
 40
1.125
 49
0.75
 49
-0.125
 49
0.125
 49
-0.125
  0
LTYPE
  2
CENTERX2
 70
    64
  3
________  __  ________  __  ________  __  _____
 72
    65
 73
     4
 40
4.0
 49
2.5
 49
-0.5
 49
0.5
 49
-0.5
  0
LTYPE
  2
DASHDOT
 70
    64
  3
__ . __ . __ . __ . __ . __ . __ . __ . __ . __
 72
    65
 73
     4
 40
1.0
 49
0.5
 49
-0.25
 49
0.0
 49
-0.25
  0
LTYPE
  2
DASHDOT2
 70
    64
  3
_._._._._._._._._._._._._._._._._._._._._._._._
 72
    65
 73
     4
 40
0.5
 49
0.25
 49
-0.125
 49
0.0
 49
-0.125
  0
LTYPE
  2
DASHDOTX2
 70
    64
  3
____  .  ____  .  ____  .  ____  .  ____  .  __
 72
    65
 73
     4
 40
2.0
 49
1.0
 49
-0.5
 49
0.0
 49
-0.5
  0
LTYPE
  2
DASHED
 70
    64
  3
__ __ __ __ __ __ __ __ __ __ __ __ __ __ __ __
 72
    65
 73
     2
 40
0.75
 49
0.5
 49
-0.25
  0
LTYPE
  2
DASHED2
 70
    64
  3
_ _ _ _ _ _ _ _ _ _ _ _ _ _ _ _ _ _ _ _ _ _ _ _
 72
    65
 73
     2
 40
0.375
 49
0.25
 49
-0.125
  0
LTYPE
  2
DASHEDX2
 70
    64
  3
____  ____  ____  ____  ____  ____  ____  ____
 72
    65
 73
     2
 40
1.5
 49
1.0
 49
-0.5
  0
LTYPE
  2
DIVIDE
 70
    64
  3
____ . . ____ . . ____ . . ____ . . ____ . . __
 72
    65
 73
     6
 40
1.25
 49
0.5
 49
-0.25
 49
0.0
 49
-0.25
 49
0.0
 49
-0.25
  0
LTYPE
  2
DIVIDE2
 70
    64
  3
__..__..__..__..__..__..__..__..__..__..__..__.
 72
    65
 73
     6
 40
0.625
 49
0.25
 49
-0.125
 49
0.0
 49
-0.125
 49
0.0
 49
-0.125
  0
LTYPE
  2
DIVIDEX2
 70
    64
  3
________  .  .  ________  .  .  ________  .  .
 72
    65
 73
     6
 40
2.5
 49
1.0
 49
-0.5
 49
0.0
 49
-0.5
 49
0.0
 49
-0.5
  0
LTYPE
  2
DOT
 70
    64
  3
. . . . . . . . . . . . . . . . . . . . . . . .
 72
    65
 73
     2
 40
0.25
 49
0.0
 49
-0.25
  0
LTYPE
  2
DOT2
 70
    64
  3
...............................................
 72
    65
 73
     2
 40
0.125
 49
0.0
 49
-0.125
  0
LTYPE
  2
DOTX2
 70
    64
  3
.  .  .  .  .  .  .  .  .  .  .  .  .  .  .  .
 72
    65
 73
     2
 40
0.5
 49
0.0
 49
-0.5
  0
LTYPE
  2
HIDDEN
 70
    64
  3
__ __ __ __ __ __ __ __ __ __ __ __ __ __ __ __
 72
    65
 73
     2
 40
0.375
 49
0.25
 49
-0.125
  0
LTYPE
  2
HIDDEN2
 70
    64
  3
_ _ _ _ _ _ _ _ _ _ _ _ _ _ _ _ _ _ _ _ _ _ _ _
 72
    65
 73
     2
 40
0.1875
 49
0.125
 49
-0.0625
  0
LTYPE
  2
HIDDENX2
 70
    64
  3
____ ____ ____ ____ ____ ____ ____ ____ ____ __
 72
    65
 73
     2
 40
0.75
 49
0.5
 49
-0.25
  0
LTYPE
  2
PHANTOM
 70
    64
  3
______  __  __  ______  __  __  ______  __  __
 72
    65
 73
     6
 40
2.5
 49
1.25
 49
-0.25
 49
0.25
 49
-0.25
 49
0.25
 49
-0.25
  0
LTYPE
  2
PHANTOM2
 70
    64
  3
___ _ _ ___ _ _ ___ _ _ ___ _ _ ___ _ _ ___ _ _
 72
    65
 73
     6
 40
1.25
 49
0.625
 49
-0.125
 49
0.125
 49
-0.125
 49
0.125
 49
-0.125
  0
LTYPE
  2
PHANTOMX2
 70
    64
  3
____________    ____    ____    ____________
 72
    65
 73
     6
 40
5.0
 49
2.5
 49
-0.5
 49
0.5
 49
-0.5
 49
0.5
 49
-0.5
  0
LTYPE
  2
ACAD_ISO02W100
 70
    64
  3
__ __ __ __ __ __ __ __ __ __ __ __ __ __ __ __
 72
    65
 73
     2
 40
15.0
 49
12.0
 49
-3.0
  0
LTYPE
  2
ACAD_ISO03W100
 70
    64
  3
__    __    __    __    __    __    __    __
 72
    65
 73
     2
 40
30.0
 49
12.0
 49
-18.0
  0
LTYPE
  2
ACAD_ISO04W100
 70
    64
  3
____ . ____ . ____ . ____ . ____ . ____ . ____
 72
    65
 73
     4
 40
30.5
 49
24.0
 49
-3.0
 49
0.5
 49
-3.0
  0
LTYPE
  2
ACAD_ISO05W100
 70
    64
  3
____ .. ____ .. ____ .. ____ .. ____ .. ____ ..
 72
    65
 73
     6
 40
34.0
 49
24.0
 49
-3.0
 49
0.5
 49
-3.0
 49
0.5
 49
-3.0
  0
LTYPE
  2
ACAD_ISO06W100
 70
    64
  3
____ ... ____ ... ____ ... ____ ... ____ ... __
 72
    65
 73
     8
 40
37.5
 49
24.0
 49
-3.0
 49
0.5
 49
-3.0
 49
0.5
 49
-3.0
 49
0.5
 49
-3.0
  0
LTYPE
  2
ACAD_ISO07W100
 70
    64
  3
. . . . . . . . . . . . . . . . . . . . . . . .
 72
    65
 73
     2
 40
3.5
 49
0.5
 49
-3.0
  0
LTYPE
  2
ACAD_ISO08W100
 70
    64
  3
____ __ ____ __ ____ __ ____ ____ __ __ ____ __
 72
    65
 73
     4
 40
36.0
 49
24.0
 49
-3.0
 49
6.0
 49
-3.0
  0
LTYPE
  2
ACAD_ISO09W100
 70
    64
  3
____ __ __ ____ __ __ ____ __ __ ____ __ __ ___
 72
    65
 73
     6
 40
45.0
 49
24.0
 49
-3.0
 49
6.0
 49
-3.0
 49
6.0
 49
-3.0
  0
LTYPE
  2
ACAD_ISO10W100
 70
    64
  3
__ . __ . __ . __ . __ . __ . __ . __ . __ . __
 72
    65
 73
     4
 40
18.5
 49
12.0
 49
-3.0
 49
0.5
 49
-3.0
  0
LTYPE
  2
ACAD_ISO11W100
 70
    64
  3
__ __ . __ __ . __ __ . __ __ . __ __ . __ __ .
 72
    65
 73
     6
 40
33.5
 49
12.0
 49
-3.0
 49
12.0
 49
-3.0
 49
0.5
 49
-3.0
  0
LTYPE
  2
ACAD_ISO12W100
 70
    64
  3
__ . . __ . . __ . . __ . . __ . . __ . . __ .
 72
    65
 73
     6
 40
22.0
 49
12.0
 49
-3.0
 49
0.5
 49
-3.0
 49
0.5
 49
-3.0
  0
LTYPE
  2
ACAD_ISO13W100
 70
    64
  3
__ __ . . __ __ . . __ __ . . __ __ . . __ __ .
 72
    65
 73
     8
 40
37.0
 49
12.0
 49
-3.0
 49
12.0
 49
-3.0
 49
0.5
 49
-3.0
 49
0.5
 49
-3.0
  0
LTYPE
  2
ACAD_ISO14W100
 70
    64
  3
__ . . . __ . . . __ . . . __ . . . __ . . . __
 72
    65
 73
     8
 40
25.5
 49
12.0
 49
-3.0
 49
0.5
 49
-3.0
 49
0.5
 49
-3.0
 49
0.5
 49
-3.0
  0
LTYPE
  2
ACAD_ISO15W100
 70
    64
  3
__ __ . . . __ __ . . . __ __ . . . __ __ . . .
 72
    65
 73
    10
 40
40.5
 49
12.0
 49
-3.0
 49
12.0
 49
-3.0
 49
0.5
 49
-3.0
 49
0.5
 49
-3.0
 49
0.5
 49
-3.0
  0
ENDTAB
  0
TABLE
  2
STYLE
 70
     4
  0
STYLE
  2
STANDARD
 70
    64
 40
0.0
 41
1.0
 50
0.0
 71
     0
 42
0.2
  3
txt
  4

  0
STYLE
  2
TOLERANCE
 70
    64
 40
0.0
 41
1.0
 50
0.0
 71
     0
 42
0.2
  3
../igesfont/iges1003.shx
  4

  0
STYLE
  2
ROMANS
 70
    64
 40
0.0
 41
1.0
 50
0.0
 71
     0
 42
0.2
  3
romans.shx
  4

  0
STYLE
  2
ROMANC
 70
    64
 40
0.0
 41
1.0
 50
0.0
 71
     0
 42
0.2
  3
romanc.shx
  4

  0
ENDTAB
  0
TABLE
  2
DIMSTYLE
 70
     2
  0
DIMSTYLE
  2
UNNAMED
 70
     0
  3

  4

  5

  6

  7

 40
1.0
 41
0.18
 42
0.0625
 43
0.38
 44
0.18
 45
0.0
 46
0.0
 47
0.0
 48
0.0
140
0.18
141
0.09
142
0.0
143
25.4
144
1.0
145
0.0
146
1.0
147
0.09
 71
     0
 72
     0
 73
     1
 74
     1
 75
     0
 76
     0
 77
     0
 78
     0
170
     0
171
     2
172
     0
173
     0
174
     0
175
     0
176
     0
177
     0
178
     0
  0
DIMSTYLE
  2
STANDARD
 70
     0
  3

  4

  5

  6

  7

 40
1.0
 41
0.18
 42
0.0625
 43
0.38
 44
0.18
 45
0.0
 46
0.0
 47
0.0
 48
0.0
140
0.18
141
0.09
142
0.0
143
25.4
144
1.0
145
0.0
146
1.0
147
0.09
 71
     0
 72
     0
 73
     1
 74
     1
 75
     0
 76
     0
 77
     0
 78
     0
170
     0
171
     2
172
     0
173
     0
174
     0
175
     0
176
     0
177
     0
178
     0
  0
ENDTAB
  0
TABLE
  2
LAYER
 70
     2
  0
LAYER
  2
0
 70
     0
 62
     7
  6
CONTINUOUS
  0
LAYER
  2
255
 70
     0
 62
     7
  6
CONTINUOUS
  0
ENDTAB
  0
ENDSEC
  0
SECTION
  2
BLOCKS
  0
BLOCK
  5
     B
  8
0
  6
CONTINUOUS
 62
     7
  2
*UDIM418
 70
    65
 10
0.0
 20
0.0
 30
0.0
  3
*UDIM418
  0
TEXT
  5
     C
  8
0
  6
CONTINUOUS
 62
     7
 10
-516.711443839204
 20
-136.025080676325
 30
0.0
 40
3.00000002980232
  1
41
 50
359.999999896069
 41
0.933333333333333
 72
     1
 11
-514.211443811655
 21
-134.525080665946
 31
0.0
 73
     2
  0
LINE
  5
     D
  8
0
  6
CONTINUOUS
 62
     7
 10
-509.35400390625
 20
-137.025080680847
 30
0.0
 11
-519.60400390625
 21
-137.025080680847
 31
0.0
  0
LINE
  5
     E
  8
0
  6
CONTINUOUS
 62
     7
 10
-512.308427183457
 20
-137.546025110799
 30
0.0
 11
-509.35400390625
 21
-137.025080680847
 31
0.0
  0
LINE
  5
     F
  8
0
  6
CONTINUOUS
 62
     7
 10
-509.35400390625
 20
-137.025080680847
 30
0.0
 11
-512.308427183457
 21
-136.504136250896
 31
0.0
  0
LINE
  5
    10
  8
0
  6
CONTINUOUS
 62
     7
 10
-516.649580629043
 20
-136.504136250896
 30
0.0
 11
-519.60400390625
 21
-137.025080680847
 31
0.0
  0
LINE
  5
    11
  8
0
  6
CONTINUOUS
 62
     7
 10
-519.60400390625
 20
-137.025080680847
 30
0.0
 11
-516.649580629043
 21
-137.546025110799
 31
0.0
  0
ENDBLK
  5
    12
  8
0
  6
CONTINUOUS
 62
     7
  0
BLOCK
  5
    13
  8
0
  6
CONTINUOUS
 62
     7
  2
*UDIM419
 70
    65
 10
0.0
 20
0.0
 30
0.0
  3
*UDIM419
  0
TEXT
  5
    14
  8
0
  6
CONTINUOUS
 62
     7
 10
-554.781745922756
 20
-106.83356597198
 30
0.0
 40
3.00000002980232
  1
65,75
 50
449.999999896069
 41
0.933333333333333
 72
     1
 11
-556.281745925546
 21
-100.13356590271
 31
0.0
 73
     2
  0
LINE
  5
    15
  8
0
  6
CONTINUOUS
 62
     7
 10
-544.400545425388
 20
-109.73356628418
 30
0.0
 11
-555.781745910645
 21
-109.73356628418
 31
0.0
  0
LINE
  5
    16
  8
0
  6
CONTINUOUS
 62
     7
 10
-553.781745910645
 20
-93.4335658361515
 30
0.0
 11
-553.781745910645
 21
-126.17106628418
 31
0.0
  0
LINE
  5
    17
  8
0
  6
CONTINUOUS
 62
     7
 10
-553.260801480693
 20
-112.687989561387
 30
0.0
 11
-553.781745910645
 21
-109.73356628418
 31
0.0
  0
LINE
  5
    18
  8
0
  6
CONTINUOUS
 62
     7
 10
-553.781745910645
 20
-109.73356628418
 30
0.0
 11
-554.302690340596
 21
-112.687989561387
 31
0.0
  0
LINE
  5
    19
  8
0
  6
CONTINUOUS
 62
     7
 10
-554.302690340596
 20
-123.216643006973
 30
0.0
 11
-553.781745910645
 21
-126.17106628418
 31
0.0
  0
LINE
  5
    1A
  8
0
  6
CONTINUOUS
 62
     7
 10
-553.781745910645
 20
-126.17106628418
 30
0.0
 11
-553.260801480693
 21
-123.216643006973
 31
0.0
  0
ENDBLK
  5
    1B
  8
0
  6
CONTINUOUS
 62
     7
  0
BLOCK
  5
    1C
  8
0
  6
CONTINUOUS
 62
     7
  2
*UDIM420
 70
    65
 10
0.0
 20
0.0
 30
0.0
  3
*UDIM420
  0
TEXT
  5
    1D
  8
0
  6
CONTINUOUS
 62
     7
 10
-528.154003953667
 20
-102.028617851832
 30
0.0
 40
3.00000002980232
  1
117
 50
359.999999896069
 41
0.933333333333333
 72
     1
 11
-524.25400391221
 21
-100.528617843986
 31
0.0
 73
     2
  0
LINE
  5
    1E
  8
0
  6
CONTINUOUS
 62
     7
 10
-509.35400390625
 20
-104.58818066462
 30
0.0
 11
-509.35400390625
 21
-101.028617858887
 31
0.0
  0
LINE
  5
    1F
  8
0
  6
CONTINUOUS
 62
     7
 10
-538.60400390625
 20
-104.280522723952
 30
0.0
 11
-538.60400390625
 21
-101.028617858887
 31
0.0
  0
LINE
  5
    20
  8
0
  6
CONTINUOUS
 62
     7
 10
-509.35400390625
 20
-103.028617858887
 30
0.0
 11
-538.60400390625
 21
-103.028617858887
 31
0.0
  0
LINE
  5
    21
  8
0
  6
CONTINUOUS
 62
     7
 10
-512.308427183457
 20
-103.549562288838
 30
0.0
 11
-509.35400390625
 21
-103.028617858887
 31
0.0
  0
LINE
  5
    22
  8
0
  6
CONTINUOUS
 62
     7
 10
-509.35400390625
 20
-103.028617858887
 30
0.0
 11
-512.308427183457
 21
-102.507673428935
 31
0.0
  0
LINE
  5
    23
  8
0
  6
CONTINUOUS
 62
     7
 10
-535.649580629043
 20
-102.507673428935
 30
0.0
 11
-538.60400390625
 21
-103.028617858887
 31
0.0
  0
LINE
  5
    24
  8
0
  6
CONTINUOUS
 62
     7
 10
-538.60400390625
 20
-103.028617858887
 30
0.0
 11
-535.649580629043
 21
-103.549562288838
 31
0.0
  0
ENDBLK
  5
    25
  8
0
  6
CONTINUOUS
 62
     7
  0
BLOCK
  5
    26
  8
0
  6
CONTINUOUS
 62
     7
  2
*UDIM421
 70
    65
 10
0.0
 20
0.0
 30
0.0
  3
*UDIM421
  0
TEXT
  5
    27
  8
0
  6
CONTINUOUS
 62
     7
 10
-565.407321936982
 20
-130.783565858615
 30
0.0
 40
3.00000002980232
  1
135
 50
449.999999896069
 41
0.933333333333333
 72
     1
 11
-566.907321944833
 21
-126.88356581716
 31
0.0
 73
     2
  0
LINE
  5
    28
  8
0
  6
CONTINUOUS
 62
     7
 10
-544.400545425387
 20
-109.733565406188
 30
0.0
 11
-566.407321929931
 21
-109.733546084415
 31
0.0
  0
LINE
  5
    29
  8
0
  6
CONTINUOUS
 62
     7
 10
-543.785229544051
 20
-143.483565431173
 30
0.0
 11
-566.407321929931
 21
-143.483546134387
 31
0.0
  0
LINE
  5
    2A
  8
0
  6
CONTINUOUS
 62
     7
 10
-564.407321929932
 20
-109.733547840399
 30
0.0
 11
-564.407321929932
 21
-143.483547840399
 31
0.0
  0
LINE
  5
    2B
  8
0
  6
CONTINUOUS
 62
     7
 10
-563.88637749998
 20
-112.687971117606
 30
0.0
 11
-564.407321929932
 21
-109.733547840399
 31
0.0
  0
LINE
  5
    2C
  8
0
  6
CONTINUOUS
 62
     7
 10
-564.407321929932
 20
-109.733547840399
 30
0.0
 11
-564.928266359883
 21
-112.687971117606
 31
0.0
  0
LINE
  5
    2D
  8
0
  6
CONTINUOUS
 62
     7
 10
-564.928266359883
 20
-140.529124563192
 30
0.0
 11
-564.407321929932
 21
-143.483547840399
 31
0.0
  0
LINE
  5
    2E
  8
0
  6
CONTINUOUS
 62
     7
 10
-564.407321929932
 20
-143.483547840399
 30
0.0
 11
-563.88637749998
 21
-140.529124563192
 31
0.0
  0
ENDBLK
  5
    2F
  8
0
  6
CONTINUOUS
 62
     7
  0
BLOCK
  5
    30
  8
0
  6
CONTINUOUS
 62
     7
  2
*UDIM422
 70
    65
 10
0.0
 20
0.0
 30
0.0
  3
*UDIM422
  0
TEXT
  5
    31
  8
0
  6
CONTINUOUS
 62
     7
 10
-569.814026987468
 20
-151.364880043229
 30
0.0
 40
3.00000002980232
  1
5
 50
375.952553124937
 41
0.933333333333334
 72
     1
 11
-569.168650250864
 21
-149.620320231531
 31
0.0
 73
     2
  0
TEXT
  5
    32
  8
0
  6
CONTINUOUS
 62
     7
 10
-572.842719307161
 20
-152.230629946618
 30
0.0
 40
3.00000002980232
  1
Ø
 50
375.952553124937
 41
0.933333333333334
 72
     1
 11
-572.197342570557
 21
-150.486070134919
 31
0.0
 73
     2
  0
TEXT
  5
    33
  8
0
  6
CONTINUOUS
 62
     7
 10
-567.169930496542
 20
-150.609066618871
 30
0.0
 40
3.00000002980232
  1
 (M4)
 50
375.952553124937
 41
0.933333333333333
 72
     1
 11
-561.14021181897
 21
-147.325395867117
 31
0.0
 73
     2
  0
LINE
  5
    34
  8
0
  6
CONTINUOUS
 62
     7
 10
-538.003072892333
 20
-143.31179051024
 30
0.0
 11
-572.567878065701
 21
-153.192119570052
 31
0.0
  0
LINE
  5
    35
  8
0
  6
CONTINUOUS
 62
     7
 10
-535.30560258373
 20
-141.998910495081
 30
0.0
 11
-538.003072892333
 21
-143.31179051024
 31
0.0
  0
LINE
  5
    36
  8
0
  6
CONTINUOUS
 62
     7
 10
-538.003072892333
 20
-143.31179051024
 30
0.0
 11
-535.019248559298
 21
-143.000675821433
 31
0.0
  0
LINE
  5
    37
  8
0
  6
CONTINUOUS
 62
     7
 10
-541.90240522877
 20
-144.968222073279
 30
0.0
 11
-539.204934920167
 21
-143.65534205812
 31
0.0
  0
LINE
  5
    38
  8
0
  6
CONTINUOUS
 62
     7
 10
-539.204934920167
 20
-143.65534205812
 30
0.0
 11
-542.188759253202
 21
-143.966456746926
 31
0.0
  0
ENDBLK
  5
    39
  8
0
  6
CONTINUOUS
 62
     7
  0
BLOCK
  5
    3A
  8
0
  6
CONTINUOUS
 62
     7
  2
CS3
 70
    64
 10
0.0
 20
0.0
 30
0.0
  3
CS3
  0
LINE
  5
    3B
  8
0
  6
CONTINUOUS
 62
     7
 10
167.338233238944
 20
198.487045288096
 30
0.0
 11
167.338233238944
 21
235.987045288096
 31
0.0
  0
LINE
  5
    3C
  8
0
  6
CONTINUOUS
 62
     7
 10
27.3382332389722
 20
198.487045288096
 30
0.0
 11
27.3382332389722
 21
235.987045288096
 31
0.0
  0
LINE
  5
    3D
  8
0
  6
CONTINUOUS
 62
     7
 10
28.5882332389722
 20
237.237045288096
 30
0.0
 11
166.088233238944
 21
237.237045288096
 31
0.0
  0
ARC
  5
    3E
  8
0
  6
CONTINUOUS
 62
     7
 10
28.5882332389722
 20
235.987045288096
 30
0.0
 40
1.25
 50
90.0
 51
180.0
  0
ARC
  5
    3F
  8
0
  6
CONTINUOUS
 62
     7
 10
166.088233238944
 20
235.987045288096
 30
0.0
 40
1.25
 50
360.0
 51
450.0
  0
LINE
  5
    40
  8
0
  6
CONTINUOUS
 62
     7
 10
27.3382332389722
 20
200.237045288096
 30
0.0
 11
167.338233238944
 21
200.237045288096
 31
0.0
  0
LINE
  5
    41
  8
0
  6
CONTINUOUS
 62
     7
 10
31.3882334297066
 20
200.237045288096
 30
0.0
 11
31.3882334297066
 21
237.237045288096
 31
0.0
  0
LINE
  5
    42
  8
0
  6
CONTINUOUS
 62
     7
 10
38.5882332389718
 20
200.237045288096
 30
0.0
 11
38.5882332389718
 21
237.237045288096
 31
0.0
  0
LINE
  5
    43
  8
0
  6
CONTINUOUS
 62
     7
 10
45.788230187214
 20
200.237045288096
 30
0.0
 11
45.788230187214
 21
237.237045288096
 31
0.0
  0
LINE
  5
    44
  8
0
  6
CONTINUOUS
 62
     7
 10
56.5882332389718
 20
200.237045288096
 30
0.0
 11
56.5882332389718
 21
237.237045288096
 31
0.0
  0
LINE
  5
    45
  8
0
  6
CONTINUOUS
 62
     7
 10
60.1882240836983
 20
200.237045288096
 30
0.0
 11
60.1882240836983
 21
237.237045288096
 31
0.0
  0
LINE
  5
    46
  8
0
  6
CONTINUOUS
 62
     7
 10
34.9882338111766
 20
200.237045288096
 30
0.0
 11
34.9882338111766
 21
237.237045288096
 31
0.0
  0
LINE
  5
    47
  8
0
  6
CONTINUOUS
 62
     7
 10
42.1882336204417
 20
200.237045288096
 30
0.0
 11
42.1882336204417
 21
237.237045288096
 31
0.0
  0
LINE
  5
    48
  8
0
  6
CONTINUOUS
 62
     7
 10
49.3882210319407
 20
200.237045288096
 30
0.0
 11
49.3882210319407
 21
237.237045288096
 31
0.0
  0
LINE
  5
    49
  8
0
  6
CONTINUOUS
 62
     7
 10
52.9882271354563
 20
200.237045288096
 30
0.0
 11
52.9882271354563
 21
237.237045288096
 31
0.0
  0
LINE
  5
    4A
  8
0
  6
CONTINUOUS
 62
     7
 10
63.7882301872142
 20
200.237045288096
 30
0.0
 11
63.7882301872142
 21
237.237045288096
 31
0.0
  0
LINE
  5
    4B
  8
0
  6
CONTINUOUS
 62
     7
 10
67.3882210319407
 20
200.237045288096
 30
0.0
 11
67.3882210319407
 21
237.237045288096
 31
0.0
  0
LINE
  5
    4C
  8
0
  6
CONTINUOUS
 62
     7
 10
70.9882271354563
 20
200.237045288096
 30
0.0
 11
70.9882271354563
 21
237.237045288096
 31
0.0
  0
LINE
  5
    4D
  8
0
  6
CONTINUOUS
 62
     7
 10
74.588233238972
 20
200.237045288096
 30
0.0
 11
74.588233238972
 21
237.237045288096
 31
0.0
  0
LINE
  5
    4E
  8
0
  6
CONTINUOUS
 62
     7
 10
78.1882240836985
 20
200.237045288096
 30
0.0
 11
78.1882240836985
 21
237.237045288096
 31
0.0
  0
LINE
  5
    4F
  8
0
  6
CONTINUOUS
 62
     7
 10
81.7882301872142
 20
200.237045288096
 30
0.0
 11
81.7882301872142
 21
237.237045288096
 31
0.0
  0
LINE
  5
    50
  8
0
  6
CONTINUOUS
 62
     7
 10
85.3882210319407
 20
200.237045288096
 30
0.0
 11
85.3882210319407
 21
237.237045288096
 31
0.0
  0
LINE
  5
    51
  8
0
  6
CONTINUOUS
 62
     7
 10
88.9882271354563
 20
200.237045288096
 30
0.0
 11
88.9882271354563
 21
237.237045288096
 31
0.0
  0
LINE
  5
    52
  8
0
  6
CONTINUOUS
 62
     7
 10
92.5882332389719
 20
200.237045288096
 30
0.0
 11
92.5882332389719
 21
237.237045288096
 31
0.0
  0
LINE
  5
    53
  8
0
  6
CONTINUOUS
 62
     7
 10
96.1882240836985
 20
200.237045288096
 30
0.0
 11
96.1882240836985
 21
237.237045288096
 31
0.0
  0
LINE
  5
    54
  8
0
  6
CONTINUOUS
 62
     7
 10
99.7882301872141
 20
200.237045288096
 30
0.0
 11
99.7882301872141
 21
237.237045288096
 31
0.0
  0
LINE
  5
    55
  8
0
  6
CONTINUOUS
 62
     7
 10
103.388221031941
 20
200.237045288096
 30
0.0
 11
103.388221031941
 21
237.237045288096
 31
0.0
  0
LINE
  5
    56
  8
0
  6
CONTINUOUS
 62
     7
 10
106.988227135456
 20
200.237045288096
 30
0.0
 11
106.988227135456
 21
237.237045288096
 31
0.0
  0
LINE
  5
    57
  8
0
  6
CONTINUOUS
 62
     7
 10
110.588233238972
 20
200.237045288096
 30
0.0
 11
110.588233238972
 21
237.237045288096
 31
0.0
  0
LINE
  5
    58
  8
0
  6
CONTINUOUS
 62
     7
 10
117.788230187214
 20
200.237045288096
 30
0.0
 11
117.788230187214
 21
237.237045288096
 31
0.0
  0
LINE
  5
    59
  8
0
  6
CONTINUOUS
 62
     7
 10
121.388221031941
 20
200.237045288096
 30
0.0
 11
121.388221031941
 21
237.237045288096
 31
0.0
  0
LINE
  5
    5A
  8
0
  6
CONTINUOUS
 62
     7
 10
124.988227135456
 20
200.237045288096
 30
0.0
 11
124.988227135456
 21
237.237045288096
 31
0.0
  0
LINE
  5
    5B
  8
0
  6
CONTINUOUS
 62
     7
 10
128.588233238972
 20
200.237045288096
 30
0.0
 11
128.588233238972
 21
237.237045288096
 31
0.0
  0
LINE
  5
    5C
  8
0
  6
CONTINUOUS
 62
     7
 10
132.188224083699
 20
200.237045288096
 30
0.0
 11
132.188224083699
 21
237.237045288096
 31
0.0
  0
LINE
  5
    5D
  8
0
  6
CONTINUOUS
 62
     7
 10
135.788230187214
 20
200.237045288096
 30
0.0
 11
135.788230187214
 21
237.237045288096
 31
0.0
  0
LINE
  5
    5E
  8
0
  6
CONTINUOUS
 62
     7
 10
139.388221031941
 20
200.237045288096
 30
0.0
 11
139.388221031941
 21
237.237045288096
 31
0.0
  0
LINE
  5
    5F
  8
0
  6
CONTINUOUS
 62
     7
 10
142.988227135456
 20
200.237045288096
 30
0.0
 11
142.988227135456
 21
237.237045288096
 31
0.0
  0
LINE
  5
    60
  8
0
  6
CONTINUOUS
 62
     7
 10
146.588233238972
 20
200.237045288096
 30
0.0
 11
146.588233238972
 21
237.237045288096
 31
0.0
  0
LINE
  5
    61
  8
0
  6
CONTINUOUS
 62
     7
 10
150.188224083699
 20
200.237045288096
 30
0.0
 11
150.188224083699
 21
237.237045288096
 31
0.0
  0
LINE
  5
    62
  8
0
  6
CONTINUOUS
 62
     7
 10
153.788230187214
 20
200.237045288096
 30
0.0
 11
153.788230187214
 21
237.237045288096
 31
0.0
  0
LINE
  5
    63
  8
0
  6
CONTINUOUS
 62
     7
 10
157.388221031941
 20
200.237045288096
 30
0.0
 11
157.388221031941
 21
237.237045288096
 31
0.0
  0
LINE
  5
    64
  8
0
  6
CONTINUOUS
 62
     7
 10
160.988227135456
 20
200.237045288096
 30
0.0
 11
160.988227135456
 21
237.237045288096
 31
0.0
  0
LINE
  5
    65
  8
0
  6
CONTINUOUS
 62
     7
 10
164.588233238972
 20
200.237045288096
 30
0.0
 11
164.588233238972
 21
237.237045288096
 31
0.0
  0
LINE
  5
    66
  8
0
  6
CONTINUOUS
 62
     7
 10
114.188224083699
 20
200.237045288096
 30
0.0
 11
114.188224083699
 21
237.237045288096
 31
0.0
  0
POINT
  5
    67
  8
0
  6
CONTINUOUS
 62
     7
 10
114.838250494329
 20
199.737045288096
 30
0.0
  0
ENDBLK
  5
    68
  8
0
  6
CONTINUOUS
 62
     7
  0
BLOCK
  5
    69
  8
0
  6
CONTINUOUS
 62
     7
  2
MOSTRA
 70
    64
 10
0.0
 20
0.0
 30
0.0
  3
MOSTRA
  0
LINE
  5
    6A
  8
0
  6
CONTINUOUS
 62
     2
 10
175.338317871094
 20
34.312744140625
 30
0.0
 11
210.838317871094
 21
34.312744140625
 31
0.0
  0
LINE
  5
    6B
  8
0
  6
CONTINUOUS
 62
     2
 10
175.338317871094
 20
49.312744140625
 30
0.0
 11
210.838317871094
 21
49.312744140625
 31
0.0
  0
LINE
  5
    6C
  8
0
  6
CONTINUOUS
 62
     2
 10
210.838317871094
 20
33.312744140625
 30
0.0
 11
210.838317871094
 21
50.312744140625
 31
0.0
  0
LINE
  5
    6D
  8
0
  6
CONTINUOUS
 62
     2
 10
175.338317871094
 20
34.312744140625
 30
0.0
 11
175.338317871094
 21
49.312744140625
 31
0.0
  0
LINE
  5
    6E
  8
0
  6
CONTINUOUS
 62
     2
 10
210.838317871094
 20
50.312744140625
 30
0.0
 11
210.838317871094
 21
148.306442260742
 31
0.0
  0
LINE
  5
    6F
  8
0
  6
CONTINUOUS
 62
     2
 10
210.838317871094
 20
-10.187255859375
 30
0.0
 11
210.838317871094
 21
33.3127403259278
 31
0.0
  0
LINE
  5
    70
  8
0
  6
CONTINUOUS
 62
     2
 10
37.5883140563965
 20
-11.437255859375
 30
0.0
 11
209.588317871094
 21
-11.437255859375
 31
0.0
  0
LINE
  5
    71
  8
0
  6
CONTINUOUS
 62
     2
 10
36.3383140563965
 20
-10.187255859375
 30
0.0
 11
36.3383140563965
 21
148.306442260742
 31
0.0
  0
LINE
  5
    72
  8
0
  6
CONTINUOUS
 62
     2
 10
175.338317871094
 20
128.562744140625
 30
0.0
 11
175.338317871094
 21
129.562744140625
 31
0.0
  0
LINE
  5
    73
  8
0
  6
CONTINUOUS
 62
     2
 10
45.3383140563965
 20
128.562744140625
 30
0.0
 11
45.3383140563965
 21
129.562744140625
 31
0.0
  0
LINE
  5
    74
  8
0
  6
CONTINUOUS
 62
     2
 10
175.338317871094
 20
8.56274414062501
 30
0.0
 11
175.338317871094
 21
9.56274414062501
 31
0.0
  0
LINE
  5
    75
  8
0
  6
CONTINUOUS
 62
     2
 10
46.3383140563965
 20
8.562744140625
 30
0.0
 11
174.338314056396
 21
8.56274414062501
 31
0.0
  0
LINE
  5
    76
  8
0
  6
CONTINUOUS
 62
     2
 10
45.3383140563965
 20
8.562744140625
 30
0.0
 11
45.3383140563965
 21
9.562744140625
 31
0.0
  0
LINE
  5
    77
  8
0
  6
CONTINUOUS
 62
     2
 10
174.338317871094
 20
-11.437255859375
 30
0.0
 11
174.338317871094
 21
8.56274414062501
 31
0.0
  0
LINE
  5
    78
  8
0
  6
CONTINUOUS
 62
     2
 10
175.338317871094
 20
129.562744140625
 30
0.0
 11
175.338317871094
 21
149.562744140625
 31
0.0
  0
LINE
  5
    79
  8
0
  6
CONTINUOUS
 62
     2
 10
175.338317871094
 20
9.56274414062501
 30
0.0
 11
175.338317871094
 21
33.312744140625
 31
0.0
  0
LINE
  5
    7A
  8
0
  6
CONTINUOUS
 62
     2
 10
175.338317871094
 20
50.312744140625
 30
0.0
 11
175.338317871094
 21
128.562744140625
 31
0.0
  0
LINE
  5
    7B
  8
0
  6
CONTINUOUS
 62
     2
 10
175.338317871094
 20
-11.437255859375
 30
0.0
 11
175.338317871094
 21
8.56274414062501
 31
0.0
  0
LINE
  5
    7C
  8
0
  6
CONTINUOUS
 62
     2
 10
45.3383140563965
 20
129.562744140625
 30
0.0
 11
45.3383140563965
 21
149.562744140625
 31
0.0
  0
LINE
  5
    7D
  8
0
  6
CONTINUOUS
 62
     2
 10
45.3383140563965
 20
9.562744140625
 30
0.0
 11
45.3383140563965
 21
128.562744140625
 31
0.0
  0
LINE
  5
    7E
  8
0
  6
CONTINUOUS
 62
     2
 10
45.3383140563965
 20
-11.437255859375
 30
0.0
 11
45.3383140563965
 21
8.562744140625
 31
0.0
  0
LINE
  5
    7F
  8
0
  6
CONTINUOUS
 62
     2
 10
46.3383140563965
 20
-11.437255859375
 30
0.0
 11
46.3383140563965
 21
8.562744140625
 31
0.0
  0
LINE
  5
    80
  8
0
  6
CONTINUOUS
 62
     2
 10
175.338317871094
 20
33.312744140625
 30
0.0
 11
210.838317871094
 21
33.312744140625
 31
0.0
  0
LINE
  5
    81
  8
0
  6
CONTINUOUS
 62
     2
 10
175.338317871094
 20
50.312744140625
 30
0.0
 11
210.838317871094
 21
50.312744140625
 31
0.0
  0
LINE
  5
    82
  8
0
  6
CONTINUOUS
 62
     2
 10
175.388320922852
 20
49.312744140625
 30
0.0
 11
175.388320922852
 21
50.312744140625
 31
0.0
  0
LINE
  5
    83
  8
0
  6
CONTINUOUS
 62
     2
 10
175.388320922852
 20
33.312744140625
 30
0.0
 11
175.388320922852
 21
34.312744140625
 31
0.0
  0
LINE
  5
    84
  8
0
  6
CONTINUOUS
 62
     2
 10
46.3383140563965
 20
128.562744140625
 30
0.0
 11
174.338314056396
 21
128.562744140625
 31
0.0
  0
LINE
  5
    85
  8
0
  6
CONTINUOUS
 62
     2
 10
46.3383140563965
 20
9.562744140625
 30
0.0
 11
174.338314056396
 21
9.56274414062501
 31
0.0
  0
LINE
  5
    86
  8
0
  6
CONTINUOUS
 62
     2
 10
174.338317871094
 20
9.56274414062501
 30
0.0
 11
174.338317871094
 21
128.562744140625
 31
0.0
  0
LINE
  5
    87
  8
0
  6
CONTINUOUS
 62
     2
 10
46.3383140563965
 20
9.562744140625
 30
0.0
 11
46.3383140563965
 21
128.562744140625
 31
0.0
  0
LINE
  5
    88
  8
0
  6
CONTINUOUS
 62
     2
 10
167.338315963745
 20
121.562743016692
 30
0.0
 11
174.338312295455
 21
128.562739348402
 31
0.0
  0
LINE
  5
    89
  8
0
  6
CONTINUOUS
 62
     2
 10
46.3383156391412
 20
128.562746004959
 30
0.0
 11
62.3383159637451
 21
121.033336629486
 31
0.0
  0
LINE
  5
    8A
  8
0
  6
CONTINUOUS
 62
     2
 10
167.338315963745
 20
16.5627619426901
 30
0.0
 11
174.338335117812
 21
9.56273924827786
 31
0.0
  0
LINE
  5
    8B
  8
0
  6
CONTINUOUS
 62
     2
 10
46.3383186567184
 20
9.56274576222224
 30
0.0
 11
62.3383159637451
 21
17.092157375641
 31
0.0
  0
LINE
  5
    8C
  8
0
  6
CONTINUOUS
 62
     2
 10
174.338256835938
 20
129.556442260742
 30
0.0
 11
174.338256835938
 21
149.556442260742
 31
0.0
  0
LINE
  5
    8D
  8
0
  6
CONTINUOUS
 62
     2
 10
45.3383140563965
 20
129.556442260742
 30
0.0
 11
175.338317871094
 21
129.556442260742
 31
0.0
  0
LINE
  5
    8E
  8
0
  6
CONTINUOUS
 62
     2
 10
37.5883140563965
 20
149.556442260742
 30
0.0
 11
45.3383140563965
 21
149.556442260742
 31
0.0
  0
LINE
  5
    8F
  8
0
  6
CONTINUOUS
 62
     2
 10
115.343585020102
 20
149.556442260742
 30
0.0
 11
175.338317871094
 21
149.556442260742
 31
0.0
  0
ARC
  5
    90
  8
0
  6
CONTINUOUS
 62
     2
 10
110.338285446167
 20
153.703627621259
 30
0.0
 40
6.50016693934245
 50
219.643748317915
 51
320.356251682085
  0
LINE
  5
    91
  8
0
  6
CONTINUOUS
 62
     2
 10
105.332985872232
 20
149.556442260742
 30
0.0
 11
115.343585020102
 21
149.556442260742
 31
0.0
  0
LINE
  5
    92
  8
0
  6
CONTINUOUS
 62
     2
 10
46.3383140563965
 20
129.562744140625
 30
0.0
 11
46.3383140563965
 21
149.562744140625
 31
0.0
  0
LINE
  5
    93
  8
0
  6
CONTINUOUS
 62
     2
 10
45.3383140563965
 20
149.556442260742
 30
0.0
 11
105.332985872232
 21
149.556442260742
 31
0.0
  0
LINE
  5
    94
  8
0
  6
CONTINUOUS
 62
     2
 10
175.338317871094
 20
149.556442260742
 30
0.0
 11
209.588317871094
 21
149.556442260742
 31
0.0
  0
POINT
  5
    95
  8
0
  6
CONTINUOUS
 62
     2
 10
114.838315963745
 20
69.062744140625
 30
0.0
  0
ARC
  5
    96
  8
0
  6
CONTINUOUS
 62
     2
 10
37.5883140563965
 20
148.306442260742
 30
0.0
 40
1.25
 50
90.0
 51
180.0
  0
ARC
  5
    97
  8
0
  6
CONTINUOUS
 62
     2
 10
37.5883140563965
 20
-10.187255859375
 30
0.0
 40
1.25
 50
180.0
 51
270.0
  0
ARC
  5
    98
  8
0
  6
CONTINUOUS
 62
     2
 10
209.588317871094
 20
-10.187255859375
 30
0.0
 40
1.25
 50
270.0
 51
360.0
  0
ARC
  5
    99
  8
0
  6
CONTINUOUS
 62
     2
 10
209.588317871094
 20
148.306442260742
 30
0.0
 40
1.25
 50
0.0
 51
90.0
  0
ENDBLK
  5
    9A
  8
0
  6
CONTINUOUS
 62
     7
  0
BLOCK
  5
    9B
  8
0
  6
CONTINUOUS
 62
     7
  2
*UDIM423
 70
    65
 10
0.0
 20
0.0
 30
0.0
  3
*UDIM423
  0
TEXT
  5
    9C
  8
0
  6
CONTINUOUS
 62
     7
 10
-398.273101903871
 20
17.9503087213189
 30
0.0
 40
2.99999994291904
  1
161
 50
89.9999999480344
 41
0.933333333333333
 72
     1
 11
-399.773101871798
 21
21.8503086484723
 31
0.0
 73
     2
  0
LINE
  5
    9D
  8
0
  6
CONTINUOUS
 62
     7
 10
-387.468510564187
 20
-15.7082101791905
 30
0.0
 11
-399.273101900339
 21
-15.7082101791905
 31
0.0
  0
LINE
  5
    9E
  8
0
  6
CONTINUOUS
 62
     7
 10
-383.826010573426
 20
59.9588277453451
 30
0.0
 11
-399.273101900339
 21
59.9588277453451
 31
0.0
  0
LINE
  5
    9F
  8
0
  6
CONTINUOUS
 62
     7
 10
-397.273101900339
 20
-15.7082101791905
 30
0.0
 11
-397.273101900339
 21
59.9588277453451
 31
0.0
  0
LINE
  5
    A0
  8
0
  6
CONTINUOUS
 62
     7
 10
-397.794046330291
 20
-12.7537869019836
 30
0.0
 11
-397.273101900339
 21
-15.7082101791905
 31
0.0
  0
LINE
  5
    A1
  8
0
  6
CONTINUOUS
 62
     7
 10
-397.273101900339
 20
-15.7082101791905
 30
0.0
 11
-396.752157470387
 21
-12.7537869019836
 31
0.0
  0
LINE
  5
    A2
  8
0
  6
CONTINUOUS
 62
     7
 10
-396.752157470387
 20
57.0044044681381
 30
0.0
 11
-397.273101900339
 21
59.9588277453451
 31
0.0
  0
LINE
  5
    A3
  8
0
  6
CONTINUOUS
 62
     7
 10
-397.273101900339
 20
59.9588277453451
 30
0.0
 11
-397.794046330291
 21
57.0044044681381
 31
0.0
  0
ENDBLK
  5
    A4
  8
0
  6
CONTINUOUS
 62
     7
  0
BLOCK
  5
    A5
  8
0
  6
CONTINUOUS
 62
     7
  2
*UDIM424
 70
    65
 10
0.0
 20
0.0
 30
0.0
  3
*UDIM424
  0
TEXT
  5
    A6
  8
0
  6
CONTINUOUS
 62
     7
 10
-330.375974872964
 20
-86.8440840937078
 30
0.0
 40
2.99999994291904
  1
96
 50
359.999999948034
 41
0.933333333333333
 72
     1
 11
-327.875974919178
 21
-85.3440841245032
 31
0.0
 73
     2
  0
LINE
  5
    A7
  8
0
  6
CONTINUOUS
 62
     7
 10
-305.041008977809
 20
-16.1207101806807
 30
0.0
 11
-305.041008977809
 21
-89.8440840959627
 31
0.0
  0
LINE
  5
    A8
  8
0
  6
CONTINUOUS
 62
     7
 10
-305.041008977809
 20
-87.8440840959627
 30
0.0
 11
-350.16094597006
 21
-87.8440840959627
 31
0.0
  0
LINE
  5
    A9
  8
0
  6
CONTINUOUS
 62
     7
 10
-307.995432255016
 20
-88.3650285259144
 30
0.0
 11
-305.041008977809
 21
-87.8440840959627
 31
0.0
  0
LINE
  5
    AA
  8
0
  6
CONTINUOUS
 62
     7
 10
-305.041008977809
 20
-87.8440840959627
 30
0.0
 11
-307.995432255016
 21
-87.323139666011
 31
0.0
  0
LINE
  5
    AB
  8
0
  6
CONTINUOUS
 62
     7
 10
-347.206522692853
 20
-87.323139666011
 30
0.0
 11
-350.16094597006
 21
-87.8440840959627
 31
0.0
  0
LINE
  5
    AC
  8
0
  6
CONTINUOUS
 62
     7
 10
-350.16094597006
 20
-87.8440840959627
 30
0.0
 11
-347.206522692853
 21
-88.3650285259144
 31
0.0
  0
ENDBLK
  5
    AD
  8
0
  6
CONTINUOUS
 62
     7
  0
BLOCK
  5
    AE
  8
0
  6
CONTINUOUS
 62
     7
  2
*UDIM425
 70
    65
 10
0.0
 20
0.0
 30
0.0
  3
*UDIM425
  0
TEXT
  5
    AF
  8
0
  6
CONTINUOUS
 62
     7
 10
-374.183472418515
 20
-86.8440840911824
 30
0.0
 40
2.99999994291904
  1
78,5
 50
359.999999948034
 41
0.933333333333333
 72
     1
 11
-368.883472518005
 21
-85.3440841245032
 31
0.0
 73
     2
  0
LINE
  5
    B0
  8
0
  6
CONTINUOUS
 62
     7
 10
-387.056010562697
 20
-16.1207101806806
 30
0.0
 11
-387.056010562697
 21
-89.8440840959627
 31
0.0
  0
LINE
  5
    B1
  8
0
  6
CONTINUOUS
 62
     7
 10
-350.16094597006
 20
-87.8440840959627
 30
0.0
 11
-387.056010562697
 21
-87.8440840959627
 31
0.0
  0
LINE
  5
    B2
  8
0
  6
CONTINUOUS
 62
     7
 10
-353.115369247267
 20
-88.3650285259144
 30
0.0
 11
-350.16094597006
 21
-87.8440840959627
 31
0.0
  0
LINE
  5
    B3
  8
0
  6
CONTINUOUS
 62
     7
 10
-350.16094597006
 20
-87.8440840959627
 30
0.0
 11
-353.115369247267
 21
-87.323139666011
 31
0.0
  0
LINE
  5
    B4
  8
0
  6
CONTINUOUS
 62
     7
 10
-384.10158728549
 20
-87.323139666011
 30
0.0
 11
-387.056010562697
 21
-87.8440840959627
 31
0.0
  0
LINE
  5
    B5
  8
0
  6
CONTINUOUS
 62
     7
 10
-387.056010562697
 20
-87.8440840959627
 30
0.0
 11
-384.10158728549
 21
-88.3650285259144
 31
0.0
  0
ENDBLK
  5
    B6
  8
0
  6
CONTINUOUS
 62
     7
  0
BLOCK
  5
    B7
  8
0
  6
CONTINUOUS
 62
     7
  2
*UDIM426
 70
    65
 10
0.0
 20
0.0
 30
0.0
  3
*UDIM426
  0
TEXT
  5
    B8
  8
0
  6
CONTINUOUS
 62
     7
 10
-431.125347723561
 20
17.1292538070158
 30
0.0
 40
2.99999994291904
  1
334
 50
89.9999999480344
 41
0.933333333333333
 72
     1
 11
-432.625347691488
 21
21.0292537341691
 31
0.0
 73
     2
  0
LINE
  5
    B9
  8
0
  6
CONTINUOUS
 62
     7
 10
-391.69846776102
 20
-57.1857172456227
 30
0.0
 11
-432.125347720029
 21
-57.1857172456227
 31
0.0
  0
LINE
  5
    BA
  8
0
  6
CONTINUOUS
 62
     7
 10
-391.698500158453
 20
99.794224983171
 30
0.0
 11
-432.125347720029
 21
99.794224983171
 31
0.0
  0
LINE
  5
    BB
  8
0
  6
CONTINUOUS
 62
     7
 10
-430.125347720029
 20
-57.1857172456227
 30
0.0
 11
-430.125347720029
 21
99.794224983171
 31
0.0
  0
LINE
  5
    BC
  8
0
  6
CONTINUOUS
 62
     7
 10
-430.64629214998
 20
-54.2312939684157
 30
0.0
 11
-430.125347720029
 21
-57.1857172456227
 31
0.0
  0
LINE
  5
    BD
  8
0
  6
CONTINUOUS
 62
     7
 10
-430.125347720029
 20
-57.1857172456227
 30
0.0
 11
-429.604403290077
 21
-54.2312939684157
 31
0.0
  0
LINE
  5
    BE
  8
0
  6
CONTINUOUS
 62
     7
 10
-429.604403290077
 20
96.839801705964
 30
0.0
 11
-430.125347720029
 21
99.794224983171
 31
0.0
  0
LINE
  5
    BF
  8
0
  6
CONTINUOUS
 62
     7
 10
-430.125347720029
 20
99.794224983171
 30
0.0
 11
-430.64629214998
 21
96.839801705964
 31
0.0
  0
ENDBLK
  5
    C0
  8
0
  6
CONTINUOUS
 62
     7
  0
BLOCK
  5
    C1
  8
0
  6
CONTINUOUS
 62
     7
  2
*UDIM427
 70
    65
 10
0.0
 20
0.0
 30
0.0
  3
*UDIM427
  0
TEXT
  5
    C2
  8
0
  6
CONTINUOUS
 62
     7
 10
-422.570074426005
 20
52.5855036462771
 30
0.0
 40
2.99999994291904
  1
165,25
 50
89.9999999480344
 41
0.933333333333333
 72
     1
 11
-424.070074390128
 21
60.6855034935171
 31
0.0
 73
     2
  0
LINE
  5
    C3
  8
0
  6
CONTINUOUS
 62
     7
 10
-397.311793982954
 20
22.126789724846
 30
0.0
 11
-423.570074418669
 21
22.126789724846
 31
0.0
  0
LINE
  5
    C4
  8
0
  6
CONTINUOUS
 62
     7
 10
-391.698500158453
 20
99.794224983171
 30
0.0
 11
-423.570074418669
 21
99.794224983171
 31
0.0
  0
LINE
  5
    C5
  8
0
  6
CONTINUOUS
 62
     7
 10
-421.570074418669
 20
22.126789724846
 30
0.0
 11
-421.570074418669
 21
99.794224983171
 31
0.0
  0
LINE
  5
    C6
  8
0
  6
CONTINUOUS
 62
     7
 10
-422.091018848621
 20
25.081213002053
 30
0.0
 11
-421.570074418669
 21
22.126789724846
 31
0.0
  0
LINE
  5
    C7
  8
0
  6
CONTINUOUS
 62
     7
 10
-421.570074418669
 20
22.126789724846
 30
0.0
 11
-421.049129988717
 21
25.081213002053
 31
0.0
  0
LINE
  5
    C8
  8
0
  6
CONTINUOUS
 62
     7
 10
-421.049129988717
 20
96.839801705964
 30
0.0
 11
-421.570074418669
 21
99.794224983171
 31
0.0
  0
LINE
  5
    C9
  8
0
  6
CONTINUOUS
 62
     7
 10
-421.570074418669
 20
99.794224983171
 30
0.0
 11
-422.091018848621
 21
96.839801705964
 31
0.0
  0
ENDBLK
  5
    CA
  8
0
  6
CONTINUOUS
 62
     7
  0
BLOCK
  5
    CB
  8
0
  6
CONTINUOUS
 62
     7
  2
*UDIM428
 70
    65
 10
0.0
 20
0.0
 30
0.0
  3
*UDIM428
  0
TEXT
  5
    CC
  8
0
  6
CONTINUOUS
 62
     7
 10
-405.801741630716
 20
43.7730036686289
 30
0.0
 40
2.99999994291904
  1
127,75
 50
89.9999999480344
 41
0.933333333333333
 72
     1
 11
-407.301741594839
 21
51.8730035158688
 31
0.0
 73
     2
  0
LINE
  5
    CD
  8
0
  6
CONTINUOUS
 62
     7
 10
-397.311793982954
 20
22.126789724846
 30
0.0
 11
-406.80174162338
 21
22.126789724846
 31
0.0
  0
LINE
  5
    CE
  8
0
  6
CONTINUOUS
 62
     7
 10
-391.6984794656
 20
82.1692250278745
 30
0.0
 11
-406.80174162338
 21
82.1692250278745
 31
0.0
  0
LINE
  5
    CF
  8
0
  6
CONTINUOUS
 62
     7
 10
-404.801741623379
 20
22.126789724846
 30
0.0
 11
-404.801741623379
 21
82.1692250278745
 31
0.0
  0
LINE
  5
    D0
  8
0
  6
CONTINUOUS
 62
     7
 10
-405.322686053331
 20
25.081213002053
 30
0.0
 11
-404.801741623379
 21
22.126789724846
 31
0.0
  0
LINE
  5
    D1
  8
0
  6
CONTINUOUS
 62
     7
 10
-404.801741623379
 20
22.126789724846
 30
0.0
 11
-404.280797193428
 21
25.081213002053
 31
0.0
  0
LINE
  5
    D2
  8
0
  6
CONTINUOUS
 62
     7
 10
-404.280797193428
 20
79.2148017506675
 30
0.0
 11
-404.801741623379
 21
82.1692250278745
 31
0.0
  0
LINE
  5
    D3
  8
0
  6
CONTINUOUS
 62
     7
 10
-404.801741623379
 20
82.1692250278745
 30
0.0
 11
-405.322686053331
 21
79.2148017506675
 31
0.0
  0
ENDBLK
  5
    D4
  8
0
  6
CONTINUOUS
 62
     7
  0
BLOCK
  5
    D5
  8
0
  6
CONTINUOUS
 62
     7
  2
*UDIM429
 70
    65
 10
0.0
 20
0.0
 30
0.0
  3
*UDIM429
  0
TEXT
  5
    D6
  8
0
  6
CONTINUOUS
 62
     7
 10
-354.335991562176
 20
108.172154960651
 30
0.0
 40
2.99999994291904
  1
105
 50
359.999999948034
 41
0.933333333333333
 72
     1
 11
-350.435991635028
 21
109.672154928593
 31
0.0
 73
     2
  0
LINE
  5
    D7
  8
0
  6
CONTINUOUS
 62
     7
 10
-325.485984391377
 20
47.566789662855
 30
0.0
 11
-325.485984391377
 21
109.172154957134
 31
0.0
  0
LINE
  5
    D8
  8
0
  6
CONTINUOUS
 62
     7
 10
-374.836011159823
 20
42.1617627829468
 30
0.0
 11
-374.836011159823
 21
109.172154957134
 31
0.0
  0
LINE
  5
    D9
  8
0
  6
CONTINUOUS
 62
     7
 10
-325.485984391377
 20
107.172154957134
 30
0.0
 11
-374.836011159823
 21
107.172154957134
 31
0.0
  0
LINE
  5
    DA
  8
0
  6
CONTINUOUS
 62
     7
 10
-328.440407668583
 20
106.651210527182
 30
0.0
 11
-325.485984391377
 21
107.172154957134
 31
0.0
  0
LINE
  5
    DB
  8
0
  6
CONTINUOUS
 62
     7
 10
-325.485984391377
 20
107.172154957134
 30
0.0
 11
-328.440407668583
 21
107.693099387086
 31
0.0
  0
LINE
  5
    DC
  8
0
  6
CONTINUOUS
 62
     7
 10
-371.881587882616
 20
107.693099387086
 30
0.0
 11
-374.836011159823
 21
107.172154957134
 31
0.0
  0
LINE
  5
    DD
  8
0
  6
CONTINUOUS
 62
     7
 10
-374.836011159823
 20
107.172154957134
 30
0.0
 11
-371.881587882616
 21
106.651210527182
 31
0.0
  0
ENDBLK
  5
    DE
  8
0
  6
CONTINUOUS
 62
     7
  0
BLOCK
  5
    DF
  8
0
  6
CONTINUOUS
 62
     7
  2
*UDIM430
 70
    65
 10
0.0
 20
0.0
 30
0.0
  3
*UDIM430
  0
TEXT
  5
    E0
  8
0
  6
CONTINUOUS
 62
     7
 10
-333.195967697105
 20
-79.2289488438576
 30
0.0
 40
2.99999994291904
  1
84
 50
359.999999948034
 41
0.933333333333333
 72
     1
 11
-330.695967743319
 21
-77.7289488746529
 31
0.0
 73
     2
  0
LINE
  5
    E1
  8
0
  6
CONTINUOUS
 62
     7
 10
-310.680984428928
 20
15.6042395374334
 30
0.0
 11
-310.680984428928
 21
-82.2289488461124
 31
0.0
  0
LINE
  5
    E2
  8
0
  6
CONTINUOUS
 62
     7
 10
-310.680984428928
 20
-80.2289488461124
 30
0.0
 11
-350.16094597006
 21
-80.2289488461124
 31
0.0
  0
LINE
  5
    E3
  8
0
  6
CONTINUOUS
 62
     7
 10
-313.635407706135
 20
-80.7498932760641
 30
0.0
 11
-310.680984428928
 21
-80.2289488461124
 31
0.0
  0
LINE
  5
    E4
  8
0
  6
CONTINUOUS
 62
     7
 10
-310.680984428928
 20
-80.2289488461124
 30
0.0
 11
-313.635407706135
 21
-79.7080044161607
 31
0.0
  0
LINE
  5
    E5
  8
0
  6
CONTINUOUS
 62
     7
 10
-347.206522692853
 20
-79.7080044161607
 30
0.0
 11
-350.16094597006
 21
-80.2289488461124
 31
0.0
  0
LINE
  5
    E6
  8
0
  6
CONTINUOUS
 62
     7
 10
-350.16094597006
 20
-80.2289488461124
 30
0.0
 11
-347.206522692853
 21
-80.7498932760641
 31
0.0
  0
ENDBLK
  5
    E7
  8
0
  6
CONTINUOUS
 62
     7
  0
BLOCK
  5
    E8
  8
0
  6
CONTINUOUS
 62
     7
  2
*UDIM431
 70
    65
 10
0.0
 20
0.0
 30
0.0
  3
*UDIM431
  0
TEXT
  5
    E9
  8
0
  6
CONTINUOUS
 62
     7
 10
-343.398472501144
 20
-72.1418356696104
 30
0.0
 40
2.99999994291904
  1
52,5
 50
359.999999948034
 41
0.933333333333333
 72
     1
 11
-338.098472600634
 21
-70.6418357029312
 31
0.0
 73
     2
  0
LINE
  5
    EA
  8
0
  6
CONTINUOUS
 62
     7
 10
-325.485988148523
 20
-27.4007244953357
 30
0.0
 11
-325.485988148523
 21
-75.1418356743907
 31
0.0
  0
LINE
  5
    EB
  8
0
  6
CONTINUOUS
 62
     7
 10
-325.485988148523
 20
-73.1418356743907
 30
0.0
 11
-350.16094597006
 21
-73.1418356743907
 31
0.0
  0
LINE
  5
    EC
  8
0
  6
CONTINUOUS
 62
     7
 10
-328.44041142573
 20
-73.6627801043424
 30
0.0
 11
-325.485988148523
 21
-73.1418356743907
 31
0.0
  0
LINE
  5
    ED
  8
0
  6
CONTINUOUS
 62
     7
 10
-325.485988148523
 20
-73.1418356743907
 30
0.0
 11
-328.44041142573
 21
-72.620891244439
 31
0.0
  0
LINE
  5
    EE
  8
0
  6
CONTINUOUS
 62
     7
 10
-347.206522692853
 20
-72.620891244439
 30
0.0
 11
-350.16094597006
 21
-73.1418356743907
 31
0.0
  0
LINE
  5
    EF
  8
0
  6
CONTINUOUS
 62
     7
 10
-350.16094597006
 20
-73.1418356743907
 30
0.0
 11
-347.206522692853
 21
-73.6627801043424
 31
0.0
  0
ENDBLK
  5
    F0
  8
0
  6
CONTINUOUS
 62
     7
  0
BLOCK
  5
    F1
  8
0
  6
CONTINUOUS
 62
     7
  2
*UDIM432
 70
    65
 10
0.0
 20
0.0
 30
0.0
  3
*UDIM432
  0
TEXT
  5
    F2
  8
0
  6
CONTINUOUS
 62
     7
 10
-362.560987974384
 20
-94.3727223027198
 30
0.0
 40
2.99999994291904
  1
140
 50
359.999999948034
 41
0.933333333333333
 72
     1
 11
-358.660988047237
 21
-92.8727223347779
 31
0.0
 73
     2
  0
LINE
  5
    F3
  8
0
  6
CONTINUOUS
 62
     7
 10
-325.485988148523
 20
58.9588277453451
 30
0.0
 11
-325.485988148523
 21
-97.3727223062374
 31
0.0
  0
LINE
  5
    F4
  8
0
  6
CONTINUOUS
 62
     7
 10
-391.285982634187
 20
45.8017715455428
 30
0.0
 11
-391.285982634187
 21
-97.3727223062374
 31
0.0
  0
LINE
  5
    F5
  8
0
  6
CONTINUOUS
 62
     7
 10
-325.485988148523
 20
-95.3727223062374
 30
0.0
 11
-391.285982634187
 21
-95.3727223062374
 31
0.0
  0
LINE
  5
    F6
  8
0
  6
CONTINUOUS
 62
     7
 10
-328.44041142573
 20
-95.893666736189
 30
0.0
 11
-325.485988148523
 21
-95.3727223062374
 31
0.0
  0
LINE
  5
    F7
  8
0
  6
CONTINUOUS
 62
     7
 10
-325.485988148523
 20
-95.3727223062374
 30
0.0
 11
-328.44041142573
 21
-94.8517778762857
 31
0.0
  0
LINE
  5
    F8
  8
0
  6
CONTINUOUS
 62
     7
 10
-388.33155935698
 20
-94.8517778762857
 30
0.0
 11
-391.285982634187
 21
-95.3727223062374
 31
0.0
  0
LINE
  5
    F9
  8
0
  6
CONTINUOUS
 62
     7
 10
-391.285982634187
 20
-95.3727223062374
 30
0.0
 11
-388.33155935698
 21
-95.893666736189
 31
0.0
  0
ENDBLK
  5
    FA
  8
0
  6
CONTINUOUS
 62
     7
  0
BLOCK
  5
    FB
  8
0
  6
CONTINUOUS
 62
     7
  2
*UDIM433
 70
    65
 10
0.0
 20
0.0
 30
0.0
  3
*UDIM433
  0
TEXT
  5
    FC
  8
0
  6
CONTINUOUS
 62
     7
 10
-414.100355987415
 20
10.9153152926891
 30
0.0
 40
2.99999994291904
  1
259
 50
89.9999999480344
 41
0.933333333333333
 72
     1
 11
-415.600355955342
 21
14.8153152198425
 31
0.0
 73
     2
  0
LINE
  5
    FD
  8
0
  6
CONTINUOUS
 62
     7
 10
-391.698478840167
 20
-39.5607172903262
 30
0.0
 11
-415.100355983883
 21
-39.5607172903262
 31
0.0
  0
LINE
  5
    FE
  8
0
  6
CONTINUOUS
 62
     7
 10
-391.6984794656
 20
82.1692250278745
 30
0.0
 11
-415.100355983883
 21
82.1692250278745
 31
0.0
  0
LINE
  5
    FF
  8
0
  6
CONTINUOUS
 62
     7
 10
-413.100355983883
 20
-39.5607172903262
 30
0.0
 11
-413.100355983883
 21
82.1692250278745
 31
0.0
  0
LINE
  5
   100
  8
0
  6
CONTINUOUS
 62
     7
 10
-413.621300413835
 20
-36.6062940131192
 30
0.0
 11
-413.100355983883
 21
-39.5607172903262
 31
0.0
  0
LINE
  5
   101
  8
0
  6
CONTINUOUS
 62
     7
 10
-413.100355983883
 20
-39.5607172903262
 30
0.0
 11
-412.579411553931
 21
-36.6062940131192
 31
0.0
  0
LINE
  5
   102
  8
0
  6
CONTINUOUS
 62
     7
 10
-412.579411553931
 20
79.2148017506675
 30
0.0
 11
-413.100355983883
 21
82.1692250278745
 31
0.0
  0
LINE
  5
   103
  8
0
  6
CONTINUOUS
 62
     7
 10
-413.100355983883
 20
82.1692250278745
 30
0.0
 11
-413.621300413835
 21
79.2148017506675
 31
0.0
  0
ENDBLK
  5
   104
  8
0
  6
CONTINUOUS
 62
     7
  0
BLOCK
  5
   105
  8
0
  6
CONTINUOUS
 62
     7
  2
*UDIM434
 70
    65
 10
0.0
 20
0.0
 30
0.0
  3
*UDIM434
  0
TEXT
  5
   106
  8
0
  6
CONTINUOUS
 62
     7
 10
-344.71099636096
 20
-64.3289964890712
 30
0.0
 40
2.99999994291904
  1
35
 50
359.999999948034
 41
0.933333333333333
 72
     1
 11
-342.210996407174
 21
-62.8289965198665
 31
0.0
 73
     2
  0
LINE
  5
   107
  8
0
  6
CONTINUOUS
 62
     7
 10
-333.71098689017
 20
-49.5377464341207
 30
0.0
 11
-333.71099438233
 21
-67.3289964913259
 31
0.0
  0
LINE
  5
   108
  8
0
  6
CONTINUOUS
 62
     7
 10
-350.161007874966
 20
-49.5377500323855
 30
0.0
 11
-350.161015367125
 21
-67.3289964913259
 31
0.0
  0
LINE
  5
   109
  8
0
  6
CONTINUOUS
 62
     7
 10
-333.710993540101
 20
-65.3289964913261
 30
0.0
 11
-350.161014524895
 21
-65.3289964913261
 31
0.0
  0
LINE
  5
   10A
  8
0
  6
CONTINUOUS
 62
     7
 10
-336.665416817308
 20
-65.8499409212777
 30
0.0
 11
-333.710993540101
 21
-65.3289964913261
 31
0.0
  0
LINE
  5
   10B
  8
0
  6
CONTINUOUS
 62
     7
 10
-333.710993540101
 20
-65.3289964913261
 30
0.0
 11
-336.665416817308
 21
-64.8080520613744
 31
0.0
  0
LINE
  5
   10C
  8
0
  6
CONTINUOUS
 62
     7
 10
-347.206591247688
 20
-64.8080520613744
 30
0.0
 11
-350.161014524895
 21
-65.3289964913261
 31
0.0
  0
LINE
  5
   10D
  8
0
  6
CONTINUOUS
 62
     7
 10
-350.161014524895
 20
-65.3289964913261
 30
0.0
 11
-347.206591247688
 21
-65.8499409212777
 31
0.0
  0
ENDBLK
  5
   10E
  8
0
  6
CONTINUOUS
 62
     7
  0
BLOCK
  5
   10F
  8
0
  6
CONTINUOUS
 62
     7
  2
*UDIM435
 70
    65
 10
0.0
 20
0.0
 30
0.0
  3
*UDIM435
  0
TEXT
  5
   110
  8
0
  6
CONTINUOUS
 62
     7
 10
-361.161007057434
 20
-64.3289964890712
 30
0.0
 40
2.99999994291904
  1
35
 50
359.999999948034
 41
0.933333333333333
 72
     1
 11
-358.661007103648
 21
-62.8289965198665
 31
0.0
 73
     2
  0
LINE
  5
   111
  8
0
  6
CONTINUOUS
 62
     7
 10
-366.611009654097
 20
-49.5377352313383
 30
0.0
 11
-366.611019704732
 21
-67.3289964913257
 31
0.0
  0
LINE
  5
   112
  8
0
  6
CONTINUOUS
 62
     7
 10
-350.161014524895
 20
-65.3289964913261
 30
0.0
 11
-366.611018574893
 21
-65.3289964913261
 31
0.0
  0
LINE
  5
   113
  8
0
  6
CONTINUOUS
 62
     7
 10
-353.115437802102
 20
-65.8499409212777
 30
0.0
 11
-350.161014524895
 21
-65.3289964913261
 31
0.0
  0
LINE
  5
   114
  8
0
  6
CONTINUOUS
 62
     7
 10
-350.161014524895
 20
-65.3289964913261
 30
0.0
 11
-353.115437802102
 21
-64.8080520613744
 31
0.0
  0
LINE
  5
   115
  8
0
  6
CONTINUOUS
 62
     7
 10
-363.656595297686
 20
-64.8080520613744
 30
0.0
 11
-366.611018574893
 21
-65.3289964913261
 31
0.0
  0
LINE
  5
   116
  8
0
  6
CONTINUOUS
 62
     7
 10
-366.611018574893
 20
-65.3289964913261
 30
0.0
 11
-363.656595297686
 21
-65.8499409212777
 31
0.0
  0
ENDBLK
  5
   117
  8
0
  6
CONTINUOUS
 62
     7
  0
BLOCK
  5
   118
  8
0
  6
CONTINUOUS
 62
     7
  2
*UDIM436
 70
    65
 10
0.0
 20
0.0
 30
0.0
  3
*UDIM436
  0
TEXT
  5
   119
  8
0
  6
CONTINUOUS
 62
     7
 10
-377.610999865919
 20
-64.3289964890712
 30
0.0
 40
2.99999994291904
  1
35
 50
359.999999948034
 41
0.933333333333333
 72
     1
 11
-375.110999912134
 21
-62.8289965198665
 31
0.0
 73
     2
  0
LINE
  5
   11A
  8
0
  6
CONTINUOUS
 62
     7
 10
-383.061003072782
 20
-49.5377359658964
 30
0.0
 11
-383.061010564946
 21
-67.3289964913259
 31
0.0
  0
LINE
  5
   11B
  8
0
  6
CONTINUOUS
 62
     7
 10
-366.611018574893
 20
-65.3289964913261
 30
0.0
 11
-383.061009722716
 21
-65.3289964913261
 31
0.0
  0
LINE
  5
   11C
  8
0
  6
CONTINUOUS
 62
     7
 10
-369.5654418521
 20
-65.8499409212777
 30
0.0
 11
-366.611018574893
 21
-65.3289964913261
 31
0.0
  0
LINE
  5
   11D
  8
0
  6
CONTINUOUS
 62
     7
 10
-366.611018574893
 20
-65.3289964913261
 30
0.0
 11
-369.5654418521
 21
-64.8080520613744
 31
0.0
  0
LINE
  5
   11E
  8
0
  6
CONTINUOUS
 62
     7
 10
-380.106586445509
 20
-64.8080520613744
 30
0.0
 11
-383.061009722716
 21
-65.3289964913261
 31
0.0
  0
LINE
  5
   11F
  8
0
  6
CONTINUOUS
 62
     7
 10
-383.061009722716
 20
-65.3289964913261
 30
0.0
 11
-380.106586445509
 21
-65.8499409212777
 31
0.0
  0
ENDBLK
  5
   120
  8
0
  6
CONTINUOUS
 62
     7
  0
BLOCK
  5
   121
  8
0
  6
CONTINUOUS
 62
     7
  2
*UDIM437
 70
    65
 10
0.0
 20
0.0
 30
0.0
  3
*UDIM437
  0
TEXT
  5
   122
  8
0
  6
CONTINUOUS
 62
     7
 10
-219.549741742278
 20
100.395758547544
 30
0.0
 40
3.00000002980232
  1
8
 50
406.249477420785
 41
0.933333333333334
 72
     1
 11
-219.872606619224
 21
102.227631452518
 31
0.0
 73
     2
  0
TEXT
  5
   123
  8
0
  6
CONTINUOUS
 62
     7
 10
-221.728028622308
 20
98.1203319214203
 30
0.0
 40
3.00000002980232
  1
Ø
 50
406.249477420785
 41
0.933333333333334
 72
     1
 11
-222.050893499254
 21
99.9522048263945
 31
0.0
 73
     2
  0
TEXT
  5
   124
  8
0
  6
CONTINUOUS
 62
     7
 10
-233.310982763645
 20
86.0208410581535
 30
0.0
 40
3.00000002980232
  1
3 fori
 50
406.249477420785
 41
0.933333333333333
 72
     1
 11
-228.793210082862
 21
92.909217597878
 31
0.0
 73
     2
  0
LINE
  5
   125
  8
0
  6
CONTINUOUS
 62
     7
 10
-217.306040852381
 20
101.293425766914
 30
0.0
 11
-241.773001575867
 21
75.7353716827907
 31
0.0
  0
LINE
  5
   126
  8
0
  6
CONTINUOUS
 62
     7
 10
-238.72322876129
 20
79.6744805779976
 30
0.0
 11
-240.389962291321
 21
77.1800869964085
 31
0.0
  0
LINE
  5
   127
  8
0
  6
CONTINUOUS
 62
     7
 10
-240.389962291321
 20
77.1800869964085
 30
0.0
 11
-237.970612365795
 21
78.9539939663089
 31
0.0
  0
LINE
  5
   128
  8
0
  6
CONTINUOUS
 62
     7
 10
-243.439735105897
 20
73.2409781012016
 30
0.0
 11
-241.773001575867
 21
75.7353716827907
 31
0.0
  0
LINE
  5
   129
  8
0
  6
CONTINUOUS
 62
     7
 10
-241.773001575867
 20
75.7353716827907
 30
0.0
 11
-244.192351501392
 21
73.9614647128904
 31
0.0
  0
ENDBLK
  5
   12A
  8
0
  6
CONTINUOUS
 62
     7
  0
BLOCK
  5
   12B
  8
0
  6
CONTINUOUS
 62
     7
  2
*UDIM438
 70
    65
 10
0.0
 20
0.0
 30
0.0
  3
*UDIM438
  0
TEXT
  5
   12C
  8
0
  6
CONTINUOUS
 62
     7
 10
-283.101008632713
 20
91.0567091540234
 30
0.0
 40
3.00000002980232
  1
7
 50
309.575716497684
 41
0.933333333333334
 72
     1
 11
-281.244026512654
 21
91.1644935430941
 31
0.0
 73
     2
  0
TEXT
  5
   12D
  8
0
  6
CONTINUOUS
 62
     7
 10
-285.649398131807
 20
94.139842495176
 30
0.0
 40
3.00000002980232
  1
Ø
 50
309.575716497684
 41
1.2
 72
     1
 11
-283.53757706196
 21
93.9393135487427
 31
0.0
 73
     2
  0
LINE
  5
   12E
  8
0
  6
CONTINUOUS
 62
     7
 10
-286.420181461724
 20
93.502745119203
 30
0.0
 11
-268.588534883457
 21
71.9293772795374
 31
0.0
  0
LINE
  5
   12F
  8
0
  6
CONTINUOUS
 62
     7
 10
-275.333588772401
 20
78.8710445089264
 30
0.0
 11
-272.88894213255
 21
77.1321647528003
 31
0.0
  0
LINE
  5
   130
  8
0
  6
CONTINUOUS
 62
     7
 10
-272.88894213255
 20
77.1321647528003
 30
0.0
 11
-274.136628308123
 21
79.8604021338369
 31
0.0
  0
LINE
  5
   131
  8
0
  6
CONTINUOUS
 62
     7
 10
-269.329375094786
 20
74.0444141702729
 30
0.0
 11
-271.774021734637
 21
75.7832939263989
 31
0.0
  0
LINE
  5
   132
  8
0
  6
CONTINUOUS
 62
     7
 10
-271.774021734637
 20
75.7832939263989
 30
0.0
 11
-270.526335559065
 21
73.0550565453624
 31
0.0
  0
ENDBLK
  5
   133
  8
0
  6
CONTINUOUS
 62
     7
  0
BLOCK
  5
   134
  8
0
  6
CONTINUOUS
 62
     7
  2
*UDIM439
 70
    65
 10
0.0
 20
0.0
 30
0.0
  3
*UDIM439
  0
TEXT
  5
   135
  8
0
  6
CONTINUOUS
 62
     7
 10
-228.00975708017
 20
30.7589173166391
 30
0.0
 40
3.00000002980232
  1
7
 50
318.580075563147
 41
0.933333333333334
 72
     1
 11
-226.192528890229
 21
31.1560089615141
 31
0.0
 73
     2
  0
TEXT
  5
   136
  8
0
  6
CONTINUOUS
 62
     7
 10
-231.009281329186
 20
33.4052080259108
 30
0.0
 40
3.00000002980232
  1
Ø
 50
318.580075563147
 41
1.2
 72
     1
 11
-228.892100714246
 21
33.5376705984681
 31
0.0
 73
     2
  0
LINE
  5
   137
  8
0
  6
CONTINUOUS
 62
     7
 10
-245.487033142569
 20
44.8444687886872
 30
0.0
 11
-227.021591409824
 21
28.5535763615897
 31
0.0
  0
LINE
  5
   138
  8
0
  6
CONTINUOUS
 62
     7
 10
-244.424299128262
 20
42.8714453010599
 30
0.0
 11
-241.737627858335
 21
41.5366054277616
 31
0.0
  0
LINE
  5
   139
  8
0
  6
CONTINUOUS
 62
     7
 10
-241.737627858335
 20
41.5366054277616
 30
0.0
 11
-243.396933456644
 21
44.0359463271628
 31
0.0
  0
LINE
  5
   13A
  8
0
  6
CONTINUOUS
 62
     7
 10
-237.738664738925
 20
39.0440133781393
 30
0.0
 11
-240.425336008853
 21
40.3788532514376
 31
0.0
  0
LINE
  5
   13B
  8
0
  6
CONTINUOUS
 62
     7
 10
-240.425336008853
 20
40.3788532514376
 30
0.0
 11
-238.766030410544
 21
37.8795123520364
 31
0.0
  0
ENDBLK
  5
   13C
  8
0
  6
CONTINUOUS
 62
     7
  0
BLOCK
  5
   13D
  8
0
  6
CONTINUOUS
 62
     7
  2
*UDIM440
 70
    65
 10
0.0
 20
0.0
 30
0.0
  3
*UDIM440
  0
TEXT
  5
   13E
  8
0
  6
CONTINUOUS
 62
     7
 10
-259.060676654884
 20
20.3645477628976
 30
0.0
 40
3.00000002980232
  1
R min.200
 50
359.999999844103
 41
0.933333333333333
 72
     1
 11
-246.76067652862
 21
21.8645477443933
 31
0.0
 73
     2
  0
LINE
  5
   13F
  8
0
  6
CONTINUOUS
 62
     7
 10
-261.331481933594
 20
34.5625480220482
 30
0.0
 11
-261.331481933594
 21
17.3645477294922
 31
0.0
  0
LINE
  5
   140
  8
0
  6
CONTINUOUS
 62
     7
 10
-232.28897442541
 20
23.6337246048991
 30
0.0
 11
-232.28897442541
 21
17.3645477294922
 31
0.0
  0
LINE
  5
   141
  8
0
  6
CONTINUOUS
 62
     7
 10
-261.331481933594
 20
19.3645477294922
 30
0.0
 11
-232.28897442541
 21
19.3645477294922
 31
0.0
  0
LINE
  5
   142
  8
0
  6
CONTINUOUS
 62
     7
 10
-258.377058656387
 20
19.8854921594438
 30
0.0
 11
-261.331481933594
 21
19.3645477294922
 31
0.0
  0
LINE
  5
   143
  8
0
  6
CONTINUOUS
 62
     7
 10
-261.331481933594
 20
19.3645477294922
 30
0.0
 11
-258.377058656387
 21
18.8436032995405
 31
0.0
  0
LINE
  5
   144
  8
0
  6
CONTINUOUS
 62
     7
 10
-235.243397702617
 20
18.8436032995405
 30
0.0
 11
-232.28897442541
 21
19.3645477294922
 31
0.0
  0
LINE
  5
   145
  8
0
  6
CONTINUOUS
 62
     7
 10
-232.28897442541
 20
19.3645477294922
 30
0.0
 11
-235.243397702617
 21
19.8854921594438
 31
0.0
  0
ENDBLK
  5
   146
  8
0
  6
CONTINUOUS
 62
     7
  0
BLOCK
  5
   147
  8
0
  6
CONTINUOUS
 62
     7
  2
*UDIM441
 70
    65
 10
0.0
 20
0.0
 30
0.0
  3
*UDIM441
  0
TEXT
  5
   148
  8
0
  6
CONTINUOUS
 62
     7
 10
-298.871402754866
 20
62.1952292769164
 30
0.0
 40
3.00000002980232
  1
72,5
 50
449.999999844103
 41
0.933333333333333
 72
     1
 11
-300.37140275538
 21
67.4952293336391
 31
0.0
 73
     2
  0
LINE
  5
   149
  8
0
  6
CONTINUOUS
 62
     7
 10
-269.626481933594
 20
76.8327293395996
 30
0.0
 11
-299.871402740479
 21
76.8327293395996
 31
0.0
  0
LINE
  5
   14A
  8
0
  6
CONTINUOUS
 62
     7
 10
-289.792206696737
 20
58.7077293395996
 30
0.0
 11
-299.871402740479
 21
58.7077293395996
 31
0.0
  0
LINE
  5
   14B
  8
0
  6
CONTINUOUS
 62
     7
 10
-297.871402740479
 20
76.8327293395996
 30
0.0
 11
-297.871402740479
 21
58.7077293395996
 31
0.0
  0
LINE
  5
   14C
  8
0
  6
CONTINUOUS
 62
     7
 10
-297.350458310527
 20
73.8783060623927
 30
0.0
 11
-297.871402740479
 21
76.8327293395996
 31
0.0
  0
LINE
  5
   14D
  8
0
  6
CONTINUOUS
 62
     7
 10
-297.871402740479
 20
76.8327293395996
 30
0.0
 11
-298.39234717043
 21
73.8783060623927
 31
0.0
  0
LINE
  5
   14E
  8
0
  6
CONTINUOUS
 62
     7
 10
-298.39234717043
 20
61.6621526168066
 30
0.0
 11
-297.871402740479
 21
58.7077293395996
 31
0.0
  0
LINE
  5
   14F
  8
0
  6
CONTINUOUS
 62
     7
 10
-297.871402740479
 20
58.7077293395996
 30
0.0
 11
-297.350458310527
 21
61.6621526168066
 31
0.0
  0
ENDBLK
  5
   150
  8
0
  6
CONTINUOUS
 62
     7
  0
BLOCK
  5
   151
  8
0
  6
CONTINUOUS
 62
     7
  2
*UDIM442
 70
    65
 10
0.0
 20
0.0
 30
0.0
  3
*UDIM442
  0
TEXT
  5
   152
  8
0
  6
CONTINUOUS
 62
     7
 10
-251.687369375528
 20
87.5652866431423
 30
0.0
 40
3.00000002980232
  1
45
 50
359.999999844103
 41
0.933333333333333
 72
     1
 11
-249.187369346619
 21
89.0652866512537
 31
0.0
 73
     2
  0
LINE
  5
   153
  8
0
  6
CONTINUOUS
 62
     7
 10
-266.956481933594
 20
79.5027293395996
 30
0.0
 11
-266.956481933594
 21
88.5652866363525
 31
0.0
  0
LINE
  5
   154
  8
0
  6
CONTINUOUS
 62
     7
 10
-255.706481933594
 20
79.5027293395996
 30
0.0
 11
-255.706481933594
 21
88.5652866363525
 31
0.0
  0
LINE
  5
   155
  8
0
  6
CONTINUOUS
 62
     7
 10
-266.956481933594
 20
86.5652866363525
 30
0.0
 11
-246.687369321783
 21
86.5652866363525
 31
0.0
  0
LINE
  5
   156
  8
0
  6
CONTINUOUS
 62
     7
 10
-269.910905210801
 20
86.0443422064009
 30
0.0
 11
-266.956481933594
 21
86.5652866363525
 31
0.0
  0
LINE
  5
   157
  8
0
  6
CONTINUOUS
 62
     7
 10
-266.956481933594
 20
86.5652866363525
 30
0.0
 11
-269.910905210801
 21
87.0862310663042
 31
0.0
  0
LINE
  5
   158
  8
0
  6
CONTINUOUS
 62
     7
 10
-252.752058656387
 20
87.0862310663042
 30
0.0
 11
-255.706481933594
 21
86.5652866363525
 31
0.0
  0
LINE
  5
   159
  8
0
  6
CONTINUOUS
 62
     7
 10
-255.706481933594
 20
86.5652866363525
 30
0.0
 11
-252.752058656387
 21
86.0443422064009
 31
0.0
  0
ENDBLK
  5
   15A
  8
0
  6
CONTINUOUS
 62
     7
  0
BLOCK
  5
   15B
  8
0
  6
CONTINUOUS
 62
     7
  2
*UDIM443
 70
    65
 10
0.0
 20
0.0
 30
0.0
  3
*UDIM443
  0
TEXT
  5
   15C
  8
0
  6
CONTINUOUS
 62
     7
 10
-223.578636187622
 20
61.6077296504389
 30
0.0
 40
3.00000002980232
  1
27,25
 50
449.999999844103
 41
0.933333333333333
 72
     1
 11
-225.078636184335
 21
68.3077297210693
 31
0.0
 73
     2
  0
LINE
  5
   15D
  8
0
  6
CONTINUOUS
 62
     7
 10
-232.338753633457
 20
58.7077293395996
 30
0.0
 11
-220.578636169434
 21
58.7077293395996
 31
0.0
  0
LINE
  5
   15E
  8
0
  6
CONTINUOUS
 62
     7
 10
-235.076175534152
 20
51.8952293395996
 30
0.0
 11
-220.578636169434
 21
51.8952293395996
 31
0.0
  0
LINE
  5
   15F
  8
0
  6
CONTINUOUS
 62
     7
 10
-222.578636169434
 20
75.0077297876279
 30
0.0
 11
-222.578636169434
 21
51.8952293395996
 31
0.0
  0
LINE
  5
   160
  8
0
  6
CONTINUOUS
 62
     7
 10
-223.099580599385
 20
61.6621526168066
 30
0.0
 11
-222.578636169434
 21
58.7077293395996
 31
0.0
  0
LINE
  5
   161
  8
0
  6
CONTINUOUS
 62
     7
 10
-222.578636169434
 20
58.7077293395996
 30
0.0
 11
-222.057691739482
 21
61.6621526168066
 31
0.0
  0
LINE
  5
   162
  8
0
  6
CONTINUOUS
 62
     7
 10
-222.057691739482
 20
48.9408060623926
 30
0.0
 11
-222.578636169434
 21
51.8952293395996
 31
0.0
  0
LINE
  5
   163
  8
0
  6
CONTINUOUS
 62
     7
 10
-222.578636169434
 20
51.8952293395996
 30
0.0
 11
-223.099580599385
 21
48.9408060623926
 31
0.0
  0
ENDBLK
  5
   164
  8
0
  6
CONTINUOUS
 62
     7
  0
BLOCK
  5
   165
  8
0
  6
CONTINUOUS
 62
     7
  2
*UDIM444
 70
    65
 10
0.0
 20
0.0
 30
0.0
  3
*UDIM444
  0
TEXT
  5
   166
  8
0
  6
CONTINUOUS
 62
     7
 10
-217.622348788387
 20
67.1409950344772
 30
0.0
 40
3.00000002980232
  1
=
 50
449.999999844103
 41
0.933333333333334
 72
     1
 11
-219.122348800302
 21
68.2409950494766
 31
0.0
 73
     2
  0
LINE
  5
   167
  8
0
  6
CONTINUOUS
 62
     7
 10
-238.456481933594
 20
76.4577293395996
 30
0.0
 11
-214.6223487854
 21
76.4577293395996
 31
0.0
  0
LINE
  5
   168
  8
0
  6
CONTINUOUS
 62
     7
 10
-238.456481933594
 20
58.7077293395996
 30
0.0
 11
-214.6223487854
 21
58.7077293395996
 31
0.0
  0
LINE
  5
   169
  8
0
  6
CONTINUOUS
 62
     7
 10
-216.6223487854
 20
76.4577293395996
 30
0.0
 11
-216.6223487854
 21
58.7077293395996
 31
0.0
  0
LINE
  5
   16A
  8
0
  6
CONTINUOUS
 62
     7
 10
-216.101404355449
 20
73.5033060623927
 30
0.0
 11
-216.6223487854
 21
76.4577293395996
 31
0.0
  0
LINE
  5
   16B
  8
0
  6
CONTINUOUS
 62
     7
 10
-216.6223487854
 20
76.4577293395996
 30
0.0
 11
-217.143293215352
 21
73.5033060623927
 31
0.0
  0
LINE
  5
   16C
  8
0
  6
CONTINUOUS
 62
     7
 10
-217.143293215352
 20
61.6621526168066
 30
0.0
 11
-216.6223487854
 21
58.7077293395996
 31
0.0
  0
LINE
  5
   16D
  8
0
  6
CONTINUOUS
 62
     7
 10
-216.6223487854
 20
58.7077293395996
 30
0.0
 11
-216.101404355449
 21
61.6621526168066
 31
0.0
  0
ENDBLK
  5
   16E
  8
0
  6
CONTINUOUS
 62
     7
  0
BLOCK
  5
   16F
  8
0
  6
CONTINUOUS
 62
     7
  2
*UDIM445
 70
    65
 10
0.0
 20
0.0
 30
0.0
  3
*UDIM445
  0
TEXT
  5
   170
  8
0
  6
CONTINUOUS
 62
     7
 10
-217.622348788387
 20
49.3909950344772
 30
0.0
 40
3.00000002980232
  1
=
 50
449.999999844103
 41
0.933333333333334
 72
     1
 11
-219.122348800302
 21
50.4909950494766
 31
0.0
 73
     2
  0
LINE
  5
   171
  8
0
  6
CONTINUOUS
 62
     7
 10
-238.456481933594
 20
40.9577293395996
 30
0.0
 11
-214.6223487854
 21
40.9577293395996
 31
0.0
  0
LINE
  5
   172
  8
0
  6
CONTINUOUS
 62
     7
 10
-216.6223487854
 20
58.7077293395996
 30
0.0
 11
-216.6223487854
 21
40.9577293395996
 31
0.0
  0
LINE
  5
   173
  8
0
  6
CONTINUOUS
 62
     7
 10
-216.101404355449
 20
55.7533060623927
 30
0.0
 11
-216.6223487854
 21
58.7077293395996
 31
0.0
  0
LINE
  5
   174
  8
0
  6
CONTINUOUS
 62
     7
 10
-216.6223487854
 20
58.7077293395996
 30
0.0
 11
-217.143293215352
 21
55.7533060623927
 31
0.0
  0
LINE
  5
   175
  8
0
  6
CONTINUOUS
 62
     7
 10
-217.143293215352
 20
43.9121526168066
 30
0.0
 11
-216.6223487854
 21
40.9577293395996
 31
0.0
  0
LINE
  5
   176
  8
0
  6
CONTINUOUS
 62
     7
 10
-216.6223487854
 20
40.9577293395996
 30
0.0
 11
-216.101404355449
 21
43.9121526168066
 31
0.0
  0
ENDBLK
  5
   177
  8
0
  6
CONTINUOUS
 62
     7
  0
BLOCK
  5
   178
  8
0
  6
CONTINUOUS
 62
     7
  2
*UDIM446
 70
    65
 10
0.0
 20
0.0
 30
0.0
  3
*UDIM446
  0
TEXT
  5
   179
  8
0
  6
CONTINUOUS
 62
     7
 10
-291.474821101285
 20
54.5327292908242
 30
0.0
 40
3.00000002980232
  1
126
 50
449.999999844103
 41
0.933333333333333
 72
     1
 11
-292.974821105599
 21
58.4327293336391
 31
0.0
 73
     2
  0
LINE
  5
   17A
  8
0
  6
CONTINUOUS
 62
     7
 10
-280.331481933594
 20
74.4577293395996
 30
0.0
 11
-292.474821090698
 21
74.4577293395996
 31
0.0
  0
LINE
  5
   17B
  8
0
  6
CONTINUOUS
 62
     7
 10
-280.331481933594
 20
42.9577293395996
 30
0.0
 11
-292.474821090698
 21
42.9577293395996
 31
0.0
  0
LINE
  5
   17C
  8
0
  6
CONTINUOUS
 62
     7
 10
-290.474821090698
 20
74.4577293395996
 30
0.0
 11
-290.474821090698
 21
42.9577293395996
 31
0.0
  0
LINE
  5
   17D
  8
0
  6
CONTINUOUS
 62
     7
 10
-289.953876660747
 20
71.5033060623927
 30
0.0
 11
-290.474821090698
 21
74.4577293395996
 31
0.0
  0
LINE
  5
   17E
  8
0
  6
CONTINUOUS
 62
     7
 10
-290.474821090698
 20
74.4577293395996
 30
0.0
 11
-290.99576552065
 21
71.5033060623927
 31
0.0
  0
LINE
  5
   17F
  8
0
  6
CONTINUOUS
 62
     7
 10
-290.99576552065
 20
45.9121526168066
 30
0.0
 11
-290.474821090698
 21
42.9577293395996
 31
0.0
  0
LINE
  5
   180
  8
0
  6
CONTINUOUS
 62
     7
 10
-290.474821090698
 20
42.9577293395996
 30
0.0
 11
-289.953876660747
 21
45.9121526168066
 31
0.0
  0
ENDBLK
  5
   181
  8
0
  6
CONTINUOUS
 62
     7
  0
BLOCK
  5
   182
  8
0
  6
CONTINUOUS
 62
     7
  2
*UDIM447
 70
    65
 10
0.0
 20
0.0
 30
0.0
  3
*UDIM447
  0
TEXT
  5
   183
  8
0
  6
CONTINUOUS
 62
     7
 10
-210.925334941007
 20
54.5327292908242
 30
0.0
 40
3.00000002980232
  1
142
 50
449.999999844103
 41
0.933333333333333
 72
     1
 11
-212.425334945321
 21
58.4327293336391
 31
0.0
 73
     2
  0
LINE
  5
   184
  8
0
  6
CONTINUOUS
 62
     7
 10
-269.706481933594
 20
76.4577293395996
 30
0.0
 11
-207.92533493042
 21
76.4577293395996
 31
0.0
  0
LINE
  5
   185
  8
0
  6
CONTINUOUS
 62
     7
 10
-238.456481933594
 20
40.9577293395996
 30
0.0
 11
-207.92533493042
 21
40.9577293395996
 31
0.0
  0
LINE
  5
   186
  8
0
  6
CONTINUOUS
 62
     7
 10
-209.92533493042
 20
76.4577293395996
 30
0.0
 11
-209.92533493042
 21
40.9577293395996
 31
0.0
  0
LINE
  5
   187
  8
0
  6
CONTINUOUS
 62
     7
 10
-209.404390500468
 20
73.5033060623927
 30
0.0
 11
-209.92533493042
 21
76.4577293395996
 31
0.0
  0
LINE
  5
   188
  8
0
  6
CONTINUOUS
 62
     7
 10
-209.92533493042
 20
76.4577293395996
 30
0.0
 11
-210.446279360372
 21
73.5033060623927
 31
0.0
  0
LINE
  5
   189
  8
0
  6
CONTINUOUS
 62
     7
 10
-210.446279360372
 20
43.9121526168066
 30
0.0
 11
-209.92533493042
 21
40.9577293395996
 31
0.0
  0
LINE
  5
   18A
  8
0
  6
CONTINUOUS
 62
     7
 10
-209.92533493042
 20
40.9577293395996
 30
0.0
 11
-209.404390500468
 21
43.9121526168066
 31
0.0
  0
ENDBLK
  5
   18B
  8
0
  6
CONTINUOUS
 62
     7
  0
BLOCK
  5
   18C
  8
0
  6
CONTINUOUS
 62
     7
  2
*UDIM448
 70
    65
 10
0.0
 20
0.0
 30
0.0
  3
*UDIM448
  0
TEXT
  5
   18D
  8
0
  6
CONTINUOUS
 62
     7
 10
-254.314012534252
 20
49.2054916033159
 30
0.0
 40
3.00000002980232
  1
16
 50
449.999999844103
 41
0.933333333333333
 72
     1
 11
-255.814012542367
 21
51.7054916322231
 31
0.0
 73
     2
  0
LINE
  5
   18E
  8
0
  6
CONTINUOUS
 62
     7
 10
-246.581481933594
 20
53.8952293395996
 30
0.0
 11
-255.314012527466
 21
53.8952293395996
 31
0.0
  0
LINE
  5
   18F
  8
0
  6
CONTINUOUS
 62
     7
 10
-246.581481933594
 20
49.8952293395996
 30
0.0
 11
-255.314012527466
 21
49.8952293395996
 31
0.0
  0
LINE
  5
   190
  8
0
  6
CONTINUOUS
 62
     7
 10
-253.314012527466
 20
54.2054916570584
 30
0.0
 11
-253.314012527466
 21
49.2054916073879
 31
0.0
  0
LINE
  5
   191
  8
0
  6
CONTINUOUS
 62
     7
 10
-253.834956957418
 20
56.8496526168066
 30
0.0
 11
-253.314012527466
 21
53.8952293395996
 31
0.0
  0
LINE
  5
   192
  8
0
  6
CONTINUOUS
 62
     7
 10
-253.314012527466
 20
53.8952293395996
 30
0.0
 11
-252.793068097514
 21
56.8496526168066
 31
0.0
  0
LINE
  5
   193
  8
0
  6
CONTINUOUS
 62
     7
 10
-252.793068097514
 20
46.9408060623926
 30
0.0
 11
-253.314012527466
 21
49.8952293395996
 31
0.0
  0
LINE
  5
   194
  8
0
  6
CONTINUOUS
 62
     7
 10
-253.314012527466
 20
49.8952293395996
 30
0.0
 11
-253.834956957418
 21
46.9408060623926
 31
0.0
  0
ENDBLK
  5
   195
  8
0
  6
CONTINUOUS
 62
     7
  0
BLOCK
  5
   196
  8
0
  6
CONTINUOUS
 62
     7
  2
*UDIM449
 70
    65
 10
0.0
 20
0.0
 30
0.0
  3
*UDIM449
  0
TEXT
  5
   197
  8
0
  6
CONTINUOUS
 62
     7
 10
-252.356481968463
 20
63.25631070816
 30
0.0
 40
3.00000002980232
  1
94
 50
359.999999844103
 41
0.933333333333333
 72
     1
 11
-249.856481939554
 21
64.7563107162714
 31
0.0
 73
     2
  0
LINE
  5
   198
  8
0
  6
CONTINUOUS
 62
     7
 10
-237.831481933594
 20
52.7702293395996
 30
0.0
 11
-237.831481933594
 21
64.2563107013702
 31
0.0
  0
LINE
  5
   199
  8
0
  6
CONTINUOUS
 62
     7
 10
-261.331481933594
 20
62.2563107013702
 30
0.0
 11
-237.831481933594
 21
62.2563107013702
 31
0.0
  0
LINE
  5
   19A
  8
0
  6
CONTINUOUS
 62
     7
 10
-258.377058656387
 20
62.7772551313219
 30
0.0
 11
-261.331481933594
 21
62.2563107013702
 31
0.0
  0
LINE
  5
   19B
  8
0
  6
CONTINUOUS
 62
     7
 10
-261.331481933594
 20
62.2563107013702
 30
0.0
 11
-258.377058656387
 21
61.7353662714186
 31
0.0
  0
LINE
  5
   19C
  8
0
  6
CONTINUOUS
 62
     7
 10
-240.785905210801
 20
61.7353662714186
 30
0.0
 11
-237.831481933594
 21
62.2563107013702
 31
0.0
  0
LINE
  5
   19D
  8
0
  6
CONTINUOUS
 62
     7
 10
-237.831481933594
 20
62.2563107013702
 30
0.0
 11
-240.785905210801
 21
62.7772551313219
 31
0.0
  0
ENDBLK
  5
   19E
  8
0
  6
CONTINUOUS
 62
     7
  0
BLOCK
  5
   19F
  8
0
  6
CONTINUOUS
 62
     7
  2
*UDIM450
 70
    65
 10
0.0
 20
0.0
 30
0.0
  3
*UDIM450
  0
TEXT
  5
   1A0
  8
0
  6
CONTINUOUS
 62
     7
 10
-260.881482012173
 20
27.6495475874963
 30
0.0
 40
3.00000002980232
  1
125
 50
359.999999844103
 41
0.933333333333333
 72
     1
 11
-256.981481969357
 21
29.1495475918055
 31
0.0
 73
     2
  0
LINE
  5
   1A1
  8
0
  6
CONTINUOUS
 62
     7
 10
-272.331481933594
 20
38.3327293395996
 30
0.0
 11
-272.331481933594
 21
24.6495475769043
 31
0.0
  0
LINE
  5
   1A2
  8
0
  6
CONTINUOUS
 62
     7
 10
-241.081481933594
 20
38.3327293395996
 30
0.0
 11
-241.081481933594
 21
24.6495475769043
 31
0.0
  0
LINE
  5
   1A3
  8
0
  6
CONTINUOUS
 62
     7
 10
-272.331481933594
 20
26.6495475769043
 30
0.0
 11
-241.081481933594
 21
26.6495475769043
 31
0.0
  0
LINE
  5
   1A4
  8
0
  6
CONTINUOUS
 62
     7
 10
-269.377058656387
 20
27.170492006856
 30
0.0
 11
-272.331481933594
 21
26.6495475769043
 31
0.0
  0
LINE
  5
   1A5
  8
0
  6
CONTINUOUS
 62
     7
 10
-272.331481933594
 20
26.6495475769043
 30
0.0
 11
-269.377058656387
 21
26.1286031469526
 31
0.0
  0
LINE
  5
   1A6
  8
0
  6
CONTINUOUS
 62
     7
 10
-244.035905210801
 20
26.1286031469526
 30
0.0
 11
-241.081481933594
 21
26.6495475769043
 31
0.0
  0
LINE
  5
   1A7
  8
0
  6
CONTINUOUS
 62
     7
 10
-241.081481933594
 20
26.6495475769043
 30
0.0
 11
-244.035905210801
 21
27.170492006856
 31
0.0
  0
ENDBLK
  5
   1A8
  8
0
  6
CONTINUOUS
 62
     7
  0
BLOCK
  5
   1A9
  8
0
  6
CONTINUOUS
 62
     7
  2
*UDIM451
 70
    65
 10
0.0
 20
0.0
 30
0.0
  3
*UDIM451
  0
TEXT
  5
   1AA
  8
0
  6
CONTINUOUS
 62
     7
 10
-253.981481968463
 20
34.7528019019313
 30
0.0
 40
3.00000002980232
  1
81
 50
359.999999844103
 41
0.933333333333333
 72
     1
 11
-251.481481939554
 21
36.2528019100428
 31
0.0
 73
     2
  0
LINE
  5
   1AB
  8
0
  6
CONTINUOUS
 62
     7
 10
-261.331481933594
 20
34.5625480220482
 30
0.0
 11
-261.331481933594
 21
31.7528018951416
 31
0.0
  0
LINE
  5
   1AC
  8
0
  6
CONTINUOUS
 62
     7
 10
-241.081481933594
 20
38.3327293395996
 30
0.0
 11
-241.081481933594
 21
31.7528018951416
 31
0.0
  0
LINE
  5
   1AD
  8
0
  6
CONTINUOUS
 62
     7
 10
-261.331481933594
 20
33.7528018951416
 30
0.0
 11
-241.081481933594
 21
33.7528018951416
 31
0.0
  0
LINE
  5
   1AE
  8
0
  6
CONTINUOUS
 62
     7
 10
-258.377058656387
 20
34.2737463250933
 30
0.0
 11
-261.331481933594
 21
33.7528018951416
 31
0.0
  0
LINE
  5
   1AF
  8
0
  6
CONTINUOUS
 62
     7
 10
-261.331481933594
 20
33.7528018951416
 30
0.0
 11
-258.377058656387
 21
33.2318574651899
 31
0.0
  0
LINE
  5
   1B0
  8
0
  6
CONTINUOUS
 62
     7
 10
-244.035905210801
 20
33.2318574651899
 30
0.0
 11
-241.081481933594
 21
33.7528018951416
 31
0.0
  0
LINE
  5
   1B1
  8
0
  6
CONTINUOUS
 62
     7
 10
-241.081481933594
 20
33.7528018951416
 30
0.0
 11
-244.035905210801
 21
34.2737463250933
 31
0.0
  0
ENDBLK
  5
   1B2
  8
0
  6
CONTINUOUS
 62
     7
  0
BLOCK
  5
   1B3
  8
0
  6
CONTINUOUS
 62
     7
  2
*UDIM452
 70
    65
 10
0.0
 20
0.0
 30
0.0
  3
*UDIM452
  0
TEXT
  5
   1B4
  8
0
  6
CONTINUOUS
 62
     7
 10
-266.631481982371
 20
103.240993510348
 30
0.0
 40
3.00000002980232
  1
135
 50
359.999999844103
 41
0.933333333333333
 72
     1
 11
-262.731481939554
 21
104.740993514657
 31
0.0
 73
     2
  0
LINE
  5
   1B5
  8
0
  6
CONTINUOUS
 62
     7
 10
-279.331481933594
 20
75.4577293395996
 30
0.0
 11
-279.331481933594
 21
104.240993499756
 31
0.0
  0
LINE
  5
   1B6
  8
0
  6
CONTINUOUS
 62
     7
 10
-245.581481933594
 20
75.4577293395996
 30
0.0
 11
-245.581481933594
 21
104.240993499756
 31
0.0
  0
LINE
  5
   1B7
  8
0
  6
CONTINUOUS
 62
     7
 10
-279.331481933594
 20
102.240993499756
 30
0.0
 11
-245.581481933594
 21
102.240993499756
 31
0.0
  0
LINE
  5
   1B8
  8
0
  6
CONTINUOUS
 62
     7
 10
-276.377058656387
 20
102.761937929708
 30
0.0
 11
-279.331481933594
 21
102.240993499756
 31
0.0
  0
LINE
  5
   1B9
  8
0
  6
CONTINUOUS
 62
     7
 10
-279.331481933594
 20
102.240993499756
 30
0.0
 11
-276.377058656387
 21
101.720049069804
 31
0.0
  0
LINE
  5
   1BA
  8
0
  6
CONTINUOUS
 62
     7
 10
-248.535905210801
 20
101.720049069804
 30
0.0
 11
-245.581481933594
 21
102.240993499756
 31
0.0
  0
LINE
  5
   1BB
  8
0
  6
CONTINUOUS
 62
     7
 10
-245.581481933594
 20
102.240993499756
 30
0.0
 11
-248.535905210801
 21
102.761937929708
 31
0.0
  0
ENDBLK
  5
   1BC
  8
0
  6
CONTINUOUS
 62
     7
  0
BLOCK
  5
   1BD
  8
0
  6
CONTINUOUS
 62
     7
  2
*UDIM453
 70
    65
 10
0.0
 20
0.0
 30
0.0
  3
*UDIM453
  0
TEXT
  5
   1BE
  8
0
  6
CONTINUOUS
 62
     7
 10
-256.2314824453
 20
95.0038948126979
 30
0.0
 40
3.00000002980232
  1
63
 50
359.999999844103
 41
0.933333333333333
 72
     1
 11
-253.731482416391
 21
96.5038948208094
 31
0.0
 73
     2
  0
LINE
  5
   1BF
  8
0
  6
CONTINUOUS
 62
     7
 10
-261.331481933594
 20
85.3352205004547
 30
0.0
 11
-261.331481933594
 21
96.0038948059082
 31
0.0
  0
LINE
  5
   1C0
  8
0
  6
CONTINUOUS
 62
     7
 10
-245.581481933594
 20
75.4577293395996
 30
0.0
 11
-245.581481933594
 21
96.0038948059082
 31
0.0
  0
LINE
  5
   1C1
  8
0
  6
CONTINUOUS
 62
     7
 10
-261.331481933594
 20
94.0038948059082
 30
0.0
 11
-245.581481933594
 21
94.0038948059082
 31
0.0
  0
LINE
  5
   1C2
  8
0
  6
CONTINUOUS
 62
     7
 10
-258.377058656387
 20
94.5248392358599
 30
0.0
 11
-261.331481933594
 21
94.0038948059082
 31
0.0
  0
LINE
  5
   1C3
  8
0
  6
CONTINUOUS
 62
     7
 10
-261.331481933594
 20
94.0038948059082
 30
0.0
 11
-258.377058656387
 21
93.4829503759565
 31
0.0
  0
LINE
  5
   1C4
  8
0
  6
CONTINUOUS
 62
     7
 10
-248.535905210801
 20
93.4829503759565
 30
0.0
 11
-245.581481933594
 21
94.0038948059082
 31
0.0
  0
LINE
  5
   1C5
  8
0
  6
CONTINUOUS
 62
     7
 10
-245.581481933594
 20
94.0038948059082
 30
0.0
 11
-248.535905210801
 21
94.5248392358599
 31
0.0
  0
ENDBLK
  5
   1C6
  8
0
  6
CONTINUOUS
 62
     7
  0
BLOCK
  5
   1C7
  8
0
  6
CONTINUOUS
 62
     7
  2
*HATCH107
 70
    65
 10
0.0
 20
0.0
 30
0.0
  3
*HATCH107
  0
LINE
  5
   1C8
  8
0
  6
CONTINUOUS
 62
    52
 10
-11.7279224395752
 20
1.0
 30
0.0
 11
-11.9763488769531
 21
0.75157368183136
 31
0.0
  0
LINE
  5
   1C9
  8
0
  6
CONTINUOUS
 62
    52
 10
-9.60660171508789
 20
1.0
 30
0.0
 11
-11.6066026687622
 21
-1.0
 31
0.0
  0
LINE
  5
   1CA
  8
0
  6
CONTINUOUS
 62
    52
 10
-7.48528146743774
 20
1.0
 30
0.0
 11
-9.48528289794922
 21
-1.0
 31
0.0
  0
LINE
  5
   1CB
  8
0
  6
CONTINUOUS
 62
    52
 10
-5.3639612197876
 20
1.0
 30
0.0
 11
-7.36396265029907
 21
-1.0
 31
0.0
  0
LINE
  5
   1CC
  8
0
  6
CONTINUOUS
 62
    52
 10
-3.47947335243225
 20
0.763167560100555
 30
0.0
 11
-5.24264097213745
 21
-1.0
 31
0.0
  0
LINE
  5
   1CD
  8
0
  6
CONTINUOUS
 62
    52
 10
-2.51160907745361
 20
-0.390288293361664
 30
0.0
 11
-3.1213207244873
 21
-1.0
 31
0.0
  0
ENDBLK
  5
   1CE
  8
0
  6
CONTINUOUS
 62
     7
  0
BLOCK
  5
   1CF
  8
0
  6
CONTINUOUS
 62
     7
  2
*HATCH108
 70
    65
 10
0.0
 20
0.0
 30
0.0
  3
*HATCH108
  0
LINE
  5
   1D0
  8
0
  6
CONTINUOUS
 62
    52
 10
5.24264097213745
 20
1.0
 30
0.0
 11
3.24264073371887
 21
-1.0
 31
0.0
  0
LINE
  5
   1D1
  8
0
  6
CONTINUOUS
 62
    52
 10
7.3639612197876
 20
1.0
 30
0.0
 11
5.3639612197876
 21
-1.0
 31
0.0
  0
LINE
  5
   1D2
  8
0
  6
CONTINUOUS
 62
    52
 10
9.48528099060059
 20
1.0
 30
0.0
 11
7.4852819442749
 21
-1.0
 31
0.0
  0
ENDBLK
  5
   1D3
  8
0
  6
CONTINUOUS
 62
     7
  0
BLOCK
  5
   1D4
  8
0
  6
CONTINUOUS
 62
     7
  2
*UDIM454
 70
    65
 10
0.0
 20
0.0
 30
0.0
  3
*UDIM454
  0
TEXT
  5
   1D5
  8
0
  6
CONTINUOUS
 62
     7
 10
-410.705675359799
 20
-115.436718059848
 30
0.0
 40
3.00000002980232
  1
80
 50
449.241125536518
 41
0.933333333333333
 72
     1
 11
-412.172432629734
 21
-112.917070608324
 31
0.0
 73
     2
  0
TEXT
  5
   1D6
  8
0
  6
CONTINUOUS
 62
     7
 10
-411.239400394061
 20
-110.429209888402
 30
0.0
 40
3.00000002980232
  1
°
 50
449.241125536518
 41
0.933333333333334
 72
     1
 11
-412.724699923223
 21
-109.309439654195
 31
0.0
 73
     2
  0
LINE
  5
   1D7
  8
0
  6
CONTINUOUS
 62
     7
 10
-427.768104726803
 20
-115.863177423799
 30
0.0
 11
-413.566137560572
 21
-127.780042834975
 31
0.0
  0
LINE
  5
   1D8
  8
0
  6
CONTINUOUS
 62
     7
 10
-427.768104726803
 20
-107.221203679717
 30
0.0
 11
-413.566137560572
 21
-95.3043382685409
 31
0.0
  0
ARC
  5
   1D9
  8
0
  6
CONTINUOUS
 62
     7
 10
-432.91765635511
 20
-111.542190551758
 30
0.0
 40
23.2616136940404
 50
319.999999815233
 51
399.999999769042
  0
LINE
  5
   1DA
  8
0
  6
CONTINUOUS
 62
     7
 10
-413.598226356191
 20
-123.896391456568
 30
0.0
 11
-415.09822644681
 21
-126.494467615602
 31
0.0
  0
LINE
  5
   1DB
  8
0
  6
CONTINUOUS
 62
     7
 10
-415.09822644681
 20
-126.494467615602
 30
0.0
 11
-412.800093184714
 21
-124.566104706384
 31
0.0
  0
LINE
  5
   1DC
  8
0
  6
CONTINUOUS
 62
     7
 10
-412.800093184714
 20
-98.5182763971316
 30
0.0
 11
-415.09822644681
 21
-96.5899134879139
 31
0.0
  0
LINE
  5
   1DD
  8
0
  6
CONTINUOUS
 62
     7
 10
-415.09822644681
 20
-96.5899134879139
 30
0.0
 11
-413.598226356191
 21
-99.1879896469479
 31
0.0
  0
ENDBLK
  5
   1DE
  8
0
  6
CONTINUOUS
 62
     7
  0
BLOCK
  5
   1DF
  8
0
  6
CONTINUOUS
 62
     7
  2
*UDIM455
 70
    65
 10
0.0
 20
0.0
 30
0.0
  3
*UDIM455
  0
TEXT
  5
   1E0
  8
0
  6
CONTINUOUS
 62
     7
 10
-450.979816443554
 20
-105.657123594581
 30
0.0
 40
3.00000002980232
  1
Ø4
 50
449.999999844103
 41
0.933333333333333
 72
     1
 11
-452.479816451669
 21
-103.157123565674
 31
0.0
 73
     2
  0
LINE
  5
   1E1
  8
0
  6
CONTINUOUS
 62
     7
 10
-431.534149169922
 20
-109.542190551758
 30
0.0
 11
-451.979816436768
 21
-109.542190551758
 31
0.0
  0
LINE
  5
   1E2
  8
0
  6
CONTINUOUS
 62
     7
 10
-431.534149169922
 20
-113.542190551758
 30
0.0
 11
-451.979816436768
 21
-113.542190551758
 31
0.0
  0
LINE
  5
   1E3
  8
0
  6
CONTINUOUS
 62
     7
 10
-449.979816436768
 20
-100.657123540839
 30
0.0
 11
-449.979816436768
 21
-113.542190551758
 31
0.0
  0
LINE
  5
   1E4
  8
0
  6
CONTINUOUS
 62
     7
 10
-450.500760866719
 20
-106.587767274551
 30
0.0
 11
-449.979816436768
 21
-109.542190551758
 31
0.0
  0
LINE
  5
   1E5
  8
0
  6
CONTINUOUS
 62
     7
 10
-449.979816436768
 20
-109.542190551758
 30
0.0
 11
-449.458872006816
 21
-106.587767274551
 31
0.0
  0
LINE
  5
   1E6
  8
0
  6
CONTINUOUS
 62
     7
 10
-449.458872006816
 20
-116.496613828965
 30
0.0
 11
-449.979816436768
 21
-113.542190551758
 31
0.0
  0
LINE
  5
   1E7
  8
0
  6
CONTINUOUS
 62
     7
 10
-449.979816436768
 20
-113.542190551758
 30
0.0
 11
-450.500760866719
 21
-116.496613828965
 31
0.0
  0
ENDBLK
  5
   1E8
  8
0
  6
CONTINUOUS
 62
     7
  0
BLOCK
  5
   1E9
  8
0
  6
CONTINUOUS
 62
     7
  2
*HATCH109
 70
    65
 10
0.0
 20
0.0
 30
0.0
  3
*HATCH109
  0
LINE
  5
   1EA
  8
0
  6
CONTINUOUS
 62
    52
 10
187.992431640625
 20
39.5
 30
0.0
 11
185.992431640625
 21
37.5
 31
0.0
  0
LINE
  5
   1EB
  8
0
  6
CONTINUOUS
 62
    52
 10
192.235076904297
 20
39.5
 30
0.0
 11
190.235076904297
 21
37.5
 31
0.0
  0
LINE
  5
   1EC
  8
0
  6
CONTINUOUS
 62
    52
 10
196.477722167969
 20
39.5
 30
0.0
 11
194.477722167969
 21
37.5
 31
0.0
  0
LINE
  5
   1ED
  8
0
  6
CONTINUOUS
 62
    52
 10
200.720367431641
 20
39.5
 30
0.0
 11
198.720367431641
 21
37.5
 31
0.0
  0
LINE
  5
   1EE
  8
0
  6
CONTINUOUS
 62
    52
 10
204.963012695313
 20
39.5
 30
0.0
 11
202.963012695313
 21
37.5
 31
0.0
  0
LINE
  5
   1EF
  8
0
  6
CONTINUOUS
 62
    52
 10
209.205657958984
 20
39.5
 30
0.0
 11
207.205657958984
 21
37.5
 31
0.0
  0
LINE
  5
   1F0
  8
0
  6
CONTINUOUS
 62
    52
 10
213.448303222656
 20
39.5
 30
0.0
 11
211.448303222656
 21
37.5
 31
0.0
  0
LINE
  5
   1F1
  8
0
  6
CONTINUOUS
 62
    52
 10
217.690948486328
 20
39.5
 30
0.0
 11
215.690948486328
 21
37.5
 31
0.0
  0
LINE
  5
   1F2
  8
0
  6
CONTINUOUS
 62
    52
 10
221.93359375
 20
39.5
 30
0.0
 11
219.93359375
 21
37.5
 31
0.0
  0
LINE
  5
   1F3
  8
0
  6
CONTINUOUS
 62
    52
 10
226.176239013672
 20
39.5
 30
0.0
 11
224.176239013672
 21
37.5
 31
0.0
  0
LINE
  5
   1F4
  8
0
  6
CONTINUOUS
 62
    52
 10
229.369522094727
 20
38.4506874084473
 30
0.0
 11
228.418838500977
 21
37.5
 31
0.0
  0
ENDBLK
  5
   1F5
  8
0
  6
CONTINUOUS
 62
     7
  0
BLOCK
  5
   1F6
  8
0
  6
CONTINUOUS
 62
     7
  2
*HATCH110
 70
    65
 10
0.0
 20
0.0
 30
0.0
  3
*HATCH110
  0
LINE
  5
   1F7
  8
0
  6
CONTINUOUS
 62
    52
 10
115.867530822754
 20
39.4999961853027
 30
0.0
 11
113.867530822754
 21
37.4999961853027
 31
0.0
  0
LINE
  5
   1F8
  8
0
  6
CONTINUOUS
 62
    52
 10
120.110176086426
 20
39.4999961853027
 30
0.0
 11
118.110176086426
 21
37.4999961853027
 31
0.0
  0
LINE
  5
   1F9
  8
0
  6
CONTINUOUS
 62
    52
 10
124.352821350098
 20
39.4999961853027
 30
0.0
 11
122.352821350098
 21
37.4999961853027
 31
0.0
  0
LINE
  5
   1FA
  8
0
  6
CONTINUOUS
 62
    52
 10
128.595458984375
 20
39.4999961853027
 30
0.0
 11
126.59546661377
 21
37.4999961853027
 31
0.0
  0
LINE
  5
   1FB
  8
0
  6
CONTINUOUS
 62
    52
 10
132.838104248047
 20
39.4999961853027
 30
0.0
 11
130.838104248047
 21
37.4999961853027
 31
0.0
  0
LINE
  5
   1FC
  8
0
  6
CONTINUOUS
 62
    52
 10
137.080749511719
 20
39.4999961853027
 30
0.0
 11
135.080749511719
 21
37.4999961853027
 31
0.0
  0
LINE
  5
   1FD
  8
0
  6
CONTINUOUS
 62
    52
 10
141.323394775391
 20
39.4999961853027
 30
0.0
 11
139.323394775391
 21
37.4999961853027
 31
0.0
  0
LINE
  5
   1FE
  8
0
  6
CONTINUOUS
 62
    52
 10
145.566040039063
 20
39.4999961853027
 30
0.0
 11
143.566040039063
 21
37.4999961853027
 31
0.0
  0
LINE
  5
   1FF
  8
0
  6
CONTINUOUS
 62
    52
 10
149.808685302734
 20
39.4999961853027
 30
0.0
 11
147.808685302734
 21
37.4999961853027
 31
0.0
  0
LINE
  5
   200
  8
0
  6
CONTINUOUS
 62
    52
 10
154.051330566406
 20
39.4999961853027
 30
0.0
 11
152.051330566406
 21
37.4999961853027
 31
0.0
  0
LINE
  5
   201
  8
0
  6
CONTINUOUS
 62
    52
 10
158.293975830078
 20
39.4999961853027
 30
0.0
 11
156.293975830078
 21
37.4999961853027
 31
0.0
  0
LINE
  5
   202
  8
0
  6
CONTINUOUS
 62
    52
 10
162.53662109375
 20
39.4999961853027
 30
0.0
 11
160.53662109375
 21
37.4999961853027
 31
0.0
  0
LINE
  5
   203
  8
0
  6
CONTINUOUS
 62
    52
 10
166.779266357422
 20
39.4999961853027
 30
0.0
 11
164.779266357422
 21
37.4999961853027
 31
0.0
  0
LINE
  5
   204
  8
0
  6
CONTINUOUS
 62
    52
 10
171.021911621094
 20
39.4999961853027
 30
0.0
 11
169.021911621094
 21
37.4999961853027
 31
0.0
  0
LINE
  5
   205
  8
0
  6
CONTINUOUS
 62
    52
 10
175.264556884766
 20
39.4999961853027
 30
0.0
 11
173.264556884766
 21
37.4999961853027
 31
0.0
  0
ENDBLK
  5
   206
  8
0
  6
CONTINUOUS
 62
     7
  0
BLOCK
  5
   207
  8
0
  6
CONTINUOUS
 62
     7
  2
*HATCH111
 70
    65
 10
0.0
 20
0.0
 30
0.0
  3
*HATCH111
  0
LINE
  5
   208
  8
0
  6
CONTINUOUS
 62
    52
 10
92.5330123901367
 20
39.4999961853027
 30
0.0
 11
90.5330123901367
 21
37.4999961853027
 31
0.0
  0
LINE
  5
   209
  8
0
  6
CONTINUOUS
 62
    52
 10
96.7756576538086
 20
39.4999961853027
 30
0.0
 11
94.7756576538086
 21
37.4999961853027
 31
0.0
  0
LINE
  5
   20A
  8
0
  6
CONTINUOUS
 62
    52
 10
101.01830291748
 20
39.4999961853027
 30
0.0
 11
99.0183029174805
 21
37.4999961853027
 31
0.0
  0
LINE
  5
   20B
  8
0
  6
CONTINUOUS
 62
    52
 10
105.260948181152
 20
39.4999961853027
 30
0.0
 11
103.260948181152
 21
37.4999961853027
 31
0.0
  0
ENDBLK
  5
   20C
  8
0
  6
CONTINUOUS
 62
     7
  0
BLOCK
  5
   20D
  8
0
  6
CONTINUOUS
 62
     7
  2
*HATCH112
 70
    65
 10
0.0
 20
0.0
 30
0.0
  3
*HATCH112
  0
LINE
  5
   20E
  8
0
  6
CONTINUOUS
 62
    52
 10
45.8639602661133
 20
39.4999961853027
 30
0.0
 11
43.8639640808105
 21
37.5
 31
0.0
  0
LINE
  5
   20F
  8
0
  6
CONTINUOUS
 62
    52
 10
50.1065979003906
 20
39.4999961853027
 30
0.0
 11
48.1066017150879
 21
37.5
 31
0.0
  0
LINE
  5
   210
  8
0
  6
CONTINUOUS
 62
    52
 10
54.349235534668
 20
39.4999961853027
 30
0.0
 11
52.3492393493652
 21
37.5
 31
0.0
  0
LINE
  5
   211
  8
0
  6
CONTINUOUS
 62
    52
 10
58.5918731689453
 20
39.4999961853027
 30
0.0
 11
56.5918769836426
 21
37.5
 31
0.0
  0
LINE
  5
   212
  8
0
  6
CONTINUOUS
 62
    52
 10
62.8345108032227
 20
39.4999961853027
 30
0.0
 11
60.8345146179199
 21
37.5
 31
0.0
  0
LINE
  5
   213
  8
0
  6
CONTINUOUS
 62
    52
 10
67.0771560668945
 20
39.4999961853027
 30
0.0
 11
65.0771560668945
 21
37.5
 31
0.0
  0
LINE
  5
   214
  8
0
  6
CONTINUOUS
 62
    52
 10
71.3198013305664
 20
39.4999961853027
 30
0.0
 11
69.3198013305664
 21
37.5
 31
0.0
  0
LINE
  5
   215
  8
0
  6
CONTINUOUS
 62
    52
 10
75.2370758056641
 20
39.1746253967285
 30
0.0
 11
73.5624465942383
 21
37.4999961853027
 31
0.0
  0
ENDBLK
  5
   216
  8
0
  6
CONTINUOUS
 62
     7
  0
BLOCK
  5
   217
  8
0
  6
CONTINUOUS
 62
     7
  2
*HATCH113
 70
    65
 10
0.0
 20
0.0
 30
0.0
  3
*HATCH113
  0
LINE
  5
   218
  8
0
  6
CONTINUOUS
 62
    52
 10
-34.7462120056152
 20
39.5
 30
0.0
 11
-36.7462120056152
 21
37.5
 31
0.0
  0
LINE
  5
   219
  8
0
  6
CONTINUOUS
 62
    52
 10
-30.5035724639893
 20
39.5
 30
0.0
 11
-32.5035743713379
 21
37.5
 31
0.0
  0
LINE
  5
   21A
  8
0
  6
CONTINUOUS
 62
    52
 10
-26.2609310150147
 20
39.5
 30
0.0
 11
-28.2609329223633
 21
37.5
 31
0.0
  0
LINE
  5
   21B
  8
0
  6
CONTINUOUS
 62
    52
 10
-22.01828956604
 20
39.5
 30
0.0
 11
-24.0182914733887
 21
37.5
 31
0.0
  0
LINE
  5
   21C
  8
0
  6
CONTINUOUS
 62
    52
 10
-17.7756481170654
 20
39.5
 30
0.0
 11
-19.7756500244141
 21
37.5
 31
0.0
  0
LINE
  5
   21D
  8
0
  6
CONTINUOUS
 62
    52
 10
-13.5330066680908
 20
39.5
 30
0.0
 11
-15.5330085754395
 21
37.5
 31
0.0
  0
LINE
  5
   21E
  8
0
  6
CONTINUOUS
 62
    52
 10
-9.29036521911621
 20
39.5
 30
0.0
 11
-11.2903671264648
 21
37.5
 31
0.0
  0
LINE
  5
   21F
  8
0
  6
CONTINUOUS
 62
    52
 10
-5.0477237701416
 20
39.5
 30
0.0
 11
-7.04772567749023
 21
37.5
 31
0.0
  0
LINE
  5
   220
  8
0
  6
CONTINUOUS
 62
    52
 10
-0.80508279800415
 20
39.5
 30
0.0
 11
-2.8050844669342
 21
37.5
 31
0.0
  0
LINE
  5
   221
  8
0
  6
CONTINUOUS
 62
    52
 10
3.4375581741333
 20
39.5
 30
0.0
 11
1.43755650520325
 21
37.5
 31
0.0
  0
LINE
  5
   222
  8
0
  6
CONTINUOUS
 62
    52
 10
7.68019962310791
 20
39.5
 30
0.0
 11
5.68019771575928
 21
37.5
 31
0.0
  0
LINE
  5
   223
  8
0
  6
CONTINUOUS
 62
    52
 10
11.9228410720825
 20
39.5
 30
0.0
 11
9.92283916473389
 21
37.5
 31
0.0
  0
LINE
  5
   224
  8
0
  6
CONTINUOUS
 62
    52
 10
16.1654815673828
 20
39.5
 30
0.0
 11
14.1654806137085
 21
37.5
 31
0.0
  0
LINE
  5
   225
  8
0
  6
CONTINUOUS
 62
    52
 10
20.4081230163574
 20
39.5
 30
0.0
 11
18.4081211090088
 21
37.5
 31
0.0
  0
LINE
  5
   226
  8
0
  6
CONTINUOUS
 62
    52
 10
24.650764465332
 20
39.5
 30
0.0
 11
22.6507625579834
 21
37.5
 31
0.0
  0
LINE
  5
   227
  8
0
  6
CONTINUOUS
 62
    52
 10
28.8934059143066
 20
39.5
 30
0.0
 11
26.893404006958
 21
37.5
 31
0.0
  0
LINE
  5
   228
  8
0
  6
CONTINUOUS
 62
    52
 10
33.1360473632813
 20
39.5
 30
0.0
 11
31.1360454559326
 21
37.5
 31
0.0
  0
LINE
  5
   229
  8
0
  6
CONTINUOUS
 62
    52
 10
35.486873626709
 20
37.6081924438477
 30
0.0
 11
35.3786811828613
 21
37.5
 31
0.0
  0
ENDBLK
  5
   22A
  8
0
  6
CONTINUOUS
 62
     7
  0
BLOCK
  5
   22B
  8
0
  6
CONTINUOUS
 62
     7
  2
*HATCH114
 70
    65
 10
0.0
 20
0.0
 30
0.0
  3
*HATCH114
  0
LINE
  5
   22C
  8
0
  6
CONTINUOUS
 62
    52
 10
166.264526367187
 20
30.5000076293945
 30
0.0
 11
163.987060546875
 21
28.2225513458252
 31
0.0
  0
LINE
  5
   22D
  8
0
  6
CONTINUOUS
 62
    52
 10
170.50715637207
 20
30.5000076293945
 30
0.0
 11
168.00715637207
 21
28.0000019073486
 31
0.0
  0
LINE
  5
   22E
  8
0
  6
CONTINUOUS
 62
    52
 10
172.987060546875
 20
28.7372703552246
 30
0.0
 11
172.249786376953
 21
28.0000019073486
 31
0.0
  0
ENDBLK
  5
   22F
  8
0
  6
CONTINUOUS
 62
     7
  0
BLOCK
  5
   230
  8
0
  6
CONTINUOUS
 62
     7
  2
*HATCH115
 70
    65
 10
0.0
 20
0.0
 30
0.0
  3
*HATCH115
  0
LINE
  5
   231
  8
0
  6
CONTINUOUS
 62
     3
 10
-121.412033081055
 20
246.63703918457
 30
0.0
 11
-121.499938964844
 21
246.549133300781
 31
0.0
  0
LINE
  5
   232
  8
0
  6
CONTINUOUS
 62
     3
 10
-120.351371765137
 20
246.63703918457
 30
0.0
 11
-121.499938964844
 21
245.488479614258
 31
0.0
  0
LINE
  5
   233
  8
0
  6
CONTINUOUS
 62
     3
 10
-119.290710449219
 20
246.63703918457
 30
0.0
 11
-121.499938964844
 21
244.427825927734
 31
0.0
  0
LINE
  5
   234
  8
0
  6
CONTINUOUS
 62
     3
 10
-118.230049133301
 20
246.63703918457
 30
0.0
 11
-121.499938964844
 21
243.367172241211
 31
0.0
  0
LINE
  5
   235
  8
0
  6
CONTINUOUS
 62
     3
 10
-117.169387817383
 20
246.63703918457
 30
0.0
 11
-120.502685546875
 21
243.303741455078
 31
0.0
  0
LINE
  5
   236
  8
0
  6
CONTINUOUS
 62
     3
 10
-116.499938964844
 20
246.245834350586
 30
0.0
 11
-119.442024230957
 21
243.303741455078
 31
0.0
  0
LINE
  5
   237
  8
0
  6
CONTINUOUS
 62
     3
 10
-116.499938964844
 20
245.185180664063
 30
0.0
 11
-118.381362915039
 21
243.303741455078
 31
0.0
  0
LINE
  5
   238
  8
0
  6
CONTINUOUS
 62
     3
 10
-116.499938964844
 20
244.124526977539
 30
0.0
 11
-117.320701599121
 21
243.303741455078
 31
0.0
  0
ENDBLK
  5
   239
  8
0
  6
CONTINUOUS
 62
     7
  0
BLOCK
  5
   23A
  8
0
  6
CONTINUOUS
 62
     7
  2
*HATCH116
 70
    65
 10
0.0
 20
0.0
 30
0.0
  3
*HATCH116
  0
LINE
  5
   23B
  8
0
  6
CONTINUOUS
 62
     3
 10
-121.100608825684
 20
260.737060546875
 30
0.0
 11
-121.499938964844
 21
260.337707519531
 31
0.0
  0
LINE
  5
   23C
  8
0
  6
CONTINUOUS
 62
     3
 10
-120.039947509766
 20
260.737060546875
 30
0.0
 11
-121.499938964844
 21
259.277038574219
 31
0.0
  0
LINE
  5
   23D
  8
0
  6
CONTINUOUS
 62
     3
 10
-118.979286193848
 20
260.737060546875
 30
0.0
 11
-121.499938964844
 21
258.216369628906
 31
0.0
  0
LINE
  5
   23E
  8
0
  6
CONTINUOUS
 62
     3
 10
-117.91862487793
 20
260.737060546875
 30
0.0
 11
-121.499938964844
 21
257.155700683594
 31
0.0
  0
LINE
  5
   23F
  8
0
  6
CONTINUOUS
 62
     3
 10
-116.857963562012
 20
260.737060546875
 30
0.0
 11
-121.499938964844
 21
256.095031738281
 31
0.0
  0
LINE
  5
   240
  8
0
  6
CONTINUOUS
 62
     3
 10
-116.499938964844
 20
260.034423828125
 30
0.0
 11
-121.499938964844
 21
255.034423828125
 31
0.0
  0
LINE
  5
   241
  8
0
  6
CONTINUOUS
 62
     3
 10
-116.499938964844
 20
258.973754882813
 30
0.0
 11
-120.636650085449
 21
254.837051391602
 31
0.0
  0
LINE
  5
   242
  8
0
  6
CONTINUOUS
 62
     3
 10
-116.499938964844
 20
257.9130859375
 30
0.0
 11
-119.575988769531
 21
254.837051391602
 31
0.0
  0
LINE
  5
   243
  8
0
  6
CONTINUOUS
 62
     3
 10
-116.499938964844
 20
256.852416992188
 30
0.0
 11
-118.515327453613
 21
254.837051391602
 31
0.0
  0
LINE
  5
   244
  8
0
  6
CONTINUOUS
 62
     3
 10
-116.499938964844
 20
255.791763305664
 30
0.0
 11
-117.454666137695
 21
254.837051391602
 31
0.0
  0
ENDBLK
  5
   245
  8
0
  6
CONTINUOUS
 62
     7
  0
BLOCK
  5
   246
  8
0
  6
CONTINUOUS
 62
     7
  2
*HATCH117
 70
    65
 10
0.0
 20
0.0
 30
0.0
  3
*HATCH117
  0
LINE
  5
   247
  8
0
  6
CONTINUOUS
 62
    92
 10
-123.999938964844
 20
242.79411315918
 30
0.0
 11
-121.942878723145
 21
240.737045288086
 31
0.0
  0
LINE
  5
   248
  8
0
  6
CONTINUOUS
 62
    92
 10
-123.950218200684
 20
246.987030029297
 30
0.0
 11
-121.499938964844
 21
244.536743164063
 31
0.0
  0
LINE
  5
   249
  8
0
  6
CONTINUOUS
 62
    92
 10
-121.881660461426
 20
249.161117553711
 30
0.0
 11
-119.857330322266
 21
247.136779785156
 31
0.0
  0
LINE
  5
   24A
  8
0
  6
CONTINUOUS
 62
    92
 10
-123.999931335449
 20
255.522033691406
 30
0.0
 11
-117.816787719727
 21
249.338882446289
 31
0.0
  0
LINE
  5
   24B
  8
0
  6
CONTINUOUS
 62
    92
 10
-123.999938964844
 20
259.764678955078
 30
0.0
 11
-121.499938964844
 21
257.264678955078
 31
0.0
  0
ENDBLK
  5
   24C
  8
0
  6
CONTINUOUS
 62
     7
  0
BLOCK
  5
   24D
  8
0
  6
CONTINUOUS
 62
     7
  2
*HATCH118
 70
    65
 10
0.0
 20
0.0
 30
0.0
  3
*HATCH118
  0
LINE
  5
   24E
  8
0
  6
CONTINUOUS
 62
    92
 10
-103.34171295166
 20
256.076995849609
 30
0.0
 11
-101.001762390137
 21
253.737045288086
 31
0.0
  0
LINE
  5
   24F
  8
0
  6
CONTINUOUS
 62
    92
 10
-102.259117126465
 20
259.237030029297
 30
0.0
 11
-100.666091918945
 21
257.644012451172
 31
0.0
  0
ENDBLK
  5
   250
  8
0
  6
CONTINUOUS
 62
     7
  0
BLOCK
  5
   251
  8
0
  6
CONTINUOUS
 62
     7
  2
*HATCH119
 70
    65
 10
0.0
 20
0.0
 30
0.0
  3
*HATCH119
  0
LINE
  5
   252
  8
0
  6
CONTINUOUS
 62
    92
 10
-103.099937438965
 20
243.107299804688
 30
0.0
 11
-102.229690551758
 21
242.237045288086
 31
0.0
  0
LINE
  5
   253
  8
0
  6
CONTINUOUS
 62
    92
 10
-102.970420837402
 20
247.220413208008
 30
0.0
 11
-100.968627929688
 21
245.218627929688
 31
0.0
  0
LINE
  5
   254
  8
0
  6
CONTINUOUS
 62
    92
 10
-99.2444076538086
 20
247.737045288086
 30
0.0
 11
-99.0999374389649
 21
247.592575073242
 31
0.0
  0
ENDBLK
  5
   255
  8
0
  6
CONTINUOUS
 62
     7
  0
BLOCK
  5
   256
  8
0
  6
CONTINUOUS
 62
     7
  2
*HATCH120
 70
    65
 10
0.0
 20
0.0
 30
0.0
  3
*HATCH120
  0
LINE
  5
   257
  8
0
  6
CONTINUOUS
 62
    92
 10
-95.9999389648438
 20
257.220489501953
 30
0.0
 11
-95.2582092285156
 21
256.478759765625
 31
0.0
  0
LINE
  5
   258
  8
0
  6
CONTINUOUS
 62
    92
 10
-95.2738342285156
 20
260.737060546875
 30
0.0
 11
-91.9999389648438
 21
257.463134765625
 31
0.0
  0
ENDBLK
  5
   259
  8
0
  6
CONTINUOUS
 62
     7
  0
BLOCK
  5
   25A
  8
0
  6
CONTINUOUS
 62
     7
  2
*HATCH121
 70
    65
 10
0.0
 20
0.0
 30
0.0
  3
*HATCH121
  0
LINE
  5
   25B
  8
0
  6
CONTINUOUS
 62
    92
 10
-95.9999389648438
 20
244.492568969727
 30
0.0
 11
-92.2444152832031
 21
240.737045288086
 31
0.0
  0
LINE
  5
   25C
  8
0
  6
CONTINUOUS
 62
    92
 10
-92.0017700195313
 20
244.737045288086
 30
0.0
 11
-91.9999389648438
 21
244.735214233399
 31
0.0
  0
ENDBLK
  5
   25D
  8
0
  6
CONTINUOUS
 62
     7
  0
BLOCK
  5
   25E
  8
0
  6
CONTINUOUS
 62
     7
  2
*HATCH122
 70
    65
 10
0.0
 20
0.0
 30
0.0
  3
*HATCH122
  0
LINE
  5
   25F
  8
0
  6
CONTINUOUS
 62
    92
 10
-102.529632568359
 20
253.852188110352
 30
0.0
 11
-103.099937438965
 21
253.281875610352
 31
0.0
  0
LINE
  5
   260
  8
0
  6
CONTINUOUS
 62
    92
 10
-96.7399215698242
 20
255.39924621582
 30
0.0
 11
-99.4021224975586
 21
252.737045288086
 31
0.0
  0
LINE
  5
   261
  8
0
  6
CONTINUOUS
 62
    92
 10
-96.7399215698242
 20
251.156600952148
 30
0.0
 11
-99.0186004638672
 21
248.8779296875
 31
0.0
  0
LINE
  5
   262
  8
0
  6
CONTINUOUS
 62
    92
 10
-99.1594848632813
 20
248.737045288086
 30
0.0
 11
-100.159484863281
 21
247.737045288086
 31
0.0
  0
LINE
  5
   263
  8
0
  6
CONTINUOUS
 62
    92
 10
-96.7399215698242
 20
246.913970947266
 30
0.0
 11
-98.5083923339844
 21
245.145492553711
 31
0.0
  0
ENDBLK
  5
   264
  8
0
  6
CONTINUOUS
 62
     7
  0
BLOCK
  5
   265
  8
0
  6
CONTINUOUS
 62
     7
  2
*HATCH123
 70
    65
 10
0.0
 20
0.0
 30
0.0
  3
*HATCH123
  0
LINE
  5
   266
  8
0
  6
CONTINUOUS
 62
    92
 10
-76.9021911621094
 20
275.236968994141
 30
0.0
 11
-78.4999771118164
 21
273.639190673828
 31
0.0
  0
LINE
  5
   267
  8
0
  6
CONTINUOUS
 62
    92
 10
-73.2260131835938
 20
274.670501708984
 30
0.0
 11
-75.5000152587891
 21
272.396514892578
 31
0.0
  0
LINE
  5
   268
  8
0
  6
CONTINUOUS
 62
    92
 10
-110.659606933594
 20
237.236923217773
 30
0.0
 11
-112.659606933594
 21
235.236923217773
 31
0.0
  0
LINE
  5
   269
  8
0
  6
CONTINUOUS
 62
    92
 10
-73.0000152587891
 20
270.653869628906
 30
0.0
 11
-75.5000152587891
 21
268.153869628906
 31
0.0
  0
LINE
  5
   26A
  8
0
  6
CONTINUOUS
 62
    92
 10
-103.916931152344
 20
239.736953735352
 30
0.0
 11
-105.000015258789
 21
238.653869628906
 31
0.0
  0
LINE
  5
   26B
  8
0
  6
CONTINUOUS
 62
    92
 10
-106.416969299316
 20
237.236923217773
 30
0.0
 11
-108.416969299316
 21
235.236923217773
 31
0.0
  0
LINE
  5
   26C
  8
0
  6
CONTINUOUS
 62
    92
 10
-73.0000152587891
 20
266.411224365234
 30
0.0
 11
-75.5000152587891
 21
263.911224365234
 31
0.0
  0
LINE
  5
   26D
  8
0
  6
CONTINUOUS
 62
    92
 10
-99.6742858886719
 20
239.736968994141
 30
0.0
 11
-101.174285888672
 21
238.236968994141
 31
0.0
  0
LINE
  5
   26E
  8
0
  6
CONTINUOUS
 62
    92
 10
-103.000015258789
 20
236.411239624023
 30
0.0
 11
-104.174331665039
 21
235.236907958984
 31
0.0
  0
LINE
  5
   26F
  8
0
  6
CONTINUOUS
 62
    92
 10
-73.0000152587891
 20
262.168579101563
 30
0.0
 11
-75.5000152587891
 21
259.668579101563
 31
0.0
  0
LINE
  5
   270
  8
0
  6
CONTINUOUS
 62
    92
 10
-95.431640625
 20
239.736968994141
 30
0.0
 11
-96.931640625
 21
238.236968994141
 31
0.0
  0
LINE
  5
   271
  8
0
  6
CONTINUOUS
 62
    92
 10
-73.0000152587891
 20
257.925933837891
 30
0.0
 11
-75.5000152587891
 21
255.425933837891
 31
0.0
  0
LINE
  5
   272
  8
0
  6
CONTINUOUS
 62
    92
 10
-91.1889953613281
 20
239.736968994141
 30
0.0
 11
-92.6889953613281
 21
238.236968994141
 31
0.0
  0
LINE
  5
   273
  8
0
  6
CONTINUOUS
 62
    92
 10
-73.0000152587891
 20
253.683288574219
 30
0.0
 11
-75.5000152587891
 21
251.183288574219
 31
0.0
  0
LINE
  5
   274
  8
0
  6
CONTINUOUS
 62
    92
 10
-86.9463500976562
 20
239.736968994141
 30
0.0
 11
-88.4463500976563
 21
238.236968994141
 31
0.0
  0
LINE
  5
   275
  8
0
  6
CONTINUOUS
 62
    92
 10
-73.0000152587891
 20
249.440673828125
 30
0.0
 11
-75.5000152587891
 21
246.940673828125
 31
0.0
  0
LINE
  5
   276
  8
0
  6
CONTINUOUS
 62
    92
 10
-82.2037124633789
 20
240.23698425293
 30
0.0
 11
-84.2037124633789
 21
238.236968994141
 31
0.0
  0
LINE
  5
   277
  8
0
  6
CONTINUOUS
 62
    92
 10
-73.0000152587891
 20
245.198028564453
 30
0.0
 11
-75.5000152587891
 21
242.698028564453
 31
0.0
  0
LINE
  5
   278
  8
0
  6
CONTINUOUS
 62
    92
 10
-77.961067199707
 20
240.23698425293
 30
0.0
 11
-79.961067199707
 21
238.236968994141
 31
0.0
  0
LINE
  5
   279
  8
0
  6
CONTINUOUS
 62
    92
 10
-73.0000152587891
 20
240.955383300781
 30
0.0
 11
-75.7184219360352
 21
238.23698425293
 31
0.0
  0
ENDBLK
  5
   27A
  8
0
  6
CONTINUOUS
 62
     7
  0
BLOCK
  5
   27B
  8
0
  6
CONTINUOUS
 62
   218
  2
*HATCH124
 70
    65
 10
0.0
 20
0.0
 30
0.0
  3
*HATCH124
  0
LINE
  5
   27C
  8
0
  6
CONTINUOUS
 62
     3
 10
-70.4023208618164
 20
252.038360595703
 30
0.0
 11
-72.2455978393555
 21
250.195083618164
 31
0.0
  0
LINE
  5
   27D
  8
0
  6
CONTINUOUS
 62
     3
 10
-69.0759735107422
 20
252.304061889648
 30
0.0
 11
-71.8744277954102
 21
249.505599975586
 31
0.0
  0
LINE
  5
   27E
  8
0
  6
CONTINUOUS
 62
     3
 10
-68.0004959106445
 20
252.318878173828
 30
0.0
 11
-71.2877426147461
 21
249.031631469727
 31
0.0
  0
LINE
  5
   27F
  8
0
  6
CONTINUOUS
 62
     3
 10
-67.0423049926758
 20
252.216400146484
 30
0.0
 11
-70.5405578613281
 21
248.718139648438
 31
0.0
  0
LINE
  5
   280
  8
0
  6
CONTINUOUS
 62
     3
 10
-66.1708908081055
 20
252.027160644531
 30
0.0
 11
-69.6915588378906
 21
248.506484985352
 31
0.0
  0
LINE
  5
   281
  8
0
  6
CONTINUOUS
 62
     3
 10
-65.423713684082
 20
251.713668823242
 30
0.0
 11
-68.7577438354492
 21
248.379638671875
 31
0.0
  0
LINE
  5
   282
  8
0
  6
CONTINUOUS
 62
     3
 10
-64.8103408813477
 20
251.266387939453
 30
0.0
 11
-67.6970825195313
 21
248.379638671875
 31
0.0
  0
LINE
  5
   283
  8
0
  6
CONTINUOUS
 62
     3
 10
-64.3956069946289
 20
250.620452880859
 30
0.0
 11
-66.4208602905273
 21
248.595199584961
 31
0.0
  0
ENDBLK
  5
   284
  8
0
  6
CONTINUOUS
 62
   218
  0
BLOCK
  5
   285
  8
0
  6
CONTINUOUS
 62
     7
  2
CAVO
 70
    64
 10
0.0
 20
0.0
 30
0.0
  3
CAVO
  0
LINE
  5
   286
  8
0
  6
CONTINUOUS
 62
   218
 10
-58.099964209298
 20
208.737096448575
 30
0.0
 11
-58.099964209298
 21
231.737096448575
 31
0.0
  0
LINE
  5
   287
  8
0
  6
CONTINUOUS
 62
   218
 10
-70.499964209298
 20
208.737096448575
 30
0.0
 11
-70.499964209298
 21
231.737096448575
 31
0.0
  0
LINE
  5
   288
  8
0
  6
CONTINUOUS
 62
   218
 10
-70.499964209298
 20
208.737096448575
 30
0.0
 11
-58.099964209298
 21
208.737096448575
 31
0.0
  0
LINE
  5
   289
  8
0
  6
CONTINUOUS
 62
   218
 10
-72.299964209298
 20
231.737096448575
 30
0.0
 11
-56.299964209298
 21
231.737096448575
 31
0.0
  0
LINE
  5
   28A
  8
0
  6
DASHDOT
 62
   218
 10
-64.299964209298
 20
203.675830579354
 30
0.0
 11
-64.299964209298
 21
252.349255591
 31
0.0
  0
LINE
  5
   28B
  8
0
  6
CONTINUOUS
 62
   218
 10
-72.299964209298
 20
231.737096448575
 30
0.0
 11
-72.299964209298
 21
250.349255591
 31
0.0
  0
LINE
  5
   28C
  8
0
  6
CONTINUOUS
 62
   218
 10
-56.299964209298
 20
231.737096448575
 30
0.0
 11
-56.299964209298
 21
250.349255591
 31
0.0
  0
LINE
  5
   28D
  8
0
  6
CONTINUOUS
 62
   218
 10
-64.299964209298
 20
208.737096448575
 30
0.0
 11
-60.2444436530033
 21
231.737096448575
 31
0.0
  0
POLYLINE
  5
   28E
  8
0
  6
CONTINUOUS
 62
   218
 66
     1
 10
0.0
 20
0.0
 30
0.0
 70
     1
  0
VERTEX
  5
   28F
  8
0
  6
CONTINUOUS
 10
-72.299964209298
 20
250.34925559099
 30
0.0
 40
0.0
 41
0.0
  0
VERTEX
  5
   290
  8
0
  6
CONTINUOUS
 10
-72.2987594840827
 20
250.300173133944
 30
0.0
 40
0.0
 41
0.0
  0
VERTEX
  5
   291
  8
0
  6
CONTINUOUS
 10
-72.2951460341185
 20
250.251120242335
 30
0.0
 40
0.0
 41
0.0
  0
VERTEX
  5
   292
  8
0
  6
CONTINUOUS
 10
-72.2891260360124
 20
250.20212646379
 30
0.0
 40
0.0
 41
0.0
  0
VERTEX
  5
   293
  8
0
  6
CONTINUOUS
 10
-72.2807031159863
 20
250.153221310331
 30
0.0
 40
0.0
 41
0.0
  0
VERTEX
  5
   294
  8
0
  6
CONTINUOUS
 10
-72.2698823476922
 20
250.104434240591
 30
0.0
 40
0.0
 41
0.0
  0
VERTEX
  5
   295
  8
0
  6
CONTINUOUS
 10
-72.2566702491564
 20
250.055794642079
 30
0.0
 40
0.0
 41
0.0
  0
VERTEX
  5
   296
  8
0
  6
CONTINUOUS
 10
-72.2410747788529
 20
250.007331813469
 30
0.0
 40
0.0
 41
0.0
  0
VERTEX
  5
   297
  8
0
  6
CONTINUOUS
 10
-72.22310533091
 20
249.959074946958
 30
0.0
 40
0.0
 41
0.0
  0
VERTEX
  5
   298
  8
0
  6
CONTINUOUS
 10
-72.202772729451
 20
249.911053110676
 30
0.0
 40
0.0
 41
0.0
  0
VERTEX
  5
   299
  8
0
  6
CONTINUOUS
 10
-72.180089222075
 20
249.863295231183
 30
0.0
 40
0.0
 41
0.0
  0
VERTEX
  5
   29A
  8
0
  6
CONTINUOUS
 10
-72.1550684724784
 20
249.81583007604
 30
0.0
 40
0.0
 41
0.0
  0
VERTEX
  5
   29B
  8
0
  6
CONTINUOUS
 10
-72.1277255522254
 20
249.768686236481
 30
0.0
 40
0.0
 41
0.0
  0
VERTEX
  5
   29C
  8
0
  6
CONTINUOUS
 10
-72.0980769316686
 20
249.721892110192
 30
0.0
 40
0.0
 41
0.0
  0
VERTEX
  5
   29D
  8
0
  6
CONTINUOUS
 10
-72.0661404700284
 20
249.675475884206
 30
0.0
 40
0.0
 41
0.0
  0
VERTEX
  5
   29E
  8
0
  6
CONTINUOUS
 10
-72.0319354046352
 20
249.62946551792
 30
0.0
 40
0.0
 41
0.0
  0
VERTEX
  5
   29F
  8
0
  6
CONTINUOUS
 10
-71.9954823393412
 20
249.58388872626
 30
0.0
 40
0.0
 41
0.0
  0
VERTEX
  5
   2A0
  8
0
  6
CONTINUOUS
 10
-71.9159213817896
 20
249.49414540413
 30
0.0
 40
0.0
 41
0.0
  0
VERTEX
  5
   2A1
  8
0
  6
CONTINUOUS
 10
-71.8276492666891
 20
249.406462117339
 30
0.0
 40
0.0
 41
0.0
  0
VERTEX
  5
   2A2
  8
0
  6
CONTINUOUS
 10
-71.7308786492965
 20
249.321050102605
 30
0.0
 40
0.0
 41
0.0
  0
VERTEX
  5
   2A3
  8
0
  6
CONTINUOUS
 10
-71.6258426585054
 20
249.238115124952
 30
0.0
 40
0.0
 41
0.0
  0
VERTEX
  5
   2A4
  8
0
  6
CONTINUOUS
 10
-71.5127943352176
 20
249.157856982007
 30
0.0
 40
0.0
 41
0.0
  0
VERTEX
  5
   2A5
  8
0
  6
CONTINUOUS
 10
-71.3920060227458
 20
249.080469022665
 30
0.0
 40
0.0
 41
0.0
  0
VERTEX
  5
   2A6
  8
0
  6
CONTINUOUS
 10
-71.2637687107145
 20
249.006137681298
 30
0.0
 40
0.0
 41
0.0
  0
VERTEX
  5
   2A7
  8
0
  6
CONTINUOUS
 10
-71.1283913340406
 20
248.93504202862
 30
0.0
 40
0.0
 41
0.0
  0
VERTEX
  5
   2A8
  8
0
  6
CONTINUOUS
 10
-70.9862000286824
 20
248.867353340283
 30
0.0
 40
0.0
 41
0.0
  0
VERTEX
  5
   2A9
  8
0
  6
CONTINUOUS
 10
-70.8375373459487
 20
248.803234684268
 30
0.0
 40
0.0
 41
0.0
  0
VERTEX
  5
   2AA
  8
0
  6
CONTINUOUS
 10
-70.6827614272637
 20
248.742840528032
 30
0.0
 40
0.0
 41
0.0
  0
VERTEX
  5
   2AB
  8
0
  6
CONTINUOUS
 10
-70.5222451413722
 20
248.686316366389
 30
0.0
 40
0.0
 41
0.0
  0
VERTEX
  5
   2AC
  8
0
  6
CONTINUOUS
 10
-70.3563751860666
 20
248.633798370994
 30
0.0
 40
0.0
 41
0.0
  0
VERTEX
  5
   2AD
  8
0
  6
CONTINUOUS
 10
-70.1855511565976
 20
248.585413062298
 30
0.0
 40
0.0
 41
0.0
  0
VERTEX
  5
   2AE
  8
0
  6
CONTINUOUS
 10
-70.0101845830146
 20
248.541277004749
 30
0.0
 40
0.0
 41
0.0
  0
VERTEX
  5
   2AF
  8
0
  6
CONTINUOUS
 10
-69.8306979387537
 20
248.501496525973
 30
0.0
 40
0.0
 41
0.0
  0
VERTEX
  5
   2B0
  8
0
  6
CONTINUOUS
 10
-69.6475236228622
 20
248.46616746063
 30
0.0
 40
0.0
 41
0.0
  0
VERTEX
  5
   2B1
  8
0
  6
CONTINUOUS
 10
-69.4611029183111
 20
248.435374919532
 30
0.0
 40
0.0
 41
0.0
  0
VERTEX
  5
   2B2
  8
0
  6
CONTINUOUS
 10
-69.2718849289062
 20
248.409193084608
 30
0.0
 40
0.0
 41
0.0
  0
VERTEX
  5
   2B3
  8
0
  6
CONTINUOUS
 10
-69.0803254973576
 20
248.387685030191
 30
0.0
 40
0.0
 41
0.0
  0
VERTEX
  5
   2B4
  8
0
  6
CONTINUOUS
 10
-68.8868861071145
 20
248.370902571069
 30
0.0
 40
0.0
 41
0.0
  0
VERTEX
  5
   2B5
  8
0
  6
CONTINUOUS
 10
-68.6920327706112
 20
248.358886137654
 30
0.0
 40
0.0
 41
0.0
  0
VERTEX
  5
   2B6
  8
0
  6
CONTINUOUS
 10
-68.4962349066027
 20
248.351664678589
 30
0.0
 40
0.0
 41
0.0
  0
VERTEX
  5
   2B7
  8
0
  6
CONTINUOUS
 10
-68.299964209293
 20
248.349255591
 30
0.0
 40
0.0
 41
0.0
  0
VERTEX
  5
   2B8
  8
0
  6
CONTINUOUS
 10
-68.1036935119833
 20
248.35166467859
 30
0.0
 40
0.0
 41
0.0
  0
VERTEX
  5
   2B9
  8
0
  6
CONTINUOUS
 10
-67.9078956479748
 20
248.358886137656
 30
0.0
 40
0.0
 41
0.0
  0
VERTEX
  5
   2BA
  8
0
  6
CONTINUOUS
 10
-67.7130423114716
 20
248.370902571072
 30
0.0
 40
0.0
 41
0.0
  0
VERTEX
  5
   2BB
  8
0
  6
CONTINUOUS
 10
-67.5196029212286
 20
248.387685030195
 30
0.0
 40
0.0
 41
0.0
  0
VERTEX
  5
   2BC
  8
0
  6
CONTINUOUS
 10
-67.3280434896801
 20
248.409193084613
 30
0.0
 40
0.0
 41
0.0
  0
VERTEX
  5
   2BD
  8
0
  6
CONTINUOUS
 10
-67.1388255002754
 20
248.435374919538
 30
0.0
 40
0.0
 41
0.0
  0
VERTEX
  5
   2BE
  8
0
  6
CONTINUOUS
 10
-66.9524047957244
 20
248.466167460637
 30
0.0
 40
0.0
 41
0.0
  0
VERTEX
  5
   2BF
  8
0
  6
CONTINUOUS
 10
-66.769230479833
 20
248.501496525981
 30
0.0
 40
0.0
 41
0.0
  0
VERTEX
  5
   2C0
  8
0
  6
CONTINUOUS
 10
-66.5897438355723
 20
248.541277004757
 30
0.0
 40
0.0
 41
0.0
  0
VERTEX
  5
   2C1
  8
0
  6
CONTINUOUS
 10
-66.4143772619896
 20
248.585413062308
 30
0.0
 40
0.0
 41
0.0
  0
VERTEX
  5
   2C2
  8
0
  6
CONTINUOUS
 10
-66.2435532325208
 20
248.633798371004
 30
0.0
 40
0.0
 41
0.0
  0
VERTEX
  5
   2C3
  8
0
  6
CONTINUOUS
 10
-66.0776832772154
 20
248.6863163664
 30
0.0
 40
0.0
 41
0.0
  0
VERTEX
  5
   2C4
  8
0
  6
CONTINUOUS
 10
-65.9171669913242
 20
248.742840528044
 30
0.0
 40
0.0
 41
0.0
  0
VERTEX
  5
   2C5
  8
0
  6
CONTINUOUS
 10
-65.7623910726396
 20
248.803234684281
 30
0.0
 40
0.0
 41
0.0
  0
VERTEX
  5
   2C6
  8
0
  6
CONTINUOUS
 10
-65.6137283899062
 20
248.867353340297
 30
0.0
 40
0.0
 41
0.0
  0
VERTEX
  5
   2C7
  8
0
  6
CONTINUOUS
 10
-65.4715370845483
 20
248.935042028634
 30
0.0
 40
0.0
 41
0.0
  0
VERTEX
  5
   2C8
  8
0
  6
CONTINUOUS
 10
-65.3361597078748
 20
249.006137681313
 30
0.0
 40
0.0
 41
0.0
  0
VERTEX
  5
   2C9
  8
0
  6
CONTINUOUS
 10
-65.2079223958439
 20
249.08046902268
 30
0.0
 40
0.0
 41
0.0
  0
VERTEX
  5
   2CA
  8
0
  6
CONTINUOUS
 10
-65.0871340833724
 20
249.157856982023
 30
0.0
 40
0.0
 41
0.0
  0
VERTEX
  5
   2CB
  8
0
  6
CONTINUOUS
 10
-64.974085760085
 20
249.238115124969
 30
0.0
 40
0.0
 41
0.0
  0
VERTEX
  5
   2CC
  8
0
  6
CONTINUOUS
 10
-64.8690497692943
 20
249.321050102622
 30
0.0
 40
0.0
 41
0.0
  0
VERTEX
  5
   2CD
  8
0
  6
CONTINUOUS
 10
-64.7722791519022
 20
249.406462117357
 30
0.0
 40
0.0
 41
0.0
  0
VERTEX
  5
   2CE
  8
0
  6
CONTINUOUS
 10
-64.6840070368021
 20
249.494145404148
 30
0.0
 40
0.0
 41
0.0
  0
VERTEX
  5
   2CF
  8
0
  6
CONTINUOUS
 10
-64.604446079251
 20
249.583888726279
 30
0.0
 40
0.0
 41
0.0
  0
VERTEX
  5
   2D0
  8
0
  6
CONTINUOUS
 10
-64.5679930139573
 20
249.629465517939
 30
0.0
 40
0.0
 41
0.0
  0
VERTEX
  5
   2D1
  8
0
  6
CONTINUOUS
 10
-64.5337879485642
 20
249.675475884225
 30
0.0
 40
0.0
 41
0.0
  0
VERTEX
  5
   2D2
  8
0
  6
CONTINUOUS
 10
-64.5018514869243
 20
249.721892110211
 30
0.0
 40
0.0
 41
0.0
  0
VERTEX
  5
   2D3
  8
0
  6
CONTINUOUS
 10
-64.4722028663677
 20
249.7686862365
 30
0.0
 40
0.0
 41
0.0
  0
VERTEX
  5
   2D4
  8
0
  6
CONTINUOUS
 10
-64.4448599461149
 20
249.81583007606
 30
0.0
 40
0.0
 41
0.0
  0
VERTEX
  5
   2D5
  8
0
  6
CONTINUOUS
 10
-64.4198391965186
 20
249.863295231203
 30
0.0
 40
0.0
 41
0.0
  0
VERTEX
  5
   2D6
  8
0
  6
CONTINUOUS
 10
-64.3971556891428
 20
249.911053110696
 30
0.0
 40
0.0
 41
0.0
  0
VERTEX
  5
   2D7
  8
0
  6
CONTINUOUS
 10
-64.3768230876841
 20
249.959074946977
 30
0.0
 40
0.0
 41
0.0
  0
VERTEX
  5
   2D8
  8
0
  6
CONTINUOUS
 10
-64.3588536397414
 20
250.007331813489
 30
0.0
 40
0.0
 41
0.0
  0
VERTEX
  5
   2D9
  8
0
  6
CONTINUOUS
 10
-64.3432581694382
 20
250.055794642099
 30
0.0
 40
0.0
 41
0.0
  0
VERTEX
  5
   2DA
  8
0
  6
CONTINUOUS
 10
-64.3300460709026
 20
250.104434240611
 30
0.0
 40
0.0
 41
0.0
  0
VERTEX
  5
   2DB
  8
0
  6
CONTINUOUS
 10
-64.3192253026087
 20
250.153221310351
 30
0.0
 40
0.0
 41
0.0
  0
VERTEX
  5
   2DC
  8
0
  6
CONTINUOUS
 10
-64.3108023825829
 20
250.20212646381
 30
0.0
 40
0.0
 41
0.0
  0
VERTEX
  5
   2DD
  8
0
  6
CONTINUOUS
 10
-64.3047823844771
 20
250.251120242355
 30
0.0
 40
0.0
 41
0.0
  0
VERTEX
  5
   2DE
  8
0
  6
CONTINUOUS
 10
-64.3011689345131
 20
250.300173133964
 30
0.0
 40
0.0
 41
0.0
  0
VERTEX
  5
   2DF
  8
0
  6
CONTINUOUS
 10
-64.299964209298
 20
250.34925559101
 30
0.0
 40
0.0
 41
0.0
  0
VERTEX
  5
   2E0
  8
0
  6
CONTINUOUS
 10
-64.3011689345133
 20
250.398338048056
 30
0.0
 40
0.0
 41
0.0
  0
VERTEX
  5
   2E1
  8
0
  6
CONTINUOUS
 10
-64.3047823844776
 20
250.447390939665
 30
0.0
 40
0.0
 41
0.0
  0
VERTEX
  5
   2E2
  8
0
  6
CONTINUOUS
 10
-64.3108023825836
 20
250.496384718209
 30
0.0
 40
0.0
 41
0.0
  0
VERTEX
  5
   2E3
  8
0
  6
CONTINUOUS
 10
-64.3192253026097
 20
250.545289871669
 30
0.0
 40
0.0
 41
0.0
  0
VERTEX
  5
   2E4
  8
0
  6
CONTINUOUS
 10
-64.3300460709038
 20
250.594076941408
 30
0.0
 40
0.0
 41
0.0
  0
VERTEX
  5
   2E5
  8
0
  6
CONTINUOUS
 10
-64.3432581694396
 20
250.64271653992
 30
0.0
 40
0.0
 41
0.0
  0
VERTEX
  5
   2E6
  8
0
  6
CONTINUOUS
 10
-64.3588536397431
 20
250.69117936853
 30
0.0
 40
0.0
 41
0.0
  0
VERTEX
  5
   2E7
  8
0
  6
CONTINUOUS
 10
-64.3768230876861
 20
250.739436235042
 30
0.0
 40
0.0
 41
0.0
  0
VERTEX
  5
   2E8
  8
0
  6
CONTINUOUS
 10
-64.397155689145
 20
250.787458071323
 30
0.0
 40
0.0
 41
0.0
  0
VERTEX
  5
   2E9
  8
0
  6
CONTINUOUS
 10
-64.4198391965211
 20
250.835215950816
 30
0.0
 40
0.0
 41
0.0
  0
VERTEX
  5
   2EA
  8
0
  6
CONTINUOUS
 10
-64.4448599461176
 20
250.882681105959
 30
0.0
 40
0.0
 41
0.0
  0
VERTEX
  5
   2EB
  8
0
  6
CONTINUOUS
 10
-64.4722028663706
 20
250.929824945518
 30
0.0
 40
0.0
 41
0.0
  0
VERTEX
  5
   2EC
  8
0
  6
CONTINUOUS
 10
-64.5018514869274
 20
250.976619071807
 30
0.0
 40
0.0
 41
0.0
  0
VERTEX
  5
   2ED
  8
0
  6
CONTINUOUS
 10
-64.5337879485676
 20
251.023035297794
 30
0.0
 40
0.0
 41
0.0
  0
VERTEX
  5
   2EE
  8
0
  6
CONTINUOUS
 10
-64.5679930139609
 20
251.069045664079
 30
0.0
 40
0.0
 41
0.0
  0
VERTEX
  5
   2EF
  8
0
  6
CONTINUOUS
 10
-64.6044460792548
 20
251.114622455739
 30
0.0
 40
0.0
 41
0.0
  0
VERTEX
  5
   2F0
  8
0
  6
CONTINUOUS
 10
-64.6840070368064
 20
251.204365777869
 30
0.0
 40
0.0
 41
0.0
  0
VERTEX
  5
   2F1
  8
0
  6
CONTINUOUS
 10
-64.772279151907
 20
251.292049064661
 30
0.0
 40
0.0
 41
0.0
  0
VERTEX
  5
   2F2
  8
0
  6
CONTINUOUS
 10
-64.8690497692995
 20
251.377461079395
 30
0.0
 40
0.0
 41
0.0
  0
VERTEX
  5
   2F3
  8
0
  6
CONTINUOUS
 10
-64.9740857600906
 20
251.460396057047
 30
0.0
 40
0.0
 41
0.0
  0
VERTEX
  5
   2F4
  8
0
  6
CONTINUOUS
 10
-65.0871340833784
 20
251.540654199993
 30
0.0
 40
0.0
 41
0.0
  0
VERTEX
  5
   2F5
  8
0
  6
CONTINUOUS
 10
-65.2079223958502
 20
251.618042159335
 30
0.0
 40
0.0
 41
0.0
  0
VERTEX
  5
   2F6
  8
0
  6
CONTINUOUS
 10
-65.3361597078815
 20
251.692373500701
 30
0.0
 40
0.0
 41
0.0
  0
VERTEX
  5
   2F7
  8
0
  6
CONTINUOUS
 10
-65.4715370845554
 20
251.76346915338
 30
0.0
 40
0.0
 41
0.0
  0
VERTEX
  5
   2F8
  8
0
  6
CONTINUOUS
 10
-65.6137283899137
 20
251.831157841716
 30
0.0
 40
0.0
 41
0.0
  0
VERTEX
  5
   2F9
  8
0
  6
CONTINUOUS
 10
-65.7623910726473
 20
251.895276497732
 30
0.0
 40
0.0
 41
0.0
  0
VERTEX
  5
   2FA
  8
0
  6
CONTINUOUS
 10
-65.9171669913323
 20
251.955670653967
 30
0.0
 40
0.0
 41
0.0
  0
VERTEX
  5
   2FB
  8
0
  6
CONTINUOUS
 10
-66.0776832772238
 20
252.01219481561
 30
0.0
 40
0.0
 41
0.0
  0
VERTEX
  5
   2FC
  8
0
  6
CONTINUOUS
 10
-66.2435532325294
 20
252.064712811005
 30
0.0
 40
0.0
 41
0.0
  0
VERTEX
  5
   2FD
  8
0
  6
CONTINUOUS
 10
-66.4143772619985
 20
252.113098119701
 30
0.0
 40
0.0
 41
0.0
  0
VERTEX
  5
   2FE
  8
0
  6
CONTINUOUS
 10
-66.5897438355814
 20
252.157234177251
 30
0.0
 40
0.0
 41
0.0
  0
VERTEX
  5
   2FF
  8
0
  6
CONTINUOUS
 10
-66.7692304798423
 20
252.197014656026
 30
0.0
 40
0.0
 41
0.0
  0
VERTEX
  5
   300
  8
0
  6
CONTINUOUS
 10
-66.9524047957339
 20
252.232343721369
 30
0.0
 40
0.0
 41
0.0
  0
VERTEX
  5
   301
  8
0
  6
CONTINUOUS
 10
-67.138825500285
 20
252.263136262467
 30
0.0
 40
0.0
 41
0.0
  0
VERTEX
  5
   302
  8
0
  6
CONTINUOUS
 10
-67.3280434896898
 20
252.289318097391
 30
0.0
 40
0.0
 41
0.0
  0
VERTEX
  5
   303
  8
0
  6
CONTINUOUS
 10
-67.5196029212384
 20
252.310826151808
 30
0.0
 40
0.0
 41
0.0
  0
VERTEX
  5
   304
  8
0
  6
CONTINUOUS
 10
-67.7130423114815
 20
252.327608610931
 30
0.0
 40
0.0
 41
0.0
  0
VERTEX
  5
   305
  8
0
  6
CONTINUOUS
 10
-67.9078956479848
 20
252.339625044345
 30
0.0
 40
0.0
 41
0.0
  0
VERTEX
  5
   306
  8
0
  6
CONTINUOUS
 10
-68.1036935119934
 20
252.346846503411
 30
0.0
 40
0.0
 41
0.0
  0
VERTEX
  5
   307
  8
0
  6
CONTINUOUS
 10
-68.299964209303
 20
252.349255591
 30
0.0
 40
0.0
 41
0.0
  0
VERTEX
  5
   308
  8
0
  6
CONTINUOUS
 10
-68.4962349066127
 20
252.34684650341
 30
0.0
 40
0.0
 41
0.0
  0
VERTEX
  5
   309
  8
0
  6
CONTINUOUS
 10
-68.6920327706213
 20
252.339625044343
 30
0.0
 40
0.0
 41
0.0
  0
VERTEX
  5
   30A
  8
0
  6
CONTINUOUS
 10
-68.8868861071244
 20
252.327608610928
 30
0.0
 40
0.0
 41
0.0
  0
VERTEX
  5
   30B
  8
0
  6
CONTINUOUS
 10
-69.0803254973675
 20
252.310826151804
 30
0.0
 40
0.0
 41
0.0
  0
VERTEX
  5
   30C
  8
0
  6
CONTINUOUS
 10
-69.2718849289159
 20
252.289318097386
 30
0.0
 40
0.0
 41
0.0
  0
VERTEX
  5
   30D
  8
0
  6
CONTINUOUS
 10
-69.4611029183207
 20
252.263136262461
 30
0.0
 40
0.0
 41
0.0
  0
VERTEX
  5
   30E
  8
0
  6
CONTINUOUS
 10
-69.6475236228716
 20
252.232343721362
 30
0.0
 40
0.0
 41
0.0
  0
VERTEX
  5
   30F
  8
0
  6
CONTINUOUS
 10
-69.830697938763
 20
252.197014656018
 30
0.0
 40
0.0
 41
0.0
  0
VERTEX
  5
   310
  8
0
  6
CONTINUOUS
 10
-70.0101845830237
 20
252.157234177242
 30
0.0
 40
0.0
 41
0.0
  0
VERTEX
  5
   311
  8
0
  6
CONTINUOUS
 10
-70.1855511566064
 20
252.113098119692
 30
0.0
 40
0.0
 41
0.0
  0
VERTEX
  5
   312
  8
0
  6
CONTINUOUS
 10
-70.3563751860752
 20
252.064712810995
 30
0.0
 40
0.0
 41
0.0
  0
VERTEX
  5
   313
  8
0
  6
CONTINUOUS
 10
-70.5222451413806
 20
252.012194815599
 30
0.0
 40
0.0
 41
0.0
  0
VERTEX
  5
   314
  8
0
  6
CONTINUOUS
 10
-70.6827614272718
 20
251.955670653955
 30
0.0
 40
0.0
 41
0.0
  0
VERTEX
  5
   315
  8
0
  6
CONTINUOUS
 10
-70.8375373459565
 20
251.895276497719
 30
0.0
 40
0.0
 41
0.0
  0
VERTEX
  5
   316
  8
0
  6
CONTINUOUS
 10
-70.9862000286898
 20
251.831157841703
 30
0.0
 40
0.0
 41
0.0
  0
VERTEX
  5
   317
  8
0
  6
CONTINUOUS
 10
-71.1283913340478
 20
251.763469153366
 30
0.0
 40
0.0
 41
0.0
  0
VERTEX
  5
   318
  8
0
  6
CONTINUOUS
 10
-71.2637687107212
 20
251.692373500686
 30
0.0
 40
0.0
 41
0.0
  0
VERTEX
  5
   319
  8
0
  6
CONTINUOUS
 10
-71.3920060227521
 20
251.618042159319
 30
0.0
 40
0.0
 41
0.0
  0
VERTEX
  5
   31A
  8
0
  6
CONTINUOUS
 10
-71.5127943352236
 20
251.540654199976
 30
0.0
 40
0.0
 41
0.0
  0
VERTEX
  5
   31B
  8
0
  6
CONTINUOUS
 10
-71.625842658511
 20
251.460396057031
 30
0.0
 40
0.0
 41
0.0
  0
VERTEX
  5
   31C
  8
0
  6
CONTINUOUS
 10
-71.7308786493017
 20
251.377461079378
 30
0.0
 40
0.0
 41
0.0
  0
VERTEX
  5
   31D
  8
0
  6
CONTINUOUS
 10
-71.8276492666938
 20
251.292049064643
 30
0.0
 40
0.0
 41
0.0
  0
VERTEX
  5
   31E
  8
0
  6
CONTINUOUS
 10
-71.9159213817939
 20
251.204365777851
 30
0.0
 40
0.0
 41
0.0
  0
VERTEX
  5
   31F
  8
0
  6
CONTINUOUS
 10
-71.9954823393451
 20
251.114622455721
 30
0.0
 40
0.0
 41
0.0
  0
VERTEX
  5
   320
  8
0
  6
CONTINUOUS
 10
-72.0319354046388
 20
251.06904566406
 30
0.0
 40
0.0
 41
0.0
  0
VERTEX
  5
   321
  8
0
  6
CONTINUOUS
 10
-72.0661404700318
 20
251.023035297775
 30
0.0
 40
0.0
 41
0.0
  0
VERTEX
  5
   322
  8
0
  6
CONTINUOUS
 10
-72.0980769316717
 20
250.976619071788
 30
0.0
 40
0.0
 41
0.0
  0
VERTEX
  5
   323
  8
0
  6
CONTINUOUS
 10
-72.1277255522283
 20
250.929824945499
 30
0.0
 40
0.0
 41
0.0
  0
VERTEX
  5
   324
  8
0
  6
CONTINUOUS
 10
-72.1550684724811
 20
250.88268110594
 30
0.0
 40
0.0
 41
0.0
  0
VERTEX
  5
   325
  8
0
  6
CONTINUOUS
 10
-72.1800892220774
 20
250.835215950796
 30
0.0
 40
0.0
 41
0.0
  0
VERTEX
  5
   326
  8
0
  6
CONTINUOUS
 10
-72.2027727294532
 20
250.787458071304
 30
0.0
 40
0.0
 41
0.0
  0
VERTEX
  5
   327
  8
0
  6
CONTINUOUS
 10
-72.2231053309119
 20
250.739436235022
 30
0.0
 40
0.0
 41
0.0
  0
VERTEX
  5
   328
  8
0
  6
CONTINUOUS
 10
-72.2410747788546
 20
250.69117936851
 30
0.0
 40
0.0
 41
0.0
  0
VERTEX
  5
   329
  8
0
  6
CONTINUOUS
 10
-72.2566702491579
 20
250.642716539901
 30
0.0
 40
0.0
 41
0.0
  0
VERTEX
  5
   32A
  8
0
  6
CONTINUOUS
 10
-72.2698823476935
 20
250.594076941388
 30
0.0
 40
0.0
 41
0.0
  0
VERTEX
  5
   32B
  8
0
  6
CONTINUOUS
 10
-72.2807031159873
 20
250.545289871649
 30
0.0
 40
0.0
 41
0.0
  0
VERTEX
  5
   32C
  8
0
  6
CONTINUOUS
 10
-72.2891260360131
 20
250.496384718189
 30
0.0
 40
0.0
 41
0.0
  0
VERTEX
  5
   32D
  8
0
  6
CONTINUOUS
 10
-72.2951460341189
 20
250.447390939645
 30
0.0
 40
0.0
 41
0.0
  0
VERTEX
  5
   32E
  8
0
  6
CONTINUOUS
 10
-72.298759484083
 20
250.398338048035
 30
0.0
 40
0.0
 41
0.0
  0
VERTEX
  5
   32F
  8
0
  6
CONTINUOUS
 10
-72.299964209298
 20
250.34925559099
 30
0.0
 40
0.0
 41
0.0
  0
SEQEND
  5
   330
  8
0
  6
CONTINUOUS
 62
   218
  0
POLYLINE
  5
   331
  8
0
  6
CONTINUOUS
 62
   218
 66
     1
 10
0.0
 20
0.0
 30
0.0
  0
VERTEX
  5
   332
  8
0
  6
CONTINUOUS
 10
-56.299964209298
 20
250.349255591015
 30
0.0
 40
0.0
 41
0.0
  0
VERTEX
  5
   333
  8
0
  6
CONTINUOUS
 10
-56.3011689345136
 20
250.398338048061
 30
0.0
 40
0.0
 41
0.0
  0
VERTEX
  5
   334
  8
0
  6
CONTINUOUS
 10
-56.3047823844781
 20
250.44739093967
 30
0.0
 40
0.0
 41
0.0
  0
VERTEX
  5
   335
  8
0
  6
CONTINUOUS
 10
-56.3108023825844
 20
250.496384718214
 30
0.0
 40
0.0
 41
0.0
  0
VERTEX
  5
   336
  8
0
  6
CONTINUOUS
 10
-56.3192253026107
 20
250.545289871674
 30
0.0
 40
0.0
 41
0.0
  0
VERTEX
  5
   337
  8
0
  6
CONTINUOUS
 10
-56.3300460709051
 20
250.594076941413
 30
0.0
 40
0.0
 41
0.0
  0
VERTEX
  5
   338
  8
0
  6
CONTINUOUS
 10
-56.3432581694412
 20
250.642716539926
 30
0.0
 40
0.0
 41
0.0
  0
VERTEX
  5
   339
  8
0
  6
CONTINUOUS
 10
-56.3588536397449
 20
250.691179368535
 30
0.0
 40
0.0
 41
0.0
  0
VERTEX
  5
   33A
  8
0
  6
CONTINUOUS
 10
-56.3768230876882
 20
250.739436235047
 30
0.0
 40
0.0
 41
0.0
  0
VERTEX
  5
   33B
  8
0
  6
CONTINUOUS
 10
-56.3971556891474
 20
250.787458071328
 30
0.0
 40
0.0
 41
0.0
  0
VERTEX
  5
   33C
  8
0
  6
CONTINUOUS
 10
-56.4198391965237
 20
250.835215950821
 30
0.0
 40
0.0
 41
0.0
  0
VERTEX
  5
   33D
  8
0
  6
CONTINUOUS
 10
-56.4448599461205
 20
250.882681105964
 30
0.0
 40
0.0
 41
0.0
  0
VERTEX
  5
   33E
  8
0
  6
CONTINUOUS
 10
-56.4722028663738
 20
250.929824945523
 30
0.0
 40
0.0
 41
0.0
  0
VERTEX
  5
   33F
  8
0
  6
CONTINUOUS
 10
-56.5018514869309
 20
250.976619071812
 30
0.0
 40
0.0
 41
0.0
  0
VERTEX
  5
   340
  8
0
  6
CONTINUOUS
 10
-56.5337879485714
 20
251.023035297799
 30
0.0
 40
0.0
 41
0.0
  0
VERTEX
  5
   341
  8
0
  6
CONTINUOUS
 10
-56.5679930139649
 20
251.069045664084
 30
0.0
 40
0.0
 41
0.0
  0
VERTEX
  5
   342
  8
0
  6
CONTINUOUS
 10
-56.6044460792591
 20
251.114622455744
 30
0.0
 40
0.0
 41
0.0
  0
VERTEX
  5
   343
  8
0
  6
CONTINUOUS
 10
-56.6840070368113
 20
251.204365777875
 30
0.0
 40
0.0
 41
0.0
  0
VERTEX
  5
   344
  8
0
  6
CONTINUOUS
 10
-56.7722791519124
 20
251.292049064666
 30
0.0
 40
0.0
 41
0.0
  0
VERTEX
  5
   345
  8
0
  6
CONTINUOUS
 10
-56.8690497693056
 20
251.3774610794
 30
0.0
 40
0.0
 41
0.0
  0
VERTEX
  5
   346
  8
0
  6
CONTINUOUS
 10
-56.9740857600973
 20
251.460396057052
 30
0.0
 40
0.0
 41
0.0
  0
VERTEX
  5
   347
  8
0
  6
CONTINUOUS
 10
-57.0871340833856
 20
251.540654199997
 30
0.0
 40
0.0
 41
0.0
  0
VERTEX
  5
   348
  8
0
  6
CONTINUOUS
 10
-57.207922395858
 20
251.61804215934
 30
0.0
 40
0.0
 41
0.0
  0
VERTEX
  5
   349
  8
0
  6
CONTINUOUS
 10
-57.3361597078899
 20
251.692373500706
 30
0.0
 40
0.0
 41
0.0
  0
VERTEX
  5
   34A
  8
0
  6
CONTINUOUS
 10
-57.4715370845643
 20
251.763469153384
 30
0.0
 40
0.0
 41
0.0
  0
VERTEX
  5
   34B
  8
0
  6
CONTINUOUS
 10
-57.6137283899231
 20
251.831157841721
 30
0.0
 40
0.0
 41
0.0
  0
VERTEX
  5
   34C
  8
0
  6
CONTINUOUS
 10
-57.7623910726573
 20
251.895276497736
 30
0.0
 40
0.0
 41
0.0
  0
VERTEX
  5
   34D
  8
0
  6
CONTINUOUS
 10
-57.9171669913428
 20
251.955670653971
 30
0.0
 40
0.0
 41
0.0
  0
VERTEX
  5
   34E
  8
0
  6
CONTINUOUS
 10
-58.0776832772348
 20
252.012194815614
 30
0.0
 40
0.0
 41
0.0
  0
VERTEX
  5
   34F
  8
0
  6
CONTINUOUS
 10
-58.2435532325409
 20
252.064712811009
 30
0.0
 40
0.0
 41
0.0
  0
VERTEX
  5
   350
  8
0
  6
CONTINUOUS
 10
-58.4143772620104
 20
252.113098119704
 30
0.0
 40
0.0
 41
0.0
  0
VERTEX
  5
   351
  8
0
  6
CONTINUOUS
 10
-58.5897438355938
 20
252.157234177254
 30
0.0
 40
0.0
 41
0.0
  0
VERTEX
  5
   352
  8
0
  6
CONTINUOUS
 10
-58.7692304798551
 20
252.197014656029
 30
0.0
 40
0.0
 41
0.0
  0
VERTEX
  5
   353
  8
0
  6
CONTINUOUS
 10
-58.952404795747
 20
252.232343721371
 30
0.0
 40
0.0
 41
0.0
  0
VERTEX
  5
   354
  8
0
  6
CONTINUOUS
 10
-59.1388255002985
 20
252.263136262469
 30
0.0
 40
0.0
 41
0.0
  0
VERTEX
  5
   355
  8
0
  6
CONTINUOUS
 10
-59.3280434897037
 20
252.289318097393
 30
0.0
 40
0.0
 41
0.0
  0
VERTEX
  5
   356
  8
0
  6
CONTINUOUS
 10
-59.5196029212526
 20
252.31082615181
 30
0.0
 40
0.0
 41
0.0
  0
VERTEX
  5
   357
  8
0
  6
CONTINUOUS
 10
-59.713042311496
 20
252.327608610932
 30
0.0
 40
0.0
 41
0.0
  0
VERTEX
  5
   358
  8
0
  6
CONTINUOUS
 10
-59.9078956479995
 20
252.339625044346
 30
0.0
 40
0.0
 41
0.0
  0
VERTEX
  5
   359
  8
0
  6
CONTINUOUS
 10
-60.1036935120083
 20
252.346846503411
 30
0.0
 40
0.0
 41
0.0
  0
VERTEX
  5
   35A
  8
0
  6
CONTINUOUS
 10
-60.2999642093181
 20
252.349255591
 30
0.0
 40
0.0
 41
0.0
  0
VERTEX
  5
   35B
  8
0
  6
CONTINUOUS
 10
-60.4962349066279
 20
252.346846503409
 30
0.0
 40
0.0
 41
0.0
  0
VERTEX
  5
   35C
  8
0
  6
CONTINUOUS
 10
-60.6920327706366
 20
252.339625044342
 30
0.0
 40
0.0
 41
0.0
  0
VERTEX
  5
   35D
  8
0
  6
CONTINUOUS
 10
-60.8868861071398
 20
252.327608610927
 30
0.0
 40
0.0
 41
0.0
  0
VERTEX
  5
   35E
  8
0
  6
CONTINUOUS
 10
-61.0803254973829
 20
252.310826151803
 30
0.0
 40
0.0
 41
0.0
  0
VERTEX
  5
   35F
  8
0
  6
CONTINUOUS
 10
-61.2718849289313
 20
252.289318097384
 30
0.0
 40
0.0
 41
0.0
  0
VERTEX
  5
   360
  8
0
  6
CONTINUOUS
 10
-61.461102918336
 20
252.263136262459
 30
0.0
 40
0.0
 41
0.0
  0
VERTEX
  5
   361
  8
0
  6
CONTINUOUS
 10
-61.6475236228869
 20
252.23234372136
 30
0.0
 40
0.0
 41
0.0
  0
VERTEX
  5
   362
  8
0
  6
CONTINUOUS
 10
-61.8306979387781
 20
252.197014656015
 30
0.0
 40
0.0
 41
0.0
  0
VERTEX
  5
   363
  8
0
  6
CONTINUOUS
 10
-62.0101845830386
 20
252.157234177239
 30
0.0
 40
0.0
 41
0.0
  0
VERTEX
  5
   364
  8
0
  6
CONTINUOUS
 10
-62.1855511566211
 20
252.113098119688
 30
0.0
 40
0.0
 41
0.0
  0
VERTEX
  5
   365
  8
0
  6
CONTINUOUS
 10
-62.3563751860896
 20
252.064712810991
 30
0.0
 40
0.0
 41
0.0
  0
VERTEX
  5
   366
  8
0
  6
CONTINUOUS
 10
-62.5222451413947
 20
252.012194815594
 30
0.0
 40
0.0
 41
0.0
  0
VERTEX
  5
   367
  8
0
  6
CONTINUOUS
 10
-62.6827614272855
 20
251.95567065395
 30
0.0
 40
0.0
 41
0.0
  0
VERTEX
  5
   368
  8
0
  6
CONTINUOUS
 10
-62.8375373459698
 20
251.895276497713
 30
0.0
 40
0.0
 41
0.0
  0
VERTEX
  5
   369
  8
0
  6
CONTINUOUS
 10
-62.9862000287027
 20
251.831157841697
 30
0.0
 40
0.0
 41
0.0
  0
VERTEX
  5
   36A
  8
0
  6
CONTINUOUS
 10
-63.1283913340602
 20
251.763469153359
 30
0.0
 40
0.0
 41
0.0
  0
VERTEX
  5
   36B
  8
0
  6
CONTINUOUS
 10
-63.2637687107331
 20
251.69237350068
 30
0.0
 40
0.0
 41
0.0
  0
VERTEX
  5
   36C
  8
0
  6
CONTINUOUS
 10
-63.3920060227635
 20
251.618042159312
 30
0.0
 40
0.0
 41
0.0
  0
VERTEX
  5
   36D
  8
0
  6
CONTINUOUS
 10
-63.5127943352343
 20
251.540654199969
 30
0.0
 40
0.0
 41
0.0
  0
VERTEX
  5
   36E
  8
0
  6
CONTINUOUS
 10
-63.6258426585211
 20
251.460396057023
 30
0.0
 40
0.0
 41
0.0
  0
VERTEX
  5
   36F
  8
0
  6
CONTINUOUS
 10
-63.7308786493111
 20
251.37746107937
 30
0.0
 40
0.0
 41
0.0
  0
VERTEX
  5
   370
  8
0
  6
CONTINUOUS
 10
-63.8276492667025
 20
251.292049064635
 30
0.0
 40
0.0
 41
0.0
  0
VERTEX
  5
   371
  8
0
  6
CONTINUOUS
 10
-63.9159213818019
 20
251.204365777843
 30
0.0
 40
0.0
 41
0.0
  0
VERTEX
  5
   372
  8
0
  6
CONTINUOUS
 10
-63.9954823393523
 20
251.114622455712
 30
0.0
 40
0.0
 41
0.0
  0
VERTEX
  5
   373
  8
0
  6
CONTINUOUS
 10
-64.0319354046456
 20
251.069045664051
 30
0.0
 40
0.0
 41
0.0
  0
VERTEX
  5
   374
  8
0
  6
CONTINUOUS
 10
-64.0661404700382
 20
251.023035297766
 30
0.0
 40
0.0
 41
0.0
  0
VERTEX
  5
   375
  8
0
  6
CONTINUOUS
 10
-64.0980769316777
 20
250.976619071779
 30
0.0
 40
0.0
 41
0.0
  0
VERTEX
  5
   376
  8
0
  6
CONTINUOUS
 10
-64.1277255522339
 20
250.92982494549
 30
0.0
 40
0.0
 41
0.0
  0
VERTEX
  5
   377
  8
0
  6
CONTINUOUS
 10
-64.1550684724862
 20
250.882681105931
 30
0.0
 40
0.0
 41
0.0
  0
VERTEX
  5
   378
  8
0
  6
CONTINUOUS
 10
-64.1800892220821
 20
250.835215950787
 30
0.0
 40
0.0
 41
0.0
  0
VERTEX
  5
   379
  8
0
  6
CONTINUOUS
 10
-64.2027727294575
 20
250.787458071294
 30
0.0
 40
0.0
 41
0.0
  0
VERTEX
  5
   37A
  8
0
  6
CONTINUOUS
 10
-64.2231053309157
 20
250.739436235013
 30
0.0
 40
0.0
 41
0.0
  0
VERTEX
  5
   37B
  8
0
  6
CONTINUOUS
 10
-64.241074778858
 20
250.691179368501
 30
0.0
 40
0.0
 41
0.0
  0
VERTEX
  5
   37C
  8
0
  6
CONTINUOUS
 10
-64.2566702491608
 20
250.642716539891
 30
0.0
 40
0.0
 41
0.0
  0
VERTEX
  5
   37D
  8
0
  6
CONTINUOUS
 10
-64.2698823476959
 20
250.594076941378
 30
0.0
 40
0.0
 41
0.0
  0
VERTEX
  5
   37E
  8
0
  6
CONTINUOUS
 10
-64.2807031159892
 20
250.545289871639
 30
0.0
 40
0.0
 41
0.0
  0
VERTEX
  5
   37F
  8
0
  6
CONTINUOUS
 10
-64.2891260360146
 20
250.496384718179
 30
0.0
 40
0.0
 41
0.0
  0
VERTEX
  5
   380
  8
0
  6
CONTINUOUS
 10
-64.2951460341199
 20
250.447390939635
 30
0.0
 40
0.0
 41
0.0
  0
VERTEX
  5
   381
  8
0
  6
CONTINUOUS
 10
-64.2987594840834
 20
250.398338048025
 30
0.0
 40
0.0
 41
0.0
  0
VERTEX
  5
   382
  8
0
  6
CONTINUOUS
 10
-64.299964209298
 20
250.34925559098
 30
0.0
 40
0.0
 41
0.0
  0
SEQEND
  5
   383
  8
0
  6
CONTINUOUS
 62
   218
  0
INSERT
  5
   384
  8
0
  6
CONTINUOUS
 62
   218
  2
*HATCH124
 10
0.0
 20
0.0
 30
0.0
  0
LINE
  5
   385
  8
0
  6
CONTINUOUS
 62
   218
 10
-62.878366952658
 20
208.737096448576
 30
0.0
 11
-58.8228463963633
 21
231.737096448576
 31
0.0
  0
LINE
  5
   386
  8
0
  6
CONTINUOUS
 62
   218
 10
-61.456769696018
 20
208.737096448575
 30
0.0
 11
-58.099964209298
 21
227.774486377403
 31
0.0
  0
LINE
  5
   387
  8
0
  6
CONTINUOUS
 62
   218
 10
-60.035172439378
 20
208.737096448575
 30
0.0
 11
-58.099964209298
 21
219.712207701002
 31
0.0
  0
LINE
  5
   388
  8
0
  6
CONTINUOUS
 62
   218
 10
-58.613575182738
 20
208.737096448575
 30
0.0
 11
-58.0999642092981
 21
211.649929024601
 31
0.0
  0
LINE
  5
   389
  8
0
  6
CONTINUOUS
 62
   218
 10
-65.7215614659381
 20
208.737096448575
 30
0.0
 11
-61.6660409096434
 21
231.737096448576
 31
0.0
  0
LINE
  5
   38A
  8
0
  6
CONTINUOUS
 62
   218
 10
-67.1431587225781
 20
208.737096448575
 30
0.0
 11
-63.0876381662835
 21
231.737096448575
 31
0.0
  0
LINE
  5
   38B
  8
0
  6
CONTINUOUS
 62
   218
 10
-68.5647559792182
 20
208.737096448576
 30
0.0
 11
-64.5092354229235
 21
231.737096448576
 31
0.0
  0
LINE
  5
   38C
  8
0
  6
CONTINUOUS
 62
   218
 10
-69.9863532358582
 20
208.737096448575
 30
0.0
 11
-65.9308326795636
 21
231.737096448575
 31
0.0
  0
LINE
  5
   38D
  8
0
  6
CONTINUOUS
 62
   218
 10
-70.499964209298
 20
213.886542548952
 30
0.0
 11
-67.3524299362037
 21
231.737096448576
 31
0.0
  0
LINE
  5
   38E
  8
0
  6
CONTINUOUS
 62
   218
 10
-70.4999642092981
 20
221.948821225353
 30
0.0
 11
-68.7740271928438
 21
231.737096448575
 31
0.0
  0
LINE
  5
   38F
  8
0
  6
CONTINUOUS
 62
   218
 10
-70.499964209298
 20
230.011099901754
 30
0.0
 11
-70.1956244494838
 21
231.737096448575
 31
0.0
  0
ENDBLK
  5
   390
  8
0
  6
CONTINUOUS
 62
     7
  0
BLOCK
  5
   391
  8
0
  6
CONTINUOUS
 62
     7
  2
TS4
 70
    64
 10
0.0
 20
0.0
 30
0.0
  3
TS4
  0
POINT
  5
   392
  8
0
  6
CONTINUOUS
 62
     7
 10
-116.499938964844
 20
250.737045288086
 30
0.0
  0
LINE
  5
   393
  8
0
  6
CONTINUOUS
 62
   130
 10
-140.000015258781
 20
235.237045288019
 30
0.0
 11
-103.000015258781
 21
235.237045288019
 31
0.0
  0
ARC
  5
   394
  8
0
  6
CONTINUOUS
 62
     5
 10
-121.499938964844
 20
250.737045288086
 30
0.0
 40
3.99999999999999
 50
270.0
 51
450.0
  0
LINE
  5
   395
  8
0
  6
CONTINUOUS
 62
     5
 10
-123.999938964844
 20
240.737045288086
 30
0.0
 11
-123.999938964844
 21
260.737045288086
 31
0.0
  0
LINE
  5
   396
  8
0
  6
CONTINUOUS
 62
     5
 10
-123.999938964844
 20
260.737045288086
 30
0.0
 11
-121.499938964844
 21
260.737045288086
 31
0.0
  0
LINE
  5
   397
  8
0
  6
CONTINUOUS
 62
     5
 10
-104.099938964844
 20
260.737045288086
 30
0.0
 11
-88.9999389648438
 21
260.737045288086
 31
0.0
  0
LINE
  5
   398
  8
0
  6
CONTINUOUS
 62
     5
 10
-123.999938964844
 20
240.737045288086
 30
0.0
 11
-121.499938964844
 21
240.737045288086
 31
0.0
  0
LINE
  5
   399
  8
0
  6
CONTINUOUS
 62
     5
 10
-104.099938964844
 20
240.737045288086
 30
0.0
 11
-88.9999389648438
 21
240.737045288086
 31
0.0
  0
ARC
  5
   39A
  8
0
  6
CONTINUOUS
 62
     5
 10
-121.499938964844
 20
250.737045288086
 30
0.0
 40
1.49999999999999
 50
270.0
 51
450.0
  0
ARC
  5
   39B
  8
0
  6
CONTINUOUS
 62
     5
 10
-121.499938964844
 20
254.737045288086
 30
0.0
 40
2.5
 50
180.0
 51
270.0
  0
ARC
  5
   39C
  8
0
  6
CONTINUOUS
 62
     5
 10
-121.499938964844
 20
246.737045288086
 30
0.0
 40
2.5
 50
89.9999999999997
 51
180.0
  0
LINE
  5
   39D
  8
0
  6
CONTINUOUS
 62
     5
 10
-86.9999389648438
 20
242.737045288086
 30
0.0
 11
-86.9999389648438
 21
244.737045288086
 31
0.0
  0
ARC
  5
   39E
  8
0
  6
CONTINUOUS
 62
     5
 10
-88.9999389648438
 20
258.737045288086
 30
0.0
 40
2.0
 50
360.0
 51
450.0
  0
ARC
  5
   39F
  8
0
  6
CONTINUOUS
 62
     5
 10
-88.9999389648438
 20
242.737045288086
 30
0.0
 40
2.0
 50
270.0
 51
360.0
  0
LINE
  5
   3A0
  8
0
  6
CONTINUOUS
 62
     5
 10
-95.9999389648438
 20
240.737045288086
 30
0.0
 11
-95.9999389648438
 21
244.737045288086
 31
0.0
  0
LINE
  5
   3A1
  8
0
  6
CONTINUOUS
 62
     5
 10
-91.9999389648438
 20
240.737045288086
 30
0.0
 11
-91.9999389648438
 21
244.737045288086
 31
0.0
  0
LINE
  5
   3A2
  8
0
  6
CONTINUOUS
 62
     1
 10
-104.099938964844
 20
259.237045288086
 30
0.0
 11
-100.599938964844
 21
259.237045288086
 31
0.0
  0
LINE
  5
   3A3
  8
0
  6
CONTINUOUS
 62
     1
 10
-104.099938964844
 20
242.237045288086
 30
0.0
 11
-100.599938964844
 21
242.237045288086
 31
0.0
  0
LINE
  5
   3A4
  8
0
  6
CONTINUOUS
 62
     1
 10
-103.099938964844
 20
242.237045288086
 30
0.0
 11
-103.099938964844
 21
243.737045288087
 31
0.0
  0
LINE
  5
   3A5
  8
0
  6
CONTINUOUS
 62
     1
 10
-100.599938964844
 20
242.237045288086
 30
0.0
 11
-100.599938964844
 21
243.737045288087
 31
0.0
  0
ARC
  5
   3A6
  8
0
  6
CONTINUOUS
 62
     1
 10
-102.349938964844
 20
256.737045288086
 30
0.0
 40
1.25000000000002
 50
126.869897645844
 51
233.130102354156
  0
LINE
  5
   3A7
  8
0
  6
CONTINUOUS
 62
     1
 10
-103.099938964844
 20
257.737045288086
 30
0.0
 11
-103.099938964844
 21
259.237045288086
 31
0.0
  0
ARC
  5
   3A8
  8
0
  6
CONTINUOUS
 62
     1
 10
-102.349938964844
 20
244.737045288086
 30
0.0
 40
1.25000000000002
 50
126.869897645844
 51
233.130102354156
  0
LINE
  5
   3A9
  8
0
  6
CONTINUOUS
 62
     1
 10
-103.099938964844
 20
245.737045288085
 30
0.0
 11
-103.099938964844
 21
255.737045288086
 31
0.0
  0
ARC
  5
   3AA
  8
0
  6
CONTINUOUS
 62
     1
 10
-99.8499389648438
 20
256.737045288086
 30
0.0
 40
1.25000000000002
 50
126.869897645844
 51
233.130102354156
  0
ARC
  5
   3AB
  8
0
  6
CONTINUOUS
 62
     1
 10
-99.8499389648438
 20
244.737045288086
 30
0.0
 40
1.25000000000002
 50
126.869897645844
 51
233.130102354156
  0
LINE
  5
   3AC
  8
0
  6
CONTINUOUS
 62
     1
 10
-100.599938964844
 20
257.737045288086
 30
0.0
 11
-100.599938964844
 21
259.237045288086
 31
0.0
  0
LINE
  5
   3AD
  8
0
  6
CONTINUOUS
 62
     1
 10
-100.599938964844
 20
245.737045288085
 30
0.0
 11
-100.599938964844
 21
246.237045288086
 31
0.0
  0
LINE
  5
   3AE
  8
0
  6
CONTINUOUS
 62
     1
 10
-102.099938964844
 20
253.737045288086
 30
0.0
 11
-99.0999389648438
 21
253.737045288086
 31
0.0
  0
LINE
  5
   3AF
  8
0
  6
CONTINUOUS
 62
     1
 10
-102.099938964844
 20
247.737045288086
 30
0.0
 11
-99.0999389648438
 21
247.737045288086
 31
0.0
  0
LINE
  5
   3B0
  8
0
  6
CONTINUOUS
 62
     1
 10
-100.599938964844
 20
255.237045288086
 30
0.0
 11
-99.0999389648438
 21
255.237045288086
 31
0.0
  0
LINE
  5
   3B1
  8
0
  6
CONTINUOUS
 62
     1
 10
-100.599938964844
 20
246.237045288086
 30
0.0
 11
-99.0999389648438
 21
246.237045288086
 31
0.0
  0
LINE
  5
   3B2
  8
0
  6
CONTINUOUS
 62
     1
 10
-100.599938964844
 20
255.237045288086
 30
0.0
 11
-100.599938964844
 21
255.737045288086
 31
0.0
  0
ARC
  5
   3B3
  8
0
  6
CONTINUOUS
 62
     1
 10
-102.099938964844
 20
254.737045288086
 30
0.0
 40
1.0
 50
180.0
 51
270.0
  0
ARC
  5
   3B4
  8
0
  6
CONTINUOUS
 62
     1
 10
-102.099938964844
 20
246.737045288086
 30
0.0
 40
1.0
 50
90.0
 51
180.0
  0
LINE
  5
   3B5
  8
0
  6
CONTINUOUS
 62
     2
 10
-102.599938964844
 20
252.737045288086
 30
0.0
 11
-99.0999389648438
 21
252.737045288086
 31
0.0
  0
LINE
  5
   3B6
  8
0
  6
CONTINUOUS
 62
     2
 10
-102.599938964844
 20
248.737045288086
 30
0.0
 11
-99.0999389648438
 21
248.737045288086
 31
0.0
  0
LINE
  5
   3B7
  8
0
  6
CONTINUOUS
 62
     2
 10
-99.099938964844
 20
248.737045288086
 30
0.0
 11
-97.9452384264647
 21
250.737045288086
 31
0.0
  0
LINE
  5
   3B8
  8
0
  6
CONTINUOUS
 62
     2
 10
-99.0999389648437
 20
252.737045288086
 30
0.0
 11
-97.9452384264645
 21
250.737045288086
 31
0.0
  0
LINE
  5
   3B9
  8
0
  6
CONTINUOUS
 62
     2
 10
-99.0999389648438
 20
248.737045288086
 30
0.0
 11
-99.0999389648438
 21
252.737045288086
 31
0.0
  0
LINE
  5
   3BA
  8
0
  6
CONTINUOUS
 62
     2
 10
-99.0999389648438
 20
255.237045288086
 30
0.0
 11
-99.0999389648438
 21
255.737045288086
 31
0.0
  0
LINE
  5
   3BB
  8
0
  6
CONTINUOUS
 62
     1
 10
-99.0999389648438
 20
246.237045288086
 30
0.0
 11
-99.0999389648438
 21
247.737045288086
 31
0.0
  0
LINE
  5
   3BC
  8
0
  6
CONTINUOUS
 62
     1
 10
-99.0999389648438
 20
253.737045288086
 30
0.0
 11
-99.0999389648438
 21
255.237045288086
 31
0.0
  0
LINE
  5
   3BD
  8
0
  6
CONTINUOUS
 62
     2
 10
-80.0999389648438
 20
245.737045288086
 30
0.0
 11
-80.0999389648438
 21
255.737045288086
 31
0.0
  0
LINE
  5
   3BE
  8
0
  6
CONTINUOUS
 62
     2
 10
-98.0999389648438
 20
256.737045288086
 30
0.0
 11
-81.0999389648438
 21
256.737045288086
 31
0.0
  0
LINE
  5
   3BF
  8
0
  6
CONTINUOUS
 62
     2
 10
-98.0999389648438
 20
244.737045288086
 30
0.0
 11
-81.0999389648438
 21
244.737045288086
 31
0.0
  0
LINE
  5
   3C0
  8
0
  6
CONTINUOUS
 62
     5
 10
-95.9999389648438
 20
256.737045288086
 30
0.0
 11
-95.9999389648438
 21
260.737045288086
 31
0.0
  0
LINE
  5
   3C1
  8
0
  6
CONTINUOUS
 62
     5
 10
-91.9999389648438
 20
256.737045288086
 30
0.0
 11
-91.9999389648438
 21
260.737045288086
 31
0.0
  0
LINE
  5
   3C2
  8
0
  6
CONTINUOUS
 62
     5
 10
-86.9999389648438
 20
256.737045288086
 30
0.0
 11
-86.9999389648438
 21
258.737045288086
 31
0.0
  0
LINE
  5
   3C3
  8
0
  6
CONTINUOUS
 62
     2
 10
-81.0999389648438
 20
256.737045288086
 30
0.0
 11
-80.0999389648437
 21
255.737045288086
 31
0.0
  0
LINE
  5
   3C4
  8
0
  6
CONTINUOUS
 62
     2
 10
-81.0999389648438
 20
244.737045288086
 30
0.0
 11
-80.0999389648438
 21
245.737045288086
 31
0.0
  0
LINE
  5
   3C5
  8
0
  6
CONTINUOUS
 62
     2
 10
-99.0999389648438
 20
245.737045288086
 30
0.0
 11
-98.0999389648438
 21
244.737045288086
 31
0.0
  0
LINE
  5
   3C6
  8
0
  6
CONTINUOUS
 62
     2
 10
-99.0999389648437
 20
255.737045288086
 30
0.0
 11
-98.0999389648437
 21
256.737045288086
 31
0.0
  0
LINE
  5
   3C7
  8
0
  6
CONTINUOUS
 62
     2
 10
-81.0999389648438
 20
244.737045288086
 30
0.0
 11
-81.0999389648438
 21
256.737045288086
 31
0.0
  0
LINE
  5
   3C8
  8
0
  6
CONTINUOUS
 62
     7
 10
-98.8499389648438
 20
255.987045288086
 30
0.0
 11
-80.3499389648438
 21
255.987045288086
 31
0.0
  0
LINE
  5
   3C9
  8
0
  6
CONTINUOUS
 62
     7
 10
-98.8499389648357
 20
245.487045288089
 30
0.0
 11
-80.3499389648402
 21
245.487045288089
 31
0.0
  0
LINE
  5
   3CA
  8
0
  6
CONTINUOUS
 62
     2
 10
-99.0999389648438
 20
245.737045288086
 30
0.0
 11
-99.0999389648438
 21
246.237045288086
 31
0.0
  0
ARC
  5
   3CB
  8
0
  6
CONTINUOUS
 62
     2
 10
-102.599938964844
 20
253.237045288086
 30
0.0
 40
0.5
 50
180.0
 51
270.0
  0
ARC
  5
   3CC
  8
0
  6
CONTINUOUS
 62
     2
 10
-102.599938964844
 20
248.237045288086
 30
0.0
 40
0.5
 50
90.0
 51
180.0
  0
LINE
  5
   3CD
  8
0
  6
CONTINUOUS
 62
     7
 10
-96.7399243713875
 20
244.239486922159
 30
0.0
 11
-96.7399243713875
 21
257.484599841583
 31
0.0
  0
LINE
  5
   3CE
  8
0
  6
CONTINUOUS
 62
     7
 10
-95.9999389648438
 20
256.737045288086
 30
0.0
 11
-94.9999389648437
 21
256.737045288086
 31
0.0
  0
LINE
  5
   3CF
  8
0
  6
CONTINUOUS
 62
     7
 10
-95.9999389648438
 20
244.737045288086
 30
0.0
 11
-94.9999389648437
 21
244.737045288086
 31
0.0
  0
LINE
  5
   3D0
  8
0
  6
CONTINUOUS
 62
     3
 10
-116.499938964844
 20
235.236949199208
 30
0.0
 11
-116.499938964844
 21
240.737045288086
 31
0.0
  0
LINE
  5
   3D1
  8
0
  6
DASHDOT
 62
     7
 10
-123.681527827821
 20
250.737045288086
 30
0.0
 11
-64.1564715620206
 21
250.737045288086
 31
0.0
  0
LINE
  5
   3D2
  8
0
  6
CONTINUOUS
 62
     3
 10
-121.499938964844
 20
240.737045288086
 30
0.0
 11
-116.499938964844
 21
240.737045288086
 31
0.0
  0
LINE
  5
   3D3
  8
0
  6
CONTINUOUS
 62
     3
 10
-121.499938964844
 20
260.737045288086
 30
0.0
 11
-116.499938964844
 21
260.737045288086
 31
0.0
  0
LINE
  5
   3D4
  8
0
  6
CONTINUOUS
 62
     3
 10
-121.499938964844
 20
254.837045288086
 30
0.0
 11
-116.499938964844
 21
254.837045288086
 31
0.0
  0
LINE
  5
   3D5
  8
0
  6
CONTINUOUS
 62
     3
 10
-121.499938964844
 20
246.637045288086
 30
0.0
 11
-116.499938964844
 21
246.637045288086
 31
0.0
  0
LINE
  5
   3D6
  8
0
  6
CONTINUOUS
 62
     3
 10
-121.499938964844
 20
254.737045288086
 30
0.0
 11
-121.499938964844
 21
260.737045288086
 31
0.0
  0
LINE
  5
   3D7
  8
0
  6
CONTINUOUS
 62
     7
 10
-123.186801800995
 20
243.303746490573
 30
0.0
 11
-114.974347330342
 21
243.303746490573
 31
0.0
  0
INSERT
  5
   3D8
  8
0
  6
CONTINUOUS
 62
     7
  2
*HATCH115
 10
0.0
 20
0.0
 30
0.0
  0
INSERT
  5
   3D9
  8
0
  6
CONTINUOUS
 62
     7
  2
*HATCH116
 10
0.0
 20
0.0
 30
0.0
  0
LINE
  5
   3DA
  8
0
  6
CONTINUOUS
 62
     3
 10
-121.499938964844
 20
235.236945075216
 30
0.0
 11
-121.499938964844
 21
246.737045288086
 31
0.0
  0
LINE
  5
   3DB
  8
0
  6
CONTINUOUS
 62
     7
 10
-125.85605915655
 20
233.393489119924
 30
0.0
 11
-125.85605915655
 21
276.295116212832
 31
0.0
  0
INSERT
  5
   3DC
  8
0
  6
CONTINUOUS
 62
     7
  2
*HATCH117
 10
0.0
 20
0.0
 30
0.0
  0
INSERT
  5
   3DD
  8
0
  6
CONTINUOUS
 62
     7
  2
*HATCH118
 10
0.0
 20
0.0
 30
0.0
  0
INSERT
  5
   3DE
  8
0
  6
CONTINUOUS
 62
     7
  2
*HATCH119
 10
0.0
 20
0.0
 30
0.0
  0
INSERT
  5
   3DF
  8
0
  6
CONTINUOUS
 62
     7
  2
*HATCH120
 10
0.0
 20
0.0
 30
0.0
  0
INSERT
  5
   3E0
  8
0
  6
CONTINUOUS
 62
     7
  2
*HATCH121
 10
0.0
 20
0.0
 30
0.0
  0
INSERT
  5
   3E1
  8
0
  6
CONTINUOUS
 62
     7
  2
*HATCH122
 10
0.0
 20
0.0
 30
0.0
  0
LINE
  5
   3E2
  8
0
  6
CONTINUOUS
 62
   130
 10
-73.0000152587808
 20
239.486984046877
 30
0.0
 11
-73.0000152587808
 21
273.986984046889
 31
0.0
  0
LINE
  5
   3E3
  8
0
  6
CONTINUOUS
 62
   130
 10
-75.5000152587808
 20
240.236983015879
 30
0.0
 11
-75.5000152587808
 21
273.236983015891
 31
0.0
  0
LINE
  5
   3E4
  8
0
  6
CONTINUOUS
 62
   130
 10
-103.000015258781
 20
238.237045288018
 30
0.0
 11
-74.2500142277828
 21
238.237045288018
 31
0.0
  0
LINE
  5
   3E5
  8
0
  6
CONTINUOUS
 62
   130
 10
-105.000015258781
 20
240.237045288017
 30
0.0
 11
-75.5000152587808
 21
240.237045288017
 31
0.0
  0
LINE
  5
   3E6
  8
0
  6
CONTINUOUS
 62
   130
 10
-103.000015258781
 20
235.236913507829
 30
0.0
 11
-103.000015258781
 21
238.236960333924
 31
0.0
  0
LINE
  5
   3E7
  8
0
  6
CONTINUOUS
 62
   130
 10
-105.000015258781
 20
237.236916282155
 30
0.0
 11
-105.000015258781
 21
240.236958684328
 31
0.0
  0
LINE
  5
   3E8
  8
0
  6
CONTINUOUS
 62
   130
 10
-115.999938952025
 20
237.236931540834
 30
0.0
 11
-105.000015235831
 21
237.236916282156
 31
0.0
  0
LINE
  5
   3E9
  8
0
  6
CONTINUOUS
 62
   130
 10
-102.299938964844
 20
275.237045288005
 30
0.0
 11
-74.2500162897787
 21
275.237045288005
 31
0.0
  0
ARC
  5
   3EA
  8
0
  6
CONTINUOUS
 62
   130
 10
-74.2500152587808
 20
273.986984046889
 30
0.0
 40
1.25
 50
360.0
 51
450.000047257464
  0
LINE
  5
   3EB
  8
0
  6
CONTINUOUS
 62
   130
 10
-102.299938964844
 20
273.237045288006
 30
0.0
 11
-75.5000152587808
 21
273.237045288006
 31
0.0
  0
LINE
  5
   3EC
  8
0
  6
CONTINUOUS
 62
   130
 10
-102.299938964844
 20
271.237045288007
 30
0.0
 11
-76.4999795755596
 21
271.237045288007
 31
0.0
  0
LINE
  5
   3ED
  8
0
  6
CONTINUOUS
 62
   130
 10
-78.4999795755596
 20
273.236971056344
 30
0.0
 11
-78.4999795755596
 21
275.236971056345
 31
0.0
  0
LINE
  5
   3EE
  8
0
  6
CONTINUOUS
 62
   130
 10
-102.299938964844
 20
269.237045288007
 30
0.0
 11
-75.5000152587808
 21
269.237045288007
 31
0.0
  0
LINE
  5
   3EF
  8
0
  6
CONTINUOUS
 62
   130
 10
-76.4999795755596
 20
271.23697270594
 30
0.0
 11
-76.4999795755596
 21
273.236972705941
 31
0.0
  0
LINE
  5
   3F0
  8
0
  6
CONTINUOUS
 62
   130
 10
-151.0
 20
238.236920743616
 30
0.0
 11
-151.0
 21
275.236920743628
 31
0.0
  0
LINE
  5
   3F1
  8
0
  6
CONTINUOUS
 62
   130
 10
-115.999938964844
 20
235.236949611607
 30
0.0
 11
-115.999938964844
 21
237.236931540834
 31
0.0
  0
ARC
  5
   3F2
  8
0
  6
CONTINUOUS
 62
   130
 10
-74.2500152587808
 20
239.486984046877
 30
0.0
 40
1.25
 50
270.000047257464
 51
360.0
  0
LINE
  5
   3F3
  8
0
  6
CONTINUOUS
 62
   130
 10
-85.0000152587807
 20
239.736975180295
 30
0.0
 11
-85.0000152587807
 21
240.236975180295
 31
0.0
  0
LINE
  5
   3F4
  8
0
  6
CONTINUOUS
 62
   130
 10
-105.000015258781
 20
239.737045288017
 30
0.0
 11
-85.0000152587807
 21
239.737045288017
 31
0.0
  0
LINE
  5
   3F5
  8
0
  6
CONTINUOUS
 62
     1
 10
-104.099938964844
 20
257.737045288086
 30
0.0
 11
-103.099938964844
 21
257.737045288086
 31
0.0
  0
LINE
  5
   3F6
  8
0
  6
CONTINUOUS
 62
     1
 10
-104.099938964844
 20
255.737045288086
 30
0.0
 11
-103.099938964844
 21
255.737045288086
 31
0.0
  0
LINE
  5
   3F7
  8
0
  6
CONTINUOUS
 62
     1
 10
-104.099938964844
 20
245.737045288085
 30
0.0
 11
-103.099938964844
 21
245.737045288085
 31
0.0
  0
LINE
  5
   3F8
  8
0
  6
CONTINUOUS
 62
     1
 10
-104.099938964844
 20
243.737045288086
 30
0.0
 11
-103.099938964844
 21
243.737045288086
 31
0.0
  0
INSERT
  5
   3F9
  8
0
  6
CONTINUOUS
 62
     7
  2
*HATCH123
 10
0.0
 20
0.0
 30
0.0
  0
POINT
  5
   3FA
  8
0
  6
CONTINUOUS
 62
     7
 10
-116.499938964844
 20
250.737045288086
 30
0.0
  0
LINE
  5
   3FB
  8
0
  6
CONTINUOUS
 62
   130
 10
-151.0
 20
238.236920743616
 30
0.0
 11
-140.000015258781
 21
235.236929816384
 31
0.0
  0
LINE
  5
   3FC
  8
0
  6
CONTINUOUS
 62
     7
 10
-140.000015258781
 20
237.236929816385
 30
0.0
 11
-140.000015258781
 21
238.236929816385
 31
0.0
  0
LINE
  5
   3FD
  8
0
  6
CONTINUOUS
 62
     7
 10
-140.000015258781
 20
238.237045288018
 30
0.0
 11
-125.85605915655
 21
238.237045288018
 31
0.0
  0
LINE
  5
   3FE
  8
0
  6
CONTINUOUS
 62
     7
 10
-140.000014433982
 20
237.237045288018
 30
0.0
 11
-125.856058331752
 21
237.237045288018
 31
0.0
  0
LINE
  5
   3FF
  8
0
  6
CONTINUOUS
 62
   130
 10
-151.0
 20
275.237045288005
 30
0.0
 11
-118.299938964844
 21
275.237045288005
 31
0.0
  0
LINE
  5
   400
  8
0
  6
CONTINUOUS
 62
   130
 10
-125.85605915655
 20
273.237045288006
 30
0.0
 11
-118.299938964844
 21
273.237045288006
 31
0.0
  0
LINE
  5
   401
  8
0
  6
CONTINUOUS
 62
   130
 10
-125.85605915655
 20
271.237045288007
 30
0.0
 11
-118.299938964844
 21
271.237045288007
 31
0.0
  0
LINE
  5
   402
  8
0
  6
CONTINUOUS
 62
   130
 10
-125.85605915655
 20
269.237045288007
 30
0.0
 11
-118.299938964844
 21
269.237045288007
 31
0.0
  0
INSERT
  5
   403
  8
255
  6
CONTINUOUS
 62
     7
  2
CAVO
 10
-45.9999747555457
 20
31.9999488395106
 30
0.0
  0
ENDBLK
  5
   404
  8
0
  6
CONTINUOUS
 62
     7
  0
BLOCK
  5
   405
  8
0
  6
CONTINUOUS
 62
     7
  2
*UDIM456
 70
    65
 10
0.0
 20
0.0
 30
0.0
  3
*UDIM456
  0
TEXT
  5
   406
  8
0
  6
CONTINUOUS
 62
     7
 10
-538.065252739968
 20
13.6295603021561
 30
0.0
 40
2.99999994291904
  1
5,5
 50
309.702961466835
 41
0.933333333333333
 72
     1
 11
-534.419853421564
 21
11.5872422209162
 31
0.0
 73
     2
  0
TEXT
  5
   407
  8
0
  6
CONTINUOUS
 62
     7
 10
-540.07749660214
 20
16.0530648514266
 30
0.0
 40
2.99999994291904
  1
Ø
 50
309.702961466835
 41
0.933333333333333
 72
     1
 11
-538.220758487388
 21
16.1649730350455
 31
0.0
 73
     2
  0
LINE
  5
   408
  8
0
  6
CONTINUOUS
 62
     7
 10
-533.851920206305
 20
6.98969383710322
 30
0.0
 11
-546.562989939208
 21
22.2986412033654
 31
0.0
  0
LINE
  5
   409
  8
0
  6
CONTINUOUS
 62
     7
 10
-542.62356469543
 20
18.3695746343955
 30
0.0
 11
-544.911669908089
 21
20.3098257871603
 31
0.0
  0
LINE
  5
   40A
  8
0
  6
CONTINUOUS
 62
     7
 10
-544.911669908089
 20
20.3098257871603
 30
0.0
 11
-543.425159119748
 21
17.704008127356
 31
0.0
  0
LINE
  5
   40B
  8
0
  6
CONTINUOUS
 62
     7
 10
-548.851095151866
 20
24.2388923561302
 30
0.0
 11
-546.562989939208
 21
22.2986412033654
 31
0.0
  0
LINE
  5
   40C
  8
0
  6
CONTINUOUS
 62
     7
 10
-546.562989939208
 20
22.2986412033654
 30
0.0
 11
-548.049500727548
 21
24.9044588631697
 31
0.0
  0
ENDBLK
  5
   40D
  8
0
  6
CONTINUOUS
 62
     7
  0
BLOCK
  5
   40E
  8
0
  6
CONTINUOUS
 62
     7
  2
*UDIM457
 70
    65
 10
0.0
 20
0.0
 30
0.0
  3
*UDIM457
  0
TEXT
  5
   40F
  8
0
  6
CONTINUOUS
 62
     7
 10
-590.575399410627
 20
107.367129786954
 30
0.0
 40
2.99999994291904
  1
27,5
 50
359.999999948034
 41
0.933333333333333
 72
     1
 11
-585.275399510117
 21
108.867129753633
 31
0.0
 73
     2
  0
TEXT
  5
   410
  8
0
  6
CONTINUOUS
 62
     7
 10
-579.425399600392
 20
107.367129812209
 30
0.0
 40
2.99999994291904
  1
 - CORSA DI SEZIONAMENTO
 50
359.999999948034
 41
0.933333333333333
 72
     1
 11
-546.125400232638
 21
108.867129753633
 31
0.0
 73
     2
  0
LINE
  5
   411
  8
0
  6
CONTINUOUS
 62
     7
 10
-559.132300401926
 20
60.9617011279024
 30
0.0
 11
-559.132300401926
 21
108.367129782174
 31
0.0
  0
LINE
  5
   412
  8
0
  6
CONTINUOUS
 62
     7
 10
-572.057300369144
 20
47.8017872208511
 30
0.0
 11
-572.057300369144
 21
108.367129782174
 31
0.0
  0
LINE
  5
   413
  8
0
  6
CONTINUOUS
 62
     7
 10
-512.825400866237
 20
106.367129782174
 30
0.0
 11
-590.575399409274
 21
106.367129782174
 31
0.0
  0
LINE
  5
   414
  8
0
  6
CONTINUOUS
 62
     7
 10
-556.177877124719
 20
106.888074212126
 30
0.0
 11
-559.132300401926
 21
106.367129782174
 31
0.0
  0
LINE
  5
   415
  8
0
  6
CONTINUOUS
 62
     7
 10
-559.132300401926
 20
106.367129782174
 30
0.0
 11
-556.177877124719
 21
105.846185352222
 31
0.0
  0
LINE
  5
   416
  8
0
  6
CONTINUOUS
 62
     7
 10
-575.011723646351
 20
105.846185352222
 30
0.0
 11
-572.057300369144
 21
106.367129782174
 31
0.0
  0
LINE
  5
   417
  8
0
  6
CONTINUOUS
 62
     7
 10
-572.057300369144
 20
106.367129782174
 30
0.0
 11
-575.011723646351
 21
106.888074212126
 31
0.0
  0
ENDBLK
  5
   418
  8
0
  6
CONTINUOUS
 62
     7
  0
BLOCK
  5
   419
  8
0
  6
CONTINUOUS
 62
     7
  2
*UDIM458
 70
    65
 10
0.0
 20
0.0
 30
0.0
  3
*UDIM458
  0
TEXT
  5
   41A
  8
0
  6
CONTINUOUS
 62
     7
 10
-445.498208098251
 20
17.1292800442807
 30
0.0
 40
2.99999994291904
  1
285
 50
89.9999999480344
 41
0.933333333333333
 72
     1
 11
-446.998208066178
 21
21.029279971434
 31
0.0
 73
     2
  0
LINE
  5
   41B
  8
0
  6
CONTINUOUS
 62
     7
 10
-479.791977142827
 20
-45.6707036517989
 30
0.0
 11
-442.498208094719
 21
-45.6707036517989
 31
0.0
  0
LINE
  5
   41C
  8
0
  6
CONTINUOUS
 62
     7
 10
-479.791977142827
 20
88.2792656007564
 30
0.0
 11
-442.498208094719
 21
88.2792656007564
 31
0.0
  0
LINE
  5
   41D
  8
0
  6
CONTINUOUS
 62
     7
 10
-444.498208094719
 20
-45.6707036517989
 30
0.0
 11
-444.498208094719
 21
88.2792656007564
 31
0.0
  0
LINE
  5
   41E
  8
0
  6
CONTINUOUS
 62
     7
 10
-445.019152524671
 20
-42.716280374592
 30
0.0
 11
-444.498208094719
 21
-45.6707036517989
 31
0.0
  0
LINE
  5
   41F
  8
0
  6
CONTINUOUS
 62
     7
 10
-444.498208094719
 20
-45.6707036517989
 30
0.0
 11
-443.977263664767
 21
-42.716280374592
 31
0.0
  0
LINE
  5
   420
  8
0
  6
CONTINUOUS
 62
     7
 10
-443.977263664767
 20
85.3248423235494
 30
0.0
 11
-444.498208094719
 21
88.2792656007564
 31
0.0
  0
LINE
  5
   421
  8
0
  6
CONTINUOUS
 62
     7
 10
-444.498208094719
 20
88.2792656007564
 30
0.0
 11
-445.019152524671
 21
85.3248423235494
 31
0.0
  0
ENDBLK
  5
   422
  8
0
  6
CONTINUOUS
 62
     7
  0
BLOCK
  5
   423
  8
0
  6
CONTINUOUS
 62
     7
  2
*UDIM459
 70
    65
 10
0.0
 20
0.0
 30
0.0
  3
*UDIM459
  0
TEXT
  5
   424
  8
0
  6
CONTINUOUS
 62
     7
 10
-454.639527353772
 20
46.8280227343648
 30
0.0
 40
2.99999994291904
  1
140,75
 50
89.9999999480344
 41
0.933333333333333
 72
     1
 11
-456.139527317895
 21
54.9280225816048
 31
0.0
 73
     2
  0
LINE
  5
   425
  8
0
  6
CONTINUOUS
 62
     7
 10
-459.086726693055
 20
22.126787283436
 30
0.0
 11
-451.639527346435
 21
22.126787283436
 31
0.0
  0
LINE
  5
   426
  8
0
  6
CONTINUOUS
 62
     7
 10
-479.791977142827
 20
88.2792656007564
 30
0.0
 11
-451.639527346435
 21
88.2792656007564
 31
0.0
  0
LINE
  5
   427
  8
0
  6
CONTINUOUS
 62
     7
 10
-453.639527346435
 20
22.126787283436
 30
0.0
 11
-453.639527346435
 21
88.2792656007564
 31
0.0
  0
LINE
  5
   428
  8
0
  6
CONTINUOUS
 62
     7
 10
-454.160471776387
 20
25.081210560643
 30
0.0
 11
-453.639527346435
 21
22.126787283436
 31
0.0
  0
LINE
  5
   429
  8
0
  6
CONTINUOUS
 62
     7
 10
-453.639527346435
 20
22.126787283436
 30
0.0
 11
-453.118582916484
 21
25.081210560643
 31
0.0
  0
LINE
  5
   42A
  8
0
  6
CONTINUOUS
 62
     7
 10
-453.118582916484
 20
85.3248423235494
 30
0.0
 11
-453.639527346435
 21
88.2792656007564
 31
0.0
  0
LINE
  5
   42B
  8
0
  6
CONTINUOUS
 62
     7
 10
-453.639527346435
 20
88.2792656007564
 30
0.0
 11
-454.160471776387
 21
85.3248423235494
 31
0.0
  0
ENDBLK
  5
   42C
  8
0
  6
CONTINUOUS
 62
     7
  0
BLOCK
  5
   42D
  8
0
  6
CONTINUOUS
 62
     7
  2
*UDIM460
 70
    65
 10
0.0
 20
0.0
 30
0.0
  3
*UDIM460
  0
TEXT
  5
   42E
  8
0
  6
CONTINUOUS
 62
     7
 10
-458.899552817559
 20
112.018362681525
 30
0.0
 40
2.99999994291904
  1
3
 50
359.999999948034
 41
0.933333333333333
 72
     1
 11
-457.799552837135
 21
113.518362651992
 31
0.0
 73
     2
  0
TEXT
  5
   42F
  8
0
  6
CONTINUOUS
 62
     7
 10
-461.64955278762
 20
112.018362681525
 30
0.0
 40
2.99999994291904
  1
_
 50
359.999999948034
 41
0.933333333333333
 72
     1
 11
-460.549552807197
 21
113.518362651992
 31
0.0
 73
     2
  0
LINE
  5
   430
  8
0
  6
CONTINUOUS
 62
     7
 10
-465.837302431464
 20
107.848888061005
 30
0.0
 11
-465.837302431464
 21
113.018362680533
 31
0.0
  0
LINE
  5
   431
  8
0
  6
CONTINUOUS
 62
     7
 10
-467.247302427888
 20
107.876901305967
 30
0.0
 11
-467.247302427888
 21
113.018362680533
 31
0.0
  0
LINE
  5
   432
  8
0
  6
CONTINUOUS
 62
     7
 10
-456.699552858065
 20
111.018362680533
 30
0.0
 11
-467.247302427888
 21
111.018362680533
 31
0.0
  0
LINE
  5
   433
  8
0
  6
CONTINUOUS
 62
     7
 10
-462.882879154257
 20
111.539307110485
 30
0.0
 11
-465.837302431464
 21
111.018362680533
 31
0.0
  0
LINE
  5
   434
  8
0
  6
CONTINUOUS
 62
     7
 10
-465.837302431464
 20
111.018362680533
 30
0.0
 11
-462.882879154257
 21
110.497418250581
 31
0.0
  0
LINE
  5
   435
  8
0
  6
CONTINUOUS
 62
     7
 10
-470.201725705095
 20
110.497418250581
 30
0.0
 11
-467.247302427888
 21
111.018362680533
 31
0.0
  0
LINE
  5
   436
  8
0
  6
CONTINUOUS
 62
     7
 10
-467.247302427888
 20
111.018362680533
 30
0.0
 11
-470.201725705095
 21
111.539307110485
 31
0.0
  0
ENDBLK
  5
   437
  8
0
  6
CONTINUOUS
 62
     7
  0
BLOCK
  5
   438
  8
0
  6
CONTINUOUS
 62
     7
  2
*UDIM461
 70
    65
 10
0.0
 20
0.0
 30
0.0
  3
*UDIM461
  0
TEXT
  5
   439
  8
0
  6
CONTINUOUS
 62
     7
 10
-478.482314400849
 20
112.018362682788
 30
0.0
 40
2.99999994291904
  1
36
 50
359.999999948034
 41
0.933333333333333
 72
     1
 11
-475.982314447063
 21
113.518362651992
 31
0.0
 73
     2
  0
LINE
  5
   43A
  8
0
  6
CONTINUOUS
 62
     7
 10
-484.167323899865
 20
95.3892655852592
 30
0.0
 11
-484.167323899865
 21
113.018362680533
 31
0.0
  0
LINE
  5
   43B
  8
0
  6
CONTINUOUS
 62
     7
 10
-467.247302427888
 20
111.018362680533
 30
0.0
 11
-484.167323899865
 21
111.018362680533
 31
0.0
  0
LINE
  5
   43C
  8
0
  6
CONTINUOUS
 62
     7
 10
-470.201725705095
 20
110.497418250581
 30
0.0
 11
-467.247302427888
 21
111.018362680533
 31
0.0
  0
LINE
  5
   43D
  8
0
  6
CONTINUOUS
 62
     7
 10
-467.247302427888
 20
111.018362680533
 30
0.0
 11
-470.201725705095
 21
111.539307110485
 31
0.0
  0
LINE
  5
   43E
  8
0
  6
CONTINUOUS
 62
     7
 10
-481.212900622658
 20
111.539307110485
 30
0.0
 11
-484.167323899865
 21
111.018362680533
 31
0.0
  0
LINE
  5
   43F
  8
0
  6
CONTINUOUS
 62
     7
 10
-484.167323899865
 20
111.018362680533
 30
0.0
 11
-481.212900622658
 21
110.497418250581
 31
0.0
  0
ENDBLK
  5
   440
  8
0
  6
CONTINUOUS
 62
     7
  0
BLOCK
  5
   441
  8
0
  6
CONTINUOUS
 62
     7
  2
*UDIM462
 70
    65
 10
0.0
 20
0.0
 30
0.0
  3
*UDIM462
  0
TEXT
  5
   442
  8
0
  6
CONTINUOUS
 62
     7
 10
-507.54490163137
 20
112.018362686576
 30
0.0
 40
2.99999994291904
  1
18x18
 50
359.999999948034
 41
0.933333333333333
 72
     1
 11
-500.844901757497
 21
113.518362651992
 31
0.0
 73
     2
  0
LINE
  5
   443
  8
0
  6
CONTINUOUS
 62
     7
 10
-489.995323885083
 20
95.3892655852592
 30
0.0
 11
-489.995323885083
 21
113.018362680533
 31
0.0
  0
LINE
  5
   444
  8
0
  6
CONTINUOUS
 62
     7
 10
-484.167323899865
 20
111.018362680533
 30
0.0
 11
-507.544901630017
 21
111.018362680533
 31
0.0
  0
LINE
  5
   445
  8
0
  6
CONTINUOUS
 62
     7
 10
-481.212900622658
 20
111.539307110485
 30
0.0
 11
-484.167323899865
 21
111.018362680533
 31
0.0
  0
LINE
  5
   446
  8
0
  6
CONTINUOUS
 62
     7
 10
-484.167323899865
 20
111.018362680533
 30
0.0
 11
-481.212900622658
 21
110.497418250581
 31
0.0
  0
LINE
  5
   447
  8
0
  6
CONTINUOUS
 62
     7
 10
-492.94974716229
 20
110.497418250581
 30
0.0
 11
-489.995323885083
 21
111.018362680533
 31
0.0
  0
LINE
  5
   448
  8
0
  6
CONTINUOUS
 62
     7
 10
-489.995323885083
 20
111.018362680533
 30
0.0
 11
-492.94974716229
 21
111.539307110485
 31
0.0
  0
ENDBLK
  5
   449
  8
0
  6
CONTINUOUS
 62
     7
  0
BLOCK
  5
   44A
  8
0
  6
CONTINUOUS
 62
     7
  2
*UDIM463
 70
    65
 10
0.0
 20
0.0
 30
0.0
  3
*UDIM463
  0
TEXT
  5
   44B
  8
0
  6
CONTINUOUS
 62
     7
 10
-491.504794095407
 20
-65.8792903668909
 30
0.0
 40
2.99999994291904
  1
79,5
 50
359.999999948034
 41
0.933333333333333
 72
     1
 11
-486.204794194897
 21
-64.3792904002117
 31
0.0
 73
     2
  0
LINE
  5
   44C
  8
0
  6
CONTINUOUS
 62
     7
 10
-467.247302427888
 20
-65.6143973564073
 30
0.0
 11
-467.247302427888
 21
-68.8792903716712
 31
0.0
  0
LINE
  5
   44D
  8
0
  6
CONTINUOUS
 62
     7
 10
-504.612287989859
 20
-57.5981748407202
 30
0.0
 11
-504.612287989859
 21
-68.8792903716712
 31
0.0
  0
LINE
  5
   44E
  8
0
  6
CONTINUOUS
 62
     7
 10
-467.247302427888
 20
-66.8792903716712
 30
0.0
 11
-504.612287989859
 21
-66.8792903716712
 31
0.0
  0
LINE
  5
   44F
  8
0
  6
CONTINUOUS
 62
     7
 10
-470.201725705095
 20
-67.4002348016229
 30
0.0
 11
-467.247302427888
 21
-66.8792903716712
 31
0.0
  0
LINE
  5
   450
  8
0
  6
CONTINUOUS
 62
     7
 10
-467.247302427888
 20
-66.8792903716712
 30
0.0
 11
-470.201725705095
 21
-66.3583459417196
 31
0.0
  0
LINE
  5
   451
  8
0
  6
CONTINUOUS
 62
     7
 10
-501.657864712652
 20
-66.3583459417196
 30
0.0
 11
-504.612287989859
 21
-66.8792903716712
 31
0.0
  0
LINE
  5
   452
  8
0
  6
CONTINUOUS
 62
     7
 10
-504.612287989859
 20
-66.8792903716712
 30
0.0
 11
-501.657864712652
 21
-67.4002348016229
 31
0.0
  0
ENDBLK
  5
   453
  8
0
  6
CONTINUOUS
 62
     7
  0
BLOCK
  5
   454
  8
0
  6
CONTINUOUS
 62
     7
  2
*UDIM464
 70
    65
 10
0.0
 20
0.0
 30
0.0
  3
*UDIM464
  0
TEXT
  5
   455
  8
0
  6
CONTINUOUS
 62
     7
 10
-580.658685813296
 20
17.9517728784159
 30
0.0
 40
2.99999994291904
  1
105
 50
89.9999999480344
 41
0.933333333333333
 72
     1
 11
-582.158685781223
 21
21.8517728055693
 31
0.0
 73
     2
  0
LINE
  5
   456
  8
0
  6
CONTINUOUS
 62
     7
 10
-557.547300408483
 20
-2.54823596177937
 30
0.0
 11
-581.658685809764
 21
-2.54823596177937
 31
0.0
  0
LINE
  5
   457
  8
0
  6
CONTINUOUS
 62
     7
 10
-557.547300408483
 20
46.8017872208511
 30
0.0
 11
-581.658685809764
 21
46.8017872208511
 31
0.0
  0
LINE
  5
   458
  8
0
  6
CONTINUOUS
 62
     7
 10
-579.658685809764
 20
-2.54823596177937
 30
0.0
 11
-579.658685809764
 21
46.8017872208511
 31
0.0
  0
LINE
  5
   459
  8
0
  6
CONTINUOUS
 62
     7
 10
-580.179630239715
 20
0.406187315427594
 30
0.0
 11
-579.658685809764
 21
-2.54823596177937
 31
0.0
  0
LINE
  5
   45A
  8
0
  6
CONTINUOUS
 62
     7
 10
-579.658685809764
 20
-2.54823596177937
 30
0.0
 11
-579.137741379812
 21
0.406187315427594
 31
0.0
  0
LINE
  5
   45B
  8
0
  6
CONTINUOUS
 62
     7
 10
-579.137741379812
 20
43.8473639436441
 30
0.0
 11
-579.658685809764
 21
46.8017872208511
 31
0.0
  0
LINE
  5
   45C
  8
0
  6
CONTINUOUS
 62
     7
 10
-579.658685809764
 20
46.8017872208511
 30
0.0
 11
-580.179630239715
 21
43.8473639436441
 31
0.0
  0
ENDBLK
  5
   45D
  8
0
  6
CONTINUOUS
 62
     7
  0
BLOCK
  5
   45E
  8
0
  6
CONTINUOUS
 62
     7
  2
*UDIM465
 70
    65
 10
0.0
 20
0.0
 30
0.0
  3
*UDIM465
  0
TEXT
  5
   45F
  8
0
  6
CONTINUOUS
 62
     7
 10
-513.854829782831
 20
7.229238173235
 30
0.0
 40
2.99999994291904
  1
1,75
 50
89.9999999480344
 41
0.933333333333333
 72
     1
 11
-515.35482974949
 21
12.5292380737505
 31
0.0
 73
     2
  0
LINE
  5
   460
  8
0
  6
CONTINUOUS
 62
     7
 10
-539.56733802552
 20
21.3042363104465
 30
0.0
 11
-510.854829778031
 21
21.3042363104465
 31
0.0
  0
LINE
  5
   461
  8
0
  6
CONTINUOUS
 62
     7
 10
-512.854829778031
 20
7.22923817459357
 30
0.0
 11
-512.854829778031
 21
22.126787283436
 31
0.0
  0
LINE
  5
   462
  8
0
  6
CONTINUOUS
 62
     7
 10
-512.333885348079
 20
18.3498130332396
 30
0.0
 11
-512.854829778031
 21
21.3042363104465
 31
0.0
  0
LINE
  5
   463
  8
0
  6
CONTINUOUS
 62
     7
 10
-512.854829778031
 20
21.3042363104465
 30
0.0
 11
-513.375774207983
 21
18.3498130332396
 31
0.0
  0
LINE
  5
   464
  8
0
  6
CONTINUOUS
 62
     7
 10
-513.375774207983
 20
25.081210560643
 30
0.0
 11
-512.854829778031
 21
22.126787283436
 31
0.0
  0
LINE
  5
   465
  8
0
  6
CONTINUOUS
 62
     7
 10
-512.854829778031
 20
22.126787283436
 30
0.0
 11
-512.333885348079
 21
25.081210560643
 31
0.0
  0
ENDBLK
  5
   466
  8
0
  6
CONTINUOUS
 62
     7
  0
BLOCK
  5
   467
  8
0
  6
CONTINUOUS
 62
     7
  2
*UDIM466
 70
    65
 10
0.0
 20
0.0
 30
0.0
  3
*UDIM466
  0
TEXT
  5
   468
  8
0
  6
CONTINUOUS
 62
     7
 10
-520.16480360849
 20
-84.7603010599265
 30
0.0
 40
2.99999994291904
  1
195,5
 50
359.999999948034
 41
0.933333333333333
 72
     1
 11
-513.464803734618
 21
-83.26030109451
 31
0.0
 73
     2
  0
LINE
  5
   469
  8
0
  6
CONTINUOUS
 62
     7
 10
-467.247302427888
 20
-65.6143973564073
 30
0.0
 11
-467.247302427888
 21
-87.7603010659695
 31
0.0
  0
LINE
  5
   46A
  8
0
  6
CONTINUOUS
 62
     7
 10
-559.132300401926
 20
-16.7083013695322
 30
0.0
 11
-559.132300401926
 21
-87.7603010659695
 31
0.0
  0
LINE
  5
   46B
  8
0
  6
CONTINUOUS
 62
     7
 10
-467.247302427888
 20
-85.7603010659695
 30
0.0
 11
-559.132300401926
 21
-85.7603010659695
 31
0.0
  0
LINE
  5
   46C
  8
0
  6
CONTINUOUS
 62
     7
 10
-470.201725705095
 20
-86.2812454959212
 30
0.0
 11
-467.247302427888
 21
-85.7603010659695
 31
0.0
  0
LINE
  5
   46D
  8
0
  6
CONTINUOUS
 62
     7
 10
-467.247302427888
 20
-85.7603010659695
 30
0.0
 11
-470.201725705095
 21
-85.2393566360179
 31
0.0
  0
LINE
  5
   46E
  8
0
  6
CONTINUOUS
 62
     7
 10
-556.177877124719
 20
-85.2393566360179
 30
0.0
 11
-559.132300401926
 21
-85.7603010659695
 31
0.0
  0
LINE
  5
   46F
  8
0
  6
CONTINUOUS
 62
     7
 10
-559.132300401926
 20
-85.7603010659695
 30
0.0
 11
-556.177877124719
 21
-86.2812454959212
 31
0.0
  0
ENDBLK
  5
   470
  8
0
  6
CONTINUOUS
 62
     7
  0
BLOCK
  5
   471
  8
0
  6
CONTINUOUS
 62
     7
  2
*UDIM467
 70
    65
 10
0.0
 20
0.0
 30
0.0
  3
*UDIM467
  0
TEXT
  5
   472
  8
0
  6
CONTINUOUS
 62
     7
 10
-516.072302376392
 20
-78.4226161420032
 30
0.0
 40
2.99999994291904
  1
190
 50
359.999999948034
 41
0.933333333333333
 72
     1
 11
-512.172302449244
 21
-76.9226161740613
 31
0.0
 73
     2
  0
LINE
  5
   473
  8
0
  6
CONTINUOUS
 62
     7
 10
-467.247302427888
 20
-65.6143973564073
 30
0.0
 11
-467.247302427888
 21
-81.4226161455208
 31
0.0
  0
LINE
  5
   474
  8
0
  6
CONTINUOUS
 62
     7
 10
-556.54730220139
 20
-48.6535954256485
 30
0.0
 11
-556.54730220139
 21
-81.4226161455208
 31
0.0
  0
LINE
  5
   475
  8
0
  6
CONTINUOUS
 62
     7
 10
-467.247302427888
 20
-79.4226161455208
 30
0.0
 11
-556.54730220139
 21
-79.4226161455208
 31
0.0
  0
LINE
  5
   476
  8
0
  6
CONTINUOUS
 62
     7
 10
-470.201725705095
 20
-79.9435605754725
 30
0.0
 11
-467.247302427888
 21
-79.4226161455208
 31
0.0
  0
LINE
  5
   477
  8
0
  6
CONTINUOUS
 62
     7
 10
-467.247302427888
 20
-79.4226161455208
 30
0.0
 11
-470.201725705095
 21
-78.9016717155691
 31
0.0
  0
LINE
  5
   478
  8
0
  6
CONTINUOUS
 62
     7
 10
-553.592878924183
 20
-78.9016717155691
 30
0.0
 11
-556.54730220139
 21
-79.4226161455208
 31
0.0
  0
LINE
  5
   479
  8
0
  6
CONTINUOUS
 62
     7
 10
-556.54730220139
 20
-79.4226161455208
 30
0.0
 11
-553.592878924183
 21
-79.9435605754725
 31
0.0
  0
ENDBLK
  5
   47A
  8
0
  6
CONTINUOUS
 62
     7
  0
BLOCK
  5
   47B
  8
0
  6
CONTINUOUS
 62
     7
  2
*UDIM468
 70
    65
 10
0.0
 20
0.0
 30
0.0
  3
*UDIM468
  0
TEXT
  5
   47C
  8
0
  6
CONTINUOUS
 62
     7
 10
-563.23730066083
 20
-78.4226161445287
 30
0.0
 40
2.99999994291904
  1
2
 50
359.999999948034
 41
0.933333333333333
 72
     1
 11
-562.137300680407
 21
-76.9226161740613
 31
0.0
 73
     2
  0
LINE
  5
   47D
  8
0
  6
CONTINUOUS
 62
     7
 10
-557.487302199006
 20
-48.8120223915388
 30
0.0
 11
-557.487302199006
 21
-81.4226161455208
 31
0.0
  0
LINE
  5
   47E
  8
0
  6
CONTINUOUS
 62
     7
 10
-556.54730220139
 20
-79.4226161455208
 30
0.0
 11
-563.237300659477
 21
-79.4226161455208
 31
0.0
  0
LINE
  5
   47F
  8
0
  6
CONTINUOUS
 62
     7
 10
-553.592878924183
 20
-78.9016717155691
 30
0.0
 11
-556.54730220139
 21
-79.4226161455208
 31
0.0
  0
LINE
  5
   480
  8
0
  6
CONTINUOUS
 62
     7
 10
-556.54730220139
 20
-79.4226161455208
 30
0.0
 11
-553.592878924183
 21
-79.9435605754725
 31
0.0
  0
LINE
  5
   481
  8
0
  6
CONTINUOUS
 62
     7
 10
-560.441725476213
 20
-79.9435605754725
 30
0.0
 11
-557.487302199006
 21
-79.4226161455208
 31
0.0
  0
LINE
  5
   482
  8
0
  6
CONTINUOUS
 62
     7
 10
-557.487302199006
 20
-79.4226161455208
 30
0.0
 11
-560.441725476213
 21
-78.9016717155691
 31
0.0
  0
ENDBLK
  5
   483
  8
0
  6
CONTINUOUS
 62
     7
  0
BLOCK
  5
   484
  8
0
  6
CONTINUOUS
 62
     7
  2
*UDIM469
 70
    65
 10
0.0
 20
0.0
 30
0.0
  3
*UDIM469
  0
TEXT
  5
   485
  8
0
  6
CONTINUOUS
 62
     7
 10
-510.667316739818
 20
-72.3490050123886
 30
0.0
 40
2.99999994291904
  1
167
 50
359.999999948034
 41
0.933333333333333
 72
     1
 11
-506.76731681267
 21
-70.8490050444467
 31
0.0
 73
     2
  0
LINE
  5
   486
  8
0
  6
CONTINUOUS
 62
     7
 10
-467.247302427888
 20
-65.6143973564073
 30
0.0
 11
-467.247302427888
 21
-75.3490050159062
 31
0.0
  0
LINE
  5
   487
  8
0
  6
CONTINUOUS
 62
     7
 10
-545.737334009802
 20
15.1342403261643
 30
0.0
 11
-545.737334009802
 21
-75.3490050159062
 31
0.0
  0
LINE
  5
   488
  8
0
  6
CONTINUOUS
 62
     7
 10
-467.247302427888
 20
-73.3490050159062
 30
0.0
 11
-545.737334009802
 21
-73.3490050159062
 31
0.0
  0
LINE
  5
   489
  8
0
  6
CONTINUOUS
 62
     7
 10
-470.201725705095
 20
-73.8699494458579
 30
0.0
 11
-467.247302427888
 21
-73.3490050159062
 31
0.0
  0
LINE
  5
   48A
  8
0
  6
CONTINUOUS
 62
     7
 10
-467.247302427888
 20
-73.3490050159062
 30
0.0
 11
-470.201725705095
 21
-72.8280605859545
 31
0.0
  0
LINE
  5
   48B
  8
0
  6
CONTINUOUS
 62
     7
 10
-542.782910732595
 20
-72.8280605859545
 30
0.0
 11
-545.737334009802
 21
-73.3490050159062
 31
0.0
  0
LINE
  5
   48C
  8
0
  6
CONTINUOUS
 62
     7
 10
-545.737334009802
 20
-73.3490050159062
 30
0.0
 11
-542.782910732595
 21
-73.8699494458579
 31
0.0
  0
ENDBLK
  5
   48D
  8
0
  6
CONTINUOUS
 62
     7
  0
ENDSEC
  0
SECTION
  2
ENTITIES
  0
LINE
  5
   48E
  8
0
  6
DASHDOT
 62
     3
 10
-519.60400390625
 20
-91.7273212247541
 30
0.0
 11
-519.60400390625
 21
-153.489872235779
 31
0.0
  0
LINE
  5
   48F
  8
0
  6
CONTINUOUS
 62
     7
 10
-498.35400390625
 20
-94.4802013256317
 30
0.0
 11
-498.35400390625
 21
-151.036179703439
 31
0.0
  0
LINE
  5
   490
  8
0
  6
CONTINUOUS
 62
     7
 10
-543.918069737243
 20
-93.9006476201837
 30
0.0
 11
-543.918069737243
 21
-151.335044242773
 31
0.0
  0
LINE
  5
   491
  8
0
  6
DASHDOT
 62
     3
 10
-538.60400390625
 20
-105.280522723952
 30
0.0
 11
-538.60400390625
 21
-148.352634417457
 31
0.0
  0
LINE
  5
   492
  8
0
  6
DASHDOT
 62
     3
 10
-509.35400390625
 20
-105.58818066462
 30
0.0
 11
-509.35400390625
 21
-148.814121328459
 31
0.0
  0
LINE
  5
   493
  8
0
  6
DASHDOT
 62
     3
 10
-505.653538195578
 20
-109.73356628418
 30
0.0
 11
-543.400545425388
 21
-109.73356628418
 31
0.0
  0
LINE
  5
   494
  8
0
  6
DASHDOT
 62
     3
 10
-505.653538195578
 20
-143.48356628418
 30
0.0
 11
-542.785229544052
 21
-143.48356628418
 31
0.0
  0
CIRCLE
  5
   495
  8
0
  6
CONTINUOUS
 62
     7
 10
-538.60400390625
 20
-109.73356628418
 30
0.0
 40
0.625
  0
CIRCLE
  5
   496
  8
0
  6
CONTINUOUS
 62
     7
 10
-509.35400390625
 20
-109.73356628418
 30
0.0
 40
0.625
  0
CIRCLE
  5
   497
  8
0
  6
CONTINUOUS
 62
     7
 10
-538.60400390625
 20
-143.48356628418
 30
0.0
 40
0.625
  0
CIRCLE
  5
   498
  8
0
  6
CONTINUOUS
 62
     7
 10
-509.35400390625
 20
-143.48356628418
 30
0.0
 40
0.625
  0
LINE
  5
   499
  8
0
  6
CONTINUOUS
 62
     7
 10
-494.790099506815
 20
-150.123122450146
 30
0.0
 11
-545.965089223275
 21
-150.123122450146
 31
0.0
  0
LINE
  5
   49A
  8
0
  6
CONTINUOUS
 62
     7
 10
-496.378763291601
 20
-95.7841971628894
 30
0.0
 11
-545.059395334039
 21
-95.7841971628894
 31
0.0
  0
LINE
  5
   49B
  8
0
  6
DASHDOT
 62
     3
 10
-485.78313929506
 20
-126.17106628418
 30
0.0
 11
-560.906883687282
 21
-126.17106628418
 31
0.0
  0
INSERT
  5
   49C
  8
0
  6
CONTINUOUS
 62
     7
  2
*UDIM418
 10
0.0
 20
0.0
 30
0.0
  0
INSERT
  5
   49D
  8
0
  6
CONTINUOUS
 62
     7
  2
*UDIM419
 10
0.0
 20
0.0
 30
0.0
  0
INSERT
  5
   49E
  8
0
  6
CONTINUOUS
 62
     7
  2
*UDIM420
 10
0.0
 20
0.0
 30
0.0
  0
INSERT
  5
   49F
  8
0
  6
CONTINUOUS
 62
     7
  2
*UDIM421
 10
0.0
 20
0.0
 30
0.0
  0
INSERT
  5
   4A0
  8
0
  6
CONTINUOUS
 62
     7
  2
*UDIM422
 10
0.0
 20
0.0
 30
0.0
  0
TEXT
  5
   4A1
  8
0
  6
CONTINUOUS
 62
     7
 10
-519.850688370795
 20
-91.1051101962695
 30
0.0
 40
3.00000002980232
  1
Y
 50
359.999999896069
 41
0.916666604744064
 72
     2
 11
-517.650688501926
 21
-91.1051102002492
 31
0.0
  0
TEXT
  5
   4A2
  8
0
  6
CONTINUOUS
 62
     7
 10
-574.999229433866
 20
-127.287735490001
 30
0.0
 40
3.00000002980232
  1
X
 50
359.999999896069
 41
0.916666604744064
 72
     2
 11
-572.799229564996
 21
-127.287735493981
 31
0.0
  0
TEXT
  5
   4A3
  8
0
  6
CONTINUOUS
 62
     7
 10
-483.185630801053
 20
-128.432117966808
 30
0.0
 40
3.00000002980232
  1
X
 50
359.999999896069
 41
0.916666604744064
 72
     2
 11
-480.985630932183
 21
-128.432117970788
 31
0.0
  0
TEXT
  5
   4A4
  8
0
  6
CONTINUOUS
 62
     7
 10
-521.780717375608
 20
-158.943565396465
 30
0.0
 40
3.00000002980232
  1
Y
 50
359.999999896069
 41
0.916666604744064
 72
     2
 11
-519.580717506738
 21
-158.943565400444
 31
0.0
  0
LINE
  5
   4A5
  8
0
  6
CONTINUOUS
 62
     7
 10
-325.485988148523
 20
69.4792609182154
 30
0.0
 11
-325.485988148523
 21
79.6782594580209
 31
0.0
  0
LINE
  5
   4A6
  8
0
  6
CONTINUOUS
 62
     7
 10
-391.285966466738
 20
69.4792465749538
 30
0.0
 11
-391.285966466738
 21
79.67825228639
 31
0.0
  0
LINE
  5
   4A7
  8
0
  6
CONTINUOUS
 62
     7
 10
-391.285959295107
 20
46.8017538041031
 30
0.0
 11
-391.285959295107
 21
69.4792680898463
 31
0.0
  0
LINE
  5
   4A8
  8
0
  6
CONTINUOUS
 62
     7
 10
-325.485988148523
 20
59.9588277453451
 30
0.0
 11
-325.485988148523
 21
69.4792680898463
 31
0.0
  0
LINE
  5
   4A9
  8
0
  6
CONTINUOUS
 62
     7
 10
-325.485988148523
 20
-26.4007244953357
 30
0.0
 11
-325.485988148523
 21
-15.7082101791905
 31
0.0
  0
LINE
  5
   4AA
  8
0
  6
DASHDOT
 62
     7
 10
-350.16094597006
 20
-91.3517458436139
 30
0.0
 11
-350.160995908664
 21
96.2873020385742
 31
0.0
  0
LINE
  5
   4AB
  8
0
  6
CONTINUOUS
 62
     7
 10
-345.10845941223
 20
7.90927541764131
 30
0.0
 11
-345.10845941223
 21
26.7092681983268
 31
0.0
  0
LINE
  5
   4AC
  8
0
  6
CONTINUOUS
 62
     7
 10
-355.2134593866
 20
7.90927541764131
 30
0.0
 11
-355.2134593866
 21
26.7092681983268
 31
0.0
  0
LINE
  5
   4AD
  8
0
  6
CONTINUOUS
 62
     7
 10
-345.10845941223
 20
26.5849694925873
 30
0.0
 11
-355.2134593866
 21
26.5849694925873
 31
0.0
  0
LINE
  5
   4AE
  8
0
  6
CONTINUOUS
 62
     7
 10
-345.10845941223
 20
26.7092681983267
 30
0.0
 11
-355.2134593866
 21
26.7092681983267
 31
0.0
  0
LINE
  5
   4AF
  8
0
  6
CONTINUOUS
 62
     7
 10
-345.10845941223
 20
7.9092754176413
 30
0.0
 11
-355.2134593866
 21
7.9092754176413
 31
0.0
  0
LINE
  5
   4B0
  8
0
  6
CONTINUOUS
 62
     7
 10
-345.10845941223
 20
8.03358846664241
 30
0.0
 11
-355.2134593866
 21
8.03358846664241
 31
0.0
  0
LINE
  5
   4B1
  8
0
  6
DASHDOT
 62
     7
 10
-350.160959399415
 20
-4.07725986362422
 30
0.0
 11
-350.160959399415
 21
36.5569125318255
 31
0.0
  0
LINE
  5
   4B2
  8
0
  6
CONTINUOUS
 62
     7
 10
-345.10845941223
 20
12.2235399937559
 30
0.0
 11
-355.2134593866
 21
12.2235399937559
 31
0.0
  0
LINE
  5
   4B3
  8
0
  6
CONTINUOUS
 62
     7
 10
-345.10845941223
 20
8.50069239677332
 30
0.0
 11
-355.2134593866
 21
8.50069239677332
 31
0.0
  0
LINE
  5
   4B4
  8
0
  6
CONTINUOUS
 62
     7
 10
-345.10845941223
 20
12.2235396640725
 30
0.0
 11
-355.2134593866
 21
12.2235396640725
 31
0.0
  0
LINE
  5
   4B5
  8
0
  6
CONTINUOUS
 62
     7
 10
-345.10845941223
 20
14.5482166108698
 30
0.0
 11
-355.2134593866
 21
14.5482166108698
 31
0.0
  0
LINE
  5
   4B6
  8
0
  6
CONTINUOUS
 62
     7
 10
-326.190988209287
 20
67.1292680958068
 30
0.0
 11
-374.130988087695
 21
67.1292680958068
 31
0.0
  0
LINE
  5
   4B7
  8
0
  6
CONTINUOUS
 62
     7
 10
-374.130986179341
 20
59.9588277453451
 30
0.0
 11
-374.130988087695
 21
67.1292680958067
 31
0.0
  0
LINE
  5
   4B8
  8
0
  6
CONTINUOUS
 62
     7
 10
-382.355980968169
 20
40.4567811099138
 30
0.0
 11
-382.355981593602
 21
42.8067811039533
 31
0.0
  0
LINE
  5
   4B9
  8
0
  6
CONTINUOUS
 62
     7
 10
-382.355969272565
 20
-3.48821877862393
 30
0.0
 11
-382.355970398345
 21
0.741781210647076
 31
0.0
  0
LINE
  5
   4BA
  8
0
  6
CONTINUOUS
 62
     7
 10
-387.056010562697
 20
-2.54821738420204
 30
0.0
 11
-391.050969500682
 21
-2.54821738420204
 31
0.0
  0
LINE
  5
   4BB
  8
0
  6
CONTINUOUS
 62
     2
 10
-391.285963151939
 20
-26.4007244953357
 30
0.0
 11
-391.285982634187
 21
46.8017715455428
 31
0.0
  0
LINE
  5
   4BC
  8
0
  6
CONTINUOUS
 62
     2
 10
-391.285982634187
 20
46.8017715455428
 30
0.0
 11
-391.285988669621
 21
69.4792786596543
 31
0.0
  0
LINE
  5
   4BD
  8
0
  6
CONTINUOUS
 62
     7
 10
-387.690463215264
 20
-26.870717322513
 30
0.0
 11
-387.690482822597
 21
46.8017725024557
 31
0.0
  0
LINE
  5
   4BE
  8
0
  6
CONTINUOUS
 62
     7
 10
-375.846467368992
 20
-26.870717322513
 30
0.0
 11
-375.846470339803
 21
-15.7082101791905
 31
0.0
  0
LINE
  5
   4BF
  8
0
  6
CONTINUOUS
 62
     7
 10
-377.538470233353
 20
-26.870717322513
 30
0.0
 11
-377.538473204164
 21
-15.7082101791905
 31
0.0
  0
LINE
  5
   4C0
  8
0
  6
CONTINUOUS
 62
     7
 10
-385.998463425949
 20
-27.1057173219169
 30
0.0
 11
-385.998466459302
 21
-15.7082101791905
 31
0.0
  0
LINE
  5
   4C1
  8
0
  6
CONTINUOUS
 62
     7
 10
-382.614464483174
 20
-26.870717322513
 30
0.0
 11
-382.614467453984
 21
-15.7082101791905
 31
0.0
  0
LINE
  5
   4C2
  8
0
  6
CONTINUOUS
 62
     7
 10
-384.306463313493
 20
-26.870717322513
 30
0.0
 11
-384.306466284303
 21
-15.7082101791905
 31
0.0
  0
LINE
  5
   4C3
  8
0
  6
CONTINUOUS
 62
     7
 10
-379.230465926083
 20
-26.870717322513
 30
0.0
 11
-379.230468896894
 21
-15.7082101791905
 31
0.0
  0
LINE
  5
   4C4
  8
0
  6
CONTINUOUS
 62
     7
 10
-380.922468790444
 20
-26.870717322513
 30
0.0
 11
-380.922471761254
 21
-15.7082101791905
 31
0.0
  0
LINE
  5
   4C5
  8
0
  6
CONTINUOUS
 62
     7
 10
-375.846490477968
 20
59.9588277453451
 30
0.0
 11
-375.846493011758
 21
69.4792755971194
 31
0.0
  0
LINE
  5
   4C6
  8
0
  6
CONTINUOUS
 62
     7
 10
-377.538493342329
 20
59.9588277453451
 30
0.0
 11
-377.538495876119
 21
69.4792751468067
 31
0.0
  0
LINE
  5
   4C7
  8
0
  6
CONTINUOUS
 62
     7
 10
-379.230489035059
 20
59.9588277453451
 30
0.0
 11
-379.230491568849
 21
69.4792746964958
 31
0.0
  0
LINE
  5
   4C8
  8
0
  6
CONTINUOUS
 62
     7
 10
-380.92249189942
 20
59.9588277453451
 30
0.0
 11
-380.922494433209
 21
69.479274246183
 31
0.0
  0
LINE
  5
   4C9
  8
0
  6
CONTINUOUS
 62
     7
 10
-382.61448759215
 20
59.9588277453451
 30
0.0
 11
-382.614490125939
 21
69.4792737958721
 31
0.0
  0
LINE
  5
   4CA
  8
0
  6
CONTINUOUS
 62
     7
 10
-384.306486422469
 20
59.9588277453451
 30
0.0
 11
-384.306488956258
 21
69.4792733455605
 31
0.0
  0
LINE
  5
   4CB
  8
0
  6
CONTINUOUS
 62
     7
 10
-387.690482822597
 20
46.8017725024557
 30
0.0
 11
-387.690488858029
 21
69.4792724449364
 31
0.0
  0
ARC
  5
   4CC
  8
0
  6
CONTINUOUS
 62
     7
 10
-391.05098257224
 20
46.5667716086821
 30
0.0
 40
0.234999999403954
 50
90.0000151968393
 51
180.000015196839
  0
ARC
  5
   4CD
  8
0
  6
CONTINUOUS
 62
     7
 10
-391.050969563226
 20
-2.31322826733846
 30
0.0
 40
0.234999999403954
 50
180.000015196839
 51
270.000015196839
  0
LINE
  5
   4CE
  8
0
  6
CONTINUOUS
 62
     7
 10
-387.056010562697
 20
46.8017716080861
 30
0.0
 11
-391.05098257224
 21
46.8017716080861
 31
0.0
  0
LINE
  5
   4CF
  8
0
  6
CONTINUOUS
 62
     7
 10
-387.056010562697
 20
-10.1857173648323
 30
0.0
 11
-391.285959295107
 21
-10.1857173648323
 31
0.0
  0
LINE
  5
   4D0
  8
0
  6
DASHDOT
 62
     7
 10
-333.710986469055
 20
-48.5377464341208
 30
0.0
 11
-333.710986469055
 21
-42.8037524313791
 31
0.0
  0
LINE
  5
   4D1
  8
0
  6
CONTINUOUS
 62
     7
 10
-326.073486471435
 20
-39.5607172903262
 30
0.0
 11
-390.698478840167
 21
-39.5607172903262
 31
0.0
  0
LINE
  5
   4D2
  8
0
  6
CONTINUOUS
 62
     7
 10
-325.955979317094
 20
-25.9307244965325
 30
0.0
 11
-390.815979152585
 21
-25.9307244965325
 31
0.0
  0
LINE
  5
   4D3
  8
0
  6
CONTINUOUS
 62
     7
 10
-325.485979318299
 20
-38.9732172918163
 30
0.0
 11
-325.485979318299
 21
-26.4007245216419
 31
0.0
  0
LINE
  5
   4D4
  8
0
  6
CONTINUOUS
 62
     7
 10
-391.285979151393
 20
-38.9732172918163
 30
0.0
 11
-391.285979151393
 21
-26.4007244953357
 31
0.0
  0
LINE
  5
   4D5
  8
0
  6
CONTINUOUS
 62
     7
 10
-325.603479317988
 20
-26.4007244953357
 30
0.0
 11
-391.168479151691
 21
-26.4007244953357
 31
0.0
  0
LINE
  5
   4D6
  8
0
  6
CONTINUOUS
 62
     7
 10
-325.955979317094
 20
-26.4007244953419
 30
0.0
 11
-325.955979317094
 21
-25.930724496534
 31
0.0
  0
LINE
  5
   4D7
  8
0
  6
CONTINUOUS
 62
     7
 10
-325.485979318286
 20
-26.4007244953357
 30
0.0
 11
-325.603479317988
 21
-26.4007244953357
 31
0.0
  0
LINE
  5
   4D8
  8
0
  6
CONTINUOUS
 62
     7
 10
-390.815979152585
 20
-26.4007244953404
 30
0.0
 11
-390.815979152585
 21
-25.9307244965325
 31
0.0
  0
LINE
  5
   4D9
  8
0
  6
CONTINUOUS
 62
     7
 10
-391.168479179705
 20
-26.4007244953357
 30
0.0
 11
-391.285979151393
 21
-26.4007244953357
 31
0.0
  0
LINE
  5
   4DA
  8
0
  6
CONTINUOUS
 62
     7
 10
-387.690478891577
 20
-38.0332172942005
 30
0.0
 11
-387.690478891577
 21
-26.4007244953357
 31
0.0
  0
LINE
  5
   4DB
  8
0
  6
CONTINUOUS
 62
     7
 10
-385.998479164804
 20
-38.0332172942005
 30
0.0
 11
-385.998479164804
 21
-26.4007244953357
 31
0.0
  0
LINE
  5
   4DC
  8
0
  6
CONTINUOUS
 62
     7
 10
-384.306478989805
 20
-38.0332172942005
 30
0.0
 11
-384.306478989805
 21
-26.4007244953357
 31
0.0
  0
LINE
  5
   4DD
  8
0
  6
CONTINUOUS
 62
     7
 10
-382.614480607714
 20
-38.0332172942005
 30
0.0
 11
-382.614480607714
 21
-26.4007244953357
 31
0.0
  0
LINE
  5
   4DE
  8
0
  6
CONTINUOUS
 62
     7
 10
-380.922484914984
 20
-38.0332172942005
 30
0.0
 11
-380.922484914984
 21
-26.4007244953357
 31
0.0
  0
LINE
  5
   4DF
  8
0
  6
CONTINUOUS
 62
     7
 10
-379.230482050623
 20
-38.0332172942005
 30
0.0
 11
-379.230482050623
 21
-26.4007244953357
 31
0.0
  0
LINE
  5
   4E0
  8
0
  6
CONTINUOUS
 62
     7
 10
-377.538479186262
 20
-38.0332172942005
 30
0.0
 11
-377.538479186262
 21
-26.4007244953357
 31
0.0
  0
LINE
  5
   4E1
  8
0
  6
CONTINUOUS
 62
     7
 10
-375.846483493532
 20
-38.0332172942005
 30
0.0
 11
-375.846483493532
 21
-26.4007244953357
 31
0.0
  0
LINE
  5
   4E2
  8
0
  6
CONTINUOUS
 62
     7
 10
-374.154480629171
 20
-38.0332172942005
 30
0.0
 11
-374.154480629171
 21
-26.4007244953357
 31
0.0
  0
LINE
  5
   4E3
  8
0
  6
CONTINUOUS
 62
     7
 10
-372.462484936441
 20
-38.0332172942005
 30
0.0
 11
-372.462484936441
 21
-26.4007244953357
 31
0.0
  0
LINE
  5
   4E4
  8
0
  6
CONTINUOUS
 62
     7
 10
-370.77048207208
 20
-38.0332172942005
 30
0.0
 11
-370.77048207208
 21
-26.4007244953357
 31
0.0
  0
LINE
  5
   4E5
  8
0
  6
CONTINUOUS
 62
     7
 10
-369.07847920772
 20
-38.0332172942005
 30
0.0
 11
-369.07847920772
 21
-26.4007244953357
 31
0.0
  0
LINE
  5
   4E6
  8
0
  6
CONTINUOUS
 62
     7
 10
-367.38648351499
 20
-38.0332172942005
 30
0.0
 11
-367.38648351499
 21
-26.4007244953357
 31
0.0
  0
LINE
  5
   4E7
  8
0
  6
CONTINUOUS
 62
     7
 10
-365.694480650629
 20
-38.0332172942005
 30
0.0
 11
-365.694480650629
 21
-26.4007244953357
 31
0.0
  0
LINE
  5
   4E8
  8
0
  6
CONTINUOUS
 62
     7
 10
-364.002484957899
 20
-38.0332172942005
 30
0.0
 11
-364.002484957899
 21
-26.4007244953357
 31
0.0
  0
LINE
  5
   4E9
  8
0
  6
CONTINUOUS
 62
     7
 10
-362.310482093538
 20
-38.0332172942005
 30
0.0
 11
-362.310482093538
 21
-26.4007244953357
 31
0.0
  0
LINE
  5
   4EA
  8
0
  6
CONTINUOUS
 62
     7
 10
-360.618479229177
 20
-38.0332172942005
 30
0.0
 11
-360.618479229177
 21
-26.4007244953357
 31
0.0
  0
LINE
  5
   4EB
  8
0
  6
CONTINUOUS
 62
     7
 10
-358.926483536447
 20
-38.0332172942005
 30
0.0
 11
-358.926483536447
 21
-26.4007244953357
 31
0.0
  0
LINE
  5
   4EC
  8
0
  6
CONTINUOUS
 62
     7
 10
-357.234480672087
 20
-38.0332172942005
 30
0.0
 11
-357.234480672087
 21
-26.4007244953357
 31
0.0
  0
LINE
  5
   4ED
  8
0
  6
CONTINUOUS
 62
     7
 10
-355.542484979357
 20
-38.0332172942005
 30
0.0
 11
-355.542484979357
 21
-26.4007244953357
 31
0.0
  0
LINE
  5
   4EE
  8
0
  6
CONTINUOUS
 62
     7
 10
-353.850482114996
 20
-38.0332172942005
 30
0.0
 11
-353.850482114996
 21
-26.4007244953357
 31
0.0
  0
LINE
  5
   4EF
  8
0
  6
CONTINUOUS
 62
     7
 10
-352.158479250635
 20
-38.0332172942005
 30
0.0
 11
-352.158479250635
 21
-26.4007244953357
 31
0.0
  0
LINE
  5
   4F0
  8
0
  6
CONTINUOUS
 62
     7
 10
-350.466483557905
 20
-38.0332172942005
 30
0.0
 11
-350.466483557905
 21
-26.4007244953357
 31
0.0
  0
LINE
  5
   4F1
  8
0
  6
CONTINUOUS
 62
     7
 10
-348.774480693544
 20
-38.0332172942005
 30
0.0
 11
-348.774480693544
 21
-26.4007244953357
 31
0.0
  0
LINE
  5
   4F2
  8
0
  6
CONTINUOUS
 62
     7
 10
-347.082485000814
 20
-38.0332172942005
 30
0.0
 11
-347.082485000814
 21
-26.4007244953357
 31
0.0
  0
LINE
  5
   4F3
  8
0
  6
CONTINUOUS
 62
     7
 10
-345.390482136453
 20
-38.0332172942005
 30
0.0
 11
-345.390482136453
 21
-26.4007244953357
 31
0.0
  0
LINE
  5
   4F4
  8
0
  6
CONTINUOUS
 62
     7
 10
-343.698479272093
 20
-38.0332172942005
 30
0.0
 11
-343.698479272093
 21
-26.4007244953357
 31
0.0
  0
LINE
  5
   4F5
  8
0
  6
CONTINUOUS
 62
     7
 10
-342.006483579363
 20
-38.0332172942005
 30
0.0
 11
-342.006483579363
 21
-26.4007244953357
 31
0.0
  0
LINE
  5
   4F6
  8
0
  6
CONTINUOUS
 62
     7
 10
-340.314480715002
 20
-38.0332172942005
 30
0.0
 11
-340.314480715002
 21
-26.4007244953357
 31
0.0
  0
LINE
  5
   4F7
  8
0
  6
CONTINUOUS
 62
     7
 10
-338.622485022272
 20
-38.0332172942005
 30
0.0
 11
-338.622485022272
 21
-26.4007244953357
 31
0.0
  0
LINE
  5
   4F8
  8
0
  6
CONTINUOUS
 62
     7
 10
-336.930482157911
 20
-38.0332172942005
 30
0.0
 11
-336.930482157911
 21
-26.4007244953357
 31
0.0
  0
LINE
  5
   4F9
  8
0
  6
CONTINUOUS
 62
     7
 10
-335.23847929355
 20
-38.0332172942005
 30
0.0
 11
-335.23847929355
 21
-26.4007244953357
 31
0.0
  0
LINE
  5
   4FA
  8
0
  6
CONTINUOUS
 62
     7
 10
-333.54648360082
 20
-38.0332172942005
 30
0.0
 11
-333.54648360082
 21
-26.4007244953357
 31
0.0
  0
LINE
  5
   4FB
  8
0
  6
CONTINUOUS
 62
     7
 10
-331.85448073646
 20
-38.0332172942005
 30
0.0
 11
-331.85448073646
 21
-26.4007244953357
 31
0.0
  0
LINE
  5
   4FC
  8
0
  6
CONTINUOUS
 62
     7
 10
-330.16248504373
 20
-38.0332172942005
 30
0.0
 11
-330.16248504373
 21
-26.4007244953357
 31
0.0
  0
LINE
  5
   4FD
  8
0
  6
CONTINUOUS
 62
     7
 10
-328.470482179369
 20
-38.0332172942005
 30
0.0
 11
-328.470482179369
 21
-26.4007244953357
 31
0.0
  0
LINE
  5
   4FE
  8
0
  6
CONTINUOUS
 62
     7
 10
-326.778479315008
 20
-38.0332172942005
 30
0.0
 11
-326.778479315008
 21
-26.4007244953357
 31
0.0
  0
ARC
  5
   4FF
  8
0
  6
CONTINUOUS
 62
     7
 10
-390.698478840167
 20
-38.9732172918163
 30
0.0
 40
0.587499998509884
 50
179.999999948034
 51
269.999999948034
  0
ARC
  5
   500
  8
0
  6
CONTINUOUS
 62
     7
 10
-326.073486471435
 20
-38.9732172918163
 30
0.0
 40
0.587499998509884
 50
269.999999948034
 51
359.99996389588
  0
LINE
  5
   501
  8
0
  6
CONTINUOUS
 62
     7
 10
-326.073487096868
 20
82.1692250278745
 30
0.0
 11
-390.6984794656
 21
82.1692250278745
 31
0.0
  0
LINE
  5
   502
  8
0
  6
CONTINUOUS
 62
     7
 10
-325.955979317094
 20
68.5392322340807
 30
0.0
 11
-390.815979152585
 21
68.5392322340807
 31
0.0
  0
LINE
  5
   503
  8
0
  6
CONTINUOUS
 62
     7
 10
-325.485979318299
 20
69.0092322591902
 30
0.0
 11
-325.485979318299
 21
81.5817250293645
 31
0.0
  0
LINE
  5
   504
  8
0
  6
CONTINUOUS
 62
     7
 10
-391.285979151393
 20
69.009232232884
 30
0.0
 11
-391.285979151393
 21
81.5817250293646
 31
0.0
  0
LINE
  5
   505
  8
0
  6
CONTINUOUS
 62
     7
 10
-325.603479317988
 20
69.0092322328839
 30
0.0
 11
-391.168479151691
 21
69.0092322328839
 31
0.0
  0
LINE
  5
   506
  8
0
  6
CONTINUOUS
 62
     7
 10
-325.955979317094
 20
68.5392322340823
 30
0.0
 11
-325.955979317094
 21
69.0092322328902
 31
0.0
  0
LINE
  5
   507
  8
0
  6
CONTINUOUS
 62
     7
 10
-325.485979318286
 20
69.0092322328839
 30
0.0
 11
-325.603479317988
 21
69.0092322328839
 31
0.0
  0
LINE
  5
   508
  8
0
  6
CONTINUOUS
 62
     7
 10
-390.815979152586
 20
68.5392322340808
 30
0.0
 11
-390.815979152586
 21
69.0092322328887
 31
0.0
  0
LINE
  5
   509
  8
0
  6
CONTINUOUS
 62
     7
 10
-391.168479179705
 20
69.0092322328839
 30
0.0
 11
-391.285979151393
 21
69.0092322328839
 31
0.0
  0
LINE
  5
   50A
  8
0
  6
CONTINUOUS
 62
     7
 10
-389.382479066576
 20
-38.0332172942005
 30
0.0
 11
-389.382479066576
 21
82.1692250278745
 31
0.0
  0
LINE
  5
   50B
  8
0
  6
CONTINUOUS
 62
     7
 10
-387.690478891577
 20
69.009232232884
 30
0.0
 11
-387.690478891577
 21
82.1692250278745
 31
0.0
  0
LINE
  5
   50C
  8
0
  6
CONTINUOUS
 62
     7
 10
-385.998479164804
 20
69.009232232884
 30
0.0
 11
-385.998479164804
 21
82.1692250278745
 31
0.0
  0
LINE
  5
   50D
  8
0
  6
CONTINUOUS
 62
     7
 10
-384.306478989805
 20
69.009232232884
 30
0.0
 11
-384.306478989805
 21
82.1692250278745
 31
0.0
  0
LINE
  5
   50E
  8
0
  6
CONTINUOUS
 62
     7
 10
-382.614480607714
 20
69.009232232884
 30
0.0
 11
-382.614480607714
 21
82.1692250278745
 31
0.0
  0
LINE
  5
   50F
  8
0
  6
CONTINUOUS
 62
     7
 10
-380.922484914984
 20
69.009232232884
 30
0.0
 11
-380.922484914984
 21
82.1692250278745
 31
0.0
  0
LINE
  5
   510
  8
0
  6
CONTINUOUS
 62
     7
 10
-379.230482050623
 20
69.009232232884
 30
0.0
 11
-379.230482050623
 21
82.1692250278745
 31
0.0
  0
LINE
  5
   511
  8
0
  6
CONTINUOUS
 62
     7
 10
-377.538479186262
 20
69.009232232884
 30
0.0
 11
-377.538479186262
 21
82.1692250278745
 31
0.0
  0
LINE
  5
   512
  8
0
  6
CONTINUOUS
 62
     7
 10
-375.846483493532
 20
69.009232232884
 30
0.0
 11
-375.846483493532
 21
82.1692250278745
 31
0.0
  0
LINE
  5
   513
  8
0
  6
CONTINUOUS
 62
     7
 10
-374.154480629171
 20
69.009232232884
 30
0.0
 11
-374.154480629171
 21
82.1692250278745
 31
0.0
  0
LINE
  5
   514
  8
0
  6
CONTINUOUS
 62
     7
 10
-372.462484936441
 20
69.009232232884
 30
0.0
 11
-372.462484936441
 21
82.1692250278745
 31
0.0
  0
LINE
  5
   515
  8
0
  6
CONTINUOUS
 62
     7
 10
-370.770482072081
 20
69.009232232884
 30
0.0
 11
-370.770482072081
 21
82.1692250278745
 31
0.0
  0
LINE
  5
   516
  8
0
  6
CONTINUOUS
 62
     7
 10
-369.07847920772
 20
69.009232232884
 30
0.0
 11
-369.07847920772
 21
82.1692250278745
 31
0.0
  0
LINE
  5
   517
  8
0
  6
CONTINUOUS
 62
     7
 10
-367.38648351499
 20
69.009232232884
 30
0.0
 11
-367.38648351499
 21
82.1692250278745
 31
0.0
  0
LINE
  5
   518
  8
0
  6
CONTINUOUS
 62
     7
 10
-365.694480650629
 20
69.009232232884
 30
0.0
 11
-365.694480650629
 21
82.1692250278745
 31
0.0
  0
LINE
  5
   519
  8
0
  6
CONTINUOUS
 62
     7
 10
-364.002484957899
 20
69.009232232884
 30
0.0
 11
-364.002484957899
 21
82.1692250278745
 31
0.0
  0
LINE
  5
   51A
  8
0
  6
CONTINUOUS
 62
     7
 10
-362.310482093538
 20
69.009232232884
 30
0.0
 11
-362.310482093538
 21
82.1692250278745
 31
0.0
  0
LINE
  5
   51B
  8
0
  6
CONTINUOUS
 62
     7
 10
-360.618479229177
 20
69.009232232884
 30
0.0
 11
-360.618479229177
 21
82.1692250278745
 31
0.0
  0
LINE
  5
   51C
  8
0
  6
CONTINUOUS
 62
     7
 10
-358.926483536447
 20
69.009232232884
 30
0.0
 11
-358.926483536447
 21
82.1692250278745
 31
0.0
  0
LINE
  5
   51D
  8
0
  6
CONTINUOUS
 62
     7
 10
-357.234480672087
 20
69.009232232884
 30
0.0
 11
-357.234480672087
 21
82.1692250278745
 31
0.0
  0
LINE
  5
   51E
  8
0
  6
CONTINUOUS
 62
     7
 10
-355.542484979357
 20
69.009232232884
 30
0.0
 11
-355.542484979357
 21
82.1692250278745
 31
0.0
  0
LINE
  5
   51F
  8
0
  6
CONTINUOUS
 62
     7
 10
-353.850482114996
 20
69.009232232884
 30
0.0
 11
-353.850482114996
 21
82.1692250278745
 31
0.0
  0
LINE
  5
   520
  8
0
  6
CONTINUOUS
 62
     7
 10
-352.158479250635
 20
69.009232232884
 30
0.0
 11
-352.158479250635
 21
82.1692250278745
 31
0.0
  0
LINE
  5
   521
  8
0
  6
CONTINUOUS
 62
     7
 10
-350.466483557905
 20
69.009232232884
 30
0.0
 11
-350.466483557905
 21
82.1692250278745
 31
0.0
  0
LINE
  5
   522
  8
0
  6
CONTINUOUS
 62
     7
 10
-348.774480693544
 20
69.009232232884
 30
0.0
 11
-348.774480693544
 21
82.1692250278745
 31
0.0
  0
LINE
  5
   523
  8
0
  6
CONTINUOUS
 62
     7
 10
-347.082485000814
 20
69.009232232884
 30
0.0
 11
-347.082485000814
 21
82.1692250278745
 31
0.0
  0
LINE
  5
   524
  8
0
  6
CONTINUOUS
 62
     7
 10
-345.390482136454
 20
69.009232232884
 30
0.0
 11
-345.390482136454
 21
82.1692250278745
 31
0.0
  0
LINE
  5
   525
  8
0
  6
CONTINUOUS
 62
     7
 10
-343.698479272093
 20
69.009232232884
 30
0.0
 11
-343.698479272093
 21
82.1692250278745
 31
0.0
  0
LINE
  5
   526
  8
0
  6
CONTINUOUS
 62
     7
 10
-342.006483579363
 20
69.009232232884
 30
0.0
 11
-342.006483579363
 21
82.1692250278745
 31
0.0
  0
LINE
  5
   527
  8
0
  6
CONTINUOUS
 62
     7
 10
-340.314480715002
 20
69.009232232884
 30
0.0
 11
-340.314480715002
 21
82.1692250278745
 31
0.0
  0
LINE
  5
   528
  8
0
  6
CONTINUOUS
 62
     7
 10
-338.622485022272
 20
69.009232232884
 30
0.0
 11
-338.622485022272
 21
82.1692250278745
 31
0.0
  0
LINE
  5
   529
  8
0
  6
CONTINUOUS
 62
     7
 10
-336.930482157911
 20
69.009232232884
 30
0.0
 11
-336.930482157911
 21
82.1692250278745
 31
0.0
  0
LINE
  5
   52A
  8
0
  6
CONTINUOUS
 62
     7
 10
-335.23847929355
 20
69.009232232884
 30
0.0
 11
-335.23847929355
 21
82.1692250278745
 31
0.0
  0
LINE
  5
   52B
  8
0
  6
CONTINUOUS
 62
     7
 10
-333.54648360082
 20
69.009232232884
 30
0.0
 11
-333.54648360082
 21
82.1692250278745
 31
0.0
  0
LINE
  5
   52C
  8
0
  6
CONTINUOUS
 62
     7
 10
-331.85448073646
 20
69.009232232884
 30
0.0
 11
-331.85448073646
 21
82.1692250278745
 31
0.0
  0
LINE
  5
   52D
  8
0
  6
CONTINUOUS
 62
     7
 10
-330.16248504373
 20
69.009232232884
 30
0.0
 11
-330.16248504373
 21
82.1692250278745
 31
0.0
  0
LINE
  5
   52E
  8
0
  6
CONTINUOUS
 62
     7
 10
-328.470482179369
 20
69.009232232884
 30
0.0
 11
-328.470482179369
 21
82.1692250278745
 31
0.0
  0
LINE
  5
   52F
  8
0
  6
CONTINUOUS
 62
     7
 10
-326.778479315008
 20
69.009232232884
 30
0.0
 11
-326.778479315008
 21
82.1692250278745
 31
0.0
  0
ARC
  5
   530
  8
0
  6
CONTINUOUS
 62
     7
 10
-390.6984794656
 20
81.5817250293646
 30
0.0
 40
0.587499998509884
 50
449.999999948034
 51
539.999999948034
  0
ARC
  5
   531
  8
0
  6
CONTINUOUS
 62
     7
 10
-326.073487096868
 20
81.5817250293645
 30
0.0
 40
0.587499998509884
 50
360.000036000188
 51
449.999999948034
  0
LINE
  5
   532
  8
0
  6
DASHDOT
 62
     7
 10
-350.161007453851
 20
-48.5377500323856
 30
0.0
 11
-350.161007453851
 21
-42.8037564817958
 31
0.0
  0
LINE
  5
   533
  8
0
  6
DASHDOT
 62
     7
 10
-366.611009089178
 20
-48.5377352313384
 30
0.0
 11
-366.611009089178
 21
-42.803753136154
 31
0.0
  0
LINE
  5
   534
  8
0
  6
DASHDOT
 62
     7
 10
-383.061002651667
 20
-48.5377359658964
 30
0.0
 11
-383.061002651667
 21
-42.803733695401
 31
0.0
  0
LINE
  5
   535
  8
0
  6
CONTINUOUS
 62
     5
 10
-374.767174646733
 20
46.7329695230506
 30
0.0
 11
-374.601000785544
 21
46.8018100085768
 31
0.0
  0
LINE
  5
   536
  8
0
  6
CONTINUOUS
 62
     5
 10
-374.83600496514
 20
46.5668006826597
 30
0.0
 11
-374.767175238049
 21
46.7329745451787
 31
0.0
  0
LINE
  5
   537
  8
0
  6
CONTINUOUS
 62
     5
 10
-374.836016538546
 20
-2.3132299351538
 30
0.0
 11
-374.836016538546
 21
-2.07821559248816
 31
0.0
  0
LINE
  5
   538
  8
0
  6
CONTINUOUS
 62
     5
 10
-374.836009366916
 20
41.1617538184082
 30
0.0
 11
-374.836009366916
 21
46.5667896628534
 31
0.0
  0
LINE
  5
   539
  8
0
  6
CONTINUOUS
 62
     5
 10
-374.767180004782
 20
-2.47940081068768
 30
0.0
 11
-374.836016904051
 21
-2.31323054265563
 31
0.0
  0
LINE
  5
   53A
  8
0
  6
CONTINUOUS
 62
     5
 10
-374.601016623761
 20
-2.54820047188493
 30
0.0
 11
-374.7671779353
 21
-2.47939943070034
 31
0.0
  0
LINE
  5
   53B
  8
0
  6
CONTINUOUS
 62
     5
 10
-325.720984390737
 20
-2.54823531327328
 30
0.0
 11
-340.055984354378
 21
-2.5482245558268
 31
0.0
  0
LINE
  5
   53C
  8
0
  6
CONTINUOUS
 62
     5
 10
-374.366009368108
 20
-2.54820124803439
 30
0.0
 11
-374.60101833205
 21
-2.54820124803439
 31
0.0
  0
LINE
  5
   53D
  8
0
  6
CONTINUOUS
 62
     5
 10
-325.720981430065
 20
-2.54823419045897
 30
0.0
 11
-325.55480757669
 21
-2.47940267300516
 31
0.0
  0
LINE
  5
   53E
  8
0
  6
CONTINUOUS
 62
     5
 10
-325.554808017842
 20
-2.47940182554014
 30
0.0
 11
-325.485974704672
 21
-2.3132315499367
 31
0.0
  0
LINE
  5
   53F
  8
0
  6
CONTINUOUS
 62
     5
 10
-325.485977219746
 20
-2.31323172805987
 30
0.0
 11
-325.485984391377
 21
46.566789662855
 31
0.0
  0
LINE
  5
   540
  8
0
  6
CONTINUOUS
 62
     5
 10
-325.485982047215
 20
46.5667938620835
 30
0.0
 11
-325.554829705266
 21
46.7329677187145
 31
0.0
  0
LINE
  5
   541
  8
0
  6
CONTINUOUS
 62
     5
 10
-325.554832942962
 20
46.7329630668075
 30
0.0
 11
-325.721006804533
 21
46.8017892078459
 31
0.0
  0
LINE
  5
   542
  8
0
  6
CONTINUOUS
 62
     5
 10
-325.721005905671
 20
46.8017896622601
 30
0.0
 11
-374.601005781694
 21
46.8018040055223
 31
0.0
  0
LINE
  5
   543
  8
0
  6
CONTINUOUS
 62
     7
 10
-338.317014479683
 20
2.35412299642849
 30
0.0
 11
-338.317014479683
 21
6.17935614102316
 31
0.0
  0
LINE
  5
   544
  8
0
  6
CONTINUOUS
 62
     7
 10
-337.660019622494
 20
1.59895635383454
 30
0.0
 11
-338.317019871478
 21
2.35412190397964
 31
0.0
  0
LINE
  5
   545
  8
0
  6
CONTINUOUS
 62
     7
 10
-336.817191686163
 20
1.05888390568569
 30
0.0
 11
-337.660008929458
 21
1.59895789157115
 31
0.0
  0
LINE
  5
   546
  8
0
  6
CONTINUOUS
 62
     7
 10
-335.856542667675
 20
0.777497330961328
 30
0.0
 11
-336.817196981081
 21
1.05888342657729
 31
0.0
  0
LINE
  5
   547
  8
0
  6
CONTINUOUS
 62
     7
 10
-334.855533622984
 20
0.777497329040671
 30
0.0
 11
-335.856542684166
 21
0.777497329040671
 31
0.0
  0
LINE
  5
   548
  8
0
  6
CONTINUOUS
 62
     7
 10
-334.8555345105
 20
0.777497000201215
 30
0.0
 11
-333.894880210297
 21
1.05887953073877
 31
0.0
  0
LINE
  5
   549
  8
0
  6
CONTINUOUS
 62
     7
 10
-333.894869553645
 20
1.05888506731158
 30
0.0
 11
-333.052045127273
 21
1.59895909600155
 31
0.0
  0
LINE
  5
   54A
  8
0
  6
CONTINUOUS
 62
     7
 10
-333.052060094698
 20
1.59895014560118
 30
0.0
 11
-332.395038282816
 21
2.3541623204351
 31
0.0
  0
LINE
  5
   54B
  8
0
  6
CONTINUOUS
 62
     7
 10
-332.395033139809
 20
2.35416602722337
 30
0.0
 11
-332.395011624917
 21
6.17937765692552
 31
0.0
  0
LINE
  5
   54C
  8
0
  6
CONTINUOUS
 62
     7
 10
-332.395012969418
 20
6.17937733064613
 30
0.0
 11
-333.052034771779
 21
6.93457157933416
 31
0.0
  0
LINE
  5
   54D
  8
0
  6
CONTINUOUS
 62
     7
 10
-333.052025833759
 20
6.93457297055663
 30
0.0
 11
-333.894850260132
 21
7.4746469992466
 31
0.0
  0
LINE
  5
   54E
  8
0
  6
CONTINUOUS
 62
     7
 10
-333.89485487021
 20
7.47464639736853
 30
0.0
 11
-334.855501966041
 21
7.75602891408547
 31
0.0
  0
LINE
  5
   54F
  8
0
  6
CONTINUOUS
 62
     7
 10
-334.85550493646
 20
7.75602842401145
 30
0.0
 11
-335.856521169273
 21
7.75602842401145
 31
0.0
  0
LINE
  5
   550
  8
0
  6
CONTINUOUS
 62
     7
 10
-336.817164937816
 20
7.47464729002456
 30
0.0
 11
-335.856517841985
 21
7.75602980674151
 31
0.0
  0
LINE
  5
   551
  8
0
  6
CONTINUOUS
 62
     7
 10
-337.659983188988
 20
6.93457753939708
 30
0.0
 11
-336.817158762616
 21
7.47465156808704
 31
0.0
  0
LINE
  5
   552
  8
0
  6
CONTINUOUS
 62
     7
 10
-338.317019913573
 20
6.1793518334232
 30
0.0
 11
-337.659998126459
 21
6.93456758853608
 31
0.0
  0
LINE
  5
   553
  8
0
  6
CONTINUOUS
 62
     7
 10
-340.055984354174
 20
41.1617609901762
 30
0.0
 11
-325.485984391129
 21
41.1617896766987
 31
0.0
  0
LINE
  5
   554
  8
0
  6
CONTINUOUS
 62
     7
 10
-325.485984391377
 20
45.8617896646415
 30
0.0
 11
-374.836012952731
 21
45.8617896646415
 31
0.0
  0
LINE
  5
   555
  8
0
  6
CONTINUOUS
 62
     7
 10
-330.888913640716
 20
37.7542288266759
 30
0.0
 11
-330.942578952272
 21
38.0240255767317
 31
0.0
  0
LINE
  5
   556
  8
0
  6
CONTINUOUS
 62
     7
 10
-330.942576243607
 20
38.0240301198297
 30
0.0
 11
-331.095396532871
 21
38.2527477700559
 31
0.0
  0
LINE
  5
   557
  8
0
  6
CONTINUOUS
 62
     7
 10
-331.095399062868
 20
38.2527457061305
 30
0.0
 11
-331.324123887998
 21
38.4055659820356
 31
0.0
  0
LINE
  5
   558
  8
0
  6
CONTINUOUS
 62
     7
 10
-331.324128615959
 20
38.4055641960085
 30
0.0
 11
-331.593918190834
 21
38.4592295089356
 31
0.0
  0
LINE
  5
   559
  8
0
  6
CONTINUOUS
 62
     7
 10
-331.863709032333
 20
38.4055628183343
 30
0.0
 11
-331.593919457458
 21
38.4592281312613
 31
0.0
  0
LINE
  5
   55A
  8
0
  6
CONTINUOUS
 62
     7
 10
-332.092416991375
 20
38.2527483112599
 30
0.0
 11
-331.863699341148
 21
38.405568600524
 31
0.0
  0
LINE
  5
   55B
  8
0
  6
CONTINUOUS
 62
     7
 10
-332.245246124069
 20
38.02402945897
 30
0.0
 11
-332.092418673206
 21
38.2527471048414
 31
0.0
  0
LINE
  5
   55C
  8
0
  6
CONTINUOUS
 62
     7
 10
-332.298914354479
 20
37.7542280071581
 30
0.0
 11
-332.245249042923
 21
38.024024757214
 31
0.0
  0
LINE
  5
   55D
  8
0
  6
CONTINUOUS
 62
     7
 10
-332.298911772779
 20
36.3442323157346
 30
0.0
 11
-332.298911772779
 21
37.7542323121584
 31
0.0
  0
LINE
  5
   55E
  8
0
  6
CONTINUOUS
 62
     7
 10
-332.245249528926
 20
36.0744370458608
 30
0.0
 11
-332.298914841853
 21
36.3442266207355
 31
0.0
  0
LINE
  5
   55F
  8
0
  6
CONTINUOUS
 62
     7
 10
-332.092418834632
 20
35.845725291221
 30
0.0
 11
-332.245246285495
 21
36.0744429370925
 31
0.0
  0
LINE
  5
   560
  8
0
  6
CONTINUOUS
 62
     7
 10
-331.86370110889
 20
35.6928977702315
 30
0.0
 11
-332.092418754761
 21
35.8457252210948
 31
0.0
  0
LINE
  5
   561
  8
0
  6
CONTINUOUS
 62
     7
 10
-331.593918196574
 20
35.639229656221
 30
0.0
 11
-331.863707771449
 21
35.6928949691481
 31
0.0
  0
LINE
  5
   562
  8
0
  6
CONTINUOUS
 62
     7
 10
-331.593919451718
 20
35.6392282785468
 30
0.0
 11
-331.324129876843
 21
35.6928935914739
 31
0.0
  0
LINE
  5
   563
  8
0
  6
CONTINUOUS
 62
     7
 10
-331.324121573802
 20
35.6928981104293
 30
0.0
 11
-331.095396753067
 21
35.8457255643891
 31
0.0
  0
LINE
  5
   564
  8
0
  6
CONTINUOUS
 62
     7
 10
-331.095395722404
 20
35.8457269769829
 30
0.0
 11
-330.94257543314
 21
36.074444627209
 31
0.0
  0
LINE
  5
   565
  8
0
  6
CONTINUOUS
 62
     7
 10
-330.942581468986
 20
36.0744356728376
 30
0.0
 11
-330.888916156059
 21
36.3442252477122
 31
0.0
  0
LINE
  5
   566
  8
0
  6
CONTINUOUS
 62
     7
 10
-330.888911776355
 20
36.3442323157346
 30
0.0
 11
-330.888911776355
 21
37.7542323121584
 31
0.0
  0
LINE
  5
   567
  8
0
  6
CONTINUOUS
 62
     7
 10
-330.890984377668
 20
26.2392430988109
 30
0.0
 11
-332.300984374092
 21
26.2392430988109
 31
0.0
  0
LINE
  5
   568
  8
0
  6
CONTINUOUS
 62
     7
 10
-332.300984374092
 20
13.5492431309974
 30
0.0
 11
-332.300984374092
 21
26.2392430988109
 31
0.0
  0
LINE
  5
   569
  8
0
  6
CONTINUOUS
 62
     7
 10
-330.890984377668
 20
13.5492431309974
 30
0.0
 11
-332.300984374092
 21
13.5492431309974
 31
0.0
  0
LINE
  5
   56A
  8
0
  6
CONTINUOUS
 62
     7
 10
-330.890984377668
 20
13.5492431309974
 30
0.0
 11
-330.890984377668
 21
26.2392430988109
 31
0.0
  0
LINE
  5
   56B
  8
0
  6
CONTINUOUS
 62
     5
 10
-340.995984352038
 20
-0.903244281991761
 30
0.0
 11
-340.995984352038
 21
39.7517556148922
 31
0.0
  0
LINE
  5
   56C
  8
0
  6
CONTINUOUS
 62
     7
 10
-340.055984354422
 20
41.1617538184082
 30
0.0
 11
-373.19102371435
 21
41.1617538184082
 31
0.0
  0
LINE
  5
   56D
  8
0
  6
CONTINUOUS
 62
     5
 10
-341.465984350846
 20
40.2217538207924
 30
0.0
 11
-373.19102371435
 21
40.2217538207924
 31
0.0
  0
LINE
  5
   56E
  8
0
  6
CONTINUOUS
 62
     5
 10
-340.995985379734
 20
39.7517525827597
 30
0.0
 11
-341.465985362454
 21
40.2217525654802
 31
0.0
  0
LINE
  5
   56F
  8
0
  6
CONTINUOUS
 62
     5
 10
-373.661023066402
 20
39.7517553371337
 30
0.0
 11
-373.523363612165
 21
40.0840958820033
 31
0.0
  0
LINE
  5
   570
  8
0
  6
CONTINUOUS
 62
     5
 10
-373.523363366732
 20
40.0840953560827
 30
0.0
 11
-373.191022821862
 21
40.2217548103197
 31
0.0
  0
LINE
  5
   571
  8
0
  6
CONTINUOUS
 62
     7
 10
-373.191023713793
 20
41.1617538190802
 30
0.0
 11
-374.836011159266
 21
41.1617609907112
 31
0.0
  0
LINE
  5
   572
  8
0
  6
CONTINUOUS
 62
     5
 10
-374.836012952731
 20
-2.07821559248812
 30
0.0
 11
-374.836011159823
 21
41.1617627829468
 31
0.0
  0
LINE
  5
   573
  8
0
  6
CONTINUOUS
 62
     5
 10
-340.525984352199
 20
-2.54834826624759
 30
0.0
 11
-374.366012952892
 21
-2.54821200526579
 31
0.0
  0
LINE
  5
   574
  8
0
  6
CONTINUOUS
 62
     5
 10
-340.055984339503
 20
-2.54835543495219
 30
0.0
 11
-340.525984338311
 21
-2.54834826332135
 31
0.0
  0
LINE
  5
   575
  8
0
  6
CONTINUOUS
 62
     5
 10
-341.13364291122
 20
-1.23558401310832
 30
0.0
 11
-340.995983456983
 21
-0.903243468238703
 31
0.0
  0
LINE
  5
   576
  8
0
  6
CONTINUOUS
 62
     5
 10
-341.4659829714
 20
-1.37324368530899
 30
0.0
 11
-341.133642426531
 21
-1.23558423107201
 31
0.0
  0
LINE
  5
   577
  8
0
  6
CONTINUOUS
 62
     5
 10
-341.465984350846
 20
-1.37324428079967
 30
0.0
 11
-373.19102371435
 21
-1.37324428079967
 31
0.0
  0
LINE
  5
   578
  8
0
  6
CONTINUOUS
 62
     5
 10
-373.191023198767
 20
-1.37324404815917
 30
0.0
 11
-373.523363743636
 21
-1.23558459392219
 31
0.0
  0
LINE
  5
   579
  8
0
  6
CONTINUOUS
 62
     5
 10
-373.523363986315
 20
-1.23558437320346
 30
0.0
 11
-373.661023440552
 21
-0.903243828333856
 31
0.0
  0
LINE
  5
   57A
  8
0
  6
CONTINUOUS
 62
     5
 10
-373.661023713157
 20
-0.903244281991761
 30
0.0
 11
-373.661023713157
 21
39.7517556148922
 31
0.0
  0
LINE
  5
   57B
  8
0
  6
CONTINUOUS
 62
     5
 10
-355.213495073424
 20
7.40548986594058
 30
0.0
 11
-355.213495073424
 21
27.0407373899909
 31
0.0
  0
LINE
  5
   57C
  8
0
  6
CONTINUOUS
 62
     5
 10
-345.108495099054
 20
7.40548986594058
 30
0.0
 11
-345.108495099054
 21
27.0407373899909
 31
0.0
  0
LINE
  5
   57D
  8
0
  6
CONTINUOUS
 62
     7
 10
-327.835977213786
 20
10.1043394989879
 30
0.0
 11
-328.775977211402
 21
10.1043394989879
 31
0.0
  0
LINE
  5
   57E
  8
0
  6
CONTINUOUS
 62
     7
 10
-328.942139891828
 20
10.0355150188325
 30
0.0
 11
-328.775966029309
 21
10.1043447459231
 31
0.0
  0
LINE
  5
   57F
  8
0
  6
CONTINUOUS
 62
     7
 10
-329.010977524258
 20
9.86933918741441
 30
0.0
 11
-328.942151383145
 21
10.0355094566613
 31
0.0
  0
LINE
  5
   580
  8
0
  6
CONTINUOUS
 62
     7
 10
-329.010977210806
 20
4.69933951269695
 30
0.0
 11
-329.010977210806
 21
9.86933949958393
 31
0.0
  0
LINE
  5
   581
  8
0
  6
CONTINUOUS
 62
     7
 10
-328.942151301885
 20
4.53316912557061
 30
0.0
 11
-329.010977442998
 21
4.69933939481746
 31
0.0
  0
LINE
  5
   582
  8
0
  6
CONTINUOUS
 62
     7
 10
-328.77596792496
 20
4.46434041335026
 30
0.0
 11
-328.942141787479
 21
4.53317014044087
 31
0.0
  0
LINE
  5
   583
  8
0
  6
CONTINUOUS
 62
     7
 10
-327.835977213786
 20
4.464339513293
 30
0.0
 11
-328.775977211402
 21
4.464339513293
 31
0.0
  0
LINE
  5
   584
  8
0
  6
CONTINUOUS
 62
     7
 10
-327.130977215574
 20
4.464339513293
 30
0.0
 11
-327.835977213786
 21
4.464339513293
 31
0.0
  0
LINE
  5
   585
  8
0
  6
CONTINUOUS
 62
     7
 10
-327.130985110439
 20
4.46433613249711
 30
0.0
 11
-326.964818428069
 21
4.53316585959698
 31
0.0
  0
LINE
  5
   586
  8
0
  6
CONTINUOUS
 62
     7
 10
-326.964807992494
 20
4.53317152350763
 30
0.0
 11
-326.895974679323
 21
4.69934179911106
 31
0.0
  0
LINE
  5
   587
  8
0
  6
CONTINUOUS
 62
     7
 10
-326.89597721617
 20
4.69933951269695
 30
0.0
 11
-326.89597721617
 21
9.86933949958393
 31
0.0
  0
LINE
  5
   588
  8
0
  6
CONTINUOUS
 62
     7
 10
-326.895975333707
 20
9.86934065488232
 30
0.0
 11
-326.964808646878
 21
10.0355109304858
 31
0.0
  0
LINE
  5
   589
  8
0
  6
CONTINUOUS
 62
     7
 10
-326.964817100906
 20
10.0355088492092
 30
0.0
 11
-327.130983783277
 21
10.1043385763091
 31
0.0
  0
LINE
  5
   58A
  8
0
  6
CONTINUOUS
 62
     7
 10
-327.130977215574
 20
10.1043394989879
 30
0.0
 11
-327.835977213786
 21
10.1043394989879
 31
0.0
  0
LINE
  5
   58B
  8
0
  6
CONTINUOUS
 62
     5
 10
-340.996005866931
 20
28.471764608041
 30
0.0
 11
-340.996005866931
 21
28.9417646068489
 31
0.0
  0
LINE
  5
   58C
  8
0
  6
CONTINUOUS
 62
     7
 10
-340.996005866931
 20
28.9417646068489
 30
0.0
 11
-373.661027298973
 21
28.9417646068489
 31
0.0
  0
LINE
  5
   58D
  8
0
  6
CONTINUOUS
 62
     7
 10
-340.996005866931
 20
28.471764608041
 30
0.0
 11
-373.661027298973
 21
28.471764608041
 31
0.0
  0
LINE
  5
   58E
  8
0
  6
CONTINUOUS
 62
     5
 10
-340.996005866931
 20
5.44176466645354
 30
0.0
 11
-340.996005866931
 21
5.91176466526144
 31
0.0
  0
LINE
  5
   58F
  8
0
  6
CONTINUOUS
 62
     7
 10
-340.996005866931
 20
5.91176466526144
 30
0.0
 11
-373.661027298973
 21
5.91176466526144
 31
0.0
  0
LINE
  5
   590
  8
0
  6
CONTINUOUS
 62
     7
 10
-340.996005866931
 20
5.44176466645354
 30
0.0
 11
-373.661027298973
 21
5.44176466645354
 31
0.0
  0
LINE
  5
   591
  8
0
  6
CONTINUOUS
 62
     7
 10
-355.213509416685
 20
22.8317646223461
 30
0.0
 11
-373.661027298973
 21
22.8317646223461
 31
0.0
  0
LINE
  5
   592
  8
0
  6
CONTINUOUS
 62
     7
 10
-355.213509416685
 20
22.3617646235382
 30
0.0
 11
-373.661027298973
 21
22.3617646235382
 31
0.0
  0
LINE
  5
   593
  8
0
  6
CONTINUOUS
 62
     7
 10
-355.213513002501
 20
12.0217646497642
 30
0.0
 11
-373.661027298973
 21
12.0217646497642
 31
0.0
  0
LINE
  5
   594
  8
0
  6
CONTINUOUS
 62
     7
 10
-355.213513002501
 20
11.5517646509563
 30
0.0
 11
-373.661027298973
 21
11.5517646509563
 31
0.0
  0
LINE
  5
   595
  8
0
  6
CONTINUOUS
 62
     5
 10
-340.996005866931
 20
22.3617646235382
 30
0.0
 11
-340.996005866931
 21
22.8317646223461
 31
0.0
  0
LINE
  5
   596
  8
0
  6
CONTINUOUS
 62
     7
 10
-340.996005866931
 20
22.8317646223461
 30
0.0
 11
-345.108495099054
 21
22.8317646223461
 31
0.0
  0
LINE
  5
   597
  8
0
  6
CONTINUOUS
 62
     7
 10
-340.996005866931
 20
22.3617646235382
 30
0.0
 11
-345.108495099054
 21
22.3617646235382
 31
0.0
  0
LINE
  5
   598
  8
0
  6
CONTINUOUS
 62
     5
 10
-340.996005866931
 20
11.5517646509563
 30
0.0
 11
-340.996005866931
 21
12.0217646497642
 31
0.0
  0
LINE
  5
   599
  8
0
  6
CONTINUOUS
 62
     7
 10
-340.996005866931
 20
12.0217646497642
 30
0.0
 11
-345.108498684869
 21
12.0217646497642
 31
0.0
  0
LINE
  5
   59A
  8
0
  6
CONTINUOUS
 62
     7
 10
-340.996005866931
 20
11.5517646509563
 30
0.0
 11
-345.108498684869
 21
11.5517646509563
 31
0.0
  0
LINE
  5
   59B
  8
0
  6
DOT
 62
     7
 10
-311.150984427736
 20
57.4942609486138
 30
0.0
 11
-325.485988148523
 21
57.4942609486138
 31
0.0
  0
LINE
  5
   59C
  8
0
  6
CONTINUOUS
 62
   130
 10
-321.726027430699
 20
6.85173956216931
 30
0.0
 11
-321.726027430699
 21
11.7867395496523
 31
0.0
  0
LINE
  5
   59D
  8
0
  6
DOT
 62
     7
 10
-311.150977012782
 20
-10.5382460504616
 30
0.0
 11
-325.485988148523
 21
-10.5382460504616
 31
0.0
  0
LINE
  5
   59E
  8
0
  6
DOT
 62
     7
 10
-311.150977012782
 20
-10.5382460504616
 30
0.0
 11
-311.150984427736
 21
57.4942609486149
 31
0.0
  0
LINE
  5
   59F
  8
0
  6
DOT
 62
     7
 10
-310.680984428928
 20
16.6042395374334
 30
0.0
 11
-310.680984428928
 21
26.0042395135915
 31
0.0
  0
LINE
  5
   5A0
  8
0
  6
CONTINUOUS
 62
     5
 10
-340.525986128689
 20
-2.54834825851057
 30
0.0
 11
-374.602678547141
 21
-2.54751993512227
 31
0.0
  0
LINE
  5
   5A1
  8
0
  6
CONTINUOUS
 62
     5
 10
-374.663940190993
 20
-2.52116859564715
 30
0.0
 11
-374.416328884267
 21
-2.47869999253795
 31
0.0
  0
LINE
  5
   5A2
  8
0
  6
CONTINUOUS
 62
     5
 10
-374.664633478495
 20
-2.52186258733476
 30
0.0
 11
-374.663939623209
 21
-2.52116873204939
 31
0.0
  0
LINE
  5
   5A3
  8
0
  6
CONTINUOUS
 62
     5
 10
-374.663938825602
 20
46.7749000438989
 30
0.0
 11
-374.664525106405
 21
46.7754881176231
 31
0.0
  0
LINE
  5
   5A4
  8
0
  6
CONTINUOUS
 62
     5
 10
-374.602434711229
 20
46.8012087833178
 30
0.0
 11
-350.72328678443
 21
46.8017968570298
 31
0.0
  0
LINE
  5
   5A5
  8
0
  6
CONTINUOUS
 62
     5
 10
-345.108495099054
 20
26.8335525608045
 30
0.0
 11
-355.213495073424
 21
26.8335525608045
 31
0.0
  0
LINE
  5
   5A6
  8
0
  6
CONTINUOUS
 62
     5
 10
-345.108495099054
 20
27.0407373899909
 30
0.0
 11
-355.213495073424
 21
27.0407373899909
 31
0.0
  0
LINE
  5
   5A7
  8
0
  6
CONTINUOUS
 62
     5
 10
-345.108495099054
 20
7.40548986594058
 30
0.0
 11
-355.213495073424
 21
7.40548986594058
 31
0.0
  0
LINE
  5
   5A8
  8
0
  6
CONTINUOUS
 62
     5
 10
-345.108495099054
 20
7.72033163149945
 30
0.0
 11
-355.213495073424
 21
7.72033163149945
 31
0.0
  0
LINE
  5
   5A9
  8
0
  6
DOT
 62
     7
 10
-310.680984428928
 20
26.0042395135915
 30
0.0
 11
-311.150977256105
 21
26.0042395135915
 31
0.0
  0
LINE
  5
   5AA
  8
0
  6
DOT
 62
     7
 10
-310.680984428928
 20
16.6042395374334
 30
0.0
 11
-311.150984427736
 21
16.6042395374334
 31
0.0
  0
CIRCLE
  5
   5AB
  8
0
  6
CONTINUOUS
 62
   130
 10
-317.495978173386
 20
9.3192435196147
 30
0.0
 40
2.46750007504048
  0
LINE
  5
   5AC
  8
0
  6
DASHDOT
 62
     7
 10
-317.495978173386
 20
5.44174344815049
 30
0.0
 11
-317.495978173386
 21
13.1967435910789
 31
0.0
  0
LINE
  5
   5AD
  8
0
  6
DASHDOT
 62
     7
 10
-313.618478101921
 20
9.3192435196147
 30
0.0
 11
-321.37347824485
 21
9.3192435196147
 31
0.0
  0
LINE
  5
   5AE
  8
0
  6
DASHDOT
 62
     7
 10
-308.124188293912
 20
22.126789724846
 30
0.0
 11
-396.311793982954
 21
22.126789724846
 31
0.0
  0
INSERT
  5
   5AF
  8
255
  6
CONTINUOUS
 62
     7
  2
CS3
 10
-404.13496974669
 20
-11.7071860194254
 30
0.0
 41
0.469999998807907
 42
0.469999998807907
 50
3.50835464724173E-15
 43
0.469999998807907
  0
INSERT
  5
   5B0
  8
255
  6
CONTINUOUS
 62
     7
  2
CS3
 10
-404.134937349257
 20
54.3156937569737
 30
0.0
 41
0.469999998807907
 42
-0.469999998807907
 50
1.03931199646468E-7
 43
0.469999998807907
  0
INSERT
  5
   5B1
  8
255
  6
CONTINUOUS
 62
     7
  2
MOSTRA
 10
-404.135018125884
 20
-10.3326999389185
 30
0.0
 41
0.469999998807907
 42
0.469999998807907
 50
359.999999792138
 43
0.469999998807907
  0
LINE
  5
   5B2
  8
0
  6
CONTINUOUS
 62
     7
 10
-326.190988209287
 20
59.9588277453451
 30
0.0
 11
-326.190988209287
 21
67.1292680958068
 31
0.0
  0
LINE
  5
   5B3
  8
0
  6
DOT
 62
     7
 10
-325.485988148523
 20
50.558827769187
 30
0.0
 11
-325.485988148523
 21
59.9588277453451
 31
0.0
  0
LINE
  5
   5B4
  8
0
  6
DOT
 62
     7
 10
-325.485988148523
 20
-26.4007244953357
 30
0.0
 11
-325.485988148523
 21
-2.54823548962204
 31
0.0
  0
LINE
  5
   5B5
  8
0
  6
CONTINUOUS
 62
     7
 10
-385.998486597468
 20
59.9588277453451
 30
0.0
 11
-385.998489131257
 21
69.4792728952484
 31
0.0
  0
TEXT
  5
   5B6
  8
0
  6
CONTINUOUS
 62
     1
 10
-374.677215577074
 20
-139.870897378464
 30
0.0
 40
2.00000009267888
  1
SCARPELLINI
 50
359.999999948034
 41
0.749999868303543
 72
     2
 11
-358.477217676013
 21
-139.870897393075
 31
0.0
  0
TEXT
  5
   5B7
  8
0
  6
CONTINUOUS
 62
     1
 10
-335.280241556687
 20
-145.864973105242
 30
0.0
 40
2.00000009267888
  1
M4504 98-11-17
 50
359.999999948034
 41
0.749999868303543
 72
     1
 11
-324.93024289608
 21
-144.864973068237
 31
0.0
 73
     2
  0
TEXT
  5
   5B8
  8
0
  6
CONTINUOUS
 62
     7
 10
-393.215303048212
 20
6.64160539511085
 30
0.0
 40
2.99999994291904
  1
=         =
 50
89.9999999480344
 41
0.916666679355833
 72
     1
 11
-394.715303006222
 21
21.4916053173295
 31
0.0
 73
     2
  0
INSERT
  5
   5B9
  8
0
  6
CONTINUOUS
 62
     7
  2
*UDIM423
 10
0.0
 20
0.0
 30
0.0
  0
TEXT
  5
   5BA
  8
0
  6
CONTINUOUS
 62
     1
 10
-360.870238317374
 20
-145.864971521687
 30
0.0
 40
2.00000009267888
  1
M 3076 95-01-16
 50
359.999999948034
 41
0.749999868303543
 72
     1
 11
-349.77023975371
 21
-144.864971485359
 31
0.0
 73
     2
  0
INSERT
  5
   5BB
  8
0
  6
CONTINUOUS
 62
     7
  2
*UDIM424
 10
0.0
 20
0.0
 30
0.0
  0
INSERT
  5
   5BC
  8
0
  6
CONTINUOUS
 62
     7
  2
*UDIM425
 10
0.0
 20
0.0
 30
0.0
  0
TEXT
  5
   5BD
  8
0
  6
CONTINUOUS
 62
     7
 10
-351.166340417766
 20
-101.749230717328
 30
0.0
 40
2.99999994291904
  1
Y
 50
359.999999948034
 41
0.916666599088244
 72
     1
 11
-350.066340522319
 21
-100.249230746861
 31
0.0
 73
     2
  0
INSERT
  5
   5BE
  8
0
  6
CONTINUOUS
 62
     7
  2
*UDIM426
 10
0.0
 20
0.0
 30
0.0
  0
INSERT
  5
   5BF
  8
0
  6
CONTINUOUS
 62
     7
  2
*UDIM427
 10
0.0
 20
0.0
 30
0.0
  0
TEXT
  5
   5C0
  8
0
  6
CONTINUOUS
 62
     1
 10
-374.677215074021
 20
-131.404146921371
 30
0.0
 40
2.00000009267888
  1
94-05-03 BARCELLA
 50
359.999999948034
 41
0.749999868303543
 72
     2
 11
-349.477218336263
 21
-131.4041469441
 31
0.0
  0
INSERT
  5
   5C1
  8
0
  6
CONTINUOUS
 62
     7
  2
*UDIM428
 10
0.0
 20
0.0
 30
0.0
  0
TEXT
  5
   5C2
  8
0
  6
CONTINUOUS
 62
     7
 10
-367.574051154734
 20
104.107545727448
 30
0.0
 40
2.99999994291904
  1
=          =
 50
359.999999948034
 41
0.916666599088244
 72
     2
 11
-335.1240541722
 21
104.10754569818
 31
0.0
  0
INSERT
  5
   5C3
  8
0
  6
CONTINUOUS
 62
     7
  2
*UDIM429
 10
0.0
 20
0.0
 30
0.0
  0
INSERT
  5
   5C4
  8
0
  6
CONTINUOUS
 62
     7
  2
*UDIM430
 10
0.0
 20
0.0
 30
0.0
  0
INSERT
  5
   5C5
  8
0
  6
CONTINUOUS
 62
     7
  2
*UDIM431
 10
0.0
 20
0.0
 30
0.0
  0
INSERT
  5
   5C6
  8
0
  6
CONTINUOUS
 62
     7
  2
*UDIM432
 10
0.0
 20
0.0
 30
0.0
  0
INSERT
  5
   5C7
  8
0
  6
CONTINUOUS
 62
     7
  2
*UDIM433
 10
0.0
 20
0.0
 30
0.0
  0
INSERT
  5
   5C8
  8
0
  6
CONTINUOUS
 62
     7
  2
*UDIM434
 10
0.0
 20
0.0
 30
0.0
  0
INSERT
  5
   5C9
  8
0
  6
CONTINUOUS
 62
     7
  2
*UDIM435
 10
0.0
 20
0.0
 30
0.0
  0
INSERT
  5
   5CA
  8
0
  6
CONTINUOUS
 62
     7
  2
*UDIM436
 10
0.0
 20
0.0
 30
0.0
  0
TEXT
  5
   5CB
  8
0
  6
CONTINUOUS
 62
     7
 10
-440.489536436748
 20
20.7223206106749
 30
0.0
 40
2.99999994291904
  1
X
 50
359.999999948034
 41
0.916666599088244
 72
     2
 11
-438.28953664856
 21
20.7223206086906
 31
0.0
  0
TEXT
  5
   5CC
  8
0
  6
CONTINUOUS
 62
     1
 10
-265.271723899402
 20
-157.171067625081
 30
0.0
 40
4.00000018535776
  1
601812/581
 50
359.999999948034
 41
0.937499950975182
 72
     2
 11
-228.52172415742
 21
-157.171067658227
 31
0.0
  0
TEXT
  5
   5CD
  8
0
  6
CONTINUOUS
 62
     1
 10
-254.186032115428
 20
-148.189480435236
 30
0.0
 40
2.99999994291904
  1
S4
 50
359.999999948034
 41
0.916666599088244
 72
     2
 11
-249.236032582299
 21
-148.189480439701
 31
0.0
  0
TEXT
  5
   5CE
  8
0
  6
CONTINUOUS
 62
     1
 10
-275.720458104461
 20
-129.879209518268
 30
0.0
 40
2.00000009267888
  1
4POLE LOW VOLTAGE M.C.C.B SERIES ISOMAX
 50
359.999999948034
 41
0.749999868303543
 72
     1
 11
-246.620461867402
 21
-128.879209498175
 31
0.0
 73
     2
  0
TEXT
  5
   5CF
  8
0
  6
CONTINUOUS
 62
     1
 10
-273.470458264153
 20
-132.879209520297
 30
0.0
 40
2.00000009267888
  1
WITHDRAWABLE VERSION CABLE TERMINALS
 50
359.999999948034
 41
0.749999868303543
 72
     1
 11
-246.620461736268
 21
-131.879209498175
 31
0.0
 73
     2
  0
TEXT
  5
   5D0
  8
0
  6
CONTINUOUS
 62
     1
 10
-272.518063948409
 20
-137.949481568095
 30
0.0
 40
2.00000009267888
  1
INTERR.AUTOMATICO SERIE ISOMAX
 50
359.999999948034
 41
0.749999868303543
 72
     1
 11
-250.168066838872
 21
-136.949481541915
 31
0.0
 73
     2
  0
TEXT
  5
   5D1
  8
0
  6
CONTINUOUS
 62
     1
 10
-285.268062169263
 20
-140.949481556596
 30
0.0
 40
2.00000009267888
  1
TETRAP.ESECUZIONE ESTRAIBILE TERMINALI PER CAVI
 50
359.999999948034
 41
0.749999868303543
 72
     1
 11
-250.168066707738
 21
-139.949481541914
 31
0.0
 73
     2
  0
TEXT
  5
   5D2
  8
0
  6
CONTINUOUS
 62
     7
 10
-301.838239117709
 20
20.6748040818376
 30
0.0
 40
2.99999994291904
  1
X
 50
359.999999948034
 41
0.916666599088244
 72
     1
 11
-300.738239222262
 21
22.174804052305
 31
0.0
 73
     2
  0
TEXT
  5
   5D3
  8
0
  6
CONTINUOUS
 62
     7
 10
-350.844431010013
 20
113.021068801227
 30
0.0
 40
2.99999994291904
  1
Y
 50
359.999999948034
 41
0.916666599088244
 72
     1
 11
-349.744431114566
 21
114.521068771694
 31
0.0
 73
     2
  0
LINE
  5
   5D4
  8
0
  6
CONTINUOUS
 62
     7
 10
-279.331481933594
 20
42.9577293395996
 30
0.0
 11
-245.581481933594
 21
42.9577293395996
 31
0.0
  0
LINE
  5
   5D5
  8
0
  6
CONTINUOUS
 62
     7
 10
-279.331481933594
 20
74.4577293395996
 30
0.0
 11
-245.581481933594
 21
74.4577293395996
 31
0.0
  0
LINE
  5
   5D6
  8
0
  6
CONTINUOUS
 62
     7
 10
-245.581481933594
 20
74.4577293395996
 30
0.0
 11
-245.581481933594
 21
53.8952293395996
 31
0.0
  0
LINE
  5
   5D7
  8
0
  6
CONTINUOUS
 62
     7
 10
-279.331481933594
 20
74.4577293395996
 30
0.0
 11
-279.331481933594
 21
42.9577293395996
 31
0.0
  0
LINE
  5
   5D8
  8
0
  6
DASHDOT
 62
     7
 10
-250.056468480189
 20
51.8952293395996
 30
0.0
 11
-236.076175534152
 21
51.8952293395996
 31
0.0
  0
LINE
  5
   5D9
  8
0
  6
CONTINUOUS
 62
     7
 10
-245.581481933594
 20
53.8952293395996
 30
0.0
 11
-239.831481933594
 21
53.8952293395996
 31
0.0
  0
LINE
  5
   5DA
  8
0
  6
CONTINUOUS
 62
     7
 10
-245.581481933594
 20
49.8952293395996
 30
0.0
 11
-239.831481933594
 21
49.8952293395996
 31
0.0
  0
ARC
  5
   5DB
  8
0
  6
CONTINUOUS
 62
     7
 10
-239.831481933594
 20
51.8952293395996
 30
0.0
 40
2.0
 50
269.999999844103
 51
449.999999844103
  0
LINE
  5
   5DC
  8
0
  6
CONTINUOUS
 62
     7
 10
-245.581481933594
 20
49.8952293395996
 30
0.0
 11
-245.581481933594
 21
42.9577293395996
 31
0.0
  0
LINE
  5
   5DD
  8
0
  6
DASHDOT
 62
     7
 10
-261.331481933594
 20
84.3352205004547
 30
0.0
 11
-261.331481933594
 21
35.5625480220482
 31
0.0
  0
CIRCLE
  5
   5DE
  8
0
  6
CONTINUOUS
 62
     7
 10
-272.331481933594
 20
76.4577293395996
 30
0.0
 40
0.875
  0
CIRCLE
  5
   5DF
  8
0
  6
CONTINUOUS
 62
     7
 10
-241.081481933594
 20
76.4577293395996
 30
0.0
 40
1.0
  0
CIRCLE
  5
   5E0
  8
0
  6
CONTINUOUS
 62
     7
 10
-241.081481933594
 20
58.7077293395996
 30
0.0
 40
1.0
  0
CIRCLE
  5
   5E1
  8
0
  6
CONTINUOUS
 62
     7
 10
-241.081481933594
 20
40.9577293395996
 30
0.0
 40
0.875
  0
CIRCLE
  5
   5E2
  8
0
  6
CONTINUOUS
 62
     7
 10
-272.331481933594
 20
40.9577293395996
 30
0.0
 40
1.0
  0
LINE
  5
   5E3
  8
0
  6
DASHDOT
 62
     7
 10
-272.331481933594
 20
78.0827293395996
 30
0.0
 11
-272.331481933594
 21
74.8327293395996
 31
0.0
  0
LINE
  5
   5E4
  8
0
  6
DASHDOT
 62
     7
 10
-273.956481933594
 20
76.4577293395996
 30
0.0
 11
-270.706481933594
 21
76.4577293395996
 31
0.0
  0
LINE
  5
   5E5
  8
0
  6
DASHDOT
 62
     7
 10
-241.081481933594
 20
78.0827293395996
 30
0.0
 11
-241.081481933594
 21
74.8327293395996
 31
0.0
  0
LINE
  5
   5E6
  8
0
  6
DASHDOT
 62
     7
 10
-242.706481933594
 20
76.4577293395996
 30
0.0
 11
-239.456481933594
 21
76.4577293395996
 31
0.0
  0
LINE
  5
   5E7
  8
0
  6
DASHDOT
 62
     7
 10
-241.081481933594
 20
60.3327293395996
 30
0.0
 11
-241.081481933594
 21
57.0827293395996
 31
0.0
  0
LINE
  5
   5E8
  8
0
  6
DASHDOT
 62
     7
 10
-242.706481933594
 20
58.7077293395996
 30
0.0
 11
-239.456481933594
 21
58.7077293395996
 31
0.0
  0
LINE
  5
   5E9
  8
0
  6
DASHDOT
 62
     7
 10
-241.081481933594
 20
42.5827293395996
 30
0.0
 11
-241.081481933594
 21
39.3327293395996
 31
0.0
  0
LINE
  5
   5EA
  8
0
  6
DASHDOT
 62
     7
 10
-242.706481933594
 20
40.9577293395996
 30
0.0
 11
-239.456481933594
 21
40.9577293395996
 31
0.0
  0
LINE
  5
   5EB
  8
0
  6
DASHDOT
 62
     7
 10
-272.331481933594
 20
42.5827293395996
 30
0.0
 11
-272.331481933594
 21
39.3327293395996
 31
0.0
  0
LINE
  5
   5EC
  8
0
  6
DASHDOT
 62
     7
 10
-273.956481933594
 20
40.9577293395996
 30
0.0
 11
-270.706481933594
 21
40.9577293395996
 31
0.0
  0
LINE
  5
   5ED
  8
0
  6
CONTINUOUS
 62
     7
 10
-285.256041010987
 20
79.4577293395996
 30
0.0
 11
-235.668982535724
 21
79.4577293395996
 31
0.0
  0
LINE
  5
   5EE
  8
0
  6
CONTINUOUS
 62
     7
 10
-285.889452341875
 20
37.9577293395996
 30
0.0
 11
-235.216545870804
 21
37.9577293395996
 31
0.0
  0
LINE
  5
   5EF
  8
0
  6
CONTINUOUS
 62
     7
 10
-236.081481933594
 20
80.2877743871964
 30
0.0
 11
-236.081481933594
 21
37.0348292208173
 31
0.0
  0
LINE
  5
   5F0
  8
0
  6
CONTINUOUS
 62
     7
 10
-284.331481933594
 20
80.2877743871964
 30
0.0
 11
-284.331481933594
 21
36.446661556421
 31
0.0
  0
POINT
  5
   5F1
  8
0
  6
CONTINUOUS
 62
     7
 10
-237.831481933594
 20
51.7702293395996
 30
0.0
  0
LINE
  5
   5F2
  8
0
  6
DASHDOT
 62
     7
 10
-288.792206696737
 20
58.7077293395996
 30
0.0
 11
-233.338753633457
 21
58.7077293395996
 31
0.0
  0
CIRCLE
  5
   5F3
  8
0
  6
CONTINUOUS
 62
     7
 10
-255.706481933594
 20
76.8327293395996
 30
0.0
 40
0.5
  0
CIRCLE
  5
   5F4
  8
0
  6
CONTINUOUS
 62
     7
 10
-266.956481933594
 20
76.8327293395996
 30
0.0
 40
0.5
  0
CIRCLE
  5
   5F5
  8
0
  6
CONTINUOUS
 62
     7
 10
-255.706481933594
 20
76.8327293395996
 30
0.0
 40
0.92
  0
CIRCLE
  5
   5F6
  8
0
  6
CONTINUOUS
 62
     7
 10
-266.956481933594
 20
76.8327293395996
 30
0.0
 40
0.92
  0
LINE
  5
   5F7
  8
0
  6
DASHDOT
 62
     7
 10
-255.706481933594
 20
78.5027293395996
 30
0.0
 11
-255.706481933594
 21
75.1627293395996
 31
0.0
  0
LINE
  5
   5F8
  8
0
  6
DASHDOT
 62
     7
 10
-257.376481933594
 20
76.8327293395996
 30
0.0
 11
-254.036481933594
 21
76.8327293395996
 31
0.0
  0
LINE
  5
   5F9
  8
0
  6
DASHDOT
 62
     7
 10
-266.956481933594
 20
78.5027293395996
 30
0.0
 11
-266.956481933594
 21
75.1627293395996
 31
0.0
  0
LINE
  5
   5FA
  8
0
  6
DASHDOT
 62
     7
 10
-268.626481933594
 20
76.8327293395996
 30
0.0
 11
-265.286481933594
 21
76.8327293395996
 31
0.0
  0
LINE
  5
   5FB
  8
0
  6
CONTINUOUS
 62
     7
 10
-234.221005659188
 20
75.1174498303516
 30
0.0
 11
-234.221005659188
 21
66.5864028240624
 31
0.0
  0
LINE
  5
   5FC
  8
0
  6
CONTINUOUS
 62
     7
 10
-230.356943191633
 20
75.1174498303516
 30
0.0
 11
-230.356943191633
 21
66.5864028240624
 31
0.0
  0
LINE
  5
   5FD
  8
0
  6
CONTINUOUS
 62
     7
 10
-234.221005659188
 20
75.1174498303516
 30
0.0
 11
-230.356943191633
 21
75.1174498303516
 31
0.0
  0
LINE
  5
   5FE
  8
0
  6
CONTINUOUS
 62
     7
 10
-234.221005659188
 20
66.5864028240624
 30
0.0
 11
-230.356943191633
 21
66.5864028240624
 31
0.0
  0
LINE
  5
   5FF
  8
0
  6
CONTINUOUS
 62
     7
 10
-234.221005659188
 20
42.2980088488476
 30
0.0
 11
-230.356943191633
 21
42.2980088488476
 31
0.0
  0
LINE
  5
   600
  8
0
  6
CONTINUOUS
 62
     7
 10
-230.356943191633
 20
50.8290558551368
 30
0.0
 11
-230.356943191633
 21
42.2980088488476
 31
0.0
  0
LINE
  5
   601
  8
0
  6
CONTINUOUS
 62
     7
 10
-234.221005659188
 20
50.8290558551368
 30
0.0
 11
-234.221005659188
 21
42.2980088488476
 31
0.0
  0
LINE
  5
   602
  8
0
  6
CONTINUOUS
 62
     7
 10
-234.221005659188
 20
50.8290558551368
 30
0.0
 11
-230.356943191633
 21
50.8290558551368
 31
0.0
  0
LINE
  5
   603
  8
0
  6
DASHDOT
 62
     7
 10
-232.28897442541
 20
78.1284075972772
 30
0.0
 11
-232.28897442541
 21
24.6337246048991
 31
0.0
  0
LINE
  5
   604
  8
0
  6
CONTINUOUS
 62
     7
 10
-284.688304042391
 20
106.018383315813
 30
0.0
 11
-268.294573340898
 21
78.1022018927007
 31
0.0
  0
LINE
  5
   605
  8
0
  6
CONTINUOUS
 62
     7
 10
-307.442744232116
 20
106.018383315813
 30
0.0
 11
-284.688304042391
 21
106.018383315813
 31
0.0
  0
LINE
  5
   606
  8
0
  6
CONTINUOUS
 62
     7
 10
-271.092278409713
 20
80.8588499698791
 30
0.0
 11
-268.294573340898
 21
78.1022018927008
 31
0.0
  0
LINE
  5
   607
  8
0
  6
CONTINUOUS
 62
     7
 10
-269.360655704522
 20
81.9663944372824
 30
0.0
 11
-268.294573340898
 21
78.1022018927008
 31
0.0
  0
INSERT
  5
   608
  8
0
  6
CONTINUOUS
 62
     7
  2
*UDIM437
 10
0.0
 20
0.0
 30
0.0
  0
INSERT
  5
   609
  8
0
  6
CONTINUOUS
 62
     7
  2
*UDIM438
 10
0.0
 20
0.0
 30
0.0
  0
INSERT
  5
   60A
  8
0
  6
CONTINUOUS
 62
     7
  2
*UDIM439
 10
0.0
 20
0.0
 30
0.0
  0
TEXT
  5
   60B
  8
0
  6
CONTINUOUS
 62
     7
 10
-305.347023343643
 20
107.427177427671
 30
0.0
 40
3.00000002980232
  1
PART. Z
 50
359.999999844103
 41
0.916666689183977
 72
     1
 11
-295.997023016214
 21
108.927177417179
 31
0.0
 73
     2
  0
INSERT
  5
   60C
  8
0
  6
CONTINUOUS
 62
     7
  2
*UDIM440
 10
0.0
 20
0.0
 30
0.0
  0
INSERT
  5
   60D
  8
0
  6
CONTINUOUS
 62
     7
  2
*UDIM441
 10
0.0
 20
0.0
 30
0.0
  0
INSERT
  5
   60E
  8
0
  6
CONTINUOUS
 62
     7
  2
*UDIM442
 10
0.0
 20
0.0
 30
0.0
  0
TEXT
  5
   60F
  8
0
  6
CONTINUOUS
 62
     7
 10
-286.852610525267
 20
49.5172637153716
 30
0.0
 40
3.00000002980232
  1
=     =
 50
449.999999844103
 41
0.916666604744064
 72
     2
 11
-286.852610474503
 21
68.2172626335473
 31
0.0
  0
INSERT
  5
   610
  8
0
  6
CONTINUOUS
 62
     7
  2
*UDIM443
 10
0.0
 20
0.0
 30
0.0
  0
INSERT
  5
   611
  8
0
  6
CONTINUOUS
 62
     7
  2
*UDIM444
 10
0.0
 20
0.0
 30
0.0
  0
INSERT
  5
   612
  8
0
  6
CONTINUOUS
 62
     7
  2
*UDIM445
 10
0.0
 20
0.0
 30
0.0
  0
INSERT
  5
   613
  8
0
  6
CONTINUOUS
 62
     7
  2
*UDIM446
 10
0.0
 20
0.0
 30
0.0
  0
INSERT
  5
   614
  8
0
  6
CONTINUOUS
 62
     7
  2
*UDIM447
 10
0.0
 20
0.0
 30
0.0
  0
INSERT
  5
   615
  8
0
  6
CONTINUOUS
 62
     7
  2
*UDIM448
 10
0.0
 20
0.0
 30
0.0
  0
INSERT
  5
   616
  8
0
  6
CONTINUOUS
 62
     7
  2
*UDIM449
 10
0.0
 20
0.0
 30
0.0
  0
INSERT
  5
   617
  8
0
  6
CONTINUOUS
 62
     7
  2
*UDIM450
 10
0.0
 20
0.0
 30
0.0
  0
INSERT
  5
   618
  8
0
  6
CONTINUOUS
 62
     7
  2
*UDIM451
 10
0.0
 20
0.0
 30
0.0
  0
INSERT
  5
   619
  8
0
  6
CONTINUOUS
 62
     7
  2
*UDIM452
 10
0.0
 20
0.0
 30
0.0
  0
INSERT
  5
   61A
  8
0
  6
CONTINUOUS
 62
     7
  2
*UDIM453
 10
0.0
 20
0.0
 30
0.0
  0
TEXT
  5
   61B
  8
0
  6
CONTINUOUS
 62
     7
 10
-262.212868104481
 20
14.797927787309
 30
0.0
 40
3.00000002980232
  1
Y
 50
359.999999844103
 41
0.916666604744064
 72
     2
 11
-260.012868235611
 21
14.7979277813341
 31
0.0
  0
TEXT
  5
   61C
  8
0
  6
CONTINUOUS
 62
     7
 10
-262.629871020817
 20
109.847705771928
 30
0.0
 40
3.00000002980232
  1
Y
 50
359.999999844103
 41
0.916666604744064
 72
     2
 11
-260.429871151947
 21
109.847705765953
 31
0.0
  0
TEXT
  5
   61D
  8
0
  6
CONTINUOUS
 62
     7
 10
-208.829624066852
 20
58.0034065747312
 30
0.0
 40
3.00000002980232
  1
X
 50
359.999999844103
 41
0.916666604744064
 72
     2
 11
-206.629624197983
 21
58.0034065687562
 31
0.0
  0
LINE
  5
   61E
  8
0
  6
CONTINUOUS
 62
     7
 10
-428.534149169922
 20
-99.5839298086564
 30
0.0
 11
-428.534149169922
 21
-123.500451294859
 31
0.0
  0
LINE
  5
   61F
  8
0
  6
CONTINUOUS
 62
     7
 10
-430.534149169922
 20
-99.5839298086564
 30
0.0
 11
-430.534149169922
 21
-123.500451294859
 31
0.0
  0
LINE
  5
   620
  8
0
  6
DASHDOT
 62
     7
 10
-433.736752272319
 20
-111.542190551758
 30
0.0
 11
-425.310533079882
 21
-111.542190551758
 31
0.0
  0
POINT
  5
   621
  8
0
  6
CONTINUOUS
 62
     7
 10
-430.534149169922
 20
-109.542190551758
 30
0.0
  0
POINT
  5
   622
  8
0
  6
CONTINUOUS
 62
     7
 10
-430.534149169922
 20
-113.542190551758
 30
0.0
  0
LINE
  5
   623
  8
0
  6
CONTINUOUS
 62
     7
 10
-428.534149169922
 20
-107.863991289403
 30
0.0
 11
-430.534149169922
 21
-109.542190551758
 31
0.0
  0
LINE
  5
   624
  8
0
  6
CONTINUOUS
 62
     7
 10
-430.534149169922
 20
-113.542190551758
 30
0.0
 11
-428.534149169922
 21
-115.220389814112
 31
0.0
  0
LINE
  5
   625
  8
0
  6
CONTINUOUS
 62
     7
 10
-430.534149169922
 20
-121.042190551758
 30
0.0
 11
-428.534149169922
 21
-121.042190551758
 31
0.0
  0
CIRCLE
  5
   626
  8
0
  6
CONTINUOUS
 62
     7
 10
-429.534149169922
 20
-111.542190551758
 30
0.0
 40
12.0
  0
LINE
  5
   627
  8
0
  6
CONTINUOUS
 62
     7
 10
-436.534141540527
 20
-116.042190551758
 30
0.0
 11
-434.034141540527
 21
-116.042190551758
 31
0.0
  0
LINE
  5
   628
  8
0
  6
CONTINUOUS
 62
     7
 10
-433.034141540527
 20
-107.042190551758
 30
0.0
 11
-433.034141540527
 21
-115.042190551758
 31
0.0
  0
LINE
  5
   629
  8
0
  6
CONTINUOUS
 62
     7
 10
-433.034141540527
 20
-107.042190551758
 30
0.0
 11
-430.534149169922
 21
-107.042190551758
 31
0.0
  0
LINE
  5
   62A
  8
0
  6
CONTINUOUS
 62
     7
 10
-436.534141540527
 20
-118.542190551758
 30
0.0
 11
-434.034141540527
 21
-118.542190551758
 31
0.0
  0
LINE
  5
   62B
  8
0
  6
CONTINUOUS
 62
     7
 10
-437.534141540527
 20
-119.542190551758
 30
0.0
 11
-437.534141540527
 21
-120.486469285689
 31
0.0
  0
ARC
  5
   62C
  8
0
  6
CONTINUOUS
 62
     7
 10
-434.034137393247
 20
-115.042191223097
 30
0.0
 40
0.999996977799109
 50
629.999840735313
 51
720.000252836193
  0
ARC
  5
   62D
  8
0
  6
CONTINUOUS
 62
     7
 10
-436.534126887021
 20
-119.542203238062
 30
0.0
 40
3.50001845311552
 50
450.000186734275
 51
513.408761128067
  0
ARC
  5
   62E
  8
0
  6
CONTINUOUS
 62
     7
 10
-436.534185788677
 20
-119.542149656975
 30
0.0
 40
0.999949821243504
 50
449.997764042825
 51
540.001169660043
  0
ARC
  5
   62F
  8
0
  6
CONTINUOUS
 62
     7
 10
-434.034122188146
 20
-115.042222598692
 30
0.0
 40
3.49997105594423
 50
629.999653243441
 51
720.000420168909
  0
INSERT
  5
   630
  8
0
  6
CONTINUOUS
 62
     7
  2
*HATCH107
 10
-429.534149169922
 20
-111.542190551758
 30
0.0
 50
269.999999844103
  0
INSERT
  5
   631
  8
0
  6
CONTINUOUS
 62
     7
  2
*HATCH108
 10
-429.534149169922
 20
-111.542190551758
 30
0.0
 50
269.999999844103
  0
TEXT
  5
   632
  8
0
  6
CONTINUOUS
 62
     7
 10
-403.732651090225
 20
-115.523217202761
 30
0.0
 40
3.00000002980232
  1
PART. Z
 50
359.999999844103
 41
0.916666689183977
 72
     1
 11
-394.382650762796
 21
-114.023217213254
 31
0.0
 73
     2
  0
INSERT
  5
   633
  8
0
  6
CONTINUOUS
 62
     7
  2
*UDIM454
 10
0.0
 20
0.0
 30
0.0
  0
INSERT
  5
   634
  8
0
  6
CONTINUOUS
 62
     7
  2
*UDIM455
 10
0.0
 20
0.0
 30
0.0
  0
LINE
  5
   635
  8
0
  6
CONTINUOUS
 62
     2
 10
-491.452280851385
 20
60.7842441556013
 30
0.0
 11
-491.452280851385
 21
70.4731174220424
 31
0.0
  0
LINE
  5
   636
  8
0
  6
CONTINUOUS
 62
     7
 10
-523.647309456468
 20
69.2442441341436
 30
0.0
 11
-525.292309452295
 21
69.2442441341436
 31
0.0
  0
LINE
  5
   637
  8
0
  6
CONTINUOUS
 62
     7
 10
-523.647259254718
 20
61.0192400569749
 30
0.0
 11
-523.647259254718
 21
69.2442400361133
 31
0.0
  0
LINE
  5
   638
  8
0
  6
CONTINUOUS
 62
     7
 10
-491.452309538126
 20
61.9592441526211
 30
0.0
 11
-493.332309533358
 21
61.9592441526211
 31
0.0
  0
LINE
  5
   639
  8
0
  6
CONTINUOUS
 62
     7
 10
-493.332310728457
 20
61.9592381852789
 30
0.0
 11
-493.332355790264
 21
79.6782659094203
 31
0.0
  0
LINE
  5
   63A
  8
0
  6
CONTINUOUS
 62
     2
 10
-491.217323881984
 20
60.7842441556013
 30
0.0
 11
-491.452309538126
 21
60.7842441556013
 31
0.0
  0
LINE
  5
   63B
  8
0
  6
CONTINUOUS
 62
     2
 10
-490.512323883772
 20
68.3042441365278
 30
0.0
 11
-491.452323881388
 21
68.3042441365278
 31
0.0
  0
LINE
  5
   63C
  8
0
  6
CONTINUOUS
 62
     2
 10
-490.512323883772
 20
73.4742441234148
 30
0.0
 11
-491.452323881388
 21
73.4742441234148
 31
0.0
  0
LINE
  5
   63D
  8
0
  6
CONTINUOUS
 62
     2
 10
-490.512323883772
 20
72.2107175152914
 30
0.0
 11
-491.452323881388
 21
72.2107175152914
 31
0.0
  0
LINE
  5
   63E
  8
0
  6
CONTINUOUS
 62
     2
 10
-490.512323883772
 20
70.4731174220424
 30
0.0
 11
-491.452323881388
 21
70.4731174220424
 31
0.0
  0
LINE
  5
   63F
  8
0
  6
CONTINUOUS
 62
     7
 10
-525.292309452295
 20
69.0092530275453
 30
0.0
 11
-525.292309452295
 21
69.4792601979841
 31
0.0
  0
LINE
  5
   640
  8
0
  6
CONTINUOUS
 62
     7
 10
-535.726307991505
 20
69.4792601979841
 30
0.0
 11
-535.867309425473
 21
69.4792601979841
 31
0.0
  0
LINE
  5
   641
  8
0
  6
CONTINUOUS
 62
     7
 10
-523.882309455872
 20
69.009267370807
 30
0.0
 11
-525.292309452295
 21
69.009267370807
 31
0.0
  0
LINE
  5
   642
  8
0
  6
CONTINUOUS
 62
     7
 10
-523.882309455872
 20
57.4942585072076
 30
0.0
 11
-523.882309455872
 21
69.009267370807
 31
0.0
  0
LINE
  5
   643
  8
0
  6
CONTINUOUS
 62
     7
 10
-535.726293648242
 20
57.4942585072076
 30
0.0
 11
-535.726293648242
 21
69.479254316975
 31
0.0
  0
LINE
  5
   644
  8
0
  6
CONTINUOUS
 62
     2
 10
-491.452280851385
 20
79.6782659094203
 30
0.0
 11
-535.726315163136
 21
79.6782659094203
 31
0.0
  0
LINE
  5
   645
  8
0
  6
CONTINUOUS
 62
     2
 10
-535.726264961713
 20
69.47925695923
 30
0.0
 11
-535.726264961713
 21
79.6782626706663
 31
0.0
  0
LINE
  5
   646
  8
0
  6
CONTINUOUS
 62
     7
 10
-525.292309452295
 20
69.4792673696149
 30
0.0
 11
-525.292309452295
 21
79.6782659094203
 31
0.0
  0
LINE
  5
   647
  8
0
  6
CONTINUOUS
 62
     7
 10
-538.217316591144
 20
-10.185703741802
 30
0.0
 11
-538.217316591144
 21
-8.30575208334562
 31
0.0
  0
LINE
  5
   648
  8
0
  6
CONTINUOUS
 62
     7
 10
-538.217316591144
 20
57.4942585072076
 30
0.0
 11
-538.217316591144
 21
69.4792817128766
 31
0.0
  0
LINE
  5
   649
  8
0
  6
CONTINUOUS
 62
     7
 10
-535.867316597104
 20
69.4792817128766
 30
0.0
 11
-538.217316591144
 21
69.4792817128766
 31
0.0
  0
LINE
  5
   64A
  8
0
  6
CONTINUOUS
 62
     7
 10
-535.867316597104
 20
-10.185703741802
 30
0.0
 11
-538.217316591144
 21
-10.185703741802
 31
0.0
  0
LINE
  5
   64B
  8
0
  6
CONTINUOUS
 62
   218
 10
-491.452323433161
 20
-37.069704032196
 30
0.0
 11
-535.726314714909
 21
-37.069704032196
 31
0.0
  0
LINE
  5
   64C
  8
0
  6
CONTINUOUS
 62
   218
 10
-535.726318479423
 20
-25.225710875707
 30
0.0
 11
-535.867316596681
 21
-25.2257092207413
 31
0.0
  0
LINE
  5
   64D
  8
0
  6
CONTINUOUS
 62
   218
 10
-535.726322334766
 20
-27.1057108705177
 30
0.0
 11
-537.747316592336
 21
-27.1057108705177
 31
0.0
  0
LINE
  5
   64E
  8
0
  6
CONTINUOUS
 62
   218
 10
-535.726322334766
 20
-37.0697022392883
 30
0.0
 11
-535.726322334766
 21
-25.2257037036552
 31
0.0
  0
LINE
  5
   64F
  8
0
  6
CONTINUOUS
 62
   218
 10
-535.726322334766
 20
-25.2257037036552
 30
0.0
 11
-535.726322334766
 21
-10.1857502856695
 31
0.0
  0
LINE
  5
   650
  8
0
  6
CONTINUOUS
 62
     7
 10
-535.726322334766
 20
-10.6557037406101
 30
0.0
 11
-535.867316597104
 21
-10.6557037406101
 31
0.0
  0
LINE
  5
   651
  8
0
  6
CONTINUOUS
 62
   218
 10
-490.512323883619
 20
-22.4057108819735
 30
0.0
 11
-491.452323432987
 21
-22.4057037103427
 31
0.0
  0
LINE
  5
   652
  8
0
  6
CONTINUOUS
 62
   218
 10
-491.452323433161
 20
-39.5607036672962
 30
0.0
 11
-491.452323433161
 21
-22.4057108824384
 31
0.0
  0
LINE
  5
   653
  8
0
  6
CONTINUOUS
 62
   218
 10
-490.512323883772
 20
-27.4582108696236
 30
0.0
 11
-491.452323881388
 21
-27.4582108696236
 31
0.0
  0
LINE
  5
   654
  8
0
  6
CONTINUOUS
 62
   218
 10
-490.512323883772
 20
-31.5554787635131
 30
0.0
 11
-491.452323881388
 21
-31.5554787635131
 31
0.0
  0
LINE
  5
   655
  8
0
  6
CONTINUOUS
 62
   218
 10
-490.512323883772
 20
-30.4025741128881
 30
0.0
 11
-491.452323881388
 21
-30.4025741128881
 31
0.0
  0
LINE
  5
   656
  8
0
  6
CONTINUOUS
 62
     7
 10
-535.867316597104
 20
-10.4207037412059
 30
0.0
 11
-538.217316591144
 21
-10.4207037412059
 31
0.0
  0
LINE
  5
   657
  8
0
  6
CONTINUOUS
 62
     7
 10
-535.867316597104
 20
-26.8707036994827
 30
0.0
 11
-538.217316591144
 21
-26.8707036994827
 31
0.0
  0
LINE
  5
   658
  8
0
  6
CONTINUOUS
 62
     7
 10
-538.217316591144
 20
-26.8707036994827
 30
0.0
 11
-538.217316591144
 21
-10.4207037412059
 31
0.0
  0
LINE
  5
   659
  8
0
  6
CONTINUOUS
 62
     7
 10
-537.277316593528
 20
-26.8707036994827
 30
0.0
 11
-537.277316593528
 21
-10.4207037412059
 31
0.0
  0
LINE
  5
   65A
  8
0
  6
CONTINUOUS
 62
     7
 10
-535.867316597104
 20
-26.8707036994827
 30
0.0
 11
-535.867316597104
 21
-10.4207037412059
 31
0.0
  0
LINE
  5
   65B
  8
0
  6
CONTINUOUS
 62
     2
 10
-491.452280851385
 20
72.2107175152914
 30
0.0
 11
-491.452280851385
 21
82.1692656162536
 31
0.0
  0
LINE
  5
   65C
  8
0
  6
CONTINUOUS
 62
     7
 10
-490.512323883772
 20
68.3042441365278
 30
0.0
 11
-490.512323883772
 21
73.4742441234148
 31
0.0
  0
LINE
  5
   65D
  8
0
  6
CONTINUOUS
 62
     7
 10
-490.512323883772
 20
-31.5554787635137
 30
0.0
 11
-490.512323883772
 21
-27.4582108696243
 31
0.0
  0
LINE
  5
   65E
  8
0
  6
CONTINUOUS
 62
     7
 10
-467.9523024261
 20
66.6592656555927
 30
0.0
 11
-467.9523024261
 21
78.4092656257903
 31
0.0
  0
LINE
  5
   65F
  8
0
  6
CONTINUOUS
 62
     7
 10
-467.9523024261
 20
-35.8007264646733
 30
0.0
 11
-467.9523024261
 21
-24.0507336661065
 31
0.0
  0
LINE
  5
   660
  8
0
  6
CONTINUOUS
 62
     7
 10
-473.12230604976
 20
-38.3857197347121
 30
0.0
 11
-490.512327520545
 21
-38.3857197347121
 31
0.0
  0
LINE
  5
   661
  8
0
  6
CONTINUOUS
 62
     7
 10
-490.512323883772
 20
-29.9257412710631
 30
0.0
 11
-490.512323883772
 21
-10.5382520776832
 31
0.0
  0
LINE
  5
   662
  8
0
  6
CONTINUOUS
 62
     7
 10
-490.512323883772
 20
-38.3857412496054
 30
0.0
 11
-490.512323883772
 21
-37.0697183037246
 31
0.0
  0
LINE
  5
   663
  8
0
  6
CONTINUOUS
 62
     7
 10
-490.512323883772
 20
79.6782785315072
 30
0.0
 11
-490.512323883772
 21
80.9942656192338
 31
0.0
  0
LINE
  5
   664
  8
0
  6
CONTINUOUS
 62
     7
 10
-490.512323883772
 20
57.4942585072076
 30
0.0
 11
-490.512323883772
 21
72.5342799839532
 31
0.0
  0
LINE
  5
   665
  8
0
  6
CONTINUOUS
 62
     7
 10
-473.122302412987
 20
79.6782570166147
 30
0.0
 11
-473.122302412987
 21
80.9942656192338
 31
0.0
  0
LINE
  5
   666
  8
0
  6
CONTINUOUS
 62
     7
 10
-473.122302412987
 20
-38.3857484212363
 30
0.0
 11
-473.122302412987
 21
-37.0697286129439
 31
0.0
  0
LINE
  5
   667
  8
0
  6
CONTINUOUS
 62
     7
 10
-473.122302412987
 20
-29.9257556143248
 30
0.0
 11
-473.122302412987
 21
-24.0507269427026
 31
0.0
  0
LINE
  5
   668
  8
0
  6
CONTINUOUS
 62
     7
 10
-467.247302427888
 20
49.5042656991041
 30
0.0
 11
-467.247302427888
 21
56.5542656812227
 31
0.0
  0
LINE
  5
   669
  8
0
  6
CONTINUOUS
 62
     7
 10
-467.247302427888
 20
-13.94570545344
 30
0.0
 11
-467.247302427888
 21
-6.89570547132143
 31
0.0
  0
LINE
  5
   66A
  8
0
  6
CONTINUOUS
 62
     7
 10
-468.187302425504
 20
5.79424429507617
 30
0.0
 11
-469.127303479407
 21
5.79424429507617
 31
0.0
  0
LINE
  5
   66B
  8
0
  6
CONTINUOUS
 62
     7
 10
-468.187302425504
 20
9.08423711510068
 30
0.0
 11
-469.127303868564
 21
9.08423711510068
 31
0.0
  0
LINE
  5
   66C
  8
0
  6
CONTINUOUS
 62
     7
 10
-473.122302412987
 20
79.6782713598764
 30
0.0
 11
-490.512323883772
 21
79.6782713598764
 31
0.0
  0
LINE
  5
   66D
  8
0
  6
CONTINUOUS
 62
     7
 10
-490.512323883772
 20
72.5342656406915
 30
0.0
 11
-490.512323883772
 21
79.6782713598764
 31
0.0
  0
LINE
  5
   66E
  8
0
  6
CONTINUOUS
 62
     7
 10
-473.122302412987
 20
72.5342728123223
 30
0.0
 11
-473.122302412987
 21
78.4092656257903
 31
0.0
  0
LINE
  5
   66F
  8
0
  6
CONTINUOUS
 62
     7
 10
-473.122302412987
 20
-37.0697268200362
 30
0.0
 11
-490.512323883772
 21
-37.0697268200362
 31
0.0
  0
LINE
  5
   670
  8
0
  6
CONTINUOUS
 62
     7
 10
-490.512323883772
 20
-37.0697268200362
 30
0.0
 11
-490.512323883772
 21
-29.9257484426939
 31
0.0
  0
LINE
  5
   671
  8
0
  6
CONTINUOUS
 62
     7
 10
-473.122302412987
 20
-37.0697268200362
 30
0.0
 11
-473.122302412987
 21
-35.8007264646733
 31
0.0
  0
LINE
  5
   672
  8
0
  6
CONTINUOUS
 62
     3
 10
-467.482302427292
 20
-6.42574133066773
 30
0.0
 11
-468.187302425504
 21
-6.42574133066773
 31
0.0
  0
LINE
  5
   673
  8
0
  6
CONTINUOUS
 62
     3
 10
-467.482302427292
 20
-14.4157413104022
 30
0.0
 11
-468.187302425504
 21
-14.4157413104022
 31
0.0
  0
LINE
  5
   674
  8
0
  6
CONTINUOUS
 62
     3
 10
-467.482302427292
 20
-19.5857412972891
 30
0.0
 11
-468.187302425504
 21
-19.5857412972891
 31
0.0
  0
LINE
  5
   675
  8
0
  6
CONTINUOUS
 62
     3
 10
-467.482302427292
 20
62.1942584952867
 30
0.0
 11
-468.187302425504
 21
62.1942584952867
 31
0.0
  0
LINE
  5
   676
  8
0
  6
CONTINUOUS
 62
     3
 10
-467.482302427292
 20
57.0242585083997
 30
0.0
 11
-468.187302425504
 21
57.0242585083997
 31
0.0
  0
LINE
  5
   677
  8
0
  6
CONTINUOUS
 62
     3
 10
-467.482302427292
 20
49.0342585286653
 30
0.0
 11
-468.187302425504
 21
49.0342585286653
 31
0.0
  0
LINE
  5
   678
  8
0
  6
CONTINUOUS
 62
     3
 10
-468.187302425504
 20
56.5542656812227
 30
0.0
 11
-468.187302425504
 21
62.1942584952867
 31
0.0
  0
LINE
  5
   679
  8
0
  6
CONTINUOUS
 62
     3
 10
-468.187302425504
 20
-6.89566961316723
 30
0.0
 11
-468.187302425504
 21
49.5042800423657
 31
0.0
  0
LINE
  5
   67A
  8
0
  6
CONTINUOUS
 62
     3
 10
-468.187302425504
 20
-19.5857412972891
 30
0.0
 11
-468.187302425504
 21
-13.9456695952858
 31
0.0
  0
LINE
  5
   67B
  8
0
  6
CONTINUOUS
 62
     3
 10
-467.482302427292
 20
-19.5857412972891
 30
0.0
 11
-467.482302427292
 21
-13.9457126250709
 31
0.0
  0
LINE
  5
   67C
  8
0
  6
CONTINUOUS
 62
     3
 10
-467.482302427292
 20
-6.89571981458312
 30
0.0
 11
-467.482302427292
 21
49.5042154976882
 31
0.0
  0
LINE
  5
   67D
  8
0
  6
CONTINUOUS
 62
     3
 10
-467.482302427292
 20
56.5542298230685
 30
0.0
 11
-467.482302427292
 21
62.1942584952867
 31
0.0
  0
LINE
  5
   67E
  8
0
  6
CONTINUOUS
 62
     3
 10
-467.482302427292
 20
66.4242369696654
 30
0.0
 11
-467.482302427292
 21
78.6442369386709
 31
0.0
  0
LINE
  5
   67F
  8
0
  6
CONTINUOUS
 62
     3
 10
-471.242309589386
 20
78.4092656257903
 30
0.0
 11
-471.242309589386
 21
79.1142369374788
 31
0.0
  0
LINE
  5
   680
  8
0
  6
CONTINUOUS
 62
     3
 10
-471.242309589386
 20
65.9542369708574
 30
0.0
 11
-471.242309589386
 21
66.6592799988543
 31
0.0
  0
LINE
  5
   681
  8
0
  6
CONTINUOUS
 62
     7
 10
-471.242309589386
 20
78.4092656257903
 30
0.0
 11
-473.122302412987
 21
78.4092656257903
 31
0.0
  0
LINE
  5
   682
  8
0
  6
CONTINUOUS
 62
     7
 10
-472.652323929071
 20
66.6592656555927
 30
0.0
 11
-473.122302412987
 21
66.6592656555927
 31
0.0
  0
LINE
  5
   683
  8
0
  6
CONTINUOUS
 62
     7
 10
-471.242309589386
 20
66.6592656555927
 30
0.0
 11
-472.652323929071
 21
66.6592656555927
 31
0.0
  0
LINE
  5
   684
  8
0
  6
CONTINUOUS
 62
     7
 10
-471.242309589386
 20
-35.8007264646733
 30
0.0
 11
-473.122302412987
 21
-35.8007264646733
 31
0.0
  0
LINE
  5
   685
  8
0
  6
CONTINUOUS
 62
     7
 10
-471.242309589386
 20
-24.0507269427026
 30
0.0
 11
-472.652323929071
 21
-24.0507269427026
 31
0.0
  0
LINE
  5
   686
  8
0
  6
CONTINUOUS
 62
     7
 10
-472.652323929071
 20
-24.0507269427026
 30
0.0
 11
-473.122302412987
 21
-24.0507269427026
 31
0.0
  0
LINE
  5
   687
  8
0
  6
CONTINUOUS
 62
     7
 10
-467.247302427888
 20
56.5542656812227
 30
0.0
 11
-469.127309483563
 21
56.5542656812227
 31
0.0
  0
LINE
  5
   688
  8
0
  6
CONTINUOUS
 62
     7
 10
-467.247302427888
 20
49.5042656991041
 30
0.0
 11
-469.127308649652
 21
49.5042656991041
 31
0.0
  0
LINE
  5
   689
  8
0
  6
CONTINUOUS
 62
     7
 10
-467.247302427888
 20
-6.89570547132143
 30
0.0
 11
-469.127307638594
 21
-6.89570547132143
 31
0.0
  0
LINE
  5
   68A
  8
0
  6
CONTINUOUS
 62
     7
 10
-467.247302427888
 20
-13.94570545344
 30
0.0
 11
-473.122302412987
 21
-13.94570545344
 31
0.0
  0
LINE
  5
   68B
  8
0
  6
CONTINUOUS
 62
     3
 10
-467.482354376629
 20
78.6442049831126
 30
0.0
 11
-467.95235435935
 21
79.114204965833
 31
0.0
  0
LINE
  5
   68C
  8
0
  6
CONTINUOUS
 62
     3
 10
-467.952269433921
 20
65.9542782477968
 30
0.0
 11
-467.4822694512
 21
66.4242782305173
 31
0.0
  0
LINE
  5
   68D
  8
0
  6
CONTINUOUS
 62
     3
 10
-467.9523024261
 20
79.1142369374788
 30
0.0
 11
-471.242309589386
 21
79.1142369374788
 31
0.0
  0
LINE
  5
   68E
  8
0
  6
CONTINUOUS
 62
     3
 10
-467.9523024261
 20
65.9542369708574
 30
0.0
 11
-471.242309589386
 21
65.9542369708574
 31
0.0
  0
LINE
  5
   68F
  8
0
  6
CONTINUOUS
 62
     7
 10
-471.242309589386
 20
-36.5057053962196
 30
0.0
 11
-471.242309589386
 21
-35.8007340845311
 31
0.0
  0
LINE
  5
   690
  8
0
  6
CONTINUOUS
 62
     3
 10
-467.9523024261
 20
-36.5057053962196
 30
0.0
 11
-471.242309589386
 21
-36.5057053962196
 31
0.0
  0
LINE
  5
   691
  8
0
  6
CONTINUOUS
 62
     3
 10
-467.95235435935
 20
-36.5056734245738
 30
0.0
 11
-467.482354376629
 21
-36.0356734418533
 31
0.0
  0
LINE
  5
   692
  8
0
  6
CONTINUOUS
 62
     3
 10
-467.482302427292
 20
-36.0357053974117
 30
0.0
 11
-467.482302427292
 21
-23.8157054284061
 31
0.0
  0
LINE
  5
   693
  8
0
  6
CONTINUOUS
 62
     3
 10
-467.4822694512
 20
-23.815746689258
 30
0.0
 11
-467.952269433921
 21
-23.3457467065376
 31
0.0
  0
LINE
  5
   694
  8
0
  6
CONTINUOUS
 62
     3
 10
-467.9523024261
 20
-23.3457054295982
 30
0.0
 11
-471.242309589386
 21
-23.3457054295982
 31
0.0
  0
LINE
  5
   695
  8
0
  6
CONTINUOUS
 62
     3
 10
-471.242309589386
 20
-24.0507484575951
 30
0.0
 11
-471.242309589386
 21
-23.3457054295982
 31
0.0
  0
LINE
  5
   696
  8
0
  6
DASHDOT
 62
     7
 10
-467.247302427888
 20
-6.89570547132144
 30
0.0
 11
-467.247302427888
 21
49.504265699104
 31
0.0
  0
LINE
  5
   697
  8
0
  6
DASHDOT
 62
     7
 10
-467.247302427888
 20
-64.6143973564073
 30
0.0
 11
-467.247302427888
 21
-13.94570545344
 31
0.0
  0
LINE
  5
   698
  8
0
  6
DASHDOT
 62
     7
 10
-467.247302427888
 20
56.5542656812227
 30
0.0
 11
-467.247302427888
 21
106.876901305967
 31
0.0
  0
LINE
  5
   699
  8
0
  6
DASHDOT
 62
     7
 10
-465.837302431464
 20
-64.746584856072
 30
0.0
 11
-465.837302431464
 21
106.848888061005
 31
0.0
  0
LINE
  5
   69A
  8
0
  6
CONTINUOUS
 62
     7
 10
-467.9523024261
 20
78.4092656257903
 30
0.0
 11
-471.242309589386
 21
78.4092656257903
 31
0.0
  0
LINE
  5
   69B
  8
0
  6
CONTINUOUS
 62
     7
 10
-473.122302412987
 20
78.4092656257903
 30
0.0
 11
-473.122302412987
 21
79.6782713598764
 31
0.0
  0
LINE
  5
   69C
  8
0
  6
CONTINUOUS
 62
     7
 10
-473.122302412987
 20
66.6592656555927
 30
0.0
 11
-473.122302412987
 21
72.5342369541681
 31
0.0
  0
LINE
  5
   69D
  8
0
  6
CONTINUOUS
 62
     7
 10
-467.9523024261
 20
66.6592656555927
 30
0.0
 11
-471.242309589386
 21
66.6592656555927
 31
0.0
  0
LINE
  5
   69E
  8
0
  6
CONTINUOUS
 62
     7
 10
-473.122302412987
 20
57.4942585072076
 30
0.0
 11
-473.122302412987
 21
66.6592656555927
 31
0.0
  0
LINE
  5
   69F
  8
0
  6
CONTINUOUS
 62
     7
 10
-473.122302412987
 20
-13.94570545344
 30
0.0
 11
-473.122302412987
 21
-8.30585885403105
 31
0.0
  0
LINE
  5
   6A0
  8
0
  6
CONTINUOUS
 62
     7
 10
-473.122302412987
 20
-24.0507269427026
 30
0.0
 11
-473.122302412987
 21
-13.94570545344
 31
0.0
  0
LINE
  5
   6A1
  8
0
  6
CONTINUOUS
 62
     7
 10
-467.9523024261
 20
-24.0507269427026
 30
0.0
 11
-471.242309589386
 21
-24.0507269427026
 31
0.0
  0
LINE
  5
   6A2
  8
0
  6
CONTINUOUS
 62
     7
 10
-467.9523024261
 20
-35.8007264646733
 30
0.0
 11
-471.242309589386
 21
-35.8007264646733
 31
0.0
  0
LINE
  5
   6A3
  8
0
  6
CONTINUOUS
 62
     7
 10
-473.122302412987
 20
-35.8007264646733
 30
0.0
 11
-473.122302412987
 21
-29.9257484426939
 31
0.0
  0
LINE
  5
   6A4
  8
0
  6
DASHDOT
 62
     7
 10
-461.227258981962
 20
53.0292656901633
 30
0.0
 11
-475.674155522761
 21
53.0292656901633
 31
0.0
  0
LINE
  5
   6A5
  8
0
  6
DASHDOT
 62
     7
 10
-461.492339652436
 20
-10.4207341489041
 30
0.0
 11
-476.734478204654
 21
-10.4207341489041
 31
0.0
  0
CIRCLE
  5
   6A6
  8
0
  6
CONTINUOUS
 62
     7
 10
-492.216198393726
 20
87.7429289668281
 30
0.0
 40
9.39999997615814E-2
  0
LINE
  5
   6A7
  8
0
  6
CONTINUOUS
 62
   130
 10
-551.377270839651
 20
-3.13575747080068
 30
0.0
 11
-551.377295043906
 21
-1.25574492521508
 31
0.0
  0
LINE
  5
   6A8
  8
0
  6
CONTINUOUS
 62
   130
 10
-551.37729504383
 20
-8.30575566589306
 30
0.0
 11
-551.377271736029
 21
-6.42576284229227
 31
0.0
  0
LINE
  5
   6A9
  8
0
  6
CONTINUOUS
 62
   130
 10
-489.572323690646
 20
-8.30581120719011
 30
0.0
 11
-490.512323688262
 21
-8.30575204123567
 31
0.0
  0
LINE
  5
   6AA
  8
0
  6
CONTINUOUS
 62
   130
 10
-492.862331049442
 20
-8.30575208334562
 30
0.0
 11
-549.027295048833
 21
-8.30575208334562
 31
0.0
  0
LINE
  5
   6AB
  8
0
  6
CONTINUOUS
 62
   130
 10
-469.12730959475
 20
57.4942585072076
 30
0.0
 11
-489.572331057787
 21
57.4942585072076
 31
0.0
  0
LINE
  5
   6AC
  8
0
  6
CONTINUOUS
 62
   130
 10
-469.127309594166
 20
-8.30587041516548
 30
0.0
 11
-489.572323885572
 21
-8.30581124921217
 31
0.0
  0
LINE
  5
   6AD
  8
0
  6
CONTINUOUS
 62
   130
 10
-469.127309594683
 20
-8.30587041521359
 30
0.0
 11
-469.127302423053
 21
-3.13576823258713
 31
0.0
  0
LINE
  5
   6AE
  8
0
  6
CONTINUOUS
 62
     7
 10
-508.842302322388
 20
42.4542657169854
 30
0.0
 11
-551.377295042873
 21
42.4542657169854
 31
0.0
  0
LINE
  5
   6AF
  8
0
  6
CONTINUOUS
 62
     7
 10
-508.842302322388
 20
28.3542406520403
 30
0.0
 11
-551.377295042873
 21
28.3542406520403
 31
0.0
  0
LINE
  5
   6B0
  8
0
  6
CONTINUOUS
 62
   130
 10
-551.377271735073
 20
-6.42576284555854
 30
0.0
 11
-551.377270838619
 21
-3.13575747518006
 31
0.0
  0
LINE
  5
   6B1
  8
0
  6
CONTINUOUS
 62
   130
 10
-489.572331057787
 20
57.4942585072076
 30
0.0
 11
-551.377295042873
 21
57.4942585072076
 31
0.0
  0
LINE
  5
   6B2
  8
0
  6
CONTINUOUS
 62
   130
 10
-551.377295042873
 20
42.4542657169854
 30
0.0
 11
-551.377295042873
 21
57.4942585072076
 31
0.0
  0
LINE
  5
   6B3
  8
0
  6
CONTINUOUS
 62
     7
 10
-503.319831022762
 20
-6.42573415899871
 30
0.0
 11
-491.452323881232
 21
-6.42571264410634
 31
0.0
  0
LINE
  5
   6B4
  8
0
  6
CONTINUOUS
 62
     7
 10
-522.531052287655
 20
-6.42574491647824
 30
0.0
 11
-505.199831018137
 21
-6.42573415903243
 31
0.0
  0
LINE
  5
   6B5
  8
0
  6
CONTINUOUS
 62
     7
 10
-549.497243949765
 20
-6.42576105264743
 30
0.0
 11
-524.41105138644
 21
-6.42574491647836
 31
0.0
  0
LINE
  5
   6B6
  8
0
  6
CONTINUOUS
 62
     7
 10
-549.497239467496
 20
-4.31075747219653
 30
0.0
 11
-524.411050489986
 21
-4.31074133602692
 31
0.0
  0
LINE
  5
   6B7
  8
0
  6
CONTINUOUS
 62
     7
 10
-522.531050494747
 20
-4.31073954311925
 30
0.0
 11
-505.199827432321
 21
-4.31072878567331
 31
0.0
  0
LINE
  5
   6B8
  8
0
  6
CONTINUOUS
 62
     7
 10
-503.319827437085
 20
-4.31072699276588
 30
0.0
 11
-491.45232388137
 21
-4.31071982113501
 31
0.0
  0
LINE
  5
   6B9
  8
0
  6
CONTINUOUS
 62
     7
 10
-549.497243949786
 20
-6.42576105258603
 30
0.0
 11
-549.497240363971
 21
-4.31075747213503
 31
0.0
  0
LINE
  5
   6BA
  8
0
  6
CONTINUOUS
 62
     7
 10
-491.452323881388
 20
-6.42571264414437
 30
0.0
 11
-491.452323881388
 21
-4.31071982113963
 31
0.0
  0
LINE
  5
   6BB
  8
0
  6
CONTINUOUS
 62
     7
 10
-503.319831022867
 20
-6.42573415896429
 30
0.0
 11
-503.319827437052
 21
-4.31071623525161
 31
0.0
  0
LINE
  5
   6BC
  8
0
  6
CONTINUOUS
 62
     7
 10
-505.199831018101
 20
-6.42573415897037
 30
0.0
 11
-505.199827432286
 21
-4.3107180281654
 31
0.0
  0
LINE
  5
   6BD
  8
0
  6
CONTINUOUS
 62
     7
 10
-522.531052287662
 20
-6.425744916465
 30
0.0
 11
-522.531050494754
 21
-4.31072878566003
 31
0.0
  0
LINE
  5
   6BE
  8
0
  6
CONTINUOUS
 62
     7
 10
-524.411051386441
 20
-6.42574491646652
 30
0.0
 11
-524.411049593533
 21
-4.31073057856926
 31
0.0
  0
LINE
  5
   6BF
  8
0
  6
CONTINUOUS
 62
   130
 10
-536.33729575336
 20
-10.1857502856695
 30
0.0
 11
-536.33729575336
 21
-8.30575029043791
 31
0.0
  0
LINE
  5
   6C0
  8
0
  6
CONTINUOUS
 62
   130
 10
-534.457295534015
 20
-10.1857502856695
 30
0.0
 11
-534.457295534015
 21
-8.30575029043791
 31
0.0
  0
LINE
  5
   6C1
  8
0
  6
CONTINUOUS
 62
   130
 10
-534.457295534015
 20
-10.1857502856695
 30
0.0
 11
-536.33729575336
 21
-10.1857502856695
 31
0.0
  0
LINE
  5
   6C2
  8
0
  6
CONTINUOUS
 62
   130
 10
-496.974795180857
 20
-10.1857251849616
 30
0.0
 11
-496.974795180857
 21
-8.30575925497646
 31
0.0
  0
LINE
  5
   6C3
  8
0
  6
CONTINUOUS
 62
   130
 10
-495.094795185626
 20
-10.1857251849616
 30
0.0
 11
-495.094795185626
 21
-8.30575925497646
 31
0.0
  0
LINE
  5
   6C4
  8
0
  6
CONTINUOUS
 62
   130
 10
-495.094795185626
 20
-10.1857251849616
 30
0.0
 11
-496.974795180857
 21
-10.1857251849616
 31
0.0
  0
LINE
  5
   6C5
  8
0
  6
CONTINUOUS
 62
   130
 10
-549.027295048833
 20
-10.5382520776832
 30
0.0
 11
-549.027295048833
 21
-9.36325208066341
 31
0.0
  0
LINE
  5
   6C6
  8
0
  6
CONTINUOUS
 62
   130
 10
-551.377295042873
 20
-10.5382520776832
 30
0.0
 11
-551.377295042873
 21
-8.30575566916104
 31
0.0
  0
LINE
  5
   6C7
  8
0
  6
CONTINUOUS
 62
   130
 10
-549.027295048833
 20
-10.5382520776832
 30
0.0
 11
-551.377295042873
 21
-10.5382520776832
 31
0.0
  0
LINE
  5
   6C8
  8
0
  6
CONTINUOUS
 62
   130
 10
-549.027295048833
 20
-9.36325208066341
 30
0.0
 11
-549.027295048833
 21
-8.30575208334562
 31
0.0
  0
LINE
  5
   6C9
  8
0
  6
CONTINUOUS
 62
   130
 10
-492.862338221073
 20
-10.5382520776832
 30
0.0
 11
-492.862338221073
 21
-9.36325208066341
 31
0.0
  0
LINE
  5
   6CA
  8
0
  6
CONTINUOUS
 62
   130
 10
-490.512338227034
 20
-10.5382520776832
 30
0.0
 11
-492.862338221073
 21
-10.5382520776832
 31
0.0
  0
LINE
  5
   6CB
  8
0
  6
CONTINUOUS
 62
   130
 10
-490.512338226034
 20
-10.5382520768977
 30
0.0
 11
-490.512323882773
 21
-8.30575208256015
 31
0.0
  0
LINE
  5
   6CC
  8
0
  6
CONTINUOUS
 62
   130
 10
-492.862338220014
 20
-9.36325207973419
 30
0.0
 11
-492.862331048383
 21
-8.30575925404724
 31
0.0
  0
LINE
  5
   6CD
  8
0
  6
CONTINUOUS
 62
     7
 10
-548.087298575496
 20
47.8592738133174
 30
0.0
 11
-549.497298602894
 21
49.2692738407149
 31
0.0
  0
LINE
  5
   6CE
  8
0
  6
CONTINUOUS
 62
   130
 10
-551.377295042873
 20
-1.25574492959618
 30
0.0
 11
-551.377295042873
 21
28.3542514094866
 31
0.0
  0
LINE
  5
   6CF
  8
0
  6
CONTINUOUS
 62
     7
 10
-508.842302322388
 20
28.3542406520403
 30
0.0
 11
-508.842302322388
 21
42.4542657169854
 31
0.0
  0
LINE
  5
   6D0
  8
0
  6
CONTINUOUS
 62
     7
 10
-544.092295509577
 20
42.2192657175815
 30
0.0
 11
-544.092295509577
 21
42.4542657169854
 31
0.0
  0
LINE
  5
   6D1
  8
0
  6
CONTINUOUS
 62
     7
 10
-503.319831022901
 20
51.2667585230175
 30
0.0
 11
-491.45232388137
 21
51.2667656946485
 31
0.0
  0
LINE
  5
   6D2
  8
0
  6
CONTINUOUS
 62
     7
 10
-503.319831022918
 20
47.8592585316455
 30
0.0
 11
-503.319831022918
 21
51.2667585230029
 31
0.0
  0
LINE
  5
   6D3
  8
0
  6
CONTINUOUS
 62
     7
 10
-503.319831022901
 20
47.8592585316595
 30
0.0
 11
-491.45232388137
 21
47.8592657032905
 31
0.0
  0
LINE
  5
   6D4
  8
0
  6
CONTINUOUS
 62
     7
 10
-491.452323881388
 20
47.8592657032764
 30
0.0
 11
-491.452323881388
 21
51.2667656946337
 31
0.0
  0
LINE
  5
   6D5
  8
0
  6
CONTINUOUS
 62
     7
 10
-524.411051386446
 20
47.8592657032764
 30
0.0
 11
-524.411051386446
 21
51.2667656946337
 31
0.0
  0
LINE
  5
   6D6
  8
0
  6
CONTINUOUS
 62
     7
 10
-505.19983101815
 20
47.8592657032764
 30
0.0
 11
-524.4110522829
 21
47.8592657032764
 31
0.0
  0
LINE
  5
   6D7
  8
0
  6
CONTINUOUS
 62
     7
 10
-505.19983101815
 20
47.8592657032764
 30
0.0
 11
-505.19983101815
 21
51.2667656946337
 31
0.0
  0
LINE
  5
   6D8
  8
0
  6
CONTINUOUS
 62
     7
 10
-505.19983101815
 20
51.2667656946337
 30
0.0
 11
-524.4110522829
 21
51.2667656946337
 31
0.0
  0
LINE
  5
   6D9
  8
0
  6
CONTINUOUS
 62
     7
 10
-526.291051381677
 20
47.8592657032764
 30
0.0
 11
-549.497294151187
 21
47.8592657032764
 31
0.0
  0
LINE
  5
   6DA
  8
0
  6
CONTINUOUS
 62
     7
 10
-526.291051381677
 20
47.8592657032764
 30
0.0
 11
-526.291051381677
 21
51.2667656946337
 31
0.0
  0
LINE
  5
   6DB
  8
0
  6
CONTINUOUS
 62
     7
 10
-526.291051381677
 20
51.2667656946337
 30
0.0
 11
-549.497294151187
 21
51.2667656946337
 31
0.0
  0
LINE
  5
   6DC
  8
0
  6
CONTINUOUS
 62
     7
 10
-549.497295047641
 20
47.8592657032764
 30
0.0
 11
-549.497295047641
 21
51.2667656946337
 31
0.0
  0
LINE
  5
   6DD
  8
0
  6
CONTINUOUS
 62
     7
 10
-544.797295507789
 20
-6.42575746683713
 30
0.0
 11
-544.797295507789
 21
-4.31074312893986
 31
0.0
  0
LINE
  5
   6DE
  8
0
  6
CONTINUOUS
 62
     7
 10
-542.917294167876
 20
-6.42575567392942
 30
0.0
 11
-542.917294167876
 21
-4.31074312893986
 31
0.0
  0
LINE
  5
   6DF
  8
0
  6
CONTINUOUS
 62
     7
 10
-549.497111274601
 20
-6.42577181009465
 30
0.0
 11
-549.497110378148
 21
-4.31075747219739
 31
0.0
  0
LINE
  5
   6E0
  8
0
  6
CONTINUOUS
 62
   130
 10
-551.377295042963
 20
-8.30577718374422
 30
0.0
 11
-551.377293250055
 21
-7.83574311968982
 31
0.0
  0
LINE
  5
   6E1
  8
0
  6
CONTINUOUS
 62
   130
 10
-489.572327460481
 20
-8.30580766100957
 30
0.0
 11
-490.512323872282
 21
-8.30579331774788
 31
0.0
  0
LINE
  5
   6E2
  8
0
  6
CONTINUOUS
 62
   130
 10
-469.127302423119
 20
-3.13576823262767
 30
0.0
 11
-469.12730959475
 21
57.4942603001157
 31
0.0
  0
LINE
  5
   6E3
  8
0
  6
CONTINUOUS
 62
     7
 10
-503.295361418488
 20
-6.42574133066773
 30
0.0
 11
-503.295361418488
 21
-4.31072699277047
 31
0.0
  0
LINE
  5
   6E4
  8
0
  6
CONTINUOUS
 62
     7
 10
-505.200401162802
 20
-6.42576284556026
 30
0.0
 11
-505.200401162802
 21
-4.31072878567818
 31
0.0
  0
LINE
  5
   6E5
  8
0
  6
CONTINUOUS
 62
     7
 10
-515.657295133472
 20
42.2192657175815
 30
0.0
 11
-551.377295042873
 21
42.2192657175815
 31
0.0
  0
LINE
  5
   6E6
  8
0
  6
CONTINUOUS
 62
     7
 10
-515.657295133472
 20
28.3542406520403
 30
0.0
 11
-515.657295133472
 21
42.2192657175815
 31
0.0
  0
LINE
  5
   6E7
  8
0
  6
CONTINUOUS
 62
     7
 10
-551.377295042873
 20
28.3542514094866
 30
0.0
 11
-551.377295042873
 21
42.2192657175815
 31
0.0
  0
LINE
  5
   6E8
  8
0
  6
CONTINUOUS
 62
   150
 10
-551.377278010249
 20
-2.54823596177937
 30
0.0
 11
-556.547300408483
 21
-2.54823596177937
 31
0.0
  0
LINE
  5
   6E9
  8
0
  6
CONTINUOUS
 62
   150
 10
-551.377295042873
 20
46.8017872208511
 30
0.0
 11
-556.547300408483
 21
46.8017872208511
 31
0.0
  0
LINE
  5
   6EA
  8
0
  6
CONTINUOUS
 62
   150
 10
-559.132436867802
 20
-2.31349172654627
 30
0.0
 11
-559.132302399719
 21
-2.31251817764314
 31
0.0
  0
LINE
  5
   6EB
  8
0
  6
CONTINUOUS
 62
     7
 10
-548.087239471079
 20
-6.42574850229404
 30
0.0
 11
-548.087240367533
 21
-4.31074492184304
 31
0.0
  0
LINE
  5
   6EC
  8
0
  6
CONTINUOUS
 62
     7
 10
-491.452323881388
 20
48.5642657014882
 30
0.0
 11
-503.319823851287
 21
48.5642657014882
 31
0.0
  0
LINE
  5
   6ED
  8
0
  6
CONTINUOUS
 62
     7
 10
-505.199827432334
 20
48.5642657014882
 30
0.0
 11
-524.411046904177
 21
48.5642657014882
 31
0.0
  0
LINE
  5
   6EE
  8
0
  6
CONTINUOUS
 62
     7
 10
-526.291046899408
 20
48.5642657014882
 30
0.0
 11
-548.087295051217
 21
48.5642657014882
 31
0.0
  0
LINE
  5
   6EF
  8
0
  6
CONTINUOUS
 62
     7
 10
-548.439793357204
 20
48.2117732600231
 30
0.0
 11
-548.087293350354
 21
48.5642732668725
 31
0.0
  0
LINE
  5
   6F0
  8
0
  6
CONTINUOUS
 62
     7
 10
-548.087295051217
 20
48.5642657014882
 30
0.0
 11
-548.087295051217
 21
51.2667656946337
 31
0.0
  0
CIRCLE
  5
   6F1
  8
0
  6
CONTINUOUS
 62
   130
 10
-545.737334009802
 20
21.3042363104465
 30
0.0
 40
4.69999598547433
  0
CIRCLE
  5
   6F2
  8
0
  6
CONTINUOUS
 62
   130
 10
-545.737329923648
 20
21.3042334952628
 30
0.0
 40
1.29250189602503
  0
CIRCLE
  5
   6F3
  8
0
  6
CONTINUOUS
 62
   130
 10
-478.762306300945
 20
46.6842286043749
 30
0.0
 40
2.82003173989634
  0
CIRCLE
  5
   6F4
  8
0
  6
CONTINUOUS
 62
   130
 10
-478.762324623455
 20
46.6842495403863
 30
0.0
 40
1.52750446052815
  0
CIRCLE
  5
   6F5
  8
0
  6
CONTINUOUS
 62
   130
 10
-478.762325726922
 20
-0.315747907877022
 30
0.0
 40
2.82000110723514
  0
CIRCLE
  5
   6F6
  8
0
  6
CONTINUOUS
 62
   130
 10
-478.762321166351
 20
-0.315743902382636
 30
0.0
 40
1.52750394798675
  0
LINE
  5
   6F7
  8
0
  6
DASHDOT
 62
     7
 10
-478.762306300945
 20
43.3941968656706
 30
0.0
 11
-478.762306300945
 21
49.9742603430791
 31
0.0
  0
LINE
  5
   6F8
  8
0
  6
DASHDOT
 62
     7
 10
-475.472274562241
 20
46.6842286043749
 30
0.0
 11
-482.05233803965
 21
46.6842286043749
 31
0.0
  0
LINE
  5
   6F9
  8
0
  6
DASHDOT
 62
     7
 10
-478.762325726922
 20
-3.60574901392007
 30
0.0
 11
-478.762325726922
 21
2.97425319816603
 31
0.0
  0
LINE
  5
   6FA
  8
0
  6
DASHDOT
 62
     7
 10
-475.472324620879
 20
-0.315747907877022
 30
0.0
 11
-482.052326832965
 21
-0.315747907877022
 31
0.0
  0
LINE
  5
   6FB
  8
0
  6
CONTINUOUS
 62
     7
 10
-491.217323881984
 20
57.4942585072076
 30
0.0
 11
-491.217323881984
 21
60.7842441556013
 31
0.0
  0
LINE
  5
   6FC
  8
0
  6
CONTINUOUS
 62
     7
 10
-556.54730220139
 20
-47.6535954256485
 30
0.0
 11
-556.54730220139
 21
-12.6533004808269
 31
0.0
  0
LINE
  5
   6FD
  8
0
  6
CONTINUOUS
 62
     7
 10
-557.487302199006
 20
-47.8120223915388
 30
0.0
 11
-557.487302199006
 21
-2.54823596177937
 31
0.0
  0
LINE
  5
   6FE
  8
0
  6
CONTINUOUS
 62
     7
 10
-559.929608018185
 20
-48.223646967805
 30
0.0
 11
-553.834175047917
 21
-47.1963268042766
 31
0.0
  0
LINE
  5
   6FF
  8
0
  6
CONTINUOUS
 62
     7
 10
-554.382079135132
 20
77.5203410480624
 30
0.0
 11
-558.628335811049
 21
78.6846372333945
 31
0.0
  0
LINE
  5
   700
  8
0
  6
CONTINUOUS
 62
     7
 10
-557.487302199006
 20
46.8017872208511
 30
0.0
 11
-557.487302199006
 21
78.3717731784794
 31
0.0
  0
LINE
  5
   701
  8
0
  6
DASHDOT
 62
     7
 10
-545.737334009802
 20
16.1342403261643
 30
0.0
 11
-545.737334009802
 21
26.4742322947288
 31
0.0
  0
LINE
  5
   702
  8
0
  6
DASHDOT
 62
     7
 10
-540.56733802552
 20
21.3042363104465
 30
0.0
 11
-550.907329994084
 21
21.3042363104465
 31
0.0
  0
LINE
  5
   703
  8
0
  6
CONTINUOUS
 62
     7
 10
-552.787300418019
 20
6.26429449529996
 30
0.0
 11
-552.787300418019
 21
12.3741976627864
 31
0.0
  0
LINE
  5
   704
  8
0
  6
CONTINUOUS
 62
     1
 10
-557.487300406098
 20
-15.7083013695322
 30
0.0
 11
-557.487300406098
 21
59.9616984385409
 31
0.0
  0
LINE
  5
   705
  8
0
  6
CONTINUOUS
 62
     1
 10
-557.487300406098
 20
-15.7083013695322
 30
0.0
 11
-559.132300401926
 21
-15.7083013695322
 31
0.0
  0
LINE
  5
   706
  8
0
  6
CONTINUOUS
 62
     1
 10
-559.132300401926
 20
-15.7083013695322
 30
0.0
 11
-559.132300401926
 21
5.32419857712165
 31
0.0
  0
LINE
  5
   707
  8
0
  6
CONTINUOUS
 62
     1
 10
-559.132300401926
 20
13.3141976604022
 30
0.0
 11
-559.132300401926
 21
59.9617011279024
 31
0.0
  0
LINE
  5
   708
  8
0
  6
CONTINUOUS
 62
     1
 10
-557.487300406098
 20
59.9617011279024
 30
0.0
 11
-559.132300401926
 21
59.9617011279024
 31
0.0
  0
LINE
  5
   709
  8
0
  6
CONTINUOUS
 62
     1
 10
-556.547300408483
 20
23.5367012202896
 30
0.0
 11
-556.547300408483
 21
54.0867011428036
 31
0.0
  0
LINE
  5
   70A
  8
0
  6
CONTINUOUS
 62
     1
 10
-556.547300408483
 20
12.3742012486018
 30
0.0
 11
-556.547300408483
 21
20.7167048132576
 31
0.0
  0
LINE
  5
   70B
  8
0
  6
CONTINUOUS
 62
     7
 10
-554.432300413847
 20
-12.3819456917813
 30
0.0
 11
-554.432300413847
 21
-10.1046552770251
 31
0.0
  0
LINE
  5
   70C
  8
0
  6
CONTINUOUS
 62
     7
 10
-554.432300413847
 20
54.3580541389415
 30
0.0
 11
-554.432300413847
 21
56.6353481395131
 31
0.0
  0
LINE
  5
   70D
  8
0
  6
CONTINUOUS
 62
     7
 10
-554.432300413847
 20
20.9880542235801
 30
0.0
 11
-554.432300413847
 21
23.2653446383363
 31
0.0
  0
LINE
  5
   70E
  8
0
  6
CONTINUOUS
 62
     1
 10
-558.662300403118
 20
5.32419768066779
 30
0.0
 11
-559.132300401926
 21
5.32419768066779
 31
0.0
  0
LINE
  5
   70F
  8
0
  6
CONTINUOUS
 62
     1
 10
-558.662300403118
 20
13.3141976604022
 30
0.0
 11
-559.132300401926
 21
13.3141976604022
 31
0.0
  0
LINE
  5
   710
  8
0
  6
CONTINUOUS
 62
     3
 10
-559.132300401926
 20
5.7941976794757
 30
0.0
 11
-559.132300401926
 21
12.8441976615943
 31
0.0
  0
LINE
  5
   711
  8
0
  6
CONTINUOUS
 62
     7
 10
-558.662300403118
 20
5.7941976794757
 30
0.0
 11
-559.132300401926
 21
5.7941976794757
 31
0.0
  0
LINE
  5
   712
  8
0
  6
CONTINUOUS
 62
     7
 10
-558.662300403118
 20
3.91419768424407
 30
0.0
 11
-558.662300403118
 21
5.7941976794757
 31
0.0
  0
LINE
  5
   713
  8
0
  6
CONTINUOUS
 62
     7
 10
-558.19230040431
 20
3.91419768424407
 30
0.0
 11
-558.662300403118
 21
3.91419768424407
 31
0.0
  0
LINE
  5
   714
  8
0
  6
CONTINUOUS
 62
     7
 10
-558.19230040431
 20
3.91419768424407
 30
0.0
 11
-558.19230040431
 21
14.7241976568259
 31
0.0
  0
LINE
  5
   715
  8
0
  6
CONTINUOUS
 62
     7
 10
-558.19230040431
 20
14.7241976568259
 30
0.0
 11
-558.662300403118
 21
14.7241976568259
 31
0.0
  0
LINE
  5
   716
  8
0
  6
CONTINUOUS
 62
     7
 10
-558.662300403118
 20
12.8441976615943
 30
0.0
 11
-558.662300403118
 21
14.7241976568259
 31
0.0
  0
LINE
  5
   717
  8
0
  6
CONTINUOUS
 62
     7
 10
-558.662300403118
 20
12.8441976615943
 30
0.0
 11
-559.132300401926
 21
12.8441976615943
 31
0.0
  0
LINE
  5
   718
  8
0
  6
CONTINUOUS
 62
     7
 10
-552.787300418019
 20
6.26429449529996
 30
0.0
 11
-557.487300406098
 21
6.26429449529996
 31
0.0
  0
LINE
  5
   719
  8
0
  6
CONTINUOUS
 62
     7
 10
-552.787300418019
 20
12.3741976627864
 30
0.0
 11
-557.487300406098
 21
12.3741976627864
 31
0.0
  0
LINE
  5
   71A
  8
0
  6
CONTINUOUS
 62
     1
 10
-559.132300401926
 20
5.32420126648321
 30
0.0
 11
-559.132300401926
 21
5.7941976794757
 31
0.0
  0
LINE
  5
   71B
  8
0
  6
CONTINUOUS
 62
     1
 10
-559.132300401926
 20
12.8441976615943
 30
0.0
 11
-559.132300401926
 21
13.3142012462176
 31
0.0
  0
LINE
  5
   71C
  8
0
  6
CONTINUOUS
 62
     7
 10
-554.902300412655
 20
-12.6533004808269
 30
0.0
 11
-557.487300406098
 21
-12.6533004808269
 31
0.0
  0
LINE
  5
   71D
  8
0
  6
CONTINUOUS
 62
     7
 10
-554.902300412655
 20
-9.8333004879795
 30
0.0
 11
-557.487300406098
 21
-9.8333004879795
 31
0.0
  0
LINE
  5
   71E
  8
0
  6
CONTINUOUS
 62
     7
 10
-554.902300412655
 20
-9.94062932224097
 30
0.0
 11
-554.902300412655
 21
-9.8333004879795
 31
0.0
  0
LINE
  5
   71F
  8
0
  6
CONTINUOUS
 62
     7
 10
-554.902300412655
 20
-10.2462788499691
 30
0.0
 11
-554.902300412655
 21
-9.94062932224097
 31
0.0
  0
LINE
  5
   720
  8
0
  6
CONTINUOUS
 62
     7
 10
-554.902300412655
 20
-10.703715944451
 30
0.0
 11
-554.902300412655
 21
-10.2462788499691
 31
0.0
  0
LINE
  5
   721
  8
0
  6
CONTINUOUS
 62
     7
 10
-554.902300412655
 20
-11.2433004844032
 30
0.0
 11
-554.902300412655
 21
-10.703715944451
 31
0.0
  0
LINE
  5
   722
  8
0
  6
CONTINUOUS
 62
     7
 10
-554.902300412655
 20
-11.7828832314477
 30
0.0
 11
-554.902300412655
 21
-11.2433004844032
 31
0.0
  0
LINE
  5
   723
  8
0
  6
CONTINUOUS
 62
     7
 10
-554.902300412655
 20
-12.2403203259296
 30
0.0
 11
-554.902300412655
 21
-11.7828832314477
 31
0.0
  0
LINE
  5
   724
  8
0
  6
CONTINUOUS
 62
     7
 10
-554.902300412655
 20
-12.5459698536578
 30
0.0
 11
-554.902300412655
 21
-12.2403203259296
 31
0.0
  0
LINE
  5
   725
  8
0
  6
CONTINUOUS
 62
     7
 10
-554.902300412655
 20
-12.6533004808269
 30
0.0
 11
-554.902300412655
 21
-12.5459698536578
 31
0.0
  0
LINE
  5
   726
  8
0
  6
CONTINUOUS
 62
     7
 10
-554.902299849309
 20
-12.6533008690006
 30
0.0
 11
-554.432299835024
 21
-12.3819460949677
 31
0.0
  0
LINE
  5
   727
  8
0
  6
CONTINUOUS
 62
     7
 10
-554.432299401923
 20
-10.1046561240947
 30
0.0
 11
-554.902299416208
 21
-9.83330135006178
 31
0.0
  0
LINE
  5
   728
  8
0
  6
CONTINUOUS
 62
     7
 10
-554.902300412655
 20
54.0867011428036
 30
0.0
 11
-557.487300406098
 21
54.0867011428036
 31
0.0
  0
LINE
  5
   729
  8
0
  6
CONTINUOUS
 62
     7
 10
-554.902300412655
 20
56.906701135651
 30
0.0
 11
-557.487300406098
 21
56.906701135651
 31
0.0
  0
LINE
  5
   72A
  8
0
  6
CONTINUOUS
 62
     7
 10
-554.902300412655
 20
56.7993705084819
 30
0.0
 11
-554.902300412655
 21
56.906701135651
 31
0.0
  0
LINE
  5
   72B
  8
0
  6
CONTINUOUS
 62
     7
 10
-554.902300412655
 20
56.4937227736614
 30
0.0
 11
-554.902300412655
 21
56.7993705084819
 31
0.0
  0
LINE
  5
   72C
  8
0
  6
CONTINUOUS
 62
     7
 10
-554.902300412655
 20
56.0362803004564
 30
0.0
 11
-554.902300412655
 21
56.4937227736614
 31
0.0
  0
LINE
  5
   72D
  8
0
  6
CONTINUOUS
 62
     7
 10
-554.902300412655
 20
55.4967011392273
 30
0.0
 11
-554.902300412655
 21
56.0362803004564
 31
0.0
  0
LINE
  5
   72E
  8
0
  6
CONTINUOUS
 62
     7
 10
-554.902300412655
 20
54.9571148063674
 30
0.0
 11
-554.902300412655
 21
55.4967011392273
 31
0.0
  0
LINE
  5
   72F
  8
0
  6
CONTINUOUS
 62
     7
 10
-554.902300412655
 20
54.4996795047932
 30
0.0
 11
-554.902300412655
 21
54.9571148063674
 31
0.0
  0
LINE
  5
   730
  8
0
  6
CONTINUOUS
 62
     7
 10
-554.902300412655
 20
54.1940317699728
 30
0.0
 11
-554.902300412655
 21
54.4996795047932
 31
0.0
  0
LINE
  5
   731
  8
0
  6
CONTINUOUS
 62
     7
 10
-554.902300412655
 20
54.0867011428036
 30
0.0
 11
-554.902300412655
 21
54.1940317699728
 31
0.0
  0
LINE
  5
   732
  8
0
  6
CONTINUOUS
 62
     7
 10
-554.902300497919
 20
54.0867001345908
 30
0.0
 11
-554.432300483636
 21
54.3580531341309
 31
0.0
  0
LINE
  5
   733
  8
0
  6
CONTINUOUS
 62
     7
 10
-554.432299723021
 20
56.6353469486142
 30
0.0
 11
-554.902299737304
 21
56.9066999481543
 31
0.0
  0
LINE
  5
   734
  8
0
  6
CONTINUOUS
 62
     7
 10
-554.902300412655
 20
20.7167012274422
 30
0.0
 11
-557.487300406098
 21
20.7167012274422
 31
0.0
  0
LINE
  5
   735
  8
0
  6
CONTINUOUS
 62
     7
 10
-554.902300412655
 20
23.5367012202896
 30
0.0
 11
-557.487300406098
 21
23.5367012202896
 31
0.0
  0
LINE
  5
   736
  8
0
  6
CONTINUOUS
 62
     7
 10
-554.902300412655
 20
23.4293705931204
 30
0.0
 11
-554.902300412655
 21
23.5367012202896
 31
0.0
  0
LINE
  5
   737
  8
0
  6
CONTINUOUS
 62
     7
 10
-554.902300412655
 20
23.1237192724846
 30
0.0
 11
-554.902300412655
 21
23.4293705931204
 31
0.0
  0
LINE
  5
   738
  8
0
  6
CONTINUOUS
 62
     7
 10
-554.902300412655
 20
22.6662839709104
 30
0.0
 11
-554.902300412655
 21
23.1237192724846
 31
0.0
  0
LINE
  5
   739
  8
0
  6
CONTINUOUS
 62
     7
 10
-554.902300412655
 20
22.1267012238659
 30
0.0
 11
-554.902300412655
 21
22.6662839709104
 31
0.0
  0
LINE
  5
   73A
  8
0
  6
CONTINUOUS
 62
     7
 10
-554.902300412655
 20
21.587114891006
 30
0.0
 11
-554.902300412655
 21
22.1267012238659
 31
0.0
  0
LINE
  5
   73B
  8
0
  6
CONTINUOUS
 62
     7
 10
-554.902300412655
 20
21.1296795894318
 30
0.0
 11
-554.902300412655
 21
21.587114891006
 31
0.0
  0
LINE
  5
   73C
  8
0
  6
CONTINUOUS
 62
     7
 10
-554.902300412655
 20
20.8240282687959
 30
0.0
 11
-554.902300412655
 21
21.1296795894318
 31
0.0
  0
LINE
  5
   73D
  8
0
  6
CONTINUOUS
 62
     7
 10
-554.902300412655
 20
20.7167012274422
 30
0.0
 11
-554.902300412655
 21
20.8240282687959
 31
0.0
  0
LINE
  5
   73E
  8
0
  6
CONTINUOUS
 62
     7
 10
-554.902300348727
 20
20.7167006499108
 30
0.0
 11
-554.432300334443
 21
20.9880536494509
 31
0.0
  0
LINE
  5
   73F
  8
0
  6
CONTINUOUS
 62
     7
 10
-554.432299662036
 20
23.265343580278
 30
0.0
 11
-554.902299676319
 21
23.5367001611562
 31
0.0
  0
LINE
  5
   740
  8
0
  6
CONTINUOUS
 62
     7
 10
-556.54730220139
 20
-9.59830048857555
 30
0.0
 11
-557.487300406098
 21
-9.59830048857555
 31
0.0
  0
LINE
  5
   741
  8
0
  6
CONTINUOUS
 62
     7
 10
-556.54730220139
 20
-12.8883004802309
 30
0.0
 11
-557.487300406098
 21
-12.8883004802309
 31
0.0
  0
LINE
  5
   742
  8
0
  6
CONTINUOUS
 62
     7
 10
-556.54730220139
 20
-9.8333004879795
 30
0.0
 11
-556.54730220139
 21
6.26420484991445
 31
0.0
  0
LINE
  5
   743
  8
0
  6
CONTINUOUS
 62
     7
 10
-556.547300408483
 20
5.79429449649206
 30
0.0
 11
-557.487300406098
 21
5.79429449649206
 31
0.0
  0
LINE
  5
   744
  8
0
  6
CONTINUOUS
 62
     7
 10
-556.547300408483
 20
12.8441976615943
 30
0.0
 11
-557.487300406098
 21
12.8441976615943
 31
0.0
  0
LINE
  5
   745
  8
0
  6
CONTINUOUS
 62
     7
 10
-556.547300408483
 20
23.7717012196936
 30
0.0
 11
-557.487300406098
 21
23.7717012196936
 31
0.0
  0
LINE
  5
   746
  8
0
  6
CONTINUOUS
 62
     7
 10
-556.547300408483
 20
20.4817012280382
 30
0.0
 11
-557.487300406098
 21
20.4817012280382
 31
0.0
  0
LINE
  5
   747
  8
0
  6
CONTINUOUS
 62
     7
 10
-556.54730220139
 20
56.906701135651
 30
0.0
 11
-556.54730220139
 21
78.1140312436493
 31
0.0
  0
LINE
  5
   748
  8
0
  6
CONTINUOUS
 62
     7
 10
-556.54730220139
 20
57.141701135055
 30
0.0
 11
-557.487300406098
 21
57.141701135055
 31
0.0
  0
LINE
  5
   749
  8
0
  6
CONTINUOUS
 62
     7
 10
-556.54730220139
 20
53.8517011433996
 30
0.0
 11
-557.487300406098
 21
53.8517011433996
 31
0.0
  0
INSERT
  5
   74A
  8
0
  6
CONTINUOUS
 62
     7
  2
*HATCH109
 10
-538.922302246094
 20
-29.5671310424805
 30
0.0
 41
0.469999998807907
 42
0.469999998807907
 50
89.9999999480344
 43
0.469999998807907
  0
INSERT
  5
   74B
  8
0
  6
CONTINUOUS
 62
     7
  2
*HATCH110
 10
-538.922302246094
 20
-29.5671310424805
 30
0.0
 41
0.469999998807907
 42
0.469999998807907
 50
89.9999999480344
 43
0.469999998807907
  0
INSERT
  5
   74C
  8
0
  6
CONTINUOUS
 62
     7
  2
*HATCH111
 10
-538.922302246094
 20
-29.5671310424805
 30
0.0
 41
0.469999998807907
 42
0.469999998807907
 50
89.9999999480344
 43
0.469999998807907
  0
INSERT
  5
   74D
  8
0
  6
CONTINUOUS
 62
     7
  2
*HATCH112
 10
-538.922302246094
 20
-29.5671310424805
 30
0.0
 41
0.469999998807907
 42
0.469999998807907
 50
89.9999999480344
 43
0.469999998807907
  0
INSERT
  5
   74E
  8
0
  6
CONTINUOUS
 62
     7
  2
*HATCH113
 10
-538.922302246094
 20
-29.5671310424805
 30
0.0
 41
0.469999998807907
 42
0.469999998807907
 50
89.9999999480344
 43
0.469999998807907
  0
LINE
  5
   74F
  8
0
  6
DASHDOT
 62
     7
 10
-460.086726693055
 20
22.126787283436
 30
0.0
 11
-584.729491881247
 21
22.126787283436
 31
0.0
  0
LINE
  5
   750
  8
0
  6
CONTINUOUS
 62
     7
 10
-491.452323881388
 20
82.1692656162536
 30
0.0
 11
-537.747316592336
 21
82.1692656162536
 31
0.0
  0
LINE
  5
   751
  8
0
  6
CONTINUOUS
 62
     7
 10
-538.217316591144
 20
69.9492817116845
 30
0.0
 11
-538.217316591144
 21
81.6992656174457
 31
0.0
  0
LINE
  5
   752
  8
0
  6
CONTINUOUS
 62
     7
 10
-538.217316591144
 20
-39.0907036684883
 30
0.0
 11
-538.217316591144
 21
-27.5757108693256
 31
0.0
  0
LINE
  5
   753
  8
0
  6
CONTINUOUS
 62
     7
 10
-491.452323433161
 20
-39.5607036672962
 30
0.0
 11
-537.747316592336
 21
-39.5607036672962
 31
0.0
  0
ARC
  5
   754
  8
0
  6
CONTINUOUS
 62
     7
 10
-537.747316592336
 20
-39.0907036684883
 30
0.0
 40
0.469999998807907
 50
179.999999948034
 51
269.999999948034
  0
LINE
  5
   755
  8
0
  6
CONTINUOUS
 62
     7
 10
-537.747316592336
 20
-27.5757108693256
 30
0.0
 11
-537.747316592336
 21
-27.1057108705177
 31
0.0
  0
LINE
  5
   756
  8
0
  6
CONTINUOUS
 62
     7
 10
-537.747316592336
 20
-27.5757108693256
 30
0.0
 11
-538.217316591144
 21
-27.5757108693256
 31
0.0
  0
ARC
  5
   757
  8
0
  6
CONTINUOUS
 62
     7
 10
-537.747316592336
 20
81.6992656174457
 30
0.0
 40
0.469999998807907
 50
89.9999999480344
 51
179.999999948034
  0
LINE
  5
   758
  8
0
  6
CONTINUOUS
 62
     7
 10
-537.747316592336
 20
69.9492817116845
 30
0.0
 11
-538.217316591144
 21
69.9492817116845
 31
0.0
  0
LINE
  5
   759
  8
0
  6
CONTINUOUS
 62
     7
 10
-537.747316592336
 20
69.4792817128766
 30
0.0
 11
-537.747316592336
 21
69.9492817116845
 31
0.0
  0
LINE
  5
   75A
  8
0
  6
CONTINUOUS
 62
     7
 10
-552.082303109169
 20
47.506787219063
 30
0.0
 11
-553.25730579555
 21
47.506787219063
 31
0.0
  0
LINE
  5
   75B
  8
0
  6
CONTINUOUS
 62
     7
 10
-552.082303109169
 20
47.506787219063
 30
0.0
 11
-552.082303109169
 21
52.441787206546
 31
0.0
  0
LINE
  5
   75C
  8
0
  6
CONTINUOUS
 62
     7
 10
-553.727305794358
 20
54.0867872023737
 30
0.0
 11
-554.902305791378
 21
54.0867872023737
 31
0.0
  0
LINE
  5
   75D
  8
0
  6
CONTINUOUS
 62
     7
 10
-555.372305790186
 20
56.906701135651
 30
0.0
 11
-555.372305790186
 21
58.3167871916448
 31
0.0
  0
LINE
  5
   75E
  8
0
  6
CONTINUOUS
 62
     7
 10
-555.372305790186
 20
58.3167871916448
 30
0.0
 11
-556.54730220139
 21
58.3167871916448
 31
0.0
  0
LINE
  5
   75F
  8
0
  6
CONTINUOUS
 62
     7
 10
-553.727305794358
 20
52.9117872053539
 30
0.0
 11
-554.902305791378
 21
52.9117872053539
 31
0.0
  0
LINE
  5
   760
  8
0
  6
CONTINUOUS
 62
     7
 10
-553.25730579555
 20
47.506787219063
 30
0.0
 11
-553.25730579555
 21
52.441787206546
 31
0.0
  0
ARC
  5
   761
  8
0
  6
CONTINUOUS
 62
     7
 10
-553.727312681507
 20
52.4417812439829
 30
0.0
 40
1.64500866879195
 50
360.000319242658
 51
449.999813057862
  0
ARC
  5
   762
  8
0
  6
CONTINUOUS
 62
     7
 10
-553.727284997728
 20
52.4418064270937
 30
0.0
 40
0.469976414792414
 50
359.998830132094
 51
450.002235749312
  0
ARC
  5
   763
  8
0
  6
CONTINUOUS
 62
     7
 10
-554.902314886997
 20
54.5567721391225
 30
0.0
 40
1.6449863921215
 50
196.604271282219
 51
270.000346548696
  0
LINE
  5
   764
  8
0
  6
CONTINUOUS
 62
     7
 10
-552.082303109169
 20
51.7367872083341
 30
0.0
 11
-553.25730579555
 21
51.7367872083341
 31
0.0
  0
INSERT
  5
   765
  8
0
  6
CONTINUOUS
 62
     7
  2
*HATCH114
 10
-538.922302246094
 20
-29.5671310424805
 30
0.0
 41
0.469999998807907
 42
0.469999998807907
 50
89.9999999480344
 43
0.469999998807907
  0
LINE
  5
   766
  8
0
  6
CONTINUOUS
 62
     7
 10
-554.902300412655
 20
46.8017872208511
 30
0.0
 11
-554.902300412655
 21
50.0917872125065
 31
0.0
  0
LINE
  5
   767
  8
0
  6
CONTINUOUS
 62
     7
 10
-553.962300415039
 20
46.8017872208511
 30
0.0
 11
-553.962300415039
 21
50.0917872125065
 31
0.0
  0
LINE
  5
   768
  8
0
  6
CONTINUOUS
 62
     7
 10
-553.962300415039
 20
50.0917872125065
 30
0.0
 11
-554.902300412655
 21
50.0917872125065
 31
0.0
  0
INSERT
  5
   769
  8
255
  6
CONTINUOUS
 62
     7
  2
TS4
 10
-538.922295074463
 20
-29.5671453857421
 30
0.0
 41
0.469999998807907
 42
-0.469999998807907
 50
180.000000207862
 43
0.469999998807907
  0
LINE
  5
   76A
  8
0
  6
CONTINUOUS
 62
     7
 10
-457.869264277828
 20
106.690582667224
 30
0.0
 11
-470.397362368272
 21
106.939485278292
 31
0.0
  0
INSERT
  5
   76B
  8
255
  6
CONTINUOUS
 62
     7
  2
TS4
 10
-538.922295074463
 20
72.1757073346995
 30
0.0
 41
0.469999998807907
 42
0.469999998807907
 50
179.999999896069
 43
0.469999998807907
  0
LINE
  5
   76C
  8
0
  6
CONTINUOUS
 62
     7
 10
-461.397294184032
 20
-65.1628356292688
 30
0.0
 11
-469.847536482448
 21
-64.3706254137923
 31
0.0
  0
LINE
  5
   76D
  8
0
  6
DOT
 62
     7
 10
-572.057300369144
 20
-2.54823596177937
 30
0.0
 11
-572.057300369144
 21
46.8017872208511
 31
0.0
  0
LINE
  5
   76E
  8
0
  6
DOT
 62
     7
 10
-563.088744578409
 20
46.8017872208511
 30
0.0
 11
-572.057300369144
 21
46.8017872208511
 31
0.0
  0
LINE
  5
   76F
  8
0
  6
DOT
 62
     7
 10
-563.682804308291
 20
-2.54823596177937
 30
0.0
 11
-572.057300369144
 21
-2.54823596177937
 31
0.0
  0
LINE
  5
   770
  8
0
  6
CONTINUOUS
 62
     7
 10
-464.333302435279
 20
51.1962656948125
 30
0.0
 11
-464.333302435279
 21
54.8622656855142
 31
0.0
  0
LINE
  5
   771
  8
0
  6
CONTINUOUS
 62
     7
 10
-462.829302439094
 20
52.0892656925475
 30
0.0
 11
-462.829302439094
 21
53.9692656877792
 31
0.0
  0
LINE
  5
   772
  8
0
  6
CONTINUOUS
 62
     7
 10
-464.333302435279
 20
54.8622656855142
 30
0.0
 11
-465.837302431464
 21
54.8622656855142
 31
0.0
  0
LINE
  5
   773
  8
0
  6
CONTINUOUS
 62
     7
 10
-464.333302435279
 20
51.1962656948125
 30
0.0
 11
-465.837302431464
 21
51.1962656948125
 31
0.0
  0
LINE
  5
   774
  8
0
  6
CONTINUOUS
 62
     7
 10
-462.829302439094
 20
53.9692656877792
 30
0.0
 11
-465.837302431464
 21
53.9692656877792
 31
0.0
  0
LINE
  5
   775
  8
0
  6
CONTINUOUS
 62
     7
 10
-462.829302439094
 20
52.0892656925475
 30
0.0
 11
-465.837302431464
 21
52.0892656925475
 31
0.0
  0
LINE
  5
   776
  8
0
  6
CONTINUOUS
 62
     7
 10
-464.333302435279
 20
-8.58773415355326
 30
0.0
 11
-465.837302431464
 21
-8.58773415355326
 31
0.0
  0
LINE
  5
   777
  8
0
  6
CONTINUOUS
 62
     7
 10
-462.829302439094
 20
-9.48073415128829
 30
0.0
 11
-465.837302431464
 21
-9.48073415128829
 31
0.0
  0
LINE
  5
   778
  8
0
  6
CONTINUOUS
 62
     7
 10
-462.829302439094
 20
-11.3607341465199
 30
0.0
 11
-465.837302431464
 21
-11.3607341465199
 31
0.0
  0
LINE
  5
   779
  8
0
  6
CONTINUOUS
 62
     7
 10
-464.333302435279
 20
-12.2537341442549
 30
0.0
 11
-465.837302431464
 21
-12.2537341442549
 31
0.0
  0
LINE
  5
   77A
  8
0
  6
CONTINUOUS
 62
     7
 10
-464.333302435279
 20
-12.2537341442549
 30
0.0
 11
-464.333302435279
 21
-8.58773415355326
 31
0.0
  0
LINE
  5
   77B
  8
0
  6
CONTINUOUS
 62
     7
 10
-462.829302439094
 20
-11.3607341465199
 30
0.0
 11
-462.829302439094
 21
-9.48073415128829
 31
0.0
  0
CIRCLE
  5
   77C
  8
0
  6
CONTINUOUS
 62
     7
 10
-464.688646886419
 20
-10.4616474044444
 30
0.0
 40
0.187999999523163
  0
INSERT
  5
   77D
  8
0
  6
CONTINUOUS
 62
     7
  2
*UDIM456
 10
0.0
 20
0.0
 30
0.0
  0
TEXT
  5
   77E
  8
0
  6
CONTINUOUS
 62
     7
 10
-571.569259158477
 20
112.346452311564
 30
0.0
 40
2.99999994291904
  1
ISOLATING DISTANCE
 50
359.999999948034
 41
0.916666679355833
 72
     1
 11
-547.094259286163
 21
113.846452260949
 31
0.0
 73
     2
  0
INSERT
  5
   77F
  8
0
  6
CONTINUOUS
 62
     7
  2
*UDIM457
 10
0.0
 20
0.0
 30
0.0
  0
INSERT
  5
   780
  8
0
  6
CONTINUOUS
 62
     7
  2
*UDIM458
 10
0.0
 20
0.0
 30
0.0
  0
INSERT
  5
   781
  8
0
  6
CONTINUOUS
 62
     7
  2
*UDIM459
 10
0.0
 20
0.0
 30
0.0
  0
INSERT
  5
   782
  8
0
  6
CONTINUOUS
 62
     7
  2
*UDIM460
 10
0.0
 20
0.0
 30
0.0
  0
INSERT
  5
   783
  8
0
  6
CONTINUOUS
 62
     7
  2
*UDIM461
 10
0.0
 20
0.0
 30
0.0
  0
INSERT
  5
   784
  8
0
  6
CONTINUOUS
 62
     7
  2
*UDIM462
 10
0.0
 20
0.0
 30
0.0
  0
INSERT
  5
   785
  8
0
  6
CONTINUOUS
 62
     7
  2
*UDIM463
 10
0.0
 20
0.0
 30
0.0
  0
TEXT
  5
   786
  8
0
  6
CONTINUOUS
 62
     7
 10
-575.979918891552
 20
10.7424811335603
 30
0.0
 40
2.99999994291904
  1
=      =
 50
89.9999999480344
 41
0.916666599088244
 72
     2
 11
-575.979918872125
 21
32.1924791363319
 31
0.0
  0
INSERT
  5
   787
  8
0
  6
CONTINUOUS
 62
     7
  2
*UDIM464
 10
0.0
 20
0.0
 30
0.0
  0
INSERT
  5
   788
  8
0
  6
CONTINUOUS
 62
     7
  2
*UDIM465
 10
0.0
 20
0.0
 30
0.0
  0
INSERT
  5
   789
  8
0
  6
CONTINUOUS
 62
     7
  2
*UDIM466
 10
0.0
 20
0.0
 30
0.0
  0
INSERT
  5
   78A
  8
0
  6
CONTINUOUS
 62
     7
  2
*UDIM467
 10
0.0
 20
0.0
 30
0.0
  0
INSERT
  5
   78B
  8
0
  6
CONTINUOUS
 62
     7
  2
*UDIM468
 10
0.0
 20
0.0
 30
0.0
  0
TEXT
  5
   78C
  8
0
  6
CONTINUOUS
 62
     7
 10
-590.108431636568
 20
20.6795450811699
 30
0.0
 40
2.99999994291904
  1
X
 50
359.999999948034
 41
0.916666599088244
 72
     2
 11
-587.90843184838
 21
20.6795450791856
 31
0.0
  0
INSERT
  5
   78D
  8
0
  6
CONTINUOUS
 62
     7
  2
*UDIM469
 10
0.0
 20
0.0
 30
0.0
  0
ENDSEC
  0
EOF
