  0
SECTION
  2
HEADER
  9
$ACADVER
  1
AC1009
  9
$DWGCODEPAGE
  3
iso8859-1
  9
$INSBASE
 10
0.0
 20
0.0
 30
0.0
  9
$EXTMIN
 10
1.0E20
 20
1.0E20
  9
$EXTMAX
 10
-1.0E20
 20
-1.0E20
  9
$LIMMIN
 10
0.0
 20
0.0
  9
$LIMMAX
 10
12.0
 20
9.0
  9
$ORTHOMODE
 70
     0
  9
$REGENMODE
 70
     1
  9
$FILLMODE
 70
     1
  9
$QTEXTMODE
 70
     0
  9
$MIRRTEXT
 70
     1
  9
$DRAGMODE
 70
     2
  9
$LTSCALE
 40
15.0
  9
$OSMODE
 70
     0
  9
$ATTMODE
 70
     1
  9
$TEXTSIZE
 40
0.2
  9
$TRACEWID
 40
0.05
  9
$TEXTSTYLE
  7
STANDARD
  9
$CLAYER
  8
0
  9
$CELTYPE
  6
DASHED
  9
$CECOLOR
 62
   256
  9
$DIMSCALE
 40
1.0
  9
$DIMASZ
 40
0.18
  9
$DIMEXO
 40
0.0625
  9
$DIMDLI
 40
0.38
  9
$DIMRND
 40
0.0
  9
$DIMDLE
 40
0.0
  9
$DIMEXE
 40
0.18
  9
$DIMTP
 40
0.0
  9
$DIMTM
 40
0.0
  9
$DIMTXT
 40
0.18
  9
$DIMCEN
 40
0.09
  9
$DIMTSZ
 40
0.0
  9
$DIMTOL
 70
     0
  9
$DIMLIM
 70
     0
  9
$DIMTIH
 70
     1
  9
$DIMTOH
 70
     1
  9
$DIMSE1
 70
     0
  9
$DIMSE2
 70
     0
  9
$DIMTAD
 70
     0
  9
$DIMZIN
 70
     0
  9
$DIMBLK
  1

  9
$DIMASO
 70
     1
  9
$DIMSHO
 70
     1
  9
$DIMPOST
  1

  9
$DIMAPOST
  1

  9
$DIMALT
 70
     0
  9
$DIMALTD
 70
     2
  9
$DIMALTF
 40
25.4
  9
$DIMLFAC
 40
1.0
  9
$DIMTOFL
 70
     0
  9
$DIMTVP
 40
0.0
  9
$DIMTIX
 70
     0
  9
$DIMSOXD
 70
     0
  9
$DIMSAH
 70
     0
  9
$DIMBLK1
  1

  9
$DIMBLK2
  1

  9
$DIMSTYLE
  2
STANDARD
  9
$DIMCLRD
 70
     0
  9
$DIMCLRE
 70
     0
  9
$DIMCLRT
 70
     0
  9
$DIMTFAC
 40
1.0
  9
$DIMGAP
 40
0.09
  9
$LUNITS
 70
     2
  9
$LUPREC
 70
     4
  9
$AXISMODE
 70
     0
  9
$AXISUNIT
 10
0.0
 20
0.0
  9
$SKETCHINC
 40
0.1
  9
$FILLETRAD
 40
0.0
  9
$AUNITS
 70
     0
  9
$AUPREC
 70
     0
  9
$MENU
  1
acad
  9
$ELEVATION
 40
0.0
  9
$PELEVATION
 40
0.0
  9
$THICKNESS
 40
0.0
  9
$LIMCHECK
 70
     0
  9
$BLIPMODE
 70
     1
  9
$CHAMFERA
 40
0.0
  9
$CHAMFERB
 40
0.0
  9
$SKPOLY
 70
     0
  9
$TDCREATE
 40
0.000000000
  9
$TDUPDATE
 40
0.000000000
  9
$TDINDWG
 40
0.0
  9
$TDUSRTIMER
 40
0.0
  9
$USRTIMER
 70
     1
  9
$ANGBASE
 50
0.0
  9
$ANGDIR
 70
     0
  9
$PDMODE
 70
     0
  9
$PDSIZE
 40
0.0
  9
$PLINEWID
 40
0.0
  9
$COORDS
 70
     1
  9
$SPLFRAME
 70
     0
  9
$SPLINETYPE
 70
     6
  9
$SPLINESEGS
 70
     8
  9
$ATTDIA
 70
     0
  9
$ATTREQ
 70
     1
  9
$HANDLING
 70
     1
  9
$HANDSEED
  5
   709
  9
$SURFTAB1
 70
     6
  9
$SURFTAB2
 70
     6
  9
$SURFTYPE
 70
     6
  9
$SURFU
 70
     6
  9
$SURFV
 70
     6
  9
$UCSNAME
  2

  9
$UCSORG
 10
0.0
 20
0.0
 30
0.0
  9
$UCSXDIR
 10
1.0
 20
0.0
 30
0.0
  9
$UCSYDIR
 10
0.0
 20
1.0
 30
0.0
  9
$PUCSNAME
  2

  9
$PUCSORG
 10
0.0
 20
0.0
 30
0.0
  9
$PUCSXDIR
 10
1.0
 20
0.0
 30
0.0
  9
$PUCSYDIR
 10
0.0
 20
1.0
 30
0.0
  9
$USERI1
 70
     0
  9
$USERI2
 70
     0
  9
$USERI3
 70
     0
  9
$USERI4
 70
     0
  9
$USERI5
 70
     0
  9
$USERR1
 40
0.0
  9
$USERR2
 40
0.0
  9
$USERR3
 40
0.0
  9
$USERR4
 40
0.0
  9
$USERR5
 40
0.0
  9
$WORLDVIEW
 70
     1
  9
$SHADEDGE
 70
     3
  9
$SHADEDIF
 70
    70
  9
$TILEMODE
 70
     1
  9
$MAXACTVP
 70
    16
  9
$PINSBASE
 10
0.0
 20
0.0
 30
0.0
  9
$PLIMCHECK
 70
     0
  9
$PEXTMIN
 10
1.0E20
 20
1.0E20
 30
1.0E20
  9
$PEXTMAX
 10
-1.0E20
 20
-1.0E20
 30
-1.0E20
  9
$PLIMMIN
 10
0.0
 20
0.0
  9
$PLIMMAX
 10
12.0
 20
9.0
  9
$UNITMODE
 70
     0
  9
$VISRETAIN
 70
     0
  0
ENDSEC
  0
SECTION
  2
TABLES
  0
TABLE
  2
VPORT
 70
     1
  0
VPORT
  2
*ACTIVE
 70
     0
 10
0.0
 20
0.0
 11
1.0
 21
1.0
 12
6.801242
 22
4.5
 13
0.0
 23
0.0
 14
1.0
 24
1.0
 15
0.0
 25
0.0
 16
0.0
 26
0.0
 36
1.0
 17
0.0
 27
0.0
 37
0.0
 40
9.0
 41
1.511387
 42
50.0
 43
0.0
 44
0.0
 50
0.0
 51
0.0
 71
     0
 72
   100
 73
     1
 74
     1
 75
     0
 76
     0
 77
     0
 78
     0
  0
ENDTAB
  0
TABLE
  2
LTYPE
 70
    41
  0
LTYPE
  2
BYBLOCK
 70
     0
  3

 72
    65
 73
     0
 40
0.0
  0
LTYPE
  2
BYLAYER
 70
     0
  3

 72
    65
 73
     0
 40
0.0
  0
LTYPE
  2
CONTINUOUS
 70
     0
  3
Solid line
 72
    65
 73
     0
 40
0.0
  0
LTYPE
  2
BORDER
 70
    64
  3
__ __ . __ __ . __ __ . __ __ . __ __ . __ __ .
 72
    65
 73
     6
 40
1.75
 49
0.5
 49
-0.25
 49
0.5
 49
-0.25
 49
0.0
 49
-0.25
  0
LTYPE
  2
BORDER2
 70
    64
  3
__.__.__.__.__.__.__.__.__.__.__.__.__.__.__.__
 72
    65
 73
     6
 40
0.875
 49
0.25
 49
-0.125
 49
0.25
 49
-0.125
 49
0.0
 49
-0.125
  0
LTYPE
  2
BORDERX2
 70
    64
  3
____  ____  .  ____  ____  .  ____  ____  .  __
 72
    65
 73
     6
 40
3.5
 49
1.0
 49
-0.5
 49
1.0
 49
-0.5
 49
0.0
 49
-0.5
  0
LTYPE
  2
CENTER
 70
    64
  3
____ _ ____ _ ____ _ ____ _ ____ _ ____ _ ____
 72
    65
 73
     4
 40
2.0
 49
1.25
 49
-0.25
 49
0.25
 49
-0.25
  0
LTYPE
  2
CENTER2
 70
    64
  3
___ _ ___ _ ___ _ ___ _ ___ _ ___ _ ___ _ ___ _
 72
    65
 73
     4
 40
1.125
 49
0.75
 49
-0.125
 49
0.125
 49
-0.125
  0
LTYPE
  2
CENTERX2
 70
    64
  3
________  __  ________  __  ________  __  _____
 72
    65
 73
     4
 40
4.0
 49
2.5
 49
-0.5
 49
0.5
 49
-0.5
  0
LTYPE
  2
DASHDOT
 70
    64
  3
__ . __ . __ . __ . __ . __ . __ . __ . __ . __
 72
    65
 73
     4
 40
1.0
 49
0.5
 49
-0.25
 49
0.0
 49
-0.25
  0
LTYPE
  2
DASHDOT2
 70
    64
  3
_._._._._._._._._._._._._._._._._._._._._._._._
 72
    65
 73
     4
 40
0.5
 49
0.25
 49
-0.125
 49
0.0
 49
-0.125
  0
LTYPE
  2
DASHDOTX2
 70
    64
  3
____  .  ____  .  ____  .  ____  .  ____  .  __
 72
    65
 73
     4
 40
2.0
 49
1.0
 49
-0.5
 49
0.0
 49
-0.5
  0
LTYPE
  2
DASHED
 70
    64
  3
__ __ __ __ __ __ __ __ __ __ __ __ __ __ __ __
 72
    65
 73
     2
 40
0.75
 49
0.5
 49
-0.25
  0
LTYPE
  2
DASHED2
 70
    64
  3
_ _ _ _ _ _ _ _ _ _ _ _ _ _ _ _ _ _ _ _ _ _ _ _
 72
    65
 73
     2
 40
0.375
 49
0.25
 49
-0.125
  0
LTYPE
  2
DASHEDX2
 70
    64
  3
____  ____  ____  ____  ____  ____  ____  ____
 72
    65
 73
     2
 40
1.5
 49
1.0
 49
-0.5
  0
LTYPE
  2
DIVIDE
 70
    64
  3
____ . . ____ . . ____ . . ____ . . ____ . . __
 72
    65
 73
     6
 40
1.25
 49
0.5
 49
-0.25
 49
0.0
 49
-0.25
 49
0.0
 49
-0.25
  0
LTYPE
  2
DIVIDE2
 70
    64
  3
__..__..__..__..__..__..__..__..__..__..__..__.
 72
    65
 73
     6
 40
0.625
 49
0.25
 49
-0.125
 49
0.0
 49
-0.125
 49
0.0
 49
-0.125
  0
LTYPE
  2
DIVIDEX2
 70
    64
  3
________  .  .  ________  .  .  ________  .  .
 72
    65
 73
     6
 40
2.5
 49
1.0
 49
-0.5
 49
0.0
 49
-0.5
 49
0.0
 49
-0.5
  0
LTYPE
  2
DOT
 70
    64
  3
. . . . . . . . . . . . . . . . . . . . . . . .
 72
    65
 73
     2
 40
0.25
 49
0.0
 49
-0.25
  0
LTYPE
  2
DOT2
 70
    64
  3
...............................................
 72
    65
 73
     2
 40
0.125
 49
0.0
 49
-0.125
  0
LTYPE
  2
DOTX2
 70
    64
  3
.  .  .  .  .  .  .  .  .  .  .  .  .  .  .  .
 72
    65
 73
     2
 40
0.5
 49
0.0
 49
-0.5
  0
LTYPE
  2
HIDDEN
 70
    64
  3
__ __ __ __ __ __ __ __ __ __ __ __ __ __ __ __
 72
    65
 73
     2
 40
0.375
 49
0.25
 49
-0.125
  0
LTYPE
  2
HIDDEN2
 70
    64
  3
_ _ _ _ _ _ _ _ _ _ _ _ _ _ _ _ _ _ _ _ _ _ _ _
 72
    65
 73
     2
 40
0.1875
 49
0.125
 49
-0.0625
  0
LTYPE
  2
HIDDENX2
 70
    64
  3
____ ____ ____ ____ ____ ____ ____ ____ ____ __
 72
    65
 73
     2
 40
0.75
 49
0.5
 49
-0.25
  0
LTYPE
  2
PHANTOM
 70
    64
  3
______  __  __  ______  __  __  ______  __  __
 72
    65
 73
     6
 40
2.5
 49
1.25
 49
-0.25
 49
0.25
 49
-0.25
 49
0.25
 49
-0.25
  0
LTYPE
  2
PHANTOM2
 70
    64
  3
___ _ _ ___ _ _ ___ _ _ ___ _ _ ___ _ _ ___ _ _
 72
    65
 73
     6
 40
1.25
 49
0.625
 49
-0.125
 49
0.125
 49
-0.125
 49
0.125
 49
-0.125
  0
LTYPE
  2
PHANTOMX2
 70
    64
  3
____________    ____    ____    ____________
 72
    65
 73
     6
 40
5.0
 49
2.5
 49
-0.5
 49
0.5
 49
-0.5
 49
0.5
 49
-0.5
  0
LTYPE
  2
ACAD_ISO02W100
 70
    64
  3
__ __ __ __ __ __ __ __ __ __ __ __ __ __ __ __
 72
    65
 73
     2
 40
15.0
 49
12.0
 49
-3.0
  0
LTYPE
  2
ACAD_ISO03W100
 70
    64
  3
__    __    __    __    __    __    __    __
 72
    65
 73
     2
 40
30.0
 49
12.0
 49
-18.0
  0
LTYPE
  2
ACAD_ISO04W100
 70
    64
  3
____ . ____ . ____ . ____ . ____ . ____ . ____
 72
    65
 73
     4
 40
30.5
 49
24.0
 49
-3.0
 49
0.5
 49
-3.0
  0
LTYPE
  2
ACAD_ISO05W100
 70
    64
  3
____ .. ____ .. ____ .. ____ .. ____ .. ____ ..
 72
    65
 73
     6
 40
34.0
 49
24.0
 49
-3.0
 49
0.5
 49
-3.0
 49
0.5
 49
-3.0
  0
LTYPE
  2
ACAD_ISO06W100
 70
    64
  3
____ ... ____ ... ____ ... ____ ... ____ ... __
 72
    65
 73
     8
 40
37.5
 49
24.0
 49
-3.0
 49
0.5
 49
-3.0
 49
0.5
 49
-3.0
 49
0.5
 49
-3.0
  0
LTYPE
  2
ACAD_ISO07W100
 70
    64
  3
. . . . . . . . . . . . . . . . . . . . . . . .
 72
    65
 73
     2
 40
3.5
 49
0.5
 49
-3.0
  0
LTYPE
  2
ACAD_ISO08W100
 70
    64
  3
____ __ ____ __ ____ __ ____ ____ __ __ ____ __
 72
    65
 73
     4
 40
36.0
 49
24.0
 49
-3.0
 49
6.0
 49
-3.0
  0
LTYPE
  2
ACAD_ISO09W100
 70
    64
  3
____ __ __ ____ __ __ ____ __ __ ____ __ __ ___
 72
    65
 73
     6
 40
45.0
 49
24.0
 49
-3.0
 49
6.0
 49
-3.0
 49
6.0
 49
-3.0
  0
LTYPE
  2
ACAD_ISO10W100
 70
    64
  3
__ . __ . __ . __ . __ . __ . __ . __ . __ . __
 72
    65
 73
     4
 40
18.5
 49
12.0
 49
-3.0
 49
0.5
 49
-3.0
  0
LTYPE
  2
ACAD_ISO11W100
 70
    64
  3
__ __ . __ __ . __ __ . __ __ . __ __ . __ __ .
 72
    65
 73
     6
 40
33.5
 49
12.0
 49
-3.0
 49
12.0
 49
-3.0
 49
0.5
 49
-3.0
  0
LTYPE
  2
ACAD_ISO12W100
 70
    64
  3
__ . . __ . . __ . . __ . . __ . . __ . . __ .
 72
    65
 73
     6
 40
22.0
 49
12.0
 49
-3.0
 49
0.5
 49
-3.0
 49
0.5
 49
-3.0
  0
LTYPE
  2
ACAD_ISO13W100
 70
    64
  3
__ __ . . __ __ . . __ __ . . __ __ . . __ __ .
 72
    65
 73
     8
 40
37.0
 49
12.0
 49
-3.0
 49
12.0
 49
-3.0
 49
0.5
 49
-3.0
 49
0.5
 49
-3.0
  0
LTYPE
  2
ACAD_ISO14W100
 70
    64
  3
__ . . . __ . . . __ . . . __ . . . __ . . . __
 72
    65
 73
     8
 40
25.5
 49
12.0
 49
-3.0
 49
0.5
 49
-3.0
 49
0.5
 49
-3.0
 49
0.5
 49
-3.0
  0
LTYPE
  2
ACAD_ISO15W100
 70
    64
  3
__ __ . . . __ __ . . . __ __ . . . __ __ . . .
 72
    65
 73
    10
 40
40.5
 49
12.0
 49
-3.0
 49
12.0
 49
-3.0
 49
0.5
 49
-3.0
 49
0.5
 49
-3.0
 49
0.5
 49
-3.0
  0
ENDTAB
  0
TABLE
  2
STYLE
 70
     4
  0
STYLE
  2
STANDARD
 70
    64
 40
0.0
 41
1.0
 50
0.0
 71
     0
 42
0.2
  3
txt
  4

  0
STYLE
  2
TOLERANCE
 70
    64
 40
0.0
 41
1.0
 50
0.0
 71
     0
 42
0.2
  3
../igesfont/iges1003.shx
  4

  0
STYLE
  2
ROMANS
 70
    64
 40
0.0
 41
1.0
 50
0.0
 71
     0
 42
0.2
  3
romans.shx
  4

  0
STYLE
  2
ROMANC
 70
    64
 40
0.0
 41
1.0
 50
0.0
 71
     0
 42
0.2
  3
romanc.shx
  4

  0
ENDTAB
  0
TABLE
  2
DIMSTYLE
 70
     2
  0
DIMSTYLE
  2
UNNAMED
 70
     0
  3

  4

  5

  6

  7

 40
1.0
 41
0.18
 42
0.0625
 43
0.38
 44
0.18
 45
0.0
 46
0.0
 47
0.0
 48
0.0
140
0.18
141
0.09
142
0.0
143
25.4
144
1.0
145
0.0
146
1.0
147
0.09
 71
     0
 72
     0
 73
     1
 74
     1
 75
     0
 76
     0
 77
     0
 78
     0
170
     0
171
     2
172
     0
173
     0
174
     0
175
     0
176
     0
177
     0
178
     0
  0
DIMSTYLE
  2
STANDARD
 70
     0
  3

  4

  5

  6

  7

 40
1.0
 41
0.18
 42
0.0625
 43
0.38
 44
0.18
 45
0.0
 46
0.0
 47
0.0
 48
0.0
140
0.18
141
0.09
142
0.0
143
25.4
144
1.0
145
0.0
146
1.0
147
0.09
 71
     0
 72
     0
 73
     1
 74
     1
 75
     0
 76
     0
 77
     0
 78
     0
170
     0
171
     2
172
     0
173
     0
174
     0
175
     0
176
     0
177
     0
178
     0
  0
ENDTAB
  0
TABLE
  2
LAYER
 70
     2
  0
LAYER
  2
0
 70
     0
 62
     7
  6
CONTINUOUS
  0
LAYER
  2
255
 70
     0
 62
     7
  6
CONTINUOUS
  0
ENDTAB
  0
ENDSEC
  0
SECTION
  2
BLOCKS
  0
BLOCK
  5
     B
  8
0
  6
CONTINUOUS
 62
     7
  2
*UDIM2058
 70
    65
 10
0.0
 20
0.0
 30
0.0
  3
*UDIM2058
  0
TEXT
  5
     C
  8
0
  6
CONTINUOUS
 62
     7
 10
67.6412738881502
 20
-39.2185978834116
 30
0.0
 40
3.00000002980232
  1
7
 50
330.723308342682
 41
0.933333333333334
 72
     1
 11
69.3343104887069
 21
-38.4481258606105
 31
0.0
 73
     2
  0
TEXT
  5
     D
  8
0
  6
CONTINUOUS
 62
     7
 10
64.1522007188378
 20
-37.2624872889913
 30
0.0
 40
3.00000002980232
  1
Ø
 50
330.723308342682
 41
1.2
 72
     1
 11
66.1941446367141
 21
-36.6876263269709
 31
0.0
 73
     2
  0
LINE
  5
     E
  8
0
  6
CONTINUOUS
 62
     7
 10
63.6631730756747
 20
-38.1347555804998
 30
0.0
 11
86.8714939046362
 21
-51.1462460309211
 31
0.0
  0
LINE
  5
     F
  8
0
  6
CONTINUOUS
 62
     7
 10
78.076334570303
 20
-47.105495089322
 30
0.0
 11
80.9836829743926
 21
-47.84530942903
 31
0.0
  0
LINE
  5
    10
  8
0
  6
CONTINUOUS
 62
     7
 10
80.9836829743926
 20
-47.84530942903
 30
0.0
 11
78.8357525991689
 21
-45.7509371834177
 31
0.0
  0
LINE
  5
    11
  8
0
  6
CONTINUOUS
 62
     7
 10
85.4175008789157
 20
-49.4409221470061
 30
0.0
 11
82.5101524748261
 21
-48.7011078072981
 31
0.0
  0
LINE
  5
    12
  8
0
  6
CONTINUOUS
 62
     7
 10
82.5101524748261
 20
-48.7011078072981
 30
0.0
 11
84.6580828500499
 21
-50.7954800529104
 31
0.0
  0
ENDBLK
  5
    13
  8
0
  6
CONTINUOUS
 62
     7
  0
BLOCK
  5
    14
  8
0
  6
CONTINUOUS
 62
     7
  2
*UDIM2059
 70
    65
 10
0.0
 20
0.0
 30
0.0
  3
*UDIM2059
  0
TEXT
  5
    15
  8
0
  6
CONTINUOUS
 62
     7
 10
124.379592800776
 20
-95.319243625321
 30
0.0
 40
3.00000002980232
  1
7
 50
311.055706948011
 41
0.933333333333334
 72
     1
 11
126.23317160518
 21
-95.163533366798
 31
0.0
 73
     2
  0
TEXT
  5
    16
  8
0
  6
CONTINUOUS
 62
     7
 10
121.752422773766
 20
-92.3029581800095
 30
0.0
 40
3.00000002980232
  1
Ø
 50
311.055706948011
 41
1.2
 72
     1
 11
123.868718580786
 21
-92.448876467409
 31
0.0
 73
     2
  0
LINE
  5
    17
  8
0
  6
CONTINUOUS
 62
     7
 10
109.138261774984
 20
-79.3430394044184
 30
0.0
 11
125.070464964563
 21
-97.6349931310691
 31
0.0
  0
LINE
  5
    18
  8
0
  6
CONTINUOUS
 62
     7
 10
109.933481667797
 20
-81.4382364333323
 30
0.0
 11
112.422224285304
 21
-83.1133961820744
 31
0.0
  0
LINE
  5
    19
  8
0
  6
CONTINUOUS
 62
     7
 10
112.422224285304
 20
-83.1133961820744
 30
0.0
 11
111.104489868702
 21
-80.4182939563132
 31
0.0
  0
LINE
  5
    1A
  8
0
  6
CONTINUOUS
 62
     7
 10
116.060353781422
 20
-86.1081808029958
 30
0.0
 11
113.571611163915
 21
-84.4330210542537
 31
0.0
  0
LINE
  5
    1B
  8
0
  6
CONTINUOUS
 62
     7
 10
113.571611163915
 20
-84.4330210542537
 30
0.0
 11
114.889345580517
 21
-87.1281232800149
 31
0.0
  0
ENDBLK
  5
    1C
  8
0
  6
CONTINUOUS
 62
     7
  0
BLOCK
  5
    1D
  8
0
  6
CONTINUOUS
 62
     7
  2
*UDIM2060
 70
    65
 10
0.0
 20
0.0
 30
0.0
  3
*UDIM2060
  0
TEXT
  5
    1E
  8
0
  6
CONTINUOUS
 62
     7
 10
134.528657915925
 20
-24.3351794102195
 30
0.0
 40
3.00000002980232
  1
8
 50
406.249477420785
 41
0.933333333333334
 72
     1
 11
134.205793038979
 21
-22.5033065052453
 31
0.0
 73
     2
  0
TEXT
  5
    1F
  8
0
  6
CONTINUOUS
 62
     7
 10
132.350371035895
 20
-26.6106060363434
 30
0.0
 40
3.00000002980232
  1
Ø
 50
406.249477420785
 41
0.933333333333334
 72
     1
 11
132.027506158949
 21
-24.7787331313692
 31
0.0
 73
     2
  0
TEXT
  5
    20
  8
0
  6
CONTINUOUS
 62
     7
 10
120.767416894558
 20
-38.7100968996102
 30
0.0
 40
3.00000002980232
  1
3 fori
 50
406.249477420785
 41
0.933333333333333
 72
     1
 11
125.285189575341
 21
-31.8217203598857
 31
0.0
 73
     2
  0
LINE
  5
    21
  8
0
  6
CONTINUOUS
 62
     7
 10
136.772358805822
 20
-23.4375121908494
 30
0.0
 11
112.305398082336
 21
-48.9955662749729
 31
0.0
  0
LINE
  5
    22
  8
0
  6
CONTINUOUS
 62
     7
 10
115.355170896913
 20
-45.0564573797661
 30
0.0
 11
113.688437366883
 21
-47.5508509613552
 31
0.0
  0
LINE
  5
    23
  8
0
  6
CONTINUOUS
 62
     7
 10
113.688437366883
 20
-47.5508509613552
 30
0.0
 11
116.107787292408
 21
-45.7769439914548
 31
0.0
  0
LINE
  5
    24
  8
0
  6
CONTINUOUS
 62
     7
 10
110.638664552306
 20
-51.4899598565621
 30
0.0
 11
112.305398082336
 21
-48.9955662749729
 31
0.0
  0
LINE
  5
    25
  8
0
  6
CONTINUOUS
 62
     7
 10
112.305398082336
 20
-48.9955662749729
 30
0.0
 11
109.886048156811
 21
-50.7694732448733
 31
0.0
  0
ENDBLK
  5
    26
  8
0
  6
CONTINUOUS
 62
     7
  0
BLOCK
  5
    27
  8
0
  6
CONTINUOUS
 62
     7
  2
*UDIM2061
 70
    65
 10
0.0
 20
0.0
 30
0.0
  3
*UDIM2061
  0
TEXT
  5
    28
  8
0
  6
CONTINUOUS
 62
     7
 10
94.5999366457652
 20
-10.3842696809501
 30
0.0
 40
3.00000002980232
  1
R min.200
 50
359.999999844103
 41
0.933333333333333
 72
     1
 11
106.899936772029
 21
-8.88426969945431
 31
0.0
 73
     2
  0
LINE
  5
    29
  8
0
  6
CONTINUOUS
 62
     7
 10
92.7469177246094
 20
-39.395717457309
 30
0.0
 11
92.7469177246094
 21
-9.38426971435547
 31
0.0
  0
LINE
  5
    2A
  8
0
  6
CONTINUOUS
 62
     7
 10
120.927065549572
 20
-41.9180870199311
 30
0.0
 11
120.927065549572
 21
-9.38426971435547
 31
0.0
  0
LINE
  5
    2B
  8
0
  6
CONTINUOUS
 62
     7
 10
92.7469177246094
 20
-11.3842697143555
 30
0.0
 11
120.927065549572
 21
-11.3842697143555
 31
0.0
  0
LINE
  5
    2C
  8
0
  6
CONTINUOUS
 62
     7
 10
89.7924944474024
 20
-11.9052141443071
 30
0.0
 11
92.7469177246094
 21
-11.3842697143555
 31
0.0
  0
LINE
  5
    2D
  8
0
  6
CONTINUOUS
 62
     7
 10
92.7469177246094
 20
-11.3842697143555
 30
0.0
 11
89.7924944474024
 21
-10.8633252844038
 31
0.0
  0
LINE
  5
    2E
  8
0
  6
CONTINUOUS
 62
     7
 10
123.881488826779
 20
-10.8633252844038
 30
0.0
 11
120.927065549572
 21
-11.3842697143555
 31
0.0
  0
LINE
  5
    2F
  8
0
  6
CONTINUOUS
 62
     7
 10
120.927065549572
 20
-11.3842697143555
 30
0.0
 11
123.881488826779
 21
-11.9052141443071
 31
0.0
  0
ENDBLK
  5
    30
  8
0
  6
CONTINUOUS
 62
     7
  0
BLOCK
  5
    31
  8
0
  6
CONTINUOUS
 62
     7
  2
*UDIM2062
 70
    65
 10
0.0
 20
0.0
 30
0.0
  3
*UDIM2062
  0
TEXT
  5
    32
  8
0
  6
CONTINUOUS
 62
     7
 10
58.3452339028488
 20
-62.5357086808472
 30
0.0
 40
3.00000002980232
  1
72,5
 50
449.999999844103
 41
0.933333333333333
 72
     1
 11
56.8452339023352
 21
-57.2357086241245
 31
0.0
 73
     2
  0
LINE
  5
    33
  8
0
  6
CONTINUOUS
 62
     7
 10
84.4519177246094
 20
-47.8982086181641
 30
0.0
 11
57.3452339172363
 21
-47.8982086181641
 31
0.0
  0
LINE
  5
    34
  8
0
  6
CONTINUOUS
 62
     7
 10
64.2861929614658
 20
-66.0232086181641
 30
0.0
 11
57.3452339172363
 21
-66.0232086181641
 31
0.0
  0
LINE
  5
    35
  8
0
  6
CONTINUOUS
 62
     7
 10
59.3452339172363
 20
-47.8982086181641
 30
0.0
 11
59.3452339172363
 21
-66.0232086181641
 31
0.0
  0
LINE
  5
    36
  8
0
  6
CONTINUOUS
 62
     7
 10
59.866178347188
 20
-50.852631895371
 30
0.0
 11
59.3452339172363
 21
-47.8982086181641
 31
0.0
  0
LINE
  5
    37
  8
0
  6
CONTINUOUS
 62
     7
 10
59.3452339172363
 20
-47.8982086181641
 30
0.0
 11
58.8242894872847
 21
-50.852631895371
 31
0.0
  0
LINE
  5
    38
  8
0
  6
CONTINUOUS
 62
     7
 10
58.8242894872847
 20
-63.0687853409571
 30
0.0
 11
59.3452339172363
 21
-66.0232086181641
 31
0.0
  0
LINE
  5
    39
  8
0
  6
CONTINUOUS
 62
     7
 10
59.3452339172363
 20
-66.0232086181641
 30
0.0
 11
59.866178347188
 21
-63.0687853409571
 31
0.0
  0
ENDBLK
  5
    3A
  8
0
  6
CONTINUOUS
 62
     7
  0
BLOCK
  5
    3B
  8
0
  6
CONTINUOUS
 62
     7
  2
*UDIM2063
 70
    65
 10
0.0
 20
0.0
 30
0.0
  3
*UDIM2063
  0
TEXT
  5
    3C
  8
0
  6
CONTINUOUS
 62
     7
 10
78.59691807717
 20
-37.1656513146214
 30
0.0
 40
3.00000002980232
  1
45
 50
359.999999844103
 41
0.933333333333333
 72
     1
 11
81.0969181060791
 21
-35.66565130651
 31
0.0
 73
     2
  0
LINE
  5
    3D
  8
0
  6
CONTINUOUS
 62
     7
 10
87.1219177246094
 20
-45.2282086181641
 30
0.0
 11
87.1219177246094
 21
-36.1656513214111
 31
0.0
  0
LINE
  5
    3E
  8
0
  6
CONTINUOUS
 62
     7
 10
98.3719177246094
 20
-45.2282086181641
 30
0.0
 11
98.3719177246094
 21
-36.1656513214111
 31
0.0
  0
LINE
  5
    3F
  8
0
  6
CONTINUOUS
 62
     7
 10
78.5969180812438
 20
-38.1656513214111
 30
0.0
 11
98.3719177246094
 21
-38.1656513214111
 31
0.0
  0
LINE
  5
    40
  8
0
  6
CONTINUOUS
 62
     7
 10
84.1674944474024
 20
-38.6865957513628
 30
0.0
 11
87.1219177246094
 21
-38.1656513214111
 31
0.0
  0
LINE
  5
    41
  8
0
  6
CONTINUOUS
 62
     7
 10
87.1219177246094
 20
-38.1656513214111
 30
0.0
 11
84.1674944474024
 21
-37.6447068914595
 31
0.0
  0
LINE
  5
    42
  8
0
  6
CONTINUOUS
 62
     7
 10
101.326341001816
 20
-37.6447068914595
 30
0.0
 11
98.3719177246094
 21
-38.1656513214111
 31
0.0
  0
LINE
  5
    43
  8
0
  6
CONTINUOUS
 62
     7
 10
98.3719177246094
 20
-38.1656513214111
 30
0.0
 11
101.326341001816
 21
-38.6865957513628
 31
0.0
  0
ENDBLK
  5
    44
  8
0
  6
CONTINUOUS
 62
     7
  0
BLOCK
  5
    45
  8
0
  6
CONTINUOUS
 62
     7
  2
*UDIM2064
 70
    65
 10
0.0
 20
0.0
 30
0.0
  3
*UDIM2064
  0
TEXT
  5
    46
  8
0
  6
CONTINUOUS
 62
     7
 10
128.939617138794
 20
-63.1232083073248
 30
0.0
 40
3.00000002980232
  1
27,25
 50
449.999999844103
 41
0.933333333333333
 72
     1
 11
127.439617142081
 21
-56.4232082366943
 31
0.0
 73
     2
  0
LINE
  5
    47
  8
0
  6
CONTINUOUS
 62
     7
 10
121.739646024746
 20
-66.0232086181641
 30
0.0
 11
131.939617156982
 21
-66.0232086181641
 31
0.0
  0
LINE
  5
    48
  8
0
  6
CONTINUOUS
 62
     7
 10
119.002224124051
 20
-72.8357086181641
 30
0.0
 11
131.939617156982
 21
-72.8357086181641
 31
0.0
  0
LINE
  5
    49
  8
0
  6
CONTINUOUS
 62
     7
 10
129.939617156982
 20
-49.7232081701358
 30
0.0
 11
129.939617156982
 21
-72.8357086181641
 31
0.0
  0
LINE
  5
    4A
  8
0
  6
CONTINUOUS
 62
     7
 10
129.418672727031
 20
-63.0687853409571
 30
0.0
 11
129.939617156982
 21
-66.0232086181641
 31
0.0
  0
LINE
  5
    4B
  8
0
  6
CONTINUOUS
 62
     7
 10
129.939617156982
 20
-66.0232086181641
 30
0.0
 11
130.460561586934
 21
-63.0687853409571
 31
0.0
  0
LINE
  5
    4C
  8
0
  6
CONTINUOUS
 62
     7
 10
130.460561586934
 20
-75.790131895371
 30
0.0
 11
129.939617156982
 21
-72.8357086181641
 31
0.0
  0
LINE
  5
    4D
  8
0
  6
CONTINUOUS
 62
     7
 10
129.939617156982
 20
-72.8357086181641
 30
0.0
 11
129.418672727031
 21
-75.790131895371
 31
0.0
  0
ENDBLK
  5
    4E
  8
0
  6
CONTINUOUS
 62
     7
  0
BLOCK
  5
    4F
  8
0
  6
CONTINUOUS
 62
     7
  2
*UDIM2065
 70
    65
 10
0.0
 20
0.0
 30
0.0
  3
*UDIM2065
  0
TEXT
  5
    50
  8
0
  6
CONTINUOUS
 62
     7
 10
134.090782162541
 20
-57.5899429232865
 30
0.0
 40
3.00000002980232
  1
=
 50
449.999999844103
 41
0.933333333333334
 72
     1
 11
132.590782150626
 21
-56.4899429082871
 31
0.0
 73
     2
  0
LINE
  5
    51
  8
0
  6
CONTINUOUS
 62
     7
 10
115.621917724609
 20
-48.2732086181641
 30
0.0
 11
137.090782165527
 21
-48.2732086181641
 31
0.0
  0
LINE
  5
    52
  8
0
  6
CONTINUOUS
 62
     7
 10
115.621917724609
 20
-66.0232086181641
 30
0.0
 11
137.090782165527
 21
-66.0232086181641
 31
0.0
  0
LINE
  5
    53
  8
0
  6
CONTINUOUS
 62
     7
 10
135.090782165527
 20
-48.2732086181641
 30
0.0
 11
135.090782165527
 21
-66.0232086181641
 31
0.0
  0
LINE
  5
    54
  8
0
  6
CONTINUOUS
 62
     7
 10
135.611726595479
 20
-51.227631895371
 30
0.0
 11
135.090782165527
 21
-48.2732086181641
 31
0.0
  0
LINE
  5
    55
  8
0
  6
CONTINUOUS
 62
     7
 10
135.090782165527
 20
-48.2732086181641
 30
0.0
 11
134.569837735576
 21
-51.227631895371
 31
0.0
  0
LINE
  5
    56
  8
0
  6
CONTINUOUS
 62
     7
 10
134.569837735576
 20
-63.0687853409571
 30
0.0
 11
135.090782165527
 21
-66.0232086181641
 31
0.0
  0
LINE
  5
    57
  8
0
  6
CONTINUOUS
 62
     7
 10
135.090782165527
 20
-66.0232086181641
 30
0.0
 11
135.611726595479
 21
-63.0687853409571
 31
0.0
  0
ENDBLK
  5
    58
  8
0
  6
CONTINUOUS
 62
     7
  0
BLOCK
  5
    59
  8
0
  6
CONTINUOUS
 62
     7
  2
*UDIM2066
 70
    65
 10
0.0
 20
0.0
 30
0.0
  3
*UDIM2066
  0
TEXT
  5
    5A
  8
0
  6
CONTINUOUS
 62
     7
 10
134.090782162541
 20
-75.3399429232865
 30
0.0
 40
3.00000002980232
  1
=
 50
449.999999844103
 41
0.933333333333334
 72
     1
 11
132.590782150626
 21
-74.2399429082871
 31
0.0
 73
     2
  0
LINE
  5
    5B
  8
0
  6
CONTINUOUS
 62
     7
 10
115.621917724609
 20
-83.7732086181641
 30
0.0
 11
137.090782165527
 21
-83.7732086181641
 31
0.0
  0
LINE
  5
    5C
  8
0
  6
CONTINUOUS
 62
     7
 10
135.090782165527
 20
-66.0232086181641
 30
0.0
 11
135.090782165527
 21
-83.7732086181641
 31
0.0
  0
LINE
  5
    5D
  8
0
  6
CONTINUOUS
 62
     7
 10
135.611726595479
 20
-68.977631895371
 30
0.0
 11
135.090782165527
 21
-66.0232086181641
 31
0.0
  0
LINE
  5
    5E
  8
0
  6
CONTINUOUS
 62
     7
 10
135.090782165527
 20
-66.0232086181641
 30
0.0
 11
134.569837735576
 21
-68.977631895371
 31
0.0
  0
LINE
  5
    5F
  8
0
  6
CONTINUOUS
 62
     7
 10
134.569837735576
 20
-80.8187853409571
 30
0.0
 11
135.090782165527
 21
-83.7732086181641
 31
0.0
  0
LINE
  5
    60
  8
0
  6
CONTINUOUS
 62
     7
 10
135.090782165527
 20
-83.7732086181641
 30
0.0
 11
135.611726595479
 21
-80.8187853409571
 31
0.0
  0
ENDBLK
  5
    61
  8
0
  6
CONTINUOUS
 62
     7
  0
BLOCK
  5
    62
  8
0
  6
CONTINUOUS
 62
     7
  2
*UDIM2067
 70
    65
 10
0.0
 20
0.0
 30
0.0
  3
*UDIM2067
  0
TEXT
  5
    63
  8
0
  6
CONTINUOUS
 62
     7
 10
64.7841911210047
 20
-70.1982086669395
 30
0.0
 40
3.00000002980232
  1
126
 50
449.999999844103
 41
0.933333333333333
 72
     1
 11
63.2841911166906
 21
-66.2982086241245
 31
0.0
 73
     2
  0
LINE
  5
    64
  8
0
  6
CONTINUOUS
 62
     7
 10
73.7469177246094
 20
-50.2732086181641
 30
0.0
 11
63.7841911315918
 21
-50.2732086181641
 31
0.0
  0
LINE
  5
    65
  8
0
  6
CONTINUOUS
 62
     7
 10
73.7469177246094
 20
-81.7732086181641
 30
0.0
 11
63.7841911315918
 21
-81.7732086181641
 31
0.0
  0
LINE
  5
    66
  8
0
  6
CONTINUOUS
 62
     7
 10
65.7841911315918
 20
-50.2732086181641
 30
0.0
 11
65.7841911315918
 21
-81.7732086181641
 31
0.0
  0
LINE
  5
    67
  8
0
  6
CONTINUOUS
 62
     7
 10
66.3051355615435
 20
-53.227631895371
 30
0.0
 11
65.7841911315918
 21
-50.2732086181641
 31
0.0
  0
LINE
  5
    68
  8
0
  6
CONTINUOUS
 62
     7
 10
65.7841911315918
 20
-50.2732086181641
 30
0.0
 11
65.2632467016401
 21
-53.227631895371
 31
0.0
  0
LINE
  5
    69
  8
0
  6
CONTINUOUS
 62
     7
 10
65.2632467016401
 20
-78.8187853409571
 30
0.0
 11
65.7841911315918
 21
-81.7732086181641
 31
0.0
  0
LINE
  5
    6A
  8
0
  6
CONTINUOUS
 62
     7
 10
65.7841911315918
 20
-81.7732086181641
 30
0.0
 11
66.3051355615435
 21
-78.8187853409571
 31
0.0
  0
ENDBLK
  5
    6B
  8
0
  6
CONTINUOUS
 62
     7
  0
BLOCK
  5
    6C
  8
0
  6
CONTINUOUS
 62
     7
  2
*UDIM2068
 70
    65
 10
0.0
 20
0.0
 30
0.0
  3
*UDIM2068
  0
TEXT
  5
    6D
  8
0
  6
CONTINUOUS
 62
     7
 10
140.412666310214
 20
-70.1982086669395
 30
0.0
 40
3.00000002980232
  1
142
 50
449.999999844103
 41
0.933333333333333
 72
     1
 11
138.9126663059
 21
-66.2982086241245
 31
0.0
 73
     2
  0
LINE
  5
    6E
  8
0
  6
CONTINUOUS
 62
     7
 10
84.3719177246094
 20
-48.2732086181641
 30
0.0
 11
143.412666320801
 21
-48.2732086181641
 31
0.0
  0
LINE
  5
    6F
  8
0
  6
CONTINUOUS
 62
     7
 10
115.621917724609
 20
-83.7732086181641
 30
0.0
 11
143.412666320801
 21
-83.7732086181641
 31
0.0
  0
LINE
  5
    70
  8
0
  6
CONTINUOUS
 62
     7
 10
141.412666320801
 20
-48.2732086181641
 30
0.0
 11
141.412666320801
 21
-83.7732086181641
 31
0.0
  0
LINE
  5
    71
  8
0
  6
CONTINUOUS
 62
     7
 10
141.933610750752
 20
-51.227631895371
 30
0.0
 11
141.412666320801
 21
-48.2732086181641
 31
0.0
  0
LINE
  5
    72
  8
0
  6
CONTINUOUS
 62
     7
 10
141.412666320801
 20
-48.2732086181641
 30
0.0
 11
140.891721890849
 21
-51.227631895371
 31
0.0
  0
LINE
  5
    73
  8
0
  6
CONTINUOUS
 62
     7
 10
140.891721890849
 20
-80.8187853409571
 30
0.0
 11
141.412666320801
 21
-83.7732086181641
 31
0.0
  0
LINE
  5
    74
  8
0
  6
CONTINUOUS
 62
     7
 10
141.412666320801
 20
-83.7732086181641
 30
0.0
 11
141.933610750752
 21
-80.8187853409571
 31
0.0
  0
ENDBLK
  5
    75
  8
0
  6
CONTINUOUS
 62
     7
  0
BLOCK
  5
    76
  8
0
  6
CONTINUOUS
 62
     7
  2
*UDIM2069
 70
    65
 10
0.0
 20
0.0
 30
0.0
  3
*UDIM2069
  0
TEXT
  5
    77
  8
0
  6
CONTINUOUS
 62
     7
 10
99.7643871239507
 20
-75.5254463544478
 30
0.0
 40
3.00000002980232
  1
16
 50
449.999999844103
 41
0.933333333333333
 72
     1
 11
98.2643871158361
 21
-73.0254463255405
 31
0.0
 73
     2
  0
LINE
  5
    78
  8
0
  6
CONTINUOUS
 62
     7
 10
107.496917724609
 20
-70.8357086181641
 30
0.0
 11
98.7643871307373
 21
-70.8357086181641
 31
0.0
  0
LINE
  5
    79
  8
0
  6
CONTINUOUS
 62
     7
 10
107.496917724609
 20
-74.8357086181641
 30
0.0
 11
98.7643871307373
 21
-74.8357086181641
 31
0.0
  0
LINE
  5
    7A
  8
0
  6
CONTINUOUS
 62
     7
 10
100.764387130737
 20
-70.5254463007053
 30
0.0
 11
100.764387130737
 21
-75.5254463503758
 31
0.0
  0
LINE
  5
    7B
  8
0
  6
CONTINUOUS
 62
     7
 10
100.243442700786
 20
-67.8812853409571
 30
0.0
 11
100.764387130737
 21
-70.8357086181641
 31
0.0
  0
LINE
  5
    7C
  8
0
  6
CONTINUOUS
 62
     7
 10
100.764387130737
 20
-70.8357086181641
 30
0.0
 11
101.285331560689
 21
-67.8812853409571
 31
0.0
  0
LINE
  5
    7D
  8
0
  6
CONTINUOUS
 62
     7
 10
101.285331560689
 20
-77.790131895371
 30
0.0
 11
100.764387130737
 21
-74.8357086181641
 31
0.0
  0
LINE
  5
    7E
  8
0
  6
CONTINUOUS
 62
     7
 10
100.764387130737
 20
-74.8357086181641
 30
0.0
 11
100.243442700786
 21
-77.790131895371
 31
0.0
  0
ENDBLK
  5
    7F
  8
0
  6
CONTINUOUS
 62
     7
  0
BLOCK
  5
    80
  8
0
  6
CONTINUOUS
 62
     7
  2
*UDIM2070
 70
    65
 10
0.0
 20
0.0
 30
0.0
  3
*UDIM2070
  0
TEXT
  5
    81
  8
0
  6
CONTINUOUS
 62
     7
 10
101.72191768974
 20
-61.4746272496037
 30
0.0
 40
3.00000002980232
  1
94
 50
359.999999844103
 41
0.933333333333333
 72
     1
 11
104.221917718649
 21
-59.9746272414923
 31
0.0
 73
     2
  0
LINE
  5
    82
  8
0
  6
CONTINUOUS
 62
     7
 10
116.246917724609
 20
-71.9607086181641
 30
0.0
 11
116.246917724609
 21
-60.4746272563934
 31
0.0
  0
LINE
  5
    83
  8
0
  6
CONTINUOUS
 62
     7
 10
92.7469177246094
 20
-62.4746272563934
 30
0.0
 11
116.246917724609
 21
-62.4746272563934
 31
0.0
  0
LINE
  5
    84
  8
0
  6
CONTINUOUS
 62
     7
 10
95.7013410018163
 20
-61.9536828264418
 30
0.0
 11
92.7469177246094
 21
-62.4746272563934
 31
0.0
  0
LINE
  5
    85
  8
0
  6
CONTINUOUS
 62
     7
 10
92.7469177246094
 20
-62.4746272563934
 30
0.0
 11
95.7013410018163
 21
-62.9955716863451
 31
0.0
  0
LINE
  5
    86
  8
0
  6
CONTINUOUS
 62
     7
 10
113.292494447402
 20
-62.9955716863451
 30
0.0
 11
116.246917724609
 21
-62.4746272563934
 31
0.0
  0
LINE
  5
    87
  8
0
  6
CONTINUOUS
 62
     7
 10
116.246917724609
 20
-62.4746272563934
 30
0.0
 11
113.292494447402
 21
-61.9536828264418
 31
0.0
  0
ENDBLK
  5
    88
  8
0
  6
CONTINUOUS
 62
     7
  0
BLOCK
  5
    89
  8
0
  6
CONTINUOUS
 62
     7
  2
*UDIM2071
 70
    65
 10
0.0
 20
0.0
 30
0.0
  3
*UDIM2071
  0
TEXT
  5
    8A
  8
0
  6
CONTINUOUS
 62
     7
 10
93.1969176460298
 20
-97.0813903702674
 30
0.0
 40
3.00000002980232
  1
125
 50
359.999999844103
 41
0.933333333333333
 72
     1
 11
97.0969176888466
 21
-95.5813903659582
 31
0.0
 73
     2
  0
LINE
  5
    8B
  8
0
  6
CONTINUOUS
 62
     7
 10
81.7469177246094
 20
-86.3982086181641
 30
0.0
 11
81.7469177246094
 21
-100.081390380859
 31
0.0
  0
LINE
  5
    8C
  8
0
  6
CONTINUOUS
 62
     7
 10
112.996917724609
 20
-86.3982086181641
 30
0.0
 11
112.996917724609
 21
-100.081390380859
 31
0.0
  0
LINE
  5
    8D
  8
0
  6
CONTINUOUS
 62
     7
 10
81.7469177246094
 20
-98.0813903808594
 30
0.0
 11
112.996917724609
 21
-98.0813903808594
 31
0.0
  0
LINE
  5
    8E
  8
0
  6
CONTINUOUS
 62
     7
 10
84.7013410018163
 20
-97.5604459509077
 30
0.0
 11
81.7469177246094
 21
-98.0813903808594
 31
0.0
  0
LINE
  5
    8F
  8
0
  6
CONTINUOUS
 62
     7
 10
81.7469177246094
 20
-98.0813903808594
 30
0.0
 11
84.7013410018163
 21
-98.602334810811
 31
0.0
  0
LINE
  5
    90
  8
0
  6
CONTINUOUS
 62
     7
 10
110.042494447402
 20
-98.602334810811
 30
0.0
 11
112.996917724609
 21
-98.0813903808594
 31
0.0
  0
LINE
  5
    91
  8
0
  6
CONTINUOUS
 62
     7
 10
112.996917724609
 20
-98.0813903808594
 30
0.0
 11
110.042494447402
 21
-97.5604459509077
 31
0.0
  0
ENDBLK
  5
    92
  8
0
  6
CONTINUOUS
 62
     7
  0
BLOCK
  5
    93
  8
0
  6
CONTINUOUS
 62
     7
  2
*UDIM2072
 70
    65
 10
0.0
 20
0.0
 30
0.0
  3
*UDIM2072
  0
TEXT
  5
    94
  8
0
  6
CONTINUOUS
 62
     7
 10
100.09691768974
 20
-89.9781360558324
 30
0.0
 40
3.00000002980232
  1
81
 50
359.999999844103
 41
0.933333333333333
 72
     1
 11
102.596917718649
 21
-88.4781360477209
 31
0.0
 73
     2
  0
LINE
  5
    95
  8
0
  6
CONTINUOUS
 62
     7
 10
92.7469177246094
 20
-90.1683899357155
 30
0.0
 11
92.7469177246094
 21
-92.9781360626221
 31
0.0
  0
LINE
  5
    96
  8
0
  6
CONTINUOUS
 62
     7
 10
112.996917724609
 20
-86.3982086181641
 30
0.0
 11
112.996917724609
 21
-92.9781360626221
 31
0.0
  0
LINE
  5
    97
  8
0
  6
CONTINUOUS
 62
     7
 10
92.7469177246094
 20
-90.9781360626221
 30
0.0
 11
112.996917724609
 21
-90.9781360626221
 31
0.0
  0
LINE
  5
    98
  8
0
  6
CONTINUOUS
 62
     7
 10
95.7013410018163
 20
-90.4571916326704
 30
0.0
 11
92.7469177246094
 21
-90.9781360626221
 31
0.0
  0
LINE
  5
    99
  8
0
  6
CONTINUOUS
 62
     7
 10
92.7469177246094
 20
-90.9781360626221
 30
0.0
 11
95.7013410018163
 21
-91.4990804925737
 31
0.0
  0
LINE
  5
    9A
  8
0
  6
CONTINUOUS
 62
     7
 10
110.042494447402
 20
-91.4990804925737
 30
0.0
 11
112.996917724609
 21
-90.9781360626221
 31
0.0
  0
LINE
  5
    9B
  8
0
  6
CONTINUOUS
 62
     7
 10
112.996917724609
 20
-90.9781360626221
 30
0.0
 11
110.042494447402
 21
-90.4571916326704
 31
0.0
  0
ENDBLK
  5
    9C
  8
0
  6
CONTINUOUS
 62
     7
  0
BLOCK
  5
    9D
  8
0
  6
CONTINUOUS
 62
     7
  2
*UDIM2073
 70
    65
 10
0.0
 20
0.0
 30
0.0
  3
*UDIM2073
  0
TEXT
  5
    9E
  8
0
  6
CONTINUOUS
 62
     7
 10
87.4469176758321
 20
-21.4899444474159
 30
0.0
 40
3.00000002980232
  1
135
 50
359.999999844103
 41
0.933333333333333
 72
     1
 11
91.3469177186489
 21
-19.9899444431067
 31
0.0
 73
     2
  0
LINE
  5
    9F
  8
0
  6
CONTINUOUS
 62
     7
 10
74.7469177246094
 20
-49.2732086181641
 30
0.0
 11
74.7469177246094
 21
-20.4899444580078
 31
0.0
  0
LINE
  5
    A0
  8
0
  6
CONTINUOUS
 62
     7
 10
108.496917724609
 20
-49.2732086181641
 30
0.0
 11
108.496917724609
 21
-20.4899444580078
 31
0.0
  0
LINE
  5
    A1
  8
0
  6
CONTINUOUS
 62
     7
 10
74.7469177246094
 20
-22.4899444580078
 30
0.0
 11
108.496917724609
 21
-22.4899444580078
 31
0.0
  0
LINE
  5
    A2
  8
0
  6
CONTINUOUS
 62
     7
 10
77.7013410018163
 20
-21.9690000280562
 30
0.0
 11
74.7469177246094
 21
-22.4899444580078
 31
0.0
  0
LINE
  5
    A3
  8
0
  6
CONTINUOUS
 62
     7
 10
74.7469177246094
 20
-22.4899444580078
 30
0.0
 11
77.7013410018163
 21
-23.0108888879595
 31
0.0
  0
LINE
  5
    A4
  8
0
  6
CONTINUOUS
 62
     7
 10
105.542494447402
 20
-23.0108888879595
 30
0.0
 11
108.496917724609
 21
-22.4899444580078
 31
0.0
  0
LINE
  5
    A5
  8
0
  6
CONTINUOUS
 62
     7
 10
108.496917724609
 20
-22.4899444580078
 30
0.0
 11
105.542494447402
 21
-21.9690000280562
 31
0.0
  0
ENDBLK
  5
    A6
  8
0
  6
CONTINUOUS
 62
     7
  0
BLOCK
  5
    A7
  8
0
  6
CONTINUOUS
 62
     7
  2
*UDIM2074
 70
    65
 10
0.0
 20
0.0
 30
0.0
  3
*UDIM2074
  0
TEXT
  5
    A8
  8
0
  6
CONTINUOUS
 62
     7
 10
97.8469172129027
 20
-29.7270431450658
 30
0.0
 40
3.00000002980232
  1
63
 50
359.999999844103
 41
0.933333333333333
 72
     1
 11
100.346917241812
 21
-28.2270431369543
 31
0.0
 73
     2
  0
LINE
  5
    A9
  8
0
  6
CONTINUOUS
 62
     7
 10
92.7469177246094
 20
-39.395717457309
 30
0.0
 11
92.7469177246094
 21
-28.7270431518555
 31
0.0
  0
LINE
  5
    AA
  8
0
  6
CONTINUOUS
 62
     7
 10
108.496917724609
 20
-49.2732086181641
 30
0.0
 11
108.496917724609
 21
-28.7270431518555
 31
0.0
  0
LINE
  5
    AB
  8
0
  6
CONTINUOUS
 62
     7
 10
92.7469177246094
 20
-30.7270431518555
 30
0.0
 11
108.496917724609
 21
-30.7270431518555
 31
0.0
  0
LINE
  5
    AC
  8
0
  6
CONTINUOUS
 62
     7
 10
95.7013410018163
 20
-30.2060987219038
 30
0.0
 11
92.7469177246094
 21
-30.7270431518555
 31
0.0
  0
LINE
  5
    AD
  8
0
  6
CONTINUOUS
 62
     7
 10
92.7469177246094
 20
-30.7270431518555
 30
0.0
 11
95.7013410018163
 21
-31.2479875818071
 31
0.0
  0
LINE
  5
    AE
  8
0
  6
CONTINUOUS
 62
     7
 10
105.542494447402
 20
-31.2479875818071
 30
0.0
 11
108.496917724609
 21
-30.7270431518555
 31
0.0
  0
LINE
  5
    AF
  8
0
  6
CONTINUOUS
 62
     7
 10
108.496917724609
 20
-30.7270431518555
 30
0.0
 11
105.542494447402
 21
-30.2060987219038
 31
0.0
  0
ENDBLK
  5
    B0
  8
0
  6
CONTINUOUS
 62
     7
  0
BLOCK
  5
    B1
  8
0
  6
CONTINUOUS
 62
     7
  2
*HATCH377
 70
    65
 10
0.0
 20
0.0
 30
0.0
  3
*HATCH377
  0
LINE
  5
    B2
  8
0
  6
CONTINUOUS
 62
    52
 10
-11.7279224395752
 20
1.0
 30
0.0
 11
-11.9763488769531
 21
0.75157368183136
 31
0.0
  0
LINE
  5
    B3
  8
0
  6
CONTINUOUS
 62
    52
 10
-9.60660171508789
 20
1.0
 30
0.0
 11
-11.6066026687622
 21
-1.0
 31
0.0
  0
LINE
  5
    B4
  8
0
  6
CONTINUOUS
 62
    52
 10
-7.48528146743774
 20
1.0
 30
0.0
 11
-9.48528289794922
 21
-1.0
 31
0.0
  0
LINE
  5
    B5
  8
0
  6
CONTINUOUS
 62
    52
 10
-5.3639612197876
 20
1.0
 30
0.0
 11
-7.36396265029907
 21
-1.0
 31
0.0
  0
LINE
  5
    B6
  8
0
  6
CONTINUOUS
 62
    52
 10
-3.47947335243225
 20
0.763167560100555
 30
0.0
 11
-5.24264097213745
 21
-1.0
 31
0.0
  0
LINE
  5
    B7
  8
0
  6
CONTINUOUS
 62
    52
 10
-2.51160907745361
 20
-0.390288293361664
 30
0.0
 11
-3.1213207244873
 21
-1.0
 31
0.0
  0
ENDBLK
  5
    B8
  8
0
  6
CONTINUOUS
 62
     7
  0
BLOCK
  5
    B9
  8
0
  6
CONTINUOUS
 62
     7
  2
*HATCH378
 70
    65
 10
0.0
 20
0.0
 30
0.0
  3
*HATCH378
  0
LINE
  5
    BA
  8
0
  6
CONTINUOUS
 62
    52
 10
5.24264097213745
 20
1.0
 30
0.0
 11
3.24264073371887
 21
-1.0
 31
0.0
  0
LINE
  5
    BB
  8
0
  6
CONTINUOUS
 62
    52
 10
7.3639612197876
 20
1.0
 30
0.0
 11
5.3639612197876
 21
-1.0
 31
0.0
  0
LINE
  5
    BC
  8
0
  6
CONTINUOUS
 62
    52
 10
9.48528099060059
 20
1.0
 30
0.0
 11
7.4852819442749
 21
-1.0
 31
0.0
  0
ENDBLK
  5
    BD
  8
0
  6
CONTINUOUS
 62
     7
  0
BLOCK
  5
    BE
  8
0
  6
CONTINUOUS
 62
     7
  2
*UDIM2075
 70
    65
 10
0.0
 20
0.0
 30
0.0
  3
*UDIM2075
  0
TEXT
  5
    BF
  8
0
  6
CONTINUOUS
 62
     7
 10
188.579147340917
 20
-69.9197669019844
 30
0.0
 40
3.00000002980232
  1
80
 50
449.160629333818
 41
0.933333333333333
 72
     1
 11
187.115931429971
 21
-67.3980612556342
 31
0.0
 73
     2
  0
TEXT
  5
    C0
  8
0
  6
CONTINUOUS
 62
     7
 10
188.052457998348
 20
-64.9115138297324
 30
0.0
 40
3.00000002980232
  1
°
 50
449.160629333818
 41
0.933333333333334
 72
     1
 11
186.56873312634
 21
-63.7896579687013
 31
0.0
 73
     2
  0
LINE
  5
    C1
  8
0
  6
CONTINUOUS
 62
     7
 10
173.513328378666
 20
-70.3441954902052
 30
0.0
 11
186.189847763701
 21
-80.9810582308001
 31
0.0
  0
LINE
  5
    C2
  8
0
  6
CONTINUOUS
 62
     7
 10
173.513328378666
 20
-61.702221746123
 30
0.0
 11
186.189847763701
 21
-51.0653590055281
 31
0.0
  0
ARC
  5
    C3
  8
0
  6
CONTINUOUS
 62
     7
 10
168.363776750358
 20
-66.0232086181641
 30
0.0
 40
21.2702830409726
 50
319.999999815233
 51
399.999999769042
  0
LINE
  5
    C4
  8
0
  6
CONTINUOUS
 62
     7
 10
186.157758968083
 20
-77.0974068523931
 30
0.0
 11
184.657758877463
 21
-79.695483011427
 31
0.0
  0
LINE
  5
    C5
  8
0
  6
CONTINUOUS
 62
     7
 10
184.657758877463
 20
-79.695483011427
 30
0.0
 11
186.95589213956
 21
-77.7671201022094
 31
0.0
  0
LINE
  5
    C6
  8
0
  6
CONTINUOUS
 62
     7
 10
186.95589213956
 20
-54.2792971341187
 30
0.0
 11
184.657758877463
 21
-52.3509342249011
 31
0.0
  0
LINE
  5
    C7
  8
0
  6
CONTINUOUS
 62
     7
 10
184.657758877463
 20
-52.3509342249011
 30
0.0
 11
186.157758968083
 21
-54.949010383935
 31
0.0
  0
ENDBLK
  5
    C8
  8
0
  6
CONTINUOUS
 62
     7
  0
BLOCK
  5
    C9
  8
0
  6
CONTINUOUS
 62
     7
  2
*UDIM2076
 70
    65
 10
0.0
 20
0.0
 30
0.0
  3
*UDIM2076
  0
TEXT
  5
    CA
  8
0
  6
CONTINUOUS
 62
     7
 10
154.049194329151
 20
-60.1381416609873
 30
0.0
 40
3.00000002980232
  1
Ø4
 50
449.999999844103
 41
0.933333333333333
 72
     1
 11
152.549194321036
 21
-57.6381416320801
 31
0.0
 73
     2
  0
LINE
  5
    CB
  8
0
  6
CONTINUOUS
 62
     7
 10
169.747283935547
 20
-64.0232086181641
 30
0.0
 11
153.049194335938
 21
-64.0232086181641
 31
0.0
  0
LINE
  5
    CC
  8
0
  6
CONTINUOUS
 62
     7
 10
169.747283935547
 20
-68.0232086181641
 30
0.0
 11
153.049194335938
 21
-68.0232086181641
 31
0.0
  0
LINE
  5
    CD
  8
0
  6
CONTINUOUS
 62
     7
 10
155.049194335938
 20
-55.1381416072448
 30
0.0
 11
155.049194335938
 21
-68.0232086181641
 31
0.0
  0
LINE
  5
    CE
  8
0
  6
CONTINUOUS
 62
     7
 10
154.528249905986
 20
-61.0687853409571
 30
0.0
 11
155.049194335938
 21
-64.0232086181641
 31
0.0
  0
LINE
  5
    CF
  8
0
  6
CONTINUOUS
 62
     7
 10
155.049194335938
 20
-64.0232086181641
 30
0.0
 11
155.570138765889
 21
-61.0687853409571
 31
0.0
  0
LINE
  5
    D0
  8
0
  6
CONTINUOUS
 62
     7
 10
155.570138765889
 20
-70.977631895371
 30
0.0
 11
155.049194335938
 21
-68.0232086181641
 31
0.0
  0
LINE
  5
    D1
  8
0
  6
CONTINUOUS
 62
     7
 10
155.049194335938
 20
-68.0232086181641
 30
0.0
 11
154.528249905986
 21
-70.977631895371
 31
0.0
  0
ENDBLK
  5
    D2
  8
0
  6
CONTINUOUS
 62
     7
  0
BLOCK
  5
    D3
  8
0
  6
CONTINUOUS
 62
     7
  2
*UDIM2077
 70
    65
 10
0.0
 20
0.0
 30
0.0
  3
*UDIM2077
  0
TEXT
  5
    D4
  8
0
  6
CONTINUOUS
 62
     7
 10
230.634905958443
 20
-44.5191211629892
 30
0.0
 40
3.00000002980232
  1
105
 50
359.999999896069
 41
0.933333333333333
 72
     1
 11
234.534905999899
 21
-43.0191211551428
 31
0.0
 73
     2
  0
LINE
  5
    D5
  8
0
  6
CONTINUOUS
 62
     7
 10
247.934906005859
 20
-47.9315838182041
 30
0.0
 11
247.934906005859
 21
-43.519121170044
 31
0.0
  0
LINE
  5
    D6
  8
0
  6
CONTINUOUS
 62
     7
 10
221.684906005859
 20
-47.6349274111502
 30
0.0
 11
221.684906005859
 21
-43.519121170044
 31
0.0
  0
LINE
  5
    D7
  8
0
  6
CONTINUOUS
 62
     7
 10
247.934906005859
 20
-45.5191211700439
 30
0.0
 11
221.684906005859
 21
-45.5191211700439
 31
0.0
  0
LINE
  5
    D8
  8
0
  6
CONTINUOUS
 62
     7
 10
244.980482728652
 20
-46.0400655999956
 30
0.0
 11
247.934906005859
 21
-45.5191211700439
 31
0.0
  0
LINE
  5
    D9
  8
0
  6
CONTINUOUS
 62
     7
 10
247.934906005859
 20
-45.5191211700439
 30
0.0
 11
244.980482728652
 21
-44.9981767400923
 31
0.0
  0
LINE
  5
    DA
  8
0
  6
CONTINUOUS
 62
     7
 10
224.639329283066
 20
-44.9981767400923
 30
0.0
 11
221.684906005859
 21
-45.5191211700439
 31
0.0
  0
LINE
  5
    DB
  8
0
  6
CONTINUOUS
 62
     7
 10
221.684906005859
 20
-45.5191211700439
 30
0.0
 11
224.639329283066
 21
-46.0400655999956
 31
0.0
  0
ENDBLK
  5
    DC
  8
0
  6
CONTINUOUS
 62
     7
  0
BLOCK
  5
    DD
  8
0
  6
CONTINUOUS
 62
     7
  2
*UDIM2078
 70
    65
 10
0.0
 20
0.0
 30
0.0
  3
*UDIM2078
  0
TEXT
  5
    DE
  8
0
  6
CONTINUOUS
 62
     7
 10
205.537345879181
 20
-69.635708665579
 30
0.0
 40
3.00000002980232
  1
100
 50
449.999999896069
 41
0.933333333333333
 72
     1
 11
204.037345871329
 21
-65.7357086241245
 31
0.0
 73
     2
  0
LINE
  5
    DF
  8
0
  6
CONTINUOUS
 62
     7
 10
221.853230374218
 20
-52.9607086181641
 30
0.0
 11
204.537345886231
 21
-52.9607086181641
 31
0.0
  0
LINE
  5
    E0
  8
0
  6
CONTINUOUS
 62
     7
 10
221.408245763637
 20
-77.9607086181641
 30
0.0
 11
204.537345886231
 21
-77.9607086181641
 31
0.0
  0
LINE
  5
    E1
  8
0
  6
CONTINUOUS
 62
     7
 10
206.537345886231
 20
-52.9607086181641
 30
0.0
 11
206.537345886231
 21
-77.9607086181641
 31
0.0
  0
LINE
  5
    E2
  8
0
  6
CONTINUOUS
 62
     7
 10
207.058290316182
 20
-55.915131895371
 30
0.0
 11
206.537345886231
 21
-52.9607086181641
 31
0.0
  0
LINE
  5
    E3
  8
0
  6
CONTINUOUS
 62
     7
 10
206.537345886231
 20
-52.9607086181641
 30
0.0
 11
206.016401456279
 21
-55.915131895371
 31
0.0
  0
LINE
  5
    E4
  8
0
  6
CONTINUOUS
 62
     7
 10
206.016401456279
 20
-75.0062853409571
 30
0.0
 11
206.537345886231
 21
-77.9607086181641
 31
0.0
  0
LINE
  5
    E5
  8
0
  6
CONTINUOUS
 62
     7
 10
206.537345886231
 20
-77.9607086181641
 30
0.0
 11
207.058290316182
 21
-75.0062853409571
 31
0.0
  0
ENDBLK
  5
    E6
  8
0
  6
CONTINUOUS
 62
     7
  0
BLOCK
  5
    E7
  8
0
  6
CONTINUOUS
 62
     7
  2
*UDIM2079
 70
    65
 10
0.0
 20
0.0
 30
0.0
  3
*UDIM2079
  0
TEXT
  5
    E8
  8
0
  6
CONTINUOUS
 62
     7
 10
212.296236026097
 20
-77.5133806682919
 30
0.0
 40
3.00000002980232
  1
47,75
 50
449.999999896069
 41
0.933333333333333
 72
     1
 11
210.796236023307
 21
-70.8133805990219
 31
0.0
 73
     2
  0
LINE
  5
    E9
  8
0
  6
CONTINUOUS
 62
     7
 10
221.408245763637
 20
-77.9607086181641
 30
0.0
 11
211.296236038208
 21
-77.9607086181641
 31
0.0
  0
LINE
  5
    EA
  8
0
  6
CONTINUOUS
 62
     7
 10
213.296236038208
 20
-64.1133805324634
 30
0.0
 11
213.296236038208
 21
-77.9607086181641
 31
0.0
  0
LINE
  5
    EB
  8
0
  6
CONTINUOUS
 62
     7
 10
212.775291608256
 20
-63.0687853409571
 30
0.0
 11
213.296236038208
 21
-66.0232086181641
 31
0.0
  0
LINE
  5
    EC
  8
0
  6
CONTINUOUS
 62
     7
 10
213.296236038208
 20
-66.0232086181641
 30
0.0
 11
213.81718046816
 21
-63.0687853409571
 31
0.0
  0
LINE
  5
    ED
  8
0
  6
CONTINUOUS
 62
     7
 10
213.81718046816
 20
-80.915131895371
 30
0.0
 11
213.296236038208
 21
-77.9607086181641
 31
0.0
  0
LINE
  5
    EE
  8
0
  6
CONTINUOUS
 62
     7
 10
213.296236038208
 20
-77.9607086181641
 30
0.0
 11
212.775291608256
 21
-80.915131895371
 31
0.0
  0
ENDBLK
  5
    EF
  8
0
  6
CONTINUOUS
 62
     7
  0
BLOCK
  5
    F0
  8
0
  6
CONTINUOUS
 62
     7
  2
*UDIM2080
 70
    65
 10
0.0
 20
0.0
 30
0.0
  3
*UDIM2080
  0
TEXT
  5
    F1
  8
0
  6
CONTINUOUS
 62
     7
 10
190.555996330188
 20
-96.759816181656
 30
0.0
 40
3.00000002980232
  1
5
 50
392.704034205866
 41
0.933333333333334
 72
     1
 11
190.67116699182
 21
-94.9032775239805
 31
0.0
 73
     2
  0
TEXT
  5
    F2
  8
0
  6
CONTINUOUS
 62
     7
 10
187.905357189368
 20
-98.4617598375203
 30
0.0
 40
3.00000002980232
  1
Ø
 50
392.704034205866
 41
0.933333333333334
 72
     1
 11
188.020527851
 21
-96.6052211798448
 31
0.0
 73
     2
  0
TEXT
  5
    F3
  8
0
  6
CONTINUOUS
 62
     7
 10
192.870046389413
 20
-95.2739923330225
 30
0.0
 40
3.00000002980232
  1
 (M4)
 50
392.704034205866
 41
0.933333333333333
 72
     1
 11
197.697464449927
 21
-90.3917760529282
 31
0.0
 73
     2
  0
LINE
  5
    F4
  8
0
  6
CONTINUOUS
 62
     7
 10
222.210826468649
 20
-77.6230213859227
 30
0.0
 11
188.445656764312
 21
-99.3032325781923
 31
0.0
  0
LINE
  5
    F5
  8
0
  6
CONTINUOUS
 62
     7
 10
224.415427067887
 20
-75.5883872178624
 30
0.0
 11
222.210826468649
 21
-77.6230213859227
 31
0.0
  0
LINE
  5
    F6
  8
0
  6
CONTINUOUS
 62
     7
 10
222.210826468649
 20
-77.6230213859227
 30
0.0
 11
224.978359172534
 21
-76.4651082920639
 31
0.0
  0
LINE
  5
    F7
  8
0
  6
CONTINUOUS
 62
     7
 10
218.954384943831
 20
-80.3330300184658
 30
0.0
 11
221.15898554307
 21
-78.2983958504054
 31
0.0
  0
LINE
  5
    F8
  8
0
  6
CONTINUOUS
 62
     7
 10
221.15898554307
 20
-78.2983958504054
 30
0.0
 11
218.391452839185
 21
-79.4563089442642
 31
0.0
  0
ENDBLK
  5
    F9
  8
0
  6
CONTINUOUS
 62
     7
  0
BLOCK
  5
    FA
  8
0
  6
CONTINUOUS
 62
     7
  2
*UDIM2081
 70
    65
 10
0.0
 20
0.0
 30
0.0
  3
*UDIM2081
  0
TEXT
  5
    FB
  8
0
  6
CONTINUOUS
 62
     7
 10
250.90990635978
 20
-72.0218543961125
 30
0.0
 40
3.00000002980232
  1
25
 50
359.999999896069
 41
0.933333333333333
 72
     1
 11
253.409906387329
 21
-70.5218543857336
 31
0.0
 73
     2
  0
LINE
  5
    FC
  8
0
  6
CONTINUOUS
 62
     7
 10
255.909906412164
 20
-73.0218544006348
 30
0.0
 11
241.684906005859
 21
-73.0218544006348
 31
0.0
  0
LINE
  5
    FD
  8
0
  6
CONTINUOUS
 62
     7
 10
250.889329283066
 20
-72.5009099706831
 30
0.0
 11
247.934906005859
 21
-73.0218544006348
 31
0.0
  0
LINE
  5
    FE
  8
0
  6
CONTINUOUS
 62
     7
 10
247.934906005859
 20
-73.0218544006348
 30
0.0
 11
250.889329283066
 21
-73.5427988305864
 31
0.0
  0
LINE
  5
    FF
  8
0
  6
CONTINUOUS
 62
     7
 10
238.730482728652
 20
-73.5427988305864
 30
0.0
 11
241.684906005859
 21
-73.0218544006348
 31
0.0
  0
LINE
  5
   100
  8
0
  6
CONTINUOUS
 62
     7
 10
241.684906005859
 20
-73.0218544006348
 30
0.0
 11
238.730482728652
 21
-72.5009099706831
 31
0.0
  0
ENDBLK
  5
   101
  8
0
  6
CONTINUOUS
 62
     7
  0
BLOCK
  5
   102
  8
0
  6
CONTINUOUS
 62
     7
  2
FRTESTR
 70
    64
 10
0.0
 20
0.0
 30
0.0
  3
FRTESTR
  0
LINE
  5
   103
  8
0
  6
CONTINUOUS
 62
     3
 10
62.838135984871
 20
162.986807662348
 30
0.0
 11
166.838120726082
 21
162.986807662348
 31
0.0
  0
ARC
  5
   104
  8
0
  6
CONTINUOUS
 62
     3
 10
62.838135984871
 20
162.486807662348
 30
0.0
 40
0.5
 50
89.9999999999999
 51
180.0
  0
ARC
  5
   105
  8
0
  6
CONTINUOUS
 62
     3
 10
166.838120726082
 20
162.486807662348
 30
0.0
 40
0.5
 50
360.0
 51
450.0
  0
ARC
  5
   106
  8
0
  6
CONTINUOUS
 62
     7
 10
114.838050281203
 20
56.7370206601576
 30
0.0
 40
2.74979860740193
 50
152.967149341799
 51
387.032850658201
  0
LINE
  5
   107
  8
0
  6
DASHDOT
 62
     7
 10
111.196317561829
 20
56.7370206601576
 30
0.0
 11
118.8519954582
 21
56.7370206601576
 31
0.0
  0
LINE
  5
   108
  8
0
  6
DASHDOT
 62
     7
 10
113.458222394848
 20
53.2367940082024
 30
0.0
 11
116.381299409826
 21
53.2367940082024
 31
0.0
  0
LINE
  5
   109
  8
0
  6
CONTINUOUS
 62
     7
 10
62.338135984871
 20
162.986807662348
 30
0.0
 11
166.838135984871
 21
162.986807662348
 31
0.0
  0
LINE
  5
   10A
  8
0
  6
CONTINUOUS
 62
     7
 10
125.588135984871
 20
80.2367924035587
 30
0.0
 11
125.588135984871
 21
120.23677714477
 31
0.0
  0
LINE
  5
   10B
  8
0
  6
CONTINUOUS
 62
     7
 10
104.088135984871
 20
80.2367924035587
 30
0.0
 11
104.088135984871
 21
120.23677714477
 31
0.0
  0
LINE
  5
   10C
  8
0
  6
CONTINUOUS
 62
     7
 10
104.088135984871
 20
80.2367924035587
 30
0.0
 11
125.588135984871
 21
80.2367924035587
 31
0.0
  0
LINE
  5
   10D
  8
0
  6
CONTINUOUS
 62
     7
 10
104.088135984871
 20
80.501288253168
 30
0.0
 11
125.588135984871
 21
80.501288253168
 31
0.0
  0
LINE
  5
   10E
  8
0
  6
CONTINUOUS
 62
     7
 10
167.338120726082
 20
123.986792403559
 30
0.0
 11
167.338120726082
 21
162.486807662348
 31
0.0
  0
LINE
  5
   10F
  8
0
  6
CONTINUOUS
 62
     7
 10
62.3381359848988
 20
123.986792403559
 30
0.0
 11
62.3381359848988
 21
162.486807662348
 31
0.0
  0
ARC
  5
   110
  8
0
  6
CONTINUOUS
 62
     7
 10
166.838135984871
 20
162.486807662348
 30
0.0
 40
0.5
 50
360.0
 51
450.0
  0
ARC
  5
   111
  8
0
  6
CONTINUOUS
 62
     7
 10
62.8381359848988
 20
162.486807662348
 30
0.0
 40
0.5
 50
89.9999999999999
 51
180.0
  0
LINE
  5
   112
  8
0
  6
CONTINUOUS
 62
     7
 10
104.088135984871
 20
94.3621131129781
 30
0.0
 11
125.588135984871
 21
94.3621131129781
 31
0.0
  0
LINE
  5
   113
  8
0
  6
CONTINUOUS
 62
     7
 10
104.088135984871
 20
88.2456476073611
 30
0.0
 11
125.588135984871
 21
88.2456476073611
 31
0.0
  0
LINE
  5
   114
  8
0
  6
CONTINUOUS
 62
     7
 10
104.088135984871
 20
82.2978289811495
 30
0.0
 11
125.588135984871
 21
82.2978289811495
 31
0.0
  0
LINE
  5
   115
  8
0
  6
CONTINUOUS
 62
     7
 10
104.088135984871
 20
81.4950818534312
 30
0.0
 11
125.588135984871
 21
81.4950818534312
 31
0.0
  0
LINE
  5
   116
  8
0
  6
CONTINUOUS
 62
   130
 10
167.338287353516
 20
60.2370452880859
 30
0.0
 11
167.338287353516
 21
69.2370071411133
 31
0.0
  0
LINE
  5
   117
  8
0
  6
CONTINUOUS
 62
     3
 10
175.338287353516
 20
49.2370338439941
 30
0.0
 11
175.338287353516
 21
53.7370376586914
 31
0.0
  0
LINE
  5
   118
  8
0
  6
CONTINUOUS
 62
     3
 10
167.338272094727
 20
181.237045288086
 30
0.0
 11
167.338272094727
 21
185.237060546875
 31
0.0
  0
LINE
  5
   119
  8
0
  6
DOT
 62
   130
 10
167.338136930918
 20
185.237045288086
 30
0.0
 11
197.838287353516
 21
185.237045288086
 31
0.0
  0
LINE
  5
   11A
  8
0
  6
CONTINUOUS
 62
   130
 10
175.338195800781
 20
77.4869995117187
 30
0.0
 11
175.338195800781
 21
87.9869995117187
 31
0.0
  0
LINE
  5
   11B
  8
0
  6
CONTINUOUS
 62
   130
 10
175.338195800781
 20
129.237014770508
 30
0.0
 11
175.338195800781
 21
153.237060546875
 31
0.0
  0
LINE
  5
   11C
  8
0
  6
DOT
 62
   130
 10
167.338136930918
 20
40.4870300292969
 30
0.0
 11
197.838303130013
 21
40.4870300292969
 31
0.0
  0
LINE
  5
   11D
  8
0
  6
CONTINUOUS
 62
     3
 10
175.338302612305
 20
164.737060546875
 30
0.0
 11
175.338302612305
 21
171.987060546875
 31
0.0
  0
LINE
  5
   11E
  8
0
  6
DOT
 62
   130
 10
197.838307542746
 20
40.4870300292969
 30
0.0
 11
197.838307542746
 21
185.237045288088
 31
0.0
  0
LINE
  5
   11F
  8
0
  6
DOT
 62
   130
 10
198.838287353516
 20
98.2369995117188
 30
0.0
 11
198.838287353516
 21
118.236999511719
 31
0.0
  0
LINE
  5
   120
  8
0
  6
CONTINUOUS
 62
   130
 10
174.338302612305
 20
87.9869995117187
 30
0.0
 11
174.338302612305
 21
123.237014770508
 31
0.0
  0
LINE
  5
   121
  8
0
  6
CONTINUOUS
 62
     3
 10
174.338302612305
 20
64.2370452880859
 30
0.0
 11
174.338302612305
 21
69.2370071411133
 31
0.0
  0
LINE
  5
   122
  8
0
  6
DOT
 62
   130
 10
197.838302612305
 20
118.236999511719
 30
0.0
 11
198.838287353516
 21
118.236999511719
 31
0.0
  0
LINE
  5
   123
  8
0
  6
DOT
 62
   130
 10
197.838287353516
 20
98.2369995117188
 30
0.0
 11
198.838287353516
 21
98.2369995117188
 31
0.0
  0
LINE
  5
   124
  8
0
  6
CONTINUOUS
 62
   130
 10
167.338272094727
 20
157.237045288086
 30
0.0
 11
167.338272094727
 21
160.237045288086
 31
0.0
  0
LINE
  5
   125
  8
0
  6
CONTINUOUS
 62
     5
 10
62.3382185799735
 20
58.4870643615723
 30
0.0
 11
62.3382185799735
 21
58.9870948791504
 31
0.0
  0
LINE
  5
   126
  8
0
  6
CONTINUOUS
 62
     5
 10
62.3382338387626
 20
150.987030029297
 30
0.0
 11
62.3382338387626
 21
162.487106323242
 31
0.0
  0
LINE
  5
   127
  8
0
  6
CONTINUOUS
 62
     5
 10
62.3382178023051
 20
58.4870630690152
 30
0.0
 11
62.484679290483
 21
58.1335093063481
 31
0.0
  0
LINE
  5
   128
  8
0
  6
CONTINUOUS
 62
     5
 10
62.4846836936359
 20
58.1335122424914
 30
0.0
 11
62.8382183999341
 21
57.9871270481104
 31
0.0
  0
LINE
  5
   129
  8
0
  6
CONTINUOUS
 62
     5
 10
136.338287244618
 20
57.987178118298
 30
0.0
 11
166.838287244618
 21
57.987178118298
 31
0.0
  0
LINE
  5
   12A
  8
0
  6
CONTINUOUS
 62
     5
 10
62.8382147652763
 20
57.9871253967285
 30
0.0
 11
63.3382338387626
 21
57.9871253967285
 31
0.0
  0
LINE
  5
   12B
  8
0
  6
CONTINUOUS
 62
     5
 10
166.83829354392
 20
57.9870553064633
 30
0.0
 11
167.191854934977
 21
58.1335053439705
 31
0.0
  0
LINE
  5
   12C
  8
0
  6
CONTINUOUS
 62
     5
 10
167.191853996356
 20
58.1335071470874
 30
0.0
 11
167.338307854537
 21
58.4870609258639
 31
0.0
  0
LINE
  5
   12D
  8
0
  6
CONTINUOUS
 62
     5
 10
167.338311084478
 20
58.4870605468785
 30
0.0
 11
167.338311084478
 21
162.487106323246
 31
0.0
  0
LINE
  5
   12E
  8
0
  6
CONTINUOUS
 62
     3
 10
140.038223266602
 20
67.9176025390625
 30
0.0
 11
140.038223266602
 21
76.056396484375
 31
0.0
  0
LINE
  5
   12F
  8
0
  6
CONTINUOUS
 62
     3
 10
140.038211794698
 20
67.9176002147033
 30
0.0
 11
141.43608466842
 21
66.3108649975533
 31
0.0
  0
LINE
  5
   130
  8
0
  6
CONTINUOUS
 62
     3
 10
141.436107419561
 20
66.3108682693334
 30
0.0
 11
143.229335601333
 21
65.1617746794285
 31
0.0
  0
LINE
  5
   131
  8
0
  6
CONTINUOUS
 62
     3
 10
143.22932433555
 20
65.1617736600489
 30
0.0
 11
145.273269688406
 21
64.5630798380709
 31
0.0
  0
LINE
  5
   132
  8
0
  6
CONTINUOUS
 62
     3
 10
145.27326965332
 20
64.5630798339844
 30
0.0
 11
147.403076171875
 21
64.5630798339844
 31
0.0
  0
LINE
  5
   133
  8
0
  6
CONTINUOUS
 62
     3
 10
147.403074283542
 20
64.563079134326
 30
0.0
 11
149.447019608307
 21
65.1617653710307
 31
0.0
  0
LINE
  5
   134
  8
0
  6
CONTINUOUS
 62
     3
 10
149.447042282035
 20
65.1617771509729
 30
0.0
 11
151.240285746951
 21
66.3108708319512
 31
0.0
  0
LINE
  5
   135
  8
0
  6
CONTINUOUS
 62
     3
 10
151.240253901365
 20
66.3108517885461
 30
0.0
 11
152.638172653596
 21
67.9176862071619
 31
0.0
  0
LINE
  5
   136
  8
0
  6
CONTINUOUS
 62
     3
 10
152.638183596164
 20
67.9176940877189
 30
0.0
 11
152.63822937253
 21
76.0564422583719
 31
0.0
  0
LINE
  5
   137
  8
0
  6
CONTINUOUS
 62
     3
 10
151.240307779916
 20
77.6632378465591
 30
0.0
 11
152.63822651189
 21
76.0564415686793
 31
0.0
  0
LINE
  5
   138
  8
0
  6
CONTINUOUS
 62
     3
 10
149.447083332064
 20
78.8123344875852
 30
0.0
 11
151.24032679698
 21
77.6632408066069
 31
0.0
  0
LINE
  5
   139
  8
0
  6
CONTINUOUS
 62
     3
 10
147.403143527072
 20
79.4110194142927
 30
0.0
 11
149.447073523386
 21
78.8123332069935
 31
0.0
  0
LINE
  5
   13A
  8
0
  6
CONTINUOUS
 62
     3
 10
145.273315429688
 20
79.411018371582
 30
0.0
 11
147.403137207031
 21
79.411018371582
 31
0.0
  0
LINE
  5
   13B
  8
0
  6
CONTINUOUS
 62
     3
 10
143.22939251271
 20
78.8123351062617
 30
0.0
 11
145.273322509023
 21
79.4110213135609
 31
0.0
  0
LINE
  5
   13C
  8
0
  6
CONTINUOUS
 62
     3
 10
141.436162186518
 20
77.663250527544
 30
0.0
 11
143.229405651434
 21
78.8123442085223
 31
0.0
  0
LINE
  5
   13D
  8
0
  6
CONTINUOUS
 62
     3
 10
140.038211705132
 20
76.0563873192687
 30
0.0
 11
141.436130404666
 21
77.6632293554993
 31
0.0
  0
LINE
  5
   13E
  8
0
  6
CONTINUOUS
 62
     3
 10
136.338287354044
 20
150.487045288378
 30
0.0
 11
167.338287354044
 21
150.487106323532
 31
0.0
  0
LINE
  5
   13F
  8
0
  6
CONTINUOUS
 62
     3
 10
62.3382263183594
 20
160.487106323242
 30
0.0
 11
167.338287353516
 21
160.487106323242
 31
0.0
  0
LINE
  5
   140
  8
0
  6
CONTINUOUS
 62
     3
 10
155.72851166259
 20
143.811012476882
 30
0.0
 11
155.84269317683
 21
143.23697683701
 31
0.0
  0
LINE
  5
   141
  8
0
  6
CONTINUOUS
 62
     3
 10
155.403367873258
 20
144.297655442636
 30
0.0
 11
155.728517425709
 21
143.811022143048
 31
0.0
  0
LINE
  5
   142
  8
0
  6
CONTINUOUS
 62
     3
 10
154.916713924944
 20
144.622800575332
 30
0.0
 11
155.403362490285
 21
144.297651051305
 31
0.0
  0
LINE
  5
   143
  8
0
  6
CONTINUOUS
 62
     3
 10
154.342683491923
 20
144.73697829243
 30
0.0
 11
154.916703865453
 21
144.622796775275
 31
0.0
  0
LINE
  5
   144
  8
0
  6
CONTINUOUS
 62
     3
 10
153.768660423449
 20
144.622793844053
 30
0.0
 11
154.342680796978
 21
144.736975361209
 31
0.0
  0
LINE
  5
   145
  8
0
  6
CONTINUOUS
 62
     3
 10
153.282047743402
 20
144.297656594134
 30
0.0
 11
153.76868104299
 21
144.622806146584
 31
0.0
  0
LINE
  5
   146
  8
0
  6
CONTINUOUS
 62
     3
 10
152.956879375141
 20
143.811020736964
 30
0.0
 11
153.282044165037
 21
144.297654027286
 31
0.0
  0
LINE
  5
   147
  8
0
  6
CONTINUOUS
 62
     3
 10
152.842691650575
 20
143.236975093355
 30
0.0
 11
152.956873164815
 21
143.811010733227
 31
0.0
  0
LINE
  5
   148
  8
0
  6
CONTINUOUS
 62
     3
 10
152.842697143555
 20
140.23698425293
 30
0.0
 11
152.842697143555
 21
143.23698425293
 31
0.0
  0
LINE
  5
   149
  8
0
  6
CONTINUOUS
 62
     3
 10
152.842690613609
 20
140.23697213591
 30
0.0
 11
152.956872130765
 21
139.662951762381
 31
0.0
  0
LINE
  5
   14A
  8
0
  6
CONTINUOUS
 62
     3
 10
152.956879031682
 20
139.662964296916
 30
0.0
 11
153.282043821577
 21
139.176331006594
 31
0.0
  0
LINE
  5
   14B
  8
0
  6
CONTINUOUS
 62
     3
 10
153.282043991515
 20
139.176330857389
 30
0.0
 11
153.768677281837
 21
138.851166067493
 31
0.0
  0
LINE
  5
   14C
  8
0
  6
CONTINUOUS
 62
     3
 10
153.76866310618
 20
138.851160107741
 30
0.0
 11
154.342683479709
 21
138.736978590586
 31
0.0
  0
LINE
  5
   14D
  8
0
  6
CONTINUOUS
 62
     3
 10
154.342680809192
 20
138.736975659364
 30
0.0
 11
154.916701182722
 21
138.85115717652
 31
0.0
  0
LINE
  5
   14E
  8
0
  6
CONTINUOUS
 62
     3
 10
154.916718848766
 20
138.851166791318
 30
0.0
 11
155.403367404756
 21
139.176331587802
 31
0.0
  0
LINE
  5
   14F
  8
0
  6
CONTINUOUS
 62
     3
 10
155.403369597655
 20
139.176334593321
 30
0.0
 11
155.728519150106
 21
139.662967892909
 31
0.0
  0
LINE
  5
   150
  8
0
  6
CONTINUOUS
 62
     3
 10
155.728506307879
 20
139.662948841054
 30
0.0
 11
155.842687825035
 21
140.236969214584
 31
0.0
  0
LINE
  5
   151
  8
0
  6
CONTINUOUS
 62
     3
 10
155.842697143555
 20
140.23698425293
 30
0.0
 11
155.842697143555
 21
143.23698425293
 31
0.0
  0
LINE
  5
   152
  8
0
  6
CONTINUOUS
 62
     3
 10
152.838287353516
 20
118.737007141113
 30
0.0
 11
155.838287353516
 21
118.737007141113
 31
0.0
  0
LINE
  5
   153
  8
0
  6
CONTINUOUS
 62
     3
 10
152.838287353516
 20
91.7370071411133
 30
0.0
 11
152.838287353516
 21
118.737007141113
 31
0.0
  0
LINE
  5
   154
  8
0
  6
CONTINUOUS
 62
     3
 10
152.838287353516
 20
91.7370071411133
 30
0.0
 11
155.838287353516
 21
91.7370071411133
 31
0.0
  0
LINE
  5
   155
  8
0
  6
CONTINUOUS
 62
     3
 10
155.838287353516
 20
91.7370071411133
 30
0.0
 11
155.838287353516
 21
118.737007141113
 31
0.0
  0
LINE
  5
   156
  8
0
  6
CONTINUOUS
 62
     5
 10
134.338287244524
 20
61.4870338439941
 30
0.0
 11
134.338287244524
 21
147.987033843994
 31
0.0
  0
LINE
  5
   157
  8
0
  6
CONTINUOUS
 62
     3
 10
65.8382034301758
 20
150.487030029297
 30
0.0
 11
136.338287353516
 21
150.487030029297
 31
0.0
  0
LINE
  5
   158
  8
0
  6
CONTINUOUS
 62
     5
 10
65.8382033211845
 20
148.987030029297
 30
0.0
 11
133.338287244524
 21
148.987030029297
 31
0.0
  0
LINE
  5
   159
  8
0
  6
CONTINUOUS
 62
     5
 10
133.338285092167
 20
148.98702735842
 30
0.0
 11
134.338285057938
 21
147.987027392648
 31
0.0
  0
LINE
  5
   15A
  8
0
  6
CONTINUOUS
 62
     5
 10
64.8382046972593
 20
147.987033253019
 30
0.0
 11
65.1310971538255
 21
148.694140797088
 31
0.0
  0
LINE
  5
   15B
  8
0
  6
CONTINUOUS
 62
     5
 10
65.131097676024
 20
148.694139678108
 30
0.0
 11
65.8382052200932
 21
148.987032134674
 31
0.0
  0
LINE
  5
   15C
  8
0
  6
CONTINUOUS
 62
     3
 10
62.3382301342415
 20
150.487045289516
 30
0.0
 11
65.8382034313606
 21
150.487030030727
 31
0.0
  0
LINE
  5
   15D
  8
0
  6
CONTINUOUS
 62
     5
 10
62.3382237635199
 20
58.9870948791505
 30
0.0
 11
62.3382237635199
 21
150.987049102783
 31
0.0
  0
LINE
  5
   15E
  8
0
  6
CONTINUOUS
 62
     5
 10
63.3382262094482
 20
57.9871025090021
 30
0.0
 11
135.338287245638
 21
57.9868125920188
 31
0.0
  0
LINE
  5
   15F
  8
0
  6
CONTINUOUS
 62
     5
 10
135.33828727611
 20
57.9868125982448
 30
0.0
 11
136.33828727611
 21
57.9867973394558
 31
0.0
  0
LINE
  5
   160
  8
0
  6
CONTINUOUS
 62
     5
 10
134.045396692332
 20
60.7799280313143
 30
0.0
 11
134.338289148898
 21
61.4870355753836
 31
0.0
  0
LINE
  5
   161
  8
0
  6
CONTINUOUS
 62
     5
 10
133.338290179516
 20
60.4870351109956
 30
0.0
 11
134.045397723585
 21
60.7799275675618
 31
0.0
  0
LINE
  5
   162
  8
0
  6
CONTINUOUS
 62
     5
 10
65.8382033211845
 20
60.4870338439941
 30
0.0
 11
133.338287244524
 21
60.4870338439941
 31
0.0
  0
LINE
  5
   163
  8
0
  6
CONTINUOUS
 62
     5
 10
65.1310968740999
 20
60.7799267955402
 30
0.0
 11
65.8382044181691
 21
60.4870343389739
 31
0.0
  0
LINE
  5
   164
  8
0
  6
CONTINUOUS
 62
     5
 10
64.8382039011968
 20
61.4870348092238
 30
0.0
 11
65.131096357763
 21
60.7799272651545
 31
0.0
  0
LINE
  5
   165
  8
0
  6
CONTINUOUS
 62
     5
 10
64.8382033211845
 20
61.4870338439941
 30
0.0
 11
64.8382033211845
 21
147.987033843994
 31
0.0
  0
LINE
  5
   166
  8
0
  6
CONTINUOUS
 62
     5
 10
104.088264356341
 20
79.1651916503906
 30
0.0
 11
104.088264356341
 21
120.942314147949
 31
0.0
  0
LINE
  5
   167
  8
0
  6
CONTINUOUS
 62
     5
 10
125.588264356341
 20
79.1651916503906
 30
0.0
 11
125.588264356341
 21
120.942314147949
 31
0.0
  0
LINE
  5
   168
  8
0
  6
CONTINUOUS
 62
     3
 10
160.338302612305
 20
84.4074249267578
 30
0.0
 11
162.338302612305
 21
84.4074249267578
 31
0.0
  0
LINE
  5
   169
  8
0
  6
CONTINUOUS
 62
     3
 10
159.984764993481
 20
84.260989862226
 30
0.0
 11
160.338326403992
 21
84.4074360904498
 31
0.0
  0
LINE
  5
   16A
  8
0
  6
CONTINUOUS
 62
     3
 10
159.838301945385
 20
83.9074242625673
 30
0.0
 11
159.98474054387
 21
84.2609780278191
 31
0.0
  0
LINE
  5
   16B
  8
0
  6
CONTINUOUS
 62
     3
 10
159.838302612305
 20
72.9074249267578
 30
0.0
 11
159.838302612305
 21
83.9074249267578
 31
0.0
  0
LINE
  5
   16C
  8
0
  6
CONTINUOUS
 62
     3
 10
159.838302118278
 20
72.9074246759504
 30
0.0
 11
159.984740716763
 21
72.5538709106986
 31
0.0
  0
LINE
  5
   16D
  8
0
  6
CONTINUOUS
 62
     3
 10
159.984760960179
 20
72.5538730699971
 30
0.0
 11
160.338322370691
 21
72.4074268417733
 31
0.0
  0
LINE
  5
   16E
  8
0
  6
CONTINUOUS
 62
     3
 10
160.338302612305
 20
72.4074249267578
 30
0.0
 11
162.338302612305
 21
72.4074249267578
 31
0.0
  0
LINE
  5
   16F
  8
0
  6
CONTINUOUS
 62
     3
 10
162.338302612305
 20
72.4074249267578
 30
0.0
 11
163.838302612305
 21
72.4074249267578
 31
0.0
  0
LINE
  5
   170
  8
0
  6
CONTINUOUS
 62
     3
 10
163.838285814719
 20
72.4074177335751
 30
0.0
 11
164.191831948319
 21
72.5538639618185
 31
0.0
  0
LINE
  5
   171
  8
0
  6
CONTINUOUS
 62
     3
 10
164.191854151671
 20
72.5538760126922
 30
0.0
 11
164.338308009852
 21
72.9074297914687
 31
0.0
  0
LINE
  5
   172
  8
0
  6
CONTINUOUS
 62
     3
 10
164.338302612305
 20
72.9074249267578
 30
0.0
 11
164.338302612305
 21
83.9074249267578
 31
0.0
  0
LINE
  5
   173
  8
0
  6
CONTINUOUS
 62
     3
 10
164.191852759365
 20
84.260981163616
 30
0.0
 11
164.338306617545
 21
83.9074273848396
 31
0.0
  0
LINE
  5
   174
  8
0
  6
CONTINUOUS
 62
     3
 10
163.83828863847
 20
84.4074229636115
 30
0.0
 11
164.191834772069
 21
84.260976735368
 31
0.0
  0
LINE
  5
   175
  8
0
  6
CONTINUOUS
 62
     5
 10
134.338241468157
 20
123.98705291748
 30
0.0
 11
134.338241468157
 21
124.98705291748
 31
0.0
  0
LINE
  5
   176
  8
0
  6
CONTINUOUS
 62
     3
 10
64.8381958007813
 20
124.487052917481
 30
0.0
 11
134.338241577148
 21
124.487052917481
 31
0.0
  0
LINE
  5
   177
  8
0
  6
CONTINUOUS
 62
     3
 10
64.8381958007813
 20
123.48705291748
 30
0.0
 11
134.338241577148
 21
123.48705291748
 31
0.0
  0
LINE
  5
   178
  8
0
  6
CONTINUOUS
 62
     5
 10
134.338241468157
 20
74.9870529174805
 30
0.0
 11
134.338241468157
 21
75.9870529174805
 31
0.0
  0
LINE
  5
   179
  8
0
  6
CONTINUOUS
 62
     3
 10
64.8381958007813
 20
75.4870529174805
 30
0.0
 11
134.338241577148
 21
75.4870529174805
 31
0.0
  0
LINE
  5
   17A
  8
0
  6
CONTINUOUS
 62
     3
 10
64.8381958007813
 20
74.4870529174805
 30
0.0
 11
134.338241577148
 21
74.4870529174805
 31
0.0
  0
LINE
  5
   17B
  8
0
  6
CONTINUOUS
 62
     3
 10
64.8381958007813
 20
111.48705291748
 30
0.0
 11
104.088233947754
 21
111.48705291748
 31
0.0
  0
LINE
  5
   17C
  8
0
  6
CONTINUOUS
 62
     3
 10
64.8381958007813
 20
110.48705291748
 30
0.0
 11
104.088233947754
 21
110.48705291748
 31
0.0
  0
LINE
  5
   17D
  8
0
  6
CONTINUOUS
 62
     3
 10
64.8381958007813
 20
88.4870529174805
 30
0.0
 11
104.088226318359
 21
88.4870529174805
 31
0.0
  0
LINE
  5
   17E
  8
0
  6
CONTINUOUS
 62
     3
 10
64.8381958007813
 20
87.4870529174805
 30
0.0
 11
104.088226318359
 21
87.4870529174805
 31
0.0
  0
LINE
  5
   17F
  8
0
  6
CONTINUOUS
 62
     5
 10
134.338241468157
 20
110.98705291748
 30
0.0
 11
134.338241468157
 21
111.98705291748
 31
0.0
  0
LINE
  5
   180
  8
0
  6
CONTINUOUS
 62
     3
 10
125.588264465332
 20
111.48705291748
 30
0.0
 11
134.338241577148
 21
111.48705291748
 31
0.0
  0
LINE
  5
   181
  8
0
  6
CONTINUOUS
 62
     3
 10
125.588264465332
 20
110.48705291748
 30
0.0
 11
134.338241577148
 21
110.48705291748
 31
0.0
  0
LINE
  5
   182
  8
0
  6
CONTINUOUS
 62
     5
 10
134.338241468157
 20
87.9870529174805
 30
0.0
 11
134.338241468157
 21
88.9870529174805
 31
0.0
  0
LINE
  5
   183
  8
0
  6
CONTINUOUS
 62
     3
 10
125.588256835938
 20
88.4870529174805
 30
0.0
 11
134.338241577148
 21
88.4870529174805
 31
0.0
  0
LINE
  5
   184
  8
0
  6
CONTINUOUS
 62
     3
 10
125.588256835938
 20
87.4870529174805
 30
0.0
 11
134.338241577148
 21
87.4870529174805
 31
0.0
  0
LINE
  5
   185
  8
0
  6
CONTINUOUS
 62
     5
 10
62.8346823948867
 20
57.9885749986729
 30
0.0
 11
135.338283468946
 21
57.9868126084805
 31
0.0
  0
LINE
  5
   186
  8
0
  6
CONTINUOUS
 62
     3
 10
166.088317871094
 20
58.487178118298
 30
0.0
 11
166.088317871094
 21
150.487102508545
 31
0.0
  0
LINE
  5
   187
  8
0
  6
CONTINUOUS
 62
     3
 10
63.5882225036621
 20
57.9885520935059
 30
0.0
 11
63.5882225036621
 21
150.4870262146
 31
0.0
  0
LINE
  5
   188
  8
0
  6
CONTINUOUS
 62
     5
 10
62.7028633895192
 20
58.0431651004869
 30
0.0
 11
62.7043396773642
 21
58.0446413883319
 31
0.0
  0
LINE
  5
   189
  8
0
  6
CONTINUOUS
 62
     5
 10
104.088264356341
 20
120.501495361328
 30
0.0
 11
125.588264356341
 21
120.501495361328
 31
0.0
  0
LINE
  5
   18A
  8
0
  6
CONTINUOUS
 62
     5
 10
104.088264356341
 20
120.942314147949
 30
0.0
 11
125.588264356341
 21
120.942314147949
 31
0.0
  0
LINE
  5
   18B
  8
0
  6
CONTINUOUS
 62
     5
 10
104.088264356341
 20
79.1651916503906
 30
0.0
 11
125.588264356341
 21
79.1651916503906
 31
0.0
  0
LINE
  5
   18C
  8
0
  6
CONTINUOUS
 62
     5
 10
104.088264356341
 20
79.8350677490234
 30
0.0
 11
125.588264356341
 21
79.8350677490234
 31
0.0
  0
LINE
  5
   18D
  8
0
  6
CONTINUOUS
 62
   130
 10
174.338302612305
 20
69.2370071411133
 30
0.0
 11
174.338302612305
 21
77.4869995117187
 31
0.0
  0
CIRCLE
  5
   18E
  8
0
  6
CONTINUOUS
 62
   130
 10
184.338333544337
 20
82.7370112096181
 30
0.0
 40
5.24998094314796
  0
LINE
  5
   18F
  8
0
  6
DASHDOT
 62
     7
 10
184.338333544337
 20
74.4870302664702
 30
0.0
 11
184.338333544337
 21
90.9869921527661
 31
0.0
  0
LINE
  5
   190
  8
0
  6
DASHDOT
 62
     7
 10
176.088352601189
 20
82.7370112096182
 30
0.0
 11
192.588314487485
 21
82.7370112096182
 31
0.0
  0
LINE
  5
   191
  8
0
  6
DOT
 62
   130
 10
167.338136930918
 20
29.9868076623477
 30
0.0
 11
167.338136930918
 21
57.9868245183649
 31
0.0
  0
LINE
  5
   192
  8
0
  6
DOT
 62
   130
 10
167.338136930918
 20
162.986807484462
 30
0.0
 11
167.338136930918
 21
190.980505782465
 31
0.0
  0
LINE
  5
   193
  8
0
  6
CONTINUOUS
 62
     2
 10
175.33813789222
 20
75.7368076623477
 30
0.0
 11
210.83813789222
 21
75.7368076623477
 31
0.0
  0
LINE
  5
   194
  8
0
  6
CONTINUOUS
 62
     2
 10
175.33813789222
 20
90.7368076623477
 30
0.0
 11
210.83813789222
 21
90.7368076623477
 31
0.0
  0
LINE
  5
   195
  8
0
  6
CONTINUOUS
 62
     2
 10
210.83813789222
 20
74.7368076623478
 30
0.0
 11
210.83813789222
 21
91.7368076623477
 31
0.0
  0
LINE
  5
   196
  8
0
  6
CONTINUOUS
 62
     2
 10
175.33813789222
 20
75.7368076623477
 30
0.0
 11
175.33813789222
 21
90.7368076623477
 31
0.0
  0
LINE
  5
   197
  8
0
  6
CONTINUOUS
 62
     2
 10
210.83813789222
 20
91.7368076623477
 30
0.0
 11
210.83813789222
 21
190.980505782465
 31
0.0
  0
LINE
  5
   198
  8
0
  6
CONTINUOUS
 62
     2
 10
210.83813789222
 20
29.9868076623477
 30
0.0
 11
210.83813789222
 21
74.7368038476505
 31
0.0
  0
LINE
  5
   199
  8
0
  6
CONTINUOUS
 62
     2
 10
36.3381340775223
 20
29.9868076623477
 30
0.0
 11
210.83813789222
 21
29.9868076623477
 31
0.0
  0
LINE
  5
   19A
  8
0
  6
CONTINUOUS
 62
     2
 10
36.3381340775223
 20
29.9868076623477
 30
0.0
 11
36.3381340775223
 21
190.980505782465
 31
0.0
  0
LINE
  5
   19B
  8
0
  6
CONTINUOUS
 62
     2
 10
175.33813789222
 20
169.986807662348
 30
0.0
 11
175.33813789222
 21
170.986807662348
 31
0.0
  0
LINE
  5
   19C
  8
0
  6
CONTINUOUS
 62
     2
 10
45.3381340775223
 20
169.986807662348
 30
0.0
 11
45.3381340775223
 21
170.986807662348
 31
0.0
  0
LINE
  5
   19D
  8
0
  6
CONTINUOUS
 62
     2
 10
175.33813789222
 20
49.9868076623477
 30
0.0
 11
175.33813789222
 21
50.9868076623478
 31
0.0
  0
LINE
  5
   19E
  8
0
  6
CONTINUOUS
 62
     2
 10
46.3381340775223
 20
49.9868076623477
 30
0.0
 11
174.338134077522
 21
49.9868076623477
 31
0.0
  0
LINE
  5
   19F
  8
0
  6
CONTINUOUS
 62
     2
 10
45.3381340775223
 20
49.9868076623477
 30
0.0
 11
45.3381340775223
 21
50.9868076623477
 31
0.0
  0
LINE
  5
   1A0
  8
0
  6
CONTINUOUS
 62
     2
 10
174.33813789222
 20
29.9868076623477
 30
0.0
 11
174.33813789222
 21
49.9868076623477
 31
0.0
  0
LINE
  5
   1A1
  8
0
  6
CONTINUOUS
 62
     2
 10
175.33813789222
 20
170.986807662348
 30
0.0
 11
175.33813789222
 21
190.986807662348
 31
0.0
  0
LINE
  5
   1A2
  8
0
  6
CONTINUOUS
 62
     2
 10
175.33813789222
 20
50.9868076623478
 30
0.0
 11
175.33813789222
 21
74.7368076623478
 31
0.0
  0
LINE
  5
   1A3
  8
0
  6
CONTINUOUS
 62
     2
 10
175.33813789222
 20
91.7368076623477
 30
0.0
 11
175.33813789222
 21
169.986807662348
 31
0.0
  0
LINE
  5
   1A4
  8
0
  6
CONTINUOUS
 62
     2
 10
175.33813789222
 20
29.9868076623477
 30
0.0
 11
175.33813789222
 21
49.9868076623477
 31
0.0
  0
LINE
  5
   1A5
  8
0
  6
CONTINUOUS
 62
     2
 10
45.3381340775223
 20
170.986807662348
 30
0.0
 11
45.3381340775223
 21
190.986807662348
 31
0.0
  0
LINE
  5
   1A6
  8
0
  6
CONTINUOUS
 62
     2
 10
45.3381340775223
 20
50.9868076623477
 30
0.0
 11
45.3381340775223
 21
169.986807662348
 31
0.0
  0
LINE
  5
   1A7
  8
0
  6
CONTINUOUS
 62
     2
 10
45.3381340775223
 20
29.9868076623477
 30
0.0
 11
45.3381340775223
 21
49.9868076623477
 31
0.0
  0
LINE
  5
   1A8
  8
0
  6
CONTINUOUS
 62
     2
 10
46.3381340775223
 20
29.9868076623477
 30
0.0
 11
46.3381340775223
 21
49.9868076623477
 31
0.0
  0
LINE
  5
   1A9
  8
0
  6
CONTINUOUS
 62
     2
 10
175.33813789222
 20
74.7368076623477
 30
0.0
 11
210.83813789222
 21
74.7368076623477
 31
0.0
  0
LINE
  5
   1AA
  8
0
  6
CONTINUOUS
 62
     2
 10
175.33813789222
 20
91.7368076623477
 30
0.0
 11
210.83813789222
 21
91.7368076623477
 31
0.0
  0
LINE
  5
   1AB
  8
0
  6
CONTINUOUS
 62
     2
 10
175.388140943977
 20
90.7368076623477
 30
0.0
 11
175.388140943977
 21
91.7368076623477
 31
0.0
  0
LINE
  5
   1AC
  8
0
  6
CONTINUOUS
 62
     2
 10
175.388140943977
 20
74.7368076623478
 30
0.0
 11
175.388140943977
 21
75.7368076623477
 31
0.0
  0
LINE
  5
   1AD
  8
0
  6
CONTINUOUS
 62
     2
 10
46.3381340775223
 20
169.986807662348
 30
0.0
 11
174.338134077522
 21
169.986807662348
 31
0.0
  0
LINE
  5
   1AE
  8
0
  6
CONTINUOUS
 62
     2
 10
46.3381340775223
 20
50.9868076623477
 30
0.0
 11
174.338134077522
 21
50.9868076623477
 31
0.0
  0
LINE
  5
   1AF
  8
0
  6
CONTINUOUS
 62
     2
 10
174.33813789222
 20
50.9868076623478
 30
0.0
 11
174.33813789222
 21
169.986807662348
 31
0.0
  0
LINE
  5
   1B0
  8
0
  6
CONTINUOUS
 62
     2
 10
46.3381340775223
 20
50.9868076623477
 30
0.0
 11
46.3381340775223
 21
169.986807662348
 31
0.0
  0
LINE
  5
   1B1
  8
0
  6
CONTINUOUS
 62
     2
 10
167.338135984871
 20
162.986806538415
 30
0.0
 11
174.338132316581
 21
169.986802870125
 31
0.0
  0
LINE
  5
   1B2
  8
0
  6
CONTINUOUS
 62
     2
 10
46.3381356602671
 20
169.986809526682
 30
0.0
 11
62.338135984871
 21
162.457400151209
 31
0.0
  0
LINE
  5
   1B3
  8
0
  6
CONTINUOUS
 62
     2
 10
167.338135984871
 20
57.9868254644128
 30
0.0
 11
174.338155138938
 21
50.9868027700006
 31
0.0
  0
LINE
  5
   1B4
  8
0
  6
CONTINUOUS
 62
     2
 10
46.3381386778443
 20
50.986809283945
 30
0.0
 11
62.338135984871
 21
58.5162208973637
 31
0.0
  0
LINE
  5
   1B5
  8
0
  6
CONTINUOUS
 62
     2
 10
174.338076857063
 20
170.980505782465
 30
0.0
 11
174.338076857063
 21
190.980505782465
 31
0.0
  0
LINE
  5
   1B6
  8
0
  6
CONTINUOUS
 62
     2
 10
45.3381340775223
 20
170.980505782465
 30
0.0
 11
175.33813789222
 21
170.980505782465
 31
0.0
  0
LINE
  5
   1B7
  8
0
  6
CONTINUOUS
 62
     2
 10
36.3381340775223
 20
190.980505782465
 30
0.0
 11
45.3381340775223
 21
190.980505782465
 31
0.0
  0
LINE
  5
   1B8
  8
0
  6
CONTINUOUS
 62
     2
 10
115.343405041228
 20
190.980505782465
 30
0.0
 11
175.33813789222
 21
190.980505782465
 31
0.0
  0
ARC
  5
   1B9
  8
0
  6
CONTINUOUS
 62
     2
 10
110.338105467293
 20
195.127691142981
 30
0.0
 40
6.50016693934245
 50
219.643748317915
 51
320.356251682085
  0
LINE
  5
   1BA
  8
0
  6
CONTINUOUS
 62
     2
 10
105.332805893357
 20
190.980505782465
 30
0.0
 11
115.343405041228
 21
190.980505782465
 31
0.0
  0
LINE
  5
   1BB
  8
0
  6
CONTINUOUS
 62
     2
 10
46.3381340775223
 20
170.986807662348
 30
0.0
 11
46.3381340775223
 21
190.986807662348
 31
0.0
  0
LINE
  5
   1BC
  8
0
  6
CONTINUOUS
 62
     2
 10
45.3381340775223
 20
190.980505782465
 30
0.0
 11
105.332805893357
 21
190.980505782465
 31
0.0
  0
LINE
  5
   1BD
  8
0
  6
CONTINUOUS
 62
     2
 10
175.33813789222
 20
190.980505782465
 30
0.0
 11
210.83813789222
 21
190.980505782465
 31
0.0
  0
POINT
  5
   1BE
  8
0
  6
CONTINUOUS
 62
     2
 10
114.838135984871
 20
110.486807662348
 30
0.0
  0
ENDBLK
  5
   1BF
  8
0
  6
CONTINUOUS
 62
     7
  0
BLOCK
  5
   1C0
  8
0
  6
CONTINUOUS
 62
     7
  2
TERM_ANT_
 70
    64
 10
0.0
 20
0.0
 30
0.0
  3
TERM_ANT_
  0
LINE
  5
   1C1
  8
0
  6
CONTINUOUS
 62
     3
 10
104.83820302152
 20
17.736790496214
 30
0.0
 11
104.83820302152
 21
25.2368000329572
 31
0.0
  0
LINE
  5
   1C2
  8
0
  6
CONTINUOUS
 62
     3
 10
104.83820302152
 20
17.736790496214
 30
0.0
 11
106.08820302152
 21
17.736790496214
 31
0.0
  0
LINE
  5
   1C3
  8
0
  6
CONTINUOUS
 62
     3
 10
106.08820302152
 20
-2.26319996704281
 30
0.0
 11
106.08820302152
 21
17.7367847741681
 31
0.0
  0
LINE
  5
   1C4
  8
0
  6
CONTINUOUS
 62
     3
 10
106.08820302152
 20
-2.2631999670428
 30
0.0
 11
123.58820302152
 21
-2.2631999670428
 31
0.0
  0
LINE
  5
   1C5
  8
0
  6
CONTINUOUS
 62
     3
 10
123.58820302152
 20
-2.26319996704281
 30
0.0
 11
123.58820302152
 21
17.7367847741681
 31
0.0
  0
LINE
  5
   1C6
  8
0
  6
CONTINUOUS
 62
     3
 10
123.58820302152
 20
17.736790496214
 30
0.0
 11
124.83820302152
 21
17.736790496214
 31
0.0
  0
LINE
  5
   1C7
  8
0
  6
CONTINUOUS
 62
     3
 10
124.83820302152
 20
17.736790496214
 30
0.0
 11
124.83820302152
 21
25.2368000329572
 31
0.0
  0
CIRCLE
  5
   1C8
  8
0
  6
CONTINUOUS
 62
     3
 10
114.838135984871
 20
7.73682142327932
 30
0.0
 40
4.1000570117577
  0
LINE
  5
   1C9
  8
0
  6
CONTINUOUS
 62
     7
 10
69.8382030215199
 20
17.736790496214
 30
0.0
 11
69.8382030215199
 21
25.2368000329572
 31
0.0
  0
LINE
  5
   1CA
  8
0
  6
CONTINUOUS
 62
     7
 10
89.8382030215199
 20
17.736790496214
 30
0.0
 11
89.8382030215199
 21
25.2368000329572
 31
0.0
  0
CIRCLE
  5
   1CB
  8
0
  6
CONTINUOUS
 62
     7
 10
79.838135984871
 20
7.73682142327933
 30
0.0
 40
4.1000570117577
  0
LINE
  5
   1CC
  8
0
  6
CONTINUOUS
 62
     7
 10
71.0882030215199
 20
-2.26319996704281
 30
0.0
 11
71.0882030215199
 21
17.7367847741681
 31
0.0
  0
LINE
  5
   1CD
  8
0
  6
CONTINUOUS
 62
     7
 10
88.5882030215199
 20
-2.26319996704281
 30
0.0
 11
88.5882030215199
 21
17.7367847741681
 31
0.0
  0
LINE
  5
   1CE
  8
0
  6
CONTINUOUS
 62
     7
 10
71.0882030215199
 20
-2.2631999670428
 30
0.0
 11
88.5882030215199
 21
-2.2631999670428
 31
0.0
  0
LINE
  5
   1CF
  8
0
  6
CONTINUOUS
 62
     7
 10
69.8382030215199
 20
17.736790496214
 30
0.0
 11
71.0882030215199
 21
17.736790496214
 31
0.0
  0
LINE
  5
   1D0
  8
0
  6
CONTINUOUS
 62
     7
 10
88.5882030215199
 20
17.736790496214
 30
0.0
 11
89.8382030215199
 21
17.736790496214
 31
0.0
  0
LINE
  5
   1D1
  8
0
  6
CONTINUOUS
 62
     7
 10
139.838068948222
 20
17.736790496214
 30
0.0
 11
139.838068948222
 21
25.2368000329572
 31
0.0
  0
LINE
  5
   1D2
  8
0
  6
CONTINUOUS
 62
     7
 10
159.838068948222
 20
17.736790496214
 30
0.0
 11
159.838068948222
 21
25.2368000329572
 31
0.0
  0
LINE
  5
   1D3
  8
0
  6
CONTINUOUS
 62
     7
 10
158.588068948222
 20
-2.26319996704281
 30
0.0
 11
158.588068948222
 21
17.7367847741681
 31
0.0
  0
LINE
  5
   1D4
  8
0
  6
CONTINUOUS
 62
     7
 10
141.088068948222
 20
-2.26319996704281
 30
0.0
 11
141.088068948222
 21
17.7367847741681
 31
0.0
  0
LINE
  5
   1D5
  8
0
  6
CONTINUOUS
 62
     7
 10
141.088068948222
 20
-2.2631999670428
 30
0.0
 11
158.588068948222
 21
-2.2631999670428
 31
0.0
  0
CIRCLE
  5
   1D6
  8
0
  6
CONTINUOUS
 62
     7
 10
149.838135984871
 20
7.73682142327932
 30
0.0
 40
4.1000570117577
  0
LINE
  5
   1D7
  8
0
  6
CONTINUOUS
 62
     7
 10
139.838068948222
 20
17.736790496214
 30
0.0
 11
141.088068948222
 21
17.736790496214
 31
0.0
  0
LINE
  5
   1D8
  8
0
  6
CONTINUOUS
 62
     7
 10
158.588068948222
 20
17.736790496214
 30
0.0
 11
159.838068948222
 21
17.736790496214
 31
0.0
  0
POINT
  5
   1D9
  8
0
  6
CONTINUOUS
 62
     7
 10
114.838135984871
 20
25.2368000329572
 30
0.0
  0
LINE
  5
   1DA
  8
0
  6
DASHDOT
 62
     7
 10
149.838135984871
 20
0.636764411521626
 30
0.0
 11
149.838135984871
 21
14.836878435037
 31
0.0
  0
LINE
  5
   1DB
  8
0
  6
DASHDOT
 62
     7
 10
142.738078973113
 20
7.73682142327932
 30
0.0
 11
156.938192996629
 21
7.73682142327932
 31
0.0
  0
LINE
  5
   1DC
  8
0
  6
DASHDOT
 62
     7
 10
114.838135984871
 20
0.636764411521628
 30
0.0
 11
114.838135984871
 21
14.836878435037
 31
0.0
  0
LINE
  5
   1DD
  8
0
  6
DASHDOT
 62
     7
 10
107.738078973113
 20
7.73682142327932
 30
0.0
 11
121.938192996629
 21
7.73682142327932
 31
0.0
  0
LINE
  5
   1DE
  8
0
  6
DASHDOT
 62
     7
 10
79.838135984871
 20
0.63676441152163
 30
0.0
 11
79.838135984871
 21
14.836878435037
 31
0.0
  0
LINE
  5
   1DF
  8
0
  6
DASHDOT
 62
     7
 10
72.7380789731133
 20
7.73682142327933
 30
0.0
 11
86.9381929966287
 21
7.73682142327933
 31
0.0
  0
LINE
  5
   1E0
  8
0
  6
DASHDOT
 62
     7
 10
37.7380789731133
 20
7.73682142327933
 30
0.0
 11
51.9381929966287
 21
7.73682142327933
 31
0.0
  0
LINE
  5
   1E1
  8
0
  6
DASHDOT
 62
     7
 10
44.838135984871
 20
0.63676441152163
 30
0.0
 11
44.838135984871
 21
14.836878435037
 31
0.0
  0
LINE
  5
   1E2
  8
0
  6
CONTINUOUS
 62
     7
 10
53.5882030215199
 20
17.736790496214
 30
0.0
 11
54.8382030215199
 21
17.736790496214
 31
0.0
  0
LINE
  5
   1E3
  8
0
  6
CONTINUOUS
 62
     7
 10
34.8382030215199
 20
17.736790496214
 30
0.0
 11
36.0882030215199
 21
17.736790496214
 31
0.0
  0
LINE
  5
   1E4
  8
0
  6
CONTINUOUS
 62
     7
 10
36.0882030215199
 20
-2.2631999670428
 30
0.0
 11
53.5882030215199
 21
-2.2631999670428
 31
0.0
  0
LINE
  5
   1E5
  8
0
  6
CONTINUOUS
 62
     7
 10
53.5882030215199
 20
-2.26319996704281
 30
0.0
 11
53.5882030215199
 21
17.7367847741681
 31
0.0
  0
LINE
  5
   1E6
  8
0
  6
CONTINUOUS
 62
     7
 10
36.0882030215199
 20
-2.26319996704281
 30
0.0
 11
36.0882030215199
 21
17.7367847741681
 31
0.0
  0
CIRCLE
  5
   1E7
  8
0
  6
CONTINUOUS
 62
     7
 10
44.838135984871
 20
7.73682142327933
 30
0.0
 40
4.1000570117577
  0
LINE
  5
   1E8
  8
0
  6
CONTINUOUS
 62
     7
 10
54.8382030215199
 20
17.736790496214
 30
0.0
 11
54.8382030215199
 21
25.2368000329572
 31
0.0
  0
LINE
  5
   1E9
  8
0
  6
CONTINUOUS
 62
     7
 10
34.8382030215199
 20
17.736790496214
 30
0.0
 11
34.8382030215199
 21
25.2368000329572
 31
0.0
  0
ENDBLK
  5
   1EA
  8
0
  6
CONTINUOUS
 62
     7
  0
BLOCK
  5
   1EB
  8
0
  6
CONTINUOUS
 62
     7
  2
*UDIM2082
 70
    65
 10
0.0
 20
0.0
 30
0.0
  3
*UDIM2082
  0
TEXT
  5
   1EC
  8
0
  6
CONTINUOUS
 62
     7
 10
229.039440253092
 20
47.085085573307
 30
0.0
 40
2.99999994933605
  1
8,2
 50
323.116461387534
 41
0.933333333333333
 72
     1
 11
233.059168660334
 21
45.9441285441929
 31
0.0
 73
     2
  0
TEXT
  5
   1ED
  8
0
  6
CONTINUOUS
 62
     7
 10
226.519890331314
 20
48.9756854470239
 30
0.0
 40
2.99999994933605
  1
Ø
 50
323.116461387534
 41
0.933333333333333
 72
     1
 11
228.300018813882
 21
49.5152616406098
 31
0.0
 73
     2
  0
LINE
  5
   1EE
  8
0
  6
CONTINUOUS
 62
     7
 10
234.678135314643
 20
41.6037430392124
 30
0.0
 11
212.373119783214
 21
58.3408035963128
 31
0.0
  0
LINE
  5
   1EF
  8
0
  6
CONTINUOUS
 62
     7
 10
217.672470082859
 20
55.015616021403
 30
0.0
 11
214.996687689732
 21
56.3721515294636
 31
0.0
  0
LINE
  5
   1F0
  8
0
  6
CONTINUOUS
 62
     7
 10
214.996687689732
 20
56.3721515294636
 30
0.0
 11
217.047138343255
 21
54.182253788137
 31
0.0
  0
LINE
  5
   1F1
  8
0
  6
CONTINUOUS
 62
     7
 10
209.697337390087
 20
59.6973391043734
 30
0.0
 11
212.373119783214
 21
58.3408035963128
 31
0.0
  0
LINE
  5
   1F2
  8
0
  6
CONTINUOUS
 62
     7
 10
212.373119783214
 20
58.3408035963128
 30
0.0
 11
210.322669129691
 21
60.5307013376393
 31
0.0
  0
ENDBLK
  5
   1F3
  8
0
  6
CONTINUOUS
 62
     7
  0
BLOCK
  5
   1F4
  8
0
  6
CONTINUOUS
 62
     7
  2
*UDIM2083
 70
    65
 10
0.0
 20
0.0
 30
0.0
  3
*UDIM2083
  0
TEXT
  5
   1F5
  8
0
  6
CONTINUOUS
 62
     7
 10
262.109876284652
 20
46.3129858608862
 30
0.0
 40
2.99999994933605
  1
17,5
 50
359.999999948034
 41
0.933333333333333
 72
     1
 11
267.409876196499
 21
47.8129858307739
 31
0.0
 73
     2
  0
LINE
  5
   1F6
  8
0
  6
CONTINUOUS
 62
     7
 10
259.184877599816
 20
52.3564689471546
 30
0.0
 11
259.184877599816
 21
43.3129858561059
 31
0.0
  0
LINE
  5
   1F7
  8
0
  6
CONTINUOUS
 62
     7
 10
252.184877495507
 20
52.3564689471546
 30
0.0
 11
252.184877495507
 21
43.3129858561059
 31
0.0
  0
LINE
  5
   1F8
  8
0
  6
CONTINUOUS
 62
     7
 10
272.709876106992
 20
45.3129858561059
 30
0.0
 11
252.184877495507
 21
45.3129858561059
 31
0.0
  0
LINE
  5
   1F9
  8
0
  6
CONTINUOUS
 62
     7
 10
262.139300877023
 20
45.8339302860576
 30
0.0
 11
259.184877599816
 21
45.3129858561059
 31
0.0
  0
LINE
  5
   1FA
  8
0
  6
CONTINUOUS
 62
     7
 10
259.184877599816
 20
45.3129858561059
 30
0.0
 11
262.139300877023
 21
44.7920414261543
 31
0.0
  0
LINE
  5
   1FB
  8
0
  6
CONTINUOUS
 62
     7
 10
249.230454218301
 20
44.7920414261543
 30
0.0
 11
252.184877495507
 21
45.3129858561059
 31
0.0
  0
LINE
  5
   1FC
  8
0
  6
CONTINUOUS
 62
     7
 10
252.184877495507
 20
45.3129858561059
 30
0.0
 11
249.230454218301
 21
45.8339302860576
 31
0.0
  0
ENDBLK
  5
   1FD
  8
0
  6
CONTINUOUS
 62
     7
  0
BLOCK
  5
   1FE
  8
0
  6
CONTINUOUS
 62
     7
  2
*UDIM2084
 70
    65
 10
0.0
 20
0.0
 30
0.0
  3
*UDIM2084
  0
TEXT
  5
   1FF
  8
0
  6
CONTINUOUS
 62
     7
 10
200.977316304152
 20
46.3129843324819
 30
0.0
 40
2.99999994933605
  1
20
 50
359.999999948034
 41
0.933333333333333
 72
     1
 11
203.477316263285
 21
47.812984304895
 31
0.0
 73
     2
  0
LINE
  5
   200
  8
0
  6
CONTINUOUS
 62
     7
 10
217.684930610737
 20
60.3564652516665
 30
0.0
 11
217.684930610737
 21
43.312984330227
 31
0.0
  0
LINE
  5
   201
  8
0
  6
CONTINUOUS
 62
     7
 10
209.684930491528
 20
60.3564652516665
 30
0.0
 11
209.684930491528
 21
43.312984330227
 31
0.0
  0
LINE
  5
   202
  8
0
  6
CONTINUOUS
 62
     7
 10
217.684930610737
 20
45.312984330227
 30
0.0
 11
200.977316305505
 21
45.312984330227
 31
0.0
  0
LINE
  5
   203
  8
0
  6
CONTINUOUS
 62
     7
 10
220.639353887944
 20
45.8339287601786
 30
0.0
 11
217.684930610737
 21
45.312984330227
 31
0.0
  0
LINE
  5
   204
  8
0
  6
CONTINUOUS
 62
     7
 10
217.684930610737
 20
45.312984330227
 30
0.0
 11
220.639353887944
 21
44.7920399002753
 31
0.0
  0
LINE
  5
   205
  8
0
  6
CONTINUOUS
 62
     7
 10
206.730507214321
 20
44.7920399002753
 30
0.0
 11
209.684930491528
 21
45.312984330227
 31
0.0
  0
LINE
  5
   206
  8
0
  6
CONTINUOUS
 62
     7
 10
209.684930491528
 20
45.312984330227
 30
0.0
 11
206.730507214321
 21
45.8339287601786
 31
0.0
  0
ENDBLK
  5
   207
  8
0
  6
CONTINUOUS
 62
     7
  0
BLOCK
  5
   208
  8
0
  6
CONTINUOUS
 62
     7
  2
*UDIM2085
 70
    65
 10
0.0
 20
0.0
 30
0.0
  3
*UDIM2085
  0
TEXT
  5
   209
  8
0
  6
CONTINUOUS
 62
     7
 10
192.387411841761
 20
112.181469898651
 30
0.0
 40
2.99999994933605
  1
260
 50
89.9999999480344
 41
0.933333333333333
 72
     1
 11
190.887411870626
 21
116.081469834146
 31
0.0
 73
     2
  0
LINE
  5
   20A
  8
0
  6
CONTINUOUS
 62
     7
 10
206.184887406281
 20
64.3564691110673
 30
0.0
 11
191.387411845294
 21
64.3564691110673
 31
0.0
  0
LINE
  5
   20B
  8
0
  6
CONTINUOUS
 62
     7
 10
206.184887406281
 20
168.356470660788
 30
0.0
 11
191.387411845294
 21
168.356470660788
 31
0.0
  0
LINE
  5
   20C
  8
0
  6
CONTINUOUS
 62
     7
 10
193.387411845294
 20
64.3564691110673
 30
0.0
 11
193.387411845294
 21
168.356470660788
 31
0.0
  0
LINE
  5
   20D
  8
0
  6
CONTINUOUS
 62
     7
 10
192.866467415342
 20
67.3108923882743
 30
0.0
 11
193.387411845294
 21
64.3564691110673
 31
0.0
  0
LINE
  5
   20E
  8
0
  6
CONTINUOUS
 62
     7
 10
193.387411845294
 20
64.3564691110673
 30
0.0
 11
193.908356275245
 21
67.3108923882743
 31
0.0
  0
LINE
  5
   20F
  8
0
  6
CONTINUOUS
 62
     7
 10
193.908356275245
 20
165.402047383581
 30
0.0
 11
193.387411845294
 21
168.356470660788
 31
0.0
  0
LINE
  5
   210
  8
0
  6
CONTINUOUS
 62
     7
 10
193.387411845294
 20
168.356470660788
 30
0.0
 11
192.866467415342
 21
165.402047383581
 31
0.0
  0
ENDBLK
  5
   211
  8
0
  6
CONTINUOUS
 62
     7
  0
BLOCK
  5
   212
  8
0
  6
CONTINUOUS
 62
     7
  2
*UDIM2086
 70
    65
 10
0.0
 20
0.0
 30
0.0
  3
*UDIM2086
  0
TEXT
  5
   213
  8
0
  6
CONTINUOUS
 62
     7
 10
199.006427824792
 20
94.2802123076809
 30
0.0
 40
2.99999994933605
  1
161
 50
89.9999999480344
 41
0.933333333333333
 72
     1
 11
197.506427853656
 21
98.1802122431764
 31
0.0
 73
     2
  0
LINE
  5
   214
  8
0
  6
CONTINUOUS
 62
     7
 10
209.284902922869
 20
66.2564721911358
 30
0.0
 11
198.006427828324
 21
66.2564721911358
 31
0.0
  0
LINE
  5
   215
  8
0
  6
CONTINUOUS
 62
     7
 10
212.884902976514
 20
130.65395239878
 30
0.0
 11
198.006427828324
 21
130.65395239878
 31
0.0
  0
LINE
  5
   216
  8
0
  6
CONTINUOUS
 62
     7
 10
200.006427828324
 20
66.2564721911358
 30
0.0
 11
200.006427828324
 21
130.65395239878
 31
0.0
  0
LINE
  5
   217
  8
0
  6
CONTINUOUS
 62
     7
 10
199.485483398373
 20
69.2108954683428
 30
0.0
 11
200.006427828324
 21
66.2564721911358
 31
0.0
  0
LINE
  5
   218
  8
0
  6
CONTINUOUS
 62
     7
 10
200.006427828324
 20
66.2564721911358
 30
0.0
 11
200.527372258276
 21
69.2108954683428
 31
0.0
  0
LINE
  5
   219
  8
0
  6
CONTINUOUS
 62
     7
 10
200.527372258276
 20
127.699529121573
 30
0.0
 11
200.006427828324
 21
130.65395239878
 31
0.0
  0
LINE
  5
   21A
  8
0
  6
CONTINUOUS
 62
     7
 10
200.006427828324
 20
130.65395239878
 30
0.0
 11
199.485483398373
 21
127.699529121573
 31
0.0
  0
ENDBLK
  5
   21B
  8
0
  6
CONTINUOUS
 62
     7
  0
BLOCK
  5
   21C
  8
0
  6
CONTINUOUS
 62
     7
  2
*UDIM2087
 70
    65
 10
0.0
 20
0.0
 30
0.0
  3
*UDIM2087
  0
TEXT
  5
   21D
  8
0
  6
CONTINUOUS
 62
     7
 10
285.771980110036
 20
74.431470903336
 30
0.0
 40
2.99999994933605
  1
85,25
 50
89.9999999480344
 41
0.933333333333333
 72
     1
 11
284.271980141437
 21
81.131470791545
 31
0.0
 73
     2
  0
LINE
  5
   21E
  8
0
  6
CONTINUOUS
 62
     7
 10
263.184897278811
 20
64.3564691110673
 30
0.0
 11
288.771980116105
 21
64.3564691110673
 31
0.0
  0
LINE
  5
   21F
  8
0
  6
CONTINUOUS
 62
     7
 10
269.189156868127
 20
98.4564726709532
 30
0.0
 11
288.771980116105
 21
98.4564726709532
 31
0.0
  0
LINE
  5
   220
  8
0
  6
CONTINUOUS
 62
     7
 10
286.771980116105
 20
64.3564691110673
 30
0.0
 11
286.771980116105
 21
98.4564726709532
 31
0.0
  0
LINE
  5
   221
  8
0
  6
CONTINUOUS
 62
     7
 10
286.251035686153
 20
67.3108923882743
 30
0.0
 11
286.771980116105
 21
64.3564691110673
 31
0.0
  0
LINE
  5
   222
  8
0
  6
CONTINUOUS
 62
     7
 10
286.771980116105
 20
64.3564691110673
 30
0.0
 11
287.292924546056
 21
67.3108923882743
 31
0.0
  0
LINE
  5
   223
  8
0
  6
CONTINUOUS
 62
     7
 10
287.292924546056
 20
95.5020493937463
 30
0.0
 11
286.771980116105
 21
98.4564726709532
 31
0.0
  0
LINE
  5
   224
  8
0
  6
CONTINUOUS
 62
     7
 10
286.771980116105
 20
98.4564726709532
 30
0.0
 11
286.251035686153
 21
95.5020493937463
 31
0.0
  0
ENDBLK
  5
   225
  8
0
  6
CONTINUOUS
 62
     7
  0
BLOCK
  5
   226
  8
0
  6
CONTINUOUS
 62
     7
  2
*UDIM2088
 70
    65
 10
0.0
 20
0.0
 30
0.0
  3
*UDIM2088
  0
TEXT
  5
   227
  8
0
  6
CONTINUOUS
 62
     7
 10
255.709937456357
 20
30.2640903555417
 30
0.0
 40
2.99999994933605
  1
84
 50
359.999999948034
 41
0.933333333333333
 72
     1
 11
258.20993741549
 21
31.7640903279549
 31
0.0
 73
     2
  0
LINE
  5
   228
  8
0
  6
CONTINUOUS
 62
     7
 10
275.284965201843
 20
92.5565493376871
 30
0.0
 11
275.284965201843
 21
27.2640903532869
 31
0.0
  0
LINE
  5
   229
  8
0
  6
CONTINUOUS
 62
     7
 10
241.684904153705
 20
59.0616957222833
 30
0.0
 11
241.684904153705
 21
27.2640903532869
 31
0.0
  0
LINE
  5
   22A
  8
0
  6
CONTINUOUS
 62
     7
 10
275.284965201843
 20
29.2640903532869
 30
0.0
 11
241.684904153705
 21
29.2640903532869
 31
0.0
  0
LINE
  5
   22B
  8
0
  6
CONTINUOUS
 62
     7
 10
272.330541924636
 20
28.7431459233352
 30
0.0
 11
275.284965201843
 21
29.2640903532869
 31
0.0
  0
LINE
  5
   22C
  8
0
  6
CONTINUOUS
 62
     7
 10
275.284965201843
 20
29.2640903532869
 30
0.0
 11
272.330541924636
 21
29.7850347832385
 31
0.0
  0
LINE
  5
   22D
  8
0
  6
CONTINUOUS
 62
     7
 10
244.639327430912
 20
29.7850347832385
 30
0.0
 11
241.684904153705
 21
29.2640903532869
 31
0.0
  0
LINE
  5
   22E
  8
0
  6
CONTINUOUS
 62
     7
 10
241.684904153705
 20
29.2640903532869
 30
0.0
 11
244.639327430912
 21
28.7431459233352
 31
0.0
  0
ENDBLK
  5
   22F
  8
0
  6
CONTINUOUS
 62
     7
  0
BLOCK
  5
   230
  8
0
  6
CONTINUOUS
 62
     7
  2
*UDIM2089
 70
    65
 10
0.0
 20
0.0
 30
0.0
  3
*UDIM2089
  0
TEXT
  5
   231
  8
0
  6
CONTINUOUS
 62
     7
 10
246.609912962402
 20
37.2469029621192
 30
0.0
 40
2.99999994933605
  1
52,5
 50
359.999999948034
 41
0.933333333333333
 72
     1
 11
251.909912874249
 21
38.7469029320069
 31
0.0
 73
     2
  0
LINE
  5
   232
  8
0
  6
CONTINUOUS
 62
     7
 10
262.684918837333
 20
63.8564691185121
 30
0.0
 11
262.684918837333
 21
34.2469029573389
 31
0.0
  0
LINE
  5
   233
  8
0
  6
CONTINUOUS
 62
     7
 10
241.684904153705
 20
59.0616957222833
 30
0.0
 11
241.684904153705
 21
34.2469029573389
 31
0.0
  0
LINE
  5
   234
  8
0
  6
CONTINUOUS
 62
     7
 10
262.684918837333
 20
36.2469029573389
 30
0.0
 11
241.684904153705
 21
36.2469029573389
 31
0.0
  0
LINE
  5
   235
  8
0
  6
CONTINUOUS
 62
     7
 10
259.730495560126
 20
35.7259585273872
 30
0.0
 11
262.684918837333
 21
36.2469029573389
 31
0.0
  0
LINE
  5
   236
  8
0
  6
CONTINUOUS
 62
     7
 10
262.684918837333
 20
36.2469029573389
 30
0.0
 11
259.730495560126
 21
36.7678473872905
 31
0.0
  0
LINE
  5
   237
  8
0
  6
CONTINUOUS
 62
     7
 10
244.639327430912
 20
36.7678473872905
 30
0.0
 11
241.684904153705
 21
36.2469029573389
 31
0.0
  0
LINE
  5
   238
  8
0
  6
CONTINUOUS
 62
     7
 10
241.684904153705
 20
36.2469029573389
 30
0.0
 11
244.639327430912
 21
35.7259585273872
 31
0.0
  0
ENDBLK
  5
   239
  8
0
  6
CONTINUOUS
 62
     7
  0
BLOCK
  5
   23A
  8
0
  6
CONTINUOUS
 62
     7
  2
*UDIM2090
 70
    65
 10
0.0
 20
0.0
 30
0.0
  3
*UDIM2090
  0
TEXT
  5
   23B
  8
0
  6
CONTINUOUS
 62
     7
 10
258.109906979972
 20
186.39979977443
 30
0.0
 40
2.99999994933605
  1
96
 50
359.999999948034
 41
0.933333333333333
 72
     1
 11
260.609906939105
 21
187.899799746843
 31
0.0
 73
     2
  0
LINE
  5
   23C
  8
0
  6
CONTINUOUS
 62
     7
 10
280.084905488849
 20
131.65395239878
 30
0.0
 11
280.084905488849
 21
187.399799772175
 31
0.0
  0
LINE
  5
   23D
  8
0
  6
CONTINUOUS
 62
     7
 10
241.684904153705
 20
173.777492076107
 30
0.0
 11
241.684904153705
 21
187.399799772175
 31
0.0
  0
LINE
  5
   23E
  8
0
  6
CONTINUOUS
 62
     7
 10
280.084905488849
 20
185.399799772175
 30
0.0
 11
241.684904153705
 21
185.399799772175
 31
0.0
  0
LINE
  5
   23F
  8
0
  6
CONTINUOUS
 62
     7
 10
277.130482211642
 20
184.878855342224
 30
0.0
 11
280.084905488849
 21
185.399799772175
 31
0.0
  0
LINE
  5
   240
  8
0
  6
CONTINUOUS
 62
     7
 10
280.084905488849
 20
185.399799772175
 30
0.0
 11
277.130482211642
 21
185.920744202127
 31
0.0
  0
LINE
  5
   241
  8
0
  6
CONTINUOUS
 62
     7
 10
244.639327430912
 20
185.920744202127
 30
0.0
 11
241.684904153705
 21
185.399799772175
 31
0.0
  0
LINE
  5
   242
  8
0
  6
CONTINUOUS
 62
     7
 10
241.684904153705
 20
185.399799772175
 30
0.0
 11
244.639327430912
 21
184.878855342224
 31
0.0
  0
ENDBLK
  5
   243
  8
0
  6
CONTINUOUS
 62
     7
  0
BLOCK
  5
   244
  8
0
  6
CONTINUOUS
 62
     7
  2
*UDIM2091
 70
    65
 10
0.0
 20
0.0
 30
0.0
  3
*UDIM2091
  0
TEXT
  5
   245
  8
0
  6
CONTINUOUS
 62
     7
 10
220.409906459524
 20
186.399799776956
 30
0.0
 40
2.99999994933605
  1
78,5
 50
359.999999948034
 41
0.933333333333333
 72
     1
 11
225.709906371371
 21
187.899799746843
 31
0.0
 73
     2
  0
LINE
  5
   246
  8
0
  6
CONTINUOUS
 62
     7
 10
210.284902922869
 20
131.65395239878
 30
0.0
 11
210.284902922869
 21
187.399799772175
 31
0.0
  0
LINE
  5
   247
  8
0
  6
CONTINUOUS
 62
     7
 10
241.684904153705
 20
185.399799772175
 30
0.0
 11
210.284902922869
 21
185.399799772175
 31
0.0
  0
LINE
  5
   248
  8
0
  6
CONTINUOUS
 62
     7
 10
238.730480876498
 20
184.878855342224
 30
0.0
 11
241.684904153705
 21
185.399799772175
 31
0.0
  0
LINE
  5
   249
  8
0
  6
CONTINUOUS
 62
     7
 10
241.684904153705
 20
185.399799772175
 30
0.0
 11
238.730480876498
 21
185.920744202127
 31
0.0
  0
LINE
  5
   24A
  8
0
  6
CONTINUOUS
 62
     7
 10
213.239326200076
 20
185.920744202127
 30
0.0
 11
210.284902922869
 21
185.399799772175
 31
0.0
  0
LINE
  5
   24B
  8
0
  6
CONTINUOUS
 62
     7
 10
210.284902922869
 20
185.399799772175
 30
0.0
 11
213.239326200076
 21
184.878855342224
 31
0.0
  0
ENDBLK
  5
   24C
  8
0
  6
CONTINUOUS
 62
     7
  0
BLOCK
  5
   24D
  8
0
  6
CONTINUOUS
 62
     7
  2
*UDIM2092
 70
    65
 10
0.0
 20
0.0
 30
0.0
  3
*UDIM2092
  0
TEXT
  5
   24E
  8
0
  6
CONTINUOUS
 62
     7
 10
230.509903536122
 20
179.678168816158
 30
0.0
 40
2.99999994933605
  1
140
 50
359.999999948034
 41
0.933333333333333
 72
     1
 11
234.409903471612
 21
181.178168787308
 31
0.0
 73
     2
  0
LINE
  5
   24F
  8
0
  6
CONTINUOUS
 62
     7
 10
262.684918837333
 20
168.856470653343
 30
0.0
 11
262.684918837333
 21
180.67816881264
 31
0.0
  0
LINE
  5
   250
  8
0
  6
CONTINUOUS
 62
     7
 10
206.684887398831
 20
168.856470653338
 30
0.0
 11
206.684887398831
 21
180.67816881264
 31
0.0
  0
LINE
  5
   251
  8
0
  6
CONTINUOUS
 62
     7
 10
262.684918837333
 20
178.67816881264
 30
0.0
 11
206.684887398831
 21
178.67816881264
 31
0.0
  0
LINE
  5
   252
  8
0
  6
CONTINUOUS
 62
     7
 10
259.730495560126
 20
178.157224382689
 30
0.0
 11
262.684918837333
 21
178.67816881264
 31
0.0
  0
LINE
  5
   253
  8
0
  6
CONTINUOUS
 62
     7
 10
262.684918837333
 20
178.67816881264
 30
0.0
 11
259.730495560126
 21
179.199113242592
 31
0.0
  0
LINE
  5
   254
  8
0
  6
CONTINUOUS
 62
     7
 10
209.639310676038
 20
179.199113242592
 30
0.0
 11
206.684887398831
 21
178.67816881264
 31
0.0
  0
LINE
  5
   255
  8
0
  6
CONTINUOUS
 62
     7
 10
206.684887398831
 20
178.67816881264
 30
0.0
 11
209.639310676038
 21
178.157224382689
 31
0.0
  0
ENDBLK
  5
   256
  8
0
  6
CONTINUOUS
 62
     7
  0
BLOCK
  5
   257
  8
0
  6
CONTINUOUS
 62
     7
  2
*UDIM2093
 70
    65
 10
0.0
 20
0.0
 30
0.0
  3
*UDIM2093
  0
TEXT
  5
   258
  8
0
  6
CONTINUOUS
 62
     7
 10
237.509931113299
 20
173.572248315016
 30
0.0
 40
2.99999994933605
  1
105
 50
359.999999948034
 41
0.933333333333333
 72
     1
 11
241.409931048789
 21
175.072248286167
 31
0.0
 73
     2
  0
LINE
  5
   259
  8
0
  6
CONTINUOUS
 62
     7
 10
262.684918837333
 20
168.856470653343
 30
0.0
 11
262.684918837333
 21
174.572248311499
 31
0.0
  0
LINE
  5
   25A
  8
0
  6
CONTINUOUS
 62
     7
 10
220.684942982338
 20
120.256592445257
 30
0.0
 11
220.684942982338
 21
174.572248311499
 31
0.0
  0
LINE
  5
   25B
  8
0
  6
CONTINUOUS
 62
     7
 10
262.684918837333
 20
172.572248311499
 30
0.0
 11
220.684942982338
 21
172.572248311499
 31
0.0
  0
LINE
  5
   25C
  8
0
  6
CONTINUOUS
 62
     7
 10
259.730495560126
 20
172.051303881547
 30
0.0
 11
262.684918837333
 21
172.572248311499
 31
0.0
  0
LINE
  5
   25D
  8
0
  6
CONTINUOUS
 62
     7
 10
262.684918837333
 20
172.572248311499
 30
0.0
 11
259.730495560126
 21
173.09319274145
 31
0.0
  0
LINE
  5
   25E
  8
0
  6
CONTINUOUS
 62
     7
 10
223.639366259545
 20
173.09319274145
 30
0.0
 11
220.684942982338
 21
172.572248311499
 31
0.0
  0
LINE
  5
   25F
  8
0
  6
CONTINUOUS
 62
     7
 10
220.684942982338
 20
172.572248311499
 30
0.0
 11
223.639366259545
 21
172.051303881547
 31
0.0
  0
ENDBLK
  5
   260
  8
0
  6
CONTINUOUS
 62
     7
  0
BLOCK
  5
   261
  8
0
  6
CONTINUOUS
 62
     7
  2
*UDIM2094
 70
    65
 10
0.0
 20
0.0
 30
0.0
  3
*UDIM2094
  0
TEXT
  5
   262
  8
0
  6
CONTINUOUS
 62
     7
 10
245.909906796817
 20
12.2674282819185
 30
0.0
 40
2.99999994933605
  1
35
 50
359.999999896069
 41
0.933333333333333
 72
     1
 11
248.409906757311
 21
13.7674282520642
 31
0.0
 73
     2
  0
LINE
  5
   263
  8
0
  6
CONTINUOUS
 62
     7
 10
255.684904362322
 20
7.45229610679921
 30
0.0
 11
255.684904362322
 21
13.2674282773962
 31
0.0
  0
LINE
  5
   264
  8
0
  6
CONTINUOUS
 62
     7
 10
241.684904153705
 20
7.91640529237891
 30
0.0
 11
241.684904153705
 21
13.2674282773962
 31
0.0
  0
LINE
  5
   265
  8
0
  6
CONTINUOUS
 62
     7
 10
255.684904362322
 20
11.2674282773962
 30
0.0
 11
241.684904153705
 21
11.2674282773962
 31
0.0
  0
LINE
  5
   266
  8
0
  6
CONTINUOUS
 62
     7
 10
252.730481085115
 20
10.7464838474446
 30
0.0
 11
255.684904362322
 21
11.2674282773962
 31
0.0
  0
LINE
  5
   267
  8
0
  6
CONTINUOUS
 62
     7
 10
255.684904362322
 20
11.2674282773962
 30
0.0
 11
252.730481085115
 21
11.7883727073479
 31
0.0
  0
LINE
  5
   268
  8
0
  6
CONTINUOUS
 62
     7
 10
244.639327430912
 20
11.7883727073479
 30
0.0
 11
241.684904153705
 21
11.2674282773962
 31
0.0
  0
LINE
  5
   269
  8
0
  6
CONTINUOUS
 62
     7
 10
241.684904153705
 20
11.2674282773962
 30
0.0
 11
244.639327430912
 21
10.7464838474446
 31
0.0
  0
ENDBLK
  5
   26A
  8
0
  6
CONTINUOUS
 62
     7
  0
BLOCK
  5
   26B
  8
0
  6
CONTINUOUS
 62
     7
  2
*UDIM2095
 70
    65
 10
0.0
 20
0.0
 30
0.0
  3
*UDIM2095
  0
TEXT
  5
   26C
  8
0
  6
CONTINUOUS
 62
     7
 10
231.909906588201
 20
12.2674282819185
 30
0.0
 40
2.99999994933605
  1
35
 50
359.999999896069
 41
0.933333333333333
 72
     1
 11
234.409906548694
 21
13.7674282520642
 31
0.0
 73
     2
  0
LINE
  5
   26D
  8
0
  6
CONTINUOUS
 62
     7
 10
227.684903945089
 20
10.1209239238825
 30
0.0
 11
227.684903945089
 21
13.2674282773962
 31
0.0
  0
LINE
  5
   26E
  8
0
  6
CONTINUOUS
 62
     7
 10
241.684904153705
 20
11.2674282773962
 30
0.0
 11
227.684903945089
 21
11.2674282773962
 31
0.0
  0
LINE
  5
   26F
  8
0
  6
CONTINUOUS
 62
     7
 10
238.730480876498
 20
10.7464838474446
 30
0.0
 11
241.684904153705
 21
11.2674282773962
 31
0.0
  0
LINE
  5
   270
  8
0
  6
CONTINUOUS
 62
     7
 10
241.684904153705
 20
11.2674282773962
 30
0.0
 11
238.730480876498
 21
11.7883727073479
 31
0.0
  0
LINE
  5
   271
  8
0
  6
CONTINUOUS
 62
     7
 10
230.639327222296
 20
11.7883727073479
 30
0.0
 11
227.684903945089
 21
11.2674282773962
 31
0.0
  0
LINE
  5
   272
  8
0
  6
CONTINUOUS
 62
     7
 10
227.684903945089
 20
11.2674282773962
 30
0.0
 11
230.639327222296
 21
10.7464838474446
 31
0.0
  0
ENDBLK
  5
   273
  8
0
  6
CONTINUOUS
 62
     7
  0
BLOCK
  5
   274
  8
0
  6
CONTINUOUS
 62
     7
  2
*UDIM2096
 70
    65
 10
0.0
 20
0.0
 30
0.0
  3
*UDIM2096
  0
TEXT
  5
   275
  8
0
  6
CONTINUOUS
 62
     7
 10
217.909906379585
 20
12.2674282819185
 30
0.0
 40
2.99999994933605
  1
35
 50
359.999999896069
 41
0.933333333333333
 72
     1
 11
220.409906340078
 21
13.7674282520642
 31
0.0
 73
     2
  0
LINE
  5
   276
  8
0
  6
CONTINUOUS
 62
     7
 10
213.684903736473
 20
10.3819853407711
 30
0.0
 11
213.684903736473
 21
13.2674282773962
 31
0.0
  0
LINE
  5
   277
  8
0
  6
CONTINUOUS
 62
     7
 10
227.684903945089
 20
11.2674282773962
 30
0.0
 11
213.684903736473
 21
11.2674282773962
 31
0.0
  0
LINE
  5
   278
  8
0
  6
CONTINUOUS
 62
     7
 10
224.730480667882
 20
10.7464838474446
 30
0.0
 11
227.684903945089
 21
11.2674282773962
 31
0.0
  0
LINE
  5
   279
  8
0
  6
CONTINUOUS
 62
     7
 10
227.684903945089
 20
11.2674282773962
 30
0.0
 11
224.730480667882
 21
11.7883727073479
 31
0.0
  0
LINE
  5
   27A
  8
0
  6
CONTINUOUS
 62
     7
 10
216.63932701368
 20
11.7883727073479
 30
0.0
 11
213.684903736473
 21
11.2674282773962
 31
0.0
  0
LINE
  5
   27B
  8
0
  6
CONTINUOUS
 62
     7
 10
213.684903736473
 20
11.2674282773962
 30
0.0
 11
216.63932701368
 21
10.7464838474446
 31
0.0
  0
ENDBLK
  5
   27C
  8
0
  6
CONTINUOUS
 62
     7
  0
BLOCK
  5
   27D
  8
0
  6
CONTINUOUS
 62
     7
  2
*HATCH379
 70
    65
 10
0.0
 20
0.0
 30
0.0
  3
*HATCH379
  0
LINE
  5
   27E
  8
0
  6
CONTINUOUS
 62
    52
 10
187.992431640625
 20
39.4999961853027
 30
0.0
 11
185.992431640625
 21
37.4999961853027
 31
0.0
  0
LINE
  5
   27F
  8
0
  6
CONTINUOUS
 62
    52
 10
192.235076904297
 20
39.4999961853027
 30
0.0
 11
190.235076904297
 21
37.4999961853027
 31
0.0
  0
LINE
  5
   280
  8
0
  6
CONTINUOUS
 62
    52
 10
196.477722167969
 20
39.4999961853027
 30
0.0
 11
194.477722167969
 21
37.4999961853027
 31
0.0
  0
LINE
  5
   281
  8
0
  6
CONTINUOUS
 62
    52
 10
200.720367431641
 20
39.4999961853027
 30
0.0
 11
198.720367431641
 21
37.4999961853027
 31
0.0
  0
LINE
  5
   282
  8
0
  6
CONTINUOUS
 62
    52
 10
204.963012695313
 20
39.4999961853027
 30
0.0
 11
202.963012695313
 21
37.4999961853027
 31
0.0
  0
LINE
  5
   283
  8
0
  6
CONTINUOUS
 62
    52
 10
209.205657958984
 20
39.4999961853027
 30
0.0
 11
207.205657958984
 21
37.4999961853027
 31
0.0
  0
LINE
  5
   284
  8
0
  6
CONTINUOUS
 62
    52
 10
213.448303222656
 20
39.4999961853027
 30
0.0
 11
211.448303222656
 21
37.4999961853027
 31
0.0
  0
LINE
  5
   285
  8
0
  6
CONTINUOUS
 62
    52
 10
217.690948486328
 20
39.4999961853027
 30
0.0
 11
215.690948486328
 21
37.4999961853027
 31
0.0
  0
LINE
  5
   286
  8
0
  6
CONTINUOUS
 62
    52
 10
221.93359375
 20
39.4999961853027
 30
0.0
 11
219.93359375
 21
37.4999961853027
 31
0.0
  0
LINE
  5
   287
  8
0
  6
CONTINUOUS
 62
    52
 10
226.176239013672
 20
39.4999961853027
 30
0.0
 11
224.176239013672
 21
37.4999961853027
 31
0.0
  0
LINE
  5
   288
  8
0
  6
CONTINUOUS
 62
    52
 10
230.418884277344
 20
39.4999961853027
 30
0.0
 11
228.418884277344
 21
37.4999961853027
 31
0.0
  0
LINE
  5
   289
  8
0
  6
CONTINUOUS
 62
    52
 10
234.661529541016
 20
39.4999961853027
 30
0.0
 11
232.661529541016
 21
37.4999961853027
 31
0.0
  0
LINE
  5
   28A
  8
0
  6
CONTINUOUS
 62
    52
 10
238.904174804688
 20
39.4999961853027
 30
0.0
 11
236.904174804688
 21
37.4999961853027
 31
0.0
  0
LINE
  5
   28B
  8
0
  6
CONTINUOUS
 62
    52
 10
243.146820068359
 20
39.4999961853027
 30
0.0
 11
241.146820068359
 21
37.4999961853027
 31
0.0
  0
LINE
  5
   28C
  8
0
  6
CONTINUOUS
 62
    52
 10
245.418930053711
 20
37.5295219421387
 30
0.0
 11
245.389404296875
 21
37.4999961853027
 31
0.0
  0
ENDBLK
  5
   28D
  8
0
  6
CONTINUOUS
 62
     7
  0
BLOCK
  5
   28E
  8
0
  6
CONTINUOUS
 62
     7
  2
*HATCH380
 70
    65
 10
0.0
 20
0.0
 30
0.0
  3
*HATCH380
  0
LINE
  5
   28F
  8
0
  6
CONTINUOUS
 62
    52
 10
175.264511108398
 20
39.4999961853027
 30
0.0
 11
173.264511108398
 21
37.4999961853027
 31
0.0
  0
ENDBLK
  5
   290
  8
0
  6
CONTINUOUS
 62
     7
  0
BLOCK
  5
   291
  8
0
  6
CONTINUOUS
 62
     7
  2
*HATCH381
 70
    65
 10
0.0
 20
0.0
 30
0.0
  3
*HATCH381
  0
LINE
  5
   292
  8
0
  6
CONTINUOUS
 62
    52
 10
115.867530822754
 20
39.4999961853027
 30
0.0
 11
113.867530822754
 21
37.4999961853027
 31
0.0
  0
LINE
  5
   293
  8
0
  6
CONTINUOUS
 62
    52
 10
120.110176086426
 20
39.4999961853027
 30
0.0
 11
118.110176086426
 21
37.4999961853027
 31
0.0
  0
LINE
  5
   294
  8
0
  6
CONTINUOUS
 62
    52
 10
124.352821350098
 20
39.4999961853027
 30
0.0
 11
122.352821350098
 21
37.4999961853027
 31
0.0
  0
LINE
  5
   295
  8
0
  6
CONTINUOUS
 62
    52
 10
128.595458984375
 20
39.4999961853027
 30
0.0
 11
126.59546661377
 21
37.4999961853027
 31
0.0
  0
LINE
  5
   296
  8
0
  6
CONTINUOUS
 62
    52
 10
132.838104248047
 20
39.4999961853027
 30
0.0
 11
130.838104248047
 21
37.4999961853027
 31
0.0
  0
LINE
  5
   297
  8
0
  6
CONTINUOUS
 62
    52
 10
137.080749511719
 20
39.4999961853027
 30
0.0
 11
135.080749511719
 21
37.4999961853027
 31
0.0
  0
LINE
  5
   298
  8
0
  6
CONTINUOUS
 62
    52
 10
141.323394775391
 20
39.4999961853027
 30
0.0
 11
139.323394775391
 21
37.4999961853027
 31
0.0
  0
LINE
  5
   299
  8
0
  6
CONTINUOUS
 62
    52
 10
145.566040039063
 20
39.4999961853027
 30
0.0
 11
143.566040039063
 21
37.4999961853027
 31
0.0
  0
LINE
  5
   29A
  8
0
  6
CONTINUOUS
 62
    52
 10
149.808685302734
 20
39.4999961853027
 30
0.0
 11
147.808685302734
 21
37.4999961853027
 31
0.0
  0
LINE
  5
   29B
  8
0
  6
CONTINUOUS
 62
    52
 10
154.051330566406
 20
39.4999961853027
 30
0.0
 11
152.051330566406
 21
37.4999961853027
 31
0.0
  0
LINE
  5
   29C
  8
0
  6
CONTINUOUS
 62
    52
 10
158.293975830078
 20
39.4999961853027
 30
0.0
 11
156.293975830078
 21
37.4999961853027
 31
0.0
  0
LINE
  5
   29D
  8
0
  6
CONTINUOUS
 62
    52
 10
162.53662109375
 20
39.4999961853027
 30
0.0
 11
160.53662109375
 21
37.4999961853027
 31
0.0
  0
LINE
  5
   29E
  8
0
  6
CONTINUOUS
 62
    52
 10
166.779266357422
 20
39.4999961853027
 30
0.0
 11
164.779266357422
 21
37.4999961853027
 31
0.0
  0
LINE
  5
   29F
  8
0
  6
CONTINUOUS
 62
    52
 10
171.021911621094
 20
39.4999961853027
 30
0.0
 11
169.021911621094
 21
37.4999961853027
 31
0.0
  0
ENDBLK
  5
   2A0
  8
0
  6
CONTINUOUS
 62
     7
  0
BLOCK
  5
   2A1
  8
0
  6
CONTINUOUS
 62
     7
  2
*HATCH382
 70
    65
 10
0.0
 20
0.0
 30
0.0
  3
*HATCH382
  0
LINE
  5
   2A2
  8
0
  6
CONTINUOUS
 62
    52
 10
92.5330123901367
 20
39.4999961853027
 30
0.0
 11
90.5330123901367
 21
37.4999961853027
 31
0.0
  0
LINE
  5
   2A3
  8
0
  6
CONTINUOUS
 62
    52
 10
96.7756576538086
 20
39.4999961853027
 30
0.0
 11
94.7756576538086
 21
37.4999961853027
 31
0.0
  0
LINE
  5
   2A4
  8
0
  6
CONTINUOUS
 62
    52
 10
101.01830291748
 20
39.4999961853027
 30
0.0
 11
99.0183029174805
 21
37.4999961853027
 31
0.0
  0
LINE
  5
   2A5
  8
0
  6
CONTINUOUS
 62
    52
 10
105.260948181152
 20
39.4999961853027
 30
0.0
 11
103.260948181152
 21
37.4999961853027
 31
0.0
  0
ENDBLK
  5
   2A6
  8
0
  6
CONTINUOUS
 62
     7
  0
BLOCK
  5
   2A7
  8
0
  6
CONTINUOUS
 62
     7
  2
*HATCH383
 70
    65
 10
0.0
 20
0.0
 30
0.0
  3
*HATCH383
  0
LINE
  5
   2A8
  8
0
  6
CONTINUOUS
 62
    52
 10
52.2279205322266
 20
39.4999961853027
 30
0.0
 11
50.2279205322266
 21
37.4999961853027
 31
0.0
  0
LINE
  5
   2A9
  8
0
  6
CONTINUOUS
 62
    52
 10
56.4705581665039
 20
39.4999961853027
 30
0.0
 11
54.4705581665039
 21
37.4999961853027
 31
0.0
  0
LINE
  5
   2AA
  8
0
  6
CONTINUOUS
 62
    52
 10
60.7131958007813
 20
39.4999961853027
 30
0.0
 11
58.7131958007813
 21
37.4999961853027
 31
0.0
  0
LINE
  5
   2AB
  8
0
  6
CONTINUOUS
 62
    52
 10
64.9558334350586
 20
39.4999961853027
 30
0.0
 11
62.9558334350586
 21
37.4999961853027
 31
0.0
  0
LINE
  5
   2AC
  8
0
  6
CONTINUOUS
 62
    52
 10
69.1984786987305
 20
39.4999961853027
 30
0.0
 11
67.1984786987305
 21
37.4999961853027
 31
0.0
  0
LINE
  5
   2AD
  8
0
  6
CONTINUOUS
 62
    52
 10
73.4411239624023
 20
39.4999961853027
 30
0.0
 11
71.4411239624024
 21
37.4999961853027
 31
0.0
  0
LINE
  5
   2AE
  8
0
  6
CONTINUOUS
 62
    52
 10
75.7371292114258
 20
37.5533599853516
 30
0.0
 11
75.6837692260742
 21
37.4999961853027
 31
0.0
  0
ENDBLK
  5
   2AF
  8
0
  6
CONTINUOUS
 62
     7
  0
BLOCK
  5
   2B0
  8
0
  6
CONTINUOUS
 62
     7
  2
*HATCH384
 70
    65
 10
0.0
 20
0.0
 30
0.0
  3
*HATCH384
  0
LINE
  5
   2B1
  8
0
  6
CONTINUOUS
 62
    52
 10
45.8639602661133
 20
39.4999961853027
 30
0.0
 11
43.8639602661133
 21
37.4999961853027
 31
0.0
  0
ENDBLK
  5
   2B2
  8
0
  6
CONTINUOUS
 62
     7
  0
BLOCK
  5
   2B3
  8
0
  6
CONTINUOUS
 62
     7
  2
*HATCH385
 70
    65
 10
0.0
 20
0.0
 30
0.0
  3
*HATCH385
  0
LINE
  5
   2B4
  8
0
  6
CONTINUOUS
 62
    52
 10
166.264511108398
 20
30.5000038146973
 30
0.0
 11
163.987060546875
 21
28.2225513458252
 31
0.0
  0
LINE
  5
   2B5
  8
0
  6
CONTINUOUS
 62
    52
 10
170.50715637207
 20
30.5000038146973
 30
0.0
 11
168.00715637207
 21
27.9999980926514
 31
0.0
  0
LINE
  5
   2B6
  8
0
  6
CONTINUOUS
 62
    52
 10
172.987060546875
 20
28.7372703552246
 30
0.0
 11
172.249786376953
 21
27.9999980926514
 31
0.0
  0
ENDBLK
  5
   2B7
  8
0
  6
CONTINUOUS
 62
     7
  0
BLOCK
  5
   2B8
  8
0
  6
CONTINUOUS
 62
     7
  2
*HATCH386
 70
    65
 10
0.0
 20
0.0
 30
0.0
  3
*HATCH386
  0
LINE
  5
   2B9
  8
0
  6
CONTINUOUS
 62
    52
 10
5.55887222290039
 20
39.4999961853027
 30
0.0
 11
3.55887222290039
 21
37.4999961853027
 31
0.0
  0
LINE
  5
   2BA
  8
0
  6
CONTINUOUS
 62
    52
 10
9.801513671875
 20
39.4999961853027
 30
0.0
 11
7.801513671875
 21
37.4999961853027
 31
0.0
  0
LINE
  5
   2BB
  8
0
  6
CONTINUOUS
 62
    52
 10
14.0441551208496
 20
39.4999961853027
 30
0.0
 11
12.0441551208496
 21
37.4999961853027
 31
0.0
  0
LINE
  5
   2BC
  8
0
  6
CONTINUOUS
 62
    52
 10
18.2867965698242
 20
39.4999961853027
 30
0.0
 11
16.2867965698242
 21
37.4999961853027
 31
0.0
  0
LINE
  5
   2BD
  8
0
  6
CONTINUOUS
 62
    52
 10
22.5294380187988
 20
39.4999961853027
 30
0.0
 11
20.5294380187988
 21
37.4999961853027
 31
0.0
  0
LINE
  5
   2BE
  8
0
  6
CONTINUOUS
 62
    52
 10
26.7720794677734
 20
39.4999961853027
 30
0.0
 11
24.7720794677734
 21
37.4999961853027
 31
0.0
  0
LINE
  5
   2BF
  8
0
  6
CONTINUOUS
 62
    52
 10
31.014720916748
 20
39.4999961853027
 30
0.0
 11
29.014720916748
 21
37.4999961853027
 31
0.0
  0
LINE
  5
   2C0
  8
0
  6
CONTINUOUS
 62
    52
 10
35.2573585510254
 20
39.4999961853027
 30
0.0
 11
33.2573623657227
 21
37.4999961853027
 31
0.0
  0
ENDBLK
  5
   2C1
  8
0
  6
CONTINUOUS
 62
     7
  0
BLOCK
  5
   2C2
  8
0
  6
CONTINUOUS
 62
     7
  2
SBARRA
 70
    64
 10
0.0
 20
0.0
 30
0.0
  3
SBARRA
  0
LINE
  5
   2C3
  8
0
  6
CONTINUOUS
 62
     7
 10
26.5001059159648
 20
107.500000002179
 30
0.0
 11
26.5001852131506
 21
175.058668808326
 31
0.0
  0
LINE
  5
   2C4
  8
0
  6
CONTINUOUS
 62
     7
 10
20.5001059159613
 20
107.5
 30
0.0
 11
20.5001871954688
 21
176.747543585899
 31
0.0
  0
LINE
  5
   2C5
  8
0
  6
CONTINUOUS
 62
     7
 10
20.5001076765838
 20
108.999994130421
 30
0.0
 11
20.5001276303837
 21
125.999994127583
 31
0.0
  0
LINE
  5
   2C6
  8
0
  6
CONTINUOUS
 62
     7
 10
20.5001059159613
 20
107.5
 30
0.0
 11
26.5001059159647
 21
107.5
 31
0.0
  0
LINE
  5
   2C7
  8
0
  6
CONTINUOUS
 62
     7
 10
18.5001157280214
 20
125.999994131249
 30
0.0
 11
20.5001276303837
 21
125.999994131249
 31
0.0
  0
LINE
  5
   2C8
  8
0
  6
CONTINUOUS
 62
     7
 10
18.5001157280214
 20
108.999994131249
 30
0.0
 11
20.5001076765838
 21
108.999994131249
 31
0.0
  0
LINE
  5
   2C9
  8
0
  6
CONTINUOUS
 62
     7
 10
18.5001157280214
 20
108.999994131249
 30
0.0
 11
18.5001157280214
 21
125.999994131249
 31
0.0
  0
LINE
  5
   2CA
  8
0
  6
CONTINUOUS
 62
     7
 10
31.500127630398
 20
126.000003393245
 30
0.0
 11
33.5001276303966
 21
126.000001045739
 31
0.0
  0
LINE
  5
   2CB
  8
0
  6
CONTINUOUS
 62
     7
 10
31.5001076765981
 20
109.000003393257
 30
0.0
 11
33.5001076765968
 21
109.000001045751
 31
0.0
  0
LINE
  5
   2CC
  8
0
  6
CONTINUOUS
 62
     7
 10
33.5001076765968
 20
109.00000102933
 30
0.0
 11
33.5001276303966
 21
126.000001032607
 31
0.0
  0
LINE
  5
   2CD
  8
0
  6
CONTINUOUS
 62
     7
 10
26.5001076765981
 20
109.000003385442
 30
0.0
 11
26.500127630398
 21
126.00000338543
 31
0.0
  0
LINE
  5
   2CE
  8
0
  6
CONTINUOUS
 62
     1
 10
18.1001157280214
 20
110.309994131249
 30
0.0
 11
18.1001157280214
 21
124.689994131249
 31
0.0
  0
ARC
  5
   2CF
  8
0
  6
CONTINUOUS
 62
     1
 10
15.7464513489096
 20
112.107494131249
 30
0.0
 40
2.74633562088826
 50
139.1176078909
 51
220.8823921091
  0
ARC
  5
   2D0
  8
0
  6
CONTINUOUS
 62
     1
 10
15.7464513489096
 20
122.892494131249
 30
0.0
 40
2.74633562088826
 50
139.1176078909
 51
220.8823921091
  0
LINE
  5
   2D1
  8
0
  6
CONTINUOUS
 62
     1
 10
13.6169202145588
 20
113.904994131249
 30
0.0
 11
18.1001157280214
 21
113.904994131249
 31
0.0
  0
ARC
  5
   2D2
  8
0
  6
CONTINUOUS
 62
     1
 10
23.7851157280214
 20
117.499994131249
 30
0.0
 40
10.785
 50
160.528779365509
 51
199.471220634491
  0
LINE
  5
   2D3
  8
0
  6
CONTINUOUS
 62
     1
 10
13.6169202145588
 20
121.094994131249
 30
0.0
 11
18.1001157280214
 21
121.094994131249
 31
0.0
  0
LINE
  5
   2D4
  8
0
  6
CONTINUOUS
 62
     1
 10
13.6700715444038
 20
110.309994131249
 30
0.0
 11
18.1001157280214
 21
110.309994131249
 31
0.0
  0
LINE
  5
   2D5
  8
0
  6
CONTINUOUS
 62
     1
 10
13.6700715444038
 20
124.689994131249
 30
0.0
 11
18.1001157280214
 21
124.689994131249
 31
0.0
  0
LINE
  5
   2D6
  8
0
  6
CONTINUOUS
 62
     1
 10
18.1001157280214
 20
111.399994131249
 30
0.0
 11
18.5001157280214
 21
111.399994131249
 31
0.0
  0
LINE
  5
   2D7
  8
0
  6
CONTINUOUS
 62
     1
 10
18.1001157280214
 20
123.599994131249
 30
0.0
 11
18.5001157280214
 21
123.599994131249
 31
0.0
  0
LINE
  5
   2D8
  8
0
  6
CONTINUOUS
 62
     7
 10
40.0001138585073
 20
114.2667875
 30
0.0
 11
43.5001274655542
 21
114.2667875
 31
0.0
  0
LINE
  5
   2D9
  8
0
  6
CONTINUOUS
 62
     7
 10
40.0001214484926
 20
120.7332125
 30
0.0
 11
43.5001274655542
 21
120.7332125
 31
0.0
  0
LINE
  5
   2DA
  8
0
  6
CONTINUOUS
 62
     1
 10
40.0001223485117
 20
121.5
 30
0.0
 11
43.5001274655542
 21
121.5
 31
0.0
  0
LINE
  5
   2DB
  8
0
  6
CONTINUOUS
 62
     1
 10
40.0001129584882
 20
113.5
 30
0.0
 11
43.5001274655542
 21
113.5
 31
0.0
  0
LINE
  5
   2DC
  8
0
  6
CONTINUOUS
 62
     1
 10
13.0001157280214
 20
112.107494131249
 30
0.0
 11
13.0001157280214
 21
122.892494131249
 31
0.0
  0
LINE
  5
   2DD
  8
0
  6
CONTINUOUS
 62
     7
 10
17.1163056989868
 20
177.700035923916
 30
0.0
 11
30.5776098850749
 21
173.910958478093
 31
0.0
  0
LINE
  5
   2DE
  8
0
  6
CONTINUOUS
 62
     1
 10
43.5001274655542
 20
113.5
 30
0.0
 11
43.5001274655542
 21
121.5
 31
0.0
  0
POINT
  5
   2DF
  8
0
  6
CONTINUOUS
 62
     7
 10
20.5001176534907
 20
117.5
 30
0.0
  0
LINE
  5
   2E0
  8
0
  6
CONTINUOUS
 62
     1
 10
40.0001110462431
 20
111.870828277965
 30
0.0
 11
40.0001242607413
 21
123.129158527663
 31
0.0
  0
LINE
  5
   2E1
  8
0
  6
CONTINUOUS
 62
     1
 10
33.5001110462476
 20
111.870835906792
 30
0.0
 11
33.5001242607458
 21
123.129166162543
 31
0.0
  0
LINE
  5
   2E2
  8
0
  6
CONTINUOUS
 62
     1
 10
34.0806830467625
 20
125.005553863775
 30
0.0
 11
39.4195698795573
 21
125.005547597241
 31
0.0
  0
LINE
  5
   2E3
  8
0
  6
CONTINUOUS
 62
     1
 10
34.0806786419298
 20
121.252777114045
 30
0.0
 11
39.4195654747246
 21
121.252770847511
 31
0.0
  0
LINE
  5
   2E4
  8
0
  6
CONTINUOUS
 62
     1
 10
34.0806698322643
 20
113.747223614585
 30
0.0
 11
39.4195566650591
 21
113.747217348051
 31
0.0
  0
ARC
  5
   2E5
  8
0
  6
CONTINUOUS
 62
     1
 10
36.8226938336936
 20
123.129162270464
 30
0.0
 40
3.32256957295006
 50
145.615685280868
 51
214.384180216953
  0
ARC
  5
   2E6
  8
0
  6
CONTINUOUS
 62
     1
 10
45.9195610698871
 20
117.499986468387
 30
0.0
 40
12.419443416399
 50
162.411978974917
 51
197.587886522905
  0
ARC
  5
   2E7
  8
0
  6
CONTINUOUS
 62
     1
 10
36.8226806191954
 20
111.870832021274
 30
0.0
 40
3.32256957295006
 50
145.615685280868
 51
214.384180216953
  0
LINE
  5
   2E8
  8
0
  6
CONTINUOUS
 62
     1
 10
34.0806654274316
 20
109.994446864855
 30
0.0
 11
39.4195522602264
 21
109.994440598321
 31
0.0
  0
LINE
  5
   2E9
  8
0
  6
DASHDOT
 62
     7
 10
8.02747321816309
 20
117.500030944336
 30
0.0
 11
46.8626391108652
 21
117.499985361446
 31
0.0
  0
ARC
  5
   2EA
  8
0
  6
CONTINUOUS
 62
     1
 10
36.6775546877935
 20
123.129162440821
 30
0.0
 40
3.32256957295006
 50
325.615685280868
 51
394.384180216953
  0
ARC
  5
   2EB
  8
0
  6
CONTINUOUS
 62
     1
 10
27.5806742371018
 20
117.500007993709
 30
0.0
 40
12.419443416399
 50
342.411978974916
 51
377.587886522905
  0
ARC
  5
   2EC
  8
0
  6
CONTINUOUS
 62
     1
 10
36.6775414732954
 20
111.870832191632
 30
0.0
 40
3.32256957295006
 50
325.615685280868
 51
394.384180216953
  0
ENDBLK
  5
   2ED
  8
0
  6
CONTINUOUS
 62
     7
  0
BLOCK
  5
   2EE
  8
0
  6
CONTINUOUS
 62
     7
  2
*UDIM2097
 70
    65
 10
0.0
 20
0.0
 30
0.0
  3
*UDIM2097
  0
TEXT
  5
   2EF
  8
0
  6
CONTINUOUS
 62
     7
 10
182.264386057169
 20
44.8314711870549
 30
0.0
 40
2.99999994933605
  1
10
 50
89.9999999480344
 41
0.933333333333333
 72
     1
 11
180.764386084765
 21
47.3314711461935
 31
0.0
 73
     2
  0
LINE
  5
   2F0
  8
0
  6
CONTINUOUS
 62
     7
 10
125.558365363738
 20
53.356471235973
 30
0.0
 11
185.264386059434
 21
53.356471235973
 31
0.0
  0
LINE
  5
   2F1
  8
0
  6
CONTINUOUS
 62
     7
 10
129.151398381757
 20
57.3564712955777
 30
0.0
 11
185.264386059434
 21
57.3564712955777
 31
0.0
  0
LINE
  5
   2F2
  8
0
  6
CONTINUOUS
 62
     7
 10
183.264386059433
 20
44.8314711884135
 30
0.0
 11
183.264386059433
 21
57.3564712955777
 31
0.0
  0
LINE
  5
   2F3
  8
0
  6
CONTINUOUS
 62
     7
 10
183.785330489385
 20
50.402047958766
 30
0.0
 11
183.264386059433
 21
53.356471235973
 31
0.0
  0
LINE
  5
   2F4
  8
0
  6
CONTINUOUS
 62
     7
 10
183.264386059433
 20
53.356471235973
 30
0.0
 11
182.743441629482
 21
50.402047958766
 31
0.0
  0
LINE
  5
   2F5
  8
0
  6
CONTINUOUS
 62
     7
 10
182.743441629482
 20
60.3108945727846
 30
0.0
 11
183.264386059433
 21
57.3564712955777
 31
0.0
  0
LINE
  5
   2F6
  8
0
  6
CONTINUOUS
 62
     7
 10
183.264386059433
 20
57.3564712955777
 30
0.0
 11
183.785330489385
 21
60.3108945727846
 31
0.0
  0
ENDBLK
  5
   2F7
  8
0
  6
CONTINUOUS
 62
     7
  0
BLOCK
  5
   2F8
  8
0
  6
CONTINUOUS
 62
     7
  2
*UDIM2098
 70
    65
 10
0.0
 20
0.0
 30
0.0
  3
*UDIM2098
  0
TEXT
  5
   2F9
  8
0
  6
CONTINUOUS
 62
     7
 10
182.264386055901
 20
95.1814719341495
 30
0.0
 40
2.99999994933605
  1
210
 50
89.9999999480344
 41
0.933333333333333
 72
     1
 11
180.764386084765
 21
99.0814718696449
 31
0.0
 73
     2
  0
LINE
  5
   2FA
  8
0
  6
CONTINUOUS
 62
     7
 10
132.947425002487
 20
141.356472547275
 30
0.0
 11
185.264386059434
 21
141.356472547275
 31
0.0
  0
LINE
  5
   2FB
  8
0
  6
CONTINUOUS
 62
     7
 10
183.264386059433
 20
57.3564712955777
 30
0.0
 11
183.264386059433
 21
141.356472547275
 31
0.0
  0
LINE
  5
   2FC
  8
0
  6
CONTINUOUS
 62
     7
 10
182.743441629482
 20
60.3108945727846
 30
0.0
 11
183.264386059433
 21
57.3564712955777
 31
0.0
  0
LINE
  5
   2FD
  8
0
  6
CONTINUOUS
 62
     7
 10
183.264386059433
 20
57.3564712955777
 30
0.0
 11
183.785330489385
 21
60.3108945727846
 31
0.0
  0
LINE
  5
   2FE
  8
0
  6
CONTINUOUS
 62
     7
 10
183.785330489385
 20
138.402049270068
 30
0.0
 11
183.264386059433
 21
141.356472547275
 31
0.0
  0
LINE
  5
   2FF
  8
0
  6
CONTINUOUS
 62
     7
 10
183.264386059433
 20
141.356472547275
 30
0.0
 11
182.743441629482
 21
138.402049270068
 31
0.0
  0
ENDBLK
  5
   300
  8
0
  6
CONTINUOUS
 62
     7
  0
BLOCK
  5
   301
  8
0
  6
CONTINUOUS
 62
     7
  2
*UDIM2099
 70
    65
 10
0.0
 20
0.0
 30
0.0
  3
*UDIM2099
  0
TEXT
  5
   302
  8
0
  6
CONTINUOUS
 62
     7
 10
182.264386057169
 20
148.331472729325
 30
0.0
 40
2.99999994933605
  1
10
 50
89.9999999480344
 41
0.933333333333333
 72
     1
 11
180.764386084765
 21
150.831472688464
 31
0.0
 73
     2
  0
LINE
  5
   303
  8
0
  6
CONTINUOUS
 62
     7
 10
125.558367118239
 20
145.35647260688
 30
0.0
 11
185.264386059434
 21
145.35647260688
 31
0.0
  0
LINE
  5
   304
  8
0
  6
CONTINUOUS
 62
     7
 10
183.264386059433
 20
141.356472547275
 30
0.0
 11
183.264386059433
 21
153.331472646244
 31
0.0
  0
LINE
  5
   305
  8
0
  6
CONTINUOUS
 62
     7
 10
183.785330489385
 20
138.402049270068
 30
0.0
 11
183.264386059433
 21
141.356472547275
 31
0.0
  0
LINE
  5
   306
  8
0
  6
CONTINUOUS
 62
     7
 10
183.264386059433
 20
141.356472547275
 30
0.0
 11
182.743441629482
 21
138.402049270068
 31
0.0
  0
LINE
  5
   307
  8
0
  6
CONTINUOUS
 62
     7
 10
182.743441629482
 20
148.310895884087
 30
0.0
 11
183.264386059433
 21
145.35647260688
 31
0.0
  0
LINE
  5
   308
  8
0
  6
CONTINUOUS
 62
     7
 10
183.264386059433
 20
145.35647260688
 30
0.0
 11
183.785330489385
 21
148.310895884087
 31
0.0
  0
ENDBLK
  5
   309
  8
0
  6
CONTINUOUS
 62
     7
  0
BLOCK
  5
   30A
  8
0
  6
CONTINUOUS
 62
     7
  2
*UDIM2100
 70
    65
 10
0.0
 20
0.0
 30
0.0
  3
*UDIM2100
  0
TEXT
  5
   30B
  8
0
  6
CONTINUOUS
 62
     7
 10
173.243255546578
 20
69.5314716139235
 30
0.0
 40
2.99999994933605
  1
102,75
 50
89.9999999480344
 41
0.933333333333333
 72
     1
 11
171.743255579246
 21
77.6314714784894
 31
0.0
 73
     2
  0
LINE
  5
   30C
  8
0
  6
CONTINUOUS
 62
     7
 10
129.151398381757
 20
57.3564712955777
 30
0.0
 11
176.243255553914
 21
57.3564712955777
 31
0.0
  0
LINE
  5
   30D
  8
0
  6
CONTINUOUS
 62
     7
 10
166.785851775173
 20
98.4564719080154
 30
0.0
 11
176.243255553914
 21
98.4564719080154
 31
0.0
  0
LINE
  5
   30E
  8
0
  6
CONTINUOUS
 62
     7
 10
174.243255553914
 20
57.3564712955777
 30
0.0
 11
174.243255553914
 21
98.4564719080154
 31
0.0
  0
LINE
  5
   30F
  8
0
  6
CONTINUOUS
 62
     7
 10
173.722311123963
 20
60.3108945727846
 30
0.0
 11
174.243255553914
 21
57.3564712955777
 31
0.0
  0
LINE
  5
   310
  8
0
  6
CONTINUOUS
 62
     7
 10
174.243255553914
 20
57.3564712955777
 30
0.0
 11
174.764199983866
 21
60.3108945727846
 31
0.0
  0
LINE
  5
   311
  8
0
  6
CONTINUOUS
 62
     7
 10
174.764199983866
 20
95.5020486308084
 30
0.0
 11
174.243255553914
 21
98.4564719080154
 31
0.0
  0
LINE
  5
   312
  8
0
  6
CONTINUOUS
 62
     7
 10
174.243255553914
 20
98.4564719080154
 30
0.0
 11
173.722311123963
 21
95.5020486308084
 31
0.0
  0
ENDBLK
  5
   313
  8
0
  6
CONTINUOUS
 62
     7
  0
BLOCK
  5
   314
  8
0
  6
CONTINUOUS
 62
     7
  2
*UDIM2101
 70
    65
 10
0.0
 20
0.0
 30
0.0
  3
*UDIM2101
  0
TEXT
  5
   315
  8
0
  6
CONTINUOUS
 62
     7
 10
133.726317861435
 20
158.131167611336
 30
0.0
 40
2.99999994933605
  1
6x20
 50
359.999999948034
 41
0.933333333333333
 72
     1
 11
139.026317773282
 21
159.631167581223
 31
0.0
 73
     2
  0
LINE
  5
   316
  8
0
  6
CONTINUOUS
 62
     7
 10
144.326317683775
 20
157.131167606555
 30
0.0
 11
124.558367118239
 21
157.131167606555
 31
0.0
  0
LINE
  5
   317
  8
0
  6
CONTINUOUS
 62
     7
 10
129.912790431209
 20
157.652112036507
 30
0.0
 11
126.958367154002
 21
157.131167606555
 31
0.0
  0
LINE
  5
   318
  8
0
  6
CONTINUOUS
 62
     7
 10
126.958367154002
 20
157.131167606555
 30
0.0
 11
129.912790431209
 21
156.610223176604
 31
0.0
  0
LINE
  5
   319
  8
0
  6
CONTINUOUS
 62
     7
 10
121.603943841032
 20
156.610223176604
 30
0.0
 11
124.558367118239
 21
157.131167606555
 31
0.0
  0
LINE
  5
   31A
  8
0
  6
CONTINUOUS
 62
     7
 10
124.558367118239
 20
157.131167606555
 30
0.0
 11
121.603943841032
 21
157.652112036507
 31
0.0
  0
ENDBLK
  5
   31B
  8
0
  6
CONTINUOUS
 62
     7
  0
BLOCK
  5
   31C
  8
0
  6
CONTINUOUS
 62
     7
  2
*UDIM2102
 70
    65
 10
0.0
 20
0.0
 30
0.0
  3
*UDIM2102
  0
TEXT
  5
   31D
  8
0
  6
CONTINUOUS
 62
     7
 10
127.983367209508
 20
46.8029417677614
 30
0.0
 40
2.99999994933605
  1
31
 50
359.999999948034
 41
0.933333333333333
 72
     1
 11
130.483367168641
 21
48.3029417401745
 31
0.0
 73
     2
  0
LINE
  5
   31E
  8
0
  6
CONTINUOUS
 62
     7
 10
136.958365548512
 20
54.7366389598263
 30
0.0
 11
136.958365548512
 21
43.8029417655065
 31
0.0
  0
LINE
  5
   31F
  8
0
  6
CONTINUOUS
 62
     7
 10
124.558365363738
 20
52.356471235973
 30
0.0
 11
124.558365363738
 21
43.8029417655065
 31
0.0
  0
LINE
  5
   320
  8
0
  6
CONTINUOUS
 62
     7
 10
136.958365548512
 20
45.8029417655065
 30
0.0
 11
124.558365363738
 21
45.8029417655065
 31
0.0
  0
LINE
  5
   321
  8
0
  6
CONTINUOUS
 62
     7
 10
134.003942271305
 20
45.2819973355548
 30
0.0
 11
136.958365548512
 21
45.8029417655065
 31
0.0
  0
LINE
  5
   322
  8
0
  6
CONTINUOUS
 62
     7
 10
136.958365548512
 20
45.8029417655065
 30
0.0
 11
134.003942271305
 21
46.3238861954582
 31
0.0
  0
LINE
  5
   323
  8
0
  6
CONTINUOUS
 62
     7
 10
127.512788640945
 20
46.3238861954582
 30
0.0
 11
124.558365363738
 21
45.8029417655065
 31
0.0
  0
LINE
  5
   324
  8
0
  6
CONTINUOUS
 62
     7
 10
124.558365363738
 20
45.8029417655065
 30
0.0
 11
127.512788640945
 21
45.2819973355548
 31
0.0
  0
ENDBLK
  5
   325
  8
0
  6
CONTINUOUS
 62
     7
  0
BLOCK
  5
   326
  8
0
  6
CONTINUOUS
 62
     7
  2
*UDIM2103
 70
    65
 10
0.0
 20
0.0
 30
0.0
  3
*UDIM2103
  0
TEXT
  5
   327
  8
0
  6
CONTINUOUS
 62
     7
 10
116.808367189217
 20
46.8029417664986
 30
0.0
 40
2.99999994933605
  1
5
 50
359.999999948034
 41
0.933333333333333
 72
     1
 11
117.908367171994
 21
48.3029417401745
 31
0.0
 73
     2
  0
LINE
  5
   328
  8
0
  6
CONTINUOUS
 62
     7
 10
122.558365333935
 20
52.356471235973
 30
0.0
 11
122.558365333935
 21
43.8029417655065
 31
0.0
  0
LINE
  5
   329
  8
0
  6
CONTINUOUS
 62
     7
 10
124.558365363738
 20
45.8029417655065
 30
0.0
 11
116.80836719057
 21
45.8029417655065
 31
0.0
  0
LINE
  5
   32A
  8
0
  6
CONTINUOUS
 62
     7
 10
127.512788640945
 20
46.3238861954582
 30
0.0
 11
124.558365363738
 21
45.8029417655065
 31
0.0
  0
LINE
  5
   32B
  8
0
  6
CONTINUOUS
 62
     7
 10
124.558365363738
 20
45.8029417655065
 30
0.0
 11
127.512788640945
 21
45.2819973355548
 31
0.0
  0
LINE
  5
   32C
  8
0
  6
CONTINUOUS
 62
     7
 10
119.603942056728
 20
45.2819973355548
 30
0.0
 11
122.558365333935
 21
45.8029417655065
 31
0.0
  0
LINE
  5
   32D
  8
0
  6
CONTINUOUS
 62
     7
 10
122.558365333935
 20
45.8029417655065
 30
0.0
 11
119.603942056728
 21
46.3238861954582
 31
0.0
  0
ENDBLK
  5
   32E
  8
0
  6
CONTINUOUS
 62
     7
  0
BLOCK
  5
   32F
  8
0
  6
CONTINUOUS
 62
     7
  2
*UDIM2104
 70
    65
 10
0.0
 20
0.0
 30
0.0
  3
*UDIM2104
  0
TEXT
  5
   330
  8
0
  6
CONTINUOUS
 62
     7
 10
90.8833697893654
 20
18.6083017640143
 30
0.0
 40
2.99999994933605
  1
195,5
 50
359.999999948034
 41
0.933333333333333
 72
     1
 11
97.5833696775689
 21
20.1083017326393
 31
0.0
 73
     2
  0
LINE
  5
   331
  8
0
  6
CONTINUOUS
 62
     7
 10
136.958365548512
 20
54.7366389598263
 30
0.0
 11
136.958365548512
 21
15.6083017579713
 31
0.0
  0
LINE
  5
   332
  8
0
  6
CONTINUOUS
 62
     7
 10
58.7583676636219
 20
65.2564180224355
 30
0.0
 11
58.7583676636219
 21
15.6083017579713
 31
0.0
  0
LINE
  5
   333
  8
0
  6
CONTINUOUS
 62
     7
 10
136.958365548512
 20
17.6083017579713
 30
0.0
 11
58.7583676636219
 21
17.6083017579713
 31
0.0
  0
LINE
  5
   334
  8
0
  6
CONTINUOUS
 62
     7
 10
134.003942271305
 20
17.0873573280196
 30
0.0
 11
136.958365548512
 21
17.6083017579713
 31
0.0
  0
LINE
  5
   335
  8
0
  6
CONTINUOUS
 62
     7
 10
136.958365548512
 20
17.6083017579713
 30
0.0
 11
134.003942271305
 21
18.1292461879229
 31
0.0
  0
LINE
  5
   336
  8
0
  6
CONTINUOUS
 62
     7
 10
61.7127909408289
 20
18.1292461879229
 30
0.0
 11
58.7583676636219
 21
17.6083017579713
 31
0.0
  0
LINE
  5
   337
  8
0
  6
CONTINUOUS
 62
     7
 10
58.7583676636219
 20
17.6083017579713
 30
0.0
 11
61.7127909408289
 21
17.0873573280196
 31
0.0
  0
ENDBLK
  5
   338
  8
0
  6
CONTINUOUS
 62
     7
  0
BLOCK
  5
   339
  8
0
  6
CONTINUOUS
 62
     7
  2
*UDIM2105
 70
    65
 10
0.0
 20
0.0
 30
0.0
  3
*UDIM2105
  0
TEXT
  5
   33A
  8
0
  6
CONTINUOUS
 62
     7
 10
94.7833697823122
 20
28.0355235816529
 30
0.0
 40
2.99999994933605
  1
190
 50
359.999999948034
 41
0.933333333333333
 72
     1
 11
98.683369717802
 21
29.5355235528034
 31
0.0
 73
     2
  0
LINE
  5
   33B
  8
0
  6
CONTINUOUS
 62
     7
 10
136.958365548512
 20
54.7366389598263
 30
0.0
 11
136.958365548512
 21
25.0355235781353
 31
0.0
  0
LINE
  5
   33C
  8
0
  6
CONTINUOUS
 62
     7
 10
60.9583676964045
 20
54.7520774464828
 30
0.0
 11
60.9583676964045
 21
25.0355235781353
 31
0.0
  0
LINE
  5
   33D
  8
0
  6
CONTINUOUS
 62
     7
 10
136.958365548512
 20
27.0355235781353
 30
0.0
 11
60.9583676964045
 21
27.0355235781353
 31
0.0
  0
LINE
  5
   33E
  8
0
  6
CONTINUOUS
 62
     7
 10
134.003942271305
 20
26.5145791481837
 30
0.0
 11
136.958365548512
 21
27.0355235781353
 31
0.0
  0
LINE
  5
   33F
  8
0
  6
CONTINUOUS
 62
     7
 10
136.958365548512
 20
27.0355235781353
 30
0.0
 11
134.003942271305
 21
27.556468008087
 31
0.0
  0
LINE
  5
   340
  8
0
  6
CONTINUOUS
 62
     7
 10
63.9127909736114
 20
27.556468008087
 30
0.0
 11
60.9583676964045
 21
27.0355235781353
 31
0.0
  0
LINE
  5
   341
  8
0
  6
CONTINUOUS
 62
     7
 10
60.9583676964045
 20
27.0355235781353
 30
0.0
 11
63.9127909736114
 21
26.5145791481837
 31
0.0
  0
ENDBLK
  5
   342
  8
0
  6
CONTINUOUS
 62
     7
  0
BLOCK
  5
   343
  8
0
  6
CONTINUOUS
 62
     7
  2
*UDIM2106
 70
    65
 10
0.0
 20
0.0
 30
0.0
  3
*UDIM2106
  0
TEXT
  5
   344
  8
0
  6
CONTINUOUS
 62
     7
 10
54.4083722100538
 20
28.0355235791275
 30
0.0
 40
2.99999994933605
  1
2
 50
359.999999948034
 41
0.933333333333333
 72
     1
 11
55.5083721928299
 21
29.5355235528034
 31
0.0
 73
     2
  0
LINE
  5
   345
  8
0
  6
CONTINUOUS
 62
     7
 10
60.1583676844836
 20
54.5175946843681
 30
0.0
 11
60.1583676844836
 21
25.0355235781353
 31
0.0
  0
LINE
  5
   346
  8
0
  6
CONTINUOUS
 62
     7
 10
60.9583676964045
 20
27.0355235781353
 30
0.0
 11
54.4083722114067
 21
27.0355235781353
 31
0.0
  0
LINE
  5
   347
  8
0
  6
CONTINUOUS
 62
     7
 10
63.9127909736114
 20
27.556468008087
 30
0.0
 11
60.9583676964045
 21
27.0355235781353
 31
0.0
  0
LINE
  5
   348
  8
0
  6
CONTINUOUS
 62
     7
 10
60.9583676964045
 20
27.0355235781353
 30
0.0
 11
63.9127909736114
 21
26.5145791481837
 31
0.0
  0
LINE
  5
   349
  8
0
  6
CONTINUOUS
 62
     7
 10
57.2039444072766
 20
26.5145791481837
 30
0.0
 11
60.1583676844836
 21
27.0355235781353
 31
0.0
  0
LINE
  5
   34A
  8
0
  6
CONTINUOUS
 62
     7
 10
60.1583676844836
 20
27.0355235781353
 30
0.0
 11
57.2039444072766
 21
27.556468008087
 31
0.0
  0
ENDBLK
  5
   34B
  8
0
  6
CONTINUOUS
 62
     7
  0
BLOCK
  5
   34C
  8
0
  6
CONTINUOUS
 62
     7
  2
*UDIM2107
 70
    65
 10
0.0
 20
0.0
 30
0.0
  3
*UDIM2107
  0
TEXT
  5
   34D
  8
0
  6
CONTINUOUS
 62
     7
 10
145.592943766998
 20
37.9268521566955
 30
0.0
 40
2.99999994933605
  1
3
 50
359.999999948034
 41
0.933333333333333
 72
     1
 11
146.692943749775
 21
39.4268521303714
 31
0.0
 73
     2
  0
TEXT
  5
   34E
  8
0
  6
CONTINUOUS
 62
     7
 10
142.842943792231
 20
37.9268521566955
 30
0.0
 40
2.99999994933605
  1
_
 50
359.999999948034
 41
0.933333333333333
 72
     1
 11
143.942943775007
 21
39.4268521303714
 31
0.0
 73
     2
  0
LINE
  5
   34F
  8
0
  6
CONTINUOUS
 62
     7
 10
138.158361217379
 20
54.6981490304508
 30
0.0
 11
138.158361217379
 21
34.9268521557034
 31
0.0
  0
LINE
  5
   350
  8
0
  6
CONTINUOUS
 62
     7
 10
136.958365548512
 20
54.7366389598263
 30
0.0
 11
136.958365548512
 21
34.9268521557034
 31
0.0
  0
LINE
  5
   351
  8
0
  6
CONTINUOUS
 62
     7
 10
147.792943731198
 20
36.9268521557034
 30
0.0
 11
136.958365548512
 21
36.9268521557034
 31
0.0
  0
LINE
  5
   352
  8
0
  6
CONTINUOUS
 62
     7
 10
141.112784494586
 20
37.4477965856551
 30
0.0
 11
138.158361217379
 21
36.9268521557034
 31
0.0
  0
LINE
  5
   353
  8
0
  6
CONTINUOUS
 62
     7
 10
138.158361217379
 20
36.9268521557034
 30
0.0
 11
141.112784494586
 21
36.4059077257517
 31
0.0
  0
LINE
  5
   354
  8
0
  6
CONTINUOUS
 62
     7
 10
134.003942271305
 20
36.4059077257517
 30
0.0
 11
136.958365548512
 21
36.9268521557034
 31
0.0
  0
LINE
  5
   355
  8
0
  6
CONTINUOUS
 62
     7
 10
136.958365548512
 20
36.9268521557034
 30
0.0
 11
134.003942271305
 21
37.4477965856551
 31
0.0
  0
ENDBLK
  5
   356
  8
0
  6
CONTINUOUS
 62
     7
  0
BLOCK
  5
   357
  8
0
  6
CONTINUOUS
 62
     7
  2
*UDIM2108
 70
    65
 10
0.0
 20
0.0
 30
0.0
  3
*UDIM2108
  0
TEXT
  5
   358
  8
0
  6
CONTINUOUS
 62
     7
 10
99.383348509603
 20
37.926852159221
 30
0.0
 40
2.99999994933605
  1
167
 50
359.999999948034
 41
0.933333333333333
 72
     1
 11
103.283348445093
 21
39.4268521303714
 31
0.0
 73
     2
  0
LINE
  5
   359
  8
0
  6
CONTINUOUS
 62
     7
 10
70.1583369765478
 20
91.5564319397818
 30
0.0
 11
70.1583369765478
 21
34.9268521557034
 31
0.0
  0
LINE
  5
   35A
  8
0
  6
CONTINUOUS
 62
     7
 10
136.958365548512
 20
36.9268521557034
 30
0.0
 11
70.1583369765478
 21
36.9268521557034
 31
0.0
  0
LINE
  5
   35B
  8
0
  6
CONTINUOUS
 62
     7
 10
134.003942271305
 20
36.4059077257517
 30
0.0
 11
136.958365548512
 21
36.9268521557034
 31
0.0
  0
LINE
  5
   35C
  8
0
  6
CONTINUOUS
 62
     7
 10
136.958365548512
 20
36.9268521557034
 30
0.0
 11
134.003942271305
 21
37.4477965856551
 31
0.0
  0
LINE
  5
   35D
  8
0
  6
CONTINUOUS
 62
     7
 10
73.1127602537548
 20
37.4477965856551
 30
0.0
 11
70.1583369765478
 21
36.9268521557034
 31
0.0
  0
LINE
  5
   35E
  8
0
  6
CONTINUOUS
 62
     7
 10
70.1583369765478
 20
36.9268521557034
 30
0.0
 11
73.1127602537548
 21
36.4059077257517
 31
0.0
  0
ENDBLK
  5
   35F
  8
0
  6
CONTINUOUS
 62
     7
  0
BLOCK
  5
   360
  8
0
  6
CONTINUOUS
 62
     7
  2
*UDIM2109
 70
    65
 10
0.0
 20
0.0
 30
0.0
  3
*UDIM2109
  0
TEXT
  5
   361
  8
0
  6
CONTINUOUS
 62
     7
 10
94.017837803622
 20
83.6814379046947
 30
0.0
 40
2.99999994933605
  1
1,75
 50
89.9999999480344
 41
0.933333333333333
 72
     1
 11
92.5178378337543
 21
88.9814378165469
 31
0.0
 73
     2
  0
LINE
  5
   362
  8
0
  6
CONTINUOUS
 62
     7
 10
76.358344129006
 20
97.75643909224
 30
0.0
 11
97.0178378084223
 21
97.75643909224
 31
0.0
  0
LINE
  5
   363
  8
0
  6
CONTINUOUS
 62
     7
 10
95.0178378084223
 20
83.6814379060532
 30
0.0
 11
95.0178378084223
 21
98.4564719080154
 31
0.0
  0
LINE
  5
   364
  8
0
  6
CONTINUOUS
 62
     7
 10
95.538782238374
 20
94.8020158150331
 30
0.0
 11
95.0178378084223
 21
97.75643909224
 31
0.0
  0
LINE
  5
   365
  8
0
  6
CONTINUOUS
 62
     7
 10
95.0178378084223
 20
97.75643909224
 30
0.0
 11
94.4968933784707
 21
94.8020158150331
 31
0.0
  0
LINE
  5
   366
  8
0
  6
CONTINUOUS
 62
     7
 10
94.4968933784707
 20
101.410895185222
 30
0.0
 11
95.0178378084223
 21
98.4564719080154
 31
0.0
  0
LINE
  5
   367
  8
0
  6
CONTINUOUS
 62
     7
 10
95.0178378084223
 20
98.4564719080154
 30
0.0
 11
95.538782238374
 21
101.410895185222
 31
0.0
  0
ENDBLK
  5
   368
  8
0
  6
CONTINUOUS
 62
     7
  0
BLOCK
  5
   369
  8
0
  6
CONTINUOUS
 62
     7
  2
*UDIM2110
 70
    65
 10
0.0
 20
0.0
 30
0.0
  3
*UDIM2110
  0
TEXT
  5
   36A
  8
0
  6
CONTINUOUS
 62
     7
 10
79.1446426547719
 20
91.0507057754799
 30
0.0
 40
2.99999994933605
  1
5,5
 50
318.152248114506
 41
0.933333333333333
 72
     1
 11
83.0505618109369
 21
89.5661873499373
 31
0.0
 73
     2
  0
TEXT
  5
   36B
  8
0
  6
CONTINUOUS
 62
     7
 10
76.7981439497908
 20
93.152239386525
 30
0.0
 40
2.99999994933605
  1
Ø
 50
318.152248114506
 41
0.933333333333333
 72
     1
 11
78.6182864852202
 21
93.5357508385779
 31
0.0
 73
     2
  0
LINE
  5
   36C
  8
0
  6
CONTINUOUS
 62
     7
 10
84.2878668490133
 20
85.1019880261662
 30
0.0
 11
69.3389292682796
 21
98.4903162444392
 31
0.0
  0
LINE
  5
   36D
  8
0
  6
CONTINUOUS
 62
     7
 10
73.5261118986989
 20
95.439587896515
 30
0.0
 11
70.9777522974221
 21
97.0225797924452
 31
0.0
  0
LINE
  5
   36E
  8
0
  6
CONTINUOUS
 62
     7
 10
70.9777522974221
 20
97.0225797924452
 30
0.0
 11
72.8310120592915
 21
94.6634638022837
 31
0.0
  0
LINE
  5
   36F
  8
0
  6
CONTINUOUS
 62
     7
 10
66.7905696670029
 20
100.073308140369
 30
0.0
 11
69.3389292682796
 21
98.4903162444392
 31
0.0
  0
LINE
  5
   370
  8
0
  6
CONTINUOUS
 62
     7
 10
69.3389292682796
 20
98.4903162444392
 30
0.0
 11
67.4856695064103
 21
100.849432234601
 31
0.0
  0
ENDBLK
  5
   371
  8
0
  6
CONTINUOUS
 62
     7
  0
BLOCK
  5
   372
  8
0
  6
CONTINUOUS
 62
     7
  2
*UDIM2111
 70
    65
 10
0.0
 20
0.0
 30
0.0
  3
*UDIM2111
  0
TEXT
  5
   373
  8
0
  6
CONTINUOUS
 62
     7
 10
37.4993906126019
 20
94.2814719207384
 30
0.0
 40
2.99999994933605
  1
105
 50
89.9999999480344
 41
0.933333333333333
 72
     1
 11
35.9993906414662
 21
98.1814718562338
 31
0.0
 73
     2
  0
LINE
  5
   374
  8
0
  6
CONTINUOUS
 62
     7
 10
46.7583674997092
 20
77.456471595091
 30
0.0
 11
36.4993906161342
 21
77.456471595091
 31
0.0
  0
LINE
  5
   375
  8
0
  6
CONTINUOUS
 62
     7
 10
46.7583674997092
 20
119.45647222094
 30
0.0
 11
36.4993906161342
 21
119.45647222094
 31
0.0
  0
LINE
  5
   376
  8
0
  6
CONTINUOUS
 62
     7
 10
38.4993906161342
 20
77.456471595091
 30
0.0
 11
38.4993906161342
 21
119.45647222094
 31
0.0
  0
LINE
  5
   377
  8
0
  6
CONTINUOUS
 62
     7
 10
37.9784461861825
 20
80.410894872298
 30
0.0
 11
38.4993906161342
 21
77.456471595091
 31
0.0
  0
LINE
  5
   378
  8
0
  6
CONTINUOUS
 62
     7
 10
38.4993906161342
 20
77.456471595091
 30
0.0
 11
39.0203350460858
 21
80.410894872298
 31
0.0
  0
LINE
  5
   379
  8
0
  6
CONTINUOUS
 62
     7
 10
39.0203350460858
 20
116.502048943733
 30
0.0
 11
38.4993906161342
 21
119.45647222094
 31
0.0
  0
LINE
  5
   37A
  8
0
  6
CONTINUOUS
 62
     7
 10
38.4993906161342
 20
119.45647222094
 30
0.0
 11
37.9784461861825
 21
116.502048943733
 31
0.0
  0
ENDBLK
  5
   37B
  8
0
  6
CONTINUOUS
 62
     7
  0
BLOCK
  5
   37C
  8
0
  6
CONTINUOUS
 62
     7
  2
*UDIM2112
 70
    65
 10
0.0
 20
0.0
 30
0.0
  3
*UDIM2112
  0
TEXT
  5
   37D
  8
0
  6
CONTINUOUS
 62
     7
 10
33.0219828647299
 20
173.184353870802
 30
0.0
 40
2.99999994933605
  1
27,5
 50
359.999999948034
 41
0.933333333333333
 72
     1
 11
38.3219827765765
 21
174.684353840689
 31
0.0
 73
     2
  0
LINE
  5
   37E
  8
0
  6
CONTINUOUS
 62
     7
 10
58.7583676636219
 20
131.656417456191
 30
0.0
 11
58.7583676636219
 21
174.184353866021
 31
0.0
  0
LINE
  5
   37F
  8
0
  6
CONTINUOUS
 62
     7
 10
47.7583674997092
 20
120.45647222094
 30
0.0
 11
47.7583674997092
 21
174.184353866021
 31
0.0
  0
LINE
  5
   380
  8
0
  6
CONTINUOUS
 62
     7
 10
58.7583676636219
 20
172.184353866021
 30
0.0
 11
33.0219828660828
 21
172.184353866021
 31
0.0
  0
LINE
  5
   381
  8
0
  6
CONTINUOUS
 62
     7
 10
61.7127909408289
 20
172.705298295973
 30
0.0
 11
58.7583676636219
 21
172.184353866021
 31
0.0
  0
LINE
  5
   382
  8
0
  6
CONTINUOUS
 62
     7
 10
58.7583676636219
 20
172.184353866021
 30
0.0
 11
61.7127909408289
 21
171.66340943607
 31
0.0
  0
LINE
  5
   383
  8
0
  6
CONTINUOUS
 62
     7
 10
44.8039442225022
 20
171.66340943607
 30
0.0
 11
47.7583674997092
 21
172.184353866021
 31
0.0
  0
LINE
  5
   384
  8
0
  6
CONTINUOUS
 62
     7
 10
47.7583674997092
 20
172.184353866021
 30
0.0
 11
44.8039442225022
 21
172.705298295973
 31
0.0
  0
ENDBLK
  5
   385
  8
0
  6
CONTINUOUS
 62
     7
  0
ENDSEC
  0
SECTION
  2
ENTITIES
  0
LINE
  5
   386
  8
0
  6
CONTINUOUS
 62
     7
 10
74.7469177246094
 20
-81.7732086181641
 30
0.0
 11
108.496917724609
 21
-81.7732086181641
 31
0.0
  0
LINE
  5
   387
  8
0
  6
CONTINUOUS
 62
     7
 10
74.7469177246094
 20
-50.2732086181641
 30
0.0
 11
108.496917724609
 21
-50.2732086181641
 31
0.0
  0
LINE
  5
   388
  8
0
  6
CONTINUOUS
 62
     7
 10
108.496917724609
 20
-50.2732086181641
 30
0.0
 11
108.496917724609
 21
-70.8357086181641
 31
0.0
  0
LINE
  5
   389
  8
0
  6
CONTINUOUS
 62
     7
 10
74.7469177246094
 20
-50.2732086181641
 30
0.0
 11
74.7469177246094
 21
-81.7732086181641
 31
0.0
  0
LINE
  5
   38A
  8
0
  6
DASHDOT
 62
     7
 10
104.021931178014
 20
-72.8357086181641
 30
0.0
 11
118.002224124051
 21
-72.8357086181641
 31
0.0
  0
LINE
  5
   38B
  8
0
  6
CONTINUOUS
 62
     7
 10
108.496917724609
 20
-70.8357086181641
 30
0.0
 11
114.246917724609
 21
-70.8357086181641
 31
0.0
  0
LINE
  5
   38C
  8
0
  6
CONTINUOUS
 62
     7
 10
108.496917724609
 20
-74.8357086181641
 30
0.0
 11
114.246917724609
 21
-74.8357086181641
 31
0.0
  0
ARC
  5
   38D
  8
0
  6
CONTINUOUS
 62
     7
 10
114.246917724609
 20
-72.8357086181641
 30
0.0
 40
2.0
 50
269.999999844103
 51
449.999999844103
  0
LINE
  5
   38E
  8
0
  6
CONTINUOUS
 62
     7
 10
108.496917724609
 20
-74.8357086181641
 30
0.0
 11
108.496917724609
 21
-81.7732086181641
 31
0.0
  0
LINE
  5
   38F
  8
0
  6
DASHDOT
 62
     7
 10
92.7469177246094
 20
-40.395717457309
 30
0.0
 11
92.7469177246094
 21
-89.1683899357155
 31
0.0
  0
CIRCLE
  5
   390
  8
0
  6
CONTINUOUS
 62
     7
 10
81.7469177246094
 20
-48.2732086181641
 30
0.0
 40
0.875
  0
CIRCLE
  5
   391
  8
0
  6
CONTINUOUS
 62
     7
 10
112.996917724609
 20
-48.2732086181641
 30
0.0
 40
1.0
  0
CIRCLE
  5
   392
  8
0
  6
CONTINUOUS
 62
     7
 10
112.996917724609
 20
-66.0232086181641
 30
0.0
 40
1.0
  0
CIRCLE
  5
   393
  8
0
  6
CONTINUOUS
 62
     7
 10
112.996917724609
 20
-83.7732086181641
 30
0.0
 40
0.875
  0
CIRCLE
  5
   394
  8
0
  6
CONTINUOUS
 62
     7
 10
81.7469177246094
 20
-83.7732086181641
 30
0.0
 40
1.0
  0
LINE
  5
   395
  8
0
  6
DASHDOT
 62
     7
 10
81.7469177246094
 20
-46.6482086181641
 30
0.0
 11
81.7469177246094
 21
-49.8982086181641
 31
0.0
  0
LINE
  5
   396
  8
0
  6
DASHDOT
 62
     7
 10
80.1219177246094
 20
-48.2732086181641
 30
0.0
 11
83.3719177246094
 21
-48.2732086181641
 31
0.0
  0
LINE
  5
   397
  8
0
  6
DASHDOT
 62
     7
 10
112.996917724609
 20
-46.6482086181641
 30
0.0
 11
112.996917724609
 21
-49.8982086181641
 31
0.0
  0
LINE
  5
   398
  8
0
  6
DASHDOT
 62
     7
 10
111.371917724609
 20
-48.2732086181641
 30
0.0
 11
114.621917724609
 21
-48.2732086181641
 31
0.0
  0
LINE
  5
   399
  8
0
  6
DASHDOT
 62
     7
 10
112.996917724609
 20
-64.3982086181641
 30
0.0
 11
112.996917724609
 21
-67.6482086181641
 31
0.0
  0
LINE
  5
   39A
  8
0
  6
DASHDOT
 62
     7
 10
111.371917724609
 20
-66.0232086181641
 30
0.0
 11
114.621917724609
 21
-66.0232086181641
 31
0.0
  0
LINE
  5
   39B
  8
0
  6
DASHDOT
 62
     7
 10
112.996917724609
 20
-82.1482086181641
 30
0.0
 11
112.996917724609
 21
-85.3982086181641
 31
0.0
  0
LINE
  5
   39C
  8
0
  6
DASHDOT
 62
     7
 10
111.371917724609
 20
-83.7732086181641
 30
0.0
 11
114.621917724609
 21
-83.7732086181641
 31
0.0
  0
LINE
  5
   39D
  8
0
  6
DASHDOT
 62
     7
 10
81.7469177246094
 20
-82.1482086181641
 30
0.0
 11
81.7469177246094
 21
-85.3982086181641
 31
0.0
  0
LINE
  5
   39E
  8
0
  6
DASHDOT
 62
     7
 10
80.1219177246094
 20
-83.7732086181641
 30
0.0
 11
83.3719177246094
 21
-83.7732086181641
 31
0.0
  0
LINE
  5
   39F
  8
0
  6
CONTINUOUS
 62
     7
 10
68.8223586472163
 20
-45.2732086181641
 30
0.0
 11
119.602648881001
 21
-45.2732086181641
 31
0.0
  0
LINE
  5
   3A0
  8
0
  6
CONTINUOUS
 62
     7
 10
68.1889473163279
 20
-86.7732086181641
 30
0.0
 11
119.602648881001
 21
-86.7732086181641
 31
0.0
  0
LINE
  5
   3A1
  8
0
  6
CONTINUOUS
 62
     7
 10
69.7469177246094
 20
-44.4431635705673
 30
0.0
 11
69.7469177246094
 21
-88.2842764013427
 31
0.0
  0
POINT
  5
   3A2
  8
0
  6
CONTINUOUS
 62
     7
 10
116.246917724609
 20
-72.9607086181641
 30
0.0
  0
LINE
  5
   3A3
  8
0
  6
DASHDOT
 62
     7
 10
65.2861929614658
 20
-66.0232086181641
 30
0.0
 11
120.739646024746
 21
-66.0232086181641
 31
0.0
  0
CIRCLE
  5
   3A4
  8
0
  6
CONTINUOUS
 62
     7
 10
98.3719177246094
 20
-47.8982086181641
 30
0.0
 40
0.5
  0
CIRCLE
  5
   3A5
  8
0
  6
CONTINUOUS
 62
     7
 10
87.1219177246094
 20
-47.8982086181641
 30
0.0
 40
0.5
  0
CIRCLE
  5
   3A6
  8
0
  6
CONTINUOUS
 62
     7
 10
98.3719177246094
 20
-47.8982086181641
 30
0.0
 40
0.92
  0
CIRCLE
  5
   3A7
  8
0
  6
CONTINUOUS
 62
     7
 10
87.1219177246094
 20
-47.8982086181641
 30
0.0
 40
0.92
  0
LINE
  5
   3A8
  8
0
  6
DASHDOT
 62
     7
 10
98.3719177246094
 20
-46.2282086181641
 30
0.0
 11
98.3719177246094
 21
-49.5682086181641
 31
0.0
  0
LINE
  5
   3A9
  8
0
  6
DASHDOT
 62
     7
 10
96.7019177246094
 20
-47.8982086181641
 30
0.0
 11
100.041917724609
 21
-47.8982086181641
 31
0.0
  0
LINE
  5
   3AA
  8
0
  6
DASHDOT
 62
     7
 10
87.1219177246094
 20
-46.2282086181641
 30
0.0
 11
87.1219177246094
 21
-49.5682086181641
 31
0.0
  0
LINE
  5
   3AB
  8
0
  6
DASHDOT
 62
     7
 10
85.4519177246094
 20
-47.8982086181641
 30
0.0
 11
88.7919177246094
 21
-47.8982086181641
 31
0.0
  0
LINE
  5
   3AC
  8
0
  6
CONTINUOUS
 62
     7
 10
119.602648881001
 20
-45.2732086181641
 30
0.0
 11
119.602648881001
 21
-86.7732086181641
 31
0.0
  0
LINE
  5
   3AD
  8
0
  6
CONTINUOUS
 62
     7
 10
122.251482218143
 20
-50.2366212023142
 30
0.0
 11
122.251482218143
 21
-57.4607121217918
 31
0.0
  0
LINE
  5
   3AE
  8
0
  6
CONTINUOUS
 62
     7
 10
119.602648881001
 20
-50.2366212023142
 30
0.0
 11
122.251482218143
 21
-50.2366212023142
 31
0.0
  0
LINE
  5
   3AF
  8
0
  6
CONTINUOUS
 62
     7
 10
119.602648881001
 20
-57.4607121217918
 30
0.0
 11
122.251482218143
 21
-57.4607121217918
 31
0.0
  0
LINE
  5
   3B0
  8
0
  6
CONTINUOUS
 62
     7
 10
122.251482218143
 20
-74.5857051145363
 30
0.0
 11
122.251482218143
 21
-81.809796034014
 31
0.0
  0
LINE
  5
   3B1
  8
0
  6
CONTINUOUS
 62
     7
 10
119.602648881001
 20
-81.809796034014
 30
0.0
 11
122.251482218143
 21
-81.809796034014
 31
0.0
  0
LINE
  5
   3B2
  8
0
  6
CONTINUOUS
 62
     7
 10
119.602648881001
 20
-74.5857051145363
 30
0.0
 11
122.251482218143
 21
-74.5857051145363
 31
0.0
  0
LINE
  5
   3B3
  8
0
  6
DASHDOT
 62
     7
 10
120.927065549572
 20
-42.9180870199311
 30
0.0
 11
120.927065549572
 21
-89.3743021816094
 31
0.0
  0
LINE
  5
   3B4
  8
0
  6
CONTINUOUS
 62
     7
 10
66.4048777836412
 20
-27.9526969993694
 30
0.0
 11
85.5153318192196
 21
-46.6904294136865
 31
0.0
  0
LINE
  5
   3B5
  8
0
  6
CONTINUOUS
 62
     7
 10
31.7288319384411
 20
-27.9526969993695
 30
0.0
 11
66.4048777836412
 21
-27.9526969993695
 31
0.0
  0
LINE
  5
   3B6
  8
0
  6
CONTINUOUS
 62
     7
 10
81.7566564160028
 20
-44.5694310861724
 30
0.0
 11
85.5153318192196
 21
-46.6904294136866
 31
0.0
  0
LINE
  5
   3B7
  8
0
  6
CONTINUOUS
 62
     7
 10
83.3940026534304
 20
-43.0983398755094
 30
0.0
 11
85.5153318192197
 21
-46.6904294136865
 31
0.0
  0
INSERT
  5
   3B8
  8
0
  6
CONTINUOUS
 62
     7
  2
*UDIM2058
 10
0.0
 20
0.0
 30
0.0
  0
INSERT
  5
   3B9
  8
0
  6
CONTINUOUS
 62
     7
  2
*UDIM2059
 10
0.0
 20
0.0
 30
0.0
  0
INSERT
  5
   3BA
  8
0
  6
CONTINUOUS
 62
     7
  2
*UDIM2060
 10
0.0
 20
0.0
 30
0.0
  0
TEXT
  5
   3BB
  8
0
  6
CONTINUOUS
 62
     7
 10
144.134887780646
 20
-67.4415963829488
 30
0.0
 40
3.00000002980232
  1
X
 50
359.999999844103
 41
0.916666604744064
 72
     1
 11
145.234887719154
 21
-65.9415963710352
 31
0.0
 73
     2
  0
TEXT
  5
   3BC
  8
0
  6
CONTINUOUS
 62
     7
 10
36.3137339359966
 20
-26.3561630848572
 30
0.0
 40
4.00000017881393
  1
PART. Z
 50
359.999999844103
 41
0.915624995566905
 72
     1
 11
48.7662344276905
 21
-24.3561630292698
 31
0.0
 73
     2
  0
INSERT
  5
   3BD
  8
0
  6
CONTINUOUS
 62
     7
  2
*UDIM2061
 10
0.0
 20
0.0
 30
0.0
  0
INSERT
  5
   3BE
  8
0
  6
CONTINUOUS
 62
     7
  2
*UDIM2062
 10
0.0
 20
0.0
 30
0.0
  0
INSERT
  5
   3BF
  8
0
  6
CONTINUOUS
 62
     7
  2
*UDIM2063
 10
0.0
 20
0.0
 30
0.0
  0
TEXT
  5
   3C0
  8
0
  6
CONTINUOUS
 62
     7
 10
68.418309274538
 20
-76.5806176017671
 30
0.0
 40
3.00000002980232
  1
=     =
 50
449.999999844103
 41
0.916666604744064
 72
     2
 11
68.4183093253016
 21
-57.8806186835914
 31
0.0
  0
INSERT
  5
   3C1
  8
0
  6
CONTINUOUS
 62
     7
  2
*UDIM2064
 10
0.0
 20
0.0
 30
0.0
  0
INSERT
  5
   3C2
  8
0
  6
CONTINUOUS
 62
     7
  2
*UDIM2065
 10
0.0
 20
0.0
 30
0.0
  0
INSERT
  5
   3C3
  8
0
  6
CONTINUOUS
 62
     7
  2
*UDIM2066
 10
0.0
 20
0.0
 30
0.0
  0
INSERT
  5
   3C4
  8
0
  6
CONTINUOUS
 62
     7
  2
*UDIM2067
 10
0.0
 20
0.0
 30
0.0
  0
INSERT
  5
   3C5
  8
0
  6
CONTINUOUS
 62
     7
  2
*UDIM2068
 10
0.0
 20
0.0
 30
0.0
  0
INSERT
  5
   3C6
  8
0
  6
CONTINUOUS
 62
     7
  2
*UDIM2069
 10
0.0
 20
0.0
 30
0.0
  0
INSERT
  5
   3C7
  8
0
  6
CONTINUOUS
 62
     7
  2
*UDIM2070
 10
0.0
 20
0.0
 30
0.0
  0
INSERT
  5
   3C8
  8
0
  6
CONTINUOUS
 62
     7
  2
*UDIM2071
 10
0.0
 20
0.0
 30
0.0
  0
INSERT
  5
   3C9
  8
0
  6
CONTINUOUS
 62
     7
  2
*UDIM2072
 10
0.0
 20
0.0
 30
0.0
  0
INSERT
  5
   3CA
  8
0
  6
CONTINUOUS
 62
     7
  2
*UDIM2073
 10
0.0
 20
0.0
 30
0.0
  0
INSERT
  5
   3CB
  8
0
  6
CONTINUOUS
 62
     7
  2
*UDIM2074
 10
0.0
 20
0.0
 30
0.0
  0
TEXT
  5
   3CC
  8
0
  6
CONTINUOUS
 62
     7
 10
91.9686429400217
 20
-102.75526816606
 30
0.0
 40
3.00000002980232
  1
Y
 50
359.999999844103
 41
0.916666604744064
 72
     2
 11
94.1686428088915
 21
-102.755268172035
 31
0.0
  0
TEXT
  5
   3CD
  8
0
  6
CONTINUOUS
 62
     7
 10
91.1159344811213
 20
-3.59510810136288
 30
0.0
 40
3.00000002980232
  1
Y
 50
359.999999844103
 41
0.916666604744064
 72
     2
 11
93.315934349991
 21
-3.59510810733783
 31
0.0
  0
TEXT
  5
   3CE
  8
0
  6
CONTINUOUS
 62
     7
 10
47.2905808586847
 20
-66.4888828492114
 30
0.0
 40
3.00000002980232
  1
X
 50
359.999999844103
 41
0.916666604744064
 72
     2
 11
49.4905807275545
 21
-66.4888828551863
 31
0.0
  0
LINE
  5
   3CF
  8
0
  6
CONTINUOUS
 62
     7
 10
172.747283935547
 20
-54.0649478750627
 30
0.0
 11
172.747283935547
 21
-77.9814693612655
 31
0.0
  0
LINE
  5
   3D0
  8
0
  6
CONTINUOUS
 62
     7
 10
170.747283935547
 20
-54.0649478750627
 30
0.0
 11
170.747283935547
 21
-77.9814693612655
 31
0.0
  0
LINE
  5
   3D1
  8
0
  6
DASHDOT
 62
     7
 10
167.54468083315
 20
-66.0232086181641
 30
0.0
 11
175.970900025587
 21
-66.0232086181641
 31
0.0
  0
POINT
  5
   3D2
  8
0
  6
CONTINUOUS
 62
     7
 10
170.747283935547
 20
-64.0232086181641
 30
0.0
  0
POINT
  5
   3D3
  8
0
  6
CONTINUOUS
 62
     7
 10
170.747283935547
 20
-68.0232086181641
 30
0.0
  0
LINE
  5
   3D4
  8
0
  6
CONTINUOUS
 62
     7
 10
172.747283935547
 20
-62.3450093558095
 30
0.0
 11
170.747283935547
 21
-64.0232086181641
 31
0.0
  0
LINE
  5
   3D5
  8
0
  6
CONTINUOUS
 62
     7
 10
170.747283935547
 20
-68.0232086181641
 30
0.0
 11
172.747283935547
 21
-69.7014078805186
 31
0.0
  0
LINE
  5
   3D6
  8
0
  6
CONTINUOUS
 62
     7
 10
170.747283935547
 20
-75.5232086181641
 30
0.0
 11
172.747283935547
 21
-75.5232086181641
 31
0.0
  0
CIRCLE
  5
   3D7
  8
0
  6
CONTINUOUS
 62
     7
 10
171.747283935547
 20
-66.0232086181641
 30
0.0
 40
12.0
  0
LINE
  5
   3D8
  8
0
  6
CONTINUOUS
 62
     7
 10
164.747291564941
 20
-70.5232086181641
 30
0.0
 11
167.247291564941
 21
-70.5232086181641
 31
0.0
  0
LINE
  5
   3D9
  8
0
  6
CONTINUOUS
 62
     7
 10
168.247291564941
 20
-61.5232086181641
 30
0.0
 11
168.247291564941
 21
-69.5232086181641
 31
0.0
  0
LINE
  5
   3DA
  8
0
  6
CONTINUOUS
 62
     7
 10
168.247291564941
 20
-61.5232086181641
 30
0.0
 11
170.747283935547
 21
-61.5232086181641
 31
0.0
  0
LINE
  5
   3DB
  8
0
  6
CONTINUOUS
 62
     7
 10
164.747291564941
 20
-73.0232086181641
 30
0.0
 11
167.247291564941
 21
-73.0232086181641
 31
0.0
  0
LINE
  5
   3DC
  8
0
  6
CONTINUOUS
 62
     7
 10
163.747291564941
 20
-74.0232086181641
 30
0.0
 11
163.747291564941
 21
-74.9674873520953
 31
0.0
  0
ARC
  5
   3DD
  8
0
  6
CONTINUOUS
 62
     7
 10
167.247295712221
 20
-69.5232092895028
 30
0.0
 40
0.999996977799109
 50
629.999840735313
 51
720.000252836193
  0
ARC
  5
   3DE
  8
0
  6
CONTINUOUS
 62
     7
 10
164.747306218448
 20
-74.0232213044685
 30
0.0
 40
3.50001845311552
 50
450.000186734275
 51
513.408761128067
  0
ARC
  5
   3DF
  8
0
  6
CONTINUOUS
 62
     7
 10
164.747247316791
 20
-74.0231677233817
 30
0.0
 40
0.999949821243504
 50
449.997764042825
 51
540.001169660043
  0
ARC
  5
   3E0
  8
0
  6
CONTINUOUS
 62
     7
 10
167.247310917323
 20
-69.5232406650983
 30
0.0
 40
3.49997105594423
 50
629.999653243441
 51
720.000420168909
  0
INSERT
  5
   3E1
  8
0
  6
CONTINUOUS
 62
     7
  2
*HATCH377
 10
171.747283935547
 20
-66.0232086181641
 30
0.0
 50
269.999999844103
  0
INSERT
  5
   3E2
  8
0
  6
CONTINUOUS
 62
     7
  2
*HATCH378
 10
171.747283935547
 20
-66.0232086181641
 30
0.0
 50
269.999999844103
  0
TEXT
  5
   3E3
  8
0
  6
CONTINUOUS
 62
     7
 10
158.334066272422
 20
-45.9759903553651
 30
0.0
 40
4.00000017881393
  1
PART. Z
 50
359.999999844103
 41
0.915624995566905
 72
     1
 11
170.786566764116
 21
-43.9759902997776
 31
0.0
 73
     2
  0
INSERT
  5
   3E4
  8
0
  6
CONTINUOUS
 62
     7
  2
*UDIM2075
 10
0.0
 20
0.0
 30
0.0
  0
INSERT
  5
   3E5
  8
0
  6
CONTINUOUS
 62
     7
  2
*UDIM2076
 10
0.0
 20
0.0
 30
0.0
  0
LINE
  5
   3E6
  8
0
  6
DASHDOT
 62
     7
 10
241.684906005859
 20
-36.4445165676006
 30
0.0
 11
241.684906005859
 21
-97.0386222699327
 31
0.0
  0
LINE
  5
   3E7
  8
0
  6
CONTINUOUS
 62
     3
 10
261.059906005859
 20
-39.0680453193356
 30
0.0
 11
261.059906005859
 21
-90.3357086181641
 31
0.0
  0
LINE
  5
   3E8
  8
0
  6
CONTINUOUS
 62
     3
 10
261.059906005859
 20
-90.3357086181641
 30
0.0
 11
216.684906005859
 21
-90.3357086181641
 31
0.0
  0
LINE
  5
   3E9
  8
0
  6
CONTINUOUS
 62
     3
 10
216.684906005859
 20
-39.0680453193356
 30
0.0
 11
216.684906005859
 21
-90.3357086181641
 31
0.0
  0
LINE
  5
   3EA
  8
0
  6
CONTINUOUS
 62
     3
 10
261.059906005859
 20
-39.0680453193356
 30
0.0
 11
216.684906005859
 21
-39.0680453193356
 31
0.0
  0
LINE
  5
   3EB
  8
0
  6
DASHDOT
 62
     7
 10
247.934906005859
 20
-48.9315838182041
 30
0.0
 11
247.934906005859
 21
-82.7504142223467
 31
0.0
  0
LINE
  5
   3EC
  8
0
  6
DASHDOT
 62
     7
 10
221.684906005859
 20
-48.6349274111502
 30
0.0
 11
221.684906005859
 21
-82.8987424258736
 31
0.0
  0
LINE
  5
   3ED
  8
0
  6
DASHDOT
 62
     7
 10
255.337106946618
 20
-52.9607086181641
 30
0.0
 11
222.853230374218
 21
-52.9607086181641
 31
0.0
  0
LINE
  5
   3EE
  8
0
  6
DASHDOT
 62
     7
 10
255.782091557199
 20
-77.9607086181641
 30
0.0
 11
222.408245763637
 21
-77.9607086181641
 31
0.0
  0
CIRCLE
  5
   3EF
  8
0
  6
CONTINUOUS
 62
     7
 10
221.684906005859
 20
-52.9607086181641
 30
0.0
 40
0.625
  0
CIRCLE
  5
   3F0
  8
0
  6
CONTINUOUS
 62
     7
 10
247.934906005859
 20
-52.9607086181641
 30
0.0
 40
0.625
  0
CIRCLE
  5
   3F1
  8
0
  6
CONTINUOUS
 62
     7
 10
221.684906005859
 20
-77.9607086181641
 30
0.0
 40
0.625
  0
CIRCLE
  5
   3F2
  8
0
  6
CONTINUOUS
 62
     7
 10
247.934906005859
 20
-77.9607086181641
 30
0.0
 40
0.625
  0
LINE
  5
   3F3
  8
0
  6
DASHDOT
 62
     7
 10
263.066251082895
 20
-66.0232086181641
 30
0.0
 11
212.681791407437
 21
-66.0232086181641
 31
0.0
  0
TEXT
  5
   3F4
  8
0
  6
CONTINUOUS
 62
     1
 10
163.136889700767
 20
-193.480718893192
 30
0.0
 40
2.00000008940697
  1
M4504 98-11-17
 50
359.999999896069
 41
0.749999861419206
 72
     2
 11
183.83688679355
 21
-193.480718930637
 31
0.0
  0
TEXT
  5
   3F5
  8
0
  6
CONTINUOUS
 62
     1
 10
130.442901609519
 20
-186.930141523729
 30
0.0
 40
2.00000008940697
  1
SCARPELLINI
 50
359.999999896069
 41
0.749999861419206
 72
     2
 11
146.642899332622
 21
-186.930141553034
 31
0.0
  0
TEXT
  5
   3F6
  8
0
  6
CONTINUOUS
 62
     1
 10
138.296893362876
 20
-193.480726522587
 30
0.0
 40
2.00000008940697
  1
M4352 96-12-17
 50
359.999999896069
 41
0.749999861419206
 72
     2
 11
158.99689045566
 21
-193.480726560031
 31
0.0
  0
TEXT
  5
   3F7
  8
0
  6
CONTINUOUS
 62
     1
 10
130.442901609519
 20
-178.463394231654
 30
0.0
 40
2.00000008940697
  1
96-11-19 BARCELLA
 50
359.999999896069
 41
0.749999861419206
 72
     2
 11
155.642898071984
 21
-178.463394277238
 31
0.0
  0
TEXT
  5
   3F8
  8
0
  6
CONTINUOUS
 62
     1
 10
231.973709102828
 20
-204.68986525788
 30
0.0
 40
4.00000017881393
  1
605032/211
 50
359.999999896069
 41
0.937499973922969
 72
     2
 11
268.723709702599
 21
-204.689865324357
 31
0.0
  0
TEXT
  5
   3F9
  8
0
  6
CONTINUOUS
 62
     1
 10
250.059402463107
 20
-195.708282493541
 30
0.0
 40
3.00000002980232
  1
S3X
 50
359.999999896069
 41
0.916666604744064
 72
     2
 11
257.759402015079
 21
-195.70828250747
 31
0.0
  0
TEXT
  5
   3FA
  8
0
  6
CONTINUOUS
 62
     1
 10
227.618729596453
 20
-177.398010256937
 30
0.0
 40
2.00000008940697
  1
4POLE LOW VOLTAGE M.C.C.B SERIES ISOMAX
 50
359.999999896069
 41
0.593749948963525
 72
     1
 11
250.656228639185
 21
-176.398010253906
 31
0.0
 73
     2
  0
TEXT
  5
   3FB
  8
0
  6
CONTINUOUS
 62
     1
 10
221.087479865884
 20
-180.398010245122
 30
0.0
 40
2.00000008940697
  1
SUPERLIMITING WITHDRAWABLE VERSION FRONT TERMINALS
 50
359.999999896069
 41
0.593749948963525
 72
     1
 11
250.656228639185
 21
-179.398010253906
 31
0.0
 73
     2
  0
TEXT
  5
   3FC
  8
0
  6
CONTINUOUS
 62
     1
 10
215.602369909228
 20
-185.468276965284
 30
0.0
 40
2.00000008940697
  1
INTERR.AUTOMATICO SERIE ISOMAX SUPERLIMITATORE
 50
359.999999896069
 41
0.687499997764826
 72
     1
 11
247.08987121284
 21
-184.468276977539
 31
0.0
 73
     2
  0
TEXT
  5
   3FD
  8
0
  6
CONTINUOUS
 62
     1
 10
213.539869823733
 20
-188.468276961553
 30
0.0
 40
2.00000008940697
  1
TETRAP. ESECUZIONE ESTRAIBILE TERMINALI ANTERIORI
 50
359.999999896069
 41
0.687499997764826
 72
     1
 11
247.08987121284
 21
-187.468276977539
 31
0.0
 73
     2
  0
INSERT
  5
   3FE
  8
0
  6
CONTINUOUS
 62
     7
  2
*UDIM2077
 10
0.0
 20
0.0
 30
0.0
  0
INSERT
  5
   3FF
  8
0
  6
CONTINUOUS
 62
     7
  2
*UDIM2078
 10
0.0
 20
0.0
 30
0.0
  0
INSERT
  5
   400
  8
0
  6
CONTINUOUS
 62
     7
  2
*UDIM2079
 10
0.0
 20
0.0
 30
0.0
  0
INSERT
  5
   401
  8
0
  6
CONTINUOUS
 62
     7
  2
*UDIM2080
 10
0.0
 20
0.0
 30
0.0
  0
INSERT
  5
   402
  8
0
  6
CONTINUOUS
 62
     7
  2
*UDIM2081
 10
0.0
 20
0.0
 30
0.0
  0
TEXT
  5
   403
  8
0
  6
CONTINUOUS
 62
     7
 10
240.683178183703
 20
-100.818424252666
 30
0.0
 40
3.00000002980232
  1
Y
 50
359.999999896069
 41
0.916666604744064
 72
     2
 11
242.883178052573
 21
-100.818424256646
 31
0.0
  0
TEXT
  5
   404
  8
0
  6
CONTINUOUS
 62
     7
 10
240.53814410892
 20
-32.4203338901172
 30
0.0
 40
3.00000002980232
  1
Y
 50
359.999999896069
 41
0.916666604744064
 72
     2
 11
242.73814397779
 21
-32.4203338940968
 31
0.0
  0
TEXT
  5
   405
  8
0
  6
CONTINUOUS
 62
     7
 10
198.177364346652
 20
-67.5710079948078
 30
0.0
 40
3.00000002980232
  1
X
 50
359.999999896069
 41
0.916666604744064
 72
     2
 11
200.377364215522
 21
-67.5710079987874
 31
0.0
  0
TEXT
  5
   406
  8
0
  6
CONTINUOUS
 62
     7
 10
283.834480282931
 20
-67.2595089952121
 30
0.0
 40
3.00000002980232
  1
X
 50
359.999999896069
 41
0.916666604744064
 72
     2
 11
286.034480151801
 21
-67.2595089991917
 31
0.0
  0
LINE
  5
   407
  8
0
  6
CONTINUOUS
 62
     3
 10
206.684887398831
 20
64.8564691185179
 30
0.0
 11
206.684887398831
 21
167.856470653338
 31
0.0
  0
LINE
  5
   408
  8
0
  6
CONTINUOUS
 62
     7
 10
207.084903638125
 20
75.256478428762
 30
0.0
 11
207.084903638125
 21
75.6564784347225
 31
0.0
  0
LINE
  5
   409
  8
0
  6
CONTINUOUS
 62
     7
 10
210.284902922869
 20
75.6564784640663
 30
0.0
 11
206.684887398831
 21
75.6564784640663
 31
0.0
  0
LINE
  5
   40A
  8
0
  6
DASHDOT
 62
     7
 10
241.684904153705
 20
113.837801728581
 30
0.0
 11
241.684904153705
 21
125.401901928803
 31
0.0
  0
LINE
  5
   40B
  8
0
  6
DASHDOT
 62
     7
 10
241.684904153705
 20
60.0616957222833
 30
0.0
 11
241.684904153705
 21
110.73743456903
 31
0.0
  0
LINE
  5
   40C
  8
0
  6
DASHDOT
 62
     7
 10
241.684904153705
 20
110.428341479416
 30
0.0
 11
241.684904153705
 21
172.777492076107
 31
0.0
  0
LINE
  5
   40D
  8
0
  6
CONTINUOUS
 62
     7
 10
209.164903669131
 20
75.6564784640663
 30
0.0
 11
209.164903669131
 21
123.656469994706
 31
0.0
  0
LINE
  5
   40E
  8
0
  6
CONTINUOUS
 62
     7
 10
207.724903647673
 20
75.6564784640663
 30
0.0
 11
207.724903647673
 21
123.656469994706
 31
0.0
  0
LINE
  5
   40F
  8
0
  6
CONTINUOUS
 62
     7
 10
210.284902922869
 20
119.456472983878
 30
0.0
 11
206.684887398831
 21
119.456472983878
 31
0.0
  0
LINE
  5
   410
  8
0
  6
CONTINUOUS
 62
     7
 10
210.284902922869
 20
77.4564723580288
 30
0.0
 11
206.684887398831
 21
77.4564723580288
 31
0.0
  0
LINE
  5
   411
  8
0
  6
DASHDOT
 62
     5
 10
268.189156868127
 20
98.4564726709532
 30
0.0
 11
202.797297095477
 21
98.4564726709532
 31
0.0
  0
LINE
  5
   412
  8
0
  6
CONTINUOUS
 62
     3
 10
262.184897278811
 20
168.356470660788
 30
0.0
 11
207.184887406281
 21
168.356470660788
 31
0.0
  0
LINE
  5
   413
  8
0
  6
CONTINUOUS
 62
     3
 10
262.684918837333
 20
130.656473150771
 30
0.0
 11
262.684918837333
 21
167.856470653343
 31
0.0
  0
LINE
  5
   414
  8
0
  6
CONTINUOUS
 62
     3
 10
262.538451725835
 20
168.210025550161
 30
0.0
 11
262.184899472197
 21
168.356473308875
 31
0.0
  0
LINE
  5
   415
  8
0
  6
CONTINUOUS
 62
     3
 10
262.684898273358
 20
167.856475277726
 30
0.0
 11
262.538450514644
 21
168.210027531364
 31
0.0
  0
LINE
  5
   416
  8
0
  6
CONTINUOUS
 62
     3
 10
261.024899702932
 20
157.956477845907
 30
0.0
 11
261.024899702932
 21
168.232209184327
 31
0.0
  0
LINE
  5
   417
  8
0
  6
CONTINUOUS
 62
     3
 10
259.584897240068
 20
157.956477845907
 30
0.0
 11
259.584897240068
 21
168.232209184327
 31
0.0
  0
LINE
  5
   418
  8
0
  6
CONTINUOUS
 62
     3
 10
258.144897828962
 20
157.956477845907
 30
0.0
 11
258.144897828962
 21
168.232209184327
 31
0.0
  0
LINE
  5
   419
  8
0
  6
CONTINUOUS
 62
     3
 10
256.704898417856
 20
157.956477845907
 30
0.0
 11
256.704898417856
 21
168.232209184327
 31
0.0
  0
LINE
  5
   41A
  8
0
  6
CONTINUOUS
 62
     3
 10
255.26489900675
 20
157.956477845907
 30
0.0
 11
255.26489900675
 21
168.232209184327
 31
0.0
  0
LINE
  5
   41B
  8
0
  6
CONTINUOUS
 62
     3
 10
253.824899595644
 20
157.956477845907
 30
0.0
 11
253.824899595644
 21
168.232209184327
 31
0.0
  0
LINE
  5
   41C
  8
0
  6
CONTINUOUS
 62
     3
 10
252.38489713278
 20
157.956477845907
 30
0.0
 11
252.38489713278
 21
168.232209184327
 31
0.0
  0
LINE
  5
   41D
  8
0
  6
CONTINUOUS
 62
     3
 10
250.944897721674
 20
157.956477845907
 30
0.0
 11
250.944897721674
 21
168.232209184327
 31
0.0
  0
LINE
  5
   41E
  8
0
  6
CONTINUOUS
 62
     3
 10
249.504898310568
 20
157.956477845907
 30
0.0
 11
249.504898310568
 21
168.232209184327
 31
0.0
  0
LINE
  5
   41F
  8
0
  6
CONTINUOUS
 62
     3
 10
248.064898899462
 20
157.956477845907
 30
0.0
 11
248.064898899462
 21
168.232209184327
 31
0.0
  0
LINE
  5
   420
  8
0
  6
CONTINUOUS
 62
     3
 10
246.624899488355
 20
157.956477845907
 30
0.0
 11
246.624899488355
 21
168.232209184327
 31
0.0
  0
LINE
  5
   421
  8
0
  6
CONTINUOUS
 62
     3
 10
245.18489855137
 20
157.956477845907
 30
0.0
 11
245.18489855137
 21
168.232209184327
 31
0.0
  0
LINE
  5
   422
  8
0
  6
CONTINUOUS
 62
     3
 10
243.744899140264
 20
157.956477845907
 30
0.0
 11
243.744899140264
 21
168.232209184327
 31
0.0
  0
LINE
  5
   423
  8
0
  6
CONTINUOUS
 62
     3
 10
242.304898203279
 20
157.956477845907
 30
0.0
 11
242.304898203279
 21
168.232209184327
 31
0.0
  0
LINE
  5
   424
  8
0
  6
CONTINUOUS
 62
     3
 10
240.864898792173
 20
157.956477845907
 30
0.0
 11
240.864898792173
 21
168.232209184327
 31
0.0
  0
LINE
  5
   425
  8
0
  6
CONTINUOUS
 62
     3
 10
239.424897855188
 20
157.956477845907
 30
0.0
 11
239.424897855188
 21
168.232209184327
 31
0.0
  0
LINE
  5
   426
  8
0
  6
CONTINUOUS
 62
     3
 10
237.984898444082
 20
157.956477845907
 30
0.0
 11
237.984898444082
 21
168.232209184327
 31
0.0
  0
LINE
  5
   427
  8
0
  6
CONTINUOUS
 62
     3
 10
229.26489861932
 20
157.956477845907
 30
0.0
 11
229.26489861932
 21
168.232209184327
 31
0.0
  0
LINE
  5
   428
  8
0
  6
CONTINUOUS
 62
     3
 10
230.704898030426
 20
157.956477845907
 30
0.0
 11
230.704898030426
 21
168.232209184327
 31
0.0
  0
LINE
  5
   429
  8
0
  6
CONTINUOUS
 62
     3
 10
232.144898967411
 20
157.956477845907
 30
0.0
 11
232.144898967411
 21
168.232209184327
 31
0.0
  0
LINE
  5
   42A
  8
0
  6
CONTINUOUS
 62
     3
 10
233.584898378517
 20
157.956477845907
 30
0.0
 11
233.584898378517
 21
168.232209184327
 31
0.0
  0
LINE
  5
   42B
  8
0
  6
CONTINUOUS
 62
     3
 10
235.024898399975
 20
157.956477845907
 30
0.0
 11
235.024898399975
 21
168.232209184327
 31
0.0
  0
LINE
  5
   42C
  8
0
  6
CONTINUOUS
 62
     3
 10
236.464898421432
 20
157.956477845907
 30
0.0
 11
236.464898421432
 21
168.232209184327
 31
0.0
  0
LINE
  5
   42D
  8
0
  6
CONTINUOUS
 62
     3
 10
227.824898597862
 20
157.956477845907
 30
0.0
 11
227.824898597862
 21
168.232209184327
 31
0.0
  0
LINE
  5
   42E
  8
0
  6
CONTINUOUS
 62
     3
 10
226.384898576404
 20
157.956477845907
 30
0.0
 11
226.384898576404
 21
168.232209184327
 31
0.0
  0
LINE
  5
   42F
  8
0
  6
CONTINUOUS
 62
     3
 10
224.944898554947
 20
157.956477845907
 30
0.0
 11
224.944898554947
 21
168.232209184327
 31
0.0
  0
LINE
  5
   430
  8
0
  6
CONTINUOUS
 62
     3
 10
223.504898533489
 20
157.956477845907
 30
0.0
 11
223.504898533489
 21
168.232209184327
 31
0.0
  0
LINE
  5
   431
  8
0
  6
CONTINUOUS
 62
     3
 10
222.064898512031
 20
157.956477845907
 30
0.0
 11
222.064898512031
 21
168.356470660788
 31
0.0
  0
CIRCLE
  5
   432
  8
0
  6
CONTINUOUS
 62
     7
 10
263.853358489615
 20
128.592512333806
 30
0.0
 40
8.00000011920929E-2
  0
LINE
  5
   433
  8
0
  6
CONTINUOUS
 62
     2
 10
262.684918837333
 20
152.556477765441
 30
0.0
 11
206.684887398831
 21
152.556477765441
 31
0.0
  0
LINE
  5
   434
  8
0
  6
CONTINUOUS
 62
     2
 10
262.684918837333
 20
152.156477759481
 30
0.0
 11
206.684887398831
 21
152.156477759481
 31
0.0
  0
LINE
  5
   435
  8
0
  6
CONTINUOUS
 62
     3
 10
262.684918837333
 20
157.956477845907
 30
0.0
 11
206.684887398831
 21
157.956477845907
 31
0.0
  0
LINE
  5
   436
  8
0
  6
CONTINUOUS
 62
     2
 10
262.684918837333
 20
157.556477839947
 30
0.0
 11
206.684887398831
 21
157.556477839947
 31
0.0
  0
LINE
  5
   437
  8
0
  6
CONTINUOUS
 62
     3
 10
262.284918831372
 20
157.556477839947
 30
0.0
 11
262.284918831372
 21
157.956477845907
 31
0.0
  0
LINE
  5
   438
  8
0
  6
CONTINUOUS
 62
     7
 10
207.084887404791
 20
123.656469994706
 30
0.0
 11
207.084887404791
 21
124.156477342248
 31
0.0
  0
LINE
  5
   439
  8
0
  6
CONTINUOUS
 62
     3
 10
207.084887404791
 20
123.656469994706
 30
0.0
 11
206.684887398831
 21
123.656469994706
 31
0.0
  0
LINE
  5
   43A
  8
0
  6
CONTINUOUS
 62
     3
 10
220.624898490574
 20
130.65395239878
 30
0.0
 11
220.624898490574
 21
152.156477759481
 31
0.0
  0
LINE
  5
   43B
  8
0
  6
CONTINUOUS
 62
     3
 10
219.184898469116
 20
130.65395239878
 30
0.0
 11
219.184898469116
 21
152.156477759481
 31
0.0
  0
LINE
  5
   43C
  8
0
  6
CONTINUOUS
 62
     3
 10
217.744898447658
 20
157.956477845907
 30
0.0
 11
217.744898447658
 21
168.356470660788
 31
0.0
  0
LINE
  5
   43D
  8
0
  6
CONTINUOUS
 62
     3
 10
216.304898426201
 20
157.956477845907
 30
0.0
 11
216.304898426201
 21
168.356470660788
 31
0.0
  0
LINE
  5
   43E
  8
0
  6
CONTINUOUS
 62
     3
 10
220.624898490574
 20
157.956477845907
 30
0.0
 11
220.624898490574
 21
168.356470660788
 31
0.0
  0
LINE
  5
   43F
  8
0
  6
CONTINUOUS
 62
     3
 10
219.184898469116
 20
157.956477845907
 30
0.0
 11
219.184898469116
 21
168.356470660788
 31
0.0
  0
LINE
  5
   440
  8
0
  6
CONTINUOUS
 62
     3
 10
220.624898490574
 20
152.556477765441
 30
0.0
 11
220.624898490574
 21
157.556477839947
 31
0.0
  0
LINE
  5
   441
  8
0
  6
CONTINUOUS
 62
     3
 10
219.184898469116
 20
152.556477765441
 30
0.0
 11
219.184898469116
 21
157.556477839947
 31
0.0
  0
LINE
  5
   442
  8
0
  6
CONTINUOUS
 62
     7
 10
217.804903797877
 20
152.556477765441
 30
0.0
 11
217.804903797877
 21
157.556477839947
 31
0.0
  0
LINE
  5
   443
  8
0
  6
CONTINUOUS
 62
     7
 10
216.364903776419
 20
152.556477765441
 30
0.0
 11
216.364903776419
 21
157.556477839947
 31
0.0
  0
LINE
  5
   444
  8
0
  6
CONTINUOUS
 62
     7
 10
214.924903754961
 20
152.556477765441
 30
0.0
 11
214.924903754961
 21
157.556477839947
 31
0.0
  0
LINE
  5
   445
  8
0
  6
CONTINUOUS
 62
     7
 10
213.484903733504
 20
152.556477765441
 30
0.0
 11
213.484903733504
 21
157.556477839947
 31
0.0
  0
LINE
  5
   446
  8
0
  6
CONTINUOUS
 62
     7
 10
212.044903712046
 20
152.556477765441
 30
0.0
 11
212.044903712046
 21
157.556477839947
 31
0.0
  0
LINE
  5
   447
  8
0
  6
CONTINUOUS
 62
     7
 10
210.604903690588
 20
152.556477765441
 30
0.0
 11
210.604903690588
 21
157.556477839947
 31
0.0
  0
LINE
  5
   448
  8
0
  6
CONTINUOUS
 62
     7
 10
209.164903669131
 20
152.556477765441
 30
0.0
 11
209.164903669131
 21
157.556477839947
 31
0.0
  0
LINE
  5
   449
  8
0
  6
CONTINUOUS
 62
     7
 10
207.724903647673
 20
152.556477765441
 30
0.0
 11
207.724903647673
 21
157.556477839947
 31
0.0
  0
LINE
  5
   44A
  8
0
  6
CONTINUOUS
 62
     7
 10
217.804903797877
 20
130.65395239878
 30
0.0
 11
217.804903797877
 21
152.156477759481
 31
0.0
  0
LINE
  5
   44B
  8
0
  6
CONTINUOUS
 62
     7
 10
216.364903776419
 20
130.65395239878
 30
0.0
 11
216.364903776419
 21
152.156477759481
 31
0.0
  0
LINE
  5
   44C
  8
0
  6
CONTINUOUS
 62
     7
 10
214.924903754961
 20
130.65395239878
 30
0.0
 11
214.924903754961
 21
152.156477759481
 31
0.0
  0
LINE
  5
   44D
  8
0
  6
CONTINUOUS
 62
     7
 10
213.484903733504
 20
130.65395239878
 30
0.0
 11
213.484903733504
 21
152.156477759481
 31
0.0
  0
LINE
  5
   44E
  8
0
  6
CONTINUOUS
 62
     7
 10
212.044903712046
 20
130.65395239878
 30
0.0
 11
212.044903712046
 21
152.156477759481
 31
0.0
  0
LINE
  5
   44F
  8
0
  6
CONTINUOUS
 62
     7
 10
210.604903690588
 20
130.65395239878
 30
0.0
 11
210.604903690588
 21
152.156477759481
 31
0.0
  0
LINE
  5
   450
  8
0
  6
CONTINUOUS
 62
     7
 10
209.164903669131
 20
124.156477342248
 30
0.0
 11
209.164903669131
 21
152.156477759481
 31
0.0
  0
LINE
  5
   451
  8
0
  6
CONTINUOUS
 62
     7
 10
207.724903647673
 20
124.156477342248
 30
0.0
 11
207.724903647673
 21
152.156477759481
 31
0.0
  0
LINE
  5
   452
  8
0
  6
CONTINUOUS
 62
     3
 10
216.304898426201
 20
64.3564691110673
 30
0.0
 11
216.304898426201
 21
66.2564721911358
 31
0.0
  0
LINE
  5
   453
  8
0
  6
CONTINUOUS
 62
     3
 10
217.744898447658
 20
64.3564691110673
 30
0.0
 11
217.744898447658
 21
66.2564721911358
 31
0.0
  0
LINE
  5
   454
  8
0
  6
CONTINUOUS
 62
     3
 10
223.504898533489
 20
64.4807305875283
 30
0.0
 11
223.504898533489
 21
66.2564737170148
 31
0.0
  0
LINE
  5
   455
  8
0
  6
CONTINUOUS
 62
     3
 10
224.944898554947
 20
64.4807305875283
 30
0.0
 11
224.944898554947
 21
66.2564737170148
 31
0.0
  0
LINE
  5
   456
  8
0
  6
CONTINUOUS
 62
     3
 10
226.384898576404
 20
64.4807305875283
 30
0.0
 11
226.384898576404
 21
66.2564737170148
 31
0.0
  0
LINE
  5
   457
  8
0
  6
CONTINUOUS
 62
     3
 10
227.824898597862
 20
64.4807305875283
 30
0.0
 11
227.824898597862
 21
66.2564737170148
 31
0.0
  0
LINE
  5
   458
  8
0
  6
CONTINUOUS
 62
     3
 10
230.704898030426
 20
64.4807305875283
 30
0.0
 11
230.704898030426
 21
66.2564737170148
 31
0.0
  0
LINE
  5
   459
  8
0
  6
CONTINUOUS
 62
     3
 10
232.144898967411
 20
64.4807305875283
 30
0.0
 11
232.144898967411
 21
66.2564737170148
 31
0.0
  0
LINE
  5
   45A
  8
0
  6
CONTINUOUS
 62
     3
 10
233.584898378517
 20
64.4807305875283
 30
0.0
 11
233.584898378517
 21
66.2564737170148
 31
0.0
  0
LINE
  5
   45B
  8
0
  6
CONTINUOUS
 62
     3
 10
235.024898399975
 20
64.4807305875283
 30
0.0
 11
235.024898399975
 21
66.2564737170148
 31
0.0
  0
LINE
  5
   45C
  8
0
  6
CONTINUOUS
 62
     3
 10
236.464898421432
 20
64.4807305875283
 30
0.0
 11
236.464898421432
 21
66.2564737170148
 31
0.0
  0
LINE
  5
   45D
  8
0
  6
CONTINUOUS
 62
     3
 10
237.984898444082
 20
64.4807305875283
 30
0.0
 11
237.984898444082
 21
66.2564737170148
 31
0.0
  0
LINE
  5
   45E
  8
0
  6
CONTINUOUS
 62
     3
 10
239.424897855188
 20
64.4807305875283
 30
0.0
 11
239.424897855188
 21
66.2564737170148
 31
0.0
  0
LINE
  5
   45F
  8
0
  6
CONTINUOUS
 62
     3
 10
240.864898792173
 20
64.4807305875283
 30
0.0
 11
240.864898792173
 21
66.2564737170148
 31
0.0
  0
LINE
  5
   460
  8
0
  6
CONTINUOUS
 62
     3
 10
242.304898203279
 20
64.4807305875283
 30
0.0
 11
242.304898203279
 21
66.2564737170148
 31
0.0
  0
LINE
  5
   461
  8
0
  6
CONTINUOUS
 62
     3
 10
243.744899140264
 20
64.4807305875283
 30
0.0
 11
243.744899140264
 21
66.2564737170148
 31
0.0
  0
LINE
  5
   462
  8
0
  6
CONTINUOUS
 62
     3
 10
245.18489855137
 20
64.4807305875283
 30
0.0
 11
245.18489855137
 21
66.2564737170148
 31
0.0
  0
LINE
  5
   463
  8
0
  6
CONTINUOUS
 62
     3
 10
246.624899488355
 20
64.4807305875283
 30
0.0
 11
246.624899488355
 21
66.2564737170148
 31
0.0
  0
LINE
  5
   464
  8
0
  6
CONTINUOUS
 62
     3
 10
248.064898899462
 20
64.4807305875283
 30
0.0
 11
248.064898899462
 21
66.2564737170148
 31
0.0
  0
LINE
  5
   465
  8
0
  6
CONTINUOUS
 62
     3
 10
249.504898310568
 20
64.4807305875283
 30
0.0
 11
249.504898310568
 21
66.2564737170148
 31
0.0
  0
LINE
  5
   466
  8
0
  6
CONTINUOUS
 62
     3
 10
250.944897721674
 20
64.4807305875283
 30
0.0
 11
250.944897721674
 21
66.2564737170148
 31
0.0
  0
LINE
  5
   467
  8
0
  6
CONTINUOUS
 62
     3
 10
252.38489713278
 20
64.4807305875283
 30
0.0
 11
252.38489713278
 21
66.2564737170148
 31
0.0
  0
LINE
  5
   468
  8
0
  6
CONTINUOUS
 62
     3
 10
253.824899595644
 20
64.4807305875283
 30
0.0
 11
253.824899595644
 21
66.2564737170148
 31
0.0
  0
LINE
  5
   469
  8
0
  6
CONTINUOUS
 62
     3
 10
255.26489900675
 20
64.4807305875283
 30
0.0
 11
255.26489900675
 21
66.2564737170148
 31
0.0
  0
LINE
  5
   46A
  8
0
  6
CONTINUOUS
 62
     3
 10
256.704898417856
 20
64.4807305875283
 30
0.0
 11
256.704898417856
 21
66.2564737170148
 31
0.0
  0
LINE
  5
   46B
  8
0
  6
CONTINUOUS
 62
     3
 10
258.144897828962
 20
64.4807305875283
 30
0.0
 11
258.144897828962
 21
66.2564737170148
 31
0.0
  0
LINE
  5
   46C
  8
0
  6
CONTINUOUS
 62
     3
 10
259.584897240068
 20
64.4807305875283
 30
0.0
 11
259.584897240068
 21
66.2564737170148
 31
0.0
  0
LINE
  5
   46D
  8
0
  6
CONTINUOUS
 62
     3
 10
261.024899702932
 20
64.4807305875283
 30
0.0
 11
261.024899702932
 21
66.2564737170148
 31
0.0
  0
LINE
  5
   46E
  8
0
  6
CONTINUOUS
 62
     3
 10
262.684918837333
 20
64.8564691185121
 30
0.0
 11
262.684918837333
 21
66.2564737170148
 31
0.0
  0
LINE
  5
   46F
  8
0
  6
CONTINUOUS
 62
     3
 10
262.538450514644
 20
64.5029122404916
 30
0.0
 11
262.684898273358
 21
64.8564644941298
 31
0.0
  0
LINE
  5
   470
  8
0
  6
CONTINUOUS
 62
     3
 10
262.184899472197
 20
64.3564664629809
 30
0.0
 11
262.538451725835
 21
64.5029142216947
 31
0.0
  0
LINE
  5
   471
  8
0
  6
CONTINUOUS
 62
     3
 10
262.184897278811
 20
64.3564691110673
 30
0.0
 11
207.184887406281
 21
64.3564691110673
 31
0.0
  0
LINE
  5
   472
  8
0
  6
CONTINUOUS
 62
     3
 10
210.284902922869
 20
74.7564619259481
 30
0.0
 11
206.684887398831
 21
74.7564619259481
 31
0.0
  0
LINE
  5
   473
  8
0
  6
CONTINUOUS
 62
     3
 10
229.26489861932
 20
64.4807305875283
 30
0.0
 11
229.26489861932
 21
66.2564737170148
 31
0.0
  0
POINT
  5
   474
  8
0
  6
CONTINUOUS
 62
     3
 10
241.684904153705
 20
98.4564726709532
 30
0.0
  0
ARC
  5
   475
  8
0
  6
CONTINUOUS
 62
     7
 10
207.184887406281
 20
64.8564691185179
 30
0.0
 40
0.500000007450581
 50
179.999999948034
 51
269.999999948034
  0
LINE
  5
   476
  8
0
  6
CONTINUOUS
 62
     3
 10
210.284902922869
 20
75.1564619319086
 30
0.0
 11
207.084887404791
 21
75.1564619319086
 31
0.0
  0
LINE
  5
   477
  8
0
  6
CONTINUOUS
 62
     3
 10
207.084887404791
 20
74.7564619259481
 30
0.0
 11
207.084887404791
 21
75.1564619319086
 31
0.0
  0
LINE
  5
   478
  8
0
  6
CONTINUOUS
 62
     3
 10
222.064898512031
 20
64.4807305875283
 30
0.0
 11
222.064898512031
 21
66.2564737170148
 31
0.0
  0
LINE
  5
   479
  8
0
  6
CONTINUOUS
 62
     3
 10
220.624898490574
 20
64.4807305875283
 30
0.0
 11
220.624898490574
 21
66.2564737170148
 31
0.0
  0
LINE
  5
   47A
  8
0
  6
CONTINUOUS
 62
     3
 10
219.184898469116
 20
64.4807305875283
 30
0.0
 11
219.184898469116
 21
66.2564737170148
 31
0.0
  0
LINE
  5
   47B
  8
0
  6
CONTINUOUS
 62
     3
 10
214.864898404743
 20
64.3564691110673
 30
0.0
 11
214.864898404743
 21
66.2564721911358
 31
0.0
  0
LINE
  5
   47C
  8
0
  6
CONTINUOUS
 62
     3
 10
213.424898383285
 20
64.3564691110673
 30
0.0
 11
213.424898383285
 21
66.2564721911358
 31
0.0
  0
LINE
  5
   47D
  8
0
  6
CONTINUOUS
 62
     3
 10
211.984898361828
 20
64.3564691110673
 30
0.0
 11
211.984898361828
 21
66.2564721911358
 31
0.0
  0
LINE
  5
   47E
  8
0
  6
CONTINUOUS
 62
     3
 10
210.54489834037
 20
64.3564691110673
 30
0.0
 11
210.54489834037
 21
66.2564721911358
 31
0.0
  0
LINE
  5
   47F
  8
0
  6
CONTINUOUS
 62
     3
 10
209.104898318912
 20
64.3564691110673
 30
0.0
 11
209.104898318912
 21
74.7564619259481
 31
0.0
  0
LINE
  5
   480
  8
0
  6
CONTINUOUS
 62
     3
 10
207.664898297455
 20
64.3564691110673
 30
0.0
 11
207.664898297455
 21
74.7564619259481
 31
0.0
  0
LINE
  5
   481
  8
0
  6
CONTINUOUS
 62
     2
 10
210.284902922869
 20
124.156477342248
 30
0.0
 11
206.684887398831
 21
124.156477342248
 31
0.0
  0
LINE
  5
   482
  8
0
  6
CONTINUOUS
 62
     2
 10
210.284902922869
 20
123.656469994706
 30
0.0
 11
207.084887404791
 21
123.656469994706
 31
0.0
  0
ARC
  5
   483
  8
0
  6
CONTINUOUS
 62
     3
 10
207.184887406281
 20
167.856470653338
 30
0.0
 40
0.500000007450581
 50
89.9999999480344
 51
179.999999948034
  0
LINE
  5
   484
  8
0
  6
CONTINUOUS
 62
     3
 10
214.864898404743
 20
157.956477845907
 30
0.0
 11
214.864898404743
 21
168.356470660788
 31
0.0
  0
LINE
  5
   485
  8
0
  6
CONTINUOUS
 62
     3
 10
213.424898383285
 20
157.956477845907
 30
0.0
 11
213.424898383285
 21
168.356470660788
 31
0.0
  0
LINE
  5
   486
  8
0
  6
CONTINUOUS
 62
     3
 10
211.984898361828
 20
157.956477845907
 30
0.0
 11
211.984898361828
 21
168.356470660788
 31
0.0
  0
LINE
  5
   487
  8
0
  6
CONTINUOUS
 62
     3
 10
210.54489834037
 20
157.956477845907
 30
0.0
 11
210.54489834037
 21
168.356470660788
 31
0.0
  0
LINE
  5
   488
  8
0
  6
CONTINUOUS
 62
     3
 10
209.104898318912
 20
157.956477845907
 30
0.0
 11
209.104898318912
 21
168.356470660788
 31
0.0
  0
LINE
  5
   489
  8
0
  6
CONTINUOUS
 62
     3
 10
207.664898297455
 20
157.956477845907
 30
0.0
 11
207.664898297455
 21
168.356470660788
 31
0.0
  0
LINE
  5
   48A
  8
0
  6
CONTINUOUS
 62
     3
 10
207.084887404791
 20
157.556477839947
 30
0.0
 11
207.084887404791
 21
157.956477845907
 31
0.0
  0
INSERT
  5
   48B
  8
255
  6
CONTINUOUS
 62
     7
  2
FRTESTR
 10
195.749649075268
 20
54.2617489474615
 30
0.0
 41
0.400000005960464
 42
0.400000005960464
 50
3.50835464724173E-15
 43
0.400000005960464
  0
POINT
  5
   48C
  8
0
  6
CONTINUOUS
 62
     7
 10
241.684904153705
 20
64.3564691110673
 30
0.0
  0
INSERT
  5
   48D
  8
255
  6
CONTINUOUS
 62
     7
  2
TERM_ANT_
 10
195.749649075268
 20
54.2617489474614
 30
0.0
 41
0.400000005960464
 42
0.400000005960464
 50
3.50835464724173E-15
 43
0.400000005960464
  0
INSERT
  5
   48E
  8
0
  6
CONTINUOUS
 62
     7
  2
*UDIM2082
 10
0.0
 20
0.0
 30
0.0
  0
INSERT
  5
   48F
  8
0
  6
CONTINUOUS
 62
     7
  2
*UDIM2083
 10
0.0
 20
0.0
 30
0.0
  0
INSERT
  5
   490
  8
0
  6
CONTINUOUS
 62
     7
  2
*UDIM2084
 10
0.0
 20
0.0
 30
0.0
  0
TEXT
  5
   491
  8
0
  6
CONTINUOUS
 62
     7
 10
204.123247597946
 20
90.179009432115
 30
0.0
 40
2.99999994933605
  1
=    =
 50
89.9999999480344
 41
0.91666673368878
 72
     1
 11
202.623247630501
 21
98.1540098960304
 31
0.0
 73
     2
  0
INSERT
  5
   492
  8
0
  6
CONTINUOUS
 62
     7
  2
*UDIM2085
 10
0.0
 20
0.0
 30
0.0
  0
INSERT
  5
   493
  8
0
  6
CONTINUOUS
 62
     7
  2
*UDIM2086
 10
0.0
 20
0.0
 30
0.0
  0
INSERT
  5
   494
  8
0
  6
CONTINUOUS
 62
     7
  2
*UDIM2087
 10
0.0
 20
0.0
 30
0.0
  0
INSERT
  5
   495
  8
0
  6
CONTINUOUS
 62
     7
  2
*UDIM2088
 10
0.0
 20
0.0
 30
0.0
  0
INSERT
  5
   496
  8
0
  6
CONTINUOUS
 62
     7
  2
*UDIM2089
 10
0.0
 20
0.0
 30
0.0
  0
TEXT
  5
   497
  8
0
  6
CONTINUOUS
 62
     7
 10
233.379538177661
 20
169.738190718978
 30
0.0
 40
2.99999994933605
  1
=    =
 50
359.999999948034
 41
0.91666673368878
 72
     1
 11
241.354538641571
 21
171.238190686453
 31
0.0
 73
     2
  0
INSERT
  5
   498
  8
0
  6
CONTINUOUS
 62
     7
  2
*UDIM2090
 10
0.0
 20
0.0
 30
0.0
  0
INSERT
  5
   499
  8
0
  6
CONTINUOUS
 62
     7
  2
*UDIM2091
 10
0.0
 20
0.0
 30
0.0
  0
INSERT
  5
   49A
  8
0
  6
CONTINUOUS
 62
     7
  2
*UDIM2092
 10
0.0
 20
0.0
 30
0.0
  0
INSERT
  5
   49B
  8
0
  6
CONTINUOUS
 62
     7
  2
*UDIM2093
 10
0.0
 20
0.0
 30
0.0
  0
TEXT
  5
   49C
  8
0
  6
CONTINUOUS
 62
     7
 10
290.312379402997
 20
97.1222473316482
 30
0.0
 40
2.99999994933605
  1
X
 50
359.999999948034
 41
0.916666607525612
 72
     2
 11
292.512379221203
 21
97.1222473296639
 31
0.0
  0
TEXT
  5
   49D
  8
0
  6
CONTINUOUS
 62
     7
 10
240.470488798316
 20
188.913485461443
 30
0.0
 40
2.99999994933605
  1
Y
 50
359.999999948034
 41
0.916666607525612
 72
     2
 11
242.670488616522
 21
188.913485459458
 31
0.0
  0
TEXT
  5
   49E
  8
0
  6
CONTINUOUS
 62
     7
 10
187.148319653534
 20
96.9410170499303
 30
0.0
 40
2.99999994933605
  1
X
 50
359.999999948034
 41
0.916666607525612
 72
     2
 11
189.34831947174
 21
96.941017047946
 31
0.0
  0
LINE
  5
   49F
  8
0
  6
CONTINUOUS
 62
     7
 10
260.684892229796
 20
1.57843277169081
 30
0.0
 11
260.484904433847
 21
1.57843277169081
 31
0.0
  0
LINE
  5
   4A0
  8
0
  6
CONTINUOUS
 62
     7
 10
246.684904228211
 20
1.57843277169081
 30
0.0
 11
236.684904079199
 21
1.57843277169081
 31
0.0
  0
LINE
  5
   4A1
  8
0
  6
CONTINUOUS
 62
     7
 10
232.684910123111
 20
1.57843277169081
 30
0.0
 11
222.684909974099
 21
1.57843277169081
 31
0.0
  0
LINE
  5
   4A2
  8
0
  6
CONTINUOUS
 62
   210
 10
206.684920416833
 20
-0.22156725513128
 30
0.0
 11
206.684920416833
 21
-17.6215858249586
 31
0.0
  0
LINE
  5
   4A3
  8
0
  6
CONTINUOUS
 62
   210
 10
262.684922777361
 20
-0.221567258591698
 30
0.0
 11
262.684916673845
 21
-2.82156729740254
 31
0.0
  0
LINE
  5
   4A4
  8
0
  6
CONTINUOUS
 62
   210
 10
262.684910570145
 20
-2.82156729387429
 30
0.0
 11
262.684910570145
 21
-17.6215858249586
 31
0.0
  0
LINE
  5
   4A5
  8
0
  6
CONTINUOUS
 62
   210
 10
262.684910570145
 20
-17.6215858249586
 30
0.0
 11
260.684910201919
 21
-17.6215858249586
 31
0.0
  0
LINE
  5
   4A6
  8
0
  6
CONTINUOUS
 62
   210
 10
250.684910116832
 20
-17.6215858249586
 30
0.0
 11
248.684904258013
 21
-17.6215858249586
 31
0.0
  0
LINE
  5
   4A7
  8
0
  6
CONTINUOUS
 62
   210
 10
236.684909979801
 20
-17.6215858249586
 30
0.0
 11
234.684904049397
 21
-17.6215858249586
 31
0.0
  0
LINE
  5
   4A8
  8
0
  6
CONTINUOUS
 62
   210
 10
208.684909634153
 20
-17.6215858249586
 30
0.0
 11
206.684920416833
 21
-17.6215858249586
 31
0.0
  0
LINE
  5
   4A9
  8
0
  6
CONTINUOUS
 62
     7
 10
262.684909044266
 20
-2.8215672938743
 30
0.0
 11
248.684904258013
 21
-2.8215672938743
 31
0.0
  0
LINE
  5
   4AA
  8
0
  6
CONTINUOUS
 62
   210
 10
208.284909759522
 20
-0.221567255131276
 30
0.0
 11
206.684920416833
 21
-0.221567255131276
 31
0.0
  0
LINE
  5
   4AB
  8
0
  6
CONTINUOUS
 62
     7
 10
236.684904079199
 20
-0.221567255131276
 30
0.0
 11
232.684910123111
 21
-0.221567255131276
 31
0.0
  0
LINE
  5
   4AC
  8
0
  6
CONTINUOUS
 62
     7
 10
247.684873725534
 20
-0.221567255131276
 30
0.0
 11
246.684904228211
 21
-0.221567255131276
 31
0.0
  0
LINE
  5
   4AD
  8
0
  6
CONTINUOUS
 62
   210
 10
262.684922777177
 20
-0.221567255131276
 30
0.0
 11
260.684898333312
 21
-0.221567255131276
 31
0.0
  0
LINE
  5
   4AE
  8
0
  6
CONTINUOUS
 62
   210
 10
208.884903664947
 20
2.17843278063151
 30
0.0
 11
207.084871594668
 21
2.17843278063151
 31
0.0
  0
LINE
  5
   4AF
  8
0
  6
CONTINUOUS
 62
   210
 10
245.68490421331
 20
-10.22158571469
 30
0.0
 11
237.684904094101
 21
-10.22158571469
 31
0.0
  0
LINE
  5
   4B0
  8
0
  6
CONTINUOUS
 62
     7
 10
237.584904092611
 20
-10.22158571469
 30
0.0
 11
237.584904092611
 21
-13.2215857593935
 31
0.0
  0
LINE
  5
   4B1
  8
0
  6
CONTINUOUS
 62
     7
 10
245.7849042148
 20
-10.22158571469
 30
0.0
 11
245.7849042148
 21
-13.2215857593935
 31
0.0
  0
LINE
  5
   4B2
  8
0
  6
CONTINUOUS
 62
   210
 10
231.684904004694
 20
-10.22158571469
 30
0.0
 11
223.684903885484
 21
-10.22158571469
 31
0.0
  0
LINE
  5
   4B3
  8
0
  6
CONTINUOUS
 62
     7
 10
223.584903883994
 20
-10.22158571469
 30
0.0
 11
223.584903883994
 21
-13.2215857593935
 31
0.0
  0
LINE
  5
   4B4
  8
0
  6
CONTINUOUS
 62
     7
 10
231.784904006184
 20
-10.22158571469
 30
0.0
 11
231.784904006184
 21
-13.2215857593935
 31
0.0
  0
LINE
  5
   4B5
  8
0
  6
CONTINUOUS
 62
   210
 10
259.684904421926
 20
-10.22158571469
 30
0.0
 11
251.684904302717
 21
-10.22158571469
 31
0.0
  0
LINE
  5
   4B6
  8
0
  6
CONTINUOUS
 62
     7
 10
251.584904301227
 20
-10.22158571469
 30
0.0
 11
251.584904301227
 21
-13.2215857593935
 31
0.0
  0
LINE
  5
   4B7
  8
0
  6
CONTINUOUS
 62
     7
 10
259.784904423416
 20
-10.22158571469
 30
0.0
 11
259.784904423416
 21
-13.2215857593935
 31
0.0
  0
LINE
  5
   4B8
  8
0
  6
CONTINUOUS
 62
     7
 10
261.684910555244
 20
-2.82156729387429
 30
0.0
 11
261.684910555244
 21
-17.6215858249586
 31
0.0
  0
LINE
  5
   4B9
  8
0
  6
CONTINUOUS
 62
     7
 10
207.684909750582
 20
-2.8215672938743
 30
0.0
 11
207.684909750582
 21
-17.6215858249586
 31
0.0
  0
LINE
  5
   4BA
  8
0
  6
CONTINUOUS
 62
   210
 10
236.684901027442
 20
1.37843276871058
 30
0.0
 11
232.684907071353
 21
1.37843276871058
 31
0.0
  0
LINE
  5
   4BB
  8
0
  6
CONTINUOUS
 62
     3
 10
236.884897978664
 20
1.97843277765128
 30
0.0
 11
232.484904016615
 21
1.97843277765128
 31
0.0
  0
LINE
  5
   4BC
  8
0
  6
CONTINUOUS
 62
     3
 10
250.884904290796
 20
1.97843277765128
 30
0.0
 11
246.484898121715
 21
1.97843277765128
 31
0.0
  0
LINE
  5
   4BD
  8
0
  6
CONTINUOUS
 62
     7
 10
250.684892080784
 20
-0.221567255131276
 30
0.0
 11
250.684892080784
 21
-2.8215672938743
 31
0.0
  0
LINE
  5
   4BE
  8
0
  6
CONTINUOUS
 62
     7
 10
260.684892229796
 20
-0.221573358646989
 30
0.0
 11
260.684892229796
 21
-2.82156729387429
 31
0.0
  0
LINE
  5
   4BF
  8
0
  6
CONTINUOUS
 62
     7
 10
236.684904079199
 20
-0.221567255131276
 30
0.0
 11
236.684904079199
 21
-2.8215672938743
 31
0.0
  0
LINE
  5
   4C0
  8
0
  6
CONTINUOUS
 62
     7
 10
246.684904228211
 20
-0.221567255131276
 30
0.0
 11
246.684904228211
 21
-2.8215672938743
 31
0.0
  0
LINE
  5
   4C1
  8
0
  6
CONTINUOUS
 62
     7
 10
208.684909765483
 20
1.57843277169081
 30
0.0
 11
208.684909765483
 21
-2.8215672938743
 31
0.0
  0
LINE
  5
   4C2
  8
0
  6
CONTINUOUS
 62
     7
 10
232.684910123111
 20
-0.221567255131276
 30
0.0
 11
232.684910123111
 21
-2.8215672938743
 31
0.0
  0
LINE
  5
   4C3
  8
0
  6
CONTINUOUS
 62
     7
 10
208.284909759522
 20
-0.22156725513128
 30
0.0
 11
208.284909759522
 21
-2.8215672938743
 31
0.0
  0
LINE
  5
   4C4
  8
0
  6
CONTINUOUS
 62
     7
 10
261.284910549284
 20
-2.82156729387429
 30
0.0
 11
261.284910549284
 21
-17.6215858249586
 31
0.0
  0
LINE
  5
   4C5
  8
0
  6
CONTINUOUS
 62
     7
 10
208.084909756542
 20
-2.8215672938743
 30
0.0
 11
208.084909756542
 21
-17.6215858249586
 31
0.0
  0
LINE
  5
   4C6
  8
0
  6
CONTINUOUS
 62
     7
 10
248.684904258013
 20
-2.8215672938743
 30
0.0
 11
234.684904049397
 21
-2.8215672938743
 31
0.0
  0
LINE
  5
   4C7
  8
0
  6
CONTINUOUS
 62
     7
 10
234.684904049397
 20
-2.8215672938743
 30
0.0
 11
220.684920625449
 21
-2.8215672938743
 31
0.0
  0
LINE
  5
   4C8
  8
0
  6
CONTINUOUS
 62
   210
 10
234.684904049397
 20
-17.6215858249586
 30
0.0
 11
232.684909927856
 21
-17.6215858249586
 31
0.0
  0
LINE
  5
   4C9
  8
0
  6
CONTINUOUS
 62
   210
 10
248.684904258013
 20
-17.6215858249586
 30
0.0
 11
246.684910064888
 21
-17.6215858249586
 31
0.0
  0
LINE
  5
   4CA
  8
0
  6
CONTINUOUS
 62
     7
 10
250.684892080784
 20
1.37842666519487
 30
0.0
 11
250.684892080784
 21
-0.221567255131276
 31
0.0
  0
LINE
  5
   4CB
  8
0
  6
CONTINUOUS
 62
     7
 10
246.684904228211
 20
1.37842666519487
 30
0.0
 11
246.684904228211
 21
-0.221567255131276
 31
0.0
  0
LINE
  5
   4CC
  8
0
  6
CONTINUOUS
 62
     7
 10
236.684904079199
 20
1.37843276871058
 30
0.0
 11
236.684904079199
 21
-0.221567255131276
 31
0.0
  0
LINE
  5
   4CD
  8
0
  6
CONTINUOUS
 62
     7
 10
232.684910123111
 20
1.37843276871058
 30
0.0
 11
232.684910123111
 21
-0.221567255131276
 31
0.0
  0
LINE
  5
   4CE
  8
0
  6
CONTINUOUS
 62
   210
 10
208.284909759522
 20
2.17843278063151
 30
0.0
 11
208.284909759522
 21
-0.22156725513128
 31
0.0
  0
LINE
  5
   4CF
  8
0
  6
CONTINUOUS
 62
     2
 10
237.984897995055
 20
-12.8215857534331
 30
0.0
 11
237.984897995055
 21
-13.2215857593935
 31
0.0
  0
LINE
  5
   4D0
  8
0
  6
CONTINUOUS
 62
     2
 10
245.384898105324
 20
-12.8215857534331
 30
0.0
 11
245.384898105324
 21
-13.2215857593935
 31
0.0
  0
LINE
  5
   4D1
  8
0
  6
CONTINUOUS
 62
     2
 10
237.984906453249
 20
-13.2215857593693
 30
0.0
 11
237.984906453249
 21
-17.221585818974
 31
0.0
  0
LINE
  5
   4D2
  8
0
  6
CONTINUOUS
 62
     2
 10
245.384906563515
 20
-13.221585759367
 30
0.0
 11
245.384906563515
 21
-17.2215858189716
 31
0.0
  0
LINE
  5
   4D3
  8
0
  6
CONTINUOUS
 62
     7
 10
237.984907150329
 20
-13.2215857593935
 30
0.0
 11
236.484910179735
 21
-13.2215857593935
 31
0.0
  0
LINE
  5
   4D4
  8
0
  6
CONTINUOUS
 62
     7
 10
246.884910334707
 20
-13.2215857593935
 30
0.0
 11
245.384910312355
 21
-13.2215857593935
 31
0.0
  0
LINE
  5
   4D5
  8
0
  6
CONTINUOUS
 62
     2
 10
246.884910334707
 20
-17.6215858249586
 30
0.0
 11
245.684910316826
 21
-17.6215858249586
 31
0.0
  0
LINE
  5
   4D6
  8
0
  6
CONTINUOUS
 62
     2
 10
237.684910197616
 20
-17.6215858249586
 30
0.0
 11
236.484910179735
 21
-17.6215858249586
 31
0.0
  0
LINE
  5
   4D7
  8
0
  6
CONTINUOUS
 62
     2
 10
237.684910197616
 20
-17.2215858189982
 30
0.0
 11
237.684910197616
 21
-17.6215858249586
 31
0.0
  0
LINE
  5
   4D8
  8
0
  6
CONTINUOUS
 62
     2
 10
245.684910316826
 20
-17.2215858189982
 30
0.0
 11
245.684910316826
 21
-17.6215858249586
 31
0.0
  0
LINE
  5
   4D9
  8
0
  6
CONTINUOUS
 62
     2
 10
245.684910316826
 20
-17.6215858249586
 30
0.0
 11
237.684910197616
 21
-17.6215858249586
 31
0.0
  0
LINE
  5
   4DA
  8
0
  6
CONTINUOUS
 62
     2
 10
245.684910316826
 20
-17.2215858189982
 30
0.0
 11
245.384898105324
 21
-17.2215858189982
 31
0.0
  0
LINE
  5
   4DB
  8
0
  6
CONTINUOUS
 62
     2
 10
237.984897995055
 20
-17.2215858189982
 30
0.0
 11
237.684910197616
 21
-17.2215858189982
 31
0.0
  0
LINE
  5
   4DC
  8
0
  6
CONTINUOUS
 62
     2
 10
237.984897995055
 20
-14.7144049955054
 30
0.0
 11
237.584916299642
 21
-14.7144049955054
 31
0.0
  0
LINE
  5
   4DD
  8
0
  6
CONTINUOUS
 62
     2
 10
237.98490647426
 20
-13.2215869846816
 30
0.0
 11
237.584915609299
 21
-14.714406182597
 31
0.0
  0
LINE
  5
   4DE
  8
0
  6
CONTINUOUS
 62
     2
 10
245.784919473589
 20
-14.7144049955054
 30
0.0
 11
245.384919467629
 21
-14.7144049955054
 31
0.0
  0
LINE
  5
   4DF
  8
0
  6
CONTINUOUS
 62
     2
 10
245.784917901102
 20
-14.714407696137
 30
0.0
 11
245.384908760201
 21
-13.2215884982187
 31
0.0
  0
LINE
  5
   4E0
  8
0
  6
CONTINUOUS
 62
     2
 10
251.984898203672
 20
-12.8215857534331
 30
0.0
 11
251.984898203672
 21
-13.2215857593935
 31
0.0
  0
LINE
  5
   4E1
  8
0
  6
CONTINUOUS
 62
     2
 10
259.38489831394
 20
-12.8215857534331
 30
0.0
 11
259.38489831394
 21
-13.2215857593935
 31
0.0
  0
LINE
  5
   4E2
  8
0
  6
CONTINUOUS
 62
     2
 10
251.984898203672
 20
-13.2215857593935
 30
0.0
 11
251.984898203672
 21
-17.2215858189982
 31
0.0
  0
LINE
  5
   4E3
  8
0
  6
CONTINUOUS
 62
     2
 10
259.38489831394
 20
-13.2215857593935
 30
0.0
 11
259.38489831394
 21
-17.2215858189982
 31
0.0
  0
LINE
  5
   4E4
  8
0
  6
CONTINUOUS
 62
     7
 10
251.984910410703
 20
-13.2215857593935
 30
0.0
 11
250.484910388351
 21
-13.2215857593935
 31
0.0
  0
LINE
  5
   4E5
  8
0
  6
CONTINUOUS
 62
     7
 10
260.884910543323
 20
-13.2215857593935
 30
0.0
 11
259.384910520972
 21
-13.2215857593935
 31
0.0
  0
LINE
  5
   4E6
  8
0
  6
CONTINUOUS
 62
     2
 10
260.884910543323
 20
-17.6215858249586
 30
0.0
 11
259.684910525442
 21
-17.6215858249586
 31
0.0
  0
LINE
  5
   4E7
  8
0
  6
CONTINUOUS
 62
     2
 10
251.684910406233
 20
-17.6215858249586
 30
0.0
 11
250.484910388351
 21
-17.6215858249586
 31
0.0
  0
LINE
  5
   4E8
  8
0
  6
CONTINUOUS
 62
     2
 10
251.684910406233
 20
-17.2215858189982
 30
0.0
 11
251.684910406233
 21
-17.6215858249586
 31
0.0
  0
LINE
  5
   4E9
  8
0
  6
CONTINUOUS
 62
     2
 10
259.684910525442
 20
-17.2215858189982
 30
0.0
 11
259.684910525442
 21
-17.6215858249586
 31
0.0
  0
LINE
  5
   4EA
  8
0
  6
CONTINUOUS
 62
     2
 10
259.684910525442
 20
-17.6215858249586
 30
0.0
 11
251.684910406233
 21
-17.6215858249586
 31
0.0
  0
LINE
  5
   4EB
  8
0
  6
CONTINUOUS
 62
     2
 10
259.684910525442
 20
-17.2215858189982
 30
0.0
 11
259.38489831394
 21
-17.2215858189982
 31
0.0
  0
LINE
  5
   4EC
  8
0
  6
CONTINUOUS
 62
     2
 10
251.984898203672
 20
-17.2215858189982
 30
0.0
 11
251.684910406233
 21
-17.2215858189982
 31
0.0
  0
LINE
  5
   4ED
  8
0
  6
CONTINUOUS
 62
     2
 10
251.984898203672
 20
-14.7144049955054
 30
0.0
 11
251.584916508258
 21
-14.7144049955054
 31
0.0
  0
LINE
  5
   4EE
  8
0
  6
CONTINUOUS
 62
     2
 10
251.984910795674
 20
-13.2215852785378
 30
0.0
 11
251.584916877605
 21
-14.7144044764556
 31
0.0
  0
LINE
  5
   4EF
  8
0
  6
CONTINUOUS
 62
     2
 10
259.784916630448
 20
-14.7144049955054
 30
0.0
 11
259.384916624487
 21
-14.7144049955054
 31
0.0
  0
LINE
  5
   4F0
  8
0
  6
CONTINUOUS
 62
     2
 10
259.784913492045
 20
-14.7144087885861
 30
0.0
 11
259.384907404267
 21
-13.2215895906665
 31
0.0
  0
LINE
  5
   4F1
  8
0
  6
CONTINUOUS
 62
     2
 10
223.984897786439
 20
-12.8215857534331
 30
0.0
 11
223.984897786439
 21
-13.2215857593935
 31
0.0
  0
LINE
  5
   4F2
  8
0
  6
CONTINUOUS
 62
     2
 10
231.384897896708
 20
-12.8215857534331
 30
0.0
 11
231.384897896708
 21
-13.2215857593935
 31
0.0
  0
LINE
  5
   4F3
  8
0
  6
CONTINUOUS
 62
     2
 10
223.98490624463
 20
-13.2215857593693
 30
0.0
 11
223.98490624463
 21
-17.2215888707318
 31
0.0
  0
LINE
  5
   4F4
  8
0
  6
CONTINUOUS
 62
     2
 10
231.384906354909
 20
-13.221585759367
 30
0.0
 11
231.384906354909
 21
-17.2215827672138
 31
0.0
  0
LINE
  5
   4F5
  8
0
  6
CONTINUOUS
 62
     7
 10
223.984906941713
 20
-13.2215857593935
 30
0.0
 11
222.484909971119
 21
-13.2215857593935
 31
0.0
  0
LINE
  5
   4F6
  8
0
  6
CONTINUOUS
 62
     7
 10
232.884910126091
 20
-13.2215857593935
 30
0.0
 11
231.384910103739
 21
-13.2215857593935
 31
0.0
  0
LINE
  5
   4F7
  8
0
  6
CONTINUOUS
 62
     2
 10
232.884910126091
 20
-17.6215858249586
 30
0.0
 11
231.684910108209
 21
-17.6215858249586
 31
0.0
  0
LINE
  5
   4F8
  8
0
  6
CONTINUOUS
 62
     2
 10
223.684909989
 20
-17.6215858249586
 30
0.0
 11
222.484909971119
 21
-17.6215858249586
 31
0.0
  0
LINE
  5
   4F9
  8
0
  6
CONTINUOUS
 62
     2
 10
223.684909989
 20
-17.2215858189982
 30
0.0
 11
223.684909989
 21
-17.6215858249586
 31
0.0
  0
LINE
  5
   4FA
  8
0
  6
CONTINUOUS
 62
     2
 10
231.684910108209
 20
-17.2215858189982
 30
0.0
 11
231.684910108209
 21
-17.6215858249586
 31
0.0
  0
LINE
  5
   4FB
  8
0
  6
CONTINUOUS
 62
     2
 10
231.684910108209
 20
-17.6215858249586
 30
0.0
 11
223.684909989
 21
-17.6215858249586
 31
0.0
  0
LINE
  5
   4FC
  8
0
  6
CONTINUOUS
 62
     2
 10
231.684910108209
 20
-17.2215858189982
 30
0.0
 11
231.384897896708
 21
-17.2215858189982
 31
0.0
  0
LINE
  5
   4FD
  8
0
  6
CONTINUOUS
 62
     2
 10
223.984897786439
 20
-17.2215858189982
 30
0.0
 11
223.684909989
 21
-17.2215858189982
 31
0.0
  0
LINE
  5
   4FE
  8
0
  6
CONTINUOUS
 62
     2
 10
223.984897786439
 20
-14.7144049955054
 30
0.0
 11
223.584916091026
 21
-14.7144049955054
 31
0.0
  0
LINE
  5
   4FF
  8
0
  6
CONTINUOUS
 62
     2
 10
223.984906450901
 20
-13.2215869412757
 30
0.0
 11
223.58491558594
 21
-14.7144061391911
 31
0.0
  0
LINE
  5
   500
  8
0
  6
CONTINUOUS
 62
     2
 10
231.784919264973
 20
-14.7144049955054
 30
0.0
 11
231.384919259013
 21
-14.7144049955054
 31
0.0
  0
LINE
  5
   501
  8
0
  6
CONTINUOUS
 62
     2
 10
231.784918247006
 20
-14.714407826066
 30
0.0
 11
231.384909106106
 21
-13.2215886281478
 31
0.0
  0
LINE
  5
   502
  8
0
  6
CONTINUOUS
 62
     7
 10
236.484910179735
 20
-13.2215857593935
 30
0.0
 11
236.484910179735
 21
-17.6215858249586
 31
0.0
  0
LINE
  5
   503
  8
0
  6
CONTINUOUS
 62
     7
 10
246.884910334707
 20
-13.2215857593935
 30
0.0
 11
246.884910334707
 21
-17.6215858249586
 31
0.0
  0
LINE
  5
   504
  8
0
  6
CONTINUOUS
 62
     2
 10
246.684910055318
 20
-17.6215861120511
 30
0.0
 11
246.658243399613
 21
-18.4215858368798
 31
0.0
  0
LINE
  5
   505
  8
0
  6
CONTINUOUS
 62
     2
 10
236.711576645076
 20
-18.4215858368793
 30
0.0
 11
236.684909988849
 21
-17.6215860964096
 31
0.0
  0
LINE
  5
   506
  8
0
  6
CONTINUOUS
 62
     7
 10
250.484910388351
 20
-13.2215857593935
 30
0.0
 11
250.484910388351
 21
-17.6215858249586
 31
0.0
  0
LINE
  5
   507
  8
0
  6
CONTINUOUS
 62
     7
 10
260.884910543323
 20
-13.2215857593935
 30
0.0
 11
260.884910543323
 21
-17.6215858249586
 31
0.0
  0
LINE
  5
   508
  8
0
  6
CONTINUOUS
 62
     2
 10
260.68491019227
 20
-17.6215861144344
 30
0.0
 11
260.658243536644
 21
-18.4215858368794
 31
0.0
  0
LINE
  5
   509
  8
0
  6
CONTINUOUS
 62
     2
 10
250.711576782107
 20
-18.4215858368799
 30
0.0
 11
250.684910125801
 21
-17.6215860940265
 31
0.0
  0
LINE
  5
   50A
  8
0
  6
CONTINUOUS
 62
     7
 10
222.484909971119
 20
-13.2215857593935
 30
0.0
 11
222.484909971119
 21
-17.6215858249586
 31
0.0
  0
LINE
  5
   50B
  8
0
  6
CONTINUOUS
 62
     7
 10
232.884910126091
 20
-13.2215857593935
 30
0.0
 11
232.884910126091
 21
-17.6215858249586
 31
0.0
  0
LINE
  5
   50C
  8
0
  6
CONTINUOUS
 62
     2
 10
232.684909918366
 20
-17.6215861096675
 30
0.0
 11
232.658243262581
 21
-18.4215858368795
 31
0.0
  0
LINE
  5
   50D
  8
0
  6
CONTINUOUS
 62
     2
 10
222.711576508044
 20
-18.4215858368796
 30
0.0
 11
222.684909851897
 21
-17.6215860987934
 31
0.0
  0
LINE
  5
   50E
  8
0
  6
CONTINUOUS
 62
   210
 10
217.684903796077
 20
-10.22158571469
 30
0.0
 11
209.684903676868
 21
-10.22158571469
 31
0.0
  0
LINE
  5
   50F
  8
0
  6
CONTINUOUS
 62
     7
 10
209.584903675378
 20
-10.22158571469
 30
0.0
 11
209.584903675378
 21
-13.2215857593935
 31
0.0
  0
LINE
  5
   510
  8
0
  6
CONTINUOUS
 62
     7
 10
217.784903797568
 20
-10.22158571469
 30
0.0
 11
217.784903797568
 21
-13.2215857593935
 31
0.0
  0
LINE
  5
   511
  8
0
  6
CONTINUOUS
 62
   210
 10
220.684903840781
 20
-17.6215858249586
 30
0.0
 11
218.68490971924
 21
-17.6215858249586
 31
0.0
  0
LINE
  5
   512
  8
0
  6
CONTINUOUS
 62
     2
 10
209.984897577823
 20
-12.8215857534331
 30
0.0
 11
209.984897577823
 21
-13.2215857593935
 31
0.0
  0
LINE
  5
   513
  8
0
  6
CONTINUOUS
 62
     2
 10
217.384897688091
 20
-12.8215857534331
 30
0.0
 11
217.384897688091
 21
-13.2215857593935
 31
0.0
  0
LINE
  5
   514
  8
0
  6
CONTINUOUS
 62
     2
 10
209.984906036022
 20
-13.2215857593693
 30
0.0
 11
209.984906036022
 21
-17.2215888707318
 31
0.0
  0
LINE
  5
   515
  8
0
  6
CONTINUOUS
 62
     2
 10
217.384906146301
 20
-13.221585759367
 30
0.0
 11
217.384906146301
 21
-17.2215827672138
 31
0.0
  0
LINE
  5
   516
  8
0
  6
CONTINUOUS
 62
     2
 10
209.984906733096
 20
-13.2215857593935
 30
0.0
 11
208.484909762502
 21
-13.2215857593935
 31
0.0
  0
LINE
  5
   517
  8
0
  6
CONTINUOUS
 62
     2
 10
218.884909917475
 20
-13.2215857593935
 30
0.0
 11
217.384909895123
 21
-13.2215857593935
 31
0.0
  0
LINE
  5
   518
  8
0
  6
CONTINUOUS
 62
     2
 10
218.884909917475
 20
-17.6215858249586
 30
0.0
 11
217.684909899593
 21
-17.6215858249586
 31
0.0
  0
LINE
  5
   519
  8
0
  6
CONTINUOUS
 62
     2
 10
209.684909780384
 20
-17.6215858249586
 30
0.0
 11
208.484909762502
 21
-17.6215858249586
 31
0.0
  0
LINE
  5
   51A
  8
0
  6
CONTINUOUS
 62
     2
 10
209.684909780384
 20
-17.2215858189982
 30
0.0
 11
209.684909780384
 21
-17.6215858249586
 31
0.0
  0
LINE
  5
   51B
  8
0
  6
CONTINUOUS
 62
     2
 10
217.684909899593
 20
-17.2215858189982
 30
0.0
 11
217.684909899593
 21
-17.6215858249586
 31
0.0
  0
LINE
  5
   51C
  8
0
  6
CONTINUOUS
 62
     2
 10
217.684909899593
 20
-17.6215858249586
 30
0.0
 11
209.684909780384
 21
-17.6215858249586
 31
0.0
  0
LINE
  5
   51D
  8
0
  6
CONTINUOUS
 62
     2
 10
217.684909899593
 20
-17.2215858189982
 30
0.0
 11
217.384897688091
 21
-17.2215858189982
 31
0.0
  0
LINE
  5
   51E
  8
0
  6
CONTINUOUS
 62
     2
 10
209.984897577823
 20
-17.2215858189982
 30
0.0
 11
209.684909780384
 21
-17.2215858189982
 31
0.0
  0
LINE
  5
   51F
  8
0
  6
CONTINUOUS
 62
     2
 10
209.984897577823
 20
-14.7144049955054
 30
0.0
 11
209.584915882409
 21
-14.7144049955054
 31
0.0
  0
LINE
  5
   520
  8
0
  6
CONTINUOUS
 62
     2
 10
209.984906242285
 20
-13.2215869412757
 30
0.0
 11
209.584915377324
 21
-14.7144061391911
 31
0.0
  0
LINE
  5
   521
  8
0
  6
CONTINUOUS
 62
     2
 10
217.784919056357
 20
-14.7144049955054
 30
0.0
 11
217.384919050396
 21
-14.7144049955054
 31
0.0
  0
LINE
  5
   522
  8
0
  6
CONTINUOUS
 62
     2
 10
217.78491803839
 20
-14.714407826066
 30
0.0
 11
217.38490889749
 21
-13.2215886281478
 31
0.0
  0
LINE
  5
   523
  8
0
  6
CONTINUOUS
 62
     2
 10
208.484909762502
 20
-13.2215857593935
 30
0.0
 11
208.484909762502
 21
-17.6215858249586
 31
0.0
  0
LINE
  5
   524
  8
0
  6
CONTINUOUS
 62
     2
 10
218.884909917475
 20
-13.2215857593935
 30
0.0
 11
218.884909917475
 21
-17.6215858249586
 31
0.0
  0
LINE
  5
   525
  8
0
  6
CONTINUOUS
 62
     2
 10
218.68490970975
 20
-17.6215861096676
 30
0.0
 11
218.658243053965
 21
-18.4215858368796
 31
0.0
  0
LINE
  5
   526
  8
0
  6
CONTINUOUS
 62
     2
 10
208.711576299428
 20
-18.4215858368797
 30
0.0
 11
208.684909643281
 21
-17.6215860987935
 31
0.0
  0
LINE
  5
   527
  8
0
  6
CONTINUOUS
 62
   210
 10
222.684909771184
 20
-17.6215858249586
 30
0.0
 11
220.684903840781
 21
-17.6215858249586
 31
0.0
  0
LINE
  5
   528
  8
0
  6
CONTINUOUS
 62
     7
 10
220.684903840781
 20
-2.8215672938743
 30
0.0
 11
206.684920416833
 21
-2.8215672938743
 31
0.0
  0
LINE
  5
   529
  8
0
  6
CONTINUOUS
 62
     3
 10
222.884903873563
 20
1.97843277765128
 30
0.0
 11
218.484897704483
 21
1.97843277765128
 31
0.0
  0
LINE
  5
   52A
  8
0
  6
CONTINUOUS
 62
   210
 10
222.684891663552
 20
1.37843276871058
 30
0.0
 11
218.684903810979
 21
1.37843276871058
 31
0.0
  0
LINE
  5
   52B
  8
0
  6
CONTINUOUS
 62
     7
 10
218.684903810979
 20
1.37843276871058
 30
0.0
 11
218.684903810979
 21
-2.8215672938743
 31
0.0
  0
LINE
  5
   52C
  8
0
  6
CONTINUOUS
 62
     7
 10
222.684891663552
 20
1.37843276871058
 30
0.0
 11
222.684891663552
 21
-2.8215672938743
 31
0.0
  0
LINE
  5
   52D
  8
0
  6
CONTINUOUS
 62
     7
 10
222.684891663552
 20
-0.221567255131276
 30
0.0
 11
218.684903810979
 21
-0.221567255131276
 31
0.0
  0
LINE
  5
   52E
  8
0
  6
CONTINUOUS
 62
   210
 10
218.684903810979
 20
1.57843277169081
 30
0.0
 11
208.884897561431
 21
1.57843277169081
 31
0.0
  0
LINE
  5
   52F
  8
0
  6
DASHDOT
 62
     7
 10
255.684904362322
 20
6.45229610679921
 30
0.0
 11
255.684904362322
 21
-20.1818216866569
 31
0.0
  0
LINE
  5
   530
  8
0
  6
DASHDOT
 62
     7
 10
241.684904153705
 20
6.91640529237892
 30
0.0
 11
241.684904153705
 21
-20.1818216866569
 31
0.0
  0
LINE
  5
   531
  8
0
  6
DASHDOT
 62
     7
 10
227.684903945089
 20
9.12092392388254
 30
0.0
 11
227.684903945089
 21
-20.2750296464821
 31
0.0
  0
LINE
  5
   532
  8
0
  6
DASHDOT
 62
     7
 10
213.684903736473
 20
9.38198534077112
 30
0.0
 11
213.684903736473
 21
-20.1818216866569
 31
0.0
  0
LINE
  5
   533
  8
0
  6
CONTINUOUS
 62
   210
 10
232.684900967837
 20
1.5784266681751
 30
0.0
 11
222.684900818825
 21
1.5784266681751
 31
0.0
  0
LINE
  5
   534
  8
0
  6
CONTINUOUS
 62
   210
 10
246.684901176453
 20
1.5784266681751
 30
0.0
 11
236.684901027442
 21
1.5784266681751
 31
0.0
  0
LINE
  5
   535
  8
0
  6
CONTINUOUS
 62
     7
 10
249.384873750866
 20
-2.82157339739001
 30
0.0
 11
249.384873750866
 21
-17.6215919284743
 31
0.0
  0
LINE
  5
   536
  8
0
  6
CONTINUOUS
 62
     7
 10
247.984873730004
 20
-2.82157339739001
 30
0.0
 11
247.984873730004
 21
-17.6215919284743
 31
0.0
  0
LINE
  5
   537
  8
0
  6
CONTINUOUS
 62
     7
 10
235.384873542249
 20
-2.82157339739001
 30
0.0
 11
235.384873542249
 21
-17.6215919284743
 31
0.0
  0
LINE
  5
   538
  8
0
  6
CONTINUOUS
 62
     7
 10
233.984873521388
 20
-2.82157339739001
 30
0.0
 11
233.984873521388
 21
-17.6215919284743
 31
0.0
  0
LINE
  5
   539
  8
0
  6
CONTINUOUS
 62
   210
 10
250.884904290796
 20
2.17842667711579
 30
0.0
 11
249.084873746395
 21
2.17842667711579
 31
0.0
  0
LINE
  5
   53A
  8
0
  6
CONTINUOUS
 62
     3
 10
250.684892080784
 20
1.37842666519487
 30
0.0
 11
249.244004608142
 21
1.37842666519487
 31
0.0
  0
LINE
  5
   53B
  8
0
  6
CONTINUOUS
 62
     7
 10
208.884900613189
 20
-10.2215918182058
 30
0.0
 11
208.884900613189
 21
-13.2215857593935
 31
0.0
  0
LINE
  5
   53C
  8
0
  6
CONTINUOUS
 62
     7
 10
232.484900964857
 20
-10.2215918182058
 30
0.0
 11
232.484900964857
 21
-13.2215857593935
 31
0.0
  0
LINE
  5
   53D
  8
0
  6
CONTINUOUS
 62
     7
 10
209.58490062362
 20
-10.2215918182058
 30
0.0
 11
208.884900613189
 21
-10.2215918182058
 31
0.0
  0
LINE
  5
   53E
  8
0
  6
CONTINUOUS
 62
     7
 10
232.484900964857
 20
-10.2215918182058
 30
0.0
 11
231.784900954426
 21
-10.2215918182058
 31
0.0
  0
LINE
  5
   53F
  8
0
  6
CONTINUOUS
 62
     7
 10
208.884900613189
 20
-4.02159172581856
 30
0.0
 11
208.884900613189
 21
-10.2215918182058
 31
0.0
  0
LINE
  5
   540
  8
0
  6
CONTINUOUS
 62
     7
 10
209.58490062362
 20
-4.02159172581856
 30
0.0
 11
209.58490062362
 21
-10.2215918182058
 31
0.0
  0
LINE
  5
   541
  8
0
  6
CONTINUOUS
 62
     7
 10
232.484900964857
 20
-7.62159177946273
 30
0.0
 11
232.484900964857
 21
-10.2215918182058
 31
0.0
  0
LINE
  5
   542
  8
0
  6
CONTINUOUS
 62
     7
 10
231.784900954426
 20
-7.62159177946273
 30
0.0
 11
231.784900954426
 21
-10.2215918182058
 31
0.0
  0
LINE
  5
   543
  8
0
  6
CONTINUOUS
 62
     7
 10
236.884901030422
 20
-10.2215918182058
 30
0.0
 11
236.884901030422
 21
-13.2215857593935
 31
0.0
  0
LINE
  5
   544
  8
0
  6
CONTINUOUS
 62
     7
 10
246.484901173473
 20
-10.2215918182058
 30
0.0
 11
246.484901173473
 21
-13.2215857593935
 31
0.0
  0
LINE
  5
   545
  8
0
  6
CONTINUOUS
 62
     7
 10
237.584901040853
 20
-10.2215918182058
 30
0.0
 11
236.884901030422
 21
-10.2215918182058
 31
0.0
  0
LINE
  5
   546
  8
0
  6
CONTINUOUS
 62
     7
 10
246.484901173473
 20
-10.2215918182058
 30
0.0
 11
245.784901163042
 21
-10.2215918182058
 31
0.0
  0
LINE
  5
   547
  8
0
  6
CONTINUOUS
 62
     7
 10
236.884901030422
 20
-7.62159177946273
 30
0.0
 11
236.884901030422
 21
-10.2215918182058
 31
0.0
  0
LINE
  5
   548
  8
0
  6
CONTINUOUS
 62
     7
 10
237.584901040853
 20
-7.62159177946273
 30
0.0
 11
237.584901040853
 21
-10.2215918182058
 31
0.0
  0
LINE
  5
   549
  8
0
  6
CONTINUOUS
 62
     7
 10
246.484901173473
 20
-7.62159177946273
 30
0.0
 11
246.484901173473
 21
-10.2215918182058
 31
0.0
  0
LINE
  5
   54A
  8
0
  6
CONTINUOUS
 62
     7
 10
245.784901163042
 20
-7.62159177946273
 30
0.0
 11
245.784901163042
 21
-10.2215918182058
 31
0.0
  0
LINE
  5
   54B
  8
0
  6
CONTINUOUS
 62
     7
 10
250.884904290796
 20
-10.2215918182058
 30
0.0
 11
250.884904290796
 21
-13.2215857593935
 31
0.0
  0
LINE
  5
   54C
  8
0
  6
CONTINUOUS
 62
     7
 10
260.484904433847
 20
-10.2215918182057
 30
0.0
 11
260.484904433847
 21
-13.2215857593935
 31
0.0
  0
LINE
  5
   54D
  8
0
  6
CONTINUOUS
 62
     7
 10
251.584904301227
 20
-10.2215918182058
 30
0.0
 11
250.884904290796
 21
-10.2215918182058
 31
0.0
  0
LINE
  5
   54E
  8
0
  6
CONTINUOUS
 62
     7
 10
260.484904433847
 20
-10.2215918182058
 30
0.0
 11
259.784904423416
 21
-10.2215918182058
 31
0.0
  0
LINE
  5
   54F
  8
0
  6
CONTINUOUS
 62
     7
 10
250.884904290796
 20
-7.62159177946273
 30
0.0
 11
250.884904290796
 21
-10.2215918182058
 31
0.0
  0
LINE
  5
   550
  8
0
  6
CONTINUOUS
 62
     7
 10
251.584904301227
 20
-7.62159177946273
 30
0.0
 11
251.584904301227
 21
-10.2215918182058
 31
0.0
  0
LINE
  5
   551
  8
0
  6
CONTINUOUS
 62
     7
 10
260.484904433847
 20
-4.02159172581855
 30
0.0
 11
260.484904433847
 21
-10.2215918182057
 31
0.0
  0
LINE
  5
   552
  8
0
  6
CONTINUOUS
 62
     7
 10
259.784904423416
 20
-4.02159172581855
 30
0.0
 11
259.784904423416
 21
-10.2215918182057
 31
0.0
  0
LINE
  5
   553
  8
0
  6
CONTINUOUS
 62
     7
 10
228.484900905252
 20
-9.22159180330459
 30
0.0
 11
228.484900905252
 21
-10.2215918182058
 31
0.0
  0
LINE
  5
   554
  8
0
  6
CONTINUOUS
 62
     7
 10
226.88490088141
 20
-9.22159180330459
 30
0.0
 11
226.88490088141
 21
-10.2215918182058
 31
0.0
  0
LINE
  5
   555
  8
0
  6
CONTINUOUS
 62
     7
 10
228.484900905252
 20
-9.22159180330459
 30
0.0
 11
226.88490088141
 21
-9.22159180330459
 31
0.0
  0
LINE
  5
   556
  8
0
  6
CONTINUOUS
 62
     7
 10
242.484901113868
 20
-9.22159180330459
 30
0.0
 11
242.484901113868
 21
-10.2215918182058
 31
0.0
  0
LINE
  5
   557
  8
0
  6
CONTINUOUS
 62
     7
 10
240.884901090027
 20
-9.22159180330459
 30
0.0
 11
240.884901090027
 21
-10.2215918182058
 31
0.0
  0
LINE
  5
   558
  8
0
  6
CONTINUOUS
 62
     7
 10
242.484901113868
 20
-9.22159180330459
 30
0.0
 11
240.884901090027
 21
-9.22159180330459
 31
0.0
  0
LINE
  5
   559
  8
0
  6
CONTINUOUS
 62
     7
 10
256.484904374242
 20
-9.22159180330459
 30
0.0
 11
256.484904374242
 21
-10.2215918182058
 31
0.0
  0
LINE
  5
   55A
  8
0
  6
CONTINUOUS
 62
     7
 10
254.884904350401
 20
-9.22159180330459
 30
0.0
 11
254.884904350401
 21
-10.2215918182058
 31
0.0
  0
LINE
  5
   55B
  8
0
  6
CONTINUOUS
 62
     7
 10
256.484904374242
 20
-9.22159180330459
 30
0.0
 11
254.884904350401
 21
-9.22159180330459
 31
0.0
  0
LINE
  5
   55C
  8
0
  6
CONTINUOUS
 62
     7
 10
207.084871594668
 20
-0.22156725513128
 30
0.0
 11
207.084871594668
 21
-2.8215672938743
 31
0.0
  0
LINE
  5
   55D
  8
0
  6
CONTINUOUS
 62
   210
 10
249.084873746395
 20
2.17842667711579
 30
0.0
 11
249.084873746395
 21
1.97843277765128
 31
0.0
  0
LINE
  5
   55E
  8
0
  6
CONTINUOUS
 62
     7
 10
249.244004608142
 20
1.37842666519487
 30
0.0
 11
249.244004608142
 21
-2.82157950090573
 31
0.0
  0
LINE
  5
   55F
  8
0
  6
CONTINUOUS
 62
     7
 10
209.58490062362
 20
-4.02159172581855
 30
0.0
 11
208.884900613189
 21
-4.02159172581855
 31
0.0
  0
LINE
  5
   560
  8
0
  6
CONTINUOUS
 62
     7
 10
232.484900964857
 20
-7.62159177946273
 30
0.0
 11
231.784900954426
 21
-7.62159177946273
 31
0.0
  0
LINE
  5
   561
  8
0
  6
CONTINUOUS
 62
     7
 10
237.584901040853
 20
-7.62159177946273
 30
0.0
 11
236.884901030422
 21
-7.62159177946273
 31
0.0
  0
LINE
  5
   562
  8
0
  6
CONTINUOUS
 62
     7
 10
246.484901173473
 20
-7.62159177946273
 30
0.0
 11
245.784901163042
 21
-7.62159177946273
 31
0.0
  0
LINE
  5
   563
  8
0
  6
CONTINUOUS
 62
     7
 10
251.584904301227
 20
-7.62159177946273
 30
0.0
 11
250.884904290796
 21
-7.62159177946273
 31
0.0
  0
LINE
  5
   564
  8
0
  6
CONTINUOUS
 62
     7
 10
260.484904433847
 20
-4.02159172581855
 30
0.0
 11
259.784904423416
 21
-4.02159172581855
 31
0.0
  0
LINE
  5
   565
  8
0
  6
CONTINUOUS
 62
   210
 10
250.684892080784
 20
1.57843277169081
 30
0.0
 11
250.684892080784
 21
1.37842666519487
 31
0.0
  0
LINE
  5
   566
  8
0
  6
CONTINUOUS
 62
   210
 10
246.684904228211
 20
1.57843277169081
 30
0.0
 11
246.684904228211
 21
1.37842666519487
 31
0.0
  0
LINE
  5
   567
  8
0
  6
CONTINUOUS
 62
   210
 10
222.684891663552
 20
1.57843277169081
 30
0.0
 11
222.684891663552
 21
1.37843276871058
 31
0.0
  0
LINE
  5
   568
  8
0
  6
CONTINUOUS
 62
   210
 10
218.684903810979
 20
1.57843277169081
 30
0.0
 11
218.684903810979
 21
1.37843276871058
 31
0.0
  0
LINE
  5
   569
  8
0
  6
CONTINUOUS
 62
   210
 10
232.684910123111
 20
1.57843277169081
 30
0.0
 11
232.684910123111
 21
1.37843276871058
 31
0.0
  0
LINE
  5
   56A
  8
0
  6
CONTINUOUS
 62
   210
 10
236.684904079199
 20
1.57843277169081
 30
0.0
 11
236.684904079199
 21
1.37843276871058
 31
0.0
  0
LINE
  5
   56B
  8
0
  6
CONTINUOUS
 62
     7
 10
221.384873333633
 20
-2.82157339739001
 30
0.0
 11
221.384873333633
 21
-17.6215919284743
 31
0.0
  0
LINE
  5
   56C
  8
0
  6
CONTINUOUS
 62
     7
 10
219.984873312771
 20
-2.82157339739001
 30
0.0
 11
219.984873312771
 21
-17.6215919284743
 31
0.0
  0
LINE
  5
   56D
  8
0
  6
CONTINUOUS
 62
     7
 10
222.884900821806
 20
-7.62159177946273
 30
0.0
 11
222.884900821806
 21
-10.2215918182058
 31
0.0
  0
LINE
  5
   56E
  8
0
  6
CONTINUOUS
 62
     7
 10
222.884900821806
 20
-10.2215918182058
 30
0.0
 11
222.884900821806
 21
-13.2215857593935
 31
0.0
  0
LINE
  5
   56F
  8
0
  6
CONTINUOUS
 62
     7
 10
223.584900832236
 20
-10.2215918182058
 30
0.0
 11
222.884900821806
 21
-10.2215918182058
 31
0.0
  0
LINE
  5
   570
  8
0
  6
CONTINUOUS
 62
     7
 10
223.584900832236
 20
-7.62159177946273
 30
0.0
 11
223.584900832236
 21
-10.2215918182058
 31
0.0
  0
LINE
  5
   571
  8
0
  6
CONTINUOUS
 62
     7
 10
223.584900832236
 20
-7.62159177946273
 30
0.0
 11
222.884900821806
 21
-7.62159177946273
 31
0.0
  0
LINE
  5
   572
  8
0
  6
CONTINUOUS
 62
     7
 10
214.484900696636
 20
-9.22159180330459
 30
0.0
 11
214.484900696636
 21
-10.2215918182058
 31
0.0
  0
LINE
  5
   573
  8
0
  6
CONTINUOUS
 62
     7
 10
212.884900672794
 20
-9.22159180330459
 30
0.0
 11
212.884900672794
 21
-10.2215918182058
 31
0.0
  0
LINE
  5
   574
  8
0
  6
CONTINUOUS
 62
     7
 10
214.484900696636
 20
-9.22159180330459
 30
0.0
 11
212.884900672794
 21
-9.22159180330459
 31
0.0
  0
LINE
  5
   575
  8
0
  6
CONTINUOUS
 62
     7
 10
217.78490074581
 20
-7.62159177946273
 30
0.0
 11
217.78490074581
 21
-10.2215918182058
 31
0.0
  0
LINE
  5
   576
  8
0
  6
CONTINUOUS
 62
     7
 10
218.48490075624
 20
-7.62159177946273
 30
0.0
 11
217.78490074581
 21
-7.62159177946273
 31
0.0
  0
LINE
  5
   577
  8
0
  6
CONTINUOUS
 62
     7
 10
218.48490075624
 20
-7.62159177946273
 30
0.0
 11
218.48490075624
 21
-10.2215918182058
 31
0.0
  0
LINE
  5
   578
  8
0
  6
CONTINUOUS
 62
     7
 10
218.48490075624
 20
-10.2215918182058
 30
0.0
 11
218.48490075624
 21
-13.2215857593935
 31
0.0
  0
LINE
  5
   579
  8
0
  6
CONTINUOUS
 62
     7
 10
218.48490075624
 20
-10.2215918182058
 30
0.0
 11
217.78490074581
 21
-10.2215918182058
 31
0.0
  0
LINE
  5
   57A
  8
0
  6
CONTINUOUS
 62
     7
 10
208.884897561431
 20
1.57843277169081
 30
0.0
 11
208.684903661967
 21
1.57843277169081
 31
0.0
  0
LINE
  5
   57B
  8
0
  6
CONTINUOUS
 62
   210
 10
260.484904433847
 20
1.57843277169081
 30
0.0
 11
250.684892080784
 21
1.57843277169081
 31
0.0
  0
LINE
  5
   57C
  8
0
  6
CONTINUOUS
 62
   210
 10
207.084871594668
 20
2.17842667711579
 30
0.0
 11
207.084871594668
 21
-0.22156725513128
 31
0.0
  0
LINE
  5
   57D
  8
0
  6
CONTINUOUS
 62
     7
 10
247.684873725534
 20
1.37842666519487
 30
0.0
 11
247.684873725534
 21
-2.8215672938743
 31
0.0
  0
LINE
  5
   57E
  8
0
  6
CONTINUOUS
 62
   210
 10
249.244004608142
 20
1.37842666519487
 30
0.0
 11
246.684901176453
 21
1.37842666519487
 31
0.0
  0
LINE
  5
   57F
  8
0
  6
CONTINUOUS
 62
   210
 10
260.684892229796
 20
1.57843277169081
 30
0.0
 11
260.684892229796
 21
-0.221573358646989
 31
0.0
  0
LINE
  5
   580
  8
0
  6
CONTINUOUS
 62
     3
 10
279.602907923734
 20
-18.4215858368796
 30
0.0
 11
205.570568338616
 21
-18.4215858368796
 31
0.0
  0
LINE
  5
   581
  8
0
  6
CONTINUOUS
 62
   130
 10
274.884919392099
 20
0.778432759769885
 30
0.0
 11
260.484904433847
 21
0.778432759769885
 31
0.0
  0
LINE
  5
   582
  8
0
  6
CONTINUOUS
 62
   130
 10
274.884919392099
 20
0.778432759769885
 30
0.0
 11
274.884919392099
 21
-18.4215858368796
 31
0.0
  0
LINE
  5
   583
  8
0
  6
DASHDOT
 62
     7
 10
277.196198167432
 20
2.17841447008436
 30
0.0
 11
199.094081978254
 21
2.17841447008436
 31
0.0
  0
LINE
  5
   584
  8
0
  6
DASHDOT
 62
     7
 10
277.196198167432
 20
3.37841448796576
 30
0.0
 11
199.094081978254
 21
3.37841448796576
 31
0.0
  0
LINE
  5
   585
  8
0
  6
CONTINUOUS
 62
     3
 10
277.196198167432
 20
6.32483415682593
 30
0.0
 11
277.196198167432
 21
-0.193735045980247
 31
0.0
  0
LINE
  5
   586
  8
0
  6
CONTINUOUS
 62
     3
 10
199.094081978254
 20
5.47983444535105
 30
0.0
 11
199.094081978254
 21
-0.435163534973071
 31
0.0
  0
LINE
  5
   587
  8
0
  6
CONTINUOUS
 62
   210
 10
217.684903796077
 20
-12.2215857444924
 30
0.0
 11
209.684903676868
 21
-12.2215857444924
 31
0.0
  0
LINE
  5
   588
  8
0
  6
CONTINUOUS
 62
     2
 10
217.384897688091
 20
-12.8215857534331
 30
0.0
 11
209.984897577823
 21
-12.8215857534331
 31
0.0
  0
LINE
  5
   589
  8
0
  6
CONTINUOUS
 62
   210
 10
217.684903796077
 20
-10.22158571469
 30
0.0
 11
217.684903796077
 21
-12.2215857444924
 31
0.0
  0
LINE
  5
   58A
  8
0
  6
CONTINUOUS
 62
   210
 10
209.684903676868
 20
-10.22158571469
 30
0.0
 11
209.684903676868
 21
-12.2215857444924
 31
0.0
  0
LINE
  5
   58B
  8
0
  6
CONTINUOUS
 62
   210
 10
217.184903788627
 20
-10.22158571469
 30
0.0
 11
217.184903788627
 21
-12.2215857444924
 31
0.0
  0
LINE
  5
   58C
  8
0
  6
CONTINUOUS
 62
   210
 10
210.184903684319
 20
-10.22158571469
 30
0.0
 11
210.184903684319
 21
-12.2215857444924
 31
0.0
  0
LINE
  5
   58D
  8
0
  6
CONTINUOUS
 62
   210
 10
223.684903885484
 20
-10.22158571469
 30
0.0
 11
223.684903885484
 21
-12.2215857444924
 31
0.0
  0
LINE
  5
   58E
  8
0
  6
CONTINUOUS
 62
   210
 10
237.684904094101
 20
-10.22158571469
 30
0.0
 11
237.684904094101
 21
-12.2215857444924
 31
0.0
  0
LINE
  5
   58F
  8
0
  6
CONTINUOUS
 62
   210
 10
251.684904302717
 20
-10.22158571469
 30
0.0
 11
251.684904302717
 21
-12.2215857444924
 31
0.0
  0
LINE
  5
   590
  8
0
  6
CONTINUOUS
 62
   210
 10
224.184903892935
 20
-10.22158571469
 30
0.0
 11
224.184903892935
 21
-12.2215857444924
 31
0.0
  0
LINE
  5
   591
  8
0
  6
CONTINUOUS
 62
   210
 10
238.184904101551
 20
-10.22158571469
 30
0.0
 11
238.184904101551
 21
-12.2215857444924
 31
0.0
  0
LINE
  5
   592
  8
0
  6
CONTINUOUS
 62
   210
 10
252.184904310167
 20
-10.22158571469
 30
0.0
 11
252.184904310167
 21
-12.2215857444924
 31
0.0
  0
LINE
  5
   593
  8
0
  6
CONTINUOUS
 62
   210
 10
231.184903997243
 20
-10.22158571469
 30
0.0
 11
231.184903997243
 21
-12.2215857444924
 31
0.0
  0
LINE
  5
   594
  8
0
  6
CONTINUOUS
 62
   210
 10
245.184904205859
 20
-10.22158571469
 30
0.0
 11
245.184904205859
 21
-12.2215857444924
 31
0.0
  0
LINE
  5
   595
  8
0
  6
CONTINUOUS
 62
   210
 10
259.184904414476
 20
-10.22158571469
 30
0.0
 11
259.184904414476
 21
-12.2215857444924
 31
0.0
  0
LINE
  5
   596
  8
0
  6
CONTINUOUS
 62
   210
 10
231.684904004694
 20
-10.22158571469
 30
0.0
 11
231.684904004694
 21
-12.2215857444924
 31
0.0
  0
LINE
  5
   597
  8
0
  6
CONTINUOUS
 62
   210
 10
245.68490421331
 20
-10.22158571469
 30
0.0
 11
245.68490421331
 21
-12.2215857444924
 31
0.0
  0
LINE
  5
   598
  8
0
  6
CONTINUOUS
 62
   210
 10
259.684904421926
 20
-10.22158571469
 30
0.0
 11
259.684904421926
 21
-12.2215857444924
 31
0.0
  0
LINE
  5
   599
  8
0
  6
CONTINUOUS
 62
   210
 10
231.684904004694
 20
-12.2215857444924
 30
0.0
 11
223.684903885484
 21
-12.2215857444924
 31
0.0
  0
LINE
  5
   59A
  8
0
  6
CONTINUOUS
 62
   210
 10
245.68490421331
 20
-12.2215857444924
 30
0.0
 11
237.684904094101
 21
-12.2215857444924
 31
0.0
  0
LINE
  5
   59B
  8
0
  6
CONTINUOUS
 62
   210
 10
259.684904421926
 20
-12.2215857444924
 30
0.0
 11
251.684904302717
 21
-12.2215857444924
 31
0.0
  0
LINE
  5
   59C
  8
0
  6
CONTINUOUS
 62
     2
 10
231.384897896708
 20
-12.8215857534331
 30
0.0
 11
223.984897786439
 21
-12.8215857534331
 31
0.0
  0
LINE
  5
   59D
  8
0
  6
CONTINUOUS
 62
     2
 10
245.384898105324
 20
-12.8215857534331
 30
0.0
 11
237.984897995055
 21
-12.8215857534331
 31
0.0
  0
LINE
  5
   59E
  8
0
  6
CONTINUOUS
 62
     2
 10
259.38489831394
 20
-12.8215857534331
 30
0.0
 11
251.984898203672
 21
-12.8215857534331
 31
0.0
  0
INSERT
  5
   59F
  8
0
  6
CONTINUOUS
 62
     7
  2
*UDIM2094
 10
0.0
 20
0.0
 30
0.0
  0
INSERT
  5
   5A0
  8
0
  6
CONTINUOUS
 62
     7
  2
*UDIM2095
 10
0.0
 20
0.0
 30
0.0
  0
INSERT
  5
   5A1
  8
0
  6
CONTINUOUS
 62
     7
  2
*UDIM2096
 10
0.0
 20
0.0
 30
0.0
  0
TEXT
  5
   5A2
  8
0
  6
CONTINUOUS
 62
     7
 10
240.119739829575
 20
22.1058044396302
 30
0.0
 40
2.99999994933605
  1
Y
 50
359.999999896069
 41
0.916666607525612
 72
     2
 11
242.319739647781
 21
22.1058044356506
 31
0.0
  0
LINE
  5
   5A3
  8
0
  6
CONTINUOUS
 62
     7
 10
114.844871966491
 20
91.4173565218836
 30
0.0
 11
114.85834357
 21
91.4263592069702
 31
0.0
  0
LINE
  5
   5A4
  8
0
  6
CONTINUOUS
 62
   210
 10
136.158358498895
 20
87.3564618246956
 30
0.0
 11
135.358366049005
 21
87.3564648764246
 31
0.0
  0
LINE
  5
   5A5
  8
0
  6
CONTINUOUS
 62
   210
 10
136.158360024774
 20
84.5564617829462
 30
0.0
 11
135.358366380203
 21
84.5564648346797
 31
0.0
  0
LINE
  5
   5A6
  8
0
  6
CONTINUOUS
 62
   210
 10
136.358361190557
 20
65.7564714207474
 30
0.0
 11
136.358361190557
 21
75.756471569759
 31
0.0
  0
LINE
  5
   5A7
  8
0
  6
CONTINUOUS
 62
   210
 10
136.358361190557
 20
122.956472273094
 30
0.0
 11
136.358361190557
 21
132.956472422105
 31
0.0
  0
LINE
  5
   5A8
  8
0
  6
CONTINUOUS
 62
     7
 10
131.958361124992
 20
66.4764726521794
 30
0.0
 11
117.158342593908
 21
66.4764726521794
 31
0.0
  0
LINE
  5
   5A9
  8
0
  6
CONTINUOUS
 62
   210
 10
131.958361124992
 20
65.3564714147869
 30
0.0
 11
117.158342593908
 21
65.3564714147869
 31
0.0
  0
LINE
  5
   5AA
  8
0
  6
CONTINUOUS
 62
   210
 10
131.958361124992
 20
133.356472428066
 30
0.0
 11
117.158342593908
 21
133.356472428066
 31
0.0
  0
LINE
  5
   5AB
  8
0
  6
CONTINUOUS
 62
     3
 10
131.958361124992
 20
132.236477294189
 30
0.0
 11
117.158342593908
 21
132.236477294189
 31
0.0
  0
LINE
  5
   5AC
  8
0
  6
CONTINUOUS
 62
   210
 10
117.158342593908
 20
65.3564714147869
 30
0.0
 11
117.158342593908
 21
70.6564592867317
 31
0.0
  0
LINE
  5
   5AD
  8
0
  6
CONTINUOUS
 62
   210
 10
131.958361124992
 20
65.3564714147869
 30
0.0
 11
131.958361124992
 21
65.7564714207474
 31
0.0
  0
LINE
  5
   5AE
  8
0
  6
CONTINUOUS
 62
   210
 10
136.958365548512
 20
76.756469942959
 30
0.0
 11
136.958359444997
 21
81.956470020445
 31
0.0
  0
LINE
  5
   5AF
  8
0
  6
CONTINUOUS
 62
   210
 10
136.958361076073
 20
116.756467719183
 30
0.0
 11
136.958367179588
 21
121.956467796669
 31
0.0
  0
LINE
  5
   5B0
  8
0
  6
CONTINUOUS
 62
     2
 10
136.758361196518
 20
122.156472261173
 30
0.0
 11
136.158361187577
 21
122.156472261173
 31
0.0
  0
LINE
  5
   5B1
  8
0
  6
CONTINUOUS
 62
     2
 10
136.758361196518
 20
76.5564715816799
 30
0.0
 11
136.158361187577
 21
76.5564715816799
 31
0.0
  0
LINE
  5
   5B2
  8
0
  6
CONTINUOUS
 62
     2
 10
136.158361187577
 20
121.956472258193
 30
0.0
 11
136.158361187577
 21
122.156472261173
 31
0.0
  0
LINE
  5
   5B3
  8
0
  6
CONTINUOUS
 62
     2
 10
136.158361187577
 20
81.9565143867562
 30
0.0
 11
136.158361187577
 21
116.756472180707
 31
0.0
  0
LINE
  5
   5B4
  8
0
  6
CONTINUOUS
 62
     2
 10
136.158361187577
 20
76.5564715816799
 30
0.0
 11
136.158361187577
 21
76.7565021022388
 31
0.0
  0
LINE
  5
   5B5
  8
0
  6
CONTINUOUS
 62
     2
 10
136.758361196518
 20
76.5564715816799
 30
0.0
 11
136.758361196518
 21
76.7564654811445
 31
0.0
  0
LINE
  5
   5B6
  8
0
  6
CONTINUOUS
 62
     2
 10
136.758361196518
 20
81.9564655586305
 30
0.0
 11
136.758361196518
 21
116.756441663128
 31
0.0
  0
LINE
  5
   5B7
  8
0
  6
CONTINUOUS
 62
     2
 10
136.758361196518
 20
121.956441740614
 30
0.0
 11
136.758361196518
 21
122.156472261173
 31
0.0
  0
LINE
  5
   5B8
  8
0
  6
CONTINUOUS
 62
   210
 10
136.358361190557
 20
75.756471569759
 30
0.0
 11
135.358365614703
 21
75.756471569759
 31
0.0
  0
LINE
  5
   5B9
  8
0
  6
CONTINUOUS
 62
   210
 10
136.358361190557
 20
65.7564714207474
 30
0.0
 11
131.958361124992
 21
65.7564714207474
 31
0.0
  0
LINE
  5
   5BA
  8
0
  6
CONTINUOUS
 62
   210
 10
136.358361190557
 20
122.956472273094
 30
0.0
 11
135.358361838053
 21
122.956472273094
 31
0.0
  0
LINE
  5
   5BB
  8
0
  6
CONTINUOUS
 62
   210
 10
136.358361190557
 20
132.956472422105
 30
0.0
 11
133.558355045318
 21
132.956472422105
 31
0.0
  0
LINE
  5
   5BC
  8
0
  6
CONTINUOUS
 62
   210
 10
136.958367303014
 20
76.7564715846602
 30
0.0
 11
135.358367302826
 21
76.7564715846602
 31
0.0
  0
LINE
  5
   5BD
  8
0
  6
CONTINUOUS
 62
   210
 10
136.958361199498
 20
81.9564716621462
 30
0.0
 11
135.358366687744
 21
81.9564716621462
 31
0.0
  0
LINE
  5
   5BE
  8
0
  6
CONTINUOUS
 62
   210
 10
136.958367303014
 20
121.956472258193
 30
0.0
 11
135.358361956338
 21
121.956472258193
 31
0.0
  0
LINE
  5
   5BF
  8
0
  6
CONTINUOUS
 62
   210
 10
136.958361199498
 20
116.756472180707
 30
0.0
 11
135.358362571421
 21
116.756472180707
 31
0.0
  0
LINE
  5
   5C0
  8
0
  6
CONTINUOUS
 62
   210
 10
136.158361187577
 20
115.356472159845
 30
0.0
 11
135.35836273702
 21
115.356472159845
 31
0.0
  0
LINE
  5
   5C1
  8
0
  6
CONTINUOUS
 62
   210
 10
136.158361187577
 20
112.156472112161
 30
0.0
 11
135.358363115532
 21
112.156472112161
 31
0.0
  0
LINE
  5
   5C2
  8
0
  6
DASHDOT
 62
     7
 10
136.958367303014
 20
121.956472258193
 30
0.0
 11
136.958367303014
 21
141.963703243183
 31
0.0
  0
LINE
  5
   5C3
  8
0
  6
DASHDOT
 62
     7
 10
136.958361199498
 20
81.9564700204451
 30
0.0
 11
136.958361199498
 21
116.756472180707
 31
0.0
  0
LINE
  5
   5C4
  8
0
  6
DASHDOT
 62
     7
 10
136.958365548512
 20
55.7366389598263
 30
0.0
 11
136.958365548512
 21
76.756469942959
 31
0.0
  0
LINE
  5
   5C5
  8
0
  6
DASHDOT
 62
     7
 10
138.158361217379
 20
55.6981490304508
 30
0.0
 11
138.158361217379
 21
141.963703243183
 31
0.0
  0
LINE
  5
   5C6
  8
0
  6
CONTINUOUS
 62
     7
 10
142.598852696641
 20
141.963703243183
 30
0.0
 11
134.487100080764
 21
141.963703243183
 31
0.0
  0
LINE
  5
   5C7
  8
0
  6
CONTINUOUS
 62
     7
 10
140.328623742936
 20
55.6561280154383
 30
0.0
 11
134.679549727642
 21
55.7655064068579
 31
0.0
  0
LINE
  5
   5C8
  8
0
  6
CONTINUOUS
 62
   210
 10
133.558355045318
 20
65.7564714207474
 30
0.0
 11
131.958361124992
 21
65.7564714207474
 31
0.0
  0
LINE
  5
   5C9
  8
0
  6
CONTINUOUS
 62
     7
 10
131.958361124992
 20
65.7564714207474
 30
0.0
 11
131.958361124992
 21
72.5563684463915
 31
0.0
  0
LINE
  5
   5CA
  8
0
  6
CONTINUOUS
 62
   210
 10
131.958361124992
 20
132.956472422105
 30
0.0
 11
131.958361124992
 21
133.356472428066
 31
0.0
  0
LINE
  5
   5CB
  8
0
  6
CONTINUOUS
 62
     3
 10
131.958361124992
 20
128.556466253025
 30
0.0
 11
131.958361124992
 21
132.956472422105
 31
0.0
  0
LINE
  5
   5CC
  8
0
  6
CONTINUOUS
 62
   210
 10
133.558355045318
 20
132.956472422105
 30
0.0
 11
131.958361124992
 21
132.956472422105
 31
0.0
  0
LINE
  5
   5CD
  8
0
  6
DASHDOT
 62
     7
 10
144.384187012018
 20
119.35647221945
 30
0.0
 11
132.981910779414
 21
119.35647221945
 31
0.0
  0
LINE
  5
   5CE
  8
0
  6
DASHDOT
 62
     7
 10
144.243834894748
 20
79.3564716234032
 30
0.0
 11
133.450698373848
 21
79.3564716234032
 31
0.0
  0
LINE
  5
   5CF
  8
0
  6
CONTINUOUS
 62
   130
 10
65.3583929380934
 20
76.9564548067008
 30
0.0
 11
65.3583723387271
 21
78.5564655116952
 31
0.0
  0
LINE
  5
   5D0
  8
0
  6
CONTINUOUS
 62
     3
 10
70.837852400905
 20
74.1564532369485
 30
0.0
 11
70.9583720407624
 21
74.1564547628274
 31
0.0
  0
LINE
  5
   5D1
  8
0
  6
CONTINUOUS
 62
   130
 10
65.3583723387918
 20
72.5564562660673
 30
0.0
 11
65.3583921752178
 21
74.1564501863934
 31
0.0
  0
LINE
  5
   5D2
  8
0
  6
CONTINUOUS
 62
   130
 10
117.958348875736
 20
72.5564089968775
 30
0.0
 11
117.158348863815
 21
72.5564593508822
 31
0.0
  0
LINE
  5
   5D3
  8
0
  6
CONTINUOUS
 62
   130
 10
115.158343719357
 20
72.556456812347
 30
0.0
 11
67.3583735246602
 21
72.556456812347
 31
0.0
  0
LINE
  5
   5D4
  8
0
  6
CONTINUOUS
 62
   130
 10
135.358361175656
 20
128.556466253025
 30
0.0
 11
117.958342605829
 21
128.556466253025
 31
0.0
  0
LINE
  5
   5D5
  8
0
  6
CONTINUOUS
 62
   130
 10
135.358361176154
 20
72.5563586071103
 30
0.0
 11
117.958348709842
 21
72.556408961114
 31
0.0
  0
LINE
  5
   5D6
  8
0
  6
CONTINUOUS
 62
   130
 10
135.358361175713
 20
72.5563586070694
 30
0.0
 11
135.358367279229
 21
76.9564456477334
 31
0.0
  0
LINE
  5
   5D7
  8
0
  6
CONTINUOUS
 62
     3
 10
101.558366775513
 20
115.756472165805
 30
0.0
 11
65.3583723396064
 21
115.756472165805
 31
0.0
  0
LINE
  5
   5D8
  8
0
  6
CONTINUOUS
 62
     3
 10
101.558366775513
 20
103.756453676444
 30
0.0
 11
87.758358940482
 21
103.756453676444
 31
0.0
  0
LINE
  5
   5D9
  8
0
  6
CONTINUOUS
 62
   130
 10
65.3583921760321
 20
74.1564501836136
 30
0.0
 11
65.3583929389715
 21
76.9564548029737
 31
0.0
  0
LINE
  5
   5DA
  8
0
  6
CONTINUOUS
 62
   130
 10
117.958342605829
 20
128.556466253025
 30
0.0
 11
65.3583723396064
 21
128.556466253025
 31
0.0
  0
LINE
  5
   5DB
  8
0
  6
CONTINUOUS
 62
   130
 10
65.3583723396064
 20
115.756472165805
 30
0.0
 11
65.3583723396064
 21
128.556466253025
 31
0.0
  0
LINE
  5
   5DC
  8
0
  6
CONTINUOUS
 62
     3
 10
106.258342431618
 20
74.1564745977075
 30
0.0
 11
116.358348685636
 21
74.1564929082545
 31
0.0
  0
LINE
  5
   5DD
  8
0
  6
CONTINUOUS
 62
     3
 10
89.9083666019252
 20
74.1564654424056
 30
0.0
 11
104.658342407655
 21
74.1564745976788
 31
0.0
  0
LINE
  5
   5DE
  8
0
  6
CONTINUOUS
 62
     3
 10
66.9584158510028
 20
74.1564501836165
 30
0.0
 11
88.3083673410169
 21
74.1564639165266
 31
0.0
  0
LINE
  5
   5DF
  8
0
  6
CONTINUOUS
 62
     3
 10
66.9584196657001
 20
75.9564547880753
 30
0.0
 11
88.3083681039564
 21
75.9564685209858
 31
0.0
  0
LINE
  5
   5E0
  8
0
  6
CONTINUOUS
 62
     3
 10
89.9083681278042
 20
75.9564700468647
 30
0.0
 11
104.658345459412
 21
75.956479202138
 31
0.0
  0
LINE
  5
   5E1
  8
0
  6
CONTINUOUS
 62
     3
 10
106.258345483258
 20
75.9564807280167
 30
0.0
 11
116.358348685517
 21
75.9564868315325
 31
0.0
  0
LINE
  5
   5E2
  8
0
  6
CONTINUOUS
 62
     3
 10
66.9584158509848
 20
74.1564501836688
 30
0.0
 11
66.9584189027426
 21
75.9564547881276
 31
0.0
  0
LINE
  5
   5E3
  8
0
  6
CONTINUOUS
 62
     3
 10
116.358348685503
 20
74.1564929082222
 30
0.0
 11
116.358348685503
 21
75.9564868315285
 31
0.0
  0
LINE
  5
   5E4
  8
0
  6
CONTINUOUS
 62
     3
 10
106.258342431529
 20
74.1564745977368
 30
0.0
 11
106.258345483287
 21
75.9564883574693
 31
0.0
  0
LINE
  5
   5E5
  8
0
  6
CONTINUOUS
 62
     3
 10
104.658342407685
 20
74.1564745977316
 30
0.0
 11
104.658345459443
 21
75.9564868315852
 31
0.0
  0
LINE
  5
   5E6
  8
0
  6
CONTINUOUS
 62
     3
 10
89.9083666019192
 20
74.1564654424169
 30
0.0
 11
89.9083681277981
 21
75.9564776762704
 31
0.0
  0
LINE
  5
   5E7
  8
0
  6
CONTINUOUS
 62
     3
 10
88.3083673410162
 20
74.1564639165367
 30
0.0
 11
88.3083688668951
 21
75.9564776762691
 31
0.0
  0
LINE
  5
   5E8
  8
0
  6
CONTINUOUS
 62
   130
 10
78.1583719581366
 20
70.956459291202
 30
0.0
 11
78.1583719581366
 21
72.5564593150439
 31
0.0
  0
LINE
  5
   5E9
  8
0
  6
CONTINUOUS
 62
   130
 10
79.7583721727134
 20
70.956459291202
 30
0.0
 11
79.7583721727134
 21
72.5564593150439
 31
0.0
  0
LINE
  5
   5EA
  8
0
  6
CONTINUOUS
 62
   130
 10
79.7583721727134
 20
70.956459291202
 30
0.0
 11
78.1583719581366
 21
70.956459291202
 31
0.0
  0
LINE
  5
   5EB
  8
0
  6
CONTINUOUS
 62
   130
 10
111.65837302953
 20
70.956480653507
 30
0.0
 11
111.65837302953
 21
72.5564532115282
 31
0.0
  0
LINE
  5
   5EC
  8
0
  6
CONTINUOUS
 62
   130
 10
113.258373053372
 20
70.956480653507
 30
0.0
 11
113.258373053372
 21
72.5564532115282
 31
0.0
  0
LINE
  5
   5ED
  8
0
  6
CONTINUOUS
 62
   130
 10
113.258373053372
 20
70.956480653507
 30
0.0
 11
111.65837302953
 21
70.956480653507
 31
0.0
  0
LINE
  5
   5EE
  8
0
  6
CONTINUOUS
 62
   130
 10
67.3583723694087
 20
70.6564592867317
 30
0.0
 11
67.3583723694087
 21
71.6564593016328
 31
0.0
  0
LINE
  5
   5EF
  8
0
  6
CONTINUOUS
 62
   130
 10
65.3583723396064
 20
70.6564592867317
 30
0.0
 11
65.3583723396064
 21
72.556456263286
 31
0.0
  0
LINE
  5
   5F0
  8
0
  6
CONTINUOUS
 62
   130
 10
67.3583723694087
 20
70.6564592867317
 30
0.0
 11
65.3583723396064
 21
70.6564592867317
 31
0.0
  0
LINE
  5
   5F1
  8
0
  6
CONTINUOUS
 62
   130
 10
67.3583723694087
 20
71.6564593016328
 30
0.0
 11
67.3583723694087
 21
72.5564593150439
 31
0.0
  0
LINE
  5
   5F2
  8
0
  6
CONTINUOUS
 62
   130
 10
115.15833646059
 20
70.6564592867317
 30
0.0
 11
115.15833646059
 21
71.6564593016328
 31
0.0
  0
LINE
  5
   5F3
  8
0
  6
CONTINUOUS
 62
   130
 10
117.158336490392
 20
70.6564592867317
 30
0.0
 11
115.15833646059
 21
70.6564592867317
 31
0.0
  0
LINE
  5
   5F4
  8
0
  6
CONTINUOUS
 62
   130
 10
117.158336491243
 20
70.6564592874001
 30
0.0
 11
117.158348698274
 21
72.5564593157123
 31
0.0
  0
LINE
  5
   5F5
  8
0
  6
CONTINUOUS
 62
   130
 10
115.158336461491
 20
71.6564593024237
 30
0.0
 11
115.158342565007
 21
72.556453212319
 31
0.0
  0
LINE
  5
   5F6
  8
0
  6
CONTINUOUS
 62
     3
 10
68.1583693819425
 20
120.356479136515
 30
0.0
 11
66.9583693377004
 21
121.556479180757
 31
0.0
  0
LINE
  5
   5F7
  8
0
  6
CONTINUOUS
 62
   130
 10
65.3583723396064
 20
78.5564655079666
 30
0.0
 11
65.3583723396064
 21
103.756462831718
 31
0.0
  0
LINE
  5
   5F8
  8
0
  6
CONTINUOUS
 62
     3
 10
87.7583574146029
 20
103.756459779961
 30
0.0
 11
65.3583723396062
 21
103.756462831718
 31
0.0
  0
LINE
  5
   5F9
  8
0
  6
CONTINUOUS
 62
     3
 10
101.558366775513
 20
103.756453676444
 30
0.0
 11
101.558366775513
 21
115.756472165805
 31
0.0
  0
LINE
  5
   5FA
  8
0
  6
CONTINUOUS
 62
     3
 10
71.5583720505238
 20
115.556472162825
 30
0.0
 11
71.5583720505238
 21
115.756472165805
 31
0.0
  0
LINE
  5
   5FB
  8
0
  6
CONTINUOUS
 62
     3
 10
106.2583424315
 20
123.256466174061
 30
0.0
 11
116.358348685517
 21
123.256472277577
 31
0.0
  0
LINE
  5
   5FC
  8
0
  6
CONTINUOUS
 62
     3
 10
106.258342431485
 20
120.356466130835
 30
0.0
 11
106.258342431485
 21
123.256466174048
 31
0.0
  0
LINE
  5
   5FD
  8
0
  6
CONTINUOUS
 62
     3
 10
106.2583424315
 20
120.356466130847
 30
0.0
 11
116.358348685517
 21
120.356472234363
 31
0.0
  0
LINE
  5
   5FE
  8
0
  6
CONTINUOUS
 62
     3
 10
116.358348685503
 20
120.356472234351
 30
0.0
 11
116.358348685503
 21
123.256472277564
 31
0.0
  0
LINE
  5
   5FF
  8
0
  6
CONTINUOUS
 62
     3
 10
88.3083673410118
 20
120.356472234351
 30
0.0
 11
88.3083673410118
 21
123.256472277564
 31
0.0
  0
LINE
  5
   600
  8
0
  6
CONTINUOUS
 62
     3
 10
104.658342407643
 20
120.356472234351
 30
0.0
 11
88.3083665780723
 21
120.356472234351
 31
0.0
  0
LINE
  5
   601
  8
0
  6
CONTINUOUS
 62
     3
 10
104.658342407643
 20
120.356472234351
 30
0.0
 11
104.658342407643
 21
123.256472277564
 31
0.0
  0
LINE
  5
   602
  8
0
  6
CONTINUOUS
 62
     3
 10
104.658342407643
 20
123.256472277564
 30
0.0
 11
88.3083665780723
 21
123.256472277564
 31
0.0
  0
LINE
  5
   603
  8
0
  6
CONTINUOUS
 62
     3
 10
86.7083673171699
 20
120.356472234351
 30
0.0
 11
66.9583731263877
 21
120.356472234351
 31
0.0
  0
LINE
  5
   604
  8
0
  6
CONTINUOUS
 62
     3
 10
86.7083673171699
 20
120.356472234351
 30
0.0
 11
86.7083673171699
 21
123.256472277564
 31
0.0
  0
LINE
  5
   605
  8
0
  6
CONTINUOUS
 62
     3
 10
86.7083673171699
 20
123.256472277564
 30
0.0
 11
66.9583731263877
 21
123.256472277564
 31
0.0
  0
LINE
  5
   606
  8
0
  6
CONTINUOUS
 62
     3
 10
66.9583723634482
 20
120.356472234351
 30
0.0
 11
66.9583723634482
 21
123.256472277564
 31
0.0
  0
LINE
  5
   607
  8
0
  6
CONTINUOUS
 62
     3
 10
70.9583720415831
 20
74.1564547612489
 30
0.0
 11
70.9583720415831
 21
75.9564639433446
 31
0.0
  0
LINE
  5
   608
  8
0
  6
CONTINUOUS
 62
     3
 10
72.5583732098342
 20
74.1564547612489
 30
0.0
 11
72.5583732098342
 21
75.9564654692235
 31
0.0
  0
LINE
  5
   609
  8
0
  6
CONTINUOUS
 62
     3
 10
66.9585287660377
 20
74.1564395024632
 30
0.0
 11
66.9585295289771
 21
75.9564547880746
 31
0.0
  0
LINE
  5
   60A
  8
0
  6
CONTINUOUS
 62
   130
 10
65.3583723395293
 20
72.5564349012443
 30
0.0
 11
65.3583738654082
 21
72.9564638989044
 31
0.0
  0
LINE
  5
   60B
  8
0
  6
CONTINUOUS
 62
   130
 10
117.958345667366
 20
72.5564089631457
 30
0.0
 11
117.158348707203
 21
72.5564211701771
 31
0.0
  0
LINE
  5
   60C
  8
0
  6
CONTINUOUS
 62
   130
 10
135.358367279172
 20
76.9564456476989
 30
0.0
 11
135.358361175657
 21
128.556464727146
 31
0.0
  0
LINE
  5
   60D
  8
0
  6
CONTINUOUS
 62
     3
 10
106.279167627108
 20
74.1564669682804
 30
0.0
 11
106.279167627108
 21
75.9564807280128
 31
0.0
  0
LINE
  5
   60E
  8
0
  6
CONTINUOUS
 62
     3
 10
104.657857178144
 20
74.1564486577332
 30
0.0
 11
104.657857178144
 21
75.9564792021339
 31
0.0
  0
LINE
  5
   60F
  8
0
  6
CONTINUOUS
 62
     3
 10
95.7583727926017
 20
115.556472162825
 30
0.0
 11
65.3583723396064
 21
115.556472162825
 31
0.0
  0
LINE
  5
   610
  8
0
  6
CONTINUOUS
 62
     3
 10
95.7583727926017
 20
103.756453676444
 30
0.0
 11
95.7583727926017
 21
115.556472162825
 31
0.0
  0
LINE
  5
   611
  8
0
  6
CONTINUOUS
 62
     7
 10
65.3583723396064
 20
103.756462831718
 30
0.0
 11
65.3583723396064
 21
115.556472162825
 31
0.0
  0
LINE
  5
   612
  8
0
  6
CONTINUOUS
 62
     3
 10
68.1584196835757
 20
74.1564608647685
 30
0.0
 11
68.1584189206363
 21
75.9564624174695
 31
0.0
  0
LINE
  5
   613
  8
0
  6
CONTINUOUS
 62
     3
 10
116.358348685503
 20
120.956472243292
 30
0.0
 11
106.258348535001
 21
120.956472243292
 31
0.0
  0
LINE
  5
   614
  8
0
  6
CONTINUOUS
 62
     3
 10
104.658345459401
 20
120.956472243292
 30
0.0
 11
88.3083711557091
 21
120.956472243292
 31
0.0
  0
LINE
  5
   615
  8
0
  6
CONTINUOUS
 62
     3
 10
86.7083711318672
 20
120.956472243292
 30
0.0
 11
68.1583723813296
 21
120.956472243292
 31
0.0
  0
LINE
  5
   616
  8
0
  6
CONTINUOUS
 62
     3
 10
67.8583738178127
 20
120.656478670858
 30
0.0
 11
68.1583738288732
 21
120.956478681918
 31
0.0
  0
LINE
  5
   617
  8
0
  6
CONTINUOUS
 62
     3
 10
68.1583723813296
 20
120.956472243292
 30
0.0
 11
68.1583723813296
 21
123.256472277564
 31
0.0
  0
LINE
  5
   618
  8
0
  6
CONTINUOUS
 62
   210
 10
117.158342593908
 20
128.556466253025
 30
0.0
 11
117.158342593908
 21
133.356472428066
 31
0.0
  0
LINE
  5
   619
  8
0
  6
CONTINUOUS
 62
     5
 10
58.7583691895009
 20
77.6545474647418
 30
0.0
 11
58.7583691895009
 21
114.656488934082
 31
0.0
  0
LINE
  5
   61A
  8
0
  6
CONTINUOUS
 62
     5
 10
58.7583691895009
 20
118.656490519566
 30
0.0
 11
58.7583691895009
 21
119.258168995329
 31
0.0
  0
LINE
  5
   61B
  8
0
  6
CONTINUOUS
 62
     5
 10
58.7582519333273
 20
77.6562481014362
 30
0.0
 11
58.7583663742425
 21
77.6570674984427
 31
0.0
  0
CIRCLE
  5
   61C
  8
0
  6
CONTINUOUS
 62
   130
 10
127.158348590424
 20
119.356472082577
 30
0.0
 40
2.39999853346816
  0
CIRCLE
  5
   61D
  8
0
  6
CONTINUOUS
 62
   130
 10
127.158338655936
 20
119.356461566428
 30
0.0
 40
1.30000163822766
  0
CIRCLE
  5
   61E
  8
0
  6
CONTINUOUS
 62
   130
 10
127.158349094151
 20
79.3564608492779
 30
0.0
 40
2.40000417897742
  0
CIRCLE
  5
   61F
  8
0
  6
CONTINUOUS
 62
   130
 10
127.158351155671
 20
79.3564655149877
 30
0.0
 40
1.30000044794303
  0
CIRCLE
  5
   620
  8
0
  6
CONTINUOUS
 62
   130
 10
70.1583369765478
 20
97.75643909224
 30
0.0
 40
4.0000071345768
  0
CIRCLE
  5
   621
  8
0
  6
CONTINUOUS
 62
   130
 10
70.1583407828509
 20
97.7564480184422
 30
0.0
 40
1.09999900151747
  0
LINE
  5
   622
  8
0
  6
DASHDOT
 62
     7
 10
70.1583369765478
 20
92.5564319397818
 30
0.0
 11
70.1583369765478
 21
102.956446244698
 31
0.0
  0
LINE
  5
   623
  8
0
  6
DASHDOT
 62
     7
 10
75.358344129006
 20
97.75643909224
 30
0.0
 11
64.9583298240896
 21
97.75643909224
 31
0.0
  0
LINE
  5
   624
  8
0
  6
DASHDOT
 62
     7
 10
127.158348590424
 20
115.756473531227
 30
0.0
 11
127.158348590424
 21
122.956470633926
 31
0.0
  0
LINE
  5
   625
  8
0
  6
DASHDOT
 62
     7
 10
130.758347141774
 20
119.356472082577
 30
0.0
 11
123.558350039075
 21
119.356472082577
 31
0.0
  0
LINE
  5
   626
  8
0
  6
DASHDOT
 62
     7
 10
127.158349094151
 20
75.7564566524191
 30
0.0
 11
127.158349094151
 21
82.9564650461367
 31
0.0
  0
LINE
  5
   627
  8
0
  6
DASHDOT
 62
     7
 10
130.75835329101
 20
79.3564608492779
 30
0.0
 11
123.558344897293
 21
79.3564608492779
 31
0.0
  0
LINE
  5
   628
  8
0
  6
CONTINUOUS
 62
     3
 10
64.1583677440882
 20
84.9564991726704
 30
0.0
 11
64.1583677440882
 21
90.1564199044522
 31
0.0
  0
LINE
  5
   629
  8
0
  6
CONTINUOUS
 62
     1
 10
60.1583676844836
 20
66.2564180224355
 30
0.0
 11
60.1583676844836
 21
130.65641898207
 31
0.0
  0
LINE
  5
   62A
  8
0
  6
CONTINUOUS
 62
     1
 10
60.1583676844836
 20
66.2564180224355
 30
0.0
 11
58.7583676636219
 21
66.2564180224355
 31
0.0
  0
LINE
  5
   62B
  8
0
  6
CONTINUOUS
 62
     1
 10
58.7583676636219
 20
66.2564180224355
 30
0.0
 11
58.7583676636219
 21
84.1564198150452
 31
0.0
  0
LINE
  5
   62C
  8
0
  6
CONTINUOUS
 62
     1
 10
58.7583676636219
 20
90.9564199163731
 30
0.0
 11
58.7583676636219
 21
130.656417456191
 31
0.0
  0
LINE
  5
   62D
  8
0
  6
CONTINUOUS
 62
     1
 10
60.1583676844836
 20
130.656417456191
 30
0.0
 11
58.7583676636219
 21
130.656417456191
 31
0.0
  0
LINE
  5
   62E
  8
0
  6
CONTINUOUS
 62
     1
 10
60.9583676964045
 20
99.6564200460132
 30
0.0
 11
60.9583676964045
 21
123.256417345923
 31
0.0
  0
LINE
  5
   62F
  8
0
  6
CONTINUOUS
 62
     1
 10
60.9583676964045
 20
90.15642295621
 30
0.0
 11
60.9583676964045
 21
97.2564230620083
 31
0.0
  0
LINE
  5
   630
  8
0
  6
CONTINUOUS
 62
     1
 10
60.9583676964045
 20
73.6564181327041
 30
0.0
 11
60.9583676964045
 21
84.956422878724
 31
0.0
  0
LINE
  5
   631
  8
0
  6
CONTINUOUS
 62
     3
 10
62.7583677232266
 20
69.0873583112018
 30
0.0
 11
62.7583677232266
 21
71.025477846918
 31
0.0
  0
LINE
  5
   632
  8
0
  6
CONTINUOUS
 62
     3
 10
62.7583677232266
 20
125.88735610583
 30
0.0
 11
62.7583677232266
 21
127.825478693304
 31
0.0
  0
LINE
  5
   633
  8
0
  6
CONTINUOUS
 62
     3
 10
62.7583677232266
 20
97.4873587343948
 30
0.0
 11
62.7583677232266
 21
99.425478270111
 31
0.0
  0
LINE
  5
   634
  8
0
  6
CONTINUOUS
 62
     3
 10
59.1583676695824
 20
84.1564198150452
 30
0.0
 11
58.7583676636219
 21
84.1564198150452
 31
0.0
  0
LINE
  5
   635
  8
0
  6
CONTINUOUS
 62
     3
 10
59.1583676695824
 20
84.1564198150452
 30
0.0
 11
59.1583676695824
 21
90.9564199163731
 31
0.0
  0
LINE
  5
   636
  8
0
  6
CONTINUOUS
 62
     3
 10
59.1583676695824
 20
90.9564199163731
 30
0.0
 11
58.7583676636219
 21
90.9564199163731
 31
0.0
  0
LINE
  5
   637
  8
0
  6
CONTINUOUS
 62
     3
 10
59.1583676695824
 20
82.9564197971638
 30
0.0
 11
59.1583676695824
 21
84.1564198150452
 31
0.0
  0
LINE
  5
   638
  8
0
  6
CONTINUOUS
 62
     3
 10
59.1583676695824
 20
90.9564199163731
 30
0.0
 11
59.1583676695824
 21
92.1564199342545
 31
0.0
  0
LINE
  5
   639
  8
0
  6
CONTINUOUS
 62
     3
 10
59.5583676755429
 20
82.9564197971638
 30
0.0
 11
59.1583676695824
 21
82.9564197971638
 31
0.0
  0
LINE
  5
   63A
  8
0
  6
CONTINUOUS
 62
     3
 10
59.5583676755429
 20
82.9564197971638
 30
0.0
 11
59.5583676755429
 21
92.1564199342545
 31
0.0
  0
LINE
  5
   63B
  8
0
  6
CONTINUOUS
 62
     3
 10
59.5583676755429
 20
92.1564199342545
 30
0.0
 11
59.1583676695824
 21
92.1564199342545
 31
0.0
  0
LINE
  5
   63C
  8
0
  6
CONTINUOUS
 62
     3
 10
64.1583677440882
 20
84.9564991726704
 30
0.0
 11
60.1583676844836
 21
84.9564991726704
 31
0.0
  0
LINE
  5
   63D
  8
0
  6
CONTINUOUS
 62
     3
 10
64.1583677440882
 20
90.1564199044522
 30
0.0
 11
60.1583676844836
 21
90.1564199044522
 31
0.0
  0
LINE
  5
   63E
  8
0
  6
CONTINUOUS
 62
     1
 10
58.7583676636219
 20
84.1564198150452
 30
0.0
 11
58.7583676636219
 21
90.9564199163731
 31
0.0
  0
LINE
  5
   63F
  8
0
  6
CONTINUOUS
 62
     3
 10
62.3583677172661
 20
68.8564180611785
 30
0.0
 11
60.1583676844836
 21
68.8564180611785
 31
0.0
  0
LINE
  5
   640
  8
0
  6
CONTINUOUS
 62
     3
 10
62.3583677172661
 20
71.2564180969413
 30
0.0
 11
60.1583676844836
 21
71.2564180969413
 31
0.0
  0
LINE
  5
   641
  8
0
  6
CONTINUOUS
 62
     1
 10
62.3583677172661
 20
71.1650728807364
 30
0.0
 11
62.3583677172661
 21
71.2564180969413
 31
0.0
  0
LINE
  5
   642
  8
0
  6
CONTINUOUS
 62
     3
 10
62.3583677172661
 20
70.9049456185594
 30
0.0
 11
62.3583677172661
 21
71.1650728807364
 31
0.0
  0
LINE
  5
   643
  8
0
  6
CONTINUOUS
 62
     3
 10
62.3583677172661
 20
70.5156389721333
 30
0.0
 11
62.3583677172661
 21
70.9049456185594
 31
0.0
  0
LINE
  5
   644
  8
0
  6
CONTINUOUS
 62
     3
 10
62.3583677172661
 20
70.0564180790599
 30
0.0
 11
62.3583677172661
 21
70.5156389721333
 31
0.0
  0
LINE
  5
   645
  8
0
  6
CONTINUOUS
 62
     3
 10
62.3583677172661
 20
69.5971987118654
 30
0.0
 11
62.3583677172661
 21
70.0564180790599
 31
0.0
  0
LINE
  5
   646
  8
0
  6
CONTINUOUS
 62
     3
 10
62.3583677172661
 20
69.2078905395604
 30
0.0
 11
62.3583677172661
 21
69.5971987118654
 31
0.0
  0
LINE
  5
   647
  8
0
  6
CONTINUOUS
 62
     3
 10
62.3583677172661
 20
68.9477632773834
 30
0.0
 11
62.3583677172661
 21
69.2078905395604
 31
0.0
  0
LINE
  5
   648
  8
0
  6
CONTINUOUS
 62
     3
 10
62.3583677172661
 20
68.8564180611785
 30
0.0
 11
62.3583677172661
 21
68.9477632773834
 31
0.0
  0
LINE
  5
   649
  8
0
  6
CONTINUOUS
 62
     3
 10
62.3583681967092
 20
68.8564177308172
 30
0.0
 11
62.7583682158413
 21
69.0873579680637
 31
0.0
  0
LINE
  5
   64A
  8
0
  6
CONTINUOUS
 62
     3
 10
62.7583685844388
 20
71.025477126007
 30
0.0
 11
62.3583685653067
 21
71.2564173632535
 31
0.0
  0
LINE
  5
   64B
  8
0
  6
CONTINUOUS
 62
     3
 10
62.3583677172661
 20
125.656417381686
 30
0.0
 11
60.1583676844836
 21
125.656417381686
 31
0.0
  0
LINE
  5
   64C
  8
0
  6
CONTINUOUS
 62
     3
 10
62.3583677172661
 20
128.056417417448
 30
0.0
 11
60.1583676844836
 21
128.056417417448
 31
0.0
  0
LINE
  5
   64D
  8
0
  6
CONTINUOUS
 62
     3
 10
62.3583677172661
 20
127.965072201243
 30
0.0
 11
62.3583677172661
 21
128.056417417448
 31
0.0
  0
LINE
  5
   64E
  8
0
  6
CONTINUOUS
 62
     3
 10
62.3583677172661
 20
127.704946464945
 30
0.0
 11
62.3583677172661
 21
127.965072201243
 31
0.0
  0
LINE
  5
   64F
  8
0
  6
CONTINUOUS
 62
     3
 10
62.3583677172661
 20
127.315639818519
 30
0.0
 11
62.3583677172661
 21
127.704946464945
 31
0.0
  0
LINE
  5
   650
  8
0
  6
CONTINUOUS
 62
     3
 10
62.3583677172661
 20
126.856417399567
 30
0.0
 11
62.3583677172661
 21
127.315639818519
 31
0.0
  0
LINE
  5
   651
  8
0
  6
CONTINUOUS
 62
     3
 10
62.3583677172661
 20
126.39720108413
 30
0.0
 11
62.3583677172661
 21
126.856417399567
 31
0.0
  0
LINE
  5
   652
  8
0
  6
CONTINUOUS
 62
     3
 10
62.3583677172661
 20
126.007888334188
 30
0.0
 11
62.3583677172661
 21
126.39720108413
 31
0.0
  0
LINE
  5
   653
  8
0
  6
CONTINUOUS
 62
     3
 10
62.3583677172661
 20
125.74776259789
 30
0.0
 11
62.3583677172661
 21
126.007888334188
 31
0.0
  0
LINE
  5
   654
  8
0
  6
CONTINUOUS
 62
     3
 10
62.3583677172661
 20
125.656417381686
 30
0.0
 11
62.3583677172661
 21
125.74776259789
 31
0.0
  0
LINE
  5
   655
  8
0
  6
CONTINUOUS
 62
     3
 10
62.3583676447007
 20
125.656416523632
 30
0.0
 11
62.7583676638319
 21
125.887355250672
 31
0.0
  0
LINE
  5
   656
  8
0
  6
CONTINUOUS
 62
     3
 10
62.7583683111641
 20
127.825477679773
 30
0.0
 11
62.3583682920329
 21
128.056416406813
 31
0.0
  0
LINE
  5
   657
  8
0
  6
CONTINUOUS
 62
     3
 10
62.3583677172661
 20
97.2564200102504
 30
0.0
 11
60.1583676844836
 21
97.2564200102504
 31
0.0
  0
LINE
  5
   658
  8
0
  6
CONTINUOUS
 62
     3
 10
62.3583677172661
 20
99.6564200460132
 30
0.0
 11
60.1583676844836
 21
99.6564200460132
 31
0.0
  0
LINE
  5
   659
  8
0
  6
CONTINUOUS
 62
     3
 10
62.3583677172661
 20
99.5650748298083
 30
0.0
 11
62.3583677172661
 21
99.6564200460132
 31
0.0
  0
LINE
  5
   65A
  8
0
  6
CONTINUOUS
 62
     3
 10
62.3583677172661
 20
99.3049460417524
 30
0.0
 11
62.3583677172661
 21
99.5650748298083
 31
0.0
  0
LINE
  5
   65B
  8
0
  6
CONTINUOUS
 62
     3
 10
62.3583677172661
 20
98.9156393953263
 30
0.0
 11
62.3583677172661
 21
99.3049460417524
 31
0.0
  0
LINE
  5
   65C
  8
0
  6
CONTINUOUS
 62
     3
 10
62.3583677172661
 20
98.4564200281318
 30
0.0
 11
62.3583677172661
 21
98.9156393953263
 31
0.0
  0
LINE
  5
   65D
  8
0
  6
CONTINUOUS
 62
     3
 10
62.3583677172661
 20
97.9971976091795
 30
0.0
 11
62.3583677172661
 21
98.4564200281318
 31
0.0
  0
LINE
  5
   65E
  8
0
  6
CONTINUOUS
 62
     3
 10
62.3583677172661
 20
97.6078909627534
 30
0.0
 11
62.3583677172661
 21
97.9971976091795
 31
0.0
  0
LINE
  5
   65F
  8
0
  6
CONTINUOUS
 62
     3
 10
62.3583677172661
 20
97.3477621746974
 30
0.0
 11
62.3583677172661
 21
97.6078909627534
 31
0.0
  0
LINE
  5
   660
  8
0
  6
CONTINUOUS
 62
     3
 10
62.3583677172661
 20
97.2564200102504
 30
0.0
 11
62.3583677172661
 21
97.3477621746974
 31
0.0
  0
LINE
  5
   661
  8
0
  6
CONTINUOUS
 62
     3
 10
62.3583677716728
 20
97.2564195187341
 30
0.0
 11
62.758367790804
 21
97.4873582457739
 31
0.0
  0
LINE
  5
   662
  8
0
  6
CONTINUOUS
 62
     3
 10
62.7583683630663
 20
99.4254773696355
 30
0.0
 11
62.3583683439355
 21
99.6564191446227
 31
0.0
  0
LINE
  5
   663
  8
0
  6
CONTINUOUS
 62
     7
 10
60.1583676844836
 20
130.656417456191
 30
0.0
 11
60.1583676844836
 21
152.490940336092
 31
0.0
  0
LINE
  5
   664
  8
0
  6
CONTINUOUS
 62
     7
 10
60.9583676964045
 20
123.256417345923
 30
0.0
 11
60.9583676964045
 21
125.656417381686
 31
0.0
  0
LINE
  5
   665
  8
0
  6
CONTINUOUS
 62
     7
 10
60.1583676844836
 20
55.5175946843681
 30
0.0
 11
60.1583676844836
 21
66.2564180224355
 31
0.0
  0
LINE
  5
   666
  8
0
  6
CONTINUOUS
 62
     7
 10
60.9583676964045
 20
55.7520774464828
 30
0.0
 11
60.9583676964045
 21
68.8564180611785
 31
0.0
  0
LINE
  5
   667
  8
0
  6
CONTINUOUS
 62
     3
 10
57.4207202104424
 20
54.7151807695629
 30
0.0
 11
63.5297172482198
 21
56.5057488668425
 31
0.0
  0
LINE
  5
   668
  8
0
  6
CONTINUOUS
 62
     3
 10
57.6313752807105
 20
152.04760833543
 30
0.0
 11
63.6350447833539
 21
153.100883686771
 31
0.0
  0
LINE
  5
   669
  8
0
  6
CONTINUOUS
 62
     7
 10
60.9583676964045
 20
128.256417420429
 30
0.0
 11
60.1583676844836
 21
128.256417420429
 31
0.0
  0
LINE
  5
   66A
  8
0
  6
CONTINUOUS
 62
     7
 10
60.9583676964045
 20
125.456417378705
 30
0.0
 11
60.1583676844836
 21
125.456417378705
 31
0.0
  0
LINE
  5
   66B
  8
0
  6
CONTINUOUS
 62
     7
 10
60.9583676964045
 20
90.3564199074324
 30
0.0
 11
60.1583676844836
 21
90.3564199074324
 31
0.0
  0
LINE
  5
   66C
  8
0
  6
CONTINUOUS
 62
     7
 10
60.9583676964045
 20
97.0564200072702
 30
0.0
 11
60.1583676844836
 21
97.0564200072702
 31
0.0
  0
LINE
  5
   66D
  8
0
  6
CONTINUOUS
 62
     7
 10
60.9583676964045
 20
99.8564200489934
 30
0.0
 11
60.1583676844836
 21
99.8564200489934
 31
0.0
  0
LINE
  5
   66E
  8
0
  6
CONTINUOUS
 62
     7
 10
60.9583676964045
 20
84.7564991696902
 30
0.0
 11
60.1583676844836
 21
84.7564991696902
 31
0.0
  0
LINE
  5
   66F
  8
0
  6
CONTINUOUS
 62
     7
 10
60.9583676964045
 20
128.056417417448
 30
0.0
 11
60.9583676964045
 21
152.631291215376
 31
0.0
  0
LINE
  5
   670
  8
0
  6
CONTINUOUS
 62
     7
 10
60.9583676964045
 20
71.2564180969413
 30
0.0
 11
60.9583676964045
 21
73.6564181327041
 31
0.0
  0
LINE
  5
   671
  8
0
  6
CONTINUOUS
 62
     7
 10
60.9583676964045
 20
71.4564180999215
 30
0.0
 11
60.1583676844836
 21
71.4564180999215
 31
0.0
  0
LINE
  5
   672
  8
0
  6
CONTINUOUS
 62
     7
 10
60.9583676964045
 20
68.6564180581983
 30
0.0
 11
60.1583676844836
 21
68.6564180581983
 31
0.0
  0
INSERT
  5
   673
  8
0
  6
CONTINUOUS
 62
     7
  2
*HATCH379
 10
75.958366394043
 20
54.4616470336914
 30
0.0
 41
0.400000005960464
 42
0.400000005960464
 50
89.9999999480344
 43
0.400000005960464
  0
INSERT
  5
   674
  8
0
  6
CONTINUOUS
 62
     7
  2
*HATCH380
 10
75.958366394043
 20
54.4616470336914
 30
0.0
 41
0.400000005960464
 42
0.400000005960464
 50
89.9999999480344
 43
0.400000005960464
  0
INSERT
  5
   675
  8
0
  6
CONTINUOUS
 62
     7
  2
*HATCH381
 10
75.958366394043
 20
54.4616470336914
 30
0.0
 41
0.400000005960464
 42
0.400000005960464
 50
89.9999999480344
 43
0.400000005960464
  0
INSERT
  5
   676
  8
0
  6
CONTINUOUS
 62
     7
  2
*HATCH382
 10
75.958366394043
 20
54.4616470336914
 30
0.0
 41
0.400000005960464
 42
0.400000005960464
 50
89.9999999480344
 43
0.400000005960464
  0
INSERT
  5
   677
  8
0
  6
CONTINUOUS
 62
     7
  2
*HATCH383
 10
75.958366394043
 20
54.4616470336914
 30
0.0
 41
0.400000005960464
 42
0.400000005960464
 50
89.9999999480344
 43
0.400000005960464
  0
INSERT
  5
   678
  8
0
  6
CONTINUOUS
 62
     7
  2
*HATCH384
 10
75.958366394043
 20
54.4616470336914
 30
0.0
 41
0.400000005960464
 42
0.400000005960464
 50
89.9999999480344
 43
0.400000005960464
  0
LINE
  5
   679
  8
0
  6
CONTINUOUS
 62
     7
 10
65.3583723396064
 20
119.45647222094
 30
0.0
 11
60.9583676964045
 21
119.45647222094
 31
0.0
  0
LINE
  5
   67A
  8
0
  6
CONTINUOUS
 62
     7
 10
65.3583723396064
 20
77.456471595091
 30
0.0
 11
60.9583676964045
 21
77.456471595091
 31
0.0
  0
LINE
  5
   67B
  8
0
  6
DASHDOT
 62
     7
 10
165.785851775173
 20
98.4564719080154
 30
0.0
 11
44.925979097732
 21
98.4564719080154
 31
0.0
  0
LINE
  5
   67C
  8
0
  6
CONTINUOUS
 62
     7
 10
62.3583677172661
 20
119.45647222094
 30
0.0
 11
62.3583677172661
 21
122.256472262663
 31
0.0
  0
LINE
  5
   67D
  8
0
  6
CONTINUOUS
 62
     7
 10
63.158367729187
 20
119.45647222094
 30
0.0
 11
63.158367729187
 21
122.256472262663
 31
0.0
  0
LINE
  5
   67E
  8
0
  6
CONTINUOUS
 62
     7
 10
63.158367729187
 20
122.256472262663
 30
0.0
 11
62.3583677172661
 21
122.256472262663
 31
0.0
  0
LINE
  5
   67F
  8
0
  6
CONTINUOUS
 62
     7
 10
64.7583669900894
 20
120.05647222988
 30
0.0
 11
63.7583646863699
 21
120.05647222988
 31
0.0
  0
LINE
  5
   680
  8
0
  6
CONTINUOUS
 62
     7
 10
64.7583669900894
 20
120.05647222988
 30
0.0
 11
64.7583669900894
 21
124.256472292465
 31
0.0
  0
LINE
  5
   681
  8
0
  6
CONTINUOUS
 62
     7
 10
63.3583646804094
 20
125.656472313327
 30
0.0
 11
62.3583646655083
 21
125.656472313327
 31
0.0
  0
LINE
  5
   682
  8
0
  6
CONTINUOUS
 62
     7
 10
61.9583646595478
 20
128.056417417448
 30
0.0
 11
61.9583646595478
 21
129.256472366971
 31
0.0
  0
LINE
  5
   683
  8
0
  6
CONTINUOUS
 62
     7
 10
61.9583646595478
 20
129.256472366971
 30
0.0
 11
60.9583676964045
 21
129.256472366971
 31
0.0
  0
LINE
  5
   684
  8
0
  6
CONTINUOUS
 62
     7
 10
63.3583646804094
 20
124.656472298426
 30
0.0
 11
62.3583646655083
 21
124.656472298426
 31
0.0
  0
LINE
  5
   685
  8
0
  6
CONTINUOUS
 62
     7
 10
63.7583646863699
 20
120.05647222988
 30
0.0
 11
63.7583646863699
 21
124.256472292465
 31
0.0
  0
ARC
  5
   686
  8
0
  6
CONTINUOUS
 62
     7
 10
63.3583588190066
 20
124.256467217943
 30
0.0
 40
1.40000740210794
 50
360.000319242658
 51
449.999813057862
  0
ARC
  5
   687
  8
0
  6
CONTINUOUS
 62
     7
 10
63.3583823796696
 20
124.256488650379
 30
0.0
 40
0.399979934457567
 50
359.998830132094
 51
450.002235749312
  0
ARC
  5
   688
  8
0
  6
CONTINUOUS
 62
     7
 10
62.3583569245555
 20
126.056459500514
 30
0.0
 40
1.39998844323914
 50
196.603489300583
 51
270.000346548696
  0
LINE
  5
   689
  8
0
  6
CONTINUOUS
 62
     7
 10
64.7583669900894
 20
123.656472283525
 30
0.0
 11
63.7583646863699
 21
123.656472283525
 31
0.0
  0
INSERT
  5
   68A
  8
0
  6
CONTINUOUS
 62
     7
  2
*HATCH385
 10
75.958366394043
 20
54.4616470336914
 30
0.0
 41
0.400000005960464
 42
0.400000005960464
 50
89.9999999480344
 43
0.400000005960464
  0
LINE
  5
   68B
  8
0
  6
DOT
 62
     7
 10
47.7583674997092
 20
77.456471595091
 30
0.0
 11
47.7583674997092
 21
119.45647222094
 31
0.0
  0
LINE
  5
   68C
  8
0
  6
DOT
 62
     7
 10
52.9875938236269
 20
119.45647222094
 30
0.0
 11
47.7583674997092
 21
119.45647222094
 31
0.0
  0
LINE
  5
   68D
  8
0
  6
DOT
 62
     7
 10
53.9360190854969
 20
77.456471595091
 30
0.0
 11
47.7583674997092
 21
77.456471595091
 31
0.0
  0
LINE
  5
   68E
  8
0
  6
CONTINUOUS
 62
     7
 10
139.438361236453
 20
117.796472196204
 30
0.0
 11
139.438361236453
 21
120.916472242695
 31
0.0
  0
LINE
  5
   68F
  8
0
  6
CONTINUOUS
 62
     7
 10
140.718361255526
 20
118.556472207529
 30
0.0
 11
140.718361255526
 21
120.156472231371
 31
0.0
  0
LINE
  5
   690
  8
0
  6
CONTINUOUS
 62
     7
 10
139.438361236453
 20
120.916472242695
 30
0.0
 11
138.158361217379
 21
120.916472242695
 31
0.0
  0
LINE
  5
   691
  8
0
  6
CONTINUOUS
 62
     7
 10
139.438361236453
 20
117.796472196204
 30
0.0
 11
138.158361217379
 21
117.796472196204
 31
0.0
  0
LINE
  5
   692
  8
0
  6
CONTINUOUS
 62
     7
 10
140.718361255526
 20
118.556472207529
 30
0.0
 11
138.158361217379
 21
118.556472207529
 31
0.0
  0
LINE
  5
   693
  8
0
  6
CONTINUOUS
 62
     7
 10
140.718361255526
 20
120.156472231371
 30
0.0
 11
138.158361217379
 21
120.156472231371
 31
0.0
  0
LINE
  5
   694
  8
0
  6
CONTINUOUS
 62
     7
 10
139.438361236453
 20
80.916471646649
 30
0.0
 11
138.158361217379
 21
80.916471646649
 31
0.0
  0
LINE
  5
   695
  8
0
  6
CONTINUOUS
 62
     7
 10
140.718361255526
 20
80.1564716353241
 30
0.0
 11
138.158361217379
 21
80.1564716353241
 31
0.0
  0
LINE
  5
   696
  8
0
  6
CONTINUOUS
 62
     7
 10
140.718361255526
 20
78.5564716114823
 30
0.0
 11
138.158361217379
 21
78.5564716114823
 31
0.0
  0
LINE
  5
   697
  8
0
  6
CONTINUOUS
 62
     7
 10
139.438361236453
 20
77.7964716001574
 30
0.0
 11
138.158361217379
 21
77.7964716001574
 31
0.0
  0
LINE
  5
   698
  8
0
  6
CONTINUOUS
 62
     7
 10
139.438361236453
 20
77.7964716001574
 30
0.0
 11
139.438361236453
 21
80.916471646649
 31
0.0
  0
LINE
  5
   699
  8
0
  6
CONTINUOUS
 62
     7
 10
140.718361255526
 20
78.5564716114823
 30
0.0
 11
140.718361255526
 21
80.1564716353241
 31
0.0
  0
CIRCLE
  5
   69A
  8
0
  6
CONTINUOUS
 62
     7
 10
139.471862907589
 20
79.1984922232923
 30
0.0
 40
8.00000011920929E-2
  0
LINE
  5
   69B
  8
0
  6
CONTINUOUS
 62
     3
 10
116.358360892534
 20
66.4764772298162
 30
0.0
 11
87.5583604633807
 21
66.4764772298162
 31
0.0
  0
LINE
  5
   69C
  8
0
  6
CONTINUOUS
 62
     7
 10
116.358360892534
 20
128.55647235654
 30
0.0
 11
116.358360892534
 21
133.356466315574
 31
0.0
  0
LINE
  5
   69D
  8
0
  6
CONTINUOUS
 62
     7
 10
117.158360904455
 20
129.088314405481
 30
0.0
 11
117.158360904455
 21
129.15646015845
 31
0.0
  0
LINE
  5
   69E
  8
0
  6
CONTINUOUS
 62
     7
 10
114.758361250162
 20
70.1564764535339
 30
0.0
 11
114.758361250162
 21
72.5564715220753
 31
0.0
  0
LINE
  5
   69F
  8
0
  6
CONTINUOUS
 62
     7
 10
117.158360904455
 20
129.15646015845
 30
0.0
 11
116.358360892534
 21
129.15646015845
 31
0.0
  0
LINE
  5
   6A0
  8
0
  6
CONTINUOUS
 62
     3
 10
116.358360892534
 20
132.236477294189
 30
0.0
 11
78.6783615512845
 21
132.236477294189
 31
0.0
  0
LINE
  5
   6A1
  8
0
  6
CONTINUOUS
 62
     3
 10
87.5583604629037
 20
66.4764772298162
 30
0.0
 11
78.6783615512845
 21
66.4764772298162
 31
0.0
  0
LINE
  5
   6A2
  8
0
  6
CONTINUOUS
 62
     3
 10
87.5583604629037
 20
66.4764772298162
 30
0.0
 11
87.5583604629037
 21
72.5564715220753
 31
0.0
  0
LINE
  5
   6A3
  8
0
  6
CONTINUOUS
 62
     3
 10
87.5583604633807
 20
128.55647235654
 30
0.0
 11
87.5583604633807
 21
133.356472428066
 31
0.0
  0
LINE
  5
   6A4
  8
0
  6
CONTINUOUS
 62
   130
 10
116.358360892534
 20
166.116476578337
 30
0.0
 11
87.5583604633807
 21
166.116476578337
 31
0.0
  0
LINE
  5
   6A5
  8
0
  6
CONTINUOUS
 62
   130
 10
87.5583604633807
 20
160.636477717382
 30
0.0
 11
87.5583604633807
 21
166.356477887026
 31
0.0
  0
LINE
  5
   6A6
  8
0
  6
CONTINUOUS
 62
   130
 10
87.5583604633807
 20
132.356477380386
 30
0.0
 11
87.5583604633807
 21
133.836581077798
 31
0.0
  0
LINE
  5
   6A7
  8
0
  6
CONTINUOUS
 62
   130
 10
116.358360892534
 20
132.356477380386
 30
0.0
 11
116.358360892534
 21
168.356477916828
 31
0.0
  0
LINE
  5
   6A8
  8
0
  6
CONTINUOUS
 62
   130
 10
116.358360892534
 20
153.636477613074
 30
0.0
 11
114.758360868692
 21
153.636477613074
 31
0.0
  0
LINE
  5
   6A9
  8
0
  6
CONTINUOUS
 62
   130
 10
114.758360868692
 20
153.636477613074
 30
0.0
 11
114.758360868692
 21
162.556477830401
 31
0.0
  0
LINE
  5
   6AA
  8
0
  6
CONTINUOUS
 62
   130
 10
88.9583604842423
 20
157.836477675659
 30
0.0
 11
88.9183610939979
 21
157.836477675659
 31
0.0
  0
LINE
  5
   6AB
  8
0
  6
CONTINUOUS
 62
   130
 10
88.9583604842423
 20
160.636477717382
 30
0.0
 11
87.5583604633807
 21
160.636477717382
 31
0.0
  0
LINE
  5
   6AC
  8
0
  6
CONTINUOUS
 62
   130
 10
88.9583604842423
 20
133.836513939125
 30
0.0
 11
87.5583604633807
 21
133.836513939125
 31
0.0
  0
LINE
  5
   6AD
  8
0
  6
CONTINUOUS
 62
   130
 10
88.9583604842423
 20
136.636513980849
 30
0.0
 11
88.9183610939979
 21
136.636513980849
 31
0.0
  0
LINE
  5
   6AE
  8
0
  6
CONTINUOUS
 62
   130
 10
88.9583604842423
 20
133.836513939125
 30
0.0
 11
88.9583604842423
 21
160.636477717382
 31
0.0
  0
LINE
  5
   6AF
  8
0
  6
CONTINUOUS
 62
   210
 10
87.5583604633807
 20
166.116476578337
 30
0.0
 11
78.6783615517616
 21
166.116476578337
 31
0.0
  0
LINE
  5
   6B0
  8
0
  6
CONTINUOUS
 62
   210
 10
87.5583604633807
 20
133.836513939125
 30
0.0
 11
87.5583604633807
 21
133.936477319521
 31
0.0
  0
LINE
  5
   6B1
  8
0
  6
CONTINUOUS
 62
   210
 10
87.5583604633807
 20
160.536477715892
 30
0.0
 11
87.5583604633807
 21
160.636477717382
 31
0.0
  0
LINE
  5
   6B2
  8
0
  6
CONTINUOUS
 62
   210
 10
78.6783615517616
 20
136.736477361244
 30
0.0
 11
78.5583603292703
 21
136.736477361244
 31
0.0
  0
LINE
  5
   6B3
  8
0
  6
CONTINUOUS
 62
   210
 10
78.6783615517616
 20
133.736477316541
 30
0.0
 11
78.5583603292703
 21
133.736477316541
 31
0.0
  0
LINE
  5
   6B4
  8
0
  6
CONTINUOUS
 62
   210
 10
78.6783615517616
 20
133.23647730909
 30
0.0
 11
78.5583603292703
 21
133.23647730909
 31
0.0
  0
LINE
  5
   6B5
  8
0
  6
CONTINUOUS
 62
   210
 10
78.6783615517616
 20
133.356477395287
 30
0.0
 11
78.6783615517616
 21
166.116476578337
 31
0.0
  0
LINE
  5
   6B6
  8
0
  6
CONTINUOUS
 62
   210
 10
88.7183610910176
 20
133.936477319521
 30
0.0
 11
87.5583604633807
 21
133.936477319521
 31
0.0
  0
LINE
  5
   6B7
  8
0
  6
CONTINUOUS
 62
   210
 10
88.718360378236
 20
133.93647905573
 30
0.0
 11
88.8597818918539
 21
133.995060599876
 31
0.0
  0
LINE
  5
   6B8
  8
0
  6
CONTINUOUS
 62
   210
 10
88.8597830100689
 20
133.995052871149
 30
0.0
 11
88.9183615022392
 21
134.136471326696
 31
0.0
  0
LINE
  5
   6B9
  8
0
  6
CONTINUOUS
 62
   210
 10
88.9183610939979
 20
134.136477322501
 30
0.0
 11
88.9183610939979
 21
136.336477355284
 31
0.0
  0
LINE
  5
   6BA
  8
0
  6
CONTINUOUS
 62
   210
 10
88.9183610939979
 20
158.136477680129
 30
0.0
 11
88.9183610939979
 21
160.336477712912
 31
0.0
  0
LINE
  5
   6BB
  8
0
  6
CONTINUOUS
 62
   210
 10
88.9183644614257
 20
160.336468215921
 30
0.0
 11
88.8597859692554
 21
160.477886671468
 31
0.0
  0
LINE
  5
   6BC
  8
0
  6
CONTINUOUS
 62
   210
 10
88.8597804288176
 20
160.477899179527
 30
0.0
 11
88.7183589151997
 21
160.536480723672
 31
0.0
  0
LINE
  5
   6BD
  8
0
  6
CONTINUOUS
 62
   210
 10
88.7183610910176
 20
160.536477715892
 30
0.0
 11
87.5583604633807
 21
160.536477715892
 31
0.0
  0
LINE
  5
   6BE
  8
0
  6
CONTINUOUS
 62
   210
 10
88.9183610939979
 20
136.336477355284
 30
0.0
 11
88.9183610939979
 21
158.136477680129
 31
0.0
  0
LINE
  5
   6BF
  8
0
  6
CONTINUOUS
 62
     2
 10
78.5583603292703
 20
128.55647235654
 30
0.0
 11
78.5583603292703
 21
157.556477671487
 31
0.0
  0
LINE
  5
   6C0
  8
0
  6
CONTINUOUS
 62
     2
 10
76.558360299468
 20
128.55647235654
 30
0.0
 11
76.558360299468
 21
152.15647759102
 31
0.0
  0
LINE
  5
   6C1
  8
0
  6
CONTINUOUS
 62
     2
 10
76.558360299468
 20
152.556477596981
 30
0.0
 11
76.558360299468
 21
157.556477671487
 31
0.0
  0
LINE
  5
   6C2
  8
0
  6
CONTINUOUS
 62
     2
 10
78.5583603292703
 20
157.556477671487
 30
0.0
 11
77.5583603143691
 21
157.556477671487
 31
0.0
  0
LINE
  5
   6C3
  8
0
  6
CONTINUOUS
 62
     2
 10
76.9583603054284
 20
152.556477596981
 30
0.0
 11
76.558360299468
 21
152.556477596981
 31
0.0
  0
LINE
  5
   6C4
  8
0
  6
CONTINUOUS
 62
     2
 10
76.9583603054284
 20
152.15647759102
 30
0.0
 11
76.558360299468
 21
152.15647759102
 31
0.0
  0
LINE
  5
   6C5
  8
0
  6
CONTINUOUS
 62
     2
 10
76.9583603054284
 20
152.15647759102
 30
0.0
 11
76.9583603054284
 21
152.556477596981
 31
0.0
  0
LINE
  5
   6C6
  8
0
  6
CONTINUOUS
 62
     2
 10
78.35836032629
 20
128.55647235654
 30
0.0
 11
78.35836032629
 21
157.556477671487
 31
0.0
  0
LINE
  5
   6C7
  8
0
  6
CONTINUOUS
 62
   210
 10
78.5583642687178
 20
137.883692751598
 30
0.0
 11
78.6783624406826
 21
137.936475956457
 31
0.0
  0
LINE
  5
   6C8
  8
0
  6
CONTINUOUS
 62
   210
 10
78.6783599054948
 20
156.536479553533
 30
0.0
 11
78.5583586800412
 21
156.589262756334
 31
0.0
  0
LINE
  5
   6C9
  8
0
  6
CONTINUOUS
 62
     2
 10
77.5583603143691
 20
157.556477671487
 30
0.0
 11
76.9583603054284
 21
157.556477671487
 31
0.0
  0
LINE
  5
   6CA
  8
0
  6
CONTINUOUS
 62
   130
 10
116.358360892534
 20
132.356477380386
 30
0.0
 11
78.5583603292703
 21
132.356477380386
 31
0.0
  0
LINE
  5
   6CB
  8
0
  6
CONTINUOUS
 62
     7
 10
76.558360299468
 20
157.956477677447
 30
0.0
 11
76.558360299468
 21
167.856477909377
 31
0.0
  0
ARC
  5
   6CC
  8
0
  6
CONTINUOUS
 62
     7
 10
77.0583603069185
 20
167.856477909377
 30
0.0
 40
0.500000007450581
 50
89.9999999480344
 51
179.999999948034
  0
LINE
  5
   6CD
  8
0
  6
CONTINUOUS
 62
     7
 10
78.5583603292703
 20
157.556477671487
 30
0.0
 11
78.5583603292703
 21
166.356477887026
 31
0.0
  0
LINE
  5
   6CE
  8
0
  6
CONTINUOUS
 62
     7
 10
116.358360892534
 20
166.356477887026
 30
0.0
 11
78.5583603292703
 21
166.356477887026
 31
0.0
  0
LINE
  5
   6CF
  8
0
  6
CONTINUOUS
 62
     7
 10
116.358360892534
 20
166.556477890006
 30
0.0
 11
78.35836032629
 21
166.556477890006
 31
0.0
  0
LINE
  5
   6D0
  8
0
  6
CONTINUOUS
 62
     7
 10
78.35836032629
 20
157.956477677447
 30
0.0
 11
78.35836032629
 21
166.556477890006
 31
0.0
  0
LINE
  5
   6D1
  8
0
  6
CONTINUOUS
 62
     7
 10
78.35836032629
 20
157.956477677447
 30
0.0
 11
76.9583603054284
 21
157.956477677447
 31
0.0
  0
LINE
  5
   6D2
  8
0
  6
CONTINUOUS
 62
     7
 10
76.9583603054284
 20
157.558974831798
 30
0.0
 11
76.9583603054284
 21
157.956477677447
 31
0.0
  0
LINE
  5
   6D3
  8
0
  6
CONTINUOUS
 62
     7
 10
116.358360892534
 20
168.356477916828
 30
0.0
 11
77.0583603069185
 21
168.356477916828
 31
0.0
  0
LINE
  5
   6D4
  8
0
  6
CONTINUOUS
 62
     7
 10
76.9583603054284
 20
157.956477677447
 30
0.0
 11
76.558360299468
 21
157.956477677447
 31
0.0
  0
LINE
  5
   6D5
  8
0
  6
CONTINUOUS
 62
     2
 10
76.9583603054284
 20
157.556477671487
 30
0.0
 11
76.558360299468
 21
157.556477671487
 31
0.0
  0
LINE
  5
   6D6
  8
0
  6
CONTINUOUS
 62
     2
 10
78.6783615512845
 20
128.55647235654
 30
0.0
 11
78.6783615512845
 21
132.236477294189
 31
0.0
  0
LINE
  5
   6D7
  8
0
  6
CONTINUOUS
 62
     7
 10
116.358360892534
 20
64.3564763671072
 30
0.0
 11
77.0583603069185
 21
64.3564763671072
 31
0.0
  0
LINE
  5
   6D8
  8
0
  6
CONTINUOUS
 62
     7
 10
116.358360892534
 20
66.1564763939293
 30
0.0
 11
78.35836032629
 21
66.1564763939293
 31
0.0
  0
LINE
  5
   6D9
  8
0
  6
CONTINUOUS
 62
     7
 10
116.358360892534
 20
66.3564763969095
 30
0.0
 11
78.5583603292703
 21
66.3564763969095
 31
0.0
  0
LINE
  5
   6DA
  8
0
  6
CONTINUOUS
 62
   210
 10
78.6783615517616
 20
66.5964777055977
 30
0.0
 11
78.6783615517616
 21
70.956459291202
 31
0.0
  0
LINE
  5
   6DB
  8
0
  6
CONTINUOUS
 62
     7
 10
78.5583603292703
 20
66.3564763969095
 30
0.0
 11
78.5583603292703
 21
70.956459291202
 31
0.0
  0
LINE
  5
   6DC
  8
0
  6
CONTINUOUS
 62
     7
 10
78.35836032629
 20
66.1564763939293
 30
0.0
 11
78.35836032629
 21
70.956459291202
 31
0.0
  0
LINE
  5
   6DD
  8
0
  6
CONTINUOUS
 62
     7
 10
76.558360299468
 20
64.8564763745578
 30
0.0
 11
76.558360299468
 21
72.5564715220753
 31
0.0
  0
ARC
  5
   6DE
  8
0
  6
CONTINUOUS
 62
     7
 10
77.0583603069185
 20
64.8564763745578
 30
0.0
 40
0.500000007450581
 50
179.999999948034
 51
269.999999948034
  0
LINE
  5
   6DF
  8
0
  6
CONTINUOUS
 62
     7
 10
116.358360892534
 20
64.3564763671072
 30
0.0
 11
116.358360892534
 21
70.6564592867317
 31
0.0
  0
LINE
  5
   6E0
  8
0
  6
CONTINUOUS
 62
   130
 10
116.358360892534
 20
162.556477830401
 30
0.0
 11
114.758360868692
 21
162.556477830401
 31
0.0
  0
LINE
  5
   6E1
  8
0
  6
CONTINUOUS
 62
     7
 10
116.358360892534
 20
70.1564764535339
 30
0.0
 11
114.758361250162
 21
70.1564764535339
 31
0.0
  0
LINE
  5
   6E2
  8
0
  6
CONTINUOUS
 62
     7
 10
117.158360904455
 20
128.55647235654
 30
0.0
 11
117.158360904455
 21
129.15646015845
 31
0.0
  0
LINE
  5
   6E3
  8
0
  6
CONTINUOUS
 62
     7
 10
117.158360904455
 20
69.6091204039376
 30
0.0
 11
116.358360892534
 21
69.6091204039376
 31
0.0
  0
LINE
  5
   6E4
  8
0
  6
CONTINUOUS
 62
   130
 10
117.158360904455
 20
163.156460665089
 30
0.0
 11
116.358360892534
 21
163.156460665089
 31
0.0
  0
LINE
  5
   6E5
  8
0
  6
CONTINUOUS
 62
   130
 10
117.158360904455
 20
159.209121739082
 30
0.0
 11
117.158360904455
 21
163.156460665089
 31
0.0
  0
LINE
  5
   6E6
  8
0
  6
CONTINUOUS
 62
   130
 10
117.158360904455
 20
159.209121739082
 30
0.0
 11
116.358360892534
 21
159.209121739082
 31
0.0
  0
LINE
  5
   6E7
  8
0
  6
CONTINUOUS
 62
     7
 10
111.564033260987
 20
172.184350456225
 30
0.0
 11
59.0526737049207
 21
172.184350456225
 31
0.0
  0
INSERT
  5
   6E8
  8
0
  6
CONTINUOUS
 62
     7
  2
*HATCH386
 10
75.958366394043
 20
54.4616470336914
 30
0.0
 41
0.400000005960464
 42
0.400000005960464
 50
89.9999999480344
 43
0.400000005960464
  0
LINE
  5
   6E9
  8
0
  6
CONTINUOUS
 62
     7
 10
124.558365363738
 20
53.356471235973
 30
0.0
 11
124.558365363738
 21
65.3564714147869
 31
0.0
  0
LINE
  5
   6EA
  8
0
  6
CONTINUOUS
 62
     7
 10
122.558365333935
 20
53.356471235973
 30
0.0
 11
122.558365333935
 21
65.3564714147869
 31
0.0
  0
LINE
  5
   6EB
  8
0
  6
DASHDOT
 62
     7
 10
128.151398381757
 20
57.3564712955777
 30
0.0
 11
118.782191404851
 21
57.3564712955777
 31
0.0
  0
LINE
  5
   6EC
  8
0
  6
CONTINUOUS
 62
     7
 10
124.558365363738
 20
53.356471235973
 30
0.0
 11
122.558365333935
 21
53.356471235973
 31
0.0
  0
LINE
  5
   6ED
  8
0
  6
CONTINUOUS
 62
     7
 10
124.558365363738
 20
61.3564713551823
 30
0.0
 11
122.558365333935
 21
61.3564713551823
 31
0.0
  0
CIRCLE
  5
   6EE
  8
0
  6
CONTINUOUS
 62
     7
 10
124.43852379029
 20
54.9400941255335
 30
0.0
 40
0.200000002980232
  0
LINE
  5
   6EF
  8
0
  6
CONTINUOUS
 62
     7
 10
124.558367118239
 20
133.356472428066
 30
0.0
 11
124.558367118239
 21
145.35647260688
 31
0.0
  0
LINE
  5
   6F0
  8
0
  6
CONTINUOUS
 62
     7
 10
122.558367088437
 20
133.356472428066
 30
0.0
 11
122.558367088437
 21
145.35647260688
 31
0.0
  0
LINE
  5
   6F1
  8
0
  6
DASHDOT
 62
     7
 10
128.151398381757
 20
141.356472547275
 30
0.0
 11
118.782191404851
 21
141.356472547275
 31
0.0
  0
LINE
  5
   6F2
  8
0
  6
CONTINUOUS
 62
     7
 10
124.558367118239
 20
145.35647260688
 30
0.0
 11
122.558367088437
 21
145.35647260688
 31
0.0
  0
LINE
  5
   6F3
  8
0
  6
CONTINUOUS
 62
     7
 10
124.558367118239
 20
137.356472487671
 30
0.0
 11
122.558367088437
 21
137.356472487671
 31
0.0
  0
INSERT
  5
   6F4
  8
255
  6
CONTINUOUS
 62
     7
  2
SBARRA
 10
135.158359171194
 20
94.3564557003103
 30
0.0
 41
-0.400000005960464
 42
0.400000005960464
 50
359.999932748911
 43
0.400000005960464
  0
INSERT
  5
   6F5
  8
0
  6
CONTINUOUS
 62
     7
  2
*UDIM2097
 10
0.0
 20
0.0
 30
0.0
  0
INSERT
  5
   6F6
  8
0
  6
CONTINUOUS
 62
     7
  2
*UDIM2098
 10
0.0
 20
0.0
 30
0.0
  0
INSERT
  5
   6F7
  8
0
  6
CONTINUOUS
 62
     7
  2
*UDIM2099
 10
0.0
 20
0.0
 30
0.0
  0
INSERT
  5
   6F8
  8
0
  6
CONTINUOUS
 62
     7
  2
*UDIM2100
 10
0.0
 20
0.0
 30
0.0
  0
INSERT
  5
   6F9
  8
0
  6
CONTINUOUS
 62
     7
  2
*UDIM2101
 10
0.0
 20
0.0
 30
0.0
  0
INSERT
  5
   6FA
  8
0
  6
CONTINUOUS
 62
     7
  2
*UDIM2102
 10
0.0
 20
0.0
 30
0.0
  0
INSERT
  5
   6FB
  8
0
  6
CONTINUOUS
 62
     7
  2
*UDIM2103
 10
0.0
 20
0.0
 30
0.0
  0
INSERT
  5
   6FC
  8
0
  6
CONTINUOUS
 62
     7
  2
*UDIM2104
 10
0.0
 20
0.0
 30
0.0
  0
INSERT
  5
   6FD
  8
0
  6
CONTINUOUS
 62
     7
  2
*UDIM2105
 10
0.0
 20
0.0
 30
0.0
  0
INSERT
  5
   6FE
  8
0
  6
CONTINUOUS
 62
     7
  2
*UDIM2106
 10
0.0
 20
0.0
 30
0.0
  0
INSERT
  5
   6FF
  8
0
  6
CONTINUOUS
 62
     7
  2
*UDIM2107
 10
0.0
 20
0.0
 30
0.0
  0
INSERT
  5
   700
  8
0
  6
CONTINUOUS
 62
     7
  2
*UDIM2108
 10
0.0
 20
0.0
 30
0.0
  0
TEXT
  5
   701
  8
0
  6
CONTINUOUS
 62
     7
 10
28.4197608865142
 20
96.9169242162786
 30
0.0
 40
2.99999994933605
  1
X
 50
359.999999948034
 41
0.91666673368878
 72
     1
 11
29.5197609638631
 21
98.4169241899545
 31
0.0
 73
     2
  0
INSERT
  5
   702
  8
0
  6
CONTINUOUS
 62
     7
  2
*UDIM2109
 10
0.0
 20
0.0
 30
0.0
  0
INSERT
  5
   703
  8
0
  6
CONTINUOUS
 62
     7
  2
*UDIM2110
 10
0.0
 20
0.0
 30
0.0
  0
TEXT
  5
   704
  8
0
  6
CONTINUOUS
 62
     7
 10
42.1077341208553
 20
90.2655595737856
 30
0.0
 40
2.99999994933605
  1
=    =
 50
89.9999999480344
 41
0.91666673368878
 72
     1
 11
40.6077341534103
 21
98.240560037701
 31
0.0
 73
     2
  0
INSERT
  5
   705
  8
0
  6
CONTINUOUS
 62
     7
  2
*UDIM2111
 10
0.0
 20
0.0
 30
0.0
  0
TEXT
  5
   706
  8
0
  6
CONTINUOUS
 62
     7
 10
60.5182172952501
 20
178.646316862271
 30
0.0
 40
2.50000001341104
  1
CORSA DI SEZIONAMENTO
 50
359.999999948034
 41
0.899999922823905
 72
     1
 11
83.9182154057182
 21
179.896316847871
 31
0.0
 73
     2
  0
TEXT
  5
   707
  8
0
  6
CONTINUOUS
 62
     7
 10
63.8932168272434
 20
174.146316859227
 30
0.0
 40
2.50000001341104
  1
ISOLATING DISTANCE
 50
359.999999948034
 41
0.899999922823905
 72
     1
 11
83.918215209017
 21
175.396316847871
 31
0.0
 73
     2
  0
INSERT
  5
   708
  8
0
  6
CONTINUOUS
 62
     7
  2
*UDIM2112
 10
0.0
 20
0.0
 30
0.0
  0
ENDSEC
  0
EOF
