  0
SECTION
  2
HEADER
  9
$ACADVER
  1
AC1009
999
I-DEAS Drafting Master Series 7m3 Not Encoded
  9
$EXTMIN
 10
0.0
 20
0.0
  9
$EXTMAX
 10
4.361E+002
 20
2.1544E+002
  9
$TEXTSIZE
 40
1.25E-001
  9
$LTSCALE
 40
1.0
  9
$CLAYER
  8
V1L0
  9
$CECOLOR
 62
2
  9
$DIMASZ
 40
1.25E-001
  9
$DIMEXO
 40
6.25E-002
  9
$DIMDLI
 40
2.5E-001
  9
$DIMEXE
 40
1.25E-001
  9
$DIMTP
 40
5.0E-003
  9
$DIMTM
 40
-5.0E-003
  9
$DIMTXT
 40
3.0
  9
$DIMLIM
 70
0
  9
$DIMTIH
 70
1
  9
$DIMTOH
 70
1
  9
$DIMSE1
 70
0
  9
$DIMSE2
 70
0
  9
$DIMTAD
 70
0
  9
$DIMASO
 70
1
  9
$DIMALT
 70
0
  9
$DIMALTD
 70
0
  9
$DIMTOFL
 70
1
  9
$DIMTIX
 70
0
  9
$DIMSAH
 70
0
  9
$DIMTFAC
 40
1.0
  9
$DIMGAP
 40
6.25E-002
  9
$LUNITS
 70
2
  9
$LUPREC
 70
3
  9
$FILLETRAD
 40
1.0E+001
  9
$AUNITS
 70
0
  9
$AUPREC
 70
1
  9
$CHAMFERA
 40
6.0
  9
$CHAMFERB
 40
6.0
  9
$ANGBASE
 50
0.0
  9
$ANGDIR
 70
0
  9
$PDMODE
 70
2
  9
$PDSIZE
 40
-1.0E-002
  9
$SPLINETYPE
 70
6
  0
ENDSEC
  0
SECTION
  2
TABLES
  0
TABLE
  2
LTYPE
 70
8
  0
LTYPE
  2
HIDDENNEW00
  3
_ 
 70
64
 72
65
 73
2
 40
4.5
 49
3.0
 49
-1.5
  0
LTYPE
  2
HIDDENNEW01
  3
_ 
 70
64
 72
65
 73
2
 40
4.5
 49
3.0
 49
-1.5
  0
LTYPE
  2
HIDDEN
  3
_ 
 70
64
 72
65
 73
2
 40
4.5
 49
3.0
 49
-1.5
  0
LTYPE
  2
CENTERLINE
  3
_ 
 70
64
 72
65
 73
4
 40
3.0E+001
 49
2.4E+001
 49
-1.5
 49
3.0
 49
-1.5
  0
LTYPE
  2
PHANTOM
  3
_ 
 70
64
 72
65
 73
6
 40
2.95E+001
 49
1.9E+001
 49
-1.5
 49
3.0
 49
-1.5
 49
3.0
 49
-1.5
  0
LTYPE
  2
SHORT_DASH
  3
_ 
 70
64
 72
65
 73
2
 40
3.0
 49
1.5
 49
-1.5
  0
LTYPE
  2
LONG_DASH
  3
_ 
 70
64
 72
65
 73
2
 40
9.0
 49
4.5
 49
-4.5
  0
LTYPE
  2
DASHED
  3
_ 
 70
64
 72
65
 73
2
 40
1.375
 49
1.125
 49
-2.5E-001
  0
ENDTAB
  0
TABLE
  2
LAYER
 70
258
  0
LAYER
  2
V1L0
 70
0
 62
7
  6
HIDDENNEW00
  0
LAYER
  2
Drafting_Hidden_Entities
 70
1
 62
7
  6
CONTINUOUS
  0
ENDTAB
  0
TABLE
  2
STYLE
 70
1
  0
STYLE
  2
STANDARD
 70
64
 40
0.0
 41
1.0
 50
0.0
 71
0
 42
1.0
  3
monotxt.shx
  4

  0
ENDTAB
  0
TABLE
  2
VIEW
 70
0
  0
ENDTAB
  0
TABLE
  2
DIMSTYLE
 70
0
  0
ENDTAB
  0
ENDSEC
  0
SECTION
  2
BLOCKS
  0
ENDSEC
  0
SECTION
  2
ENTITIES
  0
CIRCLE
  8
V1L0
  6
CONTINUOUS
 62
40
 10
1.396E+002
 20
3.894E+001
 40
3.5
  0
LINE
  8
V1L0
  6
CONTINUOUS
 62
40
 10
1.3679E+002
 20
3.685E+001
 11
1.4169E+002
 21
4.175E+001
  0
LINE
  8
V1L0
  6
CONTINUOUS
 62
40
 10
1.375E+002
 20
3.614E+001
 11
1.424E+002
 21
4.104E+001
  0
TEXT
  8
V1L0
  6
CONTINUOUS
 62
40
 10
2.6023E+002
 20
5.81
 40
4.0
  1
OESA-ZX 73
  0
LINE
  8
V1L0
  6
CONTINUOUS
 62
40
 10
1.031E+002
 20
2.694E+001
 11
1.031E+002
 21
8.594E+001
  0
LINE
  8
V1L0
  6
CONTINUOUS
 62
40
 10
1.011E+002
 20
5.94
 11
1.011E+002
 21
6.244E+001
  0
LINE
  8
V1L0
  6
CONTINUOUS
 62
40
 10
9.61E+001
 20
4.244E+001
 11
9.81E+001
 21
4.244E+001
  0
LINE
  8
V1L0
  6
CONTINUOUS
 62
40
 10
9.61E+001
 20
3.544E+001
 11
9.81E+001
 21
3.544E+001
  0
LINE
  8
V1L0
  6
CONTINUOUS
 62
40
 10
9.56E+001
 20
3.594E+001
 11
9.56E+001
 21
4.194E+001
  0
LINE
  8
V1L0
  6
CONTINUOUS
 62
40
 10
1.031E+002
 20
3.694E+001
 11
1.046E+002
 21
3.694E+001
  0
LINE
  8
V1L0
  6
CONTINUOUS
 62
40
 10
1.031E+002
 20
4.094E+001
 11
1.046E+002
 21
4.094E+001
  0
ARC
  8
V1L0
  6
CONTINUOUS
 62
40
 10
9.61E+001
 20
4.194E+001
 40
5.0E-001
 50
9.0E+001
 51
1.8E+002
  0
ARC
  8
V1L0
  6
CONTINUOUS
 62
40
 10
9.61E+001
 20
3.594E+001
 40
5.0E-001
 50
1.8E+002
 51
2.7E+002
  0
LINE
  8
V1L0
  6
CONTINUOUS
 62
40
 10
1.376E+002
 20
1.1094E+002
 11
1.376E+002
 21
1.1244E+002
  0
LINE
  8
V1L0
  6
CONTINUOUS
 62
40
 10
1.416E+002
 20
1.1094E+002
 11
1.416E+002
 21
1.1244E+002
  0
LINE
  8
V1L0
  6
CONTINUOUS
 62
40
 10
1.361E+002
 20
1.1744E+002
 11
1.361E+002
 21
1.1944E+002
  0
ARC
  8
V1L0
  6
CONTINUOUS
 62
40
 10
1.366E+002
 20
1.1944E+002
 40
5.0E-001
 50
9.0E+001
 51
1.8E+002
  0
LINE
  8
V1L0
  6
CONTINUOUS
 62
40
 10
1.366E+002
 20
1.1994E+002
 11
1.426E+002
 21
1.1994E+002
  0
ARC
  8
V1L0
  6
CONTINUOUS
 62
40
 10
1.426E+002
 20
1.1944E+002
 40
5.0E-001
 50
0.0
 51
9.0E+001
  0
LINE
  8
V1L0
  6
CONTINUOUS
 62
40
 10
1.431E+002
 20
1.1744E+002
 11
1.431E+002
 21
1.1944E+002
  0
LINE
  8
V1L0
  6
CONTINUOUS
 62
40
 10
1.011E+002
 20
2.694E+001
 11
1.031E+002
 21
2.694E+001
  0
LINE
  8
V1L0
  6
CONTINUOUS
 62
40
 10
1.231E+002
 20
8.594E+001
 11
1.471E+002
 21
8.594E+001
  0
LINE
  8
V1L0
  6
LONG_DASH
 62
40
 10
1.471E+002
 20
2.694E+001
 11
1.471E+002
 21
7.744E+001
  0
LINE
  8
V1L0
  6
CONTINUOUS
 62
40
 10
1.231E+002
 20
2.694E+001
 11
1.231E+002
 21
8.594E+001
  0
CIRCLE
  8
V1L0
  6
CONTINUOUS
 62
40
 10
1.331E+002
 20
7.694E+001
 40
3.5
  0
LINE
  8
V1L0
  6
CONTINUOUS
 62
40
 10
1.336E+002
 20
5.94
 11
1.336E+002
 21
6.344E+001
  0
LINE
  8
V1L0
  6
CONTINUOUS
 62
40
 10
1.336E+002
 20
5.94
 11
1.521E+002
 21
5.94
  0
LINE
  8
V1L0
  6
CONTINUOUS
 62
40
 10
1.461E+002
 20
7.744E+001
 11
1.491E+002
 21
7.744E+001
  0
LINE
  8
V1L0
  6
CONTINUOUS
 62
40
 10
5.1
 20
1.44
 11
2.61E+001
 21
1.44
  0
LINE
  8
V1L0
  6
CONTINUOUS
 62
40
 10
1.461E+002
 20
5.94
 11
1.461E+002
 21
7.744E+001
  0
LINE
  8
V1L0
  6
CONTINUOUS
 62
40
 10
1.521E+002
 20
1.44
 11
1.521E+002
 21
5.94
  0
LINE
  8
V1L0
  6
CONTINUOUS
 62
40
 10
8.61E+001
 20
6.244E+001
 11
1.011E+002
 21
6.244E+001
  0
LINE
  8
V1L0
  6
CONTINUOUS
 62
40
 10
1.471E+002
 20
7.744E+001
 11
1.471E+002
 21
8.594E+001
  0
LINE
  8
V1L0
  6
LONG_DASH
 62
40
 10
1.336E+002
 20
2.694E+001
 11
1.471E+002
 21
2.694E+001
  0
LINE
  8
V1L0
  6
CONTINUOUS
 62
40
 10
4.111E+002
 20
8.594E+001
 11
4.351E+002
 21
8.594E+001
  0
LINE
  8
V1L0
  6
CONTINUOUS
 62
40
 10
4.111E+002
 20
7.744E+001
 11
4.111E+002
 21
8.594E+001
  0
LINE
  8
V1L0
  6
CONTINUOUS
 62
40
 10
4.351E+002
 20
2.694E+001
 11
4.351E+002
 21
8.594E+001
  0
CIRCLE
  8
V1L0
  6
CONTINUOUS
 62
40
 10
4.251E+002
 20
7.694E+001
 40
3.5
  0
LINE
  8
V1L0
  6
CONTINUOUS
 62
40
 10
4.246E+002
 20
2.694E+001
 11
4.351E+002
 21
2.694E+001
  0
LINE
  8
V1L0
  6
LONG_DASH
 62
40
 10
4.111E+002
 20
2.694E+001
 11
4.246E+002
 21
2.694E+001
  0
LINE
  8
V1L0
  6
LONG_DASH
 62
40
 10
4.111E+002
 20
2.694E+001
 11
4.111E+002
 21
7.744E+001
  0
LINE
  8
V1L0
  6
CONTINUOUS
 62
40
 10
4.246E+002
 20
5.94
 11
4.246E+002
 21
6.344E+001
  0
LINE
  8
V1L0
  6
CONTINUOUS
 62
40
 10
4.121E+002
 20
5.94
 11
4.121E+002
 21
7.744E+001
  0
LINE
  8
V1L0
  6
CONTINUOUS
 62
40
 10
4.061E+002
 20
5.94
 11
4.246E+002
 21
5.94
  0
LINE
  8
V1L0
  6
CONTINUOUS
 62
40
 10
4.061E+002
 20
1.44
 11
4.061E+002
 21
5.94
  0
LINE
  8
V1L0
  6
CONTINUOUS
 62
40
 10
4.121E+002
 20
6.344E+001
 11
4.246E+002
 21
6.344E+001
  0
CIRCLE
  8
V1L0
  6
CONTINUOUS
 62
40
 10
4.186E+002
 20
3.894E+001
 40
3.5
  0
LINE
  8
V1L0
  6
CONTINUOUS
 62
40
 10
4.1579E+002
 20
4.104E+001
 11
4.2069E+002
 21
3.614E+001
  0
LINE
  8
V1L0
  6
CONTINUOUS
 62
40
 10
4.165E+002
 20
4.175E+001
 11
4.214E+002
 21
3.685E+001
  0
LINE
  8
V1L0
  6
CONTINUOUS
 62
40
 10
9.81E+001
 20
5.94
 11
9.81E+001
 21
6.244E+001
  0
LINE
  8
V1L0
  6
CONTINUOUS
 62
40
 10
1.011E+002
 20
8.594E+001
 11
1.031E+002
 21
8.594E+001
  0
LINE
  8
V1L0
  6
CONTINUOUS
 62
40
 10
9.81E+001
 20
5.94
 11
1.011E+002
 21
5.94
  0
LINE
  8
V1L0
  6
CONTINUOUS
 62
40
 10
1.336E+002
 20
6.344E+001
 11
1.461E+002
 21
6.344E+001
  0
LINE
  8
V1L0
  6
CONTINUOUS
 62
40
 10
1.231E+002
 20
2.694E+001
 11
1.336E+002
 21
2.694E+001
  0
LINE
  8
V1L0
  6
CONTINUOUS
 62
40
 10
1.046E+002
 20
3.694E+001
 11
1.046E+002
 21
4.094E+001
  0
LINE
  8
V1L0
  6
LONG_DASH
 62
40
 10
1.011E+002
 20
7.344E+001
 11
1.031E+002
 21
7.344E+001
  0
LINE
  8
V1L0
  6
LONG_DASH
 62
40
 10
1.011E+002
 20
8.044E+001
 11
1.031E+002
 21
8.044E+001
  0
LINE
  8
V1L0
  6
CONTINUOUS
 62
40
 10
1.1
 20
7.744E+001
 11
8.61E+001
 21
7.744E+001
  0
LINE
  8
V1L0
  6
CONTINUOUS
 62
40
 10
8.61E+001
 20
6.244E+001
 11
8.61E+001
 21
7.744E+001
  0
LINE
  8
V1L0
  6
CONTINUOUS
 62
40
 10
1.1
 20
5.94
 11
9.81E+001
 21
5.94
  0
LINE
  8
V1L0
  6
CONTINUOUS
 62
40
 10
1.1
 20
5.44
 11
1.1
 21
7.744E+001
  0
LINE
  8
V1L0
  6
CONTINUOUS
 62
40
 10
1.521E+002
 20
1.44
 11
4.061E+002
 21
1.44
  0
LINE
  8
V1L0
  6
CONTINUOUS
 62
40
 10
6.1
 20
4.31
 11
2.61E+001
 21
4.31
  0
LINE
  8
V1L0
  6
CONTINUOUS
 62
40
 10
2.61E+001
 20
1.44
 11
2.61E+001
 21
4.31
  0
ARC
  8
V1L0
  6
CONTINUOUS
 62
40
 10
5.1
 20
5.44
 40
4.0
 50
1.8E+002
 51
2.7E+002
  0
ARC
  8
V1L0
  6
CONTINUOUS
 62
40
 10
6.1
 20
6.31
 40
2.0
 50
1.9059E+002
 51
2.7E+002
  0
LINE
  8
V1L0
  6
CONTINUOUS
 62
40
 10
1.336E+002
 20
1.1744E+002
 11
1.441E+002
 21
1.1744E+002
  0
LINE
  8
V1L0
  6
CONTINUOUS
 62
40
 10
1.231E+002
 20
1.1444E+002
 11
1.336E+002
 21
1.1444E+002
  0
LINE
  8
V1L0
  6
CONTINUOUS
 62
40
 10
1.231E+002
 20
1.1244E+002
 11
1.471E+002
 21
1.1244E+002
  0
LINE
  8
V1L0
  6
LONG_DASH
 62
40
 10
1.366E+002
 20
1.1244E+002
 11
1.366E+002
 21
1.1444E+002
  0
LINE
  8
V1L0
  6
LONG_DASH
 62
40
 10
1.296E+002
 20
1.1244E+002
 11
1.296E+002
 21
1.1444E+002
  0
LINE
  8
V1L0
  6
CONTINUOUS
 62
40
 10
1.376E+002
 20
1.1094E+002
 11
1.416E+002
 21
1.1094E+002
  0
LINE
  8
V1L0
  6
CONTINUOUS
 62
40
 10
1.231E+002
 20
1.1244E+002
 11
1.231E+002
 21
1.1444E+002
  0
LINE
  8
V1L0
  6
CONTINUOUS
 62
40
 10
1.471E+002
 20
1.1244E+002
 11
1.471E+002
 21
1.1444E+002
  0
LINE
  8
V1L0
  6
CONTINUOUS
 62
40
 10
1.336E+002
 20
1.1444E+002
 11
1.336E+002
 21
1.1744E+002
  0
LINE
  8
V1L0
  6
CONTINUOUS
 62
40
 10
1.491E+002
 20
1.1844E+002
 11
1.491E+002
 21
2.0944E+002
  0
LINE
  8
V1L0
  6
CONTINUOUS
 62
40
 10
1.461E+002
 20
1.1944E+002
 11
1.461E+002
 21
2.1044E+002
  0
LINE
  8
V1L0
  6
CONTINUOUS
 62
40
 10
1.521E+002
 20
1.8944E+002
 11
1.521E+002
 21
2.1444E+002
  0
LINE
  8
V1L0
  6
CONTINUOUS
 62
40
 10
1.501E+002
 20
2.1444E+002
 11
4.081E+002
 21
2.1444E+002
  0
LINE
  8
V1L0
  6
CONTINUOUS
 62
40
 10
1.521E+002
 20
1.8944E+002
 11
4.061E+002
 21
1.8944E+002
  0
LINE
  8
V1L0
  6
CONTINUOUS
 62
40
 10
1.511E+002
 20
2.1144E+002
 11
1.521E+002
 21
2.1144E+002
  0
ARC
  8
V1L0
  6
CONTINUOUS
 62
40
 10
1.511E+002
 20
2.0944E+002
 40
2.0
 50
9.0E+001
 51
1.8E+002
  0
ARC
  8
V1L0
  6
CONTINUOUS
 62
40
 10
1.501E+002
 20
2.1044E+002
 40
4.0
 50
9.0E+001
 51
1.8E+002
  0
ARC
  8
V1L0
  6
CONTINUOUS
 62
40
 10
1.451E+002
 20
1.1844E+002
 40
4.0
 50
2.7E+002
 51
3.6E+002
  0
ARC
  8
V1L0
  6
CONTINUOUS
 62
40
 10
1.441E+002
 20
1.1944E+002
 40
2.0
 50
2.7E+002
 51
3.6E+002
  0
LINE
  8
V1L0
  6
CONTINUOUS
 62
40
 10
4.206E+002
 20
1.1094E+002
 11
4.206E+002
 21
1.1244E+002
  0
LINE
  8
V1L0
  6
CONTINUOUS
 62
40
 10
4.166E+002
 20
1.1094E+002
 11
4.166E+002
 21
1.1244E+002
  0
LINE
  8
V1L0
  6
CONTINUOUS
 62
40
 10
4.221E+002
 20
1.1744E+002
 11
4.221E+002
 21
1.1944E+002
  0
ARC
  8
V1L0
  6
CONTINUOUS
 62
40
 10
4.216E+002
 20
1.1944E+002
 40
5.0E-001
 50
0.0
 51
9.0E+001
  0
LINE
  8
V1L0
  6
CONTINUOUS
 62
40
 10
4.156E+002
 20
1.1994E+002
 11
4.216E+002
 21
1.1994E+002
  0
ARC
  8
V1L0
  6
CONTINUOUS
 62
40
 10
4.156E+002
 20
1.1944E+002
 40
5.0E-001
 50
9.0E+001
 51
1.8E+002
  0
LINE
  8
V1L0
  6
CONTINUOUS
 62
40
 10
4.151E+002
 20
1.1744E+002
 11
4.151E+002
 21
1.1944E+002
  0
LINE
  8
V1L0
  6
CONTINUOUS
 62
40
 10
4.141E+002
 20
1.1744E+002
 11
4.246E+002
 21
1.1744E+002
  0
LINE
  8
V1L0
  6
CONTINUOUS
 62
40
 10
4.111E+002
 20
1.1444E+002
 11
4.131E+002
 21
1.1444E+002
  0
LINE
  8
V1L0
  6
CONTINUOUS
 62
40
 10
4.111E+002
 20
1.1244E+002
 11
4.351E+002
 21
1.1244E+002
  0
LINE
  8
V1L0
  6
LONG_DASH
 62
40
 10
4.216E+002
 20
1.1244E+002
 11
4.216E+002
 21
1.1444E+002
  0
LINE
  8
V1L0
  6
LONG_DASH
 62
40
 10
4.286E+002
 20
1.1244E+002
 11
4.286E+002
 21
1.1444E+002
  0
LINE
  8
V1L0
  6
CONTINUOUS
 62
40
 10
4.166E+002
 20
1.1094E+002
 11
4.206E+002
 21
1.1094E+002
  0
LINE
  8
V1L0
  6
CONTINUOUS
 62
40
 10
4.351E+002
 20
1.1244E+002
 11
4.351E+002
 21
1.1444E+002
  0
LINE
  8
V1L0
  6
CONTINUOUS
 62
40
 10
4.111E+002
 20
1.1244E+002
 11
4.111E+002
 21
1.1444E+002
  0
LINE
  8
V1L0
  6
CONTINUOUS
 62
40
 10
4.246E+002
 20
1.1444E+002
 11
4.246E+002
 21
1.1744E+002
  0
LINE
  8
V1L0
  6
CONTINUOUS
 62
40
 10
4.091E+002
 20
1.1844E+002
 11
4.091E+002
 21
2.0944E+002
  0
LINE
  8
V1L0
  6
CONTINUOUS
 62
40
 10
4.121E+002
 20
1.1944E+002
 11
4.121E+002
 21
2.1044E+002
  0
LINE
  8
V1L0
  6
CONTINUOUS
 62
40
 10
4.061E+002
 20
1.8944E+002
 11
4.061E+002
 21
2.1444E+002
  0
LINE
  8
V1L0
  6
CONTINUOUS
 62
40
 10
4.061E+002
 20
2.1144E+002
 11
4.071E+002
 21
2.1144E+002
  0
ARC
  8
V1L0
  6
CONTINUOUS
 62
40
 10
4.071E+002
 20
2.0944E+002
 40
2.0
 50
0.0
 51
9.0E+001
  0
ARC
  8
V1L0
  6
CONTINUOUS
 62
40
 10
4.081E+002
 20
2.1044E+002
 40
4.0
 50
0.0
 51
9.0E+001
  0
ARC
  8
V1L0
  6
CONTINUOUS
 62
40
 10
4.131E+002
 20
1.1844E+002
 40
4.0
 50
1.8E+002
 51
2.7E+002
  0
ARC
  8
V1L0
  6
CONTINUOUS
 62
40
 10
4.141E+002
 20
1.1944E+002
 40
2.0
 50
1.8E+002
 51
2.7E+002
  0
LINE
  8
V1L0
  6
CONTINUOUS
 62
40
 10
1.011E+002
 20
6.244E+001
 11
1.011E+002
 21
8.594E+001
  0
LINE
  8
V1L0
  6
CONTINUOUS
 62
40
 10
1.451E+002
 20
1.1444E+002
 11
1.471E+002
 21
1.1444E+002
  0
LINE
  8
V1L0
  6
CONTINUOUS
 62
40
 10
1.336E+002
 20
1.1444E+002
 11
1.451E+002
 21
1.1444E+002
  0
LINE
  8
V1L0
  6
CONTINUOUS
 62
40
 10
4.131E+002
 20
1.1444E+002
 11
4.246E+002
 21
1.1444E+002
  0
LINE
  8
V1L0
  6
CONTINUOUS
 62
40
 10
4.246E+002
 20
1.1444E+002
 11
4.351E+002
 21
1.1444E+002
  0
LINE
  8
V1L0
  6
CONTINUOUS
 62
40
 10
2.876E+002
 20
6.494E+001
 11
2.876E+002
 21
7.744E+001
  0
LINE
  8
V1L0
  6
CONTINUOUS
 62
40
 10
2.946E+002
 20
6.494E+001
 11
2.946E+002
 21
7.744E+001
  0
ARC
  8
V1L0
  6
CONTINUOUS
 62
40
 10
2.911E+002
 20
6.494E+001
 40
3.5
 50
1.8E+002
 51
3.6E+002
  0
LINE
  8
V1L0
  6
CONTINUOUS
 62
40
 10
2.706E+002
 20
6.494E+001
 11
2.706E+002
 21
7.744E+001
  0
LINE
  8
V1L0
  6
CONTINUOUS
 62
40
 10
2.636E+002
 20
6.494E+001
 11
2.636E+002
 21
7.744E+001
  0
ARC
  8
V1L0
  6
CONTINUOUS
 62
40
 10
2.671E+002
 20
6.494E+001
 40
3.5
 50
1.8E+002
 51
3.6E+002
  0
LINE
  8
V1L0
  6
CONTINUOUS
 62
40
 10
3.402E+002
 20
6.494E+001
 11
3.402E+002
 21
7.744E+001
  0
ARC
  8
V1L0
  6
CONTINUOUS
 62
40
 10
3.367E+002
 20
6.494E+001
 40
3.5
 50
1.8E+002
 51
3.6E+002
  0
LINE
  8
V1L0
  6
CONTINUOUS
 62
40
 10
4.029E+002
 20
6.494E+001
 11
4.029E+002
 21
7.744E+001
  0
LINE
  8
V1L0
  6
CONTINUOUS
 62
40
 10
3.643E+002
 20
6.494E+001
 11
3.643E+002
 21
7.744E+001
  0
ARC
  8
V1L0
  6
CONTINUOUS
 62
40
 10
3.608E+002
 20
6.494E+001
 40
3.5
 50
1.8E+002
 51
3.6E+002
  0
LINE
  8
V1L0
  6
CONTINUOUS
 62
40
 10
3.573E+002
 20
6.494E+001
 11
3.573E+002
 21
7.744E+001
  0
ARC
  8
V1L0
  6
CONTINUOUS
 62
40
 10
4.064E+002
 20
6.494E+001
 40
3.5
 50
1.8E+002
 51
3.2048E+002
  0
LINE
  8
V1L0
  6
CONTINUOUS
 62
40
 10
3.332E+002
 20
6.494E+001
 11
3.332E+002
 21
7.744E+001
  0
LINE
  8
V1L0
  6
CONTINUOUS
 62
40
 10
4.091E+002
 20
6.272E+001
 11
4.091E+002
 21
7.744E+001
  0
LINE
  8
V1L0
  6
CONTINUOUS
 62
40
 10
1.553E+002
 20
6.494E+001
 11
1.553E+002
 21
7.744E+001
  0
ARC
  8
V1L0
  6
CONTINUOUS
 62
40
 10
1.518E+002
 20
6.494E+001
 40
3.5
 50
2.1952E+002
 51
3.6E+002
  0
LINE
  8
V1L0
  6
CONTINUOUS
 62
40
 10
1.491E+002
 20
6.272E+001
 11
1.491E+002
 21
7.744E+001
  0
LINE
  8
V1L0
  6
CONTINUOUS
 62
40
 10
2.009E+002
 20
6.494E+001
 11
2.009E+002
 21
7.744E+001
  0
ARC
  8
V1L0
  6
CONTINUOUS
 62
40
 10
1.974E+002
 20
6.494E+001
 40
3.5
 50
1.8E+002
 51
3.6E+002
  0
LINE
  8
V1L0
  6
CONTINUOUS
 62
40
 10
1.939E+002
 20
6.494E+001
 11
1.939E+002
 21
7.744E+001
  0
LINE
  8
V1L0
  6
CONTINUOUS
 62
40
 10
2.18E+002
 20
6.494E+001
 11
2.18E+002
 21
7.744E+001
  0
ARC
  8
V1L0
  6
CONTINUOUS
 62
40
 10
2.215E+002
 20
6.494E+001
 40
3.5
 50
1.8E+002
 51
3.6E+002
  0
LINE
  8
V1L0
  6
CONTINUOUS
 62
40
 10
2.25E+002
 20
6.494E+001
 11
2.25E+002
 21
7.744E+001
  0
LINE
  8
V1L0
  6
CONTINUOUS
 62
40
 10
1.553E+002
 20
7.744E+001
 11
1.939E+002
 21
7.744E+001
  0
LINE
  8
V1L0
  6
CONTINUOUS
 62
40
 10
2.009E+002
 20
7.744E+001
 11
2.18E+002
 21
7.744E+001
  0
LINE
  8
V1L0
  6
CONTINUOUS
 62
40
 10
2.25E+002
 20
7.744E+001
 11
2.636E+002
 21
7.744E+001
  0
LINE
  8
V1L0
  6
CONTINUOUS
 62
40
 10
2.706E+002
 20
7.744E+001
 11
2.876E+002
 21
7.744E+001
  0
LINE
  8
V1L0
  6
CONTINUOUS
 62
40
 10
2.946E+002
 20
7.744E+001
 11
3.332E+002
 21
7.744E+001
  0
LINE
  8
V1L0
  6
CONTINUOUS
 62
40
 10
3.402E+002
 20
7.744E+001
 11
3.573E+002
 21
7.744E+001
  0
LINE
  8
V1L0
  6
CONTINUOUS
 62
40
 10
3.643E+002
 20
7.744E+001
 11
4.029E+002
 21
7.744E+001
  0
LINE
  8
V1L0
  6
CONTINUOUS
 62
40
 10
4.091E+002
 20
7.744E+001
 11
4.121E+002
 21
7.744E+001
  0
LINE
  8
V1L0
  6
CONTINUOUS
 62
40
 10
2.591E+002
 20
1.244E+001
 11
2.991E+002
 21
1.244E+001
  0
LINE
  8
V1L0
  6
CONTINUOUS
 62
40
 10
2.591E+002
 20
4.444E+001
 11
2.991E+002
 21
4.444E+001
  0
LINE
  8
V1L0
  6
CONTINUOUS
 62
40
 10
2.991E+002
 20
1.244E+001
 11
2.991E+002
 21
4.444E+001
  0
LINE
  8
V1L0
  6
CONTINUOUS
 62
40
 10
2.591E+002
 20
1.244E+001
 11
2.591E+002
 21
4.444E+001
  0
LINE
  8
V1L0
  6
CONTINUOUS
 62
40
 10
2.6771E+002
 20
1.644E+001
 11
2.9049E+002
 21
1.644E+001
  0
LINE
  8
V1L0
  6
CONTINUOUS
 62
40
 10
2.6641E+002
 20
1.87E+001
 11
2.778E+002
 21
3.822E+001
  0
LINE
  8
V1L0
  6
CONTINUOUS
 62
40
 10
2.8039E+002
 20
3.822E+001
 11
2.9178E+002
 21
1.87E+001
  0
ARC
  8
V1L0
  6
CONTINUOUS
 62
40
 10
2.791E+002
 20
3.747E+001
 40
1.5
 50
3.026E+001
 51
1.4974E+002
  0
ARC
  8
V1L0
  6
CONTINUOUS
 62
40
 10
2.9049E+002
 20
1.794E+001
 40
1.5
 50
2.7E+002
 51
3.9026E+002
  0
ARC
  8
V1L0
  6
CONTINUOUS
 62
40
 10
2.6771E+002
 20
1.794E+001
 40
1.5
 50
1.4974E+002
 51
2.7E+002
  0
LINE
  8
V1L0
  6
CONTINUOUS
 62
40
 10
2.7849E+002
 20
3.484E+001
 11
2.7948E+002
 21
3.466E+001
  0
LINE
  8
V1L0
  6
CONTINUOUS
 62
40
 10
2.7719E+002
 20
2.595E+001
 11
2.7849E+002
 21
3.484E+001
  0
LINE
  8
V1L0
  6
CONTINUOUS
 62
40
 10
2.7778E+002
 20
2.644E+001
 11
2.7948E+002
 21
3.466E+001
  0
LINE
  8
V1L0
  6
CONTINUOUS
 62
40
 10
2.792E+002
 20
2.047E+001
 11
2.8016E+002
 21
2.692E+001
  0
LINE
  8
V1L0
  6
CONTINUOUS
 62
40
 10
2.798E+002
 20
2.036E+001
 11
2.8135E+002
 21
2.789E+001
  0
LINE
  8
V1L0
  6
CONTINUOUS
 62
40
 10
2.7778E+002
 20
2.644E+001
 11
2.8135E+002
 21
2.789E+001
  0
LINE
  8
V1L0
  6
CONTINUOUS
 62
40
 10
2.7719E+002
 20
2.595E+001
 11
2.8016E+002
 21
2.692E+001
  0
LINE
  8
V1L0
  6
CONTINUOUS
 62
40
 10
2.7852E+002
 20
2.058E+001
 11
2.7903E+002
 21
1.772E+001
  0
LINE
  8
V1L0
  6
CONTINUOUS
 62
40
 10
2.7903E+002
 20
1.772E+001
 11
2.8048E+002
 21
2.024E+001
  0
LINE
  8
V1L0
  6
CONTINUOUS
 62
40
 10
2.7852E+002
 20
2.058E+001
 11
2.792E+002
 21
2.047E+001
  0
LINE
  8
V1L0
  6
CONTINUOUS
 62
40
 10
2.798E+002
 20
2.036E+001
 11
2.8048E+002
 21
2.024E+001
  0
ENDSEC
  0
EOF
