  0
SECTION
  2
HEADER
  9
$ACADVER
  1
AC1024
  9
$ACADMAINTVER
 70
    63
  9
$DWGCODEPAGE
  3
ANSI_1252
  9
$LASTSAVEDBY
  1
SEVIAND4
  9
$INSBASE
 10
0.0
 20
0.0
 30
0.0
  9
$EXTMIN
 10
119.835022
 20
7.856749091749968
 30
-0.0000000000000026
  9
$EXTMAX
 10
1065.846117389943
 20
510.7993389999999
 30
0.0000000000000026
  9
$LIMMIN
 10
-0.5
 20
-0.5
  9
$LIMMAX
 10
5.0
 20
5.0
  9
$ORTHOMODE
 70
     0
  9
$REGENMODE
 70
     1
  9
$FILLMODE
 70
     1
  9
$QTEXTMODE
 70
     0
  9
$MIRRTEXT
 70
     1
  9
$LTSCALE
 40
1.0
  9
$ATTMODE
 70
     1
  9
$TEXTSIZE
 40
0.2
  9
$TRACEWID
 40
0.05
  9
$TEXTSTYLE
  7
Standard
  9
$CLAYER
  8
0
  9
$CELTYPE
  6
BYLAYER
  9
$CECOLOR
 62
   256
  9
$CELTSCALE
 40
1.0
  9
$DISPSILH
 70
     0
  9
$DIMSCALE
 40
1.0
  9
$DIMASZ
 40
0.18
  9
$DIMEXO
 40
0.0625
  9
$DIMDLI
 40
0.38
  9
$DIMRND
 40
0.0
  9
$DIMDLE
 40
0.0
  9
$DIMEXE
 40
0.18
  9
$DIMTP
 40
0.0
  9
$DIMTM
 40
0.0
  9
$DIMTXT
 40
0.18
  9
$DIMCEN
 40
0.09
  9
$DIMTSZ
 40
0.0
  9
$DIMTOL
 70
     0
  9
$DIMLIM
 70
     0
  9
$DIMTIH
 70
     1
  9
$DIMTOH
 70
     1
  9
$DIMSE1
 70
     0
  9
$DIMSE2
 70
     0
  9
$DIMTAD
 70
     0
  9
$DIMZIN
 70
     0
  9
$DIMBLK
  1

  9
$DIMASO
 70
     1
  9
$DIMSHO
 70
     1
  9
$DIMPOST
  1

  9
$DIMAPOST
  1

  9
$DIMALT
 70
     0
  9
$DIMALTD
 70
     2
  9
$DIMALTF
 40
25.4
  9
$DIMLFAC
 40
1.0
  9
$DIMTOFL
 70
     0
  9
$DIMTVP
 40
0.0
  9
$DIMTIX
 70
     0
  9
$DIMSOXD
 70
     0
  9
$DIMSAH
 70
     0
  9
$DIMBLK1
  1

  9
$DIMBLK2
  1

  9
$DIMSTYLE
  2
Standard
  9
$DIMCLRD
 70
     0
  9
$DIMCLRE
 70
     0
  9
$DIMCLRT
 70
     0
  9
$DIMTFAC
 40
1.0
  9
$DIMGAP
 40
0.09
  9
$DIMJUST
 70
     0
  9
$DIMSD1
 70
     0
  9
$DIMSD2
 70
     0
  9
$DIMTOLJ
 70
     1
  9
$DIMTZIN
 70
     0
  9
$DIMALTZ
 70
     0
  9
$DIMALTTZ
 70
     0
  9
$DIMUPT
 70
     0
  9
$DIMDEC
 70
     4
  9
$DIMTDEC
 70
     4
  9
$DIMALTU
 70
     2
  9
$DIMALTTD
 70
     2
  9
$DIMTXSTY
  7
Standard
  9
$DIMAUNIT
 70
     0
  9
$DIMADEC
 70
     0
  9
$DIMALTRND
 40
0.0
  9
$DIMAZIN
 70
     0
  9
$DIMDSEP
 70
    46
  9
$DIMATFIT
 70
     3
  9
$DIMFRAC
 70
     0
  9
$DIMLDRBLK
  1

  9
$DIMLUNIT
 70
     2
  9
$DIMLWD
 70
    -2
  9
$DIMLWE
 70
    -2
  9
$DIMTMOVE
 70
     0
  9
$DIMFXL
 40
1.0
  9
$DIMFXLON
 70
     0
  9
$DIMJOGANG
 40
0.7853981633974483
  9
$DIMTFILL
 70
     0
  9
$DIMTFILLCLR
 70
     0
  9
$DIMARCSYM
 70
     0
  9
$DIMLTYPE
  6

  9
$DIMLTEX1
  6

  9
$DIMLTEX2
  6

  9
$DIMTXTDIRECTION
 70
     0
  9
$LUNITS
 70
     2
  9
$LUPREC
 70
     2
  9
$SKETCHINC
 40
0.1
  9
$FILLETRAD
 40
0.5
  9
$AUNITS
 70
     0
  9
$AUPREC
 70
     0
  9
$MENU
  1
.
  9
$ELEVATION
 40
0.0
  9
$PELEVATION
 40
0.0
  9
$THICKNESS
 40
0.0
  9
$LIMCHECK
 70
     0
  9
$CHAMFERA
 40
0.5
  9
$CHAMFERB
 40
0.5
  9
$CHAMFERC
 40
1.0
  9
$CHAMFERD
 40
0.0
  9
$SKPOLY
 70
     0
  9
$TDCREATE
 40
2456836.433612303
  9
$TDUCREATE
 40
2456836.350278970
  9
$TDUPDATE
 40
2456836.435949480
  9
$TDUUPDATE
 40
2456836.352616146
  9
$TDINDWG
 40
0.0020529051
  9
$TDUSRTIMER
 40
0.0020529051
  9
$USRTIMER
 70
     1
  9
$ANGBASE
 50
0.0
  9
$ANGDIR
 70
     0
  9
$PDMODE
 70
     0
  9
$PDSIZE
 40
0.0
  9
$PLINEWID
 40
0.0
  9
$SPLFRAME
 70
     0
  9
$SPLINETYPE
 70
     6
  9
$SPLINESEGS
 70
     8
  9
$HANDSEED
  5
424
  9
$SURFTAB1
 70
     6
  9
$SURFTAB2
 70
     6
  9
$SURFTYPE
 70
     6
  9
$SURFU
 70
     6
  9
$SURFV
 70
     6
  9
$UCSBASE
  2

  9
$UCSNAME
  2

  9
$UCSORG
 10
0.0
 20
0.0
 30
0.0
  9
$UCSXDIR
 10
1.0
 20
0.0
 30
0.0
  9
$UCSYDIR
 10
0.0
 20
1.0
 30
0.0
  9
$UCSORTHOREF
  2

  9
$UCSORTHOVIEW
 70
     0
  9
$UCSORGTOP
 10
0.0
 20
0.0
 30
0.0
  9
$UCSORGBOTTOM
 10
0.0
 20
0.0
 30
0.0
  9
$UCSORGLEFT
 10
0.0
 20
0.0
 30
0.0
  9
$UCSORGRIGHT
 10
0.0
 20
0.0
 30
0.0
  9
$UCSORGFRONT
 10
0.0
 20
0.0
 30
0.0
  9
$UCSORGBACK
 10
0.0
 20
0.0
 30
0.0
  9
$PUCSBASE
  2

  9
$PUCSNAME
  2

  9
$PUCSORG
 10
0.0
 20
0.0
 30
0.0
  9
$PUCSXDIR
 10
1.0
 20
0.0
 30
0.0
  9
$PUCSYDIR
 10
0.0
 20
1.0
 30
0.0
  9
$PUCSORTHOREF
  2

  9
$PUCSORTHOVIEW
 70
     0
  9
$PUCSORGTOP
 10
0.0
 20
0.0
 30
0.0
  9
$PUCSORGBOTTOM
 10
0.0
 20
0.0
 30
0.0
  9
$PUCSORGLEFT
 10
0.0
 20
0.0
 30
0.0
  9
$PUCSORGRIGHT
 10
0.0
 20
0.0
 30
0.0
  9
$PUCSORGFRONT
 10
0.0
 20
0.0
 30
0.0
  9
$PUCSORGBACK
 10
0.0
 20
0.0
 30
0.0
  9
$USERI1
 70
     0
  9
$USERI2
 70
     0
  9
$USERI3
 70
     0
  9
$USERI4
 70
     0
  9
$USERI5
 70
     0
  9
$USERR1
 40
0.0
  9
$USERR2
 40
0.0
  9
$USERR3
 40
0.0
  9
$USERR4
 40
0.0
  9
$USERR5
 40
0.0
  9
$WORLDVIEW
 70
     1
  9
$SHADEDGE
 70
     3
  9
$SHADEDIF
 70
    70
  9
$TILEMODE
 70
     1
  9
$MAXACTVP
 70
    64
  9
$PINSBASE
 10
0.0
 20
0.0
 30
0.0
  9
$PLIMCHECK
 70
     0
  9
$PEXTMIN
 10
-0.5
 20
-0.5
 30
-0.5
  9
$PEXTMAX
 10
5.0
 20
5.0
 30
5.0
  9
$PLIMMIN
 10
-0.5
 20
-0.5
  9
$PLIMMAX
 10
5.0
 20
5.0
  9
$UNITMODE
 70
     0
  9
$VISRETAIN
 70
     1
  9
$PLINEGEN
 70
     0
  9
$PSLTSCALE
 70
     1
  9
$TREEDEPTH
 70
  3020
  9
$CMLSTYLE
  2
Standard
  9
$CMLJUST
 70
     0
  9
$CMLSCALE
 40
1.0
  9
$PROXYGRAPHICS
 70
     1
  9
$MEASUREMENT
 70
     1
  9
$CELWEIGHT
370
    -1
  9
$ENDCAPS
280
     0
  9
$JOINSTYLE
280
     0
  9
$LWDISPLAY
290
     1
  9
$INSUNITS
 70
     4
  9
$HYPERLINKBASE
  1

  9
$STYLESHEET
  1

  9
$XEDIT
290
     1
  9
$CEPSNTYPE
380
     0
  9
$PSTYLEMODE
290
     1
  9
$FINGERPRINTGUID
  2
{8EECAD82-9795-410F-BE3A-74B602AA181B}
  9
$VERSIONGUID
  2
{F6A2D30C-F4DE-40E6-8BF3-61A1D58BDC92}
  9
$EXTNAMES
290
     1
  9
$PSVPSCALE
 40
0.0
  9
$OLESTARTUP
290
     0
  9
$SORTENTS
280
   127
  9
$INDEXCTL
280
     0
  9
$HIDETEXT
280
     1
  9
$XCLIPFRAME
280
     0
  9
$HALOGAP
280
     0
  9
$OBSCOLOR
 70
   257
  9
$OBSLTYPE
280
     0
  9
$INTERSECTIONDISPLAY
280
     0
  9
$INTERSECTIONCOLOR
 70
   257
  9
$DIMASSOC
280
     2
  9
$PROJECTNAME
  1

  9
$CAMERADISPLAY
290
     0
  9
$LENSLENGTH
 40
50.0
  9
$CAMERAHEIGHT
 40
0.0
  9
$STEPSPERSEC
 40
2.0
  9
$STEPSIZE
 40
6.0
  9
$3DDWFPREC
 40
2.0
  9
$PSOLWIDTH
 40
0.25
  9
$PSOLHEIGHT
 40
4.0
  9
$LOFTANG1
 40
1.570796326794896
  9
$LOFTANG2
 40
1.570796326794896
  9
$LOFTMAG1
 40
0.0
  9
$LOFTMAG2
 40
0.0
  9
$LOFTPARAM
 70
     7
  9
$LOFTNORMALS
280
     1
  9
$LATITUDE
 40
37.795
  9
$LONGITUDE
 40
-122.394
  9
$NORTHDIRECTION
 40
0.0
  9
$TIMEZONE
 70
 -8000
  9
$LIGHTGLYPHDISPLAY
280
     1
  9
$TILEMODELIGHTSYNCH
280
     1
  9
$CMATERIAL
347
3C
  9
$SOLIDHIST
280
     0
  9
$SHOWHIST
280
     1
  9
$DWFFRAME
280
     2
  9
$DGNFRAME
280
     0
  9
$REALWORLDSCALE
290
     1
  9
$INTERFERECOLOR
 62
     1
  9
$INTERFEREOBJVS
345
33
  9
$INTERFEREVPVS
346
214
  9
$CSHADOW
280
     0
  9
$SHADOWPLANELOCATION
 40
0.0
  0
ENDSEC
  0
SECTION
  2
CLASSES
  0
CLASS
  1
ACDBDICTIONARYWDFLT
  2
AcDbDictionaryWithDefault
  3
ObjectDBX Classes
 90
        0
 91
        1
280
     0
281
     0
  0
CLASS
  1
VISUALSTYLE
  2
AcDbVisualStyle
  3
ObjectDBX Classes
 90
     4095
 91
       26
280
     0
281
     0
  0
CLASS
  1
MATERIAL
  2
AcDbMaterial
  3
ObjectDBX Classes
 90
     1153
 91
        3
280
     0
281
     0
  0
CLASS
  1
TABLESTYLE
  2
AcDbTableStyle
  3
ObjectDBX Classes
 90
     4095
 91
        1
280
     0
281
     0
  0
CLASS
  1
SCALE
  2
AcDbScale
  3
ObjectDBX Classes
 90
     1153
 91
       17
280
     0
281
     0
  0
CLASS
  1
MLEADERSTYLE
  2
AcDbMLeaderStyle
  3
ACDB_MLEADERSTYLE_CLASS
 90
     4095
 91
        1
280
     0
281
     0
  0
CLASS
  1
AMGSETTINGSOBJ
  2
AmgSettingsObj
  3
"AcadM|Product Description: AutoCAD Mechanical|Company: Autodesk, Inc."
 90
     1024
 91
        2
280
     0
281
     0
  0
CLASS
  1
ACME_DOCUMENT
  2
AcMeDbDoc
  3
AcMeServices
 90
     1024
 91
        1
280
     0
281
     0
  0
CLASS
  1
ACMESCOPE
  2
AcMeScope
  3
AcMeServices
 90
     1024
 91
        1
280
     0
281
     0
  0
CLASS
  1
ACMECOMMANDHISTORY
  2
AcMeCommandHistory
  3
AcMeServices
 90
     1024
 91
        1
280
     0
281
     0
  0
CLASS
  1
ACIMSYSVARMAN
  2
AcImSysVarManager
  3
AcMeServices
 90
     1024
 91
        3
280
     0
281
     0
  0
CLASS
  1
ACIMINTSYSVAR
  2
AcImIntSysVar
  3
AcMeServices
 90
     1024
 91
        2
280
     0
281
     0
  0
CLASS
  1
ACMESTATEMGR
  2
AcMeStateMgr
  3
AcMeServices
 90
     1024
 91
        1
280
     0
281
     0
  0
CLASS
  1
ACDBENTITYCACHE
  2
AcMeEntityCache
  3
AcMeServices
 90
     1024
 91
        1
280
     0
281
     0
  0
CLASS
  1
ACGREFMASTER
  2
AcGrefMaster
  3
AcAttribServices
 90
     1024
 91
        1
280
     0
281
     0
  0
CLASS
  1
ACME_DATABASE
  2
AcMeDbDatabase
  3
AcMeServices
 90
     1024
 91
        4
280
     0
281
     0
  0
CLASS
  1
ACRFINSADJUSTERMGR
  2
AcRfInsAdjusterMgr
  3
AcMeServices
 90
     1024
 91
        1
280
     0
281
     0
  0
CLASS
  1
ACGREFACADMASTER
  2
AcGrefacadMaster
  3
AcGrefServices
 90
     1024
 91
        1
280
     0
281
     0
  0
CLASS
  1
AMDTMENUSTATEMGR
  2
AmdtMenuStateMgr
  3
McadcomServices
 90
     1024
 91
        1
280
     0
281
     0
  0
CLASS
  1
AMDTMCOMMENUSTATE
  2
AmdtMcomMenuState
  3
McadcomServices
 90
     1024
 91
        1
280
     0
281
     0
  0
CLASS
  1
AMIMASTER
  2
AmiMaster
  3
AmiServices
 90
     1024
 91
        1
280
     0
281
     0
  0
CLASS
  1
MAPIAMMOUDLE
  2
MApiAmModule
  3
MApiAmServices
 90
     1024
 91
        1
280
     0
281
     0
  0
CLASS
  1
ACIMSTRSYSVAR
  2
AcImStrSysVar
  3
AcMeServices
 90
     1024
 91
        5
280
     0
281
     0
  0
CLASS
  1
AMDTAMMENUSTATE
  2
AmdtAmMenuState
  3
DesignerAssemblies
 90
     1024
 91
        1
280
     0
281
     0
  0
CLASS
  1
ACAMPROJECT
  2
AcAmProject
  3
DesignerAssemblies
 90
     1024
 91
        1
280
     0
281
     0
  0
CLASS
  1
ACAMGRCOMPDEF
  2
AcAmGrCompDef
  3
DesignerAssemblies
 90
     1024
 91
        1
280
     0
281
     0
  0
CLASS
  1
ACAMCOMPDEF
  2
AcAmCompDef
  3
DesignerAssemblies
 90
     1024
 91
        1
280
     0
281
     0
  0
CLASS
  1
ACAMCOMPDEFMGR
  2
AcAmCompDefMgr
  3
DesignerAssemblies
 90
     1024
 91
        1
280
     0
281
     0
  0
CLASS
  1
AMCONTEXTMGR
  2
AcAmContextMgr
  3
DesignerAssemblies
 90
     1024
 91
        1
280
     0
281
     0
  0
CLASS
  1
ACAMCONTEXTMODELER
  2
AcAmContextModeler
  3
DesignerAssemblies
 90
     1024
 91
        1
280
     0
281
     0
  0
CLASS
  1
ACMDATADICTIONARY
  2
AcmDataDictionary
  3
"AcmSymBB|Product Description: AutoCAD Mechanical|Company: Autodesk, Inc."
 90
     1024
 91
        1
280
     0
281
     0
  0
CLASS
  1
ACAMGRCOMPDEFSET
  2
AcAmGrCompDefSet
  3
DesignerAssemblies
 90
     1024
 91
        1
280
     0
281
     0
  0
CLASS
  1
AMDTBROWSERDBTAB
  2
AmdtBrowserDbTab
  3
McadcomServices
 90
     1024
 91
        1
280
     0
281
     0
  0
CLASS
  1
CBROWSERAPPOBJECT
  2
CBrowserAppObject
  3
McadcomServices
 90
     1024
 91
        2
280
     0
281
     0
  0
CLASS
  1
DM_PLACEHOLDER
  2
AcDmSelsetPlaceholder
  3
McadcomServices
 90
     1024
 91
        1
280
     0
281
     0
  0
CLASS
  1
ACMSTANDARDISO
  2
AcmStandardISO
  3
"Amdt_StdImp|Product Description: AutoCAD Mechanical|Company: Autodesk, Inc."
 90
     1024
 91
        1
280
     0
281
     0
  0
CLASS
  1
AMDTEDGESTANDARDISO13715
  2
AmdtEdgeStdISO13715
  3
"Amdt_StdImp|Product Description: AutoCAD Mechanical|Company: Autodesk, Inc."
 90
     1024
 91
        1
280
     0
281
     0
  0
CLASS
  1
ACMSURFSTANDARDISO2002
  2
AcmSurfTextStdISO2002
  3
"Amdt_StdImp|Product Description: AutoCAD Mechanical|Company: Autodesk, Inc."
 90
     1024
 91
        1
280
     0
281
     0
  0
CLASS
  1
ACMFCFSTANDARDISO2004
  2
AcmFCFStdISO2004
  3
"Amdt_StdImp|Product Description: AutoCAD Mechanical|Company: Autodesk, Inc."
 90
     1024
 91
        1
280
     0
281
     0
  0
CLASS
  1
ACMWELDSTANDARDISO
  2
AcmWeldingStdISO
  3
"Amdt_StdImp|Product Description: AutoCAD Mechanical|Company: Autodesk, Inc."
 90
     1024
 91
        1
280
     0
281
     0
  0
CLASS
  1
ACMIDSTANDARDISO2004
  2
AcmIdStdISO2004
  3
"Amdt_StdImp|Product Description: AutoCAD Mechanical|Company: Autodesk, Inc."
 90
     1024
 91
        1
280
     0
281
     0
  0
CLASS
  1
ACMDATUMSTANDARDISO
  2
AcmDatumStdISO
  3
"Amdt_StdImp|Product Description: AutoCAD Mechanical|Company: Autodesk, Inc."
 90
     1024
 91
        1
280
     0
281
     0
  0
CLASS
  1
ACMBOMSTANDARDISO
  2
AcmBOMStdISO
  3
"Amdt_StdImp|Product Description: AutoCAD Mechanical|Company: Autodesk, Inc."
 90
     1024
 91
        1
280
     0
281
     0
  0
CLASS
  1
ACMDETAILSTANDARDISO
  2
AmdtDetailSymStdISO
  3
"Amdt_StdImp|Product Description: AutoCAD Mechanical|Company: Autodesk, Inc."
 90
     1024
 91
        1
280
     0
281
     0
  0
CLASS
  1
ACMSECTIONSTANDARDISO2001
  2
AmdtSectionSymStdISO2001
  3
"Amdt_StdImp|Product Description: AutoCAD Mechanical|Company: Autodesk, Inc."
 90
     1024
 91
        1
280
     0
281
     0
  0
CLASS
  1
ACMCENTERLINESTANDARDISO
  2
AmdtCenterLineStdISO
  3
"Amdt_StdImp|Product Description: AutoCAD Mechanical|Company: Autodesk, Inc."
 90
     1024
 91
        1
280
     0
281
     0
  0
CLASS
  1
ACMTHREADLINESTANDARDISO
  2
AmdtThreadLineStdISO
  3
"Amdt_StdImp|Product Description: AutoCAD Mechanical|Company: Autodesk, Inc."
 90
     1024
 91
        1
280
     0
281
     0
  0
CLASS
  1
ACMNOTESTANDARDISO
  2
AmdtNoteStdISO
  3
"Amdt_StdImp|Product Description: AutoCAD Mechanical|Company: Autodesk, Inc."
 90
     1024
 91
        1
280
     0
281
     0
  0
CLASS
  1
ACMTAPERSTANDARDISO
  2
AcmTaperStdISO
  3
"Amdt_StdImp|Product Description: AutoCAD Mechanical|Company: Autodesk, Inc."
 90
     1024
 91
        1
280
     0
281
     0
  0
CLASS
  1
ACMANOOTATIONVIEWSTANDARDISO
  2
AmdtAnViewStdISO
  3
"Amdt_StdImp|Product Description: AutoCAD Mechanical|Company: Autodesk, Inc."
 90
     1024
 91
        1
280
     0
281
     0
  0
CLASS
  1
ACAMGLAYSTD
  2
AcAmgLayStd
  3
"AmgLay|Product Description: AutoCAD Mechanical|Company: Autodesk, Inc."
 90
     1024
 91
        1
280
     0
281
     0
  0
CLASS
  1
ACAMGDIMSTD
  2
AcAmgDimStd
  3
"AmgDim|Product Description: AutoCAD Mechanical|Company: Autodesk, Inc."
 90
     1024
 91
        1
280
     0
281
     0
  0
CLASS
  1
AMGOBJPROPCFG
  2
AmgObjPropCfg
  3
"AmgLay|Product Description: AutoCAD Mechanical|Company: Autodesk, Inc."
 90
     1025
 91
        1
280
     0
281
     0
  0
CLASS
  1
ACAMGHOLECHARTSTDISO
  2
AcAmgHoleChartStdISO
  3
AmgDim|Product Description: AutoCAD Mechanical|Company: Autodesk, Inc.
 90
     1024
 91
        1
280
     0
281
     0
  0
CLASS
  1
ACAMGTITLESTD
  2
AcAmgTitleStd
  3
"AmgTitle|Product Description: AutoCAD Mechanical|Company: Autodesk, Inc."
 90
     4095
 91
        1
280
     0
281
     0
  0
CLASS
  1
AMDTNOTETEMPLATEDB
  2
AmdtNoteTemplateDB
  3
AcmSymBB|Product Description: AutoCAD Mechanical|Company: Autodesk, Inc.
 90
     1024
 91
        6
280
     0
281
     0
  0
CLASS
  1
ACAMGFILTERDAT
  2
AcAmgFilterDat
  3
"AcadM|Product Description: AutoCAD Mechanical|Company: Autodesk, Inc."
 90
     1024
 91
        6
280
     0
281
     0
  0
CLASS
  1
DICTIONARYVAR
  2
AcDbDictionaryVar
  3
ObjectDBX Classes
 90
        0
 91
        7
280
     0
281
     0
  0
CLASS
  1
CELLSTYLEMAP
  2
AcDbCellStyleMap
  3
ObjectDBX Classes
 90
     1152
 91
        1
280
     0
281
     0
  0
ENDSEC
  0
SECTION
  2
TABLES
  0
TABLE
  2
VPORT
  5
8
330
0
100
AcDbSymbolTable
 70
    17
  0
VPORT
  5
29
330
8
100
AcDbSymbolTableRecord
100
AcDbViewportTableRecord
  2
DUMMY
 70
     0
 10
0.0
 20
0.0
 11
1.0
 21
1.0
 12
10.429907
 22
4.5
 13
0.0
 23
0.0
 14
0.5
 24
0.5
 15
0.5
 25
0.5
 16
0.0
 26
0.0
 36
1.0
 17
0.0
 27
0.0
 37
0.0
 40
9.0
 41
1.972972999999999
 42
50.0
 43
0.0
 44
0.0
 50
0.0
 51
0.0
 71
     0
 72
   100
 73
     1
 74
     3
 75
     0
 76
     0
 77
     0
 78
     0
281
     0
 65
     1
110
0.0
120
0.0
130
0.0
111
1.0
121
0.0
131
0.0
112
0.0
122
1.0
132
0.0
 79
     0
146
0.0
348
2F
 60
     3
 61
     5
292
     1
282
     1
141
0.0
142
0.0
 63
   250
421
  3355443
  0
VPORT
  5
1DA
330
8
100
AcDbSymbolTableRecord
100
AcDbViewportTableRecord
  2
*ACTIVE
 70
     0
 10
0.0
 20
0.0
 11
1.0
 21
1.0
 12
837.0170873646125
 22
366.5658227487905
 13
0.0
 23
0.0
 14
0.5
 24
0.5
 15
0.5
 25
0.5
 16
0.0
 26
0.0
 36
1.0
 17
0.0
 27
0.0
 37
0.0
 40
1047.835271252412
 41
2.085714285714285
 42
50.0
 43
1394.175705
 44
-1394.175705
 50
0.0
 51
0.0
 71
     0
 72
   100
 73
     1
 74
     3
 75
     0
 76
     0
 77
     0
 78
     0
281
     0
 65
     0
110
0.0
120
0.0
130
0.0
111
1.0
121
0.0
131
0.0
112
0.0
122
1.0
132
0.0
 79
     0
146
0.0
348
2F
 60
     3
 61
     5
292
     1
282
     1
141
0.0
142
0.0
 63
   250
421
  3355443
1001
ACAD_NAV_VCDISPLAY
1070
     3
  0
VPORT
  5
1DB
330
8
100
AcDbSymbolTableRecord
100
AcDbViewportTableRecord
  2
L1
 70
     0
 10
0.0
 20
0.0
 11
1.0
 21
1.0
 12
502.5881059999999
 22
289.0837
 13
0.0
 23
0.0
 14
0.5
 24
0.5
 15
0.5
 25
0.5
 16
0.0
 26
0.0
 36
1.0
 17
0.0
 27
0.0
 37
0.0
 40
240.241667
 41
0.073912
 42
50.0
 43
1394.175705
 44
-1394.175705
 50
0.0
 51
0.0
 71
     0
 72
   100
 73
     1
 74
     3
 75
     0
 76
     0
 77
     0
 78
     0
281
     0
 65
     1
110
0.0
120
0.0
130
0.0
111
1.0
121
0.0
131
0.0
112
0.0
122
1.0
132
0.0
 79
     0
146
0.0
348
2F
 60
     3
 61
     5
292
     1
282
     1
141
0.0
142
0.0
 63
   250
421
  3355443
  0
VPORT
  5
1DC
330
8
100
AcDbSymbolTableRecord
100
AcDbViewportTableRecord
  2
L2
 70
     0
 10
0.0
 20
0.0
 11
0.5
 21
1.0
 12
0.0
 22
0.0
 13
0.0
 23
0.0
 14
0.5
 24
0.5
 15
0.5
 25
0.5
 16
0.0
 26
-1.0
 36
0.0
 17
0.0
 27
0.0
 37
0.0
 40
1510.242408
 41
0.011758
 42
50.0
 43
777.628737
 44
-777.628737
 50
0.0
 51
0.0
 71
     0
 72
   100
 73
     1
 74
     3
 75
     0
 76
     0
 77
     0
 78
     0
281
     0
 65
     1
110
0.0
120
0.0
130
0.0
111
1.0
121
0.0
131
0.0
112
0.0
122
1.0
132
0.0
 79
     0
146
0.0
348
2F
 60
     3
 61
     5
292
     1
282
     1
141
0.0
142
0.0
 63
   250
421
  3355443
  0
VPORT
  5
1DD
330
8
100
AcDbSymbolTableRecord
100
AcDbViewportTableRecord
  2
L2
 70
     0
 10
0.5
 20
0.0
 11
1.0
 21
1.0
 12
0.0
 22
0.0
 13
0.0
 23
0.0
 14
0.5
 24
0.5
 15
0.5
 25
0.5
 16
1.0
 26
0.0
 36
0.0
 17
0.0
 27
0.0
 37
0.0
 40
1510.242408
 41
0.011758
 42
50.0
 43
764.615621
 44
-764.615621
 50
0.0
 51
0.0
 71
     0
 72
   100
 73
     1
 74
     3
 75
     0
 76
     0
 77
     0
 78
     0
281
     0
 65
     1
110
0.0
120
0.0
130
0.0
111
1.0
121
0.0
131
0.0
112
0.0
122
1.0
132
0.0
 79
     0
146
0.0
348
2F
 60
     3
 61
     5
292
     1
282
     1
141
0.0
142
0.0
 63
   250
421
  3355443
  0
VPORT
  5
1DE
330
8
100
AcDbSymbolTableRecord
100
AcDbViewportTableRecord
  2
L3
 70
     0
 10
0.0
 20
0.5
 11
1.0
 21
1.0
 12
502.5881059999999
 22
289.0837
 13
0.0
 23
0.0
 14
0.5
 24
0.5
 15
0.5
 25
0.5
 16
0.0
 26
0.0
 36
1.0
 17
0.0
 27
0.0
 37
0.0
 40
240.241667
 41
0.073912
 42
50.0
 43
1394.175705
 44
-1394.175705
 50
0.0
 51
0.0
 71
     0
 72
   100
 73
     1
 74
     3
 75
     0
 76
     0
 77
     0
 78
     0
281
     0
 65
     1
110
0.0
120
0.0
130
0.0
111
1.0
121
0.0
131
0.0
112
0.0
122
1.0
132
0.0
 79
     0
146
0.0
348
2F
 60
     3
 61
     5
292
     1
282
     1
141
0.0
142
0.0
 63
   250
421
  3355443
  0
VPORT
  5
1DF
330
8
100
AcDbSymbolTableRecord
100
AcDbViewportTableRecord
  2
L3
 70
     0
 10
0.0
 20
0.0
 11
1.0
 21
0.5
 12
0.0
 22
0.0
 13
0.0
 23
0.0
 14
0.5
 24
0.5
 15
0.5
 25
0.5
 16
0.0
 26
-1.0
 36
0.0
 17
0.0
 27
0.0
 37
0.0
 40
1510.242408
 41
0.011758
 42
50.0
 43
777.628737
 44
-777.628737
 50
0.0
 51
0.0
 71
     0
 72
   100
 73
     1
 74
     3
 75
     0
 76
     0
 77
     0
 78
     0
281
     0
 65
     1
110
0.0
120
0.0
130
0.0
111
1.0
121
0.0
131
0.0
112
0.0
122
1.0
132
0.0
 79
     0
146
0.0
348
2F
 60
     3
 61
     5
292
     1
282
     1
141
0.0
142
0.0
 63
   250
421
  3355443
  0
VPORT
  5
1E0
330
8
100
AcDbSymbolTableRecord
100
AcDbViewportTableRecord
  2
L4
 70
     0
 10
0.0
 20
0.5
 11
0.5
 21
1.0
 12
502.5881059999999
 22
289.0837
 13
0.0
 23
0.0
 14
0.5
 24
0.5
 15
0.5
 25
0.5
 16
0.0
 26
0.0
 36
1.0
 17
0.0
 27
0.0
 37
0.0
 40
240.241667
 41
0.073912
 42
50.0
 43
1394.175705
 44
-1394.175705
 50
0.0
 51
0.0
 71
     0
 72
   100
 73
     1
 74
     3
 75
     0
 76
     0
 77
     0
 78
     0
281
     0
 65
     1
110
0.0
120
0.0
130
0.0
111
1.0
121
0.0
131
0.0
112
0.0
122
1.0
132
0.0
 79
     0
146
0.0
348
2F
 60
     3
 61
     5
292
     1
282
     1
141
0.0
142
0.0
 63
   250
421
  3355443
  0
VPORT
  5
1E1
330
8
100
AcDbSymbolTableRecord
100
AcDbViewportTableRecord
  2
L4
 70
     0
 10
0.0
 20
0.0
 11
0.5
 21
0.5
 12
0.0
 22
0.0
 13
0.0
 23
0.0
 14
0.5
 24
0.5
 15
0.5
 25
0.5
 16
0.0
 26
-1.0
 36
0.0
 17
0.0
 27
0.0
 37
0.0
 40
1510.242408
 41
0.011758
 42
50.0
 43
777.628737
 44
-777.628737
 50
0.0
 51
0.0
 71
     0
 72
   100
 73
     1
 74
     3
 75
     0
 76
     0
 77
     0
 78
     0
281
     0
 65
     1
110
0.0
120
0.0
130
0.0
111
1.0
121
0.0
131
0.0
112
0.0
122
1.0
132
0.0
 79
     0
146
0.0
348
2F
 60
     3
 61
     5
292
     1
282
     1
141
0.0
142
0.0
 63
   250
421
  3355443
  0
VPORT
  5
1E2
330
8
100
AcDbSymbolTableRecord
100
AcDbViewportTableRecord
  2
L4
 70
     0
 10
0.5
 20
0.0
 11
1.0
 21
0.5
 12
0.0
 22
0.0
 13
0.0
 23
0.0
 14
0.5
 24
0.5
 15
0.5
 25
0.5
 16
1.0
 26
0.0
 36
0.0
 17
0.0
 27
0.0
 37
0.0
 40
1510.242408
 41
0.011758
 42
50.0
 43
764.615621
 44
-764.615621
 50
0.0
 51
0.0
 71
     0
 72
   100
 73
     1
 74
     3
 75
     0
 76
     0
 77
     0
 78
     0
281
     0
 65
     1
110
0.0
120
0.0
130
0.0
111
1.0
121
0.0
131
0.0
112
0.0
122
1.0
132
0.0
 79
     0
146
0.0
348
2F
 60
     3
 61
     5
292
     1
282
     1
141
0.0
142
0.0
 63
   250
421
  3355443
  0
VPORT
  5
1E3
330
8
100
AcDbSymbolTableRecord
100
AcDbViewportTableRecord
  2
L4
 70
     0
 10
0.5
 20
0.5
 11
1.0
 21
1.0
 12
0.0
 22
0.0
 13
0.0
 23
0.0
 14
0.5
 24
0.5
 15
0.5
 25
0.5
 16
0.5773502691896259
 26
-0.5773502691896259
 36
0.5773502691896259
 17
0.0
 27
0.0
 37
0.0
 40
1482.840046
 41
0.011975
 42
50.0
 43
772.3200829999999
 44
-772.3200829999999
 50
0.0
 51
0.0
 71
     0
 72
   100
 73
     1
 74
     3
 75
     0
 76
     0
 77
     0
 78
     0
281
     0
 65
     1
110
0.0
120
0.0
130
0.0
111
1.0
121
0.0
131
0.0
112
0.0
122
1.0
132
0.0
 79
     0
146
0.0
348
2F
 60
     3
 61
     5
292
     1
282
     1
141
0.0
142
0.0
 63
   250
421
  3355443
  0
VPORT
  5
1E4
330
8
100
AcDbSymbolTableRecord
100
AcDbViewportTableRecord
  2
L6
 70
     0
 10
0.0
 20
0.5
 11
0.333333
 21
1.0
 12
0.0
 22
0.0
 13
0.0
 23
0.0
 14
0.5
 24
0.5
 15
0.5
 25
0.5
 16
0.7188730927569434
 26
-0.5850486126764433
 36
0.3754192287502549
 17
0.0
 27
0.0
 37
0.0
 40
1564.871325
 41
0.011347
 42
50.0
 43
810.232564
 44
-810.232564
 50
0.0
 51
0.0
 71
     0
 72
   100
 73
     1
 74
     3
 75
     0
 76
     0
 77
     0
 78
     0
281
     0
 65
     1
110
0.0
120
0.0
130
0.0
111
1.0
121
0.0
131
0.0
112
0.0
122
1.0
132
0.0
 79
     0
146
0.0
348
2F
 60
     3
 61
     5
292
     1
282
     1
141
0.0
142
0.0
 63
   250
421
  3355443
  0
VPORT
  5
1E5
330
8
100
AcDbSymbolTableRecord
100
AcDbViewportTableRecord
  2
L6
 70
     0
 10
0.0
 20
0.0
 11
0.333333
 21
0.5
 12
0.0
 22
0.0
 13
0.0
 23
0.0
 14
0.5
 24
0.5
 15
0.5
 25
0.5
 16
-1.0
 26
0.0
 36
0.0
 17
0.0
 27
0.0
 37
0.0
 40
1510.242408
 41
0.011758
 42
50.0
 43
764.615621
 44
-764.615621
 50
0.0
 51
0.0
 71
     0
 72
   100
 73
     1
 74
     3
 75
     0
 76
     0
 77
     0
 78
     0
281
     0
 65
     1
110
0.0
120
0.0
130
0.0
111
1.0
121
0.0
131
0.0
112
0.0
122
1.0
132
0.0
 79
     0
146
0.0
348
2F
 60
     3
 61
     5
292
     1
282
     1
141
0.0
142
0.0
 63
   250
421
  3355443
  0
VPORT
  5
1E6
330
8
100
AcDbSymbolTableRecord
100
AcDbViewportTableRecord
  2
L6
 70
     0
 10
0.333333
 20
0.5
 11
0.666667
 21
1.0
 12
502.5881059999999
 22
289.0837
 13
0.0
 23
0.0
 14
0.5
 24
0.5
 15
0.5
 25
0.5
 16
0.0
 26
0.0
 36
1.0
 17
0.0
 27
0.0
 37
0.0
 40
240.241667
 41
0.073912
 42
50.0
 43
1394.175705
 44
-1394.175705
 50
0.0
 51
0.0
 71
     0
 72
   100
 73
     1
 74
     3
 75
     0
 76
     0
 77
     0
 78
     0
281
     0
 65
     1
110
0.0
120
0.0
130
0.0
111
1.0
121
0.0
131
0.0
112
0.0
122
1.0
132
0.0
 79
     0
146
0.0
348
2F
 60
     3
 61
     5
292
     1
282
     1
141
0.0
142
0.0
 63
   250
421
  3355443
  0
VPORT
  5
1E7
330
8
100
AcDbSymbolTableRecord
100
AcDbViewportTableRecord
  2
L6
 70
     0
 10
0.333333
 20
0.0
 11
0.666667
 21
0.5
 12
0.0
 22
0.0
 13
0.0
 23
0.0
 14
0.5
 24
0.5
 15
0.5
 25
0.5
 16
0.0
 26
-1.0
 36
0.0
 17
0.0
 27
0.0
 37
0.0
 40
1510.242408
 41
0.011758
 42
50.0
 43
777.628737
 44
-777.628737
 50
0.0
 51
0.0
 71
     0
 72
   100
 73
     1
 74
     3
 75
     0
 76
     0
 77
     0
 78
     0
281
     0
 65
     1
110
0.0
120
0.0
130
0.0
111
1.0
121
0.0
131
0.0
112
0.0
122
1.0
132
0.0
 79
     0
146
0.0
348
2F
 60
     3
 61
     5
292
     1
282
     1
141
0.0
142
0.0
 63
   250
421
  3355443
  0
VPORT
  5
1E8
330
8
100
AcDbSymbolTableRecord
100
AcDbViewportTableRecord
  2
L6
 70
     0
 10
0.666667
 20
0.5
 11
1.0
 21
1.0
 12
0.0
 22
0.0
 13
0.0
 23
0.0
 14
0.5
 24
0.5
 15
0.5
 25
0.5
 16
0.5773502691896259
 26
-0.5773502691896259
 36
0.5773502691896259
 17
0.0
 27
0.0
 37
0.0
 40
1482.840046
 41
0.011975
 42
50.0
 43
772.3200829999999
 44
-772.3200829999999
 50
0.0
 51
0.0
 71
     0
 72
   100
 73
     1
 74
     3
 75
     0
 76
     0
 77
     0
 78
     0
281
     0
 65
     1
110
0.0
120
0.0
130
0.0
111
1.0
121
0.0
131
0.0
112
0.0
122
1.0
132
0.0
 79
     0
146
0.0
348
2F
 60
     3
 61
     5
292
     1
282
     1
141
0.0
142
0.0
 63
   250
421
  3355443
  0
VPORT
  5
1E9
330
8
100
AcDbSymbolTableRecord
100
AcDbViewportTableRecord
  2
L6
 70
     0
 10
0.666667
 20
0.0
 11
1.0
 21
0.5
 12
0.0
 22
0.0
 13
0.0
 23
0.0
 14
0.5
 24
0.5
 15
0.5
 25
0.5
 16
1.0
 26
0.0
 36
0.0
 17
0.0
 27
0.0
 37
0.0
 40
1510.242408
 41
0.011758
 42
50.0
 43
764.615621
 44
-764.615621
 50
0.0
 51
0.0
 71
     0
 72
   100
 73
     1
 74
     3
 75
     0
 76
     0
 77
     0
 78
     0
281
     0
 65
     1
110
0.0
120
0.0
130
0.0
111
1.0
121
0.0
131
0.0
112
0.0
122
1.0
132
0.0
 79
     0
146
0.0
348
2F
 60
     3
 61
     5
292
     1
282
     1
141
0.0
142
0.0
 63
   250
421
  3355443
  0
ENDTAB
  0
TABLE
  2
LTYPE
  5
5
330
0
100
AcDbSymbolTable
 70
    19
  0
LTYPE
  5
14
330
5
100
AcDbSymbolTableRecord
100
AcDbLinetypeTableRecord
  2
BYBLOCK
 70
     0
  3

 72
    65
 73
     0
 40
0.0
  0
LTYPE
  5
15
330
5
100
AcDbSymbolTableRecord
100
AcDbLinetypeTableRecord
  2
BYLAYER
 70
     0
  3

 72
    65
 73
     0
 40
0.0
  0
LTYPE
  5
16
330
5
100
AcDbSymbolTableRecord
100
AcDbLinetypeTableRecord
  2
CONTINUOUS
 70
     0
  3
Solid line
 72
    65
 73
     0
 40
0.0
  0
LTYPE
  5
3F
330
5
100
AcDbSymbolTableRecord
100
AcDbLinetypeTableRecord
  2
DASHED
 70
     0
  3
__ __ __ __ __ __ __ __ __
 72
    65
 73
     2
 40
25.72
 49
12.86
 74
     4
 75
     0
340
0
 46
0.0
 50
0.0
 44
0.0
 45
0.0
 49
-12.86
 74
     4
 75
     0
340
0
 46
0.0
 50
0.0
 44
0.0
 45
0.0
  0
LTYPE
  5
40
330
5
100
AcDbSymbolTableRecord
100
AcDbLinetypeTableRecord
  2
HIDDEN
 70
     0
  3
_ _ _ _ _ _ _ _ _ _ _ _ _ _ _
 72
    65
 73
     2
 40
0.5
 49
0.25
 74
     4
 75
     0
340
0
 46
0.0
 50
0.0
 44
0.0
 45
0.0
 49
-0.25
 74
     4
 75
     0
340
0
 46
0.0
 50
0.0
 44
0.0
 45
0.0
  0
LTYPE
  5
41
330
5
100
AcDbSymbolTableRecord
100
AcDbLinetypeTableRecord
  2
PHANTOM
 70
     0
  3
____ _ _ ____ _ _ _____ _ _ ____
 72
    65
 73
     6
 40
50.5
 49
18.0
 74
     4
 75
     0
340
0
 46
0.0
 50
0.0
 44
0.0
 45
0.0
 49
-6.5
 74
     4
 75
     0
340
0
 46
0.0
 50
0.0
 44
0.0
 45
0.0
 49
6.5
 74
     4
 75
     0
340
0
 46
0.0
 50
0.0
 44
0.0
 45
0.0
 49
-6.5
 74
     4
 75
     0
340
0
 46
0.0
 50
0.0
 44
0.0
 45
0.0
 49
6.5
 74
     4
 75
     0
340
0
 46
0.0
 50
0.0
 44
0.0
 45
0.0
 49
-6.5
 74
     4
 75
     0
340
0
 46
0.0
 50
0.0
 44
0.0
 45
0.0
  0
LTYPE
  5
42
330
5
100
AcDbSymbolTableRecord
100
AcDbLinetypeTableRecord
  2
CENTER
 70
     0
  3
____ _ ____ _ ____ _ ____
 72
    65
 73
     4
 40
47.4
 49
22.0
 74
     4
 75
     0
340
0
 46
0.0
 50
0.0
 44
0.0
 45
0.0
 49
-8.5
 74
     4
 75
     0
340
0
 46
0.0
 50
0.0
 44
0.0
 45
0.0
 49
8.5
 74
     4
 75
     0
340
0
 46
0.0
 50
0.0
 44
0.0
 45
0.0
 49
-8.5
 74
     4
 75
     0
340
0
 46
0.0
 50
0.0
 44
0.0
 45
0.0
  0
LTYPE
  5
43
330
5
100
AcDbSymbolTableRecord
100
AcDbLinetypeTableRecord
  2
DOT
 70
     0
  3
.........................
 72
    65
 73
     2
 40
10.0
 49
0.0
 74
     4
 75
     0
340
0
 46
0.0
 50
0.0
 44
0.0
 45
0.0
 49
-10.0
 74
     4
 75
     0
340
0
 46
0.0
 50
0.0
 44
0.0
 45
0.0
  0
LTYPE
  5
44
330
5
100
AcDbSymbolTableRecord
100
AcDbLinetypeTableRecord
  2
DASHDOT
 70
     0
  3
_._._._._._._._._._._._._._._._.
 72
    65
 73
     4
 40
70.0
 49
31.0
 74
     4
 75
     0
340
0
 46
0.0
 50
0.0
 44
0.0
 45
0.0
 49
-13.0
 74
     4
 75
     0
340
0
 46
0.0
 50
0.0
 44
0.0
 45
0.0
 49
13.0
 74
     4
 75
     0
340
0
 46
0.0
 50
0.0
 44
0.0
 45
0.0
 49
-13.0
 74
     4
 75
     0
340
0
 46
0.0
 50
0.0
 44
0.0
 45
0.0
  0
LTYPE
  5
242
330
5
100
AcDbSymbolTableRecord
100
AcDbLinetypeTableRecord
  2
PHANTOM2
 70
     0
  3
Phantom (.5x) ___ _ _ ___ _ _ ___ _ _ ___ _ _
 72
    65
 73
     6
 40
31.75
 49
15.875
 74
     0
 49
-3.174999999999999
 74
     0
 49
3.174999999999999
 74
     0
 49
-3.174999999999999
 74
     0
 49
3.174999999999999
 74
     0
 49
-3.174999999999999
 74
     0
  0
LTYPE
  5
27D
330
5
100
AcDbSymbolTableRecord
100
AcDbLinetypeTableRecord
  2
AM_ISO02W050
 70
     0
  3
__ __ __ __ __ __ __ __ __ __ __ __ __ __ __
 72
    65
 73
     2
 40
7.5
 49
6.0
 74
     0
 49
-1.5
 74
     0
  0
LTYPE
  5
27E
330
5
100
AcDbSymbolTableRecord
100
AcDbLinetypeTableRecord
  2
AM_ISO08W050
 70
     0
  3
____ . ____ . ____ . ____ . ____ . ____ . ____
 72
    65
 73
     4
 40
18.0
 49
12.0
 74
     0
 49
-1.5
 74
     0
 49
3.0
 74
     0
 49
-1.5
 74
     0
  0
LTYPE
  5
27F
330
5
100
AcDbSymbolTableRecord
100
AcDbLinetypeTableRecord
  2
AM_ISO09W050
 70
     0
  3
_____ . . _____ . . _____ . . ____ .. ____
 72
    65
 73
     6
 40
22.5
 49
12.0
 74
     0
 49
-1.5
 74
     0
 49
3.0
 74
     0
 49
-1.5
 74
     0
 49
3.0
 74
     0
 49
-1.5
 74
     0
  0
LTYPE
  5
280
330
5
100
AcDbSymbolTableRecord
100
AcDbLinetypeTableRecord
  2
Amconstr
 70
     0
  3
_______________________
 72
    65
 73
     2
 40
9999.0
 49
9999.0
 74
     0
 49
0.0
 74
     0
  0
LTYPE
  5
281
330
5
100
AcDbSymbolTableRecord
100
AcDbLinetypeTableRecord
  2
AM_ISO08W050x2
 70
     0
  3
__ . __ . __ . __ . __ . __
 72
    65
 73
     4
 40
9.0
 49
6.0
 74
     0
 49
-0.75
 74
     0
 49
1.5
 74
     0
 49
-0.75
 74
     0
  0
LTYPE
  5
282
330
5
100
AcDbSymbolTableRecord
100
AcDbLinetypeTableRecord
  2
AM_ISO02W050x2
 70
     0
  3
 _ _ _ _ _ _ _ _ _ _ _ _
 72
    65
 73
     2
 40
3.75
 49
3.0
 74
     0
 49
-0.75
 74
     0
  0
LTYPE
  5
285
330
5
100
AcDbSymbolTableRecord
100
AcDbLinetypeTableRecord
  2
Amzigzag
 70
     0
  3
/\/-/\/-/\/-/\/-/\/-/\/
 72
    65
 73
     2
 40
11.0001
 49
0.0001
 74
     4
 75
   136
340
284
 46
0.04
 50
0.0
 44
0.0
 45
0.0
 49
-11.0
 74
     0
  0
LTYPE
  5
294
330
5
100
AcDbSymbolTableRecord
100
AcDbLinetypeTableRecord
  2
ACISOWELD
 70
     0
  3
_ _ _ _ _
 72
    65
 73
     2
 40
2.0
 49
2.0
 74
     0
 49
-1.0
 74
     0
  0
LTYPE
  5
295
330
5
100
AcDbSymbolTableRecord
100
AcDbLinetypeTableRecord
  2
ACISOTGL
 70
     0
  3
_ _ _ _ _
 72
    65
 73
     2
 40
3.0
 49
2.0
 74
     0
 49
-1.0
 74
     0
  0
LTYPE
  5
296
330
5
100
AcDbSymbolTableRecord
100
AcDbLinetypeTableRecord
  2
ACISOTGB
 70
     0
  3
__ . . __ . .
 72
    65
 73
     6
 40
9.0
 49
4.0
 74
     0
 49
-1.0
 74
     0
 49
1.0
 74
     0
 49
-1.0
 74
     0
 49
1.0
 74
     0
 49
-1.0
 74
     0
  0
ENDTAB
  0
TABLE
  2
LAYER
  5
2
330
0
100
AcDbSymbolTable
 70
     2
  0
LAYER
  5
10
102
{ACAD_XDICTIONARY
360
415
102
}
330
2
100
AcDbSymbolTableRecord
100
AcDbLayerTableRecord
  2
0
 70
     0
 62
     7
  6
CONTINUOUS
370
    -3
390
F
347
3E
  0
LAYER
  5
46
102
{ACAD_XDICTIONARY
360
417
102
}
330
2
100
AcDbSymbolTableRecord
100
AcDbLayerTableRecord
  2
1
 70
     0
 62
     7
420
 16777215
  6
CONTINUOUS
370
    -3
390
F
347
3E
  0
ENDTAB
  0
TABLE
  2
STYLE
  5
3
330
0
100
AcDbSymbolTable
 70
     4
  0
STYLE
  5
11
330
3
100
AcDbSymbolTableRecord
100
AcDbTextStyleTableRecord
  2
Standard
 70
     0
 40
0.0
 41
1.0
 50
0.0
 71
     0
 42
0.2
  3
txt
  4

  0
STYLE
  5
284
330
3
100
AcDbSymbolTableRecord
100
AcDbTextStyleTableRecord
  2

 70
     1
 40
0.0
 41
1.0
 50
0.0
 71
     0
 42
0.2
  3
genltshp.shx
  4

  0
STYLE
  5
292
330
3
100
AcDbSymbolTableRecord
100
AcDbTextStyleTableRecord
  2
ACISOTS
 70
     0
 40
1.0
 41
1.0
 50
0.0
 71
     0
 42
0.2
  3
isocp.shx
  4

  0
STYLE
  5
293
330
3
100
AcDbSymbolTableRecord
100
AcDbTextStyleTableRecord
  2
ACISOGDT
 70
     0
 40
0.0
 41
1.0
 50
0.0
 71
     0
 42
0.2
  3
amgdt.shx
  4

  0
ENDTAB
  0
TABLE
  2
VIEW
  5
6
330
0
100
AcDbSymbolTable
 70
     0
  0
ENDTAB
  0
TABLE
  2
UCS
  5
7
330
0
100
AcDbSymbolTable
 70
     0
  0
ENDTAB
  0
TABLE
  2
APPID
  5
9
330
0
100
AcDbSymbolTable
 70
     9
  0
APPID
  5
12
330
9
100
AcDbSymbolTableRecord
100
AcDbRegAppTableRecord
  2
ACAD
 70
     0
  0
APPID
  5
23B
330
9
100
AcDbSymbolTableRecord
100
AcDbRegAppTableRecord
  2
MCAD_NO_VIS
 70
     0
  0
APPID
  5
23C
330
9
100
AcDbSymbolTableRecord
100
AcDbRegAppTableRecord
  2
ACAD_TEMP_GRAPHIC
 70
     0
  0
APPID
  5
247
330
9
100
AcDbSymbolTableRecord
100
AcDbRegAppTableRecord
  2
ACATTRIBSERVICES
 70
     0
  0
APPID
  5
25F
330
9
100
AcDbSymbolTableRecord
100
AcDbRegAppTableRecord
  2
DESIGNERASSEMBLIES
 70
     0
  0
APPID
  5
27A
330
9
100
AcDbSymbolTableRecord
100
AcDbRegAppTableRecord
  2
ACAD_DSTYLE_DIMJAG
 70
     0
  0
APPID
  5
27B
330
9
100
AcDbSymbolTableRecord
100
AcDbRegAppTableRecord
  2
ACAD_DSTYLE_DIMBREAK
 70
     0
  0
APPID
  5
29D
330
9
100
AcDbSymbolTableRecord
100
AcDbRegAppTableRecord
  2
ACAD_NAV_VCDISPLAY
 70
     0
  0
APPID
  5
412
330
9
100
AcDbSymbolTableRecord
100
AcDbRegAppTableRecord
  2
ACAD_EXEMPT_FROM_CAD_STANDARDS
 70
     0
  0
ENDTAB
  0
TABLE
  2
DIMSTYLE
  5
A
330
0
100
AcDbSymbolTable
 70
     8
100
AcDbDimStyleTable
 71
     0
  0
DIMSTYLE
105
27
330
A
100
AcDbSymbolTableRecord
100
AcDbDimStyleTableRecord
  2
Standard
 70
     0
340
11
  0
DIMSTYLE
105
279
102
{ACAD_REACTORS
330
268
102
}
330
A
100
AcDbSymbolTableRecord
100
AcDbDimStyleTableRecord
  2
AM_ISO
 70
     0
  4
"
 41
3.5
 42
1.0
 43
10.0
 44
1.0
 47
0.1
 48
0.1
 73
     0
 74
     0
 77
     1
 78
     8
 79
     2
 90
     1
140
3.5
141
0.0
143
0.0393701
146
0.71
147
1.5
172
     1
176
   256
177
   256
178
     2
271
     2
272
     3
274
     4
283
     0
284
     8
340
11
345
14
346
14
347
14
371
    -1
372
    -1
1001
ACAD_DSTYLE_DIMJAG
1070
   388
1040
1.5
1001
ACAD_DSTYLE_DIMBREAK
1070
   391
1040
3.75
  0
DIMSTYLE
105
286
330
A
100
AcDbSymbolTableRecord
100
AcDbDimStyleTableRecord
  2
AM_ISO$3
 70
     0
  4
"
 41
3.5
 42
1.0
 43
10.0
 44
1.0
 47
0.1
 48
0.1
 73
     0
 77
     1
 78
     8
 79
     2
 90
     1
140
3.5
141
0.0
143
0.0393701
146
0.71
147
1.5
176
   256
177
   256
178
     2
271
     2
272
     3
274
     4
283
     0
284
     8
288
     1
289
     0
340
11
345
14
346
14
347
14
371
    -1
372
    -1
1001
ACAD_DSTYLE_DIMBREAK
1070
   391
1040
3.75
1001
ACAD_DSTYLE_DIMJAG
1070
   388
1040
1.5
  0
DIMSTYLE
105
287
330
A
100
AcDbSymbolTableRecord
100
AcDbDimStyleTableRecord
  2
AM_ISO$4
 70
     0
  4
"
 41
3.5
 42
1.0
 43
10.0
 44
1.0
 47
0.1
 48
0.1
 73
     0
 77
     1
 78
     8
 79
     2
 90
     1
140
3.5
141
0.0
143
0.0393701
146
0.71
147
1.5
176
   256
177
   256
178
     2
271
     2
272
     3
274
     4
283
     0
284
     8
288
     1
289
     0
340
11
345
14
346
14
347
14
371
    -1
372
    -1
1001
ACAD_DSTYLE_DIMBREAK
1070
   391
1040
3.75
1001
ACAD_DSTYLE_DIMJAG
1070
   388
1040
1.5
  0
DIMSTYLE
105
288
330
A
100
AcDbSymbolTableRecord
100
AcDbDimStyleTableRecord
  2
AM_ISO$6
 70
     0
  4
"
 41
3.5
 42
1.0
 43
10.0
 44
1.0
 47
0.1
 48
0.1
 73
     0
 74
     0
 78
     8
 79
     2
 90
     1
140
3.5
141
0.0
143
0.0393701
146
0.71
147
1.5
172
     1
176
   256
177
   256
178
     2
271
     2
272
     3
274
     4
283
     0
284
     8
340
11
345
14
346
14
347
14
371
    -1
372
    -1
1001
ACAD_DSTYLE_DIMBREAK
1070
   391
1040
3.75
1001
ACAD_DSTYLE_DIMJAG
1070
   388
1040
1.5
  0
DIMSTYLE
105
289
330
A
100
AcDbSymbolTableRecord
100
AcDbDimStyleTableRecord
  2
AM_ISO$7
 70
     0
  4
"
 41
3.5
 42
1.0
 43
10.0
 44
1.0
 47
0.1
 48
0.1
 73
     0
 74
     0
 77
     1
 78
     8
 79
     2
 90
     1
140
3.5
141
0.0
143
0.0393701
146
0.71
147
1.5
172
     1
176
   256
177
   256
178
     2
271
     2
272
     3
274
     4
283
     0
284
     8
340
11
345
14
346
14
347
14
371
    -1
372
    -1
1001
ACAD_DSTYLE_DIMBREAK
1070
   391
1040
3.75
1001
ACAD_DSTYLE_DIMJAG
1070
   388
1040
1.5
  0
DIMSTYLE
105
28A
330
A
100
AcDbSymbolTableRecord
100
AcDbDimStyleTableRecord
  2
AM_ISO$SF
 70
     0
  4
"
 41
3.5
 42
1.0
 43
10.0
 44
1.0
 47
0.1
 48
0.1
 73
     0
 74
     0
 75
     1
 76
     1
 77
     1
 78
     8
 79
     2
 90
     1
140
3.5
141
0.0
143
0.0393701
146
0.71
147
1.5
172
     1
176
   256
177
   256
178
     2
271
     2
272
     3
274
     4
283
     0
284
     8
340
11
345
14
346
14
347
14
371
    -1
372
    -1
1001
ACAD_DSTYLE_DIMBREAK
1070
   391
1040
3.75
1001
ACAD_DSTYLE_DIMJAG
1070
   388
1040
1.5
  0
DIMSTYLE
105
28F
330
A
100
AcDbSymbolTableRecord
100
AcDbDimStyleTableRecord
  2
AM_ISO$SH
 70
     0
  4
"
 41
3.5
 42
1.0
 43
10.0
 44
1.0
 47
0.1
 48
0.1
 73
     0
 74
     0
 75
     1
 76
     1
 77
     1
 78
     8
 79
     2
 90
     1
140
3.5
141
0.0
143
0.0393701
144
2.0
146
0.71
147
1.5
172
     1
173
     1
176
   256
177
   256
178
     2
271
     2
272
     3
274
     4
283
     0
284
     8
340
11
343
28B
345
14
346
14
347
14
371
    -1
372
    -1
1001
ACAD_DSTYLE_DIMBREAK
1070
   391
1040
3.75
1001
ACAD_DSTYLE_DIMJAG
1070
   388
1040
1.5
  0
ENDTAB
  0
TABLE
  2
BLOCK_RECORD
  5
1
330
0
100
AcDbSymbolTable
 70
     6
  0
BLOCK_RECORD
  5
1F
330
1
100
AcDbSymbolTableRecord
100
AcDbBlockTableRecord
  2
*Model_Space
340
22
 70
     0
280
     1
281
     0
  0
BLOCK_RECORD
  5
1B
330
1
100
AcDbSymbolTableRecord
100
AcDbBlockTableRecord
  2
*Paper_Space
340
1E
 70
     0
280
     1
281
     0
  0
BLOCK_RECORD
  5
23
330
1
100
AcDbSymbolTableRecord
100
AcDbBlockTableRecord
  2
*Paper_Space0
340
26
 70
     0
280
     1
281
     0
  0
BLOCK_RECORD
  5
28B
330
1
100
AcDbSymbolTableRecord
100
AcDbBlockTableRecord
  2
GENAXEH
340
0
 70
     0
280
     1
281
     0
  0
ENDTAB
  0
ENDSEC
  0
SECTION
  2
BLOCKS
  0
BLOCK
  5
20
330
1F
100
AcDbEntity
  8
0
100
AcDbBlockBegin
  2
*Model_Space
 70
     0
 10
0.0
 20
0.0
 30
0.0
  3
*Model_Space
  1

  0
ENDBLK
  5
21
330
1F
100
AcDbEntity
  8
0
100
AcDbBlockEnd
  0
BLOCK
  5
1C
330
1B
100
AcDbEntity
 67
     1
  8
0
100
AcDbBlockBegin
  2
*Paper_Space
 70
     0
 10
0.0
 20
0.0
 30
0.0
  3
*Paper_Space
  1

  0
ENDBLK
  5
1D
330
1B
100
AcDbEntity
 67
     1
  8
0
100
AcDbBlockEnd
  0
BLOCK
  5
24
330
23
100
AcDbEntity
 67
     1
  8
0
100
AcDbBlockBegin
  2
*Paper_Space0
 70
     0
 10
0.0
 20
0.0
 30
0.0
  3
*Paper_Space0
  1

  0
ENDBLK
  5
25
330
23
100
AcDbEntity
 67
     1
  8
0
100
AcDbBlockEnd
  0
BLOCK
  5
28D
330
28B
100
AcDbEntity
  8
0
100
AcDbBlockBegin
  2
GENAXEH
 70
     0
 10
0.0
 20
0.0
 30
0.0
  3
GENAXEH
  1

  0
LINE
  5
28C
330
28B
100
AcDbEntity
  8
0
100
AcDbLine
 10
-1.0
 20
0.0
 30
0.0
 11
1.0
 21
0.0
 31
0.0
  0
ENDBLK
  5
28E
330
28B
100
AcDbEntity
  8
0
100
AcDbBlockEnd
  0
ENDSEC
  0
SECTION
  2
ENTITIES
  0
LINE
  5
56
330
1F
100
AcDbEntity
  8
1
  6
Continuous
 62
     8
 60
     1
100
AcDbLine
 10
0.0
 20
0.0
 30
0.0
 11
0.0
 21
800.0
 31
0.0
  0
LINE
  5
57
330
1F
100
AcDbEntity
  8
1
  6
Continuous
 62
     8
 60
     1
100
AcDbLine
 10
1100.0
 20
800.0
 30
0.0
 11
0.0
 21
800.0
 31
0.0
  0
LINE
  5
58
330
1F
100
AcDbEntity
  8
1
  6
Continuous
 62
     8
 60
     1
100
AcDbLine
 10
1100.0
 20
800.0
 30
0.0
 11
1100.0
 21
0.0
 31
0.0
  0
LINE
  5
59
330
1F
100
AcDbEntity
  8
1
  6
Continuous
 62
     8
 60
     1
100
AcDbLine
 10
0.0
 20
0.0
 30
0.0
 11
1100.0
 21
0.0
 31
0.0
  0
LINE
  5
5A
330
1F
100
AcDbEntity
  8
1
  6
Continuous
 62
   155
100
AcDbLine
 10
436.080396
 20
454.9493389999999
 30
0.0
 11
436.080396
 21
437.2224629999999
 31
0.0
  0
LINE
  5
5B
330
1F
100
AcDbEntity
  8
1
  6
Continuous
 62
   155
100
AcDbLine
 10
436.080396
 20
353.676215
 30
0.0
 11
436.080396
 21
335.949339
 31
0.0
  0
LINE
  5
5C
330
1F
100
AcDbEntity
  8
1
  6
Continuous
 62
   155
100
AcDbLine
 10
620.080396
 20
395.449339
 30
0.0
 11
620.080396
 21
448.4493389999999
 31
0.0
  0
LINE
  5
5D
330
1F
100
AcDbEntity
  8
1
  6
Continuous
 62
   155
370
     5
100
AcDbLine
 10
620.080396
 20
395.449339
 30
0.0
 11
589.5803959999999
 21
395.449339
 31
0.0
  0
LINE
  5
5E
330
1F
100
AcDbEntity
  8
1
  6
Continuous
 62
   155
100
AcDbLine
 10
380.580396
 20
395.449339
 30
0.0
 11
380.580396
 21
402.4493389999999
 31
0.0
  0
LINE
  5
5F
330
1F
100
AcDbEntity
  8
1
  6
Continuous
 62
   155
100
AcDbLine
 10
410.580396
 20
360.449339
 30
0.0
 11
408.0803959999999
 21
360.449339
 31
0.0
  0
LINE
  5
60
330
1F
100
AcDbEntity
  8
1
  6
Continuous
 62
   155
100
AcDbLine
 10
436.0803969999999
 20
335.949339
 30
0.0
 11
410.580396
 21
342.949339
 31
0.0
  0
LINE
  5
61
330
1F
100
AcDbEntity
  8
1
  6
Continuous
 62
   155
370
     5
100
AcDbLine
 10
408.080084
 20
395.449339
 30
0.0
 11
380.580396
 21
395.449339
 31
0.0
  0
LINE
  5
62
330
1F
100
AcDbEntity
  8
1
  6
Continuous
 62
   155
100
AcDbLine
 10
436.0803969999999
 20
454.9493389999999
 30
0.0
 11
410.580396
 21
447.949339
 31
0.0
  0
LINE
  5
63
330
1F
100
AcDbEntity
  8
1
  6
Continuous
 62
   155
100
AcDbLine
 10
443.580396
 20
337.176215
 30
0.0
 11
443.580396
 21
353.676215
 31
0.0
  0
LINE
  5
64
330
1F
100
AcDbEntity
  8
1
  6
Continuous
 62
   155
100
AcDbLine
 10
410.580396
 20
447.949339
 30
0.0
 11
410.580396
 21
342.949339
 31
0.0
  0
LINE
  5
65
330
1F
100
AcDbEntity
  8
1
  6
Continuous
 62
   155
100
AcDbLine
 10
443.580396
 20
437.2224629999999
 30
0.0
 11
443.580396
 21
453.7224629999999
 31
0.0
  0
LINE
  5
66
330
1F
100
AcDbEntity
  8
1
  6
Continuous
 62
   155
100
AcDbLine
 10
524.1803959999999
 20
503.4493389999999
 30
0.0
 11
462.980396
 21
503.4493389999999
 31
0.0
  0
LINE
  5
67
330
1F
100
AcDbEntity
  8
1
  6
Continuous
 62
   155
100
AcDbLine
 10
444.9803959999999
 20
485.449339
 30
0.0
 11
462.980396
 21
503.4493389999999
 31
0.0
  0
LINE
  5
68
330
1F
100
AcDbEntity
  8
1
  6
Continuous
 62
   155
100
AcDbLine
 10
542.180396
 20
485.449339
 30
0.0
 11
524.1803959999999
 21
503.4493389999999
 31
0.0
  0
LINE
  5
69
330
1F
100
AcDbEntity
  8
1
  6
Continuous
 62
   155
100
AcDbLine
 10
410.580396
 20
430.4493389999999
 30
0.0
 11
408.0803959999999
 21
430.4493389999999
 31
0.0
  0
LINE
  5
6A
330
1F
100
AcDbEntity
  8
1
  6
Continuous
 62
   155
100
AcDbLine
 10
408.0803959999999
 20
430.4493389999999
 30
0.0
 11
408.0803959999999
 21
360.449339
 31
0.0
  0
LINE
  5
6B
330
1F
100
AcDbEntity
  8
1
  6
Continuous
 62
   155
100
AcDbLine
 10
380.580396
 20
395.449339
 30
0.0
 11
380.580396
 21
388.449339
 31
0.0
  0
LINE
  5
6C
330
1F
100
AcDbEntity
  8
1
  6
Continuous
 62
   155
100
AcDbLine
 10
492.749342
 20
504.4493389999999
 30
0.0
 11
503.01399
 21
504.4493389999999
 31
0.0
  0
LINE
  5
6D
330
1F
100
AcDbEntity
  8
1
  6
Continuous
 62
   155
100
AcDbLine
 10
408.080084
 20
402.4493389999999
 30
0.0
 11
380.580396
 21
402.4493389999999
 31
0.0
  0
LINE
  5
6E
330
1F
100
AcDbEntity
  8
1
  6
Continuous
 62
   155
100
AcDbLine
 10
469.580396
 20
324.449339
 30
0.0
 11
445.5803959999999
 21
324.449339
 31
0.0
  0
LINE
  5
6F
330
1F
100
AcDbEntity
  8
1
  6
Continuous
 62
   155
100
AcDbLine
 10
531.5803959999999
 20
347.32317
 30
0.0
 11
469.580396
 21
347.32317
 31
0.0
  0
LINE
  5
70
330
1F
100
AcDbEntity
  8
1
  6
Continuous
 62
   155
100
AcDbLine
 10
469.580396
 20
347.32317
 30
0.0
 11
469.580396
 21
340.699339
 31
0.0
  0
LINE
  5
71
330
1F
100
AcDbEntity
  8
1
  6
Continuous
 62
   155
100
AcDbLine
 10
469.580396
 20
353.676215
 30
0.0
 11
469.580396
 21
347.32317
 31
0.0
  0
LINE
  5
72
330
1F
100
AcDbEntity
  8
1
  6
Continuous
 62
   155
100
AcDbLine
 10
531.5803959999999
 20
333.449339
 30
0.0
 11
531.5803959999999
 21
340.699339
 31
0.0
  0
LINE
  5
73
330
1F
100
AcDbEntity
  8
1
  6
Continuous
 62
   155
100
AcDbLine
 10
555.5803959999999
 20
324.449339
 30
0.0
 11
531.5803959999999
 21
324.449339
 31
0.0
  0
LINE
  5
74
330
1F
100
AcDbEntity
  8
1
  6
Continuous
 62
   155
100
AcDbLine
 10
531.5803959999999
 20
325.199339
 30
0.0
 11
531.5803959999999
 21
324.449339
 31
0.0
  0
LINE
  5
75
330
1F
100
AcDbEntity
  8
1
  6
Continuous
 62
   155
100
AcDbLine
 10
469.580396
 20
340.699339
 30
0.0
 11
469.580396
 21
333.449339
 31
0.0
  0
LINE
  5
76
330
1F
100
AcDbEntity
  8
1
  6
Continuous
 62
   155
100
AcDbLine
 10
531.5803959999999
 20
347.32317
 30
0.0
 11
531.5803959999999
 21
353.676215
 31
0.0
  0
LINE
  5
77
330
1F
100
AcDbEntity
  8
1
  6
Continuous
 62
   155
100
AcDbLine
 10
445.5803959999999
 20
324.449339
 30
0.0
 11
445.5803959999999
 21
333.449339
 31
0.0
  0
LINE
  5
78
330
1F
100
AcDbEntity
  8
1
  6
Continuous
 62
   155
100
AcDbLine
 10
561.580396
 20
353.676215
 30
0.0
 11
433.5803959999999
 21
353.676215
 31
0.0
  0
LINE
  5
79
330
1F
100
AcDbEntity
  8
1
  6
Continuous
 62
   155
100
AcDbLine
 10
469.580396
 20
333.449339
 30
0.0
 11
445.5803959999999
 21
333.449339
 31
0.0
  0
LINE
  5
7A
330
1F
100
AcDbEntity
  8
1
  6
Continuous
 62
   155
100
AcDbLine
 10
531.5803959999999
 20
340.699339
 30
0.0
 11
531.5803959999999
 21
347.32317
 31
0.0
  0
LINE
  5
7B
330
1F
100
AcDbEntity
  8
1
  6
Continuous
 62
   155
100
AcDbLine
 10
555.5803959999999
 20
333.449339
 30
0.0
 11
531.5803959999999
 21
333.449339
 31
0.0
  0
LINE
  5
7C
330
1F
100
AcDbEntity
  8
1
  6
Continuous
 62
   155
100
AcDbLine
 10
555.5803959999999
 20
324.449339
 30
0.0
 11
555.5803959999999
 21
333.449339
 31
0.0
  0
LINE
  5
7D
330
1F
100
AcDbEntity
  8
1
  6
Continuous
 62
   155
100
AcDbLine
 10
469.580396
 20
340.699339
 30
0.0
 11
531.5803959999999
 21
340.699339
 31
0.0
  0
LINE
  5
7E
330
1F
100
AcDbEntity
  8
1
  6
Continuous
 62
   155
100
AcDbLine
 10
469.580396
 20
324.449339
 30
0.0
 11
469.580396
 21
325.199339
 31
0.0
  0
LINE
  5
7F
330
1F
100
AcDbEntity
  8
1
  6
Continuous
 62
   155
100
AcDbLine
 10
469.580396
 20
325.199339
 30
0.0
 11
531.5803959999999
 21
325.199339
 31
0.0
  0
LINE
  5
80
330
1F
100
AcDbEntity
  8
1
  6
Continuous
 62
   155
100
AcDbLine
 10
380.580396
 20
388.449339
 30
0.0
 11
408.080084
 21
388.449339
 31
0.0
  0
LINE
  5
81
330
1F
100
AcDbEntity
  8
1
  6
Continuous
 62
   155
100
AcDbLine
 10
589.5803959999999
 20
331.348247
 30
0.0
 11
620.080396
 21
342.449339
 31
0.0
  0
LINE
  5
82
330
1F
100
AcDbEntity
  8
1
  6
Continuous
 62
   155
100
AcDbLine
 10
443.580396
 20
454.9493389999999
 30
0.0
 11
436.080396
 21
454.9493389999999
 31
0.0
  0
LINE
  5
83
330
1F
100
AcDbEntity
  8
1
  6
Continuous
 62
   155
100
AcDbLine
 10
436.080396
 20
335.949339
 30
0.0
 11
443.580396
 21
335.949339
 31
0.0
  0
LINE
  5
84
330
1F
100
AcDbEntity
  8
1
  6
Continuous
 62
   155
100
AcDbLine
 10
561.580396
 20
353.676215
 30
0.0
 11
561.580396
 21
337.176215
 31
0.0
  0
LINE
  5
85
330
1F
100
AcDbEntity
  8
1
  6
Continuous
 62
   155
100
AcDbLine
 10
444.9803959999999
 20
475.4493389999999
 30
0.0
 11
444.9803959999999
 21
485.449339
 31
0.0
  0
LINE
  5
86
330
1F
100
AcDbEntity
  8
1
  6
Continuous
 62
   155
100
AcDbLine
 10
542.180396
 20
475.4493389999999
 30
0.0
 11
542.180396
 21
485.449339
 31
0.0
  0
LINE
  5
87
330
1F
100
AcDbEntity
  8
1
  6
Continuous
 62
   155
100
AcDbLine
 10
589.5803959999999
 20
353.676215
 30
0.0
 11
561.580396
 21
353.676215
 31
0.0
  0
LINE
  5
88
330
1F
100
AcDbEntity
  8
1
  6
Continuous
 62
   155
100
AcDbLine
 10
469.580396
 20
337.176215
 30
0.0
 11
443.580396
 21
337.176215
 31
0.0
  0
LINE
  5
89
330
1F
100
AcDbEntity
  8
1
  6
Continuous
 62
   155
100
AcDbLine
 10
561.580396
 20
337.176215
 30
0.0
 11
531.5803959999999
 21
337.176215
 31
0.0
  0
LINE
  5
8A
330
1F
100
AcDbEntity
  8
1
  6
Continuous
 62
   155
100
AcDbLine
 10
542.180396
 20
485.449339
 30
0.0
 11
444.9803959999999
 21
485.449339
 31
0.0
  0
LINE
  5
8B
330
1F
100
AcDbEntity
  8
1
  6
Continuous
 62
   155
100
AcDbLine
 10
443.580396
 20
337.176215
 30
0.0
 11
443.580396
 21
330.449339
 31
0.0
  0
LINE
  5
8C
330
1F
100
AcDbEntity
  8
1
  6
Continuous
 62
   155
100
AcDbLine
 10
444.9803959999999
 20
475.4493389999999
 30
0.0
 11
542.180396
 21
475.4493389999999
 31
0.0
  0
LINE
  5
8D
330
1F
100
AcDbEntity
  8
1
  6
Continuous
 62
   155
100
AcDbLine
 10
589.5803959999999
 20
330.449339
 30
0.0
 11
589.5803959999999
 21
353.676215
 31
0.0
  0
LINE
  5
8E
330
1F
100
AcDbEntity
  8
1
  6
Continuous
 62
   155
100
AcDbLine
 10
492.749342
 20
503.4493389999999
 30
0.0
 11
492.749342
 21
504.4493389999999
 31
0.0
  0
LINE
  5
8F
330
1F
100
AcDbEntity
  8
1
  6
Continuous
 62
   155
100
AcDbLine
 10
482.080396
 20
504.4493389999999
 30
0.0
 11
492.345045
 21
504.4493389999999
 31
0.0
  0
LINE
  5
90
330
1F
100
AcDbEntity
  8
1
  6
Continuous
 62
   155
100
AcDbLine
 10
492.345045
 20
503.4493389999999
 30
0.0
 11
492.345045
 21
504.4493389999999
 31
0.0
  0
LINE
  5
91
330
1F
100
AcDbEntity
  8
1
  6
Continuous
 62
   155
100
AcDbLine
 10
503.01399
 20
503.4493389999999
 30
0.0
 11
503.01399
 21
504.4493389999999
 31
0.0
  0
LINE
  5
92
330
1F
100
AcDbEntity
  8
1
  6
Continuous
 62
   155
100
AcDbLine
 10
482.080396
 20
503.4493389999999
 30
0.0
 11
482.080396
 21
504.4493389999999
 31
0.0
  0
LINE
  5
93
330
1F
100
AcDbEntity
  8
1
  6
Continuous
 62
   155
100
AcDbLine
 10
443.580396
 20
460.449339
 30
0.0
 11
443.580396
 21
453.7224629999999
 31
0.0
  0
LINE
  5
94
330
1F
100
AcDbEntity
  8
1
  6
Continuous
 62
   155
100
AcDbLine
 10
620.080396
 20
395.449339
 30
0.0
 11
620.080396
 21
342.449339
 31
0.0
  0
LINE
  5
95
330
1F
100
AcDbEntity
  8
1
  6
Continuous
 62
   155
100
AcDbLine
 10
589.5803959999999
 20
437.2224629999999
 30
0.0
 11
561.580396
 21
437.2224629999999
 31
0.0
  0
LINE
  5
96
330
1F
100
AcDbEntity
  8
1
  6
Continuous
 62
   155
100
AcDbLine
 10
443.580396
 20
453.7224629999999
 30
0.0
 11
445.080396
 21
453.7224629999999
 31
0.0
  0
LINE
  5
97
330
1F
100
AcDbEntity
  8
1
  6
Continuous
 62
   155
100
AcDbLine
 10
433.5803959999999
 20
437.2224629999999
 30
0.0
 11
433.5803959999999
 21
353.676215
 31
0.0
  0
LINE
  5
98
330
1F
100
AcDbEntity
  8
1
  6
Continuous
 62
   155
100
AcDbLine
 10
589.5803959999999
 20
437.2224629999999
 30
0.0
 11
589.5803959999999
 21
460.449339
 31
0.0
  0
LINE
  5
99
330
1F
100
AcDbEntity
  8
1
  6
Continuous
 62
   155
100
AcDbLine
 10
542.0803959999999
 20
453.7224629999999
 30
0.0
 11
561.580396
 21
453.7224629999999
 31
0.0
  0
LINE
  5
9A
330
1F
100
AcDbEntity
  8
1
  6
Continuous
 62
   155
100
AcDbLine
 10
561.580396
 20
453.7224629999999
 30
0.0
 11
561.580396
 21
437.2224629999999
 31
0.0
  0
LINE
  5
9B
330
1F
100
AcDbEntity
  8
1
  6
Continuous
 62
   155
100
AcDbLine
 10
542.0803959999999
 20
475.4493389999999
 30
0.0
 11
542.0803959999999
 21
453.7224629999999
 31
0.0
  0
LINE
  5
9C
330
1F
100
AcDbEntity
  8
1
  6
Continuous
 62
   155
100
AcDbLine
 10
561.580396
 20
437.2224629999999
 30
0.0
 11
433.5803959999999
 21
437.2224629999999
 31
0.0
  0
LINE
  5
9D
330
1F
100
AcDbEntity
  8
1
  6
Continuous
 62
   155
100
AcDbLine
 10
445.080396
 20
460.449339
 30
0.0
 11
443.580396
 21
460.449339
 31
0.0
  0
LINE
  5
9E
330
1F
100
AcDbEntity
  8
1
  6
Continuous
 62
   155
100
AcDbLine
 10
589.5803959999999
 20
330.449339
 30
0.0
 11
555.5783650000001
 21
330.449339
 31
0.0
  0
LINE
  5
9F
330
1F
100
AcDbEntity
  8
1
  6
Continuous
 62
   155
100
AcDbLine
 10
445.581053
 20
330.449339
 30
0.0
 11
443.580396
 21
330.449339
 31
0.0
  0
LINE
  5
A0
330
1F
100
AcDbEntity
  8
1
  6
Continuous
 62
   155
100
AcDbLine
 10
589.5803959999999
 20
353.676215
 30
0.0
 11
589.5803959999999
 21
437.2224629999999
 31
0.0
  0
LINE
  5
A1
330
1F
100
AcDbEntity
  8
1
  6
Continuous
 62
   155
100
AcDbLine
 10
589.5803959999999
 20
460.449339
 30
0.0
 11
542.0803959999999
 21
460.449339
 31
0.0
  0
LINE
  5
A2
330
1F
100
AcDbEntity
  8
1
  6
Continuous
 62
   155
100
AcDbLine
 10
445.080396
 20
475.4493389999999
 30
0.0
 11
445.080396
 21
453.7224629999999
 31
0.0
  0
LINE
  5
A3
330
1F
100
AcDbEntity
  8
1
  6
Continuous
 62
   155
100
AcDbLine
 10
620.080396
 20
448.4493389999999
 30
0.0
 11
589.5803959999999
 21
459.5504309999999
 31
0.0
  0
LINE
  5
A4
330
1F
100
AcDbEntity
  8
1
  6
Continuous
 62
   155
100
AcDbLine
 10
262.185022
 20
333.449339
 30
0.0
 11
262.185022
 21
340.699339
 31
0.0
  0
LINE
  5
A5
330
1F
100
AcDbEntity
  8
1
  6
Continuous
 62
   155
100
AcDbLine
 10
262.185022
 20
340.699339
 30
0.0
 11
251.600991
 21
346.092172
 31
0.0
  0
LINE
  5
A6
330
1F
100
AcDbEntity
  8
1
  6
Continuous
 62
   155
100
AcDbLine
 10
259.185022
 20
353.676215
 30
0.0
 11
235.958146
 21
330.449339
 31
0.0
  0
LINE
  5
A7
330
1F
100
AcDbEntity
  8
1
  6
Continuous
 62
   155
100
AcDbLine
 10
238.185022
 20
324.449339
 30
0.0
 11
238.185022
 21
332.676215
 31
0.0
  0
LINE
  5
A8
330
1F
100
AcDbEntity
  8
1
  6
Continuous
 62
   155
100
AcDbLine
 10
238.185022
 20
324.449339
 30
0.0
 11
262.185022
 21
324.449339
 31
0.0
  0
LINE
  5
A9
330
1F
100
AcDbEntity
  8
1
  6
Continuous
 62
   155
100
AcDbLine
 10
262.185022
 20
324.449339
 30
0.0
 11
262.185022
 21
333.449339
 31
0.0
  0
LINE
  5
AA
330
1F
100
AcDbEntity
  8
1
  6
Continuous
 62
   155
370
     5
100
AcDbLine
 10
141.185022
 20
395.449339
 30
0.0
 11
130.08393
 21
395.449339
 31
0.0
  0
LINE
  5
AB
330
1F
100
AcDbEntity
  8
1
  6
Continuous
 62
   155
370
     5
100
AcDbLine
 10
214.890685
 20
503.4493389999999
 30
0.0
 11
214.890685
 21
504.4493389999999
 31
0.0
  0
LINE
  5
AC
330
1F
100
AcDbEntity
  8
1
  6
Continuous
 62
   155
100
AcDbLine
 10
213.015197
 20
504.4493389999999
 30
0.0
 11
214.890685
 21
504.4493389999999
 31
0.0
  0
LINE
  5
AD
330
1F
100
AcDbEntity
  8
1
  6
Continuous
 62
   155
100
AcDbLine
 10
213.015197
 20
503.4493389999999
 30
0.0
 11
213.015197
 21
504.4493389999999
 31
0.0
  0
LINE
  5
AE
330
1F
100
AcDbEntity
  8
1
  6
Continuous
 62
   155
100
AcDbLine
 10
206.523986
 20
503.4493389999999
 30
0.0
 11
206.523986
 21
504.4493389999999
 31
0.0
  0
LINE
  5
AF
330
1F
100
AcDbEntity
  8
1
  6
Continuous
 62
   155
100
AcDbLine
 10
221.190978
 20
503.4493389999999
 30
0.0
 11
221.190978
 21
504.4493389999999
 31
0.0
  0
LINE
  5
B0
330
1F
100
AcDbEntity
  8
1
  6
Continuous
 62
   155
100
AcDbLine
 10
224.785022
 20
503.4493389999999
 30
0.0
 11
163.585022
 21
503.4493389999999
 31
0.0
  0
LINE
  5
B1
330
1F
100
AcDbEntity
  8
1
  6
Continuous
 62
   155
100
AcDbLine
 10
212.588439
 20
503.4493389999999
 30
0.0
 11
212.588439
 21
504.4493389999999
 31
0.0
  0
LINE
  5
B2
330
1F
100
AcDbEntity
  8
1
  6
Continuous
 62
   155
100
AcDbLine
 10
242.785022
 20
485.449339
 30
0.0
 11
224.785022
 21
503.4493389999999
 31
0.0
  0
LINE
  5
B3
330
1F
100
AcDbEntity
  8
1
  6
Continuous
 62
   155
100
AcDbLine
 10
145.585022
 20
485.449339
 30
0.0
 11
163.585022
 21
503.4493389999999
 31
0.0
  0
LINE
  5
B4
330
1F
100
AcDbEntity
  8
1
  6
Continuous
 62
   155
100
AcDbLine
 10
206.523986
 20
504.4493389999999
 30
0.0
 11
212.588439
 21
504.4493389999999
 31
0.0
  0
LINE
  5
B5
330
1F
100
AcDbEntity
  8
1
  6
Continuous
 62
   155
100
AcDbLine
 10
173.079651
 20
504.4493389999999
 30
0.0
 11
174.550842
 21
504.4493389999999
 31
0.0
  0
LINE
  5
B6
330
1F
100
AcDbEntity
  8
1
  6
Continuous
 62
   155
100
AcDbLine
 10
167.846252
 20
504.4493389999999
 30
0.0
 11
173.079651
 21
504.4493389999999
 31
0.0
  0
LINE
  5
B7
330
1F
100
AcDbEntity
  8
1
  6
Continuous
 62
   155
100
AcDbLine
 10
126.185022
 20
333.449339
 30
0.0
 11
126.185022
 21
340.699339
 31
0.0
  0
LINE
  5
B8
330
1F
100
AcDbEntity
  8
1
  6
Continuous
 62
   155
100
AcDbLine
 10
150.185022
 20
324.449339
 30
0.0
 11
126.185022
 21
324.449339
 31
0.0
  0
LINE
  5
B9
330
1F
100
AcDbEntity
  8
1
  6
Continuous
 62
   155
100
AcDbLine
 10
238.958146
 20
333.449339
 30
0.0
 11
262.185022
 21
333.449339
 31
0.0
  0
LINE
  5
BA
330
1F
100
AcDbEntity
  8
1
  6
Continuous
 62
   155
100
AcDbLine
 10
150.185022
 20
324.449339
 30
0.0
 11
150.185022
 21
332.676215
 31
0.0
  0
LINE
  5
BB
330
1F
100
AcDbEntity
  8
1
  6
Continuous
 62
   155
100
AcDbLine
 10
126.185022
 20
340.699339
 30
0.0
 11
136.769053
 21
346.092172
 31
0.0
  0
LINE
  5
BC
330
1F
100
AcDbEntity
  8
1
  6
Continuous
 62
   155
100
AcDbLine
 10
126.185022
 20
324.449339
 30
0.0
 11
126.185022
 21
333.449339
 31
0.0
  0
LINE
  5
BD
330
1F
100
AcDbEntity
  8
1
  6
Continuous
 62
   155
100
AcDbLine
 10
149.411898
 20
333.449339
 30
0.0
 11
126.185022
 21
333.449339
 31
0.0
  0
LINE
  5
BE
330
1F
100
AcDbEntity
  8
1
  6
Continuous
 62
   155
100
AcDbLine
 10
242.785022
 20
475.4493389999999
 30
0.0
 11
242.785022
 21
485.449339
 31
0.0
  0
LINE
  5
BF
330
1F
100
AcDbEntity
  8
1
  6
Continuous
 62
   155
100
AcDbLine
 10
145.585022
 20
475.4493389999999
 30
0.0
 11
145.585022
 21
485.449339
 31
0.0
  0
LINE
  5
C0
330
1F
100
AcDbEntity
  8
1
  6
Continuous
 62
   155
100
AcDbLine
 10
242.785022
 20
485.449339
 30
0.0
 11
145.585022
 21
485.449339
 31
0.0
  0
LINE
  5
C1
330
1F
100
AcDbEntity
  8
1
  6
Continuous
 62
   155
100
AcDbLine
 10
145.585022
 20
475.4493389999999
 30
0.0
 11
242.785022
 21
475.4493389999999
 31
0.0
  0
LINE
  5
C2
330
1F
100
AcDbEntity
  8
1
  6
Continuous
 62
   155
100
AcDbLine
 10
152.411898
 20
330.449339
 30
0.0
 11
129.185022
 21
353.676215
 31
0.0
  0
LINE
  5
C3
330
1F
100
AcDbEntity
  8
1
  6
Continuous
 62
   155
100
AcDbLine
 10
183.546447
 20
504.4493389999999
 30
0.0
 11
188.779846
 21
504.4493389999999
 31
0.0
  0
LINE
  5
C4
330
1F
100
AcDbEntity
  8
1
  6
Continuous
 62
   155
100
AcDbLine
 10
173.079651
 20
503.4493389999999
 30
0.0
 11
173.079651
 21
504.4493389999999
 31
0.0
  0
LINE
  5
C5
330
1F
100
AcDbEntity
  8
1
  6
Continuous
 62
   155
100
AcDbLine
 10
204.884338
 20
503.4493389999999
 30
0.0
 11
204.884338
 21
504.4493389999999
 31
0.0
  0
LINE
  5
C6
330
1F
100
AcDbEntity
  8
1
  6
Continuous
 62
   155
100
AcDbLine
 10
182.075256
 20
504.4493389999999
 30
0.0
 11
183.546447
 21
504.4493389999999
 31
0.0
  0
LINE
  5
C7
330
1F
100
AcDbEntity
  8
1
  6
Continuous
 62
   155
100
AcDbLine
 10
178.110901
 20
503.4493389999999
 30
0.0
 11
178.110901
 21
504.4493389999999
 31
0.0
  0
LINE
  5
C8
330
1F
100
AcDbEntity
  8
1
  6
Continuous
 62
   155
370
     5
100
AcDbLine
 10
198.584045
 20
503.4493389999999
 30
0.0
 11
198.584045
 21
504.4493389999999
 31
0.0
  0
LINE
  5
C9
330
1F
100
AcDbEntity
  8
1
  6
Continuous
 62
   155
100
AcDbLine
 10
190.217346
 20
503.4493389999999
 30
0.0
 11
190.217346
 21
504.4493389999999
 31
0.0
  0
LINE
  5
CA
330
1F
100
AcDbEntity
  8
1
  6
Continuous
 62
   155
100
AcDbLine
 10
196.708557
 20
504.4493389999999
 30
0.0
 11
198.584045
 21
504.4493389999999
 31
0.0
  0
LINE
  5
CB
330
1F
100
AcDbEntity
  8
1
  6
Continuous
 62
   155
100
AcDbLine
 10
188.779846
 20
503.4493389999999
 30
0.0
 11
188.779846
 21
504.4493389999999
 31
0.0
  0
LINE
  5
CC
330
1F
100
AcDbEntity
  8
1
  6
Continuous
 62
   155
100
AcDbLine
 10
183.546447
 20
503.4493389999999
 30
0.0
 11
183.546447
 21
504.4493389999999
 31
0.0
  0
LINE
  5
CD
330
1F
100
AcDbEntity
  8
1
  6
Continuous
 62
   155
100
AcDbLine
 10
182.075256
 20
503.4493389999999
 30
0.0
 11
182.075256
 21
504.4493389999999
 31
0.0
  0
LINE
  5
CE
330
1F
100
AcDbEntity
  8
1
  6
Continuous
 62
   155
100
AcDbLine
 10
174.550842
 20
504.4493389999999
 30
0.0
 11
178.110901
 21
504.4493389999999
 31
0.0
  0
LINE
  5
CF
330
1F
100
AcDbEntity
  8
1
  6
Continuous
 62
   155
100
AcDbLine
 10
178.515198
 20
504.4493389999999
 30
0.0
 11
182.075256
 21
504.4493389999999
 31
0.0
  0
LINE
  5
D0
330
1F
100
AcDbEntity
  8
1
  6
Continuous
 62
   155
100
AcDbLine
 10
190.217346
 20
504.4493389999999
 30
0.0
 11
196.281799
 21
504.4493389999999
 31
0.0
  0
LINE
  5
D1
330
1F
100
AcDbEntity
  8
1
  6
Continuous
 62
   155
100
AcDbLine
 10
174.550842
 20
503.4493389999999
 30
0.0
 11
174.550842
 21
504.4493389999999
 31
0.0
  0
LINE
  5
D2
330
1F
100
AcDbEntity
  8
1
  6
Continuous
 62
   155
100
AcDbLine
 10
196.708557
 20
503.4493389999999
 30
0.0
 11
196.708557
 21
504.4493389999999
 31
0.0
  0
LINE
  5
D3
330
1F
100
AcDbEntity
  8
1
  6
Continuous
 62
   155
100
AcDbLine
 10
167.846252
 20
503.4493389999999
 30
0.0
 11
167.846252
 21
504.4493389999999
 31
0.0
  0
LINE
  5
D4
330
1F
100
AcDbEntity
  8
1
  6
Continuous
 62
   155
100
AcDbLine
 10
196.281799
 20
503.4493389999999
 30
0.0
 11
196.281799
 21
504.4493389999999
 31
0.0
  0
LINE
  5
D5
330
1F
100
AcDbEntity
  8
1
  6
Continuous
 62
   155
100
AcDbLine
 10
178.515198
 20
503.4493389999999
 30
0.0
 11
178.515198
 21
504.4493389999999
 31
0.0
  0
LINE
  5
D6
330
1F
100
AcDbEntity
  8
1
  6
Continuous
 62
   155
370
     5
100
AcDbLine
 10
247.185022
 20
395.449339
 30
0.0
 11
258.286114
 21
395.449339
 31
0.0
  0
LINE
  5
D7
330
1F
100
AcDbEntity
  8
1
  6
Continuous
 62
   155
100
AcDbLine
 10
129.185022
 20
437.2224629999999
 30
0.0
 11
152.411898
 21
460.449339
 31
0.0
  0
LINE
  5
D8
330
1F
100
AcDbEntity
  8
1
  6
Continuous
 62
   155
100
AcDbLine
 10
242.685022
 20
475.4493389999999
 30
0.0
 11
242.685022
 21
453.7224629999999
 31
0.0
  0
LINE
  5
D9
330
1F
100
AcDbEntity
  8
1
  6
Continuous
 62
   155
100
AcDbLine
 10
259.185022
 20
437.2224629999999
 30
0.0
 11
259.185022
 21
353.676215
 31
0.0
  0
LINE
  5
DA
330
1F
100
AcDbEntity
  8
1
  6
Continuous
 62
   155
100
AcDbLine
 10
145.685022
 20
475.4493389999999
 30
0.0
 11
145.685022
 21
453.7224629999999
 31
0.0
  0
LINE
  5
DB
330
1F
100
AcDbEntity
  8
1
  6
Continuous
 62
   155
100
AcDbLine
 10
152.411898
 20
460.449339
 30
0.0
 11
235.958146
 21
460.449339
 31
0.0
  0
LINE
  5
DC
330
1F
100
AcDbEntity
  8
1
  6
Continuous
 62
   155
100
AcDbLine
 10
235.958146
 20
330.449339
 30
0.0
 11
152.411898
 21
330.449339
 31
0.0
  0
LINE
  5
DD
330
1F
100
AcDbEntity
  8
1
  6
Continuous
 62
   155
100
AcDbLine
 10
235.958146
 20
460.449339
 30
0.0
 11
259.185022
 21
437.2224629999999
 31
0.0
  0
LINE
  5
DE
330
1F
100
AcDbEntity
  8
1
  6
Continuous
 62
   155
100
AcDbLine
 10
129.185022
 20
353.676215
 30
0.0
 11
129.185022
 21
437.2224629999999
 31
0.0
  0
LINE
  5
DF
330
1F
100
AcDbEntity
  8
1
  6
Continuous
 62
   155
100
AcDbLine
 10
769.5899769999999
 20
353.676215
 30
0.0
 11
745.9911889999999
 21
353.676215
 31
0.0
  0
LINE
  5
E0
330
1F
100
AcDbEntity
  8
1
  6
Continuous
 62
   155
100
AcDbLine
 10
753.5752599999999
 20
346.092145
 30
0.0
 11
745.9911889999999
 21
353.676215
 31
0.0
  0
LINE
  5
E1
330
1F
100
AcDbEntity
  8
1
  6
Continuous
 62
   155
100
AcDbLine
 10
742.9911889999999
 20
333.449339
 30
0.0
 11
766.218065
 21
333.449339
 31
0.0
  0
LINE
  5
E2
330
1F
100
AcDbEntity
  8
1
  6
Continuous
 62
   155
100
AcDbLine
 10
769.218065
 20
330.449339
 30
0.0
 11
762.4911889999999
 21
337.176215
 31
0.0
  0
LINE
  5
E3
330
1F
100
AcDbEntity
  8
1
  6
Continuous
 62
   155
100
AcDbLine
 10
742.9911889999999
 20
324.449339
 30
0.0
 11
742.9911889999999
 21
333.449339
 31
0.0
  0
LINE
  5
E4
330
1F
100
AcDbEntity
  8
1
  6
Continuous
 62
   155
100
AcDbLine
 10
755.9911889999999
 20
347.32317
 30
0.0
 11
742.9911889999999
 21
340.699339
 31
0.0
  0
LINE
  5
E5
330
1F
100
AcDbEntity
  8
1
  6
Continuous
 62
   155
100
AcDbLine
 10
755.9911889999999
 20
353.676215
 30
0.0
 11
755.9911889999999
 21
347.32317
 31
0.0
  0
LINE
  5
E6
330
1F
100
AcDbEntity
  8
1
  6
Continuous
 62
   155
100
AcDbLine
 10
742.9911889999999
 20
340.699339
 30
0.0
 11
742.9911889999999
 21
333.449339
 31
0.0
  0
LINE
  5
E7
330
1F
100
AcDbEntity
  8
1
  6
Continuous
 62
   155
100
AcDbLine
 10
742.9911889999999
 20
324.449339
 30
0.0
 11
766.9911889999999
 21
324.449339
 31
0.0
  0
LINE
  5
E8
330
1F
100
AcDbEntity
  8
1
  6
Continuous
 62
   155
100
AcDbLine
 10
766.9911889999999
 20
324.449339
 30
0.0
 11
766.9911889999999
 21
332.676215
 31
0.0
  0
LINE
  5
E9
330
1F
100
AcDbEntity
  8
1
  6
Continuous
 62
   155
370
     5
100
AcDbLine
 10
810.9911889999999
 20
335.949339
 30
0.0
 11
810.9911889999999
 21
342.949339
 31
0.0
  0
LINE
  5
EA
330
1F
100
AcDbEntity
  8
1
  6
Continuous
 62
   155
370
     5
100
AcDbLine
 10
810.9911889999999
 20
454.9493389999999
 30
0.0
 11
810.9911889999999
 21
447.949339
 31
0.0
  0
LINE
  5
EB
330
1F
100
AcDbEntity
  8
1
  6
Continuous
 62
   155
100
AcDbLine
 10
859.491189
 20
337.176215
 30
0.0
 11
859.491189
 21
353.676215
 31
0.0
  0
LINE
  5
EC
330
1F
100
AcDbEntity
  8
1
  6
Continuous
 62
   155
100
AcDbLine
 10
762.4911889999999
 20
353.676215
 30
0.0
 11
762.4911889999999
 21
337.176215
 31
0.0
  0
LINE
  5
ED
330
1F
100
AcDbEntity
  8
1
  6
Continuous
 62
   155
100
AcDbLine
 10
859.491189
 20
437.2224629999999
 30
0.0
 11
859.491189
 21
453.7224629999999
 31
0.0
  0
LINE
  5
EE
330
1F
100
AcDbEntity
  8
1
  6
Continuous
 62
   155
100
AcDbLine
 10
762.4911889999999
 20
453.7224629999999
 30
0.0
 11
762.4911889999999
 21
437.2224629999999
 31
0.0
  0
LINE
  5
EF
330
1F
100
AcDbEntity
  8
1
  6
Continuous
 62
   155
100
AcDbLine
 10
783.985234
 20
503.4493389999999
 30
0.0
 11
783.985234
 21
504.4493389999999
 31
0.0
  0
LINE
  5
F0
330
1F
100
AcDbEntity
  8
1
  6
Continuous
 62
   155
100
AcDbLine
 10
808.4676550000001
 20
503.4493389999999
 30
0.0
 11
808.4676550000001
 21
504.4493389999999
 31
0.0
  0
LINE
  5
F1
330
1F
100
AcDbEntity
  8
1
  6
Continuous
 62
   155
100
AcDbLine
 10
841.591189
 20
503.4493389999999
 30
0.0
 11
780.3911889999999
 21
503.4493389999999
 31
0.0
  0
LINE
  5
F2
330
1F
100
AcDbEntity
  8
1
  6
Continuous
 62
   155
100
AcDbLine
 10
762.3911889999999
 20
485.449339
 30
0.0
 11
780.3911889999999
 21
503.4493389999999
 31
0.0
  0
LINE
  5
F3
330
1F
100
AcDbEntity
  8
1
  6
Continuous
 62
   155
100
AcDbLine
 10
785.422733
 20
504.4493389999999
 30
0.0
 11
785.482115
 21
504.4493389999999
 31
0.0
  0
LINE
  5
F4
330
1F
100
AcDbEntity
  8
1
  6
Continuous
 62
   155
100
AcDbLine
 10
859.5911890000001
 20
485.449339
 30
0.0
 11
841.591189
 21
503.4493389999999
 31
0.0
  0
LINE
  5
F5
330
1F
100
AcDbEntity
  8
1
  6
Continuous
 62
   155
100
AcDbLine
 10
801.8753699999999
 20
503.4493389999999
 30
0.0
 11
801.8753699999999
 21
504.4493389999999
 31
0.0
  0
LINE
  5
F6
330
1F
100
AcDbEntity
  8
1
  6
Continuous
 62
   155
100
AcDbLine
 10
798.6522250000001
 20
503.4493389999999
 30
0.0
 11
798.6522250000001
 21
504.4493389999999
 31
0.0
  0
LINE
  5
F7
330
1F
100
AcDbEntity
  8
1
  6
Continuous
 62
   155
100
AcDbLine
 10
792.5877719999999
 20
503.4493389999999
 30
0.0
 11
792.5877719999999
 21
504.4493389999999
 31
0.0
  0
LINE
  5
F8
330
1F
100
AcDbEntity
  8
1
  6
Continuous
 62
   155
100
AcDbLine
 10
785.422733
 20
503.4493389999999
 30
0.0
 11
785.422733
 21
504.4493389999999
 31
0.0
  0
LINE
  5
F9
330
1F
100
AcDbEntity
  8
1
  6
Continuous
 62
   155
370
     5
100
AcDbLine
 10
806.5921669999999
 20
503.4493389999999
 30
0.0
 11
806.5921669999999
 21
504.4493389999999
 31
0.0
  0
LINE
  5
FA
330
1F
100
AcDbEntity
  8
1
  6
Continuous
 62
   155
100
AcDbLine
 10
792.5877719999999
 20
504.4493389999999
 30
0.0
 11
798.6522250000001
 21
504.4493389999999
 31
0.0
  0
LINE
  5
FB
330
1F
100
AcDbEntity
  8
1
  6
Continuous
 62
   155
100
AcDbLine
 10
806.5921669999999
 20
504.4493389999999
 30
0.0
 11
808.4676550000001
 21
504.4493389999999
 31
0.0
  0
LINE
  5
FC
330
1F
100
AcDbEntity
  8
1
  6
Continuous
 62
   155
370
     5
100
AcDbLine
 10
790.2855259999999
 20
503.4493389999999
 30
0.0
 11
790.2855259999999
 21
504.4493389999999
 31
0.0
  0
LINE
  5
FD
330
1F
100
AcDbEntity
  8
1
  6
Continuous
 62
   155
100
AcDbLine
 10
785.5687299999999
 20
503.4493389999999
 30
0.0
 11
785.5687299999999
 21
504.4493389999999
 31
0.0
  0
LINE
  5
FE
330
1F
100
AcDbEntity
  8
1
  6
Continuous
 62
   155
100
AcDbLine
 10
833.5901790000001
 20
504.4493389999999
 30
0.0
 11
833.736209
 21
504.4493389999999
 31
0.0
  0
LINE
  5
FF
330
1F
100
AcDbEntity
  8
1
  6
Continuous
 62
   155
100
AcDbLine
 10
790.2855259999999
 20
504.4493389999999
 30
0.0
 11
792.161015
 21
504.4493389999999
 31
0.0
  0
LINE
  5
100
330
1F
100
AcDbEntity
  8
1
  6
Continuous
 62
   155
100
AcDbLine
 10
792.161015
 20
503.4493389999999
 30
0.0
 11
792.161015
 21
504.4493389999999
 31
0.0
  0
LINE
  5
101
330
1F
100
AcDbEntity
  8
1
  6
Continuous
 62
   155
100
AcDbLine
 10
833.736209
 20
504.4493389999999
 30
0.0
 11
837.329959
 21
504.4493389999999
 31
0.0
  0
LINE
  5
102
330
1F
100
AcDbEntity
  8
1
  6
Continuous
 62
   155
100
AcDbLine
 10
865.9911890000001
 20
347.32317
 30
0.0
 11
878.991189
 21
340.699339
 31
0.0
  0
LINE
  5
103
330
1F
100
AcDbEntity
  8
1
  6
Continuous
 62
   155
100
AcDbLine
 10
865.9911890000001
 20
353.676215
 30
0.0
 11
865.9911890000001
 21
347.32317
 31
0.0
  0
LINE
  5
104
330
1F
100
AcDbEntity
  8
1
  6
Continuous
 62
   155
100
AcDbLine
 10
878.991189
 20
333.449339
 30
0.0
 11
855.764313
 21
333.449339
 31
0.0
  0
LINE
  5
105
330
1F
100
AcDbEntity
  8
1
  6
Continuous
 62
   155
100
AcDbLine
 10
878.991189
 20
340.699339
 30
0.0
 11
878.991189
 21
333.449339
 31
0.0
  0
LINE
  5
106
330
1F
100
AcDbEntity
  8
1
  6
Continuous
 62
   155
100
AcDbLine
 10
878.991189
 20
324.449339
 30
0.0
 11
878.991189
 21
333.449339
 31
0.0
  0
LINE
  5
107
330
1F
100
AcDbEntity
  8
1
  6
Continuous
 62
   155
100
AcDbLine
 10
854.991189
 20
324.449339
 30
0.0
 11
854.991189
 21
332.676215
 31
0.0
  0
LINE
  5
108
330
1F
100
AcDbEntity
  8
1
  6
Continuous
 62
   155
100
AcDbLine
 10
875.9911890000001
 20
353.676215
 30
0.0
 11
852.3924019999999
 21
353.676215
 31
0.0
  0
LINE
  5
109
330
1F
100
AcDbEntity
  8
1
  6
Continuous
 62
   155
100
AcDbLine
 10
878.991189
 20
324.449339
 30
0.0
 11
854.991189
 21
324.449339
 31
0.0
  0
LINE
  5
10A
330
1F
100
AcDbEntity
  8
1
  6
Continuous
 62
   155
100
AcDbLine
 10
852.3924019999999
 20
437.2224629999999
 30
0.0
 11
875.9911890000001
 21
437.2224629999999
 31
0.0
  0
LINE
  5
10B
330
1F
100
AcDbEntity
  8
1
  6
Continuous
 62
   155
100
AcDbLine
 10
875.9911890000001
 20
353.676215
 30
0.0
 11
868.4071189999999
 21
346.092145
 31
0.0
  0
LINE
  5
10C
330
1F
100
AcDbEntity
  8
1
  6
Continuous
 62
   155
100
AcDbLine
 10
859.5911890000001
 20
475.4493389999999
 30
0.0
 11
859.5911890000001
 21
485.449339
 31
0.0
  0
LINE
  5
10D
330
1F
100
AcDbEntity
  8
1
  6
Continuous
 62
   155
100
AcDbLine
 10
762.3911889999999
 20
475.4493389999999
 30
0.0
 11
762.3911889999999
 21
485.449339
 31
0.0
  0
LINE
  5
10E
330
1F
100
AcDbEntity
  8
1
  6
Continuous
 62
   155
100
AcDbLine
 10
762.3911889999999
 20
475.4493389999999
 30
0.0
 11
859.5911890000001
 21
475.4493389999999
 31
0.0
  0
LINE
  5
10F
330
1F
100
AcDbEntity
  8
1
  6
Continuous
 62
   155
100
AcDbLine
 10
859.5911890000001
 20
485.449339
 30
0.0
 11
762.3911889999999
 21
485.449339
 31
0.0
  0
LINE
  5
110
330
1F
100
AcDbEntity
  8
1
  6
Continuous
 62
   155
100
AcDbLine
 10
859.491189
 20
337.176215
 30
0.0
 11
852.7643130000001
 21
330.449339
 31
0.0
  0
LINE
  5
111
330
1F
100
AcDbEntity
  8
1
  6
Continuous
 62
   155
100
AcDbLine
 10
801.7293739999999
 20
504.4493389999999
 30
0.0
 11
801.7887550000001
 21
504.4493389999999
 31
0.0
  0
LINE
  5
112
330
1F
100
AcDbEntity
  8
1
  6
Continuous
 62
   155
100
AcDbLine
 10
823.729862
 20
503.4493389999999
 30
0.0
 11
823.729862
 21
504.4493389999999
 31
0.0
  0
LINE
  5
113
330
1F
100
AcDbEntity
  8
1
  6
Continuous
 62
   155
100
AcDbLine
 10
816.396366
 20
504.4493389999999
 30
0.0
 11
819.9901160000001
 21
504.4493389999999
 31
0.0
  0
LINE
  5
114
330
1F
100
AcDbEntity
  8
1
  6
Continuous
 62
   155
100
AcDbLine
 10
827.0653110000001
 20
504.4493389999999
 30
0.0
 11
829.9964629999999
 21
504.4493389999999
 31
0.0
  0
LINE
  5
115
330
1F
100
AcDbEntity
  8
1
  6
Continuous
 62
   155
100
AcDbLine
 10
823.729862
 20
504.4493389999999
 30
0.0
 11
826.661014
 21
504.4493389999999
 31
0.0
  0
LINE
  5
116
330
1F
100
AcDbEntity
  8
1
  6
Continuous
 62
   155
100
AcDbLine
 10
800.291874
 20
503.4493389999999
 30
0.0
 11
800.291874
 21
504.4493389999999
 31
0.0
  0
LINE
  5
117
330
1F
100
AcDbEntity
  8
1
  6
Continuous
 62
   155
100
AcDbLine
 10
819.9901160000001
 20
503.4493389999999
 30
0.0
 11
819.9901160000001
 21
504.4493389999999
 31
0.0
  0
LINE
  5
118
330
1F
100
AcDbEntity
  8
1
  6
Continuous
 62
   155
100
AcDbLine
 10
801.7293739999999
 20
503.4493389999999
 30
0.0
 11
801.7293739999999
 21
504.4493389999999
 31
0.0
  0
LINE
  5
119
330
1F
100
AcDbEntity
  8
1
  6
Continuous
 62
   155
100
AcDbLine
 10
816.396366
 20
503.4493389999999
 30
0.0
 11
816.396366
 21
504.4493389999999
 31
0.0
  0
LINE
  5
11A
330
1F
100
AcDbEntity
  8
1
  6
Continuous
 62
   155
100
AcDbLine
 10
808.8944129999999
 20
504.4493389999999
 30
0.0
 11
814.958866
 21
504.4493389999999
 31
0.0
  0
LINE
  5
11B
330
1F
100
AcDbEntity
  8
1
  6
Continuous
 62
   155
100
AcDbLine
 10
833.736209
 20
503.4493389999999
 30
0.0
 11
833.736209
 21
504.4493389999999
 31
0.0
  0
LINE
  5
11C
330
1F
100
AcDbEntity
  8
1
  6
Continuous
 62
   155
100
AcDbLine
 10
829.9964629999999
 20
504.4493389999999
 30
0.0
 11
833.5902129999999
 21
504.4493389999999
 31
0.0
  0
LINE
  5
11D
330
1F
100
AcDbEntity
  8
1
  6
Continuous
 62
   155
100
AcDbLine
 10
820.1361119999999
 20
504.4493389999999
 30
0.0
 11
823.729862
 21
504.4493389999999
 31
0.0
  0
LINE
  5
11E
330
1F
100
AcDbEntity
  8
1
  6
Continuous
 62
   155
100
AcDbLine
 10
820.1361119999999
 20
503.4493389999999
 30
0.0
 11
820.1361119999999
 21
504.4493389999999
 31
0.0
  0
LINE
  5
11F
330
1F
100
AcDbEntity
  8
1
  6
Continuous
 62
   155
100
AcDbLine
 10
819.9901160000001
 20
504.4493389999999
 30
0.0
 11
820.1361459999999
 21
504.4493389999999
 31
0.0
  0
LINE
  5
120
330
1F
100
AcDbEntity
  8
1
  6
Continuous
 62
   155
100
AcDbLine
 10
833.5902129999999
 20
503.4493389999999
 30
0.0
 11
833.5902129999999
 21
504.4493389999999
 31
0.0
  0
LINE
  5
121
330
1F
100
AcDbEntity
  8
1
  6
Continuous
 62
   155
100
AcDbLine
 10
827.0653110000001
 20
503.4493389999999
 30
0.0
 11
827.0653110000001
 21
504.4493389999999
 31
0.0
  0
LINE
  5
122
330
1F
100
AcDbEntity
  8
1
  6
Continuous
 62
   155
100
AcDbLine
 10
837.329959
 20
503.4493389999999
 30
0.0
 11
837.329959
 21
504.4493389999999
 31
0.0
  0
LINE
  5
123
330
1F
100
AcDbEntity
  8
1
  6
Continuous
 62
   155
100
AcDbLine
 10
829.9964629999999
 20
503.4493389999999
 30
0.0
 11
829.9964629999999
 21
504.4493389999999
 31
0.0
  0
LINE
  5
124
330
1F
100
AcDbEntity
  8
1
  6
Continuous
 62
   155
100
AcDbLine
 10
808.8944129999999
 20
503.4493389999999
 30
0.0
 11
808.8944129999999
 21
504.4493389999999
 31
0.0
  0
LINE
  5
125
330
1F
100
AcDbEntity
  8
1
  6
Continuous
 62
   155
100
AcDbLine
 10
826.661014
 20
503.4493389999999
 30
0.0
 11
826.661014
 21
504.4493389999999
 31
0.0
  0
LINE
  5
126
330
1F
100
AcDbEntity
  8
1
  6
Continuous
 62
   155
100
AcDbLine
 10
814.958866
 20
503.4493389999999
 30
0.0
 11
814.958866
 21
504.4493389999999
 31
0.0
  0
LINE
  5
127
330
1F
100
AcDbEntity
  8
1
  6
Continuous
 62
   155
100
AcDbLine
 10
852.7643130000001
 20
460.449339
 30
0.0
 11
859.491189
 21
453.7224629999999
 31
0.0
  0
LINE
  5
128
330
1F
100
AcDbEntity
  8
1
  6
Continuous
 62
   155
100
AcDbLine
 10
762.4911889999999
 20
453.7224629999999
 30
0.0
 11
769.218065
 21
460.449339
 31
0.0
  0
LINE
  5
129
330
1F
100
AcDbEntity
  8
1
  6
Continuous
 62
   155
100
AcDbLine
 10
745.9911889999999
 20
437.2224629999999
 30
0.0
 11
762.4911889999999
 21
453.7224629999999
 31
0.0
  0
LINE
  5
12A
330
1F
100
AcDbEntity
  8
1
  6
Continuous
 62
   155
100
AcDbLine
 10
852.7643130000001
 20
330.449339
 30
0.0
 11
769.218065
 21
330.449339
 31
0.0
  0
LINE
  5
12B
330
1F
100
AcDbEntity
  8
1
  6
Continuous
 62
   155
100
AcDbLine
 10
745.9911889999999
 20
353.676215
 30
0.0
 11
745.9911889999999
 21
437.2224629999999
 31
0.0
  0
LINE
  5
12C
330
1F
100
AcDbEntity
  8
1
  6
Continuous
 62
   155
100
AcDbLine
 10
875.9911890000001
 20
437.2224629999999
 30
0.0
 11
875.9911890000001
 21
353.676215
 31
0.0
  0
LINE
  5
12D
330
1F
100
AcDbEntity
  8
1
  6
Continuous
 62
   155
100
AcDbLine
 10
762.4911889999999
 20
475.4493389999999
 30
0.0
 11
762.4911889999999
 21
453.7224629999999
 31
0.0
  0
LINE
  5
12E
330
1F
100
AcDbEntity
  8
1
  6
Continuous
 62
   155
100
AcDbLine
 10
769.218065
 20
460.449339
 30
0.0
 11
852.7643130000001
 21
460.449339
 31
0.0
  0
LINE
  5
12F
330
1F
100
AcDbEntity
  8
1
  6
Continuous
 62
   155
100
AcDbLine
 10
859.491189
 20
453.7224629999999
 30
0.0
 11
875.9911890000001
 21
437.2224629999999
 31
0.0
  0
LINE
  5
130
330
1F
100
AcDbEntity
  8
1
  6
Continuous
 62
   155
100
AcDbLine
 10
745.9911889999999
 20
437.2224629999999
 30
0.0
 11
769.5899769999999
 21
437.2224629999999
 31
0.0
  0
LINE
  5
131
330
1F
100
AcDbEntity
  8
1
  6
Continuous
 62
   155
100
AcDbLine
 10
859.491189
 20
475.4493389999999
 30
0.0
 11
859.491189
 21
453.7224629999999
 31
0.0
  0
LINE
  5
132
330
1F
100
AcDbEntity
  8
1
  6
Continuous
 62
   155
100
AcDbLine
 10
531.5803959999999
 20
209.718062
 30
0.0
 11
531.5803959999999
 21
206.717905
 31
0.0
  0
LINE
  5
133
330
1F
100
AcDbEntity
  8
1
  6
Continuous
 62
   155
100
AcDbLine
 10
445.5803959999999
 20
209.718062
 30
0.0
 11
445.5803959999999
 21
206.717803
 31
0.0
  0
LINE
  5
134
330
1F
100
AcDbEntity
  8
1
  6
Continuous
 62
   155
100
AcDbLine
 10
469.580396
 20
209.718062
 30
0.0
 11
445.5803959999999
 21
209.718062
 31
0.0
  0
LINE
  5
135
330
1F
100
AcDbEntity
  8
1
  6
Continuous
 62
   155
100
AcDbLine
 10
443.580396
 20
184.088524
 30
0.0
 11
436.080396
 21
184.088524
 31
0.0
  0
LINE
  5
136
330
1F
100
AcDbEntity
  8
1
  6
Continuous
 62
   155
100
AcDbLine
 10
436.080396
 20
141.718062
 30
0.0
 11
436.080396
 21
99.34759900000001
 31
0.0
  0
LINE
  5
137
330
1F
100
AcDbEntity
  8
1
  6
Continuous
 62
   155
100
AcDbLine
 10
436.080396
 20
184.088524
 30
0.0
 11
436.080396
 21
141.718062
 31
0.0
  0
LINE
  5
138
330
1F
100
AcDbEntity
  8
1
  6
Continuous
 62
   155
100
AcDbLine
 10
469.580396
 20
209.718062
 30
0.0
 11
531.5803959999999
 21
209.718062
 31
0.0
  0
LINE
  5
139
330
1F
100
AcDbEntity
  8
1
  6
Continuous
 62
   155
100
AcDbLine
 10
469.580396
 20
206.717905
 30
0.0
 11
469.580396
 21
209.718062
 31
0.0
  0
LINE
  5
13A
330
1F
100
AcDbEntity
  8
1
  6
Continuous
 62
   155
100
AcDbLine
 10
620.080396
 20
88.71806199999999
 30
0.0
 11
620.080396
 21
194.718062
 31
0.0
  0
LINE
  5
13B
330
1F
100
AcDbEntity
  8
1
  6
Continuous
 62
   155
100
AcDbLine
 10
620.080396
 20
88.71806199999999
 30
0.0
 11
589.5803959999999
 21
77.61696999999999
 31
0.0
  0
LINE
  5
13C
330
1F
100
AcDbEntity
  8
1
  6
Continuous
 62
   155
100
AcDbLine
 10
408.0803959999999
 20
141.718062
 30
0.0
 11
408.0803959999999
 21
176.718062
 31
0.0
  0
LINE
  5
13D
330
1F
100
AcDbEntity
  8
1
  6
Continuous
 62
   155
100
AcDbLine
 10
380.580396
 20
148.718062
 30
0.0
 11
380.580396
 21
134.718062
 31
0.0
  0
LINE
  5
13E
330
1F
100
AcDbEntity
  8
1
  6
Continuous
 62
   155
100
AcDbLine
 10
408.080084
 20
134.718062
 30
0.0
 11
380.580396
 21
134.718062
 31
0.0
  0
LINE
  5
13F
330
1F
100
AcDbEntity
  8
1
  6
Continuous
 62
   155
100
AcDbLine
 10
410.580396
 20
141.718062
 30
0.0
 11
410.580396
 21
194.218062
 31
0.0
  0
LINE
  5
140
330
1F
100
AcDbEntity
  8
1
  6
Continuous
 62
   155
370
     5
100
AcDbLine
 10
436.0803969999999
 20
141.718062
 30
0.0
 11
410.580396
 21
141.718062
 31
0.0
  0
LINE
  5
141
330
1F
100
AcDbEntity
  8
1
  6
Continuous
 62
   155
100
AcDbLine
 10
436.080396
 20
99.34759900000001
 30
0.0
 11
443.580396
 21
99.34759900000001
 31
0.0
  0
LINE
  5
142
330
1F
100
AcDbEntity
  8
1
  6
Continuous
 62
   155
100
AcDbLine
 10
410.580396
 20
141.718062
 30
0.0
 11
410.580396
 21
89.218062
 31
0.0
  0
LINE
  5
143
330
1F
100
AcDbEntity
  8
1
  6
Continuous
 62
   155
100
AcDbLine
 10
509.078444
 20
133.1458929999999
 30
0.0
 11
510.953932
 21
133.1458929999999
 31
0.0
  0
LINE
  5
144
330
1F
100
AcDbEntity
  8
1
  6
Continuous
 62
   155
100
AcDbLine
 10
492.771803
 20
154.079487
 30
0.0
 11
492.771803
 21
143.814838
 31
0.0
  0
LINE
  5
145
330
1F
100
AcDbEntity
  8
1
  6
Continuous
 62
   155
100
AcDbLine
 10
524.1803959999999
 20
172.318062
 30
0.0
 11
524.1803959999999
 21
111.118062
 31
0.0
  0
LINE
  5
146
330
1F
100
AcDbEntity
  8
1
  6
Continuous
 62
   155
100
AcDbLine
 10
524.1803959999999
 20
111.118062
 30
0.0
 11
462.980396
 21
111.118062
 31
0.0
  0
LINE
  5
147
330
1F
100
AcDbEntity
  8
1
  6
Continuous
 62
   155
100
AcDbLine
 10
462.980396
 20
111.118062
 30
0.0
 11
462.980396
 21
172.318062
 31
0.0
  0
LINE
  5
148
330
1F
100
AcDbEntity
  8
1
  6
Continuous
 62
   155
100
AcDbLine
 10
542.180396
 20
190.318062
 30
0.0
 11
524.1803959999999
 21
172.318062
 31
0.0
  0
LINE
  5
149
330
1F
100
AcDbEntity
  8
1
  6
Continuous
 62
   155
100
AcDbLine
 10
444.9803959999999
 20
190.318062
 30
0.0
 11
462.980396
 21
172.318062
 31
0.0
  0
LINE
  5
14A
330
1F
100
AcDbEntity
  8
1
  6
Continuous
 62
   155
100
AcDbLine
 10
502.5872330000001
 20
154.079487
 30
0.0
 11
502.5872330000001
 21
143.814838
 31
0.0
  0
LINE
  5
14B
330
1F
100
AcDbEntity
  8
1
  6
Continuous
 62
   155
100
AcDbLine
 10
515.8167249999999
 20
143.4105409999999
 30
0.0
 11
509.078444
 21
143.4105409999999
 31
0.0
  0
LINE
  5
14C
330
1F
100
AcDbEntity
  8
1
  6
Continuous
 62
   155
100
AcDbLine
 10
444.9803959999999
 20
93.11806199999999
 30
0.0
 11
462.980396
 21
111.118062
 31
0.0
  0
LINE
  5
14D
330
1F
100
AcDbEntity
  8
1
  6
Continuous
 62
   155
100
AcDbLine
 10
542.180396
 20
93.11806199999999
 30
0.0
 11
524.1803959999999
 21
111.118062
 31
0.0
  0
LINE
  5
14E
330
1F
100
AcDbEntity
  8
1
  6
Continuous
 62
   155
100
AcDbLine
 10
502.5872330000001
 20
133.145893
 30
0.0
 11
508.651686
 21
133.1458929999999
 31
0.0
  0
LINE
  5
14F
330
1F
100
AcDbEntity
  8
1
  6
Continuous
 62
   155
100
AcDbLine
 10
502.5872330000001
 20
143.814838
 30
0.0
 11
508.651686
 21
143.8148379999999
 31
0.0
  0
LINE
  5
150
330
1F
100
AcDbEntity
  8
1
  6
Continuous
 62
   155
100
AcDbLine
 10
502.5872330000001
 20
143.410541
 30
0.0
 11
502.5872330000001
 21
133.145893
 31
0.0
  0
LINE
  5
151
330
1F
100
AcDbEntity
  8
1
  6
Continuous
 62
   155
100
AcDbLine
 10
492.771803
 20
143.814838
 30
0.0
 11
499.128248
 21
143.814838
 31
0.0
  0
LINE
  5
152
330
1F
100
AcDbEntity
  8
1
  6
Continuous
 62
   155
100
AcDbLine
 10
509.078444
 20
143.4105409999999
 30
0.0
 11
509.078444
 21
133.1458929999999
 31
0.0
  0
LINE
  5
153
330
1F
100
AcDbEntity
  8
1
  6
Continuous
 62
   155
100
AcDbLine
 10
508.651686
 20
143.8148379999999
 30
0.0
 11
508.651686
 21
154.079487
 31
0.0
  0
LINE
  5
154
330
1F
100
AcDbEntity
  8
1
  6
Continuous
 62
   155
100
AcDbLine
 10
508.651686
 20
133.1458929999999
 30
0.0
 11
508.651686
 21
143.4105409999999
 31
0.0
  0
LINE
  5
155
330
1F
100
AcDbEntity
  8
1
  6
Continuous
 62
   155
100
AcDbLine
 10
508.651686
 20
154.079487
 30
0.0
 11
502.5872330000001
 21
154.079487
 31
0.0
  0
LINE
  5
156
330
1F
100
AcDbEntity
  8
1
  6
Continuous
 62
   155
100
AcDbLine
 10
462.980396
 20
172.318062
 30
0.0
 11
524.1803959999999
 21
172.318062
 31
0.0
  0
LINE
  5
157
330
1F
100
AcDbEntity
  8
1
  6
Continuous
 62
   155
100
AcDbLine
 10
494.647291
 20
154.079487
 30
0.0
 11
492.771803
 21
154.079487
 31
0.0
  0
LINE
  5
158
330
1F
100
AcDbEntity
  8
1
  6
Continuous
 62
   155
100
AcDbLine
 10
508.651686
 20
143.4105409999999
 30
0.0
 11
502.5872330000001
 21
143.410541
 31
0.0
  0
LINE
  5
159
330
1F
100
AcDbEntity
  8
1
  6
Continuous
 62
   155
370
     5
100
AcDbLine
 10
410.580396
 20
141.718062
 30
0.0
 11
408.0803959999999
 21
141.718062
 31
0.0
  0
LINE
  5
15A
330
1F
100
AcDbEntity
  8
1
  6
Continuous
 62
   155
100
AcDbLine
 10
408.0803959999999
 20
141.718062
 30
0.0
 11
408.0803959999999
 21
106.718062
 31
0.0
  0
LINE
  5
15B
330
1F
100
AcDbEntity
  8
1
  6
Continuous
 62
   155
100
AcDbLine
 10
469.142897
 20
133.145893
 30
0.0
 11
470.614089
 21
137.346088
 31
0.0
  0
LINE
  5
15C
330
1F
100
AcDbEntity
  8
1
  6
Continuous
 62
   155
100
AcDbLine
 10
474.174147
 20
143.410541
 30
0.0
 11
467.503249
 21
143.410541
 31
0.0
  0
LINE
  5
15D
330
1F
100
AcDbEntity
  8
1
  6
Continuous
 62
   155
100
AcDbLine
 10
463.909499
 20
133.145893
 30
0.0
 11
469.142897
 21
133.145893
 31
0.0
  0
LINE
  5
15E
330
1F
100
AcDbEntity
  8
1
  6
Continuous
 62
   155
100
AcDbLine
 10
509.078444
 20
154.079487
 30
0.0
 11
509.078444
 21
143.8148379999999
 31
0.0
  0
LINE
  5
15F
330
1F
100
AcDbEntity
  8
1
  6
Continuous
 62
   155
100
AcDbLine
 10
510.953932
 20
154.079487
 30
0.0
 11
509.078444
 21
154.079487
 31
0.0
  0
LINE
  5
160
330
1F
100
AcDbEntity
  8
1
  6
Continuous
 62
   155
100
AcDbLine
 10
408.080084
 20
148.718062
 30
0.0
 11
380.580396
 21
148.718062
 31
0.0
  0
LINE
  5
161
330
1F
100
AcDbEntity
  8
1
  6
Continuous
 62
   155
100
AcDbLine
 10
509.078444
 20
143.8148379999999
 30
0.0
 11
515.4348890000001
 21
143.8148379999999
 31
0.0
  0
LINE
  5
162
330
1F
100
AcDbEntity
  8
1
  6
Continuous
 62
   155
100
AcDbLine
 10
467.503249
 20
143.410541
 30
0.0
 11
463.909499
 21
133.145893
 31
0.0
  0
LINE
  5
163
330
1F
100
AcDbEntity
  8
1
  6
Continuous
 62
   155
100
AcDbLine
 10
469.580396
 20
76.718218
 30
0.0
 11
469.580396
 21
73.718062
 31
0.0
  0
LINE
  5
164
330
1F
100
AcDbEntity
  8
1
  6
Continuous
 62
   155
100
AcDbLine
 10
445.5803959999999
 20
73.718062
 30
0.0
 11
445.5803959999999
 21
76.718321
 31
0.0
  0
LINE
  5
165
330
1F
100
AcDbEntity
  8
1
  6
Continuous
 62
   155
100
AcDbLine
 10
555.5803959999999
 20
206.717803
 30
0.0
 11
555.5803959999999
 21
209.718062
 31
0.0
  0
LINE
  5
166
330
1F
100
AcDbEntity
  8
1
  6
Continuous
 62
   155
100
AcDbLine
 10
469.580396
 20
73.718062
 30
0.0
 11
445.5803959999999
 21
73.718062
 31
0.0
  0
LINE
  5
167
330
1F
100
AcDbEntity
  8
1
  6
Continuous
 62
   155
100
AcDbLine
 10
531.5803959999999
 20
73.718062
 30
0.0
 11
531.5803959999999
 21
76.718218
 31
0.0
  0
LINE
  5
168
330
1F
100
AcDbEntity
  8
1
  6
Continuous
 62
   155
100
AcDbLine
 10
555.5803959999999
 20
73.718062
 30
0.0
 11
531.5803959999999
 21
73.718062
 31
0.0
  0
LINE
  5
169
330
1F
100
AcDbEntity
  8
1
  6
Continuous
 62
   155
100
AcDbLine
 10
469.580396
 20
73.718062
 30
0.0
 11
531.5803959999999
 21
73.718062
 31
0.0
  0
LINE
  5
16A
330
1F
100
AcDbEntity
  8
1
  6
Continuous
 62
   155
100
AcDbLine
 10
555.5803959999999
 20
76.718321
 30
0.0
 11
555.5803959999999
 21
73.718062
 31
0.0
  0
LINE
  5
16B
330
1F
100
AcDbEntity
  8
1
  6
Continuous
 62
   155
100
AcDbLine
 10
555.5803959999999
 20
209.718062
 30
0.0
 11
531.5803959999999
 21
209.718062
 31
0.0
  0
LINE
  5
16C
330
1F
100
AcDbEntity
  8
1
  6
Continuous
 62
   155
100
AcDbLine
 10
433.5803959999999
 20
100.316849
 30
0.0
 11
433.5803959999999
 21
76.718062
 31
0.0
  0
LINE
  5
16D
330
1F
100
AcDbEntity
  8
1
  6
Continuous
 62
   155
100
AcDbLine
 10
410.580396
 20
89.218062
 30
0.0
 11
433.5803959999999
 21
82.904336
 31
0.0
  0
LINE
  5
16E
330
1F
100
AcDbEntity
  8
1
  6
Continuous
 62
   155
100
AcDbLine
 10
410.580396
 20
176.718062
 30
0.0
 11
408.0803959999999
 21
176.718062
 31
0.0
  0
LINE
  5
16F
330
1F
100
AcDbEntity
  8
1
  6
Continuous
 62
   155
100
AcDbLine
 10
433.5803959999999
 20
200.531787
 30
0.0
 11
410.580396
 21
194.218062
 31
0.0
  0
LINE
  5
170
330
1F
100
AcDbEntity
  8
1
  6
Continuous
 62
   155
100
AcDbLine
 10
408.0803959999999
 20
106.718062
 30
0.0
 11
410.580396
 21
106.718062
 31
0.0
  0
LINE
  5
171
330
1F
100
AcDbEntity
  8
1
  6
Continuous
 62
   155
100
AcDbLine
 10
444.9803959999999
 20
190.318062
 30
0.0
 11
542.180396
 21
190.318062
 31
0.0
  0
LINE
  5
172
330
1F
100
AcDbEntity
  8
1
  6
Continuous
 62
   155
100
AcDbLine
 10
542.180396
 20
190.318062
 30
0.0
 11
542.180396
 21
93.11806199999999
 31
0.0
  0
LINE
  5
173
330
1F
100
AcDbEntity
  8
1
  6
Continuous
 62
   155
100
AcDbLine
 10
444.9803959999999
 20
93.11806199999999
 30
0.0
 11
444.9803959999999
 21
190.318062
 31
0.0
  0
LINE
  5
174
330
1F
100
AcDbEntity
  8
1
  6
Continuous
 62
   155
100
AcDbLine
 10
542.180396
 20
93.11806199999999
 30
0.0
 11
444.9803959999999
 21
93.11806199999999
 31
0.0
  0
LINE
  5
175
330
1F
100
AcDbEntity
  8
1
  6
Continuous
 62
   155
100
AcDbLine
 10
499.510084
 20
143.410541
 30
0.0
 11
492.771803
 21
143.410541
 31
0.0
  0
LINE
  5
176
330
1F
100
AcDbEntity
  8
1
  6
Continuous
 62
   155
100
AcDbLine
 10
484.8430920000001
 20
133.145893
 30
0.0
 11
481.249343
 21
143.410541
 31
0.0
  0
LINE
  5
177
330
1F
100
AcDbEntity
  8
1
  6
Continuous
 62
   155
100
AcDbLine
 10
479.609694
 20
133.145893
 30
0.0
 11
484.8430920000001
 21
133.145893
 31
0.0
  0
LINE
  5
178
330
1F
100
AcDbEntity
  8
1
  6
Continuous
 62
   155
100
AcDbLine
 10
474.174147
 20
154.079487
 30
0.0
 11
471.242995
 21
154.079487
 31
0.0
  0
LINE
  5
179
330
1F
100
AcDbEntity
  8
1
  6
Continuous
 62
   155
100
AcDbLine
 10
477.509597
 20
154.079487
 30
0.0
 11
474.578444
 21
154.079487
 31
0.0
  0
LINE
  5
17A
330
1F
100
AcDbEntity
  8
1
  6
Continuous
 62
   155
100
AcDbLine
 10
478.138503
 20
137.346088
 30
0.0
 11
479.609694
 21
133.145893
 31
0.0
  0
LINE
  5
17B
330
1F
100
AcDbEntity
  8
1
  6
Continuous
 62
   155
100
AcDbLine
 10
474.578444
 20
143.410541
 30
0.0
 11
474.578444
 21
137.346088
 31
0.0
  0
LINE
  5
17C
330
1F
100
AcDbEntity
  8
1
  6
Continuous
 62
   155
100
AcDbLine
 10
467.649245
 20
143.814838
 30
0.0
 11
474.174147
 21
143.814838
 31
0.0
  0
LINE
  5
17D
330
1F
100
AcDbEntity
  8
1
  6
Continuous
 62
   155
100
AcDbLine
 10
492.771803
 20
133.145893
 30
0.0
 11
494.647291
 21
133.145893
 31
0.0
  0
LINE
  5
17E
330
1F
100
AcDbEntity
  8
1
  6
Continuous
 62
   155
100
AcDbLine
 10
486.280592
 20
143.410541
 30
0.0
 11
486.280592
 21
133.145893
 31
0.0
  0
LINE
  5
17F
330
1F
100
AcDbEntity
  8
1
  6
Continuous
 62
   155
100
AcDbLine
 10
474.578444
 20
143.814838
 30
0.0
 11
481.103346
 21
143.814838
 31
0.0
  0
LINE
  5
180
330
1F
100
AcDbEntity
  8
1
  6
Continuous
 62
   155
100
AcDbLine
 10
492.345045
 20
154.079487
 30
0.0
 11
486.280592
 21
154.079487
 31
0.0
  0
LINE
  5
181
330
1F
100
AcDbEntity
  8
1
  6
Continuous
 62
   155
100
AcDbLine
 10
474.578444
 20
154.079487
 30
0.0
 11
474.578444
 21
143.814838
 31
0.0
  0
LINE
  5
182
330
1F
100
AcDbEntity
  8
1
  6
Continuous
 62
   155
100
AcDbLine
 10
471.242995
 20
154.079487
 30
0.0
 11
467.649245
 21
143.814838
 31
0.0
  0
LINE
  5
183
330
1F
100
AcDbEntity
  8
1
  6
Continuous
 62
   155
100
AcDbLine
 10
481.103346
 20
143.814838
 30
0.0
 11
477.509597
 21
154.079487
 31
0.0
  0
LINE
  5
184
330
1F
100
AcDbEntity
  8
1
  6
Continuous
 62
   155
100
AcDbLine
 10
470.614089
 20
137.346088
 30
0.0
 11
474.174147
 21
137.346088
 31
0.0
  0
LINE
  5
185
330
1F
100
AcDbEntity
  8
1
  6
Continuous
 62
   155
100
AcDbLine
 10
474.578444
 20
137.346088
 30
0.0
 11
478.138503
 21
137.346088
 31
0.0
  0
LINE
  5
186
330
1F
100
AcDbEntity
  8
1
  6
Continuous
 62
   155
100
AcDbLine
 10
486.280592
 20
133.145893
 30
0.0
 11
492.345045
 21
133.145893
 31
0.0
  0
LINE
  5
187
330
1F
100
AcDbEntity
  8
1
  6
Continuous
 62
   155
100
AcDbLine
 10
481.249343
 20
143.410541
 30
0.0
 11
474.578444
 21
143.410541
 31
0.0
  0
LINE
  5
188
330
1F
100
AcDbEntity
  8
1
  6
Continuous
 62
   155
100
AcDbLine
 10
492.771803
 20
143.410541
 30
0.0
 11
492.771803
 21
133.145893
 31
0.0
  0
LINE
  5
189
330
1F
100
AcDbEntity
  8
1
  6
Continuous
 62
   155
100
AcDbLine
 10
474.174147
 20
143.814838
 30
0.0
 11
474.174147
 21
154.079487
 31
0.0
  0
LINE
  5
18A
330
1F
100
AcDbEntity
  8
1
  6
Continuous
 62
   155
100
AcDbLine
 10
474.174147
 20
137.346088
 30
0.0
 11
474.174147
 21
143.410541
 31
0.0
  0
LINE
  5
18B
330
1F
100
AcDbEntity
  8
1
  6
Continuous
 62
   155
100
AcDbLine
 10
486.280592
 20
143.814838
 30
0.0
 11
492.345045
 21
143.814838
 31
0.0
  0
LINE
  5
18C
330
1F
100
AcDbEntity
  8
1
  6
Continuous
 62
   155
100
AcDbLine
 10
492.345045
 20
143.814838
 30
0.0
 11
492.345045
 21
154.079487
 31
0.0
  0
LINE
  5
18D
330
1F
100
AcDbEntity
  8
1
  6
Continuous
 62
   155
100
AcDbLine
 10
492.345045
 20
143.410541
 30
0.0
 11
486.280592
 21
143.410541
 31
0.0
  0
LINE
  5
18E
330
1F
100
AcDbEntity
  8
1
  6
Continuous
 62
   155
100
AcDbLine
 10
492.345045
 20
133.145893
 30
0.0
 11
492.345045
 21
143.410541
 31
0.0
  0
LINE
  5
18F
330
1F
100
AcDbEntity
  8
1
  6
Continuous
 62
   155
100
AcDbLine
 10
486.280592
 20
154.079487
 30
0.0
 11
486.280592
 21
143.814838
 31
0.0
  0
LINE
  5
190
330
1F
100
AcDbEntity
  8
1
  6
Continuous
 62
   155
100
AcDbLine
 10
443.580396
 20
99.944938
 30
0.0
 11
443.580396
 21
93.21806200000001
 31
0.0
  0
LINE
  5
191
330
1F
100
AcDbEntity
  8
1
  6
Continuous
 62
   155
100
AcDbLine
 10
620.080396
 20
194.718062
 30
0.0
 11
589.5803959999999
 21
205.819154
 31
0.0
  0
LINE
  5
192
330
1F
100
AcDbEntity
  8
1
  6
Continuous
 62
   155
100
AcDbLine
 10
589.5803959999999
 20
76.718062
 30
0.0
 11
561.580396
 21
76.718062
 31
0.0
  0
LINE
  5
193
330
1F
100
AcDbEntity
  8
1
  6
Continuous
 62
   155
100
AcDbLine
 10
443.580396
 20
93.21806200000001
 30
0.0
 11
444.9803889999999
 21
93.21806200000001
 31
0.0
  0
LINE
  5
194
330
1F
100
AcDbEntity
  8
1
  6
Continuous
 62
   155
100
AcDbLine
 10
443.580396
 20
190.218062
 30
0.0
 11
443.580396
 21
183.491186
 31
0.0
  0
LINE
  5
195
330
1F
100
AcDbEntity
  8
1
  6
Continuous
 62
   155
100
AcDbLine
 10
561.580396
 20
206.718062
 30
0.0
 11
561.580396
 21
190.218062
 31
0.0
  0
LINE
  5
196
330
1F
100
AcDbEntity
  8
1
  6
Continuous
 62
   155
100
AcDbLine
 10
561.580396
 20
206.718062
 30
0.0
 11
433.5803959999999
 21
206.718062
 31
0.0
  0
LINE
  5
197
330
1F
100
AcDbEntity
  8
1
  6
Continuous
 62
   155
100
AcDbLine
 10
589.5803959999999
 20
76.718062
 30
0.0
 11
589.5803959999999
 21
99.944938
 31
0.0
  0
LINE
  5
198
330
1F
100
AcDbEntity
  8
1
  6
Continuous
 62
   155
100
AcDbLine
 10
542.1806389999999
 20
93.21806200000001
 30
0.0
 11
561.580396
 21
93.21806200000001
 31
0.0
  0
LINE
  5
199
330
1F
100
AcDbEntity
  8
1
  6
Continuous
 62
   155
100
AcDbLine
 10
443.580396
 20
183.491186
 30
0.0
 11
443.580396
 21
99.944938
 31
0.0
  0
LINE
  5
19A
330
1F
100
AcDbEntity
  8
1
  6
Continuous
 62
   155
100
AcDbLine
 10
561.580396
 20
93.21806200000001
 30
0.0
 11
561.580396
 21
76.718062
 31
0.0
  0
LINE
  5
19B
330
1F
100
AcDbEntity
  8
1
  6
Continuous
 62
   155
100
AcDbLine
 10
444.9803889999999
 20
190.218062
 30
0.0
 11
443.580396
 21
190.218062
 31
0.0
  0
LINE
  5
19C
330
1F
100
AcDbEntity
  8
1
  6
Continuous
 62
   155
100
AcDbLine
 10
589.5803959999999
 20
99.944938
 30
0.0
 11
589.5803959999999
 21
183.491186
 31
0.0
  0
LINE
  5
19D
330
1F
100
AcDbEntity
  8
1
  6
Continuous
 62
   155
100
AcDbLine
 10
561.580396
 20
190.218062
 30
0.0
 11
542.1806389999999
 21
190.218062
 31
0.0
  0
LINE
  5
19E
330
1F
100
AcDbEntity
  8
1
  6
Continuous
 62
   155
100
AcDbLine
 10
589.5803959999999
 20
183.491186
 30
0.0
 11
589.5803959999999
 21
206.718062
 31
0.0
  0
LINE
  5
19F
330
1F
100
AcDbEntity
  8
1
  6
Continuous
 62
   155
100
AcDbLine
 10
444.9803889999999
 20
183.491186
 30
0.0
 11
443.580396
 21
183.491186
 31
0.0
  0
LINE
  5
1A0
330
1F
100
AcDbEntity
  8
1
  6
Continuous
 62
   155
100
AcDbLine
 10
561.580396
 20
76.718062
 30
0.0
 11
433.5803959999999
 21
76.718062
 31
0.0
  0
LINE
  5
1A1
330
1F
100
AcDbEntity
  8
1
  6
Continuous
 62
   155
100
AcDbLine
 10
589.5803959999999
 20
206.718062
 30
0.0
 11
561.580396
 21
206.718062
 31
0.0
  0
LINE
  5
1A2
330
1F
100
AcDbEntity
  8
1
  6
Continuous
 62
   155
100
AcDbLine
 10
444.9803889999999
 20
99.944938
 30
0.0
 11
443.580396
 21
99.944938
 31
0.0
  0
LINE
  5
1A3
330
1F
100
AcDbEntity
  8
1
  6
Continuous
 62
   155
100
AcDbLine
 10
433.5803959999999
 20
206.718062
 30
0.0
 11
433.5803959999999
 21
183.119274
 31
0.0
  0
LINE
  5
1A4
330
1F
100
AcDbEntity
  8
1
  6
Continuous
 62
   155
100
AcDbLine
 10
589.5803959999999
 20
183.491186
 30
0.0
 11
542.180592
 21
183.491186
 31
0.0
  0
LINE
  5
1A5
330
1F
100
AcDbEntity
  8
1
  6
Continuous
 62
   155
100
AcDbLine
 10
589.5803959999999
 20
99.944938
 30
0.0
 11
542.180592
 21
99.944938
 31
0.0
  0
ARC
  5
1A6
330
1F
100
AcDbEntity
  8
1
  6
Continuous
 62
   155
100
AcDbCircle
 10
-511.580396
 20
458.9493389999999
 30
0.0
 40
10.2
210
0.0
220
0.0
230
-1.0
100
AcDbArc
 50
270.0
 51
90.0
  0
ARC
  5
1A7
330
1F
100
AcDbEntity
  8
1
  6
Continuous
 62
   155
100
AcDbCircle
 10
-475.580396
 20
458.9493389999999
 30
0.0
 40
10.2
210
0.0
220
0.0
230
-1.0
100
AcDbArc
 50
270.0
 51
90.0
  0
ARC
  5
1A8
330
1F
100
AcDbEntity
  8
1
  6
Continuous
 62
   155
100
AcDbCircle
 10
-511.580396
 20
458.9493389999999
 30
0.0
 40
10.2
210
0.0
220
0.0
230
-1.0
100
AcDbArc
 50
90.0
 51
270.0
  0
ARC
  5
1A9
330
1F
100
AcDbEntity
  8
1
  6
Continuous
 62
   155
100
AcDbCircle
 10
-475.580396
 20
458.9493389999999
 30
0.0
 40
10.2
210
0.0
220
0.0
230
-1.0
100
AcDbArc
 50
90.0
 51
270.0
  0
ARC
  5
1AA
330
1F
100
AcDbEntity
  8
1
  6
Continuous
 62
   155
100
AcDbCircle
 10
-194.185022
 20
395.449339
 30
0.0
 40
53.0
210
0.0
220
0.0
230
-1.0
100
AcDbArc
 50
0.0
 51
180.0
  0
ARC
  5
1AB
330
1F
100
AcDbEntity
  8
1
  6
Continuous
 62
   155
100
AcDbCircle
 10
-194.185022
 20
395.449339
 30
0.0
 40
53.0
210
0.0
220
0.0
230
-1.0
100
AcDbArc
 50
180.0
 51
0.0
  0
ARC
  5
1AC
330
1F
100
AcDbEntity
  8
1
  6
Continuous
 62
   155
100
AcDbCircle
 10
-194.185022
 20
395.449339
 30
0.0
 40
64.10109214511919
210
0.0
220
0.0
230
-1.0
100
AcDbArc
 50
180.0
 51
0.0
  0
ARC
  5
1AD
330
1F
100
AcDbEntity
  8
1
  6
Continuous
 62
   155
100
AcDbCircle
 10
-194.185022
 20
395.449339
 30
0.0
 40
64.10109214511919
210
0.0
220
0.0
230
-1.0
100
AcDbArc
 50
0.0
 51
180.0
  0
ARC
  5
1AE
330
1F
100
AcDbEntity
  8
1
  6
Continuous
 62
   155
100
AcDbCircle
 10
-810.9911889999999
 20
395.449339
 30
0.0
 40
59.50000000000001
210
0.0
220
0.0
230
-1.0
100
AcDbArc
 50
90.0
 51
135.406738
  0
ARC
  5
1AF
330
1F
100
AcDbEntity
  8
1
  6
Continuous
 62
   155
100
AcDbCircle
 10
-810.9911889999999
 20
395.449339
 30
0.0
 40
59.50000000000001
210
0.0
220
0.0
230
-1.0
100
AcDbArc
 50
44.593262
 51
90.0
  0
ARC
  5
1B0
330
1F
100
AcDbEntity
  8
1
  6
Continuous
 62
   155
100
AcDbCircle
 10
-810.9911889999999
 20
395.449339
 30
0.0
 40
59.50000000000001
210
0.0
220
0.0
230
-1.0
100
AcDbArc
 50
224.593262
 51
270.0
  0
ARC
  5
1B1
330
1F
100
AcDbEntity
  8
1
  6
Continuous
 62
   155
100
AcDbCircle
 10
-810.9911889999999
 20
395.449339
 30
0.0
 40
59.50000000000001
210
0.0
220
0.0
230
-1.0
100
AcDbArc
 50
270.0
 51
315.406738
  0
ARC
  5
1B2
330
1F
100
AcDbEntity
  8
1
  6
Continuous
 62
   155
100
AcDbCircle
 10
-810.9911889999999
 20
395.449339
 30
0.0
 40
35.0
210
0.0
220
0.0
230
-1.0
100
AcDbArc
 50
270.0
 51
90.0
  0
ARC
  5
1B3
330
1F
100
AcDbEntity
  8
1
  6
Continuous
 62
   155
100
AcDbCircle
 10
-810.9911889999999
 20
395.449339
 30
0.0
 40
7.0
210
0.0
220
0.0
230
-1.0
100
AcDbArc
 50
0.0
 51
180.0
  0
ARC
  5
1B4
330
1F
100
AcDbEntity
  8
1
  6
Continuous
 62
   155
100
AcDbCircle
 10
810.9911889999999
 20
395.449339
 30
0.0
 40
58.81372549019606
100
AcDbArc
 50
134.743806
 51
225.256194
  0
ARC
  5
1B5
330
1F
100
AcDbEntity
  8
1
  6
Continuous
 62
   155
100
AcDbCircle
 10
-810.9911889999999
 20
395.449339
 30
0.0
 40
52.5
210
0.0
220
0.0
230
-1.0
100
AcDbArc
 50
270.0
 51
90.0
  0
ARC
  5
1B6
330
1F
100
AcDbEntity
  8
1
  6
Continuous
 62
   155
100
AcDbCircle
 10
-810.9911889999999
 20
395.449339
 30
0.0
 40
8.5
210
0.0
220
0.0
230
-1.0
100
AcDbArc
 50
180.0
 51
0.0
  0
ARC
  5
1B7
330
1F
100
AcDbEntity
  8
1
  6
Continuous
 62
   155
100
AcDbCircle
 10
810.9911889999999
 20
395.449339
 30
0.0
 40
58.81372549019606
100
AcDbArc
 50
314.743806
 51
45.256194
  0
ARC
  5
1B8
330
1F
100
AcDbEntity
  8
1
  6
Continuous
 62
   155
100
AcDbCircle
 10
-810.9911889999999
 20
395.449339
 30
0.0
 40
52.5
210
0.0
220
0.0
230
-1.0
100
AcDbArc
 50
90.0
 51
270.0
  0
ARC
  5
1B9
330
1F
100
AcDbEntity
  8
1
  6
Continuous
 62
   155
100
AcDbCircle
 10
-780.9391509999999
 20
425.5013769999999
 30
0.0
 40
3.0
210
0.0
220
0.0
230
-1.0
100
AcDbArc
 50
0.0
 51
180.0
  0
ARC
  5
1BA
330
1F
100
AcDbEntity
  8
1
  6
Continuous
 62
   155
100
AcDbCircle
 10
-780.9391509999999
 20
365.397301
 30
0.0
 40
3.0
210
0.0
220
0.0
230
-1.0
100
AcDbArc
 50
180.0
 51
0.0
  0
ARC
  5
1BB
330
1F
100
AcDbEntity
  8
1
  6
Continuous
 62
   155
100
AcDbCircle
 10
-780.9391509999999
 20
365.397301
 30
0.0
 40
3.0
210
0.0
220
0.0
230
-1.0
100
AcDbArc
 50
0.0
 51
180.0
  0
ARC
  5
1BC
330
1F
100
AcDbEntity
  8
1
  6
Continuous
 62
   155
100
AcDbCircle
 10
-810.9911889999999
 20
395.449339
 30
0.0
 40
35.0
210
0.0
220
0.0
230
-1.0
100
AcDbArc
 50
90.0
 51
270.0
  0
ARC
  5
1BD
330
1F
100
AcDbEntity
  8
1
  6
Continuous
 62
   155
100
AcDbCircle
 10
-841.0432279999998
 20
425.5013769999999
 30
0.0
 40
3.0
210
0.0
220
0.0
230
-1.0
100
AcDbArc
 50
0.0
 51
180.0
  0
ARC
  5
1BE
330
1F
100
AcDbEntity
  8
1
  6
Continuous
 62
   155
100
AcDbCircle
 10
-810.9911889999999
 20
395.449339
 30
0.0
 40
31.0
210
0.0
220
0.0
230
-1.0
100
AcDbArc
 50
270.0
 51
90.0
  0
ARC
  5
1BF
330
1F
100
AcDbEntity
  8
1
  6
Continuous
 62
   155
100
AcDbCircle
 10
-810.9911889999999
 20
395.449339
 30
0.0
 40
7.0
210
0.0
220
0.0
230
-1.0
100
AcDbArc
 50
180.0
 51
0.0
  0
ARC
  5
1C0
330
1F
100
AcDbEntity
  8
1
  6
Continuous
 62
   155
100
AcDbCircle
 10
-810.9911889999999
 20
395.449339
 30
0.0
 40
14.0
210
0.0
220
0.0
230
-1.0
100
AcDbArc
 50
90.0
 51
270.0
  0
ARC
  5
1C1
330
1F
100
AcDbEntity
  8
1
  6
Continuous
 62
   155
100
AcDbCircle
 10
-810.9911889999999
 20
395.449339
 30
0.0
 40
31.0
210
0.0
220
0.0
230
-1.0
100
AcDbArc
 50
90.0
 51
270.0
  0
ARC
  5
1C2
330
1F
100
AcDbEntity
  8
1
  6
Continuous
 62
   155
100
AcDbCircle
 10
-841.0432279999998
 20
365.397301
 30
0.0
 40
3.0
210
0.0
220
0.0
230
-1.0
100
AcDbArc
 50
180.0
 51
0.0
  0
ARC
  5
1C3
330
1F
100
AcDbEntity
  8
1
  6
Continuous
 62
   155
100
AcDbCircle
 10
-810.9911889999999
 20
395.449339
 30
0.0
 40
8.5
210
0.0
220
0.0
230
-1.0
100
AcDbArc
 50
0.0
 51
180.0
  0
ARC
  5
1C4
330
1F
100
AcDbEntity
  8
1
  6
Continuous
 62
   155
100
AcDbCircle
 10
-780.9391509999999
 20
425.5013769999999
 30
0.0
 40
3.0
210
0.0
220
0.0
230
-1.0
100
AcDbArc
 50
180.0
 51
0.0
  0
ARC
  5
1C5
330
1F
100
AcDbEntity
  8
1
  6
Continuous
 62
   155
100
AcDbCircle
 10
-810.9911889999999
 20
395.449339
 30
0.0
 40
14.0
210
0.0
220
0.0
230
-1.0
100
AcDbArc
 50
270.0
 51
90.0
  0
ARC
  5
1C6
330
1F
100
AcDbEntity
  8
1
  6
Continuous
 62
   155
100
AcDbCircle
 10
-841.0432279999998
 20
425.5013769999999
 30
0.0
 40
3.0
210
0.0
220
0.0
230
-1.0
100
AcDbArc
 50
180.0
 51
0.0
  0
ARC
  5
1C7
330
1F
100
AcDbEntity
  8
1
  6
Continuous
 62
   155
100
AcDbCircle
 10
-841.0432279999998
 20
365.397301
 30
0.0
 40
3.0
210
0.0
220
0.0
230
-1.0
100
AcDbArc
 50
0.0
 51
180.0
  0
SPLINE
  5
1C8
330
1F
100
AcDbEntity
  8
1
  6
Continuous
 62
   155
100
AcDbSpline
210
0.0
220
0.0
230
1.0
 70
    24
 71
     3
 72
    10
 73
     6
 74
     0
 42
0.0000000001
 43
0.0000000001
 40
0.0
 40
0.0
 40
0.0
 40
0.0
 40
0.5000585041082412
 40
0.5000585041082412
 40
1.0
 40
1.0
 40
1.0
 40
1.0
 10
214.8906851133713
 20
504.4493392070484
 30
0.0
 10
216.6875600761184
 20
504.4493392070484
 30
0.0
 10
218.1868276231606
 20
504.4493392070484
 30
0.0
 10
220.589866710517
 20
504.4493392070484
 30
0.0
 10
221.190707739242
 20
504.4493392070484
 30
0.0
 10
221.1909731133931
 20
504.4493392070484
 30
0.0
  0
SPLINE
  5
1C9
330
1F
100
AcDbEntity
  8
1
  6
Continuous
 62
   155
100
AcDbSpline
210
0.0
220
0.0
230
1.0
 70
    24
 71
     3
 72
    10
 73
     6
 74
     0
 42
0.0000000001
 43
0.0000000001
 40
0.0
 40
0.0
 40
0.0
 40
0.0
 40
0.5000585041274587
 40
0.5000585041274587
 40
1.0
 40
1.0
 40
1.0
 40
1.0
 10
198.5840448264414
 20
504.4493392070484
 30
0.0
 10
200.3809197891885
 20
504.4493392070484
 30
0.0
 10
201.8801873362306
 20
504.4493392070484
 30
0.0
 10
204.2832264234947
 20
504.4493392070484
 30
0.0
 10
204.8840674522197
 20
504.4493392070484
 30
0.0
 10
204.8843328264632
 20
504.4493392070484
 30
0.0
  0
SPLINE
  5
1CA
330
1F
100
AcDbEntity
  8
1
  6
Continuous
 62
   155
100
AcDbSpline
210
0.0
220
0.0
230
1.0
 70
    24
 71
     3
 72
     8
 73
     4
 74
     0
 42
0.0000000001
 43
0.0000000001
 40
0.0
 40
0.0
 40
0.0
 40
0.0
 40
1.0
 40
1.0
 40
1.0
 40
1.0
 10
783.9852285017411
 20
504.4493392070484
 30
0.0
 10
783.9852385027409
 20
504.4493392070484
 30
0.0
 10
784.4644001589736
 20
504.4493392070484
 30
0.0
 10
785.4227334724388
 20
504.4493392070484
 30
0.0
  0
SPLINE
  5
1CB
330
1F
100
AcDbEntity
  8
1
  6
Continuous
 62
   155
100
AcDbSpline
210
0.0
220
0.0
230
1.0
 70
    24
 71
     3
 72
    10
 73
     6
 74
     0
 42
0.0000000001
 43
0.0000000001
 40
0.0
 40
0.0
 40
0.0
 40
0.0
 40
0.5
 40
0.5
 40
1.0
 40
1.0
 40
1.0
 40
1.0
 10
785.568724562662
 20
504.4493392070484
 30
0.0
 10
785.5687345636618
 20
504.4493392070484
 30
0.0
 10
786.0291787723658
 20
504.4493392070484
 30
0.0
 10
787.8709756091816
 20
504.4493392070484
 30
0.0
 10
788.9827919923813
 20
504.4493392070484
 30
0.0
 10
790.2855263403729
 20
504.4493392070484
 30
0.0
  0
SPLINE
  5
1CC
330
1F
100
AcDbEntity
  8
1
  6
Continuous
 62
   155
100
AcDbSpline
210
0.0
220
0.0
230
1.0
 70
    24
 71
     3
 72
     8
 73
     4
 74
     0
 42
0.0000000001
 43
0.0000000001
 40
0.0
 40
0.0
 40
0.0
 40
0.0
 40
1.0
 40
1.0
 40
1.0
 40
1.0
 10
800.291868788671
 20
504.4493392070484
 30
0.0
 10
800.2918787896708
 20
504.4493392070484
 30
0.0
 10
800.7710404459034
 20
504.4493392070484
 30
0.0
 10
801.7293737593686
 20
504.4493392070484
 30
0.0
  0
SPLINE
  5
1CD
330
1F
100
AcDbEntity
  8
1
  6
Continuous
 62
   155
100
AcDbSpline
210
0.0
220
0.0
230
1.0
 70
    24
 71
     3
 72
    10
 73
     6
 74
     0
 42
0.0000000001
 43
0.0000000001
 40
0.0
 40
0.0
 40
0.0
 40
0.0
 40
0.4999999999999992
 40
0.4999999999999992
 40
1.0
 40
1.0
 40
1.0
 40
1.0
 10
801.8753648495916
 20
504.4493392070484
 30
0.0
 10
801.8753748505917
 20
504.4493392070484
 30
0.0
 10
802.3358190592958
 20
504.4493392070484
 30
0.0
 10
804.1776158961114
 20
504.4493392070484
 30
0.0
 10
805.2894322793111
 20
504.4493392070484
 30
0.0
 10
806.5921666273029
 20
504.4493392070484
 30
0.0
  0
SPLINE
  5
1CE
330
1F
100
AcDbEntity
  8
1
  6
Continuous
 62
   155
100
AcDbSpline
210
-0.0000000000035979
220
0.0000000000092803
230
1.0
 70
    12
 71
     2
 72
     6
 73
     3
 74
     0
 42
0.0000000001
 43
0.0000000001
 40
0.0
 40
0.0
 40
0.0
 40
1.0
 40
1.0
 40
1.0
 10
436.0803964757708
 20
184.0885244363145
 30
-0.0000000000000026
 41
1.0
 10
434.8159338014327
 20
183.6010884018443
 30
-0.0000000000000026
 41
1.000033557791359
 10
433.5803964757707
 20
183.1192744669701
 30
-0.0000000000000025
 41
1.0
  0
SPLINE
  5
1CF
330
1F
100
AcDbEntity
  8
1
  6
Continuous
 62
   155
100
AcDbSpline
210
-0.0000000000035979
220
-0.0000000000092803
230
-1.0
 70
    12
 71
     2
 72
     6
 73
     3
 74
     0
 42
0.0000000001
 43
0.0000000001
 40
0.0
 40
0.0
 40
0.0
 40
1.0
 40
1.0
 40
1.0
 10
433.5803964757707
 20
100.3168488810474
 30
0.0000000000000025
 41
1.0
 10
434.8159338014327
 20
99.8350349461733
 30
0.0000000000000026
 41
1.000033557791359
 10
436.0803964757708
 20
99.34759891170314
 30
0.0000000000000026
 41
1.0
  0
SPLINE
  5
1D0
330
1F
100
AcDbEntity
  8
1
  6
Continuous
 62
   155
100
AcDbSpline
210
0.0
220
0.0
230
1.0
 70
     8
 71
     3
 72
     8
 73
     4
 74
     0
 42
0.0000000001
 43
0.0000000001
 40
0.0
 40
0.0
 40
0.0
 40
0.0
 40
1.0
 40
1.0
 40
1.0
 40
1.0
 10
499.1282484123691
 20
143.8148382995363
 30
-0.0000000000000005
 10
498.5367770704648
 20
144.4437445364976
 30
-0.0000000000000005
 10
497.818027085366
 20
144.9229111932304
 30
-0.0000000000000005
 10
496.9719984570726
 20
145.2523382697339
 30
-0.0000000000000004
  0
SPLINE
  5
1D1
330
1F
100
AcDbEntity
  8
1
  6
Continuous
 62
   155
100
AcDbSpline
210
0.0
220
0.0
230
1.0
 70
     8
 71
     3
 72
     8
 73
     4
 74
     0
 42
0.0000000001
 43
0.0000000001
 40
0.0
 40
0.0
 40
0.0
 40
0.0
 40
1.0
 40
1.0
 40
1.0
 40
1.0
 10
517.2542245990804
 20
139.4124946408058
 30
-0.0000000000000017
 10
517.2542245990804
 20
140.9098904430951
 30
-0.0000000000000017
 10
516.7750579423478
 20
142.2425727071324
 30
-0.0000000000000016
 10
515.8167246288827
 20
143.4105414329181
 30
-0.0000000000000016
  0
SPLINE
  5
1D2
330
1F
100
AcDbEntity
  8
1
  6
Continuous
 62
   155
100
AcDbSpline
210
0.0
220
0.0
230
1.0
 70
     8
 71
     3
 72
    10
 73
     6
 74
     0
 42
0.0000000001
 43
0.0000000001
 40
0.0
 40
0.0
 40
0.0
 40
0.0
 40
0.5
 40
0.5
 40
1.0
 40
1.0
 40
1.0
 40
1.0
 10
510.9539317609484
 20
133.1458932082254
 30
-0.0000000000000013
 10
512.7508067236955
 20
133.1458932082254
 30
-0.0000000000000014
 10
514.2500742707376
 20
133.7392362948826
 30
-0.0000000000000015
 10
516.6533945334118
 20
136.1126086415108
 30
-0.0000000000000016
 10
517.2542245990804
 20
137.6081326990473
 30
-0.0000000000000017
 10
517.2542245990804
 20
139.4124946408058
 30
-0.0000000000000017
  0
SPLINE
  5
1D3
330
1F
100
AcDbEntity
  8
1
  6
Continuous
 62
   155
100
AcDbSpline
210
0.0
220
0.0
230
1.0
 70
     8
 71
     3
 72
     8
 73
     4
 74
     0
 42
0.0000000001
 43
0.0000000001
 40
0.0
 40
0.0
 40
0.0
 40
0.0
 40
1.0
 40
1.0
 40
1.0
 40
1.0
 10
515.434888699299
 20
143.8148382995363
 30
-0.0000000000000015
 10
514.8434173573947
 20
144.4437445364976
 30
-0.0000000000000015
 10
514.1246673722959
 20
144.9229111932303
 30
-0.0000000000000015
 10
513.2786387440025
 20
145.2523382697338
 30
-0.0000000000000014
  0
SPLINE
  5
1D4
330
1F
100
AcDbEntity
  8
1
  6
Continuous
 62
   155
100
AcDbSpline
210
0.0
220
0.0
230
1.0
 70
     8
 71
     3
 72
    10
 73
     6
 74
     0
 42
0.0000000001
 43
0.0000000001
 40
0.0
 40
0.0
 40
0.0
 40
0.0
 40
0.5
 40
0.5
 40
1.0
 40
1.0
 40
1.0
 40
1.0
 10
515.6707285381595
 20
149.3626897470181
 30
-0.0000000000000016
 10
515.6707285381595
 20
150.6654240950091
 30
-0.0000000000000016
 10
515.2102793289556
 20
151.7772404782091
 30
-0.0000000000000015
 10
513.3684824921398
 20
153.6190373150251
 30
-0.0000000000000014
 10
512.25666610894
 20
154.0794865242292
 30
-0.0000000000000013
 10
510.9539317609484
 20
154.0794865242292
 30
-0.0000000000000013
  0
SPLINE
  5
1D5
330
1F
100
AcDbEntity
  8
1
  6
Continuous
 62
   155
100
AcDbSpline
210
0.0
220
0.0
230
1.0
 70
     8
 71
     3
 72
     8
 73
     4
 74
     0
 42
0.0000000001
 43
0.0000000001
 40
0.0
 40
0.0
 40
0.0
 40
0.0
 40
1.0
 40
1.0
 40
1.0
 40
1.0
 10
513.2786387440025
 20
145.2523382697338
 30
-0.0000000000000014
 10
514.8733652734405
 20
146.1732366881418
 30
-0.0000000000000015
 10
515.6707285381595
 20
147.543353847236
 30
-0.0000000000000016
 10
515.6707285381595
 20
149.3626897470181
 30
-0.0000000000000016
  0
SPLINE
  5
1D6
330
1F
100
AcDbEntity
  8
1
  6
Continuous
 62
   155
100
AcDbSpline
210
0.0
220
0.0
230
1.0
 70
     8
 71
     3
 72
     8
 73
     4
 74
     0
 42
0.0000000001
 43
0.0000000001
 40
0.0
 40
0.0
 40
0.0
 40
0.0
 40
1.0
 40
1.0
 40
1.0
 40
1.0
 10
500.9475843121505
 20
139.412494640806
 30
-0.0000000000000007
 10
500.9475843121505
 20
140.9098904430952
 30
-0.0000000000000007
 10
500.4684176554179
 20
142.2425727071325
 30
-0.0000000000000006
 10
499.5100843419528
 20
143.4105414329182
 30
-0.0000000000000006
  0
SPLINE
  5
1D7
330
1F
100
AcDbEntity
  8
1
  6
Continuous
 62
   155
100
AcDbSpline
210
0.0
220
0.0
230
1.0
 70
     8
 71
     3
 72
    10
 73
     6
 74
     0
 42
0.0000000001
 43
0.0000000001
 40
0.0
 40
0.0
 40
0.0
 40
0.0
 40
0.5
 40
0.5
 40
1.0
 40
1.0
 40
1.0
 40
1.0
 10
494.6472914740184
 20
133.1458932082255
 30
-0.0000000000000003
 10
496.4441664367655
 20
133.1458932082255
 30
-0.0000000000000004
 10
497.9434339838077
 20
133.7392362948827
 30
-0.0000000000000005
 10
500.3467542464819
 20
136.1126086415108
 30
-0.0000000000000006
 10
500.9475843121505
 20
137.6081326990474
 30
-0.0000000000000007
 10
500.9475843121505
 20
139.412494640806
 30
-0.0000000000000007
  0
SPLINE
  5
1D8
330
1F
100
AcDbEntity
  8
1
  6
Continuous
 62
   155
100
AcDbSpline
210
0.0
220
0.0
230
1.0
 70
     8
 71
     3
 72
    10
 73
     6
 74
     0
 42
0.0000000001
 43
0.0000000001
 40
0.0
 40
0.0
 40
0.0
 40
0.0
 40
0.4999999999999992
 40
0.4999999999999992
 40
1.0
 40
1.0
 40
1.0
 40
1.0
 10
499.3640882512296
 20
149.3626897470182
 30
-0.0000000000000006
 10
499.3640882512296
 20
150.6654240950092
 30
-0.0000000000000006
 10
498.9036390420257
 20
151.7772404782092
 30
-0.0000000000000005
 10
497.0618422052099
 20
153.6190373150252
 30
-0.0000000000000004
 10
495.9500258220101
 20
154.0794865242292
 30
-0.0000000000000003
 10
494.6472914740184
 20
154.0794865242292
 30
-0.0000000000000003
  0
SPLINE
  5
1D9
330
1F
100
AcDbEntity
  8
1
  6
Continuous
 62
   155
100
AcDbSpline
210
0.0
220
0.0
230
1.0
 70
     8
 71
     3
 72
     8
 73
     4
 74
     0
 42
0.0000000001
 43
0.0000000001
 40
0.0
 40
0.0
 40
0.0
 40
0.0
 40
1.0
 40
1.0
 40
1.0
 40
1.0
 10
496.9719984570726
 20
145.2523382697339
 30
-0.0000000000000004
 10
498.5667249865106
 20
146.1732366881419
 30
-0.0000000000000005
 10
499.3640882512296
 20
147.5433538472361
 30
-0.0000000000000006
 10
499.3640882512296
 20
149.3626897470182
 30
-0.0000000000000006
  0
LINE
  5
2E6
330
1F
100
AcDbEntity
  8
1
  6
Continuous
 62
   155
100
AcDbLine
 10
530.7682074739966
 20
386.6028943780507
 30
0.0
 11
532.6436954739967
 21
386.6028943780507
 31
0.0
  0
LINE
  5
2E7
330
1F
100
AcDbEntity
  8
1
  6
Continuous
 62
   155
100
AcDbLine
 10
514.4615664739967
 20
407.5364883780507
 30
0.0
 11
514.4615664739967
 21
397.2718393780508
 31
0.0
  0
LINE
  5
2E8
330
1F
100
AcDbEntity
  8
1
  6
Continuous
 62
   155
100
AcDbLine
 10
524.2769964739967
 20
407.5364883780507
 30
0.0
 11
524.2769964739967
 21
397.2718393780508
 31
0.0
  0
LINE
  5
2E9
330
1F
100
AcDbEntity
  8
1
  6
Continuous
 62
   155
100
AcDbLine
 10
537.5064884739966
 20
396.8675423780508
 30
0.0
 11
530.7682074739966
 21
396.8675423780508
 31
0.0
  0
LINE
  5
2EA
330
1F
100
AcDbEntity
  8
1
  6
Continuous
 62
   155
100
AcDbLine
 10
524.2769964739967
 20
386.6028943780508
 30
0.0
 11
530.3414494739967
 21
386.6028943780507
 31
0.0
  0
LINE
  5
2EB
330
1F
100
AcDbEntity
  8
1
  6
Continuous
 62
   155
100
AcDbLine
 10
524.2769964739967
 20
397.2718393780508
 30
0.0
 11
530.3414494739967
 21
397.2718393780508
 31
0.0
  0
LINE
  5
2EC
330
1F
100
AcDbEntity
  8
1
  6
Continuous
 62
   155
100
AcDbLine
 10
524.2769964739967
 20
396.8675423780508
 30
0.0
 11
524.2769964739967
 21
386.6028943780508
 31
0.0
  0
LINE
  5
2ED
330
1F
100
AcDbEntity
  8
1
  6
Continuous
 62
   155
100
AcDbLine
 10
514.4615664739967
 20
397.2718393780508
 30
0.0
 11
520.8180114739966
 21
397.2718393780508
 31
0.0
  0
LINE
  5
2EE
330
1F
100
AcDbEntity
  8
1
  6
Continuous
 62
   155
100
AcDbLine
 10
530.7682074739966
 20
396.8675423780508
 30
0.0
 11
530.7682074739966
 21
386.6028943780507
 31
0.0
  0
LINE
  5
2EF
330
1F
100
AcDbEntity
  8
1
  6
Continuous
 62
   155
100
AcDbLine
 10
530.3414494739967
 20
397.2718393780508
 30
0.0
 11
530.3414494739967
 21
407.5364883780507
 31
0.0
  0
LINE
  5
2F0
330
1F
100
AcDbEntity
  8
1
  6
Continuous
 62
   155
100
AcDbLine
 10
530.3414494739967
 20
386.6028943780507
 30
0.0
 11
530.3414494739967
 21
396.8675423780508
 31
0.0
  0
LINE
  5
2F1
330
1F
100
AcDbEntity
  8
1
  6
Continuous
 62
   155
100
AcDbLine
 10
530.3414494739967
 20
407.5364883780507
 30
0.0
 11
524.2769964739967
 21
407.5364883780507
 31
0.0
  0
LINE
  5
2F2
330
1F
100
AcDbEntity
  8
1
  6
Continuous
 62
   155
100
AcDbLine
 10
516.3370544739966
 20
407.5364883780507
 30
0.0
 11
514.4615664739967
 21
407.5364883780507
 31
0.0
  0
LINE
  5
2F3
330
1F
100
AcDbEntity
  8
1
  6
Continuous
 62
   155
100
AcDbLine
 10
530.3414494739967
 20
396.8675423780508
 30
0.0
 11
524.2769964739967
 21
396.8675423780508
 31
0.0
  0
LINE
  5
2F4
330
1F
100
AcDbEntity
  8
1
  6
Continuous
 62
   155
100
AcDbLine
 10
490.8326604739967
 20
386.6028943780508
 30
0.0
 11
492.3038524739967
 21
390.8030893780508
 31
0.0
  0
LINE
  5
2F5
330
1F
100
AcDbEntity
  8
1
  6
Continuous
 62
   155
100
AcDbLine
 10
495.8639104739967
 20
396.8675423780508
 30
0.0
 11
489.1930124739967
 21
396.8675423780508
 31
0.0
  0
LINE
  5
2F6
330
1F
100
AcDbEntity
  8
1
  6
Continuous
 62
   155
100
AcDbLine
 10
485.5992624739966
 20
386.6028943780508
 30
0.0
 11
490.8326604739967
 21
386.6028943780508
 31
0.0
  0
LINE
  5
2F7
330
1F
100
AcDbEntity
  8
1
  6
Continuous
 62
   155
100
AcDbLine
 10
530.7682074739966
 20
407.5364883780507
 30
0.0
 11
530.7682074739966
 21
397.2718393780508
 31
0.0
  0
LINE
  5
2F8
330
1F
100
AcDbEntity
  8
1
  6
Continuous
 62
   155
100
AcDbLine
 10
532.6436954739967
 20
407.5364883780507
 30
0.0
 11
530.7682074739966
 21
407.5364883780507
 31
0.0
  0
LINE
  5
2F9
330
1F
100
AcDbEntity
  8
1
  6
Continuous
 62
   155
100
AcDbLine
 10
530.7682074739966
 20
397.2718393780508
 30
0.0
 11
537.1246524739968
 21
397.2718393780508
 31
0.0
  0
LINE
  5
2FA
330
1F
100
AcDbEntity
  8
1
  6
Continuous
 62
   155
100
AcDbLine
 10
489.1930124739967
 20
396.8675423780508
 30
0.0
 11
485.5992624739966
 21
386.6028943780508
 31
0.0
  0
LINE
  5
2FB
330
1F
100
AcDbEntity
  8
1
  6
Continuous
 62
   155
100
AcDbLine
 10
521.1998474739966
 20
396.8675423780508
 30
0.0
 11
514.4615664739967
 21
396.8675423780508
 31
0.0
  0
LINE
  5
2FC
330
1F
100
AcDbEntity
  8
1
  6
Continuous
 62
   155
100
AcDbLine
 10
506.5328554739967
 20
386.6028943780508
 30
0.0
 11
502.9391064739967
 21
396.8675423780508
 31
0.0
  0
LINE
  5
2FD
330
1F
100
AcDbEntity
  8
1
  6
Continuous
 62
   155
100
AcDbLine
 10
501.2994574739967
 20
386.6028943780508
 30
0.0
 11
506.5328554739967
 21
386.6028943780508
 31
0.0
  0
LINE
  5
2FE
330
1F
100
AcDbEntity
  8
1
  6
Continuous
 62
   155
100
AcDbLine
 10
495.8639104739967
 20
407.5364883780507
 30
0.0
 11
492.9327584739967
 21
407.5364883780507
 31
0.0
  0
LINE
  5
2FF
330
1F
100
AcDbEntity
  8
1
  6
Continuous
 62
   155
100
AcDbLine
 10
499.1993604739967
 20
407.5364883780507
 30
0.0
 11
496.2682074739967
 21
407.5364883780507
 31
0.0
  0
LINE
  5
300
330
1F
100
AcDbEntity
  8
1
  6
Continuous
 62
   155
100
AcDbLine
 10
499.8282664739966
 20
390.8030893780508
 30
0.0
 11
501.2994574739967
 21
386.6028943780508
 31
0.0
  0
LINE
  5
301
330
1F
100
AcDbEntity
  8
1
  6
Continuous
 62
   155
100
AcDbLine
 10
496.2682074739967
 20
396.8675423780508
 30
0.0
 11
496.2682074739967
 21
390.8030893780508
 31
0.0
  0
LINE
  5
302
330
1F
100
AcDbEntity
  8
1
  6
Continuous
 62
   155
100
AcDbLine
 10
489.3390084739967
 20
397.2718393780508
 30
0.0
 11
495.8639104739967
 21
397.2718393780508
 31
0.0
  0
LINE
  5
303
330
1F
100
AcDbEntity
  8
1
  6
Continuous
 62
   155
100
AcDbLine
 10
514.4615664739967
 20
386.6028943780508
 30
0.0
 11
516.3370544739966
 21
386.6028943780508
 31
0.0
  0
LINE
  5
304
330
1F
100
AcDbEntity
  8
1
  6
Continuous
 62
   155
100
AcDbLine
 10
507.9703554739967
 20
396.8675423780508
 30
0.0
 11
507.9703554739967
 21
386.6028943780508
 31
0.0
  0
LINE
  5
305
330
1F
100
AcDbEntity
  8
1
  6
Continuous
 62
   155
100
AcDbLine
 10
496.2682074739967
 20
397.2718393780508
 30
0.0
 11
502.7931094739967
 21
397.2718393780508
 31
0.0
  0
LINE
  5
306
330
1F
100
AcDbEntity
  8
1
  6
Continuous
 62
   155
100
AcDbLine
 10
514.0348084739967
 20
407.5364883780507
 30
0.0
 11
507.9703554739967
 21
407.5364883780507
 31
0.0
  0
LINE
  5
307
330
1F
100
AcDbEntity
  8
1
  6
Continuous
 62
   155
100
AcDbLine
 10
496.2682074739967
 20
407.5364883780507
 30
0.0
 11
496.2682074739967
 21
397.2718393780508
 31
0.0
  0
LINE
  5
308
330
1F
100
AcDbEntity
  8
1
  6
Continuous
 62
   155
100
AcDbLine
 10
492.9327584739967
 20
407.5364883780507
 30
0.0
 11
489.3390084739967
 21
397.2718393780508
 31
0.0
  0
LINE
  5
309
330
1F
100
AcDbEntity
  8
1
  6
Continuous
 62
   155
100
AcDbLine
 10
502.7931094739967
 20
397.2718393780508
 30
0.0
 11
499.1993604739967
 21
407.5364883780507
 31
0.0
  0
LINE
  5
30A
330
1F
100
AcDbEntity
  8
1
  6
Continuous
 62
   155
100
AcDbLine
 10
492.3038524739967
 20
390.8030893780508
 30
0.0
 11
495.8639104739967
 21
390.8030893780508
 31
0.0
  0
LINE
  5
30B
330
1F
100
AcDbEntity
  8
1
  6
Continuous
 62
   155
100
AcDbLine
 10
496.2682074739967
 20
390.8030893780508
 30
0.0
 11
499.8282664739966
 21
390.8030893780508
 31
0.0
  0
LINE
  5
30C
330
1F
100
AcDbEntity
  8
1
  6
Continuous
 62
   155
100
AcDbLine
 10
507.9703554739967
 20
386.6028943780508
 30
0.0
 11
514.0348084739967
 21
386.6028943780508
 31
0.0
  0
LINE
  5
30D
330
1F
100
AcDbEntity
  8
1
  6
Continuous
 62
   155
100
AcDbLine
 10
502.9391064739967
 20
396.8675423780508
 30
0.0
 11
496.2682074739967
 21
396.8675423780508
 31
0.0
  0
LINE
  5
30E
330
1F
100
AcDbEntity
  8
1
  6
Continuous
 62
   155
100
AcDbLine
 10
514.4615664739967
 20
396.8675423780508
 30
0.0
 11
514.4615664739967
 21
386.6028943780508
 31
0.0
  0
LINE
  5
30F
330
1F
100
AcDbEntity
  8
1
  6
Continuous
 62
   155
100
AcDbLine
 10
495.8639104739967
 20
397.2718393780508
 30
0.0
 11
495.8639104739967
 21
407.5364883780507
 31
0.0
  0
LINE
  5
310
330
1F
100
AcDbEntity
  8
1
  6
Continuous
 62
   155
100
AcDbLine
 10
495.8639104739967
 20
390.8030893780508
 30
0.0
 11
495.8639104739967
 21
396.8675423780508
 31
0.0
  0
LINE
  5
311
330
1F
100
AcDbEntity
  8
1
  6
Continuous
 62
   155
100
AcDbLine
 10
507.9703554739967
 20
397.2718393780508
 30
0.0
 11
514.0348084739967
 21
397.2718393780508
 31
0.0
  0
LINE
  5
312
330
1F
100
AcDbEntity
  8
1
  6
Continuous
 62
   155
100
AcDbLine
 10
514.0348084739967
 20
397.2718393780508
 30
0.0
 11
514.0348084739967
 21
407.5364883780507
 31
0.0
  0
LINE
  5
313
330
1F
100
AcDbEntity
  8
1
  6
Continuous
 62
   155
100
AcDbLine
 10
514.0348084739967
 20
396.8675423780508
 30
0.0
 11
507.9703554739967
 21
396.8675423780508
 31
0.0
  0
LINE
  5
314
330
1F
100
AcDbEntity
  8
1
  6
Continuous
 62
   155
100
AcDbLine
 10
514.0348084739967
 20
386.6028943780508
 30
0.0
 11
514.0348084739967
 21
396.8675423780508
 31
0.0
  0
LINE
  5
315
330
1F
100
AcDbEntity
  8
1
  6
Continuous
 62
   155
100
AcDbLine
 10
507.9703554739967
 20
407.5364883780507
 30
0.0
 11
507.9703554739967
 21
397.2718393780508
 31
0.0
  0
SPLINE
  5
316
330
1F
100
AcDbEntity
  8
1
  6
Continuous
 62
   155
100
AcDbSpline
210
0.0
220
0.0
230
1.0
 70
     8
 71
     3
 72
     8
 73
     4
 74
     0
 42
0.0000000001
 43
0.0000000001
 40
0.0
 40
0.0
 40
0.0
 40
0.0
 40
1.0
 40
1.0
 40
1.0
 40
1.0
 10
520.8180118863658
 20
397.2718396775872
 30
-0.0000000000000005
 10
520.2265405444615
 20
397.9007459145485
 30
-0.0000000000000005
 10
519.5077905593628
 20
398.3799125712812
 30
-0.0000000000000005
 10
518.6617619310693
 20
398.7093396477847
 30
-0.0000000000000004
  0
SPLINE
  5
317
330
1F
100
AcDbEntity
  8
1
  6
Continuous
 62
   155
100
AcDbSpline
210
0.0
220
0.0
230
1.0
 70
     8
 71
     3
 72
     8
 73
     4
 74
     0
 42
0.0000000001
 43
0.0000000001
 40
0.0
 40
0.0
 40
0.0
 40
0.0
 40
1.0
 40
1.0
 40
1.0
 40
1.0
 10
538.9439880730771
 20
392.8694960188567
 30
-0.0000000000000017
 10
538.9439880730771
 20
394.3668918211459
 30
-0.0000000000000017
 10
538.4648214163445
 20
395.6995740851833
 30
-0.0000000000000016
 10
537.5064881028793
 20
396.8675428109689
 30
-0.0000000000000016
  0
SPLINE
  5
318
330
1F
100
AcDbEntity
  8
1
  6
Continuous
 62
   155
100
AcDbSpline
210
0.0
220
0.0
230
1.0
 70
     8
 71
     3
 72
    10
 73
     6
 74
     0
 42
0.0000000001
 43
0.0000000001
 40
0.0
 40
0.0
 40
0.0
 40
0.0
 40
0.5
 40
0.5
 40
1.0
 40
1.0
 40
1.0
 40
1.0
 10
532.6436952349451
 20
386.6028945862762
 30
-0.0000000000000013
 10
534.4405701976921
 20
386.6028945862762
 30
-0.0000000000000014
 10
535.9398377447343
 20
387.1962376729334
 30
-0.0000000000000015
 10
538.3431580074085
 20
389.5696100195616
 30
-0.0000000000000016
 10
538.9439880730771
 20
391.0651340770982
 30
-0.0000000000000017
 10
538.9439880730771
 20
392.8694960188567
 30
-0.0000000000000017
  0
SPLINE
  5
319
330
1F
100
AcDbEntity
  8
1
  6
Continuous
 62
   155
100
AcDbSpline
210
0.0
220
0.0
230
1.0
 70
     8
 71
     3
 72
     8
 73
     4
 74
     0
 42
0.0000000001
 43
0.0000000001
 40
0.0
 40
0.0
 40
0.0
 40
0.0
 40
1.0
 40
1.0
 40
1.0
 40
1.0
 10
537.1246521732957
 20
397.2718396775871
 30
-0.0000000000000015
 10
536.5331808313913
 20
397.9007459145484
 30
-0.0000000000000015
 10
535.8144308462926
 20
398.3799125712811
 30
-0.0000000000000015
 10
534.9684022179991
 20
398.7093396477846
 30
-0.0000000000000014
  0
SPLINE
  5
31A
330
1F
100
AcDbEntity
  8
1
  6
Continuous
 62
   155
100
AcDbSpline
210
0.0
220
0.0
230
1.0
 70
     8
 71
     3
 72
    10
 73
     6
 74
     0
 42
0.0000000001
 43
0.0000000001
 40
0.0
 40
0.0
 40
0.0
 40
0.0
 40
0.5
 40
0.5
 40
1.0
 40
1.0
 40
1.0
 40
1.0
 10
537.3604920121562
 20
402.8196911250689
 30
-0.0000000000000016
 10
537.3604920121562
 20
404.1224254730598
 30
-0.0000000000000016
 10
536.9000428029522
 20
405.2342418562599
 30
-0.0000000000000015
 10
535.0582459661365
 20
407.0760386930759
 30
-0.0000000000000014
 10
533.9464295829367
 20
407.5364879022799
 30
-0.0000000000000013
 10
532.6436952349451
 20
407.5364879022799
 30
-0.0000000000000013
  0
SPLINE
  5
31B
330
1F
100
AcDbEntity
  8
1
  6
Continuous
 62
   155
100
AcDbSpline
210
0.0
220
0.0
230
1.0
 70
     8
 71
     3
 72
     8
 73
     4
 74
     0
 42
0.0000000001
 43
0.0000000001
 40
0.0
 40
0.0
 40
0.0
 40
0.0
 40
1.0
 40
1.0
 40
1.0
 40
1.0
 10
534.9684022179991
 20
398.7093396477846
 30
-0.0000000000000014
 10
536.5631287474371
 20
399.6302380661926
 30
-0.0000000000000015
 10
537.3604920121562
 20
401.0003552252868
 30
-0.0000000000000016
 10
537.3604920121562
 20
402.8196911250689
 30
-0.0000000000000016
  0
SPLINE
  5
31C
330
1F
100
AcDbEntity
  8
1
  6
Continuous
 62
   155
100
AcDbSpline
210
0.0
220
0.0
230
1.0
 70
     8
 71
     3
 72
     8
 73
     4
 74
     0
 42
0.0000000001
 43
0.0000000001
 40
0.0
 40
0.0
 40
0.0
 40
0.0
 40
1.0
 40
1.0
 40
1.0
 40
1.0
 10
522.6373477861471
 20
392.8694960188568
 30
-0.0000000000000007
 10
522.6373477861471
 20
394.366891821146
 30
-0.0000000000000007
 10
522.1581811294146
 20
395.6995740851833
 30
-0.0000000000000006
 10
521.1998478159495
 20
396.867542810969
 30
-0.0000000000000006
  0
SPLINE
  5
31D
330
1F
100
AcDbEntity
  8
1
  6
Continuous
 62
   155
100
AcDbSpline
210
0.0
220
0.0
230
1.0
 70
     8
 71
     3
 72
    10
 73
     6
 74
     0
 42
0.0000000001
 43
0.0000000001
 40
0.0
 40
0.0
 40
0.0
 40
0.0
 40
0.5
 40
0.5
 40
1.0
 40
1.0
 40
1.0
 40
1.0
 10
516.3370549480151
 20
386.6028945862763
 30
-0.0000000000000003
 10
518.1339299107622
 20
386.6028945862763
 30
-0.0000000000000004
 10
519.6331974578043
 20
387.1962376729335
 30
-0.0000000000000005
 10
522.0365177204786
 20
389.5696100195617
 30
-0.0000000000000006
 10
522.6373477861471
 20
391.0651340770982
 30
-0.0000000000000007
 10
522.6373477861471
 20
392.8694960188568
 30
-0.0000000000000007
  0
SPLINE
  5
31E
330
1F
100
AcDbEntity
  8
1
  6
Continuous
 62
   155
100
AcDbSpline
210
0.0
220
0.0
230
1.0
 70
     8
 71
     3
 72
    10
 73
     6
 74
     0
 42
0.0000000001
 43
0.0000000001
 40
0.0
 40
0.0
 40
0.0
 40
0.0
 40
0.4999999999999992
 40
0.4999999999999992
 40
1.0
 40
1.0
 40
1.0
 40
1.0
 10
521.0538517252262
 20
402.8196911250689
 30
-0.0000000000000006
 10
521.0538517252262
 20
404.1224254730599
 30
-0.0000000000000006
 10
520.5934025160224
 20
405.23424185626
 30
-0.0000000000000005
 10
518.7516056792065
 20
407.076038693076
 30
-0.0000000000000004
 10
517.6397892960068
 20
407.53648790228
 30
-0.0000000000000003
 10
516.3370549480151
 20
407.53648790228
 30
-0.0000000000000003
  0
SPLINE
  5
31F
330
1F
100
AcDbEntity
  8
1
  6
Continuous
 62
   155
100
AcDbSpline
210
0.0
220
0.0
230
1.0
 70
     8
 71
     3
 72
     8
 73
     4
 74
     0
 42
0.0000000001
 43
0.0000000001
 40
0.0
 40
0.0
 40
0.0
 40
0.0
 40
1.0
 40
1.0
 40
1.0
 40
1.0
 10
518.6617619310693
 20
398.7093396477847
 30
-0.0000000000000004
 10
520.2564884605073
 20
399.6302380661927
 30
-0.0000000000000005
 10
521.0538517252262
 20
401.0003552252869
 30
-0.0000000000000006
 10
521.0538517252262
 20
402.8196911250689
 30
-0.0000000000000006
  0
LINE
  5
35F
330
1F
100
AcDbEntity
  8
1
  6
Continuous
 62
   155
100
AcDbLine
 10
212.4005838867045
 20
385.8612030851169
 30
0.0
 11
214.2760718867045
 21
385.8612030851169
 31
0.0
  0
LINE
  5
360
330
1F
100
AcDbEntity
  8
1
  6
Continuous
 62
   155
100
AcDbLine
 10
196.0939428867045
 20
406.7947970851169
 30
0.0
 11
196.0939428867045
 21
396.5301480851169
 31
0.0
  0
LINE
  5
361
330
1F
100
AcDbEntity
  8
1
  6
Continuous
 62
   155
100
AcDbLine
 10
205.9093728867046
 20
406.7947970851169
 30
0.0
 11
205.9093728867046
 21
396.5301480851169
 31
0.0
  0
LINE
  5
362
330
1F
100
AcDbEntity
  8
1
  6
Continuous
 62
   155
100
AcDbLine
 10
219.1388648867045
 20
396.1258510851169
 30
0.0
 11
212.4005838867045
 21
396.1258510851169
 31
0.0
  0
LINE
  5
363
330
1F
100
AcDbEntity
  8
1
  6
Continuous
 62
   155
100
AcDbLine
 10
205.9093728867046
 20
385.8612030851169
 30
0.0
 11
211.9738258867045
 21
385.8612030851169
 31
0.0
  0
LINE
  5
364
330
1F
100
AcDbEntity
  8
1
  6
Continuous
 62
   155
100
AcDbLine
 10
205.9093728867046
 20
396.5301480851169
 30
0.0
 11
211.9738258867045
 21
396.5301480851169
 31
0.0
  0
LINE
  5
365
330
1F
100
AcDbEntity
  8
1
  6
Continuous
 62
   155
100
AcDbLine
 10
205.9093728867046
 20
396.125851085117
 30
0.0
 11
205.9093728867046
 21
385.8612030851169
 31
0.0
  0
LINE
  5
366
330
1F
100
AcDbEntity
  8
1
  6
Continuous
 62
   155
100
AcDbLine
 10
196.0939428867045
 20
396.5301480851169
 30
0.0
 11
202.4503878867045
 21
396.5301480851169
 31
0.0
  0
LINE
  5
367
330
1F
100
AcDbEntity
  8
1
  6
Continuous
 62
   155
100
AcDbLine
 10
212.4005838867045
 20
396.1258510851169
 30
0.0
 11
212.4005838867045
 21
385.8612030851169
 31
0.0
  0
LINE
  5
368
330
1F
100
AcDbEntity
  8
1
  6
Continuous
 62
   155
100
AcDbLine
 10
211.9738258867045
 20
396.5301480851169
 30
0.0
 11
211.9738258867045
 21
406.7947970851169
 31
0.0
  0
LINE
  5
369
330
1F
100
AcDbEntity
  8
1
  6
Continuous
 62
   155
100
AcDbLine
 10
211.9738258867045
 20
385.8612030851169
 30
0.0
 11
211.9738258867045
 21
396.1258510851169
 31
0.0
  0
LINE
  5
36A
330
1F
100
AcDbEntity
  8
1
  6
Continuous
 62
   155
100
AcDbLine
 10
211.9738258867045
 20
406.7947970851169
 30
0.0
 11
205.9093728867046
 21
406.7947970851169
 31
0.0
  0
LINE
  5
36B
330
1F
100
AcDbEntity
  8
1
  6
Continuous
 62
   155
100
AcDbLine
 10
197.9694308867045
 20
406.7947970851169
 30
0.0
 11
196.0939428867045
 21
406.7947970851169
 31
0.0
  0
LINE
  5
36C
330
1F
100
AcDbEntity
  8
1
  6
Continuous
 62
   155
100
AcDbLine
 10
211.9738258867045
 20
396.1258510851169
 30
0.0
 11
205.9093728867046
 21
396.125851085117
 31
0.0
  0
LINE
  5
36D
330
1F
100
AcDbEntity
  8
1
  6
Continuous
 62
   155
100
AcDbLine
 10
172.4650368867044
 20
385.8612030851169
 30
0.0
 11
173.9362288867045
 21
390.0613980851169
 31
0.0
  0
LINE
  5
36E
330
1F
100
AcDbEntity
  8
1
  6
Continuous
 62
   155
100
AcDbLine
 10
177.4962868867045
 20
396.125851085117
 30
0.0
 11
170.8253888867045
 21
396.125851085117
 31
0.0
  0
LINE
  5
36F
330
1F
100
AcDbEntity
  8
1
  6
Continuous
 62
   155
100
AcDbLine
 10
167.2316388867045
 20
385.8612030851169
 30
0.0
 11
172.4650368867044
 21
385.8612030851169
 31
0.0
  0
LINE
  5
370
330
1F
100
AcDbEntity
  8
1
  6
Continuous
 62
   155
100
AcDbLine
 10
212.4005838867045
 20
406.7947970851169
 30
0.0
 11
212.4005838867045
 21
396.5301480851169
 31
0.0
  0
LINE
  5
371
330
1F
100
AcDbEntity
  8
1
  6
Continuous
 62
   155
100
AcDbLine
 10
214.2760718867045
 20
406.7947970851169
 30
0.0
 11
212.4005838867045
 21
406.7947970851169
 31
0.0
  0
LINE
  5
372
330
1F
100
AcDbEntity
  8
1
  6
Continuous
 62
   155
100
AcDbLine
 10
212.4005838867045
 20
396.5301480851169
 30
0.0
 11
218.7570288867046
 21
396.5301480851169
 31
0.0
  0
LINE
  5
373
330
1F
100
AcDbEntity
  8
1
  6
Continuous
 62
   155
100
AcDbLine
 10
170.8253888867045
 20
396.125851085117
 30
0.0
 11
167.2316388867045
 21
385.8612030851169
 31
0.0
  0
LINE
  5
374
330
1F
100
AcDbEntity
  8
1
  6
Continuous
 62
   155
100
AcDbLine
 10
202.8322238867044
 20
396.125851085117
 30
0.0
 11
196.0939428867045
 21
396.125851085117
 31
0.0
  0
LINE
  5
375
330
1F
100
AcDbEntity
  8
1
  6
Continuous
 62
   155
100
AcDbLine
 10
188.1652318867045
 20
385.8612030851169
 30
0.0
 11
184.5714828867045
 21
396.125851085117
 31
0.0
  0
LINE
  5
376
330
1F
100
AcDbEntity
  8
1
  6
Continuous
 62
   155
100
AcDbLine
 10
182.9318338867045
 20
385.8612030851169
 30
0.0
 11
188.1652318867045
 21
385.8612030851169
 31
0.0
  0
LINE
  5
377
330
1F
100
AcDbEntity
  8
1
  6
Continuous
 62
   155
100
AcDbLine
 10
177.4962868867045
 20
406.7947970851169
 30
0.0
 11
174.5651348867045
 21
406.7947970851169
 31
0.0
  0
LINE
  5
378
330
1F
100
AcDbEntity
  8
1
  6
Continuous
 62
   155
100
AcDbLine
 10
180.8317368867045
 20
406.7947970851169
 30
0.0
 11
177.9005838867045
 21
406.7947970851169
 31
0.0
  0
LINE
  5
379
330
1F
100
AcDbEntity
  8
1
  6
Continuous
 62
   155
100
AcDbLine
 10
181.4606428867044
 20
390.0613980851169
 30
0.0
 11
182.9318338867045
 21
385.8612030851169
 31
0.0
  0
LINE
  5
37A
330
1F
100
AcDbEntity
  8
1
  6
Continuous
 62
   155
100
AcDbLine
 10
177.9005838867045
 20
396.125851085117
 30
0.0
 11
177.9005838867045
 21
390.0613980851169
 31
0.0
  0
LINE
  5
37B
330
1F
100
AcDbEntity
  8
1
  6
Continuous
 62
   155
100
AcDbLine
 10
170.9713848867045
 20
396.5301480851169
 30
0.0
 11
177.4962868867045
 21
396.5301480851169
 31
0.0
  0
LINE
  5
37C
330
1F
100
AcDbEntity
  8
1
  6
Continuous
 62
   155
100
AcDbLine
 10
196.0939428867045
 20
385.8612030851169
 30
0.0
 11
197.9694308867045
 21
385.8612030851169
 31
0.0
  0
LINE
  5
37D
330
1F
100
AcDbEntity
  8
1
  6
Continuous
 62
   155
100
AcDbLine
 10
189.6027318867045
 20
396.125851085117
 30
0.0
 11
189.6027318867045
 21
385.8612030851169
 31
0.0
  0
LINE
  5
37E
330
1F
100
AcDbEntity
  8
1
  6
Continuous
 62
   155
100
AcDbLine
 10
177.9005838867045
 20
396.5301480851169
 30
0.0
 11
184.4254858867045
 21
396.5301480851169
 31
0.0
  0
LINE
  5
37F
330
1F
100
AcDbEntity
  8
1
  6
Continuous
 62
   155
100
AcDbLine
 10
195.6671848867045
 20
406.7947970851169
 30
0.0
 11
189.6027318867045
 21
406.7947970851169
 31
0.0
  0
LINE
  5
380
330
1F
100
AcDbEntity
  8
1
  6
Continuous
 62
   155
100
AcDbLine
 10
177.9005838867045
 20
406.7947970851169
 30
0.0
 11
177.9005838867045
 21
396.5301480851169
 31
0.0
  0
LINE
  5
381
330
1F
100
AcDbEntity
  8
1
  6
Continuous
 62
   155
100
AcDbLine
 10
174.5651348867045
 20
406.7947970851169
 30
0.0
 11
170.9713848867045
 21
396.5301480851169
 31
0.0
  0
LINE
  5
382
330
1F
100
AcDbEntity
  8
1
  6
Continuous
 62
   155
100
AcDbLine
 10
184.4254858867045
 20
396.5301480851169
 30
0.0
 11
180.8317368867045
 21
406.7947970851169
 31
0.0
  0
LINE
  5
383
330
1F
100
AcDbEntity
  8
1
  6
Continuous
 62
   155
100
AcDbLine
 10
173.9362288867045
 20
390.0613980851169
 30
0.0
 11
177.4962868867045
 21
390.0613980851169
 31
0.0
  0
LINE
  5
384
330
1F
100
AcDbEntity
  8
1
  6
Continuous
 62
   155
100
AcDbLine
 10
177.9005838867045
 20
390.0613980851169
 30
0.0
 11
181.4606428867044
 21
390.0613980851169
 31
0.0
  0
LINE
  5
385
330
1F
100
AcDbEntity
  8
1
  6
Continuous
 62
   155
100
AcDbLine
 10
189.6027318867045
 20
385.8612030851169
 30
0.0
 11
195.6671848867045
 21
385.8612030851169
 31
0.0
  0
LINE
  5
386
330
1F
100
AcDbEntity
  8
1
  6
Continuous
 62
   155
100
AcDbLine
 10
184.5714828867045
 20
396.125851085117
 30
0.0
 11
177.9005838867045
 21
396.125851085117
 31
0.0
  0
LINE
  5
387
330
1F
100
AcDbEntity
  8
1
  6
Continuous
 62
   155
100
AcDbLine
 10
196.0939428867045
 20
396.125851085117
 30
0.0
 11
196.0939428867045
 21
385.8612030851169
 31
0.0
  0
LINE
  5
388
330
1F
100
AcDbEntity
  8
1
  6
Continuous
 62
   155
100
AcDbLine
 10
177.4962868867045
 20
396.5301480851169
 30
0.0
 11
177.4962868867045
 21
406.7947970851169
 31
0.0
  0
LINE
  5
389
330
1F
100
AcDbEntity
  8
1
  6
Continuous
 62
   155
100
AcDbLine
 10
177.4962868867045
 20
390.0613980851169
 30
0.0
 11
177.4962868867045
 21
396.125851085117
 31
0.0
  0
LINE
  5
38A
330
1F
100
AcDbEntity
  8
1
  6
Continuous
 62
   155
100
AcDbLine
 10
189.6027318867045
 20
396.5301480851169
 30
0.0
 11
195.6671848867045
 21
396.5301480851169
 31
0.0
  0
LINE
  5
38B
330
1F
100
AcDbEntity
  8
1
  6
Continuous
 62
   155
100
AcDbLine
 10
195.6671848867045
 20
396.5301480851169
 30
0.0
 11
195.6671848867045
 21
406.7947970851169
 31
0.0
  0
LINE
  5
38C
330
1F
100
AcDbEntity
  8
1
  6
Continuous
 62
   155
100
AcDbLine
 10
195.6671848867045
 20
396.125851085117
 30
0.0
 11
189.6027318867045
 21
396.125851085117
 31
0.0
  0
LINE
  5
38D
330
1F
100
AcDbEntity
  8
1
  6
Continuous
 62
   155
100
AcDbLine
 10
195.6671848867045
 20
385.8612030851169
 30
0.0
 11
195.6671848867045
 21
396.125851085117
 31
0.0
  0
LINE
  5
38E
330
1F
100
AcDbEntity
  8
1
  6
Continuous
 62
   155
100
AcDbLine
 10
189.6027318867045
 20
406.7947970851169
 30
0.0
 11
189.6027318867045
 21
396.5301480851169
 31
0.0
  0
SPLINE
  5
38F
330
1F
100
AcDbEntity
  8
1
  6
Continuous
 62
   155
100
AcDbSpline
210
0.0
220
0.0
230
1.0
 70
     8
 71
     3
 72
     8
 73
     4
 74
     0
 42
0.0000000001
 43
0.0000000001
 40
0.0
 40
0.0
 40
0.0
 40
0.0
 40
1.0
 40
1.0
 40
1.0
 40
1.0
 10
202.4503882990736
 20
396.5301483846533
 30
-0.0000000000000005
 10
201.8589169571693
 20
397.1590546216146
 30
-0.0000000000000005
 10
201.1401669720705
 20
397.6382212783473
 30
-0.0000000000000005
 10
200.2941383437772
 20
397.9676483548508
 30
-0.0000000000000004
  0
SPLINE
  5
390
330
1F
100
AcDbEntity
  8
1
  6
Continuous
 62
   155
100
AcDbSpline
210
0.0
220
0.0
230
1.0
 70
     8
 71
     3
 72
     8
 73
     4
 74
     0
 42
0.0000000001
 43
0.0000000001
 40
0.0
 40
0.0
 40
0.0
 40
0.0
 40
1.0
 40
1.0
 40
1.0
 40
1.0
 10
220.5763644857849
 20
392.1278047259228
 30
-0.0000000000000017
 10
220.5763644857849
 20
393.6252005282121
 30
-0.0000000000000017
 10
220.0971978290523
 20
394.9578827922494
 30
-0.0000000000000016
 10
219.1388645155872
 20
396.1258515180351
 30
-0.0000000000000016
  0
SPLINE
  5
391
330
1F
100
AcDbEntity
  8
1
  6
Continuous
 62
   155
100
AcDbSpline
210
0.0
220
0.0
230
1.0
 70
     8
 71
     3
 72
    10
 73
     6
 74
     0
 42
0.0000000001
 43
0.0000000001
 40
0.0
 40
0.0
 40
0.0
 40
0.0
 40
0.5
 40
0.5
 40
1.0
 40
1.0
 40
1.0
 40
1.0
 10
214.2760716476529
 20
385.8612032933423
 30
-0.0000000000000013
 10
216.0729466104
 20
385.8612032933423
 30
-0.0000000000000014
 10
217.5722141574421
 20
386.4545463799996
 30
-0.0000000000000015
 10
219.9755344201163
 20
388.8279187266277
 30
-0.0000000000000016
 10
220.5763644857849
 20
390.3234427841643
 30
-0.0000000000000017
 10
220.5763644857849
 20
392.1278047259228
 30
-0.0000000000000017
  0
SPLINE
  5
392
330
1F
100
AcDbEntity
  8
1
  6
Continuous
 62
   155
100
AcDbSpline
210
0.0
220
0.0
230
1.0
 70
     8
 71
     3
 72
     8
 73
     4
 74
     0
 42
0.0000000001
 43
0.0000000001
 40
0.0
 40
0.0
 40
0.0
 40
0.0
 40
1.0
 40
1.0
 40
1.0
 40
1.0
 10
218.7570285860036
 20
396.5301483846532
 30
-0.0000000000000015
 10
218.1655572440992
 20
397.1590546216146
 30
-0.0000000000000015
 10
217.4468072590005
 20
397.6382212783473
 30
-0.0000000000000015
 10
216.6007786307069
 20
397.9676483548508
 30
-0.0000000000000014
  0
SPLINE
  5
393
330
1F
100
AcDbEntity
  8
1
  6
Continuous
 62
   155
100
AcDbSpline
210
0.0
220
0.0
230
1.0
 70
     8
 71
     3
 72
    10
 73
     6
 74
     0
 42
0.0000000001
 43
0.0000000001
 40
0.0
 40
0.0
 40
0.0
 40
0.0
 40
0.5
 40
0.5
 40
1.0
 40
1.0
 40
1.0
 40
1.0
 10
218.992868424864
 20
402.077999832135
 30
-0.0000000000000016
 10
218.992868424864
 20
403.380734180126
 30
-0.0000000000000016
 10
218.5324192156601
 20
404.492550563326
 30
-0.0000000000000015
 10
216.6906223788443
 20
406.334347400142
 30
-0.0000000000000014
 10
215.5788059956445
 20
406.7947966093461
 30
-0.0000000000000013
 10
214.2760716476529
 20
406.7947966093461
 30
-0.0000000000000013
  0
SPLINE
  5
394
330
1F
100
AcDbEntity
  8
1
  6
Continuous
 62
   155
100
AcDbSpline
210
0.0
220
0.0
230
1.0
 70
     8
 71
     3
 72
     8
 73
     4
 74
     0
 42
0.0000000001
 43
0.0000000001
 40
0.0
 40
0.0
 40
0.0
 40
0.0
 40
1.0
 40
1.0
 40
1.0
 40
1.0
 10
216.6007786307069
 20
397.9676483548508
 30
-0.0000000000000014
 10
218.195505160145
 20
398.8885467732588
 30
-0.0000000000000015
 10
218.992868424864
 20
400.258663932353
 30
-0.0000000000000016
 10
218.992868424864
 20
402.077999832135
 30
-0.0000000000000016
  0
SPLINE
  5
395
330
1F
100
AcDbEntity
  8
1
  6
Continuous
 62
   155
100
AcDbSpline
210
0.0
220
0.0
230
1.0
 70
     8
 71
     3
 72
     8
 73
     4
 74
     0
 42
0.0000000001
 43
0.0000000001
 40
0.0
 40
0.0
 40
0.0
 40
0.0
 40
1.0
 40
1.0
 40
1.0
 40
1.0
 10
204.269724198855
 20
392.1278047259229
 30
-0.0000000000000007
 10
204.269724198855
 20
393.6252005282121
 30
-0.0000000000000007
 10
203.7905575421224
 20
394.9578827922494
 30
-0.0000000000000006
 10
202.8322242286573
 20
396.1258515180351
 30
-0.0000000000000006
  0
SPLINE
  5
396
330
1F
100
AcDbEntity
  8
1
  6
Continuous
 62
   155
100
AcDbSpline
210
0.0
220
0.0
230
1.0
 70
     8
 71
     3
 72
    10
 73
     6
 74
     0
 42
0.0000000001
 43
0.0000000001
 40
0.0
 40
0.0
 40
0.0
 40
0.0
 40
0.5
 40
0.5
 40
1.0
 40
1.0
 40
1.0
 40
1.0
 10
197.969431360723
 20
385.8612032933424
 30
-0.0000000000000003
 10
199.7663063234701
 20
385.8612032933424
 30
-0.0000000000000004
 10
201.2655738705122
 20
386.4545463799996
 30
-0.0000000000000005
 10
203.6688941331864
 20
388.8279187266278
 30
-0.0000000000000006
 10
204.269724198855
 20
390.3234427841643
 30
-0.0000000000000007
 10
204.269724198855
 20
392.1278047259229
 30
-0.0000000000000007
  0
SPLINE
  5
397
330
1F
100
AcDbEntity
  8
1
  6
Continuous
 62
   155
100
AcDbSpline
210
0.0
220
0.0
230
1.0
 70
     8
 71
     3
 72
    10
 73
     6
 74
     0
 42
0.0000000001
 43
0.0000000001
 40
0.0
 40
0.0
 40
0.0
 40
0.0
 40
0.4999999999999992
 40
0.4999999999999992
 40
1.0
 40
1.0
 40
1.0
 40
1.0
 10
202.6862281379341
 20
402.0779998321351
 30
-0.0000000000000006
 10
202.6862281379341
 20
403.3807341801261
 30
-0.0000000000000006
 10
202.2257789287301
 20
404.4925505633261
 30
-0.0000000000000005
 10
200.3839820919144
 20
406.334347400142
 30
-0.0000000000000004
 10
199.2721657087146
 20
406.7947966093461
 30
-0.0000000000000003
 10
197.969431360723
 20
406.7947966093461
 30
-0.0000000000000003
  0
SPLINE
  5
398
330
1F
100
AcDbEntity
  8
1
  6
Continuous
 62
   155
100
AcDbSpline
210
0.0
220
0.0
230
1.0
 70
     8
 71
     3
 72
     8
 73
     4
 74
     0
 42
0.0000000001
 43
0.0000000001
 40
0.0
 40
0.0
 40
0.0
 40
0.0
 40
1.0
 40
1.0
 40
1.0
 40
1.0
 10
200.2941383437772
 20
397.9676483548508
 30
-0.0000000000000004
 10
201.8888648732151
 20
398.8885467732588
 30
-0.0000000000000005
 10
202.6862281379341
 20
400.258663932353
 30
-0.0000000000000006
 10
202.6862281379341
 20
402.0779998321351
 30
-0.0000000000000006
  0
LINE
  5
3D8
330
1F
100
AcDbEntity
  8
1
  6
Continuous
 62
   155
100
AcDbLine
 10
824.3779082000001
 20
485.4493389999999
 30
0.0
 11
825.8782986000001
 21
485.4493389999999
 31
0.0
  0
LINE
  5
3D9
330
1F
100
AcDbEntity
  8
1
  6
Continuous
 62
   155
100
AcDbLine
 10
811.3325954000002
 20
502.1962141999999
 30
0.0
 11
811.3325954000002
 21
493.9844949999999
 31
0.0
  0
LINE
  5
3DA
330
1F
100
AcDbEntity
  8
1
  6
Continuous
 62
   155
100
AcDbLine
 10
819.1849394000003
 20
502.1962141999999
 30
0.0
 11
819.1849394000003
 21
493.9844949999999
 31
0.0
  0
LINE
  5
3DB
330
1F
100
AcDbEntity
  8
1
  6
Continuous
 62
   155
100
AcDbLine
 10
829.7685330000001
 20
493.6610573999998
 30
0.0
 11
824.3779082000001
 21
493.6610573999998
 31
0.0
  0
LINE
  5
3DC
330
1F
100
AcDbEntity
  8
1
  6
Continuous
 62
   155
100
AcDbLine
 10
819.1849394000003
 20
485.449339
 30
0.0
 11
824.0365018000002
 21
485.4493389999999
 31
0.0
  0
LINE
  5
3DD
330
1F
100
AcDbEntity
  8
1
  6
Continuous
 62
   155
100
AcDbLine
 10
819.1849394000003
 20
493.9844949999999
 30
0.0
 11
824.0365018000002
 21
493.9844949999999
 31
0.0
  0
LINE
  5
3DE
330
1F
100
AcDbEntity
  8
1
  6
Continuous
 62
   155
100
AcDbLine
 10
819.1849394000003
 20
493.6610573999999
 30
0.0
 11
819.1849394000003
 21
485.449339
 31
0.0
  0
LINE
  5
3DF
330
1F
100
AcDbEntity
  8
1
  6
Continuous
 62
   155
100
AcDbLine
 10
811.3325954000002
 20
493.9844949999999
 30
0.0
 11
816.4177514
 21
493.9844949999999
 31
0.0
  0
LINE
  5
3E0
330
1F
100
AcDbEntity
  8
1
  6
Continuous
 62
   155
100
AcDbLine
 10
824.3779082000001
 20
493.6610573999998
 30
0.0
 11
824.3779082000001
 21
485.4493389999999
 31
0.0
  0
LINE
  5
3E1
330
1F
100
AcDbEntity
  8
1
  6
Continuous
 62
   155
100
AcDbLine
 10
824.0365018000002
 20
493.9844949999999
 30
0.0
 11
824.0365018000002
 21
502.1962141999999
 31
0.0
  0
LINE
  5
3E2
330
1F
100
AcDbEntity
  8
1
  6
Continuous
 62
   155
100
AcDbLine
 10
824.0365018000002
 20
485.4493389999999
 30
0.0
 11
824.0365018000002
 21
493.6610573999998
 31
0.0
  0
LINE
  5
3E3
330
1F
100
AcDbEntity
  8
1
  6
Continuous
 62
   155
100
AcDbLine
 10
824.0365018000002
 20
502.1962141999999
 30
0.0
 11
819.1849394000003
 21
502.1962141999999
 31
0.0
  0
LINE
  5
3E4
330
1F
100
AcDbEntity
  8
1
  6
Continuous
 62
   155
100
AcDbLine
 10
812.8329858000002
 20
502.1962141999999
 30
0.0
 11
811.3325954000002
 21
502.1962141999999
 31
0.0
  0
LINE
  5
3E5
330
1F
100
AcDbEntity
  8
1
  6
Continuous
 62
   155
100
AcDbLine
 10
824.0365018000002
 20
493.6610573999998
 30
0.0
 11
819.1849394000003
 21
493.6610573999999
 31
0.0
  0
LINE
  5
3E6
330
1F
100
AcDbEntity
  8
1
  6
Continuous
 62
   155
100
AcDbLine
 10
792.4294706
 20
485.449339
 30
0.0
 11
793.6064242000001
 21
488.809495
 31
0.0
  0
LINE
  5
3E7
330
1F
100
AcDbEntity
  8
1
  6
Continuous
 62
   155
100
AcDbLine
 10
796.4544706000001
 20
493.6610573999999
 30
0.0
 11
791.1177522000001
 21
493.6610573999999
 31
0.0
  0
LINE
  5
3E8
330
1F
100
AcDbEntity
  8
1
  6
Continuous
 62
   155
100
AcDbLine
 10
788.2427522000001
 20
485.449339
 30
0.0
 11
792.4294706
 21
485.449339
 31
0.0
  0
LINE
  5
3E9
330
1F
100
AcDbEntity
  8
1
  6
Continuous
 62
   155
100
AcDbLine
 10
824.3779082000001
 20
502.1962141999999
 30
0.0
 11
824.3779082000001
 21
493.9844949999999
 31
0.0
  0
LINE
  5
3EA
330
1F
100
AcDbEntity
  8
1
  6
Continuous
 62
   155
100
AcDbLine
 10
825.8782986000001
 20
502.1962141999999
 30
0.0
 11
824.3779082000001
 21
502.1962141999999
 31
0.0
  0
LINE
  5
3EB
330
1F
100
AcDbEntity
  8
1
  6
Continuous
 62
   155
100
AcDbLine
 10
824.3779082000001
 20
493.9844949999999
 30
0.0
 11
829.4630642000001
 21
493.9844949999999
 31
0.0
  0
LINE
  5
3EC
330
1F
100
AcDbEntity
  8
1
  6
Continuous
 62
   155
100
AcDbLine
 10
791.1177522000001
 20
493.6610573999999
 30
0.0
 11
788.2427522000001
 21
485.449339
 31
0.0
  0
LINE
  5
3ED
330
1F
100
AcDbEntity
  8
1
  6
Continuous
 62
   155
100
AcDbLine
 10
816.7232202000002
 20
493.6610573999999
 30
0.0
 11
811.3325954000002
 21
493.6610573999999
 31
0.0
  0
LINE
  5
3EE
330
1F
100
AcDbEntity
  8
1
  6
Continuous
 62
   155
100
AcDbLine
 10
804.9896266000002
 20
485.449339
 30
0.0
 11
802.1146273999999
 21
493.6610573999999
 31
0.0
  0
LINE
  5
3EF
330
1F
100
AcDbEntity
  8
1
  6
Continuous
 62
   155
100
AcDbLine
 10
800.8029082
 20
485.449339
 30
0.0
 11
804.9896266000002
 21
485.449339
 31
0.0
  0
LINE
  5
3F0
330
1F
100
AcDbEntity
  8
1
  6
Continuous
 62
   155
100
AcDbLine
 10
796.4544706000001
 20
502.1962141999999
 30
0.0
 11
794.1095490000003
 21
502.1962141999999
 31
0.0
  0
LINE
  5
3F1
330
1F
100
AcDbEntity
  8
1
  6
Continuous
 62
   155
100
AcDbLine
 10
799.1228306
 20
502.1962141999999
 30
0.0
 11
796.7779082000001
 21
502.1962141999999
 31
0.0
  0
LINE
  5
3F2
330
1F
100
AcDbEntity
  8
1
  6
Continuous
 62
   155
100
AcDbLine
 10
799.6259554000003
 20
488.809495
 30
0.0
 11
800.8029082
 21
485.449339
 31
0.0
  0
LINE
  5
3F3
330
1F
100
AcDbEntity
  8
1
  6
Continuous
 62
   155
100
AcDbLine
 10
796.7779082000001
 20
493.6610573999999
 30
0.0
 11
796.7779082000001
 21
488.809495
 31
0.0
  0
LINE
  5
3F4
330
1F
100
AcDbEntity
  8
1
  6
Continuous
 62
   155
100
AcDbLine
 10
791.2345490000001
 20
493.9844949999999
 30
0.0
 11
796.4544706000001
 21
493.9844949999999
 31
0.0
  0
LINE
  5
3F5
330
1F
100
AcDbEntity
  8
1
  6
Continuous
 62
   155
100
AcDbLine
 10
811.3325954000002
 20
485.449339
 30
0.0
 11
812.8329858000002
 21
485.449339
 31
0.0
  0
LINE
  5
3F6
330
1F
100
AcDbEntity
  8
1
  6
Continuous
 62
   155
100
AcDbLine
 10
806.1396266
 20
493.6610573999999
 30
0.0
 11
806.1396266
 21
485.449339
 31
0.0
  0
LINE
  5
3F7
330
1F
100
AcDbEntity
  8
1
  6
Continuous
 62
   155
100
AcDbLine
 10
796.7779082000001
 20
493.9844949999999
 30
0.0
 11
801.9978298000003
 21
493.9844949999999
 31
0.0
  0
LINE
  5
3F8
330
1F
100
AcDbEntity
  8
1
  6
Continuous
 62
   155
100
AcDbLine
 10
810.9911890000001
 20
502.1962141999999
 30
0.0
 11
806.1396266
 21
502.1962141999999
 31
0.0
  0
LINE
  5
3F9
330
1F
100
AcDbEntity
  8
1
  6
Continuous
 62
   155
100
AcDbLine
 10
796.7779082000001
 20
502.1962141999999
 30
0.0
 11
796.7779082000001
 21
493.9844949999999
 31
0.0
  0
LINE
  5
3FA
330
1F
100
AcDbEntity
  8
1
  6
Continuous
 62
   155
100
AcDbLine
 10
794.1095490000003
 20
502.1962141999999
 30
0.0
 11
791.2345490000001
 21
493.9844949999999
 31
0.0
  0
LINE
  5
3FB
330
1F
100
AcDbEntity
  8
1
  6
Continuous
 62
   155
100
AcDbLine
 10
801.9978298000003
 20
493.9844949999999
 30
0.0
 11
799.1228306
 21
502.1962141999999
 31
0.0
  0
LINE
  5
3FC
330
1F
100
AcDbEntity
  8
1
  6
Continuous
 62
   155
100
AcDbLine
 10
793.6064242000001
 20
488.809495
 30
0.0
 11
796.4544706000001
 21
488.809495
 31
0.0
  0
LINE
  5
3FD
330
1F
100
AcDbEntity
  8
1
  6
Continuous
 62
   155
100
AcDbLine
 10
796.7779082000001
 20
488.809495
 30
0.0
 11
799.6259554000003
 21
488.809495
 31
0.0
  0
LINE
  5
3FE
330
1F
100
AcDbEntity
  8
1
  6
Continuous
 62
   155
100
AcDbLine
 10
806.1396266
 20
485.449339
 30
0.0
 11
810.9911890000001
 21
485.449339
 31
0.0
  0
LINE
  5
3FF
330
1F
100
AcDbEntity
  8
1
  6
Continuous
 62
   155
100
AcDbLine
 10
802.1146273999999
 20
493.6610573999999
 30
0.0
 11
796.7779082000001
 21
493.6610573999999
 31
0.0
  0
LINE
  5
400
330
1F
100
AcDbEntity
  8
1
  6
Continuous
 62
   155
100
AcDbLine
 10
811.3325954000002
 20
493.6610573999999
 30
0.0
 11
811.3325954000002
 21
485.449339
 31
0.0
  0
LINE
  5
401
330
1F
100
AcDbEntity
  8
1
  6
Continuous
 62
   155
100
AcDbLine
 10
796.4544706000001
 20
493.9844949999999
 30
0.0
 11
796.4544706000001
 21
502.1962141999999
 31
0.0
  0
LINE
  5
402
330
1F
100
AcDbEntity
  8
1
  6
Continuous
 62
   155
100
AcDbLine
 10
796.4544706000001
 20
488.809495
 30
0.0
 11
796.4544706000001
 21
493.6610573999999
 31
0.0
  0
LINE
  5
403
330
1F
100
AcDbEntity
  8
1
  6
Continuous
 62
   155
100
AcDbLine
 10
806.1396266
 20
493.9844949999999
 30
0.0
 11
810.9911890000001
 21
493.9844949999999
 31
0.0
  0
LINE
  5
404
330
1F
100
AcDbEntity
  8
1
  6
Continuous
 62
   155
100
AcDbLine
 10
810.9911890000001
 20
493.9844949999999
 30
0.0
 11
810.9911890000001
 21
502.1962141999999
 31
0.0
  0
LINE
  5
405
330
1F
100
AcDbEntity
  8
1
  6
Continuous
 62
   155
100
AcDbLine
 10
810.9911890000001
 20
493.6610573999999
 30
0.0
 11
806.1396266
 21
493.6610573999999
 31
0.0
  0
LINE
  5
406
330
1F
100
AcDbEntity
  8
1
  6
Continuous
 62
   155
100
AcDbLine
 10
810.9911890000001
 20
485.449339
 30
0.0
 11
810.9911890000001
 21
493.6610573999999
 31
0.0
  0
LINE
  5
407
330
1F
100
AcDbEntity
  8
1
  6
Continuous
 62
   155
100
AcDbLine
 10
806.1396266
 20
502.1962141999999
 30
0.0
 11
806.1396266
 21
493.9844949999999
 31
0.0
  0
SPLINE
  5
408
330
1F
100
AcDbEntity
  8
1
  6
Continuous
 62
   155
100
AcDbSpline
210
0.0
220
0.0
230
1.0
 70
     8
 71
     3
 72
     8
 73
     4
 74
     0
 42
0.0000000001
 43
0.0000000001
 40
0.0
 40
0.0
 40
0.0
 40
0.0
 40
1.0
 40
1.0
 40
1.0
 40
1.0
 10
816.4177517298956
 20
493.984495239629
 30
-0.0000000000000004
 10
815.9445746563719
 20
494.487620229198
 30
-0.0000000000000004
 10
815.3695746682931
 20
494.8709535545843
 30
-0.0000000000000004
 10
814.6927517656584
 20
495.134495215787
 30
-0.0000000000000003
  0
SPLINE
  5
409
330
1F
100
AcDbEntity
  8
1
  6
Continuous
 62
   155
100
AcDbSpline
210
0.0
220
0.0
230
1.0
 70
     8
 71
     3
 72
     8
 73
     4
 74
     0
 42
0.0000000001
 43
0.0000000001
 40
0.0
 40
0.0
 40
0.0
 40
0.0
 40
1.0
 40
1.0
 40
1.0
 40
1.0
 10
830.9185326792643
 20
490.4626203126446
 30
-0.0000000000000014
 10
830.9185326792643
 20
491.660536954476
 30
-0.0000000000000014
 10
830.5351993538783
 20
492.7266827657058
 30
-0.0000000000000013
 10
829.7685327031063
 20
493.6610577463344
 30
-0.0000000000000013
  0
SPLINE
  5
40A
330
1F
100
AcDbEntity
  8
1
  6
Continuous
 62
   155
100
AcDbSpline
210
0.0
220
0.0
230
1.0
 70
     8
 71
     3
 72
    10
 73
     6
 74
     0
 42
0.0000000001
 43
0.0000000001
 40
0.0
 40
0.0
 40
0.0
 40
0.0
 40
0.5
 40
0.5
 40
1.0
 40
1.0
 40
1.0
 40
1.0
 10
825.8782984087588
 20
485.4493391665802
 30
-0.000000000000001
 10
827.3157983789564
 20
485.4493391665802
 30
-0.0000000000000011
 10
828.5152124165902
 20
485.924013635906
 30
-0.0000000000000012
 10
830.4378686267295
 20
487.8227115132085
 30
-0.0000000000000013
 10
830.9185326792643
 20
489.0191307592378
 30
-0.0000000000000014
 10
830.9185326792643
 20
490.4626203126446
 30
-0.0000000000000014
  0
SPLINE
  5
40B
330
1F
100
AcDbEntity
  8
1
  6
Continuous
 62
   155
100
AcDbSpline
210
0.0
220
0.0
230
1.0
 70
     8
 71
     3
 72
     8
 73
     4
 74
     0
 42
0.0000000001
 43
0.0000000001
 40
0.0
 40
0.0
 40
0.0
 40
0.0
 40
1.0
 40
1.0
 40
1.0
 40
1.0
 10
829.4630639594394
 20
493.9844952396289
 30
-0.0000000000000012
 10
828.9898868859159
 20
494.487620229198
 30
-0.0000000000000012
 10
828.414886897837
 20
494.8709535545842
 30
-0.0000000000000012
 10
827.7380639952021
 20
495.134495215787
 30
-0.0000000000000011
  0
SPLINE
  5
40C
330
1F
100
AcDbEntity
  8
1
  6
Continuous
 62
   155
100
AcDbSpline
210
0.0
220
0.0
230
1.0
 70
     8
 71
     3
 72
    10
 73
     6
 74
     0
 42
0.0000000001
 43
0.0000000001
 40
0.0
 40
0.0
 40
0.0
 40
0.0
 40
0.5
 40
0.5
 40
1.0
 40
1.0
 40
1.0
 40
1.0
 10
829.6517358305276
 20
498.4227763976144
 30
-0.0000000000000013
 10
829.6517358305276
 20
499.4649638760072
 30
-0.0000000000000013
 10
829.2833764631646
 20
500.3544169825672
 30
-0.0000000000000012
 10
827.809938993712
 20
501.82785445202
 30
-0.0000000000000011
 10
826.9204858871521
 20
502.1962138193832
 30
-0.000000000000001
 10
825.8782984087588
 20
502.1962138193832
 30
-0.000000000000001
  0
SPLINE
  5
40D
330
1F
100
AcDbEntity
  8
1
  6
Continuous
 62
   155
100
AcDbSpline
210
0.0
220
0.0
230
1.0
 70
     8
 71
     3
 72
     8
 73
     4
 74
     0
 42
0.0000000001
 43
0.0000000001
 40
0.0
 40
0.0
 40
0.0
 40
0.0
 40
1.0
 40
1.0
 40
1.0
 40
1.0
 10
827.7380639952021
 20
495.134495215787
 30
-0.0000000000000011
 10
829.0138452187525
 20
495.8712139505134
 30
-0.0000000000000012
 10
829.6517358305276
 20
496.9673076777887
 30
-0.0000000000000013
 10
829.6517358305276
 20
498.4227763976144
 30
-0.0000000000000013
  0
SPLINE
  5
40E
330
1F
100
AcDbEntity
  8
1
  6
Continuous
 62
   155
100
AcDbSpline
210
0.0
220
0.0
230
1.0
 70
     8
 71
     3
 72
     8
 73
     4
 74
     0
 42
0.0000000001
 43
0.0000000001
 40
0.0
 40
0.0
 40
0.0
 40
0.0
 40
1.0
 40
1.0
 40
1.0
 40
1.0
 10
817.8732204497205
 20
490.4626203126447
 30
-0.0000000000000006
 10
817.8732204497205
 20
491.6605369544761
 30
-0.0000000000000006
 10
817.4898871243344
 20
492.7266827657059
 30
-0.0000000000000005
 10
816.7232204735624
 20
493.6610577463345
 30
-0.0000000000000005
  0
SPLINE
  5
40F
330
1F
100
AcDbEntity
  8
1
  6
Continuous
 62
   155
100
AcDbSpline
210
0.0
220
0.0
230
1.0
 70
     8
 71
     3
 72
    10
 73
     6
 74
     0
 42
0.0000000001
 43
0.0000000001
 40
0.0
 40
0.0
 40
0.0
 40
0.0
 40
0.5
 40
0.5
 40
1.0
 40
1.0
 40
1.0
 40
1.0
 10
812.8329861792149
 20
485.4493391665803
 30
-0.0000000000000002
 10
814.2704861494125
 20
485.4493391665803
 30
-0.0000000000000003
 10
815.4699001870463
 20
485.924013635906
 30
-0.0000000000000004
 10
817.3925563971856
 20
487.8227115132085
 30
-0.0000000000000005
 10
817.8732204497205
 20
489.0191307592378
 30
-0.0000000000000006
 10
817.8732204497205
 20
490.4626203126447
 30
-0.0000000000000006
  0
SPLINE
  5
410
330
1F
100
AcDbEntity
  8
1
  6
Continuous
 62
   155
100
AcDbSpline
210
0.0
220
0.0
230
1.0
 70
     8
 71
     3
 72
    10
 73
     6
 74
     0
 42
0.0000000001
 43
0.0000000001
 40
0.0
 40
0.0
 40
0.0
 40
0.0
 40
0.4999999999999992
 40
0.4999999999999992
 40
1.0
 40
1.0
 40
1.0
 40
1.0
 10
816.6064236009837
 20
498.4227763976145
 30
-0.0000000000000005
 10
816.6064236009837
 20
499.4649638760073
 30
-0.0000000000000005
 10
816.2380642336206
 20
500.3544169825672
 30
-0.0000000000000004
 10
814.7646267641681
 20
501.82785445202
 30
-0.0000000000000003
 10
813.8751736576082
 20
502.1962138193833
 30
-0.0000000000000002
 10
812.8329861792149
 20
502.1962138193833
 30
-0.0000000000000002
  0
SPLINE
  5
411
330
1F
100
AcDbEntity
  8
1
  6
Continuous
 62
   155
100
AcDbSpline
210
0.0
220
0.0
230
1.0
 70
     8
 71
     3
 72
     8
 73
     4
 74
     0
 42
0.0000000001
 43
0.0000000001
 40
0.0
 40
0.0
 40
0.0
 40
0.0
 40
1.0
 40
1.0
 40
1.0
 40
1.0
 10
814.6927517656584
 20
495.134495215787
 30
-0.0000000000000003
 10
815.9685329892086
 20
495.8712139505134
 30
-0.0000000000000004
 10
816.6064236009837
 20
496.9673076777888
 30
-0.0000000000000005
 10
816.6064236009837
 20
498.4227763976145
 30
-0.0000000000000005
  0
MTEXT
  5
414
330
1F
100
AcDbEntity
  8
0
100
AcDbMText
 10
375.5742085883153
 20
32.85674909174998
 30
0.0
 40
25.0
 41
259.663006943802
 46
0.0
 71
     1
 72
     5
  1
M2AA 71 B34
 73
     1
 44
1.0
1001
ACAD
1000
ACAD_MTEXT_COLUMN_INFO_BEGIN
1070
    75
1070
     2
1070
    79
1070
     0
1070
    76
1070
     1
1070
    78
1070
     0
1070
    48
1040
259.663006943802
1070
    49
1040
1.0
1070
    50
1070
     1
1040
0.0
1000
ACAD_MTEXT_COLUMN_INFO_END
  0
ENDSEC
  0
SECTION
  2
OBJECTS
  0
DICTIONARY
  5
C
330
0
100
AcDbDictionary
281
     1
  3
ACAD_CIP_PREVIOUS_PRODUCT_INFO
350
235
  3
ACAD_COLOR
350
21E
  3
ACAD_GROUP
350
D
  3
ACAD_LAYOUT
350
1A
  3
ACAD_MATERIAL
350
3B
  3
ACAD_MLEADERSTYLE
350
211
  3
ACAD_MLINESTYLE
350
17
  3
ACAD_PLOTSETTINGS
350
19
  3
ACAD_PLOTSTYLENAME
350
E
  3
ACAD_SCALELIST
350
220
  3
ACAD_TABLESTYLE
350
210
  3
ACAD_VISUALSTYLE
350
2A
  3
ACDB_RECOMPOSE_DATA
350
423
  3
AcDbVariableDictionary
350
419
  3
AcmDictionary
350
260
  3
AMG
350
236
  3
AMGSNAPSETTINGS
350
29E
  0
DICTIONARY
  5
415
330
10
100
AcDbDictionary
280
     1
281
     1
  3
ADSK_XREC_LAYER_RECONCILED
360
416
  0
DICTIONARY
  5
417
330
46
100
AcDbDictionary
280
     1
281
     1
  3
ADSK_XREC_LAYER_RECONCILED
360
418
  0
XRECORD
  5
235
102
{ACAD_REACTORS
330
C
102
}
330
C
100
AcDbXrecord
280
     1
300
AMECH_PP
300
2012
300
85794PDSS_2012_0F
  0
DICTIONARY
  5
21E
102
{ACAD_REACTORS
330
C
102
}
330
C
100
AcDbDictionary
281
     1
  0
DICTIONARY
  5
D
102
{ACAD_REACTORS
330
C
102
}
330
C
100
AcDbDictionary
281
     1
  0
DICTIONARY
  5
1A
102
{ACAD_REACTORS
330
C
102
}
330
C
100
AcDbDictionary
281
     1
  3
Layout1
350
1E
  3
Layout2
350
26
  3
Model
350
22
  0
DICTIONARY
  5
3B
102
{ACAD_REACTORS
330
C
102
}
330
C
100
AcDbDictionary
281
     1
  3
BYBLOCK
350
3D
  3
BYLAYER
350
3C
  3
Global
350
3E
  0
DICTIONARY
  5
211
102
{ACAD_REACTORS
330
C
102
}
330
C
100
AcDbDictionary
281
     1
  3
Standard
350
232
  0
DICTIONARY
  5
17
102
{ACAD_REACTORS
330
C
102
}
330
C
100
AcDbDictionary
281
     1
  3
Standard
350
18
  0
DICTIONARY
  5
19
102
{ACAD_REACTORS
330
C
102
}
330
C
100
AcDbDictionary
281
     1
  0
ACDBDICTIONARYWDFLT
  5
E
102
{ACAD_REACTORS
330
C
102
}
330
C
100
AcDbDictionary
281
     1
  3
Normal
350
F
100
AcDbDictionaryWithDefault
340
F
  0
DICTIONARY
  5
220
102
{ACAD_REACTORS
330
C
102
}
330
C
100
AcDbDictionary
281
     1
  3
A0
350
221
  3
A1
350
222
  3
A2
350
223
  3
A3
350
224
  3
A4
350
225
  3
A5
350
226
  3
A6
350
227
  3
A7
350
228
  3
A8
350
229
  3
A9
350
22A
  3
B0
350
22B
  3
B1
350
22C
  3
B2
350
22D
  3
B3
350
22E
  3
B4
350
22F
  3
B5
350
230
  3
B6
350
231
  0
DICTIONARY
  5
210
102
{ACAD_REACTORS
330
C
102
}
330
C
100
AcDbDictionary
281
     1
  3
Standard
350
21F
  0
DICTIONARY
  5
2A
102
{ACAD_REACTORS
330
C
102
}
330
C
100
AcDbDictionary
281
     1
  3
2dWireframe
350
2F
  3
3D Hidden
350
31
  3
3dWireframe
350
30
  3
Basic
350
32
  3
Brighten
350
36
  3
ColorChange
350
3A
  3
Conceptual
350
34
  3
Dim
350
35
  3
EdgeColorOff
350
21D
  3
Facepattern
350
39
  3
Flat
350
2B
  3
FlatWithEdges
350
2C
  3
Gouraud
350
2D
  3
GouraudWithEdges
350
2E
  3
Hidden
350
215
  3
JitterOff
350
21B
  3
Linepattern
350
38
  3
OverhangOff
350
21C
  3
Realistic
350
33
  3
Shaded
350
21A
  3
Shaded with edges
350
219
  3
Shades of Gray
350
216
  3
Sketchy
350
217
  3
Thicken
350
37
  3
Wireframe
350
214
  3
X-Ray
350
218
  0
XRECORD
  5
423
102
{ACAD_REACTORS
330
C
102
}
330
C
100
AcDbXrecord
280
     1
 90
        1
330
21F
330
414
  0
DICTIONARY
  5
419
102
{ACAD_REACTORS
330
C
102
}
330
C
100
AcDbDictionary
281
     1
  3
CANNOSCALE
350
41D
  3
CMLEADERSTYLE
350
41B
  3
CTABLESTYLE
350
41A
  3
LAYEREVAL
350
41F
  3
LAYERNOTIFY
350
420
  3
LIGHTINGUNITS
350
41E
  3
MSLTSCALE
350
41C
  0
DICTIONARY
  5
260
102
{ACAD_REACTORS
330
C
102
}
330
C
100
AcDbDictionary
281
     1
  3
AcmStdDictionary
350
267
  0
DICTIONARY
  5
236
102
{ACAD_REACTORS
330
C
102
}
330
C
100
AcDbDictionary
281
     1
  0
DICTIONARY
  5
29E
102
{ACAD_REACTORS
330
C
102
}
330
C
100
AcDbDictionary
281
     1
  0
XRECORD
  5
416
102
{ACAD_REACTORS
330
415
102
}
330
415
100
AcDbXrecord
280
     1
290
     1
  0
XRECORD
  5
418
102
{ACAD_REACTORS
330
417
102
}
330
417
100
AcDbXrecord
280
     1
290
     1
  0
LAYOUT
  5
1E
102
{ACAD_REACTORS
330
1A
102
}
330
1A
100
AcDbPlotSettings
  1

  2
none_device
  4

  6

 40
0.0
 41
0.0
 42
0.0
 43
0.0
 44
0.0
 45
0.0
 46
0.0
 47
0.0
 48
0.0
 49
0.0
140
0.0
141
0.0
142
1.0
143
1.0
 70
   688
 72
     0
 73
     0
 74
     5
  7

 75
    16
147
1.0
 76
     0
 77
     2
 78
   300
148
0.0
149
0.0
100
AcDbLayout
  1
Layout1
 70
     1
 71
     1
 10
-0.5
 20
-0.5
 11
5.0
 21
5.0
 12
0.0
 22
0.0
 32
0.0
 14
-0.5
 24
-0.5
 34
-0.5
 15
5.0
 25
5.0
 35
5.0
146
0.0
 13
0.0
 23
0.0
 33
0.0
 16
1.0
 26
0.0
 36
0.0
 17
0.0
 27
1.0
 37
0.0
 76
     0
330
1B
  0
LAYOUT
  5
26
102
{ACAD_REACTORS
330
1A
102
}
330
1A
100
AcDbPlotSettings
  1

  2
none_device
  4

  6

 40
0.0
 41
0.0
 42
0.0
 43
0.0
 44
0.0
 45
0.0
 46
0.0
 47
0.0
 48
0.0
 49
0.0
140
0.0
141
0.0
142
1.0
143
1.0
 70
   688
 72
     0
 73
     0
 74
     5
  7

 75
    16
147
1.0
 76
     0
 77
     2
 78
   300
148
0.0
149
0.0
100
AcDbLayout
  1
Layout2
 70
     1
 71
     2
 10
0.0
 20
0.0
 11
0.0
 21
0.0
 12
0.0
 22
0.0
 32
0.0
 14
0.0
 24
0.0
 34
0.0
 15
0.0
 25
0.0
 35
0.0
146
0.0
 13
0.0
 23
0.0
 33
0.0
 16
1.0
 26
0.0
 36
0.0
 17
0.0
 27
1.0
 37
0.0
 76
     0
330
23
  0
LAYOUT
  5
22
102
{ACAD_REACTORS
330
1A
102
}
330
1A
100
AcDbPlotSettings
  1

  2
none_device
  4

  6

 40
0.0
 41
0.0
 42
0.0
 43
0.0
 44
0.0
 45
0.0
 46
0.0
 47
0.0
 48
0.0
 49
0.0
140
0.0
141
0.0
142
1.0
143
1.0
 70
  1712
 72
     0
 73
     0
 74
     0
  7

 75
     0
147
1.0
 76
     0
 77
     2
 78
   300
148
0.0
149
0.0
100
AcDbLayout
  1
Model
 70
     1
 71
     0
 10
-0.5
 20
-0.5
 11
5.0
 21
5.0
 12
0.0
 22
0.0
 32
0.0
 14
-0.5
 24
-0.5
 34
-0.5
 15
5.0
 25
5.0
 35
5.0
146
0.0
 13
0.0
 23
0.0
 33
0.0
 16
1.0
 26
0.0
 36
0.0
 17
0.0
 27
1.0
 37
0.0
 76
     0
330
1F
331
1DA
  0
MATERIAL
  5
3D
102
{ACAD_XDICTIONARY
360
20C
102
}
102
{ACAD_REACTORS
330
3B
102
}
330
3B
100
AcDbMaterial
  1
BYBLOCK
  0
MATERIAL
  5
3C
102
{ACAD_XDICTIONARY
360
20A
102
}
102
{ACAD_REACTORS
330
3B
102
}
330
3B
100
AcDbMaterial
  1
BYLAYER
  0
MATERIAL
  5
3E
102
{ACAD_XDICTIONARY
360
20E
102
}
102
{ACAD_REACTORS
330
3B
102
}
330
3B
100
AcDbMaterial
  1
Global
  0
MLEADERSTYLE
  5
232
102
{ACAD_REACTORS
330
211
102
}
330
211
100
AcDbMLeaderStyle
179
     2
170
     2
171
     1
172
     0
 90
        2
 40
0.0
 41
0.0
173
     1
 91
-1056964608
340
14
 92
       -2
290
     1
 42
2.0
291
     1
 43
0.36
  3
Standard
 44
4.0
300

342
11
174
     1
178
     6
175
     1
176
     0
 93
-1056964608
 45
4.0
292
     0
297
     0
 46
4.0
 94
-1056964608
 47
1.0
 49
1.0
140
1.0
293
     1
141
0.0
294
     1
177
     0
142
1.0
295
     0
296
     0
143
0.125
271
     0
272
     9
273
     9
  0
MLINESTYLE
  5
18
102
{ACAD_REACTORS
330
17
102
}
330
17
100
AcDbMlineStyle
  2
STANDARD
 70
     0
  3

 62
   256
 51
90.0
 52
90.0
 71
     2
 49
0.5
 62
   256
  6
BYLAYER
 49
-0.5
 62
   256
  6
BYLAYER
  0
ACDBPLACEHOLDER
  5
F
102
{ACAD_REACTORS
330
E
102
}
330
E
  0
SCALE
  5
221
102
{ACAD_REACTORS
330
220
102
}
330
220
100
AcDbScale
 70
     0
300
1:1
140
1.0
141
1.0
290
     1
  0
SCALE
  5
222
102
{ACAD_REACTORS
330
220
102
}
330
220
100
AcDbScale
 70
     0
300
1:2
140
1.0
141
2.0
290
     0
  0
SCALE
  5
223
102
{ACAD_REACTORS
330
220
102
}
330
220
100
AcDbScale
 70
     0
300
1:4
140
1.0
141
4.0
290
     0
  0
SCALE
  5
224
102
{ACAD_REACTORS
330
220
102
}
330
220
100
AcDbScale
 70
     0
300
1:5
140
1.0
141
5.0
290
     0
  0
SCALE
  5
225
102
{ACAD_REACTORS
330
220
102
}
330
220
100
AcDbScale
 70
     0
300
1:8
140
1.0
141
8.0
290
     0
  0
SCALE
  5
226
102
{ACAD_REACTORS
330
220
102
}
330
220
100
AcDbScale
 70
     0
300
1:10
140
1.0
141
10.0
290
     0
  0
SCALE
  5
227
102
{ACAD_REACTORS
330
220
102
}
330
220
100
AcDbScale
 70
     0
300
1:16
140
1.0
141
16.0
290
     0
  0
SCALE
  5
228
102
{ACAD_REACTORS
330
220
102
}
330
220
100
AcDbScale
 70
     0
300
1:20
140
1.0
141
20.0
290
     0
  0
SCALE
  5
229
102
{ACAD_REACTORS
330
220
102
}
330
220
100
AcDbScale
 70
     0
300
1:30
140
1.0
141
30.0
290
     0
  0
SCALE
  5
22A
102
{ACAD_REACTORS
330
220
102
}
330
220
100
AcDbScale
 70
     0
300
1:40
140
1.0
141
40.0
290
     0
  0
SCALE
  5
22B
102
{ACAD_REACTORS
330
220
102
}
330
220
100
AcDbScale
 70
     0
300
1:50
140
1.0
141
50.0
290
     0
  0
SCALE
  5
22C
102
{ACAD_REACTORS
330
220
102
}
330
220
100
AcDbScale
 70
     0
300
1:100
140
1.0
141
100.0
290
     0
  0
SCALE
  5
22D
102
{ACAD_REACTORS
330
220
102
}
330
220
100
AcDbScale
 70
     0
300
2:1
140
2.0
141
1.0
290
     0
  0
SCALE
  5
22E
102
{ACAD_REACTORS
330
220
102
}
330
220
100
AcDbScale
 70
     0
300
4:1
140
4.0
141
1.0
290
     0
  0
SCALE
  5
22F
102
{ACAD_REACTORS
330
220
102
}
330
220
100
AcDbScale
 70
     0
300
8:1
140
8.0
141
1.0
290
     0
  0
SCALE
  5
230
102
{ACAD_REACTORS
330
220
102
}
330
220
100
AcDbScale
 70
     0
300
10:1
140
10.0
141
1.0
290
     0
  0
SCALE
  5
231
102
{ACAD_REACTORS
330
220
102
}
330
220
100
AcDbScale
 70
     0
300
100:1
140
100.0
141
1.0
290
     0
  0
TABLESTYLE
  5
21F
102
{ACAD_XDICTIONARY
360
421
102
}
102
{ACAD_REACTORS
330
210
102
}
330
210
100
AcDbTableStyle
280
     0
  3
Standard
 70
     0
 71
     0
 40
1.5
 41
1.5
280
     0
281
     0
  7
Standard
140
4.5
170
     2
 62
     0
 63
     7
283
     0
 90
      512
 91
        0
  1

274
    -2
284
     1
 64
     0
275
    -2
285
     1
 65
     0
276
    -2
286
     1
 66
     0
277
    -2
287
     1
 67
     0
278
    -2
288
     1
 68
     0
279
    -2
289
     1
 69
     0
  7
Standard
140
6.0
170
     5
 62
     0
 63
     7
283
     0
 90
      512
 91
        0
  1

274
    -2
284
     1
 64
     0
275
    -2
285
     1
 65
     0
276
    -2
286
     1
 66
     0
277
    -2
287
     1
 67
     0
278
    -2
288
     1
 68
     0
279
    -2
289
     1
 69
     0
  7
Standard
140
4.5
170
     5
 62
     0
 63
     7
283
     0
 90
      512
 91
        0
  1

274
    -2
284
     1
 64
     0
275
    -2
285
     1
 65
     0
276
    -2
286
     1
 66
     0
277
    -2
287
     1
 67
     0
278
    -2
288
     1
 68
     0
279
    -2
289
     1
 69
     0
  0
VISUALSTYLE
  5
2F
102
{ACAD_REACTORS
330
2A
102
}
330
2A
100
AcDbVisualStyle
  2

 70
     4
177
     2
291
     0
 71
     0
176
     1
 72
     2
176
     1
 73
     0
176
     1
 90
        0
176
     1
 40
0.6
176
     1
 41
30.0
176
     1
 63
     7
421
 16777215
176
     1
 74
     1
176
     1
 91
        4
176
     1
 64
     7
176
     1
 65
   257
176
     1
 75
     1
176
     1
175
     1
176
     1
 42
1.0
176
     1
 92
        0
176
     1
 66
   257
176
     1
 43
1.0
176
     1
 76
     1
176
     1
 77
     6
176
     1
 78
     2
176
     1
 67
     7
176
     1
 79
     5
176
     1
170
     0
176
     1
171
     0
176
     1
290
     0
176
     1
 93
        1
176
     1
 44
0.0
176
     1
173
     0
176
     1
1001
ACAD
1000
AcDbSavedByObjectVersion
1070
     0
  0
VISUALSTYLE
  5
31
102
{ACAD_REACTORS
330
2A
102
}
330
2A
100
AcDbVisualStyle
  2

 70
     6
177
     2
291
     0
 71
     1
176
     1
 72
     2
176
     1
 73
     2
176
     1
 90
        0
176
     1
 40
0.6
176
     1
 41
30.0
176
     1
 63
     7
421
 16777215
176
     1
 74
     2
176
     1
 91
        2
176
     1
 64
     7
176
     1
 65
   257
176
     1
 75
     2
176
     1
175
     1
176
     1
 42
40.0
176
     1
 92
        0
176
     1
 66
   257
176
     1
 43
1.0
176
     1
 76
     1
176
     1
 77
     6
176
     1
 78
     2
176
     1
 67
     7
176
     1
 79
     3
176
     1
170
     0
176
     1
171
     0
176
     1
290
     0
176
     1
 93
        1
176
     1
 44
0.0
176
     1
173
     0
176
     1
1001
ACAD
1000
AcDbSavedByObjectVersion
1070
     0
  0
VISUALSTYLE
  5
30
102
{ACAD_REACTORS
330
2A
102
}
330
2A
100
AcDbVisualStyle
  2

 70
     5
177
     2
291
     0
 71
     0
176
     1
 72
     2
176
     1
 73
     0
176
     1
 90
        0
176
     1
 40
0.6
176
     1
 41
30.0
176
     1
 63
     7
421
 16777215
176
     1
 74
     1
176
     1
 91
        4
176
     1
 64
     7
176
     1
 65
   257
176
     1
 75
     1
176
     1
175
     1
176
     1
 42
1.0
176
     1
 92
        0
176
     1
 66
   257
176
     1
 43
1.0
176
     1
 76
     1
176
     1
 77
     6
176
     1
 78
     2
176
     1
 67
     7
176
     1
 79
     5
176
     1
170
     0
176
     1
171
     0
176
     1
290
     0
176
     1
 93
        1
176
     1
 44
0.0
176
     1
173
     0
176
     1
1001
ACAD
1000
AcDbSavedByObjectVersion
1070
     0
  0
VISUALSTYLE
  5
32
102
{ACAD_REACTORS
330
2A
102
}
330
2A
100
AcDbVisualStyle
  2

 70
     7
177
     2
291
     1
 71
     1
176
     1
 72
     0
176
     1
 73
     1
176
     1
 90
        0
176
     1
 40
0.6
176
     1
 41
30.0
176
     1
 63
     7
421
 16777215
176
     1
 74
     0
176
     1
 91
        4
176
     1
 64
     7
176
     1
 65
   257
176
     1
 75
     1
176
     1
175
     1
176
     1
 42
1.0
176
     1
 92
        8
176
     1
 66
     7
176
     1
 43
1.0
176
     1
 76
     1
176
     1
 77
     6
176
     1
 78
     2
176
     1
 67
     7
176
     1
 79
     5
176
     1
170
     0
176
     1
171
     0
176
     1
290
     0
176
     1
 93
        1
176
     1
 44
0.0
176
     1
173
     0
176
     1
1001
ACAD
1000
AcDbSavedByObjectVersion
1070
     0
  0
VISUALSTYLE
  5
36
102
{ACAD_REACTORS
330
2A
102
}
330
2A
100
AcDbVisualStyle
  2

 70
    12
177
     2
291
     1
 71
     2
176
     1
 72
     2
176
     1
 73
     0
176
     1
 90
        0
176
     1
 40
0.6
176
     1
 41
30.0
176
     1
 63
     7
421
 16777215
176
     1
 74
     1
176
     1
 91
        4
176
     1
 64
     7
176
     1
 65
   257
176
     1
 75
     1
176
     1
175
     1
176
     1
 42
1.0
176
     1
 92
        8
176
     1
 66
     7
176
     1
 43
1.0
176
     1
 76
     1
176
     1
 77
     6
176
     1
 78
     2
176
     1
 67
     7
176
     1
 79
     5
176
     1
170
     0
176
     1
171
     0
176
     1
290
     0
176
     1
 93
        1
176
     1
 44
50.0
176
     1
173
     0
176
     1
1001
ACAD
1000
AcDbSavedByObjectVersion
1070
     0
  0
VISUALSTYLE
  5
3A
102
{ACAD_REACTORS
330
2A
102
}
330
2A
100
AcDbVisualStyle
  2

 70
    16
177
     2
291
     1
 71
     2
176
     1
 72
     2
176
     1
 73
     3
176
     1
 90
        0
176
     1
 40
0.6
176
     1
 41
30.0
176
     1
 63
     8
421
  8421504
176
     1
 74
     1
176
     1
 91
        4
176
     1
 64
     7
176
     1
 65
   257
176
     1
 75
     1
176
     1
175
     1
176
     1
 42
1.0
176
     1
 92
        8
176
     1
 66
     8
424
  8421504
176
     1
 43
1.0
176
     1
 76
     1
176
     1
 77
     6
176
     1
 78
     2
176
     1
 67
     7
176
     1
 79
     5
176
     1
170
     0
176
     1
171
     0
176
     1
290
     0
176
     1
 93
        1
176
     1
 44
0.0
176
     1
173
     0
176
     1
1001
ACAD
1000
AcDbSavedByObjectVersion
1070
     0
  0
VISUALSTYLE
  5
34
102
{ACAD_REACTORS
330
2A
102
}
330
2A
100
AcDbVisualStyle
  2

 70
     9
177
     2
291
     0
 71
     3
176
     1
 72
     2
176
     1
 73
     0
176
     1
 90
        0
176
     1
 40
0.6
176
     1
 41
30.0
176
     1
 63
     7
421
 16777215
176
     1
 74
     2
176
     1
 91
        2
176
     1
 64
     7
176
     1
 65
   257
176
     1
 75
     1
176
     1
175
     1
176
     1
 42
40.0
176
     1
 92
        8
176
     1
 66
     7
176
     1
 43
1.0
176
     1
 76
     1
176
     1
 77
     6
176
     1
 78
     2
176
     1
 67
     7
176
     1
 79
     3
176
     1
170
     0
176
     1
171
     0
176
     1
290
     0
176
     1
 93
        1
176
     1
 44
0.0
176
     1
173
     0
176
     1
1001
ACAD
1000
AcDbSavedByObjectVersion
1070
     0
  0
VISUALSTYLE
  5
35
102
{ACAD_REACTORS
330
2A
102
}
330
2A
100
AcDbVisualStyle
  2

 70
    11
177
     2
291
     1
 71
     2
176
     1
 72
     2
176
     1
 73
     0
176
     1
 90
        0
176
     1
 40
0.6
176
     1
 41
30.0
176
     1
 63
     7
421
 16777215
176
     1
 74
     1
176
     1
 91
        4
176
     1
 64
     7
176
     1
 65
   257
176
     1
 75
     1
176
     1
175
     1
176
     1
 42
1.0
176
     1
 92
        8
176
     1
 66
     7
176
     1
 43
1.0
176
     1
 76
     1
176
     1
 77
     6
176
     1
 78
     2
176
     1
 67
     7
176
     1
 79
     5
176
     1
170
     0
176
     1
171
     0
176
     1
290
     0
176
     1
 93
        1
176
     1
 44
-50.0
176
     1
173
     0
176
     1
1001
ACAD
1000
AcDbSavedByObjectVersion
1070
     0
  0
VISUALSTYLE
  5
21D
102
{ACAD_REACTORS
330
2A
102
}
330
2A
100
AcDbVisualStyle
  2
EdgeColorOff
 70
    22
177
     2
291
     1
 71
     2
176
     0
 72
     2
176
     0
 73
     0
176
     0
 90
        0
176
     0
 40
0.6
176
     0
 41
30.0
176
     0
 63
     7
421
 16777215
176
     0
 74
     1
176
     0
 91
        4
176
     0
 64
     7
176
     0
 65
   257
176
     0
 75
     1
176
     0
175
     1
176
     0
 42
1.0
176
     0
 92
        8
176
     2
 66
     7
176
     0
 43
1.0
176
     0
 76
     1
176
     0
 77
     6
176
     0
 78
     2
176
     0
 67
     7
176
     0
 79
     5
176
     0
170
     0
176
     0
171
     0
176
     0
290
     0
176
     0
 93
        1
176
     0
 44
0.0
176
     0
173
     0
176
     0
  0
VISUALSTYLE
  5
39
102
{ACAD_REACTORS
330
2A
102
}
330
2A
100
AcDbVisualStyle
  2

 70
    15
177
     2
291
     1
 71
     2
176
     1
 72
     2
176
     1
 73
     0
176
     1
 90
        0
176
     1
 40
0.6
176
     1
 41
30.0
176
     1
 63
     7
421
 16777215
176
     1
 74
     1
176
     1
 91
        4
176
     1
 64
     7
176
     1
 65
   257
176
     1
 75
     1
176
     1
175
     1
176
     1
 42
1.0
176
     1
 92
        8
176
     1
 66
     7
176
     1
 43
1.0
176
     1
 76
     1
176
     1
 77
     6
176
     1
 78
     2
176
     1
 67
     7
176
     1
 79
     5
176
     1
170
     0
176
     1
171
     0
176
     1
290
     0
176
     1
 93
        1
176
     1
 44
0.0
176
     1
173
     0
176
     1
1001
ACAD
1000
AcDbSavedByObjectVersion
1070
     0
  0
VISUALSTYLE
  5
2B
102
{ACAD_REACTORS
330
2A
102
}
330
2A
100
AcDbVisualStyle
  2

 70
     0
177
     2
291
     1
 71
     2
176
     1
 72
     1
176
     1
 73
     1
176
     1
 90
        2
176
     1
 40
0.6
176
     1
 41
30.0
176
     1
 63
     7
421
 16777215
176
     1
 74
     0
176
     1
 91
        4
176
     1
 64
     7
176
     1
 65
   257
176
     1
 75
     1
176
     1
175
     1
176
     1
 42
1.0
176
     1
 92
        8
176
     1
 66
     7
176
     1
 43
1.0
176
     1
 76
     1
176
     1
 77
     6
176
     1
 78
     2
176
     1
 67
     7
176
     1
 79
     5
176
     1
170
     0
176
     1
171
     0
176
     1
290
     0
176
     1
 93
       13
176
     1
 44
0.0
176
     1
173
     0
176
     1
1001
ACAD
1000
AcDbSavedByObjectVersion
1070
     0
  0
VISUALSTYLE
  5
2C
102
{ACAD_REACTORS
330
2A
102
}
330
2A
100
AcDbVisualStyle
  2

 70
     1
177
     2
291
     1
 71
     2
176
     1
 72
     1
176
     1
 73
     1
176
     1
 90
        2
176
     1
 40
0.6
176
     1
 41
30.0
176
     1
 63
     7
421
 16777215
176
     1
 74
     1
176
     1
 91
        4
176
     1
 64
     7
176
     1
 65
   257
176
     1
 75
     1
176
     1
175
     1
176
     1
 42
1.0
176
     1
 92
        0
176
     1
 66
   257
176
     1
 43
1.0
176
     1
 76
     1
176
     1
 77
     6
176
     1
 78
     2
176
     1
 67
     7
176
     1
 79
     5
176
     1
170
     0
176
     1
171
     0
176
     1
290
     0
176
     1
 93
       13
176
     1
 44
0.0
176
     1
173
     0
176
     1
1001
ACAD
1000
AcDbSavedByObjectVersion
1070
     0
  0
VISUALSTYLE
  5
2D
102
{ACAD_REACTORS
330
2A
102
}
330
2A
100
AcDbVisualStyle
  2

 70
     2
177
     2
291
     1
 71
     2
176
     1
 72
     2
176
     1
 73
     1
176
     1
 90
        2
176
     1
 40
0.6
176
     1
 41
30.0
176
     1
 63
     7
421
 16777215
176
     1
 74
     0
176
     1
 91
        4
176
     1
 64
     7
176
     1
 65
   257
176
     1
 75
     1
176
     1
175
     1
176
     1
 42
1.0
176
     1
 92
        0
176
     1
 66
     7
176
     1
 43
1.0
176
     1
 76
     1
176
     1
 77
     6
176
     1
 78
     2
176
     1
 67
     7
176
     1
 79
     5
176
     1
170
     0
176
     1
171
     0
176
     1
290
     0
176
     1
 93
       13
176
     1
 44
0.0
176
     1
173
     0
176
     1
1001
ACAD
1000
AcDbSavedByObjectVersion
1070
     0
  0
VISUALSTYLE
  5
2E
102
{ACAD_REACTORS
330
2A
102
}
330
2A
100
AcDbVisualStyle
  2

 70
     3
177
     2
291
     1
 71
     2
176
     1
 72
     2
176
     1
 73
     1
176
     1
 90
        2
176
     1
 40
0.6
176
     1
 41
30.0
176
     1
 63
     7
421
 16777215
176
     1
 74
     1
176
     1
 91
        4
176
     1
 64
     7
176
     1
 65
   257
176
     1
 75
     1
176
     1
175
     1
176
     1
 42
1.0
176
     1
 92
        0
176
     1
 66
   257
176
     1
 43
1.0
176
     1
 76
     1
176
     1
 77
     6
176
     1
 78
     2
176
     1
 67
     7
176
     1
 79
     5
176
     1
170
     0
176
     1
171
     0
176
     1
290
     0
176
     1
 93
       13
176
     1
 44
0.0
176
     1
173
     0
176
     1
1001
ACAD
1000
AcDbSavedByObjectVersion
1070
     0
  0
VISUALSTYLE
  5
215
102
{ACAD_REACTORS
330
2A
102
}
330
2A
100
AcDbVisualStyle
  2
Hidden
 70
     6
177
     2
291
     0
 71
     1
176
     1
 72
     2
176
     1
 73
     2
176
     1
 90
        0
176
     1
 40
0.6
176
     1
 41
30.0
176
     1
 63
     7
421
 16777215
176
     1
 74
     2
176
     1
 91
        2
176
     1
 64
     7
176
     1
 65
   257
176
     1
 75
     2
176
     1
175
     1
176
     1
 42
40.0
176
     1
 92
        0
176
     1
 66
   257
176
     1
 43
1.0
176
     1
 76
     1
176
     1
 77
     6
176
     1
 78
     2
176
     1
 67
     7
176
     1
 79
     3
176
     1
170
     0
176
     1
171
     0
176
     1
290
     0
176
     1
 93
        1
176
     1
 44
0.0
176
     1
173
     0
176
     1
  0
VISUALSTYLE
  5
21B
102
{ACAD_REACTORS
330
2A
102
}
330
2A
100
AcDbVisualStyle
  2
JitterOff
 70
    20
177
     2
291
     1
 71
     2
176
     0
 72
     2
176
     0
 73
     0
176
     0
 90
        0
176
     0
 40
0.6
176
     0
 41
30.0
176
     0
 63
     7
421
 16777215
176
     0
 74
     1
176
     0
 91
        4
176
     0
 64
     7
176
     0
 65
   257
176
     0
 75
     1
176
     0
175
     1
176
     0
 42
1.0
176
     0
 92
       10
176
     2
 66
     7
176
     0
 43
1.0
176
     0
 76
     1
176
     0
 77
     6
176
     0
 78
     2
176
     0
 67
     7
176
     0
 79
     5
176
     0
170
     0
176
     0
171
     0
176
     0
290
     0
176
     0
 93
        1
176
     0
 44
0.0
176
     0
173
     0
176
     0
  0
VISUALSTYLE
  5
38
102
{ACAD_REACTORS
330
2A
102
}
330
2A
100
AcDbVisualStyle
  2

 70
    14
177
     2
291
     1
 71
     2
176
     1
 72
     2
176
     1
 73
     0
176
     1
 90
        0
176
     1
 40
0.6
176
     1
 41
30.0
176
     1
 63
     7
421
 16777215
176
     1
 74
     1
176
     1
 91
        4
176
     1
 64
     7
176
     1
 65
   257
176
     1
 75
     7
176
     1
175
     7
176
     1
 42
1.0
176
     1
 92
        8
176
     1
 66
     7
176
     1
 43
1.0
176
     1
 76
     1
176
     1
 77
     6
176
     1
 78
     2
176
     1
 67
     7
176
     1
 79
     5
176
     1
170
     0
176
     1
171
     0
176
     1
290
     0
176
     1
 93
        1
176
     1
 44
0.0
176
     1
173
     0
176
     1
1001
ACAD
1000
AcDbSavedByObjectVersion
1070
     0
  0
VISUALSTYLE
  5
21C
102
{ACAD_REACTORS
330
2A
102
}
330
2A
100
AcDbVisualStyle
  2
OverhangOff
 70
    21
177
     2
291
     1
 71
     2
176
     0
 72
     2
176
     0
 73
     0
176
     0
 90
        0
176
     0
 40
0.6
176
     0
 41
30.0
176
     0
 63
     7
421
 16777215
176
     0
 74
     1
176
     0
 91
        4
176
     0
 64
     7
176
     0
 65
   257
176
     0
 75
     1
176
     0
175
     1
176
     0
 42
1.0
176
     0
 92
        9
176
     2
 66
     7
176
     0
 43
1.0
176
     0
 76
     1
176
     0
 77
     6
176
     0
 78
     2
176
     0
 67
     7
176
     0
 79
     5
176
     0
170
     0
176
     0
171
     0
176
     0
290
     0
176
     0
 93
        1
176
     0
 44
0.0
176
     0
173
     0
176
     0
  0
VISUALSTYLE
  5
33
102
{ACAD_REACTORS
330
2A
102
}
330
2A
100
AcDbVisualStyle
  2

 70
     8
177
     2
291
     0
 71
     2
176
     1
 72
     2
176
     1
 73
     0
176
     1
 90
        0
176
     1
 40
0.6
176
     1
 41
30.0
176
     1
 63
     7
421
 16777215
176
     1
 74
     1
176
     1
 91
        0
176
     1
 64
     7
176
     1
 65
   257
176
     1
 75
     1
176
     1
175
     1
176
     1
 42
1.0
176
     1
 92
        8
176
     1
 66
     8
424
  7895160
176
     1
 43
1.0
176
     1
 76
     1
176
     1
 77
     6
176
     1
 78
     2
176
     1
 67
     7
176
     1
 79
     5
176
     1
170
     0
176
     1
171
     0
176
     1
290
     0
176
     1
 93
       13
176
     1
 44
0.0
176
     1
173
     0
176
     1
1001
ACAD
1000
AcDbSavedByObjectVersion
1070
     0
  0
VISUALSTYLE
  5
21A
102
{ACAD_REACTORS
330
2A
102
}
330
2A
100
AcDbVisualStyle
  2
Shaded
 70
    27
177
     2
291
     0
 71
     2
176
     1
 72
     2
176
     1
 73
     1
176
     1
 90
        2
176
     1
 40
0.6
176
     1
 41
30.0
176
     1
 63
     7
421
 16777215
176
     1
 74
     0
176
     1
 91
        4
176
     1
 64
     7
176
     1
 65
   257
176
     1
 75
     1
176
     1
175
     1
176
     1
 42
1.0
176
     1
 92
        8
176
     1
 66
   257
176
     1
 43
1.0
176
     1
 76
     1
176
     1
 77
     6
176
     1
 78
     2
176
     1
 67
     8
425
  7895160
176
     1
 79
     3
176
     1
170
     0
176
     1
171
     0
176
     1
290
     0
176
     1
 93
        5
176
     1
 44
0.0
176
     1
173
     0
176
     1
  0
VISUALSTYLE
  5
219
102
{ACAD_REACTORS
330
2A
102
}
330
2A
100
AcDbVisualStyle
  2
Shaded with edges
 70
    26
177
     2
291
     0
 71
     2
176
     1
 72
     2
176
     1
 73
     1
176
     1
 90
        2
176
     1
 40
0.6
176
     1
 41
30.0
176
     1
 63
     7
421
 16777215
176
     1
 74
     1
176
     1
 91
       10
176
     1
 64
     7
176
     1
 65
   257
176
     1
 75
     2
176
     1
175
     1
176
     1
 42
1.0
176
     1
 92
        8
176
     1
 66
   257
176
     1
 43
1.0
176
     1
 76
     1
176
     1
 77
     6
176
     1
 78
     2
176
     1
 67
     7
176
     1
 79
     3
176
     1
170
     0
176
     1
171
     0
176
     1
290
     0
176
     1
 93
        5
176
     1
 44
0.0
176
     1
173
     0
176
     1
  0
VISUALSTYLE
  5
216
102
{ACAD_REACTORS
330
2A
102
}
330
2A
100
AcDbVisualStyle
  2
Shades of Gray
 70
    23
177
     2
291
     0
 71
     2
176
     1
 72
     2
176
     1
 73
     3
176
     1
 90
        0
176
     1
 40
0.6
176
     1
 41
30.0
176
     1
 63
     7
421
 16777215
176
     1
 74
     2
176
     1
 91
        2
176
     1
 64
     7
176
     1
 65
     7
176
     1
 75
     1
176
     1
175
     1
176
     1
 42
40.0
176
     1
 92
        8
176
     1
 66
     7
176
     1
 43
1.0
176
     1
 76
     1
176
     1
 77
     6
176
     1
 78
     2
176
     1
 67
     7
176
     1
 79
     3
176
     1
170
     0
176
     1
171
     0
176
     1
290
     0
176
     1
 93
        1
176
     1
 44
0.0
176
     1
173
     0
176
     1
  0
VISUALSTYLE
  5
217
102
{ACAD_REACTORS
330
2A
102
}
330
2A
100
AcDbVisualStyle
  2
Sketchy
 70
    24
177
     2
291
     0
 71
     1
176
     1
 72
     2
176
     1
 73
     2
176
     1
 90
        0
176
     1
 40
0.6
176
     1
 41
30.0
176
     1
 63
     7
421
 16777215
176
     1
 74
     2
176
     1
 91
        2
176
     1
 64
     7
176
     1
 65
     7
176
     1
 75
     1
176
     1
175
     1
176
     1
 42
40.0
176
     1
 92
       11
176
     1
 66
     7
176
     1
 43
1.0
176
     1
 76
     1
176
     1
 77
     6
176
     1
 78
     2
176
     1
 67
     7
176
     1
 79
     6
176
     1
170
     0
176
     1
171
     0
176
     1
290
     0
176
     1
 93
        1
176
     1
 44
0.0
176
     1
173
     0
176
     1
  0
VISUALSTYLE
  5
37
102
{ACAD_REACTORS
330
2A
102
}
330
2A
100
AcDbVisualStyle
  2

 70
    13
177
     2
291
     1
 71
     2
176
     1
 72
     2
176
     1
 73
     0
176
     1
 90
        0
176
     1
 40
0.6
176
     1
 41
30.0
176
     1
 63
     7
421
 16777215
176
     1
 74
     1
176
     1
 91
        4
176
     1
 64
     7
176
     1
 65
   257
176
     1
 75
     1
176
     1
175
     1
176
     1
 42
1.0
176
     1
 92
       12
176
     1
 66
     7
176
     1
 43
1.0
176
     1
 76
     1
176
     1
 77
     6
176
     1
 78
     2
176
     1
 67
     7
176
     1
 79
     5
176
     1
170
     0
176
     1
171
     0
176
     1
290
     0
176
     1
 93
        1
176
     1
 44
0.0
176
     1
173
     0
176
     1
1001
ACAD
1000
AcDbSavedByObjectVersion
1070
     0
  0
VISUALSTYLE
  5
214
102
{ACAD_REACTORS
330
2A
102
}
330
2A
100
AcDbVisualStyle
  2
Wireframe
 70
     5
177
     2
291
     0
 71
     0
176
     1
 72
     2
176
     1
 73
     0
176
     1
 90
        0
176
     1
 40
0.6
176
     1
 41
30.0
176
     1
 63
     7
421
 16777215
176
     1
 74
     1
176
     1
 91
        4
176
     1
 64
     7
176
     1
 65
   257
176
     1
 75
     1
176
     1
175
     1
176
     1
 42
1.0
176
     1
 92
        0
176
     1
 66
   257
176
     1
 43
1.0
176
     1
 76
     1
176
     1
 77
     6
176
     1
 78
     2
176
     1
 67
     7
176
     1
 79
     3
176
     1
170
     0
176
     1
171
     0
176
     1
290
     0
176
     1
 93
        1
176
     1
 44
0.0
176
     1
173
     0
176
     1
  0
VISUALSTYLE
  5
218
102
{ACAD_REACTORS
330
2A
102
}
330
2A
100
AcDbVisualStyle
  2
X-Ray
 70
    25
177
     2
291
     0
 71
     2
176
     1
 72
     2
176
     1
 73
     1
176
     1
 90
        1
176
     1
 40
0.5
176
     1
 41
30.0
176
     1
 63
     7
421
 16777215
176
     1
 74
     1
176
     1
 91
        0
176
     1
 64
     7
176
     1
 65
   257
176
     1
 75
     1
176
     1
175
     1
176
     1
 42
1.0
176
     1
 92
        8
176
     1
 66
     7
176
     1
 43
1.0
176
     1
 76
     1
176
     1
 77
     6
176
     1
 78
     2
176
     1
 67
     7
176
     1
 79
     3
176
     1
170
     0
176
     1
171
     0
176
     1
290
     0
176
     1
 93
       13
176
     1
 44
0.0
176
     1
173
     0
176
     1
  0
DICTIONARYVAR
  5
41D
102
{ACAD_REACTORS
330
419
102
}
330
419
100
DictionaryVariables
280
     0
  1
1:1
  0
DICTIONARYVAR
  5
41B
102
{ACAD_REACTORS
330
419
102
}
330
419
100
DictionaryVariables
280
     0
  1
STANDARD
  0
DICTIONARYVAR
  5
41A
102
{ACAD_REACTORS
330
419
102
}
330
419
100
DictionaryVariables
280
     0
  1
STANDARD
  0
DICTIONARYVAR
  5
41F
102
{ACAD_REACTORS
330
419
102
}
330
419
100
DictionaryVariables
280
     0
  1
1
  0
DICTIONARYVAR
  5
420
102
{ACAD_REACTORS
330
419
102
}
330
419
100
DictionaryVariables
280
     0
  1
15
  0
DICTIONARYVAR
  5
41E
102
{ACAD_REACTORS
330
419
102
}
330
419
100
DictionaryVariables
280
     0
  1
0
  0
DICTIONARYVAR
  5
41C
102
{ACAD_REACTORS
330
419
102
}
330
419
100
DictionaryVariables
280
     0
  1
0
  0
DICTIONARY
  5
267
102
{ACAD_REACTORS
330
260
102
}
330
260
100
AcDbDictionary
281
     1
  0
DICTIONARY
  5
20C
330
3D
100
AcDbDictionary
280
     1
281
     1
  3
ACAD_XREC_ROUNDTRIP
360
20D
  0
DICTIONARY
  5
20A
330
3C
100
AcDbDictionary
280
     1
281
     1
  3
ACAD_XREC_ROUNDTRIP
360
20B
  0
DICTIONARY
  5
20E
330
3E
100
AcDbDictionary
280
     1
281
     1
  3
ACAD_XREC_ROUNDTRIP
360
20F
  0
DICTIONARY
  5
421
330
21F
100
AcDbDictionary
280
     1
281
     1
  3
ACAD_ROUNDTRIP_2008_TABLESTYLE_CELLSTYLEMAP
360
422
  0
XRECORD
  5
20D
102
{ACAD_REACTORS
330
20C
102
}
330
20C
100
AcDbXrecord
280
     1
102
MATERIAL
148
0.0
149
0.0
149
0.0
 93
        0
 94
      127
282
     0
 72
     1
 77
     1
171
     1
175
     1
179
     1
273
     0
  0
XRECORD
  5
20B
102
{ACAD_REACTORS
330
20A
102
}
330
20A
100
AcDbXrecord
280
     1
102
MATERIAL
148
0.0
149
0.0
149
0.0
 93
        0
 94
      127
282
     0
 72
     1
 77
     1
171
     1
175
     1
179
     1
273
     0
  0
XRECORD
  5
20F
102
{ACAD_REACTORS
330
20E
102
}
330
20E
100
AcDbXrecord
280
     1
102
MATERIAL
148
0.0
149
0.0
149
0.0
 93
        0
 94
      127
282
     0
 72
     1
 77
     1
171
     1
175
     1
179
     1
273
     0
  0
CELLSTYLEMAP
  5
422
102
{ACAD_REACTORS
330
421
102
}
330
421
100
AcDbCellStyleMap
 90
        3
300
CELLSTYLE
  1
TABLEFORMAT_BEGIN
 90
        5
170
     1
 91
        0
 92
    32768
 62
   257
 93
        1
300
CONTENTFORMAT
  1
CONTENTFORMAT_BEGIN
 90
        0
 91
        0
 92
      512
 93
        0
300

 40
0.0
140
1.0
 94
        5
 62
     0
340
11
144
6.0
309
CONTENTFORMAT_END
171
     1
301
MARGIN
  1
CELLMARGIN_BEGIN
 40
1.5
 40
1.5
 40
1.5
 40
1.5
 40
4.5
 40
4.5
309
CELLMARGIN_END
 94
        6
 95
        1
302
GRIDFORMAT
  1
GRIDFORMAT_BEGIN
 90
        0
 91
        1
 62
     0
 92
       -2
340
0
 93
        0
 40
1.125
309
GRIDFORMAT_END
 95
        2
302
GRIDFORMAT
  1
GRIDFORMAT_BEGIN
 90
        0
 91
        1
 62
     0
 92
       -2
340
0
 93
        0
 40
1.125
309
GRIDFORMAT_END
 95
        4
302
GRIDFORMAT
  1
GRIDFORMAT_BEGIN
 90
        0
 91
        1
 62
     0
 92
       -2
340
0
 93
        0
 40
1.125
309
GRIDFORMAT_END
 95
        8
302
GRIDFORMAT
  1
GRIDFORMAT_BEGIN
 90
        0
 91
        1
 62
     0
 92
       -2
340
0
 93
        0
 40
1.125
309
GRIDFORMAT_END
 95
       16
302
GRIDFORMAT
  1
GRIDFORMAT_BEGIN
 90
        0
 91
        1
 62
     0
 92
       -2
340
0
 93
        0
 40
1.125
309
GRIDFORMAT_END
 95
       32
302
GRIDFORMAT
  1
GRIDFORMAT_BEGIN
 90
        0
 91
        1
 62
     0
 92
       -2
340
0
 93
        0
 40
1.125
309
GRIDFORMAT_END
309
TABLEFORMAT_END
  1
CELLSTYLE_BEGIN
 90
        1
 91
        1
300
_TITLE
309
CELLSTYLE_END
300
CELLSTYLE
  1
TABLEFORMAT_BEGIN
 90
        5
170
     1
 91
        0
 92
        0
 62
   257
 93
        1
300
CONTENTFORMAT
  1
CONTENTFORMAT_BEGIN
 90
        0
 91
        0
 92
      512
 93
        0
300

 40
0.0
140
1.0
 94
        5
 62
     0
340
11
144
4.5
309
CONTENTFORMAT_END
171
     1
301
MARGIN
  1
CELLMARGIN_BEGIN
 40
1.5
 40
1.5
 40
1.5
 40
1.5
 40
4.5
 40
4.5
309
CELLMARGIN_END
 94
        6
 95
        1
302
GRIDFORMAT
  1
GRIDFORMAT_BEGIN
 90
        0
 91
        1
 62
     0
 92
       -2
340
0
 93
        0
 40
1.125
309
GRIDFORMAT_END
 95
        2
302
GRIDFORMAT
  1
GRIDFORMAT_BEGIN
 90
        0
 91
        1
 62
     0
 92
       -2
340
0
 93
        0
 40
1.125
309
GRIDFORMAT_END
 95
        4
302
GRIDFORMAT
  1
GRIDFORMAT_BEGIN
 90
        0
 91
        1
 62
     0
 92
       -2
340
0
 93
        0
 40
1.125
309
GRIDFORMAT_END
 95
        8
302
GRIDFORMAT
  1
GRIDFORMAT_BEGIN
 90
        0
 91
        1
 62
     0
 92
       -2
340
0
 93
        0
 40
1.125
309
GRIDFORMAT_END
 95
       16
302
GRIDFORMAT
  1
GRIDFORMAT_BEGIN
 90
        0
 91
        1
 62
     0
 92
       -2
340
0
 93
        0
 40
1.125
309
GRIDFORMAT_END
 95
       32
302
GRIDFORMAT
  1
GRIDFORMAT_BEGIN
 90
        0
 91
        1
 62
     0
 92
       -2
340
0
 93
        0
 40
1.125
309
GRIDFORMAT_END
309
TABLEFORMAT_END
  1
CELLSTYLE_BEGIN
 90
        2
 91
        1
300
_HEADER
309
CELLSTYLE_END
300
CELLSTYLE
  1
TABLEFORMAT_BEGIN
 90
        5
170
     1
 91
        0
 92
        0
 62
   257
 93
        1
300
CONTENTFORMAT
  1
CONTENTFORMAT_BEGIN
 90
        0
 91
        0
 92
      512
 93
        0
300

 40
0.0
140
1.0
 94
        2
 62
     0
340
11
144
4.5
309
CONTENTFORMAT_END
171
     1
301
MARGIN
  1
CELLMARGIN_BEGIN
 40
1.5
 40
1.5
 40
1.5
 40
1.5
 40
4.5
 40
4.5
309
CELLMARGIN_END
 94
        6
 95
        1
302
GRIDFORMAT
  1
GRIDFORMAT_BEGIN
 90
        0
 91
        1
 62
     0
 92
       -2
340
0
 93
        0
 40
1.125
309
GRIDFORMAT_END
 95
        2
302
GRIDFORMAT
  1
GRIDFORMAT_BEGIN
 90
        0
 91
        1
 62
     0
 92
       -2
340
0
 93
        0
 40
1.125
309
GRIDFORMAT_END
 95
        4
302
GRIDFORMAT
  1
GRIDFORMAT_BEGIN
 90
        0
 91
        1
 62
     0
 92
       -2
340
0
 93
        0
 40
1.125
309
GRIDFORMAT_END
 95
        8
302
GRIDFORMAT
  1
GRIDFORMAT_BEGIN
 90
        0
 91
        1
 62
     0
 92
       -2
340
0
 93
        0
 40
1.125
309
GRIDFORMAT_END
 95
       16
302
GRIDFORMAT
  1
GRIDFORMAT_BEGIN
 90
        0
 91
        1
 62
     0
 92
       -2
340
0
 93
        0
 40
1.125
309
GRIDFORMAT_END
 95
       32
302
GRIDFORMAT
  1
GRIDFORMAT_BEGIN
 90
        0
 91
        1
 62
     0
 92
       -2
340
0
 93
        0
 40
1.125
309
GRIDFORMAT_END
309
TABLEFORMAT_END
  1
CELLSTYLE_BEGIN
 90
        3
 91
        2
300
_DATA
309
CELLSTYLE_END
  0
ENDSEC
  0
EOF
