  0
SECTION
  2
HEADER
  9
$ACADVER
  1
AC1009
  9
$INSBASE
 10
0.0
 20
0.0
 30
0.0
  9
$EXTMIN
 10
0.237099
 20
0.237999
 30
0.0
  9
$EXTMAX
 10
392.237099
 20
262.737999
 30
0.0
  9
$LIMMIN
 10
0.0
 20
0.0
  9
$LIMMAX
 10
12.0
 20
9.0
  9
$ORTHOMODE
 70
     1
  9
$REGENMODE
 70
     1
  9
$FILLMODE
 70
     1
  9
$QTEXTMODE
 70
     0
  9
$MIRRTEXT
 70
     1
  9
$DRAGMODE
 70
     2
  9
$LTSCALE
 40
5.0
  9
$OSMODE
 70
     0
  9
$ATTMODE
 70
     1
  9
$TEXTSIZE
 40
2.0
  9
$TRACEWID
 40
0.05
  9
$TEXTSTYLE
  7
ROMANS
  9
$CLAYER
  8
0
  9
$CELTYPE
  6
CONTINUOUS
  9
$CECOLOR
 62
   256
  9
$DIMSCALE
 40
1.0
  9
$DIMASZ
 40
0.18
  9
$DIMEXO
 40
0.0625
  9
$DIMDLI
 40
0.38
  9
$DIMRND
 40
0.0
  9
$DIMDLE
 40
0.0
  9
$DIMEXE
 40
0.18
  9
$DIMTP
 40
0.0
  9
$DIMTM
 40
0.0
  9
$DIMTXT
 40
0.18
  9
$DIMCEN
 40
0.09
  9
$DIMTSZ
 40
0.0
  9
$DIMTOL
 70
     0
  9
$DIMLIM
 70
     0
  9
$DIMTIH
 70
     1
  9
$DIMTOH
 70
     1
  9
$DIMSE1
 70
     0
  9
$DIMSE2
 70
     0
  9
$DIMTAD
 70
     0
  9
$DIMZIN
 70
     0
  9
$DIMBLK
  1

  9
$DIMASO
 70
     1
  9
$DIMSHO
 70
     1
  9
$DIMPOST
  1

  9
$DIMAPOST
  1

  9
$DIMALT
 70
     0
  9
$DIMALTD
 70
     2
  9
$DIMALTF
 40
25.4
  9
$DIMLFAC
 40
1.0
  9
$DIMTOFL
 70
     0
  9
$DIMTVP
 40
0.0
  9
$DIMTIX
 70
     0
  9
$DIMSOXD
 70
     0
  9
$DIMSAH
 70
     0
  9
$DIMBLK1
  1

  9
$DIMBLK2
  1

  9
$DIMSTYLE
  2
*UNNAMED
  9
$DIMCLRD
 70
     0
  9
$DIMCLRE
 70
     0
  9
$DIMCLRT
 70
     0
  9
$DIMTFAC
 40
1.0
  9
$DIMGAP
 40
0.09
  9
$LUNITS
 70
     2
  9
$LUPREC
 70
     4
  9
$SKETCHINC
 40
0.1
  9
$FILLETRAD
 40
0.0
  9
$AUNITS
 70
     0
  9
$AUPREC
 70
     0
  9
$MENU
  1
acad
  9
$ELEVATION
 40
0.0
  9
$PELEVATION
 40
0.0
  9
$THICKNESS
 40
0.0
  9
$LIMCHECK
 70
     0
  9
$BLIPMODE
 70
     1
  9
$CHAMFERA
 40
0.0
  9
$CHAMFERB
 40
0.0
  9
$SKPOLY
 70
     0
  9
$TDCREATE
 40
2448726.786720486
  9
$TDUPDATE
 40
2449105.619295717
  9
$TDINDWG
 40
0.0754684028
  9
$TDUSRTIMER
 40
0.0754684028
  9
$USRTIMER
 70
     1
  9
$ANGBASE
 50
0.0
  9
$ANGDIR
 70
     0
  9
$PDMODE
 70
     0
  9
$PDSIZE
 40
0.0
  9
$PLINEWID
 40
0.0
  9
$COORDS
 70
     2
  9
$SPLFRAME
 70
     0
  9
$SPLINETYPE
 70
     6
  9
$SPLINESEGS
 70
     8
  9
$ATTDIA
 70
     0
  9
$ATTREQ
 70
     1
  9
$HANDLING
 70
     0
  9
$HANDSEED
  5
0
  9
$SURFTAB1
 70
   250
  9
$SURFTAB2
 70
   250
  9
$SURFTYPE
 70
     6
  9
$SURFU
 70
     6
  9
$SURFV
 70
     6
  9
$UCSNAME
  2

  9
$UCSORG
 10
0.0
 20
0.0
 30
0.0
  9
$UCSXDIR
 10
1.0
 20
0.0
 30
0.0
  9
$UCSYDIR
 10
0.0
 20
1.0
 30
0.0
  9
$PUCSNAME
  2

  9
$PUCSORG
 10
0.0
 20
0.0
 30
0.0
  9
$PUCSXDIR
 10
1.0
 20
0.0
 30
0.0
  9
$PUCSYDIR
 10
0.0
 20
1.0
 30
0.0
  9
$USERI1
 70
     0
  9
$USERI2
 70
     0
  9
$USERI3
 70
     0
  9
$USERI4
 70
     0
  9
$USERI5
 70
     0
  9
$USERR1
 40
0.0
  9
$USERR2
 40
0.0
  9
$USERR3
 40
0.0
  9
$USERR4
 40
0.0
  9
$USERR5
 40
0.0
  9
$WORLDVIEW
 70
     1
  9
$SHADEDGE
 70
     3
  9
$SHADEDIF
 70
    70
  9
$TILEMODE
 70
     1
  9
$MAXACTVP
 70
    16
  9
$PINSBASE
 10
0.0
 20
0.0
 30
0.0
  9
$PLIMCHECK
 70
     0
  9
$PEXTMIN
 10
1.000000E+20
 20
1.000000E+20
 30
1.000000E+20
  9
$PEXTMAX
 10
-1.000000E+20
 20
-1.000000E+20
 30
-1.000000E+20
  9
$PLIMMIN
 10
0.0
 20
0.0
  9
$PLIMMAX
 10
12.0
 20
9.0
  9
$UNITMODE
 70
     0
  9
$VISRETAIN
 70
     0
  9
$PLINEGEN
 70
     0
  9
$PSLTSCALE
 70
     0
  9
$TREEDEPTH
 70
  3020
  9
$DWGCODEPAGE
  3
undefined
  0
ENDSEC
  0
SECTION
  2
TABLES
  0
TABLE
  2
VPORT
 70
     2
  0
VPORT
  2
*ACTIVE
 70
     0
 10
0.0
 20
0.0
 11
1.0
 21
1.0
 12
222.522843
 22
142.040485
 13
0.0
 23
0.0
 14
2.5
 24
2.5
 15
0.0
 25
0.0
 16
0.0
 26
0.0
 36
1.0
 17
0.0
 27
0.0
 37
0.0
 40
284.080971
 41
1.566616
 42
50.0
 43
0.0
 44
0.0
 50
0.0
 51
0.0
 71
     0
 72
   100
 73
     1
 74
     1
 75
     1
 76
     0
 77
     0
 78
     0
  0
ENDTAB
  0
TABLE
  2
LTYPE
 70
     4
  0
LTYPE
  2
CONTINUOUS
 70
    64
  3
Solid line
 72
    65
 73
     0
 40
0.0
  0
LTYPE
  2
DASHED
 70
    64
  3
__ __ __ __ __ __ __ __ __ __ __ __ __ __ __ __
 72
    65
 73
     2
 40
0.75
 49
0.5
 49
-0.25
  0
LTYPE
  2
CENTER
 70
    64
  3
____ _ ____ _ ____ _ ____ _ ____ _ ____ _ ____ 
 72
    65
 73
     4
 40
2.0
 49
1.25
 49
-0.25
 49
0.25
 49
-0.25
  0
LTYPE
  2
HIDDEN
 70
    64
  3
__ __ __ __ __ __ __ __ __ __ __ __ __ __ __ __
 72
    65
 73
     2
 40
0.375
 49
0.25
 49
-0.125
  0
ENDTAB
  0
TABLE
  2
LAYER
 70
    14
  0
LAYER
  2
0
 70
    64
 62
     7
  6
CONTINUOUS
  0
LAYER
  2
RAAMI
 70
    64
 62
    -4
  6
CONTINUOUS
  0
LAYER
  2
PAKSU
 70
    64
 62
    -3
  6
CONTINUOUS
  0
LAYER
  2
OHUT
 70
    64
 62
    -6
  6
CONTINUOUS
  0
LAYER
  2
SWEDEN
 70
    64
 62
    -7
  6
CONTINUOUS
  0
LAYER
  2
SWEDEN2
 70
    64
 62
    -5
  6
CONTINUOUS
  0
LAYER
  2
BASE
 70
    64
 62
    -7
  6
CONTINUOUS
  0
LAYER
  2
21
 70
    64
 62
    -2
  6
CONTINUOUS
  0
LAYER
  2
HEL035
 70
    64
 62
    -7
  6
CONTINUOUS
  0
LAYER
  2
MUO
 70
    64
 62
    -7
  6
CONTINUOUS
  0
LAYER
  2
1
 70
    64
 62
    -2
  6
CONTINUOUS
  0
LAYER
  2
BASE1
 70
    64
 62
    -2
  6
CONTINUOUS
  0
LAYER
  2
TEKS
 70
    64
 62
    -5
  6
CONTINUOUS
  0
LAYER
  2
DEFPOINTS
 70
    64
 62
    -7
  6
CONTINUOUS
  0
ENDTAB
  0
TABLE
  2
STYLE
 70
     3
  0
STYLE
  2
STANDARD
 70
    64
 40
0.0
 41
1.0
 50
0.0
 71
     0
 42
2.0
  3
txt
  4

  0
STYLE
  2
ROMANS
 70
    64
 40
0.0
 41
1.0
 50
0.0
 71
     0
 42
2.0
  3
romans
  4

  0
STYLE
  2
GREEKS
 70
     0
 40
0.0
 41
1.0
 50
0.0
 71
     0
 42
2.5
  3
TXT
  4

  0
ENDTAB
  0
TABLE
  2
VIEW
 70
     0
  0
ENDTAB
  0
TABLE
  2
UCS
 70
     0
  0
ENDTAB
  0
TABLE
  2
APPID
 70
     1
  0
APPID
  2
ACAD
 70
    64
  0
ENDTAB
  0
TABLE
  2
DIMSTYLE
 70
     0
  0
ENDTAB
  0
ENDSEC
  0
SECTION
  2
BLOCKS
  0
BLOCK
  8
0
  2
1
 70
    64
 10
0.0
 20
0.0
 30
0.0
  3
1
  0
ENDBLK
  8
0
  0
BLOCK
  8
0
  2
BLC16
 70
     0
 10
0.0
 20
0.0
 30
0.0
  3
BLC16
  0
LINE
  8
0
  6
CONTINUOUS
 10
0.007689
 20
38.054928
 30
0.0
 11
19.983683
 21
38.054928
 31
0.0
  0
LINE
  8
0
  6
CONTINUOUS
 10
19.983683
 20
38.054928
 30
0.0
 11
19.983683
 21
-0.003751
 31
0.0
  0
LINE
  8
0
  6
CONTINUOUS
 10
19.983683
 20
-0.003751
 30
0.0
 11
0.007689
 21
-0.003751
 31
0.0
  0
LINE
  8
0
  6
CONTINUOUS
 10
0.007689
 20
-0.003751
 30
0.0
 11
0.007689
 21
38.054928
 31
0.0
  0
LINE
  8
0
  6
CONTINUOUS
 10
14.152643
 20
36.919738
 30
0.0
 11
14.152643
 21
33.528469
 31
0.0
  0
LINE
  8
0
  6
CONTINUOUS
 10
14.152643
 20
33.528469
 30
0.0
 11
11.560435
 21
33.528469
 31
0.0
  0
LINE
  8
0
  6
CONTINUOUS
 10
11.560435
 20
33.528469
 30
0.0
 11
11.560435
 21
30.778433
 31
0.0
  0
LINE
  8
0
  6
CONTINUOUS
 10
11.560435
 20
30.778433
 30
0.0
 11
14.152643
 21
30.778433
 31
0.0
  0
LINE
  8
0
  6
CONTINUOUS
 10
14.152643
 20
30.778433
 30
0.0
 11
14.152643
 21
27.387164
 31
0.0
  0
TEXT
  8
0
  6
CONTINUOUS
 10
6.558569
 20
30.805266
 30
0.0
 40
2.5
  1
2
 11
6.558569
 21
29.971932
 31
0.0
 73
     1
  0
TEXT
  8
0
  6
CONTINUOUS
 10
6.553289
 20
23.854078
 30
0.0
 40
2.5
  1
2 I
 11
6.553289
 21
23.020744
 31
0.0
 73
     1
  0
LINE
  8
0
  6
CONTINUOUS
 10
12.942534
 20
26.359129
 30
0.0
 11
15.288299
 21
25.023775
 31
0.0
  0
LINE
  8
0
  6
CONTINUOUS
 10
15.288299
 20
25.023775
 30
0.0
 11
12.942534
 21
23.833856
 31
0.0
  0
LINE
  8
0
  6
CONTINUOUS
 10
14.169823
 20
26.359129
 30
0.0
 11
16.515589
 21
25.023775
 31
0.0
  0
LINE
  8
0
  6
CONTINUOUS
 10
16.515589
 20
25.023775
 30
0.0
 11
14.169823
 21
23.833856
 31
0.0
  0
TEXT
  8
0
  6
CONTINUOUS
 10
11.566446
 20
19.235679
 30
0.0
 40
2.5
  1
I
 11
11.566446
 21
18.402346
 31
0.0
 73
     1
  0
TEXT
  8
0
  6
CONTINUOUS
 10
13.018181
 20
18.902346
 30
0.0
 40
1.5
  1
2
 11
13.018181
 21
18.402346
 31
0.0
 73
     1
  0
LINE
  8
0
  6
CONTINUOUS
 10
10.65733
 20
12.773825
 30
0.0
 11
13.003095
 21
13.963744
 31
0.0
  0
LINE
  8
0
  6
CONTINUOUS
 10
13.003095
 20
11.438471
 30
0.0
 11
10.65733
 21
12.773825
 31
0.0
  0
LINE
  8
0
  6
CONTINUOUS
 10
6.557002
 20
16.714658
 30
0.0
 11
15.281743
 21
16.714658
 31
0.0
  0
LINE
  8
0
  6
CONTINUOUS
 10
6.557002
 20
17.523984
 30
0.0
 11
6.557002
 21
15.908791
 31
0.0
  0
LINE
  8
0
  6
CONTINUOUS
 10
15.286518
 20
17.523984
 30
0.0
 11
15.286518
 21
15.908791
 31
0.0
  0
ARC
  8
0
  6
CONTINUOUS
 10
12.684846
 20
18.508045
 30
0.0
 40
2.922744
 50
193.105513
 51
283.105513
  0
TEXT
  8
0
  6
CONTINUOUS
 10
6.557002
 20
11.567974
 30
0.0
 40
2.5
  1
2I
 11
6.557002
 21
10.734641
 31
0.0
 73
     1
  0
LINE
  8
0
  6
CONTINUOUS
 10
6.557002
 20
9.441103
 30
0.0
 11
15.281743
 21
9.441103
 31
0.0
  0
LINE
  8
0
  6
CONTINUOUS
 10
15.286518
 20
10.250429
 30
0.0
 11
15.286518
 21
8.635236
 31
0.0
  0
LINE
  8
0
  6
CONTINUOUS
 10
6.557002
 20
10.250429
 30
0.0
 11
6.557002
 21
8.635236
 31
0.0
  0
TEXT
  8
0
  6
CONTINUOUS
 10
6.557002
 20
4.778631
 30
0.0
 40
2.5
  1
I
 11
6.557002
 21
3.945298
 31
0.0
 73
     1
  0
LINE
  8
0
  6
CONTINUOUS
 10
9.509029
 20
6.822462
 30
0.0
 11
9.509029
 21
5.477736
 31
0.0
  0
LINE
  8
0
  6
CONTINUOUS
 10
8.615065
 20
5.477736
 30
0.0
 11
9.52622
 21
5.477736
 31
0.0
  0
LINE
  8
0
  6
CONTINUOUS
 10
9.509029
 20
5.477736
 30
0.0
 11
10.402992
 21
5.477736
 31
0.0
  0
LINE
  8
0
  6
CONTINUOUS
 10
8.901592
 20
5.082328
 30
0.0
 11
9.509029
 21
5.082328
 31
0.0
  0
LINE
  8
0
  6
CONTINUOUS
 10
9.509029
 20
5.082328
 30
0.0
 11
10.150849
 21
5.082328
 31
0.0
  0
LINE
  8
0
  6
CONTINUOUS
 10
9.981861
 20
4.719969
 30
0.0
 11
9.072041
 21
4.719969
 31
0.0
  0
LINE
  8
0
  6
CONTINUOUS
 10
15.286518
 20
2.797924
 30
0.0
 11
15.286518
 21
1.182731
 31
0.0
  0
LINE
  8
0
  6
CONTINUOUS
 10
6.557002
 20
1.988598
 30
0.0
 11
15.281743
 21
1.988598
 31
0.0
  0
LINE
  8
0
  6
CONTINUOUS
 10
6.557002
 20
2.797924
 30
0.0
 11
6.557002
 21
1.182731
 31
0.0
  0
ENDBLK
  8
0
  0
BLOCK
  8
0
  2
BLC27
 70
     0
 10
0.0
 20
0.0
 30
0.0
  3
BLC27
  0
INSERT
  8
SWEDEN2
  6
CENTER
  2
BLC26
 10
0.08063
 20
0.037985
 30
0.0
 41
1.006225
 42
1.006225
 43
1.006225
  0
ENDBLK
  8
0
  0
BLOCK
  8
0
  2
BLC26
 70
    64
 10
0.0
 20
0.0
 30
0.0
  3
BLC26
  0
ARC
  8
0
  6
CONTINUOUS
 10
-0.180576
 20
1.17922
 30
0.0
 40
1.196859
 50
90.0
 51
265.706237
  0
LINE
  8
0
  6
CONTINUOUS
 10
-0.186638
 20
-0.01092
 30
0.0
 11
0.458942
 21
-0.01092
 31
0.0
  0
LINE
  8
0
  6
CONTINUOUS
 10
-0.186638
 20
2.375671
 30
0.0
 11
0.45288
 21
2.375671
 31
0.0
  0
LINE
  8
0
  6
CONTINUOUS
 10
-0.185509
 20
-2.404629
 30
0.0
 11
0.460071
 21
-2.404629
 31
0.0
  0
ARC
  8
0
  6
CONTINUOUS
 10
-0.180576
 20
-1.207779
 30
0.0
 40
1.196859
 50
90.0
 51
270.0
  0
LINE
  8
0
  6
CONTINUOUS
 10
0.451525
 20
-2.404586
 30
0.0
 11
1.401805
 21
-2.404586
 31
0.0
  0
LINE
  8
0
  6
CONTINUOUS
 10
0.446785
 20
2.375674
 30
0.0
 11
1.418544
 21
2.375674
 31
0.0
  0
LINE
  8
0
  6
CONTINUOUS
 10
0.456627
 20
-0.010911
 30
0.0
 11
1.422749
 21
-0.010911
 31
0.0
  0
ENDBLK
  8
0
  0
BLOCK
  8
0
  2
BLC22
 70
    64
 10
0.0
 20
0.0
 30
0.0
  3
BLC22
  0
LINE
  8
HEL035
 10
0.0
 20
-0.00155
 30
0.0
 11
0.0
 21
9.99845
 31
0.0
  0
LINE
  8
21
 10
2.5
 20
10.0
 30
0.0
 11
5.0
 21
10.0
 31
0.0
  0
LINE
  8
HEL035
 10
0.0
 20
9.99845
 30
0.0
 11
2.5
 21
9.99845
 31
0.0
  0
LINE
  8
HEL035
 10
-2.5
 20
5.0
 30
0.0
 11
2.5
 21
5.0
 31
0.0
  0
LINE
  8
21
 10
2.5
 20
5.0
 30
0.0
 11
5.0
 21
5.0
 31
0.0
  0
LINE
  8
21
 10
5.0
 20
5.0
 30
0.0
 11
5.0
 21
7.9
 31
0.0
  0
LINE
  8
HEL035
 10
3.88095
 20
6.944425
 30
0.0
 11
4.560313
 21
6.008681
 31
0.0
  0
LINE
  8
21
 10
10.0
 20
10.0
 30
0.0
 11
4.2
 21
6.5
 31
0.0
  0
LINE
  8
HEL035
 10
2.5
 20
-0.00155
 30
0.0
 11
0.0
 21
-0.00155
 31
0.0
  0
LINE
  8
21
 10
2.5
 20
0.0
 30
0.0
 11
5.0
 21
0.0
 31
0.0
  0
ENDBLK
  8
0
  0
BLOCK
  8
0
  2
BLC18
 70
     0
 10
0.0
 20
0.0
 30
0.0
  3
BLC18
  0
LINE
  8
MUO
 10
-0.056268
 20
0.849555
 30
0.0
 11
8.307242
 21
9.215502
 31
0.0
  0
LINE
  8
MUO
 10
0.928025
 20
-0.107047
 30
0.0
 11
9.268386
 21
8.2307
 31
0.0
  0
LINE
  8
MUO
 10
-0.056268
 20
-0.107047
 30
0.0
 11
-0.056268
 21
9.215502
 31
0.0
  0
LINE
  8
MUO
 10
9.268386
 20
-0.107047
 30
0.0
 11
-0.056268
 21
-0.107047
 31
0.0
  0
LINE
  8
MUO
 10
9.268386
 20
9.215502
 30
0.0
 11
9.268386
 21
-0.107047
 31
0.0
  0
LINE
  8
MUO
 10
-0.056268
 20
9.215502
 30
0.0
 11
9.268386
 21
9.215502
 31
0.0
  0
ENDBLK
  8
0
  0
BLOCK
  8
0
  2
BLC29
 70
    64
 10
0.0
 20
0.0
 30
0.0
  3
BLC29
  0
LINE
  8
0
  6
CONTINUOUS
 10
0.004865
 20
1.206889
 30
0.0
 11
2.350631
 21
-0.128465
 31
0.0
  0
LINE
  8
0
  6
CONTINUOUS
 10
2.350631
 20
-0.128465
 30
0.0
 11
0.004865
 21
-1.318384
 31
0.0
  0
ENDBLK
  8
0
  0
BLOCK
  8
0
  2
WKU130
 70
    64
 10
190.0
 20
250.0
 30
0.0
  3
WKU130
  0
ARC
  8
21
 10
191.083333
 20
249.916667
 30
0.0
 40
1.086534
 50
32.471192
 51
175.601295
  0
ARC
  8
21
 10
192.916667
 20
251.083333
 30
0.0
 40
1.086534
 50
212.471192
 51
355.601295
  0
ENDBLK
  8
0
  0
BLOCK
  8
0
  2
*X8
 70
    65
 10
0.0
 20
0.0
 30
0.0
  3
*X
  0
LINE
  8
0
 62
     0
 10
2.284499
 20
6.52714
 30
0.0
 11
4.8
 21
9.042641
 31
0.0
  0
LINE
  8
0
 62
     0
 10
2.379686
 20
6.799104
 30
0.0
 11
4.8
 21
9.219417
 31
0.0
  0
LINE
  8
0
 62
     0
 10
2.474874
 20
7.071068
 30
0.0
 11
4.8
 21
9.396194
 31
0.0
  0
LINE
  8
0
 62
     0
 10
2.570061
 20
7.343032
 30
0.0
 11
4.8
 21
9.572971
 31
0.0
  0
LINE
  8
0
 62
     0
 10
2.665249
 20
7.614996
 30
0.0
 11
4.8
 21
9.749747
 31
0.0
  0
LINE
  8
0
 62
     0
 10
2.760436
 20
7.88696
 30
0.0
 11
4.8
 21
9.926524
 31
0.0
  0
LINE
  8
0
 62
     0
 10
2.855624
 20
8.158924
 30
0.0
 11
4.696699
 21
10.0
 31
0.0
  0
LINE
  8
0
 62
     0
 10
2.950811
 20
8.430889
 30
0.0
 11
4.519922
 21
10.0
 31
0.0
  0
LINE
  8
0
 62
     0
 10
3.045998
 20
8.702853
 30
0.0
 11
4.343146
 21
10.0
 31
0.0
  0
LINE
  8
0
 62
     0
 10
3.141186
 20
8.974817
 30
0.0
 11
4.166369
 21
10.0
 31
0.0
  0
LINE
  8
0
 62
     0
 10
3.236373
 20
9.246781
 30
0.0
 11
3.989592
 21
10.0
 31
0.0
  0
LINE
  8
0
 62
     0
 10
3.331561
 20
9.518745
 30
0.0
 11
3.812816
 21
10.0
 31
0.0
  0
LINE
  8
0
 62
     0
 10
3.426748
 20
9.790709
 30
0.0
 11
3.636039
 21
10.0
 31
0.0
  0
LINE
  8
0
 62
     0
 10
2.189311
 20
6.255175
 30
0.0
 11
4.8
 21
8.865864
 31
0.0
  0
LINE
  8
0
 62
     0
 10
2.094124
 20
5.983211
 30
0.0
 11
4.8
 21
8.689087
 31
0.0
  0
LINE
  8
0
 62
     0
 10
1.998936
 20
5.711247
 30
0.0
 11
4.8
 21
8.512311
 31
0.0
  0
LINE
  8
0
 62
     0
 10
1.903749
 20
5.439283
 30
0.0
 11
4.8
 21
8.335534
 31
0.0
  0
LINE
  8
0
 62
     0
 10
1.841243
 20
5.2
 30
0.0
 11
4.8
 21
8.158757
 31
0.0
  0
LINE
  8
0
 62
     0
 10
2.018019
 20
5.2
 30
0.0
 11
4.8
 21
7.981981
 31
0.0
  0
LINE
  8
0
 62
     0
 10
2.194796
 20
5.2
 30
0.0
 11
4.8
 21
7.805204
 31
0.0
  0
LINE
  8
0
 62
     0
 10
2.371573
 20
5.2
 30
0.0
 11
4.8
 21
7.628427
 31
0.0
  0
LINE
  8
0
 62
     0
 10
2.54835
 20
5.2
 30
0.0
 11
4.8
 21
7.45165
 31
0.0
  0
LINE
  8
0
 62
     0
 10
2.725126
 20
5.2
 30
0.0
 11
4.8
 21
7.274874
 31
0.0
  0
LINE
  8
0
 62
     0
 10
2.901903
 20
5.2
 30
0.0
 11
4.8
 21
7.098097
 31
0.0
  0
LINE
  8
0
 62
     0
 10
3.07868
 20
5.2
 30
0.0
 11
4.8
 21
6.92132
 31
0.0
  0
LINE
  8
0
 62
     0
 10
3.255456
 20
5.2
 30
0.0
 11
4.8
 21
6.744544
 31
0.0
  0
LINE
  8
0
 62
     0
 10
3.432233
 20
5.2
 30
0.0
 11
4.8
 21
6.567767
 31
0.0
  0
LINE
  8
0
 62
     0
 10
3.60901
 20
5.2
 30
0.0
 11
4.8
 21
6.39099
 31
0.0
  0
LINE
  8
0
 62
     0
 10
3.785786
 20
5.2
 30
0.0
 11
4.8
 21
6.214214
 31
0.0
  0
LINE
  8
0
 62
     0
 10
3.962563
 20
5.2
 30
0.0
 11
4.8
 21
6.037437
 31
0.0
  0
LINE
  8
0
 62
     0
 10
4.13934
 20
5.2
 30
0.0
 11
4.8
 21
5.86066
 31
0.0
  0
LINE
  8
0
 62
     0
 10
4.316117
 20
5.2
 30
0.0
 11
4.8
 21
5.683883
 31
0.0
  0
LINE
  8
0
 62
     0
 10
4.492893
 20
5.2
 30
0.0
 11
4.8
 21
5.507107
 31
0.0
  0
LINE
  8
0
 62
     0
 10
4.66967
 20
5.2
 30
0.0
 11
4.8
 21
5.33033
 31
0.0
  0
ENDBLK
  8
0
  0
BLOCK
  8
0
  2
*X9
 70
    65
 10
0.0
 20
0.0
 30
0.0
  3
*X
  0
LINE
  8
0
 62
     0
 10
5.2
 20
6.083883
 30
0.0
 11
7.178252
 21
8.062136
 31
0.0
  0
LINE
  8
0
 62
     0
 10
5.2
 20
6.26066
 30
0.0
 11
7.132421
 21
8.193082
 31
0.0
  0
LINE
  8
0
 62
     0
 10
5.2
 20
6.437437
 30
0.0
 11
7.08659
 21
8.324027
 31
0.0
  0
LINE
  8
0
 62
     0
 10
5.2
 20
6.614214
 30
0.0
 11
7.040759
 21
8.454973
 31
0.0
  0
LINE
  8
0
 62
     0
 10
5.2
 20
6.79099
 30
0.0
 11
6.994928
 21
8.585919
 31
0.0
  0
LINE
  8
0
 62
     0
 10
5.2
 20
6.967767
 30
0.0
 11
6.949097
 21
8.716864
 31
0.0
  0
LINE
  8
0
 62
     0
 10
5.2
 20
7.144544
 30
0.0
 11
6.903266
 21
8.84781
 31
0.0
  0
LINE
  8
0
 62
     0
 10
5.2
 20
7.32132
 30
0.0
 11
6.857435
 21
8.978756
 31
0.0
  0
LINE
  8
0
 62
     0
 10
5.2
 20
7.498097
 30
0.0
 11
6.811604
 21
9.109702
 31
0.0
  0
LINE
  8
0
 62
     0
 10
5.2
 20
7.674874
 30
0.0
 11
6.765773
 21
9.240647
 31
0.0
  0
LINE
  8
0
 62
     0
 10
5.2
 20
7.85165
 30
0.0
 11
6.719942
 21
9.371593
 31
0.0
  0
LINE
  8
0
 62
     0
 10
5.2
 20
8.028427
 30
0.0
 11
6.674111
 21
9.502539
 31
0.0
  0
LINE
  8
0
 62
     0
 10
5.2
 20
8.205204
 30
0.0
 11
6.62828
 21
9.633484
 31
0.0
  0
LINE
  8
0
 62
     0
 10
5.2
 20
8.381981
 30
0.0
 11
6.582449
 21
9.76443
 31
0.0
  0
LINE
  8
0
 62
     0
 10
5.2
 20
8.558757
 30
0.0
 11
6.536619
 21
9.895376
 31
0.0
  0
LINE
  8
0
 62
     0
 10
5.2
 20
8.735534
 30
0.0
 11
6.464466
 21
10.0
 31
0.0
  0
LINE
  8
0
 62
     0
 10
5.2
 20
8.912311
 30
0.0
 11
6.287689
 21
10.0
 31
0.0
  0
LINE
  8
0
 62
     0
 10
5.2
 20
9.089087
 30
0.0
 11
6.110913
 21
10.0
 31
0.0
  0
LINE
  8
0
 62
     0
 10
5.2
 20
9.265864
 30
0.0
 11
5.934136
 21
10.0
 31
0.0
  0
LINE
  8
0
 62
     0
 10
5.2
 20
9.442641
 30
0.0
 11
5.757359
 21
10.0
 31
0.0
  0
LINE
  8
0
 62
     0
 10
5.2
 20
9.619417
 30
0.0
 11
5.580583
 21
10.0
 31
0.0
  0
LINE
  8
0
 62
     0
 10
5.2
 20
9.796194
 30
0.0
 11
5.403806
 21
10.0
 31
0.0
  0
LINE
  8
0
 62
     0
 10
5.2
 20
9.972971
 30
0.0
 11
5.227029
 21
10.0
 31
0.0
  0
LINE
  8
0
 62
     0
 10
5.2
 20
5.907107
 30
0.0
 11
7.224083
 21
7.93119
 31
0.0
  0
LINE
  8
0
 62
     0
 10
5.2
 20
5.73033
 30
0.0
 11
7.269914
 21
7.800245
 31
0.0
  0
LINE
  8
0
 62
     0
 10
5.2
 20
5.553553
 30
0.0
 11
7.315745
 21
7.669299
 31
0.0
  0
LINE
  8
0
 62
     0
 10
5.2
 20
5.376777
 30
0.0
 11
7.361576
 21
7.538353
 31
0.0
  0
LINE
  8
0
 62
     0
 10
5.2
 20
5.2
 30
0.0
 11
7.407407
 21
7.407407
 31
0.0
  0
LINE
  8
0
 62
     0
 10
5.376777
 20
5.2
 30
0.0
 11
7.453238
 21
7.276462
 31
0.0
  0
LINE
  8
0
 62
     0
 10
5.553553
 20
5.2
 30
0.0
 11
7.499069
 21
7.145516
 31
0.0
  0
LINE
  8
0
 62
     0
 10
5.73033
 20
5.2
 30
0.0
 11
7.5449
 21
7.01457
 31
0.0
  0
LINE
  8
0
 62
     0
 10
5.907107
 20
5.2
 30
0.0
 11
7.590731
 21
6.883625
 31
0.0
  0
LINE
  8
0
 62
     0
 10
6.083883
 20
5.2
 30
0.0
 11
7.636562
 21
6.752679
 31
0.0
  0
LINE
  8
0
 62
     0
 10
6.26066
 20
5.2
 30
0.0
 11
7.682393
 21
6.621733
 31
0.0
  0
LINE
  8
0
 62
     0
 10
6.437437
 20
5.2
 30
0.0
 11
7.728224
 21
6.490788
 31
0.0
  0
LINE
  8
0
 62
     0
 10
6.614214
 20
5.2
 30
0.0
 11
7.774055
 21
6.359842
 31
0.0
  0
LINE
  8
0
 62
     0
 10
6.79099
 20
5.2
 30
0.0
 11
7.819886
 21
6.228896
 31
0.0
  0
LINE
  8
0
 62
     0
 10
6.967767
 20
5.2
 30
0.0
 11
7.865717
 21
6.09795
 31
0.0
  0
LINE
  8
0
 62
     0
 10
7.144544
 20
5.2
 30
0.0
 11
7.911548
 21
5.967005
 31
0.0
  0
LINE
  8
0
 62
     0
 10
7.32132
 20
5.2
 30
0.0
 11
7.957379
 21
5.836059
 31
0.0
  0
LINE
  8
0
 62
     0
 10
7.498097
 20
5.2
 30
0.0
 11
8.00321
 21
5.705113
 31
0.0
  0
LINE
  8
0
 62
     0
 10
7.674874
 20
5.2
 30
0.0
 11
8.049041
 21
5.574168
 31
0.0
  0
LINE
  8
0
 62
     0
 10
7.85165
 20
5.2
 30
0.0
 11
8.094872
 21
5.443222
 31
0.0
  0
LINE
  8
0
 62
     0
 10
8.028427
 20
5.2
 30
0.0
 11
8.140703
 21
5.312276
 31
0.0
  0
ENDBLK
  8
0
  0
BLOCK
  8
0
  2
*X10
 70
    65
 10
0.0
 20
0.0
 30
0.0
  3
*X
  0
LINE
  8
0
 62
     0
 10
0.0
 20
0.0
 30
0.0
 11
4.8
 21
4.8
 31
0.0
  0
LINE
  8
0
 62
     0
 10
0.095187
 20
0.271964
 30
0.0
 11
4.623223
 21
4.8
 31
0.0
  0
LINE
  8
0
 62
     0
 10
0.190375
 20
0.543928
 30
0.0
 11
4.446447
 21
4.8
 31
0.0
  0
LINE
  8
0
 62
     0
 10
0.285562
 20
0.815892
 30
0.0
 11
4.26967
 21
4.8
 31
0.0
  0
LINE
  8
0
 62
     0
 10
0.38075
 20
1.087857
 30
0.0
 11
4.092893
 21
4.8
 31
0.0
  0
LINE
  8
0
 62
     0
 10
0.475937
 20
1.359821
 30
0.0
 11
3.916117
 21
4.8
 31
0.0
  0
LINE
  8
0
 62
     0
 10
0.571125
 20
1.631785
 30
0.0
 11
3.73934
 21
4.8
 31
0.0
  0
LINE
  8
0
 62
     0
 10
0.666312
 20
1.903749
 30
0.0
 11
3.562563
 21
4.8
 31
0.0
  0
LINE
  8
0
 62
     0
 10
0.7615
 20
2.175713
 30
0.0
 11
3.385786
 21
4.8
 31
0.0
  0
LINE
  8
0
 62
     0
 10
0.856687
 20
2.447677
 30
0.0
 11
3.20901
 21
4.8
 31
0.0
  0
LINE
  8
0
 62
     0
 10
0.951875
 20
2.719641
 30
0.0
 11
3.032233
 21
4.8
 31
0.0
  0
LINE
  8
0
 62
     0
 10
1.047062
 20
2.991606
 30
0.0
 11
2.855456
 21
4.8
 31
0.0
  0
LINE
  8
0
 62
     0
 10
1.142249
 20
3.26357
 30
0.0
 11
2.67868
 21
4.8
 31
0.0
  0
LINE
  8
0
 62
     0
 10
1.237437
 20
3.535534
 30
0.0
 11
2.501903
 21
4.8
 31
0.0
  0
LINE
  8
0
 62
     0
 10
1.332624
 20
3.807498
 30
0.0
 11
2.325126
 21
4.8
 31
0.0
  0
LINE
  8
0
 62
     0
 10
1.427812
 20
4.079462
 30
0.0
 11
2.14835
 21
4.8
 31
0.0
  0
LINE
  8
0
 62
     0
 10
1.522999
 20
4.351426
 30
0.0
 11
1.971573
 21
4.8
 31
0.0
  0
LINE
  8
0
 62
     0
 10
1.618187
 20
4.62339
 30
0.0
 11
1.794796
 21
4.8
 31
0.0
  0
LINE
  8
0
 62
     0
 10
0.176777
 20
0.0
 30
0.0
 11
4.8
 21
4.623223
 31
0.0
  0
LINE
  8
0
 62
     0
 10
0.353553
 20
0.0
 30
0.0
 11
4.8
 21
4.446447
 31
0.0
  0
LINE
  8
0
 62
     0
 10
0.53033
 20
0.0
 30
0.0
 11
4.8
 21
4.26967
 31
0.0
  0
LINE
  8
0
 62
     0
 10
0.707107
 20
0.0
 30
0.0
 11
4.8
 21
4.092893
 31
0.0
  0
LINE
  8
0
 62
     0
 10
0.883883
 20
0.0
 30
0.0
 11
4.8
 21
3.916117
 31
0.0
  0
LINE
  8
0
 62
     0
 10
1.06066
 20
0.0
 30
0.0
 11
4.8
 21
3.73934
 31
0.0
  0
LINE
  8
0
 62
     0
 10
1.237437
 20
0.0
 30
0.0
 11
3.179842
 21
1.942405
 31
0.0
  0
LINE
  8
0
 62
     0
 10
3.237437
 20
2.0
 30
0.0
 11
4.8
 21
3.562563
 31
0.0
  0
LINE
  8
0
 62
     0
 10
1.414214
 20
0.0
 30
0.0
 11
3.084654
 21
1.670441
 31
0.0
  0
LINE
  8
0
 62
     0
 10
3.414214
 20
2.0
 30
0.0
 11
4.8
 21
3.385786
 31
0.0
  0
LINE
  8
0
 62
     0
 10
1.59099
 20
0.0
 30
0.0
 11
2.989467
 21
1.398477
 31
0.0
  0
LINE
  8
0
 62
     0
 10
3.59099
 20
2.0
 30
0.0
 11
4.8
 21
3.20901
 31
0.0
  0
LINE
  8
0
 62
     0
 10
1.767767
 20
0.0
 30
0.0
 11
2.894279
 21
1.126512
 31
0.0
  0
LINE
  8
0
 62
     0
 10
3.767767
 20
2.0
 30
0.0
 11
4.8
 21
3.032233
 31
0.0
  0
LINE
  8
0
 62
     0
 10
1.944544
 20
0.0
 30
0.0
 11
2.799092
 21
0.854548
 31
0.0
  0
LINE
  8
0
 62
     0
 10
3.944544
 20
2.0
 30
0.0
 11
4.8
 21
2.855456
 31
0.0
  0
LINE
  8
0
 62
     0
 10
2.12132
 20
0.0
 30
0.0
 11
2.703904
 21
0.582584
 31
0.0
  0
LINE
  8
0
 62
     0
 10
4.12132
 20
2.0
 30
0.0
 11
4.8
 21
2.67868
 31
0.0
  0
LINE
  8
0
 62
     0
 10
2.298097
 20
0.0
 30
0.0
 11
2.608717
 21
0.31062
 31
0.0
  0
LINE
  8
0
 62
     0
 10
4.298097
 20
2.0
 30
0.0
 11
4.8
 21
2.501903
 31
0.0
  0
LINE
  8
0
 62
     0
 10
2.474874
 20
0.0
 30
0.0
 11
2.51353
 21
0.038656
 31
0.0
  0
LINE
  8
0
 62
     0
 10
4.474874
 20
2.0
 30
0.0
 11
4.8
 21
2.325126
 31
0.0
  0
LINE
  8
0
 62
     0
 10
4.65165
 20
2.0
 30
0.0
 11
4.8
 21
2.14835
 31
0.0
  0
ENDBLK
  8
0
  0
BLOCK
  8
0
  2
*X11
 70
    65
 10
0.0
 20
0.0
 30
0.0
  3
*X
  0
LINE
  8
0
 62
     0
 10
6.884654
 20
1.75813
 30
0.0
 11
8.736506
 21
3.609982
 31
0.0
  0
LINE
  8
0
 62
     0
 10
6.838823
 20
1.889076
 30
0.0
 11
8.690675
 21
3.740928
 31
0.0
  0
LINE
  8
0
 62
     0
 10
6.772971
 20
2.0
 30
0.0
 11
8.644844
 21
3.871874
 31
0.0
  0
LINE
  8
0
 62
     0
 10
6.596194
 20
2.0
 30
0.0
 11
8.599013
 21
4.002819
 31
0.0
  0
LINE
  8
0
 62
     0
 10
6.419417
 20
2.0
 30
0.0
 11
8.553182
 21
4.133765
 31
0.0
  0
LINE
  8
0
 62
     0
 10
6.242641
 20
2.0
 30
0.0
 11
8.507351
 21
4.264711
 31
0.0
  0
LINE
  8
0
 62
     0
 10
6.065864
 20
2.0
 30
0.0
 11
8.46152
 21
4.395656
 31
0.0
  0
LINE
  8
0
 62
     0
 10
5.889087
 20
2.0
 30
0.0
 11
8.415689
 21
4.526602
 31
0.0
  0
LINE
  8
0
 62
     0
 10
5.712311
 20
2.0
 30
0.0
 11
8.369858
 21
4.657548
 31
0.0
  0
LINE
  8
0
 62
     0
 10
5.535534
 20
2.0
 30
0.0
 11
8.324027
 21
4.788493
 31
0.0
  0
LINE
  8
0
 62
     0
 10
5.358757
 20
2.0
 30
0.0
 11
8.158757
 21
4.8
 31
0.0
  0
LINE
  8
0
 62
     0
 10
5.2
 20
2.018019
 30
0.0
 11
7.981981
 21
4.8
 31
0.0
  0
LINE
  8
0
 62
     0
 10
5.2
 20
2.194796
 30
0.0
 11
7.805204
 21
4.8
 31
0.0
  0
LINE
  8
0
 62
     0
 10
5.2
 20
2.371573
 30
0.0
 11
7.628427
 21
4.8
 31
0.0
  0
LINE
  8
0
 62
     0
 10
5.2
 20
2.54835
 30
0.0
 11
7.45165
 21
4.8
 31
0.0
  0
LINE
  8
0
 62
     0
 10
5.2
 20
2.725126
 30
0.0
 11
7.274874
 21
4.8
 31
0.0
  0
LINE
  8
0
 62
     0
 10
5.2
 20
2.901903
 30
0.0
 11
7.098097
 21
4.8
 31
0.0
  0
LINE
  8
0
 62
     0
 10
5.2
 20
3.07868
 30
0.0
 11
6.92132
 21
4.8
 31
0.0
  0
LINE
  8
0
 62
     0
 10
5.2
 20
3.255456
 30
0.0
 11
6.744544
 21
4.8
 31
0.0
  0
LINE
  8
0
 62
     0
 10
5.2
 20
3.432233
 30
0.0
 11
6.567767
 21
4.8
 31
0.0
  0
LINE
  8
0
 62
     0
 10
5.2
 20
3.60901
 30
0.0
 11
6.39099
 21
4.8
 31
0.0
  0
LINE
  8
0
 62
     0
 10
5.2
 20
3.785786
 30
0.0
 11
6.214214
 21
4.8
 31
0.0
  0
LINE
  8
0
 62
     0
 10
5.2
 20
3.962563
 30
0.0
 11
6.037437
 21
4.8
 31
0.0
  0
LINE
  8
0
 62
     0
 10
5.2
 20
4.13934
 30
0.0
 11
5.86066
 21
4.8
 31
0.0
  0
LINE
  8
0
 62
     0
 10
5.2
 20
4.316117
 30
0.0
 11
5.683883
 21
4.8
 31
0.0
  0
LINE
  8
0
 62
     0
 10
5.2
 20
4.492893
 30
0.0
 11
5.507107
 21
4.8
 31
0.0
  0
LINE
  8
0
 62
     0
 10
5.2
 20
4.66967
 30
0.0
 11
5.33033
 21
4.8
 31
0.0
  0
LINE
  8
0
 62
     0
 10
6.930485
 20
1.627185
 30
0.0
 11
8.782337
 21
3.479036
 31
0.0
  0
LINE
  8
0
 62
     0
 10
6.976316
 20
1.496239
 30
0.0
 11
8.828168
 21
3.348091
 31
0.0
  0
LINE
  8
0
 62
     0
 10
7.022147
 20
1.365293
 30
0.0
 11
8.873999
 21
3.217145
 31
0.0
  0
LINE
  8
0
 62
     0
 10
7.067978
 20
1.234347
 30
0.0
 11
8.91983
 21
3.086199
 31
0.0
  0
LINE
  8
0
 62
     0
 10
7.113809
 20
1.103402
 30
0.0
 11
8.965661
 21
2.955254
 31
0.0
  0
LINE
  8
0
 62
     0
 10
7.15964
 20
0.972456
 30
0.0
 11
9.011492
 21
2.824308
 31
0.0
  0
LINE
  8
0
 62
     0
 10
7.205471
 20
0.84151
 30
0.0
 11
9.057323
 21
2.693362
 31
0.0
  0
LINE
  8
0
 62
     0
 10
7.251302
 20
0.710565
 30
0.0
 11
9.103154
 21
2.562416
 31
0.0
  0
LINE
  8
0
 62
     0
 10
7.297133
 20
0.579619
 30
0.0
 11
9.148985
 21
2.431471
 31
0.0
  0
LINE
  8
0
 62
     0
 10
7.342964
 20
0.448673
 30
0.0
 11
9.194816
 21
2.300525
 31
0.0
  0
LINE
  8
0
 62
     0
 10
7.388795
 20
0.317728
 30
0.0
 11
9.240647
 21
2.169579
 31
0.0
  0
LINE
  8
0
 62
     0
 10
7.434626
 20
0.186782
 30
0.0
 11
9.286478
 21
2.038634
 31
0.0
  0
LINE
  8
0
 62
     0
 10
7.480457
 20
0.055836
 30
0.0
 11
9.332309
 21
1.907688
 31
0.0
  0
LINE
  8
0
 62
     0
 10
7.601398
 20
0.0
 30
0.0
 11
9.37814
 21
1.776742
 31
0.0
  0
LINE
  8
0
 62
     0
 10
7.778175
 20
0.0
 30
0.0
 11
9.423971
 21
1.645797
 31
0.0
  0
LINE
  8
0
 62
     0
 10
7.954951
 20
0.0
 30
0.0
 11
9.469802
 21
1.514851
 31
0.0
  0
LINE
  8
0
 62
     0
 10
8.131728
 20
0.0
 30
0.0
 11
9.515633
 21
1.383905
 31
0.0
  0
LINE
  8
0
 62
     0
 10
8.308505
 20
0.0
 30
0.0
 11
9.561464
 21
1.252959
 31
0.0
  0
LINE
  8
0
 62
     0
 10
8.485281
 20
0.0
 30
0.0
 11
9.607295
 21
1.122014
 31
0.0
  0
LINE
  8
0
 62
     0
 10
8.662058
 20
0.0
 30
0.0
 11
9.653126
 21
0.991068
 31
0.0
  0
LINE
  8
0
 62
     0
 10
8.838835
 20
0.0
 30
0.0
 11
9.698957
 21
0.860122
 31
0.0
  0
LINE
  8
0
 62
     0
 10
9.015611
 20
0.0
 30
0.0
 11
9.744788
 21
0.729177
 31
0.0
  0
LINE
  8
0
 62
     0
 10
9.192388
 20
0.0
 30
0.0
 11
9.790619
 21
0.598231
 31
0.0
  0
LINE
  8
0
 62
     0
 10
9.369165
 20
0.0
 30
0.0
 11
9.83645
 21
0.467285
 31
0.0
  0
LINE
  8
0
 62
     0
 10
9.545942
 20
0.0
 30
0.0
 11
9.882281
 21
0.33634
 31
0.0
  0
LINE
  8
0
 62
     0
 10
9.722718
 20
0.0
 30
0.0
 11
9.928112
 21
0.205394
 31
0.0
  0
LINE
  8
0
 62
     0
 10
9.899495
 20
0.0
 30
0.0
 11
9.973943
 21
0.074448
 31
0.0
  0
ENDBLK
  8
0
  0
BLOCK
  8
0
  2
*X12
 70
    65
 10
0.0
 20
0.0
 30
0.0
  3
*X
  0
LINE
  8
0
 62
     0
 10
10.7
 20
6.280583
 30
0.0
 11
13.5
 21
9.080583
 31
0.0
  0
LINE
  8
0
 62
     0
 10
10.7
 20
6.457359
 30
0.0
 11
13.5
 21
9.257359
 31
0.0
  0
LINE
  8
0
 62
     0
 10
10.7
 20
6.634136
 30
0.0
 11
13.5
 21
9.434136
 31
0.0
  0
LINE
  8
0
 62
     0
 10
10.7
 20
6.810913
 30
0.0
 11
13.5
 21
9.610913
 31
0.0
  0
LINE
  8
0
 62
     0
 10
10.7
 20
6.987689
 30
0.0
 11
13.5
 21
9.787689
 31
0.0
  0
LINE
  8
0
 62
     0
 10
10.7
 20
7.164466
 30
0.0
 11
13.5
 21
9.964466
 31
0.0
  0
LINE
  8
0
 62
     0
 10
10.7
 20
7.341243
 30
0.0
 11
13.358757
 21
10.0
 31
0.0
  0
LINE
  8
0
 62
     0
 10
10.7
 20
7.518019
 30
0.0
 11
13.181981
 21
10.0
 31
0.0
  0
LINE
  8
0
 62
     0
 10
10.7
 20
7.694796
 30
0.0
 11
13.005204
 21
10.0
 31
0.0
  0
LINE
  8
0
 62
     0
 10
10.7
 20
7.871573
 30
0.0
 11
12.828427
 21
10.0
 31
0.0
  0
LINE
  8
0
 62
     0
 10
10.7
 20
8.04835
 30
0.0
 11
12.65165
 21
10.0
 31
0.0
  0
LINE
  8
0
 62
     0
 10
10.7
 20
8.225126
 30
0.0
 11
12.474874
 21
10.0
 31
0.0
  0
LINE
  8
0
 62
     0
 10
10.7
 20
8.401903
 30
0.0
 11
12.298097
 21
10.0
 31
0.0
  0
LINE
  8
0
 62
     0
 10
10.7
 20
8.57868
 30
0.0
 11
12.12132
 21
10.0
 31
0.0
  0
LINE
  8
0
 62
     0
 10
10.7
 20
8.755456
 30
0.0
 11
11.944544
 21
10.0
 31
0.0
  0
LINE
  8
0
 62
     0
 10
10.7
 20
8.932233
 30
0.0
 11
11.767767
 21
10.0
 31
0.0
  0
LINE
  8
0
 62
     0
 10
10.7
 20
9.10901
 30
0.0
 11
11.59099
 21
10.0
 31
0.0
  0
LINE
  8
0
 62
     0
 10
10.7
 20
9.285786
 30
0.0
 11
11.414214
 21
10.0
 31
0.0
  0
LINE
  8
0
 62
     0
 10
10.7
 20
9.462563
 30
0.0
 11
11.237437
 21
10.0
 31
0.0
  0
LINE
  8
0
 62
     0
 10
10.7
 20
9.63934
 30
0.0
 11
11.06066
 21
10.0
 31
0.0
  0
LINE
  8
0
 62
     0
 10
10.7
 20
9.816117
 30
0.0
 11
10.883883
 21
10.0
 31
0.0
  0
LINE
  8
0
 62
     0
 10
10.7
 20
9.992893
 30
0.0
 11
10.707107
 21
10.0
 31
0.0
  0
LINE
  8
0
 62
     0
 10
10.7
 20
6.103806
 30
0.0
 11
13.5
 21
8.903806
 31
0.0
  0
LINE
  8
0
 62
     0
 10
10.7
 20
5.927029
 30
0.0
 11
13.5
 21
8.727029
 31
0.0
  0
LINE
  8
0
 62
     0
 10
10.7
 20
5.750253
 30
0.0
 11
13.5
 21
8.550253
 31
0.0
  0
LINE
  8
0
 62
     0
 10
10.7
 20
5.573476
 30
0.0
 11
13.5
 21
8.373476
 31
0.0
  0
LINE
  8
0
 62
     0
 10
10.7
 20
5.396699
 30
0.0
 11
13.5
 21
8.196699
 31
0.0
  0
LINE
  8
0
 62
     0
 10
10.7
 20
5.219922
 30
0.0
 11
13.5
 21
8.019922
 31
0.0
  0
LINE
  8
0
 62
     0
 10
10.856854
 20
5.2
 30
0.0
 11
13.5
 21
7.843146
 31
0.0
  0
LINE
  8
0
 62
     0
 10
11.033631
 20
5.2
 30
0.0
 11
13.5
 21
7.666369
 31
0.0
  0
LINE
  8
0
 62
     0
 10
11.210408
 20
5.2
 30
0.0
 11
13.5
 21
7.489592
 31
0.0
  0
LINE
  8
0
 62
     0
 10
11.387184
 20
5.2
 30
0.0
 11
13.5
 21
7.312816
 31
0.0
  0
LINE
  8
0
 62
     0
 10
11.563961
 20
5.2
 30
0.0
 11
13.5
 21
7.136039
 31
0.0
  0
LINE
  8
0
 62
     0
 10
11.740738
 20
5.2
 30
0.0
 11
13.5
 21
6.959262
 31
0.0
  0
LINE
  8
0
 62
     0
 10
11.917514
 20
5.2
 30
0.0
 11
13.5
 21
6.782486
 31
0.0
  0
LINE
  8
0
 62
     0
 10
12.094291
 20
5.2
 30
0.0
 11
13.5
 21
6.605709
 31
0.0
  0
LINE
  8
0
 62
     0
 10
12.271068
 20
5.2
 30
0.0
 11
13.5
 21
6.428932
 31
0.0
  0
LINE
  8
0
 62
     0
 10
12.447845
 20
5.2
 30
0.0
 11
13.5
 21
6.252155
 31
0.0
  0
LINE
  8
0
 62
     0
 10
12.624621
 20
5.2
 30
0.0
 11
13.5
 21
6.075379
 31
0.0
  0
LINE
  8
0
 62
     0
 10
12.801398
 20
5.2
 30
0.0
 11
13.5
 21
5.898602
 31
0.0
  0
LINE
  8
0
 62
     0
 10
12.978175
 20
5.2
 30
0.0
 11
13.5
 21
5.721825
 31
0.0
  0
LINE
  8
0
 62
     0
 10
13.154951
 20
5.2
 30
0.0
 11
13.5
 21
5.545049
 31
0.0
  0
LINE
  8
0
 62
     0
 10
13.331728
 20
5.2
 30
0.0
 11
13.5
 21
5.368272
 31
0.0
  0
ENDBLK
  8
0
  0
BLOCK
  8
0
  2
*X13
 70
    65
 10
0.0
 20
0.0
 30
0.0
  3
*X
  0
LINE
  8
0
 62
     0
 10
10.7
 20
1.154058
 30
0.0
 11
13.5
 21
3.954058
 31
0.0
  0
LINE
  8
0
 62
     0
 10
10.7
 20
1.330835
 30
0.0
 11
13.5
 21
4.130835
 31
0.0
  0
LINE
  8
0
 62
     0
 10
10.7
 20
1.507612
 30
0.0
 11
13.5
 21
4.307612
 31
0.0
  0
LINE
  8
0
 62
     0
 10
10.7
 20
1.684389
 30
0.0
 11
13.5
 21
4.484389
 31
0.0
  0
LINE
  8
0
 62
     0
 10
10.7
 20
1.861165
 30
0.0
 11
13.5
 21
4.661165
 31
0.0
  0
LINE
  8
0
 62
     0
 10
10.7
 20
2.037942
 30
0.0
 11
13.462058
 21
4.8
 31
0.0
  0
LINE
  8
0
 62
     0
 10
10.7
 20
2.214719
 30
0.0
 11
13.285281
 21
4.8
 31
0.0
  0
LINE
  8
0
 62
     0
 10
10.7
 20
2.391495
 30
0.0
 11
13.108505
 21
4.8
 31
0.0
  0
LINE
  8
0
 62
     0
 10
10.7
 20
2.568272
 30
0.0
 11
12.931728
 21
4.8
 31
0.0
  0
LINE
  8
0
 62
     0
 10
10.7
 20
2.745049
 30
0.0
 11
12.754951
 21
4.8
 31
0.0
  0
LINE
  8
0
 62
     0
 10
10.7
 20
2.921825
 30
0.0
 11
12.578175
 21
4.8
 31
0.0
  0
LINE
  8
0
 62
     0
 10
10.7
 20
3.098602
 30
0.0
 11
12.401398
 21
4.8
 31
0.0
  0
LINE
  8
0
 62
     0
 10
10.7
 20
3.275379
 30
0.0
 11
12.224621
 21
4.8
 31
0.0
  0
LINE
  8
0
 62
     0
 10
10.7
 20
3.452155
 30
0.0
 11
12.047845
 21
4.8
 31
0.0
  0
LINE
  8
0
 62
     0
 10
10.7
 20
3.628932
 30
0.0
 11
11.871068
 21
4.8
 31
0.0
  0
LINE
  8
0
 62
     0
 10
10.7
 20
3.805709
 30
0.0
 11
11.694291
 21
4.8
 31
0.0
  0
LINE
  8
0
 62
     0
 10
10.7
 20
3.982486
 30
0.0
 11
11.517514
 21
4.8
 31
0.0
  0
LINE
  8
0
 62
     0
 10
10.7
 20
4.159262
 30
0.0
 11
11.340738
 21
4.8
 31
0.0
  0
LINE
  8
0
 62
     0
 10
10.7
 20
4.336039
 30
0.0
 11
11.163961
 21
4.8
 31
0.0
  0
LINE
  8
0
 62
     0
 10
10.7
 20
4.512816
 30
0.0
 11
10.987184
 21
4.8
 31
0.0
  0
LINE
  8
0
 62
     0
 10
10.7
 20
4.689592
 30
0.0
 11
10.810408
 21
4.8
 31
0.0
  0
LINE
  8
0
 62
     0
 10
10.7
 20
0.977282
 30
0.0
 11
13.5
 21
3.777282
 31
0.0
  0
LINE
  8
0
 62
     0
 10
10.7
 20
0.800505
 30
0.0
 11
13.5
 21
3.600505
 31
0.0
  0
LINE
  8
0
 62
     0
 10
10.7
 20
0.623728
 30
0.0
 11
13.5
 21
3.423728
 31
0.0
  0
LINE
  8
0
 62
     0
 10
10.7
 20
0.446952
 30
0.0
 11
13.5
 21
3.246952
 31
0.0
  0
LINE
  8
0
 62
     0
 10
10.7
 20
0.270175
 30
0.0
 11
13.5
 21
3.070175
 31
0.0
  0
LINE
  8
0
 62
     0
 10
10.7
 20
0.093398
 30
0.0
 11
13.5
 21
2.893398
 31
0.0
  0
LINE
  8
0
 62
     0
 10
10.783378
 20
0.0
 30
0.0
 11
13.5
 21
2.716622
 31
0.0
  0
LINE
  8
0
 62
     0
 10
10.960155
 20
0.0
 30
0.0
 11
13.5
 21
2.539845
 31
0.0
  0
LINE
  8
0
 62
     0
 10
11.136932
 20
0.0
 30
0.0
 11
13.5
 21
2.363068
 31
0.0
  0
LINE
  8
0
 62
     0
 10
11.313708
 20
0.0
 30
0.0
 11
13.5
 21
2.186292
 31
0.0
  0
LINE
  8
0
 62
     0
 10
11.490485
 20
0.0
 30
0.0
 11
13.5
 21
2.009515
 31
0.0
  0
LINE
  8
0
 62
     0
 10
11.667262
 20
0.0
 30
0.0
 11
13.5
 21
1.832738
 31
0.0
  0
LINE
  8
0
 62
     0
 10
11.844039
 20
0.0
 30
0.0
 11
13.5
 21
1.655961
 31
0.0
  0
LINE
  8
0
 62
     0
 10
12.020815
 20
0.0
 30
0.0
 11
13.5
 21
1.479185
 31
0.0
  0
LINE
  8
0
 62
     0
 10
12.197592
 20
0.0
 30
0.0
 11
13.5
 21
1.302408
 31
0.0
  0
LINE
  8
0
 62
     0
 10
12.374369
 20
0.0
 30
0.0
 11
13.5
 21
1.125631
 31
0.0
  0
LINE
  8
0
 62
     0
 10
12.551145
 20
0.0
 30
0.0
 11
13.5
 21
0.948855
 31
0.0
  0
LINE
  8
0
 62
     0
 10
12.727922
 20
0.0
 30
0.0
 11
13.5
 21
0.772078
 31
0.0
  0
LINE
  8
0
 62
     0
 10
12.904699
 20
0.0
 30
0.0
 11
13.5
 21
0.595301
 31
0.0
  0
LINE
  8
0
 62
     0
 10
13.081475
 20
0.0
 30
0.0
 11
13.5
 21
0.418525
 31
0.0
  0
LINE
  8
0
 62
     0
 10
13.258252
 20
0.0
 30
0.0
 11
13.5
 21
0.241748
 31
0.0
  0
LINE
  8
0
 62
     0
 10
13.435029
 20
0.0
 30
0.0
 11
13.5
 21
0.064971
 31
0.0
  0
ENDBLK
  8
0
  0
BLOCK
  8
0
  2
*X14
 70
    65
 10
0.0
 20
0.0
 30
0.0
  3
*X
  0
LINE
  8
0
 62
     0
 10
13.9
 20
6.298602
 30
0.0
 11
16.582995
 21
8.981597
 31
0.0
  0
LINE
  8
0
 62
     0
 10
13.9
 20
6.475379
 30
0.0
 11
16.510503
 21
9.085882
 31
0.0
  0
LINE
  8
0
 62
     0
 10
13.9
 20
6.652155
 30
0.0
 11
16.432927
 21
9.185083
 31
0.0
  0
LINE
  8
0
 62
     0
 10
13.9
 20
6.828932
 30
0.0
 11
16.350372
 21
9.279304
 31
0.0
  0
LINE
  8
0
 62
     0
 10
13.9
 20
7.005709
 30
0.0
 11
16.262892
 21
9.368601
 31
0.0
  0
LINE
  8
0
 62
     0
 10
13.9
 20
7.182486
 30
0.0
 11
16.170495
 21
9.452981
 31
0.0
  0
LINE
  8
0
 62
     0
 10
13.9
 20
7.359262
 30
0.0
 11
16.073145
 21
9.532407
 31
0.0
  0
LINE
  8
0
 62
     0
 10
13.9
 20
7.536039
 30
0.0
 11
15.970755
 21
9.606794
 31
0.0
  0
LINE
  8
0
 62
     0
 10
13.9
 20
7.712816
 30
0.0
 11
15.863189
 21
9.676004
 31
0.0
  0
LINE
  8
0
 62
     0
 10
13.9
 20
7.889592
 30
0.0
 11
15.75025
 21
9.739843
 31
0.0
  0
LINE
  8
0
 62
     0
 10
13.9
 20
8.066369
 30
0.0
 11
15.631675
 21
9.798044
 31
0.0
  0
LINE
  8
0
 62
     0
 10
13.9
 20
8.243146
 30
0.0
 11
15.50711
 21
9.850256
 31
0.0
  0
LINE
  8
0
 62
     0
 10
13.9
 20
8.419922
 30
0.0
 11
15.376096
 21
9.896018
 31
0.0
  0
LINE
  8
0
 62
     0
 10
13.9
 20
8.596699
 30
0.0
 11
15.238027
 21
9.934726
 31
0.0
  0
LINE
  8
0
 62
     0
 10
13.9
 20
8.773476
 30
0.0
 11
15.092096
 21
9.965572
 31
0.0
  0
LINE
  8
0
 62
     0
 10
13.9
 20
8.950253
 30
0.0
 11
14.937209
 21
9.987461
 31
0.0
  0
LINE
  8
0
 62
     0
 10
13.9
 20
9.127029
 30
0.0
 11
14.771824
 21
9.998853
 31
0.0
  0
LINE
  8
0
 62
     0
 10
13.9
 20
9.303806
 30
0.0
 11
14.596193
 21
9.999999
 31
0.0
  0
LINE
  8
0
 62
     0
 10
13.9
 20
9.480583
 30
0.0
 11
14.419417
 21
9.999999
 31
0.0
  0
LINE
  8
0
 62
     0
 10
13.9
 20
9.657359
 30
0.0
 11
14.24264
 21
10.0
 31
0.0
  0
LINE
  8
0
 62
     0
 10
13.9
 20
9.834136
 30
0.0
 11
14.065864
 21
10.0
 31
0.0
  0
LINE
  8
0
 62
     0
 10
13.9
 20
6.121825
 30
0.0
 11
16.650245
 21
8.872071
 31
0.0
  0
LINE
  8
0
 62
     0
 10
13.9
 20
5.945049
 30
0.0
 11
16.712035
 21
8.757083
 31
0.0
  0
LINE
  8
0
 62
     0
 10
13.9
 20
5.768272
 30
0.0
 11
16.768067
 21
8.636339
 31
0.0
  0
LINE
  8
0
 62
     0
 10
13.9
 20
5.591495
 30
0.0
 11
16.817955
 21
8.509451
 31
0.0
  0
LINE
  8
0
 62
     0
 10
13.9
 20
5.414719
 30
0.0
 11
16.861189
 21
8.375908
 31
0.0
  0
LINE
  8
0
 62
     0
 10
13.9
 20
5.237942
 30
0.0
 11
16.897097
 21
8.235039
 31
0.0
  0
LINE
  8
0
 62
     0
 10
14.038835
 20
5.2
 30
0.0
 11
16.924779
 21
8.085944
 31
0.0
  0
LINE
  8
0
 62
     0
 10
14.215611
 20
5.2
 30
0.0
 11
16.942997
 21
7.927385
 31
0.0
  0
LINE
  8
0
 62
     0
 10
14.392388
 20
5.2
 30
0.0
 11
16.949987
 21
7.757599
 31
0.0
  0
LINE
  8
0
 62
     0
 10
14.569165
 20
5.2
 30
0.0
 11
16.943101
 21
7.573936
 31
0.0
  0
LINE
  8
0
 62
     0
 10
14.745942
 20
5.2
 30
0.0
 11
16.918037
 21
7.372095
 31
0.0
  0
LINE
  8
0
 62
     0
 10
14.922718
 20
5.2
 30
0.0
 11
16.866909
 21
7.144191
 31
0.0
  0
LINE
  8
0
 62
     0
 10
15.099495
 20
5.2
 30
0.0
 11
16.771715
 21
6.87222
 31
0.0
  0
LINE
  8
0
 62
     0
 10
15.276272
 20
5.2
 30
0.0
 11
15.847951
 21
5.77168
 31
0.0
  0
LINE
  8
0
 62
     0
 10
15.96673
 20
5.890458
 30
0.0
 11
16.559542
 21
6.48327
 31
0.0
  0
LINE
  8
0
 62
     0
 10
15.453048
 20
5.2
 30
0.0
 11
15.970661
 21
5.717613
 31
0.0
  0
LINE
  8
0
 62
     0
 10
15.629825
 20
5.2
 30
0.0
 11
16.088934
 21
5.659109
 31
0.0
  0
LINE
  8
0
 62
     0
 10
15.806602
 20
5.2
 30
0.0
 11
16.202964
 21
5.596363
 31
0.0
  0
LINE
  8
0
 62
     0
 10
15.983378
 20
5.2
 30
0.0
 11
16.312909
 21
5.529531
 31
0.0
  0
LINE
  8
0
 62
     0
 10
16.160155
 20
5.2
 30
0.0
 11
16.418895
 21
5.45874
 31
0.0
  0
LINE
  8
0
 62
     0
 10
16.336932
 20
5.2
 30
0.0
 11
16.521021
 21
5.384089
 31
0.0
  0
LINE
  8
0
 62
     0
 10
16.513708
 20
5.2
 30
0.0
 11
16.619363
 21
5.305655
 31
0.0
  0
LINE
  8
0
 62
     0
 10
16.690485
 20
5.2
 30
0.0
 11
16.713975
 21
5.22349
 31
0.0
  0
ENDBLK
  8
0
  0
BLOCK
  8
0
  2
*X15
 70
    65
 10
0.0
 20
0.0
 30
0.0
  3
*X
  0
LINE
  8
0
 62
     0
 10
13.9
 20
0.818525
 30
0.0
 11
17.39645
 21
4.314974
 31
0.0
  0
LINE
  8
0
 62
     0
 10
13.9
 20
0.995301
 30
0.0
 11
17.336354
 21
4.431655
 31
0.0
  0
LINE
  8
0
 62
     0
 10
13.9
 20
1.172078
 30
0.0
 11
17.272078
 21
4.544156
 31
0.0
  0
LINE
  8
0
 62
     0
 10
13.9
 20
1.348855
 30
0.0
 11
17.203766
 21
4.652621
 31
0.0
  0
LINE
  8
0
 62
     0
 10
13.9
 20
1.525631
 30
0.0
 11
17.131535
 21
4.757167
 31
0.0
  0
LINE
  8
0
 62
     0
 10
13.9
 20
1.702408
 30
0.0
 11
16.997592
 21
4.8
 31
0.0
  0
LINE
  8
0
 62
     0
 10
13.9
 20
1.879185
 30
0.0
 11
16.820815
 21
4.8
 31
0.0
  0
LINE
  8
0
 62
     0
 10
13.9
 20
2.055961
 30
0.0
 11
16.644039
 21
4.8
 31
0.0
  0
LINE
  8
0
 62
     0
 10
13.9
 20
2.232738
 30
0.0
 11
16.467262
 21
4.8
 31
0.0
  0
LINE
  8
0
 62
     0
 10
13.9
 20
2.409515
 30
0.0
 11
16.290485
 21
4.8
 31
0.0
  0
LINE
  8
0
 62
     0
 10
13.9
 20
2.586292
 30
0.0
 11
16.113708
 21
4.8
 31
0.0
  0
LINE
  8
0
 62
     0
 10
13.9
 20
2.763068
 30
0.0
 11
15.936932
 21
4.8
 31
0.0
  0
LINE
  8
0
 62
     0
 10
13.9
 20
2.939845
 30
0.0
 11
15.760155
 21
4.8
 31
0.0
  0
LINE
  8
0
 62
     0
 10
13.9
 20
3.116622
 30
0.0
 11
15.583378
 21
4.8
 31
0.0
  0
LINE
  8
0
 62
     0
 10
13.9
 20
3.293398
 30
0.0
 11
15.406602
 21
4.8
 31
0.0
  0
LINE
  8
0
 62
     0
 10
13.9
 20
3.470175
 30
0.0
 11
15.229825
 21
4.8
 31
0.0
  0
LINE
  8
0
 62
     0
 10
13.9
 20
3.646952
 30
0.0
 11
15.053048
 21
4.8
 31
0.0
  0
LINE
  8
0
 62
     0
 10
13.9
 20
3.823728
 30
0.0
 11
14.876272
 21
4.8
 31
0.0
  0
LINE
  8
0
 62
     0
 10
13.9
 20
4.000505
 30
0.0
 11
14.699495
 21
4.8
 31
0.0
  0
LINE
  8
0
 62
     0
 10
13.9
 20
4.177282
 30
0.0
 11
14.522718
 21
4.8
 31
0.0
  0
LINE
  8
0
 62
     0
 10
13.9
 20
4.354058
 30
0.0
 11
14.345942
 21
4.8
 31
0.0
  0
LINE
  8
0
 62
     0
 10
13.9
 20
4.530835
 30
0.0
 11
14.169165
 21
4.8
 31
0.0
  0
LINE
  8
0
 62
     0
 10
13.9
 20
4.707612
 30
0.0
 11
13.992388
 21
4.8
 31
0.0
  0
LINE
  8
0
 62
     0
 10
13.9
 20
0.641748
 30
0.0
 11
17.452185
 21
4.193933
 31
0.0
  0
LINE
  8
0
 62
     0
 10
13.9
 20
0.464971
 30
0.0
 11
17.503339
 21
4.068311
 31
0.0
  0
LINE
  8
0
 62
     0
 10
13.9
 20
0.288194
 30
0.0
 11
17.549642
 21
3.937837
 31
0.0
  0
LINE
  8
0
 62
     0
 10
13.9
 20
0.111418
 30
0.0
 11
17.590762
 21
3.80218
 31
0.0
  0
LINE
  8
0
 62
     0
 10
13.965359
 20
0.0
 30
0.0
 11
17.62629
 21
3.660931
 31
0.0
  0
LINE
  8
0
 62
     0
 10
14.142136
 20
0.000001
 30
0.0
 11
17.655713
 21
3.513577
 31
0.0
  0
LINE
  8
0
 62
     0
 10
14.318913
 20
0.000001
 30
0.0
 11
17.678385
 21
3.359473
 31
0.0
  0
LINE
  8
0
 62
     0
 10
14.49569
 20
0.000001
 30
0.0
 11
17.693473
 21
3.197784
 31
0.0
  0
LINE
  8
0
 62
     0
 10
14.672467
 20
0.000002
 30
0.0
 11
17.699875
 21
3.027409
 31
0.0
  0
LINE
  8
0
 62
     0
 10
14.853154
 20
0.003912
 30
0.0
 11
17.696088
 21
2.846846
 31
0.0
  0
LINE
  8
0
 62
     0
 10
15.046044
 20
0.020025
 30
0.0
 11
17.679975
 21
2.653956
 31
0.0
  0
LINE
  8
0
 62
     0
 10
15.254483
 20
0.051687
 30
0.0
 11
17.648313
 21
2.445517
 31
0.0
  0
LINE
  8
0
 62
     0
 10
15.483762
 20
0.10419
 30
0.0
 11
17.59581
 21
2.216238
 31
0.0
  0
LINE
  8
0
 62
     0
 10
15.743786
 20
0.187437
 30
0.0
 11
17.512563
 21
1.956214
 31
0.0
  0
LINE
  8
0
 62
     0
 10
16.058176
 20
0.32505
 30
0.0
 11
17.37495
 21
1.641824
 31
0.0
  0
LINE
  8
0
 62
     0
 10
16.54193
 20
0.632028
 30
0.0
 11
17.067972
 21
1.15807
 31
0.0
  0
ENDBLK
  8
0
  0
BLOCK
  8
0
  2
BLC15
 70
     0
 10
0.0
 20
0.0
 30
0.0
  3
BLC15
  0
LINE
  8
0
  6
CONTINUOUS
 10
0.142084
 20
3.490022
 30
0.0
 11
0.142084
 21
0.844365
 31
0.0
  0
LINE
  8
0
  6
CONTINUOUS
 10
-0.461611
 20
-0.937188
 30
0.0
 11
0.745779
 21
-0.937188
 31
0.0
  0
LINE
  8
0
  6
CONTINUOUS
 10
-0.894108
 20
-0.049675
 30
0.0
 11
1.169267
 21
-0.049675
 31
0.0
  0
LINE
  8
0
  6
CONTINUOUS
 10
-1.389679
 20
0.844365
 30
0.0
 11
1.673848
 21
0.844365
 31
0.0
  0
ENDBLK
  8
0
  0
BLOCK
  8
0
  2
BLC55
 70
    64
 10
0.0
 20
0.0
 30
0.0
  3
BLC55
  0
INSERT
  8
SWEDEN
  6
CENTER
  2
BLC5
 10
0.087066
 20
-0.756831
 30
0.0
 41
0.6
 42
0.6
 43
0.6
  0
ENDBLK
  8
0
  0
BLOCK
  8
0
  2
BLC5
 70
    64
 10
0.0
 20
0.0
 30
0.0
  3
BLC5
  0
TEXT
  8
0
 10
-3.043704
 20
-6.645912
 30
0.0
 40
3.2
  1
PE
  0
LINE
  8
0
 10
-2.946392
 20
1.181176
 30
0.0
 11
2.135458
 21
1.181176
 31
0.0
  0
LINE
  8
0
 10
-0.48656
 20
2.238362
 30
0.0
 11
-0.48656
 21
6.930438
 31
0.0
  0
LINE
  8
0
 10
-1.973271
 20
0.065258
 30
0.0
 11
1.225411
 21
0.065258
 31
0.0
  0
LINE
  8
0
 10
2.685091
 20
2.238362
 30
0.0
 11
1.68494
 21
2.238362
 31
0.0
  0
LINE
  8
0
 10
-3.505035
 20
2.238362
 30
0.0
 11
2.649049
 21
2.238362
 31
0.0
  0
CIRCLE
  8
0
 10
-0.47755
 20
1.422632
 30
0.0
 40
3.804563
  0
ENDBLK
  8
0
  0
BLOCK
  8
0
  2
BLC43
 70
    64
 10
0.0
 20
0.0
 30
0.0
  3
BLC43
  0
TEXT
  8
SWEDEN2
  6
CONTINUOUS
 10
-0.646672
 20
-0.986365
 30
0.0
 40
2.0
  1
+
  0
ENDBLK
  8
0
  0
BLOCK
  8
0
  2
BLC42
 70
    64
 10
0.0
 20
0.0
 30
0.0
  3
BLC42
  0
TEXT
  8
SWEDEN2
  6
CONTINUOUS
 10
-0.655237
 20
-0.99442
 30
0.0
 40
2.0
  1
-
  0
ENDBLK
  8
0
  0
BLOCK
  8
0
  2
BLC44
 70
    64
 10
0.0
 20
0.0
 30
0.0
  3
BLC44
  0
LINE
  8
HEL035
 10
-2.520993
 20
1.697877
 30
0.0
 11
1.479007
 21
1.697877
 31
0.0
  0
INSERT
  8
HEL035
  2
WKU130
 10
-2.181043
 20
-0.027675
 30
0.0
 41
0.8
 42
0.8
 43
0.8
  0
ENDBLK
  8
0
  0
BLOCK
  8
0
  2
BLC25
 70
     0
 10
0.0
 20
0.0
 30
0.0
  3
BLC25
  0
TEXT
  8
0
  6
CONTINUOUS
 10
2.0
 20
30.666667
 30
0.0
 40
2.0
  1
1)
 11
2.0
 21
30.0
 31
0.0
 73
     1
  0
TEXT
  8
0
 10
6.0
 20
2.0
 30
0.0
 40
2.0
  1
7B    27     26
 11
6.0
 21
1.333333
 31
0.0
 73
     1
  0
TEXT
  8
0
 10
6.0
 20
5.333333
 30
0.0
 40
2.0
  1
5B     9      8
 11
6.0
 21
4.666667
 31
0.0
 73
     1
  0
TEXT
  8
0
 10
6.0
 20
8.666667
 30
0.0
 40
2.0
  1
3B     3      2
 11
6.0
 21
8.0
 31
0.0
 73
     1
  0
TEXT
  8
0
 10
32.0
 20
12.666667
 30
0.0
 40
2.0
  1
In=5A
 11
32.0
 21
12.0
 31
0.0
 73
     1
  0
TEXT
  8
0
 10
16.0
 20
12.666667
 30
0.0
 40
2.0
  1
In=1A 
 11
16.0
 21
12.0
 31
0.0
 73
     1
  0
TEXT
  8
0
 10
26.0
 20
18.666667
 30
0.0
 40
2.0
  1
108:
 11
26.0
 21
18.0
 31
0.0
 73
     1
  0
TEXT
  8
0
 10
6.0
 20
18.666667
 30
0.0
 40
2.0
  1
101:       
 11
6.0
 21
18.0
 31
0.0
 73
     1
  0
TEXT
  8
0
 10
6.0
 20
24.666667
 30
0.0
 40
2.0
  1
TERMINALS / UTTAG
 11
6.0
 21
24.0
 31
0.0
 73
     1
  0
LINE
  8
0
 10
0.0
 20
12.0
 30
0.0
 11
44.0
 21
12.0
 31
0.0
  0
LINE
  8
0
 10
28.0
 20
18.0
 30
0.0
 11
28.0
 21
0.0
 31
0.0
  0
LINE
  8
0
 10
14.0
 20
18.0
 30
0.0
 11
44.0
 21
18.0
 31
0.0
  0
LINE
  8
0
 10
14.0
 20
24.0
 30
0.0
 11
14.0
 21
0.0
 31
0.0
  0
LINE
  8
0
 10
0.0
 20
24.0
 30
0.0
 11
44.0
 21
24.0
 31
0.0
  0
LINE
  8
0
 10
44.0
 20
0.0
 30
0.0
 11
44.0
 21
30.0
 31
0.0
  0
LINE
  8
0
 10
0.0
 20
0.0
 30
0.0
 11
44.0
 21
0.0
 31
0.0
  0
LINE
  8
0
 10
0.0
 20
30.0
 30
0.0
 11
0.0
 21
0.0
 31
0.0
  0
LINE
  8
0
 10
44.0
 20
30.0
 30
0.0
 11
0.0
 21
30.0
 31
0.0
  0
ENDBLK
  8
0
  0
BLOCK
  8
0
  2
B60
 70
    64
 10
0.0
 20
0.0
 30
0.0
  3
B60
  0
LINE
  8
BASE
  6
CONTINUOUS
 10
-1.897097
 20
1.443746
 30
0.0
 11
-2.963522
 21
2.510171
 31
0.0
  0
LINE
  8
BASE
  6
CONTINUOUS
 10
-0.830672
 20
2.510171
 30
0.0
 11
-1.897097
 21
1.443746
 31
0.0
  0
LINE
  8
BASE
  6
CONTINUOUS
 10
-1.897097
 20
3.576595
 30
0.0
 11
-0.830672
 21
2.510171
 31
0.0
  0
LINE
  8
BASE
  6
CONTINUOUS
 10
-2.963522
 20
2.510171
 30
0.0
 11
-1.897097
 21
3.576595
 31
0.0
  0
ENDBLK
  8
0
  0
BLOCK
  8
0
  2
B95
 70
     0
 10
0.0
 20
0.0
 30
0.0
  3
B95
  0
LINE
  8
0
  6
CONTINUOUS
 10
5.521762
 20
5.037043
 30
0.0
 11
5.521762
 21
2.089989
 31
0.0
  0
LINE
  8
0
  6
CONTINUOUS
 10
5.521762
 20
2.089989
 30
0.0
 11
12.889396
 21
2.089989
 31
0.0
  0
LINE
  8
0
  6
CONTINUOUS
 10
12.889396
 20
5.037043
 30
0.0
 11
5.521762
 21
5.037043
 31
0.0
  0
LINE
  8
0
  6
CONTINUOUS
 10
14.738406
 20
3.563516
 30
0.0
 11
12.889396
 21
5.037043
 31
0.0
  0
LINE
  8
0
  6
CONTINUOUS
 10
14.738406
 20
3.563516
 30
0.0
 11
12.889396
 21
2.089989
 31
0.0
  0
TEXT
  8
0
  6
CONTINUOUS
 10
6.156772
 20
13.28321
 30
0.0
 40
2.5
  1
3
  0
TEXT
  8
0
  6
CONTINUOUS
 10
6.111038
 20
23.555024
 30
0.0
 40
2.5
  1
3
  0
LINE
  8
0
  6
CONTINUOUS
 10
20.0
 20
0.0
 30
0.0
 11
20.0
 21
7.5
 31
0.0
  0
LINE
  8
0
  6
CONTINUOUS
 10
0.0
 20
0.0
 30
0.0
 11
20.0
 21
0.0
 31
0.0
  0
LINE
  8
0
  6
CONTINUOUS
 10
0.0
 20
7.5
 30
0.0
 11
0.0
 21
0.0
 31
0.0
  0
TEXT
  8
0
  6
DASHED
 10
-17.169563
 20
-18.269329
 30
0.0
 40
2.0
  1
PUNKTSSPÄNNINGSSKYDD
  0
TEXT
  8
0
  6
DASHED
 10
-17.169563
 20
-14.935996
 30
0.0
 40
2.0
  1
ÖVER-, UNDER- OCH NOLL-
  0
TEXT
  8
0
  6
DASHED
 10
-17.169563
 20
-11.602663
 30
0.0
 40
2.0
  1
VOLTAGE RELAY/
  0
TEXT
  8
0
  6
DASHED
 10
-17.169563
 20
-8.269329
 30
0.0
 40
2.0
  1
OVER-, UNDER- AND NEUTRAL
  0
LINE
  8
0
  6
CONTINUOUS
 10
5.631307
 20
9.5728
 30
0.0
 11
13.419512
 21
9.5728
 31
0.0
  0
LINE
  8
0
  6
CONTINUOUS
 10
13.414971
 20
10.418079
 30
0.0
 11
13.414971
 21
8.629948
 31
0.0
  0
LINE
  8
0
  6
CONTINUOUS
 10
8.015452
 20
8.405198
 30
0.0
 11
10.891562
 21
11.233756
 31
0.0
  0
LINE
  8
0
  6
CONTINUOUS
 10
10.460859
 20
11.770963
 30
0.0
 11
11.361536
 21
10.647214
 31
0.0
  0
LINE
  8
0
  6
CONTINUOUS
 10
5.600275
 20
10.418079
 30
0.0
 11
5.600275
 21
8.629948
 31
0.0
  0
LINE
  8
0
  6
CONTINUOUS
 10
14.367961
 20
13.314523
 30
0.0
 11
12.022196
 21
14.649877
 31
0.0
  0
LINE
  8
0
  6
CONTINUOUS
 10
12.022196
 20
14.649877
 30
0.0
 11
14.367961
 21
15.839796
 31
0.0
  0
TEXT
  8
0
  6
DASHED
 10
8.960136
 20
13.279952
 30
0.0
 40
2.5
  1
U
  0
TEXT
  8
0
  6
DASHED
 10
8.929704
 20
23.555529
 30
0.0
 40
2.5
  1
U
  0
LINE
  8
0
  6
CONTINUOUS
 10
14.32516
 20
24.737835
 30
0.0
 11
11.979395
 21
23.547915
 31
0.0
  0
LINE
  8
0
  6
CONTINUOUS
 10
11.979395
 20
26.073188
 30
0.0
 11
14.32516
 21
24.737835
 31
0.0
  0
LINE
  8
0
  6
CONTINUOUS
 10
13.414971
 20
40.150916
 30
0.0
 11
13.414971
 21
38.362785
 31
0.0
  0
LINE
  8
0
  6
CONTINUOUS
 10
10.460859
 20
41.503801
 30
0.0
 11
11.361536
 21
40.380051
 31
0.0
  0
LINE
  8
0
  6
CONTINUOUS
 10
8.015452
 20
38.138035
 30
0.0
 11
10.891562
 21
40.966594
 31
0.0
  0
LINE
  8
0
  6
CONTINUOUS
 10
5.631307
 20
39.305638
 30
0.0
 11
13.419512
 21
39.305638
 31
0.0
  0
LINE
  8
0
  6
CONTINUOUS
 10
5.600275
 20
40.150916
 30
0.0
 11
5.600275
 21
38.362785
 31
0.0
  0
TEXT
  8
0
  6
DASHED
 10
6.057755
 20
33.489757
 30
0.0
 40
2.5
  1
U
  0
LINE
  8
0
  6
CONTINUOUS
 10
9.762047
 20
35.470986
 30
0.0
 11
9.762047
 21
34.116716
 31
0.0
  0
LINE
  8
0
  6
CONTINUOUS
 10
8.55182
 20
34.116716
 30
0.0
 11
9.746161
 21
34.116716
 31
0.0
  0
LINE
  8
0
  6
CONTINUOUS
 10
9.746161
 20
34.116716
 30
0.0
 11
10.940502
 21
34.116716
 31
0.0
  0
LINE
  8
0
  6
CONTINUOUS
 10
8.930225
 20
33.637106
 30
0.0
 11
10.514796
 21
33.637106
 31
0.0
  0
LINE
  8
0
  6
CONTINUOUS
 10
9.261329
 20
33.148931
 30
0.0
 11
10.148216
 21
33.148931
 31
0.0
  0
LINE
  8
0
  6
CONTINUOUS
 10
14.934805
 20
34.694576
 30
0.0
 11
12.58904
 21
33.504657
 31
0.0
  0
LINE
  8
0
  6
CONTINUOUS
 10
11.36175
 20
36.02993
 30
0.0
 11
13.707516
 21
34.694576
 31
0.0
  0
LINE
  8
0
  6
CONTINUOUS
 10
13.707516
 20
34.694576
 30
0.0
 11
11.36175
 21
33.504657
 31
0.0
  0
LINE
  8
0
  6
CONTINUOUS
 10
12.58904
 20
36.02993
 30
0.0
 11
14.934805
 21
34.694576
 31
0.0
  0
LINE
  8
0
  6
CONTINUOUS
 10
14.032229
 20
44.77287
 30
0.0
 11
11.686464
 21
43.582951
 31
0.0
  0
LINE
  8
0
  6
CONTINUOUS
 10
11.686464
 20
46.108224
 30
0.0
 11
14.032229
 21
44.77287
 31
0.0
  0
LINE
  8
0
  6
CONTINUOUS
 10
9.276545
 20
43.128515
 30
0.0
 11
10.163432
 21
43.128515
 31
0.0
  0
LINE
  8
0
  6
CONTINUOUS
 10
8.945441
 20
43.616689
 30
0.0
 11
10.530012
 21
43.616689
 31
0.0
  0
LINE
  8
0
  6
CONTINUOUS
 10
9.761377
 20
44.0963
 30
0.0
 11
10.955718
 21
44.0963
 31
0.0
  0
LINE
  8
0
  6
CONTINUOUS
 10
8.567036
 20
44.0963
 30
0.0
 11
9.761377
 21
44.0963
 31
0.0
  0
LINE
  8
0
  6
CONTINUOUS
 10
9.777263
 20
45.45057
 30
0.0
 11
9.777263
 21
44.0963
 31
0.0
  0
TEXT
  8
0
  6
DASHED
 10
6.072971
 20
43.469341
 30
0.0
 40
2.5
  1
U
  0
LINE
  8
0
  6
CONTINUOUS
 10
5.600275
 20
20.259271
 30
0.0
 11
5.600275
 21
18.471139
 31
0.0
  0
LINE
  8
0
  6
CONTINUOUS
 10
10.460859
 20
21.612155
 30
0.0
 11
11.361536
 21
20.488406
 31
0.0
  0
ARC
  8
0
  6
HIDDEN
 10
12.326175
 20
23.342536
 30
0.0
 40
4.998196
 50
206.402922
 51
282.21115
  0
LINE
  8
0
  6
CONTINUOUS
 10
8.015452
 20
18.24639
 30
0.0
 11
10.891562
 21
21.074948
 31
0.0
  0
LINE
  8
0
  6
CONTINUOUS
 10
13.414971
 20
20.259271
 30
0.0
 11
13.414971
 21
18.471139
 31
0.0
  0
LINE
  8
0
  6
CONTINUOUS
 10
5.631307
 20
19.413992
 30
0.0
 11
13.419512
 21
19.413992
 31
0.0
  0
LINE
  8
0
  6
CONTINUOUS
 10
0.0
 20
7.5
 30
0.0
 11
20.0
 21
7.5
 31
0.0
  0
LINE
  8
0
  6
CONTINUOUS
 10
0.0
 20
7.5
 30
0.0
 11
0.0
 21
47.5
 31
0.0
  0
LINE
  8
0
  6
CONTINUOUS
 10
20.0
 20
47.5
 30
0.0
 11
20.0
 21
7.5
 31
0.0
  0
LINE
  8
0
  6
CONTINUOUS
 10
0.0
 20
47.5
 30
0.0
 11
20.0
 21
47.5
 31
0.0
  0
LINE
  8
0
  6
CONTINUOUS
 10
0.0
 20
27.5
 30
0.0
 11
20.0
 21
27.5
 31
0.0
  0
LINE
  8
0
  6
CONTINUOUS
 10
5.600275
 20
30.552173
 30
0.0
 11
5.600275
 21
28.764041
 31
0.0
  0
LINE
  8
0
  6
CONTINUOUS
 10
5.631307
 20
29.706894
 30
0.0
 11
13.419512
 21
29.706894
 31
0.0
  0
LINE
  8
0
  6
CONTINUOUS
 10
8.015452
 20
28.539291
 30
0.0
 11
10.891562
 21
31.36785
 31
0.0
  0
LINE
  8
0
  6
CONTINUOUS
 10
10.460859
 20
31.905057
 30
0.0
 11
11.361536
 21
30.781308
 31
0.0
  0
LINE
  8
0
  6
CONTINUOUS
 10
13.414971
 20
30.552173
 30
0.0
 11
13.414971
 21
28.764041
 31
0.0
  0
ENDBLK
  8
0
  0
BLOCK
  8
0
  2
B67
 70
     0
 10
0.0
 20
0.0
 30
0.0
  3
B67
  0
LINE
  8
BASE
  6
CONTINUOUS
 10
-1.897097
 20
-3.556254
 30
0.0
 11
-2.963522
 21
-2.489829
 31
0.0
  0
LINE
  8
BASE
  6
CONTINUOUS
 10
-2.963522
 20
-2.489829
 30
0.0
 11
-1.897097
 21
-1.423405
 31
0.0
  0
LINE
  8
BASE
  6
CONTINUOUS
 10
-1.897097
 20
-1.423405
 30
0.0
 11
-0.830672
 21
-2.489829
 31
0.0
  0
LINE
  8
BASE
  6
CONTINUOUS
 10
-0.830672
 20
-2.489829
 30
0.0
 11
-1.897097
 21
-3.556254
 31
0.0
  0
LINE
  8
BASE
  6
DASHED
 10
0.0
 20
0.0
 30
0.0
 11
-5.000117
 21
0.0
 31
0.0
  0
TEXT
  8
BASE
  6
DASHED
 10
-8.422045
 20
-3.481615
 30
0.0
 40
2.0
  1
14B
  0
LINE
  8
BASE
  6
DASHED
 10
-12.5
 20
0.0
 30
0.0
 11
-30.0
 21
0.0
 31
0.0
  0
TEXT
  8
BASE
  6
DASHED
 10
-12.5
 20
3.402046
 30
0.0
 40
2.0
  1
101
  0
TEXT
  8
BASE
  6
DASHED
 10
-18.160336
 20
-3.602839
 30
0.0
 40
2.0
  1
14A 
  0
INSERT
  8
0
  6
CONTINUOUS
  2
B37
 10
-12.5
 20
0.0
 30
0.0
 50
90.0
  0
ENDBLK
  8
0
  0
BLOCK
  8
0
  2
B37
 70
    64
 10
0.0
 20
0.0
 30
0.0
  3
B37
  0
LINE
  8
BASE
  6
CONTINUOUS
 10
-0.006589
 20
-6.018035
 30
0.0
 11
2.434804
 21
0.662841
 31
0.0
  0
LINE
  8
BASE
  6
CONTINUOUS
 10
0.0
 20
0.0
 30
0.0
 11
2.765661
 21
0.0
 31
0.0
  0
LINE
  8
BASE
  6
CONTINUOUS
 10
2.434804
 20
0.662841
 30
0.0
 11
1.549106
 21
1.107734
 31
0.0
  0
CIRCLE
  8
BASE
  6
CONTINUOUS
 10
0.0
 20
-6.758945
 30
0.0
 40
0.740939
  0
ENDBLK
  8
0
  0
BLOCK
  8
0
  2
B68
 70
     0
 10
0.0
 20
0.0
 30
0.0
  3
B68
  0
TEXT
  8
BASE
  6
CONTINUOUS
 10
-25.0
 20
-3.800404
 30
0.0
 40
2.0
  1
17A    17B
  0
CIRCLE
  8
BASE
  6
CONTINUOUS
 10
-2.5
 20
-2.5
 30
0.0
 40
0.806201
  0
CIRCLE
  8
BASE
  6
CONTINUOUS
 10
-2.5
 20
-2.5
 30
0.0
 40
1.484482
  0
LINE
  8
BASE
  6
CONTINUOUS
 10
-10.0
 20
0.0
 30
0.0
 11
0.0
 21
0.0
 31
0.0
  0
TEXT
  8
BASE
  6
DASHED
 10
-17.440617
 20
3.559927
 30
0.0
 40
2.0
  1
101
  0
LINE
  8
BASE
  6
DASHED
 10
-27.5
 20
0.0
 30
0.0
 11
-17.5
 21
0.0
 31
0.0
  0
LINE
  8
BASE
  6
CONTINUOUS
 10
-11.481965
 20
-0.006589
 30
0.0
 11
-18.162841
 21
2.434804
 31
0.0
  0
LINE
  8
BASE
  6
CONTINUOUS
 10
-17.5
 20
0.0
 30
0.0
 11
-17.5
 21
2.765661
 31
0.0
  0
LINE
  8
BASE
  6
CONTINUOUS
 10
-18.162841
 20
2.434804
 30
0.0
 11
-18.607734
 21
1.549106
 31
0.0
  0
CIRCLE
  8
BASE
  6
CONTINUOUS
 10
-10.741055
 20
0.0
 30
0.0
 40
0.740939
  0
ENDBLK
  8
0
  0
BLOCK
  8
0
  2
B137
 70
     0
 10
0.0
 20
0.0
 30
0.0
  3
B137
  0
LINE
  8
BASE
  6
CONTINUOUS
 10
0.0
 20
0.0
 30
0.0
 11
0.0
 21
-10.0
 31
0.0
  0
LINE
  8
BASE
  6
CONTINUOUS
 10
0.0
 20
-17.5
 30
0.0
 11
0.0
 21
-25.0
 31
0.0
  0
LINE
  8
BASE
  6
CONTINUOUS
 10
7.5
 20
-17.5
 30
0.0
 11
7.5
 21
-25.0
 31
0.0
  0
LINE
  8
BASE
  6
CONTINUOUS
 10
7.5
 20
0.0
 30
0.0
 11
7.5
 21
-10.0
 31
0.0
  0
TEXT
  8
BASE
  6
DASHED
 10
3.214777
 20
-8.15218
 30
0.0
 40
2.0
  1
2B
 50
90.0
  0
TEXT
  8
BASE
  6
DASHED
 10
10.545377
 20
-8.15218
 30
0.0
 40
2.0
  1
1B+
 50
90.0
  0
TEXT
  8
BASE
  6
DASHED
 10
18.218527
 20
-8.15218
 30
0.0
 40
2.0
  1
18B-
 50
90.0
  0
LINE
  8
BASE
  6
CONTINUOUS
 10
3.033279
 20
-4.186459
 30
0.0
 11
1.365905
 21
-4.186459
 31
0.0
  0
LINE
  8
BASE
  6
CONTINUOUS
 10
3.033279
 20
-2.499494
 30
0.0
 11
3.033279
 21
-4.186459
 31
0.0
  0
LINE
  8
BASE
  6
CONTINUOUS
 10
1.365905
 20
-2.499494
 30
0.0
 11
3.033279
 21
-2.499494
 31
0.0
  0
LINE
  8
BASE
  6
CONTINUOUS
 10
1.365905
 20
-4.186459
 30
0.0
 11
1.365905
 21
-2.499494
 31
0.0
  0
LINE
  8
BASE
  6
CONTINUOUS
 10
15.0
 20
-5.0
 30
0.0
 11
15.0
 21
-10.0
 31
0.0
  0
LINE
  8
BASE
  6
CONTINUOUS
 10
15.0
 20
-17.5
 30
0.0
 11
15.0
 21
-25.0
 31
0.0
  0
TEXT
  8
BASE
  6
CONTINUOUS
 10
3.078553
 20
-24.069736
 30
0.0
 40
2.0
  1
2A
 50
90.0
  0
TEXT
  8
BASE
  6
CONTINUOUS
 10
10.542942
 20
-24.069736
 30
0.0
 40
2.0
  1
1A
 50
90.0
  0
TEXT
  8
BASE
  6
CONTINUOUS
 10
18.210796
 20
-24.069736
 30
0.0
 40
2.0
  1
18A
 50
90.0
  0
LINE
  8
BASE
  6
CONTINUOUS
 10
14.993411
 20
-16.018035
 30
0.0
 11
17.434804
 21
-9.337159
 31
0.0
  0
LINE
  8
BASE
  6
CONTINUOUS
 10
15.0
 20
-10.0
 30
0.0
 11
17.765661
 21
-10.0
 31
0.0
  0
LINE
  8
BASE
  6
CONTINUOUS
 10
17.434804
 20
-9.337159
 30
0.0
 11
16.549106
 21
-8.892266
 31
0.0
  0
CIRCLE
  8
BASE
  6
CONTINUOUS
 10
15.0
 20
-16.758945
 30
0.0
 40
0.740939
  0
LINE
  8
BASE
  6
CONTINUOUS
 10
7.493411
 20
-16.018035
 30
0.0
 11
9.934804
 21
-9.337159
 31
0.0
  0
LINE
  8
BASE
  6
CONTINUOUS
 10
7.5
 20
-10.0
 30
0.0
 11
10.265661
 21
-10.0
 31
0.0
  0
LINE
  8
BASE
  6
CONTINUOUS
 10
9.934804
 20
-9.337159
 30
0.0
 11
9.049106
 21
-8.892266
 31
0.0
  0
CIRCLE
  8
BASE
  6
CONTINUOUS
 10
7.5
 20
-16.758945
 30
0.0
 40
0.740939
  0
LINE
  8
BASE
  6
CONTINUOUS
 10
-0.006589
 20
-16.018035
 30
0.0
 11
2.434804
 21
-9.337159
 31
0.0
  0
LINE
  8
BASE
  6
CONTINUOUS
 10
0.0
 20
-10.0
 30
0.0
 11
2.765661
 21
-10.0
 31
0.0
  0
LINE
  8
BASE
  6
CONTINUOUS
 10
2.434804
 20
-9.337159
 30
0.0
 11
1.549106
 21
-8.892266
 31
0.0
  0
CIRCLE
  8
BASE
  6
CONTINUOUS
 10
0.0
 20
-16.758945
 30
0.0
 40
0.740939
  0
ENDBLK
  8
0
  0
BLOCK
  8
0
  2
B77
 70
     0
 10
0.0
 20
0.0
 30
0.0
  3
B77
  0
LINE
  8
BASE
  6
CONTINUOUS
 10
-27.5
 20
-80.0
 30
0.0
 11
-27.5
 21
-35.540235
 31
0.0
  0
LINE
  8
BASE
  6
CONTINUOUS
 10
-22.5
 20
-80.0
 30
0.0
 11
-27.5
 21
-80.0
 31
0.0
  0
TEXT
  8
BASE
  6
CONTINUOUS
 10
-5.542419
 20
-97.821769
 30
0.0
 40
2.0
  1
12A
  0
TEXT
  8
BASE
  6
CONTINUOUS
 10
-5.542419
 20
-87.618324
 30
0.0
 40
2.0
  1
11A
  0
LINE
  8
BASE
  6
CONTINUOUS
 10
-20.0
 20
-95.0
 30
0.0
 11
-17.5
 21
-95.0
 31
0.0
  0
LINE
  8
BASE
 10
-17.5
 20
-95.0
 30
0.0
 11
-12.5
 21
-95.0
 31
0.0
  0
LINE
  8
BASE
 10
-12.5
 20
-95.0
 30
0.0
 11
-10.0
 21
-95.0
 31
0.0
  0
LINE
  8
BASE
 10
-10.0
 20
-95.0
 30
0.0
 11
-10.0
 21
-92.1
 31
0.0
  0
LINE
  8
BASE
 10
-11.614494
 20
-91.944425
 30
0.0
 11
-11.292935
 21
-91.501514
 31
0.0
  0
LINE
  8
BASE
 10
-5.495445
 20
-95.0
 30
0.0
 11
-11.295445
 21
-91.5
 31
0.0
  0
LINE
  8
BASE
 10
-5.495445
 20
-85.0
 30
0.0
 11
-11.295445
 21
-81.5
 31
0.0
  0
LINE
  8
BASE
 10
-11.614494
 20
-81.944425
 30
0.0
 11
-11.292935
 21
-81.501514
 31
0.0
  0
LINE
  8
BASE
 10
-10.0
 20
-85.0
 30
0.0
 11
-10.0
 21
-82.1
 31
0.0
  0
LINE
  8
BASE
 10
-12.5
 20
-85.0
 30
0.0
 11
-10.0
 21
-85.0
 31
0.0
  0
LINE
  8
BASE
 10
-17.5
 20
-85.0
 30
0.0
 11
-12.5
 21
-85.0
 31
0.0
  0
LINE
  8
BASE
  6
CONTINUOUS
 10
-20.0
 20
-85.0
 30
0.0
 11
-17.5
 21
-85.0
 31
0.0
  0
LINE
  8
BASE
  6
CONTINUOUS
 10
-27.5
 20
-22.5
 30
0.0
 11
-27.5
 21
-12.5
 31
0.0
  0
TEXT
  8
BASE
  6
CONTINUOUS
 10
-11.250218
 20
0.912284
 30
0.0
 40
2.0
  1
101
  0
LINE
  8
BASE
  6
CONTINUOUS
 10
-27.5
 20
-30.0
 30
0.0
 11
-27.5
 21
-22.5
 31
0.0
  0
LINE
  8
BASE
  6
CONTINUOUS
 10
-22.5
 20
-30.0
 30
0.0
 11
-27.5
 21
-30.0
 31
0.0
  0
INSERT
  8
BASE
  6
CONTINUOUS
  2
BLC29
 10
-24.029446
 20
-30.128476
 30
0.0
 50
180.0
  0
INSERT
  8
BASE
  6
CONTINUOUS
  2
BLC29
 10
-24.029446
 20
-80.128467
 30
0.0
 50
180.0
  0
TEXT
  8
BASE
  6
CONTINUOUS
 10
-4.579696
 20
-52.847581
 30
0.0
 40
2.0
  1
8A
  0
TEXT
  8
BASE
  6
CONTINUOUS
 10
-4.579696
 20
-43.037053
 30
0.0
 40
2.0
  1
7A
  0
TEXT
  8
BASE
  6
CONTINUOUS
 10
-4.579696
 20
-32.92526
 30
0.0
 40
2.0
  1
6A
  0
TEXT
  8
BASE
  6
CONTINUOUS
 10
-4.579696
 20
-22.813467
 30
0.0
 40
2.0
  1
5A
  0
TEXT
  8
BASE
  6
CONTINUOUS
 10
-4.579696
 20
-12.551042
 30
0.0
 40
2.0
  1
4A
  0
TEXT
  8
BASE
  6
CONTINUOUS
 10
-4.579696
 20
-3.041778
 30
0.0
 40
2.0
  1
3A
  0
LINE
  8
BASE
  6
CONTINUOUS
 10
-20.0
 20
-55.0
 30
0.0
 11
-17.5
 21
-55.0
 31
0.0
  0
LINE
  8
BASE
  6
CONTINUOUS
 10
-20.0
 20
-45.0
 30
0.0
 11
-17.5
 21
-45.0
 31
0.0
  0
LINE
  8
BASE
  6
CONTINUOUS
 10
-20.0
 20
-35.0
 30
0.0
 11
-17.5
 21
-35.0
 31
0.0
  0
LINE
  8
BASE
  6
CONTINUOUS
 10
-20.0
 20
-25.0
 30
0.0
 11
-17.5
 21
-25.0
 31
0.0
  0
LINE
  8
BASE
  6
CONTINUOUS
 10
-20.0
 20
-15.0
 30
0.0
 11
-17.5
 21
-15.0
 31
0.0
  0
LINE
  8
BASE
  6
CONTINUOUS
 10
-20.0
 20
-5.0
 30
0.0
 11
-17.5
 21
-5.0
 31
0.0
  0
LINE
  8
BASE
  6
CONTINUOUS
 10
-22.5
 20
-65.0
 30
0.0
 11
-21.5
 21
-64.0
 31
0.0
  0
LINE
  8
BASE
  6
CONTINUOUS
 10
-22.5
 20
-95.0
 30
0.0
 11
-21.5
 21
-96.0
 31
0.0
  0
LINE
  8
BASE
  6
CONTINUOUS
 10
-22.5
 20
-65.0
 30
0.0
 11
-22.5
 21
-95.0
 31
0.0
  0
LINE
  8
BASE
  6
CONTINUOUS
 10
-22.5
 20
-55.0
 30
0.0
 11
-21.5
 21
-56.0
 31
0.0
  0
LINE
  8
BASE
  6
CONTINUOUS
 10
-22.5
 20
-5.0
 30
0.0
 11
-21.5
 21
-4.0
 31
0.0
  0
LINE
  8
BASE
  6
CONTINUOUS
 10
-22.5
 20
-5.0
 30
0.0
 11
-22.5
 21
-35.0
 31
0.0
  0
LINE
  8
BASE
 10
-5.0
 20
-50.0
 30
0.0
 11
-10.8
 21
-53.5
 31
0.0
  0
LINE
  8
BASE
 10
-11.11905
 20
-53.055575
 30
0.0
 11
-10.439687
 21
-53.991319
 31
0.0
  0
LINE
  8
BASE
 10
-10.0
 20
-55.0
 30
0.0
 11
-10.0
 21
-52.1
 31
0.0
  0
LINE
  8
BASE
 10
-12.5
 20
-55.0
 30
0.0
 11
-10.0
 21
-55.0
 31
0.0
  0
LINE
  8
BASE
 10
-17.5
 20
-55.0
 30
0.0
 11
-12.5
 21
-55.0
 31
0.0
  0
INSERT
  8
BASE
  6
CENTER
  2
BLC22
 10
-15.0
 20
-50.0
 30
0.0
  0
LINE
  8
BASE
 10
-17.5
 20
-35.0
 30
0.0
 11
-12.5
 21
-35.0
 31
0.0
  0
LINE
  8
BASE
 10
-12.5
 20
-35.0
 30
0.0
 11
-10.0
 21
-35.0
 31
0.0
  0
LINE
  8
BASE
 10
-10.0
 20
-35.0
 30
0.0
 11
-10.0
 21
-32.1
 31
0.0
  0
LINE
  8
BASE
 10
-11.11905
 20
-33.055575
 30
0.0
 11
-10.439687
 21
-33.991319
 31
0.0
  0
LINE
  8
BASE
 10
-5.0
 20
-30.0
 30
0.0
 11
-10.8
 21
-33.5
 31
0.0
  0
INSERT
  8
BASE
  6
CENTER
  2
BLC22
 10
-15.0
 20
-30.0
 30
0.0
  0
LINE
  8
BASE
 10
-5.0
 20
-10.0
 30
0.0
 11
-10.8
 21
-13.5
 31
0.0
  0
LINE
  8
BASE
 10
-11.11905
 20
-13.055575
 30
0.0
 11
-10.439687
 21
-13.991319
 31
0.0
  0
LINE
  8
BASE
 10
-10.0
 20
-15.0
 30
0.0
 11
-10.0
 21
-12.1
 31
0.0
  0
LINE
  8
BASE
 10
-12.5
 20
-15.0
 30
0.0
 11
-10.0
 21
-15.0
 31
0.0
  0
LINE
  8
BASE
 10
-17.5
 20
-15.0
 30
0.0
 11
-12.5
 21
-15.0
 31
0.0
  0
INSERT
  8
BASE
  6
CENTER
  2
BLC22
 10
-15.0
 20
-10.0
 30
0.0
  0
LINE
  8
BASE
 10
-17.5
 20
-75.0
 30
0.0
 11
-12.5
 21
-75.0
 31
0.0
  0
LINE
  8
BASE
  6
CONTINUOUS
 10
-20.0
 20
-75.0
 30
0.0
 11
-17.5
 21
-75.0
 31
0.0
  0
LINE
  8
BASE
  6
CONTINUOUS
 10
-20.0
 20
-65.0
 30
0.0
 11
-17.5
 21
-65.0
 31
0.0
  0
INSERT
  8
BASE
  6
CENTER
  2
BLC22
 10
-15.0
 20
-70.0
 30
0.0
  0
LINE
  8
BASE
 10
-12.5
 20
-75.0
 30
0.0
 11
-10.0
 21
-75.0
 31
0.0
  0
LINE
  8
BASE
 10
-10.0
 20
-75.0
 30
0.0
 11
-10.0
 21
-72.1
 31
0.0
  0
LINE
  8
BASE
 10
-5.0
 20
-70.0
 30
0.0
 11
-10.8
 21
-73.5
 31
0.0
  0
LINE
  8
BASE
 10
-11.11905
 20
-73.055575
 30
0.0
 11
-10.439687
 21
-73.991319
 31
0.0
  0
LINE
  8
BASE
  6
CONTINUOUS
 10
-22.5
 20
-35.0
 30
0.0
 11
-22.5
 21
-55.0
 31
0.0
  0
TEXT
  8
BASE
  6
CENTER
 10
-4.498916
 20
-62.62865
 30
0.0
 40
2.0
  1
9A
  0
TEXT
  8
BASE
  6
CENTER
 10
-5.533251
 20
-72.779029
 30
0.0
 40
2.0
  1
10A
  0
LINE
  8
BASE
  6
CONTINUOUS
 10
-5.495445
 20
-95.0
 30
0.0
 11
0.0
 21
-95.0
 31
0.0
  0
LINE
  8
BASE
  6
CONTINUOUS
 10
-5.495445
 20
-85.0
 30
0.0
 11
0.0
 21
-85.0
 31
0.0
  0
LINE
  8
BASE
  6
CONTINUOUS
 10
-5.0
 20
-70.0
 30
0.0
 11
0.0
 21
-70.0
 31
0.0
  0
LINE
  8
BASE
  6
CONTINUOUS
 10
-5.0
 20
-60.0
 30
0.0
 11
0.0
 21
-60.0
 31
0.0
  0
LINE
  8
BASE
  6
CONTINUOUS
 10
-5.0
 20
-50.0
 30
0.0
 11
0.0
 21
-50.0
 31
0.0
  0
LINE
  8
BASE
  6
CONTINUOUS
 10
-5.0
 20
-40.0
 30
0.0
 11
0.0
 21
-40.0
 31
0.0
  0
LINE
  8
BASE
  6
CONTINUOUS
 10
-5.0
 20
-30.0
 30
0.0
 11
0.0
 21
-30.0
 31
0.0
  0
LINE
  8
BASE
  6
CONTINUOUS
 10
-5.0
 20
-20.0
 30
0.0
 11
0.0
 21
-20.0
 31
0.0
  0
LINE
  8
BASE
  6
CONTINUOUS
 10
-5.0
 20
0.0
 30
0.0
 11
0.0
 21
0.0
 31
0.0
  0
LINE
  8
BASE
  6
CONTINUOUS
 10
-5.0
 20
-10.0
 30
0.0
 11
0.0
 21
-10.0
 31
0.0
  0
ENDBLK
  8
0
  0
BLOCK
  8
0
  2
B204
 70
     0
 10
0.0
 20
0.0
 30
0.0
  3
B204
  0
TEXT
  8
BASE
  6
CONTINUOUS
 10
-5.818294
 20
-13.161989
 30
0.0
 40
2.0
  1
12A
  0
TEXT
  8
BASE
  6
CONTINUOUS
 10
-5.818294
 20
-3.442734
 30
0.0
 40
2.0
  1
11A
  0
LINE
  8
BASE
  6
CONTINUOUS
 10
-5.0
 20
-10.0
 30
0.0
 11
0.0
 21
-10.0
 31
0.0
  0
LINE
  8
BASE
  6
CONTINUOUS
 10
-20.0
 20
-10.017028
 30
0.0
 11
-10.0
 21
-10.017028
 31
0.0
  0
LINE
  8
BASE
  6
CONTINUOUS
 10
-10.0
 20
-10.017028
 30
0.0
 11
-10.0
 21
-7.234339
 31
0.0
  0
LINE
  8
BASE
  6
CONTINUOUS
 10
-10.897173
 20
-7.565196
 30
0.0
 11
-11.342066
 21
-8.450894
 31
0.0
  0
LINE
  8
BASE
  6
CONTINUOUS
 10
-10.897173
 20
-7.565196
 30
0.0
 11
-5.0
 21
-10.0
 31
0.0
  0
LINE
  8
BASE
  6
CONTINUOUS
 10
-10.897173
 20
2.434804
 30
0.0
 11
-5.0
 21
0.0
 31
0.0
  0
LINE
  8
BASE
  6
CONTINUOUS
 10
-10.897173
 20
2.434804
 30
0.0
 11
-11.342066
 21
1.549106
 31
0.0
  0
LINE
  8
BASE
  6
CONTINUOUS
 10
-10.0
 20
-0.017028
 30
0.0
 11
-10.0
 21
2.765661
 31
0.0
  0
LINE
  8
BASE
  6
CONTINUOUS
 10
-20.0
 20
-0.017028
 30
0.0
 11
-10.0
 21
-0.017028
 31
0.0
  0
LINE
  8
BASE
  6
CONTINUOUS
 10
-5.0
 20
0.0
 30
0.0
 11
0.0
 21
0.0
 31
0.0
  0
ENDBLK
  8
0
  0
BLOCK
  8
0
  2
MAA
 70
    64
 10
0.0
 20
0.0
 30
0.0
  3
MAA
  0
LINE
  8
0
  6
CONTINUOUS
 10
-0.500718
 20
-2.587966
 30
0.0
 11
0.386169
 21
-2.587966
 31
0.0
  0
LINE
  8
0
  6
CONTINUOUS
 10
-0.831823
 20
-1.976333
 30
0.0
 11
0.752749
 21
-1.976333
 31
0.0
  0
LINE
  8
0
  6
CONTINUOUS
 10
-0.015887
 20
-1.35427
 30
0.0
 11
1.178454
 21
-1.35427
 31
0.0
  0
LINE
  8
0
  6
CONTINUOUS
 10
-1.210228
 20
-1.35427
 30
0.0
 11
-0.015887
 21
-1.35427
 31
0.0
  0
LINE
  8
0
  6
CONTINUOUS
 10
0.0
 20
0.0
 30
0.0
 11
0.0
 21
-1.35427
 31
0.0
  0
ENDBLK
  8
0
  0
BLOCK
  8
0
  2
B508
 70
    64
 10
0.0
 20
0.0
 30
0.0
  3
B508
  0
LINE
  8
0
  6
CONTINUOUS
 10
-0.125748
 20
0.026963
 30
0.0
 11
4.541055
 21
0.026963
 31
0.0
  0
LINE
  8
0
  6
CONTINUOUS
 10
1.417034
 20
3.112527
 30
0.0
 11
-0.125748
 21
0.026963
 31
0.0
  0
LINE
  8
0
  6
CONTINUOUS
 10
4.541055
 20
0.026963
 30
0.0
 11
2.998273
 21
3.112527
 31
0.0
  0
ENDBLK
  8
0
  0
ENDSEC
  0
SECTION
  2
ENTITIES
  0
INSERT
  8
0
  2
1
 10
65.405438
 20
98.713066
 30
0.0
  0
INSERT
  8
0
  2
1
 10
72.541652
 20
49.71056
 30
0.0
  0
INSERT
  8
0
  2
1
 10
85.390443
 20
73.497234
 30
0.0
  0
LINE
  8
0
  6
DASHED
 62
   249
 10
222.5
 20
65.0
 30
0.0
 11
222.5
 21
57.5
 31
0.0
  0
LINE
  8
0
  6
DASHED
 62
   249
 10
235.0
 20
65.0
 30
0.0
 11
235.0
 21
57.5
 31
0.0
  0
LINE
  8
0
  6
DASHED
 62
   249
 10
217.5
 20
65.0
 30
0.0
 11
217.5
 21
57.5
 31
0.0
  0
LINE
  8
0
  6
DASHED
 62
   249
 10
190.0
 20
65.0
 30
0.0
 11
190.0
 21
57.5
 31
0.0
  0
LINE
  8
0
  6
DASHED
 62
   249
 10
185.0
 20
65.0
 30
0.0
 11
185.0
 21
57.5
 31
0.0
  0
LINE
  8
0
  6
DASHED
 62
   249
 10
170.0
 20
65.0
 30
0.0
 11
170.0
 21
57.5
 31
0.0
  0
LINE
  8
0
  6
DASHED
 62
   249
 10
195.0
 20
65.0
 30
0.0
 11
195.0
 21
57.5
 31
0.0
  0
LINE
  8
0
  6
DASHED
 62
   249
 10
202.5
 20
65.0
 30
0.0
 11
202.5
 21
57.5
 31
0.0
  0
ARC
  8
0
  6
CONTINUOUS
 62
   249
 10
52.5
 20
190.0
 30
0.0
 40
2.5
 50
270.0
 51
90.0
  0
TEXT
  8
0
  6
DASHED
 62
   249
 10
14.369019
 20
242.5
 30
0.0
 40
2.0
  1
1)
  7
ROMANS
  0
LINE
  8
0
  6
DASHED
 62
   249
 10
50.0
 20
190.0
 30
0.0
 11
30.0
 21
190.0
 31
0.0
  0
LINE
  8
0
  6
DASHED
 62
   249
 10
30.0
 20
152.5
 30
0.0
 11
22.5
 21
152.5
 31
0.0
  0
LINE
  8
0
  6
DASHED
 62
   249
 10
30.0
 20
142.5
 30
0.0
 11
22.5
 21
142.5
 31
0.0
  0
LINE
  8
0
  6
DASHED
 62
   249
 10
30.0
 20
132.5
 30
0.0
 11
22.5
 21
132.5
 31
0.0
  0
LINE
  8
0
  6
DASHED
 62
   249
 10
30.0
 20
122.5
 30
0.0
 11
22.5
 21
122.5
 31
0.0
  0
LINE
  8
0
  6
DASHED
 62
   249
 10
30.0
 20
112.5
 30
0.0
 11
22.5
 21
112.5
 31
0.0
  0
LINE
  8
0
  6
DASHED
 62
   249
 10
30.0
 20
97.5
 30
0.0
 11
22.5
 21
97.5
 31
0.0
  0
LINE
  8
0
  6
CONTINUOUS
 62
   249
 10
20.0
 20
153.0
 30
0.0
 11
20.0
 21
142.0
 31
0.0
  0
LINE
  8
0
  6
CONTINUOUS
 62
   249
 10
20.0
 20
153.0
 30
0.0
 11
21.0
 21
154.0
 31
0.0
  0
LINE
  8
0
  6
CONTINUOUS
 62
   249
 10
20.0
 20
142.0
 30
0.0
 11
21.0
 21
141.0
 31
0.0
  0
LINE
  8
0
  6
CONTINUOUS
 62
   249
 10
20.0
 20
112.0
 30
0.0
 11
21.0
 21
111.0
 31
0.0
  0
LINE
  8
0
  6
CONTINUOUS
 62
   249
 10
20.0
 20
133.0
 30
0.0
 11
20.0
 21
112.0
 31
0.0
  0
LINE
  8
0
  6
CONTINUOUS
 62
   249
 10
20.0
 20
133.0
 30
0.0
 11
21.0
 21
134.0
 31
0.0
  0
TEXT
  8
0
  6
CONTINUOUS
 62
   249
 10
12.5
 20
147.080516
 30
0.0
 40
2.0
  1
3)
  7
ROMANS
  0
TEXT
  8
0
  6
CONTINUOUS
 62
   249
 10
12.5
 20
121.490278
 30
0.0
 40
2.0
  1
4)
  7
ROMANS
  0
TEXT
  8
0
  6
CONTINUOUS
 62
   249
 10
12.5
 20
96.480208
 30
0.0
 40
2.0
  1
5)
  7
ROMANS
  0
LINE
  8
0
  6
CONTINUOUS
 62
   249
 10
253.5
 20
223.007073
 30
0.0
 11
252.5
 21
224.007073
 31
0.0
  0
LINE
  8
0
  6
CONTINUOUS
 62
   249
 10
253.5
 20
217.0
 30
0.0
 11
252.5
 21
216.0
 31
0.0
  0
LINE
  8
0
  6
CONTINUOUS
 62
   249
 10
253.5
 20
222.5
 30
0.0
 11
253.5
 21
217.0
 31
0.0
  0
LINE
  8
0
  6
CONTINUOUS
 62
   249
 10
247.5
 20
217.5
 30
0.0
 11
251.766471
 21
217.5
 31
0.0
  0
LINE
  8
0
  6
CONTINUOUS
 62
   249
 10
247.5
 20
222.5
 30
0.0
 11
251.766471
 21
222.5
 31
0.0
  0
LINE
  8
0
  6
CONTINUOUS
 62
   249
 10
247.5
 20
197.5
 30
0.0
 11
251.766471
 21
197.5
 31
0.0
  0
LINE
  8
0
  6
CONTINUOUS
 62
   249
 10
247.5
 20
202.5
 30
0.0
 11
251.766471
 21
202.5
 31
0.0
  0
TEXT
  8
0
  6
DASHED
 62
   249
 10
334.773514
 20
76.413503
 30
0.0
 40
2.0
  1
TERMINALS / UTTAG
  7
ROMANS
  0
LINE
  8
0
  6
CONTINUOUS
 62
   249
 10
337.5
 20
75.0
 30
0.0
 11
337.5
 21
57.5
 31
0.0
  0
LINE
  8
0
  6
CONTINUOUS
 62
   249
 10
330.0
 20
75.0
 30
0.0
 11
375.0
 21
75.0
 31
0.0
  0
LINE
  8
0
  6
CONTINUOUS
 62
   249
 10
330.0
 20
65.0
 30
0.0
 11
375.0
 21
65.0
 31
0.0
  0
LINE
  8
0
  6
CONTINUOUS
 62
   249
 10
356.115337
 20
45.0
 30
0.0
 11
356.115337
 21
70.0
 31
0.0
  0
TEXT
  8
0
  6
CONTINUOUS
 62
   249
 10
340.129574
 20
65.99148
 30
0.0
 40
2.0
  1
Un=100V
  7
ROMANS
  0
TEXT
  8
0
  6
CONTINUOUS
 62
   249
 10
360.245231
 20
65.99148
 30
0.0
 40
2.0
  1
Un=110V
  7
ROMANS
  0
LINE
  8
0
  6
CONTINUOUS
 62
   249
 10
330.0
 20
45.0
 30
0.0
 11
330.0
 21
80.0
 31
0.0
  0
LINE
  8
0
  6
CONTINUOUS
 62
   249
 10
330.0
 20
80.0
 30
0.0
 11
375.0
 21
80.0
 31
0.0
  0
LINE
  8
0
  6
CONTINUOUS
 62
   249
 10
375.0
 20
80.0
 30
0.0
 11
375.0
 21
45.0
 31
0.0
  0
LINE
  8
0
  6
CONTINUOUS
 62
   249
 10
337.5
 20
45.0
 30
0.0
 11
337.5
 21
57.5
 31
0.0
  0
LINE
  8
0
  6
DASHED
 62
   249
 10
175.0
 20
65.0
 30
0.0
 11
175.0
 21
57.5
 31
0.0
  0
TEXT
  8
0
  6
CONTINUOUS
 62
   249
 10
51.041011
 20
42.755543
 30
0.0
 40
2.0
  1
NOTE. ONLY CONTACT (A) IS CAPABLE OF
  7
ROMANS
  0
TEXT
  8
0
  6
CONTINUOUS
 62
   249
 10
51.710519
 20
39.42221
 30
0.0
 40
2.0
  1
     CONTROLLING DIRECTLY THE 
  7
ROMANS
  0
TEXT
  8
0
  6
CONTINUOUS
 62
   249
 10
51.710519
 20
36.088876
 30
0.0
 40
2.0
  1
     BREAKER TRIP COIL
  7
ROMANS
  0
TEXT
  8
0
  6
CONTINUOUS
 62
   249
 10
51.041011
 20
25.426996
 30
0.0
 40
2.0
  1
OBS.  ENDAST KONTAKT (A) ÄR DIMENSIO-
  7
ROMANS
  0
TEXT
  8
0
  6
CONTINUOUS
 62
   249
 10
52.42877
 20
22.093663
 30
0.0
 40
2.0
  1
     NERAD FÖR DIREKT ANSLUTNING TILL
  7
ROMANS
  0
TEXT
  8
0
  6
CONTINUOUS
 62
   249
 10
52.42877
 20
18.760329
 30
0.0
 40
2.0
  1
     UTLÖSNINGSKRETSEN
  7
ROMANS
  0
LINE
  8
0
 62
   249
 10
0.237099
 20
0.237999
 30
0.0
 11
0.237099
 21
262.737999
 31
0.0
  0
LINE
  8
0
 62
   249
 10
392.237099
 20
262.737999
 30
0.0
 11
392.237099
 21
0.237999
 31
0.0
  0
LINE
  8
0
 62
   249
 10
0.237099
 20
0.237999
 30
0.0
 11
392.237099
 21
0.237999
 31
0.0
  0
TEXT
  8
0
 62
   249
 10
42.237099
 20
5.598529
 30
0.0
 40
2.5
  1
C
  7
ROMANS
  0
TEXT
  8
0
 62
   249
 10
42.237099
 20
1.184272
 30
0.0
 40
2.5
  1
B
  7
ROMANS
  0
TEXT
  8
0
 62
   249
 10
257.407006
 20
1.741783
 30
0.0
 40
3.0
  1
Power
 41
0.8
  7
ROMANS
  0
TEXT
  8
0
 62
   249
 10
273.237099
 20
7.237999
 30
0.0
 40
1.4
  1
VAST.OSASTO RESP.DEPT.
  7
ROMANS
  0
TEXT
  8
0
 62
   249
 10
210.237099
 20
32.237999
 30
0.0
 40
1.4
  1
TEKI  PREPARED
  7
ROMANS
  0
LINE
  8
0
 62
   249
 10
271.237099
 20
9.737999
 30
0.0
 11
271.237099
 21
0.237999
 31
0.0
  0
LINE
  8
0
 62
   249
 10
257.237099
 20
9.737999
 30
0.0
 11
257.237099
 21
35.237999
 31
0.0
  0
LINE
  8
0
 62
   249
 10
40.737099
 20
4.737999
 30
0.0
 11
209.237099
 21
4.737999
 31
0.0
  0
LINE
  8
0
 62
   249
 10
46.737099
 20
0.237999
 30
0.0
 11
46.737099
 21
9.237999
 31
0.0
  0
LINE
  8
0
 62
   249
 10
46.737099
 20
9.237999
 30
0.0
 11
209.237099
 21
9.237999
 31
0.0
  0
TEXT
  8
0
 62
   249
 10
27.737099
 20
2.471333
 30
0.0
 40
1.4
  1
REVISION
  7
ROMANS
  0
TEXT
  8
0
 62
   249
 10
27.737099
 20
4.737999
 30
0.0
 40
1.4
  1
MUUTOS
  7
ROMANS
  0
LINE
  8
0
 62
   249
 10
282.237099
 20
9.737999
 30
0.0
 11
282.237099
 21
18.237999
 31
0.0
  0
TEXT
  8
0
 62
   249
 10
237.737099
 20
1.737999
 30
0.0
 40
3.0
  1
Strömberg
 41
0.8
  7
ROMANS
  0
TEXT
  8
0
 62
   249
 10
229.737099
 20
1.737999
 30
0.0
 40
3.0
  1
ABB 
 41
0.8
  7
ROMANS
  0
LINE
  8
0
 62
   249
 10
223.137099
 20
1.737999
 30
0.0
 11
223.137099
 21
5.097999
 31
0.0
  0
LINE
  8
0
 62
   249
 10
223.137099
 20
8.737999
 30
0.0
 11
225.097099
 21
8.737999
 31
0.0
  0
LINE
  8
0
 62
   249
 10
225.097099
 20
8.737999
 30
0.0
 11
225.097099
 21
5.377999
 31
0.0
  0
LINE
  8
0
 62
   249
 10
225.097099
 20
5.377999
 30
0.0
 11
223.137099
 21
5.377999
 31
0.0
  0
LINE
  8
0
 62
   249
 10
223.137099
 20
5.097999
 30
0.0
 11
225.097099
 21
5.097999
 31
0.0
  0
LINE
  8
0
 62
   249
 10
225.097099
 20
5.097999
 30
0.0
 11
225.097099
 21
1.737999
 31
0.0
  0
LINE
  8
0
 62
   249
 10
225.097099
 20
1.737999
 30
0.0
 11
223.137099
 21
1.737999
 31
0.0
  0
LINE
  8
0
 62
   249
 10
223.137099
 20
5.377999
 30
0.0
 11
223.137099
 21
8.737999
 31
0.0
  0
ARC
  8
0
 62
   249
 10
225.937099
 20
7.162999
 30
0.0
 40
1.575
 50
298.455859
 51
90.052437
  0
LINE
  8
0
 62
   249
 10
225.377099
 20
8.737999
 30
0.0
 11
225.935658
 21
8.737999
 31
0.0
  0
LINE
  8
0
 62
   249
 10
225.377099
 20
8.737999
 30
0.0
 11
225.377099
 21
5.377999
 31
0.0
  0
LINE
  8
0
 62
   249
 10
225.377099
 20
5.377999
 30
0.0
 11
227.361542
 21
5.377999
 31
0.0
  0
LINE
  8
0
 62
   249
 10
227.617099
 20
5.097999
 30
0.0
 11
225.377099
 21
5.097999
 31
0.0
  0
LINE
  8
0
 62
   249
 10
225.377099
 20
5.097999
 30
0.0
 11
225.377099
 21
1.737999
 31
0.0
  0
ARC
  8
0
 62
   249
 10
225.937099
 20
3.837999
 30
0.0
 40
2.1
 50
269.937724
 51
37.056553
  0
LINE
  8
0
 62
   249
 10
225.377099
 20
1.737999
 30
0.0
 11
225.934817
 21
1.738
 31
0.0
  0
ARC
  8
0
 62
   249
 10
225.937099
 20
3.837999
 30
0.0
 40
2.1
 50
47.28622
 51
68.787999
  0
ARC
  8
0
 62
   249
 10
220.477099
 20
3.837999
 30
0.0
 40
2.1
 50
47.28622
 51
68.787999
  0
LINE
  8
0
 62
   249
 10
219.917099
 20
1.737999
 30
0.0
 11
220.474817
 21
1.738
 31
0.0
  0
ARC
  8
0
 62
   249
 10
220.477099
 20
3.837999
 30
0.0
 40
2.1
 50
269.937724
 51
37.056553
  0
LINE
  8
0
 62
   249
 10
219.917099
 20
5.097999
 30
0.0
 11
219.917099
 21
1.737999
 31
0.0
  0
LINE
  8
0
 62
   249
 10
222.157099
 20
5.097999
 30
0.0
 11
219.917099
 21
5.097999
 31
0.0
  0
LINE
  8
0
 62
   249
 10
219.917099
 20
5.377999
 30
0.0
 11
221.901542
 21
5.377999
 31
0.0
  0
LINE
  8
0
 62
   249
 10
219.917099
 20
8.737999
 30
0.0
 11
219.917099
 21
5.377999
 31
0.0
  0
LINE
  8
0
 62
   249
 10
219.917099
 20
8.737999
 30
0.0
 11
220.475658
 21
8.737999
 31
0.0
  0
ARC
  8
0
 62
   249
 10
220.477099
 20
7.162999
 30
0.0
 40
1.575
 50
298.455859
 51
90.052437
  0
LINE
  8
0
 62
   249
 10
217.677099
 20
5.377999
 30
0.0
 11
217.677099
 21
8.737999
 31
0.0
  0
LINE
  8
0
 62
   249
 10
219.637099
 20
1.737999
 30
0.0
 11
217.677099
 21
1.737999
 31
0.0
  0
LINE
  8
0
 62
   249
 10
219.637099
 20
5.097999
 30
0.0
 11
219.637099
 21
1.737999
 31
0.0
  0
LINE
  8
0
 62
   249
 10
217.677099
 20
5.097999
 30
0.0
 11
219.637099
 21
5.097999
 31
0.0
  0
LINE
  8
0
 62
   249
 10
219.637099
 20
5.377999
 30
0.0
 11
217.677099
 21
5.377999
 31
0.0
  0
LINE
  8
0
 62
   249
 10
219.637099
 20
8.737999
 30
0.0
 11
219.637099
 21
5.377999
 31
0.0
  0
LINE
  8
0
 62
   249
 10
217.677099
 20
8.737999
 30
0.0
 11
219.637099
 21
8.737999
 31
0.0
  0
LINE
  8
0
 62
   249
 10
217.677099
 20
1.737999
 30
0.0
 11
217.677099
 21
5.097999
 31
0.0
  0
LINE
  8
0
 62
   249
 10
211.356988
 20
5.080538
 30
0.0
 11
210.187099
 21
1.737999
 31
0.0
  0
LINE
  8
0
 62
   249
 10
213.547099
 20
5.097999
 30
0.0
 11
213.547099
 21
3.137999
 31
0.0
  0
LINE
  8
0
 62
   249
 10
213.827099
 20
5.097999
 30
0.0
 11
213.827099
 21
3.137999
 31
0.0
  0
LINE
  8
0
 62
   249
 10
213.827099
 20
5.097999
 30
0.0
 11
216.010356
 21
5.097999
 31
0.0
  0
LINE
  8
0
 62
   249
 10
213.827099
 20
5.377999
 30
0.0
 11
215.912213
 21
5.377999
 31
0.0
  0
LINE
  8
0
 62
   249
 10
216.011591
 20
5.096594
 30
0.0
 11
217.187099
 21
1.737999
 31
0.0
  0
LINE
  8
0
 62
   249
 10
211.360082
 20
5.097999
 30
0.0
 11
213.547099
 21
5.097999
 31
0.0
  0
LINE
  8
0
 62
   249
 10
211.45904
 20
5.377999
 30
0.0
 11
213.547099
 21
5.377999
 31
0.0
  0
LINE
  8
0
 62
   249
 10
213.547099
 20
8.737999
 30
0.0
 11
212.637099
 21
8.737999
 31
0.0
  0
LINE
  8
0
 62
   249
 10
213.827099
 20
3.137999
 30
0.0
 11
214.946992
 21
3.137999
 31
0.0
  0
LINE
  8
0
 62
   249
 10
213.827099
 20
8.737999
 30
0.0
 11
213.827099
 21
5.377999
 31
0.0
  0
LINE
  8
0
 62
   249
 10
213.547099
 20
8.737999
 30
0.0
 11
213.547099
 21
5.377999
 31
0.0
  0
LINE
  8
0
 62
   249
 10
214.737099
 20
8.737999
 30
0.0
 11
213.827099
 21
8.737999
 31
0.0
  0
LINE
  8
0
 62
   249
 10
214.948197
 20
3.134863
 30
0.0
 11
215.437099
 21
1.737999
 31
0.0
  0
LINE
  8
0
 62
   249
 10
214.737099
 20
8.737999
 30
0.0
 11
215.913452
 21
5.376991
 31
0.0
  0
LINE
  8
0
 62
   249
 10
212.425889
 20
3.134542
 30
0.0
 11
211.937099
 21
1.737999
 31
0.0
  0
LINE
  8
0
 62
   249
 10
212.425886
 20
3.137999
 30
0.0
 11
213.547099
 21
3.137999
 31
0.0
  0
LINE
  8
0
 62
   249
 10
212.637099
 20
8.737999
 30
0.0
 11
211.459571
 21
5.373634
 31
0.0
  0
LINE
  8
0
 62
   249
 10
215.437099
 20
1.737999
 30
0.0
 11
217.187099
 21
1.737999
 31
0.0
  0
LINE
  8
0
 62
   249
 10
210.187099
 20
1.737999
 30
0.0
 11
211.937099
 21
1.737999
 31
0.0
  0
LINE
  8
0
 62
   249
 10
369.737099
 20
9.737999
 30
0.0
 11
369.737099
 21
0.237999
 31
0.0
  0
TEXT
  8
0
 62
   249
 10
371.237099
 20
7.237999
 30
0.0
 40
1.4
  1
PAINOS  REVISION
  7
ROMANS
  0
LINE
  8
0
 62
   249
 10
349.737099
 20
9.737999
 30
0.0
 11
349.737099
 21
18.237999
 31
0.0
  0
TEXT
  8
0
 62
   249
 10
309.237099
 20
7.237999
 30
0.0
 40
1.4
  1
PIIRUSTUS NO  DRAWING NR
  7
ROMANS
  0
TEXT
  8
0
 62
   249
 10
309.237099
 20
15.737999
 30
0.0
 40
1.4
  1
KOODI  CODE
  7
ROMANS
  0
TEXT
  8
0
 62
   249
 10
309.237099
 20
32.737999
 30
0.0
 40
1.4
  1
NIMITYS  NAME
  7
ROMANS
  0
TEXT
  8
0
 62
   249
 10
259.237099
 20
15.737999
 30
0.0
 40
1.4
  1
SUHDE  SCALE
  7
ROMANS
  0
TEXT
  8
0
 62
   249
 10
259.237099
 20
23.737999
 30
0.0
 40
1.4
  1
TOLERANSSIT  TOLERANCES
  7
ROMANS
  0
TEXT
  8
0
 62
   249
 10
259.237099
 20
32.737999
 30
0.0
 40
1.4
  1
LIITTYY  CONCERNING
  7
ROMANS
  0
LINE
  8
0
 62
   249
 10
307.237099
 20
0.237999
 30
0.0
 11
307.237099
 21
35.237999
 31
0.0
  0
TEXT
  8
0
 62
   249
 10
209.979934
 20
15.704666
 30
0.0
 40
1.4
  1
HYVÄKSYI  APPROVED
  7
ROMANS
  0
TEXT
  8
0
 62
   249
 10
210.237099
 20
23.971333
 30
0.0
 40
1.4
  1
TARKASTI  CHECKED
  7
ROMANS
  0
LINE
  8
0
 62
   249
 10
209.237099
 20
35.237999
 30
0.0
 11
392.237099
 21
35.237999
 31
0.0
  0
LINE
  8
0
 62
   249
 10
209.237099
 20
26.737999
 30
0.0
 11
307.237099
 21
26.737999
 31
0.0
  0
LINE
  8
0
 62
   249
 10
209.237099
 20
9.737999
 30
0.0
 11
392.237099
 21
9.737999
 31
0.0
  0
LINE
  8
0
 62
   249
 10
209.237099
 20
18.237999
 30
0.0
 11
392.237099
 21
18.237999
 31
0.0
  0
LINE
  8
0
 62
   249
 10
392.237099
 20
0.237999
 30
0.0
 11
392.237099
 21
35.237999
 31
0.0
  0
LINE
  8
0
 62
   249
 10
209.237099
 20
0.237999
 30
0.0
 11
209.237099
 21
35.237999
 31
0.0
  0
LINE
  8
0
 62
   249
 10
209.237099
 20
0.237999
 30
0.0
 11
392.237099
 21
0.237999
 31
0.0
  0
LINE
  8
0
 62
   249
 10
18.237099
 20
0.237999
 30
0.0
 11
0.237099
 21
0.237999
 31
0.0
  0
LINE
  8
0
 62
   249
 10
0.237099
 20
262.737999
 30
0.0
 11
392.237099
 21
262.737999
 31
0.0
  0
TEXT
  8
0
  6
CONTINUOUS
 62
   249
 10
291.152069
 20
12.309276
 30
0.0
 40
3.0
  1
A3
  0
TEXT
  8
0
  6
CONTINUOUS
 62
   249
 10
351.869321
 20
15.737914
 30
0.0
 40
1.4
  1
LEHTI SHEET
  0
TEXT
  8
0
  6
CONTINUOUS
 62
   249
 10
372.268215
 20
12.134532
 30
0.0
 40
2.0
  1
1
  7
ROMANS
  0
LINE
  8
0
 62
   249
 10
267.5
 20
227.5
 30
0.0
 11
270.0
 21
227.5
 31
0.0
  0
LINE
  8
0
 62
   249
 10
262.5
 20
227.5
 30
0.0
 11
267.5
 21
227.5
 31
0.0
  0
LINE
  8
0
  6
CONTINUOUS
 62
   249
 10
247.5
 20
227.5
 30
0.0
 11
262.5
 21
227.5
 31
0.0
  0
LINE
  8
0
  6
CONTINUOUS
 62
   249
 10
275.7405
 20
227.5
 30
0.0
 11
280.0
 21
227.5
 31
0.0
  0
LINE
  8
0
  6
CONTINUOUS
 62
   249
 10
275.7405
 20
217.5
 30
0.0
 11
280.0
 21
217.5
 31
0.0
  0
LINE
  8
0
  6
CONTINUOUS
 62
   249
 10
253.5
 20
217.5
 30
0.0
 11
262.5
 21
217.5
 31
0.0
  0
LINE
  8
0
 62
   249
 10
262.5
 20
217.5
 30
0.0
 11
267.5
 21
217.5
 31
0.0
  0
LINE
  8
0
 62
   249
 10
267.5
 20
217.5
 30
0.0
 11
270.0
 21
217.5
 31
0.0
  0
LINE
  8
0
 62
   249
 10
267.5
 20
197.5
 30
0.0
 11
270.0
 21
197.5
 31
0.0
  0
LINE
  8
0
 62
   249
 10
262.5
 20
197.5
 30
0.0
 11
267.5
 21
197.5
 31
0.0
  0
LINE
  8
0
  6
CONTINUOUS
 62
   249
 10
253.5
 20
197.5
 30
0.0
 11
262.5
 21
197.5
 31
0.0
  0
LINE
  8
0
  6
CONTINUOUS
 62
   249
 10
275.7405
 20
197.5
 30
0.0
 11
280.0
 21
197.5
 31
0.0
  0
LINE
  8
0
  6
CONTINUOUS
 62
   249
 10
275.7405
 20
207.5
 30
0.0
 11
280.0
 21
207.5
 31
0.0
  0
LINE
  8
0
  6
CONTINUOUS
 62
   249
 10
247.5
 20
207.5
 30
0.0
 11
262.5
 21
207.5
 31
0.0
  0
LINE
  8
0
 62
   249
 10
262.5
 20
207.5
 30
0.0
 11
267.5
 21
207.5
 31
0.0
  0
LINE
  8
0
 62
   249
 10
267.5
 20
207.5
 30
0.0
 11
270.0
 21
207.5
 31
0.0
  0
LINE
  8
0
  6
CONTINUOUS
 62
   249
 10
185.0
 20
90.0
 30
0.0
 11
185.0
 21
80.0
 31
0.0
  0
CIRCLE
  8
0
  6
CONTINUOUS
 62
   249
 10
185.0
 20
73.241055
 30
0.0
 40
0.740939
  0
LINE
  8
0
  6
CONTINUOUS
 62
   249
 10
185.0
 20
72.5
 30
0.0
 11
185.0
 21
65.0
 31
0.0
  0
LINE
  8
0
  6
CONTINUOUS
 62
   249
 10
175.0
 20
90.0
 30
0.0
 11
175.0
 21
80.0
 31
0.0
  0
CIRCLE
  8
0
  6
CONTINUOUS
 62
   249
 10
175.0
 20
73.241055
 30
0.0
 40
0.740939
  0
LINE
  8
0
  6
CONTINUOUS
 62
   249
 10
175.0
 20
72.5
 30
0.0
 11
175.0
 21
65.0
 31
0.0
  0
LINE
  8
0
  6
CONTINUOUS
 62
   249
 10
195.0
 20
72.5
 30
0.0
 11
195.0
 21
65.0
 31
0.0
  0
CIRCLE
  8
0
  6
CONTINUOUS
 62
   249
 10
195.0
 20
73.241055
 30
0.0
 40
0.740939
  0
LINE
  8
0
  6
CONTINUOUS
 62
   249
 10
195.0
 20
90.0
 30
0.0
 11
195.0
 21
80.0
 31
0.0
  0
LINE
  8
0
  6
CONTINUOUS
 62
   249
 10
180.0
 20
90.0
 30
0.0
 11
180.0
 21
85.0
 31
0.0
  0
LINE
  8
0
  6
CONTINUOUS
 62
   249
 10
180.0
 20
85.0
 30
0.0
 11
185.0
 21
85.0
 31
0.0
  0
LINE
  8
0
  6
DASHED
 62
   249
 10
170.0
 20
90.0
 30
0.0
 11
170.0
 21
65.0
 31
0.0
  0
LINE
  8
0
  6
DASHED
 62
   249
 10
190.0
 20
90.0
 30
0.0
 11
190.0
 21
65.0
 31
0.0
  0
TEXT
  8
0
  6
DASHED
 62
   249
 10
177.775535
 20
81.206241
 30
0.0
 40
2.0
  1
13B
 50
90.0
  7
ROMANS
  0
TEXT
  8
0
  6
DASHED
 62
   249
 10
188.214777
 20
81.84782
 30
0.0
 40
2.0
  1
2B
 50
90.0
  7
ROMANS
  0
TEXT
  8
0
  6
DASHED
 62
   249
 10
198.045377
 20
81.84782
 30
0.0
 40
2.0
  1
1B+
 50
90.0
  7
ROMANS
  0
TEXT
  8
0
  6
DASHED
 62
   249
 10
205.718527
 20
81.041511
 30
0.0
 40
2.0
  1
18B-
 50
90.0
  7
ROMANS
  0
LINE
  8
0
  6
CONTINUOUS
 62
   249
 10
175.947848
 20
87.344644
 30
0.0
 11
175.947848
 21
89.031609
 31
0.0
  0
LINE
  8
0
  6
CONTINUOUS
 62
   249
 10
175.947848
 20
89.031609
 30
0.0
 11
177.615221
 21
89.031609
 31
0.0
  0
LINE
  8
0
  6
CONTINUOUS
 62
   249
 10
177.615221
 20
89.031609
 30
0.0
 11
177.615221
 21
87.344644
 31
0.0
  0
LINE
  8
0
  6
CONTINUOUS
 62
   249
 10
177.615221
 20
87.344644
 30
0.0
 11
175.947848
 21
87.344644
 31
0.0
  0
LINE
  8
0
  6
CONTINUOUS
 62
   249
 10
188.033279
 20
87.088029
 30
0.0
 11
186.365905
 21
87.088029
 31
0.0
  0
LINE
  8
0
  6
CONTINUOUS
 62
   249
 10
188.033279
 20
88.774995
 30
0.0
 11
188.033279
 21
87.088029
 31
0.0
  0
LINE
  8
0
  6
CONTINUOUS
 62
   249
 10
186.365905
 20
88.774995
 30
0.0
 11
188.033279
 21
88.774995
 31
0.0
  0
LINE
  8
0
  6
CONTINUOUS
 62
   249
 10
186.365905
 20
87.088029
 30
0.0
 11
186.365905
 21
88.774995
 31
0.0
  0
LINE
  8
0
  6
CONTINUOUS
 62
   249
 10
202.5
 20
85.0
 30
0.0
 11
202.5
 21
80.0
 31
0.0
  0
CIRCLE
  8
0
  6
CONTINUOUS
 62
   249
 10
202.5
 20
73.241055
 30
0.0
 40
0.740939
  0
LINE
  8
0
  6
CONTINUOUS
 62
   249
 10
202.5
 20
72.5
 30
0.0
 11
202.5
 21
65.0
 31
0.0
  0
TEXT
  8
0
  6
CONTINUOUS
 62
   249
 10
177.77957
 20
65.930264
 30
0.0
 40
2.0
  1
13A
 50
90.0
  7
ROMANS
  0
TEXT
  8
0
  6
CONTINUOUS
 62
   249
 10
188.078553
 20
65.930264
 30
0.0
 40
2.0
  1
2A
 50
90.0
  7
ROMANS
  0
TEXT
  8
0
  6
CONTINUOUS
 62
   249
 10
198.042942
 20
65.609474
 30
0.0
 40
2.0
  1
1A
 50
90.0
  7
ROMANS
  0
TEXT
  8
0
  6
CONTINUOUS
 62
   249
 10
205.710796
 20
65.609474
 30
0.0
 40
2.0
  1
18A
 50
90.0
  7
ROMANS
  0
LINE
  8
0
  6
CONTINUOUS
 62
   249
 10
44.80333
 20
152.500025
 30
0.0
 11
55.011081
 21
152.500025
 31
0.0
  0
LINE
  8
0
  6
CONTINUOUS
 62
   249
 10
30.0
 20
152.491507
 30
0.0
 11
37.303472
 21
152.491507
 31
0.0
  0
LINE
  8
0
  6
CONTINUOUS
 62
   249
 10
30.0
 20
142.491507
 30
0.0
 11
37.303472
 21
142.491507
 31
0.0
  0
LINE
  8
0
  6
CONTINUOUS
 62
   249
 10
44.80333
 20
142.500025
 30
0.0
 11
55.011081
 21
142.500025
 31
0.0
  0
TEXT
  8
0
  6
CONTINUOUS
 62
   249
 10
32.5
 20
149.041228
 30
0.0
 40
2.0
  1
17A    
  7
ROMANS
  0
TEXT
  8
0
  6
CONTINUOUS
 62
   249
 10
32.5
 20
139.166667
 30
0.0
 40
2.0
  1
16A
  7
ROMANS
  0
TEXT
  8
0
  6
CONTINUOUS
 62
   249
 10
44.449341
 20
149.041228
 30
0.0
 40
2.0
  1
17B
  7
ROMANS
  0
TEXT
  8
0
  6
CONTINUOUS
 62
   249
 10
44.449341
 20
139.166667
 30
0.0
 40
2.0
  1
16B
  7
ROMANS
  0
LINE
  8
0
  6
CONTINUOUS
 62
   249
 10
44.999883
 20
240.000025
 30
0.0
 11
45.674098
 21
240.000025
 31
0.0
  0
TEXT
  8
0
  6
CONTINUOUS
 62
   249
 10
32.5
 20
236.497146
 30
0.0
 40
2.0
  1
14A
  7
ROMANS
  0
TEXT
  8
0
  6
CONTINUOUS
 62
   249
 10
45.0
 20
236.497146
 30
0.0
 40
2.0
  1
14B
  7
ROMANS
  0
LINE
  8
0
  6
DASHED
 62
   249
 10
55.0
 20
240.0
 30
0.0
 11
45.674098
 21
240.0
 31
0.0
  0
LINE
  8
0
  6
DASHED
 62
   249
 10
30.0
 20
240.0
 30
0.0
 11
35.0
 21
240.0
 31
0.0
  0
CIRCLE
  8
0
  6
CONTINUOUS
 62
   249
 10
275.0
 20
227.5
 30
0.0
 40
0.7405
  0
CIRCLE
  8
0
  6
CONTINUOUS
 62
   249
 10
275.0
 20
217.5
 30
0.0
 40
0.7405
  0
CIRCLE
  8
0
  6
CONTINUOUS
 62
   249
 10
275.0
 20
207.5
 30
0.0
 40
0.7405
  0
CIRCLE
  8
0
  6
CONTINUOUS
 62
   249
 10
275.0
 20
197.5
 30
0.0
 40
0.7405
  0
LINE
  8
0
  6
CENTER
 62
   249
 10
30.0
 20
255.0
 30
0.0
 11
280.0
 21
255.0
 31
0.0
  0
LINE
  8
0
  6
CENTER
 62
   249
 10
280.0
 20
255.0
 30
0.0
 11
280.0
 21
65.0
 31
0.0
  0
LINE
  8
0
  6
CENTER
 62
   249
 10
280.0
 20
65.0
 30
0.0
 11
30.0
 21
65.0
 31
0.0
  0
LINE
  8
0
  6
CENTER
 62
   249
 10
30.0
 20
65.0
 30
0.0
 11
30.0
 21
255.0
 31
0.0
  0
TEXT
  8
0
  6
CENTER
 62
   249
 10
37.59436
 20
243.880343
 30
0.0
 40
2.0
  1
101
  7
ROMANS
  0
TEXT
  8
0
  6
CENTER
 62
   249
 10
32.618702
 20
256.155413
 30
0.0
 40
2.0
  1
101
  7
ROMANS
  0
LINE
  8
0
  6
DASHED
 62
   249
 10
55.0
 20
235.0
 30
0.0
 11
30.0
 21
235.0
 31
0.0
  0
LINE
  8
0
  6
DASHED
 62
   249
 10
55.0
 20
132.5
 30
0.0
 11
30.0
 21
132.5
 31
0.0
  0
LINE
  8
0
  6
DASHED
 62
   249
 10
55.0
 20
122.5
 30
0.0
 11
30.0
 21
122.5
 31
0.0
  0
LINE
  8
0
  6
DASHED
 62
   249
 10
55.0
 20
112.5
 30
0.0
 11
30.0
 21
112.5
 31
0.0
  0
LINE
  8
0
  6
DASHED
 62
   249
 10
55.0
 20
97.5
 30
0.0
 11
30.0
 21
97.5
 31
0.0
  0
LINE
  8
0
  6
DASHED
 62
   249
 10
222.5
 20
90.0
 30
0.0
 11
222.5
 21
65.0
 31
0.0
  0
LINE
  8
0
  6
DASHED
 62
   249
 10
235.0
 20
90.0
 30
0.0
 11
235.0
 21
65.0
 31
0.0
  0
TEXT
  8
0
  6
DASHED
 62
   249
 10
270.0
 20
235.0
 30
0.0
 40
2.0
  1
101
  7
ROMANS
  0
LINE
  8
0
  6
DASHED
 62
   249
 10
30.0
 20
190.0
 30
0.0
 11
22.5
 21
190.0
 31
0.0
  0
TEXT
  8
0
  6
DASHED
 62
   249
 10
12.5
 20
188.986126
 30
0.0
 40
2.0
  1
2)
  7
ROMANS
  0
LINE
  8
0
  6
DASHED
 62
   249
 10
30.0
 20
240.0
 30
0.0
 11
22.5
 21
240.0
 31
0.0
  0
LINE
  8
0
  6
DASHED
 62
   249
 10
30.0
 20
235.0
 30
0.0
 11
22.5
 21
235.0
 31
0.0
  0
LINE
  8
0
  6
CONTINUOUS
 62
   249
 10
253.5
 20
217.000357
 30
0.0
 11
253.5
 21
217.0
 31
0.0
  0
LINE
  8
0
  6
DASHED
 62
   249
 10
253.5
 20
222.5
 30
0.0
 11
253.5
 21
223.007073
 31
0.0
  0
LINE
  8
0
  6
CONTINUOUS
 62
   249
 10
253.5
 20
197.0
 30
0.0
 11
252.5
 21
196.0
 31
0.0
  0
LINE
  8
0
  6
CONTINUOUS
 62
   249
 10
253.5
 20
202.5
 30
0.0
 11
253.5
 21
197.0
 31
0.0
  0
LINE
  8
0
  6
DASHED
 62
   249
 10
253.5
 20
202.5
 30
0.0
 11
253.5
 21
203.007073
 31
0.0
  0
LINE
  8
0
  6
CONTINUOUS
 62
   249
 10
253.5
 20
203.007073
 30
0.0
 11
252.5
 21
204.007073
 31
0.0
  0
LINE
  8
0
  6
CONTINUOUS
 62
   249
 10
297.5
 20
228.0
 30
0.0
 11
297.5
 21
177.0
 31
0.0
  0
LINE
  8
0
  6
CONTINUOUS
 62
   249
 10
297.5
 20
228.0
 30
0.0
 11
296.5
 21
229.0
 31
0.0
  0
LINE
  8
0
  6
CONTINUOUS
 62
   249
 10
297.5
 20
177.0
 30
0.0
 11
296.5
 21
176.0
 31
0.0
  0
LINE
  8
0
  6
CONTINUOUS
 62
   249
 10
297.5
 20
157.0
 30
0.0
 11
296.5
 21
156.0
 31
0.0
  0
LINE
  8
0
  6
CONTINUOUS
 62
   249
 10
297.5
 20
168.0
 30
0.0
 11
296.5
 21
169.0
 31
0.0
  0
LINE
  8
0
  6
CONTINUOUS
 62
   249
 10
297.5
 20
168.0
 30
0.0
 11
297.5
 21
157.0
 31
0.0
  0
LINE
  8
0
  6
CONTINUOUS
 62
   249
 10
280.0
 20
227.5
 30
0.0
 11
295.0
 21
227.5
 31
0.0
  0
LINE
  8
0
  6
CONTINUOUS
 62
   249
 10
280.0
 20
217.5
 30
0.0
 11
295.0
 21
217.5
 31
0.0
  0
LINE
  8
0
  6
CONTINUOUS
 62
   249
 10
280.0
 20
167.5
 30
0.0
 11
295.0
 21
167.5
 31
0.0
  0
LINE
  8
0
  6
CONTINUOUS
 62
   249
 10
280.0
 20
157.5
 30
0.0
 11
295.0
 21
157.5
 31
0.0
  0
TEXT
  8
0
  6
CONTINUOUS
 62
   249
 10
378.578259
 20
171.374636
 30
0.0
 40
2.0
  1
4S
  7
ROMANS
  0
TEXT
  8
0
  6
CONTINUOUS
 62
   249
 10
364.837199
 20
181.348324
 30
0.0
 40
2.0
  1
42C
  7
ROMANS
  0
TEXT
  8
0
  6
CONTINUOUS
 62
   249
 10
348.243776
 20
176.737041
 30
0.0
 40
2.0
  1
101  108
  7
ROMANS
  0
LINE
  8
0
  6
CONTINUOUS
 62
   249
 10
357.5
 20
180.0
 30
0.0
 11
357.5
 21
162.5
 31
0.0
  0
LINE
  8
0
  6
CONTINUOUS
 62
   249
 10
355.0
 20
180.0
 30
0.0
 11
355.0
 21
162.5
 31
0.0
  0
LINE
  8
0
  6
CONTINUOUS
 62
   249
 10
347.5
 20
162.5
 30
0.0
 11
347.5
 21
180.0
 31
0.0
  0
LINE
  8
0
  6
CONTINUOUS
 62
   249
 10
377.5
 20
162.5
 30
0.0
 11
347.5
 21
162.5
 31
0.0
  0
LINE
  8
0
  6
CONTINUOUS
 62
   249
 10
377.5
 20
180.0
 30
0.0
 11
377.5
 21
162.5
 31
0.0
  0
LINE
  8
0
  6
CONTINUOUS
 62
   249
 10
347.5
 20
180.0
 30
0.0
 11
377.5
 21
180.0
 31
0.0
  0
LINE
  8
0
  6
CONTINUOUS
 62
   249
 10
375.0
 20
70.0
 30
0.0
 11
337.5
 21
70.0
 31
0.0
  0
TEXT
  8
0
  6
CONTINUOUS
 62
   249
 10
353.054115
 20
71.465356
 30
0.0
 40
2.0
  1
108:
  7
ROMANS
  0
TEXT
  8
0
  6
CONTINUOUS
 62
   249
 10
331.355986
 20
71.454336
 30
0.0
 40
2.0
  1
101:
  7
ROMANS
  0
TEXT
  8
0
  6
CONTINUOUS
 62
   249
 10
332.5
 20
60.5951
 30
0.0
 40
2.0
  1
4B
  7
ROMANS
  0
TEXT
  8
0
  6
CONTINUOUS
 62
   249
 10
345.0
 20
60.5951
 30
0.0
 40
2.0
  1
14
  7
ROMANS
  0
TEXT
  8
0
  6
CONTINUOUS
 62
   249
 10
365.0
 20
60.5951
 30
0.0
 40
2.0
  1
15
  7
ROMANS
  0
TEXT
  8
0
  6
CONTINUOUS
 62
   249
 10
243.17728
 20
154.767028
 30
0.0
 40
2.0
  1
30
  7
ROMANS
  0
TEXT
  8
0
  6
CONTINUOUS
 62
   249
 10
243.17728
 20
159.731377
 30
0.0
 40
2.0
  1
29
  7
ROMANS
  0
TEXT
  8
0
  6
CONTINUOUS
 62
   249
 10
243.17728
 20
164.816949
 30
0.0
 40
2.0
  1
28
  7
ROMANS
  0
TEXT
  8
0
  6
CONTINUOUS
 62
   249
 10
243.17728
 20
174.729444
 30
0.0
 40
2.0
  1
21
  7
ROMANS
  0
TEXT
  8
0
  6
CONTINUOUS
 62
   249
 10
243.17728
 20
179.682772
 30
0.0
 40
2.0
  1
20
  7
ROMANS
  0
TEXT
  8
0
  6
CONTINUOUS
 62
   249
 10
243.17728
 20
184.62508
 30
0.0
 40
2.0
  1
19
  7
ROMANS
  0
TEXT
  8
0
  6
CONTINUOUS
 62
   249
 10
243.17728
 20
194.846145
 30
0.0
 40
2.0
  1
18
  7
ROMANS
  0
TEXT
  8
0
  6
CONTINUOUS
 62
   249
 10
243.17728
 20
199.612127
 30
0.0
 40
2.0
  1
17
  7
ROMANS
  0
TEXT
  8
0
  6
CONTINUOUS
 62
   249
 10
243.17728
 20
204.807903
 30
0.0
 40
2.0
  1
16
  7
ROMANS
  0
TEXT
  8
0
  6
CONTINUOUS
 62
   249
 10
243.17728
 20
214.588154
 30
0.0
 40
2.0
  1
15
  7
ROMANS
  0
TEXT
  8
0
  6
CONTINUOUS
 62
   249
 10
243.17728
 20
219.640665
 30
0.0
 40
2.0
  1
14
  7
ROMANS
  0
TEXT
  8
0
  6
CONTINUOUS
 62
   249
 10
243.17728
 20
224.693176
 30
0.0
 40
2.0
  1
13
  7
ROMANS
  0
LINE
  8
0
 62
   249
 10
238.660985
 20
162.5
 30
0.0
 11
241.160985
 21
162.5
 31
0.0
  0
ARC
  8
0
 62
   249
 10
238.595136
 20
163.75
 30
0.0
 40
1.251733
 50
86.984476
 51
273.015524
  0
ARC
  8
0
 62
   249
 10
238.595136
 20
166.25
 30
0.0
 40
1.251733
 50
86.984476
 51
273.015524
  0
LINE
  8
0
 62
   249
 10
238.660985
 20
165.0
 30
0.0
 11
241.160985
 21
165.0
 31
0.0
  0
LINE
  8
0
 62
   249
 10
238.660985
 20
167.5
 30
0.0
 11
241.160985
 21
167.5
 31
0.0
  0
LINE
  8
0
 62
   249
 10
241.160985
 20
167.5
 30
0.0
 11
247.5
 21
167.5
 31
0.0
  0
LINE
  8
0
 62
   249
 10
241.160985
 20
162.5
 30
0.0
 11
247.5
 21
162.5
 31
0.0
  0
LINE
  8
0
 62
   249
 10
241.160985
 20
157.5
 30
0.0
 11
247.5
 21
157.5
 31
0.0
  0
LINE
  8
0
 62
   249
 10
242.5
 20
162.5
 30
0.0
 11
245.0
 21
162.5
 31
0.0
  0
LINE
  8
0
 62
   249
 10
238.660985
 20
162.5
 30
0.0
 11
241.160985
 21
162.5
 31
0.0
  0
LINE
  8
0
 62
   249
 10
238.660985
 20
160.0
 30
0.0
 11
241.160985
 21
160.0
 31
0.0
  0
ARC
  8
0
 62
   249
 10
238.595136
 20
161.25
 30
0.0
 40
1.251733
 50
86.984476
 51
273.015524
  0
ARC
  8
0
 62
   249
 10
238.595136
 20
158.75
 30
0.0
 40
1.251733
 50
86.984476
 51
273.015524
  0
LINE
  8
0
 62
   249
 10
238.660985
 20
157.5
 30
0.0
 11
241.160985
 21
157.5
 31
0.0
  0
ARC
  8
0
 62
   249
 10
233.726834
 20
163.75
 30
0.0
 40
1.251733
 50
266.984476
 51
93.015524
  0
LINE
  8
0
 62
   249
 10
233.660985
 20
165.0
 30
0.0
 11
232.141118
 21
165.0
 31
0.0
  0
LINE
  8
0
 62
   249
 10
233.660985
 20
162.5
 30
0.0
 11
232.141118
 21
162.5
 31
0.0
  0
ARC
  8
0
 62
   249
 10
233.726834
 20
161.25
 30
0.0
 40
1.251733
 50
266.984476
 51
93.015524
  0
LINE
  8
0
 62
   249
 10
233.660985
 20
160.0
 30
0.0
 11
232.141118
 21
160.0
 31
0.0
  0
LINE
  8
0
 62
   249
 10
238.660985
 20
182.5
 30
0.0
 11
241.160985
 21
182.5
 31
0.0
  0
ARC
  8
0
 62
   249
 10
238.595136
 20
183.75
 30
0.0
 40
1.251733
 50
86.984476
 51
273.015524
  0
ARC
  8
0
 62
   249
 10
238.595136
 20
186.25
 30
0.0
 40
1.251733
 50
86.984476
 51
273.015524
  0
LINE
  8
0
 62
   249
 10
238.660985
 20
185.0
 30
0.0
 11
241.160985
 21
185.0
 31
0.0
  0
LINE
  8
0
 62
   249
 10
238.660985
 20
187.5
 30
0.0
 11
241.160985
 21
187.5
 31
0.0
  0
LINE
  8
0
 62
   249
 10
241.160985
 20
187.5
 30
0.0
 11
247.5
 21
187.5
 31
0.0
  0
LINE
  8
0
 62
   249
 10
241.160985
 20
182.5
 30
0.0
 11
247.5
 21
182.5
 31
0.0
  0
LINE
  8
0
 62
   249
 10
241.160985
 20
177.5
 30
0.0
 11
247.5
 21
177.5
 31
0.0
  0
LINE
  8
0
 62
   249
 10
242.5
 20
182.5
 30
0.0
 11
245.0
 21
182.5
 31
0.0
  0
LINE
  8
0
 62
   249
 10
238.660985
 20
182.5
 30
0.0
 11
241.160985
 21
182.5
 31
0.0
  0
LINE
  8
0
 62
   249
 10
238.660985
 20
180.0
 30
0.0
 11
241.160985
 21
180.0
 31
0.0
  0
ARC
  8
0
 62
   249
 10
238.595136
 20
181.25
 30
0.0
 40
1.251733
 50
86.984476
 51
273.015524
  0
ARC
  8
0
 62
   249
 10
238.595136
 20
178.75
 30
0.0
 40
1.251733
 50
86.984476
 51
273.015524
  0
LINE
  8
0
 62
   249
 10
238.660985
 20
177.5
 30
0.0
 11
241.160985
 21
177.5
 31
0.0
  0
ARC
  8
0
 62
   249
 10
233.726834
 20
183.75
 30
0.0
 40
1.251733
 50
266.984476
 51
93.015524
  0
LINE
  8
0
 62
   249
 10
233.660985
 20
185.0
 30
0.0
 11
232.141118
 21
185.0
 31
0.0
  0
LINE
  8
0
 62
   249
 10
233.660985
 20
182.5
 30
0.0
 11
232.141118
 21
182.5
 31
0.0
  0
ARC
  8
0
 62
   249
 10
233.726834
 20
181.25
 30
0.0
 40
1.251733
 50
266.984476
 51
93.015524
  0
LINE
  8
0
 62
   249
 10
233.660985
 20
180.0
 30
0.0
 11
232.141118
 21
180.0
 31
0.0
  0
LINE
  8
0
 62
   249
 10
238.660985
 20
202.5
 30
0.0
 11
241.160985
 21
202.5
 31
0.0
  0
ARC
  8
0
 62
   249
 10
238.595136
 20
203.75
 30
0.0
 40
1.251733
 50
86.984476
 51
273.015524
  0
ARC
  8
0
 62
   249
 10
238.595136
 20
206.25
 30
0.0
 40
1.251733
 50
86.984476
 51
273.015524
  0
LINE
  8
0
 62
   249
 10
238.660985
 20
205.0
 30
0.0
 11
241.160985
 21
205.0
 31
0.0
  0
LINE
  8
0
 62
   249
 10
238.660985
 20
207.5
 30
0.0
 11
241.160985
 21
207.5
 31
0.0
  0
LINE
  8
0
 62
   249
 10
241.160985
 20
207.5
 30
0.0
 11
247.5
 21
207.5
 31
0.0
  0
LINE
  8
0
 62
   249
 10
241.160985
 20
202.5
 30
0.0
 11
247.5
 21
202.5
 31
0.0
  0
LINE
  8
0
 62
   249
 10
241.160985
 20
197.5
 30
0.0
 11
247.5
 21
197.5
 31
0.0
  0
LINE
  8
0
 62
   249
 10
242.5
 20
202.5
 30
0.0
 11
245.0
 21
202.5
 31
0.0
  0
LINE
  8
0
 62
   249
 10
238.660985
 20
202.5
 30
0.0
 11
241.160985
 21
202.5
 31
0.0
  0
LINE
  8
0
 62
   249
 10
238.660985
 20
200.0
 30
0.0
 11
241.160985
 21
200.0
 31
0.0
  0
ARC
  8
0
 62
   249
 10
238.595136
 20
201.25
 30
0.0
 40
1.251733
 50
86.984476
 51
273.015524
  0
ARC
  8
0
 62
   249
 10
238.595136
 20
198.75
 30
0.0
 40
1.251733
 50
86.984476
 51
273.015524
  0
LINE
  8
0
 62
   249
 10
238.660985
 20
197.5
 30
0.0
 11
241.160985
 21
197.5
 31
0.0
  0
ARC
  8
0
 62
   249
 10
233.726834
 20
203.75
 30
0.0
 40
1.251733
 50
266.984476
 51
93.015524
  0
LINE
  8
0
 62
   249
 10
233.660985
 20
205.0
 30
0.0
 11
232.141118
 21
205.0
 31
0.0
  0
LINE
  8
0
 62
   249
 10
233.660985
 20
202.5
 30
0.0
 11
232.141118
 21
202.5
 31
0.0
  0
ARC
  8
0
 62
   249
 10
233.726834
 20
201.25
 30
0.0
 40
1.251733
 50
266.984476
 51
93.015524
  0
LINE
  8
0
 62
   249
 10
233.660985
 20
200.0
 30
0.0
 11
232.141118
 21
200.0
 31
0.0
  0
LINE
  8
0
 62
   249
 10
238.660985
 20
222.5
 30
0.0
 11
241.160985
 21
222.5
 31
0.0
  0
ARC
  8
0
 62
   249
 10
238.595136
 20
223.75
 30
0.0
 40
1.251733
 50
86.984476
 51
273.015524
  0
ARC
  8
0
 62
   249
 10
238.595136
 20
226.25
 30
0.0
 40
1.251733
 50
86.984476
 51
273.015524
  0
LINE
  8
0
 62
   249
 10
238.660985
 20
225.0
 30
0.0
 11
241.160985
 21
225.0
 31
0.0
  0
LINE
  8
0
 62
   249
 10
238.660985
 20
227.5
 30
0.0
 11
247.5
 21
227.5
 31
0.0
  0
LINE
  8
0
 62
   249
 10
242.5
 20
227.5
 30
0.0
 11
245.0
 21
227.5
 31
0.0
  0
LINE
  8
0
 62
   249
 10
241.160985
 20
222.5
 30
0.0
 11
247.5
 21
222.5
 31
0.0
  0
LINE
  8
0
 62
   249
 10
241.160985
 20
217.5
 30
0.0
 11
247.5
 21
217.5
 31
0.0
  0
LINE
  8
0
 62
   249
 10
242.5
 20
222.5
 30
0.0
 11
245.0
 21
222.5
 31
0.0
  0
LINE
  8
0
 62
   249
 10
238.660985
 20
222.5
 30
0.0
 11
241.160985
 21
222.5
 31
0.0
  0
LINE
  8
0
 62
   249
 10
238.660985
 20
220.0
 30
0.0
 11
241.160985
 21
220.0
 31
0.0
  0
ARC
  8
0
 62
   249
 10
238.595136
 20
221.25
 30
0.0
 40
1.251733
 50
86.984476
 51
273.015524
  0
ARC
  8
0
 62
   249
 10
238.595136
 20
218.75
 30
0.0
 40
1.251733
 50
86.984476
 51
273.015524
  0
LINE
  8
0
 62
   249
 10
238.660985
 20
217.5
 30
0.0
 11
241.160985
 21
217.5
 31
0.0
  0
ARC
  8
0
 62
   249
 10
233.726834
 20
223.75
 30
0.0
 40
1.251733
 50
266.984476
 51
93.015524
  0
LINE
  8
0
 62
   249
 10
233.660985
 20
225.0
 30
0.0
 11
232.141118
 21
225.0
 31
0.0
  0
LINE
  8
0
 62
   249
 10
233.660985
 20
222.5
 30
0.0
 11
232.141118
 21
222.5
 31
0.0
  0
ARC
  8
0
 62
   249
 10
233.726834
 20
221.25
 30
0.0
 40
1.251733
 50
266.984476
 51
93.015524
  0
LINE
  8
0
 62
   249
 10
233.660985
 20
220.0
 30
0.0
 11
232.141118
 21
220.0
 31
0.0
  0
TEXT
  8
0
  6
CONTINUOUS
 62
   249
 10
237.922021
 20
92.5
 30
0.0
 40
2.0
  1
63
 50
90.0
  7
ROMANS
  0
TEXT
  8
0
  6
CONTINUOUS
 62
   249
 10
225.626417
 20
92.5
 30
0.0
 40
2.0
  1
62
 50
90.0
  7
ROMANS
  0
TEXT
  8
0
  6
CONTINUOUS
 62
   249
 10
220.467154
 20
92.5
 30
0.0
 40
2.0
  1
61
 50
90.0
  7
ROMANS
  0
TEXT
  8
0
  6
CONTINUOUS
 62
   249
 10
197.976777
 20
92.5
 30
0.0
 40
2.0
  1
66
 50
90.0
  7
ROMANS
  0
TEXT
  8
0
  6
CONTINUOUS
 62
   249
 10
192.83273
 20
92.5
 30
0.0
 40
2.0
  1
69
 50
90.0
  7
ROMANS
  0
TEXT
  8
0
  6
CONTINUOUS
 62
   249
 10
188.114733
 20
92.5
 30
0.0
 40
2.0
  1
75
 50
90.0
  7
ROMANS
  0
TEXT
  8
0
  6
CONTINUOUS
 62
   249
 10
182.818526
 20
92.5
 30
0.0
 40
2.0
  1
78
 50
90.0
  7
ROMANS
  0
TEXT
  8
0
  6
CONTINUOUS
 62
   249
 10
177.811424
 20
92.5
 30
0.0
 40
2.0
  1
81
 50
90.0
  7
ROMANS
  0
TEXT
  8
0
  6
CONTINUOUS
 62
   249
 10
172.956482
 20
92.5
 30
0.0
 40
2.0
  1
72
 50
90.0
  7
ROMANS
  0
LINE
  8
0
  6
CONTINUOUS
 62
   249
 10
67.798812
 20
240.0
 30
0.0
 11
55.0
 21
240.0
 31
0.0
  0
TEXT
  8
0
  6
CONTINUOUS
 62
   249
 10
57.5
 20
94.152356
 30
0.0
 40
2.0
  1
71
  7
ROMANS
  0
TEXT
  8
0
  6
CONTINUOUS
 62
   249
 10
57.5
 20
99.436295
 30
0.0
 40
2.0
  1
70
  7
ROMANS
  0
TEXT
  8
0
  6
CONTINUOUS
 62
   249
 10
57.5
 20
104.334521
 30
0.0
 40
2.0
  1
79
  7
ROMANS
  0
TEXT
  8
0
  6
CONTINUOUS
 62
   249
 10
57.5
 20
109.420093
 30
0.0
 40
2.0
  1
80
  7
ROMANS
  0
TEXT
  8
0
  6
CONTINUOUS
 62
   249
 10
57.5
 20
114.307299
 30
0.0
 40
2.0
  1
76
  7
ROMANS
  0
TEXT
  8
0
  6
CONTINUOUS
 62
   249
 10
57.5
 20
119.205525
 30
0.0
 40
2.0
  1
77
  7
ROMANS
  0
TEXT
  8
0
  6
CONTINUOUS
 62
   249
 10
57.5
 20
124.302118
 30
0.0
 40
2.0
  1
73
  7
ROMANS
  0
TEXT
  8
0
  6
CONTINUOUS
 62
   249
 10
57.5
 20
129.38769
 30
0.0
 40
2.0
  1
74
  7
ROMANS
  0
TEXT
  8
0
  6
CONTINUOUS
 62
   249
 10
57.5
 20
134.473263
 30
0.0
 40
2.0
  1
67
  7
ROMANS
  0
TEXT
  8
0
  6
CONTINUOUS
 62
   249
 10
57.5
 20
139.558835
 30
0.0
 40
2.0
  1
68
  7
ROMANS
  0
TEXT
  8
0
  6
CONTINUOUS
 62
   249
 10
57.5
 20
149.129699
 30
0.0
 40
2.0
  1
65
  7
ROMANS
  0
TEXT
  8
0
  6
CONTINUOUS
 62
   249
 10
57.5
 20
232.359326
 30
0.0
 40
2.0
  1
11
  7
ROMANS
  0
TEXT
  8
0
  6
CONTINUOUS
 62
   249
 10
57.5
 20
236.993063
 30
0.0
 40
2.0
  1
10
  7
ROMANS
  0
LINE
  8
0
  6
CONTINUOUS
 62
   249
 10
180.0
 20
122.5
 30
0.0
 11
180.0
 21
90.0
 31
0.0
  0
TEXT
  8
0
  6
CONTINUOUS
 62
   249
 10
56.354258
 20
186.039552
 30
0.0
 40
2.0
  1
RS 232
  7
ROMANS
  0
TEXT
  8
0
  6
CONTINUOUS
 62
   249
 10
57.936731
 20
191.543899
 30
0.0
 40
1.5
  1
9
  7
ROMANS
  0
LINE
  8
0
  6
CONTINUOUS
 62
   249
 10
57.242308
 20
189.25712
 30
0.0
 11
58.459015
 21
190.667057
 31
0.0
  0
LINE
  8
0
  6
CONTINUOUS
 62
   249
 10
222.5
 20
140.0
 30
0.0
 11
247.5
 21
140.0
 31
0.0
  0
LINE
  8
0
  6
CONTINUOUS
 62
   249
 10
222.5
 20
177.5
 30
0.0
 11
222.5
 21
140.0
 31
0.0
  0
LINE
  8
0
  6
CONTINUOUS
 62
   249
 10
215.450615
 20
177.5
 30
0.0
 11
222.5
 21
177.5
 31
0.0
  0
LINE
  8
0
  6
CONTINUOUS
 62
   249
 10
220.0
 20
165.0
 30
0.0
 11
172.5
 21
165.0
 31
0.0
  0
LINE
  8
0
  6
CONTINUOUS
 62
   249
 10
220.0
 20
187.5
 30
0.0
 11
220.0
 21
165.0
 31
0.0
  0
LINE
  8
0
  6
CONTINUOUS
 62
   249
 10
215.450615
 20
187.5
 30
0.0
 11
220.0
 21
187.5
 31
0.0
  0
LINE
  8
0
  6
CONTINUOUS
 62
   249
 10
215.450615
 20
190.0
 30
0.0
 11
225.0
 21
190.0
 31
0.0
  0
LINE
  8
0
  6
CONTINUOUS
 62
   249
 10
206.303941
 20
190.0
 30
0.0
 11
203.873605
 21
188.063198
 31
0.0
  0
LINE
  8
0
  6
CONTINUOUS
 62
   249
 10
206.303941
 20
190.0
 30
0.0
 11
203.873605
 21
191.936802
 31
0.0
  0
LINE
  8
0
  6
CONTINUOUS
 62
   249
 10
203.873605
 20
191.936802
 30
0.0
 11
194.189593
 21
191.936802
 31
0.0
  0
LINE
  8
0
  6
CONTINUOUS
 62
   249
 10
194.189593
 20
188.063198
 30
0.0
 11
203.873605
 21
188.063198
 31
0.0
  0
LINE
  8
0
  6
CONTINUOUS
 62
   249
 10
194.189593
 20
191.936802
 30
0.0
 11
194.189593
 21
188.063198
 31
0.0
  0
TEXT
  8
0
  6
CONTINUOUS
 62
   249
 10
209.86312
 20
195.0
 30
0.0
 40
2.5
  1
U3
  0
LINE
  8
0
  6
CONTINUOUS
 62
   249
 10
185.0
 20
190.0
 30
0.0
 11
55.0
 21
190.0
 31
0.0
  0
TEXT
  8
0
  6
HIDDEN
 62
   249
 10
206.197479
 20
207.865153
 30
0.0
 40
2.5
  1
3
  0
TEXT
  8
0
  6
HIDDEN
 62
   249
 10
226.390581
 20
135.257064
 30
0.0
 40
2.0
  1
SERIAL PORT
  7
ROMANS
  0
ARC
  8
0
  6
CONTINUOUS
 62
   249
 10
250.0
 20
140.0
 30
0.0
 40
2.5
 50
90.0
 51
270.0
  0
LINE
  8
0
  6
CONTINUOUS
 62
   249
 10
195.0
 20
90.0
 30
0.0
 11
195.0
 21
152.5
 31
0.0
  0
LINE
  8
0
  6
CONTINUOUS
 62
   249
 10
190.0
 20
90.0
 30
0.0
 11
190.0
 21
142.5
 31
0.0
  0
LINE
  8
0
  6
CONTINUOUS
 62
   249
 10
170.0
 20
90.0
 30
0.0
 11
170.0
 21
102.5
 31
0.0
  0
LINE
  8
0
  6
CONTINUOUS
 62
   249
 10
175.0
 20
90.0
 30
0.0
 11
175.0
 21
112.5
 31
0.0
  0
LINE
  8
0
  6
CONTINUOUS
 62
   249
 10
185.00793
 20
132.5
 30
0.0
 11
185.00793
 21
90.0
 31
0.0
  0
LINE
  8
0
  6
CONTINUOUS
 62
   249
 10
72.5
 20
142.5
 30
0.0
 11
55.0
 21
142.5
 31
0.0
  0
LINE
  8
0
  6
CONTINUOUS
 62
   249
 10
72.5
 20
152.5
 30
0.0
 11
55.0
 21
152.5
 31
0.0
  0
LINE
  8
0
  6
CONTINUOUS
 62
   249
 10
75.221556
 20
237.5
 30
0.0
 11
172.5
 21
237.5
 31
0.0
  0
LINE
  8
0
 62
   249
 10
75.221556
 20
233.4
 30
0.0
 11
75.221556
 21
241.589925
 31
0.0
  0
LINE
  8
0
 62
   249
 10
67.798812
 20
233.4
 30
0.0
 11
75.221556
 21
233.4
 31
0.0
  0
LINE
  8
0
 62
   249
 10
75.221556
 20
241.589925
 30
0.0
 11
67.798812
 21
241.589925
 31
0.0
  0
LINE
  8
0
 62
   249
 10
73.496971
 20
241.59384
 30
0.0
 11
71.642636
 21
239.315018
 31
0.0
  0
LINE
  8
0
 62
   249
 10
72.004853
 20
241.59384
 30
0.0
 11
70.09105
 21
239.315018
 31
0.0
  0
LINE
  8
0
 62
   249
 10
67.798812
 20
241.589925
 30
0.0
 11
67.798812
 21
233.4
 31
0.0
  0
LINE
  8
0
  6
CONTINUOUS
 62
   249
 10
67.798812
 20
235.0
 30
0.0
 11
63.098812
 21
235.0
 31
0.0
  0
LINE
  8
0
  6
CONTINUOUS
 62
   249
 10
65.0
 20
235.0
 30
0.0
 11
55.0
 21
235.0
 31
0.0
  0
LINE
  8
0
  6
CONTINUOUS
 62
   249
 10
230.0
 20
225.5
 30
0.0
 11
230.0
 21
179.5
 31
0.0
  0
LINE
  8
0
  6
CONTINUOUS
 62
   249
 10
230.0
 20
225.5
 30
0.0
 11
231.0
 21
226.5
 31
0.0
  0
LINE
  8
0
  6
CONTINUOUS
 62
   249
 10
230.0
 20
179.5
 30
0.0
 11
231.0
 21
178.5
 31
0.0
  0
TEXT
  8
0
  6
CONTINUOUS
 62
   249
 10
221.797086
 20
125.577719
 30
0.0
 40
2.0
  1
-
  0
TEXT
  8
0
  6
CONTINUOUS
 62
   249
 10
216.866734
 20
125.55315
 30
0.0
 40
2.0
  1
+
  0
LINE
  8
0
 62
   249
 10
215.295103
 20
119.752154
 30
0.0
 11
224.619756
 21
119.752154
 31
0.0
  0
LINE
  8
0
 62
   249
 10
224.619756
 20
119.752154
 30
0.0
 11
224.619756
 21
110.429605
 31
0.0
  0
LINE
  8
0
 62
   249
 10
224.619756
 20
110.429605
 30
0.0
 11
215.295103
 21
110.429605
 31
0.0
  0
LINE
  8
0
 62
   249
 10
215.295103
 20
110.429605
 30
0.0
 11
215.295103
 21
119.752154
 31
0.0
  0
LINE
  8
0
 62
   249
 10
216.279395
 20
110.429605
 30
0.0
 11
224.619756
 21
118.767352
 31
0.0
  0
LINE
  8
0
 62
   249
 10
215.295103
 20
111.386207
 30
0.0
 11
223.658613
 21
119.752154
 31
0.0
  0
LINE
  8
0
 62
   249
 10
216.209901
 20
117.674464
 30
0.0
 11
220.209901
 21
117.674464
 31
0.0
  0
LINE
  8
0
 62
   249
 10
219.966311
 20
112.72844
 30
0.0
 11
223.966311
 21
112.72844
 31
0.0
  0
LINE
  8
0
  6
CONTINUOUS
 62
   249
 10
217.5
 20
125.0
 30
0.0
 11
217.5
 21
119.752154
 31
0.0
  0
LINE
  8
0
  6
CONTINUOUS
 62
   249
 10
222.5
 20
125.0
 30
0.0
 11
222.5
 21
119.752154
 31
0.0
  0
LINE
  8
0
  6
CONTINUOUS
 62
   249
 10
217.5
 20
110.429605
 30
0.0
 11
217.5
 21
107.5
 31
0.0
  0
LINE
  8
0
  6
CONTINUOUS
 62
   249
 10
222.5
 20
110.429605
 30
0.0
 11
222.5
 21
107.5
 31
0.0
  0
LINE
  8
0
  6
CONTINUOUS
 62
   249
 10
215.450615
 20
210.0
 30
0.0
 11
220.0
 21
210.0
 31
0.0
  0
LINE
  8
0
  6
CONTINUOUS
 62
   249
 10
220.0
 20
192.5
 30
0.0
 11
220.0
 21
210.0
 31
0.0
  0
LINE
  8
0
  6
CONTINUOUS
 62
   249
 10
215.450615
 20
192.5
 30
0.0
 11
220.0
 21
192.5
 31
0.0
  0
LINE
  8
0
  6
CONTINUOUS
 62
   249
 10
225.0
 20
227.5
 30
0.0
 11
225.0
 21
162.5
 31
0.0
  0
LINE
  8
0
  6
CONTINUOUS
 62
   249
 10
215.450615
 20
227.5
 30
0.0
 11
225.0
 21
227.5
 31
0.0
  0
LINE
  8
0
  6
CONTINUOUS
 62
   249
 10
190.0
 20
142.5
 30
0.0
 11
107.5
 21
142.5
 31
0.0
  0
LINE
  8
0
  6
CONTINUOUS
 62
   249
 10
185.00793
 20
132.5
 30
0.0
 11
125.0
 21
132.5
 31
0.0
  0
LINE
  8
0
  6
CONTINUOUS
 62
   249
 10
165.0
 20
102.5
 30
0.0
 11
170.0
 21
102.5
 31
0.0
  0
LINE
  8
0
  6
CONTINUOUS
 62
   249
 10
155.0
 20
102.5
 30
0.0
 11
160.0
 21
102.5
 31
0.0
  0
LINE
  8
0
  6
CONTINUOUS
 62
   249
 10
165.0
 20
102.5
 30
0.0
 11
159.256076
 21
99.285297
 31
0.0
  0
LINE
  8
0
  6
CONTINUOUS
 62
   249
 10
160.0
 20
97.5
 30
0.0
 11
155.0
 21
97.5
 31
0.0
  0
LINE
  8
0
  6
CONTINUOUS
 62
   249
 10
160.0
 20
97.5
 30
0.0
 11
160.0
 21
100.0
 31
0.0
  0
LINE
  8
0
  6
CONTINUOUS
 62
   249
 10
152.5
 20
112.5
 30
0.0
 11
157.5
 21
112.5
 31
0.0
  0
LINE
  8
0
  6
CONTINUOUS
 62
   249
 10
142.5
 20
112.5
 30
0.0
 11
147.5
 21
112.5
 31
0.0
  0
LINE
  8
0
  6
CONTINUOUS
 62
   249
 10
152.5
 20
112.5
 30
0.0
 11
146.756076
 21
109.285297
 31
0.0
  0
LINE
  8
0
  6
CONTINUOUS
 62
   249
 10
147.5
 20
107.5
 30
0.0
 11
142.5
 21
107.5
 31
0.0
  0
LINE
  8
0
  6
CONTINUOUS
 62
   249
 10
147.5
 20
107.5
 30
0.0
 11
147.5
 21
110.0
 31
0.0
  0
LINE
  8
0
  6
CONTINUOUS
 62
   249
 10
137.5
 20
122.5
 30
0.0
 11
142.5
 21
122.5
 31
0.0
  0
LINE
  8
0
  6
CONTINUOUS
 62
   249
 10
127.5
 20
122.5
 30
0.0
 11
132.5
 21
122.5
 31
0.0
  0
LINE
  8
0
  6
CONTINUOUS
 62
   249
 10
137.5
 20
122.5
 30
0.0
 11
131.756076
 21
119.285297
 31
0.0
  0
LINE
  8
0
  6
CONTINUOUS
 62
   249
 10
132.5
 20
117.5
 30
0.0
 11
127.5
 21
117.5
 31
0.0
  0
LINE
  8
0
  6
CONTINUOUS
 62
   249
 10
132.5
 20
117.5
 30
0.0
 11
132.5
 21
120.0
 31
0.0
  0
LINE
  8
0
  6
CONTINUOUS
 62
   249
 10
120.0
 20
132.5
 30
0.0
 11
125.0
 21
132.5
 31
0.0
  0
LINE
  8
0
  6
CONTINUOUS
 62
   249
 10
55.0
 20
132.5
 30
0.0
 11
115.0
 21
132.5
 31
0.0
  0
LINE
  8
0
  6
CONTINUOUS
 62
   249
 10
120.0
 20
132.5
 30
0.0
 11
114.256076
 21
129.285297
 31
0.0
  0
LINE
  8
0
  6
CONTINUOUS
 62
   249
 10
115.0
 20
127.5
 30
0.0
 11
55.0
 21
127.5
 31
0.0
  0
LINE
  8
0
  6
CONTINUOUS
 62
   249
 10
115.0
 20
127.5
 30
0.0
 11
115.0
 21
130.0
 31
0.0
  0
LINE
  8
0
  6
CONTINUOUS
 62
   249
 10
102.5
 20
142.5
 30
0.0
 11
107.5
 21
142.5
 31
0.0
  0
LINE
  8
0
  6
CONTINUOUS
 62
   249
 10
72.5
 20
142.5
 30
0.0
 11
97.5
 21
142.5
 31
0.0
  0
LINE
  8
0
  6
CONTINUOUS
 62
   249
 10
102.5
 20
142.5
 30
0.0
 11
96.756076
 21
139.285297
 31
0.0
  0
LINE
  8
0
  6
CONTINUOUS
 62
   249
 10
97.5
 20
137.5
 30
0.0
 11
55.0
 21
137.5
 31
0.0
  0
LINE
  8
0
  6
CONTINUOUS
 62
   249
 10
97.5
 20
137.5
 30
0.0
 11
97.5
 21
140.0
 31
0.0
  0
LINE
  8
0
  6
CONTINUOUS
 62
   249
 10
182.999707
 20
225.51836
 30
0.0
 11
172.5
 21
225.51836
 31
0.0
  0
LINE
  8
0
  6
CONTINUOUS
 62
   249
 10
183.000093
 20
205.783996
 30
0.0
 11
172.5
 21
205.783996
 31
0.0
  0
LINE
  8
0
  6
CONTINUOUS
 62
   249
 10
172.5
 20
165.0
 30
0.0
 11
172.5
 21
237.5
 31
0.0
  0
LINE
  8
0
  6
CONTINUOUS
 62
   249
 10
182.999836
 20
233.014298
 30
0.0
 11
172.5
 21
233.014298
 31
0.0
  0
TEXT
  8
0
  6
CONTINUOUS
 62
   249
 10
138.19994
 20
175.0
 30
0.0
 40
2.0
  1
8
  7
ROMANS
  0
TEXT
  8
0
  6
CONTINUOUS
 62
   249
 10
120.69994
 20
175.0
 30
0.0
 40
2.0
  1
7
  7
ROMANS
  0
TEXT
  8
0
  6
CONTINUOUS
 62
   249
 10
105.69994
 20
175.0
 30
0.0
 40
2.0
  1
6
  7
ROMANS
  0
TEXT
  8
0
  6
CONTINUOUS
 62
   249
 10
95.69994
 20
175.0
 30
0.0
 40
2.0
  1
5
  7
ROMANS
  0
TEXT
  8
0
  6
CONTINUOUS
 62
   249
 10
88.19994
 20
175.0
 30
0.0
 40
2.0
  1
4
  7
ROMANS
  0
TEXT
  8
0
  6
CONTINUOUS
 62
   249
 10
83.19994
 20
175.0
 30
0.0
 40
2.0
  1
2
  7
ROMANS
  0
TEXT
  8
0
  6
CONTINUOUS
 62
   249
 10
78.19994
 20
175.0
 30
0.0
 40
2.0
  1
3
  7
ROMANS
  0
TEXT
  8
0
  6
CONTINUOUS
 62
   249
 10
73.19994
 20
175.0
 30
0.0
 40
2.0
  1
1
  7
ROMANS
  0
LINE
  8
0
  6
CONTINUOUS
 62
   249
 10
87.5
 20
177.5
 30
0.0
 11
87.5
 21
222.141632
 31
0.0
  0
LINE
  8
0
  6
CONTINUOUS
 62
   249
 10
185.0
 20
222.141632
 30
0.0
 11
87.5
 21
222.141632
 31
0.0
  0
LINE
  8
0
  6
CONTINUOUS
 62
   249
 10
77.5
 20
177.5
 30
0.0
 11
77.5
 21
229.753087
 31
0.0
  0
LINE
  8
0
  6
CONTINUOUS
 62
   249
 10
185.0
 20
229.753087
 30
0.0
 11
77.5
 21
229.753087
 31
0.0
  0
LINE
  8
0
  6
CONTINUOUS
 62
   249
 10
137.5
 20
210.0
 30
0.0
 11
137.5
 21
177.5
 31
0.0
  0
LINE
  8
0
  6
CONTINUOUS
 62
   249
 10
120.0
 20
217.630392
 30
0.0
 11
120.0
 21
177.5
 31
0.0
  0
LINE
  8
0
  6
CONTINUOUS
 62
   249
 10
105.0
 20
202.347111
 30
0.0
 11
105.0
 21
177.5
 31
0.0
  0
LINE
  8
0
  6
CONTINUOUS
 62
   249
 10
95.0
 20
214.092853
 30
0.0
 11
95.0
 21
177.5
 31
0.0
  0
LINE
  8
0
  6
CONTINUOUS
 62
   249
 10
82.5
 20
202.347111
 30
0.0
 11
82.5
 21
177.5
 31
0.0
  0
LINE
  8
0
  6
CONTINUOUS
 62
   249
 10
72.5
 20
214.092853
 30
0.0
 11
72.5
 21
177.5
 31
0.0
  0
LINE
  8
0
  6
CONTINUOUS
 62
   249
 10
185.0
 20
217.630392
 30
0.0
 11
120.0
 21
217.630392
 31
0.0
  0
LINE
  8
0
  6
CONTINUOUS
 62
   249
 10
185.0
 20
214.092853
 30
0.0
 11
72.5
 21
214.092853
 31
0.0
  0
LINE
  8
0
  6
CONTINUOUS
 62
   249
 10
185.0
 20
210.0
 30
0.0
 11
137.5
 21
210.0
 31
0.0
  0
LINE
  8
0
  6
CONTINUOUS
 62
   249
 10
185.0
 20
202.347111
 30
0.0
 11
82.5
 21
202.347111
 31
0.0
  0
LINE
  8
0
  6
CONTINUOUS
 62
   249
 10
120.0
 20
170.0
 30
0.0
 11
120.0
 21
172.5
 31
0.0
  0
LINE
  8
0
  6
CONTINUOUS
 62
   249
 10
120.0
 20
172.5
 30
0.0
 11
118.285914
 21
177.586297
 31
0.0
  0
LINE
  8
0
  6
CONTINUOUS
 62
   249
 10
137.5
 20
172.5
 30
0.0
 11
135.785914
 21
177.586297
 31
0.0
  0
LINE
  8
0
  6
CONTINUOUS
 62
   249
 10
137.5
 20
170.0
 30
0.0
 11
137.5
 21
172.5
 31
0.0
  0
LINE
  8
0
  6
CONTINUOUS
 62
   249
 10
130.0
 20
165.0
 30
0.0
 11
140.0
 21
165.0
 31
0.0
  0
LINE
  8
0
  6
CONTINUOUS
 62
   249
 10
130.0
 20
170.0
 30
0.0
 11
130.0
 21
165.0
 31
0.0
  0
LINE
  8
0
  6
CONTINUOUS
 62
   249
 10
140.0
 20
170.0
 30
0.0
 11
140.0
 21
165.0
 31
0.0
  0
LINE
  8
0
  6
CONTINUOUS
 62
   249
 10
140.0
 20
170.0
 30
0.0
 11
130.0
 21
170.0
 31
0.0
  0
LINE
  8
0
  6
CONTINUOUS
 62
   249
 10
134.385426
 20
167.789195
 30
0.0
 11
132.03966
 21
166.599276
 31
0.0
  0
LINE
  8
0
  6
CONTINUOUS
 62
   249
 10
132.031619
 20
165.799262
 30
0.0
 11
134.415079
 21
166.987454
 31
0.0
  0
LINE
  8
0
  6
CONTINUOUS
 62
   249
 10
132.03966
 20
169.124549
 30
0.0
 11
134.385426
 21
167.789195
 31
0.0
  0
TEXT
  8
0
  6
CONTINUOUS
 62
   249
 10
136.473522
 20
166.464455
 30
0.0
 40
2.5
  1
1
 11
136.473522
 21
165.631122
 31
0.0
 73
     1
  0
LINE
  8
0
  6
CONTINUOUS
 62
   249
 10
132.5
 20
170.0
 30
0.0
 11
132.5
 21
202.347111
 31
0.0
  0
LINE
  8
0
  6
CONTINUOUS
 62
   249
 10
115.0
 20
170.0
 30
0.0
 11
115.0
 21
214.092853
 31
0.0
  0
TEXT
  8
0
  6
CONTINUOUS
 62
   249
 10
118.973522
 20
166.464455
 30
0.0
 40
2.5
  1
1
 11
118.973522
 21
165.631122
 31
0.0
 73
     1
  0
LINE
  8
0
  6
CONTINUOUS
 62
   249
 10
114.53966
 20
169.124549
 30
0.0
 11
116.885426
 21
167.789195
 31
0.0
  0
LINE
  8
0
  6
CONTINUOUS
 62
   249
 10
114.531619
 20
165.799262
 30
0.0
 11
116.915079
 21
166.987454
 31
0.0
  0
LINE
  8
0
  6
CONTINUOUS
 62
   249
 10
116.885426
 20
167.789195
 30
0.0
 11
114.53966
 21
166.599276
 31
0.0
  0
LINE
  8
0
  6
CONTINUOUS
 62
   249
 10
122.5
 20
170.0
 30
0.0
 11
112.5
 21
170.0
 31
0.0
  0
LINE
  8
0
  6
CONTINUOUS
 62
   249
 10
122.5
 20
170.0
 30
0.0
 11
122.5
 21
165.0
 31
0.0
  0
LINE
  8
0
  6
CONTINUOUS
 62
   249
 10
112.5
 20
170.0
 30
0.0
 11
112.5
 21
165.0
 31
0.0
  0
LINE
  8
0
  6
CONTINUOUS
 62
   249
 10
112.5
 20
165.0
 30
0.0
 11
122.5
 21
165.0
 31
0.0
  0
LINE
  8
0
  6
CONTINUOUS
 62
   249
 10
92.5
 20
165.0
 30
0.0
 11
107.5
 21
165.0
 31
0.0
  0
LINE
  8
0
  6
CONTINUOUS
 62
   249
 10
92.5
 20
170.0
 30
0.0
 11
92.5
 21
165.0
 31
0.0
  0
LINE
  8
0
  6
CONTINUOUS
 62
   249
 10
107.5
 20
170.0
 30
0.0
 11
107.5
 21
165.0
 31
0.0
  0
LINE
  8
0
  6
CONTINUOUS
 62
   249
 10
107.5
 20
170.0
 30
0.0
 11
92.5
 21
170.0
 31
0.0
  0
LINE
  8
0
  6
CONTINUOUS
 62
   249
 10
99.385426
 20
167.789195
 30
0.0
 11
97.03966
 21
166.599276
 31
0.0
  0
LINE
  8
0
  6
CONTINUOUS
 62
   249
 10
97.031619
 20
165.799262
 30
0.0
 11
99.415079
 21
166.987454
 31
0.0
  0
LINE
  8
0
  6
CONTINUOUS
 62
   249
 10
97.03966
 20
169.124549
 30
0.0
 11
99.385426
 21
167.789195
 31
0.0
  0
TEXT
  8
0
  6
CONTINUOUS
 62
   249
 10
101.473522
 20
166.464455
 30
0.0
 40
2.5
  1
1
 11
101.473522
 21
165.631122
 31
0.0
 73
     1
  0
LINE
  8
0
  6
CONTINUOUS
 62
   249
 10
95.0
 20
172.5
 30
0.0
 11
93.285914
 21
177.586297
 31
0.0
  0
LINE
  8
0
  6
CONTINUOUS
 62
   249
 10
95.0
 20
170.0
 30
0.0
 11
95.0
 21
172.5
 31
0.0
  0
LINE
  8
0
  6
CONTINUOUS
 62
   249
 10
100.0
 20
170.0
 30
0.0
 11
100.0
 21
222.141632
 31
0.0
  0
LINE
  8
0
  6
CONTINUOUS
 62
   249
 10
105.0
 20
170.0
 30
0.0
 11
105.0
 21
172.5
 31
0.0
  0
LINE
  8
0
  6
CONTINUOUS
 62
   249
 10
105.0
 20
172.5
 30
0.0
 11
103.285914
 21
177.586297
 31
0.0
  0
LINE
  8
0
  6
CONTINUOUS
 62
   249
 10
82.5
 20
172.5
 30
0.0
 11
80.785914
 21
177.586297
 31
0.0
  0
LINE
  8
0
  6
CONTINUOUS
 62
   249
 10
82.5
 20
170.0
 30
0.0
 11
82.5
 21
172.5
 31
0.0
  0
LINE
  8
0
  6
CONTINUOUS
 62
   249
 10
87.5
 20
172.5
 30
0.0
 11
85.785914
 21
177.586297
 31
0.0
  0
LINE
  8
0
  6
CONTINUOUS
 62
   249
 10
87.5
 20
170.0
 30
0.0
 11
87.5
 21
172.5
 31
0.0
  0
LINE
  8
0
  6
CONTINUOUS
 62
   249
 10
77.5
 20
170.0
 30
0.0
 11
77.5
 21
172.5
 31
0.0
  0
LINE
  8
0
  6
CONTINUOUS
 62
   249
 10
77.5
 20
172.5
 30
0.0
 11
75.785914
 21
177.586297
 31
0.0
  0
LINE
  8
0
  6
CONTINUOUS
 62
   249
 10
72.5
 20
170.0
 30
0.0
 11
72.5
 21
172.5
 31
0.0
  0
LINE
  8
0
  6
CONTINUOUS
 62
   249
 10
72.5
 20
172.5
 30
0.0
 11
70.785914
 21
177.586297
 31
0.0
  0
TEXT
  8
0
  6
CONTINUOUS
 62
   249
 10
81.34723
 20
166.464455
 30
0.0
 40
2.5
  1
1
 11
81.34723
 21
165.631122
 31
0.0
 73
     1
  0
LINE
  8
0
  6
CONTINUOUS
 62
   249
 10
76.913369
 20
169.124549
 30
0.0
 11
79.259134
 21
167.789195
 31
0.0
  0
LINE
  8
0
  6
CONTINUOUS
 62
   249
 10
76.905327
 20
165.799262
 30
0.0
 11
79.288787
 21
166.987454
 31
0.0
  0
LINE
  8
0
  6
CONTINUOUS
 62
   249
 10
79.259134
 20
167.789195
 30
0.0
 11
76.913369
 21
166.599276
 31
0.0
  0
LINE
  8
0
  6
CONTINUOUS
 62
   249
 10
80.0
 20
165.0
 30
0.0
 11
80.0
 21
162.5
 31
0.0
  0
LINE
  8
0
  6
CONTINUOUS
 62
   249
 10
80.0
 20
165.0
 30
0.0
 11
80.0
 21
162.5
 31
0.0
  0
LINE
  8
0
  6
CONTINUOUS
 62
   249
 10
90.0
 20
170.0
 30
0.0
 11
70.0
 21
170.0
 31
0.0
  0
LINE
  8
0
  6
CONTINUOUS
 62
   249
 10
90.0
 20
170.0
 30
0.0
 11
90.0
 21
165.0
 31
0.0
  0
LINE
  8
0
  6
CONTINUOUS
 62
   249
 10
70.0
 20
170.0
 30
0.0
 11
70.0
 21
165.0
 31
0.0
  0
LINE
  8
0
  6
CONTINUOUS
 62
   249
 10
70.0
 20
165.0
 30
0.0
 11
90.0
 21
165.0
 31
0.0
  0
LINE
  8
0
  6
CONTINUOUS
 62
   249
 10
211.951847
 20
211.757946
 30
0.0
 11
214.297613
 21
210.422592
 31
0.0
  0
LINE
  8
0
  6
CONTINUOUS
 62
   249
 10
214.297613
 20
210.422592
 30
0.0
 11
211.951847
 21
209.232673
 31
0.0
  0
LINE
  8
0
  6
CONTINUOUS
 62
   249
 10
211.964216
 20
208.224456
 30
0.0
 11
214.309982
 21
209.414375
 31
0.0
  0
LINE
  8
0
  6
CONTINUOUS
 62
   249
 10
214.309982
 20
206.889102
 30
0.0
 11
211.964216
 21
208.224456
 31
0.0
  0
TEXT
  8
0
  6
DASHED
 62
   249
 10
208.786748
 20
207.879495
 30
0.0
 40
2.5
  1
U
  0
TEXT
  8
0
  6
DASHED
 62
   249
 10
186.298048
 20
200.998035
 30
0.0
 40
2.5
  1
U
  0
LINE
  8
0
  6
CONTINUOUS
 62
   249
 10
189.360108
 20
202.36796
 30
0.0
 11
191.705873
 21
203.557879
 31
0.0
  0
LINE
  8
0
  6
CONTINUOUS
 62
   249
 10
191.705873
 20
201.032606
 30
0.0
 11
189.360108
 21
202.36796
 31
0.0
  0
TEXT
  8
0
  6
DASHED
 62
   249
 10
186.298048
 20
208.635661
 30
0.0
 40
2.5
  1
U
  0
LINE
  8
0
  6
CONTINUOUS
 62
   249
 10
189.360108
 20
210.005586
 30
0.0
 11
191.705873
 21
211.195505
 31
0.0
  0
LINE
  8
0
  6
CONTINUOUS
 62
   249
 10
191.705873
 20
208.670232
 30
0.0
 11
189.360108
 21
210.005586
 31
0.0
  0
LINE
  8
0
  6
CONTINUOUS
 62
   249
 10
185.0
 20
207.5
 30
0.0
 11
205.0
 21
207.5
 31
0.0
  0
ARC
  8
0
  6
HIDDEN
 62
   249
 10
203.152505
 20
218.052922
 30
0.0
 40
4.998196
 50
206.402922
 51
282.21115
  0
LINE
  8
0
  6
CONTINUOUS
 62
   249
 10
204.241301
 20
214.969656
 30
0.0
 11
204.241301
 21
213.181525
 31
0.0
  0
LINE
  8
0
  6
CONTINUOUS
 62
   249
 10
201.287189
 20
216.32254
 30
0.0
 11
202.187866
 21
215.198791
 31
0.0
  0
LINE
  8
0
  6
CONTINUOUS
 62
   249
 10
198.841782
 20
212.956775
 30
0.0
 11
201.717892
 21
215.785333
 31
0.0
  0
LINE
  8
0
  6
CONTINUOUS
 62
   249
 10
196.457637
 20
214.124377
 30
0.0
 11
204.245842
 21
214.124377
 31
0.0
  0
LINE
  8
0
  6
CONTINUOUS
 62
   249
 10
196.426606
 20
214.969656
 30
0.0
 11
196.426606
 21
213.181525
 31
0.0
  0
LINE
  8
0
  6
CONTINUOUS
 62
   249
 10
189.347739
 20
215.444327
 30
0.0
 11
191.693505
 21
214.108973
 31
0.0
  0
LINE
  8
0
  6
CONTINUOUS
 62
   249
 10
191.693505
 20
214.108973
 30
0.0
 11
189.347739
 21
212.919054
 31
0.0
  0
LINE
  8
0
  6
CONTINUOUS
 62
   249
 10
189.347739
 20
218.981866
 30
0.0
 11
191.693505
 21
217.646513
 31
0.0
  0
LINE
  8
0
  6
CONTINUOUS
 62
   249
 10
191.693505
 20
217.646513
 30
0.0
 11
189.347739
 21
216.456593
 31
0.0
  0
TEXT
  8
0
  6
DASHED
 62
   249
 10
186.298048
 20
216.464207
 30
0.0
 40
2.5
  1
U
  0
TEXT
  8
0
  6
DASHED
 62
   249
 10
186.298048
 20
212.975623
 30
0.0
 40
2.5
  1
U
  0
LINE
  8
0
  6
CONTINUOUS
 62
   249
 10
193.164518
 20
223.516585
 30
0.0
 11
195.510283
 21
222.181231
 31
0.0
  0
LINE
  8
0
  6
CONTINUOUS
 62
   249
 10
193.947809
 20
222.181231
 30
0.0
 11
191.602044
 21
220.991312
 31
0.0
  0
LINE
  8
0
  6
CONTINUOUS
 62
   249
 10
191.602044
 20
223.516585
 30
0.0
 11
193.947809
 21
222.181231
 31
0.0
  0
LINE
  8
0
  6
CONTINUOUS
 62
   249
 10
195.510283
 20
222.181231
 30
0.0
 11
193.164518
 21
220.991312
 31
0.0
  0
LINE
  8
0
  6
CONTINUOUS
 62
   249
 10
203.967927
 20
222.639918
 30
0.0
 11
203.967927
 21
220.851787
 31
0.0
  0
LINE
  8
0
  6
CONTINUOUS
 62
   249
 10
200.990396
 20
223.992802
 30
0.0
 11
201.891073
 21
222.869053
 31
0.0
  0
LINE
  8
0
  6
CONTINUOUS
 62
   249
 10
198.568408
 20
220.627037
 30
0.0
 11
201.444519
 21
223.455596
 31
0.0
  0
LINE
  8
0
  6
CONTINUOUS
 62
   249
 10
196.184263
 20
221.79464
 30
0.0
 11
203.972468
 21
221.79464
 31
0.0
  0
LINE
  8
0
  6
CONTINUOUS
 62
   249
 10
196.153232
 20
222.639918
 30
0.0
 11
196.153232
 21
220.851787
 31
0.0
  0
LINE
  8
0
  6
CONTINUOUS
 62
   249
 10
196.153232
 20
230.133771
 30
0.0
 11
196.153232
 21
228.345639
 31
0.0
  0
LINE
  8
0
  6
CONTINUOUS
 62
   249
 10
196.184263
 20
229.288492
 30
0.0
 11
203.972468
 21
229.288492
 31
0.0
  0
LINE
  8
0
  6
CONTINUOUS
 62
   249
 10
198.568408
 20
228.12089
 30
0.0
 11
201.444519
 21
230.949448
 31
0.0
  0
LINE
  8
0
  6
CONTINUOUS
 62
   249
 10
200.990396
 20
231.486655
 30
0.0
 11
201.891073
 21
230.362906
 31
0.0
  0
LINE
  8
0
  6
CONTINUOUS
 62
   249
 10
203.967927
 20
230.133771
 30
0.0
 11
203.967927
 21
228.345639
 31
0.0
  0
CIRCLE
  8
0
  6
CONTINUOUS
 62
   249
 10
183.999701
 20
225.516691
 30
0.0
 40
1.0
  0
LINE
  8
0
  6
CONTINUOUS
 62
   249
 10
185.0
 20
220.0
 30
0.0
 11
215.450615
 21
220.0
 31
0.0
  0
LINE
  8
0
  6
CONTINUOUS
 62
   249
 10
196.426606
 20
203.210474
 30
0.0
 11
196.426606
 21
201.422343
 31
0.0
  0
LINE
  8
0
  6
CONTINUOUS
 62
   249
 10
196.457637
 20
202.365196
 30
0.0
 11
204.245842
 21
202.365196
 31
0.0
  0
LINE
  8
0
  6
CONTINUOUS
 62
   249
 10
198.841782
 20
201.197593
 30
0.0
 11
201.717892
 21
204.026152
 31
0.0
  0
LINE
  8
0
  6
CONTINUOUS
 62
   249
 10
201.287189
 20
204.563359
 30
0.0
 11
202.187866
 21
203.43961
 31
0.0
  0
LINE
  8
0
  6
CONTINUOUS
 62
   249
 10
204.241301
 20
203.210474
 30
0.0
 11
204.241301
 21
201.422343
 31
0.0
  0
LINE
  8
0
  6
CONTINUOUS
 62
   249
 10
195.0
 20
225.521206
 30
0.0
 11
197.5
 21
225.521206
 31
0.0
  0
LINE
  8
0
  6
CONTINUOUS
 62
   249
 10
195.0
 20
225.521206
 30
0.0
 11
192.775553
 21
224.960564
 31
0.0
  0
LINE
  8
0
  6
CONTINUOUS
 62
   249
 10
190.0
 20
225.521206
 30
0.0
 11
192.5
 21
225.521206
 31
0.0
  0
TEXT
  8
0
  6
CONTINUOUS
 62
   249
 10
185.906909
 20
224.763189
 30
0.0
 40
1.5
  1
EN
  0
TEXT
  8
0
  6
DASHED
 62
   249
 10
186.298048
 20
220.976412
 30
0.0
 40
2.5
  1
U
  0
TEXT
  8
0
  6
DASHED
 62
   249
 10
186.298048
 20
228.476412
 30
0.0
 40
2.5
  1
U
  0
TEXT
  8
0
  6
DASHED
 62
   249
 10
207.387534
 20
224.310712
 30
0.0
 40
2.5
  1
U
  0
LINE
  8
0
  6
CONTINUOUS
 62
   249
 10
77.5
 20
152.5
 30
0.0
 11
72.5
 21
152.5
 31
0.0
  0
TEXT
  8
0
  6
CONTINUOUS
 62
   249
 10
242.736358
 20
141.570297
 30
0.0
 40
2.0
  1
9
  7
ROMANS
  0
LINE
  8
0
  6
CONTINUOUS
 62
   249
 10
241.762992
 20
139.25712
 30
0.0
 11
242.979699
 21
140.667057
 31
0.0
  0
LINE
  8
0
  6
CONTINUOUS
 62
   249
 10
230.0
 20
210.0
 30
0.0
 11
220.0
 21
210.0
 31
0.0
  0
LINE
  8
0
  6
CONTINUOUS
 62
   249
 10
230.0
 20
162.5
 30
0.0
 11
225.0
 21
162.5
 31
0.0
  0
LINE
  8
0
  6
CONTINUOUS
 62
   249
 10
247.5
 20
200.0
 30
0.0
 11
247.5
 21
200.0
 31
0.0
  0
LINE
  8
0
  6
CENTER
 62
   249
 10
247.5
 20
242.5
 30
0.0
 11
247.5
 21
220.0
 31
0.0
  0
LINE
  8
0
  6
CONTINUOUS
 62
   249
 10
185.0
 20
192.5
 30
0.0
 11
185.0
 21
187.5
 31
0.0
  0
TEXT
  8
0
  6
CONTINUOUS
 62
   249
 10
63.413303
 20
175.010709
 30
0.0
 40
2.0
  1
SGR
  7
ROMANS
  0
LINE
  8
0
  6
DASHED
 62
   249
 10
80.0
 20
162.5
 30
0.0
 11
80.0
 21
151.100824
 31
0.0
  0
LINE
  8
0
  6
DASHED
 62
   249
 10
100.0
 20
162.5
 30
0.0
 11
100.0
 21
141.100824
 31
0.0
  0
LINE
  8
0
  6
DASHED
 62
   249
 10
117.5
 20
162.5
 30
0.0
 11
117.5
 21
131.100824
 31
0.0
  0
LINE
  8
0
  6
DASHED
 62
   249
 10
135.0
 20
162.5
 30
0.0
 11
135.0
 21
121.100824
 31
0.0
  0
LINE
  8
0
  6
DASHED
 62
   249
 10
150.0
 20
162.5
 30
0.0
 11
150.0
 21
111.100824
 31
0.0
  0
LINE
  8
0
  6
DASHED
 62
   249
 10
162.5
 20
157.5
 30
0.0
 11
162.5
 21
101.100824
 31
0.0
  0
LINE
  8
0
  6
CONTINUOUS
 62
   249
 10
162.5
 20
172.495289
 30
0.0
 11
162.5
 21
157.5
 31
0.0
  0
LINE
  8
0
  6
CONTINUOUS
 62
   249
 10
183.01266
 20
172.495289
 30
0.0
 11
162.5
 21
172.495289
 31
0.0
  0
LINE
  8
0
  6
CONTINUOUS
 62
   249
 10
155.0
 20
97.5
 30
0.0
 11
55.0
 21
97.5
 31
0.0
  0
LINE
  8
0
  6
CONTINUOUS
 62
   249
 10
155.0
 20
102.5
 30
0.0
 11
55.0
 21
102.5
 31
0.0
  0
LINE
  8
0
  6
CONTINUOUS
 62
   249
 10
142.5
 20
107.5
 30
0.0
 11
55.0
 21
107.5
 31
0.0
  0
LINE
  8
0
  6
CONTINUOUS
 62
   249
 10
142.5
 20
112.5
 30
0.0
 11
55.0
 21
112.5
 31
0.0
  0
LINE
  8
0
  6
CONTINUOUS
 62
   249
 10
127.5
 20
117.5
 30
0.0
 11
55.0
 21
117.5
 31
0.0
  0
LINE
  8
0
  6
CONTINUOUS
 62
   249
 10
127.5
 20
122.5
 30
0.0
 11
55.0
 21
122.5
 31
0.0
  0
LINE
  8
0
  6
CONTINUOUS
 62
   249
 10
157.5
 20
112.5
 30
0.0
 11
175.0
 21
112.5
 31
0.0
  0
LINE
  8
0
  6
CONTINUOUS
 62
   249
 10
87.5
 20
152.5
 30
0.0
 11
195.0
 21
152.5
 31
0.0
  0
LINE
  8
0
  6
CONTINUOUS
 62
   249
 10
142.5
 20
122.5
 30
0.0
 11
180.0
 21
122.5
 31
0.0
  0
LINE
  8
0
  6
CONTINUOUS
 62
   249
 10
100.0
 20
165.0
 30
0.0
 11
100.0
 21
162.5
 31
0.0
  0
LINE
  8
0
  6
CONTINUOUS
 62
   249
 10
117.5
 20
165.0
 30
0.0
 11
117.5
 21
162.5
 31
0.0
  0
LINE
  8
0
  6
CONTINUOUS
 62
   249
 10
135.0
 20
165.0
 30
0.0
 11
135.0
 21
162.5
 31
0.0
  0
LINE
  8
0
  6
CONTINUOUS
 62
   249
 10
150.0
 20
229.753087
 30
0.0
 11
150.0
 21
162.5
 31
0.0
  0
LINE
  8
0
  6
CONTINUOUS
 62
   249
 10
195.0
 20
205.788594
 30
0.0
 11
197.5
 21
205.788594
 31
0.0
  0
LINE
  8
0
  6
CONTINUOUS
 62
   249
 10
195.0
 20
205.788594
 30
0.0
 11
192.775553
 21
205.227951
 31
0.0
  0
LINE
  8
0
  6
CONTINUOUS
 62
   249
 10
190.0
 20
205.788594
 30
0.0
 11
192.5
 21
205.788594
 31
0.0
  0
TEXT
  8
0
  6
CONTINUOUS
 62
   249
 10
185.906909
 20
205.030577
 30
0.0
 40
1.5
  1
EN
  0
CIRCLE
  8
0
  6
CONTINUOUS
 62
   249
 10
184.000093
 20
205.784079
 30
0.0
 40
1.0
  0
LINE
  8
0
  6
CONTINUOUS
 62
   249
 10
205.0
 20
210.0
 30
0.0
 11
205.0
 21
235.0
 31
0.0
  0
LINE
  8
0
  6
CONTINUOUS
 62
   249
 10
185.0
 20
235.0
 30
0.0
 11
215.450615
 21
235.0
 31
0.0
  0
LINE
  8
0
  6
CONTINUOUS
 62
   249
 10
185.0
 20
230.0
 30
0.0
 11
185.0
 21
235.0
 31
0.0
  0
LINE
  8
0
  6
CONTINUOUS
 62
   249
 10
185.0
 20
227.5
 30
0.0
 11
205.0
 21
227.5
 31
0.0
  0
CIRCLE
  8
0
  6
CONTINUOUS
 62
   249
 10
183.999833
 20
233.016691
 30
0.0
 40
1.0
  0
TEXT
  8
0
  6
CONTINUOUS
 62
   249
 10
185.906909
 20
232.263189
 30
0.0
 40
1.5
  1
EN
  0
LINE
  8
0
  6
CONTINUOUS
 62
   249
 10
190.0
 20
233.021206
 30
0.0
 11
192.5
 21
233.021206
 31
0.0
  0
LINE
  8
0
  6
CONTINUOUS
 62
   249
 10
195.0
 20
233.021206
 30
0.0
 11
192.775553
 21
232.460564
 31
0.0
  0
LINE
  8
0
  6
CONTINUOUS
 62
   249
 10
195.0
 20
233.021206
 30
0.0
 11
197.5
 21
233.021206
 31
0.0
  0
LINE
  8
0
  6
CONTINUOUS
 62
   249
 10
185.0
 20
212.5
 30
0.0
 11
205.0
 21
212.5
 31
0.0
  0
TEXT
  8
0
  6
CONTINUOUS
 62
   249
 10
209.847994
 20
215.149643
 30
0.0
 40
2.5
  1
U2
  7
ROMANS
  0
LINE
  8
0
  6
CONTINUOUS
 62
   249
 10
205.0
 20
210.0
 30
0.0
 11
205.0
 21
200.0
 31
0.0
  0
LINE
  8
0
  6
CONTINUOUS
 62
   249
 10
205.0
 20
200.0
 30
0.0
 11
215.450615
 21
200.0
 31
0.0
  0
LINE
  8
0
  6
CONTINUOUS
 62
   249
 10
185.0
 20
200.0
 30
0.0
 11
205.0
 21
200.0
 31
0.0
  0
TEXT
  8
0
  6
CONTINUOUS
 62
   249
 10
209.847994
 20
230.823751
 30
0.0
 40
2.5
  1
U1
  7
ROMANS
  0
TEXT
  8
0
  6
CONTINUOUS
 62
   249
 10
196.990407
 20
176.066424
 30
0.0
 40
2.5
  1
I/O
  0
LINE
  8
0
  6
CENTER
 62
   249
 10
247.5
 20
250.0
 30
0.0
 11
55.0
 21
250.0
 31
0.0
  0
LINE
  8
0
  6
CENTER
 62
   249
 10
247.5
 20
242.5
 30
0.0
 11
247.5
 21
250.0
 31
0.0
  0
LINE
  8
0
  6
CENTER
 62
   249
 10
55.0
 20
90.0
 30
0.0
 11
247.5
 21
90.0
 31
0.0
  0
TEXT
  8
0
  6
DASHED
 62
   249
 10
158.566284
 20
103.236332
 30
0.0
 40
2.0
  1
F
  7
ROMANS
  0
TEXT
  8
0
  6
DASHED
 62
   249
 10
143.171573
 20
113.364654
 30
0.0
 40
2.0
  1
E
  7
ROMANS
  0
TEXT
  8
0
  6
DASHED
 62
   249
 10
128.484014
 20
123.255752
 30
0.0
 40
2.0
  1
D
  7
ROMANS
  0
TEXT
  8
0
  6
DASHED
 62
   249
 10
111.055109
 20
133.134364
 30
0.0
 40
2.0
  1
C
  7
ROMANS
  0
TEXT
  8
0
  6
DASHED
 62
   249
 10
94.143373
 20
143.774588
 30
0.0
 40
2.0
  1
B
  7
ROMANS
  0
TEXT
  8
0
  6
DASHED
 62
   249
 10
75.697373
 20
153.403492
 30
0.0
 40
2.0
  1
A
  7
ROMANS
  0
LINE
  8
0
  6
CONTINUOUS
 62
   249
 10
82.5
 20
152.5
 30
0.0
 11
76.756076
 21
149.285297
 31
0.0
  0
LINE
  8
0
  6
CONTINUOUS
 62
   249
 10
82.5
 20
152.5
 30
0.0
 11
87.5
 21
152.5
 31
0.0
  0
LINE
  8
0
  6
CENTER
 62
   249
 10
55.0
 20
250.0
 30
0.0
 11
55.0
 21
90.0
 31
0.0
  0
LINE
  8
0
  6
CONTINUOUS
 62
   249
 10
185.0
 20
210.0
 30
0.0
 11
185.0
 21
170.0
 31
0.0
  0
LINE
  8
0
  6
CONTINUOUS
 62
   249
 10
185.0
 20
225.0
 30
0.0
 11
185.0
 21
230.0
 31
0.0
  0
LINE
  8
0
  6
CONTINUOUS
 62
   249
 10
185.0
 20
225.0
 30
0.0
 11
185.0
 21
210.0
 31
0.0
  0
LINE
  8
0
  6
CONTINUOUS
 62
   249
 10
191.911542
 20
231.115295
 30
0.0
 11
194.257307
 21
229.779942
 31
0.0
  0
LINE
  8
0
  6
CONTINUOUS
 62
   249
 10
194.257307
 20
229.779942
 30
0.0
 11
191.911542
 21
228.590023
 31
0.0
  0
CIRCLE
  8
0
  6
CONTINUOUS
 62
   249
 10
184.012659
 20
172.498324
 30
0.0
 40
1.0
  0
LINE
  8
0
  6
CONTINUOUS
 62
   249
 10
185.0
 20
180.0
 30
0.0
 11
215.450615
 21
180.0
 31
0.0
  0
LINE
  8
0
  6
CONTINUOUS
 62
   249
 10
215.450615
 20
235.0
 30
0.0
 11
215.450615
 21
212.18832
 31
0.0
  0
LINE
  8
0
  6
CONTINUOUS
 62
   249
 10
215.450615
 20
212.209828
 30
0.0
 11
215.450615
 21
170.0
 31
0.0
  0
LINE
  8
0
  6
CONTINUOUS
 62
   249
 10
215.450615
 20
170.0
 30
0.0
 11
185.0
 21
170.0
 31
0.0
  0
TEXT
  8
0
  6
CONTINUOUS
 62
   249
 10
196.908766
 20
171.295815
 30
0.0
 40
2.5
  1
IRF
 11
196.908766
 21
170.462481
 31
0.0
 73
     1
  0
LINE
  8
0
  6
CONTINUOUS
 62
   249
 10
185.0
 20
175.232891
 30
0.0
 11
215.450615
 21
175.232891
 31
0.0
  0
LINE
  8
0
  6
CONTINUOUS
 62
   249
 10
217.5
 20
107.5
 30
0.0
 11
217.5
 21
90.0
 31
0.0
  0
LINE
  8
0
  6
CONTINUOUS
 62
   249
 10
222.5
 20
107.5
 30
0.0
 11
222.5
 21
90.0
 31
0.0
  0
LINE
  8
0
  6
CONTINUOUS
 62
   249
 10
235.0
 20
105.0
 30
0.0
 11
235.0
 21
90.0
 31
0.0
  0
LINE
  8
0
  6
CONTINUOUS
 62
   249
 10
240.0
 20
105.0
 30
0.0
 11
242.5
 21
107.5
 31
0.0
  0
LINE
  8
0
  6
CONTINUOUS
 62
   249
 10
235.0
 20
105.0
 30
0.0
 11
237.5
 21
107.5
 31
0.0
  0
LINE
  8
0
  6
CONTINUOUS
 62
   249
 10
230.0
 20
105.0
 30
0.0
 11
232.5
 21
107.5
 31
0.0
  0
LINE
  8
0
  6
CONTINUOUS
 62
   249
 10
230.0
 20
105.0
 30
0.0
 11
240.0
 21
105.0
 31
0.0
  0
LINE
  8
0
  6
CENTER
 62
   249
 10
247.5
 20
112.5
 30
0.0
 11
247.5
 21
90.0
 31
0.0
  0
LINE
  8
0
  6
CENTER
 62
   249
 10
247.5
 20
220.0
 30
0.0
 11
247.5
 21
112.5
 31
0.0
  0
LINE
  8
0
  6
CONTINUOUS
 62
   249
 10
37.5
 20
240.0
 30
0.0
 11
35.0
 21
240.0
 31
0.0
  0
TEXT
  8
0
  6
CONTINUOUS
 62
   249
 10
55.99058
 20
250.716457
 30
0.0
 40
2.0
  1
108
  7
ROMANS
  0
TEXT
  8
0
  6
CONTINUOUS
 62
   249
 10
173.519596
 20
74.287845
 30
0.0
 40
2.0
  1
101
 50
90.0
  7
ROMANS
  0
TEXT
  8
0
  6
CONTINUOUS
 62
   249
 10
193.519596
 20
74.287845
 30
0.0
 40
2.0
  1
101
 50
90.0
  7
ROMANS
  0
LINE
  8
0
  6
CONTINUOUS
 62
   249
 10
247.5
 20
180.0
 30
0.0
 11
247.5
 21
180.0
 31
0.0
  0
LINE
  8
0
  6
CONTINUOUS
 62
   249
 10
253.5
 20
183.007073
 30
0.0
 11
252.5
 21
184.007073
 31
0.0
  0
LINE
  8
0
  6
DASHED
 62
   249
 10
253.5
 20
182.5
 30
0.0
 11
253.5
 21
183.007073
 31
0.0
  0
LINE
  8
0
  6
CONTINUOUS
 62
   249
 10
253.5
 20
182.5
 30
0.0
 11
253.5
 21
177.0
 31
0.0
  0
LINE
  8
0
  6
CONTINUOUS
 62
   249
 10
253.5
 20
177.0
 30
0.0
 11
252.5
 21
176.0
 31
0.0
  0
CIRCLE
  8
0
  6
CONTINUOUS
 62
   249
 10
275.0
 20
177.5
 30
0.0
 40
0.7405
  0
CIRCLE
  8
0
  6
CONTINUOUS
 62
   249
 10
275.0
 20
187.5
 30
0.0
 40
0.7405
  0
LINE
  8
0
 62
   249
 10
267.5
 20
187.5
 30
0.0
 11
270.0
 21
187.5
 31
0.0
  0
LINE
  8
0
 62
   249
 10
262.5
 20
187.5
 30
0.0
 11
267.5
 21
187.5
 31
0.0
  0
LINE
  8
0
  6
CONTINUOUS
 62
   249
 10
247.5
 20
187.5
 30
0.0
 11
262.5
 21
187.5
 31
0.0
  0
LINE
  8
0
  6
CONTINUOUS
 62
   249
 10
275.7405
 20
187.5
 30
0.0
 11
280.0
 21
187.5
 31
0.0
  0
LINE
  8
0
  6
CONTINUOUS
 62
   249
 10
275.7405
 20
177.5
 30
0.0
 11
280.0
 21
177.5
 31
0.0
  0
LINE
  8
0
  6
CONTINUOUS
 62
   249
 10
253.5
 20
177.5
 30
0.0
 11
262.5
 21
177.5
 31
0.0
  0
LINE
  8
0
 62
   249
 10
262.5
 20
177.5
 30
0.0
 11
267.5
 21
177.5
 31
0.0
  0
LINE
  8
0
 62
   249
 10
267.5
 20
177.5
 30
0.0
 11
270.0
 21
177.5
 31
0.0
  0
LINE
  8
0
  6
CONTINUOUS
 62
   249
 10
247.5
 20
182.5
 30
0.0
 11
251.766471
 21
182.5
 31
0.0
  0
LINE
  8
0
  6
CONTINUOUS
 62
   249
 10
247.5
 20
177.5
 30
0.0
 11
251.766471
 21
177.5
 31
0.0
  0
LINE
  8
0
  6
CONTINUOUS
 62
   249
 10
247.5
 20
157.5
 30
0.0
 11
251.766471
 21
157.5
 31
0.0
  0
LINE
  8
0
  6
CONTINUOUS
 62
   249
 10
247.5
 20
162.5
 30
0.0
 11
251.766471
 21
162.5
 31
0.0
  0
LINE
  8
0
 62
   249
 10
267.5
 20
157.5
 30
0.0
 11
270.0
 21
157.5
 31
0.0
  0
LINE
  8
0
 62
   249
 10
262.5
 20
157.5
 30
0.0
 11
267.5
 21
157.5
 31
0.0
  0
LINE
  8
0
  6
CONTINUOUS
 62
   249
 10
253.5
 20
157.5
 30
0.0
 11
262.5
 21
157.5
 31
0.0
  0
LINE
  8
0
  6
CONTINUOUS
 62
   249
 10
275.7405
 20
157.5
 30
0.0
 11
280.0
 21
157.5
 31
0.0
  0
LINE
  8
0
  6
CONTINUOUS
 62
   249
 10
275.7405
 20
167.5
 30
0.0
 11
280.0
 21
167.5
 31
0.0
  0
LINE
  8
0
  6
CONTINUOUS
 62
   249
 10
247.5
 20
167.5
 30
0.0
 11
262.5
 21
167.5
 31
0.0
  0
LINE
  8
0
 62
   249
 10
262.5
 20
167.5
 30
0.0
 11
267.5
 21
167.5
 31
0.0
  0
LINE
  8
0
 62
   249
 10
267.5
 20
167.5
 30
0.0
 11
270.0
 21
167.5
 31
0.0
  0
CIRCLE
  8
0
  6
CONTINUOUS
 62
   249
 10
275.0
 20
167.5
 30
0.0
 40
0.7405
  0
CIRCLE
  8
0
  6
CONTINUOUS
 62
   249
 10
275.0
 20
157.5
 30
0.0
 40
0.7405
  0
LINE
  8
0
  6
CONTINUOUS
 62
   249
 10
253.5
 20
157.0
 30
0.0
 11
252.5
 21
156.0
 31
0.0
  0
LINE
  8
0
  6
CONTINUOUS
 62
   249
 10
253.5
 20
162.5
 30
0.0
 11
253.5
 21
157.0
 31
0.0
  0
LINE
  8
0
  6
DASHED
 62
   249
 10
253.5
 20
162.5
 30
0.0
 11
253.5
 21
163.007073
 31
0.0
  0
LINE
  8
0
  6
CONTINUOUS
 62
   249
 10
253.5
 20
163.007073
 30
0.0
 11
252.5
 21
164.007073
 31
0.0
  0
LINE
  8
0
  6
CONTINUOUS
 62
   249
 10
247.5
 20
160.0
 30
0.0
 11
247.5
 21
160.0
 31
0.0
  0
TEXT
  8
0
  6
CONTINUOUS
 62
   249
 10
254.666947
 20
218.599611
 30
0.0
 40
2.0
  1
7)
  7
ROMANS
  0
TEXT
  8
0
  6
CONTINUOUS
 62
   249
 10
254.666947
 20
198.599611
 30
0.0
 40
2.0
  1
7)
  7
ROMANS
  0
TEXT
  8
0
  6
CONTINUOUS
 62
   249
 10
254.666947
 20
178.599611
 30
0.0
 40
2.0
  1
7)
  7
ROMANS
  0
TEXT
  8
0
  6
CONTINUOUS
 62
   249
 10
254.666947
 20
158.599611
 30
0.0
 40
2.0
  1
7)
  7
ROMANS
  0
TEXT
  8
0
  6
CONTINUOUS
 62
   249
 10
257.736032
 20
224.09633
 30
0.0
 40
2.5
  1
U
  7
ROMANS
  0
TEXT
  8
0
  6
CONTINUOUS
 62
   249
 10
257.736032
 20
214.09633
 30
0.0
 40
2.5
  1
U
  7
ROMANS
  0
TEXT
  8
0
  6
CONTINUOUS
 62
   249
 10
257.736032
 20
204.09633
 30
0.0
 40
2.5
  1
U
  7
ROMANS
  0
TEXT
  8
0
  6
CONTINUOUS
 62
   249
 10
257.736032
 20
194.09633
 30
0.0
 40
2.5
  1
U
  7
ROMANS
  0
TEXT
  8
0
  6
CONTINUOUS
 62
   249
 10
257.736032
 20
184.09633
 30
0.0
 40
2.5
  1
U
  0
TEXT
  8
0
  6
CONTINUOUS
 62
   249
 10
257.736032
 20
174.09633
 30
0.0
 40
2.5
  1
U
  7
ROMANS
  0
TEXT
  8
0
  6
CONTINUOUS
 62
   249
 10
257.736032
 20
164.063268
 30
0.0
 40
2.5
  1
NU
  7
ROMANS
  0
TEXT
  8
0
  6
CONTINUOUS
 62
   249
 10
257.736032
 20
154.063268
 30
0.0
 40
2.5
  1
NU
  7
ROMANS
  0
TEXT
  8
0
  6
CONTINUOUS
 62
   249
 10
260.669507
 20
223.688576
 30
0.0
 40
2.0
  1
1
  7
ROMANS
  0
TEXT
  8
0
  6
CONTINUOUS
 62
   249
 10
260.669507
 20
213.688576
 30
0.0
 40
2.0
  1
1
  7
ROMANS
  0
TEXT
  8
0
  6
CONTINUOUS
 62
   249
 10
260.669507
 20
203.743678
 30
0.0
 40
2.0
  1
2
  7
ROMANS
  0
TEXT
  8
0
  6
CONTINUOUS
 62
   249
 10
260.669507
 20
193.743678
 30
0.0
 40
2.0
  1
2
  0
TEXT
  8
0
  6
CONTINUOUS
 62
   249
 10
260.669507
 20
183.556331
 30
0.0
 40
2.0
  1
3
  7
ROMANS
  0
TEXT
  8
0
  6
CONTINUOUS
 62
   249
 10
260.669507
 20
173.556331
 30
0.0
 40
2.0
  1
3
  7
ROMANS
  0
TEXT
  8
0
  6
CONTINUOUS
 62
   249
 10
266.778946
 20
224.098776
 30
0.0
 40
2.0
  1
3B
  7
ROMANS
  0
TEXT
  8
0
  6
CONTINUOUS
 62
   249
 10
266.778946
 20
214.076077
 30
0.0
 40
2.0
  1
4B
  7
ROMANS
  0
TEXT
  8
0
  6
CONTINUOUS
 62
   249
 10
266.778946
 20
204.09746
 30
0.0
 40
2.0
  1
5B
  7
ROMANS
  0
TEXT
  8
0
  6
CONTINUOUS
 62
   249
 10
266.778946
 20
194.129863
 30
0.0
 40
2.0
  1
6B
  7
ROMANS
  0
TEXT
  8
0
  6
CONTINUOUS
 62
   249
 10
266.778946
 20
184.096144
 30
0.0
 40
2.0
  1
7B
  7
ROMANS
  0
TEXT
  8
0
  6
CONTINUOUS
 62
   249
 10
266.778946
 20
174.106506
 30
0.0
 40
2.0
  1
8B
  7
ROMANS
  0
TEXT
  8
0
  6
CONTINUOUS
 62
   249
 10
266.778946
 20
164.039726
 30
0.0
 40
2.0
  1
9B
  7
ROMANS
  0
TEXT
  8
0
  6
CONTINUOUS
 62
   249
 10
265.439931
 20
154.050088
 30
0.0
 40
2.0
  1
10B
  7
ROMANS
  0
TEXT
  8
0
  6
CONTINUOUS
 62
   249
 10
275.573839
 20
224.109797
 30
0.0
 40
2.0
  1
3A
  7
ROMANS
  0
TEXT
  8
0
  6
CONTINUOUS
 62
   249
 10
275.573839
 20
214.087098
 30
0.0
 40
2.0
  1
4A
  7
ROMANS
  0
TEXT
  8
0
  6
CONTINUOUS
 62
   249
 10
275.573839
 20
204.08644
 30
0.0
 40
2.0
  1
5A
  7
ROMANS
  0
TEXT
  8
0
  6
CONTINUOUS
 62
   249
 10
275.573839
 20
194.118843
 30
0.0
 40
2.0
  1
6A
  7
ROMANS
  0
TEXT
  8
0
  6
CONTINUOUS
 62
   249
 10
275.573839
 20
184.096144
 30
0.0
 40
2.0
  1
7A
  7
ROMANS
  0
TEXT
  8
0
  6
CONTINUOUS
 62
   249
 10
275.573839
 20
174.117526
 30
0.0
 40
2.0
  1
8A
  7
ROMANS
  0
TEXT
  8
0
  6
CONTINUOUS
 62
   249
 10
275.573839
 20
164.028705
 30
0.0
 40
2.0
  1
9A
  7
ROMANS
  0
TEXT
  8
0
  6
CONTINUOUS
 62
   249
 10
273.61494
 20
154.028047
 30
0.0
 40
2.0
  1
10A
  7
ROMANS
  0
LINE
  8
0
  6
DASHED
 62
   249
 10
252.5
 20
140.0
 30
0.0
 11
280.0
 21
140.0
 31
0.0
  0
LINE
  8
0
  6
CONTINUOUS
 62
   249
 10
280.0
 20
197.5
 30
0.0
 11
295.0
 21
197.5
 31
0.0
  0
LINE
  8
0
  6
CONTINUOUS
 62
   249
 10
280.0
 20
207.5
 30
0.0
 11
295.0
 21
207.5
 31
0.0
  0
LINE
  8
0
  6
CONTINUOUS
 62
   249
 10
280.0
 20
177.5
 30
0.0
 11
295.0
 21
177.5
 31
0.0
  0
LINE
  8
0
  6
CONTINUOUS
 62
   249
 10
280.0
 20
187.5
 30
0.0
 11
295.0
 21
187.5
 31
0.0
  0
LINE
  8
0
  6
DASHED
 62
   249
 10
320.16385
 20
215.810102
 30
0.0
 11
320.16385
 21
202.5
 31
0.0
  0
CIRCLE
  8
0
  6
CONTINUOUS
 62
   249
 10
320.166598
 20
220.208687
 30
0.0
 40
4.398585
  0
CIRCLE
  8
0
  6
CONTINUOUS
 62
   249
 10
327.166803
 20
220.208687
 30
0.0
 40
4.398585
  0
CIRCLE
  8
0
  6
CONTINUOUS
 62
   249
 10
323.691658
 20
226.328362
 30
0.0
 40
4.398585
  0
LINE
  8
0
  6
CONTINUOUS
 62
   249
 10
317.848085
 20
221.942673
 30
0.0
 11
320.181486
 21
219.609271
 31
0.0
  0
LINE
  8
0
  6
CONTINUOUS
 62
   249
 10
320.181486
 20
219.609271
 30
0.0
 11
322.514888
 21
221.942673
 31
0.0
  0
LINE
  8
0
  6
CONTINUOUS
 62
   249
 10
320.181486
 20
219.609271
 30
0.0
 11
320.181486
 21
217.275869
 31
0.0
  0
LINE
  8
0
  6
CONTINUOUS
 62
   249
 10
323.723922
 20
226.155814
 30
0.0
 11
323.723922
 21
223.822412
 31
0.0
  0
LINE
  8
0
  6
CONTINUOUS
 62
   249
 10
321.750876
 20
228.12886
 30
0.0
 11
323.723922
 21
226.155814
 31
0.0
  0
LINE
  8
0
  6
CONTINUOUS
 62
   249
 10
323.723922
 20
226.155814
 30
0.0
 11
326.057324
 21
228.489215
 31
0.0
  0
LINE
  8
0
  6
DASHED
 62
   249
 10
302.5
 20
242.708687
 30
0.0
 11
345.0
 21
242.708687
 31
0.0
  0
LINE
  8
0
  6
DASHED
 62
   249
 10
323.69296
 20
230.726913
 30
0.0
 11
323.69296
 21
242.708687
 31
0.0
  0
LINE
  8
0
  6
DASHED
 62
   249
 10
327.172143
 20
215.810106
 30
0.0
 11
327.172143
 21
162.5
 31
0.0
  0
LINE
  8
0
  6
DASHED
 62
   249
 10
297.5
 20
162.5
 30
0.0
 11
327.172143
 21
162.5
 31
0.0
  0
LINE
  8
0
  6
DASHED
 62
   249
 10
297.5
 20
202.5
 30
0.0
 11
320.16385
 21
202.5
 31
0.0
  0
TEXT
  8
0
  6
DASHED
 62
   249
 10
323.184724
 20
140.0
 30
0.0
 40
2.0
  1
1) EXTERNAL BLOCKING
  7
ROMANS
  0
TEXT
  8
0
  6
DASHED
 62
   249
 10
323.839015
 20
136.666667
 30
0.0
 40
2.0
  1
  EXTERN BLOCKERING
  7
ROMANS
  0
TEXT
  8
0
  6
DASHED
 62
   249
 10
322.5
 20
130.833333
 30
0.0
 40
2.0
  1
2) RS 232 C, ONLY FOR
  7
ROMANS
  0
TEXT
  8
0
  6
DASHED
 62
   249
 10
323.839015
 20
127.5
 30
0.0
 40
2.0
  1
  DISTURBANCE RECORDER
  7
ROMANS
  0
TEXT
  8
0
  6
DASHED
 62
   249
 10
323.854231
 20
124.166667
 30
0.0
 40
2.0
  1
  RS 232 C, ENDAST FÖR
  7
ROMANS
  0
TEXT
  8
0
  6
DASHED
 62
   249
 10
323.854231
 20
120.833333
 30
0.0
 40
2.0
  1
  STÖRNINGSREGISTRERING
  7
ROMANS
  0
TEXT
  8
0
  6
DASHED
 62
   249
 10
322.5
 20
115.0
 30
0.0
 40
2.0
  1
3) TRIP ETC.       NOTE
  7
ROMANS
  0
TEXT
  8
0
  6
DASHED
 62
   249
 10
323.823799
 20
111.666667
 30
0.0
 40
2.0
  1
  UTLÖSNING MM.   OBS.
  7
ROMANS
  0
TEXT
  8
0
  6
DASHED
 62
   249
 10
322.5
 20
105.833333
 30
0.0
 40
2.0
  1
4) START, ALARM ETC.
  7
ROMANS
  0
TEXT
  8
0
  6
DASHED
 62
   249
 10
323.839015
 20
102.5
 30
0.0
 40
2.0
  1
  START, SIGNAL MM.
  7
ROMANS
  0
TEXT
  8
0
  6
DASHED
 62
   249
 10
322.5
 20
96.666667
 30
0.0
 40
2.0
  1
5) INTERNAL RELAY FAULT
  7
ROMANS
  0
TEXT
  8
0
  6
DASHED
 62
   249
 10
323.839015
 20
93.333333
 30
0.0
 40
2.0
  1
  INTERNT RELÄFEL
  7
ROMANS
  0
TEXT
  8
0
  6
DASHED
 62
   249
 10
322.5
 20
87.5
 30
0.0
 40
2.0
  1
6) BUS CONNECTION MODULE
  7
ROMANS
  0
TEXT
  8
0
  6
DASHED
 62
   249
 10
323.839015
 20
84.166667
 30
0.0
 40
2.0
  1
  BUSSANSLUTNINGSMODUL
  7
ROMANS
  0
TEXT
  8
0
  6
DASHED
 62
   249
 10
322.5
 20
75.833333
 30
0.0
 40
2.0
  1
7)
  7
ROMANS
  0
LINE
  8
0
  6
CONTINUOUS
 62
   249
 10
330.0
 20
45.0
 30
0.0
 11
375.0
 21
45.0
 31
0.0
  0
TEXT
  8
0
  6
CONTINUOUS
 62
   249
 10
345.0
 20
56.045311
 30
0.0
 40
2.0
  1
17
  7
ROMANS
  0
TEXT
  8
0
  6
CONTINUOUS
 62
   249
 10
345.0
 20
51.631981
 30
0.0
 40
2.0
  1
20
  7
ROMANS
  0
TEXT
  8
0
  6
CONTINUOUS
 62
   249
 10
345.0
 20
47.097427
 30
0.0
 40
2.0
  1
29
  7
ROMANS
  0
TEXT
  8
0
  6
CONTINUOUS
 62
   249
 10
365.0
 20
56.045311
 30
0.0
 40
2.0
  1
18
  7
ROMANS
  0
TEXT
  8
0
  6
CONTINUOUS
 62
   249
 10
365.0
 20
51.631981
 30
0.0
 40
2.0
  1
21
  7
ROMANS
  0
TEXT
  8
0
  6
CONTINUOUS
 62
   249
 10
365.0
 20
47.097427
 30
0.0
 40
2.0
  1
30
  7
ROMANS
  0
TEXT
  8
0
  6
CONTINUOUS
 62
   249
 10
332.5
 20
56.045311
 30
0.0
 40
2.0
  1
6B
  7
ROMANS
  0
TEXT
  8
0
  6
CONTINUOUS
 62
   249
 10
332.5
 20
51.631981
 30
0.0
 40
2.0
  1
8B
  7
ROMANS
  0
TEXT
  8
0
  6
CONTINUOUS
 62
   249
 10
331.160985
 20
47.097427
 30
0.0
 40
2.0
  1
10B
  7
ROMANS
  0
TEXT
  8
0
  6
CONTINUOUS
 62
   249
 10
212.089321
 20
27.528409
 30
0.0
 40
2.0
  1
1992-04-13 J RANTALA
  7
ROMANS
  0
TEXT
  8
0
  6
CONTINUOUS
 62
   249
 10
315.0
 20
27.5
 30
0.0
 40
2.0
  1
CIRCUIT DIAGRAM / KRETSSCHEMA
  7
ROMANS
  0
TEXT
  8
0
  6
CONTINUOUS
 62
   249
 10
315.0
 20
24.166667
 30
0.0
 40
2.0
  1
SPAU 330 C WITH TEST SWITCH
  7
ROMANS
  0
TEXT
  8
0
  6
CONTINUOUS
 62
   249
 10
315.0
 20
20.833333
 30
0.0
 40
2.0
  1
SPAU 330 C MED PROVDON
  7
ROMANS
  0
TEXT
  8
0
  6
CONTINUOUS
 62
   249
 10
320.0
 20
2.5
 30
0.0
 40
2.5
  1
RS 10071-AA
  7
ROMANS
  0
CIRCLE
  8
0
  6
CONTINUOUS
 62
   249
 10
52.5
 20
150.0
 30
0.0
 40
1.484482
  0
CIRCLE
  8
0
  6
CONTINUOUS
 62
   249
 10
52.5
 20
150.0
 30
0.0
 40
0.583385
  0
CIRCLE
  8
0
  6
CONTINUOUS
 62
   249
 10
52.5
 20
140.0
 30
0.0
 40
1.484482
  0
CIRCLE
  8
0
  6
CONTINUOUS
 62
   249
 10
52.5
 20
140.0
 30
0.0
 40
0.65243
  0
TEXT
  8
0
  6
CONTINUOUS
 62
   249
 10
350.707803
 20
158.196954
 30
0.0
 40
2.0
  1
101 RTXP 18
  7
ROMANS
  0
TEXT
  8
0
  6
CONTINUOUS
 62
   249
 10
351.09087
 20
154.863621
 30
0.0
 40
2.0
  1
RK 926 115-AR
  7
ROMANS
  0
TEXT
  8
0
  6
CONTINUOUS
 62
   249
 10
350.707803
 20
151.530288
 30
0.0
 40
2.0
  1
108 SPAU 330 C
  7
ROMANS
  0
TEXT
  8
0
  6
CONTINUOUS
 62
   249
 10
380.0
 20
2.5
 30
0.0
 40
2.5
  1
C
  7
ROMANS
  0
TEXT
  8
0
  6
CONTINUOUS
 62
   249
 10
50.890177
 20
1.595172
 30
0.0
 40
2.0
  1
REDRAWN WITH AUTOCAD 1992-04-13 / RITU Power
  7
ROMANS
  0
LINE
  8
0
  6
CONTINUOUS
 62
   249
 10
363.021762
 20
215.037043
 30
0.0
 11
363.021762
 21
212.089989
 31
0.0
  0
LINE
  8
0
  6
CONTINUOUS
 62
   249
 10
363.021762
 20
212.089989
 30
0.0
 11
370.389396
 21
212.089989
 31
0.0
  0
LINE
  8
0
  6
CONTINUOUS
 62
   249
 10
370.389396
 20
215.037043
 30
0.0
 11
363.021762
 21
215.037043
 31
0.0
  0
LINE
  8
0
  6
CONTINUOUS
 62
   249
 10
372.238406
 20
213.563516
 30
0.0
 11
370.389396
 21
215.037043
 31
0.0
  0
LINE
  8
0
  6
CONTINUOUS
 62
   249
 10
372.238406
 20
213.563516
 30
0.0
 11
370.389396
 21
212.089989
 31
0.0
  0
TEXT
  8
0
  6
CONTINUOUS
 62
   249
 10
363.656772
 20
223.28321
 30
0.0
 40
2.5
  1
3
  0
TEXT
  8
0
  6
CONTINUOUS
 62
   249
 10
363.611038
 20
233.555024
 30
0.0
 40
2.5
  1
3
  0
LINE
  8
0
  6
CONTINUOUS
 62
   249
 10
377.5
 20
210.0
 30
0.0
 11
377.5
 21
217.5
 31
0.0
  0
LINE
  8
0
  6
CONTINUOUS
 62
   249
 10
357.5
 20
210.0
 30
0.0
 11
377.5
 21
210.0
 31
0.0
  0
LINE
  8
0
  6
CONTINUOUS
 62
   249
 10
357.5
 20
217.5
 30
0.0
 11
357.5
 21
210.0
 31
0.0
  0
TEXT
  8
0
  6
DASHED
 62
   249
 10
340.330437
 20
191.730671
 30
0.0
 40
2.0
  1
PUNKTSSPÄNNINGSSKYDD
  7
ROMANS
  0
TEXT
  8
0
  6
DASHED
 62
   249
 10
340.330437
 20
195.064004
 30
0.0
 40
2.0
  1
ÖVER-, UNDER- OCH NOLL-
  7
ROMANS
  0
TEXT
  8
0
  6
DASHED
 62
   249
 10
340.330437
 20
198.397337
 30
0.0
 40
2.0
  1
VOLTAGE RELAY/
  7
ROMANS
  0
TEXT
  8
0
  6
DASHED
 62
   249
 10
340.330437
 20
201.730671
 30
0.0
 40
2.0
  1
OVER-, UNDER- AND NEUTRAL
  7
ROMANS
  0
LINE
  8
0
  6
CONTINUOUS
 62
   249
 10
363.131307
 20
219.5728
 30
0.0
 11
370.919512
 21
219.5728
 31
0.0
  0
LINE
  8
0
  6
CONTINUOUS
 62
   249
 10
370.914971
 20
220.418079
 30
0.0
 11
370.914971
 21
218.629948
 31
0.0
  0
LINE
  8
0
  6
CONTINUOUS
 62
   249
 10
365.515452
 20
218.405198
 30
0.0
 11
368.391562
 21
221.233756
 31
0.0
  0
LINE
  8
0
  6
CONTINUOUS
 62
   249
 10
367.960859
 20
221.770963
 30
0.0
 11
368.861536
 21
220.647214
 31
0.0
  0
LINE
  8
0
  6
CONTINUOUS
 62
   249
 10
363.100275
 20
220.418079
 30
0.0
 11
363.100275
 21
218.629948
 31
0.0
  0
LINE
  8
0
  6
CONTINUOUS
 62
   249
 10
371.867961
 20
223.314523
 30
0.0
 11
369.522196
 21
224.649877
 31
0.0
  0
LINE
  8
0
  6
CONTINUOUS
 62
   249
 10
369.522196
 20
224.649877
 30
0.0
 11
371.867961
 21
225.839796
 31
0.0
  0
TEXT
  8
0
  6
DASHED
 62
   249
 10
366.460136
 20
223.279952
 30
0.0
 40
2.5
  1
U
  0
TEXT
  8
0
  6
DASHED
 62
   249
 10
366.429704
 20
233.555529
 30
0.0
 40
2.5
  1
U
  0
LINE
  8
0
  6
CONTINUOUS
 62
   249
 10
371.82516
 20
234.737835
 30
0.0
 11
369.479395
 21
233.547915
 31
0.0
  0
LINE
  8
0
  6
CONTINUOUS
 62
   249
 10
369.479395
 20
236.073188
 30
0.0
 11
371.82516
 21
234.737835
 31
0.0
  0
LINE
  8
0
  6
CONTINUOUS
 62
   249
 10
370.914971
 20
250.150916
 30
0.0
 11
370.914971
 21
248.362785
 31
0.0
  0
LINE
  8
0
  6
CONTINUOUS
 62
   249
 10
367.960859
 20
251.503801
 30
0.0
 11
368.861536
 21
250.380051
 31
0.0
  0
LINE
  8
0
  6
CONTINUOUS
 62
   249
 10
365.515452
 20
248.138035
 30
0.0
 11
368.391562
 21
250.966594
 31
0.0
  0
LINE
  8
0
  6
CONTINUOUS
 62
   249
 10
363.131307
 20
249.305638
 30
0.0
 11
370.919512
 21
249.305638
 31
0.0
  0
LINE
  8
0
  6
CONTINUOUS
 62
   249
 10
363.100275
 20
250.150916
 30
0.0
 11
363.100275
 21
248.362785
 31
0.0
  0
TEXT
  8
0
  6
DASHED
 62
   249
 10
363.557755
 20
243.489757
 30
0.0
 40
2.5
  1
U
  0
LINE
  8
0
  6
CONTINUOUS
 62
   249
 10
373.208677
 20
244.694576
 30
0.0
 11
370.862911
 21
243.504657
 31
0.0
  0
LINE
  8
0
  6
CONTINUOUS
 62
   249
 10
368.86175
 20
246.02993
 30
0.0
 11
371.207516
 21
244.694576
 31
0.0
  0
LINE
  8
0
  6
CONTINUOUS
 62
   249
 10
371.207516
 20
244.694576
 30
0.0
 11
368.86175
 21
243.504657
 31
0.0
  0
LINE
  8
0
  6
CONTINUOUS
 62
   249
 10
370.862911
 20
246.02993
 30
0.0
 11
373.208677
 21
244.694576
 31
0.0
  0
LINE
  8
0
  6
CONTINUOUS
 62
   249
 10
371.532229
 20
254.77287
 30
0.0
 11
369.186464
 21
253.582951
 31
0.0
  0
LINE
  8
0
  6
CONTINUOUS
 62
   249
 10
369.186464
 20
256.108224
 30
0.0
 11
371.532229
 21
254.77287
 31
0.0
  0
TEXT
  8
0
  6
DASHED
 62
   249
 10
363.572971
 20
253.469341
 30
0.0
 40
2.5
  1
U
  0
LINE
  8
0
  6
CONTINUOUS
 62
   249
 10
363.100275
 20
230.259271
 30
0.0
 11
363.100275
 21
228.471139
 31
0.0
  0
LINE
  8
0
  6
CONTINUOUS
 62
   249
 10
367.960859
 20
231.612155
 30
0.0
 11
368.861536
 21
230.488406
 31
0.0
  0
ARC
  8
0
  6
HIDDEN
 62
   249
 10
369.826175
 20
233.342536
 30
0.0
 40
4.998196
 50
206.402922
 51
282.21115
  0
LINE
  8
0
  6
CONTINUOUS
 62
   249
 10
365.515452
 20
228.24639
 30
0.0
 11
368.391562
 21
231.074948
 31
0.0
  0
LINE
  8
0
  6
CONTINUOUS
 62
   249
 10
370.914971
 20
230.259271
 30
0.0
 11
370.914971
 21
228.471139
 31
0.0
  0
LINE
  8
0
  6
CONTINUOUS
 62
   249
 10
363.131307
 20
229.413992
 30
0.0
 11
370.919512
 21
229.413992
 31
0.0
  0
LINE
  8
0
  6
CONTINUOUS
 62
   249
 10
357.5
 20
217.5
 30
0.0
 11
377.5
 21
217.5
 31
0.0
  0
LINE
  8
0
  6
CONTINUOUS
 62
   249
 10
357.5
 20
217.5
 30
0.0
 11
357.5
 21
257.5
 31
0.0
  0
LINE
  8
0
  6
CONTINUOUS
 62
   249
 10
377.5
 20
257.5
 30
0.0
 11
377.5
 21
217.5
 31
0.0
  0
LINE
  8
0
  6
CONTINUOUS
 62
   249
 10
357.5
 20
257.5
 30
0.0
 11
377.5
 21
257.5
 31
0.0
  0
LINE
  8
0
  6
CONTINUOUS
 62
   249
 10
357.5
 20
237.5
 30
0.0
 11
377.5
 21
237.5
 31
0.0
  0
LINE
  8
0
  6
CONTINUOUS
 62
   249
 10
363.100275
 20
240.552173
 30
0.0
 11
363.100275
 21
238.764041
 31
0.0
  0
LINE
  8
0
  6
CONTINUOUS
 62
   249
 10
363.131307
 20
239.706894
 30
0.0
 11
370.919512
 21
239.706894
 31
0.0
  0
LINE
  8
0
  6
CONTINUOUS
 62
   249
 10
365.515452
 20
238.539291
 30
0.0
 11
368.391562
 21
241.36785
 31
0.0
  0
LINE
  8
0
  6
CONTINUOUS
 62
   249
 10
367.960859
 20
241.905057
 30
0.0
 11
368.861536
 21
240.781308
 31
0.0
  0
LINE
  8
0
  6
CONTINUOUS
 62
   249
 10
370.914971
 20
240.552173
 30
0.0
 11
370.914971
 21
238.764041
 31
0.0
  0
LINE
  8
0
  6
CONTINUOUS
 62
   249
 10
37.5
 20
152.5
 30
0.0
 11
37.5
 21
155.265661
 31
0.0
  0
LINE
  8
0
  6
CONTINUOUS
 62
   249
 10
43.518035
 20
152.493411
 30
0.0
 11
36.837159
 21
154.934804
 31
0.0
  0
CIRCLE
  8
0
  6
CONTINUOUS
 62
   249
 10
44.258945
 20
152.5
 30
0.0
 40
0.740939
  0
LINE
  8
0
  6
CONTINUOUS
 62
   249
 10
37.5
 20
142.5
 30
0.0
 11
37.5
 21
145.265661
 31
0.0
  0
LINE
  8
0
  6
CONTINUOUS
 62
   249
 10
43.518035
 20
142.493411
 30
0.0
 11
36.837159
 21
144.934804
 31
0.0
  0
CIRCLE
  8
0
  6
CONTINUOUS
 62
   249
 10
44.258945
 20
142.5
 30
0.0
 40
0.740939
  0
LINE
  8
0
  6
CONTINUOUS
 62
   249
 10
202.5
 20
80.0
 30
0.0
 11
205.265661
 21
80.0
 31
0.0
  0
LINE
  8
0
  6
CONTINUOUS
 62
   249
 10
204.934804
 20
80.662841
 30
0.0
 11
204.049106
 21
81.107734
 31
0.0
  0
LINE
  8
0
  6
CONTINUOUS
 62
   249
 10
202.493411
 20
73.981965
 30
0.0
 11
204.934804
 21
80.662841
 31
0.0
  0
LINE
  8
0
  6
CONTINUOUS
 62
   249
 10
197.434804
 20
80.662841
 30
0.0
 11
196.549106
 21
81.107734
 31
0.0
  0
LINE
  8
0
  6
CONTINUOUS
 62
   249
 10
194.993411
 20
73.981965
 30
0.0
 11
197.434804
 21
80.662841
 31
0.0
  0
LINE
  8
0
  6
CONTINUOUS
 62
   249
 10
195.0
 20
80.0
 30
0.0
 11
197.765661
 21
80.0
 31
0.0
  0
LINE
  8
0
  6
CONTINUOUS
 62
   249
 10
185.0
 20
80.0
 30
0.0
 11
187.765661
 21
80.0
 31
0.0
  0
LINE
  8
0
  6
CONTINUOUS
 62
   249
 10
184.993411
 20
73.981965
 30
0.0
 11
187.434804
 21
80.662841
 31
0.0
  0
LINE
  8
0
  6
CONTINUOUS
 62
   249
 10
175.0
 20
80.0
 30
0.0
 11
177.765661
 21
80.0
 31
0.0
  0
LINE
  8
0
  6
CONTINUOUS
 62
   249
 10
177.434804
 20
80.662841
 30
0.0
 11
176.549106
 21
81.107734
 31
0.0
  0
LINE
  8
0
  6
CONTINUOUS
 62
   249
 10
174.993411
 20
73.981965
 30
0.0
 11
177.434804
 21
80.662841
 31
0.0
  0
LINE
  8
0
  6
DASHED
 62
   249
 10
217.5
 20
90.0
 30
0.0
 11
217.5
 21
65.0
 31
0.0
  0
LINE
  8
0
  6
CONTINUOUS
 62
   249
 10
269.102827
 20
189.934804
 30
0.0
 11
268.657934
 21
189.049106
 31
0.0
  0
LINE
  8
0
  6
CONTINUOUS
 62
   249
 10
270.0
 20
187.482972
 30
0.0
 11
270.0
 21
190.265661
 31
0.0
  0
LINE
  8
0
  6
CONTINUOUS
 62
   249
 10
269.102827
 20
189.934804
 30
0.0
 11
274.315544
 21
187.782596
 31
0.0
  0
LINE
  8
0
  6
CONTINUOUS
 62
   249
 10
269.102827
 20
199.934804
 30
0.0
 11
268.657934
 21
199.049106
 31
0.0
  0
LINE
  8
0
  6
CONTINUOUS
 62
   249
 10
269.102827
 20
199.934804
 30
0.0
 11
274.315544
 21
197.782596
 31
0.0
  0
LINE
  8
0
  6
CONTINUOUS
 62
   249
 10
270.0
 20
197.482972
 30
0.0
 11
270.0
 21
200.265661
 31
0.0
  0
LINE
  8
0
  6
CONTINUOUS
 62
   249
 10
269.102827
 20
209.934804
 30
0.0
 11
268.657934
 21
209.049106
 31
0.0
  0
LINE
  8
0
  6
CONTINUOUS
 62
   249
 10
269.102827
 20
209.934804
 30
0.0
 11
274.315544
 21
207.782596
 31
0.0
  0
LINE
  8
0
  6
CONTINUOUS
 62
   249
 10
270.0
 20
207.482972
 30
0.0
 11
270.0
 21
210.265661
 31
0.0
  0
LINE
  8
0
  6
CONTINUOUS
 62
   249
 10
269.102827
 20
219.934804
 30
0.0
 11
268.657934
 21
219.049106
 31
0.0
  0
LINE
  8
0
  6
CONTINUOUS
 62
   249
 10
269.102827
 20
219.934804
 30
0.0
 11
274.315544
 21
217.782596
 31
0.0
  0
LINE
  8
0
  6
CONTINUOUS
 62
   249
 10
270.0
 20
217.482972
 30
0.0
 11
270.0
 21
220.265661
 31
0.0
  0
LINE
  8
0
  6
CONTINUOUS
 62
   249
 10
269.102827
 20
229.934804
 30
0.0
 11
268.657934
 21
229.049106
 31
0.0
  0
LINE
  8
0
  6
CONTINUOUS
 62
   249
 10
269.102827
 20
229.934804
 30
0.0
 11
274.315544
 21
227.782596
 31
0.0
  0
LINE
  8
0
  6
CONTINUOUS
 62
   249
 10
270.0
 20
227.482972
 30
0.0
 11
270.0
 21
230.265661
 31
0.0
  0
LINE
  8
0
  6
CONTINUOUS
 62
   249
 10
269.102827
 20
179.934804
 30
0.0
 11
268.657934
 21
179.049106
 31
0.0
  0
LINE
  8
0
  6
CONTINUOUS
 62
   249
 10
269.102827
 20
179.934804
 30
0.0
 11
274.315544
 21
177.782596
 31
0.0
  0
LINE
  8
0
  6
CONTINUOUS
 62
   249
 10
270.0
 20
177.482972
 30
0.0
 11
270.0
 21
180.265661
 31
0.0
  0
LINE
  8
0
  6
CONTINUOUS
 62
   249
 10
269.102827
 20
169.934804
 30
0.0
 11
268.657934
 21
169.049106
 31
0.0
  0
LINE
  8
0
  6
CONTINUOUS
 62
   249
 10
269.102827
 20
169.934804
 30
0.0
 11
274.315544
 21
167.782596
 31
0.0
  0
LINE
  8
0
  6
CONTINUOUS
 62
   249
 10
270.0
 20
167.482972
 30
0.0
 11
270.0
 21
170.265661
 31
0.0
  0
LINE
  8
0
  6
CONTINUOUS
 62
   249
 10
269.102827
 20
159.934804
 30
0.0
 11
268.657934
 21
159.049106
 31
0.0
  0
LINE
  8
0
  6
CONTINUOUS
 62
   249
 10
269.102827
 20
159.934804
 30
0.0
 11
274.315544
 21
157.782596
 31
0.0
  0
LINE
  8
0
  6
CONTINUOUS
 62
   249
 10
270.0
 20
157.482972
 30
0.0
 11
270.0
 21
160.265661
 31
0.0
  0
LINE
  8
0
  6
DASHED
 62
   249
 10
280.0
 20
140.0
 30
0.0
 11
287.5
 21
140.0
 31
0.0
  0
TEXT
  8
0
  6
CONTINUOUS
 62
   249
 10
289.245831
 20
139.166383
 30
0.0
 40
2.0
  1
6)
  7
ROMANS
  0
TEXT
  8
0
  6
CONTINUOUS
 62
   249
 10
51.229282
 20
5.49244
 30
0.0
 40
2.0
  1
A CHANGE FOR SERIAL COMMUNICATION PORTS 1993-04-27  KM / RITU Power
  7
ROMANS
  0
TEXT
  8
0
  6
CONTINUOUS
 62
   249
 10
169.353328
 20
51.513635
 30
0.0
 40
2.0
  1
+
  0
TEXT
  8
0
  6
CONTINUOUS
 62
   249
 10
174.353328
 20
51.513635
 30
0.0
 40
2.0
  1
+
  0
TEXT
  8
0
  6
CONTINUOUS
 62
   249
 10
184.353328
 20
51.513635
 30
0.0
 40
2.0
  1
+
  0
TEXT
  8
0
  6
CONTINUOUS
 62
   249
 10
189.353328
 20
51.513635
 30
0.0
 40
2.0
  1
+
  0
TEXT
  8
0
  6
CONTINUOUS
 62
   249
 10
194.353328
 20
51.513635
 30
0.0
 40
2.0
  1
+
  0
ARC
  8
0
  6
CONTINUOUS
 62
   249
 10
185.0
 20
85.0
 30
0.0
 40
0.5
 50
180.0
 51
0.0
  0
ARC
  8
0
  6
CONTINUOUS
 62
   249
 10
185.0
 20
85.0
 30
0.0
 40
0.5
 50
0.0
 51
180.0
  0
3DFACE
  8
0
  6
CONTINUOUS
 62
   249
 10
53.365976
 20
190.56
 30
0.0
 11
53.350296
 21
190.56
 31
0.0
 12
53.350296
 22
189.44
 32
0.0
 13
53.365976
 23
189.44
 33
0.0
  0
3DFACE
  8
0
  6
CONTINUOUS
 62
   249
 10
53.350296
 20
190.56
 30
0.0
 11
53.334616
 21
190.56
 31
0.0
 12
53.334616
 22
189.44
 32
0.0
 13
53.350296
 23
189.44
 33
0.0
  0
3DFACE
  8
0
  6
CONTINUOUS
 62
   249
 10
53.334616
 20
190.56
 30
0.0
 11
53.318936
 21
190.56
 31
0.0
 12
53.318936
 22
189.44
 32
0.0
 13
53.334616
 23
189.44
 33
0.0
  0
3DFACE
  8
0
  6
CONTINUOUS
 62
   249
 10
53.318936
 20
190.56
 30
0.0
 11
53.303256
 21
190.56
 31
0.0
 12
53.303256
 22
189.44
 32
0.0
 13
53.318936
 23
189.44
 33
0.0
  0
3DFACE
  8
0
  6
CONTINUOUS
 62
   249
 10
53.303256
 20
190.56
 30
0.0
 11
53.287576
 21
190.56
 31
0.0
 12
53.287576
 22
189.44
 32
0.0
 13
53.303256
 23
189.44
 33
0.0
  0
3DFACE
  8
0
  6
CONTINUOUS
 62
   249
 10
53.287576
 20
190.56
 30
0.0
 11
53.271896
 21
190.56
 31
0.0
 12
53.271896
 22
189.44
 32
0.0
 13
53.287576
 23
189.44
 33
0.0
  0
3DFACE
  8
0
  6
CONTINUOUS
 62
   249
 10
53.271896
 20
190.56
 30
0.0
 11
53.256216
 21
190.56
 31
0.0
 12
53.256216
 22
189.44
 32
0.0
 13
53.271896
 23
189.44
 33
0.0
  0
3DFACE
  8
0
  6
CONTINUOUS
 62
   249
 10
53.256216
 20
190.56
 30
0.0
 11
53.240536
 21
190.56
 31
0.0
 12
53.240536
 22
189.44
 32
0.0
 13
53.256216
 23
189.44
 33
0.0
  0
3DFACE
  8
0
  6
CONTINUOUS
 62
   249
 10
53.240536
 20
190.56
 30
0.0
 11
53.224856
 21
190.56
 31
0.0
 12
53.224856
 22
189.44
 32
0.0
 13
53.240536
 23
189.44
 33
0.0
  0
3DFACE
  8
0
  6
CONTINUOUS
 62
   249
 10
53.224856
 20
190.56
 30
0.0
 11
53.209176
 21
190.56
 31
0.0
 12
53.209176
 22
189.44
 32
0.0
 13
53.224856
 23
189.44
 33
0.0
  0
3DFACE
  8
0
  6
CONTINUOUS
 62
   249
 10
53.209176
 20
190.56
 30
0.0
 11
53.193496
 21
190.56
 31
0.0
 12
53.193496
 22
189.44
 32
0.0
 13
53.209176
 23
189.44
 33
0.0
  0
3DFACE
  8
0
  6
CONTINUOUS
 62
   249
 10
53.193496
 20
190.56
 30
0.0
 11
53.177816
 21
190.56
 31
0.0
 12
53.177816
 22
189.44
 32
0.0
 13
53.193496
 23
189.44
 33
0.0
  0
3DFACE
  8
0
  6
CONTINUOUS
 62
   249
 10
53.177816
 20
190.56
 30
0.0
 11
53.162136
 21
190.56
 31
0.0
 12
53.162136
 22
189.44
 32
0.0
 13
53.177816
 23
189.44
 33
0.0
  0
3DFACE
  8
0
  6
CONTINUOUS
 62
   249
 10
53.162136
 20
190.56
 30
0.0
 11
53.146456
 21
190.56
 31
0.0
 12
53.146456
 22
189.44
 32
0.0
 13
53.162136
 23
189.44
 33
0.0
  0
3DFACE
  8
0
  6
CONTINUOUS
 62
   249
 10
53.146456
 20
190.56
 30
0.0
 11
53.130776
 21
190.56
 31
0.0
 12
53.130776
 22
189.44
 32
0.0
 13
53.146456
 23
189.44
 33
0.0
  0
3DFACE
  8
0
  6
CONTINUOUS
 62
   249
 10
53.130776
 20
190.56
 30
0.0
 11
53.115096
 21
190.56
 31
0.0
 12
53.115096
 22
189.44
 32
0.0
 13
53.130776
 23
189.44
 33
0.0
  0
3DFACE
  8
0
  6
CONTINUOUS
 62
   249
 10
53.115096
 20
190.56
 30
0.0
 11
53.099416
 21
190.56
 31
0.0
 12
53.099416
 22
189.44
 32
0.0
 13
53.115096
 23
189.44
 33
0.0
  0
3DFACE
  8
0
  6
CONTINUOUS
 62
   249
 10
53.099416
 20
190.56
 30
0.0
 11
53.083736
 21
190.56
 31
0.0
 12
53.083736
 22
189.44
 32
0.0
 13
53.099416
 23
189.44
 33
0.0
  0
3DFACE
  8
0
  6
CONTINUOUS
 62
   249
 10
53.083736
 20
190.56
 30
0.0
 11
53.068056
 21
190.56
 31
0.0
 12
53.068056
 22
189.44
 32
0.0
 13
53.083736
 23
189.44
 33
0.0
  0
3DFACE
  8
0
  6
CONTINUOUS
 62
   249
 10
53.068056
 20
190.56
 30
0.0
 11
53.052376
 21
190.56
 31
0.0
 12
53.052376
 22
189.44
 32
0.0
 13
53.068056
 23
189.44
 33
0.0
  0
3DFACE
  8
0
  6
CONTINUOUS
 62
   249
 10
53.052376
 20
190.56
 30
0.0
 11
53.036696
 21
190.56
 31
0.0
 12
53.036696
 22
189.44
 32
0.0
 13
53.052376
 23
189.44
 33
0.0
  0
3DFACE
  8
0
  6
CONTINUOUS
 62
   249
 10
53.036696
 20
190.56
 30
0.0
 11
53.021016
 21
190.56
 31
0.0
 12
53.021016
 22
189.44
 32
0.0
 13
53.036696
 23
189.44
 33
0.0
  0
3DFACE
  8
0
  6
CONTINUOUS
 62
   249
 10
53.021016
 20
190.56
 30
0.0
 11
53.005336
 21
190.56
 31
0.0
 12
53.005336
 22
189.44
 32
0.0
 13
53.021016
 23
189.44
 33
0.0
  0
3DFACE
  8
0
  6
CONTINUOUS
 62
   249
 10
53.005336
 20
190.56
 30
0.0
 11
52.989656
 21
190.56
 31
0.0
 12
52.989656
 22
189.44
 32
0.0
 13
53.005336
 23
189.44
 33
0.0
  0
3DFACE
  8
0
  6
CONTINUOUS
 62
   249
 10
52.989656
 20
190.56
 30
0.0
 11
52.973976
 21
190.56
 31
0.0
 12
52.973976
 22
189.44
 32
0.0
 13
52.989656
 23
189.44
 33
0.0
  0
3DFACE
  8
0
  6
CONTINUOUS
 62
   249
 10
52.973976
 20
190.56
 30
0.0
 11
52.958296
 21
190.56
 31
0.0
 12
52.958296
 22
189.44
 32
0.0
 13
52.973976
 23
189.44
 33
0.0
  0
3DFACE
  8
0
  6
CONTINUOUS
 62
   249
 10
52.958296
 20
190.56
 30
0.0
 11
52.942616
 21
190.56
 31
0.0
 12
52.942616
 22
189.44
 32
0.0
 13
52.958296
 23
189.44
 33
0.0
  0
3DFACE
  8
0
  6
CONTINUOUS
 62
   249
 10
52.942616
 20
190.56
 30
0.0
 11
52.926936
 21
190.56
 31
0.0
 12
52.926936
 22
189.44
 32
0.0
 13
52.942616
 23
189.44
 33
0.0
  0
3DFACE
  8
0
  6
CONTINUOUS
 62
   249
 10
52.926936
 20
190.56
 30
0.0
 11
52.911256
 21
190.56
 31
0.0
 12
52.911256
 22
189.44
 32
0.0
 13
52.926936
 23
189.44
 33
0.0
  0
3DFACE
  8
0
  6
CONTINUOUS
 62
   249
 10
52.911256
 20
190.56
 30
0.0
 11
52.895576
 21
190.56
 31
0.0
 12
52.895576
 22
189.44
 32
0.0
 13
52.911256
 23
189.44
 33
0.0
  0
3DFACE
  8
0
  6
CONTINUOUS
 62
   249
 10
52.895576
 20
190.56
 30
0.0
 11
52.879896
 21
190.56
 31
0.0
 12
52.879896
 22
189.44
 32
0.0
 13
52.895576
 23
189.44
 33
0.0
  0
3DFACE
  8
0
  6
CONTINUOUS
 62
   249
 10
52.879896
 20
190.56
 30
0.0
 11
52.864216
 21
190.56
 31
0.0
 12
52.864216
 22
189.44
 32
0.0
 13
52.879896
 23
189.44
 33
0.0
  0
3DFACE
  8
0
  6
CONTINUOUS
 62
   249
 10
52.864216
 20
190.56
 30
0.0
 11
52.848536
 21
190.56
 31
0.0
 12
52.848536
 22
189.44
 32
0.0
 13
52.864216
 23
189.44
 33
0.0
  0
3DFACE
  8
0
  6
CONTINUOUS
 62
   249
 10
52.848536
 20
190.56
 30
0.0
 11
52.832856
 21
190.56
 31
0.0
 12
52.832856
 22
189.44
 32
0.0
 13
52.848536
 23
189.44
 33
0.0
  0
3DFACE
  8
0
  6
CONTINUOUS
 62
   249
 10
52.832856
 20
190.56
 30
0.0
 11
52.817176
 21
190.56
 31
0.0
 12
52.817176
 22
189.44
 32
0.0
 13
52.832856
 23
189.44
 33
0.0
  0
3DFACE
  8
0
  6
CONTINUOUS
 62
   249
 10
52.817176
 20
190.56
 30
0.0
 11
52.801496
 21
190.56
 31
0.0
 12
52.801496
 22
189.44
 32
0.0
 13
52.817176
 23
189.44
 33
0.0
  0
3DFACE
  8
0
  6
CONTINUOUS
 62
   249
 10
52.801496
 20
190.56
 30
0.0
 11
52.785816
 21
190.56
 31
0.0
 12
52.785816
 22
189.44
 32
0.0
 13
52.801496
 23
189.44
 33
0.0
  0
3DFACE
  8
0
  6
CONTINUOUS
 62
   249
 10
52.785816
 20
190.56
 30
0.0
 11
52.770136
 21
190.56
 31
0.0
 12
52.770136
 22
189.44
 32
0.0
 13
52.785816
 23
189.44
 33
0.0
  0
3DFACE
  8
0
  6
CONTINUOUS
 62
   249
 10
52.770136
 20
190.56
 30
0.0
 11
52.754456
 21
190.56
 31
0.0
 12
52.754456
 22
189.44
 32
0.0
 13
52.770136
 23
189.44
 33
0.0
  0
3DFACE
  8
0
  6
CONTINUOUS
 62
   249
 10
52.754456
 20
190.56
 30
0.0
 11
52.738776
 21
190.56
 31
0.0
 12
52.738776
 22
189.44
 32
0.0
 13
52.754456
 23
189.44
 33
0.0
  0
3DFACE
  8
0
  6
CONTINUOUS
 62
   249
 10
52.738776
 20
190.56
 30
0.0
 11
52.723096
 21
190.56
 31
0.0
 12
52.723096
 22
189.44
 32
0.0
 13
52.738776
 23
189.44
 33
0.0
  0
3DFACE
  8
0
  6
CONTINUOUS
 62
   249
 10
52.723096
 20
190.56
 30
0.0
 11
52.707416
 21
190.56
 31
0.0
 12
52.707416
 22
189.44
 32
0.0
 13
52.723096
 23
189.44
 33
0.0
  0
3DFACE
  8
0
  6
CONTINUOUS
 62
   249
 10
52.707416
 20
190.56
 30
0.0
 11
52.691736
 21
190.56
 31
0.0
 12
52.691736
 22
189.44
 32
0.0
 13
52.707416
 23
189.44
 33
0.0
  0
3DFACE
  8
0
  6
CONTINUOUS
 62
   249
 10
52.691736
 20
190.56
 30
0.0
 11
52.676056
 21
190.56
 31
0.0
 12
52.676056
 22
189.44
 32
0.0
 13
52.691736
 23
189.44
 33
0.0
  0
3DFACE
  8
0
  6
CONTINUOUS
 62
   249
 10
52.676056
 20
190.56
 30
0.0
 11
52.660376
 21
190.56
 31
0.0
 12
52.660376
 22
189.44
 32
0.0
 13
52.676056
 23
189.44
 33
0.0
  0
3DFACE
  8
0
  6
CONTINUOUS
 62
   249
 10
52.660376
 20
190.56
 30
0.0
 11
52.644696
 21
190.56
 31
0.0
 12
52.644696
 22
189.44
 32
0.0
 13
52.660376
 23
189.44
 33
0.0
  0
3DFACE
  8
0
  6
CONTINUOUS
 62
   249
 10
52.644696
 20
190.56
 30
0.0
 11
52.629016
 21
190.56
 31
0.0
 12
52.629016
 22
189.44
 32
0.0
 13
52.644696
 23
189.44
 33
0.0
  0
3DFACE
  8
0
  6
CONTINUOUS
 62
   249
 10
52.629016
 20
190.56
 30
0.0
 11
52.613336
 21
190.56
 31
0.0
 12
52.613336
 22
189.44
 32
0.0
 13
52.629016
 23
189.44
 33
0.0
  0
3DFACE
  8
0
  6
CONTINUOUS
 62
   249
 10
52.613336
 20
190.56
 30
0.0
 11
52.597656
 21
190.56
 31
0.0
 12
52.597656
 22
189.44
 32
0.0
 13
52.613336
 23
189.44
 33
0.0
  0
3DFACE
  8
0
  6
CONTINUOUS
 62
   249
 10
52.597656
 20
190.56
 30
0.0
 11
52.581976
 21
190.56
 31
0.0
 12
52.581976
 22
189.44
 32
0.0
 13
52.597656
 23
189.44
 33
0.0
  0
3DFACE
  8
0
  6
CONTINUOUS
 62
   249
 10
52.581976
 20
190.56
 30
0.0
 11
52.566296
 21
190.56
 31
0.0
 12
52.566296
 22
189.44
 32
0.0
 13
52.581976
 23
189.44
 33
0.0
  0
3DFACE
  8
0
  6
CONTINUOUS
 62
   249
 10
52.566296
 20
190.56
 30
0.0
 11
52.550616
 21
190.56
 31
0.0
 12
52.550616
 22
189.44
 32
0.0
 13
52.566296
 23
189.44
 33
0.0
  0
3DFACE
  8
0
  6
CONTINUOUS
 62
   249
 10
52.550616
 20
190.56
 30
0.0
 11
52.534936
 21
190.56
 31
0.0
 12
52.534936
 22
189.44
 32
0.0
 13
52.550616
 23
189.44
 33
0.0
  0
3DFACE
  8
0
  6
CONTINUOUS
 62
   249
 10
52.534936
 20
190.56
 30
0.0
 11
52.519256
 21
190.56
 31
0.0
 12
52.519256
 22
189.44
 32
0.0
 13
52.534936
 23
189.44
 33
0.0
  0
3DFACE
  8
0
  6
CONTINUOUS
 62
   249
 10
52.519256
 20
190.56
 30
0.0
 11
52.503576
 21
190.56
 31
0.0
 12
52.503576
 22
189.44
 32
0.0
 13
52.519256
 23
189.44
 33
0.0
  0
3DFACE
  8
0
  6
CONTINUOUS
 62
   249
 10
52.503576
 20
190.56
 30
0.0
 11
52.487896
 21
190.56
 31
0.0
 12
52.487896
 22
189.44
 32
0.0
 13
52.503576
 23
189.44
 33
0.0
  0
3DFACE
  8
0
  6
CONTINUOUS
 62
   249
 10
52.487896
 20
190.56
 30
0.0
 11
52.472216
 21
190.56
 31
0.0
 12
52.472216
 22
189.44
 32
0.0
 13
52.487896
 23
189.44
 33
0.0
  0
3DFACE
  8
0
  6
CONTINUOUS
 62
   249
 10
52.472216
 20
190.56
 30
0.0
 11
52.456536
 21
190.56
 31
0.0
 12
52.456536
 22
189.44
 32
0.0
 13
52.472216
 23
189.44
 33
0.0
  0
3DFACE
  8
0
  6
CONTINUOUS
 62
   249
 10
52.456536
 20
190.56
 30
0.0
 11
52.440856
 21
190.56
 31
0.0
 12
52.440856
 22
189.44
 32
0.0
 13
52.456536
 23
189.44
 33
0.0
  0
3DFACE
  8
0
  6
CONTINUOUS
 62
   249
 10
52.440856
 20
190.56
 30
0.0
 11
52.425176
 21
190.56
 31
0.0
 12
52.425176
 22
189.44
 32
0.0
 13
52.440856
 23
189.44
 33
0.0
  0
3DFACE
  8
0
  6
CONTINUOUS
 62
   249
 10
52.425176
 20
190.56
 30
0.0
 11
52.409496
 21
190.56
 31
0.0
 12
52.409496
 22
189.44
 32
0.0
 13
52.425176
 23
189.44
 33
0.0
  0
3DFACE
  8
0
  6
CONTINUOUS
 62
   249
 10
52.409496
 20
190.56
 30
0.0
 11
52.393816
 21
190.56
 31
0.0
 12
52.393816
 22
189.44
 32
0.0
 13
52.409496
 23
189.44
 33
0.0
  0
3DFACE
  8
0
  6
CONTINUOUS
 62
   249
 10
52.393816
 20
190.56
 30
0.0
 11
52.378136
 21
190.56
 31
0.0
 12
52.378136
 22
189.44
 32
0.0
 13
52.393816
 23
189.44
 33
0.0
  0
3DFACE
  8
0
  6
CONTINUOUS
 62
   249
 10
52.378136
 20
190.56
 30
0.0
 11
52.362456
 21
190.56
 31
0.0
 12
52.362456
 22
189.44
 32
0.0
 13
52.378136
 23
189.44
 33
0.0
  0
3DFACE
  8
0
  6
CONTINUOUS
 62
   249
 10
52.362456
 20
190.56
 30
0.0
 11
52.346776
 21
190.56
 31
0.0
 12
52.346776
 22
189.44
 32
0.0
 13
52.362456
 23
189.44
 33
0.0
  0
3DFACE
  8
0
  6
CONTINUOUS
 62
   249
 10
52.346776
 20
190.56
 30
0.0
 11
52.331096
 21
190.56
 31
0.0
 12
52.331096
 22
189.44
 32
0.0
 13
52.346776
 23
189.44
 33
0.0
  0
3DFACE
  8
0
  6
CONTINUOUS
 62
   249
 10
52.331096
 20
190.56
 30
0.0
 11
52.315416
 21
190.56
 31
0.0
 12
52.315416
 22
189.44
 32
0.0
 13
52.331096
 23
189.44
 33
0.0
  0
3DFACE
  8
0
  6
CONTINUOUS
 62
   249
 10
52.315416
 20
190.56
 30
0.0
 11
52.299736
 21
190.56
 31
0.0
 12
52.299736
 22
189.44
 32
0.0
 13
52.315416
 23
189.44
 33
0.0
  0
3DFACE
  8
0
  6
CONTINUOUS
 62
   249
 10
52.299736
 20
190.56
 30
0.0
 11
52.284056
 21
190.56
 31
0.0
 12
52.284056
 22
189.44
 32
0.0
 13
52.299736
 23
189.44
 33
0.0
  0
3DFACE
  8
0
  6
CONTINUOUS
 62
   249
 10
52.284056
 20
190.56
 30
0.0
 11
52.268376
 21
190.56
 31
0.0
 12
52.268376
 22
189.44
 32
0.0
 13
52.284056
 23
189.44
 33
0.0
  0
3DFACE
  8
0
  6
CONTINUOUS
 62
   249
 10
52.268376
 20
190.56
 30
0.0
 11
52.252696
 21
190.56
 31
0.0
 12
52.252696
 22
189.44
 32
0.0
 13
52.268376
 23
189.44
 33
0.0
  0
3DFACE
  8
0
  6
CONTINUOUS
 62
   249
 10
52.252696
 20
190.56
 30
0.0
 11
52.237016
 21
190.56
 31
0.0
 12
52.237016
 22
189.44
 32
0.0
 13
52.252696
 23
189.44
 33
0.0
  0
3DFACE
  8
0
  6
CONTINUOUS
 62
   249
 10
52.237016
 20
190.56
 30
0.0
 11
52.221336
 21
190.56
 31
0.0
 12
52.221336
 22
189.44
 32
0.0
 13
52.237016
 23
189.44
 33
0.0
  0
3DFACE
  8
0
  6
CONTINUOUS
 62
   249
 10
52.221336
 20
190.56
 30
0.0
 11
52.205656
 21
190.56
 31
0.0
 12
52.205656
 22
189.44
 32
0.0
 13
52.221336
 23
189.44
 33
0.0
  0
3DFACE
  8
0
  6
CONTINUOUS
 62
   249
 10
52.205656
 20
190.56
 30
0.0
 11
52.189976
 21
190.56
 31
0.0
 12
52.189976
 22
189.44
 32
0.0
 13
52.205656
 23
189.44
 33
0.0
  0
3DFACE
  8
0
  6
CONTINUOUS
 62
   249
 10
52.189976
 20
190.56
 30
0.0
 11
52.174296
 21
190.56
 31
0.0
 12
52.174296
 22
189.44
 32
0.0
 13
52.189976
 23
189.44
 33
0.0
  0
3DFACE
  8
0
  6
CONTINUOUS
 62
   249
 10
52.174296
 20
190.56
 30
0.0
 11
52.158616
 21
190.56
 31
0.0
 12
52.158616
 22
189.44
 32
0.0
 13
52.174296
 23
189.44
 33
0.0
  0
3DFACE
  8
0
  6
CONTINUOUS
 62
   249
 10
52.158616
 20
190.56
 30
0.0
 11
52.142936
 21
190.56
 31
0.0
 12
52.142936
 22
189.44
 32
0.0
 13
52.158616
 23
189.44
 33
0.0
  0
3DFACE
  8
0
  6
CONTINUOUS
 62
   249
 10
52.142936
 20
190.56
 30
0.0
 11
52.127256
 21
190.56
 31
0.0
 12
52.127256
 22
189.44
 32
0.0
 13
52.142936
 23
189.44
 33
0.0
  0
3DFACE
  8
0
  6
CONTINUOUS
 62
   249
 10
52.127256
 20
190.56
 30
0.0
 11
52.111576
 21
190.56
 31
0.0
 12
52.111576
 22
189.44
 32
0.0
 13
52.127256
 23
189.44
 33
0.0
  0
3DFACE
  8
0
  6
CONTINUOUS
 62
   249
 10
52.111576
 20
190.56
 30
0.0
 11
52.095896
 21
190.56
 31
0.0
 12
52.095896
 22
189.44
 32
0.0
 13
52.111576
 23
189.44
 33
0.0
  0
3DFACE
  8
0
  6
CONTINUOUS
 62
   249
 10
52.095896
 20
190.56
 30
0.0
 11
52.080216
 21
190.56
 31
0.0
 12
52.080216
 22
189.44
 32
0.0
 13
52.095896
 23
189.44
 33
0.0
  0
3DFACE
  8
0
  6
CONTINUOUS
 62
   249
 10
52.080216
 20
190.56
 30
0.0
 11
52.064536
 21
190.56
 31
0.0
 12
52.064536
 22
189.44
 32
0.0
 13
52.080216
 23
189.44
 33
0.0
  0
3DFACE
  8
0
  6
CONTINUOUS
 62
   249
 10
52.064536
 20
190.56
 30
0.0
 11
52.048856
 21
190.56
 31
0.0
 12
52.048856
 22
189.44
 32
0.0
 13
52.064536
 23
189.44
 33
0.0
  0
3DFACE
  8
0
  6
CONTINUOUS
 62
   249
 10
52.048856
 20
190.56
 30
0.0
 11
52.033176
 21
190.56
 31
0.0
 12
52.033176
 22
189.44
 32
0.0
 13
52.048856
 23
189.44
 33
0.0
  0
3DFACE
  8
0
  6
CONTINUOUS
 62
   249
 10
52.033176
 20
190.56
 30
0.0
 11
52.017496
 21
190.56
 31
0.0
 12
52.017496
 22
189.44
 32
0.0
 13
52.033176
 23
189.44
 33
0.0
  0
3DFACE
  8
0
  6
CONTINUOUS
 62
   249
 10
52.017496
 20
190.56
 30
0.0
 11
52.001816
 21
190.56
 31
0.0
 12
52.001816
 22
189.44
 32
0.0
 13
52.017496
 23
189.44
 33
0.0
  0
3DFACE
  8
0
  6
CONTINUOUS
 62
   249
 10
52.001816
 20
190.56
 30
0.0
 11
51.986136
 21
190.56
 31
0.0
 12
51.986136
 22
189.44
 32
0.0
 13
52.001816
 23
189.44
 33
0.0
  0
3DFACE
  8
0
  6
CONTINUOUS
 62
   249
 10
51.986136
 20
190.56
 30
0.0
 11
51.970456
 21
190.56
 31
0.0
 12
51.970456
 22
189.44
 32
0.0
 13
51.986136
 23
189.44
 33
0.0
  0
3DFACE
  8
0
  6
CONTINUOUS
 62
   249
 10
51.970456
 20
190.56
 30
0.0
 11
51.954776
 21
190.56
 31
0.0
 12
51.954776
 22
189.44
 32
0.0
 13
51.970456
 23
189.44
 33
0.0
  0
3DFACE
  8
0
  6
CONTINUOUS
 62
   249
 10
51.954776
 20
190.56
 30
0.0
 11
51.939096
 21
190.56
 31
0.0
 12
51.939096
 22
189.44
 32
0.0
 13
51.954776
 23
189.44
 33
0.0
  0
3DFACE
  8
0
  6
CONTINUOUS
 62
   249
 10
51.939096
 20
190.56
 30
0.0
 11
51.923416
 21
190.56
 31
0.0
 12
51.923416
 22
189.44
 32
0.0
 13
51.939096
 23
189.44
 33
0.0
  0
3DFACE
  8
0
  6
CONTINUOUS
 62
   249
 10
51.923416
 20
190.56
 30
0.0
 11
51.907736
 21
190.56
 31
0.0
 12
51.907736
 22
189.44
 32
0.0
 13
51.923416
 23
189.44
 33
0.0
  0
3DFACE
  8
0
  6
CONTINUOUS
 62
   249
 10
51.907736
 20
190.56
 30
0.0
 11
51.892056
 21
190.56
 31
0.0
 12
51.892056
 22
189.44
 32
0.0
 13
51.907736
 23
189.44
 33
0.0
  0
3DFACE
  8
0
  6
CONTINUOUS
 62
   249
 10
51.892056
 20
190.56
 30
0.0
 11
51.876376
 21
190.56
 31
0.0
 12
51.876376
 22
189.44
 32
0.0
 13
51.892056
 23
189.44
 33
0.0
  0
3DFACE
  8
0
  6
CONTINUOUS
 62
   249
 10
51.876376
 20
190.56
 30
0.0
 11
51.860696
 21
190.56
 31
0.0
 12
51.860696
 22
189.44
 32
0.0
 13
51.876376
 23
189.44
 33
0.0
  0
3DFACE
  8
0
  6
CONTINUOUS
 62
   249
 10
51.860696
 20
190.56
 30
0.0
 11
51.845016
 21
190.56
 31
0.0
 12
51.845016
 22
189.44
 32
0.0
 13
51.860696
 23
189.44
 33
0.0
  0
3DFACE
  8
0
  6
CONTINUOUS
 62
   249
 10
51.845016
 20
190.56
 30
0.0
 11
51.829336
 21
190.56
 31
0.0
 12
51.829336
 22
189.44
 32
0.0
 13
51.845016
 23
189.44
 33
0.0
  0
3DFACE
  8
0
  6
CONTINUOUS
 62
   249
 10
51.829336
 20
190.56
 30
0.0
 11
51.813656
 21
190.56
 31
0.0
 12
51.813656
 22
189.44
 32
0.0
 13
51.829336
 23
189.44
 33
0.0
  0
3DFACE
  8
0
  6
CONTINUOUS
 62
   249
 10
51.813656
 20
190.56
 30
0.0
 11
51.797976
 21
190.56
 31
0.0
 12
51.797976
 22
189.44
 32
0.0
 13
51.813656
 23
189.44
 33
0.0
  0
3DFACE
  8
0
  6
CONTINUOUS
 62
   249
 10
51.797976
 20
190.56
 30
0.0
 11
51.782296
 21
190.56
 31
0.0
 12
51.782296
 22
189.44
 32
0.0
 13
51.797976
 23
189.44
 33
0.0
  0
3DFACE
  8
0
  6
CONTINUOUS
 62
   249
 10
51.782296
 20
190.56
 30
0.0
 11
51.766616
 21
190.56
 31
0.0
 12
51.766616
 22
189.44
 32
0.0
 13
51.782296
 23
189.44
 33
0.0
  0
3DFACE
  8
0
  6
CONTINUOUS
 62
   249
 10
51.766616
 20
190.56
 30
0.0
 11
51.750936
 21
190.56
 31
0.0
 12
51.750936
 22
189.44
 32
0.0
 13
51.766616
 23
189.44
 33
0.0
  0
3DFACE
  8
0
  6
CONTINUOUS
 62
   249
 10
51.750936
 20
190.56
 30
0.0
 11
51.735256
 21
190.56
 31
0.0
 12
51.735256
 22
189.44
 32
0.0
 13
51.750936
 23
189.44
 33
0.0
  0
3DFACE
  8
0
  6
CONTINUOUS
 62
   249
 10
51.735256
 20
190.56
 30
0.0
 11
51.719576
 21
190.56
 31
0.0
 12
51.719576
 22
189.44
 32
0.0
 13
51.735256
 23
189.44
 33
0.0
  0
3DFACE
  8
0
  6
CONTINUOUS
 62
   249
 10
51.719576
 20
190.56
 30
0.0
 11
51.703896
 21
190.56
 31
0.0
 12
51.703896
 22
189.44
 32
0.0
 13
51.719576
 23
189.44
 33
0.0
  0
3DFACE
  8
0
  6
CONTINUOUS
 62
   249
 10
51.703896
 20
190.56
 30
0.0
 11
51.688216
 21
190.56
 31
0.0
 12
51.688216
 22
189.44
 32
0.0
 13
51.703896
 23
189.44
 33
0.0
  0
3DFACE
  8
0
  6
CONTINUOUS
 62
   249
 10
51.688216
 20
190.56
 30
0.0
 11
51.672536
 21
190.56
 31
0.0
 12
51.672536
 22
189.44
 32
0.0
 13
51.688216
 23
189.44
 33
0.0
  0
3DFACE
  8
0
  6
CONTINUOUS
 62
   249
 10
51.672536
 20
190.56
 30
0.0
 11
51.656856
 21
190.56
 31
0.0
 12
51.656856
 22
189.44
 32
0.0
 13
51.672536
 23
189.44
 33
0.0
  0
3DFACE
  8
0
  6
CONTINUOUS
 62
   249
 10
51.656856
 20
190.56
 30
0.0
 11
51.641176
 21
190.56
 31
0.0
 12
51.641176
 22
189.44
 32
0.0
 13
51.656856
 23
189.44
 33
0.0
  0
3DFACE
  8
0
  6
CONTINUOUS
 62
   249
 10
51.641176
 20
190.56
 30
0.0
 11
51.625496
 21
190.56
 31
0.0
 12
51.625496
 22
189.44
 32
0.0
 13
51.641176
 23
189.44
 33
0.0
  0
3DFACE
  8
0
  6
CONTINUOUS
 62
   249
 10
51.625496
 20
190.56
 30
0.0
 11
51.609816
 21
190.56
 31
0.0
 12
51.609816
 22
189.44
 32
0.0
 13
51.625496
 23
189.44
 33
0.0
  0
3DFACE
  8
0
  6
CONTINUOUS
 62
   249
 10
51.609816
 20
190.56
 30
0.0
 11
51.594136
 21
190.56
 31
0.0
 12
51.594136
 22
189.44
 32
0.0
 13
51.609816
 23
189.44
 33
0.0
  0
3DFACE
  8
0
  6
CONTINUOUS
 62
   249
 10
51.594136
 20
190.56
 30
0.0
 11
51.578456
 21
190.56
 31
0.0
 12
51.578456
 22
189.44
 32
0.0
 13
51.594136
 23
189.44
 33
0.0
  0
3DFACE
  8
0
  6
CONTINUOUS
 62
   249
 10
51.578456
 20
190.56
 30
0.0
 11
51.562776
 21
190.56
 31
0.0
 12
51.562776
 22
189.44
 32
0.0
 13
51.578456
 23
189.44
 33
0.0
  0
3DFACE
  8
0
  6
CONTINUOUS
 62
   249
 10
51.562776
 20
190.56
 30
0.0
 11
51.547096
 21
190.56
 31
0.0
 12
51.547096
 22
189.44
 32
0.0
 13
51.562776
 23
189.44
 33
0.0
  0
3DFACE
  8
0
  6
CONTINUOUS
 62
   249
 10
51.547096
 20
190.56
 30
0.0
 11
51.531416
 21
190.56
 31
0.0
 12
51.531416
 22
189.44
 32
0.0
 13
51.547096
 23
189.44
 33
0.0
  0
3DFACE
  8
0
  6
CONTINUOUS
 62
   249
 10
51.531416
 20
190.56
 30
0.0
 11
51.515736
 21
190.56
 31
0.0
 12
51.515736
 22
189.44
 32
0.0
 13
51.531416
 23
189.44
 33
0.0
  0
3DFACE
  8
0
  6
CONTINUOUS
 62
   249
 10
51.515736
 20
190.56
 30
0.0
 11
51.500056
 21
190.56
 31
0.0
 12
51.500056
 22
189.44
 32
0.0
 13
51.515736
 23
189.44
 33
0.0
  0
3DFACE
  8
0
  6
CONTINUOUS
 62
   249
 10
51.500056
 20
190.56
 30
0.0
 11
51.484376
 21
190.56
 31
0.0
 12
51.484376
 22
189.44
 32
0.0
 13
51.500056
 23
189.44
 33
0.0
  0
3DFACE
  8
0
  6
CONTINUOUS
 62
   249
 10
51.484376
 20
190.56
 30
0.0
 11
51.468696
 21
190.56
 31
0.0
 12
51.468696
 22
189.44
 32
0.0
 13
51.484376
 23
189.44
 33
0.0
  0
3DFACE
  8
0
  6
CONTINUOUS
 62
   249
 10
51.468696
 20
190.56
 30
0.0
 11
51.453016
 21
190.56
 31
0.0
 12
51.453016
 22
189.44
 32
0.0
 13
51.468696
 23
189.44
 33
0.0
  0
3DFACE
  8
0
  6
CONTINUOUS
 62
   249
 10
51.453016
 20
190.56
 30
0.0
 11
51.437336
 21
190.56
 31
0.0
 12
51.437336
 22
189.44
 32
0.0
 13
51.453016
 23
189.44
 33
0.0
  0
3DFACE
  8
0
  6
CONTINUOUS
 62
   249
 10
51.437336
 20
190.56
 30
0.0
 11
51.421656
 21
190.56
 31
0.0
 12
51.421656
 22
189.44
 32
0.0
 13
51.437336
 23
189.44
 33
0.0
  0
3DFACE
  8
0
  6
CONTINUOUS
 62
   249
 10
51.421656
 20
190.56
 30
0.0
 11
51.405976
 21
190.56
 31
0.0
 12
51.405976
 22
189.44
 32
0.0
 13
51.421656
 23
189.44
 33
0.0
  0
3DFACE
  8
0
  6
CONTINUOUS
 62
   249
 10
51.405976
 20
190.56
 30
0.0
 11
51.390296
 21
190.56
 31
0.0
 12
51.390296
 22
189.44
 32
0.0
 13
51.405976
 23
189.44
 33
0.0
  0
3DFACE
  8
0
  6
CONTINUOUS
 62
   249
 10
51.390296
 20
190.56
 30
0.0
 11
51.374616
 21
190.56
 31
0.0
 12
51.374616
 22
189.44
 32
0.0
 13
51.390296
 23
189.44
 33
0.0
  0
3DFACE
  8
0
  6
CONTINUOUS
 62
   249
 10
51.374616
 20
190.56
 30
0.0
 11
51.358936
 21
190.56
 31
0.0
 12
51.358936
 22
189.44
 32
0.0
 13
51.374616
 23
189.44
 33
0.0
  0
3DFACE
  8
0
  6
CONTINUOUS
 62
   249
 10
51.358936
 20
190.56
 30
0.0
 11
51.343256
 21
190.56
 31
0.0
 12
51.343256
 22
189.44
 32
0.0
 13
51.358936
 23
189.44
 33
0.0
  0
3DFACE
  8
0
  6
CONTINUOUS
 62
   249
 10
51.343256
 20
190.56
 30
0.0
 11
51.327576
 21
190.56
 31
0.0
 12
51.327576
 22
189.44
 32
0.0
 13
51.343256
 23
189.44
 33
0.0
  0
3DFACE
  8
0
  6
CONTINUOUS
 62
   249
 10
51.327576
 20
190.56
 30
0.0
 11
51.311896
 21
190.56
 31
0.0
 12
51.311896
 22
189.44
 32
0.0
 13
51.327576
 23
189.44
 33
0.0
  0
3DFACE
  8
0
  6
CONTINUOUS
 62
   249
 10
51.311896
 20
190.56
 30
0.0
 11
51.296216
 21
190.56
 31
0.0
 12
51.296216
 22
189.44
 32
0.0
 13
51.311896
 23
189.44
 33
0.0
  0
3DFACE
  8
0
  6
CONTINUOUS
 62
   249
 10
51.296216
 20
190.56
 30
0.0
 11
51.280536
 21
190.56
 31
0.0
 12
51.280536
 22
189.44
 32
0.0
 13
51.296216
 23
189.44
 33
0.0
  0
3DFACE
  8
0
  6
CONTINUOUS
 62
   249
 10
51.280536
 20
190.56
 30
0.0
 11
51.264856
 21
190.56
 31
0.0
 12
51.264856
 22
189.44
 32
0.0
 13
51.280536
 23
189.44
 33
0.0
  0
3DFACE
  8
0
  6
CONTINUOUS
 62
   249
 10
51.264856
 20
190.56
 30
0.0
 11
51.249176
 21
190.56
 31
0.0
 12
51.249176
 22
189.44
 32
0.0
 13
51.264856
 23
189.44
 33
0.0
  0
3DFACE
  8
0
  6
CONTINUOUS
 62
   249
 10
51.249176
 20
190.56
 30
0.0
 11
51.233496
 21
190.56
 31
0.0
 12
51.233496
 22
189.44
 32
0.0
 13
51.249176
 23
189.44
 33
0.0
  0
3DFACE
  8
0
  6
CONTINUOUS
 62
   249
 10
51.233496
 20
190.56
 30
0.0
 11
51.217816
 21
190.56
 31
0.0
 12
51.217816
 22
189.44
 32
0.0
 13
51.233496
 23
189.44
 33
0.0
  0
3DFACE
  8
0
  6
CONTINUOUS
 62
   249
 10
51.217816
 20
190.56
 30
0.0
 11
51.202136
 21
190.56
 31
0.0
 12
51.202136
 22
189.44
 32
0.0
 13
51.217816
 23
189.44
 33
0.0
  0
3DFACE
  8
0
  6
CONTINUOUS
 62
   249
 10
51.202136
 20
190.56
 30
0.0
 11
51.186456
 21
190.56
 31
0.0
 12
51.186456
 22
189.44
 32
0.0
 13
51.202136
 23
189.44
 33
0.0
  0
3DFACE
  8
0
  6
CONTINUOUS
 62
   249
 10
51.186456
 20
190.56
 30
0.0
 11
51.170776
 21
190.56
 31
0.0
 12
51.170776
 22
189.44
 32
0.0
 13
51.186456
 23
189.44
 33
0.0
  0
3DFACE
  8
0
  6
CONTINUOUS
 62
   249
 10
51.170776
 20
190.56
 30
0.0
 11
51.155096
 21
190.56
 31
0.0
 12
51.155096
 22
189.44
 32
0.0
 13
51.170776
 23
189.44
 33
0.0
  0
3DFACE
  8
0
  6
CONTINUOUS
 62
   249
 10
51.155096
 20
190.56
 30
0.0
 11
51.139416
 21
190.56
 31
0.0
 12
51.139416
 22
189.44
 32
0.0
 13
51.155096
 23
189.44
 33
0.0
  0
3DFACE
  8
0
  6
CONTINUOUS
 62
   249
 10
51.139416
 20
190.56
 30
0.0
 11
51.123736
 21
190.56
 31
0.0
 12
51.123736
 22
189.44
 32
0.0
 13
51.139416
 23
189.44
 33
0.0
  0
3DFACE
  8
0
  6
CONTINUOUS
 62
   249
 10
51.123736
 20
190.56
 30
0.0
 11
51.108056
 21
190.56
 31
0.0
 12
51.108056
 22
189.44
 32
0.0
 13
51.123736
 23
189.44
 33
0.0
  0
3DFACE
  8
0
  6
CONTINUOUS
 62
   249
 10
51.108056
 20
190.56
 30
0.0
 11
51.092376
 21
190.56
 31
0.0
 12
51.092376
 22
189.44
 32
0.0
 13
51.108056
 23
189.44
 33
0.0
  0
3DFACE
  8
0
  6
CONTINUOUS
 62
   249
 10
51.092376
 20
190.56
 30
0.0
 11
51.076696
 21
190.56
 31
0.0
 12
51.076696
 22
189.44
 32
0.0
 13
51.092376
 23
189.44
 33
0.0
  0
3DFACE
  8
0
  6
CONTINUOUS
 62
   249
 10
51.076696
 20
190.56
 30
0.0
 11
51.061016
 21
190.56
 31
0.0
 12
51.061016
 22
189.44
 32
0.0
 13
51.076696
 23
189.44
 33
0.0
  0
3DFACE
  8
0
  6
CONTINUOUS
 62
   249
 10
51.061016
 20
190.56
 30
0.0
 11
51.045336
 21
190.56
 31
0.0
 12
51.045336
 22
189.44
 32
0.0
 13
51.061016
 23
189.44
 33
0.0
  0
3DFACE
  8
0
  6
CONTINUOUS
 62
   249
 10
51.045336
 20
190.56
 30
0.0
 11
51.029656
 21
190.56
 31
0.0
 12
51.029656
 22
189.44
 32
0.0
 13
51.045336
 23
189.44
 33
0.0
  0
3DFACE
  8
0
  6
CONTINUOUS
 62
   249
 10
51.029656
 20
190.56
 30
0.0
 11
51.013976
 21
190.56
 31
0.0
 12
51.013976
 22
189.44
 32
0.0
 13
51.029656
 23
189.44
 33
0.0
  0
3DFACE
  8
0
  6
CONTINUOUS
 62
   249
 10
51.013976
 20
190.56
 30
0.0
 11
50.998296
 21
190.56
 31
0.0
 12
50.998296
 22
189.44
 32
0.0
 13
51.013976
 23
189.44
 33
0.0
  0
3DFACE
  8
0
  6
CONTINUOUS
 62
   249
 10
50.998296
 20
190.56
 30
0.0
 11
50.982616
 21
190.56
 31
0.0
 12
50.982616
 22
189.44
 32
0.0
 13
50.998296
 23
189.44
 33
0.0
  0
3DFACE
  8
0
  6
CONTINUOUS
 62
   249
 10
50.982616
 20
190.56
 30
0.0
 11
50.966936
 21
190.56
 31
0.0
 12
50.966936
 22
189.44
 32
0.0
 13
50.982616
 23
189.44
 33
0.0
  0
3DFACE
  8
0
  6
CONTINUOUS
 62
   249
 10
50.966936
 20
190.56
 30
0.0
 11
50.951256
 21
190.56
 31
0.0
 12
50.951256
 22
189.44
 32
0.0
 13
50.966936
 23
189.44
 33
0.0
  0
3DFACE
  8
0
  6
CONTINUOUS
 62
   249
 10
50.951256
 20
190.56
 30
0.0
 11
50.935576
 21
190.56
 31
0.0
 12
50.935576
 22
189.44
 32
0.0
 13
50.951256
 23
189.44
 33
0.0
  0
3DFACE
  8
0
  6
CONTINUOUS
 62
   249
 10
50.935576
 20
190.56
 30
0.0
 11
50.919896
 21
190.56
 31
0.0
 12
50.919896
 22
189.44
 32
0.0
 13
50.935576
 23
189.44
 33
0.0
  0
3DFACE
  8
0
  6
CONTINUOUS
 62
   249
 10
50.919896
 20
190.56
 30
0.0
 11
50.904216
 21
190.56
 31
0.0
 12
50.904216
 22
189.44
 32
0.0
 13
50.919896
 23
189.44
 33
0.0
  0
3DFACE
  8
0
  6
CONTINUOUS
 62
   249
 10
50.904216
 20
190.56
 30
0.0
 11
50.888536
 21
190.56
 31
0.0
 12
50.888536
 22
189.44
 32
0.0
 13
50.904216
 23
189.44
 33
0.0
  0
3DFACE
  8
0
  6
CONTINUOUS
 62
   249
 10
50.888536
 20
190.56
 30
0.0
 11
50.872856
 21
190.56
 31
0.0
 12
50.872856
 22
189.44
 32
0.0
 13
50.888536
 23
189.44
 33
0.0
  0
3DFACE
  8
0
  6
CONTINUOUS
 62
   249
 10
50.872856
 20
190.56
 30
0.0
 11
50.857176
 21
190.56
 31
0.0
 12
50.857176
 22
189.44
 32
0.0
 13
50.872856
 23
189.44
 33
0.0
  0
3DFACE
  8
0
  6
CONTINUOUS
 62
   249
 10
50.857176
 20
190.56
 30
0.0
 11
50.841496
 21
190.56
 31
0.0
 12
50.841496
 22
189.44
 32
0.0
 13
50.857176
 23
189.44
 33
0.0
  0
3DFACE
  8
0
  6
CONTINUOUS
 62
   249
 10
50.841496
 20
190.56
 30
0.0
 11
50.825816
 21
190.56
 31
0.0
 12
50.825816
 22
189.44
 32
0.0
 13
50.841496
 23
189.44
 33
0.0
  0
3DFACE
  8
0
  6
CONTINUOUS
 62
   249
 10
50.825816
 20
190.56
 30
0.0
 11
50.810136
 21
190.56
 31
0.0
 12
50.810136
 22
189.44
 32
0.0
 13
50.825816
 23
189.44
 33
0.0
  0
3DFACE
  8
0
  6
CONTINUOUS
 62
   249
 10
50.810136
 20
190.56
 30
0.0
 11
50.794456
 21
190.56
 31
0.0
 12
50.794456
 22
189.44
 32
0.0
 13
50.810136
 23
189.44
 33
0.0
  0
3DFACE
  8
0
  6
CONTINUOUS
 62
   249
 10
50.794456
 20
190.56
 30
0.0
 11
50.778776
 21
190.56
 31
0.0
 12
50.778776
 22
189.44
 32
0.0
 13
50.794456
 23
189.44
 33
0.0
  0
3DFACE
  8
0
  6
CONTINUOUS
 62
   249
 10
50.778776
 20
190.56
 30
0.0
 11
50.763096
 21
190.56
 31
0.0
 12
50.763096
 22
189.44
 32
0.0
 13
50.778776
 23
189.44
 33
0.0
  0
3DFACE
  8
0
  6
CONTINUOUS
 62
   249
 10
50.763096
 20
190.56
 30
0.0
 11
50.747416
 21
190.56
 31
0.0
 12
50.747416
 22
189.44
 32
0.0
 13
50.763096
 23
189.44
 33
0.0
  0
3DFACE
  8
0
  6
CONTINUOUS
 62
   249
 10
50.747416
 20
190.56
 30
0.0
 11
50.731736
 21
190.56
 31
0.0
 12
50.731736
 22
189.44
 32
0.0
 13
50.747416
 23
189.44
 33
0.0
  0
3DFACE
  8
0
  6
CONTINUOUS
 62
   249
 10
50.731736
 20
190.56
 30
0.0
 11
50.716056
 21
190.56
 31
0.0
 12
50.716056
 22
189.44
 32
0.0
 13
50.731736
 23
189.44
 33
0.0
  0
3DFACE
  8
0
  6
CONTINUOUS
 62
   249
 10
50.716056
 20
190.56
 30
0.0
 11
50.700376
 21
190.56
 31
0.0
 12
50.700376
 22
189.44
 32
0.0
 13
50.716056
 23
189.44
 33
0.0
  0
3DFACE
  8
0
  6
CONTINUOUS
 62
   249
 10
50.700376
 20
190.56
 30
0.0
 11
50.684696
 21
190.56
 31
0.0
 12
50.684696
 22
189.44
 32
0.0
 13
50.700376
 23
189.44
 33
0.0
  0
3DFACE
  8
0
  6
CONTINUOUS
 62
   249
 10
50.684696
 20
190.56
 30
0.0
 11
50.669016
 21
190.56
 31
0.0
 12
50.669016
 22
189.44
 32
0.0
 13
50.684696
 23
189.44
 33
0.0
  0
3DFACE
  8
0
  6
CONTINUOUS
 62
   249
 10
50.669016
 20
190.56
 30
0.0
 11
50.653336
 21
190.56
 31
0.0
 12
50.653336
 22
189.44
 32
0.0
 13
50.669016
 23
189.44
 33
0.0
  0
3DFACE
  8
0
  6
CONTINUOUS
 62
   249
 10
50.653336
 20
190.56
 30
0.0
 11
50.637656
 21
190.56
 31
0.0
 12
50.637656
 22
189.44
 32
0.0
 13
50.653336
 23
189.44
 33
0.0
  0
3DFACE
  8
0
  6
CONTINUOUS
 62
   249
 10
50.637656
 20
190.56
 30
0.0
 11
50.621976
 21
190.56
 31
0.0
 12
50.621976
 22
189.44
 32
0.0
 13
50.637656
 23
189.44
 33
0.0
  0
3DFACE
  8
0
  6
CONTINUOUS
 62
   249
 10
50.621976
 20
190.56
 30
0.0
 11
50.606296
 21
190.56
 31
0.0
 12
50.606296
 22
189.44
 32
0.0
 13
50.621976
 23
189.44
 33
0.0
  0
3DFACE
  8
0
  6
CONTINUOUS
 62
   249
 10
50.606296
 20
190.56
 30
0.0
 11
50.590616
 21
190.56
 31
0.0
 12
50.590616
 22
189.44
 32
0.0
 13
50.606296
 23
189.44
 33
0.0
  0
3DFACE
  8
0
  6
CONTINUOUS
 62
   249
 10
50.590616
 20
190.56
 30
0.0
 11
50.574936
 21
190.56
 31
0.0
 12
50.574936
 22
189.44
 32
0.0
 13
50.590616
 23
189.44
 33
0.0
  0
3DFACE
  8
0
  6
CONTINUOUS
 62
   249
 10
50.574936
 20
190.56
 30
0.0
 11
50.559256
 21
190.56
 31
0.0
 12
50.559256
 22
189.44
 32
0.0
 13
50.574936
 23
189.44
 33
0.0
  0
3DFACE
  8
0
  6
CONTINUOUS
 62
   249
 10
50.559256
 20
190.56
 30
0.0
 11
50.543576
 21
190.56
 31
0.0
 12
50.543576
 22
189.44
 32
0.0
 13
50.559256
 23
189.44
 33
0.0
  0
3DFACE
  8
0
  6
CONTINUOUS
 62
   249
 10
50.543576
 20
190.56
 30
0.0
 11
50.527896
 21
190.56
 31
0.0
 12
50.527896
 22
189.44
 32
0.0
 13
50.543576
 23
189.44
 33
0.0
  0
3DFACE
  8
0
  6
CONTINUOUS
 62
   249
 10
50.527896
 20
190.56
 30
0.0
 11
50.512216
 21
190.56
 31
0.0
 12
50.512216
 22
189.44
 32
0.0
 13
50.527896
 23
189.44
 33
0.0
  0
3DFACE
  8
0
  6
CONTINUOUS
 62
   249
 10
50.512216
 20
190.56
 30
0.0
 11
50.496536
 21
190.56
 31
0.0
 12
50.496536
 22
189.44
 32
0.0
 13
50.512216
 23
189.44
 33
0.0
  0
3DFACE
  8
0
  6
CONTINUOUS
 62
   249
 10
50.496536
 20
190.56
 30
0.0
 11
50.480856
 21
190.56
 31
0.0
 12
50.480856
 22
189.44
 32
0.0
 13
50.496536
 23
189.44
 33
0.0
  0
3DFACE
  8
0
  6
CONTINUOUS
 62
   249
 10
50.480856
 20
190.56
 30
0.0
 11
50.465176
 21
190.56
 31
0.0
 12
50.465176
 22
189.44
 32
0.0
 13
50.480856
 23
189.44
 33
0.0
  0
3DFACE
  8
0
  6
CONTINUOUS
 62
   249
 10
50.465176
 20
190.56
 30
0.0
 11
50.449496
 21
190.56
 31
0.0
 12
50.449496
 22
189.44
 32
0.0
 13
50.465176
 23
189.44
 33
0.0
  0
3DFACE
  8
0
  6
CONTINUOUS
 62
   249
 10
50.449496
 20
190.56
 30
0.0
 11
50.433816
 21
190.56
 31
0.0
 12
50.433816
 22
189.44
 32
0.0
 13
50.449496
 23
189.44
 33
0.0
  0
3DFACE
  8
0
  6
CONTINUOUS
 62
   249
 10
50.433816
 20
190.56
 30
0.0
 11
50.418136
 21
190.56
 31
0.0
 12
50.418136
 22
189.44
 32
0.0
 13
50.433816
 23
189.44
 33
0.0
  0
3DFACE
  8
0
  6
CONTINUOUS
 62
   249
 10
50.418136
 20
190.56
 30
0.0
 11
50.402456
 21
190.56
 31
0.0
 12
50.402456
 22
189.44
 32
0.0
 13
50.418136
 23
189.44
 33
0.0
  0
3DFACE
  8
0
  6
CONTINUOUS
 62
   249
 10
50.402456
 20
190.56
 30
0.0
 11
50.386776
 21
190.56
 31
0.0
 12
50.386776
 22
189.44
 32
0.0
 13
50.402456
 23
189.44
 33
0.0
  0
3DFACE
  8
0
  6
CONTINUOUS
 62
   249
 10
50.386776
 20
190.56
 30
0.0
 11
50.371096
 21
190.56
 31
0.0
 12
50.371096
 22
189.44
 32
0.0
 13
50.386776
 23
189.44
 33
0.0
  0
3DFACE
  8
0
  6
CONTINUOUS
 62
   249
 10
50.371096
 20
190.56
 30
0.0
 11
50.355416
 21
190.56
 31
0.0
 12
50.355416
 22
189.44
 32
0.0
 13
50.371096
 23
189.44
 33
0.0
  0
3DFACE
  8
0
  6
CONTINUOUS
 62
   249
 10
50.355416
 20
190.56
 30
0.0
 11
50.339736
 21
190.56
 31
0.0
 12
50.339736
 22
189.44
 32
0.0
 13
50.355416
 23
189.44
 33
0.0
  0
3DFACE
  8
0
  6
CONTINUOUS
 62
   249
 10
50.339736
 20
190.56
 30
0.0
 11
50.324056
 21
190.56
 31
0.0
 12
50.324056
 22
189.44
 32
0.0
 13
50.339736
 23
189.44
 33
0.0
  0
3DFACE
  8
0
  6
CONTINUOUS
 62
   249
 10
50.324056
 20
190.56
 30
0.0
 11
50.308376
 21
190.56
 31
0.0
 12
50.308376
 22
189.44
 32
0.0
 13
50.324056
 23
189.44
 33
0.0
  0
3DFACE
  8
0
  6
CONTINUOUS
 62
   249
 10
50.308376
 20
190.56
 30
0.0
 11
50.292696
 21
190.56
 31
0.0
 12
50.292696
 22
189.44
 32
0.0
 13
50.308376
 23
189.44
 33
0.0
  0
3DFACE
  8
0
  6
CONTINUOUS
 62
   249
 10
50.292696
 20
190.56
 30
0.0
 11
50.277016
 21
190.56
 31
0.0
 12
50.277016
 22
189.44
 32
0.0
 13
50.292696
 23
189.44
 33
0.0
  0
3DFACE
  8
0
  6
CONTINUOUS
 62
   249
 10
50.277016
 20
190.56
 30
0.0
 11
50.261336
 21
190.56
 31
0.0
 12
50.261336
 22
189.44
 32
0.0
 13
50.277016
 23
189.44
 33
0.0
  0
3DFACE
  8
0
  6
CONTINUOUS
 62
   249
 10
50.261336
 20
190.56
 30
0.0
 11
50.245656
 21
190.56
 31
0.0
 12
50.245656
 22
189.44
 32
0.0
 13
50.261336
 23
189.44
 33
0.0
  0
3DFACE
  8
0
  6
CONTINUOUS
 62
   249
 10
50.245656
 20
190.56
 30
0.0
 11
50.229976
 21
190.56
 31
0.0
 12
50.229976
 22
189.44
 32
0.0
 13
50.245656
 23
189.44
 33
0.0
  0
3DFACE
  8
0
  6
CONTINUOUS
 62
   249
 10
50.229976
 20
190.56
 30
0.0
 11
50.214296
 21
190.56
 31
0.0
 12
50.214296
 22
189.44
 32
0.0
 13
50.229976
 23
189.44
 33
0.0
  0
3DFACE
  8
0
  6
CONTINUOUS
 62
   249
 10
50.214296
 20
190.56
 30
0.0
 11
50.198616
 21
190.56
 31
0.0
 12
50.198616
 22
189.44
 32
0.0
 13
50.214296
 23
189.44
 33
0.0
  0
3DFACE
  8
0
  6
CONTINUOUS
 62
   249
 10
50.198616
 20
190.56
 30
0.0
 11
50.182936
 21
190.56
 31
0.0
 12
50.182936
 22
189.44
 32
0.0
 13
50.198616
 23
189.44
 33
0.0
  0
3DFACE
  8
0
  6
CONTINUOUS
 62
   249
 10
50.182936
 20
190.56
 30
0.0
 11
50.167256
 21
190.56
 31
0.0
 12
50.167256
 22
189.44
 32
0.0
 13
50.182936
 23
189.44
 33
0.0
  0
3DFACE
  8
0
  6
CONTINUOUS
 62
   249
 10
50.167256
 20
190.56
 30
0.0
 11
50.151576
 21
190.56
 31
0.0
 12
50.151576
 22
189.44
 32
0.0
 13
50.167256
 23
189.44
 33
0.0
  0
3DFACE
  8
0
  6
CONTINUOUS
 62
   249
 10
50.151576
 20
190.56
 30
0.0
 11
50.135896
 21
190.56
 31
0.0
 12
50.135896
 22
189.44
 32
0.0
 13
50.151576
 23
189.44
 33
0.0
  0
3DFACE
  8
0
  6
CONTINUOUS
 62
   249
 10
50.135896
 20
190.56
 30
0.0
 11
50.120216
 21
190.56
 31
0.0
 12
50.120216
 22
189.44
 32
0.0
 13
50.135896
 23
189.44
 33
0.0
  0
3DFACE
  8
0
  6
CONTINUOUS
 62
   249
 10
50.120216
 20
190.56
 30
0.0
 11
50.104536
 21
190.56
 31
0.0
 12
50.104536
 22
189.44
 32
0.0
 13
50.120216
 23
189.44
 33
0.0
  0
3DFACE
  8
0
  6
CONTINUOUS
 62
   249
 10
50.104536
 20
190.56
 30
0.0
 11
50.088856
 21
190.56
 31
0.0
 12
50.088856
 22
189.44
 32
0.0
 13
50.104536
 23
189.44
 33
0.0
  0
3DFACE
  8
0
  6
CONTINUOUS
 62
   249
 10
50.088856
 20
190.56
 30
0.0
 11
50.073176
 21
190.56
 31
0.0
 12
50.073176
 22
189.44
 32
0.0
 13
50.088856
 23
189.44
 33
0.0
  0
3DFACE
  8
0
  6
CONTINUOUS
 62
   249
 10
50.073176
 20
190.56
 30
0.0
 11
50.057496
 21
190.56
 31
0.0
 12
50.057496
 22
189.44
 32
0.0
 13
50.073176
 23
189.44
 33
0.0
  0
3DFACE
  8
0
  6
CONTINUOUS
 62
   249
 10
50.057496
 20
190.56
 30
0.0
 11
50.041816
 21
190.56
 31
0.0
 12
50.041816
 22
189.44
 32
0.0
 13
50.057496
 23
189.44
 33
0.0
  0
3DFACE
  8
0
  6
CONTINUOUS
 62
   249
 10
50.041816
 20
190.56
 30
0.0
 11
50.026136
 21
190.56
 31
0.0
 12
50.026136
 22
189.44
 32
0.0
 13
50.041816
 23
189.44
 33
0.0
  0
3DFACE
  8
0
  6
CONTINUOUS
 62
   249
 10
50.026136
 20
190.56
 30
0.0
 11
50.010456
 21
190.56
 31
0.0
 12
50.010456
 22
189.44
 32
0.0
 13
50.026136
 23
189.44
 33
0.0
  0
3DFACE
  8
0
  6
CONTINUOUS
 62
   249
 10
50.010456
 20
190.56
 30
0.0
 11
49.994776
 21
190.56
 31
0.0
 12
49.994776
 22
189.44
 32
0.0
 13
50.010456
 23
189.44
 33
0.0
  0
3DFACE
  8
0
  6
CONTINUOUS
 62
   249
 10
49.994776
 20
190.56
 30
0.0
 11
49.979096
 21
190.56
 31
0.0
 12
49.979096
 22
189.44
 32
0.0
 13
49.994776
 23
189.44
 33
0.0
  0
3DFACE
  8
0
  6
CONTINUOUS
 62
   249
 10
49.979096
 20
190.56
 30
0.0
 11
49.963416
 21
190.56
 31
0.0
 12
49.963416
 22
189.44
 32
0.0
 13
49.979096
 23
189.44
 33
0.0
  0
3DFACE
  8
0
  6
CONTINUOUS
 62
   249
 10
49.963416
 20
190.56
 30
0.0
 11
49.947736
 21
190.56
 31
0.0
 12
49.947736
 22
189.44
 32
0.0
 13
49.963416
 23
189.44
 33
0.0
  0
3DFACE
  8
0
  6
CONTINUOUS
 62
   249
 10
49.947736
 20
190.56
 30
0.0
 11
49.932056
 21
190.56
 31
0.0
 12
49.932056
 22
189.44
 32
0.0
 13
49.947736
 23
189.44
 33
0.0
  0
3DFACE
  8
0
  6
CONTINUOUS
 62
   249
 10
49.932056
 20
190.56
 30
0.0
 11
49.916376
 21
190.56
 31
0.0
 12
49.916376
 22
189.44
 32
0.0
 13
49.932056
 23
189.44
 33
0.0
  0
3DFACE
  8
0
  6
CONTINUOUS
 62
   249
 10
49.916376
 20
190.56
 30
0.0
 11
49.900696
 21
190.56
 31
0.0
 12
49.900696
 22
189.44
 32
0.0
 13
49.916376
 23
189.44
 33
0.0
  0
3DFACE
  8
0
  6
CONTINUOUS
 62
   249
 10
49.900696
 20
190.56
 30
0.0
 11
49.885016
 21
190.56
 31
0.0
 12
49.885016
 22
189.44
 32
0.0
 13
49.900696
 23
189.44
 33
0.0
  0
3DFACE
  8
0
  6
CONTINUOUS
 62
   249
 10
49.885016
 20
190.56
 30
0.0
 11
49.869336
 21
190.56
 31
0.0
 12
49.869336
 22
189.44
 32
0.0
 13
49.885016
 23
189.44
 33
0.0
  0
3DFACE
  8
0
  6
CONTINUOUS
 62
   249
 10
49.869336
 20
190.56
 30
0.0
 11
49.853656
 21
190.56
 31
0.0
 12
49.853656
 22
189.44
 32
0.0
 13
49.869336
 23
189.44
 33
0.0
  0
3DFACE
  8
0
  6
CONTINUOUS
 62
   249
 10
49.853656
 20
190.56
 30
0.0
 11
49.837976
 21
190.56
 31
0.0
 12
49.837976
 22
189.44
 32
0.0
 13
49.853656
 23
189.44
 33
0.0
  0
3DFACE
  8
0
  6
CONTINUOUS
 62
   249
 10
49.837976
 20
190.56
 30
0.0
 11
49.822296
 21
190.56
 31
0.0
 12
49.822296
 22
189.44
 32
0.0
 13
49.837976
 23
189.44
 33
0.0
  0
3DFACE
  8
0
  6
CONTINUOUS
 62
   249
 10
49.822296
 20
190.56
 30
0.0
 11
49.806616
 21
190.56
 31
0.0
 12
49.806616
 22
189.44
 32
0.0
 13
49.822296
 23
189.44
 33
0.0
  0
3DFACE
  8
0
  6
CONTINUOUS
 62
   249
 10
49.806616
 20
190.56
 30
0.0
 11
49.790936
 21
190.56
 31
0.0
 12
49.790936
 22
189.44
 32
0.0
 13
49.806616
 23
189.44
 33
0.0
  0
3DFACE
  8
0
  6
CONTINUOUS
 62
   249
 10
49.790936
 20
190.56
 30
0.0
 11
49.775256
 21
190.56
 31
0.0
 12
49.775256
 22
189.44
 32
0.0
 13
49.790936
 23
189.44
 33
0.0
  0
3DFACE
  8
0
  6
CONTINUOUS
 62
   249
 10
49.775256
 20
190.56
 30
0.0
 11
49.759576
 21
190.56
 31
0.0
 12
49.759576
 22
189.44
 32
0.0
 13
49.775256
 23
189.44
 33
0.0
  0
3DFACE
  8
0
  6
CONTINUOUS
 62
   249
 10
49.759576
 20
190.56
 30
0.0
 11
49.743896
 21
190.56
 31
0.0
 12
49.743896
 22
189.44
 32
0.0
 13
49.759576
 23
189.44
 33
0.0
  0
3DFACE
  8
0
  6
CONTINUOUS
 62
   249
 10
49.743896
 20
190.56
 30
0.0
 11
49.728216
 21
190.56
 31
0.0
 12
49.728216
 22
189.44
 32
0.0
 13
49.743896
 23
189.44
 33
0.0
  0
3DFACE
  8
0
  6
CONTINUOUS
 62
   249
 10
49.728216
 20
190.56
 30
0.0
 11
49.712536
 21
190.56
 31
0.0
 12
49.712536
 22
189.44
 32
0.0
 13
49.728216
 23
189.44
 33
0.0
  0
3DFACE
  8
0
  6
CONTINUOUS
 62
   249
 10
49.712536
 20
190.56
 30
0.0
 11
49.696856
 21
190.56
 31
0.0
 12
49.696856
 22
189.44
 32
0.0
 13
49.712536
 23
189.44
 33
0.0
  0
3DFACE
  8
0
  6
CONTINUOUS
 62
   249
 10
49.696856
 20
190.56
 30
0.0
 11
49.681176
 21
190.56
 31
0.0
 12
49.681176
 22
189.44
 32
0.0
 13
49.696856
 23
189.44
 33
0.0
  0
3DFACE
  8
0
  6
CONTINUOUS
 62
   249
 10
49.681176
 20
190.56
 30
0.0
 11
49.665496
 21
190.56
 31
0.0
 12
49.665496
 22
189.44
 32
0.0
 13
49.681176
 23
189.44
 33
0.0
  0
3DFACE
  8
0
  6
CONTINUOUS
 62
   249
 10
49.665496
 20
190.56
 30
0.0
 11
49.649816
 21
190.56
 31
0.0
 12
49.649816
 22
189.44
 32
0.0
 13
49.665496
 23
189.44
 33
0.0
  0
3DFACE
  8
0
  6
CONTINUOUS
 62
   249
 10
49.649816
 20
190.56
 30
0.0
 11
49.634136
 21
190.56
 31
0.0
 12
49.634136
 22
189.44
 32
0.0
 13
49.649816
 23
189.44
 33
0.0
  0
3DFACE
  8
0
  6
CONTINUOUS
 62
   249
 10
49.634136
 20
190.56
 30
0.0
 11
49.618456
 21
190.56
 31
0.0
 12
49.618456
 22
189.44
 32
0.0
 13
49.634136
 23
189.44
 33
0.0
  0
3DFACE
  8
0
  6
CONTINUOUS
 62
   249
 10
49.618456
 20
190.56
 30
0.0
 11
49.602776
 21
190.56
 31
0.0
 12
49.602776
 22
189.44
 32
0.0
 13
49.618456
 23
189.44
 33
0.0
  0
3DFACE
  8
0
  6
CONTINUOUS
 62
   249
 10
49.602776
 20
190.56
 30
0.0
 11
49.587096
 21
190.56
 31
0.0
 12
49.587096
 22
189.44
 32
0.0
 13
49.602776
 23
189.44
 33
0.0
  0
3DFACE
  8
0
  6
CONTINUOUS
 62
   249
 10
49.587096
 20
190.56
 30
0.0
 11
49.571416
 21
190.56
 31
0.0
 12
49.571416
 22
189.44
 32
0.0
 13
49.587096
 23
189.44
 33
0.0
  0
3DFACE
  8
0
  6
CONTINUOUS
 62
   249
 10
49.571416
 20
190.56
 30
0.0
 11
49.555736
 21
190.56
 31
0.0
 12
49.555736
 22
189.44
 32
0.0
 13
49.571416
 23
189.44
 33
0.0
  0
3DFACE
  8
0
  6
CONTINUOUS
 62
   249
 10
49.555736
 20
190.56
 30
0.0
 11
49.540056
 21
190.56
 31
0.0
 12
49.540056
 22
189.44
 32
0.0
 13
49.555736
 23
189.44
 33
0.0
  0
3DFACE
  8
0
  6
CONTINUOUS
 62
   249
 10
49.540056
 20
190.56
 30
0.0
 11
49.524376
 21
190.56
 31
0.0
 12
49.524376
 22
189.44
 32
0.0
 13
49.540056
 23
189.44
 33
0.0
  0
3DFACE
  8
0
  6
CONTINUOUS
 62
   249
 10
49.524376
 20
190.56
 30
0.0
 11
49.508696
 21
190.56
 31
0.0
 12
49.508696
 22
189.44
 32
0.0
 13
49.524376
 23
189.44
 33
0.0
  0
3DFACE
  8
0
  6
CONTINUOUS
 62
   249
 10
49.508696
 20
190.56
 30
0.0
 11
49.493016
 21
190.56
 31
0.0
 12
49.493016
 22
189.44
 32
0.0
 13
49.508696
 23
189.44
 33
0.0
  0
3DFACE
  8
0
  6
CONTINUOUS
 62
   249
 10
49.493016
 20
190.56
 30
0.0
 11
49.477336
 21
190.56
 31
0.0
 12
49.477336
 22
189.44
 32
0.0
 13
49.493016
 23
189.44
 33
0.0
  0
3DFACE
  8
0
  6
CONTINUOUS
 62
   249
 10
49.477336
 20
190.56
 30
0.0
 11
49.461656
 21
190.56
 31
0.0
 12
49.461656
 22
189.44
 32
0.0
 13
49.477336
 23
189.44
 33
0.0
  0
3DFACE
  8
0
  6
CONTINUOUS
 62
   249
 10
49.461656
 20
190.56
 30
0.0
 11
49.445976
 21
190.56
 31
0.0
 12
49.445976
 22
189.44
 32
0.0
 13
49.461656
 23
189.44
 33
0.0
  0
LINE
  8
0
  6
CONTINUOUS
 62
   249
 10
43.518035
 20
239.993411
 30
0.0
 11
36.837159
 21
242.434804
 31
0.0
  0
LINE
  8
0
  6
CONTINUOUS
 62
   249
 10
37.5
 20
240.0
 30
0.0
 11
37.5
 21
242.765661
 31
0.0
  0
LINE
  8
0
  6
CONTINUOUS
 62
   249
 10
36.837159
 20
242.434804
 30
0.0
 11
36.392266
 21
241.549106
 31
0.0
  0
CIRCLE
  8
0
  6
CONTINUOUS
 62
   249
 10
44.258945
 20
240.0
 30
0.0
 40
0.740939
  0
TEXT
  8
0
  6
CONTINUOUS
 62
   249
 10
18.856411
 20
234.00558
 30
0.0
 40
2.0
  1
-
  0
TEXT
  8
0
  6
CONTINUOUS
 62
   249
 10
18.864976
 20
239.013635
 30
0.0
 40
2.0
  1
+
  0
LINE
  8
0
 62
   249
 10
13.502721
 20
238.135937
 30
0.0
 11
17.502721
 21
238.135937
 31
0.0
  0
INSERT
  8
0
 62
   249
  2
WKU130
 10
13.84267
 20
236.410384
 30
0.0
 41
0.8
 42
0.8
 43
0.8
  0
LINE
  8
0
  6
CONTINUOUS
 62
   249
 10
53.102903
 20
236.443746
 30
0.0
 11
52.036478
 21
237.510171
 31
0.0
  0
LINE
  8
0
  6
CONTINUOUS
 62
   249
 10
54.169328
 20
237.510171
 30
0.0
 11
53.102903
 21
236.443746
 31
0.0
  0
LINE
  8
0
  6
CONTINUOUS
 62
   249
 10
53.102903
 20
238.576595
 30
0.0
 11
54.169328
 21
237.510171
 31
0.0
  0
LINE
  8
0
  6
CONTINUOUS
 62
   249
 10
52.036478
 20
237.510171
 30
0.0
 11
53.102903
 21
238.576595
 31
0.0
  0
ARC
  8
0
  6
CONTINUOUS
 62
   249
 10
115.0
 20
214.092853
 30
0.0
 40
0.5
 50
180.0
 51
0.0
  0
ARC
  8
0
  6
CONTINUOUS
 62
   249
 10
115.0
 20
214.092853
 30
0.0
 40
0.5
 50
0.0
 51
180.0
  0
ARC
  8
0
  6
CONTINUOUS
 62
   249
 10
95.0
 20
214.092853
 30
0.0
 40
0.5
 50
180.0
 51
0.0
  0
ARC
  8
0
  6
CONTINUOUS
 62
   249
 10
95.0
 20
214.092853
 30
0.0
 40
0.5
 50
0.0
 51
180.0
  0
LINE
  8
0
  6
CONTINUOUS
 62
   249
 10
180.42845
 20
212.757512
 30
0.0
 11
178.082685
 21
214.092866
 31
0.0
  0
LINE
  8
0
  6
CONTINUOUS
 62
   249
 10
178.082685
 20
214.092866
 30
0.0
 11
180.42845
 21
215.282785
 31
0.0
  0
ARC
  8
0
  6
CONTINUOUS
 62
   249
 10
105.0
 20
202.5
 30
0.0
 40
0.5
 50
180.0
 51
0.0
  0
ARC
  8
0
  6
CONTINUOUS
 62
   249
 10
105.0
 20
202.5
 30
0.0
 40
0.5
 50
0.0
 51
180.0
  0
ARC
  8
0
  6
CONTINUOUS
 62
   249
 10
132.5
 20
202.5
 30
0.0
 40
0.5
 50
180.0
 51
0.0
  0
ARC
  8
0
  6
CONTINUOUS
 62
   249
 10
132.5
 20
202.5
 30
0.0
 40
0.5
 50
0.0
 51
180.0
  0
LINE
  8
0
  6
CONTINUOUS
 62
   249
 10
180.419131
 20
171.159936
 30
0.0
 11
178.073366
 21
172.495289
 31
0.0
  0
LINE
  8
0
  6
CONTINUOUS
 62
   249
 10
178.073366
 20
172.495289
 30
0.0
 11
180.419131
 21
173.685208
 31
0.0
  0
LINE
  8
0
  6
CONTINUOUS
 62
   249
 10
176.420978
 20
188.664646
 30
0.0
 11
174.075212
 21
190.0
 31
0.0
  0
LINE
  8
0
  6
CONTINUOUS
 62
   249
 10
174.075212
 20
190.0
 30
0.0
 11
176.420978
 21
191.189919
 31
0.0
  0
LINE
  8
0
  6
CONTINUOUS
 62
   249
 10
178.065427
 20
191.335354
 30
0.0
 11
180.411192
 21
190.0
 31
0.0
  0
LINE
  8
0
  6
CONTINUOUS
 62
   249
 10
180.411192
 20
190.0
 30
0.0
 11
178.065427
 21
188.810081
 31
0.0
  0
LINE
  8
0
  6
CONTINUOUS
 62
   249
 10
180.42845
 20
201.011752
 30
0.0
 11
178.082685
 21
202.347106
 31
0.0
  0
LINE
  8
0
  6
CONTINUOUS
 62
   249
 10
178.082685
 20
202.347106
 30
0.0
 11
180.42845
 21
203.537025
 31
0.0
  0
ARC
  8
0
  6
CONTINUOUS
 62
   249
 10
172.5
 20
205.783996
 30
0.0
 40
0.5
 50
180.0
 51
0.0
  0
ARC
  8
0
  6
CONTINUOUS
 62
   249
 10
172.5
 20
205.783996
 30
0.0
 40
0.5
 50
0.0
 51
180.0
  0
LINE
  8
0
  6
CONTINUOUS
 62
   249
 10
180.42845
 20
208.664636
 30
0.0
 11
178.082685
 21
209.99999
 31
0.0
  0
LINE
  8
0
  6
CONTINUOUS
 62
   249
 10
178.082685
 20
209.99999
 30
0.0
 11
180.42845
 21
211.189909
 31
0.0
  0
ARC
  8
0
  6
CONTINUOUS
 62
   249
 10
100.0
 20
222.141632
 30
0.0
 40
0.5
 50
180.0
 51
0.0
  0
ARC
  8
0
  6
CONTINUOUS
 62
   249
 10
100.0
 20
222.141632
 30
0.0
 40
0.5
 50
0.0
 51
180.0
  0
ARC
  8
0
  6
CONTINUOUS
 62
   249
 10
150.0
 20
229.753087
 30
0.0
 40
0.5
 50
180.0
 51
0.0
  0
ARC
  8
0
  6
CONTINUOUS
 62
   249
 10
150.0
 20
229.753087
 30
0.0
 40
0.5
 50
0.0
 51
180.0
  0
LINE
  8
0
  6
CONTINUOUS
 62
   249
 10
180.42845
 20
216.295027
 30
0.0
 11
178.082685
 21
217.63038
 31
0.0
  0
LINE
  8
0
  6
CONTINUOUS
 62
   249
 10
178.082685
 20
217.63038
 30
0.0
 11
180.42845
 21
218.8203
 31
0.0
  0
LINE
  8
0
  6
CONTINUOUS
 62
   249
 10
180.42845
 20
220.806275
 30
0.0
 11
178.082685
 21
222.141629
 31
0.0
  0
LINE
  8
0
  6
CONTINUOUS
 62
   249
 10
178.082685
 20
222.141629
 30
0.0
 11
180.42845
 21
223.331548
 31
0.0
  0
ARC
  8
0
  6
CONTINUOUS
 62
   249
 10
172.5
 20
233.014298
 30
0.0
 40
0.5
 50
180.0
 51
0.0
  0
ARC
  8
0
  6
CONTINUOUS
 62
   249
 10
172.5
 20
233.014298
 30
0.0
 40
0.5
 50
0.0
 51
180.0
  0
ARC
  8
0
  6
CONTINUOUS
 62
   249
 10
172.5
 20
225.51836
 30
0.0
 40
0.5
 50
180.0
 51
0.0
  0
ARC
  8
0
  6
CONTINUOUS
 62
   249
 10
172.5
 20
225.51836
 30
0.0
 40
0.5
 50
0.0
 51
180.0
  0
LINE
  8
0
  6
CONTINUOUS
 62
   249
 10
180.42845
 20
228.417749
 30
0.0
 11
178.082685
 21
229.753103
 31
0.0
  0
LINE
  8
0
  6
CONTINUOUS
 62
   249
 10
178.082685
 20
229.753103
 30
0.0
 11
180.42845
 21
230.943022
 31
0.0
  0
LINE
  8
0
  6
CONTINUOUS
 62
   249
 10
189.422913
 20
220.790053
 30
0.0
 11
190.3098
 21
220.790053
 31
0.0
  0
LINE
  8
0
  6
CONTINUOUS
 62
   249
 10
189.091808
 20
221.401686
 30
0.0
 11
190.67638
 21
221.401686
 31
0.0
  0
LINE
  8
0
  6
CONTINUOUS
 62
   249
 10
189.907744
 20
222.023748
 30
0.0
 11
191.102085
 21
222.023748
 31
0.0
  0
LINE
  8
0
  6
CONTINUOUS
 62
   249
 10
188.713403
 20
222.023748
 30
0.0
 11
189.907744
 21
222.023748
 31
0.0
  0
LINE
  8
0
  6
CONTINUOUS
 62
   249
 10
189.923631
 20
223.378019
 30
0.0
 11
189.923631
 21
222.023748
 31
0.0
  0
LINE
  8
0
  6
CONTINUOUS
 62
   249
 10
189.315175
 20
228.306937
 30
0.0
 11
190.202062
 21
228.306937
 31
0.0
  0
LINE
  8
0
  6
CONTINUOUS
 62
   249
 10
188.984071
 20
228.91857
 30
0.0
 11
190.568642
 21
228.91857
 31
0.0
  0
LINE
  8
0
  6
CONTINUOUS
 62
   249
 10
189.800007
 20
229.540632
 30
0.0
 11
190.994348
 21
229.540632
 31
0.0
  0
LINE
  8
0
  6
CONTINUOUS
 62
   249
 10
188.605666
 20
229.540632
 30
0.0
 11
189.800007
 21
229.540632
 31
0.0
  0
LINE
  8
0
  6
CONTINUOUS
 62
   249
 10
189.815893
 20
230.894902
 30
0.0
 11
189.815893
 21
229.540632
 31
0.0
  0
LINE
  8
0
 62
   249
 10
218.148515
 20
50.783527
 30
0.0
 11
222.148515
 21
50.783527
 31
0.0
  0
INSERT
  8
0
 62
   249
  2
WKU130
 10
218.488464
 20
49.057974
 30
0.0
 41
0.8
 42
0.8
 43
0.8
  0
LINE
  8
0
 62
   249
 10
211.786248
 20
6.306997
 30
0.0
 11
213.547099
 21
8.067848
 31
0.0
  0
LINE
  8
0
 62
   249
 10
211.852879
 20
6.497372
 30
0.0
 11
213.547099
 21
8.191591
 31
0.0
  0
LINE
  8
0
 62
   249
 10
211.919511
 20
6.687747
 30
0.0
 11
213.547099
 21
8.315335
 31
0.0
  0
LINE
  8
0
 62
   249
 10
211.986142
 20
6.878122
 30
0.0
 11
213.547099
 21
8.439079
 31
0.0
  0
LINE
  8
0
 62
   249
 10
212.052773
 20
7.068497
 30
0.0
 11
213.547099
 21
8.562822
 31
0.0
  0
LINE
  8
0
 62
   249
 10
212.119404
 20
7.258871
 30
0.0
 11
213.547099
 21
8.686566
 31
0.0
  0
LINE
  8
0
 62
   249
 10
212.186036
 20
7.449246
 30
0.0
 11
213.474788
 21
8.737999
 31
0.0
  0
LINE
  8
0
 62
   249
 10
212.252667
 20
7.639621
 30
0.0
 11
213.351045
 21
8.737999
 31
0.0
  0
LINE
  8
0
 62
   249
 10
212.319298
 20
7.829996
 30
0.0
 11
213.227301
 21
8.737999
 31
0.0
  0
LINE
  8
0
 62
   249
 10
212.385929
 20
8.020371
 30
0.0
 11
213.103557
 21
8.737999
 31
0.0
  0
LINE
  8
0
 62
   249
 10
212.45256
 20
8.210746
 30
0.0
 11
212.979814
 21
8.737999
 31
0.0
  0
LINE
  8
0
 62
   249
 10
212.519192
 20
8.401121
 30
0.0
 11
212.85607
 21
8.737999
 31
0.0
  0
LINE
  8
0
 62
   249
 10
212.585823
 20
8.591496
 30
0.0
 11
212.732326
 21
8.737999
 31
0.0
  0
LINE
  8
0
 62
   249
 10
211.719617
 20
6.116622
 30
0.0
 11
213.547099
 21
7.944104
 31
0.0
  0
LINE
  8
0
 62
   249
 10
211.652986
 20
5.926247
 30
0.0
 11
213.547099
 21
7.82036
 31
0.0
  0
LINE
  8
0
 62
   249
 10
211.586355
 20
5.735872
 30
0.0
 11
213.547099
 21
7.696617
 31
0.0
  0
LINE
  8
0
 62
   249
 10
211.519723
 20
5.545497
 30
0.0
 11
213.547099
 21
7.572873
 31
0.0
  0
LINE
  8
0
 62
   249
 10
211.475969
 20
5.377999
 30
0.0
 11
213.547099
 21
7.449129
 31
0.0
  0
LINE
  8
0
 62
   249
 10
211.599713
 20
5.377999
 30
0.0
 11
213.547099
 21
7.325386
 31
0.0
  0
LINE
  8
0
 62
   249
 10
211.723456
 20
5.377999
 30
0.0
 11
213.547099
 21
7.201642
 31
0.0
  0
LINE
  8
0
 62
   249
 10
211.8472
 20
5.377999
 30
0.0
 11
213.547099
 21
7.077898
 31
0.0
  0
LINE
  8
0
 62
   249
 10
211.970944
 20
5.377999
 30
0.0
 11
213.547099
 21
6.954155
 31
0.0
  0
LINE
  8
0
 62
   249
 10
212.094687
 20
5.377999
 30
0.0
 11
213.547099
 21
6.830411
 31
0.0
  0
LINE
  8
0
 62
   249
 10
212.218431
 20
5.377999
 30
0.0
 11
213.547099
 21
6.706667
 31
0.0
  0
LINE
  8
0
 62
   249
 10
212.342175
 20
5.377999
 30
0.0
 11
213.547099
 21
6.582923
 31
0.0
  0
LINE
  8
0
 62
   249
 10
212.465919
 20
5.377999
 30
0.0
 11
213.547099
 21
6.45918
 31
0.0
  0
LINE
  8
0
 62
   249
 10
212.589662
 20
5.377999
 30
0.0
 11
213.547099
 21
6.335436
 31
0.0
  0
LINE
  8
0
 62
   249
 10
212.713406
 20
5.377999
 30
0.0
 11
213.547099
 21
6.211692
 31
0.0
  0
LINE
  8
0
 62
   249
 10
212.83715
 20
5.377999
 30
0.0
 11
213.547099
 21
6.087949
 31
0.0
  0
LINE
  8
0
 62
   249
 10
212.960893
 20
5.377999
 30
0.0
 11
213.547099
 21
5.964205
 31
0.0
  0
LINE
  8
0
 62
   249
 10
213.084637
 20
5.377999
 30
0.0
 11
213.547099
 21
5.840461
 31
0.0
  0
LINE
  8
0
 62
   249
 10
213.208381
 20
5.377999
 30
0.0
 11
213.547099
 21
5.716718
 31
0.0
  0
LINE
  8
0
 62
   249
 10
213.332124
 20
5.377999
 30
0.0
 11
213.547099
 21
5.592974
 31
0.0
  0
LINE
  8
0
 62
   249
 10
213.455868
 20
5.377999
 30
0.0
 11
213.547099
 21
5.46923
 31
0.0
  0
LINE
  8
0
 62
   249
 10
213.827099
 20
5.996718
 30
0.0
 11
215.211876
 21
7.381494
 31
0.0
  0
LINE
  8
0
 62
   249
 10
213.827099
 20
6.120461
 30
0.0
 11
215.179794
 21
7.473156
 31
0.0
  0
LINE
  8
0
 62
   249
 10
213.827099
 20
6.244205
 30
0.0
 11
215.147712
 21
7.564818
 31
0.0
  0
LINE
  8
0
 62
   249
 10
213.827099
 20
6.367949
 30
0.0
 11
215.115631
 21
7.65648
 31
0.0
  0
LINE
  8
0
 62
   249
 10
213.827099
 20
6.491692
 30
0.0
 11
215.083549
 21
7.748142
 31
0.0
  0
LINE
  8
0
 62
   249
 10
213.827099
 20
6.615436
 30
0.0
 11
215.051467
 21
7.839804
 31
0.0
  0
LINE
  8
0
 62
   249
 10
213.827099
 20
6.73918
 30
0.0
 11
215.019386
 21
7.931466
 31
0.0
  0
LINE
  8
0
 62
   249
 10
213.827099
 20
6.862923
 30
0.0
 11
214.987304
 21
8.023128
 31
0.0
  0
LINE
  8
0
 62
   249
 10
213.827099
 20
6.986667
 30
0.0
 11
214.955222
 21
8.11479
 31
0.0
  0
LINE
  8
0
 62
   249
 10
213.827099
 20
7.110411
 30
0.0
 11
214.923141
 21
8.206452
 31
0.0
  0
LINE
  8
0
 62
   249
 10
213.827099
 20
7.234155
 30
0.0
 11
214.891059
 21
8.298114
 31
0.0
  0
LINE
  8
0
 62
   249
 10
213.827099
 20
7.357898
 30
0.0
 11
214.858977
 21
8.389776
 31
0.0
  0
LINE
  8
0
 62
   249
 10
213.827099
 20
7.481642
 30
0.0
 11
214.826895
 21
8.481438
 31
0.0
  0
LINE
  8
0
 62
   249
 10
213.827099
 20
7.605386
 30
0.0
 11
214.794814
 21
8.5731
 31
0.0
  0
LINE
  8
0
 62
   249
 10
213.827099
 20
7.729129
 30
0.0
 11
214.762732
 21
8.664762
 31
0.0
  0
LINE
  8
0
 62
   249
 10
213.827099
 20
7.852873
 30
0.0
 11
214.712225
 21
8.737999
 31
0.0
  0
LINE
  8
0
 62
   249
 10
213.827099
 20
7.976617
 30
0.0
 11
214.588482
 21
8.737999
 31
0.0
  0
LINE
  8
0
 62
   249
 10
213.827099
 20
8.10036
 30
0.0
 11
214.464738
 21
8.737999
 31
0.0
  0
LINE
  8
0
 62
   249
 10
213.827099
 20
8.224104
 30
0.0
 11
214.340994
 21
8.737999
 31
0.0
  0
LINE
  8
0
 62
   249
 10
213.827099
 20
8.347848
 30
0.0
 11
214.217251
 21
8.737999
 31
0.0
  0
LINE
  8
0
 62
   249
 10
213.827099
 20
8.471591
 30
0.0
 11
214.093507
 21
8.737999
 31
0.0
  0
LINE
  8
0
 62
   249
 10
213.827099
 20
8.595335
 30
0.0
 11
213.969763
 21
8.737999
 31
0.0
  0
LINE
  8
0
 62
   249
 10
213.827099
 20
8.719079
 30
0.0
 11
213.84602
 21
8.737999
 31
0.0
  0
LINE
  8
0
 62
   249
 10
213.827099
 20
5.872974
 30
0.0
 11
215.243957
 21
7.289832
 31
0.0
  0
LINE
  8
0
 62
   249
 10
213.827099
 20
5.74923
 30
0.0
 11
215.276039
 21
7.19817
 31
0.0
  0
LINE
  8
0
 62
   249
 10
213.827099
 20
5.625487
 30
0.0
 11
215.308121
 21
7.106508
 31
0.0
  0
LINE
  8
0
 62
   249
 10
213.827099
 20
5.501743
 30
0.0
 11
215.340203
 21
7.014846
 31
0.0
  0
LINE
  8
0
 62
   249
 10
213.827099
 20
5.377999
 30
0.0
 11
215.372284
 21
6.923184
 31
0.0
  0
LINE
  8
0
 62
   249
 10
213.950843
 20
5.377999
 30
0.0
 11
215.404366
 21
6.831522
 31
0.0
  0
LINE
  8
0
 62
   249
 10
214.074586
 20
5.377999
 30
0.0
 11
215.436448
 21
6.73986
 31
0.0
  0
LINE
  8
0
 62
   249
 10
214.19833
 20
5.377999
 30
0.0
 11
215.468529
 21
6.648198
 31
0.0
  0
LINE
  8
0
 62
   249
 10
214.322074
 20
5.377999
 30
0.0
 11
215.500611
 21
6.556536
 31
0.0
  0
LINE
  8
0
 62
   249
 10
214.445818
 20
5.377999
 30
0.0
 11
215.532693
 21
6.464874
 31
0.0
  0
LINE
  8
0
 62
   249
 10
214.569561
 20
5.377999
 30
0.0
 11
215.564774
 21
6.373212
 31
0.0
  0
LINE
  8
0
 62
   249
 10
214.693305
 20
5.377999
 30
0.0
 11
215.596856
 21
6.281551
 31
0.0
  0
LINE
  8
0
 62
   249
 10
214.817049
 20
5.377999
 30
0.0
 11
215.628938
 21
6.189889
 31
0.0
  0
LINE
  8
0
 62
   249
 10
214.940792
 20
5.377999
 30
0.0
 11
215.66102
 21
6.098227
 31
0.0
  0
LINE
  8
0
 62
   249
 10
215.064536
 20
5.377999
 30
0.0
 11
215.693101
 21
6.006565
 31
0.0
  0
LINE
  8
0
 62
   249
 10
215.18828
 20
5.377999
 30
0.0
 11
215.725183
 21
5.914903
 31
0.0
  0
LINE
  8
0
 62
   249
 10
215.312023
 20
5.377999
 30
0.0
 11
215.757265
 21
5.823241
 31
0.0
  0
LINE
  8
0
 62
   249
 10
215.435767
 20
5.377999
 30
0.0
 11
215.789346
 21
5.731579
 31
0.0
  0
LINE
  8
0
 62
   249
 10
215.559511
 20
5.377999
 30
0.0
 11
215.821428
 21
5.639917
 31
0.0
  0
LINE
  8
0
 62
   249
 10
215.683254
 20
5.377999
 30
0.0
 11
215.85351
 21
5.548255
 31
0.0
  0
LINE
  8
0
 62
   249
 10
215.806998
 20
5.377999
 30
0.0
 11
215.885591
 21
5.456593
 31
0.0
  0
LINE
  8
0
 62
   249
 10
217.677099
 20
6.134407
 30
0.0
 11
219.637099
 21
8.094407
 31
0.0
  0
LINE
  8
0
 62
   249
 10
217.677099
 20
6.258151
 30
0.0
 11
219.637099
 21
8.218151
 31
0.0
  0
LINE
  8
0
 62
   249
 10
217.677099
 20
6.381894
 30
0.0
 11
219.637099
 21
8.341894
 31
0.0
  0
LINE
  8
0
 62
   249
 10
217.677099
 20
6.505638
 30
0.0
 11
219.637099
 21
8.465638
 31
0.0
  0
LINE
  8
0
 62
   249
 10
217.677099
 20
6.629382
 30
0.0
 11
219.637099
 21
8.589382
 31
0.0
  0
LINE
  8
0
 62
   249
 10
217.677099
 20
6.753126
 30
0.0
 11
219.637099
 21
8.713126
 31
0.0
  0
LINE
  8
0
 62
   249
 10
217.677099
 20
6.876869
 30
0.0
 11
219.538229
 21
8.737999
 31
0.0
  0
LINE
  8
0
 62
   249
 10
217.677099
 20
7.000613
 30
0.0
 11
219.414485
 21
8.737999
 31
0.0
  0
LINE
  8
0
 62
   249
 10
217.677099
 20
7.124357
 30
0.0
 11
219.290742
 21
8.737999
 31
0.0
  0
LINE
  8
0
 62
   249
 10
217.677099
 20
7.2481
 30
0.0
 11
219.166998
 21
8.737999
 31
0.0
  0
LINE
  8
0
 62
   249
 10
217.677099
 20
7.371844
 30
0.0
 11
219.043254
 21
8.737999
 31
0.0
  0
LINE
  8
0
 62
   249
 10
217.677099
 20
7.495588
 30
0.0
 11
218.919511
 21
8.737999
 31
0.0
  0
LINE
  8
0
 62
   249
 10
217.677099
 20
7.619331
 30
0.0
 11
218.795767
 21
8.737999
 31
0.0
  0
LINE
  8
0
 62
   249
 10
217.677099
 20
7.743075
 30
0.0
 11
218.672023
 21
8.737999
 31
0.0
  0
LINE
  8
0
 62
   249
 10
217.677099
 20
7.866819
 30
0.0
 11
218.54828
 21
8.737999
 31
0.0
  0
LINE
  8
0
 62
   249
 10
217.677099
 20
7.990562
 30
0.0
 11
218.424536
 21
8.737999
 31
0.0
  0
LINE
  8
0
 62
   249
 10
217.677099
 20
8.114306
 30
0.0
 11
218.300792
 21
8.737999
 31
0.0
  0
LINE
  8
0
 62
   249
 10
217.677099
 20
8.23805
 30
0.0
 11
218.177049
 21
8.737999
 31
0.0
  0
LINE
  8
0
 62
   249
 10
217.677099
 20
8.361793
 30
0.0
 11
218.053305
 21
8.737999
 31
0.0
  0
LINE
  8
0
 62
   249
 10
217.677099
 20
8.485537
 30
0.0
 11
217.929561
 21
8.737999
 31
0.0
  0
LINE
  8
0
 62
   249
 10
217.677099
 20
8.609281
 30
0.0
 11
217.805818
 21
8.737999
 31
0.0
  0
LINE
  8
0
 62
   249
 10
217.677099
 20
8.733025
 30
0.0
 11
217.682074
 21
8.737999
 31
0.0
  0
LINE
  8
0
 62
   249
 10
217.677099
 20
6.010663
 30
0.0
 11
219.637099
 21
7.970663
 31
0.0
  0
LINE
  8
0
 62
   249
 10
217.677099
 20
5.88692
 30
0.0
 11
219.637099
 21
7.84692
 31
0.0
  0
LINE
  8
0
 62
   249
 10
217.677099
 20
5.763176
 30
0.0
 11
219.637099
 21
7.723176
 31
0.0
  0
LINE
  8
0
 62
   249
 10
217.677099
 20
5.639432
 30
0.0
 11
219.637099
 21
7.599432
 31
0.0
  0
LINE
  8
0
 62
   249
 10
217.677099
 20
5.515689
 30
0.0
 11
219.637099
 21
7.475689
 31
0.0
  0
LINE
  8
0
 62
   249
 10
217.677099
 20
5.391945
 30
0.0
 11
219.637099
 21
7.351945
 31
0.0
  0
LINE
  8
0
 62
   249
 10
217.786897
 20
5.377999
 30
0.0
 11
219.637099
 21
7.228201
 31
0.0
  0
LINE
  8
0
 62
   249
 10
217.910641
 20
5.377999
 30
0.0
 11
219.637099
 21
7.104458
 31
0.0
  0
LINE
  8
0
 62
   249
 10
218.034384
 20
5.377999
 30
0.0
 11
219.637099
 21
6.980714
 31
0.0
  0
LINE
  8
0
 62
   249
 10
218.158128
 20
5.377999
 30
0.0
 11
219.637099
 21
6.85697
 31
0.0
  0
LINE
  8
0
 62
   249
 10
218.281872
 20
5.377999
 30
0.0
 11
219.637099
 21
6.733227
 31
0.0
  0
LINE
  8
0
 62
   249
 10
218.405615
 20
5.377999
 30
0.0
 11
219.637099
 21
6.609483
 31
0.0
  0
LINE
  8
0
 62
   249
 10
218.529359
 20
5.377999
 30
0.0
 11
219.637099
 21
6.485739
 31
0.0
  0
LINE
  8
0
 62
   249
 10
218.653103
 20
5.377999
 30
0.0
 11
219.637099
 21
6.361995
 31
0.0
  0
LINE
  8
0
 62
   249
 10
218.776847
 20
5.377999
 30
0.0
 11
219.637099
 21
6.238252
 31
0.0
  0
LINE
  8
0
 62
   249
 10
218.90059
 20
5.377999
 30
0.0
 11
219.637099
 21
6.114508
 31
0.0
  0
LINE
  8
0
 62
   249
 10
219.024334
 20
5.377999
 30
0.0
 11
219.637099
 21
5.990764
 31
0.0
  0
LINE
  8
0
 62
   249
 10
219.148078
 20
5.377999
 30
0.0
 11
219.637099
 21
5.867021
 31
0.0
  0
LINE
  8
0
 62
   249
 10
219.271821
 20
5.377999
 30
0.0
 11
219.637099
 21
5.743277
 31
0.0
  0
LINE
  8
0
 62
   249
 10
219.395565
 20
5.377999
 30
0.0
 11
219.637099
 21
5.619533
 31
0.0
  0
LINE
  8
0
 62
   249
 10
219.519309
 20
5.377999
 30
0.0
 11
219.637099
 21
5.49579
 31
0.0
  0
LINE
  8
0
 62
   249
 10
219.917099
 20
6.147021
 30
0.0
 11
221.795195
 21
8.025117
 31
0.0
  0
LINE
  8
0
 62
   249
 10
219.917099
 20
6.270764
 30
0.0
 11
221.744451
 21
8.098116
 31
0.0
  0
LINE
  8
0
 62
   249
 10
219.917099
 20
6.394508
 30
0.0
 11
221.690148
 21
8.167557
 31
0.0
  0
LINE
  8
0
 62
   249
 10
219.917099
 20
6.518252
 30
0.0
 11
221.63236
 21
8.233512
 31
0.0
  0
LINE
  8
0
 62
   249
 10
219.917099
 20
6.641995
 30
0.0
 11
221.571123
 21
8.29602
 31
0.0
  0
LINE
  8
0
 62
   249
 10
219.917099
 20
6.765739
 30
0.0
 11
221.506446
 21
8.355086
 31
0.0
  0
LINE
  8
0
 62
   249
 10
219.917099
 20
6.889483
 30
0.0
 11
221.4383
 21
8.410684
 31
0.0
  0
LINE
  8
0
 62
   249
 10
219.917099
 20
7.013227
 30
0.0
 11
221.366627
 21
8.462755
 31
0.0
  0
LINE
  8
0
 62
   249
 10
219.917099
 20
7.13697
 30
0.0
 11
221.291331
 21
8.511202
 31
0.0
  0
LINE
  8
0
 62
   249
 10
219.917099
 20
7.260714
 30
0.0
 11
221.212274
 21
8.555889
 31
0.0
  0
LINE
  8
0
 62
   249
 10
219.917099
 20
7.384458
 30
0.0
 11
221.129271
 21
8.59663
 31
0.0
  0
LINE
  8
0
 62
   249
 10
219.917099
 20
7.508201
 30
0.0
 11
221.042076
 21
8.633178
 31
0.0
  0
LINE
  8
0
 62
   249
 10
219.917099
 20
7.631945
 30
0.0
 11
220.950366
 21
8.665212
 31
0.0
  0
LINE
  8
0
 62
   249
 10
219.917099
 20
7.755689
 30
0.0
 11
220.853718
 21
8.692307
 31
0.0
  0
LINE
  8
0
 62
   249
 10
219.917099
 20
7.879432
 30
0.0
 11
220.751567
 21
8.7139
 31
0.0
  0
LINE
  8
0
 62
   249
 10
219.917099
 20
8.003176
 30
0.0
 11
220.643145
 21
8.729222
 31
0.0
  0
LINE
  8
0
 62
   249
 10
219.917099
 20
8.12692
 30
0.0
 11
220.527376
 21
8.737197
 31
0.0
  0
LINE
  8
0
 62
   249
 10
219.917099
 20
8.250663
 30
0.0
 11
220.404434
 21
8.737999
 31
0.0
  0
LINE
  8
0
 62
   249
 10
219.917099
 20
8.374407
 30
0.0
 11
220.280691
 21
8.737999
 31
0.0
  0
LINE
  8
0
 62
   249
 10
219.917099
 20
8.498151
 30
0.0
 11
220.156947
 21
8.737999
 31
0.0
  0
LINE
  8
0
 62
   249
 10
219.917099
 20
8.621894
 30
0.0
 11
220.033204
 21
8.737999
 31
0.0
  0
LINE
  8
0
 62
   249
 10
219.917099
 20
6.023277
 30
0.0
 11
221.842271
 21
7.948449
 31
0.0
  0
LINE
  8
0
 62
   249
 10
219.917099
 20
5.899533
 30
0.0
 11
221.885523
 21
7.867958
 31
0.0
  0
LINE
  8
0
 62
   249
 10
219.917099
 20
5.77579
 30
0.0
 11
221.924746
 21
7.783437
 31
0.0
  0
LINE
  8
0
 62
   249
 10
219.917099
 20
5.652046
 30
0.0
 11
221.959668
 21
7.694615
 31
0.0
  0
LINE
  8
0
 62
   249
 10
219.917099
 20
5.528302
 30
0.0
 11
221.989932
 21
7.601135
 31
0.0
  0
LINE
  8
0
 62
   249
 10
219.917099
 20
5.404559
 30
0.0
 11
222.015067
 21
7.502527
 31
0.0
  0
LINE
  8
0
 62
   249
 10
220.014283
 20
5.377999
 30
0.0
 11
222.034444
 21
7.39816
 31
0.0
  0
LINE
  8
0
 62
   249
 10
220.138027
 20
5.377999
 30
0.0
 11
222.047197
 21
7.287169
 31
0.0
  0
LINE
  8
0
 62
   249
 10
220.261771
 20
5.377999
 30
0.0
 11
222.05209
 21
7.168319
 31
0.0
  0
LINE
  8
0
 62
   249
 10
220.385514
 20
5.377999
 30
0.0
 11
222.04727
 21
7.039754
 31
0.0
  0
LINE
  8
0
 62
   249
 10
220.509258
 20
5.377999
 30
0.0
 11
222.029725
 21
6.898466
 31
0.0
  0
LINE
  8
0
 62
   249
 10
220.633002
 20
5.377999
 30
0.0
 11
221.993936
 21
6.738933
 31
0.0
  0
LINE
  8
0
 62
   249
 10
220.756746
 20
5.377999
 30
0.0
 11
221.927299
 21
6.548553
 31
0.0
  0
LINE
  8
0
 62
   249
 10
220.880489
 20
5.377999
 30
0.0
 11
221.280665
 21
5.778175
 31
0.0
  0
LINE
  8
0
 62
   249
 10
221.36381
 20
5.86132
 30
0.0
 11
221.778778
 21
6.276288
 31
0.0
  0
LINE
  8
0
 62
   249
 10
221.004233
 20
5.377999
 30
0.0
 11
221.366562
 21
5.740328
 31
0.0
  0
LINE
  8
0
 62
   249
 10
221.127977
 20
5.377999
 30
0.0
 11
221.449353
 21
5.699376
 31
0.0
  0
LINE
  8
0
 62
   249
 10
221.25172
 20
5.377999
 30
0.0
 11
221.529174
 21
5.655453
 31
0.0
  0
LINE
  8
0
 62
   249
 10
221.375464
 20
5.377999
 30
0.0
 11
221.606135
 21
5.608671
 31
0.0
  0
LINE
  8
0
 62
   249
 10
221.499208
 20
5.377999
 30
0.0
 11
221.680325
 21
5.559117
 31
0.0
  0
LINE
  8
0
 62
   249
 10
221.622951
 20
5.377999
 30
0.0
 11
221.751814
 21
5.506862
 31
0.0
  0
LINE
  8
0
 62
   249
 10
221.746695
 20
5.377999
 30
0.0
 11
221.820653
 21
5.451958
 31
0.0
  0
LINE
  8
0
 62
   249
 10
221.870439
 20
5.377999
 30
0.0
 11
221.886881
 21
5.394442
 31
0.0
  0
LINE
  8
0
 62
   249
 10
225.377099
 20
6.147021
 30
0.0
 11
227.255195
 21
8.025117
 31
0.0
  0
LINE
  8
0
 62
   249
 10
225.377099
 20
6.270764
 30
0.0
 11
227.204451
 21
8.098116
 31
0.0
  0
LINE
  8
0
 62
   249
 10
225.377099
 20
6.394508
 30
0.0
 11
227.150148
 21
8.167557
 31
0.0
  0
LINE
  8
0
 62
   249
 10
225.377099
 20
6.518252
 30
0.0
 11
227.09236
 21
8.233512
 31
0.0
  0
LINE
  8
0
 62
   249
 10
225.377099
 20
6.641995
 30
0.0
 11
227.031123
 21
8.29602
 31
0.0
  0
LINE
  8
0
 62
   249
 10
225.377099
 20
6.765739
 30
0.0
 11
226.966446
 21
8.355086
 31
0.0
  0
LINE
  8
0
 62
   249
 10
225.377099
 20
6.889483
 30
0.0
 11
226.8983
 21
8.410684
 31
0.0
  0
LINE
  8
0
 62
   249
 10
225.377099
 20
7.013227
 30
0.0
 11
226.826627
 21
8.462755
 31
0.0
  0
LINE
  8
0
 62
   249
 10
225.377099
 20
7.13697
 30
0.0
 11
226.751331
 21
8.511202
 31
0.0
  0
LINE
  8
0
 62
   249
 10
225.377099
 20
7.260714
 30
0.0
 11
226.672274
 21
8.555889
 31
0.0
  0
LINE
  8
0
 62
   249
 10
225.377099
 20
7.384458
 30
0.0
 11
226.589271
 21
8.59663
 31
0.0
  0
LINE
  8
0
 62
   249
 10
225.377099
 20
7.508201
 30
0.0
 11
226.502076
 21
8.633178
 31
0.0
  0
LINE
  8
0
 62
   249
 10
225.377099
 20
7.631945
 30
0.0
 11
226.410366
 21
8.665212
 31
0.0
  0
LINE
  8
0
 62
   249
 10
225.377099
 20
7.755689
 30
0.0
 11
226.313718
 21
8.692307
 31
0.0
  0
LINE
  8
0
 62
   249
 10
225.377099
 20
7.879432
 30
0.0
 11
226.211567
 21
8.7139
 31
0.0
  0
LINE
  8
0
 62
   249
 10
225.377099
 20
8.003176
 30
0.0
 11
226.103145
 21
8.729222
 31
0.0
  0
LINE
  8
0
 62
   249
 10
225.377099
 20
8.12692
 30
0.0
 11
225.987376
 21
8.737197
 31
0.0
  0
LINE
  8
0
 62
   249
 10
225.377099
 20
8.250663
 30
0.0
 11
225.864434
 21
8.737999
 31
0.0
  0
LINE
  8
0
 62
   249
 10
225.377099
 20
8.374407
 30
0.0
 11
225.740691
 21
8.737999
 31
0.0
  0
LINE
  8
0
 62
   249
 10
225.377099
 20
8.498151
 30
0.0
 11
225.616947
 21
8.737999
 31
0.0
  0
LINE
  8
0
 62
   249
 10
225.377099
 20
8.621894
 30
0.0
 11
225.493204
 21
8.737999
 31
0.0
  0
LINE
  8
0
 62
   249
 10
225.377099
 20
6.023277
 30
0.0
 11
227.302271
 21
7.948449
 31
0.0
  0
LINE
  8
0
 62
   249
 10
225.377099
 20
5.899533
 30
0.0
 11
227.345523
 21
7.867958
 31
0.0
  0
LINE
  8
0
 62
   249
 10
225.377099
 20
5.77579
 30
0.0
 11
227.384746
 21
7.783437
 31
0.0
  0
LINE
  8
0
 62
   249
 10
225.377099
 20
5.652046
 30
0.0
 11
227.419668
 21
7.694615
 31
0.0
  0
LINE
  8
0
 62
   249
 10
225.377099
 20
5.528302
 30
0.0
 11
227.449932
 21
7.601135
 31
0.0
  0
LINE
  8
0
 62
   249
 10
225.377099
 20
5.404559
 30
0.0
 11
227.475067
 21
7.502527
 31
0.0
  0
LINE
  8
0
 62
   249
 10
225.474283
 20
5.377999
 30
0.0
 11
227.494444
 21
7.39816
 31
0.0
  0
LINE
  8
0
 62
   249
 10
225.598027
 20
5.377999
 30
0.0
 11
227.507197
 21
7.287169
 31
0.0
  0
LINE
  8
0
 62
   249
 10
225.721771
 20
5.377999
 30
0.0
 11
227.51209
 21
7.168319
 31
0.0
  0
LINE
  8
0
 62
   249
 10
225.845514
 20
5.377999
 30
0.0
 11
227.50727
 21
7.039754
 31
0.0
  0
LINE
  8
0
 62
   249
 10
225.969258
 20
5.377999
 30
0.0
 11
227.489725
 21
6.898466
 31
0.0
  0
LINE
  8
0
 62
   249
 10
226.093002
 20
5.377999
 30
0.0
 11
227.453936
 21
6.738933
 31
0.0
  0
LINE
  8
0
 62
   249
 10
226.216746
 20
5.377999
 30
0.0
 11
227.387299
 21
6.548553
 31
0.0
  0
LINE
  8
0
 62
   249
 10
226.340489
 20
5.377999
 30
0.0
 11
226.740665
 21
5.778175
 31
0.0
  0
LINE
  8
0
 62
   249
 10
226.82381
 20
5.86132
 30
0.0
 11
227.238778
 21
6.276288
 31
0.0
  0
LINE
  8
0
 62
   249
 10
226.464233
 20
5.377999
 30
0.0
 11
226.826562
 21
5.740328
 31
0.0
  0
LINE
  8
0
 62
   249
 10
226.587977
 20
5.377999
 30
0.0
 11
226.909353
 21
5.699376
 31
0.0
  0
LINE
  8
0
 62
   249
 10
226.71172
 20
5.377999
 30
0.0
 11
226.989174
 21
5.655453
 31
0.0
  0
LINE
  8
0
 62
   249
 10
226.835464
 20
5.377999
 30
0.0
 11
227.066135
 21
5.608671
 31
0.0
  0
LINE
  8
0
 62
   249
 10
226.959208
 20
5.377999
 30
0.0
 11
227.140325
 21
5.559117
 31
0.0
  0
LINE
  8
0
 62
   249
 10
227.082951
 20
5.377999
 30
0.0
 11
227.211814
 21
5.506862
 31
0.0
  0
LINE
  8
0
 62
   249
 10
227.206695
 20
5.377999
 30
0.0
 11
227.280653
 21
5.451958
 31
0.0
  0
LINE
  8
0
 62
   249
 10
227.330439
 20
5.377999
 30
0.0
 11
227.346881
 21
5.394442
 31
0.0
  0
LINE
  8
0
 62
   249
 10
223.137099
 20
6.134407
 30
0.0
 11
225.097099
 21
8.094407
 31
0.0
  0
LINE
  8
0
 62
   249
 10
223.137099
 20
6.258151
 30
0.0
 11
225.097099
 21
8.218151
 31
0.0
  0
LINE
  8
0
 62
   249
 10
223.137099
 20
6.381894
 30
0.0
 11
225.097099
 21
8.341894
 31
0.0
  0
LINE
  8
0
 62
   249
 10
223.137099
 20
6.505638
 30
0.0
 11
225.097099
 21
8.465638
 31
0.0
  0
LINE
  8
0
 62
   249
 10
223.137099
 20
6.629382
 30
0.0
 11
225.097099
 21
8.589382
 31
0.0
  0
LINE
  8
0
 62
   249
 10
223.137099
 20
6.753126
 30
0.0
 11
225.097099
 21
8.713126
 31
0.0
  0
LINE
  8
0
 62
   249
 10
223.137099
 20
6.876869
 30
0.0
 11
224.998229
 21
8.737999
 31
0.0
  0
LINE
  8
0
 62
   249
 10
223.137099
 20
7.000613
 30
0.0
 11
224.874485
 21
8.737999
 31
0.0
  0
LINE
  8
0
 62
   249
 10
223.137099
 20
7.124357
 30
0.0
 11
224.750742
 21
8.737999
 31
0.0
  0
LINE
  8
0
 62
   249
 10
223.137099
 20
7.2481
 30
0.0
 11
224.626998
 21
8.737999
 31
0.0
  0
LINE
  8
0
 62
   249
 10
223.137099
 20
7.371844
 30
0.0
 11
224.503254
 21
8.737999
 31
0.0
  0
LINE
  8
0
 62
   249
 10
223.137099
 20
7.495588
 30
0.0
 11
224.379511
 21
8.737999
 31
0.0
  0
LINE
  8
0
 62
   249
 10
223.137099
 20
7.619331
 30
0.0
 11
224.255767
 21
8.737999
 31
0.0
  0
LINE
  8
0
 62
   249
 10
223.137099
 20
7.743075
 30
0.0
 11
224.132023
 21
8.737999
 31
0.0
  0
LINE
  8
0
 62
   249
 10
223.137099
 20
7.866819
 30
0.0
 11
224.00828
 21
8.737999
 31
0.0
  0
LINE
  8
0
 62
   249
 10
223.137099
 20
7.990562
 30
0.0
 11
223.884536
 21
8.737999
 31
0.0
  0
LINE
  8
0
 62
   249
 10
223.137099
 20
8.114306
 30
0.0
 11
223.760792
 21
8.737999
 31
0.0
  0
LINE
  8
0
 62
   249
 10
223.137099
 20
8.23805
 30
0.0
 11
223.637049
 21
8.737999
 31
0.0
  0
LINE
  8
0
 62
   249
 10
223.137099
 20
8.361793
 30
0.0
 11
223.513305
 21
8.737999
 31
0.0
  0
LINE
  8
0
 62
   249
 10
223.137099
 20
8.485537
 30
0.0
 11
223.389561
 21
8.737999
 31
0.0
  0
LINE
  8
0
 62
   249
 10
223.137099
 20
8.609281
 30
0.0
 11
223.265818
 21
8.737999
 31
0.0
  0
LINE
  8
0
 62
   249
 10
223.137099
 20
8.733025
 30
0.0
 11
223.142074
 21
8.737999
 31
0.0
  0
LINE
  8
0
 62
   249
 10
223.137099
 20
6.010663
 30
0.0
 11
225.097099
 21
7.970663
 31
0.0
  0
LINE
  8
0
 62
   249
 10
223.137099
 20
5.88692
 30
0.0
 11
225.097099
 21
7.84692
 31
0.0
  0
LINE
  8
0
 62
   249
 10
223.137099
 20
5.763176
 30
0.0
 11
225.097099
 21
7.723176
 31
0.0
  0
LINE
  8
0
 62
   249
 10
223.137099
 20
5.639432
 30
0.0
 11
225.097099
 21
7.599432
 31
0.0
  0
LINE
  8
0
 62
   249
 10
223.137099
 20
5.515689
 30
0.0
 11
225.097099
 21
7.475689
 31
0.0
  0
LINE
  8
0
 62
   249
 10
223.137099
 20
5.391945
 30
0.0
 11
225.097099
 21
7.351945
 31
0.0
  0
LINE
  8
0
 62
   249
 10
223.246897
 20
5.377999
 30
0.0
 11
225.097099
 21
7.228201
 31
0.0
  0
LINE
  8
0
 62
   249
 10
223.370641
 20
5.377999
 30
0.0
 11
225.097099
 21
7.104458
 31
0.0
  0
LINE
  8
0
 62
   249
 10
223.494384
 20
5.377999
 30
0.0
 11
225.097099
 21
6.980714
 31
0.0
  0
LINE
  8
0
 62
   249
 10
223.618128
 20
5.377999
 30
0.0
 11
225.097099
 21
6.85697
 31
0.0
  0
LINE
  8
0
 62
   249
 10
223.741872
 20
5.377999
 30
0.0
 11
225.097099
 21
6.733227
 31
0.0
  0
LINE
  8
0
 62
   249
 10
223.865615
 20
5.377999
 30
0.0
 11
225.097099
 21
6.609483
 31
0.0
  0
LINE
  8
0
 62
   249
 10
223.989359
 20
5.377999
 30
0.0
 11
225.097099
 21
6.485739
 31
0.0
  0
LINE
  8
0
 62
   249
 10
224.113103
 20
5.377999
 30
0.0
 11
225.097099
 21
6.361995
 31
0.0
  0
LINE
  8
0
 62
   249
 10
224.236847
 20
5.377999
 30
0.0
 11
225.097099
 21
6.238252
 31
0.0
  0
LINE
  8
0
 62
   249
 10
224.36059
 20
5.377999
 30
0.0
 11
225.097099
 21
6.114508
 31
0.0
  0
LINE
  8
0
 62
   249
 10
224.484334
 20
5.377999
 30
0.0
 11
225.097099
 21
5.990764
 31
0.0
  0
LINE
  8
0
 62
   249
 10
224.608078
 20
5.377999
 30
0.0
 11
225.097099
 21
5.867021
 31
0.0
  0
LINE
  8
0
 62
   249
 10
224.731821
 20
5.377999
 30
0.0
 11
225.097099
 21
5.743277
 31
0.0
  0
LINE
  8
0
 62
   249
 10
224.855565
 20
5.377999
 30
0.0
 11
225.097099
 21
5.619533
 31
0.0
  0
LINE
  8
0
 62
   249
 10
224.979309
 20
5.377999
 30
0.0
 11
225.097099
 21
5.49579
 31
0.0
  0
LINE
  8
0
 62
   249
 10
225.377099
 20
2.310966
 30
0.0
 11
227.824614
 21
4.758481
 31
0.0
  0
LINE
  8
0
 62
   249
 10
225.377099
 20
2.43471
 30
0.0
 11
227.782547
 21
4.840158
 31
0.0
  0
LINE
  8
0
 62
   249
 10
225.377099
 20
2.558454
 30
0.0
 11
227.737553
 21
4.918908
 31
0.0
  0
LINE
  8
0
 62
   249
 10
225.377099
 20
2.682197
 30
0.0
 11
227.689735
 21
4.994834
 31
0.0
  0
LINE
  8
0
 62
   249
 10
225.377099
 20
2.805941
 30
0.0
 11
227.639174
 21
5.068016
 31
0.0
  0
LINE
  8
0
 62
   249
 10
225.377099
 20
2.929685
 30
0.0
 11
227.545413
 21
5.097999
 31
0.0
  0
LINE
  8
0
 62
   249
 10
225.377099
 20
3.053429
 30
0.0
 11
227.42167
 21
5.097999
 31
0.0
  0
LINE
  8
0
 62
   249
 10
225.377099
 20
3.177172
 30
0.0
 11
227.297926
 21
5.097999
 31
0.0
  0
LINE
  8
0
 62
   249
 10
225.377099
 20
3.300916
 30
0.0
 11
227.174182
 21
5.097999
 31
0.0
  0
LINE
  8
0
 62
   249
 10
225.377099
 20
3.42466
 30
0.0
 11
227.050439
 21
5.097999
 31
0.0
  0
LINE
  8
0
 62
   249
 10
225.377099
 20
3.548403
 30
0.0
 11
226.926695
 21
5.097999
 31
0.0
  0
LINE
  8
0
 62
   249
 10
225.377099
 20
3.672147
 30
0.0
 11
226.802951
 21
5.097999
 31
0.0
  0
LINE
  8
0
 62
   249
 10
225.377099
 20
3.795891
 30
0.0
 11
226.679208
 21
5.097999
 31
0.0
  0
LINE
  8
0
 62
   249
 10
225.377099
 20
3.919634
 30
0.0
 11
226.555464
 21
5.097999
 31
0.0
  0
LINE
  8
0
 62
   249
 10
225.377099
 20
4.043378
 30
0.0
 11
226.43172
 21
5.097999
 31
0.0
  0
LINE
  8
0
 62
   249
 10
225.377099
 20
4.167122
 30
0.0
 11
226.307977
 21
5.097999
 31
0.0
  0
LINE
  8
0
 62
   249
 10
225.377099
 20
4.290865
 30
0.0
 11
226.184233
 21
5.097999
 31
0.0
  0
LINE
  8
0
 62
   249
 10
225.377099
 20
4.414609
 30
0.0
 11
226.060489
 21
5.097999
 31
0.0
  0
LINE
  8
0
 62
   249
 10
225.377099
 20
4.538353
 30
0.0
 11
225.936746
 21
5.097999
 31
0.0
  0
LINE
  8
0
 62
   249
 10
225.377099
 20
4.662096
 30
0.0
 11
225.813002
 21
5.097999
 31
0.0
  0
LINE
  8
0
 62
   249
 10
225.377099
 20
4.78584
 30
0.0
 11
225.689258
 21
5.097999
 31
0.0
  0
LINE
  8
0
 62
   249
 10
225.377099
 20
4.909584
 30
0.0
 11
225.565514
 21
5.097999
 31
0.0
  0
LINE
  8
0
 62
   249
 10
225.377099
 20
5.033328
 30
0.0
 11
225.441771
 21
5.097999
 31
0.0
  0
LINE
  8
0
 62
   249
 10
225.377099
 20
2.187223
 30
0.0
 11
227.863629
 21
4.673752
 31
0.0
  0
LINE
  8
0
 62
   249
 10
225.377099
 20
2.063479
 30
0.0
 11
227.899437
 21
4.585817
 31
0.0
  0
LINE
  8
0
 62
   249
 10
225.377099
 20
1.939735
 30
0.0
 11
227.931849
 21
4.494485
 31
0.0
  0
LINE
  8
0
 62
   249
 10
225.377099
 20
1.815992
 30
0.0
 11
227.960633
 21
4.399525
 31
0.0
  0
LINE
  8
0
 62
   249
 10
225.42285
 20
1.737999
 30
0.0
 11
227.985502
 21
4.300651
 31
0.0
  0
LINE
  8
0
 62
   249
 10
225.546594
 20
1.738
 30
0.0
 11
228.006098
 21
4.197503
 31
0.0
  0
LINE
  8
0
 62
   249
 10
225.670338
 20
1.738
 30
0.0
 11
228.021969
 21
4.08963
 31
0.0
  0
LINE
  8
0
 62
   249
 10
225.794082
 20
1.738
 30
0.0
 11
228.03253
 21
3.976448
 31
0.0
  0
LINE
  8
0
 62
   249
 10
225.917826
 20
1.738
 30
0.0
 11
228.037011
 21
3.857186
 31
0.0
  0
LINE
  8
0
 62
   249
 10
226.044307
 20
1.740738
 30
0.0
 11
228.034361
 21
3.730791
 31
0.0
  0
LINE
  8
0
 62
   249
 10
226.17933
 20
1.752016
 30
0.0
 11
228.023082
 21
3.595769
 31
0.0
  0
LINE
  8
0
 62
   249
 10
226.325237
 20
1.77418
 30
0.0
 11
228.000918
 21
3.449861
 31
0.0
  0
LINE
  8
0
 62
   249
 10
226.485733
 20
1.810932
 30
0.0
 11
227.964166
 21
3.289366
 31
0.0
  0
LINE
  8
0
 62
   249
 10
226.667749
 20
1.869205
 30
0.0
 11
227.905893
 21
3.107349
 31
0.0
  0
LINE
  8
0
 62
   249
 10
226.887822
 20
1.965534
 30
0.0
 11
227.809564
 21
2.887276
 31
0.0
  0
LINE
  8
0
 62
   249
 10
227.22645
 20
2.180419
 30
0.0
 11
227.59468
 21
2.548648
 31
0.0
  0
LINE
  8
0
 62
   249
 10
210.187099
 20
1.737999
 30
0.0
 11
213.547099
 21
5.097999
 31
0.0
  0
LINE
  8
0
 62
   249
 10
210.25373
 20
1.928374
 30
0.0
 11
213.423355
 21
5.097999
 31
0.0
  0
LINE
  8
0
 62
   249
 10
210.320362
 20
2.118749
 30
0.0
 11
213.299612
 21
5.097999
 31
0.0
  0
LINE
  8
0
 62
   249
 10
210.386993
 20
2.309124
 30
0.0
 11
213.175868
 21
5.097999
 31
0.0
  0
LINE
  8
0
 62
   249
 10
210.453624
 20
2.499499
 30
0.0
 11
213.052124
 21
5.097999
 31
0.0
  0
LINE
  8
0
 62
   249
 10
210.520255
 20
2.689874
 30
0.0
 11
212.928381
 21
5.097999
 31
0.0
  0
LINE
  8
0
 62
   249
 10
210.586886
 20
2.880249
 30
0.0
 11
212.804637
 21
5.097999
 31
0.0
  0
LINE
  8
0
 62
   249
 10
210.653518
 20
3.070624
 30
0.0
 11
212.680893
 21
5.097999
 31
0.0
  0
LINE
  8
0
 62
   249
 10
210.720149
 20
3.260998
 30
0.0
 11
212.55715
 21
5.097999
 31
0.0
  0
LINE
  8
0
 62
   249
 10
210.78678
 20
3.451373
 30
0.0
 11
212.433406
 21
5.097999
 31
0.0
  0
LINE
  8
0
 62
   249
 10
210.853411
 20
3.641748
 30
0.0
 11
212.309662
 21
5.097999
 31
0.0
  0
LINE
  8
0
 62
   249
 10
210.920042
 20
3.832123
 30
0.0
 11
212.185919
 21
5.097999
 31
0.0
  0
LINE
  8
0
 62
   249
 10
210.986674
 20
4.022498
 30
0.0
 11
212.062175
 21
5.097999
 31
0.0
  0
LINE
  8
0
 62
   249
 10
211.053305
 20
4.212873
 30
0.0
 11
211.938431
 21
5.097999
 31
0.0
  0
LINE
  8
0
 62
   249
 10
211.119936
 20
4.403248
 30
0.0
 11
211.814687
 21
5.097999
 31
0.0
  0
LINE
  8
0
 62
   249
 10
211.186567
 20
4.593623
 30
0.0
 11
211.690944
 21
5.097999
 31
0.0
  0
LINE
  8
0
 62
   249
 10
211.253199
 20
4.783998
 30
0.0
 11
211.5672
 21
5.097999
 31
0.0
  0
LINE
  8
0
 62
   249
 10
211.31983
 20
4.974373
 30
0.0
 11
211.443456
 21
5.097999
 31
0.0
  0
LINE
  8
0
 62
   249
 10
210.310843
 20
1.737999
 30
0.0
 11
213.547099
 21
4.974256
 31
0.0
  0
LINE
  8
0
 62
   249
 10
210.434586
 20
1.737999
 30
0.0
 11
213.547099
 21
4.850512
 31
0.0
  0
LINE
  8
0
 62
   249
 10
210.55833
 20
1.737999
 30
0.0
 11
213.547099
 21
4.726768
 31
0.0
  0
LINE
  8
0
 62
   249
 10
210.682074
 20
1.737999
 30
0.0
 11
213.547099
 21
4.603025
 31
0.0
  0
LINE
  8
0
 62
   249
 10
210.805818
 20
1.737999
 30
0.0
 11
213.547099
 21
4.479281
 31
0.0
  0
LINE
  8
0
 62
   249
 10
210.929561
 20
1.737999
 30
0.0
 11
213.547099
 21
4.355537
 31
0.0
  0
LINE
  8
0
 62
   249
 10
211.053305
 20
1.737999
 30
0.0
 11
212.412988
 21
3.097683
 31
0.0
  0
LINE
  8
0
 62
   249
 10
212.453305
 20
3.137999
 30
0.0
 11
213.547099
 21
4.231793
 31
0.0
  0
LINE
  8
0
 62
   249
 10
211.177049
 20
1.737999
 30
0.0
 11
212.346357
 21
2.907308
 31
0.0
  0
LINE
  8
0
 62
   249
 10
212.577049
 20
3.137999
 30
0.0
 11
213.547099
 21
4.10805
 31
0.0
  0
LINE
  8
0
 62
   249
 10
211.300792
 20
1.737999
 30
0.0
 11
212.279726
 21
2.716933
 31
0.0
  0
LINE
  8
0
 62
   249
 10
212.700792
 20
3.137999
 30
0.0
 11
213.547099
 21
3.984306
 31
0.0
  0
LINE
  8
0
 62
   249
 10
211.424536
 20
1.737999
 30
0.0
 11
212.213095
 21
2.526558
 31
0.0
  0
LINE
  8
0
 62
   249
 10
212.824536
 20
3.137999
 30
0.0
 11
213.547099
 21
3.860562
 31
0.0
  0
LINE
  8
0
 62
   249
 10
211.54828
 20
1.737999
 30
0.0
 11
212.146463
 21
2.336183
 31
0.0
  0
LINE
  8
0
 62
   249
 10
212.94828
 20
3.137999
 30
0.0
 11
213.547099
 21
3.736819
 31
0.0
  0
LINE
  8
0
 62
   249
 10
211.672023
 20
1.737999
 30
0.0
 11
212.079832
 21
2.145808
 31
0.0
  0
LINE
  8
0
 62
   249
 10
213.072023
 20
3.137999
 30
0.0
 11
213.547099
 21
3.613075
 31
0.0
  0
LINE
  8
0
 62
   249
 10
211.795767
 20
1.737999
 30
0.0
 11
212.013201
 21
1.955433
 31
0.0
  0
LINE
  8
0
 62
   249
 10
213.195767
 20
3.137999
 30
0.0
 11
213.547099
 21
3.489331
 31
0.0
  0
LINE
  8
0
 62
   249
 10
211.919511
 20
1.737999
 30
0.0
 11
211.94657
 21
1.765058
 31
0.0
  0
LINE
  8
0
 62
   249
 10
213.319511
 20
3.137999
 30
0.0
 11
213.547099
 21
3.365588
 31
0.0
  0
LINE
  8
0
 62
   249
 10
213.443254
 20
3.137999
 30
0.0
 11
213.547099
 21
3.241844
 31
0.0
  0
LINE
  8
0
 62
   249
 10
217.677099
 20
2.54584
 30
0.0
 11
219.637099
 21
4.50584
 31
0.0
  0
LINE
  8
0
 62
   249
 10
217.677099
 20
2.669584
 30
0.0
 11
219.637099
 21
4.629584
 31
0.0
  0
LINE
  8
0
 62
   249
 10
217.677099
 20
2.793328
 30
0.0
 11
219.637099
 21
4.753328
 31
0.0
  0
LINE
  8
0
 62
   249
 10
217.677099
 20
2.917071
 30
0.0
 11
219.637099
 21
4.877071
 31
0.0
  0
LINE
  8
0
 62
   249
 10
217.677099
 20
3.040815
 30
0.0
 11
219.637099
 21
5.000815
 31
0.0
  0
LINE
  8
0
 62
   249
 10
217.677099
 20
3.164559
 30
0.0
 11
219.61054
 21
5.097999
 31
0.0
  0
LINE
  8
0
 62
   249
 10
217.677099
 20
3.288302
 30
0.0
 11
219.486796
 21
5.097999
 31
0.0
  0
LINE
  8
0
 62
   249
 10
217.677099
 20
3.412046
 30
0.0
 11
219.363052
 21
5.097999
 31
0.0
  0
LINE
  8
0
 62
   249
 10
217.677099
 20
3.53579
 30
0.0
 11
219.239309
 21
5.097999
 31
0.0
  0
LINE
  8
0
 62
   249
 10
217.677099
 20
3.659533
 30
0.0
 11
219.115565
 21
5.097999
 31
0.0
  0
LINE
  8
0
 62
   249
 10
217.677099
 20
3.783277
 30
0.0
 11
218.991821
 21
5.097999
 31
0.0
  0
LINE
  8
0
 62
   249
 10
217.677099
 20
3.907021
 30
0.0
 11
218.868078
 21
5.097999
 31
0.0
  0
LINE
  8
0
 62
   249
 10
217.677099
 20
4.030764
 30
0.0
 11
218.744334
 21
5.097999
 31
0.0
  0
LINE
  8
0
 62
   249
 10
217.677099
 20
4.154508
 30
0.0
 11
218.62059
 21
5.097999
 31
0.0
  0
LINE
  8
0
 62
   249
 10
217.677099
 20
4.278252
 30
0.0
 11
218.496847
 21
5.097999
 31
0.0
  0
LINE
  8
0
 62
   249
 10
217.677099
 20
4.401995
 30
0.0
 11
218.373103
 21
5.097999
 31
0.0
  0
LINE
  8
0
 62
   249
 10
217.677099
 20
4.525739
 30
0.0
 11
218.249359
 21
5.097999
 31
0.0
  0
LINE
  8
0
 62
   249
 10
217.677099
 20
4.649483
 30
0.0
 11
218.125615
 21
5.097999
 31
0.0
  0
LINE
  8
0
 62
   249
 10
217.677099
 20
4.773227
 30
0.0
 11
218.001872
 21
5.097999
 31
0.0
  0
LINE
  8
0
 62
   249
 10
217.677099
 20
4.89697
 30
0.0
 11
217.878128
 21
5.097999
 31
0.0
  0
LINE
  8
0
 62
   249
 10
217.677099
 20
5.020714
 30
0.0
 11
217.754384
 21
5.097999
 31
0.0
  0
LINE
  8
0
 62
   249
 10
217.677099
 20
2.422096
 30
0.0
 11
219.637099
 21
4.382096
 31
0.0
  0
LINE
  8
0
 62
   249
 10
217.677099
 20
2.298353
 30
0.0
 11
219.637099
 21
4.258353
 31
0.0
  0
LINE
  8
0
 62
   249
 10
217.677099
 20
2.174609
 30
0.0
 11
219.637099
 21
4.134609
 31
0.0
  0
LINE
  8
0
 62
   249
 10
217.677099
 20
2.050865
 30
0.0
 11
219.637099
 21
4.010865
 31
0.0
  0
LINE
  8
0
 62
   249
 10
217.677099
 20
1.927122
 30
0.0
 11
219.637099
 21
3.887122
 31
0.0
  0
LINE
  8
0
 62
   249
 10
217.677099
 20
1.803378
 30
0.0
 11
219.637099
 21
3.763378
 31
0.0
  0
LINE
  8
0
 62
   249
 10
217.735464
 20
1.737999
 30
0.0
 11
219.637099
 21
3.639634
 31
0.0
  0
LINE
  8
0
 62
   249
 10
217.859208
 20
1.737999
 30
0.0
 11
219.637099
 21
3.515891
 31
0.0
  0
LINE
  8
0
 62
   249
 10
217.982951
 20
1.737999
 30
0.0
 11
219.637099
 21
3.392147
 31
0.0
  0
LINE
  8
0
 62
   249
 10
218.106695
 20
1.737999
 30
0.0
 11
219.637099
 21
3.268403
 31
0.0
  0
LINE
  8
0
 62
   249
 10
218.230439
 20
1.737999
 30
0.0
 11
219.637099
 21
3.14466
 31
0.0
  0
LINE
  8
0
 62
   249
 10
218.354182
 20
1.737999
 30
0.0
 11
219.637099
 21
3.020916
 31
0.0
  0
LINE
  8
0
 62
   249
 10
218.477926
 20
1.737999
 30
0.0
 11
219.637099
 21
2.897172
 31
0.0
  0
LINE
  8
0
 62
   249
 10
218.60167
 20
1.737999
 30
0.0
 11
219.637099
 21
2.773429
 31
0.0
  0
LINE
  8
0
 62
   249
 10
218.725413
 20
1.737999
 30
0.0
 11
219.637099
 21
2.649685
 31
0.0
  0
LINE
  8
0
 62
   249
 10
218.849157
 20
1.737999
 30
0.0
 11
219.637099
 21
2.525941
 31
0.0
  0
LINE
  8
0
 62
   249
 10
218.972901
 20
1.737999
 30
0.0
 11
219.637099
 21
2.402197
 31
0.0
  0
LINE
  8
0
 62
   249
 10
219.096645
 20
1.737999
 30
0.0
 11
219.637099
 21
2.278454
 31
0.0
  0
LINE
  8
0
 62
   249
 10
219.220388
 20
1.737999
 30
0.0
 11
219.637099
 21
2.15471
 31
0.0
  0
LINE
  8
0
 62
   249
 10
219.344132
 20
1.737999
 30
0.0
 11
219.637099
 21
2.030966
 31
0.0
  0
LINE
  8
0
 62
   249
 10
219.467876
 20
1.737999
 30
0.0
 11
219.637099
 21
1.907223
 31
0.0
  0
LINE
  8
0
 62
   249
 10
219.591619
 20
1.737999
 30
0.0
 11
219.637099
 21
1.783479
 31
0.0
  0
LINE
  8
0
 62
   249
 10
215.006357
 20
2.96869
 30
0.0
 11
216.302653
 21
4.264987
 31
0.0
  0
LINE
  8
0
 62
   249
 10
214.974275
 20
3.060352
 30
0.0
 11
216.270572
 21
4.356649
 31
0.0
  0
LINE
  8
0
 62
   249
 10
214.928179
 20
3.137999
 30
0.0
 11
216.23849
 21
4.448311
 31
0.0
  0
LINE
  8
0
 62
   249
 10
214.804435
 20
3.137999
 30
0.0
 11
216.206408
 21
4.539973
 31
0.0
  0
LINE
  8
0
 62
   249
 10
214.680691
 20
3.137999
 30
0.0
 11
216.174327
 21
4.631635
 31
0.0
  0
LINE
  8
0
 62
   249
 10
214.556948
 20
3.137999
 30
0.0
 11
216.142245
 21
4.723297
 31
0.0
  0
LINE
  8
0
 62
   249
 10
214.433204
 20
3.137999
 30
0.0
 11
216.110163
 21
4.814959
 31
0.0
  0
LINE
  8
0
 62
   249
 10
214.30946
 20
3.137999
 30
0.0
 11
216.078082
 21
4.906621
 31
0.0
  0
LINE
  8
0
 62
   249
 10
214.185717
 20
3.137999
 30
0.0
 11
216.046
 21
4.998283
 31
0.0
  0
LINE
  8
0
 62
   249
 10
214.061973
 20
3.137999
 30
0.0
 11
216.013918
 21
5.089945
 31
0.0
  0
LINE
  8
0
 62
   249
 10
213.938229
 20
3.137999
 30
0.0
 11
215.898229
 21
5.097999
 31
0.0
  0
LINE
  8
0
 62
   249
 10
213.827099
 20
3.150613
 30
0.0
 11
215.774485
 21
5.097999
 31
0.0
  0
LINE
  8
0
 62
   249
 10
213.827099
 20
3.274357
 30
0.0
 11
215.650742
 21
5.097999
 31
0.0
  0
LINE
  8
0
 62
   249
 10
213.827099
 20
3.3981
 30
0.0
 11
215.526998
 21
5.097999
 31
0.0
  0
LINE
  8
0
 62
   249
 10
213.827099
 20
3.521844
 30
0.0
 11
215.403254
 21
5.097999
 31
0.0
  0
LINE
  8
0
 62
   249
 10
213.827099
 20
3.645588
 30
0.0
 11
215.279511
 21
5.097999
 31
0.0
  0
LINE
  8
0
 62
   249
 10
213.827099
 20
3.769331
 30
0.0
 11
215.155767
 21
5.097999
 31
0.0
  0
LINE
  8
0
 62
   249
 10
213.827099
 20
3.893075
 30
0.0
 11
215.032023
 21
5.097999
 31
0.0
  0
LINE
  8
0
 62
   249
 10
213.827099
 20
4.016819
 30
0.0
 11
214.90828
 21
5.097999
 31
0.0
  0
LINE
  8
0
 62
   249
 10
213.827099
 20
4.140562
 30
0.0
 11
214.784536
 21
5.097999
 31
0.0
  0
LINE
  8
0
 62
   249
 10
213.827099
 20
4.264306
 30
0.0
 11
214.660792
 21
5.097999
 31
0.0
  0
LINE
  8
0
 62
   249
 10
213.827099
 20
4.38805
 30
0.0
 11
214.537049
 21
5.097999
 31
0.0
  0
LINE
  8
0
 62
   249
 10
213.827099
 20
4.511793
 30
0.0
 11
214.413305
 21
5.097999
 31
0.0
  0
LINE
  8
0
 62
   249
 10
213.827099
 20
4.635537
 30
0.0
 11
214.289561
 21
5.097999
 31
0.0
  0
LINE
  8
0
 62
   249
 10
213.827099
 20
4.759281
 30
0.0
 11
214.165818
 21
5.097999
 31
0.0
  0
LINE
  8
0
 62
   249
 10
213.827099
 20
4.883025
 30
0.0
 11
214.042074
 21
5.097999
 31
0.0
  0
LINE
  8
0
 62
   249
 10
213.827099
 20
5.006768
 30
0.0
 11
213.91833
 21
5.097999
 31
0.0
  0
LINE
  8
0
 62
   249
 10
215.038439
 20
2.877028
 30
0.0
 11
216.334735
 21
4.173325
 31
0.0
  0
LINE
  8
0
 62
   249
 10
215.070521
 20
2.785366
 30
0.0
 11
216.366817
 21
4.081663
 31
0.0
  0
LINE
  8
0
 62
   249
 10
215.102602
 20
2.693704
 30
0.0
 11
216.398899
 21
3.990001
 31
0.0
  0
LINE
  8
0
 62
   249
 10
215.134684
 20
2.602042
 30
0.0
 11
216.43098
 21
3.898339
 31
0.0
  0
LINE
  8
0
 62
   249
 10
215.166766
 20
2.51038
 30
0.0
 11
216.463062
 21
3.806677
 31
0.0
  0
LINE
  8
0
 62
   249
 10
215.198847
 20
2.418718
 30
0.0
 11
216.495144
 21
3.715015
 31
0.0
  0
LINE
  8
0
 62
   249
 10
215.230929
 20
2.327056
 30
0.0
 11
216.527225
 21
3.623353
 31
0.0
  0
LINE
  8
0
 62
   249
 10
215.263011
 20
2.235395
 30
0.0
 11
216.559307
 21
3.531691
 31
0.0
  0
LINE
  8
0
 62
   249
 10
215.295092
 20
2.143733
 30
0.0
 11
216.591389
 21
3.440029
 31
0.0
  0
LINE
  8
0
 62
   249
 10
215.327174
 20
2.052071
 30
0.0
 11
216.62347
 21
3.348367
 31
0.0
  0
LINE
  8
0
 62
   249
 10
215.359256
 20
1.960409
 30
0.0
 11
216.655552
 21
3.256705
 31
0.0
  0
LINE
  8
0
 62
   249
 10
215.391338
 20
1.868747
 30
0.0
 11
216.687634
 21
3.165043
 31
0.0
  0
LINE
  8
0
 62
   249
 10
215.423419
 20
1.777085
 30
0.0
 11
216.719716
 21
3.073381
 31
0.0
  0
LINE
  8
0
 62
   249
 10
215.508078
 20
1.737999
 30
0.0
 11
216.751797
 21
2.981719
 31
0.0
  0
LINE
  8
0
 62
   249
 10
215.631821
 20
1.737999
 30
0.0
 11
216.783879
 21
2.890057
 31
0.0
  0
LINE
  8
0
 62
   249
 10
215.755565
 20
1.737999
 30
0.0
 11
216.815961
 21
2.798395
 31
0.0
  0
LINE
  8
0
 62
   249
 10
215.879309
 20
1.737999
 30
0.0
 11
216.848042
 21
2.706733
 31
0.0
  0
LINE
  8
0
 62
   249
 10
216.003052
 20
1.737999
 30
0.0
 11
216.880124
 21
2.615071
 31
0.0
  0
LINE
  8
0
 62
   249
 10
216.126796
 20
1.737999
 30
0.0
 11
216.912206
 21
2.523409
 31
0.0
  0
LINE
  8
0
 62
   249
 10
216.25054
 20
1.737999
 30
0.0
 11
216.944287
 21
2.431747
 31
0.0
  0
LINE
  8
0
 62
   249
 10
216.374283
 20
1.737999
 30
0.0
 11
216.976369
 21
2.340085
 31
0.0
  0
LINE
  8
0
 62
   249
 10
216.498027
 20
1.737999
 30
0.0
 11
217.008451
 21
2.248423
 31
0.0
  0
LINE
  8
0
 62
   249
 10
216.621771
 20
1.737999
 30
0.0
 11
217.040532
 21
2.156761
 31
0.0
  0
LINE
  8
0
 62
   249
 10
216.745514
 20
1.737999
 30
0.0
 11
217.072614
 21
2.065099
 31
0.0
  0
LINE
  8
0
 62
   249
 10
216.869258
 20
1.737999
 30
0.0
 11
217.104696
 21
1.973437
 31
0.0
  0
LINE
  8
0
 62
   249
 10
216.993002
 20
1.737999
 30
0.0
 11
217.136778
 21
1.881775
 31
0.0
  0
LINE
  8
0
 62
   249
 10
217.116746
 20
1.737999
 30
0.0
 11
217.168859
 21
1.790113
 31
0.0
  0
LINE
  8
0
 62
   249
 10
219.917099
 20
2.310966
 30
0.0
 11
222.364614
 21
4.758481
 31
0.0
  0
LINE
  8
0
 62
   249
 10
219.917099
 20
2.43471
 30
0.0
 11
222.322547
 21
4.840158
 31
0.0
  0
LINE
  8
0
 62
   249
 10
219.917099
 20
2.558454
 30
0.0
 11
222.277553
 21
4.918908
 31
0.0
  0
LINE
  8
0
 62
   249
 10
219.917099
 20
2.682197
 30
0.0
 11
222.229735
 21
4.994834
 31
0.0
  0
LINE
  8
0
 62
   249
 10
219.917099
 20
2.805941
 30
0.0
 11
222.179174
 21
5.068016
 31
0.0
  0
LINE
  8
0
 62
   249
 10
219.917099
 20
2.929685
 30
0.0
 11
222.085413
 21
5.097999
 31
0.0
  0
LINE
  8
0
 62
   249
 10
219.917099
 20
3.053429
 30
0.0
 11
221.96167
 21
5.097999
 31
0.0
  0
LINE
  8
0
 62
   249
 10
219.917099
 20
3.177172
 30
0.0
 11
221.837926
 21
5.097999
 31
0.0
  0
LINE
  8
0
 62
   249
 10
219.917099
 20
3.300916
 30
0.0
 11
221.714182
 21
5.097999
 31
0.0
  0
LINE
  8
0
 62
   249
 10
219.917099
 20
3.42466
 30
0.0
 11
221.590439
 21
5.097999
 31
0.0
  0
LINE
  8
0
 62
   249
 10
219.917099
 20
3.548403
 30
0.0
 11
221.466695
 21
5.097999
 31
0.0
  0
LINE
  8
0
 62
   249
 10
219.917099
 20
3.672147
 30
0.0
 11
221.342951
 21
5.097999
 31
0.0
  0
LINE
  8
0
 62
   249
 10
219.917099
 20
3.795891
 30
0.0
 11
221.219208
 21
5.097999
 31
0.0
  0
LINE
  8
0
 62
   249
 10
219.917099
 20
3.919634
 30
0.0
 11
221.095464
 21
5.097999
 31
0.0
  0
LINE
  8
0
 62
   249
 10
219.917099
 20
4.043378
 30
0.0
 11
220.97172
 21
5.097999
 31
0.0
  0
LINE
  8
0
 62
   249
 10
219.917099
 20
4.167122
 30
0.0
 11
220.847977
 21
5.097999
 31
0.0
  0
LINE
  8
0
 62
   249
 10
219.917099
 20
4.290865
 30
0.0
 11
220.724233
 21
5.097999
 31
0.0
  0
LINE
  8
0
 62
   249
 10
219.917099
 20
4.414609
 30
0.0
 11
220.600489
 21
5.097999
 31
0.0
  0
LINE
  8
0
 62
   249
 10
219.917099
 20
4.538353
 30
0.0
 11
220.476746
 21
5.097999
 31
0.0
  0
LINE
  8
0
 62
   249
 10
219.917099
 20
4.662096
 30
0.0
 11
220.353002
 21
5.097999
 31
0.0
  0
LINE
  8
0
 62
   249
 10
219.917099
 20
4.78584
 30
0.0
 11
220.229258
 21
5.097999
 31
0.0
  0
LINE
  8
0
 62
   249
 10
219.917099
 20
4.909584
 30
0.0
 11
220.105514
 21
5.097999
 31
0.0
  0
LINE
  8
0
 62
   249
 10
219.917099
 20
5.033328
 30
0.0
 11
219.981771
 21
5.097999
 31
0.0
  0
LINE
  8
0
 62
   249
 10
219.917099
 20
2.187223
 30
0.0
 11
222.403629
 21
4.673752
 31
0.0
  0
LINE
  8
0
 62
   249
 10
219.917099
 20
2.063479
 30
0.0
 11
222.439437
 21
4.585817
 31
0.0
  0
LINE
  8
0
 62
   249
 10
219.917099
 20
1.939735
 30
0.0
 11
222.471849
 21
4.494485
 31
0.0
  0
LINE
  8
0
 62
   249
 10
219.917099
 20
1.815992
 30
0.0
 11
222.500633
 21
4.399525
 31
0.0
  0
LINE
  8
0
 62
   249
 10
219.96285
 20
1.737999
 30
0.0
 11
222.525502
 21
4.300651
 31
0.0
  0
LINE
  8
0
 62
   249
 10
220.086594
 20
1.738
 30
0.0
 11
222.546098
 21
4.197503
 31
0.0
  0
LINE
  8
0
 62
   249
 10
220.210338
 20
1.738
 30
0.0
 11
222.561969
 21
4.08963
 31
0.0
  0
LINE
  8
0
 62
   249
 10
220.334082
 20
1.738
 30
0.0
 11
222.57253
 21
3.976448
 31
0.0
  0
LINE
  8
0
 62
   249
 10
220.457826
 20
1.738
 30
0.0
 11
222.577011
 21
3.857186
 31
0.0
  0
LINE
  8
0
 62
   249
 10
220.584307
 20
1.740738
 30
0.0
 11
222.574361
 21
3.730791
 31
0.0
  0
LINE
  8
0
 62
   249
 10
220.71933
 20
1.752016
 30
0.0
 11
222.563082
 21
3.595769
 31
0.0
  0
LINE
  8
0
 62
   249
 10
220.865237
 20
1.77418
 30
0.0
 11
222.540918
 21
3.449861
 31
0.0
  0
LINE
  8
0
 62
   249
 10
221.025733
 20
1.810932
 30
0.0
 11
222.504166
 21
3.289366
 31
0.0
  0
LINE
  8
0
 62
   249
 10
221.207749
 20
1.869205
 30
0.0
 11
222.445893
 21
3.107349
 31
0.0
  0
LINE
  8
0
 62
   249
 10
221.427822
 20
1.965534
 30
0.0
 11
222.349564
 21
2.887276
 31
0.0
  0
LINE
  8
0
 62
   249
 10
221.76645
 20
2.180419
 30
0.0
 11
222.13468
 21
2.548648
 31
0.0
  0
LINE
  8
0
 62
   249
 10
223.137099
 20
2.54584
 30
0.0
 11
225.097099
 21
4.50584
 31
0.0
  0
LINE
  8
0
 62
   249
 10
223.137099
 20
2.669584
 30
0.0
 11
225.097099
 21
4.629584
 31
0.0
  0
LINE
  8
0
 62
   249
 10
223.137099
 20
2.793328
 30
0.0
 11
225.097099
 21
4.753328
 31
0.0
  0
LINE
  8
0
 62
   249
 10
223.137099
 20
2.917071
 30
0.0
 11
225.097099
 21
4.877071
 31
0.0
  0
LINE
  8
0
 62
   249
 10
223.137099
 20
3.040815
 30
0.0
 11
225.097099
 21
5.000815
 31
0.0
  0
LINE
  8
0
 62
   249
 10
223.137099
 20
3.164559
 30
0.0
 11
225.07054
 21
5.097999
 31
0.0
  0
LINE
  8
0
 62
   249
 10
223.137099
 20
3.288302
 30
0.0
 11
224.946796
 21
5.097999
 31
0.0
  0
LINE
  8
0
 62
   249
 10
223.137099
 20
3.412046
 30
0.0
 11
224.823052
 21
5.097999
 31
0.0
  0
LINE
  8
0
 62
   249
 10
223.137099
 20
3.53579
 30
0.0
 11
224.699309
 21
5.097999
 31
0.0
  0
LINE
  8
0
 62
   249
 10
223.137099
 20
3.659533
 30
0.0
 11
224.575565
 21
5.097999
 31
0.0
  0
LINE
  8
0
 62
   249
 10
223.137099
 20
3.783277
 30
0.0
 11
224.451821
 21
5.097999
 31
0.0
  0
LINE
  8
0
 62
   249
 10
223.137099
 20
3.907021
 30
0.0
 11
224.328078
 21
5.097999
 31
0.0
  0
LINE
  8
0
 62
   249
 10
223.137099
 20
4.030764
 30
0.0
 11
224.204334
 21
5.097999
 31
0.0
  0
LINE
  8
0
 62
   249
 10
223.137099
 20
4.154508
 30
0.0
 11
224.08059
 21
5.097999
 31
0.0
  0
LINE
  8
0
 62
   249
 10
223.137099
 20
4.278252
 30
0.0
 11
223.956847
 21
5.097999
 31
0.0
  0
LINE
  8
0
 62
   249
 10
223.137099
 20
4.401995
 30
0.0
 11
223.833103
 21
5.097999
 31
0.0
  0
LINE
  8
0
 62
   249
 10
223.137099
 20
4.525739
 30
0.0
 11
223.709359
 21
5.097999
 31
0.0
  0
LINE
  8
0
 62
   249
 10
223.137099
 20
4.649483
 30
0.0
 11
223.585615
 21
5.097999
 31
0.0
  0
LINE
  8
0
 62
   249
 10
223.137099
 20
4.773227
 30
0.0
 11
223.461872
 21
5.097999
 31
0.0
  0
LINE
  8
0
 62
   249
 10
223.137099
 20
4.89697
 30
0.0
 11
223.338128
 21
5.097999
 31
0.0
  0
LINE
  8
0
 62
   249
 10
223.137099
 20
5.020714
 30
0.0
 11
223.214384
 21
5.097999
 31
0.0
  0
LINE
  8
0
 62
   249
 10
223.137099
 20
2.422096
 30
0.0
 11
225.097099
 21
4.382096
 31
0.0
  0
LINE
  8
0
 62
   249
 10
223.137099
 20
2.298353
 30
0.0
 11
225.097099
 21
4.258353
 31
0.0
  0
LINE
  8
0
 62
   249
 10
223.137099
 20
2.174609
 30
0.0
 11
225.097099
 21
4.134609
 31
0.0
  0
LINE
  8
0
 62
   249
 10
223.137099
 20
2.050865
 30
0.0
 11
225.097099
 21
4.010865
 31
0.0
  0
LINE
  8
0
 62
   249
 10
223.137099
 20
1.927122
 30
0.0
 11
225.097099
 21
3.887122
 31
0.0
  0
LINE
  8
0
 62
   249
 10
223.137099
 20
1.803378
 30
0.0
 11
225.097099
 21
3.763378
 31
0.0
  0
LINE
  8
0
 62
   249
 10
223.195464
 20
1.737999
 30
0.0
 11
225.097099
 21
3.639634
 31
0.0
  0
LINE
  8
0
 62
   249
 10
223.319208
 20
1.737999
 30
0.0
 11
225.097099
 21
3.515891
 31
0.0
  0
LINE
  8
0
 62
   249
 10
223.442951
 20
1.737999
 30
0.0
 11
225.097099
 21
3.392147
 31
0.0
  0
LINE
  8
0
 62
   249
 10
223.566695
 20
1.737999
 30
0.0
 11
225.097099
 21
3.268403
 31
0.0
  0
LINE
  8
0
 62
   249
 10
223.690439
 20
1.737999
 30
0.0
 11
225.097099
 21
3.14466
 31
0.0
  0
LINE
  8
0
 62
   249
 10
223.814182
 20
1.737999
 30
0.0
 11
225.097099
 21
3.020916
 31
0.0
  0
LINE
  8
0
 62
   249
 10
223.937926
 20
1.737999
 30
0.0
 11
225.097099
 21
2.897172
 31
0.0
  0
LINE
  8
0
 62
   249
 10
224.06167
 20
1.737999
 30
0.0
 11
225.097099
 21
2.773429
 31
0.0
  0
LINE
  8
0
 62
   249
 10
224.185413
 20
1.737999
 30
0.0
 11
225.097099
 21
2.649685
 31
0.0
  0
LINE
  8
0
 62
   249
 10
224.309157
 20
1.737999
 30
0.0
 11
225.097099
 21
2.525941
 31
0.0
  0
LINE
  8
0
 62
   249
 10
224.432901
 20
1.737999
 30
0.0
 11
225.097099
 21
2.402197
 31
0.0
  0
LINE
  8
0
 62
   249
 10
224.556645
 20
1.737999
 30
0.0
 11
225.097099
 21
2.278454
 31
0.0
  0
LINE
  8
0
 62
   249
 10
224.680388
 20
1.737999
 30
0.0
 11
225.097099
 21
2.15471
 31
0.0
  0
LINE
  8
0
 62
   249
 10
224.804132
 20
1.737999
 30
0.0
 11
225.097099
 21
2.030966
 31
0.0
  0
LINE
  8
0
 62
   249
 10
224.927876
 20
1.737999
 30
0.0
 11
225.097099
 21
1.907223
 31
0.0
  0
LINE
  8
0
 62
   249
 10
225.051619
 20
1.737999
 30
0.0
 11
225.097099
 21
1.783479
 31
0.0
  0
TEXT
  8
0
  6
CONTINUOUS
 62
   249
 10
201.844763
 20
51.50558
 30
0.0
 40
2.0
  1
-
  0
TEXT
  8
0
  6
CONTINUOUS
 62
   249
 10
216.853328
 20
51.513635
 30
0.0
 40
2.0
  1
+
  0
TEXT
  8
0
  6
CONTINUOUS
 62
   249
 10
221.844763
 20
51.50558
 30
0.0
 40
2.0
  1
-
  0
INSERT
  8
0
  6
CENTER
 62
   249
  2
BLC5
 10
235.291926
 20
53.342005
 30
0.0
 41
0.6
 42
0.6
 43
0.6
  0
ARC
  8
0
 62
   249
 10
221.172927
 20
110.936221
 30
0.0
 40
0.869227
 50
32.471192
 51
175.601295
  0
ARC
  8
0
 62
   249
 10
222.639595
 20
111.869554
 30
0.0
 40
0.869227
 50
212.471192
 51
355.601295
  0
LINE
  8
0
  6
CONTINUOUS
 62
   249
 10
228.465688
 20
161.164644
 30
0.0
 11
226.119923
 21
162.499998
 31
0.0
  0
LINE
  8
0
  6
CONTINUOUS
 62
   249
 10
226.119923
 20
162.499998
 30
0.0
 11
228.465688
 21
163.689917
 31
0.0
  0
LINE
  8
0
  6
CONTINUOUS
 62
   249
 10
234.354231
 20
141.335354
 30
0.0
 11
236.699996
 21
140.0
 31
0.0
  0
LINE
  8
0
  6
CONTINUOUS
 62
   249
 10
236.699996
 20
140.0
 30
0.0
 11
234.354231
 21
138.810081
 31
0.0
  0
LINE
  8
0
  6
CONTINUOUS
 62
   249
 10
231.477279
 20
138.664646
 30
0.0
 11
229.131514
 21
140.0
 31
0.0
  0
LINE
  8
0
  6
CONTINUOUS
 62
   249
 10
229.131514
 20
140.0
 30
0.0
 11
231.477279
 21
141.189919
 31
0.0
  0
3DFACE
  8
0
  6
CONTINUOUS
 62
   249
 10
253.365976
 20
140.56
 30
0.0
 11
253.350296
 21
140.56
 31
0.0
 12
253.350296
 22
139.44
 32
0.0
 13
253.365976
 23
139.44
 33
0.0
  0
3DFACE
  8
0
  6
CONTINUOUS
 62
   249
 10
253.350296
 20
140.56
 30
0.0
 11
253.334616
 21
140.56
 31
0.0
 12
253.334616
 22
139.44
 32
0.0
 13
253.350296
 23
139.44
 33
0.0
  0
3DFACE
  8
0
  6
CONTINUOUS
 62
   249
 10
253.334616
 20
140.56
 30
0.0
 11
253.318936
 21
140.56
 31
0.0
 12
253.318936
 22
139.44
 32
0.0
 13
253.334616
 23
139.44
 33
0.0
  0
3DFACE
  8
0
  6
CONTINUOUS
 62
   249
 10
253.318936
 20
140.56
 30
0.0
 11
253.303256
 21
140.56
 31
0.0
 12
253.303256
 22
139.44
 32
0.0
 13
253.318936
 23
139.44
 33
0.0
  0
3DFACE
  8
0
  6
CONTINUOUS
 62
   249
 10
253.303256
 20
140.56
 30
0.0
 11
253.287576
 21
140.56
 31
0.0
 12
253.287576
 22
139.44
 32
0.0
 13
253.303256
 23
139.44
 33
0.0
  0
3DFACE
  8
0
  6
CONTINUOUS
 62
   249
 10
253.287576
 20
140.56
 30
0.0
 11
253.271896
 21
140.56
 31
0.0
 12
253.271896
 22
139.44
 32
0.0
 13
253.287576
 23
139.44
 33
0.0
  0
3DFACE
  8
0
  6
CONTINUOUS
 62
   249
 10
253.271896
 20
140.56
 30
0.0
 11
253.256216
 21
140.56
 31
0.0
 12
253.256216
 22
139.44
 32
0.0
 13
253.271896
 23
139.44
 33
0.0
  0
3DFACE
  8
0
  6
CONTINUOUS
 62
   249
 10
253.256216
 20
140.56
 30
0.0
 11
253.240536
 21
140.56
 31
0.0
 12
253.240536
 22
139.44
 32
0.0
 13
253.256216
 23
139.44
 33
0.0
  0
3DFACE
  8
0
  6
CONTINUOUS
 62
   249
 10
253.240536
 20
140.56
 30
0.0
 11
253.224856
 21
140.56
 31
0.0
 12
253.224856
 22
139.44
 32
0.0
 13
253.240536
 23
139.44
 33
0.0
  0
3DFACE
  8
0
  6
CONTINUOUS
 62
   249
 10
253.224856
 20
140.56
 30
0.0
 11
253.209176
 21
140.56
 31
0.0
 12
253.209176
 22
139.44
 32
0.0
 13
253.224856
 23
139.44
 33
0.0
  0
3DFACE
  8
0
  6
CONTINUOUS
 62
   249
 10
253.209176
 20
140.56
 30
0.0
 11
253.193496
 21
140.56
 31
0.0
 12
253.193496
 22
139.44
 32
0.0
 13
253.209176
 23
139.44
 33
0.0
  0
3DFACE
  8
0
  6
CONTINUOUS
 62
   249
 10
253.193496
 20
140.56
 30
0.0
 11
253.177816
 21
140.56
 31
0.0
 12
253.177816
 22
139.44
 32
0.0
 13
253.193496
 23
139.44
 33
0.0
  0
3DFACE
  8
0
  6
CONTINUOUS
 62
   249
 10
253.177816
 20
140.56
 30
0.0
 11
253.162136
 21
140.56
 31
0.0
 12
253.162136
 22
139.44
 32
0.0
 13
253.177816
 23
139.44
 33
0.0
  0
3DFACE
  8
0
  6
CONTINUOUS
 62
   249
 10
253.162136
 20
140.56
 30
0.0
 11
253.146456
 21
140.56
 31
0.0
 12
253.146456
 22
139.44
 32
0.0
 13
253.162136
 23
139.44
 33
0.0
  0
3DFACE
  8
0
  6
CONTINUOUS
 62
   249
 10
253.146456
 20
140.56
 30
0.0
 11
253.130776
 21
140.56
 31
0.0
 12
253.130776
 22
139.44
 32
0.0
 13
253.146456
 23
139.44
 33
0.0
  0
3DFACE
  8
0
  6
CONTINUOUS
 62
   249
 10
253.130776
 20
140.56
 30
0.0
 11
253.115096
 21
140.56
 31
0.0
 12
253.115096
 22
139.44
 32
0.0
 13
253.130776
 23
139.44
 33
0.0
  0
3DFACE
  8
0
  6
CONTINUOUS
 62
   249
 10
253.115096
 20
140.56
 30
0.0
 11
253.099416
 21
140.56
 31
0.0
 12
253.099416
 22
139.44
 32
0.0
 13
253.115096
 23
139.44
 33
0.0
  0
3DFACE
  8
0
  6
CONTINUOUS
 62
   249
 10
253.099416
 20
140.56
 30
0.0
 11
253.083736
 21
140.56
 31
0.0
 12
253.083736
 22
139.44
 32
0.0
 13
253.099416
 23
139.44
 33
0.0
  0
3DFACE
  8
0
  6
CONTINUOUS
 62
   249
 10
253.083736
 20
140.56
 30
0.0
 11
253.068056
 21
140.56
 31
0.0
 12
253.068056
 22
139.44
 32
0.0
 13
253.083736
 23
139.44
 33
0.0
  0
3DFACE
  8
0
  6
CONTINUOUS
 62
   249
 10
253.068056
 20
140.56
 30
0.0
 11
253.052376
 21
140.56
 31
0.0
 12
253.052376
 22
139.44
 32
0.0
 13
253.068056
 23
139.44
 33
0.0
  0
3DFACE
  8
0
  6
CONTINUOUS
 62
   249
 10
253.052376
 20
140.56
 30
0.0
 11
253.036696
 21
140.56
 31
0.0
 12
253.036696
 22
139.44
 32
0.0
 13
253.052376
 23
139.44
 33
0.0
  0
3DFACE
  8
0
  6
CONTINUOUS
 62
   249
 10
253.036696
 20
140.56
 30
0.0
 11
253.021016
 21
140.56
 31
0.0
 12
253.021016
 22
139.44
 32
0.0
 13
253.036696
 23
139.44
 33
0.0
  0
3DFACE
  8
0
  6
CONTINUOUS
 62
   249
 10
253.021016
 20
140.56
 30
0.0
 11
253.005336
 21
140.56
 31
0.0
 12
253.005336
 22
139.44
 32
0.0
 13
253.021016
 23
139.44
 33
0.0
  0
3DFACE
  8
0
  6
CONTINUOUS
 62
   249
 10
253.005336
 20
140.56
 30
0.0
 11
252.989656
 21
140.56
 31
0.0
 12
252.989656
 22
139.44
 32
0.0
 13
253.005336
 23
139.44
 33
0.0
  0
3DFACE
  8
0
  6
CONTINUOUS
 62
   249
 10
252.989656
 20
140.56
 30
0.0
 11
252.973976
 21
140.56
 31
0.0
 12
252.973976
 22
139.44
 32
0.0
 13
252.989656
 23
139.44
 33
0.0
  0
3DFACE
  8
0
  6
CONTINUOUS
 62
   249
 10
252.973976
 20
140.56
 30
0.0
 11
252.958296
 21
140.56
 31
0.0
 12
252.958296
 22
139.44
 32
0.0
 13
252.973976
 23
139.44
 33
0.0
  0
3DFACE
  8
0
  6
CONTINUOUS
 62
   249
 10
252.958296
 20
140.56
 30
0.0
 11
252.942616
 21
140.56
 31
0.0
 12
252.942616
 22
139.44
 32
0.0
 13
252.958296
 23
139.44
 33
0.0
  0
3DFACE
  8
0
  6
CONTINUOUS
 62
   249
 10
252.942616
 20
140.56
 30
0.0
 11
252.926936
 21
140.56
 31
0.0
 12
252.926936
 22
139.44
 32
0.0
 13
252.942616
 23
139.44
 33
0.0
  0
3DFACE
  8
0
  6
CONTINUOUS
 62
   249
 10
252.926936
 20
140.56
 30
0.0
 11
252.911256
 21
140.56
 31
0.0
 12
252.911256
 22
139.44
 32
0.0
 13
252.926936
 23
139.44
 33
0.0
  0
3DFACE
  8
0
  6
CONTINUOUS
 62
   249
 10
252.911256
 20
140.56
 30
0.0
 11
252.895576
 21
140.56
 31
0.0
 12
252.895576
 22
139.44
 32
0.0
 13
252.911256
 23
139.44
 33
0.0
  0
3DFACE
  8
0
  6
CONTINUOUS
 62
   249
 10
252.895576
 20
140.56
 30
0.0
 11
252.879896
 21
140.56
 31
0.0
 12
252.879896
 22
139.44
 32
0.0
 13
252.895576
 23
139.44
 33
0.0
  0
3DFACE
  8
0
  6
CONTINUOUS
 62
   249
 10
252.879896
 20
140.56
 30
0.0
 11
252.864216
 21
140.56
 31
0.0
 12
252.864216
 22
139.44
 32
0.0
 13
252.879896
 23
139.44
 33
0.0
  0
3DFACE
  8
0
  6
CONTINUOUS
 62
   249
 10
252.864216
 20
140.56
 30
0.0
 11
252.848536
 21
140.56
 31
0.0
 12
252.848536
 22
139.44
 32
0.0
 13
252.864216
 23
139.44
 33
0.0
  0
3DFACE
  8
0
  6
CONTINUOUS
 62
   249
 10
252.848536
 20
140.56
 30
0.0
 11
252.832856
 21
140.56
 31
0.0
 12
252.832856
 22
139.44
 32
0.0
 13
252.848536
 23
139.44
 33
0.0
  0
3DFACE
  8
0
  6
CONTINUOUS
 62
   249
 10
252.832856
 20
140.56
 30
0.0
 11
252.817176
 21
140.56
 31
0.0
 12
252.817176
 22
139.44
 32
0.0
 13
252.832856
 23
139.44
 33
0.0
  0
3DFACE
  8
0
  6
CONTINUOUS
 62
   249
 10
252.817176
 20
140.56
 30
0.0
 11
252.801496
 21
140.56
 31
0.0
 12
252.801496
 22
139.44
 32
0.0
 13
252.817176
 23
139.44
 33
0.0
  0
3DFACE
  8
0
  6
CONTINUOUS
 62
   249
 10
252.801496
 20
140.56
 30
0.0
 11
252.785816
 21
140.56
 31
0.0
 12
252.785816
 22
139.44
 32
0.0
 13
252.801496
 23
139.44
 33
0.0
  0
3DFACE
  8
0
  6
CONTINUOUS
 62
   249
 10
252.785816
 20
140.56
 30
0.0
 11
252.770136
 21
140.56
 31
0.0
 12
252.770136
 22
139.44
 32
0.0
 13
252.785816
 23
139.44
 33
0.0
  0
3DFACE
  8
0
  6
CONTINUOUS
 62
   249
 10
252.770136
 20
140.56
 30
0.0
 11
252.754456
 21
140.56
 31
0.0
 12
252.754456
 22
139.44
 32
0.0
 13
252.770136
 23
139.44
 33
0.0
  0
3DFACE
  8
0
  6
CONTINUOUS
 62
   249
 10
252.754456
 20
140.56
 30
0.0
 11
252.738776
 21
140.56
 31
0.0
 12
252.738776
 22
139.44
 32
0.0
 13
252.754456
 23
139.44
 33
0.0
  0
3DFACE
  8
0
  6
CONTINUOUS
 62
   249
 10
252.738776
 20
140.56
 30
0.0
 11
252.723096
 21
140.56
 31
0.0
 12
252.723096
 22
139.44
 32
0.0
 13
252.738776
 23
139.44
 33
0.0
  0
3DFACE
  8
0
  6
CONTINUOUS
 62
   249
 10
252.723096
 20
140.56
 30
0.0
 11
252.707416
 21
140.56
 31
0.0
 12
252.707416
 22
139.44
 32
0.0
 13
252.723096
 23
139.44
 33
0.0
  0
3DFACE
  8
0
  6
CONTINUOUS
 62
   249
 10
252.707416
 20
140.56
 30
0.0
 11
252.691736
 21
140.56
 31
0.0
 12
252.691736
 22
139.44
 32
0.0
 13
252.707416
 23
139.44
 33
0.0
  0
3DFACE
  8
0
  6
CONTINUOUS
 62
   249
 10
252.691736
 20
140.56
 30
0.0
 11
252.676056
 21
140.56
 31
0.0
 12
252.676056
 22
139.44
 32
0.0
 13
252.691736
 23
139.44
 33
0.0
  0
3DFACE
  8
0
  6
CONTINUOUS
 62
   249
 10
252.676056
 20
140.56
 30
0.0
 11
252.660376
 21
140.56
 31
0.0
 12
252.660376
 22
139.44
 32
0.0
 13
252.676056
 23
139.44
 33
0.0
  0
3DFACE
  8
0
  6
CONTINUOUS
 62
   249
 10
252.660376
 20
140.56
 30
0.0
 11
252.644696
 21
140.56
 31
0.0
 12
252.644696
 22
139.44
 32
0.0
 13
252.660376
 23
139.44
 33
0.0
  0
3DFACE
  8
0
  6
CONTINUOUS
 62
   249
 10
252.644696
 20
140.56
 30
0.0
 11
252.629016
 21
140.56
 31
0.0
 12
252.629016
 22
139.44
 32
0.0
 13
252.644696
 23
139.44
 33
0.0
  0
3DFACE
  8
0
  6
CONTINUOUS
 62
   249
 10
252.629016
 20
140.56
 30
0.0
 11
252.613336
 21
140.56
 31
0.0
 12
252.613336
 22
139.44
 32
0.0
 13
252.629016
 23
139.44
 33
0.0
  0
3DFACE
  8
0
  6
CONTINUOUS
 62
   249
 10
252.613336
 20
140.56
 30
0.0
 11
252.597656
 21
140.56
 31
0.0
 12
252.597656
 22
139.44
 32
0.0
 13
252.613336
 23
139.44
 33
0.0
  0
3DFACE
  8
0
  6
CONTINUOUS
 62
   249
 10
252.597656
 20
140.56
 30
0.0
 11
252.581976
 21
140.56
 31
0.0
 12
252.581976
 22
139.44
 32
0.0
 13
252.597656
 23
139.44
 33
0.0
  0
3DFACE
  8
0
  6
CONTINUOUS
 62
   249
 10
252.581976
 20
140.56
 30
0.0
 11
252.566296
 21
140.56
 31
0.0
 12
252.566296
 22
139.44
 32
0.0
 13
252.581976
 23
139.44
 33
0.0
  0
3DFACE
  8
0
  6
CONTINUOUS
 62
   249
 10
252.566296
 20
140.56
 30
0.0
 11
252.550616
 21
140.56
 31
0.0
 12
252.550616
 22
139.44
 32
0.0
 13
252.566296
 23
139.44
 33
0.0
  0
3DFACE
  8
0
  6
CONTINUOUS
 62
   249
 10
252.550616
 20
140.56
 30
0.0
 11
252.534936
 21
140.56
 31
0.0
 12
252.534936
 22
139.44
 32
0.0
 13
252.550616
 23
139.44
 33
0.0
  0
3DFACE
  8
0
  6
CONTINUOUS
 62
   249
 10
252.534936
 20
140.56
 30
0.0
 11
252.519256
 21
140.56
 31
0.0
 12
252.519256
 22
139.44
 32
0.0
 13
252.534936
 23
139.44
 33
0.0
  0
3DFACE
  8
0
  6
CONTINUOUS
 62
   249
 10
252.519256
 20
140.56
 30
0.0
 11
252.503576
 21
140.56
 31
0.0
 12
252.503576
 22
139.44
 32
0.0
 13
252.519256
 23
139.44
 33
0.0
  0
3DFACE
  8
0
  6
CONTINUOUS
 62
   249
 10
252.503576
 20
140.56
 30
0.0
 11
252.487896
 21
140.56
 31
0.0
 12
252.487896
 22
139.44
 32
0.0
 13
252.503576
 23
139.44
 33
0.0
  0
3DFACE
  8
0
  6
CONTINUOUS
 62
   249
 10
252.487896
 20
140.56
 30
0.0
 11
252.472216
 21
140.56
 31
0.0
 12
252.472216
 22
139.44
 32
0.0
 13
252.487896
 23
139.44
 33
0.0
  0
3DFACE
  8
0
  6
CONTINUOUS
 62
   249
 10
252.472216
 20
140.56
 30
0.0
 11
252.456536
 21
140.56
 31
0.0
 12
252.456536
 22
139.44
 32
0.0
 13
252.472216
 23
139.44
 33
0.0
  0
3DFACE
  8
0
  6
CONTINUOUS
 62
   249
 10
252.456536
 20
140.56
 30
0.0
 11
252.440856
 21
140.56
 31
0.0
 12
252.440856
 22
139.44
 32
0.0
 13
252.456536
 23
139.44
 33
0.0
  0
3DFACE
  8
0
  6
CONTINUOUS
 62
   249
 10
252.440856
 20
140.56
 30
0.0
 11
252.425176
 21
140.56
 31
0.0
 12
252.425176
 22
139.44
 32
0.0
 13
252.440856
 23
139.44
 33
0.0
  0
3DFACE
  8
0
  6
CONTINUOUS
 62
   249
 10
252.425176
 20
140.56
 30
0.0
 11
252.409496
 21
140.56
 31
0.0
 12
252.409496
 22
139.44
 32
0.0
 13
252.425176
 23
139.44
 33
0.0
  0
3DFACE
  8
0
  6
CONTINUOUS
 62
   249
 10
252.409496
 20
140.56
 30
0.0
 11
252.393816
 21
140.56
 31
0.0
 12
252.393816
 22
139.44
 32
0.0
 13
252.409496
 23
139.44
 33
0.0
  0
3DFACE
  8
0
  6
CONTINUOUS
 62
   249
 10
252.393816
 20
140.56
 30
0.0
 11
252.378136
 21
140.56
 31
0.0
 12
252.378136
 22
139.44
 32
0.0
 13
252.393816
 23
139.44
 33
0.0
  0
3DFACE
  8
0
  6
CONTINUOUS
 62
   249
 10
252.378136
 20
140.56
 30
0.0
 11
252.362456
 21
140.56
 31
0.0
 12
252.362456
 22
139.44
 32
0.0
 13
252.378136
 23
139.44
 33
0.0
  0
3DFACE
  8
0
  6
CONTINUOUS
 62
   249
 10
252.362456
 20
140.56
 30
0.0
 11
252.346776
 21
140.56
 31
0.0
 12
252.346776
 22
139.44
 32
0.0
 13
252.362456
 23
139.44
 33
0.0
  0
3DFACE
  8
0
  6
CONTINUOUS
 62
   249
 10
252.346776
 20
140.56
 30
0.0
 11
252.331096
 21
140.56
 31
0.0
 12
252.331096
 22
139.44
 32
0.0
 13
252.346776
 23
139.44
 33
0.0
  0
3DFACE
  8
0
  6
CONTINUOUS
 62
   249
 10
252.331096
 20
140.56
 30
0.0
 11
252.315416
 21
140.56
 31
0.0
 12
252.315416
 22
139.44
 32
0.0
 13
252.331096
 23
139.44
 33
0.0
  0
3DFACE
  8
0
  6
CONTINUOUS
 62
   249
 10
252.315416
 20
140.56
 30
0.0
 11
252.299736
 21
140.56
 31
0.0
 12
252.299736
 22
139.44
 32
0.0
 13
252.315416
 23
139.44
 33
0.0
  0
3DFACE
  8
0
  6
CONTINUOUS
 62
   249
 10
252.299736
 20
140.56
 30
0.0
 11
252.284056
 21
140.56
 31
0.0
 12
252.284056
 22
139.44
 32
0.0
 13
252.299736
 23
139.44
 33
0.0
  0
3DFACE
  8
0
  6
CONTINUOUS
 62
   249
 10
252.284056
 20
140.56
 30
0.0
 11
252.268376
 21
140.56
 31
0.0
 12
252.268376
 22
139.44
 32
0.0
 13
252.284056
 23
139.44
 33
0.0
  0
3DFACE
  8
0
  6
CONTINUOUS
 62
   249
 10
252.268376
 20
140.56
 30
0.0
 11
252.252696
 21
140.56
 31
0.0
 12
252.252696
 22
139.44
 32
0.0
 13
252.268376
 23
139.44
 33
0.0
  0
3DFACE
  8
0
  6
CONTINUOUS
 62
   249
 10
252.252696
 20
140.56
 30
0.0
 11
252.237016
 21
140.56
 31
0.0
 12
252.237016
 22
139.44
 32
0.0
 13
252.252696
 23
139.44
 33
0.0
  0
3DFACE
  8
0
  6
CONTINUOUS
 62
   249
 10
252.237016
 20
140.56
 30
0.0
 11
252.221336
 21
140.56
 31
0.0
 12
252.221336
 22
139.44
 32
0.0
 13
252.237016
 23
139.44
 33
0.0
  0
3DFACE
  8
0
  6
CONTINUOUS
 62
   249
 10
252.221336
 20
140.56
 30
0.0
 11
252.205656
 21
140.56
 31
0.0
 12
252.205656
 22
139.44
 32
0.0
 13
252.221336
 23
139.44
 33
0.0
  0
3DFACE
  8
0
  6
CONTINUOUS
 62
   249
 10
252.205656
 20
140.56
 30
0.0
 11
252.189976
 21
140.56
 31
0.0
 12
252.189976
 22
139.44
 32
0.0
 13
252.205656
 23
139.44
 33
0.0
  0
3DFACE
  8
0
  6
CONTINUOUS
 62
   249
 10
252.189976
 20
140.56
 30
0.0
 11
252.174296
 21
140.56
 31
0.0
 12
252.174296
 22
139.44
 32
0.0
 13
252.189976
 23
139.44
 33
0.0
  0
3DFACE
  8
0
  6
CONTINUOUS
 62
   249
 10
252.174296
 20
140.56
 30
0.0
 11
252.158616
 21
140.56
 31
0.0
 12
252.158616
 22
139.44
 32
0.0
 13
252.174296
 23
139.44
 33
0.0
  0
3DFACE
  8
0
  6
CONTINUOUS
 62
   249
 10
252.158616
 20
140.56
 30
0.0
 11
252.142936
 21
140.56
 31
0.0
 12
252.142936
 22
139.44
 32
0.0
 13
252.158616
 23
139.44
 33
0.0
  0
3DFACE
  8
0
  6
CONTINUOUS
 62
   249
 10
252.142936
 20
140.56
 30
0.0
 11
252.127256
 21
140.56
 31
0.0
 12
252.127256
 22
139.44
 32
0.0
 13
252.142936
 23
139.44
 33
0.0
  0
3DFACE
  8
0
  6
CONTINUOUS
 62
   249
 10
252.127256
 20
140.56
 30
0.0
 11
252.111576
 21
140.56
 31
0.0
 12
252.111576
 22
139.44
 32
0.0
 13
252.127256
 23
139.44
 33
0.0
  0
3DFACE
  8
0
  6
CONTINUOUS
 62
   249
 10
252.111576
 20
140.56
 30
0.0
 11
252.095896
 21
140.56
 31
0.0
 12
252.095896
 22
139.44
 32
0.0
 13
252.111576
 23
139.44
 33
0.0
  0
3DFACE
  8
0
  6
CONTINUOUS
 62
   249
 10
252.095896
 20
140.56
 30
0.0
 11
252.080216
 21
140.56
 31
0.0
 12
252.080216
 22
139.44
 32
0.0
 13
252.095896
 23
139.44
 33
0.0
  0
3DFACE
  8
0
  6
CONTINUOUS
 62
   249
 10
252.080216
 20
140.56
 30
0.0
 11
252.064536
 21
140.56
 31
0.0
 12
252.064536
 22
139.44
 32
0.0
 13
252.080216
 23
139.44
 33
0.0
  0
3DFACE
  8
0
  6
CONTINUOUS
 62
   249
 10
252.064536
 20
140.56
 30
0.0
 11
252.048856
 21
140.56
 31
0.0
 12
252.048856
 22
139.44
 32
0.0
 13
252.064536
 23
139.44
 33
0.0
  0
3DFACE
  8
0
  6
CONTINUOUS
 62
   249
 10
252.048856
 20
140.56
 30
0.0
 11
252.033176
 21
140.56
 31
0.0
 12
252.033176
 22
139.44
 32
0.0
 13
252.048856
 23
139.44
 33
0.0
  0
3DFACE
  8
0
  6
CONTINUOUS
 62
   249
 10
252.033176
 20
140.56
 30
0.0
 11
252.017496
 21
140.56
 31
0.0
 12
252.017496
 22
139.44
 32
0.0
 13
252.033176
 23
139.44
 33
0.0
  0
3DFACE
  8
0
  6
CONTINUOUS
 62
   249
 10
252.017496
 20
140.56
 30
0.0
 11
252.001816
 21
140.56
 31
0.0
 12
252.001816
 22
139.44
 32
0.0
 13
252.017496
 23
139.44
 33
0.0
  0
3DFACE
  8
0
  6
CONTINUOUS
 62
   249
 10
252.001816
 20
140.56
 30
0.0
 11
251.986136
 21
140.56
 31
0.0
 12
251.986136
 22
139.44
 32
0.0
 13
252.001816
 23
139.44
 33
0.0
  0
3DFACE
  8
0
  6
CONTINUOUS
 62
   249
 10
251.986136
 20
140.56
 30
0.0
 11
251.970456
 21
140.56
 31
0.0
 12
251.970456
 22
139.44
 32
0.0
 13
251.986136
 23
139.44
 33
0.0
  0
3DFACE
  8
0
  6
CONTINUOUS
 62
   249
 10
251.970456
 20
140.56
 30
0.0
 11
251.954776
 21
140.56
 31
0.0
 12
251.954776
 22
139.44
 32
0.0
 13
251.970456
 23
139.44
 33
0.0
  0
3DFACE
  8
0
  6
CONTINUOUS
 62
   249
 10
251.954776
 20
140.56
 30
0.0
 11
251.939096
 21
140.56
 31
0.0
 12
251.939096
 22
139.44
 32
0.0
 13
251.954776
 23
139.44
 33
0.0
  0
3DFACE
  8
0
  6
CONTINUOUS
 62
   249
 10
251.939096
 20
140.56
 30
0.0
 11
251.923416
 21
140.56
 31
0.0
 12
251.923416
 22
139.44
 32
0.0
 13
251.939096
 23
139.44
 33
0.0
  0
3DFACE
  8
0
  6
CONTINUOUS
 62
   249
 10
251.923416
 20
140.56
 30
0.0
 11
251.907736
 21
140.56
 31
0.0
 12
251.907736
 22
139.44
 32
0.0
 13
251.923416
 23
139.44
 33
0.0
  0
3DFACE
  8
0
  6
CONTINUOUS
 62
   249
 10
251.907736
 20
140.56
 30
0.0
 11
251.892056
 21
140.56
 31
0.0
 12
251.892056
 22
139.44
 32
0.0
 13
251.907736
 23
139.44
 33
0.0
  0
3DFACE
  8
0
  6
CONTINUOUS
 62
   249
 10
251.892056
 20
140.56
 30
0.0
 11
251.876376
 21
140.56
 31
0.0
 12
251.876376
 22
139.44
 32
0.0
 13
251.892056
 23
139.44
 33
0.0
  0
3DFACE
  8
0
  6
CONTINUOUS
 62
   249
 10
251.876376
 20
140.56
 30
0.0
 11
251.860696
 21
140.56
 31
0.0
 12
251.860696
 22
139.44
 32
0.0
 13
251.876376
 23
139.44
 33
0.0
  0
3DFACE
  8
0
  6
CONTINUOUS
 62
   249
 10
251.860696
 20
140.56
 30
0.0
 11
251.845016
 21
140.56
 31
0.0
 12
251.845016
 22
139.44
 32
0.0
 13
251.860696
 23
139.44
 33
0.0
  0
3DFACE
  8
0
  6
CONTINUOUS
 62
   249
 10
251.845016
 20
140.56
 30
0.0
 11
251.829336
 21
140.56
 31
0.0
 12
251.829336
 22
139.44
 32
0.0
 13
251.845016
 23
139.44
 33
0.0
  0
3DFACE
  8
0
  6
CONTINUOUS
 62
   249
 10
251.829336
 20
140.56
 30
0.0
 11
251.813656
 21
140.56
 31
0.0
 12
251.813656
 22
139.44
 32
0.0
 13
251.829336
 23
139.44
 33
0.0
  0
3DFACE
  8
0
  6
CONTINUOUS
 62
   249
 10
251.813656
 20
140.56
 30
0.0
 11
251.797976
 21
140.56
 31
0.0
 12
251.797976
 22
139.44
 32
0.0
 13
251.813656
 23
139.44
 33
0.0
  0
3DFACE
  8
0
  6
CONTINUOUS
 62
   249
 10
251.797976
 20
140.56
 30
0.0
 11
251.782296
 21
140.56
 31
0.0
 12
251.782296
 22
139.44
 32
0.0
 13
251.797976
 23
139.44
 33
0.0
  0
3DFACE
  8
0
  6
CONTINUOUS
 62
   249
 10
251.782296
 20
140.56
 30
0.0
 11
251.766616
 21
140.56
 31
0.0
 12
251.766616
 22
139.44
 32
0.0
 13
251.782296
 23
139.44
 33
0.0
  0
3DFACE
  8
0
  6
CONTINUOUS
 62
   249
 10
251.766616
 20
140.56
 30
0.0
 11
251.750936
 21
140.56
 31
0.0
 12
251.750936
 22
139.44
 32
0.0
 13
251.766616
 23
139.44
 33
0.0
  0
3DFACE
  8
0
  6
CONTINUOUS
 62
   249
 10
251.750936
 20
140.56
 30
0.0
 11
251.735256
 21
140.56
 31
0.0
 12
251.735256
 22
139.44
 32
0.0
 13
251.750936
 23
139.44
 33
0.0
  0
3DFACE
  8
0
  6
CONTINUOUS
 62
   249
 10
251.735256
 20
140.56
 30
0.0
 11
251.719576
 21
140.56
 31
0.0
 12
251.719576
 22
139.44
 32
0.0
 13
251.735256
 23
139.44
 33
0.0
  0
3DFACE
  8
0
  6
CONTINUOUS
 62
   249
 10
251.719576
 20
140.56
 30
0.0
 11
251.703896
 21
140.56
 31
0.0
 12
251.703896
 22
139.44
 32
0.0
 13
251.719576
 23
139.44
 33
0.0
  0
3DFACE
  8
0
  6
CONTINUOUS
 62
   249
 10
251.703896
 20
140.56
 30
0.0
 11
251.688216
 21
140.56
 31
0.0
 12
251.688216
 22
139.44
 32
0.0
 13
251.703896
 23
139.44
 33
0.0
  0
3DFACE
  8
0
  6
CONTINUOUS
 62
   249
 10
251.688216
 20
140.56
 30
0.0
 11
251.672536
 21
140.56
 31
0.0
 12
251.672536
 22
139.44
 32
0.0
 13
251.688216
 23
139.44
 33
0.0
  0
3DFACE
  8
0
  6
CONTINUOUS
 62
   249
 10
251.672536
 20
140.56
 30
0.0
 11
251.656856
 21
140.56
 31
0.0
 12
251.656856
 22
139.44
 32
0.0
 13
251.672536
 23
139.44
 33
0.0
  0
3DFACE
  8
0
  6
CONTINUOUS
 62
   249
 10
251.656856
 20
140.56
 30
0.0
 11
251.641176
 21
140.56
 31
0.0
 12
251.641176
 22
139.44
 32
0.0
 13
251.656856
 23
139.44
 33
0.0
  0
3DFACE
  8
0
  6
CONTINUOUS
 62
   249
 10
251.641176
 20
140.56
 30
0.0
 11
251.625496
 21
140.56
 31
0.0
 12
251.625496
 22
139.44
 32
0.0
 13
251.641176
 23
139.44
 33
0.0
  0
3DFACE
  8
0
  6
CONTINUOUS
 62
   249
 10
251.625496
 20
140.56
 30
0.0
 11
251.609816
 21
140.56
 31
0.0
 12
251.609816
 22
139.44
 32
0.0
 13
251.625496
 23
139.44
 33
0.0
  0
3DFACE
  8
0
  6
CONTINUOUS
 62
   249
 10
251.609816
 20
140.56
 30
0.0
 11
251.594136
 21
140.56
 31
0.0
 12
251.594136
 22
139.44
 32
0.0
 13
251.609816
 23
139.44
 33
0.0
  0
3DFACE
  8
0
  6
CONTINUOUS
 62
   249
 10
251.594136
 20
140.56
 30
0.0
 11
251.578456
 21
140.56
 31
0.0
 12
251.578456
 22
139.44
 32
0.0
 13
251.594136
 23
139.44
 33
0.0
  0
3DFACE
  8
0
  6
CONTINUOUS
 62
   249
 10
251.578456
 20
140.56
 30
0.0
 11
251.562776
 21
140.56
 31
0.0
 12
251.562776
 22
139.44
 32
0.0
 13
251.578456
 23
139.44
 33
0.0
  0
3DFACE
  8
0
  6
CONTINUOUS
 62
   249
 10
251.562776
 20
140.56
 30
0.0
 11
251.547096
 21
140.56
 31
0.0
 12
251.547096
 22
139.44
 32
0.0
 13
251.562776
 23
139.44
 33
0.0
  0
3DFACE
  8
0
  6
CONTINUOUS
 62
   249
 10
251.547096
 20
140.56
 30
0.0
 11
251.531416
 21
140.56
 31
0.0
 12
251.531416
 22
139.44
 32
0.0
 13
251.547096
 23
139.44
 33
0.0
  0
3DFACE
  8
0
  6
CONTINUOUS
 62
   249
 10
251.531416
 20
140.56
 30
0.0
 11
251.515736
 21
140.56
 31
0.0
 12
251.515736
 22
139.44
 32
0.0
 13
251.531416
 23
139.44
 33
0.0
  0
3DFACE
  8
0
  6
CONTINUOUS
 62
   249
 10
251.515736
 20
140.56
 30
0.0
 11
251.500056
 21
140.56
 31
0.0
 12
251.500056
 22
139.44
 32
0.0
 13
251.515736
 23
139.44
 33
0.0
  0
3DFACE
  8
0
  6
CONTINUOUS
 62
   249
 10
251.500056
 20
140.56
 30
0.0
 11
251.484376
 21
140.56
 31
0.0
 12
251.484376
 22
139.44
 32
0.0
 13
251.500056
 23
139.44
 33
0.0
  0
3DFACE
  8
0
  6
CONTINUOUS
 62
   249
 10
251.484376
 20
140.56
 30
0.0
 11
251.468696
 21
140.56
 31
0.0
 12
251.468696
 22
139.44
 32
0.0
 13
251.484376
 23
139.44
 33
0.0
  0
3DFACE
  8
0
  6
CONTINUOUS
 62
   249
 10
251.468696
 20
140.56
 30
0.0
 11
251.453016
 21
140.56
 31
0.0
 12
251.453016
 22
139.44
 32
0.0
 13
251.468696
 23
139.44
 33
0.0
  0
3DFACE
  8
0
  6
CONTINUOUS
 62
   249
 10
251.453016
 20
140.56
 30
0.0
 11
251.437336
 21
140.56
 31
0.0
 12
251.437336
 22
139.44
 32
0.0
 13
251.453016
 23
139.44
 33
0.0
  0
3DFACE
  8
0
  6
CONTINUOUS
 62
   249
 10
251.437336
 20
140.56
 30
0.0
 11
251.421656
 21
140.56
 31
0.0
 12
251.421656
 22
139.44
 32
0.0
 13
251.437336
 23
139.44
 33
0.0
  0
3DFACE
  8
0
  6
CONTINUOUS
 62
   249
 10
251.421656
 20
140.56
 30
0.0
 11
251.405976
 21
140.56
 31
0.0
 12
251.405976
 22
139.44
 32
0.0
 13
251.421656
 23
139.44
 33
0.0
  0
3DFACE
  8
0
  6
CONTINUOUS
 62
   249
 10
251.405976
 20
140.56
 30
0.0
 11
251.390296
 21
140.56
 31
0.0
 12
251.390296
 22
139.44
 32
0.0
 13
251.405976
 23
139.44
 33
0.0
  0
3DFACE
  8
0
  6
CONTINUOUS
 62
   249
 10
251.390296
 20
140.56
 30
0.0
 11
251.374616
 21
140.56
 31
0.0
 12
251.374616
 22
139.44
 32
0.0
 13
251.390296
 23
139.44
 33
0.0
  0
3DFACE
  8
0
  6
CONTINUOUS
 62
   249
 10
251.374616
 20
140.56
 30
0.0
 11
251.358936
 21
140.56
 31
0.0
 12
251.358936
 22
139.44
 32
0.0
 13
251.374616
 23
139.44
 33
0.0
  0
3DFACE
  8
0
  6
CONTINUOUS
 62
   249
 10
251.358936
 20
140.56
 30
0.0
 11
251.343256
 21
140.56
 31
0.0
 12
251.343256
 22
139.44
 32
0.0
 13
251.358936
 23
139.44
 33
0.0
  0
3DFACE
  8
0
  6
CONTINUOUS
 62
   249
 10
251.343256
 20
140.56
 30
0.0
 11
251.327576
 21
140.56
 31
0.0
 12
251.327576
 22
139.44
 32
0.0
 13
251.343256
 23
139.44
 33
0.0
  0
3DFACE
  8
0
  6
CONTINUOUS
 62
   249
 10
251.327576
 20
140.56
 30
0.0
 11
251.311896
 21
140.56
 31
0.0
 12
251.311896
 22
139.44
 32
0.0
 13
251.327576
 23
139.44
 33
0.0
  0
3DFACE
  8
0
  6
CONTINUOUS
 62
   249
 10
251.311896
 20
140.56
 30
0.0
 11
251.296216
 21
140.56
 31
0.0
 12
251.296216
 22
139.44
 32
0.0
 13
251.311896
 23
139.44
 33
0.0
  0
3DFACE
  8
0
  6
CONTINUOUS
 62
   249
 10
251.296216
 20
140.56
 30
0.0
 11
251.280536
 21
140.56
 31
0.0
 12
251.280536
 22
139.44
 32
0.0
 13
251.296216
 23
139.44
 33
0.0
  0
3DFACE
  8
0
  6
CONTINUOUS
 62
   249
 10
251.280536
 20
140.56
 30
0.0
 11
251.264856
 21
140.56
 31
0.0
 12
251.264856
 22
139.44
 32
0.0
 13
251.280536
 23
139.44
 33
0.0
  0
3DFACE
  8
0
  6
CONTINUOUS
 62
   249
 10
251.264856
 20
140.56
 30
0.0
 11
251.249176
 21
140.56
 31
0.0
 12
251.249176
 22
139.44
 32
0.0
 13
251.264856
 23
139.44
 33
0.0
  0
3DFACE
  8
0
  6
CONTINUOUS
 62
   249
 10
251.249176
 20
140.56
 30
0.0
 11
251.233496
 21
140.56
 31
0.0
 12
251.233496
 22
139.44
 32
0.0
 13
251.249176
 23
139.44
 33
0.0
  0
3DFACE
  8
0
  6
CONTINUOUS
 62
   249
 10
251.233496
 20
140.56
 30
0.0
 11
251.217816
 21
140.56
 31
0.0
 12
251.217816
 22
139.44
 32
0.0
 13
251.233496
 23
139.44
 33
0.0
  0
3DFACE
  8
0
  6
CONTINUOUS
 62
   249
 10
251.217816
 20
140.56
 30
0.0
 11
251.202136
 21
140.56
 31
0.0
 12
251.202136
 22
139.44
 32
0.0
 13
251.217816
 23
139.44
 33
0.0
  0
3DFACE
  8
0
  6
CONTINUOUS
 62
   249
 10
251.202136
 20
140.56
 30
0.0
 11
251.186456
 21
140.56
 31
0.0
 12
251.186456
 22
139.44
 32
0.0
 13
251.202136
 23
139.44
 33
0.0
  0
3DFACE
  8
0
  6
CONTINUOUS
 62
   249
 10
251.186456
 20
140.56
 30
0.0
 11
251.170776
 21
140.56
 31
0.0
 12
251.170776
 22
139.44
 32
0.0
 13
251.186456
 23
139.44
 33
0.0
  0
3DFACE
  8
0
  6
CONTINUOUS
 62
   249
 10
251.170776
 20
140.56
 30
0.0
 11
251.155096
 21
140.56
 31
0.0
 12
251.155096
 22
139.44
 32
0.0
 13
251.170776
 23
139.44
 33
0.0
  0
3DFACE
  8
0
  6
CONTINUOUS
 62
   249
 10
251.155096
 20
140.56
 30
0.0
 11
251.139416
 21
140.56
 31
0.0
 12
251.139416
 22
139.44
 32
0.0
 13
251.155096
 23
139.44
 33
0.0
  0
3DFACE
  8
0
  6
CONTINUOUS
 62
   249
 10
251.139416
 20
140.56
 30
0.0
 11
251.123736
 21
140.56
 31
0.0
 12
251.123736
 22
139.44
 32
0.0
 13
251.139416
 23
139.44
 33
0.0
  0
3DFACE
  8
0
  6
CONTINUOUS
 62
   249
 10
251.123736
 20
140.56
 30
0.0
 11
251.108056
 21
140.56
 31
0.0
 12
251.108056
 22
139.44
 32
0.0
 13
251.123736
 23
139.44
 33
0.0
  0
3DFACE
  8
0
  6
CONTINUOUS
 62
   249
 10
251.108056
 20
140.56
 30
0.0
 11
251.092376
 21
140.56
 31
0.0
 12
251.092376
 22
139.44
 32
0.0
 13
251.108056
 23
139.44
 33
0.0
  0
3DFACE
  8
0
  6
CONTINUOUS
 62
   249
 10
251.092376
 20
140.56
 30
0.0
 11
251.076696
 21
140.56
 31
0.0
 12
251.076696
 22
139.44
 32
0.0
 13
251.092376
 23
139.44
 33
0.0
  0
3DFACE
  8
0
  6
CONTINUOUS
 62
   249
 10
251.076696
 20
140.56
 30
0.0
 11
251.061016
 21
140.56
 31
0.0
 12
251.061016
 22
139.44
 32
0.0
 13
251.076696
 23
139.44
 33
0.0
  0
3DFACE
  8
0
  6
CONTINUOUS
 62
   249
 10
251.061016
 20
140.56
 30
0.0
 11
251.045336
 21
140.56
 31
0.0
 12
251.045336
 22
139.44
 32
0.0
 13
251.061016
 23
139.44
 33
0.0
  0
3DFACE
  8
0
  6
CONTINUOUS
 62
   249
 10
251.045336
 20
140.56
 30
0.0
 11
251.029656
 21
140.56
 31
0.0
 12
251.029656
 22
139.44
 32
0.0
 13
251.045336
 23
139.44
 33
0.0
  0
3DFACE
  8
0
  6
CONTINUOUS
 62
   249
 10
251.029656
 20
140.56
 30
0.0
 11
251.013976
 21
140.56
 31
0.0
 12
251.013976
 22
139.44
 32
0.0
 13
251.029656
 23
139.44
 33
0.0
  0
3DFACE
  8
0
  6
CONTINUOUS
 62
   249
 10
251.013976
 20
140.56
 30
0.0
 11
250.998296
 21
140.56
 31
0.0
 12
250.998296
 22
139.44
 32
0.0
 13
251.013976
 23
139.44
 33
0.0
  0
3DFACE
  8
0
  6
CONTINUOUS
 62
   249
 10
250.998296
 20
140.56
 30
0.0
 11
250.982616
 21
140.56
 31
0.0
 12
250.982616
 22
139.44
 32
0.0
 13
250.998296
 23
139.44
 33
0.0
  0
3DFACE
  8
0
  6
CONTINUOUS
 62
   249
 10
250.982616
 20
140.56
 30
0.0
 11
250.966936
 21
140.56
 31
0.0
 12
250.966936
 22
139.44
 32
0.0
 13
250.982616
 23
139.44
 33
0.0
  0
3DFACE
  8
0
  6
CONTINUOUS
 62
   249
 10
250.966936
 20
140.56
 30
0.0
 11
250.951256
 21
140.56
 31
0.0
 12
250.951256
 22
139.44
 32
0.0
 13
250.966936
 23
139.44
 33
0.0
  0
3DFACE
  8
0
  6
CONTINUOUS
 62
   249
 10
250.951256
 20
140.56
 30
0.0
 11
250.935576
 21
140.56
 31
0.0
 12
250.935576
 22
139.44
 32
0.0
 13
250.951256
 23
139.44
 33
0.0
  0
3DFACE
  8
0
  6
CONTINUOUS
 62
   249
 10
250.935576
 20
140.56
 30
0.0
 11
250.919896
 21
140.56
 31
0.0
 12
250.919896
 22
139.44
 32
0.0
 13
250.935576
 23
139.44
 33
0.0
  0
3DFACE
  8
0
  6
CONTINUOUS
 62
   249
 10
250.919896
 20
140.56
 30
0.0
 11
250.904216
 21
140.56
 31
0.0
 12
250.904216
 22
139.44
 32
0.0
 13
250.919896
 23
139.44
 33
0.0
  0
3DFACE
  8
0
  6
CONTINUOUS
 62
   249
 10
250.904216
 20
140.56
 30
0.0
 11
250.888536
 21
140.56
 31
0.0
 12
250.888536
 22
139.44
 32
0.0
 13
250.904216
 23
139.44
 33
0.0
  0
3DFACE
  8
0
  6
CONTINUOUS
 62
   249
 10
250.888536
 20
140.56
 30
0.0
 11
250.872856
 21
140.56
 31
0.0
 12
250.872856
 22
139.44
 32
0.0
 13
250.888536
 23
139.44
 33
0.0
  0
3DFACE
  8
0
  6
CONTINUOUS
 62
   249
 10
250.872856
 20
140.56
 30
0.0
 11
250.857176
 21
140.56
 31
0.0
 12
250.857176
 22
139.44
 32
0.0
 13
250.872856
 23
139.44
 33
0.0
  0
3DFACE
  8
0
  6
CONTINUOUS
 62
   249
 10
250.857176
 20
140.56
 30
0.0
 11
250.841496
 21
140.56
 31
0.0
 12
250.841496
 22
139.44
 32
0.0
 13
250.857176
 23
139.44
 33
0.0
  0
3DFACE
  8
0
  6
CONTINUOUS
 62
   249
 10
250.841496
 20
140.56
 30
0.0
 11
250.825816
 21
140.56
 31
0.0
 12
250.825816
 22
139.44
 32
0.0
 13
250.841496
 23
139.44
 33
0.0
  0
3DFACE
  8
0
  6
CONTINUOUS
 62
   249
 10
250.825816
 20
140.56
 30
0.0
 11
250.810136
 21
140.56
 31
0.0
 12
250.810136
 22
139.44
 32
0.0
 13
250.825816
 23
139.44
 33
0.0
  0
3DFACE
  8
0
  6
CONTINUOUS
 62
   249
 10
250.810136
 20
140.56
 30
0.0
 11
250.794456
 21
140.56
 31
0.0
 12
250.794456
 22
139.44
 32
0.0
 13
250.810136
 23
139.44
 33
0.0
  0
3DFACE
  8
0
  6
CONTINUOUS
 62
   249
 10
250.794456
 20
140.56
 30
0.0
 11
250.778776
 21
140.56
 31
0.0
 12
250.778776
 22
139.44
 32
0.0
 13
250.794456
 23
139.44
 33
0.0
  0
3DFACE
  8
0
  6
CONTINUOUS
 62
   249
 10
250.778776
 20
140.56
 30
0.0
 11
250.763096
 21
140.56
 31
0.0
 12
250.763096
 22
139.44
 32
0.0
 13
250.778776
 23
139.44
 33
0.0
  0
3DFACE
  8
0
  6
CONTINUOUS
 62
   249
 10
250.763096
 20
140.56
 30
0.0
 11
250.747416
 21
140.56
 31
0.0
 12
250.747416
 22
139.44
 32
0.0
 13
250.763096
 23
139.44
 33
0.0
  0
3DFACE
  8
0
  6
CONTINUOUS
 62
   249
 10
250.747416
 20
140.56
 30
0.0
 11
250.731736
 21
140.56
 31
0.0
 12
250.731736
 22
139.44
 32
0.0
 13
250.747416
 23
139.44
 33
0.0
  0
3DFACE
  8
0
  6
CONTINUOUS
 62
   249
 10
250.731736
 20
140.56
 30
0.0
 11
250.716056
 21
140.56
 31
0.0
 12
250.716056
 22
139.44
 32
0.0
 13
250.731736
 23
139.44
 33
0.0
  0
3DFACE
  8
0
  6
CONTINUOUS
 62
   249
 10
250.716056
 20
140.56
 30
0.0
 11
250.700376
 21
140.56
 31
0.0
 12
250.700376
 22
139.44
 32
0.0
 13
250.716056
 23
139.44
 33
0.0
  0
3DFACE
  8
0
  6
CONTINUOUS
 62
   249
 10
250.700376
 20
140.56
 30
0.0
 11
250.684696
 21
140.56
 31
0.0
 12
250.684696
 22
139.44
 32
0.0
 13
250.700376
 23
139.44
 33
0.0
  0
3DFACE
  8
0
  6
CONTINUOUS
 62
   249
 10
250.684696
 20
140.56
 30
0.0
 11
250.669016
 21
140.56
 31
0.0
 12
250.669016
 22
139.44
 32
0.0
 13
250.684696
 23
139.44
 33
0.0
  0
3DFACE
  8
0
  6
CONTINUOUS
 62
   249
 10
250.669016
 20
140.56
 30
0.0
 11
250.653336
 21
140.56
 31
0.0
 12
250.653336
 22
139.44
 32
0.0
 13
250.669016
 23
139.44
 33
0.0
  0
3DFACE
  8
0
  6
CONTINUOUS
 62
   249
 10
250.653336
 20
140.56
 30
0.0
 11
250.637656
 21
140.56
 31
0.0
 12
250.637656
 22
139.44
 32
0.0
 13
250.653336
 23
139.44
 33
0.0
  0
3DFACE
  8
0
  6
CONTINUOUS
 62
   249
 10
250.637656
 20
140.56
 30
0.0
 11
250.621976
 21
140.56
 31
0.0
 12
250.621976
 22
139.44
 32
0.0
 13
250.637656
 23
139.44
 33
0.0
  0
3DFACE
  8
0
  6
CONTINUOUS
 62
   249
 10
250.621976
 20
140.56
 30
0.0
 11
250.606296
 21
140.56
 31
0.0
 12
250.606296
 22
139.44
 32
0.0
 13
250.621976
 23
139.44
 33
0.0
  0
3DFACE
  8
0
  6
CONTINUOUS
 62
   249
 10
250.606296
 20
140.56
 30
0.0
 11
250.590616
 21
140.56
 31
0.0
 12
250.590616
 22
139.44
 32
0.0
 13
250.606296
 23
139.44
 33
0.0
  0
3DFACE
  8
0
  6
CONTINUOUS
 62
   249
 10
250.590616
 20
140.56
 30
0.0
 11
250.574936
 21
140.56
 31
0.0
 12
250.574936
 22
139.44
 32
0.0
 13
250.590616
 23
139.44
 33
0.0
  0
3DFACE
  8
0
  6
CONTINUOUS
 62
   249
 10
250.574936
 20
140.56
 30
0.0
 11
250.559256
 21
140.56
 31
0.0
 12
250.559256
 22
139.44
 32
0.0
 13
250.574936
 23
139.44
 33
0.0
  0
3DFACE
  8
0
  6
CONTINUOUS
 62
   249
 10
250.559256
 20
140.56
 30
0.0
 11
250.543576
 21
140.56
 31
0.0
 12
250.543576
 22
139.44
 32
0.0
 13
250.559256
 23
139.44
 33
0.0
  0
3DFACE
  8
0
  6
CONTINUOUS
 62
   249
 10
250.543576
 20
140.56
 30
0.0
 11
250.527896
 21
140.56
 31
0.0
 12
250.527896
 22
139.44
 32
0.0
 13
250.543576
 23
139.44
 33
0.0
  0
3DFACE
  8
0
  6
CONTINUOUS
 62
   249
 10
250.527896
 20
140.56
 30
0.0
 11
250.512216
 21
140.56
 31
0.0
 12
250.512216
 22
139.44
 32
0.0
 13
250.527896
 23
139.44
 33
0.0
  0
3DFACE
  8
0
  6
CONTINUOUS
 62
   249
 10
250.512216
 20
140.56
 30
0.0
 11
250.496536
 21
140.56
 31
0.0
 12
250.496536
 22
139.44
 32
0.0
 13
250.512216
 23
139.44
 33
0.0
  0
3DFACE
  8
0
  6
CONTINUOUS
 62
   249
 10
250.496536
 20
140.56
 30
0.0
 11
250.480856
 21
140.56
 31
0.0
 12
250.480856
 22
139.44
 32
0.0
 13
250.496536
 23
139.44
 33
0.0
  0
3DFACE
  8
0
  6
CONTINUOUS
 62
   249
 10
250.480856
 20
140.56
 30
0.0
 11
250.465176
 21
140.56
 31
0.0
 12
250.465176
 22
139.44
 32
0.0
 13
250.480856
 23
139.44
 33
0.0
  0
3DFACE
  8
0
  6
CONTINUOUS
 62
   249
 10
250.465176
 20
140.56
 30
0.0
 11
250.449496
 21
140.56
 31
0.0
 12
250.449496
 22
139.44
 32
0.0
 13
250.465176
 23
139.44
 33
0.0
  0
3DFACE
  8
0
  6
CONTINUOUS
 62
   249
 10
250.449496
 20
140.56
 30
0.0
 11
250.433816
 21
140.56
 31
0.0
 12
250.433816
 22
139.44
 32
0.0
 13
250.449496
 23
139.44
 33
0.0
  0
3DFACE
  8
0
  6
CONTINUOUS
 62
   249
 10
250.433816
 20
140.56
 30
0.0
 11
250.418136
 21
140.56
 31
0.0
 12
250.418136
 22
139.44
 32
0.0
 13
250.433816
 23
139.44
 33
0.0
  0
3DFACE
  8
0
  6
CONTINUOUS
 62
   249
 10
250.418136
 20
140.56
 30
0.0
 11
250.402456
 21
140.56
 31
0.0
 12
250.402456
 22
139.44
 32
0.0
 13
250.418136
 23
139.44
 33
0.0
  0
3DFACE
  8
0
  6
CONTINUOUS
 62
   249
 10
250.402456
 20
140.56
 30
0.0
 11
250.386776
 21
140.56
 31
0.0
 12
250.386776
 22
139.44
 32
0.0
 13
250.402456
 23
139.44
 33
0.0
  0
3DFACE
  8
0
  6
CONTINUOUS
 62
   249
 10
250.386776
 20
140.56
 30
0.0
 11
250.371096
 21
140.56
 31
0.0
 12
250.371096
 22
139.44
 32
0.0
 13
250.386776
 23
139.44
 33
0.0
  0
3DFACE
  8
0
  6
CONTINUOUS
 62
   249
 10
250.371096
 20
140.56
 30
0.0
 11
250.355416
 21
140.56
 31
0.0
 12
250.355416
 22
139.44
 32
0.0
 13
250.371096
 23
139.44
 33
0.0
  0
3DFACE
  8
0
  6
CONTINUOUS
 62
   249
 10
250.355416
 20
140.56
 30
0.0
 11
250.339736
 21
140.56
 31
0.0
 12
250.339736
 22
139.44
 32
0.0
 13
250.355416
 23
139.44
 33
0.0
  0
3DFACE
  8
0
  6
CONTINUOUS
 62
   249
 10
250.339736
 20
140.56
 30
0.0
 11
250.324056
 21
140.56
 31
0.0
 12
250.324056
 22
139.44
 32
0.0
 13
250.339736
 23
139.44
 33
0.0
  0
3DFACE
  8
0
  6
CONTINUOUS
 62
   249
 10
250.324056
 20
140.56
 30
0.0
 11
250.308376
 21
140.56
 31
0.0
 12
250.308376
 22
139.44
 32
0.0
 13
250.324056
 23
139.44
 33
0.0
  0
3DFACE
  8
0
  6
CONTINUOUS
 62
   249
 10
250.308376
 20
140.56
 30
0.0
 11
250.292696
 21
140.56
 31
0.0
 12
250.292696
 22
139.44
 32
0.0
 13
250.308376
 23
139.44
 33
0.0
  0
3DFACE
  8
0
  6
CONTINUOUS
 62
   249
 10
250.292696
 20
140.56
 30
0.0
 11
250.277016
 21
140.56
 31
0.0
 12
250.277016
 22
139.44
 32
0.0
 13
250.292696
 23
139.44
 33
0.0
  0
3DFACE
  8
0
  6
CONTINUOUS
 62
   249
 10
250.277016
 20
140.56
 30
0.0
 11
250.261336
 21
140.56
 31
0.0
 12
250.261336
 22
139.44
 32
0.0
 13
250.277016
 23
139.44
 33
0.0
  0
3DFACE
  8
0
  6
CONTINUOUS
 62
   249
 10
250.261336
 20
140.56
 30
0.0
 11
250.245656
 21
140.56
 31
0.0
 12
250.245656
 22
139.44
 32
0.0
 13
250.261336
 23
139.44
 33
0.0
  0
3DFACE
  8
0
  6
CONTINUOUS
 62
   249
 10
250.245656
 20
140.56
 30
0.0
 11
250.229976
 21
140.56
 31
0.0
 12
250.229976
 22
139.44
 32
0.0
 13
250.245656
 23
139.44
 33
0.0
  0
3DFACE
  8
0
  6
CONTINUOUS
 62
   249
 10
250.229976
 20
140.56
 30
0.0
 11
250.214296
 21
140.56
 31
0.0
 12
250.214296
 22
139.44
 32
0.0
 13
250.229976
 23
139.44
 33
0.0
  0
3DFACE
  8
0
  6
CONTINUOUS
 62
   249
 10
250.214296
 20
140.56
 30
0.0
 11
250.198616
 21
140.56
 31
0.0
 12
250.198616
 22
139.44
 32
0.0
 13
250.214296
 23
139.44
 33
0.0
  0
3DFACE
  8
0
  6
CONTINUOUS
 62
   249
 10
250.198616
 20
140.56
 30
0.0
 11
250.182936
 21
140.56
 31
0.0
 12
250.182936
 22
139.44
 32
0.0
 13
250.198616
 23
139.44
 33
0.0
  0
3DFACE
  8
0
  6
CONTINUOUS
 62
   249
 10
250.182936
 20
140.56
 30
0.0
 11
250.167256
 21
140.56
 31
0.0
 12
250.167256
 22
139.44
 32
0.0
 13
250.182936
 23
139.44
 33
0.0
  0
3DFACE
  8
0
  6
CONTINUOUS
 62
   249
 10
250.167256
 20
140.56
 30
0.0
 11
250.151576
 21
140.56
 31
0.0
 12
250.151576
 22
139.44
 32
0.0
 13
250.167256
 23
139.44
 33
0.0
  0
3DFACE
  8
0
  6
CONTINUOUS
 62
   249
 10
250.151576
 20
140.56
 30
0.0
 11
250.135896
 21
140.56
 31
0.0
 12
250.135896
 22
139.44
 32
0.0
 13
250.151576
 23
139.44
 33
0.0
  0
3DFACE
  8
0
  6
CONTINUOUS
 62
   249
 10
250.135896
 20
140.56
 30
0.0
 11
250.120216
 21
140.56
 31
0.0
 12
250.120216
 22
139.44
 32
0.0
 13
250.135896
 23
139.44
 33
0.0
  0
3DFACE
  8
0
  6
CONTINUOUS
 62
   249
 10
250.120216
 20
140.56
 30
0.0
 11
250.104536
 21
140.56
 31
0.0
 12
250.104536
 22
139.44
 32
0.0
 13
250.120216
 23
139.44
 33
0.0
  0
3DFACE
  8
0
  6
CONTINUOUS
 62
   249
 10
250.104536
 20
140.56
 30
0.0
 11
250.088856
 21
140.56
 31
0.0
 12
250.088856
 22
139.44
 32
0.0
 13
250.104536
 23
139.44
 33
0.0
  0
3DFACE
  8
0
  6
CONTINUOUS
 62
   249
 10
250.088856
 20
140.56
 30
0.0
 11
250.073176
 21
140.56
 31
0.0
 12
250.073176
 22
139.44
 32
0.0
 13
250.088856
 23
139.44
 33
0.0
  0
3DFACE
  8
0
  6
CONTINUOUS
 62
   249
 10
250.073176
 20
140.56
 30
0.0
 11
250.057496
 21
140.56
 31
0.0
 12
250.057496
 22
139.44
 32
0.0
 13
250.073176
 23
139.44
 33
0.0
  0
3DFACE
  8
0
  6
CONTINUOUS
 62
   249
 10
250.057496
 20
140.56
 30
0.0
 11
250.041816
 21
140.56
 31
0.0
 12
250.041816
 22
139.44
 32
0.0
 13
250.057496
 23
139.44
 33
0.0
  0
3DFACE
  8
0
  6
CONTINUOUS
 62
   249
 10
250.041816
 20
140.56
 30
0.0
 11
250.026136
 21
140.56
 31
0.0
 12
250.026136
 22
139.44
 32
0.0
 13
250.041816
 23
139.44
 33
0.0
  0
3DFACE
  8
0
  6
CONTINUOUS
 62
   249
 10
250.026136
 20
140.56
 30
0.0
 11
250.010456
 21
140.56
 31
0.0
 12
250.010456
 22
139.44
 32
0.0
 13
250.026136
 23
139.44
 33
0.0
  0
3DFACE
  8
0
  6
CONTINUOUS
 62
   249
 10
250.010456
 20
140.56
 30
0.0
 11
249.994776
 21
140.56
 31
0.0
 12
249.994776
 22
139.44
 32
0.0
 13
250.010456
 23
139.44
 33
0.0
  0
3DFACE
  8
0
  6
CONTINUOUS
 62
   249
 10
249.994776
 20
140.56
 30
0.0
 11
249.979096
 21
140.56
 31
0.0
 12
249.979096
 22
139.44
 32
0.0
 13
249.994776
 23
139.44
 33
0.0
  0
3DFACE
  8
0
  6
CONTINUOUS
 62
   249
 10
249.979096
 20
140.56
 30
0.0
 11
249.963416
 21
140.56
 31
0.0
 12
249.963416
 22
139.44
 32
0.0
 13
249.979096
 23
139.44
 33
0.0
  0
3DFACE
  8
0
  6
CONTINUOUS
 62
   249
 10
249.963416
 20
140.56
 30
0.0
 11
249.947736
 21
140.56
 31
0.0
 12
249.947736
 22
139.44
 32
0.0
 13
249.963416
 23
139.44
 33
0.0
  0
3DFACE
  8
0
  6
CONTINUOUS
 62
   249
 10
249.947736
 20
140.56
 30
0.0
 11
249.932056
 21
140.56
 31
0.0
 12
249.932056
 22
139.44
 32
0.0
 13
249.947736
 23
139.44
 33
0.0
  0
3DFACE
  8
0
  6
CONTINUOUS
 62
   249
 10
249.932056
 20
140.56
 30
0.0
 11
249.916376
 21
140.56
 31
0.0
 12
249.916376
 22
139.44
 32
0.0
 13
249.932056
 23
139.44
 33
0.0
  0
3DFACE
  8
0
  6
CONTINUOUS
 62
   249
 10
249.916376
 20
140.56
 30
0.0
 11
249.900696
 21
140.56
 31
0.0
 12
249.900696
 22
139.44
 32
0.0
 13
249.916376
 23
139.44
 33
0.0
  0
3DFACE
  8
0
  6
CONTINUOUS
 62
   249
 10
249.900696
 20
140.56
 30
0.0
 11
249.885016
 21
140.56
 31
0.0
 12
249.885016
 22
139.44
 32
0.0
 13
249.900696
 23
139.44
 33
0.0
  0
3DFACE
  8
0
  6
CONTINUOUS
 62
   249
 10
249.885016
 20
140.56
 30
0.0
 11
249.869336
 21
140.56
 31
0.0
 12
249.869336
 22
139.44
 32
0.0
 13
249.885016
 23
139.44
 33
0.0
  0
3DFACE
  8
0
  6
CONTINUOUS
 62
   249
 10
249.869336
 20
140.56
 30
0.0
 11
249.853656
 21
140.56
 31
0.0
 12
249.853656
 22
139.44
 32
0.0
 13
249.869336
 23
139.44
 33
0.0
  0
3DFACE
  8
0
  6
CONTINUOUS
 62
   249
 10
249.853656
 20
140.56
 30
0.0
 11
249.837976
 21
140.56
 31
0.0
 12
249.837976
 22
139.44
 32
0.0
 13
249.853656
 23
139.44
 33
0.0
  0
3DFACE
  8
0
  6
CONTINUOUS
 62
   249
 10
249.837976
 20
140.56
 30
0.0
 11
249.822296
 21
140.56
 31
0.0
 12
249.822296
 22
139.44
 32
0.0
 13
249.837976
 23
139.44
 33
0.0
  0
3DFACE
  8
0
  6
CONTINUOUS
 62
   249
 10
249.822296
 20
140.56
 30
0.0
 11
249.806616
 21
140.56
 31
0.0
 12
249.806616
 22
139.44
 32
0.0
 13
249.822296
 23
139.44
 33
0.0
  0
3DFACE
  8
0
  6
CONTINUOUS
 62
   249
 10
249.806616
 20
140.56
 30
0.0
 11
249.790936
 21
140.56
 31
0.0
 12
249.790936
 22
139.44
 32
0.0
 13
249.806616
 23
139.44
 33
0.0
  0
3DFACE
  8
0
  6
CONTINUOUS
 62
   249
 10
249.790936
 20
140.56
 30
0.0
 11
249.775256
 21
140.56
 31
0.0
 12
249.775256
 22
139.44
 32
0.0
 13
249.790936
 23
139.44
 33
0.0
  0
3DFACE
  8
0
  6
CONTINUOUS
 62
   249
 10
249.775256
 20
140.56
 30
0.0
 11
249.759576
 21
140.56
 31
0.0
 12
249.759576
 22
139.44
 32
0.0
 13
249.775256
 23
139.44
 33
0.0
  0
3DFACE
  8
0
  6
CONTINUOUS
 62
   249
 10
249.759576
 20
140.56
 30
0.0
 11
249.743896
 21
140.56
 31
0.0
 12
249.743896
 22
139.44
 32
0.0
 13
249.759576
 23
139.44
 33
0.0
  0
3DFACE
  8
0
  6
CONTINUOUS
 62
   249
 10
249.743896
 20
140.56
 30
0.0
 11
249.728216
 21
140.56
 31
0.0
 12
249.728216
 22
139.44
 32
0.0
 13
249.743896
 23
139.44
 33
0.0
  0
3DFACE
  8
0
  6
CONTINUOUS
 62
   249
 10
249.728216
 20
140.56
 30
0.0
 11
249.712536
 21
140.56
 31
0.0
 12
249.712536
 22
139.44
 32
0.0
 13
249.728216
 23
139.44
 33
0.0
  0
3DFACE
  8
0
  6
CONTINUOUS
 62
   249
 10
249.712536
 20
140.56
 30
0.0
 11
249.696856
 21
140.56
 31
0.0
 12
249.696856
 22
139.44
 32
0.0
 13
249.712536
 23
139.44
 33
0.0
  0
3DFACE
  8
0
  6
CONTINUOUS
 62
   249
 10
249.696856
 20
140.56
 30
0.0
 11
249.681176
 21
140.56
 31
0.0
 12
249.681176
 22
139.44
 32
0.0
 13
249.696856
 23
139.44
 33
0.0
  0
3DFACE
  8
0
  6
CONTINUOUS
 62
   249
 10
249.681176
 20
140.56
 30
0.0
 11
249.665496
 21
140.56
 31
0.0
 12
249.665496
 22
139.44
 32
0.0
 13
249.681176
 23
139.44
 33
0.0
  0
3DFACE
  8
0
  6
CONTINUOUS
 62
   249
 10
249.665496
 20
140.56
 30
0.0
 11
249.649816
 21
140.56
 31
0.0
 12
249.649816
 22
139.44
 32
0.0
 13
249.665496
 23
139.44
 33
0.0
  0
3DFACE
  8
0
  6
CONTINUOUS
 62
   249
 10
249.649816
 20
140.56
 30
0.0
 11
249.634136
 21
140.56
 31
0.0
 12
249.634136
 22
139.44
 32
0.0
 13
249.649816
 23
139.44
 33
0.0
  0
3DFACE
  8
0
  6
CONTINUOUS
 62
   249
 10
249.634136
 20
140.56
 30
0.0
 11
249.618456
 21
140.56
 31
0.0
 12
249.618456
 22
139.44
 32
0.0
 13
249.634136
 23
139.44
 33
0.0
  0
3DFACE
  8
0
  6
CONTINUOUS
 62
   249
 10
249.618456
 20
140.56
 30
0.0
 11
249.602776
 21
140.56
 31
0.0
 12
249.602776
 22
139.44
 32
0.0
 13
249.618456
 23
139.44
 33
0.0
  0
3DFACE
  8
0
  6
CONTINUOUS
 62
   249
 10
249.602776
 20
140.56
 30
0.0
 11
249.587096
 21
140.56
 31
0.0
 12
249.587096
 22
139.44
 32
0.0
 13
249.602776
 23
139.44
 33
0.0
  0
3DFACE
  8
0
  6
CONTINUOUS
 62
   249
 10
249.587096
 20
140.56
 30
0.0
 11
249.571416
 21
140.56
 31
0.0
 12
249.571416
 22
139.44
 32
0.0
 13
249.587096
 23
139.44
 33
0.0
  0
3DFACE
  8
0
  6
CONTINUOUS
 62
   249
 10
249.571416
 20
140.56
 30
0.0
 11
249.555736
 21
140.56
 31
0.0
 12
249.555736
 22
139.44
 32
0.0
 13
249.571416
 23
139.44
 33
0.0
  0
3DFACE
  8
0
  6
CONTINUOUS
 62
   249
 10
249.555736
 20
140.56
 30
0.0
 11
249.540056
 21
140.56
 31
0.0
 12
249.540056
 22
139.44
 32
0.0
 13
249.555736
 23
139.44
 33
0.0
  0
3DFACE
  8
0
  6
CONTINUOUS
 62
   249
 10
249.540056
 20
140.56
 30
0.0
 11
249.524376
 21
140.56
 31
0.0
 12
249.524376
 22
139.44
 32
0.0
 13
249.540056
 23
139.44
 33
0.0
  0
3DFACE
  8
0
  6
CONTINUOUS
 62
   249
 10
249.524376
 20
140.56
 30
0.0
 11
249.508696
 21
140.56
 31
0.0
 12
249.508696
 22
139.44
 32
0.0
 13
249.524376
 23
139.44
 33
0.0
  0
3DFACE
  8
0
  6
CONTINUOUS
 62
   249
 10
249.508696
 20
140.56
 30
0.0
 11
249.493016
 21
140.56
 31
0.0
 12
249.493016
 22
139.44
 32
0.0
 13
249.508696
 23
139.44
 33
0.0
  0
3DFACE
  8
0
  6
CONTINUOUS
 62
   249
 10
249.493016
 20
140.56
 30
0.0
 11
249.477336
 21
140.56
 31
0.0
 12
249.477336
 22
139.44
 32
0.0
 13
249.493016
 23
139.44
 33
0.0
  0
3DFACE
  8
0
  6
CONTINUOUS
 62
   249
 10
249.477336
 20
140.56
 30
0.0
 11
249.461656
 21
140.56
 31
0.0
 12
249.461656
 22
139.44
 32
0.0
 13
249.477336
 23
139.44
 33
0.0
  0
3DFACE
  8
0
  6
CONTINUOUS
 62
   249
 10
249.461656
 20
140.56
 30
0.0
 11
249.445976
 21
140.56
 31
0.0
 12
249.445976
 22
139.44
 32
0.0
 13
249.461656
 23
139.44
 33
0.0
  0
LINE
  8
0
  6
CONTINUOUS
 62
   249
 10
228.465688
 20
208.664635
 30
0.0
 11
226.119923
 21
209.999989
 31
0.0
  0
LINE
  8
0
  6
CONTINUOUS
 62
   249
 10
226.119923
 20
209.999989
 30
0.0
 11
228.465688
 21
211.189908
 31
0.0
  0
ARC
  8
0
  6
CONTINUOUS
 62
   249
 10
225.0
 20
190.0
 30
0.0
 40
0.5
 50
180.0
 51
0.0
  0
ARC
  8
0
  6
CONTINUOUS
 62
   249
 10
225.0
 20
190.0
 30
0.0
 40
0.5
 50
0.0
 51
180.0
  0
ARC
  8
0
  6
CONTINUOUS
 62
   249
 10
220.0
 20
210.0
 30
0.0
 40
0.5
 50
180.0
 51
0.0
  0
ARC
  8
0
  6
CONTINUOUS
 62
   249
 10
220.0
 20
210.0
 30
0.0
 40
0.5
 50
0.0
 51
180.0
  0
LINE
  8
0
  6
CONTINUOUS
 62
   249
 10
210.551475
 20
223.729181
 30
0.0
 11
211.438362
 21
223.729181
 31
0.0
  0
LINE
  8
0
  6
CONTINUOUS
 62
   249
 10
210.220371
 20
224.340814
 30
0.0
 11
211.804942
 21
224.340814
 31
0.0
  0
LINE
  8
0
  6
CONTINUOUS
 62
   249
 10
211.036307
 20
224.962876
 30
0.0
 11
212.230648
 21
224.962876
 31
0.0
  0
LINE
  8
0
  6
CONTINUOUS
 62
   249
 10
209.841966
 20
224.962876
 30
0.0
 11
211.036307
 21
224.962876
 31
0.0
  0
LINE
  8
0
  6
CONTINUOUS
 62
   249
 10
211.052194
 20
226.317146
 30
0.0
 11
211.052194
 21
224.962876
 31
0.0
  0
LINE
  8
0
  6
CONTINUOUS
 62
   249
 10
366.518605
 20
252.780967
 30
0.0
 11
367.405492
 21
252.780967
 31
0.0
  0
LINE
  8
0
  6
CONTINUOUS
 62
   249
 10
366.1875
 20
253.3926
 30
0.0
 11
367.772071
 21
253.3926
 31
0.0
  0
LINE
  8
0
  6
CONTINUOUS
 62
   249
 10
367.003436
 20
254.014662
 30
0.0
 11
368.197777
 21
254.014662
 31
0.0
  0
LINE
  8
0
  6
CONTINUOUS
 62
   249
 10
365.809095
 20
254.014662
 30
0.0
 11
367.003436
 21
254.014662
 31
0.0
  0
LINE
  8
0
  6
CONTINUOUS
 62
   249
 10
367.019323
 20
255.368933
 30
0.0
 11
367.019323
 21
254.014662
 31
0.0
  0
LINE
  8
0
  6
CONTINUOUS
 62
   249
 10
324.84112
 20
218.393726
 30
0.0
 11
329.507924
 21
218.393726
 31
0.0
  0
LINE
  8
0
  6
CONTINUOUS
 62
   249
 10
326.383903
 20
221.479291
 30
0.0
 11
324.84112
 21
218.393726
 31
0.0
  0
LINE
  8
0
  6
CONTINUOUS
 62
   249
 10
329.507924
 20
218.393726
 30
0.0
 11
327.965142
 21
221.479291
 31
0.0
  0
ARC
  8
0
  6
CONTINUOUS
 62
   249
 10
323.69296
 20
242.708687
 30
0.0
 40
0.5
 50
180.0
 51
0.0
  0
ARC
  8
0
  6
CONTINUOUS
 62
   249
 10
323.69296
 20
242.708687
 30
0.0
 40
0.5
 50
0.0
 51
180.0
  0
LINE
  8
0
  6
CONTINUOUS
 62
   249
 10
366.649769
 20
243.005768
 30
0.0
 11
367.536656
 21
243.005768
 31
0.0
  0
LINE
  8
0
  6
CONTINUOUS
 62
   249
 10
366.318665
 20
243.617401
 30
0.0
 11
367.903236
 21
243.617401
 31
0.0
  0
LINE
  8
0
  6
CONTINUOUS
 62
   249
 10
367.134601
 20
244.239464
 30
0.0
 11
368.328942
 21
244.239464
 31
0.0
  0
LINE
  8
0
  6
CONTINUOUS
 62
   249
 10
365.94026
 20
244.239464
 30
0.0
 11
367.134601
 21
244.239464
 31
0.0
  0
LINE
  8
0
  6
CONTINUOUS
 62
   249
 10
367.150487
 20
245.593734
 30
0.0
 11
367.150487
 21
244.239464
 31
0.0
  0
ENDSEC
  0
EOF
